  0
SECTION
  2
HEADER
  9
$ACADVER
  1
AC1015
  9
$ACADMAINTVER
 70
     6
  9
$DWGCODEPAGE
  3
ANSI_932
  9
$INSBASE
 10
0.0
 20
0.0
 30
0.0
  9
$EXTMIN
 10
1.000000E+20
 20
1.000000E+20
 30
1.000000E+20
  9
$EXTMAX
 10
-1.000000E+20
 20
-1.000000E+20
 30
-1.000000E+20
  9
$LIMMIN
 10
0.0
 20
0.0
  9
$LIMMAX
 10
0.0
 20
0.0
  9
$ORTHOMODE
 70
     0
  9
$REGENMODE
 70
     1
  9
$FILLMODE
 70
     1
  9
$QTEXTMODE
 70
     0
  9
$MIRRTEXT
 70
     1
  9
$LTSCALE
 40
1.0
  9
$ATTMODE
 70
     1
  9
$TEXTSIZE
 40
7.0
  9
$TRACEWID
 40
0.05
  9
$TEXTSTYLE
  7
Standard
  9
$CLAYER
  8
0
  9
$CELTYPE
  6
Continuous
  9
$CECOLOR
 62
   256
  9
$CELTSCALE
 40
1.0
  9
$DISPSILH
 70
     0
  9
$DIMSCALE
 40
1.0
  9
$DIMASZ
 40
1.931852
  9
$DIMEXO
 40
1.0
  9
$DIMDLI
 40
0.38
  9
$DIMRND
 40
0.0
  9
$DIMDLE
 40
0.0
  9
$DIMEXE
 40
2.0
  9
$DIMTP
 40
0.0
  9
$DIMTM
 40
0.0
  9
$DIMTXT
 40
10.0
  9
$DIMCEN
 40
0.09
  9
$DIMTSZ
 40
0.0
  9
$DIMTOL
 70
     0
  9
$DIMLIM
 70
     0
  9
$DIMTIH
 70
     1
  9
$DIMTOH
 70
     1
  9
$DIMSE1
 70
     0
  9
$DIMSE2
 70
     0
  9
$DIMTAD
 70
     1
  9
$DIMZIN
 70
     0
  9
$DIMBLK
  1

  9
$DIMASO
 70
     1
  9
$DIMSHO
 70
     1
  9
$DIMPOST
  1

  9
$DIMAPOST
  1

  9
$DIMALT
 70
     0
  9
$DIMALTD
 70
     2
  9
$DIMALTF
 40
25.4
  9
$DIMLFAC
 40
1.0
  9
$DIMTOFL
 70
     0
  9
$DIMTVP
 40
0.0
  9
$DIMTIX
 70
     0
  9
$DIMSOXD
 70
     0
  9
$DIMSAH
 70
     0
  9
$DIMBLK1
  1

  9
$DIMBLK2
  1

  9
$DIMSTYLE
  2
Standard
  9
$DIMCLRD
 70
     0
  9
$DIMCLRE
 70
     0
  9
$DIMCLRT
 70
     0
  9
$DIMTFAC
 40
0.714286
  9
$DIMGAP
 40
0.09
  9
$DIMJUST
 70
     0
  9
$DIMSD1
 70
     0
  9
$DIMSD2
 70
     0
  9
$DIMTOLJ
 70
     1
  9
$DIMTZIN
 70
     0
  9
$DIMALTZ
 70
     0
  9
$DIMALTTZ
 70
     0
  9
$DIMUPT
 70
     0
  9
$DIMDEC
 70
     4
  9
$DIMTDEC
 70
     4
  9
$DIMALTU
 70
     2
  9
$DIMALTTD
 70
     2
  9
$DIMTXSTY
  7
Standard
  9
$DIMAUNIT
 70
     0
  9
$DIMADEC
 70
     0
  9
$DIMALTRND
 40
0.0
  9
$DIMAZIN
 70
     0
  9
$DIMDSEP
 70
     0
  9
$DIMATFIT
 70
     3
  9
$DIMFRAC
 70
     0
  9
$DIMLDRBLK
  1

  9
$DIMLUNIT
 70
     2
  9
$DIMLWD
 70
     0
  9
$DIMLWE
 70
     0
  9
$DIMTMOVE
 70
     0
  9
$LUNITS
 70
     2
  9
$LUPREC
 70
     3
  9
$SKETCHINC
 40
0.1
  9
$FILLETRAD
 40
0.0
  9
$AUNITS
 70
     0
  9
$AUPREC
 70
     0
  9
$MENU
  1
acad
  9
$ELEVATION
 40
0.0
  9
$PELEVATION
 40
0.0
  9
$THICKNESS
 40
0.0
  9
$LIMCHECK
 70
     0
  9
$CHAMFERA
 40
0.0
  9
$CHAMFERB
 40
0.0
  9
$CHAMFERC
 40
0.0
  9
$CHAMFERD
 40
0.0
  9
$SKPOLY
 70
     0
  9
$TDCREATE
 40
0.000000000
  9
$TDUCREATE
 40
0.000000000
  9
$TDUPDATE
 40
0.000000000
  9
$TDUUPDATE
 40
0.000000000
  9
$TDINDWG
 40
0.0000000000
  9
$TDUSRTIMER
 40
0.0000000000
  9
$USRTIMER
 70
     1
  9
$ANGBASE
 50
0.0
  9
$ANGDIR
 70
     0
  9
$PDMODE
 70
     0
  9
$PDSIZE
 40
0.0
  9
$PLINEWID
 40
0.0
  9
$SPLFRAME
 70
     0
  9
$SPLINETYPE
 70
     6
  9
$SPLINESEGS
 70
     8
  9
$HANDSEED
  5
505
  9
$SURFTAB1
 70
     6
  9
$SURFTAB2
 70
     6
  9
$SURFTYPE
 70
     6
  9
$SURFU
 70
     6
  9
$SURFV
 70
     6
  9
$UCSBASE
  2

  9
$UCSNAME
  2

  9
$UCSORG
 10
0.0
 20
0.0
 30
0.0
  9
$UCSXDIR
 10
1.0
 20
0.0
 30
0.0
  9
$UCSYDIR
 10
0.0
 20
1.0
 30
0.0
  9
$UCSORTHOREF
  2

  9
$UCSORTHOVIEW
 70
     0
  9
$UCSORGTOP
 10
0.0
 20
0.0
 30
0.0
  9
$UCSORGBOTTOM
 10
0.0
 20
0.0
 30
0.0
  9
$UCSORGLEFT
 10
0.0
 20
0.0
 30
0.0
  9
$UCSORGRIGHT
 10
0.0
 20
0.0
 30
0.0
  9
$UCSORGFRONT
 10
0.0
 20
0.0
 30
0.0
  9
$UCSORGBACK
 10
0.0
 20
0.0
 30
0.0
  9
$PUCSBASE
  2

  9
$PUCSNAME
  2

  9
$PUCSORG
 10
0.0
 20
0.0
 30
0.0
  9
$PUCSXDIR
 10
1.0
 20
0.0
 30
0.0
  9
$PUCSYDIR
 10
0.0
 20
1.0
 30
0.0
  9
$PUCSORTHOREF
  2

  9
$PUCSORTHOVIEW
 70
     0
  9
$PUCSORGTOP
 10
0.0
 20
0.0
 30
0.0
  9
$PUCSORGBOTTOM
 10
0.0
 20
0.0
 30
0.0
  9
$PUCSORGLEFT
 10
0.0
 20
0.0
 30
0.0
  9
$PUCSORGRIGHT
 10
0.0
 20
0.0
 30
0.0
  9
$PUCSORGFRONT
 10
0.0
 20
0.0
 30
0.0
  9
$PUCSORGBACK
 10
0.0
 20
0.0
 30
0.0
  9
$USERI1
 70
     0
  9
$USERI2
 70
     0
  9
$USERI3
 70
     0
  9
$USERI4
 70
     0
  9
$USERI5
 70
     0
  9
$USERR1
 40
0.0
  9
$USERR2
 40
0.0
  9
$USERR3
 40
0.0
  9
$USERR4
 40
0.0
  9
$USERR5
 40
0.0
  9
$WORLDVIEW
 70
     1
  9
$SHADEDGE
 70
     3
  9
$SHADEDIF
 70
    70
  9
$TILEMODE
 70
     1
  9
$MAXACTVP
 70
    16
  9
$PINSBASE
 10
0.0
 20
0.0
 30
0.0
  9
$PLIMCHECK
 70
     0
  9
$PEXTMIN
 10
1.000000E+20
 20
1.000000E+20
 30
1.000000E+20
  9
$PEXTMAX
 10
-1.000000E+20
 20
-1.000000E+20
 30
-1.000000E+20
  9
$PLIMMIN
 10
0.0
 20
0.0
  9
$PLIMMAX
 10
12.0
 20
9.0
  9
$UNITMODE
 70
     0
  9
$VISRETAIN
 70
     0
  9
$PLINEGEN
 70
     1
  9
$PSLTSCALE
 70
     0
  9
$TREEDEPTH
 70
  3020
  9
$CMLSTYLE
  2
Standard
  9
$CMLJUST
 70
     0
  9
$CMLSCALE
 40
1.0
  9
$PROXYGRAPHICS
 70
     0
  9
$MEASUREMENT
 70
     0
  9
$CELWEIGHT
370
     0
  9
$ENDCAPS
280
     0
  9
$JOINSTYLE
280
     0
  9
$LWDISPLAY
290
     0
  9
$INSUNITS
 70
     0
  9
$HYPERLINKBASE
  1

  9
$STYLESHEET
  1

  9
$XEDIT
290
     1
  9
$CEPSNTYPE
380
     0
  9
$PSTYLEMODE
290
     1
  9
$FINGERPRINTGUID
  2

  9
$VERSIONGUID
  2

  9
$EXTNAMES
290
     1
  9
$PSVPSCALE
 40
0.0
  0
ENDSEC
  0
SECTION
  2
CLASSES
  0
CLASS
  1
LWPOLYLINE
  2
AcDbPolyline
  3
AutoCAD 2000
 90
    32768
280
     0
281
     1
  0
CLASS
  1
IMAGE
  2
AcDbRasterImage
  3
ISM
 90
    32895
280
     0
281
     1
  0
CLASS
  1
OLE2FRAME
  2
AcDbOle2Frame
  3
AutoCAD 2000
 90
    32768
280
     0
281
     1
  0
CLASS
  1
HATCH
  2
AcDbHatch
  3
AutoCAD 2000
 90
    32768
280
     0
281
     1
  0
CLASS
  1
DICTIONARYVAR
  2
AcDbDictionaryVar
  3
AutoCAD 2000
 90
    32768
280
     0
281
     0
  0
CLASS
  1
RASTERVARIABLES
  2
AcDbRasterVariables
  3
ISM
 90
    32768
280
     0
281
     0
  0
CLASS
  1
IMAGEDEF
  2
AcDbRasterImageDef
  3
ISM
 90
    32768
280
     0
281
     0
  0
CLASS
  1
IMAGEDEF_REACTOR
  2
AcDbRasterImageDefReactor
  3
ISM
 90
    32769
280
     0
281
     0
  0
CLASS
  1
IDBUFFER
  2
AcDbIdBuffer
  3
AutoCAD 2000
 90
    32768
280
     0
281
     0
  0
CLASS
  1
SPATIAL_FILTER
  2
AcDbSpatialFilter
  3
AutoCAD 2000
 90
    32768
280
     0
281
     0
  0
CLASS
  1
XRECORD
  2
AcDbXrecord
  3
AutoCAD 2000
 90
        0
280
     0
281
     0
  0
CLASS
  1
SORTENTSTABLE
  2
AcDbSortentsTable
  3
AutoCAD 2000
 90
    32768
280
     0
281
     0
  0
CLASS
  1
LAYER_INDEX
  2
AcDbLayerIndex
  3
AutoCAD 2000
 90
    32768
280
     0
281
     0
  0
CLASS
  1
SPATIAL_INDEX
  2
AcDbSpatialIndex
  3
AutoCAD 2000
 90
    32768
280
     0
281
     0
  0
CLASS
  1
OBJECT_PTR
  2
CAseDLPNTableRecord
  3
"ASE-LPNTableRecord"
 90
    32769
280
     0
281
     0
  0
CLASS
  1
LAYOUT
  2
AcDbLayout
  3
AutoCAD 2000
 90
        0
280
     0
281
     0
  0
CLASS
  1
PLOTSETTINGS
  2
AcDbPlotSettings
  3
AutoCAD 2000
 90
    32768
280
     0
281
     0
  0
CLASS
  1
ACDBDICTIONARYWDFLT
  2
AcDbDictionaryWithDefault
  3
AutoCAD 2000
 90
        0
280
     0
281
     0
  0
CLASS
  1
ACDBPLACEHOLDER
  2
AcDbPlaceHolder
  3
AutoCAD 2000
 90
        0
280
     0
281
     0
  0
CLASS
  1
VBA_PROJECT
  2
AcDbVbaProject
  3
acadvba
 90
    32768
280
     0
281
     0
  0
CLASS
  1
WIPEOUT
  2
AcDbWipeout
  3
WipeOut|AutoCAD Express Tool|expresstools@autodesk.com
 90
    32895
280
     0
281
     1
  0
CLASS
  1
WIPEOUTVARIABLES
  2
AcDbWipeoutVariables
  3
WipeOut|AutoCAD Express Tool|expresstools@autodesk.com
 90
        0
280
     0
281
     0
  0
CLASS
  1
RTEXT
  2
RText
  3
RText|AutoCAD Express Tool|expresstools@autodesk.com
 90
    32768
280
     0
281
     1
  0
CLASS
  1
ARCALIGNEDTEXT
  2
AcDbArcAlignedText
  3
ATEXT|AutoCAD Express Tool|expresstools@autodesk.com
 90
    32768
280
     0
281
     1
  0
ENDSEC
  0
SECTION
  2
TABLES
  0
TABLE
  2
VPORT
  5
7
100
AcDbSymbolTable
 70
     1
  0
VPORT
  5
15
100
AcDbSymbolTableRecord
100
AcDbViewportTableRecord
  2
*ACTIVE
 70
     0
 10
0.0
 20
0.0
 11
1.0
 21
1.0
 12
0.0
 22
0.0
 13
0.0
 23
0.0
 14
1.0
 24
1.0
 15
0.0
 25
0.0
 16
0.0
 26
0.0
 36
1.0
 17
0.0
 27
0.0
 37
0.0
 40
100.0
 41
1.0
 42
50.0
 43
0.0
 44
0.0
 50
0.0
 51
0.0
 71
     0
 72
   100
 73
     1
 74
     1
 75
     0
 76
     0
 77
     0
 78
     0
281
     0
 65
     0
110
0.0
120
0.0
130
0.0
111
1.0
121
0.0
131
0.0
112
0.0
122
1.0
132
0.0
345
0
346
0
 79
     0
146
0.0
  0
ENDTAB
  0
TABLE
  2
LTYPE
  5
4
100
AcDbSymbolTable
 70
     7
  0
LTYPE
  5
11
100
AcDbSymbolTableRecord
100
AcDbLinetypeTableRecord
  2
ByBlock
 70
    64
  3

 72
    65
 73
     0
 40
0.0
  0
LTYPE
  5
12
100
AcDbSymbolTableRecord
100
AcDbLinetypeTableRecord
  2
ByLayer
 70
    64
  3

 72
    65
 73
     0
 40
0.0
  0
LTYPE
  5
13
100
AcDbSymbolTableRecord
100
AcDbLinetypeTableRecord
  2
Continuous
 70
    64
  3
Solid line
 72
    65
 73
     0
 40
0.0
  0
LTYPE
  5
24
100
AcDbSymbolTableRecord
100
AcDbLinetypeTableRecord
  2
DASHED
 70
    64
  3
Dashed __ __ __ __ __ __ __ __ __ __ __ __ __ _
 72
    65
 73
     2
 40
0.75
 49
0.5
 74
     0
 49
-0.25
 74
     0
  0
LTYPE
  5
25
100
AcDbSymbolTableRecord
100
AcDbLinetypeTableRecord
  2
CENTER
 70
    64
  3
Center ____ _ ____ _ ____ _ ____ _ ____ _ ____
 72
    65
 73
     4
 40
1.0
 49
0.5
 74
     0
 49
-0.25
 74
     0
 49
0.0
 74
     0
 49
-0.25
 74
     0
  0
LTYPE
  5
26
100
AcDbSymbolTableRecord
100
AcDbLinetypeTableRecord
  2
DIVIDE
 70
    64
  3
Divide ____ . . ____ . . ____ . . ____ . . ____
 72
    65
 73
     6
 40
1.25
 49
0.5
 74
     0
 49
-0.25
 74
     0
 49
0.0
 74
     0
 49
-0.25
 74
     0
 49
0.0
 74
     0
 49
-0.25
 74
     0
  0
LTYPE
  5
27
100
AcDbSymbolTableRecord
100
AcDbLinetypeTableRecord
  2
PHANTOM
 70
    64
  3
Phantom ______  __  __  ______  __  __  ______
 72
    65
 73
     6
 40
9.0
 49
4.3
 74
     0
 49
-0.7
 74
     0
 49
1.3
 74
     0
 49
-0.7
 74
     0
 49
1.3
 74
     0
 49
-0.7
 74
     0
  0
ENDTAB
  0
TABLE
  2
LAYER
  5
2
100
AcDbSymbolTable
 70
     4
  0
LAYER
  5
14
100
AcDbSymbolTableRecord
100
AcDbLayerTableRecord
  2
0
 70
    64
 62
    53
  6
Continuous
290
     1
370
    -3
390
1D
  0
LAYER
  5
28
100
AcDbSymbolTableRecord
100
AcDbLayerTableRecord
  2
1
 70
    64
 62
    42
  6
Continuous
290
     1
370
    -3
390
1D
  0
LAYER
  5
29
100
AcDbSymbolTableRecord
100
AcDbLayerTableRecord
  2
3
 70
    64
 62
     4
  6
Continuous
290
     1
370
    -3
390
1D
  0
LAYER
  5
2A
100
AcDbSymbolTableRecord
100
AcDbLayerTableRecord
  2
5
 70
    64
 62
   191
  6
Continuous
290
     1
370
    -3
390
1D
  0
ENDTAB
  0
TABLE
  2
STYLE
  5
3
100
AcDbSymbolTable
 70
     2
  0
STYLE
  5
17
100
AcDbSymbolTableRecord
100
AcDbTextStyleTableRecord
  2
Standard
 70
     0
 40
0.0
 41
1.0
 50
0.0
 71
     0
 42
0.0
  3
txt
  4

  0
STYLE
  5
117
100
AcDbSymbolTableRecord
100
AcDbTextStyleTableRecord
  2
ZU_SHPTB00001
 70
     0
 40
0.0
 41
1.0
 50
0.0
 71
     0
 42
0.0
  3
monotxt
  4
bigfont
  0
ENDTAB
  0
TABLE
  2
VIEW
  5
5
100
AcDbSymbolTable
 70
     0
  0
ENDTAB
  0
TABLE
  2
UCS
  5
6
100
AcDbSymbolTable
 70
     0
  0
ENDTAB
  0
TABLE
  2
APPID
  5
8
100
AcDbSymbolTable
 70
     1
  0
APPID
  5
16
100
AcDbSymbolTableRecord
100
AcDbRegAppTableRecord
  2
ACAD
 70
     0
  0
ENDTAB
  0
TABLE
  2
DIMSTYLE
  5
9
100
AcDbSymbolTable
 70
     1
100
AcDbDimStyleTable
 71
     0
  0
DIMSTYLE
105
18
100
AcDbSymbolTableRecord
100
AcDbDimStyleTableRecord
  2
Standard
 70
     0
  3

  4

 40
1.0
 41
0.18
 42
0.0625
 43
0.38
 44
0.18
 45
0.0
 46
0.0
 47
0.0
 48
0.0
 71
     0
 72
     0
 73
     1
 74
     1
 75
     0
 76
     0
 77
     0
 78
     0
 79
     0
140
0.18
141
0.09
142
0.0
143
25.4
144
1.0
145
0.0
146
1.0
147
0.09
148
0.0
170
     0
171
     2
172
     0
173
     0
174
     0
175
     0
176
     0
177
     0
178
     0
179
     0
271
     4
272
     4
273
     2
274
     2
275
     0
276
     0
277
     2
278
    46
279
     0
280
     0
281
     0
282
     0
283
     1
284
     0
285
     0
286
     0
288
     0
340
17
341
0
342
0
343
0
344
0
371
    -2
372
    -2
  0
ENDTAB
  0
TABLE
  2
BLOCK_RECORD
  5
1
100
AcDbSymbolTable
 70
     7
  0
BLOCK_RECORD
  5
A
100
AcDbSymbolTableRecord
100
AcDbBlockTableRecord
  2
*MODEL_SPACE
340
20
  0
BLOCK_RECORD
  5
B
100
AcDbSymbolTableRecord
100
AcDbBlockTableRecord
  2
*PAPER_SPACE
340
21
  0
BLOCK_RECORD
  5
7A
100
AcDbSymbolTableRecord
100
AcDbBlockTableRecord
  2
ZU_SYM__USERS_HOME_SYMBOL_STD_SYM_B01_-1
340
0
102
{BLKREFS
331
8C
102
}
  0
BLOCK_RECORD
  5
BA
100
AcDbSymbolTableRecord
100
AcDbBlockTableRecord
  2
ZU_SYM__USERS_HOME_SYMBOL_STD_SYM_B01_00001-1
340
0
102
{BLKREFS
331
CC
102
}
  0
BLOCK_RECORD
  5
1C3
100
AcDbSymbolTableRecord
100
AcDbBlockTableRecord
  2
ZU_SYM__USERS_HOME_SYMBOL_POO_SYM_B20_-1
340
0
102
{BLKREFS
331
1CB
102
}
  0
BLOCK_RECORD
  5
2C5
100
AcDbSymbolTableRecord
100
AcDbBlockTableRecord
  2
ZU_SYM__USERS_HOME_SYMBOL_STD_SYM_B01_00002-1
340
0
102
{BLKREFS
331
2D0
102
}
  0
BLOCK_RECORD
  5
2D1
100
AcDbSymbolTableRecord
100
AcDbBlockTableRecord
  2
ZU_SYM__USERS_HOME_SYMBOL_STD_SYM_B01_00003-1
340
0
102
{BLKREFS
331
2DC
102
}
  0
BLOCK_RECORD
  5
2DD
100
AcDbSymbolTableRecord
100
AcDbBlockTableRecord
  2
ZU_SYM__USERS_HOME_SYMBOL_STD_SYM_B01_00004-1
340
0
102
{BLKREFS
331
2E8
102
}
  0
BLOCK_RECORD
  5
2E9
100
AcDbSymbolTableRecord
100
AcDbBlockTableRecord
  2
ZU_SYM__USERS_HOME_SYMBOL_STD_SYM_B01_00005-1
340
0
102
{BLKREFS
331
2F4
102
}
  0
ENDTAB
  0
ENDSEC
  0
SECTION
  2
BLOCKS
  0
BLOCK
  5
D
100
AcDbEntity
  8
0
100
AcDbBlockBegin
  2
*MODEL_SPACE
 70
     0
 10
0.0
 20
0.0
 30
0.0
  3
*MODEL_SPACE
  1

  0
ENDBLK
  5
E
100
AcDbEntity
  8
0
100
AcDbBlockEnd
  0
BLOCK
  5
F
100
AcDbEntity
 67
     1
  8
0
100
AcDbBlockBegin
  2
*PAPER_SPACE
 70
     0
 10
0.0
 20
0.0
 30
0.0
  3
*PAPER_SPACE
  1

  0
ENDBLK
  5
10
100
AcDbEntity
 67
     1
  8
0
100
AcDbBlockEnd
  0
BLOCK
  5
7B
100
AcDbEntity
  8
0
100
AcDbBlockBegin
  2
ZU_SYM__USERS_HOME_SYMBOL_STD_SYM_B01_-1
 70
    64
 10
0.0
 20
0.0
 30
0.0
  3
ZU_SYM__USERS_HOME_SYMBOL_STD_SYM_B01_-1
  1

  0
POINT
  5
7C
100
AcDbEntity
  8
0
370
    -3
  6
Continuous
100
AcDbPoint
 10
0.0
 20
0.0
 30
0.0
  0
LINE
  5
7D
100
AcDbEntity
  8
0
370
    -3
  6
Continuous
100
AcDbLine
 10
-0.000025
 20
-4.599994
 30
0.0
 11
-4.300015
 21
-4.599977
 31
0.0
  0
LINE
  5
7E
100
AcDbEntity
  8
0
370
    -3
  6
Continuous
100
AcDbLine
 10
-4.299996
 20
-4.599962
 30
0.0
 11
-4.79999
 21
-3.899959
 31
0.0
  0
LINE
  5
7F
100
AcDbEntity
  8
0
370
    -3
  6
Continuous
100
AcDbLine
 10
-4.80001
 20
-3.899973
 30
0.0
 11
-4.799979
 21
3.900012
 31
0.0
  0
LINE
  5
80
100
AcDbEntity
  8
0
370
    -3
  6
Continuous
100
AcDbLine
 10
-4.799962
 20
3.900001
 30
0.0
 11
-4.299962
 21
4.599999
 31
0.0
  0
LINE
  5
81
100
AcDbEntity
  8
0
370
    -3
  6
Continuous
100
AcDbLine
 10
-4.299978
 20
4.600015
 30
0.0
 11
0.000013
 21
4.599998
 31
0.0
  0
LINE
  5
82
100
AcDbEntity
  8
0
370
    -3
  6
Continuous
100
AcDbLine
 10
0.000016
 20
4.599992
 30
0.0
 11
-0.000021
 21
-4.599992
 31
0.0
  0
LINE
  5
83
100
AcDbEntity
  8
0
370
    -3
  6
Continuous
100
AcDbLine
 10
-4.300006
 20
-2.29998
 30
0.0
 11
-1.300007
 21
-2.299992
 31
0.0
  0
LINE
  5
84
100
AcDbEntity
  8
0
370
    -3
  6
Continuous
100
AcDbLine
 10
-4.299987
 20
2.300014
 30
0.0
 11
-1.29999
 21
2.300004
 31
0.0
  0
ARC
  5
85
100
AcDbEntity
  8
0
370
    -3
  6
Continuous
100
AcDbCircle
 10
-3.230014
 20
-3.449986
 30
0.0
 40
1.57
100
AcDbArc
 50
132.899744
 51
179.999745
  0
ARC
  5
86
100
AcDbEntity
  8
0
370
    -3
  6
Continuous
100
AcDbCircle
 10
-3.229986
 20
3.450012
 30
0.0
 40
1.57
100
AcDbArc
 50
179.999745
 51
227.099746
  0
ARC
  5
87
100
AcDbEntity
  8
0
370
    -3
  6
Continuous
100
AcDbCircle
 10
0.740001
 20
-0.000003
 30
0.0
 40
5.539999
100
AcDbArc
 50
155.470187
 51
204.52925
  0
LINE
  5
88
100
AcDbEntity
  8
0
370
    -3
  6
Continuous
100
AcDbLine
 10
-1.300018
 20
-4.599993
 30
0.0
 11
-1.299981
 21
4.600004
 31
0.0
  0
LINE
  5
89
100
AcDbEntity
  8
0
370
    -3
  6
Continuous
100
AcDbLine
 10
-1.3
 20
-0.299995
 30
0.0
 11
-0.000004
 21
-0.000001
 31
0.0
  0
LINE
  5
8A
100
AcDbEntity
  8
0
370
    -3
  6
Continuous
100
AcDbLine
 10
-1.299999
 20
0.300007
 30
0.0
 11
-0.000001
 21
0.600002
 31
0.0
  0
ENDBLK
  5
8B
100
AcDbEntity
  8
0
100
AcDbBlockEnd
  0
BLOCK
  5
BB
100
AcDbEntity
  8
0
100
AcDbBlockBegin
  2
ZU_SYM__USERS_HOME_SYMBOL_STD_SYM_B01_00001-1
 70
    64
 10
0.0
 20
0.0
 30
0.0
  3
ZU_SYM__USERS_HOME_SYMBOL_STD_SYM_B01_00001-1
  1

  0
POINT
  5
BC
100
AcDbEntity
  8
0
370
    -3
  6
Continuous
100
AcDbPoint
 10
0.0
 20
0.0
 30
0.0
  0
LINE
  5
BD
100
AcDbEntity
  8
0
370
    -3
  6
Continuous
100
AcDbLine
 10
-0.000025
 20
-4.599994
 30
0.0
 11
-4.300015
 21
-4.599977
 31
0.0
  0
LINE
  5
BE
100
AcDbEntity
  8
0
370
    -3
  6
Continuous
100
AcDbLine
 10
-4.299996
 20
-4.599962
 30
0.0
 11
-4.79999
 21
-3.899959
 31
0.0
  0
LINE
  5
BF
100
AcDbEntity
  8
0
370
    -3
  6
Continuous
100
AcDbLine
 10
-4.80001
 20
-3.899973
 30
0.0
 11
-4.799979
 21
3.900012
 31
0.0
  0
LINE
  5
C0
100
AcDbEntity
  8
0
370
    -3
  6
Continuous
100
AcDbLine
 10
-4.799962
 20
3.900001
 30
0.0
 11
-4.299962
 21
4.599999
 31
0.0
  0
LINE
  5
C1
100
AcDbEntity
  8
0
370
    -3
  6
Continuous
100
AcDbLine
 10
-4.299978
 20
4.600015
 30
0.0
 11
0.000013
 21
4.599998
 31
0.0
  0
LINE
  5
C2
100
AcDbEntity
  8
0
370
    -3
  6
Continuous
100
AcDbLine
 10
0.000016
 20
4.599992
 30
0.0
 11
-0.000021
 21
-4.599992
 31
0.0
  0
LINE
  5
C3
100
AcDbEntity
  8
0
370
    -3
  6
Continuous
100
AcDbLine
 10
-4.300006
 20
-2.29998
 30
0.0
 11
-1.300007
 21
-2.299992
 31
0.0
  0
LINE
  5
C4
100
AcDbEntity
  8
0
370
    -3
  6
Continuous
100
AcDbLine
 10
-4.299987
 20
2.300014
 30
0.0
 11
-1.29999
 21
2.300004
 31
0.0
  0
ARC
  5
C5
100
AcDbEntity
  8
0
370
    -3
  6
Continuous
100
AcDbCircle
 10
-3.230014
 20
-3.449986
 30
0.0
 40
1.57
100
AcDbArc
 50
132.899744
 51
179.999745
  0
ARC
  5
C6
100
AcDbEntity
  8
0
370
    -3
  6
Continuous
100
AcDbCircle
 10
-3.229986
 20
3.450012
 30
0.0
 40
1.57
100
AcDbArc
 50
179.999745
 51
227.099746
  0
ARC
  5
C7
100
AcDbEntity
  8
0
370
    -3
  6
Continuous
100
AcDbCircle
 10
0.740001
 20
-0.000003
 30
0.0
 40
5.539999
100
AcDbArc
 50
155.470187
 51
204.52925
  0
LINE
  5
C8
100
AcDbEntity
  8
0
370
    -3
  6
Continuous
100
AcDbLine
 10
-1.300018
 20
-4.599993
 30
0.0
 11
-1.299981
 21
4.600004
 31
0.0
  0
LINE
  5
C9
100
AcDbEntity
  8
0
370
    -3
  6
Continuous
100
AcDbLine
 10
-1.3
 20
-0.299995
 30
0.0
 11
-0.000004
 21
-0.000001
 31
0.0
  0
LINE
  5
CA
100
AcDbEntity
  8
0
370
    -3
  6
Continuous
100
AcDbLine
 10
-1.299999
 20
0.300007
 30
0.0
 11
-0.000001
 21
0.600002
 31
0.0
  0
ENDBLK
  5
CB
100
AcDbEntity
  8
0
100
AcDbBlockEnd
  0
BLOCK
  5
1C4
100
AcDbEntity
  8
0
100
AcDbBlockBegin
  2
ZU_SYM__USERS_HOME_SYMBOL_POO_SYM_B20_-1
 70
    64
 10
0.0
 20
0.0
 30
0.0
  3
ZU_SYM__USERS_HOME_SYMBOL_POO_SYM_B20_-1
  1

  0
LINE
  5
1C5
100
AcDbEntity
  8
0
370
    -3
  6
Continuous
100
AcDbLine
 10
0.0
 20
-5.0
 30
0.0
 11
-6.0
 21
-5.0
 31
0.0
  0
LINE
  5
1C6
100
AcDbEntity
  8
0
370
    -3
  6
Continuous
100
AcDbLine
 10
0.0
 20
5.0
 30
0.0
 11
-6.0
 21
5.0
 31
0.0
  0
LINE
  5
1C7
100
AcDbEntity
  8
0
370
    -3
  6
Continuous
100
AcDbLine
 10
-6.0
 20
-5.0
 30
0.0
 11
-6.0
 21
5.0
 31
0.0
  0
LINE
  5
1C8
100
AcDbEntity
  8
0
370
    -3
  6
Continuous
100
AcDbLine
 10
0.0
 20
5.0
 30
0.0
 11
0.0
 21
-5.0
 31
0.0
  0
POINT
  5
1C9
100
AcDbEntity
  8
0
370
    -3
  6
Continuous
100
AcDbPoint
 10
0.0
 20
0.0
 30
0.0
  0
ENDBLK
  5
1CA
100
AcDbEntity
  8
0
100
AcDbBlockEnd
  0
BLOCK
  5
2C6
100
AcDbEntity
  8
0
100
AcDbBlockBegin
  2
ZU_SYM__USERS_HOME_SYMBOL_STD_SYM_B01_00002-1
 70
    64
 10
0.0
 20
0.0
 30
0.0
  3
ZU_SYM__USERS_HOME_SYMBOL_STD_SYM_B01_00002-1
  1

  0
POINT
  5
2C7
100
AcDbEntity
  8
0
370
    -3
  6
Continuous
100
AcDbPoint
 10
0.0
 20
0.0
 30
0.0
  0
LINE
  5
2C8
100
AcDbEntity
  8
0
370
    -3
  6
Continuous
100
AcDbLine
 10
-2.300001
 20
-4.0
 30
0.0
 11
-4.6
 21
-0.000001
 31
0.0
  0
LINE
  5
2C9
100
AcDbEntity
  8
0
370
    -3
  6
Continuous
100
AcDbLine
 10
-4.6
 20
0.000001
 30
0.0
 11
-2.300001
 21
4.0
 31
0.0
  0
LINE
  5
2CA
100
AcDbEntity
  8
0
370
    -3
  6
Continuous
100
AcDbLine
 10
-2.299999
 20
4.0
 30
0.0
 11
2.299999
 21
4.0
 31
0.0
  0
LINE
  5
2CB
100
AcDbEntity
  8
0
370
    -3
  6
Continuous
100
AcDbLine
 10
2.300001
 20
4.0
 30
0.0
 11
4.6
 21
0.000001
 31
0.0
  0
LINE
  5
2CC
100
AcDbEntity
  8
0
370
    -3
  6
Continuous
100
AcDbLine
 10
4.6
 20
-0.000001
 30
0.0
 11
2.300001
 21
-4.0
 31
0.0
  0
LINE
  5
2CD
100
AcDbEntity
  8
0
370
    -3
  6
Continuous
100
AcDbLine
 10
2.299999
 20
-4.0
 30
0.0
 11
-2.299999
 21
-4.0
 31
0.0
  0
CIRCLE
  5
2CE
100
AcDbEntity
  8
0
370
    -3
  6
Continuous
100
AcDbCircle
 10
0.0
 20
0.0
 30
0.0
 40
4.0
  0
ENDBLK
  5
2CF
100
AcDbEntity
  8
0
100
AcDbBlockEnd
  0
BLOCK
  5
2D2
100
AcDbEntity
  8
0
100
AcDbBlockBegin
  2
ZU_SYM__USERS_HOME_SYMBOL_STD_SYM_B01_00003-1
 70
    64
 10
0.0
 20
0.0
 30
0.0
  3
ZU_SYM__USERS_HOME_SYMBOL_STD_SYM_B01_00003-1
  1

  0
POINT
  5
2D3
100
AcDbEntity
  8
0
370
    -3
  6
Continuous
100
AcDbPoint
 10
0.0
 20
0.0
 30
0.0
  0
LINE
  5
2D4
100
AcDbEntity
  8
0
370
    -3
  6
Continuous
100
AcDbLine
 10
-2.300001
 20
-4.0
 30
0.0
 11
-4.6
 21
-0.000001
 31
0.0
  0
LINE
  5
2D5
100
AcDbEntity
  8
0
370
    -3
  6
Continuous
100
AcDbLine
 10
-4.6
 20
0.000001
 30
0.0
 11
-2.300001
 21
4.0
 31
0.0
  0
LINE
  5
2D6
100
AcDbEntity
  8
0
370
    -3
  6
Continuous
100
AcDbLine
 10
-2.299999
 20
4.0
 30
0.0
 11
2.299999
 21
4.0
 31
0.0
  0
LINE
  5
2D7
100
AcDbEntity
  8
0
370
    -3
  6
Continuous
100
AcDbLine
 10
2.300001
 20
4.0
 30
0.0
 11
4.6
 21
0.000001
 31
0.0
  0
LINE
  5
2D8
100
AcDbEntity
  8
0
370
    -3
  6
Continuous
100
AcDbLine
 10
4.6
 20
-0.000001
 30
0.0
 11
2.300001
 21
-4.0
 31
0.0
  0
LINE
  5
2D9
100
AcDbEntity
  8
0
370
    -3
  6
Continuous
100
AcDbLine
 10
2.299999
 20
-4.0
 30
0.0
 11
-2.299999
 21
-4.0
 31
0.0
  0
CIRCLE
  5
2DA
100
AcDbEntity
  8
0
370
    -3
  6
Continuous
100
AcDbCircle
 10
0.0
 20
0.0
 30
0.0
 40
4.0
  0
ENDBLK
  5
2DB
100
AcDbEntity
  8
0
100
AcDbBlockEnd
  0
BLOCK
  5
2DE
100
AcDbEntity
  8
0
100
AcDbBlockBegin
  2
ZU_SYM__USERS_HOME_SYMBOL_STD_SYM_B01_00004-1
 70
    64
 10
0.0
 20
0.0
 30
0.0
  3
ZU_SYM__USERS_HOME_SYMBOL_STD_SYM_B01_00004-1
  1

  0
POINT
  5
2DF
100
AcDbEntity
  8
0
370
    -3
  6
Continuous
100
AcDbPoint
 10
0.0
 20
0.0
 30
0.0
  0
LINE
  5
2E0
100
AcDbEntity
  8
0
370
    -3
  6
Continuous
100
AcDbLine
 10
-2.300001
 20
-4.0
 30
0.0
 11
-4.6
 21
-0.000001
 31
0.0
  0
LINE
  5
2E1
100
AcDbEntity
  8
0
370
    -3
  6
Continuous
100
AcDbLine
 10
-4.6
 20
0.000001
 30
0.0
 11
-2.300001
 21
4.0
 31
0.0
  0
LINE
  5
2E2
100
AcDbEntity
  8
0
370
    -3
  6
Continuous
100
AcDbLine
 10
-2.299999
 20
4.0
 30
0.0
 11
2.299999
 21
4.0
 31
0.0
  0
LINE
  5
2E3
100
AcDbEntity
  8
0
370
    -3
  6
Continuous
100
AcDbLine
 10
2.300001
 20
4.0
 30
0.0
 11
4.6
 21
0.000001
 31
0.0
  0
LINE
  5
2E4
100
AcDbEntity
  8
0
370
    -3
  6
Continuous
100
AcDbLine
 10
4.6
 20
-0.000001
 30
0.0
 11
2.300001
 21
-4.0
 31
0.0
  0
LINE
  5
2E5
100
AcDbEntity
  8
0
370
    -3
  6
Continuous
100
AcDbLine
 10
2.299999
 20
-4.0
 30
0.0
 11
-2.299999
 21
-4.0
 31
0.0
  0
CIRCLE
  5
2E6
100
AcDbEntity
  8
0
370
    -3
  6
Continuous
100
AcDbCircle
 10
0.0
 20
0.0
 30
0.0
 40
4.0
  0
ENDBLK
  5
2E7
100
AcDbEntity
  8
0
100
AcDbBlockEnd
  0
BLOCK
  5
2EA
100
AcDbEntity
  8
0
100
AcDbBlockBegin
  2
ZU_SYM__USERS_HOME_SYMBOL_STD_SYM_B01_00005-1
 70
    64
 10
0.0
 20
0.0
 30
0.0
  3
ZU_SYM__USERS_HOME_SYMBOL_STD_SYM_B01_00005-1
  1

  0
POINT
  5
2EB
100
AcDbEntity
  8
0
370
    -3
  6
Continuous
100
AcDbPoint
 10
0.0
 20
0.0
 30
0.0
  0
LINE
  5
2EC
100
AcDbEntity
  8
0
370
    -3
  6
Continuous
100
AcDbLine
 10
-2.300001
 20
-4.0
 30
0.0
 11
-4.6
 21
-0.000001
 31
0.0
  0
LINE
  5
2ED
100
AcDbEntity
  8
0
370
    -3
  6
Continuous
100
AcDbLine
 10
-4.6
 20
0.000001
 30
0.0
 11
-2.300001
 21
4.0
 31
0.0
  0
LINE
  5
2EE
100
AcDbEntity
  8
0
370
    -3
  6
Continuous
100
AcDbLine
 10
-2.299999
 20
4.0
 30
0.0
 11
2.299999
 21
4.0
 31
0.0
  0
LINE
  5
2EF
100
AcDbEntity
  8
0
370
    -3
  6
Continuous
100
AcDbLine
 10
2.300001
 20
4.0
 30
0.0
 11
4.6
 21
0.000001
 31
0.0
  0
LINE
  5
2F0
100
AcDbEntity
  8
0
370
    -3
  6
Continuous
100
AcDbLine
 10
4.6
 20
-0.000001
 30
0.0
 11
2.300001
 21
-4.0
 31
0.0
  0
LINE
  5
2F1
100
AcDbEntity
  8
0
370
    -3
  6
Continuous
100
AcDbLine
 10
2.299999
 20
-4.0
 30
0.0
 11
-2.299999
 21
-4.0
 31
0.0
  0
CIRCLE
  5
2F2
100
AcDbEntity
  8
0
370
    -3
  6
Continuous
100
AcDbCircle
 10
0.0
 20
0.0
 30
0.0
 40
4.0
  0
ENDBLK
  5
2F3
100
AcDbEntity
  8
0
100
AcDbBlockEnd
  0
ENDSEC
  0
SECTION
  2
ENTITIES
  0
LINE
  5
2B
100
AcDbEntity
  8
0
370
    -3
  6
Continuous
100
AcDbLine
 10
-345.165715
 20
170.783215
 30
0.0
 11
-318.165715
 21
170.783215
 31
0.0
  0
LINE
  5
2C
100
AcDbEntity
  8
0
370
    -3
  6
Continuous
100
AcDbLine
 10
-320.165715
 20
153.783215
 30
0.0
 11
-320.165715
 21
170.783215
 31
0.0
  0
LINE
  5
2D
100
AcDbEntity
  8
0
370
    -3
  6
Continuous
100
AcDbLine
 10
-291.682871
 20
186.783215
 30
0.0
 11
-300.340368
 21
186.783215
 31
0.0
  0
LINE
  5
2E
100
AcDbEntity
  8
0
370
    -3
  6
Continuous
100
AcDbLine
 10
-273.165715
 20
180.783215
 30
0.0
 11
-304.165715
 21
180.783215
 31
0.0
  0
LINE
  5
2F
100
AcDbEntity
  8
0
370
    -3
  6
Continuous
100
AcDbLine
 10
-304.165715
 20
180.783215
 30
0.0
 11
-242.165715
 21
180.783215
 31
0.0
  0
ARC
  5
30
100
AcDbEntity
  8
0
370
    -3
  6
Continuous
100
AcDbCircle
 10
-302.430626
 20
179.083215
 30
0.0
 40
0.3
100
AcDbArc
 50
270.0
 51
346.657636
  0
ARC
  5
31
100
AcDbEntity
  8
0
370
    -3
  6
Continuous
100
AcDbCircle
 10
-311.365715
 20
171.983215
 30
0.0
 40
6.8
100
AcDbArc
 50
90.0
 51
180.0
  0
LINE
  5
32
100
AcDbEntity
  8
0
370
    -3
  6
Continuous
100
AcDbLine
 10
-304.165715
 20
180.783215
 30
0.0
 11
-304.165715
 21
179.783215
 31
0.0
  0
LINE
  5
33
100
AcDbEntity
  8
0
370
    -3
  6
Continuous
100
AcDbLine
 10
-304.165715
 20
179.783215
 30
0.0
 11
-242.165715
 21
179.783215
 31
0.0
  0
LINE
  5
34
100
AcDbEntity
  8
0
370
    -3
  6
Continuous
100
AcDbLine
 10
-318.165715
 20
136.974735
 30
0.0
 11
-318.165715
 21
171.983215
 31
0.0
  0
LINE
  5
35
100
AcDbEntity
  8
0
370
    -3
  6
Continuous
100
AcDbLine
 10
-311.365715
 20
178.783215
 30
0.0
 11
-241.727562
 21
178.783215
 31
0.0
  0
ARC
  5
36
100
AcDbEntity
  8
0
370
    -3
  6
Continuous
100
AcDbCircle
 10
-301.165715
 20
178.783215
 30
0.0
 40
1.0
100
AcDbArc
 50
90.0
 51
166.657636
  0
LINE
  5
37
100
AcDbEntity
  8
0
370
    -3
  6
Continuous
100
AcDbLine
 10
-306.490022
 20
142.4192
 30
0.0
 11
-306.490022
 21
175.783215
 31
0.0
  0
ARC
  5
38
100
AcDbEntity
  8
0
370
    -3
  6
Continuous
100
AcDbCircle
 10
-303.490022
 20
175.783215
 30
0.0
 40
3.0
100
AcDbArc
 50
90.0
 51
180.0
  0
ARC
  5
39
100
AcDbEntity
  8
0
370
    -3
  6
Continuous
100
AcDbCircle
 10
-300.646686
 20
186.283215
 30
0.0
 40
0.5
100
AcDbArc
 50
90.0
 51
180.0
  0
ARC
  5
3A
100
AcDbEntity
  8
0
370
    -3
  6
Continuous
100
AcDbCircle
 10
-291.646686
 20
186.283215
 30
0.0
 40
0.5
100
AcDbArc
 50
0.0
 51
90.0
  0
LINE
  5
3B
100
AcDbEntity
  8
0
370
    -3
  6
Continuous
100
AcDbLine
 10
-291.646686
 20
186.783215
 30
0.0
 11
-300.340368
 21
186.783215
 31
0.0
  0
LINE
  5
3C
100
AcDbEntity
  8
0
370
    -3
  6
Continuous
100
AcDbLine
 10
-291.146686
 20
186.283215
 30
0.0
 11
-291.146686
 21
185.283215
 31
0.0
  0
ARC
  5
3D
100
AcDbEntity
  8
0
370
    -3
  6
Continuous
100
AcDbCircle
 10
-290.646686
 20
185.283215
 30
0.0
 40
0.5
100
AcDbArc
 50
180.0
 51
270.0
  0
ARC
  5
3E
100
AcDbEntity
  8
0
370
    -3
  6
Continuous
100
AcDbCircle
 10
-301.646686
 20
185.283215
 30
0.0
 40
0.5
100
AcDbArc
 50
270.0
 51
0.0
  0
LINE
  5
3F
100
AcDbEntity
  8
0
370
    -3
  6
Continuous
100
AcDbLine
 10
-301.146686
 20
186.283215
 30
0.0
 11
-301.146686
 21
185.283215
 31
0.0
  0
LINE
  5
40
100
AcDbEntity
  8
0
370
    -3
  6
Continuous
100
AcDbLine
 10
-299.701433
 20
190.345232
 30
0.0
 11
-300.091938
 21
187.221197
 31
0.0
  0
LINE
  5
41
100
AcDbEntity
  8
0
370
    -3
  6
Continuous
100
AcDbLine
 10
-292.591938
 20
190.345232
 30
0.0
 11
-292.201433
 21
187.221197
 31
0.0
  0
ARC
  5
42
100
AcDbEntity
  8
0
370
    -3
  6
Continuous
100
AcDbCircle
 10
-291.705294
 20
187.283215
 30
0.0
 40
0.5
100
AcDbArc
 50
187.125016
 51
270.0
  0
ARC
  5
43
100
AcDbEntity
  8
0
370
    -3
  6
Continuous
100
AcDbCircle
 10
-300.588077
 20
187.283215
 30
0.0
 40
0.5
100
AcDbArc
 50
270.0
 51
352.874984
  0
LINE
  5
44
100
AcDbEntity
  8
0
370
    -3
  6
Continuous
100
AcDbLine
 10
-300.847449
 20
186.783215
 30
0.0
 11
-236.415715
 21
186.783215
 31
0.0
  0
LINE
  5
45
100
AcDbEntity
  8
0
370
    -3
  6
Continuous
100
AcDbLine
 10
-292.718401
 20
184.783215
 30
0.0
 11
-305.770459
 21
184.783215
 31
0.0
  0
LINE
  5
46
100
AcDbEntity
  8
0
370
    -3
  6
Continuous
100
AcDbLine
 10
-304.691558
 20
180.783215
 30
0.0
 11
-241.639872
 21
180.783215
 31
0.0
  0
LINE
  5
47
100
AcDbEntity
  8
0
370
    -3
  6
CENTER
100
AcDbLine
 10
-296.146686
 20
193.672073
 30
0.0
 11
-296.146686
 21
178.758575
 31
0.0
  0
ARC
  5
48
100
AcDbEntity
  8
0
370
    -3
  6
Continuous
100
AcDbCircle
 10
-304.691558
 20
181.783215
 30
0.0
 40
1.0
100
AcDbArc
 50
181.5
 51
270.0
  0
LINE
  5
49
100
AcDbEntity
  8
0
370
    -3
  6
Continuous
100
AcDbLine
 10
-305.770459
 20
184.783215
 30
0.0
 11
-305.691216
 21
181.757038
 31
0.0
  0
LINE
  5
4A
100
AcDbEntity
  8
0
370
    -3
  6
Continuous
100
AcDbLine
 10
-253.613029
 20
184.783215
 30
0.0
 11
-292.718401
 21
184.783215
 31
0.0
  0
ARC
  5
4B
100
AcDbEntity
  8
0
370
    -3
  6
Continuous
100
AcDbCircle
 10
-293.088077
 20
190.283215
 30
0.0
 40
0.5
100
AcDbArc
 50
7.125016
 51
90.0
  0
LINE
  5
4C
100
AcDbEntity
  8
0
370
    -3
  6
Continuous
100
AcDbLine
 10
-299.205294
 20
190.783215
 30
0.0
 11
-293.094207
 21
190.783215
 31
0.0
  0
ARC
  5
4D
100
AcDbEntity
  8
0
370
    -3
  6
Continuous
100
AcDbCircle
 10
-299.205294
 20
190.283215
 30
0.0
 40
0.5
100
AcDbArc
 50
90.0
 51
172.874984
  0
LINE
  5
4E
100
AcDbEntity
  8
0
370
    -3
  6
Continuous
100
AcDbLine
 10
-314.165715
 20
188.288627
 30
0.0
 11
-299.958509
 21
188.288627
 31
0.0
  0
LINE
  5
4F
100
AcDbEntity
  8
0
370
    -3
  6
Continuous
100
AcDbLine
 10
-314.165715
 20
190.788627
 30
0.0
 11
-175.165715
 21
190.788627
 31
0.0
  0
LINE
  5
50
100
AcDbEntity
  8
0
370
    -3
  6
Continuous
100
AcDbLine
 10
-314.165715
 20
191.788627
 30
0.0
 11
-175.165715
 21
191.788627
 31
0.0
  0
LINE
  5
51
100
AcDbEntity
  8
0
370
    -3
  6
Continuous
100
AcDbLine
 10
-314.165715
 20
192.788627
 30
0.0
 11
-175.165715
 21
192.788627
 31
0.0
  0
LINE
  5
52
100
AcDbEntity
  8
0
370
    -3
  6
Continuous
100
AcDbLine
 10
-314.165715
 20
232.788627
 30
0.0
 11
-175.165715
 21
232.788627
 31
0.0
  0
LINE
  5
53
100
AcDbEntity
  8
0
370
    -3
  6
Continuous
100
AcDbLine
 10
-314.165715
 20
304.788627
 30
0.0
 11
-175.165715
 21
304.788627
 31
0.0
  0
LINE
  5
54
100
AcDbEntity
  8
0
370
    -3
  6
Continuous
100
AcDbLine
 10
-314.165715
 20
303.788627
 30
0.0
 11
-175.165715
 21
303.788627
 31
0.0
  0
LINE
  5
55
100
AcDbEntity
  8
0
370
    -3
  6
Continuous
100
AcDbLine
 10
-314.165715
 20
302.788627
 30
0.0
 11
-175.165715
 21
302.788627
 31
0.0
  0
LINE
  5
56
100
AcDbEntity
  8
0
370
    -3
  6
Continuous
100
AcDbLine
 10
-314.165715
 20
298.104161
 30
0.0
 11
-175.165715
 21
298.104161
 31
0.0
  0
LINE
  5
57
100
AcDbEntity
  8
0
370
    -3
  6
Continuous
100
AcDbLine
 10
-314.165715
 20
293.154414
 30
0.0
 11
-175.165715
 21
293.154414
 31
0.0
  0
LINE
  5
58
100
AcDbEntity
  8
0
370
    -3
  6
Continuous
100
AcDbLine
 10
-314.165715
 20
262.788627
 30
0.0
 11
-175.165715
 21
262.788627
 31
0.0
  0
LINE
  5
59
100
AcDbEntity
  8
0
370
    -3
  6
Continuous
100
AcDbLine
 10
-314.165715
 20
307.288627
 30
0.0
 11
-175.165715
 21
307.288627
 31
0.0
  0
LINE
  5
5A
100
AcDbEntity
  8
0
370
    -3
  6
Continuous
100
AcDbLine
 10
-314.165715
 20
202.412016
 30
0.0
 11
-175.165715
 21
202.412016
 31
0.0
  0
LINE
  5
5B
100
AcDbEntity
  8
0
370
    -3
  6
Continuous
100
AcDbLine
 10
-314.165715
 20
197.462268
 30
0.0
 11
-175.165715
 21
197.462268
 31
0.0
  0
LINE
  5
5C
100
AcDbEntity
  8
0
370
    -3
  6
Continuous
100
AcDbLine
 10
-314.165715
 20
228.783177
 30
0.0
 11
-175.165715
 21
228.783177
 31
0.0
  0
LINE
  5
5D
100
AcDbEntity
  8
0
370
    -3
  6
Continuous
100
AcDbLine
 10
-314.165715
 20
226.754664
 30
0.0
 11
-175.165715
 21
226.754664
 31
0.0
  0
LINE
  5
5E
100
AcDbEntity
  8
0
370
    -3
  6
Continuous
100
AcDbLine
 10
-314.165715
 20
223.324243
 30
0.0
 11
-175.165715
 21
223.324243
 31
0.0
  0
LINE
  5
5F
100
AcDbEntity
  8
0
370
    -3
  6
Continuous
100
AcDbLine
 10
-314.165715
 20
221.200019
 30
0.0
 11
-175.165715
 21
221.200019
 31
0.0
  0
LINE
  5
60
100
AcDbEntity
  8
0
370
    -3
  6
Continuous
100
AcDbLine
 10
-314.165715
 20
217.867509
 30
0.0
 11
-175.165715
 21
217.867509
 31
0.0
  0
LINE
  5
61
100
AcDbEntity
  8
0
370
    -3
  6
Continuous
100
AcDbLine
 10
-314.165715
 20
215.638105
 30
0.0
 11
-175.165715
 21
215.638105
 31
0.0
  0
LINE
  5
62
100
AcDbEntity
  8
0
370
    -3
  6
Continuous
100
AcDbLine
 10
-314.165715
 20
212.429507
 30
0.0
 11
-175.165715
 21
212.429507
 31
0.0
  0
LINE
  5
63
100
AcDbEntity
  8
0
370
    -3
  6
Continuous
100
AcDbLine
 10
-314.165715
 20
210.092807
 30
0.0
 11
-175.165715
 21
210.092807
 31
0.0
  0
LINE
  5
64
100
AcDbEntity
  8
0
370
    -3
  6
Continuous
100
AcDbLine
 10
-314.165715
 20
266.794078
 30
0.0
 11
-175.165715
 21
266.794078
 31
0.0
  0
LINE
  5
65
100
AcDbEntity
  8
0
370
    -3
  6
Continuous
100
AcDbLine
 10
-314.165715
 20
268.82259
 30
0.0
 11
-175.165715
 21
268.82259
 31
0.0
  0
LINE
  5
66
100
AcDbEntity
  8
0
370
    -3
  6
Continuous
100
AcDbLine
 10
-314.165715
 20
272.253011
 30
0.0
 11
-175.165715
 21
272.253011
 31
0.0
  0
LINE
  5
67
100
AcDbEntity
  8
0
370
    -3
  6
Continuous
100
AcDbLine
 10
-314.165715
 20
274.377235
 30
0.0
 11
-175.165715
 21
274.377235
 31
0.0
  0
LINE
  5
68
100
AcDbEntity
  8
0
370
    -3
  6
Continuous
100
AcDbLine
 10
-314.165715
 20
277.709745
 30
0.0
 11
-175.165715
 21
277.709745
 31
0.0
  0
LINE
  5
69
100
AcDbEntity
  8
0
370
    -3
  6
Continuous
100
AcDbLine
 10
-314.165715
 20
279.939149
 30
0.0
 11
-175.165715
 21
279.939149
 31
0.0
  0
LINE
  5
6A
100
AcDbEntity
  8
0
370
    -3
  6
Continuous
100
AcDbLine
 10
-314.165715
 20
283.147748
 30
0.0
 11
-175.165715
 21
283.147748
 31
0.0
  0
LINE
  5
6B
100
AcDbEntity
  8
0
370
    -3
  6
Continuous
100
AcDbLine
 10
-314.165715
 20
285.484447
 30
0.0
 11
-175.165715
 21
285.484447
 31
0.0
  0
LINE
  5
6C
100
AcDbEntity
  8
0
370
    -3
  6
Continuous
100
AcDbLine
 10
-314.165715
 20
307.288627
 30
0.0
 11
-314.165715
 21
247.783215
 31
0.0
  0
LINE
  5
6D
100
AcDbEntity
  8
0
370
    -3
  6
Continuous
100
AcDbLine
 10
-314.165715
 20
188.288627
 30
0.0
 11
-314.165715
 21
247.783215
 31
0.0
  0
LINE
  5
6E
100
AcDbEntity
  8
0
370
    -3
  6
Continuous
100
AcDbLine
 10
-292.334862
 20
188.288627
 30
0.0
 11
-253.996568
 21
188.288627
 31
0.0
  0
LINE
  5
6F
100
AcDbEntity
  8
0
370
    -3
  6
CENTER
100
AcDbLine
 10
-338.723638
 20
247.783215
 30
0.0
 11
7.675167
 21
247.783215
 31
0.0
  0
LINE
  5
70
100
AcDbEntity
  8
0
370
    -3
  6
Continuous
100
AcDbLine
 10
-314.665715
 20
289.227389
 30
0.0
 11
-314.665715
 21
298.414623
 31
0.0
  0
LINE
  5
71
100
AcDbEntity
  8
0
370
    -3
  6
Continuous
100
AcDbLine
 10
-314.165715
 20
307.288627
 30
0.0
 11
-314.165715
 21
247.783215
 31
0.0
  0
ARC
  5
72
100
AcDbEntity
  8
0
370
    -3
  6
Continuous
100
AcDbCircle
 10
-317.840715
 20
273.283215
 30
0.0
 40
1.0
100
AcDbArc
 50
90.0
 51
270.0
  0
ARC
  5
73
100
AcDbEntity
  8
0
370
    -3
  6
Continuous
100
AcDbCircle
 10
-317.921715
 20
267.783215
 30
0.0
 40
1.0
100
AcDbArc
 50
90.0
 51
270.0
  0
ARC
  5
74
100
AcDbEntity
  8
0
370
    -3
  6
Continuous
100
AcDbCircle
 10
-317.716715
 20
284.283215
 30
0.0
 40
1.0
100
AcDbArc
 50
90.0
 51
270.0
  0
ARC
  5
75
100
AcDbEntity
  8
0
370
    -3
  6
Continuous
100
AcDbCircle
 10
-321.874241
 20
267.988899
 30
0.0
 40
0.5
100
AcDbArc
 50
315.115138
 51
358.347093
  0
ARC
  5
76
100
AcDbEntity
  8
0
370
    -3
  6
Continuous
100
AcDbCircle
 10
-321.165715
 20
267.283215
 30
0.0
 40
0.5
100
AcDbArc
 50
135.115138
 51
180.0
  0
LINE
  5
77
100
AcDbEntity
  8
0
370
    -3
  6
Continuous
100
AcDbLine
 10
-321.665715
 20
267.283215
 30
0.0
 11
-321.665715
 21
247.783215
 31
0.0
  0
ARC
  5
78
100
AcDbEntity
  8
0
370
    -3
  6
Continuous
100
AcDbCircle
 10
378.334285
 20
247.783215
 30
0.0
 40
700.0
100
AcDbArc
 50
176.757441
 51
178.347093
  0
LINE
  5
79
100
AcDbEntity
  8
0
370
    -3
  6
Continuous
100
AcDbLine
 10
-319.665715
 20
276.729066
 30
0.0
 11
-319.665715
 21
297.914623
 31
0.0
  0
INSERT
  5
8C
100
AcDbEntity
  8
0
100
AcDbBlockReference
  2
ZU_SYM__USERS_HOME_SYMBOL_STD_SYM_B01_-1
 10
-319.665713
 20
291.977389
 30
0.0
  0
LINE
  5
8D
100
AcDbEntity
  8
0
370
    -3
  6
Continuous
100
AcDbLine
 10
-319.665715
 20
247.783215
 30
0.0
 11
-319.665715
 21
255.783215
 31
0.0
  0
ARC
  5
8E
100
AcDbEntity
  8
0
370
    -3
  6
Continuous
100
AcDbCircle
 10
-320.665715
 20
276.801911
 30
0.0
 40
1.0
100
AcDbArc
 50
285.221258
 51
0.0
  0
ARC
  5
8F
100
AcDbEntity
  8
0
370
    -3
  6
Continuous
100
AcDbCircle
 10
-320.140621
 20
274.872073
 30
0.0
 40
1.0
100
AcDbArc
 50
105.221258
 51
177.779019
  0
ARC
  5
90
100
AcDbEntity
  8
0
370
    -3
  6
Continuous
100
AcDbCircle
 10
378.334285
 20
248.783215
 30
0.0
 40
700.0
100
AcDbArc
 50
175.281496
 51
176.084948
  0
LINE
  5
91
100
AcDbEntity
  8
0
370
    -3
  6
Continuous
100
AcDbLine
 10
-317.840715
 20
274.283215
 30
0.0
 11
-314.165715
 21
274.475813
 31
0.0
  0
LINE
  5
92
100
AcDbEntity
  8
0
370
    -3
  6
Continuous
100
AcDbLine
 10
-317.840715
 20
272.283215
 30
0.0
 11
-314.165715
 21
272.090616
 31
0.0
  0
LINE
  5
93
100
AcDbEntity
  8
0
370
    -3
  6
Continuous
100
AcDbLine
 10
-317.921715
 20
268.783215
 30
0.0
 11
-314.165715
 21
268.980058
 31
0.0
  0
LINE
  5
94
100
AcDbEntity
  8
0
370
    -3
  6
Continuous
100
AcDbLine
 10
-317.921715
 20
266.783215
 30
0.0
 11
-314.165715
 21
266.586371
 31
0.0
  0
LINE
  5
95
100
AcDbEntity
  8
0
370
    -3
  6
Continuous
100
AcDbLine
 10
-319.665715
 20
218.837363
 30
0.0
 11
-319.665715
 21
197.651806
 31
0.0
  0
ARC
  5
96
100
AcDbEntity
  8
0
370
    -3
  6
Continuous
100
AcDbCircle
 10
-318.296715
 20
306.283215
 30
0.0
 40
1.0
100
AcDbArc
 50
90.0
 51
175.281496
  0
ARC
  5
97
100
AcDbEntity
  8
0
370
    -3
  6
Continuous
100
AcDbCircle
 10
-320.665715
 20
218.764518
 30
0.0
 40
1.0
100
AcDbArc
 50
0.0
 51
74.778742
  0
ARC
  5
98
100
AcDbEntity
  8
0
370
    -3
  6
Continuous
100
AcDbCircle
 10
-320.140621
 20
220.694356
 30
0.0
 40
1.0
100
AcDbArc
 50
182.220981
 51
254.778742
  0
LINE
  5
99
100
AcDbEntity
  8
0
370
    -3
  6
Continuous
100
AcDbLine
 10
-317.799715
 20
279.783215
 30
0.0
 11
-314.165715
 21
279.973665
 31
0.0
  0
ARC
  5
9A
100
AcDbEntity
  8
0
370
    -3
  6
Continuous
100
AcDbCircle
 10
-321.874241
 20
227.57753
 30
0.0
 40
0.5
100
AcDbArc
 50
1.652907
 51
44.884862
  0
LINE
  5
9B
100
AcDbEntity
  8
0
370
    -3
  6
Continuous
100
AcDbLine
 10
-317.799715
 20
277.783215
 30
0.0
 11
-314.165715
 21
277.592765
 31
0.0
  0
ARC
  5
9C
100
AcDbEntity
  8
0
370
    -3
  6
Continuous
100
AcDbCircle
 10
-318.965715
 20
262.083215
 30
0.0
 40
0.7
100
AcDbArc
 50
90.0
 51
180.0
  0
ARC
  5
9D
100
AcDbEntity
  8
0
370
    -3
  6
Continuous
100
AcDbCircle
 10
-321.165715
 20
228.283215
 30
0.0
 40
0.5
100
AcDbArc
 50
180.0
 51
224.884862
  0
LINE
  5
9E
100
AcDbEntity
  8
0
370
    -3
  6
Continuous
100
AcDbLine
 10
-319.665715
 20
262.083215
 30
0.0
 11
-319.665715
 21
255.783215
 31
0.0
  0
LINE
  5
9F
100
AcDbEntity
  8
0
370
    -3
  6
Continuous
100
AcDbLine
 10
-314.165715
 20
262.783215
 30
0.0
 11
-318.965715
 21
262.783215
 31
0.0
  0
LINE
  5
A0
100
AcDbEntity
  8
0
370
    -3
  6
Continuous
100
AcDbLine
 10
-318.296715
 20
307.283215
 30
0.0
 11
-314.165715
 21
307.283215
 31
0.0
  0
LINE
  5
A1
100
AcDbEntity
  8
0
370
    -3
  6
Continuous
100
AcDbLine
 10
-317.716715
 20
285.283215
 30
0.0
 11
-314.165715
 21
285.469315
 31
0.0
  0
LINE
  5
A2
100
AcDbEntity
  8
0
370
    -3
  6
Continuous
100
AcDbLine
 10
-321.665715
 20
228.283215
 30
0.0
 11
-321.665715
 21
247.783215
 31
0.0
  0
LINE
  5
A3
100
AcDbEntity
  8
0
370
    -3
  6
Continuous
100
AcDbLine
 10
-319.665715
 20
247.783215
 30
0.0
 11
-319.665715
 21
239.783215
 31
0.0
  0
ARC
  5
A4
100
AcDbEntity
  8
0
370
    -3
  6
Continuous
100
AcDbCircle
 10
-319.165715
 20
197.651806
 30
0.0
 40
0.5
100
AcDbArc
 50
180.0
 51
270.0
  0
LINE
  5
A5
100
AcDbEntity
  8
0
370
    -3
  6
CENTER
100
AcDbLine
 10
-326.101945
 20
291.977389
 30
0.0
 11
-317.25623
 21
291.977389
 31
0.0
  0
LINE
  5
A6
100
AcDbEntity
  8
0
370
    -3
  6
Continuous
100
AcDbLine
 10
-317.716715
 20
283.283215
 30
0.0
 11
-314.165715
 21
283.097115
 31
0.0
  0
ARC
  5
A7
100
AcDbEntity
  8
0
370
    -3
  6
Continuous
100
AcDbCircle
 10
-318.965715
 20
233.483215
 30
0.0
 40
0.7
100
AcDbArc
 50
180.0
 51
270.0
  0
LINE
  5
A8
100
AcDbEntity
  8
0
370
    -3
  6
Continuous
100
AcDbLine
 10
-319.665715
 20
233.483215
 30
0.0
 11
-319.665715
 21
239.783215
 31
0.0
  0
LINE
  5
A9
100
AcDbEntity
  8
0
370
    -3
  6
Continuous
100
AcDbLine
 10
-314.165715
 20
232.783215
 30
0.0
 11
-318.965715
 21
232.783215
 31
0.0
  0
ARC
  5
AA
100
AcDbEntity
  8
0
370
    -3
  6
Continuous
100
AcDbCircle
 10
-317.799715
 20
216.783215
 30
0.0
 40
1.0
100
AcDbArc
 50
90.0
 51
270.0
  0
ARC
  5
AB
100
AcDbEntity
  8
0
370
    -3
  6
Continuous
100
AcDbCircle
 10
-317.840715
 20
222.283215
 30
0.0
 40
1.0
100
AcDbArc
 50
90.0
 51
270.0
  0
ARC
  5
AC
100
AcDbEntity
  8
0
370
    -3
  6
Continuous
100
AcDbCircle
 10
-317.716715
 20
211.283215
 30
0.0
 40
1.0
100
AcDbArc
 50
90.0
 51
270.0
  0
ARC
  5
AD
100
AcDbEntity
  8
0
370
    -3
  6
Continuous
100
AcDbCircle
 10
-317.921715
 20
227.783215
 30
0.0
 40
1.0
100
AcDbArc
 50
90.0
 51
270.0
  0
LINE
  5
AE
100
AcDbEntity
  8
0
370
    -3
  6
Continuous
100
AcDbLine
 10
-317.716715
 20
210.283215
 30
0.0
 11
-314.165715
 21
210.097115
 31
0.0
  0
LINE
  5
AF
100
AcDbEntity
  8
0
370
    -3
  6
Continuous
100
AcDbLine
 10
-317.716715
 20
212.283215
 30
0.0
 11
-314.165715
 21
212.469315
 31
0.0
  0
LINE
  5
B0
100
AcDbEntity
  8
0
370
    -3
  6
Continuous
100
AcDbLine
 10
-317.799715
 20
215.783215
 30
0.0
 11
-314.165715
 21
215.592765
 31
0.0
  0
ARC
  5
B1
100
AcDbEntity
  8
0
370
    -3
  6
Continuous
100
AcDbCircle
 10
-319.165715
 20
297.914623
 30
0.0
 40
0.5
100
AcDbArc
 50
90.0
 51
180.0
  0
LINE
  5
B2
100
AcDbEntity
  8
0
370
    -3
  6
Continuous
100
AcDbLine
 10
-317.799715
 20
217.783215
 30
0.0
 11
-314.165715
 21
217.973665
 31
0.0
  0
LINE
  5
B3
100
AcDbEntity
  8
0
370
    -3
  6
Continuous
100
AcDbLine
 10
-317.840715
 20
221.283215
 30
0.0
 11
-314.165715
 21
221.090616
 31
0.0
  0
LINE
  5
B4
100
AcDbEntity
  8
0
370
    -3
  6
Continuous
100
AcDbLine
 10
-317.840715
 20
223.283215
 30
0.0
 11
-314.165715
 21
223.475813
 31
0.0
  0
LINE
  5
B5
100
AcDbEntity
  8
0
370
    -3
  6
Continuous
100
AcDbLine
 10
-317.921715
 20
226.783215
 30
0.0
 11
-314.165715
 21
226.586371
 31
0.0
  0
LINE
  5
B6
100
AcDbEntity
  8
0
370
    -3
  6
Continuous
100
AcDbLine
 10
-317.921715
 20
228.783215
 30
0.0
 11
-314.165715
 21
228.980058
 31
0.0
  0
ARC
  5
B7
100
AcDbEntity
  8
0
370
    -3
  6
Continuous
100
AcDbCircle
 10
-317.799715
 20
278.783215
 30
0.0
 40
1.0
100
AcDbArc
 50
90.0
 51
270.0
  0
ARC
  5
B8
100
AcDbEntity
  8
0
370
    -3
  6
Continuous
100
AcDbCircle
 10
378.334285
 20
247.783215
 30
0.0
 40
700.0
100
AcDbArc
 50
181.652907
 51
183.242558
  0
LINE
  5
B9
100
AcDbEntity
  8
0
370
    -3
  6
CENTER
100
AcDbLine
 10
-326.101945
 20
203.589041
 30
0.0
 11
-317.25623
 21
203.589041
 31
0.0
  0
INSERT
  5
CC
100
AcDbEntity
  8
0
100
AcDbBlockReference
  2
ZU_SYM__USERS_HOME_SYMBOL_STD_SYM_B01_00001-1
 10
-319.665713
 20
203.589041
 30
0.0
  0
LINE
  5
CD
100
AcDbEntity
  8
0
370
    -3
  6
Continuous
100
AcDbLine
 10
-318.296715
 20
188.283215
 30
0.0
 11
-314.165715
 21
188.283215
 31
0.0
  0
ARC
  5
CE
100
AcDbEntity
  8
0
370
    -3
  6
Continuous
100
AcDbCircle
 10
-318.296715
 20
189.283215
 30
0.0
 40
1.0
100
AcDbArc
 50
184.718504
 51
270.0
  0
ARC
  5
CF
100
AcDbEntity
  8
0
370
    -3
  6
Continuous
100
AcDbCircle
 10
378.334285
 20
246.783215
 30
0.0
 40
700.0
100
AcDbArc
 50
183.915052
 51
184.718504
  0
LINE
  5
D0
100
AcDbEntity
  8
0
370
    -3
  6
Continuous
100
AcDbLine
 10
-314.665715
 20
206.339041
 30
0.0
 11
-314.665715
 21
197.151806
 31
0.0
  0
LINE
  5
D1
100
AcDbEntity
  8
0
370
    -3
  6
Continuous
100
AcDbLine
 10
-314.665715
 20
206.339041
 30
0.0
 11
-314.165715
 21
206.339041
 31
0.0
  0
LINE
  5
D2
100
AcDbEntity
  8
0
370
    -3
  6
Continuous
100
AcDbLine
 10
-319.332214
 20
197.151806
 30
0.0
 11
-314.665715
 21
197.151806
 31
0.0
  0
LINE
  5
D3
100
AcDbEntity
  8
0
370
    -3
  6
Continuous
100
AcDbLine
 10
-314.165715
 20
188.288627
 30
0.0
 11
-314.165715
 21
247.783215
 31
0.0
  0
LINE
  5
D4
100
AcDbEntity
  8
0
370
    -3
  6
Continuous
100
AcDbLine
 10
-319.332214
 20
298.414623
 30
0.0
 11
-314.665715
 21
298.414623
 31
0.0
  0
LINE
  5
D5
100
AcDbEntity
  8
0
370
    -3
  6
Continuous
100
AcDbLine
 10
-314.665715
 20
289.227389
 30
0.0
 11
-314.165715
 21
289.227389
 31
0.0
  0
LINE
  5
D6
100
AcDbEntity
  8
0
370
    -3
  6
Continuous
100
AcDbLine
 10
-231.560834
 20
9.114059
 30
0.0
 11
-175.165715
 21
9.114059
 31
0.0
  0
LINE
  5
D7
100
AcDbEntity
  8
0
370
    -3
  6
Continuous
100
AcDbLine
 10
-231.560834
 20
-81.617514
 30
0.0
 11
-175.165715
 21
-81.617514
 31
0.0
  0
LINE
  5
D8
100
AcDbEntity
  8
0
370
    -3
  6
Continuous
100
AcDbLine
 10
-228.268246
 20
-55.001728
 30
0.0
 11
-175.165715
 21
-55.001728
 31
0.0
  0
LINE
  5
D9
100
AcDbEntity
  8
0
370
    -3
  6
Continuous
100
AcDbLine
 10
-228.268246
 20
-4.101206
 30
0.0
 11
-175.165715
 21
-4.101206
 31
0.0
  0
LINE
  5
DA
100
AcDbEntity
  8
0
370
    -3
  6
Continuous
100
AcDbLine
 10
-228.268246
 20
-0.892607
 30
0.0
 11
-175.165715
 21
-0.892607
 31
0.0
  0
LINE
  5
DB
100
AcDbEntity
  8
0
370
    -3
  6
Continuous
100
AcDbLine
 10
-228.321456
 20
1.444092
 30
0.0
 11
-175.165715
 21
1.444092
 31
0.0
  0
LINE
  5
DC
100
AcDbEntity
  8
0
370
    -3
  6
Continuous
100
AcDbLine
 10
-228.268246
 20
-17.501728
 30
0.0
 11
-175.165715
 21
-17.501728
 31
0.0
  0
LINE
  5
DD
100
AcDbEntity
  8
0
370
    -3
  6
Continuous
100
AcDbLine
 10
-228.268246
 20
-9.663119
 30
0.0
 11
-175.165715
 21
-9.663119
 31
0.0
  0
LINE
  5
DE
100
AcDbEntity
  8
0
370
    -3
  6
Continuous
100
AcDbLine
 10
-228.268246
 20
-11.787344
 30
0.0
 11
-175.165715
 21
-11.787344
 31
0.0
  0
LINE
  5
DF
100
AcDbEntity
  8
0
370
    -3
  6
Continuous
100
AcDbLine
 10
-228.268246
 20
-6.33061
 30
0.0
 11
-175.165715
 21
-6.33061
 31
0.0
  0
LINE
  5
E0
100
AcDbEntity
  8
0
370
    -3
  6
Continuous
100
AcDbLine
 10
-175.165715
 20
-94.751728
 30
0.0
 11
-175.165715
 21
-36.251728
 31
0.0
  0
LINE
  5
E1
100
AcDbEntity
  8
0
370
    -3
  6
Continuous
100
AcDbLine
 10
-175.165715
 20
22.248272
 30
0.0
 11
-175.165715
 21
-36.251728
 31
0.0
  0
LINE
  5
E2
100
AcDbEntity
  8
0
370
    -3
  6
Continuous
100
AcDbLine
 10
-228.268246
 20
-73.947547
 30
0.0
 11
-175.165715
 21
-73.947547
 31
0.0
  0
LINE
  5
E3
100
AcDbEntity
  8
0
370
    -3
  6
Continuous
100
AcDbLine
 10
-228.268246
 20
-71.610848
 30
0.0
 11
-175.165715
 21
-71.610848
 31
0.0
  0
LINE
  5
E4
100
AcDbEntity
  8
0
370
    -3
  6
Continuous
100
AcDbLine
 10
-228.268246
 20
-68.402249
 30
0.0
 11
-175.165715
 21
-68.402249
 31
0.0
  0
LINE
  5
E5
100
AcDbEntity
  8
0
370
    -3
  6
Continuous
100
AcDbLine
 10
-228.268246
 20
-66.172846
 30
0.0
 11
-175.165715
 21
-66.172846
 31
0.0
  0
LINE
  5
E6
100
AcDbEntity
  8
0
370
    -3
  6
Continuous
100
AcDbLine
 10
-228.268246
 20
-62.840336
 30
0.0
 11
-175.165715
 21
-62.840336
 31
0.0
  0
LINE
  5
E7
100
AcDbEntity
  8
0
370
    -3
  6
Continuous
100
AcDbLine
 10
-228.268246
 20
-60.716111
 30
0.0
 11
-175.165715
 21
-60.716111
 31
0.0
  0
LINE
  5
E8
100
AcDbEntity
  8
0
370
    -3
  6
Continuous
100
AcDbLine
 10
-324.465675
 20
11.842447
 30
0.0
 11
-323.965675
 21
12.542445
 31
0.0
  0
LINE
  5
E9
100
AcDbEntity
  8
0
370
    -3
  6
Continuous
100
AcDbLine
 10
-323.965691
 20
12.542461
 30
0.0
 11
-319.665699
 21
12.542444
 31
0.0
  0
LINE
  5
EA
100
AcDbEntity
  8
0
370
    -3
  6
Continuous
100
AcDbLine
 10
-319.665697
 20
12.542438
 30
0.0
 11
-319.665705
 21
10.514419
 31
0.0
  0
LINE
  5
EB
100
AcDbEntity
  8
0
370
    -3
  6
Continuous
100
AcDbLine
 10
-320.965703
 20
10.280577
 30
0.0
 11
-320.965693
 21
12.54245
 31
0.0
  0
ARC
  5
EC
100
AcDbEntity
  8
0
370
    -3
  6
Continuous
100
AcDbCircle
 10
-319.165715
 20
13.879681
 30
0.0
 40
0.5
100
AcDbArc
 50
90.0
 51
180.0
  0
LINE
  5
ED
100
AcDbEntity
  8
0
370
    -3
  6
Continuous
100
AcDbLine
 10
-319.665715
 20
10.548272
 30
0.0
 11
-319.665715
 21
13.879681
 31
0.0
  0
LINE
  5
EE
100
AcDbEntity
  8
0
370
    -3
  6
Continuous
100
AcDbLine
 10
-319.165715
 20
14.379681
 30
0.0
 11
-314.665715
 21
14.379681
 31
0.0
  0
LINE
  5
EF
100
AcDbEntity
  8
0
370
    -3
  6
Continuous
100
AcDbLine
 10
-314.665715
 20
10.548272
 30
0.0
 11
-314.665715
 21
14.379681
 31
0.0
  0
LINE
  5
F0
100
AcDbEntity
  8
0
370
    -3
  6
Continuous
100
AcDbLine
 10
-314.165715
 20
22.248272
 30
0.0
 11
-314.165715
 21
10.548272
 31
0.0
  0
LINE
  5
F1
100
AcDbEntity
  8
0
370
    -3
  6
Continuous
100
AcDbLine
 10
-318.296715
 20
22.248272
 30
0.0
 11
-314.165715
 21
22.248272
 31
0.0
  0
ARC
  5
F2
100
AcDbEntity
  8
0
370
    -3
  6
Continuous
100
AcDbCircle
 10
378.334285
 20
-36.251728
 30
0.0
 40
700.0
100
AcDbArc
 50
175.281496
 51
176.002901
  0
ARC
  5
F3
100
AcDbEntity
  8
0
370
    -3
  6
Continuous
100
AcDbCircle
 10
-318.296715
 20
21.248272
 30
0.0
 40
1.0
100
AcDbArc
 50
90.0
 51
175.281496
  0
LINE
  5
F4
100
AcDbEntity
  8
0
370
    -3
  6
Continuous
100
AcDbLine
 10
-314.165715
 20
22.248272
 30
0.0
 11
-314.165715
 21
10.548272
 31
0.0
  0
LINE
  5
F5
100
AcDbEntity
  8
0
370
    -3
  6
Continuous
100
AcDbLine
 10
-314.165715
 20
20.748272
 30
0.0
 11
-175.165715
 21
20.748272
 31
0.0
  0
LINE
  5
F6
100
AcDbEntity
  8
0
370
    -3
  6
Continuous
100
AcDbLine
 10
-314.165715
 20
21.248272
 30
0.0
 11
-175.165715
 21
21.248272
 31
0.0
  0
LINE
  5
F7
100
AcDbEntity
  8
0
370
    -3
  6
Continuous
100
AcDbLine
 10
-314.165715
 20
19.748272
 30
0.0
 11
-175.165715
 21
19.748272
 31
0.0
  0
LINE
  5
F8
100
AcDbEntity
  8
0
370
    -3
  6
Continuous
100
AcDbLine
 10
-314.165715
 20
18.748272
 30
0.0
 11
-175.165715
 21
18.748272
 31
0.0
  0
LINE
  5
F9
100
AcDbEntity
  8
0
370
    -3
  6
Continuous
100
AcDbLine
 10
-314.165715
 20
14.063807
 30
0.0
 11
-175.165715
 21
14.063807
 31
0.0
  0
LINE
  5
FA
100
AcDbEntity
  8
0
370
    -3
  6
Continuous
100
AcDbLine
 10
-175.165715
 20
22.248272
 30
0.0
 11
-314.165715
 21
22.248272
 31
0.0
  0
LINE
  5
FB
100
AcDbEntity
  8
0
370
    -3
  6
Continuous
100
AcDbLine
 10
-324.465706
 20
8.253187
 30
0.0
 11
-324.465692
 21
11.842459
 31
0.0
  0
LINE
  5
FC
100
AcDbEntity
  8
0
370
    -3
  6
Continuous
100
AcDbLine
 10
-323.9657
 20
10.24246
 30
0.0
 11
-320.965703
 21
10.242451
 31
0.0
  0
ARC
  5
FD
100
AcDbEntity
  8
0
370
    -3
  6
Continuous
100
AcDbCircle
 10
-322.895699
 20
11.392458
 30
0.0
 40
1.57
100
AcDbArc
 50
179.999745
 51
227.099746
  0
ARC
  5
FE
100
AcDbEntity
  8
0
370
    -3
  6
Continuous
100
AcDbCircle
 10
-318.925712
 20
7.942443
 30
0.0
 40
5.539999
100
AcDbArc
 50
155.470187
 51
176.688562
  0
LINE
  5
FF
100
AcDbEntity
  8
0
370
    -3
  6
Continuous
100
AcDbLine
 10
-319.665726
 20
-83.017872
 30
0.0
 11
-319.665734
 21
-85.045893
 31
0.0
  0
LINE
  5
100
100
AcDbEntity
  8
0
370
    -3
  6
Continuous
100
AcDbLine
 10
-320.965731
 20
-85.045895
 30
0.0
 11
-320.965721
 21
-82.784027
 31
0.0
  0
ARC
  5
101
100
AcDbEntity
  8
0
370
    -3
  6
Continuous
100
AcDbCircle
 10
-319.165715
 20
-86.383136
 30
0.0
 40
0.5
100
AcDbArc
 50
180.0
 51
270.0
  0
LINE
  5
102
100
AcDbEntity
  8
0
370
    -3
  6
Continuous
100
AcDbLine
 10
-319.665715
 20
-83.017873
 30
0.0
 11
-319.665715
 21
-86.383136
 31
0.0
  0
LINE
  5
103
100
AcDbEntity
  8
0
370
    -3
  6
Continuous
100
AcDbLine
 10
-319.165715
 20
-86.883136
 30
0.0
 11
-314.665715
 21
-86.883136
 31
0.0
  0
LINE
  5
104
100
AcDbEntity
  8
0
370
    -3
  6
Continuous
100
AcDbLine
 10
-314.665715
 20
-83.051728
 30
0.0
 11
-314.665715
 21
-86.883136
 31
0.0
  0
LINE
  5
105
100
AcDbEntity
  8
0
370
    -3
  6
Continuous
100
AcDbLine
 10
-314.165715
 20
-94.751728
 30
0.0
 11
-314.165715
 21
-83.051728
 31
0.0
  0
LINE
  5
106
100
AcDbEntity
  8
0
370
    -3
  6
Continuous
100
AcDbLine
 10
-318.296715
 20
-94.751728
 30
0.0
 11
-314.165715
 21
-94.751728
 31
0.0
  0
ARC
  5
107
100
AcDbEntity
  8
0
370
    -3
  6
Continuous
100
AcDbCircle
 10
378.334285
 20
-36.251728
 30
0.0
 40
700.0
100
AcDbArc
 50
183.997098
 51
184.718504
  0
ARC
  5
108
100
AcDbEntity
  8
0
370
    -3
  6
Continuous
100
AcDbCircle
 10
-318.296715
 20
-93.751728
 30
0.0
 40
1.0
100
AcDbArc
 50
184.718504
 51
270.0
  0
LINE
  5
109
100
AcDbEntity
  8
0
370
    -3
  6
Continuous
100
AcDbLine
 10
-314.165715
 20
-93.251728
 30
0.0
 11
-175.165715
 21
-93.251728
 31
0.0
  0
LINE
  5
10A
100
AcDbEntity
  8
0
370
    -3
  6
Continuous
100
AcDbLine
 10
-314.165715
 20
-93.751728
 30
0.0
 11
-175.165715
 21
-93.751728
 31
0.0
  0
LINE
  5
10B
100
AcDbEntity
  8
0
370
    -3
  6
Continuous
100
AcDbLine
 10
-314.165715
 20
-92.251728
 30
0.0
 11
-175.165715
 21
-92.251728
 31
0.0
  0
LINE
  5
10C
100
AcDbEntity
  8
0
370
    -3
  6
Continuous
100
AcDbLine
 10
-314.165715
 20
-91.251728
 30
0.0
 11
-175.165715
 21
-91.251728
 31
0.0
  0
LINE
  5
10D
100
AcDbEntity
  8
0
370
    -3
  6
Continuous
100
AcDbLine
 10
-314.165715
 20
-86.567262
 30
0.0
 11
-175.165715
 21
-86.567262
 31
0.0
  0
LINE
  5
10E
100
AcDbEntity
  8
0
370
    -3
  6
Continuous
100
AcDbLine
 10
-175.165715
 20
-94.751728
 30
0.0
 11
-314.165715
 21
-94.751728
 31
0.0
  0
LINE
  5
10F
100
AcDbEntity
  8
0
370
    -3
  6
Continuous
100
AcDbLine
 10
-319.665738
 20
-85.045895
 30
0.0
 11
-323.965728
 21
-85.045878
 31
0.0
  0
LINE
  5
110
100
AcDbEntity
  8
0
370
    -3
  6
Continuous
100
AcDbLine
 10
-323.965709
 20
-85.045863
 30
0.0
 11
-324.465702
 21
-84.34586
 31
0.0
  0
LINE
  5
111
100
AcDbEntity
  8
0
370
    -3
  6
Continuous
100
AcDbLine
 10
-324.465723
 20
-84.345874
 30
0.0
 11
-324.465708
 21
-80.75664
 31
0.0
  0
LINE
  5
112
100
AcDbEntity
  8
0
370
    -3
  6
Continuous
100
AcDbLine
 10
-323.965719
 20
-82.745881
 30
0.0
 11
-321.102525
 21
-82.745893
 31
0.0
  0
ARC
  5
113
100
AcDbEntity
  8
0
370
    -3
  6
Continuous
100
AcDbCircle
 10
-322.895727
 20
-83.895887
 30
0.0
 40
1.57
100
AcDbArc
 50
132.899744
 51
179.999745
  0
ARC
  5
114
100
AcDbEntity
  8
0
370
    -3
  6
Continuous
100
AcDbCircle
 10
-318.925712
 20
-80.445904
 30
0.0
 40
5.539999
100
AcDbArc
 50
183.311371
 51
204.52925
  0
LINE
  5
115
100
AcDbEntity
  8
0
370
    -3
  6
Continuous
100
AcDbLine
 10
-175.165715
 20
22.248272
 30
0.0
 11
-175.165715
 21
-36.251728
 31
0.0
  0
LINE
  5
116
100
AcDbEntity
  8
0
370
    -3
  6
Continuous
100
AcDbLine
 10
-175.165715
 20
-94.751728
 30
0.0
 11
-175.165715
 21
-36.251728
 31
0.0
  0
MTEXT
  5
118
100
AcDbEntity
  8
0
370
    -3
  6
Continuous
100
AcDbMText
 10
18.29353
 20
-13.15625
 30
0.0
 40
2.8
 41
0.0
 71
     7
 72
     1
  1
\W0.83;　
  7
ZU_SHPTB00001
 11
1.0
 21
0.0
 31
0.0
 73
     1
 44
1.0
  0
LINE
  5
119
100
AcDbEntity
  8
0
370
    -3
  6
Continuous
100
AcDbLine
 10
-142.665715
 20
44.748272
 30
0.0
 11
-151.665714
 21
44.748272
 31
0.0
  0
LINE
  5
11A
100
AcDbEntity
  8
0
370
    -3
  6
Continuous
100
AcDbLine
 10
-153.665715
 20
-7.378744
 30
0.0
 11
-153.665715
 21
29.354259
 31
0.0
  0
LINE
  5
11B
100
AcDbEntity
  8
0
370
    -3
  6
Continuous
100
AcDbLine
 10
-153.665715
 20
-27.124711
 30
0.0
 11
-153.665715
 21
-31.251728
 31
0.0
  0
ARC
  5
11C
100
AcDbEntity
  8
0
370
    -3
  6
Continuous
100
AcDbCircle
 10
-151.665715
 20
42.748272
 30
0.0
 40
2.0
100
AcDbArc
 50
90.0
 51
180.0
  0
LINE
  5
11D
100
AcDbEntity
  8
0
370
    -3
  6
Continuous
100
AcDbLine
 10
-142.665715
 20
-36.251728
 30
0.0
 11
-142.665715
 21
-84.531484
 31
0.0
  0
LINE
  5
11E
100
AcDbEntity
  8
0
370
    -3
  6
Continuous
100
AcDbLine
 10
-142.665715
 20
-36.251728
 30
0.0
 11
-142.665715
 21
44.748272
 31
0.0
  0
LINE
  5
11F
100
AcDbEntity
  8
0
370
    -3
  6
Continuous
100
AcDbLine
 10
-148.665715
 20
35.848272
 30
0.0
 11
-148.665715
 21
31.354259
 31
0.0
  0
LINE
  5
120
100
AcDbEntity
  8
0
370
    -3
  6
Continuous
100
AcDbLine
 10
-153.665715
 20
-41.251728
 30
0.0
 11
-153.665715
 21
-93.724879
 31
0.0
  0
ARC
  5
121
100
AcDbEntity
  8
0
370
    -3
  6
Continuous
100
AcDbCircle
 10
-149.665715
 20
40.157779
 30
0.0
 40
1.0
100
AcDbArc
 50
0.0
 51
90.0
  0
ARC
  5
122
100
AcDbEntity
  8
0
370
    -3
  6
Continuous
100
AcDbCircle
 10
-152.665715
 20
42.157779
 30
0.0
 40
1.0
100
AcDbArc
 50
180.0
 51
270.0
  0
LINE
  5
123
100
AcDbEntity
  8
0
370
    -3
  6
Continuous
100
AcDbLine
 10
-152.665715
 20
41.157779
 30
0.0
 11
-149.665715
 21
41.157779
 31
0.0
  0
ARC
  5
124
100
AcDbEntity
  8
0
370
    -3
  6
Continuous
100
AcDbCircle
 10
-149.665715
 20
31.354259
 30
0.0
 40
1.0
100
AcDbArc
 50
270.0
 51
0.0
  0
ARC
  5
125
100
AcDbEntity
  8
0
370
    -3
  6
Continuous
100
AcDbCircle
 10
-152.665715
 20
29.354259
 30
0.0
 40
1.0
100
AcDbArc
 50
90.0
 51
180.0
  0
LINE
  5
126
100
AcDbEntity
  8
0
370
    -3
  6
Continuous
100
AcDbLine
 10
-152.665715
 20
30.354259
 30
0.0
 11
-149.665715
 21
30.354259
 31
0.0
  0
LINE
  5
127
100
AcDbEntity
  8
0
370
    -3
  6
Continuous
100
AcDbLine
 10
-148.665715
 20
31.354259
 30
0.0
 11
-148.665715
 21
40.157779
 31
0.0
  0
ARC
  5
128
100
AcDbEntity
  8
0
370
    -3
  6
Continuous
100
AcDbCircle
 10
-149.665715
 20
-30.251728
 30
0.0
 40
1.0
100
AcDbArc
 50
0.0
 51
90.0
  0
ARC
  5
129
100
AcDbEntity
  8
0
370
    -3
  6
Continuous
100
AcDbCircle
 10
-152.665715
 20
-28.251728
 30
0.0
 40
1.0
100
AcDbArc
 50
180.0
 51
270.0
  0
LINE
  5
12A
100
AcDbEntity
  8
0
370
    -3
  6
Continuous
100
AcDbLine
 10
-148.665715
 20
-42.251728
 30
0.0
 11
-148.665715
 21
-30.251728
 31
0.0
  0
LINE
  5
12B
100
AcDbEntity
  8
0
370
    -3
  6
Continuous
100
AcDbLine
 10
-152.665715
 20
-29.251728
 30
0.0
 11
-149.665715
 21
-29.251728
 31
0.0
  0
ARC
  5
12C
100
AcDbEntity
  8
0
370
    -3
  6
Continuous
100
AcDbCircle
 10
-155.665715
 20
-27.124711
 30
0.0
 40
2.0
100
AcDbArc
 50
0.0
 51
75.522488
  0
ARC
  5
12D
100
AcDbEntity
  8
0
370
    -3
  6
Continuous
100
AcDbCircle
 10
-155.665715
 20
-7.378744
 30
0.0
 40
2.0
100
AcDbArc
 50
284.477512
 51
360.0
  0
ARC
  5
12E
100
AcDbEntity
  8
0
370
    -3
  6
Continuous
100
AcDbCircle
 10
-149.665715
 20
-42.251728
 30
0.0
 40
1.0
100
AcDbArc
 50
270.0
 51
0.0
  0
ARC
  5
12F
100
AcDbEntity
  8
0
370
    -3
  6
Continuous
100
AcDbCircle
 10
-152.665715
 20
-44.251728
 30
0.0
 40
1.0
100
AcDbArc
 50
90.0
 51
180.0
  0
LINE
  5
130
100
AcDbEntity
  8
0
370
    -3
  6
Continuous
100
AcDbLine
 10
-152.665715
 20
-43.251728
 30
0.0
 11
-149.665715
 21
-43.251728
 31
0.0
  0
LINE
  5
131
100
AcDbEntity
  8
0
370
    -3
  6
Continuous
100
AcDbLine
 10
118.705433
 20
-91.851728
 30
0.0
 11
162.805433
 21
-91.851728
 31
0.0
  0
ARC
  5
132
100
AcDbEntity
  8
0
370
    -3
  6
Continuous
100
AcDbCircle
 10
118.705433
 20
-86.851728
 30
0.0
 40
5.0
100
AcDbArc
 50
180.0
 51
270.0
  0
ARC
  5
133
100
AcDbEntity
  8
0
370
    -3
  6
Continuous
100
AcDbCircle
 10
206.905433
 20
-86.851728
 30
0.0
 40
5.0
100
AcDbArc
 50
270.0
 51
0.0
  0
LINE
  5
134
100
AcDbEntity
  8
0
370
    -3
  6
Continuous
100
AcDbLine
 10
206.905433
 20
-91.851728
 30
0.0
 11
162.805433
 21
-91.851728
 31
0.0
  0
ARC
  5
135
100
AcDbEntity
  8
0
370
    -3
  6
Continuous
100
AcDbCircle
 10
105.236443
 20
-94.251728
 30
0.0
 40
3.0
100
AcDbArc
 50
270.0
 51
0.0
  0
ARC
  5
136
100
AcDbEntity
  8
0
370
    -3
  6
Continuous
100
AcDbCircle
 10
220.374423
 20
-94.251728
 30
0.0
 40
3.0
100
AcDbArc
 50
180.0
 51
270.0
  0
ARC
  5
137
100
AcDbEntity
  8
0
370
    -3
  6
Continuous
100
AcDbCircle
 10
80.305433
 20
-95.055575
 30
0.0
 40
3.0
100
AcDbArc
 50
300.0
 51
0.0
  0
ARC
  5
138
100
AcDbEntity
  8
0
370
    -3
  6
Continuous
100
AcDbCircle
 10
245.305433
 20
-95.055575
 30
0.0
 40
3.0
100
AcDbArc
 50
180.0
 51
240.0
  0
LINE
  5
139
100
AcDbEntity
  8
0
370
    -3
  6
Continuous
100
AcDbLine
 10
245.305433
 20
-115.251728
 30
0.0
 11
217.305433
 21
-115.251728
 31
0.0
  0
LINE
  5
13A
100
AcDbEntity
  8
0
370
    -3
  6
CENTER
100
AcDbLine
 10
232.805433
 20
-118.832231
 30
0.0
 11
232.805433
 21
-88.59641
 31
0.0
  0
ARC
  5
13B
100
AcDbEntity
  8
0
370
    -3
  6
Continuous
100
AcDbCircle
 10
110.305433
 20
-115.251728
 30
0.0
 40
2.0
100
AcDbArc
 50
90.0
 51
180.0
  0
LINE
  5
13C
100
AcDbEntity
  8
0
370
    -3
  6
Continuous
100
AcDbLine
 10
80.305433
 20
-115.251728
 30
0.0
 11
108.305433
 21
-115.251728
 31
0.0
  0
LINE
  5
13D
100
AcDbEntity
  8
0
370
    -3
  6
Continuous
100
AcDbLine
 10
80.305433
 20
-100.251728
 30
0.0
 11
80.305433
 21
-115.251728
 31
0.0
  0
ARC
  5
13E
100
AcDbEntity
  8
0
370
    -3
  6
Continuous
100
AcDbCircle
 10
83.305433
 20
-100.251728
 30
0.0
 40
3.0
100
AcDbArc
 50
90.0
 51
180.0
  0
LINE
  5
13F
100
AcDbEntity
  8
0
370
    -3
  6
Continuous
100
AcDbLine
 10
83.305433
 20
-97.251728
 30
0.0
 11
162.805433
 21
-97.251728
 31
0.0
  0
LINE
  5
140
100
AcDbEntity
  8
0
370
    -3
  6
CENTER
100
AcDbLine
 10
92.805433
 20
-118.832231
 30
0.0
 11
92.805433
 21
-89.09641
 31
0.0
  0
LINE
  5
141
100
AcDbEntity
  8
0
370
    -3
  6
Continuous
100
AcDbLine
 10
245.305433
 20
-100.251728
 30
0.0
 11
245.305433
 21
-115.251728
 31
0.0
  0
ARC
  5
142
100
AcDbEntity
  8
0
370
    -3
  6
Continuous
100
AcDbCircle
 10
242.305433
 20
-100.251728
 30
0.0
 40
3.0
100
AcDbArc
 50
0.0
 51
90.0
  0
LINE
  5
143
100
AcDbEntity
  8
0
370
    -3
  6
Continuous
100
AcDbLine
 10
242.305433
 20
-97.251728
 30
0.0
 11
162.805433
 21
-97.251728
 31
0.0
  0
ARC
  5
144
100
AcDbEntity
  8
0
370
    -3
  6
Continuous
100
AcDbCircle
 10
215.305433
 20
-115.251728
 30
0.0
 40
2.0
100
AcDbArc
 50
0.0
 51
90.0
  0
ARC
  5
145
100
AcDbEntity
  8
0
370
    -3
  6
Continuous
100
AcDbCircle
 10
237.910914
 20
-94.251728
 30
0.0
 40
3.0
100
AcDbArc
 50
180.0
 51
270.0
  0
ARC
  5
146
100
AcDbEntity
  8
0
370
    -3
  6
Continuous
100
AcDbCircle
 10
87.699953
 20
-94.251728
 30
0.0
 40
3.0
100
AcDbArc
 50
270.0
 51
0.0
  0
ARC
  5
147
100
AcDbEntity
  8
0
370
    -3
  6
Continuous
100
AcDbCircle
 10
220.609022
 20
-94.251728
 30
0.0
 40
3.0
100
AcDbArc
 50
180.0
 51
270.0
  0
ARC
  5
148
100
AcDbEntity
  8
0
370
    -3
  6
Continuous
100
AcDbCircle
 10
105.001845
 20
-94.251728
 30
0.0
 40
3.0
100
AcDbArc
 50
270.0
 51
0.0
  0
LINE
  5
149
100
AcDbEntity
  8
0
370
    -3
  6
Continuous
100
AcDbLine
 10
110.305433
 20
-113.251728
 30
0.0
 11
162.805433
 21
-113.251728
 31
0.0
  0
LINE
  5
14A
100
AcDbEntity
  8
0
370
    -3
  6
Continuous
100
AcDbLine
 10
215.305433
 20
-113.251728
 30
0.0
 11
162.805433
 21
-113.251728
 31
0.0
  0
ARC
  5
14B
100
AcDbEntity
  8
0
370
    -3
  6
Continuous
100
AcDbCircle
 10
162.805433
 20
-405.251728
 30
0.0
 40
450.0
100
AcDbArc
 50
90.0
 51
92.158403
  0
ARC
  5
14C
100
AcDbEntity
  8
0
370
    -3
  6
Continuous
100
AcDbCircle
 10
162.805433
 20
-405.251728
 30
0.0
 40
450.0
100
AcDbArc
 50
87.841597
 51
90.0
  0
LINE
  5
14D
100
AcDbEntity
  8
0
370
    -3
  6
Continuous
100
AcDbLine
 10
242.305433
 20
-20.524876
 30
0.0
 11
242.305433
 21
-95.055575
 31
0.0
  0
LINE
  5
14E
100
AcDbEntity
  8
0
370
    -3
  6
Continuous
100
AcDbLine
 10
234.910914
 20
-15.251728
 30
0.0
 11
234.910914
 21
-94.251728
 31
0.0
  0
LINE
  5
14F
100
AcDbEntity
  8
0
370
    -3
  6
Continuous
100
AcDbLine
 10
127.862623
 20
-10.251728
 30
0.0
 11
116.205433
 21
-10.251728
 31
0.0
  0
ARC
  5
150
100
AcDbEntity
  8
0
370
    -3
  6
Continuous
100
AcDbCircle
 10
162.805433
 20
-10.251728
 30
0.0
 40
33.0
100
AcDbArc
 50
183.275829
 51
270.0
  0
ARC
  5
151
100
AcDbEntity
  8
0
370
    -3
  6
Continuous
100
AcDbCircle
 10
127.862623
 20
-12.251728
 30
0.0
 40
2.0
100
AcDbArc
 50
3.275829
 51
90.0
  0
ARC
  5
152
100
AcDbEntity
  8
0
370
    -3
  6
Continuous
100
AcDbCircle
 10
116.205433
 20
-12.751728
 30
0.0
 40
2.5
100
AcDbArc
 50
90.0
 51
180.0
  0
LINE
  5
153
100
AcDbEntity
  8
0
370
    -3
  6
Continuous
100
AcDbLine
 10
113.705433
 20
-12.751728
 30
0.0
 11
113.705433
 21
-86.851728
 31
0.0
  0
ARC
  5
154
100
AcDbEntity
  8
0
370
    -3
  6
Continuous
100
AcDbCircle
 10
209.405433
 20
-12.751728
 30
0.0
 40
2.5
100
AcDbArc
 50
0.0
 51
90.0
  0
ARC
  5
155
100
AcDbEntity
  8
0
370
    -3
  6
Continuous
100
AcDbCircle
 10
197.748244
 20
-12.251728
 30
0.0
 40
2.0
100
AcDbArc
 50
90.0
 51
176.724171
  0
ARC
  5
156
100
AcDbEntity
  8
0
370
    -3
  6
Continuous
100
AcDbCircle
 10
162.805433
 20
-10.251728
 30
0.0
 40
33.0
100
AcDbArc
 50
270.0
 51
356.724171
  0
LINE
  5
157
100
AcDbEntity
  8
0
370
    -3
  6
Continuous
100
AcDbLine
 10
211.905433
 20
-12.751728
 30
0.0
 11
211.905433
 21
-86.851728
 31
0.0
  0
LINE
  5
158
100
AcDbEntity
  8
0
370
    -3
  6
Continuous
100
AcDbLine
 10
197.748244
 20
-10.251728
 30
0.0
 11
209.405433
 21
-10.251728
 31
0.0
  0
ARC
  5
159
100
AcDbEntity
  8
0
370
    -3
  6
Continuous
100
AcDbCircle
 10
162.805433
 20
-10.251728
 30
0.0
 40
22.5
100
AcDbArc
 50
80.734832
 51
22.461281
  0
ARC
  5
15A
100
AcDbEntity
  8
0
370
    -3
  6
Continuous
100
AcDbCircle
 10
162.805433
 20
-10.251728
 30
0.0
 40
22.5
100
AcDbArc
 50
20.020867
 51
83.014857
  0
LINE
  5
15B
100
AcDbEntity
  8
0
370
    -3
  6
Continuous
100
AcDbLine
 10
108.236443
 20
-18.422084
 30
0.0
 11
108.236443
 21
-94.251728
 31
0.0
  0
ARC
  5
15C
100
AcDbEntity
  8
0
370
    -3
  6
Continuous
100
AcDbCircle
 10
162.805433
 20
-405.251728
 30
0.0
 40
425.06899
100
AcDbArc
 50
90.0
 51
92.456227
  0
ARC
  5
15D
100
AcDbEntity
  8
0
370
    -3
  6
Continuous
100
AcDbCircle
 10
148.305433
 20
-20.524876
 30
0.0
 40
40.124128
100
AcDbArc
 50
95.315088
 51
176.995913
  0
ARC
  5
15E
100
AcDbEntity
  8
0
370
    -3
  6
Continuous
100
AcDbCircle
 10
177.305433
 20
-20.524876
 30
0.0
 40
40.124128
100
AcDbArc
 50
3.004087
 51
84.684912
  0
LINE
  5
15F
100
AcDbEntity
  8
0
370
    -3
  6
Continuous
100
AcDbLine
 10
217.374423
 20
-18.422084
 30
0.0
 11
217.374423
 21
-94.251728
 31
0.0
  0
ARC
  5
160
100
AcDbEntity
  8
0
370
    -3
  6
Continuous
100
AcDbCircle
 10
148.305433
 20
-20.524876
 30
0.0
 40
65.0
100
AcDbArc
 50
92.158403
 51
180.0
  0
ARC
  5
161
100
AcDbEntity
  8
0
370
    -3
  6
Continuous
100
AcDbCircle
 10
177.305433
 20
-20.524876
 30
0.0
 40
65.0
100
AcDbArc
 50
0.0
 51
87.841597
  0
LINE
  5
162
100
AcDbEntity
  8
0
370
    -3
  6
Continuous
100
AcDbLine
 10
83.305433
 20
-20.524876
 30
0.0
 11
83.305433
 21
-95.055575
 31
0.0
  0
ARC
  5
163
100
AcDbEntity
  8
0
370
    -3
  6
Continuous
100
AcDbCircle
 10
162.805433
 20
-10.251728
 30
0.0
 40
27.5
100
AcDbArc
 50
5.488856
 51
82.579133
  0
LINE
  5
164
100
AcDbEntity
  8
0
370
    -3
  6
CENTER
100
AcDbLine
 10
179.527729
 20
-36.251728
 30
0.0
 11
145.461308
 21
-36.251728
 31
0.0
  0
LINE
  5
165
100
AcDbEntity
  8
0
370
    -3
  6
CENTER
100
AcDbLine
 10
162.805433
 20
54.108639
 30
0.0
 11
162.805433
 21
-117.367397
 31
0.0
  0
ARC
  5
166
100
AcDbEntity
  8
0
370
    -3
  6
Continuous
100
AcDbCircle
 10
162.805433
 20
-10.251728
 30
0.0
 40
27.5
100
AcDbArc
 50
80.268363
 51
8.578456
  0
LINE
  5
167
100
AcDbEntity
  8
0
370
    -3
  6
Continuous
100
AcDbLine
 10
217.609022
 20
-15.251728
 30
0.0
 11
217.609022
 21
-94.251728
 31
0.0
  0
LINE
  5
168
100
AcDbEntity
  8
0
370
    -3
  6
Continuous
100
AcDbLine
 10
108.001845
 20
-15.251728
 30
0.0
 11
108.001845
 21
-94.251728
 31
0.0
  0
LINE
  5
169
100
AcDbEntity
  8
0
370
    -3
  6
Continuous
100
AcDbLine
 10
90.699953
 20
-15.251728
 30
0.0
 11
90.699953
 21
-94.251728
 31
0.0
  0
ARC
  5
16A
100
AcDbEntity
  8
0
370
    -3
  6
Continuous
100
AcDbCircle
 10
162.805433
 20
-405.251728
 30
0.0
 40
425.06899
100
AcDbArc
 50
87.543773
 51
90.0
  0
CIRCLE
  5
16B
100
AcDbEntity
  8
0
370
    -3
  6
Continuous
100
AcDbCircle
 10
162.805433
 20
-10.251728
 30
0.0
 40
3.3235
  0
CIRCLE
  5
16C
100
AcDbEntity
  8
0
370
    -3
  6
Continuous
100
AcDbCircle
 10
162.805433
 20
-10.251728
 30
0.0
 40
4.0
  0
LINE
  5
16D
100
AcDbEntity
  8
0
370
    -3
  6
Continuous
100
AcDbLine
 10
145.805433
 20
-14.251728
 30
0.0
 11
145.805433
 21
-6.251728
 31
0.0
  0
LINE
  5
16E
100
AcDbEntity
  8
0
370
    -3
  6
Continuous
100
AcDbLine
 10
152.805433
 20
-14.251728
 30
0.0
 11
152.805433
 21
-6.251728
 31
0.0
  0
LINE
  5
16F
100
AcDbEntity
  8
0
370
    -3
  6
Continuous
100
AcDbLine
 10
145.805433
 20
-14.251728
 30
0.0
 11
152.805433
 21
-14.251728
 31
0.0
  0
LINE
  5
170
100
AcDbEntity
  8
0
370
    -3
  6
Continuous
100
AcDbLine
 10
145.805433
 20
-6.251728
 30
0.0
 11
152.805433
 21
-6.251728
 31
0.0
  0
ELLIPSE
  5
171
100
AcDbEntity
  8
0
370
    -3
  6
Continuous
100
AcDbEllipse
 10
226.259968
 20
-15.251728
 30
0.0
 11
0.0
 21
15.0
 31
0.0
210
0.0
220
0.0
230
1.0
 40
0.57673
 41
4.7123889803846897
 42
1.5707963267948968
  0
ELLIPSE
  5
172
100
AcDbEntity
  8
0
370
    -3
  6
Continuous
100
AcDbEllipse
 10
99.350899
 20
-15.251728
 30
0.0
 11
0.0
 21
15.0
 31
0.0
210
0.0
220
0.0
230
1.0
 40
0.57673
 41
4.7123889803846897
 42
1.5707963267948968
  0
ARC
  5
173
100
AcDbEntity
  8
0
370
    -3
  6
Continuous
100
AcDbCircle
 10
162.805433
 20
-10.251728
 30
0.0
 40
14.0
100
AcDbArc
 50
196.60155
 51
163.39845
  0
ARC
  5
174
100
AcDbEntity
  8
0
370
    -3
  6
Continuous
100
AcDbCircle
 10
-76.165715
 20
-93.806166
 30
0.0
 40
3.0
100
AcDbArc
 50
180.0
 51
269.0
  0
ARC
  5
175
100
AcDbEntity
  8
0
370
    -3
  6
Continuous
100
AcDbCircle
 10
-51.913311
 20
-94.461433
 30
0.0
 40
3.0
100
AcDbArc
 50
180.0
 51
253.018232
  0
LINE
  5
176
100
AcDbEntity
  8
0
370
    -3
  6
Continuous
100
AcDbLine
 10
-52.665715
 20
-115.251728
 30
0.0
 11
-52.665715
 21
-114.751728
 31
0.0
  0
LINE
  5
177
100
AcDbEntity
  8
0
370
    -3
  6
Continuous
100
AcDbLine
 10
-52.665715
 20
-114.751728
 30
0.0
 11
-50.665715
 21
-114.751728
 31
0.0
  0
LINE
  5
178
100
AcDbEntity
  8
0
370
    -3
  6
CENTER
100
AcDbLine
 10
-64.165715
 20
-93.495756
 30
0.0
 11
-64.165715
 21
-118.084018
 31
0.0
  0
LINE
  5
179
100
AcDbEntity
  8
0
370
    -3
  6
Continuous
100
AcDbLine
 10
-185.665715
 20
-115.251728
 30
0.0
 11
-52.665715
 21
-115.251728
 31
0.0
  0
LINE
  5
17A
100
AcDbEntity
  8
0
370
    -3
  6
Continuous
100
AcDbLine
 10
-50.665715
 20
-114.751728
 30
0.0
 11
-50.665715
 21
-99.699819
 31
0.0
  0
LINE
  5
17B
100
AcDbEntity
  8
0
370
    -3
  6
Continuous
100
AcDbLine
 10
-53.613358
 20
-97.200276
 30
0.0
 11
-140.165715
 21
-95.689499
 31
0.0
  0
ARC
  5
17C
100
AcDbEntity
  8
0
370
    -3
  6
Continuous
100
AcDbCircle
 10
-53.665715
 20
-100.199819
 30
0.0
 40
3.0
100
AcDbArc
 50
0.0
 51
89.0
  0
ARC
  5
17D
100
AcDbEntity
  8
0
370
    -3
  6
Continuous
100
AcDbCircle
 10
-51.665715
 20
-96.735718
 30
0.0
 40
1.0
100
AcDbArc
 50
180.0
 51
240.0
  0
LINE
  5
17E
100
AcDbEntity
  8
0
370
    -3
  6
Continuous
100
AcDbLine
 10
-185.665715
 20
-115.251728
 30
0.0
 11
-185.665715
 21
-114.751728
 31
0.0
  0
LINE
  5
17F
100
AcDbEntity
  8
0
370
    -3
  6
Continuous
100
AcDbLine
 10
-187.665715
 20
-114.751728
 30
0.0
 11
-185.665715
 21
-114.751728
 31
0.0
  0
LINE
  5
180
100
AcDbEntity
  8
0
370
    -3
  6
Continuous
100
AcDbLine
 10
-142.165715
 20
-10.251728
 30
0.0
 11
-142.165715
 21
-84.113602
 31
0.0
  0
LINE
  5
181
100
AcDbEntity
  8
0
370
    -3
  6
Continuous
100
AcDbLine
 10
-142.165715
 20
-10.251728
 30
0.0
 11
-142.165715
 21
44.748272
 31
0.0
  0
LINE
  5
182
100
AcDbEntity
  8
0
370
    -3
  6
Continuous
100
AcDbLine
 10
-142.165715
 20
44.748272
 30
0.0
 11
-100.665715
 21
44.023887
 31
0.0
  0
LINE
  5
183
100
AcDbEntity
  8
0
370
    -3
  6
Continuous
100
AcDbLine
 10
-140.165715
 20
-67.962837
 30
0.0
 11
-140.165715
 21
-81.507072
 31
0.0
  0
ARC
  5
184
100
AcDbEntity
  8
0
370
    -3
  6
Continuous
100
AcDbCircle
 10
-142.165715
 20
-67.962837
 30
0.0
 40
2.0
100
AcDbArc
 50
0.0
 51
90.0
  0
ARC
  5
185
100
AcDbEntity
  8
0
370
    -3
  6
Continuous
100
AcDbCircle
 10
-142.165715
 20
-81.507072
 30
0.0
 40
2.0
100
AcDbArc
 50
309.887635
 51
0.0
  0
LINE
  5
186
100
AcDbEntity
  8
0
370
    -3
  6
Continuous
100
AcDbLine
 10
-140.165715
 20
-82.442076
 30
0.0
 11
-155.873016
 21
-95.569659
 31
0.0
  0
LINE
  5
187
100
AcDbEntity
  8
0
370
    -3
  6
Continuous
100
AcDbLine
 10
-48.865715
 20
-24.751728
 30
0.0
 11
-50.665715
 21
-24.751728
 31
0.0
  0
LINE
  5
188
100
AcDbEntity
  8
0
370
    -3
  6
Continuous
100
AcDbLine
 10
-48.665715
 20
-10.251728
 30
0.0
 11
-48.665715
 21
-24.551728
 31
0.0
  0
LINE
  5
189
100
AcDbEntity
  8
0
370
    -3
  6
Continuous
100
AcDbLine
 10
-48.665715
 20
-24.551728
 30
0.0
 11
-48.865715
 21
-24.751728
 31
0.0
  0
ARC
  5
18A
100
AcDbEntity
  8
0
370
    -3
  6
Continuous
100
AcDbCircle
 10
-48.265715
 20
-24.501728
 30
0.0
 40
0.4
100
AcDbArc
 50
90.0
 51
180.0
  0
LINE
  5
18B
100
AcDbEntity
  8
0
370
    -3
  6
Continuous
100
AcDbLine
 10
-46.105908
 20
-24.251728
 30
0.0
 11
-46.665715
 21
-24.101728
 31
0.0
  0
LINE
  5
18C
100
AcDbEntity
  8
0
370
    -3
  6
Continuous
100
AcDbLine
 10
-46.665715
 20
-24.101728
 30
0.0
 11
-48.265715
 21
-24.101728
 31
0.0
  0
LINE
  5
18D
100
AcDbEntity
  8
0
370
    -3
  6
Continuous
100
AcDbLine
 10
-48.865715
 20
4.248272
 30
0.0
 11
-50.665715
 21
4.248272
 31
0.0
  0
LINE
  5
18E
100
AcDbEntity
  8
0
370
    -3
  6
Continuous
100
AcDbLine
 10
-48.665715
 20
-10.251728
 30
0.0
 11
-48.665715
 21
4.048272
 31
0.0
  0
LINE
  5
18F
100
AcDbEntity
  8
0
370
    -3
  6
Continuous
100
AcDbLine
 10
-48.665715
 20
4.048272
 30
0.0
 11
-48.865715
 21
4.248272
 31
0.0
  0
ARC
  5
190
100
AcDbEntity
  8
0
370
    -3
  6
Continuous
100
AcDbCircle
 10
-48.265715
 20
3.998272
 30
0.0
 40
0.4
100
AcDbArc
 50
180.0
 51
270.0
  0
LINE
  5
191
100
AcDbEntity
  8
0
370
    -3
  6
Continuous
100
AcDbLine
 10
-46.105908
 20
3.748272
 30
0.0
 11
-46.665715
 21
3.598272
 31
0.0
  0
LINE
  5
192
100
AcDbEntity
  8
0
370
    -3
  6
Continuous
100
AcDbLine
 10
-46.665715
 20
3.598272
 30
0.0
 11
-48.265715
 21
3.598272
 31
0.0
  0
LINE
  5
193
100
AcDbEntity
  8
0
370
    -3
  6
Continuous
100
AcDbLine
 10
-6.665715
 20
3.348272
 30
0.0
 11
-6.665715
 21
-10.251728
 31
0.0
  0
LINE
  5
194
100
AcDbEntity
  8
0
370
    -3
  6
Continuous
100
AcDbLine
 10
-7.065715
 20
3.748272
 30
0.0
 11
-46.105908
 21
3.748272
 31
0.0
  0
ARC
  5
195
100
AcDbEntity
  8
0
370
    -3
  6
Continuous
100
AcDbCircle
 10
-7.065715
 20
3.348272
 30
0.0
 40
0.4
100
AcDbArc
 50
0.0
 51
90.0
  0
LINE
  5
196
100
AcDbEntity
  8
0
370
    -3
  6
Continuous
100
AcDbLine
 10
-6.665715
 20
-23.851728
 30
0.0
 11
-6.665715
 21
-10.251728
 31
0.0
  0
LINE
  5
197
100
AcDbEntity
  8
0
370
    -3
  6
Continuous
100
AcDbLine
 10
-7.065715
 20
-24.251728
 30
0.0
 11
-46.105908
 21
-24.251728
 31
0.0
  0
ARC
  5
198
100
AcDbEntity
  8
0
370
    -3
  6
Continuous
100
AcDbCircle
 10
-7.065715
 20
-23.851728
 30
0.0
 40
0.4
100
AcDbArc
 50
270.0
 51
0.0
  0
ELLIPSE
  5
199
100
AcDbEntity
  8
0
370
    -3
  6
Continuous
100
AcDbEllipse
 10
-67.039513
 20
-15.251728
 30
0.0
 11
0.0
 21
15.0
 31
0.0
210
0.0
220
0.0
230
1.0
 40
0.808413
 41
4.7123889803846897
 42
1.5707963267948968
  0
LINE
  5
19A
100
AcDbEntity
  8
0
370
    -3
  6
Continuous
100
AcDbLine
 10
-79.165715
 20
-93.806166
 30
0.0
 11
-79.165715
 21
-15.251728
 31
0.0
  0
LINE
  5
19B
100
AcDbEntity
  8
0
370
    -3
  6
Continuous
100
AcDbLine
 10
-54.913311
 20
-15.251728
 30
0.0
 11
-54.913311
 21
-94.461433
 31
0.0
  0
ARC
  5
19C
100
AcDbEntity
  8
0
370
    -3
  6
Continuous
100
AcDbCircle
 10
-38.665715
 20
-10.251728
 30
0.0
 40
4.0
100
AcDbArc
 50
90.0
 51
270.0
  0
LINE
  5
19D
100
AcDbEntity
  8
0
370
    -3
  6
Continuous
100
AcDbLine
 10
-6.665715
 20
-14.251728
 30
0.0
 11
-38.665715
 21
-14.251728
 31
0.0
  0
LINE
  5
19E
100
AcDbEntity
  8
0
370
    -3
  6
Continuous
100
AcDbLine
 10
-6.665715
 20
-6.251728
 30
0.0
 11
-38.665715
 21
-6.251728
 31
0.0
  0
LINE
  5
19F
100
AcDbEntity
  8
0
370
    -3
  6
CENTER
100
AcDbLine
 10
-1.330982
 20
-10.251728
 30
0.0
 11
-82.918354
 21
-10.251728
 31
0.0
  0
LINE
  5
1A0
100
AcDbEntity
  8
0
370
    -3
  6
Continuous
100
AcDbLine
 10
-50.665715
 20
-10.251728
 30
0.0
 11
-50.665715
 21
-36.751728
 31
0.0
  0
LINE
  5
1A1
100
AcDbEntity
  8
0
370
    -3
  6
Continuous
100
AcDbLine
 10
-50.665715
 20
-10.251728
 30
0.0
 11
-50.665715
 21
16.248272
 31
0.0
  0
LINE
  5
1A2
100
AcDbEntity
  8
0
370
    -3
  6
Continuous
100
AcDbLine
 10
-52.665715
 20
20.835076
 30
0.0
 11
-52.665715
 21
-10.251728
 31
0.0
  0
LINE
  5
1A3
100
AcDbEntity
  8
0
370
    -3
  6
Continuous
100
AcDbLine
 10
-52.665715
 20
-96.735718
 30
0.0
 11
-52.665715
 21
-10.251728
 31
0.0
  0
ARC
  5
1A4
100
AcDbEntity
  8
0
370
    -3
  6
Continuous
100
AcDbCircle
 10
-51.665715
 20
-36.751728
 30
0.0
 40
1.0
100
AcDbArc
 50
270.0
 51
0.0
  0
ARC
  5
1A5
100
AcDbEntity
  8
0
370
    -3
  6
Continuous
100
AcDbCircle
 10
-51.665715
 20
16.248272
 30
0.0
 40
1.0
100
AcDbArc
 50
0.0
 51
90.0
  0
ARC
  5
1A6
100
AcDbEntity
  8
0
370
    -3
  6
Continuous
100
AcDbCircle
 10
-51.665715
 20
-38.751728
 30
0.0
 40
1.0
100
AcDbArc
 50
90.0
 51
180.0
  0
ARC
  5
1A7
100
AcDbEntity
  8
0
370
    -3
  6
Continuous
100
AcDbCircle
 10
-51.665715
 20
18.248272
 30
0.0
 40
1.0
100
AcDbArc
 50
180.0
 51
270.0
  0
ARC
  5
1A8
100
AcDbEntity
  8
0
370
    -3
  6
Continuous
100
AcDbCircle
 10
-101.800122
 20
-20.966213
 30
0.0
 40
65.0
100
AcDbArc
 50
41.568311
 51
89.0
  0
ARC
  5
1A9
100
AcDbEntity
  8
0
370
    -3
  6
Continuous
100
AcDbCircle
 10
-54.665715
 20
20.835076
 30
0.0
 40
2.0
100
AcDbArc
 50
0.0
 51
41.568311
  0
LINE
  5
1AA
100
AcDbEntity
  8
0
370
    -3
  6
Continuous
100
AcDbLine
 10
-175.165715
 20
22.248272
 30
0.0
 11
-175.165715
 21
-36.251728
 31
0.0
  0
LINE
  5
1AB
100
AcDbEntity
  8
0
370
    -3
  6
CENTER
100
AcDbLine
 10
-139.183123
 20
-36.251728
 30
0.0
 11
-356.330982
 21
-36.251728
 31
0.0
  0
LINE
  5
1AC
100
AcDbEntity
  8
0
370
    -3
  6
Continuous
100
AcDbLine
 10
-175.165715
 20
-94.751728
 30
0.0
 11
-175.165715
 21
-36.251728
 31
0.0
  0
ARC
  5
1AD
100
AcDbEntity
  8
0
370
    -3
  6
Continuous
100
AcDbCircle
 10
-184.665715
 20
-100.154683
 30
0.0
 40
3.0
100
AcDbArc
 50
91.883723
 51
180.0
  0
LINE
  5
1AE
100
AcDbEntity
  8
0
370
    -3
  6
Continuous
100
AcDbLine
 10
-187.665715
 20
-114.751728
 30
0.0
 11
-187.665715
 21
-99.654683
 31
0.0
  0
LINE
  5
1AF
100
AcDbEntity
  8
0
370
    -3
  6
Continuous
100
AcDbLine
 10
-158.730793
 20
-96.300086
 30
0.0
 11
-140.165715
 21
-95.689499
 31
0.0
  0
LINE
  5
1B0
100
AcDbEntity
  8
0
370
    -3
  6
Continuous
100
AcDbLine
 10
-184.764329
 20
-97.156304
 30
0.0
 11
-157.698254
 21
-96.266127
 31
0.0
  0
LINE
  5
1B1
100
AcDbEntity
  8
0
370
    -3
  6
CENTER
100
AcDbLine
 10
-174.165715
 20
-91.278559
 30
0.0
 11
-174.165715
 21
-118.084018
 31
0.0
  0
ARC
  5
1B2
100
AcDbEntity
  8
0
370
    -3
  6
Continuous
100
AcDbCircle
 10
-157.796868
 20
-93.267748
 30
0.0
 40
3.0
100
AcDbArc
 50
271.883723
 51
309.887635
  0
LINE
  5
1B3
100
AcDbEntity
  8
0
370
    -3
  6
Continuous
100
AcDbLine
 10
-153.665715
 20
-56.251728
 30
0.0
 11
-175.165715
 21
-56.251728
 31
0.0
  0
LINE
  5
1B4
100
AcDbEntity
  8
0
370
    -3
  6
Continuous
100
AcDbLine
 10
-175.165715
 20
-16.251728
 30
0.0
 11
-156.665715
 21
-16.251728
 31
0.0
  0
LINE
  5
1B5
100
AcDbEntity
  8
0
370
    -3
  6
Continuous
100
AcDbLine
 10
-175.165715
 20
-36.251728
 30
0.0
 11
-175.165715
 21
-94.804135
 31
0.0
  0
LINE
  5
1B6
100
AcDbEntity
  8
0
370
    -3
  6
Continuous
100
AcDbLine
 10
-175.165715
 20
-36.251728
 30
0.0
 11
-175.165715
 21
22.30068
 31
0.0
  0
LINE
  5
1B7
100
AcDbEntity
  8
0
370
    -3
  6
Continuous
100
AcDbLine
 10
-158.404035
 20
23.179123
 30
0.0
 11
-175.165715
 21
22.30068
 31
0.0
  0
ARC
  5
1B8
100
AcDbEntity
  8
0
370
    -3
  6
Continuous
100
AcDbCircle
 10
-158.665715
 20
28.17227
 30
0.0
 40
5.0
100
AcDbArc
 50
273.0
 51
316.780153
  0
LINE
  5
1B9
100
AcDbEntity
  8
0
370
    -3
  6
Continuous
100
AcDbLine
 10
-158.404035
 20
-95.682578
 30
0.0
 11
-175.165715
 21
-94.804135
 31
0.0
  0
ARC
  5
1BA
100
AcDbEntity
  8
0
370
    -3
  6
Continuous
100
AcDbCircle
 10
-158.665715
 20
-100.675725
 30
0.0
 40
5.0
100
AcDbArc
 50
65.063485
 51
87.0
  0
ARC
  5
1BB
100
AcDbEntity
  8
0
370
    -3
  6
Continuous
100
AcDbCircle
 10
-154.665715
 20
-11.251728
 30
0.0
 40
2.0
100
AcDbArc
 50
104.477512
 51
180.0
  0
ARC
  5
1BC
100
AcDbEntity
  8
0
370
    -3
  6
Continuous
100
AcDbCircle
 10
-154.665715
 20
-23.251728
 30
0.0
 40
2.0
100
AcDbArc
 50
180.0
 51
255.522488
  0
LINE
  5
1BD
100
AcDbEntity
  8
0
370
    -3
  6
Continuous
100
AcDbLine
 10
-156.665715
 20
-23.251728
 30
0.0
 11
-156.665715
 21
-11.251728
 31
0.0
  0
LINE
  5
1BE
100
AcDbEntity
  8
0
370
    -3
  6
CENTER
100
AcDbLine
 10
245.806115
 20
-10.251728
 30
0.0
 11
76.666376
 21
-10.251728
 31
0.0
  0
LINE
  5
1BF
100
AcDbEntity
  8
0
370
    -3
  6
Continuous
100
AcDbLine
 10
-153.665715
 20
34.748272
 30
0.0
 11
-153.665715
 21
42.748272
 31
0.0
  0
LINE
  5
1C0
100
AcDbEntity
  8
0
370
    -3
  6
Continuous
100
AcDbLine
 10
-154.665715
 20
24.748272
 30
0.0
 11
-154.665715
 21
34.748272
 31
0.0
  0
LINE
  5
1C1
100
AcDbEntity
  8
0
370
    -3
  6
Continuous
100
AcDbLine
 10
-148.665715
 20
34.748272
 30
0.0
 11
-154.665715
 21
34.748272
 31
0.0
  0
LINE
  5
1C2
100
AcDbEntity
  8
0
370
    -3
  6
Continuous
100
AcDbLine
 10
-153.665715
 20
24.748272
 30
0.0
 11
-154.665715
 21
24.748272
 31
0.0
  0
INSERT
  5
1CB
100
AcDbEntity
  8
0
100
AcDbBlockReference
  2
ZU_SYM__USERS_HOME_SYMBOL_POO_SYM_B20_-1
 10
-148.665715
 20
-36.251728
 30
0.0
  0
LINE
  5
1CC
100
AcDbEntity
  8
0
370
    -3
  6
CENTER
100
AcDbLine
 10
-273.165715
 20
16.530491
 30
0.0
 11
-273.165715
 21
-90.397205
 31
0.0
  0
LINE
  5
1CD
100
AcDbEntity
  8
0
370
    -3
  6
Continuous
100
AcDbLine
 10
-434.253013
 20
-114.751728
 30
0.0
 11
-462.253013
 21
-114.751728
 31
0.0
  0
LINE
  5
1CE
100
AcDbEntity
  8
0
370
    -3
  6
Continuous
100
AcDbLine
 10
-571.253013
 20
-114.751728
 30
0.0
 11
-599.253013
 21
-114.751728
 31
0.0
  0
LINE
  5
1CF
100
AcDbEntity
  8
0
370
    -3
  6
Continuous
100
AcDbLine
 10
-571.253013
 20
-115.251728
 30
0.0
 11
-599.253013
 21
-115.251728
 31
0.0
  0
ARC
  5
1D0
100
AcDbEntity
  8
0
370
    -3
  6
Continuous
100
AcDbCircle
 10
-599.253013
 20
-95.055575
 30
0.0
 40
3.0
100
AcDbArc
 50
300.0
 51
0.0
  0
ARC
  5
1D1
100
AcDbEntity
  8
0
370
    -3
  6
Continuous
100
AcDbCircle
 10
-434.253013
 20
-95.055575
 30
0.0
 40
3.0
100
AcDbArc
 50
180.0
 51
240.0
  0
ARC
  5
1D2
100
AcDbEntity
  8
0
370
    -3
  6
Continuous
100
AcDbCircle
 10
-578.599597
 20
-100.251728
 30
0.0
 40
3.0
100
AcDbArc
 50
45.980317
 51
90.0
  0
ARC
  5
1D3
100
AcDbEntity
  8
0
370
    -3
  6
Continuous
100
AcDbCircle
 10
-574.253013
 20
-104.183679
 30
0.0
 40
3.0
100
AcDbArc
 50
0.0
 51
49.754246
  0
ARC
  5
1D4
100
AcDbEntity
  8
0
370
    -3
  6
Continuous
100
AcDbCircle
 10
-459.253013
 20
-104.183679
 30
0.0
 40
3.0
100
AcDbArc
 50
130.245754
 51
180.0
  0
ARC
  5
1D5
100
AcDbEntity
  8
0
370
    -3
  6
Continuous
100
AcDbCircle
 10
-454.906428
 20
-100.251728
 30
0.0
 40
3.0
100
AcDbArc
 50
90.0
 51
134.019683
  0
LINE
  5
1D6
100
AcDbEntity
  8
0
370
    -3
  6
Continuous
100
AcDbLine
 10
-599.253013
 20
-100.251728
 30
0.0
 11
-599.253013
 21
-115.251728
 31
0.0
  0
LINE
  5
1D7
100
AcDbEntity
  8
0
370
    -3
  6
CENTER
100
AcDbLine
 10
-586.753013
 20
-118.332231
 30
0.0
 11
-586.753013
 21
-88.09641
 31
0.0
  0
LINE
  5
1D8
100
AcDbEntity
  8
0
370
    -3
  6
Continuous
100
AcDbLine
 10
-571.253013
 20
-115.251728
 30
0.0
 11
-571.253013
 21
-104.183679
 31
0.0
  0
ARC
  5
1D9
100
AcDbEntity
  8
0
370
    -3
  6
Continuous
100
AcDbCircle
 10
-593.253013
 20
-81.735241
 30
0.0
 40
3.0
100
AcDbArc
 50
30.733843
 51
180.0
  0
ARC
  5
1DA
100
AcDbEntity
  8
0
370
    -3
  6
Continuous
100
AcDbCircle
 10
-516.753013
 20
-405.251728
 30
0.0
 40
450.0
100
AcDbArc
 50
87.841597
 51
90.0
  0
LINE
  5
1DB
100
AcDbEntity
  8
0
370
    -3
  6
Continuous
100
AcDbLine
 10
-437.253013
 20
-83.051728
 30
0.0
 11
-437.253013
 21
-95.055575
 31
0.0
  0
ARC
  5
1DC
100
AcDbEntity
  8
0
370
    -3
  6
Continuous
100
AcDbCircle
 10
-502.253013
 20
-20.524876
 30
0.0
 40
65.0
100
AcDbArc
 50
26.67724
 51
87.841597
  0
LINE
  5
1DD
100
AcDbEntity
  8
0
370
    -3
  6
Continuous
100
AcDbLine
 10
-596.253013
 20
-20.524876
 30
0.0
 11
-596.253013
 21
-95.055575
 31
0.0
  0
ARC
  5
1DE
100
AcDbEntity
  8
0
370
    -3
  6
Continuous
100
AcDbCircle
 10
-531.253013
 20
-20.524876
 30
0.0
 40
65.0
100
AcDbArc
 50
92.158403
 51
180.0
  0
ARC
  5
1DF
100
AcDbEntity
  8
0
370
    -3
  6
Continuous
100
AcDbCircle
 10
-586.253013
 20
-58.584439
 30
0.0
 40
10.0
100
AcDbArc
 50
180.0
 51
197.813976
  0
ARC
  5
1E0
100
AcDbEntity
  8
0
370
    -3
  6
Continuous
100
AcDbCircle
 10
-516.753013
 20
-405.251728
 30
0.0
 40
450.0
100
AcDbArc
 50
90.0
 51
92.158403
  0
LINE
  5
1E1
100
AcDbEntity
  8
0
370
    -3
  6
CENTER
100
AcDbLine
 10
-446.753013
 20
-118.332231
 30
0.0
 11
-446.753013
 21
-88.09641
 31
0.0
  0
LINE
  5
1E2
100
AcDbEntity
  8
0
370
    -3
  6
Continuous
100
AcDbLine
 10
-464.253013
 20
-113.251728
 30
0.0
 11
-516.753013
 21
-113.251728
 31
0.0
  0
ARC
  5
1E3
100
AcDbEntity
  8
0
370
    -3
  6
Continuous
100
AcDbCircle
 10
-464.253013
 20
-115.251728
 30
0.0
 40
2.0
100
AcDbArc
 50
0.0
 51
90.0
  0
ARC
  5
1E4
100
AcDbEntity
  8
0
370
    -3
  6
Continuous
100
AcDbCircle
 10
-516.753013
 20
-36.251728
 30
0.0
 40
83.0
100
AcDbArc
 50
309.571895
 51
328.785207
  0
ARC
  5
1E5
100
AcDbEntity
  8
0
370
    -3
  6
Continuous
100
AcDbCircle
 10
-516.753013
 20
-36.251728
 30
0.0
 40
86.0
100
AcDbArc
 50
310.245754
 51
328.202752
  0
ARC
  5
1E6
100
AcDbEntity
  8
0
370
    -3
  6
Continuous
100
AcDbCircle
 10
-473.753013
 20
-107.751728
 30
0.0
 40
8.0
100
AcDbArc
 50
316.567463
 51
11.940335
  0
ARC
  5
1E7
100
AcDbEntity
  8
0
370
    -3
  6
Continuous
100
AcDbCircle
 10
-516.753013
 20
-36.251728
 30
0.0
 40
83.0
100
AcDbArc
 50
197.813976
 51
230.428105
  0
ARC
  5
1E8
100
AcDbEntity
  8
0
370
    -3
  6
Continuous
100
AcDbCircle
 10
-559.753013
 20
-107.751728
 30
0.0
 40
8.0
100
AcDbArc
 50
168.059665
 51
223.432537
  0
ARC
  5
1E9
100
AcDbEntity
  8
0
370
    -3
  6
Continuous
100
AcDbCircle
 10
-516.753013
 20
-36.251728
 30
0.0
 40
86.0
100
AcDbArc
 50
210.733843
 51
229.754246
  0
ARC
  5
1EA
100
AcDbEntity
  8
0
370
    -3
  6
Continuous
100
AcDbCircle
 10
-569.253013
 20
-115.251728
 30
0.0
 40
2.0
100
AcDbArc
 50
90.0
 51
180.0
  0
LINE
  5
1EB
100
AcDbEntity
  8
0
370
    -3
  6
Continuous
100
AcDbLine
 10
-569.253013
 20
-113.251728
 30
0.0
 11
-516.753013
 21
-113.251728
 31
0.0
  0
LINE
  5
1EC
100
AcDbEntity
  8
0
370
    -3
  6
Continuous
100
AcDbLine
 10
-437.253013
 20
-97.251728
 30
0.0
 11
-454.906428
 21
-97.251728
 31
0.0
  0
LINE
  5
1ED
100
AcDbEntity
  8
0
370
    -3
  6
Continuous
100
AcDbLine
 10
-596.253013
 20
-97.251728
 30
0.0
 11
-578.599597
 21
-97.251728
 31
0.0
  0
ARC
  5
1EE
100
AcDbEntity
  8
0
370
    -3
  6
Continuous
100
AcDbCircle
 10
-437.253013
 20
-100.251728
 30
0.0
 40
3.0
100
AcDbArc
 50
0.0
 51
90.0
  0
ARC
  5
1EF
100
AcDbEntity
  8
0
370
    -3
  6
Continuous
100
AcDbCircle
 10
-596.253013
 20
-100.251728
 30
0.0
 40
3.0
100
AcDbArc
 50
90.0
 51
180.0
  0
ARC
  5
1F0
100
AcDbEntity
  8
0
370
    -3
  6
Continuous
100
AcDbCircle
 10
-460.055923
 20
-104.855226
 30
0.0
 40
6.0
100
AcDbArc
 50
129.571895
 51
191.940335
  0
ARC
  5
1F1
100
AcDbEntity
  8
0
370
    -3
  6
Continuous
100
AcDbCircle
 10
-573.450103
 20
-104.855226
 30
0.0
 40
6.0
100
AcDbArc
 50
348.059665
 51
50.428105
  0
LINE
  5
1F2
100
AcDbEntity
  8
0
370
    -3
  6
Continuous
100
AcDbLine
 10
-434.253013
 20
-115.251728
 30
0.0
 11
-462.253013
 21
-115.251728
 31
0.0
  0
LINE
  5
1F3
100
AcDbEntity
  8
0
370
    -3
  6
Continuous
100
AcDbLine
 10
-434.253013
 20
-100.251728
 30
0.0
 11
-434.253013
 21
-115.251728
 31
0.0
  0
LINE
  5
1F4
100
AcDbEntity
  8
0
370
    -3
  6
Continuous
100
AcDbLine
 10
-462.253013
 20
-115.251728
 30
0.0
 11
-462.253013
 21
-104.183679
 31
0.0
  0
LINE
  5
1F5
100
AcDbEntity
  8
0
370
    -3
  6
CENTER
100
AcDbLine
 10
-434.637648
 20
-36.251728
 30
0.0
 11
-451.753013
 21
-36.251728
 31
0.0
  0
ARC
  5
1F6
100
AcDbEntity
  8
0
370
    -3
  6
Continuous
100
AcDbCircle
 10
-594.253013
 20
-27.251728
 30
0.0
 40
2.0
100
AcDbArc
 50
90.0
 51
180.0
  0
LINE
  5
1F7
100
AcDbEntity
  8
0
370
    -3
  6
Continuous
100
AcDbLine
 10
-594.253013
 20
-25.251728
 30
0.0
 11
-586.753013
 21
-25.251728
 31
0.0
  0
ARC
  5
1F8
100
AcDbEntity
  8
0
370
    -3
  6
Continuous
100
AcDbCircle
 10
-586.753013
 20
-17.251728
 30
0.0
 40
8.0
100
AcDbArc
 50
270.0
 51
90.0
  0
LINE
  5
1F9
100
AcDbEntity
  8
0
370
    -3
  6
Continuous
100
AcDbLine
 10
-592.838916
 20
-9.251728
 30
0.0
 11
-586.753013
 21
-9.251728
 31
0.0
  0
ARC
  5
1FA
100
AcDbEntity
  8
0
370
    -3
  6
Continuous
100
AcDbCircle
 10
-592.838916
 20
-7.251728
 30
0.0
 40
2.0
100
AcDbArc
 50
167.837508
 51
270.0
  0
ARC
  5
1FB
100
AcDbEntity
  8
0
370
    -3
  6
Continuous
100
AcDbCircle
 10
-485.753013
 20
-108.251728
 30
0.0
 40
5.0
100
AcDbArc
 50
270.0
 51
0.0
  0
ARC
  5
1FC
100
AcDbEntity
  8
0
370
    -3
  6
Continuous
100
AcDbCircle
 10
-473.753013
 20
-107.751728
 30
0.0
 40
7.0
100
AcDbArc
 50
61.263962
 51
180.0
  0
ARC
  5
1FD
100
AcDbEntity
  8
0
370
    -3
  6
Continuous
100
AcDbCircle
 10
-467.983711
 20
-97.2296
 30
0.0
 40
5.0
100
AcDbArc
 50
241.263962
 51
316.112971
  0
ARC
  5
1FE
100
AcDbEntity
  8
0
370
    -3
  6
Continuous
100
AcDbCircle
 10
-463.586426
 20
25.354259
 30
0.0
 40
5.0
100
AcDbArc
 50
49.876066
 51
158.520534
  0
ARC
  5
1FF
100
AcDbEntity
  8
0
370
    -3
  6
Continuous
100
AcDbCircle
 10
-474.753013
 20
29.748272
 30
0.0
 40
7.0
100
AcDbArc
 50
180.0
 51
338.520534
  0
LINE
  5
200
100
AcDbEntity
  8
0
370
    -3
  6
Continuous
100
AcDbLine
 10
-481.753013
 20
37.438474
 30
0.0
 11
-481.753013
 21
29.748272
 31
0.0
  0
ARC
  5
201
100
AcDbEntity
  8
0
370
    -3
  6
Continuous
100
AcDbCircle
 10
-486.753013
 20
37.438474
 30
0.0
 40
5.0
100
AcDbArc
 50
0.0
 51
75.028809
  0
ARC
  5
202
100
AcDbEntity
  8
0
370
    -3
  6
Continuous
100
AcDbCircle
 10
-547.753013
 20
-108.251728
 30
0.0
 40
5.0
100
AcDbArc
 50
180.0
 51
270.0
  0
ARC
  5
203
100
AcDbEntity
  8
0
370
    -3
  6
Continuous
100
AcDbCircle
 10
-565.522314
 20
-97.2296
 30
0.0
 40
5.0
100
AcDbArc
 50
223.887029
 51
298.736038
  0
ARC
  5
204
100
AcDbEntity
  8
0
370
    -3
  6
Continuous
100
AcDbCircle
 10
-559.753013
 20
-107.751728
 30
0.0
 40
7.0
100
AcDbArc
 50
0.0
 51
118.736038
  0
ARC
  5
205
100
AcDbEntity
  8
0
370
    -3
  6
Continuous
100
AcDbCircle
 10
-569.919599
 20
25.354259
 30
0.0
 40
5.0
100
AcDbArc
 50
21.479466
 51
130.123934
  0
ARC
  5
206
100
AcDbEntity
  8
0
370
    -3
  6
Continuous
100
AcDbCircle
 10
-558.753013
 20
29.748272
 30
0.0
 40
7.0
100
AcDbArc
 50
201.479466
 51
0.0
  0
LINE
  5
207
100
AcDbEntity
  8
0
370
    -3
  6
Continuous
100
AcDbLine
 10
-551.753013
 20
37.438474
 30
0.0
 11
-551.753013
 21
29.748272
 31
0.0
  0
ARC
  5
208
100
AcDbEntity
  8
0
370
    -3
  6
Continuous
100
AcDbCircle
 10
-546.753013
 20
37.438474
 30
0.0
 40
5.0
100
AcDbArc
 50
104.971191
 51
180.0
  0
LINE
  5
209
100
AcDbEntity
  8
0
370
    -3
  6
Continuous
100
AcDbLine
 10
-595.253013
 20
-43.251728
 30
0.0
 11
-588.753013
 21
-43.251728
 31
0.0
  0
ARC
  5
20A
100
AcDbEntity
  8
0
370
    -3
  6
Continuous
100
AcDbCircle
 10
-595.253013
 20
-44.251728
 30
0.0
 40
1.0
100
AcDbArc
 50
90.0
 51
180.0
  0
ARC
  5
20B
100
AcDbEntity
  8
0
370
    -3
  6
Continuous
100
AcDbCircle
 10
-588.753013
 20
-36.251728
 30
0.0
 40
7.0
100
AcDbArc
 50
270.0
 51
90.0
  0
LINE
  5
20C
100
AcDbEntity
  8
0
370
    -3
  6
Continuous
100
AcDbLine
 10
-595.253013
 20
-29.251728
 30
0.0
 11
-588.753013
 21
-29.251728
 31
0.0
  0
ARC
  5
20D
100
AcDbEntity
  8
0
370
    -3
  6
Continuous
100
AcDbCircle
 10
-595.253013
 20
-28.251728
 30
0.0
 40
1.0
100
AcDbArc
 50
180.0
 51
270.0
  0
ARC
  5
20E
100
AcDbEntity
  8
0
370
    -3
  6
Continuous
100
AcDbCircle
 10
-460.055923
 20
-104.855226
 30
0.0
 40
6.0
100
AcDbArc
 50
129.571895
 51
191.940335
  0
ARC
  5
20F
100
AcDbEntity
  8
0
370
    -3
  6
Continuous
100
AcDbCircle
 10
-473.753013
 20
-107.751728
 30
0.0
 40
8.0
100
AcDbArc
 50
316.567463
 51
11.940335
  0
LINE
  5
210
100
AcDbEntity
  8
0
370
    -3
  6
Continuous
100
AcDbLine
 10
-467.943538
 20
-113.251728
 30
0.0
 11
-516.753013
 21
-113.251728
 31
0.0
  0
LINE
  5
211
100
AcDbEntity
  8
0
370
    -3
  6
Continuous
100
AcDbLine
 10
-565.562488
 20
-113.251728
 30
0.0
 11
-516.753013
 21
-113.251728
 31
0.0
  0
ARC
  5
212
100
AcDbEntity
  8
0
370
    -3
  6
Continuous
100
AcDbCircle
 10
-559.753013
 20
-107.751728
 30
0.0
 40
8.0
100
AcDbArc
 50
168.059665
 51
223.432537
  0
ARC
  5
213
100
AcDbEntity
  8
0
370
    -3
  6
Continuous
100
AcDbCircle
 10
-573.450103
 20
-104.855226
 30
0.0
 40
6.0
100
AcDbArc
 50
348.059665
 51
50.428105
  0
ARC
  5
214
100
AcDbEntity
  8
0
370
    -3
  6
Continuous
100
AcDbCircle
 10
-470.437519
 20
-89.63829
 30
0.0
 40
3.0
100
AcDbArc
 50
45.0
 51
135.0
  0
LINE
  5
215
100
AcDbEntity
  8
0
370
    -3
  6
Continuous
100
AcDbLine
 10
-468.316198
 20
-87.516969
 30
0.0
 11
-461.952237
 21
-93.88093
 31
0.0
  0
ARC
  5
216
100
AcDbEntity
  8
0
370
    -3
  6
Continuous
100
AcDbCircle
 10
-464.073558
 20
-96.002251
 30
0.0
 40
3.0
100
AcDbArc
 50
315.0
 51
45.0
  0
ARC
  5
217
100
AcDbEntity
  8
0
370
    -3
  6
Continuous
100
AcDbCircle
 10
-457.00249
 20
-88.931183
 30
0.0
 40
3.0
100
AcDbArc
 50
225.0
 51
315.0
  0
ARC
  5
218
100
AcDbEntity
  8
0
370
    -3
  6
Continuous
100
AcDbCircle
 10
-463.366451
 20
-82.567222
 30
0.0
 40
3.0
100
AcDbArc
 50
135.0
 51
225.0
  0
LINE
  5
219
100
AcDbEntity
  8
0
370
    -3
  6
Continuous
100
AcDbLine
 10
-465.487771
 20
-84.688542
 30
0.0
 11
-459.12381
 21
-91.052503
 31
0.0
  0
ARC
  5
21A
100
AcDbEntity
  8
0
370
    -3
  6
Continuous
100
AcDbCircle
 10
-563.068507
 20
-89.63829
 30
0.0
 40
3.0
100
AcDbArc
 50
45.0
 51
135.0
  0
LINE
  5
21B
100
AcDbEntity
  8
0
370
    -3
  6
Continuous
100
AcDbLine
 10
-565.189827
 20
-87.516969
 30
0.0
 11
-571.553788
 21
-93.88093
 31
0.0
  0
ARC
  5
21C
100
AcDbEntity
  8
0
370
    -3
  6
Continuous
100
AcDbCircle
 10
-569.432468
 20
-96.002251
 30
0.0
 40
3.0
100
AcDbArc
 50
135.0
 51
225.0
  0
ARC
  5
21D
100
AcDbEntity
  8
0
370
    -3
  6
Continuous
100
AcDbCircle
 10
-576.503536
 20
-88.931183
 30
0.0
 40
3.0
100
AcDbArc
 50
225.0
 51
315.0
  0
ARC
  5
21E
100
AcDbEntity
  8
0
370
    -3
  6
Continuous
100
AcDbCircle
 10
-570.139575
 20
-82.567222
 30
0.0
 40
3.0
100
AcDbArc
 50
315.0
 51
45.0
  0
LINE
  5
21F
100
AcDbEntity
  8
0
370
    -3
  6
Continuous
100
AcDbLine
 10
-568.018254
 20
-84.688542
 30
0.0
 11
-574.382215
 21
-91.052503
 31
0.0
  0
ARC
  5
220
100
AcDbEntity
  8
0
370
    -3
  6
Continuous
100
AcDbCircle
 10
-563.068507
 20
17.134834
 30
0.0
 40
3.0
100
AcDbArc
 50
225.0
 51
315.0
  0
LINE
  5
221
100
AcDbEntity
  8
0
370
    -3
  6
Continuous
100
AcDbLine
 10
-565.189827
 20
15.013514
 30
0.0
 11
-571.553788
 21
21.377475
 31
0.0
  0
ARC
  5
222
100
AcDbEntity
  8
0
370
    -3
  6
Continuous
100
AcDbCircle
 10
-569.432468
 20
23.498795
 30
0.0
 40
3.0
100
AcDbArc
 50
135.0
 51
225.0
  0
ARC
  5
223
100
AcDbEntity
  8
0
370
    -3
  6
Continuous
100
AcDbCircle
 10
-576.503536
 20
16.427728
 30
0.0
 40
3.0
100
AcDbArc
 50
45.0
 51
135.0
  0
ARC
  5
224
100
AcDbEntity
  8
0
370
    -3
  6
Continuous
100
AcDbCircle
 10
-570.139575
 20
10.063767
 30
0.0
 40
3.0
100
AcDbArc
 50
315.0
 51
45.0
  0
LINE
  5
225
100
AcDbEntity
  8
0
370
    -3
  6
Continuous
100
AcDbLine
 10
-568.018254
 20
12.185087
 30
0.0
 11
-574.382215
 21
18.549048
 31
0.0
  0
ARC
  5
226
100
AcDbEntity
  8
0
370
    -3
  6
Continuous
100
AcDbCircle
 10
-464.073558
 20
23.498795
 30
0.0
 40
3.0
100
AcDbArc
 50
315.0
 51
45.0
  0
ARC
  5
227
100
AcDbEntity
  8
0
370
    -3
  6
Continuous
100
AcDbCircle
 10
-457.00249
 20
16.427728
 30
0.0
 40
3.0
100
AcDbArc
 50
45.0
 51
135.0
  0
ARC
  5
228
100
AcDbEntity
  8
0
370
    -3
  6
Continuous
100
AcDbCircle
 10
-470.437519
 20
17.134834
 30
0.0
 40
3.0
100
AcDbArc
 50
225.0
 51
315.0
  0
ARC
  5
229
100
AcDbEntity
  8
0
370
    -3
  6
Continuous
100
AcDbCircle
 10
-463.366451
 20
10.063767
 30
0.0
 40
3.0
100
AcDbArc
 50
135.0
 51
225.0
  0
LINE
  5
22A
100
AcDbEntity
  8
0
370
    -3
  6
Continuous
100
AcDbLine
 10
-468.316198
 20
15.013514
 30
0.0
 11
-461.952237
 21
21.377475
 31
0.0
  0
LINE
  5
22B
100
AcDbEntity
  8
0
370
    -3
  6
Continuous
100
AcDbLine
 10
-465.487771
 20
12.185087
 30
0.0
 11
-459.12381
 21
18.549048
 31
0.0
  0
ARC
  5
22C
100
AcDbEntity
  8
0
370
    -3
  6
Continuous
100
AcDbCircle
 10
-516.753013
 20
-405.251728
 30
0.0
 40
450.0
100
AcDbArc
 50
87.841597
 51
90.0
  0
ARC
  5
22D
100
AcDbEntity
  8
0
370
    -3
  6
Continuous
100
AcDbCircle
 10
-516.753013
 20
-405.251728
 30
0.0
 40
450.0
100
AcDbArc
 50
90.0
 51
92.158403
  0
ARC
  5
22E
100
AcDbEntity
  8
0
370
    -3
  6
Continuous
100
AcDbCircle
 10
-531.253013
 20
-20.524876
 30
0.0
 40
65.0
100
AcDbArc
 50
92.158403
 51
180.0
  0
ARC
  5
22F
100
AcDbEntity
  8
0
370
    -3
  6
Continuous
100
AcDbCircle
 10
-516.753013
 20
-36.251728
 30
0.0
 40
83.0
100
AcDbArc
 50
197.813976
 51
230.428105
  0
ARC
  5
230
100
AcDbEntity
  8
0
370
    -3
  6
Continuous
100
AcDbCircle
 10
-586.253013
 20
-58.584439
 30
0.0
 40
10.0
100
AcDbArc
 50
180.0
 51
197.813976
  0
LINE
  5
231
100
AcDbEntity
  8
0
370
    -3
  6
Continuous
100
AcDbLine
 10
-596.253013
 20
-20.524876
 30
0.0
 11
-596.253013
 21
-58.584439
 31
0.0
  0
LINE
  5
232
100
AcDbEntity
  8
0
370
    -3
  6
CENTER
100
AcDbLine
 10
-536.479032
 20
-10.251728
 30
0.0
 11
-495.852739
 21
-10.251728
 31
0.0
  0
LINE
  5
233
100
AcDbEntity
  8
0
370
    -3
  6
CENTER
100
AcDbLine
 10
-516.753013
 20
54.279483
 30
0.0
 11
-516.753013
 21
-119.569517
 31
0.0
  0
LINE
  5
234
100
AcDbEntity
  8
0
370
    -3
  6
Continuous
100
AcDbLine
 10
-561.253012
 20
28.304898
 30
0.0
 11
-558.753008
 21
26.861525
 31
0.0
  0
LINE
  5
235
100
AcDbEntity
  8
0
370
    -3
  6
Continuous
100
AcDbLine
 10
-558.753017
 20
32.635021
 30
0.0
 11
-556.253013
 21
31.19165
 31
0.0
  0
LINE
  5
236
100
AcDbEntity
  8
0
370
    -3
  6
Continuous
100
AcDbLine
 10
-558.753007
 20
26.861525
 30
0.0
 11
-556.253015
 21
28.304901
 31
0.0
  0
LINE
  5
237
100
AcDbEntity
  8
0
370
    -3
  6
Continuous
100
AcDbLine
 10
-558.753017
 20
32.635021
 30
0.0
 11
-561.253011
 21
31.191645
 31
0.0
  0
LINE
  5
238
100
AcDbEntity
  8
0
370
    -3
  6
Continuous
100
AcDbLine
 10
-561.25301
 20
31.191644
 30
0.0
 11
-561.253011
 21
28.304899
 31
0.0
  0
LINE
  5
239
100
AcDbEntity
  8
0
370
    -3
  6
Continuous
100
AcDbLine
 10
-556.253015
 20
28.304901
 30
0.0
 11
-556.253014
 21
31.19165
 31
0.0
  0
CIRCLE
  5
23A
100
AcDbEntity
  8
0
370
    -3
  6
Continuous
100
AcDbCircle
 10
-558.753013
 20
29.748272
 30
0.0
 40
5.0
  0
LINE
  5
23B
100
AcDbEntity
  8
0
370
    -3
  6
Continuous
100
AcDbLine
 10
-472.253013
 20
28.304898
 30
0.0
 11
-474.753018
 21
26.861525
 31
0.0
  0
LINE
  5
23C
100
AcDbEntity
  8
0
370
    -3
  6
Continuous
100
AcDbLine
 10
-474.753008
 20
32.635021
 30
0.0
 11
-477.253013
 21
31.19165
 31
0.0
  0
LINE
  5
23D
100
AcDbEntity
  8
0
370
    -3
  6
Continuous
100
AcDbLine
 10
-474.753018
 20
26.861525
 30
0.0
 11
-477.253011
 21
28.304901
 31
0.0
  0
LINE
  5
23E
100
AcDbEntity
  8
0
370
    -3
  6
Continuous
100
AcDbLine
 10
-474.753008
 20
32.635021
 30
0.0
 11
-472.253014
 21
31.191645
 31
0.0
  0
LINE
  5
23F
100
AcDbEntity
  8
0
370
    -3
  6
Continuous
100
AcDbLine
 10
-472.253015
 20
31.191644
 30
0.0
 11
-472.253014
 21
28.304899
 31
0.0
  0
LINE
  5
240
100
AcDbEntity
  8
0
370
    -3
  6
Continuous
100
AcDbLine
 10
-477.25301
 20
28.304901
 30
0.0
 11
-477.253011
 21
31.19165
 31
0.0
  0
CIRCLE
  5
241
100
AcDbEntity
  8
0
370
    -3
  6
Continuous
100
AcDbCircle
 10
-474.753013
 20
29.748272
 30
0.0
 40
5.0
  0
LINE
  5
242
100
AcDbEntity
  8
0
370
    -3
  6
Continuous
100
AcDbLine
 10
-591.253012
 20
-37.695102
 30
0.0
 11
-588.753008
 21
-39.138475
 31
0.0
  0
LINE
  5
243
100
AcDbEntity
  8
0
370
    -3
  6
Continuous
100
AcDbLine
 10
-588.753017
 20
-33.364979
 30
0.0
 11
-586.253013
 21
-34.80835
 31
0.0
  0
LINE
  5
244
100
AcDbEntity
  8
0
370
    -3
  6
Continuous
100
AcDbLine
 10
-588.753007
 20
-39.138475
 30
0.0
 11
-586.253015
 21
-37.695099
 31
0.0
  0
LINE
  5
245
100
AcDbEntity
  8
0
370
    -3
  6
Continuous
100
AcDbLine
 10
-588.753017
 20
-33.364979
 30
0.0
 11
-591.253011
 21
-34.808355
 31
0.0
  0
LINE
  5
246
100
AcDbEntity
  8
0
370
    -3
  6
Continuous
100
AcDbLine
 10
-591.25301
 20
-34.808356
 30
0.0
 11
-591.253011
 21
-37.695101
 31
0.0
  0
LINE
  5
247
100
AcDbEntity
  8
0
370
    -3
  6
Continuous
100
AcDbLine
 10
-586.253015
 20
-37.695099
 30
0.0
 11
-586.253014
 21
-34.80835
 31
0.0
  0
CIRCLE
  5
248
100
AcDbEntity
  8
0
370
    -3
  6
Continuous
100
AcDbCircle
 10
-588.753013
 20
-36.251728
 30
0.0
 40
5.0
  0
LINE
  5
249
100
AcDbEntity
  8
0
370
    -3
  6
Continuous
100
AcDbLine
 10
-562.253012
 20
-109.195102
 30
0.0
 11
-559.753008
 21
-110.638475
 31
0.0
  0
LINE
  5
24A
100
AcDbEntity
  8
0
370
    -3
  6
Continuous
100
AcDbLine
 10
-559.753017
 20
-104.864979
 30
0.0
 11
-557.253013
 21
-106.30835
 31
0.0
  0
LINE
  5
24B
100
AcDbEntity
  8
0
370
    -3
  6
Continuous
100
AcDbLine
 10
-559.753007
 20
-110.638475
 30
0.0
 11
-557.253015
 21
-109.195099
 31
0.0
  0
LINE
  5
24C
100
AcDbEntity
  8
0
370
    -3
  6
Continuous
100
AcDbLine
 10
-559.753017
 20
-104.864979
 30
0.0
 11
-562.253011
 21
-106.308355
 31
0.0
  0
LINE
  5
24D
100
AcDbEntity
  8
0
370
    -3
  6
Continuous
100
AcDbLine
 10
-562.25301
 20
-106.308356
 30
0.0
 11
-562.253011
 21
-109.195101
 31
0.0
  0
LINE
  5
24E
100
AcDbEntity
  8
0
370
    -3
  6
Continuous
100
AcDbLine
 10
-557.253015
 20
-109.195099
 30
0.0
 11
-557.253014
 21
-106.30835
 31
0.0
  0
CIRCLE
  5
24F
100
AcDbEntity
  8
0
370
    -3
  6
Continuous
100
AcDbCircle
 10
-559.753013
 20
-107.751728
 30
0.0
 40
5.0
  0
LINE
  5
250
100
AcDbEntity
  8
0
370
    -3
  6
Continuous
100
AcDbLine
 10
-471.253013
 20
-109.195102
 30
0.0
 11
-473.753018
 21
-110.638475
 31
0.0
  0
LINE
  5
251
100
AcDbEntity
  8
0
370
    -3
  6
Continuous
100
AcDbLine
 10
-473.753008
 20
-104.864979
 30
0.0
 11
-476.253013
 21
-106.30835
 31
0.0
  0
LINE
  5
252
100
AcDbEntity
  8
0
370
    -3
  6
Continuous
100
AcDbLine
 10
-473.753018
 20
-110.638475
 30
0.0
 11
-476.253011
 21
-109.195099
 31
0.0
  0
LINE
  5
253
100
AcDbEntity
  8
0
370
    -3
  6
Continuous
100
AcDbLine
 10
-473.753008
 20
-104.864979
 30
0.0
 11
-471.253014
 21
-106.308355
 31
0.0
  0
LINE
  5
254
100
AcDbEntity
  8
0
370
    -3
  6
Continuous
100
AcDbLine
 10
-471.253015
 20
-106.308356
 30
0.0
 11
-471.253014
 21
-109.195101
 31
0.0
  0
LINE
  5
255
100
AcDbEntity
  8
0
370
    -3
  6
Continuous
100
AcDbLine
 10
-476.25301
 20
-109.195099
 30
0.0
 11
-476.253011
 21
-106.30835
 31
0.0
  0
CIRCLE
  5
256
100
AcDbEntity
  8
0
370
    -3
  6
Continuous
100
AcDbCircle
 10
-473.753013
 20
-107.751728
 30
0.0
 40
5.0
  0
LINE
  5
257
100
AcDbEntity
  8
0
370
    -3
  6
Continuous
100
AcDbLine
 10
-152.665728
 20
284.783215
 30
0.0
 11
-152.66573
 21
284.783215
 31
0.0
  0
ARC
  5
258
100
AcDbEntity
  8
0
370
    -3
  6
Continuous
100
AcDbCircle
 10
-158.665715
 20
312.207213
 30
0.0
 40
5.0
100
AcDbArc
 50
273.0
 51
0.0
  0
ARC
  5
259
100
AcDbEntity
  8
0
370
    -3
  6
Continuous
100
AcDbCircle
 10
-152.665715
 20
297.783215
 30
0.0
 40
1.0
100
AcDbArc
 50
180.0
 51
270.0
  0
LINE
  5
25A
100
AcDbEntity
  8
0
370
    -3
  6
Continuous
100
AcDbLine
 10
-152.665728
 20
284.783215
 30
0.0
 11
-152.66573
 21
284.783215
 31
0.0
  0
ARC
  5
25B
100
AcDbEntity
  8
0
370
    -3
  6
Continuous
100
AcDbCircle
 10
-152.665715
 20
281.783215
 30
0.0
 40
1.0
100
AcDbArc
 50
90.0
 51
180.0
  0
LINE
  5
25C
100
AcDbEntity
  8
0
370
    -3
  6
Continuous
100
AcDbLine
 10
-152.665715
 20
282.783215
 30
0.0
 11
-149.665715
 21
282.783215
 31
0.0
  0
ARC
  5
25D
100
AcDbEntity
  8
0
370
    -3
  6
Continuous
100
AcDbCircle
 10
-149.665715
 20
283.783215
 30
0.0
 40
1.0
100
AcDbArc
 50
270.0
 51
0.0
  0
LINE
  5
25E
100
AcDbEntity
  8
0
370
    -3
  6
Continuous
100
AcDbLine
 10
-152.665715
 20
296.783215
 30
0.0
 11
-149.665715
 21
296.783215
 31
0.0
  0
LINE
  5
25F
100
AcDbEntity
  8
0
370
    -3
  6
Continuous
100
AcDbLine
 10
-148.665715
 20
283.783215
 30
0.0
 11
-148.665715
 21
295.783215
 31
0.0
  0
ARC
  5
260
100
AcDbEntity
  8
0
370
    -3
  6
Continuous
100
AcDbCircle
 10
-149.665715
 20
295.783215
 30
0.0
 40
1.0
100
AcDbArc
 50
0.0
 51
90.0
  0
LINE
  5
261
100
AcDbEntity
  8
0
370
    -3
  6
Continuous
100
AcDbLine
 10
-153.665715
 20
247.783215
 30
0.0
 11
-153.665715
 21
284.783215
 31
0.0
  0
LINE
  5
262
100
AcDbEntity
  8
0
370
    -3
  6
Continuous
100
AcDbLine
 10
-153.665715
 20
294.783215
 30
0.0
 11
-153.665715
 21
325.283215
 31
0.0
  0
LINE
  5
263
100
AcDbEntity
  8
0
370
    -3
  6
Continuous
100
AcDbLine
 10
-142.665715
 20
327.283215
 30
0.0
 11
-142.665715
 21
247.783215
 31
0.0
  0
LINE
  5
264
100
AcDbEntity
  8
0
370
    -3
  6
Continuous
100
AcDbLine
 10
-156.665715
 20
312.049989
 30
0.0
 11
-156.665715
 21
325.283215
 31
0.0
  0
ARC
  5
265
100
AcDbEntity
  8
0
370
    -3
  6
Continuous
100
AcDbCircle
 10
-161.665715
 20
312.049989
 30
0.0
 40
5.0
100
AcDbArc
 50
273.0
 51
0.0
  0
LINE
  5
266
100
AcDbEntity
  8
0
370
    -3
  6
Continuous
100
AcDbLine
 10
-158.404035
 20
307.214065
 30
0.0
 11
-175.165715
 21
306.335623
 31
0.0
  0
LINE
  5
267
100
AcDbEntity
  8
0
370
    -3
  6
Continuous
100
AcDbLine
 10
-175.165715
 20
262.783215
 30
0.0
 11
-153.665715
 21
262.783215
 31
0.0
  0
LINE
  5
268
100
AcDbEntity
  8
0
370
    -3
  6
Continuous
100
AcDbLine
 10
-175.165715
 20
306.335623
 30
0.0
 11
-175.165715
 21
247.783215
 31
0.0
  0
LINE
  5
269
100
AcDbEntity
  8
0
370
    -3
  6
Continuous
100
AcDbLine
 10
-152.665728
 20
210.783215
 30
0.0
 11
-152.66573
 21
210.783215
 31
0.0
  0
ARC
  5
26A
100
AcDbEntity
  8
0
370
    -3
  6
Continuous
100
AcDbCircle
 10
-158.665715
 20
183.359217
 30
0.0
 40
5.0
100
AcDbArc
 50
0.0
 51
87.0
  0
ARC
  5
26B
100
AcDbEntity
  8
0
370
    -3
  6
Continuous
100
AcDbCircle
 10
-152.665715
 20
197.783215
 30
0.0
 40
1.0
100
AcDbArc
 50
90.0
 51
180.0
  0
LINE
  5
26C
100
AcDbEntity
  8
0
370
    -3
  6
Continuous
100
AcDbLine
 10
-152.665728
 20
210.783215
 30
0.0
 11
-152.66573
 21
210.783215
 31
0.0
  0
ARC
  5
26D
100
AcDbEntity
  8
0
370
    -3
  6
Continuous
100
AcDbCircle
 10
-152.665715
 20
213.783215
 30
0.0
 40
1.0
100
AcDbArc
 50
180.0
 51
270.0
  0
LINE
  5
26E
100
AcDbEntity
  8
0
370
    -3
  6
Continuous
100
AcDbLine
 10
-152.665715
 20
212.783215
 30
0.0
 11
-149.665715
 21
212.783215
 31
0.0
  0
ARC
  5
26F
100
AcDbEntity
  8
0
370
    -3
  6
Continuous
100
AcDbCircle
 10
-149.665715
 20
211.783215
 30
0.0
 40
1.0
100
AcDbArc
 50
0.0
 51
90.0
  0
LINE
  5
270
100
AcDbEntity
  8
0
370
    -3
  6
Continuous
100
AcDbLine
 10
-152.665715
 20
198.783215
 30
0.0
 11
-149.665715
 21
198.783215
 31
0.0
  0
LINE
  5
271
100
AcDbEntity
  8
0
370
    -3
  6
Continuous
100
AcDbLine
 10
-148.665715
 20
211.783215
 30
0.0
 11
-148.665715
 21
199.783215
 31
0.0
  0
ARC
  5
272
100
AcDbEntity
  8
0
370
    -3
  6
Continuous
100
AcDbCircle
 10
-149.665715
 20
199.783215
 30
0.0
 40
1.0
100
AcDbArc
 50
270.0
 51
0.0
  0
LINE
  5
273
100
AcDbEntity
  8
0
370
    -3
  6
Continuous
100
AcDbLine
 10
-153.665715
 20
247.783215
 30
0.0
 11
-153.665715
 21
210.783215
 31
0.0
  0
LINE
  5
274
100
AcDbEntity
  8
0
370
    -3
  6
Continuous
100
AcDbLine
 10
-153.665715
 20
200.783215
 30
0.0
 11
-153.665715
 21
170.283215
 31
0.0
  0
LINE
  5
275
100
AcDbEntity
  8
0
370
    -3
  6
Continuous
100
AcDbLine
 10
-142.665715
 20
168.283215
 30
0.0
 11
-142.665715
 21
247.783215
 31
0.0
  0
ARC
  5
276
100
AcDbEntity
  8
0
370
    -3
  6
Continuous
100
AcDbCircle
 10
-154.665715
 20
170.283215
 30
0.0
 40
2.0
100
AcDbArc
 50
180.0
 51
270.0
  0
LINE
  5
277
100
AcDbEntity
  8
0
370
    -3
  6
Continuous
100
AcDbLine
 10
-142.165715
 20
168.283215
 30
0.0
 11
-154.665715
 21
168.283215
 31
0.0
  0
ARC
  5
278
100
AcDbEntity
  8
0
370
    -3
  6
Continuous
100
AcDbCircle
 10
-151.665715
 20
170.283215
 30
0.0
 40
2.0
100
AcDbArc
 50
180.0
 51
270.0
  0
LINE
  5
279
100
AcDbEntity
  8
0
370
    -3
  6
Continuous
100
AcDbLine
 10
-156.665715
 20
183.51644
 30
0.0
 11
-156.665715
 21
170.283215
 31
0.0
  0
ARC
  5
27A
100
AcDbEntity
  8
0
370
    -3
  6
Continuous
100
AcDbCircle
 10
-161.665715
 20
183.51644
 30
0.0
 40
5.0
100
AcDbArc
 50
0.0
 51
87.0
  0
LINE
  5
27B
100
AcDbEntity
  8
0
370
    -3
  6
Continuous
100
AcDbLine
 10
-158.404035
 20
188.352365
 30
0.0
 11
-175.165715
 21
189.230807
 31
0.0
  0
LINE
  5
27C
100
AcDbEntity
  8
0
370
    -3
  6
Continuous
100
AcDbLine
 10
-175.165715
 20
232.783215
 30
0.0
 11
-153.665715
 21
232.783215
 31
0.0
  0
LINE
  5
27D
100
AcDbEntity
  8
0
370
    -3
  6
Continuous
100
AcDbLine
 10
-175.165715
 20
189.230807
 30
0.0
 11
-175.165715
 21
247.783215
 31
0.0
  0
ARC
  5
27E
100
AcDbEntity
  8
0
370
    -3
  6
Continuous
100
AcDbCircle
 10
-81.217436
 20
320.59792
 30
0.0
 40
2.0
100
AcDbArc
 50
1.0
 51
69.480948
  0
LINE
  5
27F
100
AcDbEntity
  8
0
370
    -3
  6
Continuous
100
AcDbLine
 10
-79.163431
 20
317.521429
 30
0.0
 11
-79.21774
 21
320.632825
 31
0.0
  0
LINE
  5
280
100
AcDbEntity
  8
0
370
    -3
  6
CENTER
100
AcDbLine
 10
-163.165715
 20
317.783215
 30
0.0
 11
-185.165715
 21
317.783215
 31
0.0
  0
LINE
  5
281
100
AcDbEntity
  8
0
370
    -3
  6
CENTER
100
AcDbLine
 10
-53.165715
 20
317.783215
 30
0.0
 11
-75.165715
 21
317.783215
 31
0.0
  0
LINE
  5
282
100
AcDbEntity
  8
0
370
    -3
  6
Continuous
100
AcDbLine
 10
-79.163431
 20
178.045001
 30
0.0
 11
-79.21774
 21
174.933604
 31
0.0
  0
ARC
  5
283
100
AcDbEntity
  8
0
370
    -3
  6
Continuous
100
AcDbCircle
 10
-81.217436
 20
174.968509
 30
0.0
 40
2.0
100
AcDbArc
 50
290.519052
 51
359.0
  0
LINE
  5
284
100
AcDbEntity
  8
0
370
    -3
  6
Continuous
100
AcDbLine
 10
-142.165715
 20
168.274487
 30
0.0
 11
-142.165715
 21
247.719706
 31
0.0
  0
LINE
  5
285
100
AcDbEntity
  8
0
370
    -3
  6
Continuous
100
AcDbLine
 10
-142.165715
 20
327.291942
 30
0.0
 11
-142.165715
 21
247.846723
 31
0.0
  0
ARC
  5
286
100
AcDbEntity
  8
0
370
    -3
  6
Continuous
100
AcDbCircle
 10
-54.665715
 20
194.949343
 30
0.0
 40
2.0
100
AcDbArc
 50
271.0
 51
0.0
  0
ARC
  5
287
100
AcDbEntity
  8
0
370
    -3
  6
Continuous
100
AcDbCircle
 10
-185.665715
 20
167.218518
 30
0.0
 40
2.0
100
AcDbArc
 50
180.0
 51
268.116277
  0
ARC
  5
288
100
AcDbEntity
  8
0
370
    -3
  6
Continuous
100
AcDbCircle
 10
-52.665715
 20
167.248609
 30
0.0
 40
2.0
100
AcDbArc
 50
271.0
 51
0.0
  0
LINE
  5
289
100
AcDbEntity
  8
0
370
    -3
  6
Continuous
100
AcDbLine
 10
-187.665715
 20
167.218518
 30
0.0
 11
-187.665715
 21
188.283215
 31
0.0
  0
CIRCLE
  5
28A
100
AcDbEntity
  8
0
370
    -3
  6
Continuous
100
AcDbCircle
 10
-174.165715
 20
177.783215
 30
0.0
 40
6.0
  0
LINE
  5
28B
100
AcDbEntity
  8
0
370
    -3
  6
CENTER
100
AcDbLine
 10
-163.165715
 20
177.783215
 30
0.0
 11
-185.165715
 21
177.783215
 31
0.0
  0
LINE
  5
28C
100
AcDbEntity
  8
0
370
    -3
  6
CENTER
100
AcDbLine
 10
-174.165715
 20
188.783215
 30
0.0
 11
-174.165715
 21
166.783215
 31
0.0
  0
CIRCLE
  5
28D
100
AcDbEntity
  8
0
370
    -3
  6
Continuous
100
AcDbCircle
 10
-64.165715
 20
177.783215
 30
0.0
 40
6.0
  0
LINE
  5
28E
100
AcDbEntity
  8
0
370
    -3
  6
CENTER
100
AcDbLine
 10
-53.165715
 20
177.783215
 30
0.0
 11
-75.165715
 21
177.783215
 31
0.0
  0
LINE
  5
28F
100
AcDbEntity
  8
0
370
    -3
  6
CENTER
100
AcDbLine
 10
-64.165715
 20
188.783215
 30
0.0
 11
-64.165715
 21
166.783215
 31
0.0
  0
LINE
  5
290
100
AcDbEntity
  8
0
370
    -3
  6
Continuous
100
AcDbLine
 10
-140.165715
 20
163.720986
 30
0.0
 11
-52.63081
 21
165.248914
 31
0.0
  0
LINE
  5
291
100
AcDbEntity
  8
0
370
    -3
  6
Continuous
100
AcDbLine
 10
-142.165715
 20
168.283215
 30
0.0
 11
-102.165715
 21
168.981417
 31
0.0
  0
ARC
  5
292
100
AcDbEntity
  8
0
370
    -3
  6
Continuous
100
AcDbCircle
 10
-64.165715
 20
177.783215
 30
0.0
 40
15.0
100
AcDbArc
 50
90.0
 51
179.0
  0
LINE
  5
293
100
AcDbEntity
  8
0
370
    -3
  6
Continuous
100
AcDbLine
 10
-64.165715
 20
192.783215
 30
0.0
 11
-54.63081
 21
192.949647
 31
0.0
  0
ARC
  5
294
100
AcDbEntity
  8
0
370
    -3
  6
Continuous
100
AcDbCircle
 10
-103.300122
 20
233.971518
 30
0.0
 40
65.0
100
AcDbArc
 50
271.0
 51
290.519052
  0
LINE
  5
295
100
AcDbEntity
  8
0
370
    -3
  6
Continuous
100
AcDbLine
 10
-185.731458
 20
165.219599
 30
0.0
 11
-140.165715
 21
163.720986
 31
0.0
  0
LINE
  5
296
100
AcDbEntity
  8
0
370
    -3
  6
Continuous
100
AcDbLine
 10
-187.665715
 20
328.347911
 30
0.0
 11
-187.665715
 21
307.283215
 31
0.0
  0
CIRCLE
  5
297
100
AcDbEntity
  8
0
370
    -3
  6
Continuous
100
AcDbCircle
 10
-174.165715
 20
317.783215
 30
0.0
 40
6.0
  0
LINE
  5
298
100
AcDbEntity
  8
0
370
    -3
  6
CENTER
100
AcDbLine
 10
-174.165715
 20
306.783215
 30
0.0
 11
-174.165715
 21
328.783215
 31
0.0
  0
LINE
  5
299
100
AcDbEntity
  8
0
370
    -3
  6
Continuous
100
AcDbLine
 10
-48.865715
 20
233.283215
 30
0.0
 11
-50.665715
 21
233.283215
 31
0.0
  0
LINE
  5
29A
100
AcDbEntity
  8
0
370
    -3
  6
Continuous
100
AcDbLine
 10
-48.665715
 20
247.783215
 30
0.0
 11
-48.665715
 21
233.483215
 31
0.0
  0
LINE
  5
29B
100
AcDbEntity
  8
0
370
    -3
  6
Continuous
100
AcDbLine
 10
-48.665715
 20
233.483215
 30
0.0
 11
-48.865715
 21
233.283215
 31
0.0
  0
ARC
  5
29C
100
AcDbEntity
  8
0
370
    -3
  6
Continuous
100
AcDbCircle
 10
-48.265715
 20
233.533215
 30
0.0
 40
0.4
100
AcDbArc
 50
90.0
 51
180.0
  0
LINE
  5
29D
100
AcDbEntity
  8
0
370
    -3
  6
Continuous
100
AcDbLine
 10
-46.105908
 20
233.783215
 30
0.0
 11
-46.665715
 21
233.933215
 31
0.0
  0
LINE
  5
29E
100
AcDbEntity
  8
0
370
    -3
  6
Continuous
100
AcDbLine
 10
-46.665715
 20
233.933215
 30
0.0
 11
-48.265715
 21
233.933215
 31
0.0
  0
LINE
  5
29F
100
AcDbEntity
  8
0
370
    -3
  6
Continuous
100
AcDbLine
 10
-48.865715
 20
262.283215
 30
0.0
 11
-50.665715
 21
262.283215
 31
0.0
  0
LINE
  5
2A0
100
AcDbEntity
  8
0
370
    -3
  6
Continuous
100
AcDbLine
 10
-48.665715
 20
247.783215
 30
0.0
 11
-48.665715
 21
262.083215
 31
0.0
  0
LINE
  5
2A1
100
AcDbEntity
  8
0
370
    -3
  6
Continuous
100
AcDbLine
 10
-48.665715
 20
262.083215
 30
0.0
 11
-48.865715
 21
262.283215
 31
0.0
  0
ARC
  5
2A2
100
AcDbEntity
  8
0
370
    -3
  6
Continuous
100
AcDbCircle
 10
-48.265715
 20
262.033215
 30
0.0
 40
0.4
100
AcDbArc
 50
180.0
 51
270.0
  0
LINE
  5
2A3
100
AcDbEntity
  8
0
370
    -3
  6
Continuous
100
AcDbLine
 10
-46.105908
 20
261.783215
 30
0.0
 11
-46.665715
 21
261.633215
 31
0.0
  0
LINE
  5
2A4
100
AcDbEntity
  8
0
370
    -3
  6
Continuous
100
AcDbLine
 10
-46.665715
 20
261.633215
 30
0.0
 11
-48.265715
 21
261.633215
 31
0.0
  0
LINE
  5
2A5
100
AcDbEntity
  8
0
370
    -3
  6
Continuous
100
AcDbLine
 10
-42.665715
 20
230.783215
 30
0.0
 11
-42.665715
 21
233.783215
 31
0.0
  0
LINE
  5
2A6
100
AcDbEntity
  8
0
370
    -3
  6
Continuous
100
AcDbLine
 10
-6.665715
 20
261.383215
 30
0.0
 11
-6.665715
 21
247.783215
 31
0.0
  0
LINE
  5
2A7
100
AcDbEntity
  8
0
370
    -3
  6
Continuous
100
AcDbLine
 10
-7.065715
 20
261.783215
 30
0.0
 11
-46.105908
 21
261.783215
 31
0.0
  0
ARC
  5
2A8
100
AcDbEntity
  8
0
370
    -3
  6
Continuous
100
AcDbCircle
 10
-7.065715
 20
261.383215
 30
0.0
 40
0.4
100
AcDbArc
 50
0.0
 51
90.0
  0
LINE
  5
2A9
100
AcDbEntity
  8
0
370
    -3
  6
Continuous
100
AcDbLine
 10
-6.665715
 20
230.783215
 30
0.0
 11
-6.665715
 21
234.183215
 31
0.0
  0
LINE
  5
2AA
100
AcDbEntity
  8
0
370
    -3
  6
Continuous
100
AcDbLine
 10
-6.665715
 20
230.783215
 30
0.0
 11
-42.665715
 21
230.783215
 31
0.0
  0
LINE
  5
2AB
100
AcDbEntity
  8
0
370
    -3
  6
Continuous
100
AcDbLine
 10
-6.665715
 20
234.183215
 30
0.0
 11
-6.665715
 21
247.783215
 31
0.0
  0
LINE
  5
2AC
100
AcDbEntity
  8
0
370
    -3
  6
Continuous
100
AcDbLine
 10
-7.065715
 20
233.783215
 30
0.0
 11
-46.105908
 21
233.783215
 31
0.0
  0
ARC
  5
2AD
100
AcDbEntity
  8
0
370
    -3
  6
Continuous
100
AcDbCircle
 10
-7.065715
 20
234.183215
 30
0.0
 40
0.4
100
AcDbArc
 50
270.0
 51
0.0
  0
ARC
  5
2AE
100
AcDbEntity
  8
0
370
    -3
  6
Continuous
100
AcDbCircle
 10
-54.665715
 20
300.617087
 30
0.0
 40
2.0
100
AcDbArc
 50
0.0
 51
89.0
  0
ARC
  5
2AF
100
AcDbEntity
  8
0
370
    -3
  6
Continuous
100
AcDbCircle
 10
-51.665715
 20
221.283215
 30
0.0
 40
1.0
100
AcDbArc
 50
270.0
 51
0.0
  0
ARC
  5
2B0
100
AcDbEntity
  8
0
370
    -3
  6
Continuous
100
AcDbCircle
 10
-51.665715
 20
219.283215
 30
0.0
 40
1.0
100
AcDbArc
 50
90.0
 51
180.0
  0
LINE
  5
2B1
100
AcDbEntity
  8
0
370
    -3
  6
Continuous
100
AcDbLine
 10
-50.665715
 20
167.248609
 30
0.0
 11
-50.665715
 21
247.783215
 31
0.0
  0
LINE
  5
2B2
100
AcDbEntity
  8
0
370
    -3
  6
Continuous
100
AcDbLine
 10
-52.665715
 20
194.949343
 30
0.0
 11
-52.665715
 21
247.783215
 31
0.0
  0
ARC
  5
2B3
100
AcDbEntity
  8
0
370
    -3
  6
Continuous
100
AcDbCircle
 10
-51.665715
 20
274.283215
 30
0.0
 40
1.0
100
AcDbArc
 50
0.0
 51
90.0
  0
ARC
  5
2B4
100
AcDbEntity
  8
0
370
    -3
  6
Continuous
100
AcDbCircle
 10
-51.665715
 20
276.283215
 30
0.0
 40
1.0
100
AcDbArc
 50
180.0
 51
270.0
  0
LINE
  5
2B5
100
AcDbEntity
  8
0
370
    -3
  6
Continuous
100
AcDbLine
 10
-50.665715
 20
328.31782
 30
0.0
 11
-50.665715
 21
247.783215
 31
0.0
  0
LINE
  5
2B6
100
AcDbEntity
  8
0
370
    -3
  6
Continuous
100
AcDbLine
 10
-52.665715
 20
300.617087
 30
0.0
 11
-52.665715
 21
247.783215
 31
0.0
  0
CIRCLE
  5
2B7
100
AcDbEntity
  8
0
370
    -3
  6
Continuous
100
AcDbCircle
 10
-64.165715
 20
317.783215
 30
0.0
 40
6.0
  0
LINE
  5
2B8
100
AcDbEntity
  8
0
370
    -3
  6
CENTER
100
AcDbLine
 10
-64.165715
 20
306.783215
 30
0.0
 11
-64.165715
 21
328.783215
 31
0.0
  0
ARC
  5
2B9
100
AcDbEntity
  8
0
370
    -3
  6
Continuous
100
AcDbCircle
 10
-64.165715
 20
317.783215
 30
0.0
 40
15.0
100
AcDbArc
 50
181.0
 51
270.0
  0
LINE
  5
2BA
100
AcDbEntity
  8
0
370
    -3
  6
Continuous
100
AcDbLine
 10
-64.165715
 20
302.783215
 30
0.0
 11
-54.63081
 21
302.616782
 31
0.0
  0
LINE
  5
2BB
100
AcDbEntity
  8
0
370
    -3
  6
Continuous
100
AcDbLine
 10
-154.670728
 20
284.783215
 30
0.0
 11
-154.670728
 21
294.783215
 31
0.0
  0
LINE
  5
2BC
100
AcDbEntity
  8
0
370
    -3
  6
Continuous
100
AcDbLine
 10
-148.670728
 20
294.783215
 30
0.0
 11
-154.670728
 21
294.783215
 31
0.0
  0
LINE
  5
2BD
100
AcDbEntity
  8
0
370
    -3
  6
Continuous
100
AcDbLine
 10
-148.670728
 20
284.783215
 30
0.0
 11
-154.670728
 21
284.783215
 31
0.0
  0
LINE
  5
2BE
100
AcDbEntity
  8
0
370
    -3
  6
Continuous
100
AcDbLine
 10
-154.670728
 20
210.783215
 30
0.0
 11
-154.670728
 21
200.783215
 31
0.0
  0
LINE
  5
2BF
100
AcDbEntity
  8
0
370
    -3
  6
Continuous
100
AcDbLine
 10
-148.670728
 20
200.783215
 30
0.0
 11
-154.670728
 21
200.783215
 31
0.0
  0
LINE
  5
2C0
100
AcDbEntity
  8
0
370
    -3
  6
Continuous
100
AcDbLine
 10
-148.670728
 20
210.783215
 30
0.0
 11
-154.670728
 21
210.783215
 31
0.0
  0
LINE
  5
2C1
100
AcDbEntity
  8
0
370
    -3
  6
Continuous
100
AcDbLine
 10
-175.165715
 20
307.288627
 30
0.0
 11
-175.165715
 21
188.288627
 31
0.0
  0
LINE
  5
2C2
100
AcDbEntity
  8
0
370
    -3
  6
Continuous
100
AcDbLine
 10
-232.165715
 20
307.288627
 30
0.0
 11
-175.165715
 21
307.288627
 31
0.0
  0
LINE
  5
2C3
100
AcDbEntity
  8
0
370
    -3
  6
Continuous
100
AcDbLine
 10
-246.372921
 20
188.288627
 30
0.0
 11
-175.165715
 21
188.288627
 31
0.0
  0
LINE
  5
2C4
100
AcDbEntity
  8
0
370
    -3
  6
CENTER
100
AcDbLine
 10
-393.648919
 20
-36.251728
 30
0.0
 11
-592.809608
 21
-36.251728
 31
0.0
  0
INSERT
  5
2D0
100
AcDbEntity
  8
0
100
AcDbBlockReference
  2
ZU_SYM__USERS_HOME_SYMBOL_STD_SYM_B01_00002-1
 10
-472.558839
 20
-80.445901
 30
0.0
 41
-1.0
 50
180.0
  0
INSERT
  5
2DC
100
AcDbEntity
  8
0
100
AcDbBlockReference
  2
ZU_SYM__USERS_HOME_SYMBOL_STD_SYM_B01_00003-1
 10
-560.947187
 20
-80.445901
 30
0.0
 50
180.0
  0
INSERT
  5
2E8
100
AcDbEntity
  8
0
100
AcDbBlockReference
  2
ZU_SYM__USERS_HOME_SYMBOL_STD_SYM_B01_00004-1
 10
-560.947187
 20
7.942446
 30
0.0
 41
-1.0
  0
INSERT
  5
2F4
100
AcDbEntity
  8
0
100
AcDbBlockReference
  2
ZU_SYM__USERS_HOME_SYMBOL_STD_SYM_B01_00005-1
 10
-472.558839
 20
7.942446
 30
0.0
  0
ARC
  5
2F5
100
AcDbEntity
  8
0
370
    -3
  6
Continuous
100
AcDbCircle
 10
-476.129069
 20
15.488031
 30
0.0
 40
3.0
100
AcDbArc
 50
183.0
 51
312.0
  0
ARC
  5
2F6
100
AcDbEntity
  8
0
370
    -3
  6
Continuous
100
AcDbCircle
 10
-465.013254
 20
4.372216
 30
0.0
 40
3.0
100
AcDbArc
 50
138.0
 51
267.0
  0
ARC
  5
2F7
100
AcDbEntity
  8
0
370
    -3
  6
Continuous
100
AcDbCircle
 10
-557.376956
 20
15.488031
 30
0.0
 40
3.0
100
AcDbArc
 50
228.0
 51
357.0
  0
ARC
  5
2F8
100
AcDbEntity
  8
0
370
    -3
  6
Continuous
100
AcDbCircle
 10
-568.492771
 20
4.372216
 30
0.0
 40
3.0
100
AcDbArc
 50
273.0
 51
42.0
  0
ARC
  5
2F9
100
AcDbEntity
  8
0
370
    -3
  6
Continuous
100
AcDbCircle
 10
-568.492771
 20
-76.875671
 30
0.0
 40
3.0
100
AcDbArc
 50
318.0
 51
87.0
  0
ARC
  5
2FA
100
AcDbEntity
  8
0
370
    -3
  6
Continuous
100
AcDbCircle
 10
-557.376956
 20
-87.991486
 30
0.0
 40
3.0
100
AcDbArc
 50
3.0
 51
132.0
  0
ARC
  5
2FB
100
AcDbEntity
  8
0
370
    -3
  6
Continuous
100
AcDbCircle
 10
-476.129069
 20
-87.991486
 30
0.0
 40
3.0
100
AcDbArc
 50
48.0
 51
177.0
  0
ARC
  5
2FC
100
AcDbEntity
  8
0
370
    -3
  6
Continuous
100
AcDbCircle
 10
-465.013254
 20
-76.875671
 30
0.0
 40
3.0
100
AcDbArc
 50
93.0
 51
222.0
  0
ARC
  5
2FD
100
AcDbEntity
  8
0
370
    -3
  6
Continuous
100
AcDbCircle
 10
-571.446183
 20
-12.82296
 30
0.0
 40
1.0
100
AcDbArc
 50
336.81129
 51
87.0
  0
LINE
  5
2FE
100
AcDbEntity
  8
0
370
    -3
  6
Continuous
100
AcDbLine
 10
-572.805349
 20
-11.750357
 30
0.0
 11
-571.393847
 21
-11.824331
 31
0.0
  0
ARC
  5
2FF
100
AcDbEntity
  8
0
370
    -3
  6
Continuous
100
AcDbCircle
 10
-575.553013
 20
-16.951728
 30
0.0
 40
0.7
100
AcDbArc
 50
90.0
 51
180.0
  0
LINE
  5
300
100
AcDbEntity
  8
0
370
    -3
  6
Continuous
100
AcDbLine
 10
-572.423921
 20
-16.251728
 30
0.0
 11
-575.553013
 21
-16.251728
 31
0.0
  0
ARC
  5
301
100
AcDbEntity
  8
0
370
    -3
  6
Continuous
100
AcDbCircle
 10
-572.423921
 20
-15.251728
 30
0.0
 40
1.0
100
AcDbArc
 50
270.0
 51
339.332684
  0
LINE
  5
302
100
AcDbEntity
  8
0
370
    -3
  6
Continuous
100
AcDbLine
 10
-576.253013
 20
-16.951728
 30
0.0
 11
-576.253013
 21
-36.251728
 31
0.0
  0
ARC
  5
303
100
AcDbEntity
  8
0
370
    -3
  6
Continuous
100
AcDbCircle
 10
-516.753013
 20
-36.251728
 30
0.0
 40
58.5
100
AcDbArc
 50
156.81129
 51
159.332684
  0
ARC
  5
304
100
AcDbEntity
  8
0
370
    -3
  6
Continuous
100
AcDbCircle
 10
-566.061131
 20
-2.950684
 30
0.0
 40
1.0
100
AcDbArc
 50
273.0
 51
325.966232
  0
ARC
  5
305
100
AcDbEntity
  8
0
370
    -3
  6
Continuous
100
AcDbCircle
 10
-568.795067
 20
-7.409492
 30
0.0
 40
1.0
100
AcDbArc
 50
331.004334
 51
87.0
  0
ARC
  5
306
100
AcDbEntity
  8
0
370
    -3
  6
Continuous
100
AcDbCircle
 10
-569.423894
 20
-8.574511
 30
0.0
 40
1.0
100
AcDbArc
 50
273.0
 51
332.279209
  0
ARC
  5
307
100
AcDbEntity
  8
0
370
    -3
  6
Continuous
100
AcDbCircle
 10
-570.753013
 20
0.248272
 30
0.0
 40
1.0
100
AcDbArc
 50
93.0
 51
267.0
  0
LINE
  5
308
100
AcDbEntity
  8
0
370
    -3
  6
Continuous
100
AcDbLine
 10
-570.805349
 20
-0.750357
 30
0.0
 11
-565.376769
 21
-1.034857
 31
0.0
  0
ARC
  5
309
100
AcDbEntity
  8
0
370
    -3
  6
Continuous
100
AcDbCircle
 10
-565.429105
 20
-2.033486
 30
0.0
 40
1.0
100
AcDbArc
 50
324.89361
 51
87.0
  0
LINE
  5
30A
100
AcDbEntity
  8
0
370
    -3
  6
Continuous
100
AcDbLine
 10
-570.805349
 20
1.246902
 30
0.0
 11
-568.335763
 21
1.376327
 31
0.0
  0
ARC
  5
30B
100
AcDbEntity
  8
0
370
    -3
  6
Continuous
100
AcDbCircle
 10
-571.753013
 20
-5.251728
 30
0.0
 40
1.0
100
AcDbArc
 50
93.0
 51
267.0
  0
ARC
  5
30C
100
AcDbEntity
  8
0
370
    -3
  6
Continuous
100
AcDbCircle
 10
-572.753013
 20
-10.751728
 30
0.0
 40
1.0
100
AcDbArc
 50
93.0
 51
267.0
  0
LINE
  5
30D
100
AcDbEntity
  8
0
370
    -3
  6
Continuous
100
AcDbLine
 10
-572.805349
 20
-9.753098
 30
0.0
 11
-569.371558
 21
-9.573141
 31
0.0
  0
LINE
  5
30E
100
AcDbEntity
  8
0
370
    -3
  6
Continuous
100
AcDbLine
 10
-571.805349
 20
-4.253098
 30
0.0
 11
-566.008795
 21
-3.949314
 31
0.0
  0
LINE
  5
30F
100
AcDbEntity
  8
0
370
    -3
  6
Continuous
100
AcDbLine
 10
-571.805349
 20
-6.250357
 30
0.0
 11
-568.742731
 21
-6.410862
 31
0.0
  0
ARC
  5
310
100
AcDbEntity
  8
0
370
    -3
  6
Continuous
100
AcDbCircle
 10
-561.013303
 20
13.379681
 30
0.0
 40
1.0
100
AcDbArc
 50
48.0
 51
131.725937
  0
ARC
  5
311
100
AcDbEntity
  8
0
370
    -3
  6
Continuous
100
AcDbCircle
 10
-516.753013
 20
-36.251728
 30
0.0
 40
67.5
100
AcDbArc
 50
131.725937
 51
138.274063
  0
ARC
  5
312
100
AcDbEntity
  8
0
370
    -3
  6
Continuous
100
AcDbCircle
 10
-566.384421
 20
8.008563
 30
0.0
 40
1.0
100
AcDbArc
 50
138.274063
 51
222.0
  0
LINE
  5
313
100
AcDbEntity
  8
0
370
    -3
  6
Continuous
100
AcDbLine
 10
-552.254383
 20
17.800608
 30
0.0
 11
-551.969883
 21
12.372029
 31
0.0
  0
LINE
  5
314
100
AcDbEntity
  8
0
370
    -3
  6
Continuous
100
AcDbLine
 10
-554.251642
 20
17.800608
 30
0.0
 11
-554.381068
 21
15.331023
 31
0.0
  0
ARC
  5
315
100
AcDbEntity
  8
0
370
    -3
  6
Continuous
100
AcDbCircle
 10
-553.253013
 20
17.748272
 30
0.0
 40
1.0
100
AcDbArc
 50
3.0
 51
177.0
  0
LINE
  5
316
100
AcDbEntity
  8
0
370
    -3
  6
Continuous
100
AcDbLine
 10
-531.753013
 20
20.675858
 30
0.0
 11
-531.753013
 21
20.865303
 31
0.0
  0
ARC
  5
317
100
AcDbEntity
  8
0
370
    -3
  6
Continuous
100
AcDbCircle
 10
-532.253013
 20
20.675858
 30
0.0
 40
0.5
100
AcDbArc
 50
285.231036
 51
0.0
  0
ARC
  5
318
100
AcDbEntity
  8
0
370
    -3
  6
Continuous
100
AcDbCircle
 10
-516.753013
 20
-36.251728
 30
0.0
 40
58.5
100
AcDbArc
 50
105.231036
 51
107.620097
  0
ARC
  5
319
100
AcDbEntity
  8
0
370
    -3
  6
Continuous
100
AcDbCircle
 10
-534.763914
 20
20.456803
 30
0.0
 40
1.0
100
AcDbArc
 50
185.98484
 51
287.620097
  0
ARC
  5
31A
100
AcDbEntity
  8
0
370
    -3
  6
Continuous
100
AcDbCircle
 10
-536.753013
 20
20.248272
 30
0.0
 40
1.0
100
AcDbArc
 50
5.98484
 51
177.0
  0
ARC
  5
31B
100
AcDbEntity
  8
0
370
    -3
  6
Continuous
100
AcDbCircle
 10
-538.820938
 20
19.004554
 30
0.0
 40
1.0
100
AcDbArc
 50
291.770485
 51
357.0
  0
LINE
  5
31C
100
AcDbEntity
  8
0
370
    -3
  6
Continuous
100
AcDbLine
 10
-537.751642
 20
20.300608
 30
0.0
 11
-537.822308
 21
18.952218
 31
0.0
  0
ARC
  5
31D
100
AcDbEntity
  8
0
370
    -3
  6
Continuous
100
AcDbCircle
 10
-516.753013
 20
-36.251728
 30
0.0
 40
58.5
100
AcDbArc
 50
111.770485
 51
113.18871
  0
ARC
  5
31E
100
AcDbEntity
  8
0
370
    -3
  6
Continuous
100
AcDbCircle
 10
-544.430229
 20
16.419153
 30
0.0
 40
1.0
100
AcDbArc
 50
297.720791
 51
357.0
  0
LINE
  5
31F
100
AcDbEntity
  8
0
370
    -3
  6
Continuous
100
AcDbLine
 10
-543.251642
 20
19.800608
 30
0.0
 11
-543.4316
 21
16.366817
 31
0.0
  0
ARC
  5
320
100
AcDbEntity
  8
0
370
    -3
  6
Continuous
100
AcDbCircle
 10
-540.18178
 20
18.441443
 30
0.0
 40
1.0
100
AcDbArc
 50
183.0
 51
293.18871
  0
LINE
  5
321
100
AcDbEntity
  8
0
370
    -3
  6
Continuous
100
AcDbLine
 10
-541.254383
 20
19.800608
 30
0.0
 11
-541.18041
 21
18.389107
 31
0.0
  0
ARC
  5
322
100
AcDbEntity
  8
0
370
    -3
  6
Continuous
100
AcDbCircle
 10
-542.253013
 20
19.748272
 30
0.0
 40
1.0
100
AcDbArc
 50
3.0
 51
177.0
  0
ARC
  5
323
100
AcDbEntity
  8
0
370
    -3
  6
Continuous
100
AcDbCircle
 10
-516.753013
 20
-36.251728
 30
0.0
 40
58.5
100
AcDbArc
 50
117.720791
 51
118.995666
  0
ARC
  5
324
100
AcDbEntity
  8
0
370
    -3
  6
Continuous
100
AcDbCircle
 10
-545.595249
 20
15.790327
 30
0.0
 40
1.0
100
AcDbArc
 50
183.0
 51
298.995666
  0
LINE
  5
325
100
AcDbEntity
  8
0
370
    -3
  6
Continuous
100
AcDbLine
 10
-546.754383
 20
18.800608
 30
0.0
 11
-546.593878
 21
15.737991
 31
0.0
  0
ARC
  5
326
100
AcDbEntity
  8
0
370
    -3
  6
Continuous
100
AcDbCircle
 10
-550.054056
 20
13.05639
 30
0.0
 40
1.0
100
AcDbArc
 50
304.033768
 51
357.0
  0
LINE
  5
327
100
AcDbEntity
  8
0
370
    -3
  6
Continuous
100
AcDbLine
 10
-548.751642
 20
18.800608
 30
0.0
 11
-549.055427
 21
13.004054
 31
0.0
  0
ARC
  5
328
100
AcDbEntity
  8
0
370
    -3
  6
Continuous
100
AcDbCircle
 10
-547.753013
 20
18.748272
 30
0.0
 40
1.0
100
AcDbArc
 50
3.0
 51
177.0
  0
ARC
  5
329
100
AcDbEntity
  8
0
370
    -3
  6
Continuous
100
AcDbCircle
 10
-550.971254
 20
12.424365
 30
0.0
 40
1.0
100
AcDbArc
 50
183.0
 51
305.10639
  0
ARC
  5
32A
100
AcDbEntity
  8
0
370
    -3
  6
Continuous
100
AcDbCircle
 10
-516.753013
 20
-36.251728
 30
0.0
 40
58.5
100
AcDbArc
 50
124.033768
 51
125.10639
  0
ARC
  5
32B
100
AcDbEntity
  8
0
370
    -3
  6
Continuous
100
AcDbCircle
 10
-516.753013
 20
-36.251728
 30
0.0
 40
58.5
100
AcDbArc
 50
151.004334
 51
152.279209
  0
ARC
  5
32C
100
AcDbEntity
  8
0
370
    -3
  6
Continuous
100
AcDbCircle
 10
-516.753013
 20
-36.251728
 30
0.0
 40
58.5
100
AcDbArc
 50
144.89361
 51
145.966232
  0
LINE
  5
32D
100
AcDbEntity
  8
0
370
    -3
  6
Continuous
100
AcDbLine
 10
-544.698864
 20
0.035727
 30
0.0
 11
-560.344172
 21
14.122826
 31
0.0
  0
LINE
  5
32E
100
AcDbEntity
  8
0
370
    -3
  6
Continuous
100
AcDbLine
 10
-553.040468
 20
-8.305876
 30
0.0
 11
-567.127566
 21
7.339432
 31
0.0
  0
ARC
  5
32F
100
AcDbEntity
  8
0
370
    -3
  6
Continuous
100
AcDbCircle
 10
-531.253013
 20
20.865303
 30
0.0
 40
0.5
100
AcDbArc
 50
96.969381
 51
180.0
  0
ARC
  5
330
100
AcDbEntity
  8
0
370
    -3
  6
Continuous
100
AcDbCircle
 10
-516.753013
 20
-97.751728
 30
0.0
 40
120.0
100
AcDbArc
 50
90.0
 51
96.969381
  0
ARC
  5
331
100
AcDbEntity
  8
0
370
    -3
  6
Continuous
100
AcDbCircle
 10
-571.446183
 20
-59.680495
 30
0.0
 40
1.0
100
AcDbArc
 50
273.0
 51
23.18871
  0
LINE
  5
332
100
AcDbEntity
  8
0
370
    -3
  6
Continuous
100
AcDbLine
 10
-572.805349
 20
-60.753098
 30
0.0
 11
-571.393847
 21
-60.679124
 31
0.0
  0
ARC
  5
333
100
AcDbEntity
  8
0
370
    -3
  6
Continuous
100
AcDbCircle
 10
-575.553013
 20
-55.551728
 30
0.0
 40
0.7
100
AcDbArc
 50
180.0
 51
270.0
  0
LINE
  5
334
100
AcDbEntity
  8
0
370
    -3
  6
Continuous
100
AcDbLine
 10
-572.423921
 20
-56.251728
 30
0.0
 11
-575.553013
 21
-56.251728
 31
0.0
  0
ARC
  5
335
100
AcDbEntity
  8
0
370
    -3
  6
Continuous
100
AcDbCircle
 10
-572.423921
 20
-57.251728
 30
0.0
 40
1.0
100
AcDbArc
 50
20.667316
 51
90.0
  0
LINE
  5
336
100
AcDbEntity
  8
0
370
    -3
  6
Continuous
100
AcDbLine
 10
-576.253013
 20
-55.551728
 30
0.0
 11
-576.253013
 21
-36.251728
 31
0.0
  0
ARC
  5
337
100
AcDbEntity
  8
0
370
    -3
  6
Continuous
100
AcDbCircle
 10
-516.753013
 20
-36.251728
 30
0.0
 40
58.5
100
AcDbArc
 50
200.667316
 51
203.18871
  0
ARC
  5
338
100
AcDbEntity
  8
0
370
    -3
  6
Continuous
100
AcDbCircle
 10
-566.061131
 20
-69.552771
 30
0.0
 40
1.0
100
AcDbArc
 50
34.033768
 51
87.0
  0
ARC
  5
339
100
AcDbEntity
  8
0
370
    -3
  6
Continuous
100
AcDbCircle
 10
-568.795067
 20
-65.093964
 30
0.0
 40
1.0
100
AcDbArc
 50
273.0
 51
28.995666
  0
ARC
  5
33A
100
AcDbEntity
  8
0
370
    -3
  6
Continuous
100
AcDbCircle
 10
-569.423894
 20
-63.928944
 30
0.0
 40
1.0
100
AcDbArc
 50
27.720791
 51
87.0
  0
ARC
  5
33B
100
AcDbEntity
  8
0
370
    -3
  6
Continuous
100
AcDbCircle
 10
-570.753013
 20
-72.751728
 30
0.0
 40
1.0
100
AcDbArc
 50
93.0
 51
267.0
  0
LINE
  5
33C
100
AcDbEntity
  8
0
370
    -3
  6
Continuous
100
AcDbLine
 10
-570.805349
 20
-71.753098
 30
0.0
 11
-565.376769
 21
-71.468598
 31
0.0
  0
ARC
  5
33D
100
AcDbEntity
  8
0
370
    -3
  6
Continuous
100
AcDbCircle
 10
-565.429105
 20
-70.469969
 30
0.0
 40
1.0
100
AcDbArc
 50
273.0
 51
35.10639
  0
LINE
  5
33E
100
AcDbEntity
  8
0
370
    -3
  6
Continuous
100
AcDbLine
 10
-570.805349
 20
-73.750357
 30
0.0
 11
-568.335763
 21
-73.879783
 31
0.0
  0
ARC
  5
33F
100
AcDbEntity
  8
0
370
    -3
  6
Continuous
100
AcDbCircle
 10
-571.753013
 20
-67.251728
 30
0.0
 40
1.0
100
AcDbArc
 50
93.0
 51
267.0
  0
ARC
  5
340
100
AcDbEntity
  8
0
370
    -3
  6
Continuous
100
AcDbCircle
 10
-572.753013
 20
-61.751728
 30
0.0
 40
1.0
100
AcDbArc
 50
93.0
 51
267.0
  0
LINE
  5
341
100
AcDbEntity
  8
0
370
    -3
  6
Continuous
100
AcDbLine
 10
-572.805349
 20
-62.750357
 30
0.0
 11
-569.371558
 21
-62.930314
 31
0.0
  0
LINE
  5
342
100
AcDbEntity
  8
0
370
    -3
  6
Continuous
100
AcDbLine
 10
-571.805349
 20
-68.250357
 30
0.0
 11
-566.008795
 21
-68.554142
 31
0.0
  0
LINE
  5
343
100
AcDbEntity
  8
0
370
    -3
  6
Continuous
100
AcDbLine
 10
-571.805349
 20
-66.253098
 30
0.0
 11
-568.742731
 21
-66.092593
 31
0.0
  0
ARC
  5
344
100
AcDbEntity
  8
0
370
    -3
  6
Continuous
100
AcDbCircle
 10
-561.013303
 20
-85.883136
 30
0.0
 40
1.0
100
AcDbArc
 50
228.274063
 51
312.0
  0
ARC
  5
345
100
AcDbEntity
  8
0
370
    -3
  6
Continuous
100
AcDbCircle
 10
-516.753013
 20
-36.251728
 30
0.0
 40
67.5
100
AcDbArc
 50
221.725937
 51
228.274063
  0
ARC
  5
346
100
AcDbEntity
  8
0
370
    -3
  6
Continuous
100
AcDbCircle
 10
-566.384421
 20
-80.512018
 30
0.0
 40
1.0
100
AcDbArc
 50
138.0
 51
221.725937
  0
LINE
  5
347
100
AcDbEntity
  8
0
370
    -3
  6
Continuous
100
AcDbLine
 10
-552.254383
 20
-90.304064
 30
0.0
 11
-551.969883
 21
-84.875484
 31
0.0
  0
LINE
  5
348
100
AcDbEntity
  8
0
370
    -3
  6
Continuous
100
AcDbLine
 10
-554.251642
 20
-90.304064
 30
0.0
 11
-554.381068
 21
-87.834478
 31
0.0
  0
ARC
  5
349
100
AcDbEntity
  8
0
370
    -3
  6
Continuous
100
AcDbCircle
 10
-553.253013
 20
-90.251728
 30
0.0
 40
1.0
100
AcDbArc
 50
183.0
 51
357.0
  0
LINE
  5
34A
100
AcDbEntity
  8
0
370
    -3
  6
Continuous
100
AcDbLine
 10
-531.753013
 20
-93.179313
 30
0.0
 11
-531.753013
 21
-93.368758
 31
0.0
  0
ARC
  5
34B
100
AcDbEntity
  8
0
370
    -3
  6
Continuous
100
AcDbCircle
 10
-532.253013
 20
-93.179313
 30
0.0
 40
0.5
100
AcDbArc
 50
0.0
 51
74.768964
  0
ARC
  5
34C
100
AcDbEntity
  8
0
370
    -3
  6
Continuous
100
AcDbCircle
 10
-516.753013
 20
-36.251728
 30
0.0
 40
58.5
100
AcDbArc
 50
252.379903
 51
254.768964
  0
ARC
  5
34D
100
AcDbEntity
  8
0
370
    -3
  6
Continuous
100
AcDbCircle
 10
-534.763914
 20
-92.960258
 30
0.0
 40
1.0
100
AcDbArc
 50
72.379903
 51
174.01516
  0
ARC
  5
34E
100
AcDbEntity
  8
0
370
    -3
  6
Continuous
100
AcDbCircle
 10
-536.753013
 20
-92.751728
 30
0.0
 40
1.0
100
AcDbArc
 50
183.0
 51
354.01516
  0
ARC
  5
34F
100
AcDbEntity
  8
0
370
    -3
  6
Continuous
100
AcDbCircle
 10
-538.820938
 20
-91.508009
 30
0.0
 40
1.0
100
AcDbArc
 50
3.0
 51
68.229515
  0
LINE
  5
350
100
AcDbEntity
  8
0
370
    -3
  6
Continuous
100
AcDbLine
 10
-537.751642
 20
-92.804064
 30
0.0
 11
-537.822308
 21
-91.455673
 31
0.0
  0
ARC
  5
351
100
AcDbEntity
  8
0
370
    -3
  6
Continuous
100
AcDbCircle
 10
-516.753013
 20
-36.251728
 30
0.0
 40
58.5
100
AcDbArc
 50
246.81129
 51
248.229515
  0
ARC
  5
352
100
AcDbEntity
  8
0
370
    -3
  6
Continuous
100
AcDbCircle
 10
-544.430229
 20
-88.922608
 30
0.0
 40
1.0
100
AcDbArc
 50
3.0
 51
62.279209
  0
LINE
  5
353
100
AcDbEntity
  8
0
370
    -3
  6
Continuous
100
AcDbLine
 10
-543.251642
 20
-92.304064
 30
0.0
 11
-543.4316
 21
-88.870272
 31
0.0
  0
ARC
  5
354
100
AcDbEntity
  8
0
370
    -3
  6
Continuous
100
AcDbCircle
 10
-540.18178
 20
-90.944898
 30
0.0
 40
1.0
100
AcDbArc
 50
66.81129
 51
177.0
  0
LINE
  5
355
100
AcDbEntity
  8
0
370
    -3
  6
Continuous
100
AcDbLine
 10
-541.254383
 20
-92.304064
 30
0.0
 11
-541.18041
 21
-90.892562
 31
0.0
  0
ARC
  5
356
100
AcDbEntity
  8
0
370
    -3
  6
Continuous
100
AcDbCircle
 10
-542.253013
 20
-92.251728
 30
0.0
 40
1.0
100
AcDbArc
 50
183.0
 51
357.0
  0
ARC
  5
357
100
AcDbEntity
  8
0
370
    -3
  6
Continuous
100
AcDbCircle
 10
-516.753013
 20
-36.251728
 30
0.0
 40
58.5
100
AcDbArc
 50
241.004334
 51
242.279209
  0
ARC
  5
358
100
AcDbEntity
  8
0
370
    -3
  6
Continuous
100
AcDbCircle
 10
-545.595249
 20
-88.293782
 30
0.0
 40
1.0
100
AcDbArc
 50
61.004334
 51
177.0
  0
LINE
  5
359
100
AcDbEntity
  8
0
370
    -3
  6
Continuous
100
AcDbLine
 10
-546.754383
 20
-91.304064
 30
0.0
 11
-546.593878
 21
-88.241446
 31
0.0
  0
ARC
  5
35A
100
AcDbEntity
  8
0
370
    -3
  6
Continuous
100
AcDbCircle
 10
-550.054056
 20
-85.559846
 30
0.0
 40
1.0
100
AcDbArc
 50
3.0
 51
55.966232
  0
LINE
  5
35B
100
AcDbEntity
  8
0
370
    -3
  6
Continuous
100
AcDbLine
 10
-548.751642
 20
-91.304064
 30
0.0
 11
-549.055427
 21
-85.50751
 31
0.0
  0
ARC
  5
35C
100
AcDbEntity
  8
0
370
    -3
  6
Continuous
100
AcDbCircle
 10
-547.753013
 20
-91.251728
 30
0.0
 40
1.0
100
AcDbArc
 50
183.0
 51
357.0
  0
ARC
  5
35D
100
AcDbEntity
  8
0
370
    -3
  6
Continuous
100
AcDbCircle
 10
-550.971254
 20
-84.92782
 30
0.0
 40
1.0
100
AcDbArc
 50
54.89361
 51
177.0
  0
ARC
  5
35E
100
AcDbEntity
  8
0
370
    -3
  6
Continuous
100
AcDbCircle
 10
-516.753013
 20
-36.251728
 30
0.0
 40
58.5
100
AcDbArc
 50
234.89361
 51
235.966232
  0
ARC
  5
35F
100
AcDbEntity
  8
0
370
    -3
  6
Continuous
100
AcDbCircle
 10
-516.753013
 20
-36.251728
 30
0.0
 40
58.5
100
AcDbArc
 50
207.720791
 51
208.995666
  0
ARC
  5
360
100
AcDbEntity
  8
0
370
    -3
  6
Continuous
100
AcDbCircle
 10
-516.753013
 20
-36.251728
 30
0.0
 40
58.5
100
AcDbArc
 50
214.033768
 51
215.10639
  0
LINE
  5
361
100
AcDbEntity
  8
0
370
    -3
  6
Continuous
100
AcDbLine
 10
-544.698864
 20
-72.539182
 30
0.0
 11
-560.344172
 21
-86.626281
 31
0.0
  0
LINE
  5
362
100
AcDbEntity
  8
0
370
    -3
  6
Continuous
100
AcDbLine
 10
-553.040468
 20
-64.197579
 30
0.0
 11
-567.127566
 21
-79.842887
 31
0.0
  0
ARC
  5
363
100
AcDbEntity
  8
0
370
    -3
  6
Continuous
100
AcDbCircle
 10
-531.253013
 20
-93.368758
 30
0.0
 40
0.5
100
AcDbArc
 50
180.0
 51
263.030619
  0
ARC
  5
364
100
AcDbEntity
  8
0
370
    -3
  6
Continuous
100
AcDbCircle
 10
-516.753013
 20
25.248272
 30
0.0
 40
120.0
100
AcDbArc
 50
263.030619
 51
270.0
  0
ARC
  5
365
100
AcDbEntity
  8
0
370
    -3
  6
Continuous
100
AcDbCircle
 10
-462.059843
 20
-59.680495
 30
0.0
 40
1.0
100
AcDbArc
 50
156.81129
 51
267.0
  0
LINE
  5
366
100
AcDbEntity
  8
0
370
    -3
  6
Continuous
100
AcDbLine
 10
-460.700677
 20
-60.753098
 30
0.0
 11
-462.112178
 21
-60.679124
 31
0.0
  0
ARC
  5
367
100
AcDbEntity
  8
0
370
    -3
  6
Continuous
100
AcDbCircle
 10
-457.953013
 20
-55.551728
 30
0.0
 40
0.7
100
AcDbArc
 50
270.0
 51
0.0
  0
LINE
  5
368
100
AcDbEntity
  8
0
370
    -3
  6
Continuous
100
AcDbLine
 10
-461.082105
 20
-56.251728
 30
0.0
 11
-457.953013
 21
-56.251728
 31
0.0
  0
ARC
  5
369
100
AcDbEntity
  8
0
370
    -3
  6
Continuous
100
AcDbCircle
 10
-461.082105
 20
-57.251728
 30
0.0
 40
1.0
100
AcDbArc
 50
90.0
 51
159.332684
  0
LINE
  5
36A
100
AcDbEntity
  8
0
370
    -3
  6
Continuous
100
AcDbLine
 10
-457.253013
 20
-55.551728
 30
0.0
 11
-457.253013
 21
-36.251728
 31
0.0
  0
ARC
  5
36B
100
AcDbEntity
  8
0
370
    -3
  6
Continuous
100
AcDbCircle
 10
-516.753013
 20
-36.251728
 30
0.0
 40
58.5
100
AcDbArc
 50
336.81129
 51
339.332684
  0
ARC
  5
36C
100
AcDbEntity
  8
0
370
    -3
  6
Continuous
100
AcDbCircle
 10
-467.444895
 20
-69.552771
 30
0.0
 40
1.0
100
AcDbArc
 50
93.0
 51
145.966232
  0
ARC
  5
36D
100
AcDbEntity
  8
0
370
    -3
  6
Continuous
100
AcDbCircle
 10
-464.710958
 20
-65.093964
 30
0.0
 40
1.0
100
AcDbArc
 50
151.004334
 51
267.0
  0
ARC
  5
36E
100
AcDbEntity
  8
0
370
    -3
  6
Continuous
100
AcDbCircle
 10
-464.082132
 20
-63.928944
 30
0.0
 40
1.0
100
AcDbArc
 50
93.0
 51
152.279209
  0
ARC
  5
36F
100
AcDbEntity
  8
0
370
    -3
  6
Continuous
100
AcDbCircle
 10
-462.753013
 20
-72.751728
 30
0.0
 40
1.0
100
AcDbArc
 50
273.0
 51
87.0
  0
LINE
  5
370
100
AcDbEntity
  8
0
370
    -3
  6
Continuous
100
AcDbLine
 10
-462.700677
 20
-71.753098
 30
0.0
 11
-468.129256
 21
-71.468598
 31
0.0
  0
ARC
  5
371
100
AcDbEntity
  8
0
370
    -3
  6
Continuous
100
AcDbCircle
 10
-468.07692
 20
-70.469969
 30
0.0
 40
1.0
100
AcDbArc
 50
144.89361
 51
267.0
  0
LINE
  5
372
100
AcDbEntity
  8
0
370
    -3
  6
Continuous
100
AcDbLine
 10
-462.700677
 20
-73.750357
 30
0.0
 11
-465.170262
 21
-73.879783
 31
0.0
  0
ARC
  5
373
100
AcDbEntity
  8
0
370
    -3
  6
Continuous
100
AcDbCircle
 10
-461.753013
 20
-67.251728
 30
0.0
 40
1.0
100
AcDbArc
 50
273.0
 51
87.0
  0
ARC
  5
374
100
AcDbEntity
  8
0
370
    -3
  6
Continuous
100
AcDbCircle
 10
-460.753013
 20
-61.751728
 30
0.0
 40
1.0
100
AcDbArc
 50
273.0
 51
87.0
  0
LINE
  5
375
100
AcDbEntity
  8
0
370
    -3
  6
Continuous
100
AcDbLine
 10
-460.700677
 20
-62.750357
 30
0.0
 11
-464.134468
 21
-62.930314
 31
0.0
  0
LINE
  5
376
100
AcDbEntity
  8
0
370
    -3
  6
Continuous
100
AcDbLine
 10
-461.700677
 20
-68.250357
 30
0.0
 11
-467.497231
 21
-68.554142
 31
0.0
  0
LINE
  5
377
100
AcDbEntity
  8
0
370
    -3
  6
Continuous
100
AcDbLine
 10
-461.700677
 20
-66.253098
 30
0.0
 11
-464.763294
 21
-66.092593
 31
0.0
  0
ARC
  5
378
100
AcDbEntity
  8
0
370
    -3
  6
Continuous
100
AcDbCircle
 10
-472.492723
 20
-85.883136
 30
0.0
 40
1.0
100
AcDbArc
 50
228.0
 51
311.725937
  0
ARC
  5
379
100
AcDbEntity
  8
0
370
    -3
  6
Continuous
100
AcDbCircle
 10
-516.753013
 20
-36.251728
 30
0.0
 40
67.5
100
AcDbArc
 50
311.725937
 51
318.274063
  0
ARC
  5
37A
100
AcDbEntity
  8
0
370
    -3
  6
Continuous
100
AcDbCircle
 10
-467.121604
 20
-80.512018
 30
0.0
 40
1.0
100
AcDbArc
 50
318.274063
 51
42.0
  0
LINE
  5
37B
100
AcDbEntity
  8
0
370
    -3
  6
Continuous
100
AcDbLine
 10
-481.251642
 20
-90.304064
 30
0.0
 11
-481.536142
 21
-84.875484
 31
0.0
  0
LINE
  5
37C
100
AcDbEntity
  8
0
370
    -3
  6
Continuous
100
AcDbLine
 10
-479.254383
 20
-90.304064
 30
0.0
 11
-479.124958
 21
-87.834478
 31
0.0
  0
ARC
  5
37D
100
AcDbEntity
  8
0
370
    -3
  6
Continuous
100
AcDbCircle
 10
-480.253013
 20
-90.251728
 30
0.0
 40
1.0
100
AcDbArc
 50
183.0
 51
357.0
  0
LINE
  5
37E
100
AcDbEntity
  8
0
370
    -3
  6
Continuous
100
AcDbLine
 10
-501.753013
 20
-93.179313
 30
0.0
 11
-501.753013
 21
-93.368758
 31
0.0
  0
ARC
  5
37F
100
AcDbEntity
  8
0
370
    -3
  6
Continuous
100
AcDbCircle
 10
-501.253013
 20
-93.179313
 30
0.0
 40
0.5
100
AcDbArc
 50
105.231036
 51
180.0
  0
ARC
  5
380
100
AcDbEntity
  8
0
370
    -3
  6
Continuous
100
AcDbCircle
 10
-516.753013
 20
-36.251728
 30
0.0
 40
58.5
100
AcDbArc
 50
285.231036
 51
287.620097
  0
ARC
  5
381
100
AcDbEntity
  8
0
370
    -3
  6
Continuous
100
AcDbCircle
 10
-498.742112
 20
-92.960258
 30
0.0
 40
1.0
100
AcDbArc
 50
5.98484
 51
107.620097
  0
ARC
  5
382
100
AcDbEntity
  8
0
370
    -3
  6
Continuous
100
AcDbCircle
 10
-496.753013
 20
-92.751728
 30
0.0
 40
1.0
100
AcDbArc
 50
185.98484
 51
357.0
  0
ARC
  5
383
100
AcDbEntity
  8
0
370
    -3
  6
Continuous
100
AcDbCircle
 10
-494.685088
 20
-91.508009
 30
0.0
 40
1.0
100
AcDbArc
 50
111.770485
 51
177.0
  0
LINE
  5
384
100
AcDbEntity
  8
0
370
    -3
  6
Continuous
100
AcDbLine
 10
-495.754383
 20
-92.804064
 30
0.0
 11
-495.683717
 21
-91.455673
 31
0.0
  0
ARC
  5
385
100
AcDbEntity
  8
0
370
    -3
  6
Continuous
100
AcDbCircle
 10
-516.753013
 20
-36.251728
 30
0.0
 40
58.5
100
AcDbArc
 50
291.770485
 51
293.18871
  0
ARC
  5
386
100
AcDbEntity
  8
0
370
    -3
  6
Continuous
100
AcDbCircle
 10
-489.075796
 20
-88.922608
 30
0.0
 40
1.0
100
AcDbArc
 50
117.720791
 51
177.0
  0
LINE
  5
387
100
AcDbEntity
  8
0
370
    -3
  6
Continuous
100
AcDbLine
 10
-490.254383
 20
-92.304064
 30
0.0
 11
-490.074426
 21
-88.870272
 31
0.0
  0
ARC
  5
388
100
AcDbEntity
  8
0
370
    -3
  6
Continuous
100
AcDbCircle
 10
-493.324245
 20
-90.944898
 30
0.0
 40
1.0
100
AcDbArc
 50
3.0
 51
113.18871
  0
LINE
  5
389
100
AcDbEntity
  8
0
370
    -3
  6
Continuous
100
AcDbLine
 10
-492.251642
 20
-92.304064
 30
0.0
 11
-492.325616
 21
-90.892562
 31
0.0
  0
ARC
  5
38A
100
AcDbEntity
  8
0
370
    -3
  6
Continuous
100
AcDbCircle
 10
-491.253013
 20
-92.251728
 30
0.0
 40
1.0
100
AcDbArc
 50
183.0
 51
357.0
  0
ARC
  5
38B
100
AcDbEntity
  8
0
370
    -3
  6
Continuous
100
AcDbCircle
 10
-516.753013
 20
-36.251728
 30
0.0
 40
58.5
100
AcDbArc
 50
297.720791
 51
298.995666
  0
ARC
  5
38C
100
AcDbEntity
  8
0
370
    -3
  6
Continuous
100
AcDbCircle
 10
-487.910777
 20
-88.293782
 30
0.0
 40
1.0
100
AcDbArc
 50
3.0
 51
118.995666
  0
LINE
  5
38D
100
AcDbEntity
  8
0
370
    -3
  6
Continuous
100
AcDbLine
 10
-486.751642
 20
-91.304064
 30
0.0
 11
-486.912147
 21
-88.241446
 31
0.0
  0
ARC
  5
38E
100
AcDbEntity
  8
0
370
    -3
  6
Continuous
100
AcDbCircle
 10
-483.451969
 20
-85.559846
 30
0.0
 40
1.0
100
AcDbArc
 50
124.033768
 51
177.0
  0
LINE
  5
38F
100
AcDbEntity
  8
0
370
    -3
  6
Continuous
100
AcDbLine
 10
-484.754383
 20
-91.304064
 30
0.0
 11
-484.450599
 21
-85.50751
 31
0.0
  0
ARC
  5
390
100
AcDbEntity
  8
0
370
    -3
  6
Continuous
100
AcDbCircle
 10
-485.753013
 20
-91.251728
 30
0.0
 40
1.0
100
AcDbArc
 50
183.0
 51
357.0
  0
ARC
  5
391
100
AcDbEntity
  8
0
370
    -3
  6
Continuous
100
AcDbCircle
 10
-482.534772
 20
-84.92782
 30
0.0
 40
1.0
100
AcDbArc
 50
3.0
 51
125.10639
  0
ARC
  5
392
100
AcDbEntity
  8
0
370
    -3
  6
Continuous
100
AcDbCircle
 10
-516.753013
 20
-36.251728
 30
0.0
 40
58.5
100
AcDbArc
 50
304.033768
 51
305.10639
  0
ARC
  5
393
100
AcDbEntity
  8
0
370
    -3
  6
Continuous
100
AcDbCircle
 10
-516.753013
 20
-36.251728
 30
0.0
 40
58.5
100
AcDbArc
 50
331.004334
 51
332.279209
  0
ARC
  5
394
100
AcDbEntity
  8
0
370
    -3
  6
Continuous
100
AcDbCircle
 10
-516.753013
 20
-36.251728
 30
0.0
 40
58.5
100
AcDbArc
 50
324.89361
 51
325.966232
  0
LINE
  5
395
100
AcDbEntity
  8
0
370
    -3
  6
Continuous
100
AcDbLine
 10
-488.807161
 20
-72.539182
 30
0.0
 11
-473.161853
 21
-86.626281
 31
0.0
  0
LINE
  5
396
100
AcDbEntity
  8
0
370
    -3
  6
Continuous
100
AcDbLine
 10
-480.465558
 20
-64.197579
 30
0.0
 11
-466.378459
 21
-79.842887
 31
0.0
  0
ARC
  5
397
100
AcDbEntity
  8
0
370
    -3
  6
Continuous
100
AcDbCircle
 10
-502.253013
 20
-93.368758
 30
0.0
 40
0.5
100
AcDbArc
 50
276.969381
 51
0.0
  0
ARC
  5
398
100
AcDbEntity
  8
0
370
    -3
  6
Continuous
100
AcDbCircle
 10
-516.753013
 20
25.248272
 30
0.0
 40
120.0
100
AcDbArc
 50
270.0
 51
276.969381
  0
ARC
  5
399
100
AcDbEntity
  8
0
370
    -3
  6
Continuous
100
AcDbCircle
 10
-516.753013
 20
-97.751728
 30
0.0
 40
120.0
100
AcDbArc
 50
83.030619
 51
90.0
  0
ARC
  5
39A
100
AcDbEntity
  8
0
370
    -3
  6
Continuous
100
AcDbCircle
 10
-502.253013
 20
20.865303
 30
0.0
 40
0.5
100
AcDbArc
 50
0.0
 51
83.030619
  0
ARC
  5
39B
100
AcDbEntity
  8
0
370
    -3
  6
Continuous
100
AcDbCircle
 10
-516.753013
 20
-36.251728
 30
0.0
 40
58.5
100
AcDbArc
 50
34.033768
 51
35.10639
  0
ARC
  5
39C
100
AcDbEntity
  8
0
370
    -3
  6
Continuous
100
AcDbCircle
 10
-516.753013
 20
-36.251728
 30
0.0
 40
58.5
100
AcDbArc
 50
27.720791
 51
28.995666
  0
LINE
  5
39D
100
AcDbEntity
  8
0
370
    -3
  6
Continuous
100
AcDbLine
 10
-501.753013
 20
20.675858
 30
0.0
 11
-501.753013
 21
20.865303
 31
0.0
  0
ARC
  5
39E
100
AcDbEntity
  8
0
370
    -3
  6
Continuous
100
AcDbCircle
 10
-501.253013
 20
20.675858
 30
0.0
 40
0.5
100
AcDbArc
 50
180.0
 51
254.768964
  0
ARC
  5
39F
100
AcDbEntity
  8
0
370
    -3
  6
Continuous
100
AcDbCircle
 10
-516.753013
 20
-36.251728
 30
0.0
 40
58.5
100
AcDbArc
 50
72.379903
 51
74.768964
  0
ARC
  5
3A0
100
AcDbEntity
  8
0
370
    -3
  6
Continuous
100
AcDbCircle
 10
-498.742112
 20
20.456803
 30
0.0
 40
1.0
100
AcDbArc
 50
252.379903
 51
354.01516
  0
ARC
  5
3A1
100
AcDbEntity
  8
0
370
    -3
  6
Continuous
100
AcDbCircle
 10
-496.753013
 20
20.248272
 30
0.0
 40
1.0
100
AcDbArc
 50
3.0
 51
174.01516
  0
ARC
  5
3A2
100
AcDbEntity
  8
0
370
    -3
  6
Continuous
100
AcDbCircle
 10
-494.685088
 20
19.004554
 30
0.0
 40
1.0
100
AcDbArc
 50
183.0
 51
248.229515
  0
LINE
  5
3A3
100
AcDbEntity
  8
0
370
    -3
  6
Continuous
100
AcDbLine
 10
-495.754383
 20
20.300608
 30
0.0
 11
-495.683717
 21
18.952218
 31
0.0
  0
ARC
  5
3A4
100
AcDbEntity
  8
0
370
    -3
  6
Continuous
100
AcDbCircle
 10
-516.753013
 20
-36.251728
 30
0.0
 40
58.5
100
AcDbArc
 50
66.81129
 51
68.229515
  0
ARC
  5
3A5
100
AcDbEntity
  8
0
370
    -3
  6
Continuous
100
AcDbCircle
 10
-489.075796
 20
16.419153
 30
0.0
 40
1.0
100
AcDbArc
 50
183.0
 51
242.279209
  0
LINE
  5
3A6
100
AcDbEntity
  8
0
370
    -3
  6
Continuous
100
AcDbLine
 10
-490.254383
 20
19.800608
 30
0.0
 11
-490.074426
 21
16.366817
 31
0.0
  0
ARC
  5
3A7
100
AcDbEntity
  8
0
370
    -3
  6
Continuous
100
AcDbCircle
 10
-493.324245
 20
18.441443
 30
0.0
 40
1.0
100
AcDbArc
 50
246.81129
 51
357.0
  0
LINE
  5
3A8
100
AcDbEntity
  8
0
370
    -3
  6
Continuous
100
AcDbLine
 10
-492.251642
 20
19.800608
 30
0.0
 11
-492.325616
 21
18.389107
 31
0.0
  0
ARC
  5
3A9
100
AcDbEntity
  8
0
370
    -3
  6
Continuous
100
AcDbCircle
 10
-491.253013
 20
19.748272
 30
0.0
 40
1.0
100
AcDbArc
 50
3.0
 51
177.0
  0
ARC
  5
3AA
100
AcDbEntity
  8
0
370
    -3
  6
Continuous
100
AcDbCircle
 10
-516.753013
 20
-36.251728
 30
0.0
 40
58.5
100
AcDbArc
 50
61.004334
 51
62.279209
  0
ARC
  5
3AB
100
AcDbEntity
  8
0
370
    -3
  6
Continuous
100
AcDbCircle
 10
-487.910777
 20
15.790327
 30
0.0
 40
1.0
100
AcDbArc
 50
241.004334
 51
357.0
  0
LINE
  5
3AC
100
AcDbEntity
  8
0
370
    -3
  6
Continuous
100
AcDbLine
 10
-486.751642
 20
18.800608
 30
0.0
 11
-486.912147
 21
15.737991
 31
0.0
  0
ARC
  5
3AD
100
AcDbEntity
  8
0
370
    -3
  6
Continuous
100
AcDbCircle
 10
-483.451969
 20
13.05639
 30
0.0
 40
1.0
100
AcDbArc
 50
183.0
 51
235.966232
  0
LINE
  5
3AE
100
AcDbEntity
  8
0
370
    -3
  6
Continuous
100
AcDbLine
 10
-484.754383
 20
18.800608
 30
0.0
 11
-484.450599
 21
13.004054
 31
0.0
  0
ARC
  5
3AF
100
AcDbEntity
  8
0
370
    -3
  6
Continuous
100
AcDbCircle
 10
-485.753013
 20
18.748272
 30
0.0
 40
1.0
100
AcDbArc
 50
3.0
 51
177.0
  0
ARC
  5
3B0
100
AcDbEntity
  8
0
370
    -3
  6
Continuous
100
AcDbCircle
 10
-482.534772
 20
12.424365
 30
0.0
 40
1.0
100
AcDbArc
 50
234.89361
 51
357.0
  0
ARC
  5
3B1
100
AcDbEntity
  8
0
370
    -3
  6
Continuous
100
AcDbCircle
 10
-516.753013
 20
-36.251728
 30
0.0
 40
58.5
100
AcDbArc
 50
54.89361
 51
55.966232
  0
LINE
  5
3B2
100
AcDbEntity
  8
0
370
    -3
  6
Continuous
100
AcDbLine
 10
-481.251642
 20
17.800608
 30
0.0
 11
-481.536142
 21
12.372029
 31
0.0
  0
LINE
  5
3B3
100
AcDbEntity
  8
0
370
    -3
  6
Continuous
100
AcDbLine
 10
-479.254383
 20
17.800608
 30
0.0
 11
-479.124958
 21
15.331023
 31
0.0
  0
ARC
  5
3B4
100
AcDbEntity
  8
0
370
    -3
  6
Continuous
100
AcDbCircle
 10
-480.253013
 20
17.748272
 30
0.0
 40
1.0
100
AcDbArc
 50
3.0
 51
177.0
  0
ARC
  5
3B5
100
AcDbEntity
  8
0
370
    -3
  6
Continuous
100
AcDbCircle
 10
-467.121604
 20
8.008563
 30
0.0
 40
1.0
100
AcDbArc
 50
318.0
 51
41.725937
  0
LINE
  5
3B6
100
AcDbEntity
  8
0
370
    -3
  6
Continuous
100
AcDbLine
 10
-488.807161
 20
0.035727
 30
0.0
 11
-473.161853
 21
14.122826
 31
0.0
  0
ARC
  5
3B7
100
AcDbEntity
  8
0
370
    -3
  6
Continuous
100
AcDbCircle
 10
-472.492723
 20
13.379681
 30
0.0
 40
1.0
100
AcDbArc
 50
48.274063
 51
132.0
  0
ARC
  5
3B8
100
AcDbEntity
  8
0
370
    -3
  6
Continuous
100
AcDbCircle
 10
-516.753013
 20
-36.251728
 30
0.0
 40
67.5
100
AcDbArc
 50
41.725937
 51
48.274063
  0
LINE
  5
3B9
100
AcDbEntity
  8
0
370
    -3
  6
Continuous
100
AcDbLine
 10
-480.465558
 20
-8.305876
 30
0.0
 11
-466.378459
 21
7.339432
 31
0.0
  0
LINE
  5
3BA
100
AcDbEntity
  8
0
370
    -3
  6
Continuous
100
AcDbLine
 10
-457.253013
 20
-16.951728
 30
0.0
 11
-457.253013
 21
-36.251728
 31
0.0
  0
ARC
  5
3BB
100
AcDbEntity
  8
0
370
    -3
  6
Continuous
100
AcDbCircle
 10
-457.953013
 20
-16.951728
 30
0.0
 40
0.7
100
AcDbArc
 50
0.0
 51
90.0
  0
LINE
  5
3BC
100
AcDbEntity
  8
0
370
    -3
  6
Continuous
100
AcDbLine
 10
-461.082105
 20
-16.251728
 30
0.0
 11
-457.953013
 21
-16.251728
 31
0.0
  0
ARC
  5
3BD
100
AcDbEntity
  8
0
370
    -3
  6
Continuous
100
AcDbCircle
 10
-461.082105
 20
-15.251728
 30
0.0
 40
1.0
100
AcDbArc
 50
200.667316
 51
270.0
  0
ARC
  5
3BE
100
AcDbEntity
  8
0
370
    -3
  6
Continuous
100
AcDbCircle
 10
-461.753013
 20
-5.251728
 30
0.0
 40
1.0
100
AcDbArc
 50
273.0
 51
87.0
  0
ARC
  5
3BF
100
AcDbEntity
  8
0
370
    -3
  6
Continuous
100
AcDbCircle
 10
-460.753013
 20
-10.751728
 30
0.0
 40
1.0
100
AcDbArc
 50
273.0
 51
87.0
  0
ARC
  5
3C0
100
AcDbEntity
  8
0
370
    -3
  6
Continuous
100
AcDbCircle
 10
-462.059843
 20
-12.82296
 30
0.0
 40
1.0
100
AcDbArc
 50
93.0
 51
203.18871
  0
LINE
  5
3C1
100
AcDbEntity
  8
0
370
    -3
  6
Continuous
100
AcDbLine
 10
-460.700677
 20
-11.750357
 30
0.0
 11
-462.112178
 21
-11.824331
 31
0.0
  0
LINE
  5
3C2
100
AcDbEntity
  8
0
370
    -3
  6
Continuous
100
AcDbLine
 10
-460.700677
 20
-9.753098
 30
0.0
 11
-464.134468
 21
-9.573141
 31
0.0
  0
LINE
  5
3C3
100
AcDbEntity
  8
0
370
    -3
  6
Continuous
100
AcDbLine
 10
-461.700677
 20
-4.253098
 30
0.0
 11
-467.497231
 21
-3.949314
 31
0.0
  0
LINE
  5
3C4
100
AcDbEntity
  8
0
370
    -3
  6
Continuous
100
AcDbLine
 10
-461.700677
 20
-6.250357
 30
0.0
 11
-464.763294
 21
-6.410862
 31
0.0
  0
ARC
  5
3C5
100
AcDbEntity
  8
0
370
    -3
  6
Continuous
100
AcDbCircle
 10
-516.753013
 20
-36.251728
 30
0.0
 40
58.5
100
AcDbArc
 50
20.667316
 51
23.18871
  0
LINE
  5
3C6
100
AcDbEntity
  8
0
370
    -3
  6
Continuous
100
AcDbLine
 10
-462.700677
 20
1.246902
 30
0.0
 11
-465.170262
 21
1.376327
 31
0.0
  0
ARC
  5
3C7
100
AcDbEntity
  8
0
370
    -3
  6
Continuous
100
AcDbCircle
 10
-468.07692
 20
-2.033486
 30
0.0
 40
1.0
100
AcDbArc
 50
93.0
 51
215.10639
  0
LINE
  5
3C8
100
AcDbEntity
  8
0
370
    -3
  6
Continuous
100
AcDbLine
 10
-462.700677
 20
-0.750357
 30
0.0
 11
-468.129256
 21
-1.034857
 31
0.0
  0
ARC
  5
3C9
100
AcDbEntity
  8
0
370
    -3
  6
Continuous
100
AcDbCircle
 10
-462.753013
 20
0.248272
 30
0.0
 40
1.0
100
AcDbArc
 50
273.0
 51
87.0
  0
ARC
  5
3CA
100
AcDbEntity
  8
0
370
    -3
  6
Continuous
100
AcDbCircle
 10
-464.082132
 20
-8.574511
 30
0.0
 40
1.0
100
AcDbArc
 50
207.720791
 51
267.0
  0
ARC
  5
3CB
100
AcDbEntity
  8
0
370
    -3
  6
Continuous
100
AcDbCircle
 10
-464.710958
 20
-7.409492
 30
0.0
 40
1.0
100
AcDbArc
 50
93.0
 51
208.995666
  0
ARC
  5
3CC
100
AcDbEntity
  8
0
370
    -3
  6
Continuous
100
AcDbCircle
 10
-467.444895
 20
-2.950684
 30
0.0
 40
1.0
100
AcDbArc
 50
214.033768
 51
267.0
  0
MTEXT
  5
3CD
100
AcDbEntity
  8
0
370
    -3
  6
Continuous
100
AcDbMText
 10
-569.298401
 20
286.428101
 30
0.0
 40
15.0
 41
0.0
 71
     7
 72
     1
  1
\W0.63;三菱ギヤードモータ  
  7
ZU_SHPTB00001
 11
1.0
 21
0.0
 31
0.0
 73
     1
 44
1.0
  0
MTEXT
  5
3CE
100
AcDbEntity
  8
0
370
    -3
  6
Continuous
100
AcDbMText
 10
-569.298401
 20
286.428101
 30
0.0
 40
15.0
 41
0.0
 71
     7
 72
     1
  1
\W0.63;三菱ギヤードモータ  
  7
ZU_SHPTB00001
 11
1.0
 21
0.0
 31
0.0
 73
     1
 44
1.0
  0
MTEXT
  5
3CF
100
AcDbEntity
  8
0
370
    -3
  6
Continuous
100
AcDbMText
 10
-569.298401
 20
252.528061
 30
0.0
 40
15.0
 41
0.0
 71
     7
 72
     1
  1
\W0.43;0.75kW
  7
ZU_SHPTB00001
 11
1.0
 21
0.0
 31
0.0
 73
     1
 44
1.0
  0
MTEXT
  5
3D0
100
AcDbEntity
  8
0
370
    -3
  6
Continuous
100
AcDbMText
 10
-569.298401
 20
201.678055
 30
0.0
 40
15.0
 41
0.0
 71
     7
 72
     1
  1
\W0.43;SCALE\W0.72;  \W0.43;1/1
  7
ZU_SHPTB00001
 11
1.0
 21
0.0
 31
0.0
 73
     1
 44
1.0
  0
MTEXT
  5
3D1
100
AcDbEntity
  8
0
370
    -3
  6
Continuous
100
AcDbMText
 10
-569.298401
 20
269.478088
 30
0.0
 40
15.0
 41
0.0
 71
     7
 72
     1
  1
\W0.48;GV-S
  7
ZU_SHPTB00001
 11
1.0
 21
0.0
 31
0.0
 73
     1
 44
1.0
  0
MTEXT
  5
3D2
100
AcDbEntity
  8
0
370
    -3
  6
Continuous
100
AcDbMText
 10
-569.298401
 20
235.578079
 30
0.0
 40
15.0
 41
0.0
 71
     7
 72
     1
  1
\W0.43;50-30r/min\W0.53;　
  7
ZU_SHPTB00001
 11
1.0
 21
0.0
 31
0.0
 73
     1
 44
1.0
  0
MTEXT
  5
3D3
100
AcDbEntity
  8
0
370
    -3
  6
Continuous
100
AcDbMText
 10
-569.298401
 20
218.628067
 30
0.0
 40
15.0
 41
0.0
 71
     7
 72
     1
  1
\W0.42;GEAR\W0.70; \W0.42;RATIO\W0.70;  \W0.42;1/60-1/100
  7
ZU_SHPTB00001
 11
1.0
 21
0.0
 31
0.0
 73
     1
 44
1.0
  0
CIRCLE
  5
3D4
100
AcDbEntity
  8
0
370
    -3
  6
DASHED
100
AcDbCircle
 10
68.805433
 20
-36.251728
 30
0.0
 40
17.0
  0
LINE
  5
3D5
100
AcDbEntity
  8
0
370
    -3
  6
CENTER
100
AcDbLine
 10
50.160501
 20
-36.251728
 30
0.0
 11
90.10589
 21
-36.251728
 31
0.0
  0
LINE
  5
3D6
100
AcDbEntity
  8
0
370
    -3
  6
Continuous
100
AcDbLine
 10
51.134285
 20
-83.051728
 30
0.0
 11
83.305433
 21
-83.051728
 31
0.0
  0
LINE
  5
3D7
100
AcDbEntity
  8
0
370
    -3
  6
CENTER
100
AcDbLine
 10
68.805433
 20
-17.606795
 30
0.0
 11
68.805433
 21
-57.552184
 31
0.0
  0
LINE
  5
3D8
100
AcDbEntity
  8
0
370
    -3
  6
Continuous
100
AcDbLine
 10
43.334285
 20
1.247091
 30
0.0
 11
43.334285
 21
-73.750546
 31
0.0
  0
ARC
  5
3D9
100
AcDbEntity
  8
0
370
    -3
  6
Continuous
100
AcDbCircle
 10
51.134285
 20
2.748272
 30
0.0
 40
7.8
100
AcDbArc
 50
90.0
 51
151.87484
  0
ELLIPSE
  5
3DA
100
AcDbEntity
  8
0
370
    -3
  6
Continuous
100
AcDbEllipse
 10
45.219693
 20
3.248272
 30
0.0
 11
0.0
 21
3.5
 31
0.0
210
0.0
220
0.0
230
1.0
 40
0.656603
 41
0.0
 42
6.2831853071795862
  0
LINE
  5
3DB
100
AcDbEntity
  8
0
370
    -3
  6
Continuous
100
AcDbLine
 10
43.172413
 20
4.838289
 30
0.0
 11
43.68224
 21
3.248272
 31
0.0
  0
LINE
  5
3DC
100
AcDbEntity
  8
0
370
    -3
  6
Continuous
100
AcDbLine
 10
43.68224
 20
3.248272
 30
0.0
 11
44.731428
 21
5.248272
 31
0.0
  0
LINE
  5
3DD
100
AcDbEntity
  8
0
370
    -3
  6
Continuous
100
AcDbLine
 10
43.68224
 20
3.248272
 30
0.0
 11
44.731428
 21
1.248272
 31
0.0
  0
LINE
  5
3DE
100
AcDbEntity
  8
0
370
    -3
  6
Continuous
100
AcDbLine
 10
43.172413
 20
1.658256
 30
0.0
 11
43.68224
 21
3.248272
 31
0.0
  0
LINE
  5
3DF
100
AcDbEntity
  8
0
370
    -3
  6
Continuous
100
AcDbLine
 10
81.630675
 20
4.838289
 30
0.0
 11
82.140502
 21
3.248272
 31
0.0
  0
LINE
  5
3E0
100
AcDbEntity
  8
0
370
    -3
  6
Continuous
100
AcDbLine
 10
81.630675
 20
1.658256
 30
0.0
 11
82.140502
 21
3.248272
 31
0.0
  0
LINE
  5
3E1
100
AcDbEntity
  8
0
370
    -3
  6
Continuous
100
AcDbLine
 10
82.140502
 20
3.248272
 30
0.0
 11
83.18969
 21
1.248272
 31
0.0
  0
LINE
  5
3E2
100
AcDbEntity
  8
0
370
    -3
  6
Continuous
100
AcDbLine
 10
82.140502
 20
3.248272
 30
0.0
 11
83.18969
 21
5.248272
 31
0.0
  0
ELLIPSE
  5
3E3
100
AcDbEntity
  8
0
370
    -3
  6
Continuous
100
AcDbEllipse
 10
83.677955
 20
3.248272
 30
0.0
 11
0.0
 21
3.5
 31
0.0
210
0.0
220
0.0
230
1.0
 40
0.656603
 41
0.0
 42
6.2831853071795862
  0
ARC
  5
3E4
100
AcDbEntity
  8
0
370
    -3
  6
Continuous
100
AcDbCircle
 10
51.134285
 20
-75.251728
 30
0.0
 40
7.8
100
AcDbArc
 50
208.12516
 51
270.0
  0
ELLIPSE
  5
3E5
100
AcDbEntity
  8
0
370
    -3
  6
Continuous
100
AcDbEllipse
 10
45.219693
 20
-75.751728
 30
0.0
 11
0.0
 21
3.5
 31
0.0
210
0.0
220
0.0
230
1.0
 40
0.656603
 41
0.0
 42
6.2831853071795862
  0
LINE
  5
3E6
100
AcDbEntity
  8
0
370
    -3
  6
Continuous
100
AcDbLine
 10
43.172413
 20
-77.341744
 30
0.0
 11
43.68224
 21
-75.751728
 31
0.0
  0
LINE
  5
3E7
100
AcDbEntity
  8
0
370
    -3
  6
Continuous
100
AcDbLine
 10
43.68224
 20
-75.751728
 30
0.0
 11
44.731428
 21
-77.751728
 31
0.0
  0
LINE
  5
3E8
100
AcDbEntity
  8
0
370
    -3
  6
Continuous
100
AcDbLine
 10
43.68224
 20
-75.751728
 30
0.0
 11
44.731428
 21
-73.751728
 31
0.0
  0
LINE
  5
3E9
100
AcDbEntity
  8
0
370
    -3
  6
Continuous
100
AcDbLine
 10
43.172413
 20
-74.161711
 30
0.0
 11
43.68224
 21
-75.751728
 31
0.0
  0
LINE
  5
3EA
100
AcDbEntity
  8
0
370
    -3
  6
Continuous
100
AcDbLine
 10
81.630675
 20
-77.341744
 30
0.0
 11
82.140502
 21
-75.751728
 31
0.0
  0
LINE
  5
3EB
100
AcDbEntity
  8
0
370
    -3
  6
Continuous
100
AcDbLine
 10
81.630675
 20
-74.161711
 30
0.0
 11
82.140502
 21
-75.751728
 31
0.0
  0
LINE
  5
3EC
100
AcDbEntity
  8
0
370
    -3
  6
Continuous
100
AcDbLine
 10
82.140502
 20
-75.751728
 30
0.0
 11
83.18969
 21
-73.751728
 31
0.0
  0
LINE
  5
3ED
100
AcDbEntity
  8
0
370
    -3
  6
Continuous
100
AcDbLine
 10
82.140502
 20
-75.751728
 30
0.0
 11
83.18969
 21
-77.751728
 31
0.0
  0
ELLIPSE
  5
3EE
100
AcDbEntity
  8
0
370
    -3
  6
Continuous
100
AcDbEllipse
 10
83.677955
 20
-75.751728
 30
0.0
 11
0.0
 21
3.5
 31
0.0
210
0.0
220
0.0
230
1.0
 40
0.656603
 41
0.1628176711169038
 42
2.9787749824728893
  0
ARC
  5
3EF
100
AcDbEntity
  8
0
370
    -3
  6
Continuous
100
AcDbCircle
 10
76.498543
 20
-1.501728
 30
0.0
 40
3.8
100
AcDbArc
 50
23.227672
 51
90.0
  0
LINE
  5
3F0
100
AcDbEntity
  8
0
370
    -3
  6
Continuous
100
AcDbLine
 10
76.498543
 20
2.298272
 30
0.0
 11
51.987906
 21
2.298272
 31
0.0
  0
ARC
  5
3F1
100
AcDbEntity
  8
0
370
    -3
  6
Continuous
100
AcDbCircle
 10
80.444641
 20
-10.696397
 30
0.0
 40
3.8
100
AcDbArc
 50
11.293954
 51
23.227672
  0
LINE
  5
3F2
100
AcDbEntity
  8
0
370
    -3
  6
Continuous
100
AcDbLine
 10
79.990534
 20
-0.003062
 30
0.0
 11
83.936632
 21
-9.197732
 31
0.0
  0
LINE
  5
3F3
100
AcDbEntity
  8
0
370
    -3
  6
Continuous
100
AcDbLine
 10
79.990534
 20
-72.500394
 30
0.0
 11
83.305433
 21
-64.776459
 31
0.0
  0
ARC
  5
3F4
100
AcDbEntity
  8
0
370
    -3
  6
Continuous
100
AcDbCircle
 10
76.498543
 20
-71.001728
 30
0.0
 40
3.8
100
AcDbArc
 50
270.0
 51
336.772328
  0
LINE
  5
3F5
100
AcDbEntity
  8
0
370
    -3
  6
Continuous
100
AcDbLine
 10
76.498543
 20
-74.801728
 30
0.0
 11
51.987906
 21
-74.801728
 31
0.0
  0
ARC
  5
3F6
100
AcDbEntity
  8
0
370
    -3
  6
Continuous
100
AcDbCircle
 10
85.24991
 20
2.748272
 30
0.0
 40
7.8
100
AcDbArc
 50
50.039995
 51
90.0
  0
LINE
  5
3F7
100
AcDbEntity
  8
0
370
    -3
  6
Continuous
100
AcDbLine
 10
51.134285
 20
10.548272
 30
0.0
 11
85.24991
 21
10.548272
 31
0.0
  0
ARC
  5
3F8
100
AcDbEntity
  8
0
370
    -3
  6
Continuous
100
AcDbCircle
 10
79.993325
 20
-75.251728
 30
0.0
 40
7.8
100
AcDbArc
 50
270.0
 51
295.127201
  0
ARC
  5
3F9
100
AcDbEntity
  8
0
370
    -3
  6
Continuous
100
AcDbCircle
 10
79.993325
 20
2.748272
 30
0.0
 40
7.8
100
AcDbArc
 50
3.161547
 51
90.0
  0
ARC
  5
3FA
100
AcDbEntity
  8
0
370
    -3
  6
Continuous
100
AcDbCircle
 10
51.987906
 20
-4.501728
 30
0.0
 40
6.8
100
AcDbArc
 50
90.0
 51
180.0
  0
LINE
  5
3FB
100
AcDbEntity
  8
0
370
    -3
  6
Continuous
100
AcDbLine
 10
45.187906
 20
-4.501728
 30
0.0
 11
45.187906
 21
-68.001728
 31
0.0
  0
ARC
  5
3FC
100
AcDbEntity
  8
0
370
    -3
  6
Continuous
100
AcDbCircle
 10
51.987906
 20
-68.001728
 30
0.0
 40
6.8
100
AcDbArc
 50
180.0
 51
270.0
  0
LINE
  5
3FD
100
AcDbEntity
  8
0
370
    -3
  6
Continuous
100
AcDbLine
 10
-316.497974
 20
-36.251728
 30
0.0
 11
-316.497974
 21
-11.687265
 31
0.0
  0
LINE
  5
3FE
100
AcDbEntity
  8
0
370
    -3
  6
Continuous
100
AcDbLine
 10
-306.572081
 20
1.010781
 30
0.0
 11
-315.548816
 21
-9.174756
 31
0.0
  0
ARC
  5
3FF
100
AcDbEntity
  8
0
370
    -3
  6
Continuous
100
AcDbCircle
 10
-312.697974
 20
-11.687265
 30
0.0
 40
3.8
100
AcDbArc
 50
138.609573
 51
180.0
  0
POINT
  5
400
100
AcDbEntity
  8
0
370
    -3
  6
CENTER
100
AcDbPoint
 10
-347.165715
 20
-23.031228
 30
0.0
  0
LINE
  5
401
100
AcDbEntity
  8
0
370
    -3
  6
Continuous
100
AcDbLine
 10
-347.165715
 20
-36.251728
 30
0.0
 11
-347.165715
 21
-21.251728
 31
0.0
  0
ARC
  5
402
100
AcDbEntity
  8
0
370
    -3
  6
Continuous
100
AcDbCircle
 10
-345.165715
 20
-21.251728
 30
0.0
 40
2.0
100
AcDbArc
 50
90.0
 51
180.0
  0
LINE
  5
403
100
AcDbEntity
  8
0
370
    -3
  6
Continuous
100
AcDbLine
 10
-345.165715
 20
-19.251728
 30
0.0
 11
-326.739775
 21
-19.251728
 31
0.0
  0
LINE
  5
404
100
AcDbEntity
  8
0
370
    -3
  6
Continuous
100
AcDbLine
 10
-324.288589
 20
-36.251728
 30
0.0
 11
-324.288589
 21
2.748272
 31
0.0
  0
LINE
  5
405
100
AcDbEntity
  8
0
370
    -3
  6
Continuous
100
AcDbLine
 10
-326.739775
 20
-36.251728
 30
0.0
 11
-326.739775
 21
2.748272
 31
0.0
  0
POINT
  5
406
100
AcDbEntity
  8
0
370
    -3
  6
CENTER
100
AcDbPoint
 10
-347.165715
 20
-49.472228
 30
0.0
  0
LINE
  5
407
100
AcDbEntity
  8
0
370
    -3
  6
Continuous
100
AcDbLine
 10
-347.165715
 20
-36.251728
 30
0.0
 11
-347.165715
 21
-51.251728
 31
0.0
  0
ARC
  5
408
100
AcDbEntity
  8
0
370
    -3
  6
Continuous
100
AcDbCircle
 10
-345.165715
 20
-51.251728
 30
0.0
 40
2.0
100
AcDbArc
 50
180.0
 51
270.0
  0
LINE
  5
409
100
AcDbEntity
  8
0
370
    -3
  6
Continuous
100
AcDbLine
 10
-345.165715
 20
-53.251728
 30
0.0
 11
-326.739775
 21
-53.251728
 31
0.0
  0
LINE
  5
40A
100
AcDbEntity
  8
0
370
    -3
  6
Continuous
100
AcDbLine
 10
-316.497974
 20
-36.251728
 30
0.0
 11
-316.497974
 21
-60.81619
 31
0.0
  0
LINE
  5
40B
100
AcDbEntity
  8
0
370
    -3
  6
Continuous
100
AcDbLine
 10
-324.288589
 20
-36.251728
 30
0.0
 11
-324.288589
 21
-75.251728
 31
0.0
  0
LINE
  5
40C
100
AcDbEntity
  8
0
370
    -3
  6
Continuous
100
AcDbLine
 10
-326.739775
 20
-36.251728
 30
0.0
 11
-326.739775
 21
-75.251728
 31
0.0
  0
LINE
  5
40D
100
AcDbEntity
  8
0
370
    -3
  6
Continuous
100
AcDbLine
 10
-314.665715
 20
-77.695901
 30
0.0
 11
-314.165715
 21
-77.695901
 31
0.0
  0
LINE
  5
40E
100
AcDbEntity
  8
0
370
    -3
  6
Continuous
100
AcDbLine
 10
-303.721239
 20
-74.801728
 30
0.0
 11
-248.225183
 21
-74.801728
 31
0.0
  0
LINE
  5
40F
100
AcDbEntity
  8
0
370
    -3
  6
Continuous
100
AcDbLine
 10
-316.120581
 20
-75.751728
 30
0.0
 11
-318.0283
 21
-73.751728
 31
0.0
  0
LINE
  5
410
100
AcDbEntity
  8
0
370
    -3
  6
Continuous
100
AcDbLine
 10
-314.403069
 20
-77.751728
 30
0.0
 11
-316.120581
 21
-75.751728
 31
0.0
  0
LINE
  5
411
100
AcDbEntity
  8
0
370
    -3
  6
Continuous
100
AcDbLine
 10
-316.120581
 20
-75.751728
 30
0.0
 11
-314.403069
 21
-73.751728
 31
0.0
  0
LINE
  5
412
100
AcDbEntity
  8
0
370
    -3
  6
Continuous
100
AcDbLine
 10
-318.0283
 20
-77.751728
 30
0.0
 11
-316.120581
 21
-75.751728
 31
0.0
  0
ELLIPSE
  5
413
100
AcDbEntity
  8
0
370
    -3
  6
Continuous
100
AcDbEllipse
 10
-316.951611
 20
-75.751728
 30
0.0
 11
0.0000000000002274
 21
3.5
 31
0.0
210
0.0
220
0.0
230
1.0
 40
0.982815
 41
0.0
 42
6.2831853071795862
  0
ARC
  5
414
100
AcDbEntity
  8
0
370
    -3
  6
Continuous
100
AcDbCircle
 10
-312.697974
 20
-60.81619
 30
0.0
 40
3.8
100
AcDbArc
 50
180.0
 51
221.390427
  0
LINE
  5
415
100
AcDbEntity
  8
0
370
    -3
  6
Continuous
100
AcDbLine
 10
-306.572081
 20
-73.514236
 30
0.0
 11
-315.548816
 21
-63.328699
 31
0.0
  0
ARC
  5
416
100
AcDbEntity
  8
0
370
    -3
  6
Continuous
100
AcDbCircle
 10
-303.721239
 20
-71.001728
 30
0.0
 40
3.8
100
AcDbArc
 50
221.390427
 51
270.0
  0
ARC
  5
417
100
AcDbEntity
  8
0
370
    -3
  6
Continuous
100
AcDbCircle
 10
-316.488589
 20
-75.251728
 30
0.0
 40
7.8
100
AcDbArc
 50
180.0
 51
270.0
  0
ARC
  5
418
100
AcDbEntity
  8
0
370
    -3
  6
Continuous
100
AcDbCircle
 10
-318.939775
 20
-75.251728
 30
0.0
 40
7.8
100
AcDbArc
 50
180.0
 51
270.0
  0
LINE
  5
419
100
AcDbEntity
  8
0
370
    -3
  6
Continuous
100
AcDbLine
 10
-233.646572
 20
-75.751728
 30
0.0
 11
-235.554292
 21
-73.751728
 31
0.0
  0
LINE
  5
41A
100
AcDbEntity
  8
0
370
    -3
  6
Continuous
100
AcDbLine
 10
-231.929061
 20
-77.751728
 30
0.0
 11
-233.646572
 21
-75.751728
 31
0.0
  0
LINE
  5
41B
100
AcDbEntity
  8
0
370
    -3
  6
Continuous
100
AcDbLine
 10
-233.646572
 20
-75.751728
 30
0.0
 11
-231.929061
 21
-73.751728
 31
0.0
  0
LINE
  5
41C
100
AcDbEntity
  8
0
370
    -3
  6
Continuous
100
AcDbLine
 10
-235.554292
 20
-77.751728
 30
0.0
 11
-233.646572
 21
-75.751728
 31
0.0
  0
ELLIPSE
  5
41D
100
AcDbEntity
  8
0
370
    -3
  6
Continuous
100
AcDbEllipse
 10
-234.477603
 20
-75.751728
 30
0.0
 11
0.000000000000199
 21
3.5
 31
0.0
210
0.0
220
0.0
230
1.0
 40
0.982815
 41
0.0
 42
6.2831853071795862
  0
LINE
  5
41E
100
AcDbEntity
  8
0
370
    -3
  6
Continuous
100
AcDbLine
 10
-245.739762
 20
-36.251728
 30
0.0
 11
-245.739762
 21
-64.801728
 31
0.0
  0
ARC
  5
41F
100
AcDbEntity
  8
0
370
    -3
  6
Continuous
100
AcDbCircle
 10
-255.739762
 20
-64.801728
 30
0.0
 40
10.0
100
AcDbArc
 50
270.0
 51
360.0
  0
LINE
  5
420
100
AcDbEntity
  8
0
370
    -3
  6
Continuous
100
AcDbLine
 10
-235.286355
 20
-36.251728
 30
0.0
 11
-235.286355
 21
-60.798719
 31
0.0
  0
ARC
  5
421
100
AcDbEntity
  8
0
370
    -3
  6
Continuous
100
AcDbCircle
 10
-239.086355
 20
-60.798719
 30
0.0
 40
3.8
100
AcDbArc
 50
318.14922
 51
360.0
  0
LINE
  5
422
100
AcDbEntity
  8
0
370
    -3
  6
Continuous
100
AcDbLine
 10
-245.39462
 20
-73.537061
 30
0.0
 11
-236.255793
 21
-63.334052
 31
0.0
  0
ARC
  5
423
100
AcDbEntity
  8
0
370
    -3
  6
Continuous
100
AcDbCircle
 10
-248.225183
 20
-71.001728
 30
0.0
 40
3.8
100
AcDbArc
 50
270.0
 51
318.14922
  0
ARC
  5
424
100
AcDbEntity
  8
0
370
    -3
  6
Continuous
100
AcDbCircle
 10
-236.068246
 20
-75.251728
 30
0.0
 40
7.8
100
AcDbArc
 50
270.0
 51
360.0
  0
LINE
  5
425
100
AcDbEntity
  8
0
370
    -3
  6
Continuous
100
AcDbLine
 10
-236.068246
 20
-83.051728
 30
0.0
 11
-318.939775
 21
-83.051728
 31
0.0
  0
LINE
  5
426
100
AcDbEntity
  8
0
370
    -3
  6
Continuous
100
AcDbLine
 10
-228.268246
 20
-36.251728
 30
0.0
 11
-228.268246
 21
-75.251728
 31
0.0
  0
LINE
  5
427
100
AcDbEntity
  8
0
370
    -3
  6
Continuous
100
AcDbLine
 10
-245.739762
 20
-36.251728
 30
0.0
 11
-245.739762
 21
-7.701728
 31
0.0
  0
LINE
  5
428
100
AcDbEntity
  8
0
370
    -3
  6
Continuous
100
AcDbLine
 10
-235.286355
 20
-36.251728
 30
0.0
 11
-235.286355
 21
-11.704736
 31
0.0
  0
LINE
  5
429
100
AcDbEntity
  8
0
370
    -3
  6
Continuous
100
AcDbLine
 10
-228.268246
 20
-36.251728
 30
0.0
 11
-228.268246
 21
2.748272
 31
0.0
  0
LINE
  5
42A
100
AcDbEntity
  8
0
370
    -3
  6
Continuous
100
AcDbLine
 10
-233.646572
 20
3.248272
 30
0.0
 11
-235.554292
 21
1.248272
 31
0.0
  0
LINE
  5
42B
100
AcDbEntity
  8
0
370
    -3
  6
Continuous
100
AcDbLine
 10
-231.929061
 20
5.248272
 30
0.0
 11
-233.646572
 21
3.248272
 31
0.0
  0
LINE
  5
42C
100
AcDbEntity
  8
0
370
    -3
  6
Continuous
100
AcDbLine
 10
-233.646572
 20
3.248272
 30
0.0
 11
-231.929061
 21
1.248272
 31
0.0
  0
LINE
  5
42D
100
AcDbEntity
  8
0
370
    -3
  6
Continuous
100
AcDbLine
 10
-235.554292
 20
5.248272
 30
0.0
 11
-233.646572
 21
3.248272
 31
0.0
  0
ELLIPSE
  5
42E
100
AcDbEntity
  8
0
370
    -3
  6
Continuous
100
AcDbEllipse
 10
-234.477603
 20
3.248272
 30
0.0
 11
0.0
 21
3.5
 31
0.0
210
0.0
220
0.0
230
1.0
 40
0.982815
 41
0.0
 42
6.2831853071795862
  0
ARC
  5
42F
100
AcDbEntity
  8
0
370
    -3
  6
Continuous
100
AcDbCircle
 10
-255.739762
 20
-7.701728
 30
0.0
 40
10.0
100
AcDbArc
 50
0.0
 51
90.0
  0
LINE
  5
430
100
AcDbEntity
  8
0
370
    -3
  6
Continuous
100
AcDbLine
 10
-303.721239
 20
2.298272
 30
0.0
 11
-248.225183
 21
2.298272
 31
0.0
  0
ARC
  5
431
100
AcDbEntity
  8
0
370
    -3
  6
Continuous
100
AcDbCircle
 10
-239.086355
 20
-11.704736
 30
0.0
 40
3.8
100
AcDbArc
 50
0.0
 51
41.85078
  0
LINE
  5
432
100
AcDbEntity
  8
0
370
    -3
  6
Continuous
100
AcDbLine
 10
-245.39462
 20
1.033605
 30
0.0
 11
-236.255793
 21
-9.169403
 31
0.0
  0
ARC
  5
433
100
AcDbEntity
  8
0
370
    -3
  6
Continuous
100
AcDbCircle
 10
-248.225183
 20
-1.501728
 30
0.0
 40
3.8
100
AcDbArc
 50
41.85078
 51
90.0
  0
LINE
  5
434
100
AcDbEntity
  8
0
370
    -3
  6
Continuous
100
AcDbLine
 10
-236.068246
 20
10.548272
 30
0.0
 11
-318.939775
 21
10.548272
 31
0.0
  0
ARC
  5
435
100
AcDbEntity
  8
0
370
    -3
  6
Continuous
100
AcDbCircle
 10
-236.068246
 20
2.748272
 30
0.0
 40
7.8
100
AcDbArc
 50
0.0
 51
90.0
  0
LINE
  5
436
100
AcDbEntity
  8
0
370
    -3
  6
Continuous
100
AcDbLine
 10
-316.120581
 20
3.248272
 30
0.0
 11
-318.0283
 21
1.248272
 31
0.0
  0
LINE
  5
437
100
AcDbEntity
  8
0
370
    -3
  6
Continuous
100
AcDbLine
 10
-314.403069
 20
5.248272
 30
0.0
 11
-316.120581
 21
3.248272
 31
0.0
  0
LINE
  5
438
100
AcDbEntity
  8
0
370
    -3
  6
Continuous
100
AcDbLine
 10
-316.120581
 20
3.248272
 30
0.0
 11
-314.403069
 21
1.248272
 31
0.0
  0
LINE
  5
439
100
AcDbEntity
  8
0
370
    -3
  6
Continuous
100
AcDbLine
 10
-318.0283
 20
5.248272
 30
0.0
 11
-316.120581
 21
3.248272
 31
0.0
  0
ELLIPSE
  5
43A
100
AcDbEntity
  8
0
370
    -3
  6
Continuous
100
AcDbEllipse
 10
-316.951611
 20
3.248272
 30
0.0
 11
0.0
 21
3.5
 31
0.0
210
0.0
220
0.0
230
1.0
 40
0.982815
 41
0.0
 42
6.2831853071795862
  0
ARC
  5
43B
100
AcDbEntity
  8
0
370
    -3
  6
Continuous
100
AcDbCircle
 10
-303.721239
 20
-1.501728
 30
0.0
 40
3.8
100
AcDbArc
 50
90.0
 51
138.609573
  0
ARC
  5
43C
100
AcDbEntity
  8
0
370
    -3
  6
Continuous
100
AcDbCircle
 10
-316.488589
 20
2.748272
 30
0.0
 40
7.8
100
AcDbArc
 50
90.0
 51
180.0
  0
ARC
  5
43D
100
AcDbEntity
  8
0
370
    -3
  6
Continuous
100
AcDbCircle
 10
-318.939775
 20
2.748272
 30
0.0
 40
7.8
100
AcDbArc
 50
90.0
 51
180.0
  0
LINE
  5
43E
100
AcDbEntity
  8
0
370
    -3
  6
Continuous
100
AcDbLine
 10
-247.126136
 20
190.783215
 30
0.0
 11
-253.237223
 21
190.783215
 31
0.0
  0
ARC
  5
43F
100
AcDbEntity
  8
0
370
    -3
  6
Continuous
100
AcDbCircle
 10
-253.243354
 20
190.283215
 30
0.0
 40
0.5
100
AcDbArc
 50
90.0
 51
172.874984
  0
ARC
  5
440
100
AcDbEntity
  8
0
370
    -3
  6
Continuous
100
AcDbCircle
 10
-247.126136
 20
190.283215
 30
0.0
 40
0.5
100
AcDbArc
 50
7.125016
 51
90.0
  0
LINE
  5
441
100
AcDbEntity
  8
0
370
    -3
  6
Continuous
100
AcDbLine
 10
-240.560971
 20
184.783215
 30
0.0
 11
-240.640215
 21
181.757038
 31
0.0
  0
ARC
  5
442
100
AcDbEntity
  8
0
370
    -3
  6
Continuous
100
AcDbCircle
 10
-241.639872
 20
181.783215
 30
0.0
 40
1.0
100
AcDbArc
 50
270.0
 51
358.5
  0
LINE
  5
443
100
AcDbEntity
  8
0
370
    -3
  6
Continuous
100
AcDbLine
 10
-253.613029
 20
184.783215
 30
0.0
 11
-240.560971
 21
184.783215
 31
0.0
  0
LINE
  5
444
100
AcDbEntity
  8
0
370
    -3
  6
CENTER
100
AcDbLine
 10
-250.184745
 20
194.093101
 30
0.0
 11
-250.184745
 21
178.758575
 31
0.0
  0
LINE
  5
445
100
AcDbEntity
  8
0
370
    -3
  6
Continuous
100
AcDbLine
 10
-236.415715
 20
188.288627
 30
0.0
 11
-236.415715
 21
186.783215
 31
0.0
  0
ARC
  5
446
100
AcDbEntity
  8
0
370
    -3
  6
Continuous
100
AcDbCircle
 10
-254.626136
 20
187.283215
 30
0.0
 40
0.5
100
AcDbArc
 50
270.0
 51
352.874984
  0
LINE
  5
447
100
AcDbEntity
  8
0
370
    -3
  6
Continuous
100
AcDbLine
 10
-253.739493
 20
190.345232
 30
0.0
 11
-254.129997
 21
187.221197
 31
0.0
  0
ARC
  5
448
100
AcDbEntity
  8
0
370
    -3
  6
Continuous
100
AcDbCircle
 10
-245.743354
 20
187.283215
 30
0.0
 40
0.5
100
AcDbArc
 50
187.125016
 51
270.0
  0
LINE
  5
449
100
AcDbEntity
  8
0
370
    -3
  6
Continuous
100
AcDbLine
 10
-246.629997
 20
190.345232
 30
0.0
 11
-246.239493
 21
187.221197
 31
0.0
  0
ARC
  5
44A
100
AcDbEntity
  8
0
370
    -3
  6
Continuous
100
AcDbCircle
 10
-255.684745
 20
185.283215
 30
0.0
 40
0.5
100
AcDbArc
 50
270.0
 51
0.0
  0
LINE
  5
44B
100
AcDbEntity
  8
0
370
    -3
  6
Continuous
100
AcDbLine
 10
-255.184745
 20
186.283215
 30
0.0
 11
-255.184745
 21
185.283215
 31
0.0
  0
ARC
  5
44C
100
AcDbEntity
  8
0
370
    -3
  6
Continuous
100
AcDbCircle
 10
-254.684745
 20
186.283215
 30
0.0
 40
0.5
100
AcDbArc
 50
90.0
 51
180.0
  0
ARC
  5
44D
100
AcDbEntity
  8
0
370
    -3
  6
Continuous
100
AcDbCircle
 10
-244.684745
 20
185.283215
 30
0.0
 40
0.5
100
AcDbArc
 50
180.0
 51
270.0
  0
LINE
  5
44E
100
AcDbEntity
  8
0
370
    -3
  6
Continuous
100
AcDbLine
 10
-245.184745
 20
186.283215
 30
0.0
 11
-245.184745
 21
185.283215
 31
0.0
  0
ARC
  5
44F
100
AcDbEntity
  8
0
370
    -3
  6
Continuous
100
AcDbCircle
 10
-245.684745
 20
186.283215
 30
0.0
 40
0.5
100
AcDbArc
 50
0.0
 51
90.0
  0
LINE
  5
450
100
AcDbEntity
  8
0
370
    -3
  6
Continuous
100
AcDbLine
 10
-254.64856
 20
186.783215
 30
0.0
 11
-245.684745
 21
186.783215
 31
0.0
  0
POINT
  5
451
100
AcDbEntity
  8
0
370
    -3
  6
CENTER
100
AcDbPoint
 10
-347.165715
 20
167.003715
 30
0.0
  0
POINT
  5
452
100
AcDbEntity
  8
0
370
    -3
  6
CENTER
100
AcDbPoint
 10
-347.165715
 20
140.562715
 30
0.0
  0
LINE
  5
453
100
AcDbEntity
  8
0
370
    -3
  6
CENTER
100
AcDbLine
 10
-273.165715
 20
191.560632
 30
0.0
 11
-273.165715
 21
168.650655
 31
0.0
  0
ARC
  5
454
100
AcDbEntity
  8
0
370
    -3
  6
Continuous
100
AcDbCircle
 10
-245.165715
 20
178.783215
 30
0.0
 40
1.0
100
AcDbArc
 50
13.342364
 51
90.0
  0
LINE
  5
455
100
AcDbEntity
  8
0
370
    -3
  6
Continuous
100
AcDbLine
 10
-237.377827
 20
174.646745
 30
0.0
 11
-238.283592
 21
176.589164
 31
0.0
  0
LINE
  5
456
100
AcDbEntity
  8
0
370
    -3
  6
Continuous
100
AcDbLine
 10
-318.576431
 20
136.783215
 30
0.0
 11
-326.739775
 21
132.976585
 31
0.0
  0
LINE
  5
457
100
AcDbEntity
  8
0
370
    -3
  6
Continuous
100
AcDbLine
 10
-230.127365
 20
178.027691
 30
0.0
 11
-318.576431
 21
136.783215
 31
0.0
  0
LINE
  5
458
100
AcDbEntity
  8
0
370
    -3
  6
Continuous
100
AcDbLine
 10
-248.978567
 20
169.237232
 30
0.0
 11
-252.406829
 21
176.589164
 31
0.0
  0
ARC
  5
459
100
AcDbEntity
  8
0
370
    -3
  6
Continuous
100
AcDbCircle
 10
-255.850799
 20
174.983215
 30
0.0
 40
3.8
100
AcDbArc
 50
25.0
 51
90.0
  0
ARC
  5
45A
100
AcDbEntity
  8
0
370
    -3
  6
Continuous
100
AcDbCircle
 10
-529.991355
 20
229.468612
 30
0.0
 40
300.8
100
AcDbArc
 50
342.341575
 51
347.89975
  0
ARC
  5
45B
100
AcDbEntity
  8
0
370
    -3
  6
Continuous
100
AcDbCircle
 10
-278.748113
 20
730.965688
 30
0.0
 40
600.8
100
AcDbArc
 50
266.682408
 51
272.437505
  0
ARC
  5
45C
100
AcDbEntity
  8
0
370
    -3
  6
Continuous
100
AcDbCircle
 10
-242.765898
 20
150.0612
 30
0.0
 40
2.8
100
AcDbArc
 50
344.545811
 51
25.0
  0
ARC
  5
45D
100
AcDbEntity
  8
0
370
    -3
  6
Continuous
100
AcDbCircle
 10
-307.184319
 20
132.385718
 30
0.0
 40
3.0
100
AcDbArc
 50
25.0
 51
115.0
  0
LINE
  5
45E
100
AcDbEntity
  8
0
370
    -3
  6
Continuous
100
AcDbLine
 10
-304.465395
 20
133.653573
 30
0.0
 11
-303.790365
 21
132.205966
 31
0.0
  0
ARC
  5
45F
100
AcDbEntity
  8
0
370
    -3
  6
Continuous
100
AcDbCircle
 10
-301.252703
 20
133.389297
 30
0.0
 40
2.8
100
AcDbArc
 50
205.0
 51
267.843273
  0
LINE
  5
460
100
AcDbEntity
  8
0
370
    -3
  6
Continuous
100
AcDbLine
 10
-240.228236
 20
151.244531
 30
0.0
 11
-244.963663
 21
161.399686
 31
0.0
  0
ARC
  5
461
100
AcDbEntity
  8
0
370
    -3
  6
Continuous
100
AcDbCircle
 10
-242.24474
 20
162.667541
 30
0.0
 40
3.0
100
AcDbArc
 50
115.0
 51
205.0
  0
LINE
  5
462
100
AcDbEntity
  8
0
370
    -3
  6
Continuous
100
AcDbLine
 10
-229.307533
 20
172.010393
 30
0.0
 11
-322.657235
 21
128.480712
 31
0.0
  0
LINE
  5
463
100
AcDbEntity
  8
0
370
    -3
  6
CENTER
100
AcDbLine
 10
-349.644338
 20
153.783215
 30
0.0
 11
-309.337852
 21
153.783215
 31
0.0
  0
LINE
  5
464
100
AcDbEntity
  8
0
370
    -3
  6
Continuous
100
AcDbLine
 10
-242.165715
 20
180.783215
 30
0.0
 11
-242.165715
 21
179.783215
 31
0.0
  0
ARC
  5
465
100
AcDbEntity
  8
0
370
    -3
  6
Continuous
100
AcDbCircle
 10
-236.325504
 20
167.657625
 30
0.0
 40
1.299999
100
AcDbArc
 50
204.999999
 51
278.398469
  0
LINE
  5
466
100
AcDbEntity
  8
0
370
    -3
  6
Continuous
100
AcDbLine
 10
-237.917457
 20
167.99552
 30
0.0
 11
-237.503703
 21
167.108222
 31
0.0
  0
ARC
  5
467
100
AcDbEntity
  8
0
370
    -3
  6
Continuous
100
AcDbCircle
 10
-237.450136
 20
175.275053
 30
0.0
 40
9.0
100
AcDbArc
 50
278.398469
 51
311.601548
  0
ARC
  5
468
100
AcDbEntity
  8
0
370
    -3
  6
Continuous
100
AcDbCircle
 10
-232.337748
 20
169.517146
 30
0.0
 40
1.299999
100
AcDbArc
 50
311.601548
 51
25.000018
  0
LINE
  5
469
100
AcDbEntity
  8
0
370
    -3
  6
CENTER
100
AcDbLine
 10
-236.003054
 20
172.171775
 30
0.0
 11
-233.133133
 21
166.01721
 31
0.0
  0
LINE
  5
46A
100
AcDbEntity
  8
0
370
    -3
  6
Continuous
100
AcDbLine
 10
-231.573302
 20
170.953848
 30
0.0
 11
-231.159548
 21
170.06655
 31
0.0
  0
ARC
  5
46B
100
AcDbEntity
  8
0
370
    -3
  6
Continuous
100
AcDbCircle
 10
-318.799512
 20
129.199363
 30
0.0
 40
1.299999
100
AcDbArc
 50
204.999999
 51
278.398469
  0
ARC
  5
46C
100
AcDbEntity
  8
0
370
    -3
  6
Continuous
100
AcDbCircle
 10
-314.811757
 20
131.058884
 30
0.0
 40
1.299999
100
AcDbArc
 50
311.601548
 51
25.000018
  0
LINE
  5
46D
100
AcDbEntity
  8
0
370
    -3
  6
Continuous
100
AcDbLine
 10
-320.391466
 20
129.537258
 30
0.0
 11
-319.977712
 21
128.64996
 31
0.0
  0
LINE
  5
46E
100
AcDbEntity
  8
0
370
    -3
  6
Continuous
100
AcDbLine
 10
-314.047311
 20
132.495586
 30
0.0
 11
-313.633557
 21
131.608288
 31
0.0
  0
POINT
  5
46F
100
AcDbEntity
  8
0
370
    -3
  6
Continuous
100
AcDbPoint
 10
-317.219388
 20
131.016422
 30
0.0
  0
ARC
  5
470
100
AcDbEntity
  8
0
370
    -3
  6
Continuous
100
AcDbCircle
 10
-319.924145
 20
136.816792
 30
0.0
 40
9.0
100
AcDbArc
 50
278.398469
 51
311.601548
  0
ARC
  5
471
100
AcDbEntity
  8
0
370
    -3
  6
Continuous
100
AcDbCircle
 10
-253.65562
 20
141.499517
 30
0.0
 40
10.8
100
AcDbArc
 50
272.437505
 51
342.341575
  0
LINE
  5
472
100
AcDbEntity
  8
0
370
    -3
  6
CENTER
100
AcDbLine
 10
-318.477062
 20
133.713513
 30
0.0
 11
-315.607142
 21
127.558948
 31
0.0
  0
POINT
  5
473
100
AcDbEntity
  8
0
370
    -3
  6
Continuous
100
AcDbPoint
 10
-234.76909
 20
169.463628
 30
0.0
  0
LINE
  5
474
100
AcDbEntity
  8
0
370
    -3
  6
CENTER
100
AcDbLine
 10
-236.003054
 20
172.171775
 30
0.0
 11
-233.133133
 21
166.01721
 31
0.0
  0
ARC
  5
475
100
AcDbEntity
  8
0
370
    -3
  6
Continuous
100
AcDbCircle
 10
-230.068246
 20
173.641747
 30
0.0
 40
1.8
100
AcDbArc
 50
295.0
 51
25.0
  0
LINE
  5
476
100
AcDbEntity
  8
0
370
    -3
  6
Continuous
100
AcDbLine
 10
-228.436892
 20
174.40246
 30
0.0
 11
-230.127365
 21
178.027691
 31
0.0
  0
ARC
  5
477
100
AcDbEntity
  8
0
370
    -3
  6
Continuous
100
AcDbCircle
 10
-323.417948
 20
130.112066
 30
0.0
 40
1.8
100
AcDbArc
 50
205.0
 51
295.0
  0
LINE
  5
478
100
AcDbEntity
  8
0
370
    -3
  6
Continuous
100
AcDbLine
 10
-325.049302
 20
129.351354
 30
0.0
 11
-326.739775
 21
132.976585
 31
0.0
  0
ARC
  5
479
100
AcDbEntity
  8
0
370
    -3
  6
Continuous
100
AcDbCircle
 10
-241.727562
 20
174.983215
 30
0.0
 40
3.8
100
AcDbArc
 50
25.0
 51
90.0
  0
ARC
  5
47A
100
AcDbEntity
  8
0
370
    -3
  6
Continuous
100
AcDbCircle
 10
-243.900804
 20
179.083215
 30
0.0
 40
0.3
100
AcDbArc
 50
193.342364
 51
270.0
  0
LINE
  5
47B
100
AcDbEntity
  8
0
370
    -3
  6
Continuous
100
AcDbLine
 10
-273.165715
 20
180.783215
 30
0.0
 11
-242.165715
 21
180.783215
 31
0.0
  0
LINE
  5
47C
100
AcDbEntity
  8
0
370
    -3
  6
Continuous
100
AcDbLine
 10
-320.165715
 20
153.783215
 30
0.0
 11
-320.165715
 21
136.783215
 31
0.0
  0
LINE
  5
47D
100
AcDbEntity
  8
0
370
    -3
  6
Continuous
100
AcDbLine
 10
-347.165715
 20
153.783215
 30
0.0
 11
-347.165715
 21
168.783215
 31
0.0
  0
ARC
  5
47E
100
AcDbEntity
  8
0
370
    -3
  6
Continuous
100
AcDbCircle
 10
-345.165715
 20
168.783215
 30
0.0
 40
2.0
100
AcDbArc
 50
90.0
 51
180.0
  0
LINE
  5
47F
100
AcDbEntity
  8
0
370
    -3
  6
Continuous
100
AcDbLine
 10
-347.165715
 20
153.783215
 30
0.0
 11
-347.165715
 21
138.783215
 31
0.0
  0
ARC
  5
480
100
AcDbEntity
  8
0
370
    -3
  6
Continuous
100
AcDbCircle
 10
-345.165715
 20
138.783215
 30
0.0
 40
2.0
100
AcDbArc
 50
180.0
 51
270.0
  0
LINE
  5
481
100
AcDbEntity
  8
0
370
    -3
  6
Continuous
100
AcDbLine
 10
-345.165715
 20
136.783215
 30
0.0
 11
-318.576431
 21
136.783215
 31
0.0
  0
LINE
  5
482
100
AcDbEntity
  8
0
370
    -3
  6
CENTER
100
AcDbLine
 10
-349.644338
 20
153.783215
 30
0.0
 11
-309.337852
 21
153.783215
 31
0.0
  0
ARC
  5
483
100
AcDbEntity
  8
0
370
    -3
  6
Continuous
100
AcDbCircle
 10
-459.136863
 20
-62.291307
 30
0.0
 40
0.5
100
AcDbArc
 50
180.0
 51
262.874984
  0
LINE
  5
484
100
AcDbEntity
  8
0
370
    -3
  6
Continuous
100
AcDbLine
 10
-459.636863
 20
-62.291307
 30
0.0
 11
-459.636863
 21
-56.251728
 31
0.0
  0
LINE
  5
485
100
AcDbEntity
  8
0
370
    -3
  6
Continuous
100
AcDbLine
 10
-459.198881
 20
-62.787446
 30
0.0
 11
-456.074846
 21
-63.17795
 31
0.0
  0
ARC
  5
486
100
AcDbEntity
  8
0
370
    -3
  6
Continuous
100
AcDbCircle
 10
-459.136863
 20
-10.212148
 30
0.0
 40
0.5
100
AcDbArc
 50
97.125016
 51
180.0
  0
LINE
  5
487
100
AcDbEntity
  8
0
370
    -3
  6
Continuous
100
AcDbLine
 10
-459.636863
 20
-10.212148
 30
0.0
 11
-459.636863
 21
-16.251728
 31
0.0
  0
LINE
  5
488
100
AcDbEntity
  8
0
370
    -3
  6
Continuous
100
AcDbLine
 10
-459.198881
 20
-9.716009
 30
0.0
 11
-456.074846
 21
-9.325505
 31
0.0
  0
ARC
  5
489
100
AcDbEntity
  8
0
370
    -3
  6
Continuous
100
AcDbCircle
 10
-422.636863
 20
-36.251728
 30
0.0
 40
17.0
100
AcDbArc
 50
180.0
 51
0.0
  0
ARC
  5
48A
100
AcDbEntity
  8
0
370
    -3
  6
Continuous
100
AcDbCircle
 10
-422.636863
 20
-36.251728
 30
0.0
 40
12.0585
100
AcDbArc
 50
180.0
 51
0.0
  0
ARC
  5
48B
100
AcDbEntity
  8
0
370
    -3
  6
Continuous
100
AcDbCircle
 10
-422.636863
 20
-36.251728
 30
0.0
 40
13.2205
100
AcDbArc
 50
180.0
 51
0.0
  0
ARC
  5
48C
100
AcDbEntity
  8
0
370
    -3
  6
Continuous
100
AcDbCircle
 10
-422.636863
 20
-36.251728
 30
0.0
 40
17.0
100
AcDbArc
 50
360.0
 51
180.0
  0
ARC
  5
48D
100
AcDbEntity
  8
0
370
    -3
  6
Continuous
100
AcDbCircle
 10
-422.636863
 20
-36.251728
 30
0.0
 40
12.0585
100
AcDbArc
 50
360.0
 51
180.0
  0
ARC
  5
48E
100
AcDbEntity
  8
0
370
    -3
  6
Continuous
100
AcDbCircle
 10
-422.636863
 20
-36.251728
 30
0.0
 40
13.2205
100
AcDbArc
 50
360.0
 51
180.0
  0
LINE
  5
48F
100
AcDbEntity
  8
0
370
    -3
  6
Continuous
100
AcDbLine
 10
-440.836863
 20
-9.420357
 30
0.0
 11
-403.480267
 21
-9.420357
 31
0.0
  0
ARC
  5
490
100
AcDbEntity
  8
0
370
    -3
  6
Continuous
100
AcDbCircle
 10
-440.836863
 20
-16.220357
 30
0.0
 40
6.8
100
AcDbArc
 50
90.0
 51
180.0
  0
ARC
  5
491
100
AcDbEntity
  8
0
370
    -3
  6
Continuous
100
AcDbCircle
 10
-440.836863
 20
-56.283098
 30
0.0
 40
6.8
100
AcDbArc
 50
180.0
 51
270.0
  0
LINE
  5
492
100
AcDbEntity
  8
0
370
    -3
  6
Continuous
100
AcDbLine
 10
-440.836863
 20
-63.083098
 30
0.0
 11
-403.480267
 21
-63.083098
 31
0.0
  0
LINE
  5
493
100
AcDbEntity
  8
0
370
    -3
  6
Continuous
100
AcDbLine
 10
-401.830233
 20
-36.251728
 30
0.0
 11
-401.830233
 21
2.748272
 31
0.0
  0
LINE
  5
494
100
AcDbEntity
  8
0
370
    -3
  6
Continuous
100
AcDbLine
 10
-438.12675
 20
9.248272
 30
0.0
 11
-406.570252
 21
9.248272
 31
0.0
  0
LINE
  5
495
100
AcDbEntity
  8
0
370
    -3
  6
Continuous
100
AcDbLine
 10
-446.88134
 20
2.748272
 30
0.0
 11
-446.88134
 21
-0.636555
 31
0.0
  0
LINE
  5
496
100
AcDbEntity
  8
0
370
    -3
  6
Continuous
100
AcDbLine
 10
-446.543246
 20
-0.053457
 30
0.0
 11
-446.543246
 21
2.748272
 31
0.0
  0
ARC
  5
497
100
AcDbEntity
  8
0
370
    -3
  6
Continuous
100
AcDbCircle
 10
-447.636863
 20
-8.251728
 30
0.0
 40
1.0
100
AcDbArc
 50
103.342364
 51
180.0
  0
ARC
  5
498
100
AcDbEntity
  8
0
370
    -3
  6
Continuous
100
AcDbCircle
 10
-447.936863
 20
-6.986817
 30
0.0
 40
0.3
100
AcDbArc
 50
283.342364
 51
0.0
  0
ARC
  5
499
100
AcDbEntity
  8
0
370
    -3
  6
Continuous
100
AcDbCircle
 10
-438.12675
 20
3.248272
 30
0.0
 40
6.0
100
AcDbArc
 50
90.0
 51
180.0
  0
LINE
  5
49A
100
AcDbEntity
  8
0
370
    -3
  6
Continuous
100
AcDbLine
 10
-444.12675
 20
2.199461
 30
0.0
 11
-444.12675
 21
3.248272
 31
0.0
  0
ARC
  5
49B
100
AcDbEntity
  8
0
370
    -3
  6
Continuous
100
AcDbCircle
 10
-440.836863
 20
-3.751728
 30
0.0
 40
6.8
100
AcDbArc
 50
90.0
 51
180.0
  0
LINE
  5
49C
100
AcDbEntity
  8
0
370
    -3
  6
Continuous
100
AcDbLine
 10
-447.636863
 20
-36.251728
 30
0.0
 11
-447.636863
 21
-3.751728
 31
0.0
  0
ARC
  5
49D
100
AcDbEntity
  8
0
370
    -3
  6
Continuous
100
AcDbCircle
 10
-411.204005
 20
-0.751728
 30
0.0
 40
3.8
100
AcDbArc
 50
22.977375
 51
90.0
  0
ARC
  5
49E
100
AcDbEntity
  8
0
370
    -3
  6
Continuous
100
AcDbCircle
 10
-407.200952
 20
-10.192694
 30
0.0
 40
3.8
100
AcDbArc
 50
360.0
 51
22.977375
  0
LINE
  5
49F
100
AcDbEntity
  8
0
370
    -3
  6
Continuous
100
AcDbLine
 10
-403.702447
 20
-8.709297
 30
0.0
 11
-407.705501
 21
0.731669
 31
0.0
  0
LINE
  5
4A0
100
AcDbEntity
  8
0
370
    -3
  6
Continuous
100
AcDbLine
 10
-440.836863
 20
3.048272
 30
0.0
 11
-411.204005
 21
3.048272
 31
0.0
  0
LINE
  5
4A1
100
AcDbEntity
  8
0
370
    -3
  6
Continuous
100
AcDbLine
 10
-403.400952
 20
-36.251728
 30
0.0
 11
-403.400952
 21
-10.192694
 31
0.0
  0
LINE
  5
4A2
100
AcDbEntity
  8
0
370
    -3
  6
Continuous
100
AcDbLine
 10
-448.636863
 20
-36.251728
 30
0.0
 11
-448.636863
 21
-8.251728
 31
0.0
  0
ARC
  5
4A3
100
AcDbEntity
  8
0
370
    -3
  6
Continuous
100
AcDbCircle
 10
-439.543246
 20
2.748272
 30
0.0
 40
7.0
100
AcDbArc
 50
90.0
 51
180.0
  0
LINE
  5
4A4
100
AcDbEntity
  8
0
370
    -3
  6
Continuous
100
AcDbLine
 10
-449.636863
 20
-5.251728
 30
0.0
 11
-448.636863
 21
-5.251728
 31
0.0
  0
LINE
  5
4A5
100
AcDbEntity
  8
0
370
    -3
  6
Continuous
100
AcDbLine
 10
-448.636863
 20
-5.251728
 30
0.0
 11
-448.636863
 21
-36.251728
 31
0.0
  0
LINE
  5
4A6
100
AcDbEntity
  8
0
370
    -3
  6
Continuous
100
AcDbLine
 10
-449.636863
 20
-36.251728
 30
0.0
 11
-449.636863
 21
-5.251728
 31
0.0
  0
LINE
  5
4A7
100
AcDbEntity
  8
0
370
    -3
  6
Continuous
100
AcDbLine
 10
-397.165715
 20
2.748272
 30
0.0
 11
-397.165715
 21
-36.251728
 31
0.0
  0
LINE
  5
4A8
100
AcDbEntity
  8
0
370
    -3
  6
Continuous
100
AcDbLine
 10
-402.168328
 20
-36.251728
 30
0.0
 11
-402.168328
 21
2.748272
 31
0.0
  0
LINE
  5
4A9
100
AcDbEntity
  8
0
370
    -3
  6
Continuous
100
AcDbLine
 10
-404.965715
 20
10.548272
 30
0.0
 11
-439.08134
 21
10.548272
 31
0.0
  0
ELLIPSE
  5
4AA
100
AcDbEntity
  8
0
370
    -3
  6
Continuous
100
AcDbEllipse
 10
-399.051124
 20
3.248272
 30
0.0
 11
0.0
 21
3.5
 31
0.0
210
0.0
220
0.0
230
1.0
 40
0.656603
 41
4.1037320181008443
 42
5.8501343317260348
  0
ARC
  5
4AB
100
AcDbEntity
  8
0
370
    -3
  6
Continuous
100
AcDbCircle
 10
-404.965715
 20
2.748272
 30
0.0
 40
7.8
100
AcDbArc
 50
0.0
 51
90.0
  0
ARC
  5
4AC
100
AcDbEntity
  8
0
370
    -3
  6
Continuous
100
AcDbCircle
 10
-409.630233
 20
2.748272
 30
0.0
 40
7.8
100
AcDbArc
 50
0.0
 51
90.0
  0
ARC
  5
4AD
100
AcDbEntity
  8
0
370
    -3
  6
Continuous
100
AcDbCircle
 10
-409.168328
 20
2.748272
 30
0.0
 40
7.0
100
AcDbArc
 50
0.0
 51
90.0
  0
LINE
  5
4AE
100
AcDbEntity
  8
0
370
    -3
  6
Continuous
100
AcDbLine
 10
-409.168328
 20
9.748272
 30
0.0
 11
-439.543246
 21
9.748272
 31
0.0
  0
ARC
  5
4AF
100
AcDbEntity
  8
0
370
    -3
  6
Continuous
100
AcDbCircle
 10
-439.08134
 20
2.748272
 30
0.0
 40
7.8
100
AcDbArc
 50
90.0
 51
180.0
  0
LINE
  5
4B0
100
AcDbEntity
  8
0
370
    -3
  6
CENTER
100
AcDbLine
 10
-422.636863
 20
-17.606795
 30
0.0
 11
-422.636863
 21
-57.552184
 31
0.0
  0
LINE
  5
4B1
100
AcDbEntity
  8
0
370
    -3
  6
Continuous
100
AcDbLine
 10
-401.830233
 20
-36.251728
 30
0.0
 11
-401.830233
 21
-75.251728
 31
0.0
  0
LINE
  5
4B2
100
AcDbEntity
  8
0
370
    -3
  6
Continuous
100
AcDbLine
 10
-438.12675
 20
-81.751728
 30
0.0
 11
-406.570252
 21
-81.751728
 31
0.0
  0
LINE
  5
4B3
100
AcDbEntity
  8
0
370
    -3
  6
Continuous
100
AcDbLine
 10
-446.88134
 20
-75.251728
 30
0.0
 11
-446.88134
 21
-71.8669
 31
0.0
  0
LINE
  5
4B4
100
AcDbEntity
  8
0
370
    -3
  6
Continuous
100
AcDbLine
 10
-446.543246
 20
-72.449998
 30
0.0
 11
-446.543246
 21
-75.251728
 31
0.0
  0
ARC
  5
4B5
100
AcDbEntity
  8
0
370
    -3
  6
Continuous
100
AcDbCircle
 10
-447.636863
 20
-64.251728
 30
0.0
 40
1.0
100
AcDbArc
 50
180.0
 51
256.657636
  0
ARC
  5
4B6
100
AcDbEntity
  8
0
370
    -3
  6
Continuous
100
AcDbCircle
 10
-447.936863
 20
-65.516639
 30
0.0
 40
0.3
100
AcDbArc
 50
0.0
 51
76.657636
  0
ARC
  5
4B7
100
AcDbEntity
  8
0
370
    -3
  6
Continuous
100
AcDbCircle
 10
-438.12675
 20
-75.751728
 30
0.0
 40
6.0
100
AcDbArc
 50
180.0
 51
270.0
  0
LINE
  5
4B8
100
AcDbEntity
  8
0
370
    -3
  6
Continuous
100
AcDbLine
 10
-444.12675
 20
-74.702916
 30
0.0
 11
-444.12675
 21
-75.751728
 31
0.0
  0
ARC
  5
4B9
100
AcDbEntity
  8
0
370
    -3
  6
Continuous
100
AcDbCircle
 10
-440.836863
 20
-68.751728
 30
0.0
 40
6.8
100
AcDbArc
 50
180.0
 51
270.0
  0
LINE
  5
4BA
100
AcDbEntity
  8
0
370
    -3
  6
Continuous
100
AcDbLine
 10
-447.636863
 20
-36.251728
 30
0.0
 11
-447.636863
 21
-68.751728
 31
0.0
  0
ARC
  5
4BB
100
AcDbEntity
  8
0
370
    -3
  6
Continuous
100
AcDbCircle
 10
-411.204005
 20
-71.751728
 30
0.0
 40
3.8
100
AcDbArc
 50
270.0
 51
337.022625
  0
ARC
  5
4BC
100
AcDbEntity
  8
0
370
    -3
  6
Continuous
100
AcDbCircle
 10
-407.200952
 20
-62.310761
 30
0.0
 40
3.8
100
AcDbArc
 50
337.022625
 51
0.0
  0
LINE
  5
4BD
100
AcDbEntity
  8
0
370
    -3
  6
Continuous
100
AcDbLine
 10
-403.702447
 20
-63.794158
 30
0.0
 11
-407.705501
 21
-73.235124
 31
0.0
  0
LINE
  5
4BE
100
AcDbEntity
  8
0
370
    -3
  6
Continuous
100
AcDbLine
 10
-440.836863
 20
-75.551728
 30
0.0
 11
-411.204005
 21
-75.551728
 31
0.0
  0
LINE
  5
4BF
100
AcDbEntity
  8
0
370
    -3
  6
Continuous
100
AcDbLine
 10
-403.400952
 20
-36.251728
 30
0.0
 11
-403.400952
 21
-62.310761
 31
0.0
  0
LINE
  5
4C0
100
AcDbEntity
  8
0
370
    -3
  6
Continuous
100
AcDbLine
 10
-448.636863
 20
-36.251728
 30
0.0
 11
-448.636863
 21
-64.251728
 31
0.0
  0
ARC
  5
4C1
100
AcDbEntity
  8
0
370
    -3
  6
Continuous
100
AcDbCircle
 10
-439.543246
 20
-75.251728
 30
0.0
 40
7.0
100
AcDbArc
 50
180.0
 51
270.0
  0
LINE
  5
4C2
100
AcDbEntity
  8
0
370
    -3
  6
Continuous
100
AcDbLine
 10
-449.636863
 20
-67.251728
 30
0.0
 11
-448.636863
 21
-67.251728
 31
0.0
  0
LINE
  5
4C3
100
AcDbEntity
  8
0
370
    -3
  6
Continuous
100
AcDbLine
 10
-448.636863
 20
-67.251728
 30
0.0
 11
-448.636863
 21
-36.251728
 31
0.0
  0
LINE
  5
4C4
100
AcDbEntity
  8
0
370
    -3
  6
Continuous
100
AcDbLine
 10
-449.636863
 20
-36.251728
 30
0.0
 11
-449.636863
 21
-67.251728
 31
0.0
  0
LINE
  5
4C5
100
AcDbEntity
  8
0
370
    -3
  6
Continuous
100
AcDbLine
 10
-397.165715
 20
-75.251728
 30
0.0
 11
-397.165715
 21
-36.251728
 31
0.0
  0
LINE
  5
4C6
100
AcDbEntity
  8
0
370
    -3
  6
Continuous
100
AcDbLine
 10
-402.168328
 20
-36.251728
 30
0.0
 11
-402.168328
 21
-75.251728
 31
0.0
  0
LINE
  5
4C7
100
AcDbEntity
  8
0
370
    -3
  6
Continuous
100
AcDbLine
 10
-404.965715
 20
-83.051728
 30
0.0
 11
-439.08134
 21
-83.051728
 31
0.0
  0
ELLIPSE
  5
4C8
100
AcDbEntity
  8
0
370
    -3
  6
Continuous
100
AcDbEllipse
 10
-399.051124
 20
-75.751728
 30
0.0
 11
0.0
 21
3.5
 31
0.0
210
0.0
220
0.0
230
1.0
 40
0.656603
 41
3.5746436290433174
 42
5.3210459426689347
  0
ARC
  5
4C9
100
AcDbEntity
  8
0
370
    -3
  6
Continuous
100
AcDbCircle
 10
-404.965715
 20
-75.251728
 30
0.0
 40
7.8
100
AcDbArc
 50
270.0
 51
0.0
  0
ARC
  5
4CA
100
AcDbEntity
  8
0
370
    -3
  6
Continuous
100
AcDbCircle
 10
-409.630233
 20
-75.251728
 30
0.0
 40
7.8
100
AcDbArc
 50
270.0
 51
0.0
  0
ARC
  5
4CB
100
AcDbEntity
  8
0
370
    -3
  6
Continuous
100
AcDbCircle
 10
-409.168328
 20
-75.251728
 30
0.0
 40
7.0
100
AcDbArc
 50
270.0
 51
0.0
  0
LINE
  5
4CC
100
AcDbEntity
  8
0
370
    -3
  6
Continuous
100
AcDbLine
 10
-409.168328
 20
-82.251728
 30
0.0
 11
-439.543246
 21
-82.251728
 31
0.0
  0
ARC
  5
4CD
100
AcDbEntity
  8
0
370
    -3
  6
Continuous
100
AcDbCircle
 10
-439.08134
 20
-75.251728
 30
0.0
 40
7.8
100
AcDbArc
 50
180.0
 51
270.0
  0
LINE
  5
4CE
100
AcDbEntity
  8
0
370
    -3
  6
CENTER
100
AcDbLine
 10
-422.636863
 20
-17.606795
 30
0.0
 11
-422.636863
 21
-57.552184
 31
0.0
  0
LINE
  5
4CF
100
AcDbEntity
  8
0
370
    -3
  6
Continuous
100
AcDbLine
 10
-449.636863
 20
-67.777571
 30
0.0
 11
-449.636863
 21
-4.725884
 31
0.0
  0
ARC
  5
4D0
100
AcDbEntity
  8
0
370
    -3
  6
Continuous
100
AcDbCircle
 10
-450.636863
 20
-67.777571
 30
0.0
 40
1.0
100
AcDbArc
 50
271.5
 51
0.0
  0
LINE
  5
4D1
100
AcDbEntity
  8
0
370
    -3
  6
Continuous
100
AcDbLine
 10
-448.636863
 20
-67.251728
 30
0.0
 11
-448.636863
 21
-36.251728
 31
0.0
  0
LINE
  5
4D2
100
AcDbEntity
  8
0
370
    -3
  6
Continuous
100
AcDbLine
 10
-448.636863
 20
-5.251728
 30
0.0
 11
-448.636863
 21
-36.251728
 31
0.0
  0
LINE
  5
4D3
100
AcDbEntity
  8
0
370
    -3
  6
Continuous
100
AcDbLine
 10
-457.253013
 20
-17.501728
 30
0.0
 11
-455.636863
 21
-17.501728
 31
0.0
  0
LINE
  5
4D4
100
AcDbEntity
  8
0
370
    -3
  6
Continuous
100
AcDbLine
 10
-457.253013
 20
-17.068739
 30
0.0
 11
-456.074846
 21
-17.216009
 31
0.0
  0
ARC
  5
4D5
100
AcDbEntity
  8
0
370
    -3
  6
Continuous
100
AcDbCircle
 10
-456.136863
 20
-17.712148
 30
0.0
 40
0.5
100
AcDbArc
 50
0.0
 51
82.874984
  0
ARC
  5
4D6
100
AcDbEntity
  8
0
370
    -3
  6
Continuous
100
AcDbCircle
 10
-456.136863
 20
-8.829366
 30
0.0
 40
0.5
100
AcDbArc
 50
277.125016
 51
0.0
  0
ARC
  5
4D7
100
AcDbEntity
  8
0
370
    -3
  6
Continuous
100
AcDbCircle
 10
-455.136863
 20
-8.770757
 30
0.0
 40
0.5
100
AcDbArc
 50
90.0
 51
180.0
  0
LINE
  5
4D8
100
AcDbEntity
  8
0
370
    -3
  6
Continuous
100
AcDbLine
 10
-455.136863
 20
-8.270757
 30
0.0
 11
-454.136863
 21
-8.270757
 31
0.0
  0
ARC
  5
4D9
100
AcDbEntity
  8
0
370
    -3
  6
Continuous
100
AcDbCircle
 10
-454.136863
 20
-7.770757
 30
0.0
 40
0.5
100
AcDbArc
 50
270.0
 51
0.0
  0
LINE
  5
4DA
100
AcDbEntity
  8
0
370
    -3
  6
Continuous
100
AcDbLine
 10
-455.636863
 20
-17.734572
 30
0.0
 11
-455.636863
 21
-8.770757
 31
0.0
  0
ARC
  5
4DB
100
AcDbEntity
  8
0
370
    -3
  6
Continuous
100
AcDbCircle
 10
-455.136863
 20
-54.768883
 30
0.0
 40
0.5
100
AcDbArc
 50
180.0
 51
268.0
  0
LINE
  5
4DC
100
AcDbEntity
  8
0
370
    -3
  6
Continuous
100
AcDbLine
 10
-455.154313
 20
-55.268579
 30
0.0
 11
-454.119414
 21
-55.304718
 31
0.0
  0
ARC
  5
4DD
100
AcDbEntity
  8
0
370
    -3
  6
Continuous
100
AcDbCircle
 10
-454.136863
 20
-55.804413
 30
0.0
 40
0.5
100
AcDbArc
 50
0.0
 51
88.0
  0
LINE
  5
4DE
100
AcDbEntity
  8
0
370
    -3
  6
Continuous
100
AcDbLine
 10
-453.636863
 20
-55.804413
 30
0.0
 11
-453.636863
 21
-68.856471
 31
0.0
  0
LINE
  5
4DF
100
AcDbEntity
  8
0
370
    -3
  6
Continuous
100
AcDbLine
 10
-453.636863
 20
-68.856471
 30
0.0
 11
-450.610686
 21
-68.777228
 31
0.0
  0
ARC
  5
4E0
100
AcDbEntity
  8
0
370
    -3
  6
Continuous
100
AcDbCircle
 10
-450.636863
 20
-67.777571
 30
0.0
 40
1.0
100
AcDbArc
 50
271.5
 51
0.0
  0
LINE
  5
4E1
100
AcDbEntity
  8
0
370
    -3
  6
Continuous
100
AcDbLine
 10
-449.636863
 20
-67.777571
 30
0.0
 11
-449.636863
 21
-4.725884
 31
0.0
  0
ARC
  5
4E2
100
AcDbEntity
  8
0
370
    -3
  6
Continuous
100
AcDbCircle
 10
-450.636863
 20
-4.725884
 30
0.0
 40
1.0
100
AcDbArc
 50
0.0
 51
88.5
  0
LINE
  5
4E3
100
AcDbEntity
  8
0
370
    -3
  6
Continuous
100
AcDbLine
 10
-453.636863
 20
-3.646984
 30
0.0
 11
-450.610686
 21
-3.726227
 31
0.0
  0
LINE
  5
4E4
100
AcDbEntity
  8
0
370
    -3
  6
Continuous
100
AcDbLine
 10
-453.636863
 20
-16.699042
 30
0.0
 11
-453.636863
 21
-3.646984
 31
0.0
  0
ARC
  5
4E5
100
AcDbEntity
  8
0
370
    -3
  6
Continuous
100
AcDbCircle
 10
-454.136863
 20
-16.699042
 30
0.0
 40
0.5
100
AcDbArc
 50
272.0
 51
0.0
  0
LINE
  5
4E6
100
AcDbEntity
  8
0
370
    -3
  6
Continuous
100
AcDbLine
 10
-455.154313
 20
-17.234877
 30
0.0
 11
-454.119414
 21
-17.198737
 31
0.0
  0
ARC
  5
4E7
100
AcDbEntity
  8
0
370
    -3
  6
Continuous
100
AcDbCircle
 10
-455.136863
 20
-17.734572
 30
0.0
 40
0.5
100
AcDbArc
 50
92.0
 51
180.0
  0
LINE
  5
4E8
100
AcDbEntity
  8
0
370
    -3
  6
Continuous
100
AcDbLine
 10
-457.253013
 20
-55.434717
 30
0.0
 11
-456.074846
 21
-55.287446
 31
0.0
  0
ARC
  5
4E9
100
AcDbEntity
  8
0
370
    -3
  6
Continuous
100
AcDbCircle
 10
-456.136863
 20
-54.791307
 30
0.0
 40
0.5
100
AcDbArc
 50
277.125016
 51
0.0
  0
LINE
  5
4EA
100
AcDbEntity
  8
0
370
    -3
  6
Continuous
100
AcDbLine
 10
-457.253013
 20
-55.001728
 30
0.0
 11
-455.636863
 21
-55.001728
 31
0.0
  0
LINE
  5
4EB
100
AcDbEntity
  8
0
370
    -3
  6
Continuous
100
AcDbLine
 10
-455.636863
 20
-54.768883
 30
0.0
 11
-455.636863
 21
-63.732698
 31
0.0
  0
ARC
  5
4EC
100
AcDbEntity
  8
0
370
    -3
  6
Continuous
100
AcDbCircle
 10
-456.136863
 20
-63.674089
 30
0.0
 40
0.5
100
AcDbArc
 50
0.0
 51
82.874984
  0
ARC
  5
4ED
100
AcDbEntity
  8
0
370
    -3
  6
Continuous
100
AcDbCircle
 10
-455.136863
 20
-63.732698
 30
0.0
 40
0.5
100
AcDbArc
 50
180.0
 51
270.0
  0
LINE
  5
4EE
100
AcDbEntity
  8
0
370
    -3
  6
Continuous
100
AcDbLine
 10
-455.136863
 20
-64.232698
 30
0.0
 11
-454.136863
 21
-64.232698
 31
0.0
  0
ARC
  5
4EF
100
AcDbEntity
  8
0
370
    -3
  6
Continuous
100
AcDbCircle
 10
-454.136863
 20
-64.732698
 30
0.0
 40
0.5
100
AcDbArc
 50
0.0
 51
90.0
  0
LINE
  5
4F0
100
AcDbEntity
  8
0
370
    -3
  6
Continuous
100
AcDbLine
 10
-449.636863
 20
-36.251728
 30
0.0
 11
-449.636863
 21
-67.251728
 31
0.0
  0
LINE
  5
4F1
100
AcDbEntity
  8
0
370
    -3
  6
Continuous
100
AcDbLine
 10
-449.636863
 20
-67.251728
 30
0.0
 11
-448.636863
 21
-67.251728
 31
0.0
  0
LINE
  5
4F2
100
AcDbEntity
  8
0
370
    -3
  6
Continuous
100
AcDbLine
 10
-449.636863
 20
-36.251728
 30
0.0
 11
-449.636863
 21
-5.251728
 31
0.0
  0
LINE
  5
4F3
100
AcDbEntity
  8
0
370
    -3
  6
Continuous
100
AcDbLine
 10
-449.636863
 20
-5.251728
 30
0.0
 11
-448.636863
 21
-5.251728
 31
0.0
  0
LINE
  5
4F4
100
AcDbEntity
  8
0
370
    -3
  6
CENTER
100
AcDbLine
 10
-393.537677
 20
-36.251728
 30
0.0
 11
-455.322016
 21
-36.251728
 31
0.0
  0
LINE
  5
4F5
100
AcDbEntity
  8
0
370
    -3
  6
Continuous
100
AcDbLine
 10
-449.636863
 20
-5.251728
 30
0.0
 11
-449.636863
 21
-67.251728
 31
0.0
  0
LINE
  5
4F6
100
AcDbEntity
  8
0
370
    -3
  6
Continuous
100
AcDbLine
 10
-455.636863
 20
-36.251728
 30
0.0
 11
-455.636863
 21
-54.768883
 31
0.0
  0
LINE
  5
4F7
100
AcDbEntity
  8
0
370
    -3
  6
Continuous
100
AcDbLine
 10
-455.636863
 20
-36.251728
 30
0.0
 11
-455.636863
 21
-17.734572
 31
0.0
  0
LINE
  5
4F8
100
AcDbEntity
  8
0
370
    -3
  6
Continuous
100
AcDbLine
 10
-449.636863
 20
-4.725884
 30
0.0
 11
-449.636863
 21
-67.777571
 31
0.0
  0
LINE
  5
4F9
100
AcDbEntity
  8
0
370
    -3
  6
Continuous
100
AcDbLine
 10
-449.636863
 20
-5.251728
 30
0.0
 11
-449.636863
 21
-67.251728
 31
0.0
  0
MTEXT
  5
4FA
100
AcDbEntity
  8
0
370
    -3
  6
Continuous
100
AcDbMText
 10
-568.485352
 20
184.713287
 30
0.0
 40
15.0
 41
0.0
 71
     7
 72
     1
  1
\W0.43;DATE\W0.72; \W0.43;2011.12.26
  7
ZU_SHPTB00001
 11
1.0
 21
0.0
 31
0.0
 73
     1
 44
1.0
  0
LINE
  5
4FB
100
AcDbEntity
  8
0
370
    -3
  6
Continuous
100
AcDbLine
 10
-185.731458
 20
330.346831
 30
0.0
 11
-140.165715
 21
331.845443
 31
0.0
  0
ARC
  5
4FC
100
AcDbEntity
  8
0
370
    -3
  6
Continuous
100
AcDbCircle
 10
-103.300122
 20
261.594912
 30
0.0
 40
65.0
100
AcDbArc
 50
69.480948
 51
89.0
  0
LINE
  5
4FD
100
AcDbEntity
  8
0
370
    -3
  6
Continuous
100
AcDbLine
 10
-142.165715
 20
327.283215
 30
0.0
 11
-102.165715
 21
326.585012
 31
0.0
  0
LINE
  5
4FE
100
AcDbEntity
  8
0
370
    -3
  6
Continuous
100
AcDbLine
 10
-140.165715
 20
331.845443
 30
0.0
 11
-52.63081
 21
330.317516
 31
0.0
  0
ARC
  5
4FF
100
AcDbEntity
  8
0
370
    -3
  6
Continuous
100
AcDbCircle
 10
-185.665715
 20
328.347911
 30
0.0
 40
2.0
100
AcDbArc
 50
91.883723
 51
180.0
  0
ARC
  5
500
100
AcDbEntity
  8
0
370
    -3
  6
Continuous
100
AcDbCircle
 10
-52.665715
 20
328.31782
 30
0.0
 40
2.0
100
AcDbArc
 50
0.0
 51
89.0
  0
ARC
  5
501
100
AcDbEntity
  8
0
370
    -3
  6
Continuous
100
AcDbCircle
 10
-151.665715
 20
325.283215
 30
0.0
 40
2.0
100
AcDbArc
 50
90.0
 51
180.0
  0
LINE
  5
502
100
AcDbEntity
  8
0
370
    -3
  6
Continuous
100
AcDbLine
 10
-142.165715
 20
327.283215
 30
0.0
 11
-154.665715
 21
327.283215
 31
0.0
  0
ARC
  5
503
100
AcDbEntity
  8
0
370
    -3
  6
Continuous
100
AcDbCircle
 10
-154.665715
 20
325.283215
 30
0.0
 40
2.0
100
AcDbArc
 50
90.0
 51
180.0
  0
ENDSEC
  0
SECTION
  2
OBJECTS
  0
DICTIONARY
  5
19
100
AcDbDictionary
280
     0
281
     1
  3
ACAD_GROUP
350
1A
  3
ACAD_MLINESTYLE
350
1B
  3
ACAD_LAYOUT
350
1E
  3
ACAD_PLOTSETTINGS
350
22
  3
ACAD_PLOTSTYLENAME
350
1F
  3
ACAD_WIPEOUT_VARS
350
23
  3
DWGPROPS
350
504
  0
DICTIONARY
  5
1A
102
{ACAD_REACTORS
330
19
102
}
100
AcDbDictionary
280
     0
281
     1
  0
DICTIONARY
  5
1B
102
{ACAD_REACTORS
330
19
102
}
100
AcDbDictionary
280
     0
281
     1
  3
Standard
350
1C
  0
MLINESTYLE
  5
1C
102
{ACAD_REACTORS
330
1B
102
}
100
AcDbMlineStyle
  2
Standard
 70
     0
  3

 62
     0
 51
90.0
 52
90.0
 71
     2
 49
0.5
 62
   256
  6
ByLayer
 49
-0.5
 62
   256
  6
ByLayer
  0
ACDBDICTIONARYWDFLT
  5
1F
102
{ACAD_REACTORS
330
19
102
}
100
AcDbDictionary
281
     1
  3
Normal
350
1D
100
AcDbDictionaryWithDefault
340
1D
  0
ACDBPLACEHOLDER
  5
1D
102
{ACAD_REACTORS
330
1F
102
}
  0
LAYOUT
  5
20
102
{ACAD_REACTORS
330
1E
102
}
100
AcDbPlotSettings
  1

  2

  4

  6

 40
0.0
 41
0.0
 42
0.0
 43
0.0
 44
0.0
 45
0.0
 46
0.0
 47
0.0
 48
0.0
 49
0.0
140
0.0
141
0.0
142
1.0
143
1.0
 70
  1024
 72
     0
 73
     0
 74
     0
  7

 75
     0
147
1.0
148
0.0
149
0.0
100
AcDbLayout
  1
Model
 70
     0
 71
     0
 10
0.0
 20
0.0
 11
0.0
 21
0.0
 12
0.0
 22
0.0
 32
0.0
 14
0.0
 24
0.0
 34
0.0
 15
0.0
 25
0.0
 35
0.0
146
0.0
 13
0.0
 23
0.0
 33
0.0
 16
0.0
 26
0.0
 36
0.0
 17
0.0
 27
0.0
 37
0.0
 76
     0
330
A
331
0
345
0
346
0
  0
LAYOUT
  5
21
102
{ACAD_REACTORS
330
1E
102
}
100
AcDbPlotSettings
  1

  2

  4

  6

 40
0.0
 41
0.0
 42
0.0
 43
0.0
 44
0.0
 45
0.0
 46
0.0
 47
0.0
 48
0.0
 49
0.0
140
0.0
141
0.0
142
1.0
143
1.0
 70
     0
 72
     0
 73
     0
 74
     0
  7

 75
     0
147
1.0
148
0.0
149
0.0
100
AcDbLayout
  1
Layout1
 70
     0
 71
     0
 10
0.0
 20
0.0
 11
0.0
 21
0.0
 12
0.0
 22
0.0
 32
0.0
 14
0.0
 24
0.0
 34
0.0
 15
0.0
 25
0.0
 35
0.0
146
0.0
 13
0.0
 23
0.0
 33
0.0
 16
0.0
 26
0.0
 36
0.0
 17
0.0
 27
0.0
 37
0.0
 76
     0
330
B
331
0
345
0
346
0
  0
DICTIONARY
  5
1E
102
{ACAD_REACTORS
330
19
102
}
100
AcDbDictionary
280
     0
281
     1
  3
Layout1
350
21
  3
Model
350
20
  0
DICTIONARY
  5
22
102
{ACAD_REACTORS
330
19
102
}
100
AcDbDictionary
280
     0
281
     1
  0
WIPEOUTVARIABLES
  5
23
100
AcDbWipeoutVariables
 70
     1
  0
XRECORD
  5
504
100
AcDbXrecord
280
     1
  1
DWGPROPS COOKIE
  2

  3

  4

  6

  7

  8
HK96464
  9

300
=
301
=
302
=
303
=
304
=
305
=
306
=
307
=
308
=
309
=
 40
0.0
 41
2455931.627998
 42
2455931.627998
  1

 90
        0
  0
ENDSEC
  0
EOF
