  0
SECTION
  2
HEADER
  9
$ACADVER
  1
AC1015
  9
$ACADMAINTVER
 70
     6
  9
$DWGCODEPAGE
  3
ANSI_932
  9
$INSBASE
 10
0.0
 20
0.0
 30
0.0
  9
$EXTMIN
 10
1.000000E+20
 20
1.000000E+20
 30
1.000000E+20
  9
$EXTMAX
 10
-1.000000E+20
 20
-1.000000E+20
 30
-1.000000E+20
  9
$LIMMIN
 10
0.0
 20
0.0
  9
$LIMMAX
 10
0.0
 20
0.0
  9
$ORTHOMODE
 70
     0
  9
$REGENMODE
 70
     1
  9
$FILLMODE
 70
     1
  9
$QTEXTMODE
 70
     0
  9
$MIRRTEXT
 70
     1
  9
$LTSCALE
 40
1.0
  9
$ATTMODE
 70
     1
  9
$TEXTSIZE
 40
2.8
  9
$TRACEWID
 40
0.05
  9
$TEXTSTYLE
  7
Standard
  9
$CLAYER
  8
0
  9
$CELTYPE
  6
Continuous
  9
$CECOLOR
 62
   256
  9
$CELTSCALE
 40
1.0
  9
$DISPSILH
 70
     0
  9
$DIMSCALE
 40
1.0
  9
$DIMASZ
 40
1.931852
  9
$DIMEXO
 40
1.0
  9
$DIMDLI
 40
0.38
  9
$DIMRND
 40
0.0
  9
$DIMDLE
 40
0.0
  9
$DIMEXE
 40
2.0
  9
$DIMTP
 40
0.0
  9
$DIMTM
 40
0.0
  9
$DIMTXT
 40
10.0
  9
$DIMCEN
 40
0.09
  9
$DIMTSZ
 40
0.0
  9
$DIMTOL
 70
     0
  9
$DIMLIM
 70
     0
  9
$DIMTIH
 70
     1
  9
$DIMTOH
 70
     1
  9
$DIMSE1
 70
     0
  9
$DIMSE2
 70
     0
  9
$DIMTAD
 70
     1
  9
$DIMZIN
 70
     0
  9
$DIMBLK
  1

  9
$DIMASO
 70
     1
  9
$DIMSHO
 70
     1
  9
$DIMPOST
  1

  9
$DIMAPOST
  1

  9
$DIMALT
 70
     0
  9
$DIMALTD
 70
     2
  9
$DIMALTF
 40
25.4
  9
$DIMLFAC
 40
1.0
  9
$DIMTOFL
 70
     0
  9
$DIMTVP
 40
0.0
  9
$DIMTIX
 70
     0
  9
$DIMSOXD
 70
     0
  9
$DIMSAH
 70
     0
  9
$DIMBLK1
  1

  9
$DIMBLK2
  1

  9
$DIMSTYLE
  2
Standard
  9
$DIMCLRD
 70
     0
  9
$DIMCLRE
 70
     0
  9
$DIMCLRT
 70
     0
  9
$DIMTFAC
 40
0.714286
  9
$DIMGAP
 40
0.09
  9
$DIMJUST
 70
     0
  9
$DIMSD1
 70
     0
  9
$DIMSD2
 70
     0
  9
$DIMTOLJ
 70
     1
  9
$DIMTZIN
 70
     0
  9
$DIMALTZ
 70
     0
  9
$DIMALTTZ
 70
     0
  9
$DIMUPT
 70
     0
  9
$DIMDEC
 70
     4
  9
$DIMTDEC
 70
     4
  9
$DIMALTU
 70
     2
  9
$DIMALTTD
 70
     2
  9
$DIMTXSTY
  7
Standard
  9
$DIMAUNIT
 70
     0
  9
$DIMADEC
 70
     0
  9
$DIMALTRND
 40
0.0
  9
$DIMAZIN
 70
     0
  9
$DIMDSEP
 70
     0
  9
$DIMATFIT
 70
     3
  9
$DIMFRAC
 70
     0
  9
$DIMLDRBLK
  1

  9
$DIMLUNIT
 70
     2
  9
$DIMLWD
 70
     0
  9
$DIMLWE
 70
     0
  9
$DIMTMOVE
 70
     0
  9
$LUNITS
 70
     2
  9
$LUPREC
 70
     3
  9
$SKETCHINC
 40
0.1
  9
$FILLETRAD
 40
0.0
  9
$AUNITS
 70
     0
  9
$AUPREC
 70
     0
  9
$MENU
  1
acad
  9
$ELEVATION
 40
0.0
  9
$PELEVATION
 40
0.0
  9
$THICKNESS
 40
0.0
  9
$LIMCHECK
 70
     0
  9
$CHAMFERA
 40
0.0
  9
$CHAMFERB
 40
0.0
  9
$CHAMFERC
 40
0.0
  9
$CHAMFERD
 40
0.0
  9
$SKPOLY
 70
     0
  9
$TDCREATE
 40
0.000000000
  9
$TDUCREATE
 40
0.000000000
  9
$TDUPDATE
 40
0.000000000
  9
$TDUUPDATE
 40
0.000000000
  9
$TDINDWG
 40
0.0000000000
  9
$TDUSRTIMER
 40
0.0000000000
  9
$USRTIMER
 70
     1
  9
$ANGBASE
 50
0.0
  9
$ANGDIR
 70
     0
  9
$PDMODE
 70
     0
  9
$PDSIZE
 40
0.0
  9
$PLINEWID
 40
0.0
  9
$SPLFRAME
 70
     0
  9
$SPLINETYPE
 70
     6
  9
$SPLINESEGS
 70
     8
  9
$HANDSEED
  5
55A
  9
$SURFTAB1
 70
     6
  9
$SURFTAB2
 70
     6
  9
$SURFTYPE
 70
     6
  9
$SURFU
 70
     6
  9
$SURFV
 70
     6
  9
$UCSBASE
  2

  9
$UCSNAME
  2

  9
$UCSORG
 10
0.0
 20
0.0
 30
0.0
  9
$UCSXDIR
 10
1.0
 20
0.0
 30
0.0
  9
$UCSYDIR
 10
0.0
 20
1.0
 30
0.0
  9
$UCSORTHOREF
  2

  9
$UCSORTHOVIEW
 70
     0
  9
$UCSORGTOP
 10
0.0
 20
0.0
 30
0.0
  9
$UCSORGBOTTOM
 10
0.0
 20
0.0
 30
0.0
  9
$UCSORGLEFT
 10
0.0
 20
0.0
 30
0.0
  9
$UCSORGRIGHT
 10
0.0
 20
0.0
 30
0.0
  9
$UCSORGFRONT
 10
0.0
 20
0.0
 30
0.0
  9
$UCSORGBACK
 10
0.0
 20
0.0
 30
0.0
  9
$PUCSBASE
  2

  9
$PUCSNAME
  2

  9
$PUCSORG
 10
0.0
 20
0.0
 30
0.0
  9
$PUCSXDIR
 10
1.0
 20
0.0
 30
0.0
  9
$PUCSYDIR
 10
0.0
 20
1.0
 30
0.0
  9
$PUCSORTHOREF
  2

  9
$PUCSORTHOVIEW
 70
     0
  9
$PUCSORGTOP
 10
0.0
 20
0.0
 30
0.0
  9
$PUCSORGBOTTOM
 10
0.0
 20
0.0
 30
0.0
  9
$PUCSORGLEFT
 10
0.0
 20
0.0
 30
0.0
  9
$PUCSORGRIGHT
 10
0.0
 20
0.0
 30
0.0
  9
$PUCSORGFRONT
 10
0.0
 20
0.0
 30
0.0
  9
$PUCSORGBACK
 10
0.0
 20
0.0
 30
0.0
  9
$USERI1
 70
     0
  9
$USERI2
 70
     0
  9
$USERI3
 70
     0
  9
$USERI4
 70
     0
  9
$USERI5
 70
     0
  9
$USERR1
 40
0.0
  9
$USERR2
 40
0.0
  9
$USERR3
 40
0.0
  9
$USERR4
 40
0.0
  9
$USERR5
 40
0.0
  9
$WORLDVIEW
 70
     1
  9
$SHADEDGE
 70
     3
  9
$SHADEDIF
 70
    70
  9
$TILEMODE
 70
     1
  9
$MAXACTVP
 70
    16
  9
$PINSBASE
 10
0.0
 20
0.0
 30
0.0
  9
$PLIMCHECK
 70
     0
  9
$PEXTMIN
 10
1.000000E+20
 20
1.000000E+20
 30
1.000000E+20
  9
$PEXTMAX
 10
-1.000000E+20
 20
-1.000000E+20
 30
-1.000000E+20
  9
$PLIMMIN
 10
0.0
 20
0.0
  9
$PLIMMAX
 10
12.0
 20
9.0
  9
$UNITMODE
 70
     0
  9
$VISRETAIN
 70
     0
  9
$PLINEGEN
 70
     1
  9
$PSLTSCALE
 70
     0
  9
$TREEDEPTH
 70
  3020
  9
$CMLSTYLE
  2
Standard
  9
$CMLJUST
 70
     0
  9
$CMLSCALE
 40
1.0
  9
$PROXYGRAPHICS
 70
     0
  9
$MEASUREMENT
 70
     0
  9
$CELWEIGHT
370
     0
  9
$ENDCAPS
280
     0
  9
$JOINSTYLE
280
     0
  9
$LWDISPLAY
290
     0
  9
$INSUNITS
 70
     0
  9
$HYPERLINKBASE
  1

  9
$STYLESHEET
  1

  9
$XEDIT
290
     1
  9
$CEPSNTYPE
380
     0
  9
$PSTYLEMODE
290
     1
  9
$FINGERPRINTGUID
  2

  9
$VERSIONGUID
  2

  9
$EXTNAMES
290
     1
  9
$PSVPSCALE
 40
0.0
  0
ENDSEC
  0
SECTION
  2
CLASSES
  0
CLASS
  1
LWPOLYLINE
  2
AcDbPolyline
  3
AutoCAD 2000
 90
    32768
280
     0
281
     1
  0
CLASS
  1
IMAGE
  2
AcDbRasterImage
  3
ISM
 90
    32895
280
     0
281
     1
  0
CLASS
  1
OLE2FRAME
  2
AcDbOle2Frame
  3
AutoCAD 2000
 90
    32768
280
     0
281
     1
  0
CLASS
  1
HATCH
  2
AcDbHatch
  3
AutoCAD 2000
 90
    32768
280
     0
281
     1
  0
CLASS
  1
DICTIONARYVAR
  2
AcDbDictionaryVar
  3
AutoCAD 2000
 90
    32768
280
     0
281
     0
  0
CLASS
  1
RASTERVARIABLES
  2
AcDbRasterVariables
  3
ISM
 90
    32768
280
     0
281
     0
  0
CLASS
  1
IMAGEDEF
  2
AcDbRasterImageDef
  3
ISM
 90
    32768
280
     0
281
     0
  0
CLASS
  1
IMAGEDEF_REACTOR
  2
AcDbRasterImageDefReactor
  3
ISM
 90
    32769
280
     0
281
     0
  0
CLASS
  1
IDBUFFER
  2
AcDbIdBuffer
  3
AutoCAD 2000
 90
    32768
280
     0
281
     0
  0
CLASS
  1
SPATIAL_FILTER
  2
AcDbSpatialFilter
  3
AutoCAD 2000
 90
    32768
280
     0
281
     0
  0
CLASS
  1
XRECORD
  2
AcDbXrecord
  3
AutoCAD 2000
 90
        0
280
     0
281
     0
  0
CLASS
  1
SORTENTSTABLE
  2
AcDbSortentsTable
  3
AutoCAD 2000
 90
    32768
280
     0
281
     0
  0
CLASS
  1
LAYER_INDEX
  2
AcDbLayerIndex
  3
AutoCAD 2000
 90
    32768
280
     0
281
     0
  0
CLASS
  1
SPATIAL_INDEX
  2
AcDbSpatialIndex
  3
AutoCAD 2000
 90
    32768
280
     0
281
     0
  0
CLASS
  1
OBJECT_PTR
  2
CAseDLPNTableRecord
  3
"ASE-LPNTableRecord"
 90
    32769
280
     0
281
     0
  0
CLASS
  1
LAYOUT
  2
AcDbLayout
  3
AutoCAD 2000
 90
        0
280
     0
281
     0
  0
CLASS
  1
PLOTSETTINGS
  2
AcDbPlotSettings
  3
AutoCAD 2000
 90
    32768
280
     0
281
     0
  0
CLASS
  1
ACDBDICTIONARYWDFLT
  2
AcDbDictionaryWithDefault
  3
AutoCAD 2000
 90
        0
280
     0
281
     0
  0
CLASS
  1
ACDBPLACEHOLDER
  2
AcDbPlaceHolder
  3
AutoCAD 2000
 90
        0
280
     0
281
     0
  0
CLASS
  1
VBA_PROJECT
  2
AcDbVbaProject
  3
acadvba
 90
    32768
280
     0
281
     0
  0
CLASS
  1
WIPEOUT
  2
AcDbWipeout
  3
WipeOut|AutoCAD Express Tool|expresstools@autodesk.com
 90
    32895
280
     0
281
     1
  0
CLASS
  1
WIPEOUTVARIABLES
  2
AcDbWipeoutVariables
  3
WipeOut|AutoCAD Express Tool|expresstools@autodesk.com
 90
        0
280
     0
281
     0
  0
CLASS
  1
RTEXT
  2
RText
  3
RText|AutoCAD Express Tool|expresstools@autodesk.com
 90
    32768
280
     0
281
     1
  0
CLASS
  1
ARCALIGNEDTEXT
  2
AcDbArcAlignedText
  3
ATEXT|AutoCAD Express Tool|expresstools@autodesk.com
 90
    32768
280
     0
281
     1
  0
ENDSEC
  0
SECTION
  2
TABLES
  0
TABLE
  2
VPORT
  5
7
100
AcDbSymbolTable
 70
     1
  0
VPORT
  5
15
100
AcDbSymbolTableRecord
100
AcDbViewportTableRecord
  2
*ACTIVE
 70
     0
 10
0.0
 20
0.0
 11
1.0
 21
1.0
 12
0.0
 22
0.0
 13
0.0
 23
0.0
 14
1.0
 24
1.0
 15
0.0
 25
0.0
 16
0.0
 26
0.0
 36
1.0
 17
0.0
 27
0.0
 37
0.0
 40
100.0
 41
1.0
 42
50.0
 43
0.0
 44
0.0
 50
0.0
 51
0.0
 71
     0
 72
   100
 73
     1
 74
     1
 75
     0
 76
     0
 77
     0
 78
     0
281
     0
 65
     0
110
0.0
120
0.0
130
0.0
111
1.0
121
0.0
131
0.0
112
0.0
122
1.0
132
0.0
345
0
346
0
 79
     0
146
0.0
  0
ENDTAB
  0
TABLE
  2
LTYPE
  5
4
100
AcDbSymbolTable
 70
     7
  0
LTYPE
  5
11
100
AcDbSymbolTableRecord
100
AcDbLinetypeTableRecord
  2
ByBlock
 70
    64
  3

 72
    65
 73
     0
 40
0.0
  0
LTYPE
  5
12
100
AcDbSymbolTableRecord
100
AcDbLinetypeTableRecord
  2
ByLayer
 70
    64
  3

 72
    65
 73
     0
 40
0.0
  0
LTYPE
  5
13
100
AcDbSymbolTableRecord
100
AcDbLinetypeTableRecord
  2
Continuous
 70
    64
  3
Solid line
 72
    65
 73
     0
 40
0.0
  0
LTYPE
  5
24
100
AcDbSymbolTableRecord
100
AcDbLinetypeTableRecord
  2
DASHED
 70
    64
  3
Dashed __ __ __ __ __ __ __ __ __ __ __ __ __ _
 72
    65
 73
     2
 40
0.75
 49
0.5
 74
     0
 49
-0.25
 74
     0
  0
LTYPE
  5
25
100
AcDbSymbolTableRecord
100
AcDbLinetypeTableRecord
  2
CENTER
 70
    64
  3
Center ____ _ ____ _ ____ _ ____ _ ____ _ ____
 72
    65
 73
     4
 40
1.0
 49
0.5
 74
     0
 49
-0.25
 74
     0
 49
0.0
 74
     0
 49
-0.25
 74
     0
  0
LTYPE
  5
26
100
AcDbSymbolTableRecord
100
AcDbLinetypeTableRecord
  2
DIVIDE
 70
    64
  3
Divide ____ . . ____ . . ____ . . ____ . . ____
 72
    65
 73
     6
 40
1.25
 49
0.5
 74
     0
 49
-0.25
 74
     0
 49
0.0
 74
     0
 49
-0.25
 74
     0
 49
0.0
 74
     0
 49
-0.25
 74
     0
  0
LTYPE
  5
27
100
AcDbSymbolTableRecord
100
AcDbLinetypeTableRecord
  2
PHANTOM
 70
    64
  3
Phantom ______  __  __  ______  __  __  ______
 72
    65
 73
     6
 40
9.0
 49
4.3
 74
     0
 49
-0.7
 74
     0
 49
1.3
 74
     0
 49
-0.7
 74
     0
 49
1.3
 74
     0
 49
-0.7
 74
     0
  0
ENDTAB
  0
TABLE
  2
LAYER
  5
2
100
AcDbSymbolTable
 70
     3
  0
LAYER
  5
14
100
AcDbSymbolTableRecord
100
AcDbLayerTableRecord
  2
0
 70
    64
 62
    53
  6
Continuous
290
     1
370
    -3
390
1D
  0
LAYER
  5
28
100
AcDbSymbolTableRecord
100
AcDbLayerTableRecord
  2
3
 70
    64
 62
     4
  6
Continuous
290
     1
370
    -3
390
1D
  0
LAYER
  5
29
100
AcDbSymbolTableRecord
100
AcDbLayerTableRecord
  2
5
 70
    64
 62
   191
  6
Continuous
290
     1
370
    -3
390
1D
  0
ENDTAB
  0
TABLE
  2
STYLE
  5
3
100
AcDbSymbolTable
 70
     2
  0
STYLE
  5
17
100
AcDbSymbolTableRecord
100
AcDbTextStyleTableRecord
  2
Standard
 70
     0
 40
0.0
 41
1.0
 50
0.0
 71
     0
 42
0.0
  3
txt
  4

  0
STYLE
  5
42B
100
AcDbSymbolTableRecord
100
AcDbTextStyleTableRecord
  2
ZU_SHPTB00001
 70
     0
 40
0.0
 41
1.0
 50
0.0
 71
     0
 42
0.0
  3
monotxt
  4
bigfont
  0
ENDTAB
  0
TABLE
  2
VIEW
  5
5
100
AcDbSymbolTable
 70
     0
  0
ENDTAB
  0
TABLE
  2
UCS
  5
6
100
AcDbSymbolTable
 70
     0
  0
ENDTAB
  0
TABLE
  2
APPID
  5
8
100
AcDbSymbolTable
 70
     1
  0
APPID
  5
16
100
AcDbSymbolTableRecord
100
AcDbRegAppTableRecord
  2
ACAD
 70
     0
  0
ENDTAB
  0
TABLE
  2
DIMSTYLE
  5
9
100
AcDbSymbolTable
 70
     1
100
AcDbDimStyleTable
 71
     0
  0
DIMSTYLE
105
18
100
AcDbSymbolTableRecord
100
AcDbDimStyleTableRecord
  2
Standard
 70
     0
  3

  4

 40
1.0
 41
0.18
 42
0.0625
 43
0.38
 44
0.18
 45
0.0
 46
0.0
 47
0.0
 48
0.0
 71
     0
 72
     0
 73
     1
 74
     1
 75
     0
 76
     0
 77
     0
 78
     0
 79
     0
140
0.18
141
0.09
142
0.0
143
25.4
144
1.0
145
0.0
146
1.0
147
0.09
148
0.0
170
     0
171
     2
172
     0
173
     0
174
     0
175
     0
176
     0
177
     0
178
     0
179
     0
271
     4
272
     4
273
     2
274
     2
275
     0
276
     0
277
     2
278
    46
279
     0
280
     0
281
     0
282
     0
283
     1
284
     0
285
     0
286
     0
288
     0
340
17
341
0
342
0
343
0
344
0
371
    -2
372
    -2
  0
ENDTAB
  0
TABLE
  2
BLOCK_RECORD
  5
1
100
AcDbSymbolTable
 70
     5
  0
BLOCK_RECORD
  5
A
100
AcDbSymbolTableRecord
100
AcDbBlockTableRecord
  2
*MODEL_SPACE
340
20
  0
BLOCK_RECORD
  5
B
100
AcDbSymbolTableRecord
100
AcDbBlockTableRecord
  2
*PAPER_SPACE
340
21
  0
BLOCK_RECORD
  5
6E
100
AcDbSymbolTableRecord
100
AcDbBlockTableRecord
  2
ZU_SYM__USERS_HOME_SYMBOL_POO_SYM_B20_-1
340
0
102
{BLKREFS
331
76
102
}
  0
BLOCK_RECORD
  5
23C
100
AcDbSymbolTableRecord
100
AcDbBlockTableRecord
  2
ZU_SYM__USERS_HOME_SYMBOL_POO_SYM_S07_-1
340
0
102
{BLKREFS
331
247
102
}
  0
BLOCK_RECORD
  5
252
100
AcDbSymbolTableRecord
100
AcDbBlockTableRecord
  2
ZU_SYM__USERS_HOME_SYMBOL_POO_SYM_S07_00001-1
340
0
102
{BLKREFS
331
25D
102
}
  0
BLOCK_RECORD
  5
26A
100
AcDbSymbolTableRecord
100
AcDbBlockTableRecord
  2
ZU_SYM__USERS_HOME_SYMBOL_POO_SYM_S07_00002-1
340
0
102
{BLKREFS
331
275
102
}
  0
BLOCK_RECORD
  5
282
100
AcDbSymbolTableRecord
100
AcDbBlockTableRecord
  2
ZU_SYM__USERS_HOME_SYMBOL_POO_SYM_S07_00003-1
340
0
102
{BLKREFS
331
28D
102
}
  0
ENDTAB
  0
ENDSEC
  0
SECTION
  2
BLOCKS
  0
BLOCK
  5
D
100
AcDbEntity
  8
0
100
AcDbBlockBegin
  2
*MODEL_SPACE
 70
     0
 10
0.0
 20
0.0
 30
0.0
  3
*MODEL_SPACE
  1

  0
ENDBLK
  5
E
100
AcDbEntity
  8
0
100
AcDbBlockEnd
  0
BLOCK
  5
F
100
AcDbEntity
 67
     1
  8
0
100
AcDbBlockBegin
  2
*PAPER_SPACE
 70
     0
 10
0.0
 20
0.0
 30
0.0
  3
*PAPER_SPACE
  1

  0
ENDBLK
  5
10
100
AcDbEntity
 67
     1
  8
0
100
AcDbBlockEnd
  0
BLOCK
  5
6F
100
AcDbEntity
  8
0
100
AcDbBlockBegin
  2
ZU_SYM__USERS_HOME_SYMBOL_POO_SYM_B20_-1
 70
    64
 10
0.0
 20
0.0
 30
0.0
  3
ZU_SYM__USERS_HOME_SYMBOL_POO_SYM_B20_-1
  1

  0
POINT
  5
70
100
AcDbEntity
  8
0
370
    -3
  6
Continuous
100
AcDbPoint
 10
0.0
 20
0.0
 30
0.0
  0
LINE
  5
71
100
AcDbEntity
  8
0
370
    -3
  6
Continuous
100
AcDbLine
 10
0.0
 20
5.0
 30
0.0
 11
0.0
 21
-5.0
 31
0.0
  0
LINE
  5
72
100
AcDbEntity
  8
0
370
    -3
  6
Continuous
100
AcDbLine
 10
-6.0
 20
-5.0
 30
0.0
 11
-6.0
 21
5.0
 31
0.0
  0
LINE
  5
73
100
AcDbEntity
  8
0
370
    -3
  6
Continuous
100
AcDbLine
 10
0.0
 20
5.0
 30
0.0
 11
-6.0
 21
5.0
 31
0.0
  0
LINE
  5
74
100
AcDbEntity
  8
0
370
    -3
  6
Continuous
100
AcDbLine
 10
0.0
 20
-5.0
 30
0.0
 11
-6.0
 21
-5.0
 31
0.0
  0
ENDBLK
  5
75
100
AcDbEntity
  8
0
100
AcDbBlockEnd
  0
BLOCK
  5
23D
100
AcDbEntity
  8
0
100
AcDbBlockBegin
  2
ZU_SYM__USERS_HOME_SYMBOL_POO_SYM_S07_-1
 70
    64
 10
0.0
 20
0.0
 30
0.0
  3
ZU_SYM__USERS_HOME_SYMBOL_POO_SYM_S07_-1
  1

  0
ARC
  5
23E
100
AcDbEntity
  8
0
370
    -3
  6
Continuous
100
AcDbCircle
 10
-0.979025
 20
-2.200001
 30
0.0
 40
1.299999
100
AcDbArc
 50
196.601531
 51
270.0
  0
ARC
  5
23F
100
AcDbEntity
  8
0
370
    -3
  6
Continuous
100
AcDbCircle
 10
-0.979025
 20
2.200001
 30
0.0
 40
1.299999
100
AcDbArc
 50
90.0
 51
163.398452
  0
LINE
  5
240
100
AcDbEntity
  8
0
370
    -3
  6
Continuous
100
AcDbLine
 10
0.0
 20
-3.5
 30
0.0
 11
-0.979025
 21
-3.5
 31
0.0
  0
LINE
  5
241
100
AcDbEntity
  8
0
370
    -3
  6
Continuous
100
AcDbLine
 10
0.0
 20
3.5
 30
0.0
 11
-0.979025
 21
3.5
 31
0.0
  0
LINE
  5
242
100
AcDbEntity
  8
0
370
    -3
  6
Continuous
100
AcDbLine
 10
0.0
 20
-3.5
 30
0.0
 11
0.0
 21
3.5
 31
0.0
  0
LINE
  5
243
100
AcDbEntity
  8
0
370
    -3
  6
Continuous
100
AcDbLine
 10
0.0
 20
-3.5
 30
0.0
 11
0.0
 21
3.5
 31
0.0
  0
POINT
  5
244
100
AcDbEntity
  8
0
370
    -3
  6
Continuous
100
AcDbPoint
 10
0.0
 20
0.0
 30
0.0
  0
ARC
  5
245
100
AcDbEntity
  8
0
370
    -3
  6
Continuous
100
AcDbCircle
 10
6.4
 20
0.0
 30
0.0
 40
9.0
100
AcDbArc
 50
163.398452
 51
196.601531
  0
ENDBLK
  5
246
100
AcDbEntity
  8
0
100
AcDbBlockEnd
  0
BLOCK
  5
253
100
AcDbEntity
  8
0
100
AcDbBlockBegin
  2
ZU_SYM__USERS_HOME_SYMBOL_POO_SYM_S07_00001-1
 70
    64
 10
0.0
 20
0.0
 30
0.0
  3
ZU_SYM__USERS_HOME_SYMBOL_POO_SYM_S07_00001-1
  1

  0
ARC
  5
254
100
AcDbEntity
  8
0
370
    -3
  6
Continuous
100
AcDbCircle
 10
-0.979025
 20
-2.200001
 30
0.0
 40
1.299999
100
AcDbArc
 50
196.601531
 51
270.0
  0
ARC
  5
255
100
AcDbEntity
  8
0
370
    -3
  6
Continuous
100
AcDbCircle
 10
-0.979025
 20
2.200001
 30
0.0
 40
1.299999
100
AcDbArc
 50
90.0
 51
163.398452
  0
LINE
  5
256
100
AcDbEntity
  8
0
370
    -3
  6
Continuous
100
AcDbLine
 10
0.0
 20
-3.5
 30
0.0
 11
-0.979025
 21
-3.5
 31
0.0
  0
LINE
  5
257
100
AcDbEntity
  8
0
370
    -3
  6
Continuous
100
AcDbLine
 10
0.0
 20
3.5
 30
0.0
 11
-0.979025
 21
3.5
 31
0.0
  0
LINE
  5
258
100
AcDbEntity
  8
0
370
    -3
  6
Continuous
100
AcDbLine
 10
0.0
 20
-3.5
 30
0.0
 11
0.0
 21
3.5
 31
0.0
  0
LINE
  5
259
100
AcDbEntity
  8
0
370
    -3
  6
Continuous
100
AcDbLine
 10
0.0
 20
-3.5
 30
0.0
 11
0.0
 21
3.5
 31
0.0
  0
POINT
  5
25A
100
AcDbEntity
  8
0
370
    -3
  6
Continuous
100
AcDbPoint
 10
0.0
 20
0.0
 30
0.0
  0
ARC
  5
25B
100
AcDbEntity
  8
0
370
    -3
  6
Continuous
100
AcDbCircle
 10
6.4
 20
0.0
 30
0.0
 40
9.0
100
AcDbArc
 50
163.398452
 51
196.601531
  0
ENDBLK
  5
25C
100
AcDbEntity
  8
0
100
AcDbBlockEnd
  0
BLOCK
  5
26B
100
AcDbEntity
  8
0
100
AcDbBlockBegin
  2
ZU_SYM__USERS_HOME_SYMBOL_POO_SYM_S07_00002-1
 70
    64
 10
0.0
 20
0.0
 30
0.0
  3
ZU_SYM__USERS_HOME_SYMBOL_POO_SYM_S07_00002-1
  1

  0
ARC
  5
26C
100
AcDbEntity
  8
0
370
    -3
  6
Continuous
100
AcDbCircle
 10
-0.979025
 20
-2.200001
 30
0.0
 40
1.299999
100
AcDbArc
 50
196.601531
 51
270.0
  0
ARC
  5
26D
100
AcDbEntity
  8
0
370
    -3
  6
Continuous
100
AcDbCircle
 10
-0.979025
 20
2.200001
 30
0.0
 40
1.299999
100
AcDbArc
 50
90.0
 51
163.398452
  0
LINE
  5
26E
100
AcDbEntity
  8
0
370
    -3
  6
Continuous
100
AcDbLine
 10
0.0
 20
-3.5
 30
0.0
 11
-0.979025
 21
-3.5
 31
0.0
  0
LINE
  5
26F
100
AcDbEntity
  8
0
370
    -3
  6
Continuous
100
AcDbLine
 10
0.0
 20
3.5
 30
0.0
 11
-0.979025
 21
3.5
 31
0.0
  0
LINE
  5
270
100
AcDbEntity
  8
0
370
    -3
  6
Continuous
100
AcDbLine
 10
0.0
 20
-3.5
 30
0.0
 11
0.0
 21
3.5
 31
0.0
  0
LINE
  5
271
100
AcDbEntity
  8
0
370
    -3
  6
Continuous
100
AcDbLine
 10
0.0
 20
-3.5
 30
0.0
 11
0.0
 21
3.5
 31
0.0
  0
POINT
  5
272
100
AcDbEntity
  8
0
370
    -3
  6
Continuous
100
AcDbPoint
 10
0.0
 20
0.0
 30
0.0
  0
ARC
  5
273
100
AcDbEntity
  8
0
370
    -3
  6
Continuous
100
AcDbCircle
 10
6.4
 20
0.0
 30
0.0
 40
9.0
100
AcDbArc
 50
163.398452
 51
196.601531
  0
ENDBLK
  5
274
100
AcDbEntity
  8
0
100
AcDbBlockEnd
  0
BLOCK
  5
283
100
AcDbEntity
  8
0
100
AcDbBlockBegin
  2
ZU_SYM__USERS_HOME_SYMBOL_POO_SYM_S07_00003-1
 70
    64
 10
0.0
 20
0.0
 30
0.0
  3
ZU_SYM__USERS_HOME_SYMBOL_POO_SYM_S07_00003-1
  1

  0
ARC
  5
284
100
AcDbEntity
  8
0
370
    -3
  6
Continuous
100
AcDbCircle
 10
-0.979025
 20
-2.200001
 30
0.0
 40
1.299999
100
AcDbArc
 50
196.601531
 51
270.0
  0
ARC
  5
285
100
AcDbEntity
  8
0
370
    -3
  6
Continuous
100
AcDbCircle
 10
-0.979025
 20
2.200001
 30
0.0
 40
1.299999
100
AcDbArc
 50
90.0
 51
163.398452
  0
LINE
  5
286
100
AcDbEntity
  8
0
370
    -3
  6
Continuous
100
AcDbLine
 10
0.0
 20
-3.5
 30
0.0
 11
-0.979025
 21
-3.5
 31
0.0
  0
LINE
  5
287
100
AcDbEntity
  8
0
370
    -3
  6
Continuous
100
AcDbLine
 10
0.0
 20
3.5
 30
0.0
 11
-0.979025
 21
3.5
 31
0.0
  0
LINE
  5
288
100
AcDbEntity
  8
0
370
    -3
  6
Continuous
100
AcDbLine
 10
0.0
 20
-3.5
 30
0.0
 11
0.0
 21
3.5
 31
0.0
  0
LINE
  5
289
100
AcDbEntity
  8
0
370
    -3
  6
Continuous
100
AcDbLine
 10
0.0
 20
-3.5
 30
0.0
 11
0.0
 21
3.5
 31
0.0
  0
POINT
  5
28A
100
AcDbEntity
  8
0
370
    -3
  6
Continuous
100
AcDbPoint
 10
0.0
 20
0.0
 30
0.0
  0
ARC
  5
28B
100
AcDbEntity
  8
0
370
    -3
  6
Continuous
100
AcDbCircle
 10
6.4
 20
0.0
 30
0.0
 40
9.0
100
AcDbArc
 50
163.398452
 51
196.601531
  0
ENDBLK
  5
28C
100
AcDbEntity
  8
0
100
AcDbBlockEnd
  0
ENDSEC
  0
SECTION
  2
ENTITIES
  0
LINE
  5
2A
100
AcDbEntity
  8
0
370
    -3
  6
Continuous
100
AcDbLine
 10
-162.306666
 20
56.125234
 30
0.0
 11
-131.306666
 21
56.125234
 31
0.0
  0
LINE
  5
2B
100
AcDbEntity
  8
0
370
    -3
  6
Continuous
100
AcDbLine
 10
-162.306666
 20
-86.874766
 30
0.0
 11
-160.306666
 21
-86.874766
 31
0.0
  0
LINE
  5
2C
100
AcDbEntity
  8
0
370
    -3
  6
Continuous
100
AcDbLine
 10
-162.306666
 20
-15.374766
 30
0.0
 11
-162.306666
 21
56.125234
 31
0.0
  0
LINE
  5
2D
100
AcDbEntity
  8
0
370
    -3
  6
Continuous
100
AcDbLine
 10
-162.306666
 20
-15.374766
 30
0.0
 11
-162.306666
 21
-86.874766
 31
0.0
  0
LINE
  5
2E
100
AcDbEntity
  8
0
370
    -3
  6
Continuous
100
AcDbLine
 10
-162.306666
 20
24.02544
 30
0.0
 11
-227.409197
 21
24.02544
 31
0.0
  0
LINE
  5
2F
100
AcDbEntity
  8
0
370
    -3
  6
Continuous
100
AcDbLine
 10
-162.306666
 20
25.225028
 30
0.0
 11
-227.57502
 21
25.225028
 31
0.0
  0
LINE
  5
30
100
AcDbEntity
  8
0
370
    -3
  6
Continuous
100
AcDbLine
 10
-346.306666
 20
-15.374766
 30
0.0
 11
-346.306666
 21
-74.124429
 31
0.0
  0
ARC
  5
31
100
AcDbEntity
  8
0
370
    -3
  6
Continuous
100
AcDbCircle
 10
-342.506666
 20
-74.124429
 30
0.0
 40
3.8
100
AcDbArc
 50
180.0
 51
240.0
  0
LINE
  5
32
100
AcDbEntity
  8
0
370
    -3
  6
Continuous
100
AcDbLine
 10
-282.306666
 20
-90.174766
 30
0.0
 11
-314.053831
 21
-90.174766
 31
0.0
  0
LINE
  5
33
100
AcDbEntity
  8
0
370
    -3
  6
Continuous
100
AcDbLine
 10
-344.406666
 20
-77.415325
 30
0.0
 11
-329.453831
 21
-86.048348
 31
0.0
  0
ARC
  5
34
100
AcDbEntity
  8
0
370
    -3
  6
Continuous
100
AcDbCircle
 10
-314.053831
 20
-59.374766
 30
0.0
 40
30.8
100
AcDbArc
 50
240.0
 51
270.0
  0
ELLIPSE
  5
35
100
AcDbEntity
  8
0
370
    -3
  6
Continuous
100
AcDbEllipse
 10
-299.306666
 20
41.649965
 30
0.0
 11
5.0
 21
0.0
 31
0.0
210
0.0
220
0.0
230
1.0
 40
0.707107
 41
3.1415926535897931
 42
0.0
  0
LINE
  5
36
100
AcDbEntity
  8
0
370
    -3
  6
Continuous
100
AcDbLine
 10
-304.306666
 20
42.466569
 30
0.0
 11
-304.306666
 21
41.649965
 31
0.0
  0
LINE
  5
37
100
AcDbEntity
  8
0
370
    -3
  6
Continuous
100
AcDbLine
 10
-294.306666
 20
42.466569
 30
0.0
 11
-294.306666
 21
41.649965
 31
0.0
  0
ELLIPSE
  5
38
100
AcDbEntity
  8
0
370
    -3
  6
Continuous
100
AcDbEllipse
 10
-299.306666
 20
42.466569
 30
0.0
 11
4.5
 21
0.0
 31
0.0
210
0.0
220
0.0
230
1.0
 40
0.707107
 41
3.1415926535897931
 42
0.0
  0
LINE
  5
39
100
AcDbEntity
  8
0
370
    -3
  6
Continuous
100
AcDbLine
 10
-303.806666
 20
43.032254
 30
0.0
 11
-303.806666
 21
42.466569
 31
0.0
  0
LINE
  5
3A
100
AcDbEntity
  8
0
370
    -3
  6
Continuous
100
AcDbLine
 10
-294.806666
 20
43.032254
 30
0.0
 11
-294.806666
 21
42.466569
 31
0.0
  0
ELLIPSE
  5
3B
100
AcDbEntity
  8
0
370
    -3
  6
Continuous
100
AcDbEllipse
 10
-299.306666
 20
42.466569
 30
0.0
 11
5.0
 21
0.0
 31
0.0
210
0.0
220
0.0
230
1.0
 40
0.707107
 41
0.0
 42
0.7392718269404981
  0
ELLIPSE
  5
3C
100
AcDbEntity
  8
0
370
    -3
  6
Continuous
100
AcDbEllipse
 10
-299.306666
 20
42.466569
 30
0.0
 11
5.0
 21
0.0
 31
0.0
210
0.0
220
0.0
230
1.0
 40
0.707107
 41
2.4023208266490501
 42
3.1415926535897931
  0
ELLIPSE
  5
3D
100
AcDbEntity
  8
0
370
    -3
  6
Continuous
100
AcDbEllipse
 10
-299.306666
 20
43.568772
 30
0.0
 11
3.5
 21
0.0
 31
0.0
210
0.0
220
0.0
230
1.0
 40
0.860398
 41
0.0
 42
6.2831853071795862
  0
ELLIPSE
  5
3E
100
AcDbEntity
  8
0
370
    -3
  6
Continuous
100
AcDbEllipse
 10
-299.306666
 20
43.032254
 30
0.0
 11
4.5
 21
0.0
 31
0.0
210
0.0
220
0.0
230
1.0
 40
0.707107
 41
2.1587066623460007
 42
0.9828859912434559
  0
LINE
  5
3F
100
AcDbEntity
  8
0
370
    -3
  6
Continuous
100
AcDbLine
 10
-299.306666
 20
44.870732
 30
0.0
 11
-297.306666
 21
43.297394
 31
0.0
  0
LINE
  5
40
100
AcDbEntity
  8
0
370
    -3
  6
Continuous
100
AcDbLine
 10
-299.306666
 20
44.870732
 30
0.0
 11
-297.377462
 21
46.081394
 31
0.0
  0
LINE
  5
41
100
AcDbEntity
  8
0
370
    -3
  6
Continuous
100
AcDbLine
 10
-299.306666
 20
44.870732
 30
0.0
 11
-301.306666
 21
43.297394
 31
0.0
  0
LINE
  5
42
100
AcDbEntity
  8
0
370
    -3
  6
Continuous
100
AcDbLine
 10
-299.306666
 20
44.870732
 30
0.0
 11
-301.235871
 21
46.081394
 31
0.0
  0
ARC
  5
43
100
AcDbEntity
  8
0
370
    -3
  6
Continuous
100
AcDbCircle
 10
-314.053831
 20
28.625234
 30
0.0
 40
30.8
100
AcDbArc
 50
90.0
 51
120.0
  0
ARC
  5
44
100
AcDbEntity
  8
0
370
    -3
  6
Continuous
100
AcDbCircle
 10
-342.506666
 20
43.374896
 30
0.0
 40
3.8
100
AcDbArc
 50
120.0
 51
180.0
  0
LINE
  5
45
100
AcDbEntity
  8
0
370
    -3
  6
Continuous
100
AcDbLine
 10
-346.306666
 20
-15.374766
 30
0.0
 11
-346.306666
 21
43.374896
 31
0.0
  0
LINE
  5
46
100
AcDbEntity
  8
0
370
    -3
  6
Continuous
100
AcDbLine
 10
-344.406666
 20
46.665793
 30
0.0
 11
-329.453831
 21
55.298816
 31
0.0
  0
LINE
  5
47
100
AcDbEntity
  8
0
370
    -3
  6
Continuous
100
AcDbLine
 10
-282.306666
 20
51.125234
 30
0.0
 11
-162.306666
 21
51.125234
 31
0.0
  0
LINE
  5
48
100
AcDbEntity
  8
0
370
    -3
  6
Continuous
100
AcDbLine
 10
-282.306666
 20
55.625234
 30
0.0
 11
-162.306666
 21
55.625234
 31
0.0
  0
LINE
  5
49
100
AcDbEntity
  8
0
370
    -3
  6
Continuous
100
AcDbLine
 10
-282.306666
 20
54.125234
 30
0.0
 11
-162.306666
 21
54.125234
 31
0.0
  0
LINE
  5
4A
100
AcDbEntity
  8
0
370
    -3
  6
Continuous
100
AcDbLine
 10
-282.306666
 20
56.125234
 30
0.0
 11
-162.306666
 21
56.125234
 31
0.0
  0
LINE
  5
4B
100
AcDbEntity
  8
0
370
    -3
  6
Continuous
100
AcDbLine
 10
-282.306666
 20
46.625234
 30
0.0
 11
-162.306666
 21
46.625234
 31
0.0
  0
LINE
  5
4C
100
AcDbEntity
  8
0
370
    -3
  6
Continuous
100
AcDbLine
 10
-227.409197
 20
17.225028
 30
0.0
 11
-162.306666
 21
17.225028
 31
0.0
  0
LINE
  5
4D
100
AcDbEntity
  8
0
370
    -3
  6
Continuous
100
AcDbLine
 10
-227.409197
 20
16.02544
 30
0.0
 11
-162.306666
 21
16.02544
 31
0.0
  0
LINE
  5
4E
100
AcDbEntity
  8
0
370
    -3
  6
Continuous
100
AcDbLine
 10
-227.409197
 20
8.625234
 30
0.0
 11
-162.306666
 21
8.625234
 31
0.0
  0
LINE
  5
4F
100
AcDbEntity
  8
0
370
    -3
  6
Continuous
100
AcDbLine
 10
-282.306666
 20
-81.874766
 30
0.0
 11
-162.306666
 21
-81.874766
 31
0.0
  0
LINE
  5
50
100
AcDbEntity
  8
0
370
    -3
  6
Continuous
100
AcDbLine
 10
-282.306666
 20
-86.374766
 30
0.0
 11
-162.306666
 21
-86.374766
 31
0.0
  0
LINE
  5
51
100
AcDbEntity
  8
0
370
    -3
  6
Continuous
100
AcDbLine
 10
-282.306666
 20
-84.874766
 30
0.0
 11
-162.306666
 21
-84.874766
 31
0.0
  0
LINE
  5
52
100
AcDbEntity
  8
0
370
    -3
  6
Continuous
100
AcDbLine
 10
-282.306666
 20
-86.874766
 30
0.0
 11
-162.306666
 21
-86.874766
 31
0.0
  0
LINE
  5
53
100
AcDbEntity
  8
0
370
    -3
  6
Continuous
100
AcDbLine
 10
-282.306666
 20
-77.374766
 30
0.0
 11
-162.306666
 21
-77.374766
 31
0.0
  0
LINE
  5
54
100
AcDbEntity
  8
0
370
    -3
  6
Continuous
100
AcDbLine
 10
-227.409197
 20
-39.374766
 30
0.0
 11
-162.306666
 21
-39.374766
 31
0.0
  0
LINE
  5
55
100
AcDbEntity
  8
0
370
    -3
  6
Continuous
100
AcDbLine
 10
-282.306666
 20
59.425234
 30
0.0
 11
-314.053831
 21
59.425234
 31
0.0
  0
LINE
  5
56
100
AcDbEntity
  8
0
370
    -3
  6
Continuous
100
AcDbLine
 10
-282.306666
 20
59.425234
 30
0.0
 11
-282.306666
 21
31.425234
 31
0.0
  0
LINE
  5
57
100
AcDbEntity
  8
0
370
    -3
  6
Continuous
100
AcDbLine
 10
-282.306666
 20
-90.174766
 30
0.0
 11
-282.306666
 21
-62.174766
 31
0.0
  0
LINE
  5
58
100
AcDbEntity
  8
0
370
    -3
  6
Continuous
100
AcDbLine
 10
-282.306666
 20
40.476855
 30
0.0
 11
-162.306666
 21
40.476855
 31
0.0
  0
LINE
  5
59
100
AcDbEntity
  8
0
370
    -3
  6
Continuous
100
AcDbLine
 10
-282.306666
 20
33.547209
 30
0.0
 11
-162.306666
 21
33.547209
 31
0.0
  0
LINE
  5
5A
100
AcDbEntity
  8
0
370
    -3
  6
Continuous
100
AcDbLine
 10
-282.306666
 20
-64.296741
 30
0.0
 11
-162.306666
 21
-64.296741
 31
0.0
  0
LINE
  5
5B
100
AcDbEntity
  8
0
370
    -3
  6
Continuous
100
AcDbLine
 10
-282.306666
 20
-71.226387
 30
0.0
 11
-162.306666
 21
-71.226387
 31
0.0
  0
LINE
  5
5C
100
AcDbEntity
  8
0
370
    -3
  6
Continuous
100
AcDbLine
 10
-162.306666
 20
-54.774972
 30
0.0
 11
-227.409197
 21
-54.774972
 31
0.0
  0
LINE
  5
5D
100
AcDbEntity
  8
0
370
    -3
  6
Continuous
100
AcDbLine
 10
-162.306666
 20
-55.97456
 30
0.0
 11
-227.409197
 21
-55.97456
 31
0.0
  0
LINE
  5
5E
100
AcDbEntity
  8
0
370
    -3
  6
Continuous
100
AcDbLine
 10
-227.409197
 20
-47.97456
 30
0.0
 11
-162.306666
 21
-47.97456
 31
0.0
  0
LINE
  5
5F
100
AcDbEntity
  8
0
370
    -3
  6
Continuous
100
AcDbLine
 10
-227.409197
 20
-46.774972
 30
0.0
 11
-162.306666
 21
-46.774972
 31
0.0
  0
LINE
  5
60
100
AcDbEntity
  8
0
370
    -3
  6
Continuous
100
AcDbLine
 10
-299.306666
 20
-75.620264
 30
0.0
 11
-301.235871
 21
-76.830926
 31
0.0
  0
LINE
  5
61
100
AcDbEntity
  8
0
370
    -3
  6
Continuous
100
AcDbLine
 10
-299.306666
 20
-75.620264
 30
0.0
 11
-301.306666
 21
-74.046926
 31
0.0
  0
LINE
  5
62
100
AcDbEntity
  8
0
370
    -3
  6
Continuous
100
AcDbLine
 10
-299.306666
 20
-75.620264
 30
0.0
 11
-297.377462
 21
-76.830926
 31
0.0
  0
LINE
  5
63
100
AcDbEntity
  8
0
370
    -3
  6
Continuous
100
AcDbLine
 10
-299.306666
 20
-75.620264
 30
0.0
 11
-297.306666
 21
-74.046926
 31
0.0
  0
ELLIPSE
  5
64
100
AcDbEntity
  8
0
370
    -3
  6
Continuous
100
AcDbEllipse
 10
-299.306666
 20
-73.781786
 30
0.0
 11
4.5
 21
0.0
 31
0.0
210
0.0
220
0.0
230
1.0
 40
0.707107
 41
5.3002993159361305
 42
4.1244786448335855
  0
ELLIPSE
  5
65
100
AcDbEntity
  8
0
370
    -3
  6
Continuous
100
AcDbEllipse
 10
-299.306666
 20
-74.318304
 30
0.0
 11
3.5
 21
0.0
 31
0.0
210
0.0
220
0.0
230
1.0
 40
0.860398
 41
0.0
 42
6.2831853071795862
  0
ELLIPSE
  5
66
100
AcDbEntity
  8
0
370
    -3
  6
Continuous
100
AcDbEllipse
 10
-299.306666
 20
-73.216101
 30
0.0
 11
5.0
 21
0.0
 31
0.0
210
0.0
220
0.0
230
1.0
 40
0.707107
 41
3.1415926535897931
 42
3.8808644805305361
  0
ELLIPSE
  5
67
100
AcDbEntity
  8
0
370
    -3
  6
Continuous
100
AcDbEllipse
 10
-299.306666
 20
-73.216101
 30
0.0
 11
5.0
 21
0.0
 31
0.0
210
0.0
220
0.0
230
1.0
 40
0.707107
 41
5.5439134802390884
 42
0.0
  0
LINE
  5
68
100
AcDbEntity
  8
0
370
    -3
  6
Continuous
100
AcDbLine
 10
-294.806666
 20
-73.781786
 30
0.0
 11
-294.806666
 21
-73.216101
 31
0.0
  0
LINE
  5
69
100
AcDbEntity
  8
0
370
    -3
  6
Continuous
100
AcDbLine
 10
-303.806666
 20
-73.781786
 30
0.0
 11
-303.806666
 21
-73.216101
 31
0.0
  0
ELLIPSE
  5
6A
100
AcDbEntity
  8
0
370
    -3
  6
Continuous
100
AcDbEllipse
 10
-299.306666
 20
-73.216101
 30
0.0
 11
4.5
 21
0.0
 31
0.0
210
0.0
220
0.0
230
1.0
 40
0.707107
 41
0.0
 42
3.1415926535897931
  0
LINE
  5
6B
100
AcDbEntity
  8
0
370
    -3
  6
Continuous
100
AcDbLine
 10
-294.306666
 20
-73.216101
 30
0.0
 11
-294.306666
 21
-72.399498
 31
0.0
  0
LINE
  5
6C
100
AcDbEntity
  8
0
370
    -3
  6
Continuous
100
AcDbLine
 10
-304.306666
 20
-73.216101
 30
0.0
 11
-304.306666
 21
-72.399498
 31
0.0
  0
ELLIPSE
  5
6D
100
AcDbEntity
  8
0
370
    -3
  6
Continuous
100
AcDbEllipse
 10
-299.306666
 20
-72.399498
 30
0.0
 11
5.0
 21
0.0
 31
0.0
210
0.0
220
0.0
230
1.0
 40
0.707107
 41
0.0
 42
3.1415926535897931
  0
INSERT
  5
76
100
AcDbEntity
  8
0
100
AcDbBlockReference
  2
ZU_SYM__USERS_HOME_SYMBOL_POO_SYM_B20_-1
 10
-128.056666
 20
-9.874766
 30
0.0
  0
ARC
  5
77
100
AcDbEntity
  8
0
370
    -3
  6
Continuous
100
AcDbCircle
 10
-131.806666
 20
15.625234
 30
0.0
 40
0.5
100
AcDbArc
 50
270.0
 51
0.0
  0
ARC
  5
78
100
AcDbEntity
  8
0
370
    -3
  6
Continuous
100
AcDbCircle
 10
-131.806666
 20
14.625234
 30
0.0
 40
0.5
100
AcDbArc
 50
90.0
 51
180.0
  0
LINE
  5
79
100
AcDbEntity
  8
0
370
    -3
  6
Continuous
100
AcDbLine
 10
-132.306666
 20
14.625234
 30
0.0
 11
-132.306666
 21
-0.374766
 31
0.0
  0
ARC
  5
7A
100
AcDbEntity
  8
0
370
    -3
  6
Continuous
100
AcDbCircle
 10
-131.806666
 20
-1.374766
 30
0.0
 40
0.5
100
AcDbArc
 50
0.0
 51
90.0
  0
ARC
  5
7B
100
AcDbEntity
  8
0
370
    -3
  6
Continuous
100
AcDbCircle
 10
-131.806666
 20
-0.374766
 30
0.0
 40
0.5
100
AcDbArc
 50
180.0
 51
270.0
  0
ARC
  5
7C
100
AcDbEntity
  8
0
370
    -3
  6
Continuous
100
AcDbCircle
 10
-128.456666
 20
-15.724766
 30
0.0
 40
0.4
100
AcDbArc
 50
270.0
 51
0.0
  0
LINE
  5
7D
100
AcDbEntity
  8
0
370
    -3
  6
Continuous
100
AcDbLine
 10
-130.306666
 20
-16.124766
 30
0.0
 11
-128.456666
 21
-16.124766
 31
0.0
  0
ARC
  5
7E
100
AcDbEntity
  8
0
370
    -3
  6
Continuous
100
AcDbCircle
 10
-130.306666
 20
-17.124766
 30
0.0
 40
1.0
100
AcDbArc
 50
90.0
 51
180.0
  0
LINE
  5
7F
100
AcDbEntity
  8
0
370
    -3
  6
Continuous
100
AcDbLine
 10
-130.306666
 20
-3.624766
 30
0.0
 11
-128.456666
 21
-3.624766
 31
0.0
  0
LINE
  5
80
100
AcDbEntity
  8
0
370
    -3
  6
Continuous
100
AcDbLine
 10
-128.056666
 20
-4.024766
 30
0.0
 11
-128.056666
 21
-15.724766
 31
0.0
  0
ARC
  5
81
100
AcDbEntity
  8
0
370
    -3
  6
Continuous
100
AcDbCircle
 10
-128.456666
 20
-4.024766
 30
0.0
 40
0.4
100
AcDbArc
 50
0.0
 51
90.0
  0
ARC
  5
82
100
AcDbEntity
  8
0
370
    -3
  6
Continuous
100
AcDbCircle
 10
-130.306666
 20
-2.624766
 30
0.0
 40
1.0
100
AcDbArc
 50
180.0
 51
270.0
  0
LINE
  5
83
100
AcDbEntity
  8
0
370
    -3
  6
Continuous
100
AcDbLine
 10
-131.306666
 20
-78.510557
 30
0.0
 11
-131.306666
 21
-14.874766
 31
0.0
  0
LINE
  5
84
100
AcDbEntity
  8
0
370
    -3
  6
Continuous
100
AcDbLine
 10
-131.306666
 20
63.625234
 30
0.0
 11
-131.306666
 21
53.625234
 31
0.0
  0
LINE
  5
85
100
AcDbEntity
  8
0
370
    -3
  6
Continuous
100
AcDbLine
 10
-121.806666
 20
64.625234
 30
0.0
 11
-130.306666
 21
64.625234
 31
0.0
  0
ARC
  5
86
100
AcDbEntity
  8
0
370
    -3
  6
Continuous
100
AcDbCircle
 10
-130.306666
 20
63.625234
 30
0.0
 40
1.0
100
AcDbArc
 50
90.0
 51
180.0
  0
LINE
  5
87
100
AcDbEntity
  8
0
370
    -3
  6
Continuous
100
AcDbLine
 10
-122.306666
 20
-73.708634
 30
0.0
 11
-122.306666
 21
4.625234
 31
0.0
  0
LINE
  5
88
100
AcDbEntity
  8
0
370
    -3
  6
Continuous
100
AcDbLine
 10
-122.306666
 20
64.625234
 30
0.0
 11
-122.306666
 21
4.625234
 31
0.0
  0
LINE
  5
89
100
AcDbEntity
  8
0
370
    -3
  6
Continuous
100
AcDbLine
 10
-131.306666
 20
49.88425
 30
0.0
 11
-131.306666
 21
4.625234
 31
0.0
  0
LINE
  5
8A
100
AcDbEntity
  8
0
370
    -3
  6
Continuous
100
AcDbLine
 10
-131.306666
 20
-4.874766
 30
0.0
 11
-131.306666
 21
4.625234
 31
0.0
  0
LINE
  5
8B
100
AcDbEntity
  8
0
370
    -3
  6
Continuous
100
AcDbLine
 10
-134.056666
 20
43.625234
 30
0.0
 11
-134.056666
 21
53.625234
 31
0.0
  0
LINE
  5
8C
100
AcDbEntity
  8
0
370
    -3
  6
Continuous
100
AcDbLine
 10
-128.056666
 20
53.625234
 30
0.0
 11
-134.056666
 21
53.625234
 31
0.0
  0
ARC
  5
8D
100
AcDbEntity
  8
0
370
    -3
  6
Continuous
100
AcDbCircle
 10
-130.306666
 20
58.014885
 30
0.0
 40
1.0
100
AcDbArc
 50
90.0
 51
180.0
  0
LINE
  5
8E
100
AcDbEntity
  8
0
370
    -3
  6
Continuous
100
AcDbLine
 10
-130.306666
 20
59.014885
 30
0.0
 11
-128.456666
 21
59.014885
 31
0.0
  0
LINE
  5
8F
100
AcDbEntity
  8
0
370
    -3
  6
Continuous
100
AcDbLine
 10
-128.056666
 20
58.614885
 30
0.0
 11
-128.056666
 21
51.28425
 31
0.0
  0
ARC
  5
90
100
AcDbEntity
  8
0
370
    -3
  6
Continuous
100
AcDbCircle
 10
-130.306666
 20
49.88425
 30
0.0
 40
1.0
100
AcDbArc
 50
90.0
 51
180.0
  0
ARC
  5
91
100
AcDbEntity
  8
0
370
    -3
  6
Continuous
100
AcDbCircle
 10
-128.456666
 20
51.28425
 30
0.0
 40
0.4
100
AcDbArc
 50
270.0
 51
0.0
  0
LINE
  5
92
100
AcDbEntity
  8
0
370
    -3
  6
Continuous
100
AcDbLine
 10
-130.306666
 20
50.88425
 30
0.0
 11
-128.456666
 21
50.88425
 31
0.0
  0
ARC
  5
93
100
AcDbEntity
  8
0
370
    -3
  6
Continuous
100
AcDbCircle
 10
-128.456666
 20
58.614885
 30
0.0
 40
0.4
100
AcDbArc
 50
0.0
 51
90.0
  0
LINE
  5
94
100
AcDbEntity
  8
0
370
    -3
  6
Continuous
100
AcDbLine
 10
-131.306666
 20
43.625234
 30
0.0
 11
-134.056666
 21
43.625234
 31
0.0
  0
LINE
  5
95
100
AcDbEntity
  8
0
370
    -3
  6
Continuous
100
AcDbLine
 10
161.664482
 20
1.625234
 30
0.0
 11
167.664482
 21
1.625234
 31
0.0
  0
ARC
  5
96
100
AcDbEntity
  8
0
370
    -3
  6
Continuous
100
AcDbCircle
 10
175.164482
 20
4.625234
 30
0.0
 40
11.0
100
AcDbArc
 50
195.82662
 51
164.17338
  0
LINE
  5
97
100
AcDbEntity
  8
0
370
    -3
  6
Continuous
100
AcDbLine
 10
161.664482
 20
1.625234
 30
0.0
 11
161.664482
 21
7.625234
 31
0.0
  0
LINE
  5
98
100
AcDbEntity
  8
0
370
    -3
  6
Continuous
100
AcDbLine
 10
161.664482
 20
7.625234
 30
0.0
 11
167.664482
 21
7.625234
 31
0.0
  0
LINE
  5
99
100
AcDbEntity
  8
0
370
    -3
  6
Continuous
100
AcDbLine
 10
167.664482
 20
7.625234
 30
0.0
 11
167.664482
 21
1.625234
 31
0.0
  0
CIRCLE
  5
9A
100
AcDbEntity
  8
0
370
    -3
  6
Continuous
100
AcDbCircle
 10
175.164482
 20
4.625234
 30
0.0
 40
3.3235
  0
CIRCLE
  5
9B
100
AcDbEntity
  8
0
370
    -3
  6
Continuous
100
AcDbCircle
 10
175.164482
 20
4.625234
 30
0.0
 40
4.0
  0
LINE
  5
9C
100
AcDbEntity
  8
0
370
    -3
  6
Continuous
100
AcDbLine
 10
90.164482
 20
-83.374766
 30
0.0
 11
90.164482
 21
-95.374766
 31
0.0
  0
LINE
  5
9D
100
AcDbEntity
  8
0
370
    -3
  6
Continuous
100
AcDbLine
 10
235.164482
 20
-95.374766
 30
0.0
 11
260.164482
 21
-95.374766
 31
0.0
  0
LINE
  5
9E
100
AcDbEntity
  8
0
370
    -3
  6
Continuous
100
AcDbLine
 10
115.164482
 20
-95.374766
 30
0.0
 11
90.164482
 21
-95.374766
 31
0.0
  0
CIRCLE
  5
9F
100
AcDbEntity
  8
0
370
    -3
  6
Continuous
100
AcDbCircle
 10
175.164482
 20
4.625234
 30
0.0
 40
22.0
  0
ARC
  5
A0
100
AcDbEntity
  8
0
370
    -3
  6
Continuous
100
AcDbCircle
 10
175.164482
 20
-385.374766
 30
0.0
 40
428.485522
100
AcDbArc
 50
90.0
 51
92.232868
  0
ARC
  5
A1
100
AcDbEntity
  8
0
370
    -3
  6
Continuous
100
AcDbCircle
 10
160.164482
 20
-0.667085
 30
0.0
 40
43.485522
100
AcDbArc
 50
92.232868
 51
180.0
  0
LINE
  5
A2
100
AcDbEntity
  8
0
370
    -3
  6
Continuous
100
AcDbLine
 10
116.67896
 20
-0.667085
 30
0.0
 11
116.67896
 21
-77.374766
 31
0.0
  0
LINE
  5
A3
100
AcDbEntity
  8
0
370
    -3
  6
Continuous
100
AcDbLine
 10
175.164482
 20
-80.374766
 30
0.0
 11
257.164482
 21
-80.374766
 31
0.0
  0
LINE
  5
A4
100
AcDbEntity
  8
0
370
    -3
  6
Continuous
100
AcDbLine
 10
233.650004
 20
-0.667085
 30
0.0
 11
233.650004
 21
-77.374766
 31
0.0
  0
ARC
  5
A5
100
AcDbEntity
  8
0
370
    -3
  6
Continuous
100
AcDbCircle
 10
175.164482
 20
-385.374766
 30
0.0
 40
428.485522
100
AcDbArc
 50
87.767132
 51
90.0
  0
ARC
  5
A6
100
AcDbEntity
  8
0
370
    -3
  6
Continuous
100
AcDbCircle
 10
190.164482
 20
-0.667085
 30
0.0
 40
43.485522
100
AcDbArc
 50
0.0
 51
87.767132
  0
ARC
  5
A7
100
AcDbEntity
  8
0
370
    -3
  6
Continuous
100
AcDbCircle
 10
175.164482
 20
-385.374766
 30
0.0
 40
450.0
100
AcDbArc
 50
90.0
 51
92.232868
  0
ARC
  5
A8
100
AcDbEntity
  8
0
370
    -3
  6
Continuous
100
AcDbCircle
 10
175.164482
 20
-385.374766
 30
0.0
 40
450.0
100
AcDbArc
 50
87.767132
 51
90.0
  0
ARC
  5
A9
100
AcDbEntity
  8
0
370
    -3
  6
Continuous
100
AcDbCircle
 10
190.164482
 20
-0.667085
 30
0.0
 40
65.0
100
AcDbArc
 50
0.0
 51
87.767132
  0
LINE
  5
AA
100
AcDbEntity
  8
0
370
    -3
  6
Continuous
100
AcDbLine
 10
113.339032
 20
-77.374766
 30
0.0
 11
113.339032
 21
4.625234
 31
0.0
  0
LINE
  5
AB
100
AcDbEntity
  8
0
370
    -3
  6
Continuous
100
AcDbLine
 10
249.940931
 20
-77.374766
 30
0.0
 11
249.940931
 21
4.625234
 31
0.0
  0
LINE
  5
AC
100
AcDbEntity
  8
0
370
    -3
  6
Continuous
100
AcDbLine
 10
236.989931
 20
-77.374766
 30
0.0
 11
236.989931
 21
4.625234
 31
0.0
  0
ELLIPSE
  5
AD
100
AcDbEntity
  8
0
370
    -3
  6
Continuous
100
AcDbEllipse
 10
243.465431
 20
4.625234
 30
0.0
 11
0.0
 21
9.9999999999999982
 31
0.0
210
0.0
220
0.0
230
1.0
 40
0.64755
 41
4.7123889327859203
 42
1.5707963267948968
  0
LINE
  5
AE
100
AcDbEntity
  8
0
370
    -3
  6
CENTER
100
AcDbLine
 10
159.852097
 20
-15.374766
 30
0.0
 11
192.250781
 21
-15.374766
 31
0.0
  0
LINE
  5
AF
100
AcDbEntity
  8
0
370
    -3
  6
Continuous
100
AcDbLine
 10
175.164482
 20
-80.374766
 30
0.0
 11
93.164482
 21
-80.374766
 31
0.0
  0
LINE
  5
B0
100
AcDbEntity
  8
0
370
    -3
  6
Continuous
100
AcDbLine
 10
175.164482
 20
-93.374766
 30
0.0
 11
210.550104
 21
-93.374766
 31
0.0
  0
LINE
  5
B1
100
AcDbEntity
  8
0
370
    -3
  6
Continuous
100
AcDbLine
 10
175.164482
 20
-93.374766
 30
0.0
 11
139.77886
 21
-93.374766
 31
0.0
  0
ARC
  5
B2
100
AcDbEntity
  8
0
370
    -3
  6
Continuous
100
AcDbCircle
 10
93.164482
 20
-83.374766
 30
0.0
 40
3.0
100
AcDbArc
 50
90.0
 51
180.0
  0
LINE
  5
B3
100
AcDbEntity
  8
0
370
    -3
  6
Continuous
100
AcDbLine
 10
234.164482
 20
-94.374766
 30
0.0
 11
211.355007
 21
-94.374766
 31
0.0
  0
ARC
  5
B4
100
AcDbEntity
  8
0
370
    -3
  6
Continuous
100
AcDbCircle
 10
217.164482
 20
-88.874766
 30
0.0
 40
8.0
100
AcDbArc
 50
214.228866
 51
223.432537
  0
LINE
  5
B5
100
AcDbEntity
  8
0
370
    -3
  6
Continuous
100
AcDbLine
 10
116.164482
 20
-94.374766
 30
0.0
 11
138.973957
 21
-94.374766
 31
0.0
  0
ARC
  5
B6
100
AcDbEntity
  8
0
370
    -3
  6
Continuous
100
AcDbCircle
 10
133.164482
 20
-88.874766
 30
0.0
 40
8.0
100
AcDbArc
 50
316.567463
 51
325.771134
  0
CIRCLE
  5
B7
100
AcDbEntity
  8
0
370
    -3
  6
Continuous
100
AcDbCircle
 10
175.164482
 20
4.625234
 30
0.0
 40
4.0
  0
LINE
  5
B8
100
AcDbEntity
  8
0
370
    -3
  6
CENTER
100
AcDbLine
 10
175.164482
 20
73.877176
 30
0.0
 11
175.164482
 21
-100.022149
 31
0.0
  0
LINE
  5
B9
100
AcDbEntity
  8
0
370
    -3
  6
CENTER
100
AcDbLine
 10
250.164482
 20
-99.45527
 30
0.0
 11
250.164482
 21
-77.549468
 31
0.0
  0
ARC
  5
BA
100
AcDbEntity
  8
0
370
    -3
  6
Continuous
100
AcDbCircle
 10
116.164482
 20
-95.374766
 30
0.0
 40
1.0
100
AcDbArc
 50
90.0
 51
180.0
  0
ARC
  5
BB
100
AcDbEntity
  8
0
370
    -3
  6
Continuous
100
AcDbCircle
 10
234.164482
 20
-95.374766
 30
0.0
 40
1.0
100
AcDbArc
 50
0.0
 51
90.0
  0
ARC
  5
BC
100
AcDbEntity
  8
0
370
    -3
  6
Continuous
100
AcDbCircle
 10
252.940931
 20
-77.374766
 30
0.0
 40
3.0
100
AcDbArc
 50
180.0
 51
270.0
  0
ARC
  5
BD
100
AcDbEntity
  8
0
370
    -3
  6
Continuous
100
AcDbCircle
 10
239.989931
 20
-77.374766
 30
0.0
 40
3.0
100
AcDbArc
 50
180.0
 51
270.0
  0
ARC
  5
BE
100
AcDbEntity
  8
0
370
    -3
  6
Continuous
100
AcDbCircle
 10
236.650004
 20
-77.374766
 30
0.0
 40
3.0
100
AcDbArc
 50
180.0
 51
270.0
  0
ARC
  5
BF
100
AcDbEntity
  8
0
370
    -3
  6
Continuous
100
AcDbCircle
 10
110.339032
 20
-77.374766
 30
0.0
 40
3.0
100
AcDbArc
 50
270.0
 51
0.0
  0
ARC
  5
C0
100
AcDbEntity
  8
0
370
    -3
  6
Continuous
100
AcDbCircle
 10
113.67896
 20
-77.374766
 30
0.0
 40
3.0
100
AcDbArc
 50
270.0
 51
0.0
  0
LINE
  5
C1
100
AcDbEntity
  8
0
370
    -3
  6
Continuous
100
AcDbLine
 10
175.164482
 20
-72.974766
 30
0.0
 11
130.664482
 21
-72.974766
 31
0.0
  0
LINE
  5
C2
100
AcDbEntity
  8
0
370
    -3
  6
Continuous
100
AcDbLine
 10
123.664482
 20
1.125234
 30
0.0
 11
123.664482
 21
-65.974766
 31
0.0
  0
LINE
  5
C3
100
AcDbEntity
  8
0
370
    -3
  6
Continuous
100
AcDbLine
 10
127.164482
 20
4.625234
 30
0.0
 11
143.728038
 21
4.625234
 31
0.0
  0
ARC
  5
C4
100
AcDbEntity
  8
0
370
    -3
  6
Continuous
100
AcDbCircle
 10
175.164482
 20
4.625234
 30
0.0
 40
29.5
100
AcDbArc
 50
183.640276
 51
270.0
  0
ARC
  5
C5
100
AcDbEntity
  8
0
370
    -3
  6
Continuous
100
AcDbCircle
 10
143.728038
 20
2.625234
 30
0.0
 40
2.0
100
AcDbArc
 50
3.640276
 51
90.0
  0
ARC
  5
C6
100
AcDbEntity
  8
0
370
    -3
  6
Continuous
100
AcDbCircle
 10
127.164482
 20
1.125234
 30
0.0
 40
3.5
100
AcDbArc
 50
90.0
 51
180.0
  0
ARC
  5
C7
100
AcDbEntity
  8
0
370
    -3
  6
Continuous
100
AcDbCircle
 10
130.664482
 20
-65.974766
 30
0.0
 40
7.0
100
AcDbArc
 50
180.0
 51
270.0
  0
ARC
  5
C8
100
AcDbEntity
  8
0
370
    -3
  6
Continuous
100
AcDbCircle
 10
175.164482
 20
4.625234
 30
0.0
 40
29.5
100
AcDbArc
 50
270.0
 51
356.359724
  0
ARC
  5
C9
100
AcDbEntity
  8
0
370
    -3
  6
Continuous
100
AcDbCircle
 10
206.600926
 20
2.625234
 30
0.0
 40
2.0
100
AcDbArc
 50
90.0
 51
176.359724
  0
LINE
  5
CA
100
AcDbEntity
  8
0
370
    -3
  6
Continuous
100
AcDbLine
 10
226.664482
 20
1.125234
 30
0.0
 11
226.664482
 21
-65.974766
 31
0.0
  0
ARC
  5
CB
100
AcDbEntity
  8
0
370
    -3
  6
Continuous
100
AcDbCircle
 10
223.164482
 20
1.125234
 30
0.0
 40
3.5
100
AcDbArc
 50
0.0
 51
90.0
  0
ARC
  5
CC
100
AcDbEntity
  8
0
370
    -3
  6
Continuous
100
AcDbCircle
 10
219.664482
 20
-65.974766
 30
0.0
 40
7.0
100
AcDbArc
 50
270.0
 51
0.0
  0
LINE
  5
CD
100
AcDbEntity
  8
0
370
    -3
  6
Continuous
100
AcDbLine
 10
175.164482
 20
-72.974766
 30
0.0
 11
219.664482
 21
-72.974766
 31
0.0
  0
LINE
  5
CE
100
AcDbEntity
  8
0
370
    -3
  6
Continuous
100
AcDbLine
 10
223.164482
 20
4.625234
 30
0.0
 11
206.600926
 21
4.625234
 31
0.0
  0
CIRCLE
  5
CF
100
AcDbEntity
  8
0
370
    -3
  6
Continuous
100
AcDbCircle
 10
175.164482
 20
4.625234
 30
0.0
 40
19.0
  0
LINE
  5
D0
100
AcDbEntity
  8
0
370
    -3
  6
Continuous
100
AcDbLine
 10
-13.306666
 20
4.625234
 30
0.0
 11
-13.306666
 21
-5.974766
 31
0.0
  0
ARC
  5
D1
100
AcDbEntity
  8
0
370
    -3
  6
Continuous
100
AcDbCircle
 10
-13.706666
 20
-5.974766
 30
0.0
 40
0.4
100
AcDbArc
 50
270.0
 51
0.0
  0
LINE
  5
D2
100
AcDbEntity
  8
0
370
    -3
  6
CENTER
100
AcDbLine
 10
-11.306666
 20
4.625234
 30
0.0
 11
-13.306666
 21
4.625234
 31
0.0
  0
LINE
  5
D3
100
AcDbEntity
  8
0
370
    -3
  6
CENTER
100
AcDbLine
 10
-11.306666
 20
4.625234
 30
0.0
 11
-13.306666
 21
4.625234
 31
0.0
  0
LINE
  5
D4
100
AcDbEntity
  8
0
370
    -3
  6
Continuous
100
AcDbLine
 10
-51.306666
 20
-7.374766
 30
0.0
 11
-49.706666
 21
-7.374766
 31
0.0
  0
LINE
  5
D5
100
AcDbEntity
  8
0
370
    -3
  6
Continuous
100
AcDbLine
 10
-47.306666
 20
-6.224766
 30
0.0
 11
-48.506666
 21
-6.224766
 31
0.0
  0
LINE
  5
D6
100
AcDbEntity
  8
0
370
    -3
  6
Continuous
100
AcDbLine
 10
-46.746859
 20
-6.374766
 30
0.0
 11
-47.306666
 21
-6.224766
 31
0.0
  0
LINE
  5
D7
100
AcDbEntity
  8
0
370
    -3
  6
Continuous
100
AcDbLine
 10
-49.306666
 20
-6.974766
 30
0.0
 11
-49.706666
 21
-7.374766
 31
0.0
  0
LINE
  5
D8
100
AcDbEntity
  8
0
370
    -3
  6
Continuous
100
AcDbLine
 10
-13.706666
 20
-6.374766
 30
0.0
 11
-46.746859
 21
-6.374766
 31
0.0
  0
ARC
  5
D9
100
AcDbEntity
  8
0
370
    -3
  6
Continuous
100
AcDbCircle
 10
-48.506666
 20
-7.024766
 30
0.0
 40
0.8
100
AcDbArc
 50
90.0
 51
176.296803
  0
LINE
  5
DA
100
AcDbEntity
  8
0
370
    -3
  6
Continuous
100
AcDbLine
 10
-47.306666
 20
-6.224766
 30
0.0
 11
-48.506666
 21
-6.224766
 31
0.0
  0
LINE
  5
DB
100
AcDbEntity
  8
0
370
    -3
  6
Continuous
100
AcDbLine
 10
-46.746859
 20
-6.374766
 30
0.0
 11
-47.306666
 21
-6.224766
 31
0.0
  0
LINE
  5
DC
100
AcDbEntity
  8
0
370
    -3
  6
Continuous
100
AcDbLine
 10
-49.306666
 20
-6.974766
 30
0.0
 11
-49.706666
 21
-7.374766
 31
0.0
  0
LINE
  5
DD
100
AcDbEntity
  8
0
370
    -3
  6
Continuous
100
AcDbLine
 10
-13.706666
 20
-6.374766
 30
0.0
 11
-46.746859
 21
-6.374766
 31
0.0
  0
LINE
  5
DE
100
AcDbEntity
  8
0
370
    -3
  6
Continuous
100
AcDbLine
 10
-51.306666
 20
-7.374766
 30
0.0
 11
-49.706666
 21
-7.374766
 31
0.0
  0
LINE
  5
DF
100
AcDbEntity
  8
0
370
    -3
  6
Continuous
100
AcDbLine
 10
-13.306666
 20
1.625234
 30
0.0
 11
-42.306666
 21
1.625234
 31
0.0
  0
LINE
  5
E0
100
AcDbEntity
  8
0
370
    -3
  6
Continuous
100
AcDbLine
 10
-13.306666
 20
7.625234
 30
0.0
 11
-42.306666
 21
7.625234
 31
0.0
  0
ARC
  5
E1
100
AcDbEntity
  8
0
370
    -3
  6
Continuous
100
AcDbCircle
 10
-42.306666
 20
4.625234
 30
0.0
 40
3.0
100
AcDbArc
 50
90.0
 51
270.0
  0
LINE
  5
E2
100
AcDbEntity
  8
0
370
    -3
  6
Continuous
100
AcDbLine
 10
-49.306666
 20
4.625234
 30
0.0
 11
-49.306666
 21
-6.974766
 31
0.0
  0
LINE
  5
E3
100
AcDbEntity
  8
0
370
    -3
  6
Continuous
100
AcDbLine
 10
-51.306666
 20
-83.322858
 30
0.0
 11
-51.306666
 21
-94.874766
 31
0.0
  0
LINE
  5
E4
100
AcDbEntity
  8
0
370
    -3
  6
Continuous
100
AcDbLine
 10
-53.306666
 20
-95.374766
 30
0.0
 11
-158.306666
 21
-95.374766
 31
0.0
  0
LINE
  5
E5
100
AcDbEntity
  8
0
370
    -3
  6
Continuous
100
AcDbLine
 10
-76.305807
 20
4.625234
 30
0.0
 11
-76.305807
 21
-76.990313
 31
0.0
  0
LINE
  5
E6
100
AcDbEntity
  8
0
370
    -3
  6
Continuous
100
AcDbLine
 10
-56.305807
 20
4.625234
 30
0.0
 11
-56.305807
 21
-77.406923
 31
0.0
  0
ARC
  5
E7
100
AcDbEntity
  8
0
370
    -3
  6
Continuous
100
AcDbCircle
 10
-66.305807
 20
4.625234
 30
0.0
 40
10.0
100
AcDbArc
 50
0.0
 51
180.0
  0
LINE
  5
E8
100
AcDbEntity
  8
0
370
    -3
  6
Continuous
100
AcDbLine
 10
-53.306666
 20
4.625234
 30
0.0
 11
-53.306666
 21
-79.858756
 31
0.0
  0
LINE
  5
E9
100
AcDbEntity
  8
0
370
    -3
  6
Continuous
100
AcDbLine
 10
-53.306666
 20
42.576785
 30
0.0
 11
-53.306666
 21
4.625234
 31
0.0
  0
LINE
  5
EA
100
AcDbEntity
  8
0
370
    -3
  6
Continuous
100
AcDbLine
 10
-54.254309
 20
-80.323315
 30
0.0
 11
-119.806666
 21
-79.179094
 31
0.0
  0
ARC
  5
EB
100
AcDbEntity
  8
0
370
    -3
  6
Continuous
100
AcDbCircle
 10
-54.306666
 20
-83.322858
 30
0.0
 40
3.0
100
AcDbArc
 50
0.0
 51
89.0
  0
ARC
  5
EC
100
AcDbEntity
  8
0
370
    -3
  6
Continuous
100
AcDbCircle
 10
-121.806666
 20
-71.174992
 30
0.0
 40
2.0
100
AcDbArc
 50
298.08202
 51
0.0
  0
LINE
  5
ED
100
AcDbEntity
  8
0
370
    -3
  6
Continuous
100
AcDbLine
 10
-120.865196
 20
-72.939542
 30
0.0
 11
-132.686079
 21
-79.246539
 31
0.0
  0
LINE
  5
EE
100
AcDbEntity
  8
0
370
    -3
  6
CENTER
100
AcDbLine
 10
-63.306666
 20
-79.42054
 30
0.0
 11
-63.306666
 21
-98.708384
 31
0.0
  0
LINE
  5
EF
100
AcDbEntity
  8
0
370
    -3
  6
CENTER
100
AcDbLine
 10
-148.306666
 20
-102.208384
 30
0.0
 11
-148.306666
 21
-74.593392
 31
0.0
  0
LINE
  5
F0
100
AcDbEntity
  8
0
370
    -3
  6
Continuous
100
AcDbLine
 10
-121.806666
 20
64.625234
 30
0.0
 11
-99.806424
 21
64.241218
 31
0.0
  0
ARC
  5
F1
100
AcDbEntity
  8
0
370
    -3
  6
Continuous
100
AcDbCircle
 10
-101.045545
 20
-0.747054
 30
0.0
 40
65.0
100
AcDbArc
 50
43.446739
 51
89.0
  0
ARC
  5
F2
100
AcDbEntity
  8
0
370
    -3
  6
Continuous
100
AcDbCircle
 10
-55.306666
 20
42.576785
 30
0.0
 40
2.0
100
AcDbArc
 50
0.0
 51
43.446739
  0
ARC
  5
F3
100
AcDbEntity
  8
0
370
    -3
  6
Continuous
100
AcDbCircle
 10
-52.306666
 20
27.625234
 30
0.0
 40
1.0
100
AcDbArc
 50
180.0
 51
270.0
  0
ARC
  5
F4
100
AcDbEntity
  8
0
370
    -3
  6
Continuous
100
AcDbCircle
 10
-52.306666
 20
25.625234
 30
0.0
 40
1.0
100
AcDbArc
 50
0.0
 51
90.0
  0
LINE
  5
F5
100
AcDbEntity
  8
0
370
    -3
  6
Continuous
100
AcDbLine
 10
-51.306666
 20
4.625234
 30
0.0
 11
-51.306666
 21
25.625234
 31
0.0
  0
ARC
  5
F6
100
AcDbEntity
  8
0
370
    -3
  6
Continuous
100
AcDbCircle
 10
-52.306666
 20
-18.374766
 30
0.0
 40
1.0
100
AcDbArc
 50
90.0
 51
180.0
  0
ARC
  5
F7
100
AcDbEntity
  8
0
370
    -3
  6
Continuous
100
AcDbCircle
 10
-52.306666
 20
-16.374766
 30
0.0
 40
1.0
100
AcDbArc
 50
270.0
 51
0.0
  0
LINE
  5
F8
100
AcDbEntity
  8
0
370
    -3
  6
Continuous
100
AcDbLine
 10
-51.306666
 20
4.625234
 30
0.0
 11
-51.306666
 21
-16.374766
 31
0.0
  0
LINE
  5
F9
100
AcDbEntity
  8
0
370
    -3
  6
Continuous
100
AcDbLine
 10
-119.806666
 20
-71.174992
 30
0.0
 11
-119.806666
 21
-54.000272
 31
0.0
  0
ARC
  5
FA
100
AcDbEntity
  8
0
370
    -3
  6
Continuous
100
AcDbCircle
 10
-121.806666
 20
-54.000272
 30
0.0
 40
2.0
100
AcDbArc
 50
0.0
 51
88.5
  0
LINE
  5
FB
100
AcDbEntity
  8
0
370
    -3
  6
Continuous
100
AcDbLine
 10
-121.806666
 20
-73.44186
 30
0.0
 11
-121.806666
 21
2.625234
 31
0.0
  0
LINE
  5
FC
100
AcDbEntity
  8
0
370
    -3
  6
Continuous
100
AcDbLine
 10
-121.806666
 20
64.625234
 30
0.0
 11
-121.806666
 21
2.625234
 31
0.0
  0
LINE
  5
FD
100
AcDbEntity
  8
0
370
    -3
  6
CENTER
100
AcDbLine
 10
-9.54172
 20
4.625234
 30
0.0
 11
-72.214277
 21
4.625234
 31
0.0
  0
LINE
  5
FE
100
AcDbEntity
  8
0
370
    -3
  6
Continuous
100
AcDbLine
 10
-51.306666
 20
16.625234
 30
0.0
 11
-49.706666
 21
16.625234
 31
0.0
  0
LINE
  5
FF
100
AcDbEntity
  8
0
370
    -3
  6
Continuous
100
AcDbLine
 10
-49.306666
 20
4.625234
 30
0.0
 11
-49.306666
 21
16.225234
 31
0.0
  0
LINE
  5
100
100
AcDbEntity
  8
0
370
    -3
  6
Continuous
100
AcDbLine
 10
-47.306666
 20
15.475234
 30
0.0
 11
-48.506666
 21
15.475234
 31
0.0
  0
LINE
  5
101
100
AcDbEntity
  8
0
370
    -3
  6
Continuous
100
AcDbLine
 10
-46.746859
 20
15.625234
 30
0.0
 11
-47.306666
 21
15.475234
 31
0.0
  0
LINE
  5
102
100
AcDbEntity
  8
0
370
    -3
  6
Continuous
100
AcDbLine
 10
-49.306666
 20
16.225234
 30
0.0
 11
-49.706666
 21
16.625234
 31
0.0
  0
ARC
  5
103
100
AcDbEntity
  8
0
370
    -3
  6
Continuous
100
AcDbCircle
 10
-52.306666
 20
-79.858756
 30
0.0
 40
1.0
100
AcDbArc
 50
180.0
 51
240.0
  0
LINE
  5
104
100
AcDbEntity
  8
0
370
    -3
  6
Continuous
100
AcDbLine
 10
-158.306666
 20
-95.374766
 30
0.0
 11
-158.306666
 21
-94.874766
 31
0.0
  0
LINE
  5
105
100
AcDbEntity
  8
0
370
    -3
  6
Continuous
100
AcDbLine
 10
-158.306666
 20
-94.874766
 30
0.0
 11
-160.306666
 21
-94.874766
 31
0.0
  0
LINE
  5
106
100
AcDbEntity
  8
0
370
    -3
  6
Continuous
100
AcDbLine
 10
-53.306666
 20
-94.874766
 30
0.0
 11
-53.306666
 21
-95.374766
 31
0.0
  0
LINE
  5
107
100
AcDbEntity
  8
0
370
    -3
  6
Continuous
100
AcDbLine
 10
-51.306666
 20
-94.874766
 30
0.0
 11
-53.306666
 21
-94.874766
 31
0.0
  0
ARC
  5
108
100
AcDbEntity
  8
0
370
    -3
  6
Continuous
100
AcDbCircle
 10
-48.506666
 20
16.275234
 30
0.0
 40
0.8
100
AcDbArc
 50
183.703197
 51
270.0
  0
ARC
  5
109
100
AcDbEntity
  8
0
370
    -3
  6
Continuous
100
AcDbCircle
 10
-73.305807
 20
-76.990313
 30
0.0
 40
3.0
100
AcDbArc
 50
180.0
 51
269.0
  0
ARC
  5
10A
100
AcDbEntity
  8
0
370
    -3
  6
Continuous
100
AcDbCircle
 10
-53.305807
 20
-77.406923
 30
0.0
 40
3.0
100
AcDbArc
 50
180.0
 51
260.39761
  0
ARC
  5
10B
100
AcDbEntity
  8
0
370
    -3
  6
Continuous
100
AcDbCircle
 10
-134.098284
 20
-76.599715
 30
0.0
 40
3.0
100
AcDbArc
 50
271.691039
 51
298.08202
  0
LINE
  5
10C
100
AcDbEntity
  8
0
370
    -3
  6
Continuous
100
AcDbLine
 10
-47.306666
 20
15.475234
 30
0.0
 11
-48.506666
 21
15.475234
 31
0.0
  0
LINE
  5
10D
100
AcDbEntity
  8
0
370
    -3
  6
Continuous
100
AcDbLine
 10
-46.746859
 20
15.625234
 30
0.0
 11
-47.306666
 21
15.475234
 31
0.0
  0
LINE
  5
10E
100
AcDbEntity
  8
0
370
    -3
  6
Continuous
100
AcDbLine
 10
-49.306666
 20
16.225234
 30
0.0
 11
-49.706666
 21
16.625234
 31
0.0
  0
LINE
  5
10F
100
AcDbEntity
  8
0
370
    -3
  6
Continuous
100
AcDbLine
 10
-51.306666
 20
16.625234
 30
0.0
 11
-49.706666
 21
16.625234
 31
0.0
  0
LINE
  5
110
100
AcDbEntity
  8
0
370
    -3
  6
Continuous
100
AcDbLine
 10
-13.306666
 20
4.625234
 30
0.0
 11
-13.306666
 21
15.225234
 31
0.0
  0
ARC
  5
111
100
AcDbEntity
  8
0
370
    -3
  6
Continuous
100
AcDbCircle
 10
-13.706666
 20
15.225234
 30
0.0
 40
0.4
100
AcDbArc
 50
0.0
 51
90.0
  0
LINE
  5
112
100
AcDbEntity
  8
0
370
    -3
  6
Continuous
100
AcDbLine
 10
-13.706666
 20
15.625234
 30
0.0
 11
-46.746859
 21
15.625234
 31
0.0
  0
LINE
  5
113
100
AcDbEntity
  8
0
370
    -3
  6
Continuous
100
AcDbLine
 10
-13.706666
 20
15.625234
 30
0.0
 11
-46.746859
 21
15.625234
 31
0.0
  0
LINE
  5
114
100
AcDbEntity
  8
0
370
    -3
  6
Continuous
100
AcDbLine
 10
-131.306666
 20
-56.224035
 30
0.0
 11
-162.306666
 21
-56.224035
 31
0.0
  0
LINE
  5
115
100
AcDbEntity
  8
0
370
    -3
  6
Continuous
100
AcDbLine
 10
-131.306666
 20
-54.575408
 30
0.0
 11
-162.306666
 21
-54.575408
 31
0.0
  0
LINE
  5
116
100
AcDbEntity
  8
0
370
    -3
  6
Continuous
100
AcDbLine
 10
-162.306666
 20
-15.374766
 30
0.0
 11
-162.306666
 21
-86.874766
 31
0.0
  0
LINE
  5
117
100
AcDbEntity
  8
0
370
    -3
  6
Continuous
100
AcDbLine
 10
-131.306666
 20
23.825876
 30
0.0
 11
-162.306666
 21
23.825876
 31
0.0
  0
LINE
  5
118
100
AcDbEntity
  8
0
370
    -3
  6
Continuous
100
AcDbLine
 10
-131.306666
 20
25.474503
 30
0.0
 11
-162.306666
 21
25.474503
 31
0.0
  0
LINE
  5
119
100
AcDbEntity
  8
0
370
    -3
  6
Continuous
100
AcDbLine
 10
-162.306666
 20
-15.374766
 30
0.0
 11
-162.306666
 21
56.125234
 31
0.0
  0
LINE
  5
11A
100
AcDbEntity
  8
0
370
    -3
  6
CENTER
100
AcDbLine
 10
-178.086344
 20
-15.374766
 30
0.0
 11
-394.639703
 21
-15.374766
 31
0.0
  0
ARC
  5
11B
100
AcDbEntity
  8
0
370
    -3
  6
Continuous
100
AcDbCircle
 10
-157.306666
 20
-83.287505
 30
0.0
 40
3.0
100
AcDbArc
 50
91.691039
 51
180.0
  0
LINE
  5
11C
100
AcDbEntity
  8
0
370
    -3
  6
Continuous
100
AcDbLine
 10
-157.395196
 20
-80.288811
 30
0.0
 11
-119.806666
 21
-79.179094
 31
0.0
  0
LINE
  5
11D
100
AcDbEntity
  8
0
370
    -3
  6
Continuous
100
AcDbLine
 10
-160.306666
 20
-94.874766
 30
0.0
 11
-160.306666
 21
-83.287505
 31
0.0
  0
LINE
  5
11E
100
AcDbEntity
  8
0
370
    -3
  6
Continuous
100
AcDbLine
 10
-162.306666
 20
-15.374766
 30
0.0
 11
-162.306666
 21
-80.374766
 31
0.0
  0
LINE
  5
11F
100
AcDbEntity
  8
0
370
    -3
  6
Continuous
100
AcDbLine
 10
-162.306666
 20
-15.374766
 30
0.0
 11
-162.306666
 21
49.625234
 31
0.0
  0
ARC
  5
120
100
AcDbEntity
  8
0
370
    -3
  6
Continuous
100
AcDbCircle
 10
97.388032
 20
-77.374766
 30
0.0
 40
3.0
100
AcDbArc
 50
270.0
 51
0.0
  0
ARC
  5
121
100
AcDbEntity
  8
0
370
    -3
  6
Continuous
100
AcDbCircle
 10
92.164482
 20
-77.458686
 30
0.0
 40
3.0
100
AcDbArc
 50
279.594068
 51
0.0
  0
LINE
  5
122
100
AcDbEntity
  8
0
370
    -3
  6
CENTER
100
AcDbLine
 10
100.164482
 20
-99.45527
 30
0.0
 11
100.164482
 21
-77.370228
 31
0.0
  0
LINE
  5
123
100
AcDbEntity
  8
0
370
    -3
  6
Continuous
100
AcDbLine
 10
100.388032
 20
-77.374766
 30
0.0
 11
100.388032
 21
4.625234
 31
0.0
  0
ELLIPSE
  5
124
100
AcDbEntity
  8
0
370
    -3
  6
Continuous
100
AcDbEllipse
 10
106.863532
 20
4.625234
 30
0.0
 11
0.0
 21
9.9999999999999982
 31
0.0
210
0.0
220
0.0
230
1.0
 40
0.64755
 41
4.7123889803846897
 42
1.5707963743936659
  0
ARC
  5
125
100
AcDbEntity
  8
0
370
    -3
  6
Continuous
100
AcDbCircle
 10
160.164482
 20
-0.667085
 30
0.0
 40
65.0
100
AcDbArc
 50
92.232868
 51
180.0
  0
LINE
  5
126
100
AcDbEntity
  8
0
370
    -3
  6
Continuous
100
AcDbLine
 10
95.164482
 20
-0.667085
 30
0.0
 11
95.164482
 21
-77.458686
 31
0.0
  0
LINE
  5
127
100
AcDbEntity
  8
0
370
    -3
  6
Continuous
100
AcDbLine
 10
-162.306666
 20
55.625234
 30
0.0
 11
-131.306666
 21
55.625234
 31
0.0
  0
LINE
  5
128
100
AcDbEntity
  8
0
370
    -3
  6
Continuous
100
AcDbLine
 10
-162.306666
 20
54.125234
 30
0.0
 11
-131.306666
 21
54.125234
 31
0.0
  0
LINE
  5
129
100
AcDbEntity
  8
0
370
    -3
  6
Continuous
100
AcDbLine
 10
-162.306666
 20
51.125234
 30
0.0
 11
-134.056666
 21
51.125234
 31
0.0
  0
LINE
  5
12A
100
AcDbEntity
  8
0
370
    -3
  6
Continuous
100
AcDbLine
 10
-162.306666
 20
46.625234
 30
0.0
 11
-134.056666
 21
46.625234
 31
0.0
  0
LINE
  5
12B
100
AcDbEntity
  8
0
370
    -3
  6
Continuous
100
AcDbLine
 10
-162.306666
 20
40.211033
 30
0.0
 11
-131.306666
 21
40.211033
 31
0.0
  0
LINE
  5
12C
100
AcDbEntity
  8
0
370
    -3
  6
Continuous
100
AcDbLine
 10
-162.306666
 20
33.847072
 30
0.0
 11
-131.306666
 21
33.847072
 31
0.0
  0
LINE
  5
12D
100
AcDbEntity
  8
0
370
    -3
  6
Continuous
100
AcDbLine
 10
-162.306666
 20
17.468006
 30
0.0
 11
-131.306666
 21
17.468006
 31
0.0
  0
LINE
  5
12E
100
AcDbEntity
  8
0
370
    -3
  6
Continuous
100
AcDbLine
 10
-162.306666
 20
15.835278
 30
0.0
 11
-131.306666
 21
15.835278
 31
0.0
  0
LINE
  5
12F
100
AcDbEntity
  8
0
370
    -3
  6
Continuous
100
AcDbLine
 10
-162.306666
 20
-39.374766
 30
0.0
 11
-131.306666
 21
-39.374766
 31
0.0
  0
LINE
  5
130
100
AcDbEntity
  8
0
370
    -3
  6
Continuous
100
AcDbLine
 10
-162.306666
 20
-46.58481
 30
0.0
 11
-131.306666
 21
-46.58481
 31
0.0
  0
LINE
  5
131
100
AcDbEntity
  8
0
370
    -3
  6
Continuous
100
AcDbLine
 10
-162.306666
 20
-48.217538
 30
0.0
 11
-131.306666
 21
-48.217538
 31
0.0
  0
LINE
  5
132
100
AcDbEntity
  8
0
370
    -3
  6
Continuous
100
AcDbLine
 10
-162.306666
 20
-64.596604
 30
0.0
 11
-131.306666
 21
-64.596604
 31
0.0
  0
LINE
  5
133
100
AcDbEntity
  8
0
370
    -3
  6
Continuous
100
AcDbLine
 10
-162.306666
 20
-70.960566
 30
0.0
 11
-131.306666
 21
-70.960566
 31
0.0
  0
LINE
  5
134
100
AcDbEntity
  8
0
370
    -3
  6
Continuous
100
AcDbLine
 10
-162.306666
 20
-77.374766
 30
0.0
 11
-131.306666
 21
-77.374766
 31
0.0
  0
LINE
  5
135
100
AcDbEntity
  8
0
370
    -3
  6
Continuous
100
AcDbLine
 10
-162.306666
 20
-81.874766
 30
0.0
 11
-159.953205
 21
-81.874766
 31
0.0
  0
LINE
  5
136
100
AcDbEntity
  8
0
370
    -3
  6
Continuous
100
AcDbLine
 10
-162.306666
 20
-84.874766
 30
0.0
 11
-160.306666
 21
-84.874766
 31
0.0
  0
LINE
  5
137
100
AcDbEntity
  8
0
370
    -3
  6
Continuous
100
AcDbLine
 10
-162.306666
 20
8.625234
 30
0.0
 11
-132.306666
 21
8.625234
 31
0.0
  0
LINE
  5
138
100
AcDbEntity
  8
0
370
    -3
  6
Continuous
100
AcDbLine
 10
-162.306666
 20
-86.374766
 30
0.0
 11
-160.306666
 21
-86.374766
 31
0.0
  0
LINE
  5
139
100
AcDbEntity
  8
0
370
    -3
  6
CENTER
100
AcDbLine
 10
93.586241
 20
4.625234
 30
0.0
 11
249.940931
 21
4.625234
 31
0.0
  0
LINE
  5
13A
100
AcDbEntity
  8
0
370
    -3
  6
Continuous
100
AcDbLine
 10
260.164482
 20
-83.374766
 30
0.0
 11
260.164482
 21
-95.374766
 31
0.0
  0
LINE
  5
13B
100
AcDbEntity
  8
0
370
    -3
  6
Continuous
100
AcDbLine
 10
255.164482
 20
-0.667085
 30
0.0
 11
255.164482
 21
-77.458686
 31
0.0
  0
ARC
  5
13C
100
AcDbEntity
  8
0
370
    -3
  6
Continuous
100
AcDbCircle
 10
257.164482
 20
-83.374766
 30
0.0
 40
3.0
100
AcDbArc
 50
0.0
 51
90.0
  0
ARC
  5
13D
100
AcDbEntity
  8
0
370
    -3
  6
Continuous
100
AcDbCircle
 10
258.164482
 20
-77.458686
 30
0.0
 40
3.0
100
AcDbArc
 50
180.0
 51
260.405932
  0
ARC
  5
13E
100
AcDbEntity
  8
0
370
    -3
  6
Continuous
100
AcDbCircle
 10
-53.306666
 20
161.572334
 30
0.0
 40
2.0
100
AcDbArc
 50
271.0
 51
0.0
  0
ARC
  5
13F
100
AcDbEntity
  8
0
370
    -3
  6
Continuous
100
AcDbCircle
 10
-158.306666
 20
161.548765
 30
0.0
 40
2.0
100
AcDbArc
 50
180.0
 51
268.308961
  0
ARC
  5
140
100
AcDbEntity
  8
0
370
    -3
  6
Continuous
100
AcDbCircle
 10
-158.306666
 20
327.665113
 30
0.0
 40
2.0
100
AcDbArc
 50
91.691039
 51
180.0
  0
ARC
  5
141
100
AcDbEntity
  8
0
370
    -3
  6
Continuous
100
AcDbCircle
 10
-53.306666
 20
327.641544
 30
0.0
 40
2.0
100
AcDbArc
 50
0.0
 51
89.0
  0
LINE
  5
142
100
AcDbEntity
  8
0
370
    -3
  6
Continuous
100
AcDbLine
 10
-121.806666
 20
164.598821
 30
0.0
 11
-121.806666
 21
245.106939
 31
0.0
  0
LINE
  5
143
100
AcDbEntity
  8
0
370
    -3
  6
Continuous
100
AcDbLine
 10
-121.806666
 20
324.615057
 30
0.0
 11
-121.806666
 21
244.106939
 31
0.0
  0
LINE
  5
144
100
AcDbEntity
  8
0
370
    -3
  6
Continuous
100
AcDbLine
 10
-51.306666
 20
327.641544
 30
0.0
 11
-51.306666
 21
244.606939
 31
0.0
  0
LINE
  5
145
100
AcDbEntity
  8
0
370
    -3
  6
Continuous
100
AcDbLine
 10
-53.271762
 20
329.64124
 30
0.0
 11
-119.806666
 21
330.802611
 31
0.0
  0
LINE
  5
146
100
AcDbEntity
  8
0
370
    -3
  6
Continuous
100
AcDbLine
 10
-53.271762
 20
159.572638
 30
0.0
 11
-119.806666
 21
158.411267
 31
0.0
  0
LINE
  5
147
100
AcDbEntity
  8
0
370
    -3
  6
Continuous
100
AcDbLine
 10
-51.306666
 20
161.572334
 30
0.0
 11
-51.306666
 21
244.606939
 31
0.0
  0
LINE
  5
148
100
AcDbEntity
  8
0
370
    -3
  6
Continuous
100
AcDbLine
 10
-158.365686
 20
159.549636
 30
0.0
 11
-119.806666
 21
158.411267
 31
0.0
  0
LINE
  5
149
100
AcDbEntity
  8
0
370
    -3
  6
Continuous
100
AcDbLine
 10
-160.306666
 20
161.548765
 30
0.0
 11
-160.306666
 21
173.106939
 31
0.0
  0
LINE
  5
14A
100
AcDbEntity
  8
0
370
    -3
  6
Continuous
100
AcDbLine
 10
-158.365686
 20
329.664242
 30
0.0
 11
-119.806666
 21
330.802611
 31
0.0
  0
LINE
  5
14B
100
AcDbEntity
  8
0
370
    -3
  6
Continuous
100
AcDbLine
 10
-160.306666
 20
327.665113
 30
0.0
 11
-160.306666
 21
316.106939
 31
0.0
  0
LINE
  5
14C
100
AcDbEntity
  8
0
370
    -3
  6
Continuous
100
AcDbLine
 10
-53.306666
 20
302.667251
 30
0.0
 11
-53.306666
 21
244.606939
 31
0.0
  0
ARC
  5
14D
100
AcDbEntity
  8
0
370
    -3
  6
Continuous
100
AcDbCircle
 10
-100.94083
 20
259.233128
 30
0.0
 40
65.0
100
AcDbArc
 50
43.585048
 51
45.930861
  0
ARC
  5
14E
100
AcDbEntity
  8
0
370
    -3
  6
Continuous
100
AcDbCircle
 10
-57.122699
 20
304.498693
 30
0.0
 40
2.0
100
AcDbArc
 50
45.930861
 51
89.0
  0
LINE
  5
14F
100
AcDbEntity
  8
0
370
    -3
  6
Continuous
100
AcDbLine
 10
-63.76036
 20
306.614858
 30
0.0
 11
-57.087794
 21
306.498388
 31
0.0
  0
CIRCLE
  5
150
100
AcDbEntity
  8
0
370
    -3
  6
Continuous
100
AcDbCircle
 10
-63.306666
 20
319.606939
 30
0.0
 40
5.0
  0
CIRCLE
  5
151
100
AcDbEntity
  8
0
370
    -3
  6
Continuous
100
AcDbCircle
 10
-148.306666
 20
319.606939
 30
0.0
 40
5.0
  0
LINE
  5
152
100
AcDbEntity
  8
0
370
    -3
  6
CENTER
100
AcDbLine
 10
-53.035021
 20
319.606939
 30
0.0
 11
-72.798272
 21
319.606939
 31
0.0
  0
LINE
  5
153
100
AcDbEntity
  8
0
370
    -3
  6
CENTER
100
AcDbLine
 10
-63.306666
 20
329.606939
 30
0.0
 11
-63.306666
 21
309.015627
 31
0.0
  0
LINE
  5
154
100
AcDbEntity
  8
0
370
    -3
  6
CENTER
100
AcDbLine
 10
-138.035021
 20
319.606939
 30
0.0
 11
-157.798272
 21
319.606939
 31
0.0
  0
LINE
  5
155
100
AcDbEntity
  8
0
370
    -3
  6
CENTER
100
AcDbLine
 10
-148.306666
 20
329.606939
 30
0.0
 11
-148.306666
 21
309.015627
 31
0.0
  0
ARC
  5
156
100
AcDbEntity
  8
0
370
    -3
  6
Continuous
100
AcDbCircle
 10
-55.306666
 20
302.667251
 30
0.0
 40
2.0
100
AcDbArc
 50
0.0
 51
43.585048
  0
ARC
  5
157
100
AcDbEntity
  8
0
370
    -3
  6
Continuous
100
AcDbCircle
 10
-101.045545
 20
259.234042
 30
0.0
 40
65.0
100
AcDbArc
 50
68.753041
 51
88.907895
  0
ARC
  5
158
100
AcDbEntity
  8
0
370
    -3
  6
Continuous
100
AcDbCircle
 10
-63.306666
 20
319.606939
 30
0.0
 40
13.0
100
AcDbArc
 50
186.33526
 51
270.0
  0
ARC
  5
159
100
AcDbEntity
  8
0
370
    -3
  6
Continuous
100
AcDbCircle
 10
-78.215065
 20
317.951749
 30
0.0
 40
2.0
100
AcDbArc
 50
6.33526
 51
68.753041
  0
LINE
  5
15A
100
AcDbEntity
  8
0
370
    -3
  6
CENTER
100
AcDbLine
 10
-0.605465
 20
244.606939
 30
0.0
 11
-369.350118
 21
244.606939
 31
0.0
  0
LINE
  5
15B
100
AcDbEntity
  8
0
370
    -3
  6
Continuous
100
AcDbLine
 10
-53.306666
 20
186.546627
 30
0.0
 11
-53.306666
 21
244.606939
 31
0.0
  0
ARC
  5
15C
100
AcDbEntity
  8
0
370
    -3
  6
Continuous
100
AcDbCircle
 10
-100.94083
 20
229.98075
 30
0.0
 40
65.0
100
AcDbArc
 50
314.069139
 51
316.414952
  0
ARC
  5
15D
100
AcDbEntity
  8
0
370
    -3
  6
Continuous
100
AcDbCircle
 10
-57.122699
 20
184.715185
 30
0.0
 40
2.0
100
AcDbArc
 50
271.0
 51
314.069139
  0
LINE
  5
15E
100
AcDbEntity
  8
0
370
    -3
  6
Continuous
100
AcDbLine
 10
-63.76036
 20
182.59902
 30
0.0
 11
-57.087794
 21
182.71549
 31
0.0
  0
CIRCLE
  5
15F
100
AcDbEntity
  8
0
370
    -3
  6
Continuous
100
AcDbCircle
 10
-63.306666
 20
169.606939
 30
0.0
 40
5.0
  0
CIRCLE
  5
160
100
AcDbEntity
  8
0
370
    -3
  6
Continuous
100
AcDbCircle
 10
-148.306666
 20
169.606939
 30
0.0
 40
5.0
  0
LINE
  5
161
100
AcDbEntity
  8
0
370
    -3
  6
CENTER
100
AcDbLine
 10
-53.035021
 20
169.606939
 30
0.0
 11
-72.798272
 21
169.606939
 31
0.0
  0
LINE
  5
162
100
AcDbEntity
  8
0
370
    -3
  6
CENTER
100
AcDbLine
 10
-63.306666
 20
159.606939
 30
0.0
 11
-63.306666
 21
180.19825
 31
0.0
  0
LINE
  5
163
100
AcDbEntity
  8
0
370
    -3
  6
CENTER
100
AcDbLine
 10
-138.035021
 20
169.606939
 30
0.0
 11
-157.798272
 21
169.606939
 31
0.0
  0
LINE
  5
164
100
AcDbEntity
  8
0
370
    -3
  6
CENTER
100
AcDbLine
 10
-148.306666
 20
159.606939
 30
0.0
 11
-148.306666
 21
180.19825
 31
0.0
  0
ARC
  5
165
100
AcDbEntity
  8
0
370
    -3
  6
Continuous
100
AcDbCircle
 10
-55.306666
 20
186.546627
 30
0.0
 40
2.0
100
AcDbArc
 50
316.414952
 51
0.0
  0
LINE
  5
166
100
AcDbEntity
  8
0
370
    -3
  6
Continuous
100
AcDbLine
 10
-121.876487
 20
164.607548
 30
0.0
 11
-118.010919
 21
164.607548
 31
0.0
  0
ARC
  5
167
100
AcDbEntity
  8
0
370
    -3
  6
Continuous
100
AcDbCircle
 10
-101.045545
 20
229.979836
 30
0.0
 40
65.0
100
AcDbArc
 50
271.092105
 51
291.246959
  0
ARC
  5
168
100
AcDbEntity
  8
0
370
    -3
  6
Continuous
100
AcDbCircle
 10
-63.306666
 20
169.606939
 30
0.0
 40
13.0
100
AcDbArc
 50
90.0
 51
173.66474
  0
ARC
  5
169
100
AcDbEntity
  8
0
370
    -3
  6
Continuous
100
AcDbCircle
 10
-78.215065
 20
171.262129
 30
0.0
 40
2.0
100
AcDbArc
 50
291.246959
 51
353.66474
  0
ARC
  5
16A
100
AcDbEntity
  8
0
370
    -3
  6
Continuous
100
AcDbCircle
 10
-52.306666
 20
265.606939
 30
0.0
 40
1.0
100
AcDbArc
 50
0.0
 51
90.0
  0
ARC
  5
16B
100
AcDbEntity
  8
0
370
    -3
  6
Continuous
100
AcDbCircle
 10
-52.306666
 20
267.606939
 30
0.0
 40
1.0
100
AcDbArc
 50
180.0
 51
270.0
  0
ARC
  5
16C
100
AcDbEntity
  8
0
370
    -3
  6
Continuous
100
AcDbCircle
 10
-52.306666
 20
223.606939
 30
0.0
 40
1.0
100
AcDbArc
 50
270.0
 51
0.0
  0
ARC
  5
16D
100
AcDbEntity
  8
0
370
    -3
  6
Continuous
100
AcDbCircle
 10
-52.306666
 20
221.606939
 30
0.0
 40
1.0
100
AcDbArc
 50
90.0
 51
180.0
  0
LINE
  5
16E
100
AcDbEntity
  8
0
370
    -3
  6
Continuous
100
AcDbLine
 10
-121.806666
 20
324.60633
 30
0.0
 11
-99.806666
 21
324.222318
 31
0.0
  0
LINE
  5
16F
100
AcDbEntity
  8
0
370
    -3
  6
Continuous
100
AcDbLine
 10
-121.806666
 20
164.607548
 30
0.0
 11
-99.806666
 21
164.99156
 31
0.0
  0
LINE
  5
170
100
AcDbEntity
  8
0
370
    -3
  6
Continuous
100
AcDbLine
 10
-13.706666
 20
233.606939
 30
0.0
 11
-46.746859
 21
233.606939
 31
0.0
  0
LINE
  5
171
100
AcDbEntity
  8
0
370
    -3
  6
Continuous
100
AcDbLine
 10
-13.706666
 20
233.606939
 30
0.0
 11
-46.746859
 21
233.606939
 31
0.0
  0
LINE
  5
172
100
AcDbEntity
  8
0
370
    -3
  6
Continuous
100
AcDbLine
 10
-51.306666
 20
256.606939
 30
0.0
 11
-49.706666
 21
256.606939
 31
0.0
  0
LINE
  5
173
100
AcDbEntity
  8
0
370
    -3
  6
Continuous
100
AcDbLine
 10
-49.306666
 20
256.206939
 30
0.0
 11
-49.706666
 21
256.606939
 31
0.0
  0
LINE
  5
174
100
AcDbEntity
  8
0
370
    -3
  6
Continuous
100
AcDbLine
 10
-46.746859
 20
255.606939
 30
0.0
 11
-47.306666
 21
255.456939
 31
0.0
  0
LINE
  5
175
100
AcDbEntity
  8
0
370
    -3
  6
Continuous
100
AcDbLine
 10
-47.306666
 20
255.456939
 30
0.0
 11
-48.506666
 21
255.456939
 31
0.0
  0
ARC
  5
176
100
AcDbEntity
  8
0
370
    -3
  6
Continuous
100
AcDbCircle
 10
-48.506666
 20
256.256939
 30
0.0
 40
0.8
100
AcDbArc
 50
183.703197
 51
270.0
  0
LINE
  5
177
100
AcDbEntity
  8
0
370
    -3
  6
Continuous
100
AcDbLine
 10
-49.306666
 20
256.206939
 30
0.0
 11
-49.706666
 21
256.606939
 31
0.0
  0
LINE
  5
178
100
AcDbEntity
  8
0
370
    -3
  6
Continuous
100
AcDbLine
 10
-46.746859
 20
255.606939
 30
0.0
 11
-47.306666
 21
255.456939
 31
0.0
  0
LINE
  5
179
100
AcDbEntity
  8
0
370
    -3
  6
Continuous
100
AcDbLine
 10
-47.306666
 20
255.456939
 30
0.0
 11
-48.506666
 21
255.456939
 31
0.0
  0
LINE
  5
17A
100
AcDbEntity
  8
0
370
    -3
  6
Continuous
100
AcDbLine
 10
-49.306666
 20
244.606939
 30
0.0
 11
-49.306666
 21
256.206939
 31
0.0
  0
LINE
  5
17B
100
AcDbEntity
  8
0
370
    -3
  6
Continuous
100
AcDbLine
 10
-51.306666
 20
256.606939
 30
0.0
 11
-49.706666
 21
256.606939
 31
0.0
  0
LINE
  5
17C
100
AcDbEntity
  8
0
370
    -3
  6
Continuous
100
AcDbLine
 10
-49.306666
 20
244.606939
 30
0.0
 11
-49.306666
 21
233.006939
 31
0.0
  0
LINE
  5
17D
100
AcDbEntity
  8
0
370
    -3
  6
Continuous
100
AcDbLine
 10
-51.306666
 20
232.606939
 30
0.0
 11
-49.706666
 21
232.606939
 31
0.0
  0
LINE
  5
17E
100
AcDbEntity
  8
0
370
    -3
  6
Continuous
100
AcDbLine
 10
-13.706666
 20
255.606939
 30
0.0
 11
-46.746859
 21
255.606939
 31
0.0
  0
LINE
  5
17F
100
AcDbEntity
  8
0
370
    -3
  6
Continuous
100
AcDbLine
 10
-49.306666
 20
233.006939
 30
0.0
 11
-49.706666
 21
232.606939
 31
0.0
  0
LINE
  5
180
100
AcDbEntity
  8
0
370
    -3
  6
Continuous
100
AcDbLine
 10
-46.746859
 20
233.606939
 30
0.0
 11
-47.306666
 21
233.756939
 31
0.0
  0
LINE
  5
181
100
AcDbEntity
  8
0
370
    -3
  6
Continuous
100
AcDbLine
 10
-47.306666
 20
233.756939
 30
0.0
 11
-48.506666
 21
233.756939
 31
0.0
  0
ARC
  5
182
100
AcDbEntity
  8
0
370
    -3
  6
Continuous
100
AcDbCircle
 10
-48.506666
 20
232.956939
 30
0.0
 40
0.8
100
AcDbArc
 50
90.0
 51
176.296803
  0
LINE
  5
183
100
AcDbEntity
  8
0
370
    -3
  6
Continuous
100
AcDbLine
 10
-13.706666
 20
255.606939
 30
0.0
 11
-46.746859
 21
255.606939
 31
0.0
  0
LINE
  5
184
100
AcDbEntity
  8
0
370
    -3
  6
Continuous
100
AcDbLine
 10
-49.306666
 20
233.006939
 30
0.0
 11
-49.706666
 21
232.606939
 31
0.0
  0
LINE
  5
185
100
AcDbEntity
  8
0
370
    -3
  6
Continuous
100
AcDbLine
 10
-46.746859
 20
233.606939
 30
0.0
 11
-47.306666
 21
233.756939
 31
0.0
  0
LINE
  5
186
100
AcDbEntity
  8
0
370
    -3
  6
Continuous
100
AcDbLine
 10
-47.306666
 20
233.756939
 30
0.0
 11
-48.506666
 21
233.756939
 31
0.0
  0
LINE
  5
187
100
AcDbEntity
  8
0
370
    -3
  6
Continuous
100
AcDbLine
 10
-51.306666
 20
232.606939
 30
0.0
 11
-49.706666
 21
232.606939
 31
0.0
  0
LINE
  5
188
100
AcDbEntity
  8
0
370
    -3
  6
Continuous
100
AcDbLine
 10
-13.306666
 20
231.106939
 30
0.0
 11
-45.306666
 21
231.106939
 31
0.0
  0
LINE
  5
189
100
AcDbEntity
  8
0
370
    -3
  6
Continuous
100
AcDbLine
 10
-45.306666
 20
233.606939
 30
0.0
 11
-45.306666
 21
231.106939
 31
0.0
  0
ARC
  5
18A
100
AcDbEntity
  8
0
370
    -3
  6
Continuous
100
AcDbCircle
 10
-13.706666
 20
234.006939
 30
0.0
 40
0.4
100
AcDbArc
 50
270.0
 51
0.0
  0
LINE
  5
18B
100
AcDbEntity
  8
0
370
    -3
  6
Continuous
100
AcDbLine
 10
-13.306666
 20
244.606939
 30
0.0
 11
-13.306666
 21
231.106939
 31
0.0
  0
ARC
  5
18C
100
AcDbEntity
  8
0
370
    -3
  6
Continuous
100
AcDbCircle
 10
-13.706666
 20
255.206939
 30
0.0
 40
0.4
100
AcDbArc
 50
0.0
 51
90.0
  0
LINE
  5
18D
100
AcDbEntity
  8
0
370
    -3
  6
Continuous
100
AcDbLine
 10
-13.306666
 20
244.606939
 30
0.0
 11
-13.306666
 21
255.206939
 31
0.0
  0
LINE
  5
18E
100
AcDbEntity
  8
0
370
    -3
  6
Continuous
100
AcDbLine
 10
-132.306666
 20
166.106939
 30
0.0
 11
-132.306666
 21
178.106939
 31
0.0
  0
LINE
  5
18F
100
AcDbEntity
  8
0
370
    -3
  6
Continuous
100
AcDbLine
 10
-162.306666
 20
173.106939
 30
0.0
 11
-162.306666
 21
244.606939
 31
0.0
  0
LINE
  5
190
100
AcDbEntity
  8
0
370
    -3
  6
Continuous
100
AcDbLine
 10
-158.806666
 20
173.106939
 30
0.0
 11
-162.306666
 21
173.106939
 31
0.0
  0
ARC
  5
191
100
AcDbEntity
  8
0
370
    -3
  6
Continuous
100
AcDbCircle
 10
-134.306666
 20
178.106939
 30
0.0
 40
2.0
100
AcDbArc
 50
0.0
 51
90.0
  0
ARC
  5
192
100
AcDbEntity
  8
0
370
    -3
  6
Continuous
100
AcDbCircle
 10
-133.306666
 20
178.106939
 30
0.0
 40
2.0
100
AcDbArc
 50
0.0
 51
90.0
  0
ARC
  5
193
100
AcDbEntity
  8
0
370
    -3
  6
Continuous
100
AcDbCircle
 10
-155.306666
 20
177.106939
 30
0.0
 40
3.0
100
AcDbArc
 50
90.0
 51
180.0
  0
LINE
  5
194
100
AcDbEntity
  8
0
370
    -3
  6
Continuous
100
AcDbLine
 10
-133.306666
 20
180.106939
 30
0.0
 11
-155.306666
 21
180.106939
 31
0.0
  0
ARC
  5
195
100
AcDbEntity
  8
0
370
    -3
  6
Continuous
100
AcDbCircle
 10
-158.806666
 20
173.606939
 30
0.0
 40
0.5
100
AcDbArc
 50
270.0
 51
0.0
  0
LINE
  5
196
100
AcDbEntity
  8
0
370
    -3
  6
Continuous
100
AcDbLine
 10
-158.306666
 20
177.106939
 30
0.0
 11
-158.306666
 21
173.606939
 31
0.0
  0
LINE
  5
197
100
AcDbEntity
  8
0
370
    -3
  6
Continuous
100
AcDbLine
 10
-132.306666
 20
177.606939
 30
0.0
 11
-134.056666
 21
177.606939
 31
0.0
  0
LINE
  5
198
100
AcDbEntity
  8
0
370
    -3
  6
Continuous
100
AcDbLine
 10
-132.306666
 20
167.606939
 30
0.0
 11
-134.056666
 21
167.606939
 31
0.0
  0
LINE
  5
199
100
AcDbEntity
  8
0
370
    -3
  6
Continuous
100
AcDbLine
 10
-134.056666
 20
167.606939
 30
0.0
 11
-134.056666
 21
177.606939
 31
0.0
  0
LINE
  5
19A
100
AcDbEntity
  8
0
370
    -3
  6
Continuous
100
AcDbLine
 10
-131.306666
 20
202.606939
 30
0.0
 11
-131.306666
 21
244.606939
 31
0.0
  0
LINE
  5
19B
100
AcDbEntity
  8
0
370
    -3
  6
Continuous
100
AcDbLine
 10
-131.306666
 20
165.106939
 30
0.0
 11
-131.306666
 21
192.606939
 31
0.0
  0
ARC
  5
19C
100
AcDbEntity
  8
0
370
    -3
  6
Continuous
100
AcDbCircle
 10
-130.306666
 20
204.856939
 30
0.0
 40
1.0
100
AcDbArc
 50
180.0
 51
270.0
  0
ARC
  5
19D
100
AcDbEntity
  8
0
370
    -3
  6
Continuous
100
AcDbCircle
 10
-128.456666
 20
203.456939
 30
0.0
 40
0.4
100
AcDbArc
 50
0.0
 51
90.0
  0
LINE
  5
19E
100
AcDbEntity
  8
0
370
    -3
  6
Continuous
100
AcDbLine
 10
-128.056666
 20
203.456939
 30
0.0
 11
-128.056666
 21
191.756939
 31
0.0
  0
LINE
  5
19F
100
AcDbEntity
  8
0
370
    -3
  6
Continuous
100
AcDbLine
 10
-130.306666
 20
203.856939
 30
0.0
 11
-128.456666
 21
203.856939
 31
0.0
  0
ARC
  5
1A0
100
AcDbEntity
  8
0
370
    -3
  6
Continuous
100
AcDbCircle
 10
-130.306666
 20
190.356939
 30
0.0
 40
1.0
100
AcDbArc
 50
90.0
 51
180.0
  0
LINE
  5
1A1
100
AcDbEntity
  8
0
370
    -3
  6
Continuous
100
AcDbLine
 10
-130.306666
 20
191.356939
 30
0.0
 11
-128.456666
 21
191.356939
 31
0.0
  0
ARC
  5
1A2
100
AcDbEntity
  8
0
370
    -3
  6
Continuous
100
AcDbCircle
 10
-128.456666
 20
191.756939
 30
0.0
 40
0.4
100
AcDbArc
 50
270.0
 51
0.0
  0
ARC
  5
1A3
100
AcDbEntity
  8
0
370
    -3
  6
Continuous
100
AcDbCircle
 10
-131.806666
 20
166.106939
 30
0.0
 40
0.5
100
AcDbArc
 50
180.0
 51
270.0
  0
ARC
  5
1A4
100
AcDbEntity
  8
0
370
    -3
  6
Continuous
100
AcDbCircle
 10
-131.806666
 20
165.106939
 30
0.0
 40
0.5
100
AcDbArc
 50
0.0
 51
90.0
  0
LINE
  5
1A5
100
AcDbEntity
  8
0
370
    -3
  6
Continuous
100
AcDbLine
 10
-121.806666
 20
164.606939
 30
0.0
 11
-130.806666
 21
164.606939
 31
0.0
  0
ARC
  5
1A6
100
AcDbEntity
  8
0
370
    -3
  6
Continuous
100
AcDbCircle
 10
-130.806666
 20
165.106939
 30
0.0
 40
0.5
100
AcDbArc
 50
180.0
 51
270.0
  0
LINE
  5
1A7
100
AcDbEntity
  8
0
370
    -3
  6
Continuous
100
AcDbLine
 10
-132.306666
 20
323.106939
 30
0.0
 11
-132.306666
 21
311.106939
 31
0.0
  0
LINE
  5
1A8
100
AcDbEntity
  8
0
370
    -3
  6
Continuous
100
AcDbLine
 10
-162.306666
 20
316.106939
 30
0.0
 11
-162.306666
 21
244.606939
 31
0.0
  0
LINE
  5
1A9
100
AcDbEntity
  8
0
370
    -3
  6
Continuous
100
AcDbLine
 10
-158.806666
 20
316.106939
 30
0.0
 11
-162.306666
 21
316.106939
 31
0.0
  0
ARC
  5
1AA
100
AcDbEntity
  8
0
370
    -3
  6
Continuous
100
AcDbCircle
 10
-134.306666
 20
311.106939
 30
0.0
 40
2.0
100
AcDbArc
 50
270.0
 51
0.0
  0
ARC
  5
1AB
100
AcDbEntity
  8
0
370
    -3
  6
Continuous
100
AcDbCircle
 10
-133.306666
 20
311.106939
 30
0.0
 40
2.0
100
AcDbArc
 50
270.0
 51
0.0
  0
ARC
  5
1AC
100
AcDbEntity
  8
0
370
    -3
  6
Continuous
100
AcDbCircle
 10
-155.306666
 20
312.106939
 30
0.0
 40
3.0
100
AcDbArc
 50
180.0
 51
270.0
  0
LINE
  5
1AD
100
AcDbEntity
  8
0
370
    -3
  6
Continuous
100
AcDbLine
 10
-133.306666
 20
309.106939
 30
0.0
 11
-155.306666
 21
309.106939
 31
0.0
  0
ARC
  5
1AE
100
AcDbEntity
  8
0
370
    -3
  6
Continuous
100
AcDbCircle
 10
-158.806666
 20
315.606939
 30
0.0
 40
0.5
100
AcDbArc
 50
0.0
 51
90.0
  0
LINE
  5
1AF
100
AcDbEntity
  8
0
370
    -3
  6
Continuous
100
AcDbLine
 10
-158.306666
 20
312.106939
 30
0.0
 11
-158.306666
 21
315.606939
 31
0.0
  0
LINE
  5
1B0
100
AcDbEntity
  8
0
370
    -3
  6
Continuous
100
AcDbLine
 10
-132.306666
 20
311.606939
 30
0.0
 11
-134.056666
 21
311.606939
 31
0.0
  0
LINE
  5
1B1
100
AcDbEntity
  8
0
370
    -3
  6
Continuous
100
AcDbLine
 10
-132.306666
 20
321.606939
 30
0.0
 11
-134.056666
 21
321.606939
 31
0.0
  0
LINE
  5
1B2
100
AcDbEntity
  8
0
370
    -3
  6
Continuous
100
AcDbLine
 10
-134.056666
 20
321.606939
 30
0.0
 11
-134.056666
 21
311.606939
 31
0.0
  0
LINE
  5
1B3
100
AcDbEntity
  8
0
370
    -3
  6
Continuous
100
AcDbLine
 10
-131.306666
 20
286.606939
 30
0.0
 11
-131.306666
 21
244.606939
 31
0.0
  0
LINE
  5
1B4
100
AcDbEntity
  8
0
370
    -3
  6
Continuous
100
AcDbLine
 10
-131.306666
 20
324.106939
 30
0.0
 11
-131.306666
 21
296.606939
 31
0.0
  0
ARC
  5
1B5
100
AcDbEntity
  8
0
370
    -3
  6
Continuous
100
AcDbCircle
 10
-130.306666
 20
284.356939
 30
0.0
 40
1.0
100
AcDbArc
 50
90.0
 51
180.0
  0
ARC
  5
1B6
100
AcDbEntity
  8
0
370
    -3
  6
Continuous
100
AcDbCircle
 10
-128.456666
 20
285.756939
 30
0.0
 40
0.4
100
AcDbArc
 50
270.0
 51
0.0
  0
LINE
  5
1B7
100
AcDbEntity
  8
0
370
    -3
  6
Continuous
100
AcDbLine
 10
-128.056666
 20
285.756939
 30
0.0
 11
-128.056666
 21
297.456939
 31
0.0
  0
LINE
  5
1B8
100
AcDbEntity
  8
0
370
    -3
  6
Continuous
100
AcDbLine
 10
-130.306666
 20
285.356939
 30
0.0
 11
-128.456666
 21
285.356939
 31
0.0
  0
ARC
  5
1B9
100
AcDbEntity
  8
0
370
    -3
  6
Continuous
100
AcDbCircle
 10
-130.306666
 20
298.856939
 30
0.0
 40
1.0
100
AcDbArc
 50
180.0
 51
270.0
  0
LINE
  5
1BA
100
AcDbEntity
  8
0
370
    -3
  6
Continuous
100
AcDbLine
 10
-130.306666
 20
297.856939
 30
0.0
 11
-128.456666
 21
297.856939
 31
0.0
  0
ARC
  5
1BB
100
AcDbEntity
  8
0
370
    -3
  6
Continuous
100
AcDbCircle
 10
-128.456666
 20
297.456939
 30
0.0
 40
0.4
100
AcDbArc
 50
0.0
 51
90.0
  0
ARC
  5
1BC
100
AcDbEntity
  8
0
370
    -3
  6
Continuous
100
AcDbCircle
 10
-131.806666
 20
323.106939
 30
0.0
 40
0.5
100
AcDbArc
 50
90.0
 51
180.0
  0
ARC
  5
1BD
100
AcDbEntity
  8
0
370
    -3
  6
Continuous
100
AcDbCircle
 10
-131.806666
 20
324.106939
 30
0.0
 40
0.5
100
AcDbArc
 50
270.0
 51
0.0
  0
LINE
  5
1BE
100
AcDbEntity
  8
0
370
    -3
  6
Continuous
100
AcDbLine
 10
-122.306666
 20
324.606939
 30
0.0
 11
-122.306666
 21
164.606939
 31
0.0
  0
LINE
  5
1BF
100
AcDbEntity
  8
0
370
    -3
  6
Continuous
100
AcDbLine
 10
-121.806666
 20
324.606939
 30
0.0
 11
-130.806666
 21
324.606939
 31
0.0
  0
ARC
  5
1C0
100
AcDbEntity
  8
0
370
    -3
  6
Continuous
100
AcDbCircle
 10
-130.806666
 20
324.106939
 30
0.0
 40
0.5
100
AcDbArc
 50
90.0
 51
180.0
  0
LINE
  5
1C1
100
AcDbEntity
  8
0
370
    -3
  6
Continuous
100
AcDbLine
 10
-128.056666
 20
296.606939
 30
0.0
 11
-134.056666
 21
296.606939
 31
0.0
  0
LINE
  5
1C2
100
AcDbEntity
  8
0
370
    -3
  6
Continuous
100
AcDbLine
 10
-128.056666
 20
286.606939
 30
0.0
 11
-134.056666
 21
286.606939
 31
0.0
  0
LINE
  5
1C3
100
AcDbEntity
  8
0
370
    -3
  6
Continuous
100
AcDbLine
 10
-134.056666
 20
296.606939
 30
0.0
 11
-134.056666
 21
286.606939
 31
0.0
  0
LINE
  5
1C4
100
AcDbEntity
  8
0
370
    -3
  6
Continuous
100
AcDbLine
 10
-128.056666
 20
192.606939
 30
0.0
 11
-134.056666
 21
192.606939
 31
0.0
  0
LINE
  5
1C5
100
AcDbEntity
  8
0
370
    -3
  6
Continuous
100
AcDbLine
 10
-128.056666
 20
202.606939
 30
0.0
 11
-134.056666
 21
202.606939
 31
0.0
  0
LINE
  5
1C6
100
AcDbEntity
  8
0
370
    -3
  6
Continuous
100
AcDbLine
 10
-134.056666
 20
192.606939
 30
0.0
 11
-134.056666
 21
202.606939
 31
0.0
  0
LINE
  5
1C7
100
AcDbEntity
  8
0
370
    -3
  6
Continuous
100
AcDbLine
 10
-162.306666
 20
174.606939
 30
0.0
 11
-282.306666
 21
174.606939
 31
0.0
  0
ARC
  5
1C8
100
AcDbEntity
  8
0
370
    -3
  6
Continuous
100
AcDbCircle
 10
-314.053831
 20
200.606939
 30
0.0
 40
30.8
100
AcDbArc
 50
240.0
 51
270.0
  0
ELLIPSE
  5
1C9
100
AcDbEntity
  8
0
370
    -3
  6
Continuous
100
AcDbEllipse
 10
-299.306666
 20
301.63167
 30
0.0
 11
5.0
 21
0.0
 31
0.0
210
0.0
220
0.0
230
1.0
 40
0.707107
 41
3.1415926535897931
 42
0.0
  0
LINE
  5
1CA
100
AcDbEntity
  8
0
370
    -3
  6
Continuous
100
AcDbLine
 10
-304.306666
 20
302.448274
 30
0.0
 11
-304.306666
 21
301.63167
 31
0.0
  0
LINE
  5
1CB
100
AcDbEntity
  8
0
370
    -3
  6
Continuous
100
AcDbLine
 10
-294.306666
 20
302.448274
 30
0.0
 11
-294.306666
 21
301.63167
 31
0.0
  0
ELLIPSE
  5
1CC
100
AcDbEntity
  8
0
370
    -3
  6
Continuous
100
AcDbEllipse
 10
-299.306666
 20
302.448274
 30
0.0
 11
4.5
 21
0.0
 31
0.0
210
0.0
220
0.0
230
1.0
 40
0.707107
 41
3.1415926535897931
 42
0.0
  0
LINE
  5
1CD
100
AcDbEntity
  8
0
370
    -3
  6
Continuous
100
AcDbLine
 10
-303.806666
 20
303.013959
 30
0.0
 11
-303.806666
 21
302.448274
 31
0.0
  0
LINE
  5
1CE
100
AcDbEntity
  8
0
370
    -3
  6
Continuous
100
AcDbLine
 10
-294.806666
 20
303.013959
 30
0.0
 11
-294.806666
 21
302.448274
 31
0.0
  0
ELLIPSE
  5
1CF
100
AcDbEntity
  8
0
370
    -3
  6
Continuous
100
AcDbEllipse
 10
-299.306666
 20
302.448274
 30
0.0
 11
5.0
 21
0.0
 31
0.0
210
0.0
220
0.0
230
1.0
 40
0.707107
 41
0.0
 42
0.7392718269404981
  0
ELLIPSE
  5
1D0
100
AcDbEntity
  8
0
370
    -3
  6
Continuous
100
AcDbEllipse
 10
-299.306666
 20
302.448274
 30
0.0
 11
5.0
 21
0.0
 31
0.0
210
0.0
220
0.0
230
1.0
 40
0.707107
 41
2.4023208266492952
 42
3.1415926535897931
  0
ELLIPSE
  5
1D1
100
AcDbEntity
  8
0
370
    -3
  6
Continuous
100
AcDbEllipse
 10
-299.306666
 20
303.550477
 30
0.0
 11
3.5
 21
0.0
 31
0.0
210
0.0
220
0.0
230
1.0
 40
0.860398
 41
0.0
 42
6.2831853071795862
  0
ELLIPSE
  5
1D2
100
AcDbEntity
  8
0
370
    -3
  6
Continuous
100
AcDbEllipse
 10
-299.306666
 20
303.013959
 30
0.0
 11
4.5
 21
0.0
 31
0.0
210
0.0
220
0.0
230
1.0
 40
0.707107
 41
2.1587066623463373
 42
0.9828859912434559
  0
LINE
  5
1D3
100
AcDbEntity
  8
0
370
    -3
  6
Continuous
100
AcDbLine
 10
-299.306666
 20
304.852437
 30
0.0
 11
-297.306666
 21
303.279099
 31
0.0
  0
LINE
  5
1D4
100
AcDbEntity
  8
0
370
    -3
  6
Continuous
100
AcDbLine
 10
-299.306666
 20
304.852437
 30
0.0
 11
-297.377462
 21
306.063099
 31
0.0
  0
LINE
  5
1D5
100
AcDbEntity
  8
0
370
    -3
  6
Continuous
100
AcDbLine
 10
-299.306666
 20
304.852437
 30
0.0
 11
-301.306666
 21
303.279099
 31
0.0
  0
LINE
  5
1D6
100
AcDbEntity
  8
0
370
    -3
  6
Continuous
100
AcDbLine
 10
-299.306666
 20
304.852437
 30
0.0
 11
-301.235871
 21
306.063099
 31
0.0
  0
ARC
  5
1D7
100
AcDbEntity
  8
0
370
    -3
  6
Continuous
100
AcDbCircle
 10
-342.506666
 20
185.857276
 30
0.0
 40
3.8
100
AcDbArc
 50
180.0
 51
240.0
  0
LINE
  5
1D8
100
AcDbEntity
  8
0
370
    -3
  6
Continuous
100
AcDbLine
 10
-346.306666
 20
244.606939
 30
0.0
 11
-346.306666
 21
185.857276
 31
0.0
  0
LINE
  5
1D9
100
AcDbEntity
  8
0
370
    -3
  6
Continuous
100
AcDbLine
 10
-344.406666
 20
182.56638
 30
0.0
 11
-329.453831
 21
173.933357
 31
0.0
  0
ARC
  5
1DA
100
AcDbEntity
  8
0
370
    -3
  6
Continuous
100
AcDbCircle
 10
-314.053831
 20
288.606939
 30
0.0
 40
30.8
100
AcDbArc
 50
90.0
 51
120.0
  0
ARC
  5
1DB
100
AcDbEntity
  8
0
370
    -3
  6
Continuous
100
AcDbCircle
 10
-342.506666
 20
303.356602
 30
0.0
 40
3.8
100
AcDbArc
 50
120.0
 51
180.0
  0
LINE
  5
1DC
100
AcDbEntity
  8
0
370
    -3
  6
Continuous
100
AcDbLine
 10
-346.306666
 20
244.606939
 30
0.0
 11
-346.306666
 21
303.356602
 31
0.0
  0
LINE
  5
1DD
100
AcDbEntity
  8
0
370
    -3
  6
Continuous
100
AcDbLine
 10
-344.406666
 20
306.647498
 30
0.0
 11
-329.453831
 21
315.280521
 31
0.0
  0
LINE
  5
1DE
100
AcDbEntity
  8
0
370
    -3
  6
Continuous
100
AcDbLine
 10
-282.306666
 20
319.406939
 30
0.0
 11
-314.053831
 21
319.406939
 31
0.0
  0
LINE
  5
1DF
100
AcDbEntity
  8
0
370
    -3
  6
Continuous
100
AcDbLine
 10
-282.306666
 20
319.406939
 30
0.0
 11
-282.306666
 21
244.606939
 31
0.0
  0
LINE
  5
1E0
100
AcDbEntity
  8
0
370
    -3
  6
Continuous
100
AcDbLine
 10
-162.306666
 20
316.106939
 30
0.0
 11
-282.306666
 21
316.106939
 31
0.0
  0
LINE
  5
1E1
100
AcDbEntity
  8
0
370
    -3
  6
Continuous
100
AcDbLine
 10
-162.306666
 20
314.106939
 30
0.0
 11
-282.306666
 21
314.106939
 31
0.0
  0
LINE
  5
1E2
100
AcDbEntity
  8
0
370
    -3
  6
Continuous
100
AcDbLine
 10
-162.306666
 20
311.106939
 30
0.0
 11
-282.306666
 21
311.106939
 31
0.0
  0
LINE
  5
1E3
100
AcDbEntity
  8
0
370
    -3
  6
Continuous
100
AcDbLine
 10
-162.306666
 20
306.606939
 30
0.0
 11
-282.306666
 21
306.606939
 31
0.0
  0
LINE
  5
1E4
100
AcDbEntity
  8
0
370
    -3
  6
Continuous
100
AcDbLine
 10
-162.306666
 20
285.456208
 30
0.0
 11
-282.306666
 21
285.456208
 31
0.0
  0
LINE
  5
1E5
100
AcDbEntity
  8
0
370
    -3
  6
Continuous
100
AcDbLine
 10
-162.306666
 20
283.807581
 30
0.0
 11
-282.306666
 21
283.807581
 31
0.0
  0
LINE
  5
1E6
100
AcDbEntity
  8
0
370
    -3
  6
Continuous
100
AcDbLine
 10
-162.306666
 20
277.449711
 30
0.0
 11
-282.306666
 21
277.449711
 31
0.0
  0
LINE
  5
1E7
100
AcDbEntity
  8
0
370
    -3
  6
Continuous
100
AcDbLine
 10
-162.306666
 20
275.816983
 30
0.0
 11
-282.306666
 21
275.816983
 31
0.0
  0
LINE
  5
1E8
100
AcDbEntity
  8
0
370
    -3
  6
Continuous
100
AcDbLine
 10
-162.306666
 20
269.421447
 30
0.0
 11
-282.306666
 21
269.421447
 31
0.0
  0
LINE
  5
1E9
100
AcDbEntity
  8
0
370
    -3
  6
Continuous
100
AcDbLine
 10
-162.306666
 20
245.336735
 30
0.0
 11
-282.306666
 21
245.336735
 31
0.0
  0
LINE
  5
1EA
100
AcDbEntity
  8
0
370
    -3
  6
Continuous
100
AcDbLine
 10
-162.306666
 20
253.355095
 30
0.0
 11
-282.306666
 21
253.355095
 31
0.0
  0
LINE
  5
1EB
100
AcDbEntity
  8
0
370
    -3
  6
Continuous
100
AcDbLine
 10
-162.306666
 20
251.869937
 30
0.0
 11
-282.306666
 21
251.869937
 31
0.0
  0
LINE
  5
1EC
100
AcDbEntity
  8
0
370
    -3
  6
Continuous
100
AcDbLine
 10
-162.306666
 20
261.38694
 30
0.0
 11
-282.306666
 21
261.38694
 31
0.0
  0
LINE
  5
1ED
100
AcDbEntity
  8
0
370
    -3
  6
Continuous
100
AcDbLine
 10
-162.306666
 20
259.850103
 30
0.0
 11
-282.306666
 21
259.850103
 31
0.0
  0
LINE
  5
1EE
100
AcDbEntity
  8
0
370
    -3
  6
Continuous
100
AcDbLine
 10
-162.306666
 20
267.829195
 30
0.0
 11
-282.306666
 21
267.829195
 31
0.0
  0
LINE
  5
1EF
100
AcDbEntity
  8
0
370
    -3
  6
Continuous
100
AcDbLine
 10
-162.306666
 20
178.106939
 30
0.0
 11
-282.306666
 21
178.106939
 31
0.0
  0
LINE
  5
1F0
100
AcDbEntity
  8
0
370
    -3
  6
Continuous
100
AcDbLine
 10
-162.306666
 20
182.606939
 30
0.0
 11
-282.306666
 21
182.606939
 31
0.0
  0
LINE
  5
1F1
100
AcDbEntity
  8
0
370
    -3
  6
Continuous
100
AcDbLine
 10
-162.306666
 20
203.75767
 30
0.0
 11
-282.306666
 21
203.75767
 31
0.0
  0
LINE
  5
1F2
100
AcDbEntity
  8
0
370
    -3
  6
Continuous
100
AcDbLine
 10
-162.306666
 20
205.406297
 30
0.0
 11
-282.306666
 21
205.406297
 31
0.0
  0
LINE
  5
1F3
100
AcDbEntity
  8
0
370
    -3
  6
Continuous
100
AcDbLine
 10
-162.306666
 20
211.764167
 30
0.0
 11
-282.306666
 21
211.764167
 31
0.0
  0
LINE
  5
1F4
100
AcDbEntity
  8
0
370
    -3
  6
Continuous
100
AcDbLine
 10
-162.306666
 20
213.396895
 30
0.0
 11
-282.306666
 21
213.396895
 31
0.0
  0
LINE
  5
1F5
100
AcDbEntity
  8
0
370
    -3
  6
Continuous
100
AcDbLine
 10
-162.306666
 20
219.792431
 30
0.0
 11
-282.306666
 21
219.792431
 31
0.0
  0
LINE
  5
1F6
100
AcDbEntity
  8
0
370
    -3
  6
Continuous
100
AcDbLine
 10
-162.306666
 20
243.877143
 30
0.0
 11
-282.306666
 21
243.877143
 31
0.0
  0
LINE
  5
1F7
100
AcDbEntity
  8
0
370
    -3
  6
Continuous
100
AcDbLine
 10
-162.306666
 20
235.858783
 30
0.0
 11
-282.306666
 21
235.858783
 31
0.0
  0
LINE
  5
1F8
100
AcDbEntity
  8
0
370
    -3
  6
Continuous
100
AcDbLine
 10
-162.306666
 20
237.343941
 30
0.0
 11
-282.306666
 21
237.343941
 31
0.0
  0
LINE
  5
1F9
100
AcDbEntity
  8
0
370
    -3
  6
Continuous
100
AcDbLine
 10
-162.306666
 20
227.826938
 30
0.0
 11
-282.306666
 21
227.826938
 31
0.0
  0
LINE
  5
1FA
100
AcDbEntity
  8
0
370
    -3
  6
Continuous
100
AcDbLine
 10
-162.306666
 20
229.363775
 30
0.0
 11
-282.306666
 21
229.363775
 31
0.0
  0
LINE
  5
1FB
100
AcDbEntity
  8
0
370
    -3
  6
Continuous
100
AcDbLine
 10
-162.306666
 20
221.384683
 30
0.0
 11
-282.306666
 21
221.384683
 31
0.0
  0
ELLIPSE
  5
1FC
100
AcDbEntity
  8
0
370
    -3
  6
Continuous
100
AcDbEllipse
 10
-299.306666
 20
187.582208
 30
0.0
 11
5.0
 21
0.0
 31
0.0
210
0.0
220
0.0
230
1.0
 40
0.707107
 41
0.0
 42
3.1415926535897931
  0
LINE
  5
1FD
100
AcDbEntity
  8
0
370
    -3
  6
Continuous
100
AcDbLine
 10
-304.306666
 20
186.765604
 30
0.0
 11
-304.306666
 21
187.582208
 31
0.0
  0
LINE
  5
1FE
100
AcDbEntity
  8
0
370
    -3
  6
Continuous
100
AcDbLine
 10
-294.306666
 20
186.765604
 30
0.0
 11
-294.306666
 21
187.582208
 31
0.0
  0
ELLIPSE
  5
1FF
100
AcDbEntity
  8
0
370
    -3
  6
Continuous
100
AcDbEllipse
 10
-299.306666
 20
186.765604
 30
0.0
 11
4.5
 21
0.0
 31
0.0
210
0.0
220
0.0
230
1.0
 40
0.707107
 41
0.0
 42
3.1415926535897931
  0
LINE
  5
200
100
AcDbEntity
  8
0
370
    -3
  6
Continuous
100
AcDbLine
 10
-303.806666
 20
186.199919
 30
0.0
 11
-303.806666
 21
186.765604
 31
0.0
  0
LINE
  5
201
100
AcDbEntity
  8
0
370
    -3
  6
Continuous
100
AcDbLine
 10
-294.806666
 20
186.199919
 30
0.0
 11
-294.806666
 21
186.765604
 31
0.0
  0
ELLIPSE
  5
202
100
AcDbEntity
  8
0
370
    -3
  6
Continuous
100
AcDbEllipse
 10
-299.306666
 20
186.765604
 30
0.0
 11
5.0
 21
0.0
 31
0.0
210
0.0
220
0.0
230
1.0
 40
0.707107
 41
5.5439134802390884
 42
0.0
  0
ELLIPSE
  5
203
100
AcDbEntity
  8
0
370
    -3
  6
Continuous
100
AcDbEllipse
 10
-299.306666
 20
186.765604
 30
0.0
 11
5.0
 21
0.0
 31
0.0
210
0.0
220
0.0
230
1.0
 40
0.707107
 41
3.1415926535897931
 42
3.880864480530291
  0
ELLIPSE
  5
204
100
AcDbEntity
  8
0
370
    -3
  6
Continuous
100
AcDbEllipse
 10
-299.306666
 20
185.663401
 30
0.0
 11
3.5
 21
0.0
 31
0.0
210
0.0
220
0.0
230
1.0
 40
0.860398
 41
0.0
 42
6.2831853071795862
  0
ELLIPSE
  5
205
100
AcDbEntity
  8
0
370
    -3
  6
Continuous
100
AcDbEllipse
 10
-299.306666
 20
186.199919
 30
0.0
 11
4.5
 21
0.0
 31
0.0
210
0.0
220
0.0
230
1.0
 40
0.707107
 41
5.3002993159361305
 42
4.1244786448332489
  0
LINE
  5
206
100
AcDbEntity
  8
0
370
    -3
  6
Continuous
100
AcDbLine
 10
-299.306666
 20
184.361441
 30
0.0
 11
-297.306666
 21
185.934779
 31
0.0
  0
LINE
  5
207
100
AcDbEntity
  8
0
370
    -3
  6
Continuous
100
AcDbLine
 10
-299.306666
 20
184.361441
 30
0.0
 11
-297.377462
 21
183.150779
 31
0.0
  0
LINE
  5
208
100
AcDbEntity
  8
0
370
    -3
  6
Continuous
100
AcDbLine
 10
-299.306666
 20
184.361441
 30
0.0
 11
-301.306666
 21
185.934779
 31
0.0
  0
LINE
  5
209
100
AcDbEntity
  8
0
370
    -3
  6
Continuous
100
AcDbLine
 10
-299.306666
 20
184.361441
 30
0.0
 11
-301.235871
 21
183.150779
 31
0.0
  0
LINE
  5
20A
100
AcDbEntity
  8
0
370
    -3
  6
Continuous
100
AcDbLine
 10
-282.306666
 20
173.889141
 30
0.0
 11
-282.306666
 21
244.606939
 31
0.0
  0
ARC
  5
20B
100
AcDbEntity
  8
0
370
    -3
  6
Continuous
100
AcDbCircle
 10
-285.306666
 20
173.889141
 30
0.0
 40
3.0
100
AcDbArc
 50
270.0
 51
0.0
  0
LINE
  5
20C
100
AcDbEntity
  8
0
370
    -3
  6
Continuous
100
AcDbLine
 10
-302.306666
 20
169.806939
 30
0.0
 11
-314.053831
 21
169.806939
 31
0.0
  0
LINE
  5
20D
100
AcDbEntity
  8
0
370
    -3
  6
Continuous
100
AcDbLine
 10
-302.306666
 20
169.806939
 30
0.0
 11
-302.306666
 21
169.889141
 31
0.0
  0
LINE
  5
20E
100
AcDbEntity
  8
0
370
    -3
  6
Continuous
100
AcDbLine
 10
-301.306666
 20
170.889141
 30
0.0
 11
-285.306666
 21
170.889141
 31
0.0
  0
ARC
  5
20F
100
AcDbEntity
  8
0
370
    -3
  6
Continuous
100
AcDbCircle
 10
-301.306666
 20
169.889141
 30
0.0
 40
1.0
100
AcDbArc
 50
90.0
 51
180.0
  0
LINE
  5
210
100
AcDbEntity
  8
0
370
    -3
  6
Continuous
100
AcDbLine
 10
-162.306666
 20
195.684964
 30
0.0
 11
-282.306666
 21
195.684964
 31
0.0
  0
LINE
  5
211
100
AcDbEntity
  8
0
370
    -3
  6
Continuous
100
AcDbLine
 10
-162.306666
 20
188.755318
 30
0.0
 11
-282.306666
 21
188.755318
 31
0.0
  0
LINE
  5
212
100
AcDbEntity
  8
0
370
    -3
  6
Continuous
100
AcDbLine
 10
-162.306666
 20
174.606939
 30
0.0
 11
-162.306666
 21
244.606939
 31
0.0
  0
LINE
  5
213
100
AcDbEntity
  8
0
370
    -3
  6
Continuous
100
AcDbLine
 10
-162.306666
 20
244.606939
 30
0.0
 11
-162.306666
 21
316.106939
 31
0.0
  0
LINE
  5
214
100
AcDbEntity
  8
0
370
    -3
  6
Continuous
100
AcDbLine
 10
-162.306666
 20
300.45856
 30
0.0
 11
-282.306666
 21
300.45856
 31
0.0
  0
LINE
  5
215
100
AcDbEntity
  8
0
370
    -3
  6
Continuous
100
AcDbLine
 10
-162.306666
 20
293.528914
 30
0.0
 11
-282.306666
 21
293.528914
 31
0.0
  0
LINE
  5
216
100
AcDbEntity
  8
0
370
    -3
  6
Continuous
100
AcDbLine
 10
-162.306666
 20
315.606939
 30
0.0
 11
-282.306666
 21
315.606939
 31
0.0
  0
ARC
  5
217
100
AcDbEntity
  8
0
370
    -3
  6
Continuous
100
AcDbCircle
 10
-463.825784
 20
7.125234
 30
0.0
 40
8.0
100
AcDbArc
 50
15.218455
 51
77.052492
  0
LINE
  5
218
100
AcDbEntity
  8
0
370
    -3
  6
Continuous
100
AcDbLine
 10
-454.825784
 20
-39.974766
 30
0.0
 11
-454.825784
 21
-77.458686
 31
0.0
  0
ARC
  5
219
100
AcDbEntity
  8
0
370
    -3
  6
Continuous
100
AcDbCircle
 10
-519.825784
 20
-0.667085
 30
0.0
 40
65.0
100
AcDbArc
 50
8.753834
 51
87.767132
  0
ARC
  5
21A
100
AcDbEntity
  8
0
370
    -3
  6
Continuous
100
AcDbCircle
 10
-492.825784
 20
-88.874766
 30
0.0
 40
5.0
100
AcDbArc
 50
140.179132
 51
89.192196
  0
ARC
  5
21B
100
AcDbEntity
  8
0
370
    -3
  6
Continuous
100
AcDbCircle
 10
-492.825784
 20
-88.874766
 30
0.0
 40
6.25
100
AcDbArc
 50
156.744014
 51
180.0
  0
ARC
  5
21C
100
AcDbEntity
  8
0
370
    -3
  6
Continuous
100
AcDbCircle
 10
-492.825784
 20
-88.874766
 30
0.0
 40
6.25
100
AcDbArc
 50
18.32466
 51
72.627315
  0
ARC
  5
21D
100
AcDbEntity
  8
0
370
    -3
  6
Continuous
100
AcDbCircle
 10
-511.542599
 20
3.543301
 30
0.0
 40
50.8
100
AcDbArc
 50
4.33985
 51
39.094568
  0
LINE
  5
21E
100
AcDbEntity
  8
0
370
    -3
  6
Continuous
100
AcDbLine
 10
-485.325787
 20
50.068606
 30
0.0
 11
-485.325786
 21
48.471771
 31
0.0
  0
LINE
  5
21F
100
AcDbEntity
  8
0
370
    -3
  6
Continuous
100
AcDbLine
 10
-487.82578
 20
51.511982
 30
0.0
 11
-488.864766
 21
50.912126
 31
0.0
  0
ARC
  5
220
100
AcDbEntity
  8
0
370
    -3
  6
Continuous
100
AcDbCircle
 10
-487.825784
 20
48.625234
 30
0.0
 40
6.25
100
AcDbArc
 50
334.424644
 51
0.0
  0
LINE
  5
221
100
AcDbEntity
  8
0
370
    -3
  6
Continuous
100
AcDbLine
 10
-494.075784
 20
58.353568
 30
0.0
 11
-494.075784
 21
53.777873
 31
0.0
  0
ARC
  5
222
100
AcDbEntity
  8
0
370
    -3
  6
Continuous
100
AcDbCircle
 10
-487.825784
 20
48.625234
 30
0.0
 40
5.0
100
AcDbArc
 50
338.194565
 51
132.653374
  0
ARC
  5
223
100
AcDbEntity
  8
0
370
    -3
  6
Continuous
100
AcDbCircle
 10
-576.825784
 20
-88.874766
 30
0.0
 40
6.25
100
AcDbArc
 50
107.372685
 51
161.67534
  0
ARC
  5
224
100
AcDbEntity
  8
0
370
    -3
  6
Continuous
100
AcDbCircle
 10
-576.825784
 20
-88.874766
 30
0.0
 40
6.25
100
AcDbArc
 50
0.0
 51
23.255986
  0
ARC
  5
225
100
AcDbEntity
  8
0
370
    -3
  6
Continuous
100
AcDbCircle
 10
-576.825784
 20
-88.874766
 30
0.0
 40
5.0
100
AcDbArc
 50
90.807804
 51
39.820868
  0
LINE
  5
226
100
AcDbEntity
  8
0
370
    -3
  6
Continuous
100
AcDbLine
 10
-613.825784
 20
-16.124766
 30
0.0
 11
-609.624849
 21
-16.124766
 31
0.0
  0
LINE
  5
227
100
AcDbEntity
  8
0
370
    -3
  6
Continuous
100
AcDbLine
 10
-613.825784
 20
-3.624766
 30
0.0
 11
-609.396205
 21
-3.624766
 31
0.0
  0
ARC
  5
228
100
AcDbEntity
  8
0
370
    -3
  6
Continuous
100
AcDbCircle
 10
-606.825784
 20
-9.874766
 30
0.0
 40
5.0
100
AcDbArc
 50
121.898862
 51
235.986433
  0
ARC
  5
229
100
AcDbEntity
  8
0
370
    -3
  6
Continuous
100
AcDbCircle
 10
-605.825784
 20
7.125234
 30
0.0
 40
8.0
100
AcDbArc
 50
102.947508
 51
244.750783
  0
LINE
  5
22A
100
AcDbEntity
  8
0
370
    -3
  6
Continuous
100
AcDbLine
 10
-584.325782
 20
50.068606
 30
0.0
 11
-584.325782
 21
48.471771
 31
0.0
  0
LINE
  5
22B
100
AcDbEntity
  8
0
370
    -3
  6
Continuous
100
AcDbLine
 10
-581.825789
 20
51.511982
 30
0.0
 11
-580.786803
 21
50.912126
 31
0.0
  0
ARC
  5
22C
100
AcDbEntity
  8
0
370
    -3
  6
Continuous
100
AcDbCircle
 10
-581.825784
 20
48.625234
 30
0.0
 40
6.25
100
AcDbArc
 50
180.0
 51
205.575356
  0
LINE
  5
22D
100
AcDbEntity
  8
0
370
    -3
  6
Continuous
100
AcDbLine
 10
-575.575784
 20
58.353568
 30
0.0
 11
-575.575784
 21
53.777873
 31
0.0
  0
ARC
  5
22E
100
AcDbEntity
  8
0
370
    -3
  6
Continuous
100
AcDbCircle
 10
-581.825784
 20
48.625234
 30
0.0
 40
5.0
100
AcDbArc
 50
47.346626
 51
201.805435
  0
ARC
  5
22F
100
AcDbEntity
  8
0
370
    -3
  6
Continuous
100
AcDbCircle
 10
-534.825784
 20
-15.374766
 30
0.0
 40
80.8
100
AcDbArc
 50
219.094568
 51
230.905432
  0
ARC
  5
230
100
AcDbEntity
  8
0
370
    -3
  6
Continuous
100
AcDbCircle
 10
-534.825784
 20
-15.374766
 30
0.0
 40
66.944
100
AcDbArc
 50
219.094568
 51
230.905432
  0
ARC
  5
231
100
AcDbEntity
  8
0
370
    -3
  6
Continuous
100
AcDbCircle
 10
-558.10897
 20
-34.292833
 30
0.0
 40
50.8
100
AcDbArc
 50
184.33985
 51
219.094568
  0
ARC
  5
232
100
AcDbEntity
  8
0
370
    -3
  6
Continuous
100
AcDbCircle
 10
-553.743851
 20
-38.657952
 30
0.0
 40
50.8
100
AcDbArc
 50
230.905432
 51
265.66015
  0
LINE
  5
233
100
AcDbEntity
  8
0
370
    -3
  6
Continuous
100
AcDbLine
 10
-589.343717
 20
-76.539503
 30
0.0
 11
-595.990521
 21
-69.892699
 31
0.0
  0
ARC
  5
234
100
AcDbEntity
  8
0
370
    -3
  6
Continuous
100
AcDbCircle
 10
-595.778389
 20
-69.680567
 30
0.0
 40
0.3
100
AcDbArc
 50
135.0
 51
225.0
  0
LINE
  5
235
100
AcDbEntity
  8
0
370
    -3
  6
Continuous
100
AcDbLine
 10
-595.990521
 20
-69.468435
 30
0.0
 11
-595.38605
 21
-68.863964
 31
0.0
  0
LINE
  5
236
100
AcDbEntity
  8
0
370
    -3
  6
Continuous
100
AcDbLine
 10
-590.050824
 20
-76.963767
 30
0.0
 11
-589.485139
 21
-76.398081
 31
0.0
  0
LINE
  5
237
100
AcDbEntity
  8
0
370
    -3
  6
Continuous
100
AcDbLine
 10
-591.712525
 20
-75.302066
 30
0.0
 11
-590.050824
 21
-76.963767
 31
0.0
  0
LINE
  5
238
100
AcDbEntity
  8
0
370
    -3
  6
Continuous
100
AcDbLine
 10
-596.414785
 20
-70.599806
 30
0.0
 11
-595.8491
 21
-70.03412
 31
0.0
  0
LINE
  5
239
100
AcDbEntity
  8
0
370
    -3
  6
Continuous
100
AcDbLine
 10
-594.753084
 20
-72.261507
 30
0.0
 11
-596.414785
 21
-70.599806
 31
0.0
  0
ARC
  5
23A
100
AcDbEntity
  8
0
370
    -3
  6
Continuous
100
AcDbCircle
 10
-589.131585
 20
-76.327371
 30
0.0
 40
0.3
100
AcDbArc
 50
225.0
 51
315.0
  0
LINE
  5
23B
100
AcDbEntity
  8
0
370
    -3
  6
Continuous
100
AcDbLine
 10
-588.919453
 20
-76.539503
 30
0.0
 11
-588.314982
 21
-75.935031
 31
0.0
  0
INSERT
  5
247
100
AcDbEntity
  8
0
100
AcDbBlockReference
  2
ZU_SYM__USERS_HOME_SYMBOL_POO_SYM_S07_-1
 10
-593.232804
 20
-73.781786
 30
0.0
 41
-1.0
 42
1.0
 50
225.0
  0
ARC
  5
248
100
AcDbEntity
  8
0
370
    -3
  6
Continuous
100
AcDbCircle
 10
-534.825784
 20
-15.374766
 30
0.0
 40
80.8
100
AcDbArc
 50
309.094568
 51
320.905432
  0
LINE
  5
249
100
AcDbEntity
  8
0
370
    -3
  6
Continuous
100
AcDbLine
 10
-480.307852
 20
-76.539503
 30
0.0
 11
-473.661048
 21
-69.892699
 31
0.0
  0
ARC
  5
24A
100
AcDbEntity
  8
0
370
    -3
  6
Continuous
100
AcDbCircle
 10
-473.87318
 20
-69.680567
 30
0.0
 40
0.3
100
AcDbArc
 50
315.0
 51
45.0
  0
LINE
  5
24B
100
AcDbEntity
  8
0
370
    -3
  6
Continuous
100
AcDbLine
 10
-473.661048
 20
-69.468435
 30
0.0
 11
-474.265519
 21
-68.863964
 31
0.0
  0
LINE
  5
24C
100
AcDbEntity
  8
0
370
    -3
  6
Continuous
100
AcDbLine
 10
-479.600745
 20
-76.963767
 30
0.0
 11
-480.16643
 21
-76.398081
 31
0.0
  0
LINE
  5
24D
100
AcDbEntity
  8
0
370
    -3
  6
Continuous
100
AcDbLine
 10
-477.939044
 20
-75.302066
 30
0.0
 11
-479.600745
 21
-76.963767
 31
0.0
  0
LINE
  5
24E
100
AcDbEntity
  8
0
370
    -3
  6
Continuous
100
AcDbLine
 10
-473.236784
 20
-70.599806
 30
0.0
 11
-473.802469
 21
-70.03412
 31
0.0
  0
LINE
  5
24F
100
AcDbEntity
  8
0
370
    -3
  6
Continuous
100
AcDbLine
 10
-474.898485
 20
-72.261507
 30
0.0
 11
-473.236784
 21
-70.599806
 31
0.0
  0
ARC
  5
250
100
AcDbEntity
  8
0
370
    -3
  6
Continuous
100
AcDbCircle
 10
-480.519984
 20
-76.327371
 30
0.0
 40
0.3
100
AcDbArc
 50
225.0
 51
315.0
  0
LINE
  5
251
100
AcDbEntity
  8
0
370
    -3
  6
Continuous
100
AcDbLine
 10
-480.732116
 20
-76.539503
 30
0.0
 11
-481.336587
 21
-75.935031
 31
0.0
  0
INSERT
  5
25D
100
AcDbEntity
  8
0
100
AcDbBlockReference
  2
ZU_SYM__USERS_HOME_SYMBOL_POO_SYM_S07_00001-1
 10
-476.418764
 20
-73.781786
 30
0.0
 41
1.0
 42
1.0
 50
135.0
  0
ARC
  5
25E
100
AcDbEntity
  8
0
370
    -3
  6
Continuous
100
AcDbCircle
 10
-473.87318
 20
38.931035
 30
0.0
 40
0.3
100
AcDbArc
 50
315.0
 51
45.0
  0
LINE
  5
25F
100
AcDbEntity
  8
0
370
    -3
  6
Continuous
100
AcDbLine
 10
-473.661048
 20
38.718903
 30
0.0
 11
-474.265519
 21
38.114432
 31
0.0
  0
LINE
  5
260
100
AcDbEntity
  8
0
370
    -3
  6
Continuous
100
AcDbLine
 10
-473.236784
 20
39.850274
 30
0.0
 11
-473.802469
 21
39.284588
 31
0.0
  0
ARC
  5
261
100
AcDbEntity
  8
0
370
    -3
  6
Continuous
100
AcDbCircle
 10
-534.825784
 20
-15.374766
 30
0.0
 40
66.944
100
AcDbArc
 50
39.094568
 51
50.905432
  0
ARC
  5
262
100
AcDbEntity
  8
0
370
    -3
  6
Continuous
100
AcDbCircle
 10
-534.825784
 20
-15.374766
 30
0.0
 40
80.8
100
AcDbArc
 50
39.094568
 51
50.905432
  0
ARC
  5
263
100
AcDbEntity
  8
0
370
    -3
  6
Continuous
100
AcDbCircle
 10
-515.907717
 20
7.90842
 30
0.0
 40
50.8
100
AcDbArc
 50
50.905432
 51
85.66015
  0
LINE
  5
264
100
AcDbEntity
  8
0
370
    -3
  6
Continuous
100
AcDbLine
 10
-480.307852
 20
45.789971
 30
0.0
 11
-473.661048
 21
39.143167
 31
0.0
  0
LINE
  5
265
100
AcDbEntity
  8
0
370
    -3
  6
Continuous
100
AcDbLine
 10
-479.600745
 20
46.214235
 30
0.0
 11
-480.16643
 21
45.648549
 31
0.0
  0
LINE
  5
266
100
AcDbEntity
  8
0
370
    -3
  6
Continuous
100
AcDbLine
 10
-477.939044
 20
44.552534
 30
0.0
 11
-479.600745
 21
46.214235
 31
0.0
  0
LINE
  5
267
100
AcDbEntity
  8
0
370
    -3
  6
Continuous
100
AcDbLine
 10
-474.898485
 20
41.511974
 30
0.0
 11
-473.236784
 21
39.850274
 31
0.0
  0
ARC
  5
268
100
AcDbEntity
  8
0
370
    -3
  6
Continuous
100
AcDbCircle
 10
-480.519984
 20
45.577838
 30
0.0
 40
0.3
100
AcDbArc
 50
45.0
 51
135.0
  0
LINE
  5
269
100
AcDbEntity
  8
0
370
    -3
  6
Continuous
100
AcDbLine
 10
-480.732116
 20
45.789971
 30
0.0
 11
-481.336587
 21
45.185499
 31
0.0
  0
INSERT
  5
275
100
AcDbEntity
  8
0
100
AcDbBlockReference
  2
ZU_SYM__USERS_HOME_SYMBOL_POO_SYM_S07_00002-1
 10
-476.418764
 20
43.032254
 30
0.0
 41
-1.0
 42
1.0
 50
45.0
  0
ARC
  5
276
100
AcDbEntity
  8
0
370
    -3
  6
Continuous
100
AcDbCircle
 10
-534.825784
 20
-15.374766
 30
0.0
 40
66.944
100
AcDbArc
 50
129.094568
 51
140.905432
  0
ARC
  5
277
100
AcDbEntity
  8
0
370
    -3
  6
Continuous
100
AcDbCircle
 10
-534.825784
 20
-15.374766
 30
0.0
 40
80.8
100
AcDbArc
 50
129.094568
 51
140.905432
  0
ARC
  5
278
100
AcDbEntity
  8
0
370
    -3
  6
Continuous
100
AcDbCircle
 10
-553.743851
 20
7.90842
 30
0.0
 40
50.8
100
AcDbArc
 50
94.33985
 51
129.094568
  0
LINE
  5
279
100
AcDbEntity
  8
0
370
    -3
  6
Continuous
100
AcDbLine
 10
-589.343717
 20
45.789971
 30
0.0
 11
-595.990521
 21
39.143167
 31
0.0
  0
ARC
  5
27A
100
AcDbEntity
  8
0
370
    -3
  6
Continuous
100
AcDbCircle
 10
-595.778389
 20
38.931035
 30
0.0
 40
0.3
100
AcDbArc
 50
135.0
 51
225.0
  0
LINE
  5
27B
100
AcDbEntity
  8
0
370
    -3
  6
Continuous
100
AcDbLine
 10
-595.990521
 20
38.718903
 30
0.0
 11
-595.38605
 21
38.114432
 31
0.0
  0
LINE
  5
27C
100
AcDbEntity
  8
0
370
    -3
  6
Continuous
100
AcDbLine
 10
-590.050824
 20
46.214235
 30
0.0
 11
-589.485139
 21
45.648549
 31
0.0
  0
LINE
  5
27D
100
AcDbEntity
  8
0
370
    -3
  6
Continuous
100
AcDbLine
 10
-591.712525
 20
44.552534
 30
0.0
 11
-590.050824
 21
46.214235
 31
0.0
  0
LINE
  5
27E
100
AcDbEntity
  8
0
370
    -3
  6
Continuous
100
AcDbLine
 10
-596.414785
 20
39.850274
 30
0.0
 11
-595.8491
 21
39.284588
 31
0.0
  0
LINE
  5
27F
100
AcDbEntity
  8
0
370
    -3
  6
Continuous
100
AcDbLine
 10
-594.753084
 20
41.511974
 30
0.0
 11
-596.414785
 21
39.850274
 31
0.0
  0
ARC
  5
280
100
AcDbEntity
  8
0
370
    -3
  6
Continuous
100
AcDbCircle
 10
-589.131585
 20
45.577838
 30
0.0
 40
0.3
100
AcDbArc
 50
45.0
 51
135.0
  0
LINE
  5
281
100
AcDbEntity
  8
0
370
    -3
  6
Continuous
100
AcDbLine
 10
-588.919453
 20
45.789971
 30
0.0
 11
-588.314982
 21
45.185499
 31
0.0
  0
INSERT
  5
28D
100
AcDbEntity
  8
0
100
AcDbBlockReference
  2
ZU_SYM__USERS_HOME_SYMBOL_POO_SYM_S07_00003-1
 10
-593.232804
 20
43.032254
 30
0.0
 41
1.0
 42
1.0
 50
315.0
  0
ARC
  5
28E
100
AcDbEntity
  8
0
370
    -3
  6
Continuous
100
AcDbCircle
 10
-308.825784
 20
-15.374766
 30
0.0
 40
300.8
100
AcDbArc
 50
175.66015
 51
184.33985
  0
ARC
  5
28F
100
AcDbEntity
  8
0
370
    -3
  6
Continuous
100
AcDbCircle
 10
-534.825784
 20
-241.374766
 30
0.0
 40
300.8
100
AcDbArc
 50
85.66015
 51
94.33985
  0
CIRCLE
  5
290
100
AcDbEntity
  8
0
370
    -3
  6
Continuous
100
AcDbCircle
 10
-534.825784
 20
-15.374766
 30
0.0
 40
5.0
  0
LINE
  5
291
100
AcDbEntity
  8
0
370
    -3
  6
Continuous
100
AcDbLine
 10
-538.325784
 20
37.339084
 30
0.0
 11
-538.325784
 21
35.327798
 31
0.0
  0
LINE
  5
292
100
AcDbEntity
  8
0
370
    -3
  6
Continuous
100
AcDbLine
 10
-579.309388
 20
13.194606
 30
0.0
 11
-577.570812
 21
12.190839
 31
0.0
  0
ARC
  5
293
100
AcDbEntity
  8
0
370
    -3
  6
Continuous
100
AcDbCircle
 10
-534.825784
 20
-15.374766
 30
0.0
 40
55.0
100
AcDbArc
 50
95.956512
 51
145.1294
  0
ARC
  5
294
100
AcDbEntity
  8
0
370
    -3
  6
Continuous
100
AcDbCircle
 10
-534.825784
 20
-15.374766
 30
0.0
 40
49.0
100
AcDbArc
 50
96.190997
 51
144.937907
  0
ARC
  5
295
100
AcDbEntity
  8
0
370
    -3
  6
Continuous
100
AcDbCircle
 10
-534.825784
 20
-15.374766
 30
0.0
 40
45.0
100
AcDbArc
 50
97.348661
 51
143.992931
  0
ARC
  5
296
100
AcDbEntity
  8
0
370
    -3
  6
Continuous
100
AcDbCircle
 10
-534.825784
 20
-15.374766
 30
0.0
 40
39.0
100
AcDbArc
 50
97.70926
 51
143.698744
  0
ARC
  5
297
100
AcDbEntity
  8
0
370
    -3
  6
Continuous
100
AcDbCircle
 10
-534.825784
 20
-15.374766
 30
0.0
 40
35.0
100
AcDbArc
 50
99.594068
 51
142.16252
  0
ARC
  5
298
100
AcDbEntity
  8
0
370
    -3
  6
Continuous
100
AcDbCircle
 10
-534.825784
 20
-15.374766
 30
0.0
 40
29.0
100
AcDbArc
 50
100.21948
 51
141.653381
  0
ARC
  5
299
100
AcDbEntity
  8
0
370
    -3
  6
Continuous
100
AcDbCircle
 10
-534.825784
 20
-15.374766
 30
0.0
 40
25.0
100
AcDbArc
 50
103.835224
 51
138.717176
  0
ARC
  5
29A
100
AcDbEntity
  8
0
370
    -3
  6
Continuous
100
AcDbCircle
 10
-534.825784
 20
-15.374766
 30
0.0
 40
19.0
100
AcDbArc
 50
105.183114
 51
137.626375
  0
ARC
  5
29B
100
AcDbEntity
  8
0
370
    -3
  6
Continuous
100
AcDbCircle
 10
-534.825784
 20
-15.374766
 30
0.0
 40
15.0
100
AcDbArc
 50
115.028999
 51
129.747753
  0
ARC
  5
29C
100
AcDbEntity
  8
0
370
    -3
  6
Continuous
100
AcDbCircle
 10
-534.825784
 20
-15.374766
 30
0.0
 40
9.0
100
AcDbArc
 50
120.0
 51
125.85226
  0
LINE
  5
29D
100
AcDbEntity
  8
0
370
    -3
  6
Continuous
100
AcDbLine
 10
-538.325784
 20
27.272039
 30
0.0
 11
-538.325784
 21
25.254657
 31
0.0
  0
LINE
  5
29E
100
AcDbEntity
  8
0
370
    -3
  6
Continuous
100
AcDbLine
 10
-538.325784
 20
17.163673
 30
0.0
 11
-538.325784
 21
15.13343
 31
0.0
  0
LINE
  5
29F
100
AcDbEntity
  8
0
370
    -3
  6
Continuous
100
AcDbLine
 10
-538.325784
 20
6.957945
 30
0.0
 11
-538.325784
 21
4.892202
 31
0.0
  0
LINE
  5
2A0
100
AcDbEntity
  8
0
370
    -3
  6
Continuous
100
AcDbLine
 10
-538.325784
 20
-3.595547
 30
0.0
 11
-538.325784
 21
-5.848487
 31
0.0
  0
LINE
  5
2A1
100
AcDbEntity
  8
0
370
    -3
  6
Continuous
100
AcDbLine
 10
-544.138099
 20
-7.111547
 30
0.0
 11
-542.268454
 21
-8.190988
 31
0.0
  0
LINE
  5
2A2
100
AcDbEntity
  8
0
370
    -3
  6
Continuous
100
AcDbLine
 10
-553.109409
 20
-1.931959
 30
0.0
 11
-551.339863
 21
-2.953607
 31
0.0
  0
LINE
  5
2A3
100
AcDbEntity
  8
0
370
    -3
  6
Continuous
100
AcDbLine
 10
-561.887663
 20
3.136168
 30
0.0
 11
-560.138211
 21
2.126122
 31
0.0
  0
LINE
  5
2A4
100
AcDbEntity
  8
0
370
    -3
  6
Continuous
100
AcDbLine
 10
-570.610397
 20
8.172241
 30
0.0
 11
-568.868312
 21
7.166448
 31
0.0
  0
ARC
  5
2A5
100
AcDbEntity
  8
0
370
    -3
  6
Continuous
100
AcDbCircle
 10
-534.825784
 20
-15.374766
 30
0.0
 40
35.0
100
AcDbArc
 50
37.83748
 51
80.405932
  0
LINE
  5
2A6
100
AcDbEntity
  8
0
370
    -3
  6
Continuous
100
AcDbLine
 10
-531.325784
 20
17.163673
 30
0.0
 11
-531.325784
 21
15.13343
 31
0.0
  0
LINE
  5
2A7
100
AcDbEntity
  8
0
370
    -3
  6
Continuous
100
AcDbLine
 10
-531.325784
 20
27.272039
 30
0.0
 11
-531.325784
 21
25.254657
 31
0.0
  0
ARC
  5
2A8
100
AcDbEntity
  8
0
370
    -3
  6
Continuous
100
AcDbCircle
 10
-534.825784
 20
-15.374766
 30
0.0
 40
39.0
100
AcDbArc
 50
36.301256
 51
82.29074
  0
ARC
  5
2A9
100
AcDbEntity
  8
0
370
    -3
  6
Continuous
100
AcDbCircle
 10
-534.825784
 20
-15.374766
 30
0.0
 40
45.0
100
AcDbArc
 50
36.007069
 51
82.651339
  0
ARC
  5
2AA
100
AcDbEntity
  8
0
370
    -3
  6
Continuous
100
AcDbCircle
 10
-534.825784
 20
-15.374766
 30
0.0
 40
55.0
100
AcDbArc
 50
34.8706
 51
84.043488
  0
LINE
  5
2AB
100
AcDbEntity
  8
0
370
    -3
  6
Continuous
100
AcDbLine
 10
-531.325784
 20
37.339084
 30
0.0
 11
-531.325784
 21
35.327798
 31
0.0
  0
ARC
  5
2AC
100
AcDbEntity
  8
0
370
    -3
  6
Continuous
100
AcDbCircle
 10
-534.825784
 20
-15.374766
 30
0.0
 40
49.0
100
AcDbArc
 50
35.062093
 51
83.809003
  0
LINE
  5
2AD
100
AcDbEntity
  8
0
370
    -3
  6
Continuous
100
AcDbLine
 10
-490.342181
 20
13.194606
 30
0.0
 11
-492.080756
 21
12.190839
 31
0.0
  0
LINE
  5
2AE
100
AcDbEntity
  8
0
370
    -3
  6
Continuous
100
AcDbLine
 10
-499.041172
 20
8.172241
 30
0.0
 11
-500.783257
 21
7.166448
 31
0.0
  0
ARC
  5
2AF
100
AcDbEntity
  8
0
370
    -3
  6
Continuous
100
AcDbCircle
 10
-534.825784
 20
-15.374766
 30
0.0
 40
29.0
100
AcDbArc
 50
38.346619
 51
79.78052
  0
LINE
  5
2B0
100
AcDbEntity
  8
0
370
    -3
  6
Continuous
100
AcDbLine
 10
-507.763905
 20
3.136168
 30
0.0
 11
-509.513358
 21
2.126122
 31
0.0
  0
LINE
  5
2B1
100
AcDbEntity
  8
0
370
    -3
  6
Continuous
100
AcDbLine
 10
-531.325784
 20
6.957945
 30
0.0
 11
-531.325784
 21
4.892202
 31
0.0
  0
ARC
  5
2B2
100
AcDbEntity
  8
0
370
    -3
  6
Continuous
100
AcDbCircle
 10
-534.825784
 20
-15.374766
 30
0.0
 40
25.0
100
AcDbArc
 50
41.282824
 51
76.164776
  0
ARC
  5
2B3
100
AcDbEntity
  8
0
370
    -3
  6
Continuous
100
AcDbCircle
 10
-534.825784
 20
-15.374766
 30
0.0
 40
19.0
100
AcDbArc
 50
42.373625
 51
74.816886
  0
LINE
  5
2B4
100
AcDbEntity
  8
0
370
    -3
  6
Continuous
100
AcDbLine
 10
-516.542159
 20
-1.931959
 30
0.0
 11
-518.311705
 21
-2.953607
 31
0.0
  0
LINE
  5
2B5
100
AcDbEntity
  8
0
370
    -3
  6
Continuous
100
AcDbLine
 10
-531.325784
 20
-3.595547
 30
0.0
 11
-531.325784
 21
-5.848487
 31
0.0
  0
ARC
  5
2B6
100
AcDbEntity
  8
0
370
    -3
  6
Continuous
100
AcDbCircle
 10
-534.825784
 20
-15.374766
 30
0.0
 40
15.0
100
AcDbArc
 50
50.252247
 51
64.971001
  0
ARC
  5
2B7
100
AcDbEntity
  8
0
370
    -3
  6
Continuous
100
AcDbCircle
 10
-534.825784
 20
-15.374766
 30
0.0
 40
9.0
100
AcDbArc
 50
54.14774
 51
60.0
  0
LINE
  5
2B8
100
AcDbEntity
  8
0
370
    -3
  6
Continuous
100
AcDbLine
 10
-525.513469
 20
-7.111547
 30
0.0
 11
-527.383115
 21
-8.190988
 31
0.0
  0
ARC
  5
2B9
100
AcDbEntity
  8
0
370
    -3
  6
Continuous
100
AcDbCircle
 10
-534.825784
 20
-15.374766
 30
0.0
 40
35.0
100
AcDbArc
 50
279.594068
 51
322.16252
  0
LINE
  5
2BA
100
AcDbEntity
  8
0
370
    -3
  6
Continuous
100
AcDbLine
 10
-531.325784
 20
-47.913205
 30
0.0
 11
-531.325784
 21
-45.882962
 31
0.0
  0
LINE
  5
2BB
100
AcDbEntity
  8
0
370
    -3
  6
Continuous
100
AcDbLine
 10
-531.325784
 20
-58.021571
 30
0.0
 11
-531.325784
 21
-56.004189
 31
0.0
  0
ARC
  5
2BC
100
AcDbEntity
  8
0
370
    -3
  6
Continuous
100
AcDbCircle
 10
-534.825784
 20
-15.374766
 30
0.0
 40
39.0
100
AcDbArc
 50
277.70926
 51
323.698744
  0
ARC
  5
2BD
100
AcDbEntity
  8
0
370
    -3
  6
Continuous
100
AcDbCircle
 10
-534.825784
 20
-15.374766
 30
0.0
 40
45.0
100
AcDbArc
 50
277.348661
 51
323.992931
  0
ARC
  5
2BE
100
AcDbEntity
  8
0
370
    -3
  6
Continuous
100
AcDbCircle
 10
-534.825784
 20
-15.374766
 30
0.0
 40
55.0
100
AcDbArc
 50
275.956512
 51
325.1294
  0
LINE
  5
2BF
100
AcDbEntity
  8
0
370
    -3
  6
Continuous
100
AcDbLine
 10
-531.325784
 20
-68.088616
 30
0.0
 11
-531.325784
 21
-66.07733
 31
0.0
  0
ARC
  5
2C0
100
AcDbEntity
  8
0
370
    -3
  6
Continuous
100
AcDbCircle
 10
-534.825784
 20
-15.374766
 30
0.0
 40
49.0
100
AcDbArc
 50
276.190997
 51
324.937907
  0
LINE
  5
2C1
100
AcDbEntity
  8
0
370
    -3
  6
Continuous
100
AcDbLine
 10
-490.342181
 20
-43.944138
 30
0.0
 11
-492.080756
 21
-42.940371
 31
0.0
  0
LINE
  5
2C2
100
AcDbEntity
  8
0
370
    -3
  6
Continuous
100
AcDbLine
 10
-499.041172
 20
-38.921773
 30
0.0
 11
-500.783257
 21
-37.91598
 31
0.0
  0
ARC
  5
2C3
100
AcDbEntity
  8
0
370
    -3
  6
Continuous
100
AcDbCircle
 10
-534.825784
 20
-15.374766
 30
0.0
 40
29.0
100
AcDbArc
 50
280.21948
 51
321.653381
  0
LINE
  5
2C4
100
AcDbEntity
  8
0
370
    -3
  6
Continuous
100
AcDbLine
 10
-507.763905
 20
-33.885701
 30
0.0
 11
-509.513358
 21
-32.875654
 31
0.0
  0
LINE
  5
2C5
100
AcDbEntity
  8
0
370
    -3
  6
Continuous
100
AcDbLine
 10
-531.325784
 20
-37.707477
 30
0.0
 11
-531.325784
 21
-35.641734
 31
0.0
  0
ARC
  5
2C6
100
AcDbEntity
  8
0
370
    -3
  6
Continuous
100
AcDbCircle
 10
-534.825784
 20
-15.374766
 30
0.0
 40
25.0
100
AcDbArc
 50
283.835224
 51
318.717176
  0
ARC
  5
2C7
100
AcDbEntity
  8
0
370
    -3
  6
Continuous
100
AcDbCircle
 10
-534.825784
 20
-15.374766
 30
0.0
 40
19.0
100
AcDbArc
 50
285.183114
 51
317.626375
  0
LINE
  5
2C8
100
AcDbEntity
  8
0
370
    -3
  6
Continuous
100
AcDbLine
 10
-516.542159
 20
-28.817573
 30
0.0
 11
-518.311705
 21
-27.795925
 31
0.0
  0
LINE
  5
2C9
100
AcDbEntity
  8
0
370
    -3
  6
Continuous
100
AcDbLine
 10
-531.325784
 20
-27.153985
 30
0.0
 11
-531.325784
 21
-24.901045
 31
0.0
  0
ARC
  5
2CA
100
AcDbEntity
  8
0
370
    -3
  6
Continuous
100
AcDbCircle
 10
-534.825784
 20
-15.374766
 30
0.0
 40
15.0
100
AcDbArc
 50
295.028999
 51
309.747753
  0
ARC
  5
2CB
100
AcDbEntity
  8
0
370
    -3
  6
Continuous
100
AcDbCircle
 10
-534.825784
 20
-15.374766
 30
0.0
 40
9.0
100
AcDbArc
 50
300.0
 51
305.85226
  0
LINE
  5
2CC
100
AcDbEntity
  8
0
370
    -3
  6
Continuous
100
AcDbLine
 10
-525.513469
 20
-23.637985
 30
0.0
 11
-527.383115
 21
-22.558545
 31
0.0
  0
ARC
  5
2CD
100
AcDbEntity
  8
0
370
    -3
  6
Continuous
100
AcDbCircle
 10
-534.825784
 20
-15.374766
 30
0.0
 40
35.0
100
AcDbArc
 50
217.83748
 51
260.405932
  0
LINE
  5
2CE
100
AcDbEntity
  8
0
370
    -3
  6
Continuous
100
AcDbLine
 10
-538.325784
 20
-47.913205
 30
0.0
 11
-538.325784
 21
-45.882962
 31
0.0
  0
LINE
  5
2CF
100
AcDbEntity
  8
0
370
    -3
  6
Continuous
100
AcDbLine
 10
-538.325784
 20
-58.021571
 30
0.0
 11
-538.325784
 21
-56.004189
 31
0.0
  0
ARC
  5
2D0
100
AcDbEntity
  8
0
370
    -3
  6
Continuous
100
AcDbCircle
 10
-534.825784
 20
-15.374766
 30
0.0
 40
39.0
100
AcDbArc
 50
216.301256
 51
262.29074
  0
ARC
  5
2D1
100
AcDbEntity
  8
0
370
    -3
  6
Continuous
100
AcDbCircle
 10
-534.825784
 20
-15.374766
 30
0.0
 40
45.0
100
AcDbArc
 50
216.007069
 51
262.651339
  0
ARC
  5
2D2
100
AcDbEntity
  8
0
370
    -3
  6
Continuous
100
AcDbCircle
 10
-534.825784
 20
-15.374766
 30
0.0
 40
55.0
100
AcDbArc
 50
214.8706
 51
264.043488
  0
LINE
  5
2D3
100
AcDbEntity
  8
0
370
    -3
  6
Continuous
100
AcDbLine
 10
-538.325784
 20
-68.088616
 30
0.0
 11
-538.325784
 21
-66.07733
 31
0.0
  0
ARC
  5
2D4
100
AcDbEntity
  8
0
370
    -3
  6
Continuous
100
AcDbCircle
 10
-534.825784
 20
-15.374766
 30
0.0
 40
49.0
100
AcDbArc
 50
215.062093
 51
263.809003
  0
LINE
  5
2D5
100
AcDbEntity
  8
0
370
    -3
  6
Continuous
100
AcDbLine
 10
-579.309388
 20
-43.944138
 30
0.0
 11
-577.570812
 21
-42.940371
 31
0.0
  0
LINE
  5
2D6
100
AcDbEntity
  8
0
370
    -3
  6
Continuous
100
AcDbLine
 10
-570.610397
 20
-38.921773
 30
0.0
 11
-568.868312
 21
-37.91598
 31
0.0
  0
ARC
  5
2D7
100
AcDbEntity
  8
0
370
    -3
  6
Continuous
100
AcDbCircle
 10
-534.825784
 20
-15.374766
 30
0.0
 40
29.0
100
AcDbArc
 50
218.346619
 51
259.78052
  0
LINE
  5
2D8
100
AcDbEntity
  8
0
370
    -3
  6
Continuous
100
AcDbLine
 10
-561.887663
 20
-33.885701
 30
0.0
 11
-560.138211
 21
-32.875654
 31
0.0
  0
LINE
  5
2D9
100
AcDbEntity
  8
0
370
    -3
  6
Continuous
100
AcDbLine
 10
-538.325784
 20
-37.707477
 30
0.0
 11
-538.325784
 21
-35.641734
 31
0.0
  0
ARC
  5
2DA
100
AcDbEntity
  8
0
370
    -3
  6
Continuous
100
AcDbCircle
 10
-534.825784
 20
-15.374766
 30
0.0
 40
25.0
100
AcDbArc
 50
221.282824
 51
256.164776
  0
ARC
  5
2DB
100
AcDbEntity
  8
0
370
    -3
  6
Continuous
100
AcDbCircle
 10
-534.825784
 20
-15.374766
 30
0.0
 40
19.0
100
AcDbArc
 50
222.373625
 51
254.816886
  0
LINE
  5
2DC
100
AcDbEntity
  8
0
370
    -3
  6
Continuous
100
AcDbLine
 10
-553.109409
 20
-28.817573
 30
0.0
 11
-551.339863
 21
-27.795925
 31
0.0
  0
LINE
  5
2DD
100
AcDbEntity
  8
0
370
    -3
  6
Continuous
100
AcDbLine
 10
-538.325784
 20
-27.153985
 30
0.0
 11
-538.325784
 21
-24.901045
 31
0.0
  0
ARC
  5
2DE
100
AcDbEntity
  8
0
370
    -3
  6
Continuous
100
AcDbCircle
 10
-534.825784
 20
-15.374766
 30
0.0
 40
15.0
100
AcDbArc
 50
230.252247
 51
244.971001
  0
ARC
  5
2DF
100
AcDbEntity
  8
0
370
    -3
  6
Continuous
100
AcDbCircle
 10
-534.825784
 20
-15.374766
 30
0.0
 40
9.0
100
AcDbArc
 50
234.14774
 51
240.0
  0
LINE
  5
2E0
100
AcDbEntity
  8
0
370
    -3
  6
Continuous
100
AcDbLine
 10
-544.138099
 20
-23.637985
 30
0.0
 11
-542.268454
 21
-22.558545
 31
0.0
  0
ARC
  5
2E1
100
AcDbEntity
  8
0
370
    -3
  6
Continuous
100
AcDbCircle
 10
-534.825784
 20
-15.374766
 30
0.0
 40
35.0
100
AcDbArc
 50
337.83748
 51
20.405932
  0
LINE
  5
2E2
100
AcDbEntity
  8
0
370
    -3
  6
Continuous
100
AcDbLine
 10
-504.89667
 20
-2.136636
 30
0.0
 11
-506.654912
 21
-3.151757
 31
0.0
  0
LINE
  5
2E3
100
AcDbEntity
  8
0
370
    -3
  6
Continuous
100
AcDbLine
 10
-496.142568
 20
2.917548
 30
0.0
 11
-497.889672
 21
1.908856
 31
0.0
  0
ARC
  5
2E4
100
AcDbEntity
  8
0
370
    -3
  6
Continuous
100
AcDbCircle
 10
-534.825784
 20
-15.374766
 30
0.0
 40
39.0
100
AcDbArc
 50
336.301256
 51
22.29074
  0
ARC
  5
2E5
100
AcDbEntity
  8
0
370
    -3
  6
Continuous
100
AcDbCircle
 10
-534.825784
 20
-15.374766
 30
0.0
 40
45.0
100
AcDbArc
 50
336.007069
 51
22.651339
  0
ARC
  5
2E6
100
AcDbEntity
  8
0
370
    -3
  6
Continuous
100
AcDbCircle
 10
-534.825784
 20
-15.374766
 30
0.0
 40
55.0
100
AcDbArc
 50
334.8706
 51
24.043488
  0
LINE
  5
2E7
100
AcDbEntity
  8
0
370
    -3
  6
Continuous
100
AcDbLine
 10
-487.424251
 20
7.95107
 30
0.0
 11
-489.166076
 21
6.945427
 31
0.0
  0
ARC
  5
2E8
100
AcDbEntity
  8
0
370
    -3
  6
Continuous
100
AcDbCircle
 10
-534.825784
 20
-15.374766
 30
0.0
 40
49.0
100
AcDbArc
 50
335.062093
 51
23.809003
  0
ARC
  5
2E9
100
AcDbEntity
  8
0
370
    -3
  6
Continuous
100
AcDbCircle
 10
-534.825784
 20
-15.374766
 30
0.0
 40
29.0
100
AcDbArc
 50
338.346619
 51
19.78052
  0
LINE
  5
2EA
100
AcDbEntity
  8
0
370
    -3
  6
Continuous
100
AcDbLine
 10
-513.735089
 20
-7.239499
 30
0.0
 11
-515.524075
 21
-8.272371
 31
0.0
  0
ARC
  5
2EB
100
AcDbEntity
  8
0
370
    -3
  6
Continuous
100
AcDbCircle
 10
-534.825784
 20
-15.374766
 30
0.0
 40
25.0
100
AcDbArc
 50
341.282824
 51
16.164776
  0
ARC
  5
2EC
100
AcDbEntity
  8
0
370
    -3
  6
Continuous
100
AcDbCircle
 10
-534.825784
 20
-15.374766
 30
0.0
 40
19.0
100
AcDbArc
 50
342.373625
 51
14.816886
  0
LINE
  5
2ED
100
AcDbEntity
  8
0
370
    -3
  6
Continuous
100
AcDbLine
 10
-522.874681
 20
-12.516245
 30
0.0
 11
-524.825784
 21
-13.642715
 31
0.0
  0
ARC
  5
2EE
100
AcDbEntity
  8
0
370
    -3
  6
Continuous
100
AcDbCircle
 10
-534.825784
 20
-15.374766
 30
0.0
 40
15.0
100
AcDbArc
 50
350.252247
 51
4.971001
  0
ARC
  5
2EF
100
AcDbEntity
  8
0
370
    -3
  6
Continuous
100
AcDbCircle
 10
-534.825784
 20
-15.374766
 30
0.0
 40
9.0
100
AcDbArc
 50
354.14774
 51
0.0
  0
LINE
  5
2F0
100
AcDbEntity
  8
0
370
    -3
  6
Continuous
100
AcDbLine
 10
-523.013469
 20
-19.307858
 30
0.0
 11
-524.883115
 21
-18.228418
 31
0.0
  0
LINE
  5
2F1
100
AcDbEntity
  8
0
370
    -3
  6
Continuous
100
AcDbLine
 10
-514.042159
 20
-24.487446
 30
0.0
 11
-515.811705
 21
-23.465798
 31
0.0
  0
LINE
  5
2F2
100
AcDbEntity
  8
0
370
    -3
  6
Continuous
100
AcDbLine
 10
-505.263905
 20
-29.555574
 30
0.0
 11
-507.013358
 21
-28.545527
 31
0.0
  0
LINE
  5
2F3
100
AcDbEntity
  8
0
370
    -3
  6
Continuous
100
AcDbLine
 10
-496.541172
 20
-34.591646
 30
0.0
 11
-498.283257
 21
-33.585853
 31
0.0
  0
LINE
  5
2F4
100
AcDbEntity
  8
0
370
    -3
  6
Continuous
100
AcDbLine
 10
-487.842181
 20
-39.614011
 30
0.0
 11
-489.580756
 21
-38.610244
 31
0.0
  0
ARC
  5
2F5
100
AcDbEntity
  8
0
370
    -3
  6
Continuous
100
AcDbCircle
 10
-534.825784
 20
-15.374766
 30
0.0
 40
35.0
100
AcDbArc
 50
159.594068
 51
202.16252
  0
LINE
  5
2F6
100
AcDbEntity
  8
0
370
    -3
  6
Continuous
100
AcDbLine
 10
-564.754899
 20
-2.136636
 30
0.0
 11
-562.996657
 21
-3.151757
 31
0.0
  0
LINE
  5
2F7
100
AcDbEntity
  8
0
370
    -3
  6
Continuous
100
AcDbLine
 10
-573.509001
 20
2.917548
 30
0.0
 11
-571.761897
 21
1.908856
 31
0.0
  0
ARC
  5
2F8
100
AcDbEntity
  8
0
370
    -3
  6
Continuous
100
AcDbCircle
 10
-534.825784
 20
-15.374766
 30
0.0
 40
39.0
100
AcDbArc
 50
157.70926
 51
203.698744
  0
ARC
  5
2F9
100
AcDbEntity
  8
0
370
    -3
  6
Continuous
100
AcDbCircle
 10
-534.825784
 20
-15.374766
 30
0.0
 40
45.0
100
AcDbArc
 50
157.348661
 51
203.992931
  0
ARC
  5
2FA
100
AcDbEntity
  8
0
370
    -3
  6
Continuous
100
AcDbCircle
 10
-534.825784
 20
-15.374766
 30
0.0
 40
55.0
100
AcDbArc
 50
155.956512
 51
205.1294
  0
LINE
  5
2FB
100
AcDbEntity
  8
0
370
    -3
  6
Continuous
100
AcDbLine
 10
-582.227318
 20
7.95107
 30
0.0
 11
-580.485493
 21
6.945427
 31
0.0
  0
ARC
  5
2FC
100
AcDbEntity
  8
0
370
    -3
  6
Continuous
100
AcDbCircle
 10
-534.825784
 20
-15.374766
 30
0.0
 40
49.0
100
AcDbArc
 50
156.190997
 51
204.937907
  0
ARC
  5
2FD
100
AcDbEntity
  8
0
370
    -3
  6
Continuous
100
AcDbCircle
 10
-534.825784
 20
-15.374766
 30
0.0
 40
29.0
100
AcDbArc
 50
160.21948
 51
201.653381
  0
LINE
  5
2FE
100
AcDbEntity
  8
0
370
    -3
  6
Continuous
100
AcDbLine
 10
-555.91648
 20
-7.239499
 30
0.0
 11
-554.127494
 21
-8.272371
 31
0.0
  0
ARC
  5
2FF
100
AcDbEntity
  8
0
370
    -3
  6
Continuous
100
AcDbCircle
 10
-534.825784
 20
-15.374766
 30
0.0
 40
25.0
100
AcDbArc
 50
163.835224
 51
198.717176
  0
ARC
  5
300
100
AcDbEntity
  8
0
370
    -3
  6
Continuous
100
AcDbCircle
 10
-534.825784
 20
-15.374766
 30
0.0
 40
19.0
100
AcDbArc
 50
165.183114
 51
197.626375
  0
LINE
  5
301
100
AcDbEntity
  8
0
370
    -3
  6
Continuous
100
AcDbLine
 10
-546.776887
 20
-12.516245
 30
0.0
 11
-544.825784
 21
-13.642715
 31
0.0
  0
ARC
  5
302
100
AcDbEntity
  8
0
370
    -3
  6
Continuous
100
AcDbCircle
 10
-534.825784
 20
-15.374766
 30
0.0
 40
15.0
100
AcDbArc
 50
175.028999
 51
189.747753
  0
ARC
  5
303
100
AcDbEntity
  8
0
370
    -3
  6
Continuous
100
AcDbCircle
 10
-534.825784
 20
-15.374766
 30
0.0
 40
9.0
100
AcDbArc
 50
180.0
 51
185.85226
  0
LINE
  5
304
100
AcDbEntity
  8
0
370
    -3
  6
Continuous
100
AcDbLine
 10
-546.638099
 20
-19.307858
 30
0.0
 11
-544.768454
 21
-18.228418
 31
0.0
  0
LINE
  5
305
100
AcDbEntity
  8
0
370
    -3
  6
Continuous
100
AcDbLine
 10
-555.609409
 20
-24.487446
 30
0.0
 11
-553.839863
 21
-23.465798
 31
0.0
  0
LINE
  5
306
100
AcDbEntity
  8
0
370
    -3
  6
Continuous
100
AcDbLine
 10
-564.387663
 20
-29.555574
 30
0.0
 11
-562.638211
 21
-28.545527
 31
0.0
  0
LINE
  5
307
100
AcDbEntity
  8
0
370
    -3
  6
Continuous
100
AcDbLine
 10
-573.110397
 20
-34.591646
 30
0.0
 11
-571.368312
 21
-33.585853
 31
0.0
  0
LINE
  5
308
100
AcDbEntity
  8
0
370
    -3
  6
Continuous
100
AcDbLine
 10
-581.809388
 20
-39.614011
 30
0.0
 11
-580.070812
 21
-38.610244
 31
0.0
  0
ARC
  5
309
100
AcDbEntity
  8
0
370
    -3
  6
Continuous
100
AcDbCircle
 10
-515.907717
 20
-38.657952
 30
0.0
 40
50.8
100
AcDbArc
 50
274.33985
 51
309.094568
  0
ARC
  5
30A
100
AcDbEntity
  8
0
370
    -3
  6
Continuous
100
AcDbCircle
 10
-511.542599
 20
-34.292833
 30
0.0
 40
50.8
100
AcDbArc
 50
320.905432
 51
355.66015
  0
ARC
  5
30B
100
AcDbEntity
  8
0
370
    -3
  6
Continuous
100
AcDbCircle
 10
-534.825784
 20
210.625234
 30
0.0
 40
300.8
100
AcDbArc
 50
265.66015
 51
274.33985
  0
ARC
  5
30C
100
AcDbEntity
  8
0
370
    -3
  6
Continuous
100
AcDbCircle
 10
-534.825784
 20
210.625234
 30
0.0
 40
286.944
100
AcDbArc
 50
265.66015
 51
274.33985
  0
ARC
  5
30D
100
AcDbEntity
  8
0
370
    -3
  6
Continuous
100
AcDbCircle
 10
-515.907717
 20
-38.657952
 30
0.0
 40
36.944
100
AcDbArc
 50
274.33985
 51
309.094568
  0
ARC
  5
30E
100
AcDbEntity
  8
0
370
    -3
  6
Continuous
100
AcDbCircle
 10
-534.825784
 20
-15.374766
 30
0.0
 40
66.944
100
AcDbArc
 50
309.094568
 51
320.905432
  0
ARC
  5
30F
100
AcDbEntity
  8
0
370
    -3
  6
Continuous
100
AcDbCircle
 10
-511.542599
 20
-34.292833
 30
0.0
 40
36.944
100
AcDbArc
 50
320.905432
 51
355.66015
  0
ARC
  5
310
100
AcDbEntity
  8
0
370
    -3
  6
Continuous
100
AcDbCircle
 10
-760.825784
 20
-15.374766
 30
0.0
 40
286.944
100
AcDbArc
 50
355.66015
 51
4.33985
  0
ARC
  5
311
100
AcDbEntity
  8
0
370
    -3
  6
Continuous
100
AcDbCircle
 10
-511.542599
 20
3.543301
 30
0.0
 40
36.944
100
AcDbArc
 50
4.33985
 51
39.094568
  0
ARC
  5
312
100
AcDbEntity
  8
0
370
    -3
  6
Continuous
100
AcDbCircle
 10
-515.907717
 20
7.90842
 30
0.0
 40
36.944
100
AcDbArc
 50
50.905432
 51
85.66015
  0
ARC
  5
313
100
AcDbEntity
  8
0
370
    -3
  6
Continuous
100
AcDbCircle
 10
-534.825784
 20
-241.374766
 30
0.0
 40
286.944
100
AcDbArc
 50
85.66015
 51
94.33985
  0
ARC
  5
314
100
AcDbEntity
  8
0
370
    -3
  6
Continuous
100
AcDbCircle
 10
-553.743851
 20
7.90842
 30
0.0
 40
36.944
100
AcDbArc
 50
94.33985
 51
129.094568
  0
ARC
  5
315
100
AcDbEntity
  8
0
370
    -3
  6
Continuous
100
AcDbCircle
 10
-558.10897
 20
3.543301
 30
0.0
 40
36.944
100
AcDbArc
 50
140.905432
 51
175.66015
  0
ARC
  5
316
100
AcDbEntity
  8
0
370
    -3
  6
Continuous
100
AcDbCircle
 10
-308.825784
 20
-15.374766
 30
0.0
 40
286.944
100
AcDbArc
 50
175.66015
 51
184.33985
  0
ARC
  5
317
100
AcDbEntity
  8
0
370
    -3
  6
Continuous
100
AcDbCircle
 10
-558.10897
 20
-34.292833
 30
0.0
 40
36.944
100
AcDbArc
 50
184.33985
 51
219.094568
  0
ARC
  5
318
100
AcDbEntity
  8
0
370
    -3
  6
Continuous
100
AcDbCircle
 10
-553.743851
 20
-38.657952
 30
0.0
 40
36.944
100
AcDbArc
 50
230.905432
 51
265.66015
  0
ARC
  5
319
100
AcDbEntity
  8
0
370
    -3
  6
Continuous
100
AcDbCircle
 10
-529.325784
 20
37.339084
 30
0.0
 40
2.0
100
AcDbArc
 50
84.043488
 51
180.0
  0
ARC
  5
31A
100
AcDbEntity
  8
0
370
    -3
  6
Continuous
100
AcDbCircle
 10
-529.325784
 20
35.327798
 30
0.0
 40
2.0
100
AcDbArc
 50
180.0
 51
263.809003
  0
ARC
  5
31B
100
AcDbEntity
  8
0
370
    -3
  6
Continuous
100
AcDbCircle
 10
-529.325784
 20
27.272039
 30
0.0
 40
2.0
100
AcDbArc
 50
82.651339
 51
180.0
  0
ARC
  5
31C
100
AcDbEntity
  8
0
370
    -3
  6
Continuous
100
AcDbCircle
 10
-529.325784
 20
25.254657
 30
0.0
 40
2.0
100
AcDbArc
 50
180.0
 51
262.29074
  0
ARC
  5
31D
100
AcDbEntity
  8
0
370
    -3
  6
Continuous
100
AcDbCircle
 10
-529.325784
 20
17.163673
 30
0.0
 40
2.0
100
AcDbArc
 50
80.405932
 51
180.0
  0
ARC
  5
31E
100
AcDbEntity
  8
0
370
    -3
  6
Continuous
100
AcDbCircle
 10
-529.325784
 20
15.13343
 30
0.0
 40
2.0
100
AcDbArc
 50
180.0
 51
259.78052
  0
ARC
  5
31F
100
AcDbEntity
  8
0
370
    -3
  6
Continuous
100
AcDbCircle
 10
-529.325784
 20
6.957945
 30
0.0
 40
2.0
100
AcDbArc
 50
76.164776
 51
180.0
  0
ARC
  5
320
100
AcDbEntity
  8
0
370
    -3
  6
Continuous
100
AcDbCircle
 10
-529.325784
 20
4.892202
 30
0.0
 40
2.0
100
AcDbArc
 50
180.0
 51
254.816886
  0
ARC
  5
321
100
AcDbEntity
  8
0
370
    -3
  6
Continuous
100
AcDbCircle
 10
-529.325784
 20
-3.595547
 30
0.0
 40
2.0
100
AcDbArc
 50
64.971001
 51
180.0
  0
ARC
  5
322
100
AcDbEntity
  8
0
370
    -3
  6
Continuous
100
AcDbCircle
 10
-529.325784
 20
-5.848487
 30
0.0
 40
2.0
100
AcDbArc
 50
180.0
 51
240.0
  0
ARC
  5
323
100
AcDbEntity
  8
0
370
    -3
  6
Continuous
100
AcDbCircle
 10
-528.383115
 20
-6.458937
 30
0.0
 40
2.0
100
AcDbArc
 50
234.14774
 51
300.0
  0
ARC
  5
324
100
AcDbEntity
  8
0
370
    -3
  6
Continuous
100
AcDbCircle
 10
-526.513469
 20
-5.379496
 30
0.0
 40
2.0
100
AcDbArc
 50
300.0
 51
50.252247
  0
ARC
  5
325
100
AcDbEntity
  8
0
370
    -3
  6
Continuous
100
AcDbCircle
 10
-519.311705
 20
-1.221556
 30
0.0
 40
2.0
100
AcDbArc
 50
222.373625
 51
300.0
  0
ARC
  5
326
100
AcDbEntity
  8
0
370
    -3
  6
Continuous
100
AcDbCircle
 10
-517.542159
 20
-0.199908
 30
0.0
 40
2.0
100
AcDbArc
 50
300.0
 51
41.282824
  0
ARC
  5
327
100
AcDbEntity
  8
0
370
    -3
  6
Continuous
100
AcDbCircle
 10
-510.513358
 20
3.858172
 30
0.0
 40
2.0
100
AcDbArc
 50
218.346619
 51
300.0
  0
ARC
  5
328
100
AcDbEntity
  8
0
370
    -3
  6
Continuous
100
AcDbCircle
 10
-508.763905
 20
4.868219
 30
0.0
 40
2.0
100
AcDbArc
 50
300.0
 51
37.83748
  0
ARC
  5
329
100
AcDbEntity
  8
0
370
    -3
  6
Continuous
100
AcDbCircle
 10
-501.783257
 20
8.898499
 30
0.0
 40
2.0
100
AcDbArc
 50
216.301256
 51
300.0
  0
ARC
  5
32A
100
AcDbEntity
  8
0
370
    -3
  6
Continuous
100
AcDbCircle
 10
-500.041172
 20
9.904292
 30
0.0
 40
2.0
100
AcDbArc
 50
300.0
 51
36.007069
  0
ARC
  5
32B
100
AcDbEntity
  8
0
370
    -3
  6
Continuous
100
AcDbCircle
 10
-493.080756
 20
13.92289
 30
0.0
 40
2.0
100
AcDbArc
 50
215.062093
 51
300.0
  0
ARC
  5
32C
100
AcDbEntity
  8
0
370
    -3
  6
Continuous
100
AcDbCircle
 10
-491.342181
 20
14.926657
 30
0.0
 40
2.0
100
AcDbArc
 50
300.0
 51
34.8706
  0
ARC
  5
32D
100
AcDbEntity
  8
0
370
    -3
  6
Continuous
100
AcDbCircle
 10
-486.424251
 20
6.219019
 30
0.0
 40
2.0
100
AcDbArc
 50
24.043488
 51
120.0
  0
ARC
  5
32E
100
AcDbEntity
  8
0
370
    -3
  6
Continuous
100
AcDbCircle
 10
-488.166076
 20
5.213376
 30
0.0
 40
2.0
100
AcDbArc
 50
120.0
 51
203.809003
  0
ARC
  5
32F
100
AcDbEntity
  8
0
370
    -3
  6
Continuous
100
AcDbCircle
 10
-495.142568
 20
1.185497
 30
0.0
 40
2.0
100
AcDbArc
 50
22.651339
 51
120.0
  0
ARC
  5
330
100
AcDbEntity
  8
0
370
    -3
  6
Continuous
100
AcDbCircle
 10
-496.889672
 20
0.176806
 30
0.0
 40
2.0
100
AcDbArc
 50
120.0
 51
202.29074
  0
ARC
  5
331
100
AcDbEntity
  8
0
370
    -3
  6
Continuous
100
AcDbCircle
 10
-503.89667
 20
-3.868686
 30
0.0
 40
2.0
100
AcDbArc
 50
20.405932
 51
120.0
  0
ARC
  5
332
100
AcDbEntity
  8
0
370
    -3
  6
Continuous
100
AcDbCircle
 10
-505.654912
 20
-4.883808
 30
0.0
 40
2.0
100
AcDbArc
 50
120.0
 51
199.78052
  0
ARC
  5
333
100
AcDbEntity
  8
0
370
    -3
  6
Continuous
100
AcDbCircle
 10
-512.735089
 20
-8.97155
 30
0.0
 40
2.0
100
AcDbArc
 50
16.164776
 51
120.0
  0
ARC
  5
334
100
AcDbEntity
  8
0
370
    -3
  6
Continuous
100
AcDbCircle
 10
-514.524075
 20
-10.004422
 30
0.0
 40
2.0
100
AcDbArc
 50
120.0
 51
194.816886
  0
ARC
  5
335
100
AcDbEntity
  8
0
370
    -3
  6
Continuous
100
AcDbCircle
 10
-521.874681
 20
-14.248296
 30
0.0
 40
2.0
100
AcDbArc
 50
4.971001
 51
120.0
  0
ARC
  5
336
100
AcDbEntity
  8
0
370
    -3
  6
Continuous
100
AcDbCircle
 10
-523.825784
 20
-15.374766
 30
0.0
 40
2.0
100
AcDbArc
 50
120.0
 51
180.0
  0
ARC
  5
337
100
AcDbEntity
  8
0
370
    -3
  6
Continuous
100
AcDbCircle
 10
-523.883115
 20
-16.496367
 30
0.0
 40
2.0
100
AcDbArc
 50
174.14774
 51
240.0
  0
ARC
  5
338
100
AcDbEntity
  8
0
370
    -3
  6
Continuous
100
AcDbCircle
 10
-522.013469
 20
-17.575807
 30
0.0
 40
2.0
100
AcDbArc
 50
240.0
 51
350.252247
  0
ARC
  5
339
100
AcDbEntity
  8
0
370
    -3
  6
Continuous
100
AcDbCircle
 10
-514.811705
 20
-21.733747
 30
0.0
 40
2.0
100
AcDbArc
 50
162.373625
 51
240.0
  0
ARC
  5
33A
100
AcDbEntity
  8
0
370
    -3
  6
Continuous
100
AcDbCircle
 10
-513.042159
 20
-22.755395
 30
0.0
 40
2.0
100
AcDbArc
 50
240.0
 51
341.282824
  0
ARC
  5
33B
100
AcDbEntity
  8
0
370
    -3
  6
Continuous
100
AcDbCircle
 10
-506.013358
 20
-26.813476
 30
0.0
 40
2.0
100
AcDbArc
 50
158.346619
 51
240.0
  0
ARC
  5
33C
100
AcDbEntity
  8
0
370
    -3
  6
Continuous
100
AcDbCircle
 10
-504.263905
 20
-27.823523
 30
0.0
 40
2.0
100
AcDbArc
 50
240.0
 51
337.83748
  0
ARC
  5
33D
100
AcDbEntity
  8
0
370
    -3
  6
Continuous
100
AcDbCircle
 10
-497.283257
 20
-31.853802
 30
0.0
 40
2.0
100
AcDbArc
 50
156.301256
 51
240.0
  0
ARC
  5
33E
100
AcDbEntity
  8
0
370
    -3
  6
Continuous
100
AcDbCircle
 10
-495.541172
 20
-32.859595
 30
0.0
 40
2.0
100
AcDbArc
 50
240.0
 51
336.007069
  0
ARC
  5
33F
100
AcDbEntity
  8
0
370
    -3
  6
Continuous
100
AcDbCircle
 10
-488.580756
 20
-36.878193
 30
0.0
 40
2.0
100
AcDbArc
 50
155.062093
 51
240.0
  0
ARC
  5
340
100
AcDbEntity
  8
0
370
    -3
  6
Continuous
100
AcDbCircle
 10
-486.842181
 20
-37.88196
 30
0.0
 40
2.0
100
AcDbArc
 50
240.0
 51
334.8706
  0
ARC
  5
341
100
AcDbEntity
  8
0
370
    -3
  6
Continuous
100
AcDbCircle
 10
-528.383115
 20
-24.290595
 30
0.0
 40
2.0
100
AcDbArc
 50
60.0
 51
125.85226
  0
ARC
  5
342
100
AcDbEntity
  8
0
370
    -3
  6
Continuous
100
AcDbCircle
 10
-526.513469
 20
-25.370036
 30
0.0
 40
2.0
100
AcDbArc
 50
309.747753
 51
60.0
  0
ARC
  5
343
100
AcDbEntity
  8
0
370
    -3
  6
Continuous
100
AcDbCircle
 10
-519.311705
 20
-29.527976
 30
0.0
 40
2.0
100
AcDbArc
 50
60.0
 51
137.626375
  0
ARC
  5
344
100
AcDbEntity
  8
0
370
    -3
  6
Continuous
100
AcDbCircle
 10
-517.542159
 20
-30.549624
 30
0.0
 40
2.0
100
AcDbArc
 50
318.717176
 51
60.0
  0
ARC
  5
345
100
AcDbEntity
  8
0
370
    -3
  6
Continuous
100
AcDbCircle
 10
-510.513358
 20
-34.607704
 30
0.0
 40
2.0
100
AcDbArc
 50
60.0
 51
141.653381
  0
ARC
  5
346
100
AcDbEntity
  8
0
370
    -3
  6
Continuous
100
AcDbCircle
 10
-508.763905
 20
-35.617751
 30
0.0
 40
2.0
100
AcDbArc
 50
322.16252
 51
60.0
  0
ARC
  5
347
100
AcDbEntity
  8
0
370
    -3
  6
Continuous
100
AcDbCircle
 10
-501.783257
 20
-39.648031
 30
0.0
 40
2.0
100
AcDbArc
 50
60.0
 51
143.698744
  0
ARC
  5
348
100
AcDbEntity
  8
0
370
    -3
  6
Continuous
100
AcDbCircle
 10
-500.041172
 20
-40.653824
 30
0.0
 40
2.0
100
AcDbArc
 50
323.992931
 51
60.0
  0
ARC
  5
349
100
AcDbEntity
  8
0
370
    -3
  6
Continuous
100
AcDbCircle
 10
-493.080756
 20
-44.672422
 30
0.0
 40
2.0
100
AcDbArc
 50
60.0
 51
144.937907
  0
ARC
  5
34A
100
AcDbEntity
  8
0
370
    -3
  6
Continuous
100
AcDbCircle
 10
-491.342181
 20
-45.676189
 30
0.0
 40
2.0
100
AcDbArc
 50
325.1294
 51
60.0
  0
ARC
  5
34B
100
AcDbEntity
  8
0
370
    -3
  6
Continuous
100
AcDbCircle
 10
-529.325784
 20
-68.088616
 30
0.0
 40
2.0
100
AcDbArc
 50
180.0
 51
275.956512
  0
ARC
  5
34C
100
AcDbEntity
  8
0
370
    -3
  6
Continuous
100
AcDbCircle
 10
-529.325784
 20
-66.07733
 30
0.0
 40
2.0
100
AcDbArc
 50
96.190997
 51
180.0
  0
ARC
  5
34D
100
AcDbEntity
  8
0
370
    -3
  6
Continuous
100
AcDbCircle
 10
-529.325784
 20
-58.021571
 30
0.0
 40
2.0
100
AcDbArc
 50
180.0
 51
277.348661
  0
ARC
  5
34E
100
AcDbEntity
  8
0
370
    -3
  6
Continuous
100
AcDbCircle
 10
-529.325784
 20
-56.004189
 30
0.0
 40
2.0
100
AcDbArc
 50
97.70926
 51
180.0
  0
ARC
  5
34F
100
AcDbEntity
  8
0
370
    -3
  6
Continuous
100
AcDbCircle
 10
-529.325784
 20
-47.913205
 30
0.0
 40
2.0
100
AcDbArc
 50
180.0
 51
279.594068
  0
ARC
  5
350
100
AcDbEntity
  8
0
370
    -3
  6
Continuous
100
AcDbCircle
 10
-529.325784
 20
-45.882962
 30
0.0
 40
2.0
100
AcDbArc
 50
100.21948
 51
180.0
  0
ARC
  5
351
100
AcDbEntity
  8
0
370
    -3
  6
Continuous
100
AcDbCircle
 10
-529.325784
 20
-37.707477
 30
0.0
 40
2.0
100
AcDbArc
 50
180.0
 51
283.835224
  0
ARC
  5
352
100
AcDbEntity
  8
0
370
    -3
  6
Continuous
100
AcDbCircle
 10
-529.325784
 20
-35.641734
 30
0.0
 40
2.0
100
AcDbArc
 50
105.183114
 51
180.0
  0
ARC
  5
353
100
AcDbEntity
  8
0
370
    -3
  6
Continuous
100
AcDbCircle
 10
-529.325784
 20
-27.153985
 30
0.0
 40
2.0
100
AcDbArc
 50
180.0
 51
295.028999
  0
ARC
  5
354
100
AcDbEntity
  8
0
370
    -3
  6
Continuous
100
AcDbCircle
 10
-529.325784
 20
-24.901045
 30
0.0
 40
2.0
100
AcDbArc
 50
120.0
 51
180.0
  0
ARC
  5
355
100
AcDbEntity
  8
0
370
    -3
  6
Continuous
100
AcDbCircle
 10
-540.325784
 20
-24.901045
 30
0.0
 40
2.0
100
AcDbArc
 50
0.0
 51
60.0
  0
ARC
  5
356
100
AcDbEntity
  8
0
370
    -3
  6
Continuous
100
AcDbCircle
 10
-540.325784
 20
-27.153985
 30
0.0
 40
2.0
100
AcDbArc
 50
244.971001
 51
0.0
  0
ARC
  5
357
100
AcDbEntity
  8
0
370
    -3
  6
Continuous
100
AcDbCircle
 10
-540.325784
 20
-35.641734
 30
0.0
 40
2.0
100
AcDbArc
 50
0.0
 51
74.816886
  0
ARC
  5
358
100
AcDbEntity
  8
0
370
    -3
  6
Continuous
100
AcDbCircle
 10
-540.325784
 20
-37.707477
 30
0.0
 40
2.0
100
AcDbArc
 50
256.164776
 51
0.0
  0
ARC
  5
359
100
AcDbEntity
  8
0
370
    -3
  6
Continuous
100
AcDbCircle
 10
-540.325784
 20
-45.882962
 30
0.0
 40
2.0
100
AcDbArc
 50
0.0
 51
79.78052
  0
ARC
  5
35A
100
AcDbEntity
  8
0
370
    -3
  6
Continuous
100
AcDbCircle
 10
-540.325784
 20
-47.913205
 30
0.0
 40
2.0
100
AcDbArc
 50
260.405932
 51
0.0
  0
ARC
  5
35B
100
AcDbEntity
  8
0
370
    -3
  6
Continuous
100
AcDbCircle
 10
-540.325784
 20
-56.004189
 30
0.0
 40
2.0
100
AcDbArc
 50
0.0
 51
82.29074
  0
ARC
  5
35C
100
AcDbEntity
  8
0
370
    -3
  6
Continuous
100
AcDbCircle
 10
-540.325784
 20
-58.021571
 30
0.0
 40
2.0
100
AcDbArc
 50
262.651339
 51
0.0
  0
ARC
  5
35D
100
AcDbEntity
  8
0
370
    -3
  6
Continuous
100
AcDbCircle
 10
-540.325784
 20
-66.07733
 30
0.0
 40
2.0
100
AcDbArc
 50
0.0
 51
83.809003
  0
ARC
  5
35E
100
AcDbEntity
  8
0
370
    -3
  6
Continuous
100
AcDbCircle
 10
-540.325784
 20
-68.088616
 30
0.0
 40
2.0
100
AcDbArc
 50
264.043488
 51
0.0
  0
ARC
  5
35F
100
AcDbEntity
  8
0
370
    -3
  6
Continuous
100
AcDbCircle
 10
-578.309388
 20
-45.676189
 30
0.0
 40
2.0
100
AcDbArc
 50
120.0
 51
214.8706
  0
ARC
  5
360
100
AcDbEntity
  8
0
370
    -3
  6
Continuous
100
AcDbCircle
 10
-576.570812
 20
-44.672422
 30
0.0
 40
2.0
100
AcDbArc
 50
35.062093
 51
120.0
  0
ARC
  5
361
100
AcDbEntity
  8
0
370
    -3
  6
Continuous
100
AcDbCircle
 10
-569.610397
 20
-40.653824
 30
0.0
 40
2.0
100
AcDbArc
 50
120.0
 51
216.007069
  0
ARC
  5
362
100
AcDbEntity
  8
0
370
    -3
  6
Continuous
100
AcDbCircle
 10
-567.868312
 20
-39.648031
 30
0.0
 40
2.0
100
AcDbArc
 50
36.301256
 51
120.0
  0
ARC
  5
363
100
AcDbEntity
  8
0
370
    -3
  6
Continuous
100
AcDbCircle
 10
-560.887663
 20
-35.617751
 30
0.0
 40
2.0
100
AcDbArc
 50
120.0
 51
217.83748
  0
ARC
  5
364
100
AcDbEntity
  8
0
370
    -3
  6
Continuous
100
AcDbCircle
 10
-559.138211
 20
-34.607704
 30
0.0
 40
2.0
100
AcDbArc
 50
38.346619
 51
120.0
  0
ARC
  5
365
100
AcDbEntity
  8
0
370
    -3
  6
Continuous
100
AcDbCircle
 10
-552.109409
 20
-30.549624
 30
0.0
 40
2.0
100
AcDbArc
 50
120.0
 51
221.282824
  0
ARC
  5
366
100
AcDbEntity
  8
0
370
    -3
  6
Continuous
100
AcDbCircle
 10
-550.339863
 20
-29.527976
 30
0.0
 40
2.0
100
AcDbArc
 50
42.373625
 51
120.0
  0
ARC
  5
367
100
AcDbEntity
  8
0
370
    -3
  6
Continuous
100
AcDbCircle
 10
-543.138099
 20
-25.370036
 30
0.0
 40
2.0
100
AcDbArc
 50
120.0
 51
230.252247
  0
ARC
  5
368
100
AcDbEntity
  8
0
370
    -3
  6
Continuous
100
AcDbCircle
 10
-541.268454
 20
-24.290595
 30
0.0
 40
2.0
100
AcDbArc
 50
54.14774
 51
120.0
  0
ARC
  5
369
100
AcDbEntity
  8
0
370
    -3
  6
Continuous
100
AcDbCircle
 10
-545.768454
 20
-16.496367
 30
0.0
 40
2.0
100
AcDbArc
 50
300.0
 51
5.85226
  0
ARC
  5
36A
100
AcDbEntity
  8
0
370
    -3
  6
Continuous
100
AcDbCircle
 10
-547.638099
 20
-17.575807
 30
0.0
 40
2.0
100
AcDbArc
 50
189.747753
 51
300.0
  0
ARC
  5
36B
100
AcDbEntity
  8
0
370
    -3
  6
Continuous
100
AcDbCircle
 10
-554.839863
 20
-21.733747
 30
0.0
 40
2.0
100
AcDbArc
 50
300.0
 51
17.626375
  0
ARC
  5
36C
100
AcDbEntity
  8
0
370
    -3
  6
Continuous
100
AcDbCircle
 10
-556.609409
 20
-22.755395
 30
0.0
 40
2.0
100
AcDbArc
 50
198.717176
 51
300.0
  0
ARC
  5
36D
100
AcDbEntity
  8
0
370
    -3
  6
Continuous
100
AcDbCircle
 10
-563.638211
 20
-26.813476
 30
0.0
 40
2.0
100
AcDbArc
 50
300.0
 51
21.653381
  0
ARC
  5
36E
100
AcDbEntity
  8
0
370
    -3
  6
Continuous
100
AcDbCircle
 10
-565.387663
 20
-27.823523
 30
0.0
 40
2.0
100
AcDbArc
 50
202.16252
 51
300.0
  0
ARC
  5
36F
100
AcDbEntity
  8
0
370
    -3
  6
Continuous
100
AcDbCircle
 10
-572.368312
 20
-31.853802
 30
0.0
 40
2.0
100
AcDbArc
 50
300.0
 51
23.698744
  0
ARC
  5
370
100
AcDbEntity
  8
0
370
    -3
  6
Continuous
100
AcDbCircle
 10
-574.110397
 20
-32.859595
 30
0.0
 40
2.0
100
AcDbArc
 50
203.992931
 51
300.0
  0
ARC
  5
371
100
AcDbEntity
  8
0
370
    -3
  6
Continuous
100
AcDbCircle
 10
-581.070812
 20
-36.878193
 30
0.0
 40
2.0
100
AcDbArc
 50
300.0
 51
24.937907
  0
ARC
  5
372
100
AcDbEntity
  8
0
370
    -3
  6
Continuous
100
AcDbCircle
 10
-582.809388
 20
-37.88196
 30
0.0
 40
2.0
100
AcDbArc
 50
205.1294
 51
300.0
  0
ARC
  5
373
100
AcDbEntity
  8
0
370
    -3
  6
Continuous
100
AcDbCircle
 10
-583.227318
 20
6.219019
 30
0.0
 40
2.0
100
AcDbArc
 50
60.0
 51
155.956512
  0
ARC
  5
374
100
AcDbEntity
  8
0
370
    -3
  6
Continuous
100
AcDbCircle
 10
-581.485493
 20
5.213376
 30
0.0
 40
2.0
100
AcDbArc
 50
336.190997
 51
60.0
  0
ARC
  5
375
100
AcDbEntity
  8
0
370
    -3
  6
Continuous
100
AcDbCircle
 10
-574.509001
 20
1.185497
 30
0.0
 40
2.0
100
AcDbArc
 50
60.0
 51
157.348661
  0
ARC
  5
376
100
AcDbEntity
  8
0
370
    -3
  6
Continuous
100
AcDbCircle
 10
-572.761897
 20
0.176806
 30
0.0
 40
2.0
100
AcDbArc
 50
337.70926
 51
60.0
  0
ARC
  5
377
100
AcDbEntity
  8
0
370
    -3
  6
Continuous
100
AcDbCircle
 10
-565.754899
 20
-3.868686
 30
0.0
 40
2.0
100
AcDbArc
 50
60.0
 51
159.594068
  0
ARC
  5
378
100
AcDbEntity
  8
0
370
    -3
  6
Continuous
100
AcDbCircle
 10
-563.996657
 20
-4.883808
 30
0.0
 40
2.0
100
AcDbArc
 50
340.21948
 51
60.0
  0
ARC
  5
379
100
AcDbEntity
  8
0
370
    -3
  6
Continuous
100
AcDbCircle
 10
-556.91648
 20
-8.97155
 30
0.0
 40
2.0
100
AcDbArc
 50
60.0
 51
163.835224
  0
ARC
  5
37A
100
AcDbEntity
  8
0
370
    -3
  6
Continuous
100
AcDbCircle
 10
-555.127494
 20
-10.004422
 30
0.0
 40
2.0
100
AcDbArc
 50
345.183114
 51
60.0
  0
ARC
  5
37B
100
AcDbEntity
  8
0
370
    -3
  6
Continuous
100
AcDbCircle
 10
-547.776887
 20
-14.248296
 30
0.0
 40
2.0
100
AcDbArc
 50
60.0
 51
175.028999
  0
ARC
  5
37C
100
AcDbEntity
  8
0
370
    -3
  6
Continuous
100
AcDbCircle
 10
-545.825784
 20
-15.374766
 30
0.0
 40
2.0
100
AcDbArc
 50
0.0
 51
60.0
  0
ARC
  5
37D
100
AcDbEntity
  8
0
370
    -3
  6
Continuous
100
AcDbCircle
 10
-541.268454
 20
-6.458937
 30
0.0
 40
2.0
100
AcDbArc
 50
240.0
 51
305.85226
  0
ARC
  5
37E
100
AcDbEntity
  8
0
370
    -3
  6
Continuous
100
AcDbCircle
 10
-543.138099
 20
-5.379496
 30
0.0
 40
2.0
100
AcDbArc
 50
129.747753
 51
240.0
  0
ARC
  5
37F
100
AcDbEntity
  8
0
370
    -3
  6
Continuous
100
AcDbCircle
 10
-550.339863
 20
-1.221556
 30
0.0
 40
2.0
100
AcDbArc
 50
240.0
 51
317.626375
  0
ARC
  5
380
100
AcDbEntity
  8
0
370
    -3
  6
Continuous
100
AcDbCircle
 10
-552.109409
 20
-0.199908
 30
0.0
 40
2.0
100
AcDbArc
 50
138.717176
 51
240.0
  0
ARC
  5
381
100
AcDbEntity
  8
0
370
    -3
  6
Continuous
100
AcDbCircle
 10
-559.138211
 20
3.858172
 30
0.0
 40
2.0
100
AcDbArc
 50
240.0
 51
321.653381
  0
ARC
  5
382
100
AcDbEntity
  8
0
370
    -3
  6
Continuous
100
AcDbCircle
 10
-560.887663
 20
4.868219
 30
0.0
 40
2.0
100
AcDbArc
 50
142.16252
 51
240.0
  0
ARC
  5
383
100
AcDbEntity
  8
0
370
    -3
  6
Continuous
100
AcDbCircle
 10
-567.868312
 20
8.898499
 30
0.0
 40
2.0
100
AcDbArc
 50
240.0
 51
323.698744
  0
ARC
  5
384
100
AcDbEntity
  8
0
370
    -3
  6
Continuous
100
AcDbCircle
 10
-569.610397
 20
9.904292
 30
0.0
 40
2.0
100
AcDbArc
 50
143.992931
 51
240.0
  0
ARC
  5
385
100
AcDbEntity
  8
0
370
    -3
  6
Continuous
100
AcDbCircle
 10
-576.570812
 20
13.92289
 30
0.0
 40
2.0
100
AcDbArc
 50
240.0
 51
324.937907
  0
ARC
  5
386
100
AcDbEntity
  8
0
370
    -3
  6
Continuous
100
AcDbCircle
 10
-578.309388
 20
14.926657
 30
0.0
 40
2.0
100
AcDbArc
 50
145.1294
 51
240.0
  0
ARC
  5
387
100
AcDbEntity
  8
0
370
    -3
  6
Continuous
100
AcDbCircle
 10
-540.325784
 20
-5.848487
 30
0.0
 40
2.0
100
AcDbArc
 50
300.0
 51
0.0
  0
ARC
  5
388
100
AcDbEntity
  8
0
370
    -3
  6
Continuous
100
AcDbCircle
 10
-540.325784
 20
-3.595547
 30
0.0
 40
2.0
100
AcDbArc
 50
0.0
 51
115.028999
  0
ARC
  5
389
100
AcDbEntity
  8
0
370
    -3
  6
Continuous
100
AcDbCircle
 10
-540.325784
 20
4.892202
 30
0.0
 40
2.0
100
AcDbArc
 50
285.183114
 51
0.0
  0
ARC
  5
38A
100
AcDbEntity
  8
0
370
    -3
  6
Continuous
100
AcDbCircle
 10
-540.325784
 20
6.957945
 30
0.0
 40
2.0
100
AcDbArc
 50
0.0
 51
103.835224
  0
ARC
  5
38B
100
AcDbEntity
  8
0
370
    -3
  6
Continuous
100
AcDbCircle
 10
-540.325784
 20
15.13343
 30
0.0
 40
2.0
100
AcDbArc
 50
280.21948
 51
0.0
  0
ARC
  5
38C
100
AcDbEntity
  8
0
370
    -3
  6
Continuous
100
AcDbCircle
 10
-540.325784
 20
17.163673
 30
0.0
 40
2.0
100
AcDbArc
 50
0.0
 51
99.594068
  0
ARC
  5
38D
100
AcDbEntity
  8
0
370
    -3
  6
Continuous
100
AcDbCircle
 10
-540.325784
 20
25.254657
 30
0.0
 40
2.0
100
AcDbArc
 50
277.70926
 51
0.0
  0
ARC
  5
38E
100
AcDbEntity
  8
0
370
    -3
  6
Continuous
100
AcDbCircle
 10
-540.325784
 20
27.272039
 30
0.0
 40
2.0
100
AcDbArc
 50
0.0
 51
97.348661
  0
ARC
  5
38F
100
AcDbEntity
  8
0
370
    -3
  6
Continuous
100
AcDbCircle
 10
-540.325784
 20
35.327798
 30
0.0
 40
2.0
100
AcDbArc
 50
276.190997
 51
0.0
  0
ARC
  5
390
100
AcDbEntity
  8
0
370
    -3
  6
Continuous
100
AcDbCircle
 10
-540.325784
 20
37.339084
 30
0.0
 40
2.0
100
AcDbArc
 50
0.0
 51
95.956512
  0
ARC
  5
391
100
AcDbEntity
  8
0
370
    -3
  6
Continuous
100
AcDbCircle
 10
-760.825784
 20
-15.374766
 30
0.0
 40
300.8
100
AcDbArc
 50
355.66015
 51
4.33985
  0
ARC
  5
392
100
AcDbEntity
  8
0
370
    -3
  6
Continuous
100
AcDbCircle
 10
-558.10897
 20
3.543301
 30
0.0
 40
50.8
100
AcDbArc
 50
140.905432
 51
175.66015
  0
LINE
  5
393
100
AcDbEntity
  8
0
370
    -3
  6
Continuous
100
AcDbLine
 10
-487.82578
 20
51.511983
 30
0.0
 11
-485.325786
 21
50.068606
 31
0.0
  0
LINE
  5
394
100
AcDbEntity
  8
0
370
    -3
  6
Continuous
100
AcDbLine
 10
-581.825789
 20
51.511983
 30
0.0
 11
-584.325783
 21
50.068606
 31
0.0
  0
LINE
  5
395
100
AcDbEntity
  8
0
370
    -3
  6
Continuous
100
AcDbLine
 10
-495.325782
 20
-90.318138
 30
0.0
 11
-495.325783
 21
-87.431388
 31
0.0
  0
LINE
  5
396
100
AcDbEntity
  8
0
370
    -3
  6
Continuous
100
AcDbLine
 10
-490.325787
 20
-87.431394
 30
0.0
 11
-490.325786
 21
-90.31814
 31
0.0
  0
LINE
  5
397
100
AcDbEntity
  8
0
370
    -3
  6
Continuous
100
AcDbLine
 10
-492.82578
 20
-85.988017
 30
0.0
 11
-490.325786
 21
-87.431394
 31
0.0
  0
LINE
  5
398
100
AcDbEntity
  8
0
370
    -3
  6
Continuous
100
AcDbLine
 10
-492.82579
 20
-91.761513
 30
0.0
 11
-495.325782
 21
-90.318138
 31
0.0
  0
LINE
  5
399
100
AcDbEntity
  8
0
370
    -3
  6
Continuous
100
AcDbLine
 10
-492.82578
 20
-85.988018
 30
0.0
 11
-495.325784
 21
-87.431389
 31
0.0
  0
LINE
  5
39A
100
AcDbEntity
  8
0
370
    -3
  6
Continuous
100
AcDbLine
 10
-490.325785
 20
-90.31814
 30
0.0
 11
-492.825789
 21
-91.761514
 31
0.0
  0
LINE
  5
39B
100
AcDbEntity
  8
0
370
    -3
  6
Continuous
100
AcDbLine
 10
-574.325787
 20
-90.318138
 30
0.0
 11
-574.325786
 21
-87.431388
 31
0.0
  0
LINE
  5
39C
100
AcDbEntity
  8
0
370
    -3
  6
Continuous
100
AcDbLine
 10
-579.325782
 20
-87.431394
 30
0.0
 11
-579.325783
 21
-90.31814
 31
0.0
  0
LINE
  5
39D
100
AcDbEntity
  8
0
370
    -3
  6
Continuous
100
AcDbLine
 10
-576.825789
 20
-85.988017
 30
0.0
 11
-579.325783
 21
-87.431394
 31
0.0
  0
LINE
  5
39E
100
AcDbEntity
  8
0
370
    -3
  6
Continuous
100
AcDbLine
 10
-576.825779
 20
-91.761513
 30
0.0
 11
-574.325787
 21
-90.318138
 31
0.0
  0
LINE
  5
39F
100
AcDbEntity
  8
0
370
    -3
  6
Continuous
100
AcDbLine
 10
-576.825789
 20
-85.988018
 30
0.0
 11
-574.325784
 21
-87.431389
 31
0.0
  0
LINE
  5
3A0
100
AcDbEntity
  8
0
370
    -3
  6
Continuous
100
AcDbLine
 10
-579.325784
 20
-90.31814
 30
0.0
 11
-576.825779
 21
-91.761514
 31
0.0
  0
ARC
  5
3A1
100
AcDbEntity
  8
0
370
    -3
  6
Continuous
100
AcDbCircle
 10
-451.825784
 20
-77.458686
 30
0.0
 40
3.0
100
AcDbArc
 50
180.0
 51
260.405932
  0
ARC
  5
3A2
100
AcDbEntity
  8
0
370
    -3
  6
Continuous
100
AcDbCircle
 10
-617.825784
 20
-77.458686
 30
0.0
 40
3.0
100
AcDbArc
 50
279.594068
 51
0.0
  0
LINE
  5
3A3
100
AcDbEntity
  8
0
370
    -3
  6
Continuous
100
AcDbLine
 10
-619.825784
 20
-94.874766
 30
0.0
 11
-594.69181
 21
-94.874766
 31
0.0
  0
LINE
  5
3A4
100
AcDbEntity
  8
0
370
    -3
  6
Continuous
100
AcDbLine
 10
-449.825784
 20
-94.874766
 30
0.0
 11
-474.959759
 21
-94.874766
 31
0.0
  0
ARC
  5
3A5
100
AcDbEntity
  8
0
370
    -3
  6
Continuous
100
AcDbCircle
 10
-593.825784
 20
-95.374766
 30
0.0
 40
1.0
100
AcDbArc
 50
90.0
 51
180.0
  0
ARC
  5
3A6
100
AcDbEntity
  8
0
370
    -3
  6
Continuous
100
AcDbCircle
 10
-503.704902
 20
-44.318516
 30
0.0
 40
46.0
100
AcDbArc
 50
298.526485
 51
329.454501
  0
LINE
  5
3A7
100
AcDbEntity
  8
0
370
    -3
  6
Continuous
100
AcDbLine
 10
-608.894418
 20
-72.374766
 30
0.0
 11
-611.825784
 21
-72.374766
 31
0.0
  0
ARC
  5
3A8
100
AcDbEntity
  8
0
370
    -3
  6
Continuous
100
AcDbCircle
 10
-611.825784
 20
-75.374766
 30
0.0
 40
3.0
100
AcDbArc
 50
90.0
 51
180.0
  0
ARC
  5
3A9
100
AcDbEntity
  8
0
370
    -3
  6
Continuous
100
AcDbCircle
 10
-565.946667
 20
-44.318516
 30
0.0
 40
50.0
100
AcDbArc
 50
233.757622
 51
241.416137
  0
ARC
  5
3AA
100
AcDbEntity
  8
0
370
    -3
  6
Continuous
100
AcDbCircle
 10
-471.825784
 20
-86.547898
 30
0.0
 40
3.0
100
AcDbArc
 50
129.566618
 51
180.0
  0
ARC
  5
3AB
100
AcDbEntity
  8
0
370
    -3
  6
Continuous
100
AcDbCircle
 10
-478.825784
 20
-92.374766
 30
0.0
 40
2.0
100
AcDbArc
 50
180.0
 51
270.0
  0
LINE
  5
3AC
100
AcDbEntity
  8
0
370
    -3
  6
CENTER
100
AcDbLine
 10
-459.825784
 20
-99.45527
 30
0.0
 11
-459.825784
 21
-77.549468
 31
0.0
  0
ARC
  5
3AD
100
AcDbEntity
  8
0
370
    -3
  6
Continuous
100
AcDbCircle
 10
-467.985574
 20
-83.374766
 30
0.0
 40
3.0
100
AcDbArc
 50
90.0
 51
129.566618
  0
ARC
  5
3AE
100
AcDbEntity
  8
0
370
    -3
  6
Continuous
100
AcDbCircle
 10
-452.825784
 20
-83.374766
 30
0.0
 40
3.0
100
AcDbArc
 50
0.0
 51
90.0
  0
ARC
  5
3AF
100
AcDbEntity
  8
0
370
    -3
  6
Continuous
100
AcDbCircle
 10
-457.825784
 20
-75.374766
 30
0.0
 40
3.0
100
AcDbArc
 50
0.0
 51
90.0
  0
ARC
  5
3B0
100
AcDbEntity
  8
0
370
    -3
  6
Continuous
100
AcDbCircle
 10
-460.75715
 20
-75.374766
 30
0.0
 40
3.0
100
AcDbArc
 50
90.0
 51
144.128668
  0
ARC
  5
3B1
100
AcDbEntity
  8
0
370
    -3
  6
Continuous
100
AcDbCircle
 10
-565.946667
 20
-44.318516
 30
0.0
 40
46.0
100
AcDbArc
 50
210.545499
 51
219.301285
  0
ARC
  5
3B2
100
AcDbEntity
  8
0
370
    -3
  6
Continuous
100
AcDbCircle
 10
-478.871524
 20
-90.005531
 30
0.0
 40
6.0
100
AcDbArc
 50
118.526485
 51
175.367233
  0
ARC
  5
3B3
100
AcDbEntity
  8
0
370
    -3
  6
Continuous
100
AcDbCircle
 10
-492.825784
 20
-88.874766
 30
0.0
 40
8.0
100
AcDbArc
 50
316.567463
 51
355.367233
  0
LINE
  5
3B4
100
AcDbEntity
  8
0
370
    -3
  6
Continuous
100
AcDbLine
 10
-480.825784
 20
-92.374766
 30
0.0
 11
-480.825784
 21
-89.98064
 31
0.0
  0
ARC
  5
3B5
100
AcDbEntity
  8
0
370
    -3
  6
Continuous
100
AcDbCircle
 10
-478.825784
 20
-92.374766
 30
0.0
 40
2.0
100
AcDbArc
 50
180.0
 51
270.0
  0
ARC
  5
3B6
100
AcDbEntity
  8
0
370
    -3
  6
Continuous
100
AcDbCircle
 10
-475.825784
 20
-95.374766
 30
0.0
 40
1.0
100
AcDbArc
 50
0.0
 51
90.0
  0
ARC
  5
3B7
100
AcDbEntity
  8
0
370
    -3
  6
Continuous
100
AcDbCircle
 10
-492.825784
 20
-88.874766
 30
0.0
 40
8.0
100
AcDbArc
 50
214.228866
 51
223.432537
  0
LINE
  5
3B8
100
AcDbEntity
  8
0
370
    -3
  6
Continuous
100
AcDbLine
 10
-475.825784
 20
-94.374766
 30
0.0
 11
-498.635259
 21
-94.374766
 31
0.0
  0
LINE
  5
3B9
100
AcDbEntity
  8
0
370
    -3
  6
Continuous
100
AcDbLine
 10
-499.440163
 20
-93.374766
 30
0.0
 11
-534.825784
 21
-93.374766
 31
0.0
  0
ARC
  5
3BA
100
AcDbEntity
  8
0
370
    -3
  6
Continuous
100
AcDbCircle
 10
-576.825784
 20
-88.874766
 30
0.0
 40
8.0
100
AcDbArc
 50
316.567463
 51
325.771134
  0
ARC
  5
3BB
100
AcDbEntity
  8
0
370
    -3
  6
Continuous
100
AcDbCircle
 10
-590.825784
 20
-92.374766
 30
0.0
 40
2.0
100
AcDbArc
 50
270.0
 51
0.0
  0
ARC
  5
3BC
100
AcDbEntity
  8
0
370
    -3
  6
Continuous
100
AcDbCircle
 10
-590.780044
 20
-90.005531
 30
0.0
 40
6.0
100
AcDbArc
 50
4.632767
 51
61.473515
  0
LINE
  5
3BD
100
AcDbEntity
  8
0
370
    -3
  6
Continuous
100
AcDbLine
 10
-593.825784
 20
-94.374766
 30
0.0
 11
-571.016309
 21
-94.374766
 31
0.0
  0
ARC
  5
3BE
100
AcDbEntity
  8
0
370
    -3
  6
Continuous
100
AcDbCircle
 10
-576.825784
 20
-88.874766
 30
0.0
 40
8.0
100
AcDbArc
 50
184.632767
 51
223.432537
  0
LINE
  5
3BF
100
AcDbEntity
  8
0
370
    -3
  6
Continuous
100
AcDbLine
 10
-455.658429
 20
-53.411259
 30
0.0
 11
-464.088513
 21
-67.696748
 31
0.0
  0
ARC
  5
3C0
100
AcDbEntity
  8
0
370
    -3
  6
Continuous
100
AcDbCircle
 10
-460.825784
 20
-50.361925
 30
0.0
 40
6.0
100
AcDbArc
 50
329.454501
 51
0.0
  0
ARC
  5
3C1
100
AcDbEntity
  8
0
370
    -3
  6
Continuous
100
AcDbCircle
 10
-503.704902
 20
-44.318516
 30
0.0
 40
46.0
100
AcDbArc
 50
298.241218
 51
300.661053
  0
ARC
  5
3C2
100
AcDbEntity
  8
0
370
    -3
  6
Continuous
100
AcDbCircle
 10
-616.825784
 20
-83.374766
 30
0.0
 40
3.0
100
AcDbArc
 50
90.0
 51
180.0
  0
ARC
  5
3C3
100
AcDbEntity
  8
0
370
    -3
  6
Continuous
100
AcDbCircle
 10
-452.825784
 20
-83.374766
 30
0.0
 40
3.0
100
AcDbArc
 50
0.0
 51
90.0
  0
ARC
  5
3C4
100
AcDbEntity
  8
0
370
    -3
  6
Continuous
100
AcDbCircle
 10
-503.704902
 20
-44.318516
 30
0.0
 40
50.0
100
AcDbArc
 50
298.583863
 51
306.242378
  0
ARC
  5
3C5
100
AcDbEntity
  8
0
370
    -3
  6
Continuous
100
AcDbCircle
 10
-471.825784
 20
-86.547898
 30
0.0
 40
3.0
100
AcDbArc
 50
129.566618
 51
180.0
  0
ARC
  5
3C6
100
AcDbEntity
  8
0
370
    -3
  6
Continuous
100
AcDbCircle
 10
-467.985574
 20
-83.374766
 30
0.0
 40
3.0
100
AcDbArc
 50
90.0
 51
129.566618
  0
ARC
  5
3C7
100
AcDbEntity
  8
0
370
    -3
  6
Continuous
100
AcDbCircle
 10
-597.825784
 20
-86.547898
 30
0.0
 40
3.0
100
AcDbArc
 50
0.0
 51
50.433382
  0
ARC
  5
3C8
100
AcDbEntity
  8
0
370
    -3
  6
Continuous
100
AcDbCircle
 10
-601.665995
 20
-83.374766
 30
0.0
 40
3.0
100
AcDbArc
 50
50.433382
 51
90.0
  0
ARC
  5
3C9
100
AcDbEntity
  8
0
370
    -3
  6
Continuous
100
AcDbCircle
 10
-565.946667
 20
-44.318516
 30
0.0
 40
50.0
100
AcDbArc
 50
215.871332
 51
226.822259
  0
ARC
  5
3CA
100
AcDbEntity
  8
0
370
    -3
  6
Continuous
100
AcDbCircle
 10
-460.75715
 20
-75.374766
 30
0.0
 40
3.0
100
AcDbArc
 50
90.0
 51
144.128668
  0
ARC
  5
3CB
100
AcDbEntity
  8
0
370
    -3
  6
Continuous
100
AcDbCircle
 10
-503.704902
 20
-44.318516
 30
0.0
 40
50.0
100
AcDbArc
 50
313.177741
 51
324.128668
  0
ARC
  5
3CC
100
AcDbEntity
  8
0
370
    -3
  6
Continuous
100
AcDbCircle
 10
-478.825784
 20
-89.98064
 30
0.0
 40
2.0
100
AcDbArc
 50
118.583863
 51
180.0
  0
ARC
  5
3CD
100
AcDbEntity
  8
0
370
    -3
  6
Continuous
100
AcDbCircle
 10
-565.946667
 20
-44.318516
 30
0.0
 40
50.0
100
AcDbArc
 50
233.757622
 51
241.416137
  0
ARC
  5
3CE
100
AcDbEntity
  8
0
370
    -3
  6
Continuous
100
AcDbCircle
 10
-590.825784
 20
-89.98064
 30
0.0
 40
2.0
100
AcDbArc
 50
0.0
 51
61.416137
  0
ARC
  5
3CF
100
AcDbEntity
  8
0
370
    -3
  6
Continuous
100
AcDbCircle
 10
-608.894418
 20
-75.374766
 30
0.0
 40
3.0
100
AcDbArc
 50
35.871332
 51
90.0
  0
LINE
  5
3D0
100
AcDbEntity
  8
0
370
    -3
  6
Continuous
100
AcDbLine
 10
-601.665995
 20
-80.374766
 30
0.0
 11
-616.825784
 21
-80.374766
 31
0.0
  0
LINE
  5
3D1
100
AcDbEntity
  8
0
370
    -3
  6
Continuous
100
AcDbLine
 10
-460.75715
 20
-72.374766
 30
0.0
 11
-457.825784
 21
-72.374766
 31
0.0
  0
LINE
  5
3D2
100
AcDbEntity
  8
0
370
    -3
  6
Continuous
100
AcDbLine
 10
-467.985574
 20
-80.374766
 30
0.0
 11
-452.825784
 21
-80.374766
 31
0.0
  0
LINE
  5
3D3
100
AcDbEntity
  8
0
370
    -3
  6
Continuous
100
AcDbLine
 10
-469.896498
 20
-81.062113
 30
0.0
 11
-473.736709
 21
-84.235244
 31
0.0
  0
LINE
  5
3D4
100
AcDbEntity
  8
0
370
    -3
  6
Continuous
100
AcDbLine
 10
-599.75507
 20
-81.062113
 30
0.0
 11
-595.914859
 21
-84.235244
 31
0.0
  0
LINE
  5
3D5
100
AcDbEntity
  8
0
370
    -3
  6
Continuous
100
AcDbLine
 10
-588.825784
 20
-92.374766
 30
0.0
 11
-588.825784
 21
-89.98064
 31
0.0
  0
LINE
  5
3D6
100
AcDbEntity
  8
0
370
    -3
  6
CENTER
100
AcDbLine
 10
-609.825784
 20
-99.45527
 30
0.0
 11
-609.825784
 21
-77.549468
 31
0.0
  0
LINE
  5
3D7
100
AcDbEntity
  8
0
370
    -3
  6
Continuous
100
AcDbLine
 10
-570.211406
 20
-93.374766
 30
0.0
 11
-534.825784
 21
-93.374766
 31
0.0
  0
ARC
  5
3D8
100
AcDbEntity
  8
0
370
    -3
  6
Continuous
100
AcDbCircle
 10
-457.825784
 20
-75.374766
 30
0.0
 40
3.0
100
AcDbArc
 50
0.0
 51
90.0
  0
LINE
  5
3D9
100
AcDbEntity
  8
0
370
    -3
  6
Continuous
100
AcDbLine
 10
-608.894418
 20
-72.374766
 30
0.0
 11
-611.825784
 21
-72.374766
 31
0.0
  0
ARC
  5
3DA
100
AcDbEntity
  8
0
370
    -3
  6
Continuous
100
AcDbCircle
 10
-611.825784
 20
-75.374766
 30
0.0
 40
3.0
100
AcDbArc
 50
90.0
 51
180.0
  0
LINE
  5
3DB
100
AcDbEntity
  8
0
370
    -3
  6
Continuous
100
AcDbLine
 10
-613.993139
 20
-53.411259
 30
0.0
 11
-605.563056
 21
-67.696748
 31
0.0
  0
ARC
  5
3DC
100
AcDbEntity
  8
0
370
    -3
  6
Continuous
100
AcDbCircle
 10
-608.825784
 20
-50.361925
 30
0.0
 40
6.0
100
AcDbArc
 50
180.0
 51
210.545499
  0
ARC
  5
3DD
100
AcDbEntity
  8
0
370
    -3
  6
Continuous
100
AcDbCircle
 10
-565.946667
 20
-44.318516
 30
0.0
 40
46.0
100
AcDbArc
 50
219.301285
 51
241.473515
  0
ARC
  5
3DE
100
AcDbEntity
  8
0
370
    -3
  6
Continuous
100
AcDbCircle
 10
-534.825784
 20
-385.374766
 30
0.0
 40
450.0
100
AcDbArc
 50
87.767132
 51
90.0
  0
LINE
  5
3DF
100
AcDbEntity
  8
0
370
    -3
  6
Continuous
100
AcDbLine
 10
-614.825784
 20
-0.667085
 30
0.0
 11
-614.825784
 21
-77.458686
 31
0.0
  0
ARC
  5
3E0
100
AcDbEntity
  8
0
370
    -3
  6
Continuous
100
AcDbCircle
 10
-549.825784
 20
-0.667085
 30
0.0
 40
65.0
100
AcDbArc
 50
92.232868
 51
180.0
  0
ARC
  5
3E1
100
AcDbEntity
  8
0
370
    -3
  6
Continuous
100
AcDbCircle
 10
-534.825784
 20
-385.374766
 30
0.0
 40
450.0
100
AcDbArc
 50
90.0
 51
92.232868
  0
LINE
  5
3E2
100
AcDbEntity
  8
0
370
    -3
  6
Continuous
100
AcDbLine
 10
-619.825784
 20
-95.374766
 30
0.0
 11
-594.825784
 21
-95.374766
 31
0.0
  0
LINE
  5
3E3
100
AcDbEntity
  8
0
370
    -3
  6
Continuous
100
AcDbLine
 10
-449.825784
 20
-95.374766
 30
0.0
 11
-474.825784
 21
-95.374766
 31
0.0
  0
LINE
  5
3E4
100
AcDbEntity
  8
0
370
    -3
  6
Continuous
100
AcDbLine
 10
-619.825784
 20
-95.374766
 30
0.0
 11
-619.825784
 21
-83.374766
 31
0.0
  0
LINE
  5
3E5
100
AcDbEntity
  8
0
370
    -3
  6
Continuous
100
AcDbLine
 10
-594.825784
 20
-95.374766
 30
0.0
 11
-594.825784
 21
-86.547898
 31
0.0
  0
LINE
  5
3E6
100
AcDbEntity
  8
0
370
    -3
  6
Continuous
100
AcDbLine
 10
-474.825784
 20
-95.374766
 30
0.0
 11
-474.825784
 21
-86.547898
 31
0.0
  0
LINE
  5
3E7
100
AcDbEntity
  8
0
370
    -3
  6
Continuous
100
AcDbLine
 10
-449.825784
 20
-95.374766
 30
0.0
 11
-449.825784
 21
-83.374766
 31
0.0
  0
LINE
  5
3E8
100
AcDbEntity
  8
0
370
    -3
  6
CENTER
100
AcDbLine
 10
-515.764644
 20
4.625234
 30
0.0
 11
-560.086862
 21
4.625234
 31
0.0
  0
ARC
  5
3E9
100
AcDbEntity
  8
0
370
    -3
  6
Continuous
100
AcDbCircle
 10
-485.468785
 20
-86.438158
 30
0.0
 40
1.5
100
AcDbArc
 50
198.32466
 51
331.598333
  0
ARC
  5
3EA
100
AcDbEntity
  8
0
370
    -3
  6
Continuous
100
AcDbCircle
 10
-530.825784
 20
-15.374766
 30
0.0
 40
74.0
100
AcDbArc
 50
359.968506
 51
0.031494
  0
ARC
  5
3EB
100
AcDbEntity
  8
0
370
    -3
  6
Continuous
100
AcDbCircle
 10
-495.075784
 20
58.353568
 30
0.0
 40
1.0
100
AcDbArc
 50
0.0
 51
67.249516
  0
LINE
  5
3EC
100
AcDbEntity
  8
0
370
    -3
  6
Continuous
100
AcDbLine
 10
-481.575784
 20
49.88425
 30
0.0
 11
-481.575784
 21
48.625234
 31
0.0
  0
ARC
  5
3ED
100
AcDbEntity
  8
0
370
    -3
  6
Continuous
100
AcDbCircle
 10
-480.575784
 20
49.88425
 30
0.0
 40
1.0
100
AcDbArc
 50
52.172861
 51
180.0
  0
ARC
  5
3EE
100
AcDbEntity
  8
0
370
    -3
  6
Continuous
100
AcDbCircle
 10
-500.075784
 20
-92.374766
 30
0.0
 40
1.0
100
AcDbArc
 50
270.0
 51
0.0
  0
LINE
  5
3EF
100
AcDbEntity
  8
0
370
    -3
  6
Continuous
100
AcDbLine
 10
-499.075784
 20
-88.874766
 30
0.0
 11
-499.075784
 21
-92.374766
 31
0.0
  0
ARC
  5
3F0
100
AcDbEntity
  8
0
370
    -3
  6
Continuous
100
AcDbCircle
 10
-503.704902
 20
-44.318516
 30
0.0
 40
46.0
100
AcDbArc
 50
298.241218
 51
320.373477
  0
ARC
  5
3F1
100
AcDbEntity
  8
0
370
    -3
  6
Continuous
100
AcDbCircle
 10
-492.825784
 20
-88.874766
 30
0.0
 40
8.0
100
AcDbArc
 50
214.228866
 51
223.432537
  0
ARC
  5
3F2
100
AcDbEntity
  8
0
370
    -3
  6
Continuous
100
AcDbCircle
 10
-492.825784
 20
-88.874766
 30
0.0
 40
8.0
100
AcDbArc
 50
316.567463
 51
355.367233
  0
ARC
  5
3F3
100
AcDbEntity
  8
0
370
    -3
  6
Continuous
100
AcDbCircle
 10
-478.871524
 20
-90.005531
 30
0.0
 40
6.0
100
AcDbArc
 50
118.526485
 51
175.367233
  0
ARC
  5
3F4
100
AcDbEntity
  8
0
370
    -3
  6
Continuous
100
AcDbCircle
 10
-534.825784
 20
-15.374766
 30
0.0
 40
74.0
100
AcDbArc
 50
359.98402
 51
0.01598
  0
ARC
  5
3F5
100
AcDbEntity
  8
0
370
    -3
  6
Continuous
100
AcDbCircle
 10
-530.825784
 20
-15.374766
 30
0.0
 40
74.0
100
AcDbArc
 50
359.968506
 51
0.031494
  0
LINE
  5
3F6
100
AcDbEntity
  8
0
370
    -3
  6
Continuous
100
AcDbLine
 10
-499.440163
 20
-93.374766
 30
0.0
 11
-534.825784
 21
-93.374766
 31
0.0
  0
LINE
  5
3F7
100
AcDbEntity
  8
0
370
    -3
  6
Continuous
100
AcDbLine
 10
-487.016309
 20
-94.374766
 30
0.0
 11
-498.635259
 21
-94.374766
 31
0.0
  0
LINE
  5
3F8
100
AcDbEntity
  8
0
370
    -3
  6
CENTER
100
AcDbLine
 10
-448.852105
 20
-15.374766
 30
0.0
 11
-534.825784
 21
-15.374766
 31
0.0
  0
LINE
  5
3F9
100
AcDbEntity
  8
0
370
    -3
  6
CENTER
100
AcDbLine
 10
-534.825784
 20
-15.374766
 30
0.0
 11
-624.572882
 21
-15.374766
 31
0.0
  0
LINE
  5
3FA
100
AcDbEntity
  8
0
370
    -3
  6
Continuous
100
AcDbLine
 10
-614.825784
 20
-0.667085
 30
0.0
 11
-614.825784
 21
-48.754229
 31
0.0
  0
LINE
  5
3FB
100
AcDbEntity
  8
0
370
    -3
  6
Continuous
100
AcDbLine
 10
-582.635259
 20
-94.374766
 30
0.0
 11
-571.016309
 21
-94.374766
 31
0.0
  0
LINE
  5
3FC
100
AcDbEntity
  8
0
370
    -3
  6
CENTER
100
AcDbLine
 10
-534.825784
 20
73.877176
 30
0.0
 11
-534.825784
 21
-100.933299
 31
0.0
  0
LINE
  5
3FD
100
AcDbEntity
  8
0
370
    -3
  6
Continuous
100
AcDbLine
 10
-570.211406
 20
-93.374766
 30
0.0
 11
-534.825784
 21
-93.374766
 31
0.0
  0
ARC
  5
3FE
100
AcDbEntity
  8
0
370
    -3
  6
Continuous
100
AcDbCircle
 10
-534.825784
 20
-15.374766
 30
0.0
 40
74.0
100
AcDbArc
 50
89.98402
 51
90.01598
  0
ARC
  5
3FF
100
AcDbEntity
  8
0
370
    -3
  6
Continuous
100
AcDbCircle
 10
-538.825784
 20
-15.374766
 30
0.0
 40
74.0
100
AcDbArc
 50
179.968506
 51
180.031494
  0
ARC
  5
400
100
AcDbEntity
  8
0
370
    -3
  6
Continuous
100
AcDbCircle
 10
-576.825784
 20
-88.874766
 30
0.0
 40
8.0
100
AcDbArc
 50
316.567463
 51
325.771134
  0
ARC
  5
401
100
AcDbEntity
  8
0
370
    -3
  6
Continuous
100
AcDbCircle
 10
-590.780044
 20
-90.005531
 30
0.0
 40
6.0
100
AcDbArc
 50
4.632767
 51
61.473515
  0
ARC
  5
402
100
AcDbEntity
  8
0
370
    -3
  6
Continuous
100
AcDbCircle
 10
-576.825784
 20
-88.874766
 30
0.0
 40
8.0
100
AcDbArc
 50
184.632767
 51
223.432537
  0
ARC
  5
403
100
AcDbEntity
  8
0
370
    -3
  6
Continuous
100
AcDbCircle
 10
-565.946667
 20
-44.318516
 30
0.0
 40
46.0
100
AcDbArc
 50
219.626523
 51
241.473515
  0
ARC
  5
404
100
AcDbEntity
  8
0
370
    -3
  6
Continuous
100
AcDbCircle
 10
-534.825784
 20
-385.374766
 30
0.0
 40
450.0
100
AcDbArc
 50
87.767132
 51
90.0
  0
ARC
  5
405
100
AcDbEntity
  8
0
370
    -3
  6
Continuous
100
AcDbCircle
 10
-549.825784
 20
-0.667085
 30
0.0
 40
65.0
100
AcDbArc
 50
92.232868
 51
180.0
  0
ARC
  5
406
100
AcDbEntity
  8
0
370
    -3
  6
Continuous
100
AcDbCircle
 10
-534.825784
 20
-385.374766
 30
0.0
 40
450.0
100
AcDbArc
 50
90.0
 51
92.232868
  0
LINE
  5
407
100
AcDbEntity
  8
0
370
    -3
  6
Continuous
100
AcDbLine
 10
-588.075784
 20
49.88425
 30
0.0
 11
-588.075784
 21
48.625234
 31
0.0
  0
ARC
  5
408
100
AcDbEntity
  8
0
370
    -3
  6
Continuous
100
AcDbCircle
 10
-589.075784
 20
49.88425
 30
0.0
 40
1.0
100
AcDbArc
 50
0.0
 51
127.827139
  0
ARC
  5
409
100
AcDbEntity
  8
0
370
    -3
  6
Continuous
100
AcDbCircle
 10
-574.575784
 20
58.353568
 30
0.0
 40
1.0
100
AcDbArc
 50
112.750484
 51
180.0
  0
ARC
  5
40A
100
AcDbEntity
  8
0
370
    -3
  6
Continuous
100
AcDbCircle
 10
-613.825784
 20
-2.624766
 30
0.0
 40
1.0
100
AcDbArc
 50
180.0
 51
270.0
  0
ARC
  5
40B
100
AcDbEntity
  8
0
370
    -3
  6
Continuous
100
AcDbCircle
 10
-613.825784
 20
-17.124766
 30
0.0
 40
1.0
100
AcDbArc
 50
90.0
 51
180.0
  0
LINE
  5
40C
100
AcDbEntity
  8
0
370
    -3
  6
Continuous
100
AcDbLine
 10
-570.575784
 20
-88.874766
 30
0.0
 11
-570.575784
 21
-92.374766
 31
0.0
  0
ARC
  5
40D
100
AcDbEntity
  8
0
370
    -3
  6
Continuous
100
AcDbCircle
 10
-569.575784
 20
-92.374766
 30
0.0
 40
1.0
100
AcDbArc
 50
180.0
 51
270.0
  0
ARC
  5
40E
100
AcDbEntity
  8
0
370
    -3
  6
Continuous
100
AcDbCircle
 10
-584.182784
 20
-86.438158
 30
0.0
 40
1.5
100
AcDbArc
 50
208.401667
 51
341.67534
  0
LINE
  5
40F
100
AcDbEntity
  8
0
370
    -3
  6
Continuous
100
AcDbLine
 10
-162.306666
 20
306.606939
 30
0.0
 11
-131.306666
 21
306.606939
 31
0.0
  0
LINE
  5
410
100
AcDbEntity
  8
0
370
    -3
  6
Continuous
100
AcDbLine
 10
-162.306666
 20
300.45856
 30
0.0
 11
-131.306666
 21
300.45856
 31
0.0
  0
LINE
  5
411
100
AcDbEntity
  8
0
370
    -3
  6
Continuous
100
AcDbLine
 10
-162.306666
 20
293.528914
 30
0.0
 11
-134.056666
 21
293.528914
 31
0.0
  0
LINE
  5
412
100
AcDbEntity
  8
0
370
    -3
  6
Continuous
100
AcDbLine
 10
-162.306666
 20
285.456208
 30
0.0
 11
-131.306666
 21
285.456208
 31
0.0
  0
LINE
  5
413
100
AcDbEntity
  8
0
370
    -3
  6
Continuous
100
AcDbLine
 10
-162.306666
 20
283.807581
 30
0.0
 11
-131.306666
 21
283.807581
 31
0.0
  0
LINE
  5
414
100
AcDbEntity
  8
0
370
    -3
  6
Continuous
100
AcDbLine
 10
-162.306666
 20
277.449711
 30
0.0
 11
-131.306666
 21
277.449711
 31
0.0
  0
LINE
  5
415
100
AcDbEntity
  8
0
370
    -3
  6
Continuous
100
AcDbLine
 10
-162.306666
 20
275.816983
 30
0.0
 11
-131.306666
 21
275.816983
 31
0.0
  0
LINE
  5
416
100
AcDbEntity
  8
0
370
    -3
  6
Continuous
100
AcDbLine
 10
-162.306666
 20
269.421447
 30
0.0
 11
-131.306666
 21
269.421447
 31
0.0
  0
LINE
  5
417
100
AcDbEntity
  8
0
370
    -3
  6
Continuous
100
AcDbLine
 10
-162.306666
 20
267.829195
 30
0.0
 11
-131.306666
 21
267.829195
 31
0.0
  0
LINE
  5
418
100
AcDbEntity
  8
0
370
    -3
  6
Continuous
100
AcDbLine
 10
-162.306666
 20
261.38694
 30
0.0
 11
-131.306666
 21
261.38694
 31
0.0
  0
LINE
  5
419
100
AcDbEntity
  8
0
370
    -3
  6
Continuous
100
AcDbLine
 10
-162.306666
 20
259.850103
 30
0.0
 11
-131.306666
 21
259.850103
 31
0.0
  0
LINE
  5
41A
100
AcDbEntity
  8
0
370
    -3
  6
Continuous
100
AcDbLine
 10
-162.306666
 20
253.355095
 30
0.0
 11
-131.306666
 21
253.355095
 31
0.0
  0
LINE
  5
41B
100
AcDbEntity
  8
0
370
    -3
  6
Continuous
100
AcDbLine
 10
-162.306666
 20
251.869937
 30
0.0
 11
-131.306666
 21
251.869937
 31
0.0
  0
LINE
  5
41C
100
AcDbEntity
  8
0
370
    -3
  6
Continuous
100
AcDbLine
 10
-162.306666
 20
245.336735
 30
0.0
 11
-131.306666
 21
245.336735
 31
0.0
  0
LINE
  5
41D
100
AcDbEntity
  8
0
370
    -3
  6
Continuous
100
AcDbLine
 10
-162.306666
 20
243.877143
 30
0.0
 11
-131.306666
 21
243.877143
 31
0.0
  0
LINE
  5
41E
100
AcDbEntity
  8
0
370
    -3
  6
Continuous
100
AcDbLine
 10
-162.306666
 20
237.343941
 30
0.0
 11
-131.306666
 21
237.343941
 31
0.0
  0
LINE
  5
41F
100
AcDbEntity
  8
0
370
    -3
  6
Continuous
100
AcDbLine
 10
-162.306666
 20
235.858783
 30
0.0
 11
-131.306666
 21
235.858783
 31
0.0
  0
LINE
  5
420
100
AcDbEntity
  8
0
370
    -3
  6
Continuous
100
AcDbLine
 10
-162.306666
 20
229.363775
 30
0.0
 11
-131.306666
 21
229.363775
 31
0.0
  0
LINE
  5
421
100
AcDbEntity
  8
0
370
    -3
  6
Continuous
100
AcDbLine
 10
-162.306666
 20
227.826938
 30
0.0
 11
-131.306666
 21
227.826938
 31
0.0
  0
LINE
  5
422
100
AcDbEntity
  8
0
370
    -3
  6
Continuous
100
AcDbLine
 10
-162.306666
 20
221.384683
 30
0.0
 11
-131.306666
 21
221.384683
 31
0.0
  0
LINE
  5
423
100
AcDbEntity
  8
0
370
    -3
  6
Continuous
100
AcDbLine
 10
-162.306666
 20
219.792431
 30
0.0
 11
-131.306666
 21
219.792431
 31
0.0
  0
LINE
  5
424
100
AcDbEntity
  8
0
370
    -3
  6
Continuous
100
AcDbLine
 10
-162.306666
 20
213.396895
 30
0.0
 11
-131.306666
 21
213.396895
 31
0.0
  0
LINE
  5
425
100
AcDbEntity
  8
0
370
    -3
  6
Continuous
100
AcDbLine
 10
-162.306666
 20
211.764167
 30
0.0
 11
-131.306666
 21
211.764167
 31
0.0
  0
LINE
  5
426
100
AcDbEntity
  8
0
370
    -3
  6
Continuous
100
AcDbLine
 10
-162.306666
 20
205.406297
 30
0.0
 11
-131.306666
 21
205.406297
 31
0.0
  0
LINE
  5
427
100
AcDbEntity
  8
0
370
    -3
  6
Continuous
100
AcDbLine
 10
-162.306666
 20
203.75767
 30
0.0
 11
-131.306666
 21
203.75767
 31
0.0
  0
LINE
  5
428
100
AcDbEntity
  8
0
370
    -3
  6
Continuous
100
AcDbLine
 10
-162.306666
 20
195.684964
 30
0.0
 11
-134.056666
 21
195.684964
 31
0.0
  0
LINE
  5
429
100
AcDbEntity
  8
0
370
    -3
  6
Continuous
100
AcDbLine
 10
-162.306666
 20
188.755318
 30
0.0
 11
-131.306666
 21
188.755318
 31
0.0
  0
LINE
  5
42A
100
AcDbEntity
  8
0
370
    -3
  6
Continuous
100
AcDbLine
 10
-162.306666
 20
182.606939
 30
0.0
 11
-131.306666
 21
182.606939
 31
0.0
  0
MTEXT
  5
42C
100
AcDbEntity
  8
0
370
    -3
  6
Continuous
100
AcDbMText
 10
-601.363708
 20
297.439819
 30
0.0
 40
15.0
 41
0.0
 71
     7
 72
     1
  1
\W0.63;三菱ギヤードモータ  
  7
ZU_SHPTB00001
 11
1.0
 21
0.0
 31
0.0
 73
     1
 44
1.0
  0
MTEXT
  5
42D
100
AcDbEntity
  8
0
370
    -3
  6
Continuous
100
AcDbMText
 10
-601.363708
 20
297.439819
 30
0.0
 40
15.0
 41
0.0
 71
     7
 72
     1
  1
\W0.63;三菱ギヤードモータ  
  7
ZU_SHPTB00001
 11
1.0
 21
0.0
 31
0.0
 73
     1
 44
1.0
  0
MTEXT
  5
42E
100
AcDbEntity
  8
0
370
    -3
  6
Continuous
100
AcDbMText
 10
-601.363708
 20
263.539795
 30
0.0
 40
15.0
 41
0.0
 71
     7
 72
     1
  1
\W0.43;1.5kW
  7
ZU_SHPTB00001
 11
1.0
 21
0.0
 31
0.0
 73
     1
 44
1.0
  0
MTEXT
  5
42F
100
AcDbEntity
  8
0
370
    -3
  6
Continuous
100
AcDbMText
 10
-601.363708
 20
212.689804
 30
0.0
 40
15.0
 41
0.0
 71
     7
 72
     1
  1
\W0.43;SCALE\W0.72;  \W0.43;1/1
  7
ZU_SHPTB00001
 11
1.0
 21
0.0
 31
0.0
 73
     1
 44
1.0
  0
MTEXT
  5
430
100
AcDbEntity
  8
0
370
    -3
  6
Continuous
100
AcDbMText
 10
-601.363708
 20
280.489807
 30
0.0
 40
15.0
 41
0.0
 71
     7
 72
     1
  1
\W0.48;GV-S
  7
ZU_SHPTB00001
 11
1.0
 21
0.0
 31
0.0
 73
     1
 44
1.0
  0
MTEXT
  5
431
100
AcDbEntity
  8
0
370
    -3
  6
Continuous
100
AcDbMText
 10
-601.363708
 20
246.589828
 30
0.0
 40
15.0
 41
0.0
 71
     7
 72
     1
  1
\W0.43;600-100r/min\W0.53;　
  7
ZU_SHPTB00001
 11
1.0
 21
0.0
 31
0.0
 73
     1
 44
1.0
  0
MTEXT
  5
432
100
AcDbEntity
  8
0
370
    -3
  6
Continuous
100
AcDbMText
 10
-601.363708
 20
229.639816
 30
0.0
 40
15.0
 41
0.0
 71
     7
 72
     1
  1
\W0.42;GEAR\W0.70; \W0.42;RATIO\W0.70;  \W0.42;1/5-1/30
  7
ZU_SHPTB00001
 11
1.0
 21
0.0
 31
0.0
 73
     1
 44
1.0
  0
LINE
  5
433
100
AcDbEntity
  8
0
370
    -3
  6
CENTER
100
AcDbLine
 10
43.17659
 20
-15.374766
 30
0.0
 11
81.152373
 21
-15.374766
 31
0.0
  0
LINE
  5
434
100
AcDbEntity
  8
0
370
    -3
  6
Continuous
100
AcDbLine
 10
89.164482
 20
-15.374766
 30
0.0
 11
89.164482
 21
15.625234
 31
0.0
  0
ARC
  5
435
100
AcDbEntity
  8
0
370
    -3
  6
Continuous
100
AcDbCircle
 10
100.964482
 20
6.025234
 30
0.0
 40
3.2
100
AcDbArc
 50
82.236305
 51
90.0
  0
LINE
  5
436
100
AcDbEntity
  8
0
370
    -3
  6
Continuous
100
AcDbLine
 10
89.164482
 20
-15.374766
 30
0.0
 11
89.164482
 21
-46.374766
 31
0.0
  0
ARC
  5
437
100
AcDbEntity
  8
0
370
    -3
  6
Continuous
100
AcDbCircle
 10
92.764482
 20
-41.974766
 30
0.0
 40
2.0
100
AcDbArc
 50
90.0
 51
180.0
  0
LINE
  5
438
100
AcDbEntity
  8
0
370
    -3
  6
Continuous
100
AcDbLine
 10
92.764482
 20
-39.974766
 30
0.0
 11
95.164482
 21
-39.974766
 31
0.0
  0
LINE
  5
439
100
AcDbEntity
  8
0
370
    -3
  6
Continuous
100
AcDbLine
 10
89.164482
 20
-46.374766
 30
0.0
 11
90.764482
 21
-46.374766
 31
0.0
  0
LINE
  5
43A
100
AcDbEntity
  8
0
370
    -3
  6
Continuous
100
AcDbLine
 10
90.764482
 20
-46.374766
 30
0.0
 11
90.764482
 21
-41.974766
 31
0.0
  0
LINE
  5
43B
100
AcDbEntity
  8
0
370
    -3
  6
Continuous
100
AcDbLine
 10
89.164482
 20
-46.374766
 30
0.0
 11
88.164482
 21
-46.374766
 31
0.0
  0
LINE
  5
43C
100
AcDbEntity
  8
0
370
    -3
  6
Continuous
100
AcDbLine
 10
89.164482
 20
15.625234
 30
0.0
 11
88.164482
 21
15.625234
 31
0.0
  0
LINE
  5
43D
100
AcDbEntity
  8
0
370
    -3
  6
Continuous
100
AcDbLine
 10
88.164482
 20
-46.374766
 30
0.0
 11
88.164482
 21
15.625234
 31
0.0
  0
LINE
  5
43E
100
AcDbEntity
  8
0
370
    -3
  6
Continuous
100
AcDbLine
 10
92.764482
 20
9.225234
 30
0.0
 11
95.921645
 21
9.225234
 31
0.0
  0
LINE
  5
43F
100
AcDbEntity
  8
0
370
    -3
  6
Continuous
100
AcDbLine
 10
89.164482
 20
15.625234
 30
0.0
 11
90.764482
 21
15.625234
 31
0.0
  0
ARC
  5
440
100
AcDbEntity
  8
0
370
    -3
  6
Continuous
100
AcDbCircle
 10
92.764482
 20
11.225234
 30
0.0
 40
2.0
100
AcDbArc
 50
180.0
 51
270.0
  0
LINE
  5
441
100
AcDbEntity
  8
0
370
    -3
  6
Continuous
100
AcDbLine
 10
90.764482
 20
15.625234
 30
0.0
 11
90.764482
 21
11.225234
 31
0.0
  0
ARC
  5
442
100
AcDbEntity
  8
0
370
    -3
  6
Continuous
100
AcDbCircle
 10
45.346955
 20
-47.124766
 30
0.0
 40
6.8
100
AcDbArc
 50
180.0
 51
270.0
  0
LINE
  5
443
100
AcDbEntity
  8
0
370
    -3
  6
Continuous
100
AcDbLine
 10
38.546955
 20
16.375234
 30
0.0
 11
38.546955
 21
-47.124766
 31
0.0
  0
ARC
  5
444
100
AcDbEntity
  8
0
370
    -3
  6
Continuous
100
AcDbCircle
 10
45.346955
 20
16.375234
 30
0.0
 40
6.8
100
AcDbArc
 50
90.0
 51
180.0
  0
ARC
  5
445
100
AcDbEntity
  8
0
370
    -3
  6
Continuous
100
AcDbCircle
 10
73.352373
 20
23.625234
 30
0.0
 40
7.8
100
AcDbArc
 50
0.0
 51
90.0
  0
LINE
  5
446
100
AcDbEntity
  8
0
370
    -3
  6
Continuous
100
AcDbLine
 10
81.152373
 20
-54.374766
 30
0.0
 11
81.152373
 21
23.625234
 31
0.0
  0
ARC
  5
447
100
AcDbEntity
  8
0
370
    -3
  6
Continuous
100
AcDbCircle
 10
73.352373
 20
-54.374766
 30
0.0
 40
7.8
100
AcDbArc
 50
270.0
 51
0.0
  0
ARC
  5
448
100
AcDbEntity
  8
0
370
    -3
  6
Continuous
100
AcDbCircle
 10
78.608959
 20
-54.374766
 30
0.0
 40
7.8
100
AcDbArc
 50
270.0
 51
0.0
  0
LINE
  5
449
100
AcDbEntity
  8
0
370
    -3
  6
Continuous
100
AcDbLine
 10
44.493334
 20
31.425234
 30
0.0
 11
78.608959
 21
31.425234
 31
0.0
  0
LINE
  5
44A
100
AcDbEntity
  8
0
370
    -3
  6
Continuous
100
AcDbLine
 10
86.408959
 20
23.625234
 30
0.0
 11
86.408959
 21
-54.374766
 31
0.0
  0
ARC
  5
44B
100
AcDbEntity
  8
0
370
    -3
  6
Continuous
100
AcDbCircle
 10
78.608959
 20
23.625234
 30
0.0
 40
7.8
100
AcDbArc
 50
0.0
 51
90.0
  0
LINE
  5
44C
100
AcDbEntity
  8
0
370
    -3
  6
Continuous
100
AcDbLine
 10
69.857592
 20
-53.924766
 30
0.0
 11
45.346955
 21
-53.924766
 31
0.0
  0
ARC
  5
44D
100
AcDbEntity
  8
0
370
    -3
  6
Continuous
100
AcDbCircle
 10
69.857592
 20
-50.124766
 30
0.0
 40
3.8
100
AcDbArc
 50
270.0
 51
336.772328
  0
LINE
  5
44E
100
AcDbEntity
  8
0
370
    -3
  6
Continuous
100
AcDbLine
 10
73.349583
 20
-51.623432
 30
0.0
 11
77.295681
 21
-42.428762
 31
0.0
  0
ARC
  5
44F
100
AcDbEntity
  8
0
370
    -3
  6
Continuous
100
AcDbCircle
 10
73.80369
 20
-40.930096
 30
0.0
 40
3.8
100
AcDbArc
 50
336.772328
 51
0.0
  0
LINE
  5
450
100
AcDbEntity
  8
0
370
    -3
  6
Continuous
100
AcDbLine
 10
73.349583
 20
20.8739
 30
0.0
 11
77.295681
 21
11.67923
 31
0.0
  0
LINE
  5
451
100
AcDbEntity
  8
0
370
    -3
  6
Continuous
100
AcDbLine
 10
77.60369
 20
10.180564
 30
0.0
 11
77.60369
 21
-40.930096
 31
0.0
  0
ARC
  5
452
100
AcDbEntity
  8
0
370
    -3
  6
Continuous
100
AcDbCircle
 10
73.80369
 20
10.180564
 30
0.0
 40
3.8
100
AcDbArc
 50
0.0
 51
23.227672
  0
LINE
  5
453
100
AcDbEntity
  8
0
370
    -3
  6
Continuous
100
AcDbLine
 10
69.857592
 20
23.175234
 30
0.0
 11
45.346955
 21
23.175234
 31
0.0
  0
ARC
  5
454
100
AcDbEntity
  8
0
370
    -3
  6
Continuous
100
AcDbCircle
 10
69.857592
 20
19.375234
 30
0.0
 40
3.8
100
AcDbArc
 50
23.227672
 51
90.0
  0
ELLIPSE
  5
455
100
AcDbEntity
  8
0
370
    -3
  6
Continuous
100
AcDbEllipse
 10
77.037004
 20
-54.874766
 30
0.0
 11
0.0
 21
3.5
 31
0.0
210
0.0
220
0.0
230
1.0
 40
0.656603
 41
0.0
 42
6.2831853071795862
  0
LINE
  5
456
100
AcDbEntity
  8
0
370
    -3
  6
Continuous
100
AcDbLine
 10
75.49955
 20
-54.874766
 30
0.0
 11
76.548738
 21
-56.874766
 31
0.0
  0
LINE
  5
457
100
AcDbEntity
  8
0
370
    -3
  6
Continuous
100
AcDbLine
 10
75.49955
 20
-54.874766
 30
0.0
 11
76.548738
 21
-52.874766
 31
0.0
  0
LINE
  5
458
100
AcDbEntity
  8
0
370
    -3
  6
Continuous
100
AcDbLine
 10
74.989723
 20
-53.284749
 30
0.0
 11
75.49955
 21
-54.874766
 31
0.0
  0
LINE
  5
459
100
AcDbEntity
  8
0
370
    -3
  6
Continuous
100
AcDbLine
 10
74.989723
 20
-56.464783
 30
0.0
 11
75.49955
 21
-54.874766
 31
0.0
  0
LINE
  5
45A
100
AcDbEntity
  8
0
370
    -3
  6
Continuous
100
AcDbLine
 10
36.531462
 20
-53.284749
 30
0.0
 11
37.041289
 21
-54.874766
 31
0.0
  0
LINE
  5
45B
100
AcDbEntity
  8
0
370
    -3
  6
Continuous
100
AcDbLine
 10
37.041289
 20
-54.874766
 30
0.0
 11
38.090477
 21
-52.874766
 31
0.0
  0
LINE
  5
45C
100
AcDbEntity
  8
0
370
    -3
  6
Continuous
100
AcDbLine
 10
37.041289
 20
-54.874766
 30
0.0
 11
38.090477
 21
-56.874766
 31
0.0
  0
LINE
  5
45D
100
AcDbEntity
  8
0
370
    -3
  6
Continuous
100
AcDbLine
 10
36.531462
 20
-56.464783
 30
0.0
 11
37.041289
 21
-54.874766
 31
0.0
  0
ELLIPSE
  5
45E
100
AcDbEntity
  8
0
370
    -3
  6
Continuous
100
AcDbEllipse
 10
38.578742
 20
-54.874766
 30
0.0
 11
0.0
 21
3.5
 31
0.0
210
0.0
220
0.0
230
1.0
 40
0.656603
 41
0.0
 42
6.2831853071795862
  0
ARC
  5
45F
100
AcDbEntity
  8
0
370
    -3
  6
Continuous
100
AcDbCircle
 10
44.493334
 20
-54.374766
 30
0.0
 40
7.8
100
AcDbArc
 50
208.12516
 51
270.0
  0
ELLIPSE
  5
460
100
AcDbEntity
  8
0
370
    -3
  6
Continuous
100
AcDbEllipse
 10
77.037004
 20
24.125234
 30
0.0
 11
0.0
 21
3.5
 31
0.0
210
0.0
220
0.0
230
1.0
 40
0.656603
 41
0.0
 42
6.2831853071795862
  0
LINE
  5
461
100
AcDbEntity
  8
0
370
    -3
  6
Continuous
100
AcDbLine
 10
75.49955
 20
24.125234
 30
0.0
 11
76.548738
 21
26.125234
 31
0.0
  0
LINE
  5
462
100
AcDbEntity
  8
0
370
    -3
  6
Continuous
100
AcDbLine
 10
75.49955
 20
24.125234
 30
0.0
 11
76.548738
 21
22.125234
 31
0.0
  0
LINE
  5
463
100
AcDbEntity
  8
0
370
    -3
  6
Continuous
100
AcDbLine
 10
74.989723
 20
22.535217
 30
0.0
 11
75.49955
 21
24.125234
 31
0.0
  0
LINE
  5
464
100
AcDbEntity
  8
0
370
    -3
  6
Continuous
100
AcDbLine
 10
74.989723
 20
25.715251
 30
0.0
 11
75.49955
 21
24.125234
 31
0.0
  0
LINE
  5
465
100
AcDbEntity
  8
0
370
    -3
  6
Continuous
100
AcDbLine
 10
36.531462
 20
22.535217
 30
0.0
 11
37.041289
 21
24.125234
 31
0.0
  0
LINE
  5
466
100
AcDbEntity
  8
0
370
    -3
  6
Continuous
100
AcDbLine
 10
37.041289
 20
24.125234
 30
0.0
 11
38.090477
 21
22.125234
 31
0.0
  0
LINE
  5
467
100
AcDbEntity
  8
0
370
    -3
  6
Continuous
100
AcDbLine
 10
37.041289
 20
24.125234
 30
0.0
 11
38.090477
 21
26.125234
 31
0.0
  0
LINE
  5
468
100
AcDbEntity
  8
0
370
    -3
  6
Continuous
100
AcDbLine
 10
36.531462
 20
25.715251
 30
0.0
 11
37.041289
 21
24.125234
 31
0.0
  0
ELLIPSE
  5
469
100
AcDbEntity
  8
0
370
    -3
  6
Continuous
100
AcDbEllipse
 10
38.578742
 20
24.125234
 30
0.0
 11
0.0
 21
3.5
 31
0.0
210
0.0
220
0.0
230
1.0
 40
0.656603
 41
0.0
 42
6.2831853071795862
  0
ARC
  5
46A
100
AcDbEntity
  8
0
370
    -3
  6
Continuous
100
AcDbCircle
 10
44.493334
 20
23.625234
 30
0.0
 40
7.8
100
AcDbArc
 50
90.0
 51
151.87484
  0
LINE
  5
46B
100
AcDbEntity
  8
0
370
    -3
  6
Continuous
100
AcDbLine
 10
36.693334
 20
22.124053
 30
0.0
 11
36.693334
 21
-52.873585
 31
0.0
  0
ARC
  5
46C
100
AcDbEntity
  8
0
370
    -3
  6
Continuous
100
AcDbCircle
 10
83.364482
 20
20.125234
 30
0.0
 40
3.8
100
AcDbArc
 50
0.0
 51
36.757251
  0
ARC
  5
46D
100
AcDbEntity
  8
0
370
    -3
  6
Continuous
100
AcDbCircle
 10
83.364482
 20
-50.874766
 30
0.0
 40
3.8
100
AcDbArc
 50
321.247352
 51
0.0
  0
ARC
  5
46E
100
AcDbEntity
  8
0
370
    -3
  6
Continuous
100
AcDbCircle
 10
87.164482
 20
-43.374766
 30
0.0
 40
1.0
100
AcDbArc
 50
270.0
 51
0.0
  0
ARC
  5
46F
100
AcDbEntity
  8
0
370
    -3
  6
Continuous
100
AcDbCircle
 10
87.164482
 20
12.625234
 30
0.0
 40
1.0
100
AcDbArc
 50
0.0
 51
90.0
  0
LINE
  5
470
100
AcDbEntity
  8
0
370
    -3
  6
Continuous
100
AcDbLine
 10
87.164482
 20
20.125234
 30
0.0
 11
87.164482
 21
-50.874766
 31
0.0
  0
LINE
  5
471
100
AcDbEntity
  8
0
370
    -3
  6
Continuous
100
AcDbLine
 10
44.493334
 20
-62.174766
 30
0.0
 11
78.608959
 21
-62.174766
 31
0.0
  0
LINE
  5
472
100
AcDbEntity
  8
0
370
    -3
  6
CENTER
100
AcDbLine
 10
62.164482
 20
3.613125
 30
0.0
 11
62.164482
 21
-34.362658
 31
0.0
  0
CIRCLE
  5
473
100
AcDbEntity
  8
0
370
    -3
  6
DASHED
100
AcDbCircle
 10
62.164482
 20
-15.374766
 30
0.0
 40
17.0
  0
LINE
  5
474
100
AcDbEntity
  8
0
370
    -3
  6
Continuous
100
AcDbLine
 10
-344.306666
 20
1.625234
 30
0.0
 11
-325.880726
 21
1.625234
 31
0.0
  0
LINE
  5
475
100
AcDbEntity
  8
0
370
    -3
  6
Continuous
100
AcDbLine
 10
-315.261532
 20
24.125234
 30
0.0
 11
-317.169252
 21
22.125234
 31
0.0
  0
LINE
  5
476
100
AcDbEntity
  8
0
370
    -3
  6
Continuous
100
AcDbLine
 10
-313.544021
 20
26.125234
 30
0.0
 11
-315.261532
 21
24.125234
 31
0.0
  0
LINE
  5
477
100
AcDbEntity
  8
0
370
    -3
  6
Continuous
100
AcDbLine
 10
-315.261532
 20
24.125234
 30
0.0
 11
-313.544021
 21
22.125234
 31
0.0
  0
LINE
  5
478
100
AcDbEntity
  8
0
370
    -3
  6
Continuous
100
AcDbLine
 10
-317.169252
 20
26.125234
 30
0.0
 11
-315.261532
 21
24.125234
 31
0.0
  0
ELLIPSE
  5
479
100
AcDbEntity
  8
0
370
    -3
  6
Continuous
100
AcDbEllipse
 10
-316.092563
 20
24.125234
 30
0.0
 11
0.0
 21
3.5
 31
0.0
210
0.0
220
0.0
230
1.0
 40
0.982815
 41
0.0
 42
6.2831853071795862
  0
LINE
  5
47A
100
AcDbEntity
  8
0
370
    -3
  6
Continuous
100
AcDbLine
 10
-315.638926
 20
-15.374766
 30
0.0
 11
-315.638926
 21
9.189696
 31
0.0
  0
ARC
  5
47B
100
AcDbEntity
  8
0
370
    -3
  6
Continuous
100
AcDbCircle
 10
-311.838926
 20
9.189696
 30
0.0
 40
3.8
100
AcDbArc
 50
138.609573
 51
180.0
  0
LINE
  5
47C
100
AcDbEntity
  8
0
370
    -3
  6
Continuous
100
AcDbLine
 10
-305.713032
 20
21.887743
 30
0.0
 11
-314.689768
 21
11.702205
 31
0.0
  0
ARC
  5
47D
100
AcDbEntity
  8
0
370
    -3
  6
Continuous
100
AcDbCircle
 10
-302.86219
 20
19.375234
 30
0.0
 40
3.8
100
AcDbArc
 50
90.0
 51
138.609573
  0
LINE
  5
47E
100
AcDbEntity
  8
0
370
    -3
  6
Continuous
100
AcDbLine
 10
-323.42954
 20
-15.374766
 30
0.0
 11
-323.42954
 21
23.625234
 31
0.0
  0
LINE
  5
47F
100
AcDbEntity
  8
0
370
    -3
  6
Continuous
100
AcDbLine
 10
-325.880726
 20
-15.374766
 30
0.0
 11
-325.880726
 21
23.625234
 31
0.0
  0
ARC
  5
480
100
AcDbEntity
  8
0
370
    -3
  6
Continuous
100
AcDbCircle
 10
-315.62954
 20
23.625234
 30
0.0
 40
7.8
100
AcDbArc
 50
90.0
 51
180.0
  0
ARC
  5
481
100
AcDbEntity
  8
0
370
    -3
  6
Continuous
100
AcDbCircle
 10
-318.080726
 20
23.625234
 30
0.0
 40
7.8
100
AcDbArc
 50
90.0
 51
180.0
  0
LINE
  5
482
100
AcDbEntity
  8
0
370
    -3
  6
Continuous
100
AcDbLine
 10
-235.209197
 20
31.425234
 30
0.0
 11
-318.080726
 21
31.425234
 31
0.0
  0
LINE
  5
483
100
AcDbEntity
  8
0
370
    -3
  6
Continuous
100
AcDbLine
 10
-344.306666
 20
-32.374766
 30
0.0
 11
-325.880726
 21
-32.374766
 31
0.0
  0
LINE
  5
484
100
AcDbEntity
  8
0
370
    -3
  6
Continuous
100
AcDbLine
 10
-323.42954
 20
-15.374766
 30
0.0
 11
-323.42954
 21
-54.374766
 31
0.0
  0
LINE
  5
485
100
AcDbEntity
  8
0
370
    -3
  6
Continuous
100
AcDbLine
 10
-325.880726
 20
-15.374766
 30
0.0
 11
-325.880726
 21
-54.374766
 31
0.0
  0
ARC
  5
486
100
AcDbEntity
  8
0
370
    -3
  6
Continuous
100
AcDbCircle
 10
-315.62954
 20
-54.374766
 30
0.0
 40
7.8
100
AcDbArc
 50
180.0
 51
270.0
  0
ARC
  5
487
100
AcDbEntity
  8
0
370
    -3
  6
Continuous
100
AcDbCircle
 10
-318.080726
 20
-54.374766
 30
0.0
 40
7.8
100
AcDbArc
 50
180.0
 51
270.0
  0
LINE
  5
488
100
AcDbEntity
  8
0
370
    -3
  6
Continuous
100
AcDbLine
 10
-235.209197
 20
-62.174766
 30
0.0
 11
-318.080726
 21
-62.174766
 31
0.0
  0
POINT
  5
489
100
AcDbEntity
  8
0
370
    -3
  6
CENTER
100
AcDbPoint
 10
-346.306666
 20
-2.154266
 30
0.0
  0
POINT
  5
48A
100
AcDbEntity
  8
0
370
    -3
  6
CENTER
100
AcDbPoint
 10
-346.306666
 20
-28.595266
 30
0.0
  0
ARC
  5
48B
100
AcDbEntity
  8
0
370
    -3
  6
Continuous
100
AcDbCircle
 10
-344.306666
 20
-30.374766
 30
0.0
 40
2.0
100
AcDbArc
 50
180.0
 51
270.0
  0
LINE
  5
48C
100
AcDbEntity
  8
0
370
    -3
  6
Continuous
100
AcDbLine
 10
-346.306666
 20
-15.374766
 30
0.0
 11
-346.306666
 21
-30.374766
 31
0.0
  0
ARC
  5
48D
100
AcDbEntity
  8
0
370
    -3
  6
Continuous
100
AcDbCircle
 10
-344.306666
 20
-0.374766
 30
0.0
 40
2.0
100
AcDbArc
 50
90.0
 51
180.0
  0
LINE
  5
48E
100
AcDbEntity
  8
0
370
    -3
  6
Continuous
100
AcDbLine
 10
-346.306666
 20
-15.374766
 30
0.0
 11
-346.306666
 21
-0.374766
 31
0.0
  0
ARC
  5
48F
100
AcDbEntity
  8
0
370
    -3
  6
Continuous
100
AcDbCircle
 10
-235.209197
 20
23.625234
 30
0.0
 40
7.8
100
AcDbArc
 50
0.0
 51
90.0
  0
ARC
  5
490
100
AcDbEntity
  8
0
370
    -3
  6
Continuous
100
AcDbCircle
 10
-235.209197
 20
-54.374766
 30
0.0
 40
7.8
100
AcDbArc
 50
270.0
 51
360.0
  0
LINE
  5
491
100
AcDbEntity
  8
0
370
    -3
  6
Continuous
100
AcDbLine
 10
-227.409197
 20
-15.374766
 30
0.0
 11
-227.409197
 21
-54.374766
 31
0.0
  0
LINE
  5
492
100
AcDbEntity
  8
0
370
    -3
  6
Continuous
100
AcDbLine
 10
-227.409197
 20
-15.374766
 30
0.0
 11
-227.409197
 21
23.625234
 31
0.0
  0
LINE
  5
493
100
AcDbEntity
  8
0
370
    -3
  6
Continuous
100
AcDbLine
 10
-302.86219
 20
23.175234
 30
0.0
 11
-247.366134
 21
23.175234
 31
0.0
  0
LINE
  5
494
100
AcDbEntity
  8
0
370
    -3
  6
Continuous
100
AcDbLine
 10
-232.787523
 20
24.125234
 30
0.0
 11
-234.695243
 21
22.125234
 31
0.0
  0
LINE
  5
495
100
AcDbEntity
  8
0
370
    -3
  6
Continuous
100
AcDbLine
 10
-231.070012
 20
26.125234
 30
0.0
 11
-232.787523
 21
24.125234
 31
0.0
  0
LINE
  5
496
100
AcDbEntity
  8
0
370
    -3
  6
Continuous
100
AcDbLine
 10
-232.787523
 20
24.125234
 30
0.0
 11
-231.070012
 21
22.125234
 31
0.0
  0
LINE
  5
497
100
AcDbEntity
  8
0
370
    -3
  6
Continuous
100
AcDbLine
 10
-234.695243
 20
26.125234
 30
0.0
 11
-232.787523
 21
24.125234
 31
0.0
  0
ELLIPSE
  5
498
100
AcDbEntity
  8
0
370
    -3
  6
Continuous
100
AcDbEllipse
 10
-233.618554
 20
24.125234
 30
0.0
 11
0.0
 21
3.5
 31
0.0
210
0.0
220
0.0
230
1.0
 40
0.982815
 41
0.0
 42
6.2831853071795862
  0
LINE
  5
499
100
AcDbEntity
  8
0
370
    -3
  6
Continuous
100
AcDbLine
 10
-244.880714
 20
-15.374766
 30
0.0
 11
-244.880714
 21
13.175234
 31
0.0
  0
ARC
  5
49A
100
AcDbEntity
  8
0
370
    -3
  6
Continuous
100
AcDbCircle
 10
-254.880714
 20
13.175234
 30
0.0
 40
10.0
100
AcDbArc
 50
0.0
 51
90.0
  0
LINE
  5
49B
100
AcDbEntity
  8
0
370
    -3
  6
Continuous
100
AcDbLine
 10
-234.427307
 20
-15.374766
 30
0.0
 11
-234.427307
 21
9.172225
 31
0.0
  0
ARC
  5
49C
100
AcDbEntity
  8
0
370
    -3
  6
Continuous
100
AcDbCircle
 10
-238.227307
 20
9.172225
 30
0.0
 40
3.8
100
AcDbArc
 50
0.0
 51
41.85078
  0
LINE
  5
49D
100
AcDbEntity
  8
0
370
    -3
  6
Continuous
100
AcDbLine
 10
-244.535571
 20
21.910567
 30
0.0
 11
-235.396744
 21
11.707558
 31
0.0
  0
ARC
  5
49E
100
AcDbEntity
  8
0
370
    -3
  6
Continuous
100
AcDbCircle
 10
-247.366134
 20
19.375234
 30
0.0
 40
3.8
100
AcDbArc
 50
41.85078
 51
90.0
  0
LINE
  5
49F
100
AcDbEntity
  8
0
370
    -3
  6
Continuous
100
AcDbLine
 10
-244.880714
 20
-15.374766
 30
0.0
 11
-244.880714
 21
-43.924766
 31
0.0
  0
LINE
  5
4A0
100
AcDbEntity
  8
0
370
    -3
  6
Continuous
100
AcDbLine
 10
-234.427307
 20
-15.374766
 30
0.0
 11
-234.427307
 21
-39.921757
 31
0.0
  0
LINE
  5
4A1
100
AcDbEntity
  8
0
370
    -3
  6
Continuous
100
AcDbLine
 10
-232.787523
 20
-54.874766
 30
0.0
 11
-234.695243
 21
-52.874766
 31
0.0
  0
LINE
  5
4A2
100
AcDbEntity
  8
0
370
    -3
  6
Continuous
100
AcDbLine
 10
-231.070012
 20
-56.874766
 30
0.0
 11
-232.787523
 21
-54.874766
 31
0.0
  0
LINE
  5
4A3
100
AcDbEntity
  8
0
370
    -3
  6
Continuous
100
AcDbLine
 10
-232.787523
 20
-54.874766
 30
0.0
 11
-231.070012
 21
-52.874766
 31
0.0
  0
LINE
  5
4A4
100
AcDbEntity
  8
0
370
    -3
  6
Continuous
100
AcDbLine
 10
-234.695243
 20
-56.874766
 30
0.0
 11
-232.787523
 21
-54.874766
 31
0.0
  0
ELLIPSE
  5
4A5
100
AcDbEntity
  8
0
370
    -3
  6
Continuous
100
AcDbEllipse
 10
-233.618554
 20
-54.874766
 30
0.0
 11
0.000000000000199
 21
3.5
 31
0.0
210
0.0
220
0.0
230
1.0
 40
0.982815
 41
0.0
 42
6.2831853071795862
  0
ARC
  5
4A6
100
AcDbEntity
  8
0
370
    -3
  6
Continuous
100
AcDbCircle
 10
-254.880714
 20
-43.924766
 30
0.0
 40
10.0
100
AcDbArc
 50
270.0
 51
360.0
  0
LINE
  5
4A7
100
AcDbEntity
  8
0
370
    -3
  6
Continuous
100
AcDbLine
 10
-302.86219
 20
-53.924766
 30
0.0
 11
-247.366134
 21
-53.924766
 31
0.0
  0
ARC
  5
4A8
100
AcDbEntity
  8
0
370
    -3
  6
Continuous
100
AcDbCircle
 10
-238.227307
 20
-39.921757
 30
0.0
 40
3.8
100
AcDbArc
 50
318.14922
 51
360.0
  0
LINE
  5
4A9
100
AcDbEntity
  8
0
370
    -3
  6
Continuous
100
AcDbLine
 10
-244.535571
 20
-52.660099
 30
0.0
 11
-235.396744
 21
-42.45709
 31
0.0
  0
ARC
  5
4AA
100
AcDbEntity
  8
0
370
    -3
  6
Continuous
100
AcDbCircle
 10
-247.366134
 20
-50.124766
 30
0.0
 40
3.8
100
AcDbArc
 50
270.0
 51
318.14922
  0
LINE
  5
4AB
100
AcDbEntity
  8
0
370
    -3
  6
Continuous
100
AcDbLine
 10
-315.638926
 20
-15.374766
 30
0.0
 11
-315.638926
 21
-39.939228
 31
0.0
  0
LINE
  5
4AC
100
AcDbEntity
  8
0
370
    -3
  6
Continuous
100
AcDbLine
 10
-315.261532
 20
-54.874766
 30
0.0
 11
-317.169252
 21
-52.874766
 31
0.0
  0
LINE
  5
4AD
100
AcDbEntity
  8
0
370
    -3
  6
Continuous
100
AcDbLine
 10
-313.544021
 20
-56.874766
 30
0.0
 11
-315.261532
 21
-54.874766
 31
0.0
  0
LINE
  5
4AE
100
AcDbEntity
  8
0
370
    -3
  6
Continuous
100
AcDbLine
 10
-315.261532
 20
-54.874766
 30
0.0
 11
-313.544021
 21
-52.874766
 31
0.0
  0
LINE
  5
4AF
100
AcDbEntity
  8
0
370
    -3
  6
Continuous
100
AcDbLine
 10
-317.169252
 20
-56.874766
 30
0.0
 11
-315.261532
 21
-54.874766
 31
0.0
  0
ELLIPSE
  5
4B0
100
AcDbEntity
  8
0
370
    -3
  6
Continuous
100
AcDbEllipse
 10
-316.092563
 20
-54.874766
 30
0.0
 11
0.0000000000002274
 21
3.5
 31
0.0
210
0.0
220
0.0
230
1.0
 40
0.982815
 41
0.0
 42
6.2831853071795862
  0
ARC
  5
4B1
100
AcDbEntity
  8
0
370
    -3
  6
Continuous
100
AcDbCircle
 10
-311.838926
 20
-39.939228
 30
0.0
 40
3.8
100
AcDbArc
 50
180.0
 51
221.390427
  0
LINE
  5
4B2
100
AcDbEntity
  8
0
370
    -3
  6
Continuous
100
AcDbLine
 10
-305.713032
 20
-52.637275
 30
0.0
 11
-314.689768
 21
-42.451737
 31
0.0
  0
ARC
  5
4B3
100
AcDbEntity
  8
0
370
    -3
  6
Continuous
100
AcDbCircle
 10
-302.86219
 20
-50.124766
 30
0.0
 40
3.8
100
AcDbArc
 50
221.390427
 51
270.0
  0
LINE
  5
4B4
100
AcDbEntity
  8
0
370
    -3
  6
CENTER
100
AcDbLine
 10
-272.306666
 20
41.920622
 30
0.0
 11
-272.306666
 21
-73.064878
 31
0.0
  0
ARC
  5
4B5
100
AcDbEntity
  8
0
370
    -3
  6
Continuous
100
AcDbCircle
 10
-294.706666
 20
170.406939
 30
0.0
 40
3.2
100
AcDbArc
 50
171.333191
 51
180.0
  0
LINE
  5
4B6
100
AcDbEntity
  8
0
370
    -3
  6
Continuous
100
AcDbLine
 10
-297.906666
 20
170.406939
 30
0.0
 11
-297.906666
 21
161.806939
 31
0.0
  0
LINE
  5
4B7
100
AcDbEntity
  8
0
370
    -3
  6
Continuous
100
AcDbLine
 10
-246.706666
 20
170.406939
 30
0.0
 11
-246.706666
 21
161.806939
 31
0.0
  0
ARC
  5
4B8
100
AcDbEntity
  8
0
370
    -3
  6
Continuous
100
AcDbCircle
 10
-249.906666
 20
170.406939
 30
0.0
 40
3.2
100
AcDbArc
 50
0.0
 51
90.0
  0
LINE
  5
4B9
100
AcDbEntity
  8
0
370
    -3
  6
Continuous
100
AcDbLine
 10
-282.306666
 20
173.606939
 30
0.0
 11
-248.306666
 21
173.606939
 31
0.0
  0
LINE
  5
4BA
100
AcDbEntity
  8
0
370
    -3
  6
Continuous
100
AcDbLine
 10
-248.306666
 20
174.606939
 30
0.0
 11
-248.306666
 21
173.606939
 31
0.0
  0
LINE
  5
4BB
100
AcDbEntity
  8
0
370
    -3
  6
Continuous
100
AcDbLine
 10
-272.306666
 20
158.606939
 30
0.0
 11
-241.306666
 21
158.606939
 31
0.0
  0
ARC
  5
4BC
100
AcDbEntity
  8
0
370
    -3
  6
Continuous
100
AcDbCircle
 10
-245.106666
 20
161.806939
 30
0.0
 40
1.6
100
AcDbArc
 50
180.0
 51
270.0
  0
LINE
  5
4BD
100
AcDbEntity
  8
0
370
    -3
  6
Continuous
100
AcDbLine
 10
-241.306666
 20
158.606939
 30
0.0
 11
-241.306666
 21
160.206939
 31
0.0
  0
LINE
  5
4BE
100
AcDbEntity
  8
0
370
    -3
  6
Continuous
100
AcDbLine
 10
-241.306666
 20
160.206939
 30
0.0
 11
-272.306666
 21
160.206939
 31
0.0
  0
LINE
  5
4BF
100
AcDbEntity
  8
0
370
    -3
  6
Continuous
100
AcDbLine
 10
-272.306666
 20
158.606939
 30
0.0
 11
-303.306666
 21
158.606939
 31
0.0
  0
LINE
  5
4C0
100
AcDbEntity
  8
0
370
    -3
  6
Continuous
100
AcDbLine
 10
-303.306666
 20
158.606939
 30
0.0
 11
-241.306666
 21
158.606939
 31
0.0
  0
ARC
  5
4C1
100
AcDbEntity
  8
0
370
    -3
  6
Continuous
100
AcDbCircle
 10
-299.506666
 20
161.806939
 30
0.0
 40
1.6
100
AcDbArc
 50
270.0
 51
0.0
  0
LINE
  5
4C2
100
AcDbEntity
  8
0
370
    -3
  6
Continuous
100
AcDbLine
 10
-303.306666
 20
158.606939
 30
0.0
 11
-303.306666
 21
160.206939
 31
0.0
  0
LINE
  5
4C3
100
AcDbEntity
  8
0
370
    -3
  6
Continuous
100
AcDbLine
 10
-303.306666
 20
160.206939
 30
0.0
 11
-272.306666
 21
160.206939
 31
0.0
  0
LINE
  5
4C4
100
AcDbEntity
  8
0
370
    -3
  6
CENTER
100
AcDbLine
 10
-272.306666
 20
169.384356
 30
0.0
 11
-272.306666
 21
146.47438
 31
0.0
  0
ARC
  5
4C5
100
AcDbEntity
  8
0
370
    -3
  6
Continuous
100
AcDbCircle
 10
-301.571577
 20
156.906939
 30
0.0
 40
0.3
100
AcDbArc
 50
270.0
 51
346.657636
  0
LINE
  5
4C6
100
AcDbEntity
  8
0
370
    -3
  6
Continuous
100
AcDbLine
 10
-303.306666
 20
158.606939
 30
0.0
 11
-303.306666
 21
157.606939
 31
0.0
  0
ARC
  5
4C7
100
AcDbEntity
  8
0
370
    -3
  6
Continuous
100
AcDbCircle
 10
-300.306666
 20
156.606939
 30
0.0
 40
1.0
100
AcDbArc
 50
90.0
 51
166.657636
  0
ARC
  5
4C8
100
AcDbEntity
  8
0
370
    -3
  6
Continuous
100
AcDbCircle
 10
-243.041755
 20
156.906939
 30
0.0
 40
0.3
100
AcDbArc
 50
193.342364
 51
270.0
  0
LINE
  5
4C9
100
AcDbEntity
  8
0
370
    -3
  6
Continuous
100
AcDbLine
 10
-241.306666
 20
158.606939
 30
0.0
 11
-241.306666
 21
157.606939
 31
0.0
  0
LINE
  5
4CA
100
AcDbEntity
  8
0
370
    -3
  6
Continuous
100
AcDbLine
 10
-303.306666
 20
157.606939
 30
0.0
 11
-241.306666
 21
157.606939
 31
0.0
  0
ARC
  5
4CB
100
AcDbEntity
  8
0
370
    -3
  6
Continuous
100
AcDbCircle
 10
-244.306666
 20
156.606939
 30
0.0
 40
1.0
100
AcDbArc
 50
13.342364
 51
90.0
  0
LINE
  5
4CC
100
AcDbEntity
  8
0
370
    -3
  6
Continuous
100
AcDbLine
 10
-310.506666
 20
156.606939
 30
0.0
 11
-240.868513
 21
156.606939
 31
0.0
  0
ARC
  5
4CD
100
AcDbEntity
  8
0
370
    -3
  6
Continuous
100
AcDbCircle
 10
-310.506666
 20
149.806939
 30
0.0
 40
6.8
100
AcDbArc
 50
90.0
 51
180.0
  0
ARC
  5
4CE
100
AcDbEntity
  8
0
370
    -3
  6
Continuous
100
AcDbCircle
 10
-240.868513
 20
152.806939
 30
0.0
 40
3.8
100
AcDbArc
 50
25.0
 51
90.0
  0
LINE
  5
4CF
100
AcDbEntity
  8
0
370
    -3
  6
Continuous
100
AcDbLine
 10
-324.190253
 20
107.175078
 30
0.0
 11
-325.880726
 21
110.800309
 31
0.0
  0
ARC
  5
4D0
100
AcDbEntity
  8
0
370
    -3
  6
Continuous
100
AcDbCircle
 10
-322.558899
 20
107.935791
 30
0.0
 40
1.8
100
AcDbArc
 50
205.0
 51
295.0
  0
LINE
  5
4D1
100
AcDbEntity
  8
0
370
    -3
  6
Continuous
100
AcDbLine
 10
-227.577843
 20
152.226185
 30
0.0
 11
-229.268316
 21
155.851416
 31
0.0
  0
ARC
  5
4D2
100
AcDbEntity
  8
0
370
    -3
  6
Continuous
100
AcDbCircle
 10
-229.209197
 20
151.465472
 30
0.0
 40
1.8
100
AcDbArc
 50
295.0
 51
25.0
  0
LINE
  5
4D3
100
AcDbEntity
  8
0
370
    -3
  6
CENTER
100
AcDbLine
 10
-235.144005
 20
149.995499
 30
0.0
 11
-232.274084
 21
143.840934
 31
0.0
  0
POINT
  5
4D4
100
AcDbEntity
  8
0
370
    -3
  6
Continuous
100
AcDbPoint
 10
-233.910041
 20
147.287352
 30
0.0
  0
LINE
  5
4D5
100
AcDbEntity
  8
0
370
    -3
  6
CENTER
100
AcDbLine
 10
-317.618014
 20
111.537237
 30
0.0
 11
-314.748093
 21
105.382672
 31
0.0
  0
ARC
  5
4D6
100
AcDbEntity
  8
0
370
    -3
  6
Continuous
100
AcDbCircle
 10
-252.796571
 20
119.323241
 30
0.0
 40
10.8
100
AcDbArc
 50
272.437505
 51
342.341575
  0
ARC
  5
4D7
100
AcDbEntity
  8
0
370
    -3
  6
Continuous
100
AcDbCircle
 10
-319.065096
 20
114.640516
 30
0.0
 40
9.0
100
AcDbArc
 50
278.398469
 51
311.601548
  0
POINT
  5
4D8
100
AcDbEntity
  8
0
370
    -3
  6
Continuous
100
AcDbPoint
 10
-316.36034
 20
108.840146
 30
0.0
  0
LINE
  5
4D9
100
AcDbEntity
  8
0
370
    -3
  6
Continuous
100
AcDbLine
 10
-313.188262
 20
110.31931
 30
0.0
 11
-312.774508
 21
109.432012
 31
0.0
  0
LINE
  5
4DA
100
AcDbEntity
  8
0
370
    -3
  6
Continuous
100
AcDbLine
 10
-319.532417
 20
107.360982
 30
0.0
 11
-319.118663
 21
106.473684
 31
0.0
  0
ARC
  5
4DB
100
AcDbEntity
  8
0
370
    -3
  6
Continuous
100
AcDbCircle
 10
-313.952708
 20
108.882609
 30
0.0
 40
1.299999
100
AcDbArc
 50
311.601548
 51
25.000018
  0
ARC
  5
4DC
100
AcDbEntity
  8
0
370
    -3
  6
Continuous
100
AcDbCircle
 10
-317.940463
 20
107.023088
 30
0.0
 40
1.299999
100
AcDbArc
 50
204.999999
 51
278.398469
  0
LINE
  5
4DD
100
AcDbEntity
  8
0
370
    -3
  6
Continuous
100
AcDbLine
 10
-230.714254
 20
148.777572
 30
0.0
 11
-230.3005
 21
147.890274
 31
0.0
  0
LINE
  5
4DE
100
AcDbEntity
  8
0
370
    -3
  6
CENTER
100
AcDbLine
 10
-235.144005
 20
149.995499
 30
0.0
 11
-232.274084
 21
143.840934
 31
0.0
  0
ARC
  5
4DF
100
AcDbEntity
  8
0
370
    -3
  6
Continuous
100
AcDbCircle
 10
-231.478699
 20
147.34087
 30
0.0
 40
1.299999
100
AcDbArc
 50
311.601548
 51
25.000018
  0
ARC
  5
4E0
100
AcDbEntity
  8
0
370
    -3
  6
Continuous
100
AcDbCircle
 10
-236.591088
 20
153.098778
 30
0.0
 40
9.0
100
AcDbArc
 50
278.398469
 51
311.601548
  0
LINE
  5
4E1
100
AcDbEntity
  8
0
370
    -3
  6
Continuous
100
AcDbLine
 10
-237.058408
 20
145.819244
 30
0.0
 11
-236.644654
 21
144.931946
 31
0.0
  0
ARC
  5
4E2
100
AcDbEntity
  8
0
370
    -3
  6
Continuous
100
AcDbCircle
 10
-235.466455
 20
145.481349
 30
0.0
 40
1.299999
100
AcDbArc
 50
204.999999
 51
278.398469
  0
LINE
  5
4E3
100
AcDbEntity
  8
0
370
    -3
  6
CENTER
100
AcDbLine
 10
-348.78529
 20
131.606939
 30
0.0
 11
-308.478803
 21
131.606939
 31
0.0
  0
LINE
  5
4E4
100
AcDbEntity
  8
0
370
    -3
  6
Continuous
100
AcDbLine
 10
-228.448484
 20
149.834118
 30
0.0
 11
-321.798186
 21
106.304437
 31
0.0
  0
ARC
  5
4E5
100
AcDbEntity
  8
0
370
    -3
  6
Continuous
100
AcDbCircle
 10
-241.385691
 20
140.491265
 30
0.0
 40
3.0
100
AcDbArc
 50
115.0
 51
205.0
  0
LINE
  5
4E6
100
AcDbEntity
  8
0
370
    -3
  6
Continuous
100
AcDbLine
 10
-239.369188
 20
129.068255
 30
0.0
 11
-244.104614
 21
139.223411
 31
0.0
  0
ARC
  5
4E7
100
AcDbEntity
  8
0
370
    -3
  6
Continuous
100
AcDbCircle
 10
-300.393654
 20
111.213021
 30
0.0
 40
2.8
100
AcDbArc
 50
205.0
 51
267.843273
  0
LINE
  5
4E8
100
AcDbEntity
  8
0
370
    -3
  6
Continuous
100
AcDbLine
 10
-303.606347
 20
111.477297
 30
0.0
 11
-302.931316
 21
110.02969
 31
0.0
  0
ARC
  5
4E9
100
AcDbEntity
  8
0
370
    -3
  6
Continuous
100
AcDbCircle
 10
-306.32527
 20
110.209442
 30
0.0
 40
3.0
100
AcDbArc
 50
25.0
 51
115.0
  0
ARC
  5
4EA
100
AcDbEntity
  8
0
370
    -3
  6
Continuous
100
AcDbCircle
 10
-241.90685
 20
127.884924
 30
0.0
 40
2.8
100
AcDbArc
 50
344.545811
 51
25.0
  0
ARC
  5
4EB
100
AcDbEntity
  8
0
370
    -3
  6
Continuous
100
AcDbCircle
 10
-277.889065
 20
708.789412
 30
0.0
 40
600.8
100
AcDbArc
 50
266.682408
 51
272.437505
  0
ARC
  5
4EC
100
AcDbEntity
  8
0
370
    -3
  6
Continuous
100
AcDbCircle
 10
-529.132306
 20
207.292336
 30
0.0
 40
300.8
100
AcDbArc
 50
342.341575
 51
347.89975
  0
ARC
  5
4ED
100
AcDbEntity
  8
0
370
    -3
  6
Continuous
100
AcDbCircle
 10
-254.99175
 20
152.806939
 30
0.0
 40
3.8
100
AcDbArc
 50
25.0
 51
90.0
  0
LINE
  5
4EE
100
AcDbEntity
  8
0
370
    -3
  6
Continuous
100
AcDbLine
 10
-248.119518
 20
147.060956
 30
0.0
 11
-251.547781
 21
154.412888
 31
0.0
  0
LINE
  5
4EF
100
AcDbEntity
  8
0
370
    -3
  6
Continuous
100
AcDbLine
 10
-229.268316
 20
155.851416
 30
0.0
 11
-317.717382
 21
114.606939
 31
0.0
  0
LINE
  5
4F0
100
AcDbEntity
  8
0
370
    -3
  6
Continuous
100
AcDbLine
 10
-317.717382
 20
114.606939
 30
0.0
 11
-325.880726
 21
110.800309
 31
0.0
  0
LINE
  5
4F1
100
AcDbEntity
  8
0
370
    -3
  6
Continuous
100
AcDbLine
 10
-317.306666
 20
114.798459
 30
0.0
 11
-317.306666
 21
149.806939
 31
0.0
  0
LINE
  5
4F2
100
AcDbEntity
  8
0
370
    -3
  6
Continuous
100
AcDbLine
 10
-236.518778
 20
152.47047
 30
0.0
 11
-237.424543
 21
154.412888
 31
0.0
  0
LINE
  5
4F3
100
AcDbEntity
  8
0
370
    -3
  6
Continuous
100
AcDbLine
 10
-305.630973
 20
120.242924
 30
0.0
 11
-305.630973
 21
153.606939
 31
0.0
  0
ARC
  5
4F4
100
AcDbEntity
  8
0
370
    -3
  6
Continuous
100
AcDbCircle
 10
-302.630973
 20
153.606939
 30
0.0
 40
3.0
100
AcDbArc
 50
90.0
 51
180.0
  0
LINE
  5
4F5
100
AcDbEntity
  8
0
370
    -3
  6
Continuous
100
AcDbLine
 10
-319.306666
 20
131.606939
 30
0.0
 11
-319.306666
 21
114.606939
 31
0.0
  0
LINE
  5
4F6
100
AcDbEntity
  8
0
370
    -3
  6
Continuous
100
AcDbLine
 10
-319.306666
 20
131.606939
 30
0.0
 11
-319.306666
 21
148.606939
 31
0.0
  0
LINE
  5
4F7
100
AcDbEntity
  8
0
370
    -3
  6
Continuous
100
AcDbLine
 10
-346.306666
 20
131.606939
 30
0.0
 11
-346.306666
 21
146.606939
 31
0.0
  0
ARC
  5
4F8
100
AcDbEntity
  8
0
370
    -3
  6
Continuous
100
AcDbCircle
 10
-344.306666
 20
146.606939
 30
0.0
 40
2.0
100
AcDbArc
 50
90.0
 51
180.0
  0
LINE
  5
4F9
100
AcDbEntity
  8
0
370
    -3
  6
Continuous
100
AcDbLine
 10
-346.306666
 20
131.606939
 30
0.0
 11
-346.306666
 21
116.606939
 31
0.0
  0
ARC
  5
4FA
100
AcDbEntity
  8
0
370
    -3
  6
Continuous
100
AcDbCircle
 10
-344.306666
 20
116.606939
 30
0.0
 40
2.0
100
AcDbArc
 50
180.0
 51
270.0
  0
LINE
  5
4FB
100
AcDbEntity
  8
0
370
    -3
  6
Continuous
100
AcDbLine
 10
-344.306666
 20
114.606939
 30
0.0
 11
-317.717382
 21
114.606939
 31
0.0
  0
LINE
  5
4FC
100
AcDbEntity
  8
0
370
    -3
  6
Continuous
100
AcDbLine
 10
-344.306666
 20
148.606939
 30
0.0
 11
-317.306666
 21
148.606939
 31
0.0
  0
POINT
  5
4FD
100
AcDbEntity
  8
0
370
    -3
  6
CENTER
100
AcDbPoint
 10
-346.306666
 20
144.827439
 30
0.0
  0
POINT
  5
4FE
100
AcDbEntity
  8
0
370
    -3
  6
CENTER
100
AcDbPoint
 10
-346.306666
 20
118.386439
 30
0.0
  0
LINE
  5
4FF
100
AcDbEntity
  8
0
370
    -3
  6
Continuous
100
AcDbLine
 10
-448.709635
 20
-46.374766
 30
0.0
 11
-450.309635
 21
-46.374766
 31
0.0
  0
ARC
  5
500
100
AcDbEntity
  8
0
370
    -3
  6
Continuous
100
AcDbCircle
 10
-452.309635
 20
-41.974766
 30
0.0
 40
2.0
100
AcDbArc
 50
0.0
 51
90.0
  0
LINE
  5
501
100
AcDbEntity
  8
0
370
    -3
  6
Continuous
100
AcDbLine
 10
-450.309635
 20
-46.374766
 30
0.0
 11
-450.309635
 21
-41.974766
 31
0.0
  0
LINE
  5
502
100
AcDbEntity
  8
0
370
    -3
  6
Continuous
100
AcDbLine
 10
-452.309635
 20
-39.974766
 30
0.0
 11
-460.509635
 21
-39.974766
 31
0.0
  0
ARC
  5
503
100
AcDbEntity
  8
0
370
    -3
  6
Continuous
100
AcDbCircle
 10
-460.509635
 20
-36.774766
 30
0.0
 40
3.2
100
AcDbArc
 50
260.167578
 51
270.0
  0
ARC
  5
504
100
AcDbEntity
  8
0
370
    -3
  6
Continuous
100
AcDbCircle
 10
-460.509635
 20
6.025234
 30
0.0
 40
3.2
100
AcDbArc
 50
90.0
 51
99.832422
  0
LINE
  5
505
100
AcDbEntity
  8
0
370
    -3
  6
Continuous
100
AcDbLine
 10
-448.709635
 20
-15.374766
 30
0.0
 11
-448.709635
 21
15.625234
 31
0.0
  0
LINE
  5
506
100
AcDbEntity
  8
0
370
    -3
  6
Continuous
100
AcDbLine
 10
-448.709635
 20
15.625234
 30
0.0
 11
-450.309635
 21
15.625234
 31
0.0
  0
LINE
  5
507
100
AcDbEntity
  8
0
370
    -3
  6
Continuous
100
AcDbLine
 10
-452.309635
 20
9.225234
 30
0.0
 11
-460.509635
 21
9.225234
 31
0.0
  0
ARC
  5
508
100
AcDbEntity
  8
0
370
    -3
  6
Continuous
100
AcDbCircle
 10
-452.309635
 20
11.225234
 30
0.0
 40
2.0
100
AcDbArc
 50
270.0
 51
0.0
  0
LINE
  5
509
100
AcDbEntity
  8
0
370
    -3
  6
Continuous
100
AcDbLine
 10
-450.309635
 20
15.625234
 30
0.0
 11
-450.309635
 21
11.225234
 31
0.0
  0
ARC
  5
50A
100
AcDbEntity
  8
0
370
    -3
  6
Continuous
100
AcDbCircle
 10
-421.709635
 20
-15.374766
 30
0.0
 40
17.0
100
AcDbArc
 50
360.0
 51
180.0
  0
ARC
  5
50B
100
AcDbEntity
  8
0
370
    -3
  6
Continuous
100
AcDbCircle
 10
-421.709635
 20
-15.374766
 30
0.0
 40
12.0585
100
AcDbArc
 50
360.0
 51
180.0
  0
ARC
  5
50C
100
AcDbEntity
  8
0
370
    -3
  6
Continuous
100
AcDbCircle
 10
-421.709635
 20
-15.374766
 30
0.0
 40
13.2205
100
AcDbArc
 50
360.0
 51
180.0
  0
ARC
  5
50D
100
AcDbEntity
  8
0
370
    -3
  6
Continuous
100
AcDbCircle
 10
-438.154112
 20
-54.374766
 30
0.0
 40
7.8
100
AcDbArc
 50
180.0
 51
270.0
  0
LINE
  5
50E
100
AcDbEntity
  8
0
370
    -3
  6
Continuous
100
AcDbLine
 10
-408.2411
 20
-61.374766
 30
0.0
 11
-438.616017
 21
-61.374766
 31
0.0
  0
ARC
  5
50F
100
AcDbEntity
  8
0
370
    -3
  6
Continuous
100
AcDbCircle
 10
-408.2411
 20
-54.374766
 30
0.0
 40
7.0
100
AcDbArc
 50
270.0
 51
0.0
  0
ARC
  5
510
100
AcDbEntity
  8
0
370
    -3
  6
Continuous
100
AcDbCircle
 10
-408.703005
 20
-54.374766
 30
0.0
 40
7.8
100
AcDbArc
 50
270.0
 51
0.0
  0
ARC
  5
511
100
AcDbEntity
  8
0
370
    -3
  6
Continuous
100
AcDbCircle
 10
-404.038487
 20
-54.374766
 30
0.0
 40
7.8
100
AcDbArc
 50
270.0
 51
0.0
  0
ELLIPSE
  5
512
100
AcDbEntity
  8
0
370
    -3
  6
Continuous
100
AcDbEllipse
 10
-398.123895
 20
-54.874766
 30
0.0
 11
0.0
 21
3.5
 31
0.0
210
0.0
220
0.0
230
1.0
 40
0.656603
 41
3.5746436290433174
 42
5.3210459426689347
  0
LINE
  5
513
100
AcDbEntity
  8
0
370
    -3
  6
Continuous
100
AcDbLine
 10
-404.038487
 20
-62.174766
 30
0.0
 11
-438.154112
 21
-62.174766
 31
0.0
  0
LINE
  5
514
100
AcDbEntity
  8
0
370
    -3
  6
Continuous
100
AcDbLine
 10
-401.2411
 20
-15.374766
 30
0.0
 11
-401.2411
 21
-54.374766
 31
0.0
  0
LINE
  5
515
100
AcDbEntity
  8
0
370
    -3
  6
Continuous
100
AcDbLine
 10
-396.238487
 20
-54.374766
 30
0.0
 11
-396.238487
 21
-15.374766
 31
0.0
  0
LINE
  5
516
100
AcDbEntity
  8
0
370
    -3
  6
Continuous
100
AcDbLine
 10
-448.709635
 20
-15.374766
 30
0.0
 11
-448.709635
 21
-46.374766
 31
0.0
  0
LINE
  5
517
100
AcDbEntity
  8
0
370
    -3
  6
Continuous
100
AcDbLine
 10
-447.709635
 20
-46.374766
 30
0.0
 11
-447.709635
 21
-15.374766
 31
0.0
  0
LINE
  5
518
100
AcDbEntity
  8
0
370
    -3
  6
Continuous
100
AcDbLine
 10
-448.709635
 20
-46.374766
 30
0.0
 11
-447.709635
 21
-46.374766
 31
0.0
  0
ARC
  5
519
100
AcDbEntity
  8
0
370
    -3
  6
Continuous
100
AcDbCircle
 10
-438.616017
 20
-54.374766
 30
0.0
 40
7.0
100
AcDbArc
 50
180.0
 51
270.0
  0
LINE
  5
51A
100
AcDbEntity
  8
0
370
    -3
  6
Continuous
100
AcDbLine
 10
-447.709635
 20
-15.374766
 30
0.0
 11
-447.709635
 21
-43.374766
 31
0.0
  0
LINE
  5
51B
100
AcDbEntity
  8
0
370
    -3
  6
Continuous
100
AcDbLine
 10
-402.473723
 20
-15.374766
 30
0.0
 11
-402.473723
 21
-41.433799
 31
0.0
  0
LINE
  5
51C
100
AcDbEntity
  8
0
370
    -3
  6
Continuous
100
AcDbLine
 10
-439.909635
 20
-54.674766
 30
0.0
 11
-410.276777
 21
-54.674766
 31
0.0
  0
LINE
  5
51D
100
AcDbEntity
  8
0
370
    -3
  6
Continuous
100
AcDbLine
 10
-402.775219
 20
-42.917196
 30
0.0
 11
-406.778272
 21
-52.358163
 31
0.0
  0
ARC
  5
51E
100
AcDbEntity
  8
0
370
    -3
  6
Continuous
100
AcDbCircle
 10
-406.273723
 20
-41.433799
 30
0.0
 40
3.8
100
AcDbArc
 50
337.022625
 51
0.0
  0
ARC
  5
51F
100
AcDbEntity
  8
0
370
    -3
  6
Continuous
100
AcDbCircle
 10
-410.276777
 20
-50.874766
 30
0.0
 40
3.8
100
AcDbArc
 50
270.0
 51
337.022625
  0
LINE
  5
520
100
AcDbEntity
  8
0
370
    -3
  6
Continuous
100
AcDbLine
 10
-446.709635
 20
-15.374766
 30
0.0
 11
-446.709635
 21
-47.874766
 31
0.0
  0
ARC
  5
521
100
AcDbEntity
  8
0
370
    -3
  6
Continuous
100
AcDbCircle
 10
-439.909635
 20
-47.874766
 30
0.0
 40
6.8
100
AcDbArc
 50
180.0
 51
270.0
  0
LINE
  5
522
100
AcDbEntity
  8
0
370
    -3
  6
Continuous
100
AcDbLine
 10
-443.199522
 20
-53.825955
 30
0.0
 11
-443.199522
 21
-54.874766
 31
0.0
  0
ARC
  5
523
100
AcDbEntity
  8
0
370
    -3
  6
Continuous
100
AcDbCircle
 10
-437.199522
 20
-54.874766
 30
0.0
 40
6.0
100
AcDbArc
 50
180.0
 51
270.0
  0
ARC
  5
524
100
AcDbEntity
  8
0
370
    -3
  6
Continuous
100
AcDbCircle
 10
-447.009635
 20
-44.639677
 30
0.0
 40
0.3
100
AcDbArc
 50
0.0
 51
76.657636
  0
ARC
  5
525
100
AcDbEntity
  8
0
370
    -3
  6
Continuous
100
AcDbCircle
 10
-446.709635
 20
-43.374766
 30
0.0
 40
1.0
100
AcDbArc
 50
180.0
 51
256.657636
  0
LINE
  5
526
100
AcDbEntity
  8
0
370
    -3
  6
CENTER
100
AcDbLine
 10
-404.598371
 20
-54.874766
 30
0.0
 11
-400.153613
 21
-54.874766
 31
0.0
  0
LINE
  5
527
100
AcDbEntity
  8
0
370
    -3
  6
CENTER
100
AcDbLine
 10
-402.20555
 20
-57.739625
 30
0.0
 11
-402.20555
 21
-52.128235
 31
0.0
  0
ELLIPSE
  5
528
100
AcDbEntity
  8
0
370
    -3
  6
Continuous
100
AcDbEllipse
 10
-402.20555
 20
-54.874766
 30
0.0
 11
0.0
 21
1.6500000000000057
 31
0.0
210
0.0
220
0.0
230
1.0
 40
0.422618
 41
0.0
 42
6.2831853071795862
  0
ELLIPSE
  5
529
100
AcDbEntity
  8
0
370
    -3
  6
Continuous
100
AcDbEllipse
 10
-402.20555
 20
-54.874766
 30
0.0
 11
0.0
 21
2.0
 31
0.0
210
0.0
220
0.0
230
1.0
 40
0.422618
 41
0.0
 42
6.2831853071795862
  0
LINE
  5
52A
100
AcDbEntity
  8
0
370
    -3
  6
Continuous
100
AcDbLine
 10
-445.616017
 20
-51.573036
 30
0.0
 11
-445.616017
 21
-54.374766
 31
0.0
  0
LINE
  5
52B
100
AcDbEntity
  8
0
370
    -3
  6
Continuous
100
AcDbLine
 10
-445.954112
 20
-54.374766
 30
0.0
 11
-445.954112
 21
-50.989939
 31
0.0
  0
LINE
  5
52C
100
AcDbEntity
  8
0
370
    -3
  6
Continuous
100
AcDbLine
 10
-437.199522
 20
-60.874766
 30
0.0
 11
-405.643023
 21
-60.874766
 31
0.0
  0
LINE
  5
52D
100
AcDbEntity
  8
0
370
    -3
  6
Continuous
100
AcDbLine
 10
-400.903005
 20
-15.374766
 30
0.0
 11
-400.903005
 21
-54.374766
 31
0.0
  0
LINE
  5
52E
100
AcDbEntity
  8
0
370
    -3
  6
CENTER
100
AcDbLine
 10
-421.709635
 20
3.270166
 30
0.0
 11
-421.709635
 21
-36.675223
 31
0.0
  0
ARC
  5
52F
100
AcDbEntity
  8
0
370
    -3
  6
Continuous
100
AcDbCircle
 10
-438.154112
 20
23.625234
 30
0.0
 40
7.8
100
AcDbArc
 50
90.0
 51
180.0
  0
LINE
  5
530
100
AcDbEntity
  8
0
370
    -3
  6
Continuous
100
AcDbLine
 10
-408.2411
 20
30.625234
 30
0.0
 11
-438.616017
 21
30.625234
 31
0.0
  0
ARC
  5
531
100
AcDbEntity
  8
0
370
    -3
  6
Continuous
100
AcDbCircle
 10
-408.2411
 20
23.625234
 30
0.0
 40
7.0
100
AcDbArc
 50
0.0
 51
90.0
  0
ARC
  5
532
100
AcDbEntity
  8
0
370
    -3
  6
Continuous
100
AcDbCircle
 10
-408.703005
 20
23.625234
 30
0.0
 40
7.8
100
AcDbArc
 50
0.0
 51
90.0
  0
ARC
  5
533
100
AcDbEntity
  8
0
370
    -3
  6
Continuous
100
AcDbCircle
 10
-404.038487
 20
23.625234
 30
0.0
 40
7.8
100
AcDbArc
 50
0.0
 51
90.0
  0
ELLIPSE
  5
534
100
AcDbEntity
  8
0
370
    -3
  6
Continuous
100
AcDbEllipse
 10
-398.123895
 20
24.125234
 30
0.0
 11
0.0
 21
3.5
 31
0.0
210
0.0
220
0.0
230
1.0
 40
0.656603
 41
4.1037320181003913
 42
5.8501343317260348
  0
LINE
  5
535
100
AcDbEntity
  8
0
370
    -3
  6
Continuous
100
AcDbLine
 10
-404.038487
 20
31.425234
 30
0.0
 11
-438.154112
 21
31.425234
 31
0.0
  0
LINE
  5
536
100
AcDbEntity
  8
0
370
    -3
  6
Continuous
100
AcDbLine
 10
-401.2411
 20
-15.374766
 30
0.0
 11
-401.2411
 21
23.625234
 31
0.0
  0
LINE
  5
537
100
AcDbEntity
  8
0
370
    -3
  6
Continuous
100
AcDbLine
 10
-396.238487
 20
23.625234
 30
0.0
 11
-396.238487
 21
-15.374766
 31
0.0
  0
LINE
  5
538
100
AcDbEntity
  8
0
370
    -3
  6
Continuous
100
AcDbLine
 10
-448.709635
 20
-15.374766
 30
0.0
 11
-448.709635
 21
15.625234
 31
0.0
  0
LINE
  5
539
100
AcDbEntity
  8
0
370
    -3
  6
Continuous
100
AcDbLine
 10
-447.709635
 20
15.625234
 30
0.0
 11
-447.709635
 21
-15.374766
 31
0.0
  0
LINE
  5
53A
100
AcDbEntity
  8
0
370
    -3
  6
Continuous
100
AcDbLine
 10
-448.709635
 20
15.625234
 30
0.0
 11
-447.709635
 21
15.625234
 31
0.0
  0
ARC
  5
53B
100
AcDbEntity
  8
0
370
    -3
  6
Continuous
100
AcDbCircle
 10
-438.616017
 20
23.625234
 30
0.0
 40
7.0
100
AcDbArc
 50
90.0
 51
180.0
  0
LINE
  5
53C
100
AcDbEntity
  8
0
370
    -3
  6
Continuous
100
AcDbLine
 10
-447.709635
 20
-15.374766
 30
0.0
 11
-447.709635
 21
12.625234
 31
0.0
  0
LINE
  5
53D
100
AcDbEntity
  8
0
370
    -3
  6
Continuous
100
AcDbLine
 10
-402.473723
 20
-15.374766
 30
0.0
 11
-402.473723
 21
10.684267
 31
0.0
  0
LINE
  5
53E
100
AcDbEntity
  8
0
370
    -3
  6
Continuous
100
AcDbLine
 10
-439.909635
 20
23.925234
 30
0.0
 11
-410.276777
 21
23.925234
 31
0.0
  0
LINE
  5
53F
100
AcDbEntity
  8
0
370
    -3
  6
Continuous
100
AcDbLine
 10
-402.775219
 20
12.167664
 30
0.0
 11
-406.778272
 21
21.608631
 31
0.0
  0
ARC
  5
540
100
AcDbEntity
  8
0
370
    -3
  6
Continuous
100
AcDbCircle
 10
-406.273723
 20
10.684267
 30
0.0
 40
3.8
100
AcDbArc
 50
360.0
 51
22.977375
  0
ARC
  5
541
100
AcDbEntity
  8
0
370
    -3
  6
Continuous
100
AcDbCircle
 10
-410.276777
 20
20.125234
 30
0.0
 40
3.8
100
AcDbArc
 50
22.977375
 51
90.0
  0
LINE
  5
542
100
AcDbEntity
  8
0
370
    -3
  6
Continuous
100
AcDbLine
 10
-446.709635
 20
-15.374766
 30
0.0
 11
-446.709635
 21
17.125234
 31
0.0
  0
ARC
  5
543
100
AcDbEntity
  8
0
370
    -3
  6
Continuous
100
AcDbCircle
 10
-439.909635
 20
17.125234
 30
0.0
 40
6.8
100
AcDbArc
 50
90.0
 51
180.0
  0
LINE
  5
544
100
AcDbEntity
  8
0
370
    -3
  6
Continuous
100
AcDbLine
 10
-443.199522
 20
23.076423
 30
0.0
 11
-443.199522
 21
24.125234
 31
0.0
  0
ARC
  5
545
100
AcDbEntity
  8
0
370
    -3
  6
Continuous
100
AcDbCircle
 10
-437.199522
 20
24.125234
 30
0.0
 40
6.0
100
AcDbArc
 50
90.0
 51
180.0
  0
ARC
  5
546
100
AcDbEntity
  8
0
370
    -3
  6
Continuous
100
AcDbCircle
 10
-447.009635
 20
13.890145
 30
0.0
 40
0.3
100
AcDbArc
 50
283.342364
 51
0.0
  0
ARC
  5
547
100
AcDbEntity
  8
0
370
    -3
  6
Continuous
100
AcDbCircle
 10
-446.709635
 20
12.625234
 30
0.0
 40
1.0
100
AcDbArc
 50
103.342364
 51
180.0
  0
LINE
  5
548
100
AcDbEntity
  8
0
370
    -3
  6
CENTER
100
AcDbLine
 10
-404.598371
 20
24.125234
 30
0.0
 11
-400.153613
 21
24.125234
 31
0.0
  0
LINE
  5
549
100
AcDbEntity
  8
0
370
    -3
  6
CENTER
100
AcDbLine
 10
-402.20555
 20
26.990093
 30
0.0
 11
-402.20555
 21
21.378703
 31
0.0
  0
ELLIPSE
  5
54A
100
AcDbEntity
  8
0
370
    -3
  6
Continuous
100
AcDbEllipse
 10
-402.20555
 20
24.125234
 30
0.0
 11
0.0
 21
1.6500000000000057
 31
0.0
210
0.0
220
0.0
230
1.0
 40
0.422618
 41
0.0
 42
6.2831853071795862
  0
ELLIPSE
  5
54B
100
AcDbEntity
  8
0
370
    -3
  6
Continuous
100
AcDbEllipse
 10
-402.20555
 20
24.125234
 30
0.0
 11
0.0
 21
2.0
 31
0.0
210
0.0
220
0.0
230
1.0
 40
0.422618
 41
0.0
 42
6.2831853071795862
  0
LINE
  5
54C
100
AcDbEntity
  8
0
370
    -3
  6
Continuous
100
AcDbLine
 10
-445.616017
 20
20.823504
 30
0.0
 11
-445.616017
 21
23.625234
 31
0.0
  0
LINE
  5
54D
100
AcDbEntity
  8
0
370
    -3
  6
Continuous
100
AcDbLine
 10
-445.954112
 20
23.625234
 30
0.0
 11
-445.954112
 21
20.240407
 31
0.0
  0
LINE
  5
54E
100
AcDbEntity
  8
0
370
    -3
  6
Continuous
100
AcDbLine
 10
-437.199522
 20
30.125234
 30
0.0
 11
-405.643023
 21
30.125234
 31
0.0
  0
LINE
  5
54F
100
AcDbEntity
  8
0
370
    -3
  6
Continuous
100
AcDbLine
 10
-400.903005
 20
-15.374766
 30
0.0
 11
-400.903005
 21
23.625234
 31
0.0
  0
LINE
  5
550
100
AcDbEntity
  8
0
370
    -3
  6
CENTER
100
AcDbLine
 10
-392.610449
 20
-15.374766
 30
0.0
 11
-454.394788
 21
-15.374766
 31
0.0
  0
ARC
  5
551
100
AcDbEntity
  8
0
370
    -3
  6
Continuous
100
AcDbCircle
 10
-421.709635
 20
-15.374766
 30
0.0
 40
17.0
100
AcDbArc
 50
180.0
 51
0.0
  0
ARC
  5
552
100
AcDbEntity
  8
0
370
    -3
  6
Continuous
100
AcDbCircle
 10
-421.709635
 20
-15.374766
 30
0.0
 40
12.0585
100
AcDbArc
 50
180.0
 51
0.0
  0
ARC
  5
553
100
AcDbEntity
  8
0
370
    -3
  6
Continuous
100
AcDbCircle
 10
-421.709635
 20
-15.374766
 30
0.0
 40
13.2205
100
AcDbArc
 50
180.0
 51
0.0
  0
LINE
  5
554
100
AcDbEntity
  8
0
370
    -3
  6
Continuous
100
AcDbLine
 10
-439.909635
 20
-42.206137
 30
0.0
 11
-402.553039
 21
-42.206137
 31
0.0
  0
ARC
  5
555
100
AcDbEntity
  8
0
370
    -3
  6
Continuous
100
AcDbCircle
 10
-439.909635
 20
-35.406137
 30
0.0
 40
6.8
100
AcDbArc
 50
180.0
 51
270.0
  0
ARC
  5
556
100
AcDbEntity
  8
0
370
    -3
  6
Continuous
100
AcDbCircle
 10
-439.909635
 20
4.656605
 30
0.0
 40
6.8
100
AcDbArc
 50
90.0
 51
180.0
  0
LINE
  5
557
100
AcDbEntity
  8
0
370
    -3
  6
Continuous
100
AcDbLine
 10
-439.909635
 20
11.456605
 30
0.0
 11
-402.553039
 21
11.456605
 31
0.0
  0
MTEXT
  5
558
100
AcDbEntity
  8
0
370
    -3
  6
Continuous
100
AcDbMText
 10
-600.724609
 20
194.410858
 30
0.0
 40
15.0
 41
0.0
 71
     7
 72
     1
  1
\W0.43;DATE\W0.72; \W0.43;2011.12.26
  7
ZU_SHPTB00001
 11
1.0
 21
0.0
 31
0.0
 73
     1
 44
1.0
  0
ENDSEC
  0
SECTION
  2
OBJECTS
  0
DICTIONARY
  5
19
100
AcDbDictionary
280
     0
281
     1
  3
ACAD_GROUP
350
1A
  3
ACAD_MLINESTYLE
350
1B
  3
ACAD_LAYOUT
350
1E
  3
ACAD_PLOTSETTINGS
350
22
  3
ACAD_PLOTSTYLENAME
350
1F
  3
ACAD_WIPEOUT_VARS
350
23
  3
DWGPROPS
350
559
  0
DICTIONARY
  5
1A
102
{ACAD_REACTORS
330
19
102
}
100
AcDbDictionary
280
     0
281
     1
  0
DICTIONARY
  5
1B
102
{ACAD_REACTORS
330
19
102
}
100
AcDbDictionary
280
     0
281
     1
  3
Standard
350
1C
  0
MLINESTYLE
  5
1C
102
{ACAD_REACTORS
330
1B
102
}
100
AcDbMlineStyle
  2
Standard
 70
     0
  3

 62
     0
 51
90.0
 52
90.0
 71
     2
 49
0.5
 62
   256
  6
ByLayer
 49
-0.5
 62
   256
  6
ByLayer
  0
ACDBDICTIONARYWDFLT
  5
1F
102
{ACAD_REACTORS
330
19
102
}
100
AcDbDictionary
281
     1
  3
Normal
350
1D
100
AcDbDictionaryWithDefault
340
1D
  0
ACDBPLACEHOLDER
  5
1D
102
{ACAD_REACTORS
330
1F
102
}
  0
LAYOUT
  5
20
102
{ACAD_REACTORS
330
1E
102
}
100
AcDbPlotSettings
  1

  2

  4

  6

 40
0.0
 41
0.0
 42
0.0
 43
0.0
 44
0.0
 45
0.0
 46
0.0
 47
0.0
 48
0.0
 49
0.0
140
0.0
141
0.0
142
1.0
143
1.0
 70
  1024
 72
     0
 73
     0
 74
     0
  7

 75
     0
147
1.0
148
0.0
149
0.0
100
AcDbLayout
  1
Model
 70
     0
 71
     0
 10
0.0
 20
0.0
 11
0.0
 21
0.0
 12
0.0
 22
0.0
 32
0.0
 14
0.0
 24
0.0
 34
0.0
 15
0.0
 25
0.0
 35
0.0
146
0.0
 13
0.0
 23
0.0
 33
0.0
 16
0.0
 26
0.0
 36
0.0
 17
0.0
 27
0.0
 37
0.0
 76
     0
330
A
331
0
345
0
346
0
  0
LAYOUT
  5
21
102
{ACAD_REACTORS
330
1E
102
}
100
AcDbPlotSettings
  1

  2

  4

  6

 40
0.0
 41
0.0
 42
0.0
 43
0.0
 44
0.0
 45
0.0
 46
0.0
 47
0.0
 48
0.0
 49
0.0
140
0.0
141
0.0
142
1.0
143
1.0
 70
     0
 72
     0
 73
     0
 74
     0
  7

 75
     0
147
1.0
148
0.0
149
0.0
100
AcDbLayout
  1
Layout1
 70
     0
 71
     0
 10
0.0
 20
0.0
 11
0.0
 21
0.0
 12
0.0
 22
0.0
 32
0.0
 14
0.0
 24
0.0
 34
0.0
 15
0.0
 25
0.0
 35
0.0
146
0.0
 13
0.0
 23
0.0
 33
0.0
 16
0.0
 26
0.0
 36
0.0
 17
0.0
 27
0.0
 37
0.0
 76
     0
330
B
331
0
345
0
346
0
  0
DICTIONARY
  5
1E
102
{ACAD_REACTORS
330
19
102
}
100
AcDbDictionary
280
     0
281
     1
  3
Layout1
350
21
  3
Model
350
20
  0
DICTIONARY
  5
22
102
{ACAD_REACTORS
330
19
102
}
100
AcDbDictionary
280
     0
281
     1
  0
WIPEOUTVARIABLES
  5
23
100
AcDbWipeoutVariables
 70
     1
  0
XRECORD
  5
559
100
AcDbXrecord
280
     1
  1
DWGPROPS COOKIE
  2

  3

  4

  6

  7

  8
HK96464
  9

300
=
301
=
302
=
303
=
304
=
305
=
306
=
307
=
308
=
309
=
 40
0.0
 41
2455931.628021
 42
2455931.628021
  1

 90
        0
  0
ENDSEC
  0
EOF
