  0
SECTION
  2
HEADER
  9
$ACADVER
  1
AC1015
  9
$ACADMAINTVER
 70
     6
  9
$DWGCODEPAGE
  3
ANSI_932
  9
$INSBASE
 10
0.0
 20
0.0
 30
0.0
  9
$EXTMIN
 10
1.000000E+20
 20
1.000000E+20
 30
1.000000E+20
  9
$EXTMAX
 10
-1.000000E+20
 20
-1.000000E+20
 30
-1.000000E+20
  9
$LIMMIN
 10
0.0
 20
0.0
  9
$LIMMAX
 10
0.0
 20
0.0
  9
$ORTHOMODE
 70
     0
  9
$REGENMODE
 70
     1
  9
$FILLMODE
 70
     1
  9
$QTEXTMODE
 70
     0
  9
$MIRRTEXT
 70
     1
  9
$LTSCALE
 40
1.0
  9
$ATTMODE
 70
     1
  9
$TEXTSIZE
 40
7.0
  9
$TRACEWID
 40
0.05
  9
$TEXTSTYLE
  7
Standard
  9
$CLAYER
  8
0
  9
$CELTYPE
  6
Continuous
  9
$CECOLOR
 62
   256
  9
$CELTSCALE
 40
1.0
  9
$DISPSILH
 70
     0
  9
$DIMSCALE
 40
1.0
  9
$DIMASZ
 40
1.931852
  9
$DIMEXO
 40
1.0
  9
$DIMDLI
 40
0.38
  9
$DIMRND
 40
0.0
  9
$DIMDLE
 40
0.0
  9
$DIMEXE
 40
2.0
  9
$DIMTP
 40
0.0
  9
$DIMTM
 40
0.0
  9
$DIMTXT
 40
10.0
  9
$DIMCEN
 40
0.09
  9
$DIMTSZ
 40
0.0
  9
$DIMTOL
 70
     0
  9
$DIMLIM
 70
     0
  9
$DIMTIH
 70
     1
  9
$DIMTOH
 70
     1
  9
$DIMSE1
 70
     0
  9
$DIMSE2
 70
     0
  9
$DIMTAD
 70
     1
  9
$DIMZIN
 70
     0
  9
$DIMBLK
  1

  9
$DIMASO
 70
     1
  9
$DIMSHO
 70
     1
  9
$DIMPOST
  1

  9
$DIMAPOST
  1

  9
$DIMALT
 70
     0
  9
$DIMALTD
 70
     2
  9
$DIMALTF
 40
25.4
  9
$DIMLFAC
 40
1.0
  9
$DIMTOFL
 70
     0
  9
$DIMTVP
 40
0.0
  9
$DIMTIX
 70
     0
  9
$DIMSOXD
 70
     0
  9
$DIMSAH
 70
     0
  9
$DIMBLK1
  1

  9
$DIMBLK2
  1

  9
$DIMSTYLE
  2
Standard
  9
$DIMCLRD
 70
     0
  9
$DIMCLRE
 70
     0
  9
$DIMCLRT
 70
     0
  9
$DIMTFAC
 40
0.714286
  9
$DIMGAP
 40
0.09
  9
$DIMJUST
 70
     0
  9
$DIMSD1
 70
     0
  9
$DIMSD2
 70
     0
  9
$DIMTOLJ
 70
     1
  9
$DIMTZIN
 70
     0
  9
$DIMALTZ
 70
     0
  9
$DIMALTTZ
 70
     0
  9
$DIMUPT
 70
     0
  9
$DIMDEC
 70
     4
  9
$DIMTDEC
 70
     4
  9
$DIMALTU
 70
     2
  9
$DIMALTTD
 70
     2
  9
$DIMTXSTY
  7
Standard
  9
$DIMAUNIT
 70
     0
  9
$DIMADEC
 70
     0
  9
$DIMALTRND
 40
0.0
  9
$DIMAZIN
 70
     0
  9
$DIMDSEP
 70
     0
  9
$DIMATFIT
 70
     3
  9
$DIMFRAC
 70
     0
  9
$DIMLDRBLK
  1

  9
$DIMLUNIT
 70
     2
  9
$DIMLWD
 70
     0
  9
$DIMLWE
 70
     0
  9
$DIMTMOVE
 70
     0
  9
$LUNITS
 70
     2
  9
$LUPREC
 70
     3
  9
$SKETCHINC
 40
0.1
  9
$FILLETRAD
 40
0.0
  9
$AUNITS
 70
     0
  9
$AUPREC
 70
     0
  9
$MENU
  1
acad
  9
$ELEVATION
 40
0.0
  9
$PELEVATION
 40
0.0
  9
$THICKNESS
 40
0.0
  9
$LIMCHECK
 70
     0
  9
$CHAMFERA
 40
0.0
  9
$CHAMFERB
 40
0.0
  9
$CHAMFERC
 40
0.0
  9
$CHAMFERD
 40
0.0
  9
$SKPOLY
 70
     0
  9
$TDCREATE
 40
0.000000000
  9
$TDUCREATE
 40
0.000000000
  9
$TDUPDATE
 40
0.000000000
  9
$TDUUPDATE
 40
0.000000000
  9
$TDINDWG
 40
0.0000000000
  9
$TDUSRTIMER
 40
0.0000000000
  9
$USRTIMER
 70
     1
  9
$ANGBASE
 50
0.0
  9
$ANGDIR
 70
     0
  9
$PDMODE
 70
     0
  9
$PDSIZE
 40
0.0
  9
$PLINEWID
 40
0.0
  9
$SPLFRAME
 70
     0
  9
$SPLINETYPE
 70
     6
  9
$SPLINESEGS
 70
     8
  9
$HANDSEED
  5
58B
  9
$SURFTAB1
 70
     6
  9
$SURFTAB2
 70
     6
  9
$SURFTYPE
 70
     6
  9
$SURFU
 70
     6
  9
$SURFV
 70
     6
  9
$UCSBASE
  2

  9
$UCSNAME
  2

  9
$UCSORG
 10
0.0
 20
0.0
 30
0.0
  9
$UCSXDIR
 10
1.0
 20
0.0
 30
0.0
  9
$UCSYDIR
 10
0.0
 20
1.0
 30
0.0
  9
$UCSORTHOREF
  2

  9
$UCSORTHOVIEW
 70
     0
  9
$UCSORGTOP
 10
0.0
 20
0.0
 30
0.0
  9
$UCSORGBOTTOM
 10
0.0
 20
0.0
 30
0.0
  9
$UCSORGLEFT
 10
0.0
 20
0.0
 30
0.0
  9
$UCSORGRIGHT
 10
0.0
 20
0.0
 30
0.0
  9
$UCSORGFRONT
 10
0.0
 20
0.0
 30
0.0
  9
$UCSORGBACK
 10
0.0
 20
0.0
 30
0.0
  9
$PUCSBASE
  2

  9
$PUCSNAME
  2

  9
$PUCSORG
 10
0.0
 20
0.0
 30
0.0
  9
$PUCSXDIR
 10
1.0
 20
0.0
 30
0.0
  9
$PUCSYDIR
 10
0.0
 20
1.0
 30
0.0
  9
$PUCSORTHOREF
  2

  9
$PUCSORTHOVIEW
 70
     0
  9
$PUCSORGTOP
 10
0.0
 20
0.0
 30
0.0
  9
$PUCSORGBOTTOM
 10
0.0
 20
0.0
 30
0.0
  9
$PUCSORGLEFT
 10
0.0
 20
0.0
 30
0.0
  9
$PUCSORGRIGHT
 10
0.0
 20
0.0
 30
0.0
  9
$PUCSORGFRONT
 10
0.0
 20
0.0
 30
0.0
  9
$PUCSORGBACK
 10
0.0
 20
0.0
 30
0.0
  9
$USERI1
 70
     0
  9
$USERI2
 70
     0
  9
$USERI3
 70
     0
  9
$USERI4
 70
     0
  9
$USERI5
 70
     0
  9
$USERR1
 40
0.0
  9
$USERR2
 40
0.0
  9
$USERR3
 40
0.0
  9
$USERR4
 40
0.0
  9
$USERR5
 40
0.0
  9
$WORLDVIEW
 70
     1
  9
$SHADEDGE
 70
     3
  9
$SHADEDIF
 70
    70
  9
$TILEMODE
 70
     1
  9
$MAXACTVP
 70
    16
  9
$PINSBASE
 10
0.0
 20
0.0
 30
0.0
  9
$PLIMCHECK
 70
     0
  9
$PEXTMIN
 10
1.000000E+20
 20
1.000000E+20
 30
1.000000E+20
  9
$PEXTMAX
 10
-1.000000E+20
 20
-1.000000E+20
 30
-1.000000E+20
  9
$PLIMMIN
 10
0.0
 20
0.0
  9
$PLIMMAX
 10
12.0
 20
9.0
  9
$UNITMODE
 70
     0
  9
$VISRETAIN
 70
     0
  9
$PLINEGEN
 70
     1
  9
$PSLTSCALE
 70
     0
  9
$TREEDEPTH
 70
  3020
  9
$CMLSTYLE
  2
Standard
  9
$CMLJUST
 70
     0
  9
$CMLSCALE
 40
1.0
  9
$PROXYGRAPHICS
 70
     0
  9
$MEASUREMENT
 70
     0
  9
$CELWEIGHT
370
     0
  9
$ENDCAPS
280
     0
  9
$JOINSTYLE
280
     0
  9
$LWDISPLAY
290
     0
  9
$INSUNITS
 70
     0
  9
$HYPERLINKBASE
  1

  9
$STYLESHEET
  1

  9
$XEDIT
290
     1
  9
$CEPSNTYPE
380
     0
  9
$PSTYLEMODE
290
     1
  9
$FINGERPRINTGUID
  2

  9
$VERSIONGUID
  2

  9
$EXTNAMES
290
     1
  9
$PSVPSCALE
 40
0.0
  0
ENDSEC
  0
SECTION
  2
CLASSES
  0
CLASS
  1
LWPOLYLINE
  2
AcDbPolyline
  3
AutoCAD 2000
 90
    32768
280
     0
281
     1
  0
CLASS
  1
IMAGE
  2
AcDbRasterImage
  3
ISM
 90
    32895
280
     0
281
     1
  0
CLASS
  1
OLE2FRAME
  2
AcDbOle2Frame
  3
AutoCAD 2000
 90
    32768
280
     0
281
     1
  0
CLASS
  1
HATCH
  2
AcDbHatch
  3
AutoCAD 2000
 90
    32768
280
     0
281
     1
  0
CLASS
  1
DICTIONARYVAR
  2
AcDbDictionaryVar
  3
AutoCAD 2000
 90
    32768
280
     0
281
     0
  0
CLASS
  1
RASTERVARIABLES
  2
AcDbRasterVariables
  3
ISM
 90
    32768
280
     0
281
     0
  0
CLASS
  1
IMAGEDEF
  2
AcDbRasterImageDef
  3
ISM
 90
    32768
280
     0
281
     0
  0
CLASS
  1
IMAGEDEF_REACTOR
  2
AcDbRasterImageDefReactor
  3
ISM
 90
    32769
280
     0
281
     0
  0
CLASS
  1
IDBUFFER
  2
AcDbIdBuffer
  3
AutoCAD 2000
 90
    32768
280
     0
281
     0
  0
CLASS
  1
SPATIAL_FILTER
  2
AcDbSpatialFilter
  3
AutoCAD 2000
 90
    32768
280
     0
281
     0
  0
CLASS
  1
XRECORD
  2
AcDbXrecord
  3
AutoCAD 2000
 90
        0
280
     0
281
     0
  0
CLASS
  1
SORTENTSTABLE
  2
AcDbSortentsTable
  3
AutoCAD 2000
 90
    32768
280
     0
281
     0
  0
CLASS
  1
LAYER_INDEX
  2
AcDbLayerIndex
  3
AutoCAD 2000
 90
    32768
280
     0
281
     0
  0
CLASS
  1
SPATIAL_INDEX
  2
AcDbSpatialIndex
  3
AutoCAD 2000
 90
    32768
280
     0
281
     0
  0
CLASS
  1
OBJECT_PTR
  2
CAseDLPNTableRecord
  3
"ASE-LPNTableRecord"
 90
    32769
280
     0
281
     0
  0
CLASS
  1
LAYOUT
  2
AcDbLayout
  3
AutoCAD 2000
 90
        0
280
     0
281
     0
  0
CLASS
  1
PLOTSETTINGS
  2
AcDbPlotSettings
  3
AutoCAD 2000
 90
    32768
280
     0
281
     0
  0
CLASS
  1
ACDBDICTIONARYWDFLT
  2
AcDbDictionaryWithDefault
  3
AutoCAD 2000
 90
        0
280
     0
281
     0
  0
CLASS
  1
ACDBPLACEHOLDER
  2
AcDbPlaceHolder
  3
AutoCAD 2000
 90
        0
280
     0
281
     0
  0
CLASS
  1
VBA_PROJECT
  2
AcDbVbaProject
  3
acadvba
 90
    32768
280
     0
281
     0
  0
CLASS
  1
WIPEOUT
  2
AcDbWipeout
  3
WipeOut|AutoCAD Express Tool|expresstools@autodesk.com
 90
    32895
280
     0
281
     1
  0
CLASS
  1
WIPEOUTVARIABLES
  2
AcDbWipeoutVariables
  3
WipeOut|AutoCAD Express Tool|expresstools@autodesk.com
 90
        0
280
     0
281
     0
  0
CLASS
  1
RTEXT
  2
RText
  3
RText|AutoCAD Express Tool|expresstools@autodesk.com
 90
    32768
280
     0
281
     1
  0
CLASS
  1
ARCALIGNEDTEXT
  2
AcDbArcAlignedText
  3
ATEXT|AutoCAD Express Tool|expresstools@autodesk.com
 90
    32768
280
     0
281
     1
  0
ENDSEC
  0
SECTION
  2
TABLES
  0
TABLE
  2
VPORT
  5
7
100
AcDbSymbolTable
 70
     1
  0
VPORT
  5
15
100
AcDbSymbolTableRecord
100
AcDbViewportTableRecord
  2
*ACTIVE
 70
     0
 10
0.0
 20
0.0
 11
1.0
 21
1.0
 12
0.0
 22
0.0
 13
0.0
 23
0.0
 14
1.0
 24
1.0
 15
0.0
 25
0.0
 16
0.0
 26
0.0
 36
1.0
 17
0.0
 27
0.0
 37
0.0
 40
100.0
 41
1.0
 42
50.0
 43
0.0
 44
0.0
 50
0.0
 51
0.0
 71
     0
 72
   100
 73
     1
 74
     1
 75
     0
 76
     0
 77
     0
 78
     0
281
     0
 65
     0
110
0.0
120
0.0
130
0.0
111
1.0
121
0.0
131
0.0
112
0.0
122
1.0
132
0.0
345
0
346
0
 79
     0
146
0.0
  0
ENDTAB
  0
TABLE
  2
LTYPE
  5
4
100
AcDbSymbolTable
 70
     7
  0
LTYPE
  5
11
100
AcDbSymbolTableRecord
100
AcDbLinetypeTableRecord
  2
ByBlock
 70
    64
  3

 72
    65
 73
     0
 40
0.0
  0
LTYPE
  5
12
100
AcDbSymbolTableRecord
100
AcDbLinetypeTableRecord
  2
ByLayer
 70
    64
  3

 72
    65
 73
     0
 40
0.0
  0
LTYPE
  5
13
100
AcDbSymbolTableRecord
100
AcDbLinetypeTableRecord
  2
Continuous
 70
    64
  3
Solid line
 72
    65
 73
     0
 40
0.0
  0
LTYPE
  5
24
100
AcDbSymbolTableRecord
100
AcDbLinetypeTableRecord
  2
DASHED
 70
    64
  3
Dashed __ __ __ __ __ __ __ __ __ __ __ __ __ _
 72
    65
 73
     2
 40
0.75
 49
0.5
 74
     0
 49
-0.25
 74
     0
  0
LTYPE
  5
25
100
AcDbSymbolTableRecord
100
AcDbLinetypeTableRecord
  2
CENTER
 70
    64
  3
Center ____ _ ____ _ ____ _ ____ _ ____ _ ____
 72
    65
 73
     4
 40
1.0
 49
0.5
 74
     0
 49
-0.25
 74
     0
 49
0.0
 74
     0
 49
-0.25
 74
     0
  0
LTYPE
  5
26
100
AcDbSymbolTableRecord
100
AcDbLinetypeTableRecord
  2
DIVIDE
 70
    64
  3
Divide ____ . . ____ . . ____ . . ____ . . ____
 72
    65
 73
     6
 40
1.25
 49
0.5
 74
     0
 49
-0.25
 74
     0
 49
0.0
 74
     0
 49
-0.25
 74
     0
 49
0.0
 74
     0
 49
-0.25
 74
     0
  0
LTYPE
  5
27
100
AcDbSymbolTableRecord
100
AcDbLinetypeTableRecord
  2
PHANTOM
 70
    64
  3
Phantom ______  __  __  ______  __  __  ______
 72
    65
 73
     6
 40
9.0
 49
4.3
 74
     0
 49
-0.7
 74
     0
 49
1.3
 74
     0
 49
-0.7
 74
     0
 49
1.3
 74
     0
 49
-0.7
 74
     0
  0
ENDTAB
  0
TABLE
  2
LAYER
  5
2
100
AcDbSymbolTable
 70
     3
  0
LAYER
  5
14
100
AcDbSymbolTableRecord
100
AcDbLayerTableRecord
  2
0
 70
    64
 62
    53
  6
Continuous
290
     1
370
    -3
390
1D
  0
LAYER
  5
28
100
AcDbSymbolTableRecord
100
AcDbLayerTableRecord
  2
3
 70
    64
 62
     4
  6
Continuous
290
     1
370
    -3
390
1D
  0
LAYER
  5
29
100
AcDbSymbolTableRecord
100
AcDbLayerTableRecord
  2
5
 70
    64
 62
   191
  6
Continuous
290
     1
370
    -3
390
1D
  0
ENDTAB
  0
TABLE
  2
STYLE
  5
3
100
AcDbSymbolTable
 70
     2
  0
STYLE
  5
17
100
AcDbSymbolTableRecord
100
AcDbTextStyleTableRecord
  2
Standard
 70
     0
 40
0.0
 41
1.0
 50
0.0
 71
     0
 42
0.0
  3
txt
  4

  0
STYLE
  5
6E
100
AcDbSymbolTableRecord
100
AcDbTextStyleTableRecord
  2
ZU_SHPTB00001
 70
     0
 40
0.0
 41
1.0
 50
0.0
 71
     0
 42
0.0
  3
monotxt
  4
bigfont
  0
ENDTAB
  0
TABLE
  2
VIEW
  5
5
100
AcDbSymbolTable
 70
     0
  0
ENDTAB
  0
TABLE
  2
UCS
  5
6
100
AcDbSymbolTable
 70
     0
  0
ENDTAB
  0
TABLE
  2
APPID
  5
8
100
AcDbSymbolTable
 70
     1
  0
APPID
  5
16
100
AcDbSymbolTableRecord
100
AcDbRegAppTableRecord
  2
ACAD
 70
     0
  0
ENDTAB
  0
TABLE
  2
DIMSTYLE
  5
9
100
AcDbSymbolTable
 70
     1
100
AcDbDimStyleTable
 71
     0
  0
DIMSTYLE
105
18
100
AcDbSymbolTableRecord
100
AcDbDimStyleTableRecord
  2
Standard
 70
     0
  3

  4

 40
1.0
 41
0.18
 42
0.0625
 43
0.38
 44
0.18
 45
0.0
 46
0.0
 47
0.0
 48
0.0
 71
     0
 72
     0
 73
     1
 74
     1
 75
     0
 76
     0
 77
     0
 78
     0
 79
     0
140
0.18
141
0.09
142
0.0
143
25.4
144
1.0
145
0.0
146
1.0
147
0.09
148
0.0
170
     0
171
     2
172
     0
173
     0
174
     0
175
     0
176
     0
177
     0
178
     0
179
     0
271
     4
272
     4
273
     2
274
     2
275
     0
276
     0
277
     2
278
    46
279
     0
280
     0
281
     0
282
     0
283
     1
284
     0
285
     0
286
     0
288
     0
340
17
341
0
342
0
343
0
344
0
371
    -2
372
    -2
  0
ENDTAB
  0
TABLE
  2
BLOCK_RECORD
  5
1
100
AcDbSymbolTable
 70
     8
  0
BLOCK_RECORD
  5
A
100
AcDbSymbolTableRecord
100
AcDbBlockTableRecord
  2
*MODEL_SPACE
340
20
  0
BLOCK_RECORD
  5
B
100
AcDbSymbolTableRecord
100
AcDbBlockTableRecord
  2
*PAPER_SPACE
340
21
  0
BLOCK_RECORD
  5
122
100
AcDbSymbolTableRecord
100
AcDbBlockTableRecord
  2
ZU_SYM__USERS_HOME_SYMBOL_POO_SYM_B20_-1
340
0
102
{BLKREFS
331
12D
102
}
  0
BLOCK_RECORD
  5
12E
100
AcDbSymbolTableRecord
100
AcDbBlockTableRecord
  2
ZU_SYM__USERS_HOME_SYMBOL_POO_SYM_B20_00001-1
340
0
102
{BLKREFS
331
139
102
}
  0
BLOCK_RECORD
  5
13A
100
AcDbSymbolTableRecord
100
AcDbBlockTableRecord
  2
ZU_SYM__USERS_HOME_SYMBOL_POO_SYM_B20_00002-1
340
0
102
{BLKREFS
331
145
102
}
  0
BLOCK_RECORD
  5
146
100
AcDbSymbolTableRecord
100
AcDbBlockTableRecord
  2
ZU_SYM__USERS_HOME_SYMBOL_POO_SYM_B20_00003-1
340
0
102
{BLKREFS
331
151
102
}
  0
BLOCK_RECORD
  5
357
100
AcDbSymbolTableRecord
100
AcDbBlockTableRecord
  2
ZU_SYM__USERS_HOME_SYMBOL_POO_SYM_S07_-1
340
0
102
{BLKREFS
331
362
102
}
  0
BLOCK_RECORD
  5
363
100
AcDbSymbolTableRecord
100
AcDbBlockTableRecord
  2
ZU_SYM__USERS_HOME_SYMBOL_POO_SYM_S07_00004-1
340
0
102
{BLKREFS
331
36E
102
}
  0
BLOCK_RECORD
  5
36F
100
AcDbSymbolTableRecord
100
AcDbBlockTableRecord
  2
ZU_SYM__USERS_HOME_SYMBOL_POO_SYM_S07_00005-1
340
0
102
{BLKREFS
331
37A
102
}
  0
BLOCK_RECORD
  5
37B
100
AcDbSymbolTableRecord
100
AcDbBlockTableRecord
  2
ZU_SYM__USERS_HOME_SYMBOL_POO_SYM_S07_00006-1
340
0
102
{BLKREFS
331
386
102
}
  0
ENDTAB
  0
ENDSEC
  0
SECTION
  2
BLOCKS
  0
BLOCK
  5
D
100
AcDbEntity
  8
0
100
AcDbBlockBegin
  2
*MODEL_SPACE
 70
     0
 10
0.0
 20
0.0
 30
0.0
  3
*MODEL_SPACE
  1

  0
ENDBLK
  5
E
100
AcDbEntity
  8
0
100
AcDbBlockEnd
  0
BLOCK
  5
F
100
AcDbEntity
 67
     1
  8
0
100
AcDbBlockBegin
  2
*PAPER_SPACE
 70
     0
 10
0.0
 20
0.0
 30
0.0
  3
*PAPER_SPACE
  1

  0
ENDBLK
  5
10
100
AcDbEntity
 67
     1
  8
0
100
AcDbBlockEnd
  0
BLOCK
  5
123
100
AcDbEntity
  8
0
100
AcDbBlockBegin
  2
ZU_SYM__USERS_HOME_SYMBOL_POO_SYM_B20_-1
 70
    64
 10
0.0
 20
0.0
 30
0.0
  3
ZU_SYM__USERS_HOME_SYMBOL_POO_SYM_B20_-1
  1

  0
POINT
  5
124
100
AcDbEntity
  8
0
370
    -3
  6
Continuous
100
AcDbPoint
 10
0.0
 20
0.0
 30
0.0
  0
LINE
  5
125
100
AcDbEntity
  8
0
370
    -3
  6
Continuous
100
AcDbLine
 10
0.0
 20
-6.5
 30
0.0
 11
0.0
 21
6.5
 31
0.0
  0
LINE
  5
126
100
AcDbEntity
  8
0
370
    -3
  6
Continuous
100
AcDbLine
 10
-7.999999
 20
5.633876
 30
0.0
 11
-7.999999
 21
-5.63407
 31
0.0
  0
LINE
  5
127
100
AcDbEntity
  8
0
370
    -3
  6
Continuous
100
AcDbLine
 10
0.0
 20
6.5
 30
0.0
 11
-7.499999
 21
6.5
 31
0.0
  0
LINE
  5
128
100
AcDbEntity
  8
0
370
    -3
  6
Continuous
100
AcDbLine
 10
0.0
 20
-6.5
 30
0.0
 11
-7.499998
 21
-6.5
 31
0.0
  0
LINE
  5
129
100
AcDbEntity
  8
0
370
    -3
  6
Continuous
100
AcDbLine
 10
-7.499999
 20
6.5
 30
0.0
 11
-7.999999
 21
5.633876
 31
0.0
  0
LINE
  5
12A
100
AcDbEntity
  8
0
370
    -3
  6
Continuous
100
AcDbLine
 10
-7.499998
 20
-6.499999
 30
0.0
 11
-7.999999
 21
-5.63407
 31
0.0
  0
LINE
  5
12B
100
AcDbEntity
  8
0
370
    -3
  6
Continuous
100
AcDbLine
 10
-7.499999
 20
6.5
 30
0.0
 11
-7.499999
 21
-6.5
 31
0.0
  0
ENDBLK
  5
12C
100
AcDbEntity
  8
0
100
AcDbBlockEnd
  0
BLOCK
  5
12F
100
AcDbEntity
  8
0
100
AcDbBlockBegin
  2
ZU_SYM__USERS_HOME_SYMBOL_POO_SYM_B20_00001-1
 70
    64
 10
0.0
 20
0.0
 30
0.0
  3
ZU_SYM__USERS_HOME_SYMBOL_POO_SYM_B20_00001-1
  1

  0
POINT
  5
130
100
AcDbEntity
  8
0
370
    -3
  6
Continuous
100
AcDbPoint
 10
0.0
 20
0.0
 30
0.0
  0
LINE
  5
131
100
AcDbEntity
  8
0
370
    -3
  6
Continuous
100
AcDbLine
 10
0.0
 20
-6.5
 30
0.0
 11
0.0
 21
6.5
 31
0.0
  0
LINE
  5
132
100
AcDbEntity
  8
0
370
    -3
  6
Continuous
100
AcDbLine
 10
-7.999999
 20
5.633876
 30
0.0
 11
-7.999999
 21
-5.63407
 31
0.0
  0
LINE
  5
133
100
AcDbEntity
  8
0
370
    -3
  6
Continuous
100
AcDbLine
 10
0.0
 20
6.5
 30
0.0
 11
-7.499999
 21
6.5
 31
0.0
  0
LINE
  5
134
100
AcDbEntity
  8
0
370
    -3
  6
Continuous
100
AcDbLine
 10
0.0
 20
-6.5
 30
0.0
 11
-7.499998
 21
-6.5
 31
0.0
  0
LINE
  5
135
100
AcDbEntity
  8
0
370
    -3
  6
Continuous
100
AcDbLine
 10
-7.499999
 20
6.5
 30
0.0
 11
-7.999999
 21
5.633876
 31
0.0
  0
LINE
  5
136
100
AcDbEntity
  8
0
370
    -3
  6
Continuous
100
AcDbLine
 10
-7.499998
 20
-6.499999
 30
0.0
 11
-7.999999
 21
-5.63407
 31
0.0
  0
LINE
  5
137
100
AcDbEntity
  8
0
370
    -3
  6
Continuous
100
AcDbLine
 10
-7.499999
 20
6.5
 30
0.0
 11
-7.499999
 21
-6.5
 31
0.0
  0
ENDBLK
  5
138
100
AcDbEntity
  8
0
100
AcDbBlockEnd
  0
BLOCK
  5
13B
100
AcDbEntity
  8
0
100
AcDbBlockBegin
  2
ZU_SYM__USERS_HOME_SYMBOL_POO_SYM_B20_00002-1
 70
    64
 10
0.0
 20
0.0
 30
0.0
  3
ZU_SYM__USERS_HOME_SYMBOL_POO_SYM_B20_00002-1
  1

  0
POINT
  5
13C
100
AcDbEntity
  8
0
370
    -3
  6
Continuous
100
AcDbPoint
 10
0.0
 20
0.0
 30
0.0
  0
LINE
  5
13D
100
AcDbEntity
  8
0
370
    -3
  6
Continuous
100
AcDbLine
 10
0.0
 20
-6.5
 30
0.0
 11
0.0
 21
6.5
 31
0.0
  0
LINE
  5
13E
100
AcDbEntity
  8
0
370
    -3
  6
Continuous
100
AcDbLine
 10
-7.999999
 20
5.633876
 30
0.0
 11
-7.999999
 21
-5.63407
 31
0.0
  0
LINE
  5
13F
100
AcDbEntity
  8
0
370
    -3
  6
Continuous
100
AcDbLine
 10
0.0
 20
6.5
 30
0.0
 11
-7.499999
 21
6.5
 31
0.0
  0
LINE
  5
140
100
AcDbEntity
  8
0
370
    -3
  6
Continuous
100
AcDbLine
 10
0.0
 20
-6.5
 30
0.0
 11
-7.499998
 21
-6.5
 31
0.0
  0
LINE
  5
141
100
AcDbEntity
  8
0
370
    -3
  6
Continuous
100
AcDbLine
 10
-7.499999
 20
6.5
 30
0.0
 11
-7.999999
 21
5.633876
 31
0.0
  0
LINE
  5
142
100
AcDbEntity
  8
0
370
    -3
  6
Continuous
100
AcDbLine
 10
-7.499998
 20
-6.499999
 30
0.0
 11
-7.999999
 21
-5.63407
 31
0.0
  0
LINE
  5
143
100
AcDbEntity
  8
0
370
    -3
  6
Continuous
100
AcDbLine
 10
-7.499999
 20
6.5
 30
0.0
 11
-7.499999
 21
-6.5
 31
0.0
  0
ENDBLK
  5
144
100
AcDbEntity
  8
0
100
AcDbBlockEnd
  0
BLOCK
  5
147
100
AcDbEntity
  8
0
100
AcDbBlockBegin
  2
ZU_SYM__USERS_HOME_SYMBOL_POO_SYM_B20_00003-1
 70
    64
 10
0.0
 20
0.0
 30
0.0
  3
ZU_SYM__USERS_HOME_SYMBOL_POO_SYM_B20_00003-1
  1

  0
POINT
  5
148
100
AcDbEntity
  8
0
370
    -3
  6
Continuous
100
AcDbPoint
 10
0.0
 20
0.0
 30
0.0
  0
LINE
  5
149
100
AcDbEntity
  8
0
370
    -3
  6
Continuous
100
AcDbLine
 10
0.0
 20
-6.5
 30
0.0
 11
0.0
 21
6.5
 31
0.0
  0
LINE
  5
14A
100
AcDbEntity
  8
0
370
    -3
  6
Continuous
100
AcDbLine
 10
-7.999999
 20
5.633876
 30
0.0
 11
-7.999999
 21
-5.63407
 31
0.0
  0
LINE
  5
14B
100
AcDbEntity
  8
0
370
    -3
  6
Continuous
100
AcDbLine
 10
0.0
 20
6.5
 30
0.0
 11
-7.499999
 21
6.5
 31
0.0
  0
LINE
  5
14C
100
AcDbEntity
  8
0
370
    -3
  6
Continuous
100
AcDbLine
 10
0.0
 20
-6.5
 30
0.0
 11
-7.499998
 21
-6.5
 31
0.0
  0
LINE
  5
14D
100
AcDbEntity
  8
0
370
    -3
  6
Continuous
100
AcDbLine
 10
-7.499999
 20
6.5
 30
0.0
 11
-7.999999
 21
5.633876
 31
0.0
  0
LINE
  5
14E
100
AcDbEntity
  8
0
370
    -3
  6
Continuous
100
AcDbLine
 10
-7.499998
 20
-6.499999
 30
0.0
 11
-7.999999
 21
-5.63407
 31
0.0
  0
LINE
  5
14F
100
AcDbEntity
  8
0
370
    -3
  6
Continuous
100
AcDbLine
 10
-7.499999
 20
6.5
 30
0.0
 11
-7.499999
 21
-6.5
 31
0.0
  0
ENDBLK
  5
150
100
AcDbEntity
  8
0
100
AcDbBlockEnd
  0
BLOCK
  5
358
100
AcDbEntity
  8
0
100
AcDbBlockBegin
  2
ZU_SYM__USERS_HOME_SYMBOL_POO_SYM_S07_-1
 70
    64
 10
0.0
 20
0.0
 30
0.0
  3
ZU_SYM__USERS_HOME_SYMBOL_POO_SYM_S07_-1
  1

  0
ARC
  5
359
100
AcDbEntity
  8
0
370
    -3
  6
Continuous
100
AcDbCircle
 10
-0.979025
 20
-2.200001
 30
0.0
 40
1.299999
100
AcDbArc
 50
196.601531
 51
270.0
  0
ARC
  5
35A
100
AcDbEntity
  8
0
370
    -3
  6
Continuous
100
AcDbCircle
 10
-0.979025
 20
2.200001
 30
0.0
 40
1.299999
100
AcDbArc
 50
90.0
 51
163.398452
  0
LINE
  5
35B
100
AcDbEntity
  8
0
370
    -3
  6
Continuous
100
AcDbLine
 10
0.0
 20
-3.5
 30
0.0
 11
-0.979025
 21
-3.5
 31
0.0
  0
LINE
  5
35C
100
AcDbEntity
  8
0
370
    -3
  6
Continuous
100
AcDbLine
 10
0.0
 20
3.5
 30
0.0
 11
-0.979025
 21
3.5
 31
0.0
  0
LINE
  5
35D
100
AcDbEntity
  8
0
370
    -3
  6
Continuous
100
AcDbLine
 10
0.0
 20
-3.5
 30
0.0
 11
0.0
 21
3.5
 31
0.0
  0
LINE
  5
35E
100
AcDbEntity
  8
0
370
    -3
  6
Continuous
100
AcDbLine
 10
0.0
 20
-3.5
 30
0.0
 11
0.0
 21
3.5
 31
0.0
  0
POINT
  5
35F
100
AcDbEntity
  8
0
370
    -3
  6
Continuous
100
AcDbPoint
 10
0.0
 20
0.0
 30
0.0
  0
ARC
  5
360
100
AcDbEntity
  8
0
370
    -3
  6
Continuous
100
AcDbCircle
 10
6.4
 20
0.0
 30
0.0
 40
9.0
100
AcDbArc
 50
163.398452
 51
196.601531
  0
ENDBLK
  5
361
100
AcDbEntity
  8
0
100
AcDbBlockEnd
  0
BLOCK
  5
364
100
AcDbEntity
  8
0
100
AcDbBlockBegin
  2
ZU_SYM__USERS_HOME_SYMBOL_POO_SYM_S07_00004-1
 70
    64
 10
0.0
 20
0.0
 30
0.0
  3
ZU_SYM__USERS_HOME_SYMBOL_POO_SYM_S07_00004-1
  1

  0
ARC
  5
365
100
AcDbEntity
  8
0
370
    -3
  6
Continuous
100
AcDbCircle
 10
-0.979025
 20
-2.200001
 30
0.0
 40
1.299999
100
AcDbArc
 50
196.601531
 51
270.0
  0
ARC
  5
366
100
AcDbEntity
  8
0
370
    -3
  6
Continuous
100
AcDbCircle
 10
-0.979025
 20
2.200001
 30
0.0
 40
1.299999
100
AcDbArc
 50
90.0
 51
163.398452
  0
LINE
  5
367
100
AcDbEntity
  8
0
370
    -3
  6
Continuous
100
AcDbLine
 10
0.0
 20
-3.5
 30
0.0
 11
-0.979025
 21
-3.5
 31
0.0
  0
LINE
  5
368
100
AcDbEntity
  8
0
370
    -3
  6
Continuous
100
AcDbLine
 10
0.0
 20
3.5
 30
0.0
 11
-0.979025
 21
3.5
 31
0.0
  0
LINE
  5
369
100
AcDbEntity
  8
0
370
    -3
  6
Continuous
100
AcDbLine
 10
0.0
 20
-3.5
 30
0.0
 11
0.0
 21
3.5
 31
0.0
  0
LINE
  5
36A
100
AcDbEntity
  8
0
370
    -3
  6
Continuous
100
AcDbLine
 10
0.0
 20
-3.5
 30
0.0
 11
0.0
 21
3.5
 31
0.0
  0
POINT
  5
36B
100
AcDbEntity
  8
0
370
    -3
  6
Continuous
100
AcDbPoint
 10
0.0
 20
0.0
 30
0.0
  0
ARC
  5
36C
100
AcDbEntity
  8
0
370
    -3
  6
Continuous
100
AcDbCircle
 10
6.4
 20
0.0
 30
0.0
 40
9.0
100
AcDbArc
 50
163.398452
 51
196.601531
  0
ENDBLK
  5
36D
100
AcDbEntity
  8
0
100
AcDbBlockEnd
  0
BLOCK
  5
370
100
AcDbEntity
  8
0
100
AcDbBlockBegin
  2
ZU_SYM__USERS_HOME_SYMBOL_POO_SYM_S07_00005-1
 70
    64
 10
0.0
 20
0.0
 30
0.0
  3
ZU_SYM__USERS_HOME_SYMBOL_POO_SYM_S07_00005-1
  1

  0
ARC
  5
371
100
AcDbEntity
  8
0
370
    -3
  6
Continuous
100
AcDbCircle
 10
-0.979025
 20
-2.200001
 30
0.0
 40
1.299999
100
AcDbArc
 50
196.601531
 51
270.0
  0
ARC
  5
372
100
AcDbEntity
  8
0
370
    -3
  6
Continuous
100
AcDbCircle
 10
-0.979025
 20
2.200001
 30
0.0
 40
1.299999
100
AcDbArc
 50
90.0
 51
163.398452
  0
LINE
  5
373
100
AcDbEntity
  8
0
370
    -3
  6
Continuous
100
AcDbLine
 10
0.0
 20
-3.5
 30
0.0
 11
-0.979025
 21
-3.5
 31
0.0
  0
LINE
  5
374
100
AcDbEntity
  8
0
370
    -3
  6
Continuous
100
AcDbLine
 10
0.0
 20
3.5
 30
0.0
 11
-0.979025
 21
3.5
 31
0.0
  0
LINE
  5
375
100
AcDbEntity
  8
0
370
    -3
  6
Continuous
100
AcDbLine
 10
0.0
 20
-3.5
 30
0.0
 11
0.0
 21
3.5
 31
0.0
  0
LINE
  5
376
100
AcDbEntity
  8
0
370
    -3
  6
Continuous
100
AcDbLine
 10
0.0
 20
-3.5
 30
0.0
 11
0.0
 21
3.5
 31
0.0
  0
POINT
  5
377
100
AcDbEntity
  8
0
370
    -3
  6
Continuous
100
AcDbPoint
 10
0.0
 20
0.0
 30
0.0
  0
ARC
  5
378
100
AcDbEntity
  8
0
370
    -3
  6
Continuous
100
AcDbCircle
 10
6.4
 20
0.0
 30
0.0
 40
9.0
100
AcDbArc
 50
163.398452
 51
196.601531
  0
ENDBLK
  5
379
100
AcDbEntity
  8
0
100
AcDbBlockEnd
  0
BLOCK
  5
37C
100
AcDbEntity
  8
0
100
AcDbBlockBegin
  2
ZU_SYM__USERS_HOME_SYMBOL_POO_SYM_S07_00006-1
 70
    64
 10
0.0
 20
0.0
 30
0.0
  3
ZU_SYM__USERS_HOME_SYMBOL_POO_SYM_S07_00006-1
  1

  0
ARC
  5
37D
100
AcDbEntity
  8
0
370
    -3
  6
Continuous
100
AcDbCircle
 10
-0.979025
 20
-2.200001
 30
0.0
 40
1.299999
100
AcDbArc
 50
196.601531
 51
270.0
  0
ARC
  5
37E
100
AcDbEntity
  8
0
370
    -3
  6
Continuous
100
AcDbCircle
 10
-0.979025
 20
2.200001
 30
0.0
 40
1.299999
100
AcDbArc
 50
90.0
 51
163.398452
  0
LINE
  5
37F
100
AcDbEntity
  8
0
370
    -3
  6
Continuous
100
AcDbLine
 10
0.0
 20
-3.5
 30
0.0
 11
-0.979025
 21
-3.5
 31
0.0
  0
LINE
  5
380
100
AcDbEntity
  8
0
370
    -3
  6
Continuous
100
AcDbLine
 10
0.0
 20
3.5
 30
0.0
 11
-0.979025
 21
3.5
 31
0.0
  0
LINE
  5
381
100
AcDbEntity
  8
0
370
    -3
  6
Continuous
100
AcDbLine
 10
0.0
 20
-3.5
 30
0.0
 11
0.0
 21
3.5
 31
0.0
  0
LINE
  5
382
100
AcDbEntity
  8
0
370
    -3
  6
Continuous
100
AcDbLine
 10
0.0
 20
-3.5
 30
0.0
 11
0.0
 21
3.5
 31
0.0
  0
POINT
  5
383
100
AcDbEntity
  8
0
370
    -3
  6
Continuous
100
AcDbPoint
 10
0.0
 20
0.0
 30
0.0
  0
ARC
  5
384
100
AcDbEntity
  8
0
370
    -3
  6
Continuous
100
AcDbCircle
 10
6.4
 20
0.0
 30
0.0
 40
9.0
100
AcDbArc
 50
163.398452
 51
196.601531
  0
ENDBLK
  5
385
100
AcDbEntity
  8
0
100
AcDbBlockEnd
  0
ENDSEC
  0
SECTION
  2
ENTITIES
  0
LINE
  5
2A
100
AcDbEntity
  8
0
370
    -3
  6
Continuous
100
AcDbLine
 10
-445.608737
 20
-88.37459
 30
0.0
 11
-445.608737
 21
-19.434121
 31
0.0
  0
LINE
  5
2B
100
AcDbEntity
  8
0
370
    -3
  6
Continuous
100
AcDbLine
 10
-443.708737
 20
-91.665487
 30
0.0
 11
-427.076769
 21
-101.267958
 31
0.0
  0
ARC
  5
2C
100
AcDbEntity
  8
0
370
    -3
  6
Continuous
100
AcDbCircle
 10
-406.676769
 20
-65.934121
 30
0.0
 40
40.8
100
AcDbArc
 50
240.0
 51
270.0
  0
ARC
  5
2D
100
AcDbEntity
  8
0
370
    -3
  6
Continuous
100
AcDbCircle
 10
-441.808737
 20
-88.37459
 30
0.0
 40
3.8
100
AcDbArc
 50
180.0
 51
240.0
  0
ELLIPSE
  5
2E
100
AcDbEntity
  8
0
370
    -3
  6
Continuous
100
AcDbEllipse
 10
-398.108736
 20
46.217313
 30
0.0
 11
5.0
 21
0.0
 31
0.0
210
0.0
220
0.0
230
1.0
 40
0.707107
 41
3.1415926535897931
 42
0.0
  0
LINE
  5
2F
100
AcDbEntity
  8
0
370
    -3
  6
Continuous
100
AcDbLine
 10
-403.108736
 20
47.033916
 30
0.0
 11
-403.108736
 21
46.217313
 31
0.0
  0
LINE
  5
30
100
AcDbEntity
  8
0
370
    -3
  6
Continuous
100
AcDbLine
 10
-393.108736
 20
47.033916
 30
0.0
 11
-393.108736
 21
46.217313
 31
0.0
  0
ELLIPSE
  5
31
100
AcDbEntity
  8
0
370
    -3
  6
Continuous
100
AcDbEllipse
 10
-398.108736
 20
47.033916
 30
0.0
 11
4.5
 21
0.0
 31
0.0
210
0.0
220
0.0
230
1.0
 40
0.707107
 41
3.1415926535897931
 42
0.0
  0
LINE
  5
32
100
AcDbEntity
  8
0
370
    -3
  6
Continuous
100
AcDbLine
 10
-402.608736
 20
47.599601
 30
0.0
 11
-402.608736
 21
47.033916
 31
0.0
  0
LINE
  5
33
100
AcDbEntity
  8
0
370
    -3
  6
Continuous
100
AcDbLine
 10
-393.608736
 20
47.599601
 30
0.0
 11
-393.608736
 21
47.033916
 31
0.0
  0
ELLIPSE
  5
34
100
AcDbEntity
  8
0
370
    -3
  6
Continuous
100
AcDbEllipse
 10
-398.108736
 20
47.033916
 30
0.0
 11
5.0
 21
0.0
 31
0.0
210
0.0
220
0.0
230
1.0
 40
0.707107
 41
0.0
 42
0.7392718269406207
  0
ELLIPSE
  5
35
100
AcDbEntity
  8
0
370
    -3
  6
Continuous
100
AcDbEllipse
 10
-398.108736
 20
47.033916
 30
0.0
 11
5.0
 21
0.0
 31
0.0
210
0.0
220
0.0
230
1.0
 40
0.707107
 41
2.4023208266491722
 42
3.1415926535897931
  0
ELLIPSE
  5
36
100
AcDbEntity
  8
0
370
    -3
  6
Continuous
100
AcDbEllipse
 10
-398.108736
 20
48.13612
 30
0.0
 11
3.5
 21
0.0
 31
0.0
210
0.0
220
0.0
230
1.0
 40
0.860398
 41
0.0
 42
6.2831853071795862
  0
ELLIPSE
  5
37
100
AcDbEntity
  8
0
370
    -3
  6
Continuous
100
AcDbEllipse
 10
-398.108736
 20
47.599601
 30
0.0
 11
4.5
 21
0.0
 31
0.0
210
0.0
220
0.0
230
1.0
 40
0.707107
 41
2.158706662346169
 42
0.9828859912436241
  0
LINE
  5
38
100
AcDbEntity
  8
0
370
    -3
  6
Continuous
100
AcDbLine
 10
-398.108736
 20
49.438079
 30
0.0
 11
-396.108736
 21
47.864742
 31
0.0
  0
LINE
  5
39
100
AcDbEntity
  8
0
370
    -3
  6
Continuous
100
AcDbLine
 10
-398.108736
 20
49.438079
 30
0.0
 11
-396.179531
 21
50.648742
 31
0.0
  0
LINE
  5
3A
100
AcDbEntity
  8
0
370
    -3
  6
Continuous
100
AcDbLine
 10
-398.108736
 20
49.438079
 30
0.0
 11
-400.108736
 21
47.864742
 31
0.0
  0
LINE
  5
3B
100
AcDbEntity
  8
0
370
    -3
  6
Continuous
100
AcDbLine
 10
-398.108736
 20
49.438079
 30
0.0
 11
-400.037941
 21
50.648742
 31
0.0
  0
ELLIPSE
  5
3C
100
AcDbEntity
  8
0
370
    -3
  6
Continuous
100
AcDbEllipse
 10
-398.108736
 20
-85.085556
 30
0.0
 11
5.0
 21
0.0
 31
0.0
210
0.0
220
0.0
230
1.0
 40
0.707107
 41
0.0
 42
3.1415926535897931
  0
LINE
  5
3D
100
AcDbEntity
  8
0
370
    -3
  6
Continuous
100
AcDbLine
 10
-403.108736
 20
-85.902159
 30
0.0
 11
-403.108736
 21
-85.085556
 31
0.0
  0
LINE
  5
3E
100
AcDbEntity
  8
0
370
    -3
  6
Continuous
100
AcDbLine
 10
-393.108736
 20
-85.902159
 30
0.0
 11
-393.108736
 21
-85.085556
 31
0.0
  0
ELLIPSE
  5
3F
100
AcDbEntity
  8
0
370
    -3
  6
Continuous
100
AcDbEllipse
 10
-398.108736
 20
-85.902159
 30
0.0
 11
4.5
 21
0.0
 31
0.0
210
0.0
220
0.0
230
1.0
 40
0.707107
 41
0.0
 42
3.1415926535897931
  0
LINE
  5
40
100
AcDbEntity
  8
0
370
    -3
  6
Continuous
100
AcDbLine
 10
-402.608736
 20
-86.467844
 30
0.0
 11
-402.608736
 21
-85.902159
 31
0.0
  0
LINE
  5
41
100
AcDbEntity
  8
0
370
    -3
  6
Continuous
100
AcDbLine
 10
-393.608736
 20
-86.467844
 30
0.0
 11
-393.608736
 21
-85.902159
 31
0.0
  0
ELLIPSE
  5
42
100
AcDbEntity
  8
0
370
    -3
  6
Continuous
100
AcDbEllipse
 10
-398.108736
 20
-85.902159
 30
0.0
 11
5.0
 21
0.0
 31
0.0
210
0.0
220
0.0
230
1.0
 40
0.707107
 41
5.5439134802389658
 42
0.0
  0
ELLIPSE
  5
43
100
AcDbEntity
  8
0
370
    -3
  6
Continuous
100
AcDbEllipse
 10
-398.108736
 20
-85.902159
 30
0.0
 11
5.0
 21
0.0
 31
0.0
210
0.0
220
0.0
230
1.0
 40
0.707107
 41
3.1415926535897931
 42
3.880864480530414
  0
ELLIPSE
  5
44
100
AcDbEntity
  8
0
370
    -3
  6
Continuous
100
AcDbEllipse
 10
-398.108736
 20
-87.004362
 30
0.0
 11
3.5
 21
0.0
 31
0.0
210
0.0
220
0.0
230
1.0
 40
0.860398
 41
0.0
 42
6.2831853071795862
  0
ELLIPSE
  5
45
100
AcDbEntity
  8
0
370
    -3
  6
Continuous
100
AcDbEllipse
 10
-398.108736
 20
-86.467844
 30
0.0
 11
4.5
 21
0.0
 31
0.0
210
0.0
220
0.0
230
1.0
 40
0.707107
 41
5.3002993159359626
 42
4.1244786448334168
  0
LINE
  5
46
100
AcDbEntity
  8
0
370
    -3
  6
Continuous
100
AcDbLine
 10
-398.108736
 20
-88.306322
 30
0.0
 11
-396.108736
 21
-86.732984
 31
0.0
  0
LINE
  5
47
100
AcDbEntity
  8
0
370
    -3
  6
Continuous
100
AcDbLine
 10
-398.108736
 20
-88.306322
 30
0.0
 11
-396.179531
 21
-89.516984
 31
0.0
  0
LINE
  5
48
100
AcDbEntity
  8
0
370
    -3
  6
Continuous
100
AcDbLine
 10
-398.108736
 20
-88.306322
 30
0.0
 11
-400.108736
 21
-86.732984
 31
0.0
  0
LINE
  5
49
100
AcDbEntity
  8
0
370
    -3
  6
Continuous
100
AcDbLine
 10
-398.108736
 20
-88.306322
 30
0.0
 11
-400.037941
 21
-89.516984
 31
0.0
  0
ARC
  5
4A
100
AcDbEntity
  8
0
370
    -3
  6
Continuous
100
AcDbCircle
 10
-406.676769
 20
27.065879
 30
0.0
 40
40.8
100
AcDbArc
 50
90.0
 51
120.0
  0
LINE
  5
4B
100
AcDbEntity
  8
0
370
    -3
  6
Continuous
100
AcDbLine
 10
-445.608737
 20
49.506347
 30
0.0
 11
-445.608737
 21
-19.434121
 31
0.0
  0
LINE
  5
4C
100
AcDbEntity
  8
0
370
    -3
  6
Continuous
100
AcDbLine
 10
-443.708737
 20
52.797244
 30
0.0
 11
-427.076769
 21
62.399715
 31
0.0
  0
ARC
  5
4D
100
AcDbEntity
  8
0
370
    -3
  6
Continuous
100
AcDbCircle
 10
-441.808737
 20
49.506347
 30
0.0
 40
3.8
100
AcDbArc
 50
120.0
 51
180.0
  0
LINE
  5
4E
100
AcDbEntity
  8
0
370
    -3
  6
Continuous
100
AcDbLine
 10
-406.676769
 20
-106.734121
 30
0.0
 11
-372.608737
 21
-106.734121
 31
0.0
  0
LINE
  5
4F
100
AcDbEntity
  8
0
370
    -3
  6
Continuous
100
AcDbLine
 10
-372.608737
 20
-106.734121
 30
0.0
 11
-372.608737
 21
-66.234121
 31
0.0
  0
LINE
  5
50
100
AcDbEntity
  8
0
370
    -3
  6
Continuous
100
AcDbLine
 10
-406.676769
 20
67.865879
 30
0.0
 11
-372.608737
 21
67.865879
 31
0.0
  0
LINE
  5
51
100
AcDbEntity
  8
0
370
    -3
  6
Continuous
100
AcDbLine
 10
-372.608737
 20
67.865879
 30
0.0
 11
-372.608737
 21
27.365879
 31
0.0
  0
LINE
  5
52
100
AcDbEntity
  8
0
370
    -3
  6
Continuous
100
AcDbLine
 10
-217.608736
 20
64.065879
 30
0.0
 11
-372.608737
 21
64.065879
 31
0.0
  0
LINE
  5
53
100
AcDbEntity
  8
0
370
    -3
  6
Continuous
100
AcDbLine
 10
-217.608736
 20
63.565879
 30
0.0
 11
-372.608737
 21
63.565879
 31
0.0
  0
LINE
  5
54
100
AcDbEntity
  8
0
370
    -3
  6
Continuous
100
AcDbLine
 10
-217.608736
 20
63.065879
 30
0.0
 11
-372.608737
 21
63.065879
 31
0.0
  0
LINE
  5
55
100
AcDbEntity
  8
0
370
    -3
  6
Continuous
100
AcDbLine
 10
-217.608736
 20
60.565879
 30
0.0
 11
-372.608737
 21
60.565879
 31
0.0
  0
LINE
  5
56
100
AcDbEntity
  8
0
370
    -3
  6
Continuous
100
AcDbLine
 10
-217.608736
 20
55.565879
 30
0.0
 11
-372.608737
 21
55.565879
 31
0.0
  0
LINE
  5
57
100
AcDbEntity
  8
0
370
    -3
  6
Continuous
100
AcDbLine
 10
-217.608736
 20
46.445091
 30
0.0
 11
-372.608737
 21
46.445091
 31
0.0
  0
LINE
  5
58
100
AcDbEntity
  8
0
370
    -3
  6
Continuous
100
AcDbLine
 10
-217.608736
 20
14.504106
 30
0.0
 11
-317.711267
 21
14.504106
 31
0.0
  0
LINE
  5
59
100
AcDbEntity
  8
0
370
    -3
  6
Continuous
100
AcDbLine
 10
-217.608736
 20
16.670817
 30
0.0
 11
-317.711267
 21
16.670817
 31
0.0
  0
LINE
  5
5A
100
AcDbEntity
  8
0
370
    -3
  6
Continuous
100
AcDbLine
 10
-217.608736
 20
26.703603
 30
0.0
 11
-322.36597
 21
26.703603
 31
0.0
  0
LINE
  5
5B
100
AcDbEntity
  8
0
370
    -3
  6
Continuous
100
AcDbLine
 10
-217.608736
 20
24.481276
 30
0.0
 11
-319.454959
 21
24.481276
 31
0.0
  0
LINE
  5
5C
100
AcDbEntity
  8
0
370
    -3
  6
Continuous
100
AcDbLine
 10
-217.608736
 20
39.374023
 30
0.0
 11
-372.608737
 21
39.374023
 31
0.0
  0
LINE
  5
5D
100
AcDbEntity
  8
0
370
    -3
  6
Continuous
100
AcDbLine
 10
-217.608736
 20
4.565879
 30
0.0
 11
-317.711267
 21
4.565879
 31
0.0
  0
LINE
  5
5E
100
AcDbEntity
  8
0
370
    -3
  6
Continuous
100
AcDbLine
 10
-217.608736
 20
-102.434121
 30
0.0
 11
-372.608737
 21
-102.434121
 31
0.0
  0
LINE
  5
5F
100
AcDbEntity
  8
0
370
    -3
  6
Continuous
100
AcDbLine
 10
-217.608736
 20
-101.934121
 30
0.0
 11
-372.608737
 21
-101.934121
 31
0.0
  0
LINE
  5
60
100
AcDbEntity
  8
0
370
    -3
  6
Continuous
100
AcDbLine
 10
-217.608736
 20
-99.434121
 30
0.0
 11
-372.608737
 21
-99.434121
 31
0.0
  0
LINE
  5
61
100
AcDbEntity
  8
0
370
    -3
  6
Continuous
100
AcDbLine
 10
-217.608736
 20
-94.434121
 30
0.0
 11
-372.608737
 21
-94.434121
 31
0.0
  0
LINE
  5
62
100
AcDbEntity
  8
0
370
    -3
  6
Continuous
100
AcDbLine
 10
-217.608736
 20
-85.313334
 30
0.0
 11
-372.608737
 21
-85.313334
 31
0.0
  0
LINE
  5
63
100
AcDbEntity
  8
0
370
    -3
  6
Continuous
100
AcDbLine
 10
-217.608736
 20
-53.372349
 30
0.0
 11
-317.711267
 21
-53.372349
 31
0.0
  0
LINE
  5
64
100
AcDbEntity
  8
0
370
    -3
  6
Continuous
100
AcDbLine
 10
-217.608736
 20
-43.434121
 30
0.0
 11
-317.711267
 21
-43.434121
 31
0.0
  0
LINE
  5
65
100
AcDbEntity
  8
0
370
    -3
  6
Continuous
100
AcDbLine
 10
-217.608736
 20
-102.934121
 30
0.0
 11
-372.608737
 21
-102.934121
 31
0.0
  0
LINE
  5
66
100
AcDbEntity
  8
0
370
    -3
  6
Continuous
100
AcDbLine
 10
-217.608736
 20
-55.53906
 30
0.0
 11
-317.711267
 21
-55.53906
 31
0.0
  0
LINE
  5
67
100
AcDbEntity
  8
0
370
    -3
  6
Continuous
100
AcDbLine
 10
-217.608736
 20
-63.349519
 30
0.0
 11
-319.454959
 21
-63.349519
 31
0.0
  0
LINE
  5
68
100
AcDbEntity
  8
0
370
    -3
  6
Continuous
100
AcDbLine
 10
-217.608736
 20
-65.571846
 30
0.0
 11
-322.36597
 21
-65.571846
 31
0.0
  0
LINE
  5
69
100
AcDbEntity
  8
0
370
    -3
  6
Continuous
100
AcDbLine
 10
-217.608736
 20
-78.242266
 30
0.0
 11
-372.608737
 21
-78.242266
 31
0.0
  0
LINE
  5
6A
100
AcDbEntity
  8
0
370
    -3
  6
Continuous
100
AcDbLine
 10
-217.608736
 20
-19.434121
 30
0.0
 11
-217.608736
 21
64.065879
 31
0.0
  0
LINE
  5
6B
100
AcDbEntity
  8
0
370
    -3
  6
Continuous
100
AcDbLine
 10
-217.608736
 20
-19.434121
 30
0.0
 11
-217.608736
 21
-102.934121
 31
0.0
  0
LINE
  5
6C
100
AcDbEntity
  8
0
370
    -3
  6
Continuous
100
AcDbLine
 10
-217.608736
 20
-19.434121
 30
0.0
 11
-217.608736
 21
-102.934121
 31
0.0
  0
LINE
  5
6D
100
AcDbEntity
  8
0
370
    -3
  6
Continuous
100
AcDbLine
 10
-217.608736
 20
-19.434121
 30
0.0
 11
-217.608736
 21
64.065879
 31
0.0
  0
MTEXT
  5
6F
100
AcDbEntity
  8
0
370
    -3
  6
Continuous
100
AcDbMText
 10
31.624512
 20
-213.40625
 30
0.0
 40
2.8
 41
0.0
 71
     7
 72
     1
  1
\W0.83;　
  7
ZU_SHPTB00001
 11
1.0
 21
0.0
 31
0.0
 73
     1
 44
1.0
  0
LINE
  5
70
100
AcDbEntity
  8
0
370
    -3
  6
Continuous
100
AcDbLine
 10
-217.608736
 20
64.065879
 30
0.0
 11
-217.608736
 21
-102.934121
 31
0.0
  0
LINE
  5
71
100
AcDbEntity
  8
0
370
    -3
  6
CENTER
100
AcDbLine
 10
-463.071422
 20
-19.434121
 30
0.0
 11
-181.07316
 21
-19.434121
 31
0.0
  0
ARC
  5
72
100
AcDbEntity
  8
0
370
    -3
  6
Continuous
100
AcDbCircle
 10
333.689402
 20
-122.434121
 30
0.0
 40
5.0
100
AcDbArc
 50
180.0
 51
270.0
  0
ARC
  5
73
100
AcDbEntity
  8
0
370
    -3
  6
Continuous
100
AcDbCircle
 10
344.217128
 20
-122.434121
 30
0.0
 40
5.0
100
AcDbArc
 50
180.0
 51
270.0
  0
ARC
  5
74
100
AcDbEntity
  8
0
370
    -3
  6
Continuous
100
AcDbCircle
 10
367.371687
 20
-122.434121
 30
0.0
 40
5.0
100
AcDbArc
 50
180.0
 51
270.0
  0
ARC
  5
75
100
AcDbEntity
  8
0
370
    -3
  6
Continuous
100
AcDbCircle
 10
139.035422
 20
-122.434121
 30
0.0
 40
5.0
100
AcDbArc
 50
270.0
 51
0.0
  0
ARC
  5
76
100
AcDbEntity
  8
0
370
    -3
  6
Continuous
100
AcDbCircle
 10
128.507696
 20
-122.434121
 30
0.0
 40
5.0
100
AcDbArc
 50
270.0
 51
0.0
  0
ARC
  5
77
100
AcDbEntity
  8
0
370
    -3
  6
Continuous
100
AcDbCircle
 10
105.353137
 20
-122.434121
 30
0.0
 40
5.0
100
AcDbArc
 50
270.0
 51
0.0
  0
ARC
  5
78
100
AcDbEntity
  8
0
370
    -3
  6
Continuous
100
AcDbCircle
 10
211.362412
 20
14.927708
 30
0.0
 40
67.32699
100
AcDbArc
 50
92.924524
 51
180.0
  0
ARC
  5
79
100
AcDbEntity
  8
0
370
    -3
  6
Continuous
100
AcDbCircle
 10
261.362412
 20
14.927708
 30
0.0
 40
67.32699
100
AcDbArc
 50
0.0
 51
87.075476
  0
ARC
  5
7A
100
AcDbEntity
  8
0
370
    -3
  6
Continuous
100
AcDbCircle
 10
236.362412
 20
20.565879
 30
0.0
 40
54.0
100
AcDbArc
 50
183.016961
 51
356.983039
  0
ARC
  5
7B
100
AcDbEntity
  8
0
370
    -3
  6
Continuous
100
AcDbCircle
 10
308.862412
 20
-107.734121
 30
0.0
 40
10.0
100
AcDbArc
 50
270.0
 51
0.0
  0
ARC
  5
7C
100
AcDbEntity
  8
0
370
    -3
  6
Continuous
100
AcDbCircle
 10
313.862412
 20
15.565879
 30
0.0
 40
5.0
100
AcDbArc
 50
0.0
 51
90.0
  0
ARC
  5
7D
100
AcDbEntity
  8
0
370
    -3
  6
Continuous
100
AcDbCircle
 10
293.28341
 20
17.565879
 30
0.0
 40
3.0
100
AcDbArc
 50
90.0
 51
176.983039
  0
ARC
  5
7E
100
AcDbEntity
  8
0
370
    -3
  6
Continuous
100
AcDbCircle
 10
179.441414
 20
17.565879
 30
0.0
 40
3.0
100
AcDbArc
 50
3.016961
 51
90.0
  0
ARC
  5
7F
100
AcDbEntity
  8
0
370
    -3
  6
Continuous
100
AcDbCircle
 10
158.862412
 20
15.565879
 30
0.0
 40
5.0
100
AcDbArc
 50
90.0
 51
180.0
  0
ARC
  5
80
100
AcDbEntity
  8
0
370
    -3
  6
Continuous
100
AcDbCircle
 10
163.862412
 20
-107.734121
 30
0.0
 40
10.0
100
AcDbArc
 50
180.0
 51
270.0
  0
LINE
  5
81
100
AcDbEntity
  8
0
370
    -3
  6
Continuous
100
AcDbLine
 10
144.035422
 20
15.565879
 30
0.0
 11
144.035422
 21
-122.434121
 31
0.0
  0
LINE
  5
82
100
AcDbEntity
  8
0
370
    -3
  6
CENTER
100
AcDbLine
 10
380.385042
 20
20.565879
 30
0.0
 11
96.7553
 21
20.565879
 31
0.0
  0
LINE
  5
83
100
AcDbEntity
  8
0
370
    -3
  6
CENTER
100
AcDbLine
 10
267.51443
 20
-19.434121
 30
0.0
 11
205.52398
 21
-19.434121
 31
0.0
  0
LINE
  5
84
100
AcDbEntity
  8
0
370
    -3
  6
Continuous
100
AcDbLine
 10
236.362412
 20
-117.734121
 30
0.0
 11
308.862412
 21
-117.734121
 31
0.0
  0
LINE
  5
85
100
AcDbEntity
  8
0
370
    -3
  6
Continuous
100
AcDbLine
 10
318.862412
 20
15.565879
 30
0.0
 11
318.862412
 21
-107.734121
 31
0.0
  0
LINE
  5
86
100
AcDbEntity
  8
0
370
    -3
  6
Continuous
100
AcDbLine
 10
293.28341
 20
20.565879
 30
0.0
 11
313.862412
 21
20.565879
 31
0.0
  0
LINE
  5
87
100
AcDbEntity
  8
0
370
    -3
  6
Continuous
100
AcDbLine
 10
179.441414
 20
20.565879
 30
0.0
 11
158.862412
 21
20.565879
 31
0.0
  0
LINE
  5
88
100
AcDbEntity
  8
0
370
    -3
  6
Continuous
100
AcDbLine
 10
153.862412
 20
15.565879
 30
0.0
 11
153.862412
 21
-107.734121
 31
0.0
  0
LINE
  5
89
100
AcDbEntity
  8
0
370
    -3
  6
Continuous
100
AcDbLine
 10
236.362412
 20
-117.734121
 30
0.0
 11
163.862412
 21
-117.734121
 31
0.0
  0
LINE
  5
8A
100
AcDbEntity
  8
0
370
    -3
  6
Continuous
100
AcDbLine
 10
378.862412
 20
-130.434121
 30
0.0
 11
378.862412
 21
-149.434121
 31
0.0
  0
LINE
  5
8B
100
AcDbEntity
  8
0
370
    -3
  6
Continuous
100
AcDbLine
 10
143.862412
 20
-149.434121
 30
0.0
 11
93.862412
 21
-149.434121
 31
0.0
  0
LINE
  5
8C
100
AcDbEntity
  8
0
370
    -3
  6
DASHED
100
AcDbLine
 10
130.362412
 20
-127.434121
 30
0.0
 11
130.138056
 21
-127.434121
 31
0.0
  0
LINE
  5
8D
100
AcDbEntity
  8
0
370
    -3
  6
Continuous
100
AcDbLine
 10
93.862412
 20
-130.434121
 30
0.0
 11
93.862412
 21
-149.434121
 31
0.0
  0
LINE
  5
8E
100
AcDbEntity
  8
0
370
    -3
  6
CENTER
100
AcDbLine
 10
111.362412
 20
-123.221289
 30
0.0
 11
111.362412
 21
-154.06606
 31
0.0
  0
ARC
  5
8F
100
AcDbEntity
  8
0
370
    -3
  6
Continuous
100
AcDbCircle
 10
96.862412
 20
-130.434121
 30
0.0
 40
3.0
100
AcDbArc
 50
90.0
 51
180.0
  0
LINE
  5
90
100
AcDbEntity
  8
0
370
    -3
  6
Continuous
100
AcDbLine
 10
236.362412
 20
-127.434121
 30
0.0
 11
96.862412
 21
-127.434121
 31
0.0
  0
LINE
  5
91
100
AcDbEntity
  8
0
370
    -3
  6
DASHED
100
AcDbLine
 10
342.362412
 20
-127.434121
 30
0.0
 11
342.586768
 21
-127.434121
 31
0.0
  0
LINE
  5
92
100
AcDbEntity
  8
0
370
    -3
  6
Continuous
100
AcDbLine
 10
236.362412
 20
-127.434121
 30
0.0
 11
375.862412
 21
-127.434121
 31
0.0
  0
ARC
  5
93
100
AcDbEntity
  8
0
370
    -3
  6
Continuous
100
AcDbCircle
 10
375.862412
 20
-130.434121
 30
0.0
 40
3.0
100
AcDbArc
 50
0.0
 51
90.0
  0
LINE
  5
94
100
AcDbEntity
  8
0
370
    -3
  6
CENTER
100
AcDbLine
 10
361.362412
 20
-123.221289
 30
0.0
 11
361.362412
 21
-154.06606
 31
0.0
  0
LINE
  5
95
100
AcDbEntity
  8
0
370
    -3
  6
Continuous
100
AcDbLine
 10
328.862412
 20
-149.434121
 30
0.0
 11
378.862412
 21
-149.434121
 31
0.0
  0
LINE
  5
96
100
AcDbEntity
  8
0
370
    -3
  6
Continuous
100
AcDbLine
 10
236.362412
 20
-147.434121
 30
0.0
 11
145.862412
 21
-147.434121
 31
0.0
  0
ARC
  5
97
100
AcDbEntity
  8
0
370
    -3
  6
Continuous
100
AcDbCircle
 10
145.862412
 20
-149.434121
 30
0.0
 40
2.0
100
AcDbArc
 50
90.0
 51
180.0
  0
ARC
  5
98
100
AcDbEntity
  8
0
370
    -3
  6
Continuous
100
AcDbCircle
 10
98.362412
 20
-124.434121
 30
0.0
 40
3.0
100
AcDbArc
 50
270.0
 51
0.0
  0
LINE
  5
99
100
AcDbEntity
  8
0
370
    -3
  6
Continuous
100
AcDbLine
 10
236.362412
 20
-147.434121
 30
0.0
 11
326.862412
 21
-147.434121
 31
0.0
  0
ARC
  5
9A
100
AcDbEntity
  8
0
370
    -3
  6
Continuous
100
AcDbCircle
 10
326.862412
 20
-149.434121
 30
0.0
 40
2.0
100
AcDbArc
 50
0.0
 51
90.0
  0
ARC
  5
9B
100
AcDbEntity
  8
0
370
    -3
  6
Continuous
100
AcDbCircle
 10
374.362412
 20
-124.434121
 30
0.0
 40
3.0
100
AcDbArc
 50
180.0
 51
270.0
  0
LINE
  5
9C
100
AcDbEntity
  8
0
370
    -3
  6
Continuous
100
AcDbLine
 10
328.689402
 20
15.565879
 30
0.0
 11
328.689402
 21
-122.434121
 31
0.0
  0
LINE
  5
9D
100
AcDbEntity
  8
0
370
    -3
  6
Continuous
100
AcDbLine
 10
110.353137
 20
12.73404
 30
0.0
 11
110.353137
 21
-122.434121
 31
0.0
  0
LINE
  5
9E
100
AcDbEntity
  8
0
370
    -3
  6
Continuous
100
AcDbLine
 10
133.507696
 20
12.734037
 30
0.0
 11
133.507696
 21
-122.434121
 31
0.0
  0
ELLIPSE
  5
9F
100
AcDbEntity
  8
0
370
    -3
  6
Continuous
100
AcDbEllipse
 10
121.930417
 20
12.73404
 30
0.0
 11
0.0
 21
29.2528141503808
 31
0.0
210
0.0
220
0.0
230
1.0
 40
0.395766
 41
4.7123888820420472
 42
1.5707963267948968
  0
ELLIPSE
  5
A0
100
AcDbEntity
  8
0
370
    -3
  6
Continuous
100
AcDbEllipse
 10
350.794407
 20
12.73404
 30
0.0
 11
0.0
 21
29.2528141503808
 31
0.0
210
0.0
220
0.0
230
1.0
 40
0.395766
 41
4.7123889803846897
 42
1.570796425137539
  0
LINE
  5
A1
100
AcDbEntity
  8
0
370
    -3
  6
Continuous
100
AcDbLine
 10
339.217128
 20
12.734037
 30
0.0
 11
339.217128
 21
-122.434121
 31
0.0
  0
LINE
  5
A2
100
AcDbEntity
  8
0
370
    -3
  6
Continuous
100
AcDbLine
 10
362.371687
 20
12.73404
 30
0.0
 11
362.371687
 21
-122.434121
 31
0.0
  0
LINE
  5
A3
100
AcDbEntity
  8
0
370
    -3
  6
Continuous
100
AcDbLine
 10
371.362412
 20
14.927708
 30
0.0
 11
371.362412
 21
-124.434121
 31
0.0
  0
ARC
  5
A4
100
AcDbEntity
  8
0
370
    -3
  6
Continuous
100
AcDbCircle
 10
236.362412
 20
-474.434121
 30
0.0
 40
600.0
100
AcDbArc
 50
87.075476
 51
90.0
  0
ARC
  5
A5
100
AcDbEntity
  8
0
370
    -3
  6
Continuous
100
AcDbCircle
 10
261.362412
 20
14.927708
 30
0.0
 40
110.0
100
AcDbArc
 50
0.0
 51
87.075476
  0
ARC
  5
A6
100
AcDbEntity
  8
0
370
    -3
  6
Continuous
100
AcDbCircle
 10
236.362412
 20
-474.434121
 30
0.0
 40
557.32699
100
AcDbArc
 50
87.075476
 51
90.0
  0
LINE
  5
A7
100
AcDbEntity
  8
0
370
    -3
  6
Continuous
100
AcDbLine
 10
101.362412
 20
14.927708
 30
0.0
 11
101.362412
 21
-124.434121
 31
0.0
  0
ARC
  5
A8
100
AcDbEntity
  8
0
370
    -3
  6
Continuous
100
AcDbCircle
 10
236.362412
 20
-474.434121
 30
0.0
 40
557.32699
100
AcDbArc
 50
90.0
 51
92.924524
  0
ARC
  5
A9
100
AcDbEntity
  8
0
370
    -3
  6
Continuous
100
AcDbCircle
 10
236.362412
 20
-474.434121
 30
0.0
 40
600.0
100
AcDbArc
 50
90.0
 51
92.924524
  0
ARC
  5
AA
100
AcDbEntity
  8
0
370
    -3
  6
Continuous
100
AcDbCircle
 10
211.362412
 20
14.927708
 30
0.0
 40
110.0
100
AcDbArc
 50
92.924524
 51
180.0
  0
CIRCLE
  5
AB
100
AcDbEntity
  8
0
370
    -3
  6
Continuous
100
AcDbCircle
 10
236.362412
 20
20.565879
 30
0.0
 40
44.0
  0
CIRCLE
  5
AC
100
AcDbEntity
  8
0
370
    -3
  6
Continuous
100
AcDbCircle
 10
236.362412
 20
20.565879
 30
0.0
 40
34.0
  0
ARC
  5
AD
100
AcDbEntity
  8
0
370
    -3
  6
Continuous
100
AcDbCircle
 10
225.862412
 20
150.565879
 30
0.0
 40
10.0
100
AcDbArc
 50
90.0
 51
180.0
  0
LINE
  5
AE
100
AcDbEntity
  8
0
370
    -3
  6
Continuous
100
AcDbLine
 10
215.862412
 20
150.565879
 30
0.0
 11
215.862412
 21
125.215568
 31
0.0
  0
LINE
  5
AF
100
AcDbEntity
  8
0
370
    -3
  6
Continuous
100
AcDbLine
 10
246.862412
 20
160.565879
 30
0.0
 11
225.862412
 21
160.565879
 31
0.0
  0
LINE
  5
B0
100
AcDbEntity
  8
0
370
    -3
  6
CENTER
100
AcDbLine
 10
259.530325
 20
140.565879
 30
0.0
 11
212.507811
 21
140.565879
 31
0.0
  0
CIRCLE
  5
B1
100
AcDbEntity
  8
0
370
    -3
  6
Continuous
100
AcDbCircle
 10
236.362412
 20
140.565879
 30
0.0
 40
10.0
  0
ARC
  5
B2
100
AcDbEntity
  8
0
370
    -3
  6
Continuous
100
AcDbCircle
 10
246.862412
 20
150.565879
 30
0.0
 40
10.0
100
AcDbArc
 50
0.0
 51
90.0
  0
LINE
  5
B3
100
AcDbEntity
  8
0
370
    -3
  6
Continuous
100
AcDbLine
 10
256.862412
 20
150.565879
 30
0.0
 11
256.862412
 21
125.215568
 31
0.0
  0
LINE
  5
B4
100
AcDbEntity
  8
0
370
    -3
  6
CENTER
100
AcDbLine
 10
236.362412
 20
175.658468
 30
0.0
 11
236.362412
 21
-156.77428
 31
0.0
  0
LINE
  5
B5
100
AcDbEntity
  8
0
370
    -3
  6
Continuous
100
AcDbLine
 10
208.862412
 20
13.534646
 30
0.0
 11
217.862412
 21
13.534646
 31
0.0
  0
LINE
  5
B6
100
AcDbEntity
  8
0
370
    -3
  6
Continuous
100
AcDbLine
 10
208.862412
 20
27.534646
 30
0.0
 11
217.862412
 21
27.534646
 31
0.0
  0
ARC
  5
B7
100
AcDbEntity
  8
0
370
    -3
  6
Continuous
100
AcDbCircle
 10
236.362412
 20
20.534646
 30
0.0
 40
24.0
100
AcDbArc
 50
196.957763
 51
163.042237
  0
LINE
  5
B8
100
AcDbEntity
  8
0
370
    -3
  6
Continuous
100
AcDbLine
 10
217.862412
 20
27.534646
 30
0.0
 11
217.862412
 21
13.534646
 31
0.0
  0
LINE
  5
B9
100
AcDbEntity
  8
0
370
    -3
  6
Continuous
100
AcDbLine
 10
208.862412
 20
27.534646
 30
0.0
 11
208.862412
 21
13.534646
 31
0.0
  0
CIRCLE
  5
BA
100
AcDbEntity
  8
0
370
    -3
  6
Continuous
100
AcDbCircle
 10
236.362412
 20
20.565879
 30
0.0
 40
3.325
  0
CIRCLE
  5
BB
100
AcDbEntity
  8
0
370
    -3
  6
Continuous
100
AcDbCircle
 10
236.362412
 20
20.565879
 30
0.0
 40
4.0
  0
LINE
  5
BC
100
AcDbEntity
  8
0
370
    -3
  6
Continuous
100
AcDbLine
 10
-39.108736
 20
-131.296877
 30
0.0
 11
-39.108736
 21
-149.434121
 31
0.0
  0
LINE
  5
BD
100
AcDbEntity
  8
0
370
    -3
  6
Continuous
100
AcDbLine
 10
-245.108736
 20
-149.434121
 30
0.0
 11
-39.108736
 21
-149.434121
 31
0.0
  0
LINE
  5
BE
100
AcDbEntity
  8
0
370
    -3
  6
Continuous
100
AcDbLine
 10
-79.108736
 20
-126.037291
 30
0.0
 11
-181.608736
 21
-122.457912
 31
0.0
  0
LINE
  5
BF
100
AcDbEntity
  8
0
370
    -3
  6
Continuous
100
AcDbLine
 10
-205.108736
 20
-124.299501
 30
0.0
 11
-181.608736
 21
-122.457912
 31
0.0
  0
LINE
  5
C0
100
AcDbEntity
  8
0
370
    -3
  6
CENTER
100
AcDbLine
 10
-227.108736
 20
-119.695912
 30
0.0
 11
-227.108736
 21
-156.221154
 31
0.0
  0
LINE
  5
C1
100
AcDbEntity
  8
0
370
    -3
  6
Continuous
100
AcDbLine
 10
-42.969138
 20
-127.299313
 30
0.0
 11
-79.108736
 21
-126.037291
 31
0.0
  0
LINE
  5
C2
100
AcDbEntity
  8
0
370
    -3
  6
CENTER
100
AcDbLine
 10
-57.108736
 20
-120.50716
 30
0.0
 11
-57.108736
 21
-157.845384
 31
0.0
  0
LINE
  5
C3
100
AcDbEntity
  8
0
370
    -3
  6
Continuous
100
AcDbLine
 10
-41.108736
 20
20.565879
 30
0.0
 11
-41.108736
 21
-126.397897
 31
0.0
  0
LINE
  5
C4
100
AcDbEntity
  8
0
370
    -3
  6
Continuous
100
AcDbLine
 10
-39.108736
 20
20.565879
 30
0.0
 11
-39.108736
 21
-23.434121
 31
0.0
  0
ARC
  5
C5
100
AcDbEntity
  8
0
370
    -3
  6
Continuous
100
AcDbCircle
 10
-40.108736
 20
65.565879
 30
0.0
 40
1.0
100
AcDbArc
 50
180.0
 51
270.0
  0
LINE
  5
C6
100
AcDbEntity
  8
0
370
    -3
  6
Continuous
100
AcDbLine
 10
-39.108736
 20
20.565879
 30
0.0
 11
-39.108736
 21
64.565879
 31
0.0
  0
LINE
  5
C7
100
AcDbEntity
  8
0
370
    -3
  6
Continuous
100
AcDbLine
 10
-41.108736
 20
20.565879
 30
0.0
 11
-41.108736
 21
82.057479
 31
0.0
  0
ARC
  5
C8
100
AcDbEntity
  8
0
370
    -3
  6
Continuous
100
AcDbCircle
 10
-40.108736
 20
-24.434121
 30
0.0
 40
1.0
100
AcDbArc
 50
90.0
 51
180.0
  0
LINE
  5
C9
100
AcDbEntity
  8
0
370
    -3
  6
Continuous
100
AcDbLine
 10
-184.608736
 20
20.565879
 30
0.0
 11
-184.608736
 21
125.565879
 31
0.0
  0
LINE
  5
CA
100
AcDbEntity
  8
0
370
    -3
  6
Continuous
100
AcDbLine
 10
-245.108736
 20
-131.132923
 30
0.0
 11
-245.108736
 21
-149.434121
 31
0.0
  0
LINE
  5
CB
100
AcDbEntity
  8
0
370
    -3
  6
Continuous
100
AcDbLine
 10
-184.608736
 20
20.565879
 30
0.0
 11
-184.608736
 21
-97.221193
 31
0.0
  0
ARC
  5
CC
100
AcDbEntity
  8
0
370
    -3
  6
Continuous
100
AcDbCircle
 10
-114.092191
 20
39.32206
 30
0.0
 40
85.0
100
AcDbArc
 50
31.41034
 51
89.0
  0
LINE
  5
CD
100
AcDbEntity
  8
0
370
    -3
  6
Continuous
100
AcDbLine
 10
-112.608736
 20
124.309114
 30
0.0
 11
-184.608736
 21
125.565879
 31
0.0
  0
ARC
  5
CE
100
AcDbEntity
  8
0
370
    -3
  6
Continuous
100
AcDbCircle
 10
-44.108736
 20
82.057479
 30
0.0
 40
3.0
100
AcDbArc
 50
0.0
 51
31.41034
  0
LINE
  5
CF
100
AcDbEntity
  8
0
370
    -3
  6
Continuous
100
AcDbLine
 10
-48.530399
 20
12.73404
 30
0.0
 11
-48.530399
 21
-124.208043
 31
0.0
  0
LINE
  5
D0
100
AcDbEntity
  8
0
370
    -3
  6
Continuous
100
AcDbLine
 10
-78.638565
 20
12.73404
 30
0.0
 11
-78.638565
 21
-123.156643
 31
0.0
  0
ELLIPSE
  5
D1
100
AcDbEntity
  8
0
370
    -3
  6
Continuous
100
AcDbEllipse
 10
-63.584482
 20
12.73404
 30
0.0
 11
0.0
 21
29.2528141503808
 31
0.0
210
0.0
220
0.0
230
1.0
 40
0.51462
 41
4.7123889803846897
 42
1.5707963267948968
  0
ARC
  5
D2
100
AcDbEntity
  8
0
370
    -3
  6
Continuous
100
AcDbCircle
 10
-43.108736
 20
-131.296877
 30
0.0
 40
4.0
100
AcDbArc
 50
0.0
 51
88.0
  0
ARC
  5
D3
100
AcDbEntity
  8
0
370
    -3
  6
Continuous
100
AcDbCircle
 10
-38.108736
 20
-126.397897
 30
0.0
 40
3.0
100
AcDbArc
 50
180.0
 51
224.415309
  0
LINE
  5
D4
100
AcDbEntity
  8
0
370
    -3
  6
Continuous
100
AcDbLine
 10
-181.608736
 20
-39.469162
 30
0.0
 11
-181.608736
 21
-92.025142
 31
0.0
  0
LINE
  5
D5
100
AcDbEntity
  8
0
370
    -3
  6
Continuous
100
AcDbLine
 10
-241.42124
 20
-127.145149
 30
0.0
 11
-205.108736
 21
-124.299501
 31
0.0
  0
ARC
  5
D6
100
AcDbEntity
  8
0
370
    -3
  6
Continuous
100
AcDbCircle
 10
-241.108736
 20
-131.132923
 30
0.0
 40
4.0
100
AcDbArc
 50
94.480855
 51
180.0
  0
LINE
  5
D7
100
AcDbEntity
  8
0
370
    -3
  6
Continuous
100
AcDbLine
 10
-184.608736
 20
-37.469162
 30
0.0
 11
-183.608736
 21
-37.469162
 31
0.0
  0
ARC
  5
D8
100
AcDbEntity
  8
0
370
    -3
  6
Continuous
100
AcDbCircle
 10
-183.608736
 20
-39.469162
 30
0.0
 40
2.0
100
AcDbArc
 50
0.0
 51
90.0
  0
ARC
  5
D9
100
AcDbEntity
  8
0
370
    -3
  6
Continuous
100
AcDbCircle
 10
-205.521966
 20
-118.313489
 30
0.0
 40
6.0
100
AcDbArc
 50
274.480855
 51
326.898307
  0
ARC
  5
DA
100
AcDbEntity
  8
0
370
    -3
  6
Continuous
100
AcDbCircle
 10
-183.608736
 20
-92.025142
 30
0.0
 40
2.0
100
AcDbArc
 50
326.898307
 51
0.0
  0
LINE
  5
DB
100
AcDbEntity
  8
0
370
    -3
  6
Continuous
100
AcDbLine
 10
-181.933331
 20
-93.117395
 30
0.0
 11
-200.49575
 21
-121.590249
 31
0.0
  0
LINE
  5
DC
100
AcDbEntity
  8
0
370
    -3
  6
Continuous
100
AcDbLine
 10
-40.108736
 20
64.565879
 30
0.0
 11
-39.108736
 21
64.565879
 31
0.0
  0
LINE
  5
DD
100
AcDbEntity
  8
0
370
    -3
  6
Continuous
100
AcDbLine
 10
-40.108736
 20
-23.434121
 30
0.0
 11
-39.108736
 21
-23.434121
 31
0.0
  0
ARC
  5
DE
100
AcDbEntity
  8
0
370
    -3
  6
Continuous
100
AcDbCircle
 10
-45.530399
 20
-124.208043
 30
0.0
 40
3.0
100
AcDbArc
 50
180.0
 51
268.0
  0
ARC
  5
DF
100
AcDbEntity
  8
0
370
    -3
  6
Continuous
100
AcDbCircle
 10
-75.638565
 20
-123.156643
 30
0.0
 40
3.0
100
AcDbArc
 50
180.0
 51
268.0
  0
LINE
  5
E0
100
AcDbEntity
  8
0
370
    -3
  6
Continuous
100
AcDbLine
 10
-37.108736
 20
20.565879
 30
0.0
 11
-37.108736
 21
45.215879
 31
0.0
  0
LINE
  5
E1
100
AcDbEntity
  8
0
370
    -3
  6
Continuous
100
AcDbLine
 10
-35.108736
 20
44.415879
 30
0.0
 11
-34.548929
 21
44.565879
 31
0.0
  0
LINE
  5
E2
100
AcDbEntity
  8
0
370
    -3
  6
Continuous
100
AcDbLine
 10
-35.108736
 20
44.415879
 30
0.0
 11
-36.308736
 21
44.415879
 31
0.0
  0
LINE
  5
E3
100
AcDbEntity
  8
0
370
    -3
  6
Continuous
100
AcDbLine
 10
-37.108736
 20
45.215879
 30
0.0
 11
-37.108736
 21
45.365879
 31
0.0
  0
ARC
  5
E4
100
AcDbEntity
  8
0
370
    -3
  6
Continuous
100
AcDbCircle
 10
-36.308736
 20
45.215879
 30
0.0
 40
0.8
100
AcDbArc
 50
180.0
 51
270.0
  0
LINE
  5
E5
100
AcDbEntity
  8
0
370
    -3
  6
Continuous
100
AcDbLine
 10
-37.108736
 20
45.365879
 30
0.0
 11
-37.308736
 21
45.565879
 31
0.0
  0
LINE
  5
E6
100
AcDbEntity
  8
0
370
    -3
  6
Continuous
100
AcDbLine
 10
-37.108736
 20
20.565879
 30
0.0
 11
-37.108736
 21
-4.084121
 31
0.0
  0
LINE
  5
E7
100
AcDbEntity
  8
0
370
    -3
  6
Continuous
100
AcDbLine
 10
-35.108736
 20
-3.284121
 30
0.0
 11
-34.548929
 21
-3.434121
 31
0.0
  0
LINE
  5
E8
100
AcDbEntity
  8
0
370
    -3
  6
Continuous
100
AcDbLine
 10
-35.108736
 20
-3.284121
 30
0.0
 11
-36.308736
 21
-3.284121
 31
0.0
  0
LINE
  5
E9
100
AcDbEntity
  8
0
370
    -3
  6
Continuous
100
AcDbLine
 10
-37.108736
 20
-4.084121
 30
0.0
 11
-37.108736
 21
-4.234121
 31
0.0
  0
ARC
  5
EA
100
AcDbEntity
  8
0
370
    -3
  6
Continuous
100
AcDbCircle
 10
-36.308736
 20
-4.084121
 30
0.0
 40
0.8
100
AcDbArc
 50
90.0
 51
180.0
  0
LINE
  5
EB
100
AcDbEntity
  8
0
370
    -3
  6
Continuous
100
AcDbLine
 10
-37.108736
 20
-4.234121
 30
0.0
 11
-37.308736
 21
-4.434121
 31
0.0
  0
LINE
  5
EC
100
AcDbEntity
  8
0
370
    -3
  6
Continuous
100
AcDbLine
 10
37.491264
 20
-3.434121
 30
0.0
 11
-34.548929
 21
-3.434121
 31
0.0
  0
LINE
  5
ED
100
AcDbEntity
  8
0
370
    -3
  6
Continuous
100
AcDbLine
 10
37.891264
 20
20.565879
 30
0.0
 11
37.891264
 21
-3.034121
 31
0.0
  0
ARC
  5
EE
100
AcDbEntity
  8
0
370
    -3
  6
Continuous
100
AcDbCircle
 10
37.491264
 20
-3.034121
 30
0.0
 40
0.4
100
AcDbArc
 50
270.0
 51
0.0
  0
LINE
  5
EF
100
AcDbEntity
  8
0
370
    -3
  6
Continuous
100
AcDbLine
 10
37.491264
 20
44.565879
 30
0.0
 11
-34.548929
 21
44.565879
 31
0.0
  0
ARC
  5
F0
100
AcDbEntity
  8
0
370
    -3
  6
Continuous
100
AcDbCircle
 10
37.491264
 20
44.165879
 30
0.0
 40
0.4
100
AcDbArc
 50
0.0
 51
90.0
  0
LINE
  5
F1
100
AcDbEntity
  8
0
370
    -3
  6
Continuous
100
AcDbLine
 10
-37.308736
 20
-4.434121
 30
0.0
 11
-39.108736
 21
-4.434121
 31
0.0
  0
LINE
  5
F2
100
AcDbEntity
  8
0
370
    -3
  6
Continuous
100
AcDbLine
 10
-37.308736
 20
45.565879
 30
0.0
 11
-39.108736
 21
45.565879
 31
0.0
  0
LINE
  5
F3
100
AcDbEntity
  8
0
370
    -3
  6
CENTER
100
AcDbLine
 10
53.945446
 20
20.565879
 30
0.0
 11
-96.189476
 21
20.565879
 31
0.0
  0
LINE
  5
F4
100
AcDbEntity
  8
0
370
    -3
  6
Continuous
100
AcDbLine
 10
37.891264
 20
20.565879
 30
0.0
 11
37.891264
 21
44.165879
 31
0.0
  0
LINE
  5
F5
100
AcDbEntity
  8
0
370
    -3
  6
Continuous
100
AcDbLine
 10
37.891264
 20
13.534646
 30
0.0
 11
-25.109144
 21
13.534646
 31
0.0
  0
LINE
  5
F6
100
AcDbEntity
  8
0
370
    -3
  6
Continuous
100
AcDbLine
 10
37.891264
 20
27.534646
 30
0.0
 11
-25.109144
 21
27.534646
 31
0.0
  0
ARC
  5
F7
100
AcDbEntity
  8
0
370
    -3
  6
Continuous
100
AcDbCircle
 10
-25.109144
 20
20.534646
 30
0.0
 40
7.0
100
AcDbArc
 50
90.0
 51
270.0
  0
ARC
  5
F8
100
AcDbEntity
  8
0
370
    -3
  6
Continuous
100
AcDbCircle
 10
-211.108736
 20
-106.174073
 30
0.0
 40
3.0
100
AcDbArc
 50
0.0
 51
87.0
  0
LINE
  5
F9
100
AcDbEntity
  8
0
370
    -3
  6
Continuous
100
AcDbLine
 10
-208.108736
 20
-106.174073
 30
0.0
 11
-208.108736
 21
-110.569349
 31
0.0
  0
ARC
  5
FA
100
AcDbEntity
  8
0
370
    -3
  6
Continuous
100
AcDbCircle
 10
-201.108736
 20
-120.687888
 30
0.0
 40
5.0
100
AcDbArc
 50
45.287619
 51
87.0
  0
ARC
  5
FB
100
AcDbEntity
  8
0
370
    -3
  6
Continuous
100
AcDbCircle
 10
-203.108736
 20
-110.569349
 30
0.0
 40
5.0
100
AcDbArc
 50
180.0
 51
267.0
  0
LINE
  5
FC
100
AcDbEntity
  8
0
370
    -3
  6
Continuous
100
AcDbLine
 10
-203.370416
 20
-115.562497
 30
0.0
 11
-200.847056
 21
-115.694741
 31
0.0
  0
LINE
  5
FD
100
AcDbEntity
  8
0
370
    -3
  6
Continuous
100
AcDbLine
 10
-212.608736
 20
102.565879
 30
0.0
 11
-212.608736
 21
160.565879
 31
0.0
  0
LINE
  5
FE
100
AcDbEntity
  8
0
370
    -3
  6
Continuous
100
AcDbLine
 10
-212.608736
 20
160.565879
 30
0.0
 11
-208.108736
 21
160.565879
 31
0.0
  0
LINE
  5
FF
100
AcDbEntity
  8
0
370
    -3
  6
Continuous
100
AcDbLine
 10
-208.108736
 20
160.565879
 30
0.0
 11
-208.108736
 21
102.565879
 31
0.0
  0
LINE
  5
100
100
AcDbEntity
  8
0
370
    -3
  6
CENTER
100
AcDbLine
 10
-218.338984
 20
140.565879
 30
0.0
 11
-200.239718
 21
140.565879
 31
0.0
  0
LINE
  5
101
100
AcDbEntity
  8
0
370
    -3
  6
Continuous
100
AcDbLine
 10
-212.608736
 20
102.565879
 30
0.0
 11
-208.108736
 21
102.565879
 31
0.0
  0
LINE
  5
102
100
AcDbEntity
  8
0
370
    -3
  6
Continuous
100
AcDbLine
 10
-215.608736
 20
-19.434121
 30
0.0
 11
-215.608736
 21
62.167949
 31
0.0
  0
LINE
  5
103
100
AcDbEntity
  8
0
370
    -3
  6
Continuous
100
AcDbLine
 10
-215.608736
 20
-19.434121
 30
0.0
 11
-215.608736
 21
-101.036192
 31
0.0
  0
LINE
  5
104
100
AcDbEntity
  8
0
370
    -3
  6
Continuous
100
AcDbLine
 10
-217.608736
 20
-19.434121
 30
0.0
 11
-217.608736
 21
-93.434121
 31
0.0
  0
LINE
  5
105
100
AcDbEntity
  8
0
370
    -3
  6
Continuous
100
AcDbLine
 10
-217.608736
 20
-19.434121
 30
0.0
 11
-217.608736
 21
54.565879
 31
0.0
  0
ARC
  5
106
100
AcDbEntity
  8
0
370
    -3
  6
Continuous
100
AcDbCircle
 10
-206.108736
 20
123.565879
 30
0.0
 40
2.0
100
AcDbArc
 50
90.0
 51
180.0
  0
LINE
  5
107
100
AcDbEntity
  8
0
370
    -3
  6
Continuous
100
AcDbLine
 10
-208.108736
 20
103.565879
 30
0.0
 11
-208.108736
 21
123.565879
 31
0.0
  0
ARC
  5
108
100
AcDbEntity
  8
0
370
    -3
  6
Continuous
100
AcDbCircle
 10
-201.108736
 20
95.565879
 30
0.0
 40
5.0
100
AcDbArc
 50
0.0
 51
90.0
  0
ARC
  5
109
100
AcDbEntity
  8
0
370
    -3
  6
Continuous
100
AcDbCircle
 10
-207.108736
 20
97.909024
 30
0.0
 40
3.0
100
AcDbArc
 50
0.0
 51
70.528779
  0
ARC
  5
10A
100
AcDbEntity
  8
0
370
    -3
  6
Continuous
100
AcDbCircle
 10
-205.108736
 20
103.565879
 30
0.0
 40
3.0
100
AcDbArc
 50
180.0
 51
270.0
  0
LINE
  5
10B
100
AcDbEntity
  8
0
370
    -3
  6
Continuous
100
AcDbLine
 10
-205.108736
 20
100.565879
 30
0.0
 11
-201.108736
 21
100.565879
 31
0.0
  0
LINE
  5
10C
100
AcDbEntity
  8
0
370
    -3
  6
Continuous
100
AcDbLine
 10
-204.108736
 20
69.413391
 30
0.0
 11
-204.108736
 21
97.909024
 31
0.0
  0
ARC
  5
10D
100
AcDbEntity
  8
0
370
    -3
  6
Continuous
100
AcDbCircle
 10
-213.608736
 20
62.167949
 30
0.0
 40
2.0
100
AcDbArc
 50
93.0
 51
180.0
  0
ARC
  5
10E
100
AcDbEntity
  8
0
370
    -3
  6
Continuous
100
AcDbCircle
 10
-209.108736
 20
69.413391
 30
0.0
 40
5.0
100
AcDbArc
 50
273.0
 51
0.0
  0
LINE
  5
10F
100
AcDbEntity
  8
0
370
    -3
  6
Continuous
100
AcDbLine
 10
-200.847056
 20
64.839505
 30
0.0
 11
-213.713408
 21
64.165209
 31
0.0
  0
ARC
  5
110
100
AcDbEntity
  8
0
370
    -3
  6
Continuous
100
AcDbCircle
 10
-201.108736
 20
69.832653
 30
0.0
 40
5.0
100
AcDbArc
 50
273.0
 51
0.0
  0
ARC
  5
111
100
AcDbEntity
  8
0
370
    -3
  6
Continuous
100
AcDbCircle
 10
-217.608736
 20
56.565879
 30
0.0
 40
2.0
100
AcDbArc
 50
270.0
 51
0.0
  0
ARC
  5
112
100
AcDbEntity
  8
0
370
    -3
  6
Continuous
100
AcDbCircle
 10
-213.608736
 20
-101.036192
 30
0.0
 40
2.0
100
AcDbArc
 50
180.0
 51
267.0
  0
ARC
  5
113
100
AcDbEntity
  8
0
370
    -3
  6
Continuous
100
AcDbCircle
 10
-217.608736
 20
-95.434121
 30
0.0
 40
2.0
100
AcDbArc
 50
0.0
 51
90.0
  0
LINE
  5
114
100
AcDbEntity
  8
0
370
    -3
  6
Continuous
100
AcDbLine
 10
-200.847056
 20
-103.707748
 30
0.0
 11
-213.713408
 21
-103.033451
 31
0.0
  0
ARC
  5
115
100
AcDbEntity
  8
0
370
    -3
  6
Continuous
100
AcDbCircle
 10
-201.108736
 20
-108.700896
 30
0.0
 40
5.0
100
AcDbArc
 50
0.0
 51
87.0
  0
LINE
  5
116
100
AcDbEntity
  8
0
370
    -3
  6
Continuous
100
AcDbLine
 10
-185.108736
 20
-19.434121
 30
0.0
 11
-185.108736
 21
-97.988142
 31
0.0
  0
LINE
  5
117
100
AcDbEntity
  8
0
370
    -3
  6
Continuous
100
AcDbLine
 10
-201.108736
 20
-30.434121
 30
0.0
 11
-201.108736
 21
-23.434121
 31
0.0
  0
LINE
  5
118
100
AcDbEntity
  8
0
370
    -3
  6
Continuous
100
AcDbLine
 10
-201.108736
 20
-16.434121
 30
0.0
 11
-201.108736
 21
-23.434121
 31
0.0
  0
ARC
  5
119
100
AcDbEntity
  8
0
370
    -3
  6
Continuous
100
AcDbCircle
 10
-199.108736
 20
-36.350201
 30
0.0
 40
3.0
100
AcDbArc
 50
0.0
 51
80.405932
  0
ARC
  5
11A
100
AcDbEntity
  8
0
370
    -3
  6
Continuous
100
AcDbCircle
 10
-199.108736
 20
-10.518042
 30
0.0
 40
3.0
100
AcDbArc
 50
279.594068
 51
0.0
  0
ARC
  5
11B
100
AcDbEntity
  8
0
370
    -3
  6
Continuous
100
AcDbCircle
 10
-198.108736
 20
-30.434121
 30
0.0
 40
3.0
100
AcDbArc
 50
180.0
 51
260.405932
  0
ARC
  5
11C
100
AcDbEntity
  8
0
370
    -3
  6
Continuous
100
AcDbCircle
 10
-198.108736
 20
-16.434121
 30
0.0
 40
3.0
100
AcDbArc
 50
99.594068
 51
180.0
  0
ARC
  5
11D
100
AcDbEntity
  8
0
370
    -3
  6
Continuous
100
AcDbCircle
 10
-194.108736
 20
123.565879
 30
0.0
 40
2.0
100
AcDbArc
 50
90.0
 51
180.0
  0
LINE
  5
11E
100
AcDbEntity
  8
0
370
    -3
  6
Continuous
100
AcDbLine
 10
-196.108736
 20
-19.434121
 30
0.0
 11
-196.108736
 21
-114.861018
 31
0.0
  0
LINE
  5
11F
100
AcDbEntity
  8
0
370
    -3
  6
Continuous
100
AcDbLine
 10
-185.108736
 20
-19.434121
 30
0.0
 11
-185.108736
 21
125.565879
 31
0.0
  0
LINE
  5
120
100
AcDbEntity
  8
0
370
    -3
  6
Continuous
100
AcDbLine
 10
-206.108736
 20
125.565879
 30
0.0
 11
-185.108736
 21
125.565879
 31
0.0
  0
LINE
  5
121
100
AcDbEntity
  8
0
370
    -3
  6
Continuous
100
AcDbLine
 10
-196.108736
 20
-19.434121
 30
0.0
 11
-196.108736
 21
123.565879
 31
0.0
  0
INSERT
  5
12D
100
AcDbEntity
  8
0
100
AcDbBlockReference
  2
ZU_SYM__USERS_HOME_SYMBOL_POO_SYM_B20_-1
 10
-212.608736
 20
112.565879
 30
0.0
  0
INSERT
  5
139
100
AcDbEntity
  8
0
100
AcDbBlockReference
  2
ZU_SYM__USERS_HOME_SYMBOL_POO_SYM_B20_00001-1
 10
-196.108736
 20
-47.434121
 30
0.0
  0
INSERT
  5
145
100
AcDbEntity
  8
0
100
AcDbBlockReference
  2
ZU_SYM__USERS_HOME_SYMBOL_POO_SYM_B20_00002-1
 10
-196.108736
 20
42.565878
 30
0.0
  0
INSERT
  5
151
100
AcDbEntity
  8
0
100
AcDbBlockReference
  2
ZU_SYM__USERS_HOME_SYMBOL_POO_SYM_B20_00003-1
 10
-196.108736
 20
111.565878
 30
0.0
  0
ARC
  5
152
100
AcDbEntity
  8
0
370
    -3
  6
Continuous
100
AcDbCircle
 10
-201.108736
 20
329.418804
 30
0.0
 40
5.0
100
AcDbArc
 50
0.0
 51
88.0
  0
LINE
  5
153
100
AcDbEntity
  8
0
370
    -3
  6
Continuous
100
AcDbLine
 10
-200.934239
 20
334.415758
 30
0.0
 11
-205.213435
 21
334.565191
 31
0.0
  0
ARC
  5
154
100
AcDbEntity
  8
0
370
    -3
  6
Continuous
100
AcDbCircle
 10
-205.108736
 20
337.563363
 30
0.0
 40
3.0
100
AcDbArc
 50
180.0
 51
268.0
  0
LINE
  5
155
100
AcDbEntity
  8
0
370
    -3
  6
Continuous
100
AcDbLine
 10
-208.108736
 20
355.271059
 30
0.0
 11
-208.108736
 21
334.771059
 31
0.0
  0
LINE
  5
156
100
AcDbEntity
  8
0
370
    -3
  6
Continuous
100
AcDbLine
 10
-208.108736
 20
334.771059
 30
0.0
 11
-212.608736
 21
334.771059
 31
0.0
  0
LINE
  5
157
100
AcDbEntity
  8
0
370
    -3
  6
Continuous
100
AcDbLine
 10
-212.608736
 20
355.271059
 30
0.0
 11
-212.608736
 21
334.771059
 31
0.0
  0
LINE
  5
158
100
AcDbEntity
  8
0
370
    -3
  6
Continuous
100
AcDbLine
 10
-215.608736
 20
355.271059
 30
0.0
 11
-215.608736
 21
351.271059
 31
0.0
  0
LINE
  5
159
100
AcDbEntity
  8
0
370
    -3
  6
Continuous
100
AcDbLine
 10
-217.608736
 20
355.271059
 30
0.0
 11
-217.608736
 21
351.271059
 31
0.0
  0
LINE
  5
15A
100
AcDbEntity
  8
0
370
    -3
  6
Continuous
100
AcDbLine
 10
-185.108736
 20
355.271059
 30
0.0
 11
-185.108736
 21
490.271059
 31
0.0
  0
LINE
  5
15B
100
AcDbEntity
  8
0
370
    -3
  6
Continuous
100
AcDbLine
 10
-196.108736
 20
355.271059
 30
0.0
 11
-196.108736
 21
488.271059
 31
0.0
  0
ARC
  5
15C
100
AcDbEntity
  8
0
370
    -3
  6
Continuous
100
AcDbCircle
 10
-198.108736
 20
467.229099
 30
0.0
 40
3.0
100
AcDbArc
 50
180.0
 51
260.405932
  0
ARC
  5
15D
100
AcDbEntity
  8
0
370
    -3
  6
Continuous
100
AcDbCircle
 10
-201.108736
 20
381.123315
 30
0.0
 40
5.0
100
AcDbArc
 50
272.0
 51
0.0
  0
LINE
  5
15E
100
AcDbEntity
  8
0
370
    -3
  6
Continuous
100
AcDbLine
 10
-200.934239
 20
376.126361
 30
0.0
 11
-205.213435
 21
375.976928
 31
0.0
  0
ARC
  5
15F
100
AcDbEntity
  8
0
370
    -3
  6
Continuous
100
AcDbCircle
 10
-205.108736
 20
372.978755
 30
0.0
 40
3.0
100
AcDbArc
 50
92.0
 51
180.0
  0
LINE
  5
160
100
AcDbEntity
  8
0
370
    -3
  6
Continuous
100
AcDbLine
 10
-208.108736
 20
355.271059
 30
0.0
 11
-208.108736
 21
375.771059
 31
0.0
  0
LINE
  5
161
100
AcDbEntity
  8
0
370
    -3
  6
Continuous
100
AcDbLine
 10
-208.108736
 20
375.771059
 30
0.0
 11
-212.608736
 21
375.771059
 31
0.0
  0
LINE
  5
162
100
AcDbEntity
  8
0
370
    -3
  6
Continuous
100
AcDbLine
 10
-212.608736
 20
355.271059
 30
0.0
 11
-212.608736
 21
375.771059
 31
0.0
  0
ARC
  5
163
100
AcDbEntity
  8
0
370
    -3
  6
Continuous
100
AcDbCircle
 10
-213.608736
 20
436.87313
 30
0.0
 40
2.0
100
AcDbArc
 50
93.0
 51
180.0
  0
ARC
  5
164
100
AcDbEntity
  8
0
370
    -3
  6
Continuous
100
AcDbCircle
 10
-217.608736
 20
428.271059
 30
0.0
 40
2.0
100
AcDbArc
 50
270.0
 51
0.0
  0
LINE
  5
165
100
AcDbEntity
  8
0
370
    -3
  6
Continuous
100
AcDbLine
 10
-215.608736
 20
355.271059
 30
0.0
 11
-215.608736
 21
359.271059
 31
0.0
  0
LINE
  5
166
100
AcDbEntity
  8
0
370
    -3
  6
Continuous
100
AcDbLine
 10
-215.608736
 20
372.271059
 30
0.0
 11
-215.608736
 21
436.87313
 31
0.0
  0
LINE
  5
167
100
AcDbEntity
  8
0
370
    -3
  6
Continuous
100
AcDbLine
 10
-217.608736
 20
355.271059
 30
0.0
 11
-217.608736
 21
359.271059
 31
0.0
  0
LINE
  5
168
100
AcDbEntity
  8
0
370
    -3
  6
Continuous
100
AcDbLine
 10
-217.608736
 20
372.271059
 30
0.0
 11
-217.608736
 21
438.771059
 31
0.0
  0
ARC
  5
169
100
AcDbEntity
  8
0
370
    -3
  6
Continuous
100
AcDbCircle
 10
-199.108736
 20
460.765878
 30
0.0
 40
3.0
100
AcDbArc
 50
339.654138
 51
0.0
  0
LINE
  5
16A
100
AcDbEntity
  8
0
370
    -3
  6
Continuous
100
AcDbLine
 10
-211.88306
 20
417.688691
 30
0.0
 11
-196.295903
 21
459.722819
 31
0.0
  0
ARC
  5
16B
100
AcDbEntity
  8
0
370
    -3
  6
Continuous
100
AcDbCircle
 10
-214.695893
 20
418.73175
 30
0.0
 40
3.0
100
AcDbArc
 50
270.0
 51
339.654138
  0
LINE
  5
16C
100
AcDbEntity
  8
0
370
    -3
  6
Continuous
100
AcDbLine
 10
-211.88306
 20
415.73175
 30
0.0
 11
-197.854183
 21
415.73175
 31
0.0
  0
ARC
  5
16D
100
AcDbEntity
  8
0
370
    -3
  6
Continuous
100
AcDbCircle
 10
-214.695893
 20
423.382928
 30
0.0
 40
3.0
100
AcDbArc
 50
270.0
 51
339.654138
  0
ARC
  5
16E
100
AcDbEntity
  8
0
370
    -3
  6
Continuous
100
AcDbCircle
 10
-199.108736
 20
465.417056
 30
0.0
 40
3.0
100
AcDbArc
 50
339.654138
 51
0.0
  0
LINE
  5
16F
100
AcDbEntity
  8
0
370
    -3
  6
Continuous
100
AcDbLine
 10
-211.88306
 20
422.339869
 30
0.0
 11
-196.295903
 21
464.373997
 31
0.0
  0
ARC
  5
170
100
AcDbEntity
  8
0
370
    -3
  6
Continuous
100
AcDbCircle
 10
-199.108736
 20
461.313019
 30
0.0
 40
3.0
100
AcDbArc
 50
38.028903
 51
80.405932
  0
LINE
  5
171
100
AcDbEntity
  8
0
370
    -3
  6
Continuous
100
AcDbLine
 10
-205.595424
 20
439.295835
 30
0.0
 11
-213.713408
 21
438.870389
 31
0.0
  0
LINE
  5
172
100
AcDbEntity
  8
0
370
    -3
  6
Continuous
100
AcDbLine
 10
-40.108736
 20
399.271059
 30
0.0
 11
-39.108736
 21
399.271059
 31
0.0
  0
LINE
  5
173
100
AcDbEntity
  8
0
370
    -3
  6
Continuous
100
AcDbLine
 10
-57.045681
 20
458.27441
 30
0.0
 11
-49.92743
 21
458.150161
 31
0.0
  0
ARC
  5
174
100
AcDbEntity
  8
0
370
    -3
  6
Continuous
100
AcDbCircle
 10
-49.979787
 20
455.150617
 30
0.0
 40
3.0
100
AcDbArc
 50
38.568938
 51
89.0
  0
ARC
  5
175
100
AcDbEntity
  8
0
370
    -3
  6
Continuous
100
AcDbCircle
 10
-56.661728
 20
480.271059
 30
0.0
 40
22.0
100
AcDbArc
 50
182.147817
 51
269.0
  0
ARC
  5
176
100
AcDbEntity
  8
0
370
    -3
  6
Continuous
100
AcDbCircle
 10
-114.092191
 20
404.027241
 30
0.0
 40
85.0
100
AcDbArc
 50
31.41034
 51
38.568938
  0
ARC
  5
177
100
AcDbEntity
  8
0
370
    -3
  6
Continuous
100
AcDbCircle
 10
-44.108736
 20
446.76266
 30
0.0
 40
3.0
100
AcDbArc
 50
0.0
 51
31.41034
  0
LINE
  5
178
100
AcDbEntity
  8
0
370
    -3
  6
Continuous
100
AcDbLine
 10
-39.108736
 20
355.271059
 30
0.0
 11
-39.108736
 21
487.944087
 31
0.0
  0
LINE
  5
179
100
AcDbEntity
  8
0
370
    -3
  6
CENTER
100
AcDbLine
 10
51.721633
 20
355.271059
 30
0.0
 11
-466.256082
 21
355.271059
 31
0.0
  0
LINE
  5
17A
100
AcDbEntity
  8
0
370
    -3
  6
Continuous
100
AcDbLine
 10
-239.108736
 20
460.354134
 30
0.0
 11
-209.725493
 21
460.354134
 31
0.0
  0
ARC
  5
17B
100
AcDbEntity
  8
0
370
    -3
  6
Continuous
100
AcDbCircle
 10
-40.108736
 20
400.271059
 30
0.0
 40
1.0
100
AcDbArc
 50
180.0
 51
270.0
  0
LINE
  5
17C
100
AcDbEntity
  8
0
370
    -3
  6
Continuous
100
AcDbLine
 10
-41.108736
 20
355.271059
 30
0.0
 11
-41.108736
 21
446.76266
 31
0.0
  0
LINE
  5
17D
100
AcDbEntity
  8
0
370
    -3
  6
Continuous
100
AcDbLine
 10
-184.608736
 20
355.271059
 30
0.0
 11
-184.608736
 21
490.271059
 31
0.0
  0
LINE
  5
17E
100
AcDbEntity
  8
0
370
    -3
  6
Continuous
100
AcDbLine
 10
-245.108736
 20
457.598032
 30
0.0
 11
-245.108736
 21
488.155099
 31
0.0
  0
LINE
  5
17F
100
AcDbEntity
  8
0
370
    -3
  6
Continuous
100
AcDbLine
 10
-235.28326
 20
447.599555
 30
0.0
 11
-202.726954
 21
447.031283
 31
0.0
  0
ARC
  5
180
100
AcDbEntity
  8
0
370
    -3
  6
Continuous
100
AcDbCircle
 10
-235.108736
 20
457.598032
 30
0.0
 40
10.0
100
AcDbArc
 50
180.0
 51
269.0
  0
ARC
  5
181
100
AcDbEntity
  8
0
370
    -3
  6
Continuous
100
AcDbCircle
 10
37.491264
 20
331.671059
 30
0.0
 40
0.4
100
AcDbArc
 50
270.0
 51
0.0
  0
LINE
  5
182
100
AcDbEntity
  8
0
370
    -3
  6
Continuous
100
AcDbLine
 10
37.491264
 20
331.271059
 30
0.0
 11
-34.548929
 21
331.271059
 31
0.0
  0
LINE
  5
183
100
AcDbEntity
  8
0
370
    -3
  6
Continuous
100
AcDbLine
 10
37.891264
 20
355.271059
 30
0.0
 11
37.891264
 21
327.771059
 31
0.0
  0
LINE
  5
184
100
AcDbEntity
  8
0
370
    -3
  6
Continuous
100
AcDbLine
 10
37.891264
 20
327.771059
 30
0.0
 11
-32.108736
 21
327.771059
 31
0.0
  0
ARC
  5
185
100
AcDbEntity
  8
0
370
    -3
  6
Continuous
100
AcDbCircle
 10
37.491264
 20
378.871059
 30
0.0
 40
0.4
100
AcDbArc
 50
0.0
 51
90.0
  0
LINE
  5
186
100
AcDbEntity
  8
0
370
    -3
  6
Continuous
100
AcDbLine
 10
37.891264
 20
355.271059
 30
0.0
 11
37.891264
 21
378.871059
 31
0.0
  0
LINE
  5
187
100
AcDbEntity
  8
0
370
    -3
  6
Continuous
100
AcDbLine
 10
37.491264
 20
379.271059
 30
0.0
 11
-34.548929
 21
379.271059
 31
0.0
  0
LINE
  5
188
100
AcDbEntity
  8
0
370
    -3
  6
Continuous
100
AcDbLine
 10
-37.108736
 20
330.471059
 30
0.0
 11
-37.308736
 21
330.271059
 31
0.0
  0
ARC
  5
189
100
AcDbEntity
  8
0
370
    -3
  6
Continuous
100
AcDbCircle
 10
-36.308736
 20
330.621059
 30
0.0
 40
0.8
100
AcDbArc
 50
90.0
 51
180.0
  0
LINE
  5
18A
100
AcDbEntity
  8
0
370
    -3
  6
Continuous
100
AcDbLine
 10
-37.108736
 20
330.621059
 30
0.0
 11
-37.108736
 21
330.471059
 31
0.0
  0
LINE
  5
18B
100
AcDbEntity
  8
0
370
    -3
  6
Continuous
100
AcDbLine
 10
-35.108736
 20
331.421059
 30
0.0
 11
-36.308736
 21
331.421059
 31
0.0
  0
LINE
  5
18C
100
AcDbEntity
  8
0
370
    -3
  6
Continuous
100
AcDbLine
 10
-35.108736
 20
331.421059
 30
0.0
 11
-34.548929
 21
331.271059
 31
0.0
  0
LINE
  5
18D
100
AcDbEntity
  8
0
370
    -3
  6
Continuous
100
AcDbLine
 10
-37.308736
 20
330.271059
 30
0.0
 11
-39.108736
 21
330.271059
 31
0.0
  0
LINE
  5
18E
100
AcDbEntity
  8
0
370
    -3
  6
Continuous
100
AcDbLine
 10
-37.108736
 20
355.271059
 30
0.0
 11
-37.108736
 21
330.621059
 31
0.0
  0
LINE
  5
18F
100
AcDbEntity
  8
0
370
    -3
  6
Continuous
100
AcDbLine
 10
-37.108736
 20
380.071059
 30
0.0
 11
-37.308736
 21
380.271059
 31
0.0
  0
ARC
  5
190
100
AcDbEntity
  8
0
370
    -3
  6
Continuous
100
AcDbCircle
 10
-36.308736
 20
379.921059
 30
0.0
 40
0.8
100
AcDbArc
 50
180.0
 51
270.0
  0
LINE
  5
191
100
AcDbEntity
  8
0
370
    -3
  6
Continuous
100
AcDbLine
 10
-37.108736
 20
379.921059
 30
0.0
 11
-37.108736
 21
380.071059
 31
0.0
  0
LINE
  5
192
100
AcDbEntity
  8
0
370
    -3
  6
Continuous
100
AcDbLine
 10
-35.108736
 20
379.121059
 30
0.0
 11
-36.308736
 21
379.121059
 31
0.0
  0
LINE
  5
193
100
AcDbEntity
  8
0
370
    -3
  6
Continuous
100
AcDbLine
 10
-35.108736
 20
379.121059
 30
0.0
 11
-34.548929
 21
379.271059
 31
0.0
  0
LINE
  5
194
100
AcDbEntity
  8
0
370
    -3
  6
Continuous
100
AcDbLine
 10
-37.308736
 20
380.271059
 30
0.0
 11
-39.108736
 21
380.271059
 31
0.0
  0
LINE
  5
195
100
AcDbEntity
  8
0
370
    -3
  6
Continuous
100
AcDbLine
 10
-37.108736
 20
355.271059
 30
0.0
 11
-37.108736
 21
379.921059
 31
0.0
  0
LINE
  5
196
100
AcDbEntity
  8
0
370
    -3
  6
Continuous
100
AcDbLine
 10
-32.108736
 20
327.771059
 30
0.0
 11
-32.108736
 21
331.271059
 31
0.0
  0
LINE
  5
197
100
AcDbEntity
  8
0
370
    -3
  6
Continuous
100
AcDbLine
 10
-204.108735
 20
399.637184
 30
0.0
 11
-204.108735
 21
410.90513
 31
0.0
  0
LINE
  5
198
100
AcDbEntity
  8
0
370
    -3
  6
Continuous
100
AcDbLine
 10
-196.108736
 20
398.771059
 30
0.0
 11
-203.608735
 21
398.771059
 31
0.0
  0
LINE
  5
199
100
AcDbEntity
  8
0
370
    -3
  6
Continuous
100
AcDbLine
 10
-196.108736
 20
411.771059
 30
0.0
 11
-203.608734
 21
411.771059
 31
0.0
  0
LINE
  5
19A
100
AcDbEntity
  8
0
370
    -3
  6
Continuous
100
AcDbLine
 10
-203.608735
 20
398.771059
 30
0.0
 11
-204.108735
 21
399.637183
 31
0.0
  0
LINE
  5
19B
100
AcDbEntity
  8
0
370
    -3
  6
Continuous
100
AcDbLine
 10
-203.608734
 20
411.771059
 30
0.0
 11
-204.108735
 21
410.90513
 31
0.0
  0
LINE
  5
19C
100
AcDbEntity
  8
0
370
    -3
  6
Continuous
100
AcDbLine
 10
-203.608735
 20
398.771059
 30
0.0
 11
-203.608735
 21
411.771059
 31
0.0
  0
LINE
  5
19D
100
AcDbEntity
  8
0
370
    -3
  6
Continuous
100
AcDbLine
 10
-220.608735
 20
350.404935
 30
0.0
 11
-220.608735
 21
339.136989
 31
0.0
  0
LINE
  5
19E
100
AcDbEntity
  8
0
370
    -3
  6
Continuous
100
AcDbLine
 10
-212.608736
 20
351.271059
 30
0.0
 11
-220.108735
 21
351.271059
 31
0.0
  0
LINE
  5
19F
100
AcDbEntity
  8
0
370
    -3
  6
Continuous
100
AcDbLine
 10
-212.608736
 20
338.271059
 30
0.0
 11
-220.108734
 21
338.271059
 31
0.0
  0
LINE
  5
1A0
100
AcDbEntity
  8
0
370
    -3
  6
Continuous
100
AcDbLine
 10
-220.108735
 20
351.271059
 30
0.0
 11
-220.608735
 21
350.404935
 31
0.0
  0
LINE
  5
1A1
100
AcDbEntity
  8
0
370
    -3
  6
Continuous
100
AcDbLine
 10
-220.108734
 20
338.271059
 30
0.0
 11
-220.608735
 21
339.136989
 31
0.0
  0
LINE
  5
1A2
100
AcDbEntity
  8
0
370
    -3
  6
Continuous
100
AcDbLine
 10
-220.108735
 20
351.271059
 30
0.0
 11
-220.108735
 21
338.271059
 31
0.0
  0
LINE
  5
1A3
100
AcDbEntity
  8
0
370
    -3
  6
Continuous
100
AcDbLine
 10
-220.608735
 20
360.137184
 30
0.0
 11
-220.608735
 21
371.40513
 31
0.0
  0
LINE
  5
1A4
100
AcDbEntity
  8
0
370
    -3
  6
Continuous
100
AcDbLine
 10
-212.608736
 20
359.271059
 30
0.0
 11
-220.108735
 21
359.271059
 31
0.0
  0
LINE
  5
1A5
100
AcDbEntity
  8
0
370
    -3
  6
Continuous
100
AcDbLine
 10
-212.608736
 20
372.271059
 30
0.0
 11
-220.108734
 21
372.271059
 31
0.0
  0
LINE
  5
1A6
100
AcDbEntity
  8
0
370
    -3
  6
Continuous
100
AcDbLine
 10
-220.108735
 20
359.271059
 30
0.0
 11
-220.608735
 21
360.137183
 31
0.0
  0
LINE
  5
1A7
100
AcDbEntity
  8
0
370
    -3
  6
Continuous
100
AcDbLine
 10
-220.108734
 20
372.271059
 30
0.0
 11
-220.608735
 21
371.40513
 31
0.0
  0
LINE
  5
1A8
100
AcDbEntity
  8
0
370
    -3
  6
Continuous
100
AcDbLine
 10
-220.108735
 20
359.271059
 30
0.0
 11
-220.108735
 21
372.271059
 31
0.0
  0
LINE
  5
1A9
100
AcDbEntity
  8
0
370
    -3
  6
Continuous
100
AcDbLine
 10
-623.696035
 20
150.565879
 30
0.0
 11
-623.696035
 21
125.215568
 31
0.0
  0
ARC
  5
1AA
100
AcDbEntity
  8
0
370
    -3
  6
Continuous
100
AcDbCircle
 10
-633.696035
 20
150.565879
 30
0.0
 40
10.0
100
AcDbArc
 50
0.0
 51
90.0
  0
ARC
  5
1AB
100
AcDbEntity
  8
0
370
    -3
  6
Continuous
100
AcDbCircle
 10
-654.696035
 20
150.565879
 30
0.0
 40
10.0
100
AcDbArc
 50
90.0
 51
180.0
  0
LINE
  5
1AC
100
AcDbEntity
  8
0
370
    -3
  6
Continuous
100
AcDbLine
 10
-664.696035
 20
150.565879
 30
0.0
 11
-664.696035
 21
125.215568
 31
0.0
  0
LINE
  5
1AD
100
AcDbEntity
  8
0
370
    -3
  6
Continuous
100
AcDbLine
 10
-633.696035
 20
160.565879
 30
0.0
 11
-654.696035
 21
160.565879
 31
0.0
  0
LINE
  5
1AE
100
AcDbEntity
  8
0
370
    -3
  6
CENTER
100
AcDbLine
 10
-621.028122
 20
140.565879
 30
0.0
 11
-668.050636
 21
140.565879
 31
0.0
  0
CIRCLE
  5
1AF
100
AcDbEntity
  8
0
370
    -3
  6
Continuous
100
AcDbCircle
 10
-644.196035
 20
140.565879
 30
0.0
 40
10.0
  0
ARC
  5
1B0
100
AcDbEntity
  8
0
370
    -3
  6
Continuous
100
AcDbCircle
 10
-644.196035
 20
-474.434122
 30
0.0
 40
600.0
100
AcDbArc
 50
91.957987
 51
92.924524
  0
ARC
  5
1B1
100
AcDbEntity
  8
0
370
    -3
  6
Continuous
100
AcDbCircle
 10
-644.196035
 20
-474.434122
 30
0.0
 40
600.0
100
AcDbArc
 50
87.075476
 51
88.042013
  0
ARC
  5
1B2
100
AcDbEntity
  8
0
370
    -3
  6
Continuous
100
AcDbCircle
 10
-506.196035
 20
-124.434121
 30
0.0
 40
3.0
100
AcDbArc
 50
180.0
 51
270.0
  0
LINE
  5
1B3
100
AcDbEntity
  8
0
370
    -3
  6
Continuous
100
AcDbLine
 10
-509.196035
 20
-66.234121
 30
0.0
 11
-509.196035
 21
-124.434121
 31
0.0
  0
LINE
  5
1B4
100
AcDbEntity
  8
0
370
    -3
  6
Continuous
100
AcDbLine
 10
-779.196035
 20
14.927707
 30
0.0
 11
-779.196035
 21
-124.434121
 31
0.0
  0
LINE
  5
1B5
100
AcDbEntity
  8
0
370
    -3
  6
Continuous
100
AcDbLine
 10
-501.696035
 20
-130.434121
 30
0.0
 11
-501.696035
 21
-149.434121
 31
0.0
  0
LINE
  5
1B6
100
AcDbEntity
  8
0
370
    -3
  6
CENTER
100
AcDbLine
 10
-519.196035
 20
-123.221289
 30
0.0
 11
-519.196035
 21
-154.06606
 31
0.0
  0
ARC
  5
1B7
100
AcDbEntity
  8
0
370
    -3
  6
Continuous
100
AcDbCircle
 10
-504.696035
 20
-130.434121
 30
0.0
 40
3.0
100
AcDbArc
 50
0.0
 51
90.0
  0
LINE
  5
1B8
100
AcDbEntity
  8
0
370
    -3
  6
Continuous
100
AcDbLine
 10
-536.572036
 20
-127.434121
 30
0.0
 11
-504.696035
 21
-127.434121
 31
0.0
  0
ARC
  5
1B9
100
AcDbEntity
  8
0
370
    -3
  6
Continuous
100
AcDbCircle
 10
-783.696035
 20
-130.434121
 30
0.0
 40
3.0
100
AcDbArc
 50
90.0
 51
180.0
  0
LINE
  5
1BA
100
AcDbEntity
  8
0
370
    -3
  6
Continuous
100
AcDbLine
 10
-786.696035
 20
-130.434121
 30
0.0
 11
-786.696035
 21
-149.434121
 31
0.0
  0
LINE
  5
1BB
100
AcDbEntity
  8
0
370
    -3
  6
CENTER
100
AcDbLine
 10
-769.196035
 20
-123.221289
 30
0.0
 11
-769.196035
 21
-154.06606
 31
0.0
  0
LINE
  5
1BC
100
AcDbEntity
  8
0
370
    -3
  6
Continuous
100
AcDbLine
 10
-551.696035
 20
-143.352882
 30
0.0
 11
-551.696035
 21
-149.434121
 31
0.0
  0
LINE
  5
1BD
100
AcDbEntity
  8
0
370
    -3
  6
Continuous
100
AcDbLine
 10
-551.696035
 20
-149.434121
 30
0.0
 11
-501.696035
 21
-149.434121
 31
0.0
  0
LINE
  5
1BE
100
AcDbEntity
  8
0
370
    -3
  6
Continuous
100
AcDbLine
 10
-778.517223
 20
-40.007768
 30
0.0
 11
-763.104018
 21
-97.649723
 31
0.0
  0
LINE
  5
1BF
100
AcDbEntity
  8
0
370
    -3
  6
Continuous
100
AcDbLine
 10
-644.196035
 20
-147.434121
 30
0.0
 11
-553.696035
 21
-147.434121
 31
0.0
  0
ARC
  5
1C0
100
AcDbEntity
  8
0
370
    -3
  6
Continuous
100
AcDbCircle
 10
-597.644383
 20
-71.314172
 30
0.0
 40
77.0
100
AcDbArc
 50
305.114467
 51
340.0
  0
ARC
  5
1C1
100
AcDbEntity
  8
0
370
    -3
  6
Continuous
100
AcDbCircle
 10
-782.196035
 20
-124.434121
 30
0.0
 40
3.0
100
AcDbArc
 50
270.0
 51
0.0
  0
ARC
  5
1C2
100
AcDbEntity
  8
0
370
    -3
  6
Continuous
100
AcDbCircle
 10
-759.196035
 20
-34.841367
 30
0.0
 40
20.0
100
AcDbArc
 50
180.0
 51
194.970401
  0
ARC
  5
1C3
100
AcDbEntity
  8
0
370
    -3
  6
Continuous
100
AcDbCircle
 10
-553.696035
 20
-149.434121
 30
0.0
 40
2.0
100
AcDbArc
 50
0.0
 51
90.0
  0
ARC
  5
1C4
100
AcDbEntity
  8
0
370
    -3
  6
Continuous
100
AcDbCircle
 10
-669.196035
 20
14.927707
 30
0.0
 40
110.0
100
AcDbArc
 50
92.924524
 51
180.0
  0
ARC
  5
1C5
100
AcDbEntity
  8
0
370
    -3
  6
Continuous
100
AcDbCircle
 10
-773.196035
 20
-102.075672
 30
0.0
 40
6.0
100
AcDbArc
 50
20.460558
 51
180.0
  0
ARC
  5
1C6
100
AcDbEntity
  8
0
370
    -3
  6
Continuous
100
AcDbCircle
 10
-515.196035
 20
-102.075672
 30
0.0
 40
6.0
100
AcDbArc
 50
0.0
 51
159.539442
  0
ARC
  5
1C7
100
AcDbEntity
  8
0
370
    -3
  6
Continuous
100
AcDbCircle
 10
-597.644383
 20
-71.314172
 30
0.0
 40
82.0
100
AcDbArc
 50
306.828805
 51
339.539442
  0
ARC
  5
1C8
100
AcDbEntity
  8
0
370
    -3
  6
Continuous
100
AcDbCircle
 10
-543.696035
 20
-143.352882
 30
0.0
 40
8.0
100
AcDbArc
 50
126.828805
 51
180.0
  0
ARC
  5
1C9
100
AcDbEntity
  8
0
370
    -3
  6
Continuous
100
AcDbCircle
 10
-536.572036
 20
-130.434121
 30
0.0
 40
3.0
100
AcDbArc
 50
90.0
 51
135.930628
  0
ARC
  5
1CA
100
AcDbEntity
  8
0
370
    -3
  6
Continuous
100
AcDbCircle
 10
-566.696035
 20
-139.434121
 30
0.0
 40
10.0
100
AcDbArc
 50
306.869898
 51
355.505843
  0
ARC
  5
1CB
100
AcDbEntity
  8
0
370
    -3
  6
Continuous
100
AcDbCircle
 10
-548.751379
 20
-140.844555
 30
0.0
 40
8.0
100
AcDbArc
 50
125.114467
 51
175.505843
  0
ARC
  5
1CC
100
AcDbEntity
  8
0
370
    -3
  6
Continuous
100
AcDbCircle
 10
-619.196035
 20
14.927707
 30
0.0
 40
110.0
100
AcDbArc
 50
6.492565
 51
87.075476
  0
ARC
  5
1CD
100
AcDbEntity
  8
0
370
    -3
  6
Continuous
100
AcDbCircle
 10
-753.359771
 20
77.708799
 30
0.0
 40
5.0
100
AcDbArc
 50
45.0
 51
143.279272
  0
ARC
  5
1CE
100
AcDbEntity
  8
0
370
    -3
  6
Continuous
100
AcDbCircle
 10
-742.100849
 20
90.491508
 30
0.0
 40
5.0
100
AcDbArc
 50
133.973976
 51
225.0
  0
LINE
  5
1CF
100
AcDbEntity
  8
0
370
    -3
  6
Continuous
100
AcDbLine
 10
-644.196035
 20
100.565879
 30
0.0
 11
-626.696035
 21
100.565879
 31
0.0
  0
LINE
  5
1D0
100
AcDbEntity
  8
0
370
    -3
  6
Continuous
100
AcDbLine
 10
-661.696035
 20
100.565879
 30
0.0
 11
-644.196035
 21
100.565879
 31
0.0
  0
LINE
  5
1D1
100
AcDbEntity
  8
0
370
    -3
  6
Continuous
100
AcDbLine
 10
-623.696035
 20
125.215567
 30
0.0
 11
-623.696035
 21
103.565879
 31
0.0
  0
LINE
  5
1D2
100
AcDbEntity
  8
0
370
    -3
  6
Continuous
100
AcDbLine
 10
-664.696035
 20
125.215567
 30
0.0
 11
-664.696035
 21
103.565879
 31
0.0
  0
ARC
  5
1D3
100
AcDbEntity
  8
0
370
    -3
  6
Continuous
100
AcDbCircle
 10
-652.696035
 20
95.565879
 30
0.0
 40
5.0
100
AcDbArc
 50
0.0
 51
90.0
  0
ARC
  5
1D4
100
AcDbEntity
  8
0
370
    -3
  6
Continuous
100
AcDbCircle
 10
-635.696035
 20
95.565879
 30
0.0
 40
5.0
100
AcDbArc
 50
90.0
 51
180.0
  0
ARC
  5
1D5
100
AcDbEntity
  8
0
370
    -3
  6
Continuous
100
AcDbCircle
 10
-644.196035
 20
-474.434122
 30
0.0
 40
600.0
100
AcDbArc
 50
91.957987
 51
92.924524
  0
ARC
  5
1D6
100
AcDbEntity
  8
0
370
    -3
  6
Continuous
100
AcDbCircle
 10
-644.196035
 20
-474.434122
 30
0.0
 40
600.0
100
AcDbArc
 50
87.075476
 51
88.042013
  0
ARC
  5
1D7
100
AcDbEntity
  8
0
370
    -3
  6
Continuous
100
AcDbCircle
 10
-626.696035
 20
103.565879
 30
0.0
 40
3.0
100
AcDbArc
 50
270.0
 51
0.0
  0
ARC
  5
1D8
100
AcDbEntity
  8
0
370
    -3
  6
Continuous
100
AcDbCircle
 10
-661.696035
 20
103.565879
 30
0.0
 40
3.0
100
AcDbArc
 50
180.0
 51
270.0
  0
ARC
  5
1D9
100
AcDbEntity
  8
0
370
    -3
  6
Continuous
100
AcDbCircle
 10
-535.032299
 20
77.708799
 30
0.0
 40
5.0
100
AcDbArc
 50
36.720728
 51
135.0
  0
ARC
  5
1DA
100
AcDbEntity
  8
0
370
    -3
  6
Continuous
100
AcDbCircle
 10
-546.29122
 20
90.491508
 30
0.0
 40
5.0
100
AcDbArc
 50
315.0
 51
46.026024
  0
LINE
  5
1DB
100
AcDbEntity
  8
0
370
    -3
  6
Continuous
100
AcDbLine
 10
-779.196035
 20
14.927707
 30
0.0
 11
-779.196035
 21
-34.841367
 31
0.0
  0
LINE
  5
1DC
100
AcDbEntity
  8
0
370
    -3
  6
Continuous
100
AcDbLine
 10
-647.696035
 20
96.565879
 30
0.0
 11
-647.696035
 21
69.065879
 31
0.0
  0
LINE
  5
1DD
100
AcDbEntity
  8
0
370
    -3
  6
Continuous
100
AcDbLine
 10
-640.696035
 20
95.565879
 30
0.0
 11
-640.696035
 21
69.065879
 31
0.0
  0
LINE
  5
1DE
100
AcDbEntity
  8
0
370
    -3
  6
Continuous
100
AcDbLine
 10
-516.887658
 20
-66.234121
 30
0.0
 11
-525.288051
 21
-97.649723
 31
0.0
  0
LINE
  5
1DF
100
AcDbEntity
  8
0
370
    -3
  6
CENTER
100
AcDbLine
 10
-673.025788
 20
20.565879
 30
0.0
 11
-615.545978
 21
20.565879
 31
0.0
  0
LINE
  5
1E0
100
AcDbEntity
  8
0
370
    -3
  6
CENTER
100
AcDbLine
 10
-644.196035
 20
174.393464
 30
0.0
 11
-644.196035
 21
-166.536154
 31
0.0
  0
LINE
  5
1E1
100
AcDbEntity
  8
0
370
    -3
  6
Continuous
100
AcDbLine
 10
-558.960546
 20
-99.719863
 30
0.0
 11
-542.338077
 21
-116.342331
 31
0.0
  0
LINE
  5
1E2
100
AcDbEntity
  8
0
370
    -3
  6
Continuous
100
AcDbLine
 10
-562.968786
 20
-105.611117
 30
0.0
 11
-546.653454
 21
-121.92645
 31
0.0
  0
LINE
  5
1E3
100
AcDbEntity
  8
0
370
    -3
  6
Continuous
100
AcDbLine
 10
-579.637186
 20
50.074475
 30
0.0
 11
-542.755686
 21
86.955974
 31
0.0
  0
LINE
  5
1E4
100
AcDbEntity
  8
0
370
    -3
  6
Continuous
100
AcDbLine
 10
-574.687438
 20
45.124728
 30
0.0
 11
-538.567833
 21
81.244333
 31
0.0
  0
LINE
  5
1E5
100
AcDbEntity
  8
0
370
    -3
  6
Continuous
100
AcDbLine
 10
-708.754884
 20
50.074475
 30
0.0
 11
-745.636383
 21
86.955974
 31
0.0
  0
LINE
  5
1E6
100
AcDbEntity
  8
0
370
    -3
  6
Continuous
100
AcDbLine
 10
-711.472742
 20
-91.660576
 30
0.0
 11
-741.738615
 21
-121.92645
 31
0.0
  0
ARC
  5
1E7
100
AcDbEntity
  8
0
370
    -3
  6
Continuous
100
AcDbCircle
 10
-652.696035
 20
69.065879
 30
0.0
 40
5.0
100
AcDbArc
 50
345.912121
 51
0.0
  0
ARC
  5
1E8
100
AcDbEntity
  8
0
370
    -3
  6
Continuous
100
AcDbCircle
 10
-635.696035
 20
69.065879
 30
0.0
 40
5.0
100
AcDbArc
 50
180.0
 51
194.087879
  0
ARC
  5
1E9
100
AcDbEntity
  8
0
370
    -3
  6
Continuous
100
AcDbCircle
 10
-555.425012
 20
-96.184329
 30
0.0
 40
5.0
100
AcDbArc
 50
149.498945
 51
225.0
  0
ARC
  5
1EA
100
AcDbEntity
  8
0
370
    -3
  6
Continuous
100
AcDbCircle
 10
-566.50432
 20
-109.146651
 30
0.0
 40
5.0
100
AcDbArc
 50
45.0
 51
129.457931
  0
ARC
  5
1EB
100
AcDbEntity
  8
0
370
    -3
  6
Continuous
100
AcDbCircle
 10
-675.390964
 20
-77.596621
 30
0.0
 40
32.0
100
AcDbArc
 50
201.710622
 51
296.004303
  0
ARC
  5
1EC
100
AcDbEntity
  8
0
370
    -3
  6
Continuous
100
AcDbCircle
 10
-597.644383
 20
-71.314172
 30
0.0
 40
44.0
100
AcDbArc
 50
232.524505
 51
28.233717
  0
ARC
  5
1ED
100
AcDbEntity
  8
0
370
    -3
  6
Continuous
100
AcDbCircle
 10
-707.937208
 20
-95.19611
 30
0.0
 40
5.0
100
AcDbArc
 50
28.402452
 51
135.0
  0
LINE
  5
1EE
100
AcDbEntity
  8
0
370
    -3
  6
Continuous
100
AcDbLine
 10
-644.196035
 20
-147.434121
 30
0.0
 11
-560.696035
 21
-147.434121
 31
0.0
  0
ARC
  5
1EF
100
AcDbEntity
  8
0
370
    -3
  6
Continuous
100
AcDbCircle
 10
-566.696035
 20
-139.434121
 30
0.0
 40
10.0
100
AcDbArc
 50
306.869898
 51
355.505843
  0
ARC
  5
1F0
100
AcDbEntity
  8
0
370
    -3
  6
Continuous
100
AcDbCircle
 10
-548.751379
 20
-140.844555
 30
0.0
 40
8.0
100
AcDbArc
 50
125.114467
 51
175.505843
  0
ARC
  5
1F1
100
AcDbEntity
  8
0
370
    -3
  6
Continuous
100
AcDbCircle
 10
-597.644383
 20
-71.314172
 30
0.0
 40
77.0
100
AcDbArc
 50
305.114467
 51
340.0
  0
ARC
  5
1F2
100
AcDbEntity
  8
0
370
    -3
  6
Continuous
100
AcDbCircle
 10
-550.188988
 20
-125.461984
 30
0.0
 40
5.0
100
AcDbArc
 50
311.231476
 51
45.0
  0
ARC
  5
1F3
100
AcDbEntity
  8
0
370
    -3
  6
Continuous
100
AcDbCircle
 10
-538.802544
 20
-112.806797
 30
0.0
 40
5.0
100
AcDbArc
 50
225.0
 51
324.810226
  0
ARC
  5
1F4
100
AcDbEntity
  8
0
370
    -3
  6
Continuous
100
AcDbCircle
 10
-759.196035
 20
-34.841367
 30
0.0
 40
20.0
100
AcDbArc
 50
180.0
 51
194.970401
  0
ARC
  5
1F5
100
AcDbEntity
  8
0
370
    -3
  6
Continuous
100
AcDbCircle
 10
-749.589526
 20
-112.806797
 30
0.0
 40
5.0
100
AcDbArc
 50
215.189774
 51
315.0
  0
LINE
  5
1F6
100
AcDbEntity
  8
0
370
    -3
  6
Continuous
100
AcDbLine
 10
-766.196035
 20
-36.434121
 30
0.0
 11
-775.565214
 21
-36.434121
 31
0.0
  0
LINE
  5
1F7
100
AcDbEntity
  8
0
370
    -3
  6
Continuous
100
AcDbLine
 10
-766.196035
 20
-10.434121
 30
0.0
 11
-776.196035
 21
-10.434121
 31
0.0
  0
ARC
  5
1F8
100
AcDbEntity
  8
0
370
    -3
  6
Continuous
100
AcDbCircle
 10
-766.196035
 20
-23.434121
 30
0.0
 40
13.0
100
AcDbArc
 50
270.0
 51
90.0
  0
ARC
  5
1F9
100
AcDbEntity
  8
0
370
    -3
  6
Continuous
100
AcDbCircle
 10
-776.196035
 20
-7.434121
 30
0.0
 40
3.0
100
AcDbArc
 50
180.0
 51
270.0
  0
ARC
  5
1FA
100
AcDbEntity
  8
0
370
    -3
  6
Continuous
100
AcDbCircle
 10
-775.565214
 20
-39.434121
 30
0.0
 40
3.0
100
AcDbArc
 50
90.0
 51
194.970401
  0
LINE
  5
1FB
100
AcDbEntity
  8
0
370
    -3
  6
CENTER
100
AcDbLine
 10
-792.43406
 20
-19.434121
 30
0.0
 11
-485.34473
 21
-19.434121
 31
0.0
  0
LINE
  5
1FC
100
AcDbEntity
  8
0
370
    -3
  6
Continuous
100
AcDbLine
 10
-713.704631
 20
-83.992971
 30
0.0
 11
-746.053992
 21
-116.342331
 31
0.0
  0
LINE
  5
1FD
100
AcDbEntity
  8
0
370
    -3
  6
Continuous
100
AcDbLine
 10
-713.704631
 20
45.124728
 30
0.0
 11
-749.824237
 21
81.244333
 31
0.0
  0
ARC
  5
1FE
100
AcDbEntity
  8
0
370
    -3
  6
Continuous
100
AcDbCircle
 10
-669.196035
 20
14.927707
 30
0.0
 40
110.0
100
AcDbArc
 50
92.924524
 51
180.0
  0
ARC
  5
1FF
100
AcDbEntity
  8
0
370
    -3
  6
Continuous
100
AcDbCircle
 10
-738.203082
 20
-125.461984
 30
0.0
 40
5.0
100
AcDbArc
 50
135.0
 51
228.768524
  0
LINE
  5
200
100
AcDbEntity
  8
0
370
    -3
  6
Continuous
100
AcDbLine
 10
-644.196035
 20
-147.434121
 30
0.0
 11
-734.696035
 21
-147.434121
 31
0.0
  0
LINE
  5
201
100
AcDbEntity
  8
0
370
    -3
  6
Continuous
100
AcDbLine
 10
-736.696035
 20
-149.434121
 30
0.0
 11
-786.696035
 21
-149.434121
 31
0.0
  0
LINE
  5
202
100
AcDbEntity
  8
0
370
    -3
  6
Continuous
100
AcDbLine
 10
-736.696035
 20
-143.352882
 30
0.0
 11
-736.696035
 21
-149.434121
 31
0.0
  0
LINE
  5
203
100
AcDbEntity
  8
0
370
    -3
  6
Continuous
100
AcDbLine
 10
-751.820034
 20
-127.434121
 30
0.0
 11
-783.696035
 21
-127.434121
 31
0.0
  0
ARC
  5
204
100
AcDbEntity
  8
0
370
    -3
  6
Continuous
100
AcDbCircle
 10
-690.747687
 20
-71.314172
 30
0.0
 40
77.0
100
AcDbArc
 50
200.0
 51
234.885533
  0
ARC
  5
205
100
AcDbEntity
  8
0
370
    -3
  6
Continuous
100
AcDbCircle
 10
-734.696035
 20
-149.434121
 30
0.0
 40
2.0
100
AcDbArc
 50
90.0
 51
180.0
  0
ARC
  5
206
100
AcDbEntity
  8
0
370
    -3
  6
Continuous
100
AcDbCircle
 10
-690.747687
 20
-71.314172
 30
0.0
 40
82.0
100
AcDbArc
 50
200.460558
 51
233.171195
  0
ARC
  5
207
100
AcDbEntity
  8
0
370
    -3
  6
Continuous
100
AcDbCircle
 10
-744.696035
 20
-143.352882
 30
0.0
 40
8.0
100
AcDbArc
 50
0.0
 51
53.171195
  0
ARC
  5
208
100
AcDbEntity
  8
0
370
    -3
  6
Continuous
100
AcDbCircle
 10
-751.820034
 20
-130.434121
 30
0.0
 40
3.0
100
AcDbArc
 50
44.069372
 51
90.0
  0
ARC
  5
209
100
AcDbEntity
  8
0
370
    -3
  6
Continuous
100
AcDbCircle
 10
-721.696035
 20
-139.434121
 30
0.0
 40
10.0
100
AcDbArc
 50
184.494157
 51
233.130102
  0
ARC
  5
20A
100
AcDbEntity
  8
0
370
    -3
  6
Continuous
100
AcDbCircle
 10
-739.640691
 20
-140.844555
 30
0.0
 40
8.0
100
AcDbArc
 50
4.494157
 51
54.885533
  0
ARC
  5
20B
100
AcDbEntity
  8
0
370
    -3
  6
Continuous
100
AcDbCircle
 10
-739.640691
 20
-140.844555
 30
0.0
 40
8.0
100
AcDbArc
 50
4.494157
 51
54.885533
  0
ARC
  5
20C
100
AcDbEntity
  8
0
370
    -3
  6
Continuous
100
AcDbCircle
 10
-721.696035
 20
-139.434121
 30
0.0
 40
10.0
100
AcDbArc
 50
184.494157
 51
233.130102
  0
LINE
  5
20D
100
AcDbEntity
  8
0
370
    -3
  6
Continuous
100
AcDbLine
 10
-644.196035
 20
-147.434121
 30
0.0
 11
-727.696035
 21
-147.434121
 31
0.0
  0
ARC
  5
20E
100
AcDbEntity
  8
0
370
    -3
  6
Continuous
100
AcDbCircle
 10
-644.196035
 20
-19.434121
 30
0.0
 40
76.8
100
AcDbArc
 50
38.737581
 51
51.262419
  0
ARC
  5
20F
100
AcDbEntity
  8
0
370
    -3
  6
Continuous
100
AcDbCircle
 10
-644.196035
 20
284.065879
 30
0.0
 40
374.8
100
AcDbArc
 50
270.0
 51
272.979907
  0
ARC
  5
210
100
AcDbEntity
  8
0
370
    -3
  6
Continuous
100
AcDbCircle
 10
-947.696035
 20
-19.434121
 30
0.0
 40
374.8
100
AcDbArc
 50
360.0
 51
2.979907
  0
ARC
  5
211
100
AcDbEntity
  8
0
370
    -3
  6
Continuous
100
AcDbCircle
 10
-947.696035
 20
-19.434121
 30
0.0
 40
374.8
100
AcDbArc
 50
357.020093
 51
0.0
  0
ARC
  5
212
100
AcDbEntity
  8
0
370
    -3
  6
Continuous
100
AcDbCircle
 10
-623.135491
 20
-36.329491
 30
0.0
 40
49.8
100
AcDbArc
 50
321.262419
 51
357.020093
  0
ARC
  5
213
100
AcDbEntity
  8
0
370
    -3
  6
Continuous
100
AcDbCircle
 10
-644.196035
 20
-19.434121
 30
0.0
 40
76.8
100
AcDbArc
 50
308.737581
 51
321.262419
  0
ARC
  5
214
100
AcDbEntity
  8
0
370
    -3
  6
Continuous
100
AcDbCircle
 10
-627.300665
 20
-40.494665
 30
0.0
 40
49.8
100
AcDbArc
 50
272.979907
 51
308.737581
  0
ARC
  5
215
100
AcDbEntity
  8
0
370
    -3
  6
Continuous
100
AcDbCircle
 10
-644.196035
 20
284.065879
 30
0.0
 40
374.8
100
AcDbArc
 50
267.020093
 51
270.0
  0
ARC
  5
216
100
AcDbEntity
  8
0
370
    -3
  6
Continuous
100
AcDbCircle
 10
-644.196035
 20
-19.434121
 30
0.0
 40
76.8
100
AcDbArc
 50
218.737581
 51
231.262419
  0
ARC
  5
217
100
AcDbEntity
  8
0
370
    -3
  6
Continuous
100
AcDbCircle
 10
-661.091404
 20
-40.494665
 30
0.0
 40
49.8
100
AcDbArc
 50
231.262419
 51
267.020093
  0
ARC
  5
218
100
AcDbEntity
  8
0
370
    -3
  6
Continuous
100
AcDbCircle
 10
-665.256578
 20
-36.329491
 30
0.0
 40
49.8
100
AcDbArc
 50
182.979907
 51
218.737581
  0
ARC
  5
219
100
AcDbEntity
  8
0
370
    -3
  6
Continuous
100
AcDbCircle
 10
-340.696035
 20
-19.434121
 30
0.0
 40
374.8
100
AcDbArc
 50
180.0
 51
182.979907
  0
ARC
  5
21A
100
AcDbEntity
  8
0
370
    -3
  6
Continuous
100
AcDbCircle
 10
-665.256578
 20
-2.538752
 30
0.0
 40
49.8
100
AcDbArc
 50
141.262419
 51
177.020093
  0
ARC
  5
21B
100
AcDbEntity
  8
0
370
    -3
  6
Continuous
100
AcDbCircle
 10
-644.196035
 20
-19.434121
 30
0.0
 40
76.8
100
AcDbArc
 50
128.737581
 51
141.262419
  0
ARC
  5
21C
100
AcDbEntity
  8
0
370
    -3
  6
Continuous
100
AcDbCircle
 10
-661.091404
 20
1.626422
 30
0.0
 40
49.8
100
AcDbArc
 50
92.979907
 51
128.737581
  0
ARC
  5
21D
100
AcDbEntity
  8
0
370
    -3
  6
Continuous
100
AcDbCircle
 10
-644.196035
 20
-322.934121
 30
0.0
 40
374.8
100
AcDbArc
 50
90.0
 51
92.979907
  0
ARC
  5
21E
100
AcDbEntity
  8
0
370
    -3
  6
Continuous
100
AcDbCircle
 10
-644.196035
 20
-322.934121
 30
0.0
 40
374.8
100
AcDbArc
 50
87.020093
 51
90.0
  0
ARC
  5
21F
100
AcDbEntity
  8
0
370
    -3
  6
Continuous
100
AcDbCircle
 10
-627.300665
 20
1.626422
 30
0.0
 40
49.8
100
AcDbArc
 50
51.262419
 51
87.020093
  0
ARC
  5
220
100
AcDbEntity
  8
0
370
    -3
  6
Continuous
100
AcDbCircle
 10
-623.135491
 20
-2.538752
 30
0.0
 40
49.8
100
AcDbArc
 50
2.979907
 51
38.737581
  0
ARC
  5
221
100
AcDbEntity
  8
0
370
    -3
  6
Continuous
100
AcDbCircle
 10
-644.196035
 20
-19.434121
 30
0.0
 40
92.8
100
AcDbArc
 50
308.737581
 51
321.262419
  0
ARC
  5
222
100
AcDbEntity
  8
0
370
    -3
  6
Continuous
100
AcDbCircle
 10
-627.300665
 20
-40.494665
 30
0.0
 40
65.8
100
AcDbArc
 50
272.979907
 51
308.737581
  0
ARC
  5
223
100
AcDbEntity
  8
0
370
    -3
  6
Continuous
100
AcDbCircle
 10
-644.196035
 20
-19.434121
 30
0.0
 40
92.8
100
AcDbArc
 50
218.737581
 51
231.262419
  0
ARC
  5
224
100
AcDbEntity
  8
0
370
    -3
  6
Continuous
100
AcDbCircle
 10
-661.091404
 20
-40.494665
 30
0.0
 40
65.8
100
AcDbArc
 50
231.262419
 51
267.020093
  0
ARC
  5
225
100
AcDbEntity
  8
0
370
    -3
  6
Continuous
100
AcDbCircle
 10
-665.256578
 20
-36.329491
 30
0.0
 40
65.8
100
AcDbArc
 50
182.979907
 51
218.737581
  0
ARC
  5
226
100
AcDbEntity
  8
0
370
    -3
  6
Continuous
100
AcDbCircle
 10
-644.196035
 20
-19.434121
 30
0.0
 40
92.8
100
AcDbArc
 50
128.737581
 51
141.262419
  0
ARC
  5
227
100
AcDbEntity
  8
0
370
    -3
  6
Continuous
100
AcDbCircle
 10
-665.256578
 20
-2.538752
 30
0.0
 40
65.8
100
AcDbArc
 50
141.262419
 51
177.020093
  0
ARC
  5
228
100
AcDbEntity
  8
0
370
    -3
  6
Continuous
100
AcDbCircle
 10
-661.091404
 20
1.626422
 30
0.0
 40
65.8
100
AcDbArc
 50
92.979907
 51
128.737581
  0
ARC
  5
229
100
AcDbEntity
  8
0
370
    -3
  6
Continuous
100
AcDbCircle
 10
-644.196035
 20
-19.434121
 30
0.0
 40
92.8
100
AcDbArc
 50
38.737581
 51
51.262419
  0
ARC
  5
22A
100
AcDbEntity
  8
0
370
    -3
  6
Continuous
100
AcDbCircle
 10
-627.300665
 20
1.626422
 30
0.0
 40
65.8
100
AcDbArc
 50
51.262419
 51
87.020093
  0
ARC
  5
22B
100
AcDbEntity
  8
0
370
    -3
  6
Continuous
100
AcDbCircle
 10
-623.135491
 20
-2.538752
 30
0.0
 40
65.8
100
AcDbArc
 50
2.979907
 51
38.737581
  0
ARC
  5
22C
100
AcDbEntity
  8
0
370
    -3
  6
Continuous
100
AcDbCircle
 10
-947.696035
 20
-19.434121
 30
0.0
 40
390.8
100
AcDbArc
 50
357.020093
 51
2.979907
  0
ARC
  5
22D
100
AcDbEntity
  8
0
370
    -3
  6
Continuous
100
AcDbCircle
 10
-623.135491
 20
-36.329491
 30
0.0
 40
65.8
100
AcDbArc
 50
321.262419
 51
357.020093
  0
CIRCLE
  5
22E
100
AcDbEntity
  8
0
370
    -3
  6
Continuous
100
AcDbCircle
 10
-644.196035
 20
-19.434121
 30
0.0
 40
5.0
  0
LINE
  5
22F
100
AcDbEntity
  8
0
370
    -3
  6
Continuous
100
AcDbLine
 10
-636.248813
 20
-11.381689
 30
0.0
 11
-632.990229
 21
-9.500345
 31
0.0
  0
LINE
  5
230
100
AcDbEntity
  8
0
370
    -3
  6
Continuous
100
AcDbLine
 10
-640.196035
 20
-9.041817
 30
0.0
 11
-640.196035
 21
-5.142515
 31
0.0
  0
LINE
  5
231
100
AcDbEntity
  8
0
370
    -3
  6
Continuous
100
AcDbLine
 10
-648.196035
 20
-9.041817
 30
0.0
 11
-648.196035
 21
-5.142515
 31
0.0
  0
LINE
  5
232
100
AcDbEntity
  8
0
370
    -3
  6
Continuous
100
AcDbLine
 10
-633.248813
 20
-16.577842
 30
0.0
 11
-629.990229
 21
-14.696497
 31
0.0
  0
ARC
  5
233
100
AcDbEntity
  8
0
370
    -3
  6
Continuous
100
AcDbCircle
 10
-644.196035
 20
-19.434121
 30
0.0
 40
65.0
100
AcDbArc
 50
335.465024
 51
25.447929
  0
ARC
  5
234
100
AcDbEntity
  8
0
370
    -3
  6
Continuous
100
AcDbCircle
 10
-592.308536
 20
16.296643
 30
0.0
 40
2.0
100
AcDbArc
 50
300.0
 51
34.552071
  0
ARC
  5
235
100
AcDbEntity
  8
0
370
    -3
  6
Continuous
100
AcDbCircle
 10
-638.196035
 20
43.279513
 30
0.0
 40
2.0
100
AcDbArc
 50
84.534976
 51
180.0
  0
ARC
  5
236
100
AcDbEntity
  8
0
370
    -3
  6
Continuous
100
AcDbCircle
 10
-650.196035
 20
43.279513
 30
0.0
 40
2.0
100
AcDbArc
 50
0.0
 51
95.465024
  0
ARC
  5
237
100
AcDbEntity
  8
0
370
    -3
  6
Continuous
100
AcDbCircle
 10
-587.308536
 20
7.636388
 30
0.0
 40
2.0
100
AcDbArc
 50
25.447929
 51
120.0
  0
LINE
  5
238
100
AcDbEntity
  8
0
370
    -3
  6
Continuous
100
AcDbLine
 10
-652.143256
 20
-11.381689
 30
0.0
 11
-655.40184
 21
-9.500345
 31
0.0
  0
ARC
  5
239
100
AcDbEntity
  8
0
370
    -3
  6
Continuous
100
AcDbCircle
 10
-696.083533
 20
16.296643
 30
0.0
 40
2.0
100
AcDbArc
 50
145.447929
 51
240.0
  0
ARC
  5
23A
100
AcDbEntity
  8
0
370
    -3
  6
Continuous
100
AcDbCircle
 10
-644.196035
 20
-19.434121
 30
0.0
 40
65.0
100
AcDbArc
 50
95.465024
 51
145.447929
  0
LINE
  5
23B
100
AcDbEntity
  8
0
370
    -3
  6
Continuous
100
AcDbLine
 10
-648.196035
 20
42.274873
 30
0.0
 11
-648.196035
 21
43.279513
 31
0.0
  0
LINE
  5
23C
100
AcDbEntity
  8
0
370
    -3
  6
Continuous
100
AcDbLine
 10
-648.196035
 20
29.700897
 30
0.0
 11
-648.196035
 21
33.225161
 31
0.0
  0
LINE
  5
23D
100
AcDbEntity
  8
0
370
    -3
  6
Continuous
100
AcDbLine
 10
-648.196035
 20
17.076151
 30
0.0
 11
-648.196035
 21
20.618968
 31
0.0
  0
LINE
  5
23E
100
AcDbEntity
  8
0
370
    -3
  6
Continuous
100
AcDbLine
 10
-648.196035
 20
4.319826
 30
0.0
 11
-648.196035
 21
7.915467
 31
0.0
  0
LINE
  5
23F
100
AcDbEntity
  8
0
370
    -3
  6
Continuous
100
AcDbLine
 10
-640.196035
 20
42.274873
 30
0.0
 11
-640.196035
 21
43.279513
 31
0.0
  0
LINE
  5
240
100
AcDbEntity
  8
0
370
    -3
  6
Continuous
100
AcDbLine
 10
-640.196035
 20
29.700897
 30
0.0
 11
-640.196035
 21
33.225161
 31
0.0
  0
LINE
  5
241
100
AcDbEntity
  8
0
370
    -3
  6
Continuous
100
AcDbLine
 10
-640.196035
 20
17.076151
 30
0.0
 11
-640.196035
 21
20.618968
 31
0.0
  0
LINE
  5
242
100
AcDbEntity
  8
0
370
    -3
  6
Continuous
100
AcDbLine
 10
-640.196035
 20
4.319826
 30
0.0
 11
-640.196035
 21
7.915467
 31
0.0
  0
LINE
  5
243
100
AcDbEntity
  8
0
370
    -3
  6
Continuous
100
AcDbLine
 10
-696.214723
 20
14.062984
 30
0.0
 11
-697.083533
 21
14.564592
 31
0.0
  0
LINE
  5
244
100
AcDbEntity
  8
0
370
    -3
  6
Continuous
100
AcDbLine
 10
-685.345038
 20
7.787368
 30
0.0
 11
-688.390673
 21
9.545767
 31
0.0
  0
LINE
  5
245
100
AcDbEntity
  8
0
370
    -3
  6
Continuous
100
AcDbLine
 10
-674.44505
 20
1.494258
 30
0.0
 11
-677.501745
 21
3.259041
 31
0.0
  0
LINE
  5
246
100
AcDbEntity
  8
0
370
    -3
  6
Continuous
100
AcDbLine
 10
-663.467108
 20
-4.84386
 30
0.0
 11
-666.554995
 21
-3.061068
 31
0.0
  0
LINE
  5
247
100
AcDbEntity
  8
0
370
    -3
  6
Continuous
100
AcDbLine
 10
-592.177346
 20
14.062984
 30
0.0
 11
-591.308536
 21
14.564592
 31
0.0
  0
LINE
  5
248
100
AcDbEntity
  8
0
370
    -3
  6
Continuous
100
AcDbLine
 10
-603.047031
 20
7.787368
 30
0.0
 11
-600.001396
 21
9.545767
 31
0.0
  0
LINE
  5
249
100
AcDbEntity
  8
0
370
    -3
  6
Continuous
100
AcDbLine
 10
-613.947019
 20
1.494258
 30
0.0
 11
-610.890324
 21
3.259041
 31
0.0
  0
LINE
  5
24A
100
AcDbEntity
  8
0
370
    -3
  6
Continuous
100
AcDbLine
 10
-624.924961
 20
-4.84386
 30
0.0
 11
-621.837074
 21
-3.061068
 31
0.0
  0
LINE
  5
24B
100
AcDbEntity
  8
0
370
    -3
  6
Continuous
100
AcDbLine
 10
-589.177346
 20
8.866831
 30
0.0
 11
-588.308536
 21
9.368439
 31
0.0
  0
LINE
  5
24C
100
AcDbEntity
  8
0
370
    -3
  6
Continuous
100
AcDbLine
 10
-600.047031
 20
2.591216
 30
0.0
 11
-597.001396
 21
4.349614
 31
0.0
  0
LINE
  5
24D
100
AcDbEntity
  8
0
370
    -3
  6
Continuous
100
AcDbLine
 10
-610.947019
 20
-3.701895
 30
0.0
 11
-607.890324
 21
-1.937111
 31
0.0
  0
LINE
  5
24E
100
AcDbEntity
  8
0
370
    -3
  6
Continuous
100
AcDbLine
 10
-621.924961
 20
-10.040013
 30
0.0
 11
-618.837074
 21
-8.25722
 31
0.0
  0
ARC
  5
24F
100
AcDbEntity
  8
0
370
    -3
  6
Continuous
100
AcDbCircle
 10
-644.196035
 20
-19.434121
 30
0.0
 40
65.0
100
AcDbArc
 50
34.552071
 51
84.534976
  0
ARC
  5
250
100
AcDbEntity
  8
0
370
    -3
  6
Continuous
100
AcDbCircle
 10
-644.196035
 20
-19.434121
 30
0.0
 40
65.0
100
AcDbArc
 50
154.552071
 51
204.534976
  0
LINE
  5
251
100
AcDbEntity
  8
0
370
    -3
  6
Continuous
100
AcDbLine
 10
-699.214723
 20
8.866831
 30
0.0
 11
-700.083533
 21
9.368439
 31
0.0
  0
ARC
  5
252
100
AcDbEntity
  8
0
370
    -3
  6
Continuous
100
AcDbCircle
 10
-701.083533
 20
7.636388
 30
0.0
 40
2.0
100
AcDbArc
 50
60.0
 51
154.552071
  0
LINE
  5
253
100
AcDbEntity
  8
0
370
    -3
  6
Continuous
100
AcDbLine
 10
-699.637592
 20
-46.824517
 30
0.0
 11
-700.507636
 21
-47.326837
 31
0.0
  0
ARC
  5
254
100
AcDbEntity
  8
0
370
    -3
  6
Continuous
100
AcDbCircle
 10
-701.507636
 20
-45.594786
 30
0.0
 40
2.0
100
AcDbArc
 50
204.534976
 51
300.0
  0
LINE
  5
255
100
AcDbEntity
  8
0
370
    -3
  6
Continuous
100
AcDbLine
 10
-688.748209
 20
-40.537529
 30
0.0
 11
-691.800311
 21
-42.299661
 31
0.0
  0
LINE
  5
256
100
AcDbEntity
  8
0
370
    -3
  6
Continuous
100
AcDbLine
 10
-688.345038
 20
2.591216
 30
0.0
 11
-691.390673
 21
4.349614
 31
0.0
  0
LINE
  5
257
100
AcDbEntity
  8
0
370
    -3
  6
Continuous
100
AcDbLine
 10
-677.44505
 20
-3.701895
 30
0.0
 11
-680.501745
 21
-1.937111
 31
0.0
  0
LINE
  5
258
100
AcDbEntity
  8
0
370
    -3
  6
Continuous
100
AcDbLine
 10
-655.143256
 20
-16.577842
 30
0.0
 11
-658.40184
 21
-14.696497
 31
0.0
  0
LINE
  5
259
100
AcDbEntity
  8
0
370
    -3
  6
Continuous
100
AcDbLine
 10
-655.196035
 20
-21.166172
 30
0.0
 11
-658.572928
 21
-23.115823
 31
0.0
  0
LINE
  5
25A
100
AcDbEntity
  8
0
370
    -3
  6
Continuous
100
AcDbLine
 10
-666.767556
 20
-27.846993
 30
0.0
 11
-669.881473
 21
-29.644814
 31
0.0
  0
LINE
  5
25B
100
AcDbEntity
  8
0
370
    -3
  6
Continuous
100
AcDbLine
 10
-677.814858
 20
-34.225156
 30
0.0
 11
-680.883028
 21
-35.996565
 31
0.0
  0
LINE
  5
25C
100
AcDbEntity
  8
0
370
    -3
  6
Continuous
100
AcDbLine
 10
-666.467108
 20
-10.040013
 30
0.0
 11
-669.554995
 21
-8.25722
 31
0.0
  0
ARC
  5
25D
100
AcDbEntity
  8
0
370
    -3
  6
Continuous
100
AcDbCircle
 10
-644.196035
 20
-19.434121
 30
0.0
 40
65.0
100
AcDbArc
 50
215.465024
 51
265.447929
  0
LINE
  5
25E
100
AcDbEntity
  8
0
370
    -3
  6
Continuous
100
AcDbLine
 10
-647.196035
 20
-30.342834
 30
0.0
 11
-647.196035
 21
-34.105522
 31
0.0
  0
LINE
  5
25F
100
AcDbEntity
  8
0
370
    -3
  6
Continuous
100
AcDbLine
 10
-651.196035
 20
-28.094375
 30
0.0
 11
-654.572928
 21
-30.044026
 31
0.0
  0
LINE
  5
260
100
AcDbEntity
  8
0
370
    -3
  6
Continuous
100
AcDbLine
 10
-673.814858
 20
-41.153359
 30
0.0
 11
-676.883028
 21
-42.924768
 31
0.0
  0
LINE
  5
261
100
AcDbEntity
  8
0
370
    -3
  6
Continuous
100
AcDbLine
 10
-684.748209
 20
-47.465732
 30
0.0
 11
-687.800311
 21
-49.227864
 31
0.0
  0
LINE
  5
262
100
AcDbEntity
  8
0
370
    -3
  6
Continuous
100
AcDbLine
 10
-695.637592
 20
-53.75272
 30
0.0
 11
-696.507636
 21
-54.25504
 31
0.0
  0
LINE
  5
263
100
AcDbEntity
  8
0
370
    -3
  6
Continuous
100
AcDbLine
 10
-647.196035
 20
-81.23218
 30
0.0
 11
-647.196035
 21
-82.235395
 31
0.0
  0
ARC
  5
264
100
AcDbEntity
  8
0
370
    -3
  6
Continuous
100
AcDbCircle
 10
-649.196035
 20
-82.235395
 30
0.0
 40
2.0
100
AcDbArc
 50
265.447929
 51
0.0
  0
LINE
  5
265
100
AcDbEntity
  8
0
370
    -3
  6
Continuous
100
AcDbLine
 10
-647.196035
 20
-68.680949
 30
0.0
 11
-647.196035
 21
-72.197745
 31
0.0
  0
LINE
  5
266
100
AcDbEntity
  8
0
370
    -3
  6
Continuous
100
AcDbLine
 10
-647.196035
 20
-56.094727
 30
0.0
 11
-647.196035
 21
-59.624294
 31
0.0
  0
LINE
  5
267
100
AcDbEntity
  8
0
370
    -3
  6
Continuous
100
AcDbLine
 10
-647.196035
 20
-43.418491
 30
0.0
 11
-647.196035
 21
-46.984076
 31
0.0
  0
ARC
  5
268
100
AcDbEntity
  8
0
370
    -3
  6
Continuous
100
AcDbCircle
 10
-644.196035
 20
-19.434121
 30
0.0
 40
65.0
100
AcDbArc
 50
274.552071
 51
324.534976
  0
LINE
  5
269
100
AcDbEntity
  8
0
370
    -3
  6
Continuous
100
AcDbLine
 10
-641.196035
 20
-81.23218
 30
0.0
 11
-641.196035
 21
-82.235395
 31
0.0
  0
ARC
  5
26A
100
AcDbEntity
  8
0
370
    -3
  6
Continuous
100
AcDbCircle
 10
-639.196035
 20
-82.235395
 30
0.0
 40
2.0
100
AcDbArc
 50
180.0
 51
274.552071
  0
LINE
  5
26B
100
AcDbEntity
  8
0
370
    -3
  6
Continuous
100
AcDbLine
 10
-641.196035
 20
-68.680949
 30
0.0
 11
-641.196035
 21
-72.197745
 31
0.0
  0
LINE
  5
26C
100
AcDbEntity
  8
0
370
    -3
  6
Continuous
100
AcDbLine
 10
-641.196035
 20
-56.094727
 30
0.0
 11
-641.196035
 21
-59.624294
 31
0.0
  0
LINE
  5
26D
100
AcDbEntity
  8
0
370
    -3
  6
Continuous
100
AcDbLine
 10
-641.196035
 20
-43.418491
 30
0.0
 11
-641.196035
 21
-46.984076
 31
0.0
  0
LINE
  5
26E
100
AcDbEntity
  8
0
370
    -3
  6
Continuous
100
AcDbLine
 10
-641.196035
 20
-30.342834
 30
0.0
 11
-641.196035
 21
-34.105522
 31
0.0
  0
ARC
  5
26F
100
AcDbEntity
  8
0
370
    -3
  6
Continuous
100
AcDbCircle
 10
-340.696035
 20
-19.434121
 30
0.0
 40
374.8
100
AcDbArc
 50
177.020093
 51
180.0
  0
ARC
  5
270
100
AcDbEntity
  8
0
370
    -3
  6
Continuous
100
AcDbCircle
 10
-644.196035
 20
-322.934121
 30
0.0
 40
390.8
100
AcDbArc
 50
87.020093
 51
92.979907
  0
ARC
  5
271
100
AcDbEntity
  8
0
370
    -3
  6
Continuous
100
AcDbCircle
 10
-340.696035
 20
-19.434121
 30
0.0
 40
390.8
100
AcDbArc
 50
177.020093
 51
182.979907
  0
ARC
  5
272
100
AcDbEntity
  8
0
370
    -3
  6
Continuous
100
AcDbCircle
 10
-644.196035
 20
284.065879
 30
0.0
 40
390.8
100
AcDbArc
 50
267.020093
 51
272.979907
  0
ARC
  5
273
100
AcDbEntity
  8
0
370
    -3
  6
Continuous
100
AcDbCircle
 10
-644.196035
 20
-19.434121
 30
0.0
 40
60.0
100
AcDbArc
 50
95.553444
 51
145.374349
  0
ARC
  5
274
100
AcDbEntity
  8
0
370
    -3
  6
Continuous
100
AcDbCircle
 10
-644.196035
 20
-19.434121
 30
0.0
 40
60.0
100
AcDbArc
 50
154.625651
 51
204.446556
  0
ARC
  5
275
100
AcDbEntity
  8
0
370
    -3
  6
Continuous
100
AcDbCircle
 10
-644.196035
 20
-19.434121
 30
0.0
 40
60.0
100
AcDbArc
 50
215.553444
 51
265.374349
  0
ARC
  5
276
100
AcDbEntity
  8
0
370
    -3
  6
Continuous
100
AcDbCircle
 10
-644.196035
 20
-19.434121
 30
0.0
 40
60.0
100
AcDbArc
 50
274.625651
 51
324.446556
  0
ARC
  5
277
100
AcDbEntity
  8
0
370
    -3
  6
Continuous
100
AcDbCircle
 10
-644.196035
 20
-19.434121
 30
0.0
 40
60.0
100
AcDbArc
 50
335.553444
 51
25.374349
  0
ARC
  5
278
100
AcDbEntity
  8
0
370
    -3
  6
Continuous
100
AcDbCircle
 10
-644.196035
 20
-19.434121
 30
0.0
 40
60.0
100
AcDbArc
 50
34.625651
 51
84.446556
  0
ARC
  5
279
100
AcDbEntity
  8
0
370
    -3
  6
Continuous
100
AcDbCircle
 10
-638.196035
 20
42.274873
 30
0.0
 40
2.0
100
AcDbArc
 50
180.0
 51
264.446556
  0
ARC
  5
27A
100
AcDbEntity
  8
0
370
    -3
  6
Continuous
100
AcDbCircle
 10
-593.177346
 20
15.795035
 30
0.0
 40
2.0
100
AcDbArc
 50
214.625651
 51
300.0
  0
ARC
  5
27B
100
AcDbEntity
  8
0
370
    -3
  6
Continuous
100
AcDbCircle
 10
-588.177346
 20
7.134781
 30
0.0
 40
2.0
100
AcDbArc
 50
120.0
 51
205.374349
  0
ARC
  5
27C
100
AcDbEntity
  8
0
370
    -3
  6
Continuous
100
AcDbCircle
 10
-639.196035
 20
-81.23218
 30
0.0
 40
2.0
100
AcDbArc
 50
94.625651
 51
180.0
  0
ARC
  5
27D
100
AcDbEntity
  8
0
370
    -3
  6
Continuous
100
AcDbCircle
 10
-649.196035
 20
-81.23218
 30
0.0
 40
2.0
100
AcDbArc
 50
0.0
 51
85.374349
  0
ARC
  5
27E
100
AcDbEntity
  8
0
370
    -3
  6
Continuous
100
AcDbCircle
 10
-694.637592
 20
-55.484771
 30
0.0
 40
2.0
100
AcDbArc
 50
35.553444
 51
120.0
  0
ARC
  5
27F
100
AcDbEntity
  8
0
370
    -3
  6
Continuous
100
AcDbCircle
 10
-700.637592
 20
-45.092466
 30
0.0
 40
2.0
100
AcDbArc
 50
300.0
 51
24.446556
  0
ARC
  5
280
100
AcDbEntity
  8
0
370
    -3
  6
Continuous
100
AcDbCircle
 10
-700.214723
 20
7.134781
 30
0.0
 40
2.0
100
AcDbArc
 50
334.625651
 51
60.0
  0
ARC
  5
281
100
AcDbEntity
  8
0
370
    -3
  6
Continuous
100
AcDbCircle
 10
-695.214723
 20
15.795035
 30
0.0
 40
2.0
100
AcDbArc
 50
240.0
 51
325.374349
  0
ARC
  5
282
100
AcDbEntity
  8
0
370
    -3
  6
Continuous
100
AcDbCircle
 10
-650.196035
 20
42.274873
 30
0.0
 40
2.0
100
AcDbArc
 50
275.553444
 51
0.0
  0
ARC
  5
283
100
AcDbEntity
  8
0
370
    -3
  6
Continuous
100
AcDbCircle
 10
-644.196035
 20
-19.434121
 30
0.0
 40
55.0
100
AcDbArc
 50
96.50025
 51
144.586688
  0
ARC
  5
284
100
AcDbEntity
  8
0
370
    -3
  6
Continuous
100
AcDbCircle
 10
-644.196035
 20
-19.434121
 30
0.0
 40
47.5
100
AcDbArc
 50
96.962063
 51
144.20266
  0
ARC
  5
285
100
AcDbEntity
  8
0
370
    -3
  6
Continuous
100
AcDbCircle
 10
-644.196035
 20
-19.434121
 30
0.0
 40
42.5
100
AcDbArc
 50
98.519624
 51
142.908354
  0
ARC
  5
286
100
AcDbEntity
  8
0
370
    -3
  6
Continuous
100
AcDbCircle
 10
-644.196035
 20
-19.434121
 30
0.0
 40
35.0
100
AcDbArc
 50
99.332418
 51
142.233566
  0
ARC
  5
287
100
AcDbEntity
  8
0
370
    -3
  6
Continuous
100
AcDbCircle
 10
-644.196035
 20
-19.434121
 30
0.0
 40
30.0
100
AcDbArc
 50
102.373625
 51
139.713439
  0
ARC
  5
288
100
AcDbEntity
  8
0
370
    -3
  6
Continuous
100
AcDbCircle
 10
-644.196035
 20
-19.434121
 30
0.0
 40
22.5
100
AcDbArc
 50
104.175804
 51
138.224256
  0
ARC
  5
289
100
AcDbEntity
  8
0
370
    -3
  6
Continuous
100
AcDbCircle
 10
-644.196035
 20
-19.434121
 30
0.0
 40
17.5
100
AcDbArc
 50
112.773972
 51
131.180937
  0
ARC
  5
28A
100
AcDbEntity
  8
0
370
    -3
  6
Continuous
100
AcDbCircle
 10
-644.196035
 20
-19.434121
 30
0.0
 40
10.0
100
AcDbArc
 50
120.0
 51
125.375682
  0
ARC
  5
28B
100
AcDbEntity
  8
0
370
    -3
  6
Continuous
100
AcDbCircle
 10
-644.196035
 20
-19.434121
 30
0.0
 40
55.0
100
AcDbArc
 50
35.413312
 51
83.49975
  0
ARC
  5
28C
100
AcDbEntity
  8
0
370
    -3
  6
Continuous
100
AcDbCircle
 10
-644.196035
 20
-19.434121
 30
0.0
 40
47.5
100
AcDbArc
 50
35.79734
 51
83.037937
  0
ARC
  5
28D
100
AcDbEntity
  8
0
370
    -3
  6
Continuous
100
AcDbCircle
 10
-644.196035
 20
-19.434121
 30
0.0
 40
42.5
100
AcDbArc
 50
37.091646
 51
81.480376
  0
ARC
  5
28E
100
AcDbEntity
  8
0
370
    -3
  6
Continuous
100
AcDbCircle
 10
-644.196035
 20
-19.434121
 30
0.0
 40
35.0
100
AcDbArc
 50
37.766434
 51
80.667582
  0
ARC
  5
28F
100
AcDbEntity
  8
0
370
    -3
  6
Continuous
100
AcDbCircle
 10
-644.196035
 20
-19.434121
 30
0.0
 40
30.0
100
AcDbArc
 50
40.286561
 51
77.626375
  0
ARC
  5
290
100
AcDbEntity
  8
0
370
    -3
  6
Continuous
100
AcDbCircle
 10
-644.196035
 20
-19.434121
 30
0.0
 40
22.5
100
AcDbArc
 50
41.775744
 51
75.824196
  0
ARC
  5
291
100
AcDbEntity
  8
0
370
    -3
  6
Continuous
100
AcDbCircle
 10
-644.196035
 20
-19.434121
 30
0.0
 40
17.5
100
AcDbArc
 50
48.819063
 51
67.226028
  0
ARC
  5
292
100
AcDbEntity
  8
0
370
    -3
  6
Continuous
100
AcDbCircle
 10
-638.196035
 20
33.225161
 30
0.0
 40
2.0
100
AcDbArc
 50
83.49975
 51
180.0
  0
ARC
  5
293
100
AcDbEntity
  8
0
370
    -3
  6
Continuous
100
AcDbCircle
 10
-638.196035
 20
29.700897
 30
0.0
 40
2.0
100
AcDbArc
 50
180.0
 51
263.037937
  0
ARC
  5
294
100
AcDbEntity
  8
0
370
    -3
  6
Continuous
100
AcDbCircle
 10
-601.001396
 20
11.277818
 30
0.0
 40
2.0
100
AcDbArc
 50
300.0
 51
35.413312
  0
ARC
  5
295
100
AcDbEntity
  8
0
370
    -3
  6
Continuous
100
AcDbCircle
 10
-604.047031
 20
9.519419
 30
0.0
 40
2.0
100
AcDbArc
 50
215.79734
 51
300.0
  0
ARC
  5
296
100
AcDbEntity
  8
0
370
    -3
  6
Continuous
100
AcDbCircle
 10
-611.890324
 20
4.991092
 30
0.0
 40
2.0
100
AcDbArc
 50
300.0
 51
37.091646
  0
ARC
  5
297
100
AcDbEntity
  8
0
370
    -3
  6
Continuous
100
AcDbCircle
 10
-638.196035
 20
20.618968
 30
0.0
 40
2.0
100
AcDbArc
 50
81.480376
 51
180.0
  0
ARC
  5
298
100
AcDbEntity
  8
0
370
    -3
  6
Continuous
100
AcDbCircle
 10
-638.196035
 20
17.076151
 30
0.0
 40
2.0
100
AcDbArc
 50
180.0
 51
260.667582
  0
ARC
  5
299
100
AcDbEntity
  8
0
370
    -3
  6
Continuous
100
AcDbCircle
 10
-614.947019
 20
3.226308
 30
0.0
 40
2.0
100
AcDbArc
 50
217.766434
 51
300.0
  0
ARC
  5
29A
100
AcDbEntity
  8
0
370
    -3
  6
Continuous
100
AcDbCircle
 10
-622.837074
 20
-1.329017
 30
0.0
 40
2.0
100
AcDbArc
 50
300.0
 51
40.286561
  0
ARC
  5
29B
100
AcDbEntity
  8
0
370
    -3
  6
Continuous
100
AcDbCircle
 10
-638.196035
 20
7.915467
 30
0.0
 40
2.0
100
AcDbArc
 50
77.626375
 51
180.0
  0
ARC
  5
29C
100
AcDbEntity
  8
0
370
    -3
  6
Continuous
100
AcDbCircle
 10
-638.196035
 20
4.319826
 30
0.0
 40
2.0
100
AcDbArc
 50
180.0
 51
255.824196
  0
ARC
  5
29D
100
AcDbEntity
  8
0
370
    -3
  6
Continuous
100
AcDbCircle
 10
-625.924961
 20
-3.111809
 30
0.0
 40
2.0
100
AcDbArc
 50
221.775744
 51
300.0
  0
ARC
  5
29E
100
AcDbEntity
  8
0
370
    -3
  6
Continuous
100
AcDbCircle
 10
-633.990229
 20
-7.768294
 30
0.0
 40
2.0
100
AcDbArc
 50
300.0
 51
48.819063
  0
ARC
  5
29F
100
AcDbEntity
  8
0
370
    -3
  6
Continuous
100
AcDbCircle
 10
-638.196035
 20
-5.142515
 30
0.0
 40
2.0
100
AcDbArc
 50
67.226028
 51
180.0
  0
ARC
  5
2A0
100
AcDbEntity
  8
0
370
    -3
  6
Continuous
100
AcDbCircle
 10
-644.196035
 20
-19.434121
 30
0.0
 40
10.0
100
AcDbArc
 50
294.624318
 51
300.0
  0
ARC
  5
2A1
100
AcDbEntity
  8
0
370
    -3
  6
Continuous
100
AcDbCircle
 10
-644.196035
 20
-19.434121
 30
0.0
 40
10.0
100
AcDbArc
 50
54.624318
 51
60.0
  0
ARC
  5
2A2
100
AcDbEntity
  8
0
370
    -3
  6
Continuous
100
AcDbCircle
 10
-638.196035
 20
-9.041817
 30
0.0
 40
2.0
100
AcDbArc
 50
180.0
 51
240.0
  0
ARC
  5
2A3
100
AcDbEntity
  8
0
370
    -3
  6
Continuous
100
AcDbCircle
 10
-637.248813
 20
-9.649638
 30
0.0
 40
2.0
100
AcDbArc
 50
234.624318
 51
300.0
  0
ARC
  5
2A4
100
AcDbEntity
  8
0
370
    -3
  6
Continuous
100
AcDbCircle
 10
-644.196035
 20
-19.434121
 30
0.0
 40
55.0
100
AcDbArc
 50
336.50025
 51
24.586688
  0
ARC
  5
2A5
100
AcDbEntity
  8
0
370
    -3
  6
Continuous
100
AcDbCircle
 10
-644.196035
 20
-19.434121
 30
0.0
 40
47.5
100
AcDbArc
 50
336.962063
 51
24.20266
  0
ARC
  5
2A6
100
AcDbEntity
  8
0
370
    -3
  6
Continuous
100
AcDbCircle
 10
-644.196035
 20
-19.434121
 30
0.0
 40
42.5
100
AcDbArc
 50
338.519624
 51
22.908354
  0
ARC
  5
2A7
100
AcDbEntity
  8
0
370
    -3
  6
Continuous
100
AcDbCircle
 10
-644.196035
 20
-19.434121
 30
0.0
 40
35.0
100
AcDbArc
 50
339.332418
 51
22.233566
  0
ARC
  5
2A8
100
AcDbEntity
  8
0
370
    -3
  6
Continuous
100
AcDbCircle
 10
-644.196035
 20
-19.434121
 30
0.0
 40
30.0
100
AcDbArc
 50
342.373625
 51
19.713439
  0
ARC
  5
2A9
100
AcDbEntity
  8
0
370
    -3
  6
Continuous
100
AcDbCircle
 10
-644.196035
 20
-19.434121
 30
0.0
 40
22.5
100
AcDbArc
 50
344.175804
 51
18.224256
  0
ARC
  5
2AA
100
AcDbEntity
  8
0
370
    -3
  6
Continuous
100
AcDbCircle
 10
-644.196035
 20
-19.434121
 30
0.0
 40
17.5
100
AcDbArc
 50
352.773972
 51
11.180937
  0
ARC
  5
2AB
100
AcDbEntity
  8
0
370
    -3
  6
Continuous
100
AcDbCircle
 10
-644.196035
 20
-19.434121
 30
0.0
 40
10.0
100
AcDbArc
 50
0.0
 51
5.375682
  0
ARC
  5
2AC
100
AcDbEntity
  8
0
370
    -3
  6
Continuous
100
AcDbCircle
 10
-644.196035
 20
-19.434121
 30
0.0
 40
17.5
100
AcDbArc
 50
288.819063
 51
307.226028
  0
ARC
  5
2AD
100
AcDbEntity
  8
0
370
    -3
  6
Continuous
100
AcDbCircle
 10
-644.196035
 20
-19.434121
 30
0.0
 40
22.5
100
AcDbArc
 50
281.775744
 51
315.824196
  0
ARC
  5
2AE
100
AcDbEntity
  8
0
370
    -3
  6
Continuous
100
AcDbCircle
 10
-644.196035
 20
-19.434121
 30
0.0
 40
30.0
100
AcDbArc
 50
280.286561
 51
317.626375
  0
ARC
  5
2AF
100
AcDbEntity
  8
0
370
    -3
  6
Continuous
100
AcDbCircle
 10
-644.196035
 20
-19.434121
 30
0.0
 40
35.0
100
AcDbArc
 50
277.766434
 51
320.667582
  0
ARC
  5
2B0
100
AcDbEntity
  8
0
370
    -3
  6
Continuous
100
AcDbCircle
 10
-644.196035
 20
-19.434121
 30
0.0
 40
42.5
100
AcDbArc
 50
277.091646
 51
321.480376
  0
ARC
  5
2B1
100
AcDbEntity
  8
0
370
    -3
  6
Continuous
100
AcDbCircle
 10
-644.196035
 20
-19.434121
 30
0.0
 40
47.5
100
AcDbArc
 50
275.79734
 51
323.037937
  0
ARC
  5
2B2
100
AcDbEntity
  8
0
370
    -3
  6
Continuous
100
AcDbCircle
 10
-644.196035
 20
-19.434121
 30
0.0
 40
55.0
100
AcDbArc
 50
275.413312
 51
323.49975
  0
ARC
  5
2B3
100
AcDbEntity
  8
0
370
    -3
  6
Continuous
100
AcDbCircle
 10
-644.196035
 20
-19.434121
 30
0.0
 40
55.0
100
AcDbArc
 50
216.50025
 51
264.586688
  0
ARC
  5
2B4
100
AcDbEntity
  8
0
370
    -3
  6
Continuous
100
AcDbCircle
 10
-644.196035
 20
-19.434121
 30
0.0
 40
47.5
100
AcDbArc
 50
216.962063
 51
264.20266
  0
ARC
  5
2B5
100
AcDbEntity
  8
0
370
    -3
  6
Continuous
100
AcDbCircle
 10
-644.196035
 20
-19.434121
 30
0.0
 40
42.5
100
AcDbArc
 50
218.519624
 51
262.908354
  0
ARC
  5
2B6
100
AcDbEntity
  8
0
370
    -3
  6
Continuous
100
AcDbCircle
 10
-644.196035
 20
-19.434121
 30
0.0
 40
35.0
100
AcDbArc
 50
219.332418
 51
262.233566
  0
ARC
  5
2B7
100
AcDbEntity
  8
0
370
    -3
  6
Continuous
100
AcDbCircle
 10
-644.196035
 20
-19.434121
 30
0.0
 40
30.0
100
AcDbArc
 50
222.373625
 51
259.713439
  0
ARC
  5
2B8
100
AcDbEntity
  8
0
370
    -3
  6
Continuous
100
AcDbCircle
 10
-644.196035
 20
-19.434121
 30
0.0
 40
22.5
100
AcDbArc
 50
224.175804
 51
258.224256
  0
ARC
  5
2B9
100
AcDbEntity
  8
0
370
    -3
  6
Continuous
100
AcDbCircle
 10
-644.196035
 20
-19.434121
 30
0.0
 40
17.5
100
AcDbArc
 50
232.773972
 51
251.180937
  0
ARC
  5
2BA
100
AcDbEntity
  8
0
370
    -3
  6
Continuous
100
AcDbCircle
 10
-644.196035
 20
-19.434121
 30
0.0
 40
10.0
100
AcDbArc
 50
240.0
 51
245.375682
  0
ARC
  5
2BB
100
AcDbEntity
  8
0
370
    -3
  6
Continuous
100
AcDbCircle
 10
-644.196035
 20
-19.434121
 30
0.0
 40
55.0
100
AcDbArc
 50
155.413312
 51
203.49975
  0
ARC
  5
2BC
100
AcDbEntity
  8
0
370
    -3
  6
Continuous
100
AcDbCircle
 10
-644.196035
 20
-19.434121
 30
0.0
 40
47.5
100
AcDbArc
 50
155.79734
 51
203.037937
  0
ARC
  5
2BD
100
AcDbEntity
  8
0
370
    -3
  6
Continuous
100
AcDbCircle
 10
-644.196035
 20
-19.434121
 30
0.0
 40
42.5
100
AcDbArc
 50
157.091646
 51
201.480376
  0
ARC
  5
2BE
100
AcDbEntity
  8
0
370
    -3
  6
Continuous
100
AcDbCircle
 10
-644.196035
 20
-19.434121
 30
0.0
 40
35.0
100
AcDbArc
 50
157.766434
 51
200.667582
  0
ARC
  5
2BF
100
AcDbEntity
  8
0
370
    -3
  6
Continuous
100
AcDbCircle
 10
-644.196035
 20
-19.434121
 30
0.0
 40
30.0
100
AcDbArc
 50
160.286561
 51
197.626375
  0
ARC
  5
2C0
100
AcDbEntity
  8
0
370
    -3
  6
Continuous
100
AcDbCircle
 10
-644.196035
 20
-19.434121
 30
0.0
 40
22.5
100
AcDbArc
 50
161.775744
 51
195.824196
  0
ARC
  5
2C1
100
AcDbEntity
  8
0
370
    -3
  6
Continuous
100
AcDbCircle
 10
-644.196035
 20
-19.434121
 30
0.0
 40
17.5
100
AcDbArc
 50
168.819063
 51
187.226028
  0
ARC
  5
2C2
100
AcDbEntity
  8
0
370
    -3
  6
Continuous
100
AcDbCircle
 10
-644.196035
 20
-19.434121
 30
0.0
 40
10.0
100
AcDbArc
 50
174.624318
 51
180.0
  0
ARC
  5
2C3
100
AcDbEntity
  8
0
370
    -3
  6
Continuous
100
AcDbCircle
 10
-596.001396
 20
2.617563
 30
0.0
 40
2.0
100
AcDbArc
 50
24.586688
 51
120.0
  0
ARC
  5
2C4
100
AcDbEntity
  8
0
370
    -3
  6
Continuous
100
AcDbCircle
 10
-599.047031
 20
0.859165
 30
0.0
 40
2.0
100
AcDbArc
 50
120.0
 51
204.20266
  0
ARC
  5
2C5
100
AcDbEntity
  8
0
370
    -3
  6
Continuous
100
AcDbCircle
 10
-639.196035
 20
-68.680949
 30
0.0
 40
2.0
100
AcDbArc
 50
95.79734
 51
180.0
  0
ARC
  5
2C6
100
AcDbEntity
  8
0
370
    -3
  6
Continuous
100
AcDbCircle
 10
-639.196035
 20
-72.197745
 30
0.0
 40
2.0
100
AcDbArc
 50
180.0
 51
275.413312
  0
ARC
  5
2C7
100
AcDbEntity
  8
0
370
    -3
  6
Continuous
100
AcDbCircle
 10
-649.196035
 20
-72.197745
 30
0.0
 40
2.0
100
AcDbArc
 50
264.586688
 51
0.0
  0
ARC
  5
2C8
100
AcDbEntity
  8
0
370
    -3
  6
Continuous
100
AcDbCircle
 10
-649.196035
 20
-68.680949
 30
0.0
 40
2.0
100
AcDbArc
 50
0.0
 51
84.20266
  0
ARC
  5
2C9
100
AcDbEntity
  8
0
370
    -3
  6
Continuous
100
AcDbCircle
 10
-683.748209
 20
-49.197783
 30
0.0
 40
2.0
100
AcDbArc
 50
36.962063
 51
120.0
  0
ARC
  5
2CA
100
AcDbEntity
  8
0
370
    -3
  6
Continuous
100
AcDbCircle
 10
-686.800311
 20
-50.959915
 30
0.0
 40
2.0
100
AcDbArc
 50
120.0
 51
216.50025
  0
ARC
  5
2CB
100
AcDbEntity
  8
0
370
    -3
  6
Continuous
100
AcDbCircle
 10
-692.800311
 20
-40.56761
 30
0.0
 40
2.0
100
AcDbArc
 50
203.49975
 51
300.0
  0
ARC
  5
2CC
100
AcDbEntity
  8
0
370
    -3
  6
Continuous
100
AcDbCircle
 10
-692.390673
 20
2.617563
 30
0.0
 40
2.0
100
AcDbArc
 50
60.0
 51
155.413312
  0
ARC
  5
2CD
100
AcDbEntity
  8
0
370
    -3
  6
Continuous
100
AcDbCircle
 10
-687.390673
 20
11.277818
 30
0.0
 40
2.0
100
AcDbArc
 50
144.586688
 51
240.0
  0
ARC
  5
2CE
100
AcDbEntity
  8
0
370
    -3
  6
Continuous
100
AcDbCircle
 10
-650.196035
 20
33.225161
 30
0.0
 40
2.0
100
AcDbArc
 50
0.0
 51
96.50025
  0
ARC
  5
2CF
100
AcDbEntity
  8
0
370
    -3
  6
Continuous
100
AcDbCircle
 10
-650.196035
 20
29.700897
 30
0.0
 40
2.0
100
AcDbArc
 50
276.962063
 51
0.0
  0
ARC
  5
2D0
100
AcDbEntity
  8
0
370
    -3
  6
Continuous
100
AcDbCircle
 10
-684.345038
 20
9.519419
 30
0.0
 40
2.0
100
AcDbArc
 50
240.0
 51
324.20266
  0
ARC
  5
2D1
100
AcDbEntity
  8
0
370
    -3
  6
Continuous
100
AcDbCircle
 10
-650.196035
 20
20.618968
 30
0.0
 40
2.0
100
AcDbArc
 50
0.0
 51
98.519624
  0
ARC
  5
2D2
100
AcDbEntity
  8
0
370
    -3
  6
Continuous
100
AcDbCircle
 10
-650.196035
 20
17.076151
 30
0.0
 40
2.0
100
AcDbArc
 50
279.332418
 51
0.0
  0
ARC
  5
2D3
100
AcDbEntity
  8
0
370
    -3
  6
Continuous
100
AcDbCircle
 10
-673.44505
 20
3.226308
 30
0.0
 40
2.0
100
AcDbArc
 50
240.0
 51
322.233566
  0
ARC
  5
2D4
100
AcDbEntity
  8
0
370
    -3
  6
Continuous
100
AcDbCircle
 10
-676.501745
 20
4.991092
 30
0.0
 40
2.0
100
AcDbArc
 50
142.908354
 51
240.0
  0
ARC
  5
2D5
100
AcDbEntity
  8
0
370
    -3
  6
Continuous
100
AcDbCircle
 10
-678.44505
 20
-5.433946
 30
0.0
 40
2.0
100
AcDbArc
 50
337.766434
 51
60.0
  0
ARC
  5
2D6
100
AcDbEntity
  8
0
370
    -3
  6
Continuous
100
AcDbCircle
 10
-681.501745
 20
-3.669162
 30
0.0
 40
2.0
100
AcDbArc
 50
60.0
 51
157.091646
  0
ARC
  5
2D7
100
AcDbEntity
  8
0
370
    -3
  6
Continuous
100
AcDbCircle
 10
-689.345038
 20
0.859165
 30
0.0
 40
2.0
100
AcDbArc
 50
335.79734
 51
60.0
  0
ARC
  5
2D8
100
AcDbEntity
  8
0
370
    -3
  6
Continuous
100
AcDbCircle
 10
-650.196035
 20
7.915467
 30
0.0
 40
2.0
100
AcDbArc
 50
0.0
 51
102.373625
  0
ARC
  5
2D9
100
AcDbEntity
  8
0
370
    -3
  6
Continuous
100
AcDbCircle
 10
-665.554995
 20
-1.329017
 30
0.0
 40
2.0
100
AcDbArc
 50
139.713439
 51
240.0
  0
ARC
  5
2DA
100
AcDbEntity
  8
0
370
    -3
  6
Continuous
100
AcDbCircle
 10
-662.467108
 20
-3.111809
 30
0.0
 40
2.0
100
AcDbArc
 50
240.0
 51
318.224256
  0
ARC
  5
2DB
100
AcDbEntity
  8
0
370
    -3
  6
Continuous
100
AcDbCircle
 10
-650.196035
 20
4.319826
 30
0.0
 40
2.0
100
AcDbArc
 50
284.175804
 51
0.0
  0
ARC
  5
2DC
100
AcDbEntity
  8
0
370
    -3
  6
Continuous
100
AcDbCircle
 10
-650.196035
 20
-5.142515
 30
0.0
 40
2.0
100
AcDbArc
 50
0.0
 51
112.773972
  0
ARC
  5
2DD
100
AcDbEntity
  8
0
370
    -3
  6
Continuous
100
AcDbCircle
 10
-654.40184
 20
-7.768294
 30
0.0
 40
2.0
100
AcDbArc
 50
131.180937
 51
240.0
  0
ARC
  5
2DE
100
AcDbEntity
  8
0
370
    -3
  6
Continuous
100
AcDbCircle
 10
-650.196035
 20
-9.041817
 30
0.0
 40
2.0
100
AcDbArc
 50
300.0
 51
0.0
  0
ARC
  5
2DF
100
AcDbEntity
  8
0
370
    -3
  6
Continuous
100
AcDbCircle
 10
-651.143256
 20
-9.649638
 30
0.0
 40
2.0
100
AcDbArc
 50
240.0
 51
305.375682
  0
ARC
  5
2E0
100
AcDbEntity
  8
0
370
    -3
  6
Continuous
100
AcDbCircle
 10
-656.143256
 20
-18.309892
 30
0.0
 40
2.0
100
AcDbArc
 50
354.624318
 51
60.0
  0
ARC
  5
2E1
100
AcDbEntity
  8
0
370
    -3
  6
Continuous
100
AcDbCircle
 10
-659.40184
 20
-16.428548
 30
0.0
 40
2.0
100
AcDbArc
 50
60.0
 51
168.819063
  0
ARC
  5
2E2
100
AcDbEntity
  8
0
370
    -3
  6
Continuous
100
AcDbCircle
 10
-659.572928
 20
-21.383772
 30
0.0
 40
2.0
100
AcDbArc
 50
187.226028
 51
300.0
  0
ARC
  5
2E3
100
AcDbEntity
  8
0
370
    -3
  6
Continuous
100
AcDbCircle
 10
-656.196035
 20
-19.434121
 30
0.0
 40
2.0
100
AcDbArc
 50
300.0
 51
0.0
  0
ARC
  5
2E4
100
AcDbEntity
  8
0
370
    -3
  6
Continuous
100
AcDbCircle
 10
-650.196035
 20
-29.826426
 30
0.0
 40
2.0
100
AcDbArc
 50
60.0
 51
120.0
  0
ARC
  5
2E5
100
AcDbEntity
  8
0
370
    -3
  6
Continuous
100
AcDbCircle
 10
-649.196035
 20
-30.342834
 30
0.0
 40
2.0
100
AcDbArc
 50
0.0
 51
65.375682
  0
ARC
  5
2E6
100
AcDbEntity
  8
0
370
    -3
  6
Continuous
100
AcDbCircle
 10
-653.572928
 20
-31.776077
 30
0.0
 40
2.0
100
AcDbArc
 50
120.0
 51
232.773972
  0
ARC
  5
2E7
100
AcDbEntity
  8
0
370
    -3
  6
Continuous
100
AcDbCircle
 10
-649.196035
 20
-34.105522
 30
0.0
 40
2.0
100
AcDbArc
 50
251.180937
 51
0.0
  0
ARC
  5
2E8
100
AcDbEntity
  8
0
370
    -3
  6
Continuous
100
AcDbCircle
 10
-639.196035
 20
-34.105522
 30
0.0
 40
2.0
100
AcDbArc
 50
180.0
 51
288.819063
  0
ARC
  5
2E9
100
AcDbEntity
  8
0
370
    -3
  6
Continuous
100
AcDbCircle
 10
-639.196035
 20
-30.342834
 30
0.0
 40
2.0
100
AcDbArc
 50
114.624318
 51
180.0
  0
ARC
  5
2EA
100
AcDbEntity
  8
0
370
    -3
  6
Continuous
100
AcDbCircle
 10
-632.248813
 20
-18.309892
 30
0.0
 40
2.0
100
AcDbArc
 50
120.0
 51
185.375682
  0
ARC
  5
2EB
100
AcDbEntity
  8
0
370
    -3
  6
Continuous
100
AcDbCircle
 10
-628.990229
 20
-16.428548
 30
0.0
 40
2.0
100
AcDbArc
 50
11.180937
 51
120.0
  0
ARC
  5
2EC
100
AcDbEntity
  8
0
370
    -3
  6
Continuous
100
AcDbCircle
 10
-620.924961
 20
-11.772063
 30
0.0
 40
2.0
100
AcDbArc
 50
120.0
 51
198.224256
  0
ARC
  5
2ED
100
AcDbEntity
  8
0
370
    -3
  6
Continuous
100
AcDbCircle
 10
-617.837074
 20
-9.989271
 30
0.0
 40
2.0
100
AcDbArc
 50
19.713439
 51
120.0
  0
ARC
  5
2EE
100
AcDbEntity
  8
0
370
    -3
  6
Continuous
100
AcDbCircle
 10
-609.947019
 20
-5.433946
 30
0.0
 40
2.0
100
AcDbArc
 50
120.0
 51
202.233566
  0
ARC
  5
2EF
100
AcDbEntity
  8
0
370
    -3
  6
Continuous
100
AcDbCircle
 10
-606.890324
 20
-3.669162
 30
0.0
 40
2.0
100
AcDbArc
 50
22.908354
 51
120.0
  0
ARC
  5
2F0
100
AcDbEntity
  8
0
370
    -3
  6
Continuous
100
AcDbCircle
 10
-639.196035
 20
-43.418491
 30
0.0
 40
2.0
100
AcDbArc
 50
101.775744
 51
180.0
  0
ARC
  5
2F1
100
AcDbEntity
  8
0
370
    -3
  6
Continuous
100
AcDbCircle
 10
-639.196035
 20
-46.984076
 30
0.0
 40
2.0
100
AcDbArc
 50
180.0
 51
280.286561
  0
ARC
  5
2F2
100
AcDbEntity
  8
0
370
    -3
  6
Continuous
100
AcDbCircle
 10
-639.196035
 20
-56.094727
 30
0.0
 40
2.0
100
AcDbArc
 50
97.766434
 51
180.0
  0
ARC
  5
2F3
100
AcDbEntity
  8
0
370
    -3
  6
Continuous
100
AcDbCircle
 10
-639.196035
 20
-59.624294
 30
0.0
 40
2.0
100
AcDbArc
 50
180.0
 51
277.091646
  0
ARC
  5
2F4
100
AcDbEntity
  8
0
370
    -3
  6
Continuous
100
AcDbCircle
 10
-649.196035
 20
-59.624294
 30
0.0
 40
2.0
100
AcDbArc
 50
262.908354
 51
0.0
  0
ARC
  5
2F5
100
AcDbEntity
  8
0
370
    -3
  6
Continuous
100
AcDbCircle
 10
-649.196035
 20
-56.094727
 30
0.0
 40
2.0
100
AcDbArc
 50
0.0
 51
82.233566
  0
ARC
  5
2F6
100
AcDbEntity
  8
0
370
    -3
  6
Continuous
100
AcDbCircle
 10
-649.196035
 20
-46.984076
 30
0.0
 40
2.0
100
AcDbArc
 50
259.713439
 51
0.0
  0
ARC
  5
2F7
100
AcDbEntity
  8
0
370
    -3
  6
Continuous
100
AcDbCircle
 10
-649.196035
 20
-43.418491
 30
0.0
 40
2.0
100
AcDbArc
 50
0.0
 51
78.224256
  0
ARC
  5
2F8
100
AcDbEntity
  8
0
370
    -3
  6
Continuous
100
AcDbCircle
 10
-675.883028
 20
-44.656819
 30
0.0
 40
2.0
100
AcDbArc
 50
120.0
 51
218.519624
  0
ARC
  5
2F9
100
AcDbEntity
  8
0
370
    -3
  6
Continuous
100
AcDbCircle
 10
-672.814858
 20
-42.88541
 30
0.0
 40
2.0
100
AcDbArc
 50
39.332418
 51
120.0
  0
ARC
  5
2FA
100
AcDbEntity
  8
0
370
    -3
  6
Continuous
100
AcDbCircle
 10
-678.814858
 20
-32.493105
 30
0.0
 40
2.0
100
AcDbArc
 50
300.0
 51
20.667582
  0
ARC
  5
2FB
100
AcDbEntity
  8
0
370
    -3
  6
Continuous
100
AcDbCircle
 10
-681.883028
 20
-34.264514
 30
0.0
 40
2.0
100
AcDbArc
 50
201.480376
 51
300.0
  0
ARC
  5
2FC
100
AcDbEntity
  8
0
370
    -3
  6
Continuous
100
AcDbCircle
 10
-670.881473
 20
-27.912763
 30
0.0
 40
2.0
100
AcDbArc
 50
197.626375
 51
300.0
  0
ARC
  5
2FD
100
AcDbEntity
  8
0
370
    -3
  6
Continuous
100
AcDbCircle
 10
-667.767556
 20
-26.114943
 30
0.0
 40
2.0
100
AcDbArc
 50
300.0
 51
15.824196
  0
ARC
  5
2FE
100
AcDbEntity
  8
0
370
    -3
  6
Continuous
100
AcDbCircle
 10
-667.467108
 20
-11.772063
 30
0.0
 40
2.0
100
AcDbArc
 50
341.775744
 51
60.0
  0
ARC
  5
2FF
100
AcDbEntity
  8
0
370
    -3
  6
Continuous
100
AcDbCircle
 10
-670.554995
 20
-9.989271
 30
0.0
 40
2.0
100
AcDbArc
 50
60.0
 51
160.286561
  0
ARC
  5
300
100
AcDbEntity
  8
0
370
    -3
  6
Continuous
100
AcDbCircle
 10
-689.748209
 20
-38.805478
 30
0.0
 40
2.0
100
AcDbArc
 50
300.0
 51
23.037937
  0
LINE
  5
301
100
AcDbEntity
  8
0
370
    -3
  6
Continuous
100
AcDbLine
 10
-662.767556
 20
-34.775197
 30
0.0
 11
-665.881473
 21
-36.573017
 31
0.0
  0
ARC
  5
302
100
AcDbEntity
  8
0
370
    -3
  6
Continuous
100
AcDbCircle
 10
-661.767556
 20
-36.507247
 30
0.0
 40
2.0
100
AcDbArc
 50
44.175804
 51
120.0
  0
ARC
  5
303
100
AcDbEntity
  8
0
370
    -3
  6
Continuous
100
AcDbCircle
 10
-664.881473
 20
-38.305068
 30
0.0
 40
2.0
100
AcDbArc
 50
120.0
 51
222.373625
  0
LINE
  5
304
100
AcDbEntity
  8
0
370
    -3
  6
Continuous
100
AcDbLine
 10
-633.196035
 20
-21.166172
 30
0.0
 11
-629.819141
 21
-23.115823
 31
0.0
  0
LINE
  5
305
100
AcDbEntity
  8
0
370
    -3
  6
Continuous
100
AcDbLine
 10
-637.196035
 20
-28.094375
 30
0.0
 11
-633.819141
 21
-30.044026
 31
0.0
  0
LINE
  5
306
100
AcDbEntity
  8
0
370
    -3
  6
Continuous
100
AcDbLine
 10
-588.754478
 20
-46.824517
 30
0.0
 11
-587.884434
 21
-47.326837
 31
0.0
  0
LINE
  5
307
100
AcDbEntity
  8
0
370
    -3
  6
Continuous
100
AcDbLine
 10
-599.643861
 20
-40.537529
 30
0.0
 11
-596.591759
 21
-42.299661
 31
0.0
  0
LINE
  5
308
100
AcDbEntity
  8
0
370
    -3
  6
Continuous
100
AcDbLine
 10
-610.577211
 20
-34.225156
 30
0.0
 11
-607.509041
 21
-35.996565
 31
0.0
  0
LINE
  5
309
100
AcDbEntity
  8
0
370
    -3
  6
Continuous
100
AcDbLine
 10
-621.624513
 20
-27.846993
 30
0.0
 11
-618.510596
 21
-29.644814
 31
0.0
  0
LINE
  5
30A
100
AcDbEntity
  8
0
370
    -3
  6
Continuous
100
AcDbLine
 10
-625.624513
 20
-34.775197
 30
0.0
 11
-622.510596
 21
-36.573017
 31
0.0
  0
LINE
  5
30B
100
AcDbEntity
  8
0
370
    -3
  6
Continuous
100
AcDbLine
 10
-614.577211
 20
-41.153359
 30
0.0
 11
-611.509041
 21
-42.924768
 31
0.0
  0
LINE
  5
30C
100
AcDbEntity
  8
0
370
    -3
  6
Continuous
100
AcDbLine
 10
-603.643861
 20
-47.465732
 30
0.0
 11
-600.591759
 21
-49.227864
 31
0.0
  0
LINE
  5
30D
100
AcDbEntity
  8
0
370
    -3
  6
Continuous
100
AcDbLine
 10
-592.754478
 20
-53.75272
 30
0.0
 11
-591.884434
 21
-54.25504
 31
0.0
  0
ARC
  5
30E
100
AcDbEntity
  8
0
370
    -3
  6
Continuous
100
AcDbCircle
 10
-586.884434
 20
-45.594786
 30
0.0
 40
2.0
100
AcDbArc
 50
240.0
 51
335.465024
  0
ARC
  5
30F
100
AcDbEntity
  8
0
370
    -3
  6
Continuous
100
AcDbCircle
 10
-587.754478
 20
-45.092466
 30
0.0
 40
2.0
100
AcDbArc
 50
155.553444
 51
240.0
  0
ARC
  5
310
100
AcDbEntity
  8
0
370
    -3
  6
Continuous
100
AcDbCircle
 10
-595.591759
 20
-40.56761
 30
0.0
 40
2.0
100
AcDbArc
 50
240.0
 51
336.50025
  0
ARC
  5
311
100
AcDbEntity
  8
0
370
    -3
  6
Continuous
100
AcDbCircle
 10
-598.643861
 20
-38.805478
 30
0.0
 40
2.0
100
AcDbArc
 50
156.962063
 51
240.0
  0
ARC
  5
312
100
AcDbEntity
  8
0
370
    -3
  6
Continuous
100
AcDbCircle
 10
-606.509041
 20
-34.264514
 30
0.0
 40
2.0
100
AcDbArc
 50
240.0
 51
338.519624
  0
ARC
  5
313
100
AcDbEntity
  8
0
370
    -3
  6
Continuous
100
AcDbCircle
 10
-609.577211
 20
-32.493105
 30
0.0
 40
2.0
100
AcDbArc
 50
159.332418
 51
240.0
  0
ARC
  5
314
100
AcDbEntity
  8
0
370
    -3
  6
Continuous
100
AcDbCircle
 10
-617.510596
 20
-27.912763
 30
0.0
 40
2.0
100
AcDbArc
 50
240.0
 51
342.373625
  0
ARC
  5
315
100
AcDbEntity
  8
0
370
    -3
  6
Continuous
100
AcDbCircle
 10
-620.624513
 20
-26.114943
 30
0.0
 40
2.0
100
AcDbArc
 50
164.175804
 51
240.0
  0
ARC
  5
316
100
AcDbEntity
  8
0
370
    -3
  6
Continuous
100
AcDbCircle
 10
-628.819141
 20
-21.383772
 30
0.0
 40
2.0
100
AcDbArc
 50
240.0
 51
352.773972
  0
ARC
  5
317
100
AcDbEntity
  8
0
370
    -3
  6
Continuous
100
AcDbCircle
 10
-632.196035
 20
-19.434121
 30
0.0
 40
2.0
100
AcDbArc
 50
180.0
 51
240.0
  0
ARC
  5
318
100
AcDbEntity
  8
0
370
    -3
  6
Continuous
100
AcDbCircle
 10
-638.196035
 20
-29.826426
 30
0.0
 40
2.0
100
AcDbArc
 50
60.0
 51
120.0
  0
ARC
  5
319
100
AcDbEntity
  8
0
370
    -3
  6
Continuous
100
AcDbCircle
 10
-634.819141
 20
-31.776077
 30
0.0
 40
2.0
100
AcDbArc
 50
307.226028
 51
60.0
  0
ARC
  5
31A
100
AcDbEntity
  8
0
370
    -3
  6
Continuous
100
AcDbCircle
 10
-626.624513
 20
-36.507247
 30
0.0
 40
2.0
100
AcDbArc
 50
60.0
 51
135.824196
  0
ARC
  5
31B
100
AcDbEntity
  8
0
370
    -3
  6
Continuous
100
AcDbCircle
 10
-623.510596
 20
-38.305068
 30
0.0
 40
2.0
100
AcDbArc
 50
317.626375
 51
60.0
  0
ARC
  5
31C
100
AcDbEntity
  8
0
370
    -3
  6
Continuous
100
AcDbCircle
 10
-615.577211
 20
-42.88541
 30
0.0
 40
2.0
100
AcDbArc
 50
60.0
 51
140.667582
  0
ARC
  5
31D
100
AcDbEntity
  8
0
370
    -3
  6
Continuous
100
AcDbCircle
 10
-612.509041
 20
-44.656819
 30
0.0
 40
2.0
100
AcDbArc
 50
321.480376
 51
60.0
  0
ARC
  5
31E
100
AcDbEntity
  8
0
370
    -3
  6
Continuous
100
AcDbCircle
 10
-604.643861
 20
-49.197783
 30
0.0
 40
2.0
100
AcDbArc
 50
60.0
 51
143.037937
  0
ARC
  5
31F
100
AcDbEntity
  8
0
370
    -3
  6
Continuous
100
AcDbCircle
 10
-601.591759
 20
-50.959915
 30
0.0
 40
2.0
100
AcDbArc
 50
323.49975
 51
60.0
  0
ARC
  5
320
100
AcDbEntity
  8
0
370
    -3
  6
Continuous
100
AcDbCircle
 10
-593.754478
 20
-55.484771
 30
0.0
 40
2.0
100
AcDbArc
 50
60.0
 51
144.446556
  0
ARC
  5
321
100
AcDbEntity
  8
0
370
    -3
  6
Continuous
100
AcDbCircle
 10
-592.884434
 20
-55.987091
 30
0.0
 40
2.0
100
AcDbArc
 50
324.534976
 51
60.0
  0
ARC
  5
322
100
AcDbEntity
  8
0
370
    -3
  6
Continuous
100
AcDbCircle
 10
-695.507636
 20
-55.987091
 30
0.0
 40
2.0
100
AcDbArc
 50
120.0
 51
215.465024
  0
ARC
  5
323
100
AcDbEntity
  8
0
370
    -3
  6
Continuous
100
AcDbCircle
 10
-574.616727
 20
43.498382
 30
0.0
 40
0.3
100
AcDbArc
 50
315.0
 51
45.0
  0
LINE
  5
324
100
AcDbEntity
  8
0
370
    -3
  6
Continuous
100
AcDbLine
 10
-573.980331
 20
44.417621
 30
0.0
 11
-574.546017
 21
43.851935
 31
0.0
  0
LINE
  5
325
100
AcDbEntity
  8
0
370
    -3
  6
Continuous
100
AcDbLine
 10
-576.207718
 20
45.513636
 30
0.0
 11
-574.404595
 21
43.710514
 31
0.0
  0
LINE
  5
326
100
AcDbEntity
  8
0
370
    -3
  6
Continuous
100
AcDbLine
 10
-579.248277
 20
48.554196
 30
0.0
 11
-580.909978
 21
50.215897
 31
0.0
  0
LINE
  5
327
100
AcDbEntity
  8
0
370
    -3
  6
Continuous
100
AcDbLine
 10
-574.404595
 20
43.28625
 30
0.0
 11
-575.136307
 21
42.554539
 31
0.0
  0
LINE
  5
328
100
AcDbEntity
  8
0
370
    -3
  6
Continuous
100
AcDbLine
 10
-577.162312
 20
47.599601
 30
0.0
 11
-573.980331
 21
44.417621
 31
0.0
  0
LINE
  5
329
100
AcDbEntity
  8
0
370
    -3
  6
Continuous
100
AcDbLine
 10
-577.727997
 20
47.033916
 30
0.0
 11
-574.404595
 21
43.710514
 31
0.0
  0
ARC
  5
32A
100
AcDbEntity
  8
0
370
    -3
  6
Continuous
100
AcDbCircle
 10
-581.263531
 20
50.145186
 30
0.0
 40
0.3
100
AcDbArc
 50
45.0
 51
135.0
  0
LINE
  5
32B
100
AcDbEntity
  8
0
370
    -3
  6
Continuous
100
AcDbLine
 10
-580.344292
 20
50.781582
 30
0.0
 11
-580.909978
 21
50.215897
 31
0.0
  0
LINE
  5
32C
100
AcDbEntity
  8
0
370
    -3
  6
Continuous
100
AcDbLine
 10
-579.248277
 20
48.554196
 30
0.0
 11
-581.051399
 21
50.357318
 31
0.0
  0
LINE
  5
32D
100
AcDbEntity
  8
0
370
    -3
  6
Continuous
100
AcDbLine
 10
-581.475663
 20
50.357318
 30
0.0
 11
-582.207375
 21
49.625606
 31
0.0
  0
LINE
  5
32E
100
AcDbEntity
  8
0
370
    -3
  6
Continuous
100
AcDbLine
 10
-577.162312
 20
47.599601
 30
0.0
 11
-580.344292
 21
50.781582
 31
0.0
  0
LINE
  5
32F
100
AcDbEntity
  8
0
370
    -3
  6
Continuous
100
AcDbLine
 10
-577.727997
 20
47.033916
 30
0.0
 11
-581.051399
 21
50.357318
 31
0.0
  0
ARC
  5
330
100
AcDbEntity
  8
0
370
    -3
  6
Continuous
100
AcDbCircle
 10
-574.616727
 20
-82.366625
 30
0.0
 40
0.3
100
AcDbArc
 50
315.0
 51
45.0
  0
LINE
  5
331
100
AcDbEntity
  8
0
370
    -3
  6
Continuous
100
AcDbLine
 10
-573.980331
 20
-83.285864
 30
0.0
 11
-574.546017
 21
-82.720178
 31
0.0
  0
LINE
  5
332
100
AcDbEntity
  8
0
370
    -3
  6
Continuous
100
AcDbLine
 10
-576.207718
 20
-84.381879
 30
0.0
 11
-574.404595
 21
-82.578757
 31
0.0
  0
LINE
  5
333
100
AcDbEntity
  8
0
370
    -3
  6
Continuous
100
AcDbLine
 10
-579.248277
 20
-87.422438
 30
0.0
 11
-580.909978
 21
-89.084139
 31
0.0
  0
LINE
  5
334
100
AcDbEntity
  8
0
370
    -3
  6
Continuous
100
AcDbLine
 10
-574.404595
 20
-82.154493
 30
0.0
 11
-575.136307
 21
-81.422782
 31
0.0
  0
LINE
  5
335
100
AcDbEntity
  8
0
370
    -3
  6
Continuous
100
AcDbLine
 10
-577.162312
 20
-86.467844
 30
0.0
 11
-573.980331
 21
-83.285864
 31
0.0
  0
LINE
  5
336
100
AcDbEntity
  8
0
370
    -3
  6
Continuous
100
AcDbLine
 10
-577.727997
 20
-85.902159
 30
0.0
 11
-574.404595
 21
-82.578757
 31
0.0
  0
ARC
  5
337
100
AcDbEntity
  8
0
370
    -3
  6
Continuous
100
AcDbCircle
 10
-581.263531
 20
-89.013429
 30
0.0
 40
0.3
100
AcDbArc
 50
225.0
 51
315.0
  0
LINE
  5
338
100
AcDbEntity
  8
0
370
    -3
  6
Continuous
100
AcDbLine
 10
-580.344292
 20
-89.649825
 30
0.0
 11
-580.909978
 21
-89.084139
 31
0.0
  0
LINE
  5
339
100
AcDbEntity
  8
0
370
    -3
  6
Continuous
100
AcDbLine
 10
-579.248277
 20
-87.422438
 30
0.0
 11
-581.051399
 21
-89.225561
 31
0.0
  0
LINE
  5
33A
100
AcDbEntity
  8
0
370
    -3
  6
Continuous
100
AcDbLine
 10
-581.475663
 20
-89.225561
 30
0.0
 11
-582.207375
 21
-88.493849
 31
0.0
  0
LINE
  5
33B
100
AcDbEntity
  8
0
370
    -3
  6
Continuous
100
AcDbLine
 10
-577.162312
 20
-86.467844
 30
0.0
 11
-580.344292
 21
-89.649825
 31
0.0
  0
LINE
  5
33C
100
AcDbEntity
  8
0
370
    -3
  6
Continuous
100
AcDbLine
 10
-577.727997
 20
-85.902159
 30
0.0
 11
-581.051399
 21
-89.225561
 31
0.0
  0
ARC
  5
33D
100
AcDbEntity
  8
0
370
    -3
  6
Continuous
100
AcDbCircle
 10
-713.775342
 20
-82.366625
 30
0.0
 40
0.3
100
AcDbArc
 50
135.0
 51
225.0
  0
LINE
  5
33E
100
AcDbEntity
  8
0
370
    -3
  6
Continuous
100
AcDbLine
 10
-714.411738
 20
-83.285864
 30
0.0
 11
-713.846053
 21
-82.720178
 31
0.0
  0
LINE
  5
33F
100
AcDbEntity
  8
0
370
    -3
  6
Continuous
100
AcDbLine
 10
-712.184352
 20
-84.381879
 30
0.0
 11
-713.987474
 21
-82.578757
 31
0.0
  0
LINE
  5
340
100
AcDbEntity
  8
0
370
    -3
  6
Continuous
100
AcDbLine
 10
-709.143793
 20
-87.422438
 30
0.0
 11
-707.482092
 21
-89.084139
 31
0.0
  0
LINE
  5
341
100
AcDbEntity
  8
0
370
    -3
  6
Continuous
100
AcDbLine
 10
-713.987474
 20
-82.154493
 30
0.0
 11
-713.255763
 21
-81.422782
 31
0.0
  0
LINE
  5
342
100
AcDbEntity
  8
0
370
    -3
  6
Continuous
100
AcDbLine
 10
-711.229758
 20
-86.467844
 30
0.0
 11
-714.411738
 21
-83.285864
 31
0.0
  0
LINE
  5
343
100
AcDbEntity
  8
0
370
    -3
  6
Continuous
100
AcDbLine
 10
-710.664072
 20
-85.902159
 30
0.0
 11
-713.987474
 21
-82.578757
 31
0.0
  0
ARC
  5
344
100
AcDbEntity
  8
0
370
    -3
  6
Continuous
100
AcDbCircle
 10
-707.128538
 20
-89.013429
 30
0.0
 40
0.3
100
AcDbArc
 50
225.0
 51
315.0
  0
LINE
  5
345
100
AcDbEntity
  8
0
370
    -3
  6
Continuous
100
AcDbLine
 10
-708.047777
 20
-89.649825
 30
0.0
 11
-707.482092
 21
-89.084139
 31
0.0
  0
LINE
  5
346
100
AcDbEntity
  8
0
370
    -3
  6
Continuous
100
AcDbLine
 10
-709.143793
 20
-87.422438
 30
0.0
 11
-707.34067
 21
-89.225561
 31
0.0
  0
LINE
  5
347
100
AcDbEntity
  8
0
370
    -3
  6
Continuous
100
AcDbLine
 10
-706.916406
 20
-89.225561
 30
0.0
 11
-706.184695
 21
-88.493849
 31
0.0
  0
LINE
  5
348
100
AcDbEntity
  8
0
370
    -3
  6
Continuous
100
AcDbLine
 10
-711.229758
 20
-86.467844
 30
0.0
 11
-708.047777
 21
-89.649825
 31
0.0
  0
LINE
  5
349
100
AcDbEntity
  8
0
370
    -3
  6
Continuous
100
AcDbLine
 10
-710.664072
 20
-85.902159
 30
0.0
 11
-707.34067
 21
-89.225561
 31
0.0
  0
ARC
  5
34A
100
AcDbEntity
  8
0
370
    -3
  6
Continuous
100
AcDbCircle
 10
-713.775342
 20
43.498382
 30
0.0
 40
0.3
100
AcDbArc
 50
135.0
 51
225.0
  0
LINE
  5
34B
100
AcDbEntity
  8
0
370
    -3
  6
Continuous
100
AcDbLine
 10
-714.411738
 20
44.417621
 30
0.0
 11
-713.846053
 21
43.851935
 31
0.0
  0
LINE
  5
34C
100
AcDbEntity
  8
0
370
    -3
  6
Continuous
100
AcDbLine
 10
-712.184352
 20
45.513636
 30
0.0
 11
-713.987474
 21
43.710514
 31
0.0
  0
LINE
  5
34D
100
AcDbEntity
  8
0
370
    -3
  6
Continuous
100
AcDbLine
 10
-709.143793
 20
48.554196
 30
0.0
 11
-707.482092
 21
50.215897
 31
0.0
  0
LINE
  5
34E
100
AcDbEntity
  8
0
370
    -3
  6
Continuous
100
AcDbLine
 10
-713.987474
 20
43.28625
 30
0.0
 11
-713.255763
 21
42.554539
 31
0.0
  0
LINE
  5
34F
100
AcDbEntity
  8
0
370
    -3
  6
Continuous
100
AcDbLine
 10
-711.229758
 20
47.599601
 30
0.0
 11
-714.411738
 21
44.417621
 31
0.0
  0
LINE
  5
350
100
AcDbEntity
  8
0
370
    -3
  6
Continuous
100
AcDbLine
 10
-710.664072
 20
47.033916
 30
0.0
 11
-713.987474
 21
43.710514
 31
0.0
  0
ARC
  5
351
100
AcDbEntity
  8
0
370
    -3
  6
Continuous
100
AcDbCircle
 10
-707.128538
 20
50.145186
 30
0.0
 40
0.3
100
AcDbArc
 50
45.0
 51
135.0
  0
LINE
  5
352
100
AcDbEntity
  8
0
370
    -3
  6
Continuous
100
AcDbLine
 10
-708.047777
 20
50.781582
 30
0.0
 11
-707.482092
 21
50.215897
 31
0.0
  0
LINE
  5
353
100
AcDbEntity
  8
0
370
    -3
  6
Continuous
100
AcDbLine
 10
-709.143793
 20
48.554196
 30
0.0
 11
-707.34067
 21
50.357318
 31
0.0
  0
LINE
  5
354
100
AcDbEntity
  8
0
370
    -3
  6
Continuous
100
AcDbLine
 10
-706.916406
 20
50.357318
 30
0.0
 11
-706.184695
 21
49.625606
 31
0.0
  0
LINE
  5
355
100
AcDbEntity
  8
0
370
    -3
  6
Continuous
100
AcDbLine
 10
-711.229758
 20
47.599601
 30
0.0
 11
-708.047777
 21
50.781582
 31
0.0
  0
LINE
  5
356
100
AcDbEntity
  8
0
370
    -3
  6
Continuous
100
AcDbLine
 10
-710.664072
 20
47.033916
 30
0.0
 11
-707.34067
 21
50.357318
 31
0.0
  0
INSERT
  5
362
100
AcDbEntity
  8
0
100
AcDbBlockReference
  2
ZU_SYM__USERS_HOME_SYMBOL_POO_SYM_S07_-1
 10
-577.162312
 20
47.599601
 30
0.0
 41
-1.0
 42
1.0
 50
45.0
  0
INSERT
  5
36E
100
AcDbEntity
  8
0
100
AcDbBlockReference
  2
ZU_SYM__USERS_HOME_SYMBOL_POO_SYM_S07_00004-1
 10
-577.162312
 20
-86.467844
 30
0.0
 41
1.0
 42
1.0
 50
135.0
  0
INSERT
  5
37A
100
AcDbEntity
  8
0
100
AcDbBlockReference
  2
ZU_SYM__USERS_HOME_SYMBOL_POO_SYM_S07_00005-1
 10
-711.229758
 20
-86.467844
 30
0.0
 41
-1.0
 42
1.0
 50
225.0
  0
INSERT
  5
386
100
AcDbEntity
  8
0
100
AcDbBlockReference
  2
ZU_SYM__USERS_HOME_SYMBOL_POO_SYM_S07_00006-1
 10
-711.229758
 20
47.599601
 30
0.0
 41
1.0
 42
1.0
 50
315.0
  0
LINE
  5
387
100
AcDbEntity
  8
0
370
    -3
  6
Continuous
100
AcDbLine
 10
-628.696035
 20
102.565879
 30
0.0
 11
-659.696035
 21
102.565879
 31
0.0
  0
ARC
  5
388
100
AcDbEntity
  8
0
370
    -3
  6
Continuous
100
AcDbCircle
 10
-628.696035
 20
107.565879
 30
0.0
 40
5.0
100
AcDbArc
 50
270.0
 51
0.0
  0
ARC
  5
389
100
AcDbEntity
  8
0
370
    -3
  6
Continuous
100
AcDbCircle
 10
-659.696035
 20
107.565879
 30
0.0
 40
5.0
100
AcDbArc
 50
180.0
 51
270.0
  0
CIRCLE
  5
38A
100
AcDbEntity
  8
0
370
    -3
  6
Continuous
100
AcDbCircle
 10
-566.696035
 20
-139.434121
 30
0.0
 40
5.633955
  0
CIRCLE
  5
38B
100
AcDbEntity
  8
0
370
    -3
  6
Continuous
100
AcDbCircle
 10
-566.696035
 20
-139.434121
 30
0.0
 40
6.5
  0
LINE
  5
38C
100
AcDbEntity
  8
0
370
    -3
  6
Continuous
100
AcDbLine
 10
-569.696031
 20
-141.166167
 30
0.0
 11
-569.696032
 21
-137.702069
 31
0.0
  0
LINE
  5
38D
100
AcDbEntity
  8
0
370
    -3
  6
Continuous
100
AcDbLine
 10
-563.696038
 20
-137.702074
 30
0.0
 11
-563.696037
 21
-141.166172
 31
0.0
  0
LINE
  5
38E
100
AcDbEntity
  8
0
370
    -3
  6
Continuous
100
AcDbLine
 10
-566.696028
 20
-135.970024
 30
0.0
 11
-569.696033
 21
-137.70207
 31
0.0
  0
LINE
  5
38F
100
AcDbEntity
  8
0
370
    -3
  6
Continuous
100
AcDbLine
 10
-563.696037
 20
-141.166173
 30
0.0
 11
-566.696039
 21
-142.89822
 31
0.0
  0
LINE
  5
390
100
AcDbEntity
  8
0
370
    -3
  6
Continuous
100
AcDbLine
 10
-566.696028
 20
-135.970025
 30
0.0
 11
-563.696037
 21
-137.702075
 31
0.0
  0
LINE
  5
391
100
AcDbEntity
  8
0
370
    -3
  6
Continuous
100
AcDbLine
 10
-566.696039
 20
-142.89822
 30
0.0
 11
-569.696032
 21
-141.166168
 31
0.0
  0
CIRCLE
  5
392
100
AcDbEntity
  8
0
370
    -3
  6
Continuous
100
AcDbCircle
 10
-636.696035
 20
-138.434121
 30
0.0
 40
5.633955
  0
CIRCLE
  5
393
100
AcDbEntity
  8
0
370
    -3
  6
Continuous
100
AcDbCircle
 10
-636.696035
 20
-138.434121
 30
0.0
 40
6.5
  0
LINE
  5
394
100
AcDbEntity
  8
0
370
    -3
  6
Continuous
100
AcDbLine
 10
-639.696031
 20
-140.166167
 30
0.0
 11
-639.696032
 21
-136.702069
 31
0.0
  0
LINE
  5
395
100
AcDbEntity
  8
0
370
    -3
  6
Continuous
100
AcDbLine
 10
-633.696038
 20
-136.702074
 30
0.0
 11
-633.696037
 21
-140.166172
 31
0.0
  0
LINE
  5
396
100
AcDbEntity
  8
0
370
    -3
  6
Continuous
100
AcDbLine
 10
-636.696028
 20
-134.970024
 30
0.0
 11
-639.696033
 21
-136.70207
 31
0.0
  0
LINE
  5
397
100
AcDbEntity
  8
0
370
    -3
  6
Continuous
100
AcDbLine
 10
-633.696037
 20
-140.166173
 30
0.0
 11
-636.696039
 21
-141.89822
 31
0.0
  0
LINE
  5
398
100
AcDbEntity
  8
0
370
    -3
  6
Continuous
100
AcDbLine
 10
-636.696028
 20
-134.970025
 30
0.0
 11
-633.696037
 21
-136.702075
 31
0.0
  0
LINE
  5
399
100
AcDbEntity
  8
0
370
    -3
  6
Continuous
100
AcDbLine
 10
-636.696039
 20
-141.89822
 30
0.0
 11
-639.696032
 21
-140.166168
 31
0.0
  0
CIRCLE
  5
39A
100
AcDbEntity
  8
0
370
    -3
  6
Continuous
100
AcDbCircle
 10
-721.696035
 20
-139.434121
 30
0.0
 40
5.633955
  0
CIRCLE
  5
39B
100
AcDbEntity
  8
0
370
    -3
  6
Continuous
100
AcDbCircle
 10
-721.696035
 20
-139.434121
 30
0.0
 40
6.5
  0
LINE
  5
39C
100
AcDbEntity
  8
0
370
    -3
  6
Continuous
100
AcDbLine
 10
-718.696038
 20
-141.166167
 30
0.0
 11
-718.696037
 21
-137.702069
 31
0.0
  0
LINE
  5
39D
100
AcDbEntity
  8
0
370
    -3
  6
Continuous
100
AcDbLine
 10
-724.696031
 20
-137.702074
 30
0.0
 11
-724.696032
 21
-141.166172
 31
0.0
  0
LINE
  5
39E
100
AcDbEntity
  8
0
370
    -3
  6
Continuous
100
AcDbLine
 10
-721.696041
 20
-135.970024
 30
0.0
 11
-718.696037
 21
-137.70207
 31
0.0
  0
LINE
  5
39F
100
AcDbEntity
  8
0
370
    -3
  6
Continuous
100
AcDbLine
 10
-724.696033
 20
-141.166173
 30
0.0
 11
-721.69603
 21
-142.89822
 31
0.0
  0
LINE
  5
3A0
100
AcDbEntity
  8
0
370
    -3
  6
Continuous
100
AcDbLine
 10
-721.696041
 20
-135.970025
 30
0.0
 11
-724.696032
 21
-137.702075
 31
0.0
  0
LINE
  5
3A1
100
AcDbEntity
  8
0
370
    -3
  6
Continuous
100
AcDbLine
 10
-721.69603
 20
-142.89822
 30
0.0
 11
-718.696037
 21
-141.166168
 31
0.0
  0
CIRCLE
  5
3A2
100
AcDbEntity
  8
0
370
    -3
  6
Continuous
100
AcDbCircle
 10
-766.196035
 20
-47.434121
 30
0.0
 40
5.633955
  0
CIRCLE
  5
3A3
100
AcDbEntity
  8
0
370
    -3
  6
Continuous
100
AcDbCircle
 10
-766.196035
 20
-47.434121
 30
0.0
 40
6.5
  0
LINE
  5
3A4
100
AcDbEntity
  8
0
370
    -3
  6
Continuous
100
AcDbLine
 10
-763.196038
 20
-49.166167
 30
0.0
 11
-763.196037
 21
-45.702069
 31
0.0
  0
LINE
  5
3A5
100
AcDbEntity
  8
0
370
    -3
  6
Continuous
100
AcDbLine
 10
-769.196031
 20
-45.702074
 30
0.0
 11
-769.196032
 21
-49.166172
 31
0.0
  0
LINE
  5
3A6
100
AcDbEntity
  8
0
370
    -3
  6
Continuous
100
AcDbLine
 10
-766.196041
 20
-43.970024
 30
0.0
 11
-763.196037
 21
-45.70207
 31
0.0
  0
LINE
  5
3A7
100
AcDbEntity
  8
0
370
    -3
  6
Continuous
100
AcDbLine
 10
-769.196033
 20
-49.166173
 30
0.0
 11
-766.19603
 21
-50.89822
 31
0.0
  0
LINE
  5
3A8
100
AcDbEntity
  8
0
370
    -3
  6
Continuous
100
AcDbLine
 10
-766.196041
 20
-43.970025
 30
0.0
 11
-769.196032
 21
-45.702075
 31
0.0
  0
LINE
  5
3A9
100
AcDbEntity
  8
0
370
    -3
  6
Continuous
100
AcDbLine
 10
-766.19603
 20
-50.89822
 30
0.0
 11
-763.196037
 21
-49.166168
 31
0.0
  0
CIRCLE
  5
3AA
100
AcDbEntity
  8
0
370
    -3
  6
Continuous
100
AcDbCircle
 10
-765.196035
 20
42.565878
 30
0.0
 40
5.633955
  0
CIRCLE
  5
3AB
100
AcDbEntity
  8
0
370
    -3
  6
Continuous
100
AcDbCircle
 10
-765.196035
 20
42.565878
 30
0.0
 40
6.5
  0
LINE
  5
3AC
100
AcDbEntity
  8
0
370
    -3
  6
Continuous
100
AcDbLine
 10
-762.196038
 20
40.833832
 30
0.0
 11
-762.196037
 21
44.29793
 31
0.0
  0
LINE
  5
3AD
100
AcDbEntity
  8
0
370
    -3
  6
Continuous
100
AcDbLine
 10
-768.196031
 20
44.297925
 30
0.0
 11
-768.196032
 21
40.833827
 31
0.0
  0
LINE
  5
3AE
100
AcDbEntity
  8
0
370
    -3
  6
Continuous
100
AcDbLine
 10
-765.196041
 20
46.029975
 30
0.0
 11
-762.196037
 21
44.29793
 31
0.0
  0
LINE
  5
3AF
100
AcDbEntity
  8
0
370
    -3
  6
Continuous
100
AcDbLine
 10
-768.196033
 20
40.833826
 30
0.0
 11
-765.19603
 21
39.101779
 31
0.0
  0
LINE
  5
3B0
100
AcDbEntity
  8
0
370
    -3
  6
Continuous
100
AcDbLine
 10
-765.196041
 20
46.029975
 30
0.0
 11
-768.196032
 21
44.297925
 31
0.0
  0
LINE
  5
3B1
100
AcDbEntity
  8
0
370
    -3
  6
Continuous
100
AcDbLine
 10
-765.19603
 20
39.10178
 30
0.0
 11
-762.196037
 21
40.833832
 31
0.0
  0
CIRCLE
  5
3B2
100
AcDbEntity
  8
0
370
    -3
  6
Continuous
100
AcDbCircle
 10
-694.196035
 20
111.565878
 30
0.0
 40
5.633955
  0
CIRCLE
  5
3B3
100
AcDbEntity
  8
0
370
    -3
  6
Continuous
100
AcDbCircle
 10
-694.196035
 20
111.565878
 30
0.0
 40
6.5
  0
LINE
  5
3B4
100
AcDbEntity
  8
0
370
    -3
  6
Continuous
100
AcDbLine
 10
-691.196038
 20
109.833832
 30
0.0
 11
-691.196037
 21
113.29793
 31
0.0
  0
LINE
  5
3B5
100
AcDbEntity
  8
0
370
    -3
  6
Continuous
100
AcDbLine
 10
-697.196031
 20
113.297925
 30
0.0
 11
-697.196032
 21
109.833827
 31
0.0
  0
LINE
  5
3B6
100
AcDbEntity
  8
0
370
    -3
  6
Continuous
100
AcDbLine
 10
-694.196041
 20
115.029975
 30
0.0
 11
-691.196037
 21
113.29793
 31
0.0
  0
LINE
  5
3B7
100
AcDbEntity
  8
0
370
    -3
  6
Continuous
100
AcDbLine
 10
-697.196033
 20
109.833826
 30
0.0
 11
-694.19603
 21
108.101779
 31
0.0
  0
LINE
  5
3B8
100
AcDbEntity
  8
0
370
    -3
  6
Continuous
100
AcDbLine
 10
-694.196041
 20
115.029975
 30
0.0
 11
-697.196032
 21
113.297925
 31
0.0
  0
LINE
  5
3B9
100
AcDbEntity
  8
0
370
    -3
  6
Continuous
100
AcDbLine
 10
-694.19603
 20
108.10178
 30
0.0
 11
-691.196037
 21
109.833832
 31
0.0
  0
CIRCLE
  5
3BA
100
AcDbEntity
  8
0
370
    -3
  6
Continuous
100
AcDbCircle
 10
-654.696035
 20
112.565879
 30
0.0
 40
5.633955
  0
CIRCLE
  5
3BB
100
AcDbEntity
  8
0
370
    -3
  6
Continuous
100
AcDbCircle
 10
-654.696035
 20
112.565879
 30
0.0
 40
6.5
  0
LINE
  5
3BC
100
AcDbEntity
  8
0
370
    -3
  6
Continuous
100
AcDbLine
 10
-651.696038
 20
110.833833
 30
0.0
 11
-651.696037
 21
114.297931
 31
0.0
  0
LINE
  5
3BD
100
AcDbEntity
  8
0
370
    -3
  6
Continuous
100
AcDbLine
 10
-657.696031
 20
114.297926
 30
0.0
 11
-657.696032
 21
110.833828
 31
0.0
  0
LINE
  5
3BE
100
AcDbEntity
  8
0
370
    -3
  6
Continuous
100
AcDbLine
 10
-654.696041
 20
116.029976
 30
0.0
 11
-651.696037
 21
114.29793
 31
0.0
  0
LINE
  5
3BF
100
AcDbEntity
  8
0
370
    -3
  6
Continuous
100
AcDbLine
 10
-657.696033
 20
110.833827
 30
0.0
 11
-654.69603
 21
109.10178
 31
0.0
  0
LINE
  5
3C0
100
AcDbEntity
  8
0
370
    -3
  6
Continuous
100
AcDbLine
 10
-654.696041
 20
116.029975
 30
0.0
 11
-657.696032
 21
114.297925
 31
0.0
  0
LINE
  5
3C1
100
AcDbEntity
  8
0
370
    -3
  6
Continuous
100
AcDbLine
 10
-654.69603
 20
109.10178
 30
0.0
 11
-651.696037
 21
110.833832
 31
0.0
  0
CIRCLE
  5
3C2
100
AcDbEntity
  8
0
370
    -3
  6
Continuous
100
AcDbCircle
 10
-633.696035
 20
112.565879
 30
0.0
 40
5.633955
  0
CIRCLE
  5
3C3
100
AcDbEntity
  8
0
370
    -3
  6
Continuous
100
AcDbCircle
 10
-633.696035
 20
112.565879
 30
0.0
 40
6.5
  0
LINE
  5
3C4
100
AcDbEntity
  8
0
370
    -3
  6
Continuous
100
AcDbLine
 10
-636.696031
 20
110.833833
 30
0.0
 11
-636.696032
 21
114.297931
 31
0.0
  0
LINE
  5
3C5
100
AcDbEntity
  8
0
370
    -3
  6
Continuous
100
AcDbLine
 10
-630.696038
 20
114.297926
 30
0.0
 11
-630.696037
 21
110.833828
 31
0.0
  0
LINE
  5
3C6
100
AcDbEntity
  8
0
370
    -3
  6
Continuous
100
AcDbLine
 10
-633.696028
 20
116.029976
 30
0.0
 11
-636.696033
 21
114.29793
 31
0.0
  0
LINE
  5
3C7
100
AcDbEntity
  8
0
370
    -3
  6
Continuous
100
AcDbLine
 10
-630.696037
 20
110.833827
 30
0.0
 11
-633.696039
 21
109.10178
 31
0.0
  0
LINE
  5
3C8
100
AcDbEntity
  8
0
370
    -3
  6
Continuous
100
AcDbLine
 10
-633.696028
 20
116.029975
 30
0.0
 11
-630.696037
 21
114.297925
 31
0.0
  0
LINE
  5
3C9
100
AcDbEntity
  8
0
370
    -3
  6
Continuous
100
AcDbLine
 10
-633.696039
 20
109.10178
 30
0.0
 11
-636.696032
 21
110.833832
 31
0.0
  0
CIRCLE
  5
3CA
100
AcDbEntity
  8
0
370
    -3
  6
Continuous
100
AcDbCircle
 10
-594.196035
 20
111.565878
 30
0.0
 40
5.633955
  0
CIRCLE
  5
3CB
100
AcDbEntity
  8
0
370
    -3
  6
Continuous
100
AcDbCircle
 10
-594.196035
 20
111.565878
 30
0.0
 40
6.5
  0
LINE
  5
3CC
100
AcDbEntity
  8
0
370
    -3
  6
Continuous
100
AcDbLine
 10
-597.196031
 20
109.833832
 30
0.0
 11
-597.196032
 21
113.29793
 31
0.0
  0
LINE
  5
3CD
100
AcDbEntity
  8
0
370
    -3
  6
Continuous
100
AcDbLine
 10
-591.196038
 20
113.297925
 30
0.0
 11
-591.196037
 21
109.833827
 31
0.0
  0
LINE
  5
3CE
100
AcDbEntity
  8
0
370
    -3
  6
Continuous
100
AcDbLine
 10
-594.196028
 20
115.029975
 30
0.0
 11
-597.196033
 21
113.29793
 31
0.0
  0
LINE
  5
3CF
100
AcDbEntity
  8
0
370
    -3
  6
Continuous
100
AcDbLine
 10
-591.196037
 20
109.833826
 30
0.0
 11
-594.196039
 21
108.101779
 31
0.0
  0
LINE
  5
3D0
100
AcDbEntity
  8
0
370
    -3
  6
Continuous
100
AcDbLine
 10
-594.196028
 20
115.029975
 30
0.0
 11
-591.196037
 21
113.297925
 31
0.0
  0
LINE
  5
3D1
100
AcDbEntity
  8
0
370
    -3
  6
Continuous
100
AcDbLine
 10
-594.196039
 20
108.10178
 30
0.0
 11
-597.196032
 21
109.833832
 31
0.0
  0
CIRCLE
  5
3D2
100
AcDbEntity
  8
0
370
    -3
  6
Continuous
100
AcDbCircle
 10
-523.196035
 20
42.565878
 30
0.0
 40
5.633955
  0
CIRCLE
  5
3D3
100
AcDbEntity
  8
0
370
    -3
  6
Continuous
100
AcDbCircle
 10
-523.196035
 20
42.565878
 30
0.0
 40
6.5
  0
LINE
  5
3D4
100
AcDbEntity
  8
0
370
    -3
  6
Continuous
100
AcDbLine
 10
-526.196031
 20
40.833832
 30
0.0
 11
-526.196032
 21
44.29793
 31
0.0
  0
LINE
  5
3D5
100
AcDbEntity
  8
0
370
    -3
  6
Continuous
100
AcDbLine
 10
-520.196038
 20
44.297925
 30
0.0
 11
-520.196037
 21
40.833827
 31
0.0
  0
LINE
  5
3D6
100
AcDbEntity
  8
0
370
    -3
  6
Continuous
100
AcDbLine
 10
-523.196028
 20
46.029975
 30
0.0
 11
-526.196033
 21
44.29793
 31
0.0
  0
LINE
  5
3D7
100
AcDbEntity
  8
0
370
    -3
  6
Continuous
100
AcDbLine
 10
-520.196037
 20
40.833826
 30
0.0
 11
-523.196039
 21
39.101779
 31
0.0
  0
LINE
  5
3D8
100
AcDbEntity
  8
0
370
    -3
  6
Continuous
100
AcDbLine
 10
-523.196028
 20
46.029975
 30
0.0
 11
-520.196037
 21
44.297925
 31
0.0
  0
LINE
  5
3D9
100
AcDbEntity
  8
0
370
    -3
  6
Continuous
100
AcDbLine
 10
-523.196039
 20
39.10178
 30
0.0
 11
-526.196032
 21
40.833832
 31
0.0
  0
POINT
  5
3DA
100
AcDbEntity
  8
0
370
    -3
  6
Continuous
100
AcDbPoint
 10
-523.196035
 20
48.199833
 30
0.0
  0
POINT
  5
3DB
100
AcDbEntity
  8
0
370
    -3
  6
Continuous
100
AcDbPoint
 10
-522.696035
 20
49.065878
 30
0.0
  0
POINT
  5
3DC
100
AcDbEntity
  8
0
370
    -3
  6
Continuous
100
AcDbPoint
 10
-594.196035
 20
117.199833
 30
0.0
  0
POINT
  5
3DD
100
AcDbEntity
  8
0
370
    -3
  6
Continuous
100
AcDbPoint
 10
-593.696035
 20
118.065878
 30
0.0
  0
POINT
  5
3DE
100
AcDbEntity
  8
0
370
    -3
  6
Continuous
100
AcDbPoint
 10
-633.696035
 20
118.199834
 30
0.0
  0
POINT
  5
3DF
100
AcDbEntity
  8
0
370
    -3
  6
Continuous
100
AcDbPoint
 10
-633.196035
 20
119.065879
 30
0.0
  0
POINT
  5
3E0
100
AcDbEntity
  8
0
370
    -3
  6
Continuous
100
AcDbPoint
 10
-654.696035
 20
118.199834
 30
0.0
  0
POINT
  5
3E1
100
AcDbEntity
  8
0
370
    -3
  6
Continuous
100
AcDbPoint
 10
-655.196035
 20
119.065879
 30
0.0
  0
POINT
  5
3E2
100
AcDbEntity
  8
0
370
    -3
  6
Continuous
100
AcDbPoint
 10
-694.196035
 20
117.199833
 30
0.0
  0
POINT
  5
3E3
100
AcDbEntity
  8
0
370
    -3
  6
Continuous
100
AcDbPoint
 10
-694.696035
 20
118.065878
 30
0.0
  0
POINT
  5
3E4
100
AcDbEntity
  8
0
370
    -3
  6
Continuous
100
AcDbPoint
 10
-765.196035
 20
48.199833
 30
0.0
  0
POINT
  5
3E5
100
AcDbEntity
  8
0
370
    -3
  6
Continuous
100
AcDbPoint
 10
-765.696035
 20
49.065878
 30
0.0
  0
POINT
  5
3E6
100
AcDbEntity
  8
0
370
    -3
  6
Continuous
100
AcDbPoint
 10
-766.196035
 20
-41.800166
 30
0.0
  0
POINT
  5
3E7
100
AcDbEntity
  8
0
370
    -3
  6
Continuous
100
AcDbPoint
 10
-766.696035
 20
-40.934121
 30
0.0
  0
POINT
  5
3E8
100
AcDbEntity
  8
0
370
    -3
  6
Continuous
100
AcDbPoint
 10
-721.696035
 20
-133.800166
 30
0.0
  0
POINT
  5
3E9
100
AcDbEntity
  8
0
370
    -3
  6
Continuous
100
AcDbPoint
 10
-722.196035
 20
-132.934121
 30
0.0
  0
POINT
  5
3EA
100
AcDbEntity
  8
0
370
    -3
  6
Continuous
100
AcDbPoint
 10
-636.696035
 20
-132.800166
 30
0.0
  0
POINT
  5
3EB
100
AcDbEntity
  8
0
370
    -3
  6
Continuous
100
AcDbPoint
 10
-636.196035
 20
-131.934121
 30
0.0
  0
POINT
  5
3EC
100
AcDbEntity
  8
0
370
    -3
  6
Continuous
100
AcDbPoint
 10
-566.696035
 20
-133.800166
 30
0.0
  0
POINT
  5
3ED
100
AcDbEntity
  8
0
370
    -3
  6
Continuous
100
AcDbPoint
 10
-566.196035
 20
-132.934121
 30
0.0
  0
LINE
  5
3EE
100
AcDbEntity
  8
0
370
    -3
  6
Continuous
100
AcDbLine
 10
-217.608736
 20
430.271059
 30
0.0
 11
-372.608737
 21
430.271059
 31
0.0
  0
LINE
  5
3EF
100
AcDbEntity
  8
0
370
    -3
  6
Continuous
100
AcDbLine
 10
-217.608736
 20
421.150272
 30
0.0
 11
-372.608737
 21
421.150272
 31
0.0
  0
LINE
  5
3F0
100
AcDbEntity
  8
0
370
    -3
  6
Continuous
100
AcDbLine
 10
-217.608736
 20
414.079204
 30
0.0
 11
-372.608737
 21
414.079204
 31
0.0
  0
LINE
  5
3F1
100
AcDbEntity
  8
0
370
    -3
  6
Continuous
100
AcDbLine
 10
-217.608736
 20
401.408784
 30
0.0
 11
-372.608737
 21
401.408784
 31
0.0
  0
LINE
  5
3F2
100
AcDbEntity
  8
0
370
    -3
  6
Continuous
100
AcDbLine
 10
-217.608736
 20
399.186457
 30
0.0
 11
-372.608737
 21
399.186457
 31
0.0
  0
LINE
  5
3F3
100
AcDbEntity
  8
0
370
    -3
  6
Continuous
100
AcDbLine
 10
-217.608736
 20
391.375998
 30
0.0
 11
-372.608737
 21
391.375998
 31
0.0
  0
LINE
  5
3F4
100
AcDbEntity
  8
0
370
    -3
  6
Continuous
100
AcDbLine
 10
-217.608736
 20
389.209287
 30
0.0
 11
-372.608737
 21
389.209287
 31
0.0
  0
LINE
  5
3F5
100
AcDbEntity
  8
0
370
    -3
  6
Continuous
100
AcDbLine
 10
-217.608736
 20
381.31368
 30
0.0
 11
-372.608737
 21
381.31368
 31
0.0
  0
LINE
  5
3F6
100
AcDbEntity
  8
0
370
    -3
  6
Continuous
100
AcDbLine
 10
-217.608736
 20
379.248917
 30
0.0
 11
-372.608737
 21
379.248917
 31
0.0
  0
LINE
  5
3F7
100
AcDbEntity
  8
0
370
    -3
  6
Continuous
100
AcDbLine
 10
-220.608735
 20
371.242788
 30
0.0
 11
-372.608737
 21
371.242788
 31
0.0
  0
LINE
  5
3F8
100
AcDbEntity
  8
0
370
    -3
  6
Continuous
100
AcDbLine
 10
-220.608735
 20
369.300404
 30
0.0
 11
-372.608737
 21
369.300404
 31
0.0
  0
LINE
  5
3F9
100
AcDbEntity
  8
0
370
    -3
  6
Continuous
100
AcDbLine
 10
-220.608735
 20
361.210329
 30
0.0
 11
-372.608737
 21
361.210329
 31
0.0
  0
LINE
  5
3FA
100
AcDbEntity
  8
0
370
    -3
  6
Continuous
100
AcDbLine
 10
-217.608736
 20
359.315557
 30
0.0
 11
-372.608737
 21
359.315557
 31
0.0
  0
LINE
  5
3FB
100
AcDbEntity
  8
0
370
    -3
  6
Continuous
100
AcDbLine
 10
-220.134422
 20
351.226562
 30
0.0
 11
-372.608737
 21
351.226562
 31
0.0
  0
LINE
  5
3FC
100
AcDbEntity
  8
0
370
    -3
  6
Continuous
100
AcDbLine
 10
-220.608735
 20
349.33179
 30
0.0
 11
-372.608737
 21
349.33179
 31
0.0
  0
LINE
  5
3FD
100
AcDbEntity
  8
0
370
    -3
  6
Continuous
100
AcDbLine
 10
-220.608735
 20
341.241715
 30
0.0
 11
-372.608737
 21
341.241715
 31
0.0
  0
LINE
  5
3FE
100
AcDbEntity
  8
0
370
    -3
  6
Continuous
100
AcDbLine
 10
-220.608735
 20
339.299331
 30
0.0
 11
-372.608737
 21
339.299331
 31
0.0
  0
LINE
  5
3FF
100
AcDbEntity
  8
0
370
    -3
  6
Continuous
100
AcDbLine
 10
-217.608736
 20
331.293202
 30
0.0
 11
-372.608737
 21
331.293202
 31
0.0
  0
LINE
  5
400
100
AcDbEntity
  8
0
370
    -3
  6
Continuous
100
AcDbLine
 10
-217.608736
 20
329.228439
 30
0.0
 11
-372.608737
 21
329.228439
 31
0.0
  0
LINE
  5
401
100
AcDbEntity
  8
0
370
    -3
  6
Continuous
100
AcDbLine
 10
-217.608736
 20
321.332832
 30
0.0
 11
-372.608737
 21
321.332832
 31
0.0
  0
LINE
  5
402
100
AcDbEntity
  8
0
370
    -3
  6
Continuous
100
AcDbLine
 10
-217.608736
 20
319.166121
 30
0.0
 11
-372.608737
 21
319.166121
 31
0.0
  0
LINE
  5
403
100
AcDbEntity
  8
0
370
    -3
  6
Continuous
100
AcDbLine
 10
-372.608737
 20
438.771059
 30
0.0
 11
-217.608736
 21
438.771059
 31
0.0
  0
LINE
  5
404
100
AcDbEntity
  8
0
370
    -3
  6
Continuous
100
AcDbLine
 10
-445.608737
 20
424.211528
 30
0.0
 11
-445.608737
 21
355.271059
 31
0.0
  0
LINE
  5
405
100
AcDbEntity
  8
0
370
    -3
  6
Continuous
100
AcDbLine
 10
-443.708737
 20
427.502425
 30
0.0
 11
-427.076769
 21
437.104896
 31
0.0
  0
ARC
  5
406
100
AcDbEntity
  8
0
370
    -3
  6
Continuous
100
AcDbCircle
 10
-406.676769
 20
401.771059
 30
0.0
 40
40.8
100
AcDbArc
 50
90.0
 51
120.0
  0
ARC
  5
407
100
AcDbEntity
  8
0
370
    -3
  6
Continuous
100
AcDbCircle
 10
-441.808737
 20
424.211528
 30
0.0
 40
3.8
100
AcDbArc
 50
120.0
 51
180.0
  0
ELLIPSE
  5
408
100
AcDbEntity
  8
0
370
    -3
  6
Continuous
100
AcDbEllipse
 10
-398.108736
 20
420.922494
 30
0.0
 11
5.0
 21
0.0
 31
0.0
210
0.0
220
0.0
230
1.0
 40
0.707107
 41
3.1415926535897931
 42
0.0
  0
LINE
  5
409
100
AcDbEntity
  8
0
370
    -3
  6
Continuous
100
AcDbLine
 10
-403.108736
 20
421.739097
 30
0.0
 11
-403.108736
 21
420.922494
 31
0.0
  0
LINE
  5
40A
100
AcDbEntity
  8
0
370
    -3
  6
Continuous
100
AcDbLine
 10
-393.108736
 20
421.739097
 30
0.0
 11
-393.108736
 21
420.922494
 31
0.0
  0
ELLIPSE
  5
40B
100
AcDbEntity
  8
0
370
    -3
  6
Continuous
100
AcDbEllipse
 10
-398.108736
 20
421.739097
 30
0.0
 11
4.5
 21
0.0
 31
0.0
210
0.0
220
0.0
230
1.0
 40
0.707107
 41
3.1415926535897931
 42
0.0
  0
LINE
  5
40C
100
AcDbEntity
  8
0
370
    -3
  6
Continuous
100
AcDbLine
 10
-402.608736
 20
422.304782
 30
0.0
 11
-402.608736
 21
421.739097
 31
0.0
  0
LINE
  5
40D
100
AcDbEntity
  8
0
370
    -3
  6
Continuous
100
AcDbLine
 10
-393.608736
 20
422.304782
 30
0.0
 11
-393.608736
 21
421.739097
 31
0.0
  0
ELLIPSE
  5
40E
100
AcDbEntity
  8
0
370
    -3
  6
Continuous
100
AcDbEllipse
 10
-398.108736
 20
421.739097
 30
0.0
 11
5.0
 21
0.0
 31
0.0
210
0.0
220
0.0
230
1.0
 40
0.707107
 41
0.0
 42
0.7392718269406207
  0
ELLIPSE
  5
40F
100
AcDbEntity
  8
0
370
    -3
  6
Continuous
100
AcDbEllipse
 10
-398.108736
 20
421.739097
 30
0.0
 11
5.0
 21
0.0
 31
0.0
210
0.0
220
0.0
230
1.0
 40
0.707107
 41
2.4023208266491722
 42
3.1415926535897931
  0
ELLIPSE
  5
410
100
AcDbEntity
  8
0
370
    -3
  6
Continuous
100
AcDbEllipse
 10
-398.108736
 20
422.8413
 30
0.0
 11
3.5
 21
0.0
 31
0.0
210
0.0
220
0.0
230
1.0
 40
0.860398
 41
0.0
 42
6.2831853071795862
  0
ELLIPSE
  5
411
100
AcDbEntity
  8
0
370
    -3
  6
Continuous
100
AcDbEllipse
 10
-398.108736
 20
422.304782
 30
0.0
 11
4.5
 21
0.0
 31
0.0
210
0.0
220
0.0
230
1.0
 40
0.707107
 41
2.158706662346169
 42
0.9828859912436241
  0
LINE
  5
412
100
AcDbEntity
  8
0
370
    -3
  6
Continuous
100
AcDbLine
 10
-398.108736
 20
424.14326
 30
0.0
 11
-396.108736
 21
422.569922
 31
0.0
  0
LINE
  5
413
100
AcDbEntity
  8
0
370
    -3
  6
Continuous
100
AcDbLine
 10
-398.108736
 20
424.14326
 30
0.0
 11
-396.179531
 21
425.353922
 31
0.0
  0
LINE
  5
414
100
AcDbEntity
  8
0
370
    -3
  6
Continuous
100
AcDbLine
 10
-398.108736
 20
424.14326
 30
0.0
 11
-400.108736
 21
422.569922
 31
0.0
  0
LINE
  5
415
100
AcDbEntity
  8
0
370
    -3
  6
Continuous
100
AcDbLine
 10
-398.108736
 20
424.14326
 30
0.0
 11
-400.037941
 21
425.353922
 31
0.0
  0
LINE
  5
416
100
AcDbEntity
  8
0
370
    -3
  6
Continuous
100
AcDbLine
 10
-406.676769
 20
442.571059
 30
0.0
 11
-372.608737
 21
442.571059
 31
0.0
  0
LINE
  5
417
100
AcDbEntity
  8
0
370
    -3
  6
Continuous
100
AcDbLine
 10
-372.608737
 20
442.571059
 30
0.0
 11
-372.608737
 21
355.271059
 31
0.0
  0
LINE
  5
418
100
AcDbEntity
  8
0
370
    -3
  6
Continuous
100
AcDbLine
 10
-217.608736
 20
435.271059
 30
0.0
 11
-372.608737
 21
435.271059
 31
0.0
  0
LINE
  5
419
100
AcDbEntity
  8
0
370
    -3
  6
Continuous
100
AcDbLine
 10
-217.608736
 20
437.771059
 30
0.0
 11
-372.608737
 21
437.771059
 31
0.0
  0
LINE
  5
41A
100
AcDbEntity
  8
0
370
    -3
  6
Continuous
100
AcDbLine
 10
-217.608736
 20
438.271059
 30
0.0
 11
-372.608737
 21
438.271059
 31
0.0
  0
MTEXT
  5
41B
100
AcDbEntity
  8
0
370
    -3
  6
Continuous
100
AcDbMText
 10
-712.665894
 20
414.05191
 30
0.0
 40
15.0
 41
0.0
 71
     7
 72
     1
  1
\W0.63;三菱ギヤードモータ  
  7
ZU_SHPTB00001
 11
1.0
 21
0.0
 31
0.0
 73
     1
 44
1.0
  0
MTEXT
  5
41C
100
AcDbEntity
  8
0
370
    -3
  6
Continuous
100
AcDbMText
 10
-712.665894
 20
414.05191
 30
0.0
 40
15.0
 41
0.0
 71
     7
 72
     1
  1
\W0.63;三菱ギヤードモータ  
  7
ZU_SHPTB00001
 11
1.0
 21
0.0
 31
0.0
 73
     1
 44
1.0
  0
MTEXT
  5
41D
100
AcDbEntity
  8
0
370
    -3
  6
Continuous
100
AcDbMText
 10
-712.665894
 20
380.151886
 30
0.0
 40
15.0
 41
0.0
 71
     7
 72
     1
  1
\W0.43;2.2kW
  7
ZU_SHPTB00001
 11
1.0
 21
0.0
 31
0.0
 73
     1
 44
1.0
  0
MTEXT
  5
41E
100
AcDbEntity
  8
0
370
    -3
  6
Continuous
100
AcDbMText
 10
-712.665894
 20
329.30188
 30
0.0
 40
15.0
 41
0.0
 71
     7
 72
     1
  1
\W0.43;SCALE\W0.72;  \W0.43;1/1
  7
ZU_SHPTB00001
 11
1.0
 21
0.0
 31
0.0
 73
     1
 44
1.0
  0
MTEXT
  5
41F
100
AcDbEntity
  8
0
370
    -3
  6
Continuous
100
AcDbMText
 10
-712.665894
 20
397.101898
 30
0.0
 40
15.0
 41
0.0
 71
     7
 72
     1
  1
\W0.48;GV-S
  7
ZU_SHPTB00001
 11
1.0
 21
0.0
 31
0.0
 73
     1
 44
1.0
  0
MTEXT
  5
420
100
AcDbEntity
  8
0
370
    -3
  6
Continuous
100
AcDbMText
 10
-712.665894
 20
363.201904
 30
0.0
 40
15.0
 41
0.0
 71
     7
 72
     1
  1
\W0.43;25-15r/min\W0.53;　
  7
ZU_SHPTB00001
 11
1.0
 21
0.0
 31
0.0
 73
     1
 44
1.0
  0
MTEXT
  5
421
100
AcDbEntity
  8
0
370
    -3
  6
Continuous
100
AcDbMText
 10
-712.665894
 20
346.251892
 30
0.0
 40
15.0
 41
0.0
 71
     7
 72
     1
  1
\W0.42;GEAR\W0.70; \W0.42;RATIO\W0.70;  \W0.42;1/120-1/200
  7
ZU_SHPTB00001
 11
1.0
 21
0.0
 31
0.0
 73
     1
 44
1.0
  0
LINE
  5
422
100
AcDbEntity
  8
0
370
    -3
  6
Continuous
100
AcDbLine
 10
-325.511267
 20
27.365879
 30
0.0
 11
-408.382796
 21
27.365879
 31
0.0
  0
ARC
  5
423
100
AcDbEntity
  8
0
370
    -3
  6
Continuous
100
AcDbCircle
 10
-408.382796
 20
19.565879
 30
0.0
 40
7.8
100
AcDbArc
 50
90.0
 51
180.0
  0
ARC
  5
424
100
AcDbEntity
  8
0
370
    -3
  6
Continuous
100
AcDbCircle
 10
-405.93161
 20
19.565879
 30
0.0
 40
7.8
100
AcDbArc
 50
90.0
 51
180.0
  0
LINE
  5
425
100
AcDbEntity
  8
0
370
    -3
  6
Continuous
100
AcDbLine
 10
-416.182796
 20
-19.434121
 30
0.0
 11
-416.182796
 21
19.565879
 31
0.0
  0
LINE
  5
426
100
AcDbEntity
  8
0
370
    -3
  6
Continuous
100
AcDbLine
 10
-413.73161
 20
-19.434121
 30
0.0
 11
-413.73161
 21
19.565879
 31
0.0
  0
ARC
  5
427
100
AcDbEntity
  8
0
370
    -3
  6
Continuous
100
AcDbCircle
 10
-393.16426
 20
15.315879
 30
0.0
 40
3.8
100
AcDbArc
 50
90.0
 51
138.609573
  0
LINE
  5
428
100
AcDbEntity
  8
0
370
    -3
  6
Continuous
100
AcDbLine
 10
-396.015102
 20
17.828387
 30
0.0
 11
-404.991837
 21
7.64285
 31
0.0
  0
ARC
  5
429
100
AcDbEntity
  8
0
370
    -3
  6
Continuous
100
AcDbCircle
 10
-402.140995
 20
5.130341
 30
0.0
 40
3.8
100
AcDbArc
 50
138.609573
 51
180.0
  0
LINE
  5
42A
100
AcDbEntity
  8
0
370
    -3
  6
Continuous
100
AcDbLine
 10
-405.940995
 20
-19.434121
 30
0.0
 11
-405.940995
 21
5.130341
 31
0.0
  0
ELLIPSE
  5
42B
100
AcDbEntity
  8
0
370
    -3
  6
Continuous
100
AcDbEllipse
 10
-406.394632
 20
20.065879
 30
0.0
 11
0.0
 21
3.5
 31
0.0
210
0.0
220
0.0
230
1.0
 40
0.982815
 41
0.0
 42
6.2831853071795862
  0
LINE
  5
42C
100
AcDbEntity
  8
0
370
    -3
  6
Continuous
100
AcDbLine
 10
-407.471321
 20
22.065879
 30
0.0
 11
-405.563602
 21
20.065879
 31
0.0
  0
LINE
  5
42D
100
AcDbEntity
  8
0
370
    -3
  6
Continuous
100
AcDbLine
 10
-405.563602
 20
20.065879
 30
0.0
 11
-403.84609
 21
18.065879
 31
0.0
  0
LINE
  5
42E
100
AcDbEntity
  8
0
370
    -3
  6
Continuous
100
AcDbLine
 10
-403.84609
 20
22.065879
 30
0.0
 11
-405.563602
 21
20.065879
 31
0.0
  0
LINE
  5
42F
100
AcDbEntity
  8
0
370
    -3
  6
Continuous
100
AcDbLine
 10
-405.563602
 20
20.065879
 30
0.0
 11
-407.471321
 21
18.065879
 31
0.0
  0
POINT
  5
430
100
AcDbEntity
  8
0
370
    -3
  6
CENTER
100
AcDbPoint
 10
-436.774715
 20
-32.103172
 30
0.0
  0
LINE
  5
431
100
AcDbEntity
  8
0
370
    -3
  6
Continuous
100
AcDbLine
 10
-416.182796
 20
-19.434121
 30
0.0
 11
-416.182796
 21
-58.434121
 31
0.0
  0
LINE
  5
432
100
AcDbEntity
  8
0
370
    -3
  6
Continuous
100
AcDbLine
 10
-413.73161
 20
-19.434121
 30
0.0
 11
-413.73161
 21
-58.434121
 31
0.0
  0
LINE
  5
433
100
AcDbEntity
  8
0
370
    -3
  6
Continuous
100
AcDbLine
 10
-396.015102
 20
-56.69663
 30
0.0
 11
-404.991837
 21
-46.511093
 31
0.0
  0
ARC
  5
434
100
AcDbEntity
  8
0
370
    -3
  6
Continuous
100
AcDbCircle
 10
-402.140995
 20
-43.998584
 30
0.0
 40
3.8
100
AcDbArc
 50
180.0
 51
221.390427
  0
LINE
  5
435
100
AcDbEntity
  8
0
370
    -3
  6
Continuous
100
AcDbLine
 10
-405.940995
 20
-19.434121
 30
0.0
 11
-405.940995
 21
-43.998584
 31
0.0
  0
LINE
  5
436
100
AcDbEntity
  8
0
370
    -3
  6
Continuous
100
AcDbLine
 10
-436.608736
 20
-19.434121
 30
0.0
 11
-436.608736
 21
-34.434121
 31
0.0
  0
ARC
  5
437
100
AcDbEntity
  8
0
370
    -3
  6
Continuous
100
AcDbCircle
 10
-434.608736
 20
-34.434121
 30
0.0
 40
2.0
100
AcDbArc
 50
180.0
 51
270.0
  0
LINE
  5
438
100
AcDbEntity
  8
0
370
    -3
  6
Continuous
100
AcDbLine
 10
-434.608736
 20
-36.434121
 30
0.0
 11
-416.182796
 21
-36.434121
 31
0.0
  0
LINE
  5
439
100
AcDbEntity
  8
0
370
    -3
  6
Continuous
100
AcDbLine
 10
-325.511267
 20
-66.234121
 30
0.0
 11
-408.382796
 21
-66.234121
 31
0.0
  0
ARC
  5
43A
100
AcDbEntity
  8
0
370
    -3
  6
Continuous
100
AcDbCircle
 10
-408.382796
 20
-58.434121
 30
0.0
 40
7.8
100
AcDbArc
 50
180.0
 51
270.0
  0
ARC
  5
43B
100
AcDbEntity
  8
0
370
    -3
  6
Continuous
100
AcDbCircle
 10
-405.93161
 20
-58.434121
 30
0.0
 40
7.8
100
AcDbArc
 50
180.0
 51
270.0
  0
ARC
  5
43C
100
AcDbEntity
  8
0
370
    -3
  6
Continuous
100
AcDbCircle
 10
-393.16426
 20
-54.184121
 30
0.0
 40
3.8
100
AcDbArc
 50
221.390427
 51
270.0
  0
ELLIPSE
  5
43D
100
AcDbEntity
  8
0
370
    -3
  6
Continuous
100
AcDbEllipse
 10
-406.394632
 20
-58.934121
 30
0.0
 11
0.0000000000002274
 21
3.5
 31
0.0
210
0.0
220
0.0
230
1.0
 40
0.982815
 41
0.0
 42
6.2831853071795862
  0
LINE
  5
43E
100
AcDbEntity
  8
0
370
    -3
  6
Continuous
100
AcDbLine
 10
-407.471321
 20
-60.934121
 30
0.0
 11
-405.563602
 21
-58.934121
 31
0.0
  0
LINE
  5
43F
100
AcDbEntity
  8
0
370
    -3
  6
Continuous
100
AcDbLine
 10
-405.563602
 20
-58.934121
 30
0.0
 11
-403.84609
 21
-56.934121
 31
0.0
  0
LINE
  5
440
100
AcDbEntity
  8
0
370
    -3
  6
Continuous
100
AcDbLine
 10
-403.84609
 20
-60.934121
 30
0.0
 11
-405.563602
 21
-58.934121
 31
0.0
  0
LINE
  5
441
100
AcDbEntity
  8
0
370
    -3
  6
Continuous
100
AcDbLine
 10
-405.563602
 20
-58.934121
 30
0.0
 11
-407.471321
 21
-56.934121
 31
0.0
  0
LINE
  5
442
100
AcDbEntity
  8
0
370
    -3
  6
Continuous
100
AcDbLine
 10
-393.16426
 20
-57.984121
 30
0.0
 11
-337.668204
 21
-57.984121
 31
0.0
  0
ARC
  5
443
100
AcDbEntity
  8
0
370
    -3
  6
Continuous
100
AcDbCircle
 10
-325.511267
 20
-58.434121
 30
0.0
 40
7.8
100
AcDbArc
 50
270.0
 51
360.0
  0
ARC
  5
444
100
AcDbEntity
  8
0
370
    -3
  6
Continuous
100
AcDbCircle
 10
-337.668204
 20
-54.184121
 30
0.0
 40
3.8
100
AcDbArc
 50
270.0
 51
318.14922
  0
ARC
  5
445
100
AcDbEntity
  8
0
370
    -3
  6
Continuous
100
AcDbCircle
 10
-345.182783
 20
-47.984121
 30
0.0
 40
10.0
100
AcDbArc
 50
270.0
 51
360.0
  0
LINE
  5
446
100
AcDbEntity
  8
0
370
    -3
  6
Continuous
100
AcDbLine
 10
-335.182783
 20
-19.434121
 30
0.0
 11
-335.182783
 21
-47.984121
 31
0.0
  0
LINE
  5
447
100
AcDbEntity
  8
0
370
    -3
  6
Continuous
100
AcDbLine
 10
-324.997313
 20
-60.934121
 30
0.0
 11
-323.089593
 21
-58.934121
 31
0.0
  0
LINE
  5
448
100
AcDbEntity
  8
0
370
    -3
  6
Continuous
100
AcDbLine
 10
-323.089593
 20
-58.934121
 30
0.0
 11
-324.997313
 21
-56.934121
 31
0.0
  0
LINE
  5
449
100
AcDbEntity
  8
0
370
    -3
  6
Continuous
100
AcDbLine
 10
-317.711267
 20
-19.434121
 30
0.0
 11
-317.711267
 21
-58.434121
 31
0.0
  0
LINE
  5
44A
100
AcDbEntity
  8
0
370
    -3
  6
Continuous
100
AcDbLine
 10
-317.711267
 20
-19.434121
 30
0.0
 11
-317.711267
 21
19.565879
 31
0.0
  0
LINE
  5
44B
100
AcDbEntity
  8
0
370
    -3
  6
Continuous
100
AcDbLine
 10
-324.729376
 20
-19.434121
 30
0.0
 11
-324.729376
 21
5.11287
 31
0.0
  0
LINE
  5
44C
100
AcDbEntity
  8
0
370
    -3
  6
Continuous
100
AcDbLine
 10
-335.182783
 20
-19.434121
 30
0.0
 11
-335.182783
 21
9.115879
 31
0.0
  0
ARC
  5
44D
100
AcDbEntity
  8
0
370
    -3
  6
Continuous
100
AcDbCircle
 10
-337.668204
 20
15.315879
 30
0.0
 40
3.8
100
AcDbArc
 50
41.85078
 51
90.0
  0
LINE
  5
44E
100
AcDbEntity
  8
0
370
    -3
  6
Continuous
100
AcDbLine
 10
-393.16426
 20
19.115879
 30
0.0
 11
-337.668204
 21
19.115879
 31
0.0
  0
ARC
  5
44F
100
AcDbEntity
  8
0
370
    -3
  6
Continuous
100
AcDbCircle
 10
-345.182783
 20
9.115879
 30
0.0
 40
10.0
100
AcDbArc
 50
0.0
 51
90.0
  0
LINE
  5
450
100
AcDbEntity
  8
0
370
    -3
  6
Continuous
100
AcDbLine
 10
-334.837641
 20
17.851212
 30
0.0
 11
-325.698814
 21
7.648203
 31
0.0
  0
ARC
  5
451
100
AcDbEntity
  8
0
370
    -3
  6
Continuous
100
AcDbCircle
 10
-328.529376
 20
5.11287
 30
0.0
 40
3.8
100
AcDbArc
 50
0.0
 51
41.85078
  0
ARC
  5
452
100
AcDbEntity
  8
0
370
    -3
  6
Continuous
100
AcDbCircle
 10
-325.511267
 20
19.565879
 30
0.0
 40
7.8
100
AcDbArc
 50
0.0
 51
90.0
  0
ELLIPSE
  5
453
100
AcDbEntity
  8
0
370
    -3
  6
Continuous
100
AcDbEllipse
 10
-323.920624
 20
20.065879
 30
0.0
 11
0.0
 21
3.5
 31
0.0
210
0.0
220
0.0
230
1.0
 40
0.982815
 41
0.0
 42
6.2831853071795862
  0
LINE
  5
454
100
AcDbEntity
  8
0
370
    -3
  6
Continuous
100
AcDbLine
 10
-324.997313
 20
22.065879
 30
0.0
 11
-323.089593
 21
20.065879
 31
0.0
  0
LINE
  5
455
100
AcDbEntity
  8
0
370
    -3
  6
Continuous
100
AcDbLine
 10
-323.089593
 20
20.065879
 30
0.0
 11
-324.997313
 21
18.065879
 31
0.0
  0
LINE
  5
456
100
AcDbEntity
  8
0
370
    -3
  6
Continuous
100
AcDbLine
 10
-323.089593
 20
20.065879
 30
0.0
 11
-321.372082
 21
18.065879
 31
0.0
  0
LINE
  5
457
100
AcDbEntity
  8
0
370
    -3
  6
Continuous
100
AcDbLine
 10
-321.372082
 20
22.065879
 30
0.0
 11
-323.089593
 21
20.065879
 31
0.0
  0
LINE
  5
458
100
AcDbEntity
  8
0
370
    -3
  6
CENTER
100
AcDbLine
 10
-362.608736
 20
36.931466
 30
0.0
 11
-362.608736
 21
-76.47613
 31
0.0
  0
LINE
  5
459
100
AcDbEntity
  8
0
370
    -3
  6
Continuous
100
AcDbLine
 10
-436.608736
 20
-19.434121
 30
0.0
 11
-436.608736
 21
-4.434121
 31
0.0
  0
LINE
  5
45A
100
AcDbEntity
  8
0
370
    -3
  6
Continuous
100
AcDbLine
 10
-434.608736
 20
-2.434121
 30
0.0
 11
-416.182796
 21
-2.434121
 31
0.0
  0
POINT
  5
45B
100
AcDbEntity
  8
0
370
    -3
  6
CENTER
100
AcDbPoint
 10
-436.774715
 20
-5.662172
 30
0.0
  0
ARC
  5
45C
100
AcDbEntity
  8
0
370
    -3
  6
Continuous
100
AcDbCircle
 10
-434.608736
 20
-4.434121
 30
0.0
 40
2.0
100
AcDbArc
 50
90.0
 51
180.0
  0
ELLIPSE
  5
45D
100
AcDbEntity
  8
0
370
    -3
  6
Continuous
100
AcDbEllipse
 10
-323.920624
 20
-58.934121
 30
0.0
 11
0.0000000000002274
 21
3.5
 31
0.0
210
0.0
220
0.0
230
1.0
 40
0.982815
 41
0.0
 42
6.2831853071795862
  0
LINE
  5
45E
100
AcDbEntity
  8
0
370
    -3
  6
Continuous
100
AcDbLine
 10
-323.089593
 20
-58.934121
 30
0.0
 11
-321.372082
 21
-56.934121
 31
0.0
  0
LINE
  5
45F
100
AcDbEntity
  8
0
370
    -3
  6
Continuous
100
AcDbLine
 10
-321.372082
 20
-60.934121
 30
0.0
 11
-323.089593
 21
-58.934121
 31
0.0
  0
LINE
  5
460
100
AcDbEntity
  8
0
370
    -3
  6
Continuous
100
AcDbLine
 10
-334.837641
 20
-56.719454
 30
0.0
 11
-325.698814
 21
-46.516446
 31
0.0
  0
LINE
  5
461
100
AcDbEntity
  8
0
370
    -3
  6
Continuous
100
AcDbLine
 10
-324.729376
 20
-19.434121
 30
0.0
 11
-324.729376
 21
-43.981113
 31
0.0
  0
ARC
  5
462
100
AcDbEntity
  8
0
370
    -3
  6
Continuous
100
AcDbCircle
 10
-328.529376
 20
-43.981113
 30
0.0
 40
3.8
100
AcDbArc
 50
318.14922
 51
0.0
  0
LINE
  5
463
100
AcDbEntity
  8
0
370
    -3
  6
Continuous
100
AcDbLine
 10
95.691264
 20
27.365879
 30
0.0
 11
102.067893
 21
27.365879
 31
0.0
  0
LINE
  5
464
100
AcDbEntity
  8
0
370
    -3
  6
Continuous
100
AcDbLine
 10
95.691264
 20
-66.234121
 30
0.0
 11
101.362412
 21
-66.234121
 31
0.0
  0
LINE
  5
465
100
AcDbEntity
  8
0
370
    -3
  6
Continuous
100
AcDbLine
 10
87.891264
 20
18.064697
 30
0.0
 11
87.891264
 21
-56.93294
 31
0.0
  0
ARC
  5
466
100
AcDbEntity
  8
0
370
    -3
  6
Continuous
100
AcDbCircle
 10
95.691264
 20
19.565879
 30
0.0
 40
7.8
100
AcDbArc
 50
90.0
 51
151.87484
  0
ELLIPSE
  5
467
100
AcDbEntity
  8
0
370
    -3
  6
Continuous
100
AcDbEllipse
 10
89.776672
 20
20.065879
 30
0.0
 11
0.0
 21
3.5
 31
0.0
210
0.0
220
0.0
230
1.0
 40
0.656603
 41
0.0
 42
6.2831853071795862
  0
LINE
  5
468
100
AcDbEntity
  8
0
370
    -3
  6
Continuous
100
AcDbLine
 10
87.729392
 20
21.655895
 30
0.0
 11
88.239219
 21
20.065879
 31
0.0
  0
LINE
  5
469
100
AcDbEntity
  8
0
370
    -3
  6
Continuous
100
AcDbLine
 10
88.239219
 20
20.065879
 30
0.0
 11
89.288407
 21
22.065879
 31
0.0
  0
LINE
  5
46A
100
AcDbEntity
  8
0
370
    -3
  6
Continuous
100
AcDbLine
 10
88.239219
 20
20.065879
 30
0.0
 11
89.288407
 21
18.065879
 31
0.0
  0
LINE
  5
46B
100
AcDbEntity
  8
0
370
    -3
  6
Continuous
100
AcDbLine
 10
87.729392
 20
18.475862
 30
0.0
 11
88.239219
 21
20.065879
 31
0.0
  0
ARC
  5
46C
100
AcDbEntity
  8
0
370
    -3
  6
Continuous
100
AcDbCircle
 10
95.691264
 20
-58.434121
 30
0.0
 40
7.8
100
AcDbArc
 50
208.12516
 51
270.0
  0
ELLIPSE
  5
46D
100
AcDbEntity
  8
0
370
    -3
  6
Continuous
100
AcDbEllipse
 10
89.776672
 20
-58.934121
 30
0.0
 11
0.0
 21
3.5
 31
0.0
210
0.0
220
0.0
230
1.0
 40
0.656603
 41
0.0
 42
6.2831853071795862
  0
LINE
  5
46E
100
AcDbEntity
  8
0
370
    -3
  6
Continuous
100
AcDbLine
 10
87.729392
 20
-60.524138
 30
0.0
 11
88.239219
 21
-58.934121
 31
0.0
  0
LINE
  5
46F
100
AcDbEntity
  8
0
370
    -3
  6
Continuous
100
AcDbLine
 10
88.239219
 20
-58.934121
 30
0.0
 11
89.288407
 21
-60.934121
 31
0.0
  0
LINE
  5
470
100
AcDbEntity
  8
0
370
    -3
  6
Continuous
100
AcDbLine
 10
88.239219
 20
-58.934121
 30
0.0
 11
89.288407
 21
-56.934121
 31
0.0
  0
LINE
  5
471
100
AcDbEntity
  8
0
370
    -3
  6
Continuous
100
AcDbLine
 10
87.729392
 20
-57.344105
 30
0.0
 11
88.239219
 21
-58.934121
 31
0.0
  0
LINE
  5
472
100
AcDbEntity
  8
0
370
    -3
  6
Continuous
100
AcDbLine
 10
101.442172
 20
19.115879
 30
0.0
 11
96.544885
 21
19.115879
 31
0.0
  0
LINE
  5
473
100
AcDbEntity
  8
0
370
    -3
  6
Continuous
100
AcDbLine
 10
101.362412
 20
-57.984121
 30
0.0
 11
96.544885
 21
-57.984121
 31
0.0
  0
ARC
  5
474
100
AcDbEntity
  8
0
370
    -3
  6
Continuous
100
AcDbCircle
 10
96.544885
 20
12.315879
 30
0.0
 40
6.8
100
AcDbArc
 50
90.0
 51
180.0
  0
LINE
  5
475
100
AcDbEntity
  8
0
370
    -3
  6
Continuous
100
AcDbLine
 10
89.744885
 20
12.315879
 30
0.0
 11
89.744885
 21
-51.184121
 31
0.0
  0
ARC
  5
476
100
AcDbEntity
  8
0
370
    -3
  6
Continuous
100
AcDbCircle
 10
96.544885
 20
-51.184121
 30
0.0
 40
6.8
100
AcDbArc
 50
180.0
 51
270.0
  0
CIRCLE
  5
477
100
AcDbEntity
  8
0
370
    -3
  6
DASHED
100
AcDbCircle
 10
113.362412
 20
-19.434121
 30
0.0
 40
17.0
  0
LINE
  5
478
100
AcDbEntity
  8
0
370
    -3
  6
CENTER
100
AcDbLine
 10
113.362412
 20
1.866336
 30
0.0
 11
113.362412
 21
-40.734578
 31
0.0
  0
LINE
  5
479
100
AcDbEntity
  8
0
370
    -3
  6
CENTER
100
AcDbLine
 10
92.061955
 20
-19.434121
 30
0.0
 11
134.662869
 21
-19.434121
 31
0.0
  0
LINE
  5
47A
100
AcDbEntity
  8
0
370
    -3
  6
Continuous
100
AcDbLine
 10
-551.679885
 20
5.165879
 30
0.0
 11
-557.788122
 21
5.165879
 31
0.0
  0
ARC
  5
47B
100
AcDbEntity
  8
0
370
    -3
  6
Continuous
100
AcDbCircle
 10
-551.679885
 20
7.165879
 30
0.0
 40
2.0
100
AcDbArc
 50
270.0
 51
0.0
  0
LINE
  5
47C
100
AcDbEntity
  8
0
370
    -3
  6
Continuous
100
AcDbLine
 10
-549.679885
 20
7.165879
 30
0.0
 11
-549.679885
 21
11.565879
 31
0.0
  0
LINE
  5
47D
100
AcDbEntity
  8
0
370
    -3
  6
Continuous
100
AcDbLine
 10
-548.079885
 20
11.565879
 30
0.0
 11
-549.679885
 21
11.565879
 31
0.0
  0
LINE
  5
47E
100
AcDbEntity
  8
0
370
    -3
  6
Continuous
100
AcDbLine
 10
-551.679885
 20
-44.034121
 30
0.0
 11
-557.788122
 21
-44.034121
 31
0.0
  0
LINE
  5
47F
100
AcDbEntity
  8
0
370
    -3
  6
Continuous
100
AcDbLine
 10
-549.679885
 20
-50.434121
 30
0.0
 11
-549.679885
 21
-46.034121
 31
0.0
  0
ARC
  5
480
100
AcDbEntity
  8
0
370
    -3
  6
Continuous
100
AcDbCircle
 10
-551.679885
 20
-46.034121
 30
0.0
 40
2.0
100
AcDbArc
 50
0.0
 51
90.0
  0
LINE
  5
481
100
AcDbEntity
  8
0
370
    -3
  6
Continuous
100
AcDbLine
 10
-548.079885
 20
-50.434121
 30
0.0
 11
-549.679885
 21
-50.434121
 31
0.0
  0
LINE
  5
482
100
AcDbEntity
  8
0
370
    -3
  6
Continuous
100
AcDbLine
 10
-539.279885
 20
7.397249
 30
0.0
 11
-501.923289
 21
7.397249
 31
0.0
  0
ARC
  5
483
100
AcDbEntity
  8
0
370
    -3
  6
Continuous
100
AcDbCircle
 10
-539.279885
 20
0.597249
 30
0.0
 40
6.8
100
AcDbArc
 50
90.0
 51
180.0
  0
ARC
  5
484
100
AcDbEntity
  8
0
370
    -3
  6
Continuous
100
AcDbCircle
 10
-539.279885
 20
-39.465492
 30
0.0
 40
6.8
100
AcDbArc
 50
180.0
 51
270.0
  0
LINE
  5
485
100
AcDbEntity
  8
0
370
    -3
  6
Continuous
100
AcDbLine
 10
-539.279885
 20
-46.265492
 30
0.0
 11
-501.923289
 21
-46.265492
 31
0.0
  0
ARC
  5
486
100
AcDbEntity
  8
0
370
    -3
  6
Continuous
100
AcDbCircle
 10
-521.079885
 20
-19.434121
 30
0.0
 40
13.2205
100
AcDbArc
 50
180.0
 51
0.0
  0
ARC
  5
487
100
AcDbEntity
  8
0
370
    -3
  6
Continuous
100
AcDbCircle
 10
-521.079885
 20
-19.434121
 30
0.0
 40
12.0585
100
AcDbArc
 50
180.0
 51
0.0
  0
ARC
  5
488
100
AcDbEntity
  8
0
370
    -3
  6
Continuous
100
AcDbCircle
 10
-521.079885
 20
-19.434121
 30
0.0
 40
17.0
100
AcDbArc
 50
180.0
 51
0.0
  0
LINE
  5
489
100
AcDbEntity
  8
0
370
    -3
  6
Continuous
100
AcDbLine
 10
-500.273255
 20
-19.434121
 30
0.0
 11
-500.273255
 21
19.565879
 31
0.0
  0
LINE
  5
48A
100
AcDbEntity
  8
0
370
    -3
  6
Continuous
100
AcDbLine
 10
-536.569772
 20
26.065879
 30
0.0
 11
-505.013274
 21
26.065879
 31
0.0
  0
LINE
  5
48B
100
AcDbEntity
  8
0
370
    -3
  6
Continuous
100
AcDbLine
 10
-545.324362
 20
19.565879
 30
0.0
 11
-545.324362
 21
16.181051
 31
0.0
  0
LINE
  5
48C
100
AcDbEntity
  8
0
370
    -3
  6
Continuous
100
AcDbLine
 10
-544.986267
 20
16.764149
 30
0.0
 11
-544.986267
 21
19.565879
 31
0.0
  0
ELLIPSE
  5
48D
100
AcDbEntity
  8
0
370
    -3
  6
Continuous
100
AcDbEllipse
 10
-501.575801
 20
20.065879
 30
0.0
 11
0.0
 21
2.0
 31
0.0
210
0.0
220
0.0
230
1.0
 40
0.422618
 41
0.0
 42
6.2831853071795862
  0
ELLIPSE
  5
48E
100
AcDbEntity
  8
0
370
    -3
  6
Continuous
100
AcDbEllipse
 10
-501.575801
 20
20.065879
 30
0.0
 11
0.0
 21
1.6500000000000057
 31
0.0
210
0.0
220
0.0
230
1.0
 40
0.422618
 41
0.0
 42
6.2831853071795862
  0
LINE
  5
48F
100
AcDbEntity
  8
0
370
    -3
  6
CENTER
100
AcDbLine
 10
-501.575801
 20
22.930738
 30
0.0
 11
-501.575801
 21
17.319348
 31
0.0
  0
LINE
  5
490
100
AcDbEntity
  8
0
370
    -3
  6
CENTER
100
AcDbLine
 10
-503.968622
 20
20.065879
 30
0.0
 11
-499.523863
 21
20.065879
 31
0.0
  0
ARC
  5
491
100
AcDbEntity
  8
0
370
    -3
  6
Continuous
100
AcDbCircle
 10
-546.079885
 20
8.565879
 30
0.0
 40
1.0
100
AcDbArc
 50
103.342364
 51
180.0
  0
ARC
  5
492
100
AcDbEntity
  8
0
370
    -3
  6
Continuous
100
AcDbCircle
 10
-546.379885
 20
9.83079
 30
0.0
 40
0.3
100
AcDbArc
 50
283.342364
 51
0.0
  0
ARC
  5
493
100
AcDbEntity
  8
0
370
    -3
  6
Continuous
100
AcDbCircle
 10
-536.569772
 20
20.065879
 30
0.0
 40
6.0
100
AcDbArc
 50
90.0
 51
180.0
  0
LINE
  5
494
100
AcDbEntity
  8
0
370
    -3
  6
Continuous
100
AcDbLine
 10
-542.569772
 20
19.017067
 30
0.0
 11
-542.569772
 21
20.065879
 31
0.0
  0
ARC
  5
495
100
AcDbEntity
  8
0
370
    -3
  6
Continuous
100
AcDbCircle
 10
-539.279885
 20
13.065879
 30
0.0
 40
6.8
100
AcDbArc
 50
90.0
 51
180.0
  0
LINE
  5
496
100
AcDbEntity
  8
0
370
    -3
  6
Continuous
100
AcDbLine
 10
-546.079885
 20
-19.434121
 30
0.0
 11
-546.079885
 21
13.065879
 31
0.0
  0
ARC
  5
497
100
AcDbEntity
  8
0
370
    -3
  6
Continuous
100
AcDbCircle
 10
-509.647027
 20
16.065879
 30
0.0
 40
3.8
100
AcDbArc
 50
22.977375
 51
90.0
  0
ARC
  5
498
100
AcDbEntity
  8
0
370
    -3
  6
Continuous
100
AcDbCircle
 10
-505.643974
 20
6.624912
 30
0.0
 40
3.8
100
AcDbArc
 50
0.0
 51
22.977375
  0
LINE
  5
499
100
AcDbEntity
  8
0
370
    -3
  6
Continuous
100
AcDbLine
 10
-502.145469
 20
8.108309
 30
0.0
 11
-506.148523
 21
17.549275
 31
0.0
  0
LINE
  5
49A
100
AcDbEntity
  8
0
370
    -3
  6
Continuous
100
AcDbLine
 10
-539.279885
 20
19.865879
 30
0.0
 11
-509.647027
 21
19.865879
 31
0.0
  0
LINE
  5
49B
100
AcDbEntity
  8
0
370
    -3
  6
Continuous
100
AcDbLine
 10
-501.843974
 20
-19.434121
 30
0.0
 11
-501.843974
 21
6.624912
 31
0.0
  0
LINE
  5
49C
100
AcDbEntity
  8
0
370
    -3
  6
Continuous
100
AcDbLine
 10
-547.079885
 20
-19.434121
 30
0.0
 11
-547.079885
 21
8.565879
 31
0.0
  0
ARC
  5
49D
100
AcDbEntity
  8
0
370
    -3
  6
Continuous
100
AcDbCircle
 10
-537.986267
 20
19.565879
 30
0.0
 40
7.0
100
AcDbArc
 50
90.0
 51
180.0
  0
LINE
  5
49E
100
AcDbEntity
  8
0
370
    -3
  6
Continuous
100
AcDbLine
 10
-548.079885
 20
11.565879
 30
0.0
 11
-547.079885
 21
11.565879
 31
0.0
  0
LINE
  5
49F
100
AcDbEntity
  8
0
370
    -3
  6
Continuous
100
AcDbLine
 10
-547.079885
 20
11.565879
 30
0.0
 11
-547.079885
 21
-19.434121
 31
0.0
  0
LINE
  5
4A0
100
AcDbEntity
  8
0
370
    -3
  6
Continuous
100
AcDbLine
 10
-548.079885
 20
-19.434121
 30
0.0
 11
-548.079885
 21
11.565879
 31
0.0
  0
LINE
  5
4A1
100
AcDbEntity
  8
0
370
    -3
  6
Continuous
100
AcDbLine
 10
-495.608737
 20
19.565879
 30
0.0
 11
-495.608737
 21
-19.434121
 31
0.0
  0
LINE
  5
4A2
100
AcDbEntity
  8
0
370
    -3
  6
Continuous
100
AcDbLine
 10
-500.61135
 20
-19.434121
 30
0.0
 11
-500.61135
 21
19.565879
 31
0.0
  0
LINE
  5
4A3
100
AcDbEntity
  8
0
370
    -3
  6
Continuous
100
AcDbLine
 10
-503.408737
 20
27.365879
 30
0.0
 11
-537.524362
 21
27.365879
 31
0.0
  0
ELLIPSE
  5
4A4
100
AcDbEntity
  8
0
370
    -3
  6
Continuous
100
AcDbEllipse
 10
-497.494146
 20
20.065879
 30
0.0
 11
0.0
 21
3.5
 31
0.0
210
0.0
220
0.0
230
1.0
 40
0.656603
 41
4.1037320181003913
 42
5.8501343317260348
  0
ARC
  5
4A5
100
AcDbEntity
  8
0
370
    -3
  6
Continuous
100
AcDbCircle
 10
-503.408737
 20
19.565879
 30
0.0
 40
7.8
100
AcDbArc
 50
0.0
 51
90.0
  0
ARC
  5
4A6
100
AcDbEntity
  8
0
370
    -3
  6
Continuous
100
AcDbCircle
 10
-508.073255
 20
19.565879
 30
0.0
 40
7.8
100
AcDbArc
 50
0.0
 51
90.0
  0
ARC
  5
4A7
100
AcDbEntity
  8
0
370
    -3
  6
Continuous
100
AcDbCircle
 10
-507.61135
 20
19.565879
 30
0.0
 40
7.0
100
AcDbArc
 50
0.0
 51
90.0
  0
LINE
  5
4A8
100
AcDbEntity
  8
0
370
    -3
  6
Continuous
100
AcDbLine
 10
-507.61135
 20
26.565879
 30
0.0
 11
-537.986267
 21
26.565879
 31
0.0
  0
ARC
  5
4A9
100
AcDbEntity
  8
0
370
    -3
  6
Continuous
100
AcDbCircle
 10
-537.524362
 20
19.565879
 30
0.0
 40
7.8
100
AcDbArc
 50
90.0
 51
180.0
  0
LINE
  5
4AA
100
AcDbEntity
  8
0
370
    -3
  6
CENTER
100
AcDbLine
 10
-521.079885
 20
-0.789189
 30
0.0
 11
-521.079885
 21
-40.734578
 31
0.0
  0
LINE
  5
4AB
100
AcDbEntity
  8
0
370
    -3
  6
Continuous
100
AcDbLine
 10
-500.273255
 20
-19.434121
 30
0.0
 11
-500.273255
 21
-58.434121
 31
0.0
  0
LINE
  5
4AC
100
AcDbEntity
  8
0
370
    -3
  6
Continuous
100
AcDbLine
 10
-536.569772
 20
-64.934121
 30
0.0
 11
-505.013274
 21
-64.934121
 31
0.0
  0
LINE
  5
4AD
100
AcDbEntity
  8
0
370
    -3
  6
Continuous
100
AcDbLine
 10
-545.324362
 20
-58.434121
 30
0.0
 11
-545.324362
 21
-55.049294
 31
0.0
  0
LINE
  5
4AE
100
AcDbEntity
  8
0
370
    -3
  6
Continuous
100
AcDbLine
 10
-544.986267
 20
-55.632392
 30
0.0
 11
-544.986267
 21
-58.434121
 31
0.0
  0
ELLIPSE
  5
4AF
100
AcDbEntity
  8
0
370
    -3
  6
Continuous
100
AcDbEllipse
 10
-501.575801
 20
-58.934121
 30
0.0
 11
0.0
 21
2.0
 31
0.0
210
0.0
220
0.0
230
1.0
 40
0.422618
 41
0.0
 42
6.2831853071795862
  0
ELLIPSE
  5
4B0
100
AcDbEntity
  8
0
370
    -3
  6
Continuous
100
AcDbEllipse
 10
-501.575801
 20
-58.934121
 30
0.0
 11
0.0
 21
1.6500000000000057
 31
0.0
210
0.0
220
0.0
230
1.0
 40
0.422618
 41
0.0
 42
6.2831853071795862
  0
LINE
  5
4B1
100
AcDbEntity
  8
0
370
    -3
  6
CENTER
100
AcDbLine
 10
-501.575801
 20
-61.798981
 30
0.0
 11
-501.575801
 21
-56.18759
 31
0.0
  0
LINE
  5
4B2
100
AcDbEntity
  8
0
370
    -3
  6
CENTER
100
AcDbLine
 10
-503.968622
 20
-58.934121
 30
0.0
 11
-499.523863
 21
-58.934121
 31
0.0
  0
ARC
  5
4B3
100
AcDbEntity
  8
0
370
    -3
  6
Continuous
100
AcDbCircle
 10
-546.079885
 20
-47.434121
 30
0.0
 40
1.0
100
AcDbArc
 50
180.0
 51
256.657636
  0
ARC
  5
4B4
100
AcDbEntity
  8
0
370
    -3
  6
Continuous
100
AcDbCircle
 10
-546.379885
 20
-48.699032
 30
0.0
 40
0.3
100
AcDbArc
 50
0.0
 51
76.657636
  0
ARC
  5
4B5
100
AcDbEntity
  8
0
370
    -3
  6
Continuous
100
AcDbCircle
 10
-536.569772
 20
-58.934121
 30
0.0
 40
6.0
100
AcDbArc
 50
180.0
 51
270.0
  0
LINE
  5
4B6
100
AcDbEntity
  8
0
370
    -3
  6
Continuous
100
AcDbLine
 10
-542.569772
 20
-57.88531
 30
0.0
 11
-542.569772
 21
-58.934121
 31
0.0
  0
ARC
  5
4B7
100
AcDbEntity
  8
0
370
    -3
  6
Continuous
100
AcDbCircle
 10
-539.279885
 20
-51.934121
 30
0.0
 40
6.8
100
AcDbArc
 50
180.0
 51
270.0
  0
LINE
  5
4B8
100
AcDbEntity
  8
0
370
    -3
  6
Continuous
100
AcDbLine
 10
-546.079885
 20
-19.434121
 30
0.0
 11
-546.079885
 21
-51.934121
 31
0.0
  0
ARC
  5
4B9
100
AcDbEntity
  8
0
370
    -3
  6
Continuous
100
AcDbCircle
 10
-509.647027
 20
-54.934121
 30
0.0
 40
3.8
100
AcDbArc
 50
270.0
 51
337.022625
  0
ARC
  5
4BA
100
AcDbEntity
  8
0
370
    -3
  6
Continuous
100
AcDbCircle
 10
-505.643974
 20
-45.493155
 30
0.0
 40
3.8
100
AcDbArc
 50
337.022625
 51
0.0
  0
LINE
  5
4BB
100
AcDbEntity
  8
0
370
    -3
  6
Continuous
100
AcDbLine
 10
-502.145469
 20
-46.976552
 30
0.0
 11
-506.148523
 21
-56.417518
 31
0.0
  0
LINE
  5
4BC
100
AcDbEntity
  8
0
370
    -3
  6
Continuous
100
AcDbLine
 10
-539.279885
 20
-58.734121
 30
0.0
 11
-509.647027
 21
-58.734121
 31
0.0
  0
LINE
  5
4BD
100
AcDbEntity
  8
0
370
    -3
  6
Continuous
100
AcDbLine
 10
-501.843974
 20
-19.434121
 30
0.0
 11
-501.843974
 21
-45.493155
 31
0.0
  0
LINE
  5
4BE
100
AcDbEntity
  8
0
370
    -3
  6
Continuous
100
AcDbLine
 10
-547.079885
 20
-19.434121
 30
0.0
 11
-547.079885
 21
-47.434121
 31
0.0
  0
ARC
  5
4BF
100
AcDbEntity
  8
0
370
    -3
  6
Continuous
100
AcDbCircle
 10
-537.986267
 20
-58.434121
 30
0.0
 40
7.0
100
AcDbArc
 50
180.0
 51
270.0
  0
LINE
  5
4C0
100
AcDbEntity
  8
0
370
    -3
  6
Continuous
100
AcDbLine
 10
-548.079885
 20
-50.434121
 30
0.0
 11
-547.079885
 21
-50.434121
 31
0.0
  0
LINE
  5
4C1
100
AcDbEntity
  8
0
370
    -3
  6
Continuous
100
AcDbLine
 10
-547.079885
 20
-50.434121
 30
0.0
 11
-547.079885
 21
-19.434121
 31
0.0
  0
LINE
  5
4C2
100
AcDbEntity
  8
0
370
    -3
  6
Continuous
100
AcDbLine
 10
-548.079885
 20
-19.434121
 30
0.0
 11
-548.079885
 21
-50.434121
 31
0.0
  0
LINE
  5
4C3
100
AcDbEntity
  8
0
370
    -3
  6
Continuous
100
AcDbLine
 10
-495.608737
 20
-58.434121
 30
0.0
 11
-495.608737
 21
-19.434121
 31
0.0
  0
LINE
  5
4C4
100
AcDbEntity
  8
0
370
    -3
  6
Continuous
100
AcDbLine
 10
-500.61135
 20
-19.434121
 30
0.0
 11
-500.61135
 21
-58.434121
 31
0.0
  0
LINE
  5
4C5
100
AcDbEntity
  8
0
370
    -3
  6
Continuous
100
AcDbLine
 10
-503.408737
 20
-66.234121
 30
0.0
 11
-537.524362
 21
-66.234121
 31
0.0
  0
ELLIPSE
  5
4C6
100
AcDbEntity
  8
0
370
    -3
  6
Continuous
100
AcDbEllipse
 10
-497.494146
 20
-58.934121
 30
0.0
 11
0.0
 21
3.5
 31
0.0
210
0.0
220
0.0
230
1.0
 40
0.656603
 41
3.5746436290429306
 42
5.3210459426688814
  0
ARC
  5
4C7
100
AcDbEntity
  8
0
370
    -3
  6
Continuous
100
AcDbCircle
 10
-503.408737
 20
-58.434121
 30
0.0
 40
7.8
100
AcDbArc
 50
270.0
 51
0.0
  0
ARC
  5
4C8
100
AcDbEntity
  8
0
370
    -3
  6
Continuous
100
AcDbCircle
 10
-508.073255
 20
-58.434121
 30
0.0
 40
7.8
100
AcDbArc
 50
270.0
 51
0.0
  0
ARC
  5
4C9
100
AcDbEntity
  8
0
370
    -3
  6
Continuous
100
AcDbCircle
 10
-507.61135
 20
-58.434121
 30
0.0
 40
7.0
100
AcDbArc
 50
270.0
 51
0.0
  0
LINE
  5
4CA
100
AcDbEntity
  8
0
370
    -3
  6
Continuous
100
AcDbLine
 10
-507.61135
 20
-65.434121
 30
0.0
 11
-537.986267
 21
-65.434121
 31
0.0
  0
ARC
  5
4CB
100
AcDbEntity
  8
0
370
    -3
  6
Continuous
100
AcDbCircle
 10
-537.524362
 20
-58.434121
 30
0.0
 40
7.8
100
AcDbArc
 50
180.0
 51
270.0
  0
ARC
  5
4CC
100
AcDbEntity
  8
0
370
    -3
  6
Continuous
100
AcDbCircle
 10
-521.079885
 20
-19.434121
 30
0.0
 40
17.0
100
AcDbArc
 50
0.0
 51
180.0
  0
ARC
  5
4CD
100
AcDbEntity
  8
0
370
    -3
  6
Continuous
100
AcDbCircle
 10
-521.079885
 20
-19.434121
 30
0.0
 40
13.2205
100
AcDbArc
 50
0.0
 51
180.0
  0
ARC
  5
4CE
100
AcDbEntity
  8
0
370
    -3
  6
Continuous
100
AcDbCircle
 10
-521.079885
 20
-19.434121
 30
0.0
 40
12.0585
100
AcDbArc
 50
0.0
 51
180.0
  0
MTEXT
  5
4CF
100
AcDbEntity
  8
0
370
    -3
  6
Continuous
100
AcDbMText
 10
-712.141968
 20
312.342804
 30
0.0
 40
15.0
 41
0.0
 71
     7
 72
     1
  1
\W0.43;DATE\W0.72; \W0.43;2011.12.29
  7
ZU_SHPTB00001
 11
1.0
 21
0.0
 31
0.0
 73
     1
 44
1.0
  0
ARC
  5
4D0
100
AcDbEntity
  8
0
370
    -3
  6
Continuous
100
AcDbCircle
 10
-194.108736
 20
222.271059
 30
0.0
 40
2.0
100
AcDbArc
 50
180.0
 51
270.0
  0
LINE
  5
4D1
100
AcDbEntity
  8
0
370
    -3
  6
Continuous
100
AcDbLine
 10
-185.108736
 20
355.271059
 30
0.0
 11
-185.108736
 21
220.271059
 31
0.0
  0
LINE
  5
4D2
100
AcDbEntity
  8
0
370
    -3
  6
Continuous
100
AcDbLine
 10
-196.108736
 20
355.271059
 30
0.0
 11
-196.108736
 21
222.271059
 31
0.0
  0
ARC
  5
4D3
100
AcDbEntity
  8
0
370
    -3
  6
Continuous
100
AcDbCircle
 10
-198.108736
 20
243.313019
 30
0.0
 40
3.0
100
AcDbArc
 50
99.594068
 51
180.0
  0
LINE
  5
4D4
100
AcDbEntity
  8
0
370
    -3
  6
Continuous
100
AcDbLine
 10
-199.108736
 20
220.271059
 30
0.0
 11
-184.608736
 21
220.271059
 31
0.0
  0
ARC
  5
4D5
100
AcDbEntity
  8
0
370
    -3
  6
Continuous
100
AcDbCircle
 10
-199.108736
 20
222.271059
 30
0.0
 40
2.0
100
AcDbArc
 50
180.0
 51
270.0
  0
LINE
  5
4D6
100
AcDbEntity
  8
0
370
    -3
  6
Continuous
100
AcDbLine
 10
-201.108736
 20
222.271059
 30
0.0
 11
-201.108736
 21
227.771059
 31
0.0
  0
LINE
  5
4D7
100
AcDbEntity
  8
0
370
    -3
  6
Continuous
100
AcDbLine
 10
-201.108736
 20
240.771059
 30
0.0
 11
-201.108736
 21
243.313019
 31
0.0
  0
ARC
  5
4D8
100
AcDbEntity
  8
0
370
    -3
  6
Continuous
100
AcDbCircle
 10
-213.608736
 20
273.668989
 30
0.0
 40
2.0
100
AcDbArc
 50
180.0
 51
267.0
  0
ARC
  5
4D9
100
AcDbEntity
  8
0
370
    -3
  6
Continuous
100
AcDbCircle
 10
-217.608736
 20
282.271059
 30
0.0
 40
2.0
100
AcDbArc
 50
0.0
 51
90.0
  0
LINE
  5
4DA
100
AcDbEntity
  8
0
370
    -3
  6
Continuous
100
AcDbLine
 10
-215.608736
 20
338.271059
 30
0.0
 11
-215.608736
 21
273.668989
 31
0.0
  0
LINE
  5
4DB
100
AcDbEntity
  8
0
370
    -3
  6
Continuous
100
AcDbLine
 10
-217.608736
 20
338.271059
 30
0.0
 11
-217.608736
 21
275.271059
 31
0.0
  0
ARC
  5
4DC
100
AcDbEntity
  8
0
370
    -3
  6
Continuous
100
AcDbCircle
 10
-199.108736
 20
249.776241
 30
0.0
 40
3.0
100
AcDbArc
 50
0.0
 51
20.345862
  0
LINE
  5
4DD
100
AcDbEntity
  8
0
370
    -3
  6
Continuous
100
AcDbLine
 10
-211.88306
 20
292.853428
 30
0.0
 11
-196.295903
 21
250.8193
 31
0.0
  0
ARC
  5
4DE
100
AcDbEntity
  8
0
370
    -3
  6
Continuous
100
AcDbCircle
 10
-214.695893
 20
291.810369
 30
0.0
 40
3.0
100
AcDbArc
 50
20.345862
 51
90.0
  0
LINE
  5
4DF
100
AcDbEntity
  8
0
370
    -3
  6
Continuous
100
AcDbLine
 10
-211.88306
 20
294.810369
 30
0.0
 11
-197.854183
 21
294.810369
 31
0.0
  0
ARC
  5
4E0
100
AcDbEntity
  8
0
370
    -3
  6
Continuous
100
AcDbCircle
 10
-214.695893
 20
287.159191
 30
0.0
 40
3.0
100
AcDbArc
 50
20.345862
 51
90.0
  0
ARC
  5
4E1
100
AcDbEntity
  8
0
370
    -3
  6
Continuous
100
AcDbCircle
 10
-199.108736
 20
245.125063
 30
0.0
 40
3.0
100
AcDbArc
 50
0.0
 51
20.345862
  0
LINE
  5
4E2
100
AcDbEntity
  8
0
370
    -3
  6
Continuous
100
AcDbLine
 10
-211.88306
 20
288.20225
 30
0.0
 11
-196.295903
 21
246.168122
 31
0.0
  0
ARC
  5
4E3
100
AcDbEntity
  8
0
370
    -3
  6
Continuous
100
AcDbCircle
 10
-199.108736
 20
249.229099
 30
0.0
 40
3.0
100
AcDbArc
 50
279.594068
 51
321.971097
  0
LINE
  5
4E4
100
AcDbEntity
  8
0
370
    -3
  6
Continuous
100
AcDbLine
 10
-205.595424
 20
271.246284
 30
0.0
 11
-213.713408
 21
271.671729
 31
0.0
  0
LINE
  5
4E5
100
AcDbEntity
  8
0
370
    -3
  6
Continuous
100
AcDbLine
 10
-40.108736
 20
311.271059
 30
0.0
 11
-39.108736
 21
311.271059
 31
0.0
  0
LINE
  5
4E6
100
AcDbEntity
  8
0
370
    -3
  6
Continuous
100
AcDbLine
 10
-112.608736
 20
221.527824
 30
0.0
 11
-184.608736
 21
220.271059
 31
0.0
  0
ARC
  5
4E7
100
AcDbEntity
  8
0
370
    -3
  6
Continuous
100
AcDbCircle
 10
-114.092191
 20
306.514878
 30
0.0
 40
85.0
100
AcDbArc
 50
271.0
 51
293.310114
  0
ARC
  5
4E8
100
AcDbEntity
  8
0
370
    -3
  6
Continuous
100
AcDbCircle
 10
-81.644165
 20
231.208002
 30
0.0
 40
3.0
100
AcDbArc
 50
293.310114
 51
357.852183
  0
LINE
  5
4E9
100
AcDbEntity
  8
0
370
    -3
  6
Continuous
100
AcDbLine
 10
-57.045681
 20
252.267709
 30
0.0
 11
-49.92743
 21
252.391958
 31
0.0
  0
ARC
  5
4EA
100
AcDbEntity
  8
0
370
    -3
  6
Continuous
100
AcDbCircle
 10
-49.979787
 20
255.391501
 30
0.0
 40
3.0
100
AcDbArc
 50
271.0
 51
321.431062
  0
ARC
  5
4EB
100
AcDbEntity
  8
0
370
    -3
  6
Continuous
100
AcDbCircle
 10
-56.661728
 20
230.271059
 30
0.0
 40
22.0
100
AcDbArc
 50
91.0
 51
177.852183
  0
ARC
  5
4EC
100
AcDbEntity
  8
0
370
    -3
  6
Continuous
100
AcDbCircle
 10
-114.092191
 20
306.514878
 30
0.0
 40
85.0
100
AcDbArc
 50
321.431062
 51
328.58966
  0
ARC
  5
4ED
100
AcDbEntity
  8
0
370
    -3
  6
Continuous
100
AcDbCircle
 10
-44.108736
 20
263.779459
 30
0.0
 40
3.0
100
AcDbArc
 50
328.58966
 51
0.0
  0
LINE
  5
4EE
100
AcDbEntity
  8
0
370
    -3
  6
Continuous
100
AcDbLine
 10
-245.108736
 20
252.944087
 30
0.0
 11
-245.108736
 21
222.38702
 31
0.0
  0
LINE
  5
4EF
100
AcDbEntity
  8
0
370
    -3
  6
Continuous
100
AcDbLine
 10
-39.108736
 20
355.271059
 30
0.0
 11
-39.108736
 21
222.598032
 31
0.0
  0
LINE
  5
4F0
100
AcDbEntity
  8
0
370
    -3
  6
Continuous
100
AcDbLine
 10
-239.108736
 20
250.187985
 30
0.0
 11
-209.725493
 21
250.187985
 31
0.0
  0
LINE
  5
4F1
100
AcDbEntity
  8
0
370
    -3
  6
CENTER
100
AcDbLine
 10
-227.108736
 20
216.260575
 30
0.0
 11
-227.108736
 21
244.796917
 31
0.0
  0
LINE
  5
4F2
100
AcDbEntity
  8
0
370
    -3
  6
CENTER
100
AcDbLine
 10
-57.108736
 20
216.260575
 30
0.0
 11
-57.108736
 21
245.367644
 31
0.0
  0
LINE
  5
4F3
100
AcDbEntity
  8
0
370
    -3
  6
CENTER
100
AcDbLine
 10
-43.535011
 20
230.271059
 30
0.0
 11
-69.788446
 21
230.271059
 31
0.0
  0
CIRCLE
  5
4F4
100
AcDbEntity
  8
0
370
    -3
  6
Continuous
100
AcDbCircle
 10
-227.108736
 20
230.271059
 30
0.0
 40
7.5
  0
CIRCLE
  5
4F5
100
AcDbEntity
  8
0
370
    -3
  6
Continuous
100
AcDbCircle
 10
-57.108736
 20
230.271059
 30
0.0
 40
7.5
  0
LINE
  5
4F6
100
AcDbEntity
  8
0
370
    -3
  6
CENTER
100
AcDbLine
 10
-212.470158
 20
230.271059
 30
0.0
 11
-241.0065
 21
230.271059
 31
0.0
  0
ARC
  5
4F7
100
AcDbEntity
  8
0
370
    -3
  6
Continuous
100
AcDbCircle
 10
-40.108736
 20
310.271059
 30
0.0
 40
1.0
100
AcDbArc
 50
90.0
 51
180.0
  0
LINE
  5
4F8
100
AcDbEntity
  8
0
370
    -3
  6
Continuous
100
AcDbLine
 10
-41.108736
 20
355.271059
 30
0.0
 11
-41.108736
 21
263.779459
 31
0.0
  0
LINE
  5
4F9
100
AcDbEntity
  8
0
370
    -3
  6
Continuous
100
AcDbLine
 10
-184.608736
 20
355.271059
 30
0.0
 11
-184.608736
 21
220.271059
 31
0.0
  0
LINE
  5
4FA
100
AcDbEntity
  8
0
370
    -3
  6
Continuous
100
AcDbLine
 10
-48.934212
 20
212.599555
 30
0.0
 11
-181.608736
 21
210.283713
 31
0.0
  0
ARC
  5
4FB
100
AcDbEntity
  8
0
370
    -3
  6
Continuous
100
AcDbCircle
 10
-235.108736
 20
222.38702
 30
0.0
 40
10.0
100
AcDbArc
 50
180.0
 51
267.756824
  0
LINE
  5
4FC
100
AcDbEntity
  8
0
370
    -3
  6
Continuous
100
AcDbLine
 10
-235.500144
 20
212.394683
 30
0.0
 11
-181.608736
 21
210.283713
 31
0.0
  0
ARC
  5
4FD
100
AcDbEntity
  8
0
370
    -3
  6
Continuous
100
AcDbCircle
 10
-49.108736
 20
222.598032
 30
0.0
 40
10.0
100
AcDbArc
 50
271.0
 51
0.0
  0
LINE
  5
4FE
100
AcDbEntity
  8
0
370
    -3
  6
Continuous
100
AcDbLine
 10
-235.28326
 20
262.942564
 30
0.0
 11
-202.726954
 21
263.510836
 31
0.0
  0
ARC
  5
4FF
100
AcDbEntity
  8
0
370
    -3
  6
Continuous
100
AcDbCircle
 10
-235.108736
 20
252.944087
 30
0.0
 40
10.0
100
AcDbArc
 50
91.0
 51
180.0
  0
LINE
  5
500
100
AcDbEntity
  8
0
370
    -3
  6
Continuous
100
AcDbLine
 10
-204.108735
 20
310.904935
 30
0.0
 11
-204.108735
 21
299.636989
 31
0.0
  0
LINE
  5
501
100
AcDbEntity
  8
0
370
    -3
  6
Continuous
100
AcDbLine
 10
-196.108736
 20
311.771059
 30
0.0
 11
-203.608735
 21
311.771059
 31
0.0
  0
LINE
  5
502
100
AcDbEntity
  8
0
370
    -3
  6
Continuous
100
AcDbLine
 10
-196.108736
 20
298.771059
 30
0.0
 11
-203.608734
 21
298.771059
 31
0.0
  0
LINE
  5
503
100
AcDbEntity
  8
0
370
    -3
  6
Continuous
100
AcDbLine
 10
-203.608735
 20
311.771059
 30
0.0
 11
-204.108735
 21
310.904935
 31
0.0
  0
LINE
  5
504
100
AcDbEntity
  8
0
370
    -3
  6
Continuous
100
AcDbLine
 10
-203.608734
 20
298.771059
 30
0.0
 11
-204.108735
 21
299.636989
 31
0.0
  0
LINE
  5
505
100
AcDbEntity
  8
0
370
    -3
  6
Continuous
100
AcDbLine
 10
-203.608735
 20
311.771059
 30
0.0
 11
-203.608735
 21
298.771059
 31
0.0
  0
LINE
  5
506
100
AcDbEntity
  8
0
370
    -3
  6
Continuous
100
AcDbLine
 10
-204.108735
 20
239.904935
 30
0.0
 11
-204.108735
 21
228.636989
 31
0.0
  0
LINE
  5
507
100
AcDbEntity
  8
0
370
    -3
  6
Continuous
100
AcDbLine
 10
-196.108736
 20
240.771059
 30
0.0
 11
-203.608735
 21
240.771059
 31
0.0
  0
LINE
  5
508
100
AcDbEntity
  8
0
370
    -3
  6
Continuous
100
AcDbLine
 10
-196.108736
 20
227.771059
 30
0.0
 11
-203.608734
 21
227.771059
 31
0.0
  0
LINE
  5
509
100
AcDbEntity
  8
0
370
    -3
  6
Continuous
100
AcDbLine
 10
-203.608735
 20
240.771059
 30
0.0
 11
-204.108735
 21
239.904935
 31
0.0
  0
LINE
  5
50A
100
AcDbEntity
  8
0
370
    -3
  6
Continuous
100
AcDbLine
 10
-203.608734
 20
227.771059
 30
0.0
 11
-204.108735
 21
228.636989
 31
0.0
  0
LINE
  5
50B
100
AcDbEntity
  8
0
370
    -3
  6
Continuous
100
AcDbLine
 10
-203.608735
 20
240.771059
 30
0.0
 11
-203.608735
 21
227.771059
 31
0.0
  0
LINE
  5
50C
100
AcDbEntity
  8
0
370
    -3
  6
Continuous
100
AcDbLine
 10
-217.608736
 20
296.462915
 30
0.0
 11
-372.608737
 21
296.462915
 31
0.0
  0
LINE
  5
50D
100
AcDbEntity
  8
0
370
    -3
  6
Continuous
100
AcDbLine
 10
-217.608736
 20
289.391847
 30
0.0
 11
-372.608737
 21
289.391847
 31
0.0
  0
LINE
  5
50E
100
AcDbEntity
  8
0
370
    -3
  6
Continuous
100
AcDbLine
 10
-217.608736
 20
280.271059
 30
0.0
 11
-372.608737
 21
280.271059
 31
0.0
  0
LINE
  5
50F
100
AcDbEntity
  8
0
370
    -3
  6
Continuous
100
AcDbLine
 10
-217.608736
 20
275.271059
 30
0.0
 11
-372.608737
 21
275.271059
 31
0.0
  0
ARC
  5
510
100
AcDbEntity
  8
0
370
    -3
  6
Continuous
100
AcDbCircle
 10
-375.608737
 20
271.91155
 30
0.0
 40
3.0
100
AcDbArc
 50
270.0
 51
0.0
  0
ELLIPSE
  5
511
100
AcDbEntity
  8
0
370
    -3
  6
Continuous
100
AcDbEllipse
 10
-398.108736
 20
289.619625
 30
0.0
 11
5.0
 21
0.0
 31
0.0
210
0.0
220
0.0
230
1.0
 40
0.707107
 41
0.0
 42
3.1415926535897931
  0
LINE
  5
512
100
AcDbEntity
  8
0
370
    -3
  6
Continuous
100
AcDbLine
 10
-403.108736
 20
288.803022
 30
0.0
 11
-403.108736
 21
289.619625
 31
0.0
  0
LINE
  5
513
100
AcDbEntity
  8
0
370
    -3
  6
Continuous
100
AcDbLine
 10
-393.108736
 20
288.803022
 30
0.0
 11
-393.108736
 21
289.619625
 31
0.0
  0
ELLIPSE
  5
514
100
AcDbEntity
  8
0
370
    -3
  6
Continuous
100
AcDbEllipse
 10
-398.108736
 20
288.803022
 30
0.0
 11
4.5
 21
0.0
 31
0.0
210
0.0
220
0.0
230
1.0
 40
0.707107
 41
0.0
 42
3.1415926535897931
  0
LINE
  5
515
100
AcDbEntity
  8
0
370
    -3
  6
Continuous
100
AcDbLine
 10
-402.608736
 20
288.237337
 30
0.0
 11
-402.608736
 21
288.803022
 31
0.0
  0
LINE
  5
516
100
AcDbEntity
  8
0
370
    -3
  6
Continuous
100
AcDbLine
 10
-393.608736
 20
288.237337
 30
0.0
 11
-393.608736
 21
288.803022
 31
0.0
  0
ELLIPSE
  5
517
100
AcDbEntity
  8
0
370
    -3
  6
Continuous
100
AcDbEllipse
 10
-398.108736
 20
288.803022
 30
0.0
 11
5.0
 21
0.0
 31
0.0
210
0.0
220
0.0
230
1.0
 40
0.707107
 41
5.5439134802389658
 42
0.0
  0
ELLIPSE
  5
518
100
AcDbEntity
  8
0
370
    -3
  6
Continuous
100
AcDbEllipse
 10
-398.108736
 20
288.803022
 30
0.0
 11
5.0
 21
0.0
 31
0.0
210
0.0
220
0.0
230
1.0
 40
0.707107
 41
3.1415926535897931
 42
3.880864480530414
  0
ELLIPSE
  5
519
100
AcDbEntity
  8
0
370
    -3
  6
Continuous
100
AcDbEllipse
 10
-398.108736
 20
287.700818
 30
0.0
 11
3.5
 21
0.0
 31
0.0
210
0.0
220
0.0
230
1.0
 40
0.860398
 41
0.0
 42
6.2831853071795862
  0
ELLIPSE
  5
51A
100
AcDbEntity
  8
0
370
    -3
  6
Continuous
100
AcDbEllipse
 10
-398.108736
 20
288.237337
 30
0.0
 11
4.5
 21
0.0
 31
0.0
210
0.0
220
0.0
230
1.0
 40
0.707107
 41
5.3002993159359626
 42
4.1244786448334168
  0
LINE
  5
51B
100
AcDbEntity
  8
0
370
    -3
  6
Continuous
100
AcDbLine
 10
-398.108736
 20
286.398859
 30
0.0
 11
-396.108736
 21
287.972196
 31
0.0
  0
LINE
  5
51C
100
AcDbEntity
  8
0
370
    -3
  6
Continuous
100
AcDbLine
 10
-398.108736
 20
286.398859
 30
0.0
 11
-396.179531
 21
285.188196
 31
0.0
  0
LINE
  5
51D
100
AcDbEntity
  8
0
370
    -3
  6
Continuous
100
AcDbLine
 10
-398.108736
 20
286.398859
 30
0.0
 11
-400.108736
 21
287.972196
 31
0.0
  0
LINE
  5
51E
100
AcDbEntity
  8
0
370
    -3
  6
Continuous
100
AcDbLine
 10
-398.108736
 20
286.398859
 30
0.0
 11
-400.037941
 21
285.188196
 31
0.0
  0
ARC
  5
51F
100
AcDbEntity
  8
0
370
    -3
  6
Continuous
100
AcDbCircle
 10
-406.676769
 20
308.771059
 30
0.0
 40
40.8
100
AcDbArc
 50
240.0
 51
270.0
  0
LINE
  5
520
100
AcDbEntity
  8
0
370
    -3
  6
Continuous
100
AcDbLine
 10
-445.608737
 20
286.33059
 30
0.0
 11
-445.608737
 21
355.271059
 31
0.0
  0
LINE
  5
521
100
AcDbEntity
  8
0
370
    -3
  6
Continuous
100
AcDbLine
 10
-443.708737
 20
283.039694
 30
0.0
 11
-427.076769
 21
273.437223
 31
0.0
  0
ARC
  5
522
100
AcDbEntity
  8
0
370
    -3
  6
Continuous
100
AcDbCircle
 10
-441.808737
 20
286.33059
 30
0.0
 40
3.8
100
AcDbArc
 50
180.0
 51
240.0
  0
LINE
  5
523
100
AcDbEntity
  8
0
370
    -3
  6
Continuous
100
AcDbLine
 10
-372.608737
 20
271.91155
 30
0.0
 11
-372.608737
 21
355.271059
 31
0.0
  0
LINE
  5
524
100
AcDbEntity
  8
0
370
    -3
  6
Continuous
100
AcDbLine
 10
-217.608736
 20
311.355662
 30
0.0
 11
-372.608737
 21
311.355662
 31
0.0
  0
LINE
  5
525
100
AcDbEntity
  8
0
370
    -3
  6
Continuous
100
AcDbLine
 10
-217.608736
 20
309.133335
 30
0.0
 11
-372.608737
 21
309.133335
 31
0.0
  0
LINE
  5
526
100
AcDbEntity
  8
0
370
    -3
  6
Continuous
100
AcDbLine
 10
-406.676769
 20
267.971059
 30
0.0
 11
-392.606965
 21
267.971059
 31
0.0
  0
ARC
  5
527
100
AcDbEntity
  8
0
370
    -3
  6
Continuous
100
AcDbCircle
 10
-391.608737
 20
267.91155
 30
0.0
 40
1.0
100
AcDbArc
 50
90.0
 51
176.588332
  0
LINE
  5
528
100
AcDbEntity
  8
0
370
    -3
  6
Continuous
100
AcDbLine
 10
-375.608737
 20
268.91155
 30
0.0
 11
-391.608737
 21
268.91155
 31
0.0
  0
LINE
  5
529
100
AcDbEntity
  8
0
370
    -3
  6
Continuous
100
AcDbLine
 10
-388.208736
 20
268.91155
 30
0.0
 11
-388.208736
 21
262.471059
 31
0.0
  0
LINE
  5
52A
100
AcDbEntity
  8
0
370
    -3
  6
Continuous
100
AcDbLine
 10
-400.808736
 20
257.271059
 30
0.0
 11
-331.170583
 21
257.271059
 31
0.0
  0
LINE
  5
52B
100
AcDbEntity
  8
0
370
    -3
  6
Continuous
100
AcDbLine
 10
-393.608736
 20
260.871059
 30
0.0
 11
-362.608736
 21
260.871059
 31
0.0
  0
ARC
  5
52C
100
AcDbEntity
  8
0
370
    -3
  6
Continuous
100
AcDbCircle
 10
-389.808736
 20
262.471059
 30
0.0
 40
1.6
100
AcDbArc
 50
270.0
 51
0.0
  0
LINE
  5
52D
100
AcDbEntity
  8
0
370
    -3
  6
Continuous
100
AcDbLine
 10
-362.608736
 20
259.271059
 30
0.0
 11
-393.608736
 21
259.271059
 31
0.0
  0
LINE
  5
52E
100
AcDbEntity
  8
0
370
    -3
  6
Continuous
100
AcDbLine
 10
-337.008736
 20
271.071059
 30
0.0
 11
-337.008736
 21
262.471059
 31
0.0
  0
ARC
  5
52F
100
AcDbEntity
  8
0
370
    -3
  6
Continuous
100
AcDbCircle
 10
-334.608736
 20
257.271059
 30
0.0
 40
1.0
100
AcDbArc
 50
13.342364
 51
90.0
  0
LINE
  5
530
100
AcDbEntity
  8
0
370
    -3
  6
Continuous
100
AcDbLine
 10
-393.608736
 20
258.271059
 30
0.0
 11
-331.608736
 21
258.271059
 31
0.0
  0
LINE
  5
531
100
AcDbEntity
  8
0
370
    -3
  6
Continuous
100
AcDbLine
 10
-393.608736
 20
259.271059
 30
0.0
 11
-331.608736
 21
259.271059
 31
0.0
  0
LINE
  5
532
100
AcDbEntity
  8
0
370
    -3
  6
Continuous
100
AcDbLine
 10
-331.608736
 20
260.871059
 30
0.0
 11
-362.608736
 21
260.871059
 31
0.0
  0
ARC
  5
533
100
AcDbEntity
  8
0
370
    -3
  6
Continuous
100
AcDbCircle
 10
-335.408736
 20
262.471059
 30
0.0
 40
1.6
100
AcDbArc
 50
180.0
 51
270.0
  0
LINE
  5
534
100
AcDbEntity
  8
0
370
    -3
  6
Continuous
100
AcDbLine
 10
-362.608736
 20
259.271059
 30
0.0
 11
-331.608736
 21
259.271059
 31
0.0
  0
LINE
  5
535
100
AcDbEntity
  8
0
370
    -3
  6
Continuous
100
AcDbLine
 10
-338.608736
 20
275.271059
 30
0.0
 11
-338.608736
 21
274.271059
 31
0.0
  0
LINE
  5
536
100
AcDbEntity
  8
0
370
    -3
  6
Continuous
100
AcDbLine
 10
-372.608736
 20
274.271059
 30
0.0
 11
-338.608736
 21
274.271059
 31
0.0
  0
ARC
  5
537
100
AcDbEntity
  8
0
370
    -3
  6
Continuous
100
AcDbCircle
 10
-340.208736
 20
271.071059
 30
0.0
 40
3.2
100
AcDbArc
 50
0.0
 51
90.0
  0
LINE
  5
538
100
AcDbEntity
  8
0
370
    -3
  6
Continuous
100
AcDbLine
 10
-434.608736
 20
249.271059
 30
0.0
 11
-407.608736
 21
249.271059
 31
0.0
  0
LINE
  5
539
100
AcDbEntity
  8
0
370
    -3
  6
Continuous
100
AcDbLine
 10
-434.608736
 20
215.271059
 30
0.0
 11
-408.019452
 21
215.271059
 31
0.0
  0
ARC
  5
53A
100
AcDbEntity
  8
0
370
    -3
  6
Continuous
100
AcDbCircle
 10
-434.608736
 20
217.271059
 30
0.0
 40
2.0
100
AcDbArc
 50
180.0
 51
270.0
  0
LINE
  5
53B
100
AcDbEntity
  8
0
370
    -3
  6
Continuous
100
AcDbLine
 10
-436.608736
 20
232.271059
 30
0.0
 11
-436.608736
 21
217.271059
 31
0.0
  0
ARC
  5
53C
100
AcDbEntity
  8
0
370
    -3
  6
Continuous
100
AcDbCircle
 10
-434.608736
 20
247.271059
 30
0.0
 40
2.0
100
AcDbArc
 50
90.0
 51
180.0
  0
LINE
  5
53D
100
AcDbEntity
  8
0
370
    -3
  6
Continuous
100
AcDbLine
 10
-436.608736
 20
232.271059
 30
0.0
 11
-436.608736
 21
247.271059
 31
0.0
  0
LINE
  5
53E
100
AcDbEntity
  8
0
370
    -3
  6
Continuous
100
AcDbLine
 10
-409.608736
 20
232.271059
 30
0.0
 11
-409.608736
 21
249.271059
 31
0.0
  0
LINE
  5
53F
100
AcDbEntity
  8
0
370
    -3
  6
Continuous
100
AcDbLine
 10
-409.608736
 20
232.271059
 30
0.0
 11
-409.608736
 21
215.271059
 31
0.0
  0
ARC
  5
540
100
AcDbEntity
  8
0
370
    -3
  6
Continuous
100
AcDbCircle
 10
-392.933043
 20
254.271059
 30
0.0
 40
3.0
100
AcDbArc
 50
90.0
 51
180.0
  0
LINE
  5
541
100
AcDbEntity
  8
0
370
    -3
  6
Continuous
100
AcDbLine
 10
-395.933043
 20
220.907044
 30
0.0
 11
-395.933043
 21
254.271059
 31
0.0
  0
LINE
  5
542
100
AcDbEntity
  8
0
370
    -3
  6
Continuous
100
AcDbLine
 10
-326.820848
 20
253.13459
 30
0.0
 11
-327.726613
 21
255.077009
 31
0.0
  0
LINE
  5
543
100
AcDbEntity
  8
0
370
    -3
  6
Continuous
100
AcDbLine
 10
-407.608736
 20
215.462579
 30
0.0
 11
-407.608736
 21
250.471059
 31
0.0
  0
LINE
  5
544
100
AcDbEntity
  8
0
370
    -3
  6
Continuous
100
AcDbLine
 10
-408.019452
 20
215.271059
 30
0.0
 11
-416.182796
 21
211.464429
 31
0.0
  0
LINE
  5
545
100
AcDbEntity
  8
0
370
    -3
  6
Continuous
100
AcDbLine
 10
-319.570386
 20
256.515536
 30
0.0
 11
-408.019452
 21
215.271059
 31
0.0
  0
LINE
  5
546
100
AcDbEntity
  8
0
370
    -3
  6
Continuous
100
AcDbLine
 10
-338.421588
 20
247.725076
 30
0.0
 11
-341.84985
 21
255.077009
 31
0.0
  0
ARC
  5
547
100
AcDbEntity
  8
0
370
    -3
  6
Continuous
100
AcDbCircle
 10
-345.29382
 20
253.471059
 30
0.0
 40
3.8
100
AcDbArc
 50
25.0
 51
90.0
  0
ARC
  5
548
100
AcDbEntity
  8
0
370
    -3
  6
Continuous
100
AcDbCircle
 10
-619.434376
 20
307.956456
 30
0.0
 40
300.8
100
AcDbArc
 50
342.341575
 51
347.89975
  0
ARC
  5
549
100
AcDbEntity
  8
0
370
    -3
  6
Continuous
100
AcDbCircle
 10
-368.191134
 20
809.453533
 30
0.0
 40
600.8
100
AcDbArc
 50
266.682408
 51
272.437505
  0
ARC
  5
54A
100
AcDbEntity
  8
0
370
    -3
  6
Continuous
100
AcDbCircle
 10
-332.208919
 20
228.549045
 30
0.0
 40
2.8
100
AcDbArc
 50
344.545811
 51
25.0
  0
ARC
  5
54B
100
AcDbEntity
  8
0
370
    -3
  6
Continuous
100
AcDbCircle
 10
-396.62734
 20
210.873563
 30
0.0
 40
3.0
100
AcDbArc
 50
25.0
 51
115.0
  0
LINE
  5
54C
100
AcDbEntity
  8
0
370
    -3
  6
Continuous
100
AcDbLine
 10
-393.908416
 20
212.141417
 30
0.0
 11
-393.233386
 21
210.69381
 31
0.0
  0
ARC
  5
54D
100
AcDbEntity
  8
0
370
    -3
  6
Continuous
100
AcDbCircle
 10
-390.695724
 20
211.877141
 30
0.0
 40
2.8
100
AcDbArc
 50
205.0
 51
267.843273
  0
LINE
  5
54E
100
AcDbEntity
  8
0
370
    -3
  6
Continuous
100
AcDbLine
 10
-329.671257
 20
229.732376
 30
0.0
 11
-334.406684
 21
239.887531
 31
0.0
  0
ARC
  5
54F
100
AcDbEntity
  8
0
370
    -3
  6
Continuous
100
AcDbCircle
 10
-331.687761
 20
241.155386
 30
0.0
 40
3.0
100
AcDbArc
 50
115.0
 51
205.0
  0
LINE
  5
550
100
AcDbEntity
  8
0
370
    -3
  6
Continuous
100
AcDbLine
 10
-318.750554
 20
250.498238
 30
0.0
 11
-412.100256
 21
206.968557
 31
0.0
  0
LINE
  5
551
100
AcDbEntity
  8
0
370
    -3
  6
CENTER
100
AcDbLine
 10
-439.087359
 20
232.271059
 30
0.0
 11
-398.780873
 21
232.271059
 31
0.0
  0
ARC
  5
552
100
AcDbEntity
  8
0
370
    -3
  6
Continuous
100
AcDbCircle
 10
-325.768525
 20
246.14547
 30
0.0
 40
1.299999
100
AcDbArc
 50
204.999999
 51
278.398469
  0
LINE
  5
553
100
AcDbEntity
  8
0
370
    -3
  6
Continuous
100
AcDbLine
 10
-327.360478
 20
246.483365
 30
0.0
 11
-326.946724
 21
245.596066
 31
0.0
  0
ARC
  5
554
100
AcDbEntity
  8
0
370
    -3
  6
Continuous
100
AcDbCircle
 10
-326.893157
 20
253.762898
 30
0.0
 40
9.0
100
AcDbArc
 50
278.398469
 51
311.601548
  0
ARC
  5
555
100
AcDbEntity
  8
0
370
    -3
  6
Continuous
100
AcDbCircle
 10
-321.780769
 20
248.004991
 30
0.0
 40
1.299999
100
AcDbArc
 50
311.601548
 51
25.000018
  0
LINE
  5
556
100
AcDbEntity
  8
0
370
    -3
  6
CENTER
100
AcDbLine
 10
-325.446075
 20
250.659619
 30
0.0
 11
-322.576154
 21
244.505054
 31
0.0
  0
LINE
  5
557
100
AcDbEntity
  8
0
370
    -3
  6
Continuous
100
AcDbLine
 10
-321.016323
 20
249.441692
 30
0.0
 11
-320.602569
 21
248.554394
 31
0.0
  0
ARC
  5
558
100
AcDbEntity
  8
0
370
    -3
  6
Continuous
100
AcDbCircle
 10
-408.242533
 20
207.687208
 30
0.0
 40
1.299999
100
AcDbArc
 50
204.999999
 51
278.398469
  0
ARC
  5
559
100
AcDbEntity
  8
0
370
    -3
  6
Continuous
100
AcDbCircle
 10
-404.254778
 20
209.546729
 30
0.0
 40
1.299999
100
AcDbArc
 50
311.601548
 51
25.000018
  0
LINE
  5
55A
100
AcDbEntity
  8
0
370
    -3
  6
Continuous
100
AcDbLine
 10
-409.834487
 20
208.025103
 30
0.0
 11
-409.420733
 21
207.137804
 31
0.0
  0
LINE
  5
55B
100
AcDbEntity
  8
0
370
    -3
  6
Continuous
100
AcDbLine
 10
-403.490332
 20
210.983431
 30
0.0
 11
-403.076578
 21
210.096132
 31
0.0
  0
POINT
  5
55C
100
AcDbEntity
  8
0
370
    -3
  6
Continuous
100
AcDbPoint
 10
-406.662409
 20
209.504267
 30
0.0
  0
ARC
  5
55D
100
AcDbEntity
  8
0
370
    -3
  6
Continuous
100
AcDbCircle
 10
-409.367166
 20
215.304636
 30
0.0
 40
9.0
100
AcDbArc
 50
278.398469
 51
311.601548
  0
ARC
  5
55E
100
AcDbEntity
  8
0
370
    -3
  6
Continuous
100
AcDbCircle
 10
-343.098641
 20
219.987362
 30
0.0
 40
10.8
100
AcDbArc
 50
272.437505
 51
342.341575
  0
LINE
  5
55F
100
AcDbEntity
  8
0
370
    -3
  6
CENTER
100
AcDbLine
 10
-407.920083
 20
212.201357
 30
0.0
 11
-405.050163
 21
206.046793
 31
0.0
  0
POINT
  5
560
100
AcDbEntity
  8
0
370
    -3
  6
Continuous
100
AcDbPoint
 10
-324.212111
 20
247.951472
 30
0.0
  0
LINE
  5
561
100
AcDbEntity
  8
0
370
    -3
  6
CENTER
100
AcDbLine
 10
-325.446075
 20
250.659619
 30
0.0
 11
-322.576154
 21
244.505054
 31
0.0
  0
ARC
  5
562
100
AcDbEntity
  8
0
370
    -3
  6
Continuous
100
AcDbCircle
 10
-319.511267
 20
252.129592
 30
0.0
 40
1.8
100
AcDbArc
 50
295.0
 51
25.0
  0
LINE
  5
563
100
AcDbEntity
  8
0
370
    -3
  6
Continuous
100
AcDbLine
 10
-317.879913
 20
252.890305
 30
0.0
 11
-319.570386
 21
256.515536
 31
0.0
  0
ARC
  5
564
100
AcDbEntity
  8
0
370
    -3
  6
Continuous
100
AcDbCircle
 10
-412.860969
 20
208.599911
 30
0.0
 40
1.8
100
AcDbArc
 50
205.0
 51
295.0
  0
LINE
  5
565
100
AcDbEntity
  8
0
370
    -3
  6
Continuous
100
AcDbLine
 10
-414.492323
 20
207.839198
 30
0.0
 11
-416.182796
 21
211.464429
 31
0.0
  0
ARC
  5
566
100
AcDbEntity
  8
0
370
    -3
  6
Continuous
100
AcDbCircle
 10
-331.170583
 20
253.471059
 30
0.0
 40
3.8
100
AcDbArc
 50
25.0
 51
90.0
  0
ARC
  5
567
100
AcDbEntity
  8
0
370
    -3
  6
Continuous
100
AcDbCircle
 10
-400.808736
 20
250.471059
 30
0.0
 40
6.8
100
AcDbArc
 50
90.0
 51
180.0
  0
LINE
  5
568
100
AcDbEntity
  8
0
370
    -3
  6
Continuous
100
AcDbLine
 10
-331.608736
 20
259.271059
 30
0.0
 11
-331.608736
 21
258.271059
 31
0.0
  0
ARC
  5
569
100
AcDbEntity
  8
0
370
    -3
  6
Continuous
100
AcDbCircle
 10
-333.343825
 20
257.571059
 30
0.0
 40
0.3
100
AcDbArc
 50
193.342364
 51
270.0
  0
ARC
  5
56A
100
AcDbEntity
  8
0
370
    -3
  6
Continuous
100
AcDbCircle
 10
-390.608736
 20
257.271059
 30
0.0
 40
1.0
100
AcDbArc
 50
90.0
 51
166.657636
  0
LINE
  5
56B
100
AcDbEntity
  8
0
370
    -3
  6
Continuous
100
AcDbLine
 10
-393.608736
 20
259.271059
 30
0.0
 11
-393.608736
 21
258.271059
 31
0.0
  0
ARC
  5
56C
100
AcDbEntity
  8
0
370
    -3
  6
Continuous
100
AcDbCircle
 10
-391.873647
 20
257.571059
 30
0.0
 40
0.3
100
AcDbArc
 50
270.0
 51
346.657636
  0
LINE
  5
56D
100
AcDbEntity
  8
0
370
    -3
  6
CENTER
100
AcDbLine
 10
-362.608736
 20
270.048477
 30
0.0
 11
-362.608736
 21
247.1385
 31
0.0
  0
LINE
  5
56E
100
AcDbEntity
  8
0
370
    -3
  6
Continuous
100
AcDbLine
 10
-393.608736
 20
259.271059
 30
0.0
 11
-393.608736
 21
260.871059
 31
0.0
  0
LINE
  5
56F
100
AcDbEntity
  8
0
370
    -3
  6
Continuous
100
AcDbLine
 10
-331.608736
 20
259.271059
 30
0.0
 11
-331.608736
 21
260.871059
 31
0.0
  0
POINT
  5
570
100
AcDbEntity
  8
0
370
    -3
  6
CENTER
100
AcDbPoint
 10
-436.774715
 20
219.602008
 30
0.0
  0
POINT
  5
571
100
AcDbEntity
  8
0
370
    -3
  6
CENTER
100
AcDbPoint
 10
-436.774715
 20
246.043008
 30
0.0
  0
LINE
  5
572
100
AcDbEntity
  8
0
370
    -3
  6
Continuous
100
AcDbLine
 10
-203.608735
 20
469.771059
 30
0.0
 11
-203.608735
 21
482.771059
 31
0.0
  0
LINE
  5
573
100
AcDbEntity
  8
0
370
    -3
  6
Continuous
100
AcDbLine
 10
-203.608734
 20
482.771059
 30
0.0
 11
-204.108735
 21
481.90513
 31
0.0
  0
LINE
  5
574
100
AcDbEntity
  8
0
370
    -3
  6
Continuous
100
AcDbLine
 10
-203.608735
 20
469.771059
 30
0.0
 11
-204.108735
 21
470.637183
 31
0.0
  0
LINE
  5
575
100
AcDbEntity
  8
0
370
    -3
  6
Continuous
100
AcDbLine
 10
-196.108736
 20
482.771059
 30
0.0
 11
-203.608734
 21
482.771059
 31
0.0
  0
LINE
  5
576
100
AcDbEntity
  8
0
370
    -3
  6
Continuous
100
AcDbLine
 10
-196.108736
 20
469.771059
 30
0.0
 11
-203.608735
 21
469.771059
 31
0.0
  0
LINE
  5
577
100
AcDbEntity
  8
0
370
    -3
  6
Continuous
100
AcDbLine
 10
-204.108735
 20
470.637184
 30
0.0
 11
-204.108735
 21
481.90513
 31
0.0
  0
ARC
  5
578
100
AcDbEntity
  8
0
370
    -3
  6
Continuous
100
AcDbCircle
 10
-49.108736
 20
487.944087
 30
0.0
 40
10.0
100
AcDbArc
 50
0.0
 51
89.0
  0
LINE
  5
579
100
AcDbEntity
  8
0
370
    -3
  6
Continuous
100
AcDbLine
 10
-235.500144
 20
498.147436
 30
0.0
 11
-181.608736
 21
500.258406
 31
0.0
  0
ARC
  5
57A
100
AcDbEntity
  8
0
370
    -3
  6
Continuous
100
AcDbCircle
 10
-235.108736
 20
488.155099
 30
0.0
 40
10.0
100
AcDbArc
 50
92.243176
 51
180.0
  0
LINE
  5
57B
100
AcDbEntity
  8
0
370
    -3
  6
Continuous
100
AcDbLine
 10
-48.934212
 20
497.942564
 30
0.0
 11
-181.608736
 21
500.258406
 31
0.0
  0
LINE
  5
57C
100
AcDbEntity
  8
0
370
    -3
  6
CENTER
100
AcDbLine
 10
-212.470158
 20
480.271059
 30
0.0
 11
-241.0065
 21
480.271059
 31
0.0
  0
CIRCLE
  5
57D
100
AcDbEntity
  8
0
370
    -3
  6
Continuous
100
AcDbCircle
 10
-57.108736
 20
480.271059
 30
0.0
 40
7.5
  0
CIRCLE
  5
57E
100
AcDbEntity
  8
0
370
    -3
  6
Continuous
100
AcDbCircle
 10
-227.108736
 20
480.271059
 30
0.0
 40
7.5
  0
LINE
  5
57F
100
AcDbEntity
  8
0
370
    -3
  6
CENTER
100
AcDbLine
 10
-43.535011
 20
480.271059
 30
0.0
 11
-69.788446
 21
480.271059
 31
0.0
  0
LINE
  5
580
100
AcDbEntity
  8
0
370
    -3
  6
CENTER
100
AcDbLine
 10
-57.108736
 20
494.281544
 30
0.0
 11
-57.108736
 21
465.174475
 31
0.0
  0
LINE
  5
581
100
AcDbEntity
  8
0
370
    -3
  6
CENTER
100
AcDbLine
 10
-227.108736
 20
494.281544
 30
0.0
 11
-227.108736
 21
465.745202
 31
0.0
  0
ARC
  5
582
100
AcDbEntity
  8
0
370
    -3
  6
Continuous
100
AcDbCircle
 10
-81.644165
 20
479.334117
 30
0.0
 40
3.0
100
AcDbArc
 50
2.147817
 51
66.689886
  0
ARC
  5
583
100
AcDbEntity
  8
0
370
    -3
  6
Continuous
100
AcDbCircle
 10
-114.092191
 20
404.027241
 30
0.0
 40
85.0
100
AcDbArc
 50
66.689886
 51
89.0
  0
LINE
  5
584
100
AcDbEntity
  8
0
370
    -3
  6
Continuous
100
AcDbLine
 10
-112.608736
 20
489.014295
 30
0.0
 11
-184.608736
 21
490.271059
 31
0.0
  0
LINE
  5
585
100
AcDbEntity
  8
0
370
    -3
  6
Continuous
100
AcDbLine
 10
-201.108736
 20
469.771059
 30
0.0
 11
-201.108736
 21
467.229099
 31
0.0
  0
LINE
  5
586
100
AcDbEntity
  8
0
370
    -3
  6
Continuous
100
AcDbLine
 10
-201.108736
 20
488.271059
 30
0.0
 11
-201.108736
 21
482.771059
 31
0.0
  0
ARC
  5
587
100
AcDbEntity
  8
0
370
    -3
  6
Continuous
100
AcDbCircle
 10
-199.108736
 20
488.271059
 30
0.0
 40
2.0
100
AcDbArc
 50
90.0
 51
180.0
  0
LINE
  5
588
100
AcDbEntity
  8
0
370
    -3
  6
Continuous
100
AcDbLine
 10
-199.108736
 20
490.271059
 30
0.0
 11
-184.608736
 21
490.271059
 31
0.0
  0
ARC
  5
589
100
AcDbEntity
  8
0
370
    -3
  6
Continuous
100
AcDbCircle
 10
-194.108736
 20
488.271059
 30
0.0
 40
2.0
100
AcDbArc
 50
90.0
 51
180.0
  0
ENDSEC
  0
SECTION
  2
OBJECTS
  0
DICTIONARY
  5
19
100
AcDbDictionary
280
     0
281
     1
  3
ACAD_GROUP
350
1A
  3
ACAD_MLINESTYLE
350
1B
  3
ACAD_LAYOUT
350
1E
  3
ACAD_PLOTSETTINGS
350
22
  3
ACAD_PLOTSTYLENAME
350
1F
  3
ACAD_WIPEOUT_VARS
350
23
  3
DWGPROPS
350
58A
  0
DICTIONARY
  5
1A
102
{ACAD_REACTORS
330
19
102
}
100
AcDbDictionary
280
     0
281
     1
  0
DICTIONARY
  5
1B
102
{ACAD_REACTORS
330
19
102
}
100
AcDbDictionary
280
     0
281
     1
  3
Standard
350
1C
  0
MLINESTYLE
  5
1C
102
{ACAD_REACTORS
330
1B
102
}
100
AcDbMlineStyle
  2
Standard
 70
     0
  3

 62
     0
 51
90.0
 52
90.0
 71
     2
 49
0.5
 62
   256
  6
ByLayer
 49
-0.5
 62
   256
  6
ByLayer
  0
ACDBDICTIONARYWDFLT
  5
1F
102
{ACAD_REACTORS
330
19
102
}
100
AcDbDictionary
281
     1
  3
Normal
350
1D
100
AcDbDictionaryWithDefault
340
1D
  0
ACDBPLACEHOLDER
  5
1D
102
{ACAD_REACTORS
330
1F
102
}
  0
LAYOUT
  5
20
102
{ACAD_REACTORS
330
1E
102
}
100
AcDbPlotSettings
  1

  2

  4

  6

 40
0.0
 41
0.0
 42
0.0
 43
0.0
 44
0.0
 45
0.0
 46
0.0
 47
0.0
 48
0.0
 49
0.0
140
0.0
141
0.0
142
1.0
143
1.0
 70
  1024
 72
     0
 73
     0
 74
     0
  7

 75
     0
147
1.0
148
0.0
149
0.0
100
AcDbLayout
  1
Model
 70
     0
 71
     0
 10
0.0
 20
0.0
 11
0.0
 21
0.0
 12
0.0
 22
0.0
 32
0.0
 14
0.0
 24
0.0
 34
0.0
 15
0.0
 25
0.0
 35
0.0
146
0.0
 13
0.0
 23
0.0
 33
0.0
 16
0.0
 26
0.0
 36
0.0
 17
0.0
 27
0.0
 37
0.0
 76
     0
330
A
331
0
345
0
346
0
  0
LAYOUT
  5
21
102
{ACAD_REACTORS
330
1E
102
}
100
AcDbPlotSettings
  1

  2

  4

  6

 40
0.0
 41
0.0
 42
0.0
 43
0.0
 44
0.0
 45
0.0
 46
0.0
 47
0.0
 48
0.0
 49
0.0
140
0.0
141
0.0
142
1.0
143
1.0
 70
     0
 72
     0
 73
     0
 74
     0
  7

 75
     0
147
1.0
148
0.0
149
0.0
100
AcDbLayout
  1
Layout1
 70
     0
 71
     0
 10
0.0
 20
0.0
 11
0.0
 21
0.0
 12
0.0
 22
0.0
 32
0.0
 14
0.0
 24
0.0
 34
0.0
 15
0.0
 25
0.0
 35
0.0
146
0.0
 13
0.0
 23
0.0
 33
0.0
 16
0.0
 26
0.0
 36
0.0
 17
0.0
 27
0.0
 37
0.0
 76
     0
330
B
331
0
345
0
346
0
  0
DICTIONARY
  5
1E
102
{ACAD_REACTORS
330
19
102
}
100
AcDbDictionary
280
     0
281
     1
  3
Layout1
350
21
  3
Model
350
20
  0
DICTIONARY
  5
22
102
{ACAD_REACTORS
330
19
102
}
100
AcDbDictionary
280
     0
281
     1
  0
WIPEOUTVARIABLES
  5
23
100
AcDbWipeoutVariables
 70
     1
  0
XRECORD
  5
58A
100
AcDbXrecord
280
     1
  1
DWGPROPS COOKIE
  2

  3

  4

  6

  7

  8
HK96464
  9

300
=
301
=
302
=
303
=
304
=
305
=
306
=
307
=
308
=
309
=
 40
0.0
 41
2455931.628032
 42
2455931.628032
  1

 90
        0
  0
ENDSEC
  0
EOF
