  0
SECTION
  2
HEADER
  9
$ACADVER
  1
AC1015
  9
$ACADMAINTVER
 70
     6
  9
$DWGCODEPAGE
  3
ANSI_932
  9
$INSBASE
 10
0.0
 20
0.0
 30
0.0
  9
$EXTMIN
 10
1.000000E+20
 20
1.000000E+20
 30
1.000000E+20
  9
$EXTMAX
 10
-1.000000E+20
 20
-1.000000E+20
 30
-1.000000E+20
  9
$LIMMIN
 10
0.0
 20
0.0
  9
$LIMMAX
 10
0.0
 20
0.0
  9
$ORTHOMODE
 70
     0
  9
$REGENMODE
 70
     1
  9
$FILLMODE
 70
     1
  9
$QTEXTMODE
 70
     0
  9
$MIRRTEXT
 70
     1
  9
$LTSCALE
 40
1.0
  9
$ATTMODE
 70
     1
  9
$TEXTSIZE
 40
7.0
  9
$TRACEWID
 40
0.05
  9
$TEXTSTYLE
  7
Standard
  9
$CLAYER
  8
0
  9
$CELTYPE
  6
Continuous
  9
$CECOLOR
 62
   256
  9
$CELTSCALE
 40
1.0
  9
$DISPSILH
 70
     0
  9
$DIMSCALE
 40
1.0
  9
$DIMASZ
 40
1.931852
  9
$DIMEXO
 40
1.0
  9
$DIMDLI
 40
0.38
  9
$DIMRND
 40
0.0
  9
$DIMDLE
 40
0.0
  9
$DIMEXE
 40
2.0
  9
$DIMTP
 40
0.0
  9
$DIMTM
 40
0.0
  9
$DIMTXT
 40
10.0
  9
$DIMCEN
 40
0.09
  9
$DIMTSZ
 40
0.0
  9
$DIMTOL
 70
     0
  9
$DIMLIM
 70
     0
  9
$DIMTIH
 70
     1
  9
$DIMTOH
 70
     1
  9
$DIMSE1
 70
     0
  9
$DIMSE2
 70
     0
  9
$DIMTAD
 70
     1
  9
$DIMZIN
 70
     0
  9
$DIMBLK
  1

  9
$DIMASO
 70
     1
  9
$DIMSHO
 70
     1
  9
$DIMPOST
  1

  9
$DIMAPOST
  1

  9
$DIMALT
 70
     0
  9
$DIMALTD
 70
     2
  9
$DIMALTF
 40
25.4
  9
$DIMLFAC
 40
1.0
  9
$DIMTOFL
 70
     0
  9
$DIMTVP
 40
0.0
  9
$DIMTIX
 70
     0
  9
$DIMSOXD
 70
     0
  9
$DIMSAH
 70
     0
  9
$DIMBLK1
  1

  9
$DIMBLK2
  1

  9
$DIMSTYLE
  2
Standard
  9
$DIMCLRD
 70
     0
  9
$DIMCLRE
 70
     0
  9
$DIMCLRT
 70
     0
  9
$DIMTFAC
 40
0.714286
  9
$DIMGAP
 40
0.09
  9
$DIMJUST
 70
     0
  9
$DIMSD1
 70
     0
  9
$DIMSD2
 70
     0
  9
$DIMTOLJ
 70
     1
  9
$DIMTZIN
 70
     0
  9
$DIMALTZ
 70
     0
  9
$DIMALTTZ
 70
     0
  9
$DIMUPT
 70
     0
  9
$DIMDEC
 70
     4
  9
$DIMTDEC
 70
     4
  9
$DIMALTU
 70
     2
  9
$DIMALTTD
 70
     2
  9
$DIMTXSTY
  7
Standard
  9
$DIMAUNIT
 70
     0
  9
$DIMADEC
 70
     0
  9
$DIMALTRND
 40
0.0
  9
$DIMAZIN
 70
     0
  9
$DIMDSEP
 70
     0
  9
$DIMATFIT
 70
     3
  9
$DIMFRAC
 70
     0
  9
$DIMLDRBLK
  1

  9
$DIMLUNIT
 70
     2
  9
$DIMLWD
 70
     0
  9
$DIMLWE
 70
     0
  9
$DIMTMOVE
 70
     0
  9
$LUNITS
 70
     2
  9
$LUPREC
 70
     3
  9
$SKETCHINC
 40
0.1
  9
$FILLETRAD
 40
0.0
  9
$AUNITS
 70
     0
  9
$AUPREC
 70
     0
  9
$MENU
  1
acad
  9
$ELEVATION
 40
0.0
  9
$PELEVATION
 40
0.0
  9
$THICKNESS
 40
0.0
  9
$LIMCHECK
 70
     0
  9
$CHAMFERA
 40
0.0
  9
$CHAMFERB
 40
0.0
  9
$CHAMFERC
 40
0.0
  9
$CHAMFERD
 40
0.0
  9
$SKPOLY
 70
     0
  9
$TDCREATE
 40
0.000000000
  9
$TDUCREATE
 40
0.000000000
  9
$TDUPDATE
 40
0.000000000
  9
$TDUUPDATE
 40
0.000000000
  9
$TDINDWG
 40
0.0000000000
  9
$TDUSRTIMER
 40
0.0000000000
  9
$USRTIMER
 70
     1
  9
$ANGBASE
 50
0.0
  9
$ANGDIR
 70
     0
  9
$PDMODE
 70
     0
  9
$PDSIZE
 40
0.0
  9
$PLINEWID
 40
0.0
  9
$SPLFRAME
 70
     0
  9
$SPLINETYPE
 70
     6
  9
$SPLINESEGS
 70
     8
  9
$HANDSEED
  5
4D0
  9
$SURFTAB1
 70
     6
  9
$SURFTAB2
 70
     6
  9
$SURFTYPE
 70
     6
  9
$SURFU
 70
     6
  9
$SURFV
 70
     6
  9
$UCSBASE
  2

  9
$UCSNAME
  2

  9
$UCSORG
 10
0.0
 20
0.0
 30
0.0
  9
$UCSXDIR
 10
1.0
 20
0.0
 30
0.0
  9
$UCSYDIR
 10
0.0
 20
1.0
 30
0.0
  9
$UCSORTHOREF
  2

  9
$UCSORTHOVIEW
 70
     0
  9
$UCSORGTOP
 10
0.0
 20
0.0
 30
0.0
  9
$UCSORGBOTTOM
 10
0.0
 20
0.0
 30
0.0
  9
$UCSORGLEFT
 10
0.0
 20
0.0
 30
0.0
  9
$UCSORGRIGHT
 10
0.0
 20
0.0
 30
0.0
  9
$UCSORGFRONT
 10
0.0
 20
0.0
 30
0.0
  9
$UCSORGBACK
 10
0.0
 20
0.0
 30
0.0
  9
$PUCSBASE
  2

  9
$PUCSNAME
  2

  9
$PUCSORG
 10
0.0
 20
0.0
 30
0.0
  9
$PUCSXDIR
 10
1.0
 20
0.0
 30
0.0
  9
$PUCSYDIR
 10
0.0
 20
1.0
 30
0.0
  9
$PUCSORTHOREF
  2

  9
$PUCSORTHOVIEW
 70
     0
  9
$PUCSORGTOP
 10
0.0
 20
0.0
 30
0.0
  9
$PUCSORGBOTTOM
 10
0.0
 20
0.0
 30
0.0
  9
$PUCSORGLEFT
 10
0.0
 20
0.0
 30
0.0
  9
$PUCSORGRIGHT
 10
0.0
 20
0.0
 30
0.0
  9
$PUCSORGFRONT
 10
0.0
 20
0.0
 30
0.0
  9
$PUCSORGBACK
 10
0.0
 20
0.0
 30
0.0
  9
$USERI1
 70
     0
  9
$USERI2
 70
     0
  9
$USERI3
 70
     0
  9
$USERI4
 70
     0
  9
$USERI5
 70
     0
  9
$USERR1
 40
0.0
  9
$USERR2
 40
0.0
  9
$USERR3
 40
0.0
  9
$USERR4
 40
0.0
  9
$USERR5
 40
0.0
  9
$WORLDVIEW
 70
     1
  9
$SHADEDGE
 70
     3
  9
$SHADEDIF
 70
    70
  9
$TILEMODE
 70
     1
  9
$MAXACTVP
 70
    16
  9
$PINSBASE
 10
0.0
 20
0.0
 30
0.0
  9
$PLIMCHECK
 70
     0
  9
$PEXTMIN
 10
1.000000E+20
 20
1.000000E+20
 30
1.000000E+20
  9
$PEXTMAX
 10
-1.000000E+20
 20
-1.000000E+20
 30
-1.000000E+20
  9
$PLIMMIN
 10
0.0
 20
0.0
  9
$PLIMMAX
 10
12.0
 20
9.0
  9
$UNITMODE
 70
     0
  9
$VISRETAIN
 70
     0
  9
$PLINEGEN
 70
     1
  9
$PSLTSCALE
 70
     0
  9
$TREEDEPTH
 70
  3020
  9
$CMLSTYLE
  2
Standard
  9
$CMLJUST
 70
     0
  9
$CMLSCALE
 40
1.0
  9
$PROXYGRAPHICS
 70
     0
  9
$MEASUREMENT
 70
     0
  9
$CELWEIGHT
370
     0
  9
$ENDCAPS
280
     0
  9
$JOINSTYLE
280
     0
  9
$LWDISPLAY
290
     0
  9
$INSUNITS
 70
     0
  9
$HYPERLINKBASE
  1

  9
$STYLESHEET
  1

  9
$XEDIT
290
     1
  9
$CEPSNTYPE
380
     0
  9
$PSTYLEMODE
290
     1
  9
$FINGERPRINTGUID
  2

  9
$VERSIONGUID
  2

  9
$EXTNAMES
290
     1
  9
$PSVPSCALE
 40
0.0
  0
ENDSEC
  0
SECTION
  2
CLASSES
  0
CLASS
  1
LWPOLYLINE
  2
AcDbPolyline
  3
AutoCAD 2000
 90
    32768
280
     0
281
     1
  0
CLASS
  1
IMAGE
  2
AcDbRasterImage
  3
ISM
 90
    32895
280
     0
281
     1
  0
CLASS
  1
OLE2FRAME
  2
AcDbOle2Frame
  3
AutoCAD 2000
 90
    32768
280
     0
281
     1
  0
CLASS
  1
HATCH
  2
AcDbHatch
  3
AutoCAD 2000
 90
    32768
280
     0
281
     1
  0
CLASS
  1
DICTIONARYVAR
  2
AcDbDictionaryVar
  3
AutoCAD 2000
 90
    32768
280
     0
281
     0
  0
CLASS
  1
RASTERVARIABLES
  2
AcDbRasterVariables
  3
ISM
 90
    32768
280
     0
281
     0
  0
CLASS
  1
IMAGEDEF
  2
AcDbRasterImageDef
  3
ISM
 90
    32768
280
     0
281
     0
  0
CLASS
  1
IMAGEDEF_REACTOR
  2
AcDbRasterImageDefReactor
  3
ISM
 90
    32769
280
     0
281
     0
  0
CLASS
  1
IDBUFFER
  2
AcDbIdBuffer
  3
AutoCAD 2000
 90
    32768
280
     0
281
     0
  0
CLASS
  1
SPATIAL_FILTER
  2
AcDbSpatialFilter
  3
AutoCAD 2000
 90
    32768
280
     0
281
     0
  0
CLASS
  1
XRECORD
  2
AcDbXrecord
  3
AutoCAD 2000
 90
        0
280
     0
281
     0
  0
CLASS
  1
SORTENTSTABLE
  2
AcDbSortentsTable
  3
AutoCAD 2000
 90
    32768
280
     0
281
     0
  0
CLASS
  1
LAYER_INDEX
  2
AcDbLayerIndex
  3
AutoCAD 2000
 90
    32768
280
     0
281
     0
  0
CLASS
  1
SPATIAL_INDEX
  2
AcDbSpatialIndex
  3
AutoCAD 2000
 90
    32768
280
     0
281
     0
  0
CLASS
  1
OBJECT_PTR
  2
CAseDLPNTableRecord
  3
"ASE-LPNTableRecord"
 90
    32769
280
     0
281
     0
  0
CLASS
  1
LAYOUT
  2
AcDbLayout
  3
AutoCAD 2000
 90
        0
280
     0
281
     0
  0
CLASS
  1
PLOTSETTINGS
  2
AcDbPlotSettings
  3
AutoCAD 2000
 90
    32768
280
     0
281
     0
  0
CLASS
  1
ACDBDICTIONARYWDFLT
  2
AcDbDictionaryWithDefault
  3
AutoCAD 2000
 90
        0
280
     0
281
     0
  0
CLASS
  1
ACDBPLACEHOLDER
  2
AcDbPlaceHolder
  3
AutoCAD 2000
 90
        0
280
     0
281
     0
  0
CLASS
  1
VBA_PROJECT
  2
AcDbVbaProject
  3
acadvba
 90
    32768
280
     0
281
     0
  0
CLASS
  1
WIPEOUT
  2
AcDbWipeout
  3
WipeOut|AutoCAD Express Tool|expresstools@autodesk.com
 90
    32895
280
     0
281
     1
  0
CLASS
  1
WIPEOUTVARIABLES
  2
AcDbWipeoutVariables
  3
WipeOut|AutoCAD Express Tool|expresstools@autodesk.com
 90
        0
280
     0
281
     0
  0
CLASS
  1
RTEXT
  2
RText
  3
RText|AutoCAD Express Tool|expresstools@autodesk.com
 90
    32768
280
     0
281
     1
  0
CLASS
  1
ARCALIGNEDTEXT
  2
AcDbArcAlignedText
  3
ATEXT|AutoCAD Express Tool|expresstools@autodesk.com
 90
    32768
280
     0
281
     1
  0
ENDSEC
  0
SECTION
  2
TABLES
  0
TABLE
  2
VPORT
  5
7
100
AcDbSymbolTable
 70
     1
  0
VPORT
  5
15
100
AcDbSymbolTableRecord
100
AcDbViewportTableRecord
  2
*ACTIVE
 70
     0
 10
0.0
 20
0.0
 11
1.0
 21
1.0
 12
0.0
 22
0.0
 13
0.0
 23
0.0
 14
1.0
 24
1.0
 15
0.0
 25
0.0
 16
0.0
 26
0.0
 36
1.0
 17
0.0
 27
0.0
 37
0.0
 40
100.0
 41
1.0
 42
50.0
 43
0.0
 44
0.0
 50
0.0
 51
0.0
 71
     0
 72
   100
 73
     1
 74
     1
 75
     0
 76
     0
 77
     0
 78
     0
281
     0
 65
     0
110
0.0
120
0.0
130
0.0
111
1.0
121
0.0
131
0.0
112
0.0
122
1.0
132
0.0
345
0
346
0
 79
     0
146
0.0
  0
ENDTAB
  0
TABLE
  2
LTYPE
  5
4
100
AcDbSymbolTable
 70
     7
  0
LTYPE
  5
11
100
AcDbSymbolTableRecord
100
AcDbLinetypeTableRecord
  2
ByBlock
 70
    64
  3

 72
    65
 73
     0
 40
0.0
  0
LTYPE
  5
12
100
AcDbSymbolTableRecord
100
AcDbLinetypeTableRecord
  2
ByLayer
 70
    64
  3

 72
    65
 73
     0
 40
0.0
  0
LTYPE
  5
13
100
AcDbSymbolTableRecord
100
AcDbLinetypeTableRecord
  2
Continuous
 70
    64
  3
Solid line
 72
    65
 73
     0
 40
0.0
  0
LTYPE
  5
24
100
AcDbSymbolTableRecord
100
AcDbLinetypeTableRecord
  2
DASHED
 70
    64
  3
Dashed __ __ __ __ __ __ __ __ __ __ __ __ __ _
 72
    65
 73
     2
 40
0.75
 49
0.5
 74
     0
 49
-0.25
 74
     0
  0
LTYPE
  5
25
100
AcDbSymbolTableRecord
100
AcDbLinetypeTableRecord
  2
CENTER
 70
    64
  3
Center ____ _ ____ _ ____ _ ____ _ ____ _ ____
 72
    65
 73
     4
 40
1.0
 49
0.5
 74
     0
 49
-0.25
 74
     0
 49
0.0
 74
     0
 49
-0.25
 74
     0
  0
LTYPE
  5
26
100
AcDbSymbolTableRecord
100
AcDbLinetypeTableRecord
  2
DIVIDE
 70
    64
  3
Divide ____ . . ____ . . ____ . . ____ . . ____
 72
    65
 73
     6
 40
1.25
 49
0.5
 74
     0
 49
-0.25
 74
     0
 49
0.0
 74
     0
 49
-0.25
 74
     0
 49
0.0
 74
     0
 49
-0.25
 74
     0
  0
LTYPE
  5
27
100
AcDbSymbolTableRecord
100
AcDbLinetypeTableRecord
  2
PHANTOM
 70
    64
  3
Phantom ______  __  __  ______  __  __  ______
 72
    65
 73
     6
 40
9.0
 49
4.3
 74
     0
 49
-0.7
 74
     0
 49
1.3
 74
     0
 49
-0.7
 74
     0
 49
1.3
 74
     0
 49
-0.7
 74
     0
  0
ENDTAB
  0
TABLE
  2
LAYER
  5
2
100
AcDbSymbolTable
 70
     3
  0
LAYER
  5
14
100
AcDbSymbolTableRecord
100
AcDbLayerTableRecord
  2
0
 70
    64
 62
    53
  6
Continuous
290
     1
370
    -3
390
1D
  0
LAYER
  5
28
100
AcDbSymbolTableRecord
100
AcDbLayerTableRecord
  2
3
 70
    64
 62
     4
  6
Continuous
290
     1
370
    -3
390
1D
  0
LAYER
  5
29
100
AcDbSymbolTableRecord
100
AcDbLayerTableRecord
  2
5
 70
    64
 62
   191
  6
Continuous
290
     1
370
    -3
390
1D
  0
ENDTAB
  0
TABLE
  2
STYLE
  5
3
100
AcDbSymbolTable
 70
     2
  0
STYLE
  5
17
100
AcDbSymbolTableRecord
100
AcDbTextStyleTableRecord
  2
Standard
 70
     0
 40
0.0
 41
1.0
 50
0.0
 71
     0
 42
0.0
  3
txt
  4

  0
STYLE
  5
39B
100
AcDbSymbolTableRecord
100
AcDbTextStyleTableRecord
  2
ZU_SHPTB00001
 70
     0
 40
0.0
 41
1.0
 50
0.0
 71
     0
 42
0.0
  3
monotxt
  4
bigfont
  0
ENDTAB
  0
TABLE
  2
VIEW
  5
5
100
AcDbSymbolTable
 70
     0
  0
ENDTAB
  0
TABLE
  2
UCS
  5
6
100
AcDbSymbolTable
 70
     0
  0
ENDTAB
  0
TABLE
  2
APPID
  5
8
100
AcDbSymbolTable
 70
     1
  0
APPID
  5
16
100
AcDbSymbolTableRecord
100
AcDbRegAppTableRecord
  2
ACAD
 70
     0
  0
ENDTAB
  0
TABLE
  2
DIMSTYLE
  5
9
100
AcDbSymbolTable
 70
     1
100
AcDbDimStyleTable
 71
     0
  0
DIMSTYLE
105
18
100
AcDbSymbolTableRecord
100
AcDbDimStyleTableRecord
  2
Standard
 70
     0
  3

  4

 40
1.0
 41
0.18
 42
0.0625
 43
0.38
 44
0.18
 45
0.0
 46
0.0
 47
0.0
 48
0.0
 71
     0
 72
     0
 73
     1
 74
     1
 75
     0
 76
     0
 77
     0
 78
     0
 79
     0
140
0.18
141
0.09
142
0.0
143
25.4
144
1.0
145
0.0
146
1.0
147
0.09
148
0.0
170
     0
171
     2
172
     0
173
     0
174
     0
175
     0
176
     0
177
     0
178
     0
179
     0
271
     4
272
     4
273
     2
274
     2
275
     0
276
     0
277
     2
278
    46
279
     0
280
     0
281
     0
282
     0
283
     1
284
     0
285
     0
286
     0
288
     0
340
17
341
0
342
0
343
0
344
0
371
    -2
372
    -2
  0
ENDTAB
  0
TABLE
  2
BLOCK_RECORD
  5
1
100
AcDbSymbolTable
 70
     1
  0
BLOCK_RECORD
  5
A
100
AcDbSymbolTableRecord
100
AcDbBlockTableRecord
  2
*MODEL_SPACE
340
20
  0
BLOCK_RECORD
  5
B
100
AcDbSymbolTableRecord
100
AcDbBlockTableRecord
  2
*PAPER_SPACE
340
21
  0
BLOCK_RECORD
  5
1CC
100
AcDbSymbolTableRecord
100
AcDbBlockTableRecord
  2
ZU_SYM__USERS_HOME_SYMBOL_POO_SYM_B20_-1
340
0
102
{BLKREFS
331
1D4
102
}
  0
ENDTAB
  0
ENDSEC
  0
SECTION
  2
BLOCKS
  0
BLOCK
  5
D
100
AcDbEntity
  8
0
100
AcDbBlockBegin
  2
*MODEL_SPACE
 70
     0
 10
0.0
 20
0.0
 30
0.0
  3
*MODEL_SPACE
  1

  0
ENDBLK
  5
E
100
AcDbEntity
  8
0
100
AcDbBlockEnd
  0
BLOCK
  5
F
100
AcDbEntity
 67
     1
  8
0
100
AcDbBlockBegin
  2
*PAPER_SPACE
 70
     0
 10
0.0
 20
0.0
 30
0.0
  3
*PAPER_SPACE
  1

  0
ENDBLK
  5
10
100
AcDbEntity
 67
     1
  8
0
100
AcDbBlockEnd
  0
BLOCK
  5
1CD
100
AcDbEntity
  8
0
100
AcDbBlockBegin
  2
ZU_SYM__USERS_HOME_SYMBOL_POO_SYM_B20_-1
 70
    64
 10
0.0
 20
0.0
 30
0.0
  3
ZU_SYM__USERS_HOME_SYMBOL_POO_SYM_B20_-1
  1

  0
LINE
  5
1CE
100
AcDbEntity
  8
0
370
    -3
  6
Continuous
100
AcDbLine
 10
0.0
 20
-5.0
 30
0.0
 11
-6.0
 21
-5.0
 31
0.0
  0
LINE
  5
1CF
100
AcDbEntity
  8
0
370
    -3
  6
Continuous
100
AcDbLine
 10
0.0
 20
5.0
 30
0.0
 11
-6.0
 21
5.0
 31
0.0
  0
LINE
  5
1D0
100
AcDbEntity
  8
0
370
    -3
  6
Continuous
100
AcDbLine
 10
-6.0
 20
-5.0
 30
0.0
 11
-6.0
 21
5.0
 31
0.0
  0
LINE
  5
1D1
100
AcDbEntity
  8
0
370
    -3
  6
Continuous
100
AcDbLine
 10
0.0
 20
5.0
 30
0.0
 11
0.0
 21
-5.0
 31
0.0
  0
POINT
  5
1D2
100
AcDbEntity
  8
0
370
    -3
  6
Continuous
100
AcDbPoint
 10
0.0
 20
0.0
 30
0.0
  0
ENDBLK
  5
1D3
100
AcDbEntity
  8
0
100
AcDbBlockEnd
  0
ENDSEC
  0
SECTION
  2
ENTITIES
  0
LINE
  5
2A
100
AcDbEntity
  8
0
370
    -3
  6
Continuous
100
AcDbLine
 10
112.88492
 20
-88.33838
 30
0.0
 11
146.270542
 21
-88.33838
 31
0.0
  0
ARC
  5
2B
100
AcDbEntity
  8
0
370
    -3
  6
Continuous
100
AcDbCircle
 10
152.88492
 20
-83.83838
 30
0.0
 40
8.0
100
AcDbArc
 50
214.228866
 51
223.432537
  0
LINE
  5
2C
100
AcDbEntity
  8
0
370
    -3
  6
Continuous
100
AcDbLine
 10
147.075445
 20
-89.33838
 30
0.0
 11
160.38492
 21
-89.33838
 31
0.0
  0
LINE
  5
2D
100
AcDbEntity
  8
0
370
    -3
  6
Continuous
100
AcDbLine
 10
112.88492
 20
-88.33838
 30
0.0
 11
79.499298
 21
-88.33838
 31
0.0
  0
ARC
  5
2E
100
AcDbEntity
  8
0
370
    -3
  6
Continuous
100
AcDbCircle
 10
72.88492
 20
-83.83838
 30
0.0
 40
8.0
100
AcDbArc
 50
316.567463
 51
325.771134
  0
ARC
  5
2F
100
AcDbEntity
  8
0
370
    -3
  6
Continuous
100
AcDbCircle
 10
65.38492
 20
-90.33838
 30
0.0
 40
1.0
100
AcDbArc
 50
90.0
 51
180.0
  0
LINE
  5
30
100
AcDbEntity
  8
0
370
    -3
  6
Continuous
100
AcDbLine
 10
78.694395
 20
-89.33838
 30
0.0
 11
65.38492
 21
-89.33838
 31
0.0
  0
LINE
  5
31
100
AcDbEntity
  8
0
370
    -3
  6
Continuous
100
AcDbLine
 10
64.38492
 20
-90.33838
 30
0.0
 11
40.38492
 21
-90.33838
 31
0.0
  0
CIRCLE
  5
32
100
AcDbEntity
  8
0
370
    -3
  6
Continuous
100
AcDbCircle
 10
112.88492
 20
-5.33838
 30
0.0
 40
19.0
  0
CIRCLE
  5
33
100
AcDbEntity
  8
0
370
    -3
  6
Continuous
100
AcDbCircle
 10
112.88492
 20
-5.33838
 30
0.0
 40
3.3235
  0
ARC
  5
34
100
AcDbEntity
  8
0
370
    -3
  6
Continuous
100
AcDbCircle
 10
112.88492
 20
-5.33838
 30
0.0
 40
22.0
100
AcDbArc
 50
38.816132
 51
78.29352
  0
LINE
  5
35
100
AcDbEntity
  8
0
370
    -3
  6
Continuous
100
AcDbLine
 10
161.38492
 20
-90.33838
 30
0.0
 11
185.38492
 21
-90.33838
 31
0.0
  0
ARC
  5
36
100
AcDbEntity
  8
0
370
    -3
  6
Continuous
100
AcDbCircle
 10
160.38492
 20
-90.33838
 30
0.0
 40
1.0
100
AcDbArc
 50
0.0
 51
90.0
  0
LINE
  5
37
100
AcDbEntity
  8
0
370
    -3
  6
Continuous
100
AcDbLine
 10
112.88492
 20
-88.33838
 30
0.0
 11
143.88492
 21
-88.33838
 31
0.0
  0
ARC
  5
38
100
AcDbEntity
  8
0
370
    -3
  6
Continuous
100
AcDbCircle
 10
180.681034
 20
-72.33838
 30
0.0
 40
3.0
100
AcDbArc
 50
180.0
 51
270.0
  0
ARC
  5
39
100
AcDbEntity
  8
0
370
    -3
  6
Continuous
100
AcDbCircle
 10
165.210369
 20
-72.33838
 30
0.0
 40
3.0
100
AcDbArc
 50
180.0
 51
270.0
  0
ARC
  5
3A
100
AcDbEntity
  8
0
370
    -3
  6
Continuous
100
AcDbCircle
 10
60.559471
 20
-72.33838
 30
0.0
 40
3.0
100
AcDbArc
 50
270.0
 51
0.0
  0
ARC
  5
3B
100
AcDbEntity
  8
0
370
    -3
  6
Continuous
100
AcDbCircle
 10
45.088807
 20
-72.33838
 30
0.0
 40
3.0
100
AcDbArc
 50
270.0
 51
0.0
  0
ARC
  5
3C
100
AcDbEntity
  8
0
370
    -3
  6
Continuous
100
AcDbCircle
 10
112.88492
 20
-5.33838
 30
0.0
 40
22.0
100
AcDbArc
 50
74.570235
 51
40.667846
  0
ARC
  5
3D
100
AcDbEntity
  8
0
370
    -3
  6
Continuous
100
AcDbCircle
 10
186.38492
 20
-73.866244
 30
0.0
 40
3.0
100
AcDbArc
 50
180.0
 51
228.189685
  0
ARC
  5
3E
100
AcDbEntity
  8
0
370
    -3
  6
Continuous
100
AcDbCircle
 10
182.38492
 20
-78.33838
 30
0.0
 40
3.0
100
AcDbArc
 50
0.0
 51
90.0
  0
ARC
  5
3F
100
AcDbEntity
  8
0
370
    -3
  6
Continuous
100
AcDbCircle
 10
112.88492
 20
-359.33838
 30
0.0
 40
400.0
100
AcDbArc
 50
86.642183
 51
90.0
  0
ARC
  5
40
100
AcDbEntity
  8
0
370
    -3
  6
Continuous
100
AcDbCircle
 10
133.38492
 20
-9.939253
 30
0.0
 40
50.0
100
AcDbArc
 50
0.0
 51
86.642183
  0
ARC
  5
41
100
AcDbEntity
  8
0
370
    -3
  6
Continuous
100
AcDbCircle
 10
112.88492
 20
-359.33838
 30
0.0
 40
376.653
100
AcDbArc
 50
86.642183
 51
90.0
  0
ARC
  5
42
100
AcDbEntity
  8
0
370
    -3
  6
Continuous
100
AcDbCircle
 10
133.38492
 20
-9.939253
 30
0.0
 40
26.653
100
AcDbArc
 50
0.0
 51
86.642183
  0
ARC
  5
43
100
AcDbEntity
  8
0
370
    -3
  6
Continuous
100
AcDbCircle
 10
163.03792
 20
-72.33838
 30
0.0
 40
3.0
100
AcDbArc
 50
180.0
 51
270.0
  0
ARC
  5
44
100
AcDbEntity
  8
0
370
    -3
  6
Continuous
100
AcDbCircle
 10
62.73192
 20
-72.33838
 30
0.0
 40
3.0
100
AcDbArc
 50
270.0
 51
0.0
  0
ARC
  5
45
100
AcDbEntity
  8
0
370
    -3
  6
Continuous
100
AcDbCircle
 10
92.38492
 20
-9.939253
 30
0.0
 40
26.653
100
AcDbArc
 50
93.357817
 51
180.0
  0
ARC
  5
46
100
AcDbEntity
  8
0
370
    -3
  6
Continuous
100
AcDbCircle
 10
112.88492
 20
-359.33838
 30
0.0
 40
376.653
100
AcDbArc
 50
90.0
 51
93.357817
  0
ARC
  5
47
100
AcDbEntity
  8
0
370
    -3
  6
Continuous
100
AcDbCircle
 10
39.38492
 20
-73.866244
 30
0.0
 40
3.0
100
AcDbArc
 50
311.810315
 51
0.0
  0
ARC
  5
48
100
AcDbEntity
  8
0
370
    -3
  6
Continuous
100
AcDbCircle
 10
43.38492
 20
-78.33838
 30
0.0
 40
3.0
100
AcDbArc
 50
90.0
 51
180.0
  0
ARC
  5
49
100
AcDbEntity
  8
0
370
    -3
  6
Continuous
100
AcDbCircle
 10
65.38492
 20
-90.33838
 30
0.0
 40
1.0
100
AcDbArc
 50
90.0
 51
180.0
  0
ARC
  5
4A
100
AcDbEntity
  8
0
370
    -3
  6
Continuous
100
AcDbCircle
 10
112.88492
 20
-359.33838
 30
0.0
 40
400.0
100
AcDbArc
 50
90.0
 51
93.357817
  0
ARC
  5
4B
100
AcDbEntity
  8
0
370
    -3
  6
Continuous
100
AcDbCircle
 10
92.38492
 20
-9.939253
 30
0.0
 40
50.0
100
AcDbArc
 50
93.357817
 51
180.0
  0
ARC
  5
4C
100
AcDbEntity
  8
0
370
    -3
  6
Continuous
100
AcDbCircle
 10
112.88492
 20
-5.33838
 30
0.0
 40
27.0
100
AcDbArc
 50
183.954572
 51
356.045428
  0
ARC
  5
4D
100
AcDbEntity
  8
0
370
    -3
  6
Continuous
100
AcDbCircle
 10
149.88492
 20
-65.33838
 30
0.0
 40
5.0
100
AcDbArc
 50
270.0
 51
0.0
  0
ARC
  5
4E
100
AcDbEntity
  8
0
370
    -3
  6
Continuous
100
AcDbCircle
 10
75.88492
 20
-65.33838
 30
0.0
 40
5.0
100
AcDbArc
 50
180.0
 51
270.0
  0
ARC
  5
4F
100
AcDbEntity
  8
0
370
    -3
  6
Continuous
100
AcDbCircle
 10
152.38492
 20
-7.83838
 30
0.0
 40
2.5
100
AcDbArc
 50
0.0
 51
90.0
  0
ARC
  5
50
100
AcDbEntity
  8
0
370
    -3
  6
Continuous
100
AcDbCircle
 10
73.38492
 20
-7.83838
 30
0.0
 40
2.5
100
AcDbArc
 50
90.0
 51
180.0
  0
ARC
  5
51
100
AcDbEntity
  8
0
370
    -3
  6
Continuous
100
AcDbCircle
 10
75.88492
 20
-65.33838
 30
0.0
 40
5.0
100
AcDbArc
 50
180.0
 51
270.0
  0
ARC
  5
52
100
AcDbEntity
  8
0
370
    -3
  6
Continuous
100
AcDbCircle
 10
141.815872
 20
-7.33838
 30
0.0
 40
2.0
100
AcDbArc
 50
90.0
 51
176.045428
  0
ARC
  5
53
100
AcDbEntity
  8
0
370
    -3
  6
Continuous
100
AcDbCircle
 10
83.953968
 20
-7.33838
 30
0.0
 40
2.0
100
AcDbArc
 50
3.954572
 51
90.0
  0
LINE
  5
54
100
AcDbEntity
  8
0
370
    -3
  6
Continuous
100
AcDbLine
 10
177.681034
 20
-9.939252
 30
0.0
 11
177.681034
 21
-72.33838
 31
0.0
  0
LINE
  5
55
100
AcDbEntity
  8
0
370
    -3
  6
Continuous
100
AcDbLine
 10
162.210369
 20
-9.939253
 30
0.0
 11
162.210369
 21
-72.33838
 31
0.0
  0
LINE
  5
56
100
AcDbEntity
  8
0
370
    -3
  6
Continuous
100
AcDbLine
 10
63.559471
 20
-9.939253
 30
0.0
 11
63.559471
 21
-72.33838
 31
0.0
  0
LINE
  5
57
100
AcDbEntity
  8
0
370
    -3
  6
Continuous
100
AcDbLine
 10
48.088807
 20
-9.939252
 30
0.0
 11
48.088807
 21
-72.33838
 31
0.0
  0
LINE
  5
58
100
AcDbEntity
  8
0
370
    -3
  6
Continuous
100
AcDbLine
 10
185.38492
 20
-90.33838
 30
0.0
 11
185.38492
 21
-78.33838
 31
0.0
  0
LINE
  5
59
100
AcDbEntity
  8
0
370
    -3
  6
Continuous
100
AcDbLine
 10
183.38492
 20
-73.866244
 30
0.0
 11
183.38492
 21
-9.939253
 31
0.0
  0
LINE
  5
5A
100
AcDbEntity
  8
0
370
    -3
  6
CENTER
100
AcDbLine
 10
99.221017
 20
-25.33838
 30
0.0
 11
125.600318
 21
-25.33838
 31
0.0
  0
LINE
  5
5B
100
AcDbEntity
  8
0
370
    -3
  6
Continuous
100
AcDbLine
 10
160.03792
 20
-9.939253
 30
0.0
 11
160.03792
 21
-72.33838
 31
0.0
  0
LINE
  5
5C
100
AcDbEntity
  8
0
370
    -3
  6
Continuous
100
AcDbLine
 10
112.88492
 20
-75.33838
 30
0.0
 11
182.38492
 21
-75.33838
 31
0.0
  0
LINE
  5
5D
100
AcDbEntity
  8
0
370
    -3
  6
Continuous
100
AcDbLine
 10
65.73192
 20
-9.939253
 30
0.0
 11
65.73192
 21
-72.33838
 31
0.0
  0
LINE
  5
5E
100
AcDbEntity
  8
0
370
    -3
  6
Continuous
100
AcDbLine
 10
112.88492
 20
-75.33838
 30
0.0
 11
43.38492
 21
-75.33838
 31
0.0
  0
LINE
  5
5F
100
AcDbEntity
  8
0
370
    -3
  6
Continuous
100
AcDbLine
 10
40.38492
 20
-90.33838
 30
0.0
 11
40.38492
 21
-78.33838
 31
0.0
  0
LINE
  5
60
100
AcDbEntity
  8
0
370
    -3
  6
Continuous
100
AcDbLine
 10
64.38492
 20
-90.33838
 30
0.0
 11
40.38492
 21
-90.33838
 31
0.0
  0
LINE
  5
61
100
AcDbEntity
  8
0
370
    -3
  6
Continuous
100
AcDbLine
 10
42.38492
 20
-73.866244
 30
0.0
 11
42.38492
 21
-9.939253
 31
0.0
  0
LINE
  5
62
100
AcDbEntity
  8
0
370
    -3
  6
Continuous
100
AcDbLine
 10
112.88492
 20
-88.33838
 30
0.0
 11
81.88492
 21
-88.33838
 31
0.0
  0
LINE
  5
63
100
AcDbEntity
  8
0
370
    -3
  6
CENTER
100
AcDbLine
 10
112.88492
 20
50.055064
 30
0.0
 11
112.88492
 21
-93.250548
 31
0.0
  0
LINE
  5
64
100
AcDbEntity
  8
0
370
    -3
  6
CENTER
100
AcDbLine
 10
188.784436
 20
-5.33838
 30
0.0
 11
37.81268
 21
-5.33838
 31
0.0
  0
LINE
  5
65
100
AcDbEntity
  8
0
370
    -3
  6
CENTER
100
AcDbLine
 10
50.38492
 20
-72.753574
 30
0.0
 11
50.38492
 21
-92.750548
 31
0.0
  0
LINE
  5
66
100
AcDbEntity
  8
0
370
    -3
  6
CENTER
100
AcDbLine
 10
175.38492
 20
-72.253574
 30
0.0
 11
175.38492
 21
-92.750548
 31
0.0
  0
LINE
  5
67
100
AcDbEntity
  8
0
370
    -3
  6
Continuous
100
AcDbLine
 10
161.38492
 20
-90.33838
 30
0.0
 11
161.38492
 21
-90.33838
 31
0.0
  0
LINE
  5
68
100
AcDbEntity
  8
0
370
    -3
  6
Continuous
100
AcDbLine
 10
64.38492
 20
-90.33838
 30
0.0
 11
64.38492
 21
-90.33838
 31
0.0
  0
LINE
  5
69
100
AcDbEntity
  8
0
370
    -3
  6
Continuous
100
AcDbLine
 10
112.88492
 20
-70.33838
 30
0.0
 11
149.88492
 21
-70.33838
 31
0.0
  0
LINE
  5
6A
100
AcDbEntity
  8
0
370
    -3
  6
Continuous
100
AcDbLine
 10
154.88492
 20
-7.83838
 30
0.0
 11
154.88492
 21
-65.33838
 31
0.0
  0
LINE
  5
6B
100
AcDbEntity
  8
0
370
    -3
  6
Continuous
100
AcDbLine
 10
70.88492
 20
-7.633996
 30
0.0
 11
70.88492
 21
-65.33838
 31
0.0
  0
LINE
  5
6C
100
AcDbEntity
  8
0
370
    -3
  6
Continuous
100
AcDbLine
 10
112.88492
 20
-70.33838
 30
0.0
 11
75.88492
 21
-70.33838
 31
0.0
  0
LINE
  5
6D
100
AcDbEntity
  8
0
370
    -3
  6
Continuous
100
AcDbLine
 10
141.815872
 20
-5.33838
 30
0.0
 11
152.38492
 21
-5.33838
 31
0.0
  0
LINE
  5
6E
100
AcDbEntity
  8
0
370
    -3
  6
Continuous
100
AcDbLine
 10
83.953968
 20
-5.33838
 30
0.0
 11
73.38492
 21
-5.33838
 31
0.0
  0
LINE
  5
6F
100
AcDbEntity
  8
0
370
    -3
  6
Continuous
100
AcDbLine
 10
70.88492
 20
-7.83838
 30
0.0
 11
70.88492
 21
-65.33838
 31
0.0
  0
LINE
  5
70
100
AcDbEntity
  8
0
370
    -3
  6
Continuous
100
AcDbLine
 10
112.88492
 20
-70.33838
 30
0.0
 11
75.88492
 21
-70.33838
 31
0.0
  0
ELLIPSE
  5
71
100
AcDbEntity
  8
0
370
    -3
  6
Continuous
100
AcDbEllipse
 10
55.824139
 20
-9.939253
 30
0.0
 11
0.0
 21
15.0
 31
0.0
210
0.0
220
0.0
230
1.0
 40
0.515689
 41
4.7123889803846897
 42
1.5707963267948968
  0
ELLIPSE
  5
72
100
AcDbEntity
  8
0
370
    -3
  6
Continuous
100
AcDbEllipse
 10
169.945702
 20
-9.939253
 30
0.0
 11
0.0
 21
15.0
 31
0.0
210
0.0
220
0.0
230
1.0
 40
0.515689
 41
4.7123889803846897
 42
1.5707963267948968
  0
LINE
  5
73
100
AcDbEntity
  8
0
370
    -3
  6
Continuous
100
AcDbLine
 10
99.38492
 20
-2.33838
 30
0.0
 11
99.38492
 21
-8.33838
 31
0.0
  0
ARC
  5
74
100
AcDbEntity
  8
0
370
    -3
  6
Continuous
100
AcDbCircle
 10
112.88492
 20
-5.33838
 30
0.0
 40
11.0
100
AcDbArc
 50
195.82662
 51
164.17338
  0
LINE
  5
75
100
AcDbEntity
  8
0
370
    -3
  6
Continuous
100
AcDbLine
 10
105.38492
 20
-8.33838
 30
0.0
 11
105.38492
 21
-2.33838
 31
0.0
  0
LINE
  5
76
100
AcDbEntity
  8
0
370
    -3
  6
Continuous
100
AcDbLine
 10
99.38492
 20
-2.33838
 30
0.0
 11
105.38492
 21
-2.33838
 31
0.0
  0
LINE
  5
77
100
AcDbEntity
  8
0
370
    -3
  6
Continuous
100
AcDbLine
 10
99.38492
 20
-8.33838
 30
0.0
 11
105.38492
 21
-8.33838
 31
0.0
  0
CIRCLE
  5
78
100
AcDbEntity
  8
0
370
    -3
  6
Continuous
100
AcDbCircle
 10
112.88492
 20
-5.33838
 30
0.0
 40
4.0
  0
LINE
  5
79
100
AcDbEntity
  8
0
370
    -3
  6
CENTER
100
AcDbLine
 10
-29.584835
 20
240.0
 30
0.0
 11
-354.4507
 21
240.0
 31
0.0
  0
LINE
  5
7A
100
AcDbEntity
  8
0
370
    -3
  6
Continuous
100
AcDbLine
 10
-211.586228
 20
171.0
 30
0.0
 11
-211.586228
 21
172.0
 31
0.0
  0
LINE
  5
7B
100
AcDbEntity
  8
0
370
    -3
  6
Continuous
100
AcDbLine
 10
-204.968986
 20
167.250261
 30
0.0
 11
-205.996754
 21
167.289049
 31
0.0
  0
LINE
  5
7C
100
AcDbEntity
  8
0
370
    -3
  6
Continuous
100
AcDbLine
 10
-174.586228
 20
166.103595
 30
0.0
 11
-197.011603
 21
166.949944
 31
0.0
  0
LINE
  5
7D
100
AcDbEntity
  8
0
370
    -3
  6
Continuous
100
AcDbLine
 10
-211.586228
 20
310.574058
 30
0.0
 11
-211.586228
 21
293.5
 31
0.0
  0
LINE
  5
7E
100
AcDbEntity
  8
0
370
    -3
  6
Continuous
100
AcDbLine
 10
-203.586228
 20
186.5
 30
0.0
 11
-203.586228
 21
240.0
 31
0.0
  0
LINE
  5
7F
100
AcDbEntity
  8
0
370
    -3
  6
Continuous
100
AcDbLine
 10
-203.586228
 20
293.5
 30
0.0
 11
-203.586228
 21
240.0
 31
0.0
  0
LINE
  5
80
100
AcDbEntity
  8
0
370
    -3
  6
Continuous
100
AcDbLine
 10
-203.586228
 20
291.0
 30
0.0
 11
-186.086228
 21
291.0
 31
0.0
  0
LINE
  5
81
100
AcDbEntity
  8
0
370
    -3
  6
Continuous
100
AcDbLine
 10
-203.586228
 20
290.5
 30
0.0
 11
-186.086228
 21
290.5
 31
0.0
  0
LINE
  5
82
100
AcDbEntity
  8
0
370
    -3
  6
Continuous
100
AcDbLine
 10
-203.586228
 20
286.133083
 30
0.0
 11
-186.086228
 21
286.133083
 31
0.0
  0
LINE
  5
83
100
AcDbEntity
  8
0
370
    -3
  6
Continuous
100
AcDbLine
 10
-203.586228
 20
281.041914
 30
0.0
 11
-186.086228
 21
281.041914
 31
0.0
  0
LINE
  5
84
100
AcDbEntity
  8
0
370
    -3
  6
Continuous
100
AcDbLine
 10
-203.586228
 20
273.303601
 30
0.0
 11
-189.086228
 21
273.303601
 31
0.0
  0
LINE
  5
85
100
AcDbEntity
  8
0
370
    -3
  6
Continuous
100
AcDbLine
 10
-203.586228
 20
271.714391
 30
0.0
 11
-189.086228
 21
271.714391
 31
0.0
  0
LINE
  5
86
100
AcDbEntity
  8
0
370
    -3
  6
Continuous
100
AcDbLine
 10
-203.586228
 20
268.756396
 30
0.0
 11
-186.086228
 21
268.756396
 31
0.0
  0
LINE
  5
87
100
AcDbEntity
  8
0
370
    -3
  6
Continuous
100
AcDbLine
 10
-203.586228
 20
267.277372
 30
0.0
 11
-186.086228
 21
267.277372
 31
0.0
  0
LINE
  5
88
100
AcDbEntity
  8
0
370
    -3
  6
Continuous
100
AcDbLine
 10
-203.586228
 20
264.184641
 30
0.0
 11
-186.086228
 21
264.184641
 31
0.0
  0
LINE
  5
89
100
AcDbEntity
  8
0
370
    -3
  6
Continuous
100
AcDbLine
 10
-203.586228
 20
259.628035
 30
0.0
 11
-186.086228
 21
259.628035
 31
0.0
  0
LINE
  5
8A
100
AcDbEntity
  8
0
370
    -3
  6
Continuous
100
AcDbLine
 10
-203.586228
 20
258.386115
 30
0.0
 11
-186.086228
 21
258.386115
 31
0.0
  0
LINE
  5
8B
100
AcDbEntity
  8
0
370
    -3
  6
Continuous
100
AcDbLine
 10
-203.586228
 20
254.0
 30
0.0
 11
-186.086228
 21
254.0
 31
0.0
  0
LINE
  5
8C
100
AcDbEntity
  8
0
370
    -3
  6
Continuous
100
AcDbLine
 10
-203.586228
 20
262.83824
 30
0.0
 11
-186.086228
 21
262.83824
 31
0.0
  0
LINE
  5
8D
100
AcDbEntity
  8
0
370
    -3
  6
Continuous
100
AcDbLine
 10
-203.586228
 20
226.0
 30
0.0
 11
-186.086228
 21
226.0
 31
0.0
  0
LINE
  5
8E
100
AcDbEntity
  8
0
370
    -3
  6
Continuous
100
AcDbLine
 10
-203.586228
 20
221.613885
 30
0.0
 11
-186.086228
 21
221.613885
 31
0.0
  0
LINE
  5
8F
100
AcDbEntity
  8
0
370
    -3
  6
Continuous
100
AcDbLine
 10
-203.586228
 20
220.371965
 30
0.0
 11
-186.086228
 21
220.371965
 31
0.0
  0
LINE
  5
90
100
AcDbEntity
  8
0
370
    -3
  6
Continuous
100
AcDbLine
 10
-203.586228
 20
217.16176
 30
0.0
 11
-186.086228
 21
217.16176
 31
0.0
  0
LINE
  5
91
100
AcDbEntity
  8
0
370
    -3
  6
Continuous
100
AcDbLine
 10
-203.586228
 20
215.815359
 30
0.0
 11
-186.086228
 21
215.815359
 31
0.0
  0
LINE
  5
92
100
AcDbEntity
  8
0
370
    -3
  6
Continuous
100
AcDbLine
 10
-203.586228
 20
212.722628
 30
0.0
 11
-186.086228
 21
212.722628
 31
0.0
  0
LINE
  5
93
100
AcDbEntity
  8
0
370
    -3
  6
Continuous
100
AcDbLine
 10
-203.586228
 20
211.243604
 30
0.0
 11
-186.086228
 21
211.243604
 31
0.0
  0
LINE
  5
94
100
AcDbEntity
  8
0
370
    -3
  6
Continuous
100
AcDbLine
 10
-203.586228
 20
208.285609
 30
0.0
 11
-189.086228
 21
208.285609
 31
0.0
  0
LINE
  5
95
100
AcDbEntity
  8
0
370
    -3
  6
Continuous
100
AcDbLine
 10
-203.586228
 20
206.696399
 30
0.0
 11
-189.086228
 21
206.696399
 31
0.0
  0
LINE
  5
96
100
AcDbEntity
  8
0
370
    -3
  6
Continuous
100
AcDbLine
 10
-203.586228
 20
198.958086
 30
0.0
 11
-186.086228
 21
198.958086
 31
0.0
  0
LINE
  5
97
100
AcDbEntity
  8
0
370
    -3
  6
Continuous
100
AcDbLine
 10
-203.586228
 20
193.866917
 30
0.0
 11
-186.086228
 21
193.866917
 31
0.0
  0
LINE
  5
98
100
AcDbEntity
  8
0
370
    -3
  6
Continuous
100
AcDbLine
 10
-203.586228
 20
189.5
 30
0.0
 11
-186.086228
 21
189.5
 31
0.0
  0
LINE
  5
99
100
AcDbEntity
  8
0
370
    -3
  6
Continuous
100
AcDbLine
 10
-203.586228
 20
189.0
 30
0.0
 11
-186.086228
 21
189.0
 31
0.0
  0
LINE
  5
9A
100
AcDbEntity
  8
0
370
    -3
  6
Continuous
100
AcDbLine
 10
-183.086228
 20
267.900001
 30
0.0
 11
-183.086228
 21
280.099999
 31
0.0
  0
LINE
  5
9B
100
AcDbEntity
  8
0
370
    -3
  6
Continuous
100
AcDbLine
 10
-189.086228
 20
279.0
 30
0.0
 11
-189.086228
 21
269.0
 31
0.0
  0
LINE
  5
9C
100
AcDbEntity
  8
0
370
    -3
  6
Continuous
100
AcDbLine
 10
-183.086228
 20
269.0
 30
0.0
 11
-189.086228
 21
269.0
 31
0.0
  0
LINE
  5
9D
100
AcDbEntity
  8
0
370
    -3
  6
Continuous
100
AcDbLine
 10
-183.086228
 20
279.0
 30
0.0
 11
-189.086228
 21
279.0
 31
0.0
  0
LINE
  5
9E
100
AcDbEntity
  8
0
370
    -3
  6
Continuous
100
AcDbLine
 10
-183.086228
 20
212.099999
 30
0.0
 11
-183.086228
 21
199.900001
 31
0.0
  0
LINE
  5
9F
100
AcDbEntity
  8
0
370
    -3
  6
Continuous
100
AcDbLine
 10
-189.086228
 20
201.0
 30
0.0
 11
-189.086228
 21
211.0
 31
0.0
  0
LINE
  5
A0
100
AcDbEntity
  8
0
370
    -3
  6
Continuous
100
AcDbLine
 10
-183.086228
 20
211.0
 30
0.0
 11
-189.086228
 21
211.0
 31
0.0
  0
LINE
  5
A1
100
AcDbEntity
  8
0
370
    -3
  6
Continuous
100
AcDbLine
 10
-183.086228
 20
201.0
 30
0.0
 11
-189.086228
 21
201.0
 31
0.0
  0
ARC
  5
A2
100
AcDbEntity
  8
0
370
    -3
  6
Continuous
100
AcDbCircle
 10
-186.086228
 20
170.866025
 30
0.0
 40
1.0
100
AcDbArc
 50
180.0
 51
265.335585
  0
LINE
  5
A3
100
AcDbEntity
  8
0
370
    -3
  6
Continuous
100
AcDbLine
 10
-186.086228
 20
170.5
 30
0.0
 11
-186.086228
 21
201.0
 31
0.0
  0
LINE
  5
A4
100
AcDbEntity
  8
0
370
    -3
  6
Continuous
100
AcDbLine
 10
-177.086228
 20
240.0
 30
0.0
 11
-177.086228
 21
169.5
 31
0.0
  0
LINE
  5
A5
100
AcDbEntity
  8
0
370
    -3
  6
Continuous
100
AcDbLine
 10
-185.086228
 20
169.5
 30
0.0
 11
-177.086228
 21
169.5
 31
0.0
  0
ARC
  5
A6
100
AcDbEntity
  8
0
370
    -3
  6
Continuous
100
AcDbCircle
 10
-185.086228
 20
170.5
 30
0.0
 40
1.0
100
AcDbArc
 50
253.216767
 51
270.0
  0
ARC
  5
A7
100
AcDbEntity
  8
0
370
    -3
  6
Continuous
100
AcDbCircle
 10
-186.248867
 20
168.872649
 30
0.0
 40
1.0
100
AcDbArc
 50
54.456596
 51
85.335585
  0
ARC
  5
A8
100
AcDbEntity
  8
0
370
    -3
  6
Continuous
100
AcDbCircle
 10
-185.086228
 20
170.5
 30
0.0
 40
1.0
100
AcDbArc
 50
180.0
 51
253.216767
  0
ARC
  5
A9
100
AcDbEntity
  8
0
370
    -3
  6
Continuous
100
AcDbCircle
 10
-186.248867
 20
311.127351
 30
0.0
 40
1.0
100
AcDbArc
 50
274.664415
 51
305.543404
  0
ARC
  5
AA
100
AcDbEntity
  8
0
370
    -3
  6
Continuous
100
AcDbCircle
 10
-188.086228
 20
297.988114
 30
0.0
 40
2.0
100
AcDbArc
 50
271.5
 51
0.0
  0
ARC
  5
AB
100
AcDbEntity
  8
0
370
    -3
  6
Continuous
100
AcDbCircle
 10
-185.086228
 20
309.5
 30
0.0
 40
1.0
100
AcDbArc
 50
106.783233
 51
180.0
  0
ARC
  5
AC
100
AcDbEntity
  8
0
370
    -3
  6
Continuous
100
AcDbCircle
 10
-185.086228
 20
309.5
 30
0.0
 40
1.0
100
AcDbArc
 50
90.0
 51
106.783233
  0
LINE
  5
AD
100
AcDbEntity
  8
0
370
    -3
  6
Continuous
100
AcDbLine
 10
-185.086228
 20
310.5
 30
0.0
 11
-177.086228
 21
310.5
 31
0.0
  0
LINE
  5
AE
100
AcDbEntity
  8
0
370
    -3
  6
Continuous
100
AcDbLine
 10
-188.033874
 20
295.988799
 30
0.0
 11
-203.586228
 21
295.581546
 31
0.0
  0
LINE
  5
AF
100
AcDbEntity
  8
0
370
    -3
  6
Continuous
100
AcDbLine
 10
-177.086228
 20
240.0
 30
0.0
 11
-177.086228
 21
310.5
 31
0.0
  0
ARC
  5
B0
100
AcDbEntity
  8
0
370
    -3
  6
Continuous
100
AcDbCircle
 10
-186.086228
 20
309.133975
 30
0.0
 40
1.0
100
AcDbArc
 50
94.664415
 51
180.0
  0
LINE
  5
B1
100
AcDbEntity
  8
0
370
    -3
  6
Continuous
100
AcDbLine
 10
-187.086228
 20
297.961928
 30
0.0
 11
-187.086228
 21
309.133975
 31
0.0
  0
ARC
  5
B2
100
AcDbEntity
  8
0
370
    -3
  6
Continuous
100
AcDbCircle
 10
-189.086228
 20
297.961928
 30
0.0
 40
2.0
100
AcDbArc
 50
271.5
 51
0.0
  0
ARC
  5
B3
100
AcDbEntity
  8
0
370
    -3
  6
Continuous
100
AcDbCircle
 10
-183.186228
 20
280.15
 30
0.0
 40
0.1
100
AcDbArc
 50
0.0
 51
90.0
  0
ARC
  5
B4
100
AcDbEntity
  8
0
370
    -3
  6
Continuous
100
AcDbCircle
 10
-185.086228
 20
281.25
 30
0.0
 40
1.0
100
AcDbArc
 50
180.0
 51
270.0
  0
ARC
  5
B5
100
AcDbEntity
  8
0
370
    -3
  6
Continuous
100
AcDbCircle
 10
-183.186228
 20
267.85
 30
0.0
 40
0.1
100
AcDbArc
 50
270.0
 51
0.0
  0
ARC
  5
B6
100
AcDbEntity
  8
0
370
    -3
  6
Continuous
100
AcDbCircle
 10
-185.086228
 20
266.75
 30
0.0
 40
1.0
100
AcDbArc
 50
90.0
 51
180.0
  0
LINE
  5
B7
100
AcDbEntity
  8
0
370
    -3
  6
Continuous
100
AcDbLine
 10
-183.086228
 20
280.15
 30
0.0
 11
-183.086228
 21
267.85
 31
0.0
  0
LINE
  5
B8
100
AcDbEntity
  8
0
370
    -3
  6
Continuous
100
AcDbLine
 10
-185.086228
 20
280.25
 30
0.0
 11
-183.186228
 21
280.25
 31
0.0
  0
LINE
  5
B9
100
AcDbEntity
  8
0
370
    -3
  6
Continuous
100
AcDbLine
 10
-185.086228
 20
267.75
 30
0.0
 11
-183.186228
 21
267.75
 31
0.0
  0
LINE
  5
BA
100
AcDbEntity
  8
0
370
    -3
  6
Continuous
100
AcDbLine
 10
-186.086228
 20
309.5
 30
0.0
 11
-186.086228
 21
279.0
 31
0.0
  0
LINE
  5
BB
100
AcDbEntity
  8
0
370
    -3
  6
Continuous
100
AcDbLine
 10
-186.086228
 20
269.0
 30
0.0
 11
-186.086228
 21
240.0
 31
0.0
  0
LINE
  5
BC
100
AcDbEntity
  8
0
370
    -3
  6
Continuous
100
AcDbLine
 10
-189.086228
 20
309.0
 30
0.0
 11
-189.086228
 21
299.0
 31
0.0
  0
LINE
  5
BD
100
AcDbEntity
  8
0
370
    -3
  6
Continuous
100
AcDbLine
 10
-187.086228
 20
309.0
 30
0.0
 11
-189.086228
 21
309.0
 31
0.0
  0
LINE
  5
BE
100
AcDbEntity
  8
0
370
    -3
  6
Continuous
100
AcDbLine
 10
-187.086228
 20
299.0
 30
0.0
 11
-189.086228
 21
299.0
 31
0.0
  0
ARC
  5
BF
100
AcDbEntity
  8
0
370
    -3
  6
Continuous
100
AcDbCircle
 10
-188.086228
 20
182.011886
 30
0.0
 40
2.0
100
AcDbArc
 50
0.0
 51
88.5
  0
LINE
  5
C0
100
AcDbEntity
  8
0
370
    -3
  6
Continuous
100
AcDbLine
 10
-188.033874
 20
184.011201
 30
0.0
 11
-203.586228
 21
184.418454
 31
0.0
  0
LINE
  5
C1
100
AcDbEntity
  8
0
370
    -3
  6
Continuous
100
AcDbLine
 10
-203.586228
 20
240.0
 30
0.0
 11
-203.586228
 21
184.418454
 31
0.0
  0
LINE
  5
C2
100
AcDbEntity
  8
0
370
    -3
  6
Continuous
100
AcDbLine
 10
-187.086228
 20
182.038072
 30
0.0
 11
-187.086228
 21
170.866025
 31
0.0
  0
ARC
  5
C3
100
AcDbEntity
  8
0
370
    -3
  6
Continuous
100
AcDbCircle
 10
-189.086228
 20
182.038072
 30
0.0
 40
2.0
100
AcDbArc
 50
0.0
 51
88.5
  0
ARC
  5
C4
100
AcDbEntity
  8
0
370
    -3
  6
Continuous
100
AcDbCircle
 10
-183.186228
 20
199.85
 30
0.0
 40
0.1
100
AcDbArc
 50
270.0
 51
0.0
  0
ARC
  5
C5
100
AcDbEntity
  8
0
370
    -3
  6
Continuous
100
AcDbCircle
 10
-185.086228
 20
198.75
 30
0.0
 40
1.0
100
AcDbArc
 50
90.0
 51
180.0
  0
ARC
  5
C6
100
AcDbEntity
  8
0
370
    -3
  6
Continuous
100
AcDbCircle
 10
-183.186228
 20
212.15
 30
0.0
 40
0.1
100
AcDbArc
 50
0.0
 51
90.0
  0
ARC
  5
C7
100
AcDbEntity
  8
0
370
    -3
  6
Continuous
100
AcDbCircle
 10
-185.086228
 20
213.25
 30
0.0
 40
1.0
100
AcDbArc
 50
180.0
 51
270.0
  0
LINE
  5
C8
100
AcDbEntity
  8
0
370
    -3
  6
Continuous
100
AcDbLine
 10
-183.086228
 20
199.85
 30
0.0
 11
-183.086228
 21
212.15
 31
0.0
  0
LINE
  5
C9
100
AcDbEntity
  8
0
370
    -3
  6
Continuous
100
AcDbLine
 10
-185.086228
 20
199.75
 30
0.0
 11
-183.186228
 21
199.75
 31
0.0
  0
LINE
  5
CA
100
AcDbEntity
  8
0
370
    -3
  6
Continuous
100
AcDbLine
 10
-185.086228
 20
212.25
 30
0.0
 11
-183.186228
 21
212.25
 31
0.0
  0
LINE
  5
CB
100
AcDbEntity
  8
0
370
    -3
  6
Continuous
100
AcDbLine
 10
-186.086228
 20
211.0
 30
0.0
 11
-186.086228
 21
240.0
 31
0.0
  0
LINE
  5
CC
100
AcDbEntity
  8
0
370
    -3
  6
Continuous
100
AcDbLine
 10
-189.086228
 20
171.0
 30
0.0
 11
-189.086228
 21
181.0
 31
0.0
  0
LINE
  5
CD
100
AcDbEntity
  8
0
370
    -3
  6
Continuous
100
AcDbLine
 10
-187.086228
 20
171.0
 30
0.0
 11
-189.086228
 21
171.0
 31
0.0
  0
LINE
  5
CE
100
AcDbEntity
  8
0
370
    -3
  6
Continuous
100
AcDbLine
 10
-187.086228
 20
181.0
 30
0.0
 11
-189.086228
 21
181.0
 31
0.0
  0
ARC
  5
CF
100
AcDbEntity
  8
0
370
    -3
  6
Continuous
100
AcDbCircle
 10
-56.986228
 20
250.6
 30
0.0
 40
0.4
100
AcDbArc
 50
0.0
 51
90.0
  0
LINE
  5
D0
100
AcDbEntity
  8
0
370
    -3
  6
Continuous
100
AcDbLine
 10
-56.586228
 20
240.0
 30
0.0
 11
-56.586228
 21
250.6
 31
0.0
  0
LINE
  5
D1
100
AcDbEntity
  8
0
370
    -3
  6
Continuous
100
AcDbLine
 10
-94.586228
 20
228.0
 30
0.0
 11
-92.986228
 21
228.0
 31
0.0
  0
LINE
  5
D2
100
AcDbEntity
  8
0
370
    -3
  6
Continuous
100
AcDbLine
 10
-56.986228
 20
251.0
 30
0.0
 11
-90.026421
 21
251.0
 31
0.0
  0
LINE
  5
D3
100
AcDbEntity
  8
0
370
    -3
  6
Continuous
100
AcDbLine
 10
-92.586228
 20
228.4
 30
0.0
 11
-92.986228
 21
228.0
 31
0.0
  0
LINE
  5
D4
100
AcDbEntity
  8
0
370
    -3
  6
Continuous
100
AcDbLine
 10
-90.026421
 20
229.0
 30
0.0
 11
-90.586228
 21
229.15
 31
0.0
  0
LINE
  5
D5
100
AcDbEntity
  8
0
370
    -3
  6
Continuous
100
AcDbLine
 10
-90.586228
 20
229.15
 30
0.0
 11
-91.786228
 21
229.15
 31
0.0
  0
ARC
  5
D6
100
AcDbEntity
  8
0
370
    -3
  6
Continuous
100
AcDbCircle
 10
-91.786228
 20
228.35
 30
0.0
 40
0.8
100
AcDbArc
 50
90.0
 51
176.296803
  0
LINE
  5
D7
100
AcDbEntity
  8
0
370
    -3
  6
Continuous
100
AcDbLine
 10
-56.986228
 20
251.0
 30
0.0
 11
-90.026421
 21
251.0
 31
0.0
  0
LINE
  5
D8
100
AcDbEntity
  8
0
370
    -3
  6
Continuous
100
AcDbLine
 10
-92.586228
 20
228.4
 30
0.0
 11
-92.986228
 21
228.0
 31
0.0
  0
LINE
  5
D9
100
AcDbEntity
  8
0
370
    -3
  6
Continuous
100
AcDbLine
 10
-90.026421
 20
229.0
 30
0.0
 11
-90.586228
 21
229.15
 31
0.0
  0
LINE
  5
DA
100
AcDbEntity
  8
0
370
    -3
  6
Continuous
100
AcDbLine
 10
-90.586228
 20
229.15
 30
0.0
 11
-91.786228
 21
229.15
 31
0.0
  0
LINE
  5
DB
100
AcDbEntity
  8
0
370
    -3
  6
Continuous
100
AcDbLine
 10
-92.586228
 20
240.0
 30
0.0
 11
-92.586228
 21
228.4
 31
0.0
  0
LINE
  5
DC
100
AcDbEntity
  8
0
370
    -3
  6
Continuous
100
AcDbLine
 10
-94.586228
 20
228.0
 30
0.0
 11
-92.986228
 21
228.0
 31
0.0
  0
LINE
  5
DD
100
AcDbEntity
  8
0
370
    -3
  6
Continuous
100
AcDbLine
 10
-88.586228
 20
229.0
 30
0.0
 11
-88.586228
 21
226.5
 31
0.0
  0
LINE
  5
DE
100
AcDbEntity
  8
0
370
    -3
  6
Continuous
100
AcDbLine
 10
-94.586228
 20
252.0
 30
0.0
 11
-92.986228
 21
252.0
 31
0.0
  0
LINE
  5
DF
100
AcDbEntity
  8
0
370
    -3
  6
Continuous
100
AcDbLine
 10
-92.586228
 20
251.6
 30
0.0
 11
-92.986228
 21
252.0
 31
0.0
  0
LINE
  5
E0
100
AcDbEntity
  8
0
370
    -3
  6
Continuous
100
AcDbLine
 10
-90.026421
 20
251.0
 30
0.0
 11
-90.586228
 21
250.85
 31
0.0
  0
LINE
  5
E1
100
AcDbEntity
  8
0
370
    -3
  6
Continuous
100
AcDbLine
 10
-90.586228
 20
250.85
 30
0.0
 11
-91.786228
 21
250.85
 31
0.0
  0
ARC
  5
E2
100
AcDbEntity
  8
0
370
    -3
  6
Continuous
100
AcDbCircle
 10
-91.786228
 20
251.65
 30
0.0
 40
0.8
100
AcDbArc
 50
183.703197
 51
270.0
  0
LINE
  5
E3
100
AcDbEntity
  8
0
370
    -3
  6
Continuous
100
AcDbLine
 10
-92.586228
 20
251.6
 30
0.0
 11
-92.986228
 21
252.0
 31
0.0
  0
LINE
  5
E4
100
AcDbEntity
  8
0
370
    -3
  6
Continuous
100
AcDbLine
 10
-90.026421
 20
251.0
 30
0.0
 11
-90.586228
 21
250.85
 31
0.0
  0
LINE
  5
E5
100
AcDbEntity
  8
0
370
    -3
  6
Continuous
100
AcDbLine
 10
-90.586228
 20
250.85
 30
0.0
 11
-91.786228
 21
250.85
 31
0.0
  0
LINE
  5
E6
100
AcDbEntity
  8
0
370
    -3
  6
Continuous
100
AcDbLine
 10
-92.586228
 20
240.0
 30
0.0
 11
-92.586228
 21
251.6
 31
0.0
  0
LINE
  5
E7
100
AcDbEntity
  8
0
370
    -3
  6
Continuous
100
AcDbLine
 10
-56.586226
 20
226.5
 30
0.0
 11
-88.586226
 21
226.5
 31
0.0
  0
LINE
  5
E8
100
AcDbEntity
  8
0
370
    -3
  6
Continuous
100
AcDbLine
 10
-56.586228
 20
229.4
 30
0.0
 11
-56.586228
 21
226.5
 31
0.0
  0
ARC
  5
E9
100
AcDbEntity
  8
0
370
    -3
  6
Continuous
100
AcDbCircle
 10
-56.986228
 20
229.4
 30
0.0
 40
0.4
100
AcDbArc
 50
270.0
 51
0.0
  0
LINE
  5
EA
100
AcDbEntity
  8
0
370
    -3
  6
Continuous
100
AcDbLine
 10
-56.986228
 20
229.0
 30
0.0
 11
-90.026421
 21
229.0
 31
0.0
  0
LINE
  5
EB
100
AcDbEntity
  8
0
370
    -3
  6
Continuous
100
AcDbLine
 10
-56.986228
 20
229.0
 30
0.0
 11
-90.026421
 21
229.0
 31
0.0
  0
LINE
  5
EC
100
AcDbEntity
  8
0
370
    -3
  6
Continuous
100
AcDbLine
 10
-56.586228
 20
240.0
 30
0.0
 11
-56.586228
 21
229.4
 31
0.0
  0
LINE
  5
ED
100
AcDbEntity
  8
0
370
    -3
  6
Continuous
100
AcDbLine
 10
-176.586228
 20
169.551942
 30
0.0
 11
-169.515376
 21
169.551942
 31
0.0
  0
LINE
  5
EE
100
AcDbEntity
  8
0
370
    -3
  6
Continuous
100
AcDbLine
 10
-96.551323
 20
312.534301
 30
0.0
 11
-174.586228
 21
313.896405
 31
0.0
  0
LINE
  5
EF
100
AcDbEntity
  8
0
370
    -3
  6
Continuous
100
AcDbLine
 10
-96.551323
 20
167.465699
 30
0.0
 11
-174.586228
 21
166.103595
 31
0.0
  0
LINE
  5
F0
100
AcDbEntity
  8
0
370
    -3
  6
Continuous
100
AcDbLine
 10
-94.586228
 20
169.465395
 30
0.0
 11
-94.586228
 21
240.0
 31
0.0
  0
LINE
  5
F1
100
AcDbEntity
  8
0
370
    -3
  6
Continuous
100
AcDbLine
 10
-174.586228
 20
313.896405
 30
0.0
 11
-209.661656
 21
312.572635
 31
0.0
  0
LINE
  5
F2
100
AcDbEntity
  8
0
370
    -3
  6
Continuous
100
AcDbLine
 10
-176.586228
 20
169.491272
 30
0.0
 11
-176.586228
 21
240.0
 31
0.0
  0
LINE
  5
F3
100
AcDbEntity
  8
0
370
    -3
  6
Continuous
100
AcDbLine
 10
-96.586228
 20
193.550038
 30
0.0
 11
-96.586228
 21
240.0
 31
0.0
  0
LINE
  5
F4
100
AcDbEntity
  8
0
370
    -3
  6
Continuous
100
AcDbLine
 10
-99.316217
 20
190.626899
 30
0.0
 11
-106.586228
 21
190.5
 31
0.0
  0
LINE
  5
F5
100
AcDbEntity
  8
0
370
    -3
  6
Continuous
100
AcDbLine
 10
-142.586228
 20
170.093472
 30
0.0
 11
-176.586228
 21
169.5
 31
0.0
  0
LINE
  5
F6
100
AcDbEntity
  8
0
370
    -3
  6
CENTER
100
AcDbLine
 10
-199.586228
 20
167.0
 30
0.0
 11
-199.586228
 21
188.091311
 31
0.0
  0
LINE
  5
F7
100
AcDbEntity
  8
0
370
    -3
  6
CENTER
100
AcDbLine
 10
-189.314582
 20
177.5
 30
0.0
 11
-209.077834
 21
177.5
 31
0.0
  0
LINE
  5
F8
100
AcDbEntity
  8
0
370
    -3
  6
CENTER
100
AcDbLine
 10
-106.586228
 20
167.0
 30
0.0
 11
-106.586228
 21
190.5
 31
0.0
  0
LINE
  5
F9
100
AcDbEntity
  8
0
370
    -3
  6
CENTER
100
AcDbLine
 10
-96.314582
 20
177.5
 30
0.0
 11
-116.077834
 21
177.5
 31
0.0
  0
LINE
  5
FA
100
AcDbEntity
  8
0
370
    -3
  6
Continuous
100
AcDbLine
 10
-176.586228
 20
310.5
 30
0.0
 11
-176.586228
 21
240.0
 31
0.0
  0
LINE
  5
FB
100
AcDbEntity
  8
0
370
    -3
  6
Continuous
100
AcDbLine
 10
-106.586228
 20
289.5
 30
0.0
 11
-99.904045
 21
289.5
 31
0.0
  0
LINE
  5
FC
100
AcDbEntity
  8
0
370
    -3
  6
Continuous
100
AcDbLine
 10
-96.586228
 20
286.449962
 30
0.0
 11
-96.586228
 21
240.0
 31
0.0
  0
LINE
  5
FD
100
AcDbEntity
  8
0
370
    -3
  6
Continuous
100
AcDbLine
 10
-99.316217
 20
289.373101
 30
0.0
 11
-106.586228
 21
289.5
 31
0.0
  0
LINE
  5
FE
100
AcDbEntity
  8
0
370
    -3
  6
Continuous
100
AcDbLine
 10
-142.586228
 20
309.906528
 30
0.0
 11
-176.586228
 21
310.5
 31
0.0
  0
LINE
  5
FF
100
AcDbEntity
  8
0
370
    -3
  6
CENTER
100
AcDbLine
 10
-199.586228
 20
313.0
 30
0.0
 11
-199.586228
 21
291.908689
 31
0.0
  0
LINE
  5
100
100
AcDbEntity
  8
0
370
    -3
  6
CENTER
100
AcDbLine
 10
-189.314582
 20
302.5
 30
0.0
 11
-209.077834
 21
302.5
 31
0.0
  0
LINE
  5
101
100
AcDbEntity
  8
0
370
    -3
  6
CENTER
100
AcDbLine
 10
-106.586228
 20
313.0
 30
0.0
 11
-106.586228
 21
289.5
 31
0.0
  0
LINE
  5
102
100
AcDbEntity
  8
0
370
    -3
  6
CENTER
100
AcDbLine
 10
-96.314582
 20
302.5
 30
0.0
 11
-116.077834
 21
302.5
 31
0.0
  0
ARC
  5
103
100
AcDbEntity
  8
0
370
    -3
  6
Continuous
100
AcDbCircle
 10
-96.586228
 20
169.465395
 30
0.0
 40
2.0
100
AcDbArc
 50
271.0
 51
0.0
  0
ARC
  5
104
100
AcDbEntity
  8
0
370
    -3
  6
Continuous
100
AcDbCircle
 10
-96.586228
 20
310.534605
 30
0.0
 40
2.0
100
AcDbArc
 50
0.0
 51
89.0
  0
ARC
  5
105
100
AcDbEntity
  8
0
370
    -3
  6
Continuous
100
AcDbCircle
 10
-209.586228
 20
310.574058
 30
0.0
 40
2.0
100
AcDbArc
 50
92.161356
 51
180.0
  0
ARC
  5
106
100
AcDbEntity
  8
0
370
    -3
  6
Continuous
100
AcDbCircle
 10
-143.633373
 20
249.915666
 30
0.0
 40
60.0
100
AcDbArc
 50
67.619615
 51
89.0
  0
ARC
  5
107
100
AcDbEntity
  8
0
370
    -3
  6
Continuous
100
AcDbCircle
 10
-98.586228
 20
193.550038
 30
0.0
 40
2.0
100
AcDbArc
 50
320.957133
 51
0.0
  0
ARC
  5
108
100
AcDbEntity
  8
0
370
    -3
  6
Continuous
100
AcDbCircle
 10
-99.351122
 20
192.626594
 30
0.0
 40
2.0
100
AcDbArc
 50
271.0
 51
319.772583
  0
ARC
  5
109
100
AcDbEntity
  8
0
370
    -3
  6
Continuous
100
AcDbCircle
 10
-121.54965
 20
176.4531
 30
0.0
 40
2.0
100
AcDbArc
 50
292.380385
 51
4.002116
  0
ARC
  5
10A
100
AcDbEntity
  8
0
370
    -3
  6
Continuous
100
AcDbCircle
 10
-106.586228
 20
177.5
 30
0.0
 40
13.0
100
AcDbArc
 50
90.0
 51
184.002116
  0
ARC
  5
10B
100
AcDbEntity
  8
0
370
    -3
  6
Continuous
100
AcDbCircle
 10
-143.633373
 20
230.084334
 30
0.0
 40
60.0
100
AcDbArc
 50
319.772583
 51
320.957133
  0
ARC
  5
10C
100
AcDbEntity
  8
0
370
    -3
  6
Continuous
100
AcDbCircle
 10
-143.633373
 20
230.084334
 30
0.0
 40
60.0
100
AcDbArc
 50
271.0
 51
292.380385
  0
ARC
  5
10D
100
AcDbEntity
  8
0
370
    -3
  6
Continuous
100
AcDbCircle
 10
-95.586228
 20
217.0
 30
0.0
 40
1.0
100
AcDbArc
 50
90.0
 51
180.0
  0
ARC
  5
10E
100
AcDbEntity
  8
0
370
    -3
  6
Continuous
100
AcDbCircle
 10
-95.586228
 20
219.0
 30
0.0
 40
1.0
100
AcDbArc
 50
270.0
 51
0.0
  0
CIRCLE
  5
10F
100
AcDbEntity
  8
0
370
    -3
  6
Continuous
100
AcDbCircle
 10
-199.586228
 20
177.5
 30
0.0
 40
5.0
  0
CIRCLE
  5
110
100
AcDbEntity
  8
0
370
    -3
  6
Continuous
100
AcDbCircle
 10
-106.586228
 20
177.5
 30
0.0
 40
5.0
  0
ARC
  5
111
100
AcDbEntity
  8
0
370
    -3
  6
Continuous
100
AcDbCircle
 10
-98.586228
 20
286.449962
 30
0.0
 40
2.0
100
AcDbArc
 50
0.0
 51
39.042867
  0
ARC
  5
112
100
AcDbEntity
  8
0
370
    -3
  6
Continuous
100
AcDbCircle
 10
-99.351122
 20
287.373406
 30
0.0
 40
2.0
100
AcDbArc
 50
40.227417
 51
89.0
  0
ARC
  5
113
100
AcDbEntity
  8
0
370
    -3
  6
Continuous
100
AcDbCircle
 10
-121.54965
 20
303.5469
 30
0.0
 40
2.0
100
AcDbArc
 50
355.997884
 51
67.619615
  0
ARC
  5
114
100
AcDbEntity
  8
0
370
    -3
  6
Continuous
100
AcDbCircle
 10
-106.586228
 20
302.5
 30
0.0
 40
13.0
100
AcDbArc
 50
175.997884
 51
270.0
  0
ARC
  5
115
100
AcDbEntity
  8
0
370
    -3
  6
Continuous
100
AcDbCircle
 10
-143.633373
 20
249.915666
 30
0.0
 40
60.0
100
AcDbArc
 50
39.042867
 51
40.227417
  0
ARC
  5
116
100
AcDbEntity
  8
0
370
    -3
  6
Continuous
100
AcDbCircle
 10
-95.586228
 20
263.0
 30
0.0
 40
1.0
100
AcDbArc
 50
180.0
 51
270.0
  0
ARC
  5
117
100
AcDbEntity
  8
0
370
    -3
  6
Continuous
100
AcDbCircle
 10
-95.586228
 20
261.0
 30
0.0
 40
1.0
100
AcDbArc
 50
0.0
 51
90.0
  0
CIRCLE
  5
118
100
AcDbEntity
  8
0
370
    -3
  6
Continuous
100
AcDbCircle
 10
-199.586228
 20
302.5
 30
0.0
 40
5.0
  0
CIRCLE
  5
119
100
AcDbEntity
  8
0
370
    -3
  6
Continuous
100
AcDbCircle
 10
-106.586228
 20
302.5
 30
0.0
 40
5.0
  0
LINE
  5
11A
100
AcDbEntity
  8
0
370
    -3
  6
Continuous
100
AcDbLine
 10
-94.586228
 20
310.534605
 30
0.0
 11
-94.586228
 21
240.0
 31
0.0
  0
LINE
  5
11B
100
AcDbEntity
  8
0
370
    -3
  6
Continuous
100
AcDbLine
 10
-203.586228
 20
240.0
 30
0.0
 11
-203.586228
 21
295.581546
 31
0.0
  0
LINE
  5
11C
100
AcDbEntity
  8
0
370
    -3
  6
Continuous
100
AcDbLine
 10
-203.586228
 20
-75.042342
 30
0.0
 11
-203.586228
 21
-72.13838
 31
0.0
  0
LINE
  5
11D
100
AcDbEntity
  8
0
370
    -3
  6
Continuous
100
AcDbLine
 10
-267.586228
 20
-72.662924
 30
0.0
 11
-203.586228
 21
-72.662924
 31
0.0
  0
LINE
  5
11E
100
AcDbEntity
  8
0
370
    -3
  6
Continuous
100
AcDbLine
 10
-267.586228
 20
-79.33838
 30
0.0
 11
-267.586228
 21
-72.13838
 31
0.0
  0
LINE
  5
11F
100
AcDbEntity
  8
0
370
    -3
  6
Continuous
100
AcDbLine
 10
-278.586228
 20
-74.482301
 30
0.0
 11
-280.586228
 21
-72.82966
 31
0.0
  0
LINE
  5
120
100
AcDbEntity
  8
0
370
    -3
  6
Continuous
100
AcDbLine
 10
-278.586228
 20
-74.482301
 30
0.0
 11
-276.586228
 21
-72.82966
 31
0.0
  0
LINE
  5
121
100
AcDbEntity
  8
0
370
    -3
  6
Continuous
100
AcDbLine
 10
-280.586228
 20
-75.658087
 30
0.0
 11
-278.586228
 21
-74.482301
 31
0.0
  0
LINE
  5
122
100
AcDbEntity
  8
0
370
    -3
  6
Continuous
100
AcDbLine
 10
-276.586228
 20
-75.658087
 30
0.0
 11
-278.586228
 21
-74.482301
 31
0.0
  0
ELLIPSE
  5
123
100
AcDbEntity
  8
0
370
    -3
  6
Continuous
100
AcDbEllipse
 10
-278.586228
 20
-72.665711
 30
0.0
 11
4.6999999999999886
 21
0.0
 31
0.0
210
0.0
220
0.0
230
1.0
 40
0.766646
 41
2.9947159677073079
 42
0.146876685882366
  0
LINE
  5
124
100
AcDbEntity
  8
0
370
    -3
  6
Continuous
100
AcDbLine
 10
-267.586228
 20
-79.33838
 30
0.0
 11
-323.091073
 21
-79.33838
 31
0.0
  0
LINE
  5
125
100
AcDbEntity
  8
0
370
    -3
  6
Continuous
100
AcDbLine
 10
-334.906748
 20
-75.612912
 30
0.0
 11
-342.477527
 21
-70.311796
 31
0.0
  0
LINE
  5
126
100
AcDbEntity
  8
0
370
    -3
  6
Continuous
100
AcDbLine
 10
-343.586228
 20
-68.182
 30
0.0
 11
-343.586228
 21
-25.33838
 31
0.0
  0
ARC
  5
127
100
AcDbEntity
  8
0
370
    -3
  6
Continuous
100
AcDbCircle
 10
-340.986228
 20
-68.182
 30
0.0
 40
2.6
100
AcDbArc
 50
180.0
 51
235.0
  0
ARC
  5
128
100
AcDbEntity
  8
0
370
    -3
  6
Continuous
100
AcDbCircle
 10
-323.091073
 20
-58.73838
 30
0.0
 40
20.6
100
AcDbArc
 50
235.0
 51
270.0
  0
LINE
  5
129
100
AcDbEntity
  8
0
370
    -3
  6
Continuous
100
AcDbLine
 10
-334.906748
 20
24.936152
 30
0.0
 11
-342.477527
 21
19.635035
 31
0.0
  0
LINE
  5
12A
100
AcDbEntity
  8
0
370
    -3
  6
Continuous
100
AcDbLine
 10
-343.586228
 20
17.50524
 30
0.0
 11
-343.586228
 21
-25.33838
 31
0.0
  0
ARC
  5
12B
100
AcDbEntity
  8
0
370
    -3
  6
Continuous
100
AcDbCircle
 10
-340.986228
 20
17.50524
 30
0.0
 40
2.6
100
AcDbArc
 50
125.0
 51
180.0
  0
ARC
  5
12C
100
AcDbEntity
  8
0
370
    -3
  6
Continuous
100
AcDbCircle
 10
-323.091073
 20
8.06162
 30
0.0
 40
20.6
100
AcDbArc
 50
90.0
 51
125.0
  0
LINE
  5
12D
100
AcDbEntity
  8
0
370
    -3
  6
Continuous
100
AcDbLine
 10
-267.586228
 20
28.66162
 30
0.0
 11
-267.586228
 21
21.46162
 31
0.0
  0
ELLIPSE
  5
12E
100
AcDbEntity
  8
0
370
    -3
  6
Continuous
100
AcDbEllipse
 10
-278.586228
 20
21.988951
 30
0.0
 11
4.6999999999999886
 21
0.0
 31
0.0
210
0.0
220
0.0
230
1.0
 40
0.766646
 41
6.1363086212977818
 42
3.2884693394715918
  0
LINE
  5
12F
100
AcDbEntity
  8
0
370
    -3
  6
Continuous
100
AcDbLine
 10
-280.586228
 20
24.981326
 30
0.0
 11
-278.586228
 21
23.805541
 31
0.0
  0
LINE
  5
130
100
AcDbEntity
  8
0
370
    -3
  6
Continuous
100
AcDbLine
 10
-278.586228
 20
23.805541
 30
0.0
 11
-276.586228
 21
22.152899
 31
0.0
  0
LINE
  5
131
100
AcDbEntity
  8
0
370
    -3
  6
Continuous
100
AcDbLine
 10
-276.586228
 20
24.981326
 30
0.0
 11
-278.586228
 21
23.805541
 31
0.0
  0
LINE
  5
132
100
AcDbEntity
  8
0
370
    -3
  6
Continuous
100
AcDbLine
 10
-278.586228
 20
23.805541
 30
0.0
 11
-280.586228
 21
22.152899
 31
0.0
  0
LINE
  5
133
100
AcDbEntity
  8
0
370
    -3
  6
Continuous
100
AcDbLine
 10
-267.586228
 20
28.66162
 30
0.0
 11
-323.091073
 21
28.66162
 31
0.0
  0
LINE
  5
134
100
AcDbEntity
  8
0
370
    -3
  6
Continuous
100
AcDbLine
 10
-267.586228
 20
-79.33838
 30
0.0
 11
-267.586228
 21
-72.13838
 31
0.0
  0
LINE
  5
135
100
AcDbEntity
  8
0
370
    -3
  6
Continuous
100
AcDbLine
 10
-278.586228
 20
-74.482301
 30
0.0
 11
-280.586228
 21
-72.82966
 31
0.0
  0
LINE
  5
136
100
AcDbEntity
  8
0
370
    -3
  6
Continuous
100
AcDbLine
 10
-278.586228
 20
-74.482301
 30
0.0
 11
-276.586228
 21
-72.82966
 31
0.0
  0
LINE
  5
137
100
AcDbEntity
  8
0
370
    -3
  6
Continuous
100
AcDbLine
 10
-280.586228
 20
-75.658087
 30
0.0
 11
-278.586228
 21
-74.482301
 31
0.0
  0
LINE
  5
138
100
AcDbEntity
  8
0
370
    -3
  6
Continuous
100
AcDbLine
 10
-276.586228
 20
-75.658087
 30
0.0
 11
-278.586228
 21
-74.482301
 31
0.0
  0
ELLIPSE
  5
139
100
AcDbEntity
  8
0
370
    -3
  6
Continuous
100
AcDbEllipse
 10
-278.586228
 20
-72.665711
 30
0.0
 11
4.6999999999999886
 21
0.0
 31
0.0
210
0.0
220
0.0
230
1.0
 40
0.766646
 41
2.9947159677073079
 42
0.146876685882366
  0
LINE
  5
13A
100
AcDbEntity
  8
0
370
    -3
  6
Continuous
100
AcDbLine
 10
-267.586228
 20
-79.33838
 30
0.0
 11
-323.091073
 21
-79.33838
 31
0.0
  0
LINE
  5
13B
100
AcDbEntity
  8
0
370
    -3
  6
Continuous
100
AcDbLine
 10
-334.906748
 20
-75.612912
 30
0.0
 11
-342.477527
 21
-70.311796
 31
0.0
  0
LINE
  5
13C
100
AcDbEntity
  8
0
370
    -3
  6
Continuous
100
AcDbLine
 10
-343.586228
 20
-68.182
 30
0.0
 11
-343.586228
 21
-25.33838
 31
0.0
  0
ARC
  5
13D
100
AcDbEntity
  8
0
370
    -3
  6
Continuous
100
AcDbCircle
 10
-340.986228
 20
-68.182
 30
0.0
 40
2.6
100
AcDbArc
 50
180.0
 51
235.0
  0
ARC
  5
13E
100
AcDbEntity
  8
0
370
    -3
  6
Continuous
100
AcDbCircle
 10
-323.091073
 20
-58.73838
 30
0.0
 40
20.6
100
AcDbArc
 50
235.0
 51
270.0
  0
LINE
  5
13F
100
AcDbEntity
  8
0
370
    -3
  6
Continuous
100
AcDbLine
 10
-334.906748
 20
24.936152
 30
0.0
 11
-342.477527
 21
19.635035
 31
0.0
  0
LINE
  5
140
100
AcDbEntity
  8
0
370
    -3
  6
Continuous
100
AcDbLine
 10
-343.586228
 20
17.50524
 30
0.0
 11
-343.586228
 21
-25.33838
 31
0.0
  0
ARC
  5
141
100
AcDbEntity
  8
0
370
    -3
  6
Continuous
100
AcDbCircle
 10
-340.986228
 20
17.50524
 30
0.0
 40
2.6
100
AcDbArc
 50
125.0
 51
180.0
  0
ARC
  5
142
100
AcDbEntity
  8
0
370
    -3
  6
Continuous
100
AcDbCircle
 10
-323.091073
 20
8.06162
 30
0.0
 40
20.6
100
AcDbArc
 50
90.0
 51
125.0
  0
LINE
  5
143
100
AcDbEntity
  8
0
370
    -3
  6
Continuous
100
AcDbLine
 10
-267.586228
 20
28.66162
 30
0.0
 11
-267.586228
 21
21.46162
 31
0.0
  0
ELLIPSE
  5
144
100
AcDbEntity
  8
0
370
    -3
  6
Continuous
100
AcDbEllipse
 10
-278.586228
 20
21.988951
 30
0.0
 11
4.6999999999999886
 21
0.0
 31
0.0
210
0.0
220
0.0
230
1.0
 40
0.766646
 41
6.1363086212977818
 42
3.2884693394715918
  0
LINE
  5
145
100
AcDbEntity
  8
0
370
    -3
  6
Continuous
100
AcDbLine
 10
-280.586228
 20
24.981326
 30
0.0
 11
-278.586228
 21
23.805541
 31
0.0
  0
LINE
  5
146
100
AcDbEntity
  8
0
370
    -3
  6
Continuous
100
AcDbLine
 10
-278.586228
 20
23.805541
 30
0.0
 11
-276.586228
 21
22.152899
 31
0.0
  0
LINE
  5
147
100
AcDbEntity
  8
0
370
    -3
  6
Continuous
100
AcDbLine
 10
-276.586228
 20
24.981326
 30
0.0
 11
-278.586228
 21
23.805541
 31
0.0
  0
LINE
  5
148
100
AcDbEntity
  8
0
370
    -3
  6
Continuous
100
AcDbLine
 10
-278.586228
 20
23.805541
 30
0.0
 11
-280.586228
 21
22.152899
 31
0.0
  0
LINE
  5
149
100
AcDbEntity
  8
0
370
    -3
  6
Continuous
100
AcDbLine
 10
-267.586228
 20
28.66162
 30
0.0
 11
-323.091073
 21
28.66162
 31
0.0
  0
LINE
  5
14A
100
AcDbEntity
  8
0
370
    -3
  6
Continuous
100
AcDbLine
 10
-203.586228
 20
27.16162
 30
0.0
 11
-267.586228
 21
27.16162
 31
0.0
  0
LINE
  5
14B
100
AcDbEntity
  8
0
370
    -3
  6
Continuous
100
AcDbLine
 10
-267.586228
 20
25.16162
 30
0.0
 11
-203.586228
 21
25.16162
 31
0.0
  0
LINE
  5
14C
100
AcDbEntity
  8
0
370
    -3
  6
Continuous
100
AcDbLine
 10
-267.586228
 20
25.66162
 30
0.0
 11
-203.586228
 21
25.66162
 31
0.0
  0
LINE
  5
14D
100
AcDbEntity
  8
0
370
    -3
  6
Continuous
100
AcDbLine
 10
-267.586228
 20
21.988216
 30
0.0
 11
-203.586228
 21
21.988216
 31
0.0
  0
LINE
  5
14E
100
AcDbEntity
  8
0
370
    -3
  6
Continuous
100
AcDbLine
 10
-203.586228
 20
27.16162
 30
0.0
 11
-203.586228
 21
21.409228
 31
0.0
  0
LINE
  5
14F
100
AcDbEntity
  8
0
370
    -3
  6
Continuous
100
AcDbLine
 10
-267.586228
 20
-75.83838
 30
0.0
 11
-210.398114
 21
-75.83838
 31
0.0
  0
LINE
  5
150
100
AcDbEntity
  8
0
370
    -3
  6
Continuous
100
AcDbLine
 10
-267.586228
 20
-76.33838
 30
0.0
 11
-210.91517
 21
-76.33838
 31
0.0
  0
LINE
  5
151
100
AcDbEntity
  8
0
370
    -3
  6
Continuous
100
AcDbLine
 10
-211.586228
 20
-77.83838
 30
0.0
 11
-267.586228
 21
-77.83838
 31
0.0
  0
LINE
  5
152
100
AcDbEntity
  8
0
370
    -3
  6
CENTER
100
AcDbLine
 10
-181.424016
 20
-25.33838
 30
0.0
 11
-349.834235
 21
-25.33838
 31
0.0
  0
ARC
  5
153
100
AcDbEntity
  8
0
370
    -3
  6
Continuous
100
AcDbCircle
 10
-95.418922
 20
-72.691583
 30
0.0
 40
3.0
100
AcDbArc
 50
180.0
 51
248.825002
  0
ARC
  5
154
100
AcDbEntity
  8
0
370
    -3
  6
Continuous
100
AcDbCircle
 10
-116.381847
 20
-71.957479
 30
0.0
 40
3.0
100
AcDbArc
 50
180.0
 51
269.0
  0
LINE
  5
155
100
AcDbEntity
  8
0
370
    -3
  6
Continuous
100
AcDbLine
 10
-56.586228
 20
-2.33838
 30
0.0
 11
-85.586228
 21
-2.33838
 31
0.0
  0
LINE
  5
156
100
AcDbEntity
  8
0
370
    -3
  6
Continuous
100
AcDbLine
 10
-56.586228
 20
-8.33838
 30
0.0
 11
-85.586228
 21
-8.33838
 31
0.0
  0
ARC
  5
157
100
AcDbEntity
  8
0
370
    -3
  6
Continuous
100
AcDbCircle
 10
-85.586228
 20
-5.33838
 30
0.0
 40
3.0
100
AcDbArc
 50
90.0
 51
270.0
  0
LINE
  5
158
100
AcDbEntity
  8
0
370
    -3
  6
Continuous
100
AcDbLine
 10
-176.586228
 20
-66.981631
 30
0.0
 11
-176.586228
 21
-5.33838
 31
0.0
  0
LINE
  5
159
100
AcDbEntity
  8
0
370
    -3
  6
Continuous
100
AcDbLine
 10
-176.586228
 20
40.66162
 30
0.0
 11
-176.586228
 21
-5.33838
 31
0.0
  0
ARC
  5
15A
100
AcDbEntity
  8
0
370
    -3
  6
Continuous
100
AcDbCircle
 10
-95.586228
 20
15.66162
 30
0.0
 40
1.0
100
AcDbArc
 50
0.0
 51
80.022063
  0
ARC
  5
15B
100
AcDbEntity
  8
0
370
    -3
  6
Continuous
100
AcDbCircle
 10
-95.066421
 20
18.616243
 30
0.0
 40
2.0
100
AcDbArc
 50
218.432783
 51
260.022063
  0
ARC
  5
15C
100
AcDbEntity
  8
0
370
    -3
  6
Continuous
100
AcDbCircle
 10
-143.633373
 20
-19.922714
 30
0.0
 40
60.0
100
AcDbArc
 50
38.432783
 51
89.0
  0
ARC
  5
15D
100
AcDbEntity
  8
0
370
    -3
  6
Continuous
100
AcDbCircle
 10
-95.586228
 20
-28.33838
 30
0.0
 40
1.0
100
AcDbArc
 50
90.0
 51
180.0
  0
ARC
  5
15E
100
AcDbEntity
  8
0
370
    -3
  6
Continuous
100
AcDbCircle
 10
-95.586228
 20
-26.33838
 30
0.0
 40
1.0
100
AcDbArc
 50
270.0
 51
0.0
  0
ARC
  5
15F
100
AcDbEntity
  8
0
370
    -3
  6
Continuous
100
AcDbCircle
 10
-95.586228
 20
-74.82237
 30
0.0
 40
1.0
100
AcDbArc
 50
180.0
 51
240.0
  0
ARC
  5
160
100
AcDbEntity
  8
0
370
    -3
  6
Continuous
100
AcDbCircle
 10
-97.586228
 20
-78.286472
 30
0.0
 40
3.0
100
AcDbArc
 50
0.0
 51
89.0
  0
ARC
  5
161
100
AcDbEntity
  8
0
370
    -3
  6
Continuous
100
AcDbCircle
 10
-208.586228
 20
-78.229419
 30
0.0
 40
3.0
100
AcDbArc
 50
92.119248
 51
180.0
  0
ARC
  5
162
100
AcDbEntity
  8
0
370
    -3
  6
Continuous
100
AcDbCircle
 10
-176.586228
 20
-47.591688
 30
0.0
 40
2.0
100
AcDbArc
 50
0.0
 51
90.0
  0
ARC
  5
163
100
AcDbEntity
  8
0
370
    -3
  6
Continuous
100
AcDbCircle
 10
-186.708655
 20
-71.415739
 30
0.0
 40
3.0
100
AcDbArc
 50
272.119248
 51
309.407386
  0
ARC
  5
164
100
AcDbEntity
  8
0
370
    -3
  6
Continuous
100
AcDbCircle
 10
-176.586228
 20
-64.393142
 30
0.0
 40
2.0
100
AcDbArc
 50
309.407386
 51
0.0
  0
LINE
  5
165
100
AcDbEntity
  8
0
370
    -3
  6
CENTER
100
AcDbLine
 10
-49.388003
 20
-5.33838
 30
0.0
 11
-123.274277
 21
-5.33838
 31
0.0
  0
LINE
  5
166
100
AcDbEntity
  8
0
370
    -3
  6
Continuous
100
AcDbLine
 10
-142.586228
 20
40.068148
 30
0.0
 11
-176.586228
 21
40.66162
 31
0.0
  0
LINE
  5
167
100
AcDbEntity
  8
0
370
    -3
  6
Continuous
100
AcDbLine
 10
-96.586228
 20
-90.33838
 30
0.0
 11
-209.586228
 21
-90.33838
 31
0.0
  0
LINE
  5
168
100
AcDbEntity
  8
0
370
    -3
  6
Continuous
100
AcDbLine
 10
-94.586228
 20
-78.286472
 30
0.0
 11
-94.586228
 21
-89.83838
 31
0.0
  0
LINE
  5
169
100
AcDbEntity
  8
0
370
    -3
  6
CENTER
100
AcDbLine
 10
-106.586228
 20
-73.235812
 30
0.0
 11
-106.586228
 21
-92.986436
 31
0.0
  0
LINE
  5
16A
100
AcDbEntity
  8
0
370
    -3
  6
CENTER
100
AcDbLine
 10
-199.586228
 20
-93.171998
 30
0.0
 11
-199.586228
 21
-72.971931
 31
0.0
  0
LINE
  5
16B
100
AcDbEntity
  8
0
370
    -3
  6
Continuous
100
AcDbLine
 10
-94.586228
 20
-5.33838
 30
0.0
 11
-94.586228
 21
-26.33838
 31
0.0
  0
LINE
  5
16C
100
AcDbEntity
  8
0
370
    -3
  6
Continuous
100
AcDbLine
 10
-94.586228
 20
-5.33838
 30
0.0
 11
-94.586228
 21
15.66162
 31
0.0
  0
LINE
  5
16D
100
AcDbEntity
  8
0
370
    -3
  6
Continuous
100
AcDbLine
 10
-96.586228
 20
17.31391
 30
0.0
 11
-96.586228
 21
-74.82237
 31
0.0
  0
LINE
  5
16E
100
AcDbEntity
  8
0
370
    -3
  6
Continuous
100
AcDbLine
 10
-211.586228
 20
-89.83838
 30
0.0
 11
-211.586228
 21
-78.229419
 31
0.0
  0
LINE
  5
16F
100
AcDbEntity
  8
0
370
    -3
  6
Continuous
100
AcDbLine
 10
-208.697166
 20
-75.231471
 30
0.0
 11
-174.086228
 21
-73.950703
 31
0.0
  0
LINE
  5
170
100
AcDbEntity
  8
0
370
    -3
  6
Continuous
100
AcDbLine
 10
-97.533871
 20
-75.286929
 30
0.0
 11
-174.086228
 21
-73.950703
 31
0.0
  0
LINE
  5
171
100
AcDbEntity
  8
0
370
    -3
  6
Continuous
100
AcDbLine
 10
-184.804165
 20
-73.733694
 30
0.0
 11
-175.316568
 21
-65.938446
 31
0.0
  0
LINE
  5
172
100
AcDbEntity
  8
0
370
    -3
  6
Continuous
100
AcDbLine
 10
-174.586228
 20
-64.393142
 30
0.0
 11
-174.586228
 21
-47.591688
 31
0.0
  0
LINE
  5
173
100
AcDbEntity
  8
0
370
    -3
  6
Continuous
100
AcDbLine
 10
-96.586228
 20
-90.33838
 30
0.0
 11
-96.586228
 21
-89.83838
 31
0.0
  0
LINE
  5
174
100
AcDbEntity
  8
0
370
    -3
  6
Continuous
100
AcDbLine
 10
-96.586228
 20
-89.83838
 30
0.0
 11
-94.586228
 21
-89.83838
 31
0.0
  0
LINE
  5
175
100
AcDbEntity
  8
0
370
    -3
  6
Continuous
100
AcDbLine
 10
-209.586228
 20
-89.83838
 30
0.0
 11
-209.586228
 21
-90.33838
 31
0.0
  0
LINE
  5
176
100
AcDbEntity
  8
0
370
    -3
  6
Continuous
100
AcDbLine
 10
-211.586228
 20
-89.83838
 30
0.0
 11
-209.586228
 21
-89.83838
 31
0.0
  0
LINE
  5
177
100
AcDbEntity
  8
0
370
    -3
  6
Continuous
100
AcDbLine
 10
-119.381847
 20
-10.439253
 30
0.0
 11
-119.381847
 21
-71.957479
 31
0.0
  0
LINE
  5
178
100
AcDbEntity
  8
0
370
    -3
  6
Continuous
100
AcDbLine
 10
-98.418922
 20
-10.439253
 30
0.0
 11
-98.418922
 21
-72.691583
 31
0.0
  0
ELLIPSE
  5
179
100
AcDbEntity
  8
0
370
    -3
  6
Continuous
100
AcDbEllipse
 10
-108.900384
 20
-10.439253
 30
0.0
 11
0.0
 21
15.0
 31
0.0
210
0.0
220
0.0
230
1.0
 40
0.698764
 41
4.7123889803846897
 42
1.5707962885122637
  0
LINE
  5
17A
100
AcDbEntity
  8
0
370
    -3
  6
Continuous
100
AcDbLine
 10
-56.586228
 20
-5.33838
 30
0.0
 11
-56.586228
 21
5.26162
 31
0.0
  0
LINE
  5
17B
100
AcDbEntity
  8
0
370
    -3
  6
Continuous
100
AcDbLine
 10
-56.986228
 20
5.66162
 30
0.0
 11
-90.026421
 21
5.66162
 31
0.0
  0
LINE
  5
17C
100
AcDbEntity
  8
0
370
    -3
  6
Continuous
100
AcDbLine
 10
-56.986228
 20
5.66162
 30
0.0
 11
-90.026421
 21
5.66162
 31
0.0
  0
ARC
  5
17D
100
AcDbEntity
  8
0
370
    -3
  6
Continuous
100
AcDbCircle
 10
-56.986228
 20
5.26162
 30
0.0
 40
0.4
100
AcDbArc
 50
0.0
 51
90.0
  0
LINE
  5
17E
100
AcDbEntity
  8
0
370
    -3
  6
Continuous
100
AcDbLine
 10
-94.586228
 20
6.66162
 30
0.0
 11
-92.986228
 21
6.66162
 31
0.0
  0
LINE
  5
17F
100
AcDbEntity
  8
0
370
    -3
  6
Continuous
100
AcDbLine
 10
-92.586228
 20
-5.33838
 30
0.0
 11
-92.586228
 21
6.26162
 31
0.0
  0
LINE
  5
180
100
AcDbEntity
  8
0
370
    -3
  6
Continuous
100
AcDbLine
 10
-90.586228
 20
5.51162
 30
0.0
 11
-91.786228
 21
5.51162
 31
0.0
  0
LINE
  5
181
100
AcDbEntity
  8
0
370
    -3
  6
Continuous
100
AcDbLine
 10
-90.026421
 20
5.66162
 30
0.0
 11
-90.586228
 21
5.51162
 31
0.0
  0
LINE
  5
182
100
AcDbEntity
  8
0
370
    -3
  6
Continuous
100
AcDbLine
 10
-92.586228
 20
6.26162
 30
0.0
 11
-92.986228
 21
6.66162
 31
0.0
  0
ARC
  5
183
100
AcDbEntity
  8
0
370
    -3
  6
Continuous
100
AcDbCircle
 10
-91.786228
 20
6.31162
 30
0.0
 40
0.8
100
AcDbArc
 50
183.703197
 51
270.0
  0
LINE
  5
184
100
AcDbEntity
  8
0
370
    -3
  6
Continuous
100
AcDbLine
 10
-90.586228
 20
5.51162
 30
0.0
 11
-91.786228
 21
5.51162
 31
0.0
  0
LINE
  5
185
100
AcDbEntity
  8
0
370
    -3
  6
Continuous
100
AcDbLine
 10
-90.026421
 20
5.66162
 30
0.0
 11
-90.586228
 21
5.51162
 31
0.0
  0
LINE
  5
186
100
AcDbEntity
  8
0
370
    -3
  6
Continuous
100
AcDbLine
 10
-92.586228
 20
6.26162
 30
0.0
 11
-92.986228
 21
6.66162
 31
0.0
  0
LINE
  5
187
100
AcDbEntity
  8
0
370
    -3
  6
Continuous
100
AcDbLine
 10
-94.586228
 20
6.66162
 30
0.0
 11
-92.986228
 21
6.66162
 31
0.0
  0
LINE
  5
188
100
AcDbEntity
  8
0
370
    -3
  6
Continuous
100
AcDbLine
 10
-94.586228
 20
-17.33838
 30
0.0
 11
-92.986228
 21
-17.33838
 31
0.0
  0
LINE
  5
189
100
AcDbEntity
  8
0
370
    -3
  6
Continuous
100
AcDbLine
 10
-92.586228
 20
-5.33838
 30
0.0
 11
-92.586228
 21
-16.93838
 31
0.0
  0
LINE
  5
18A
100
AcDbEntity
  8
0
370
    -3
  6
Continuous
100
AcDbLine
 10
-186.086228
 20
-32.33838
 30
0.0
 11
-186.086228
 21
-74.350459
 31
0.0
  0
LINE
  5
18B
100
AcDbEntity
  8
0
370
    -3
  6
Continuous
100
AcDbLine
 10
-90.586228
 20
-16.18838
 30
0.0
 11
-91.786228
 21
-16.18838
 31
0.0
  0
LINE
  5
18C
100
AcDbEntity
  8
0
370
    -3
  6
Continuous
100
AcDbLine
 10
-90.026421
 20
-16.33838
 30
0.0
 11
-90.586228
 21
-16.18838
 31
0.0
  0
LINE
  5
18D
100
AcDbEntity
  8
0
370
    -3
  6
Continuous
100
AcDbLine
 10
-92.586228
 20
-16.93838
 30
0.0
 11
-92.986228
 21
-17.33838
 31
0.0
  0
LINE
  5
18E
100
AcDbEntity
  8
0
370
    -3
  6
Continuous
100
AcDbLine
 10
-56.986228
 20
-16.33838
 30
0.0
 11
-90.026421
 21
-16.33838
 31
0.0
  0
ARC
  5
18F
100
AcDbEntity
  8
0
370
    -3
  6
Continuous
100
AcDbCircle
 10
-91.786228
 20
-16.98838
 30
0.0
 40
0.8
100
AcDbArc
 50
90.0
 51
176.296803
  0
LINE
  5
190
100
AcDbEntity
  8
0
370
    -3
  6
Continuous
100
AcDbLine
 10
-90.586228
 20
-16.18838
 30
0.0
 11
-91.786228
 21
-16.18838
 31
0.0
  0
LINE
  5
191
100
AcDbEntity
  8
0
370
    -3
  6
Continuous
100
AcDbLine
 10
-90.026421
 20
-16.33838
 30
0.0
 11
-90.586228
 21
-16.18838
 31
0.0
  0
LINE
  5
192
100
AcDbEntity
  8
0
370
    -3
  6
Continuous
100
AcDbLine
 10
-92.586228
 20
-16.93838
 30
0.0
 11
-92.986228
 21
-17.33838
 31
0.0
  0
ARC
  5
193
100
AcDbEntity
  8
0
370
    -3
  6
Continuous
100
AcDbCircle
 10
-183.186228
 20
36.094803
 30
0.0
 40
0.1
100
AcDbArc
 50
270.0
 51
0.0
  0
LINE
  5
194
100
AcDbEntity
  8
0
370
    -3
  6
Continuous
100
AcDbLine
 10
-183.086228
 20
36.094803
 30
0.0
 11
-183.086228
 21
39.43233
 31
0.0
  0
LINE
  5
195
100
AcDbEntity
  8
0
370
    -3
  6
Continuous
100
AcDbLine
 10
-185.086228
 20
35.994803
 30
0.0
 11
-183.186228
 21
35.994803
 31
0.0
  0
ARC
  5
196
100
AcDbEntity
  8
0
370
    -3
  6
Continuous
100
AcDbCircle
 10
-183.186228
 20
39.43233
 30
0.0
 40
0.1
100
AcDbArc
 50
0.0
 51
90.0
  0
LINE
  5
197
100
AcDbEntity
  8
0
370
    -3
  6
Continuous
100
AcDbLine
 10
-185.086228
 20
39.53233
 30
0.0
 11
-183.186228
 21
39.53233
 31
0.0
  0
ARC
  5
198
100
AcDbEntity
  8
0
370
    -3
  6
Continuous
100
AcDbCircle
 10
-183.186228
 20
-33.48838
 30
0.0
 40
0.1
100
AcDbArc
 50
270.0
 51
0.0
  0
LINE
  5
199
100
AcDbEntity
  8
0
370
    -3
  6
Continuous
100
AcDbLine
 10
-183.086228
 20
-33.48838
 30
0.0
 11
-183.086228
 21
-21.18838
 31
0.0
  0
LINE
  5
19A
100
AcDbEntity
  8
0
370
    -3
  6
Continuous
100
AcDbLine
 10
-185.086228
 20
-33.58838
 30
0.0
 11
-183.186228
 21
-33.58838
 31
0.0
  0
ARC
  5
19B
100
AcDbEntity
  8
0
370
    -3
  6
Continuous
100
AcDbCircle
 10
-183.186228
 20
-21.18838
 30
0.0
 40
0.1
100
AcDbArc
 50
0.0
 51
90.0
  0
LINE
  5
19C
100
AcDbEntity
  8
0
370
    -3
  6
Continuous
100
AcDbLine
 10
-185.086228
 20
-21.08838
 30
0.0
 11
-183.186228
 21
-21.08838
 31
0.0
  0
LINE
  5
19D
100
AcDbEntity
  8
0
370
    -3
  6
Continuous
100
AcDbLine
 10
-186.086228
 20
34.994803
 30
0.0
 11
-186.086228
 21
-22.33838
 31
0.0
  0
LINE
  5
19E
100
AcDbEntity
  8
0
370
    -3
  6
Continuous
100
AcDbLine
 10
-189.086228
 20
27.554409
 30
0.0
 11
-203.586228
 21
27.174713
 31
0.0
  0
LINE
  5
19F
100
AcDbEntity
  8
0
370
    -3
  6
Continuous
100
AcDbLine
 10
-186.086228
 20
39.66162
 30
0.0
 11
-186.086228
 21
35.66162
 31
0.0
  0
LINE
  5
1A0
100
AcDbEntity
  8
0
370
    -3
  6
Continuous
100
AcDbLine
 10
-56.986228
 20
-16.33838
 30
0.0
 11
-90.026421
 21
-16.33838
 31
0.0
  0
LINE
  5
1A1
100
AcDbEntity
  8
0
370
    -3
  6
Continuous
100
AcDbLine
 10
-94.586228
 20
-17.33838
 30
0.0
 11
-92.986228
 21
-17.33838
 31
0.0
  0
LINE
  5
1A2
100
AcDbEntity
  8
0
370
    -3
  6
Continuous
100
AcDbLine
 10
-56.586228
 20
-5.33838
 30
0.0
 11
-56.586228
 21
-15.93838
 31
0.0
  0
ARC
  5
1A3
100
AcDbEntity
  8
0
370
    -3
  6
Continuous
100
AcDbCircle
 10
-56.986228
 20
-15.93838
 30
0.0
 40
0.4
100
AcDbArc
 50
270.0
 51
0.0
  0
ARC
  5
1A4
100
AcDbEntity
  8
0
370
    -3
  6
Continuous
100
AcDbCircle
 10
-185.086228
 20
38.53233
 30
0.0
 40
1.0
100
AcDbArc
 50
90.0
 51
180.0
  0
ARC
  5
1A5
100
AcDbEntity
  8
0
370
    -3
  6
Continuous
100
AcDbCircle
 10
-185.086228
 20
34.994803
 30
0.0
 40
1.0
100
AcDbArc
 50
90.0
 51
180.0
  0
ARC
  5
1A6
100
AcDbEntity
  8
0
370
    -3
  6
Continuous
100
AcDbCircle
 10
-185.086228
 20
-20.08838
 30
0.0
 40
1.0
100
AcDbArc
 50
180.0
 51
270.0
  0
ARC
  5
1A7
100
AcDbEntity
  8
0
370
    -3
  6
Continuous
100
AcDbCircle
 10
-185.086228
 20
-34.58838
 30
0.0
 40
1.0
100
AcDbArc
 50
90.0
 51
180.0
  0
ARC
  5
1A8
100
AcDbEntity
  8
0
370
    -3
  6
Continuous
100
AcDbCircle
 10
-186.086228
 20
-13.606329
 30
0.0
 40
1.0
100
AcDbArc
 50
180.0
 51
240.0
  0
LINE
  5
1A9
100
AcDbEntity
  8
0
370
    -3
  6
Continuous
100
AcDbLine
 10
-187.086228
 20
0.929569
 30
0.0
 11
-187.086228
 21
-13.606329
 31
0.0
  0
ARC
  5
1AA
100
AcDbEntity
  8
0
370
    -3
  6
Continuous
100
AcDbCircle
 10
-187.086228
 20
-15.33838
 30
0.0
 40
1.0
100
AcDbArc
 50
0.0
 51
60.0
  0
ARC
  5
1AB
100
AcDbEntity
  8
0
370
    -3
  6
Continuous
100
AcDbCircle
 10
-186.086228
 20
0.929569
 30
0.0
 40
1.0
100
AcDbArc
 50
120.0
 51
180.0
  0
ARC
  5
1AC
100
AcDbEntity
  8
0
370
    -3
  6
Continuous
100
AcDbCircle
 10
-187.086228
 20
2.66162
 30
0.0
 40
1.0
100
AcDbArc
 50
300.0
 51
0.0
  0
LINE
  5
1AD
100
AcDbEntity
  8
0
370
    -3
  6
Continuous
100
AcDbLine
 10
-177.086228
 20
-67.392443
 30
0.0
 11
-177.086228
 21
-25.33838
 31
0.0
  0
LINE
  5
1AE
100
AcDbEntity
  8
0
370
    -3
  6
Continuous
100
AcDbLine
 10
-177.086228
 20
40.66162
 30
0.0
 11
-177.086228
 21
-25.33838
 31
0.0
  0
LINE
  5
1AF
100
AcDbEntity
  8
0
370
    -3
  6
Continuous
100
AcDbLine
 10
-185.086228
 20
40.66162
 30
0.0
 11
-177.086228
 21
40.66162
 31
0.0
  0
ARC
  5
1B0
100
AcDbEntity
  8
0
370
    -3
  6
Continuous
100
AcDbCircle
 10
-185.086228
 20
39.66162
 30
0.0
 40
1.0
100
AcDbArc
 50
90.0
 51
180.0
  0
LINE
  5
1B1
100
AcDbEntity
  8
0
370
    -3
  6
Continuous
100
AcDbLine
 10
-203.586228
 20
25.66162
 30
0.0
 11
-186.086228
 21
25.66162
 31
0.0
  0
LINE
  5
1B2
100
AcDbEntity
  8
0
370
    -3
  6
Continuous
100
AcDbLine
 10
-203.586228
 20
25.16162
 30
0.0
 11
-186.086228
 21
25.16162
 31
0.0
  0
LINE
  5
1B3
100
AcDbEntity
  8
0
370
    -3
  6
Continuous
100
AcDbLine
 10
-201.332949
 20
20.794702
 30
0.0
 11
-186.086228
 21
20.794702
 31
0.0
  0
LINE
  5
1B4
100
AcDbEntity
  8
0
370
    -3
  6
Continuous
100
AcDbLine
 10
-198.96257
 20
19.166275
 30
0.0
 11
-186.086228
 21
19.166275
 31
0.0
  0
LINE
  5
1B5
100
AcDbEntity
  8
0
370
    -3
  6
Continuous
100
AcDbLine
 10
-196.688759
 20
15.703534
 30
0.0
 11
-186.086228
 21
15.703534
 31
0.0
  0
LINE
  5
1B6
100
AcDbEntity
  8
0
370
    -3
  6
Continuous
100
AcDbLine
 10
-196.688759
 20
14.702055
 30
0.0
 11
-186.086228
 21
14.702055
 31
0.0
  0
LINE
  5
1B7
100
AcDbEntity
  8
0
370
    -3
  6
Continuous
100
AcDbLine
 10
-196.688759
 20
7.965221
 30
0.0
 11
-186.086228
 21
7.965221
 31
0.0
  0
LINE
  5
1B8
100
AcDbEntity
  8
0
370
    -3
  6
Continuous
100
AcDbLine
 10
-196.688759
 20
6.376011
 30
0.0
 11
-186.086228
 21
6.376011
 31
0.0
  0
LINE
  5
1B9
100
AcDbEntity
  8
0
370
    -3
  6
Continuous
100
AcDbLine
 10
-196.688759
 20
3.418015
 30
0.0
 11
-186.086228
 21
3.418015
 31
0.0
  0
LINE
  5
1BA
100
AcDbEntity
  8
0
370
    -3
  6
Continuous
100
AcDbLine
 10
-196.688759
 20
1.938992
 30
0.0
 11
-186.394991
 21
1.938992
 31
0.0
  0
LINE
  5
1BB
100
AcDbEntity
  8
0
370
    -3
  6
Continuous
100
AcDbLine
 10
-196.688759
 20
-1.153739
 30
0.0
 11
-187.086228
 21
-1.153739
 31
0.0
  0
LINE
  5
1BC
100
AcDbEntity
  8
0
370
    -3
  6
Continuous
100
AcDbLine
 10
-196.688759
 20
-2.500141
 30
0.0
 11
-187.086228
 21
-2.500141
 31
0.0
  0
LINE
  5
1BD
100
AcDbEntity
  8
0
370
    -3
  6
Continuous
100
AcDbLine
 10
-196.688759
 20
-5.33838
 30
0.0
 11
-187.086228
 21
-5.33838
 31
0.0
  0
LINE
  5
1BE
100
AcDbEntity
  8
0
370
    -3
  6
Continuous
100
AcDbLine
 10
-196.688759
 20
-45.33838
 30
0.0
 11
-186.086228
 21
-45.33838
 31
0.0
  0
LINE
  5
1BF
100
AcDbEntity
  8
0
370
    -3
  6
Continuous
100
AcDbLine
 10
-196.688759
 20
-48.17662
 30
0.0
 11
-186.086228
 21
-48.17662
 31
0.0
  0
LINE
  5
1C0
100
AcDbEntity
  8
0
370
    -3
  6
Continuous
100
AcDbLine
 10
-196.688759
 20
-49.523022
 30
0.0
 11
-186.086228
 21
-49.523022
 31
0.0
  0
LINE
  5
1C1
100
AcDbEntity
  8
0
370
    -3
  6
Continuous
100
AcDbLine
 10
-196.688759
 20
-54.094776
 30
0.0
 11
-186.086228
 21
-54.094776
 31
0.0
  0
LINE
  5
1C2
100
AcDbEntity
  8
0
370
    -3
  6
Continuous
100
AcDbLine
 10
-196.688759
 20
-52.615753
 30
0.0
 11
-186.086228
 21
-52.615753
 31
0.0
  0
LINE
  5
1C3
100
AcDbEntity
  8
0
370
    -3
  6
Continuous
100
AcDbLine
 10
-196.688759
 20
-57.052771
 30
0.0
 11
-186.086228
 21
-57.052771
 31
0.0
  0
LINE
  5
1C4
100
AcDbEntity
  8
0
370
    -3
  6
Continuous
100
AcDbLine
 10
-196.688759
 20
-58.641981
 30
0.0
 11
-186.086228
 21
-58.641981
 31
0.0
  0
LINE
  5
1C5
100
AcDbEntity
  8
0
370
    -3
  6
Continuous
100
AcDbLine
 10
-196.758462
 20
-65.378816
 30
0.0
 11
-186.086228
 21
-65.378816
 31
0.0
  0
LINE
  5
1C6
100
AcDbEntity
  8
0
370
    -3
  6
Continuous
100
AcDbLine
 10
-196.960772
 20
-66.380294
 30
0.0
 11
-186.086228
 21
-66.380294
 31
0.0
  0
LINE
  5
1C7
100
AcDbEntity
  8
0
370
    -3
  6
Continuous
100
AcDbLine
 10
-198.96257
 20
-69.843036
 30
0.0
 11
-186.086228
 21
-69.843036
 31
0.0
  0
LINE
  5
1C8
100
AcDbEntity
  8
0
370
    -3
  6
Continuous
100
AcDbLine
 10
-201.332949
 20
-71.471463
 30
0.0
 11
-186.086228
 21
-71.471463
 31
0.0
  0
LINE
  5
1C9
100
AcDbEntity
  8
0
370
    -3
  6
Continuous
100
AcDbLine
 10
-189.086228
 20
25.66162
 30
0.0
 11
-189.086228
 21
35.66162
 31
0.0
  0
LINE
  5
1CA
100
AcDbEntity
  8
0
370
    -3
  6
Continuous
100
AcDbLine
 10
-185.83145
 20
35.66162
 30
0.0
 11
-189.086228
 21
35.66162
 31
0.0
  0
LINE
  5
1CB
100
AcDbEntity
  8
0
370
    -3
  6
Continuous
100
AcDbLine
 10
-186.086228
 20
25.66162
 30
0.0
 11
-189.086228
 21
25.66162
 31
0.0
  0
INSERT
  5
1D4
100
AcDbEntity
  8
0
100
AcDbBlockReference
  2
ZU_SYM__USERS_HOME_SYMBOL_POO_SYM_B20_-1
 10
-183.086228
 20
-27.33838
 30
0.0
  0
LINE
  5
1D5
100
AcDbEntity
  8
0
370
    -3
  6
Continuous
100
AcDbLine
 10
-267.586219
 20
189.0
 30
0.0
 11
-203.586228
 21
189.0
 31
0.0
  0
LINE
  5
1D6
100
AcDbEntity
  8
0
370
    -3
  6
Continuous
100
AcDbLine
 10
-203.586228
 20
186.5
 30
0.0
 11
-241.586219
 21
186.5
 31
0.0
  0
LINE
  5
1D7
100
AcDbEntity
  8
0
370
    -3
  6
Continuous
100
AcDbLine
 10
-220.586228
 20
267.400206
 30
0.0
 11
-203.586228
 21
267.400206
 31
0.0
  0
LINE
  5
1D8
100
AcDbEntity
  8
0
370
    -3
  6
Continuous
100
AcDbLine
 10
-220.586228
 20
217.099794
 30
0.0
 11
-203.586228
 21
217.099794
 31
0.0
  0
LINE
  5
1D9
100
AcDbEntity
  8
0
370
    -3
  6
Continuous
100
AcDbLine
 10
-220.586228
 20
212.599794
 30
0.0
 11
-203.586228
 21
212.599794
 31
0.0
  0
LINE
  5
1DA
100
AcDbEntity
  8
0
370
    -3
  6
Continuous
100
AcDbLine
 10
-203.586228
 20
186.5
 30
0.0
 11
-203.586228
 21
240.0
 31
0.0
  0
LINE
  5
1DB
100
AcDbEntity
  8
0
370
    -3
  6
Continuous
100
AcDbLine
 10
-203.586228
 20
293.5
 30
0.0
 11
-203.586228
 21
240.0
 31
0.0
  0
LINE
  5
1DC
100
AcDbEntity
  8
0
370
    -3
  6
Continuous
100
AcDbLine
 10
-220.586228
 20
262.900206
 30
0.0
 11
-203.586228
 21
262.900206
 31
0.0
  0
LINE
  5
1DD
100
AcDbEntity
  8
0
370
    -3
  6
Continuous
100
AcDbLine
 10
-267.586219
 20
271.900206
 30
0.0
 11
-203.586228
 21
271.900206
 31
0.0
  0
LINE
  5
1DE
100
AcDbEntity
  8
0
370
    -3
  6
Continuous
100
AcDbLine
 10
-267.586219
 20
273.099794
 30
0.0
 11
-203.586228
 21
273.099794
 31
0.0
  0
LINE
  5
1DF
100
AcDbEntity
  8
0
370
    -3
  6
Continuous
100
AcDbLine
 10
-267.586219
 20
290.5
 30
0.0
 11
-203.586228
 21
290.5
 31
0.0
  0
LINE
  5
1E0
100
AcDbEntity
  8
0
370
    -3
  6
Continuous
100
AcDbLine
 10
-267.586219
 20
291.0
 30
0.0
 11
-203.586228
 21
291.0
 31
0.0
  0
LINE
  5
1E1
100
AcDbEntity
  8
0
370
    -3
  6
Continuous
100
AcDbLine
 10
-267.586219
 20
208.099794
 30
0.0
 11
-203.586228
 21
208.099794
 31
0.0
  0
LINE
  5
1E2
100
AcDbEntity
  8
0
370
    -3
  6
Continuous
100
AcDbLine
 10
-267.586219
 20
206.900206
 30
0.0
 11
-203.586228
 21
206.900206
 31
0.0
  0
LINE
  5
1E3
100
AcDbEntity
  8
0
370
    -3
  6
Continuous
100
AcDbLine
 10
-267.586219
 20
189.5
 30
0.0
 11
-203.586228
 21
189.5
 31
0.0
  0
LINE
  5
1E4
100
AcDbEntity
  8
0
370
    -3
  6
Continuous
100
AcDbLine
 10
-267.586219
 20
192.673403
 30
0.0
 11
-203.586228
 21
192.673403
 31
0.0
  0
LINE
  5
1E5
100
AcDbEntity
  8
0
370
    -3
  6
Continuous
100
AcDbLine
 10
-267.586219
 20
199.567553
 30
0.0
 11
-203.586228
 21
199.567553
 31
0.0
  0
LINE
  5
1E6
100
AcDbEntity
  8
0
370
    -3
  6
Continuous
100
AcDbLine
 10
-267.586219
 20
217.099794
 30
0.0
 11
-220.586228
 21
217.099794
 31
0.0
  0
LINE
  5
1E7
100
AcDbEntity
  8
0
370
    -3
  6
Continuous
100
AcDbLine
 10
-267.586219
 20
215.900206
 30
0.0
 11
-203.586228
 21
215.900206
 31
0.0
  0
LINE
  5
1E8
100
AcDbEntity
  8
0
370
    -3
  6
Continuous
100
AcDbLine
 10
-267.586219
 20
212.599794
 30
0.0
 11
-215.443618
 21
212.599794
 31
0.0
  0
LINE
  5
1E9
100
AcDbEntity
  8
0
370
    -3
  6
Continuous
100
AcDbLine
 10
-267.586219
 20
211.400206
 30
0.0
 11
-203.586228
 21
211.400206
 31
0.0
  0
LINE
  5
1EA
100
AcDbEntity
  8
0
370
    -3
  6
Continuous
100
AcDbLine
 10
-267.586219
 20
262.900206
 30
0.0
 11
-220.586228
 21
262.900206
 31
0.0
  0
LINE
  5
1EB
100
AcDbEntity
  8
0
370
    -3
  6
Continuous
100
AcDbLine
 10
-267.586219
 20
264.099794
 30
0.0
 11
-203.586228
 21
264.099794
 31
0.0
  0
LINE
  5
1EC
100
AcDbEntity
  8
0
370
    -3
  6
Continuous
100
AcDbLine
 10
-267.586219
 20
267.400206
 30
0.0
 11
-212.086228
 21
267.400206
 31
0.0
  0
LINE
  5
1ED
100
AcDbEntity
  8
0
370
    -3
  6
Continuous
100
AcDbLine
 10
-267.586219
 20
268.599794
 30
0.0
 11
-203.586228
 21
268.599794
 31
0.0
  0
LINE
  5
1EE
100
AcDbEntity
  8
0
370
    -3
  6
Continuous
100
AcDbLine
 10
-267.586219
 20
221.599794
 30
0.0
 11
-203.586228
 21
221.599794
 31
0.0
  0
LINE
  5
1EF
100
AcDbEntity
  8
0
370
    -3
  6
Continuous
100
AcDbLine
 10
-267.586219
 20
220.386085
 30
0.0
 11
-203.586228
 21
220.386085
 31
0.0
  0
LINE
  5
1F0
100
AcDbEntity
  8
0
370
    -3
  6
Continuous
100
AcDbLine
 10
-203.586228
 20
293.5
 30
0.0
 11
-267.586219
 21
293.5
 31
0.0
  0
LINE
  5
1F1
100
AcDbEntity
  8
0
370
    -3
  6
Continuous
100
AcDbLine
 10
-267.586219
 20
280.432447
 30
0.0
 11
-203.586228
 21
280.432447
 31
0.0
  0
LINE
  5
1F2
100
AcDbEntity
  8
0
370
    -3
  6
Continuous
100
AcDbLine
 10
-267.586219
 20
287.326597
 30
0.0
 11
-203.586228
 21
287.326597
 31
0.0
  0
LINE
  5
1F3
100
AcDbEntity
  8
0
370
    -3
  6
Continuous
100
AcDbLine
 10
-267.586219
 20
258.39316
 30
0.0
 11
-203.586228
 21
258.39316
 31
0.0
  0
LINE
  5
1F4
100
AcDbEntity
  8
0
370
    -3
  6
Continuous
100
AcDbLine
 10
-267.586219
 20
254.0
 30
0.0
 11
-203.586228
 21
254.0
 31
0.0
  0
LINE
  5
1F5
100
AcDbEntity
  8
0
370
    -3
  6
Continuous
100
AcDbLine
 10
-267.586219
 20
259.613915
 30
0.0
 11
-203.586228
 21
259.613915
 31
0.0
  0
LINE
  5
1F6
100
AcDbEntity
  8
0
370
    -3
  6
Continuous
100
AcDbLine
 10
-267.586219
 20
226.0
 30
0.0
 11
-203.586228
 21
226.0
 31
0.0
  0
LINE
  5
1F7
100
AcDbEntity
  8
0
370
    -3
  6
Continuous
100
AcDbLine
 10
-267.586219
 20
298.999948
 30
0.0
 11
-267.586219
 21
239.999948
 31
0.0
  0
LINE
  5
1F8
100
AcDbEntity
  8
0
370
    -3
  6
Continuous
100
AcDbLine
 10
-267.586219
 20
188.660251
 30
0.0
 11
-267.586219
 21
239.999948
 31
0.0
  0
ARC
  5
1F9
100
AcDbEntity
  8
0
370
    -3
  6
Continuous
100
AcDbCircle
 10
-270.586219
 20
188.660251
 30
0.0
 40
3.0
100
AcDbArc
 50
270.0
 51
0.0
  0
LINE
  5
1FA
100
AcDbEntity
  8
0
370
    -3
  6
Continuous
100
AcDbLine
 10
-274.586219
 20
185.660251
 30
0.0
 11
-270.586219
 21
185.660251
 31
0.0
  0
ARC
  5
1FB
100
AcDbEntity
  8
0
370
    -3
  6
Continuous
100
AcDbCircle
 10
-274.586219
 20
182.660251
 30
0.0
 40
3.0
100
AcDbArc
 50
90.0
 51
180.0
  0
LINE
  5
1FC
100
AcDbEntity
  8
0
370
    -3
  6
Continuous
100
AcDbLine
 10
-277.586219
 20
180.999948
 30
0.0
 11
-277.586219
 21
182.660251
 31
0.0
  0
LINE
  5
1FD
100
AcDbEntity
  8
0
370
    -3
  6
Continuous
100
AcDbLine
 10
-277.586219
 20
180.999948
 30
0.0
 11
-323.091064
 21
180.999948
 31
0.0
  0
ARC
  5
1FE
100
AcDbEntity
  8
0
370
    -3
  6
Continuous
100
AcDbCircle
 10
-323.091064
 20
201.599948
 30
0.0
 40
20.6
100
AcDbArc
 50
235.0
 51
270.0
  0
LINE
  5
1FF
100
AcDbEntity
  8
0
370
    -3
  6
Continuous
100
AcDbLine
 10
-334.906739
 20
184.725416
 30
0.0
 11
-342.477518
 21
190.026532
 31
0.0
  0
ARC
  5
200
100
AcDbEntity
  8
0
370
    -3
  6
Continuous
100
AcDbCircle
 10
-340.986219
 20
192.156328
 30
0.0
 40
2.6
100
AcDbArc
 50
180.0
 51
235.0
  0
LINE
  5
201
100
AcDbEntity
  8
0
370
    -3
  6
Continuous
100
AcDbLine
 10
-343.586219
 20
192.156328
 30
0.0
 11
-343.586219
 21
239.999948
 31
0.0
  0
LINE
  5
202
100
AcDbEntity
  8
0
370
    -3
  6
Continuous
100
AcDbLine
 10
-343.586219
 20
287.843568
 30
0.0
 11
-343.586219
 21
239.999948
 31
0.0
  0
ARC
  5
203
100
AcDbEntity
  8
0
370
    -3
  6
Continuous
100
AcDbCircle
 10
-340.986219
 20
287.843568
 30
0.0
 40
2.6
100
AcDbArc
 50
125.0
 51
180.0
  0
LINE
  5
204
100
AcDbEntity
  8
0
370
    -3
  6
Continuous
100
AcDbLine
 10
-334.906739
 20
295.27448
 30
0.0
 11
-342.477518
 21
289.973363
 31
0.0
  0
ARC
  5
205
100
AcDbEntity
  8
0
370
    -3
  6
Continuous
100
AcDbCircle
 10
-323.091064
 20
278.399948
 30
0.0
 40
20.6
100
AcDbArc
 50
90.0
 51
125.0
  0
LINE
  5
206
100
AcDbEntity
  8
0
370
    -3
  6
Continuous
100
AcDbLine
 10
-267.586219
 20
298.999948
 30
0.0
 11
-323.091064
 21
298.999948
 31
0.0
  0
LINE
  5
207
100
AcDbEntity
  8
0
370
    -3
  6
Continuous
100
AcDbLine
 10
-278.586219
 20
190.856027
 30
0.0
 11
-280.586219
 21
192.508668
 31
0.0
  0
LINE
  5
208
100
AcDbEntity
  8
0
370
    -3
  6
Continuous
100
AcDbLine
 10
-276.586219
 20
189.680241
 30
0.0
 11
-278.586219
 21
190.856027
 31
0.0
  0
LINE
  5
209
100
AcDbEntity
  8
0
370
    -3
  6
Continuous
100
AcDbLine
 10
-278.586219
 20
190.856027
 30
0.0
 11
-276.586219
 21
192.508668
 31
0.0
  0
LINE
  5
20A
100
AcDbEntity
  8
0
370
    -3
  6
Continuous
100
AcDbLine
 10
-280.586219
 20
189.680241
 30
0.0
 11
-278.586219
 21
190.856027
 31
0.0
  0
ELLIPSE
  5
20B
100
AcDbEntity
  8
0
370
    -3
  6
Continuous
100
AcDbEllipse
 10
-278.586219
 20
192.672617
 30
0.0
 11
-4.6999999999999886
 21
0.0
 31
0.0
210
0.0
220
0.0
230
1.0
 40
0.766646
 41
0.0
 42
6.2831853071795862
  0
LINE
  5
20C
100
AcDbEntity
  8
0
370
    -3
  6
Continuous
100
AcDbLine
 10
-278.586219
 20
289.143869
 30
0.0
 11
-280.586219
 21
287.491227
 31
0.0
  0
LINE
  5
20D
100
AcDbEntity
  8
0
370
    -3
  6
Continuous
100
AcDbLine
 10
-276.586219
 20
290.319654
 30
0.0
 11
-278.586219
 21
289.143869
 31
0.0
  0
LINE
  5
20E
100
AcDbEntity
  8
0
370
    -3
  6
Continuous
100
AcDbLine
 10
-278.586219
 20
289.143869
 30
0.0
 11
-276.586219
 21
287.491227
 31
0.0
  0
LINE
  5
20F
100
AcDbEntity
  8
0
370
    -3
  6
Continuous
100
AcDbLine
 10
-280.586219
 20
290.319654
 30
0.0
 11
-278.586219
 21
289.143869
 31
0.0
  0
ELLIPSE
  5
210
100
AcDbEntity
  8
0
370
    -3
  6
Continuous
100
AcDbEllipse
 10
-278.586219
 20
287.327279
 30
0.0
 11
-4.6999999999999886
 21
0.0
 31
0.0
210
0.0
220
0.0
230
1.0
 40
0.766646
 41
0.0
 42
6.2831853071795862
  0
LINE
  5
211
100
AcDbEntity
  8
0
370
    -3
  6
Continuous
100
AcDbLine
 10
-241.586219
 20
186.5
 30
0.0
 11
-268.504558
 21
186.5
 31
0.0
  0
ARC
  5
212
100
AcDbEntity
  8
0
370
    -3
  6
Continuous
100
AcDbCircle
 10
-473.057368
 20
-83.83838
 30
0.0
 40
8.0
100
AcDbArc
 50
214.228866
 51
223.432537
  0
ARC
  5
213
100
AcDbEntity
  8
0
370
    -3
  6
Continuous
100
AcDbCircle
 10
-553.057368
 20
-83.83838
 30
0.0
 40
8.0
100
AcDbArc
 50
316.567463
 51
325.771134
  0
ARC
  5
214
100
AcDbEntity
  8
0
370
    -3
  6
Continuous
100
AcDbCircle
 10
-460.208187
 20
-81.863905
 30
0.0
 40
6.0
100
AcDbArc
 50
132.98984
 51
188.736046
  0
ARC
  5
215
100
AcDbEntity
  8
0
370
    -3
  6
Continuous
100
AcDbCircle
 10
-473.057368
 20
-83.83838
 30
0.0
 40
7.0
100
AcDbArc
 50
308.213211
 51
8.736046
  0
ARC
  5
216
100
AcDbEntity
  8
0
370
    -3
  6
Continuous
100
AcDbCircle
 10
-565.906548
 20
-81.863905
 30
0.0
 40
6.0
100
AcDbArc
 50
351.263954
 51
47.01016
  0
ARC
  5
217
100
AcDbEntity
  8
0
370
    -3
  6
Continuous
100
AcDbCircle
 10
-553.057368
 20
-83.83838
 30
0.0
 40
7.0
100
AcDbArc
 50
171.263954
 51
231.786789
  0
ARC
  5
218
100
AcDbEntity
  8
0
370
    -3
  6
Continuous
100
AcDbCircle
 10
-439.557368
 20
-73.866244
 30
0.0
 40
3.0
100
AcDbArc
 50
180.0
 51
228.189685
  0
ARC
  5
219
100
AcDbEntity
  8
0
370
    -3
  6
Continuous
100
AcDbCircle
 10
-443.557368
 20
-78.33838
 30
0.0
 40
3.0
100
AcDbArc
 50
0.0
 51
90.0
  0
ARC
  5
21A
100
AcDbEntity
  8
0
370
    -3
  6
Continuous
100
AcDbCircle
 10
-492.256014
 20
-47.484598
 30
0.0
 40
43.0
100
AcDbArc
 50
311.863779
 51
327.706333
  0
ARC
  5
21B
100
AcDbEntity
  8
0
370
    -3
  6
Continuous
100
AcDbCircle
 10
-461.557368
 20
-81.742343
 30
0.0
 40
3.0
100
AcDbArc
 50
131.863779
 51
180.0
  0
ARC
  5
21C
100
AcDbEntity
  8
0
370
    -3
  6
Continuous
100
AcDbCircle
 10
-458.137923
 20
-78.33838
 30
0.0
 40
3.0
100
AcDbArc
 50
90.0
 51
137.876229
  0
ARC
  5
21D
100
AcDbEntity
  8
0
370
    -3
  6
Continuous
100
AcDbCircle
 10
-451.018797
 20
-68.33838
 30
0.0
 40
3.0
100
AcDbArc
 50
90.0
 51
147.706333
  0
ARC
  5
21E
100
AcDbEntity
  8
0
370
    -3
  6
Continuous
100
AcDbCircle
 10
-465.557368
 20
-90.33838
 30
0.0
 40
1.0
100
AcDbArc
 50
0.0
 51
90.0
  0
ARC
  5
21F
100
AcDbEntity
  8
0
370
    -3
  6
Continuous
100
AcDbCircle
 10
-445.557368
 20
-68.33838
 30
0.0
 40
3.0
100
AcDbArc
 50
0.0
 51
90.0
  0
ARC
  5
220
100
AcDbEntity
  8
0
370
    -3
  6
Continuous
100
AcDbCircle
 10
-586.557368
 20
-73.866244
 30
0.0
 40
3.0
100
AcDbArc
 50
311.810315
 51
0.0
  0
ARC
  5
221
100
AcDbEntity
  8
0
370
    -3
  6
Continuous
100
AcDbCircle
 10
-582.557368
 20
-78.33838
 30
0.0
 40
3.0
100
AcDbArc
 50
90.0
 51
180.0
  0
ARC
  5
222
100
AcDbEntity
  8
0
370
    -3
  6
Continuous
100
AcDbCircle
 10
-575.095938
 20
-68.33838
 30
0.0
 40
3.0
100
AcDbArc
 50
32.293667
 51
90.0
  0
ARC
  5
223
100
AcDbEntity
  8
0
370
    -3
  6
Continuous
100
AcDbCircle
 10
-560.557368
 20
-90.33838
 30
0.0
 40
1.0
100
AcDbArc
 50
90.0
 51
180.0
  0
ARC
  5
224
100
AcDbEntity
  8
0
370
    -3
  6
Continuous
100
AcDbCircle
 10
-580.557368
 20
-68.33838
 30
0.0
 40
3.0
100
AcDbArc
 50
90.0
 51
180.0
  0
ARC
  5
225
100
AcDbEntity
  8
0
370
    -3
  6
Continuous
100
AcDbCircle
 10
-492.557368
 20
-9.939253
 30
0.0
 40
50.0
100
AcDbArc
 50
15.701818
 51
86.642183
  0
ARC
  5
226
100
AcDbEntity
  8
0
370
    -3
  6
Continuous
100
AcDbCircle
 10
-573.557368
 20
-42.696479
 30
0.0
 40
10.0
100
AcDbArc
 50
180.0
 51
212.293667
  0
ARC
  5
227
100
AcDbEntity
  8
0
370
    -3
  6
Continuous
100
AcDbCircle
 10
-492.256014
 20
-47.484598
 30
0.0
 40
41.0
100
AcDbArc
 50
313.090534
 51
327.706333
  0
ARC
  5
228
100
AcDbEntity
  8
0
370
    -3
  6
Continuous
100
AcDbCircle
 10
-533.858721
 20
-47.484598
 30
0.0
 40
43.0
100
AcDbArc
 50
212.293667
 51
228.136221
  0
ARC
  5
229
100
AcDbEntity
  8
0
370
    -3
  6
Continuous
100
AcDbCircle
 10
-564.557368
 20
-81.742343
 30
0.0
 40
3.0
100
AcDbArc
 50
0.0
 51
48.136221
  0
ARC
  5
22A
100
AcDbEntity
  8
0
370
    -3
  6
Continuous
100
AcDbCircle
 10
-567.976812
 20
-78.33838
 30
0.0
 40
3.0
100
AcDbArc
 50
42.123771
 51
90.0
  0
ARC
  5
22B
100
AcDbEntity
  8
0
370
    -3
  6
Continuous
100
AcDbCircle
 10
-533.858721
 20
-47.484598
 30
0.0
 40
41.0
100
AcDbArc
 50
212.293667
 51
227.01016
  0
ARC
  5
22C
100
AcDbEntity
  8
0
370
    -3
  6
Continuous
100
AcDbCircle
 10
-533.557368
 20
-9.939253
 30
0.0
 40
50.0
100
AcDbArc
 50
93.357817
 51
180.0
  0
ARC
  5
22D
100
AcDbEntity
  8
0
370
    -3
  6
Continuous
100
AcDbCircle
 10
-513.057368
 20
-359.33838
 30
0.0
 40
400.0
100
AcDbArc
 50
86.642183
 51
90.0
  0
ARC
  5
22E
100
AcDbEntity
  8
0
370
    -3
  6
Continuous
100
AcDbCircle
 10
-513.057368
 20
-359.33838
 30
0.0
 40
400.0
100
AcDbArc
 50
90.0
 51
93.357817
  0
LINE
  5
22F
100
AcDbEntity
  8
0
370
    -3
  6
Continuous
100
AcDbLine
 10
-458.137923
 20
-75.33838
 30
0.0
 11
-443.557368
 21
-75.33838
 31
0.0
  0
LINE
  5
230
100
AcDbEntity
  8
0
370
    -3
  6
CENTER
100
AcDbLine
 10
-450.535111
 20
-93.918884
 30
0.0
 11
-450.535111
 21
-74.396536
 31
0.0
  0
LINE
  5
231
100
AcDbEntity
  8
0
370
    -3
  6
Continuous
100
AcDbLine
 10
-440.557368
 20
-90.33838
 30
0.0
 11
-440.557368
 21
-78.33838
 31
0.0
  0
LINE
  5
232
100
AcDbEntity
  8
0
370
    -3
  6
Continuous
100
AcDbLine
 10
-464.557368
 20
-90.33838
 30
0.0
 11
-464.557368
 21
-81.742343
 31
0.0
  0
LINE
  5
233
100
AcDbEntity
  8
0
370
    -3
  6
Continuous
100
AcDbLine
 10
-453.55476
 20
-66.735603
 30
0.0
 11
-455.907216
 21
-70.457732
 31
0.0
  0
LINE
  5
234
100
AcDbEntity
  8
0
370
    -3
  6
Continuous
100
AcDbLine
 10
-464.557368
 20
-90.33838
 30
0.0
 11
-440.557368
 21
-90.33838
 31
0.0
  0
LINE
  5
235
100
AcDbEntity
  8
0
370
    -3
  6
Continuous
100
AcDbLine
 10
-442.557368
 20
-73.866244
 30
0.0
 11
-442.557368
 21
-67.663977
 31
0.0
  0
LINE
  5
236
100
AcDbEntity
  8
0
370
    -3
  6
Continuous
100
AcDbLine
 10
-451.018797
 20
-65.33838
 30
0.0
 11
-445.557368
 21
-65.33838
 31
0.0
  0
LINE
  5
237
100
AcDbEntity
  8
0
370
    -3
  6
Continuous
100
AcDbLine
 10
-478.866843
 20
-89.33838
 30
0.0
 11
-465.557368
 21
-89.33838
 31
0.0
  0
LINE
  5
238
100
AcDbEntity
  8
0
370
    -3
  6
Continuous
100
AcDbLine
 10
-513.057368
 20
-88.33838
 30
0.0
 11
-479.671746
 21
-88.33838
 31
0.0
  0
LINE
  5
239
100
AcDbEntity
  8
0
370
    -3
  6
Continuous
100
AcDbLine
 10
-567.976812
 20
-75.33838
 30
0.0
 11
-582.557368
 21
-75.33838
 31
0.0
  0
LINE
  5
23A
100
AcDbEntity
  8
0
370
    -3
  6
CENTER
100
AcDbLine
 10
-575.579624
 20
-93.918884
 30
0.0
 11
-575.579624
 21
-74.396536
 31
0.0
  0
LINE
  5
23B
100
AcDbEntity
  8
0
370
    -3
  6
Continuous
100
AcDbLine
 10
-585.557368
 20
-90.33838
 30
0.0
 11
-585.557368
 21
-78.33838
 31
0.0
  0
LINE
  5
23C
100
AcDbEntity
  8
0
370
    -3
  6
Continuous
100
AcDbLine
 10
-561.557368
 20
-90.33838
 30
0.0
 11
-561.557368
 21
-81.742343
 31
0.0
  0
LINE
  5
23D
100
AcDbEntity
  8
0
370
    -3
  6
Continuous
100
AcDbLine
 10
-572.559975
 20
-66.735603
 30
0.0
 11
-570.207519
 21
-70.457732
 31
0.0
  0
LINE
  5
23E
100
AcDbEntity
  8
0
370
    -3
  6
Continuous
100
AcDbLine
 10
-561.557368
 20
-90.33838
 30
0.0
 11
-585.557368
 21
-90.33838
 31
0.0
  0
LINE
  5
23F
100
AcDbEntity
  8
0
370
    -3
  6
Continuous
100
AcDbLine
 10
-575.095938
 20
-65.33838
 30
0.0
 11
-580.557368
 21
-65.33838
 31
0.0
  0
LINE
  5
240
100
AcDbEntity
  8
0
370
    -3
  6
Continuous
100
AcDbLine
 10
-547.247893
 20
-89.33838
 30
0.0
 11
-560.557368
 21
-89.33838
 31
0.0
  0
LINE
  5
241
100
AcDbEntity
  8
0
370
    -3
  6
Continuous
100
AcDbLine
 10
-582.010577
 20
-48.039068
 30
0.0
 11
-568.516878
 21
-69.389214
 31
0.0
  0
LINE
  5
242
100
AcDbEntity
  8
0
370
    -3
  6
Continuous
100
AcDbLine
 10
-450.371227
 20
-57.955017
 30
0.0
 11
-457.597858
 21
-69.389214
 31
0.0
  0
LINE
  5
243
100
AcDbEntity
  8
0
370
    -3
  6
Continuous
100
AcDbLine
 10
-513.057368
 20
-88.33838
 30
0.0
 11
-546.442989
 21
-88.33838
 31
0.0
  0
LINE
  5
244
100
AcDbEntity
  8
0
370
    -3
  6
Continuous
100
AcDbLine
 10
-583.557368
 20
-73.866244
 30
0.0
 11
-583.557368
 21
-9.939253
 31
0.0
  0
LINE
  5
245
100
AcDbEntity
  8
0
370
    -3
  6
Continuous
100
AcDbLine
 10
-464.557368
 20
-89.83838
 30
0.0
 11
-440.557368
 21
-89.83838
 31
0.0
  0
LINE
  5
246
100
AcDbEntity
  8
0
370
    -3
  6
Continuous
100
AcDbLine
 10
-561.557368
 20
-89.83838
 30
0.0
 11
-585.557368
 21
-89.83838
 31
0.0
  0
LINE
  5
247
100
AcDbEntity
  8
0
370
    -3
  6
CENTER
100
AcDbLine
 10
-519.062102
 20
-5.33838
 30
0.0
 11
-505.522312
 21
-5.33838
 31
0.0
  0
ARC
  5
248
100
AcDbEntity
  8
0
370
    -3
  6
Continuous
100
AcDbCircle
 10
-513.057368
 20
-359.33838
 30
0.0
 40
400.0
100
AcDbArc
 50
86.642183
 51
90.0
  0
LINE
  5
249
100
AcDbEntity
  8
0
370
    -3
  6
CENTER
100
AcDbLine
 10
-513.057368
 20
44.059601
 30
0.0
 11
-513.057368
 21
-93.250548
 31
0.0
  0
LINE
  5
24A
100
AcDbEntity
  8
0
370
    -3
  6
Continuous
100
AcDbLine
 10
-583.557368
 20
-42.696479
 30
0.0
 11
-583.557368
 21
-9.939253
 31
0.0
  0
ARC
  5
24B
100
AcDbEntity
  8
0
370
    -3
  6
Continuous
100
AcDbCircle
 10
-513.057368
 20
-359.33838
 30
0.0
 40
400.0
100
AcDbArc
 50
90.0
 51
93.357817
  0
ARC
  5
24C
100
AcDbEntity
  8
0
370
    -3
  6
Continuous
100
AcDbCircle
 10
-533.557368
 20
-9.939253
 30
0.0
 40
50.0
100
AcDbArc
 50
93.357817
 51
180.0
  0
LINE
  5
24D
100
AcDbEntity
  8
0
370
    -3
  6
Continuous
100
AcDbLine
 10
-575.057368
 20
-14.33838
 30
0.0
 11
-571.906316
 21
-14.33838
 31
0.0
  0
ARC
  5
24E
100
AcDbEntity
  8
0
370
    -3
  6
Continuous
100
AcDbCircle
 10
-575.057368
 20
-6.33838
 30
0.0
 40
8.0
100
AcDbArc
 50
90.0
 51
270.0
  0
LINE
  5
24F
100
AcDbEntity
  8
0
370
    -3
  6
Continuous
100
AcDbLine
 10
-575.057368
 20
1.66162
 30
0.0
 11
-570.157336
 21
1.66162
 31
0.0
  0
ARC
  5
250
100
AcDbEntity
  8
0
370
    -3
  6
Continuous
100
AcDbCircle
 10
-479.057368
 20
30.66162
 30
0.0
 40
6.25
100
AcDbArc
 50
180.0
 51
208.862789
  0
LINE
  5
251
100
AcDbEntity
  8
0
370
    -3
  6
Continuous
100
AcDbLine
 10
-472.807368
 20
30.66162
 30
0.0
 11
-472.807368
 21
34.450357
 31
0.0
  0
LINE
  5
252
100
AcDbEntity
  8
0
370
    -3
  6
Continuous
100
AcDbLine
 10
-485.307368
 20
30.66162
 30
0.0
 11
-485.307368
 21
38.660515
 31
0.0
  0
ARC
  5
253
100
AcDbEntity
  8
0
370
    -3
  6
Continuous
100
AcDbCircle
 10
-486.307368
 20
38.660515
 30
0.0
 40
1.0
100
AcDbArc
 50
0.0
 51
82.671902
  0
ARC
  5
254
100
AcDbEntity
  8
0
370
    -3
  6
Continuous
100
AcDbCircle
 10
-471.807368
 20
34.450357
 30
0.0
 40
1.0
100
AcDbArc
 50
64.946181
 51
180.0
  0
ARC
  5
255
100
AcDbEntity
  8
0
370
    -3
  6
Continuous
100
AcDbCircle
 10
-547.057368
 20
30.66162
 30
0.0
 40
6.25
100
AcDbArc
 50
180.0
 51
230.173109
  0
ARC
  5
256
100
AcDbEntity
  8
0
370
    -3
  6
Continuous
100
AcDbCircle
 10
-554.307368
 20
34.450357
 30
0.0
 40
1.0
100
AcDbArc
 50
0.0
 51
115.053819
  0
LINE
  5
257
100
AcDbEntity
  8
0
370
    -3
  6
Continuous
100
AcDbLine
 10
-553.307368
 20
30.66162
 30
0.0
 11
-553.307368
 21
34.450357
 31
0.0
  0
ARC
  5
258
100
AcDbEntity
  8
0
370
    -3
  6
Continuous
100
AcDbCircle
 10
-539.807368
 20
38.660515
 30
0.0
 40
1.0
100
AcDbArc
 50
97.328098
 51
180.0
  0
LINE
  5
259
100
AcDbEntity
  8
0
370
    -3
  6
Continuous
100
AcDbLine
 10
-540.807368
 20
30.66162
 30
0.0
 11
-540.807368
 21
38.660515
 31
0.0
  0
ARC
  5
25A
100
AcDbEntity
  8
0
370
    -3
  6
Continuous
100
AcDbCircle
 10
-577.057368
 20
-27.33838
 30
0.0
 40
6.25
100
AcDbArc
 50
270.0
 51
323.753248
  0
LINE
  5
25B
100
AcDbEntity
  8
0
370
    -3
  6
Continuous
100
AcDbLine
 10
-577.057368
 20
-33.58838
 30
0.0
 11
-582.557368
 21
-33.58838
 31
0.0
  0
LINE
  5
25C
100
AcDbEntity
  8
0
370
    -3
  6
Continuous
100
AcDbLine
 10
-577.057368
 20
-21.08838
 30
0.0
 11
-582.557368
 21
-21.08838
 31
0.0
  0
ARC
  5
25D
100
AcDbEntity
  8
0
370
    -3
  6
Continuous
100
AcDbCircle
 10
-582.557368
 20
-34.58838
 30
0.0
 40
1.0
100
AcDbArc
 50
90.0
 51
180.0
  0
ARC
  5
25E
100
AcDbEntity
  8
0
370
    -3
  6
Continuous
100
AcDbCircle
 10
-582.557368
 20
-20.08838
 30
0.0
 40
1.0
100
AcDbArc
 50
180.0
 51
270.0
  0
LINE
  5
25F
100
AcDbEntity
  8
0
370
    -3
  6
Continuous
100
AcDbLine
 10
-582.010577
 20
-48.039068
 30
0.0
 11
-568.516878
 21
-69.389214
 31
0.0
  0
ARC
  5
260
100
AcDbEntity
  8
0
370
    -3
  6
Continuous
100
AcDbCircle
 10
-533.858721
 20
-47.484598
 30
0.0
 40
41.0
100
AcDbArc
 50
212.293667
 51
227.01016
  0
ARC
  5
261
100
AcDbEntity
  8
0
370
    -3
  6
Continuous
100
AcDbCircle
 10
-565.906548
 20
-81.863905
 30
0.0
 40
6.0
100
AcDbArc
 50
351.263954
 51
47.01016
  0
ARC
  5
262
100
AcDbEntity
  8
0
370
    -3
  6
Continuous
100
AcDbCircle
 10
-553.057368
 20
-83.83838
 30
0.0
 40
7.0
100
AcDbArc
 50
171.263954
 51
231.786789
  0
ARC
  5
263
100
AcDbEntity
  8
0
370
    -3
  6
Continuous
100
AcDbCircle
 10
-553.057368
 20
-83.83838
 30
0.0
 40
8.0
100
AcDbArc
 50
316.567463
 51
325.771134
  0
LINE
  5
264
100
AcDbEntity
  8
0
370
    -3
  6
Continuous
100
AcDbLine
 10
-547.247893
 20
-89.33838
 30
0.0
 11
-557.387495
 21
-89.33838
 31
0.0
  0
ARC
  5
265
100
AcDbEntity
  8
0
370
    -3
  6
Continuous
100
AcDbCircle
 10
-473.057368
 20
-83.83838
 30
0.0
 40
8.0
100
AcDbArc
 50
214.228866
 51
223.432537
  0
LINE
  5
266
100
AcDbEntity
  8
0
370
    -3
  6
Continuous
100
AcDbLine
 10
-478.866843
 20
-89.33838
 30
0.0
 11
-468.727241
 21
-89.33838
 31
0.0
  0
ARC
  5
267
100
AcDbEntity
  8
0
370
    -3
  6
Continuous
100
AcDbCircle
 10
-460.208187
 20
-81.863905
 30
0.0
 40
6.0
100
AcDbArc
 50
132.98984
 51
188.736046
  0
ARC
  5
268
100
AcDbEntity
  8
0
370
    -3
  6
Continuous
100
AcDbCircle
 10
-492.256014
 20
-47.484598
 30
0.0
 40
41.0
100
AcDbArc
 50
313.090534
 51
327.706333
  0
ARC
  5
269
100
AcDbEntity
  8
0
370
    -3
  6
Continuous
100
AcDbCircle
 10
-573.557368
 20
-42.696479
 30
0.0
 40
10.0
100
AcDbArc
 50
180.0
 51
212.293667
  0
ARC
  5
26A
100
AcDbEntity
  8
0
370
    -3
  6
Continuous
100
AcDbCircle
 10
-473.057368
 20
-83.83838
 30
0.0
 40
7.0
100
AcDbArc
 50
308.213211
 51
8.736046
  0
ARC
  5
26B
100
AcDbEntity
  8
0
370
    -3
  6
Continuous
100
AcDbCircle
 10
-466.940483
 20
-79.946566
 30
0.0
 40
1.0
100
AcDbArc
 50
212.4662
 51
344.103191
  0
ARC
  5
26C
100
AcDbEntity
  8
0
370
    -3
  6
Continuous
100
AcDbCircle
 10
-473.057368
 20
-83.83838
 30
0.0
 40
6.25
100
AcDbArc
 50
32.4662
 51
208.865727
  0
ARC
  5
26D
100
AcDbEntity
  8
0
370
    -3
  6
Continuous
100
AcDbCircle
 10
-479.40658
 20
-87.33838
 30
0.0
 40
1.0
100
AcDbArc
 50
270.0
 51
28.865727
  0
LINE
  5
26E
100
AcDbEntity
  8
0
370
    -3
  6
Continuous
100
AcDbLine
 10
-513.057368
 20
-88.33838
 30
0.0
 11
-479.40658
 21
-88.33838
 31
0.0
  0
ARC
  5
26F
100
AcDbEntity
  8
0
370
    -3
  6
Continuous
100
AcDbCircle
 10
-559.174252
 20
-79.946566
 30
0.0
 40
1.0
100
AcDbArc
 50
195.896809
 51
327.5338
  0
ARC
  5
270
100
AcDbEntity
  8
0
370
    -3
  6
Continuous
100
AcDbCircle
 10
-553.057368
 20
-83.83838
 30
0.0
 40
6.25
100
AcDbArc
 50
331.134273
 51
147.5338
  0
ARC
  5
271
100
AcDbEntity
  8
0
370
    -3
  6
Continuous
100
AcDbCircle
 10
-546.708155
 20
-87.33838
 30
0.0
 40
1.0
100
AcDbArc
 50
151.134273
 51
270.0
  0
LINE
  5
272
100
AcDbEntity
  8
0
370
    -3
  6
Continuous
100
AcDbLine
 10
-513.057368
 20
-88.33838
 30
0.0
 11
-546.708155
 21
-88.33838
 31
0.0
  0
LINE
  5
273
100
AcDbEntity
  8
0
370
    -3
  6
Continuous
100
AcDbLine
 10
-470.557368
 20
-85.281754
 30
0.0
 11
-473.057373
 21
-86.725128
 31
0.0
  0
LINE
  5
274
100
AcDbEntity
  8
0
370
    -3
  6
Continuous
100
AcDbLine
 10
-473.057363
 20
-80.951632
 30
0.0
 11
-475.557368
 21
-82.395003
 31
0.0
  0
LINE
  5
275
100
AcDbEntity
  8
0
370
    -3
  6
Continuous
100
AcDbLine
 10
-473.057373
 20
-86.725127
 30
0.0
 11
-475.557365
 21
-85.281752
 31
0.0
  0
LINE
  5
276
100
AcDbEntity
  8
0
370
    -3
  6
Continuous
100
AcDbLine
 10
-473.057363
 20
-80.951632
 30
0.0
 11
-470.557369
 21
-82.395008
 31
0.0
  0
LINE
  5
277
100
AcDbEntity
  8
0
370
    -3
  6
Continuous
100
AcDbLine
 10
-470.55737
 20
-82.395009
 30
0.0
 11
-470.557369
 21
-85.281754
 31
0.0
  0
LINE
  5
278
100
AcDbEntity
  8
0
370
    -3
  6
Continuous
100
AcDbLine
 10
-475.557365
 20
-85.281752
 30
0.0
 11
-475.557366
 21
-82.395003
 31
0.0
  0
CIRCLE
  5
279
100
AcDbEntity
  8
0
370
    -3
  6
Continuous
100
AcDbCircle
 10
-473.057368
 20
-83.83838
 30
0.0
 40
5.0
  0
LINE
  5
27A
100
AcDbEntity
  8
0
370
    -3
  6
Continuous
100
AcDbLine
 10
-555.557367
 20
-85.281754
 30
0.0
 11
-553.057363
 21
-86.725128
 31
0.0
  0
LINE
  5
27B
100
AcDbEntity
  8
0
370
    -3
  6
Continuous
100
AcDbLine
 10
-553.057372
 20
-80.951632
 30
0.0
 11
-550.557368
 21
-82.395003
 31
0.0
  0
LINE
  5
27C
100
AcDbEntity
  8
0
370
    -3
  6
Continuous
100
AcDbLine
 10
-553.057362
 20
-86.725127
 30
0.0
 11
-550.55737
 21
-85.281752
 31
0.0
  0
LINE
  5
27D
100
AcDbEntity
  8
0
370
    -3
  6
Continuous
100
AcDbLine
 10
-553.057372
 20
-80.951632
 30
0.0
 11
-555.557366
 21
-82.395008
 31
0.0
  0
LINE
  5
27E
100
AcDbEntity
  8
0
370
    -3
  6
Continuous
100
AcDbLine
 10
-555.557365
 20
-82.395009
 30
0.0
 11
-555.557366
 21
-85.281754
 31
0.0
  0
LINE
  5
27F
100
AcDbEntity
  8
0
370
    -3
  6
Continuous
100
AcDbLine
 10
-550.55737
 20
-85.281752
 30
0.0
 11
-550.557369
 21
-82.395003
 31
0.0
  0
CIRCLE
  5
280
100
AcDbEntity
  8
0
370
    -3
  6
Continuous
100
AcDbCircle
 10
-553.057368
 20
-83.83838
 30
0.0
 40
5.0
  0
LINE
  5
281
100
AcDbEntity
  8
0
370
    -3
  6
Continuous
100
AcDbLine
 10
-579.557367
 20
-28.781754
 30
0.0
 11
-577.057363
 21
-30.225128
 31
0.0
  0
LINE
  5
282
100
AcDbEntity
  8
0
370
    -3
  6
Continuous
100
AcDbLine
 10
-577.057372
 20
-24.451632
 30
0.0
 11
-574.557368
 21
-25.895003
 31
0.0
  0
LINE
  5
283
100
AcDbEntity
  8
0
370
    -3
  6
Continuous
100
AcDbLine
 10
-577.057362
 20
-30.225127
 30
0.0
 11
-574.55737
 21
-28.781752
 31
0.0
  0
LINE
  5
284
100
AcDbEntity
  8
0
370
    -3
  6
Continuous
100
AcDbLine
 10
-577.057372
 20
-24.451632
 30
0.0
 11
-579.557366
 21
-25.895008
 31
0.0
  0
LINE
  5
285
100
AcDbEntity
  8
0
370
    -3
  6
Continuous
100
AcDbLine
 10
-579.557365
 20
-25.895009
 30
0.0
 11
-579.557366
 21
-28.781754
 31
0.0
  0
LINE
  5
286
100
AcDbEntity
  8
0
370
    -3
  6
Continuous
100
AcDbLine
 10
-574.55737
 20
-28.781752
 30
0.0
 11
-574.557369
 21
-25.895003
 31
0.0
  0
CIRCLE
  5
287
100
AcDbEntity
  8
0
370
    -3
  6
Continuous
100
AcDbCircle
 10
-577.057368
 20
-27.33838
 30
0.0
 40
5.0
  0
LINE
  5
288
100
AcDbEntity
  8
0
370
    -3
  6
Continuous
100
AcDbLine
 10
-549.557367
 20
29.218246
 30
0.0
 11
-547.057363
 21
27.774872
 31
0.0
  0
LINE
  5
289
100
AcDbEntity
  8
0
370
    -3
  6
Continuous
100
AcDbLine
 10
-547.057372
 20
33.548368
 30
0.0
 11
-544.557368
 21
32.104997
 31
0.0
  0
LINE
  5
28A
100
AcDbEntity
  8
0
370
    -3
  6
Continuous
100
AcDbLine
 10
-547.057362
 20
27.774873
 30
0.0
 11
-544.55737
 21
29.218248
 31
0.0
  0
LINE
  5
28B
100
AcDbEntity
  8
0
370
    -3
  6
Continuous
100
AcDbLine
 10
-547.057372
 20
33.548368
 30
0.0
 11
-549.557366
 21
32.104992
 31
0.0
  0
LINE
  5
28C
100
AcDbEntity
  8
0
370
    -3
  6
Continuous
100
AcDbLine
 10
-549.557365
 20
32.104991
 30
0.0
 11
-549.557366
 21
29.218246
 31
0.0
  0
LINE
  5
28D
100
AcDbEntity
  8
0
370
    -3
  6
Continuous
100
AcDbLine
 10
-544.55737
 20
29.218248
 30
0.0
 11
-544.557369
 21
32.104997
 31
0.0
  0
ARC
  5
28E
100
AcDbEntity
  8
0
370
    -3
  6
Continuous
100
AcDbCircle
 10
-547.057368
 20
30.66162
 30
0.0
 40
5.0
100
AcDbArc
 50
321.205522
 51
238.638185
  0
LINE
  5
28F
100
AcDbEntity
  8
0
370
    -3
  6
Continuous
100
AcDbLine
 10
-476.557368
 20
29.218246
 30
0.0
 11
-479.057373
 21
27.774872
 31
0.0
  0
LINE
  5
290
100
AcDbEntity
  8
0
370
    -3
  6
Continuous
100
AcDbLine
 10
-479.057363
 20
33.548368
 30
0.0
 11
-481.557368
 21
32.104997
 31
0.0
  0
LINE
  5
291
100
AcDbEntity
  8
0
370
    -3
  6
Continuous
100
AcDbLine
 10
-479.057373
 20
27.774873
 30
0.0
 11
-481.557365
 21
29.218248
 31
0.0
  0
LINE
  5
292
100
AcDbEntity
  8
0
370
    -3
  6
Continuous
100
AcDbLine
 10
-479.057363
 20
33.548368
 30
0.0
 11
-476.557369
 21
32.104992
 31
0.0
  0
LINE
  5
293
100
AcDbEntity
  8
0
370
    -3
  6
Continuous
100
AcDbLine
 10
-476.55737
 20
32.104991
 30
0.0
 11
-476.557369
 21
29.218246
 31
0.0
  0
LINE
  5
294
100
AcDbEntity
  8
0
370
    -3
  6
Continuous
100
AcDbLine
 10
-481.557365
 20
29.218248
 30
0.0
 11
-481.557366
 21
32.104997
 31
0.0
  0
ARC
  5
295
100
AcDbEntity
  8
0
370
    -3
  6
Continuous
100
AcDbCircle
 10
-479.057368
 20
30.66162
 30
0.0
 40
5.0
100
AcDbArc
 50
301.361815
 51
218.794478
  0
LINE
  5
296
100
AcDbEntity
  8
0
370
    -3
  6
Continuous
100
AcDbLine
 10
-562.059867
 20
-67.694077
 30
0.0
 11
-562.546671
 21
-68.18088
 31
0.0
  0
LINE
  5
297
100
AcDbEntity
  8
0
370
    -3
  6
Continuous
100
AcDbLine
 10
-555.413064
 20
-74.34088
 30
0.0
 11
-555.899867
 21
-74.827683
 31
0.0
  0
LINE
  5
298
100
AcDbEntity
  8
0
370
    -3
  6
Continuous
100
AcDbLine
 10
-562.373006
 20
-67.946624
 30
0.0
 11
-555.695907
 21
-74.623723
 31
0.0
  0
LINE
  5
299
100
AcDbEntity
  8
0
370
    -3
  6
Continuous
100
AcDbLine
 10
-562.059867
 20
-67.694077
 30
0.0
 11
-555.413064
 21
-74.34088
 31
0.0
  0
POINT
  5
29A
100
AcDbEntity
  8
0
370
    -3
  6
Continuous
100
AcDbPoint
 10
-558.736466
 20
-71.017478
 30
0.0
  0
ARC
  5
29B
100
AcDbEntity
  8
0
370
    -3
  6
Continuous
100
AcDbCircle
 10
-556.473724
 20
-68.754737
 30
0.0
 40
6.099999
100
AcDbArc
 50
174.601911
 51
275.398072
  0
LINE
  5
29C
100
AcDbEntity
  8
0
370
    -3
  6
Continuous
100
AcDbLine
 10
-470.701671
 20
-74.34088
 30
0.0
 11
-470.214868
 21
-74.827683
 31
0.0
  0
LINE
  5
29D
100
AcDbEntity
  8
0
370
    -3
  6
Continuous
100
AcDbLine
 10
-464.054868
 20
-67.694077
 30
0.0
 11
-463.568064
 21
-68.18088
 31
0.0
  0
LINE
  5
29E
100
AcDbEntity
  8
0
370
    -3
  6
Continuous
100
AcDbLine
 10
-463.741729
 20
-67.946624
 30
0.0
 11
-470.418828
 21
-74.623723
 31
0.0
  0
LINE
  5
29F
100
AcDbEntity
  8
0
370
    -3
  6
Continuous
100
AcDbLine
 10
-464.054868
 20
-67.694077
 30
0.0
 11
-470.701671
 21
-74.34088
 31
0.0
  0
POINT
  5
2A0
100
AcDbEntity
  8
0
370
    -3
  6
Continuous
100
AcDbPoint
 10
-467.37827
 20
-71.017478
 30
0.0
  0
ARC
  5
2A1
100
AcDbEntity
  8
0
370
    -3
  6
Continuous
100
AcDbCircle
 10
-469.641011
 20
-68.754737
 30
0.0
 40
6.099999
100
AcDbArc
 50
264.601928
 51
5.398089
  0
LINE
  5
2A2
100
AcDbEntity
  8
0
370
    -3
  6
Continuous
100
AcDbLine
 10
-464.054868
 20
17.017316
 30
0.0
 11
-463.568064
 21
17.504119
 31
0.0
  0
LINE
  5
2A3
100
AcDbEntity
  8
0
370
    -3
  6
Continuous
100
AcDbLine
 10
-470.701671
 20
23.66412
 30
0.0
 11
-470.214868
 21
24.150923
 31
0.0
  0
LINE
  5
2A4
100
AcDbEntity
  8
0
370
    -3
  6
Continuous
100
AcDbLine
 10
-463.741729
 20
17.269863
 30
0.0
 11
-470.418828
 21
23.946962
 31
0.0
  0
LINE
  5
2A5
100
AcDbEntity
  8
0
370
    -3
  6
Continuous
100
AcDbLine
 10
-464.054868
 20
17.017316
 30
0.0
 11
-470.701671
 21
23.66412
 31
0.0
  0
POINT
  5
2A6
100
AcDbEntity
  8
0
370
    -3
  6
Continuous
100
AcDbPoint
 10
-467.37827
 20
20.340718
 30
0.0
  0
ARC
  5
2A7
100
AcDbEntity
  8
0
370
    -3
  6
Continuous
100
AcDbCircle
 10
-469.641011
 20
18.077976
 30
0.0
 40
6.099999
100
AcDbArc
 50
354.601911
 51
95.398072
  0
LINE
  5
2A8
100
AcDbEntity
  8
0
370
    -3
  6
Continuous
100
AcDbLine
 10
-555.413064
 20
23.66412
 30
0.0
 11
-555.899867
 21
24.150923
 31
0.0
  0
LINE
  5
2A9
100
AcDbEntity
  8
0
370
    -3
  6
Continuous
100
AcDbLine
 10
-562.059867
 20
17.017316
 30
0.0
 11
-562.546671
 21
17.504119
 31
0.0
  0
LINE
  5
2AA
100
AcDbEntity
  8
0
370
    -3
  6
Continuous
100
AcDbLine
 10
-562.373006
 20
17.269863
 30
0.0
 11
-555.695907
 21
23.946962
 31
0.0
  0
LINE
  5
2AB
100
AcDbEntity
  8
0
370
    -3
  6
Continuous
100
AcDbLine
 10
-562.059867
 20
17.017316
 30
0.0
 11
-555.413064
 21
23.66412
 31
0.0
  0
POINT
  5
2AC
100
AcDbEntity
  8
0
370
    -3
  6
Continuous
100
AcDbPoint
 10
-558.736466
 20
20.340718
 30
0.0
  0
ARC
  5
2AD
100
AcDbEntity
  8
0
370
    -3
  6
Continuous
100
AcDbCircle
 10
-556.473724
 20
18.077976
 30
0.0
 40
6.099999
100
AcDbArc
 50
84.601928
 51
185.398089
  0
ARC
  5
2AE
100
AcDbEntity
  8
0
370
    -3
  6
Continuous
100
AcDbCircle
 10
-513.057368
 20
-371.93838
 30
0.0
 40
390.797
100
AcDbArc
 50
85.470807
 51
90.0
  0
ARC
  5
2AF
100
AcDbEntity
  8
0
370
    -3
  6
Continuous
100
AcDbCircle
 10
-483.044924
 20
6.874573
 30
0.0
 40
10.797
100
AcDbArc
 50
45.0
 51
85.470055
  0
LINE
  5
2B0
100
AcDbEntity
  8
0
370
    -3
  6
Continuous
100
AcDbLine
 10
-473.231546
 20
12.330459
 30
0.0
 11
-475.410292
 21
14.509204
 31
0.0
  0
ARC
  5
2B1
100
AcDbEntity
  8
0
370
    -3
  6
Continuous
100
AcDbCircle
 10
-495.008314
 20
-9.446309
 30
0.0
 40
30.797
100
AcDbArc
 50
2.530124
 51
45.0
  0
ARC
  5
2B2
100
AcDbEntity
  8
0
370
    -3
  6
Continuous
100
AcDbCircle
 10
-854.657368
 20
-25.33838
 30
0.0
 40
390.797
100
AcDbArc
 50
360.0
 51
2.529361
  0
ARC
  5
2B3
100
AcDbEntity
  8
0
370
    -3
  6
Continuous
100
AcDbCircle
 10
-854.657368
 20
-25.33838
 30
0.0
 40
390.797
100
AcDbArc
 50
357.470639
 51
0.0
  0
ARC
  5
2B4
100
AcDbEntity
  8
0
370
    -3
  6
Continuous
100
AcDbCircle
 10
-495.008314
 20
-41.230452
 30
0.0
 40
30.797
100
AcDbArc
 50
315.0
 51
357.469876
  0
LINE
  5
2B5
100
AcDbEntity
  8
0
370
    -3
  6
Continuous
100
AcDbLine
 10
-473.231546
 20
-63.007219
 30
0.0
 11
-475.410292
 21
-65.185965
 31
0.0
  0
ARC
  5
2B6
100
AcDbEntity
  8
0
370
    -3
  6
Continuous
100
AcDbCircle
 10
-483.044924
 20
-57.551333
 30
0.0
 40
10.797
100
AcDbArc
 50
274.529945
 51
315.0
  0
ARC
  5
2B7
100
AcDbEntity
  8
0
370
    -3
  6
Continuous
100
AcDbCircle
 10
-513.057368
 20
321.26162
 30
0.0
 40
390.797
100
AcDbArc
 50
270.0
 51
274.529193
  0
ARC
  5
2B8
100
AcDbEntity
  8
0
370
    -3
  6
Continuous
100
AcDbCircle
 10
-509.557368
 20
-7.681937
 30
0.0
 40
1.0
100
AcDbArc
 50
180.0
 51
258.787729
  0
LINE
  5
2B9
100
AcDbEntity
  8
0
370
    -3
  6
Continuous
100
AcDbLine
 10
-510.557368
 20
-4.632101
 30
0.0
 11
-510.557368
 21
-7.681937
 31
0.0
  0
ARC
  5
2BA
100
AcDbEntity
  8
0
370
    -3
  6
Continuous
100
AcDbCircle
 10
-509.557368
 20
-4.632101
 30
0.0
 40
1.0
100
AcDbArc
 50
80.405932
 51
180.0
  0
ARC
  5
2BB
100
AcDbEntity
  8
0
370
    -3
  6
Continuous
100
AcDbCircle
 10
-509.557368
 20
0.929471
 30
0.0
 40
1.0
100
AcDbArc
 50
180.0
 51
262.410458
  0
LINE
  5
2BC
100
AcDbEntity
  8
0
370
    -3
  6
Continuous
100
AcDbLine
 10
-510.557368
 20
3.953257
 30
0.0
 11
-510.557368
 21
0.929471
 31
0.0
  0
ARC
  5
2BD
100
AcDbEntity
  8
0
370
    -3
  6
Continuous
100
AcDbCircle
 10
-509.557368
 20
3.953257
 30
0.0
 40
1.0
100
AcDbArc
 50
83.186146
 51
180.0
  0
ARC
  5
2BE
100
AcDbEntity
  8
0
370
    -3
  6
Continuous
100
AcDbCircle
 10
-509.557368
 20
9.48618
 30
0.0
 40
1.0
100
AcDbArc
 50
180.0
 51
264.26083
  0
LINE
  5
2BF
100
AcDbEntity
  8
0
370
    -3
  6
Continuous
100
AcDbLine
 10
-510.557368
 20
12.500092
 30
0.0
 11
-510.557368
 21
9.48618
 31
0.0
  0
ARC
  5
2C0
100
AcDbEntity
  8
0
370
    -3
  6
Continuous
100
AcDbCircle
 10
-509.557368
 20
12.500092
 30
0.0
 40
1.0
100
AcDbArc
 50
84.715267
 51
180.0
  0
ARC
  5
2C1
100
AcDbEntity
  8
0
370
    -3
  6
Continuous
100
AcDbCircle
 10
-489.440066
 20
-7.661473
 30
0.0
 40
1.0
100
AcDbArc
 50
300.0
 51
36.813854
  0
LINE
  5
2C2
100
AcDbEntity
  8
0
370
    -3
  6
Continuous
100
AcDbLine
 10
-488.940066
 20
-8.527498
 30
0.0
 11
-491.558741
 21
-10.039391
 31
0.0
  0
ARC
  5
2C3
100
AcDbEntity
  8
0
370
    -3
  6
Continuous
100
AcDbCircle
 10
-492.058741
 20
-9.173366
 30
0.0
 40
1.0
100
AcDbArc
 50
217.589542
 51
300.0
  0
ARC
  5
2C4
100
AcDbEntity
  8
0
370
    -3
  6
Continuous
100
AcDbCircle
 10
-482.038289
 20
-3.388055
 30
0.0
 40
1.0
100
AcDbArc
 50
300.0
 51
35.284733
  0
LINE
  5
2C5
100
AcDbEntity
  8
0
370
    -3
  6
Continuous
100
AcDbLine
 10
-481.538289
 20
-4.25408
 30
0.0
 11
-484.148414
 21
-5.761037
 31
0.0
  0
ARC
  5
2C6
100
AcDbEntity
  8
0
370
    -3
  6
Continuous
100
AcDbCircle
 10
-484.648414
 20
-4.895011
 30
0.0
 40
1.0
100
AcDbArc
 50
215.73917
 51
300.0
  0
ARC
  5
2C7
100
AcDbEntity
  8
0
370
    -3
  6
Continuous
100
AcDbCircle
 10
-507.158838
 20
-17.891411
 30
0.0
 40
1.0
100
AcDbArc
 50
231.618272
 51
300.0
  0
LINE
  5
2C8
100
AcDbEntity
  8
0
370
    -3
  6
Continuous
100
AcDbLine
 10
-503.915063
 20
-17.173317
 30
0.0
 11
-506.658838
 21
-18.757436
 31
0.0
  0
ARC
  5
2C9
100
AcDbEntity
  8
0
370
    -3
  6
Continuous
100
AcDbCircle
 10
-499.516439
 20
-13.47907
 30
0.0
 40
1.0
100
AcDbArc
 50
221.212271
 51
300.0
  0
LINE
  5
2CA
100
AcDbEntity
  8
0
370
    -3
  6
Continuous
100
AcDbLine
 10
-496.375204
 20
-12.820177
 30
0.0
 11
-499.016439
 21
-14.345095
 31
0.0
  0
ARC
  5
2CB
100
AcDbEntity
  8
0
370
    -3
  6
Continuous
100
AcDbCircle
 10
-496.875204
 20
-11.954152
 30
0.0
 40
1.0
100
AcDbArc
 50
300.0
 51
39.594068
  0
ARC
  5
2CC
100
AcDbEntity
  8
0
370
    -3
  6
Continuous
100
AcDbCircle
 10
-509.557368
 20
-16.506619
 30
0.0
 40
1.0
100
AcDbArc
 50
180.0
 51
248.381728
  0
ARC
  5
2CD
100
AcDbEntity
  8
0
370
    -3
  6
Continuous
100
AcDbCircle
 10
-513.057368
 20
-25.33838
 30
0.0
 40
8.5
100
AcDbArc
 50
51.618272
 51
68.381728
  0
ARC
  5
2CE
100
AcDbEntity
  8
0
370
    -3
  6
Continuous
100
AcDbCircle
 10
-504.415063
 20
-16.307291
 30
0.0
 40
1.0
100
AcDbArc
 50
300.0
 51
46.260205
  0
LINE
  5
2CF
100
AcDbEntity
  8
0
370
    -3
  6
Continuous
100
AcDbLine
 10
-510.557368
 20
-13.33838
 30
0.0
 11
-510.557368
 21
-16.506619
 31
0.0
  0
ARC
  5
2D0
100
AcDbEntity
  8
0
370
    -3
  6
Continuous
100
AcDbCircle
 10
-509.557368
 20
-13.33838
 30
0.0
 40
1.0
100
AcDbArc
 50
73.739795
 51
180.0
  0
ARC
  5
2D1
100
AcDbEntity
  8
0
370
    -3
  6
Continuous
100
AcDbCircle
 10
-513.057368
 20
-25.33838
 30
0.0
 40
13.5
100
AcDbArc
 50
46.260205
 51
73.739795
  0
ARC
  5
2D2
100
AcDbEntity
  8
0
370
    -3
  6
Continuous
100
AcDbCircle
 10
-513.057368
 20
-25.33838
 30
0.0
 40
17.0
100
AcDbArc
 50
41.212271
 51
78.787729
  0
ARC
  5
2D3
100
AcDbEntity
  8
0
370
    -3
  6
Continuous
100
AcDbCircle
 10
-513.057368
 20
-25.33838
 30
0.0
 40
22.0
100
AcDbArc
 50
39.594068
 51
80.405932
  0
ARC
  5
2D4
100
AcDbEntity
  8
0
370
    -3
  6
Continuous
100
AcDbCircle
 10
-513.057368
 20
-25.33838
 30
0.0
 40
30.5
100
AcDbArc
 50
36.813854
 51
83.186146
  0
ARC
  5
2D5
100
AcDbEntity
  8
0
370
    -3
  6
Continuous
100
AcDbCircle
 10
-513.057368
 20
-25.33838
 30
0.0
 40
25.5
100
AcDbArc
 50
37.589542
 51
82.410458
  0
ARC
  5
2D6
100
AcDbEntity
  8
0
370
    -3
  6
Continuous
100
AcDbCircle
 10
-513.057368
 20
-25.33838
 30
0.0
 40
34.0
100
AcDbArc
 50
35.73917
 51
84.26083
  0
ARC
  5
2D7
100
AcDbEntity
  8
0
370
    -3
  6
Continuous
100
AcDbCircle
 10
-513.057368
 20
-25.33838
 30
0.0
 40
39.0
100
AcDbArc
 50
35.284733
 51
84.715267
  0
ARC
  5
2D8
100
AcDbEntity
  8
0
370
    -3
  6
Continuous
100
AcDbCircle
 10
-485.940066
 20
-13.723651
 30
0.0
 40
1.0
100
AcDbArc
 50
23.186146
 51
120.0
  0
LINE
  5
2D9
100
AcDbEntity
  8
0
370
    -3
  6
Continuous
100
AcDbLine
 10
-486.440066
 20
-12.857625
 30
0.0
 11
-489.058741
 21
-14.369518
 31
0.0
  0
ARC
  5
2DA
100
AcDbEntity
  8
0
370
    -3
  6
Continuous
100
AcDbCircle
 10
-488.558741
 20
-15.235544
 30
0.0
 40
1.0
100
AcDbArc
 50
120.0
 51
202.410458
  0
ARC
  5
2DB
100
AcDbEntity
  8
0
370
    -3
  6
Continuous
100
AcDbCircle
 10
-478.538289
 20
-9.450233
 30
0.0
 40
1.0
100
AcDbArc
 50
24.715267
 51
120.0
  0
LINE
  5
2DC
100
AcDbEntity
  8
0
370
    -3
  6
Continuous
100
AcDbLine
 10
-479.038289
 20
-8.584208
 30
0.0
 11
-481.648414
 21
-10.091164
 31
0.0
  0
ARC
  5
2DD
100
AcDbEntity
  8
0
370
    -3
  6
Continuous
100
AcDbCircle
 10
-481.148414
 20
-10.957189
 30
0.0
 40
1.0
100
AcDbArc
 50
120.0
 51
204.26083
  0
ARC
  5
2DE
100
AcDbEntity
  8
0
370
    -3
  6
Continuous
100
AcDbCircle
 10
-503.658838
 20
-23.953589
 30
0.0
 40
1.0
100
AcDbArc
 50
120.0
 51
188.381728
  0
LINE
  5
2DF
100
AcDbEntity
  8
0
370
    -3
  6
Continuous
100
AcDbLine
 10
-501.415063
 20
-21.503444
 30
0.0
 11
-504.158838
 21
-23.087563
 31
0.0
  0
ARC
  5
2E0
100
AcDbEntity
  8
0
370
    -3
  6
Continuous
100
AcDbCircle
 10
-496.016439
 20
-19.541247
 30
0.0
 40
1.0
100
AcDbArc
 50
120.0
 51
198.787729
  0
LINE
  5
2E1
100
AcDbEntity
  8
0
370
    -3
  6
Continuous
100
AcDbLine
 10
-493.875204
 20
-17.150304
 30
0.0
 11
-496.516439
 21
-18.675222
 31
0.0
  0
ARC
  5
2E2
100
AcDbEntity
  8
0
370
    -3
  6
Continuous
100
AcDbCircle
 10
-493.375204
 20
-18.01633
 30
0.0
 40
1.0
100
AcDbArc
 50
20.405932
 51
120.0
  0
ARC
  5
2E3
100
AcDbEntity
  8
0
370
    -3
  6
Continuous
100
AcDbCircle
 10
-503.658838
 20
-26.723172
 30
0.0
 40
1.0
100
AcDbArc
 50
171.618272
 51
240.0
  0
ARC
  5
2E4
100
AcDbEntity
  8
0
370
    -3
  6
Continuous
100
AcDbCircle
 10
-513.057368
 20
-25.33838
 30
0.0
 40
8.5
100
AcDbArc
 50
351.618272
 51
8.381728
  0
ARC
  5
2E5
100
AcDbEntity
  8
0
370
    -3
  6
Continuous
100
AcDbCircle
 10
-500.915063
 20
-22.369469
 30
0.0
 40
1.0
100
AcDbArc
 50
13.739795
 51
120.0
  0
LINE
  5
2E6
100
AcDbEntity
  8
0
370
    -3
  6
Continuous
100
AcDbLine
 10
-501.415063
 20
-29.173317
 30
0.0
 11
-504.158838
 21
-27.589197
 31
0.0
  0
ARC
  5
2E7
100
AcDbEntity
  8
0
370
    -3
  6
Continuous
100
AcDbCircle
 10
-500.915063
 20
-28.307291
 30
0.0
 40
1.0
100
AcDbArc
 50
240.0
 51
346.260205
  0
ARC
  5
2E8
100
AcDbEntity
  8
0
370
    -3
  6
Continuous
100
AcDbCircle
 10
-513.057368
 20
-25.33838
 30
0.0
 40
13.5
100
AcDbArc
 50
346.260205
 51
13.739795
  0
ARC
  5
2E9
100
AcDbEntity
  8
0
370
    -3
  6
Continuous
100
AcDbCircle
 10
-496.016439
 20
-31.135513
 30
0.0
 40
1.0
100
AcDbArc
 50
161.212271
 51
240.0
  0
LINE
  5
2EA
100
AcDbEntity
  8
0
370
    -3
  6
Continuous
100
AcDbLine
 10
-493.875204
 20
-33.526456
 30
0.0
 11
-496.516439
 21
-32.001539
 31
0.0
  0
ARC
  5
2EB
100
AcDbEntity
  8
0
370
    -3
  6
Continuous
100
AcDbCircle
 10
-513.057368
 20
-25.33838
 30
0.0
 40
17.0
100
AcDbArc
 50
341.212271
 51
18.787729
  0
ARC
  5
2EC
100
AcDbEntity
  8
0
370
    -3
  6
Continuous
100
AcDbCircle
 10
-493.375204
 20
-32.660431
 30
0.0
 40
1.0
100
AcDbArc
 50
240.0
 51
339.594068
  0
ARC
  5
2ED
100
AcDbEntity
  8
0
370
    -3
  6
Continuous
100
AcDbCircle
 10
-488.558741
 20
-35.441217
 30
0.0
 40
1.0
100
AcDbArc
 50
157.589542
 51
240.0
  0
ARC
  5
2EE
100
AcDbEntity
  8
0
370
    -3
  6
Continuous
100
AcDbCircle
 10
-481.148414
 20
-39.719571
 30
0.0
 40
1.0
100
AcDbArc
 50
155.73917
 51
240.0
  0
ARC
  5
2EF
100
AcDbEntity
  8
0
370
    -3
  6
Continuous
100
AcDbCircle
 10
-513.057368
 20
-25.33838
 30
0.0
 40
22.0
100
AcDbArc
 50
339.594068
 51
20.405932
  0
LINE
  5
2F0
100
AcDbEntity
  8
0
370
    -3
  6
Continuous
100
AcDbLine
 10
-486.440066
 20
-37.819135
 30
0.0
 11
-489.058741
 21
-36.307242
 31
0.0
  0
ARC
  5
2F1
100
AcDbEntity
  8
0
370
    -3
  6
Continuous
100
AcDbCircle
 10
-485.940066
 20
-36.95311
 30
0.0
 40
1.0
100
AcDbArc
 50
240.0
 51
336.813854
  0
ARC
  5
2F2
100
AcDbEntity
  8
0
370
    -3
  6
Continuous
100
AcDbCircle
 10
-513.057368
 20
-25.33838
 30
0.0
 40
30.5
100
AcDbArc
 50
336.813854
 51
23.186146
  0
ARC
  5
2F3
100
AcDbEntity
  8
0
370
    -3
  6
Continuous
100
AcDbCircle
 10
-513.057368
 20
-25.33838
 30
0.0
 40
25.5
100
AcDbArc
 50
337.589542
 51
22.410458
  0
ARC
  5
2F4
100
AcDbEntity
  8
0
370
    -3
  6
Continuous
100
AcDbCircle
 10
-513.057368
 20
-25.33838
 30
0.0
 40
34.0
100
AcDbArc
 50
335.73917
 51
24.26083
  0
ARC
  5
2F5
100
AcDbEntity
  8
0
370
    -3
  6
Continuous
100
AcDbCircle
 10
-513.057368
 20
-25.33838
 30
0.0
 40
39.0
100
AcDbArc
 50
335.284733
 51
24.715267
  0
LINE
  5
2F6
100
AcDbEntity
  8
0
370
    -3
  6
Continuous
100
AcDbLine
 10
-479.038289
 20
-42.092553
 30
0.0
 11
-481.648414
 21
-40.585597
 31
0.0
  0
ARC
  5
2F7
100
AcDbEntity
  8
0
370
    -3
  6
Continuous
100
AcDbCircle
 10
-478.538289
 20
-41.226528
 30
0.0
 40
1.0
100
AcDbArc
 50
240.0
 51
335.284733
  0
CIRCLE
  5
2F8
100
AcDbEntity
  8
0
370
    -3
  6
Continuous
100
AcDbCircle
 10
-513.057368
 20
-25.33838
 30
0.0
 40
5.0
  0
ARC
  5
2F9
100
AcDbEntity
  8
0
370
    -3
  6
Continuous
100
AcDbCircle
 10
-482.038289
 20
-47.288705
 30
0.0
 40
1.0
100
AcDbArc
 50
324.715267
 51
60.0
  0
ARC
  5
2FA
100
AcDbEntity
  8
0
370
    -3
  6
Continuous
100
AcDbCircle
 10
-484.648414
 20
-45.781749
 30
0.0
 40
1.0
100
AcDbArc
 50
60.0
 51
144.26083
  0
ARC
  5
2FB
100
AcDbEntity
  8
0
370
    -3
  6
Continuous
100
AcDbCircle
 10
-509.557368
 20
-60.162941
 30
0.0
 40
1.0
100
AcDbArc
 50
95.73917
 51
180.0
  0
ARC
  5
2FC
100
AcDbEntity
  8
0
370
    -3
  6
Continuous
100
AcDbCircle
 10
-509.557368
 20
-63.176853
 30
0.0
 40
1.0
100
AcDbArc
 50
180.0
 51
275.284733
  0
ARC
  5
2FD
100
AcDbEntity
  8
0
370
    -3
  6
Continuous
100
AcDbCircle
 10
-509.557368
 20
-51.606231
 30
0.0
 40
1.0
100
AcDbArc
 50
97.589542
 51
180.0
  0
ARC
  5
2FE
100
AcDbEntity
  8
0
370
    -3
  6
Continuous
100
AcDbCircle
 10
-489.440066
 20
-43.015288
 30
0.0
 40
1.0
100
AcDbArc
 50
323.186146
 51
60.0
  0
ARC
  5
2FF
100
AcDbEntity
  8
0
370
    -3
  6
Continuous
100
AcDbCircle
 10
-492.058741
 20
-41.503395
 30
0.0
 40
1.0
100
AcDbArc
 50
60.0
 51
142.410458
  0
ARC
  5
300
100
AcDbEntity
  8
0
370
    -3
  6
Continuous
100
AcDbCircle
 10
-509.557368
 20
-54.630017
 30
0.0
 40
1.0
100
AcDbArc
 50
180.0
 51
276.813854
  0
ARC
  5
301
100
AcDbEntity
  8
0
370
    -3
  6
Continuous
100
AcDbCircle
 10
-509.557368
 20
-46.044659
 30
0.0
 40
1.0
100
AcDbArc
 50
180.0
 51
279.594068
  0
ARC
  5
302
100
AcDbEntity
  8
0
370
    -3
  6
Continuous
100
AcDbCircle
 10
-509.557368
 20
-42.994824
 30
0.0
 40
1.0
100
AcDbArc
 50
101.212271
 51
180.0
  0
ARC
  5
303
100
AcDbEntity
  8
0
370
    -3
  6
Continuous
100
AcDbCircle
 10
-496.875204
 20
-38.722609
 30
0.0
 40
1.0
100
AcDbArc
 50
320.405932
 51
60.0
  0
ARC
  5
304
100
AcDbEntity
  8
0
370
    -3
  6
Continuous
100
AcDbCircle
 10
-499.516439
 20
-37.197691
 30
0.0
 40
1.0
100
AcDbArc
 50
60.0
 51
138.787729
  0
ARC
  5
305
100
AcDbEntity
  8
0
370
    -3
  6
Continuous
100
AcDbCircle
 10
-504.415063
 20
-34.369469
 30
0.0
 40
1.0
100
AcDbArc
 50
313.739795
 51
60.0
  0
ARC
  5
306
100
AcDbEntity
  8
0
370
    -3
  6
Continuous
100
AcDbCircle
 10
-509.557368
 20
-37.33838
 30
0.0
 40
1.0
100
AcDbArc
 50
180.0
 51
286.260205
  0
ARC
  5
307
100
AcDbEntity
  8
0
370
    -3
  6
Continuous
100
AcDbCircle
 10
-509.557368
 20
-34.170141
 30
0.0
 40
1.0
100
AcDbArc
 50
111.618272
 51
180.0
  0
ARC
  5
308
100
AcDbEntity
  8
0
370
    -3
  6
Continuous
100
AcDbCircle
 10
-507.158838
 20
-32.78535
 30
0.0
 40
1.0
100
AcDbArc
 50
60.0
 51
128.381728
  0
ARC
  5
309
100
AcDbEntity
  8
0
370
    -3
  6
Continuous
100
AcDbCircle
 10
-513.057368
 20
-25.33838
 30
0.0
 40
39.0
100
AcDbArc
 50
275.284733
 51
324.715267
  0
ARC
  5
30A
100
AcDbEntity
  8
0
370
    -3
  6
Continuous
100
AcDbCircle
 10
-513.057368
 20
-25.33838
 30
0.0
 40
30.5
100
AcDbArc
 50
276.813854
 51
323.186146
  0
ARC
  5
30B
100
AcDbEntity
  8
0
370
    -3
  6
Continuous
100
AcDbCircle
 10
-513.057368
 20
-25.33838
 30
0.0
 40
34.0
100
AcDbArc
 50
275.73917
 51
324.26083
  0
ARC
  5
30C
100
AcDbEntity
  8
0
370
    -3
  6
Continuous
100
AcDbCircle
 10
-513.057368
 20
-25.33838
 30
0.0
 40
25.5
100
AcDbArc
 50
277.589542
 51
322.410458
  0
ARC
  5
30D
100
AcDbEntity
  8
0
370
    -3
  6
Continuous
100
AcDbCircle
 10
-513.057368
 20
-25.33838
 30
0.0
 40
22.0
100
AcDbArc
 50
279.594068
 51
320.405932
  0
ARC
  5
30E
100
AcDbEntity
  8
0
370
    -3
  6
Continuous
100
AcDbCircle
 10
-513.057368
 20
-25.33838
 30
0.0
 40
17.0
100
AcDbArc
 50
281.212271
 51
318.787729
  0
ARC
  5
30F
100
AcDbEntity
  8
0
370
    -3
  6
Continuous
100
AcDbCircle
 10
-513.057368
 20
-25.33838
 30
0.0
 40
13.5
100
AcDbArc
 50
286.260205
 51
313.739795
  0
ARC
  5
310
100
AcDbEntity
  8
0
370
    -3
  6
Continuous
100
AcDbCircle
 10
-513.057368
 20
-25.33838
 30
0.0
 40
8.5
100
AcDbArc
 50
291.618272
 51
308.381728
  0
LINE
  5
311
100
AcDbEntity
  8
0
370
    -3
  6
Continuous
100
AcDbLine
 10
-488.940066
 20
-42.149262
 30
0.0
 11
-491.558741
 21
-40.637369
 31
0.0
  0
LINE
  5
312
100
AcDbEntity
  8
0
370
    -3
  6
Continuous
100
AcDbLine
 10
-510.557368
 20
-63.176853
 30
0.0
 11
-510.557368
 21
-60.162941
 31
0.0
  0
ARC
  5
313
100
AcDbEntity
  8
0
370
    -3
  6
Continuous
100
AcDbCircle
 10
-513.057368
 20
-371.93838
 30
0.0
 40
400.6
100
AcDbArc
 50
85.470807
 51
90.0
  0
ARC
  5
314
100
AcDbEntity
  8
0
370
    -3
  6
Continuous
100
AcDbCircle
 10
-483.044924
 20
6.874573
 30
0.0
 40
20.6
100
AcDbArc
 50
45.0
 51
85.470055
  0
LINE
  5
315
100
AcDbEntity
  8
0
370
    -3
  6
Continuous
100
AcDbLine
 10
-466.299778
 20
19.262227
 30
0.0
 11
-468.478524
 21
21.440972
 31
0.0
  0
ARC
  5
316
100
AcDbEntity
  8
0
370
    -3
  6
Continuous
100
AcDbCircle
 10
-495.008314
 20
-9.446309
 30
0.0
 40
40.6
100
AcDbArc
 50
2.530124
 51
45.0
  0
ARC
  5
317
100
AcDbEntity
  8
0
370
    -3
  6
Continuous
100
AcDbCircle
 10
-513.057368
 20
321.26162
 30
0.0
 40
400.6
100
AcDbArc
 50
270.0
 51
274.529193
  0
ARC
  5
318
100
AcDbEntity
  8
0
370
    -3
  6
Continuous
100
AcDbCircle
 10
-483.044924
 20
-57.551333
 30
0.0
 40
20.6
100
AcDbArc
 50
274.529945
 51
315.0
  0
LINE
  5
319
100
AcDbEntity
  8
0
370
    -3
  6
Continuous
100
AcDbLine
 10
-466.299778
 20
-69.938987
 30
0.0
 11
-468.478524
 21
-72.117733
 31
0.0
  0
ARC
  5
31A
100
AcDbEntity
  8
0
370
    -3
  6
Continuous
100
AcDbCircle
 10
-495.008314
 20
-41.230452
 30
0.0
 40
40.6
100
AcDbArc
 50
315.0
 51
357.469876
  0
ARC
  5
31B
100
AcDbEntity
  8
0
370
    -3
  6
Continuous
100
AcDbCircle
 10
-171.457368
 20
-25.33838
 30
0.0
 40
400.6
100
AcDbArc
 50
180.0
 51
182.529361
  0
ARC
  5
31C
100
AcDbEntity
  8
0
370
    -3
  6
Continuous
100
AcDbCircle
 10
-513.057368
 20
321.26162
 30
0.0
 40
400.6
100
AcDbArc
 50
265.470807
 51
270.0
  0
ARC
  5
31D
100
AcDbEntity
  8
0
370
    -3
  6
Continuous
100
AcDbCircle
 10
-543.069812
 20
-57.551333
 30
0.0
 40
20.6
100
AcDbArc
 50
225.0
 51
265.470055
  0
LINE
  5
31E
100
AcDbEntity
  8
0
370
    -3
  6
Continuous
100
AcDbLine
 10
-559.814957
 20
-69.938987
 30
0.0
 11
-557.636211
 21
-72.117733
 31
0.0
  0
ARC
  5
31F
100
AcDbEntity
  8
0
370
    -3
  6
Continuous
100
AcDbCircle
 10
-531.106422
 20
-41.230452
 30
0.0
 40
40.6
100
AcDbArc
 50
182.530124
 51
225.0
  0
ARC
  5
320
100
AcDbEntity
  8
0
370
    -3
  6
Continuous
100
AcDbCircle
 10
-171.457368
 20
-25.33838
 30
0.0
 40
400.6
100
AcDbArc
 50
177.470639
 51
180.0
  0
ARC
  5
321
100
AcDbEntity
  8
0
370
    -3
  6
Continuous
100
AcDbCircle
 10
-513.057368
 20
-371.93838
 30
0.0
 40
400.6
100
AcDbArc
 50
90.0
 51
94.529193
  0
ARC
  5
322
100
AcDbEntity
  8
0
370
    -3
  6
Continuous
100
AcDbCircle
 10
-543.069812
 20
6.874573
 30
0.0
 40
20.6
100
AcDbArc
 50
94.529945
 51
135.0
  0
LINE
  5
323
100
AcDbEntity
  8
0
370
    -3
  6
Continuous
100
AcDbLine
 10
-559.814957
 20
19.262227
 30
0.0
 11
-557.636211
 21
21.440972
 31
0.0
  0
ARC
  5
324
100
AcDbEntity
  8
0
370
    -3
  6
Continuous
100
AcDbCircle
 10
-531.106422
 20
-9.446309
 30
0.0
 40
40.6
100
AcDbArc
 50
135.0
 51
177.469876
  0
LINE
  5
325
100
AcDbEntity
  8
0
370
    -3
  6
Continuous
100
AcDbLine
 10
-481.538289
 20
-46.42268
 30
0.0
 11
-484.148414
 21
-44.915724
 31
0.0
  0
LINE
  5
326
100
AcDbEntity
  8
0
370
    -3
  6
Continuous
100
AcDbLine
 10
-496.375204
 20
-37.856583
 30
0.0
 11
-499.016439
 21
-36.331666
 31
0.0
  0
LINE
  5
327
100
AcDbEntity
  8
0
370
    -3
  6
Continuous
100
AcDbLine
 10
-503.915063
 20
-33.503444
 30
0.0
 11
-506.658838
 21
-31.919324
 31
0.0
  0
LINE
  5
328
100
AcDbEntity
  8
0
370
    -3
  6
Continuous
100
AcDbLine
 10
-510.557368
 20
-37.33838
 30
0.0
 11
-510.557368
 21
-34.170141
 31
0.0
  0
LINE
  5
329
100
AcDbEntity
  8
0
370
    -3
  6
Continuous
100
AcDbLine
 10
-510.557368
 20
-46.044659
 30
0.0
 11
-510.557368
 21
-42.994824
 31
0.0
  0
LINE
  5
32A
100
AcDbEntity
  8
0
370
    -3
  6
Continuous
100
AcDbLine
 10
-510.557368
 20
-54.630017
 30
0.0
 11
-510.557368
 21
-51.606231
 31
0.0
  0
ARC
  5
32B
100
AcDbEntity
  8
0
370
    -3
  6
Continuous
100
AcDbCircle
 10
-513.057368
 20
-25.33838
 30
0.0
 40
39.0
100
AcDbArc
 50
155.284733
 51
204.715267
  0
ARC
  5
32C
100
AcDbEntity
  8
0
370
    -3
  6
Continuous
100
AcDbCircle
 10
-513.057368
 20
-25.33838
 30
0.0
 40
34.0
100
AcDbArc
 50
155.73917
 51
204.26083
  0
ARC
  5
32D
100
AcDbEntity
  8
0
370
    -3
  6
Continuous
100
AcDbCircle
 10
-513.057368
 20
-25.33838
 30
0.0
 40
25.5
100
AcDbArc
 50
157.589542
 51
202.410458
  0
ARC
  5
32E
100
AcDbEntity
  8
0
370
    -3
  6
Continuous
100
AcDbCircle
 10
-513.057368
 20
-25.33838
 30
0.0
 40
30.5
100
AcDbArc
 50
156.813854
 51
203.186146
  0
ARC
  5
32F
100
AcDbEntity
  8
0
370
    -3
  6
Continuous
100
AcDbCircle
 10
-513.057368
 20
-25.33838
 30
0.0
 40
22.0
100
AcDbArc
 50
159.594068
 51
200.405932
  0
ARC
  5
330
100
AcDbEntity
  8
0
370
    -3
  6
Continuous
100
AcDbCircle
 10
-513.057368
 20
-25.33838
 30
0.0
 40
17.0
100
AcDbArc
 50
161.212271
 51
198.787729
  0
ARC
  5
331
100
AcDbEntity
  8
0
370
    -3
  6
Continuous
100
AcDbCircle
 10
-513.057368
 20
-25.33838
 30
0.0
 40
13.5
100
AcDbArc
 50
166.260205
 51
193.739795
  0
ARC
  5
332
100
AcDbEntity
  8
0
370
    -3
  6
Continuous
100
AcDbCircle
 10
-525.199672
 20
-22.369469
 30
0.0
 40
1.0
100
AcDbArc
 50
60.0
 51
166.260205
  0
ARC
  5
333
100
AcDbEntity
  8
0
370
    -3
  6
Continuous
100
AcDbCircle
 10
-532.739531
 20
-18.01633
 30
0.0
 40
1.0
100
AcDbArc
 50
60.0
 51
159.594068
  0
LINE
  5
334
100
AcDbEntity
  8
0
370
    -3
  6
Continuous
100
AcDbLine
 10
-532.239531
 20
-17.150304
 30
0.0
 11
-529.598296
 21
-18.675222
 31
0.0
  0
ARC
  5
335
100
AcDbEntity
  8
0
370
    -3
  6
Continuous
100
AcDbCircle
 10
-530.098296
 20
-19.541247
 30
0.0
 40
1.0
100
AcDbArc
 50
341.212271
 51
60.0
  0
LINE
  5
336
100
AcDbEntity
  8
0
370
    -3
  6
Continuous
100
AcDbLine
 10
-524.699672
 20
-21.503444
 30
0.0
 11
-521.955897
 21
-23.087563
 31
0.0
  0
ARC
  5
337
100
AcDbEntity
  8
0
370
    -3
  6
Continuous
100
AcDbCircle
 10
-522.455897
 20
-23.953589
 30
0.0
 40
1.0
100
AcDbArc
 50
351.618272
 51
60.0
  0
ARC
  5
338
100
AcDbEntity
  8
0
370
    -3
  6
Continuous
100
AcDbCircle
 10
-544.966321
 20
-10.957189
 30
0.0
 40
1.0
100
AcDbArc
 50
335.73917
 51
60.0
  0
LINE
  5
339
100
AcDbEntity
  8
0
370
    -3
  6
Continuous
100
AcDbLine
 10
-547.076446
 20
-8.584208
 30
0.0
 11
-544.466321
 21
-10.091164
 31
0.0
  0
ARC
  5
33A
100
AcDbEntity
  8
0
370
    -3
  6
Continuous
100
AcDbCircle
 10
-547.576446
 20
-9.450233
 30
0.0
 40
1.0
100
AcDbArc
 50
60.0
 51
155.284733
  0
ARC
  5
33B
100
AcDbEntity
  8
0
370
    -3
  6
Continuous
100
AcDbCircle
 10
-537.555994
 20
-15.235544
 30
0.0
 40
1.0
100
AcDbArc
 50
337.589542
 51
60.0
  0
LINE
  5
33C
100
AcDbEntity
  8
0
370
    -3
  6
Continuous
100
AcDbLine
 10
-539.674669
 20
-12.857625
 30
0.0
 11
-537.055994
 21
-14.369518
 31
0.0
  0
ARC
  5
33D
100
AcDbEntity
  8
0
370
    -3
  6
Continuous
100
AcDbCircle
 10
-540.174669
 20
-13.723651
 30
0.0
 40
1.0
100
AcDbArc
 50
60.0
 51
156.813854
  0
ARC
  5
33E
100
AcDbEntity
  8
0
370
    -3
  6
Continuous
100
AcDbCircle
 10
-513.057368
 20
-25.33838
 30
0.0
 40
39.0
100
AcDbArc
 50
95.284733
 51
144.715267
  0
ARC
  5
33F
100
AcDbEntity
  8
0
370
    -3
  6
Continuous
100
AcDbCircle
 10
-513.057368
 20
-25.33838
 30
0.0
 40
34.0
100
AcDbArc
 50
95.73917
 51
144.26083
  0
ARC
  5
340
100
AcDbEntity
  8
0
370
    -3
  6
Continuous
100
AcDbCircle
 10
-513.057368
 20
-25.33838
 30
0.0
 40
25.5
100
AcDbArc
 50
97.589542
 51
142.410458
  0
ARC
  5
341
100
AcDbEntity
  8
0
370
    -3
  6
Continuous
100
AcDbCircle
 10
-513.057368
 20
-25.33838
 30
0.0
 40
30.5
100
AcDbArc
 50
96.813854
 51
143.186146
  0
ARC
  5
342
100
AcDbEntity
  8
0
370
    -3
  6
Continuous
100
AcDbCircle
 10
-513.057368
 20
-25.33838
 30
0.0
 40
22.0
100
AcDbArc
 50
99.594068
 51
140.405932
  0
ARC
  5
343
100
AcDbEntity
  8
0
370
    -3
  6
Continuous
100
AcDbCircle
 10
-513.057368
 20
-25.33838
 30
0.0
 40
17.0
100
AcDbArc
 50
101.212271
 51
138.787729
  0
ARC
  5
344
100
AcDbEntity
  8
0
370
    -3
  6
Continuous
100
AcDbCircle
 10
-513.057368
 20
-25.33838
 30
0.0
 40
13.5
100
AcDbArc
 50
106.260205
 51
133.739795
  0
ARC
  5
345
100
AcDbEntity
  8
0
370
    -3
  6
Continuous
100
AcDbCircle
 10
-516.557368
 20
-13.33838
 30
0.0
 40
1.0
100
AcDbArc
 50
0.0
 51
106.260205
  0
LINE
  5
346
100
AcDbEntity
  8
0
370
    -3
  6
Continuous
100
AcDbLine
 10
-515.557368
 20
-13.33838
 30
0.0
 11
-515.557368
 21
-16.506619
 31
0.0
  0
ARC
  5
347
100
AcDbEntity
  8
0
370
    -3
  6
Continuous
100
AcDbCircle
 10
-521.699672
 20
-16.307291
 30
0.0
 40
1.0
100
AcDbArc
 50
133.739795
 51
240.0
  0
ARC
  5
348
100
AcDbEntity
  8
0
370
    -3
  6
Continuous
100
AcDbCircle
 10
-513.057368
 20
-25.33838
 30
0.0
 40
8.5
100
AcDbArc
 50
111.618272
 51
128.381728
  0
ARC
  5
349
100
AcDbEntity
  8
0
370
    -3
  6
Continuous
100
AcDbCircle
 10
-516.557368
 20
-16.506619
 30
0.0
 40
1.0
100
AcDbArc
 50
291.618272
 51
0.0
  0
ARC
  5
34A
100
AcDbEntity
  8
0
370
    -3
  6
Continuous
100
AcDbCircle
 10
-529.239531
 20
-11.954152
 30
0.0
 40
1.0
100
AcDbArc
 50
140.405932
 51
240.0
  0
LINE
  5
34B
100
AcDbEntity
  8
0
370
    -3
  6
Continuous
100
AcDbLine
 10
-529.739531
 20
-12.820177
 30
0.0
 11
-527.098296
 21
-14.345095
 31
0.0
  0
ARC
  5
34C
100
AcDbEntity
  8
0
370
    -3
  6
Continuous
100
AcDbCircle
 10
-526.598296
 20
-13.47907
 30
0.0
 40
1.0
100
AcDbArc
 50
240.0
 51
318.787729
  0
LINE
  5
34D
100
AcDbEntity
  8
0
370
    -3
  6
Continuous
100
AcDbLine
 10
-522.199672
 20
-17.173317
 30
0.0
 11
-519.455897
 21
-18.757436
 31
0.0
  0
ARC
  5
34E
100
AcDbEntity
  8
0
370
    -3
  6
Continuous
100
AcDbCircle
 10
-518.955897
 20
-17.891411
 30
0.0
 40
1.0
100
AcDbArc
 50
240.0
 51
308.381728
  0
ARC
  5
34F
100
AcDbEntity
  8
0
370
    -3
  6
Continuous
100
AcDbCircle
 10
-541.466321
 20
-4.895011
 30
0.0
 40
1.0
100
AcDbArc
 50
240.0
 51
324.26083
  0
LINE
  5
350
100
AcDbEntity
  8
0
370
    -3
  6
Continuous
100
AcDbLine
 10
-544.576446
 20
-4.25408
 30
0.0
 11
-541.966321
 21
-5.761037
 31
0.0
  0
ARC
  5
351
100
AcDbEntity
  8
0
370
    -3
  6
Continuous
100
AcDbCircle
 10
-544.076446
 20
-3.388055
 30
0.0
 40
1.0
100
AcDbArc
 50
144.715267
 51
240.0
  0
ARC
  5
352
100
AcDbEntity
  8
0
370
    -3
  6
Continuous
100
AcDbCircle
 10
-534.055994
 20
-9.173366
 30
0.0
 40
1.0
100
AcDbArc
 50
240.0
 51
322.410458
  0
LINE
  5
353
100
AcDbEntity
  8
0
370
    -3
  6
Continuous
100
AcDbLine
 10
-537.174669
 20
-8.527498
 30
0.0
 11
-534.555994
 21
-10.039391
 31
0.0
  0
ARC
  5
354
100
AcDbEntity
  8
0
370
    -3
  6
Continuous
100
AcDbCircle
 10
-536.674669
 20
-7.661473
 30
0.0
 40
1.0
100
AcDbArc
 50
143.186146
 51
240.0
  0
ARC
  5
355
100
AcDbEntity
  8
0
370
    -3
  6
Continuous
100
AcDbCircle
 10
-516.557368
 20
12.500092
 30
0.0
 40
1.0
100
AcDbArc
 50
0.0
 51
95.284733
  0
LINE
  5
356
100
AcDbEntity
  8
0
370
    -3
  6
Continuous
100
AcDbLine
 10
-515.557368
 20
12.500092
 30
0.0
 11
-515.557368
 21
9.48618
 31
0.0
  0
ARC
  5
357
100
AcDbEntity
  8
0
370
    -3
  6
Continuous
100
AcDbCircle
 10
-516.557368
 20
9.48618
 30
0.0
 40
1.0
100
AcDbArc
 50
275.73917
 51
0.0
  0
ARC
  5
358
100
AcDbEntity
  8
0
370
    -3
  6
Continuous
100
AcDbCircle
 10
-516.557368
 20
3.953257
 30
0.0
 40
1.0
100
AcDbArc
 50
0.0
 51
96.813854
  0
LINE
  5
359
100
AcDbEntity
  8
0
370
    -3
  6
Continuous
100
AcDbLine
 10
-515.557368
 20
3.953257
 30
0.0
 11
-515.557368
 21
0.929471
 31
0.0
  0
ARC
  5
35A
100
AcDbEntity
  8
0
370
    -3
  6
Continuous
100
AcDbCircle
 10
-516.557368
 20
0.929471
 30
0.0
 40
1.0
100
AcDbArc
 50
277.589542
 51
0.0
  0
ARC
  5
35B
100
AcDbEntity
  8
0
370
    -3
  6
Continuous
100
AcDbCircle
 10
-516.557368
 20
-4.632101
 30
0.0
 40
1.0
100
AcDbArc
 50
0.0
 51
99.594068
  0
LINE
  5
35C
100
AcDbEntity
  8
0
370
    -3
  6
Continuous
100
AcDbLine
 10
-515.557368
 20
-4.632101
 30
0.0
 11
-515.557368
 21
-7.681937
 31
0.0
  0
ARC
  5
35D
100
AcDbEntity
  8
0
370
    -3
  6
Continuous
100
AcDbCircle
 10
-516.557368
 20
-7.681937
 30
0.0
 40
1.0
100
AcDbArc
 50
281.212271
 51
0.0
  0
LINE
  5
35E
100
AcDbEntity
  8
0
370
    -3
  6
Continuous
100
AcDbLine
 10
-552.883189
 20
12.330459
 30
0.0
 11
-550.704443
 21
14.509204
 31
0.0
  0
ARC
  5
35F
100
AcDbEntity
  8
0
370
    -3
  6
Continuous
100
AcDbCircle
 10
-543.069812
 20
6.874573
 30
0.0
 40
10.797
100
AcDbArc
 50
94.529945
 51
135.0
  0
ARC
  5
360
100
AcDbEntity
  8
0
370
    -3
  6
Continuous
100
AcDbCircle
 10
-513.057368
 20
-371.93838
 30
0.0
 40
390.797
100
AcDbArc
 50
90.0
 51
94.529193
  0
ARC
  5
361
100
AcDbEntity
  8
0
370
    -3
  6
Continuous
100
AcDbCircle
 10
-525.199672
 20
-28.307291
 30
0.0
 40
1.0
100
AcDbArc
 50
193.739795
 51
300.0
  0
LINE
  5
362
100
AcDbEntity
  8
0
370
    -3
  6
Continuous
100
AcDbLine
 10
-524.699672
 20
-29.173317
 30
0.0
 11
-521.955897
 21
-27.589197
 31
0.0
  0
ARC
  5
363
100
AcDbEntity
  8
0
370
    -3
  6
Continuous
100
AcDbCircle
 10
-513.057368
 20
-25.33838
 30
0.0
 40
8.5
100
AcDbArc
 50
171.618272
 51
188.381728
  0
ARC
  5
364
100
AcDbEntity
  8
0
370
    -3
  6
Continuous
100
AcDbCircle
 10
-522.455897
 20
-26.723172
 30
0.0
 40
1.0
100
AcDbArc
 50
300.0
 51
8.381728
  0
ARC
  5
365
100
AcDbEntity
  8
0
370
    -3
  6
Continuous
100
AcDbCircle
 10
-171.457368
 20
-25.33838
 30
0.0
 40
390.797
100
AcDbArc
 50
180.0
 51
182.529361
  0
ARC
  5
366
100
AcDbEntity
  8
0
370
    -3
  6
Continuous
100
AcDbCircle
 10
-171.457368
 20
-25.33838
 30
0.0
 40
390.797
100
AcDbArc
 50
177.470639
 51
180.0
  0
ARC
  5
367
100
AcDbEntity
  8
0
370
    -3
  6
Continuous
100
AcDbCircle
 10
-531.106422
 20
-9.446309
 30
0.0
 40
30.797
100
AcDbArc
 50
135.0
 51
177.469876
  0
LINE
  5
368
100
AcDbEntity
  8
0
370
    -3
  6
Continuous
100
AcDbLine
 10
-515.557368
 20
-54.630017
 30
0.0
 11
-515.557368
 21
-51.606231
 31
0.0
  0
LINE
  5
369
100
AcDbEntity
  8
0
370
    -3
  6
Continuous
100
AcDbLine
 10
-515.557368
 20
-46.044659
 30
0.0
 11
-515.557368
 21
-42.994824
 31
0.0
  0
LINE
  5
36A
100
AcDbEntity
  8
0
370
    -3
  6
Continuous
100
AcDbLine
 10
-515.557368
 20
-37.33838
 30
0.0
 11
-515.557368
 21
-34.170141
 31
0.0
  0
LINE
  5
36B
100
AcDbEntity
  8
0
370
    -3
  6
Continuous
100
AcDbLine
 10
-522.199672
 20
-33.503444
 30
0.0
 11
-519.455897
 21
-31.919324
 31
0.0
  0
LINE
  5
36C
100
AcDbEntity
  8
0
370
    -3
  6
Continuous
100
AcDbLine
 10
-529.739531
 20
-37.856583
 30
0.0
 11
-527.098296
 21
-36.331666
 31
0.0
  0
LINE
  5
36D
100
AcDbEntity
  8
0
370
    -3
  6
Continuous
100
AcDbLine
 10
-544.576446
 20
-46.42268
 30
0.0
 11
-541.966321
 21
-44.915724
 31
0.0
  0
LINE
  5
36E
100
AcDbEntity
  8
0
370
    -3
  6
Continuous
100
AcDbLine
 10
-537.174669
 20
-42.149262
 30
0.0
 11
-534.555994
 21
-40.637369
 31
0.0
  0
ARC
  5
36F
100
AcDbEntity
  8
0
370
    -3
  6
Continuous
100
AcDbCircle
 10
-513.057368
 20
-25.33838
 30
0.0
 40
8.5
100
AcDbArc
 50
231.618272
 51
248.381728
  0
ARC
  5
370
100
AcDbEntity
  8
0
370
    -3
  6
Continuous
100
AcDbCircle
 10
-513.057368
 20
-25.33838
 30
0.0
 40
13.5
100
AcDbArc
 50
226.260205
 51
253.739795
  0
ARC
  5
371
100
AcDbEntity
  8
0
370
    -3
  6
Continuous
100
AcDbCircle
 10
-513.057368
 20
-25.33838
 30
0.0
 40
17.0
100
AcDbArc
 50
221.212271
 51
258.787729
  0
ARC
  5
372
100
AcDbEntity
  8
0
370
    -3
  6
Continuous
100
AcDbCircle
 10
-513.057368
 20
-25.33838
 30
0.0
 40
22.0
100
AcDbArc
 50
219.594068
 51
260.405932
  0
ARC
  5
373
100
AcDbEntity
  8
0
370
    -3
  6
Continuous
100
AcDbCircle
 10
-513.057368
 20
-25.33838
 30
0.0
 40
25.5
100
AcDbArc
 50
217.589542
 51
262.410458
  0
ARC
  5
374
100
AcDbEntity
  8
0
370
    -3
  6
Continuous
100
AcDbCircle
 10
-513.057368
 20
-25.33838
 30
0.0
 40
34.0
100
AcDbArc
 50
215.73917
 51
264.26083
  0
ARC
  5
375
100
AcDbEntity
  8
0
370
    -3
  6
Continuous
100
AcDbCircle
 10
-513.057368
 20
-25.33838
 30
0.0
 40
30.5
100
AcDbArc
 50
216.813854
 51
263.186146
  0
ARC
  5
376
100
AcDbEntity
  8
0
370
    -3
  6
Continuous
100
AcDbCircle
 10
-513.057368
 20
-25.33838
 30
0.0
 40
39.0
100
AcDbArc
 50
215.284733
 51
264.715267
  0
ARC
  5
377
100
AcDbEntity
  8
0
370
    -3
  6
Continuous
100
AcDbCircle
 10
-518.955897
 20
-32.78535
 30
0.0
 40
1.0
100
AcDbArc
 50
51.618272
 51
120.0
  0
ARC
  5
378
100
AcDbEntity
  8
0
370
    -3
  6
Continuous
100
AcDbCircle
 10
-516.557368
 20
-34.170141
 30
0.0
 40
1.0
100
AcDbArc
 50
0.0
 51
68.381728
  0
ARC
  5
379
100
AcDbEntity
  8
0
370
    -3
  6
Continuous
100
AcDbCircle
 10
-516.557368
 20
-37.33838
 30
0.0
 40
1.0
100
AcDbArc
 50
253.739795
 51
0.0
  0
ARC
  5
37A
100
AcDbEntity
  8
0
370
    -3
  6
Continuous
100
AcDbCircle
 10
-521.699672
 20
-34.369469
 30
0.0
 40
1.0
100
AcDbArc
 50
120.0
 51
226.260205
  0
ARC
  5
37B
100
AcDbEntity
  8
0
370
    -3
  6
Continuous
100
AcDbCircle
 10
-526.598296
 20
-37.197691
 30
0.0
 40
1.0
100
AcDbArc
 50
41.212271
 51
120.0
  0
ARC
  5
37C
100
AcDbEntity
  8
0
370
    -3
  6
Continuous
100
AcDbCircle
 10
-529.239531
 20
-38.722609
 30
0.0
 40
1.0
100
AcDbArc
 50
120.0
 51
219.594068
  0
ARC
  5
37D
100
AcDbEntity
  8
0
370
    -3
  6
Continuous
100
AcDbCircle
 10
-516.557368
 20
-42.994824
 30
0.0
 40
1.0
100
AcDbArc
 50
0.0
 51
78.787729
  0
ARC
  5
37E
100
AcDbEntity
  8
0
370
    -3
  6
Continuous
100
AcDbCircle
 10
-516.557368
 20
-46.044659
 30
0.0
 40
1.0
100
AcDbArc
 50
260.405932
 51
0.0
  0
ARC
  5
37F
100
AcDbEntity
  8
0
370
    -3
  6
Continuous
100
AcDbCircle
 10
-534.055994
 20
-41.503395
 30
0.0
 40
1.0
100
AcDbArc
 50
37.589542
 51
120.0
  0
ARC
  5
380
100
AcDbEntity
  8
0
370
    -3
  6
Continuous
100
AcDbCircle
 10
-536.674669
 20
-43.015288
 30
0.0
 40
1.0
100
AcDbArc
 50
120.0
 51
216.813854
  0
ARC
  5
381
100
AcDbEntity
  8
0
370
    -3
  6
Continuous
100
AcDbCircle
 10
-516.557368
 20
-51.606231
 30
0.0
 40
1.0
100
AcDbArc
 50
0.0
 51
82.410458
  0
ARC
  5
382
100
AcDbEntity
  8
0
370
    -3
  6
Continuous
100
AcDbCircle
 10
-541.466321
 20
-45.781749
 30
0.0
 40
1.0
100
AcDbArc
 50
35.73917
 51
120.0
  0
ARC
  5
383
100
AcDbEntity
  8
0
370
    -3
  6
Continuous
100
AcDbCircle
 10
-544.076446
 20
-47.288705
 30
0.0
 40
1.0
100
AcDbArc
 50
120.0
 51
215.284733
  0
ARC
  5
384
100
AcDbEntity
  8
0
370
    -3
  6
Continuous
100
AcDbCircle
 10
-547.576446
 20
-41.226528
 30
0.0
 40
1.0
100
AcDbArc
 50
204.715267
 51
300.0
  0
LINE
  5
385
100
AcDbEntity
  8
0
370
    -3
  6
Continuous
100
AcDbLine
 10
-547.076446
 20
-42.092553
 30
0.0
 11
-544.466321
 21
-40.585597
 31
0.0
  0
ARC
  5
386
100
AcDbEntity
  8
0
370
    -3
  6
Continuous
100
AcDbCircle
 10
-540.174669
 20
-36.95311
 30
0.0
 40
1.0
100
AcDbArc
 50
203.186146
 51
300.0
  0
LINE
  5
387
100
AcDbEntity
  8
0
370
    -3
  6
Continuous
100
AcDbLine
 10
-539.674669
 20
-37.819135
 30
0.0
 11
-537.055994
 21
-36.307242
 31
0.0
  0
ARC
  5
388
100
AcDbEntity
  8
0
370
    -3
  6
Continuous
100
AcDbCircle
 10
-544.966321
 20
-39.719571
 30
0.0
 40
1.0
100
AcDbArc
 50
300.0
 51
24.26083
  0
ARC
  5
389
100
AcDbEntity
  8
0
370
    -3
  6
Continuous
100
AcDbCircle
 10
-537.555994
 20
-35.441217
 30
0.0
 40
1.0
100
AcDbArc
 50
300.0
 51
22.410458
  0
ARC
  5
38A
100
AcDbEntity
  8
0
370
    -3
  6
Continuous
100
AcDbCircle
 10
-532.739531
 20
-32.660431
 30
0.0
 40
1.0
100
AcDbArc
 50
200.405932
 51
300.0
  0
LINE
  5
38B
100
AcDbEntity
  8
0
370
    -3
  6
Continuous
100
AcDbLine
 10
-532.239531
 20
-33.526456
 30
0.0
 11
-529.598296
 21
-32.001539
 31
0.0
  0
ARC
  5
38C
100
AcDbEntity
  8
0
370
    -3
  6
Continuous
100
AcDbCircle
 10
-530.098296
 20
-31.135513
 30
0.0
 40
1.0
100
AcDbArc
 50
300.0
 51
18.787729
  0
ARC
  5
38D
100
AcDbEntity
  8
0
370
    -3
  6
Continuous
100
AcDbCircle
 10
-531.106422
 20
-41.230452
 30
0.0
 40
30.797
100
AcDbArc
 50
182.530124
 51
225.0
  0
LINE
  5
38E
100
AcDbEntity
  8
0
370
    -3
  6
Continuous
100
AcDbLine
 10
-515.557368
 20
-63.176853
 30
0.0
 11
-515.557368
 21
-60.162941
 31
0.0
  0
ARC
  5
38F
100
AcDbEntity
  8
0
370
    -3
  6
Continuous
100
AcDbCircle
 10
-516.557368
 20
-54.630017
 30
0.0
 40
1.0
100
AcDbArc
 50
263.186146
 51
0.0
  0
ARC
  5
390
100
AcDbEntity
  8
0
370
    -3
  6
Continuous
100
AcDbCircle
 10
-516.557368
 20
-63.176853
 30
0.0
 40
1.0
100
AcDbArc
 50
264.715267
 51
360.0
  0
ARC
  5
391
100
AcDbEntity
  8
0
370
    -3
  6
Continuous
100
AcDbCircle
 10
-516.557368
 20
-60.162941
 30
0.0
 40
1.0
100
AcDbArc
 50
0.0
 51
84.26083
  0
ARC
  5
392
100
AcDbEntity
  8
0
370
    -3
  6
Continuous
100
AcDbCircle
 10
-513.057368
 20
321.26162
 30
0.0
 40
390.797
100
AcDbArc
 50
265.470807
 51
270.0
  0
ARC
  5
393
100
AcDbEntity
  8
0
370
    -3
  6
Continuous
100
AcDbCircle
 10
-543.069812
 20
-57.551333
 30
0.0
 40
10.797
100
AcDbArc
 50
225.0
 51
265.470055
  0
LINE
  5
394
100
AcDbEntity
  8
0
370
    -3
  6
Continuous
100
AcDbLine
 10
-552.883189
 20
-63.007219
 30
0.0
 11
-550.704443
 21
-65.185965
 31
0.0
  0
LINE
  5
395
100
AcDbEntity
  8
0
370
    -3
  6
CENTER
100
AcDbLine
 10
-378.643958
 20
-25.33838
 30
0.0
 11
-590.033195
 21
-25.33838
 31
0.0
  0
ARC
  5
396
100
AcDbEntity
  8
0
370
    -3
  6
Continuous
100
AcDbCircle
 10
-854.657368
 20
-25.33838
 30
0.0
 40
400.6
100
AcDbArc
 50
360.0
 51
2.529361
  0
ARC
  5
397
100
AcDbEntity
  8
0
370
    -3
  6
Continuous
100
AcDbCircle
 10
-854.657368
 20
-25.33838
 30
0.0
 40
400.6
100
AcDbArc
 50
357.470639
 51
0.0
  0
ARC
  5
398
100
AcDbEntity
  8
0
370
    -3
  6
Continuous
100
AcDbCircle
 10
-547.057368
 20
30.66162
 30
0.0
 40
6.25
100
AcDbArc
 50
331.137211
 51
0.0
  0
ARC
  5
399
100
AcDbEntity
  8
0
370
    -3
  6
Continuous
100
AcDbCircle
 10
-479.057368
 20
30.66162
 30
0.0
 40
6.25
100
AcDbArc
 50
309.826891
 51
0.0
  0
ARC
  5
39A
100
AcDbEntity
  8
0
370
    -3
  6
Continuous
100
AcDbCircle
 10
-577.057368
 20
-27.33838
 30
0.0
 40
6.25
100
AcDbArc
 50
36.811794
 51
90.0
  0
MTEXT
  5
39C
100
AcDbEntity
  8
0
370
    -3
  6
Continuous
100
AcDbMText
 10
-555.708191
 20
262.076508
 30
0.0
 40
15.0
 41
0.0
 71
     7
 72
     1
  1
\W0.63;三菱ギヤードモータ  
  7
ZU_SHPTB00001
 11
1.0
 21
0.0
 31
0.0
 73
     1
 44
1.0
  0
MTEXT
  5
39D
100
AcDbEntity
  8
0
370
    -3
  6
Continuous
100
AcDbMText
 10
-555.708191
 20
262.076508
 30
0.0
 40
15.0
 41
0.0
 71
     7
 72
     1
  1
\W0.63;三菱ギヤードモータ  
  7
ZU_SHPTB00001
 11
1.0
 21
0.0
 31
0.0
 73
     1
 44
1.0
  0
MTEXT
  5
39E
100
AcDbEntity
  8
0
370
    -3
  6
Continuous
100
AcDbMText
 10
-555.708191
 20
177.326477
 30
0.0
 40
15.0
 41
0.0
 71
     7
 72
     1
  1
\W0.43;SCALE\W0.72;  \W0.43;1/1
  7
ZU_SHPTB00001
 11
1.0
 21
0.0
 31
0.0
 73
     1
 44
1.0
  0
MTEXT
  5
39F
100
AcDbEntity
  8
0
370
    -3
  6
Continuous
100
AcDbMText
 10
-555.708191
 20
211.226501
 30
0.0
 40
15.0
 41
0.0
 71
     7
 72
     1
  1
\W0.43;25-15r/min\W0.53;　
  7
ZU_SHPTB00001
 11
1.0
 21
0.0
 31
0.0
 73
     1
 44
1.0
  0
MTEXT
  5
3A0
100
AcDbEntity
  8
0
370
    -3
  6
Continuous
100
AcDbMText
 10
-555.708191
 20
194.276489
 30
0.0
 40
15.0
 41
0.0
 71
     7
 72
     1
  1
\W0.42;GEAR\W0.70; \W0.42;RATIO\W0.70;  \W0.42;1/120-1/200
  7
ZU_SHPTB00001
 11
1.0
 21
0.0
 31
0.0
 73
     1
 44
1.0
  0
MTEXT
  5
3A1
100
AcDbEntity
  8
0
370
    -3
  6
Continuous
100
AcDbMText
 10
-555.708191
 20
245.126495
 30
0.0
 40
15.0
 41
0.0
 71
     7
 72
     1
  1
\W0.48;GV-SB
  7
ZU_SHPTB00001
 11
1.0
 21
0.0
 31
0.0
 73
     1
 44
1.0
  0
MTEXT
  5
3A2
100
AcDbEntity
  8
0
370
    -3
  6
Continuous
100
AcDbMText
 10
-555.708191
 20
228.176483
 30
0.0
 40
15.0
 41
0.0
 71
     7
 72
     1
  1
\W0.43;0.2kW
  7
ZU_SHPTB00001
 11
1.0
 21
0.0
 31
0.0
 73
     1
 44
1.0
  0
ARC
  5
3A3
100
AcDbEntity
  8
0
370
    -3
  6
Continuous
100
AcDbCircle
 10
43.88492
 20
2.66162
 30
0.0
 40
1.0
100
AcDbArc
 50
68.540585
 51
90.0
  0
LINE
  5
3A4
100
AcDbEntity
  8
0
370
    -3
  6
Continuous
100
AcDbLine
 10
43.88492
 20
10.16162
 30
0.0
 11
43.88492
 21
2.215993
 31
0.0
  0
ARC
  5
3A5
100
AcDbEntity
  8
0
370
    -3
  6
Continuous
100
AcDbCircle
 10
2.067393
 20
-57.08838
 30
0.0
 40
6.8
100
AcDbArc
 50
180.0
 51
270.0
  0
LINE
  5
3A6
100
AcDbEntity
  8
0
370
    -3
  6
Continuous
100
AcDbLine
 10
-4.732607
 20
6.41162
 30
0.0
 11
-4.732607
 21
-57.08838
 31
0.0
  0
ARC
  5
3A7
100
AcDbEntity
  8
0
370
    -3
  6
Continuous
100
AcDbCircle
 10
2.067393
 20
6.41162
 30
0.0
 40
6.8
100
AcDbArc
 50
90.0
 51
180.0
  0
ARC
  5
3A8
100
AcDbEntity
  8
0
370
    -3
  6
Continuous
100
AcDbCircle
 10
30.072812
 20
13.66162
 30
0.0
 40
7.8
100
AcDbArc
 50
0.0
 51
90.0
  0
LINE
  5
3A9
100
AcDbEntity
  8
0
370
    -3
  6
Continuous
100
AcDbLine
 10
37.872812
 20
-64.33838
 30
0.0
 11
37.872812
 21
13.66162
 31
0.0
  0
ARC
  5
3AA
100
AcDbEntity
  8
0
370
    -3
  6
Continuous
100
AcDbCircle
 10
30.072812
 20
-64.33838
 30
0.0
 40
7.8
100
AcDbArc
 50
270.0
 51
0.0
  0
ARC
  5
3AB
100
AcDbEntity
  8
0
370
    -3
  6
Continuous
100
AcDbCircle
 10
35.329397
 20
-64.33838
 30
0.0
 40
7.8
100
AcDbArc
 50
270.0
 51
334.763317
  0
LINE
  5
3AC
100
AcDbEntity
  8
0
370
    -3
  6
Continuous
100
AcDbLine
 10
1.213772
 20
21.46162
 30
0.0
 11
35.329397
 21
21.46162
 31
0.0
  0
LINE
  5
3AD
100
AcDbEntity
  8
0
370
    -3
  6
Continuous
100
AcDbLine
 10
43.129397
 20
13.66162
 30
0.0
 11
43.129397
 21
-1.343125
 31
0.0
  0
ARC
  5
3AE
100
AcDbEntity
  8
0
370
    -3
  6
Continuous
100
AcDbCircle
 10
35.329397
 20
13.66162
 30
0.0
 40
7.8
100
AcDbArc
 50
0.0
 51
90.0
  0
LINE
  5
3AF
100
AcDbEntity
  8
0
370
    -3
  6
Continuous
100
AcDbLine
 10
26.57803
 20
-63.88838
 30
0.0
 11
2.067393
 21
-63.88838
 31
0.0
  0
ARC
  5
3B0
100
AcDbEntity
  8
0
370
    -3
  6
Continuous
100
AcDbCircle
 10
26.57803
 20
-60.08838
 30
0.0
 40
3.8
100
AcDbArc
 50
270.0
 51
336.772328
  0
LINE
  5
3B1
100
AcDbEntity
  8
0
370
    -3
  6
Continuous
100
AcDbLine
 10
30.070021
 20
-61.587046
 30
0.0
 11
34.016119
 21
-52.392376
 31
0.0
  0
ARC
  5
3B2
100
AcDbEntity
  8
0
370
    -3
  6
Continuous
100
AcDbCircle
 10
30.524128
 20
-50.89371
 30
0.0
 40
3.8
100
AcDbArc
 50
336.772328
 51
0.0
  0
LINE
  5
3B3
100
AcDbEntity
  8
0
370
    -3
  6
Continuous
100
AcDbLine
 10
30.070021
 20
10.910286
 30
0.0
 11
34.016119
 21
1.715616
 31
0.0
  0
LINE
  5
3B4
100
AcDbEntity
  8
0
370
    -3
  6
Continuous
100
AcDbLine
 10
34.324128
 20
0.21695
 30
0.0
 11
34.324128
 21
-50.89371
 31
0.0
  0
ARC
  5
3B5
100
AcDbEntity
  8
0
370
    -3
  6
Continuous
100
AcDbCircle
 10
30.524128
 20
0.21695
 30
0.0
 40
3.8
100
AcDbArc
 50
0.0
 51
23.227672
  0
LINE
  5
3B6
100
AcDbEntity
  8
0
370
    -3
  6
Continuous
100
AcDbLine
 10
26.57803
 20
13.21162
 30
0.0
 11
2.067393
 21
13.21162
 31
0.0
  0
ARC
  5
3B7
100
AcDbEntity
  8
0
370
    -3
  6
Continuous
100
AcDbCircle
 10
26.57803
 20
9.41162
 30
0.0
 40
3.8
100
AcDbArc
 50
23.227672
 51
90.0
  0
ELLIPSE
  5
3B8
100
AcDbEntity
  8
0
370
    -3
  6
Continuous
100
AcDbEllipse
 10
33.757442
 20
-64.83838
 30
0.0
 11
0.0
 21
3.5
 31
0.0
210
0.0
220
0.0
230
1.0
 40
0.656603
 41
0.0
 42
6.2831853071795862
  0
LINE
  5
3B9
100
AcDbEntity
  8
0
370
    -3
  6
Continuous
100
AcDbLine
 10
32.219989
 20
-64.83838
 30
0.0
 11
33.269177
 21
-66.83838
 31
0.0
  0
LINE
  5
3BA
100
AcDbEntity
  8
0
370
    -3
  6
Continuous
100
AcDbLine
 10
32.219989
 20
-64.83838
 30
0.0
 11
33.269177
 21
-62.83838
 31
0.0
  0
LINE
  5
3BB
100
AcDbEntity
  8
0
370
    -3
  6
Continuous
100
AcDbLine
 10
31.710162
 20
-63.248364
 30
0.0
 11
32.219989
 21
-64.83838
 31
0.0
  0
LINE
  5
3BC
100
AcDbEntity
  8
0
370
    -3
  6
Continuous
100
AcDbLine
 10
31.710162
 20
-66.428397
 30
0.0
 11
32.219989
 21
-64.83838
 31
0.0
  0
LINE
  5
3BD
100
AcDbEntity
  8
0
370
    -3
  6
Continuous
100
AcDbLine
 10
-6.7481
 20
-63.248364
 30
0.0
 11
-6.238273
 21
-64.83838
 31
0.0
  0
LINE
  5
3BE
100
AcDbEntity
  8
0
370
    -3
  6
Continuous
100
AcDbLine
 10
-6.238273
 20
-64.83838
 30
0.0
 11
-5.189085
 21
-62.83838
 31
0.0
  0
LINE
  5
3BF
100
AcDbEntity
  8
0
370
    -3
  6
Continuous
100
AcDbLine
 10
-6.238273
 20
-64.83838
 30
0.0
 11
-5.189085
 21
-66.83838
 31
0.0
  0
LINE
  5
3C0
100
AcDbEntity
  8
0
370
    -3
  6
Continuous
100
AcDbLine
 10
-6.7481
 20
-66.428397
 30
0.0
 11
-6.238273
 21
-64.83838
 31
0.0
  0
ELLIPSE
  5
3C1
100
AcDbEntity
  8
0
370
    -3
  6
Continuous
100
AcDbEllipse
 10
-4.70082
 20
-64.83838
 30
0.0
 11
0.0
 21
3.5
 31
0.0
210
0.0
220
0.0
230
1.0
 40
0.656603
 41
0.0
 42
6.2831853071795862
  0
ARC
  5
3C2
100
AcDbEntity
  8
0
370
    -3
  6
Continuous
100
AcDbCircle
 10
1.213772
 20
-64.33838
 30
0.0
 40
7.8
100
AcDbArc
 50
208.12516
 51
270.0
  0
ELLIPSE
  5
3C3
100
AcDbEntity
  8
0
370
    -3
  6
Continuous
100
AcDbEllipse
 10
33.757442
 20
14.16162
 30
0.0
 11
0.0
 21
3.5
 31
0.0
210
0.0
220
0.0
230
1.0
 40
0.656603
 41
0.0
 42
6.2831853071795862
  0
LINE
  5
3C4
100
AcDbEntity
  8
0
370
    -3
  6
Continuous
100
AcDbLine
 10
32.219989
 20
14.16162
 30
0.0
 11
33.269177
 21
16.16162
 31
0.0
  0
LINE
  5
3C5
100
AcDbEntity
  8
0
370
    -3
  6
Continuous
100
AcDbLine
 10
32.219989
 20
14.16162
 30
0.0
 11
33.269177
 21
12.16162
 31
0.0
  0
LINE
  5
3C6
100
AcDbEntity
  8
0
370
    -3
  6
Continuous
100
AcDbLine
 10
31.710162
 20
12.571603
 30
0.0
 11
32.219989
 21
14.16162
 31
0.0
  0
LINE
  5
3C7
100
AcDbEntity
  8
0
370
    -3
  6
Continuous
100
AcDbLine
 10
31.710162
 20
15.751636
 30
0.0
 11
32.219989
 21
14.16162
 31
0.0
  0
LINE
  5
3C8
100
AcDbEntity
  8
0
370
    -3
  6
Continuous
100
AcDbLine
 10
-6.7481
 20
12.571603
 30
0.0
 11
-6.238273
 21
14.16162
 31
0.0
  0
LINE
  5
3C9
100
AcDbEntity
  8
0
370
    -3
  6
Continuous
100
AcDbLine
 10
-6.238273
 20
14.16162
 30
0.0
 11
-5.189085
 21
12.16162
 31
0.0
  0
LINE
  5
3CA
100
AcDbEntity
  8
0
370
    -3
  6
Continuous
100
AcDbLine
 10
-6.238273
 20
14.16162
 30
0.0
 11
-5.189085
 21
16.16162
 31
0.0
  0
LINE
  5
3CB
100
AcDbEntity
  8
0
370
    -3
  6
Continuous
100
AcDbLine
 10
-6.7481
 20
15.751636
 30
0.0
 11
-6.238273
 21
14.16162
 31
0.0
  0
ELLIPSE
  5
3CC
100
AcDbEntity
  8
0
370
    -3
  6
Continuous
100
AcDbEllipse
 10
-4.70082
 20
14.16162
 30
0.0
 11
0.0
 21
3.5
 31
0.0
210
0.0
220
0.0
230
1.0
 40
0.656603
 41
0.0
 42
6.2831853071795862
  0
ARC
  5
3CD
100
AcDbEntity
  8
0
370
    -3
  6
Continuous
100
AcDbCircle
 10
1.213772
 20
13.66162
 30
0.0
 40
7.8
100
AcDbArc
 50
90.0
 51
151.87484
  0
LINE
  5
3CE
100
AcDbEntity
  8
0
370
    -3
  6
Continuous
100
AcDbLine
 10
-6.586228
 20
12.160438
 30
0.0
 11
-6.586228
 21
-62.837199
 31
0.0
  0
ARC
  5
3CF
100
AcDbEntity
  8
0
370
    -3
  6
Continuous
100
AcDbCircle
 10
40.08492
 20
10.16162
 30
0.0
 40
3.8
100
AcDbArc
 50
0.0
 51
36.757251
  0
LINE
  5
3D0
100
AcDbEntity
  8
0
370
    -3
  6
CENTER
100
AcDbLine
 10
18.88492
 20
-6.693448
 30
0.0
 11
18.88492
 21
-46.638837
 31
0.0
  0
LINE
  5
3D1
100
AcDbEntity
  8
0
370
    -3
  6
Continuous
100
AcDbLine
 10
1.213772
 20
-72.13838
 30
0.0
 11
35.329397
 21
-72.13838
 31
0.0
  0
CIRCLE
  5
3D2
100
AcDbEntity
  8
0
370
    -3
  6
DASHED
100
AcDbCircle
 10
18.88492
 20
-25.33838
 30
0.0
 40
14.0
  0
LINE
  5
3D3
100
AcDbEntity
  8
0
370
    -3
  6
CENTER
100
AcDbLine
 10
0.239988
 20
-25.33838
 30
0.0
 11
40.185377
 21
-25.33838
 31
0.0
  0
LINE
  5
3D4
100
AcDbEntity
  8
0
370
    -3
  6
CENTER
100
AcDbLine
 10
-241.586228
 20
-75.030144
 30
0.0
 11
-241.586228
 21
25.354259
 31
0.0
  0
LINE
  5
3D5
100
AcDbEntity
  8
0
370
    -3
  6
Continuous
100
AcDbLine
 10
-292.709102
 20
-25.33838
 30
0.0
 11
-292.709102
 21
13.66162
 31
0.0
  0
LINE
  5
3D6
100
AcDbEntity
  8
0
370
    -3
  6
Continuous
100
AcDbLine
 10
-295.160288
 20
-25.33838
 30
0.0
 11
-295.160288
 21
13.66162
 31
0.0
  0
LINE
  5
3D7
100
AcDbEntity
  8
0
370
    -3
  6
Continuous
100
AcDbLine
 10
-284.918487
 20
-25.33838
 30
0.0
 11
-284.918487
 21
-0.773918
 31
0.0
  0
LINE
  5
3D8
100
AcDbEntity
  8
0
370
    -3
  6
Continuous
100
AcDbLine
 10
-310.586228
 20
-11.33838
 30
0.0
 11
-295.160288
 21
-11.33838
 31
0.0
  0
LINE
  5
3D9
100
AcDbEntity
  8
0
370
    -3
  6
Continuous
100
AcDbLine
 10
-284.541094
 20
14.16162
 30
0.0
 11
-286.448813
 21
12.16162
 31
0.0
  0
LINE
  5
3DA
100
AcDbEntity
  8
0
370
    -3
  6
Continuous
100
AcDbLine
 10
-286.448813
 20
16.16162
 30
0.0
 11
-284.541094
 21
14.16162
 31
0.0
  0
ELLIPSE
  5
3DB
100
AcDbEntity
  8
0
370
    -3
  6
Continuous
100
AcDbEllipse
 10
-285.372124
 20
14.16162
 30
0.0
 11
0.0
 21
3.5
 31
0.0
210
0.0
220
0.0
230
1.0
 40
0.982815
 41
0.0
 42
6.2831853071795862
  0
ARC
  5
3DC
100
AcDbEntity
  8
0
370
    -3
  6
Continuous
100
AcDbCircle
 10
-284.909102
 20
13.66162
 30
0.0
 40
7.8
100
AcDbArc
 50
90.0
 51
180.0
  0
ARC
  5
3DD
100
AcDbEntity
  8
0
370
    -3
  6
Continuous
100
AcDbCircle
 10
-287.360288
 20
13.66162
 30
0.0
 40
7.8
100
AcDbArc
 50
90.0
 51
180.0
  0
ARC
  5
3DE
100
AcDbEntity
  8
0
370
    -3
  6
Continuous
100
AcDbCircle
 10
-281.118487
 20
-0.773918
 30
0.0
 40
3.8
100
AcDbArc
 50
138.609573
 51
180.0
  0
LINE
  5
3DF
100
AcDbEntity
  8
0
370
    -3
  6
Continuous
100
AcDbLine
 10
-282.823582
 20
16.16162
 30
0.0
 11
-284.541094
 21
14.16162
 31
0.0
  0
LINE
  5
3E0
100
AcDbEntity
  8
0
370
    -3
  6
Continuous
100
AcDbLine
 10
-284.541094
 20
14.16162
 30
0.0
 11
-282.823582
 21
12.16162
 31
0.0
  0
LINE
  5
3E1
100
AcDbEntity
  8
0
370
    -3
  6
Continuous
100
AcDbLine
 10
-274.992594
 20
11.924129
 30
0.0
 11
-283.969329
 21
1.738591
 31
0.0
  0
LINE
  5
3E2
100
AcDbEntity
  8
0
370
    -3
  6
Continuous
100
AcDbLine
 10
-272.141752
 20
13.21162
 30
0.0
 11
-216.645696
 21
13.21162
 31
0.0
  0
ARC
  5
3E3
100
AcDbEntity
  8
0
370
    -3
  6
Continuous
100
AcDbCircle
 10
-272.141752
 20
9.41162
 30
0.0
 40
3.8
100
AcDbArc
 50
90.0
 51
138.609573
  0
LINE
  5
3E4
100
AcDbEntity
  8
0
370
    -3
  6
Continuous
100
AcDbLine
 10
-214.160275
 20
-25.33838
 30
0.0
 11
-214.160275
 21
3.21162
 31
0.0
  0
ARC
  5
3E5
100
AcDbEntity
  8
0
370
    -3
  6
Continuous
100
AcDbCircle
 10
-224.160275
 20
3.21162
 30
0.0
 40
10.0
100
AcDbArc
 50
0.0
 51
90.0
  0
LINE
  5
3E6
100
AcDbEntity
  8
0
370
    -3
  6
Continuous
100
AcDbLine
 10
-213.815133
 20
11.946953
 30
0.0
 11
-204.676306
 21
1.743944
 31
0.0
  0
ARC
  5
3E7
100
AcDbEntity
  8
0
370
    -3
  6
Continuous
100
AcDbCircle
 10
-216.645696
 20
9.41162
 30
0.0
 40
3.8
100
AcDbArc
 50
41.85078
 51
90.0
  0
ELLIPSE
  5
3E8
100
AcDbEntity
  8
0
370
    -3
  6
Continuous
100
AcDbEllipse
 10
-202.898116
 20
14.16162
 30
0.0
 11
0.0
 21
3.5
 31
0.0
210
0.0
220
0.0
230
1.0
 40
0.982815
 41
0.0
 42
6.2831853071795862
  0
LINE
  5
3E9
100
AcDbEntity
  8
0
370
    -3
  6
Continuous
100
AcDbLine
 10
-202.067085
 20
14.16162
 30
0.0
 11
-203.974805
 21
12.16162
 31
0.0
  0
LINE
  5
3EA
100
AcDbEntity
  8
0
370
    -3
  6
Continuous
100
AcDbLine
 10
-203.974805
 20
16.16162
 30
0.0
 11
-202.067085
 21
14.16162
 31
0.0
  0
ARC
  5
3EB
100
AcDbEntity
  8
0
370
    -3
  6
Continuous
100
AcDbCircle
 10
-204.488759
 20
13.66162
 30
0.0
 40
7.8
100
AcDbArc
 50
0.0
 51
90.0
  0
ARC
  5
3EC
100
AcDbEntity
  8
0
370
    -3
  6
Continuous
100
AcDbCircle
 10
-207.506868
 20
-0.791389
 30
0.0
 40
3.8
100
AcDbArc
 50
0.0
 51
41.85078
  0
LINE
  5
3ED
100
AcDbEntity
  8
0
370
    -3
  6
Continuous
100
AcDbLine
 10
-200.349574
 20
16.16162
 30
0.0
 11
-202.067085
 21
14.16162
 31
0.0
  0
LINE
  5
3EE
100
AcDbEntity
  8
0
370
    -3
  6
Continuous
100
AcDbLine
 10
-202.067085
 20
14.16162
 30
0.0
 11
-200.349574
 21
12.16162
 31
0.0
  0
LINE
  5
3EF
100
AcDbEntity
  8
0
370
    -3
  6
Continuous
100
AcDbLine
 10
-196.688759
 20
-25.33838
 30
0.0
 11
-196.688759
 21
13.66162
 31
0.0
  0
LINE
  5
3F0
100
AcDbEntity
  8
0
370
    -3
  6
Continuous
100
AcDbLine
 10
-203.706868
 20
-25.33838
 30
0.0
 11
-203.706868
 21
-0.791389
 31
0.0
  0
LINE
  5
3F1
100
AcDbEntity
  8
0
370
    -3
  6
Continuous
100
AcDbLine
 10
-272.141752
 20
-63.88838
 30
0.0
 11
-216.645696
 21
-63.88838
 31
0.0
  0
ARC
  5
3F2
100
AcDbEntity
  8
0
370
    -3
  6
Continuous
100
AcDbCircle
 10
-224.160275
 20
-53.88838
 30
0.0
 40
10.0
100
AcDbArc
 50
270.0
 51
360.0
  0
LINE
  5
3F3
100
AcDbEntity
  8
0
370
    -3
  6
Continuous
100
AcDbLine
 10
-213.815133
 20
-62.623713
 30
0.0
 11
-204.676306
 21
-52.420705
 31
0.0
  0
ARC
  5
3F4
100
AcDbEntity
  8
0
370
    -3
  6
Continuous
100
AcDbCircle
 10
-216.645696
 20
-60.08838
 30
0.0
 40
3.8
100
AcDbArc
 50
270.0
 51
318.14922
  0
LINE
  5
3F5
100
AcDbEntity
  8
0
370
    -3
  6
Continuous
100
AcDbLine
 10
-202.067085
 20
-64.83838
 30
0.0
 11
-203.974805
 21
-62.83838
 31
0.0
  0
LINE
  5
3F6
100
AcDbEntity
  8
0
370
    -3
  6
Continuous
100
AcDbLine
 10
-203.974805
 20
-66.83838
 30
0.0
 11
-202.067085
 21
-64.83838
 31
0.0
  0
ELLIPSE
  5
3F7
100
AcDbEntity
  8
0
370
    -3
  6
Continuous
100
AcDbEllipse
 10
-202.898116
 20
-64.83838
 30
0.0
 11
0.000000000000199
 21
3.5
 31
0.0
210
0.0
220
0.0
230
1.0
 40
0.982815
 41
0.0
 42
6.2831853071795862
  0
LINE
  5
3F8
100
AcDbEntity
  8
0
370
    -3
  6
Continuous
100
AcDbLine
 10
-200.349574
 20
-66.83838
 30
0.0
 11
-202.067085
 21
-64.83838
 31
0.0
  0
LINE
  5
3F9
100
AcDbEntity
  8
0
370
    -3
  6
Continuous
100
AcDbLine
 10
-202.067085
 20
-64.83838
 30
0.0
 11
-200.349574
 21
-62.83838
 31
0.0
  0
ARC
  5
3FA
100
AcDbEntity
  8
0
370
    -3
  6
Continuous
100
AcDbCircle
 10
-204.488759
 20
-64.33838
 30
0.0
 40
7.8
100
AcDbArc
 50
270.0
 51
360.0
  0
LINE
  5
3FB
100
AcDbEntity
  8
0
370
    -3
  6
Continuous
100
AcDbLine
 10
-214.160275
 20
-25.33838
 30
0.0
 11
-214.160275
 21
-53.88838
 31
0.0
  0
ARC
  5
3FC
100
AcDbEntity
  8
0
370
    -3
  6
Continuous
100
AcDbCircle
 10
-207.506868
 20
-49.885372
 30
0.0
 40
3.8
100
AcDbArc
 50
318.14922
 51
0.0
  0
LINE
  5
3FD
100
AcDbEntity
  8
0
370
    -3
  6
Continuous
100
AcDbLine
 10
-203.706868
 20
-25.33838
 30
0.0
 11
-203.706868
 21
-49.885372
 31
0.0
  0
LINE
  5
3FE
100
AcDbEntity
  8
0
370
    -3
  6
Continuous
100
AcDbLine
 10
-196.688759
 20
-25.33838
 30
0.0
 11
-196.688759
 21
-64.33838
 31
0.0
  0
LINE
  5
3FF
100
AcDbEntity
  8
0
370
    -3
  6
Continuous
100
AcDbLine
 10
-284.918487
 20
-25.33838
 30
0.0
 11
-284.918487
 21
-49.902843
 31
0.0
  0
LINE
  5
400
100
AcDbEntity
  8
0
370
    -3
  6
Continuous
100
AcDbLine
 10
-292.709102
 20
-25.33838
 30
0.0
 11
-292.709102
 21
-64.33838
 31
0.0
  0
LINE
  5
401
100
AcDbEntity
  8
0
370
    -3
  6
Continuous
100
AcDbLine
 10
-295.160288
 20
-25.33838
 30
0.0
 11
-295.160288
 21
-64.33838
 31
0.0
  0
LINE
  5
402
100
AcDbEntity
  8
0
370
    -3
  6
Continuous
100
AcDbLine
 10
-310.586228
 20
-39.33838
 30
0.0
 11
-295.160288
 21
-39.33838
 31
0.0
  0
LINE
  5
403
100
AcDbEntity
  8
0
370
    -3
  6
Continuous
100
AcDbLine
 10
-274.992594
 20
-62.600889
 30
0.0
 11
-283.969329
 21
-52.415351
 31
0.0
  0
ARC
  5
404
100
AcDbEntity
  8
0
370
    -3
  6
Continuous
100
AcDbCircle
 10
-281.118487
 20
-49.902843
 30
0.0
 40
3.8
100
AcDbArc
 50
180.0
 51
221.390427
  0
LINE
  5
405
100
AcDbEntity
  8
0
370
    -3
  6
Continuous
100
AcDbLine
 10
-284.541094
 20
-64.83838
 30
0.0
 11
-286.448813
 21
-62.83838
 31
0.0
  0
LINE
  5
406
100
AcDbEntity
  8
0
370
    -3
  6
Continuous
100
AcDbLine
 10
-286.448813
 20
-66.83838
 30
0.0
 11
-284.541094
 21
-64.83838
 31
0.0
  0
ELLIPSE
  5
407
100
AcDbEntity
  8
0
370
    -3
  6
Continuous
100
AcDbEllipse
 10
-285.372124
 20
-64.83838
 30
0.0
 11
0.0000000000002274
 21
3.5
 31
0.0
210
0.0
220
0.0
230
1.0
 40
0.982815
 41
0.0
 42
6.2831853071795862
  0
ARC
  5
408
100
AcDbEntity
  8
0
370
    -3
  6
Continuous
100
AcDbCircle
 10
-284.909102
 20
-64.33838
 30
0.0
 40
7.8
100
AcDbArc
 50
180.0
 51
270.0
  0
ARC
  5
409
100
AcDbEntity
  8
0
370
    -3
  6
Continuous
100
AcDbCircle
 10
-287.360288
 20
-64.33838
 30
0.0
 40
7.8
100
AcDbArc
 50
180.0
 51
270.0
  0
ARC
  5
40A
100
AcDbEntity
  8
0
370
    -3
  6
Continuous
100
AcDbCircle
 10
-272.141752
 20
-60.08838
 30
0.0
 40
3.8
100
AcDbArc
 50
221.390427
 51
270.0
  0
LINE
  5
40B
100
AcDbEntity
  8
0
370
    -3
  6
Continuous
100
AcDbLine
 10
-284.541094
 20
-64.83838
 30
0.0
 11
-282.823582
 21
-62.83838
 31
0.0
  0
LINE
  5
40C
100
AcDbEntity
  8
0
370
    -3
  6
Continuous
100
AcDbLine
 10
-282.823582
 20
-66.83838
 30
0.0
 11
-284.541094
 21
-64.83838
 31
0.0
  0
LINE
  5
40D
100
AcDbEntity
  8
0
370
    -3
  6
Continuous
100
AcDbLine
 10
-312.586228
 20
-13.33838
 30
0.0
 11
-312.586228
 21
-25.33838
 31
0.0
  0
ARC
  5
40E
100
AcDbEntity
  8
0
370
    -3
  6
Continuous
100
AcDbCircle
 10
-310.586228
 20
-13.33838
 30
0.0
 40
2.0
100
AcDbArc
 50
90.0
 51
180.0
  0
LINE
  5
40F
100
AcDbEntity
  8
0
370
    -3
  6
Continuous
100
AcDbLine
 10
-312.586228
 20
-37.33838
 30
0.0
 11
-312.586228
 21
-25.33838
 31
0.0
  0
ARC
  5
410
100
AcDbEntity
  8
0
370
    -3
  6
Continuous
100
AcDbCircle
 10
-310.586228
 20
-37.33838
 30
0.0
 40
2.0
100
AcDbArc
 50
180.0
 51
270.0
  0
POINT
  5
411
100
AcDbEntity
  8
0
370
    -3
  6
CENTER
100
AcDbPoint
 10
-312.586228
 20
-14.86088
 30
0.0
  0
POINT
  5
412
100
AcDbEntity
  8
0
370
    -3
  6
CENTER
100
AcDbPoint
 10
-312.586228
 20
-35.81588
 30
0.0
  0
POINT
  5
413
100
AcDbEntity
  8
0
370
    -3
  6
CENTER
100
AcDbPoint
 10
-312.586228
 20
-35.81588
 30
0.0
  0
POINT
  5
414
100
AcDbEntity
  8
0
370
    -3
  6
CENTER
100
AcDbPoint
 10
-312.586228
 20
-14.86088
 30
0.0
  0
LINE
  5
415
100
AcDbEntity
  8
0
370
    -3
  6
Continuous
100
AcDbLine
 10
-204.488759
 20
21.46162
 30
0.0
 11
-287.360288
 21
21.46162
 31
0.0
  0
LINE
  5
416
100
AcDbEntity
  8
0
370
    -3
  6
Continuous
100
AcDbLine
 10
-204.488759
 20
-72.13838
 30
0.0
 11
-287.360288
 21
-72.13838
 31
0.0
  0
ARC
  5
417
100
AcDbEntity
  8
0
370
    -3
  6
Continuous
100
AcDbCircle
 10
-213.105249
 20
183.5
 30
0.0
 40
0.5
100
AcDbArc
 50
180.0
 51
270.0
  0
LINE
  5
418
100
AcDbEntity
  8
0
370
    -3
  6
Continuous
100
AcDbLine
 10
-213.605249
 20
184.5
 30
0.0
 11
-213.605249
 21
183.5
 31
0.0
  0
ARC
  5
419
100
AcDbEntity
  8
0
370
    -3
  6
Continuous
100
AcDbCircle
 10
-214.105249
 20
184.5
 30
0.0
 40
0.5
100
AcDbArc
 50
0.0
 51
90.0
  0
LINE
  5
41A
100
AcDbEntity
  8
0
370
    -3
  6
Continuous
100
AcDbLine
 10
-223.069064
 20
185.0
 30
0.0
 11
-214.105249
 21
185.0
 31
0.0
  0
LINE
  5
41B
100
AcDbEntity
  8
0
370
    -3
  6
Continuous
100
AcDbLine
 10
-260.103375
 20
185.0
 30
0.0
 11
-269.06719
 21
185.0
 31
0.0
  0
LINE
  5
41C
100
AcDbEntity
  8
0
370
    -3
  6
Continuous
100
AcDbLine
 10
-269.56719
 20
184.5
 30
0.0
 11
-269.56719
 21
183.5
 31
0.0
  0
ARC
  5
41D
100
AcDbEntity
  8
0
370
    -3
  6
Continuous
100
AcDbCircle
 10
-270.06719
 20
183.5
 30
0.0
 40
0.5
100
AcDbArc
 50
270.0
 51
0.0
  0
ARC
  5
41E
100
AcDbEntity
  8
0
370
    -3
  6
Continuous
100
AcDbCircle
 10
-269.06719
 20
184.5
 30
0.0
 40
0.5
100
AcDbArc
 50
90.0
 51
180.0
  0
LINE
  5
41F
100
AcDbEntity
  8
0
370
    -3
  6
Continuous
100
AcDbLine
 10
-241.586219
 20
183.0
 30
0.0
 11
-274.40142
 21
183.0
 31
0.0
  0
LINE
  5
420
100
AcDbEntity
  8
0
370
    -3
  6
Continuous
100
AcDbLine
 10
-241.586219
 20
183.0
 30
0.0
 11
-208.771018
 21
183.0
 31
0.0
  0
ARC
  5
421
100
AcDbEntity
  8
0
370
    -3
  6
Continuous
100
AcDbCircle
 10
-270.06719
 20
183.5
 30
0.0
 40
0.5
100
AcDbArc
 50
270.0
 51
0.0
  0
ARC
  5
422
100
AcDbEntity
  8
0
370
    -3
  6
Continuous
100
AcDbCircle
 10
-269.06719
 20
184.5
 30
0.0
 40
0.5
100
AcDbArc
 50
90.0
 51
180.0
  0
LINE
  5
423
100
AcDbEntity
  8
0
370
    -3
  6
Continuous
100
AcDbLine
 10
-269.56719
 20
184.5
 30
0.0
 11
-269.56719
 21
183.5
 31
0.0
  0
ARC
  5
424
100
AcDbEntity
  8
0
370
    -3
  6
Continuous
100
AcDbCircle
 10
-259.06719
 20
183.5
 30
0.0
 40
0.5
100
AcDbArc
 50
180.0
 51
270.0
  0
LINE
  5
425
100
AcDbEntity
  8
0
370
    -3
  6
Continuous
100
AcDbLine
 10
-260.103375
 20
185.0
 30
0.0
 11
-268.760873
 21
185.0
 31
0.0
  0
LINE
  5
426
100
AcDbEntity
  8
0
370
    -3
  6
Continuous
100
AcDbLine
 10
-260.06719
 20
185.0
 30
0.0
 11
-268.760873
 21
185.0
 31
0.0
  0
ARC
  5
427
100
AcDbEntity
  8
0
370
    -3
  6
Continuous
100
AcDbCircle
 10
-260.06719
 20
184.5
 30
0.0
 40
0.5
100
AcDbArc
 50
0.0
 51
90.0
  0
LINE
  5
428
100
AcDbEntity
  8
0
370
    -3
  6
Continuous
100
AcDbLine
 10
-259.56719
 20
184.5
 30
0.0
 11
-259.56719
 21
183.5
 31
0.0
  0
ARC
  5
429
100
AcDbEntity
  8
0
370
    -3
  6
Continuous
100
AcDbCircle
 10
-223.105249
 20
184.5
 30
0.0
 40
0.5
100
AcDbArc
 50
90.0
 51
180.0
  0
LINE
  5
42A
100
AcDbEntity
  8
0
370
    -3
  6
Continuous
100
AcDbLine
 10
-223.605249
 20
184.5
 30
0.0
 11
-223.605249
 21
183.5
 31
0.0
  0
ARC
  5
42B
100
AcDbEntity
  8
0
370
    -3
  6
Continuous
100
AcDbCircle
 10
-224.105249
 20
183.5
 30
0.0
 40
0.5
100
AcDbArc
 50
270.0
 51
0.0
  0
ARC
  5
42C
100
AcDbEntity
  8
0
370
    -3
  6
Continuous
100
AcDbCircle
 10
-213.105249
 20
183.5
 30
0.0
 40
0.5
100
AcDbArc
 50
180.0
 51
270.0
  0
LINE
  5
42D
100
AcDbEntity
  8
0
370
    -3
  6
Continuous
100
AcDbLine
 10
-223.069064
 20
185.0
 30
0.0
 11
-214.105249
 21
185.0
 31
0.0
  0
ARC
  5
42E
100
AcDbEntity
  8
0
370
    -3
  6
Continuous
100
AcDbCircle
 10
-214.105249
 20
184.5
 30
0.0
 40
0.5
100
AcDbArc
 50
0.0
 51
90.0
  0
LINE
  5
42F
100
AcDbEntity
  8
0
370
    -3
  6
Continuous
100
AcDbLine
 10
-213.605249
 20
184.5
 30
0.0
 11
-213.605249
 21
183.5
 31
0.0
  0
LINE
  5
430
100
AcDbEntity
  8
0
370
    -3
  6
Continuous
100
AcDbLine
 10
-208.771018
 20
183.0
 30
0.0
 11
-208.771018
 21
185.0
 31
0.0
  0
LINE
  5
431
100
AcDbEntity
  8
0
370
    -3
  6
Continuous
100
AcDbLine
 10
-274.40142
 20
183.0
 30
0.0
 11
-274.40142
 21
185.0
 31
0.0
  0
LINE
  5
432
100
AcDbEntity
  8
0
370
    -3
  6
CENTER
100
AcDbLine
 10
-241.586219
 20
189.777417
 30
0.0
 11
-241.586219
 21
166.867441
 31
0.0
  0
ARC
  5
433
100
AcDbEntity
  8
0
370
    -3
  6
Continuous
100
AcDbCircle
 10
-270.85113
 20
171.3
 30
0.0
 40
0.3
100
AcDbArc
 50
270.0
 51
346.657636
  0
ARC
  5
434
100
AcDbEntity
  8
0
370
    -3
  6
Continuous
100
AcDbCircle
 10
-212.321308
 20
171.3
 30
0.0
 40
0.3
100
AcDbArc
 50
193.342364
 51
270.0
  0
ARC
  5
435
100
AcDbEntity
  8
0
370
    -3
  6
Continuous
100
AcDbCircle
 10
-279.786219
 20
164.2
 30
0.0
 40
6.8
100
AcDbArc
 50
90.0
 51
180.0
  0
LINE
  5
436
100
AcDbEntity
  8
0
370
    -3
  6
Continuous
100
AcDbLine
 10
-210.586219
 20
173.0
 30
0.0
 11
-210.586219
 21
172.0
 31
0.0
  0
LINE
  5
437
100
AcDbEntity
  8
0
370
    -3
  6
Continuous
100
AcDbLine
 10
-272.586219
 20
173.0
 30
0.0
 11
-272.586219
 21
172.0
 31
0.0
  0
LINE
  5
438
100
AcDbEntity
  8
0
370
    -3
  6
Continuous
100
AcDbLine
 10
-272.586219
 20
172.0
 30
0.0
 11
-210.586219
 21
172.0
 31
0.0
  0
LINE
  5
439
100
AcDbEntity
  8
0
370
    -3
  6
Continuous
100
AcDbLine
 10
-272.586219
 20
173.0
 30
0.0
 11
-210.586219
 21
173.0
 31
0.0
  0
LINE
  5
43A
100
AcDbEntity
  8
0
370
    -3
  6
Continuous
100
AcDbLine
 10
-288.586219
 20
160.0
 30
0.0
 11
-286.586219
 21
160.0
 31
0.0
  0
LINE
  5
43B
100
AcDbEntity
  8
0
370
    -3
  6
Continuous
100
AcDbLine
 10
-310.586219
 20
160.0
 30
0.0
 11
-288.586219
 21
160.0
 31
0.0
  0
ARC
  5
43C
100
AcDbEntity
  8
0
370
    -3
  6
Continuous
100
AcDbCircle
 10
-310.586219
 20
158.0
 30
0.0
 40
2.0
100
AcDbArc
 50
90.0
 51
180.0
  0
ARC
  5
43D
100
AcDbEntity
  8
0
370
    -3
  6
Continuous
100
AcDbCircle
 10
-310.586219
 20
134.0
 30
0.0
 40
2.0
100
AcDbArc
 50
180.0
 51
270.0
  0
LINE
  5
43E
100
AcDbEntity
  8
0
370
    -3
  6
Continuous
100
AcDbLine
 10
-312.586219
 20
158.0
 30
0.0
 11
-312.586219
 21
146.0
 31
0.0
  0
LINE
  5
43F
100
AcDbEntity
  8
0
370
    -3
  6
Continuous
100
AcDbLine
 10
-312.586219
 20
134.0
 30
0.0
 11
-312.586219
 21
146.0
 31
0.0
  0
LINE
  5
440
100
AcDbEntity
  8
0
370
    -3
  6
CENTER
100
AcDbLine
 10
-318.064843
 20
146.0
 30
0.0
 11
-277.758356
 21
146.0
 31
0.0
  0
LINE
  5
441
100
AcDbEntity
  8
0
370
    -3
  6
Continuous
100
AcDbLine
 10
-288.586219
 20
160.0
 30
0.0
 11
-288.586219
 21
146.0
 31
0.0
  0
ARC
  5
442
100
AcDbEntity
  8
0
370
    -3
  6
Continuous
100
AcDbCircle
 10
-213.586219
 20
171.0
 30
0.0
 40
1.0
100
AcDbArc
 50
13.342364
 51
90.0
  0
LINE
  5
443
100
AcDbEntity
  8
0
370
    -3
  6
Continuous
100
AcDbLine
 10
-279.786219
 20
171.0
 30
0.0
 11
-210.148066
 21
171.0
 31
0.0
  0
ARC
  5
444
100
AcDbEntity
  8
0
370
    -3
  6
Continuous
100
AcDbCircle
 10
-269.586219
 20
171.0
 30
0.0
 40
1.0
100
AcDbArc
 50
90.0
 51
166.657636
  0
ARC
  5
445
100
AcDbEntity
  8
0
370
    -3
  6
Continuous
100
AcDbCircle
 10
-224.271303
 20
167.2
 30
0.0
 40
3.8
100
AcDbArc
 50
25.0
 51
90.0
  0
LINE
  5
446
100
AcDbEntity
  8
0
370
    -3
  6
CENTER
100
AcDbLine
 10
-241.586219
 20
189.777417
 30
0.0
 11
-241.586219
 21
160.867441
 31
0.0
  0
ARC
  5
447
100
AcDbEntity
  8
0
370
    -3
  6
Continuous
100
AcDbCircle
 10
-271.910526
 20
168.0
 30
0.0
 40
3.0
100
AcDbArc
 50
90.0
 51
180.0
  0
POINT
  5
448
100
AcDbEntity
  8
0
370
    -3
  6
CENTER
100
AcDbPoint
 10
-312.586219
 20
156.4775
 30
0.0
  0
POINT
  5
449
100
AcDbEntity
  8
0
370
    -3
  6
CENTER
100
AcDbPoint
 10
-312.586219
 20
135.5225
 30
0.0
  0
LINE
  5
44A
100
AcDbEntity
  8
0
370
    -3
  6
Continuous
100
AcDbLine
 10
-310.586219
 20
132.0
 30
0.0
 11
-286.586219
 21
132.0
 31
0.0
  0
LINE
  5
44B
100
AcDbEntity
  8
0
370
    -3
  6
Continuous
100
AcDbLine
 10
-217.399071
 20
161.454017
 30
0.0
 11
-220.827333
 21
168.805949
 31
0.0
  0
LINE
  5
44C
100
AcDbEntity
  8
0
370
    -3
  6
Continuous
100
AcDbLine
 10
-205.798331
 20
166.863531
 30
0.0
 11
-206.704096
 21
168.805949
 31
0.0
  0
ARC
  5
44D
100
AcDbEntity
  8
0
370
    -3
  6
Continuous
100
AcDbCircle
 10
-275.604823
 20
124.602503
 30
0.0
 40
3.0
100
AcDbArc
 50
25.0
 51
115.0
  0
LINE
  5
44E
100
AcDbEntity
  8
0
370
    -3
  6
Continuous
100
AcDbLine
 10
-286.996935
 20
129.0
 30
0.0
 11
-295.160279
 21
125.19337
 31
0.0
  0
LINE
  5
44F
100
AcDbEntity
  8
0
370
    -3
  6
Continuous
100
AcDbLine
 10
-288.586219
 20
146.0
 30
0.0
 11
-288.586219
 21
132.0
 31
0.0
  0
LINE
  5
450
100
AcDbEntity
  8
0
370
    -3
  6
Continuous
100
AcDbLine
 10
-286.586219
 20
129.19152
 30
0.0
 11
-286.586219
 21
164.2
 31
0.0
  0
LINE
  5
451
100
AcDbEntity
  8
0
370
    -3
  6
Continuous
100
AcDbLine
 10
-274.910526
 20
134.635985
 30
0.0
 11
-274.910526
 21
168.0
 31
0.0
  0
ARC
  5
452
100
AcDbEntity
  8
0
370
    -3
  6
Continuous
100
AcDbCircle
 10
-210.148066
 20
167.2
 30
0.0
 40
3.8
100
AcDbArc
 50
25.0
 51
90.0
  0
LINE
  5
453
100
AcDbEntity
  8
0
370
    -3
  6
Continuous
100
AcDbLine
 10
-197.728037
 20
164.227179
 30
0.0
 11
-291.077739
 21
120.697498
 31
0.0
  0
LINE
  5
454
100
AcDbEntity
  8
0
370
    -3
  6
Continuous
100
AcDbLine
 10
-196.857396
 20
166.619246
 30
0.0
 11
-198.547869
 21
170.244477
 31
0.0
  0
LINE
  5
455
100
AcDbEntity
  8
0
370
    -3
  6
Continuous
100
AcDbLine
 10
-198.547869
 20
170.244477
 30
0.0
 11
-286.996935
 21
129.0
 31
0.0
  0
ARC
  5
456
100
AcDbEntity
  8
0
370
    -3
  6
Continuous
100
AcDbCircle
 10
-198.48875
 20
165.858533
 30
0.0
 40
1.8
100
AcDbArc
 50
295.0
 51
25.0
  0
LINE
  5
457
100
AcDbEntity
  8
0
370
    -3
  6
CENTER
100
AcDbLine
 10
-204.423558
 20
164.38856
 30
0.0
 11
-201.553637
 21
158.233995
 31
0.0
  0
POINT
  5
458
100
AcDbEntity
  8
0
370
    -3
  6
Continuous
100
AcDbPoint
 10
-203.189594
 20
161.680413
 30
0.0
  0
LINE
  5
459
100
AcDbEntity
  8
0
370
    -3
  6
Continuous
100
AcDbLine
 10
-199.993807
 20
163.170633
 30
0.0
 11
-199.580053
 21
162.283335
 31
0.0
  0
LINE
  5
45A
100
AcDbEntity
  8
0
370
    -3
  6
CENTER
100
AcDbLine
 10
-204.423558
 20
164.38856
 30
0.0
 11
-201.553637
 21
158.233995
 31
0.0
  0
ARC
  5
45B
100
AcDbEntity
  8
0
370
    -3
  6
Continuous
100
AcDbCircle
 10
-200.758252
 20
161.733931
 30
0.0
 40
1.299999
100
AcDbArc
 50
311.601548
 51
25.000018
  0
ARC
  5
45C
100
AcDbEntity
  8
0
370
    -3
  6
Continuous
100
AcDbCircle
 10
-205.870641
 20
167.491839
 30
0.0
 40
9.0
100
AcDbArc
 50
278.398469
 51
311.601548
  0
LINE
  5
45D
100
AcDbEntity
  8
0
370
    -3
  6
Continuous
100
AcDbLine
 10
-206.337961
 20
160.212305
 30
0.0
 11
-205.924207
 21
159.325007
 31
0.0
  0
ARC
  5
45E
100
AcDbEntity
  8
0
370
    -3
  6
Continuous
100
AcDbCircle
 10
-204.746008
 20
159.87441
 30
0.0
 40
1.299999
100
AcDbArc
 50
204.999999
 51
278.398469
  0
ARC
  5
45F
100
AcDbEntity
  8
0
370
    -3
  6
Continuous
100
AcDbCircle
 10
-210.665244
 20
154.884326
 30
0.0
 40
3.0
100
AcDbArc
 50
115.0
 51
205.0
  0
LINE
  5
460
100
AcDbEntity
  8
0
370
    -3
  6
Continuous
100
AcDbLine
 10
-208.648741
 20
143.461316
 30
0.0
 11
-213.384167
 21
153.616472
 31
0.0
  0
ARC
  5
461
100
AcDbEntity
  8
0
370
    -3
  6
Continuous
100
AcDbCircle
 10
-211.186402
 20
142.277985
 30
0.0
 40
2.8
100
AcDbArc
 50
344.545811
 51
25.0
  0
ARC
  5
462
100
AcDbEntity
  8
0
370
    -3
  6
Continuous
100
AcDbCircle
 10
-222.076124
 20
133.716302
 30
0.0
 40
10.8
100
AcDbArc
 50
272.437505
 51
342.341575
  0
ARC
  5
463
100
AcDbEntity
  8
0
370
    -3
  6
Continuous
100
AcDbCircle
 10
-498.411859
 20
221.685397
 30
0.0
 40
300.8
100
AcDbArc
 50
342.341575
 51
347.89975
  0
POINT
  5
464
100
AcDbEntity
  8
0
370
    -3
  6
Continuous
100
AcDbPoint
 10
-312.586219
 20
134.0
 30
0.0
  0
POINT
  5
465
100
AcDbEntity
  8
0
370
    -3
  6
Continuous
100
AcDbPoint
 10
-312.586219
 20
135.5225
 30
0.0
  0
LINE
  5
466
100
AcDbEntity
  8
0
370
    -3
  6
Continuous
100
AcDbLine
 10
-293.469806
 20
121.568139
 30
0.0
 11
-295.160279
 21
125.19337
 31
0.0
  0
ARC
  5
467
100
AcDbEntity
  8
0
370
    -3
  6
Continuous
100
AcDbCircle
 10
-291.838452
 20
122.328852
 30
0.0
 40
1.8
100
AcDbArc
 50
205.0
 51
295.0
  0
LINE
  5
468
100
AcDbEntity
  8
0
370
    -3
  6
CENTER
100
AcDbLine
 10
-286.897567
 20
125.930298
 30
0.0
 11
-284.027646
 21
119.775733
 31
0.0
  0
ARC
  5
469
100
AcDbEntity
  8
0
370
    -3
  6
Continuous
100
AcDbCircle
 10
-288.344649
 20
129.033577
 30
0.0
 40
9.0
100
AcDbArc
 50
278.398469
 51
311.601548
  0
POINT
  5
46A
100
AcDbEntity
  8
0
370
    -3
  6
Continuous
100
AcDbPoint
 10
-285.639893
 20
123.233207
 30
0.0
  0
LINE
  5
46B
100
AcDbEntity
  8
0
370
    -3
  6
Continuous
100
AcDbLine
 10
-282.467815
 20
124.712371
 30
0.0
 11
-282.054061
 21
123.825073
 31
0.0
  0
LINE
  5
46C
100
AcDbEntity
  8
0
370
    -3
  6
Continuous
100
AcDbLine
 10
-288.81197
 20
121.754043
 30
0.0
 11
-288.398216
 21
120.866745
 31
0.0
  0
ARC
  5
46D
100
AcDbEntity
  8
0
370
    -3
  6
Continuous
100
AcDbCircle
 10
-283.232261
 20
123.27567
 30
0.0
 40
1.299999
100
AcDbArc
 50
311.601548
 51
25.000018
  0
ARC
  5
46E
100
AcDbEntity
  8
0
370
    -3
  6
Continuous
100
AcDbCircle
 10
-287.220016
 20
121.416149
 30
0.0
 40
1.299999
100
AcDbArc
 50
204.999999
 51
278.398469
  0
ARC
  5
46F
100
AcDbEntity
  8
0
370
    -3
  6
Continuous
100
AcDbCircle
 10
-269.673207
 20
125.606082
 30
0.0
 40
2.8
100
AcDbArc
 50
205.0
 51
267.843273
  0
LINE
  5
470
100
AcDbEntity
  8
0
370
    -3
  6
Continuous
100
AcDbLine
 10
-272.8859
 20
125.870358
 30
0.0
 11
-272.210869
 21
124.422751
 31
0.0
  0
ARC
  5
471
100
AcDbEntity
  8
0
370
    -3
  6
Continuous
100
AcDbCircle
 10
-247.168617
 20
723.182473
 30
0.0
 40
600.8
100
AcDbArc
 50
266.682408
 51
272.437505
  0
LINE
  5
472
100
AcDbEntity
  8
0
370
    -3
  6
Continuous
100
AcDbLine
 10
-274.40142
 20
183.0
 30
0.0
 11
-274.085915
 21
173.965101
 31
0.0
  0
LINE
  5
473
100
AcDbEntity
  8
0
370
    -3
  6
Continuous
100
AcDbLine
 10
-208.771018
 20
183.0
 30
0.0
 11
-209.086524
 21
173.965101
 31
0.0
  0
LINE
  5
474
100
AcDbEntity
  8
0
370
    -3
  6
Continuous
100
AcDbLine
 10
-210.085915
 20
173.0
 30
0.0
 11
-273.112062
 21
173.0
 31
0.0
  0
ARC
  5
475
100
AcDbEntity
  8
0
370
    -3
  6
Continuous
100
AcDbCircle
 10
-210.085915
 20
174.0
 30
0.0
 40
1.0
100
AcDbArc
 50
270.0
 51
358.0
  0
ARC
  5
476
100
AcDbEntity
  8
0
370
    -3
  6
Continuous
100
AcDbCircle
 10
-273.086524
 20
174.0
 30
0.0
 40
1.0
100
AcDbArc
 50
182.0
 51
270.0
  0
LINE
  5
477
100
AcDbEntity
  8
0
370
    -3
  6
Continuous
100
AcDbLine
 10
-273.336228
 20
185.0
 30
0.0
 11
-204.836219
 21
185.0
 31
0.0
  0
LINE
  5
478
100
AcDbEntity
  8
0
370
    -3
  6
Continuous
100
AcDbLine
 10
-204.836219
 20
186.505412
 30
0.0
 11
-204.836219
 21
185.0
 31
0.0
  0
LINE
  5
479
100
AcDbEntity
  8
0
370
    -3
  6
Continuous
100
AcDbLine
 10
-208.771018
 20
185.0
 30
0.0
 11
-274.40142
 21
185.0
 31
0.0
  0
LINE
  5
47A
100
AcDbEntity
  8
0
370
    -3
  6
Continuous
100
AcDbLine
 10
-273.336228
 20
185.0
 30
0.0
 11
-273.336228
 21
185.660251
 31
0.0
  0
LINE
  5
47B
100
AcDbEntity
  8
0
370
    -3
  6
Continuous
100
AcDbLine
 10
-437.257368
 20
1.492991
 30
0.0
 11
-399.900771
 21
1.492991
 31
0.0
  0
ARC
  5
47C
100
AcDbEntity
  8
0
370
    -3
  6
Continuous
100
AcDbCircle
 10
-437.257368
 20
-5.307009
 30
0.0
 40
6.8
100
AcDbArc
 50
90.0
 51
180.0
  0
ARC
  5
47D
100
AcDbEntity
  8
0
370
    -3
  6
Continuous
100
AcDbCircle
 10
-437.257368
 20
-45.369751
 30
0.0
 40
6.8
100
AcDbArc
 50
180.0
 51
270.0
  0
LINE
  5
47E
100
AcDbEntity
  8
0
370
    -3
  6
Continuous
100
AcDbLine
 10
-437.257368
 20
-52.169751
 30
0.0
 11
-399.900771
 21
-52.169751
 31
0.0
  0
ARC
  5
47F
100
AcDbEntity
  8
0
370
    -3
  6
Continuous
100
AcDbCircle
 10
-419.057368
 20
-25.33838
 30
0.0
 40
10.4775
100
AcDbArc
 50
0.0
 51
180.0
  0
ARC
  5
480
100
AcDbEntity
  8
0
370
    -3
  6
Continuous
100
AcDbCircle
 10
-419.057368
 20
-25.33838
 30
0.0
 40
9.3155
100
AcDbArc
 50
0.0
 51
180.0
  0
ARC
  5
481
100
AcDbEntity
  8
0
370
    -3
  6
Continuous
100
AcDbCircle
 10
-419.057368
 20
-25.33838
 30
0.0
 40
14.0
100
AcDbArc
 50
0.0
 51
180.0
  0
LINE
  5
482
100
AcDbEntity
  8
0
370
    -3
  6
Continuous
100
AcDbLine
 10
-398.250738
 20
-25.33838
 30
0.0
 11
-398.250738
 21
13.66162
 31
0.0
  0
LINE
  5
483
100
AcDbEntity
  8
0
370
    -3
  6
Continuous
100
AcDbLine
 10
-434.547254
 20
20.16162
 30
0.0
 11
-402.990756
 21
20.16162
 31
0.0
  0
LINE
  5
484
100
AcDbEntity
  8
0
370
    -3
  6
Continuous
100
AcDbLine
 10
-443.301844
 20
13.66162
 30
0.0
 11
-443.301844
 21
10.276793
 31
0.0
  0
LINE
  5
485
100
AcDbEntity
  8
0
370
    -3
  6
Continuous
100
AcDbLine
 10
-442.96375
 20
10.85989
 30
0.0
 11
-442.96375
 21
13.66162
 31
0.0
  0
ARC
  5
486
100
AcDbEntity
  8
0
370
    -3
  6
Continuous
100
AcDbCircle
 10
-444.057368
 20
2.66162
 30
0.0
 40
1.0
100
AcDbArc
 50
103.342364
 51
180.0
  0
ARC
  5
487
100
AcDbEntity
  8
0
370
    -3
  6
Continuous
100
AcDbCircle
 10
-444.357368
 20
3.926531
 30
0.0
 40
0.3
100
AcDbArc
 50
283.342364
 51
0.0
  0
ARC
  5
488
100
AcDbEntity
  8
0
370
    -3
  6
Continuous
100
AcDbCircle
 10
-434.547254
 20
14.16162
 30
0.0
 40
6.0
100
AcDbArc
 50
90.0
 51
180.0
  0
LINE
  5
489
100
AcDbEntity
  8
0
370
    -3
  6
Continuous
100
AcDbLine
 10
-440.547254
 20
13.112808
 30
0.0
 11
-440.547254
 21
14.16162
 31
0.0
  0
ARC
  5
48A
100
AcDbEntity
  8
0
370
    -3
  6
Continuous
100
AcDbCircle
 10
-437.257368
 20
7.16162
 30
0.0
 40
6.8
100
AcDbArc
 50
90.0
 51
180.0
  0
LINE
  5
48B
100
AcDbEntity
  8
0
370
    -3
  6
Continuous
100
AcDbLine
 10
-444.057368
 20
-25.33838
 30
0.0
 11
-444.057368
 21
7.16162
 31
0.0
  0
ARC
  5
48C
100
AcDbEntity
  8
0
370
    -3
  6
Continuous
100
AcDbCircle
 10
-407.624509
 20
10.16162
 30
0.0
 40
3.8
100
AcDbArc
 50
22.977375
 51
90.0
  0
ARC
  5
48D
100
AcDbEntity
  8
0
370
    -3
  6
Continuous
100
AcDbCircle
 10
-403.621456
 20
0.720653
 30
0.0
 40
3.8
100
AcDbArc
 50
0.0
 51
22.977375
  0
LINE
  5
48E
100
AcDbEntity
  8
0
370
    -3
  6
Continuous
100
AcDbLine
 10
-400.122951
 20
2.20405
 30
0.0
 11
-404.126005
 21
11.645017
 31
0.0
  0
LINE
  5
48F
100
AcDbEntity
  8
0
370
    -3
  6
Continuous
100
AcDbLine
 10
-437.257368
 20
13.96162
 30
0.0
 11
-407.624509
 21
13.96162
 31
0.0
  0
LINE
  5
490
100
AcDbEntity
  8
0
370
    -3
  6
Continuous
100
AcDbLine
 10
-399.821456
 20
-25.33838
 30
0.0
 11
-399.821456
 21
0.720653
 31
0.0
  0
LINE
  5
491
100
AcDbEntity
  8
0
370
    -3
  6
Continuous
100
AcDbLine
 10
-445.057368
 20
-25.33838
 30
0.0
 11
-445.057368
 21
2.66162
 31
0.0
  0
ARC
  5
492
100
AcDbEntity
  8
0
370
    -3
  6
Continuous
100
AcDbCircle
 10
-435.96375
 20
13.66162
 30
0.0
 40
7.0
100
AcDbArc
 50
90.0
 51
180.0
  0
LINE
  5
493
100
AcDbEntity
  8
0
370
    -3
  6
Continuous
100
AcDbLine
 10
-446.057368
 20
5.66162
 30
0.0
 11
-445.057368
 21
5.66162
 31
0.0
  0
LINE
  5
494
100
AcDbEntity
  8
0
370
    -3
  6
Continuous
100
AcDbLine
 10
-445.057368
 20
5.66162
 30
0.0
 11
-445.057368
 21
-25.33838
 31
0.0
  0
LINE
  5
495
100
AcDbEntity
  8
0
370
    -3
  6
Continuous
100
AcDbLine
 10
-393.586219
 20
13.66162
 30
0.0
 11
-393.586219
 21
-25.33838
 31
0.0
  0
LINE
  5
496
100
AcDbEntity
  8
0
370
    -3
  6
Continuous
100
AcDbLine
 10
-398.588832
 20
-25.33838
 30
0.0
 11
-398.588832
 21
13.66162
 31
0.0
  0
LINE
  5
497
100
AcDbEntity
  8
0
370
    -3
  6
Continuous
100
AcDbLine
 10
-401.386219
 20
21.46162
 30
0.0
 11
-435.501844
 21
21.46162
 31
0.0
  0
ELLIPSE
  5
498
100
AcDbEntity
  8
0
370
    -3
  6
Continuous
100
AcDbEllipse
 10
-395.471628
 20
14.16162
 30
0.0
 11
0.0
 21
3.5
 31
0.0
210
0.0
220
0.0
230
1.0
 40
0.656603
 41
4.1037320181003913
 42
5.8501343317260348
  0
ARC
  5
499
100
AcDbEntity
  8
0
370
    -3
  6
Continuous
100
AcDbCircle
 10
-401.386219
 20
13.66162
 30
0.0
 40
7.8
100
AcDbArc
 50
0.0
 51
90.0
  0
ARC
  5
49A
100
AcDbEntity
  8
0
370
    -3
  6
Continuous
100
AcDbCircle
 10
-406.050738
 20
13.66162
 30
0.0
 40
7.8
100
AcDbArc
 50
0.0
 51
90.0
  0
ARC
  5
49B
100
AcDbEntity
  8
0
370
    -3
  6
Continuous
100
AcDbCircle
 10
-405.588832
 20
13.66162
 30
0.0
 40
7.0
100
AcDbArc
 50
0.0
 51
90.0
  0
LINE
  5
49C
100
AcDbEntity
  8
0
370
    -3
  6
Continuous
100
AcDbLine
 10
-405.588832
 20
20.66162
 30
0.0
 11
-435.96375
 21
20.66162
 31
0.0
  0
ARC
  5
49D
100
AcDbEntity
  8
0
370
    -3
  6
Continuous
100
AcDbCircle
 10
-435.501844
 20
13.66162
 30
0.0
 40
7.8
100
AcDbArc
 50
90.0
 51
180.0
  0
LINE
  5
49E
100
AcDbEntity
  8
0
370
    -3
  6
CENTER
100
AcDbLine
 10
-419.057368
 20
-6.693448
 30
0.0
 11
-419.057368
 21
-46.638837
 31
0.0
  0
LINE
  5
49F
100
AcDbEntity
  8
0
370
    -3
  6
Continuous
100
AcDbLine
 10
-398.250738
 20
-25.33838
 30
0.0
 11
-398.250738
 21
-64.33838
 31
0.0
  0
LINE
  5
4A0
100
AcDbEntity
  8
0
370
    -3
  6
Continuous
100
AcDbLine
 10
-434.547254
 20
-70.83838
 30
0.0
 11
-402.990756
 21
-70.83838
 31
0.0
  0
LINE
  5
4A1
100
AcDbEntity
  8
0
370
    -3
  6
Continuous
100
AcDbLine
 10
-443.301844
 20
-64.33838
 30
0.0
 11
-443.301844
 21
-60.953553
 31
0.0
  0
LINE
  5
4A2
100
AcDbEntity
  8
0
370
    -3
  6
Continuous
100
AcDbLine
 10
-442.96375
 20
-61.536651
 30
0.0
 11
-442.96375
 21
-64.33838
 31
0.0
  0
ARC
  5
4A3
100
AcDbEntity
  8
0
370
    -3
  6
Continuous
100
AcDbCircle
 10
-444.057368
 20
-53.33838
 30
0.0
 40
1.0
100
AcDbArc
 50
180.0
 51
256.657636
  0
ARC
  5
4A4
100
AcDbEntity
  8
0
370
    -3
  6
Continuous
100
AcDbCircle
 10
-444.357368
 20
-54.603291
 30
0.0
 40
0.3
100
AcDbArc
 50
0.0
 51
76.657636
  0
ARC
  5
4A5
100
AcDbEntity
  8
0
370
    -3
  6
Continuous
100
AcDbCircle
 10
-434.547254
 20
-64.83838
 30
0.0
 40
6.0
100
AcDbArc
 50
180.0
 51
270.0
  0
LINE
  5
4A6
100
AcDbEntity
  8
0
370
    -3
  6
Continuous
100
AcDbLine
 10
-440.547254
 20
-63.789569
 30
0.0
 11
-440.547254
 21
-64.83838
 31
0.0
  0
ARC
  5
4A7
100
AcDbEntity
  8
0
370
    -3
  6
Continuous
100
AcDbCircle
 10
-437.257368
 20
-57.83838
 30
0.0
 40
6.8
100
AcDbArc
 50
180.0
 51
270.0
  0
LINE
  5
4A8
100
AcDbEntity
  8
0
370
    -3
  6
Continuous
100
AcDbLine
 10
-444.057368
 20
-25.33838
 30
0.0
 11
-444.057368
 21
-57.83838
 31
0.0
  0
ARC
  5
4A9
100
AcDbEntity
  8
0
370
    -3
  6
Continuous
100
AcDbCircle
 10
-407.624509
 20
-60.83838
 30
0.0
 40
3.8
100
AcDbArc
 50
270.0
 51
337.022625
  0
ARC
  5
4AA
100
AcDbEntity
  8
0
370
    -3
  6
Continuous
100
AcDbCircle
 10
-403.621456
 20
-51.397414
 30
0.0
 40
3.8
100
AcDbArc
 50
337.022625
 51
0.0
  0
LINE
  5
4AB
100
AcDbEntity
  8
0
370
    -3
  6
Continuous
100
AcDbLine
 10
-400.122951
 20
-52.880811
 30
0.0
 11
-404.126005
 21
-62.321777
 31
0.0
  0
LINE
  5
4AC
100
AcDbEntity
  8
0
370
    -3
  6
Continuous
100
AcDbLine
 10
-437.257368
 20
-64.63838
 30
0.0
 11
-407.624509
 21
-64.63838
 31
0.0
  0
LINE
  5
4AD
100
AcDbEntity
  8
0
370
    -3
  6
Continuous
100
AcDbLine
 10
-399.821456
 20
-25.33838
 30
0.0
 11
-399.821456
 21
-51.397414
 31
0.0
  0
LINE
  5
4AE
100
AcDbEntity
  8
0
370
    -3
  6
Continuous
100
AcDbLine
 10
-445.057368
 20
-25.33838
 30
0.0
 11
-445.057368
 21
-53.33838
 31
0.0
  0
ARC
  5
4AF
100
AcDbEntity
  8
0
370
    -3
  6
Continuous
100
AcDbCircle
 10
-435.96375
 20
-64.33838
 30
0.0
 40
7.0
100
AcDbArc
 50
180.0
 51
270.0
  0
LINE
  5
4B0
100
AcDbEntity
  8
0
370
    -3
  6
Continuous
100
AcDbLine
 10
-446.057368
 20
-56.33838
 30
0.0
 11
-445.057368
 21
-56.33838
 31
0.0
  0
LINE
  5
4B1
100
AcDbEntity
  8
0
370
    -3
  6
Continuous
100
AcDbLine
 10
-445.057368
 20
-56.33838
 30
0.0
 11
-445.057368
 21
-25.33838
 31
0.0
  0
LINE
  5
4B2
100
AcDbEntity
  8
0
370
    -3
  6
Continuous
100
AcDbLine
 10
-393.586219
 20
-64.33838
 30
0.0
 11
-393.586219
 21
-25.33838
 31
0.0
  0
LINE
  5
4B3
100
AcDbEntity
  8
0
370
    -3
  6
Continuous
100
AcDbLine
 10
-398.588832
 20
-25.33838
 30
0.0
 11
-398.588832
 21
-64.33838
 31
0.0
  0
LINE
  5
4B4
100
AcDbEntity
  8
0
370
    -3
  6
Continuous
100
AcDbLine
 10
-401.386219
 20
-72.13838
 30
0.0
 11
-435.501844
 21
-72.13838
 31
0.0
  0
ELLIPSE
  5
4B5
100
AcDbEntity
  8
0
370
    -3
  6
Continuous
100
AcDbEllipse
 10
-395.471628
 20
-64.83838
 30
0.0
 11
0.0
 21
3.5
 31
0.0
210
0.0
220
0.0
230
1.0
 40
0.656603
 41
3.5746436290429577
 42
5.3210459426689347
  0
ARC
  5
4B6
100
AcDbEntity
  8
0
370
    -3
  6
Continuous
100
AcDbCircle
 10
-401.386219
 20
-64.33838
 30
0.0
 40
7.8
100
AcDbArc
 50
270.0
 51
0.0
  0
ARC
  5
4B7
100
AcDbEntity
  8
0
370
    -3
  6
Continuous
100
AcDbCircle
 10
-406.050738
 20
-64.33838
 30
0.0
 40
7.8
100
AcDbArc
 50
270.0
 51
0.0
  0
ARC
  5
4B8
100
AcDbEntity
  8
0
370
    -3
  6
Continuous
100
AcDbCircle
 10
-405.588832
 20
-64.33838
 30
0.0
 40
7.0
100
AcDbArc
 50
270.0
 51
0.0
  0
LINE
  5
4B9
100
AcDbEntity
  8
0
370
    -3
  6
Continuous
100
AcDbLine
 10
-405.588832
 20
-71.33838
 30
0.0
 11
-435.96375
 21
-71.33838
 31
0.0
  0
ARC
  5
4BA
100
AcDbEntity
  8
0
370
    -3
  6
Continuous
100
AcDbCircle
 10
-435.501844
 20
-64.33838
 30
0.0
 40
7.8
100
AcDbArc
 50
180.0
 51
270.0
  0
ARC
  5
4BB
100
AcDbEntity
  8
0
370
    -3
  6
Continuous
100
AcDbCircle
 10
-419.057368
 20
-25.33838
 30
0.0
 40
10.4775
100
AcDbArc
 50
180.0
 51
360.0
  0
ARC
  5
4BC
100
AcDbEntity
  8
0
370
    -3
  6
Continuous
100
AcDbCircle
 10
-419.057368
 20
-25.33838
 30
0.0
 40
9.3155
100
AcDbArc
 50
180.0
 51
360.0
  0
ARC
  5
4BD
100
AcDbEntity
  8
0
370
    -3
  6
Continuous
100
AcDbCircle
 10
-419.057368
 20
-25.33838
 30
0.0
 40
14.0
100
AcDbArc
 50
180.0
 51
360.0
  0
ARC
  5
4BE
100
AcDbEntity
  8
0
370
    -3
  6
Continuous
100
AcDbCircle
 10
-456.557368
 20
3.14259
 30
0.0
 40
0.5
100
AcDbArc
 50
304.131887
 51
0.0
  0
LINE
  5
4BF
100
AcDbEntity
  8
0
370
    -3
  6
Continuous
100
AcDbLine
 10
-456.057368
 20
2.007241
 30
0.0
 11
-456.057368
 21
7.476821
 31
0.0
  0
LINE
  5
4C0
100
AcDbEntity
  8
0
370
    -3
  6
Continuous
100
AcDbLine
 10
-446.057368
 20
6.161924
 30
0.0
 11
-446.057368
 21
-25.33838
 31
0.0
  0
LINE
  5
4C1
100
AcDbEntity
  8
0
370
    -3
  6
Continuous
100
AcDbLine
 10
-456.057368
 20
7.476821
 30
0.0
 11
-447.022468
 21
7.161315
 31
0.0
  0
ARC
  5
4C2
100
AcDbEntity
  8
0
370
    -3
  6
Continuous
100
AcDbCircle
 10
-447.057368
 20
6.161924
 30
0.0
 40
1.0
100
AcDbArc
 50
0.0
 51
88.0
  0
ARC
  5
4C3
100
AcDbEntity
  8
0
370
    -3
  6
Continuous
100
AcDbCircle
 10
-456.557368
 20
-53.819351
 30
0.0
 40
0.5
100
AcDbArc
 50
0.0
 51
55.868113
  0
LINE
  5
4C4
100
AcDbEntity
  8
0
370
    -3
  6
Continuous
100
AcDbLine
 10
-456.057368
 20
-52.684002
 30
0.0
 11
-456.057368
 21
-58.153581
 31
0.0
  0
LINE
  5
4C5
100
AcDbEntity
  8
0
370
    -3
  6
Continuous
100
AcDbLine
 10
-446.057368
 20
-56.838685
 30
0.0
 11
-446.057368
 21
-25.33838
 31
0.0
  0
LINE
  5
4C6
100
AcDbEntity
  8
0
370
    -3
  6
Continuous
100
AcDbLine
 10
-456.057368
 20
-58.153581
 30
0.0
 11
-447.022468
 21
-57.838076
 31
0.0
  0
ARC
  5
4C7
100
AcDbEntity
  8
0
370
    -3
  6
Continuous
100
AcDbCircle
 10
-447.057368
 20
-56.838685
 30
0.0
 40
1.0
100
AcDbArc
 50
272.0
 51
0.0
  0
LINE
  5
4C8
100
AcDbEntity
  8
0
370
    -3
  6
Continuous
100
AcDbLine
 10
-445.057368
 20
2.66162
 30
0.0
 11
-445.057368
 21
-53.33838
 31
0.0
  0
LINE
  5
4C9
100
AcDbEntity
  8
0
370
    -3
  6
Continuous
100
AcDbLine
 10
-446.057368
 20
-56.33838
 30
0.0
 11
-445.057368
 21
-56.33838
 31
0.0
  0
LINE
  5
4CA
100
AcDbEntity
  8
0
370
    -3
  6
Continuous
100
AcDbLine
 10
-446.057368
 20
-56.33838
 30
0.0
 11
-446.057368
 21
5.66162
 31
0.0
  0
LINE
  5
4CB
100
AcDbEntity
  8
0
370
    -3
  6
Continuous
100
AcDbLine
 10
-446.057368
 20
5.66162
 30
0.0
 11
-445.057368
 21
5.66162
 31
0.0
  0
LINE
  5
4CC
100
AcDbEntity
  8
0
370
    -3
  6
Continuous
100
AcDbLine
 10
-445.057368
 20
-56.33838
 30
0.0
 11
-445.057368
 21
5.66162
 31
0.0
  0
LINE
  5
4CD
100
AcDbEntity
  8
0
370
    -3
  6
Continuous
100
AcDbLine
 10
-446.057368
 20
5.66162
 30
0.0
 11
-446.057368
 21
-56.33838
 31
0.0
  0
MTEXT
  5
4CE
100
AcDbEntity
  8
0
370
    -3
  6
Continuous
100
AcDbMText
 10
-555.769409
 20
160.532028
 30
0.0
 40
15.0
 41
0.0
 71
     7
 72
     1
  1
\W0.43;DATE\W0.72; \W0.43;2011.12.29
  7
ZU_SHPTB00001
 11
1.0
 21
0.0
 31
0.0
 73
     1
 44
1.0
  0
ENDSEC
  0
SECTION
  2
OBJECTS
  0
DICTIONARY
  5
19
100
AcDbDictionary
280
     0
281
     1
  3
ACAD_GROUP
350
1A
  3
ACAD_MLINESTYLE
350
1B
  3
ACAD_LAYOUT
350
1E
  3
ACAD_PLOTSETTINGS
350
22
  3
ACAD_PLOTSTYLENAME
350
1F
  3
ACAD_WIPEOUT_VARS
350
23
  3
DWGPROPS
350
4CF
  0
DICTIONARY
  5
1A
102
{ACAD_REACTORS
330
19
102
}
100
AcDbDictionary
280
     0
281
     1
  0
DICTIONARY
  5
1B
102
{ACAD_REACTORS
330
19
102
}
100
AcDbDictionary
280
     0
281
     1
  3
Standard
350
1C
  0
MLINESTYLE
  5
1C
102
{ACAD_REACTORS
330
1B
102
}
100
AcDbMlineStyle
  2
Standard
 70
     0
  3

 62
     0
 51
90.0
 52
90.0
 71
     2
 49
0.5
 62
   256
  6
ByLayer
 49
-0.5
 62
   256
  6
ByLayer
  0
ACDBDICTIONARYWDFLT
  5
1F
102
{ACAD_REACTORS
330
19
102
}
100
AcDbDictionary
281
     1
  3
Normal
350
1D
100
AcDbDictionaryWithDefault
340
1D
  0
ACDBPLACEHOLDER
  5
1D
102
{ACAD_REACTORS
330
1F
102
}
  0
LAYOUT
  5
20
102
{ACAD_REACTORS
330
1E
102
}
100
AcDbPlotSettings
  1

  2

  4

  6

 40
0.0
 41
0.0
 42
0.0
 43
0.0
 44
0.0
 45
0.0
 46
0.0
 47
0.0
 48
0.0
 49
0.0
140
0.0
141
0.0
142
1.0
143
1.0
 70
  1024
 72
     0
 73
     0
 74
     0
  7

 75
     0
147
1.0
148
0.0
149
0.0
100
AcDbLayout
  1
Model
 70
     0
 71
     0
 10
0.0
 20
0.0
 11
0.0
 21
0.0
 12
0.0
 22
0.0
 32
0.0
 14
0.0
 24
0.0
 34
0.0
 15
0.0
 25
0.0
 35
0.0
146
0.0
 13
0.0
 23
0.0
 33
0.0
 16
0.0
 26
0.0
 36
0.0
 17
0.0
 27
0.0
 37
0.0
 76
     0
330
A
331
0
345
0
346
0
  0
LAYOUT
  5
21
102
{ACAD_REACTORS
330
1E
102
}
100
AcDbPlotSettings
  1

  2

  4

  6

 40
0.0
 41
0.0
 42
0.0
 43
0.0
 44
0.0
 45
0.0
 46
0.0
 47
0.0
 48
0.0
 49
0.0
140
0.0
141
0.0
142
1.0
143
1.0
 70
     0
 72
     0
 73
     0
 74
     0
  7

 75
     0
147
1.0
148
0.0
149
0.0
100
AcDbLayout
  1
Layout1
 70
     0
 71
     0
 10
0.0
 20
0.0
 11
0.0
 21
0.0
 12
0.0
 22
0.0
 32
0.0
 14
0.0
 24
0.0
 34
0.0
 15
0.0
 25
0.0
 35
0.0
146
0.0
 13
0.0
 23
0.0
 33
0.0
 16
0.0
 26
0.0
 36
0.0
 17
0.0
 27
0.0
 37
0.0
 76
     0
330
B
331
0
345
0
346
0
  0
DICTIONARY
  5
1E
102
{ACAD_REACTORS
330
19
102
}
100
AcDbDictionary
280
     0
281
     1
  3
Layout1
350
21
  3
Model
350
20
  0
DICTIONARY
  5
22
102
{ACAD_REACTORS
330
19
102
}
100
AcDbDictionary
280
     0
281
     1
  0
WIPEOUTVARIABLES
  5
23
100
AcDbWipeoutVariables
 70
     1
  0
XRECORD
  5
4CF
100
AcDbXrecord
280
     1
  1
DWGPROPS COOKIE
  2

  3

  4

  6

  7

  8
HK96464
  9

300
=
301
=
302
=
303
=
304
=
305
=
306
=
307
=
308
=
309
=
 40
0.0
 41
2455931.628079
 42
2455931.628079
  1

 90
        0
  0
ENDSEC
  0
EOF
