  0
SECTION
  2
HEADER
  9
$ACADVER
  1
AC1015
  9
$ACADMAINTVER
 70
     6
  9
$DWGCODEPAGE
  3
ANSI_932
  9
$INSBASE
 10
0.0
 20
0.0
 30
0.0
  9
$EXTMIN
 10
1.000000E+20
 20
1.000000E+20
 30
1.000000E+20
  9
$EXTMAX
 10
-1.000000E+20
 20
-1.000000E+20
 30
-1.000000E+20
  9
$LIMMIN
 10
0.0
 20
0.0
  9
$LIMMAX
 10
0.0
 20
0.0
  9
$ORTHOMODE
 70
     0
  9
$REGENMODE
 70
     1
  9
$FILLMODE
 70
     1
  9
$QTEXTMODE
 70
     0
  9
$MIRRTEXT
 70
     1
  9
$LTSCALE
 40
1.0
  9
$ATTMODE
 70
     1
  9
$TEXTSIZE
 40
7.0
  9
$TRACEWID
 40
0.05
  9
$TEXTSTYLE
  7
Standard
  9
$CLAYER
  8
0
  9
$CELTYPE
  6
Continuous
  9
$CECOLOR
 62
   256
  9
$CELTSCALE
 40
1.0
  9
$DISPSILH
 70
     0
  9
$DIMSCALE
 40
1.0
  9
$DIMASZ
 40
1.931852
  9
$DIMEXO
 40
1.0
  9
$DIMDLI
 40
0.38
  9
$DIMRND
 40
0.0
  9
$DIMDLE
 40
0.0
  9
$DIMEXE
 40
2.0
  9
$DIMTP
 40
0.0
  9
$DIMTM
 40
0.0
  9
$DIMTXT
 40
2.8
  9
$DIMCEN
 40
0.09
  9
$DIMTSZ
 40
0.0
  9
$DIMTOL
 70
     0
  9
$DIMLIM
 70
     0
  9
$DIMTIH
 70
     1
  9
$DIMTOH
 70
     1
  9
$DIMSE1
 70
     0
  9
$DIMSE2
 70
     0
  9
$DIMTAD
 70
     1
  9
$DIMZIN
 70
     0
  9
$DIMBLK
  1

  9
$DIMASO
 70
     1
  9
$DIMSHO
 70
     1
  9
$DIMPOST
  1

  9
$DIMAPOST
  1

  9
$DIMALT
 70
     0
  9
$DIMALTD
 70
     2
  9
$DIMALTF
 40
25.4
  9
$DIMLFAC
 40
1.0
  9
$DIMTOFL
 70
     0
  9
$DIMTVP
 40
0.0
  9
$DIMTIX
 70
     0
  9
$DIMSOXD
 70
     0
  9
$DIMSAH
 70
     0
  9
$DIMBLK1
  1

  9
$DIMBLK2
  1

  9
$DIMSTYLE
  2
Standard
  9
$DIMCLRD
 70
     0
  9
$DIMCLRE
 70
     0
  9
$DIMCLRT
 70
     0
  9
$DIMTFAC
 40
0.714286
  9
$DIMGAP
 40
0.09
  9
$DIMJUST
 70
     0
  9
$DIMSD1
 70
     0
  9
$DIMSD2
 70
     0
  9
$DIMTOLJ
 70
     1
  9
$DIMTZIN
 70
     0
  9
$DIMALTZ
 70
     0
  9
$DIMALTTZ
 70
     0
  9
$DIMUPT
 70
     0
  9
$DIMDEC
 70
     4
  9
$DIMTDEC
 70
     4
  9
$DIMALTU
 70
     2
  9
$DIMALTTD
 70
     2
  9
$DIMTXSTY
  7
Standard
  9
$DIMAUNIT
 70
     0
  9
$DIMADEC
 70
     0
  9
$DIMALTRND
 40
0.0
  9
$DIMAZIN
 70
     0
  9
$DIMDSEP
 70
     0
  9
$DIMATFIT
 70
     3
  9
$DIMFRAC
 70
     0
  9
$DIMLDRBLK
  1

  9
$DIMLUNIT
 70
     2
  9
$DIMLWD
 70
     0
  9
$DIMLWE
 70
     0
  9
$DIMTMOVE
 70
     0
  9
$LUNITS
 70
     2
  9
$LUPREC
 70
     3
  9
$SKETCHINC
 40
0.1
  9
$FILLETRAD
 40
0.0
  9
$AUNITS
 70
     0
  9
$AUPREC
 70
     0
  9
$MENU
  1
acad
  9
$ELEVATION
 40
0.0
  9
$PELEVATION
 40
0.0
  9
$THICKNESS
 40
0.0
  9
$LIMCHECK
 70
     0
  9
$CHAMFERA
 40
0.0
  9
$CHAMFERB
 40
0.0
  9
$CHAMFERC
 40
0.0
  9
$CHAMFERD
 40
0.0
  9
$SKPOLY
 70
     0
  9
$TDCREATE
 40
0.000000000
  9
$TDUCREATE
 40
0.000000000
  9
$TDUPDATE
 40
0.000000000
  9
$TDUUPDATE
 40
0.000000000
  9
$TDINDWG
 40
0.0000000000
  9
$TDUSRTIMER
 40
0.0000000000
  9
$USRTIMER
 70
     1
  9
$ANGBASE
 50
0.0
  9
$ANGDIR
 70
     0
  9
$PDMODE
 70
     0
  9
$PDSIZE
 40
0.0
  9
$PLINEWID
 40
0.0
  9
$SPLFRAME
 70
     0
  9
$SPLINETYPE
 70
     6
  9
$SPLINESEGS
 70
     8
  9
$HANDSEED
  5
4A0
  9
$SURFTAB1
 70
     6
  9
$SURFTAB2
 70
     6
  9
$SURFTYPE
 70
     6
  9
$SURFU
 70
     6
  9
$SURFV
 70
     6
  9
$UCSBASE
  2

  9
$UCSNAME
  2

  9
$UCSORG
 10
0.0
 20
0.0
 30
0.0
  9
$UCSXDIR
 10
1.0
 20
0.0
 30
0.0
  9
$UCSYDIR
 10
0.0
 20
1.0
 30
0.0
  9
$UCSORTHOREF
  2

  9
$UCSORTHOVIEW
 70
     0
  9
$UCSORGTOP
 10
0.0
 20
0.0
 30
0.0
  9
$UCSORGBOTTOM
 10
0.0
 20
0.0
 30
0.0
  9
$UCSORGLEFT
 10
0.0
 20
0.0
 30
0.0
  9
$UCSORGRIGHT
 10
0.0
 20
0.0
 30
0.0
  9
$UCSORGFRONT
 10
0.0
 20
0.0
 30
0.0
  9
$UCSORGBACK
 10
0.0
 20
0.0
 30
0.0
  9
$PUCSBASE
  2

  9
$PUCSNAME
  2

  9
$PUCSORG
 10
0.0
 20
0.0
 30
0.0
  9
$PUCSXDIR
 10
1.0
 20
0.0
 30
0.0
  9
$PUCSYDIR
 10
0.0
 20
1.0
 30
0.0
  9
$PUCSORTHOREF
  2

  9
$PUCSORTHOVIEW
 70
     0
  9
$PUCSORGTOP
 10
0.0
 20
0.0
 30
0.0
  9
$PUCSORGBOTTOM
 10
0.0
 20
0.0
 30
0.0
  9
$PUCSORGLEFT
 10
0.0
 20
0.0
 30
0.0
  9
$PUCSORGRIGHT
 10
0.0
 20
0.0
 30
0.0
  9
$PUCSORGFRONT
 10
0.0
 20
0.0
 30
0.0
  9
$PUCSORGBACK
 10
0.0
 20
0.0
 30
0.0
  9
$USERI1
 70
     0
  9
$USERI2
 70
     0
  9
$USERI3
 70
     0
  9
$USERI4
 70
     0
  9
$USERI5
 70
     0
  9
$USERR1
 40
0.0
  9
$USERR2
 40
0.0
  9
$USERR3
 40
0.0
  9
$USERR4
 40
0.0
  9
$USERR5
 40
0.0
  9
$WORLDVIEW
 70
     1
  9
$SHADEDGE
 70
     3
  9
$SHADEDIF
 70
    70
  9
$TILEMODE
 70
     1
  9
$MAXACTVP
 70
    16
  9
$PINSBASE
 10
0.0
 20
0.0
 30
0.0
  9
$PLIMCHECK
 70
     0
  9
$PEXTMIN
 10
1.000000E+20
 20
1.000000E+20
 30
1.000000E+20
  9
$PEXTMAX
 10
-1.000000E+20
 20
-1.000000E+20
 30
-1.000000E+20
  9
$PLIMMIN
 10
0.0
 20
0.0
  9
$PLIMMAX
 10
12.0
 20
9.0
  9
$UNITMODE
 70
     0
  9
$VISRETAIN
 70
     0
  9
$PLINEGEN
 70
     1
  9
$PSLTSCALE
 70
     0
  9
$TREEDEPTH
 70
  3020
  9
$CMLSTYLE
  2
Standard
  9
$CMLJUST
 70
     0
  9
$CMLSCALE
 40
1.0
  9
$PROXYGRAPHICS
 70
     0
  9
$MEASUREMENT
 70
     0
  9
$CELWEIGHT
370
     0
  9
$ENDCAPS
280
     0
  9
$JOINSTYLE
280
     0
  9
$LWDISPLAY
290
     0
  9
$INSUNITS
 70
     0
  9
$HYPERLINKBASE
  1

  9
$STYLESHEET
  1

  9
$XEDIT
290
     1
  9
$CEPSNTYPE
380
     0
  9
$PSTYLEMODE
290
     1
  9
$FINGERPRINTGUID
  2

  9
$VERSIONGUID
  2

  9
$EXTNAMES
290
     1
  9
$PSVPSCALE
 40
0.0
  0
ENDSEC
  0
SECTION
  2
CLASSES
  0
CLASS
  1
LWPOLYLINE
  2
AcDbPolyline
  3
AutoCAD 2000
 90
    32768
280
     0
281
     1
  0
CLASS
  1
IMAGE
  2
AcDbRasterImage
  3
ISM
 90
    32895
280
     0
281
     1
  0
CLASS
  1
OLE2FRAME
  2
AcDbOle2Frame
  3
AutoCAD 2000
 90
    32768
280
     0
281
     1
  0
CLASS
  1
HATCH
  2
AcDbHatch
  3
AutoCAD 2000
 90
    32768
280
     0
281
     1
  0
CLASS
  1
DICTIONARYVAR
  2
AcDbDictionaryVar
  3
AutoCAD 2000
 90
    32768
280
     0
281
     0
  0
CLASS
  1
RASTERVARIABLES
  2
AcDbRasterVariables
  3
ISM
 90
    32768
280
     0
281
     0
  0
CLASS
  1
IMAGEDEF
  2
AcDbRasterImageDef
  3
ISM
 90
    32768
280
     0
281
     0
  0
CLASS
  1
IMAGEDEF_REACTOR
  2
AcDbRasterImageDefReactor
  3
ISM
 90
    32769
280
     0
281
     0
  0
CLASS
  1
IDBUFFER
  2
AcDbIdBuffer
  3
AutoCAD 2000
 90
    32768
280
     0
281
     0
  0
CLASS
  1
SPATIAL_FILTER
  2
AcDbSpatialFilter
  3
AutoCAD 2000
 90
    32768
280
     0
281
     0
  0
CLASS
  1
XRECORD
  2
AcDbXrecord
  3
AutoCAD 2000
 90
        0
280
     0
281
     0
  0
CLASS
  1
SORTENTSTABLE
  2
AcDbSortentsTable
  3
AutoCAD 2000
 90
    32768
280
     0
281
     0
  0
CLASS
  1
LAYER_INDEX
  2
AcDbLayerIndex
  3
AutoCAD 2000
 90
    32768
280
     0
281
     0
  0
CLASS
  1
SPATIAL_INDEX
  2
AcDbSpatialIndex
  3
AutoCAD 2000
 90
    32768
280
     0
281
     0
  0
CLASS
  1
OBJECT_PTR
  2
CAseDLPNTableRecord
  3
"ASE-LPNTableRecord"
 90
    32769
280
     0
281
     0
  0
CLASS
  1
LAYOUT
  2
AcDbLayout
  3
AutoCAD 2000
 90
        0
280
     0
281
     0
  0
CLASS
  1
PLOTSETTINGS
  2
AcDbPlotSettings
  3
AutoCAD 2000
 90
    32768
280
     0
281
     0
  0
CLASS
  1
ACDBDICTIONARYWDFLT
  2
AcDbDictionaryWithDefault
  3
AutoCAD 2000
 90
        0
280
     0
281
     0
  0
CLASS
  1
ACDBPLACEHOLDER
  2
AcDbPlaceHolder
  3
AutoCAD 2000
 90
        0
280
     0
281
     0
  0
CLASS
  1
VBA_PROJECT
  2
AcDbVbaProject
  3
acadvba
 90
    32768
280
     0
281
     0
  0
CLASS
  1
WIPEOUT
  2
AcDbWipeout
  3
WipeOut|AutoCAD Express Tool|expresstools@autodesk.com
 90
    32895
280
     0
281
     1
  0
CLASS
  1
WIPEOUTVARIABLES
  2
AcDbWipeoutVariables
  3
WipeOut|AutoCAD Express Tool|expresstools@autodesk.com
 90
        0
280
     0
281
     0
  0
CLASS
  1
RTEXT
  2
RText
  3
RText|AutoCAD Express Tool|expresstools@autodesk.com
 90
    32768
280
     0
281
     1
  0
CLASS
  1
ARCALIGNEDTEXT
  2
AcDbArcAlignedText
  3
ATEXT|AutoCAD Express Tool|expresstools@autodesk.com
 90
    32768
280
     0
281
     1
  0
ENDSEC
  0
SECTION
  2
TABLES
  0
TABLE
  2
VPORT
  5
7
100
AcDbSymbolTable
 70
     1
  0
VPORT
  5
15
100
AcDbSymbolTableRecord
100
AcDbViewportTableRecord
  2
*ACTIVE
 70
     0
 10
0.0
 20
0.0
 11
1.0
 21
1.0
 12
0.0
 22
0.0
 13
0.0
 23
0.0
 14
1.0
 24
1.0
 15
0.0
 25
0.0
 16
0.0
 26
0.0
 36
1.0
 17
0.0
 27
0.0
 37
0.0
 40
100.0
 41
1.0
 42
50.0
 43
0.0
 44
0.0
 50
0.0
 51
0.0
 71
     0
 72
   100
 73
     1
 74
     1
 75
     0
 76
     0
 77
     0
 78
     0
281
     0
 65
     0
110
0.0
120
0.0
130
0.0
111
1.0
121
0.0
131
0.0
112
0.0
122
1.0
132
0.0
345
0
346
0
 79
     0
146
0.0
  0
ENDTAB
  0
TABLE
  2
LTYPE
  5
4
100
AcDbSymbolTable
 70
     7
  0
LTYPE
  5
11
100
AcDbSymbolTableRecord
100
AcDbLinetypeTableRecord
  2
ByBlock
 70
    64
  3

 72
    65
 73
     0
 40
0.0
  0
LTYPE
  5
12
100
AcDbSymbolTableRecord
100
AcDbLinetypeTableRecord
  2
ByLayer
 70
    64
  3

 72
    65
 73
     0
 40
0.0
  0
LTYPE
  5
13
100
AcDbSymbolTableRecord
100
AcDbLinetypeTableRecord
  2
Continuous
 70
    64
  3
Solid line
 72
    65
 73
     0
 40
0.0
  0
LTYPE
  5
24
100
AcDbSymbolTableRecord
100
AcDbLinetypeTableRecord
  2
DASHED
 70
    64
  3
Dashed __ __ __ __ __ __ __ __ __ __ __ __ __ _
 72
    65
 73
     2
 40
0.75
 49
0.5
 74
     0
 49
-0.25
 74
     0
  0
LTYPE
  5
25
100
AcDbSymbolTableRecord
100
AcDbLinetypeTableRecord
  2
CENTER
 70
    64
  3
Center ____ _ ____ _ ____ _ ____ _ ____ _ ____
 72
    65
 73
     4
 40
1.0
 49
0.5
 74
     0
 49
-0.25
 74
     0
 49
0.0
 74
     0
 49
-0.25
 74
     0
  0
LTYPE
  5
26
100
AcDbSymbolTableRecord
100
AcDbLinetypeTableRecord
  2
DIVIDE
 70
    64
  3
Divide ____ . . ____ . . ____ . . ____ . . ____
 72
    65
 73
     6
 40
1.25
 49
0.5
 74
     0
 49
-0.25
 74
     0
 49
0.0
 74
     0
 49
-0.25
 74
     0
 49
0.0
 74
     0
 49
-0.25
 74
     0
  0
LTYPE
  5
27
100
AcDbSymbolTableRecord
100
AcDbLinetypeTableRecord
  2
PHANTOM
 70
    64
  3
Phantom ______  __  __  ______  __  __  ______
 72
    65
 73
     6
 40
9.0
 49
4.3
 74
     0
 49
-0.7
 74
     0
 49
1.3
 74
     0
 49
-0.7
 74
     0
 49
1.3
 74
     0
 49
-0.7
 74
     0
  0
ENDTAB
  0
TABLE
  2
LAYER
  5
2
100
AcDbSymbolTable
 70
     3
  0
LAYER
  5
14
100
AcDbSymbolTableRecord
100
AcDbLayerTableRecord
  2
0
 70
    64
 62
    53
  6
Continuous
290
     1
370
    -3
390
1D
  0
LAYER
  5
28
100
AcDbSymbolTableRecord
100
AcDbLayerTableRecord
  2
3
 70
    64
 62
     4
  6
Continuous
290
     1
370
    -3
390
1D
  0
LAYER
  5
29
100
AcDbSymbolTableRecord
100
AcDbLayerTableRecord
  2
5
 70
    64
 62
   191
  6
Continuous
290
     1
370
    -3
390
1D
  0
ENDTAB
  0
TABLE
  2
STYLE
  5
3
100
AcDbSymbolTable
 70
     2
  0
STYLE
  5
17
100
AcDbSymbolTableRecord
100
AcDbTextStyleTableRecord
  2
Standard
 70
     0
 40
0.0
 41
1.0
 50
0.0
 71
     0
 42
0.0
  3
txt
  4

  0
STYLE
  5
381
100
AcDbSymbolTableRecord
100
AcDbTextStyleTableRecord
  2
ZU_SHPTB00001
 70
     0
 40
0.0
 41
1.0
 50
0.0
 71
     0
 42
0.0
  3
monotxt
  4
bigfont
  0
ENDTAB
  0
TABLE
  2
VIEW
  5
5
100
AcDbSymbolTable
 70
     0
  0
ENDTAB
  0
TABLE
  2
UCS
  5
6
100
AcDbSymbolTable
 70
     0
  0
ENDTAB
  0
TABLE
  2
APPID
  5
8
100
AcDbSymbolTable
 70
     1
  0
APPID
  5
16
100
AcDbSymbolTableRecord
100
AcDbRegAppTableRecord
  2
ACAD
 70
     0
  0
ENDTAB
  0
TABLE
  2
DIMSTYLE
  5
9
100
AcDbSymbolTable
 70
     1
100
AcDbDimStyleTable
 71
     0
  0
DIMSTYLE
105
18
100
AcDbSymbolTableRecord
100
AcDbDimStyleTableRecord
  2
Standard
 70
     0
  3

  4

 40
1.0
 41
0.18
 42
0.0625
 43
0.38
 44
0.18
 45
0.0
 46
0.0
 47
0.0
 48
0.0
 71
     0
 72
     0
 73
     1
 74
     1
 75
     0
 76
     0
 77
     0
 78
     0
 79
     0
140
0.18
141
0.09
142
0.0
143
25.4
144
1.0
145
0.0
146
1.0
147
0.09
148
0.0
170
     0
171
     2
172
     0
173
     0
174
     0
175
     0
176
     0
177
     0
178
     0
179
     0
271
     4
272
     4
273
     2
274
     2
275
     0
276
     0
277
     2
278
    46
279
     0
280
     0
281
     0
282
     0
283
     1
284
     0
285
     0
286
     0
288
     0
340
17
341
0
342
0
343
0
344
0
371
    -2
372
    -2
  0
ENDTAB
  0
TABLE
  2
BLOCK_RECORD
  5
1
100
AcDbSymbolTable
 70
     1
  0
BLOCK_RECORD
  5
A
100
AcDbSymbolTableRecord
100
AcDbBlockTableRecord
  2
*MODEL_SPACE
340
20
  0
BLOCK_RECORD
  5
B
100
AcDbSymbolTableRecord
100
AcDbBlockTableRecord
  2
*PAPER_SPACE
340
21
  0
BLOCK_RECORD
  5
1BE
100
AcDbSymbolTableRecord
100
AcDbBlockTableRecord
  2
ZU_SYM__USERS_HOME_SYMBOL_POO_SYM_B20_-1
340
0
102
{BLKREFS
331
1C6
102
}
  0
ENDTAB
  0
ENDSEC
  0
SECTION
  2
BLOCKS
  0
BLOCK
  5
D
100
AcDbEntity
  8
0
100
AcDbBlockBegin
  2
*MODEL_SPACE
 70
     0
 10
0.0
 20
0.0
 30
0.0
  3
*MODEL_SPACE
  1

  0
ENDBLK
  5
E
100
AcDbEntity
  8
0
100
AcDbBlockEnd
  0
BLOCK
  5
F
100
AcDbEntity
 67
     1
  8
0
100
AcDbBlockBegin
  2
*PAPER_SPACE
 70
     0
 10
0.0
 20
0.0
 30
0.0
  3
*PAPER_SPACE
  1

  0
ENDBLK
  5
10
100
AcDbEntity
 67
     1
  8
0
100
AcDbBlockEnd
  0
BLOCK
  5
1BF
100
AcDbEntity
  8
0
100
AcDbBlockBegin
  2
ZU_SYM__USERS_HOME_SYMBOL_POO_SYM_B20_-1
 70
    64
 10
0.0
 20
0.0
 30
0.0
  3
ZU_SYM__USERS_HOME_SYMBOL_POO_SYM_B20_-1
  1

  0
LINE
  5
1C0
100
AcDbEntity
  8
0
370
    -3
  6
Continuous
100
AcDbLine
 10
0.0
 20
-5.0
 30
0.0
 11
-6.0
 21
-5.0
 31
0.0
  0
LINE
  5
1C1
100
AcDbEntity
  8
0
370
    -3
  6
Continuous
100
AcDbLine
 10
0.0
 20
5.0
 30
0.0
 11
-6.0
 21
5.0
 31
0.0
  0
LINE
  5
1C2
100
AcDbEntity
  8
0
370
    -3
  6
Continuous
100
AcDbLine
 10
-6.0
 20
-5.0
 30
0.0
 11
-6.0
 21
5.0
 31
0.0
  0
LINE
  5
1C3
100
AcDbEntity
  8
0
370
    -3
  6
Continuous
100
AcDbLine
 10
0.0
 20
5.0
 30
0.0
 11
0.0
 21
-5.0
 31
0.0
  0
POINT
  5
1C4
100
AcDbEntity
  8
0
370
    -3
  6
Continuous
100
AcDbPoint
 10
0.0
 20
0.0
 30
0.0
  0
ENDBLK
  5
1C5
100
AcDbEntity
  8
0
100
AcDbBlockEnd
  0
ENDSEC
  0
SECTION
  2
ENTITIES
  0
ELLIPSE
  5
2A
100
AcDbEntity
  8
0
370
    -3
  6
Continuous
100
AcDbEllipse
 10
217.882609
 20
-9.222764
 30
0.0
 11
0.0
 21
15.0
 31
0.0
210
0.0
220
0.0
230
1.0
 40
0.57673
 41
4.7123889803846897
 42
1.5707963267948968
  0
ELLIPSE
  5
2B
100
AcDbEntity
  8
0
370
    -3
  6
Continuous
100
AcDbEllipse
 10
90.97354
 20
-9.222764
 30
0.0
 11
0.0
 21
15.0
 31
0.0
210
0.0
220
0.0
230
1.0
 40
0.57673
 41
4.7123889803846897
 42
1.5707963267948968
  0
LINE
  5
2C
100
AcDbEntity
  8
0
370
    -3
  6
Continuous
100
AcDbLine
 10
206.928074
 20
-107.222764
 30
0.0
 11
154.428074
 21
-107.222764
 31
0.0
  0
LINE
  5
2D
100
AcDbEntity
  8
0
370
    -3
  6
Continuous
100
AcDbLine
 10
101.928074
 20
-107.222764
 30
0.0
 11
154.428074
 21
-107.222764
 31
0.0
  0
LINE
  5
2E
100
AcDbEntity
  8
0
370
    -3
  6
Continuous
100
AcDbLine
 10
137.428074
 20
-0.222764
 30
0.0
 11
144.428074
 21
-0.222764
 31
0.0
  0
LINE
  5
2F
100
AcDbEntity
  8
0
370
    -3
  6
Continuous
100
AcDbLine
 10
137.428074
 20
-8.222764
 30
0.0
 11
144.428074
 21
-8.222764
 31
0.0
  0
LINE
  5
30
100
AcDbEntity
  8
0
370
    -3
  6
Continuous
100
AcDbLine
 10
144.428074
 20
-8.222764
 30
0.0
 11
144.428074
 21
-0.222764
 31
0.0
  0
LINE
  5
31
100
AcDbEntity
  8
0
370
    -3
  6
Continuous
100
AcDbLine
 10
137.428074
 20
-8.222764
 30
0.0
 11
137.428074
 21
-0.222764
 31
0.0
  0
LINE
  5
32
100
AcDbEntity
  8
0
370
    -3
  6
Continuous
100
AcDbLine
 10
82.322594
 20
-9.222764
 30
0.0
 11
82.322594
 21
-88.222764
 31
0.0
  0
LINE
  5
33
100
AcDbEntity
  8
0
370
    -3
  6
Continuous
100
AcDbLine
 10
226.533555
 20
-9.222764
 30
0.0
 11
226.533555
 21
-88.222764
 31
0.0
  0
LINE
  5
34
100
AcDbEntity
  8
0
370
    -3
  6
Continuous
100
AcDbLine
 10
99.624486
 20
-9.222764
 30
0.0
 11
99.624486
 21
-88.222764
 31
0.0
  0
LINE
  5
35
100
AcDbEntity
  8
0
370
    -3
  6
Continuous
100
AcDbLine
 10
209.231663
 20
-9.222764
 30
0.0
 11
209.231663
 21
-88.222764
 31
0.0
  0
LINE
  5
36
100
AcDbEntity
  8
0
370
    -3
  6
Continuous
100
AcDbLine
 10
233.928074
 20
-91.222764
 30
0.0
 11
154.428074
 21
-91.222764
 31
0.0
  0
LINE
  5
37
100
AcDbEntity
  8
0
370
    -3
  6
Continuous
100
AcDbLine
 10
236.928074
 20
-94.222764
 30
0.0
 11
236.928074
 21
-109.222764
 31
0.0
  0
LINE
  5
38
100
AcDbEntity
  8
0
370
    -3
  6
CENTER
100
AcDbLine
 10
154.428074
 20
60.137602
 30
0.0
 11
154.428074
 21
-111.338433
 31
0.0
  0
LINE
  5
39
100
AcDbEntity
  8
0
370
    -3
  6
CENTER
100
AcDbLine
 10
171.15037
 20
-30.222764
 30
0.0
 11
137.08395
 21
-30.222764
 31
0.0
  0
LINE
  5
3A
100
AcDbEntity
  8
0
370
    -3
  6
CENTER
100
AcDbLine
 10
237.428756
 20
-4.222764
 30
0.0
 11
68.289017
 21
-4.222764
 31
0.0
  0
LINE
  5
3B
100
AcDbEntity
  8
0
370
    -3
  6
CENTER
100
AcDbLine
 10
84.428074
 20
-112.803268
 30
0.0
 11
84.428074
 21
-83.067447
 31
0.0
  0
LINE
  5
3C
100
AcDbEntity
  8
0
370
    -3
  6
Continuous
100
AcDbLine
 10
74.928074
 20
-91.222764
 30
0.0
 11
154.428074
 21
-91.222764
 31
0.0
  0
LINE
  5
3D
100
AcDbEntity
  8
0
370
    -3
  6
Continuous
100
AcDbLine
 10
71.928074
 20
-94.222764
 30
0.0
 11
71.928074
 21
-109.222764
 31
0.0
  0
LINE
  5
3E
100
AcDbEntity
  8
0
370
    -3
  6
Continuous
100
AcDbLine
 10
71.928074
 20
-109.222764
 30
0.0
 11
99.928074
 21
-109.222764
 31
0.0
  0
LINE
  5
3F
100
AcDbEntity
  8
0
370
    -3
  6
CENTER
100
AcDbLine
 10
224.428074
 20
-112.803268
 30
0.0
 11
224.428074
 21
-82.567447
 31
0.0
  0
LINE
  5
40
100
AcDbEntity
  8
0
370
    -3
  6
Continuous
100
AcDbLine
 10
236.928074
 20
-109.222764
 30
0.0
 11
208.928074
 21
-109.222764
 31
0.0
  0
LINE
  5
41
100
AcDbEntity
  8
0
370
    -3
  6
Continuous
100
AcDbLine
 10
233.928074
 20
-14.495913
 30
0.0
 11
233.928074
 21
-89.026612
 31
0.0
  0
LINE
  5
42
100
AcDbEntity
  8
0
370
    -3
  6
Continuous
100
AcDbLine
 10
74.928074
 20
-14.495913
 30
0.0
 11
74.928074
 21
-89.026612
 31
0.0
  0
LINE
  5
43
100
AcDbEntity
  8
0
370
    -3
  6
Continuous
100
AcDbLine
 10
208.997064
 20
-12.39312
 30
0.0
 11
208.997064
 21
-88.222764
 31
0.0
  0
LINE
  5
44
100
AcDbEntity
  8
0
370
    -3
  6
Continuous
100
AcDbLine
 10
99.859085
 20
-12.39312
 30
0.0
 11
99.859085
 21
-88.222764
 31
0.0
  0
LINE
  5
45
100
AcDbEntity
  8
0
370
    -3
  6
Continuous
100
AcDbLine
 10
189.370885
 20
-4.222764
 30
0.0
 11
201.028074
 21
-4.222764
 31
0.0
  0
LINE
  5
46
100
AcDbEntity
  8
0
370
    -3
  6
Continuous
100
AcDbLine
 10
203.528074
 20
-6.722764
 30
0.0
 11
203.528074
 21
-80.822764
 31
0.0
  0
LINE
  5
47
100
AcDbEntity
  8
0
370
    -3
  6
Continuous
100
AcDbLine
 10
198.528074
 20
-85.822764
 30
0.0
 11
154.428074
 21
-85.822764
 31
0.0
  0
LINE
  5
48
100
AcDbEntity
  8
0
370
    -3
  6
Continuous
100
AcDbLine
 10
105.328074
 20
-6.722764
 30
0.0
 11
105.328074
 21
-80.822764
 31
0.0
  0
LINE
  5
49
100
AcDbEntity
  8
0
370
    -3
  6
Continuous
100
AcDbLine
 10
119.485264
 20
-4.222764
 30
0.0
 11
107.828074
 21
-4.222764
 31
0.0
  0
LINE
  5
4A
100
AcDbEntity
  8
0
370
    -3
  6
Continuous
100
AcDbLine
 10
110.328074
 20
-85.822764
 30
0.0
 11
154.428074
 21
-85.822764
 31
0.0
  0
ARC
  5
4B
100
AcDbEntity
  8
0
370
    -3
  6
Continuous
100
AcDbCircle
 10
154.428074
 20
-4.222764
 30
0.0
 40
14.0
100
AcDbArc
 50
196.60155
 51
163.39845
  0
CIRCLE
  5
4C
100
AcDbEntity
  8
0
370
    -3
  6
Continuous
100
AcDbCircle
 10
154.428074
 20
-4.222764
 30
0.0
 40
4.0
  0
CIRCLE
  5
4D
100
AcDbEntity
  8
0
370
    -3
  6
Continuous
100
AcDbCircle
 10
154.428074
 20
-4.222764
 30
0.0
 40
3.3235
  0
ARC
  5
4E
100
AcDbEntity
  8
0
370
    -3
  6
Continuous
100
AcDbCircle
 10
154.428074
 20
-399.222764
 30
0.0
 40
425.06899
100
AcDbArc
 50
87.543773
 51
90.0
  0
ARC
  5
4F
100
AcDbEntity
  8
0
370
    -3
  6
Continuous
100
AcDbCircle
 10
154.428074
 20
-399.222764
 30
0.0
 40
450.0
100
AcDbArc
 50
87.841597
 51
90.0
  0
ARC
  5
50
100
AcDbEntity
  8
0
370
    -3
  6
Continuous
100
AcDbCircle
 10
154.428074
 20
-399.222764
 30
0.0
 40
450.0
100
AcDbArc
 50
90.0
 51
92.158403
  0
ARC
  5
51
100
AcDbEntity
  8
0
370
    -3
  6
Continuous
100
AcDbCircle
 10
96.624486
 20
-88.222764
 30
0.0
 40
3.0
100
AcDbArc
 50
270.0
 51
0.0
  0
ARC
  5
52
100
AcDbEntity
  8
0
370
    -3
  6
Continuous
100
AcDbCircle
 10
212.231663
 20
-88.222764
 30
0.0
 40
3.0
100
AcDbArc
 50
180.0
 51
270.0
  0
ARC
  5
53
100
AcDbEntity
  8
0
370
    -3
  6
Continuous
100
AcDbCircle
 10
79.322594
 20
-88.222764
 30
0.0
 40
3.0
100
AcDbArc
 50
270.0
 51
0.0
  0
ARC
  5
54
100
AcDbEntity
  8
0
370
    -3
  6
Continuous
100
AcDbCircle
 10
229.533555
 20
-88.222764
 30
0.0
 40
3.0
100
AcDbArc
 50
180.0
 51
270.0
  0
ARC
  5
55
100
AcDbEntity
  8
0
370
    -3
  6
Continuous
100
AcDbCircle
 10
154.428074
 20
-4.222764
 30
0.0
 40
27.5
100
AcDbArc
 50
80.268363
 51
8.578456
  0
ARC
  5
56
100
AcDbEntity
  8
0
370
    -3
  6
Continuous
100
AcDbCircle
 10
206.928074
 20
-109.222764
 30
0.0
 40
2.0
100
AcDbArc
 50
0.0
 51
90.0
  0
ARC
  5
57
100
AcDbEntity
  8
0
370
    -3
  6
Continuous
100
AcDbCircle
 10
233.928074
 20
-94.222764
 30
0.0
 40
3.0
100
AcDbArc
 50
0.0
 51
90.0
  0
ARC
  5
58
100
AcDbEntity
  8
0
370
    -3
  6
Continuous
100
AcDbCircle
 10
74.928074
 20
-94.222764
 30
0.0
 40
3.0
100
AcDbArc
 50
90.0
 51
180.0
  0
ARC
  5
59
100
AcDbEntity
  8
0
370
    -3
  6
Continuous
100
AcDbCircle
 10
101.928074
 20
-109.222764
 30
0.0
 40
2.0
100
AcDbArc
 50
90.0
 51
180.0
  0
ARC
  5
5A
100
AcDbEntity
  8
0
370
    -3
  6
Continuous
100
AcDbCircle
 10
154.428074
 20
-4.222764
 30
0.0
 40
27.5
100
AcDbArc
 50
5.488856
 51
82.579133
  0
ARC
  5
5B
100
AcDbEntity
  8
0
370
    -3
  6
Continuous
100
AcDbCircle
 10
168.928074
 20
-14.495913
 30
0.0
 40
65.0
100
AcDbArc
 50
0.0
 51
87.841597
  0
ARC
  5
5C
100
AcDbEntity
  8
0
370
    -3
  6
Continuous
100
AcDbCircle
 10
139.928074
 20
-14.495913
 30
0.0
 40
65.0
100
AcDbArc
 50
92.158403
 51
180.0
  0
ARC
  5
5D
100
AcDbEntity
  8
0
370
    -3
  6
Continuous
100
AcDbCircle
 10
236.928074
 20
-89.026612
 30
0.0
 40
3.0
100
AcDbArc
 50
180.0
 51
240.0
  0
ARC
  5
5E
100
AcDbEntity
  8
0
370
    -3
  6
Continuous
100
AcDbCircle
 10
71.928074
 20
-89.026612
 30
0.0
 40
3.0
100
AcDbArc
 50
300.0
 51
0.0
  0
ARC
  5
5F
100
AcDbEntity
  8
0
370
    -3
  6
Continuous
100
AcDbCircle
 10
211.997064
 20
-88.222764
 30
0.0
 40
3.0
100
AcDbArc
 50
180.0
 51
270.0
  0
ARC
  5
60
100
AcDbEntity
  8
0
370
    -3
  6
Continuous
100
AcDbCircle
 10
168.928074
 20
-14.495913
 30
0.0
 40
40.124128
100
AcDbArc
 50
3.004087
 51
84.684912
  0
ARC
  5
61
100
AcDbEntity
  8
0
370
    -3
  6
Continuous
100
AcDbCircle
 10
139.928074
 20
-14.495913
 30
0.0
 40
40.124128
100
AcDbArc
 50
95.315088
 51
176.995913
  0
ARC
  5
62
100
AcDbEntity
  8
0
370
    -3
  6
Continuous
100
AcDbCircle
 10
154.428074
 20
-399.222764
 30
0.0
 40
425.06899
100
AcDbArc
 50
90.0
 51
92.456227
  0
ARC
  5
63
100
AcDbEntity
  8
0
370
    -3
  6
Continuous
100
AcDbCircle
 10
96.859085
 20
-88.222764
 30
0.0
 40
3.0
100
AcDbArc
 50
270.0
 51
0.0
  0
ARC
  5
64
100
AcDbEntity
  8
0
370
    -3
  6
Continuous
100
AcDbCircle
 10
154.428074
 20
-4.222764
 30
0.0
 40
22.5
100
AcDbArc
 50
20.020867
 51
83.014857
  0
ARC
  5
65
100
AcDbEntity
  8
0
370
    -3
  6
Continuous
100
AcDbCircle
 10
154.428074
 20
-4.222764
 30
0.0
 40
22.5
100
AcDbArc
 50
80.734832
 51
22.461281
  0
ARC
  5
66
100
AcDbEntity
  8
0
370
    -3
  6
Continuous
100
AcDbCircle
 10
154.428074
 20
-4.222764
 30
0.0
 40
33.0
100
AcDbArc
 50
270.0
 51
356.724171
  0
ARC
  5
67
100
AcDbEntity
  8
0
370
    -3
  6
Continuous
100
AcDbCircle
 10
189.370885
 20
-6.222764
 30
0.0
 40
2.0
100
AcDbArc
 50
90.0
 51
176.724171
  0
ARC
  5
68
100
AcDbEntity
  8
0
370
    -3
  6
Continuous
100
AcDbCircle
 10
201.028074
 20
-6.722764
 30
0.0
 40
2.5
100
AcDbArc
 50
0.0
 51
90.0
  0
ARC
  5
69
100
AcDbEntity
  8
0
370
    -3
  6
Continuous
100
AcDbCircle
 10
198.528074
 20
-80.822764
 30
0.0
 40
5.0
100
AcDbArc
 50
270.0
 51
0.0
  0
ARC
  5
6A
100
AcDbEntity
  8
0
370
    -3
  6
Continuous
100
AcDbCircle
 10
107.828074
 20
-6.722764
 30
0.0
 40
2.5
100
AcDbArc
 50
90.0
 51
180.0
  0
ARC
  5
6B
100
AcDbEntity
  8
0
370
    -3
  6
Continuous
100
AcDbCircle
 10
119.485264
 20
-6.222764
 30
0.0
 40
2.0
100
AcDbArc
 50
3.275829
 51
90.0
  0
ARC
  5
6C
100
AcDbEntity
  8
0
370
    -3
  6
Continuous
100
AcDbCircle
 10
154.428074
 20
-4.222764
 30
0.0
 40
33.0
100
AcDbArc
 50
183.275829
 51
270.0
  0
ARC
  5
6D
100
AcDbEntity
  8
0
370
    -3
  6
Continuous
100
AcDbCircle
 10
110.328074
 20
-80.822764
 30
0.0
 40
5.0
100
AcDbArc
 50
180.0
 51
270.0
  0
LINE
  5
6E
100
AcDbEntity
  8
0
370
    -3
  6
Continuous
100
AcDbLine
 10
-142.543074
 20
320.695605
 30
0.0
 11
-55.008169
 21
319.167677
 31
0.0
  0
LINE
  5
6F
100
AcDbEntity
  8
0
370
    -3
  6
Continuous
100
AcDbLine
 10
-188.108816
 20
319.196992
 30
0.0
 11
-142.543074
 21
320.695605
 31
0.0
  0
LINE
  5
70
100
AcDbEntity
  8
0
370
    -3
  6
Continuous
100
AcDbLine
 10
-188.108816
 20
291.069761
 30
0.0
 11
-158.671009
 21
290.10158
 31
0.0
  0
LINE
  5
71
100
AcDbEntity
  8
0
370
    -3
  6
Continuous
100
AcDbLine
 10
-185.043074
 20
297.817667
 30
0.0
 11
-161.892215
 21
297.817667
 31
0.0
  0
ARC
  5
72
100
AcDbEntity
  8
0
370
    -3
  6
Continuous
100
AcDbCircle
 10
-105.67748
 20
250.445074
 30
0.0
 40
65.0
100
AcDbArc
 50
69.480948
 51
89.0
  0
LINE
  5
73
100
AcDbEntity
  8
0
370
    -3
  6
Continuous
100
AcDbLine
 10
-66.543074
 20
291.633377
 30
0.0
 11
-57.008169
 21
291.466944
 31
0.0
  0
ARC
  5
74
100
AcDbEntity
  8
0
370
    -3
  6
Continuous
100
AcDbCircle
 10
-66.543074
 20
306.633377
 30
0.0
 40
15.0
100
AcDbArc
 50
181.0
 51
270.0
  0
LINE
  5
75
100
AcDbEntity
  8
0
370
    -3
  6
Continuous
100
AcDbLine
 10
-144.543074
 20
316.133377
 30
0.0
 11
-104.543074
 21
315.435174
 31
0.0
  0
LINE
  5
76
100
AcDbEntity
  8
0
370
    -3
  6
CENTER
100
AcDbLine
 10
-66.543074
 20
295.633377
 30
0.0
 11
-66.543074
 21
317.633377
 31
0.0
  0
LINE
  5
77
100
AcDbEntity
  8
0
370
    -3
  6
CENTER
100
AcDbLine
 10
-55.543074
 20
306.633377
 30
0.0
 11
-77.543074
 21
306.633377
 31
0.0
  0
CIRCLE
  5
78
100
AcDbEntity
  8
0
370
    -3
  6
Continuous
100
AcDbCircle
 10
-66.543074
 20
306.633377
 30
0.0
 40
6.0
  0
LINE
  5
79
100
AcDbEntity
  8
0
370
    -3
  6
Continuous
100
AcDbLine
 10
-55.043074
 20
289.467249
 30
0.0
 11
-55.043074
 21
236.633377
 31
0.0
  0
LINE
  5
7A
100
AcDbEntity
  8
0
370
    -3
  6
Continuous
100
AcDbLine
 10
-53.043074
 20
317.167982
 30
0.0
 11
-53.043074
 21
236.633377
 31
0.0
  0
ARC
  5
7B
100
AcDbEntity
  8
0
370
    -3
  6
Continuous
100
AcDbCircle
 10
-54.043074
 20
265.133377
 30
0.0
 40
1.0
100
AcDbArc
 50
180.0
 51
270.0
  0
ARC
  5
7C
100
AcDbEntity
  8
0
370
    -3
  6
Continuous
100
AcDbCircle
 10
-54.043074
 20
263.133377
 30
0.0
 40
1.0
100
AcDbArc
 50
0.0
 51
90.0
  0
LINE
  5
7D
100
AcDbEntity
  8
0
370
    -3
  6
CENTER
100
AcDbLine
 10
-176.543074
 20
295.633377
 30
0.0
 11
-176.543074
 21
317.633377
 31
0.0
  0
LINE
  5
7E
100
AcDbEntity
  8
0
370
    -3
  6
CENTER
100
AcDbLine
 10
-165.543074
 20
306.633377
 30
0.0
 11
-187.543074
 21
306.633377
 31
0.0
  0
CIRCLE
  5
7F
100
AcDbEntity
  8
0
370
    -3
  6
Continuous
100
AcDbCircle
 10
-176.543074
 20
306.633377
 30
0.0
 40
6.0
  0
LINE
  5
80
100
AcDbEntity
  8
0
370
    -3
  6
Continuous
100
AcDbLine
 10
-190.043074
 20
317.198073
 30
0.0
 11
-190.043074
 21
293.06868
 31
0.0
  0
LINE
  5
81
100
AcDbEntity
  8
0
370
    -3
  6
Continuous
100
AcDbLine
 10
-188.108816
 20
154.069761
 30
0.0
 11
-142.543074
 21
152.571148
 31
0.0
  0
LINE
  5
82
100
AcDbEntity
  8
0
370
    -3
  6
Continuous
100
AcDbLine
 10
-188.108816
 20
182.196992
 30
0.0
 11
-158.671009
 21
183.165173
 31
0.0
  0
LINE
  5
83
100
AcDbEntity
  8
0
370
    -3
  6
Continuous
100
AcDbLine
 10
-185.043074
 20
175.449086
 30
0.0
 11
-161.892215
 21
175.449086
 31
0.0
  0
ARC
  5
84
100
AcDbEntity
  8
0
370
    -3
  6
Continuous
100
AcDbCircle
 10
-105.67748
 20
222.821679
 30
0.0
 40
65.0
100
AcDbArc
 50
271.0
 51
290.519052
  0
LINE
  5
85
100
AcDbEntity
  8
0
370
    -3
  6
Continuous
100
AcDbLine
 10
-66.543074
 20
181.633377
 30
0.0
 11
-57.008169
 21
181.799809
 31
0.0
  0
ARC
  5
86
100
AcDbEntity
  8
0
370
    -3
  6
Continuous
100
AcDbCircle
 10
-66.543074
 20
166.633377
 30
0.0
 40
15.0
100
AcDbArc
 50
90.0
 51
179.0
  0
LINE
  5
87
100
AcDbEntity
  8
0
370
    -3
  6
Continuous
100
AcDbLine
 10
-144.543074
 20
157.133377
 30
0.0
 11
-104.543074
 21
157.831579
 31
0.0
  0
LINE
  5
88
100
AcDbEntity
  8
0
370
    -3
  6
CENTER
100
AcDbLine
 10
-363.777614
 20
236.633377
 30
0.0
 11
5.297809
 21
236.633377
 31
0.0
  0
LINE
  5
89
100
AcDbEntity
  8
0
370
    -3
  6
Continuous
100
AcDbLine
 10
-142.543074
 20
152.571148
 30
0.0
 11
-55.008169
 21
154.099076
 31
0.0
  0
LINE
  5
8A
100
AcDbEntity
  8
0
370
    -3
  6
CENTER
100
AcDbLine
 10
-66.543074
 20
177.633377
 30
0.0
 11
-66.543074
 21
155.633377
 31
0.0
  0
LINE
  5
8B
100
AcDbEntity
  8
0
370
    -3
  6
CENTER
100
AcDbLine
 10
-55.543074
 20
166.633377
 30
0.0
 11
-77.543074
 21
166.633377
 31
0.0
  0
CIRCLE
  5
8C
100
AcDbEntity
  8
0
370
    -3
  6
Continuous
100
AcDbCircle
 10
-66.543074
 20
166.633377
 30
0.0
 40
6.0
  0
LINE
  5
8D
100
AcDbEntity
  8
0
370
    -3
  6
Continuous
100
AcDbLine
 10
-55.043074
 20
183.799504
 30
0.0
 11
-55.043074
 21
236.633377
 31
0.0
  0
LINE
  5
8E
100
AcDbEntity
  8
0
370
    -3
  6
Continuous
100
AcDbLine
 10
-53.043074
 20
156.098771
 30
0.0
 11
-53.043074
 21
236.633377
 31
0.0
  0
ARC
  5
8F
100
AcDbEntity
  8
0
370
    -3
  6
Continuous
100
AcDbCircle
 10
-54.043074
 20
208.133377
 30
0.0
 40
1.0
100
AcDbArc
 50
90.0
 51
180.0
  0
ARC
  5
90
100
AcDbEntity
  8
0
370
    -3
  6
Continuous
100
AcDbCircle
 10
-54.043074
 20
210.133377
 30
0.0
 40
1.0
100
AcDbArc
 50
270.0
 51
0.0
  0
LINE
  5
91
100
AcDbEntity
  8
0
370
    -3
  6
CENTER
100
AcDbLine
 10
-176.543074
 20
177.633377
 30
0.0
 11
-176.543074
 21
155.633377
 31
0.0
  0
LINE
  5
92
100
AcDbEntity
  8
0
370
    -3
  6
CENTER
100
AcDbLine
 10
-165.543074
 20
166.633377
 30
0.0
 11
-187.543074
 21
166.633377
 31
0.0
  0
CIRCLE
  5
93
100
AcDbEntity
  8
0
370
    -3
  6
Continuous
100
AcDbCircle
 10
-176.543074
 20
166.633377
 30
0.0
 40
6.0
  0
LINE
  5
94
100
AcDbEntity
  8
0
370
    -3
  6
Continuous
100
AcDbLine
 10
-190.043074
 20
156.06868
 30
0.0
 11
-190.043074
 21
180.198073
 31
0.0
  0
ARC
  5
95
100
AcDbEntity
  8
0
370
    -3
  6
Continuous
100
AcDbCircle
 10
-57.043074
 20
289.467249
 30
0.0
 40
2.0
100
AcDbArc
 50
0.0
 51
89.0
  0
ARC
  5
96
100
AcDbEntity
  8
0
370
    -3
  6
Continuous
100
AcDbCircle
 10
-188.043074
 20
293.06868
 30
0.0
 40
2.0
100
AcDbArc
 50
180.0
 51
268.116277
  0
ARC
  5
97
100
AcDbEntity
  8
0
370
    -3
  6
Continuous
100
AcDbCircle
 10
-188.043074
 20
317.198073
 30
0.0
 40
2.0
100
AcDbArc
 50
91.883723
 51
180.0
  0
ARC
  5
98
100
AcDbEntity
  8
0
370
    -3
  6
Continuous
100
AcDbCircle
 10
-55.043074
 20
317.167982
 30
0.0
 40
2.0
100
AcDbArc
 50
0.0
 51
89.0
  0
ARC
  5
99
100
AcDbEntity
  8
0
370
    -3
  6
Continuous
100
AcDbCircle
 10
-55.043074
 20
156.098771
 30
0.0
 40
2.0
100
AcDbArc
 50
271.0
 51
0.0
  0
ARC
  5
9A
100
AcDbEntity
  8
0
370
    -3
  6
Continuous
100
AcDbCircle
 10
-188.043074
 20
156.06868
 30
0.0
 40
2.0
100
AcDbArc
 50
180.0
 51
268.116277
  0
ARC
  5
9B
100
AcDbEntity
  8
0
370
    -3
  6
Continuous
100
AcDbCircle
 10
-188.043074
 20
180.198073
 30
0.0
 40
2.0
100
AcDbArc
 50
91.883723
 51
180.0
  0
ARC
  5
9C
100
AcDbEntity
  8
0
370
    -3
  6
Continuous
100
AcDbCircle
 10
-57.043074
 20
183.799504
 30
0.0
 40
2.0
100
AcDbArc
 50
271.0
 51
0.0
  0
LINE
  5
9D
100
AcDbEntity
  8
0
370
    -3
  6
Continuous
100
AcDbLine
 10
-144.543074
 20
316.142104
 30
0.0
 11
-144.543074
 21
236.696885
 31
0.0
  0
LINE
  5
9E
100
AcDbEntity
  8
0
370
    -3
  6
Continuous
100
AcDbLine
 10
-144.543074
 20
157.124649
 30
0.0
 11
-144.543074
 21
236.569868
 31
0.0
  0
LINE
  5
9F
100
AcDbEntity
  8
0
370
    -3
  6
Continuous
100
AcDbLine
 10
-81.540789
 20
306.371591
 30
0.0
 11
-81.595099
 21
309.482987
 31
0.0
  0
ARC
  5
A0
100
AcDbEntity
  8
0
370
    -3
  6
Continuous
100
AcDbCircle
 10
-83.594794
 20
309.448082
 30
0.0
 40
2.0
100
AcDbArc
 50
1.0
 51
69.480948
  0
ARC
  5
A1
100
AcDbEntity
  8
0
370
    -3
  6
Continuous
100
AcDbCircle
 10
-83.594794
 20
163.818671
 30
0.0
 40
2.0
100
AcDbArc
 50
290.519052
 51
359.0
  0
LINE
  5
A2
100
AcDbEntity
  8
0
370
    -3
  6
Continuous
100
AcDbLine
 10
-81.540789
 20
166.895163
 30
0.0
 11
-81.595099
 21
163.783766
 31
0.0
  0
ARC
  5
A3
100
AcDbEntity
  8
0
370
    -3
  6
Continuous
100
AcDbCircle
 10
-9.443074
 20
223.033377
 30
0.0
 40
0.4
100
AcDbArc
 50
270.0
 51
0.0
  0
LINE
  5
A4
100
AcDbEntity
  8
0
370
    -3
  6
Continuous
100
AcDbLine
 10
-9.443074
 20
222.633377
 30
0.0
 11
-48.483266
 21
222.633377
 31
0.0
  0
LINE
  5
A5
100
AcDbEntity
  8
0
370
    -3
  6
Continuous
100
AcDbLine
 10
-9.043074
 20
223.033377
 30
0.0
 11
-9.043074
 21
236.633377
 31
0.0
  0
LINE
  5
A6
100
AcDbEntity
  8
0
370
    -3
  6
Continuous
100
AcDbLine
 10
-9.043074
 20
219.633377
 30
0.0
 11
-45.043074
 21
219.633377
 31
0.0
  0
LINE
  5
A7
100
AcDbEntity
  8
0
370
    -3
  6
Continuous
100
AcDbLine
 10
-9.043074
 20
219.633377
 30
0.0
 11
-9.043074
 21
223.033377
 31
0.0
  0
ARC
  5
A8
100
AcDbEntity
  8
0
370
    -3
  6
Continuous
100
AcDbCircle
 10
-9.443074
 20
250.233377
 30
0.0
 40
0.4
100
AcDbArc
 50
0.0
 51
90.0
  0
LINE
  5
A9
100
AcDbEntity
  8
0
370
    -3
  6
Continuous
100
AcDbLine
 10
-9.443074
 20
250.633377
 30
0.0
 11
-48.483266
 21
250.633377
 31
0.0
  0
LINE
  5
AA
100
AcDbEntity
  8
0
370
    -3
  6
Continuous
100
AcDbLine
 10
-9.043074
 20
250.233377
 30
0.0
 11
-9.043074
 21
236.633377
 31
0.0
  0
LINE
  5
AB
100
AcDbEntity
  8
0
370
    -3
  6
Continuous
100
AcDbLine
 10
-45.043074
 20
219.633377
 30
0.0
 11
-45.043074
 21
222.633377
 31
0.0
  0
LINE
  5
AC
100
AcDbEntity
  8
0
370
    -3
  6
Continuous
100
AcDbLine
 10
-49.043074
 20
250.483377
 30
0.0
 11
-50.643074
 21
250.483377
 31
0.0
  0
LINE
  5
AD
100
AcDbEntity
  8
0
370
    -3
  6
Continuous
100
AcDbLine
 10
-48.483266
 20
250.633377
 30
0.0
 11
-49.043074
 21
250.483377
 31
0.0
  0
ARC
  5
AE
100
AcDbEntity
  8
0
370
    -3
  6
Continuous
100
AcDbCircle
 10
-50.643074
 20
250.883377
 30
0.0
 40
0.4
100
AcDbArc
 50
180.0
 51
270.0
  0
LINE
  5
AF
100
AcDbEntity
  8
0
370
    -3
  6
Continuous
100
AcDbLine
 10
-51.043074
 20
250.933377
 30
0.0
 11
-51.243074
 21
251.133377
 31
0.0
  0
LINE
  5
B0
100
AcDbEntity
  8
0
370
    -3
  6
Continuous
100
AcDbLine
 10
-51.043074
 20
236.633377
 30
0.0
 11
-51.043074
 21
250.933377
 31
0.0
  0
LINE
  5
B1
100
AcDbEntity
  8
0
370
    -3
  6
Continuous
100
AcDbLine
 10
-51.243074
 20
251.133377
 30
0.0
 11
-53.043074
 21
251.133377
 31
0.0
  0
LINE
  5
B2
100
AcDbEntity
  8
0
370
    -3
  6
Continuous
100
AcDbLine
 10
-49.043074
 20
222.783377
 30
0.0
 11
-50.643074
 21
222.783377
 31
0.0
  0
LINE
  5
B3
100
AcDbEntity
  8
0
370
    -3
  6
Continuous
100
AcDbLine
 10
-48.483266
 20
222.633377
 30
0.0
 11
-49.043074
 21
222.783377
 31
0.0
  0
ARC
  5
B4
100
AcDbEntity
  8
0
370
    -3
  6
Continuous
100
AcDbCircle
 10
-50.643074
 20
222.383377
 30
0.0
 40
0.4
100
AcDbArc
 50
90.0
 51
180.0
  0
LINE
  5
B5
100
AcDbEntity
  8
0
370
    -3
  6
Continuous
100
AcDbLine
 10
-51.043074
 20
222.333377
 30
0.0
 11
-51.243074
 21
222.133377
 31
0.0
  0
LINE
  5
B6
100
AcDbEntity
  8
0
370
    -3
  6
Continuous
100
AcDbLine
 10
-51.043074
 20
236.633377
 30
0.0
 11
-51.043074
 21
222.333377
 31
0.0
  0
LINE
  5
B7
100
AcDbEntity
  8
0
370
    -3
  6
Continuous
100
AcDbLine
 10
-51.243074
 20
222.133377
 30
0.0
 11
-53.043074
 21
222.133377
 31
0.0
  0
LINE
  5
B8
100
AcDbEntity
  8
0
370
    -3
  6
Continuous
100
AcDbLine
 10
-156.043074
 20
189.633377
 30
0.0
 11
-156.043074
 21
159.133377
 31
0.0
  0
LINE
  5
B9
100
AcDbEntity
  8
0
370
    -3
  6
Continuous
100
AcDbLine
 10
-156.043074
 20
236.633377
 30
0.0
 11
-156.043074
 21
199.633377
 31
0.0
  0
ARC
  5
BA
100
AcDbEntity
  8
0
370
    -3
  6
Continuous
100
AcDbCircle
 10
-152.043074
 20
188.633377
 30
0.0
 40
1.0
100
AcDbArc
 50
270.0
 51
0.0
  0
ARC
  5
BB
100
AcDbEntity
  8
0
370
    -3
  6
Continuous
100
AcDbCircle
 10
-155.043074
 20
186.633377
 30
0.0
 40
1.0
100
AcDbArc
 50
90.0
 51
180.0
  0
LINE
  5
BC
100
AcDbEntity
  8
0
370
    -3
  6
Continuous
100
AcDbLine
 10
-151.043074
 20
200.633377
 30
0.0
 11
-151.043074
 21
188.633377
 31
0.0
  0
LINE
  5
BD
100
AcDbEntity
  8
0
370
    -3
  6
Continuous
100
AcDbLine
 10
-155.043074
 20
187.633377
 30
0.0
 11
-152.043074
 21
187.633377
 31
0.0
  0
ARC
  5
BE
100
AcDbEntity
  8
0
370
    -3
  6
Continuous
100
AcDbCircle
 10
-152.043074
 20
200.633377
 30
0.0
 40
1.0
100
AcDbArc
 50
0.0
 51
90.0
  0
ARC
  5
BF
100
AcDbEntity
  8
0
370
    -3
  6
Continuous
100
AcDbCircle
 10
-155.043074
 20
202.633377
 30
0.0
 40
1.0
100
AcDbArc
 50
180.0
 51
270.0
  0
LINE
  5
C0
100
AcDbEntity
  8
0
370
    -3
  6
Continuous
100
AcDbLine
 10
-155.043074
 20
201.633377
 30
0.0
 11
-152.043074
 21
201.633377
 31
0.0
  0
LINE
  5
C1
100
AcDbEntity
  8
0
370
    -3
  6
Continuous
100
AcDbLine
 10
-159.043074
 20
172.696885
 30
0.0
 11
-159.043074
 21
159.133377
 31
0.0
  0
ARC
  5
C2
100
AcDbEntity
  8
0
370
    -3
  6
Continuous
100
AcDbCircle
 10
-158.043074
 20
176.569868
 30
0.0
 40
2.0
100
AcDbArc
 50
284.477512
 51
0.0
  0
ARC
  5
C3
100
AcDbEntity
  8
0
370
    -3
  6
Continuous
100
AcDbCircle
 10
-157.043074
 20
172.696885
 30
0.0
 40
2.0
100
AcDbArc
 50
104.477512
 51
180.0
  0
ARC
  5
C4
100
AcDbEntity
  8
0
370
    -3
  6
Continuous
100
AcDbCircle
 10
-157.043074
 20
159.133377
 30
0.0
 40
2.0
100
AcDbArc
 50
180.0
 51
270.0
  0
LINE
  5
C5
100
AcDbEntity
  8
0
370
    -3
  6
Continuous
100
AcDbLine
 10
-144.543074
 20
157.133377
 30
0.0
 11
-157.043074
 21
157.133377
 31
0.0
  0
LINE
  5
C6
100
AcDbEntity
  8
0
370
    -3
  6
Continuous
100
AcDbLine
 10
-145.043074
 20
157.133377
 30
0.0
 11
-145.043074
 21
236.633377
 31
0.0
  0
LINE
  5
C7
100
AcDbEntity
  8
0
370
    -3
  6
Continuous
100
AcDbLine
 10
-170.543074
 20
184.098456
 30
0.0
 11
-160.868576
 21
183.760615
 31
0.0
  0
ARC
  5
C8
100
AcDbEntity
  8
0
370
    -3
  6
Continuous
100
AcDbCircle
 10
-161.043074
 20
180.368423
 30
0.0
 40
5.0
100
AcDbArc
 50
0.0
 51
88.0
  0
ARC
  5
C9
100
AcDbEntity
  8
0
370
    -3
  6
Continuous
100
AcDbCircle
 10
-161.043074
 20
178.763661
 30
0.0
 40
5.0
100
AcDbArc
 50
0.0
 51
88.0
  0
ARC
  5
CA
100
AcDbEntity
  8
0
370
    -3
  6
Continuous
100
AcDbCircle
 10
-154.043074
 20
159.133377
 30
0.0
 40
2.0
100
AcDbArc
 50
180.0
 51
270.0
  0
LINE
  5
CB
100
AcDbEntity
  8
0
370
    -3
  6
Continuous
100
AcDbLine
 10
-168.543074
 20
185.633377
 30
0.0
 11
-160.868576
 21
185.365377
 31
0.0
  0
LINE
  5
CC
100
AcDbEntity
  8
0
370
    -3
  6
Continuous
100
AcDbLine
 10
-155.043087
 20
199.633377
 30
0.0
 11
-155.043088
 21
199.633377
 31
0.0
  0
LINE
  5
CD
100
AcDbEntity
  8
0
370
    -3
  6
Continuous
100
AcDbLine
 10
-156.043074
 20
283.633377
 30
0.0
 11
-156.043074
 21
314.133377
 31
0.0
  0
LINE
  5
CE
100
AcDbEntity
  8
0
370
    -3
  6
Continuous
100
AcDbLine
 10
-156.043074
 20
236.633377
 30
0.0
 11
-156.043074
 21
273.633377
 31
0.0
  0
ARC
  5
CF
100
AcDbEntity
  8
0
370
    -3
  6
Continuous
100
AcDbCircle
 10
-152.043074
 20
284.633377
 30
0.0
 40
1.0
100
AcDbArc
 50
0.0
 51
90.0
  0
ARC
  5
D0
100
AcDbEntity
  8
0
370
    -3
  6
Continuous
100
AcDbCircle
 10
-155.043074
 20
286.633377
 30
0.0
 40
1.0
100
AcDbArc
 50
180.0
 51
270.0
  0
LINE
  5
D1
100
AcDbEntity
  8
0
370
    -3
  6
Continuous
100
AcDbLine
 10
-151.043074
 20
272.633377
 30
0.0
 11
-151.043074
 21
284.633377
 31
0.0
  0
LINE
  5
D2
100
AcDbEntity
  8
0
370
    -3
  6
Continuous
100
AcDbLine
 10
-155.043074
 20
285.633377
 30
0.0
 11
-152.043074
 21
285.633377
 31
0.0
  0
ARC
  5
D3
100
AcDbEntity
  8
0
370
    -3
  6
Continuous
100
AcDbCircle
 10
-152.043074
 20
272.633377
 30
0.0
 40
1.0
100
AcDbArc
 50
270.0
 51
0.0
  0
ARC
  5
D4
100
AcDbEntity
  8
0
370
    -3
  6
Continuous
100
AcDbCircle
 10
-155.043074
 20
270.633377
 30
0.0
 40
1.0
100
AcDbArc
 50
90.0
 51
180.0
  0
LINE
  5
D5
100
AcDbEntity
  8
0
370
    -3
  6
Continuous
100
AcDbLine
 10
-155.043074
 20
271.633377
 30
0.0
 11
-152.043074
 21
271.633377
 31
0.0
  0
LINE
  5
D6
100
AcDbEntity
  8
0
370
    -3
  6
Continuous
100
AcDbLine
 10
-159.043074
 20
300.569868
 30
0.0
 11
-159.043074
 21
314.133377
 31
0.0
  0
ARC
  5
D7
100
AcDbEntity
  8
0
370
    -3
  6
Continuous
100
AcDbCircle
 10
-158.043074
 20
296.696885
 30
0.0
 40
2.0
100
AcDbArc
 50
0.0
 51
75.522488
  0
ARC
  5
D8
100
AcDbEntity
  8
0
370
    -3
  6
Continuous
100
AcDbCircle
 10
-157.043074
 20
300.569868
 30
0.0
 40
2.0
100
AcDbArc
 50
180.0
 51
255.522488
  0
ARC
  5
D9
100
AcDbEntity
  8
0
370
    -3
  6
Continuous
100
AcDbCircle
 10
-157.043074
 20
314.133377
 30
0.0
 40
2.0
100
AcDbArc
 50
90.0
 51
180.0
  0
LINE
  5
DA
100
AcDbEntity
  8
0
370
    -3
  6
Continuous
100
AcDbLine
 10
-144.543074
 20
316.133377
 30
0.0
 11
-157.043074
 21
316.133377
 31
0.0
  0
LINE
  5
DB
100
AcDbEntity
  8
0
370
    -3
  6
Continuous
100
AcDbLine
 10
-145.043074
 20
316.133377
 30
0.0
 11
-145.043074
 21
236.633377
 31
0.0
  0
LINE
  5
DC
100
AcDbEntity
  8
0
370
    -3
  6
Continuous
100
AcDbLine
 10
-170.543074
 20
289.168297
 30
0.0
 11
-160.868576
 21
289.506138
 31
0.0
  0
ARC
  5
DD
100
AcDbEntity
  8
0
370
    -3
  6
Continuous
100
AcDbCircle
 10
-161.043074
 20
292.89833
 30
0.0
 40
5.0
100
AcDbArc
 50
272.0
 51
0.0
  0
ARC
  5
DE
100
AcDbEntity
  8
0
370
    -3
  6
Continuous
100
AcDbCircle
 10
-161.043074
 20
294.503092
 30
0.0
 40
5.0
100
AcDbArc
 50
272.0
 51
0.0
  0
ARC
  5
DF
100
AcDbEntity
  8
0
370
    -3
  6
Continuous
100
AcDbCircle
 10
-154.043074
 20
314.133377
 30
0.0
 40
2.0
100
AcDbArc
 50
90.0
 51
180.0
  0
LINE
  5
E0
100
AcDbEntity
  8
0
370
    -3
  6
Continuous
100
AcDbLine
 10
-168.543074
 20
287.633377
 30
0.0
 11
-160.868576
 21
287.901376
 31
0.0
  0
LINE
  5
E1
100
AcDbEntity
  8
0
370
    -3
  6
Continuous
100
AcDbLine
 10
-155.043087
 20
273.633377
 30
0.0
 11
-155.043088
 21
273.633377
 31
0.0
  0
LINE
  5
E2
100
AcDbEntity
  8
0
370
    -3
  6
Continuous
100
AcDbLine
 10
-170.543074
 20
184.098456
 30
0.0
 11
-170.543074
 21
236.633377
 31
0.0
  0
ARC
  5
E3
100
AcDbEntity
  8
0
370
    -3
  6
Continuous
100
AcDbCircle
 10
-170.543074
 20
188.975089
 30
0.0
 40
1.0
100
AcDbArc
 50
0.0
 51
90.0
  0
ARC
  5
E4
100
AcDbEntity
  8
0
370
    -3
  6
Continuous
100
AcDbCircle
 10
-170.543074
 20
198.374034
 30
0.0
 40
1.0
100
AcDbArc
 50
270.0
 51
0.0
  0
LINE
  5
E5
100
AcDbEntity
  8
0
370
    -3
  6
Continuous
100
AcDbLine
 10
-169.543074
 20
188.975089
 30
0.0
 11
-169.543074
 21
186.633377
 31
0.0
  0
ARC
  5
E6
100
AcDbEntity
  8
0
370
    -3
  6
Continuous
100
AcDbCircle
 10
-168.543074
 20
186.633377
 30
0.0
 40
1.0
100
AcDbArc
 50
180.0
 51
270.0
  0
LINE
  5
E7
100
AcDbEntity
  8
0
370
    -3
  6
Continuous
100
AcDbLine
 10
-169.543074
 20
236.633377
 30
0.0
 11
-169.543074
 21
198.374034
 31
0.0
  0
LINE
  5
E8
100
AcDbEntity
  8
0
370
    -3
  6
Continuous
100
AcDbLine
 10
-170.543074
 20
289.168297
 30
0.0
 11
-170.543074
 21
236.633377
 31
0.0
  0
ARC
  5
E9
100
AcDbEntity
  8
0
370
    -3
  6
Continuous
100
AcDbCircle
 10
-170.543074
 20
284.291664
 30
0.0
 40
1.0
100
AcDbArc
 50
270.0
 51
0.0
  0
ARC
  5
EA
100
AcDbEntity
  8
0
370
    -3
  6
Continuous
100
AcDbCircle
 10
-170.543074
 20
274.892719
 30
0.0
 40
1.0
100
AcDbArc
 50
0.0
 51
90.0
  0
LINE
  5
EB
100
AcDbEntity
  8
0
370
    -3
  6
Continuous
100
AcDbLine
 10
-169.543074
 20
284.291664
 30
0.0
 11
-169.543074
 21
286.633377
 31
0.0
  0
ARC
  5
EC
100
AcDbEntity
  8
0
370
    -3
  6
Continuous
100
AcDbCircle
 10
-168.543074
 20
286.633377
 30
0.0
 40
1.0
100
AcDbArc
 50
90.0
 51
180.0
  0
LINE
  5
ED
100
AcDbEntity
  8
0
370
    -3
  6
Continuous
100
AcDbLine
 10
-169.543074
 20
236.633377
 30
0.0
 11
-169.543074
 21
274.892719
 31
0.0
  0
LINE
  5
EE
100
AcDbEntity
  8
0
370
    -3
  6
Continuous
100
AcDbLine
 10
-151.043074
 20
199.633377
 30
0.0
 11
-157.043074
 21
199.633377
 31
0.0
  0
LINE
  5
EF
100
AcDbEntity
  8
0
370
    -3
  6
Continuous
100
AcDbLine
 10
-151.043074
 20
189.633377
 30
0.0
 11
-157.043074
 21
189.633377
 31
0.0
  0
LINE
  5
F0
100
AcDbEntity
  8
0
370
    -3
  6
Continuous
100
AcDbLine
 10
-157.043074
 20
199.633377
 30
0.0
 11
-157.043074
 21
189.633377
 31
0.0
  0
LINE
  5
F1
100
AcDbEntity
  8
0
370
    -3
  6
Continuous
100
AcDbLine
 10
-151.043074
 20
188.533377
 30
0.0
 11
-151.043074
 21
200.733376
 31
0.0
  0
LINE
  5
F2
100
AcDbEntity
  8
0
370
    -3
  6
Continuous
100
AcDbLine
 10
-151.043074
 20
273.633377
 30
0.0
 11
-157.043074
 21
273.633377
 31
0.0
  0
LINE
  5
F3
100
AcDbEntity
  8
0
370
    -3
  6
Continuous
100
AcDbLine
 10
-151.043074
 20
283.633377
 30
0.0
 11
-157.043074
 21
283.633377
 31
0.0
  0
LINE
  5
F4
100
AcDbEntity
  8
0
370
    -3
  6
Continuous
100
AcDbLine
 10
-157.043074
 20
273.633377
 30
0.0
 11
-157.043074
 21
283.633377
 31
0.0
  0
LINE
  5
F5
100
AcDbEntity
  8
0
370
    -3
  6
Continuous
100
AcDbLine
 10
-151.043074
 20
284.733376
 30
0.0
 11
-151.043074
 21
272.533377
 31
0.0
  0
LINE
  5
F6
100
AcDbEntity
  8
0
370
    -3
  6
Continuous
100
AcDbLine
 10
-169.543074
 20
250.633377
 30
0.0
 11
-156.043074
 21
250.633377
 31
0.0
  0
LINE
  5
F7
100
AcDbEntity
  8
0
370
    -3
  6
Continuous
100
AcDbLine
 10
-169.543074
 20
222.633377
 30
0.0
 11
-156.043074
 21
222.633377
 31
0.0
  0
LINE
  5
F8
100
AcDbEntity
  8
0
370
    -3
  6
Continuous
100
AcDbLine
 10
-170.543074
 20
290.133377
 30
0.0
 11
-170.543074
 21
236.633377
 31
0.0
  0
LINE
  5
F9
100
AcDbEntity
  8
0
370
    -3
  6
Continuous
100
AcDbLine
 10
-170.543074
 20
183.133377
 30
0.0
 11
-170.543074
 21
236.633377
 31
0.0
  0
LINE
  5
FA
100
AcDbEntity
  8
0
370
    -3
  6
Continuous
100
AcDbLine
 10
-269.543074
 20
-84.222764
 30
0.0
 11
-269.543074
 21
-77.022764
 31
0.0
  0
LINE
  5
FB
100
AcDbEntity
  8
0
370
    -3
  6
Continuous
100
AcDbLine
 10
-280.543074
 20
-79.366685
 30
0.0
 11
-282.543074
 21
-77.714043
 31
0.0
  0
LINE
  5
FC
100
AcDbEntity
  8
0
370
    -3
  6
Continuous
100
AcDbLine
 10
-280.543074
 20
-79.366685
 30
0.0
 11
-278.543074
 21
-77.714043
 31
0.0
  0
LINE
  5
FD
100
AcDbEntity
  8
0
370
    -3
  6
Continuous
100
AcDbLine
 10
-282.543074
 20
-80.542471
 30
0.0
 11
-280.543074
 21
-79.366685
 31
0.0
  0
LINE
  5
FE
100
AcDbEntity
  8
0
370
    -3
  6
Continuous
100
AcDbLine
 10
-278.543074
 20
-80.542471
 30
0.0
 11
-280.543074
 21
-79.366685
 31
0.0
  0
ELLIPSE
  5
FF
100
AcDbEntity
  8
0
370
    -3
  6
Continuous
100
AcDbEllipse
 10
-280.543074
 20
-77.550095
 30
0.0
 11
4.6999999999999886
 21
0.0
 31
0.0
210
0.0
220
0.0
230
1.0
 40
0.766646
 41
2.9947159677073079
 42
0.1468766858824226
  0
LINE
  5
100
100
AcDbEntity
  8
0
370
    -3
  6
Continuous
100
AcDbLine
 10
-269.543074
 20
-84.222764
 30
0.0
 11
-325.047919
 21
-84.222764
 31
0.0
  0
LINE
  5
101
100
AcDbEntity
  8
0
370
    -3
  6
Continuous
100
AcDbLine
 10
-336.863593
 20
-80.497296
 30
0.0
 11
-344.434373
 21
-75.196179
 31
0.0
  0
LINE
  5
102
100
AcDbEntity
  8
0
370
    -3
  6
Continuous
100
AcDbLine
 10
-345.543074
 20
-73.066384
 30
0.0
 11
-345.543074
 21
-30.222764
 31
0.0
  0
ARC
  5
103
100
AcDbEntity
  8
0
370
    -3
  6
Continuous
100
AcDbCircle
 10
-342.943074
 20
-73.066384
 30
0.0
 40
2.6
100
AcDbArc
 50
180.0
 51
235.0
  0
ARC
  5
104
100
AcDbEntity
  8
0
370
    -3
  6
Continuous
100
AcDbCircle
 10
-325.047919
 20
-63.622764
 30
0.0
 40
20.6
100
AcDbArc
 50
235.0
 51
270.0
  0
LINE
  5
105
100
AcDbEntity
  8
0
370
    -3
  6
Continuous
100
AcDbLine
 10
-336.863593
 20
20.051768
 30
0.0
 11
-344.434373
 21
14.750651
 31
0.0
  0
LINE
  5
106
100
AcDbEntity
  8
0
370
    -3
  6
Continuous
100
AcDbLine
 10
-345.543074
 20
12.620856
 30
0.0
 11
-345.543074
 21
-30.222764
 31
0.0
  0
ARC
  5
107
100
AcDbEntity
  8
0
370
    -3
  6
Continuous
100
AcDbCircle
 10
-342.943074
 20
12.620856
 30
0.0
 40
2.6
100
AcDbArc
 50
125.0
 51
180.0
  0
ARC
  5
108
100
AcDbEntity
  8
0
370
    -3
  6
Continuous
100
AcDbCircle
 10
-325.047919
 20
3.177236
 30
0.0
 40
20.6
100
AcDbArc
 50
90.0
 51
125.0
  0
LINE
  5
109
100
AcDbEntity
  8
0
370
    -3
  6
Continuous
100
AcDbLine
 10
-269.543074
 20
23.777236
 30
0.0
 11
-269.543074
 21
16.577236
 31
0.0
  0
ELLIPSE
  5
10A
100
AcDbEntity
  8
0
370
    -3
  6
Continuous
100
AcDbEllipse
 10
-280.543074
 20
17.104567
 30
0.0
 11
4.6999999999999886
 21
0.0
 31
0.0
210
0.0
220
0.0
230
1.0
 40
0.766646
 41
6.1363086212977258
 42
3.2884693394715918
  0
LINE
  5
10B
100
AcDbEntity
  8
0
370
    -3
  6
Continuous
100
AcDbLine
 10
-282.543074
 20
20.096942
 30
0.0
 11
-280.543074
 21
18.921157
 31
0.0
  0
LINE
  5
10C
100
AcDbEntity
  8
0
370
    -3
  6
Continuous
100
AcDbLine
 10
-280.543074
 20
18.921157
 30
0.0
 11
-278.543074
 21
17.268515
 31
0.0
  0
LINE
  5
10D
100
AcDbEntity
  8
0
370
    -3
  6
Continuous
100
AcDbLine
 10
-278.543074
 20
20.096942
 30
0.0
 11
-280.543074
 21
18.921157
 31
0.0
  0
LINE
  5
10E
100
AcDbEntity
  8
0
370
    -3
  6
Continuous
100
AcDbLine
 10
-280.543074
 20
18.921157
 30
0.0
 11
-282.543074
 21
17.268515
 31
0.0
  0
LINE
  5
10F
100
AcDbEntity
  8
0
370
    -3
  6
Continuous
100
AcDbLine
 10
-269.543074
 20
23.777236
 30
0.0
 11
-325.047919
 21
23.777236
 31
0.0
  0
LINE
  5
110
100
AcDbEntity
  8
0
370
    -3
  6
Continuous
100
AcDbLine
 10
-269.543074
 20
-84.222764
 30
0.0
 11
-269.543074
 21
-77.022764
 31
0.0
  0
LINE
  5
111
100
AcDbEntity
  8
0
370
    -3
  6
Continuous
100
AcDbLine
 10
-280.543074
 20
-79.366685
 30
0.0
 11
-282.543074
 21
-77.714043
 31
0.0
  0
LINE
  5
112
100
AcDbEntity
  8
0
370
    -3
  6
Continuous
100
AcDbLine
 10
-280.543074
 20
-79.366685
 30
0.0
 11
-278.543074
 21
-77.714043
 31
0.0
  0
LINE
  5
113
100
AcDbEntity
  8
0
370
    -3
  6
Continuous
100
AcDbLine
 10
-282.543074
 20
-80.542471
 30
0.0
 11
-280.543074
 21
-79.366685
 31
0.0
  0
LINE
  5
114
100
AcDbEntity
  8
0
370
    -3
  6
Continuous
100
AcDbLine
 10
-278.543074
 20
-80.542471
 30
0.0
 11
-280.543074
 21
-79.366685
 31
0.0
  0
ELLIPSE
  5
115
100
AcDbEntity
  8
0
370
    -3
  6
Continuous
100
AcDbEllipse
 10
-280.543074
 20
-77.550095
 30
0.0
 11
4.6999999999999886
 21
0.0
 31
0.0
210
0.0
220
0.0
230
1.0
 40
0.766646
 41
2.9947159677073079
 42
0.1468766858824226
  0
LINE
  5
116
100
AcDbEntity
  8
0
370
    -3
  6
Continuous
100
AcDbLine
 10
-269.543074
 20
-84.222764
 30
0.0
 11
-325.047919
 21
-84.222764
 31
0.0
  0
LINE
  5
117
100
AcDbEntity
  8
0
370
    -3
  6
Continuous
100
AcDbLine
 10
-336.863593
 20
-80.497296
 30
0.0
 11
-344.434373
 21
-75.196179
 31
0.0
  0
LINE
  5
118
100
AcDbEntity
  8
0
370
    -3
  6
Continuous
100
AcDbLine
 10
-345.543074
 20
-73.066384
 30
0.0
 11
-345.543074
 21
-30.222764
 31
0.0
  0
ARC
  5
119
100
AcDbEntity
  8
0
370
    -3
  6
Continuous
100
AcDbCircle
 10
-342.943074
 20
-73.066384
 30
0.0
 40
2.6
100
AcDbArc
 50
180.0
 51
235.0
  0
ARC
  5
11A
100
AcDbEntity
  8
0
370
    -3
  6
Continuous
100
AcDbCircle
 10
-325.047919
 20
-63.622764
 30
0.0
 40
20.6
100
AcDbArc
 50
235.0
 51
270.0
  0
LINE
  5
11B
100
AcDbEntity
  8
0
370
    -3
  6
Continuous
100
AcDbLine
 10
-336.863593
 20
20.051768
 30
0.0
 11
-344.434373
 21
14.750651
 31
0.0
  0
LINE
  5
11C
100
AcDbEntity
  8
0
370
    -3
  6
Continuous
100
AcDbLine
 10
-345.543074
 20
12.620856
 30
0.0
 11
-345.543074
 21
-30.222764
 31
0.0
  0
ARC
  5
11D
100
AcDbEntity
  8
0
370
    -3
  6
Continuous
100
AcDbCircle
 10
-342.943074
 20
12.620856
 30
0.0
 40
2.6
100
AcDbArc
 50
125.0
 51
180.0
  0
ARC
  5
11E
100
AcDbEntity
  8
0
370
    -3
  6
Continuous
100
AcDbCircle
 10
-325.047919
 20
3.177236
 30
0.0
 40
20.6
100
AcDbArc
 50
90.0
 51
125.0
  0
LINE
  5
11F
100
AcDbEntity
  8
0
370
    -3
  6
Continuous
100
AcDbLine
 10
-269.543074
 20
23.777236
 30
0.0
 11
-269.543074
 21
16.577236
 31
0.0
  0
ELLIPSE
  5
120
100
AcDbEntity
  8
0
370
    -3
  6
Continuous
100
AcDbEllipse
 10
-280.543074
 20
17.104567
 30
0.0
 11
4.6999999999999886
 21
0.0
 31
0.0
210
0.0
220
0.0
230
1.0
 40
0.766646
 41
6.1363086212977258
 42
3.2884693394715918
  0
LINE
  5
121
100
AcDbEntity
  8
0
370
    -3
  6
Continuous
100
AcDbLine
 10
-282.543074
 20
20.096942
 30
0.0
 11
-280.543074
 21
18.921157
 31
0.0
  0
LINE
  5
122
100
AcDbEntity
  8
0
370
    -3
  6
Continuous
100
AcDbLine
 10
-280.543074
 20
18.921157
 30
0.0
 11
-278.543074
 21
17.268515
 31
0.0
  0
LINE
  5
123
100
AcDbEntity
  8
0
370
    -3
  6
Continuous
100
AcDbLine
 10
-278.543074
 20
20.096942
 30
0.0
 11
-280.543074
 21
18.921157
 31
0.0
  0
LINE
  5
124
100
AcDbEntity
  8
0
370
    -3
  6
Continuous
100
AcDbLine
 10
-280.543074
 20
18.921157
 30
0.0
 11
-282.543074
 21
17.268515
 31
0.0
  0
LINE
  5
125
100
AcDbEntity
  8
0
370
    -3
  6
Continuous
100
AcDbLine
 10
-269.543074
 20
23.777236
 30
0.0
 11
-325.047919
 21
23.777236
 31
0.0
  0
LINE
  5
126
100
AcDbEntity
  8
0
370
    -3
  6
Continuous
100
AcDbLine
 10
-269.543074
 20
20.777236
 30
0.0
 11
-170.543074
 21
20.777236
 31
0.0
  0
LINE
  5
127
100
AcDbEntity
  8
0
370
    -3
  6
Continuous
100
AcDbLine
 10
-269.543074
 20
20.277236
 30
0.0
 11
-170.543074
 21
20.277236
 31
0.0
  0
LINE
  5
128
100
AcDbEntity
  8
0
370
    -3
  6
Continuous
100
AcDbLine
 10
-170.543074
 20
22.277236
 30
0.0
 11
-269.543074
 21
22.277236
 31
0.0
  0
LINE
  5
129
100
AcDbEntity
  8
0
370
    -3
  6
Continuous
100
AcDbLine
 10
-269.543074
 20
-81.222764
 30
0.0
 11
-170.543074
 21
-81.222764
 31
0.0
  0
LINE
  5
12A
100
AcDbEntity
  8
0
370
    -3
  6
Continuous
100
AcDbLine
 10
-269.543074
 20
-80.722764
 30
0.0
 11
-170.543074
 21
-80.722764
 31
0.0
  0
LINE
  5
12B
100
AcDbEntity
  8
0
370
    -3
  6
Continuous
100
AcDbLine
 10
-170.543074
 20
-82.722764
 30
0.0
 11
-269.543074
 21
-82.722764
 31
0.0
  0
LINE
  5
12C
100
AcDbEntity
  8
0
370
    -3
  6
Continuous
100
AcDbLine
 10
-170.543074
 20
-82.722764
 30
0.0
 11
-170.543074
 21
-30.222764
 31
0.0
  0
LINE
  5
12D
100
AcDbEntity
  8
0
370
    -3
  6
Continuous
100
AcDbLine
 10
-170.543074
 20
22.277236
 30
0.0
 11
-170.543074
 21
-30.222764
 31
0.0
  0
LINE
  5
12E
100
AcDbEntity
  8
0
370
    -3
  6
Continuous
100
AcDbLine
 10
-187.543074
 20
-53.12297
 30
0.0
 11
-170.543074
 21
-53.12297
 31
0.0
  0
LINE
  5
12F
100
AcDbEntity
  8
0
370
    -3
  6
Continuous
100
AcDbLine
 10
-269.543065
 20
-77.549361
 30
0.0
 11
-170.543074
 21
-77.549361
 31
0.0
  0
LINE
  5
130
100
AcDbEntity
  8
0
370
    -3
  6
Continuous
100
AcDbLine
 10
-187.543074
 20
-57.62297
 30
0.0
 11
-170.543074
 21
-57.62297
 31
0.0
  0
LINE
  5
131
100
AcDbEntity
  8
0
370
    -3
  6
Continuous
100
AcDbLine
 10
-187.543074
 20
-2.822558
 30
0.0
 11
-170.543074
 21
-2.822558
 31
0.0
  0
LINE
  5
132
100
AcDbEntity
  8
0
370
    -3
  6
Continuous
100
AcDbLine
 10
-187.543074
 20
-7.322558
 30
0.0
 11
-170.543074
 21
-7.322558
 31
0.0
  0
LINE
  5
133
100
AcDbEntity
  8
0
370
    -3
  6
Continuous
100
AcDbLine
 10
-269.543065
 20
17.103833
 30
0.0
 11
-170.543074
 21
17.103833
 31
0.0
  0
LINE
  5
134
100
AcDbEntity
  8
0
370
    -3
  6
Continuous
100
AcDbLine
 10
-198.778265
 20
-70.655211
 30
0.0
 11
-170.543074
 21
-70.655211
 31
0.0
  0
LINE
  5
135
100
AcDbEntity
  8
0
370
    -3
  6
Continuous
100
AcDbLine
 10
-198.645604
 20
-63.322558
 30
0.0
 11
-170.543074
 21
-63.322558
 31
0.0
  0
LINE
  5
136
100
AcDbEntity
  8
0
370
    -3
  6
Continuous
100
AcDbLine
 10
-198.645604
 20
-62.12297
 30
0.0
 11
-170.543074
 21
-62.12297
 31
0.0
  0
LINE
  5
137
100
AcDbEntity
  8
0
370
    -3
  6
Continuous
100
AcDbLine
 10
-198.645604
 20
-58.822558
 30
0.0
 11
-170.543074
 21
-58.822558
 31
0.0
  0
LINE
  5
138
100
AcDbEntity
  8
0
370
    -3
  6
Continuous
100
AcDbLine
 10
-198.645604
 20
-57.62297
 30
0.0
 11
-179.043074
 21
-57.62297
 31
0.0
  0
LINE
  5
139
100
AcDbEntity
  8
0
370
    -3
  6
Continuous
100
AcDbLine
 10
-198.645604
 20
-54.322558
 30
0.0
 11
-170.543074
 21
-54.322558
 31
0.0
  0
LINE
  5
13A
100
AcDbEntity
  8
0
370
    -3
  6
Continuous
100
AcDbLine
 10
-198.645604
 20
-53.12297
 30
0.0
 11
-187.543074
 21
-53.12297
 31
0.0
  0
LINE
  5
13B
100
AcDbEntity
  8
0
370
    -3
  6
Continuous
100
AcDbLine
 10
-198.645604
 20
-49.836679
 30
0.0
 11
-170.543074
 21
-49.836679
 31
0.0
  0
LINE
  5
13C
100
AcDbEntity
  8
0
370
    -3
  6
Continuous
100
AcDbLine
 10
-198.645604
 20
-48.615924
 30
0.0
 11
-170.543074
 21
-48.615924
 31
0.0
  0
LINE
  5
13D
100
AcDbEntity
  8
0
370
    -3
  6
Continuous
100
AcDbLine
 10
-198.645604
 20
-44.222764
 30
0.0
 11
-170.543074
 21
-44.222764
 31
0.0
  0
LINE
  5
13E
100
AcDbEntity
  8
0
370
    -3
  6
Continuous
100
AcDbLine
 10
-198.645604
 20
-16.222764
 30
0.0
 11
-170.543074
 21
-16.222764
 31
0.0
  0
LINE
  5
13F
100
AcDbEntity
  8
0
370
    -3
  6
Continuous
100
AcDbLine
 10
-198.645604
 20
-11.822558
 30
0.0
 11
-170.543074
 21
-11.822558
 31
0.0
  0
LINE
  5
140
100
AcDbEntity
  8
0
370
    -3
  6
Continuous
100
AcDbLine
 10
-198.645604
 20
-10.608849
 30
0.0
 11
-170.543074
 21
-10.608849
 31
0.0
  0
LINE
  5
141
100
AcDbEntity
  8
0
370
    -3
  6
Continuous
100
AcDbLine
 10
-198.645604
 20
-7.322558
 30
0.0
 11
-187.543074
 21
-7.322558
 31
0.0
  0
LINE
  5
142
100
AcDbEntity
  8
0
370
    -3
  6
Continuous
100
AcDbLine
 10
-198.645604
 20
-6.12297
 30
0.0
 11
-170.543074
 21
-6.12297
 31
0.0
  0
LINE
  5
143
100
AcDbEntity
  8
0
370
    -3
  6
Continuous
100
AcDbLine
 10
-198.645604
 20
-2.822558
 30
0.0
 11
-182.400464
 21
-2.822558
 31
0.0
  0
LINE
  5
144
100
AcDbEntity
  8
0
370
    -3
  6
Continuous
100
AcDbLine
 10
-198.645604
 20
-1.62297
 30
0.0
 11
-170.543074
 21
-1.62297
 31
0.0
  0
LINE
  5
145
100
AcDbEntity
  8
0
370
    -3
  6
Continuous
100
AcDbLine
 10
-198.645604
 20
1.677442
 30
0.0
 11
-170.543074
 21
1.677442
 31
0.0
  0
LINE
  5
146
100
AcDbEntity
  8
0
370
    -3
  6
Continuous
100
AcDbLine
 10
-198.645604
 20
2.87703
 30
0.0
 11
-170.543074
 21
2.87703
 31
0.0
  0
LINE
  5
147
100
AcDbEntity
  8
0
370
    -3
  6
Continuous
100
AcDbLine
 10
-198.778265
 20
10.209683
 30
0.0
 11
-170.543074
 21
10.209683
 31
0.0
  0
LINE
  5
148
100
AcDbEntity
  8
0
370
    -3
  6
Continuous
100
AcDbLine
 10
-170.543074
 20
-30.222764
 30
0.0
 11
-170.543074
 21
22.277236
 31
0.0
  0
LINE
  5
149
100
AcDbEntity
  8
0
370
    -3
  6
Continuous
100
AcDbLine
 10
-170.543074
 20
-30.222764
 30
0.0
 11
-170.543074
 21
-82.722764
 31
0.0
  0
LINE
  5
14A
100
AcDbEntity
  8
0
370
    -3
  6
Continuous
100
AcDbLine
 10
-190.043074
 20
-108.722764
 30
0.0
 11
-190.043074
 21
-93.625719
 31
0.0
  0
LINE
  5
14B
100
AcDbEntity
  8
0
370
    -3
  6
Continuous
100
AcDbLine
 10
-190.043074
 20
-108.722764
 30
0.0
 11
-188.043074
 21
-108.722764
 31
0.0
  0
LINE
  5
14C
100
AcDbEntity
  8
0
370
    -3
  6
Continuous
100
AcDbLine
 10
-188.043074
 20
-109.222764
 30
0.0
 11
-188.043074
 21
-108.722764
 31
0.0
  0
LINE
  5
14D
100
AcDbEntity
  8
0
370
    -3
  6
Continuous
100
AcDbLine
 10
-142.543074
 20
-76.413112
 30
0.0
 11
-158.250374
 21
-89.540696
 31
0.0
  0
LINE
  5
14E
100
AcDbEntity
  8
0
370
    -3
  6
Continuous
100
AcDbLine
 10
-161.108152
 20
-90.271123
 30
0.0
 11
-142.543074
 21
-89.660536
 31
0.0
  0
LINE
  5
14F
100
AcDbEntity
  8
0
370
    -3
  6
Continuous
100
AcDbLine
 10
-187.141688
 20
-91.12734
 30
0.0
 11
-160.075613
 21
-90.237164
 31
0.0
  0
LINE
  5
150
100
AcDbEntity
  8
0
370
    -3
  6
Continuous
100
AcDbLine
 10
-142.543074
 20
-61.933873
 30
0.0
 11
-142.543074
 21
-75.478108
 31
0.0
  0
LINE
  5
151
100
AcDbEntity
  8
0
370
    -3
  6
Continuous
100
AcDbLine
 10
-144.543074
 20
50.777236
 30
0.0
 11
-103.043074
 21
50.052851
 31
0.0
  0
LINE
  5
152
100
AcDbEntity
  8
0
370
    -3
  6
CENTER
100
AcDbLine
 10
-176.543074
 20
-85.249596
 30
0.0
 11
-176.543074
 21
-112.055055
 31
0.0
  0
LINE
  5
153
100
AcDbEntity
  8
0
370
    -3
  6
Continuous
100
AcDbLine
 10
-55.990717
 20
-91.171313
 30
0.0
 11
-142.543074
 21
-89.660536
 31
0.0
  0
LINE
  5
154
100
AcDbEntity
  8
0
370
    -3
  6
Continuous
100
AcDbLine
 10
-53.043074
 20
-108.722764
 30
0.0
 11
-53.043074
 21
-93.670856
 31
0.0
  0
LINE
  5
155
100
AcDbEntity
  8
0
370
    -3
  6
Continuous
100
AcDbLine
 10
-188.043074
 20
-109.222764
 30
0.0
 11
-55.043074
 21
-109.222764
 31
0.0
  0
LINE
  5
156
100
AcDbEntity
  8
0
370
    -3
  6
CENTER
100
AcDbLine
 10
-66.543074
 20
-87.466792
 30
0.0
 11
-66.543074
 21
-112.055055
 31
0.0
  0
LINE
  5
157
100
AcDbEntity
  8
0
370
    -3
  6
Continuous
100
AcDbLine
 10
-55.043074
 20
-90.706754
 30
0.0
 11
-55.043074
 21
-4.222764
 31
0.0
  0
LINE
  5
158
100
AcDbEntity
  8
0
370
    -3
  6
Continuous
100
AcDbLine
 10
-55.043074
 20
26.864039
 30
0.0
 11
-55.043074
 21
-4.222764
 31
0.0
  0
LINE
  5
159
100
AcDbEntity
  8
0
370
    -3
  6
Continuous
100
AcDbLine
 10
-53.043074
 20
-4.222764
 30
0.0
 11
-53.043074
 21
22.277236
 31
0.0
  0
LINE
  5
15A
100
AcDbEntity
  8
0
370
    -3
  6
Continuous
100
AcDbLine
 10
-53.043074
 20
-4.222764
 30
0.0
 11
-53.043074
 21
-30.722764
 31
0.0
  0
LINE
  5
15B
100
AcDbEntity
  8
0
370
    -3
  6
CENTER
100
AcDbLine
 10
0.230926
 20
-4.222764
 30
0.0
 11
-85.295712
 21
-4.222764
 31
0.0
  0
LINE
  5
15C
100
AcDbEntity
  8
0
370
    -3
  6
Continuous
100
AcDbLine
 10
-55.043074
 20
-108.722764
 30
0.0
 11
-53.043074
 21
-108.722764
 31
0.0
  0
LINE
  5
15D
100
AcDbEntity
  8
0
370
    -3
  6
Continuous
100
AcDbLine
 10
-55.043074
 20
-109.222764
 30
0.0
 11
-55.043074
 21
-108.722764
 31
0.0
  0
LINE
  5
15E
100
AcDbEntity
  8
0
370
    -3
  6
Continuous
100
AcDbLine
 10
-144.543074
 20
-4.222764
 30
0.0
 11
-144.543074
 21
50.785964
 31
0.0
  0
LINE
  5
15F
100
AcDbEntity
  8
0
370
    -3
  6
Continuous
100
AcDbLine
 10
-144.543074
 20
-4.222764
 30
0.0
 11
-144.543074
 21
-78.084638
 31
0.0
  0
LINE
  5
160
100
AcDbEntity
  8
0
370
    -3
  6
Continuous
100
AcDbLine
 10
-9.043074
 20
-0.222764
 30
0.0
 11
-41.043074
 21
-0.222764
 31
0.0
  0
LINE
  5
161
100
AcDbEntity
  8
0
370
    -3
  6
Continuous
100
AcDbLine
 10
-9.043074
 20
-8.222764
 30
0.0
 11
-41.043074
 21
-8.222764
 31
0.0
  0
LINE
  5
162
100
AcDbEntity
  8
0
370
    -3
  6
Continuous
100
AcDbLine
 10
-57.290669
 20
-9.222764
 30
0.0
 11
-57.290669
 21
-88.432469
 31
0.0
  0
LINE
  5
163
100
AcDbEntity
  8
0
370
    -3
  6
Continuous
100
AcDbLine
 10
-81.543074
 20
-87.777203
 30
0.0
 11
-81.543074
 21
-9.222764
 31
0.0
  0
LINE
  5
164
100
AcDbEntity
  8
0
370
    -3
  6
Continuous
100
AcDbLine
 10
-9.443074
 20
-18.222764
 30
0.0
 11
-48.483266
 21
-18.222764
 31
0.0
  0
LINE
  5
165
100
AcDbEntity
  8
0
370
    -3
  6
Continuous
100
AcDbLine
 10
-9.043074
 20
-17.822764
 30
0.0
 11
-9.043074
 21
-4.222764
 31
0.0
  0
LINE
  5
166
100
AcDbEntity
  8
0
370
    -3
  6
Continuous
100
AcDbLine
 10
-9.443074
 20
9.777236
 30
0.0
 11
-48.483266
 21
9.777236
 31
0.0
  0
LINE
  5
167
100
AcDbEntity
  8
0
370
    -3
  6
Continuous
100
AcDbLine
 10
-9.043074
 20
9.377236
 30
0.0
 11
-9.043074
 21
-4.222764
 31
0.0
  0
LINE
  5
168
100
AcDbEntity
  8
0
370
    -3
  6
Continuous
100
AcDbLine
 10
-49.043074
 20
9.627236
 30
0.0
 11
-50.643074
 21
9.627236
 31
0.0
  0
LINE
  5
169
100
AcDbEntity
  8
0
370
    -3
  6
Continuous
100
AcDbLine
 10
-48.483266
 20
9.777236
 30
0.0
 11
-49.043074
 21
9.627236
 31
0.0
  0
LINE
  5
16A
100
AcDbEntity
  8
0
370
    -3
  6
Continuous
100
AcDbLine
 10
-51.043074
 20
10.077236
 30
0.0
 11
-51.243074
 21
10.277236
 31
0.0
  0
LINE
  5
16B
100
AcDbEntity
  8
0
370
    -3
  6
Continuous
100
AcDbLine
 10
-51.043074
 20
-4.222764
 30
0.0
 11
-51.043074
 21
10.077236
 31
0.0
  0
LINE
  5
16C
100
AcDbEntity
  8
0
370
    -3
  6
Continuous
100
AcDbLine
 10
-51.243074
 20
10.277236
 30
0.0
 11
-53.043074
 21
10.277236
 31
0.0
  0
LINE
  5
16D
100
AcDbEntity
  8
0
370
    -3
  6
Continuous
100
AcDbLine
 10
-49.043074
 20
-18.072764
 30
0.0
 11
-50.643074
 21
-18.072764
 31
0.0
  0
LINE
  5
16E
100
AcDbEntity
  8
0
370
    -3
  6
Continuous
100
AcDbLine
 10
-48.483266
 20
-18.222764
 30
0.0
 11
-49.043074
 21
-18.072764
 31
0.0
  0
LINE
  5
16F
100
AcDbEntity
  8
0
370
    -3
  6
Continuous
100
AcDbLine
 10
-51.043074
 20
-18.522764
 30
0.0
 11
-51.243074
 21
-18.722764
 31
0.0
  0
LINE
  5
170
100
AcDbEntity
  8
0
370
    -3
  6
Continuous
100
AcDbLine
 10
-51.043074
 20
-4.222764
 30
0.0
 11
-51.043074
 21
-18.522764
 31
0.0
  0
LINE
  5
171
100
AcDbEntity
  8
0
370
    -3
  6
Continuous
100
AcDbLine
 10
-51.243074
 20
-18.722764
 30
0.0
 11
-53.043074
 21
-18.722764
 31
0.0
  0
LINE
  5
172
100
AcDbEntity
  8
0
370
    -3
  6
Continuous
100
AcDbLine
 10
-156.043074
 20
-35.222764
 30
0.0
 11
-156.043074
 21
-87.695915
 31
0.0
  0
LINE
  5
173
100
AcDbEntity
  8
0
370
    -3
  6
Continuous
100
AcDbLine
 10
-156.043074
 20
-21.095747
 30
0.0
 11
-156.043074
 21
-25.222764
 31
0.0
  0
LINE
  5
174
100
AcDbEntity
  8
0
370
    -3
  6
Continuous
100
AcDbLine
 10
-151.043074
 20
41.877235
 30
0.0
 11
-151.043074
 21
37.383223
 31
0.0
  0
LINE
  5
175
100
AcDbEntity
  8
0
370
    -3
  6
Continuous
100
AcDbLine
 10
-156.043074
 20
-1.349781
 30
0.0
 11
-156.043074
 21
35.383223
 31
0.0
  0
LINE
  5
176
100
AcDbEntity
  8
0
370
    -3
  6
Continuous
100
AcDbLine
 10
-155.043074
 20
-37.222764
 30
0.0
 11
-152.043074
 21
-37.222764
 31
0.0
  0
LINE
  5
177
100
AcDbEntity
  8
0
370
    -3
  6
Continuous
100
AcDbLine
 10
-159.043074
 20
-17.222764
 30
0.0
 11
-159.043074
 21
-5.222764
 31
0.0
  0
LINE
  5
178
100
AcDbEntity
  8
0
370
    -3
  6
Continuous
100
AcDbLine
 10
-155.043074
 20
-23.222764
 30
0.0
 11
-152.043074
 21
-23.222764
 31
0.0
  0
LINE
  5
179
100
AcDbEntity
  8
0
370
    -3
  6
Continuous
100
AcDbLine
 10
-151.043074
 20
-36.222764
 30
0.0
 11
-151.043074
 21
-24.222764
 31
0.0
  0
LINE
  5
17A
100
AcDbEntity
  8
0
370
    -3
  6
Continuous
100
AcDbLine
 10
-169.543074
 20
-50.222764
 30
0.0
 11
-156.043074
 21
-50.222764
 31
0.0
  0
LINE
  5
17B
100
AcDbEntity
  8
0
370
    -3
  6
Continuous
100
AcDbLine
 10
-168.543074
 20
-81.222764
 30
0.0
 11
-160.868576
 21
-81.490763
 31
0.0
  0
LINE
  5
17C
100
AcDbEntity
  8
0
370
    -3
  6
Continuous
100
AcDbLine
 10
-151.043074
 20
37.383223
 30
0.0
 11
-151.043074
 21
46.186743
 31
0.0
  0
LINE
  5
17D
100
AcDbEntity
  8
0
370
    -3
  6
Continuous
100
AcDbLine
 10
-155.043074
 20
36.383223
 30
0.0
 11
-152.043074
 21
36.383223
 31
0.0
  0
LINE
  5
17E
100
AcDbEntity
  8
0
370
    -3
  6
Continuous
100
AcDbLine
 10
-155.043074
 20
47.186743
 30
0.0
 11
-152.043074
 21
47.186743
 31
0.0
  0
LINE
  5
17F
100
AcDbEntity
  8
0
370
    -3
  6
Continuous
100
AcDbLine
 10
-168.543074
 20
20.777236
 30
0.0
 11
-160.868576
 21
21.045235
 31
0.0
  0
LINE
  5
180
100
AcDbEntity
  8
0
370
    -3
  6
Continuous
100
AcDbLine
 10
-169.543074
 20
17.435524
 30
0.0
 11
-169.543074
 21
19.777236
 31
0.0
  0
LINE
  5
181
100
AcDbEntity
  8
0
370
    -3
  6
Continuous
100
AcDbLine
 10
-169.543074
 20
-10.222764
 30
0.0
 11
-159.043074
 21
-10.222764
 31
0.0
  0
LINE
  5
182
100
AcDbEntity
  8
0
370
    -3
  6
Continuous
100
AcDbLine
 10
-169.543074
 20
-30.222764
 30
0.0
 11
-169.543074
 21
8.036578
 31
0.0
  0
LINE
  5
183
100
AcDbEntity
  8
0
370
    -3
  6
Continuous
100
AcDbLine
 10
-169.543074
 20
-77.881052
 30
0.0
 11
-169.543074
 21
-80.222764
 31
0.0
  0
LINE
  5
184
100
AcDbEntity
  8
0
370
    -3
  6
Continuous
100
AcDbLine
 10
-169.543074
 20
-30.222764
 30
0.0
 11
-169.543074
 21
-68.482106
 31
0.0
  0
LINE
  5
185
100
AcDbEntity
  8
0
370
    -3
  6
Continuous
100
AcDbLine
 10
-170.543074
 20
22.329644
 30
0.0
 11
-170.543074
 21
-30.222764
 31
0.0
  0
LINE
  5
186
100
AcDbEntity
  8
0
370
    -3
  6
Continuous
100
AcDbLine
 10
-145.043074
 20
-30.222764
 30
0.0
 11
-145.043074
 21
50.777236
 31
0.0
  0
LINE
  5
187
100
AcDbEntity
  8
0
370
    -3
  6
Continuous
100
AcDbLine
 10
-170.543074
 20
-82.775172
 30
0.0
 11
-170.543074
 21
-30.222764
 31
0.0
  0
LINE
  5
188
100
AcDbEntity
  8
0
370
    -3
  6
Continuous
100
AcDbLine
 10
-145.043074
 20
-30.222764
 30
0.0
 11
-145.043074
 21
-78.50252
 31
0.0
  0
LINE
  5
189
100
AcDbEntity
  8
0
370
    -3
  6
Continuous
100
AcDbLine
 10
-160.781394
 20
-83.28676
 30
0.0
 11
-170.543074
 21
-82.775172
 31
0.0
  0
LINE
  5
18A
100
AcDbEntity
  8
0
370
    -3
  6
Continuous
100
AcDbLine
 10
-160.781394
 20
22.841232
 30
0.0
 11
-170.543074
 21
22.329644
 31
0.0
  0
LINE
  5
18B
100
AcDbEntity
  8
0
370
    -3
  6
Continuous
100
AcDbLine
 10
-145.043074
 20
50.777236
 30
0.0
 11
-154.043072
 21
50.777236
 31
0.0
  0
ARC
  5
18C
100
AcDbEntity
  8
0
370
    -3
  6
Continuous
100
AcDbCircle
 10
-187.043074
 20
-94.125719
 30
0.0
 40
3.0
100
AcDbArc
 50
91.883723
 51
180.0
  0
ARC
  5
18D
100
AcDbEntity
  8
0
370
    -3
  6
Continuous
100
AcDbCircle
 10
-144.543074
 20
-75.478108
 30
0.0
 40
2.0
100
AcDbArc
 50
309.887635
 51
0.0
  0
ARC
  5
18E
100
AcDbEntity
  8
0
370
    -3
  6
Continuous
100
AcDbCircle
 10
-144.543074
 20
-61.933873
 30
0.0
 40
2.0
100
AcDbArc
 50
0.0
 51
90.0
  0
ARC
  5
18F
100
AcDbEntity
  8
0
370
    -3
  6
Continuous
100
AcDbCircle
 10
-54.043074
 20
-90.706754
 30
0.0
 40
1.0
100
AcDbArc
 50
180.0
 51
240.0
  0
ARC
  5
190
100
AcDbEntity
  8
0
370
    -3
  6
Continuous
100
AcDbCircle
 10
-56.043074
 20
-94.170856
 30
0.0
 40
3.0
100
AcDbArc
 50
0.0
 51
89.0
  0
ARC
  5
191
100
AcDbEntity
  8
0
370
    -3
  6
Continuous
100
AcDbCircle
 10
-57.043074
 20
26.864039
 30
0.0
 40
2.0
100
AcDbArc
 50
0.0
 51
41.568311
  0
ARC
  5
192
100
AcDbEntity
  8
0
370
    -3
  6
Continuous
100
AcDbCircle
 10
-104.17748
 20
-14.937249
 30
0.0
 40
65.0
100
AcDbArc
 50
41.568311
 51
89.0
  0
ARC
  5
193
100
AcDbEntity
  8
0
370
    -3
  6
Continuous
100
AcDbCircle
 10
-54.043074
 20
24.277236
 30
0.0
 40
1.0
100
AcDbArc
 50
180.0
 51
270.0
  0
ARC
  5
194
100
AcDbEntity
  8
0
370
    -3
  6
Continuous
100
AcDbCircle
 10
-54.043074
 20
-32.722764
 30
0.0
 40
1.0
100
AcDbArc
 50
90.0
 51
180.0
  0
ARC
  5
195
100
AcDbEntity
  8
0
370
    -3
  6
Continuous
100
AcDbCircle
 10
-54.043074
 20
22.277236
 30
0.0
 40
1.0
100
AcDbArc
 50
0.0
 51
90.0
  0
ARC
  5
196
100
AcDbEntity
  8
0
370
    -3
  6
Continuous
100
AcDbCircle
 10
-54.043074
 20
-30.722764
 30
0.0
 40
1.0
100
AcDbArc
 50
270.0
 51
0.0
  0
ARC
  5
197
100
AcDbEntity
  8
0
370
    -3
  6
Continuous
100
AcDbCircle
 10
-160.174227
 20
-87.238785
 30
0.0
 40
3.0
100
AcDbArc
 50
271.883723
 51
309.887635
  0
ARC
  5
198
100
AcDbEntity
  8
0
370
    -3
  6
Continuous
100
AcDbCircle
 10
-41.043074
 20
-4.222764
 30
0.0
 40
4.0
100
AcDbArc
 50
90.0
 51
270.0
  0
ARC
  5
199
100
AcDbEntity
  8
0
370
    -3
  6
Continuous
100
AcDbCircle
 10
-54.290669
 20
-88.432469
 30
0.0
 40
3.0
100
AcDbArc
 50
180.0
 51
253.018232
  0
ARC
  5
19A
100
AcDbEntity
  8
0
370
    -3
  6
Continuous
100
AcDbCircle
 10
-78.543074
 20
-87.777203
 30
0.0
 40
3.0
100
AcDbArc
 50
180.0
 51
269.0
  0
ARC
  5
19B
100
AcDbEntity
  8
0
370
    -3
  6
Continuous
100
AcDbCircle
 10
-9.443074
 20
-17.822764
 30
0.0
 40
0.4
100
AcDbArc
 50
270.0
 51
0.0
  0
ARC
  5
19C
100
AcDbEntity
  8
0
370
    -3
  6
Continuous
100
AcDbCircle
 10
-9.443074
 20
9.377236
 30
0.0
 40
0.4
100
AcDbArc
 50
0.0
 51
90.0
  0
ARC
  5
19D
100
AcDbEntity
  8
0
370
    -3
  6
Continuous
100
AcDbCircle
 10
-50.643074
 20
10.027236
 30
0.0
 40
0.4
100
AcDbArc
 50
180.0
 51
270.0
  0
ARC
  5
19E
100
AcDbEntity
  8
0
370
    -3
  6
Continuous
100
AcDbCircle
 10
-50.643074
 20
-18.472764
 30
0.0
 40
0.4
100
AcDbArc
 50
90.0
 51
180.0
  0
ARC
  5
19F
100
AcDbEntity
  8
0
370
    -3
  6
Continuous
100
AcDbCircle
 10
-155.043074
 20
-38.222764
 30
0.0
 40
1.0
100
AcDbArc
 50
90.0
 51
180.0
  0
ARC
  5
1A0
100
AcDbEntity
  8
0
370
    -3
  6
Continuous
100
AcDbCircle
 10
-152.043074
 20
-36.222764
 30
0.0
 40
1.0
100
AcDbArc
 50
270.0
 51
0.0
  0
ARC
  5
1A1
100
AcDbEntity
  8
0
370
    -3
  6
Continuous
100
AcDbCircle
 10
-157.043074
 20
-5.222764
 30
0.0
 40
2.0
100
AcDbArc
 50
104.477512
 51
180.0
  0
ARC
  5
1A2
100
AcDbEntity
  8
0
370
    -3
  6
Continuous
100
AcDbCircle
 10
-158.043074
 20
-1.349781
 30
0.0
 40
2.0
100
AcDbArc
 50
284.477512
 51
360.0
  0
ARC
  5
1A3
100
AcDbEntity
  8
0
370
    -3
  6
Continuous
100
AcDbCircle
 10
-157.043074
 20
-17.222764
 30
0.0
 40
2.0
100
AcDbArc
 50
180.0
 51
255.522488
  0
ARC
  5
1A4
100
AcDbEntity
  8
0
370
    -3
  6
Continuous
100
AcDbCircle
 10
-158.043074
 20
-21.095747
 30
0.0
 40
2.0
100
AcDbArc
 50
0.0
 51
75.522488
  0
ARC
  5
1A5
100
AcDbEntity
  8
0
370
    -3
  6
Continuous
100
AcDbCircle
 10
-155.043074
 20
-22.222764
 30
0.0
 40
1.0
100
AcDbArc
 50
180.0
 51
270.0
  0
ARC
  5
1A6
100
AcDbEntity
  8
0
370
    -3
  6
Continuous
100
AcDbCircle
 10
-152.043074
 20
-24.222764
 30
0.0
 40
1.0
100
AcDbArc
 50
0.0
 51
90.0
  0
ARC
  5
1A7
100
AcDbEntity
  8
0
370
    -3
  6
Continuous
100
AcDbCircle
 10
-161.043074
 20
-86.487718
 30
0.0
 40
5.0
100
AcDbArc
 50
0.0
 51
88.0
  0
ARC
  5
1A8
100
AcDbEntity
  8
0
370
    -3
  6
Continuous
100
AcDbCircle
 10
-161.043074
 20
26.042189
 30
0.0
 40
5.0
100
AcDbArc
 50
272.0
 51
0.0
  0
ARC
  5
1A9
100
AcDbEntity
  8
0
370
    -3
  6
Continuous
100
AcDbCircle
 10
-155.043074
 20
35.383223
 30
0.0
 40
1.0
100
AcDbArc
 50
90.0
 51
180.0
  0
ARC
  5
1AA
100
AcDbEntity
  8
0
370
    -3
  6
Continuous
100
AcDbCircle
 10
-152.043074
 20
37.383223
 30
0.0
 40
1.0
100
AcDbArc
 50
270.0
 51
0.0
  0
ARC
  5
1AB
100
AcDbEntity
  8
0
370
    -3
  6
Continuous
100
AcDbCircle
 10
-155.043074
 20
48.186743
 30
0.0
 40
1.0
100
AcDbArc
 50
180.0
 51
270.0
  0
ARC
  5
1AC
100
AcDbEntity
  8
0
370
    -3
  6
Continuous
100
AcDbCircle
 10
-152.043074
 20
46.186743
 30
0.0
 40
1.0
100
AcDbArc
 50
0.0
 51
90.0
  0
ARC
  5
1AD
100
AcDbEntity
  8
0
370
    -3
  6
Continuous
100
AcDbCircle
 10
-170.543074
 20
17.435524
 30
0.0
 40
1.0
100
AcDbArc
 50
270.0
 51
0.0
  0
ARC
  5
1AE
100
AcDbEntity
  8
0
370
    -3
  6
Continuous
100
AcDbCircle
 10
-168.543074
 20
19.777236
 30
0.0
 40
1.0
100
AcDbArc
 50
90.0
 51
180.0
  0
ARC
  5
1AF
100
AcDbEntity
  8
0
370
    -3
  6
Continuous
100
AcDbCircle
 10
-170.543074
 20
8.036578
 30
0.0
 40
1.0
100
AcDbArc
 50
0.0
 51
90.0
  0
ARC
  5
1B0
100
AcDbEntity
  8
0
370
    -3
  6
Continuous
100
AcDbCircle
 10
-170.543074
 20
-77.881052
 30
0.0
 40
1.0
100
AcDbArc
 50
0.0
 51
90.0
  0
ARC
  5
1B1
100
AcDbEntity
  8
0
370
    -3
  6
Continuous
100
AcDbCircle
 10
-168.543074
 20
-80.222764
 30
0.0
 40
1.0
100
AcDbArc
 50
180.0
 51
270.0
  0
ARC
  5
1B2
100
AcDbEntity
  8
0
370
    -3
  6
Continuous
100
AcDbCircle
 10
-170.543074
 20
-68.482106
 30
0.0
 40
1.0
100
AcDbArc
 50
270.0
 51
0.0
  0
ARC
  5
1B3
100
AcDbEntity
  8
0
370
    -3
  6
Continuous
100
AcDbCircle
 10
-161.043074
 20
-88.279907
 30
0.0
 40
5.0
100
AcDbArc
 50
0.0
 51
87.0
  0
ARC
  5
1B4
100
AcDbEntity
  8
0
370
    -3
  6
Continuous
100
AcDbCircle
 10
-161.043074
 20
27.834379
 30
0.0
 40
5.0
100
AcDbArc
 50
273.0
 51
360.0
  0
ARC
  5
1B5
100
AcDbEntity
  8
0
370
    -3
  6
Continuous
100
AcDbCircle
 10
-154.043074
 20
48.777236
 30
0.0
 40
2.0
100
AcDbArc
 50
90.0
 51
180.0
  0
ELLIPSE
  5
1B6
100
AcDbEntity
  8
0
370
    -3
  6
Continuous
100
AcDbEllipse
 10
-69.416872
 20
-9.222764
 30
0.0
 11
0.0
 21
15.0
 31
0.0
210
0.0
220
0.0
230
1.0
 40
0.808413
 41
4.7123889803846897
 42
1.5707963267948968
  0
LINE
  5
1B7
100
AcDbEntity
  8
0
370
    -3
  6
CENTER
100
AcDbLine
 10
-141.845287
 20
-30.222764
 30
0.0
 11
-350.330982
 21
-30.222764
 31
0.0
  0
LINE
  5
1B8
100
AcDbEntity
  8
0
370
    -3
  6
Continuous
100
AcDbLine
 10
-170.543074
 20
-30.222764
 30
0.0
 11
-170.543074
 21
-82.722764
 31
0.0
  0
LINE
  5
1B9
100
AcDbEntity
  8
0
370
    -3
  6
Continuous
100
AcDbLine
 10
-170.543074
 20
-30.222764
 30
0.0
 11
-170.543074
 21
22.277236
 31
0.0
  0
LINE
  5
1BA
100
AcDbEntity
  8
0
370
    -3
  6
Continuous
100
AcDbLine
 10
-156.043074
 20
30.777236
 30
0.0
 11
-157.043074
 21
30.777236
 31
0.0
  0
LINE
  5
1BB
100
AcDbEntity
  8
0
370
    -3
  6
Continuous
100
AcDbLine
 10
-151.043074
 20
40.777236
 30
0.0
 11
-157.043074
 21
40.777236
 31
0.0
  0
LINE
  5
1BC
100
AcDbEntity
  8
0
370
    -3
  6
Continuous
100
AcDbLine
 10
-157.043074
 20
30.777236
 30
0.0
 11
-157.043074
 21
40.777236
 31
0.0
  0
LINE
  5
1BD
100
AcDbEntity
  8
0
370
    -3
  6
Continuous
100
AcDbLine
 10
-156.043074
 20
40.777236
 30
0.0
 11
-156.043074
 21
48.777236
 31
0.0
  0
INSERT
  5
1C6
100
AcDbEntity
  8
0
100
AcDbBlockReference
  2
ZU_SYM__USERS_HOME_SYMBOL_POO_SYM_B20_-1
 10
-151.043074
 20
-30.222764
 30
0.0
  0
LINE
  5
1C7
100
AcDbEntity
  8
0
370
    -3
  6
Continuous
100
AcDbLine
 10
-187.543074
 20
259.533582
 30
0.0
 11
-170.543074
 21
259.533582
 31
0.0
  0
LINE
  5
1C8
100
AcDbEntity
  8
0
370
    -3
  6
Continuous
100
AcDbLine
 10
-170.543074
 20
290.133377
 30
0.0
 11
-170.543074
 21
236.633377
 31
0.0
  0
LINE
  5
1C9
100
AcDbEntity
  8
0
370
    -3
  6
Continuous
100
AcDbLine
 10
-170.543074
 20
183.133377
 30
0.0
 11
-170.543074
 21
236.633377
 31
0.0
  0
LINE
  5
1CA
100
AcDbEntity
  8
0
370
    -3
  6
Continuous
100
AcDbLine
 10
-187.543074
 20
209.233171
 30
0.0
 11
-170.543074
 21
209.233171
 31
0.0
  0
LINE
  5
1CB
100
AcDbEntity
  8
0
370
    -3
  6
Continuous
100
AcDbLine
 10
-187.543074
 20
213.733171
 30
0.0
 11
-170.543074
 21
213.733171
 31
0.0
  0
LINE
  5
1CC
100
AcDbEntity
  8
0
370
    -3
  6
Continuous
100
AcDbLine
 10
-187.543074
 20
264.033582
 30
0.0
 11
-170.543074
 21
264.033582
 31
0.0
  0
LINE
  5
1CD
100
AcDbEntity
  8
0
370
    -3
  6
Continuous
100
AcDbLine
 10
-170.543074
 20
183.133377
 30
0.0
 11
-216.749595
 21
183.133377
 31
0.0
  0
ELLIPSE
  5
1CE
100
AcDbEntity
  8
0
370
    -3
  6
Continuous
100
AcDbEllipse
 10
-280.543065
 20
283.960655
 30
0.0
 11
-4.6999999999999886
 21
0.0
 31
0.0
210
0.0
220
0.0
230
1.0
 40
0.766646
 41
0.0
 42
6.2831853071795862
  0
LINE
  5
1CF
100
AcDbEntity
  8
0
370
    -3
  6
Continuous
100
AcDbLine
 10
-282.543065
 20
286.953031
 30
0.0
 11
-280.543065
 21
285.777245
 31
0.0
  0
LINE
  5
1D0
100
AcDbEntity
  8
0
370
    -3
  6
Continuous
100
AcDbLine
 10
-280.543065
 20
285.777245
 30
0.0
 11
-278.543065
 21
284.124604
 31
0.0
  0
LINE
  5
1D1
100
AcDbEntity
  8
0
370
    -3
  6
Continuous
100
AcDbLine
 10
-278.543065
 20
286.953031
 30
0.0
 11
-280.543065
 21
285.777245
 31
0.0
  0
LINE
  5
1D2
100
AcDbEntity
  8
0
370
    -3
  6
Continuous
100
AcDbLine
 10
-280.543065
 20
285.777245
 30
0.0
 11
-282.543065
 21
284.124604
 31
0.0
  0
ELLIPSE
  5
1D3
100
AcDbEntity
  8
0
370
    -3
  6
Continuous
100
AcDbEllipse
 10
-280.543065
 20
189.305993
 30
0.0
 11
-4.6999999999999886
 21
0.0
 31
0.0
210
0.0
220
0.0
230
1.0
 40
0.766646
 41
0.0
 42
6.2831853071795862
  0
LINE
  5
1D4
100
AcDbEntity
  8
0
370
    -3
  6
Continuous
100
AcDbLine
 10
-282.543065
 20
186.313618
 30
0.0
 11
-280.543065
 21
187.489403
 31
0.0
  0
LINE
  5
1D5
100
AcDbEntity
  8
0
370
    -3
  6
Continuous
100
AcDbLine
 10
-280.543065
 20
187.489403
 30
0.0
 11
-278.543065
 21
189.142045
 31
0.0
  0
LINE
  5
1D6
100
AcDbEntity
  8
0
370
    -3
  6
Continuous
100
AcDbLine
 10
-278.543065
 20
186.313618
 30
0.0
 11
-280.543065
 21
187.489403
 31
0.0
  0
LINE
  5
1D7
100
AcDbEntity
  8
0
370
    -3
  6
Continuous
100
AcDbLine
 10
-280.543065
 20
187.489403
 30
0.0
 11
-282.543065
 21
189.142045
 31
0.0
  0
LINE
  5
1D8
100
AcDbEntity
  8
0
370
    -3
  6
Continuous
100
AcDbLine
 10
-269.543065
 20
295.633324
 30
0.0
 11
-325.04791
 21
295.633324
 31
0.0
  0
ARC
  5
1D9
100
AcDbEntity
  8
0
370
    -3
  6
Continuous
100
AcDbCircle
 10
-325.04791
 20
275.033324
 30
0.0
 40
20.6
100
AcDbArc
 50
90.0
 51
125.0
  0
LINE
  5
1DA
100
AcDbEntity
  8
0
370
    -3
  6
Continuous
100
AcDbLine
 10
-336.863585
 20
291.907857
 30
0.0
 11
-344.434364
 21
286.60674
 31
0.0
  0
ARC
  5
1DB
100
AcDbEntity
  8
0
370
    -3
  6
Continuous
100
AcDbCircle
 10
-342.943065
 20
284.476945
 30
0.0
 40
2.6
100
AcDbArc
 50
125.0
 51
180.0
  0
LINE
  5
1DC
100
AcDbEntity
  8
0
370
    -3
  6
Continuous
100
AcDbLine
 10
-345.543065
 20
284.476945
 30
0.0
 11
-345.543065
 21
236.633324
 31
0.0
  0
LINE
  5
1DD
100
AcDbEntity
  8
0
370
    -3
  6
Continuous
100
AcDbLine
 10
-345.543065
 20
188.789704
 30
0.0
 11
-345.543065
 21
236.633324
 31
0.0
  0
ARC
  5
1DE
100
AcDbEntity
  8
0
370
    -3
  6
Continuous
100
AcDbCircle
 10
-342.943065
 20
188.789704
 30
0.0
 40
2.6
100
AcDbArc
 50
180.0
 51
235.0
  0
LINE
  5
1DF
100
AcDbEntity
  8
0
370
    -3
  6
Continuous
100
AcDbLine
 10
-336.863585
 20
181.358792
 30
0.0
 11
-344.434364
 21
186.659909
 31
0.0
  0
ARC
  5
1E0
100
AcDbEntity
  8
0
370
    -3
  6
Continuous
100
AcDbCircle
 10
-325.04791
 20
198.233324
 30
0.0
 40
20.6
100
AcDbArc
 50
235.0
 51
270.0
  0
LINE
  5
1E1
100
AcDbEntity
  8
0
370
    -3
  6
Continuous
100
AcDbLine
 10
-279.543065
 20
177.633324
 30
0.0
 11
-325.04791
 21
177.633324
 31
0.0
  0
LINE
  5
1E2
100
AcDbEntity
  8
0
370
    -3
  6
Continuous
100
AcDbLine
 10
-279.543065
 20
177.633324
 30
0.0
 11
-279.543065
 21
179.293628
 31
0.0
  0
ARC
  5
1E3
100
AcDbEntity
  8
0
370
    -3
  6
Continuous
100
AcDbCircle
 10
-276.543065
 20
179.293628
 30
0.0
 40
3.0
100
AcDbArc
 50
90.0
 51
180.0
  0
LINE
  5
1E4
100
AcDbEntity
  8
0
370
    -3
  6
Continuous
100
AcDbLine
 10
-276.543065
 20
182.293628
 30
0.0
 11
-272.543065
 21
182.293628
 31
0.0
  0
ARC
  5
1E5
100
AcDbEntity
  8
0
370
    -3
  6
Continuous
100
AcDbCircle
 10
-272.543065
 20
185.293628
 30
0.0
 40
3.0
100
AcDbArc
 50
270.0
 51
0.0
  0
LINE
  5
1E6
100
AcDbEntity
  8
0
370
    -3
  6
Continuous
100
AcDbLine
 10
-269.543065
 20
185.293628
 30
0.0
 11
-269.543065
 21
236.633324
 31
0.0
  0
LINE
  5
1E7
100
AcDbEntity
  8
0
370
    -3
  6
Continuous
100
AcDbLine
 10
-269.543065
 20
295.633324
 30
0.0
 11
-269.543065
 21
236.633324
 31
0.0
  0
LINE
  5
1E8
100
AcDbEntity
  8
0
370
    -3
  6
Continuous
100
AcDbLine
 10
-269.543065
 20
185.633377
 30
0.0
 11
-170.543074
 21
185.633377
 31
0.0
  0
LINE
  5
1E9
100
AcDbEntity
  8
0
370
    -3
  6
Continuous
100
AcDbLine
 10
-269.543065
 20
268.533582
 30
0.0
 11
-170.543074
 21
268.533582
 31
0.0
  0
LINE
  5
1EA
100
AcDbEntity
  8
0
370
    -3
  6
Continuous
100
AcDbLine
 10
-269.543065
 20
269.733171
 30
0.0
 11
-170.543074
 21
269.733171
 31
0.0
  0
LINE
  5
1EB
100
AcDbEntity
  8
0
370
    -3
  6
Continuous
100
AcDbLine
 10
-269.543065
 20
287.133377
 30
0.0
 11
-170.543074
 21
287.133377
 31
0.0
  0
LINE
  5
1EC
100
AcDbEntity
  8
0
370
    -3
  6
Continuous
100
AcDbLine
 10
-269.543065
 20
287.633377
 30
0.0
 11
-170.543074
 21
287.633377
 31
0.0
  0
LINE
  5
1ED
100
AcDbEntity
  8
0
370
    -3
  6
Continuous
100
AcDbLine
 10
-269.543065
 20
204.733171
 30
0.0
 11
-170.543074
 21
204.733171
 31
0.0
  0
LINE
  5
1EE
100
AcDbEntity
  8
0
370
    -3
  6
Continuous
100
AcDbLine
 10
-269.543065
 20
203.533582
 30
0.0
 11
-170.543074
 21
203.533582
 31
0.0
  0
LINE
  5
1EF
100
AcDbEntity
  8
0
370
    -3
  6
Continuous
100
AcDbLine
 10
-269.543065
 20
186.133377
 30
0.0
 11
-170.543074
 21
186.133377
 31
0.0
  0
LINE
  5
1F0
100
AcDbEntity
  8
0
370
    -3
  6
Continuous
100
AcDbLine
 10
-269.543065
 20
189.30678
 30
0.0
 11
-170.543074
 21
189.30678
 31
0.0
  0
LINE
  5
1F1
100
AcDbEntity
  8
0
370
    -3
  6
Continuous
100
AcDbLine
 10
-269.543065
 20
196.200929
 30
0.0
 11
-170.543074
 21
196.200929
 31
0.0
  0
LINE
  5
1F2
100
AcDbEntity
  8
0
370
    -3
  6
Continuous
100
AcDbLine
 10
-269.543065
 20
213.733171
 30
0.0
 11
-187.543074
 21
213.733171
 31
0.0
  0
LINE
  5
1F3
100
AcDbEntity
  8
0
370
    -3
  6
Continuous
100
AcDbLine
 10
-269.543065
 20
212.533582
 30
0.0
 11
-170.543074
 21
212.533582
 31
0.0
  0
LINE
  5
1F4
100
AcDbEntity
  8
0
370
    -3
  6
Continuous
100
AcDbLine
 10
-269.543065
 20
209.233171
 30
0.0
 11
-182.400464
 21
209.233171
 31
0.0
  0
LINE
  5
1F5
100
AcDbEntity
  8
0
370
    -3
  6
Continuous
100
AcDbLine
 10
-269.543065
 20
208.033582
 30
0.0
 11
-170.543074
 21
208.033582
 31
0.0
  0
LINE
  5
1F6
100
AcDbEntity
  8
0
370
    -3
  6
Continuous
100
AcDbLine
 10
-269.543065
 20
259.533582
 30
0.0
 11
-187.543074
 21
259.533582
 31
0.0
  0
LINE
  5
1F7
100
AcDbEntity
  8
0
370
    -3
  6
Continuous
100
AcDbLine
 10
-269.543065
 20
260.733171
 30
0.0
 11
-170.543074
 21
260.733171
 31
0.0
  0
LINE
  5
1F8
100
AcDbEntity
  8
0
370
    -3
  6
Continuous
100
AcDbLine
 10
-269.543065
 20
264.033582
 30
0.0
 11
-179.043074
 21
264.033582
 31
0.0
  0
LINE
  5
1F9
100
AcDbEntity
  8
0
370
    -3
  6
Continuous
100
AcDbLine
 10
-269.543065
 20
265.233171
 30
0.0
 11
-170.543074
 21
265.233171
 31
0.0
  0
LINE
  5
1FA
100
AcDbEntity
  8
0
370
    -3
  6
Continuous
100
AcDbLine
 10
-269.543065
 20
218.233171
 30
0.0
 11
-170.543074
 21
218.233171
 31
0.0
  0
LINE
  5
1FB
100
AcDbEntity
  8
0
370
    -3
  6
Continuous
100
AcDbLine
 10
-269.543065
 20
217.019462
 30
0.0
 11
-170.543074
 21
217.019462
 31
0.0
  0
LINE
  5
1FC
100
AcDbEntity
  8
0
370
    -3
  6
Continuous
100
AcDbLine
 10
-170.543074
 20
290.133377
 30
0.0
 11
-269.543065
 21
290.133377
 31
0.0
  0
LINE
  5
1FD
100
AcDbEntity
  8
0
370
    -3
  6
Continuous
100
AcDbLine
 10
-269.543065
 20
277.065824
 30
0.0
 11
-170.543074
 21
277.065824
 31
0.0
  0
LINE
  5
1FE
100
AcDbEntity
  8
0
370
    -3
  6
Continuous
100
AcDbLine
 10
-269.543065
 20
283.959973
 30
0.0
 11
-170.543074
 21
283.959973
 31
0.0
  0
LINE
  5
1FF
100
AcDbEntity
  8
0
370
    -3
  6
Continuous
100
AcDbLine
 10
-269.543065
 20
255.026537
 30
0.0
 11
-170.543074
 21
255.026537
 31
0.0
  0
LINE
  5
200
100
AcDbEntity
  8
0
370
    -3
  6
Continuous
100
AcDbLine
 10
-269.543065
 20
250.633377
 30
0.0
 11
-170.543074
 21
250.633377
 31
0.0
  0
LINE
  5
201
100
AcDbEntity
  8
0
370
    -3
  6
Continuous
100
AcDbLine
 10
-269.543065
 20
256.247291
 30
0.0
 11
-170.543074
 21
256.247291
 31
0.0
  0
LINE
  5
202
100
AcDbEntity
  8
0
370
    -3
  6
Continuous
100
AcDbLine
 10
-269.543065
 20
222.633377
 30
0.0
 11
-170.543074
 21
222.633377
 31
0.0
  0
LINE
  5
203
100
AcDbEntity
  8
0
370
    -3
  6
Continuous
100
AcDbLine
 10
-224.374595
 20
183.133377
 30
0.0
 11
-262.711535
 21
183.133377
 31
0.0
  0
ARC
  5
204
100
AcDbEntity
  8
0
370
    -3
  6
Continuous
100
AcDbCircle
 10
-494.630371
 20
-14.495913
 30
0.0
 40
65.0
100
AcDbArc
 50
28.55802
 51
87.841597
  0
LINE
  5
205
100
AcDbEntity
  8
0
370
    -3
  6
Continuous
100
AcDbLine
 10
-429.630371
 20
-77.022764
 30
0.0
 11
-429.630371
 21
-89.026612
 31
0.0
  0
ARC
  5
206
100
AcDbEntity
  8
0
370
    -3
  6
Continuous
100
AcDbCircle
 10
-509.130371
 20
-30.222764
 30
0.0
 40
83.0
100
AcDbArc
 50
309.571895
 51
326.103524
  0
ARC
  5
207
100
AcDbEntity
  8
0
370
    -3
  6
Continuous
100
AcDbCircle
 10
-509.130371
 20
-30.222764
 30
0.0
 40
86.0
100
AcDbArc
 50
310.245754
 51
327.030942
  0
LINE
  5
208
100
AcDbEntity
  8
0
370
    -3
  6
Continuous
100
AcDbLine
 10
-460.224878
 20
-76.29983
 30
0.0
 11
-453.609556
 21
-82.915152
 31
0.0
  0
LINE
  5
209
100
AcDbEntity
  8
0
370
    -3
  6
Continuous
100
AcDbLine
 10
-463.053306
 20
-79.128257
 30
0.0
 11
-456.437983
 21
-85.743579
 31
0.0
  0
LINE
  5
20A
100
AcDbEntity
  8
0
370
    -3
  6
Continuous
100
AcDbLine
 10
-555.207437
 20
-79.128257
 30
0.0
 11
-561.822759
 21
-85.743579
 31
0.0
  0
LINE
  5
20B
100
AcDbEntity
  8
0
370
    -3
  6
Continuous
100
AcDbLine
 10
-558.035864
 20
-76.29983
 30
0.0
 11
-564.651187
 21
-82.915152
 31
0.0
  0
LINE
  5
20C
100
AcDbEntity
  8
0
370
    -3
  6
Continuous
100
AcDbLine
 10
-555.207437
 20
18.682729
 30
0.0
 11
-561.822759
 21
25.298051
 31
0.0
  0
LINE
  5
20D
100
AcDbEntity
  8
0
370
    -3
  6
Continuous
100
AcDbLine
 10
-558.035864
 20
15.854302
 30
0.0
 11
-564.651187
 21
22.469624
 31
0.0
  0
LINE
  5
20E
100
AcDbEntity
  8
0
370
    -3
  6
Continuous
100
AcDbLine
 10
-460.224878
 20
15.854302
 30
0.0
 11
-453.609556
 21
22.469624
 31
0.0
  0
LINE
  5
20F
100
AcDbEntity
  8
0
370
    -3
  6
Continuous
100
AcDbLine
 10
-463.053306
 20
18.682729
 30
0.0
 11
-456.437983
 21
25.298051
 31
0.0
  0
LINE
  5
210
100
AcDbEntity
  8
0
370
    -3
  6
CENTER
100
AcDbLine
 10
-509.130371
 20
56.546035
 30
0.0
 11
-509.130371
 21
-114.340558
 31
0.0
  0
ARC
  5
211
100
AcDbEntity
  8
0
370
    -3
  6
Continuous
100
AcDbCircle
 10
-509.130371
 20
-30.222764
 30
0.0
 40
39.0
100
AcDbArc
 50
275.284733
 51
324.715267
  0
ARC
  5
212
100
AcDbEntity
  8
0
370
    -3
  6
Continuous
100
AcDbCircle
 10
-850.730371
 20
-30.222764
 30
0.0
 40
400.6
100
AcDbArc
 50
357.470639
 51
0.0
  0
ARC
  5
213
100
AcDbEntity
  8
0
370
    -3
  6
Continuous
100
AcDbCircle
 10
-850.730371
 20
-30.222764
 30
0.0
 40
400.6
100
AcDbArc
 50
360.0
 51
2.529361
  0
ARC
  5
214
100
AcDbEntity
  8
0
370
    -3
  6
Continuous
100
AcDbCircle
 10
-850.730371
 20
-30.222764
 30
0.0
 40
390.797
100
AcDbArc
 50
360.0
 51
2.529361
  0
LINE
  5
215
100
AcDbEntity
  8
0
370
    -3
  6
Continuous
100
AcDbLine
 10
-548.956193
 20
-67.891603
 30
0.0
 11
-546.777447
 21
-70.070349
 31
0.0
  0
ARC
  5
216
100
AcDbEntity
  8
0
370
    -3
  6
Continuous
100
AcDbCircle
 10
-539.142815
 20
-62.435717
 30
0.0
 40
10.797
100
AcDbArc
 50
225.0
 51
265.470055
  0
ARC
  5
217
100
AcDbEntity
  8
0
370
    -3
  6
Continuous
100
AcDbCircle
 10
-509.130371
 20
316.377236
 30
0.0
 40
390.797
100
AcDbArc
 50
265.470807
 51
270.0
  0
ARC
  5
218
100
AcDbEntity
  8
0
370
    -3
  6
Continuous
100
AcDbCircle
 10
-512.630371
 20
-65.047324
 30
0.0
 40
1.0
100
AcDbArc
 50
0.0
 51
84.26083
  0
ARC
  5
219
100
AcDbEntity
  8
0
370
    -3
  6
Continuous
100
AcDbCircle
 10
-512.630371
 20
-68.061237
 30
0.0
 40
1.0
100
AcDbArc
 50
264.715267
 51
360.0
  0
ARC
  5
21A
100
AcDbEntity
  8
0
370
    -3
  6
Continuous
100
AcDbCircle
 10
-512.630371
 20
-59.514401
 30
0.0
 40
1.0
100
AcDbArc
 50
263.186146
 51
0.0
  0
LINE
  5
21B
100
AcDbEntity
  8
0
370
    -3
  6
Continuous
100
AcDbLine
 10
-511.630371
 20
-68.061237
 30
0.0
 11
-511.630371
 21
-65.047324
 31
0.0
  0
ARC
  5
21C
100
AcDbEntity
  8
0
370
    -3
  6
Continuous
100
AcDbCircle
 10
-527.179425
 20
-46.114835
 30
0.0
 40
30.797
100
AcDbArc
 50
182.530124
 51
225.0
  0
ARC
  5
21D
100
AcDbEntity
  8
0
370
    -3
  6
Continuous
100
AcDbCircle
 10
-526.1713
 20
-36.019897
 30
0.0
 40
1.0
100
AcDbArc
 50
300.0
 51
18.787729
  0
LINE
  5
21E
100
AcDbEntity
  8
0
370
    -3
  6
Continuous
100
AcDbLine
 10
-528.312535
 20
-38.41084
 30
0.0
 11
-525.6713
 21
-36.885922
 31
0.0
  0
ARC
  5
21F
100
AcDbEntity
  8
0
370
    -3
  6
Continuous
100
AcDbCircle
 10
-528.812535
 20
-37.544815
 30
0.0
 40
1.0
100
AcDbArc
 50
200.405932
 51
300.0
  0
ARC
  5
220
100
AcDbEntity
  8
0
370
    -3
  6
Continuous
100
AcDbCircle
 10
-533.628998
 20
-40.325601
 30
0.0
 40
1.0
100
AcDbArc
 50
300.0
 51
22.410458
  0
ARC
  5
221
100
AcDbEntity
  8
0
370
    -3
  6
Continuous
100
AcDbCircle
 10
-541.039325
 20
-44.603955
 30
0.0
 40
1.0
100
AcDbArc
 50
300.0
 51
24.26083
  0
LINE
  5
222
100
AcDbEntity
  8
0
370
    -3
  6
Continuous
100
AcDbLine
 10
-535.747673
 20
-42.703519
 30
0.0
 11
-533.128998
 21
-41.191626
 31
0.0
  0
ARC
  5
223
100
AcDbEntity
  8
0
370
    -3
  6
Continuous
100
AcDbCircle
 10
-536.247673
 20
-41.837494
 30
0.0
 40
1.0
100
AcDbArc
 50
203.186146
 51
300.0
  0
LINE
  5
224
100
AcDbEntity
  8
0
370
    -3
  6
Continuous
100
AcDbLine
 10
-543.14945
 20
-46.976937
 30
0.0
 11
-540.539325
 21
-45.469981
 31
0.0
  0
ARC
  5
225
100
AcDbEntity
  8
0
370
    -3
  6
Continuous
100
AcDbCircle
 10
-543.64945
 20
-46.110911
 30
0.0
 40
1.0
100
AcDbArc
 50
204.715267
 51
300.0
  0
ARC
  5
226
100
AcDbEntity
  8
0
370
    -3
  6
Continuous
100
AcDbCircle
 10
-540.14945
 20
-52.173089
 30
0.0
 40
1.0
100
AcDbArc
 50
120.0
 51
215.284733
  0
ARC
  5
227
100
AcDbEntity
  8
0
370
    -3
  6
Continuous
100
AcDbCircle
 10
-537.539325
 20
-50.666133
 30
0.0
 40
1.0
100
AcDbArc
 50
35.73917
 51
120.0
  0
ARC
  5
228
100
AcDbEntity
  8
0
370
    -3
  6
Continuous
100
AcDbCircle
 10
-512.630371
 20
-56.490615
 30
0.0
 40
1.0
100
AcDbArc
 50
0.0
 51
82.410458
  0
ARC
  5
229
100
AcDbEntity
  8
0
370
    -3
  6
Continuous
100
AcDbCircle
 10
-532.747673
 20
-47.899671
 30
0.0
 40
1.0
100
AcDbArc
 50
120.0
 51
216.813854
  0
ARC
  5
22A
100
AcDbEntity
  8
0
370
    -3
  6
Continuous
100
AcDbCircle
 10
-530.128998
 20
-46.387778
 30
0.0
 40
1.0
100
AcDbArc
 50
37.589542
 51
120.0
  0
ARC
  5
22B
100
AcDbEntity
  8
0
370
    -3
  6
Continuous
100
AcDbCircle
 10
-512.630371
 20
-50.929043
 30
0.0
 40
1.0
100
AcDbArc
 50
260.405932
 51
0.0
  0
ARC
  5
22C
100
AcDbEntity
  8
0
370
    -3
  6
Continuous
100
AcDbCircle
 10
-512.630371
 20
-47.879208
 30
0.0
 40
1.0
100
AcDbArc
 50
0.0
 51
78.787729
  0
ARC
  5
22D
100
AcDbEntity
  8
0
370
    -3
  6
Continuous
100
AcDbCircle
 10
-525.312535
 20
-43.606993
 30
0.0
 40
1.0
100
AcDbArc
 50
120.0
 51
219.594068
  0
ARC
  5
22E
100
AcDbEntity
  8
0
370
    -3
  6
Continuous
100
AcDbCircle
 10
-522.6713
 20
-42.082075
 30
0.0
 40
1.0
100
AcDbArc
 50
41.212271
 51
120.0
  0
ARC
  5
22F
100
AcDbEntity
  8
0
370
    -3
  6
Continuous
100
AcDbCircle
 10
-517.772676
 20
-39.253853
 30
0.0
 40
1.0
100
AcDbArc
 50
120.0
 51
226.260205
  0
ARC
  5
230
100
AcDbEntity
  8
0
370
    -3
  6
Continuous
100
AcDbCircle
 10
-512.630371
 20
-42.222764
 30
0.0
 40
1.0
100
AcDbArc
 50
253.739795
 51
0.0
  0
ARC
  5
231
100
AcDbEntity
  8
0
370
    -3
  6
Continuous
100
AcDbCircle
 10
-512.630371
 20
-39.054525
 30
0.0
 40
1.0
100
AcDbArc
 50
0.0
 51
68.381728
  0
ARC
  5
232
100
AcDbEntity
  8
0
370
    -3
  6
Continuous
100
AcDbCircle
 10
-515.028901
 20
-37.669733
 30
0.0
 40
1.0
100
AcDbArc
 50
51.618272
 51
120.0
  0
ARC
  5
233
100
AcDbEntity
  8
0
370
    -3
  6
Continuous
100
AcDbCircle
 10
-509.130371
 20
-30.222764
 30
0.0
 40
39.0
100
AcDbArc
 50
215.284733
 51
264.715267
  0
ARC
  5
234
100
AcDbEntity
  8
0
370
    -3
  6
Continuous
100
AcDbCircle
 10
-509.130371
 20
-30.222764
 30
0.0
 40
30.5
100
AcDbArc
 50
216.813854
 51
263.186146
  0
ARC
  5
235
100
AcDbEntity
  8
0
370
    -3
  6
Continuous
100
AcDbCircle
 10
-509.130371
 20
-30.222764
 30
0.0
 40
34.0
100
AcDbArc
 50
215.73917
 51
264.26083
  0
ARC
  5
236
100
AcDbEntity
  8
0
370
    -3
  6
Continuous
100
AcDbCircle
 10
-509.130371
 20
-30.222764
 30
0.0
 40
25.5
100
AcDbArc
 50
217.589542
 51
262.410458
  0
ARC
  5
237
100
AcDbEntity
  8
0
370
    -3
  6
Continuous
100
AcDbCircle
 10
-509.130371
 20
-30.222764
 30
0.0
 40
22.0
100
AcDbArc
 50
219.594068
 51
260.405932
  0
ARC
  5
238
100
AcDbEntity
  8
0
370
    -3
  6
Continuous
100
AcDbCircle
 10
-509.130371
 20
-30.222764
 30
0.0
 40
17.0
100
AcDbArc
 50
221.212271
 51
258.787729
  0
ARC
  5
239
100
AcDbEntity
  8
0
370
    -3
  6
Continuous
100
AcDbCircle
 10
-509.130371
 20
-30.222764
 30
0.0
 40
13.5
100
AcDbArc
 50
226.260205
 51
253.739795
  0
ARC
  5
23A
100
AcDbEntity
  8
0
370
    -3
  6
Continuous
100
AcDbCircle
 10
-509.130371
 20
-30.222764
 30
0.0
 40
8.5
100
AcDbArc
 50
231.618272
 51
248.381728
  0
LINE
  5
23B
100
AcDbEntity
  8
0
370
    -3
  6
Continuous
100
AcDbLine
 10
-533.247673
 20
-47.033646
 30
0.0
 11
-530.628998
 21
-45.521753
 31
0.0
  0
LINE
  5
23C
100
AcDbEntity
  8
0
370
    -3
  6
Continuous
100
AcDbLine
 10
-540.64945
 20
-51.307064
 30
0.0
 11
-538.039325
 21
-49.800108
 31
0.0
  0
LINE
  5
23D
100
AcDbEntity
  8
0
370
    -3
  6
Continuous
100
AcDbLine
 10
-525.812535
 20
-42.740967
 30
0.0
 11
-523.1713
 21
-41.216049
 31
0.0
  0
LINE
  5
23E
100
AcDbEntity
  8
0
370
    -3
  6
Continuous
100
AcDbLine
 10
-518.272676
 20
-38.387828
 30
0.0
 11
-515.528901
 21
-36.803708
 31
0.0
  0
LINE
  5
23F
100
AcDbEntity
  8
0
370
    -3
  6
Continuous
100
AcDbLine
 10
-511.630371
 20
-42.222764
 30
0.0
 11
-511.630371
 21
-39.054525
 31
0.0
  0
LINE
  5
240
100
AcDbEntity
  8
0
370
    -3
  6
Continuous
100
AcDbLine
 10
-511.630371
 20
-50.929043
 30
0.0
 11
-511.630371
 21
-47.879208
 31
0.0
  0
LINE
  5
241
100
AcDbEntity
  8
0
370
    -3
  6
Continuous
100
AcDbLine
 10
-511.630371
 20
-59.514401
 30
0.0
 11
-511.630371
 21
-56.490615
 31
0.0
  0
ARC
  5
242
100
AcDbEntity
  8
0
370
    -3
  6
Continuous
100
AcDbCircle
 10
-527.179425
 20
-14.330693
 30
0.0
 40
30.797
100
AcDbArc
 50
135.0
 51
177.469876
  0
ARC
  5
243
100
AcDbEntity
  8
0
370
    -3
  6
Continuous
100
AcDbCircle
 10
-167.530371
 20
-30.222764
 30
0.0
 40
390.797
100
AcDbArc
 50
177.470639
 51
180.0
  0
ARC
  5
244
100
AcDbEntity
  8
0
370
    -3
  6
Continuous
100
AcDbCircle
 10
-167.530371
 20
-30.222764
 30
0.0
 40
390.797
100
AcDbArc
 50
180.0
 51
182.529361
  0
ARC
  5
245
100
AcDbEntity
  8
0
370
    -3
  6
Continuous
100
AcDbCircle
 10
-518.528901
 20
-31.607556
 30
0.0
 40
1.0
100
AcDbArc
 50
300.0
 51
8.381728
  0
ARC
  5
246
100
AcDbEntity
  8
0
370
    -3
  6
Continuous
100
AcDbCircle
 10
-509.130371
 20
-30.222764
 30
0.0
 40
8.5
100
AcDbArc
 50
171.618272
 51
188.381728
  0
LINE
  5
247
100
AcDbEntity
  8
0
370
    -3
  6
Continuous
100
AcDbLine
 10
-520.772676
 20
-34.057701
 30
0.0
 11
-518.028901
 21
-32.473581
 31
0.0
  0
ARC
  5
248
100
AcDbEntity
  8
0
370
    -3
  6
Continuous
100
AcDbCircle
 10
-521.272676
 20
-33.191675
 30
0.0
 40
1.0
100
AcDbArc
 50
193.739795
 51
300.0
  0
ARC
  5
249
100
AcDbEntity
  8
0
370
    -3
  6
Continuous
100
AcDbCircle
 10
-509.130371
 20
-376.822764
 30
0.0
 40
390.797
100
AcDbArc
 50
90.0
 51
94.529193
  0
ARC
  5
24A
100
AcDbEntity
  8
0
370
    -3
  6
Continuous
100
AcDbCircle
 10
-539.142815
 20
1.990189
 30
0.0
 40
10.797
100
AcDbArc
 50
94.529945
 51
135.0
  0
LINE
  5
24B
100
AcDbEntity
  8
0
370
    -3
  6
Continuous
100
AcDbLine
 10
-548.956193
 20
7.446075
 30
0.0
 11
-546.777447
 21
9.624821
 31
0.0
  0
ARC
  5
24C
100
AcDbEntity
  8
0
370
    -3
  6
Continuous
100
AcDbCircle
 10
-512.630371
 20
-12.56632
 30
0.0
 40
1.0
100
AcDbArc
 50
281.212271
 51
0.0
  0
LINE
  5
24D
100
AcDbEntity
  8
0
370
    -3
  6
Continuous
100
AcDbLine
 10
-511.630371
 20
-9.516485
 30
0.0
 11
-511.630371
 21
-12.56632
 31
0.0
  0
ARC
  5
24E
100
AcDbEntity
  8
0
370
    -3
  6
Continuous
100
AcDbCircle
 10
-512.630371
 20
-9.516485
 30
0.0
 40
1.0
100
AcDbArc
 50
0.0
 51
99.594068
  0
ARC
  5
24F
100
AcDbEntity
  8
0
370
    -3
  6
Continuous
100
AcDbCircle
 10
-512.630371
 20
-3.954913
 30
0.0
 40
1.0
100
AcDbArc
 50
277.589542
 51
0.0
  0
LINE
  5
250
100
AcDbEntity
  8
0
370
    -3
  6
Continuous
100
AcDbLine
 10
-511.630371
 20
-0.931127
 30
0.0
 11
-511.630371
 21
-3.954913
 31
0.0
  0
ARC
  5
251
100
AcDbEntity
  8
0
370
    -3
  6
Continuous
100
AcDbCircle
 10
-512.630371
 20
-0.931127
 30
0.0
 40
1.0
100
AcDbArc
 50
0.0
 51
96.813854
  0
ARC
  5
252
100
AcDbEntity
  8
0
370
    -3
  6
Continuous
100
AcDbCircle
 10
-512.630371
 20
4.601796
 30
0.0
 40
1.0
100
AcDbArc
 50
275.73917
 51
0.0
  0
LINE
  5
253
100
AcDbEntity
  8
0
370
    -3
  6
Continuous
100
AcDbLine
 10
-511.630371
 20
7.615708
 30
0.0
 11
-511.630371
 21
4.601796
 31
0.0
  0
ARC
  5
254
100
AcDbEntity
  8
0
370
    -3
  6
Continuous
100
AcDbCircle
 10
-512.630371
 20
7.615708
 30
0.0
 40
1.0
100
AcDbArc
 50
0.0
 51
95.284733
  0
ARC
  5
255
100
AcDbEntity
  8
0
370
    -3
  6
Continuous
100
AcDbCircle
 10
-532.747673
 20
-12.545857
 30
0.0
 40
1.0
100
AcDbArc
 50
143.186146
 51
240.0
  0
LINE
  5
256
100
AcDbEntity
  8
0
370
    -3
  6
Continuous
100
AcDbLine
 10
-533.247673
 20
-13.411882
 30
0.0
 11
-530.628998
 21
-14.923775
 31
0.0
  0
ARC
  5
257
100
AcDbEntity
  8
0
370
    -3
  6
Continuous
100
AcDbCircle
 10
-530.128998
 20
-14.05775
 30
0.0
 40
1.0
100
AcDbArc
 50
240.0
 51
322.410458
  0
ARC
  5
258
100
AcDbEntity
  8
0
370
    -3
  6
Continuous
100
AcDbCircle
 10
-540.14945
 20
-8.272439
 30
0.0
 40
1.0
100
AcDbArc
 50
144.715267
 51
240.0
  0
LINE
  5
259
100
AcDbEntity
  8
0
370
    -3
  6
Continuous
100
AcDbLine
 10
-540.64945
 20
-9.138464
 30
0.0
 11
-538.039325
 21
-10.64542
 31
0.0
  0
ARC
  5
25A
100
AcDbEntity
  8
0
370
    -3
  6
Continuous
100
AcDbCircle
 10
-537.539325
 20
-9.779395
 30
0.0
 40
1.0
100
AcDbArc
 50
240.0
 51
324.26083
  0
ARC
  5
25B
100
AcDbEntity
  8
0
370
    -3
  6
Continuous
100
AcDbCircle
 10
-515.028901
 20
-22.775795
 30
0.0
 40
1.0
100
AcDbArc
 50
240.0
 51
308.381728
  0
LINE
  5
25C
100
AcDbEntity
  8
0
370
    -3
  6
Continuous
100
AcDbLine
 10
-518.272676
 20
-22.057701
 30
0.0
 11
-515.528901
 21
-23.64182
 31
0.0
  0
ARC
  5
25D
100
AcDbEntity
  8
0
370
    -3
  6
Continuous
100
AcDbCircle
 10
-522.6713
 20
-18.363453
 30
0.0
 40
1.0
100
AcDbArc
 50
240.0
 51
318.787729
  0
LINE
  5
25E
100
AcDbEntity
  8
0
370
    -3
  6
Continuous
100
AcDbLine
 10
-525.812535
 20
-17.704561
 30
0.0
 11
-523.1713
 21
-19.229479
 31
0.0
  0
ARC
  5
25F
100
AcDbEntity
  8
0
370
    -3
  6
Continuous
100
AcDbCircle
 10
-525.312535
 20
-16.838535
 30
0.0
 40
1.0
100
AcDbArc
 50
140.405932
 51
240.0
  0
ARC
  5
260
100
AcDbEntity
  8
0
370
    -3
  6
Continuous
100
AcDbCircle
 10
-512.630371
 20
-21.391003
 30
0.0
 40
1.0
100
AcDbArc
 50
291.618272
 51
0.0
  0
ARC
  5
261
100
AcDbEntity
  8
0
370
    -3
  6
Continuous
100
AcDbCircle
 10
-509.130371
 20
-30.222764
 30
0.0
 40
8.5
100
AcDbArc
 50
111.618272
 51
128.381728
  0
ARC
  5
262
100
AcDbEntity
  8
0
370
    -3
  6
Continuous
100
AcDbCircle
 10
-517.772676
 20
-21.191675
 30
0.0
 40
1.0
100
AcDbArc
 50
133.739795
 51
240.0
  0
LINE
  5
263
100
AcDbEntity
  8
0
370
    -3
  6
Continuous
100
AcDbLine
 10
-511.630371
 20
-18.222764
 30
0.0
 11
-511.630371
 21
-21.391003
 31
0.0
  0
ARC
  5
264
100
AcDbEntity
  8
0
370
    -3
  6
Continuous
100
AcDbCircle
 10
-512.630371
 20
-18.222764
 30
0.0
 40
1.0
100
AcDbArc
 50
0.0
 51
106.260205
  0
ARC
  5
265
100
AcDbEntity
  8
0
370
    -3
  6
Continuous
100
AcDbCircle
 10
-509.130371
 20
-30.222764
 30
0.0
 40
13.5
100
AcDbArc
 50
106.260205
 51
133.739795
  0
ARC
  5
266
100
AcDbEntity
  8
0
370
    -3
  6
Continuous
100
AcDbCircle
 10
-509.130371
 20
-30.222764
 30
0.0
 40
17.0
100
AcDbArc
 50
101.212271
 51
138.787729
  0
ARC
  5
267
100
AcDbEntity
  8
0
370
    -3
  6
Continuous
100
AcDbCircle
 10
-509.130371
 20
-30.222764
 30
0.0
 40
22.0
100
AcDbArc
 50
99.594068
 51
140.405932
  0
ARC
  5
268
100
AcDbEntity
  8
0
370
    -3
  6
Continuous
100
AcDbCircle
 10
-509.130371
 20
-30.222764
 30
0.0
 40
30.5
100
AcDbArc
 50
96.813854
 51
143.186146
  0
ARC
  5
269
100
AcDbEntity
  8
0
370
    -3
  6
Continuous
100
AcDbCircle
 10
-509.130371
 20
-30.222764
 30
0.0
 40
25.5
100
AcDbArc
 50
97.589542
 51
142.410458
  0
ARC
  5
26A
100
AcDbEntity
  8
0
370
    -3
  6
Continuous
100
AcDbCircle
 10
-509.130371
 20
-30.222764
 30
0.0
 40
34.0
100
AcDbArc
 50
95.73917
 51
144.26083
  0
ARC
  5
26B
100
AcDbEntity
  8
0
370
    -3
  6
Continuous
100
AcDbCircle
 10
-509.130371
 20
-30.222764
 30
0.0
 40
39.0
100
AcDbArc
 50
95.284733
 51
144.715267
  0
ARC
  5
26C
100
AcDbEntity
  8
0
370
    -3
  6
Continuous
100
AcDbCircle
 10
-536.247673
 20
-18.608034
 30
0.0
 40
1.0
100
AcDbArc
 50
60.0
 51
156.813854
  0
LINE
  5
26D
100
AcDbEntity
  8
0
370
    -3
  6
Continuous
100
AcDbLine
 10
-535.747673
 20
-17.742009
 30
0.0
 11
-533.128998
 21
-19.253902
 31
0.0
  0
ARC
  5
26E
100
AcDbEntity
  8
0
370
    -3
  6
Continuous
100
AcDbCircle
 10
-533.628998
 20
-20.119927
 30
0.0
 40
1.0
100
AcDbArc
 50
337.589542
 51
60.0
  0
ARC
  5
26F
100
AcDbEntity
  8
0
370
    -3
  6
Continuous
100
AcDbCircle
 10
-543.64945
 20
-14.334617
 30
0.0
 40
1.0
100
AcDbArc
 50
60.0
 51
155.284733
  0
LINE
  5
270
100
AcDbEntity
  8
0
370
    -3
  6
Continuous
100
AcDbLine
 10
-543.14945
 20
-13.468591
 30
0.0
 11
-540.539325
 21
-14.975547
 31
0.0
  0
ARC
  5
271
100
AcDbEntity
  8
0
370
    -3
  6
Continuous
100
AcDbCircle
 10
-541.039325
 20
-15.841573
 30
0.0
 40
1.0
100
AcDbArc
 50
335.73917
 51
60.0
  0
ARC
  5
272
100
AcDbEntity
  8
0
370
    -3
  6
Continuous
100
AcDbCircle
 10
-518.528901
 20
-28.837973
 30
0.0
 40
1.0
100
AcDbArc
 50
351.618272
 51
60.0
  0
LINE
  5
273
100
AcDbEntity
  8
0
370
    -3
  6
Continuous
100
AcDbLine
 10
-520.772676
 20
-26.387828
 30
0.0
 11
-518.028901
 21
-27.971947
 31
0.0
  0
ARC
  5
274
100
AcDbEntity
  8
0
370
    -3
  6
Continuous
100
AcDbCircle
 10
-526.1713
 20
-24.425631
 30
0.0
 40
1.0
100
AcDbArc
 50
341.212271
 51
60.0
  0
LINE
  5
275
100
AcDbEntity
  8
0
370
    -3
  6
Continuous
100
AcDbLine
 10
-528.312535
 20
-22.034688
 30
0.0
 11
-525.6713
 21
-23.559606
 31
0.0
  0
ARC
  5
276
100
AcDbEntity
  8
0
370
    -3
  6
Continuous
100
AcDbCircle
 10
-528.812535
 20
-22.900713
 30
0.0
 40
1.0
100
AcDbArc
 50
60.0
 51
159.594068
  0
ARC
  5
277
100
AcDbEntity
  8
0
370
    -3
  6
Continuous
100
AcDbCircle
 10
-521.272676
 20
-27.253853
 30
0.0
 40
1.0
100
AcDbArc
 50
60.0
 51
166.260205
  0
ARC
  5
278
100
AcDbEntity
  8
0
370
    -3
  6
Continuous
100
AcDbCircle
 10
-509.130371
 20
-30.222764
 30
0.0
 40
13.5
100
AcDbArc
 50
166.260205
 51
193.739795
  0
ARC
  5
279
100
AcDbEntity
  8
0
370
    -3
  6
Continuous
100
AcDbCircle
 10
-509.130371
 20
-30.222764
 30
0.0
 40
17.0
100
AcDbArc
 50
161.212271
 51
198.787729
  0
ARC
  5
27A
100
AcDbEntity
  8
0
370
    -3
  6
Continuous
100
AcDbCircle
 10
-509.130371
 20
-30.222764
 30
0.0
 40
22.0
100
AcDbArc
 50
159.594068
 51
200.405932
  0
ARC
  5
27B
100
AcDbEntity
  8
0
370
    -3
  6
Continuous
100
AcDbCircle
 10
-509.130371
 20
-30.222764
 30
0.0
 40
30.5
100
AcDbArc
 50
156.813854
 51
203.186146
  0
ARC
  5
27C
100
AcDbEntity
  8
0
370
    -3
  6
Continuous
100
AcDbCircle
 10
-509.130371
 20
-30.222764
 30
0.0
 40
25.5
100
AcDbArc
 50
157.589542
 51
202.410458
  0
ARC
  5
27D
100
AcDbEntity
  8
0
370
    -3
  6
Continuous
100
AcDbCircle
 10
-509.130371
 20
-30.222764
 30
0.0
 40
34.0
100
AcDbArc
 50
155.73917
 51
204.26083
  0
ARC
  5
27E
100
AcDbEntity
  8
0
370
    -3
  6
Continuous
100
AcDbCircle
 10
-509.130371
 20
-30.222764
 30
0.0
 40
39.0
100
AcDbArc
 50
155.284733
 51
204.715267
  0
LINE
  5
27F
100
AcDbEntity
  8
0
370
    -3
  6
Continuous
100
AcDbLine
 10
-506.630371
 20
-59.514401
 30
0.0
 11
-506.630371
 21
-56.490615
 31
0.0
  0
LINE
  5
280
100
AcDbEntity
  8
0
370
    -3
  6
Continuous
100
AcDbLine
 10
-506.630371
 20
-50.929043
 30
0.0
 11
-506.630371
 21
-47.879208
 31
0.0
  0
LINE
  5
281
100
AcDbEntity
  8
0
370
    -3
  6
Continuous
100
AcDbLine
 10
-506.630371
 20
-42.222764
 30
0.0
 11
-506.630371
 21
-39.054525
 31
0.0
  0
LINE
  5
282
100
AcDbEntity
  8
0
370
    -3
  6
Continuous
100
AcDbLine
 10
-499.988066
 20
-38.387828
 30
0.0
 11
-502.731842
 21
-36.803708
 31
0.0
  0
LINE
  5
283
100
AcDbEntity
  8
0
370
    -3
  6
Continuous
100
AcDbLine
 10
-492.448208
 20
-42.740967
 30
0.0
 11
-495.089443
 21
-41.216049
 31
0.0
  0
LINE
  5
284
100
AcDbEntity
  8
0
370
    -3
  6
Continuous
100
AcDbLine
 10
-477.611293
 20
-51.307064
 30
0.0
 11
-480.221417
 21
-49.800108
 31
0.0
  0
ARC
  5
285
100
AcDbEntity
  8
0
370
    -3
  6
Continuous
100
AcDbCircle
 10
-527.179425
 20
-14.330693
 30
0.0
 40
40.6
100
AcDbArc
 50
135.0
 51
177.469876
  0
LINE
  5
286
100
AcDbEntity
  8
0
370
    -3
  6
Continuous
100
AcDbLine
 10
-555.887961
 20
14.377843
 30
0.0
 11
-553.709215
 21
16.556588
 31
0.0
  0
ARC
  5
287
100
AcDbEntity
  8
0
370
    -3
  6
Continuous
100
AcDbCircle
 10
-539.142815
 20
1.990189
 30
0.0
 40
20.6
100
AcDbArc
 50
94.529945
 51
135.0
  0
ARC
  5
288
100
AcDbEntity
  8
0
370
    -3
  6
Continuous
100
AcDbCircle
 10
-509.130371
 20
-376.822764
 30
0.0
 40
400.6
100
AcDbArc
 50
90.0
 51
94.529193
  0
ARC
  5
289
100
AcDbEntity
  8
0
370
    -3
  6
Continuous
100
AcDbCircle
 10
-167.530371
 20
-30.222764
 30
0.0
 40
400.6
100
AcDbArc
 50
177.470639
 51
180.0
  0
ARC
  5
28A
100
AcDbEntity
  8
0
370
    -3
  6
Continuous
100
AcDbCircle
 10
-527.179425
 20
-46.114835
 30
0.0
 40
40.6
100
AcDbArc
 50
182.530124
 51
225.0
  0
LINE
  5
28B
100
AcDbEntity
  8
0
370
    -3
  6
Continuous
100
AcDbLine
 10
-555.887961
 20
-74.823371
 30
0.0
 11
-553.709215
 21
-77.002117
 31
0.0
  0
ARC
  5
28C
100
AcDbEntity
  8
0
370
    -3
  6
Continuous
100
AcDbCircle
 10
-539.142815
 20
-62.435717
 30
0.0
 40
20.6
100
AcDbArc
 50
225.0
 51
265.470055
  0
ARC
  5
28D
100
AcDbEntity
  8
0
370
    -3
  6
Continuous
100
AcDbCircle
 10
-509.130371
 20
316.377236
 30
0.0
 40
400.6
100
AcDbArc
 50
265.470807
 51
270.0
  0
ARC
  5
28E
100
AcDbEntity
  8
0
370
    -3
  6
Continuous
100
AcDbCircle
 10
-167.530371
 20
-30.222764
 30
0.0
 40
400.6
100
AcDbArc
 50
180.0
 51
182.529361
  0
ARC
  5
28F
100
AcDbEntity
  8
0
370
    -3
  6
Continuous
100
AcDbCircle
 10
-491.081317
 20
-46.114835
 30
0.0
 40
40.6
100
AcDbArc
 50
315.0
 51
357.469876
  0
LINE
  5
290
100
AcDbEntity
  8
0
370
    -3
  6
Continuous
100
AcDbLine
 10
-462.372782
 20
-74.823371
 30
0.0
 11
-464.551528
 21
-77.002117
 31
0.0
  0
ARC
  5
291
100
AcDbEntity
  8
0
370
    -3
  6
Continuous
100
AcDbCircle
 10
-479.117927
 20
-62.435717
 30
0.0
 40
20.6
100
AcDbArc
 50
274.529945
 51
315.0
  0
ARC
  5
292
100
AcDbEntity
  8
0
370
    -3
  6
Continuous
100
AcDbCircle
 10
-509.130371
 20
316.377236
 30
0.0
 40
400.6
100
AcDbArc
 50
270.0
 51
274.529193
  0
ARC
  5
293
100
AcDbEntity
  8
0
370
    -3
  6
Continuous
100
AcDbCircle
 10
-491.081317
 20
-14.330693
 30
0.0
 40
40.6
100
AcDbArc
 50
2.530124
 51
45.0
  0
LINE
  5
294
100
AcDbEntity
  8
0
370
    -3
  6
Continuous
100
AcDbLine
 10
-462.372782
 20
14.377843
 30
0.0
 11
-464.551528
 21
16.556588
 31
0.0
  0
ARC
  5
295
100
AcDbEntity
  8
0
370
    -3
  6
Continuous
100
AcDbCircle
 10
-479.117927
 20
1.990189
 30
0.0
 40
20.6
100
AcDbArc
 50
45.0
 51
85.470055
  0
ARC
  5
296
100
AcDbEntity
  8
0
370
    -3
  6
Continuous
100
AcDbCircle
 10
-509.130371
 20
-376.822764
 30
0.0
 40
400.6
100
AcDbArc
 50
85.470807
 51
90.0
  0
LINE
  5
297
100
AcDbEntity
  8
0
370
    -3
  6
Continuous
100
AcDbLine
 10
-506.630371
 20
-68.061237
 30
0.0
 11
-506.630371
 21
-65.047324
 31
0.0
  0
LINE
  5
298
100
AcDbEntity
  8
0
370
    -3
  6
Continuous
100
AcDbLine
 10
-485.01307
 20
-47.033646
 30
0.0
 11
-487.631745
 21
-45.521753
 31
0.0
  0
ARC
  5
299
100
AcDbEntity
  8
0
370
    -3
  6
Continuous
100
AcDbCircle
 10
-509.130371
 20
-30.222764
 30
0.0
 40
8.5
100
AcDbArc
 50
291.618272
 51
308.381728
  0
ARC
  5
29A
100
AcDbEntity
  8
0
370
    -3
  6
Continuous
100
AcDbCircle
 10
-509.130371
 20
-30.222764
 30
0.0
 40
13.5
100
AcDbArc
 50
286.260205
 51
313.739795
  0
ARC
  5
29B
100
AcDbEntity
  8
0
370
    -3
  6
Continuous
100
AcDbCircle
 10
-509.130371
 20
-30.222764
 30
0.0
 40
17.0
100
AcDbArc
 50
281.212271
 51
318.787729
  0
ARC
  5
29C
100
AcDbEntity
  8
0
370
    -3
  6
Continuous
100
AcDbCircle
 10
-509.130371
 20
-30.222764
 30
0.0
 40
22.0
100
AcDbArc
 50
279.594068
 51
320.405932
  0
ARC
  5
29D
100
AcDbEntity
  8
0
370
    -3
  6
Continuous
100
AcDbCircle
 10
-509.130371
 20
-30.222764
 30
0.0
 40
25.5
100
AcDbArc
 50
277.589542
 51
322.410458
  0
ARC
  5
29E
100
AcDbEntity
  8
0
370
    -3
  6
Continuous
100
AcDbCircle
 10
-509.130371
 20
-30.222764
 30
0.0
 40
34.0
100
AcDbArc
 50
275.73917
 51
324.26083
  0
ARC
  5
29F
100
AcDbEntity
  8
0
370
    -3
  6
Continuous
100
AcDbCircle
 10
-509.130371
 20
-30.222764
 30
0.0
 40
30.5
100
AcDbArc
 50
276.813854
 51
323.186146
  0
ARC
  5
2A0
100
AcDbEntity
  8
0
370
    -3
  6
Continuous
100
AcDbCircle
 10
-503.231842
 20
-37.669733
 30
0.0
 40
1.0
100
AcDbArc
 50
60.0
 51
128.381728
  0
ARC
  5
2A1
100
AcDbEntity
  8
0
370
    -3
  6
Continuous
100
AcDbCircle
 10
-505.630371
 20
-39.054525
 30
0.0
 40
1.0
100
AcDbArc
 50
111.618272
 51
180.0
  0
ARC
  5
2A2
100
AcDbEntity
  8
0
370
    -3
  6
Continuous
100
AcDbCircle
 10
-505.630371
 20
-42.222764
 30
0.0
 40
1.0
100
AcDbArc
 50
180.0
 51
286.260205
  0
ARC
  5
2A3
100
AcDbEntity
  8
0
370
    -3
  6
Continuous
100
AcDbCircle
 10
-500.488066
 20
-39.253853
 30
0.0
 40
1.0
100
AcDbArc
 50
313.739795
 51
60.0
  0
ARC
  5
2A4
100
AcDbEntity
  8
0
370
    -3
  6
Continuous
100
AcDbCircle
 10
-495.589443
 20
-42.082075
 30
0.0
 40
1.0
100
AcDbArc
 50
60.0
 51
138.787729
  0
ARC
  5
2A5
100
AcDbEntity
  8
0
370
    -3
  6
Continuous
100
AcDbCircle
 10
-492.948208
 20
-43.606993
 30
0.0
 40
1.0
100
AcDbArc
 50
320.405932
 51
60.0
  0
ARC
  5
2A6
100
AcDbEntity
  8
0
370
    -3
  6
Continuous
100
AcDbCircle
 10
-505.630371
 20
-47.879208
 30
0.0
 40
1.0
100
AcDbArc
 50
101.212271
 51
180.0
  0
ARC
  5
2A7
100
AcDbEntity
  8
0
370
    -3
  6
Continuous
100
AcDbCircle
 10
-505.630371
 20
-50.929043
 30
0.0
 40
1.0
100
AcDbArc
 50
180.0
 51
279.594068
  0
ARC
  5
2A8
100
AcDbEntity
  8
0
370
    -3
  6
Continuous
100
AcDbCircle
 10
-505.630371
 20
-59.514401
 30
0.0
 40
1.0
100
AcDbArc
 50
180.0
 51
276.813854
  0
ARC
  5
2A9
100
AcDbEntity
  8
0
370
    -3
  6
Continuous
100
AcDbCircle
 10
-488.131745
 20
-46.387778
 30
0.0
 40
1.0
100
AcDbArc
 50
60.0
 51
142.410458
  0
ARC
  5
2AA
100
AcDbEntity
  8
0
370
    -3
  6
Continuous
100
AcDbCircle
 10
-485.51307
 20
-47.899671
 30
0.0
 40
1.0
100
AcDbArc
 50
323.186146
 51
60.0
  0
ARC
  5
2AB
100
AcDbEntity
  8
0
370
    -3
  6
Continuous
100
AcDbCircle
 10
-505.630371
 20
-56.490615
 30
0.0
 40
1.0
100
AcDbArc
 50
97.589542
 51
180.0
  0
ARC
  5
2AC
100
AcDbEntity
  8
0
370
    -3
  6
Continuous
100
AcDbCircle
 10
-505.630371
 20
-68.061237
 30
0.0
 40
1.0
100
AcDbArc
 50
180.0
 51
275.284733
  0
ARC
  5
2AD
100
AcDbEntity
  8
0
370
    -3
  6
Continuous
100
AcDbCircle
 10
-505.630371
 20
-65.047324
 30
0.0
 40
1.0
100
AcDbArc
 50
95.73917
 51
180.0
  0
ARC
  5
2AE
100
AcDbEntity
  8
0
370
    -3
  6
Continuous
100
AcDbCircle
 10
-480.721417
 20
-50.666133
 30
0.0
 40
1.0
100
AcDbArc
 50
60.0
 51
144.26083
  0
ARC
  5
2AF
100
AcDbEntity
  8
0
370
    -3
  6
Continuous
100
AcDbCircle
 10
-478.111293
 20
-52.173089
 30
0.0
 40
1.0
100
AcDbArc
 50
324.715267
 51
60.0
  0
CIRCLE
  5
2B0
100
AcDbEntity
  8
0
370
    -3
  6
Continuous
100
AcDbCircle
 10
-509.130371
 20
-30.222764
 30
0.0
 40
5.0
  0
ARC
  5
2B1
100
AcDbEntity
  8
0
370
    -3
  6
Continuous
100
AcDbCircle
 10
-474.611293
 20
-46.110911
 30
0.0
 40
1.0
100
AcDbArc
 50
240.0
 51
335.284733
  0
LINE
  5
2B2
100
AcDbEntity
  8
0
370
    -3
  6
Continuous
100
AcDbLine
 10
-475.111293
 20
-46.976937
 30
0.0
 11
-477.721417
 21
-45.469981
 31
0.0
  0
ARC
  5
2B3
100
AcDbEntity
  8
0
370
    -3
  6
Continuous
100
AcDbCircle
 10
-509.130371
 20
-30.222764
 30
0.0
 40
39.0
100
AcDbArc
 50
335.284733
 51
24.715267
  0
ARC
  5
2B4
100
AcDbEntity
  8
0
370
    -3
  6
Continuous
100
AcDbCircle
 10
-509.130371
 20
-30.222764
 30
0.0
 40
34.0
100
AcDbArc
 50
335.73917
 51
24.26083
  0
ARC
  5
2B5
100
AcDbEntity
  8
0
370
    -3
  6
Continuous
100
AcDbCircle
 10
-509.130371
 20
-30.222764
 30
0.0
 40
25.5
100
AcDbArc
 50
337.589542
 51
22.410458
  0
ARC
  5
2B6
100
AcDbEntity
  8
0
370
    -3
  6
Continuous
100
AcDbCircle
 10
-509.130371
 20
-30.222764
 30
0.0
 40
30.5
100
AcDbArc
 50
336.813854
 51
23.186146
  0
ARC
  5
2B7
100
AcDbEntity
  8
0
370
    -3
  6
Continuous
100
AcDbCircle
 10
-482.01307
 20
-41.837494
 30
0.0
 40
1.0
100
AcDbArc
 50
240.0
 51
336.813854
  0
LINE
  5
2B8
100
AcDbEntity
  8
0
370
    -3
  6
Continuous
100
AcDbLine
 10
-482.51307
 20
-42.703519
 30
0.0
 11
-485.131745
 21
-41.191626
 31
0.0
  0
ARC
  5
2B9
100
AcDbEntity
  8
0
370
    -3
  6
Continuous
100
AcDbCircle
 10
-509.130371
 20
-30.222764
 30
0.0
 40
22.0
100
AcDbArc
 50
339.594068
 51
20.405932
  0
ARC
  5
2BA
100
AcDbEntity
  8
0
370
    -3
  6
Continuous
100
AcDbCircle
 10
-477.221417
 20
-44.603955
 30
0.0
 40
1.0
100
AcDbArc
 50
155.73917
 51
240.0
  0
ARC
  5
2BB
100
AcDbEntity
  8
0
370
    -3
  6
Continuous
100
AcDbCircle
 10
-484.631745
 20
-40.325601
 30
0.0
 40
1.0
100
AcDbArc
 50
157.589542
 51
240.0
  0
ARC
  5
2BC
100
AcDbEntity
  8
0
370
    -3
  6
Continuous
100
AcDbCircle
 10
-489.448208
 20
-37.544815
 30
0.0
 40
1.0
100
AcDbArc
 50
240.0
 51
339.594068
  0
ARC
  5
2BD
100
AcDbEntity
  8
0
370
    -3
  6
Continuous
100
AcDbCircle
 10
-509.130371
 20
-30.222764
 30
0.0
 40
17.0
100
AcDbArc
 50
341.212271
 51
18.787729
  0
LINE
  5
2BE
100
AcDbEntity
  8
0
370
    -3
  6
Continuous
100
AcDbLine
 10
-489.948208
 20
-38.41084
 30
0.0
 11
-492.589443
 21
-36.885922
 31
0.0
  0
ARC
  5
2BF
100
AcDbEntity
  8
0
370
    -3
  6
Continuous
100
AcDbCircle
 10
-492.089443
 20
-36.019897
 30
0.0
 40
1.0
100
AcDbArc
 50
161.212271
 51
240.0
  0
ARC
  5
2C0
100
AcDbEntity
  8
0
370
    -3
  6
Continuous
100
AcDbCircle
 10
-509.130371
 20
-30.222764
 30
0.0
 40
13.5
100
AcDbArc
 50
346.260205
 51
13.739795
  0
ARC
  5
2C1
100
AcDbEntity
  8
0
370
    -3
  6
Continuous
100
AcDbCircle
 10
-496.988066
 20
-33.191675
 30
0.0
 40
1.0
100
AcDbArc
 50
240.0
 51
346.260205
  0
LINE
  5
2C2
100
AcDbEntity
  8
0
370
    -3
  6
Continuous
100
AcDbLine
 10
-497.488066
 20
-34.057701
 30
0.0
 11
-500.231842
 21
-32.473581
 31
0.0
  0
ARC
  5
2C3
100
AcDbEntity
  8
0
370
    -3
  6
Continuous
100
AcDbCircle
 10
-496.988066
 20
-27.253853
 30
0.0
 40
1.0
100
AcDbArc
 50
13.739795
 51
120.0
  0
ARC
  5
2C4
100
AcDbEntity
  8
0
370
    -3
  6
Continuous
100
AcDbCircle
 10
-509.130371
 20
-30.222764
 30
0.0
 40
8.5
100
AcDbArc
 50
351.618272
 51
8.381728
  0
ARC
  5
2C5
100
AcDbEntity
  8
0
370
    -3
  6
Continuous
100
AcDbCircle
 10
-499.731842
 20
-31.607556
 30
0.0
 40
1.0
100
AcDbArc
 50
171.618272
 51
240.0
  0
ARC
  5
2C6
100
AcDbEntity
  8
0
370
    -3
  6
Continuous
100
AcDbCircle
 10
-489.448208
 20
-22.900713
 30
0.0
 40
1.0
100
AcDbArc
 50
20.405932
 51
120.0
  0
LINE
  5
2C7
100
AcDbEntity
  8
0
370
    -3
  6
Continuous
100
AcDbLine
 10
-489.948208
 20
-22.034688
 30
0.0
 11
-492.589443
 21
-23.559606
 31
0.0
  0
ARC
  5
2C8
100
AcDbEntity
  8
0
370
    -3
  6
Continuous
100
AcDbCircle
 10
-492.089443
 20
-24.425631
 30
0.0
 40
1.0
100
AcDbArc
 50
120.0
 51
198.787729
  0
LINE
  5
2C9
100
AcDbEntity
  8
0
370
    -3
  6
Continuous
100
AcDbLine
 10
-497.488066
 20
-26.387828
 30
0.0
 11
-500.231842
 21
-27.971947
 31
0.0
  0
ARC
  5
2CA
100
AcDbEntity
  8
0
370
    -3
  6
Continuous
100
AcDbCircle
 10
-499.731842
 20
-28.837973
 30
0.0
 40
1.0
100
AcDbArc
 50
120.0
 51
188.381728
  0
ARC
  5
2CB
100
AcDbEntity
  8
0
370
    -3
  6
Continuous
100
AcDbCircle
 10
-477.221417
 20
-15.841573
 30
0.0
 40
1.0
100
AcDbArc
 50
120.0
 51
204.26083
  0
LINE
  5
2CC
100
AcDbEntity
  8
0
370
    -3
  6
Continuous
100
AcDbLine
 10
-475.111293
 20
-13.468591
 30
0.0
 11
-477.721417
 21
-14.975547
 31
0.0
  0
ARC
  5
2CD
100
AcDbEntity
  8
0
370
    -3
  6
Continuous
100
AcDbCircle
 10
-474.611293
 20
-14.334617
 30
0.0
 40
1.0
100
AcDbArc
 50
24.715267
 51
120.0
  0
ARC
  5
2CE
100
AcDbEntity
  8
0
370
    -3
  6
Continuous
100
AcDbCircle
 10
-484.631745
 20
-20.119927
 30
0.0
 40
1.0
100
AcDbArc
 50
120.0
 51
202.410458
  0
LINE
  5
2CF
100
AcDbEntity
  8
0
370
    -3
  6
Continuous
100
AcDbLine
 10
-482.51307
 20
-17.742009
 30
0.0
 11
-485.131745
 21
-19.253902
 31
0.0
  0
ARC
  5
2D0
100
AcDbEntity
  8
0
370
    -3
  6
Continuous
100
AcDbCircle
 10
-482.01307
 20
-18.608034
 30
0.0
 40
1.0
100
AcDbArc
 50
23.186146
 51
120.0
  0
ARC
  5
2D1
100
AcDbEntity
  8
0
370
    -3
  6
Continuous
100
AcDbCircle
 10
-509.130371
 20
-30.222764
 30
0.0
 40
39.0
100
AcDbArc
 50
35.284733
 51
84.715267
  0
ARC
  5
2D2
100
AcDbEntity
  8
0
370
    -3
  6
Continuous
100
AcDbCircle
 10
-509.130371
 20
-30.222764
 30
0.0
 40
34.0
100
AcDbArc
 50
35.73917
 51
84.26083
  0
ARC
  5
2D3
100
AcDbEntity
  8
0
370
    -3
  6
Continuous
100
AcDbCircle
 10
-509.130371
 20
-30.222764
 30
0.0
 40
25.5
100
AcDbArc
 50
37.589542
 51
82.410458
  0
ARC
  5
2D4
100
AcDbEntity
  8
0
370
    -3
  6
Continuous
100
AcDbCircle
 10
-509.130371
 20
-30.222764
 30
0.0
 40
30.5
100
AcDbArc
 50
36.813854
 51
83.186146
  0
ARC
  5
2D5
100
AcDbEntity
  8
0
370
    -3
  6
Continuous
100
AcDbCircle
 10
-509.130371
 20
-30.222764
 30
0.0
 40
22.0
100
AcDbArc
 50
39.594068
 51
80.405932
  0
ARC
  5
2D6
100
AcDbEntity
  8
0
370
    -3
  6
Continuous
100
AcDbCircle
 10
-509.130371
 20
-30.222764
 30
0.0
 40
17.0
100
AcDbArc
 50
41.212271
 51
78.787729
  0
ARC
  5
2D7
100
AcDbEntity
  8
0
370
    -3
  6
Continuous
100
AcDbCircle
 10
-509.130371
 20
-30.222764
 30
0.0
 40
13.5
100
AcDbArc
 50
46.260205
 51
73.739795
  0
ARC
  5
2D8
100
AcDbEntity
  8
0
370
    -3
  6
Continuous
100
AcDbCircle
 10
-505.630371
 20
-18.222764
 30
0.0
 40
1.0
100
AcDbArc
 50
73.739795
 51
180.0
  0
LINE
  5
2D9
100
AcDbEntity
  8
0
370
    -3
  6
Continuous
100
AcDbLine
 10
-506.630371
 20
-18.222764
 30
0.0
 11
-506.630371
 21
-21.391003
 31
0.0
  0
ARC
  5
2DA
100
AcDbEntity
  8
0
370
    -3
  6
Continuous
100
AcDbCircle
 10
-500.488066
 20
-21.191675
 30
0.0
 40
1.0
100
AcDbArc
 50
300.0
 51
46.260205
  0
ARC
  5
2DB
100
AcDbEntity
  8
0
370
    -3
  6
Continuous
100
AcDbCircle
 10
-509.130371
 20
-30.222764
 30
0.0
 40
8.5
100
AcDbArc
 50
51.618272
 51
68.381728
  0
ARC
  5
2DC
100
AcDbEntity
  8
0
370
    -3
  6
Continuous
100
AcDbCircle
 10
-505.630371
 20
-21.391003
 30
0.0
 40
1.0
100
AcDbArc
 50
180.0
 51
248.381728
  0
ARC
  5
2DD
100
AcDbEntity
  8
0
370
    -3
  6
Continuous
100
AcDbCircle
 10
-492.948208
 20
-16.838535
 30
0.0
 40
1.0
100
AcDbArc
 50
300.0
 51
39.594068
  0
LINE
  5
2DE
100
AcDbEntity
  8
0
370
    -3
  6
Continuous
100
AcDbLine
 10
-492.448208
 20
-17.704561
 30
0.0
 11
-495.089443
 21
-19.229479
 31
0.0
  0
ARC
  5
2DF
100
AcDbEntity
  8
0
370
    -3
  6
Continuous
100
AcDbCircle
 10
-495.589443
 20
-18.363453
 30
0.0
 40
1.0
100
AcDbArc
 50
221.212271
 51
300.0
  0
LINE
  5
2E0
100
AcDbEntity
  8
0
370
    -3
  6
Continuous
100
AcDbLine
 10
-499.988066
 20
-22.057701
 30
0.0
 11
-502.731842
 21
-23.64182
 31
0.0
  0
ARC
  5
2E1
100
AcDbEntity
  8
0
370
    -3
  6
Continuous
100
AcDbCircle
 10
-503.231842
 20
-22.775795
 30
0.0
 40
1.0
100
AcDbArc
 50
231.618272
 51
300.0
  0
ARC
  5
2E2
100
AcDbEntity
  8
0
370
    -3
  6
Continuous
100
AcDbCircle
 10
-480.721417
 20
-9.779395
 30
0.0
 40
1.0
100
AcDbArc
 50
215.73917
 51
300.0
  0
LINE
  5
2E3
100
AcDbEntity
  8
0
370
    -3
  6
Continuous
100
AcDbLine
 10
-477.611293
 20
-9.138464
 30
0.0
 11
-480.221417
 21
-10.64542
 31
0.0
  0
ARC
  5
2E4
100
AcDbEntity
  8
0
370
    -3
  6
Continuous
100
AcDbCircle
 10
-478.111293
 20
-8.272439
 30
0.0
 40
1.0
100
AcDbArc
 50
300.0
 51
35.284733
  0
ARC
  5
2E5
100
AcDbEntity
  8
0
370
    -3
  6
Continuous
100
AcDbCircle
 10
-488.131745
 20
-14.05775
 30
0.0
 40
1.0
100
AcDbArc
 50
217.589542
 51
300.0
  0
LINE
  5
2E6
100
AcDbEntity
  8
0
370
    -3
  6
Continuous
100
AcDbLine
 10
-485.01307
 20
-13.411882
 30
0.0
 11
-487.631745
 21
-14.923775
 31
0.0
  0
ARC
  5
2E7
100
AcDbEntity
  8
0
370
    -3
  6
Continuous
100
AcDbCircle
 10
-485.51307
 20
-12.545857
 30
0.0
 40
1.0
100
AcDbArc
 50
300.0
 51
36.813854
  0
ARC
  5
2E8
100
AcDbEntity
  8
0
370
    -3
  6
Continuous
100
AcDbCircle
 10
-505.630371
 20
7.615708
 30
0.0
 40
1.0
100
AcDbArc
 50
84.715267
 51
180.0
  0
LINE
  5
2E9
100
AcDbEntity
  8
0
370
    -3
  6
Continuous
100
AcDbLine
 10
-506.630371
 20
7.615708
 30
0.0
 11
-506.630371
 21
4.601796
 31
0.0
  0
ARC
  5
2EA
100
AcDbEntity
  8
0
370
    -3
  6
Continuous
100
AcDbCircle
 10
-505.630371
 20
4.601796
 30
0.0
 40
1.0
100
AcDbArc
 50
180.0
 51
264.26083
  0
ARC
  5
2EB
100
AcDbEntity
  8
0
370
    -3
  6
Continuous
100
AcDbCircle
 10
-505.630371
 20
-0.931127
 30
0.0
 40
1.0
100
AcDbArc
 50
83.186146
 51
180.0
  0
LINE
  5
2EC
100
AcDbEntity
  8
0
370
    -3
  6
Continuous
100
AcDbLine
 10
-506.630371
 20
-0.931127
 30
0.0
 11
-506.630371
 21
-3.954913
 31
0.0
  0
ARC
  5
2ED
100
AcDbEntity
  8
0
370
    -3
  6
Continuous
100
AcDbCircle
 10
-505.630371
 20
-3.954913
 30
0.0
 40
1.0
100
AcDbArc
 50
180.0
 51
262.410458
  0
ARC
  5
2EE
100
AcDbEntity
  8
0
370
    -3
  6
Continuous
100
AcDbCircle
 10
-505.630371
 20
-9.516485
 30
0.0
 40
1.0
100
AcDbArc
 50
80.405932
 51
180.0
  0
LINE
  5
2EF
100
AcDbEntity
  8
0
370
    -3
  6
Continuous
100
AcDbLine
 10
-506.630371
 20
-9.516485
 30
0.0
 11
-506.630371
 21
-12.56632
 31
0.0
  0
ARC
  5
2F0
100
AcDbEntity
  8
0
370
    -3
  6
Continuous
100
AcDbCircle
 10
-505.630371
 20
-12.56632
 30
0.0
 40
1.0
100
AcDbArc
 50
180.0
 51
258.787729
  0
ARC
  5
2F1
100
AcDbEntity
  8
0
370
    -3
  6
Continuous
100
AcDbCircle
 10
-509.130371
 20
316.377236
 30
0.0
 40
390.797
100
AcDbArc
 50
270.0
 51
274.529193
  0
ARC
  5
2F2
100
AcDbEntity
  8
0
370
    -3
  6
Continuous
100
AcDbCircle
 10
-479.117927
 20
-62.435717
 30
0.0
 40
10.797
100
AcDbArc
 50
274.529945
 51
315.0
  0
LINE
  5
2F3
100
AcDbEntity
  8
0
370
    -3
  6
Continuous
100
AcDbLine
 10
-469.30455
 20
-67.891603
 30
0.0
 11
-471.483295
 21
-70.070349
 31
0.0
  0
ARC
  5
2F4
100
AcDbEntity
  8
0
370
    -3
  6
Continuous
100
AcDbCircle
 10
-491.081317
 20
-46.114835
 30
0.0
 40
30.797
100
AcDbArc
 50
315.0
 51
357.469876
  0
ARC
  5
2F5
100
AcDbEntity
  8
0
370
    -3
  6
Continuous
100
AcDbCircle
 10
-850.730371
 20
-30.222764
 30
0.0
 40
390.797
100
AcDbArc
 50
357.470639
 51
0.0
  0
ARC
  5
2F6
100
AcDbEntity
  8
0
370
    -3
  6
Continuous
100
AcDbCircle
 10
-491.081317
 20
-14.330693
 30
0.0
 40
30.797
100
AcDbArc
 50
2.530124
 51
45.0
  0
LINE
  5
2F7
100
AcDbEntity
  8
0
370
    -3
  6
Continuous
100
AcDbLine
 10
-469.30455
 20
7.446075
 30
0.0
 11
-471.483295
 21
9.624821
 31
0.0
  0
ARC
  5
2F8
100
AcDbEntity
  8
0
370
    -3
  6
Continuous
100
AcDbCircle
 10
-479.117927
 20
1.990189
 30
0.0
 40
10.797
100
AcDbArc
 50
45.0
 51
85.470055
  0
ARC
  5
2F9
100
AcDbEntity
  8
0
370
    -3
  6
Continuous
100
AcDbCircle
 10
-509.130371
 20
-376.822764
 30
0.0
 40
390.797
100
AcDbArc
 50
85.470807
 51
90.0
  0
ARC
  5
2FA
100
AcDbEntity
  8
0
370
    -3
  6
Continuous
100
AcDbCircle
 10
-552.546728
 20
13.193592
 30
0.0
 40
6.099999
100
AcDbArc
 50
84.601928
 51
185.398089
  0
POINT
  5
2FB
100
AcDbEntity
  8
0
370
    -3
  6
Continuous
100
AcDbPoint
 10
-554.809469
 20
15.456334
 30
0.0
  0
LINE
  5
2FC
100
AcDbEntity
  8
0
370
    -3
  6
Continuous
100
AcDbLine
 10
-558.44601
 20
12.385479
 30
0.0
 11
-551.76891
 21
19.062579
 31
0.0
  0
LINE
  5
2FD
100
AcDbEntity
  8
0
370
    -3
  6
Continuous
100
AcDbLine
 10
-558.132871
 20
12.132932
 30
0.0
 11
-558.619675
 21
12.619736
 31
0.0
  0
LINE
  5
2FE
100
AcDbEntity
  8
0
370
    -3
  6
Continuous
100
AcDbLine
 10
-551.486068
 20
18.779736
 30
0.0
 11
-551.972871
 21
19.266539
 31
0.0
  0
LINE
  5
2FF
100
AcDbEntity
  8
0
370
    -3
  6
Continuous
100
AcDbLine
 10
-555.887961
 20
14.377843
 30
0.0
 11
-553.709215
 21
16.556588
 31
0.0
  0
LINE
  5
300
100
AcDbEntity
  8
0
370
    -3
  6
Continuous
100
AcDbLine
 10
-558.132871
 20
12.132932
 30
0.0
 11
-551.486068
 21
18.779736
 31
0.0
  0
ARC
  5
301
100
AcDbEntity
  8
0
370
    -3
  6
Continuous
100
AcDbCircle
 10
-465.714015
 20
13.193592
 30
0.0
 40
6.099999
100
AcDbArc
 50
354.601911
 51
95.398072
  0
LINE
  5
302
100
AcDbEntity
  8
0
370
    -3
  6
Continuous
100
AcDbLine
 10
-460.127872
 20
12.132932
 30
0.0
 11
-466.774675
 21
18.779736
 31
0.0
  0
LINE
  5
303
100
AcDbEntity
  8
0
370
    -3
  6
Continuous
100
AcDbLine
 10
-459.814733
 20
12.385479
 30
0.0
 11
-466.491832
 21
19.062579
 31
0.0
  0
LINE
  5
304
100
AcDbEntity
  8
0
370
    -3
  6
Continuous
100
AcDbLine
 10
-466.774675
 20
18.779736
 30
0.0
 11
-466.287872
 21
19.266539
 31
0.0
  0
LINE
  5
305
100
AcDbEntity
  8
0
370
    -3
  6
Continuous
100
AcDbLine
 10
-460.127872
 20
12.132932
 30
0.0
 11
-459.641068
 21
12.619736
 31
0.0
  0
ARC
  5
306
100
AcDbEntity
  8
0
370
    -3
  6
Continuous
100
AcDbCircle
 10
-465.714015
 20
-73.639121
 30
0.0
 40
6.099999
100
AcDbArc
 50
264.601928
 51
5.398089
  0
LINE
  5
307
100
AcDbEntity
  8
0
370
    -3
  6
Continuous
100
AcDbLine
 10
-460.127872
 20
-72.57846
 30
0.0
 11
-466.774675
 21
-79.225264
 31
0.0
  0
LINE
  5
308
100
AcDbEntity
  8
0
370
    -3
  6
Continuous
100
AcDbLine
 10
-459.814733
 20
-72.831007
 30
0.0
 11
-466.491832
 21
-79.508107
 31
0.0
  0
LINE
  5
309
100
AcDbEntity
  8
0
370
    -3
  6
Continuous
100
AcDbLine
 10
-466.774675
 20
-79.225264
 30
0.0
 11
-466.287872
 21
-79.712067
 31
0.0
  0
LINE
  5
30A
100
AcDbEntity
  8
0
370
    -3
  6
Continuous
100
AcDbLine
 10
-460.127872
 20
-72.57846
 30
0.0
 11
-459.641068
 21
-73.065264
 31
0.0
  0
ARC
  5
30B
100
AcDbEntity
  8
0
370
    -3
  6
Continuous
100
AcDbCircle
 10
-552.546728
 20
-73.639121
 30
0.0
 40
6.099999
100
AcDbArc
 50
174.601911
 51
275.398072
  0
LINE
  5
30C
100
AcDbEntity
  8
0
370
    -3
  6
Continuous
100
AcDbLine
 10
-558.44601
 20
-72.831007
 30
0.0
 11
-551.76891
 21
-79.508107
 31
0.0
  0
LINE
  5
30D
100
AcDbEntity
  8
0
370
    -3
  6
Continuous
100
AcDbLine
 10
-558.132871
 20
-72.57846
 30
0.0
 11
-558.619675
 21
-73.065264
 31
0.0
  0
LINE
  5
30E
100
AcDbEntity
  8
0
370
    -3
  6
Continuous
100
AcDbLine
 10
-558.132871
 20
-72.57846
 30
0.0
 11
-551.486068
 21
-79.225264
 31
0.0
  0
LINE
  5
30F
100
AcDbEntity
  8
0
370
    -3
  6
Continuous
100
AcDbLine
 10
-551.486068
 20
-79.225264
 30
0.0
 11
-551.972871
 21
-79.712067
 31
0.0
  0
LINE
  5
310
100
AcDbEntity
  8
0
370
    -3
  6
CENTER
100
AcDbLine
 10
-379.864284
 20
-30.222764
 30
0.0
 11
-579.150049
 21
-30.222764
 31
0.0
  0
LINE
  5
311
100
AcDbEntity
  8
0
370
    -3
  6
Continuous
100
AcDbLine
 10
-426.630371
 20
-108.722764
 30
0.0
 11
-454.630371
 21
-108.722764
 31
0.0
  0
LINE
  5
312
100
AcDbEntity
  8
0
370
    -3
  6
Continuous
100
AcDbLine
 10
-563.630371
 20
-108.722764
 30
0.0
 11
-591.630371
 21
-108.722764
 31
0.0
  0
LINE
  5
313
100
AcDbEntity
  8
0
370
    -3
  6
Continuous
100
AcDbLine
 10
-563.630371
 20
-109.222764
 30
0.0
 11
-591.630371
 21
-109.222764
 31
0.0
  0
ARC
  5
314
100
AcDbEntity
  8
0
370
    -3
  6
Continuous
100
AcDbCircle
 10
-591.630371
 20
-89.026612
 30
0.0
 40
3.0
100
AcDbArc
 50
300.0
 51
0.0
  0
ARC
  5
315
100
AcDbEntity
  8
0
370
    -3
  6
Continuous
100
AcDbCircle
 10
-426.630371
 20
-89.026612
 30
0.0
 40
3.0
100
AcDbArc
 50
180.0
 51
240.0
  0
ARC
  5
316
100
AcDbEntity
  8
0
370
    -3
  6
Continuous
100
AcDbCircle
 10
-570.976956
 20
-94.222764
 30
0.0
 40
3.0
100
AcDbArc
 50
45.980317
 51
90.0
  0
ARC
  5
317
100
AcDbEntity
  8
0
370
    -3
  6
Continuous
100
AcDbCircle
 10
-566.630371
 20
-98.154715
 30
0.0
 40
3.0
100
AcDbArc
 50
0.0
 51
49.754246
  0
ARC
  5
318
100
AcDbEntity
  8
0
370
    -3
  6
Continuous
100
AcDbCircle
 10
-451.630371
 20
-98.154715
 30
0.0
 40
3.0
100
AcDbArc
 50
130.245754
 51
180.0
  0
ARC
  5
319
100
AcDbEntity
  8
0
370
    -3
  6
Continuous
100
AcDbCircle
 10
-447.283787
 20
-94.222764
 30
0.0
 40
3.0
100
AcDbArc
 50
90.0
 51
134.019683
  0
LINE
  5
31A
100
AcDbEntity
  8
0
370
    -3
  6
Continuous
100
AcDbLine
 10
-591.630371
 20
-94.222764
 30
0.0
 11
-591.630371
 21
-109.222764
 31
0.0
  0
LINE
  5
31B
100
AcDbEntity
  8
0
370
    -3
  6
CENTER
100
AcDbLine
 10
-579.130371
 20
-112.303268
 30
0.0
 11
-579.130371
 21
-82.067447
 31
0.0
  0
LINE
  5
31C
100
AcDbEntity
  8
0
370
    -3
  6
Continuous
100
AcDbLine
 10
-563.630371
 20
-109.222764
 30
0.0
 11
-563.630371
 21
-98.154715
 31
0.0
  0
ARC
  5
31D
100
AcDbEntity
  8
0
370
    -3
  6
Continuous
100
AcDbCircle
 10
-585.630371
 20
-75.706278
 30
0.0
 40
3.0
100
AcDbArc
 50
30.733843
 51
180.0
  0
ARC
  5
31E
100
AcDbEntity
  8
0
370
    -3
  6
Continuous
100
AcDbCircle
 10
-509.130371
 20
-399.222764
 30
0.0
 40
450.0
100
AcDbArc
 50
87.841597
 51
90.0
  0
LINE
  5
31F
100
AcDbEntity
  8
0
370
    -3
  6
Continuous
100
AcDbLine
 10
-588.630371
 20
-14.495913
 30
0.0
 11
-588.630371
 21
-89.026612
 31
0.0
  0
ARC
  5
320
100
AcDbEntity
  8
0
370
    -3
  6
Continuous
100
AcDbCircle
 10
-523.630371
 20
-14.495913
 30
0.0
 40
65.0
100
AcDbArc
 50
92.158403
 51
180.0
  0
ARC
  5
321
100
AcDbEntity
  8
0
370
    -3
  6
Continuous
100
AcDbCircle
 10
-578.630371
 20
-52.555475
 30
0.0
 40
10.0
100
AcDbArc
 50
180.0
 51
197.813976
  0
ARC
  5
322
100
AcDbEntity
  8
0
370
    -3
  6
Continuous
100
AcDbCircle
 10
-509.130371
 20
-399.222764
 30
0.0
 40
450.0
100
AcDbArc
 50
90.0
 51
92.158403
  0
LINE
  5
323
100
AcDbEntity
  8
0
370
    -3
  6
CENTER
100
AcDbLine
 10
-439.130371
 20
-112.303268
 30
0.0
 11
-439.130371
 21
-82.067447
 31
0.0
  0
LINE
  5
324
100
AcDbEntity
  8
0
370
    -3
  6
Continuous
100
AcDbLine
 10
-456.630371
 20
-107.222764
 30
0.0
 11
-509.130371
 21
-107.222764
 31
0.0
  0
ARC
  5
325
100
AcDbEntity
  8
0
370
    -3
  6
Continuous
100
AcDbCircle
 10
-456.630371
 20
-109.222764
 30
0.0
 40
2.0
100
AcDbArc
 50
0.0
 51
90.0
  0
ARC
  5
326
100
AcDbEntity
  8
0
370
    -3
  6
Continuous
100
AcDbCircle
 10
-466.130371
 20
-101.722764
 30
0.0
 40
8.0
100
AcDbArc
 50
316.567463
 51
11.940335
  0
ARC
  5
327
100
AcDbEntity
  8
0
370
    -3
  6
Continuous
100
AcDbCircle
 10
-509.130371
 20
-30.222764
 30
0.0
 40
83.0
100
AcDbArc
 50
197.813976
 51
230.428105
  0
ARC
  5
328
100
AcDbEntity
  8
0
370
    -3
  6
Continuous
100
AcDbCircle
 10
-552.130371
 20
-101.722764
 30
0.0
 40
8.0
100
AcDbArc
 50
168.059665
 51
223.432537
  0
ARC
  5
329
100
AcDbEntity
  8
0
370
    -3
  6
Continuous
100
AcDbCircle
 10
-509.130371
 20
-30.222764
 30
0.0
 40
86.0
100
AcDbArc
 50
210.733843
 51
229.754246
  0
ARC
  5
32A
100
AcDbEntity
  8
0
370
    -3
  6
Continuous
100
AcDbCircle
 10
-561.630371
 20
-109.222764
 30
0.0
 40
2.0
100
AcDbArc
 50
90.0
 51
180.0
  0
LINE
  5
32B
100
AcDbEntity
  8
0
370
    -3
  6
Continuous
100
AcDbLine
 10
-561.630371
 20
-107.222764
 30
0.0
 11
-509.130371
 21
-107.222764
 31
0.0
  0
LINE
  5
32C
100
AcDbEntity
  8
0
370
    -3
  6
Continuous
100
AcDbLine
 10
-429.630371
 20
-91.222764
 30
0.0
 11
-447.283787
 21
-91.222764
 31
0.0
  0
LINE
  5
32D
100
AcDbEntity
  8
0
370
    -3
  6
Continuous
100
AcDbLine
 10
-588.630371
 20
-91.222764
 30
0.0
 11
-570.976956
 21
-91.222764
 31
0.0
  0
ARC
  5
32E
100
AcDbEntity
  8
0
370
    -3
  6
Continuous
100
AcDbCircle
 10
-429.630371
 20
-94.222764
 30
0.0
 40
3.0
100
AcDbArc
 50
0.0
 51
90.0
  0
ARC
  5
32F
100
AcDbEntity
  8
0
370
    -3
  6
Continuous
100
AcDbCircle
 10
-588.630371
 20
-94.222764
 30
0.0
 40
3.0
100
AcDbArc
 50
90.0
 51
180.0
  0
ARC
  5
330
100
AcDbEntity
  8
0
370
    -3
  6
Continuous
100
AcDbCircle
 10
-452.433281
 20
-98.826262
 30
0.0
 40
6.0
100
AcDbArc
 50
129.571895
 51
191.940335
  0
ARC
  5
331
100
AcDbEntity
  8
0
370
    -3
  6
Continuous
100
AcDbCircle
 10
-565.827461
 20
-98.826262
 30
0.0
 40
6.0
100
AcDbArc
 50
348.059665
 51
50.428105
  0
LINE
  5
332
100
AcDbEntity
  8
0
370
    -3
  6
Continuous
100
AcDbLine
 10
-426.630371
 20
-109.222764
 30
0.0
 11
-454.630371
 21
-109.222764
 31
0.0
  0
LINE
  5
333
100
AcDbEntity
  8
0
370
    -3
  6
Continuous
100
AcDbLine
 10
-426.630371
 20
-94.222764
 30
0.0
 11
-426.630371
 21
-109.222764
 31
0.0
  0
LINE
  5
334
100
AcDbEntity
  8
0
370
    -3
  6
Continuous
100
AcDbLine
 10
-454.630371
 20
-109.222764
 30
0.0
 11
-454.630371
 21
-98.154715
 31
0.0
  0
ARC
  5
335
100
AcDbEntity
  8
0
370
    -3
  6
Continuous
100
AcDbCircle
 10
-585.216275
 20
-1.222764
 30
0.0
 40
2.0
100
AcDbArc
 50
167.837508
 51
270.0
  0
LINE
  5
336
100
AcDbEntity
  8
0
370
    -3
  6
Continuous
100
AcDbLine
 10
-585.216275
 20
-3.222764
 30
0.0
 11
-579.130371
 21
-3.222764
 31
0.0
  0
LINE
  5
337
100
AcDbEntity
  8
0
370
    -3
  6
Continuous
100
AcDbLine
 10
-586.630371
 20
-19.222764
 30
0.0
 11
-579.130371
 21
-19.222764
 31
0.0
  0
ARC
  5
338
100
AcDbEntity
  8
0
370
    -3
  6
Continuous
100
AcDbCircle
 10
-586.630371
 20
-21.222764
 30
0.0
 40
2.0
100
AcDbArc
 50
90.0
 51
180.0
  0
ARC
  5
339
100
AcDbEntity
  8
0
370
    -3
  6
Continuous
100
AcDbCircle
 10
-579.130371
 20
-11.222764
 30
0.0
 40
8.0
100
AcDbArc
 50
270.0
 51
90.0
  0
ARC
  5
33A
100
AcDbEntity
  8
0
370
    -3
  6
Continuous
100
AcDbCircle
 10
-455.963785
 20
31.383223
 30
0.0
 40
5.0
100
AcDbArc
 50
49.876066
 51
158.520534
  0
ARC
  5
33B
100
AcDbEntity
  8
0
370
    -3
  6
Continuous
100
AcDbCircle
 10
-479.130371
 20
43.467438
 30
0.0
 40
5.0
100
AcDbArc
 50
0.0
 51
75.028809
  0
ARC
  5
33C
100
AcDbEntity
  8
0
370
    -3
  6
Continuous
100
AcDbCircle
 10
-478.130371
 20
-102.222764
 30
0.0
 40
5.0
100
AcDbArc
 50
270.0
 51
0.0
  0
ARC
  5
33D
100
AcDbEntity
  8
0
370
    -3
  6
Continuous
100
AcDbCircle
 10
-460.36107
 20
-91.200637
 30
0.0
 40
5.0
100
AcDbArc
 50
241.263962
 51
316.112971
  0
ARC
  5
33E
100
AcDbEntity
  8
0
370
    -3
  6
Continuous
100
AcDbCircle
 10
-557.899673
 20
-91.200637
 30
0.0
 40
5.0
100
AcDbArc
 50
223.887029
 51
298.736038
  0
ARC
  5
33F
100
AcDbEntity
  8
0
370
    -3
  6
Continuous
100
AcDbCircle
 10
-540.130371
 20
-102.222764
 30
0.0
 40
5.0
100
AcDbArc
 50
180.0
 51
270.0
  0
ARC
  5
340
100
AcDbEntity
  8
0
370
    -3
  6
Continuous
100
AcDbCircle
 10
-562.296958
 20
31.383223
 30
0.0
 40
5.0
100
AcDbArc
 50
21.479466
 51
130.123934
  0
ARC
  5
341
100
AcDbEntity
  8
0
370
    -3
  6
Continuous
100
AcDbCircle
 10
-539.130371
 20
43.467438
 30
0.0
 40
5.0
100
AcDbArc
 50
104.971191
 51
180.0
  0
LINE
  5
342
100
AcDbEntity
  8
0
370
    -3
  6
Continuous
100
AcDbLine
 10
-545.130371
 20
-101.722764
 30
0.0
 11
-545.130371
 21
-102.222764
 31
0.0
  0
ARC
  5
343
100
AcDbEntity
  8
0
370
    -3
  6
Continuous
100
AcDbCircle
 10
-552.130371
 20
-101.722764
 30
0.0
 40
7.0
100
AcDbArc
 50
0.0
 51
118.736038
  0
ARC
  5
344
100
AcDbEntity
  8
0
370
    -3
  6
Continuous
100
AcDbCircle
 10
-552.130371
 20
-101.722764
 30
0.0
 40
8.0
100
AcDbArc
 50
168.059665
 51
223.432537
  0
ARC
  5
345
100
AcDbEntity
  8
0
370
    -3
  6
Continuous
100
AcDbCircle
 10
-565.827461
 20
-98.826262
 30
0.0
 40
6.0
100
AcDbArc
 50
348.059665
 51
50.428105
  0
LINE
  5
346
100
AcDbEntity
  8
0
370
    -3
  6
Continuous
100
AcDbLine
 10
-557.939846
 20
-107.222764
 30
0.0
 11
-509.130371
 21
-107.222764
 31
0.0
  0
ARC
  5
347
100
AcDbEntity
  8
0
370
    -3
  6
Continuous
100
AcDbCircle
 10
-452.433281
 20
-98.826262
 30
0.0
 40
6.0
100
AcDbArc
 50
129.571895
 51
191.940335
  0
ARC
  5
348
100
AcDbEntity
  8
0
370
    -3
  6
Continuous
100
AcDbCircle
 10
-466.130371
 20
-101.722764
 30
0.0
 40
8.0
100
AcDbArc
 50
316.567463
 51
11.940335
  0
LINE
  5
349
100
AcDbEntity
  8
0
370
    -3
  6
Continuous
100
AcDbLine
 10
-460.320896
 20
-107.222764
 30
0.0
 11
-509.130371
 21
-107.222764
 31
0.0
  0
LINE
  5
34A
100
AcDbEntity
  8
0
370
    -3
  6
Continuous
100
AcDbLine
 10
-473.130371
 20
-101.722764
 30
0.0
 11
-473.130371
 21
-102.222764
 31
0.0
  0
ARC
  5
34B
100
AcDbEntity
  8
0
370
    -3
  6
Continuous
100
AcDbCircle
 10
-466.130371
 20
-101.722764
 30
0.0
 40
7.0
100
AcDbArc
 50
61.263962
 51
180.0
  0
ARC
  5
34C
100
AcDbEntity
  8
0
370
    -3
  6
Continuous
100
AcDbCircle
 10
-581.130371
 20
-30.222764
 30
0.0
 40
7.0
100
AcDbArc
 50
270.0
 51
90.0
  0
ARC
  5
34D
100
AcDbEntity
  8
0
370
    -3
  6
Continuous
100
AcDbCircle
 10
-587.630371
 20
-22.222764
 30
0.0
 40
1.0
100
AcDbArc
 50
180.0
 51
270.0
  0
ARC
  5
34E
100
AcDbEntity
  8
0
370
    -3
  6
Continuous
100
AcDbCircle
 10
-587.630371
 20
-38.222764
 30
0.0
 40
1.0
100
AcDbArc
 50
90.0
 51
180.0
  0
ARC
  5
34F
100
AcDbEntity
  8
0
370
    -3
  6
Continuous
100
AcDbCircle
 10
-551.130371
 20
35.777236
 30
0.0
 40
7.0
100
AcDbArc
 50
201.479466
 51
0.0
  0
ARC
  5
350
100
AcDbEntity
  8
0
370
    -3
  6
Continuous
100
AcDbCircle
 10
-467.130371
 20
35.777236
 30
0.0
 40
7.0
100
AcDbArc
 50
180.0
 51
338.520534
  0
ARC
  5
351
100
AcDbEntity
  8
0
370
    -3
  6
Continuous
100
AcDbCircle
 10
-566.772507
 20
20.348304
 30
0.0
 40
3.0
100
AcDbArc
 50
45.0
 51
135.0
  0
ARC
  5
352
100
AcDbEntity
  8
0
370
    -3
  6
Continuous
100
AcDbCircle
 10
-559.701439
 20
27.419372
 30
0.0
 40
3.0
100
AcDbArc
 50
135.0
 51
225.0
  0
ARC
  5
353
100
AcDbEntity
  8
0
370
    -3
  6
Continuous
100
AcDbCircle
 10
-458.559304
 20
27.419372
 30
0.0
 40
3.0
100
AcDbArc
 50
315.0
 51
45.0
  0
ARC
  5
354
100
AcDbEntity
  8
0
370
    -3
  6
Continuous
100
AcDbCircle
 10
-451.488236
 20
20.348304
 30
0.0
 40
3.0
100
AcDbArc
 50
45.0
 51
135.0
  0
ARC
  5
355
100
AcDbEntity
  8
0
370
    -3
  6
Continuous
100
AcDbCircle
 10
-458.559304
 20
-87.8649
 30
0.0
 40
3.0
100
AcDbArc
 50
315.0
 51
45.0
  0
ARC
  5
356
100
AcDbEntity
  8
0
370
    -3
  6
Continuous
100
AcDbCircle
 10
-451.488236
 20
-80.793832
 30
0.0
 40
3.0
100
AcDbArc
 50
225.0
 51
315.0
  0
ARC
  5
357
100
AcDbEntity
  8
0
370
    -3
  6
Continuous
100
AcDbCircle
 10
-559.701439
 20
-87.8649
 30
0.0
 40
3.0
100
AcDbArc
 50
135.0
 51
225.0
  0
ARC
  5
358
100
AcDbEntity
  8
0
370
    -3
  6
Continuous
100
AcDbCircle
 10
-566.772507
 20
-80.793832
 30
0.0
 40
3.0
100
AcDbArc
 50
225.0
 51
315.0
  0
LINE
  5
359
100
AcDbEntity
  8
0
370
    -3
  6
CENTER
100
AcDbLine
 10
-493.415717
 20
-4.222764
 30
0.0
 11
-524.518887
 21
-4.222764
 31
0.0
  0
LINE
  5
35A
100
AcDbEntity
  8
0
370
    -3
  6
Continuous
100
AcDbLine
 10
-587.630371
 20
-23.222764
 30
0.0
 11
-581.130371
 21
-23.222764
 31
0.0
  0
LINE
  5
35B
100
AcDbEntity
  8
0
370
    -3
  6
Continuous
100
AcDbLine
 10
-587.630371
 20
-37.222764
 30
0.0
 11
-581.130371
 21
-37.222764
 31
0.0
  0
LINE
  5
35C
100
AcDbEntity
  8
0
370
    -3
  6
Continuous
100
AcDbLine
 10
-544.130371
 20
43.467438
 30
0.0
 11
-544.130371
 21
35.777236
 31
0.0
  0
LINE
  5
35D
100
AcDbEntity
  8
0
370
    -3
  6
Continuous
100
AcDbLine
 10
-474.130371
 20
43.467438
 30
0.0
 11
-474.130371
 21
35.777236
 31
0.0
  0
LINE
  5
35E
100
AcDbEntity
  8
0
370
    -3
  6
Continuous
100
AcDbLine
 10
-464.630372
 20
34.333862
 30
0.0
 11
-467.130376
 21
32.890488
 31
0.0
  0
LINE
  5
35F
100
AcDbEntity
  8
0
370
    -3
  6
Continuous
100
AcDbLine
 10
-467.130367
 20
38.663984
 30
0.0
 11
-469.630371
 21
37.220613
 31
0.0
  0
LINE
  5
360
100
AcDbEntity
  8
0
370
    -3
  6
Continuous
100
AcDbLine
 10
-467.130377
 20
32.890489
 30
0.0
 11
-469.630369
 21
34.333864
 31
0.0
  0
LINE
  5
361
100
AcDbEntity
  8
0
370
    -3
  6
Continuous
100
AcDbLine
 10
-467.130367
 20
38.663985
 30
0.0
 11
-464.630373
 21
37.220608
 31
0.0
  0
LINE
  5
362
100
AcDbEntity
  8
0
370
    -3
  6
Continuous
100
AcDbLine
 10
-464.630374
 20
37.220608
 30
0.0
 11
-464.630373
 21
34.333862
 31
0.0
  0
LINE
  5
363
100
AcDbEntity
  8
0
370
    -3
  6
Continuous
100
AcDbLine
 10
-469.630369
 20
34.333864
 30
0.0
 11
-469.63037
 21
37.220614
 31
0.0
  0
CIRCLE
  5
364
100
AcDbEntity
  8
0
370
    -3
  6
Continuous
100
AcDbCircle
 10
-467.130371
 20
35.777236
 30
0.0
 40
5.0
  0
LINE
  5
365
100
AcDbEntity
  8
0
370
    -3
  6
Continuous
100
AcDbLine
 10
-553.630371
 20
34.333862
 30
0.0
 11
-551.130366
 21
32.890488
 31
0.0
  0
LINE
  5
366
100
AcDbEntity
  8
0
370
    -3
  6
Continuous
100
AcDbLine
 10
-551.130376
 20
38.663984
 30
0.0
 11
-548.630371
 21
37.220613
 31
0.0
  0
LINE
  5
367
100
AcDbEntity
  8
0
370
    -3
  6
Continuous
100
AcDbLine
 10
-551.130366
 20
32.890489
 30
0.0
 11
-548.630374
 21
34.333864
 31
0.0
  0
LINE
  5
368
100
AcDbEntity
  8
0
370
    -3
  6
Continuous
100
AcDbLine
 10
-551.130376
 20
38.663985
 30
0.0
 11
-553.63037
 21
37.220608
 31
0.0
  0
LINE
  5
369
100
AcDbEntity
  8
0
370
    -3
  6
Continuous
100
AcDbLine
 10
-553.630369
 20
37.220608
 30
0.0
 11
-553.63037
 21
34.333862
 31
0.0
  0
LINE
  5
36A
100
AcDbEntity
  8
0
370
    -3
  6
Continuous
100
AcDbLine
 10
-548.630374
 20
34.333864
 30
0.0
 11
-548.630373
 21
37.220614
 31
0.0
  0
CIRCLE
  5
36B
100
AcDbEntity
  8
0
370
    -3
  6
Continuous
100
AcDbCircle
 10
-551.130371
 20
35.777236
 30
0.0
 40
5.0
  0
LINE
  5
36C
100
AcDbEntity
  8
0
370
    -3
  6
Continuous
100
AcDbLine
 10
-583.630371
 20
-31.666138
 30
0.0
 11
-581.130366
 21
-33.109512
 31
0.0
  0
LINE
  5
36D
100
AcDbEntity
  8
0
370
    -3
  6
Continuous
100
AcDbLine
 10
-581.130376
 20
-27.336016
 30
0.0
 11
-578.630371
 21
-28.779387
 31
0.0
  0
LINE
  5
36E
100
AcDbEntity
  8
0
370
    -3
  6
Continuous
100
AcDbLine
 10
-581.130366
 20
-33.109511
 30
0.0
 11
-578.630374
 21
-31.666136
 31
0.0
  0
LINE
  5
36F
100
AcDbEntity
  8
0
370
    -3
  6
Continuous
100
AcDbLine
 10
-581.130376
 20
-27.336015
 30
0.0
 11
-583.63037
 21
-28.779392
 31
0.0
  0
LINE
  5
370
100
AcDbEntity
  8
0
370
    -3
  6
Continuous
100
AcDbLine
 10
-583.630369
 20
-28.779392
 30
0.0
 11
-583.63037
 21
-31.666138
 31
0.0
  0
LINE
  5
371
100
AcDbEntity
  8
0
370
    -3
  6
Continuous
100
AcDbLine
 10
-578.630374
 20
-31.666136
 30
0.0
 11
-578.630373
 21
-28.779386
 31
0.0
  0
CIRCLE
  5
372
100
AcDbEntity
  8
0
370
    -3
  6
Continuous
100
AcDbCircle
 10
-581.130371
 20
-30.222764
 30
0.0
 40
5.0
  0
LINE
  5
373
100
AcDbEntity
  8
0
370
    -3
  6
Continuous
100
AcDbLine
 10
-463.630372
 20
-103.166138
 30
0.0
 11
-466.130376
 21
-104.609512
 31
0.0
  0
LINE
  5
374
100
AcDbEntity
  8
0
370
    -3
  6
Continuous
100
AcDbLine
 10
-466.130367
 20
-98.836016
 30
0.0
 11
-468.630371
 21
-100.279387
 31
0.0
  0
LINE
  5
375
100
AcDbEntity
  8
0
370
    -3
  6
Continuous
100
AcDbLine
 10
-466.130377
 20
-104.609511
 30
0.0
 11
-468.630369
 21
-103.166136
 31
0.0
  0
LINE
  5
376
100
AcDbEntity
  8
0
370
    -3
  6
Continuous
100
AcDbLine
 10
-466.130367
 20
-98.836015
 30
0.0
 11
-463.630373
 21
-100.279392
 31
0.0
  0
LINE
  5
377
100
AcDbEntity
  8
0
370
    -3
  6
Continuous
100
AcDbLine
 10
-463.630374
 20
-100.279392
 30
0.0
 11
-463.630373
 21
-103.166138
 31
0.0
  0
LINE
  5
378
100
AcDbEntity
  8
0
370
    -3
  6
Continuous
100
AcDbLine
 10
-468.630369
 20
-103.166136
 30
0.0
 11
-468.63037
 21
-100.279386
 31
0.0
  0
CIRCLE
  5
379
100
AcDbEntity
  8
0
370
    -3
  6
Continuous
100
AcDbCircle
 10
-466.130371
 20
-101.722764
 30
0.0
 40
5.0
  0
LINE
  5
37A
100
AcDbEntity
  8
0
370
    -3
  6
Continuous
100
AcDbLine
 10
-554.630371
 20
-103.166138
 30
0.0
 11
-552.130366
 21
-104.609512
 31
0.0
  0
LINE
  5
37B
100
AcDbEntity
  8
0
370
    -3
  6
Continuous
100
AcDbLine
 10
-552.130376
 20
-98.836016
 30
0.0
 11
-549.630371
 21
-100.279387
 31
0.0
  0
LINE
  5
37C
100
AcDbEntity
  8
0
370
    -3
  6
Continuous
100
AcDbLine
 10
-552.130366
 20
-104.609511
 30
0.0
 11
-549.630374
 21
-103.166136
 31
0.0
  0
LINE
  5
37D
100
AcDbEntity
  8
0
370
    -3
  6
Continuous
100
AcDbLine
 10
-552.130376
 20
-98.836015
 30
0.0
 11
-554.63037
 21
-100.279392
 31
0.0
  0
LINE
  5
37E
100
AcDbEntity
  8
0
370
    -3
  6
Continuous
100
AcDbLine
 10
-554.630369
 20
-100.279392
 30
0.0
 11
-554.63037
 21
-103.166138
 31
0.0
  0
LINE
  5
37F
100
AcDbEntity
  8
0
370
    -3
  6
Continuous
100
AcDbLine
 10
-549.630374
 20
-103.166136
 30
0.0
 11
-549.630373
 21
-100.279386
 31
0.0
  0
CIRCLE
  5
380
100
AcDbEntity
  8
0
370
    -3
  6
Continuous
100
AcDbCircle
 10
-552.130371
 20
-101.722764
 30
0.0
 40
5.0
  0
MTEXT
  5
382
100
AcDbEntity
  8
0
370
    -3
  6
Continuous
100
AcDbMText
 10
-579.255066
 20
261.332733
 30
0.0
 40
15.0
 41
0.0
 71
     7
 72
     1
  1
\W0.63;三菱ギヤードモータ  
  7
ZU_SHPTB00001
 11
1.0
 21
0.0
 31
0.0
 73
     1
 44
1.0
  0
MTEXT
  5
383
100
AcDbEntity
  8
0
370
    -3
  6
Continuous
100
AcDbMText
 10
-579.255066
 20
261.332733
 30
0.0
 40
15.0
 41
0.0
 71
     7
 72
     1
  1
\W0.63;三菱ギヤードモータ  
  7
ZU_SHPTB00001
 11
1.0
 21
0.0
 31
0.0
 73
     1
 44
1.0
  0
MTEXT
  5
384
100
AcDbEntity
  8
0
370
    -3
  6
Continuous
100
AcDbMText
 10
-579.255066
 20
176.582703
 30
0.0
 40
15.0
 41
0.0
 71
     7
 72
     1
  1
\W0.43;SCALE\W0.72;  \W0.43;1/1
  7
ZU_SHPTB00001
 11
1.0
 21
0.0
 31
0.0
 73
     1
 44
1.0
  0
MTEXT
  5
385
100
AcDbEntity
  8
0
370
    -3
  6
Continuous
100
AcDbMText
 10
-579.255066
 20
210.482727
 30
0.0
 40
15.0
 41
0.0
 71
     7
 72
     1
  1
\W0.43;25-15r/min\W0.53;　
  7
ZU_SHPTB00001
 11
1.0
 21
0.0
 31
0.0
 73
     1
 44
1.0
  0
MTEXT
  5
386
100
AcDbEntity
  8
0
370
    -3
  6
Continuous
100
AcDbMText
 10
-579.255066
 20
193.532715
 30
0.0
 40
15.0
 41
0.0
 71
     7
 72
     1
  1
\W0.42;GEAR\W0.70; \W0.42;RATIO\W0.70;  \W0.42;1/120-1/200
  7
ZU_SHPTB00001
 11
1.0
 21
0.0
 31
0.0
 73
     1
 44
1.0
  0
MTEXT
  5
387
100
AcDbEntity
  8
0
370
    -3
  6
Continuous
100
AcDbMText
 10
-579.255066
 20
244.382721
 30
0.0
 40
15.0
 41
0.0
 71
     7
 72
     1
  1
\W0.48;GV-SB
  7
ZU_SHPTB00001
 11
1.0
 21
0.0
 31
0.0
 73
     1
 44
1.0
  0
MTEXT
  5
388
100
AcDbEntity
  8
0
370
    -3
  6
Continuous
100
AcDbMText
 10
-579.255066
 20
227.432709
 30
0.0
 40
15.0
 41
0.0
 71
     7
 72
     1
  1
\W0.43;0.4kW
  7
ZU_SHPTB00001
 11
1.0
 21
0.0
 31
0.0
 73
     1
 44
1.0
  0
LINE
  5
389
100
AcDbEntity
  8
0
370
    -3
  6
Continuous
100
AcDbLine
 10
48.756926
 20
-77.022764
 30
0.0
 11
74.928074
 21
-77.022764
 31
0.0
  0
ARC
  5
38A
100
AcDbEntity
  8
0
370
    -3
  6
Continuous
100
AcDbCircle
 10
48.756926
 20
-69.222764
 30
0.0
 40
7.8
100
AcDbArc
 50
208.12516
 51
270.0
  0
ELLIPSE
  5
38B
100
AcDbEntity
  8
0
370
    -3
  6
Continuous
100
AcDbEllipse
 10
42.842335
 20
-69.722764
 30
0.0
 11
0.0
 21
3.5
 31
0.0
210
0.0
220
0.0
230
1.0
 40
0.656603
 41
0.0
 42
6.2831853071795862
  0
LINE
  5
38C
100
AcDbEntity
  8
0
370
    -3
  6
Continuous
100
AcDbLine
 10
40.795054
 20
-71.312781
 30
0.0
 11
41.304881
 21
-69.722764
 31
0.0
  0
LINE
  5
38D
100
AcDbEntity
  8
0
370
    -3
  6
Continuous
100
AcDbLine
 10
41.304881
 20
-69.722764
 30
0.0
 11
42.354069
 21
-71.722764
 31
0.0
  0
LINE
  5
38E
100
AcDbEntity
  8
0
370
    -3
  6
Continuous
100
AcDbLine
 10
41.304881
 20
-69.722764
 30
0.0
 11
42.354069
 21
-67.722764
 31
0.0
  0
LINE
  5
38F
100
AcDbEntity
  8
0
370
    -3
  6
Continuous
100
AcDbLine
 10
40.795054
 20
-68.132747
 30
0.0
 11
41.304881
 21
-69.722764
 31
0.0
  0
ARC
  5
390
100
AcDbEntity
  8
0
370
    -3
  6
Continuous
100
AcDbCircle
 10
74.121184
 20
-64.972764
 30
0.0
 40
3.8
100
AcDbArc
 50
270.0
 51
282.25949
  0
LINE
  5
391
100
AcDbEntity
  8
0
370
    -3
  6
Continuous
100
AcDbLine
 10
74.121184
 20
-68.772764
 30
0.0
 11
49.610548
 21
-68.772764
 31
0.0
  0
ARC
  5
392
100
AcDbEntity
  8
0
370
    -3
  6
Continuous
100
AcDbCircle
 10
49.610548
 20
-61.972764
 30
0.0
 40
6.8
100
AcDbArc
 50
180.0
 51
270.0
  0
LINE
  5
393
100
AcDbEntity
  8
0
370
    -3
  6
CENTER
100
AcDbLine
 10
66.428074
 20
-11.577832
 30
0.0
 11
66.428074
 21
-51.523221
 31
0.0
  0
LINE
  5
394
100
AcDbEntity
  8
0
370
    -3
  6
Continuous
100
AcDbLine
 10
40.956926
 20
7.276055
 30
0.0
 11
40.956926
 21
-67.721583
 31
0.0
  0
ARC
  5
395
100
AcDbEntity
  8
0
370
    -3
  6
Continuous
100
AcDbCircle
 10
48.756926
 20
8.777236
 30
0.0
 40
7.8
100
AcDbArc
 50
90.0
 51
151.87484
  0
ELLIPSE
  5
396
100
AcDbEntity
  8
0
370
    -3
  6
Continuous
100
AcDbEllipse
 10
42.842335
 20
9.277236
 30
0.0
 11
0.0
 21
3.5
 31
0.0
210
0.0
220
0.0
230
1.0
 40
0.656603
 41
0.0
 42
6.2831853071795862
  0
LINE
  5
397
100
AcDbEntity
  8
0
370
    -3
  6
Continuous
100
AcDbLine
 10
40.795054
 20
10.867253
 30
0.0
 11
41.304881
 21
9.277236
 31
0.0
  0
LINE
  5
398
100
AcDbEntity
  8
0
370
    -3
  6
Continuous
100
AcDbLine
 10
41.304881
 20
9.277236
 30
0.0
 11
42.354069
 21
11.277236
 31
0.0
  0
LINE
  5
399
100
AcDbEntity
  8
0
370
    -3
  6
Continuous
100
AcDbLine
 10
41.304881
 20
9.277236
 30
0.0
 11
42.354069
 21
7.277236
 31
0.0
  0
LINE
  5
39A
100
AcDbEntity
  8
0
370
    -3
  6
Continuous
100
AcDbLine
 10
40.795054
 20
7.687219
 30
0.0
 11
41.304881
 21
9.277236
 31
0.0
  0
LINE
  5
39B
100
AcDbEntity
  8
0
370
    -3
  6
Continuous
100
AcDbLine
 10
79.253316
 20
10.867253
 30
0.0
 11
79.615038
 21
9.739137
 31
0.0
  0
ELLIPSE
  5
39C
100
AcDbEntity
  8
0
370
    -3
  6
Continuous
100
AcDbEllipse
 10
81.300597
 20
9.277236
 30
0.0
 11
0.0
 21
3.5
 31
0.0
210
0.0
220
0.0
230
1.0
 40
0.656603
 41
0.1742783504961601
 42
1.8339358775128334
  0
ARC
  5
39D
100
AcDbEntity
  8
0
370
    -3
  6
Continuous
100
AcDbCircle
 10
74.121184
 20
4.527236
 30
0.0
 40
3.8
100
AcDbArc
 50
23.227672
 51
90.0
  0
LINE
  5
39E
100
AcDbEntity
  8
0
370
    -3
  6
Continuous
100
AcDbLine
 10
74.121184
 20
8.327236
 30
0.0
 11
49.610548
 21
8.327236
 31
0.0
  0
LINE
  5
39F
100
AcDbEntity
  8
0
370
    -3
  6
Continuous
100
AcDbLine
 10
77.613175
 20
6.025902
 30
0.0
 11
77.977023
 21
5.178112
 31
0.0
  0
LINE
  5
3A0
100
AcDbEntity
  8
0
370
    -3
  6
Continuous
100
AcDbLine
 10
48.756926
 20
16.577236
 30
0.0
 11
82.836399
 21
16.577236
 31
0.0
  0
ARC
  5
3A1
100
AcDbEntity
  8
0
370
    -3
  6
Continuous
100
AcDbCircle
 10
77.615966
 20
8.777236
 30
0.0
 40
7.8
100
AcDbArc
 50
54.992883
 51
90.0
  0
ARC
  5
3A2
100
AcDbEntity
  8
0
370
    -3
  6
Continuous
100
AcDbCircle
 10
49.610548
 20
1.527236
 30
0.0
 40
6.8
100
AcDbArc
 50
90.0
 51
180.0
  0
LINE
  5
3A3
100
AcDbEntity
  8
0
370
    -3
  6
Continuous
100
AcDbLine
 10
42.810548
 20
1.527236
 30
0.0
 11
42.810548
 21
-61.972764
 31
0.0
  0
LINE
  5
3A4
100
AcDbEntity
  8
0
370
    -3
  6
CENTER
100
AcDbLine
 10
47.783142
 20
-30.222764
 30
0.0
 11
87.728531
 21
-30.222764
 31
0.0
  0
CIRCLE
  5
3A5
100
AcDbEntity
  8
0
370
    -3
  6
DASHED
100
AcDbCircle
 10
66.428074
 20
-30.222764
 30
0.0
 40
14.0
  0
LINE
  5
3A6
100
AcDbEntity
  8
0
370
    -3
  6
Continuous
100
AcDbLine
 10
-206.445604
 20
16.577236
 30
0.0
 11
-289.317134
 21
16.577236
 31
0.0
  0
LINE
  5
3A7
100
AcDbEntity
  8
0
370
    -3
  6
Continuous
100
AcDbLine
 10
-206.445604
 20
-77.022764
 30
0.0
 11
-289.317134
 21
-77.022764
 31
0.0
  0
LINE
  5
3A8
100
AcDbEntity
  8
0
370
    -3
  6
CENTER
100
AcDbLine
 10
-243.543074
 20
-79.914528
 30
0.0
 11
-243.543074
 21
20.469875
 31
0.0
  0
LINE
  5
3A9
100
AcDbEntity
  8
0
370
    -3
  6
Continuous
100
AcDbLine
 10
-198.645604
 20
-30.222764
 30
0.0
 11
-198.645604
 21
8.777236
 31
0.0
  0
LINE
  5
3AA
100
AcDbEntity
  8
0
370
    -3
  6
Continuous
100
AcDbLine
 10
-198.645604
 20
-30.222764
 30
0.0
 11
-198.645604
 21
-69.222764
 31
0.0
  0
LINE
  5
3AB
100
AcDbEntity
  8
0
370
    -3
  6
Continuous
100
AcDbLine
 10
-205.663714
 20
-30.222764
 30
0.0
 11
-205.663714
 21
-54.769755
 31
0.0
  0
ARC
  5
3AC
100
AcDbEntity
  8
0
370
    -3
  6
Continuous
100
AcDbCircle
 10
-209.463714
 20
-54.769755
 30
0.0
 40
3.8
100
AcDbArc
 50
318.14922
 51
0.0
  0
LINE
  5
3AD
100
AcDbEntity
  8
0
370
    -3
  6
Continuous
100
AcDbLine
 10
-216.117121
 20
-30.222764
 30
0.0
 11
-216.117121
 21
-58.772764
 31
0.0
  0
ARC
  5
3AE
100
AcDbEntity
  8
0
370
    -3
  6
Continuous
100
AcDbCircle
 10
-206.445604
 20
-69.222764
 30
0.0
 40
7.8
100
AcDbArc
 50
270.0
 51
360.0
  0
LINE
  5
3AF
100
AcDbEntity
  8
0
370
    -3
  6
Continuous
100
AcDbLine
 10
-204.023931
 20
-69.722764
 30
0.0
 11
-202.306419
 21
-67.722764
 31
0.0
  0
LINE
  5
3B0
100
AcDbEntity
  8
0
370
    -3
  6
Continuous
100
AcDbLine
 10
-202.306419
 20
-71.722764
 30
0.0
 11
-204.023931
 21
-69.722764
 31
0.0
  0
ELLIPSE
  5
3B1
100
AcDbEntity
  8
0
370
    -3
  6
Continuous
100
AcDbEllipse
 10
-204.854961
 20
-69.722764
 30
0.0
 11
0.000000000000199
 21
3.5
 31
0.0
210
0.0
220
0.0
230
1.0
 40
0.982815
 41
0.0
 42
6.2831853071795862
  0
LINE
  5
3B2
100
AcDbEntity
  8
0
370
    -3
  6
Continuous
100
AcDbLine
 10
-205.93165
 20
-71.722764
 30
0.0
 11
-204.023931
 21
-69.722764
 31
0.0
  0
LINE
  5
3B3
100
AcDbEntity
  8
0
370
    -3
  6
Continuous
100
AcDbLine
 10
-204.023931
 20
-69.722764
 30
0.0
 11
-205.93165
 21
-67.722764
 31
0.0
  0
ARC
  5
3B4
100
AcDbEntity
  8
0
370
    -3
  6
Continuous
100
AcDbCircle
 10
-218.602541
 20
-64.972764
 30
0.0
 40
3.8
100
AcDbArc
 50
270.0
 51
318.14922
  0
LINE
  5
3B5
100
AcDbEntity
  8
0
370
    -3
  6
Continuous
100
AcDbLine
 10
-215.771978
 20
-67.508097
 30
0.0
 11
-206.633151
 21
-57.305088
 31
0.0
  0
ARC
  5
3B6
100
AcDbEntity
  8
0
370
    -3
  6
Continuous
100
AcDbCircle
 10
-226.117121
 20
-58.772764
 30
0.0
 40
10.0
100
AcDbArc
 50
270.0
 51
360.0
  0
ARC
  5
3B7
100
AcDbEntity
  8
0
370
    -3
  6
Continuous
100
AcDbCircle
 10
-206.445604
 20
8.777236
 30
0.0
 40
7.8
100
AcDbArc
 50
0.0
 51
90.0
  0
LINE
  5
3B8
100
AcDbEntity
  8
0
370
    -3
  6
Continuous
100
AcDbLine
 10
-205.663714
 20
-30.222764
 30
0.0
 11
-205.663714
 21
-5.675773
 31
0.0
  0
LINE
  5
3B9
100
AcDbEntity
  8
0
370
    -3
  6
Continuous
100
AcDbLine
 10
-204.023931
 20
9.277236
 30
0.0
 11
-202.306419
 21
7.277236
 31
0.0
  0
LINE
  5
3BA
100
AcDbEntity
  8
0
370
    -3
  6
Continuous
100
AcDbLine
 10
-202.306419
 20
11.277236
 30
0.0
 11
-204.023931
 21
9.277236
 31
0.0
  0
ARC
  5
3BB
100
AcDbEntity
  8
0
370
    -3
  6
Continuous
100
AcDbCircle
 10
-209.463714
 20
-5.675773
 30
0.0
 40
3.8
100
AcDbArc
 50
0.0
 51
41.85078
  0
LINE
  5
3BC
100
AcDbEntity
  8
0
370
    -3
  6
Continuous
100
AcDbLine
 10
-205.93165
 20
11.277236
 30
0.0
 11
-204.023931
 21
9.277236
 31
0.0
  0
LINE
  5
3BD
100
AcDbEntity
  8
0
370
    -3
  6
Continuous
100
AcDbLine
 10
-204.023931
 20
9.277236
 30
0.0
 11
-205.93165
 21
7.277236
 31
0.0
  0
ELLIPSE
  5
3BE
100
AcDbEntity
  8
0
370
    -3
  6
Continuous
100
AcDbEllipse
 10
-204.854961
 20
9.277236
 30
0.0
 11
0.0
 21
3.5
 31
0.0
210
0.0
220
0.0
230
1.0
 40
0.982815
 41
0.0
 42
6.2831853071795862
  0
ARC
  5
3BF
100
AcDbEntity
  8
0
370
    -3
  6
Continuous
100
AcDbCircle
 10
-218.602541
 20
4.527236
 30
0.0
 40
3.8
100
AcDbArc
 50
41.85078
 51
90.0
  0
LINE
  5
3C0
100
AcDbEntity
  8
0
370
    -3
  6
Continuous
100
AcDbLine
 10
-215.771978
 20
7.062569
 30
0.0
 11
-206.633151
 21
-3.14044
 31
0.0
  0
ARC
  5
3C1
100
AcDbEntity
  8
0
370
    -3
  6
Continuous
100
AcDbCircle
 10
-226.117121
 20
-1.672764
 30
0.0
 40
10.0
100
AcDbArc
 50
0.0
 51
90.0
  0
LINE
  5
3C2
100
AcDbEntity
  8
0
370
    -3
  6
Continuous
100
AcDbLine
 10
-216.117121
 20
-30.222764
 30
0.0
 11
-216.117121
 21
-1.672764
 31
0.0
  0
LINE
  5
3C3
100
AcDbEntity
  8
0
370
    -3
  6
Continuous
100
AcDbLine
 10
-284.780428
 20
-71.722764
 30
0.0
 11
-286.497939
 21
-69.722764
 31
0.0
  0
LINE
  5
3C4
100
AcDbEntity
  8
0
370
    -3
  6
Continuous
100
AcDbLine
 10
-286.497939
 20
-69.722764
 30
0.0
 11
-284.780428
 21
-67.722764
 31
0.0
  0
ARC
  5
3C5
100
AcDbEntity
  8
0
370
    -3
  6
Continuous
100
AcDbCircle
 10
-274.098598
 20
-64.972764
 30
0.0
 40
3.8
100
AcDbArc
 50
221.390427
 51
270.0
  0
ARC
  5
3C6
100
AcDbEntity
  8
0
370
    -3
  6
Continuous
100
AcDbCircle
 10
-289.317134
 20
-69.222764
 30
0.0
 40
7.8
100
AcDbArc
 50
180.0
 51
270.0
  0
ARC
  5
3C7
100
AcDbEntity
  8
0
370
    -3
  6
Continuous
100
AcDbCircle
 10
-286.865948
 20
-69.222764
 30
0.0
 40
7.8
100
AcDbArc
 50
180.0
 51
270.0
  0
ELLIPSE
  5
3C8
100
AcDbEntity
  8
0
370
    -3
  6
Continuous
100
AcDbEllipse
 10
-287.32897
 20
-69.722764
 30
0.0
 11
0.0000000000002274
 21
3.5
 31
0.0
210
0.0
220
0.0
230
1.0
 40
0.982815
 41
0.0
 42
6.2831853071795862
  0
LINE
  5
3C9
100
AcDbEntity
  8
0
370
    -3
  6
Continuous
100
AcDbLine
 10
-288.405659
 20
-71.722764
 30
0.0
 11
-286.497939
 21
-69.722764
 31
0.0
  0
LINE
  5
3CA
100
AcDbEntity
  8
0
370
    -3
  6
Continuous
100
AcDbLine
 10
-286.497939
 20
-69.722764
 30
0.0
 11
-288.405659
 21
-67.722764
 31
0.0
  0
LINE
  5
3CB
100
AcDbEntity
  8
0
370
    -3
  6
Continuous
100
AcDbLine
 10
-274.098598
 20
-68.772764
 30
0.0
 11
-218.602541
 21
-68.772764
 31
0.0
  0
POINT
  5
3CC
100
AcDbEntity
  8
0
370
    -3
  6
CENTER
100
AcDbPoint
 10
-314.543074
 20
-40.700264
 30
0.0
  0
POINT
  5
3CD
100
AcDbEntity
  8
0
370
    -3
  6
CENTER
100
AcDbPoint
 10
-314.543074
 20
-40.700264
 30
0.0
  0
ARC
  5
3CE
100
AcDbEntity
  8
0
370
    -3
  6
Continuous
100
AcDbCircle
 10
-312.543074
 20
-42.222764
 30
0.0
 40
2.0
100
AcDbArc
 50
180.0
 51
270.0
  0
LINE
  5
3CF
100
AcDbEntity
  8
0
370
    -3
  6
Continuous
100
AcDbLine
 10
-314.543074
 20
-42.222764
 30
0.0
 11
-314.543074
 21
-30.222764
 31
0.0
  0
ARC
  5
3D0
100
AcDbEntity
  8
0
370
    -3
  6
Continuous
100
AcDbCircle
 10
-283.075333
 20
-54.787226
 30
0.0
 40
3.8
100
AcDbArc
 50
180.0
 51
221.390427
  0
LINE
  5
3D1
100
AcDbEntity
  8
0
370
    -3
  6
Continuous
100
AcDbLine
 10
-276.94944
 20
-67.485273
 30
0.0
 11
-285.926175
 21
-57.299735
 31
0.0
  0
LINE
  5
3D2
100
AcDbEntity
  8
0
370
    -3
  6
Continuous
100
AcDbLine
 10
-312.543074
 20
-44.222764
 30
0.0
 11
-297.117134
 21
-44.222764
 31
0.0
  0
LINE
  5
3D3
100
AcDbEntity
  8
0
370
    -3
  6
Continuous
100
AcDbLine
 10
-297.117134
 20
-30.222764
 30
0.0
 11
-297.117134
 21
-69.222764
 31
0.0
  0
LINE
  5
3D4
100
AcDbEntity
  8
0
370
    -3
  6
Continuous
100
AcDbLine
 10
-294.665948
 20
-30.222764
 30
0.0
 11
-294.665948
 21
-69.222764
 31
0.0
  0
LINE
  5
3D5
100
AcDbEntity
  8
0
370
    -3
  6
Continuous
100
AcDbLine
 10
-286.875333
 20
-30.222764
 30
0.0
 11
-286.875333
 21
-54.787226
 31
0.0
  0
POINT
  5
3D6
100
AcDbEntity
  8
0
370
    -3
  6
CENTER
100
AcDbPoint
 10
-314.543074
 20
-19.745264
 30
0.0
  0
POINT
  5
3D7
100
AcDbEntity
  8
0
370
    -3
  6
CENTER
100
AcDbPoint
 10
-314.543074
 20
-19.745264
 30
0.0
  0
LINE
  5
3D8
100
AcDbEntity
  8
0
370
    -3
  6
Continuous
100
AcDbLine
 10
-312.543074
 20
-16.222764
 30
0.0
 11
-297.117134
 21
-16.222764
 31
0.0
  0
ARC
  5
3D9
100
AcDbEntity
  8
0
370
    -3
  6
Continuous
100
AcDbCircle
 10
-312.543074
 20
-18.222764
 30
0.0
 40
2.0
100
AcDbArc
 50
90.0
 51
180.0
  0
LINE
  5
3DA
100
AcDbEntity
  8
0
370
    -3
  6
Continuous
100
AcDbLine
 10
-314.543074
 20
-18.222764
 30
0.0
 11
-314.543074
 21
-30.222764
 31
0.0
  0
ARC
  5
3DB
100
AcDbEntity
  8
0
370
    -3
  6
Continuous
100
AcDbCircle
 10
-274.098598
 20
4.527236
 30
0.0
 40
3.8
100
AcDbArc
 50
90.0
 51
138.609573
  0
LINE
  5
3DC
100
AcDbEntity
  8
0
370
    -3
  6
Continuous
100
AcDbLine
 10
-274.098598
 20
8.327236
 30
0.0
 11
-218.602541
 21
8.327236
 31
0.0
  0
LINE
  5
3DD
100
AcDbEntity
  8
0
370
    -3
  6
Continuous
100
AcDbLine
 10
-276.94944
 20
7.039745
 30
0.0
 11
-285.926175
 21
-3.145793
 31
0.0
  0
LINE
  5
3DE
100
AcDbEntity
  8
0
370
    -3
  6
Continuous
100
AcDbLine
 10
-286.497939
 20
9.277236
 30
0.0
 11
-284.780428
 21
7.277236
 31
0.0
  0
LINE
  5
3DF
100
AcDbEntity
  8
0
370
    -3
  6
Continuous
100
AcDbLine
 10
-284.780428
 20
11.277236
 30
0.0
 11
-286.497939
 21
9.277236
 31
0.0
  0
ARC
  5
3E0
100
AcDbEntity
  8
0
370
    -3
  6
Continuous
100
AcDbCircle
 10
-283.075333
 20
-5.658302
 30
0.0
 40
3.8
100
AcDbArc
 50
138.609573
 51
180.0
  0
ARC
  5
3E1
100
AcDbEntity
  8
0
370
    -3
  6
Continuous
100
AcDbCircle
 10
-289.317134
 20
8.777236
 30
0.0
 40
7.8
100
AcDbArc
 50
90.0
 51
180.0
  0
ARC
  5
3E2
100
AcDbEntity
  8
0
370
    -3
  6
Continuous
100
AcDbCircle
 10
-286.865948
 20
8.777236
 30
0.0
 40
7.8
100
AcDbArc
 50
90.0
 51
180.0
  0
ELLIPSE
  5
3E3
100
AcDbEntity
  8
0
370
    -3
  6
Continuous
100
AcDbEllipse
 10
-287.32897
 20
9.277236
 30
0.0
 11
0.0
 21
3.5
 31
0.0
210
0.0
220
0.0
230
1.0
 40
0.982815
 41
0.0
 42
6.2831853071795862
  0
LINE
  5
3E4
100
AcDbEntity
  8
0
370
    -3
  6
Continuous
100
AcDbLine
 10
-288.405659
 20
11.277236
 30
0.0
 11
-286.497939
 21
9.277236
 31
0.0
  0
LINE
  5
3E5
100
AcDbEntity
  8
0
370
    -3
  6
Continuous
100
AcDbLine
 10
-286.497939
 20
9.277236
 30
0.0
 11
-288.405659
 21
7.277236
 31
0.0
  0
LINE
  5
3E6
100
AcDbEntity
  8
0
370
    -3
  6
Continuous
100
AcDbLine
 10
-286.875333
 20
-30.222764
 30
0.0
 11
-286.875333
 21
-5.658302
 31
0.0
  0
LINE
  5
3E7
100
AcDbEntity
  8
0
370
    -3
  6
Continuous
100
AcDbLine
 10
-297.117134
 20
-30.222764
 30
0.0
 11
-297.117134
 21
8.777236
 31
0.0
  0
LINE
  5
3E8
100
AcDbEntity
  8
0
370
    -3
  6
Continuous
100
AcDbLine
 10
-294.665948
 20
-30.222764
 30
0.0
 11
-294.665948
 21
8.777236
 31
0.0
  0
POINT
  5
3E9
100
AcDbEntity
  8
0
370
    -3
  6
Continuous
100
AcDbPoint
 10
-314.543065
 20
159.110877
 30
0.0
  0
LINE
  5
3EA
100
AcDbEntity
  8
0
370
    -3
  6
Continuous
100
AcDbLine
 10
-295.426652
 20
124.201515
 30
0.0
 11
-297.117125
 21
127.826747
 31
0.0
  0
ARC
  5
3EB
100
AcDbEntity
  8
0
370
    -3
  6
Continuous
100
AcDbCircle
 10
-293.795298
 20
124.962228
 30
0.0
 40
1.8
100
AcDbArc
 50
205.0
 51
295.0
  0
LINE
  5
3EC
100
AcDbEntity
  8
0
370
    -3
  6
CENTER
100
AcDbLine
 10
-288.854412
 20
128.563675
 30
0.0
 11
-285.984492
 21
122.40911
 31
0.0
  0
ARC
  5
3ED
100
AcDbEntity
  8
0
370
    -3
  6
Continuous
100
AcDbCircle
 10
-290.301495
 20
131.666953
 30
0.0
 40
9.0
100
AcDbArc
 50
278.398469
 51
311.601548
  0
POINT
  5
3EE
100
AcDbEntity
  8
0
370
    -3
  6
Continuous
100
AcDbPoint
 10
-287.596738
 20
125.866584
 30
0.0
  0
LINE
  5
3EF
100
AcDbEntity
  8
0
370
    -3
  6
Continuous
100
AcDbLine
 10
-284.424661
 20
127.345748
 30
0.0
 11
-284.010907
 21
126.45845
 31
0.0
  0
LINE
  5
3F0
100
AcDbEntity
  8
0
370
    -3
  6
Continuous
100
AcDbLine
 10
-290.768815
 20
124.38742
 30
0.0
 11
-290.355061
 21
123.500122
 31
0.0
  0
ARC
  5
3F1
100
AcDbEntity
  8
0
370
    -3
  6
Continuous
100
AcDbCircle
 10
-285.189106
 20
125.909046
 30
0.0
 40
1.299999
100
AcDbArc
 50
311.601548
 51
25.000018
  0
ARC
  5
3F2
100
AcDbEntity
  8
0
370
    -3
  6
Continuous
100
AcDbCircle
 10
-289.176862
 20
124.049525
 30
0.0
 40
1.299999
100
AcDbArc
 50
204.999999
 51
278.398469
  0
ARC
  5
3F3
100
AcDbEntity
  8
0
370
    -3
  6
Continuous
100
AcDbCircle
 10
-271.630053
 20
128.239459
 30
0.0
 40
2.8
100
AcDbArc
 50
205.0
 51
267.843273
  0
LINE
  5
3F4
100
AcDbEntity
  8
0
370
    -3
  6
Continuous
100
AcDbLine
 10
-274.842745
 20
128.503735
 30
0.0
 11
-274.167715
 21
127.056127
 31
0.0
  0
ARC
  5
3F5
100
AcDbEntity
  8
0
370
    -3
  6
Continuous
100
AcDbCircle
 10
-249.125463
 20
725.81585
 30
0.0
 40
600.8
100
AcDbArc
 50
266.682408
 51
272.437505
  0
ARC
  5
3F6
100
AcDbEntity
  8
0
370
    -3
  6
Continuous
100
AcDbCircle
 10
-281.743065
 20
166.833377
 30
0.0
 40
6.8
100
AcDbArc
 50
90.0
 51
180.0
  0
LINE
  5
3F7
100
AcDbEntity
  8
0
370
    -3
  6
Continuous
100
AcDbLine
 10
-290.543065
 20
162.633377
 30
0.0
 11
-288.543065
 21
162.633377
 31
0.0
  0
LINE
  5
3F8
100
AcDbEntity
  8
0
370
    -3
  6
Continuous
100
AcDbLine
 10
-312.543065
 20
162.633377
 30
0.0
 11
-290.543065
 21
162.633377
 31
0.0
  0
ARC
  5
3F9
100
AcDbEntity
  8
0
370
    -3
  6
Continuous
100
AcDbCircle
 10
-312.543065
 20
160.633377
 30
0.0
 40
2.0
100
AcDbArc
 50
90.0
 51
180.0
  0
ARC
  5
3FA
100
AcDbEntity
  8
0
370
    -3
  6
Continuous
100
AcDbCircle
 10
-312.543065
 20
136.633377
 30
0.0
 40
2.0
100
AcDbArc
 50
180.0
 51
270.0
  0
LINE
  5
3FB
100
AcDbEntity
  8
0
370
    -3
  6
Continuous
100
AcDbLine
 10
-314.543065
 20
160.633377
 30
0.0
 11
-314.543065
 21
148.633377
 31
0.0
  0
LINE
  5
3FC
100
AcDbEntity
  8
0
370
    -3
  6
Continuous
100
AcDbLine
 10
-314.543065
 20
136.633377
 30
0.0
 11
-314.543065
 21
148.633377
 31
0.0
  0
LINE
  5
3FD
100
AcDbEntity
  8
0
370
    -3
  6
CENTER
100
AcDbLine
 10
-320.021688
 20
148.633377
 30
0.0
 11
-279.715202
 21
148.633377
 31
0.0
  0
LINE
  5
3FE
100
AcDbEntity
  8
0
370
    -3
  6
Continuous
100
AcDbLine
 10
-290.543065
 20
162.633377
 30
0.0
 11
-290.543065
 21
148.633377
 31
0.0
  0
POINT
  5
3FF
100
AcDbEntity
  8
0
370
    -3
  6
CENTER
100
AcDbPoint
 10
-314.543065
 20
159.110877
 30
0.0
  0
POINT
  5
400
100
AcDbEntity
  8
0
370
    -3
  6
CENTER
100
AcDbPoint
 10
-314.543065
 20
138.155877
 30
0.0
  0
LINE
  5
401
100
AcDbEntity
  8
0
370
    -3
  6
Continuous
100
AcDbLine
 10
-312.543065
 20
134.633377
 30
0.0
 11
-288.543065
 21
134.633377
 31
0.0
  0
ARC
  5
402
100
AcDbEntity
  8
0
370
    -3
  6
Continuous
100
AcDbCircle
 10
-277.561669
 20
127.23588
 30
0.0
 40
3.0
100
AcDbArc
 50
25.0
 51
115.0
  0
LINE
  5
403
100
AcDbEntity
  8
0
370
    -3
  6
Continuous
100
AcDbLine
 10
-288.95378
 20
131.633377
 30
0.0
 11
-297.117125
 21
127.826747
 31
0.0
  0
LINE
  5
404
100
AcDbEntity
  8
0
370
    -3
  6
Continuous
100
AcDbLine
 10
-290.543065
 20
148.633377
 30
0.0
 11
-290.543065
 21
134.633377
 31
0.0
  0
LINE
  5
405
100
AcDbEntity
  8
0
370
    -3
  6
Continuous
100
AcDbLine
 10
-288.543065
 20
131.824896
 30
0.0
 11
-288.543065
 21
166.833377
 31
0.0
  0
LINE
  5
406
100
AcDbEntity
  8
0
370
    -3
  6
Continuous
100
AcDbLine
 10
-276.867372
 20
137.269362
 30
0.0
 11
-276.867372
 21
170.633377
 31
0.0
  0
LINE
  5
407
100
AcDbEntity
  8
0
370
    -3
  6
Continuous
100
AcDbLine
 10
-198.814242
 20
169.252622
 30
0.0
 11
-200.504715
 21
172.877853
 31
0.0
  0
ARC
  5
408
100
AcDbEntity
  8
0
370
    -3
  6
Continuous
100
AcDbCircle
 10
-200.445596
 20
168.491909
 30
0.0
 40
1.8
100
AcDbArc
 50
295.0
 51
25.0
  0
LINE
  5
409
100
AcDbEntity
  8
0
370
    -3
  6
CENTER
100
AcDbLine
 10
-206.380404
 20
167.021936
 30
0.0
 11
-203.510483
 21
160.867372
 31
0.0
  0
POINT
  5
40A
100
AcDbEntity
  8
0
370
    -3
  6
Continuous
100
AcDbPoint
 10
-205.14644
 20
164.313789
 30
0.0
  0
LINE
  5
40B
100
AcDbEntity
  8
0
370
    -3
  6
Continuous
100
AcDbLine
 10
-201.950652
 20
165.80401
 30
0.0
 11
-201.536898
 21
164.916711
 31
0.0
  0
LINE
  5
40C
100
AcDbEntity
  8
0
370
    -3
  6
CENTER
100
AcDbLine
 10
-206.380404
 20
167.021936
 30
0.0
 11
-203.510483
 21
160.867372
 31
0.0
  0
ARC
  5
40D
100
AcDbEntity
  8
0
370
    -3
  6
Continuous
100
AcDbCircle
 10
-202.715098
 20
164.367308
 30
0.0
 40
1.299999
100
AcDbArc
 50
311.601548
 51
25.000018
  0
ARC
  5
40E
100
AcDbEntity
  8
0
370
    -3
  6
Continuous
100
AcDbCircle
 10
-207.827486
 20
170.125215
 30
0.0
 40
9.0
100
AcDbArc
 50
278.398469
 51
311.601548
  0
LINE
  5
40F
100
AcDbEntity
  8
0
370
    -3
  6
Continuous
100
AcDbLine
 10
-208.294807
 20
162.845682
 30
0.0
 11
-207.881053
 21
161.958384
 31
0.0
  0
ARC
  5
410
100
AcDbEntity
  8
0
370
    -3
  6
Continuous
100
AcDbCircle
 10
-206.702853
 20
162.507787
 30
0.0
 40
1.299999
100
AcDbArc
 50
204.999999
 51
278.398469
  0
ARC
  5
411
100
AcDbEntity
  8
0
370
    -3
  6
Continuous
100
AcDbCircle
 10
-212.62209
 20
157.517703
 30
0.0
 40
3.0
100
AcDbArc
 50
115.0
 51
205.0
  0
LINE
  5
412
100
AcDbEntity
  8
0
370
    -3
  6
Continuous
100
AcDbLine
 10
-210.605586
 20
146.094693
 30
0.0
 11
-215.341013
 21
156.249848
 31
0.0
  0
ARC
  5
413
100
AcDbEntity
  8
0
370
    -3
  6
Continuous
100
AcDbCircle
 10
-213.143248
 20
144.911362
 30
0.0
 40
2.8
100
AcDbArc
 50
344.545811
 51
25.0
  0
LINE
  5
414
100
AcDbEntity
  8
0
370
    -3
  6
Continuous
100
AcDbLine
 10
-199.684883
 20
166.860555
 30
0.0
 11
-293.034585
 21
123.330874
 31
0.0
  0
ARC
  5
415
100
AcDbEntity
  8
0
370
    -3
  6
Continuous
100
AcDbCircle
 10
-224.03297
 20
136.349679
 30
0.0
 40
10.8
100
AcDbArc
 50
272.437505
 51
342.341575
  0
ARC
  5
416
100
AcDbEntity
  8
0
370
    -3
  6
Continuous
100
AcDbCircle
 10
-500.368705
 20
224.318774
 30
0.0
 40
300.8
100
AcDbArc
 50
342.341575
 51
347.89975
  0
LINE
  5
417
100
AcDbEntity
  8
0
370
    -3
  6
Continuous
100
AcDbLine
 10
-276.147809
 20
179.633377
 30
0.0
 11
-276.068565
 21
176.6072
 31
0.0
  0
ARC
  5
418
100
AcDbEntity
  8
0
370
    -3
  6
Continuous
100
AcDbCircle
 10
-273.867372
 20
170.633377
 30
0.0
 40
3.0
100
AcDbArc
 50
90.0
 51
180.0
  0
ARC
  5
419
100
AcDbEntity
  8
0
370
    -3
  6
Continuous
100
AcDbCircle
 10
-272.807976
 20
173.933377
 30
0.0
 40
0.3
100
AcDbArc
 50
270.0
 51
346.657636
  0
ARC
  5
41A
100
AcDbEntity
  8
0
370
    -3
  6
Continuous
100
AcDbCircle
 10
-214.278154
 20
173.933377
 30
0.0
 40
0.3
100
AcDbArc
 50
193.342364
 51
270.0
  0
LINE
  5
41B
100
AcDbEntity
  8
0
370
    -3
  6
Continuous
100
AcDbLine
 10
-212.543065
 20
175.633377
 30
0.0
 11
-212.543065
 21
174.633377
 31
0.0
  0
LINE
  5
41C
100
AcDbEntity
  8
0
370
    -3
  6
Continuous
100
AcDbLine
 10
-274.543065
 20
175.633377
 30
0.0
 11
-274.543065
 21
174.633377
 31
0.0
  0
LINE
  5
41D
100
AcDbEntity
  8
0
370
    -3
  6
Continuous
100
AcDbLine
 10
-274.543065
 20
174.633377
 30
0.0
 11
-212.543065
 21
174.633377
 31
0.0
  0
LINE
  5
41E
100
AcDbEntity
  8
0
370
    -3
  6
Continuous
100
AcDbLine
 10
-274.543065
 20
175.633377
 30
0.0
 11
-212.543065
 21
175.633377
 31
0.0
  0
ARC
  5
41F
100
AcDbEntity
  8
0
370
    -3
  6
Continuous
100
AcDbCircle
 10
-215.543065
 20
173.633377
 30
0.0
 40
1.0
100
AcDbArc
 50
13.342364
 51
90.0
  0
LINE
  5
420
100
AcDbEntity
  8
0
370
    -3
  6
Continuous
100
AcDbLine
 10
-281.743065
 20
173.633377
 30
0.0
 11
-212.104911
 21
173.633377
 31
0.0
  0
ARC
  5
421
100
AcDbEntity
  8
0
370
    -3
  6
Continuous
100
AcDbCircle
 10
-271.543065
 20
173.633377
 30
0.0
 40
1.0
100
AcDbArc
 50
90.0
 51
166.657636
  0
LINE
  5
422
100
AcDbEntity
  8
0
370
    -3
  6
CENTER
100
AcDbLine
 10
-243.543065
 20
186.410794
 30
0.0
 11
-243.543065
 21
163.500817
 31
0.0
  0
ARC
  5
423
100
AcDbEntity
  8
0
370
    -3
  6
Continuous
100
AcDbCircle
 10
-212.104911
 20
169.833377
 30
0.0
 40
3.8
100
AcDbArc
 50
25.0
 51
90.0
  0
ARC
  5
424
100
AcDbEntity
  8
0
370
    -3
  6
Continuous
100
AcDbCircle
 10
-226.228149
 20
169.833377
 30
0.0
 40
3.8
100
AcDbArc
 50
25.0
 51
90.0
  0
LINE
  5
425
100
AcDbEntity
  8
0
370
    -3
  6
Continuous
100
AcDbLine
 10
-219.355917
 20
164.087393
 30
0.0
 11
-222.784179
 21
171.439326
 31
0.0
  0
LINE
  5
426
100
AcDbEntity
  8
0
370
    -3
  6
Continuous
100
AcDbLine
 10
-207.755177
 20
169.496907
 30
0.0
 11
-208.660942
 21
171.439326
 31
0.0
  0
LINE
  5
427
100
AcDbEntity
  8
0
370
    -3
  6
Continuous
100
AcDbLine
 10
-200.504715
 20
172.877853
 30
0.0
 11
-288.95378
 21
131.633377
 31
0.0
  0
ARC
  5
428
100
AcDbEntity
  8
0
370
    -3
  6
Continuous
100
AcDbCircle
 10
-212.017222
 20
176.633377
 30
0.0
 40
1.0
100
AcDbArc
 50
270.0
 51
358.5
  0
LINE
  5
429
100
AcDbEntity
  8
0
370
    -3
  6
Continuous
100
AcDbLine
 10
-275.068908
 20
175.633377
 30
0.0
 11
-212.017222
 21
175.633377
 31
0.0
  0
ARC
  5
42A
100
AcDbEntity
  8
0
370
    -3
  6
Continuous
100
AcDbCircle
 10
-275.068908
 20
176.633377
 30
0.0
 40
1.0
100
AcDbArc
 50
181.5
 51
270.0
  0
LINE
  5
42B
100
AcDbEntity
  8
0
370
    -3
  6
CENTER
100
AcDbLine
 10
-243.543065
 20
186.410794
 30
0.0
 11
-243.543065
 21
163.500817
 31
0.0
  0
LINE
  5
42C
100
AcDbEntity
  8
0
370
    -3
  6
Continuous
100
AcDbLine
 10
-271.524035
 20
181.133377
 30
0.0
 11
-271.524035
 21
180.133377
 31
0.0
  0
LINE
  5
42D
100
AcDbEntity
  8
0
370
    -3
  6
Continuous
100
AcDbLine
 10
-210.938321
 20
179.633377
 30
0.0
 11
-211.017565
 21
176.6072
 31
0.0
  0
LINE
  5
42E
100
AcDbEntity
  8
0
370
    -3
  6
Continuous
100
AcDbLine
 10
-225.562095
 20
181.133377
 30
0.0
 11
-225.562095
 21
180.133377
 31
0.0
  0
ARC
  5
42F
100
AcDbEntity
  8
0
370
    -3
  6
Continuous
100
AcDbCircle
 10
-226.062095
 20
180.133377
 30
0.0
 40
0.5
100
AcDbArc
 50
270.0
 51
0.0
  0
LINE
  5
430
100
AcDbEntity
  8
0
370
    -3
  6
Continuous
100
AcDbLine
 10
-223.990379
 20
179.633377
 30
0.0
 11
-263.095751
 21
179.633377
 31
0.0
  0
LINE
  5
431
100
AcDbEntity
  8
0
370
    -3
  6
Continuous
100
AcDbLine
 10
-223.990379
 20
179.633377
 30
0.0
 11
-210.938321
 21
179.633377
 31
0.0
  0
ARC
  5
432
100
AcDbEntity
  8
0
370
    -3
  6
Continuous
100
AcDbCircle
 10
-215.062095
 20
180.133377
 30
0.0
 40
0.5
100
AcDbArc
 50
180.0
 51
270.0
  0
LINE
  5
433
100
AcDbEntity
  8
0
370
    -3
  6
Continuous
100
AcDbLine
 10
-215.562095
 20
181.133377
 30
0.0
 11
-215.562095
 21
180.133377
 31
0.0
  0
ARC
  5
434
100
AcDbEntity
  8
0
370
    -3
  6
Continuous
100
AcDbCircle
 10
-225.062095
 20
181.133377
 30
0.0
 40
0.5
100
AcDbArc
 50
90.0
 51
180.0
  0
ARC
  5
435
100
AcDbEntity
  8
0
370
    -3
  6
Continuous
100
AcDbCircle
 10
-225.003486
 20
182.133377
 30
0.0
 40
0.5
100
AcDbArc
 50
270.0
 51
352.874984
  0
LINE
  5
436
100
AcDbEntity
  8
0
370
    -3
  6
Continuous
100
AcDbLine
 10
-225.025909
 20
181.633377
 30
0.0
 11
-216.062095
 21
181.633377
 31
0.0
  0
ARC
  5
437
100
AcDbEntity
  8
0
370
    -3
  6
Continuous
100
AcDbCircle
 10
-216.062095
 20
181.133377
 30
0.0
 40
0.5
100
AcDbArc
 50
0.0
 51
90.0
  0
ARC
  5
438
100
AcDbEntity
  8
0
370
    -3
  6
Continuous
100
AcDbCircle
 10
-216.120703
 20
182.133377
 30
0.0
 40
0.5
100
AcDbArc
 50
187.125016
 51
270.0
  0
LINE
  5
439
100
AcDbEntity
  8
0
370
    -3
  6
Continuous
100
AcDbLine
 10
-206.793065
 20
183.138789
 30
0.0
 11
-206.793065
 21
181.633377
 31
0.0
  0
ARC
  5
43A
100
AcDbEntity
  8
0
370
    -3
  6
Continuous
100
AcDbCircle
 10
-272.024035
 20
180.133377
 30
0.0
 40
0.5
100
AcDbArc
 50
270.0
 51
0.0
  0
ARC
  5
43B
100
AcDbEntity
  8
0
370
    -3
  6
Continuous
100
AcDbCircle
 10
-261.024035
 20
180.133377
 30
0.0
 40
0.5
100
AcDbArc
 50
180.0
 51
270.0
  0
LINE
  5
43C
100
AcDbEntity
  8
0
370
    -3
  6
Continuous
100
AcDbLine
 10
-261.524035
 20
181.133377
 30
0.0
 11
-261.524035
 21
180.133377
 31
0.0
  0
LINE
  5
43D
100
AcDbEntity
  8
0
370
    -3
  6
Continuous
100
AcDbLine
 10
-263.095751
 20
179.633377
 30
0.0
 11
-276.147809
 21
179.633377
 31
0.0
  0
ARC
  5
43E
100
AcDbEntity
  8
0
370
    -3
  6
Continuous
100
AcDbCircle
 10
-262.024035
 20
181.133377
 30
0.0
 40
0.5
100
AcDbArc
 50
0.0
 51
90.0
  0
ARC
  5
43F
100
AcDbEntity
  8
0
370
    -3
  6
Continuous
100
AcDbCircle
 10
-262.082644
 20
182.133377
 30
0.0
 40
0.5
100
AcDbArc
 50
187.125016
 51
270.0
  0
LINE
  5
440
100
AcDbEntity
  8
0
370
    -3
  6
Continuous
100
AcDbLine
 10
-262.969288
 20
185.195394
 30
0.0
 11
-262.578783
 21
182.071359
 31
0.0
  0
LINE
  5
441
100
AcDbEntity
  8
0
370
    -3
  6
Continuous
100
AcDbLine
 10
-269.562365
 20
185.633377
 30
0.0
 11
-263.471557
 21
185.633377
 31
0.0
  0
ARC
  5
442
100
AcDbEntity
  8
0
370
    -3
  6
Continuous
100
AcDbCircle
 10
-263.465426
 20
185.133377
 30
0.0
 40
0.5
100
AcDbArc
 50
7.125016
 51
90.0
  0
LINE
  5
443
100
AcDbEntity
  8
0
370
    -3
  6
Continuous
100
AcDbLine
 10
-270.318039
 20
183.281351
 30
0.0
 11
-270.469288
 21
182.071359
 31
0.0
  0
LINE
  5
444
100
AcDbEntity
  8
0
370
    -3
  6
Continuous
100
AcDbLine
 10
-262.060221
 20
181.633377
 30
0.0
 11
-270.717718
 21
181.633377
 31
0.0
  0
LINE
  5
445
100
AcDbEntity
  8
0
370
    -3
  6
Continuous
100
AcDbLine
 10
-262.024035
 20
181.633377
 30
0.0
 11
-270.717718
 21
181.633377
 31
0.0
  0
ARC
  5
446
100
AcDbEntity
  8
0
370
    -3
  6
Continuous
100
AcDbCircle
 10
-271.024035
 20
181.133377
 30
0.0
 40
0.5
100
AcDbArc
 50
90.0
 51
180.0
  0
ARC
  5
447
100
AcDbEntity
  8
0
370
    -3
  6
Continuous
100
AcDbCircle
 10
-270.965426
 20
182.133377
 30
0.0
 40
0.5
100
AcDbArc
 50
270.0
 51
352.874984
  0
LINE
  5
448
100
AcDbEntity
  8
0
370
    -3
  6
Continuous
100
AcDbLine
 10
-275.293074
 20
181.633377
 30
0.0
 11
-206.793065
 21
181.633377
 31
0.0
  0
LINE
  5
449
100
AcDbEntity
  8
0
370
    -3
  6
Continuous
100
AcDbLine
 10
-275.293074
 20
181.633377
 30
0.0
 11
-275.293074
 21
182.293628
 31
0.0
  0
LINE
  5
44A
100
AcDbEntity
  8
0
370
    -3
  6
Continuous
100
AcDbLine
 10
-224.116842
 20
185.195394
 30
0.0
 11
-224.507347
 21
182.071359
 31
0.0
  0
LINE
  5
44B
100
AcDbEntity
  8
0
370
    -3
  6
Continuous
100
AcDbLine
 10
-217.007347
 20
185.195394
 30
0.0
 11
-216.616842
 21
182.071359
 31
0.0
  0
ARC
  5
44C
100
AcDbEntity
  8
0
370
    -3
  6
Continuous
100
AcDbCircle
 10
-217.503486
 20
185.133377
 30
0.0
 40
0.5
100
AcDbArc
 50
7.125016
 51
90.0
  0
ARC
  5
44D
100
AcDbEntity
  8
0
370
    -3
  6
Continuous
100
AcDbCircle
 10
-223.620703
 20
185.133377
 30
0.0
 40
0.5
100
AcDbArc
 50
90.0
 51
172.874984
  0
LINE
  5
44E
100
AcDbEntity
  8
0
370
    -3
  6
Continuous
100
AcDbLine
 10
-217.503486
 20
185.633377
 30
0.0
 11
-223.614573
 21
185.633377
 31
0.0
  0
ARC
  5
44F
100
AcDbEntity
  8
0
370
    -3
  6
Continuous
100
AcDbCircle
 10
-452.514222
 20
-58.703734
 30
0.0
 40
0.5
100
AcDbArc
 50
0.0
 51
68.801545
  0
ARC
  5
450
100
AcDbEntity
  8
0
370
    -3
  6
Continuous
100
AcDbCircle
 10
-452.514222
 20
-1.741794
 30
0.0
 40
0.5
100
AcDbArc
 50
291.198455
 51
0.0
  0
LINE
  5
451
100
AcDbEntity
  8
0
370
    -3
  6
Continuous
100
AcDbLine
 10
-452.014222
 20
-57.165721
 30
0.0
 11
-452.014222
 21
-62.827508
 31
0.0
  0
LINE
  5
452
100
AcDbEntity
  8
0
370
    -3
  6
Continuous
100
AcDbLine
 10
-452.014222
 20
-3.279807
 30
0.0
 11
-452.014222
 21
2.38198
 31
0.0
  0
ARC
  5
453
100
AcDbEntity
  8
0
370
    -3
  6
Continuous
100
AcDbCircle
 10
-437.458699
 20
-69.222764
 30
0.0
 40
7.8
100
AcDbArc
 50
180.0
 51
270.0
  0
LINE
  5
454
100
AcDbEntity
  8
0
370
    -3
  6
Continuous
100
AcDbLine
 10
-407.545687
 20
-76.222764
 30
0.0
 11
-437.920604
 21
-76.222764
 31
0.0
  0
ARC
  5
455
100
AcDbEntity
  8
0
370
    -3
  6
Continuous
100
AcDbCircle
 10
-407.545687
 20
-69.222764
 30
0.0
 40
7.0
100
AcDbArc
 50
270.0
 51
0.0
  0
ARC
  5
456
100
AcDbEntity
  8
0
370
    -3
  6
Continuous
100
AcDbCircle
 10
-408.007592
 20
-69.222764
 30
0.0
 40
7.8
100
AcDbArc
 50
270.0
 51
0.0
  0
ARC
  5
457
100
AcDbEntity
  8
0
370
    -3
  6
Continuous
100
AcDbCircle
 10
-403.343074
 20
-69.222764
 30
0.0
 40
7.8
100
AcDbArc
 50
270.0
 51
0.0
  0
ELLIPSE
  5
458
100
AcDbEntity
  8
0
370
    -3
  6
Continuous
100
AcDbEllipse
 10
-397.428482
 20
-69.722764
 30
0.0
 11
0.0
 21
3.5
 31
0.0
210
0.0
220
0.0
230
1.0
 40
0.656603
 41
3.5746436290429577
 42
5.3210459426689347
  0
LINE
  5
459
100
AcDbEntity
  8
0
370
    -3
  6
Continuous
100
AcDbLine
 10
-403.343074
 20
-77.022764
 30
0.0
 11
-437.458699
 21
-77.022764
 31
0.0
  0
LINE
  5
45A
100
AcDbEntity
  8
0
370
    -3
  6
Continuous
100
AcDbLine
 10
-400.545687
 20
-30.222764
 30
0.0
 11
-400.545687
 21
-69.222764
 31
0.0
  0
LINE
  5
45B
100
AcDbEntity
  8
0
370
    -3
  6
Continuous
100
AcDbLine
 10
-395.543074
 20
-69.222764
 30
0.0
 11
-395.543074
 21
-30.222764
 31
0.0
  0
LINE
  5
45C
100
AcDbEntity
  8
0
370
    -3
  6
Continuous
100
AcDbLine
 10
-448.014222
 20
-30.222764
 30
0.0
 11
-448.014222
 21
-61.222764
 31
0.0
  0
LINE
  5
45D
100
AcDbEntity
  8
0
370
    -3
  6
Continuous
100
AcDbLine
 10
-447.014222
 20
-61.222764
 30
0.0
 11
-447.014222
 21
-30.222764
 31
0.0
  0
LINE
  5
45E
100
AcDbEntity
  8
0
370
    -3
  6
Continuous
100
AcDbLine
 10
-448.014222
 20
-61.222764
 30
0.0
 11
-447.014222
 21
-61.222764
 31
0.0
  0
ARC
  5
45F
100
AcDbEntity
  8
0
370
    -3
  6
Continuous
100
AcDbCircle
 10
-437.920604
 20
-69.222764
 30
0.0
 40
7.0
100
AcDbArc
 50
180.0
 51
270.0
  0
LINE
  5
460
100
AcDbEntity
  8
0
370
    -3
  6
Continuous
100
AcDbLine
 10
-447.014222
 20
-30.222764
 30
0.0
 11
-447.014222
 21
-58.222764
 31
0.0
  0
LINE
  5
461
100
AcDbEntity
  8
0
370
    -3
  6
Continuous
100
AcDbLine
 10
-401.77831
 20
-30.222764
 30
0.0
 11
-401.77831
 21
-56.281797
 31
0.0
  0
LINE
  5
462
100
AcDbEntity
  8
0
370
    -3
  6
Continuous
100
AcDbLine
 10
-439.214222
 20
-69.522764
 30
0.0
 11
-409.581364
 21
-69.522764
 31
0.0
  0
LINE
  5
463
100
AcDbEntity
  8
0
370
    -3
  6
Continuous
100
AcDbLine
 10
-402.079806
 20
-57.765194
 30
0.0
 11
-406.082859
 21
-67.206161
 31
0.0
  0
ARC
  5
464
100
AcDbEntity
  8
0
370
    -3
  6
Continuous
100
AcDbCircle
 10
-405.57831
 20
-56.281797
 30
0.0
 40
3.8
100
AcDbArc
 50
337.022625
 51
0.0
  0
ARC
  5
465
100
AcDbEntity
  8
0
370
    -3
  6
Continuous
100
AcDbCircle
 10
-409.581364
 20
-65.722764
 30
0.0
 40
3.8
100
AcDbArc
 50
270.0
 51
337.022625
  0
LINE
  5
466
100
AcDbEntity
  8
0
370
    -3
  6
Continuous
100
AcDbLine
 10
-446.014222
 20
-30.222764
 30
0.0
 11
-446.014222
 21
-62.722764
 31
0.0
  0
ARC
  5
467
100
AcDbEntity
  8
0
370
    -3
  6
Continuous
100
AcDbCircle
 10
-439.214222
 20
-62.722764
 30
0.0
 40
6.8
100
AcDbArc
 50
180.0
 51
270.0
  0
LINE
  5
468
100
AcDbEntity
  8
0
370
    -3
  6
Continuous
100
AcDbLine
 10
-442.504109
 20
-68.673953
 30
0.0
 11
-442.504109
 21
-69.722764
 31
0.0
  0
ARC
  5
469
100
AcDbEntity
  8
0
370
    -3
  6
Continuous
100
AcDbCircle
 10
-436.504109
 20
-69.722764
 30
0.0
 40
6.0
100
AcDbArc
 50
180.0
 51
270.0
  0
ARC
  5
46A
100
AcDbEntity
  8
0
370
    -3
  6
Continuous
100
AcDbCircle
 10
-446.314222
 20
-59.487675
 30
0.0
 40
0.3
100
AcDbArc
 50
0.0
 51
76.657636
  0
ARC
  5
46B
100
AcDbEntity
  8
0
370
    -3
  6
Continuous
100
AcDbCircle
 10
-446.014222
 20
-58.222764
 30
0.0
 40
1.0
100
AcDbArc
 50
180.0
 51
256.657636
  0
LINE
  5
46C
100
AcDbEntity
  8
0
370
    -3
  6
Continuous
100
AcDbLine
 10
-444.920604
 20
-66.421034
 30
0.0
 11
-444.920604
 21
-69.222764
 31
0.0
  0
LINE
  5
46D
100
AcDbEntity
  8
0
370
    -3
  6
Continuous
100
AcDbLine
 10
-445.258699
 20
-69.222764
 30
0.0
 11
-445.258699
 21
-65.837937
 31
0.0
  0
LINE
  5
46E
100
AcDbEntity
  8
0
370
    -3
  6
Continuous
100
AcDbLine
 10
-436.504109
 20
-75.722764
 30
0.0
 11
-404.94761
 21
-75.722764
 31
0.0
  0
LINE
  5
46F
100
AcDbEntity
  8
0
370
    -3
  6
Continuous
100
AcDbLine
 10
-400.207592
 20
-30.222764
 30
0.0
 11
-400.207592
 21
-69.222764
 31
0.0
  0
LINE
  5
470
100
AcDbEntity
  8
0
370
    -3
  6
CENTER
100
AcDbLine
 10
-421.014222
 20
-11.577832
 30
0.0
 11
-421.014222
 21
-51.523221
 31
0.0
  0
ARC
  5
471
100
AcDbEntity
  8
0
370
    -3
  6
Continuous
100
AcDbCircle
 10
-437.458699
 20
8.777236
 30
0.0
 40
7.8
100
AcDbArc
 50
90.0
 51
180.0
  0
LINE
  5
472
100
AcDbEntity
  8
0
370
    -3
  6
Continuous
100
AcDbLine
 10
-407.545687
 20
15.777236
 30
0.0
 11
-437.920604
 21
15.777236
 31
0.0
  0
ARC
  5
473
100
AcDbEntity
  8
0
370
    -3
  6
Continuous
100
AcDbCircle
 10
-407.545687
 20
8.777236
 30
0.0
 40
7.0
100
AcDbArc
 50
0.0
 51
90.0
  0
ARC
  5
474
100
AcDbEntity
  8
0
370
    -3
  6
Continuous
100
AcDbCircle
 10
-408.007592
 20
8.777236
 30
0.0
 40
7.8
100
AcDbArc
 50
0.0
 51
90.0
  0
ARC
  5
475
100
AcDbEntity
  8
0
370
    -3
  6
Continuous
100
AcDbCircle
 10
-403.343074
 20
8.777236
 30
0.0
 40
7.8
100
AcDbArc
 50
0.0
 51
90.0
  0
ELLIPSE
  5
476
100
AcDbEntity
  8
0
370
    -3
  6
Continuous
100
AcDbEllipse
 10
-397.428482
 20
9.277236
 30
0.0
 11
0.0
 21
3.5
 31
0.0
210
0.0
220
0.0
230
1.0
 40
0.656603
 41
4.1037320181003913
 42
5.8501343317260348
  0
LINE
  5
477
100
AcDbEntity
  8
0
370
    -3
  6
Continuous
100
AcDbLine
 10
-403.343074
 20
16.577236
 30
0.0
 11
-437.458699
 21
16.577236
 31
0.0
  0
LINE
  5
478
100
AcDbEntity
  8
0
370
    -3
  6
Continuous
100
AcDbLine
 10
-400.545687
 20
-30.222764
 30
0.0
 11
-400.545687
 21
8.777236
 31
0.0
  0
LINE
  5
479
100
AcDbEntity
  8
0
370
    -3
  6
Continuous
100
AcDbLine
 10
-395.543074
 20
8.777236
 30
0.0
 11
-395.543074
 21
-30.222764
 31
0.0
  0
LINE
  5
47A
100
AcDbEntity
  8
0
370
    -3
  6
Continuous
100
AcDbLine
 10
-448.014222
 20
-30.222764
 30
0.0
 11
-448.014222
 21
0.777236
 31
0.0
  0
LINE
  5
47B
100
AcDbEntity
  8
0
370
    -3
  6
Continuous
100
AcDbLine
 10
-447.014222
 20
0.777236
 30
0.0
 11
-447.014222
 21
-30.222764
 31
0.0
  0
LINE
  5
47C
100
AcDbEntity
  8
0
370
    -3
  6
Continuous
100
AcDbLine
 10
-448.014222
 20
0.777236
 30
0.0
 11
-447.014222
 21
0.777236
 31
0.0
  0
ARC
  5
47D
100
AcDbEntity
  8
0
370
    -3
  6
Continuous
100
AcDbCircle
 10
-437.920604
 20
8.777236
 30
0.0
 40
7.0
100
AcDbArc
 50
90.0
 51
180.0
  0
LINE
  5
47E
100
AcDbEntity
  8
0
370
    -3
  6
Continuous
100
AcDbLine
 10
-447.014222
 20
-30.222764
 30
0.0
 11
-447.014222
 21
-2.222764
 31
0.0
  0
LINE
  5
47F
100
AcDbEntity
  8
0
370
    -3
  6
Continuous
100
AcDbLine
 10
-401.77831
 20
-30.222764
 30
0.0
 11
-401.77831
 21
-4.163731
 31
0.0
  0
LINE
  5
480
100
AcDbEntity
  8
0
370
    -3
  6
Continuous
100
AcDbLine
 10
-439.214222
 20
9.077236
 30
0.0
 11
-409.581364
 21
9.077236
 31
0.0
  0
LINE
  5
481
100
AcDbEntity
  8
0
370
    -3
  6
Continuous
100
AcDbLine
 10
-402.079806
 20
-2.680334
 30
0.0
 11
-406.082859
 21
6.760633
 31
0.0
  0
ARC
  5
482
100
AcDbEntity
  8
0
370
    -3
  6
Continuous
100
AcDbCircle
 10
-405.57831
 20
-4.163731
 30
0.0
 40
3.8
100
AcDbArc
 50
360.0
 51
22.977375
  0
ARC
  5
483
100
AcDbEntity
  8
0
370
    -3
  6
Continuous
100
AcDbCircle
 10
-409.581364
 20
5.277236
 30
0.0
 40
3.8
100
AcDbArc
 50
22.977375
 51
90.0
  0
LINE
  5
484
100
AcDbEntity
  8
0
370
    -3
  6
Continuous
100
AcDbLine
 10
-446.014222
 20
-30.222764
 30
0.0
 11
-446.014222
 21
2.277236
 31
0.0
  0
ARC
  5
485
100
AcDbEntity
  8
0
370
    -3
  6
Continuous
100
AcDbCircle
 10
-439.214222
 20
2.277236
 30
0.0
 40
6.8
100
AcDbArc
 50
90.0
 51
180.0
  0
LINE
  5
486
100
AcDbEntity
  8
0
370
    -3
  6
Continuous
100
AcDbLine
 10
-442.504109
 20
8.228425
 30
0.0
 11
-442.504109
 21
9.277236
 31
0.0
  0
ARC
  5
487
100
AcDbEntity
  8
0
370
    -3
  6
Continuous
100
AcDbCircle
 10
-436.504109
 20
9.277236
 30
0.0
 40
6.0
100
AcDbArc
 50
90.0
 51
180.0
  0
ARC
  5
488
100
AcDbEntity
  8
0
370
    -3
  6
Continuous
100
AcDbCircle
 10
-446.314222
 20
-0.957853
 30
0.0
 40
0.3
100
AcDbArc
 50
283.342364
 51
0.0
  0
ARC
  5
489
100
AcDbEntity
  8
0
370
    -3
  6
Continuous
100
AcDbCircle
 10
-446.014222
 20
-2.222764
 30
0.0
 40
1.0
100
AcDbArc
 50
103.342364
 51
180.0
  0
LINE
  5
48A
100
AcDbEntity
  8
0
370
    -3
  6
Continuous
100
AcDbLine
 10
-444.920604
 20
5.975506
 30
0.0
 11
-444.920604
 21
8.777236
 31
0.0
  0
LINE
  5
48B
100
AcDbEntity
  8
0
370
    -3
  6
Continuous
100
AcDbLine
 10
-445.258699
 20
8.777236
 30
0.0
 11
-445.258699
 21
5.392409
 31
0.0
  0
LINE
  5
48C
100
AcDbEntity
  8
0
370
    -3
  6
Continuous
100
AcDbLine
 10
-436.504109
 20
15.277236
 30
0.0
 11
-404.94761
 21
15.277236
 31
0.0
  0
LINE
  5
48D
100
AcDbEntity
  8
0
370
    -3
  6
Continuous
100
AcDbLine
 10
-400.207592
 20
-30.222764
 30
0.0
 11
-400.207592
 21
8.777236
 31
0.0
  0
ARC
  5
48E
100
AcDbEntity
  8
0
370
    -3
  6
Continuous
100
AcDbCircle
 10
-421.014222
 20
-30.222764
 30
0.0
 40
14.0
100
AcDbArc
 50
0.0
 51
180.0
  0
ARC
  5
48F
100
AcDbEntity
  8
0
370
    -3
  6
Continuous
100
AcDbCircle
 10
-421.014222
 20
-30.222764
 30
0.0
 40
9.3155
100
AcDbArc
 50
0.0
 51
180.0
  0
ARC
  5
490
100
AcDbEntity
  8
0
370
    -3
  6
Continuous
100
AcDbCircle
 10
-421.014222
 20
-30.222764
 30
0.0
 40
10.4775
100
AcDbArc
 50
0.0
 51
180.0
  0
LINE
  5
491
100
AcDbEntity
  8
0
370
    -3
  6
Continuous
100
AcDbLine
 10
-439.214222
 20
-57.054135
 30
0.0
 11
-401.857626
 21
-57.054135
 31
0.0
  0
ARC
  5
492
100
AcDbEntity
  8
0
370
    -3
  6
Continuous
100
AcDbCircle
 10
-439.214222
 20
-50.254135
 30
0.0
 40
6.8
100
AcDbArc
 50
180.0
 51
270.0
  0
ARC
  5
493
100
AcDbEntity
  8
0
370
    -3
  6
Continuous
100
AcDbCircle
 10
-439.214222
 20
-10.191393
 30
0.0
 40
6.8
100
AcDbArc
 50
90.0
 51
180.0
  0
LINE
  5
494
100
AcDbEntity
  8
0
370
    -3
  6
Continuous
100
AcDbLine
 10
-439.214222
 20
-3.391393
 30
0.0
 11
-401.857626
 21
-3.391393
 31
0.0
  0
LINE
  5
495
100
AcDbEntity
  8
0
370
    -3
  6
Continuous
100
AcDbLine
 10
-448.014222
 20
0.777236
 30
0.0
 11
-448.014222
 21
-61.222764
 31
0.0
  0
ARC
  5
496
100
AcDbEntity
  8
0
370
    -3
  6
Continuous
100
AcDbCircle
 10
-449.014222
 20
-61.748607
 30
0.0
 40
1.0
100
AcDbArc
 50
271.5
 51
0.0
  0
LINE
  5
497
100
AcDbEntity
  8
0
370
    -3
  6
Continuous
100
AcDbLine
 10
-452.014222
 20
-62.827508
 30
0.0
 11
-448.988045
 21
-62.748264
 31
0.0
  0
LINE
  5
498
100
AcDbEntity
  8
0
370
    -3
  6
Continuous
100
AcDbLine
 10
-448.014222
 20
-61.748607
 30
0.0
 11
-448.014222
 21
1.303079
 31
0.0
  0
ARC
  5
499
100
AcDbEntity
  8
0
370
    -3
  6
Continuous
100
AcDbCircle
 10
-449.014222
 20
1.303079
 30
0.0
 40
1.0
100
AcDbArc
 50
0.0
 51
88.5
  0
LINE
  5
49A
100
AcDbEntity
  8
0
370
    -3
  6
Continuous
100
AcDbLine
 10
-452.014222
 20
2.38198
 30
0.0
 11
-448.988045
 21
2.302736
 31
0.0
  0
ARC
  5
49B
100
AcDbEntity
  8
0
370
    -3
  6
Continuous
100
AcDbCircle
 10
-421.014222
 20
-30.222764
 30
0.0
 40
14.0
100
AcDbArc
 50
180.0
 51
360.0
  0
ARC
  5
49C
100
AcDbEntity
  8
0
370
    -3
  6
Continuous
100
AcDbCircle
 10
-421.014222
 20
-30.222764
 30
0.0
 40
9.3155
100
AcDbArc
 50
180.0
 51
360.0
  0
ARC
  5
49D
100
AcDbEntity
  8
0
370
    -3
  6
Continuous
100
AcDbCircle
 10
-421.014222
 20
-30.222764
 30
0.0
 40
10.4775
100
AcDbArc
 50
180.0
 51
360.0
  0
MTEXT
  5
49E
100
AcDbEntity
  8
0
370
    -3
  6
Continuous
100
AcDbMText
 10
-579.083801
 20
159.065353
 30
0.0
 40
15.0
 41
0.0
 71
     7
 72
     1
  1
\W0.43;DATE\W0.72; \W0.43;2011.12.29
  7
ZU_SHPTB00001
 11
1.0
 21
0.0
 31
0.0
 73
     1
 44
1.0
  0
ENDSEC
  0
SECTION
  2
OBJECTS
  0
DICTIONARY
  5
19
100
AcDbDictionary
280
     0
281
     1
  3
ACAD_GROUP
350
1A
  3
ACAD_MLINESTYLE
350
1B
  3
ACAD_LAYOUT
350
1E
  3
ACAD_PLOTSETTINGS
350
22
  3
ACAD_PLOTSTYLENAME
350
1F
  3
ACAD_WIPEOUT_VARS
350
23
  3
DWGPROPS
350
49F
  0
DICTIONARY
  5
1A
102
{ACAD_REACTORS
330
19
102
}
100
AcDbDictionary
280
     0
281
     1
  0
DICTIONARY
  5
1B
102
{ACAD_REACTORS
330
19
102
}
100
AcDbDictionary
280
     0
281
     1
  3
Standard
350
1C
  0
MLINESTYLE
  5
1C
102
{ACAD_REACTORS
330
1B
102
}
100
AcDbMlineStyle
  2
Standard
 70
     0
  3

 62
     0
 51
90.0
 52
90.0
 71
     2
 49
0.5
 62
   256
  6
ByLayer
 49
-0.5
 62
   256
  6
ByLayer
  0
ACDBDICTIONARYWDFLT
  5
1F
102
{ACAD_REACTORS
330
19
102
}
100
AcDbDictionary
281
     1
  3
Normal
350
1D
100
AcDbDictionaryWithDefault
340
1D
  0
ACDBPLACEHOLDER
  5
1D
102
{ACAD_REACTORS
330
1F
102
}
  0
LAYOUT
  5
20
102
{ACAD_REACTORS
330
1E
102
}
100
AcDbPlotSettings
  1

  2

  4

  6

 40
0.0
 41
0.0
 42
0.0
 43
0.0
 44
0.0
 45
0.0
 46
0.0
 47
0.0
 48
0.0
 49
0.0
140
0.0
141
0.0
142
1.0
143
1.0
 70
  1024
 72
     0
 73
     0
 74
     0
  7

 75
     0
147
1.0
148
0.0
149
0.0
100
AcDbLayout
  1
Model
 70
     0
 71
     0
 10
0.0
 20
0.0
 11
0.0
 21
0.0
 12
0.0
 22
0.0
 32
0.0
 14
0.0
 24
0.0
 34
0.0
 15
0.0
 25
0.0
 35
0.0
146
0.0
 13
0.0
 23
0.0
 33
0.0
 16
0.0
 26
0.0
 36
0.0
 17
0.0
 27
0.0
 37
0.0
 76
     0
330
A
331
0
345
0
346
0
  0
LAYOUT
  5
21
102
{ACAD_REACTORS
330
1E
102
}
100
AcDbPlotSettings
  1

  2

  4

  6

 40
0.0
 41
0.0
 42
0.0
 43
0.0
 44
0.0
 45
0.0
 46
0.0
 47
0.0
 48
0.0
 49
0.0
140
0.0
141
0.0
142
1.0
143
1.0
 70
     0
 72
     0
 73
     0
 74
     0
  7

 75
     0
147
1.0
148
0.0
149
0.0
100
AcDbLayout
  1
Layout1
 70
     0
 71
     0
 10
0.0
 20
0.0
 11
0.0
 21
0.0
 12
0.0
 22
0.0
 32
0.0
 14
0.0
 24
0.0
 34
0.0
 15
0.0
 25
0.0
 35
0.0
146
0.0
 13
0.0
 23
0.0
 33
0.0
 16
0.0
 26
0.0
 36
0.0
 17
0.0
 27
0.0
 37
0.0
 76
     0
330
B
331
0
345
0
346
0
  0
DICTIONARY
  5
1E
102
{ACAD_REACTORS
330
19
102
}
100
AcDbDictionary
280
     0
281
     1
  3
Layout1
350
21
  3
Model
350
20
  0
DICTIONARY
  5
22
102
{ACAD_REACTORS
330
19
102
}
100
AcDbDictionary
280
     0
281
     1
  0
WIPEOUTVARIABLES
  5
23
100
AcDbWipeoutVariables
 70
     1
  0
XRECORD
  5
49F
100
AcDbXrecord
280
     1
  1
DWGPROPS COOKIE
  2

  3

  4

  6

  7

  8
HK96464
  9

300
=
301
=
302
=
303
=
304
=
305
=
306
=
307
=
308
=
309
=
 40
0.0
 41
2455931.628113
 42
2455931.628113
  1

 90
        0
  0
ENDSEC
  0
EOF
