  0
SECTION
  2
HEADER
  9
$ACADVER
  1
AC1015
  9
$ACADMAINTVER
 70
     6
  9
$DWGCODEPAGE
  3
ANSI_932
  9
$INSBASE
 10
0.0
 20
0.0
 30
0.0
  9
$EXTMIN
 10
1.000000E+20
 20
1.000000E+20
 30
1.000000E+20
  9
$EXTMAX
 10
-1.000000E+20
 20
-1.000000E+20
 30
-1.000000E+20
  9
$LIMMIN
 10
0.0
 20
0.0
  9
$LIMMAX
 10
0.0
 20
0.0
  9
$ORTHOMODE
 70
     0
  9
$REGENMODE
 70
     1
  9
$FILLMODE
 70
     1
  9
$QTEXTMODE
 70
     0
  9
$MIRRTEXT
 70
     1
  9
$LTSCALE
 40
1.0
  9
$ATTMODE
 70
     1
  9
$TEXTSIZE
 40
2.8
  9
$TRACEWID
 40
0.05
  9
$TEXTSTYLE
  7
Standard
  9
$CLAYER
  8
0
  9
$CELTYPE
  6
Continuous
  9
$CECOLOR
 62
   256
  9
$CELTSCALE
 40
1.0
  9
$DISPSILH
 70
     0
  9
$DIMSCALE
 40
1.0
  9
$DIMASZ
 40
1.931852
  9
$DIMEXO
 40
1.0
  9
$DIMDLI
 40
0.38
  9
$DIMRND
 40
0.0
  9
$DIMDLE
 40
0.0
  9
$DIMEXE
 40
2.0
  9
$DIMTP
 40
0.0
  9
$DIMTM
 40
0.0
  9
$DIMTXT
 40
10.0
  9
$DIMCEN
 40
0.09
  9
$DIMTSZ
 40
0.0
  9
$DIMTOL
 70
     0
  9
$DIMLIM
 70
     0
  9
$DIMTIH
 70
     1
  9
$DIMTOH
 70
     1
  9
$DIMSE1
 70
     0
  9
$DIMSE2
 70
     0
  9
$DIMTAD
 70
     1
  9
$DIMZIN
 70
     0
  9
$DIMBLK
  1

  9
$DIMASO
 70
     1
  9
$DIMSHO
 70
     1
  9
$DIMPOST
  1

  9
$DIMAPOST
  1

  9
$DIMALT
 70
     0
  9
$DIMALTD
 70
     2
  9
$DIMALTF
 40
25.4
  9
$DIMLFAC
 40
1.0
  9
$DIMTOFL
 70
     0
  9
$DIMTVP
 40
0.0
  9
$DIMTIX
 70
     0
  9
$DIMSOXD
 70
     0
  9
$DIMSAH
 70
     0
  9
$DIMBLK1
  1

  9
$DIMBLK2
  1

  9
$DIMSTYLE
  2
Standard
  9
$DIMCLRD
 70
     0
  9
$DIMCLRE
 70
     0
  9
$DIMCLRT
 70
     0
  9
$DIMTFAC
 40
0.714286
  9
$DIMGAP
 40
0.09
  9
$DIMJUST
 70
     0
  9
$DIMSD1
 70
     0
  9
$DIMSD2
 70
     0
  9
$DIMTOLJ
 70
     1
  9
$DIMTZIN
 70
     0
  9
$DIMALTZ
 70
     0
  9
$DIMALTTZ
 70
     0
  9
$DIMUPT
 70
     0
  9
$DIMDEC
 70
     4
  9
$DIMTDEC
 70
     4
  9
$DIMALTU
 70
     2
  9
$DIMALTTD
 70
     2
  9
$DIMTXSTY
  7
Standard
  9
$DIMAUNIT
 70
     0
  9
$DIMADEC
 70
     0
  9
$DIMALTRND
 40
0.0
  9
$DIMAZIN
 70
     0
  9
$DIMDSEP
 70
     0
  9
$DIMATFIT
 70
     3
  9
$DIMFRAC
 70
     0
  9
$DIMLDRBLK
  1

  9
$DIMLUNIT
 70
     2
  9
$DIMLWD
 70
     0
  9
$DIMLWE
 70
     0
  9
$DIMTMOVE
 70
     0
  9
$LUNITS
 70
     2
  9
$LUPREC
 70
     3
  9
$SKETCHINC
 40
0.1
  9
$FILLETRAD
 40
0.0
  9
$AUNITS
 70
     0
  9
$AUPREC
 70
     0
  9
$MENU
  1
acad
  9
$ELEVATION
 40
0.0
  9
$PELEVATION
 40
0.0
  9
$THICKNESS
 40
0.0
  9
$LIMCHECK
 70
     0
  9
$CHAMFERA
 40
0.0
  9
$CHAMFERB
 40
0.0
  9
$CHAMFERC
 40
0.0
  9
$CHAMFERD
 40
0.0
  9
$SKPOLY
 70
     0
  9
$TDCREATE
 40
0.000000000
  9
$TDUCREATE
 40
0.000000000
  9
$TDUPDATE
 40
0.000000000
  9
$TDUUPDATE
 40
0.000000000
  9
$TDINDWG
 40
0.0000000000
  9
$TDUSRTIMER
 40
0.0000000000
  9
$USRTIMER
 70
     1
  9
$ANGBASE
 50
0.0
  9
$ANGDIR
 70
     0
  9
$PDMODE
 70
     0
  9
$PDSIZE
 40
0.0
  9
$PLINEWID
 40
0.0
  9
$SPLFRAME
 70
     0
  9
$SPLINETYPE
 70
     6
  9
$SPLINESEGS
 70
     8
  9
$HANDSEED
  5
49A
  9
$SURFTAB1
 70
     6
  9
$SURFTAB2
 70
     6
  9
$SURFTYPE
 70
     6
  9
$SURFU
 70
     6
  9
$SURFV
 70
     6
  9
$UCSBASE
  2

  9
$UCSNAME
  2

  9
$UCSORG
 10
0.0
 20
0.0
 30
0.0
  9
$UCSXDIR
 10
1.0
 20
0.0
 30
0.0
  9
$UCSYDIR
 10
0.0
 20
1.0
 30
0.0
  9
$UCSORTHOREF
  2

  9
$UCSORTHOVIEW
 70
     0
  9
$UCSORGTOP
 10
0.0
 20
0.0
 30
0.0
  9
$UCSORGBOTTOM
 10
0.0
 20
0.0
 30
0.0
  9
$UCSORGLEFT
 10
0.0
 20
0.0
 30
0.0
  9
$UCSORGRIGHT
 10
0.0
 20
0.0
 30
0.0
  9
$UCSORGFRONT
 10
0.0
 20
0.0
 30
0.0
  9
$UCSORGBACK
 10
0.0
 20
0.0
 30
0.0
  9
$PUCSBASE
  2

  9
$PUCSNAME
  2

  9
$PUCSORG
 10
0.0
 20
0.0
 30
0.0
  9
$PUCSXDIR
 10
1.0
 20
0.0
 30
0.0
  9
$PUCSYDIR
 10
0.0
 20
1.0
 30
0.0
  9
$PUCSORTHOREF
  2

  9
$PUCSORTHOVIEW
 70
     0
  9
$PUCSORGTOP
 10
0.0
 20
0.0
 30
0.0
  9
$PUCSORGBOTTOM
 10
0.0
 20
0.0
 30
0.0
  9
$PUCSORGLEFT
 10
0.0
 20
0.0
 30
0.0
  9
$PUCSORGRIGHT
 10
0.0
 20
0.0
 30
0.0
  9
$PUCSORGFRONT
 10
0.0
 20
0.0
 30
0.0
  9
$PUCSORGBACK
 10
0.0
 20
0.0
 30
0.0
  9
$USERI1
 70
     0
  9
$USERI2
 70
     0
  9
$USERI3
 70
     0
  9
$USERI4
 70
     0
  9
$USERI5
 70
     0
  9
$USERR1
 40
0.0
  9
$USERR2
 40
0.0
  9
$USERR3
 40
0.0
  9
$USERR4
 40
0.0
  9
$USERR5
 40
0.0
  9
$WORLDVIEW
 70
     1
  9
$SHADEDGE
 70
     3
  9
$SHADEDIF
 70
    70
  9
$TILEMODE
 70
     1
  9
$MAXACTVP
 70
    16
  9
$PINSBASE
 10
0.0
 20
0.0
 30
0.0
  9
$PLIMCHECK
 70
     0
  9
$PEXTMIN
 10
1.000000E+20
 20
1.000000E+20
 30
1.000000E+20
  9
$PEXTMAX
 10
-1.000000E+20
 20
-1.000000E+20
 30
-1.000000E+20
  9
$PLIMMIN
 10
0.0
 20
0.0
  9
$PLIMMAX
 10
12.0
 20
9.0
  9
$UNITMODE
 70
     0
  9
$VISRETAIN
 70
     0
  9
$PLINEGEN
 70
     1
  9
$PSLTSCALE
 70
     0
  9
$TREEDEPTH
 70
  3020
  9
$CMLSTYLE
  2
Standard
  9
$CMLJUST
 70
     0
  9
$CMLSCALE
 40
1.0
  9
$PROXYGRAPHICS
 70
     0
  9
$MEASUREMENT
 70
     0
  9
$CELWEIGHT
370
     0
  9
$ENDCAPS
280
     0
  9
$JOINSTYLE
280
     0
  9
$LWDISPLAY
290
     0
  9
$INSUNITS
 70
     0
  9
$HYPERLINKBASE
  1

  9
$STYLESHEET
  1

  9
$XEDIT
290
     1
  9
$CEPSNTYPE
380
     0
  9
$PSTYLEMODE
290
     1
  9
$FINGERPRINTGUID
  2

  9
$VERSIONGUID
  2

  9
$EXTNAMES
290
     1
  9
$PSVPSCALE
 40
0.0
  0
ENDSEC
  0
SECTION
  2
CLASSES
  0
CLASS
  1
LWPOLYLINE
  2
AcDbPolyline
  3
AutoCAD 2000
 90
    32768
280
     0
281
     1
  0
CLASS
  1
IMAGE
  2
AcDbRasterImage
  3
ISM
 90
    32895
280
     0
281
     1
  0
CLASS
  1
OLE2FRAME
  2
AcDbOle2Frame
  3
AutoCAD 2000
 90
    32768
280
     0
281
     1
  0
CLASS
  1
HATCH
  2
AcDbHatch
  3
AutoCAD 2000
 90
    32768
280
     0
281
     1
  0
CLASS
  1
DICTIONARYVAR
  2
AcDbDictionaryVar
  3
AutoCAD 2000
 90
    32768
280
     0
281
     0
  0
CLASS
  1
RASTERVARIABLES
  2
AcDbRasterVariables
  3
ISM
 90
    32768
280
     0
281
     0
  0
CLASS
  1
IMAGEDEF
  2
AcDbRasterImageDef
  3
ISM
 90
    32768
280
     0
281
     0
  0
CLASS
  1
IMAGEDEF_REACTOR
  2
AcDbRasterImageDefReactor
  3
ISM
 90
    32769
280
     0
281
     0
  0
CLASS
  1
IDBUFFER
  2
AcDbIdBuffer
  3
AutoCAD 2000
 90
    32768
280
     0
281
     0
  0
CLASS
  1
SPATIAL_FILTER
  2
AcDbSpatialFilter
  3
AutoCAD 2000
 90
    32768
280
     0
281
     0
  0
CLASS
  1
XRECORD
  2
AcDbXrecord
  3
AutoCAD 2000
 90
        0
280
     0
281
     0
  0
CLASS
  1
SORTENTSTABLE
  2
AcDbSortentsTable
  3
AutoCAD 2000
 90
    32768
280
     0
281
     0
  0
CLASS
  1
LAYER_INDEX
  2
AcDbLayerIndex
  3
AutoCAD 2000
 90
    32768
280
     0
281
     0
  0
CLASS
  1
SPATIAL_INDEX
  2
AcDbSpatialIndex
  3
AutoCAD 2000
 90
    32768
280
     0
281
     0
  0
CLASS
  1
OBJECT_PTR
  2
CAseDLPNTableRecord
  3
"ASE-LPNTableRecord"
 90
    32769
280
     0
281
     0
  0
CLASS
  1
LAYOUT
  2
AcDbLayout
  3
AutoCAD 2000
 90
        0
280
     0
281
     0
  0
CLASS
  1
PLOTSETTINGS
  2
AcDbPlotSettings
  3
AutoCAD 2000
 90
    32768
280
     0
281
     0
  0
CLASS
  1
ACDBDICTIONARYWDFLT
  2
AcDbDictionaryWithDefault
  3
AutoCAD 2000
 90
        0
280
     0
281
     0
  0
CLASS
  1
ACDBPLACEHOLDER
  2
AcDbPlaceHolder
  3
AutoCAD 2000
 90
        0
280
     0
281
     0
  0
CLASS
  1
VBA_PROJECT
  2
AcDbVbaProject
  3
acadvba
 90
    32768
280
     0
281
     0
  0
CLASS
  1
WIPEOUT
  2
AcDbWipeout
  3
WipeOut|AutoCAD Express Tool|expresstools@autodesk.com
 90
    32895
280
     0
281
     1
  0
CLASS
  1
WIPEOUTVARIABLES
  2
AcDbWipeoutVariables
  3
WipeOut|AutoCAD Express Tool|expresstools@autodesk.com
 90
        0
280
     0
281
     0
  0
CLASS
  1
RTEXT
  2
RText
  3
RText|AutoCAD Express Tool|expresstools@autodesk.com
 90
    32768
280
     0
281
     1
  0
CLASS
  1
ARCALIGNEDTEXT
  2
AcDbArcAlignedText
  3
ATEXT|AutoCAD Express Tool|expresstools@autodesk.com
 90
    32768
280
     0
281
     1
  0
ENDSEC
  0
SECTION
  2
TABLES
  0
TABLE
  2
VPORT
  5
7
100
AcDbSymbolTable
 70
     1
  0
VPORT
  5
15
100
AcDbSymbolTableRecord
100
AcDbViewportTableRecord
  2
*ACTIVE
 70
     0
 10
0.0
 20
0.0
 11
1.0
 21
1.0
 12
0.0
 22
0.0
 13
0.0
 23
0.0
 14
1.0
 24
1.0
 15
0.0
 25
0.0
 16
0.0
 26
0.0
 36
1.0
 17
0.0
 27
0.0
 37
0.0
 40
100.0
 41
1.0
 42
50.0
 43
0.0
 44
0.0
 50
0.0
 51
0.0
 71
     0
 72
   100
 73
     1
 74
     1
 75
     0
 76
     0
 77
     0
 78
     0
281
     0
 65
     0
110
0.0
120
0.0
130
0.0
111
1.0
121
0.0
131
0.0
112
0.0
122
1.0
132
0.0
345
0
346
0
 79
     0
146
0.0
  0
ENDTAB
  0
TABLE
  2
LTYPE
  5
4
100
AcDbSymbolTable
 70
     7
  0
LTYPE
  5
11
100
AcDbSymbolTableRecord
100
AcDbLinetypeTableRecord
  2
ByBlock
 70
    64
  3

 72
    65
 73
     0
 40
0.0
  0
LTYPE
  5
12
100
AcDbSymbolTableRecord
100
AcDbLinetypeTableRecord
  2
ByLayer
 70
    64
  3

 72
    65
 73
     0
 40
0.0
  0
LTYPE
  5
13
100
AcDbSymbolTableRecord
100
AcDbLinetypeTableRecord
  2
Continuous
 70
    64
  3
Solid line
 72
    65
 73
     0
 40
0.0
  0
LTYPE
  5
24
100
AcDbSymbolTableRecord
100
AcDbLinetypeTableRecord
  2
DASHED
 70
    64
  3
Dashed __ __ __ __ __ __ __ __ __ __ __ __ __ _
 72
    65
 73
     2
 40
0.75
 49
0.5
 74
     0
 49
-0.25
 74
     0
  0
LTYPE
  5
25
100
AcDbSymbolTableRecord
100
AcDbLinetypeTableRecord
  2
CENTER
 70
    64
  3
Center ____ _ ____ _ ____ _ ____ _ ____ _ ____
 72
    65
 73
     4
 40
1.0
 49
0.5
 74
     0
 49
-0.25
 74
     0
 49
0.0
 74
     0
 49
-0.25
 74
     0
  0
LTYPE
  5
26
100
AcDbSymbolTableRecord
100
AcDbLinetypeTableRecord
  2
DIVIDE
 70
    64
  3
Divide ____ . . ____ . . ____ . . ____ . . ____
 72
    65
 73
     6
 40
1.25
 49
0.5
 74
     0
 49
-0.25
 74
     0
 49
0.0
 74
     0
 49
-0.25
 74
     0
 49
0.0
 74
     0
 49
-0.25
 74
     0
  0
LTYPE
  5
27
100
AcDbSymbolTableRecord
100
AcDbLinetypeTableRecord
  2
PHANTOM
 70
    64
  3
Phantom ______  __  __  ______  __  __  ______
 72
    65
 73
     6
 40
9.0
 49
4.3
 74
     0
 49
-0.7
 74
     0
 49
1.3
 74
     0
 49
-0.7
 74
     0
 49
1.3
 74
     0
 49
-0.7
 74
     0
  0
ENDTAB
  0
TABLE
  2
LAYER
  5
2
100
AcDbSymbolTable
 70
     3
  0
LAYER
  5
14
100
AcDbSymbolTableRecord
100
AcDbLayerTableRecord
  2
0
 70
    64
 62
    53
  6
Continuous
290
     1
370
    -3
390
1D
  0
LAYER
  5
28
100
AcDbSymbolTableRecord
100
AcDbLayerTableRecord
  2
3
 70
    64
 62
     4
  6
Continuous
290
     1
370
    -3
390
1D
  0
LAYER
  5
29
100
AcDbSymbolTableRecord
100
AcDbLayerTableRecord
  2
5
 70
    64
 62
   191
  6
Continuous
290
     1
370
    -3
390
1D
  0
ENDTAB
  0
TABLE
  2
STYLE
  5
3
100
AcDbSymbolTable
 70
     2
  0
STYLE
  5
17
100
AcDbSymbolTableRecord
100
AcDbTextStyleTableRecord
  2
Standard
 70
     0
 40
0.0
 41
1.0
 50
0.0
 71
     0
 42
0.0
  3
txt
  4

  0
STYLE
  5
2A
100
AcDbSymbolTableRecord
100
AcDbTextStyleTableRecord
  2
ZU_SHPTB00001
 70
     0
 40
0.0
 41
1.0
 50
0.0
 71
     0
 42
0.0
  3
monotxt
  4
bigfont
  0
ENDTAB
  0
TABLE
  2
VIEW
  5
5
100
AcDbSymbolTable
 70
     0
  0
ENDTAB
  0
TABLE
  2
UCS
  5
6
100
AcDbSymbolTable
 70
     0
  0
ENDTAB
  0
TABLE
  2
APPID
  5
8
100
AcDbSymbolTable
 70
     1
  0
APPID
  5
16
100
AcDbSymbolTableRecord
100
AcDbRegAppTableRecord
  2
ACAD
 70
     0
  0
ENDTAB
  0
TABLE
  2
DIMSTYLE
  5
9
100
AcDbSymbolTable
 70
     1
100
AcDbDimStyleTable
 71
     0
  0
DIMSTYLE
105
18
100
AcDbSymbolTableRecord
100
AcDbDimStyleTableRecord
  2
Standard
 70
     0
  3

  4

 40
1.0
 41
0.18
 42
0.0625
 43
0.38
 44
0.18
 45
0.0
 46
0.0
 47
0.0
 48
0.0
 71
     0
 72
     0
 73
     1
 74
     1
 75
     0
 76
     0
 77
     0
 78
     0
 79
     0
140
0.18
141
0.09
142
0.0
143
25.4
144
1.0
145
0.0
146
1.0
147
0.09
148
0.0
170
     0
171
     2
172
     0
173
     0
174
     0
175
     0
176
     0
177
     0
178
     0
179
     0
271
     4
272
     4
273
     2
274
     2
275
     0
276
     0
277
     2
278
    46
279
     0
280
     0
281
     0
282
     0
283
     1
284
     0
285
     0
286
     0
288
     0
340
17
341
0
342
0
343
0
344
0
371
    -2
372
    -2
  0
ENDTAB
  0
TABLE
  2
BLOCK_RECORD
  5
1
100
AcDbSymbolTable
 70
     1
  0
BLOCK_RECORD
  5
A
100
AcDbSymbolTableRecord
100
AcDbBlockTableRecord
  2
*MODEL_SPACE
340
20
  0
BLOCK_RECORD
  5
B
100
AcDbSymbolTableRecord
100
AcDbBlockTableRecord
  2
*PAPER_SPACE
340
21
  0
BLOCK_RECORD
  5
173
100
AcDbSymbolTableRecord
100
AcDbBlockTableRecord
  2
ZU_SYM__USERS_HOME_SYMBOL_POO_SYM_B20_-1
340
0
102
{BLKREFS
331
17B
102
}
  0
ENDTAB
  0
ENDSEC
  0
SECTION
  2
BLOCKS
  0
BLOCK
  5
D
100
AcDbEntity
  8
0
100
AcDbBlockBegin
  2
*MODEL_SPACE
 70
     0
 10
0.0
 20
0.0
 30
0.0
  3
*MODEL_SPACE
  1

  0
ENDBLK
  5
E
100
AcDbEntity
  8
0
100
AcDbBlockEnd
  0
BLOCK
  5
F
100
AcDbEntity
 67
     1
  8
0
100
AcDbBlockBegin
  2
*PAPER_SPACE
 70
     0
 10
0.0
 20
0.0
 30
0.0
  3
*PAPER_SPACE
  1

  0
ENDBLK
  5
10
100
AcDbEntity
 67
     1
  8
0
100
AcDbBlockEnd
  0
BLOCK
  5
174
100
AcDbEntity
  8
0
100
AcDbBlockBegin
  2
ZU_SYM__USERS_HOME_SYMBOL_POO_SYM_B20_-1
 70
    64
 10
0.0
 20
0.0
 30
0.0
  3
ZU_SYM__USERS_HOME_SYMBOL_POO_SYM_B20_-1
  1

  0
POINT
  5
175
100
AcDbEntity
  8
0
370
    -3
  6
Continuous
100
AcDbPoint
 10
0.0
 20
0.0
 30
0.0
  0
LINE
  5
176
100
AcDbEntity
  8
0
370
    -3
  6
Continuous
100
AcDbLine
 10
0.0
 20
-4.249999
 30
0.0
 11
0.0
 21
4.249999
 31
0.0
  0
LINE
  5
177
100
AcDbEntity
  8
0
370
    -3
  6
Continuous
100
AcDbLine
 10
-5.0
 20
-4.249999
 30
0.0
 11
-5.0
 21
4.249999
 31
0.0
  0
LINE
  5
178
100
AcDbEntity
  8
0
370
    -3
  6
Continuous
100
AcDbLine
 10
0.0
 20
4.249999
 30
0.0
 11
-5.0
 21
4.249999
 31
0.0
  0
LINE
  5
179
100
AcDbEntity
  8
0
370
    -3
  6
Continuous
100
AcDbLine
 10
0.0
 20
-4.249999
 30
0.0
 11
-5.0
 21
-4.249999
 31
0.0
  0
ENDBLK
  5
17A
100
AcDbEntity
  8
0
100
AcDbBlockEnd
  0
ENDSEC
  0
SECTION
  2
ENTITIES
  0
MTEXT
  5
2B
100
AcDbEntity
  8
0
370
    -3
  6
Continuous
100
AcDbMText
 10
-60.375488
 20
6.84375
 30
0.0
 40
2.8
 41
0.0
 71
     7
 72
     1
  1
\W0.83;　
  7
ZU_SHPTB00001
 11
1.0
 21
0.0
 31
0.0
 73
     1
 44
1.0
  0
LINE
  5
2C
100
AcDbEntity
  8
0
370
    -3
  6
Continuous
100
AcDbLine
 10
105.174682
 20
-59.541438
 30
0.0
 11
66.474682
 21
-59.541438
 31
0.0
  0
ARC
  5
2D
100
AcDbEntity
  8
0
370
    -3
  6
Continuous
100
AcDbCircle
 10
66.474682
 20
-54.541438
 30
0.0
 40
5.0
100
AcDbArc
 50
180.0
 51
270.0
  0
LINE
  5
2E
100
AcDbEntity
  8
0
370
    -3
  6
Continuous
100
AcDbLine
 10
61.474682
 20
-54.541438
 30
0.0
 11
61.474682
 21
-2.341438
 31
0.0
  0
ARC
  5
2F
100
AcDbEntity
  8
0
370
    -3
  6
Continuous
100
AcDbCircle
 10
63.974682
 20
-2.341438
 30
0.0
 40
2.5
100
AcDbArc
 50
90.0
 51
180.0
  0
LINE
  5
30
100
AcDbEntity
  8
0
370
    -3
  6
Continuous
100
AcDbLine
 10
75.441872
 20
0.158562
 30
0.0
 11
63.974682
 21
0.158562
 31
0.0
  0
ARC
  5
31
100
AcDbEntity
  8
0
370
    -3
  6
Continuous
100
AcDbCircle
 10
75.441872
 20
-1.841438
 30
0.0
 40
2.0
100
AcDbArc
 50
3.848247
 51
90.0
  0
ARC
  5
32
100
AcDbEntity
  8
0
370
    -3
  6
Continuous
100
AcDbCircle
 10
105.174682
 20
0.158562
 30
0.0
 40
27.8
100
AcDbArc
 50
183.848247
 51
270.0
  0
ARC
  5
33
100
AcDbEntity
  8
0
370
    -3
  6
Continuous
100
AcDbCircle
 10
146.374682
 20
-2.341438
 30
0.0
 40
2.5
100
AcDbArc
 50
0.0
 51
90.0
  0
LINE
  5
34
100
AcDbEntity
  8
0
370
    -3
  6
Continuous
100
AcDbLine
 10
134.907492
 20
0.158562
 30
0.0
 11
146.374682
 21
0.158562
 31
0.0
  0
ARC
  5
35
100
AcDbEntity
  8
0
370
    -3
  6
Continuous
100
AcDbCircle
 10
134.907492
 20
-1.841438
 30
0.0
 40
2.0
100
AcDbArc
 50
90.0
 51
176.151753
  0
ARC
  5
36
100
AcDbEntity
  8
0
370
    -3
  6
Continuous
100
AcDbCircle
 10
105.174682
 20
0.158562
 30
0.0
 40
27.8
100
AcDbArc
 50
270.0
 51
356.151753
  0
LINE
  5
37
100
AcDbEntity
  8
0
370
    -3
  6
Continuous
100
AcDbLine
 10
105.174682
 20
-59.541438
 30
0.0
 11
143.874682
 21
-59.541438
 31
0.0
  0
ARC
  5
38
100
AcDbEntity
  8
0
370
    -3
  6
Continuous
100
AcDbCircle
 10
143.874682
 20
-54.541438
 30
0.0
 40
5.0
100
AcDbArc
 50
270.0
 51
0.0
  0
LINE
  5
39
100
AcDbEntity
  8
0
370
    -3
  6
Continuous
100
AcDbLine
 10
148.874682
 20
-54.541438
 30
0.0
 11
148.874682
 21
-2.341438
 31
0.0
  0
CIRCLE
  5
3A
100
AcDbEntity
  8
0
370
    -3
  6
Continuous
100
AcDbCircle
 10
105.174682
 20
0.158562
 30
0.0
 40
17.500244
  0
ARC
  5
3B
100
AcDbEntity
  8
0
370
    -3
  6
Continuous
100
AcDbCircle
 10
38.361543
 20
-62.841438
 30
0.0
 40
2.0
100
AcDbArc
 50
270.0
 51
0.0
  0
LINE
  5
3C
100
AcDbEntity
  8
0
370
    -3
  6
Continuous
100
AcDbLine
 10
169.987822
 20
-2.885075
 30
0.0
 11
169.987822
 21
-62.841438
 31
0.0
  0
LINE
  5
3D
100
AcDbEntity
  8
0
370
    -3
  6
DASHED
100
AcDbLine
 10
74.573662
 20
-78.841438
 30
0.0
 11
65.674682
 21
-78.841438
 31
0.0
  0
LINE
  5
3E
100
AcDbEntity
  8
0
370
    -3
  6
DASHED
100
AcDbLine
 10
105.174682
 20
-77.841438
 30
0.0
 11
75.419245
 21
-77.841438
 31
0.0
  0
ARC
  5
3F
100
AcDbEntity
  8
0
370
    -3
  6
DASHED
100
AcDbCircle
 10
69.674682
 20
-73.841438
 30
0.0
 40
7.0
100
AcDbArc
 50
314.415309
 51
325.150095
  0
ARC
  5
40
100
AcDbEntity
  8
0
370
    -3
  6
DASHED
100
AcDbCircle
 10
140.674682
 20
-73.841438
 30
0.0
 40
7.0
100
AcDbArc
 50
214.849905
 51
225.584691
  0
LINE
  5
41
100
AcDbEntity
  8
0
370
    -3
  6
DASHED
100
AcDbLine
 10
105.174682
 20
-77.841438
 30
0.0
 11
134.93012
 21
-77.841438
 31
0.0
  0
LINE
  5
42
100
AcDbEntity
  8
0
370
    -3
  6
DASHED
100
AcDbLine
 10
135.775703
 20
-78.841438
 30
0.0
 11
144.674682
 21
-78.841438
 31
0.0
  0
LINE
  5
43
100
AcDbEntity
  8
0
370
    -3
  6
Continuous
100
AcDbLine
 10
105.174682
 20
-64.841438
 30
0.0
 11
35.174682
 21
-64.841438
 31
0.0
  0
ARC
  5
44
100
AcDbEntity
  8
0
370
    -3
  6
Continuous
100
AcDbCircle
 10
175.174682
 20
-67.341438
 30
0.0
 40
2.5
100
AcDbArc
 50
0.0
 51
90.0
  0
ARC
  5
45
100
AcDbEntity
  8
0
370
    -3
  6
Continuous
100
AcDbCircle
 10
35.174682
 20
-67.341438
 30
0.0
 40
2.5
100
AcDbArc
 50
90.0
 51
180.0
  0
LINE
  5
46
100
AcDbEntity
  8
0
370
    -3
  6
CENTER
100
AcDbLine
 10
105.174682
 20
-17.841438
 30
0.0
 11
105.174682
 21
0.158562
 31
0.0
  0
LINE
  5
47
100
AcDbEntity
  8
0
370
    -3
  6
CENTER
100
AcDbLine
 10
105.174682
 20
0.158562
 30
0.0
 11
105.174682
 21
58.388624
 31
0.0
  0
LINE
  5
48
100
AcDbEntity
  8
0
370
    -3
  6
CENTER
100
AcDbLine
 10
114.96669
 20
-17.841438
 30
0.0
 11
96.465817
 21
-17.841438
 31
0.0
  0
LINE
  5
49
100
AcDbEntity
  8
0
370
    -3
  6
CENTER
100
AcDbLine
 10
105.174682
 20
-83.356072
 30
0.0
 11
105.174682
 21
-17.841438
 31
0.0
  0
LINE
  5
4A
100
AcDbEntity
  8
0
370
    -3
  6
Continuous
100
AcDbLine
 10
105.174682
 20
-77.841438
 30
0.0
 11
134.93012
 21
-77.841438
 31
0.0
  0
LINE
  5
4B
100
AcDbEntity
  8
0
370
    -3
  6
Continuous
100
AcDbLine
 10
105.174682
 20
-77.841438
 30
0.0
 11
75.419245
 21
-77.841438
 31
0.0
  0
LINE
  5
4C
100
AcDbEntity
  8
0
370
    -3
  6
Continuous
100
AcDbLine
 10
177.674682
 20
-79.841438
 30
0.0
 11
177.674682
 21
-67.341438
 31
0.0
  0
LINE
  5
4D
100
AcDbEntity
  8
0
370
    -3
  6
Continuous
100
AcDbLine
 10
32.674682
 20
-79.841438
 30
0.0
 11
32.674682
 21
-67.341438
 31
0.0
  0
LINE
  5
4E
100
AcDbEntity
  8
0
370
    -3
  6
CENTER
100
AcDbLine
 10
167.674682
 20
-84.138832
 30
0.0
 11
167.674682
 21
-60.878198
 31
0.0
  0
LINE
  5
4F
100
AcDbEntity
  8
0
370
    -3
  6
CENTER
100
AcDbLine
 10
42.674682
 20
-84.138832
 30
0.0
 11
42.674682
 21
-60.878198
 31
0.0
  0
LINE
  5
50
100
AcDbEntity
  8
0
370
    -3
  6
Continuous
100
AcDbLine
 10
105.174682
 20
-64.841438
 30
0.0
 11
175.174682
 21
-64.841438
 31
0.0
  0
LINE
  5
51
100
AcDbEntity
  8
0
370
    -3
  6
Continuous
100
AcDbLine
 10
153.674682
 20
-79.841438
 30
0.0
 11
177.674682
 21
-79.841438
 31
0.0
  0
LINE
  5
52
100
AcDbEntity
  8
0
370
    -3
  6
Continuous
100
AcDbLine
 10
56.674682
 20
-79.841438
 30
0.0
 11
32.674682
 21
-79.841438
 31
0.0
  0
CIRCLE
  5
53
100
AcDbEntity
  8
0
370
    -3
  6
Continuous
100
AcDbCircle
 10
105.174682
 20
0.158562
 30
0.0
 40
22.5
  0
ARC
  5
54
100
AcDbEntity
  8
0
370
    -3
  6
Continuous
100
AcDbCircle
 10
124.674682
 20
-2.594981
 30
0.0
 40
50.0
100
AcDbArc
 50
0.0
 51
88.510142
  0
ARC
  5
55
100
AcDbEntity
  8
0
370
    -3
  6
Continuous
100
AcDbCircle
 10
33.674682
 20
-63.098797
 30
0.0
 40
2.0
100
AcDbArc
 50
289.471221
 51
0.0
  0
LINE
  5
56
100
AcDbEntity
  8
0
370
    -3
  6
Continuous
100
AcDbLine
 10
174.674682
 20
-63.098797
 30
0.0
 11
174.674682
 21
-2.341438
 31
0.0
  0
ARC
  5
57
100
AcDbEntity
  8
0
370
    -3
  6
Continuous
100
AcDbCircle
 10
176.674682
 20
-63.098797
 30
0.0
 40
2.0
100
AcDbArc
 50
180.0
 51
250.528779
  0
ARC
  5
58
100
AcDbEntity
  8
0
370
    -3
  6
Continuous
100
AcDbCircle
 10
171.987822
 20
-62.841438
 30
0.0
 40
2.0
100
AcDbArc
 50
180.0
 51
270.0
  0
ARC
  5
59
100
AcDbEntity
  8
0
370
    -3
  6
Continuous
100
AcDbCircle
 10
105.174682
 20
-352.341438
 30
0.0
 40
379.345395
100
AcDbArc
 50
90.0
 51
93.193847
  0
ARC
  5
5A
100
AcDbEntity
  8
0
370
    -3
  6
Continuous
100
AcDbCircle
 10
124.674682
 20
-2.885075
 30
0.0
 40
29.345395
100
AcDbArc
 50
0.0
 51
86.806153
  0
LINE
  5
5B
100
AcDbEntity
  8
0
370
    -3
  6
Continuous
100
AcDbLine
 10
56.329287
 20
-62.841438
 30
0.0
 11
56.329287
 21
-2.885075
 31
0.0
  0
ARC
  5
5C
100
AcDbEntity
  8
0
370
    -3
  6
Continuous
100
AcDbCircle
 10
54.329287
 20
-62.841438
 30
0.0
 40
2.0
100
AcDbArc
 50
270.0
 51
0.0
  0
ARC
  5
5D
100
AcDbEntity
  8
0
370
    -3
  6
Continuous
100
AcDbCircle
 10
85.674682
 20
-2.885075
 30
0.0
 40
29.345395
100
AcDbArc
 50
93.193847
 51
180.0
  0
ARC
  5
5E
100
AcDbEntity
  8
0
370
    -3
  6
Continuous
100
AcDbCircle
 10
105.174682
 20
-352.341438
 30
0.0
 40
379.345395
100
AcDbArc
 50
86.806153
 51
90.0
  0
LINE
  5
5F
100
AcDbEntity
  8
0
370
    -3
  6
Continuous
100
AcDbLine
 10
154.020078
 20
-62.841438
 30
0.0
 11
154.020078
 21
-2.885075
 31
0.0
  0
ARC
  5
60
100
AcDbEntity
  8
0
370
    -3
  6
Continuous
100
AcDbCircle
 10
156.020078
 20
-62.841438
 30
0.0
 40
2.0
100
AcDbArc
 50
180.0
 51
270.0
  0
ARC
  5
61
100
AcDbEntity
  8
0
370
    -3
  6
Continuous
100
AcDbCircle
 10
140.674682
 20
-73.841438
 30
0.0
 40
7.0
100
AcDbArc
 50
214.849905
 51
225.584691
  0
LINE
  5
62
100
AcDbEntity
  8
0
370
    -3
  6
Continuous
100
AcDbLine
 10
135.775703
 20
-78.841438
 30
0.0
 11
152.674682
 21
-78.841438
 31
0.0
  0
ARC
  5
63
100
AcDbEntity
  8
0
370
    -3
  6
Continuous
100
AcDbCircle
 10
152.674682
 20
-79.841438
 30
0.0
 40
1.0
100
AcDbArc
 50
0.0
 51
90.0
  0
ARC
  5
64
100
AcDbEntity
  8
0
370
    -3
  6
Continuous
100
AcDbCircle
 10
57.674682
 20
-79.841438
 30
0.0
 40
1.0
100
AcDbArc
 50
90.0
 51
180.0
  0
LINE
  5
65
100
AcDbEntity
  8
0
370
    -3
  6
Continuous
100
AcDbLine
 10
74.573662
 20
-78.841438
 30
0.0
 11
57.674682
 21
-78.841438
 31
0.0
  0
ARC
  5
66
100
AcDbEntity
  8
0
370
    -3
  6
Continuous
100
AcDbCircle
 10
69.674682
 20
-73.841438
 30
0.0
 40
7.0
100
AcDbArc
 50
314.415309
 51
325.150095
  0
ARC
  5
67
100
AcDbEntity
  8
0
370
    -3
  6
Continuous
100
AcDbCircle
 10
105.174682
 20
-752.341438
 30
0.0
 40
800.0
100
AcDbArc
 50
88.510142
 51
90.0
  0
ARC
  5
68
100
AcDbEntity
  8
0
370
    -3
  6
Continuous
100
AcDbCircle
 10
105.174682
 20
-352.341438
 30
0.0
 40
400.0
100
AcDbArc
 50
90.0
 51
93.193847
  0
LINE
  5
69
100
AcDbEntity
  8
0
370
    -3
  6
Continuous
100
AcDbLine
 10
54.85796
 20
7.039499
 30
0.0
 11
54.85796
 21
-62.841438
 31
0.0
  0
ARC
  5
6A
100
AcDbEntity
  8
0
370
    -3
  6
Continuous
100
AcDbCircle
 10
52.85796
 20
-62.841438
 30
0.0
 40
2.0
100
AcDbArc
 50
270.0
 51
0.0
  0
LINE
  5
6B
100
AcDbEntity
  8
0
370
    -3
  6
Continuous
100
AcDbLine
 10
169.869565
 20
0.158562
 30
0.0
 11
169.987822
 21
-2.885075
 31
0.0
  0
ARC
  5
6C
100
AcDbEntity
  8
0
370
    -3
  6
Continuous
100
AcDbCircle
 10
157.491404
 20
-62.841438
 30
0.0
 40
2.0
100
AcDbArc
 50
180.0
 51
270.0
  0
LINE
  5
6D
100
AcDbEntity
  8
0
370
    -3
  6
Continuous
100
AcDbLine
 10
56.674682
 20
-79.841438
 30
0.0
 11
56.674682
 21
-79.841438
 31
0.0
  0
LINE
  5
6E
100
AcDbEntity
  8
0
370
    -3
  6
Continuous
100
AcDbLine
 10
153.674682
 20
-79.841438
 30
0.0
 11
153.674682
 21
-79.841438
 31
0.0
  0
ARC
  5
6F
100
AcDbEntity
  8
0
370
    -3
  6
Continuous
100
AcDbCircle
 10
49.85796
 20
7.039499
 30
0.0
 40
5.0
100
AcDbArc
 50
0.0
 51
8.835352
  0
ARC
  5
70
100
AcDbEntity
  8
0
370
    -3
  6
Continuous
100
AcDbCircle
 10
160.491404
 20
7.039499
 30
0.0
 40
5.0
100
AcDbArc
 50
171.164648
 51
180.0
  0
ELLIPSE
  5
71
100
AcDbEntity
  8
0
370
    -3
  6
Continuous
100
AcDbEllipse
 10
162.561359
 20
0.790285
 30
0.0
 11
-1.3903166079894618
 21
15.891391546717159
 31
0.0
210
0.0
220
0.0
230
1.0
 40
0.454374
 41
4.6329257595275681
 42
1.0741032091784142
  0
LINE
  5
72
100
AcDbEntity
  8
0
370
    -3
  6
Continuous
100
AcDbLine
 10
155.491404
 20
7.039499
 30
0.0
 11
155.491404
 21
-62.841438
 31
0.0
  0
LINE
  5
73
100
AcDbEntity
  8
0
370
    -3
  6
Continuous
100
AcDbLine
 10
99.174682
 20
-2.841438
 30
0.0
 11
93.174682
 21
-2.841438
 31
0.0
  0
LINE
  5
74
100
AcDbEntity
  8
0
370
    -3
  6
Continuous
100
AcDbLine
 10
99.174682
 20
3.158562
 30
0.0
 11
93.174682
 21
3.158562
 31
0.0
  0
ARC
  5
75
100
AcDbEntity
  8
0
370
    -3
  6
Continuous
100
AcDbCircle
 10
105.174682
 20
0.158562
 30
0.0
 40
9.5
100
AcDbArc
 50
198.434949
 51
161.591512
  0
LINE
  5
76
100
AcDbEntity
  8
0
370
    -3
  6
Continuous
100
AcDbLine
 10
93.174682
 20
-2.841438
 30
0.0
 11
93.174682
 21
3.158562
 31
0.0
  0
LINE
  5
77
100
AcDbEntity
  8
0
370
    -3
  6
Continuous
100
AcDbLine
 10
99.174682
 20
-2.841438
 30
0.0
 11
99.174682
 21
3.158562
 31
0.0
  0
CIRCLE
  5
78
100
AcDbEntity
  8
0
370
    -3
  6
Continuous
100
AcDbCircle
 10
105.174682
 20
0.158562
 30
0.0
 40
2.4585
  0
CIRCLE
  5
79
100
AcDbEntity
  8
0
370
    -3
  6
Continuous
100
AcDbCircle
 10
105.174682
 20
0.158562
 30
0.0
 40
3.0
  0
LINE
  5
7A
100
AcDbEntity
  8
0
370
    -3
  6
Continuous
100
AcDbLine
 10
40.4798
 20
0.158562
 30
0.0
 11
40.361543
 21
-2.885075
 31
0.0
  0
ELLIPSE
  5
7B
100
AcDbEntity
  8
0
370
    -3
  6
Continuous
100
AcDbEllipse
 10
47.788005
 20
0.790285
 30
0.0
 11
1.3903166079894476
 21
15.891391546717159
 31
0.0
210
0.0
220
0.0
230
1.0
 40
0.454374
 41
5.2090820980011721
 42
1.6502595476520185
  0
ARC
  5
7C
100
AcDbEntity
  8
0
370
    -3
  6
Continuous
100
AcDbCircle
 10
85.674682
 20
-2.885075
 30
0.0
 40
50.0
100
AcDbArc
 50
93.193847
 51
180.0
  0
LINE
  5
7D
100
AcDbEntity
  8
0
370
    -3
  6
Continuous
100
AcDbLine
 10
35.674682
 20
-63.098797
 30
0.0
 11
35.674682
 21
-2.885075
 31
0.0
  0
LINE
  5
7E
100
AcDbEntity
  8
0
370
    -3
  6
CENTER
100
AcDbLine
 10
27.764198
 20
0.158562
 30
0.0
 11
188.437985
 21
0.158562
 31
0.0
  0
LINE
  5
7F
100
AcDbEntity
  8
0
370
    -3
  6
Continuous
100
AcDbLine
 10
40.361543
 20
-2.885075
 30
0.0
 11
40.361543
 21
-62.841438
 31
0.0
  0
LINE
  5
80
100
AcDbEntity
  8
0
370
    -3
  6
Continuous
100
AcDbLine
 10
-167.796483
 20
273.809759
 30
0.0
 11
-167.796483
 21
305.559759
 31
0.0
  0
LINE
  5
81
100
AcDbEntity
  8
0
370
    -3
  6
Continuous
100
AcDbLine
 10
-167.796483
 20
199.30976
 30
0.0
 11
-167.796483
 21
167.559759
 31
0.0
  0
LINE
  5
82
100
AcDbEntity
  8
0
370
    -3
  6
Continuous
100
AcDbLine
 10
-193.296483
 20
236.559759
 30
0.0
 11
-193.296483
 21
296.033574
 31
0.0
  0
LINE
  5
83
100
AcDbEntity
  8
0
370
    -3
  6
Continuous
100
AcDbLine
 10
-193.296483
 20
236.559759
 30
0.0
 11
-193.296483
 21
177.085945
 31
0.0
  0
LINE
  5
84
100
AcDbEntity
  8
0
370
    -3
  6
Continuous
100
AcDbLine
 10
-157.796483
 20
236.559759
 30
0.0
 11
-157.796483
 21
306.059759
 31
0.0
  0
LINE
  5
85
100
AcDbEntity
  8
0
370
    -3
  6
Continuous
100
AcDbLine
 10
-157.796483
 20
236.559759
 30
0.0
 11
-157.796483
 21
167.059759
 31
0.0
  0
LINE
  5
86
100
AcDbEntity
  8
0
370
    -3
  6
Continuous
100
AcDbLine
 10
-179.796483
 20
289.059759
 30
0.0
 11
-169.796483
 21
289.059759
 31
0.0
  0
LINE
  5
87
100
AcDbEntity
  8
0
370
    -3
  6
Continuous
100
AcDbLine
 10
-179.796483
 20
184.059759
 30
0.0
 11
-169.796483
 21
184.059759
 31
0.0
  0
LINE
  5
88
100
AcDbEntity
  8
0
370
    -3
  6
Continuous
100
AcDbLine
 10
-167.796483
 20
236.559759
 30
0.0
 11
-167.796483
 21
265.30976
 31
0.0
  0
LINE
  5
89
100
AcDbEntity
  8
0
370
    -3
  6
Continuous
100
AcDbLine
 10
-167.796483
 20
236.559759
 30
0.0
 11
-167.796483
 21
207.809759
 31
0.0
  0
LINE
  5
8A
100
AcDbEntity
  8
0
370
    -3
  6
Continuous
100
AcDbLine
 10
-167.296483
 20
306.059759
 30
0.0
 11
-157.796483
 21
306.059759
 31
0.0
  0
LINE
  5
8B
100
AcDbEntity
  8
0
370
    -3
  6
Continuous
100
AcDbLine
 10
-167.296483
 20
167.059759
 30
0.0
 11
-157.796483
 21
167.059759
 31
0.0
  0
LINE
  5
8C
100
AcDbEntity
  8
0
370
    -3
  6
Continuous
100
AcDbLine
 10
-189.732607
 20
296.126897
 30
0.0
 11
-193.296483
 21
296.033574
 31
0.0
  0
LINE
  5
8D
100
AcDbEntity
  8
0
370
    -3
  6
Continuous
100
AcDbLine
 10
-189.732607
 20
176.992622
 30
0.0
 11
-193.296483
 21
177.085945
 31
0.0
  0
ARC
  5
8E
100
AcDbEntity
  8
0
370
    -3
  6
Continuous
100
AcDbCircle
 10
-167.296483
 20
305.559759
 30
0.0
 40
0.5
100
AcDbArc
 50
90.0
 51
180.0
  0
ARC
  5
8F
100
AcDbEntity
  8
0
370
    -3
  6
Continuous
100
AcDbCircle
 10
-167.296483
 20
167.559759
 30
0.0
 40
0.5
100
AcDbArc
 50
180.0
 51
270.0
  0
ARC
  5
90
100
AcDbEntity
  8
0
370
    -3
  6
Continuous
100
AcDbCircle
 10
-179.796483
 20
299.059759
 30
0.0
 40
10.0
100
AcDbArc
 50
199.082118
 51
270.0
  0
ARC
  5
91
100
AcDbEntity
  8
0
370
    -3
  6
Continuous
100
AcDbCircle
 10
-179.796483
 20
174.059759
 30
0.0
 40
10.0
100
AcDbArc
 50
90.0
 51
160.917882
  0
ARC
  5
92
100
AcDbEntity
  8
0
370
    -3
  6
Continuous
100
AcDbCircle
 10
-169.796483
 20
291.059759
 30
0.0
 40
2.0
100
AcDbArc
 50
270.0
 51
0.0
  0
ARC
  5
93
100
AcDbEntity
  8
0
370
    -3
  6
Continuous
100
AcDbCircle
 10
-169.796483
 20
182.059759
 30
0.0
 40
2.0
100
AcDbArc
 50
0.0
 51
90.0
  0
ARC
  5
94
100
AcDbEntity
  8
0
370
    -3
  6
Continuous
100
AcDbCircle
 10
-189.719518
 20
295.627068
 30
0.0
 40
0.5
100
AcDbArc
 50
19.082118
 51
91.5
  0
ARC
  5
95
100
AcDbEntity
  8
0
370
    -3
  6
Continuous
100
AcDbCircle
 10
-189.719518
 20
177.492451
 30
0.0
 40
0.5
100
AcDbArc
 50
268.5
 51
340.917882
  0
ARC
  5
96
100
AcDbEntity
  8
0
370
    -3
  6
Continuous
100
AcDbCircle
 10
-163.196483
 20
264.709759
 30
0.0
 40
0.4
100
AcDbArc
 50
270.0
 51
0.0
  0
ARC
  5
97
100
AcDbEntity
  8
0
370
    -3
  6
Continuous
100
AcDbCircle
 10
-163.196483
 20
208.409759
 30
0.0
 40
0.4
100
AcDbArc
 50
0.0
 51
90.0
  0
ARC
  5
98
100
AcDbEntity
  8
0
370
    -3
  6
Continuous
100
AcDbCircle
 10
-163.196483
 20
274.409759
 30
0.0
 40
0.4
100
AcDbArc
 50
0.0
 51
90.0
  0
ARC
  5
99
100
AcDbEntity
  8
0
370
    -3
  6
Continuous
100
AcDbCircle
 10
-163.196483
 20
198.709759
 30
0.0
 40
0.4
100
AcDbArc
 50
270.0
 51
0.0
  0
LINE
  5
9A
100
AcDbEntity
  8
0
370
    -3
  6
Continuous
100
AcDbLine
 10
-64.296466
 20
236.559759
 30
0.0
 11
-64.296466
 21
245.659759
 31
0.0
  0
ARC
  5
9B
100
AcDbEntity
  8
0
370
    -3
  6
Continuous
100
AcDbCircle
 10
-64.696466
 20
245.659759
 30
0.0
 40
0.4
100
AcDbArc
 50
0.0
 51
90.0
  0
ARC
  5
9C
100
AcDbEntity
  8
0
370
    -3
  6
Continuous
100
AcDbCircle
 10
-64.696466
 20
227.387836
 30
0.0
 40
0.4
100
AcDbArc
 50
270.0
 51
0.0
  0
LINE
  5
9D
100
AcDbEntity
  8
0
370
    -3
  6
Continuous
100
AcDbLine
 10
-64.296466
 20
236.487836
 30
0.0
 11
-64.296466
 21
224.487836
 31
0.0
  0
LINE
  5
9E
100
AcDbEntity
  8
0
370
    -3
  6
Continuous
100
AcDbLine
 10
-64.296466
 20
224.487836
 30
0.0
 11
-89.296465
 21
224.487836
 31
0.0
  0
LINE
  5
9F
100
AcDbEntity
  8
0
370
    -3
  6
Continuous
100
AcDbLine
 10
-89.736658
 20
226.987836
 30
0.0
 11
-90.296466
 21
227.137836
 31
0.0
  0
LINE
  5
A0
100
AcDbEntity
  8
0
370
    -3
  6
Continuous
100
AcDbLine
 10
-64.696466
 20
226.987836
 30
0.0
 11
-89.736658
 21
226.987836
 31
0.0
  0
LINE
  5
A1
100
AcDbEntity
  8
0
370
    -3
  6
Continuous
100
AcDbLine
 10
-89.296466
 20
226.987836
 30
0.0
 11
-89.296466
 21
224.487836
 31
0.0
  0
LINE
  5
A2
100
AcDbEntity
  8
0
370
    -3
  6
Continuous
100
AcDbLine
 10
-92.496466
 20
247.631683
 30
0.0
 11
-92.296466
 21
247.431683
 31
0.0
  0
LINE
  5
A3
100
AcDbEntity
  8
0
370
    -3
  6
Continuous
100
AcDbLine
 10
-90.296466
 20
227.137836
 30
0.0
 11
-91.896466
 21
227.137836
 31
0.0
  0
LINE
  5
A4
100
AcDbEntity
  8
0
370
    -3
  6
Continuous
100
AcDbLine
 10
-92.496466
 20
247.631683
 30
0.0
 11
-94.296483
 21
247.631683
 31
0.0
  0
LINE
  5
A5
100
AcDbEntity
  8
0
370
    -3
  6
Continuous
100
AcDbLine
 10
-92.296466
 20
236.631683
 30
0.0
 11
-92.296466
 21
247.431683
 31
0.0
  0
ARC
  5
A6
100
AcDbEntity
  8
0
370
    -3
  6
Continuous
100
AcDbCircle
 10
-91.896466
 20
246.381683
 30
0.0
 40
0.4
100
AcDbArc
 50
180.0
 51
270.0
  0
LINE
  5
A7
100
AcDbEntity
  8
0
370
    -3
  6
Continuous
100
AcDbLine
 10
-64.696466
 20
246.059759
 30
0.0
 11
-89.736658
 21
246.059759
 31
0.0
  0
LINE
  5
A8
100
AcDbEntity
  8
0
370
    -3
  6
Continuous
100
AcDbLine
 10
-92.496466
 20
225.559759
 30
0.0
 11
-92.296466
 21
225.759759
 31
0.0
  0
LINE
  5
A9
100
AcDbEntity
  8
0
370
    -3
  6
Continuous
100
AcDbLine
 10
-90.296466
 20
245.909759
 30
0.0
 11
-91.896466
 21
245.909759
 31
0.0
  0
LINE
  5
AA
100
AcDbEntity
  8
0
370
    -3
  6
Continuous
100
AcDbLine
 10
-89.736658
 20
246.059759
 30
0.0
 11
-90.296466
 21
245.909759
 31
0.0
  0
LINE
  5
AB
100
AcDbEntity
  8
0
370
    -3
  6
Continuous
100
AcDbLine
 10
-92.496466
 20
225.559759
 30
0.0
 11
-94.296483
 21
225.559759
 31
0.0
  0
LINE
  5
AC
100
AcDbEntity
  8
0
370
    -3
  6
Continuous
100
AcDbLine
 10
-92.296466
 20
236.559759
 30
0.0
 11
-92.296466
 21
225.759759
 31
0.0
  0
ARC
  5
AD
100
AcDbEntity
  8
0
370
    -3
  6
Continuous
100
AcDbCircle
 10
-91.896466
 20
226.809759
 30
0.0
 40
0.4
100
AcDbArc
 50
90.0
 51
180.0
  0
LINE
  5
AE
100
AcDbEntity
  8
0
370
    -3
  6
Continuous
100
AcDbLine
 10
-163.196483
 20
264.309759
 30
0.0
 11
-166.796483
 21
264.309759
 31
0.0
  0
LINE
  5
AF
100
AcDbEntity
  8
0
370
    -3
  6
Continuous
100
AcDbLine
 10
-163.196483
 20
208.809759
 30
0.0
 11
-166.796483
 21
208.809759
 31
0.0
  0
LINE
  5
B0
100
AcDbEntity
  8
0
370
    -3
  6
Continuous
100
AcDbLine
 10
-163.196483
 20
274.809759
 30
0.0
 11
-166.796483
 21
274.809759
 31
0.0
  0
LINE
  5
B1
100
AcDbEntity
  8
0
370
    -3
  6
Continuous
100
AcDbLine
 10
-163.196483
 20
198.309759
 30
0.0
 11
-166.796483
 21
198.309759
 31
0.0
  0
LINE
  5
B2
100
AcDbEntity
  8
0
370
    -3
  6
Continuous
100
AcDbLine
 10
-162.796483
 20
264.709759
 30
0.0
 11
-162.796483
 21
274.409759
 31
0.0
  0
LINE
  5
B3
100
AcDbEntity
  8
0
370
    -3
  6
Continuous
100
AcDbLine
 10
-162.796483
 20
208.409759
 30
0.0
 11
-162.796483
 21
198.709759
 31
0.0
  0
ARC
  5
B4
100
AcDbEntity
  8
0
370
    -3
  6
Continuous
100
AcDbCircle
 10
-163.196483
 20
264.709759
 30
0.0
 40
0.4
100
AcDbArc
 50
270.0
 51
0.0
  0
ARC
  5
B5
100
AcDbEntity
  8
0
370
    -3
  6
Continuous
100
AcDbCircle
 10
-163.196483
 20
208.409759
 30
0.0
 40
0.4
100
AcDbArc
 50
0.0
 51
90.0
  0
ARC
  5
B6
100
AcDbEntity
  8
0
370
    -3
  6
Continuous
100
AcDbCircle
 10
-163.196483
 20
274.409759
 30
0.0
 40
0.4
100
AcDbArc
 50
0.0
 51
90.0
  0
ARC
  5
B7
100
AcDbEntity
  8
0
370
    -3
  6
Continuous
100
AcDbCircle
 10
-163.196483
 20
198.709759
 30
0.0
 40
0.4
100
AcDbArc
 50
270.0
 51
0.0
  0
ARC
  5
B8
100
AcDbEntity
  8
0
370
    -3
  6
Continuous
100
AcDbCircle
 10
-166.796483
 20
263.309759
 30
0.0
 40
1.0
100
AcDbArc
 50
90.0
 51
180.0
  0
ARC
  5
B9
100
AcDbEntity
  8
0
370
    -3
  6
Continuous
100
AcDbCircle
 10
-166.796483
 20
209.809759
 30
0.0
 40
1.0
100
AcDbArc
 50
180.0
 51
270.0
  0
ARC
  5
BA
100
AcDbEntity
  8
0
370
    -3
  6
Continuous
100
AcDbCircle
 10
-166.796483
 20
275.809759
 30
0.0
 40
1.0
100
AcDbArc
 50
180.0
 51
270.0
  0
ARC
  5
BB
100
AcDbEntity
  8
0
370
    -3
  6
Continuous
100
AcDbCircle
 10
-166.796483
 20
197.309759
 30
0.0
 40
1.0
100
AcDbArc
 50
90.0
 51
180.0
  0
ARC
  5
BC
100
AcDbEntity
  8
0
370
    -3
  6
Continuous
100
AcDbCircle
 10
-98.296483
 20
284.643017
 30
0.0
 40
2.0
100
AcDbArc
 50
0.0
 51
42.081511
  0
ARC
  5
BD
100
AcDbEntity
  8
0
370
    -3
  6
Continuous
100
AcDbCircle
 10
-141.343627
 20
245.772162
 30
0.0
 40
60.0
100
AcDbArc
 50
42.081511
 51
42.445108
  0
ARC
  5
BE
100
AcDbEntity
  8
0
370
    -3
  6
Continuous
100
AcDbCircle
 10
-98.544021
 20
284.915408
 30
0.0
 40
2.0
100
AcDbArc
 50
42.445108
 51
89.0
  0
LINE
  5
BF
100
AcDbEntity
  8
0
370
    -3
  6
Continuous
100
AcDbLine
 10
-98.509116
 20
286.915103
 30
0.0
 11
-106.796483
 21
287.059759
 31
0.0
  0
ARC
  5
C0
100
AcDbEntity
  8
0
370
    -3
  6
Continuous
100
AcDbCircle
 10
-120.764961
 20
299.998709
 30
0.0
 40
2.0
100
AcDbArc
 50
356.154408
 51
69.218531
  0
ARC
  5
C1
100
AcDbEntity
  8
0
370
    -3
  6
Continuous
100
AcDbCircle
 10
-141.343627
 20
245.772162
 30
0.0
 40
60.0
100
AcDbArc
 50
69.218531
 51
89.0
  0
LINE
  5
C2
100
AcDbEntity
  8
0
370
    -3
  6
Continuous
100
AcDbLine
 10
-140.296483
 20
305.763023
 30
0.0
 11
-157.296483
 21
306.059759
 31
0.0
  0
LINE
  5
C3
100
AcDbEntity
  8
0
370
    -3
  6
CENTER
100
AcDbLine
 10
-106.796483
 20
309.059759
 30
0.0
 11
-106.796483
 21
288.767223
 31
0.0
  0
LINE
  5
C4
100
AcDbEntity
  8
0
370
    -3
  6
CENTER
100
AcDbLine
 10
-116.796483
 20
299.059759
 30
0.0
 11
-96.796483
 21
299.059759
 31
0.0
  0
LINE
  5
C5
100
AcDbEntity
  8
0
370
    -3
  6
CENTER
100
AcDbLine
 10
-179.796483
 20
309.059759
 30
0.0
 11
-179.796483
 21
289.059759
 31
0.0
  0
LINE
  5
C6
100
AcDbEntity
  8
0
370
    -3
  6
CENTER
100
AcDbLine
 10
-189.796483
 20
299.059759
 30
0.0
 11
-169.796483
 21
299.059759
 31
0.0
  0
CIRCLE
  5
C7
100
AcDbEntity
  8
0
370
    -3
  6
Continuous
100
AcDbCircle
 10
-179.796483
 20
299.059759
 30
0.0
 40
5.0
  0
CIRCLE
  5
C8
100
AcDbEntity
  8
0
370
    -3
  6
Continuous
100
AcDbCircle
 10
-106.796483
 20
299.059759
 30
0.0
 40
5.0
  0
ARC
  5
C9
100
AcDbEntity
  8
0
370
    -3
  6
Continuous
100
AcDbCircle
 10
-95.296483
 20
258.059759
 30
0.0
 40
1.0
100
AcDbArc
 50
0.0
 51
90.0
  0
ARC
  5
CA
100
AcDbEntity
  8
0
370
    -3
  6
Continuous
100
AcDbCircle
 10
-95.296483
 20
260.059759
 30
0.0
 40
1.0
100
AcDbArc
 50
180.0
 51
270.0
  0
LINE
  5
CB
100
AcDbEntity
  8
0
370
    -3
  6
Continuous
100
AcDbLine
 10
-96.296483
 20
284.643017
 30
0.0
 11
-96.296483
 21
236.559759
 31
0.0
  0
ARC
  5
CC
100
AcDbEntity
  8
0
370
    -3
  6
Continuous
100
AcDbCircle
 10
-98.296483
 20
188.476502
 30
0.0
 40
2.0
100
AcDbArc
 50
317.918489
 51
0.0
  0
ARC
  5
CD
100
AcDbEntity
  8
0
370
    -3
  6
Continuous
100
AcDbCircle
 10
-141.343627
 20
227.347357
 30
0.0
 40
60.0
100
AcDbArc
 50
317.554892
 51
317.918489
  0
ARC
  5
CE
100
AcDbEntity
  8
0
370
    -3
  6
Continuous
100
AcDbCircle
 10
-98.544021
 20
188.204111
 30
0.0
 40
2.0
100
AcDbArc
 50
271.0
 51
317.554892
  0
LINE
  5
CF
100
AcDbEntity
  8
0
370
    -3
  6
Continuous
100
AcDbLine
 10
-98.509116
 20
186.204416
 30
0.0
 11
-106.796483
 21
186.059759
 31
0.0
  0
ARC
  5
D0
100
AcDbEntity
  8
0
370
    -3
  6
Continuous
100
AcDbCircle
 10
-106.796483
 20
174.059759
 30
0.0
 40
12.0
100
AcDbArc
 50
90.0
 51
183.845592
  0
ARC
  5
D1
100
AcDbEntity
  8
0
370
    -3
  6
Continuous
100
AcDbCircle
 10
-106.796483
 20
299.059759
 30
0.0
 40
12.0
100
AcDbArc
 50
176.154408
 51
270.0
  0
ARC
  5
D2
100
AcDbEntity
  8
0
370
    -3
  6
Continuous
100
AcDbCircle
 10
-120.764961
 20
173.12081
 30
0.0
 40
2.0
100
AcDbArc
 50
290.781469
 51
3.845592
  0
ARC
  5
D3
100
AcDbEntity
  8
0
370
    -3
  6
Continuous
100
AcDbCircle
 10
-141.343627
 20
227.347357
 30
0.0
 40
60.0
100
AcDbArc
 50
271.0
 51
290.781469
  0
LINE
  5
D4
100
AcDbEntity
  8
0
370
    -3
  6
Continuous
100
AcDbLine
 10
-140.296483
 20
167.356496
 30
0.0
 11
-157.296483
 21
167.059759
 31
0.0
  0
LINE
  5
D5
100
AcDbEntity
  8
0
370
    -3
  6
CENTER
100
AcDbLine
 10
-106.796483
 20
164.059759
 30
0.0
 11
-106.796483
 21
184.58729
 31
0.0
  0
LINE
  5
D6
100
AcDbEntity
  8
0
370
    -3
  6
CENTER
100
AcDbLine
 10
-116.796483
 20
174.059759
 30
0.0
 11
-96.796483
 21
174.059759
 31
0.0
  0
LINE
  5
D7
100
AcDbEntity
  8
0
370
    -3
  6
CENTER
100
AcDbLine
 10
-179.796483
 20
164.059759
 30
0.0
 11
-179.796483
 21
184.059759
 31
0.0
  0
LINE
  5
D8
100
AcDbEntity
  8
0
370
    -3
  6
CENTER
100
AcDbLine
 10
-189.796483
 20
174.059759
 30
0.0
 11
-169.796483
 21
174.059759
 31
0.0
  0
CIRCLE
  5
D9
100
AcDbEntity
  8
0
370
    -3
  6
Continuous
100
AcDbCircle
 10
-179.796483
 20
174.059759
 30
0.0
 40
5.0
  0
CIRCLE
  5
DA
100
AcDbEntity
  8
0
370
    -3
  6
Continuous
100
AcDbCircle
 10
-106.796483
 20
174.059759
 30
0.0
 40
5.0
  0
ARC
  5
DB
100
AcDbEntity
  8
0
370
    -3
  6
Continuous
100
AcDbCircle
 10
-95.296483
 20
215.059759
 30
0.0
 40
1.0
100
AcDbArc
 50
270.0
 51
0.0
  0
ARC
  5
DC
100
AcDbEntity
  8
0
370
    -3
  6
Continuous
100
AcDbCircle
 10
-95.296483
 20
213.059759
 30
0.0
 40
1.0
100
AcDbArc
 50
90.0
 51
180.0
  0
LINE
  5
DD
100
AcDbEntity
  8
0
370
    -3
  6
Continuous
100
AcDbLine
 10
-96.296483
 20
188.476502
 30
0.0
 11
-96.296483
 21
236.559759
 31
0.0
  0
LINE
  5
DE
100
AcDbEntity
  8
0
370
    -3
  6
Continuous
100
AcDbLine
 10
-157.296483
 20
167.059759
 30
0.0
 11
-157.296483
 21
236.559759
 31
0.0
  0
LINE
  5
DF
100
AcDbEntity
  8
0
370
    -3
  6
CENTER
100
AcDbLine
 10
-54.636805
 20
236.559759
 30
0.0
 11
-436.056471
 21
236.559759
 31
0.0
  0
LINE
  5
E0
100
AcDbEntity
  8
0
370
    -3
  6
Continuous
100
AcDbLine
 10
-192.296483
 20
307.181483
 30
0.0
 11
-192.296483
 21
296.059759
 31
0.0
  0
LINE
  5
E1
100
AcDbEntity
  8
0
370
    -3
  6
Continuous
100
AcDbLine
 10
-192.296483
 20
166.003033
 30
0.0
 11
-192.296483
 21
177.059759
 31
0.0
  0
LINE
  5
E2
100
AcDbEntity
  8
0
370
    -3
  6
Continuous
100
AcDbLine
 10
-155.296483
 20
162.995
 30
0.0
 11
-190.354014
 21
164.00386
 31
0.0
  0
LINE
  5
E3
100
AcDbEntity
  8
0
370
    -3
  6
Continuous
100
AcDbLine
 10
-157.296483
 20
306.059759
 30
0.0
 11
-157.296483
 21
236.559759
 31
0.0
  0
LINE
  5
E4
100
AcDbEntity
  8
0
370
    -3
  6
Continuous
100
AcDbLine
 10
-190.35031
 20
309.180758
 30
0.0
 11
-155.296483
 21
310.124518
 31
0.0
  0
LINE
  5
E5
100
AcDbEntity
  8
0
370
    -3
  6
Continuous
100
AcDbLine
 10
-96.261578
 20
309.09406
 30
0.0
 11
-155.296483
 21
310.124518
 31
0.0
  0
LINE
  5
E6
100
AcDbEntity
  8
0
370
    -3
  6
Continuous
100
AcDbLine
 10
-94.296483
 20
307.094365
 30
0.0
 11
-94.296483
 21
236.559759
 31
0.0
  0
LINE
  5
E7
100
AcDbEntity
  8
0
370
    -3
  6
Continuous
100
AcDbLine
 10
-96.261578
 20
164.025459
 30
0.0
 11
-155.296483
 21
162.995
 31
0.0
  0
LINE
  5
E8
100
AcDbEntity
  8
0
370
    -3
  6
Continuous
100
AcDbLine
 10
-94.296483
 20
166.025154
 30
0.0
 11
-94.296483
 21
236.559759
 31
0.0
  0
ARC
  5
E9
100
AcDbEntity
  8
0
370
    -3
  6
Continuous
100
AcDbCircle
 10
-190.296483
 20
307.181483
 30
0.0
 40
2.0
100
AcDbArc
 50
91.542211
 51
180.0
  0
ARC
  5
EA
100
AcDbEntity
  8
0
370
    -3
  6
Continuous
100
AcDbCircle
 10
-96.296483
 20
307.094365
 30
0.0
 40
2.0
100
AcDbArc
 50
0.0
 51
89.0
  0
ARC
  5
EB
100
AcDbEntity
  8
0
370
    -3
  6
Continuous
100
AcDbCircle
 10
-190.296483
 20
166.003033
 30
0.0
 40
2.0
100
AcDbArc
 50
180.0
 51
268.351639
  0
ARC
  5
EC
100
AcDbEntity
  8
0
370
    -3
  6
Continuous
100
AcDbCircle
 10
-96.296483
 20
166.025154
 30
0.0
 40
2.0
100
AcDbArc
 50
271.0
 51
0.0
  0
LINE
  5
ED
100
AcDbEntity
  8
0
370
    -3
  6
Continuous
100
AcDbLine
 10
-193.296483
 20
286.875294
 30
0.0
 11
-167.796483
 21
286.875294
 31
0.0
  0
LINE
  5
EE
100
AcDbEntity
  8
0
370
    -3
  6
Continuous
100
AcDbLine
 10
-193.296483
 20
281.925546
 30
0.0
 11
-167.796483
 21
281.925546
 31
0.0
  0
LINE
  5
EF
100
AcDbEntity
  8
0
370
    -3
  6
Continuous
100
AcDbLine
 10
-193.296483
 20
251.559759
 30
0.0
 11
-167.796483
 21
251.559759
 31
0.0
  0
LINE
  5
F0
100
AcDbEntity
  8
0
370
    -3
  6
Continuous
100
AcDbLine
 10
-193.296483
 20
255.933021
 30
0.0
 11
-167.796483
 21
255.933021
 31
0.0
  0
LINE
  5
F1
100
AcDbEntity
  8
0
370
    -3
  6
Continuous
100
AcDbLine
 10
-193.296483
 20
257.199259
 30
0.0
 11
-167.796483
 21
257.199259
 31
0.0
  0
LINE
  5
F2
100
AcDbEntity
  8
0
370
    -3
  6
Continuous
100
AcDbLine
 10
-193.296483
 20
261.389813
 30
0.0
 11
-167.796483
 21
261.389813
 31
0.0
  0
LINE
  5
F3
100
AcDbEntity
  8
0
370
    -3
  6
Continuous
100
AcDbLine
 10
-193.296483
 20
262.751693
 30
0.0
 11
-167.796483
 21
262.751693
 31
0.0
  0
LINE
  5
F4
100
AcDbEntity
  8
0
370
    -3
  6
Continuous
100
AcDbLine
 10
-193.296483
 20
266.842194
 30
0.0
 11
-167.796483
 21
266.842194
 31
0.0
  0
LINE
  5
F5
100
AcDbEntity
  8
0
370
    -3
  6
Continuous
100
AcDbLine
 10
-193.296483
 20
268.310551
 30
0.0
 11
-167.796483
 21
268.310551
 31
0.0
  0
LINE
  5
F6
100
AcDbEntity
  8
0
370
    -3
  6
Continuous
100
AcDbLine
 10
-193.296483
 20
272.274297
 30
0.0
 11
-167.796483
 21
272.274297
 31
0.0
  0
LINE
  5
F7
100
AcDbEntity
  8
0
370
    -3
  6
Continuous
100
AcDbLine
 10
-193.296483
 20
273.878945
 30
0.0
 11
-167.796483
 21
273.878945
 31
0.0
  0
LINE
  5
F8
100
AcDbEntity
  8
0
370
    -3
  6
Continuous
100
AcDbLine
 10
-193.296483
 20
221.559759
 30
0.0
 11
-167.796483
 21
221.559759
 31
0.0
  0
LINE
  5
F9
100
AcDbEntity
  8
0
370
    -3
  6
Continuous
100
AcDbLine
 10
-193.296483
 20
217.186498
 30
0.0
 11
-167.796483
 21
217.186498
 31
0.0
  0
LINE
  5
FA
100
AcDbEntity
  8
0
370
    -3
  6
Continuous
100
AcDbLine
 10
-193.296483
 20
215.92026
 30
0.0
 11
-167.796483
 21
215.92026
 31
0.0
  0
LINE
  5
FB
100
AcDbEntity
  8
0
370
    -3
  6
Continuous
100
AcDbLine
 10
-193.296483
 20
211.729706
 30
0.0
 11
-167.796483
 21
211.729706
 31
0.0
  0
LINE
  5
FC
100
AcDbEntity
  8
0
370
    -3
  6
Continuous
100
AcDbLine
 10
-193.296483
 20
210.367826
 30
0.0
 11
-167.796483
 21
210.367826
 31
0.0
  0
LINE
  5
FD
100
AcDbEntity
  8
0
370
    -3
  6
Continuous
100
AcDbLine
 10
-193.296483
 20
206.277325
 30
0.0
 11
-167.796483
 21
206.277325
 31
0.0
  0
LINE
  5
FE
100
AcDbEntity
  8
0
370
    -3
  6
Continuous
100
AcDbLine
 10
-193.296483
 20
204.808968
 30
0.0
 11
-167.796483
 21
204.808968
 31
0.0
  0
LINE
  5
FF
100
AcDbEntity
  8
0
370
    -3
  6
Continuous
100
AcDbLine
 10
-193.296483
 20
200.845222
 30
0.0
 11
-167.796483
 21
200.845222
 31
0.0
  0
LINE
  5
100
100
AcDbEntity
  8
0
370
    -3
  6
Continuous
100
AcDbLine
 10
-193.296483
 20
199.240574
 30
0.0
 11
-167.796483
 21
199.240574
 31
0.0
  0
LINE
  5
101
100
AcDbEntity
  8
0
370
    -3
  6
Continuous
100
AcDbLine
 10
-193.296483
 20
191.193973
 30
0.0
 11
-167.796483
 21
191.193973
 31
0.0
  0
LINE
  5
102
100
AcDbEntity
  8
0
370
    -3
  6
Continuous
100
AcDbLine
 10
-193.296483
 20
186.244225
 30
0.0
 11
-167.796483
 21
186.244225
 31
0.0
  0
LINE
  5
103
100
AcDbEntity
  8
0
370
    -3
  6
Continuous
100
AcDbLine
 10
-193.296483
 20
177.059759
 30
0.0
 11
-193.296483
 21
236.559759
 31
0.0
  0
LINE
  5
104
100
AcDbEntity
  8
0
370
    -3
  6
Continuous
100
AcDbLine
 10
-193.296483
 20
296.059759
 30
0.0
 11
-193.296483
 21
236.559759
 31
0.0
  0
LINE
  5
105
100
AcDbEntity
  8
0
370
    -3
  6
Continuous
100
AcDbLine
 10
-167.796483
 20
199.30976
 30
0.0
 11
-167.796483
 21
207.809759
 31
0.0
  0
LINE
  5
106
100
AcDbEntity
  8
0
370
    -3
  6
Continuous
100
AcDbLine
 10
-162.796483
 20
207.809759
 30
0.0
 11
-167.796483
 21
207.809759
 31
0.0
  0
LINE
  5
107
100
AcDbEntity
  8
0
370
    -3
  6
Continuous
100
AcDbLine
 10
-162.796483
 20
199.30976
 30
0.0
 11
-167.796483
 21
199.30976
 31
0.0
  0
LINE
  5
108
100
AcDbEntity
  8
0
370
    -3
  6
Continuous
100
AcDbLine
 10
-167.796483
 20
273.809759
 30
0.0
 11
-167.796483
 21
265.30976
 31
0.0
  0
LINE
  5
109
100
AcDbEntity
  8
0
370
    -3
  6
Continuous
100
AcDbLine
 10
-162.796483
 20
265.30976
 30
0.0
 11
-167.796483
 21
265.30976
 31
0.0
  0
LINE
  5
10A
100
AcDbEntity
  8
0
370
    -3
  6
Continuous
100
AcDbLine
 10
-162.796483
 20
273.809759
 30
0.0
 11
-167.796483
 21
273.809759
 31
0.0
  0
LINE
  5
10B
100
AcDbEntity
  8
0
370
    -3
  6
Continuous
100
AcDbLine
 10
-193.296483
 20
296.065172
 30
0.0
 11
-193.296483
 21
177.065172
 31
0.0
  0
ELLIPSE
  5
10C
100
AcDbEntity
  8
0
370
    -3
  6
Continuous
100
AcDbEllipse
 10
-328.296483
 20
32.287519
 30
0.0
 11
4.6999999999999886
 21
0.0
 31
0.0
210
0.0
220
0.0
230
1.0
 40
0.766646
 41
5.1052656875386635
 42
4.3195122732306146
  0
LINE
  5
10D
100
AcDbEntity
  8
0
370
    -3
  6
Continuous
100
AcDbLine
 10
-330.296483
 20
35.279895
 30
0.0
 11
-328.296483
 21
34.10411
 31
0.0
  0
LINE
  5
10E
100
AcDbEntity
  8
0
370
    -3
  6
Continuous
100
AcDbLine
 10
-328.296483
 20
34.10411
 30
0.0
 11
-326.296483
 21
32.451468
 31
0.0
  0
LINE
  5
10F
100
AcDbEntity
  8
0
370
    -3
  6
Continuous
100
AcDbLine
 10
-326.296483
 20
35.279895
 30
0.0
 11
-328.296483
 21
34.10411
 31
0.0
  0
LINE
  5
110
100
AcDbEntity
  8
0
370
    -3
  6
Continuous
100
AcDbLine
 10
-328.296483
 20
34.10411
 30
0.0
 11
-330.296483
 21
32.451468
 31
0.0
  0
LINE
  5
111
100
AcDbEntity
  8
0
370
    -3
  6
Continuous
100
AcDbLine
 10
-317.296483
 20
-64.641194
 30
0.0
 11
-317.296483
 21
-77.841194
 31
0.0
  0
ARC
  5
112
100
AcDbEntity
  8
0
370
    -3
  6
Continuous
100
AcDbCircle
 10
-397.990507
 20
-57.841194
 30
0.0
 40
20.0
100
AcDbArc
 50
235.0
 51
270.0
  0
LINE
  5
113
100
AcDbEntity
  8
0
370
    -3
  6
Continuous
100
AcDbLine
 10
-317.296483
 20
-77.841194
 30
0.0
 11
-397.990507
 21
-77.841194
 31
0.0
  0
LINE
  5
114
100
AcDbEntity
  8
0
370
    -3
  6
Continuous
100
AcDbLine
 10
-420.296483
 20
-17.841194
 30
0.0
 11
-420.296483
 21
-65.284399
 31
0.0
  0
ARC
  5
115
100
AcDbEntity
  8
0
370
    -3
  6
Continuous
100
AcDbCircle
 10
-417.696483
 20
-65.284399
 30
0.0
 40
2.6
100
AcDbArc
 50
180.0
 51
235.0
  0
LINE
  5
116
100
AcDbEntity
  8
0
370
    -3
  6
Continuous
100
AcDbLine
 10
-409.462036
 20
-74.224235
 30
0.0
 11
-419.187782
 21
-67.414194
 31
0.0
  0
ARC
  5
117
100
AcDbEntity
  8
0
370
    -3
  6
Continuous
100
AcDbCircle
 10
-417.696483
 20
29.602011
 30
0.0
 40
2.6
100
AcDbArc
 50
125.0
 51
180.0
  0
LINE
  5
118
100
AcDbEntity
  8
0
370
    -3
  6
Continuous
100
AcDbLine
 10
-420.296483
 20
-17.841194
 30
0.0
 11
-420.296483
 21
29.602011
 31
0.0
  0
ARC
  5
119
100
AcDbEntity
  8
0
370
    -3
  6
Continuous
100
AcDbCircle
 10
-397.990507
 20
22.158806
 30
0.0
 40
20.0
100
AcDbArc
 50
90.0
 51
125.0
  0
LINE
  5
11A
100
AcDbEntity
  8
0
370
    -3
  6
Continuous
100
AcDbLine
 10
-409.462036
 20
38.541847
 30
0.0
 11
-419.187782
 21
31.731806
 31
0.0
  0
LINE
  5
11B
100
AcDbEntity
  8
0
370
    -3
  6
Continuous
100
AcDbLine
 10
-317.296483
 20
28.958806
 30
0.0
 11
-317.296483
 21
42.158806
 31
0.0
  0
LINE
  5
11C
100
AcDbEntity
  8
0
370
    -3
  6
Continuous
100
AcDbLine
 10
-317.296483
 20
42.158806
 30
0.0
 11
-397.990507
 21
42.158806
 31
0.0
  0
LINE
  5
11D
100
AcDbEntity
  8
0
370
    -3
  6
Continuous
100
AcDbLine
 10
-246.399014
 20
-42.305578
 30
0.0
 11
-193.296483
 21
-42.305578
 31
0.0
  0
LINE
  5
11E
100
AcDbEntity
  8
0
370
    -3
  6
Continuous
100
AcDbLine
 10
-246.399014
 20
-44.429802
 30
0.0
 11
-193.296483
 21
-44.429802
 31
0.0
  0
LINE
  5
11F
100
AcDbEntity
  8
0
370
    -3
  6
Continuous
100
AcDbLine
 10
-246.399014
 20
-47.762312
 30
0.0
 11
-193.296483
 21
-47.762312
 31
0.0
  0
LINE
  5
120
100
AcDbEntity
  8
0
370
    -3
  6
Continuous
100
AcDbLine
 10
-246.399014
 20
-49.991716
 30
0.0
 11
-193.296483
 21
-49.991716
 31
0.0
  0
LINE
  5
121
100
AcDbEntity
  8
0
370
    -3
  6
Continuous
100
AcDbLine
 10
-246.399014
 20
-53.200314
 30
0.0
 11
-193.296483
 21
-53.200314
 31
0.0
  0
LINE
  5
122
100
AcDbEntity
  8
0
370
    -3
  6
Continuous
100
AcDbLine
 10
-246.399014
 20
-55.537014
 30
0.0
 11
-193.296483
 21
-55.537014
 31
0.0
  0
LINE
  5
123
100
AcDbEntity
  8
0
370
    -3
  6
Continuous
100
AcDbLine
 10
-193.296483
 20
40.658806
 30
0.0
 11
-193.296483
 21
-17.841194
 31
0.0
  0
LINE
  5
124
100
AcDbEntity
  8
0
370
    -3
  6
Continuous
100
AcDbLine
 10
-193.296483
 20
-76.341194
 30
0.0
 11
-193.296483
 21
-17.841194
 31
0.0
  0
LINE
  5
125
100
AcDbEntity
  8
0
370
    -3
  6
Continuous
100
AcDbLine
 10
-246.399014
 20
12.079924
 30
0.0
 11
-193.296483
 21
12.079924
 31
0.0
  0
LINE
  5
126
100
AcDbEntity
  8
0
370
    -3
  6
Continuous
100
AcDbLine
 10
-246.399014
 20
6.62319
 30
0.0
 11
-193.296483
 21
6.62319
 31
0.0
  0
LINE
  5
127
100
AcDbEntity
  8
0
370
    -3
  6
Continuous
100
AcDbLine
 10
-246.399014
 20
8.747414
 30
0.0
 11
-193.296483
 21
8.747414
 31
0.0
  0
LINE
  5
128
100
AcDbEntity
  8
0
370
    -3
  6
Continuous
100
AcDbLine
 10
-246.399014
 20
0.908806
 30
0.0
 11
-193.296483
 21
0.908806
 31
0.0
  0
LINE
  5
129
100
AcDbEntity
  8
0
370
    -3
  6
Continuous
100
AcDbLine
 10
-246.452224
 20
19.854626
 30
0.0
 11
-193.296483
 21
19.854626
 31
0.0
  0
LINE
  5
12A
100
AcDbEntity
  8
0
370
    -3
  6
Continuous
100
AcDbLine
 10
-246.399014
 20
17.517927
 30
0.0
 11
-193.296483
 21
17.517927
 31
0.0
  0
LINE
  5
12B
100
AcDbEntity
  8
0
370
    -3
  6
Continuous
100
AcDbLine
 10
-246.399014
 20
14.309328
 30
0.0
 11
-193.296483
 21
14.309328
 31
0.0
  0
LINE
  5
12C
100
AcDbEntity
  8
0
370
    -3
  6
Continuous
100
AcDbLine
 10
-246.399014
 20
-36.591194
 30
0.0
 11
-193.296483
 21
-36.591194
 31
0.0
  0
LINE
  5
12D
100
AcDbEntity
  8
0
370
    -3
  6
Continuous
100
AcDbLine
 10
-317.296483
 20
-74.841194
 30
0.0
 11
-193.296483
 21
-74.841194
 31
0.0
  0
LINE
  5
12E
100
AcDbEntity
  8
0
370
    -3
  6
Continuous
100
AcDbLine
 10
-317.296483
 20
-75.341194
 30
0.0
 11
-193.296483
 21
-75.341194
 31
0.0
  0
LINE
  5
12F
100
AcDbEntity
  8
0
370
    -3
  6
Continuous
100
AcDbLine
 10
-317.296483
 20
-73.841194
 30
0.0
 11
-193.296483
 21
-73.841194
 31
0.0
  0
LINE
  5
130
100
AcDbEntity
  8
0
370
    -3
  6
Continuous
100
AcDbLine
 10
-317.296483
 20
-72.841194
 30
0.0
 11
-193.296483
 21
-72.841194
 31
0.0
  0
LINE
  5
131
100
AcDbEntity
  8
0
370
    -3
  6
Continuous
100
AcDbLine
 10
-317.296483
 20
-68.156728
 30
0.0
 11
-193.296483
 21
-68.156728
 31
0.0
  0
LINE
  5
132
100
AcDbEntity
  8
0
370
    -3
  6
Continuous
100
AcDbLine
 10
-249.691602
 20
-63.206981
 30
0.0
 11
-193.296483
 21
-63.206981
 31
0.0
  0
LINE
  5
133
100
AcDbEntity
  8
0
370
    -3
  6
Continuous
100
AcDbLine
 10
-193.296483
 20
-76.341194
 30
0.0
 11
-317.296483
 21
-76.341194
 31
0.0
  0
LINE
  5
134
100
AcDbEntity
  8
0
370
    -3
  6
Continuous
100
AcDbLine
 10
-317.296483
 20
39.158806
 30
0.0
 11
-193.296483
 21
39.158806
 31
0.0
  0
LINE
  5
135
100
AcDbEntity
  8
0
370
    -3
  6
Continuous
100
AcDbLine
 10
-317.296483
 20
39.658806
 30
0.0
 11
-193.296483
 21
39.658806
 31
0.0
  0
LINE
  5
136
100
AcDbEntity
  8
0
370
    -3
  6
Continuous
100
AcDbLine
 10
-317.296483
 20
38.158806
 30
0.0
 11
-193.296483
 21
38.158806
 31
0.0
  0
LINE
  5
137
100
AcDbEntity
  8
0
370
    -3
  6
Continuous
100
AcDbLine
 10
-317.296483
 20
37.158806
 30
0.0
 11
-193.296483
 21
37.158806
 31
0.0
  0
LINE
  5
138
100
AcDbEntity
  8
0
370
    -3
  6
Continuous
100
AcDbLine
 10
-317.296483
 20
32.47434
 30
0.0
 11
-193.296483
 21
32.47434
 31
0.0
  0
LINE
  5
139
100
AcDbEntity
  8
0
370
    -3
  6
Continuous
100
AcDbLine
 10
-249.691602
 20
27.524593
 30
0.0
 11
-193.296483
 21
27.524593
 31
0.0
  0
LINE
  5
13A
100
AcDbEntity
  8
0
370
    -3
  6
Continuous
100
AcDbLine
 10
-193.296483
 20
40.658806
 30
0.0
 11
-317.296483
 21
40.658806
 31
0.0
  0
ELLIPSE
  5
13B
100
AcDbEntity
  8
0
370
    -3
  6
Continuous
100
AcDbEllipse
 10
-328.296483
 20
-67.969907
 30
0.0
 11
4.6999999999999886
 21
0.0
 31
0.0
210
0.0
220
0.0
230
1.0
 40
0.766646
 41
1.9636730339489714
 42
1.1779196196409232
  0
LINE
  5
13C
100
AcDbEntity
  8
0
370
    -3
  6
Continuous
100
AcDbLine
 10
-328.296483
 20
-69.786497
 30
0.0
 11
-330.296483
 21
-68.133856
 31
0.0
  0
LINE
  5
13D
100
AcDbEntity
  8
0
370
    -3
  6
Continuous
100
AcDbLine
 10
-326.296483
 20
-70.962283
 30
0.0
 11
-328.296483
 21
-69.786497
 31
0.0
  0
LINE
  5
13E
100
AcDbEntity
  8
0
370
    -3
  6
Continuous
100
AcDbLine
 10
-328.296483
 20
-69.786497
 30
0.0
 11
-326.296483
 21
-68.133856
 31
0.0
  0
LINE
  5
13F
100
AcDbEntity
  8
0
370
    -3
  6
Continuous
100
AcDbLine
 10
-330.296483
 20
-70.962283
 30
0.0
 11
-328.296483
 21
-69.786497
 31
0.0
  0
LINE
  5
140
100
AcDbEntity
  8
0
370
    -3
  6
Continuous
100
AcDbLine
 10
-193.296483
 20
-76.341194
 30
0.0
 11
-193.296483
 21
-17.841194
 31
0.0
  0
LINE
  5
141
100
AcDbEntity
  8
0
370
    -3
  6
Continuous
100
AcDbLine
 10
-193.296483
 20
40.658806
 30
0.0
 11
-193.296483
 21
-17.841194
 31
0.0
  0
ARC
  5
142
100
AcDbEntity
  8
0
370
    -3
  6
Continuous
100
AcDbCircle
 10
-157.296483
 20
-34.219784
 30
0.0
 40
2.0
100
AcDbArc
 50
0.0
 51
90.0
  0
LINE
  5
143
100
AcDbEntity
  8
0
370
    -3
  6
Continuous
100
AcDbLine
 10
-140.296483
 20
47.36207
 30
0.0
 11
-157.296483
 21
47.658806
 31
0.0
  0
LINE
  5
144
100
AcDbEntity
  8
0
370
    -3
  6
Continuous
100
AcDbLine
 10
-155.633681
 20
47.658806
 30
0.0
 11
-157.296483
 21
47.658806
 31
0.0
  0
LINE
  5
145
100
AcDbEntity
  8
0
370
    -3
  6
CENTER
100
AcDbLine
 10
-179.796483
 20
-83.063887
 30
0.0
 11
-179.796483
 21
-62.501712
 31
0.0
  0
LINE
  5
146
100
AcDbEntity
  8
0
370
    -3
  6
Continuous
100
AcDbLine
 10
-140.296483
 20
47.36207
 30
0.0
 11
-157.296483
 21
47.658806
 31
0.0
  0
LINE
  5
147
100
AcDbEntity
  8
0
370
    -3
  6
Continuous
100
AcDbLine
 10
-155.690647
 20
-49.821936
 30
0.0
 11
-165.428247
 21
-62.938253
 31
0.0
  0
ARC
  5
148
100
AcDbEntity
  8
0
370
    -3
  6
Continuous
100
AcDbCircle
 10
-167.837002
 20
-61.149985
 30
0.0
 40
3.0
100
AcDbArc
 50
271.614898
 51
323.409675
  0
ARC
  5
149
100
AcDbEntity
  8
0
370
    -3
  6
Continuous
100
AcDbCircle
 10
-157.296483
 20
-48.629757
 30
0.0
 40
2.0
100
AcDbArc
 50
323.409675
 51
0.0
  0
LINE
  5
14A
100
AcDbEntity
  8
0
370
    -3
  6
Continuous
100
AcDbLine
 10
-155.296483
 20
-48.629757
 30
0.0
 11
-155.296483
 21
-34.219784
 31
0.0
  0
LINE
  5
14B
100
AcDbEntity
  8
0
370
    -3
  6
Continuous
100
AcDbLine
 10
-157.296483
 20
-51.984959
 30
0.0
 11
-157.296483
 21
0.158806
 31
0.0
  0
LINE
  5
14C
100
AcDbEntity
  8
0
370
    -3
  6
Continuous
100
AcDbLine
 10
-157.296483
 20
0.158806
 30
0.0
 11
-157.296483
 21
47.658806
 31
0.0
  0
LINE
  5
14D
100
AcDbEntity
  8
0
370
    -3
  6
CENTER
100
AcDbLine
 10
-58.719191
 20
0.158806
 30
0.0
 11
-123.408077
 21
0.158806
 31
0.0
  0
ELLIPSE
  5
14E
100
AcDbEntity
  8
0
370
    -3
  6
Continuous
100
AcDbEllipse
 10
-108.122495
 20
-9.841194
 30
0.0
 11
0.0
 21
26.845151052474932
 31
0.0
210
0.0
220
0.0
230
1.0
 40
0.38983
 41
4.7123889803846897
 42
1.5707963267948968
  0
ARC
  5
14F
100
AcDbEntity
  8
0
370
    -3
  6
Continuous
100
AcDbCircle
 10
-95.657458
 20
-62.988358
 30
0.0
 40
2.0
100
AcDbArc
 50
180.0
 51
255.337982
  0
LINE
  5
150
100
AcDbEntity
  8
0
370
    -3
  6
Continuous
100
AcDbLine
 10
-97.657458
 20
-9.841194
 30
0.0
 11
-97.657458
 21
-62.988358
 31
0.0
  0
ARC
  5
151
100
AcDbEntity
  8
0
370
    -3
  6
Continuous
100
AcDbCircle
 10
-116.587532
 20
-62.495679
 30
0.0
 40
2.0
100
AcDbArc
 50
180.0
 51
269.0
  0
LINE
  5
152
100
AcDbEntity
  8
0
370
    -3
  6
Continuous
100
AcDbLine
 10
-118.587532
 20
-9.841194
 30
0.0
 11
-118.587532
 21
-62.495679
 31
0.0
  0
ARC
  5
153
100
AcDbEntity
  8
0
370
    -3
  6
Continuous
100
AcDbCircle
 10
-98.296483
 20
26.242063
 30
0.0
 40
2.0
100
AcDbArc
 50
0.0
 51
42.081511
  0
LINE
  5
154
100
AcDbEntity
  8
0
370
    -3
  6
CENTER
100
AcDbLine
 10
-106.796483
 20
-83.063887
 30
0.0
 11
-106.796483
 21
-62.501712
 31
0.0
  0
ARC
  5
155
100
AcDbEntity
  8
0
370
    -3
  6
Continuous
100
AcDbCircle
 10
-95.296483
 20
23.658806
 30
0.0
 40
1.0
100
AcDbArc
 50
180.0
 51
270.0
  0
ARC
  5
156
100
AcDbEntity
  8
0
370
    -3
  6
Continuous
100
AcDbCircle
 10
-95.296483
 20
21.658806
 30
0.0
 40
1.0
100
AcDbArc
 50
0.0
 51
90.0
  0
LINE
  5
157
100
AcDbEntity
  8
0
370
    -3
  6
Continuous
100
AcDbLine
 10
-96.296483
 20
0.158806
 30
0.0
 11
-96.296483
 21
26.242063
 31
0.0
  0
ARC
  5
158
100
AcDbEntity
  8
0
370
    -3
  6
Continuous
100
AcDbCircle
 10
-95.296483
 20
-21.341194
 30
0.0
 40
1.0
100
AcDbArc
 50
270.0
 51
0.0
  0
ARC
  5
159
100
AcDbEntity
  8
0
370
    -3
  6
Continuous
100
AcDbCircle
 10
-95.296483
 20
-23.341194
 30
0.0
 40
1.0
100
AcDbArc
 50
90.0
 51
180.0
  0
ARC
  5
15A
100
AcDbEntity
  8
0
370
    -3
  6
Continuous
100
AcDbCircle
 10
-141.343627
 20
-12.628792
 30
0.0
 40
60.0
100
AcDbArc
 50
42.081511
 51
89.0
  0
ARC
  5
15B
100
AcDbEntity
  8
0
370
    -3
  6
Continuous
100
AcDbCircle
 10
-141.343627
 20
-12.628792
 30
0.0
 40
60.0
100
AcDbArc
 50
42.081511
 51
89.0
  0
LINE
  5
15C
100
AcDbEntity
  8
0
370
    -3
  6
Continuous
100
AcDbLine
 10
-96.752852
 20
-64.819508
 30
0.0
 11
-155.296483
 21
-63.797625
 31
0.0
  0
ARC
  5
15D
100
AcDbEntity
  8
0
370
    -3
  6
Continuous
100
AcDbCircle
 10
-96.796483
 20
-67.319127
 30
0.0
 40
2.5
100
AcDbArc
 50
0.0
 51
89.0
  0
ARC
  5
15E
100
AcDbEntity
  8
0
370
    -3
  6
Continuous
100
AcDbCircle
 10
-95.296483
 20
-64.15685
 30
0.0
 40
1.0
100
AcDbArc
 50
180.0
 51
244.623066
  0
LINE
  5
15F
100
AcDbEntity
  8
0
370
    -3
  6
Continuous
100
AcDbLine
 10
-96.296483
 20
0.158806
 30
0.0
 11
-96.296483
 21
-64.15685
 31
0.0
  0
LINE
  5
160
100
AcDbEntity
  8
0
370
    -3
  6
Continuous
100
AcDbLine
 10
-96.296483
 20
-63.934807
 30
0.0
 11
-96.296483
 21
-64.15685
 31
0.0
  0
LINE
  5
161
100
AcDbEntity
  8
0
370
    -3
  6
Continuous
100
AcDbLine
 10
-96.296483
 20
-79.841438
 30
0.0
 11
-96.296483
 21
-79.311438
 31
0.0
  0
LINE
  5
162
100
AcDbEntity
  8
0
370
    -3
  6
Continuous
100
AcDbLine
 10
-94.296483
 20
-79.311438
 30
0.0
 11
-96.296483
 21
-79.311438
 31
0.0
  0
LINE
  5
163
100
AcDbEntity
  8
0
370
    -3
  6
Continuous
100
AcDbLine
 10
-167.796483
 20
-64.150035
 30
0.0
 11
-167.796483
 21
-19.091193
 31
0.0
  0
LINE
  5
164
100
AcDbEntity
  8
0
370
    -3
  6
Continuous
100
AcDbLine
 10
-167.796483
 20
-10.591195
 30
0.0
 11
-167.796483
 21
47.193716
 31
0.0
  0
LINE
  5
165
100
AcDbEntity
  8
0
370
    -3
  6
Continuous
100
AcDbLine
 10
-162.796483
 20
-9.991194
 30
0.0
 11
-162.796483
 21
-19.691194
 31
0.0
  0
ARC
  5
166
100
AcDbEntity
  8
0
370
    -3
  6
Continuous
100
AcDbCircle
 10
-166.796483
 20
-21.091194
 30
0.0
 40
1.0
100
AcDbArc
 50
90.0
 51
180.0
  0
ARC
  5
167
100
AcDbEntity
  8
0
370
    -3
  6
Continuous
100
AcDbCircle
 10
-163.196483
 20
-19.691194
 30
0.0
 40
0.4
100
AcDbArc
 50
270.0
 51
0.0
  0
LINE
  5
168
100
AcDbEntity
  8
0
370
    -3
  6
Continuous
100
AcDbLine
 10
-163.196483
 20
-20.091194
 30
0.0
 11
-166.796483
 21
-20.091194
 31
0.0
  0
ARC
  5
169
100
AcDbEntity
  8
0
370
    -3
  6
Continuous
100
AcDbCircle
 10
-166.796483
 20
-8.591194
 30
0.0
 40
1.0
100
AcDbArc
 50
180.0
 51
270.0
  0
ARC
  5
16A
100
AcDbEntity
  8
0
370
    -3
  6
Continuous
100
AcDbCircle
 10
-163.196483
 20
-9.991194
 30
0.0
 40
0.4
100
AcDbArc
 50
0.0
 51
90.0
  0
LINE
  5
16B
100
AcDbEntity
  8
0
370
    -3
  6
Continuous
100
AcDbLine
 10
-163.196483
 20
-9.591194
 30
0.0
 11
-166.796483
 21
-9.591194
 31
0.0
  0
ARC
  5
16C
100
AcDbEntity
  8
0
370
    -3
  6
Continuous
100
AcDbCircle
 10
-163.196483
 20
46.319942
 30
0.0
 40
0.4
100
AcDbArc
 50
0.0
 51
90.0
  0
LINE
  5
16D
100
AcDbEntity
  8
0
370
    -3
  6
Continuous
100
AcDbLine
 10
-162.796483
 20
46.319942
 30
0.0
 11
-162.796483
 21
43.648741
 31
0.0
  0
ARC
  5
16E
100
AcDbEntity
  8
0
370
    -3
  6
Continuous
100
AcDbCircle
 10
-166.796483
 20
45.719942
 30
0.0
 40
1.0
100
AcDbArc
 50
90.0
 51
180.0
  0
LINE
  5
16F
100
AcDbEntity
  8
0
370
    -3
  6
Continuous
100
AcDbLine
 10
-163.196483
 20
46.719942
 30
0.0
 11
-166.796483
 21
46.719942
 31
0.0
  0
ARC
  5
170
100
AcDbEntity
  8
0
370
    -3
  6
Continuous
100
AcDbCircle
 10
-166.796483
 20
42.248741
 30
0.0
 40
1.0
100
AcDbArc
 50
90.0
 51
180.0
  0
ARC
  5
171
100
AcDbEntity
  8
0
370
    -3
  6
Continuous
100
AcDbCircle
 10
-163.196483
 20
43.648741
 30
0.0
 40
0.4
100
AcDbArc
 50
270.0
 51
0.0
  0
LINE
  5
172
100
AcDbEntity
  8
0
370
    -3
  6
Continuous
100
AcDbLine
 10
-163.196483
 20
43.248741
 30
0.0
 11
-166.796483
 21
43.248741
 31
0.0
  0
INSERT
  5
17B
100
AcDbEntity
  8
0
100
AcDbBlockReference
  2
ZU_SYM__USERS_HOME_SYMBOL_POO_SYM_B20_-1
 10
-162.796483
 20
-14.841194
 30
0.0
  0
ARC
  5
17C
100
AcDbEntity
  8
0
370
    -3
  6
Continuous
100
AcDbCircle
 10
-163.196483
 20
-19.691194
 30
0.0
 40
0.4
100
AcDbArc
 50
270.0
 51
0.0
  0
ARC
  5
17D
100
AcDbEntity
  8
0
370
    -3
  6
Continuous
100
AcDbCircle
 10
-163.196483
 20
-9.991194
 30
0.0
 40
0.4
100
AcDbArc
 50
0.0
 51
90.0
  0
ARC
  5
17E
100
AcDbEntity
  8
0
370
    -3
  6
Continuous
100
AcDbCircle
 10
-167.296483
 20
47.193716
 30
0.0
 40
0.5
100
AcDbArc
 50
90.0
 51
180.0
  0
LINE
  5
17F
100
AcDbEntity
  8
0
370
    -3
  6
Continuous
100
AcDbLine
 10
-157.796483
 20
47.693716
 30
0.0
 11
-167.296483
 21
47.693716
 31
0.0
  0
LINE
  5
180
100
AcDbEntity
  8
0
370
    -3
  6
Continuous
100
AcDbLine
 10
-157.796483
 20
-52.658447
 30
0.0
 11
-157.796483
 21
-17.841194
 31
0.0
  0
LINE
  5
181
100
AcDbEntity
  8
0
370
    -3
  6
Continuous
100
AcDbLine
 10
-157.796483
 20
-17.841194
 30
0.0
 11
-157.796483
 21
47.702444
 31
0.0
  0
LINE
  5
182
100
AcDbEntity
  8
0
370
    -3
  6
Continuous
100
AcDbLine
 10
-94.296483
 20
-79.311438
 30
0.0
 11
-94.296483
 21
-67.319127
 31
0.0
  0
LINE
  5
183
100
AcDbEntity
  8
0
370
    -3
  6
Continuous
100
AcDbLine
 10
-94.296483
 20
0.158806
 30
0.0
 11
-94.296483
 21
-21.341194
 31
0.0
  0
LINE
  5
184
100
AcDbEntity
  8
0
370
    -3
  6
Continuous
100
AcDbLine
 10
-94.296483
 20
0.158806
 30
0.0
 11
-94.296483
 21
21.658806
 31
0.0
  0
ARC
  5
185
100
AcDbEntity
  8
0
370
    -3
  6
Continuous
100
AcDbCircle
 10
-64.696466
 20
-8.941194
 30
0.0
 40
0.4
100
AcDbArc
 50
270.0
 51
0.0
  0
ARC
  5
186
100
AcDbEntity
  8
0
370
    -3
  6
Continuous
100
AcDbCircle
 10
-64.696466
 20
9.33073
 30
0.0
 40
0.4
100
AcDbArc
 50
0.0
 51
90.0
  0
LINE
  5
187
100
AcDbEntity
  8
0
370
    -3
  6
Continuous
100
AcDbLine
 10
-89.736658
 20
9.73073
 30
0.0
 11
-90.296466
 21
9.58073
 31
0.0
  0
LINE
  5
188
100
AcDbEntity
  8
0
370
    -3
  6
Continuous
100
AcDbLine
 10
-64.696466
 20
9.73073
 30
0.0
 11
-89.736658
 21
9.73073
 31
0.0
  0
LINE
  5
189
100
AcDbEntity
  8
0
370
    -3
  6
Continuous
100
AcDbLine
 10
-92.496466
 20
11.23073
 30
0.0
 11
-92.296466
 21
11.03073
 31
0.0
  0
LINE
  5
18A
100
AcDbEntity
  8
0
370
    -3
  6
Continuous
100
AcDbLine
 10
-90.296466
 20
9.58073
 30
0.0
 11
-91.896466
 21
9.58073
 31
0.0
  0
LINE
  5
18B
100
AcDbEntity
  8
0
370
    -3
  6
Continuous
100
AcDbLine
 10
-92.296466
 20
0.23073
 30
0.0
 11
-92.296466
 21
11.03073
 31
0.0
  0
ARC
  5
18C
100
AcDbEntity
  8
0
370
    -3
  6
Continuous
100
AcDbCircle
 10
-91.896466
 20
9.98073
 30
0.0
 40
0.4
100
AcDbArc
 50
180.0
 51
270.0
  0
LINE
  5
18D
100
AcDbEntity
  8
0
370
    -3
  6
Continuous
100
AcDbLine
 10
-64.696466
 20
-9.341194
 30
0.0
 11
-89.736658
 21
-9.341194
 31
0.0
  0
LINE
  5
18E
100
AcDbEntity
  8
0
370
    -3
  6
Continuous
100
AcDbLine
 10
-92.496466
 20
-10.841194
 30
0.0
 11
-92.296466
 21
-10.641194
 31
0.0
  0
LINE
  5
18F
100
AcDbEntity
  8
0
370
    -3
  6
Continuous
100
AcDbLine
 10
-90.296466
 20
-9.191194
 30
0.0
 11
-91.896466
 21
-9.191194
 31
0.0
  0
LINE
  5
190
100
AcDbEntity
  8
0
370
    -3
  6
Continuous
100
AcDbLine
 10
-89.736658
 20
-9.341194
 30
0.0
 11
-90.296466
 21
-9.191194
 31
0.0
  0
LINE
  5
191
100
AcDbEntity
  8
0
370
    -3
  6
Continuous
100
AcDbLine
 10
-92.296466
 20
0.158806
 30
0.0
 11
-92.296466
 21
-10.641194
 31
0.0
  0
ARC
  5
192
100
AcDbEntity
  8
0
370
    -3
  6
Continuous
100
AcDbCircle
 10
-91.896466
 20
-9.591194
 30
0.0
 40
0.4
100
AcDbArc
 50
90.0
 51
180.0
  0
LINE
  5
193
100
AcDbEntity
  8
0
370
    -3
  6
Continuous
100
AcDbLine
 10
-92.496466
 20
11.23073
 30
0.0
 11
-94.296483
 21
11.23073
 31
0.0
  0
LINE
  5
194
100
AcDbEntity
  8
0
370
    -3
  6
Continuous
100
AcDbLine
 10
-92.496466
 20
-10.841194
 30
0.0
 11
-94.296483
 21
-10.841194
 31
0.0
  0
LINE
  5
195
100
AcDbEntity
  8
0
370
    -3
  6
Continuous
100
AcDbLine
 10
-64.296466
 20
9.33073
 30
0.0
 11
-64.296466
 21
-8.941194
 31
0.0
  0
LINE
  5
196
100
AcDbEntity
  8
0
370
    -3
  6
Continuous
100
AcDbLine
 10
-86.408421
 20
2.934652
 30
0.0
 11
-64.296466
 21
2.934652
 31
0.0
  0
LINE
  5
197
100
AcDbEntity
  8
0
370
    -3
  6
Continuous
100
AcDbLine
 10
-86.408421
 20
-2.841438
 30
0.0
 11
-64.296466
 21
-2.841438
 31
0.0
  0
ARC
  5
198
100
AcDbEntity
  8
0
370
    -3
  6
Continuous
100
AcDbCircle
 10
-86.408421
 20
0.046607
 30
0.0
 40
2.888045
100
AcDbArc
 50
90.0
 51
270.0
  0
LINE
  5
199
100
AcDbEntity
  8
0
370
    -3
  6
Continuous
100
AcDbLine
 10
-193.296483
 20
40.658806
 30
0.0
 11
-193.296483
 21
-17.841194
 31
0.0
  0
LINE
  5
19A
100
AcDbEntity
  8
0
370
    -3
  6
CENTER
100
AcDbLine
 10
-144.935613
 20
-17.841194
 30
0.0
 11
-430.0
 21
-17.841194
 31
0.0
  0
LINE
  5
19B
100
AcDbEntity
  8
0
370
    -3
  6
Continuous
100
AcDbLine
 10
-193.296483
 20
-76.341194
 30
0.0
 11
-193.296483
 21
-17.841194
 31
0.0
  0
LINE
  5
19C
100
AcDbEntity
  8
0
370
    -3
  6
Continuous
100
AcDbLine
 10
-193.296483
 20
-17.841194
 30
0.0
 11
-193.296483
 21
40.658806
 31
0.0
  0
LINE
  5
19D
100
AcDbEntity
  8
0
370
    -3
  6
Continuous
100
AcDbLine
 10
-193.296483
 20
-17.841194
 30
0.0
 11
-193.296483
 21
-76.341194
 31
0.0
  0
LINE
  5
19E
100
AcDbEntity
  8
0
370
    -3
  6
Continuous
100
AcDbLine
 10
-193.296483
 20
-76.349921
 30
0.0
 11
-192.296483
 21
-76.367376
 31
0.0
  0
LINE
  5
19F
100
AcDbEntity
  8
0
370
    -3
  6
Continuous
100
AcDbLine
 10
-193.296483
 20
40.667534
 30
0.0
 11
-167.796483
 21
41.112638
 31
0.0
  0
LINE
  5
1A0
100
AcDbEntity
  8
0
370
    -3
  6
Continuous
100
AcDbLine
 10
-190.296483
 20
-79.841438
 30
0.0
 11
-96.296483
 21
-79.841438
 31
0.0
  0
LINE
  5
1A1
100
AcDbEntity
  8
0
370
    -3
  6
Continuous
100
AcDbLine
 10
-190.296483
 20
-79.311438
 30
0.0
 11
-192.296483
 21
-79.311438
 31
0.0
  0
LINE
  5
1A2
100
AcDbEntity
  8
0
370
    -3
  6
Continuous
100
AcDbLine
 10
-190.296483
 20
-79.841438
 30
0.0
 11
-190.296483
 21
-79.311438
 31
0.0
  0
LINE
  5
1A3
100
AcDbEntity
  8
0
370
    -3
  6
Continuous
100
AcDbLine
 10
-192.296483
 20
-79.311438
 30
0.0
 11
-192.296483
 21
-67.236556
 31
0.0
  0
LINE
  5
1A4
100
AcDbEntity
  8
0
370
    -3
  6
Continuous
100
AcDbLine
 10
-155.296483
 20
-63.797625
 30
0.0
 11
-190.280872
 21
-64.783932
 31
0.0
  0
ARC
  5
1A5
100
AcDbEntity
  8
0
370
    -3
  6
Continuous
100
AcDbCircle
 10
-189.796483
 20
-67.236556
 30
0.0
 40
2.5
100
AcDbArc
 50
101.172052
 51
180.0
  0
LINE
  5
1A6
100
AcDbEntity
  8
0
370
    -3
  6
Continuous
100
AcDbLine
 10
-193.296483
 20
39.158806
 30
0.0
 11
-167.796483
 21
39.158806
 31
0.0
  0
LINE
  5
1A7
100
AcDbEntity
  8
0
370
    -3
  6
Continuous
100
AcDbLine
 10
-193.296483
 20
39.658806
 30
0.0
 11
-167.796483
 21
39.658806
 31
0.0
  0
LINE
  5
1A8
100
AcDbEntity
  8
0
370
    -3
  6
Continuous
100
AcDbLine
 10
-193.296483
 20
38.158806
 30
0.0
 11
-167.796483
 21
38.158806
 31
0.0
  0
LINE
  5
1A9
100
AcDbEntity
  8
0
370
    -3
  6
Continuous
100
AcDbLine
 10
-193.296483
 20
37.158806
 30
0.0
 11
-167.796483
 21
37.158806
 31
0.0
  0
LINE
  5
1AA
100
AcDbEntity
  8
0
370
    -3
  6
Continuous
100
AcDbLine
 10
-193.296483
 20
32.47434
 30
0.0
 11
-167.796483
 21
32.47434
 31
0.0
  0
LINE
  5
1AB
100
AcDbEntity
  8
0
370
    -3
  6
Continuous
100
AcDbLine
 10
-193.296483
 20
27.524593
 30
0.0
 11
-167.796483
 21
27.524593
 31
0.0
  0
LINE
  5
1AC
100
AcDbEntity
  8
0
370
    -3
  6
Continuous
100
AcDbLine
 10
-193.296483
 20
19.477991
 30
0.0
 11
-167.796483
 21
19.477991
 31
0.0
  0
LINE
  5
1AD
100
AcDbEntity
  8
0
370
    -3
  6
Continuous
100
AcDbLine
 10
-193.296483
 20
17.873343
 30
0.0
 11
-167.796483
 21
17.873343
 31
0.0
  0
LINE
  5
1AE
100
AcDbEntity
  8
0
370
    -3
  6
Continuous
100
AcDbLine
 10
-193.296483
 20
13.909598
 30
0.0
 11
-167.796483
 21
13.909598
 31
0.0
  0
LINE
  5
1AF
100
AcDbEntity
  8
0
370
    -3
  6
Continuous
100
AcDbLine
 10
-193.296483
 20
12.44124
 30
0.0
 11
-167.796483
 21
12.44124
 31
0.0
  0
LINE
  5
1B0
100
AcDbEntity
  8
0
370
    -3
  6
Continuous
100
AcDbLine
 10
-193.296483
 20
8.35074
 30
0.0
 11
-167.796483
 21
8.35074
 31
0.0
  0
LINE
  5
1B1
100
AcDbEntity
  8
0
370
    -3
  6
Continuous
100
AcDbLine
 10
-193.296483
 20
6.98886
 30
0.0
 11
-167.796483
 21
6.98886
 31
0.0
  0
LINE
  5
1B2
100
AcDbEntity
  8
0
370
    -3
  6
Continuous
100
AcDbLine
 10
-193.296483
 20
2.158806
 30
0.0
 11
-167.796483
 21
2.158806
 31
0.0
  0
LINE
  5
1B3
100
AcDbEntity
  8
0
370
    -3
  6
Continuous
100
AcDbLine
 10
-193.296483
 20
-37.841194
 30
0.0
 11
-167.796483
 21
-37.841194
 31
0.0
  0
LINE
  5
1B4
100
AcDbEntity
  8
0
370
    -3
  6
Continuous
100
AcDbLine
 10
-193.296483
 20
-42.671247
 30
0.0
 11
-167.796483
 21
-42.671247
 31
0.0
  0
LINE
  5
1B5
100
AcDbEntity
  8
0
370
    -3
  6
Continuous
100
AcDbLine
 10
-193.296483
 20
-44.033128
 30
0.0
 11
-167.796483
 21
-44.033128
 31
0.0
  0
LINE
  5
1B6
100
AcDbEntity
  8
0
370
    -3
  6
Continuous
100
AcDbLine
 10
-193.296483
 20
-48.123628
 30
0.0
 11
-167.796483
 21
-48.123628
 31
0.0
  0
LINE
  5
1B7
100
AcDbEntity
  8
0
370
    -3
  6
Continuous
100
AcDbLine
 10
-193.296483
 20
-49.591986
 30
0.0
 11
-167.796483
 21
-49.591986
 31
0.0
  0
LINE
  5
1B8
100
AcDbEntity
  8
0
370
    -3
  6
Continuous
100
AcDbLine
 10
-193.296483
 20
-53.555731
 30
0.0
 11
-167.796483
 21
-53.555731
 31
0.0
  0
LINE
  5
1B9
100
AcDbEntity
  8
0
370
    -3
  6
Continuous
100
AcDbLine
 10
-193.296483
 20
-55.160379
 30
0.0
 11
-167.796483
 21
-55.160379
 31
0.0
  0
LINE
  5
1BA
100
AcDbEntity
  8
0
370
    -3
  6
Continuous
100
AcDbLine
 10
-193.296483
 20
-63.206981
 30
0.0
 11
-167.796483
 21
-63.206981
 31
0.0
  0
LINE
  5
1BB
100
AcDbEntity
  8
0
370
    -3
  6
Continuous
100
AcDbLine
 10
-192.36486
 20
-68.156728
 30
0.0
 11
-192.296483
 21
-68.156728
 31
0.0
  0
ELLIPSE
  5
1BC
100
AcDbEntity
  8
0
370
    -3
  6
Continuous
100
AcDbEllipse
 10
-328.296483
 20
186.431054
 30
0.0
 11
-4.6999999999999886
 21
0.0
 31
0.0
210
0.0
220
0.0
230
1.0
 40
0.766646
 41
0.0
 42
6.2831853071795862
  0
LINE
  5
1BD
100
AcDbEntity
  8
0
370
    -3
  6
Continuous
100
AcDbLine
 10
-330.296483
 20
183.438679
 30
0.0
 11
-328.296483
 21
184.614464
 31
0.0
  0
LINE
  5
1BE
100
AcDbEntity
  8
0
370
    -3
  6
Continuous
100
AcDbLine
 10
-328.296483
 20
184.614464
 30
0.0
 11
-326.296483
 21
186.267106
 31
0.0
  0
LINE
  5
1BF
100
AcDbEntity
  8
0
370
    -3
  6
Continuous
100
AcDbLine
 10
-326.296483
 20
183.438679
 30
0.0
 11
-328.296483
 21
184.614464
 31
0.0
  0
LINE
  5
1C0
100
AcDbEntity
  8
0
370
    -3
  6
Continuous
100
AcDbLine
 10
-328.296483
 20
184.614464
 30
0.0
 11
-330.296483
 21
186.267106
 31
0.0
  0
ELLIPSE
  5
1C1
100
AcDbEntity
  8
0
370
    -3
  6
Continuous
100
AcDbEllipse
 10
-328.296483
 20
286.688465
 30
0.0
 11
4.6999999999999886
 21
0.0
 31
0.0
210
0.0
220
0.0
230
1.0
 40
0.766646
 41
0.0
 42
6.2831853071795862
  0
LINE
  5
1C2
100
AcDbEntity
  8
0
370
    -3
  6
Continuous
100
AcDbLine
 10
-330.296483
 20
289.68084
 30
0.0
 11
-328.296483
 21
288.505055
 31
0.0
  0
LINE
  5
1C3
100
AcDbEntity
  8
0
370
    -3
  6
Continuous
100
AcDbLine
 10
-328.296483
 20
288.505055
 30
0.0
 11
-326.296483
 21
286.852413
 31
0.0
  0
LINE
  5
1C4
100
AcDbEntity
  8
0
370
    -3
  6
Continuous
100
AcDbLine
 10
-326.296483
 20
289.68084
 30
0.0
 11
-328.296483
 21
288.505055
 31
0.0
  0
LINE
  5
1C5
100
AcDbEntity
  8
0
370
    -3
  6
Continuous
100
AcDbLine
 10
-328.296483
 20
288.505055
 30
0.0
 11
-330.296483
 21
286.852413
 31
0.0
  0
LINE
  5
1C6
100
AcDbEntity
  8
0
370
    -3
  6
Continuous
100
AcDbLine
 10
-310.96563
 20
177.065172
 30
0.0
 11
-272.627336
 21
177.065172
 31
0.0
  0
LINE
  5
1C7
100
AcDbEntity
  8
0
370
    -3
  6
Continuous
100
AcDbLine
 10
-265.003689
 20
177.065172
 30
0.0
 11
-193.296483
 21
177.065172
 31
0.0
  0
LINE
  5
1C8
100
AcDbEntity
  8
0
370
    -3
  6
Continuous
100
AcDbLine
 10
-317.296483
 20
221.565172
 30
0.0
 11
-193.296483
 21
221.565172
 31
0.0
  0
LINE
  5
1C9
100
AcDbEntity
  8
0
370
    -3
  6
Continuous
100
AcDbLine
 10
-317.296483
 20
181.565172
 30
0.0
 11
-193.296483
 21
181.565172
 31
0.0
  0
LINE
  5
1CA
100
AcDbEntity
  8
0
370
    -3
  6
Continuous
100
AcDbLine
 10
-317.296483
 20
180.565172
 30
0.0
 11
-193.296483
 21
180.565172
 31
0.0
  0
LINE
  5
1CB
100
AcDbEntity
  8
0
370
    -3
  6
Continuous
100
AcDbLine
 10
-317.296483
 20
179.565172
 30
0.0
 11
-193.296483
 21
179.565172
 31
0.0
  0
LINE
  5
1CC
100
AcDbEntity
  8
0
370
    -3
  6
Continuous
100
AcDbLine
 10
-317.296483
 20
293.565172
 30
0.0
 11
-193.296483
 21
293.565172
 31
0.0
  0
LINE
  5
1CD
100
AcDbEntity
  8
0
370
    -3
  6
Continuous
100
AcDbLine
 10
-317.296483
 20
292.565172
 30
0.0
 11
-193.296483
 21
292.565172
 31
0.0
  0
LINE
  5
1CE
100
AcDbEntity
  8
0
370
    -3
  6
Continuous
100
AcDbLine
 10
-317.296483
 20
291.565172
 30
0.0
 11
-193.296483
 21
291.565172
 31
0.0
  0
LINE
  5
1CF
100
AcDbEntity
  8
0
370
    -3
  6
Continuous
100
AcDbLine
 10
-317.296483
 20
286.880706
 30
0.0
 11
-193.296483
 21
286.880706
 31
0.0
  0
LINE
  5
1D0
100
AcDbEntity
  8
0
370
    -3
  6
Continuous
100
AcDbLine
 10
-317.296483
 20
281.930959
 30
0.0
 11
-193.296483
 21
281.930959
 31
0.0
  0
LINE
  5
1D1
100
AcDbEntity
  8
0
370
    -3
  6
Continuous
100
AcDbLine
 10
-317.296483
 20
251.565172
 30
0.0
 11
-193.296483
 21
251.565172
 31
0.0
  0
LINE
  5
1D2
100
AcDbEntity
  8
0
370
    -3
  6
Continuous
100
AcDbLine
 10
-193.296483
 20
296.065172
 30
0.0
 11
-193.296483
 21
177.065172
 31
0.0
  0
LINE
  5
1D3
100
AcDbEntity
  8
0
370
    -3
  6
Continuous
100
AcDbLine
 10
-317.296483
 20
296.065172
 30
0.0
 11
-193.296483
 21
296.065172
 31
0.0
  0
LINE
  5
1D4
100
AcDbEntity
  8
0
370
    -3
  6
Continuous
100
AcDbLine
 10
-250.296483
 20
296.065172
 30
0.0
 11
-193.296483
 21
296.065172
 31
0.0
  0
LINE
  5
1D5
100
AcDbEntity
  8
0
370
    -3
  6
Continuous
100
AcDbLine
 10
-317.296483
 20
191.18856
 30
0.0
 11
-193.296483
 21
191.18856
 31
0.0
  0
LINE
  5
1D6
100
AcDbEntity
  8
0
370
    -3
  6
Continuous
100
AcDbLine
 10
-317.296483
 20
186.238813
 30
0.0
 11
-193.296483
 21
186.238813
 31
0.0
  0
LINE
  5
1D7
100
AcDbEntity
  8
0
370
    -3
  6
Continuous
100
AcDbLine
 10
-317.296483
 20
217.559721
 30
0.0
 11
-193.296483
 21
217.559721
 31
0.0
  0
LINE
  5
1D8
100
AcDbEntity
  8
0
370
    -3
  6
Continuous
100
AcDbLine
 10
-317.296483
 20
215.531209
 30
0.0
 11
-193.296483
 21
215.531209
 31
0.0
  0
LINE
  5
1D9
100
AcDbEntity
  8
0
370
    -3
  6
Continuous
100
AcDbLine
 10
-317.296483
 20
212.100788
 30
0.0
 11
-193.296483
 21
212.100788
 31
0.0
  0
LINE
  5
1DA
100
AcDbEntity
  8
0
370
    -3
  6
Continuous
100
AcDbLine
 10
-317.296483
 20
209.976564
 30
0.0
 11
-193.296483
 21
209.976564
 31
0.0
  0
LINE
  5
1DB
100
AcDbEntity
  8
0
370
    -3
  6
Continuous
100
AcDbLine
 10
-317.296483
 20
206.644054
 30
0.0
 11
-193.296483
 21
206.644054
 31
0.0
  0
LINE
  5
1DC
100
AcDbEntity
  8
0
370
    -3
  6
Continuous
100
AcDbLine
 10
-317.296483
 20
204.41465
 30
0.0
 11
-193.296483
 21
204.41465
 31
0.0
  0
LINE
  5
1DD
100
AcDbEntity
  8
0
370
    -3
  6
Continuous
100
AcDbLine
 10
-317.296483
 20
201.206051
 30
0.0
 11
-193.296483
 21
201.206051
 31
0.0
  0
LINE
  5
1DE
100
AcDbEntity
  8
0
370
    -3
  6
Continuous
100
AcDbLine
 10
-317.296483
 20
198.869352
 30
0.0
 11
-193.296483
 21
198.869352
 31
0.0
  0
LINE
  5
1DF
100
AcDbEntity
  8
0
370
    -3
  6
Continuous
100
AcDbLine
 10
-317.296483
 20
255.570622
 30
0.0
 11
-193.296483
 21
255.570622
 31
0.0
  0
LINE
  5
1E0
100
AcDbEntity
  8
0
370
    -3
  6
Continuous
100
AcDbLine
 10
-317.296483
 20
257.599134
 30
0.0
 11
-193.296483
 21
257.599134
 31
0.0
  0
LINE
  5
1E1
100
AcDbEntity
  8
0
370
    -3
  6
Continuous
100
AcDbLine
 10
-317.296483
 20
261.029555
 30
0.0
 11
-193.296483
 21
261.029555
 31
0.0
  0
LINE
  5
1E2
100
AcDbEntity
  8
0
370
    -3
  6
Continuous
100
AcDbLine
 10
-317.296483
 20
263.15378
 30
0.0
 11
-193.296483
 21
263.15378
 31
0.0
  0
LINE
  5
1E3
100
AcDbEntity
  8
0
370
    -3
  6
Continuous
100
AcDbLine
 10
-317.296483
 20
266.48629
 30
0.0
 11
-193.296483
 21
266.48629
 31
0.0
  0
LINE
  5
1E4
100
AcDbEntity
  8
0
370
    -3
  6
Continuous
100
AcDbLine
 10
-317.296483
 20
268.715694
 30
0.0
 11
-193.296483
 21
268.715694
 31
0.0
  0
LINE
  5
1E5
100
AcDbEntity
  8
0
370
    -3
  6
Continuous
100
AcDbLine
 10
-317.296483
 20
271.924292
 30
0.0
 11
-193.296483
 21
271.924292
 31
0.0
  0
LINE
  5
1E6
100
AcDbEntity
  8
0
370
    -3
  6
Continuous
100
AcDbLine
 10
-317.296483
 20
274.260992
 30
0.0
 11
-193.296483
 21
274.260992
 31
0.0
  0
LINE
  5
1E7
100
AcDbEntity
  8
0
370
    -3
  6
Continuous
100
AcDbLine
 10
-420.296483
 20
236.565172
 30
0.0
 11
-420.296483
 21
289.008377
 31
0.0
  0
ARC
  5
1E8
100
AcDbEntity
  8
0
370
    -3
  6
Continuous
100
AcDbCircle
 10
-397.990507
 20
281.565172
 30
0.0
 40
20.0
100
AcDbArc
 50
90.0
 51
125.0
  0
LINE
  5
1E9
100
AcDbEntity
  8
0
370
    -3
  6
Continuous
100
AcDbLine
 10
-409.462036
 20
297.948213
 30
0.0
 11
-419.187782
 21
291.138172
 31
0.0
  0
ARC
  5
1EA
100
AcDbEntity
  8
0
370
    -3
  6
Continuous
100
AcDbCircle
 10
-417.696483
 20
289.008377
 30
0.0
 40
2.6
100
AcDbArc
 50
125.0
 51
180.0
  0
LINE
  5
1EB
100
AcDbEntity
  8
0
370
    -3
  6
Continuous
100
AcDbLine
 10
-317.296483
 20
301.565172
 30
0.0
 11
-397.990507
 21
301.565172
 31
0.0
  0
LINE
  5
1EC
100
AcDbEntity
  8
0
370
    -3
  6
Continuous
100
AcDbLine
 10
-420.296483
 20
236.565172
 30
0.0
 11
-420.296483
 21
184.121967
 31
0.0
  0
LINE
  5
1ED
100
AcDbEntity
  8
0
370
    -3
  6
Continuous
100
AcDbLine
 10
-409.462036
 20
175.182131
 30
0.0
 11
-419.187782
 21
181.992171
 31
0.0
  0
ARC
  5
1EE
100
AcDbEntity
  8
0
370
    -3
  6
Continuous
100
AcDbCircle
 10
-417.696483
 20
184.121967
 30
0.0
 40
2.6
100
AcDbArc
 50
180.0
 51
235.0
  0
ARC
  5
1EF
100
AcDbEntity
  8
0
370
    -3
  6
Continuous
100
AcDbCircle
 10
-397.990507
 20
191.565172
 30
0.0
 40
20.0
100
AcDbArc
 50
235.0
 51
270.0
  0
LINE
  5
1F0
100
AcDbEntity
  8
0
370
    -3
  6
Continuous
100
AcDbLine
 10
-317.296483
 20
236.565172
 30
0.0
 11
-317.296483
 21
301.565172
 31
0.0
  0
LINE
  5
1F1
100
AcDbEntity
  8
0
370
    -3
  6
Continuous
100
AcDbLine
 10
-317.296483
 20
236.565172
 30
0.0
 11
-317.296483
 21
177.945951
 31
0.0
  0
ARC
  5
1F2
100
AcDbEntity
  8
0
370
    -3
  6
Continuous
100
AcDbCircle
 10
-320.296483
 20
177.945951
 30
0.0
 40
3.0
100
AcDbArc
 50
270.0
 51
0.0
  0
LINE
  5
1F3
100
AcDbEntity
  8
0
370
    -3
  6
Continuous
100
AcDbLine
 10
-324.296483
 20
174.945951
 30
0.0
 11
-320.296483
 21
174.945951
 31
0.0
  0
ARC
  5
1F4
100
AcDbEntity
  8
0
370
    -3
  6
Continuous
100
AcDbCircle
 10
-324.296483
 20
171.945951
 30
0.0
 40
3.0
100
AcDbArc
 50
90.0
 51
180.0
  0
LINE
  5
1F5
100
AcDbEntity
  8
0
370
    -3
  6
Continuous
100
AcDbLine
 10
-327.296483
 20
171.565172
 30
0.0
 11
-397.990507
 21
171.565172
 31
0.0
  0
LINE
  5
1F6
100
AcDbEntity
  8
0
370
    -3
  6
Continuous
100
AcDbLine
 10
-327.296483
 20
171.565172
 30
0.0
 11
-327.296483
 21
171.945951
 31
0.0
  0
ARC
  5
1F7
100
AcDbEntity
  8
0
370
    -3
  6
Continuous
100
AcDbCircle
 10
-559.403377
 20
15.318013
 30
0.0
 40
25.6
100
AcDbArc
 50
45.0
 51
85.337794
  0
ARC
  5
1F8
100
AcDbEntity
  8
0
370
    -3
  6
Continuous
100
AcDbCircle
 10
-556.88378
 20
38.158806
 30
0.0
 40
4.249999
100
AcDbArc
 50
27.713335
 51
137.262674
  0
LINE
  5
1F9
100
AcDbEntity
  8
0
370
    -3
  6
Continuous
100
AcDbLine
 10
-562.13378
 20
45.865943
 30
0.0
 11
-562.13378
 21
41.196514
 31
0.0
  0
LINE
  5
1FA
100
AcDbEntity
  8
0
370
    -3
  6
Continuous
100
AcDbLine
 10
-551.63378
 20
42.248741
 30
0.0
 11
-551.63378
 21
39.710499
 31
0.0
  0
ARC
  5
1FB
100
AcDbEntity
  8
0
370
    -3
  6
Continuous
100
AcDbCircle
 10
-570.38378
 20
-2.594737
 30
0.0
 40
50.0
100
AcDbArc
 50
20.152293
 51
88.510142
  0
LINE
  5
1FC
100
AcDbEntity
  8
0
370
    -3
  6
Continuous
100
AcDbLine
 10
-520.38378
 20
-63.098553
 30
0.0
 11
-520.38378
 21
-52.593532
 31
0.0
  0
ARC
  5
1FD
100
AcDbEntity
  8
0
370
    -3
  6
Continuous
100
AcDbCircle
 10
-523.38378
 20
-52.841194
 30
0.0
 40
3.0
100
AcDbArc
 50
24.24182
 51
80.887448
  0
ARC
  5
1FE
100
AcDbEntity
  8
0
370
    -3
  6
Continuous
100
AcDbCircle
 10
-565.959554
 20
-36.343374
 30
0.0
 40
40.6
100
AcDbArc
 50
315.0
 51
357.053989
  0
ARC
  5
1FF
100
AcDbEntity
  8
0
370
    -3
  6
Continuous
100
AcDbCircle
 10
-526.516195
 20
-52.841194
 30
0.0
 40
3.0
100
AcDbArc
 50
94.807711
 51
114.625381
  0
LINE
  5
200
100
AcDbEntity
  8
0
370
    -3
  6
Continuous
100
AcDbLine
 10
-554.383783
 20
-76.650591
 30
0.0
 11
-555.101301
 21
-76.236331
 31
0.0
  0
LINE
  5
201
100
AcDbEntity
  8
0
370
    -3
  6
Continuous
100
AcDbLine
 10
-552.793213
 20
-75.732278
 30
0.0
 11
-554.383782
 21
-76.650591
 31
0.0
  0
ARC
  5
202
100
AcDbEntity
  8
0
370
    -3
  6
Continuous
100
AcDbCircle
 10
-554.38378
 20
-74.341194
 30
0.0
 40
4.249999
100
AcDbArc
 50
211.637989
 51
352.766267
  0
LINE
  5
203
100
AcDbEntity
  8
0
370
    -3
  6
Continuous
100
AcDbLine
 10
-536.355797
 20
-64.722374
 30
0.0
 11
-543.002601
 21
-71.369177
 31
0.0
  0
LINE
  5
204
100
AcDbEntity
  8
0
370
    -3
  6
Continuous
100
AcDbLine
 10
-536.236977
 20
-64.841194
 30
0.0
 11
-519.88378
 21
-64.841194
 31
0.0
  0
LINE
  5
205
100
AcDbEntity
  8
0
370
    -3
  6
Continuous
100
AcDbLine
 10
-541.38378
 20
-79.841194
 30
0.0
 11
-541.38378
 21
-71.541938
 31
0.0
  0
ARC
  5
206
100
AcDbEntity
  8
0
370
    -3
  6
Continuous
100
AcDbCircle
 10
-545.38378
 20
-73.36143
 30
0.0
 40
1.0
100
AcDbArc
 50
158.998366
 51
180.0
  0
LINE
  5
207
100
AcDbEntity
  8
0
370
    -3
  6
Continuous
100
AcDbLine
 10
-548.38378
 20
-76.841194
 30
0.0
 11
-548.38378
 21
-74.107294
 31
0.0
  0
ARC
  5
208
100
AcDbEntity
  8
0
370
    -3
  6
Continuous
100
AcDbCircle
 10
-653.251366
 20
-52.841194
 30
0.0
 40
3.0
100
AcDbArc
 50
65.374619
 51
90.0
  0
LINE
  5
209
100
AcDbEntity
  8
0
370
    -3
  6
Continuous
100
AcDbLine
 10
-559.63378
 20
-76.841194
 30
0.0
 11
-559.63378
 21
-76.697446
 31
0.0
  0
ARC
  5
20A
100
AcDbEntity
  8
0
370
    -3
  6
Continuous
100
AcDbCircle
 10
-559.403377
 20
-51.000401
 30
0.0
 40
25.6
100
AcDbArc
 50
274.662206
 51
315.0
  0
LINE
  5
20B
100
AcDbEntity
  8
0
370
    -3
  6
Continuous
100
AcDbLine
 10
-643.411764
 20
-64.722374
 30
0.0
 11
-636.76496
 21
-71.369177
 31
0.0
  0
LINE
  5
20C
100
AcDbEntity
  8
0
370
    -3
  6
Continuous
100
AcDbLine
 10
-643.530584
 20
-64.841194
 30
0.0
 11
-659.88378
 21
-64.841194
 31
0.0
  0
LINE
  5
20D
100
AcDbEntity
  8
0
370
    -3
  6
Continuous
100
AcDbLine
 10
-638.38378
 20
-79.841194
 30
0.0
 11
-638.38378
 21
-71.541938
 31
0.0
  0
ARC
  5
20E
100
AcDbEntity
  8
0
370
    -3
  6
Continuous
100
AcDbCircle
 10
-634.38378
 20
-73.36143
 30
0.0
 40
1.0
100
AcDbArc
 50
0.0
 51
21.001634
  0
LINE
  5
20F
100
AcDbEntity
  8
0
370
    -3
  6
Continuous
100
AcDbLine
 10
-620.13378
 20
-76.841194
 30
0.0
 11
-620.13378
 21
-76.697446
 31
0.0
  0
ARC
  5
210
100
AcDbEntity
  8
0
370
    -3
  6
Continuous
100
AcDbCircle
 10
-619.13378
 20
-76.841194
 30
0.0
 40
1.0
100
AcDbArc
 50
180.0
 51
270.0
  0
ARC
  5
211
100
AcDbEntity
  8
0
370
    -3
  6
Continuous
100
AcDbCircle
 10
-625.38378
 20
-74.341194
 30
0.0
 40
4.249999
100
AcDbArc
 50
187.233733
 51
328.362011
  0
LINE
  5
212
100
AcDbEntity
  8
0
370
    -3
  6
Continuous
100
AcDbLine
 10
-625.383778
 20
-76.650591
 30
0.0
 11
-624.66626
 21
-76.236331
 31
0.0
  0
LINE
  5
213
100
AcDbEntity
  8
0
370
    -3
  6
Continuous
100
AcDbLine
 10
-626.974348
 20
-75.732278
 30
0.0
 11
-625.383778
 21
-76.650591
 31
0.0
  0
LINE
  5
214
100
AcDbEntity
  8
0
370
    -3
  6
Continuous
100
AcDbLine
 10
-631.38378
 20
-76.841194
 30
0.0
 11
-631.38378
 21
-74.107294
 31
0.0
  0
LINE
  5
215
100
AcDbEntity
  8
0
370
    -3
  6
Continuous
100
AcDbLine
 10
-654.094221
 20
-41.381326
 30
0.0
 11
-658.713907
 21
-33.379794
 31
0.0
  0
LINE
  5
216
100
AcDbEntity
  8
0
370
    -3
  6
Continuous
100
AcDbLine
 10
-655.383779
 20
-15.995893
 30
0.0
 11
-654.880763
 21
-16.286309
 31
0.0
  0
LINE
  5
217
100
AcDbEntity
  8
0
370
    -3
  6
Continuous
100
AcDbLine
 10
-655.383778
 20
-13.686498
 30
0.0
 11
-654.858978
 21
-13.383503
 31
0.0
  0
ARC
  5
218
100
AcDbEntity
  8
0
370
    -3
  6
Continuous
100
AcDbCircle
 10
-653.38378
 20
-14.841194
 30
0.0
 40
4.249999
100
AcDbArc
 50
109.7888
 51
249.349842
  0
LINE
  5
219
100
AcDbEntity
  8
0
370
    -3
  6
Continuous
100
AcDbLine
 10
-658.38378
 20
-20.091194
 30
0.0
 11
-654.877462
 21
-20.091194
 31
0.0
  0
LINE
  5
21A
100
AcDbEntity
  8
0
370
    -3
  6
Continuous
100
AcDbLine
 10
-658.38378
 20
-9.591194
 30
0.0
 11
-654.798821
 21
-9.591194
 31
0.0
  0
ARC
  5
21B
100
AcDbEntity
  8
0
370
    -3
  6
Continuous
100
AcDbCircle
 10
-622.88378
 20
38.158806
 30
0.0
 40
4.249999
100
AcDbArc
 50
42.737326
 51
152.286665
  0
LINE
  5
21C
100
AcDbEntity
  8
0
370
    -3
  6
Continuous
100
AcDbLine
 10
-617.63378
 20
45.865943
 30
0.0
 11
-617.63378
 21
41.196514
 31
0.0
  0
LINE
  5
21D
100
AcDbEntity
  8
0
370
    -3
  6
Continuous
100
AcDbLine
 10
-628.13378
 20
42.248741
 30
0.0
 11
-628.13378
 21
39.710499
 31
0.0
  0
ARC
  5
21E
100
AcDbEntity
  8
0
370
    -3
  6
Continuous
100
AcDbCircle
 10
-925.48378
 20
-17.841194
 30
0.0
 40
400.6
100
AcDbArc
 50
0.0
 51
2.946011
  0
ARC
  5
21F
100
AcDbEntity
  8
0
370
    -3
  6
Continuous
100
AcDbCircle
 10
-925.48378
 20
-17.841194
 30
0.0
 40
400.6
100
AcDbArc
 50
357.053989
 51
0.0
  0
LINE
  5
220
100
AcDbEntity
  8
0
370
    -3
  6
Continuous
100
AcDbLine
 10
-643.128921
 20
28.757143
 30
0.0
 11
-643.615724
 21
29.243947
 31
0.0
  0
LINE
  5
221
100
AcDbEntity
  8
0
370
    -3
  6
Continuous
100
AcDbLine
 10
-636.482117
 20
35.403947
 30
0.0
 11
-636.968921
 21
35.89075
 31
0.0
  0
LINE
  5
222
100
AcDbEntity
  8
0
370
    -3
  6
Continuous
100
AcDbLine
 10
-643.44206
 20
29.00969
 30
0.0
 11
-636.76496
 21
35.686789
 31
0.0
  0
LINE
  5
223
100
AcDbEntity
  8
0
370
    -3
  6
Continuous
100
AcDbLine
 10
-643.128921
 20
28.757143
 30
0.0
 11
-636.482117
 21
35.403947
 31
0.0
  0
POINT
  5
224
100
AcDbEntity
  8
0
370
    -3
  6
Continuous
100
AcDbPoint
 10
-639.805519
 20
32.080545
 30
0.0
  0
ARC
  5
225
100
AcDbEntity
  8
0
370
    -3
  6
Continuous
100
AcDbCircle
 10
-637.542778
 20
29.817803
 30
0.0
 40
6.099999
100
AcDbArc
 50
84.601928
 51
185.398089
  0
LINE
  5
226
100
AcDbEntity
  8
0
370
    -3
  6
Continuous
100
AcDbLine
 10
-536.63864
 20
28.757143
 30
0.0
 11
-536.151837
 21
29.243947
 31
0.0
  0
LINE
  5
227
100
AcDbEntity
  8
0
370
    -3
  6
Continuous
100
AcDbLine
 10
-543.285443
 20
35.403947
 30
0.0
 11
-542.79864
 21
35.89075
 31
0.0
  0
LINE
  5
228
100
AcDbEntity
  8
0
370
    -3
  6
Continuous
100
AcDbLine
 10
-536.325501
 20
29.00969
 30
0.0
 11
-543.002601
 21
35.686789
 31
0.0
  0
LINE
  5
229
100
AcDbEntity
  8
0
370
    -3
  6
Continuous
100
AcDbLine
 10
-536.63864
 20
28.757143
 30
0.0
 11
-543.285443
 21
35.403947
 31
0.0
  0
POINT
  5
22A
100
AcDbEntity
  8
0
370
    -3
  6
Continuous
100
AcDbPoint
 10
-539.962042
 20
32.080545
 30
0.0
  0
ARC
  5
22B
100
AcDbEntity
  8
0
370
    -3
  6
Continuous
100
AcDbCircle
 10
-542.224783
 20
29.817803
 30
0.0
 40
6.099999
100
AcDbArc
 50
354.601911
 51
95.398072
  0
LINE
  5
22C
100
AcDbEntity
  8
0
370
    -3
  6
Continuous
100
AcDbLine
 10
-536.63864
 20
-64.439531
 30
0.0
 11
-536.151837
 21
-64.926334
 31
0.0
  0
LINE
  5
22D
100
AcDbEntity
  8
0
370
    -3
  6
Continuous
100
AcDbLine
 10
-543.285443
 20
-71.086334
 30
0.0
 11
-542.79864
 21
-71.573138
 31
0.0
  0
LINE
  5
22E
100
AcDbEntity
  8
0
370
    -3
  6
Continuous
100
AcDbLine
 10
-536.63864
 20
-64.439531
 30
0.0
 11
-543.285443
 21
-71.086334
 31
0.0
  0
POINT
  5
22F
100
AcDbEntity
  8
0
370
    -3
  6
Continuous
100
AcDbPoint
 10
-539.962042
 20
-67.762933
 30
0.0
  0
ARC
  5
230
100
AcDbEntity
  8
0
370
    -3
  6
Continuous
100
AcDbCircle
 10
-542.224783
 20
-65.500191
 30
0.0
 40
6.099999
100
AcDbArc
 50
264.601928
 51
5.398089
  0
LINE
  5
231
100
AcDbEntity
  8
0
370
    -3
  6
Continuous
100
AcDbLine
 10
-643.128921
 20
-64.439531
 30
0.0
 11
-643.615724
 21
-64.926334
 31
0.0
  0
LINE
  5
232
100
AcDbEntity
  8
0
370
    -3
  6
Continuous
100
AcDbLine
 10
-636.482117
 20
-71.086334
 30
0.0
 11
-636.968921
 21
-71.573138
 31
0.0
  0
LINE
  5
233
100
AcDbEntity
  8
0
370
    -3
  6
Continuous
100
AcDbLine
 10
-643.128921
 20
-64.439531
 30
0.0
 11
-636.482117
 21
-71.086334
 31
0.0
  0
ARC
  5
234
100
AcDbEntity
  8
0
370
    -3
  6
Continuous
100
AcDbCircle
 10
-637.542778
 20
-65.500191
 30
0.0
 40
6.099999
100
AcDbArc
 50
174.601911
 51
275.398072
  0
ARC
  5
235
100
AcDbEntity
  8
0
370
    -3
  6
Continuous
100
AcDbCircle
 10
-589.88378
 20
-358.441194
 30
0.0
 40
400.6
100
AcDbArc
 50
85.337794
 51
90.0
  0
LINE
  5
236
100
AcDbEntity
  8
0
370
    -3
  6
Continuous
100
AcDbLine
 10
-537.251019
 20
-65.05191
 30
0.0
 11
-541.301444
 21
-69.102335
 31
0.0
  0
ARC
  5
237
100
AcDbEntity
  8
0
370
    -3
  6
Continuous
100
AcDbCircle
 10
-254.28378
 20
-17.841194
 30
0.0
 40
400.6
100
AcDbArc
 50
180.0
 51
182.946011
  0
ARC
  5
238
100
AcDbEntity
  8
0
370
    -3
  6
Continuous
100
AcDbCircle
 10
-620.364183
 20
-51.000401
 30
0.0
 40
25.6
100
AcDbArc
 50
225.0
 51
265.337794
  0
ARC
  5
239
100
AcDbEntity
  8
0
370
    -3
  6
Continuous
100
AcDbCircle
 10
-589.88378
 20
322.758806
 30
0.0
 40
400.6
100
AcDbArc
 50
265.337794
 51
270.0
  0
ARC
  5
23A
100
AcDbEntity
  8
0
370
    -3
  6
Continuous
100
AcDbCircle
 10
-613.808007
 20
-36.343374
 30
0.0
 40
40.6
100
AcDbArc
 50
182.946011
 51
225.0
  0
ARC
  5
23B
100
AcDbEntity
  8
0
370
    -3
  6
Continuous
100
AcDbCircle
 10
-613.808007
 20
0.660987
 30
0.0
 40
40.6
100
AcDbArc
 50
135.0
 51
177.053989
  0
ARC
  5
23C
100
AcDbEntity
  8
0
370
    -3
  6
Continuous
100
AcDbCircle
 10
-254.28378
 20
-17.841194
 30
0.0
 40
400.6
100
AcDbArc
 50
177.053989
 51
180.0
  0
ARC
  5
23D
100
AcDbEntity
  8
0
370
    -3
  6
Continuous
100
AcDbCircle
 10
-589.88378
 20
322.758806
 30
0.0
 40
400.6
100
AcDbArc
 50
270.0
 51
274.662206
  0
ARC
  5
23E
100
AcDbEntity
  8
0
370
    -3
  6
Continuous
100
AcDbCircle
 10
-589.88378
 20
-358.441194
 30
0.0
 40
400.6
100
AcDbArc
 50
90.0
 51
94.662206
  0
ARC
  5
23F
100
AcDbEntity
  8
0
370
    -3
  6
Continuous
100
AcDbCircle
 10
-620.364183
 20
15.318013
 30
0.0
 40
25.6
100
AcDbArc
 50
94.662206
 51
135.0
  0
LINE
  5
240
100
AcDbEntity
  8
0
370
    -3
  6
Continuous
100
AcDbLine
 10
-642.516542
 20
29.369522
 30
0.0
 11
-638.466117
 21
33.419947
 31
0.0
  0
ARC
  5
241
100
AcDbEntity
  8
0
370
    -3
  6
Continuous
100
AcDbCircle
 10
-565.959554
 20
0.660987
 30
0.0
 40
40.6
100
AcDbArc
 50
2.946011
 51
45.0
  0
LINE
  5
242
100
AcDbEntity
  8
0
370
    -3
  6
Continuous
100
AcDbLine
 10
-537.251019
 20
29.369522
 30
0.0
 11
-541.301444
 21
33.419947
 31
0.0
  0
LINE
  5
243
100
AcDbEntity
  8
0
370
    -3
  6
Continuous
100
AcDbLine
 10
-587.38378
 20
23.465585
 30
0.0
 11
-587.38378
 21
20.45045
 31
0.0
  0
LINE
  5
244
100
AcDbEntity
  8
0
370
    -3
  6
Continuous
100
AcDbLine
 10
-557.972244
 20
3.469692
 30
0.0
 11
-555.36106
 21
4.977259
 31
0.0
  0
LINE
  5
245
100
AcDbEntity
  8
0
370
    -3
  6
Continuous
100
AcDbLine
 10
-587.38378
 20
13.907822
 30
0.0
 11
-587.38378
 21
10.881619
 31
0.0
  0
ARC
  5
246
100
AcDbEntity
  8
0
370
    -3
  6
Continuous
100
AcDbCircle
 10
-585.88378
 20
13.907822
 30
0.0
 40
1.5
100
AcDbArc
 50
82.819244
 51
180.0
  0
ARC
  5
247
100
AcDbEntity
  8
0
370
    -3
  6
Continuous
100
AcDbCircle
 10
-585.88378
 20
20.45045
 30
0.0
 40
1.5
100
AcDbArc
 50
180.0
 51
264.03643
  0
ARC
  5
248
100
AcDbEntity
  8
0
370
    -3
  6
Continuous
100
AcDbCircle
 10
-585.88378
 20
23.465585
 30
0.0
 40
1.5
100
AcDbArc
 50
84.468928
 51
180.0
  0
ARC
  5
249
100
AcDbEntity
  8
0
370
    -3
  6
Continuous
100
AcDbCircle
 10
-556.11106
 20
6.276297
 30
0.0
 40
1.5
100
AcDbArc
 50
300.0
 51
35.531072
  0
ARC
  5
24A
100
AcDbEntity
  8
0
370
    -3
  6
Continuous
100
AcDbCircle
 10
-589.88378
 20
-17.841194
 30
0.0
 40
43.0
100
AcDbArc
 50
35.531072
 51
84.468928
  0
ARC
  5
24B
100
AcDbEntity
  8
0
370
    -3
  6
Continuous
100
AcDbCircle
 10
-552.11106
 20
-0.651906
 30
0.0
 40
1.5
100
AcDbArc
 50
24.468928
 51
120.0
  0
LINE
  5
24C
100
AcDbEntity
  8
0
370
    -3
  6
Continuous
100
AcDbLine
 10
-555.472244
 20
-0.860435
 30
0.0
 11
-552.86106
 21
0.647132
 31
0.0
  0
ARC
  5
24D
100
AcDbEntity
  8
0
370
    -3
  6
Continuous
100
AcDbCircle
 10
-554.722244
 20
-2.159474
 30
0.0
 40
1.5
100
AcDbArc
 50
120.0
 51
204.03643
  0
ARC
  5
24E
100
AcDbEntity
  8
0
370
    -3
  6
Continuous
100
AcDbCircle
 10
-589.88378
 20
-17.841194
 30
0.0
 40
37.0
100
AcDbArc
 50
335.96357
 51
24.03643
  0
ARC
  5
24F
100
AcDbEntity
  8
0
370
    -3
  6
Continuous
100
AcDbCircle
 10
-589.88378
 20
-17.841194
 30
0.0
 40
43.0
100
AcDbArc
 50
335.531072
 51
24.468928
  0
ARC
  5
250
100
AcDbEntity
  8
0
370
    -3
  6
Continuous
100
AcDbCircle
 10
-552.11106
 20
-35.030482
 30
0.0
 40
1.5
100
AcDbArc
 50
240.0
 51
335.531072
  0
LINE
  5
251
100
AcDbEntity
  8
0
370
    -3
  6
Continuous
100
AcDbLine
 10
-552.86106
 20
-36.32952
 30
0.0
 11
-555.472244
 21
-34.821952
 31
0.0
  0
ARC
  5
252
100
AcDbEntity
  8
0
370
    -3
  6
Continuous
100
AcDbCircle
 10
-554.722244
 20
-33.522914
 30
0.0
 40
1.5
100
AcDbArc
 50
155.96357
 51
240.0
  0
ARC
  5
253
100
AcDbEntity
  8
0
370
    -3
  6
Continuous
100
AcDbCircle
 10
-556.11106
 20
-41.958685
 30
0.0
 40
1.5
100
AcDbArc
 50
324.468928
 51
60.0
  0
LINE
  5
254
100
AcDbEntity
  8
0
370
    -3
  6
Continuous
100
AcDbLine
 10
-555.36106
 20
-40.659647
 30
0.0
 11
-557.972244
 21
-39.152079
 31
0.0
  0
ARC
  5
255
100
AcDbEntity
  8
0
370
    -3
  6
Continuous
100
AcDbCircle
 10
-593.88378
 20
23.465585
 30
0.0
 40
1.5
100
AcDbArc
 50
0.0
 51
95.531072
  0
LINE
  5
256
100
AcDbEntity
  8
0
370
    -3
  6
Continuous
100
AcDbLine
 10
-592.38378
 20
23.465585
 30
0.0
 11
-592.38378
 21
20.45045
 31
0.0
  0
ARC
  5
257
100
AcDbEntity
  8
0
370
    -3
  6
Continuous
100
AcDbCircle
 10
-593.88378
 20
20.45045
 30
0.0
 40
1.5
100
AcDbArc
 50
275.96357
 51
0.0
  0
LINE
  5
258
100
AcDbEntity
  8
0
370
    -3
  6
Continuous
100
AcDbLine
 10
-592.38378
 20
13.907822
 30
0.0
 11
-592.38378
 21
10.881619
 31
0.0
  0
ARC
  5
259
100
AcDbEntity
  8
0
370
    -3
  6
Continuous
100
AcDbCircle
 10
-593.88378
 20
13.907822
 30
0.0
 40
1.5
100
AcDbArc
 50
0.0
 51
97.180756
  0
ARC
  5
25A
100
AcDbEntity
  8
0
370
    -3
  6
Continuous
100
AcDbCircle
 10
-559.403377
 20
-51.000401
 30
0.0
 40
14.6
100
AcDbArc
 50
274.662206
 51
315.0
  0
ARC
  5
25B
100
AcDbEntity
  8
0
370
    -3
  6
Continuous
100
AcDbCircle
 10
-565.959554
 20
-36.343374
 30
0.0
 40
29.6
100
AcDbArc
 50
315.0
 51
357.053989
  0
LINE
  5
25C
100
AcDbEntity
  8
0
370
    -3
  6
Continuous
100
AcDbLine
 10
-545.029193
 20
-57.273735
 30
0.0
 11
-549.079618
 21
-61.32416
 31
0.0
  0
ARC
  5
25D
100
AcDbEntity
  8
0
370
    -3
  6
Continuous
100
AcDbCircle
 10
-925.48378
 20
-17.841194
 30
0.0
 40
389.6
100
AcDbArc
 50
357.053989
 51
0.0
  0
ARC
  5
25E
100
AcDbEntity
  8
0
370
    -3
  6
Continuous
100
AcDbCircle
 10
-589.88378
 20
-358.441194
 30
0.0
 40
389.6
100
AcDbArc
 50
85.337794
 51
90.0
  0
ARC
  5
25F
100
AcDbEntity
  8
0
370
    -3
  6
Continuous
100
AcDbCircle
 10
-559.403377
 20
15.318013
 30
0.0
 40
14.6
100
AcDbArc
 50
45.0
 51
85.337794
  0
LINE
  5
260
100
AcDbEntity
  8
0
370
    -3
  6
Continuous
100
AcDbLine
 10
-545.029193
 20
21.591347
 30
0.0
 11
-549.079618
 21
25.641772
 31
0.0
  0
ARC
  5
261
100
AcDbEntity
  8
0
370
    -3
  6
Continuous
100
AcDbCircle
 10
-565.959554
 20
0.660987
 30
0.0
 40
29.6
100
AcDbArc
 50
2.946011
 51
45.0
  0
ARC
  5
262
100
AcDbEntity
  8
0
370
    -3
  6
Continuous
100
AcDbCircle
 10
-925.48378
 20
-17.841194
 30
0.0
 40
389.6
100
AcDbArc
 50
0.0
 51
2.946011
  0
ARC
  5
263
100
AcDbEntity
  8
0
370
    -3
  6
Continuous
100
AcDbCircle
 10
-589.88378
 20
-358.441194
 30
0.0
 40
389.6
100
AcDbArc
 50
90.0
 51
94.662206
  0
ARC
  5
264
100
AcDbEntity
  8
0
370
    -3
  6
Continuous
100
AcDbCircle
 10
-620.364183
 20
15.318013
 30
0.0
 40
14.6
100
AcDbArc
 50
94.662206
 51
135.0
  0
LINE
  5
265
100
AcDbEntity
  8
0
370
    -3
  6
Continuous
100
AcDbLine
 10
-634.738367
 20
21.591347
 30
0.0
 11
-630.687942
 21
25.641772
 31
0.0
  0
ARC
  5
266
100
AcDbEntity
  8
0
370
    -3
  6
Continuous
100
AcDbCircle
 10
-589.88378
 20
-17.841194
 30
0.0
 40
24.0
100
AcDbArc
 50
100.240348
 51
139.759652
  0
ARC
  5
267
100
AcDbEntity
  8
0
370
    -3
  6
Continuous
100
AcDbCircle
 10
-607.05896
 20
-3.306297
 30
0.0
 40
1.5
100
AcDbArc
 50
139.759652
 51
240.0
  0
LINE
  5
268
100
AcDbEntity
  8
0
370
    -3
  6
Continuous
100
AcDbLine
 10
-605.162165
 20
-6.133463
 30
0.0
 11
-607.80896
 21
-4.605335
 31
0.0
  0
ARC
  5
269
100
AcDbEntity
  8
0
370
    -3
  6
Continuous
100
AcDbCircle
 10
-604.412165
 20
-4.834425
 30
0.0
 40
1.5
100
AcDbArc
 50
240.0
 51
318.162996
  0
ARC
  5
26A
100
AcDbEntity
  8
0
370
    -3
  6
Continuous
100
AcDbCircle
 10
-589.88378
 20
-17.841194
 30
0.0
 40
18.0
100
AcDbArc
 50
101.837004
 51
138.162996
  0
ARC
  5
26B
100
AcDbEntity
  8
0
370
    -3
  6
Continuous
100
AcDbCircle
 10
-593.88378
 20
1.244141
 30
0.0
 40
1.5
100
AcDbArc
 50
281.837004
 51
0.0
  0
LINE
  5
26C
100
AcDbEntity
  8
0
370
    -3
  6
Continuous
100
AcDbLine
 10
-592.38378
 20
4.300396
 30
0.0
 11
-592.38378
 21
1.244141
 31
0.0
  0
ARC
  5
26D
100
AcDbEntity
  8
0
370
    -3
  6
Continuous
100
AcDbCircle
 10
-593.88378
 20
4.300396
 30
0.0
 40
1.5
100
AcDbArc
 50
0.0
 51
100.240348
  0
ARC
  5
26E
100
AcDbEntity
  8
0
370
    -3
  6
Continuous
100
AcDbCircle
 10
-589.88378
 20
-17.841194
 30
0.0
 40
14.5
100
AcDbArc
 50
107.920213
 51
132.079787
  0
ARC
  5
26F
100
AcDbEntity
  8
0
370
    -3
  6
Continuous
100
AcDbCircle
 10
-598.595923
 20
-8.192434
 30
0.0
 40
1.5
100
AcDbArc
 50
132.079787
 51
240.0
  0
LINE
  5
270
100
AcDbEntity
  8
0
370
    -3
  6
Continuous
100
AcDbLine
 10
-596.571034
 20
-11.093555
 30
0.0
 11
-599.345923
 21
-9.491472
 31
0.0
  0
ARC
  5
271
100
AcDbEntity
  8
0
370
    -3
  6
Continuous
100
AcDbCircle
 10
-595.821034
 20
-9.794517
 30
0.0
 40
1.5
100
AcDbArc
 50
240.0
 51
306.421822
  0
ARC
  5
272
100
AcDbEntity
  8
0
370
    -3
  6
Continuous
100
AcDbCircle
 10
-589.88378
 20
-17.841194
 30
0.0
 40
8.5
100
AcDbArc
 50
113.578178
 51
126.421822
  0
ARC
  5
273
100
AcDbEntity
  8
0
370
    -3
  6
Continuous
100
AcDbCircle
 10
-593.88378
 20
-8.676043
 30
0.0
 40
1.5
100
AcDbArc
 50
293.578178
 51
0.0
  0
LINE
  5
274
100
AcDbEntity
  8
0
370
    -3
  6
Continuous
100
AcDbLine
 10
-592.38378
 20
-5.471877
 30
0.0
 11
-592.38378
 21
-8.676043
 31
0.0
  0
ARC
  5
275
100
AcDbEntity
  8
0
370
    -3
  6
Continuous
100
AcDbCircle
 10
-593.88378
 20
-5.471877
 30
0.0
 40
1.5
100
AcDbArc
 50
0.0
 51
107.920213
  0
ARC
  5
276
100
AcDbEntity
  8
0
370
    -3
  6
Continuous
100
AcDbCircle
 10
-589.88378
 20
-17.841194
 30
0.0
 40
24.0
100
AcDbArc
 50
280.240348
 51
319.759652
  0
ARC
  5
277
100
AcDbEntity
  8
0
370
    -3
  6
Continuous
100
AcDbCircle
 10
-585.88378
 20
-39.982784
 30
0.0
 40
1.5
100
AcDbArc
 50
180.0
 51
280.240348
  0
LINE
  5
278
100
AcDbEntity
  8
0
370
    -3
  6
Continuous
100
AcDbLine
 10
-587.38378
 20
-36.926529
 30
0.0
 11
-587.38378
 21
-39.982784
 31
0.0
  0
ARC
  5
279
100
AcDbEntity
  8
0
370
    -3
  6
Continuous
100
AcDbCircle
 10
-585.88378
 20
-36.926529
 30
0.0
 40
1.5
100
AcDbArc
 50
101.837004
 51
180.0
  0
ARC
  5
27A
100
AcDbEntity
  8
0
370
    -3
  6
Continuous
100
AcDbCircle
 10
-589.88378
 20
-17.841194
 30
0.0
 40
18.0
100
AcDbArc
 50
281.837004
 51
318.162996
  0
ARC
  5
27B
100
AcDbEntity
  8
0
370
    -3
  6
Continuous
100
AcDbCircle
 10
-575.355396
 20
-30.847963
 30
0.0
 40
1.5
100
AcDbArc
 50
60.0
 51
138.162996
  0
LINE
  5
27C
100
AcDbEntity
  8
0
370
    -3
  6
Continuous
100
AcDbLine
 10
-571.958601
 20
-31.077052
 30
0.0
 11
-574.605396
 21
-29.548925
 31
0.0
  0
ARC
  5
27D
100
AcDbEntity
  8
0
370
    -3
  6
Continuous
100
AcDbCircle
 10
-572.708601
 20
-32.37609
 30
0.0
 40
1.5
100
AcDbArc
 50
319.759652
 51
60.0
  0
ARC
  5
27E
100
AcDbEntity
  8
0
370
    -3
  6
Continuous
100
AcDbCircle
 10
-589.88378
 20
-17.841194
 30
0.0
 40
14.5
100
AcDbArc
 50
287.920213
 51
312.079787
  0
ARC
  5
27F
100
AcDbEntity
  8
0
370
    -3
  6
Continuous
100
AcDbCircle
 10
-585.88378
 20
-30.210511
 30
0.0
 40
1.5
100
AcDbArc
 50
180.0
 51
287.920213
  0
LINE
  5
280
100
AcDbEntity
  8
0
370
    -3
  6
Continuous
100
AcDbLine
 10
-587.38378
 20
-27.006345
 30
0.0
 11
-587.38378
 21
-30.210511
 31
0.0
  0
ARC
  5
281
100
AcDbEntity
  8
0
370
    -3
  6
Continuous
100
AcDbCircle
 10
-585.88378
 20
-27.006345
 30
0.0
 40
1.5
100
AcDbArc
 50
113.578178
 51
180.0
  0
ARC
  5
282
100
AcDbEntity
  8
0
370
    -3
  6
Continuous
100
AcDbCircle
 10
-589.88378
 20
-17.841194
 30
0.0
 40
8.5
100
AcDbArc
 50
293.578178
 51
306.421822
  0
ARC
  5
283
100
AcDbEntity
  8
0
370
    -3
  6
Continuous
100
AcDbCircle
 10
-583.946526
 20
-25.887871
 30
0.0
 40
1.5
100
AcDbArc
 50
60.0
 51
126.421822
  0
LINE
  5
284
100
AcDbEntity
  8
0
370
    -3
  6
Continuous
100
AcDbLine
 10
-580.421638
 20
-26.190916
 30
0.0
 11
-583.196526
 21
-24.588833
 31
0.0
  0
ARC
  5
285
100
AcDbEntity
  8
0
370
    -3
  6
Continuous
100
AcDbCircle
 10
-581.171638
 20
-27.489954
 30
0.0
 40
1.5
100
AcDbArc
 50
312.079787
 51
60.0
  0
ARC
  5
286
100
AcDbEntity
  8
0
370
    -3
  6
Continuous
100
AcDbCircle
 10
-589.88378
 20
-17.841194
 30
0.0
 40
24.0
100
AcDbArc
 50
220.240348
 51
259.759652
  0
ARC
  5
287
100
AcDbEntity
  8
0
370
    -3
  6
Continuous
100
AcDbCircle
 10
-593.88378
 20
-39.982784
 30
0.0
 40
1.5
100
AcDbArc
 50
259.759652
 51
0.0
  0
LINE
  5
288
100
AcDbEntity
  8
0
370
    -3
  6
Continuous
100
AcDbLine
 10
-592.38378
 20
-36.926529
 30
0.0
 11
-592.38378
 21
-39.982784
 31
0.0
  0
ARC
  5
289
100
AcDbEntity
  8
0
370
    -3
  6
Continuous
100
AcDbCircle
 10
-593.88378
 20
-36.926529
 30
0.0
 40
1.5
100
AcDbArc
 50
0.0
 51
78.162996
  0
ARC
  5
28A
100
AcDbEntity
  8
0
370
    -3
  6
Continuous
100
AcDbCircle
 10
-589.88378
 20
-17.841194
 30
0.0
 40
18.0
100
AcDbArc
 50
221.837004
 51
258.162996
  0
ARC
  5
28B
100
AcDbEntity
  8
0
370
    -3
  6
Continuous
100
AcDbCircle
 10
-604.412165
 20
-30.847963
 30
0.0
 40
1.5
100
AcDbArc
 50
41.837004
 51
120.0
  0
LINE
  5
28C
100
AcDbEntity
  8
0
370
    -3
  6
Continuous
100
AcDbLine
 10
-607.80896
 20
-31.077052
 30
0.0
 11
-605.162165
 21
-29.548925
 31
0.0
  0
ARC
  5
28D
100
AcDbEntity
  8
0
370
    -3
  6
Continuous
100
AcDbCircle
 10
-607.05896
 20
-32.37609
 30
0.0
 40
1.5
100
AcDbArc
 50
120.0
 51
220.240348
  0
ARC
  5
28E
100
AcDbEntity
  8
0
370
    -3
  6
Continuous
100
AcDbCircle
 10
-589.88378
 20
-17.841194
 30
0.0
 40
14.5
100
AcDbArc
 50
227.920213
 51
252.079787
  0
ARC
  5
28F
100
AcDbEntity
  8
0
370
    -3
  6
Continuous
100
AcDbCircle
 10
-593.88378
 20
-30.210511
 30
0.0
 40
1.5
100
AcDbArc
 50
252.079787
 51
0.0
  0
LINE
  5
290
100
AcDbEntity
  8
0
370
    -3
  6
Continuous
100
AcDbLine
 10
-592.38378
 20
-27.006345
 30
0.0
 11
-592.38378
 21
-30.210511
 31
0.0
  0
ARC
  5
291
100
AcDbEntity
  8
0
370
    -3
  6
Continuous
100
AcDbCircle
 10
-593.88378
 20
-27.006345
 30
0.0
 40
1.5
100
AcDbArc
 50
0.0
 51
66.421822
  0
ARC
  5
292
100
AcDbEntity
  8
0
370
    -3
  6
Continuous
100
AcDbCircle
 10
-589.88378
 20
-17.841194
 30
0.0
 40
8.5
100
AcDbArc
 50
233.578178
 51
246.421822
  0
ARC
  5
293
100
AcDbEntity
  8
0
370
    -3
  6
Continuous
100
AcDbCircle
 10
-595.821034
 20
-25.887871
 30
0.0
 40
1.5
100
AcDbArc
 50
53.578178
 51
120.0
  0
LINE
  5
294
100
AcDbEntity
  8
0
370
    -3
  6
Continuous
100
AcDbLine
 10
-599.345923
 20
-26.190916
 30
0.0
 11
-596.571034
 21
-24.588833
 31
0.0
  0
ARC
  5
295
100
AcDbEntity
  8
0
370
    -3
  6
Continuous
100
AcDbCircle
 10
-598.595923
 20
-27.489954
 30
0.0
 40
1.5
100
AcDbArc
 50
120.0
 51
227.920213
  0
ARC
  5
296
100
AcDbEntity
  8
0
370
    -3
  6
Continuous
100
AcDbCircle
 10
-589.88378
 20
-17.841194
 30
0.0
 40
24.0
100
AcDbArc
 50
160.240348
 51
199.759652
  0
ARC
  5
297
100
AcDbEntity
  8
0
370
    -3
  6
Continuous
100
AcDbCircle
 10
-611.05896
 20
-10.234501
 30
0.0
 40
1.5
100
AcDbArc
 50
60.0
 51
160.240348
  0
LINE
  5
298
100
AcDbEntity
  8
0
370
    -3
  6
Continuous
100
AcDbLine
 10
-607.662165
 20
-10.46359
 30
0.0
 11
-610.30896
 21
-8.935462
 31
0.0
  0
ARC
  5
299
100
AcDbEntity
  8
0
370
    -3
  6
Continuous
100
AcDbCircle
 10
-608.412165
 20
-11.762628
 30
0.0
 40
1.5
100
AcDbArc
 50
341.837004
 51
60.0
  0
ARC
  5
29A
100
AcDbEntity
  8
0
370
    -3
  6
Continuous
100
AcDbCircle
 10
-589.88378
 20
-17.841194
 30
0.0
 40
18.0
100
AcDbArc
 50
161.837004
 51
198.162996
  0
ARC
  5
29B
100
AcDbEntity
  8
0
370
    -3
  6
Continuous
100
AcDbCircle
 10
-608.412165
 20
-23.91976
 30
0.0
 40
1.5
100
AcDbArc
 50
300.0
 51
18.162996
  0
LINE
  5
29C
100
AcDbEntity
  8
0
370
    -3
  6
Continuous
100
AcDbLine
 10
-610.30896
 20
-26.746925
 30
0.0
 11
-607.662165
 21
-25.218798
 31
0.0
  0
ARC
  5
29D
100
AcDbEntity
  8
0
370
    -3
  6
Continuous
100
AcDbCircle
 10
-611.05896
 20
-25.447887
 30
0.0
 40
1.5
100
AcDbArc
 50
199.759652
 51
300.0
  0
ARC
  5
29E
100
AcDbEntity
  8
0
370
    -3
  6
Continuous
100
AcDbCircle
 10
-589.88378
 20
-17.841194
 30
0.0
 40
14.5
100
AcDbArc
 50
167.920213
 51
192.079787
  0
ARC
  5
29F
100
AcDbEntity
  8
0
370
    -3
  6
Continuous
100
AcDbCircle
 10
-602.595923
 20
-15.120637
 30
0.0
 40
1.5
100
AcDbArc
 50
60.0
 51
167.920213
  0
LINE
  5
2A0
100
AcDbEntity
  8
0
370
    -3
  6
Continuous
100
AcDbLine
 10
-599.071034
 20
-15.423682
 30
0.0
 11
-601.845923
 21
-13.821599
 31
0.0
  0
ARC
  5
2A1
100
AcDbEntity
  8
0
370
    -3
  6
Continuous
100
AcDbCircle
 10
-599.821034
 20
-16.72272
 30
0.0
 40
1.5
100
AcDbArc
 50
353.578178
 51
60.0
  0
ARC
  5
2A2
100
AcDbEntity
  8
0
370
    -3
  6
Continuous
100
AcDbCircle
 10
-589.88378
 20
-17.841194
 30
0.0
 40
8.5
100
AcDbArc
 50
173.578178
 51
186.421822
  0
ARC
  5
2A3
100
AcDbEntity
  8
0
370
    -3
  6
Continuous
100
AcDbCircle
 10
-599.821034
 20
-18.959668
 30
0.0
 40
1.5
100
AcDbArc
 50
300.0
 51
6.421822
  0
LINE
  5
2A4
100
AcDbEntity
  8
0
370
    -3
  6
Continuous
100
AcDbLine
 10
-601.845923
 20
-21.860789
 30
0.0
 11
-599.071034
 21
-20.258706
 31
0.0
  0
ARC
  5
2A5
100
AcDbEntity
  8
0
370
    -3
  6
Continuous
100
AcDbCircle
 10
-602.595923
 20
-20.561751
 30
0.0
 40
1.5
100
AcDbArc
 50
192.079787
 51
300.0
  0
ARC
  5
2A6
100
AcDbEntity
  8
0
370
    -3
  6
Continuous
100
AcDbCircle
 10
-589.88378
 20
-17.841194
 30
0.0
 40
24.0
100
AcDbArc
 50
340.240348
 51
19.759652
  0
ARC
  5
2A7
100
AcDbEntity
  8
0
370
    -3
  6
Continuous
100
AcDbCircle
 10
-568.708601
 20
-10.234501
 30
0.0
 40
1.5
100
AcDbArc
 50
19.759652
 51
120.0
  0
LINE
  5
2A8
100
AcDbEntity
  8
0
370
    -3
  6
Continuous
100
AcDbLine
 10
-572.105396
 20
-10.46359
 30
0.0
 11
-569.458601
 21
-8.935462
 31
0.0
  0
ARC
  5
2A9
100
AcDbEntity
  8
0
370
    -3
  6
Continuous
100
AcDbCircle
 10
-571.355396
 20
-11.762628
 30
0.0
 40
1.5
100
AcDbArc
 50
120.0
 51
198.162996
  0
ARC
  5
2AA
100
AcDbEntity
  8
0
370
    -3
  6
Continuous
100
AcDbCircle
 10
-589.88378
 20
-17.841194
 30
0.0
 40
18.0
100
AcDbArc
 50
341.837004
 51
18.162996
  0
ARC
  5
2AB
100
AcDbEntity
  8
0
370
    -3
  6
Continuous
100
AcDbCircle
 10
-571.355396
 20
-23.91976
 30
0.0
 40
1.5
100
AcDbArc
 50
161.837004
 51
240.0
  0
LINE
  5
2AC
100
AcDbEntity
  8
0
370
    -3
  6
Continuous
100
AcDbLine
 10
-569.458601
 20
-26.746925
 30
0.0
 11
-572.105396
 21
-25.218798
 31
0.0
  0
ARC
  5
2AD
100
AcDbEntity
  8
0
370
    -3
  6
Continuous
100
AcDbCircle
 10
-568.708601
 20
-25.447887
 30
0.0
 40
1.5
100
AcDbArc
 50
240.0
 51
340.240348
  0
ARC
  5
2AE
100
AcDbEntity
  8
0
370
    -3
  6
Continuous
100
AcDbCircle
 10
-589.88378
 20
-17.841194
 30
0.0
 40
14.5
100
AcDbArc
 50
347.920213
 51
12.079787
  0
ARC
  5
2AF
100
AcDbEntity
  8
0
370
    -3
  6
Continuous
100
AcDbCircle
 10
-577.171638
 20
-15.120637
 30
0.0
 40
1.5
100
AcDbArc
 50
12.079787
 51
120.0
  0
LINE
  5
2B0
100
AcDbEntity
  8
0
370
    -3
  6
Continuous
100
AcDbLine
 10
-580.696526
 20
-15.423682
 30
0.0
 11
-577.921638
 21
-13.821599
 31
0.0
  0
ARC
  5
2B1
100
AcDbEntity
  8
0
370
    -3
  6
Continuous
100
AcDbCircle
 10
-579.946526
 20
-16.72272
 30
0.0
 40
1.5
100
AcDbArc
 50
120.0
 51
186.421822
  0
ARC
  5
2B2
100
AcDbEntity
  8
0
370
    -3
  6
Continuous
100
AcDbCircle
 10
-589.88378
 20
-17.841194
 30
0.0
 40
8.5
100
AcDbArc
 50
353.578178
 51
6.421822
  0
ARC
  5
2B3
100
AcDbEntity
  8
0
370
    -3
  6
Continuous
100
AcDbCircle
 10
-579.946526
 20
-18.959668
 30
0.0
 40
1.5
100
AcDbArc
 50
173.578178
 51
240.0
  0
LINE
  5
2B4
100
AcDbEntity
  8
0
370
    -3
  6
Continuous
100
AcDbLine
 10
-577.921638
 20
-21.860789
 30
0.0
 11
-580.696526
 21
-20.258706
 31
0.0
  0
ARC
  5
2B5
100
AcDbEntity
  8
0
370
    -3
  6
Continuous
100
AcDbCircle
 10
-577.171638
 20
-20.561751
 30
0.0
 40
1.5
100
AcDbArc
 50
240.0
 51
347.920213
  0
ARC
  5
2B6
100
AcDbEntity
  8
0
370
    -3
  6
Continuous
100
AcDbCircle
 10
-589.88378
 20
-17.841194
 30
0.0
 40
8.5
100
AcDbArc
 50
53.578178
 51
66.421822
  0
ARC
  5
2B7
100
AcDbEntity
  8
0
370
    -3
  6
Continuous
100
AcDbCircle
 10
-589.88378
 20
-17.841194
 30
0.0
 40
24.0
100
AcDbArc
 50
40.240348
 51
79.759652
  0
LINE
  5
2B8
100
AcDbEntity
  8
0
370
    -3
  6
Continuous
100
AcDbLine
 10
-583.196526
 20
-11.093555
 30
0.0
 11
-580.421638
 21
-9.491472
 31
0.0
  0
LINE
  5
2B9
100
AcDbEntity
  8
0
370
    -3
  6
Continuous
100
AcDbLine
 10
-587.38378
 20
4.300396
 30
0.0
 11
-587.38378
 21
1.244141
 31
0.0
  0
LINE
  5
2BA
100
AcDbEntity
  8
0
370
    -3
  6
Continuous
100
AcDbLine
 10
-587.38378
 20
-5.471877
 30
0.0
 11
-587.38378
 21
-8.676043
 31
0.0
  0
ARC
  5
2BB
100
AcDbEntity
  8
0
370
    -3
  6
Continuous
100
AcDbCircle
 10
-589.88378
 20
-17.841194
 30
0.0
 40
14.5
100
AcDbArc
 50
47.920213
 51
72.079787
  0
ARC
  5
2BC
100
AcDbEntity
  8
0
370
    -3
  6
Continuous
100
AcDbCircle
 10
-589.88378
 20
-17.841194
 30
0.0
 40
18.0
100
AcDbArc
 50
41.837004
 51
78.162996
  0
LINE
  5
2BD
100
AcDbEntity
  8
0
370
    -3
  6
Continuous
100
AcDbLine
 10
-574.605396
 20
-6.133463
 30
0.0
 11
-571.958601
 21
-4.605335
 31
0.0
  0
ARC
  5
2BE
100
AcDbEntity
  8
0
370
    -3
  6
Continuous
100
AcDbCircle
 10
-581.171638
 20
-8.192434
 30
0.0
 40
1.5
100
AcDbArc
 50
300.0
 51
47.920213
  0
ARC
  5
2BF
100
AcDbEntity
  8
0
370
    -3
  6
Continuous
100
AcDbCircle
 10
-585.88378
 20
4.300396
 30
0.0
 40
1.5
100
AcDbArc
 50
79.759652
 51
180.0
  0
ARC
  5
2C0
100
AcDbEntity
  8
0
370
    -3
  6
Continuous
100
AcDbCircle
 10
-575.355396
 20
-4.834425
 30
0.0
 40
1.5
100
AcDbArc
 50
221.837004
 51
300.0
  0
ARC
  5
2C1
100
AcDbEntity
  8
0
370
    -3
  6
Continuous
100
AcDbCircle
 10
-585.88378
 20
1.244141
 30
0.0
 40
1.5
100
AcDbArc
 50
180.0
 51
258.162996
  0
ARC
  5
2C2
100
AcDbEntity
  8
0
370
    -3
  6
Continuous
100
AcDbCircle
 10
-585.88378
 20
-5.471877
 30
0.0
 40
1.5
100
AcDbArc
 50
72.079787
 51
180.0
  0
ARC
  5
2C3
100
AcDbEntity
  8
0
370
    -3
  6
Continuous
100
AcDbCircle
 10
-572.708601
 20
-3.306297
 30
0.0
 40
1.5
100
AcDbArc
 50
300.0
 51
40.240348
  0
ARC
  5
2C4
100
AcDbEntity
  8
0
370
    -3
  6
Continuous
100
AcDbCircle
 10
-585.88378
 20
-8.676043
 30
0.0
 40
1.5
100
AcDbArc
 50
180.0
 51
246.421822
  0
ARC
  5
2C5
100
AcDbEntity
  8
0
370
    -3
  6
Continuous
100
AcDbCircle
 10
-583.946526
 20
-9.794517
 30
0.0
 40
1.5
100
AcDbArc
 50
233.578178
 51
300.0
  0
CIRCLE
  5
2C6
100
AcDbEntity
  8
0
370
    -3
  6
Continuous
100
AcDbCircle
 10
-589.88378
 20
-17.841194
 30
0.0
 40
5.0
  0
ARC
  5
2C7
100
AcDbEntity
  8
0
370
    -3
  6
Continuous
100
AcDbCircle
 10
-567.009094
 20
-0.015686
 30
0.0
 40
1.5
100
AcDbArc
 50
217.928142
 51
300.0
  0
LINE
  5
2C8
100
AcDbEntity
  8
0
370
    -3
  6
Continuous
100
AcDbLine
 10
-566.259094
 20
-1.314724
 30
0.0
 11
-563.638326
 21
0.198377
 31
0.0
  0
ARC
  5
2C9
100
AcDbEntity
  8
0
370
    -3
  6
Continuous
100
AcDbCircle
 10
-585.88378
 20
10.881619
 30
0.0
 40
1.5
100
AcDbArc
 50
180.0
 51
262.071858
  0
ARC
  5
2CA
100
AcDbEntity
  8
0
370
    -3
  6
Continuous
100
AcDbCircle
 10
-589.88378
 20
-17.841194
 30
0.0
 40
27.5
100
AcDbArc
 50
37.928142
 51
82.071858
  0
ARC
  5
2CB
100
AcDbEntity
  8
0
370
    -3
  6
Continuous
100
AcDbCircle
 10
-564.388326
 20
1.497416
 30
0.0
 40
1.5
100
AcDbArc
 50
300.0
 51
37.180756
  0
ARC
  5
2CC
100
AcDbEntity
  8
0
370
    -3
  6
Continuous
100
AcDbCircle
 10
-558.722244
 20
4.76873
 30
0.0
 40
1.5
100
AcDbArc
 50
215.96357
 51
300.0
  0
ARC
  5
2CD
100
AcDbEntity
  8
0
370
    -3
  6
Continuous
100
AcDbCircle
 10
-589.88378
 20
-17.841194
 30
0.0
 40
37.0
100
AcDbArc
 50
35.96357
 51
84.03643
  0
ARC
  5
2CE
100
AcDbEntity
  8
0
370
    -3
  6
Continuous
100
AcDbCircle
 10
-589.88378
 20
-17.841194
 30
0.0
 40
33.5
100
AcDbArc
 50
37.180756
 51
82.819244
  0
LINE
  5
2CF
100
AcDbEntity
  8
0
370
    -3
  6
Continuous
100
AcDbLine
 10
-563.759094
 20
-5.644851
 30
0.0
 11
-561.138326
 21
-4.13175
 31
0.0
  0
ARC
  5
2D0
100
AcDbEntity
  8
0
370
    -3
  6
Continuous
100
AcDbCircle
 10
-560.388326
 20
-5.430788
 30
0.0
 40
1.5
100
AcDbArc
 50
22.819244
 51
120.0
  0
ARC
  5
2D1
100
AcDbEntity
  8
0
370
    -3
  6
Continuous
100
AcDbCircle
 10
-563.009094
 20
-6.943889
 30
0.0
 40
1.5
100
AcDbArc
 50
120.0
 51
202.071858
  0
ARC
  5
2D2
100
AcDbEntity
  8
0
370
    -3
  6
Continuous
100
AcDbCircle
 10
-589.88378
 20
-17.841194
 30
0.0
 40
27.5
100
AcDbArc
 50
337.928142
 51
22.071858
  0
ARC
  5
2D3
100
AcDbEntity
  8
0
370
    -3
  6
Continuous
100
AcDbCircle
 10
-589.88378
 20
-17.841194
 30
0.0
 40
33.5
100
AcDbArc
 50
337.180756
 51
22.819244
  0
ARC
  5
2D4
100
AcDbEntity
  8
0
370
    -3
  6
Continuous
100
AcDbCircle
 10
-563.009094
 20
-28.738499
 30
0.0
 40
1.5
100
AcDbArc
 50
157.928142
 51
240.0
  0
LINE
  5
2D5
100
AcDbEntity
  8
0
370
    -3
  6
Continuous
100
AcDbLine
 10
-561.138326
 20
-31.550638
 30
0.0
 11
-563.759094
 21
-30.037537
 31
0.0
  0
ARC
  5
2D6
100
AcDbEntity
  8
0
370
    -3
  6
Continuous
100
AcDbCircle
 10
-560.388326
 20
-30.2516
 30
0.0
 40
1.5
100
AcDbArc
 50
240.0
 51
337.180756
  0
ARC
  5
2D7
100
AcDbEntity
  8
0
370
    -3
  6
Continuous
100
AcDbCircle
 10
-585.88378
 20
-59.147973
 30
0.0
 40
1.5
100
AcDbArc
 50
180.0
 51
275.531072
  0
LINE
  5
2D8
100
AcDbEntity
  8
0
370
    -3
  6
Continuous
100
AcDbLine
 10
-587.38378
 20
-56.132838
 30
0.0
 11
-587.38378
 21
-59.147973
 31
0.0
  0
LINE
  5
2D9
100
AcDbEntity
  8
0
370
    -3
  6
Continuous
100
AcDbLine
 10
-587.38378
 20
-46.564007
 30
0.0
 11
-587.38378
 21
-49.59021
 31
0.0
  0
ARC
  5
2DA
100
AcDbEntity
  8
0
370
    -3
  6
Continuous
100
AcDbCircle
 10
-585.88378
 20
-56.132838
 30
0.0
 40
1.5
100
AcDbArc
 50
95.96357
 51
180.0
  0
ARC
  5
2DB
100
AcDbEntity
  8
0
370
    -3
  6
Continuous
100
AcDbCircle
 10
-585.88378
 20
-49.59021
 30
0.0
 40
1.5
100
AcDbArc
 50
180.0
 51
277.180756
  0
ARC
  5
2DC
100
AcDbEntity
  8
0
370
    -3
  6
Continuous
100
AcDbCircle
 10
-585.88378
 20
-46.564007
 30
0.0
 40
1.5
100
AcDbArc
 50
97.928142
 51
180.0
  0
ARC
  5
2DD
100
AcDbEntity
  8
0
370
    -3
  6
Continuous
100
AcDbCircle
 10
-589.88378
 20
-17.841194
 30
0.0
 40
27.5
100
AcDbArc
 50
277.928142
 51
322.071858
  0
ARC
  5
2DE
100
AcDbEntity
  8
0
370
    -3
  6
Continuous
100
AcDbCircle
 10
-589.88378
 20
-17.841194
 30
0.0
 40
37.0
100
AcDbArc
 50
275.96357
 51
324.03643
  0
ARC
  5
2DF
100
AcDbEntity
  8
0
370
    -3
  6
Continuous
100
AcDbCircle
 10
-589.88378
 20
-17.841194
 30
0.0
 40
43.0
100
AcDbArc
 50
275.531072
 51
324.468928
  0
ARC
  5
2E0
100
AcDbEntity
  8
0
370
    -3
  6
Continuous
100
AcDbCircle
 10
-589.88378
 20
-17.841194
 30
0.0
 40
33.5
100
AcDbArc
 50
277.180756
 51
322.819244
  0
ARC
  5
2E1
100
AcDbEntity
  8
0
370
    -3
  6
Continuous
100
AcDbCircle
 10
-567.009094
 20
-35.666702
 30
0.0
 40
1.5
100
AcDbArc
 50
60.0
 51
142.071858
  0
ARC
  5
2E2
100
AcDbEntity
  8
0
370
    -3
  6
Continuous
100
AcDbCircle
 10
-558.722244
 20
-40.451118
 30
0.0
 40
1.5
100
AcDbArc
 50
60.0
 51
144.03643
  0
LINE
  5
2E3
100
AcDbEntity
  8
0
370
    -3
  6
Continuous
100
AcDbLine
 10
-563.638326
 20
-35.880765
 30
0.0
 11
-566.259094
 21
-34.367664
 31
0.0
  0
ARC
  5
2E4
100
AcDbEntity
  8
0
370
    -3
  6
Continuous
100
AcDbCircle
 10
-564.388326
 20
-37.179803
 30
0.0
 40
1.5
100
AcDbArc
 50
322.819244
 51
60.0
  0
ARC
  5
2E5
100
AcDbEntity
  8
0
370
    -3
  6
Continuous
100
AcDbCircle
 10
-593.88378
 20
-59.147973
 30
0.0
 40
1.5
100
AcDbArc
 50
264.468928
 51
0.0
  0
LINE
  5
2E6
100
AcDbEntity
  8
0
370
    -3
  6
Continuous
100
AcDbLine
 10
-592.38378
 20
-56.132838
 30
0.0
 11
-592.38378
 21
-59.147973
 31
0.0
  0
LINE
  5
2E7
100
AcDbEntity
  8
0
370
    -3
  6
Continuous
100
AcDbLine
 10
-592.38378
 20
-46.564007
 30
0.0
 11
-592.38378
 21
-49.59021
 31
0.0
  0
ARC
  5
2E8
100
AcDbEntity
  8
0
370
    -3
  6
Continuous
100
AcDbCircle
 10
-593.88378
 20
-56.132838
 30
0.0
 40
1.5
100
AcDbArc
 50
0.0
 51
84.03643
  0
ARC
  5
2E9
100
AcDbEntity
  8
0
370
    -3
  6
Continuous
100
AcDbCircle
 10
-593.88378
 20
-49.59021
 30
0.0
 40
1.5
100
AcDbArc
 50
262.819244
 51
0.0
  0
ARC
  5
2EA
100
AcDbEntity
  8
0
370
    -3
  6
Continuous
100
AcDbCircle
 10
-593.88378
 20
-46.564007
 30
0.0
 40
1.5
100
AcDbArc
 50
0.0
 51
82.071858
  0
ARC
  5
2EB
100
AcDbEntity
  8
0
370
    -3
  6
Continuous
100
AcDbCircle
 10
-589.88378
 20
-17.841194
 30
0.0
 40
27.5
100
AcDbArc
 50
217.928142
 51
262.071858
  0
ARC
  5
2EC
100
AcDbEntity
  8
0
370
    -3
  6
Continuous
100
AcDbCircle
 10
-589.88378
 20
-17.841194
 30
0.0
 40
37.0
100
AcDbArc
 50
215.96357
 51
264.03643
  0
ARC
  5
2ED
100
AcDbEntity
  8
0
370
    -3
  6
Continuous
100
AcDbCircle
 10
-589.88378
 20
-17.841194
 30
0.0
 40
43.0
100
AcDbArc
 50
215.531072
 51
264.468928
  0
ARC
  5
2EE
100
AcDbEntity
  8
0
370
    -3
  6
Continuous
100
AcDbCircle
 10
-589.88378
 20
-17.841194
 30
0.0
 40
33.5
100
AcDbArc
 50
217.180756
 51
262.819244
  0
ARC
  5
2EF
100
AcDbEntity
  8
0
370
    -3
  6
Continuous
100
AcDbCircle
 10
-612.758466
 20
-35.666702
 30
0.0
 40
1.5
100
AcDbArc
 50
37.928142
 51
120.0
  0
ARC
  5
2F0
100
AcDbEntity
  8
0
370
    -3
  6
Continuous
100
AcDbCircle
 10
-623.6565
 20
-41.958685
 30
0.0
 40
1.5
100
AcDbArc
 50
120.0
 51
215.531072
  0
LINE
  5
2F1
100
AcDbEntity
  8
0
370
    -3
  6
Continuous
100
AcDbLine
 10
-624.4065
 20
-40.659647
 30
0.0
 11
-621.795317
 21
-39.152079
 31
0.0
  0
ARC
  5
2F2
100
AcDbEntity
  8
0
370
    -3
  6
Continuous
100
AcDbCircle
 10
-621.045317
 20
-40.451118
 30
0.0
 40
1.5
100
AcDbArc
 50
35.96357
 51
120.0
  0
LINE
  5
2F3
100
AcDbEntity
  8
0
370
    -3
  6
Continuous
100
AcDbLine
 10
-616.129235
 20
-35.880765
 30
0.0
 11
-613.508466
 21
-34.367664
 31
0.0
  0
ARC
  5
2F4
100
AcDbEntity
  8
0
370
    -3
  6
Continuous
100
AcDbCircle
 10
-615.379235
 20
-37.179803
 30
0.0
 40
1.5
100
AcDbArc
 50
120.0
 51
217.180756
  0
ARC
  5
2F5
100
AcDbEntity
  8
0
370
    -3
  6
Continuous
100
AcDbCircle
 10
-627.6565
 20
-0.651906
 30
0.0
 40
1.5
100
AcDbArc
 50
60.0
 51
155.531072
  0
LINE
  5
2F6
100
AcDbEntity
  8
0
370
    -3
  6
Continuous
100
AcDbLine
 10
-624.295317
 20
-0.860435
 30
0.0
 11
-626.9065
 21
0.647132
 31
0.0
  0
LINE
  5
2F7
100
AcDbEntity
  8
0
370
    -3
  6
Continuous
100
AcDbLine
 10
-616.008466
 20
-5.644851
 30
0.0
 11
-618.629235
 21
-4.13175
 31
0.0
  0
ARC
  5
2F8
100
AcDbEntity
  8
0
370
    -3
  6
Continuous
100
AcDbCircle
 10
-625.045317
 20
-2.159474
 30
0.0
 40
1.5
100
AcDbArc
 50
335.96357
 51
60.0
  0
ARC
  5
2F9
100
AcDbEntity
  8
0
370
    -3
  6
Continuous
100
AcDbCircle
 10
-619.379235
 20
-5.430788
 30
0.0
 40
1.5
100
AcDbArc
 50
60.0
 51
157.180756
  0
ARC
  5
2FA
100
AcDbEntity
  8
0
370
    -3
  6
Continuous
100
AcDbCircle
 10
-616.758466
 20
-6.943889
 30
0.0
 40
1.5
100
AcDbArc
 50
337.928142
 51
60.0
  0
ARC
  5
2FB
100
AcDbEntity
  8
0
370
    -3
  6
Continuous
100
AcDbCircle
 10
-589.88378
 20
-17.841194
 30
0.0
 40
27.5
100
AcDbArc
 50
157.928142
 51
202.071858
  0
ARC
  5
2FC
100
AcDbEntity
  8
0
370
    -3
  6
Continuous
100
AcDbCircle
 10
-589.88378
 20
-17.841194
 30
0.0
 40
37.0
100
AcDbArc
 50
155.96357
 51
204.03643
  0
ARC
  5
2FD
100
AcDbEntity
  8
0
370
    -3
  6
Continuous
100
AcDbCircle
 10
-589.88378
 20
-17.841194
 30
0.0
 40
43.0
100
AcDbArc
 50
155.531072
 51
204.468928
  0
ARC
  5
2FE
100
AcDbEntity
  8
0
370
    -3
  6
Continuous
100
AcDbCircle
 10
-589.88378
 20
-17.841194
 30
0.0
 40
33.5
100
AcDbArc
 50
157.180756
 51
202.819244
  0
ARC
  5
2FF
100
AcDbEntity
  8
0
370
    -3
  6
Continuous
100
AcDbCircle
 10
-616.758466
 20
-28.738499
 30
0.0
 40
1.5
100
AcDbArc
 50
300.0
 51
22.071858
  0
ARC
  5
300
100
AcDbEntity
  8
0
370
    -3
  6
Continuous
100
AcDbCircle
 10
-627.6565
 20
-35.030482
 30
0.0
 40
1.5
100
AcDbArc
 50
204.468928
 51
300.0
  0
LINE
  5
301
100
AcDbEntity
  8
0
370
    -3
  6
Continuous
100
AcDbLine
 10
-626.9065
 20
-36.32952
 30
0.0
 11
-624.295317
 21
-34.821952
 31
0.0
  0
ARC
  5
302
100
AcDbEntity
  8
0
370
    -3
  6
Continuous
100
AcDbCircle
 10
-625.045317
 20
-33.522914
 30
0.0
 40
1.5
100
AcDbArc
 50
300.0
 51
24.03643
  0
LINE
  5
303
100
AcDbEntity
  8
0
370
    -3
  6
Continuous
100
AcDbLine
 10
-618.629235
 20
-31.550638
 30
0.0
 11
-616.008466
 21
-30.037537
 31
0.0
  0
ARC
  5
304
100
AcDbEntity
  8
0
370
    -3
  6
Continuous
100
AcDbCircle
 10
-619.379235
 20
-30.2516
 30
0.0
 40
1.5
100
AcDbArc
 50
202.819244
 51
300.0
  0
ARC
  5
305
100
AcDbEntity
  8
0
370
    -3
  6
Continuous
100
AcDbCircle
 10
-623.6565
 20
6.276297
 30
0.0
 40
1.5
100
AcDbArc
 50
144.468928
 51
240.0
  0
LINE
  5
306
100
AcDbEntity
  8
0
370
    -3
  6
Continuous
100
AcDbLine
 10
-621.795317
 20
3.469692
 30
0.0
 11
-624.4065
 21
4.977259
 31
0.0
  0
LINE
  5
307
100
AcDbEntity
  8
0
370
    -3
  6
Continuous
100
AcDbLine
 10
-613.508466
 20
-1.314724
 30
0.0
 11
-616.129235
 21
0.198377
 31
0.0
  0
ARC
  5
308
100
AcDbEntity
  8
0
370
    -3
  6
Continuous
100
AcDbCircle
 10
-621.045317
 20
4.76873
 30
0.0
 40
1.5
100
AcDbArc
 50
240.0
 51
324.03643
  0
ARC
  5
309
100
AcDbEntity
  8
0
370
    -3
  6
Continuous
100
AcDbCircle
 10
-615.379235
 20
1.497416
 30
0.0
 40
1.5
100
AcDbArc
 50
142.819244
 51
240.0
  0
ARC
  5
30A
100
AcDbEntity
  8
0
370
    -3
  6
Continuous
100
AcDbCircle
 10
-612.758466
 20
-0.015686
 30
0.0
 40
1.5
100
AcDbArc
 50
240.0
 51
322.071858
  0
ARC
  5
30B
100
AcDbEntity
  8
0
370
    -3
  6
Continuous
100
AcDbCircle
 10
-589.88378
 20
-17.841194
 30
0.0
 40
27.5
100
AcDbArc
 50
97.928142
 51
142.071858
  0
ARC
  5
30C
100
AcDbEntity
  8
0
370
    -3
  6
Continuous
100
AcDbCircle
 10
-589.88378
 20
-17.841194
 30
0.0
 40
37.0
100
AcDbArc
 50
95.96357
 51
144.03643
  0
ARC
  5
30D
100
AcDbEntity
  8
0
370
    -3
  6
Continuous
100
AcDbCircle
 10
-589.88378
 20
-17.841194
 30
0.0
 40
43.0
100
AcDbArc
 50
95.531072
 51
144.468928
  0
ARC
  5
30E
100
AcDbEntity
  8
0
370
    -3
  6
Continuous
100
AcDbCircle
 10
-589.88378
 20
-17.841194
 30
0.0
 40
33.5
100
AcDbArc
 50
97.180756
 51
142.819244
  0
ARC
  5
30F
100
AcDbEntity
  8
0
370
    -3
  6
Continuous
100
AcDbCircle
 10
-593.88378
 20
10.881619
 30
0.0
 40
1.5
100
AcDbArc
 50
277.928142
 51
0.0
  0
LINE
  5
310
100
AcDbEntity
  8
0
370
    -3
  6
DASHED
100
AcDbLine
 10
-636.430194
 20
-54.909816
 30
0.0
 11
-636.430194
 21
-54.893173
 31
0.0
  0
LINE
  5
311
100
AcDbEntity
  8
0
370
    -3
  6
DASHED
100
AcDbLine
 10
-634.738367
 20
-57.273735
 30
0.0
 11
-630.687942
 21
-61.32416
 31
0.0
  0
ARC
  5
312
100
AcDbEntity
  8
0
370
    -3
  6
Continuous
100
AcDbCircle
 10
-613.808007
 20
0.660987
 30
0.0
 40
29.6
100
AcDbArc
 50
135.0
 51
177.053989
  0
ARC
  5
313
100
AcDbEntity
  8
0
370
    -3
  6
Continuous
100
AcDbCircle
 10
-254.28378
 20
-17.841194
 30
0.0
 40
389.6
100
AcDbArc
 50
180.0
 51
182.946011
  0
ARC
  5
314
100
AcDbEntity
  8
0
370
    -3
  6
Continuous
100
AcDbCircle
 10
-254.28378
 20
-17.841194
 30
0.0
 40
389.6
100
AcDbArc
 50
177.053989
 51
180.0
  0
ARC
  5
315
100
AcDbEntity
  8
0
370
    -3
  6
Continuous
100
AcDbCircle
 10
-613.808007
 20
-36.343374
 30
0.0
 40
29.6
100
AcDbArc
 50
182.946011
 51
225.0
  0
ARC
  5
316
100
AcDbEntity
  8
0
370
    -3
  6
Continuous
100
AcDbCircle
 10
-620.364183
 20
-51.000401
 30
0.0
 40
14.6
100
AcDbArc
 50
225.0
 51
265.337794
  0
ARC
  5
317
100
AcDbEntity
  8
0
370
    -3
  6
Continuous
100
AcDbCircle
 10
-589.88378
 20
322.758806
 30
0.0
 40
389.6
100
AcDbArc
 50
265.337794
 51
270.0
  0
ARC
  5
318
100
AcDbEntity
  8
0
370
    -3
  6
Continuous
100
AcDbCircle
 10
-589.88378
 20
322.758806
 30
0.0
 40
389.6
100
AcDbArc
 50
270.0
 51
274.662206
  0
LINE
  5
319
100
AcDbEntity
  8
0
370
    -3
  6
CENTER
100
AcDbLine
 10
-666.30264
 20
-17.841194
 30
0.0
 11
-457.5
 21
-17.841194
 31
0.0
  0
ARC
  5
31A
100
AcDbEntity
  8
0
370
    -3
  6
Continuous
100
AcDbCircle
 10
-629.38378
 20
-76.841194
 30
0.0
 40
2.0
100
AcDbArc
 50
180.0
 51
270.0
  0
ARC
  5
31B
100
AcDbEntity
  8
0
370
    -3
  6
Continuous
100
AcDbCircle
 10
-550.38378
 20
-76.841194
 30
0.0
 40
2.0
100
AcDbArc
 50
270.0
 51
0.0
  0
ARC
  5
31C
100
AcDbEntity
  8
0
370
    -3
  6
Continuous
100
AcDbCircle
 10
-554.38378
 20
-73.841194
 30
0.0
 40
7.0
100
AcDbArc
 50
214.849905
 51
225.584691
  0
ARC
  5
31D
100
AcDbEntity
  8
0
370
    -3
  6
Continuous
100
AcDbCircle
 10
-625.38378
 20
-73.841194
 30
0.0
 40
7.0
100
AcDbArc
 50
314.415309
 51
325.150095
  0
ARC
  5
31E
100
AcDbEntity
  8
0
370
    -3
  6
Continuous
100
AcDbCircle
 10
-629.38378
 20
-76.841194
 30
0.0
 40
2.0
100
AcDbArc
 50
180.0
 51
270.0
  0
ARC
  5
31F
100
AcDbEntity
  8
0
370
    -3
  6
Continuous
100
AcDbCircle
 10
-654.38378
 20
-30.879794
 30
0.0
 40
5.0
100
AcDbArc
 50
180.0
 51
210.0
  0
LINE
  5
320
100
AcDbEntity
  8
0
370
    -3
  6
Continuous
100
AcDbLine
 10
-559.28276
 20
-78.841194
 30
0.0
 11
-550.38378
 21
-78.841194
 31
0.0
  0
LINE
  5
321
100
AcDbEntity
  8
0
370
    -3
  6
Continuous
100
AcDbLine
 10
-620.484801
 20
-78.841194
 30
0.0
 11
-629.38378
 21
-78.841194
 31
0.0
  0
LINE
  5
322
100
AcDbEntity
  8
0
370
    -3
  6
Continuous
100
AcDbLine
 10
-589.88378
 20
-77.841194
 30
0.0
 11
-619.639218
 21
-77.841194
 31
0.0
  0
LINE
  5
323
100
AcDbEntity
  8
0
370
    -3
  6
Continuous
100
AcDbLine
 10
-589.88378
 20
-77.841194
 30
0.0
 11
-560.128343
 21
-77.841194
 31
0.0
  0
LINE
  5
324
100
AcDbEntity
  8
0
370
    -3
  6
CENTER
100
AcDbLine
 10
-580.882166
 20
0.158806
 30
0.0
 11
-598.915744
 21
0.158806
 31
0.0
  0
LINE
  5
325
100
AcDbEntity
  8
0
370
    -3
  6
CENTER
100
AcDbLine
 10
-589.88378
 20
-83.355828
 30
0.0
 11
-589.88378
 21
52.726291
 31
0.0
  0
LINE
  5
326
100
AcDbEntity
  8
0
370
    -3
  6
Continuous
100
AcDbLine
 10
-638.38378
 20
-79.341194
 30
0.0
 11
-662.38378
 21
-79.341194
 31
0.0
  0
LINE
  5
327
100
AcDbEntity
  8
0
370
    -3
  6
Continuous
100
AcDbLine
 10
-541.38378
 20
-79.341194
 30
0.0
 11
-517.38378
 21
-79.341194
 31
0.0
  0
ARC
  5
328
100
AcDbEntity
  8
0
370
    -3
  6
Continuous
100
AcDbCircle
 10
-554.38378
 20
-74.341194
 30
0.0
 40
7.0
100
AcDbArc
 50
210.0
 51
220.005201
  0
LINE
  5
329
100
AcDbEntity
  8
0
370
    -3
  6
Continuous
100
AcDbLine
 10
-659.38378
 20
-63.098553
 30
0.0
 11
-659.38378
 21
-2.594737
 31
0.0
  0
ARC
  5
32A
100
AcDbEntity
  8
0
370
    -3
  6
Continuous
100
AcDbCircle
 10
-542.38378
 20
-79.841194
 30
0.0
 40
1.0
100
AcDbArc
 50
0.0
 51
90.0
  0
LINE
  5
32B
100
AcDbEntity
  8
0
370
    -3
  6
Continuous
100
AcDbLine
 10
-638.38378
 20
-79.841194
 30
0.0
 11
-662.38378
 21
-79.841194
 31
0.0
  0
LINE
  5
32C
100
AcDbEntity
  8
0
370
    -3
  6
Continuous
100
AcDbLine
 10
-541.38378
 20
-79.841194
 30
0.0
 11
-517.38378
 21
-79.841194
 31
0.0
  0
LINE
  5
32D
100
AcDbEntity
  8
0
370
    -3
  6
CENTER
100
AcDbLine
 10
-589.88378
 20
-90.166704
 30
0.0
 11
-589.88378
 21
-73.641194
 31
0.0
  0
LINE
  5
32E
100
AcDbEntity
  8
0
370
    -3
  6
Continuous
100
AcDbLine
 10
-546.38378
 20
-77.841194
 30
0.0
 11
-546.38378
 21
-73.36143
 31
0.0
  0
ARC
  5
32F
100
AcDbEntity
  8
0
370
    -3
  6
Continuous
100
AcDbCircle
 10
-545.38378
 20
-77.841194
 30
0.0
 40
1.0
100
AcDbArc
 50
180.0
 51
270.0
  0
ARC
  5
330
100
AcDbEntity
  8
0
370
    -3
  6
Continuous
100
AcDbCircle
 10
-637.38378
 20
-79.841194
 30
0.0
 40
1.0
100
AcDbArc
 50
90.0
 51
180.0
  0
LINE
  5
331
100
AcDbEntity
  8
0
370
    -3
  6
Continuous
100
AcDbLine
 10
-633.38378
 20
-77.841194
 30
0.0
 11
-633.38378
 21
-73.36143
 31
0.0
  0
ARC
  5
332
100
AcDbEntity
  8
0
370
    -3
  6
Continuous
100
AcDbCircle
 10
-634.38378
 20
-77.841194
 30
0.0
 40
1.0
100
AcDbArc
 50
270.0
 51
0.0
  0
ARC
  5
333
100
AcDbEntity
  8
0
370
    -3
  6
Continuous
100
AcDbCircle
 10
-550.38378
 20
-76.841194
 30
0.0
 40
2.0
100
AcDbArc
 50
270.0
 51
0.0
  0
ARC
  5
334
100
AcDbEntity
  8
0
370
    -3
  6
Continuous
100
AcDbCircle
 10
-629.38378
 20
-76.841194
 30
0.0
 40
2.0
100
AcDbArc
 50
180.0
 51
270.0
  0
LINE
  5
335
100
AcDbEntity
  8
0
370
    -3
  6
CENTER
100
AcDbLine
 10
-652.38378
 20
-84.138588
 30
0.0
 11
-652.38378
 21
-60.877954
 31
0.0
  0
LINE
  5
336
100
AcDbEntity
  8
0
370
    -3
  6
Continuous
100
AcDbLine
 10
-559.745683
 20
-78.841194
 30
0.0
 11
-542.38378
 21
-78.841194
 31
0.0
  0
LINE
  5
337
100
AcDbEntity
  8
0
370
    -3
  6
Continuous
100
AcDbLine
 10
-589.88378
 20
-77.841194
 30
0.0
 11
-560.445958
 21
-77.841194
 31
0.0
  0
ARC
  5
338
100
AcDbEntity
  8
0
370
    -3
  6
Continuous
100
AcDbCircle
 10
-625.38378
 20
-74.341194
 30
0.0
 40
7.0
100
AcDbArc
 50
319.994799
 51
330.0
  0
LINE
  5
339
100
AcDbEntity
  8
0
370
    -3
  6
Continuous
100
AcDbLine
 10
-589.88378
 20
-77.841194
 30
0.0
 11
-619.321603
 21
-77.841194
 31
0.0
  0
LINE
  5
33A
100
AcDbEntity
  8
0
370
    -3
  6
Continuous
100
AcDbLine
 10
-620.021878
 20
-78.841194
 30
0.0
 11
-637.38378
 21
-78.841194
 31
0.0
  0
LINE
  5
33B
100
AcDbEntity
  8
0
370
    -3
  6
Continuous
100
AcDbLine
 10
-662.38378
 20
-79.841194
 30
0.0
 11
-662.38378
 21
-67.341194
 31
0.0
  0
ARC
  5
33C
100
AcDbEntity
  8
0
370
    -3
  6
Continuous
100
AcDbCircle
 10
-661.38378
 20
-63.098553
 30
0.0
 40
2.0
100
AcDbArc
 50
289.471221
 51
0.0
  0
ARC
  5
33D
100
AcDbEntity
  8
0
370
    -3
  6
Continuous
100
AcDbCircle
 10
-659.88378
 20
-67.341194
 30
0.0
 40
2.5
100
AcDbArc
 50
90.0
 51
180.0
  0
LINE
  5
33E
100
AcDbEntity
  8
0
370
    -3
  6
CENTER
100
AcDbLine
 10
-527.38378
 20
-84.138588
 30
0.0
 11
-527.38378
 21
-60.877954
 31
0.0
  0
ARC
  5
33F
100
AcDbEntity
  8
0
370
    -3
  6
Continuous
100
AcDbCircle
 10
-519.88378
 20
-67.341194
 30
0.0
 40
2.5
100
AcDbArc
 50
0.0
 51
90.0
  0
ARC
  5
340
100
AcDbEntity
  8
0
370
    -3
  6
Continuous
100
AcDbCircle
 10
-518.38378
 20
-63.098553
 30
0.0
 40
2.0
100
AcDbArc
 50
180.0
 51
250.528779
  0
ARC
  5
341
100
AcDbEntity
  8
0
370
    -3
  6
Continuous
100
AcDbCircle
 10
-654.38378
 20
-30.879794
 30
0.0
 40
5.0
100
AcDbArc
 50
180.0
 51
210.0
  0
ARC
  5
342
100
AcDbEntity
  8
0
370
    -3
  6
Continuous
100
AcDbCircle
 10
-656.38378
 20
-52.841194
 30
0.0
 40
3.0
100
AcDbArc
 50
90.0
 51
180.0
  0
LINE
  5
343
100
AcDbEntity
  8
0
370
    -3
  6
Continuous
100
AcDbLine
 10
-653.251366
 20
-49.841194
 30
0.0
 11
-656.38378
 21
-49.841194
 31
0.0
  0
LINE
  5
344
100
AcDbEntity
  8
0
370
    -3
  6
Continuous
100
AcDbLine
 10
-517.38378
 20
-79.841194
 30
0.0
 11
-517.38378
 21
-67.341194
 31
0.0
  0
ARC
  5
345
100
AcDbEntity
  8
0
370
    -3
  6
Continuous
100
AcDbCircle
 10
-560.63378
 20
-76.841194
 30
0.0
 40
1.0
100
AcDbArc
 50
270.0
 51
0.0
  0
ARC
  5
346
100
AcDbEntity
  8
0
370
    -3
  6
Continuous
100
AcDbCircle
 10
-589.88378
 20
-752.341194
 30
0.0
 40
800.0
100
AcDbArc
 50
88.510142
 51
90.0
  0
ARC
  5
347
100
AcDbEntity
  8
0
370
    -3
  6
Continuous
100
AcDbCircle
 10
-563.13378
 20
45.865943
 30
0.0
 40
1.0
100
AcDbArc
 50
0.0
 51
81.491323
  0
ARC
  5
348
100
AcDbEntity
  8
0
370
    -3
  6
Continuous
100
AcDbCircle
 10
-550.63378
 20
42.248741
 30
0.0
 40
1.0
100
AcDbArc
 50
66.23031
 51
180.0
  0
ARC
  5
349
100
AcDbEntity
  8
0
370
    -3
  6
Continuous
100
AcDbCircle
 10
-616.63378
 20
45.865943
 30
0.0
 40
1.0
100
AcDbArc
 50
98.508677
 51
180.0
  0
ARC
  5
34A
100
AcDbEntity
  8
0
370
    -3
  6
Continuous
100
AcDbCircle
 10
-629.13378
 20
42.248741
 30
0.0
 40
1.0
100
AcDbArc
 50
0.0
 51
113.76969
  0
ARC
  5
34B
100
AcDbEntity
  8
0
370
    -3
  6
Continuous
100
AcDbCircle
 10
-550.38378
 20
-76.841194
 30
0.0
 40
2.0
100
AcDbArc
 50
270.0
 51
0.0
  0
ARC
  5
34C
100
AcDbEntity
  8
0
370
    -3
  6
Continuous
100
AcDbCircle
 10
-629.38378
 20
-76.841194
 30
0.0
 40
2.0
100
AcDbArc
 50
180.0
 51
270.0
  0
ARC
  5
34D
100
AcDbEntity
  8
0
370
    -3
  6
Continuous
100
AcDbCircle
 10
-609.38378
 20
-2.594737
 30
0.0
 40
50.0
100
AcDbArc
 50
91.489858
 51
180.0
  0
ARC
  5
34E
100
AcDbEntity
  8
0
370
    -3
  6
Continuous
100
AcDbCircle
 10
-589.88378
 20
-752.341194
 30
0.0
 40
800.0
100
AcDbArc
 50
90.0
 51
91.489858
  0
ARC
  5
34F
100
AcDbEntity
  8
0
370
    -3
  6
Continuous
100
AcDbCircle
 10
-625.38378
 20
-73.841194
 30
0.0
 40
7.0
100
AcDbArc
 50
314.415309
 51
325.150095
  0
ARC
  5
350
100
AcDbEntity
  8
0
370
    -3
  6
Continuous
100
AcDbCircle
 10
-554.38378
 20
-73.841194
 30
0.0
 40
7.0
100
AcDbArc
 50
214.849905
 51
225.584691
  0
LINE
  5
351
100
AcDbEntity
  8
0
370
    -3
  6
Continuous
100
AcDbLine
 10
-589.88378
 20
-77.841194
 30
0.0
 11
-619.639218
 21
-77.841194
 31
0.0
  0
LINE
  5
352
100
AcDbEntity
  8
0
370
    -3
  6
Continuous
100
AcDbLine
 10
-589.88378
 20
-77.841194
 30
0.0
 11
-560.128343
 21
-77.841194
 31
0.0
  0
LINE
  5
353
100
AcDbEntity
  8
0
370
    -3
  6
Continuous
100
AcDbLine
 10
-620.484801
 20
-78.841194
 30
0.0
 11
-629.38378
 21
-78.841194
 31
0.0
  0
LINE
  5
354
100
AcDbEntity
  8
0
370
    -3
  6
Continuous
100
AcDbLine
 10
-559.28276
 20
-78.841194
 30
0.0
 11
-550.38378
 21
-78.841194
 31
0.0
  0
ARC
  5
355
100
AcDbEntity
  8
0
370
    -3
  6
Continuous
100
AcDbCircle
 10
-658.38378
 20
-21.091194
 30
0.0
 40
1.0
100
AcDbArc
 50
90.0
 51
180.0
  0
ARC
  5
356
100
AcDbEntity
  8
0
370
    -3
  6
Continuous
100
AcDbCircle
 10
-658.38378
 20
-8.591194
 30
0.0
 40
1.0
100
AcDbArc
 50
180.0
 51
270.0
  0
ARC
  5
357
100
AcDbEntity
  8
0
370
    -3
  6
Continuous
100
AcDbCircle
 10
-654.38378
 20
-30.879794
 30
0.0
 40
5.0
100
AcDbArc
 50
180.0
 51
210.0
  0
LINE
  5
358
100
AcDbEntity
  8
0
370
    -3
  6
Continuous
100
AcDbLine
 10
-659.38378
 20
-30.879794
 30
0.0
 11
-659.38378
 21
-2.341194
 31
0.0
  0
LINE
  5
359
100
AcDbEntity
  8
0
370
    -3
  6
Continuous
100
AcDbLine
 10
-655.383778
 20
-13.686499
 30
0.0
 11
-655.383779
 21
-15.995893
 31
0.0
  0
MTEXT
  5
35A
100
AcDbEntity
  8
0
370
    -3
  6
Continuous
100
AcDbMText
 10
-637.888
 20
242.770584
 30
0.0
 40
15.0
 41
0.0
 71
     7
 72
     1
  1
\W0.43;0.75kW
  7
ZU_SHPTB00001
 11
1.0
 21
0.0
 31
0.0
 73
     1
 44
1.0
  0
MTEXT
  5
35B
100
AcDbEntity
  8
0
370
    -3
  6
Continuous
100
AcDbMText
 10
-637.888
 20
259.720581
 30
0.0
 40
15.0
 41
0.0
 71
     7
 72
     1
  1
\W0.48;GV-SB
  7
ZU_SHPTB00001
 11
1.0
 21
0.0
 31
0.0
 73
     1
 44
1.0
  0
MTEXT
  5
35C
100
AcDbEntity
  8
0
370
    -3
  6
Continuous
100
AcDbMText
 10
-637.888
 20
208.870621
 30
0.0
 40
15.0
 41
0.0
 71
     7
 72
     1
  1
\W0.42;GEAR\W0.70; \W0.42;RATIO\W0.70;  \W0.42;1/5-1/30
  7
ZU_SHPTB00001
 11
1.0
 21
0.0
 31
0.0
 73
     1
 44
1.0
  0
MTEXT
  5
35D
100
AcDbEntity
  8
0
370
    -3
  6
Continuous
100
AcDbMText
 10
-637.888
 20
225.820633
 30
0.0
 40
15.0
 41
0.0
 71
     7
 72
     1
  1
\W0.43;600-100r/min\W0.53;　
  7
ZU_SHPTB00001
 11
1.0
 21
0.0
 31
0.0
 73
     1
 44
1.0
  0
MTEXT
  5
35E
100
AcDbEntity
  8
0
370
    -3
  6
Continuous
100
AcDbMText
 10
-637.888
 20
191.920609
 30
0.0
 40
15.0
 41
0.0
 71
     7
 72
     1
  1
\W0.43;SCALE\W0.72;  \W0.43;1/1
  7
ZU_SHPTB00001
 11
1.0
 21
0.0
 31
0.0
 73
     1
 44
1.0
  0
MTEXT
  5
35F
100
AcDbEntity
  8
0
370
    -3
  6
Continuous
100
AcDbMText
 10
-637.888
 20
276.670593
 30
0.0
 40
15.0
 41
0.0
 71
     7
 72
     1
  1
\W0.63;三菱ギヤードモータ  
  7
ZU_SHPTB00001
 11
1.0
 21
0.0
 31
0.0
 73
     1
 44
1.0
  0
MTEXT
  5
360
100
AcDbEntity
  8
0
370
    -3
  6
Continuous
100
AcDbMText
 10
-637.888
 20
276.670593
 30
0.0
 40
15.0
 41
0.0
 71
     7
 72
     1
  1
\W0.63;三菱ギヤードモータ  
  7
ZU_SHPTB00001
 11
1.0
 21
0.0
 31
0.0
 73
     1
 44
1.0
  0
LINE
  5
361
100
AcDbEntity
  8
0
370
    -3
  6
CENTER
100
AcDbLine
 10
11.174682
 20
3.459019
 30
0.0
 11
11.174682
 21
-39.141895
 31
0.0
  0
LINE
  5
362
100
AcDbEntity
  8
0
370
    -3
  6
Continuous
100
AcDbLine
 10
36.174682
 20
17.658562
 30
0.0
 11
36.174682
 21
4.168293
 31
0.0
  0
ARC
  5
363
100
AcDbEntity
  8
0
370
    -3
  6
Continuous
100
AcDbCircle
 10
36.174682
 20
10.158562
 30
0.0
 40
1.0
100
AcDbArc
 50
0.0
 51
90.0
  0
LINE
  5
364
100
AcDbEntity
  8
0
370
    -3
  6
Continuous
100
AcDbLine
 10
37.174682
 20
9.270171
 30
0.0
 11
37.174682
 21
13.158562
 31
0.0
  0
LINE
  5
365
100
AcDbEntity
  8
0
370
    -3
  6
Continuous
100
AcDbLine
 10
38.174682
 20
13.158562
 30
0.0
 11
37.174682
 21
13.158562
 31
0.0
  0
LINE
  5
366
100
AcDbEntity
  8
0
370
    -3
  6
Continuous
100
AcDbLine
 10
38.174682
 20
12.72742
 30
0.0
 11
38.174682
 21
13.684405
 31
0.0
  0
ARC
  5
367
100
AcDbEntity
  8
0
370
    -3
  6
Continuous
100
AcDbCircle
 10
32.374682
 20
-53.341438
 30
0.0
 40
3.8
100
AcDbArc
 50
323.242749
 51
330.275671
  0
ARC
  5
368
100
AcDbEntity
  8
0
370
    -3
  6
Continuous
100
AcDbCircle
 10
32.374682
 20
17.658562
 30
0.0
 40
3.8
100
AcDbArc
 50
0.0
 51
36.757251
  0
LINE
  5
369
100
AcDbEntity
  8
0
370
    -3
  6
Continuous
100
AcDbLine
 10
-14.296466
 20
19.657381
 30
0.0
 11
-14.296466
 21
-55.340257
 31
0.0
  0
ARC
  5
36A
100
AcDbEntity
  8
0
370
    -3
  6
Continuous
100
AcDbCircle
 10
-6.496466
 20
21.158562
 30
0.0
 40
7.8
100
AcDbArc
 50
90.0
 51
151.87484
  0
ELLIPSE
  5
36B
100
AcDbEntity
  8
0
370
    -3
  6
Continuous
100
AcDbEllipse
 10
-12.411057
 20
21.658562
 30
0.0
 11
0.0
 21
3.5
 31
0.0
210
0.0
220
0.0
230
1.0
 40
0.656603
 41
0.0
 42
6.2831853071795862
  0
LINE
  5
36C
100
AcDbEntity
  8
0
370
    -3
  6
Continuous
100
AcDbLine
 10
-14.458338
 20
23.248579
 30
0.0
 11
-13.948511
 21
21.658562
 31
0.0
  0
LINE
  5
36D
100
AcDbEntity
  8
0
370
    -3
  6
Continuous
100
AcDbLine
 10
-13.948511
 20
21.658562
 30
0.0
 11
-12.899323
 21
23.658562
 31
0.0
  0
LINE
  5
36E
100
AcDbEntity
  8
0
370
    -3
  6
Continuous
100
AcDbLine
 10
-13.948511
 20
21.658562
 30
0.0
 11
-12.899323
 21
19.658562
 31
0.0
  0
LINE
  5
36F
100
AcDbEntity
  8
0
370
    -3
  6
Continuous
100
AcDbLine
 10
-14.458338
 20
20.068545
 30
0.0
 11
-13.948511
 21
21.658562
 31
0.0
  0
LINE
  5
370
100
AcDbEntity
  8
0
370
    -3
  6
Continuous
100
AcDbLine
 10
23.999924
 20
23.248579
 30
0.0
 11
24.509751
 21
21.658562
 31
0.0
  0
LINE
  5
371
100
AcDbEntity
  8
0
370
    -3
  6
Continuous
100
AcDbLine
 10
23.999924
 20
20.068545
 30
0.0
 11
24.509751
 21
21.658562
 31
0.0
  0
LINE
  5
372
100
AcDbEntity
  8
0
370
    -3
  6
Continuous
100
AcDbLine
 10
24.509751
 20
21.658562
 30
0.0
 11
25.558939
 21
19.658562
 31
0.0
  0
LINE
  5
373
100
AcDbEntity
  8
0
370
    -3
  6
Continuous
100
AcDbLine
 10
24.509751
 20
21.658562
 30
0.0
 11
25.558939
 21
23.658562
 31
0.0
  0
ELLIPSE
  5
374
100
AcDbEntity
  8
0
370
    -3
  6
Continuous
100
AcDbEllipse
 10
26.047204
 20
21.658562
 30
0.0
 11
0.0
 21
3.5
 31
0.0
210
0.0
220
0.0
230
1.0
 40
0.656603
 41
0.0
 42
6.2831853071795862
  0
ARC
  5
375
100
AcDbEntity
  8
0
370
    -3
  6
Continuous
100
AcDbCircle
 10
18.867792
 20
16.908562
 30
0.0
 40
3.8
100
AcDbArc
 50
23.227672
 51
90.0
  0
LINE
  5
376
100
AcDbEntity
  8
0
370
    -3
  6
Continuous
100
AcDbLine
 10
18.867792
 20
20.708562
 30
0.0
 11
-5.642844
 21
20.708562
 31
0.0
  0
ARC
  5
377
100
AcDbEntity
  8
0
370
    -3
  6
Continuous
100
AcDbCircle
 10
22.81389
 20
7.713892
 30
0.0
 40
3.8
100
AcDbArc
 50
0.0
 51
23.227672
  0
LINE
  5
378
100
AcDbEntity
  8
0
370
    -3
  6
Continuous
100
AcDbLine
 10
26.61389
 20
7.713892
 30
0.0
 11
26.61389
 21
-43.396768
 31
0.0
  0
LINE
  5
379
100
AcDbEntity
  8
0
370
    -3
  6
Continuous
100
AcDbLine
 10
22.359783
 20
18.407228
 30
0.0
 11
26.305881
 21
9.212558
 31
0.0
  0
ARC
  5
37A
100
AcDbEntity
  8
0
370
    -3
  6
Continuous
100
AcDbCircle
 10
22.81389
 20
-43.396768
 30
0.0
 40
3.8
100
AcDbArc
 50
336.772328
 51
0.0
  0
LINE
  5
37B
100
AcDbEntity
  8
0
370
    -3
  6
Continuous
100
AcDbLine
 10
22.359783
 20
-54.090104
 30
0.0
 11
26.305881
 21
-44.895434
 31
0.0
  0
ARC
  5
37C
100
AcDbEntity
  8
0
370
    -3
  6
Continuous
100
AcDbCircle
 10
27.619159
 20
21.158562
 30
0.0
 40
7.8
100
AcDbArc
 50
0.0
 51
90.0
  0
LINE
  5
37D
100
AcDbEntity
  8
0
370
    -3
  6
Continuous
100
AcDbLine
 10
35.419159
 20
21.158562
 30
0.0
 11
35.419159
 21
-56.841438
 31
0.0
  0
LINE
  5
37E
100
AcDbEntity
  8
0
370
    -3
  6
Continuous
100
AcDbLine
 10
-6.496466
 20
28.958562
 30
0.0
 11
27.619159
 21
28.958562
 31
0.0
  0
LINE
  5
37F
100
AcDbEntity
  8
0
370
    -3
  6
Continuous
100
AcDbLine
 10
30.162574
 20
-56.841438
 30
0.0
 11
30.162574
 21
21.158562
 31
0.0
  0
ARC
  5
380
100
AcDbEntity
  8
0
370
    -3
  6
Continuous
100
AcDbCircle
 10
22.362574
 20
21.158562
 30
0.0
 40
7.8
100
AcDbArc
 50
0.0
 51
90.0
  0
ARC
  5
381
100
AcDbEntity
  8
0
370
    -3
  6
Continuous
100
AcDbCircle
 10
-5.642844
 20
13.908562
 30
0.0
 40
6.8
100
AcDbArc
 50
90.0
 51
180.0
  0
LINE
  5
382
100
AcDbEntity
  8
0
370
    -3
  6
Continuous
100
AcDbLine
 10
-12.442844
 20
13.908562
 30
0.0
 11
-12.442844
 21
-49.591438
 31
0.0
  0
ARC
  5
383
100
AcDbEntity
  8
0
370
    -3
  6
Continuous
100
AcDbCircle
 10
-5.642844
 20
-49.591438
 30
0.0
 40
6.8
100
AcDbArc
 50
180.0
 51
270.0
  0
LINE
  5
384
100
AcDbEntity
  8
0
370
    -3
  6
Continuous
100
AcDbLine
 10
-6.496466
 20
-64.641438
 30
0.0
 11
27.619159
 21
-64.641438
 31
0.0
  0
ARC
  5
385
100
AcDbEntity
  8
0
370
    -3
  6
Continuous
100
AcDbCircle
 10
-6.496466
 20
-56.841438
 30
0.0
 40
7.8
100
AcDbArc
 50
208.12516
 51
270.0
  0
ELLIPSE
  5
386
100
AcDbEntity
  8
0
370
    -3
  6
Continuous
100
AcDbEllipse
 10
-12.411057
 20
-57.341438
 30
0.0
 11
0.0
 21
3.5
 31
0.0
210
0.0
220
0.0
230
1.0
 40
0.656603
 41
0.0
 42
6.2831853071795862
  0
LINE
  5
387
100
AcDbEntity
  8
0
370
    -3
  6
Continuous
100
AcDbLine
 10
-14.458338
 20
-58.931455
 30
0.0
 11
-13.948511
 21
-57.341438
 31
0.0
  0
LINE
  5
388
100
AcDbEntity
  8
0
370
    -3
  6
Continuous
100
AcDbLine
 10
-13.948511
 20
-57.341438
 30
0.0
 11
-12.899323
 21
-59.341438
 31
0.0
  0
LINE
  5
389
100
AcDbEntity
  8
0
370
    -3
  6
Continuous
100
AcDbLine
 10
-13.948511
 20
-57.341438
 30
0.0
 11
-12.899323
 21
-55.341438
 31
0.0
  0
LINE
  5
38A
100
AcDbEntity
  8
0
370
    -3
  6
Continuous
100
AcDbLine
 10
-14.458338
 20
-55.751421
 30
0.0
 11
-13.948511
 21
-57.341438
 31
0.0
  0
LINE
  5
38B
100
AcDbEntity
  8
0
370
    -3
  6
Continuous
100
AcDbLine
 10
23.999924
 20
-58.931455
 30
0.0
 11
24.509751
 21
-57.341438
 31
0.0
  0
LINE
  5
38C
100
AcDbEntity
  8
0
370
    -3
  6
Continuous
100
AcDbLine
 10
23.999924
 20
-55.751421
 30
0.0
 11
24.509751
 21
-57.341438
 31
0.0
  0
LINE
  5
38D
100
AcDbEntity
  8
0
370
    -3
  6
Continuous
100
AcDbLine
 10
24.509751
 20
-57.341438
 30
0.0
 11
25.558939
 21
-55.341438
 31
0.0
  0
LINE
  5
38E
100
AcDbEntity
  8
0
370
    -3
  6
Continuous
100
AcDbLine
 10
24.509751
 20
-57.341438
 30
0.0
 11
25.558939
 21
-59.341438
 31
0.0
  0
ELLIPSE
  5
38F
100
AcDbEntity
  8
0
370
    -3
  6
Continuous
100
AcDbEllipse
 10
26.047204
 20
-57.341438
 30
0.0
 11
0.0
 21
3.5
 31
0.0
210
0.0
220
0.0
230
1.0
 40
0.656603
 41
0.0
 42
6.2831853071795862
  0
ARC
  5
390
100
AcDbEntity
  8
0
370
    -3
  6
Continuous
100
AcDbCircle
 10
18.867792
 20
-52.591438
 30
0.0
 40
3.8
100
AcDbArc
 50
270.0
 51
336.772328
  0
LINE
  5
391
100
AcDbEntity
  8
0
370
    -3
  6
Continuous
100
AcDbLine
 10
18.867792
 20
-56.391438
 30
0.0
 11
-5.642844
 21
-56.391438
 31
0.0
  0
ARC
  5
392
100
AcDbEntity
  8
0
370
    -3
  6
Continuous
100
AcDbCircle
 10
27.619159
 20
-56.841438
 30
0.0
 40
7.8
100
AcDbArc
 50
270.0
 51
0.0
  0
ARC
  5
393
100
AcDbEntity
  8
0
370
    -3
  6
Continuous
100
AcDbCircle
 10
22.362574
 20
-56.841438
 30
0.0
 40
7.8
100
AcDbArc
 50
270.0
 51
0.0
  0
ARC
  5
394
100
AcDbEntity
  8
0
370
    -3
  6
Continuous
100
AcDbCircle
 10
39.174682
 20
13.684405
 30
0.0
 40
1.0
100
AcDbArc
 50
109.440301
 51
180.0
  0
CIRCLE
  5
395
100
AcDbEntity
  8
0
370
    -3
  6
DASHED
100
AcDbCircle
 10
11.174682
 20
-17.841438
 30
0.0
 40
17.0
  0
LINE
  5
396
100
AcDbEntity
  8
0
370
    -3
  6
CENTER
100
AcDbLine
 10
-10.125775
 20
-17.841438
 30
0.0
 11
32.475139
 21
-17.841438
 31
0.0
  0
LINE
  5
397
100
AcDbEntity
  8
0
370
    -3
  6
Continuous
100
AcDbLine
 10
-334.628742
 20
-17.841194
 30
0.0
 11
-334.628742
 21
6.723269
 31
0.0
  0
LINE
  5
398
100
AcDbEntity
  8
0
370
    -3
  6
Continuous
100
AcDbLine
 10
-324.702849
 20
19.421315
 30
0.0
 11
-333.679584
 21
9.235777
 31
0.0
  0
ARC
  5
399
100
AcDbEntity
  8
0
370
    -3
  6
Continuous
100
AcDbCircle
 10
-330.828742
 20
6.723269
 30
0.0
 40
3.8
100
AcDbArc
 50
138.609573
 51
180.0
  0
POINT
  5
39A
100
AcDbEntity
  8
0
370
    -3
  6
CENTER
100
AcDbPoint
 10
-365.296483
 20
-4.620694
 30
0.0
  0
LINE
  5
39B
100
AcDbEntity
  8
0
370
    -3
  6
Continuous
100
AcDbLine
 10
-365.296483
 20
-17.841194
 30
0.0
 11
-365.296483
 21
-2.841194
 31
0.0
  0
ARC
  5
39C
100
AcDbEntity
  8
0
370
    -3
  6
Continuous
100
AcDbCircle
 10
-363.296483
 20
-2.841194
 30
0.0
 40
2.0
100
AcDbArc
 50
90.0
 51
180.0
  0
LINE
  5
39D
100
AcDbEntity
  8
0
370
    -3
  6
Continuous
100
AcDbLine
 10
-363.296483
 20
-0.841194
 30
0.0
 11
-344.870543
 21
-0.841194
 31
0.0
  0
LINE
  5
39E
100
AcDbEntity
  8
0
370
    -3
  6
Continuous
100
AcDbLine
 10
-342.419357
 20
-17.841194
 30
0.0
 11
-342.419357
 21
21.158806
 31
0.0
  0
LINE
  5
39F
100
AcDbEntity
  8
0
370
    -3
  6
Continuous
100
AcDbLine
 10
-344.870543
 20
-17.841194
 30
0.0
 11
-344.870543
 21
21.158806
 31
0.0
  0
POINT
  5
3A0
100
AcDbEntity
  8
0
370
    -3
  6
CENTER
100
AcDbPoint
 10
-365.296483
 20
-31.061694
 30
0.0
  0
LINE
  5
3A1
100
AcDbEntity
  8
0
370
    -3
  6
Continuous
100
AcDbLine
 10
-365.296483
 20
-17.841194
 30
0.0
 11
-365.296483
 21
-32.841194
 31
0.0
  0
ARC
  5
3A2
100
AcDbEntity
  8
0
370
    -3
  6
Continuous
100
AcDbCircle
 10
-363.296483
 20
-32.841194
 30
0.0
 40
2.0
100
AcDbArc
 50
180.0
 51
270.0
  0
LINE
  5
3A3
100
AcDbEntity
  8
0
370
    -3
  6
Continuous
100
AcDbLine
 10
-363.296483
 20
-34.841194
 30
0.0
 11
-344.870543
 21
-34.841194
 31
0.0
  0
LINE
  5
3A4
100
AcDbEntity
  8
0
370
    -3
  6
Continuous
100
AcDbLine
 10
-334.628742
 20
-17.841194
 30
0.0
 11
-334.628742
 21
-42.405656
 31
0.0
  0
LINE
  5
3A5
100
AcDbEntity
  8
0
370
    -3
  6
Continuous
100
AcDbLine
 10
-342.419357
 20
-17.841194
 30
0.0
 11
-342.419357
 21
-56.841194
 31
0.0
  0
LINE
  5
3A6
100
AcDbEntity
  8
0
370
    -3
  6
Continuous
100
AcDbLine
 10
-344.870543
 20
-17.841194
 30
0.0
 11
-344.870543
 21
-56.841194
 31
0.0
  0
LINE
  5
3A7
100
AcDbEntity
  8
0
370
    -3
  6
Continuous
100
AcDbLine
 10
-332.796483
 20
-59.285368
 30
0.0
 11
-332.296483
 21
-59.285368
 31
0.0
  0
LINE
  5
3A8
100
AcDbEntity
  8
0
370
    -3
  6
Continuous
100
AcDbLine
 10
-334.251348
 20
-57.341194
 30
0.0
 11
-336.159068
 21
-55.341194
 31
0.0
  0
LINE
  5
3A9
100
AcDbEntity
  8
0
370
    -3
  6
Continuous
100
AcDbLine
 10
-332.533837
 20
-59.341194
 30
0.0
 11
-334.251348
 21
-57.341194
 31
0.0
  0
LINE
  5
3AA
100
AcDbEntity
  8
0
370
    -3
  6
Continuous
100
AcDbLine
 10
-334.251348
 20
-57.341194
 30
0.0
 11
-332.533837
 21
-55.341194
 31
0.0
  0
LINE
  5
3AB
100
AcDbEntity
  8
0
370
    -3
  6
Continuous
100
AcDbLine
 10
-336.159068
 20
-59.341194
 30
0.0
 11
-334.251348
 21
-57.341194
 31
0.0
  0
ELLIPSE
  5
3AC
100
AcDbEntity
  8
0
370
    -3
  6
Continuous
100
AcDbEllipse
 10
-335.082379
 20
-57.341194
 30
0.0
 11
0.0000000000002274
 21
3.5
 31
0.0
210
0.0
220
0.0
230
1.0
 40
0.982815
 41
0.0
 42
6.2831853071795862
  0
ARC
  5
3AD
100
AcDbEntity
  8
0
370
    -3
  6
Continuous
100
AcDbCircle
 10
-330.828742
 20
-42.405656
 30
0.0
 40
3.8
100
AcDbArc
 50
180.0
 51
221.390427
  0
LINE
  5
3AE
100
AcDbEntity
  8
0
370
    -3
  6
Continuous
100
AcDbLine
 10
-324.702849
 20
-55.103703
 30
0.0
 11
-333.679584
 21
-44.918165
 31
0.0
  0
ARC
  5
3AF
100
AcDbEntity
  8
0
370
    -3
  6
Continuous
100
AcDbCircle
 10
-321.852007
 20
-52.591194
 30
0.0
 40
3.8
100
AcDbArc
 50
221.390427
 51
270.0
  0
ARC
  5
3B0
100
AcDbEntity
  8
0
370
    -3
  6
Continuous
100
AcDbCircle
 10
-334.619357
 20
-56.841194
 30
0.0
 40
7.8
100
AcDbArc
 50
180.0
 51
270.0
  0
ARC
  5
3B1
100
AcDbEntity
  8
0
370
    -3
  6
Continuous
100
AcDbCircle
 10
-337.070543
 20
-56.841194
 30
0.0
 40
7.8
100
AcDbArc
 50
180.0
 51
270.0
  0
LINE
  5
3B2
100
AcDbEntity
  8
0
370
    -3
  6
Continuous
100
AcDbLine
 10
-251.77734
 20
-57.341194
 30
0.0
 11
-253.685059
 21
-55.341194
 31
0.0
  0
LINE
  5
3B3
100
AcDbEntity
  8
0
370
    -3
  6
Continuous
100
AcDbLine
 10
-250.059828
 20
-59.341194
 30
0.0
 11
-251.77734
 21
-57.341194
 31
0.0
  0
LINE
  5
3B4
100
AcDbEntity
  8
0
370
    -3
  6
Continuous
100
AcDbLine
 10
-251.77734
 20
-57.341194
 30
0.0
 11
-250.059828
 21
-55.341194
 31
0.0
  0
LINE
  5
3B5
100
AcDbEntity
  8
0
370
    -3
  6
Continuous
100
AcDbLine
 10
-253.685059
 20
-59.341194
 30
0.0
 11
-251.77734
 21
-57.341194
 31
0.0
  0
ELLIPSE
  5
3B6
100
AcDbEntity
  8
0
370
    -3
  6
Continuous
100
AcDbEllipse
 10
-252.608371
 20
-57.341194
 30
0.0
 11
0.000000000000199
 21
3.5
 31
0.0
210
0.0
220
0.0
230
1.0
 40
0.982815
 41
0.0
 42
6.2831853071795862
  0
LINE
  5
3B7
100
AcDbEntity
  8
0
370
    -3
  6
Continuous
100
AcDbLine
 10
-263.87053
 20
-17.841194
 30
0.0
 11
-263.87053
 21
-46.391194
 31
0.0
  0
ARC
  5
3B8
100
AcDbEntity
  8
0
370
    -3
  6
Continuous
100
AcDbCircle
 10
-273.87053
 20
-46.391194
 30
0.0
 40
10.0
100
AcDbArc
 50
270.0
 51
360.0
  0
LINE
  5
3B9
100
AcDbEntity
  8
0
370
    -3
  6
Continuous
100
AcDbLine
 10
-253.417123
 20
-17.841194
 30
0.0
 11
-253.417123
 21
-42.388185
 31
0.0
  0
ARC
  5
3BA
100
AcDbEntity
  8
0
370
    -3
  6
Continuous
100
AcDbCircle
 10
-257.217123
 20
-42.388185
 30
0.0
 40
3.8
100
AcDbArc
 50
318.14922
 51
360.0
  0
LINE
  5
3BB
100
AcDbEntity
  8
0
370
    -3
  6
Continuous
100
AcDbLine
 10
-263.525387
 20
-55.126527
 30
0.0
 11
-254.38656
 21
-44.923518
 31
0.0
  0
ARC
  5
3BC
100
AcDbEntity
  8
0
370
    -3
  6
Continuous
100
AcDbCircle
 10
-266.35595
 20
-52.591194
 30
0.0
 40
3.8
100
AcDbArc
 50
270.0
 51
318.14922
  0
ARC
  5
3BD
100
AcDbEntity
  8
0
370
    -3
  6
Continuous
100
AcDbCircle
 10
-254.199014
 20
-56.841194
 30
0.0
 40
7.8
100
AcDbArc
 50
270.0
 51
360.0
  0
LINE
  5
3BE
100
AcDbEntity
  8
0
370
    -3
  6
Continuous
100
AcDbLine
 10
-254.199014
 20
-64.641194
 30
0.0
 11
-337.070543
 21
-64.641194
 31
0.0
  0
LINE
  5
3BF
100
AcDbEntity
  8
0
370
    -3
  6
Continuous
100
AcDbLine
 10
-246.399014
 20
-17.841194
 30
0.0
 11
-246.399014
 21
-56.841194
 31
0.0
  0
LINE
  5
3C0
100
AcDbEntity
  8
0
370
    -3
  6
Continuous
100
AcDbLine
 10
-263.87053
 20
-17.841194
 30
0.0
 11
-263.87053
 21
10.708806
 31
0.0
  0
LINE
  5
3C1
100
AcDbEntity
  8
0
370
    -3
  6
Continuous
100
AcDbLine
 10
-253.417123
 20
-17.841194
 30
0.0
 11
-253.417123
 21
6.705797
 31
0.0
  0
LINE
  5
3C2
100
AcDbEntity
  8
0
370
    -3
  6
Continuous
100
AcDbLine
 10
-246.399014
 20
-17.841194
 30
0.0
 11
-246.399014
 21
21.158806
 31
0.0
  0
LINE
  5
3C3
100
AcDbEntity
  8
0
370
    -3
  6
Continuous
100
AcDbLine
 10
-251.77734
 20
21.658806
 30
0.0
 11
-253.685059
 21
19.658806
 31
0.0
  0
LINE
  5
3C4
100
AcDbEntity
  8
0
370
    -3
  6
Continuous
100
AcDbLine
 10
-250.059828
 20
23.658806
 30
0.0
 11
-251.77734
 21
21.658806
 31
0.0
  0
LINE
  5
3C5
100
AcDbEntity
  8
0
370
    -3
  6
Continuous
100
AcDbLine
 10
-251.77734
 20
21.658806
 30
0.0
 11
-250.059828
 21
19.658806
 31
0.0
  0
LINE
  5
3C6
100
AcDbEntity
  8
0
370
    -3
  6
Continuous
100
AcDbLine
 10
-253.685059
 20
23.658806
 30
0.0
 11
-251.77734
 21
21.658806
 31
0.0
  0
ELLIPSE
  5
3C7
100
AcDbEntity
  8
0
370
    -3
  6
Continuous
100
AcDbEllipse
 10
-252.608371
 20
21.658806
 30
0.0
 11
0.0
 21
3.5
 31
0.0
210
0.0
220
0.0
230
1.0
 40
0.982815
 41
0.0
 42
6.2831853071795862
  0
ARC
  5
3C8
100
AcDbEntity
  8
0
370
    -3
  6
Continuous
100
AcDbCircle
 10
-273.87053
 20
10.708806
 30
0.0
 40
10.0
100
AcDbArc
 50
0.0
 51
90.0
  0
LINE
  5
3C9
100
AcDbEntity
  8
0
370
    -3
  6
Continuous
100
AcDbLine
 10
-321.852007
 20
20.708806
 30
0.0
 11
-266.35595
 21
20.708806
 31
0.0
  0
ARC
  5
3CA
100
AcDbEntity
  8
0
370
    -3
  6
Continuous
100
AcDbCircle
 10
-257.217123
 20
6.705797
 30
0.0
 40
3.8
100
AcDbArc
 50
0.0
 51
41.85078
  0
LINE
  5
3CB
100
AcDbEntity
  8
0
370
    -3
  6
Continuous
100
AcDbLine
 10
-263.525387
 20
19.444139
 30
0.0
 11
-254.38656
 21
9.24113
 31
0.0
  0
ARC
  5
3CC
100
AcDbEntity
  8
0
370
    -3
  6
Continuous
100
AcDbCircle
 10
-266.35595
 20
16.908806
 30
0.0
 40
3.8
100
AcDbArc
 50
41.85078
 51
90.0
  0
LINE
  5
3CD
100
AcDbEntity
  8
0
370
    -3
  6
Continuous
100
AcDbLine
 10
-254.199014
 20
28.958806
 30
0.0
 11
-337.070543
 21
28.958806
 31
0.0
  0
ARC
  5
3CE
100
AcDbEntity
  8
0
370
    -3
  6
Continuous
100
AcDbCircle
 10
-254.199014
 20
21.158806
 30
0.0
 40
7.8
100
AcDbArc
 50
0.0
 51
90.0
  0
LINE
  5
3CF
100
AcDbEntity
  8
0
370
    -3
  6
Continuous
100
AcDbLine
 10
-334.251348
 20
21.658806
 30
0.0
 11
-336.159068
 21
19.658806
 31
0.0
  0
LINE
  5
3D0
100
AcDbEntity
  8
0
370
    -3
  6
Continuous
100
AcDbLine
 10
-332.533837
 20
23.658806
 30
0.0
 11
-334.251348
 21
21.658806
 31
0.0
  0
LINE
  5
3D1
100
AcDbEntity
  8
0
370
    -3
  6
Continuous
100
AcDbLine
 10
-334.251348
 20
21.658806
 30
0.0
 11
-332.533837
 21
19.658806
 31
0.0
  0
LINE
  5
3D2
100
AcDbEntity
  8
0
370
    -3
  6
Continuous
100
AcDbLine
 10
-336.159068
 20
23.658806
 30
0.0
 11
-334.251348
 21
21.658806
 31
0.0
  0
ELLIPSE
  5
3D3
100
AcDbEntity
  8
0
370
    -3
  6
Continuous
100
AcDbEllipse
 10
-335.082379
 20
21.658806
 30
0.0
 11
0.0
 21
3.5
 31
0.0
210
0.0
220
0.0
230
1.0
 40
0.982815
 41
0.0
 42
6.2831853071795862
  0
ARC
  5
3D4
100
AcDbEntity
  8
0
370
    -3
  6
Continuous
100
AcDbCircle
 10
-321.852007
 20
16.908806
 30
0.0
 40
3.8
100
AcDbArc
 50
90.0
 51
138.609573
  0
ARC
  5
3D5
100
AcDbEntity
  8
0
370
    -3
  6
Continuous
100
AcDbCircle
 10
-334.619357
 20
21.158806
 30
0.0
 40
7.8
100
AcDbArc
 50
90.0
 51
180.0
  0
ARC
  5
3D6
100
AcDbEntity
  8
0
370
    -3
  6
Continuous
100
AcDbCircle
 10
-337.070543
 20
21.158806
 30
0.0
 40
7.8
100
AcDbArc
 50
90.0
 51
180.0
  0
LINE
  5
3D7
100
AcDbEntity
  8
0
370
    -3
  6
Continuous
100
AcDbLine
 10
-321.852007
 20
-56.391194
 30
0.0
 11
-266.35595
 21
-56.391194
 31
0.0
  0
LINE
  5
3D8
100
AcDbEntity
  8
0
370
    -3
  6
CENTER
100
AcDbLine
 10
-291.296483
 20
34.941025
 30
0.0
 11
-291.296483
 21
-71.986671
 31
0.0
  0
LINE
  5
3D9
100
AcDbEntity
  8
0
370
    -3
  6
Continuous
100
AcDbLine
 10
-365.296483
 20
142.559759
 30
0.0
 11
-365.296483
 21
127.559759
 31
0.0
  0
LINE
  5
3DA
100
AcDbEntity
  8
0
370
    -3
  6
Continuous
100
AcDbLine
 10
-365.296483
 20
142.559759
 30
0.0
 11
-365.296483
 21
157.559759
 31
0.0
  0
ARC
  5
3DB
100
AcDbEntity
  8
0
370
    -3
  6
Continuous
100
AcDbCircle
 10
-262.031572
 20
167.859759
 30
0.0
 40
0.3
100
AcDbArc
 50
193.342364
 51
270.0
  0
LINE
  5
3DC
100
AcDbEntity
  8
0
370
    -3
  6
Continuous
100
AcDbLine
 10
-309.313638
 20
175.559759
 30
0.0
 11
-317.971136
 21
175.559759
 31
0.0
  0
ARC
  5
3DD
100
AcDbEntity
  8
0
370
    -3
  6
Continuous
100
AcDbCircle
 10
-320.561394
 20
167.859759
 30
0.0
 40
0.3
100
AcDbArc
 50
270.0
 51
346.657636
  0
LINE
  5
3DE
100
AcDbEntity
  8
0
370
    -3
  6
Continuous
100
AcDbLine
 10
-322.296483
 20
169.559759
 30
0.0
 11
-260.296483
 21
169.559759
 31
0.0
  0
LINE
  5
3DF
100
AcDbEntity
  8
0
370
    -3
  6
Continuous
100
AcDbLine
 10
-291.296483
 20
169.559759
 30
0.0
 11
-322.296483
 21
169.559759
 31
0.0
  0
LINE
  5
3E0
100
AcDbEntity
  8
0
370
    -3
  6
Continuous
100
AcDbLine
 10
-291.296483
 20
169.559759
 30
0.0
 11
-260.296483
 21
169.559759
 31
0.0
  0
ARC
  5
3E1
100
AcDbEntity
  8
0
370
    -3
  6
Continuous
100
AcDbCircle
 10
-363.296483
 20
127.559759
 30
0.0
 40
2.0
100
AcDbArc
 50
180.0
 51
270.0
  0
LINE
  5
3E2
100
AcDbEntity
  8
0
370
    -3
  6
Continuous
100
AcDbLine
 10
-363.296483
 20
125.559759
 30
0.0
 11
-336.707198
 21
125.559759
 31
0.0
  0
ARC
  5
3E3
100
AcDbEntity
  8
0
370
    -3
  6
Continuous
100
AcDbCircle
 10
-363.296483
 20
157.559759
 30
0.0
 40
2.0
100
AcDbArc
 50
90.0
 51
180.0
  0
LINE
  5
3E4
100
AcDbEntity
  8
0
370
    -3
  6
Continuous
100
AcDbLine
 10
-363.296483
 20
159.559759
 30
0.0
 11
-336.296483
 21
159.559759
 31
0.0
  0
LINE
  5
3E5
100
AcDbEntity
  8
0
370
    -3
  6
Continuous
100
AcDbLine
 10
-338.296483
 20
142.559759
 30
0.0
 11
-338.296483
 21
159.559759
 31
0.0
  0
LINE
  5
3E6
100
AcDbEntity
  8
0
370
    -3
  6
Continuous
100
AcDbLine
 10
-338.296483
 20
142.559759
 30
0.0
 11
-338.296483
 21
125.559759
 31
0.0
  0
POINT
  5
3E7
100
AcDbEntity
  8
0
370
    -3
  6
CENTER
100
AcDbPoint
 10
-364.796483
 20
129.339259
 30
0.0
  0
POINT
  5
3E8
100
AcDbEntity
  8
0
370
    -3
  6
CENTER
100
AcDbPoint
 10
-364.796483
 20
155.780259
 30
0.0
  0
LINE
  5
3E9
100
AcDbEntity
  8
0
370
    -3
  6
Continuous
100
AcDbLine
 10
-319.777453
 20
174.945951
 30
0.0
 11
-319.777453
 21
174.059759
 31
0.0
  0
ARC
  5
3EA
100
AcDbEntity
  8
0
370
    -3
  6
Continuous
100
AcDbCircle
 10
-320.277453
 20
174.059759
 30
0.0
 40
0.5
100
AcDbArc
 50
270.0
 51
0.0
  0
ARC
  5
3EB
100
AcDbEntity
  8
0
370
    -3
  6
Continuous
100
AcDbCircle
 10
-309.277453
 20
174.059759
 30
0.0
 40
0.5
100
AcDbArc
 50
180.0
 51
270.0
  0
LINE
  5
3EC
100
AcDbEntity
  8
0
370
    -3
  6
Continuous
100
AcDbLine
 10
-309.777453
 20
175.059759
 30
0.0
 11
-309.777453
 21
174.059759
 31
0.0
  0
LINE
  5
3ED
100
AcDbEntity
  8
0
370
    -3
  6
Continuous
100
AcDbLine
 10
-310.277453
 20
175.559759
 30
0.0
 11
-318.478217
 21
175.559759
 31
0.0
  0
ARC
  5
3EE
100
AcDbEntity
  8
0
370
    -3
  6
Continuous
100
AcDbCircle
 10
-310.277453
 20
175.059759
 30
0.0
 40
0.5
100
AcDbArc
 50
0.0
 51
90.0
  0
ARC
  5
3EF
100
AcDbEntity
  8
0
370
    -3
  6
Continuous
100
AcDbCircle
 10
-274.315512
 20
174.059759
 30
0.0
 40
0.5
100
AcDbArc
 50
270.0
 51
0.0
  0
LINE
  5
3F0
100
AcDbEntity
  8
0
370
    -3
  6
Continuous
100
AcDbLine
 10
-273.815512
 20
175.059759
 30
0.0
 11
-273.815512
 21
174.059759
 31
0.0
  0
ARC
  5
3F1
100
AcDbEntity
  8
0
370
    -3
  6
Continuous
100
AcDbCircle
 10
-273.315512
 20
175.059759
 30
0.0
 40
0.5
100
AcDbArc
 50
90.0
 51
180.0
  0
ARC
  5
3F2
100
AcDbEntity
  8
0
370
    -3
  6
Continuous
100
AcDbCircle
 10
-263.315512
 20
174.059759
 30
0.0
 40
0.5
100
AcDbArc
 50
180.0
 51
270.0
  0
LINE
  5
3F3
100
AcDbEntity
  8
0
370
    -3
  6
Continuous
100
AcDbLine
 10
-263.815512
 20
175.059759
 30
0.0
 11
-263.815512
 21
174.059759
 31
0.0
  0
ARC
  5
3F4
100
AcDbEntity
  8
0
370
    -3
  6
Continuous
100
AcDbCircle
 10
-264.315512
 20
175.059759
 30
0.0
 40
0.5
100
AcDbArc
 50
0.0
 51
90.0
  0
LINE
  5
3F5
100
AcDbEntity
  8
0
370
    -3
  6
Continuous
100
AcDbLine
 10
-273.279327
 20
175.559759
 30
0.0
 11
-264.315512
 21
175.559759
 31
0.0
  0
ARC
  5
3F6
100
AcDbEntity
  8
0
370
    -3
  6
Continuous
100
AcDbCircle
 10
-273.256904
 20
176.059759
 30
0.0
 40
0.5
100
AcDbArc
 50
270.0
 51
352.874984
  0
LINE
  5
3F7
100
AcDbEntity
  8
0
370
    -3
  6
Continuous
100
AcDbLine
 10
-272.37026
 20
179.121777
 30
0.0
 11
-272.760765
 21
175.997742
 31
0.0
  0
ARC
  5
3F8
100
AcDbEntity
  8
0
370
    -3
  6
Continuous
100
AcDbCircle
 10
-264.374121
 20
176.059759
 30
0.0
 40
0.5
100
AcDbArc
 50
187.125016
 51
270.0
  0
LINE
  5
3F9
100
AcDbEntity
  8
0
370
    -3
  6
Continuous
100
AcDbLine
 10
-265.260765
 20
179.121777
 30
0.0
 11
-264.87026
 21
175.997742
 31
0.0
  0
ARC
  5
3FA
100
AcDbEntity
  8
0
370
    -3
  6
Continuous
100
AcDbCircle
 10
-265.756904
 20
179.059759
 30
0.0
 40
0.5
100
AcDbArc
 50
7.125016
 51
90.0
  0
ARC
  5
3FB
100
AcDbEntity
  8
0
370
    -3
  6
Continuous
100
AcDbCircle
 10
-271.874121
 20
179.059759
 30
0.0
 40
0.5
100
AcDbArc
 50
90.0
 51
172.874984
  0
LINE
  5
3FC
100
AcDbEntity
  8
0
370
    -3
  6
Continuous
100
AcDbLine
 10
-265.756904
 20
179.559759
 30
0.0
 11
-271.867991
 21
179.559759
 31
0.0
  0
ARC
  5
3FD
100
AcDbEntity
  8
0
370
    -3
  6
Continuous
100
AcDbCircle
 10
-310.336062
 20
176.059759
 30
0.0
 40
0.5
100
AcDbArc
 50
187.125016
 51
270.0
  0
LINE
  5
3FE
100
AcDbEntity
  8
0
370
    -3
  6
Continuous
100
AcDbLine
 10
-311.222705
 20
179.121777
 30
0.0
 11
-310.832201
 21
175.997742
 31
0.0
  0
ARC
  5
3FF
100
AcDbEntity
  8
0
370
    -3
  6
Continuous
100
AcDbCircle
 10
-311.718844
 20
179.059759
 30
0.0
 40
0.5
100
AcDbArc
 50
7.125016
 51
90.0
  0
LINE
  5
400
100
AcDbEntity
  8
0
370
    -3
  6
Continuous
100
AcDbLine
 10
-317.296483
 20
179.559759
 30
0.0
 11
-311.724975
 21
179.559759
 31
0.0
  0
LINE
  5
401
100
AcDbEntity
  8
0
370
    -3
  6
Continuous
100
AcDbLine
 10
-272.243797
 20
173.559759
 30
0.0
 11
-311.349169
 21
173.559759
 31
0.0
  0
LINE
  5
402
100
AcDbEntity
  8
0
370
    -3
  6
Continuous
100
AcDbLine
 10
-259.191739
 20
173.559759
 30
0.0
 11
-259.270982
 21
170.533583
 31
0.0
  0
LINE
  5
403
100
AcDbEntity
  8
0
370
    -3
  6
Continuous
100
AcDbLine
 10
-324.401227
 20
173.559759
 30
0.0
 11
-324.321983
 21
170.533583
 31
0.0
  0
ARC
  5
404
100
AcDbEntity
  8
0
370
    -3
  6
Continuous
100
AcDbCircle
 10
-323.322326
 20
170.559759
 30
0.0
 40
1.0
100
AcDbArc
 50
181.5
 51
270.0
  0
ARC
  5
405
100
AcDbEntity
  8
0
370
    -3
  6
Continuous
100
AcDbCircle
 10
-260.27064
 20
170.559759
 30
0.0
 40
1.0
100
AcDbArc
 50
270.0
 51
358.5
  0
LINE
  5
406
100
AcDbEntity
  8
0
370
    -3
  6
CENTER
100
AcDbLine
 10
-314.777453
 20
182.448618
 30
0.0
 11
-314.777453
 21
167.53512
 31
0.0
  0
LINE
  5
407
100
AcDbEntity
  8
0
370
    -3
  6
Continuous
100
AcDbLine
 10
-323.322326
 20
169.559759
 30
0.0
 11
-260.27064
 21
169.559759
 31
0.0
  0
LINE
  5
408
100
AcDbEntity
  8
0
370
    -3
  6
Continuous
100
AcDbLine
 10
-272.243797
 20
173.559759
 30
0.0
 11
-259.191739
 21
173.559759
 31
0.0
  0
LINE
  5
409
100
AcDbEntity
  8
0
370
    -3
  6
Continuous
100
AcDbLine
 10
-311.349169
 20
173.559759
 30
0.0
 11
-324.401227
 21
173.559759
 31
0.0
  0
LINE
  5
40A
100
AcDbEntity
  8
0
370
    -3
  6
CENTER
100
AcDbLine
 10
-268.815512
 20
182.869646
 30
0.0
 11
-268.815512
 21
167.53512
 31
0.0
  0
LINE
  5
40B
100
AcDbEntity
  8
0
370
    -3
  6
Continuous
100
AcDbLine
 10
-318.478217
 20
175.559759
 30
0.0
 11
-255.046483
 21
175.559759
 31
0.0
  0
LINE
  5
40C
100
AcDbEntity
  8
0
370
    -3
  6
Continuous
100
AcDbLine
 10
-255.046483
 20
177.065172
 30
0.0
 11
-255.046483
 21
175.559759
 31
0.0
  0
LINE
  5
40D
100
AcDbEntity
  8
0
370
    -3
  6
CENTER
100
AcDbLine
 10
-291.296483
 20
180.337177
 30
0.0
 11
-291.296483
 21
157.4272
 31
0.0
  0
ARC
  5
40E
100
AcDbEntity
  8
0
370
    -3
  6
Continuous
100
AcDbCircle
 10
-321.620789
 20
164.559759
 30
0.0
 40
3.0
100
AcDbArc
 50
90.0
 51
180.0
  0
LINE
  5
40F
100
AcDbEntity
  8
0
370
    -3
  6
Continuous
100
AcDbLine
 10
-324.620789
 20
131.195745
 30
0.0
 11
-324.620789
 21
164.559759
 31
0.0
  0
ARC
  5
410
100
AcDbEntity
  8
0
370
    -3
  6
Continuous
100
AcDbCircle
 10
-319.296483
 20
167.559759
 30
0.0
 40
1.0
100
AcDbArc
 50
90.0
 51
166.657636
  0
LINE
  5
411
100
AcDbEntity
  8
0
370
    -3
  6
Continuous
100
AcDbLine
 10
-329.496483
 20
167.559759
 30
0.0
 11
-259.858329
 21
167.559759
 31
0.0
  0
ARC
  5
412
100
AcDbEntity
  8
0
370
    -3
  6
Continuous
100
AcDbCircle
 10
-263.296483
 20
167.559759
 30
0.0
 40
1.0
100
AcDbArc
 50
13.342364
 51
90.0
  0
LINE
  5
413
100
AcDbEntity
  8
0
370
    -3
  6
Continuous
100
AcDbLine
 10
-255.508595
 20
163.42329
 30
0.0
 11
-256.41436
 21
165.365709
 31
0.0
  0
LINE
  5
414
100
AcDbEntity
  8
0
370
    -3
  6
Continuous
100
AcDbLine
 10
-336.296483
 20
125.751279
 30
0.0
 11
-336.296483
 21
160.759759
 31
0.0
  0
LINE
  5
415
100
AcDbEntity
  8
0
370
    -3
  6
Continuous
100
AcDbLine
 10
-336.707198
 20
125.559759
 30
0.0
 11
-344.870543
 21
121.753129
 31
0.0
  0
LINE
  5
416
100
AcDbEntity
  8
0
370
    -3
  6
Continuous
100
AcDbLine
 10
-248.258133
 20
166.804236
 30
0.0
 11
-336.707198
 21
125.559759
 31
0.0
  0
LINE
  5
417
100
AcDbEntity
  8
0
370
    -3
  6
Continuous
100
AcDbLine
 10
-267.109335
 20
158.013776
 30
0.0
 11
-270.537597
 21
165.365709
 31
0.0
  0
ARC
  5
418
100
AcDbEntity
  8
0
370
    -3
  6
Continuous
100
AcDbCircle
 10
-273.981567
 20
163.759759
 30
0.0
 40
3.8
100
AcDbArc
 50
25.0
 51
90.0
  0
ARC
  5
419
100
AcDbEntity
  8
0
370
    -3
  6
Continuous
100
AcDbCircle
 10
-548.122123
 20
218.245156
 30
0.0
 40
300.8
100
AcDbArc
 50
342.341575
 51
347.89975
  0
ARC
  5
41A
100
AcDbEntity
  8
0
370
    -3
  6
Continuous
100
AcDbCircle
 10
-296.878881
 20
719.742233
 30
0.0
 40
600.8
100
AcDbArc
 50
266.682408
 51
272.437505
  0
LINE
  5
41B
100
AcDbEntity
  8
0
370
    -3
  6
CENTER
100
AcDbLine
 10
-291.296483
 20
180.337177
 30
0.0
 11
-291.296483
 21
157.4272
 31
0.0
  0
ARC
  5
41C
100
AcDbEntity
  8
0
370
    -3
  6
Continuous
100
AcDbCircle
 10
-260.896666
 20
138.837745
 30
0.0
 40
2.8
100
AcDbArc
 50
344.545811
 51
25.0
  0
ARC
  5
41D
100
AcDbEntity
  8
0
370
    -3
  6
Continuous
100
AcDbCircle
 10
-325.315086
 20
121.162263
 30
0.0
 40
3.0
100
AcDbArc
 50
25.0
 51
115.0
  0
LINE
  5
41E
100
AcDbEntity
  8
0
370
    -3
  6
Continuous
100
AcDbLine
 10
-322.596163
 20
122.430118
 30
0.0
 11
-321.921133
 21
120.98251
 31
0.0
  0
ARC
  5
41F
100
AcDbEntity
  8
0
370
    -3
  6
Continuous
100
AcDbCircle
 10
-319.383471
 20
122.165841
 30
0.0
 40
2.8
100
AcDbArc
 50
205.0
 51
267.843273
  0
LINE
  5
420
100
AcDbEntity
  8
0
370
    -3
  6
Continuous
100
AcDbLine
 10
-258.359004
 20
140.021076
 30
0.0
 11
-263.094431
 21
150.176231
 31
0.0
  0
ARC
  5
421
100
AcDbEntity
  8
0
370
    -3
  6
Continuous
100
AcDbCircle
 10
-260.375507
 20
151.444086
 30
0.0
 40
3.0
100
AcDbArc
 50
115.0
 51
205.0
  0
LINE
  5
422
100
AcDbEntity
  8
0
370
    -3
  6
Continuous
100
AcDbLine
 10
-247.438301
 20
160.786938
 30
0.0
 11
-340.788003
 21
117.257257
 31
0.0
  0
LINE
  5
423
100
AcDbEntity
  8
0
370
    -3
  6
CENTER
100
AcDbLine
 10
-367.775106
 20
142.559759
 30
0.0
 11
-327.46862
 21
142.559759
 31
0.0
  0
LINE
  5
424
100
AcDbEntity
  8
0
370
    -3
  6
Continuous
100
AcDbLine
 10
-322.296483
 20
168.559759
 30
0.0
 11
-260.296483
 21
168.559759
 31
0.0
  0
LINE
  5
425
100
AcDbEntity
  8
0
370
    -3
  6
Continuous
100
AcDbLine
 10
-322.296483
 20
169.559759
 30
0.0
 11
-322.296483
 21
168.559759
 31
0.0
  0
LINE
  5
426
100
AcDbEntity
  8
0
370
    -3
  6
Continuous
100
AcDbLine
 10
-260.296483
 20
169.559759
 30
0.0
 11
-260.296483
 21
168.559759
 31
0.0
  0
ARC
  5
427
100
AcDbEntity
  8
0
370
    -3
  6
Continuous
100
AcDbCircle
 10
-254.456271
 20
156.43417
 30
0.0
 40
1.299999
100
AcDbArc
 50
204.999999
 51
278.398469
  0
LINE
  5
428
100
AcDbEntity
  8
0
370
    -3
  6
Continuous
100
AcDbLine
 10
-256.048225
 20
156.772065
 30
0.0
 11
-255.634471
 21
155.884766
 31
0.0
  0
ARC
  5
429
100
AcDbEntity
  8
0
370
    -3
  6
Continuous
100
AcDbCircle
 10
-255.580904
 20
164.051598
 30
0.0
 40
9.0
100
AcDbArc
 50
278.398469
 51
311.601548
  0
ARC
  5
42A
100
AcDbEntity
  8
0
370
    -3
  6
Continuous
100
AcDbCircle
 10
-250.468516
 20
158.293691
 30
0.0
 40
1.299999
100
AcDbArc
 50
311.601548
 51
25.000018
  0
LINE
  5
42B
100
AcDbEntity
  8
0
370
    -3
  6
CENTER
100
AcDbLine
 10
-254.133821
 20
160.948319
 30
0.0
 11
-251.263901
 21
154.793754
 31
0.0
  0
LINE
  5
42C
100
AcDbEntity
  8
0
370
    -3
  6
Continuous
100
AcDbLine
 10
-249.70407
 20
159.730392
 30
0.0
 11
-249.290316
 21
158.843094
 31
0.0
  0
ARC
  5
42D
100
AcDbEntity
  8
0
370
    -3
  6
Continuous
100
AcDbCircle
 10
-336.93028
 20
117.975908
 30
0.0
 40
1.299999
100
AcDbArc
 50
204.999999
 51
278.398469
  0
ARC
  5
42E
100
AcDbEntity
  8
0
370
    -3
  6
Continuous
100
AcDbCircle
 10
-332.942524
 20
119.835429
 30
0.0
 40
1.299999
100
AcDbArc
 50
311.601548
 51
25.000018
  0
LINE
  5
42F
100
AcDbEntity
  8
0
370
    -3
  6
Continuous
100
AcDbLine
 10
-338.522233
 20
118.313803
 30
0.0
 11
-338.108479
 21
117.426505
 31
0.0
  0
LINE
  5
430
100
AcDbEntity
  8
0
370
    -3
  6
Continuous
100
AcDbLine
 10
-332.178079
 20
121.272131
 30
0.0
 11
-331.764325
 21
120.384832
 31
0.0
  0
POINT
  5
431
100
AcDbEntity
  8
0
370
    -3
  6
Continuous
100
AcDbPoint
 10
-335.350156
 20
119.792967
 30
0.0
  0
ARC
  5
432
100
AcDbEntity
  8
0
370
    -3
  6
Continuous
100
AcDbCircle
 10
-338.054913
 20
125.593336
 30
0.0
 40
9.0
100
AcDbArc
 50
278.398469
 51
311.601548
  0
ARC
  5
433
100
AcDbEntity
  8
0
370
    -3
  6
Continuous
100
AcDbCircle
 10
-271.786388
 20
130.276062
 30
0.0
 40
10.8
100
AcDbArc
 50
272.437505
 51
342.341575
  0
LINE
  5
434
100
AcDbEntity
  8
0
370
    -3
  6
CENTER
100
AcDbLine
 10
-336.60783
 20
122.490057
 30
0.0
 11
-333.737909
 21
116.335493
 31
0.0
  0
POINT
  5
435
100
AcDbEntity
  8
0
370
    -3
  6
Continuous
100
AcDbPoint
 10
-252.899858
 20
158.240172
 30
0.0
  0
LINE
  5
436
100
AcDbEntity
  8
0
370
    -3
  6
CENTER
100
AcDbLine
 10
-254.133821
 20
160.948319
 30
0.0
 11
-251.263901
 21
154.793754
 31
0.0
  0
ARC
  5
437
100
AcDbEntity
  8
0
370
    -3
  6
Continuous
100
AcDbCircle
 10
-248.199014
 20
162.418292
 30
0.0
 40
1.8
100
AcDbArc
 50
295.0
 51
25.0
  0
LINE
  5
438
100
AcDbEntity
  8
0
370
    -3
  6
Continuous
100
AcDbLine
 10
-246.56766
 20
163.179005
 30
0.0
 11
-248.258133
 21
166.804236
 31
0.0
  0
ARC
  5
439
100
AcDbEntity
  8
0
370
    -3
  6
Continuous
100
AcDbCircle
 10
-341.548716
 20
118.888611
 30
0.0
 40
1.8
100
AcDbArc
 50
205.0
 51
295.0
  0
LINE
  5
43A
100
AcDbEntity
  8
0
370
    -3
  6
Continuous
100
AcDbLine
 10
-343.18007
 20
118.127898
 30
0.0
 11
-344.870543
 21
121.753129
 31
0.0
  0
ARC
  5
43B
100
AcDbEntity
  8
0
370
    -3
  6
Continuous
100
AcDbCircle
 10
-259.858329
 20
163.759759
 30
0.0
 40
3.8
100
AcDbArc
 50
25.0
 51
90.0
  0
ARC
  5
43C
100
AcDbEntity
  8
0
370
    -3
  6
Continuous
100
AcDbCircle
 10
-329.496483
 20
160.759759
 30
0.0
 40
6.8
100
AcDbArc
 50
90.0
 51
180.0
  0
ARC
  5
43D
100
AcDbEntity
  8
0
370
    -3
  6
Continuous
100
AcDbCircle
 10
-523.767631
 20
-49.367037
 30
0.0
 40
1.0
100
AcDbArc
 50
271.5
 51
0.0
  0
LINE
  5
43E
100
AcDbEntity
  8
0
370
    -3
  6
Continuous
100
AcDbLine
 10
-526.767631
 20
-50.445938
 30
0.0
 11
-523.741454
 21
-50.366694
 31
0.0
  0
LINE
  5
43F
100
AcDbEntity
  8
0
370
    -3
  6
Continuous
100
AcDbLine
 10
-526.767631
 20
-46.943052
 30
0.0
 11
-526.767631
 21
-50.445938
 31
0.0
  0
LINE
  5
440
100
AcDbEntity
  8
0
370
    -3
  6
Continuous
100
AcDbLine
 10
-526.767631
 20
14.76355
 30
0.0
 11
-523.741454
 21
14.684307
 31
0.0
  0
ARC
  5
441
100
AcDbEntity
  8
0
370
    -3
  6
Continuous
100
AcDbCircle
 10
-523.767631
 20
13.684649
 30
0.0
 40
1.0
100
AcDbArc
 50
0.0
 51
88.5
  0
LINE
  5
442
100
AcDbEntity
  8
0
370
    -3
  6
Continuous
100
AcDbLine
 10
-522.767631
 20
-49.367037
 30
0.0
 11
-522.767631
 21
13.684649
 31
0.0
  0
LINE
  5
443
100
AcDbEntity
  8
0
370
    -3
  6
Continuous
100
AcDbLine
 10
-526.767631
 20
11.260665
 30
0.0
 11
-526.767631
 21
14.76355
 31
0.0
  0
ARC
  5
444
100
AcDbEntity
  8
0
370
    -3
  6
Continuous
100
AcDbCircle
 10
-495.767631
 20
-17.841194
 30
0.0
 40
14.0
100
AcDbArc
 50
180.0
 51
360.0
  0
ARC
  5
445
100
AcDbEntity
  8
0
370
    -3
  6
Continuous
100
AcDbCircle
 10
-495.767631
 20
-17.841194
 30
0.0
 40
9.3155
100
AcDbArc
 50
180.0
 51
360.0
  0
ARC
  5
446
100
AcDbEntity
  8
0
370
    -3
  6
Continuous
100
AcDbCircle
 10
-495.767631
 20
-17.841194
 30
0.0
 40
10.4775
100
AcDbArc
 50
180.0
 51
360.0
  0
ARC
  5
447
100
AcDbEntity
  8
0
370
    -3
  6
Continuous
100
AcDbCircle
 10
-495.767631
 20
-17.841194
 30
0.0
 40
14.0
100
AcDbArc
 50
180.0
 51
360.0
  0
ARC
  5
448
100
AcDbEntity
  8
0
370
    -3
  6
Continuous
100
AcDbCircle
 10
-495.767631
 20
-17.841194
 30
0.0
 40
9.3155
100
AcDbArc
 50
180.0
 51
360.0
  0
ARC
  5
449
100
AcDbEntity
  8
0
370
    -3
  6
Continuous
100
AcDbCircle
 10
-495.767631
 20
-17.841194
 30
0.0
 40
10.4775
100
AcDbArc
 50
180.0
 51
360.0
  0
LINE
  5
44A
100
AcDbEntity
  8
0
370
    -3
  6
CENTER
100
AcDbLine
 10
-495.767631
 20
0.803739
 30
0.0
 11
-495.767631
 21
-39.141651
 31
0.0
  0
ARC
  5
44B
100
AcDbEntity
  8
0
370
    -3
  6
Continuous
100
AcDbCircle
 10
-495.767631
 20
-17.841194
 30
0.0
 40
14.0
100
AcDbArc
 50
0.0
 51
180.0
  0
ARC
  5
44C
100
AcDbEntity
  8
0
370
    -3
  6
Continuous
100
AcDbCircle
 10
-495.767631
 20
-17.841194
 30
0.0
 40
9.3155
100
AcDbArc
 50
0.0
 51
180.0
  0
ARC
  5
44D
100
AcDbEntity
  8
0
370
    -3
  6
Continuous
100
AcDbCircle
 10
-495.767631
 20
-17.841194
 30
0.0
 40
10.4775
100
AcDbArc
 50
0.0
 51
180.0
  0
ARC
  5
44E
100
AcDbEntity
  8
0
370
    -3
  6
Continuous
100
AcDbCircle
 10
-512.212108
 20
-56.841194
 30
0.0
 40
7.8
100
AcDbArc
 50
180.0
 51
270.0
  0
LINE
  5
44F
100
AcDbEntity
  8
0
370
    -3
  6
Continuous
100
AcDbLine
 10
-482.299096
 20
-63.841194
 30
0.0
 11
-512.674013
 21
-63.841194
 31
0.0
  0
ARC
  5
450
100
AcDbEntity
  8
0
370
    -3
  6
Continuous
100
AcDbCircle
 10
-482.299096
 20
-56.841194
 30
0.0
 40
7.0
100
AcDbArc
 50
270.0
 51
0.0
  0
ARC
  5
451
100
AcDbEntity
  8
0
370
    -3
  6
Continuous
100
AcDbCircle
 10
-482.761001
 20
-56.841194
 30
0.0
 40
7.8
100
AcDbArc
 50
270.0
 51
0.0
  0
ARC
  5
452
100
AcDbEntity
  8
0
370
    -3
  6
Continuous
100
AcDbCircle
 10
-478.096483
 20
-56.841194
 30
0.0
 40
7.8
100
AcDbArc
 50
270.0
 51
0.0
  0
ELLIPSE
  5
453
100
AcDbEntity
  8
0
370
    -3
  6
Continuous
100
AcDbEllipse
 10
-472.181891
 20
-57.341194
 30
0.0
 11
0.0
 21
3.5
 31
0.0
210
0.0
220
0.0
230
1.0
 40
0.656603
 41
3.5746436290433174
 42
5.3210459426689347
  0
LINE
  5
454
100
AcDbEntity
  8
0
370
    -3
  6
Continuous
100
AcDbLine
 10
-478.096483
 20
-64.641194
 30
0.0
 11
-512.212108
 21
-64.641194
 31
0.0
  0
LINE
  5
455
100
AcDbEntity
  8
0
370
    -3
  6
Continuous
100
AcDbLine
 10
-475.299096
 20
-17.841194
 30
0.0
 11
-475.299096
 21
-56.841194
 31
0.0
  0
LINE
  5
456
100
AcDbEntity
  8
0
370
    -3
  6
Continuous
100
AcDbLine
 10
-470.296483
 20
-56.841194
 30
0.0
 11
-470.296483
 21
-17.841194
 31
0.0
  0
LINE
  5
457
100
AcDbEntity
  8
0
370
    -3
  6
Continuous
100
AcDbLine
 10
-522.767631
 20
-17.841194
 30
0.0
 11
-522.767631
 21
-48.841194
 31
0.0
  0
LINE
  5
458
100
AcDbEntity
  8
0
370
    -3
  6
Continuous
100
AcDbLine
 10
-521.767631
 20
-48.841194
 30
0.0
 11
-521.767631
 21
-17.841194
 31
0.0
  0
LINE
  5
459
100
AcDbEntity
  8
0
370
    -3
  6
Continuous
100
AcDbLine
 10
-522.767631
 20
-48.841194
 30
0.0
 11
-521.767631
 21
-48.841194
 31
0.0
  0
ARC
  5
45A
100
AcDbEntity
  8
0
370
    -3
  6
Continuous
100
AcDbCircle
 10
-512.674013
 20
-56.841194
 30
0.0
 40
7.0
100
AcDbArc
 50
180.0
 51
270.0
  0
LINE
  5
45B
100
AcDbEntity
  8
0
370
    -3
  6
Continuous
100
AcDbLine
 10
-521.767631
 20
-17.841194
 30
0.0
 11
-521.767631
 21
-45.841194
 31
0.0
  0
LINE
  5
45C
100
AcDbEntity
  8
0
370
    -3
  6
Continuous
100
AcDbLine
 10
-476.531719
 20
-17.841194
 30
0.0
 11
-476.531719
 21
-43.900227
 31
0.0
  0
LINE
  5
45D
100
AcDbEntity
  8
0
370
    -3
  6
Continuous
100
AcDbLine
 10
-513.967631
 20
-57.141194
 30
0.0
 11
-484.334773
 21
-57.141194
 31
0.0
  0
LINE
  5
45E
100
AcDbEntity
  8
0
370
    -3
  6
Continuous
100
AcDbLine
 10
-476.833215
 20
-45.383624
 30
0.0
 11
-480.836268
 21
-54.824591
 31
0.0
  0
ARC
  5
45F
100
AcDbEntity
  8
0
370
    -3
  6
Continuous
100
AcDbCircle
 10
-480.331719
 20
-43.900227
 30
0.0
 40
3.8
100
AcDbArc
 50
337.022625
 51
0.0
  0
ARC
  5
460
100
AcDbEntity
  8
0
370
    -3
  6
Continuous
100
AcDbCircle
 10
-484.334773
 20
-53.341194
 30
0.0
 40
3.8
100
AcDbArc
 50
270.0
 51
337.022625
  0
LINE
  5
461
100
AcDbEntity
  8
0
370
    -3
  6
Continuous
100
AcDbLine
 10
-520.767631
 20
-17.841194
 30
0.0
 11
-520.767631
 21
-50.341194
 31
0.0
  0
ARC
  5
462
100
AcDbEntity
  8
0
370
    -3
  6
Continuous
100
AcDbCircle
 10
-513.967631
 20
-50.341194
 30
0.0
 40
6.8
100
AcDbArc
 50
180.0
 51
270.0
  0
LINE
  5
463
100
AcDbEntity
  8
0
370
    -3
  6
Continuous
100
AcDbLine
 10
-517.257518
 20
-56.292382
 30
0.0
 11
-517.257518
 21
-57.341194
 31
0.0
  0
ARC
  5
464
100
AcDbEntity
  8
0
370
    -3
  6
Continuous
100
AcDbCircle
 10
-511.257518
 20
-57.341194
 30
0.0
 40
6.0
100
AcDbArc
 50
180.0
 51
270.0
  0
ARC
  5
465
100
AcDbEntity
  8
0
370
    -3
  6
Continuous
100
AcDbCircle
 10
-521.067631
 20
-47.106105
 30
0.0
 40
0.3
100
AcDbArc
 50
0.0
 51
76.657636
  0
ARC
  5
466
100
AcDbEntity
  8
0
370
    -3
  6
Continuous
100
AcDbCircle
 10
-520.767631
 20
-45.841194
 30
0.0
 40
1.0
100
AcDbArc
 50
180.0
 51
256.657636
  0
LINE
  5
467
100
AcDbEntity
  8
0
370
    -3
  6
CENTER
100
AcDbLine
 10
-478.656367
 20
-57.341194
 30
0.0
 11
-474.211609
 21
-57.341194
 31
0.0
  0
LINE
  5
468
100
AcDbEntity
  8
0
370
    -3
  6
CENTER
100
AcDbLine
 10
-476.263546
 20
-60.206053
 30
0.0
 11
-476.263546
 21
-54.594663
 31
0.0
  0
ELLIPSE
  5
469
100
AcDbEntity
  8
0
370
    -3
  6
Continuous
100
AcDbEllipse
 10
-476.263546
 20
-57.341194
 30
0.0
 11
0.0
 21
1.6500000000000057
 31
0.0
210
0.0
220
0.0
230
1.0
 40
0.422618
 41
0.0
 42
6.2831853071795862
  0
ELLIPSE
  5
46A
100
AcDbEntity
  8
0
370
    -3
  6
Continuous
100
AcDbEllipse
 10
-476.263546
 20
-57.341194
 30
0.0
 11
0.0
 21
2.0
 31
0.0
210
0.0
220
0.0
230
1.0
 40
0.422618
 41
0.0
 42
6.2831853071795862
  0
LINE
  5
46B
100
AcDbEntity
  8
0
370
    -3
  6
Continuous
100
AcDbLine
 10
-519.674013
 20
-54.039464
 30
0.0
 11
-519.674013
 21
-56.841194
 31
0.0
  0
LINE
  5
46C
100
AcDbEntity
  8
0
370
    -3
  6
Continuous
100
AcDbLine
 10
-520.012108
 20
-56.841194
 30
0.0
 11
-520.012108
 21
-53.456367
 31
0.0
  0
LINE
  5
46D
100
AcDbEntity
  8
0
370
    -3
  6
Continuous
100
AcDbLine
 10
-511.257518
 20
-63.341194
 30
0.0
 11
-479.70102
 21
-63.341194
 31
0.0
  0
LINE
  5
46E
100
AcDbEntity
  8
0
370
    -3
  6
Continuous
100
AcDbLine
 10
-474.961001
 20
-17.841194
 30
0.0
 11
-474.961001
 21
-56.841194
 31
0.0
  0
LINE
  5
46F
100
AcDbEntity
  8
0
370
    -3
  6
CENTER
100
AcDbLine
 10
-495.767631
 20
0.803739
 30
0.0
 11
-495.767631
 21
-39.141651
 31
0.0
  0
ARC
  5
470
100
AcDbEntity
  8
0
370
    -3
  6
Continuous
100
AcDbCircle
 10
-512.212108
 20
21.158806
 30
0.0
 40
7.8
100
AcDbArc
 50
90.0
 51
180.0
  0
LINE
  5
471
100
AcDbEntity
  8
0
370
    -3
  6
Continuous
100
AcDbLine
 10
-482.299096
 20
28.158806
 30
0.0
 11
-512.674013
 21
28.158806
 31
0.0
  0
ARC
  5
472
100
AcDbEntity
  8
0
370
    -3
  6
Continuous
100
AcDbCircle
 10
-482.299096
 20
21.158806
 30
0.0
 40
7.0
100
AcDbArc
 50
0.0
 51
90.0
  0
ARC
  5
473
100
AcDbEntity
  8
0
370
    -3
  6
Continuous
100
AcDbCircle
 10
-482.761001
 20
21.158806
 30
0.0
 40
7.8
100
AcDbArc
 50
0.0
 51
90.0
  0
ARC
  5
474
100
AcDbEntity
  8
0
370
    -3
  6
Continuous
100
AcDbCircle
 10
-478.096483
 20
21.158806
 30
0.0
 40
7.8
100
AcDbArc
 50
0.0
 51
90.0
  0
ELLIPSE
  5
475
100
AcDbEntity
  8
0
370
    -3
  6
Continuous
100
AcDbEllipse
 10
-472.181891
 20
21.658806
 30
0.0
 11
0.0
 21
3.5
 31
0.0
210
0.0
220
0.0
230
1.0
 40
0.656603
 41
4.1037320181003913
 42
5.8501343317260348
  0
LINE
  5
476
100
AcDbEntity
  8
0
370
    -3
  6
Continuous
100
AcDbLine
 10
-478.096483
 20
28.958806
 30
0.0
 11
-512.212108
 21
28.958806
 31
0.0
  0
LINE
  5
477
100
AcDbEntity
  8
0
370
    -3
  6
Continuous
100
AcDbLine
 10
-475.299096
 20
-17.841194
 30
0.0
 11
-475.299096
 21
21.158806
 31
0.0
  0
LINE
  5
478
100
AcDbEntity
  8
0
370
    -3
  6
Continuous
100
AcDbLine
 10
-470.296483
 20
21.158806
 30
0.0
 11
-470.296483
 21
-17.841194
 31
0.0
  0
LINE
  5
479
100
AcDbEntity
  8
0
370
    -3
  6
Continuous
100
AcDbLine
 10
-522.767631
 20
-17.841194
 30
0.0
 11
-522.767631
 21
13.158806
 31
0.0
  0
LINE
  5
47A
100
AcDbEntity
  8
0
370
    -3
  6
Continuous
100
AcDbLine
 10
-521.767631
 20
13.158806
 30
0.0
 11
-521.767631
 21
-17.841194
 31
0.0
  0
LINE
  5
47B
100
AcDbEntity
  8
0
370
    -3
  6
Continuous
100
AcDbLine
 10
-522.767631
 20
13.158806
 30
0.0
 11
-521.767631
 21
13.158806
 31
0.0
  0
ARC
  5
47C
100
AcDbEntity
  8
0
370
    -3
  6
Continuous
100
AcDbCircle
 10
-512.674013
 20
21.158806
 30
0.0
 40
7.0
100
AcDbArc
 50
90.0
 51
180.0
  0
LINE
  5
47D
100
AcDbEntity
  8
0
370
    -3
  6
Continuous
100
AcDbLine
 10
-521.767631
 20
-17.841194
 30
0.0
 11
-521.767631
 21
10.158806
 31
0.0
  0
LINE
  5
47E
100
AcDbEntity
  8
0
370
    -3
  6
Continuous
100
AcDbLine
 10
-476.531719
 20
-17.841194
 30
0.0
 11
-476.531719
 21
8.21784
 31
0.0
  0
LINE
  5
47F
100
AcDbEntity
  8
0
370
    -3
  6
Continuous
100
AcDbLine
 10
-513.967631
 20
21.458806
 30
0.0
 11
-484.334773
 21
21.458806
 31
0.0
  0
LINE
  5
480
100
AcDbEntity
  8
0
370
    -3
  6
Continuous
100
AcDbLine
 10
-476.833215
 20
9.701236
 30
0.0
 11
-480.836268
 21
19.142203
 31
0.0
  0
ARC
  5
481
100
AcDbEntity
  8
0
370
    -3
  6
Continuous
100
AcDbCircle
 10
-480.331719
 20
8.21784
 30
0.0
 40
3.8
100
AcDbArc
 50
360.0
 51
22.977375
  0
ARC
  5
482
100
AcDbEntity
  8
0
370
    -3
  6
Continuous
100
AcDbCircle
 10
-484.334773
 20
17.658806
 30
0.0
 40
3.8
100
AcDbArc
 50
22.977375
 51
90.0
  0
LINE
  5
483
100
AcDbEntity
  8
0
370
    -3
  6
Continuous
100
AcDbLine
 10
-520.767631
 20
-17.841194
 30
0.0
 11
-520.767631
 21
14.658806
 31
0.0
  0
ARC
  5
484
100
AcDbEntity
  8
0
370
    -3
  6
Continuous
100
AcDbCircle
 10
-513.967631
 20
14.658806
 30
0.0
 40
6.8
100
AcDbArc
 50
90.0
 51
180.0
  0
LINE
  5
485
100
AcDbEntity
  8
0
370
    -3
  6
Continuous
100
AcDbLine
 10
-517.257518
 20
20.609995
 30
0.0
 11
-517.257518
 21
21.658806
 31
0.0
  0
ARC
  5
486
100
AcDbEntity
  8
0
370
    -3
  6
Continuous
100
AcDbCircle
 10
-511.257518
 20
21.658806
 30
0.0
 40
6.0
100
AcDbArc
 50
90.0
 51
180.0
  0
ARC
  5
487
100
AcDbEntity
  8
0
370
    -3
  6
Continuous
100
AcDbCircle
 10
-521.067631
 20
11.423717
 30
0.0
 40
0.3
100
AcDbArc
 50
283.342364
 51
0.0
  0
ARC
  5
488
100
AcDbEntity
  8
0
370
    -3
  6
Continuous
100
AcDbCircle
 10
-520.767631
 20
10.158806
 30
0.0
 40
1.0
100
AcDbArc
 50
103.342364
 51
180.0
  0
LINE
  5
489
100
AcDbEntity
  8
0
370
    -3
  6
CENTER
100
AcDbLine
 10
-478.656367
 20
21.658806
 30
0.0
 11
-474.211609
 21
21.658806
 31
0.0
  0
LINE
  5
48A
100
AcDbEntity
  8
0
370
    -3
  6
CENTER
100
AcDbLine
 10
-476.263546
 20
24.523665
 30
0.0
 11
-476.263546
 21
18.912275
 31
0.0
  0
ELLIPSE
  5
48B
100
AcDbEntity
  8
0
370
    -3
  6
Continuous
100
AcDbEllipse
 10
-476.263546
 20
21.658806
 30
0.0
 11
0.0
 21
1.6500000000000057
 31
0.0
210
0.0
220
0.0
230
1.0
 40
0.422618
 41
0.0
 42
6.2831853071795862
  0
ELLIPSE
  5
48C
100
AcDbEntity
  8
0
370
    -3
  6
Continuous
100
AcDbEllipse
 10
-476.263546
 20
21.658806
 30
0.0
 11
0.0
 21
2.0
 31
0.0
210
0.0
220
0.0
230
1.0
 40
0.422618
 41
0.0
 42
6.2831853071795862
  0
LINE
  5
48D
100
AcDbEntity
  8
0
370
    -3
  6
Continuous
100
AcDbLine
 10
-519.674013
 20
18.357076
 30
0.0
 11
-519.674013
 21
21.158806
 31
0.0
  0
LINE
  5
48E
100
AcDbEntity
  8
0
370
    -3
  6
Continuous
100
AcDbLine
 10
-520.012108
 20
21.158806
 30
0.0
 11
-520.012108
 21
17.773979
 31
0.0
  0
LINE
  5
48F
100
AcDbEntity
  8
0
370
    -3
  6
Continuous
100
AcDbLine
 10
-511.257518
 20
27.658806
 30
0.0
 11
-479.70102
 21
27.658806
 31
0.0
  0
LINE
  5
490
100
AcDbEntity
  8
0
370
    -3
  6
Continuous
100
AcDbLine
 10
-474.961001
 20
-17.841194
 30
0.0
 11
-474.961001
 21
21.158806
 31
0.0
  0
ARC
  5
491
100
AcDbEntity
  8
0
370
    -3
  6
Continuous
100
AcDbCircle
 10
-495.767631
 20
-17.841194
 30
0.0
 40
14.0
100
AcDbArc
 50
0.0
 51
180.0
  0
ARC
  5
492
100
AcDbEntity
  8
0
370
    -3
  6
Continuous
100
AcDbCircle
 10
-495.767631
 20
-17.841194
 30
0.0
 40
9.3155
100
AcDbArc
 50
0.0
 51
180.0
  0
ARC
  5
493
100
AcDbEntity
  8
0
370
    -3
  6
Continuous
100
AcDbCircle
 10
-495.767631
 20
-17.841194
 30
0.0
 40
10.4775
100
AcDbArc
 50
0.0
 51
180.0
  0
LINE
  5
494
100
AcDbEntity
  8
0
370
    -3
  6
Continuous
100
AcDbLine
 10
-513.967631
 20
-44.672565
 30
0.0
 11
-476.611035
 21
-44.672565
 31
0.0
  0
ARC
  5
495
100
AcDbEntity
  8
0
370
    -3
  6
Continuous
100
AcDbCircle
 10
-513.967631
 20
-37.872565
 30
0.0
 40
6.8
100
AcDbArc
 50
180.0
 51
270.0
  0
ARC
  5
496
100
AcDbEntity
  8
0
370
    -3
  6
Continuous
100
AcDbCircle
 10
-513.967631
 20
2.190177
 30
0.0
 40
6.8
100
AcDbArc
 50
90.0
 51
180.0
  0
LINE
  5
497
100
AcDbEntity
  8
0
370
    -3
  6
Continuous
100
AcDbLine
 10
-513.967631
 20
8.990177
 30
0.0
 11
-476.611035
 21
8.990177
 31
0.0
  0
MTEXT
  5
498
100
AcDbEntity
  8
0
370
    -3
  6
Continuous
100
AcDbMText
 10
-636.974243
 20
174.766861
 30
0.0
 40
15.0
 41
0.0
 71
     7
 72
     1
  1
\W0.43;DATE\W0.72; \W0.43;2011.12.29
  7
ZU_SHPTB00001
 11
1.0
 21
0.0
 31
0.0
 73
     1
 44
1.0
  0
ENDSEC
  0
SECTION
  2
OBJECTS
  0
DICTIONARY
  5
19
100
AcDbDictionary
280
     0
281
     1
  3
ACAD_GROUP
350
1A
  3
ACAD_MLINESTYLE
350
1B
  3
ACAD_LAYOUT
350
1E
  3
ACAD_PLOTSETTINGS
350
22
  3
ACAD_PLOTSTYLENAME
350
1F
  3
ACAD_WIPEOUT_VARS
350
23
  3
DWGPROPS
350
499
  0
DICTIONARY
  5
1A
102
{ACAD_REACTORS
330
19
102
}
100
AcDbDictionary
280
     0
281
     1
  0
DICTIONARY
  5
1B
102
{ACAD_REACTORS
330
19
102
}
100
AcDbDictionary
280
     0
281
     1
  3
Standard
350
1C
  0
MLINESTYLE
  5
1C
102
{ACAD_REACTORS
330
1B
102
}
100
AcDbMlineStyle
  2
Standard
 70
     0
  3

 62
     0
 51
90.0
 52
90.0
 71
     2
 49
0.5
 62
   256
  6
ByLayer
 49
-0.5
 62
   256
  6
ByLayer
  0
ACDBDICTIONARYWDFLT
  5
1F
102
{ACAD_REACTORS
330
19
102
}
100
AcDbDictionary
281
     1
  3
Normal
350
1D
100
AcDbDictionaryWithDefault
340
1D
  0
ACDBPLACEHOLDER
  5
1D
102
{ACAD_REACTORS
330
1F
102
}
  0
LAYOUT
  5
20
102
{ACAD_REACTORS
330
1E
102
}
100
AcDbPlotSettings
  1

  2

  4

  6

 40
0.0
 41
0.0
 42
0.0
 43
0.0
 44
0.0
 45
0.0
 46
0.0
 47
0.0
 48
0.0
 49
0.0
140
0.0
141
0.0
142
1.0
143
1.0
 70
  1024
 72
     0
 73
     0
 74
     0
  7

 75
     0
147
1.0
148
0.0
149
0.0
100
AcDbLayout
  1
Model
 70
     0
 71
     0
 10
0.0
 20
0.0
 11
0.0
 21
0.0
 12
0.0
 22
0.0
 32
0.0
 14
0.0
 24
0.0
 34
0.0
 15
0.0
 25
0.0
 35
0.0
146
0.0
 13
0.0
 23
0.0
 33
0.0
 16
0.0
 26
0.0
 36
0.0
 17
0.0
 27
0.0
 37
0.0
 76
     0
330
A
331
0
345
0
346
0
  0
LAYOUT
  5
21
102
{ACAD_REACTORS
330
1E
102
}
100
AcDbPlotSettings
  1

  2

  4

  6

 40
0.0
 41
0.0
 42
0.0
 43
0.0
 44
0.0
 45
0.0
 46
0.0
 47
0.0
 48
0.0
 49
0.0
140
0.0
141
0.0
142
1.0
143
1.0
 70
     0
 72
     0
 73
     0
 74
     0
  7

 75
     0
147
1.0
148
0.0
149
0.0
100
AcDbLayout
  1
Layout1
 70
     0
 71
     0
 10
0.0
 20
0.0
 11
0.0
 21
0.0
 12
0.0
 22
0.0
 32
0.0
 14
0.0
 24
0.0
 34
0.0
 15
0.0
 25
0.0
 35
0.0
146
0.0
 13
0.0
 23
0.0
 33
0.0
 16
0.0
 26
0.0
 36
0.0
 17
0.0
 27
0.0
 37
0.0
 76
     0
330
B
331
0
345
0
346
0
  0
DICTIONARY
  5
1E
102
{ACAD_REACTORS
330
19
102
}
100
AcDbDictionary
280
     0
281
     1
  3
Layout1
350
21
  3
Model
350
20
  0
DICTIONARY
  5
22
102
{ACAD_REACTORS
330
19
102
}
100
AcDbDictionary
280
     0
281
     1
  0
WIPEOUTVARIABLES
  5
23
100
AcDbWipeoutVariables
 70
     1
  0
XRECORD
  5
499
100
AcDbXrecord
280
     1
  1
DWGPROPS COOKIE
  2

  3

  4

  6

  7

  8
HK96464
  9

300
=
301
=
302
=
303
=
304
=
305
=
306
=
307
=
308
=
309
=
 40
0.0
 41
2455931.62816
 42
2455931.62816
  1

 90
        0
  0
ENDSEC
  0
EOF
