  0
SECTION
  2
HEADER
  9
$ACADVER
  1
AC1015
  9
$ACADMAINTVER
 70
     6
  9
$DWGCODEPAGE
  3
ANSI_932
  9
$INSBASE
 10
0.0
 20
0.0
 30
0.0
  9
$EXTMIN
 10
1.000000E+20
 20
1.000000E+20
 30
1.000000E+20
  9
$EXTMAX
 10
-1.000000E+20
 20
-1.000000E+20
 30
-1.000000E+20
  9
$LIMMIN
 10
0.0
 20
0.0
  9
$LIMMAX
 10
0.0
 20
0.0
  9
$ORTHOMODE
 70
     0
  9
$REGENMODE
 70
     1
  9
$FILLMODE
 70
     1
  9
$QTEXTMODE
 70
     0
  9
$MIRRTEXT
 70
     1
  9
$LTSCALE
 40
1.0
  9
$ATTMODE
 70
     1
  9
$TEXTSIZE
 40
7.0
  9
$TRACEWID
 40
0.05
  9
$TEXTSTYLE
  7
Standard
  9
$CLAYER
  8
0
  9
$CELTYPE
  6
Continuous
  9
$CECOLOR
 62
   256
  9
$CELTSCALE
 40
1.0
  9
$DISPSILH
 70
     0
  9
$DIMSCALE
 40
1.0
  9
$DIMASZ
 40
1.931852
  9
$DIMEXO
 40
1.0
  9
$DIMDLI
 40
0.38
  9
$DIMRND
 40
0.0
  9
$DIMDLE
 40
0.0
  9
$DIMEXE
 40
2.0
  9
$DIMTP
 40
0.0
  9
$DIMTM
 40
0.0
  9
$DIMTXT
 40
10.0
  9
$DIMCEN
 40
0.09
  9
$DIMTSZ
 40
0.0
  9
$DIMTOL
 70
     0
  9
$DIMLIM
 70
     0
  9
$DIMTIH
 70
     1
  9
$DIMTOH
 70
     1
  9
$DIMSE1
 70
     0
  9
$DIMSE2
 70
     0
  9
$DIMTAD
 70
     1
  9
$DIMZIN
 70
     0
  9
$DIMBLK
  1

  9
$DIMASO
 70
     1
  9
$DIMSHO
 70
     1
  9
$DIMPOST
  1

  9
$DIMAPOST
  1

  9
$DIMALT
 70
     0
  9
$DIMALTD
 70
     2
  9
$DIMALTF
 40
25.4
  9
$DIMLFAC
 40
1.0
  9
$DIMTOFL
 70
     0
  9
$DIMTVP
 40
0.0
  9
$DIMTIX
 70
     0
  9
$DIMSOXD
 70
     0
  9
$DIMSAH
 70
     0
  9
$DIMBLK1
  1

  9
$DIMBLK2
  1

  9
$DIMSTYLE
  2
Standard
  9
$DIMCLRD
 70
     0
  9
$DIMCLRE
 70
     0
  9
$DIMCLRT
 70
     0
  9
$DIMTFAC
 40
0.714286
  9
$DIMGAP
 40
0.09
  9
$DIMJUST
 70
     0
  9
$DIMSD1
 70
     0
  9
$DIMSD2
 70
     0
  9
$DIMTOLJ
 70
     1
  9
$DIMTZIN
 70
     0
  9
$DIMALTZ
 70
     0
  9
$DIMALTTZ
 70
     0
  9
$DIMUPT
 70
     0
  9
$DIMDEC
 70
     4
  9
$DIMTDEC
 70
     4
  9
$DIMALTU
 70
     2
  9
$DIMALTTD
 70
     2
  9
$DIMTXSTY
  7
Standard
  9
$DIMAUNIT
 70
     0
  9
$DIMADEC
 70
     0
  9
$DIMALTRND
 40
0.0
  9
$DIMAZIN
 70
     0
  9
$DIMDSEP
 70
     0
  9
$DIMATFIT
 70
     3
  9
$DIMFRAC
 70
     0
  9
$DIMLDRBLK
  1

  9
$DIMLUNIT
 70
     2
  9
$DIMLWD
 70
     0
  9
$DIMLWE
 70
     0
  9
$DIMTMOVE
 70
     0
  9
$LUNITS
 70
     2
  9
$LUPREC
 70
     3
  9
$SKETCHINC
 40
0.1
  9
$FILLETRAD
 40
0.0
  9
$AUNITS
 70
     0
  9
$AUPREC
 70
     0
  9
$MENU
  1
acad
  9
$ELEVATION
 40
0.0
  9
$PELEVATION
 40
0.0
  9
$THICKNESS
 40
0.0
  9
$LIMCHECK
 70
     0
  9
$CHAMFERA
 40
0.0
  9
$CHAMFERB
 40
0.0
  9
$CHAMFERC
 40
0.0
  9
$CHAMFERD
 40
0.0
  9
$SKPOLY
 70
     0
  9
$TDCREATE
 40
0.000000000
  9
$TDUCREATE
 40
0.000000000
  9
$TDUPDATE
 40
0.000000000
  9
$TDUUPDATE
 40
0.000000000
  9
$TDINDWG
 40
0.0000000000
  9
$TDUSRTIMER
 40
0.0000000000
  9
$USRTIMER
 70
     1
  9
$ANGBASE
 50
0.0
  9
$ANGDIR
 70
     0
  9
$PDMODE
 70
     0
  9
$PDSIZE
 40
0.0
  9
$PLINEWID
 40
0.0
  9
$SPLFRAME
 70
     0
  9
$SPLINETYPE
 70
     6
  9
$SPLINESEGS
 70
     8
  9
$HANDSEED
  5
5A4
  9
$SURFTAB1
 70
     6
  9
$SURFTAB2
 70
     6
  9
$SURFTYPE
 70
     6
  9
$SURFU
 70
     6
  9
$SURFV
 70
     6
  9
$UCSBASE
  2

  9
$UCSNAME
  2

  9
$UCSORG
 10
0.0
 20
0.0
 30
0.0
  9
$UCSXDIR
 10
1.0
 20
0.0
 30
0.0
  9
$UCSYDIR
 10
0.0
 20
1.0
 30
0.0
  9
$UCSORTHOREF
  2

  9
$UCSORTHOVIEW
 70
     0
  9
$UCSORGTOP
 10
0.0
 20
0.0
 30
0.0
  9
$UCSORGBOTTOM
 10
0.0
 20
0.0
 30
0.0
  9
$UCSORGLEFT
 10
0.0
 20
0.0
 30
0.0
  9
$UCSORGRIGHT
 10
0.0
 20
0.0
 30
0.0
  9
$UCSORGFRONT
 10
0.0
 20
0.0
 30
0.0
  9
$UCSORGBACK
 10
0.0
 20
0.0
 30
0.0
  9
$PUCSBASE
  2

  9
$PUCSNAME
  2

  9
$PUCSORG
 10
0.0
 20
0.0
 30
0.0
  9
$PUCSXDIR
 10
1.0
 20
0.0
 30
0.0
  9
$PUCSYDIR
 10
0.0
 20
1.0
 30
0.0
  9
$PUCSORTHOREF
  2

  9
$PUCSORTHOVIEW
 70
     0
  9
$PUCSORGTOP
 10
0.0
 20
0.0
 30
0.0
  9
$PUCSORGBOTTOM
 10
0.0
 20
0.0
 30
0.0
  9
$PUCSORGLEFT
 10
0.0
 20
0.0
 30
0.0
  9
$PUCSORGRIGHT
 10
0.0
 20
0.0
 30
0.0
  9
$PUCSORGFRONT
 10
0.0
 20
0.0
 30
0.0
  9
$PUCSORGBACK
 10
0.0
 20
0.0
 30
0.0
  9
$USERI1
 70
     0
  9
$USERI2
 70
     0
  9
$USERI3
 70
     0
  9
$USERI4
 70
     0
  9
$USERI5
 70
     0
  9
$USERR1
 40
0.0
  9
$USERR2
 40
0.0
  9
$USERR3
 40
0.0
  9
$USERR4
 40
0.0
  9
$USERR5
 40
0.0
  9
$WORLDVIEW
 70
     1
  9
$SHADEDGE
 70
     3
  9
$SHADEDIF
 70
    70
  9
$TILEMODE
 70
     1
  9
$MAXACTVP
 70
    16
  9
$PINSBASE
 10
0.0
 20
0.0
 30
0.0
  9
$PLIMCHECK
 70
     0
  9
$PEXTMIN
 10
1.000000E+20
 20
1.000000E+20
 30
1.000000E+20
  9
$PEXTMAX
 10
-1.000000E+20
 20
-1.000000E+20
 30
-1.000000E+20
  9
$PLIMMIN
 10
0.0
 20
0.0
  9
$PLIMMAX
 10
12.0
 20
9.0
  9
$UNITMODE
 70
     0
  9
$VISRETAIN
 70
     0
  9
$PLINEGEN
 70
     1
  9
$PSLTSCALE
 70
     0
  9
$TREEDEPTH
 70
  3020
  9
$CMLSTYLE
  2
Standard
  9
$CMLJUST
 70
     0
  9
$CMLSCALE
 40
1.0
  9
$PROXYGRAPHICS
 70
     0
  9
$MEASUREMENT
 70
     0
  9
$CELWEIGHT
370
     0
  9
$ENDCAPS
280
     0
  9
$JOINSTYLE
280
     0
  9
$LWDISPLAY
290
     0
  9
$INSUNITS
 70
     0
  9
$HYPERLINKBASE
  1

  9
$STYLESHEET
  1

  9
$XEDIT
290
     1
  9
$CEPSNTYPE
380
     0
  9
$PSTYLEMODE
290
     1
  9
$FINGERPRINTGUID
  2

  9
$VERSIONGUID
  2

  9
$EXTNAMES
290
     1
  9
$PSVPSCALE
 40
0.0
  0
ENDSEC
  0
SECTION
  2
CLASSES
  0
CLASS
  1
LWPOLYLINE
  2
AcDbPolyline
  3
AutoCAD 2000
 90
    32768
280
     0
281
     1
  0
CLASS
  1
IMAGE
  2
AcDbRasterImage
  3
ISM
 90
    32895
280
     0
281
     1
  0
CLASS
  1
OLE2FRAME
  2
AcDbOle2Frame
  3
AutoCAD 2000
 90
    32768
280
     0
281
     1
  0
CLASS
  1
HATCH
  2
AcDbHatch
  3
AutoCAD 2000
 90
    32768
280
     0
281
     1
  0
CLASS
  1
DICTIONARYVAR
  2
AcDbDictionaryVar
  3
AutoCAD 2000
 90
    32768
280
     0
281
     0
  0
CLASS
  1
RASTERVARIABLES
  2
AcDbRasterVariables
  3
ISM
 90
    32768
280
     0
281
     0
  0
CLASS
  1
IMAGEDEF
  2
AcDbRasterImageDef
  3
ISM
 90
    32768
280
     0
281
     0
  0
CLASS
  1
IMAGEDEF_REACTOR
  2
AcDbRasterImageDefReactor
  3
ISM
 90
    32769
280
     0
281
     0
  0
CLASS
  1
IDBUFFER
  2
AcDbIdBuffer
  3
AutoCAD 2000
 90
    32768
280
     0
281
     0
  0
CLASS
  1
SPATIAL_FILTER
  2
AcDbSpatialFilter
  3
AutoCAD 2000
 90
    32768
280
     0
281
     0
  0
CLASS
  1
XRECORD
  2
AcDbXrecord
  3
AutoCAD 2000
 90
        0
280
     0
281
     0
  0
CLASS
  1
SORTENTSTABLE
  2
AcDbSortentsTable
  3
AutoCAD 2000
 90
    32768
280
     0
281
     0
  0
CLASS
  1
LAYER_INDEX
  2
AcDbLayerIndex
  3
AutoCAD 2000
 90
    32768
280
     0
281
     0
  0
CLASS
  1
SPATIAL_INDEX
  2
AcDbSpatialIndex
  3
AutoCAD 2000
 90
    32768
280
     0
281
     0
  0
CLASS
  1
OBJECT_PTR
  2
CAseDLPNTableRecord
  3
"ASE-LPNTableRecord"
 90
    32769
280
     0
281
     0
  0
CLASS
  1
LAYOUT
  2
AcDbLayout
  3
AutoCAD 2000
 90
        0
280
     0
281
     0
  0
CLASS
  1
PLOTSETTINGS
  2
AcDbPlotSettings
  3
AutoCAD 2000
 90
    32768
280
     0
281
     0
  0
CLASS
  1
ACDBDICTIONARYWDFLT
  2
AcDbDictionaryWithDefault
  3
AutoCAD 2000
 90
        0
280
     0
281
     0
  0
CLASS
  1
ACDBPLACEHOLDER
  2
AcDbPlaceHolder
  3
AutoCAD 2000
 90
        0
280
     0
281
     0
  0
CLASS
  1
VBA_PROJECT
  2
AcDbVbaProject
  3
acadvba
 90
    32768
280
     0
281
     0
  0
CLASS
  1
WIPEOUT
  2
AcDbWipeout
  3
WipeOut|AutoCAD Express Tool|expresstools@autodesk.com
 90
    32895
280
     0
281
     1
  0
CLASS
  1
WIPEOUTVARIABLES
  2
AcDbWipeoutVariables
  3
WipeOut|AutoCAD Express Tool|expresstools@autodesk.com
 90
        0
280
     0
281
     0
  0
CLASS
  1
RTEXT
  2
RText
  3
RText|AutoCAD Express Tool|expresstools@autodesk.com
 90
    32768
280
     0
281
     1
  0
CLASS
  1
ARCALIGNEDTEXT
  2
AcDbArcAlignedText
  3
ATEXT|AutoCAD Express Tool|expresstools@autodesk.com
 90
    32768
280
     0
281
     1
  0
ENDSEC
  0
SECTION
  2
TABLES
  0
TABLE
  2
VPORT
  5
7
100
AcDbSymbolTable
 70
     1
  0
VPORT
  5
15
100
AcDbSymbolTableRecord
100
AcDbViewportTableRecord
  2
*ACTIVE
 70
     0
 10
0.0
 20
0.0
 11
1.0
 21
1.0
 12
0.0
 22
0.0
 13
0.0
 23
0.0
 14
1.0
 24
1.0
 15
0.0
 25
0.0
 16
0.0
 26
0.0
 36
1.0
 17
0.0
 27
0.0
 37
0.0
 40
100.0
 41
1.0
 42
50.0
 43
0.0
 44
0.0
 50
0.0
 51
0.0
 71
     0
 72
   100
 73
     1
 74
     1
 75
     0
 76
     0
 77
     0
 78
     0
281
     0
 65
     0
110
0.0
120
0.0
130
0.0
111
1.0
121
0.0
131
0.0
112
0.0
122
1.0
132
0.0
345
0
346
0
 79
     0
146
0.0
  0
ENDTAB
  0
TABLE
  2
LTYPE
  5
4
100
AcDbSymbolTable
 70
     7
  0
LTYPE
  5
11
100
AcDbSymbolTableRecord
100
AcDbLinetypeTableRecord
  2
ByBlock
 70
    64
  3

 72
    65
 73
     0
 40
0.0
  0
LTYPE
  5
12
100
AcDbSymbolTableRecord
100
AcDbLinetypeTableRecord
  2
ByLayer
 70
    64
  3

 72
    65
 73
     0
 40
0.0
  0
LTYPE
  5
13
100
AcDbSymbolTableRecord
100
AcDbLinetypeTableRecord
  2
Continuous
 70
    64
  3
Solid line
 72
    65
 73
     0
 40
0.0
  0
LTYPE
  5
24
100
AcDbSymbolTableRecord
100
AcDbLinetypeTableRecord
  2
DASHED
 70
    64
  3
Dashed __ __ __ __ __ __ __ __ __ __ __ __ __ _
 72
    65
 73
     2
 40
0.75
 49
0.5
 74
     0
 49
-0.25
 74
     0
  0
LTYPE
  5
25
100
AcDbSymbolTableRecord
100
AcDbLinetypeTableRecord
  2
CENTER
 70
    64
  3
Center ____ _ ____ _ ____ _ ____ _ ____ _ ____
 72
    65
 73
     4
 40
1.0
 49
0.5
 74
     0
 49
-0.25
 74
     0
 49
0.0
 74
     0
 49
-0.25
 74
     0
  0
LTYPE
  5
26
100
AcDbSymbolTableRecord
100
AcDbLinetypeTableRecord
  2
DIVIDE
 70
    64
  3
Divide ____ . . ____ . . ____ . . ____ . . ____
 72
    65
 73
     6
 40
1.25
 49
0.5
 74
     0
 49
-0.25
 74
     0
 49
0.0
 74
     0
 49
-0.25
 74
     0
 49
0.0
 74
     0
 49
-0.25
 74
     0
  0
LTYPE
  5
27
100
AcDbSymbolTableRecord
100
AcDbLinetypeTableRecord
  2
PHANTOM
 70
    64
  3
Phantom ______  __  __  ______  __  __  ______
 72
    65
 73
     6
 40
9.0
 49
4.3
 74
     0
 49
-0.7
 74
     0
 49
1.3
 74
     0
 49
-0.7
 74
     0
 49
1.3
 74
     0
 49
-0.7
 74
     0
  0
ENDTAB
  0
TABLE
  2
LAYER
  5
2
100
AcDbSymbolTable
 70
     3
  0
LAYER
  5
14
100
AcDbSymbolTableRecord
100
AcDbLayerTableRecord
  2
0
 70
    64
 62
    53
  6
Continuous
290
     1
370
    -3
390
1D
  0
LAYER
  5
28
100
AcDbSymbolTableRecord
100
AcDbLayerTableRecord
  2
3
 70
    64
 62
     4
  6
Continuous
290
     1
370
    -3
390
1D
  0
LAYER
  5
29
100
AcDbSymbolTableRecord
100
AcDbLayerTableRecord
  2
5
 70
    64
 62
   191
  6
Continuous
290
     1
370
    -3
390
1D
  0
ENDTAB
  0
TABLE
  2
STYLE
  5
3
100
AcDbSymbolTable
 70
     2
  0
STYLE
  5
17
100
AcDbSymbolTableRecord
100
AcDbTextStyleTableRecord
  2
Standard
 70
     0
 40
0.0
 41
1.0
 50
0.0
 71
     0
 42
0.0
  3
txt
  4

  0
STYLE
  5
46D
100
AcDbSymbolTableRecord
100
AcDbTextStyleTableRecord
  2
ZU_SHPTB00001
 70
     0
 40
0.0
 41
1.0
 50
0.0
 71
     0
 42
0.0
  3
monotxt
  4
bigfont
  0
ENDTAB
  0
TABLE
  2
VIEW
  5
5
100
AcDbSymbolTable
 70
     0
  0
ENDTAB
  0
TABLE
  2
UCS
  5
6
100
AcDbSymbolTable
 70
     0
  0
ENDTAB
  0
TABLE
  2
APPID
  5
8
100
AcDbSymbolTable
 70
     1
  0
APPID
  5
16
100
AcDbSymbolTableRecord
100
AcDbRegAppTableRecord
  2
ACAD
 70
     0
  0
ENDTAB
  0
TABLE
  2
DIMSTYLE
  5
9
100
AcDbSymbolTable
 70
     1
100
AcDbDimStyleTable
 71
     0
  0
DIMSTYLE
105
18
100
AcDbSymbolTableRecord
100
AcDbDimStyleTableRecord
  2
Standard
 70
     0
  3

  4

 40
1.0
 41
0.18
 42
0.0625
 43
0.38
 44
0.18
 45
0.0
 46
0.0
 47
0.0
 48
0.0
 71
     0
 72
     0
 73
     1
 74
     1
 75
     0
 76
     0
 77
     0
 78
     0
 79
     0
140
0.18
141
0.09
142
0.0
143
25.4
144
1.0
145
0.0
146
1.0
147
0.09
148
0.0
170
     0
171
     2
172
     0
173
     0
174
     0
175
     0
176
     0
177
     0
178
     0
179
     0
271
     4
272
     4
273
     2
274
     2
275
     0
276
     0
277
     2
278
    46
279
     0
280
     0
281
     0
282
     0
283
     1
284
     0
285
     0
286
     0
288
     0
340
17
341
0
342
0
343
0
344
0
371
    -2
372
    -2
  0
ENDTAB
  0
TABLE
  2
BLOCK_RECORD
  5
1
100
AcDbSymbolTable
 70
     9
  0
BLOCK_RECORD
  5
A
100
AcDbSymbolTableRecord
100
AcDbBlockTableRecord
  2
*MODEL_SPACE
340
20
  0
BLOCK_RECORD
  5
B
100
AcDbSymbolTableRecord
100
AcDbBlockTableRecord
  2
*PAPER_SPACE
340
21
  0
BLOCK_RECORD
  5
DC
100
AcDbSymbolTableRecord
100
AcDbBlockTableRecord
  2
ZU_SYM__USERS_HOME_SYMBOL_POO_SYM_B20_-1
340
0
102
{BLKREFS
331
E4
102
}
  0
BLOCK_RECORD
  5
2A2
100
AcDbSymbolTableRecord
100
AcDbBlockTableRecord
  2
ZU_SYM__USERS_HOME_SYMBOL_STD_SYM_B01_-1
340
0
102
{BLKREFS
331
2B4
102
}
  0
BLOCK_RECORD
  5
2B5
100
AcDbSymbolTableRecord
100
AcDbBlockTableRecord
  2
ZU_SYM__USERS_HOME_SYMBOL_STD_SYM_B01_00001-1
340
0
102
{BLKREFS
331
2C7
102
}
  0
BLOCK_RECORD
  5
2C8
100
AcDbSymbolTableRecord
100
AcDbBlockTableRecord
  2
ZU_SYM__USERS_HOME_SYMBOL_STD_SYM_B01_00002-1
340
0
102
{BLKREFS
331
2DA
102
}
  0
BLOCK_RECORD
  5
2DC
100
AcDbSymbolTableRecord
100
AcDbBlockTableRecord
  2
ZU_SYM__USERS_HOME_SYMBOL_STD_SYM_B01_00003-1
340
0
102
{BLKREFS
331
2EE
102
}
  0
BLOCK_RECORD
  5
43D
100
AcDbSymbolTableRecord
100
AcDbBlockTableRecord
  2
ZU_SYM__USERS_HOME_SYMBOL_STD_SYM_B01_00004-1
340
0
102
{BLKREFS
331
448
102
}
  0
BLOCK_RECORD
  5
449
100
AcDbSymbolTableRecord
100
AcDbBlockTableRecord
  2
ZU_SYM__USERS_HOME_SYMBOL_STD_SYM_B01_00005-1
340
0
102
{BLKREFS
331
454
102
}
  0
BLOCK_RECORD
  5
455
100
AcDbSymbolTableRecord
100
AcDbBlockTableRecord
  2
ZU_SYM__USERS_HOME_SYMBOL_STD_SYM_B01_00006-1
340
0
102
{BLKREFS
331
460
102
}
  0
BLOCK_RECORD
  5
461
100
AcDbSymbolTableRecord
100
AcDbBlockTableRecord
  2
ZU_SYM__USERS_HOME_SYMBOL_STD_SYM_B01_00007-1
340
0
102
{BLKREFS
331
46C
102
}
  0
ENDTAB
  0
ENDSEC
  0
SECTION
  2
BLOCKS
  0
BLOCK
  5
D
100
AcDbEntity
  8
0
100
AcDbBlockBegin
  2
*MODEL_SPACE
 70
     0
 10
0.0
 20
0.0
 30
0.0
  3
*MODEL_SPACE
  1

  0
ENDBLK
  5
E
100
AcDbEntity
  8
0
100
AcDbBlockEnd
  0
BLOCK
  5
F
100
AcDbEntity
 67
     1
  8
0
100
AcDbBlockBegin
  2
*PAPER_SPACE
 70
     0
 10
0.0
 20
0.0
 30
0.0
  3
*PAPER_SPACE
  1

  0
ENDBLK
  5
10
100
AcDbEntity
 67
     1
  8
0
100
AcDbBlockEnd
  0
BLOCK
  5
DD
100
AcDbEntity
  8
0
100
AcDbBlockBegin
  2
ZU_SYM__USERS_HOME_SYMBOL_POO_SYM_B20_-1
 70
    64
 10
0.0
 20
0.0
 30
0.0
  3
ZU_SYM__USERS_HOME_SYMBOL_POO_SYM_B20_-1
  1

  0
LINE
  5
DE
100
AcDbEntity
  8
0
370
    -3
  6
Continuous
100
AcDbLine
 10
0.0
 20
-5.0
 30
0.0
 11
-6.0
 21
-5.0
 31
0.0
  0
LINE
  5
DF
100
AcDbEntity
  8
0
370
    -3
  6
Continuous
100
AcDbLine
 10
0.0
 20
5.0
 30
0.0
 11
-6.0
 21
5.0
 31
0.0
  0
LINE
  5
E0
100
AcDbEntity
  8
0
370
    -3
  6
Continuous
100
AcDbLine
 10
-6.0
 20
-5.0
 30
0.0
 11
-6.0
 21
5.0
 31
0.0
  0
LINE
  5
E1
100
AcDbEntity
  8
0
370
    -3
  6
Continuous
100
AcDbLine
 10
0.0
 20
5.0
 30
0.0
 11
0.0
 21
-5.0
 31
0.0
  0
POINT
  5
E2
100
AcDbEntity
  8
0
370
    -3
  6
Continuous
100
AcDbPoint
 10
0.0
 20
0.0
 30
0.0
  0
ENDBLK
  5
E3
100
AcDbEntity
  8
0
100
AcDbBlockEnd
  0
BLOCK
  5
2A3
100
AcDbEntity
  8
0
100
AcDbBlockBegin
  2
ZU_SYM__USERS_HOME_SYMBOL_STD_SYM_B01_-1
 70
    64
 10
0.0
 20
0.0
 30
0.0
  3
ZU_SYM__USERS_HOME_SYMBOL_STD_SYM_B01_-1
  1

  0
POINT
  5
2A4
100
AcDbEntity
  8
0
370
    -3
  6
Continuous
100
AcDbPoint
 10
0.0
 20
0.0
 30
0.0
  0
LINE
  5
2A5
100
AcDbEntity
  8
0
370
    -3
  6
Continuous
100
AcDbLine
 10
-0.000025
 20
-4.599994
 30
0.0
 11
-4.300015
 21
-4.599977
 31
0.0
  0
LINE
  5
2A6
100
AcDbEntity
  8
0
370
    -3
  6
Continuous
100
AcDbLine
 10
-4.299996
 20
-4.599962
 30
0.0
 11
-4.79999
 21
-3.899959
 31
0.0
  0
LINE
  5
2A7
100
AcDbEntity
  8
0
370
    -3
  6
Continuous
100
AcDbLine
 10
-4.80001
 20
-3.899973
 30
0.0
 11
-4.799979
 21
3.900012
 31
0.0
  0
LINE
  5
2A8
100
AcDbEntity
  8
0
370
    -3
  6
Continuous
100
AcDbLine
 10
-4.799962
 20
3.900001
 30
0.0
 11
-4.299962
 21
4.599999
 31
0.0
  0
LINE
  5
2A9
100
AcDbEntity
  8
0
370
    -3
  6
Continuous
100
AcDbLine
 10
-4.299978
 20
4.600015
 30
0.0
 11
0.000013
 21
4.599998
 31
0.0
  0
LINE
  5
2AA
100
AcDbEntity
  8
0
370
    -3
  6
Continuous
100
AcDbLine
 10
0.000016
 20
4.599992
 30
0.0
 11
-0.000021
 21
-4.599992
 31
0.0
  0
LINE
  5
2AB
100
AcDbEntity
  8
0
370
    -3
  6
Continuous
100
AcDbLine
 10
-4.300006
 20
-2.29998
 30
0.0
 11
-1.300007
 21
-2.299992
 31
0.0
  0
LINE
  5
2AC
100
AcDbEntity
  8
0
370
    -3
  6
Continuous
100
AcDbLine
 10
-4.299987
 20
2.300014
 30
0.0
 11
-1.29999
 21
2.300004
 31
0.0
  0
ARC
  5
2AD
100
AcDbEntity
  8
0
370
    -3
  6
Continuous
100
AcDbCircle
 10
-3.230014
 20
-3.449986
 30
0.0
 40
1.57
100
AcDbArc
 50
132.899744
 51
179.999745
  0
ARC
  5
2AE
100
AcDbEntity
  8
0
370
    -3
  6
Continuous
100
AcDbCircle
 10
-3.229986
 20
3.450012
 30
0.0
 40
1.57
100
AcDbArc
 50
179.999745
 51
227.099746
  0
ARC
  5
2AF
100
AcDbEntity
  8
0
370
    -3
  6
Continuous
100
AcDbCircle
 10
0.740001
 20
-0.000003
 30
0.0
 40
5.539999
100
AcDbArc
 50
155.470187
 51
204.52925
  0
LINE
  5
2B0
100
AcDbEntity
  8
0
370
    -3
  6
Continuous
100
AcDbLine
 10
-1.300018
 20
-4.599993
 30
0.0
 11
-1.299981
 21
4.600004
 31
0.0
  0
LINE
  5
2B1
100
AcDbEntity
  8
0
370
    -3
  6
Continuous
100
AcDbLine
 10
-1.3
 20
-0.299995
 30
0.0
 11
-0.000004
 21
-0.000001
 31
0.0
  0
LINE
  5
2B2
100
AcDbEntity
  8
0
370
    -3
  6
Continuous
100
AcDbLine
 10
-1.299999
 20
0.300007
 30
0.0
 11
-0.000001
 21
0.600002
 31
0.0
  0
ENDBLK
  5
2B3
100
AcDbEntity
  8
0
100
AcDbBlockEnd
  0
BLOCK
  5
2B6
100
AcDbEntity
  8
0
100
AcDbBlockBegin
  2
ZU_SYM__USERS_HOME_SYMBOL_STD_SYM_B01_00001-1
 70
    64
 10
0.0
 20
0.0
 30
0.0
  3
ZU_SYM__USERS_HOME_SYMBOL_STD_SYM_B01_00001-1
  1

  0
POINT
  5
2B7
100
AcDbEntity
  8
0
370
    -3
  6
Continuous
100
AcDbPoint
 10
0.0
 20
0.0
 30
0.0
  0
LINE
  5
2B8
100
AcDbEntity
  8
0
370
    -3
  6
Continuous
100
AcDbLine
 10
-0.000025
 20
-4.599994
 30
0.0
 11
-4.300015
 21
-4.599977
 31
0.0
  0
LINE
  5
2B9
100
AcDbEntity
  8
0
370
    -3
  6
Continuous
100
AcDbLine
 10
-4.299996
 20
-4.599962
 30
0.0
 11
-4.79999
 21
-3.899959
 31
0.0
  0
LINE
  5
2BA
100
AcDbEntity
  8
0
370
    -3
  6
Continuous
100
AcDbLine
 10
-4.80001
 20
-3.899973
 30
0.0
 11
-4.799979
 21
3.900012
 31
0.0
  0
LINE
  5
2BB
100
AcDbEntity
  8
0
370
    -3
  6
Continuous
100
AcDbLine
 10
-4.799962
 20
3.900001
 30
0.0
 11
-4.299962
 21
4.599999
 31
0.0
  0
LINE
  5
2BC
100
AcDbEntity
  8
0
370
    -3
  6
Continuous
100
AcDbLine
 10
-4.299978
 20
4.600015
 30
0.0
 11
0.000013
 21
4.599998
 31
0.0
  0
LINE
  5
2BD
100
AcDbEntity
  8
0
370
    -3
  6
Continuous
100
AcDbLine
 10
0.000016
 20
4.599992
 30
0.0
 11
-0.000021
 21
-4.599992
 31
0.0
  0
LINE
  5
2BE
100
AcDbEntity
  8
0
370
    -3
  6
Continuous
100
AcDbLine
 10
-4.300006
 20
-2.29998
 30
0.0
 11
-1.300007
 21
-2.299992
 31
0.0
  0
LINE
  5
2BF
100
AcDbEntity
  8
0
370
    -3
  6
Continuous
100
AcDbLine
 10
-4.299987
 20
2.300014
 30
0.0
 11
-1.29999
 21
2.300004
 31
0.0
  0
ARC
  5
2C0
100
AcDbEntity
  8
0
370
    -3
  6
Continuous
100
AcDbCircle
 10
-3.230014
 20
-3.449986
 30
0.0
 40
1.57
100
AcDbArc
 50
132.899744
 51
179.999745
  0
ARC
  5
2C1
100
AcDbEntity
  8
0
370
    -3
  6
Continuous
100
AcDbCircle
 10
-3.229986
 20
3.450012
 30
0.0
 40
1.57
100
AcDbArc
 50
179.999745
 51
227.099746
  0
ARC
  5
2C2
100
AcDbEntity
  8
0
370
    -3
  6
Continuous
100
AcDbCircle
 10
0.740001
 20
-0.000003
 30
0.0
 40
5.539999
100
AcDbArc
 50
155.470187
 51
204.52925
  0
LINE
  5
2C3
100
AcDbEntity
  8
0
370
    -3
  6
Continuous
100
AcDbLine
 10
-1.300018
 20
-4.599993
 30
0.0
 11
-1.299981
 21
4.600004
 31
0.0
  0
LINE
  5
2C4
100
AcDbEntity
  8
0
370
    -3
  6
Continuous
100
AcDbLine
 10
-1.3
 20
-0.299995
 30
0.0
 11
-0.000004
 21
-0.000001
 31
0.0
  0
LINE
  5
2C5
100
AcDbEntity
  8
0
370
    -3
  6
Continuous
100
AcDbLine
 10
-1.299999
 20
0.300007
 30
0.0
 11
-0.000001
 21
0.600002
 31
0.0
  0
ENDBLK
  5
2C6
100
AcDbEntity
  8
0
100
AcDbBlockEnd
  0
BLOCK
  5
2C9
100
AcDbEntity
  8
0
100
AcDbBlockBegin
  2
ZU_SYM__USERS_HOME_SYMBOL_STD_SYM_B01_00002-1
 70
    64
 10
0.0
 20
0.0
 30
0.0
  3
ZU_SYM__USERS_HOME_SYMBOL_STD_SYM_B01_00002-1
  1

  0
POINT
  5
2CA
100
AcDbEntity
  8
0
370
    -3
  6
Continuous
100
AcDbPoint
 10
0.0
 20
0.0
 30
0.0
  0
LINE
  5
2CB
100
AcDbEntity
  8
0
370
    -3
  6
Continuous
100
AcDbLine
 10
-0.000025
 20
-4.599994
 30
0.0
 11
-4.300015
 21
-4.599977
 31
0.0
  0
LINE
  5
2CC
100
AcDbEntity
  8
0
370
    -3
  6
Continuous
100
AcDbLine
 10
-4.299996
 20
-4.599962
 30
0.0
 11
-4.79999
 21
-3.899959
 31
0.0
  0
LINE
  5
2CD
100
AcDbEntity
  8
0
370
    -3
  6
Continuous
100
AcDbLine
 10
-4.80001
 20
-3.899973
 30
0.0
 11
-4.799979
 21
3.900012
 31
0.0
  0
LINE
  5
2CE
100
AcDbEntity
  8
0
370
    -3
  6
Continuous
100
AcDbLine
 10
-4.799962
 20
3.900001
 30
0.0
 11
-4.299962
 21
4.599999
 31
0.0
  0
LINE
  5
2CF
100
AcDbEntity
  8
0
370
    -3
  6
Continuous
100
AcDbLine
 10
-4.299978
 20
4.600015
 30
0.0
 11
0.000013
 21
4.599998
 31
0.0
  0
LINE
  5
2D0
100
AcDbEntity
  8
0
370
    -3
  6
Continuous
100
AcDbLine
 10
0.000016
 20
4.599992
 30
0.0
 11
-0.000021
 21
-4.599992
 31
0.0
  0
LINE
  5
2D1
100
AcDbEntity
  8
0
370
    -3
  6
Continuous
100
AcDbLine
 10
-4.300006
 20
-2.29998
 30
0.0
 11
-1.300007
 21
-2.299992
 31
0.0
  0
LINE
  5
2D2
100
AcDbEntity
  8
0
370
    -3
  6
Continuous
100
AcDbLine
 10
-4.299987
 20
2.300014
 30
0.0
 11
-1.29999
 21
2.300004
 31
0.0
  0
ARC
  5
2D3
100
AcDbEntity
  8
0
370
    -3
  6
Continuous
100
AcDbCircle
 10
-3.230014
 20
-3.449986
 30
0.0
 40
1.57
100
AcDbArc
 50
132.899744
 51
179.999745
  0
ARC
  5
2D4
100
AcDbEntity
  8
0
370
    -3
  6
Continuous
100
AcDbCircle
 10
-3.229986
 20
3.450012
 30
0.0
 40
1.57
100
AcDbArc
 50
179.999745
 51
227.099746
  0
ARC
  5
2D5
100
AcDbEntity
  8
0
370
    -3
  6
Continuous
100
AcDbCircle
 10
0.740001
 20
-0.000003
 30
0.0
 40
5.539999
100
AcDbArc
 50
155.470187
 51
204.52925
  0
LINE
  5
2D6
100
AcDbEntity
  8
0
370
    -3
  6
Continuous
100
AcDbLine
 10
-1.300018
 20
-4.599993
 30
0.0
 11
-1.299981
 21
4.600004
 31
0.0
  0
LINE
  5
2D7
100
AcDbEntity
  8
0
370
    -3
  6
Continuous
100
AcDbLine
 10
-1.3
 20
-0.299995
 30
0.0
 11
-0.000004
 21
-0.000001
 31
0.0
  0
LINE
  5
2D8
100
AcDbEntity
  8
0
370
    -3
  6
Continuous
100
AcDbLine
 10
-1.299999
 20
0.300007
 30
0.0
 11
-0.000001
 21
0.600002
 31
0.0
  0
ENDBLK
  5
2D9
100
AcDbEntity
  8
0
100
AcDbBlockEnd
  0
BLOCK
  5
2DD
100
AcDbEntity
  8
0
100
AcDbBlockBegin
  2
ZU_SYM__USERS_HOME_SYMBOL_STD_SYM_B01_00003-1
 70
    64
 10
0.0
 20
0.0
 30
0.0
  3
ZU_SYM__USERS_HOME_SYMBOL_STD_SYM_B01_00003-1
  1

  0
POINT
  5
2DE
100
AcDbEntity
  8
0
370
    -3
  6
Continuous
100
AcDbPoint
 10
0.0
 20
0.0
 30
0.0
  0
LINE
  5
2DF
100
AcDbEntity
  8
0
370
    -3
  6
Continuous
100
AcDbLine
 10
-0.000025
 20
-4.599994
 30
0.0
 11
-4.300015
 21
-4.599977
 31
0.0
  0
LINE
  5
2E0
100
AcDbEntity
  8
0
370
    -3
  6
Continuous
100
AcDbLine
 10
-4.299996
 20
-4.599962
 30
0.0
 11
-4.79999
 21
-3.899959
 31
0.0
  0
LINE
  5
2E1
100
AcDbEntity
  8
0
370
    -3
  6
Continuous
100
AcDbLine
 10
-4.80001
 20
-3.899973
 30
0.0
 11
-4.799979
 21
3.900012
 31
0.0
  0
LINE
  5
2E2
100
AcDbEntity
  8
0
370
    -3
  6
Continuous
100
AcDbLine
 10
-4.799962
 20
3.900001
 30
0.0
 11
-4.299962
 21
4.599999
 31
0.0
  0
LINE
  5
2E3
100
AcDbEntity
  8
0
370
    -3
  6
Continuous
100
AcDbLine
 10
-4.299978
 20
4.600015
 30
0.0
 11
0.000013
 21
4.599998
 31
0.0
  0
LINE
  5
2E4
100
AcDbEntity
  8
0
370
    -3
  6
Continuous
100
AcDbLine
 10
0.000016
 20
4.599992
 30
0.0
 11
-0.000021
 21
-4.599992
 31
0.0
  0
LINE
  5
2E5
100
AcDbEntity
  8
0
370
    -3
  6
Continuous
100
AcDbLine
 10
-4.300006
 20
-2.29998
 30
0.0
 11
-1.300007
 21
-2.299992
 31
0.0
  0
LINE
  5
2E6
100
AcDbEntity
  8
0
370
    -3
  6
Continuous
100
AcDbLine
 10
-4.299987
 20
2.300014
 30
0.0
 11
-1.29999
 21
2.300004
 31
0.0
  0
ARC
  5
2E7
100
AcDbEntity
  8
0
370
    -3
  6
Continuous
100
AcDbCircle
 10
-3.230014
 20
-3.449986
 30
0.0
 40
1.57
100
AcDbArc
 50
132.899744
 51
179.999745
  0
ARC
  5
2E8
100
AcDbEntity
  8
0
370
    -3
  6
Continuous
100
AcDbCircle
 10
-3.229986
 20
3.450012
 30
0.0
 40
1.57
100
AcDbArc
 50
179.999745
 51
227.099746
  0
ARC
  5
2E9
100
AcDbEntity
  8
0
370
    -3
  6
Continuous
100
AcDbCircle
 10
0.740001
 20
-0.000003
 30
0.0
 40
5.539999
100
AcDbArc
 50
155.470187
 51
204.52925
  0
LINE
  5
2EA
100
AcDbEntity
  8
0
370
    -3
  6
Continuous
100
AcDbLine
 10
-1.300018
 20
-4.599993
 30
0.0
 11
-1.299981
 21
4.600004
 31
0.0
  0
LINE
  5
2EB
100
AcDbEntity
  8
0
370
    -3
  6
Continuous
100
AcDbLine
 10
-1.3
 20
-0.299995
 30
0.0
 11
-0.000004
 21
-0.000001
 31
0.0
  0
LINE
  5
2EC
100
AcDbEntity
  8
0
370
    -3
  6
Continuous
100
AcDbLine
 10
-1.299999
 20
0.300007
 30
0.0
 11
-0.000001
 21
0.600002
 31
0.0
  0
ENDBLK
  5
2ED
100
AcDbEntity
  8
0
100
AcDbBlockEnd
  0
BLOCK
  5
43E
100
AcDbEntity
  8
0
100
AcDbBlockBegin
  2
ZU_SYM__USERS_HOME_SYMBOL_STD_SYM_B01_00004-1
 70
    64
 10
0.0
 20
0.0
 30
0.0
  3
ZU_SYM__USERS_HOME_SYMBOL_STD_SYM_B01_00004-1
  1

  0
CIRCLE
  5
43F
100
AcDbEntity
  8
0
370
    -3
  6
Continuous
100
AcDbCircle
 10
0.0
 20
0.0
 30
0.0
 40
4.0
  0
LINE
  5
440
100
AcDbEntity
  8
0
370
    -3
  6
Continuous
100
AcDbLine
 10
2.299999
 20
-4.0
 30
0.0
 11
-2.299999
 21
-4.0
 31
0.0
  0
LINE
  5
441
100
AcDbEntity
  8
0
370
    -3
  6
Continuous
100
AcDbLine
 10
4.6
 20
-0.000001
 30
0.0
 11
2.300001
 21
-4.0
 31
0.0
  0
LINE
  5
442
100
AcDbEntity
  8
0
370
    -3
  6
Continuous
100
AcDbLine
 10
2.300001
 20
4.0
 30
0.0
 11
4.6
 21
0.000001
 31
0.0
  0
LINE
  5
443
100
AcDbEntity
  8
0
370
    -3
  6
Continuous
100
AcDbLine
 10
-2.299999
 20
4.0
 30
0.0
 11
2.299999
 21
4.0
 31
0.0
  0
LINE
  5
444
100
AcDbEntity
  8
0
370
    -3
  6
Continuous
100
AcDbLine
 10
-4.6
 20
0.000001
 30
0.0
 11
-2.300001
 21
4.0
 31
0.0
  0
LINE
  5
445
100
AcDbEntity
  8
0
370
    -3
  6
Continuous
100
AcDbLine
 10
-2.300001
 20
-4.0
 30
0.0
 11
-4.6
 21
-0.000001
 31
0.0
  0
POINT
  5
446
100
AcDbEntity
  8
0
370
    -3
  6
Continuous
100
AcDbPoint
 10
0.0
 20
0.0
 30
0.0
  0
ENDBLK
  5
447
100
AcDbEntity
  8
0
100
AcDbBlockEnd
  0
BLOCK
  5
44A
100
AcDbEntity
  8
0
100
AcDbBlockBegin
  2
ZU_SYM__USERS_HOME_SYMBOL_STD_SYM_B01_00005-1
 70
    64
 10
0.0
 20
0.0
 30
0.0
  3
ZU_SYM__USERS_HOME_SYMBOL_STD_SYM_B01_00005-1
  1

  0
CIRCLE
  5
44B
100
AcDbEntity
  8
0
370
    -3
  6
Continuous
100
AcDbCircle
 10
0.0
 20
0.0
 30
0.0
 40
4.0
  0
LINE
  5
44C
100
AcDbEntity
  8
0
370
    -3
  6
Continuous
100
AcDbLine
 10
2.299999
 20
-4.0
 30
0.0
 11
-2.299999
 21
-4.0
 31
0.0
  0
LINE
  5
44D
100
AcDbEntity
  8
0
370
    -3
  6
Continuous
100
AcDbLine
 10
4.6
 20
-0.000001
 30
0.0
 11
2.300001
 21
-4.0
 31
0.0
  0
LINE
  5
44E
100
AcDbEntity
  8
0
370
    -3
  6
Continuous
100
AcDbLine
 10
2.300001
 20
4.0
 30
0.0
 11
4.6
 21
0.000001
 31
0.0
  0
LINE
  5
44F
100
AcDbEntity
  8
0
370
    -3
  6
Continuous
100
AcDbLine
 10
-2.299999
 20
4.0
 30
0.0
 11
2.299999
 21
4.0
 31
0.0
  0
LINE
  5
450
100
AcDbEntity
  8
0
370
    -3
  6
Continuous
100
AcDbLine
 10
-4.6
 20
0.000001
 30
0.0
 11
-2.300001
 21
4.0
 31
0.0
  0
LINE
  5
451
100
AcDbEntity
  8
0
370
    -3
  6
Continuous
100
AcDbLine
 10
-2.300001
 20
-4.0
 30
0.0
 11
-4.6
 21
-0.000001
 31
0.0
  0
POINT
  5
452
100
AcDbEntity
  8
0
370
    -3
  6
Continuous
100
AcDbPoint
 10
0.0
 20
0.0
 30
0.0
  0
ENDBLK
  5
453
100
AcDbEntity
  8
0
100
AcDbBlockEnd
  0
BLOCK
  5
456
100
AcDbEntity
  8
0
100
AcDbBlockBegin
  2
ZU_SYM__USERS_HOME_SYMBOL_STD_SYM_B01_00006-1
 70
    64
 10
0.0
 20
0.0
 30
0.0
  3
ZU_SYM__USERS_HOME_SYMBOL_STD_SYM_B01_00006-1
  1

  0
CIRCLE
  5
457
100
AcDbEntity
  8
0
370
    -3
  6
Continuous
100
AcDbCircle
 10
0.0
 20
0.0
 30
0.0
 40
4.0
  0
LINE
  5
458
100
AcDbEntity
  8
0
370
    -3
  6
Continuous
100
AcDbLine
 10
2.299999
 20
-4.0
 30
0.0
 11
-2.299999
 21
-4.0
 31
0.0
  0
LINE
  5
459
100
AcDbEntity
  8
0
370
    -3
  6
Continuous
100
AcDbLine
 10
4.6
 20
-0.000001
 30
0.0
 11
2.300001
 21
-4.0
 31
0.0
  0
LINE
  5
45A
100
AcDbEntity
  8
0
370
    -3
  6
Continuous
100
AcDbLine
 10
2.300001
 20
4.0
 30
0.0
 11
4.6
 21
0.000001
 31
0.0
  0
LINE
  5
45B
100
AcDbEntity
  8
0
370
    -3
  6
Continuous
100
AcDbLine
 10
-2.299999
 20
4.0
 30
0.0
 11
2.299999
 21
4.0
 31
0.0
  0
LINE
  5
45C
100
AcDbEntity
  8
0
370
    -3
  6
Continuous
100
AcDbLine
 10
-4.6
 20
0.000001
 30
0.0
 11
-2.300001
 21
4.0
 31
0.0
  0
LINE
  5
45D
100
AcDbEntity
  8
0
370
    -3
  6
Continuous
100
AcDbLine
 10
-2.300001
 20
-4.0
 30
0.0
 11
-4.6
 21
-0.000001
 31
0.0
  0
POINT
  5
45E
100
AcDbEntity
  8
0
370
    -3
  6
Continuous
100
AcDbPoint
 10
0.0
 20
0.0
 30
0.0
  0
ENDBLK
  5
45F
100
AcDbEntity
  8
0
100
AcDbBlockEnd
  0
BLOCK
  5
462
100
AcDbEntity
  8
0
100
AcDbBlockBegin
  2
ZU_SYM__USERS_HOME_SYMBOL_STD_SYM_B01_00007-1
 70
    64
 10
0.0
 20
0.0
 30
0.0
  3
ZU_SYM__USERS_HOME_SYMBOL_STD_SYM_B01_00007-1
  1

  0
CIRCLE
  5
463
100
AcDbEntity
  8
0
370
    -3
  6
Continuous
100
AcDbCircle
 10
0.0
 20
0.0
 30
0.0
 40
4.0
  0
LINE
  5
464
100
AcDbEntity
  8
0
370
    -3
  6
Continuous
100
AcDbLine
 10
2.299999
 20
-4.0
 30
0.0
 11
-2.299999
 21
-4.0
 31
0.0
  0
LINE
  5
465
100
AcDbEntity
  8
0
370
    -3
  6
Continuous
100
AcDbLine
 10
4.6
 20
-0.000001
 30
0.0
 11
2.300001
 21
-4.0
 31
0.0
  0
LINE
  5
466
100
AcDbEntity
  8
0
370
    -3
  6
Continuous
100
AcDbLine
 10
2.300001
 20
4.0
 30
0.0
 11
4.6
 21
0.000001
 31
0.0
  0
LINE
  5
467
100
AcDbEntity
  8
0
370
    -3
  6
Continuous
100
AcDbLine
 10
-2.299999
 20
4.0
 30
0.0
 11
2.299999
 21
4.0
 31
0.0
  0
LINE
  5
468
100
AcDbEntity
  8
0
370
    -3
  6
Continuous
100
AcDbLine
 10
-4.6
 20
0.000001
 30
0.0
 11
-2.300001
 21
4.0
 31
0.0
  0
LINE
  5
469
100
AcDbEntity
  8
0
370
    -3
  6
Continuous
100
AcDbLine
 10
-2.300001
 20
-4.0
 30
0.0
 11
-4.6
 21
-0.000001
 31
0.0
  0
POINT
  5
46A
100
AcDbEntity
  8
0
370
    -3
  6
Continuous
100
AcDbPoint
 10
0.0
 20
0.0
 30
0.0
  0
ENDBLK
  5
46B
100
AcDbEntity
  8
0
100
AcDbBlockEnd
  0
ENDSEC
  0
SECTION
  2
ENTITIES
  0
ARC
  5
2A
100
AcDbEntity
  8
0
370
    -3
  6
Continuous
100
AcDbCircle
 10
433.956926
 20
-80.222764
 30
0.0
 40
700.0
100
AcDbArc
 50
175.85105
 51
176.166643
  0
ARC
  5
2B
100
AcDbEntity
  8
0
370
    -3
  6
Continuous
100
AcDbCircle
 10
-262.21385
 20
-29.722764
 30
0.0
 40
2.0
100
AcDbArc
 50
90.0
 51
175.85105
  0
LINE
  5
2C
100
AcDbEntity
  8
0
370
    -3
  6
Continuous
100
AcDbLine
 10
-259.543074
 20
-27.722764
 30
0.0
 11
-262.21385
 21
-27.722764
 31
0.0
  0
ARC
  5
2D
100
AcDbEntity
  8
0
370
    -3
  6
Continuous
100
AcDbCircle
 10
433.956926
 20
-80.222764
 30
0.0
 40
700.0
100
AcDbArc
 50
183.795679
 51
184.14895
  0
LINE
  5
2E
100
AcDbEntity
  8
0
370
    -3
  6
Continuous
100
AcDbLine
 10
-259.543074
 20
-130.472764
 30
0.0
 11
-259.543074
 21
-127.022764
 31
0.0
  0
LINE
  5
2F
100
AcDbEntity
  8
0
370
    -3
  6
Continuous
100
AcDbLine
 10
-259.543074
 20
-131.972764
 30
0.0
 11
-259.543074
 21
-132.722764
 31
0.0
  0
ARC
  5
30
100
AcDbEntity
  8
0
370
    -3
  6
Continuous
100
AcDbCircle
 10
-262.21385
 20
-130.722764
 30
0.0
 40
2.0
100
AcDbArc
 50
184.14895
 51
270.0
  0
LINE
  5
31
100
AcDbEntity
  8
0
370
    -3
  6
Continuous
100
AcDbLine
 10
-259.543074
 20
-132.722764
 30
0.0
 11
-262.21385
 21
-132.722764
 31
0.0
  0
LINE
  5
32
100
AcDbEntity
  8
0
370
    -3
  6
Continuous
100
AcDbLine
 10
-259.543074
 20
-132.722764
 30
0.0
 11
-259.543074
 21
-130.472764
 31
0.0
  0
LINE
  5
33
100
AcDbEntity
  8
0
370
    -3
  6
Continuous
100
AcDbLine
 10
-259.543074
 20
-27.722764
 30
0.0
 11
-259.543074
 21
-33.422764
 31
0.0
  0
LINE
  5
34
100
AcDbEntity
  8
0
370
    -3
  6
Continuous
100
AcDbLine
 10
-145.543074
 20
-27.722764
 30
0.0
 11
-145.543074
 21
-80.222764
 31
0.0
  0
LINE
  5
35
100
AcDbEntity
  8
0
370
    -3
  6
Continuous
100
AcDbLine
 10
-259.543074
 20
-29.222764
 30
0.0
 11
-145.543074
 21
-29.222764
 31
0.0
  0
LINE
  5
36
100
AcDbEntity
  8
0
370
    -3
  6
Continuous
100
AcDbLine
 10
-259.543074
 20
-29.722764
 30
0.0
 11
-145.543074
 21
-29.722764
 31
0.0
  0
LINE
  5
37
100
AcDbEntity
  8
0
370
    -3
  6
Continuous
100
AcDbLine
 10
-145.543074
 20
-27.722764
 30
0.0
 11
-259.543074
 21
-27.722764
 31
0.0
  0
LINE
  5
38
100
AcDbEntity
  8
0
370
    -3
  6
Continuous
100
AcDbLine
 10
-145.543074
 20
-132.722764
 30
0.0
 11
-145.543074
 21
-80.222764
 31
0.0
  0
LINE
  5
39
100
AcDbEntity
  8
0
370
    -3
  6
Continuous
100
AcDbLine
 10
-259.543074
 20
-131.222764
 30
0.0
 11
-145.543074
 21
-131.222764
 31
0.0
  0
LINE
  5
3A
100
AcDbEntity
  8
0
370
    -3
  6
Continuous
100
AcDbLine
 10
-259.543074
 20
-130.722764
 30
0.0
 11
-145.543074
 21
-130.722764
 31
0.0
  0
LINE
  5
3B
100
AcDbEntity
  8
0
370
    -3
  6
Continuous
100
AcDbLine
 10
-145.543074
 20
-132.722764
 30
0.0
 11
-259.543074
 21
-132.722764
 31
0.0
  0
LINE
  5
3C
100
AcDbEntity
  8
0
370
    -3
  6
Continuous
100
AcDbLine
 10
-173.778265
 20
-39.790317
 30
0.0
 11
-145.543074
 21
-39.790317
 31
0.0
  0
LINE
  5
3D
100
AcDbEntity
  8
0
370
    -3
  6
Continuous
100
AcDbLine
 10
-173.645604
 20
-47.12297
 30
0.0
 11
-145.543074
 21
-47.12297
 31
0.0
  0
LINE
  5
3E
100
AcDbEntity
  8
0
370
    -3
  6
Continuous
100
AcDbLine
 10
-173.645604
 20
-48.322558
 30
0.0
 11
-145.543074
 21
-48.322558
 31
0.0
  0
LINE
  5
3F
100
AcDbEntity
  8
0
370
    -3
  6
Continuous
100
AcDbLine
 10
-173.645604
 20
-51.62297
 30
0.0
 11
-145.543074
 21
-51.62297
 31
0.0
  0
LINE
  5
40
100
AcDbEntity
  8
0
370
    -3
  6
Continuous
100
AcDbLine
 10
-173.645604
 20
-52.822558
 30
0.0
 11
-157.400464
 21
-52.822558
 31
0.0
  0
LINE
  5
41
100
AcDbEntity
  8
0
370
    -3
  6
Continuous
100
AcDbLine
 10
-173.645604
 20
-56.12297
 30
0.0
 11
-145.543074
 21
-56.12297
 31
0.0
  0
LINE
  5
42
100
AcDbEntity
  8
0
370
    -3
  6
Continuous
100
AcDbLine
 10
-173.645604
 20
-60.608849
 30
0.0
 11
-145.543074
 21
-60.608849
 31
0.0
  0
LINE
  5
43
100
AcDbEntity
  8
0
370
    -3
  6
Continuous
100
AcDbLine
 10
-173.645604
 20
-61.822558
 30
0.0
 11
-145.543074
 21
-61.822558
 31
0.0
  0
LINE
  5
44
100
AcDbEntity
  8
0
370
    -3
  6
Continuous
100
AcDbLine
 10
-173.645604
 20
-66.222764
 30
0.0
 11
-145.543074
 21
-66.222764
 31
0.0
  0
LINE
  5
45
100
AcDbEntity
  8
0
370
    -3
  6
Continuous
100
AcDbLine
 10
-259.543074
 20
-32.896167
 30
0.0
 11
-145.543074
 21
-32.896167
 31
0.0
  0
LINE
  5
46
100
AcDbEntity
  8
0
370
    -3
  6
Continuous
100
AcDbLine
 10
-173.645604
 20
-57.322558
 30
0.0
 11
-145.543074
 21
-57.322558
 31
0.0
  0
LINE
  5
47
100
AcDbEntity
  8
0
370
    -3
  6
Continuous
100
AcDbLine
 10
-162.543074
 20
-52.822558
 30
0.0
 11
-145.543074
 21
-52.822558
 31
0.0
  0
LINE
  5
48
100
AcDbEntity
  8
0
370
    -3
  6
Continuous
100
AcDbLine
 10
-173.645604
 20
-94.222764
 30
0.0
 11
-145.543074
 21
-94.222764
 31
0.0
  0
LINE
  5
49
100
AcDbEntity
  8
0
370
    -3
  6
Continuous
100
AcDbLine
 10
-173.645604
 20
-98.615924
 30
0.0
 11
-145.543074
 21
-98.615924
 31
0.0
  0
LINE
  5
4A
100
AcDbEntity
  8
0
370
    -3
  6
Continuous
100
AcDbLine
 10
-173.645604
 20
-99.836679
 30
0.0
 11
-145.543074
 21
-99.836679
 31
0.0
  0
LINE
  5
4B
100
AcDbEntity
  8
0
370
    -3
  6
Continuous
100
AcDbLine
 10
-173.645604
 20
-103.12297
 30
0.0
 11
-162.543074
 21
-103.12297
 31
0.0
  0
LINE
  5
4C
100
AcDbEntity
  8
0
370
    -3
  6
Continuous
100
AcDbLine
 10
-173.645604
 20
-104.322558
 30
0.0
 11
-145.543074
 21
-104.322558
 31
0.0
  0
LINE
  5
4D
100
AcDbEntity
  8
0
370
    -3
  6
Continuous
100
AcDbLine
 10
-173.645604
 20
-107.62297
 30
0.0
 11
-154.043074
 21
-107.62297
 31
0.0
  0
LINE
  5
4E
100
AcDbEntity
  8
0
370
    -3
  6
Continuous
100
AcDbLine
 10
-173.645604
 20
-108.822558
 30
0.0
 11
-145.543074
 21
-108.822558
 31
0.0
  0
LINE
  5
4F
100
AcDbEntity
  8
0
370
    -3
  6
Continuous
100
AcDbLine
 10
-173.645604
 20
-112.12297
 30
0.0
 11
-145.543074
 21
-112.12297
 31
0.0
  0
LINE
  5
50
100
AcDbEntity
  8
0
370
    -3
  6
Continuous
100
AcDbLine
 10
-173.645604
 20
-113.322558
 30
0.0
 11
-145.543074
 21
-113.322558
 31
0.0
  0
LINE
  5
51
100
AcDbEntity
  8
0
370
    -3
  6
Continuous
100
AcDbLine
 10
-173.778265
 20
-120.655211
 30
0.0
 11
-145.543074
 21
-120.655211
 31
0.0
  0
LINE
  5
52
100
AcDbEntity
  8
0
370
    -3
  6
Continuous
100
AcDbLine
 10
-162.543074
 20
-107.62297
 30
0.0
 11
-145.543074
 21
-107.62297
 31
0.0
  0
LINE
  5
53
100
AcDbEntity
  8
0
370
    -3
  6
Continuous
100
AcDbLine
 10
-259.543074
 20
-127.549361
 30
0.0
 11
-145.543074
 21
-127.549361
 31
0.0
  0
LINE
  5
54
100
AcDbEntity
  8
0
370
    -3
  6
Continuous
100
AcDbLine
 10
-162.543074
 20
-103.12297
 30
0.0
 11
-145.543074
 21
-103.12297
 31
0.0
  0
ARC
  5
55
100
AcDbEntity
  8
0
370
    -3
  6
Continuous
100
AcDbCircle
 10
-145.543074
 20
-127.881052
 30
0.0
 40
1.0
100
AcDbArc
 50
0.0
 51
90.0
  0
ARC
  5
56
100
AcDbEntity
  8
0
370
    -3
  6
Continuous
100
AcDbCircle
 10
-143.543074
 20
-130.222764
 30
0.0
 40
1.0
100
AcDbArc
 50
180.0
 51
270.0
  0
LINE
  5
57
100
AcDbEntity
  8
0
370
    -3
  6
Continuous
100
AcDbLine
 10
-144.543074
 20
-127.881052
 30
0.0
 11
-144.543074
 21
-130.222764
 31
0.0
  0
ARC
  5
58
100
AcDbEntity
  8
0
370
    -3
  6
Continuous
100
AcDbCircle
 10
-145.543074
 20
-118.482106
 30
0.0
 40
1.0
100
AcDbArc
 50
270.0
 51
0.0
  0
LINE
  5
59
100
AcDbEntity
  8
0
370
    -3
  6
Continuous
100
AcDbLine
 10
-144.543074
 20
-80.222764
 30
0.0
 11
-144.543074
 21
-118.482106
 31
0.0
  0
ARC
  5
5A
100
AcDbEntity
  8
0
370
    -3
  6
Continuous
100
AcDbCircle
 10
-145.543074
 20
-32.564476
 30
0.0
 40
1.0
100
AcDbArc
 50
270.0
 51
0.0
  0
ARC
  5
5B
100
AcDbEntity
  8
0
370
    -3
  6
Continuous
100
AcDbCircle
 10
-143.543074
 20
-30.222764
 30
0.0
 40
1.0
100
AcDbArc
 50
90.0
 51
180.0
  0
LINE
  5
5C
100
AcDbEntity
  8
0
370
    -3
  6
Continuous
100
AcDbLine
 10
-144.543074
 20
-32.564476
 30
0.0
 11
-144.543074
 21
-30.222764
 31
0.0
  0
ARC
  5
5D
100
AcDbEntity
  8
0
370
    -3
  6
Continuous
100
AcDbCircle
 10
-145.543074
 20
-41.963422
 30
0.0
 40
1.0
100
AcDbArc
 50
0.0
 51
90.0
  0
LINE
  5
5E
100
AcDbEntity
  8
0
370
    -3
  6
Continuous
100
AcDbLine
 10
-144.543074
 20
-80.222764
 30
0.0
 11
-144.543074
 21
-41.963422
 31
0.0
  0
LINE
  5
5F
100
AcDbEntity
  8
0
370
    -3
  6
Continuous
100
AcDbLine
 10
15.956926
 20
-50.222764
 30
0.0
 11
-16.043074
 21
-50.222764
 31
0.0
  0
LINE
  5
60
100
AcDbEntity
  8
0
370
    -3
  6
Continuous
100
AcDbLine
 10
15.956926
 20
-58.222764
 30
0.0
 11
-16.043074
 21
-58.222764
 31
0.0
  0
ARC
  5
61
100
AcDbEntity
  8
0
370
    -3
  6
Continuous
100
AcDbCircle
 10
-16.043074
 20
-54.222764
 30
0.0
 40
4.0
100
AcDbArc
 50
90.0
 51
270.0
  0
ARC
  5
62
100
AcDbEntity
  8
0
370
    -3
  6
Continuous
100
AcDbCircle
 10
15.556926
 20
-67.822764
 30
0.0
 40
0.4
100
AcDbArc
 50
270.0
 51
0.0
  0
LINE
  5
63
100
AcDbEntity
  8
0
370
    -3
  6
Continuous
100
AcDbLine
 10
15.556926
 20
-68.222764
 30
0.0
 11
-23.483266
 21
-68.222764
 31
0.0
  0
LINE
  5
64
100
AcDbEntity
  8
0
370
    -3
  6
Continuous
100
AcDbLine
 10
15.956926
 20
-67.822764
 30
0.0
 11
15.956926
 21
-54.222764
 31
0.0
  0
ARC
  5
65
100
AcDbEntity
  8
0
370
    -3
  6
Continuous
100
AcDbCircle
 10
15.556926
 20
-40.622764
 30
0.0
 40
0.4
100
AcDbArc
 50
0.0
 51
90.0
  0
LINE
  5
66
100
AcDbEntity
  8
0
370
    -3
  6
Continuous
100
AcDbLine
 10
15.556926
 20
-40.222764
 30
0.0
 11
-23.483266
 21
-40.222764
 31
0.0
  0
LINE
  5
67
100
AcDbEntity
  8
0
370
    -3
  6
Continuous
100
AcDbLine
 10
15.956926
 20
-40.622764
 30
0.0
 11
15.956926
 21
-54.222764
 31
0.0
  0
LINE
  5
68
100
AcDbEntity
  8
0
370
    -3
  6
Continuous
100
AcDbLine
 10
-24.043074
 20
-40.372764
 30
0.0
 11
-25.643074
 21
-40.372764
 31
0.0
  0
LINE
  5
69
100
AcDbEntity
  8
0
370
    -3
  6
Continuous
100
AcDbLine
 10
-23.483266
 20
-40.222764
 30
0.0
 11
-24.043074
 21
-40.372764
 31
0.0
  0
ARC
  5
6A
100
AcDbEntity
  8
0
370
    -3
  6
Continuous
100
AcDbCircle
 10
-25.643074
 20
-39.972764
 30
0.0
 40
0.4
100
AcDbArc
 50
180.0
 51
270.0
  0
LINE
  5
6B
100
AcDbEntity
  8
0
370
    -3
  6
Continuous
100
AcDbLine
 10
-26.043074
 20
-39.922764
 30
0.0
 11
-26.243074
 21
-39.722764
 31
0.0
  0
LINE
  5
6C
100
AcDbEntity
  8
0
370
    -3
  6
Continuous
100
AcDbLine
 10
-26.043074
 20
-54.222764
 30
0.0
 11
-26.043074
 21
-39.922764
 31
0.0
  0
LINE
  5
6D
100
AcDbEntity
  8
0
370
    -3
  6
Continuous
100
AcDbLine
 10
-26.243074
 20
-39.722764
 30
0.0
 11
-28.043074
 21
-39.722764
 31
0.0
  0
LINE
  5
6E
100
AcDbEntity
  8
0
370
    -3
  6
Continuous
100
AcDbLine
 10
-24.043074
 20
-68.072764
 30
0.0
 11
-25.643074
 21
-68.072764
 31
0.0
  0
LINE
  5
6F
100
AcDbEntity
  8
0
370
    -3
  6
Continuous
100
AcDbLine
 10
-23.483266
 20
-68.222764
 30
0.0
 11
-24.043074
 21
-68.072764
 31
0.0
  0
ARC
  5
70
100
AcDbEntity
  8
0
370
    -3
  6
Continuous
100
AcDbCircle
 10
-25.643074
 20
-68.472764
 30
0.0
 40
0.4
100
AcDbArc
 50
90.0
 51
180.0
  0
LINE
  5
71
100
AcDbEntity
  8
0
370
    -3
  6
Continuous
100
AcDbLine
 10
-26.043074
 20
-68.522764
 30
0.0
 11
-26.243074
 21
-68.722764
 31
0.0
  0
LINE
  5
72
100
AcDbEntity
  8
0
370
    -3
  6
Continuous
100
AcDbLine
 10
-26.043074
 20
-54.222764
 30
0.0
 11
-26.043074
 21
-68.522764
 31
0.0
  0
LINE
  5
73
100
AcDbEntity
  8
0
370
    -3
  6
Continuous
100
AcDbLine
 10
-26.243074
 20
-68.722764
 30
0.0
 11
-28.043074
 21
-68.722764
 31
0.0
  0
ARC
  5
74
100
AcDbEntity
  8
0
370
    -3
  6
Continuous
100
AcDbCircle
 10
-40.043074
 20
-158.127821
 30
0.0
 40
0.5
100
AcDbArc
 50
269.0
 51
0.0
  0
ARC
  5
75
100
AcDbEntity
  8
0
370
    -3
  6
Continuous
100
AcDbCircle
 10
-29.043074
 20
-80.722764
 30
0.0
 40
1.0
100
AcDbArc
 50
270.0
 51
0.0
  0
ARC
  5
76
100
AcDbEntity
  8
0
370
    -3
  6
Continuous
100
AcDbCircle
 10
-29.043074
 20
-27.722764
 30
0.0
 40
1.0
100
AcDbArc
 50
0.0
 51
90.0
  0
LINE
  5
77
100
AcDbEntity
  8
0
370
    -3
  6
Continuous
100
AcDbLine
 10
-29.043074
 20
-81.722764
 30
0.0
 11
-29.09541
 21
-81.777915
 31
0.0
  0
LINE
  5
78
100
AcDbEntity
  8
0
370
    -3
  6
Continuous
100
AcDbLine
 10
-29.043074
 20
-26.722764
 30
0.0
 11
-29.09541
 21
-26.667613
 31
0.0
  0
LINE
  5
79
100
AcDbEntity
  8
0
370
    -3
  6
Continuous
100
AcDbLine
 10
-40.0518
 20
-158.627744
 30
0.0
 11
-119.543074
 21
-157.240219
 31
0.0
  0
LINE
  5
7A
100
AcDbEntity
  8
0
370
    -3
  6
Continuous
100
AcDbLine
 10
-33.093354
 20
-149.314492
 30
0.0
 11
-32.543074
 21
-148.734618
 31
0.0
  0
LINE
  5
7B
100
AcDbEntity
  8
0
370
    -3
  6
Continuous
100
AcDbLine
 10
-33.093354
 20
40.868964
 30
0.0
 11
-32.543074
 21
40.28909
 31
0.0
  0
LINE
  5
7C
100
AcDbEntity
  8
0
370
    -3
  6
Continuous
100
AcDbLine
 10
-33.093354
 20
40.868964
 30
0.0
 11
-42.438402
 21
41.358717
 31
0.0
  0
LINE
  5
7D
100
AcDbEntity
  8
0
370
    -3
  6
Continuous
100
AcDbLine
 10
-28.043074
 20
-54.222764
 30
0.0
 11
-28.043074
 21
-80.722764
 31
0.0
  0
LINE
  5
7E
100
AcDbEntity
  8
0
370
    -3
  6
Continuous
100
AcDbLine
 10
-28.043074
 20
-54.222764
 30
0.0
 11
-28.043074
 21
-27.722764
 31
0.0
  0
ARC
  5
7F
100
AcDbEntity
  8
0
370
    -3
  6
Continuous
100
AcDbCircle
 10
-68.019751
 20
7.614439
 30
0.0
 40
5.0
100
AcDbArc
 50
272.0
 51
330.0
  0
LINE
  5
80
100
AcDbEntity
  8
0
370
    -3
  6
Continuous
100
AcDbLine
 10
-45.207961
 20
37.125618
 30
0.0
 11
-63.689624
 21
5.114439
 31
0.0
  0
ARC
  5
81
100
AcDbEntity
  8
0
370
    -3
  6
Continuous
100
AcDbCircle
 10
-42.543074
 20
39.361458
 30
0.0
 40
2.0
100
AcDbArc
 50
177.83731
 51
180.0
  0
LINE
  5
82
100
AcDbEntity
  8
0
370
    -3
  6
Continuous
100
AcDbLine
 10
-119.543074
 20
-157.240219
 30
0.0
 11
-119.543074
 21
0.812157
 31
0.0
  0
LINE
  5
83
100
AcDbEntity
  8
0
370
    -3
  6
Continuous
100
AcDbLine
 10
-29.543074
 20
30.777236
 30
0.0
 11
-32.543074
 21
30.777236
 31
0.0
  0
LINE
  5
84
100
AcDbEntity
  8
0
370
    -3
  6
Continuous
100
AcDbLine
 10
-29.543074
 20
-139.222764
 30
0.0
 11
-32.543074
 21
-139.222764
 31
0.0
  0
ARC
  5
85
100
AcDbEntity
  8
0
370
    -3
  6
Continuous
100
AcDbCircle
 10
-49.538088
 20
39.625618
 30
0.0
 40
5.0
100
AcDbArc
 50
330.0
 51
357.83731
  0
ARC
  5
86
100
AcDbEntity
  8
0
370
    -3
  6
Continuous
100
AcDbCircle
 10
-29.043074
 20
-25.668984
 30
0.0
 40
1.0
100
AcDbArc
 50
240.0
 51
267.0
  0
ARC
  5
87
100
AcDbEntity
  8
0
370
    -3
  6
Continuous
100
AcDbCircle
 10
-29.043074
 20
-82.776544
 30
0.0
 40
1.0
100
AcDbArc
 50
93.0
 51
120.0
  0
LINE
  5
88
100
AcDbEntity
  8
0
370
    -3
  6
Continuous
100
AcDbLine
 10
-29.543074
 20
30.777236
 30
0.0
 11
-29.543074
 21
-54.222764
 31
0.0
  0
LINE
  5
89
100
AcDbEntity
  8
0
370
    -3
  6
Continuous
100
AcDbLine
 10
-29.543074
 20
-139.222764
 30
0.0
 11
-29.543074
 21
-54.222764
 31
0.0
  0
LINE
  5
8A
100
AcDbEntity
  8
0
370
    -3
  6
Continuous
100
AcDbLine
 10
-33.093354
 20
-149.314492
 30
0.0
 11
-42.438402
 21
-149.804246
 31
0.0
  0
LINE
  5
8B
100
AcDbEntity
  8
0
370
    -3
  6
Continuous
100
AcDbLine
 10
-39.543074
 20
-149.652508
 30
0.0
 11
-39.543074
 21
-158.127821
 31
0.0
  0
LINE
  5
8C
100
AcDbEntity
  8
0
370
    -3
  6
Continuous
100
AcDbLine
 10
-44.543074
 20
39.361458
 30
0.0
 11
-44.543074
 21
-147.806986
 31
0.0
  0
ARC
  5
8D
100
AcDbEntity
  8
0
370
    -3
  6
Continuous
100
AcDbCircle
 10
-42.543074
 20
-147.806986
 30
0.0
 40
2.0
100
AcDbArc
 50
180.0
 51
273.0
  0
ARC
  5
8E
100
AcDbEntity
  8
0
370
    -3
  6
Continuous
100
AcDbCircle
 10
-42.543074
 20
39.361458
 30
0.0
 40
2.0
100
AcDbArc
 50
87.0
 51
180.0
  0
LINE
  5
8F
100
AcDbEntity
  8
0
370
    -3
  6
Continuous
100
AcDbLine
 10
-32.543074
 20
40.28909
 30
0.0
 11
-32.543074
 21
-54.222764
 31
0.0
  0
LINE
  5
90
100
AcDbEntity
  8
0
370
    -3
  6
Continuous
100
AcDbLine
 10
-32.543074
 20
-148.734618
 30
0.0
 11
-32.543074
 21
-54.222764
 31
0.0
  0
LINE
  5
91
100
AcDbEntity
  8
0
370
    -3
  6
CENTER
100
AcDbLine
 10
-21.924621
 20
28.862283
 30
0.0
 11
-54.400082
 21
28.862283
 31
0.0
  0
LINE
  5
92
100
AcDbEntity
  8
0
370
    -3
  6
CENTER
100
AcDbLine
 10
-21.924621
 20
-137.307811
 30
0.0
 11
-54.400082
 21
-137.307811
 31
0.0
  0
ARC
  5
93
100
AcDbEntity
  8
0
370
    -3
  6
Continuous
100
AcDbCircle
 10
-37.543074
 20
-47.222764
 30
0.0
 40
2.0
100
AcDbArc
 50
180.0
 51
270.0
  0
ARC
  5
94
100
AcDbEntity
  8
0
370
    -3
  6
Continuous
100
AcDbCircle
 10
-37.543074
 20
-4.689369
 30
0.0
 40
2.0
100
AcDbArc
 50
90.0
 51
180.0
  0
LINE
  5
95
100
AcDbEntity
  8
0
370
    -3
  6
Continuous
100
AcDbLine
 10
-39.543074
 20
18.978246
 30
0.0
 11
-39.543074
 21
-47.222764
 31
0.0
  0
ARC
  5
96
100
AcDbEntity
  8
0
370
    -3
  6
Continuous
100
AcDbCircle
 10
-37.543074
 20
18.978246
 30
0.0
 40
2.0
100
AcDbArc
 50
90.0
 51
180.0
  0
LINE
  5
97
100
AcDbEntity
  8
0
370
    -3
  6
Continuous
100
AcDbLine
 10
-32.543074
 20
20.978246
 30
0.0
 11
-37.543074
 21
20.978246
 31
0.0
  0
LINE
  5
98
100
AcDbEntity
  8
0
370
    -3
  6
Continuous
100
AcDbLine
 10
-32.543074
 20
-2.689369
 30
0.0
 11
-37.543074
 21
-2.689369
 31
0.0
  0
LINE
  5
99
100
AcDbEntity
  8
0
370
    -3
  6
Continuous
100
AcDbLine
 10
-32.543074
 20
-49.222764
 30
0.0
 11
-37.543074
 21
-49.222764
 31
0.0
  0
ARC
  5
9A
100
AcDbEntity
  8
0
370
    -3
  6
Continuous
100
AcDbCircle
 10
-37.543074
 20
-61.222764
 30
0.0
 40
2.0
100
AcDbArc
 50
90.0
 51
180.0
  0
ARC
  5
9B
100
AcDbEntity
  8
0
370
    -3
  6
Continuous
100
AcDbCircle
 10
-37.543074
 20
-103.756159
 30
0.0
 40
2.0
100
AcDbArc
 50
180.0
 51
270.0
  0
LINE
  5
9C
100
AcDbEntity
  8
0
370
    -3
  6
Continuous
100
AcDbLine
 10
-39.543074
 20
-127.423774
 30
0.0
 11
-39.543074
 21
-61.222764
 31
0.0
  0
ARC
  5
9D
100
AcDbEntity
  8
0
370
    -3
  6
Continuous
100
AcDbCircle
 10
-37.543074
 20
-127.423774
 30
0.0
 40
2.0
100
AcDbArc
 50
180.0
 51
270.0
  0
LINE
  5
9E
100
AcDbEntity
  8
0
370
    -3
  6
Continuous
100
AcDbLine
 10
-32.543074
 20
-129.423774
 30
0.0
 11
-37.543074
 21
-129.423774
 31
0.0
  0
LINE
  5
9F
100
AcDbEntity
  8
0
370
    -3
  6
Continuous
100
AcDbLine
 10
-32.543074
 20
-105.756159
 30
0.0
 11
-37.543074
 21
-105.756159
 31
0.0
  0
LINE
  5
A0
100
AcDbEntity
  8
0
370
    -3
  6
Continuous
100
AcDbLine
 10
-32.543074
 20
-59.222764
 30
0.0
 11
-37.543074
 21
-59.222764
 31
0.0
  0
ARC
  5
A1
100
AcDbEntity
  8
0
370
    -3
  6
Continuous
100
AcDbCircle
 10
-66.903661
 20
-4.158642
 30
0.0
 40
5.0
100
AcDbArc
 50
270.0
 51
310.170179
  0
LINE
  5
A2
100
AcDbEntity
  8
0
370
    -3
  6
Continuous
100
AcDbLine
 10
-63.678361
 20
-7.979302
 30
0.0
 11
-46.317773
 21
6.676051
 31
0.0
  0
ARC
  5
A3
100
AcDbEntity
  8
0
370
    -3
  6
Continuous
100
AcDbCircle
 10
-49.543074
 20
10.49671
 30
0.0
 40
5.0
100
AcDbArc
 50
310.170179
 51
0.0
  0
ARC
  5
A4
100
AcDbEntity
  8
0
370
    -3
  6
Continuous
100
AcDbCircle
 10
-66.903661
 20
0.619532
 30
0.0
 40
5.0
100
AcDbArc
 50
270.0
 51
310.170179
  0
LINE
  5
A5
100
AcDbEntity
  8
0
370
    -3
  6
Continuous
100
AcDbLine
 10
-63.678361
 20
-3.201127
 30
0.0
 11
-46.317773
 21
11.454225
 31
0.0
  0
ARC
  5
A6
100
AcDbEntity
  8
0
370
    -3
  6
Continuous
100
AcDbCircle
 10
-49.543074
 20
15.274885
 30
0.0
 40
5.0
100
AcDbArc
 50
310.170179
 51
0.0
  0
LINE
  5
A7
100
AcDbEntity
  8
0
370
    -3
  6
Continuous
100
AcDbLine
 10
-119.543074
 20
0.812157
 30
0.0
 11
-56.30845
 21
3.020358
 31
0.0
  0
LINE
  5
A8
100
AcDbEntity
  8
0
370
    -3
  6
Continuous
100
AcDbLine
 10
-62.612815
 20
-9.158642
 30
0.0
 11
-46.782266
 21
-9.158642
 31
0.0
  0
LINE
  5
A9
100
AcDbEntity
  8
0
370
    -3
  6
Continuous
100
AcDbLine
 10
-26.043074
 20
-54.222764
 30
0.0
 11
-26.043074
 21
-42.622764
 31
0.0
  0
LINE
  5
AA
100
AcDbEntity
  8
0
370
    -3
  6
Continuous
100
AcDbLine
 10
-26.043074
 20
-54.222764
 30
0.0
 11
-26.043074
 21
-65.822764
 31
0.0
  0
LINE
  5
AB
100
AcDbEntity
  8
0
370
    -3
  6
CENTER
100
AcDbLine
 10
18.439334
 20
-54.222764
 30
0.0
 11
-61.536919
 21
-54.222764
 31
0.0
  0
LINE
  5
AC
100
AcDbEntity
  8
0
370
    -3
  6
Continuous
100
AcDbLine
 10
-130.043074
 20
-87.222764
 30
0.0
 11
-127.043074
 21
-87.222764
 31
0.0
  0
ARC
  5
AD
100
AcDbEntity
  8
0
370
    -3
  6
Continuous
100
AcDbCircle
 10
-127.043074
 20
-86.222764
 30
0.0
 40
1.0
100
AcDbArc
 50
270.0
 51
0.0
  0
LINE
  5
AE
100
AcDbEntity
  8
0
370
    -3
  6
Continuous
100
AcDbLine
 10
-130.043074
 20
-73.222764
 30
0.0
 11
-127.043074
 21
-73.222764
 31
0.0
  0
LINE
  5
AF
100
AcDbEntity
  8
0
370
    -3
  6
Continuous
100
AcDbLine
 10
-126.043074
 20
-86.222764
 30
0.0
 11
-126.043074
 21
-74.222764
 31
0.0
  0
ARC
  5
B0
100
AcDbEntity
  8
0
370
    -3
  6
Continuous
100
AcDbCircle
 10
-127.043074
 20
-74.222764
 30
0.0
 40
1.0
100
AcDbArc
 50
0.0
 51
90.0
  0
LINE
  5
B1
100
AcDbEntity
  8
0
370
    -3
  6
Continuous
100
AcDbLine
 10
-126.043074
 20
-12.616777
 30
0.0
 11
-126.043074
 21
-3.813257
 31
0.0
  0
LINE
  5
B2
100
AcDbEntity
  8
0
370
    -3
  6
Continuous
100
AcDbLine
 10
-130.043074
 20
-13.616777
 30
0.0
 11
-127.043074
 21
-13.616777
 31
0.0
  0
ARC
  5
B3
100
AcDbEntity
  8
0
370
    -3
  6
Continuous
100
AcDbCircle
 10
-127.043074
 20
-12.616777
 30
0.0
 40
1.0
100
AcDbArc
 50
270.0
 51
0.0
  0
LINE
  5
B4
100
AcDbEntity
  8
0
370
    -3
  6
Continuous
100
AcDbLine
 10
-130.043074
 20
-2.813257
 30
0.0
 11
-127.043074
 21
-2.813257
 31
0.0
  0
ARC
  5
B5
100
AcDbEntity
  8
0
370
    -3
  6
Continuous
100
AcDbCircle
 10
-127.043074
 20
-3.813257
 30
0.0
 40
1.0
100
AcDbArc
 50
0.0
 51
90.0
  0
LINE
  5
B6
100
AcDbEntity
  8
0
370
    -3
  6
Continuous
100
AcDbLine
 10
-126.043074
 20
-156.722764
 30
0.0
 11
-126.043074
 21
-147.200637
 31
0.0
  0
LINE
  5
B7
100
AcDbEntity
  8
0
370
    -3
  6
Continuous
100
AcDbLine
 10
-130.043074
 20
-146.200637
 30
0.0
 11
-127.043074
 21
-146.200637
 31
0.0
  0
ARC
  5
B8
100
AcDbEntity
  8
0
370
    -3
  6
Continuous
100
AcDbCircle
 10
-127.043074
 20
-147.200637
 30
0.0
 40
1.0
100
AcDbArc
 50
0.0
 51
90.0
  0
ARC
  5
B9
100
AcDbEntity
  8
0
370
    -3
  6
Continuous
100
AcDbCircle
 10
-125.043074
 20
-155.722764
 30
0.0
 40
1.0
100
AcDbArc
 50
180.0
 51
270.0
  0
LINE
  5
BA
100
AcDbEntity
  8
0
370
    -3
  6
Continuous
100
AcDbLine
 10
-126.043074
 20
-8.122765
 30
0.0
 11
-126.043074
 21
-12.616777
 31
0.0
  0
POINT
  5
BB
100
AcDbEntity
  8
0
370
    -3
  6
Continuous
100
AcDbPoint
 10
-126.043074
 20
-151.722764
 30
0.0
  0
LINE
  5
BC
100
AcDbEntity
  8
0
370
    -3
  6
Continuous
100
AcDbLine
 10
-120.043074
 20
-80.222764
 30
0.0
 11
-120.043074
 21
0.777236
 31
0.0
  0
LINE
  5
BD
100
AcDbEntity
  8
0
370
    -3
  6
Continuous
100
AcDbLine
 10
-120.043074
 20
-80.222764
 30
0.0
 11
-120.043074
 21
-156.722764
 31
0.0
  0
LINE
  5
BE
100
AcDbEntity
  8
0
370
    -3
  6
Continuous
100
AcDbLine
 10
-120.043074
 20
0.777236
 30
0.0
 11
-129.043072
 21
0.777236
 31
0.0
  0
LINE
  5
BF
100
AcDbEntity
  8
0
370
    -3
  6
Continuous
100
AcDbLine
 10
-120.043074
 20
-156.722764
 30
0.0
 11
-126.043074
 21
-156.722764
 31
0.0
  0
ARC
  5
C0
100
AcDbEntity
  8
0
370
    -3
  6
Continuous
100
AcDbCircle
 10
-130.043074
 20
-88.222764
 30
0.0
 40
1.0
100
AcDbArc
 50
90.0
 51
180.0
  0
ARC
  5
C1
100
AcDbEntity
  8
0
370
    -3
  6
Continuous
100
AcDbCircle
 10
-132.043074
 20
-55.222764
 30
0.0
 40
2.0
100
AcDbArc
 50
104.477512
 51
180.0
  0
ARC
  5
C2
100
AcDbEntity
  8
0
370
    -3
  6
Continuous
100
AcDbCircle
 10
-133.043074
 20
-51.349781
 30
0.0
 40
2.0
100
AcDbArc
 50
284.477512
 51
0.0
  0
ARC
  5
C3
100
AcDbEntity
  8
0
370
    -3
  6
Continuous
100
AcDbCircle
 10
-132.043074
 20
-67.222764
 30
0.0
 40
2.0
100
AcDbArc
 50
180.0
 51
255.522488
  0
LINE
  5
C4
100
AcDbEntity
  8
0
370
    -3
  6
Continuous
100
AcDbLine
 10
-134.043074
 20
-67.222764
 30
0.0
 11
-134.043074
 21
-55.222764
 31
0.0
  0
ARC
  5
C5
100
AcDbEntity
  8
0
370
    -3
  6
Continuous
100
AcDbCircle
 10
-133.043074
 20
-71.095747
 30
0.0
 40
2.0
100
AcDbArc
 50
0.0
 51
75.522488
  0
ARC
  5
C6
100
AcDbEntity
  8
0
370
    -3
  6
Continuous
100
AcDbCircle
 10
-130.043074
 20
-72.222764
 30
0.0
 40
1.0
100
AcDbArc
 50
180.0
 51
270.0
  0
LINE
  5
C7
100
AcDbEntity
  8
0
370
    -3
  6
Continuous
100
AcDbLine
 10
-144.543074
 20
-100.222764
 30
0.0
 11
-131.043074
 21
-100.222764
 31
0.0
  0
ARC
  5
C8
100
AcDbEntity
  8
0
370
    -3
  6
Continuous
100
AcDbCircle
 10
-136.043074
 20
-136.487718
 30
0.0
 40
5.0
100
AcDbArc
 50
0.0
 51
88.0
  0
LINE
  5
C9
100
AcDbEntity
  8
0
370
    -3
  6
Continuous
100
AcDbLine
 10
-143.543074
 20
-131.222764
 30
0.0
 11
-135.868576
 21
-131.490763
 31
0.0
  0
ARC
  5
CA
100
AcDbEntity
  8
0
370
    -3
  6
Continuous
100
AcDbCircle
 10
-136.043074
 20
-23.957811
 30
0.0
 40
5.0
100
AcDbArc
 50
272.0
 51
0.0
  0
ARC
  5
CB
100
AcDbEntity
  8
0
370
    -3
  6
Continuous
100
AcDbCircle
 10
-130.043074
 20
-14.616777
 30
0.0
 40
1.0
100
AcDbArc
 50
90.0
 51
180.0
  0
ARC
  5
CC
100
AcDbEntity
  8
0
370
    -3
  6
Continuous
100
AcDbCircle
 10
-130.043074
 20
-1.813257
 30
0.0
 40
1.0
100
AcDbArc
 50
180.0
 51
270.0
  0
LINE
  5
CD
100
AcDbEntity
  8
0
370
    -3
  6
Continuous
100
AcDbLine
 10
-143.543074
 20
-29.222764
 30
0.0
 11
-135.868576
 21
-28.954765
 31
0.0
  0
ARC
  5
CE
100
AcDbEntity
  8
0
370
    -3
  6
Continuous
100
AcDbCircle
 10
-130.043074
 20
-145.200637
 30
0.0
 40
1.0
100
AcDbArc
 50
180.0
 51
270.0
  0
LINE
  5
CF
100
AcDbEntity
  8
0
370
    -3
  6
Continuous
100
AcDbLine
 10
-144.543074
 20
-60.222764
 30
0.0
 11
-134.043074
 21
-60.222764
 31
0.0
  0
ARC
  5
D0
100
AcDbEntity
  8
0
370
    -3
  6
Continuous
100
AcDbCircle
 10
-136.043074
 20
-138.279907
 30
0.0
 40
5.0
100
AcDbArc
 50
0.0
 51
87.0
  0
ARC
  5
D1
100
AcDbEntity
  8
0
370
    -3
  6
Continuous
100
AcDbCircle
 10
-136.043074
 20
-22.165621
 30
0.0
 40
5.0
100
AcDbArc
 50
273.0
 51
0.0
  0
LINE
  5
D2
100
AcDbEntity
  8
0
370
    -3
  6
Continuous
100
AcDbLine
 10
-131.043074
 20
-85.222764
 30
0.0
 11
-131.043074
 21
-146.722764
 31
0.0
  0
ARC
  5
D3
100
AcDbEntity
  8
0
370
    -3
  6
Continuous
100
AcDbCircle
 10
-129.043074
 20
-1.222764
 30
0.0
 40
2.0
100
AcDbArc
 50
90.0
 51
180.0
  0
LINE
  5
D4
100
AcDbEntity
  8
0
370
    -3
  6
Continuous
100
AcDbLine
 10
-135.781394
 20
-133.28676
 30
0.0
 11
-145.543074
 21
-132.775172
 31
0.0
  0
LINE
  5
D5
100
AcDbEntity
  8
0
370
    -3
  6
Continuous
100
AcDbLine
 10
-131.043074
 20
-71.095747
 30
0.0
 11
-131.043074
 21
-75.222764
 31
0.0
  0
LINE
  5
D6
100
AcDbEntity
  8
0
370
    -3
  6
Continuous
100
AcDbLine
 10
-135.781394
 20
-27.158768
 30
0.0
 11
-145.543074
 21
-27.670356
 31
0.0
  0
LINE
  5
D7
100
AcDbEntity
  8
0
370
    -3
  6
Continuous
100
AcDbLine
 10
-131.043074
 20
-51.349781
 30
0.0
 11
-131.043074
 21
-14.616777
 31
0.0
  0
LINE
  5
D8
100
AcDbEntity
  8
0
370
    -3
  6
Continuous
100
AcDbLine
 10
-132.043074
 20
-19.222764
 30
0.0
 11
-132.043074
 21
-9.222764
 31
0.0
  0
LINE
  5
D9
100
AcDbEntity
  8
0
370
    -3
  6
Continuous
100
AcDbLine
 10
-126.043074
 20
-9.222764
 30
0.0
 11
-132.043074
 21
-9.222764
 31
0.0
  0
LINE
  5
DA
100
AcDbEntity
  8
0
370
    -3
  6
Continuous
100
AcDbLine
 10
-131.043074
 20
-9.222764
 30
0.0
 11
-131.043074
 21
-1.222764
 31
0.0
  0
LINE
  5
DB
100
AcDbEntity
  8
0
370
    -3
  6
Continuous
100
AcDbLine
 10
-131.043074
 20
-19.222764
 30
0.0
 11
-132.043074
 21
-19.222764
 31
0.0
  0
INSERT
  5
E4
100
AcDbEntity
  8
0
100
AcDbBlockReference
  2
ZU_SYM__USERS_HOME_SYMBOL_POO_SYM_B20_-1
 10
-126.043074
 20
-80.222764
 30
0.0
  0
LINE
  5
E5
100
AcDbEntity
  8
0
370
    -3
  6
Continuous
100
AcDbLine
 10
-126.043074
 20
-156.722764
 30
0.0
 11
-132.043074
 21
-156.722764
 31
0.0
  0
LINE
  5
E6
100
AcDbEntity
  8
0
370
    -3
  6
Continuous
100
AcDbLine
 10
-132.043074
 20
-156.722764
 30
0.0
 11
-132.043074
 21
-146.722764
 31
0.0
  0
LINE
  5
E7
100
AcDbEntity
  8
0
370
    -3
  6
Continuous
100
AcDbLine
 10
-126.164645
 20
-146.722764
 30
0.0
 11
-132.043074
 21
-146.722764
 31
0.0
  0
LINE
  5
E8
100
AcDbEntity
  8
0
370
    -3
  6
Continuous
100
AcDbLine
 10
-145.543074
 20
-132.722764
 30
0.0
 11
-145.543074
 21
-80.222764
 31
0.0
  0
LINE
  5
E9
100
AcDbEntity
  8
0
370
    -3
  6
Continuous
100
AcDbLine
 10
-145.543074
 20
-27.722764
 30
0.0
 11
-145.543074
 21
-80.222764
 31
0.0
  0
LINE
  5
EA
100
AcDbEntity
  8
0
370
    -3
  6
Continuous
100
AcDbLine
 10
-145.543074
 20
-80.222764
 30
0.0
 11
-145.543074
 21
-27.722764
 31
0.0
  0
LINE
  5
EB
100
AcDbEntity
  8
0
370
    -3
  6
Continuous
100
AcDbLine
 10
-145.543074
 20
-80.222764
 30
0.0
 11
-145.543074
 21
-132.722764
 31
0.0
  0
LINE
  5
EC
100
AcDbEntity
  8
0
370
    -3
  6
Continuous
100
AcDbLine
 10
-145.543074
 20
-27.670356
 30
0.0
 11
-145.543074
 21
-80.222764
 31
0.0
  0
LINE
  5
ED
100
AcDbEntity
  8
0
370
    -3
  6
Continuous
100
AcDbLine
 10
-145.543074
 20
-132.775172
 30
0.0
 11
-145.543074
 21
-80.222764
 31
0.0
  0
LINE
  5
EE
100
AcDbEntity
  8
0
370
    -3
  6
CENTER
100
AcDbLine
 10
-116.845287
 20
-80.222764
 30
0.0
 11
-295.937552
 21
-80.222764
 31
0.0
  0
LINE
  5
EF
100
AcDbEntity
  8
0
370
    -3
  6
Continuous
100
AcDbLine
 10
-145.543074
 20
-80.222764
 30
0.0
 11
-145.543074
 21
-132.722764
 31
0.0
  0
LINE
  5
F0
100
AcDbEntity
  8
0
370
    -3
  6
Continuous
100
AcDbLine
 10
-145.543074
 20
-80.222764
 30
0.0
 11
-145.543074
 21
-27.722764
 31
0.0
  0
ARC
  5
F1
100
AcDbEntity
  8
0
370
    -3
  6
Continuous
100
AcDbCircle
 10
193.928074
 20
-64.495913
 30
0.0
 40
62.692928
100
AcDbArc
 50
52.533621
 51
56.614043
  0
ARC
  5
F2
100
AcDbEntity
  8
0
370
    -3
  6
Continuous
100
AcDbCircle
 10
179.428074
 20
-54.222764
 30
0.0
 40
42.0
100
AcDbArc
 50
318.41248
 51
356.58752
  0
ARC
  5
F3
100
AcDbEntity
  8
0
370
    -3
  6
Continuous
100
AcDbCircle
 10
209.904283
 20
-76.920798
 30
0.0
 40
3.0
100
AcDbArc
 50
143.322041
 51
225.0
  0
ARC
  5
F4
100
AcDbEntity
  8
0
370
    -3
  6
Continuous
100
AcDbCircle
 10
179.428074
 20
-54.222764
 30
0.0
 40
42.0
100
AcDbArc
 50
48.41248
 51
86.58752
  0
ARC
  5
F5
100
AcDbEntity
  8
0
370
    -3
  6
Continuous
100
AcDbCircle
 10
226.775666
 20
-14.653347
 30
0.0
 40
3.0
100
AcDbArc
 50
56.614043
 51
135.0
  0
ARC
  5
F6
100
AcDbEntity
  8
0
370
    -3
  6
Continuous
100
AcDbCircle
 10
216.597575
 20
-9.275089
 30
0.0
 40
3.0
100
AcDbArc
 50
315.0
 51
67.680649
  0
ARC
  5
F7
100
AcDbEntity
  8
0
370
    -3
  6
Continuous
100
AcDbCircle
 10
202.126108
 20
-23.746556
 30
0.0
 40
3.0
100
AcDbArc
 50
233.322041
 51
315.0
  0
ARC
  5
F8
100
AcDbEntity
  8
0
370
    -3
  6
Continuous
100
AcDbCircle
 10
209.904283
 20
-31.52473
 30
0.0
 40
3.0
100
AcDbArc
 50
135.0
 51
216.677959
  0
ARC
  5
F9
100
AcDbEntity
  8
0
370
    -3
  6
Continuous
100
AcDbCircle
 10
142.258574
 20
-9.275089
 30
0.0
 40
3.0
100
AcDbArc
 50
112.319351
 51
225.0
  0
ARC
  5
FA
100
AcDbEntity
  8
0
370
    -3
  6
Continuous
100
AcDbCircle
 10
132.080483
 20
-14.653347
 30
0.0
 40
3.0
100
AcDbArc
 50
45.0
 51
123.385957
  0
ARC
  5
FB
100
AcDbEntity
  8
0
370
    -3
  6
Continuous
100
AcDbCircle
 10
179.428074
 20
-54.222764
 30
0.0
 40
42.0
100
AcDbArc
 50
138.41248
 51
176.58752
  0
ARC
  5
FC
100
AcDbEntity
  8
0
370
    -3
  6
Continuous
100
AcDbCircle
 10
148.951866
 20
-31.52473
 30
0.0
 40
3.0
100
AcDbArc
 50
323.322041
 51
45.0
  0
ARC
  5
FD
100
AcDbEntity
  8
0
370
    -3
  6
Continuous
100
AcDbCircle
 10
156.730041
 20
-23.746556
 30
0.0
 40
3.0
100
AcDbArc
 50
225.0
 51
306.677959
  0
ARC
  5
FE
100
AcDbEntity
  8
0
370
    -3
  6
Continuous
100
AcDbCircle
 10
253.621002
 20
-74.823964
 30
0.0
 40
3.0
100
AcDbArc
 50
344.481586
 51
0.0
  0
ARC
  5
FF
100
AcDbEntity
  8
0
370
    -3
  6
Continuous
100
AcDbCircle
 10
251.499364
 20
-48.722764
 30
0.0
 40
3.0
100
AcDbArc
 50
270.0
 51
15.321688
  0
ARC
  5
100
100
AcDbEntity
  8
0
370
    -3
  6
Continuous
100
AcDbCircle
 10
253.429862
 20
-59.722764
 30
0.0
 40
3.0
100
AcDbArc
 50
4.586365
 51
90.0
  0
ARC
  5
101
100
AcDbEntity
  8
0
370
    -3
  6
Continuous
100
AcDbCircle
 10
173.928074
 20
-4.56385
 30
0.0
 40
3.0
100
AcDbArc
 50
0.0
 51
90.708657
  0
ARC
  5
102
100
AcDbEntity
  8
0
370
    -3
  6
Continuous
100
AcDbCircle
 10
184.928074
 20
-4.56385
 30
0.0
 40
3.0
100
AcDbArc
 50
89.291343
 51
180.0
  0
ARC
  5
103
100
AcDbEntity
  8
0
370
    -3
  6
Continuous
100
AcDbCircle
 10
149.534764
 20
-77.683155
 30
0.0
 40
3.0
100
AcDbArc
 50
281.549997
 51
38.124966
  0
ARC
  5
104
100
AcDbEntity
  8
0
370
    -3
  6
Continuous
100
AcDbCircle
 10
179.428074
 20
-54.222764
 30
0.0
 40
42.0
100
AcDbArc
 50
183.41248
 51
220.223498
  0
ARC
  5
105
100
AcDbEntity
  8
0
370
    -3
  6
Continuous
100
AcDbCircle
 10
179.428074
 20
-54.222764
 30
0.0
 40
42.0
100
AcDbArc
 50
3.41248
 51
41.58752
  0
ARC
  5
106
100
AcDbEntity
  8
0
370
    -3
  6
Continuous
100
AcDbCircle
 10
179.428074
 20
-54.222764
 30
0.0
 40
42.0
100
AcDbArc
 50
93.41248
 51
131.58752
  0
ARC
  5
107
100
AcDbEntity
  8
0
370
    -3
  6
Continuous
100
AcDbCircle
 10
184.928074
 20
-16.622897
 30
0.0
 40
3.0
100
AcDbArc
 50
180.0
 51
261.677959
  0
ARC
  5
108
100
AcDbEntity
  8
0
370
    -3
  6
Continuous
100
AcDbCircle
 10
173.928074
 20
-16.622897
 30
0.0
 40
3.0
100
AcDbArc
 50
278.322041
 51
0.0
  0
ARC
  5
109
100
AcDbEntity
  8
0
370
    -3
  6
Continuous
100
AcDbCircle
 10
217.027942
 20
-59.722764
 30
0.0
 40
3.0
100
AcDbArc
 50
90.0
 51
171.677959
  0
ARC
  5
10A
100
AcDbEntity
  8
0
370
    -3
  6
Continuous
100
AcDbCircle
 10
217.027942
 20
-48.722764
 30
0.0
 40
3.0
100
AcDbArc
 50
188.322041
 51
270.0
  0
ARC
  5
10B
100
AcDbEntity
  8
0
370
    -3
  6
Continuous
100
AcDbCircle
 10
141.828207
 20
-59.722764
 30
0.0
 40
3.0
100
AcDbArc
 50
8.322041
 51
90.0
  0
ARC
  5
10C
100
AcDbEntity
  8
0
370
    -3
  6
Continuous
100
AcDbCircle
 10
141.828207
 20
-48.722764
 30
0.0
 40
3.0
100
AcDbArc
 50
270.0
 51
351.677959
  0
ARC
  5
10D
100
AcDbEntity
  8
0
370
    -3
  6
Continuous
100
AcDbCircle
 10
237.62531
 20
-104.641825
 30
0.0
 40
3.0
100
AcDbArc
 50
225.0
 51
319.096044
  0
ARC
  5
10E
100
AcDbEntity
  8
0
370
    -3
  6
Continuous
100
AcDbCircle
 10
193.928074
 20
-64.495913
 30
0.0
 40
62.692928
100
AcDbArc
 50
67.680649
 51
87.841597
  0
ARC
  5
10F
100
AcDbEntity
  8
0
370
    -3
  6
Continuous
100
AcDbCircle
 10
229.847136
 20
3.974472
 30
0.0
 40
3.0
100
AcDbArc
 50
315.0
 51
49.096044
  0
ARC
  5
110
100
AcDbEntity
  8
0
370
    -3
  6
Continuous
100
AcDbCircle
 10
237.62531
 20
-3.803703
 30
0.0
 40
3.0
100
AcDbArc
 50
40.903956
 51
135.0
  0
ARC
  5
111
100
AcDbEntity
  8
0
370
    -3
  6
Continuous
100
AcDbCircle
 10
121.230839
 20
-3.803703
 30
0.0
 40
3.0
100
AcDbArc
 50
45.0
 51
139.096044
  0
ARC
  5
112
100
AcDbEntity
  8
0
370
    -3
  6
Continuous
100
AcDbCircle
 10
129.009013
 20
3.974472
 30
0.0
 40
3.0
100
AcDbArc
 50
130.903956
 51
225.0
  0
ARC
  5
113
100
AcDbEntity
  8
0
370
    -3
  6
Continuous
100
AcDbCircle
 10
193.928074
 20
-64.495913
 30
0.0
 40
62.692928
100
AcDbArc
 50
15.321688
 51
20.350599
  0
ARC
  5
114
100
AcDbEntity
  8
0
370
    -3
  6
Continuous
100
AcDbCircle
 10
179.428074
 20
-449.222764
 30
0.0
 40
447.692928
100
AcDbArc
 50
87.841597
 51
89.291343
  0
ARC
  5
115
100
AcDbEntity
  8
0
370
    -3
  6
Continuous
100
AcDbCircle
 10
193.928074
 20
-64.495913
 30
0.0
 40
62.692928
100
AcDbArc
 50
0.0
 51
4.586365
  0
ARC
  5
116
100
AcDbEntity
  8
0
370
    -3
  6
Continuous
100
AcDbCircle
 10
179.428074
 20
-449.222764
 30
0.0
 40
447.692928
100
AcDbArc
 50
90.708657
 51
92.158403
  0
ARC
  5
117
100
AcDbEntity
  8
0
370
    -3
  6
Continuous
100
AcDbCircle
 10
164.928074
 20
-64.495913
 30
0.0
 40
62.692928
100
AcDbArc
 50
92.158403
 51
112.319351
  0
ARC
  5
118
100
AcDbEntity
  8
0
370
    -3
  6
Continuous
100
AcDbCircle
 10
234.796618
 20
-152.222764
 30
0.0
 40
3.0
100
AcDbArc
 50
90.0
 51
177.685071
  0
ARC
  5
119
100
AcDbEntity
  8
0
370
    -3
  6
Continuous
100
AcDbCircle
 10
222.428074
 20
-151.722764
 30
0.0
 40
9.378645
100
AcDbArc
 50
312.824692
 51
357.685071
  0
ARC
  5
11A
100
AcDbEntity
  8
0
370
    -3
  6
Continuous
100
AcDbCircle
 10
136.428074
 20
-151.722764
 30
0.0
 40
9.378645
100
AcDbArc
 50
182.314929
 51
227.175308
  0
ARC
  5
11B
100
AcDbEntity
  8
0
370
    -3
  6
Continuous
100
AcDbCircle
 10
124.059531
 20
-152.222764
 30
0.0
 40
3.0
100
AcDbArc
 50
2.314929
 51
90.0
  0
ARC
  5
11C
100
AcDbEntity
  8
0
370
    -3
  6
Continuous
100
AcDbCircle
 10
179.428074
 20
-54.222764
 30
0.0
 40
88.0
100
AcDbArc
 50
5.043502
 51
30.824196
  0
ARC
  5
11D
100
AcDbEntity
  8
0
370
    -3
  6
Continuous
100
AcDbCircle
 10
256.231395
 20
-59.722764
 30
0.0
 40
3.0
100
AcDbArc
 50
355.903956
 51
90.0
  0
ARC
  5
11E
100
AcDbEntity
  8
0
370
    -3
  6
Continuous
100
AcDbCircle
 10
256.231395
 20
-48.722764
 30
0.0
 40
3.0
100
AcDbArc
 50
270.0
 51
4.096044
  0
ARC
  5
11F
100
AcDbEntity
  8
0
370
    -3
  6
Continuous
100
AcDbCircle
 10
173.928074
 20
22.580556
 30
0.0
 40
3.0
100
AcDbArc
 50
0.0
 51
94.096044
  0
ARC
  5
120
100
AcDbEntity
  8
0
370
    -3
  6
Continuous
100
AcDbCircle
 10
184.928074
 20
22.580556
 30
0.0
 40
3.0
100
AcDbArc
 50
85.903956
 51
180.0
  0
ARC
  5
121
100
AcDbEntity
  8
0
370
    -3
  6
Continuous
100
AcDbCircle
 10
255.457512
 20
-147.222764
 30
0.0
 40
2.0
100
AcDbArc
 50
225.0
 51
270.0
  0
CIRCLE
  5
122
100
AcDbEntity
  8
0
370
    -3
  6
Continuous
100
AcDbCircle
 10
262.513121
 20
28.862283
 30
0.0
 40
6.0
  0
ARC
  5
123
100
AcDbEntity
  8
0
370
    -3
  6
Continuous
100
AcDbCircle
 10
264.428074
 20
30.777236
 30
0.0
 40
10.0
100
AcDbArc
 50
0.0
 51
90.0
  0
ARC
  5
124
100
AcDbEntity
  8
0
370
    -3
  6
Continuous
100
AcDbCircle
 10
263.584945
 20
-4.007019
 30
0.0
 40
10.0
100
AcDbArc
 50
135.0
 51
210.824196
  0
ARC
  5
125
100
AcDbEntity
  8
0
370
    -3
  6
Continuous
100
AcDbCircle
 10
255.457512
 20
38.777236
 30
0.0
 40
2.0
100
AcDbArc
 50
90.0
 51
135.0
  0
ARC
  5
126
100
AcDbEntity
  8
0
370
    -3
  6
Continuous
100
AcDbCircle
 10
272.428074
 20
21.806673
 30
0.0
 40
2.0
100
AcDbArc
 50
315.0
 51
0.0
  0
ARC
  5
127
100
AcDbEntity
  8
0
370
    -3
  6
Continuous
100
AcDbCircle
 10
179.428074
 20
-54.222764
 30
0.0
 40
88.0
100
AcDbArc
 50
329.175804
 51
354.956498
  0
ARC
  5
128
100
AcDbEntity
  8
0
370
    -3
  6
Continuous
100
AcDbCircle
 10
263.584945
 20
-104.438509
 30
0.0
 40
10.0
100
AcDbArc
 50
149.175804
 51
225.0
  0
CIRCLE
  5
129
100
AcDbEntity
  8
0
370
    -3
  6
Continuous
100
AcDbCircle
 10
262.513121
 20
-137.307811
 30
0.0
 40
6.0
  0
ARC
  5
12A
100
AcDbEntity
  8
0
370
    -3
  6
CENTER
100
AcDbCircle
 10
179.428074
 20
-54.222764
 30
0.0
 40
117.5
100
AcDbArc
 50
309.635822
 51
320.364178
  0
ARC
  5
12B
100
AcDbEntity
  8
0
370
    -3
  6
Continuous
100
AcDbCircle
 10
264.428074
 20
-139.222764
 30
0.0
 40
10.0
100
AcDbArc
 50
270.0
 51
0.0
  0
ARC
  5
12C
100
AcDbEntity
  8
0
370
    -3
  6
Continuous
100
AcDbCircle
 10
272.428074
 20
-130.252201
 30
0.0
 40
2.0
100
AcDbArc
 50
0.0
 51
45.0
  0
CIRCLE
  5
12D
100
AcDbEntity
  8
0
370
    -3
  6
Continuous
100
AcDbCircle
 10
96.343028
 20
28.862283
 30
0.0
 40
6.0
  0
ARC
  5
12E
100
AcDbEntity
  8
0
370
    -3
  6
Continuous
100
AcDbCircle
 10
94.428074
 20
30.777236
 30
0.0
 40
10.0
100
AcDbArc
 50
90.0
 51
180.0
  0
ARC
  5
12F
100
AcDbEntity
  8
0
370
    -3
  6
CENTER
100
AcDbCircle
 10
179.428074
 20
-54.222764
 30
0.0
 40
117.5
100
AcDbArc
 50
129.635822
 51
140.364178
  0
ARC
  5
130
100
AcDbEntity
  8
0
370
    -3
  6
Continuous
100
AcDbCircle
 10
229.64382
 20
29.934107
 30
0.0
 40
10.0
100
AcDbArc
 50
239.175804
 51
315.0
  0
ARC
  5
131
100
AcDbEntity
  8
0
370
    -3
  6
Continuous
100
AcDbCircle
 10
86.428074
 20
21.806673
 30
0.0
 40
2.0
100
AcDbArc
 50
180.0
 51
225.0
  0
ARC
  5
132
100
AcDbEntity
  8
0
370
    -3
  6
Continuous
100
AcDbCircle
 10
103.398637
 20
38.777236
 30
0.0
 40
2.0
100
AcDbArc
 50
45.0
 51
90.0
  0
ARC
  5
133
100
AcDbEntity
  8
0
370
    -3
  6
Continuous
100
AcDbCircle
 10
129.212329
 20
29.934107
 30
0.0
 40
10.0
100
AcDbArc
 50
225.0
 51
300.824196
  0
ARC
  5
134
100
AcDbEntity
  8
0
370
    -3
  6
Continuous
100
AcDbCircle
 10
95.271204
 20
-4.007019
 30
0.0
 40
10.0
100
AcDbArc
 50
329.175804
 51
45.0
  0
ARC
  5
135
100
AcDbEntity
  8
0
370
    -3
  6
Continuous
100
AcDbCircle
 10
179.428074
 20
-54.222764
 30
0.0
 40
88.0
100
AcDbArc
 50
59.175804
 51
120.824196
  0
ARC
  5
136
100
AcDbEntity
  8
0
370
    -3
  6
Continuous
100
AcDbCircle
 10
179.428074
 20
-54.222764
 30
0.0
 40
88.0
100
AcDbArc
 50
239.175804
 51
300.824196
  0
ARC
  5
137
100
AcDbEntity
  8
0
370
    -3
  6
Continuous
100
AcDbCircle
 10
103.398637
 20
-147.222764
 30
0.0
 40
2.0
100
AcDbArc
 50
270.0
 51
315.0
  0
ARC
  5
138
100
AcDbEntity
  8
0
370
    -3
  6
Continuous
100
AcDbCircle
 10
229.64382
 20
-138.379635
 30
0.0
 40
10.0
100
AcDbArc
 50
45.0
 51
120.824196
  0
ARC
  5
139
100
AcDbEntity
  8
0
370
    -3
  6
Continuous
100
AcDbCircle
 10
270.075744
 20
-62.222764
 30
0.0
 40
3.0
100
AcDbArc
 50
90.0
 51
174.956498
  0
ARC
  5
13A
100
AcDbEntity
  8
0
370
    -3
  6
Continuous
100
AcDbCircle
 10
272.428074
 20
-57.222764
 30
0.0
 40
2.0
100
AcDbArc
 50
270.0
 51
0.0
  0
ARC
  5
13B
100
AcDbEntity
  8
0
370
    -3
  6
Continuous
100
AcDbCircle
 10
270.075744
 20
-46.222764
 30
0.0
 40
3.0
100
AcDbArc
 50
185.043502
 51
270.0
  0
ARC
  5
13C
100
AcDbEntity
  8
0
370
    -3
  6
Continuous
100
AcDbCircle
 10
272.428074
 20
-51.222764
 30
0.0
 40
2.0
100
AcDbArc
 50
0.0
 51
90.0
  0
CIRCLE
  5
13D
100
AcDbEntity
  8
0
370
    -3
  6
Continuous
100
AcDbCircle
 10
179.428074
 20
-54.222764
 30
0.0
 40
27.5
  0
LINE
  5
13E
100
AcDbEntity
  8
0
370
    -3
  6
Continuous
100
AcDbLine
 10
235.50399
 20
-106.763146
 30
0.0
 11
207.782962
 21
-79.042118
 31
0.0
  0
LINE
  5
13F
100
AcDbEntity
  8
0
370
    -3
  6
Continuous
100
AcDbLine
 10
235.50399
 20
-1.682382
 30
0.0
 11
207.782962
 21
-29.40341
 31
0.0
  0
LINE
  5
140
100
AcDbEntity
  8
0
370
    -3
  6
Continuous
100
AcDbLine
 10
231.968456
 20
1.853151
 30
0.0
 11
204.247428
 21
-25.867876
 31
0.0
  0
LINE
  5
141
100
AcDbEntity
  8
0
370
    -3
  6
Continuous
100
AcDbLine
 10
123.352159
 20
-1.682382
 30
0.0
 11
151.073187
 21
-29.40341
 31
0.0
  0
LINE
  5
142
100
AcDbEntity
  8
0
370
    -3
  6
Continuous
100
AcDbLine
 10
126.887693
 20
1.853151
 30
0.0
 11
154.60872
 21
-25.867876
 31
0.0
  0
LINE
  5
143
100
AcDbEntity
  8
0
370
    -3
  6
Continuous
100
AcDbLine
 10
256.621002
 20
-64.495913
 30
0.0
 11
256.621002
 21
-74.823964
 31
0.0
  0
LINE
  5
144
100
AcDbEntity
  8
0
370
    -3
  6
Continuous
100
AcDbLine
 10
234.796618
 20
-149.222764
 30
0.0
 11
264.428074
 21
-149.222764
 31
0.0
  0
LINE
  5
145
100
AcDbEntity
  8
0
370
    -3
  6
Continuous
100
AcDbLine
 10
228.803279
 20
-158.601409
 30
0.0
 11
179.428074
 21
-158.601409
 31
0.0
  0
LINE
  5
146
100
AcDbEntity
  8
0
370
    -3
  6
Continuous
100
AcDbLine
 10
130.05287
 20
-158.601409
 30
0.0
 11
179.428074
 21
-158.601409
 31
0.0
  0
LINE
  5
147
100
AcDbEntity
  8
0
370
    -3
  6
Continuous
100
AcDbLine
 10
94.428074
 20
-149.222764
 30
0.0
 11
124.059531
 21
-149.222764
 31
0.0
  0
LINE
  5
148
100
AcDbEntity
  8
0
370
    -3
  6
DASHED
100
AcDbLine
 10
124.059531
 20
-149.222764
 30
0.0
 11
125.439444
 21
-149.222764
 31
0.0
  0
LINE
  5
149
100
AcDbEntity
  8
0
370
    -3
  6
CENTER
100
AcDbLine
 10
252.303588
 20
18.65275
 30
0.0
 11
270.291296
 21
36.640457
 31
0.0
  0
LINE
  5
14A
100
AcDbEntity
  8
0
370
    -3
  6
Continuous
100
AcDbLine
 10
256.513878
 20
3.064049
 30
0.0
 11
273.842288
 21
20.39246
 31
0.0
  0
LINE
  5
14B
100
AcDbEntity
  8
0
370
    -3
  6
Continuous
100
AcDbLine
 10
274.428074
 20
30.777236
 30
0.0
 11
274.428074
 21
-139.222764
 31
0.0
  0
LINE
  5
14C
100
AcDbEntity
  8
0
370
    -3
  6
Continuous
100
AcDbLine
 10
256.513878
 20
-111.509577
 30
0.0
 11
273.842288
 21
-128.837988
 31
0.0
  0
LINE
  5
14D
100
AcDbEntity
  8
0
370
    -3
  6
Continuous
100
AcDbLine
 10
94.428074
 20
40.777236
 30
0.0
 11
264.428074
 21
40.777236
 31
0.0
  0
LINE
  5
14E
100
AcDbEntity
  8
0
370
    -3
  6
Continuous
100
AcDbLine
 10
236.714888
 20
22.863039
 30
0.0
 11
254.043298
 21
40.19145
 31
0.0
  0
LINE
  5
14F
100
AcDbEntity
  8
0
370
    -3
  6
Continuous
100
AcDbLine
 10
122.141261
 20
22.863039
 30
0.0
 11
104.812851
 21
40.19145
 31
0.0
  0
LINE
  5
150
100
AcDbEntity
  8
0
370
    -3
  6
Continuous
100
AcDbLine
 10
102.342271
 20
3.064049
 30
0.0
 11
85.013861
 21
20.39246
 31
0.0
  0
LINE
  5
151
100
AcDbEntity
  8
0
370
    -3
  6
Continuous
100
AcDbLine
 10
236.714888
 20
-131.308567
 30
0.0
 11
254.043298
 21
-148.636978
 31
0.0
  0
LINE
  5
152
100
AcDbEntity
  8
0
370
    -3
  6
Continuous
100
AcDbLine
 10
270.075744
 20
-59.222764
 30
0.0
 11
272.428074
 21
-59.222764
 31
0.0
  0
LINE
  5
153
100
AcDbEntity
  8
0
370
    -3
  6
Continuous
100
AcDbLine
 10
270.075744
 20
-49.222764
 30
0.0
 11
272.428074
 21
-49.222764
 31
0.0
  0
LINE
  5
154
100
AcDbEntity
  8
0
370
    -3
  6
Continuous
100
AcDbLine
 10
176.928074
 20
22.580556
 30
0.0
 11
176.928074
 21
-16.622897
 31
0.0
  0
LINE
  5
155
100
AcDbEntity
  8
0
370
    -3
  6
Continuous
100
AcDbLine
 10
181.928074
 20
22.580556
 30
0.0
 11
181.928074
 21
-16.622897
 31
0.0
  0
LINE
  5
156
100
AcDbEntity
  8
0
370
    -3
  6
Continuous
100
AcDbLine
 10
256.231395
 20
-51.722764
 30
0.0
 11
217.027942
 21
-51.722764
 31
0.0
  0
LINE
  5
157
100
AcDbEntity
  8
0
370
    -3
  6
Continuous
100
AcDbLine
 10
256.231395
 20
-56.722764
 30
0.0
 11
217.027942
 21
-56.722764
 31
0.0
  0
CIRCLE
  5
158
100
AcDbEntity
  8
0
370
    -3
  6
Continuous
100
AcDbCircle
 10
179.428074
 20
-54.222764
 30
0.0
 40
35.0
  0
CIRCLE
  5
159
100
AcDbEntity
  8
0
370
    -3
  6
Continuous
100
AcDbCircle
 10
179.428074
 20
-54.222764
 30
0.0
 40
22.5
  0
ARC
  5
15A
100
AcDbEntity
  8
0
370
    -3
  6
CENTER
100
AcDbCircle
 10
179.428074
 20
-54.222764
 30
0.0
 40
117.5
100
AcDbArc
 50
39.843295
 51
50.364178
  0
ARC
  5
15B
100
AcDbEntity
  8
0
370
    -3
  6
CENTER
100
AcDbCircle
 10
179.428074
 20
-54.222764
 30
0.0
 40
117.5
100
AcDbArc
 50
219.824354
 51
230.364178
  0
LINE
  5
15C
100
AcDbEntity
  8
0
370
    -3
  6
CENTER
100
AcDbLine
 10
179.428074
 20
53.20163
 30
0.0
 11
179.428074
 21
-176.202505
 31
0.0
  0
LINE
  5
15D
100
AcDbEntity
  8
0
370
    -3
  6
CENTER
100
AcDbLine
 10
200.359931
 20
-80.222764
 30
0.0
 11
158.284355
 21
-80.222764
 31
0.0
  0
CIRCLE
  5
15E
100
AcDbEntity
  8
0
370
    -3
  6
Continuous
100
AcDbCircle
 10
179.428074
 20
-54.222764
 30
0.0
 40
4.0
  0
CIRCLE
  5
15F
100
AcDbEntity
  8
0
370
    -3
  6
Continuous
100
AcDbCircle
 10
179.428074
 20
-54.222764
 30
0.0
 40
3.3235
  0
ARC
  5
160
100
AcDbEntity
  8
0
370
    -3
  6
Continuous
100
AcDbCircle
 10
179.428074
 20
-54.222764
 30
0.0
 40
14.0
100
AcDbArc
 50
196.60155
 51
163.39845
  0
LINE
  5
161
100
AcDbEntity
  8
0
370
    -3
  6
Continuous
100
AcDbLine
 10
162.428074
 20
-50.222764
 30
0.0
 11
169.428074
 21
-50.222764
 31
0.0
  0
LINE
  5
162
100
AcDbEntity
  8
0
370
    -3
  6
Continuous
100
AcDbLine
 10
169.428074
 20
-58.222764
 30
0.0
 11
169.428074
 21
-50.222764
 31
0.0
  0
LINE
  5
163
100
AcDbEntity
  8
0
370
    -3
  6
Continuous
100
AcDbLine
 10
162.428074
 20
-58.222764
 30
0.0
 11
169.428074
 21
-58.222764
 31
0.0
  0
LINE
  5
164
100
AcDbEntity
  8
0
370
    -3
  6
Continuous
100
AcDbLine
 10
162.428074
 20
-58.222764
 30
0.0
 11
162.428074
 21
-50.222764
 31
0.0
  0
LINE
  5
165
100
AcDbEntity
  8
0
370
    -3
  6
DASHED
100
AcDbLine
 10
103.264699
 20
-82.828461
 30
0.0
 11
103.264322
 21
-82.828461
 31
0.0
  0
ARC
  5
166
100
AcDbEntity
  8
0
370
    -3
  6
Continuous
100
AcDbCircle
 10
107.356785
 20
-48.722764
 30
0.0
 40
3.0
100
AcDbArc
 50
164.678312
 51
270.0
  0
LINE
  5
167
100
AcDbEntity
  8
0
370
    -3
  6
Continuous
100
AcDbLine
 10
102.624754
 20
-56.722764
 30
0.0
 11
141.828207
 21
-56.722764
 31
0.0
  0
LINE
  5
168
100
AcDbEntity
  8
0
370
    -3
  6
Continuous
100
AcDbLine
 10
102.624754
 20
-51.722764
 30
0.0
 11
141.828207
 21
-51.722764
 31
0.0
  0
LINE
  5
169
100
AcDbEntity
  8
0
370
    -3
  6
Continuous
100
AcDbLine
 10
88.780405
 20
-59.222764
 30
0.0
 11
86.428074
 21
-59.222764
 31
0.0
  0
LINE
  5
16A
100
AcDbEntity
  8
0
370
    -3
  6
Continuous
100
AcDbLine
 10
88.780405
 20
-49.222764
 30
0.0
 11
86.428074
 21
-49.222764
 31
0.0
  0
LINE
  5
16B
100
AcDbEntity
  8
0
370
    -3
  6
Continuous
100
AcDbLine
 10
102.342271
 20
-111.509577
 30
0.0
 11
85.013861
 21
-128.837988
 31
0.0
  0
LINE
  5
16C
100
AcDbEntity
  8
0
370
    -3
  6
Continuous
100
AcDbLine
 10
122.141261
 20
-131.308567
 30
0.0
 11
104.812851
 21
-148.636978
 31
0.0
  0
LINE
  5
16D
100
AcDbEntity
  8
0
370
    -3
  6
CENTER
100
AcDbLine
 10
74.151665
 20
-54.222764
 30
0.0
 11
279.36513
 21
-54.222764
 31
0.0
  0
LINE
  5
16E
100
AcDbEntity
  8
0
370
    -3
  6
CENTER
100
AcDbLine
 10
104.121202
 20
-129.529636
 30
0.0
 11
88.564853
 21
-145.085985
 31
0.0
  0
LINE
  5
16F
100
AcDbEntity
  8
0
370
    -3
  6
Continuous
100
AcDbLine
 10
84.428074
 20
30.777236
 30
0.0
 11
84.428074
 21
-139.222764
 31
0.0
  0
LINE
  5
170
100
AcDbEntity
  8
0
370
    -3
  6
Continuous
100
AcDbLine
 10
102.235147
 20
-74.823964
 30
0.0
 11
102.235147
 21
-64.495913
 31
0.0
  0
ARC
  5
171
100
AcDbEntity
  8
0
370
    -3
  6
Continuous
100
AcDbCircle
 10
155.541452
 20
-107.075666
 30
0.0
 40
27.0
100
AcDbArc
 50
101.549997
 51
184.263738
  0
ARC
  5
172
100
AcDbEntity
  8
0
370
    -3
  6
Continuous
100
AcDbCircle
 10
86.428074
 20
-57.222764
 30
0.0
 40
2.0
100
AcDbArc
 50
180.0
 51
270.0
  0
ARC
  5
173
100
AcDbEntity
  8
0
370
    -3
  6
Continuous
100
AcDbCircle
 10
88.780405
 20
-62.222764
 30
0.0
 40
3.0
100
AcDbArc
 50
5.043502
 51
90.0
  0
ARC
  5
174
100
AcDbEntity
  8
0
370
    -3
  6
Continuous
100
AcDbCircle
 10
86.428074
 20
-51.222764
 30
0.0
 40
2.0
100
AcDbArc
 50
90.0
 51
180.0
  0
ARC
  5
175
100
AcDbEntity
  8
0
370
    -3
  6
Continuous
100
AcDbCircle
 10
88.780405
 20
-46.222764
 30
0.0
 40
3.0
100
AcDbArc
 50
270.0
 51
354.956498
  0
ARC
  5
176
100
AcDbEntity
  8
0
370
    -3
  6
Continuous
100
AcDbCircle
 10
125.62448
 20
-109.306094
 30
0.0
 40
3.0
100
AcDbArc
 50
225.67336
 51
4.263738
  0
ARC
  5
177
100
AcDbEntity
  8
0
370
    -3
  6
Continuous
100
AcDbCircle
 10
95.271204
 20
-104.438509
 30
0.0
 40
10.0
100
AcDbArc
 50
315.0
 51
30.824196
  0
ARC
  5
178
100
AcDbEntity
  8
0
370
    -3
  6
Continuous
100
AcDbCircle
 10
129.212329
 20
-138.379635
 30
0.0
 40
10.0
100
AcDbArc
 50
59.175804
 51
135.0
  0
ARC
  5
179
100
AcDbEntity
  8
0
370
    -3
  6
Continuous
100
AcDbCircle
 10
86.428074
 20
-130.252201
 30
0.0
 40
2.0
100
AcDbArc
 50
135.0
 51
180.0
  0
ARC
  5
17A
100
AcDbEntity
  8
0
370
    -3
  6
Continuous
100
AcDbCircle
 10
179.428074
 20
-54.222764
 30
0.0
 40
88.0
100
AcDbArc
 50
149.175804
 51
174.956498
  0
ARC
  5
17B
100
AcDbEntity
  8
0
370
    -3
  6
Continuous
100
AcDbCircle
 10
94.428074
 20
-139.222764
 30
0.0
 40
10.0
100
AcDbArc
 50
180.0
 51
270.0
  0
CIRCLE
  5
17C
100
AcDbEntity
  8
0
370
    -3
  6
Continuous
100
AcDbCircle
 10
96.343028
 20
-137.307811
 30
0.0
 40
6.0
  0
ARC
  5
17D
100
AcDbEntity
  8
0
370
    -3
  6
Continuous
100
AcDbCircle
 10
102.624754
 20
-59.722764
 30
0.0
 40
3.0
100
AcDbArc
 50
90.0
 51
184.096044
  0
ARC
  5
17E
100
AcDbEntity
  8
0
370
    -3
  6
Continuous
100
AcDbCircle
 10
102.624754
 20
-48.722764
 30
0.0
 40
3.0
100
AcDbArc
 50
175.903956
 51
270.0
  0
CIRCLE
  5
17F
100
AcDbEntity
  8
0
370
    -3
  6
Continuous
100
AcDbCircle
 10
179.428074
 20
-54.222764
 30
0.0
 40
86.0
  0
ARC
  5
180
100
AcDbEntity
  8
0
370
    -3
  6
Continuous
100
AcDbCircle
 10
179.428074
 20
-54.222764
 30
0.0
 40
88.0
100
AcDbArc
 50
185.043502
 51
210.824196
  0
ARC
  5
181
100
AcDbEntity
  8
0
370
    -3
  6
Continuous
100
AcDbCircle
 10
164.928074
 20
-64.495913
 30
0.0
 40
62.692928
100
AcDbArc
 50
175.413635
 51
180.0
  0
ARC
  5
182
100
AcDbEntity
  8
0
370
    -3
  6
Continuous
100
AcDbCircle
 10
164.928074
 20
-64.495913
 30
0.0
 40
62.692928
100
AcDbArc
 50
123.385957
 51
164.678312
  0
ARC
  5
183
100
AcDbEntity
  8
0
370
    -3
  6
Continuous
100
AcDbCircle
 10
105.426287
 20
-59.722764
 30
0.0
 40
3.0
100
AcDbArc
 50
90.0
 51
175.413635
  0
ARC
  5
184
100
AcDbEntity
  8
0
370
    -3
  6
Continuous
100
AcDbCircle
 10
105.235147
 20
-74.823964
 30
0.0
 40
3.0
100
AcDbArc
 50
180.0
 51
195.518414
  0
CIRCLE
  5
185
100
AcDbEntity
  8
0
370
    -3
  6
Continuous
100
AcDbCircle
 10
179.428074
 20
-54.222764
 30
0.0
 40
80.0
  0
LINE
  5
186
100
AcDbEntity
  8
0
370
    -3
  6
CENTER
100
AcDbLine
 10
252.303588
 20
-127.098278
 30
0.0
 11
270.291296
 21
-145.085985
 31
0.0
  0
LINE
  5
187
100
AcDbEntity
  8
0
370
    -3
  6
CENTER
100
AcDbLine
 10
106.552561
 20
18.65275
 30
0.0
 11
88.564853
 21
36.640457
 31
0.0
  0
LINE
  5
188
100
AcDbEntity
  8
0
370
    -3
  6
Continuous
100
AcDbLine
 10
231.968456
 20
-110.29868
 30
0.0
 11
204.247428
 21
-82.577652
 31
0.0
  0
ARC
  5
189
100
AcDbEntity
  8
0
370
    -3
  6
Continuous
100
AcDbCircle
 10
229.847136
 20
-112.42
 30
0.0
 40
3.0
100
AcDbArc
 50
310.903956
 51
45.0
  0
ARC
  5
18A
100
AcDbEntity
  8
0
370
    -3
  6
Continuous
100
AcDbCircle
 10
202.126108
 20
-84.698972
 30
0.0
 40
3.0
100
AcDbArc
 50
45.0
 51
126.677959
  0
ARC
  5
18B
100
AcDbEntity
  8
0
370
    -3
  6
Continuous
100
AcDbCircle
 10
15.556926
 20
218.991209
 30
0.0
 40
0.4
100
AcDbArc
 50
270.0
 51
0.0
  0
LINE
  5
18C
100
AcDbEntity
  8
0
370
    -3
  6
Continuous
100
AcDbLine
 10
15.556926
 20
218.591209
 30
0.0
 11
-23.483266
 21
218.591209
 31
0.0
  0
LINE
  5
18D
100
AcDbEntity
  8
0
370
    -3
  6
Continuous
100
AcDbLine
 10
15.956926
 20
218.991209
 30
0.0
 11
15.956926
 21
232.591209
 31
0.0
  0
LINE
  5
18E
100
AcDbEntity
  8
0
370
    -3
  6
Continuous
100
AcDbLine
 10
15.956926
 20
215.591209
 30
0.0
 11
-20.043074
 21
215.591209
 31
0.0
  0
LINE
  5
18F
100
AcDbEntity
  8
0
370
    -3
  6
Continuous
100
AcDbLine
 10
15.956926
 20
215.591209
 30
0.0
 11
15.956926
 21
218.991209
 31
0.0
  0
ARC
  5
190
100
AcDbEntity
  8
0
370
    -3
  6
Continuous
100
AcDbCircle
 10
15.556926
 20
246.191209
 30
0.0
 40
0.4
100
AcDbArc
 50
0.0
 51
90.0
  0
LINE
  5
191
100
AcDbEntity
  8
0
370
    -3
  6
Continuous
100
AcDbLine
 10
15.556926
 20
246.591209
 30
0.0
 11
-23.483266
 21
246.591209
 31
0.0
  0
LINE
  5
192
100
AcDbEntity
  8
0
370
    -3
  6
Continuous
100
AcDbLine
 10
15.956926
 20
246.191209
 30
0.0
 11
15.956926
 21
232.591209
 31
0.0
  0
LINE
  5
193
100
AcDbEntity
  8
0
370
    -3
  6
Continuous
100
AcDbLine
 10
-20.043074
 20
215.591209
 30
0.0
 11
-20.043074
 21
218.591209
 31
0.0
  0
LINE
  5
194
100
AcDbEntity
  8
0
370
    -3
  6
Continuous
100
AcDbLine
 10
-24.043074
 20
246.441209
 30
0.0
 11
-25.643074
 21
246.441209
 31
0.0
  0
LINE
  5
195
100
AcDbEntity
  8
0
370
    -3
  6
Continuous
100
AcDbLine
 10
-23.483266
 20
246.591209
 30
0.0
 11
-24.043074
 21
246.441209
 31
0.0
  0
ARC
  5
196
100
AcDbEntity
  8
0
370
    -3
  6
Continuous
100
AcDbCircle
 10
-25.643074
 20
246.841209
 30
0.0
 40
0.4
100
AcDbArc
 50
180.0
 51
270.0
  0
LINE
  5
197
100
AcDbEntity
  8
0
370
    -3
  6
Continuous
100
AcDbLine
 10
-26.043074
 20
246.891209
 30
0.0
 11
-26.243074
 21
247.091209
 31
0.0
  0
LINE
  5
198
100
AcDbEntity
  8
0
370
    -3
  6
Continuous
100
AcDbLine
 10
-26.043074
 20
232.591209
 30
0.0
 11
-26.043074
 21
246.891209
 31
0.0
  0
LINE
  5
199
100
AcDbEntity
  8
0
370
    -3
  6
Continuous
100
AcDbLine
 10
-26.243074
 20
247.091209
 30
0.0
 11
-28.043074
 21
247.091209
 31
0.0
  0
LINE
  5
19A
100
AcDbEntity
  8
0
370
    -3
  6
Continuous
100
AcDbLine
 10
-24.043074
 20
218.741209
 30
0.0
 11
-25.643074
 21
218.741209
 31
0.0
  0
LINE
  5
19B
100
AcDbEntity
  8
0
370
    -3
  6
Continuous
100
AcDbLine
 10
-23.483266
 20
218.591209
 30
0.0
 11
-24.043074
 21
218.741209
 31
0.0
  0
ARC
  5
19C
100
AcDbEntity
  8
0
370
    -3
  6
Continuous
100
AcDbCircle
 10
-25.643074
 20
218.341209
 30
0.0
 40
0.4
100
AcDbArc
 50
90.0
 51
180.0
  0
LINE
  5
19D
100
AcDbEntity
  8
0
370
    -3
  6
Continuous
100
AcDbLine
 10
-26.043074
 20
218.291209
 30
0.0
 11
-26.243074
 21
218.091209
 31
0.0
  0
LINE
  5
19E
100
AcDbEntity
  8
0
370
    -3
  6
Continuous
100
AcDbLine
 10
-26.043074
 20
232.591209
 30
0.0
 11
-26.043074
 21
218.291209
 31
0.0
  0
LINE
  5
19F
100
AcDbEntity
  8
0
370
    -3
  6
Continuous
100
AcDbLine
 10
-26.243074
 20
218.091209
 30
0.0
 11
-28.043074
 21
218.091209
 31
0.0
  0
LINE
  5
1A0
100
AcDbEntity
  8
0
370
    -3
  6
Continuous
100
AcDbLine
 10
-144.543074
 20
232.591209
 30
0.0
 11
-144.543074
 21
270.850551
 31
0.0
  0
ARC
  5
1A1
100
AcDbEntity
  8
0
370
    -3
  6
Continuous
100
AcDbCircle
 10
-143.543074
 20
282.591209
 30
0.0
 40
1.0
100
AcDbArc
 50
90.0
 51
180.0
  0
LINE
  5
1A2
100
AcDbEntity
  8
0
370
    -3
  6
Continuous
100
AcDbLine
 10
-144.543074
 20
280.249497
 30
0.0
 11
-144.543074
 21
282.591209
 31
0.0
  0
ARC
  5
1A3
100
AcDbEntity
  8
0
370
    -3
  6
Continuous
100
AcDbCircle
 10
-145.543074
 20
270.850551
 30
0.0
 40
1.0
100
AcDbArc
 50
0.0
 51
90.0
  0
ARC
  5
1A4
100
AcDbEntity
  8
0
370
    -3
  6
Continuous
100
AcDbCircle
 10
-145.543074
 20
280.249497
 30
0.0
 40
1.0
100
AcDbArc
 50
270.0
 51
0.0
  0
LINE
  5
1A5
100
AcDbEntity
  8
0
370
    -3
  6
Continuous
100
AcDbLine
 10
-145.543074
 20
285.126129
 30
0.0
 11
-145.543074
 21
232.591209
 31
0.0
  0
LINE
  5
1A6
100
AcDbEntity
  8
0
370
    -3
  6
Continuous
100
AcDbLine
 10
-144.543074
 20
232.591209
 30
0.0
 11
-144.543074
 21
194.331866
 31
0.0
  0
ARC
  5
1A7
100
AcDbEntity
  8
0
370
    -3
  6
Continuous
100
AcDbCircle
 10
-143.543074
 20
182.591209
 30
0.0
 40
1.0
100
AcDbArc
 50
180.0
 51
270.0
  0
LINE
  5
1A8
100
AcDbEntity
  8
0
370
    -3
  6
Continuous
100
AcDbLine
 10
-144.543074
 20
184.932921
 30
0.0
 11
-144.543074
 21
182.591209
 31
0.0
  0
ARC
  5
1A9
100
AcDbEntity
  8
0
370
    -3
  6
Continuous
100
AcDbCircle
 10
-145.543074
 20
194.331866
 30
0.0
 40
1.0
100
AcDbArc
 50
270.0
 51
0.0
  0
ARC
  5
1AA
100
AcDbEntity
  8
0
370
    -3
  6
Continuous
100
AcDbCircle
 10
-145.543074
 20
184.932921
 30
0.0
 40
1.0
100
AcDbArc
 50
0.0
 51
90.0
  0
LINE
  5
1AB
100
AcDbEntity
  8
0
370
    -3
  6
Continuous
100
AcDbLine
 10
-145.543074
 20
180.056288
 30
0.0
 11
-145.543074
 21
232.591209
 31
0.0
  0
LINE
  5
1AC
100
AcDbEntity
  8
0
370
    -3
  6
Continuous
100
AcDbLine
 10
-130.043087
 20
269.591209
 30
0.0
 11
-130.043088
 21
269.591209
 31
0.0
  0
LINE
  5
1AD
100
AcDbEntity
  8
0
370
    -3
  6
Continuous
100
AcDbLine
 10
-143.543074
 20
283.591209
 30
0.0
 11
-135.868576
 21
283.859208
 31
0.0
  0
ARC
  5
1AE
100
AcDbEntity
  8
0
370
    -3
  6
Continuous
100
AcDbCircle
 10
-129.043074
 20
310.091209
 30
0.0
 40
2.0
100
AcDbArc
 50
90.0
 51
180.0
  0
ARC
  5
1AF
100
AcDbEntity
  8
0
370
    -3
  6
Continuous
100
AcDbCircle
 10
-136.043074
 20
290.460925
 30
0.0
 40
5.0
100
AcDbArc
 50
272.0
 51
0.0
  0
ARC
  5
1B0
100
AcDbEntity
  8
0
370
    -3
  6
Continuous
100
AcDbCircle
 10
-136.043074
 20
288.856162
 30
0.0
 40
5.0
100
AcDbArc
 50
272.0
 51
0.0
  0
LINE
  5
1B1
100
AcDbEntity
  8
0
370
    -3
  6
Continuous
100
AcDbLine
 10
-145.543074
 20
285.126129
 30
0.0
 11
-135.868576
 21
285.46397
 31
0.0
  0
LINE
  5
1B2
100
AcDbEntity
  8
0
370
    -3
  6
Continuous
100
AcDbLine
 10
-120.043074
 20
312.091209
 30
0.0
 11
-120.043074
 21
232.591209
 31
0.0
  0
LINE
  5
1B3
100
AcDbEntity
  8
0
370
    -3
  6
Continuous
100
AcDbLine
 10
-119.543074
 20
312.091209
 30
0.0
 11
-132.043074
 21
312.091209
 31
0.0
  0
ARC
  5
1B4
100
AcDbEntity
  8
0
370
    -3
  6
Continuous
100
AcDbCircle
 10
-132.043074
 20
310.091209
 30
0.0
 40
2.0
100
AcDbArc
 50
90.0
 51
180.0
  0
ARC
  5
1B5
100
AcDbEntity
  8
0
370
    -3
  6
Continuous
100
AcDbCircle
 10
-132.043074
 20
296.5277
 30
0.0
 40
2.0
100
AcDbArc
 50
180.0
 51
255.522488
  0
ARC
  5
1B6
100
AcDbEntity
  8
0
370
    -3
  6
Continuous
100
AcDbCircle
 10
-133.043074
 20
292.654717
 30
0.0
 40
2.0
100
AcDbArc
 50
0.0
 51
75.522488
  0
LINE
  5
1B7
100
AcDbEntity
  8
0
370
    -3
  6
Continuous
100
AcDbLine
 10
-134.043074
 20
296.5277
 30
0.0
 11
-134.043074
 21
310.091209
 31
0.0
  0
LINE
  5
1B8
100
AcDbEntity
  8
0
370
    -3
  6
Continuous
100
AcDbLine
 10
-130.043074
 20
267.591209
 30
0.0
 11
-127.043074
 21
267.591209
 31
0.0
  0
ARC
  5
1B9
100
AcDbEntity
  8
0
370
    -3
  6
Continuous
100
AcDbCircle
 10
-130.043074
 20
266.591209
 30
0.0
 40
1.0
100
AcDbArc
 50
90.0
 51
180.0
  0
ARC
  5
1BA
100
AcDbEntity
  8
0
370
    -3
  6
Continuous
100
AcDbCircle
 10
-127.043074
 20
268.591209
 30
0.0
 40
1.0
100
AcDbArc
 50
270.0
 51
0.0
  0
LINE
  5
1BB
100
AcDbEntity
  8
0
370
    -3
  6
Continuous
100
AcDbLine
 10
-130.043074
 20
281.591209
 30
0.0
 11
-127.043074
 21
281.591209
 31
0.0
  0
LINE
  5
1BC
100
AcDbEntity
  8
0
370
    -3
  6
Continuous
100
AcDbLine
 10
-126.043074
 20
268.591209
 30
0.0
 11
-126.043074
 21
280.591209
 31
0.0
  0
ARC
  5
1BD
100
AcDbEntity
  8
0
370
    -3
  6
Continuous
100
AcDbCircle
 10
-130.043074
 20
282.591209
 30
0.0
 40
1.0
100
AcDbArc
 50
180.0
 51
270.0
  0
ARC
  5
1BE
100
AcDbEntity
  8
0
370
    -3
  6
Continuous
100
AcDbCircle
 10
-127.043074
 20
280.591209
 30
0.0
 40
1.0
100
AcDbArc
 50
0.0
 51
90.0
  0
LINE
  5
1BF
100
AcDbEntity
  8
0
370
    -3
  6
Continuous
100
AcDbLine
 10
-131.043074
 20
232.591209
 30
0.0
 11
-131.043074
 21
269.591209
 31
0.0
  0
LINE
  5
1C0
100
AcDbEntity
  8
0
370
    -3
  6
Continuous
100
AcDbLine
 10
-131.043074
 20
279.591209
 30
0.0
 11
-131.043074
 21
310.091209
 31
0.0
  0
LINE
  5
1C1
100
AcDbEntity
  8
0
370
    -3
  6
Continuous
100
AcDbLine
 10
-130.043087
 20
195.591209
 30
0.0
 11
-130.043088
 21
195.591209
 31
0.0
  0
LINE
  5
1C2
100
AcDbEntity
  8
0
370
    -3
  6
Continuous
100
AcDbLine
 10
-143.543074
 20
181.591209
 30
0.0
 11
-135.868576
 21
181.323209
 31
0.0
  0
ARC
  5
1C3
100
AcDbEntity
  8
0
370
    -3
  6
Continuous
100
AcDbCircle
 10
-129.043074
 20
155.091209
 30
0.0
 40
2.0
100
AcDbArc
 50
180.0
 51
270.0
  0
ARC
  5
1C4
100
AcDbEntity
  8
0
370
    -3
  6
Continuous
100
AcDbCircle
 10
-136.043074
 20
174.721493
 30
0.0
 40
5.0
100
AcDbArc
 50
0.0
 51
88.0
  0
ARC
  5
1C5
100
AcDbEntity
  8
0
370
    -3
  6
Continuous
100
AcDbCircle
 10
-136.043074
 20
176.326255
 30
0.0
 40
5.0
100
AcDbArc
 50
0.0
 51
88.0
  0
LINE
  5
1C6
100
AcDbEntity
  8
0
370
    -3
  6
Continuous
100
AcDbLine
 10
-145.543074
 20
180.056288
 30
0.0
 11
-135.868576
 21
179.718447
 31
0.0
  0
LINE
  5
1C7
100
AcDbEntity
  8
0
370
    -3
  6
Continuous
100
AcDbLine
 10
-120.043074
 20
153.091209
 30
0.0
 11
-120.043074
 21
232.591209
 31
0.0
  0
LINE
  5
1C8
100
AcDbEntity
  8
0
370
    -3
  6
Continuous
100
AcDbLine
 10
-119.543074
 20
153.091209
 30
0.0
 11
-132.043074
 21
153.091209
 31
0.0
  0
ARC
  5
1C9
100
AcDbEntity
  8
0
370
    -3
  6
Continuous
100
AcDbCircle
 10
-132.043074
 20
155.091209
 30
0.0
 40
2.0
100
AcDbArc
 50
180.0
 51
270.0
  0
ARC
  5
1CA
100
AcDbEntity
  8
0
370
    -3
  6
Continuous
100
AcDbCircle
 10
-132.043074
 20
168.654717
 30
0.0
 40
2.0
100
AcDbArc
 50
104.477512
 51
180.0
  0
ARC
  5
1CB
100
AcDbEntity
  8
0
370
    -3
  6
Continuous
100
AcDbCircle
 10
-133.043074
 20
172.5277
 30
0.0
 40
2.0
100
AcDbArc
 50
284.477512
 51
0.0
  0
LINE
  5
1CC
100
AcDbEntity
  8
0
370
    -3
  6
Continuous
100
AcDbLine
 10
-134.043074
 20
168.654717
 30
0.0
 11
-134.043074
 21
155.091209
 31
0.0
  0
LINE
  5
1CD
100
AcDbEntity
  8
0
370
    -3
  6
Continuous
100
AcDbLine
 10
-130.043074
 20
197.591209
 30
0.0
 11
-127.043074
 21
197.591209
 31
0.0
  0
ARC
  5
1CE
100
AcDbEntity
  8
0
370
    -3
  6
Continuous
100
AcDbCircle
 10
-130.043074
 20
198.591209
 30
0.0
 40
1.0
100
AcDbArc
 50
180.0
 51
270.0
  0
ARC
  5
1CF
100
AcDbEntity
  8
0
370
    -3
  6
Continuous
100
AcDbCircle
 10
-127.043074
 20
196.591209
 30
0.0
 40
1.0
100
AcDbArc
 50
0.0
 51
90.0
  0
LINE
  5
1D0
100
AcDbEntity
  8
0
370
    -3
  6
Continuous
100
AcDbLine
 10
-130.043074
 20
183.591209
 30
0.0
 11
-127.043074
 21
183.591209
 31
0.0
  0
LINE
  5
1D1
100
AcDbEntity
  8
0
370
    -3
  6
Continuous
100
AcDbLine
 10
-126.043074
 20
196.591209
 30
0.0
 11
-126.043074
 21
184.591209
 31
0.0
  0
ARC
  5
1D2
100
AcDbEntity
  8
0
370
    -3
  6
Continuous
100
AcDbCircle
 10
-130.043074
 20
182.591209
 30
0.0
 40
1.0
100
AcDbArc
 50
90.0
 51
180.0
  0
ARC
  5
1D3
100
AcDbEntity
  8
0
370
    -3
  6
Continuous
100
AcDbCircle
 10
-127.043074
 20
184.591209
 30
0.0
 40
1.0
100
AcDbArc
 50
270.0
 51
0.0
  0
LINE
  5
1D4
100
AcDbEntity
  8
0
370
    -3
  6
Continuous
100
AcDbLine
 10
-131.043074
 20
232.591209
 30
0.0
 11
-131.043074
 21
195.591209
 31
0.0
  0
LINE
  5
1D5
100
AcDbEntity
  8
0
370
    -3
  6
Continuous
100
AcDbLine
 10
-131.043074
 20
185.591209
 30
0.0
 11
-131.043074
 21
155.091209
 31
0.0
  0
ARC
  5
1D6
100
AcDbEntity
  8
0
370
    -3
  6
Continuous
100
AcDbCircle
 10
-29.043074
 20
206.091209
 30
0.0
 40
1.0
100
AcDbArc
 50
270.0
 51
0.0
  0
ARC
  5
1D7
100
AcDbEntity
  8
0
370
    -3
  6
Continuous
100
AcDbCircle
 10
-29.043074
 20
259.091209
 30
0.0
 40
1.0
100
AcDbArc
 50
0.0
 51
90.0
  0
LINE
  5
1D8
100
AcDbEntity
  8
0
370
    -3
  6
Continuous
100
AcDbLine
 10
-29.043074
 20
205.091209
 30
0.0
 11
-29.09541
 21
205.036058
 31
0.0
  0
LINE
  5
1D9
100
AcDbEntity
  8
0
370
    -3
  6
Continuous
100
AcDbLine
 10
-29.043074
 20
260.091209
 30
0.0
 11
-29.09541
 21
260.146359
 31
0.0
  0
LINE
  5
1DA
100
AcDbEntity
  8
0
370
    -3
  6
Continuous
100
AcDbLine
 10
-33.093354
 20
137.49948
 30
0.0
 11
-32.543074
 21
138.079355
 31
0.0
  0
LINE
  5
1DB
100
AcDbEntity
  8
0
370
    -3
  6
Continuous
100
AcDbLine
 10
-33.093354
 20
327.682937
 30
0.0
 11
-32.543074
 21
327.103063
 31
0.0
  0
LINE
  5
1DC
100
AcDbEntity
  8
0
370
    -3
  6
Continuous
100
AcDbLine
 10
-33.093354
 20
327.682937
 30
0.0
 11
-42.438402
 21
328.17269
 31
0.0
  0
LINE
  5
1DD
100
AcDbEntity
  8
0
370
    -3
  6
Continuous
100
AcDbLine
 10
-28.043074
 20
232.591209
 30
0.0
 11
-28.043074
 21
206.091209
 31
0.0
  0
LINE
  5
1DE
100
AcDbEntity
  8
0
370
    -3
  6
Continuous
100
AcDbLine
 10
-28.043074
 20
232.591209
 30
0.0
 11
-28.043074
 21
259.091209
 31
0.0
  0
ARC
  5
1DF
100
AcDbEntity
  8
0
370
    -3
  6
Continuous
100
AcDbCircle
 10
-42.543074
 20
326.175431
 30
0.0
 40
2.0
100
AcDbArc
 50
177.83731
 51
180.0
  0
LINE
  5
1E0
100
AcDbEntity
  8
0
370
    -3
  6
Continuous
100
AcDbLine
 10
-29.543074
 20
317.591209
 30
0.0
 11
-32.543074
 21
317.591209
 31
0.0
  0
LINE
  5
1E1
100
AcDbEntity
  8
0
370
    -3
  6
Continuous
100
AcDbLine
 10
-29.543074
 20
147.591209
 30
0.0
 11
-32.543074
 21
147.591209
 31
0.0
  0
ARC
  5
1E2
100
AcDbEntity
  8
0
370
    -3
  6
Continuous
100
AcDbCircle
 10
-29.043074
 20
261.144989
 30
0.0
 40
1.0
100
AcDbArc
 50
240.0
 51
267.0
  0
ARC
  5
1E3
100
AcDbEntity
  8
0
370
    -3
  6
Continuous
100
AcDbCircle
 10
-29.043074
 20
204.037429
 30
0.0
 40
1.0
100
AcDbArc
 50
93.0
 51
120.0
  0
LINE
  5
1E4
100
AcDbEntity
  8
0
370
    -3
  6
Continuous
100
AcDbLine
 10
-29.543074
 20
317.591209
 30
0.0
 11
-29.543074
 21
232.591209
 31
0.0
  0
LINE
  5
1E5
100
AcDbEntity
  8
0
370
    -3
  6
Continuous
100
AcDbLine
 10
-29.543074
 20
147.591209
 30
0.0
 11
-29.543074
 21
232.591209
 31
0.0
  0
LINE
  5
1E6
100
AcDbEntity
  8
0
370
    -3
  6
Continuous
100
AcDbLine
 10
-33.093354
 20
137.49948
 30
0.0
 11
-42.438402
 21
137.009727
 31
0.0
  0
LINE
  5
1E7
100
AcDbEntity
  8
0
370
    -3
  6
Continuous
100
AcDbLine
 10
-44.543074
 20
326.175431
 30
0.0
 11
-44.543074
 21
139.006986
 31
0.0
  0
ARC
  5
1E8
100
AcDbEntity
  8
0
370
    -3
  6
Continuous
100
AcDbCircle
 10
-42.543074
 20
139.006986
 30
0.0
 40
2.0
100
AcDbArc
 50
180.0
 51
273.0
  0
ARC
  5
1E9
100
AcDbEntity
  8
0
370
    -3
  6
Continuous
100
AcDbCircle
 10
-42.543074
 20
326.175431
 30
0.0
 40
2.0
100
AcDbArc
 50
87.0
 51
180.0
  0
LINE
  5
1EA
100
AcDbEntity
  8
0
370
    -3
  6
Continuous
100
AcDbLine
 10
-32.543074
 20
327.103063
 30
0.0
 11
-32.543074
 21
232.591209
 31
0.0
  0
LINE
  5
1EB
100
AcDbEntity
  8
0
370
    -3
  6
Continuous
100
AcDbLine
 10
-32.543074
 20
138.079355
 30
0.0
 11
-32.543074
 21
232.591209
 31
0.0
  0
LINE
  5
1EC
100
AcDbEntity
  8
0
370
    -3
  6
CENTER
100
AcDbLine
 10
-21.924621
 20
315.676256
 30
0.0
 11
-54.400082
 21
315.676256
 31
0.0
  0
LINE
  5
1ED
100
AcDbEntity
  8
0
370
    -3
  6
CENTER
100
AcDbLine
 10
-21.924621
 20
149.506162
 30
0.0
 11
-54.400082
 21
149.506162
 31
0.0
  0
ARC
  5
1EE
100
AcDbEntity
  8
0
370
    -3
  6
Continuous
100
AcDbCircle
 10
-37.543074
 20
282.124604
 30
0.0
 40
2.0
100
AcDbArc
 50
90.0
 51
180.0
  0
ARC
  5
1EF
100
AcDbEntity
  8
0
370
    -3
  6
Continuous
100
AcDbCircle
 10
-37.543074
 20
305.792219
 30
0.0
 40
2.0
100
AcDbArc
 50
90.0
 51
180.0
  0
LINE
  5
1F0
100
AcDbEntity
  8
0
370
    -3
  6
Continuous
100
AcDbLine
 10
-32.543074
 20
307.792219
 30
0.0
 11
-37.543074
 21
307.792219
 31
0.0
  0
LINE
  5
1F1
100
AcDbEntity
  8
0
370
    -3
  6
Continuous
100
AcDbLine
 10
-32.543074
 20
284.124604
 30
0.0
 11
-37.543074
 21
284.124604
 31
0.0
  0
ARC
  5
1F2
100
AcDbEntity
  8
0
370
    -3
  6
Continuous
100
AcDbCircle
 10
-37.543074
 20
183.057813
 30
0.0
 40
2.0
100
AcDbArc
 50
180.0
 51
270.0
  0
ARC
  5
1F3
100
AcDbEntity
  8
0
370
    -3
  6
Continuous
100
AcDbCircle
 10
-37.543074
 20
159.390199
 30
0.0
 40
2.0
100
AcDbArc
 50
180.0
 51
270.0
  0
LINE
  5
1F4
100
AcDbEntity
  8
0
370
    -3
  6
Continuous
100
AcDbLine
 10
-32.543074
 20
157.390199
 30
0.0
 11
-37.543074
 21
157.390199
 31
0.0
  0
LINE
  5
1F5
100
AcDbEntity
  8
0
370
    -3
  6
Continuous
100
AcDbLine
 10
-32.543074
 20
181.057813
 30
0.0
 11
-37.543074
 21
181.057813
 31
0.0
  0
LINE
  5
1F6
100
AcDbEntity
  8
0
370
    -3
  6
Continuous
100
AcDbLine
 10
-119.543074
 20
312.091209
 30
0.0
 11
-47.438375
 21
314.60916
 31
0.0
  0
ARC
  5
1F7
100
AcDbEntity
  8
0
370
    -3
  6
Continuous
100
AcDbCircle
 10
-47.543074
 20
317.607333
 30
0.0
 40
3.0
100
AcDbArc
 50
272.0
 51
0.0
  0
LINE
  5
1F8
100
AcDbEntity
  8
0
370
    -3
  6
Continuous
100
AcDbLine
 10
-119.543074
 20
153.091209
 30
0.0
 11
-47.438375
 21
150.573257
 31
0.0
  0
ARC
  5
1F9
100
AcDbEntity
  8
0
370
    -3
  6
Continuous
100
AcDbCircle
 10
-47.543074
 20
147.575085
 30
0.0
 40
3.0
100
AcDbArc
 50
0.0
 51
88.0
  0
LINE
  5
1FA
100
AcDbEntity
  8
0
370
    -3
  6
Continuous
100
AcDbLine
 10
-119.543074
 20
153.091209
 30
0.0
 11
-119.543074
 21
312.091209
 31
0.0
  0
LINE
  5
1FB
100
AcDbEntity
  8
0
370
    -3
  6
Continuous
100
AcDbLine
 10
-39.543074
 20
305.792219
 30
0.0
 11
-39.543074
 21
232.591209
 31
0.0
  0
LINE
  5
1FC
100
AcDbEntity
  8
0
370
    -3
  6
Continuous
100
AcDbLine
 10
-39.543074
 20
159.390199
 30
0.0
 11
-39.543074
 21
232.591209
 31
0.0
  0
ARC
  5
1FD
100
AcDbEntity
  8
0
370
    -3
  6
Continuous
100
AcDbCircle
 10
-47.543074
 20
238.091209
 30
0.0
 40
3.0
100
AcDbArc
 50
270.0
 51
0.0
  0
LINE
  5
1FE
100
AcDbEntity
  8
0
370
    -3
  6
Continuous
100
AcDbLine
 10
-62.075396
 20
235.091209
 30
0.0
 11
-47.543074
 21
235.091209
 31
0.0
  0
ARC
  5
1FF
100
AcDbEntity
  8
0
370
    -3
  6
Continuous
100
AcDbCircle
 10
-62.075396
 20
238.091209
 30
0.0
 40
3.0
100
AcDbArc
 50
180.0
 51
270.0
  0
ARC
  5
200
100
AcDbEntity
  8
0
370
    -3
  6
Continuous
100
AcDbCircle
 10
-47.543074
 20
227.091209
 30
0.0
 40
3.0
100
AcDbArc
 50
0.0
 51
90.0
  0
LINE
  5
201
100
AcDbEntity
  8
0
370
    -3
  6
Continuous
100
AcDbLine
 10
-62.075396
 20
230.091209
 30
0.0
 11
-47.543074
 21
230.091209
 31
0.0
  0
ARC
  5
202
100
AcDbEntity
  8
0
370
    -3
  6
Continuous
100
AcDbCircle
 10
-62.075396
 20
227.091209
 30
0.0
 40
3.0
100
AcDbArc
 50
90.0
 51
180.0
  0
LINE
  5
203
100
AcDbEntity
  8
0
370
    -3
  6
CENTER
100
AcDbLine
 10
27.858509
 20
232.591209
 30
0.0
 11
-272.657048
 21
232.591209
 31
0.0
  0
ARC
  5
204
100
AcDbEntity
  8
0
370
    -3
  6
Continuous
100
AcDbCircle
 10
-66.219361
 20
279.665058
 30
0.0
 40
3.0
100
AcDbArc
 50
270.0
 51
311.74584
  0
LINE
  5
205
100
AcDbEntity
  8
0
370
    -3
  6
Continuous
100
AcDbLine
 10
-64.221878
 20
277.42674
 30
0.0
 11
-45.545591
 21
294.093528
 31
0.0
  0
ARC
  5
206
100
AcDbEntity
  8
0
370
    -3
  6
Continuous
100
AcDbCircle
 10
-47.543074
 20
296.331845
 30
0.0
 40
3.0
100
AcDbArc
 50
311.74584
 51
0.0
  0
ARC
  5
207
100
AcDbEntity
  8
0
370
    -3
  6
Continuous
100
AcDbCircle
 10
-66.219361
 20
284.443232
 30
0.0
 40
3.0
100
AcDbArc
 50
270.0
 51
311.74584
  0
LINE
  5
208
100
AcDbEntity
  8
0
370
    -3
  6
Continuous
100
AcDbLine
 10
-64.221878
 20
282.204915
 30
0.0
 11
-45.545591
 21
298.871703
 31
0.0
  0
ARC
  5
209
100
AcDbEntity
  8
0
370
    -3
  6
Continuous
100
AcDbCircle
 10
-47.543074
 20
301.11002
 30
0.0
 40
3.0
100
AcDbArc
 50
311.74584
 51
0.0
  0
LINE
  5
20A
100
AcDbEntity
  8
0
370
    -3
  6
Continuous
100
AcDbLine
 10
-47.063267
 20
276.665058
 30
0.0
 11
-62.140961
 21
276.665058
 31
0.0
  0
ARC
  5
20B
100
AcDbEntity
  8
0
370
    -3
  6
Continuous
100
AcDbCircle
 10
-66.219361
 20
185.51736
 30
0.0
 40
3.0
100
AcDbArc
 50
48.25416
 51
90.0
  0
LINE
  5
20C
100
AcDbEntity
  8
0
370
    -3
  6
Continuous
100
AcDbLine
 10
-64.221878
 20
187.755677
 30
0.0
 11
-45.545591
 21
171.088889
 31
0.0
  0
ARC
  5
20D
100
AcDbEntity
  8
0
370
    -3
  6
Continuous
100
AcDbCircle
 10
-47.543074
 20
168.850572
 30
0.0
 40
3.0
100
AcDbArc
 50
0.0
 51
48.25416
  0
ARC
  5
20E
100
AcDbEntity
  8
0
370
    -3
  6
Continuous
100
AcDbCircle
 10
-66.219361
 20
180.739185
 30
0.0
 40
3.0
100
AcDbArc
 50
48.25416
 51
90.0
  0
LINE
  5
20F
100
AcDbEntity
  8
0
370
    -3
  6
Continuous
100
AcDbLine
 10
-64.221878
 20
182.977502
 30
0.0
 11
-45.545591
 21
166.310715
 31
0.0
  0
ARC
  5
210
100
AcDbEntity
  8
0
370
    -3
  6
Continuous
100
AcDbCircle
 10
-47.543074
 20
164.072398
 30
0.0
 40
3.0
100
AcDbArc
 50
0.0
 51
48.25416
  0
LINE
  5
211
100
AcDbEntity
  8
0
370
    -3
  6
Continuous
100
AcDbLine
 10
-47.063267
 20
188.51736
 30
0.0
 11
-62.140961
 21
188.51736
 31
0.0
  0
LINE
  5
212
100
AcDbEntity
  8
0
370
    -3
  6
Continuous
100
AcDbLine
 10
-126.043074
 20
269.591209
 30
0.0
 11
-132.043074
 21
269.591209
 31
0.0
  0
LINE
  5
213
100
AcDbEntity
  8
0
370
    -3
  6
Continuous
100
AcDbLine
 10
-126.043074
 20
279.591209
 30
0.0
 11
-132.043074
 21
279.591209
 31
0.0
  0
LINE
  5
214
100
AcDbEntity
  8
0
370
    -3
  6
Continuous
100
AcDbLine
 10
-132.043074
 20
269.591209
 30
0.0
 11
-132.043074
 21
279.591209
 31
0.0
  0
LINE
  5
215
100
AcDbEntity
  8
0
370
    -3
  6
Continuous
100
AcDbLine
 10
-126.043074
 20
280.691208
 30
0.0
 11
-126.043074
 21
268.491209
 31
0.0
  0
LINE
  5
216
100
AcDbEntity
  8
0
370
    -3
  6
Continuous
100
AcDbLine
 10
-126.043074
 20
195.591209
 30
0.0
 11
-132.043074
 21
195.591209
 31
0.0
  0
LINE
  5
217
100
AcDbEntity
  8
0
370
    -3
  6
Continuous
100
AcDbLine
 10
-126.043074
 20
185.591209
 30
0.0
 11
-132.043074
 21
185.591209
 31
0.0
  0
LINE
  5
218
100
AcDbEntity
  8
0
370
    -3
  6
Continuous
100
AcDbLine
 10
-132.043074
 20
195.591209
 30
0.0
 11
-132.043074
 21
185.591209
 31
0.0
  0
LINE
  5
219
100
AcDbEntity
  8
0
370
    -3
  6
Continuous
100
AcDbLine
 10
-126.043074
 20
184.491209
 30
0.0
 11
-126.043074
 21
196.691208
 31
0.0
  0
LINE
  5
21A
100
AcDbEntity
  8
0
370
    -3
  6
CENTER
100
AcDbLine
 10
-388.130371
 20
-80.222764
 30
0.0
 11
-368.753556
 21
-80.222764
 31
0.0
  0
ARC
  5
21B
100
AcDbEntity
  8
0
370
    -3
  6
Continuous
100
AcDbCircle
 10
-529.216275
 20
-51.222764
 30
0.0
 40
2.0
100
AcDbArc
 50
167.837508
 51
270.0
  0
ARC
  5
21C
100
AcDbEntity
  8
0
370
    -3
  6
Continuous
100
AcDbCircle
 10
-530.630371
 20
-71.222764
 30
0.0
 40
2.0
100
AcDbArc
 50
90.0
 51
180.0
  0
ARC
  5
21D
100
AcDbEntity
  8
0
370
    -3
  6
Continuous
100
AcDbCircle
 10
-422.130371
 20
-152.222764
 30
0.0
 40
5.0
100
AcDbArc
 50
270.0
 51
0.0
  0
ARC
  5
21E
100
AcDbEntity
  8
0
370
    -3
  6
Continuous
100
AcDbCircle
 10
-404.36107
 20
-141.200637
 30
0.0
 40
5.0
100
AcDbArc
 50
241.263962
 51
316.112971
  0
ARC
  5
21F
100
AcDbEntity
  8
0
370
    -3
  6
Continuous
100
AcDbCircle
 10
-501.899673
 20
-141.200637
 30
0.0
 40
5.0
100
AcDbArc
 50
223.887029
 51
298.736038
  0
ARC
  5
220
100
AcDbEntity
  8
0
370
    -3
  6
Continuous
100
AcDbCircle
 10
-484.130371
 20
-152.222764
 30
0.0
 40
5.0
100
AcDbArc
 50
180.0
 51
270.0
  0
LINE
  5
221
100
AcDbEntity
  8
0
370
    -3
  6
Continuous
100
AcDbLine
 10
-489.130371
 20
-151.722764
 30
0.0
 11
-489.130371
 21
-152.222764
 31
0.0
  0
ARC
  5
222
100
AcDbEntity
  8
0
370
    -3
  6
Continuous
100
AcDbCircle
 10
-496.130371
 20
-151.722764
 30
0.0
 40
7.0
100
AcDbArc
 50
0.0
 51
118.736038
  0
ARC
  5
223
100
AcDbEntity
  8
0
370
    -3
  6
Continuous
100
AcDbCircle
 10
-496.130371
 20
-151.722764
 30
0.0
 40
8.0
100
AcDbArc
 50
168.059665
 51
223.432537
  0
ARC
  5
224
100
AcDbEntity
  8
0
370
    -3
  6
Continuous
100
AcDbCircle
 10
-509.827461
 20
-148.826262
 30
0.0
 40
6.0
100
AcDbArc
 50
348.059665
 51
50.428105
  0
LINE
  5
225
100
AcDbEntity
  8
0
370
    -3
  6
Continuous
100
AcDbLine
 10
-501.939846
 20
-157.222764
 30
0.0
 11
-453.130371
 21
-157.222764
 31
0.0
  0
ARC
  5
226
100
AcDbEntity
  8
0
370
    -3
  6
Continuous
100
AcDbCircle
 10
-396.433281
 20
-148.826262
 30
0.0
 40
6.0
100
AcDbArc
 50
129.571895
 51
191.940335
  0
ARC
  5
227
100
AcDbEntity
  8
0
370
    -3
  6
Continuous
100
AcDbCircle
 10
-410.130371
 20
-151.722764
 30
0.0
 40
8.0
100
AcDbArc
 50
316.567463
 51
11.940335
  0
LINE
  5
228
100
AcDbEntity
  8
0
370
    -3
  6
Continuous
100
AcDbLine
 10
-404.320896
 20
-157.222764
 30
0.0
 11
-453.130371
 21
-157.222764
 31
0.0
  0
LINE
  5
229
100
AcDbEntity
  8
0
370
    -3
  6
Continuous
100
AcDbLine
 10
-417.130371
 20
-151.722764
 30
0.0
 11
-417.130371
 21
-152.222764
 31
0.0
  0
ARC
  5
22A
100
AcDbEntity
  8
0
370
    -3
  6
Continuous
100
AcDbCircle
 10
-410.130371
 20
-151.722764
 30
0.0
 40
7.0
100
AcDbArc
 50
61.263962
 51
180.0
  0
ARC
  5
22B
100
AcDbEntity
  8
0
370
    -3
  6
Continuous
100
AcDbCircle
 10
-531.630371
 20
-72.222764
 30
0.0
 40
1.0
100
AcDbArc
 50
180.0
 51
270.0
  0
ARC
  5
22C
100
AcDbEntity
  8
0
370
    -3
  6
Continuous
100
AcDbCircle
 10
-531.630371
 20
-88.222764
 30
0.0
 40
1.0
100
AcDbArc
 50
90.0
 51
180.0
  0
ARC
  5
22D
100
AcDbEntity
  8
0
370
    -3
  6
Continuous
100
AcDbCircle
 10
-395.488236
 20
-29.651696
 30
0.0
 40
3.0
100
AcDbArc
 50
45.0
 51
135.0
  0
ARC
  5
22E
100
AcDbEntity
  8
0
370
    -3
  6
Continuous
100
AcDbCircle
 10
-395.488236
 20
-130.793832
 30
0.0
 40
3.0
100
AcDbArc
 50
225.0
 51
315.0
  0
LINE
  5
22F
100
AcDbEntity
  8
0
370
    -3
  6
Continuous
100
AcDbLine
 10
-498.720951
 20
-5.096651
 30
0.0
 11
-514.648661
 21
10.83106
 31
0.0
  0
ARC
  5
230
100
AcDbEntity
  8
0
370
    -3
  6
Continuous
100
AcDbCircle
 10
-520.305516
 20
5.174206
 30
0.0
 40
3.0
100
AcDbArc
 50
45.0
 51
135.0
  0
ARC
  5
231
100
AcDbEntity
  8
0
370
    -3
  6
Continuous
100
AcDbCircle
 10
-512.527341
 20
12.95238
 30
0.0
 40
3.0
100
AcDbArc
 50
135.0
 51
225.0
  0
ARC
  5
232
100
AcDbEntity
  8
0
370
    -3
  6
Continuous
100
AcDbCircle
 10
-458.630371
 20
35.277236
 30
0.0
 40
3.0
100
AcDbArc
 50
0.0
 51
90.0
  0
LINE
  5
233
100
AcDbEntity
  8
0
370
    -3
  6
Continuous
100
AcDbLine
 10
-450.630371
 20
35.277236
 30
0.0
 11
-450.630371
 21
3.743846
 31
0.0
  0
ARC
  5
234
100
AcDbEntity
  8
0
370
    -3
  6
Continuous
100
AcDbCircle
 10
-447.630371
 20
35.277236
 30
0.0
 40
3.0
100
AcDbArc
 50
90.0
 51
180.0
  0
ARC
  5
235
100
AcDbEntity
  8
0
370
    -3
  6
Continuous
100
AcDbCircle
 10
-385.955227
 20
5.174206
 30
0.0
 40
3.0
100
AcDbArc
 50
45.0
 51
135.0
  0
ARC
  5
236
100
AcDbEntity
  8
0
370
    -3
  6
Continuous
100
AcDbCircle
 10
-393.733402
 20
12.95238
 30
0.0
 40
3.0
100
AcDbArc
 50
315.0
 51
45.0
  0
ARC
  5
237
100
AcDbEntity
  8
0
370
    -3
  6
Continuous
100
AcDbCircle
 10
-447.630371
 20
3.743846
 30
0.0
 40
3.0
100
AcDbArc
 50
180.0
 51
269.304339
  0
ARC
  5
238
100
AcDbEntity
  8
0
370
    -3
  6
Continuous
100
AcDbCircle
 10
-458.630371
 20
3.743846
 30
0.0
 40
3.0
100
AcDbArc
 50
270.695661
 51
0.0
  0
CIRCLE
  5
239
100
AcDbEntity
  8
0
370
    -3
  6
Continuous
100
AcDbCircle
 10
-536.215418
 20
-137.307811
 30
0.0
 40
6.0
  0
CIRCLE
  5
23A
100
AcDbEntity
  8
0
370
    -3
  6
Continuous
100
AcDbCircle
 10
-370.045325
 20
-137.307811
 30
0.0
 40
6.0
  0
ARC
  5
23B
100
AcDbEntity
  8
0
370
    -3
  6
Continuous
100
AcDbCircle
 10
-538.130371
 20
-139.222764
 30
0.0
 40
10.0
100
AcDbArc
 50
180.0
 51
270.0
  0
ARC
  5
23C
100
AcDbEntity
  8
0
370
    -3
  6
Continuous
100
AcDbCircle
 10
-368.130371
 20
-139.222764
 30
0.0
 40
10.0
100
AcDbArc
 50
270.0
 51
0.0
  0
CIRCLE
  5
23D
100
AcDbEntity
  8
0
370
    -3
  6
Continuous
100
AcDbCircle
 10
-370.045325
 20
28.862283
 30
0.0
 40
6.0
  0
ARC
  5
23E
100
AcDbEntity
  8
0
370
    -3
  6
Continuous
100
AcDbCircle
 10
-368.130371
 20
30.777236
 30
0.0
 40
10.0
100
AcDbArc
 50
0.0
 51
90.0
  0
CIRCLE
  5
23F
100
AcDbEntity
  8
0
370
    -3
  6
Continuous
100
AcDbCircle
 10
-536.215418
 20
28.862283
 30
0.0
 40
6.0
  0
ARC
  5
240
100
AcDbEntity
  8
0
370
    -3
  6
Continuous
100
AcDbCircle
 10
-538.130371
 20
30.777236
 30
0.0
 40
10.0
100
AcDbArc
 50
90.0
 51
180.0
  0
ARC
  5
241
100
AcDbEntity
  8
0
370
    -3
  6
Continuous
100
AcDbCircle
 10
-410.130371
 20
-151.722764
 30
0.0
 40
8.0
100
AcDbArc
 50
316.567463
 51
11.940335
  0
ARC
  5
242
100
AcDbEntity
  8
0
370
    -3
  6
Continuous
100
AcDbCircle
 10
-496.130371
 20
-151.722764
 30
0.0
 40
8.0
100
AcDbArc
 50
168.059665
 51
223.432537
  0
ARC
  5
243
100
AcDbEntity
  8
0
370
    -3
  6
Continuous
100
AcDbCircle
 10
-396.433281
 20
-148.826262
 30
0.0
 40
6.0
100
AcDbArc
 50
129.571895
 51
191.940335
  0
ARC
  5
244
100
AcDbEntity
  8
0
370
    -3
  6
Continuous
100
AcDbCircle
 10
-509.827461
 20
-148.826262
 30
0.0
 40
6.0
100
AcDbArc
 50
348.059665
 51
50.428105
  0
LINE
  5
245
100
AcDbEntity
  8
0
370
    -3
  6
Continuous
100
AcDbLine
 10
-407.539792
 20
-5.096651
 30
0.0
 11
-391.612081
 21
10.83106
 31
0.0
  0
LINE
  5
246
100
AcDbEntity
  8
0
370
    -3
  6
Continuous
100
AcDbLine
 10
-455.630371
 20
35.277236
 30
0.0
 11
-455.630371
 21
3.743846
 31
0.0
  0
LINE
  5
247
100
AcDbEntity
  8
0
370
    -3
  6
Continuous
100
AcDbLine
 10
-538.130371
 20
-149.222764
 30
0.0
 11
-503.840577
 21
-149.222764
 31
0.0
  0
LINE
  5
248
100
AcDbEntity
  8
0
370
    -3
  6
Continuous
100
AcDbLine
 10
-402.420166
 20
-149.222764
 30
0.0
 11
-368.130371
 21
-149.222764
 31
0.0
  0
LINE
  5
249
100
AcDbEntity
  8
0
370
    -3
  6
Continuous
100
AcDbLine
 10
-358.130371
 20
30.777236
 30
0.0
 11
-358.130371
 21
-33.422764
 31
0.0
  0
LINE
  5
24A
100
AcDbEntity
  8
0
370
    -3
  6
Continuous
100
AcDbLine
 10
-538.130371
 20
40.777236
 30
0.0
 11
-368.130371
 21
40.777236
 31
0.0
  0
LINE
  5
24B
100
AcDbEntity
  8
0
370
    -3
  6
Continuous
100
AcDbLine
 10
-548.130371
 20
30.777236
 30
0.0
 11
-548.130371
 21
-139.222764
 31
0.0
  0
LINE
  5
24C
100
AcDbEntity
  8
0
370
    -3
  6
Continuous
100
AcDbLine
 10
-404.320896
 20
-157.222764
 30
0.0
 11
-453.130371
 21
-157.222764
 31
0.0
  0
LINE
  5
24D
100
AcDbEntity
  8
0
370
    -3
  6
Continuous
100
AcDbLine
 10
-501.939846
 20
-157.222764
 30
0.0
 11
-453.130371
 21
-157.222764
 31
0.0
  0
LINE
  5
24E
100
AcDbEntity
  8
0
370
    -3
  6
Continuous
100
AcDbLine
 10
-527.630369
 20
-78.779392
 30
0.0
 11
-527.63037
 21
-81.666138
 31
0.0
  0
LINE
  5
24F
100
AcDbEntity
  8
0
370
    -3
  6
Continuous
100
AcDbLine
 10
-407.630372
 20
-153.166138
 30
0.0
 11
-410.130376
 21
-154.609512
 31
0.0
  0
LINE
  5
250
100
AcDbEntity
  8
0
370
    -3
  6
Continuous
100
AcDbLine
 10
-410.130367
 20
-148.836016
 30
0.0
 11
-412.630371
 21
-150.279387
 31
0.0
  0
LINE
  5
251
100
AcDbEntity
  8
0
370
    -3
  6
Continuous
100
AcDbLine
 10
-410.130377
 20
-154.609511
 30
0.0
 11
-412.630369
 21
-153.166136
 31
0.0
  0
LINE
  5
252
100
AcDbEntity
  8
0
370
    -3
  6
Continuous
100
AcDbLine
 10
-410.130367
 20
-148.836015
 30
0.0
 11
-407.630373
 21
-150.279392
 31
0.0
  0
LINE
  5
253
100
AcDbEntity
  8
0
370
    -3
  6
Continuous
100
AcDbLine
 10
-407.630374
 20
-150.279392
 30
0.0
 11
-407.630373
 21
-153.166138
 31
0.0
  0
LINE
  5
254
100
AcDbEntity
  8
0
370
    -3
  6
Continuous
100
AcDbLine
 10
-412.630369
 20
-153.166136
 30
0.0
 11
-412.63037
 21
-150.279386
 31
0.0
  0
CIRCLE
  5
255
100
AcDbEntity
  8
0
370
    -3
  6
Continuous
100
AcDbCircle
 10
-410.130371
 20
-151.722764
 30
0.0
 40
5.0
  0
LINE
  5
256
100
AcDbEntity
  8
0
370
    -3
  6
Continuous
100
AcDbLine
 10
-498.630371
 20
-153.166138
 30
0.0
 11
-496.130366
 21
-154.609512
 31
0.0
  0
LINE
  5
257
100
AcDbEntity
  8
0
370
    -3
  6
Continuous
100
AcDbLine
 10
-496.130376
 20
-148.836016
 30
0.0
 11
-493.630371
 21
-150.279387
 31
0.0
  0
LINE
  5
258
100
AcDbEntity
  8
0
370
    -3
  6
Continuous
100
AcDbLine
 10
-496.130366
 20
-154.609511
 30
0.0
 11
-493.630374
 21
-153.166136
 31
0.0
  0
LINE
  5
259
100
AcDbEntity
  8
0
370
    -3
  6
Continuous
100
AcDbLine
 10
-496.130376
 20
-148.836015
 30
0.0
 11
-498.63037
 21
-150.279392
 31
0.0
  0
LINE
  5
25A
100
AcDbEntity
  8
0
370
    -3
  6
Continuous
100
AcDbLine
 10
-498.630369
 20
-150.279392
 30
0.0
 11
-498.63037
 21
-153.166138
 31
0.0
  0
LINE
  5
25B
100
AcDbEntity
  8
0
370
    -3
  6
Continuous
100
AcDbLine
 10
-493.630374
 20
-153.166136
 30
0.0
 11
-493.630373
 21
-150.279386
 31
0.0
  0
CIRCLE
  5
25C
100
AcDbEntity
  8
0
370
    -3
  6
Continuous
100
AcDbCircle
 10
-496.130371
 20
-151.722764
 30
0.0
 40
5.0
  0
ARC
  5
25D
100
AcDbEntity
  8
0
370
    -3
  6
Continuous
100
AcDbCircle
 10
-453.130371
 20
-80.222764
 30
0.0
 40
83.0
100
AcDbArc
 50
309.642094
 51
326.103524
  0
ARC
  5
25E
100
AcDbEntity
  8
0
370
    -3
  6
Continuous
100
AcDbCircle
 10
-453.130371
 20
-449.222764
 30
0.0
 40
450.0
100
AcDbArc
 50
87.841597
 51
90.0
  0
ARC
  5
25F
100
AcDbEntity
  8
0
370
    -3
  6
Continuous
100
AcDbCircle
 10
-453.130371
 20
-449.222764
 30
0.0
 40
450.0
100
AcDbArc
 50
90.0
 51
92.158403
  0
LINE
  5
260
100
AcDbEntity
  8
0
370
    -3
  6
Continuous
100
AcDbLine
 10
-532.630371
 20
-64.495913
 30
0.0
 11
-532.630371
 21
-102.555475
 31
0.0
  0
ARC
  5
261
100
AcDbEntity
  8
0
370
    -3
  6
Continuous
100
AcDbCircle
 10
-522.630371
 20
-102.555475
 30
0.0
 40
10.0
100
AcDbArc
 50
180.0
 51
197.813976
  0
LINE
  5
262
100
AcDbEntity
  8
0
370
    -3
  6
CENTER
100
AcDbLine
 10
-382.773247
 20
16.134361
 30
0.0
 11
-357.317402
 21
41.590205
 31
0.0
  0
ARC
  5
263
100
AcDbEntity
  8
0
370
    -3
  6
CENTER
100
AcDbCircle
 10
-453.130371
 20
-54.222764
 30
0.0
 40
117.5
100
AcDbArc
 50
36.222456
 51
53.777544
  0
LINE
  5
264
100
AcDbEntity
  8
0
370
    -3
  6
CENTER
100
AcDbLine
 10
-382.773247
 20
-124.579889
 30
0.0
 11
-357.317402
 21
-150.035733
 31
0.0
  0
ARC
  5
265
100
AcDbEntity
  8
0
370
    -3
  6
CENTER
100
AcDbCircle
 10
-453.130371
 20
-54.222764
 30
0.0
 40
117.5
100
AcDbArc
 50
306.222456
 51
323.777544
  0
ARC
  5
266
100
AcDbEntity
  8
0
370
    -3
  6
CENTER
100
AcDbCircle
 10
-453.130371
 20
-54.222764
 30
0.0
 40
117.5
100
AcDbArc
 50
216.222456
 51
233.777544
  0
LINE
  5
267
100
AcDbEntity
  8
0
370
    -3
  6
CENTER
100
AcDbLine
 10
-523.487496
 20
16.134361
 30
0.0
 11
-548.94334
 21
41.590205
 31
0.0
  0
ARC
  5
268
100
AcDbEntity
  8
0
370
    -3
  6
CENTER
100
AcDbCircle
 10
-453.130371
 20
-54.222764
 30
0.0
 40
117.5
100
AcDbArc
 50
126.222456
 51
143.777544
  0
LINE
  5
269
100
AcDbEntity
  8
0
370
    -3
  6
Continuous
100
AcDbLine
 10
-259.543074
 20
179.091209
 30
0.0
 11
-262.140589
 21
179.091209
 31
0.0
  0
LINE
  5
26A
100
AcDbEntity
  8
0
370
    -3
  6
Continuous
100
AcDbLine
 10
-259.543074
 20
186.371748
 30
0.0
 11
-264.043074
 21
186.371748
 31
0.0
  0
LINE
  5
26B
100
AcDbEntity
  8
0
370
    -3
  6
Continuous
100
AcDbLine
 10
-259.543074
 20
198.936806
 30
0.0
 11
-262.51541
 21
199.092579
 31
0.0
  0
LINE
  5
26C
100
AcDbEntity
  8
0
370
    -3
  6
Continuous
100
AcDbLine
 10
-259.543074
 20
201.245612
 30
0.0
 11
-262.51541
 21
201.089838
 31
0.0
  0
LINE
  5
26D
100
AcDbEntity
  8
0
370
    -3
  6
Continuous
100
AcDbLine
 10
-259.543074
 20
203.436806
 30
0.0
 11
-262.51541
 21
203.592579
 31
0.0
  0
LINE
  5
26E
100
AcDbEntity
  8
0
370
    -3
  6
Continuous
100
AcDbLine
 10
-259.543074
 20
205.745612
 30
0.0
 11
-262.51541
 21
205.589838
 31
0.0
  0
LINE
  5
26F
100
AcDbEntity
  8
0
370
    -3
  6
Continuous
100
AcDbLine
 10
-259.543074
 20
207.936806
 30
0.0
 11
-262.51541
 21
208.092579
 31
0.0
  0
LINE
  5
270
100
AcDbEntity
  8
0
370
    -3
  6
Continuous
100
AcDbLine
 10
-259.543074
 20
210.245612
 30
0.0
 11
-262.51541
 21
210.089838
 31
0.0
  0
LINE
  5
271
100
AcDbEntity
  8
0
370
    -3
  6
Continuous
100
AcDbLine
 10
-259.543074
 20
212.436806
 30
0.0
 11
-262.51541
 21
212.592579
 31
0.0
  0
LINE
  5
272
100
AcDbEntity
  8
0
370
    -3
  6
Continuous
100
AcDbLine
 10
-259.543074
 20
214.745612
 30
0.0
 11
-262.51541
 21
214.589838
 31
0.0
  0
LINE
  5
273
100
AcDbEntity
  8
0
370
    -3
  6
Continuous
100
AcDbLine
 10
-263.343074
 20
218.591209
 30
0.0
 11
-259.543074
 21
218.591209
 31
0.0
  0
LINE
  5
274
100
AcDbEntity
  8
0
370
    -3
  6
Continuous
100
AcDbLine
 10
-263.343074
 20
246.591209
 30
0.0
 11
-259.543074
 21
246.591209
 31
0.0
  0
LINE
  5
275
100
AcDbEntity
  8
0
370
    -3
  6
Continuous
100
AcDbLine
 10
-259.543074
 20
250.436806
 30
0.0
 11
-262.51541
 21
250.592579
 31
0.0
  0
LINE
  5
276
100
AcDbEntity
  8
0
370
    -3
  6
Continuous
100
AcDbLine
 10
-259.543074
 20
252.745612
 30
0.0
 11
-262.51541
 21
252.589838
 31
0.0
  0
LINE
  5
277
100
AcDbEntity
  8
0
370
    -3
  6
Continuous
100
AcDbLine
 10
-259.543074
 20
254.936806
 30
0.0
 11
-262.51541
 21
255.092579
 31
0.0
  0
LINE
  5
278
100
AcDbEntity
  8
0
370
    -3
  6
Continuous
100
AcDbLine
 10
-259.543074
 20
257.245612
 30
0.0
 11
-262.51541
 21
257.089838
 31
0.0
  0
LINE
  5
279
100
AcDbEntity
  8
0
370
    -3
  6
Continuous
100
AcDbLine
 10
-259.543074
 20
259.436806
 30
0.0
 11
-262.51541
 21
259.592579
 31
0.0
  0
LINE
  5
27A
100
AcDbEntity
  8
0
370
    -3
  6
Continuous
100
AcDbLine
 10
-259.543074
 20
261.745612
 30
0.0
 11
-262.51541
 21
261.589838
 31
0.0
  0
LINE
  5
27B
100
AcDbEntity
  8
0
370
    -3
  6
Continuous
100
AcDbLine
 10
-259.543074
 20
263.936806
 30
0.0
 11
-262.51541
 21
264.092579
 31
0.0
  0
LINE
  5
27C
100
AcDbEntity
  8
0
370
    -3
  6
Continuous
100
AcDbLine
 10
-259.543074
 20
266.245612
 30
0.0
 11
-262.51541
 21
266.089838
 31
0.0
  0
LINE
  5
27D
100
AcDbEntity
  8
0
370
    -3
  6
Continuous
100
AcDbLine
 10
-259.543074
 20
278.81067
 30
0.0
 11
-264.043074
 21
278.81067
 31
0.0
  0
LINE
  5
27E
100
AcDbEntity
  8
0
370
    -3
  6
Continuous
100
AcDbLine
 10
-259.543074
 20
286.091209
 30
0.0
 11
-262.140589
 21
286.091209
 31
0.0
  0
LINE
  5
27F
100
AcDbEntity
  8
0
370
    -3
  6
Continuous
100
AcDbLine
 10
-259.543074
 20
286.091209
 30
0.0
 11
-259.543074
 21
232.591209
 31
0.0
  0
LINE
  5
280
100
AcDbEntity
  8
0
370
    -3
  6
Continuous
100
AcDbLine
 10
-259.543074
 20
179.091209
 30
0.0
 11
-259.543074
 21
232.591209
 31
0.0
  0
ARC
  5
281
100
AcDbEntity
  8
0
370
    -3
  6
Continuous
100
AcDbCircle
 10
-265.543074
 20
262.247757
 30
0.0
 40
1.0
100
AcDbArc
 50
301.986261
 51
0.0
  0
ARC
  5
282
100
AcDbEntity
  8
0
370
    -3
  6
Continuous
100
AcDbCircle
 10
-264.483642
 20
260.551407
 30
0.0
 40
1.0
100
AcDbArc
 50
121.986261
 51
177.707541
  0
ARC
  5
283
100
AcDbEntity
  8
0
370
    -3
  6
Continuous
100
AcDbCircle
 10
433.956926
 20
232.591209
 30
0.0
 40
700.0
100
AcDbArc
 50
175.768744
 51
176.379938
  0
LINE
  5
284
100
AcDbEntity
  8
0
370
    -3
  6
Continuous
100
AcDbLine
 10
-264.543074
 20
278.31067
 30
0.0
 11
-264.543074
 21
262.247757
 31
0.0
  0
ARC
  5
285
100
AcDbEntity
  8
0
370
    -3
  6
Continuous
100
AcDbCircle
 10
-264.483642
 20
204.631011
 30
0.0
 40
1.0
100
AcDbArc
 50
182.292459
 51
238.013739
  0
ARC
  5
286
100
AcDbEntity
  8
0
370
    -3
  6
Continuous
100
AcDbCircle
 10
-265.543074
 20
202.934661
 30
0.0
 40
1.0
100
AcDbArc
 50
0.0
 51
58.013739
  0
ARC
  5
287
100
AcDbEntity
  8
0
370
    -3
  6
Continuous
100
AcDbCircle
 10
433.956926
 20
232.591209
 30
0.0
 40
700.0
100
AcDbArc
 50
180.0
 51
182.865819
  0
LINE
  5
288
100
AcDbEntity
  8
0
370
    -3
  6
Continuous
100
AcDbLine
 10
-264.543074
 20
186.871748
 30
0.0
 11
-264.543074
 21
202.934661
 31
0.0
  0
ARC
  5
289
100
AcDbEntity
  8
0
370
    -3
  6
Continuous
100
AcDbCircle
 10
-262.463074
 20
213.591209
 30
0.0
 40
1.0
100
AcDbArc
 50
93.0
 51
267.0
  0
ARC
  5
28A
100
AcDbEntity
  8
0
370
    -3
  6
Continuous
100
AcDbCircle
 10
-262.463074
 20
209.091209
 30
0.0
 40
1.0
100
AcDbArc
 50
93.0
 51
267.0
  0
ARC
  5
28B
100
AcDbEntity
  8
0
370
    -3
  6
Continuous
100
AcDbCircle
 10
-262.463074
 20
204.591209
 30
0.0
 40
1.0
100
AcDbArc
 50
93.0
 51
267.0
  0
ARC
  5
28C
100
AcDbEntity
  8
0
370
    -3
  6
Continuous
100
AcDbCircle
 10
-262.463074
 20
200.091209
 30
0.0
 40
1.0
100
AcDbArc
 50
93.0
 51
267.0
  0
LINE
  5
28D
100
AcDbEntity
  8
0
370
    -3
  6
Continuous
100
AcDbLine
 10
-264.043074
 20
245.891209
 30
0.0
 11
-264.043074
 21
232.591209
 31
0.0
  0
ARC
  5
28E
100
AcDbEntity
  8
0
370
    -3
  6
Continuous
100
AcDbCircle
 10
-263.343074
 20
245.891209
 30
0.0
 40
0.7
100
AcDbArc
 50
90.0
 51
180.0
  0
ARC
  5
28F
100
AcDbEntity
  8
0
370
    -3
  6
Continuous
100
AcDbCircle
 10
-263.343074
 20
219.291209
 30
0.0
 40
0.7
100
AcDbArc
 50
180.0
 51
270.0
  0
LINE
  5
290
100
AcDbEntity
  8
0
370
    -3
  6
Continuous
100
AcDbLine
 10
-264.043074
 20
219.291209
 30
0.0
 11
-264.043074
 21
232.591209
 31
0.0
  0
ARC
  5
291
100
AcDbEntity
  8
0
370
    -3
  6
Continuous
100
AcDbCircle
 10
-264.043074
 20
278.31067
 30
0.0
 40
0.5
100
AcDbArc
 50
90.0
 51
180.0
  0
ARC
  5
292
100
AcDbEntity
  8
0
370
    -3
  6
Continuous
100
AcDbCircle
 10
-262.140589
 20
284.091209
 30
0.0
 40
2.0
100
AcDbArc
 50
90.0
 51
175.768744
  0
LINE
  5
293
100
AcDbEntity
  8
0
370
    -3
  6
Continuous
100
AcDbLine
 10
-265.288202
 20
265.108511
 30
0.0
 11
-265.288202
 21
265.073906
 31
0.0
  0
LINE
  5
294
100
AcDbEntity
  8
0
370
    -3
  6
Continuous
100
AcDbLine
 10
-265.288202
 20
200.073906
 30
0.0
 11
-265.288202
 21
200.108511
 31
0.0
  0
ARC
  5
295
100
AcDbEntity
  8
0
370
    -3
  6
Continuous
100
AcDbCircle
 10
-262.140589
 20
181.091209
 30
0.0
 40
2.0
100
AcDbArc
 50
184.231256
 51
270.0
  0
ARC
  5
296
100
AcDbEntity
  8
0
370
    -3
  6
Continuous
100
AcDbCircle
 10
-264.043074
 20
186.871748
 30
0.0
 40
0.5
100
AcDbArc
 50
180.0
 51
270.0
  0
ARC
  5
297
100
AcDbEntity
  8
0
370
    -3
  6
Continuous
100
AcDbCircle
 10
-262.463074
 20
256.091209
 30
0.0
 40
1.0
100
AcDbArc
 50
93.0
 51
267.0
  0
ARC
  5
298
100
AcDbEntity
  8
0
370
    -3
  6
Continuous
100
AcDbCircle
 10
-262.463074
 20
251.591209
 30
0.0
 40
1.0
100
AcDbArc
 50
93.0
 51
267.0
  0
ARC
  5
299
100
AcDbEntity
  8
0
370
    -3
  6
Continuous
100
AcDbCircle
 10
-262.463074
 20
265.091209
 30
0.0
 40
1.0
100
AcDbArc
 50
93.0
 51
267.0
  0
ARC
  5
29A
100
AcDbEntity
  8
0
370
    -3
  6
Continuous
100
AcDbCircle
 10
-262.463074
 20
260.591209
 30
0.0
 40
1.0
100
AcDbArc
 50
93.0
 51
267.0
  0
LINE
  5
29B
100
AcDbEntity
  8
0
370
    -3
  6
Continuous
100
AcDbLine
 10
-266.043074
 20
252.091209
 30
0.0
 11
-266.043074
 21
213.091209
 31
0.0
  0
ARC
  5
29C
100
AcDbEntity
  8
0
370
    -3
  6
Continuous
100
AcDbCircle
 10
-265.543074
 20
213.091209
 30
0.0
 40
0.5
100
AcDbArc
 50
180.0
 51
224.884862
  0
ARC
  5
29D
100
AcDbEntity
  8
0
370
    -3
  6
Continuous
100
AcDbCircle
 10
-265.543074
 20
252.091209
 30
0.0
 40
0.5
100
AcDbArc
 50
135.115138
 51
180.0
  0
ARC
  5
29E
100
AcDbEntity
  8
0
370
    -3
  6
Continuous
100
AcDbCircle
 10
-266.2516
 20
252.796893
 30
0.0
 40
0.5
100
AcDbArc
 50
315.115138
 51
358.347093
  0
ARC
  5
29F
100
AcDbEntity
  8
0
370
    -3
  6
Continuous
100
AcDbCircle
 10
-266.2516
 20
212.385524
 30
0.0
 40
0.5
100
AcDbArc
 50
1.652907
 51
44.884862
  0
ARC
  5
2A0
100
AcDbEntity
  8
0
370
    -3
  6
Continuous
100
AcDbCircle
 10
433.956926
 20
232.591209
 30
0.0
 40
700.0
100
AcDbArc
 50
177.134181
 51
180.0
  0
ARC
  5
2A1
100
AcDbEntity
  8
0
370
    -3
  6
Continuous
100
AcDbCircle
 10
433.956926
 20
232.591209
 30
0.0
 40
700.0
100
AcDbArc
 50
183.620062
 51
184.231256
  0
INSERT
  5
2B4
100
AcDbEntity
  8
0
100
AcDbBlockReference
  2
ZU_SYM__USERS_HOME_SYMBOL_STD_SYM_B01_-1
 10
-264.543071
 20
272.189188
 30
0.0
 50
360.0
  0
INSERT
  5
2C7
100
AcDbEntity
  8
0
100
AcDbBlockReference
  2
ZU_SYM__USERS_HOME_SYMBOL_STD_SYM_B01_00001-1
 10
-264.543071
 20
272.189188
 30
0.0
 50
360.0
  0
INSERT
  5
2DA
100
AcDbEntity
  8
0
100
AcDbBlockReference
  2
ZU_SYM__USERS_HOME_SYMBOL_STD_SYM_B01_00002-1
 10
-264.543071
 20
272.189188
 30
0.0
 50
360.0
  0
LINE
  5
2DB
100
AcDbEntity
  8
0
370
    -3
  6
CENTER
100
AcDbLine
 10
-256.485672
 20
272.189188
 30
0.0
 11
-271.116837
 21
272.189188
 31
0.0
  0
INSERT
  5
2EE
100
AcDbEntity
  8
0
100
AcDbBlockReference
  2
ZU_SYM__USERS_HOME_SYMBOL_STD_SYM_B01_00003-1
 10
-264.543071
 20
192.993229
 30
0.0
 41
-1.0
 50
180.0
  0
LINE
  5
2EF
100
AcDbEntity
  8
0
370
    -3
  6
CENTER
100
AcDbLine
 10
-256.485672
 20
192.993229
 30
0.0
 11
-271.116837
 21
192.993229
 31
0.0
  0
LINE
  5
2F0
100
AcDbEntity
  8
0
370
    -3
  6
Continuous
100
AcDbLine
 10
-245.336535
 20
179.091209
 30
0.0
 11
-259.543074
 21
179.091209
 31
0.0
  0
LINE
  5
2F1
100
AcDbEntity
  8
0
370
    -3
  6
Continuous
100
AcDbLine
 10
-259.543074
 20
179.091209
 30
0.0
 11
-259.543074
 21
232.591209
 31
0.0
  0
LINE
  5
2F2
100
AcDbEntity
  8
0
370
    -3
  6
Continuous
100
AcDbLine
 10
-259.543074
 20
255.491414
 30
0.0
 11
-177.543074
 21
255.491414
 31
0.0
  0
LINE
  5
2F3
100
AcDbEntity
  8
0
370
    -3
  6
Continuous
100
AcDbLine
 10
-259.543074
 20
205.191003
 30
0.0
 11
-172.400464
 21
205.191003
 31
0.0
  0
LINE
  5
2F4
100
AcDbEntity
  8
0
370
    -3
  6
Continuous
100
AcDbLine
 10
-259.543074
 20
209.691003
 30
0.0
 11
-177.543074
 21
209.691003
 31
0.0
  0
LINE
  5
2F5
100
AcDbEntity
  8
0
370
    -3
  6
Continuous
100
AcDbLine
 10
-259.543074
 20
284.341209
 30
0.0
 11
-259.543074
 21
285.091209
 31
0.0
  0
LINE
  5
2F6
100
AcDbEntity
  8
0
370
    -3
  6
Continuous
100
AcDbLine
 10
-259.543074
 20
285.091209
 30
0.0
 11
-259.543074
 21
282.841209
 31
0.0
  0
LINE
  5
2F7
100
AcDbEntity
  8
0
370
    -3
  6
Continuous
100
AcDbLine
 10
-259.543074
 20
261.191003
 30
0.0
 11
-252.543074
 21
261.191003
 31
0.0
  0
LINE
  5
2F8
100
AcDbEntity
  8
0
370
    -3
  6
Continuous
100
AcDbLine
 10
-259.543074
 20
256.691003
 30
0.0
 11
-252.543074
 21
256.691003
 31
0.0
  0
LINE
  5
2F9
100
AcDbEntity
  8
0
370
    -3
  6
Continuous
100
AcDbLine
 10
-259.543074
 20
208.491414
 30
0.0
 11
-252.543074
 21
208.491414
 31
0.0
  0
LINE
  5
2FA
100
AcDbEntity
  8
0
370
    -3
  6
Continuous
100
AcDbLine
 10
-259.543074
 20
203.991414
 30
0.0
 11
-252.543074
 21
203.991414
 31
0.0
  0
LINE
  5
2FB
100
AcDbEntity
  8
0
370
    -3
  6
Continuous
100
AcDbLine
 10
-259.543074
 20
285.091209
 30
0.0
 11
-259.543074
 21
232.591209
 31
0.0
  0
LINE
  5
2FC
100
AcDbEntity
  8
0
370
    -3
  6
Continuous
100
AcDbLine
 10
-259.543074
 20
286.091209
 30
0.0
 11
-259.543074
 21
232.591209
 31
0.0
  0
LINE
  5
2FD
100
AcDbEntity
  8
0
370
    -3
  6
Continuous
100
AcDbLine
 10
-259.543074
 20
218.591209
 30
0.0
 11
-145.543074
 21
218.591209
 31
0.0
  0
LINE
  5
2FE
100
AcDbEntity
  8
0
370
    -3
  6
Continuous
100
AcDbLine
 10
-259.543074
 20
252.205123
 30
0.0
 11
-145.543074
 21
252.205123
 31
0.0
  0
LINE
  5
2FF
100
AcDbEntity
  8
0
370
    -3
  6
Continuous
100
AcDbLine
 10
-259.543074
 20
246.591209
 30
0.0
 11
-145.543074
 21
246.591209
 31
0.0
  0
LINE
  5
300
100
AcDbEntity
  8
0
370
    -3
  6
Continuous
100
AcDbLine
 10
-259.543074
 20
250.984369
 30
0.0
 11
-145.543074
 21
250.984369
 31
0.0
  0
LINE
  5
301
100
AcDbEntity
  8
0
370
    -3
  6
Continuous
100
AcDbLine
 10
-259.543074
 20
279.917805
 30
0.0
 11
-145.543074
 21
279.917805
 31
0.0
  0
LINE
  5
302
100
AcDbEntity
  8
0
370
    -3
  6
Continuous
100
AcDbLine
 10
-259.543074
 20
273.023656
 30
0.0
 11
-145.543074
 21
273.023656
 31
0.0
  0
LINE
  5
303
100
AcDbEntity
  8
0
370
    -3
  6
Continuous
100
AcDbLine
 10
-145.543074
 20
286.091209
 30
0.0
 11
-259.543074
 21
286.091209
 31
0.0
  0
LINE
  5
304
100
AcDbEntity
  8
0
370
    -3
  6
Continuous
100
AcDbLine
 10
-259.543074
 20
212.977294
 30
0.0
 11
-145.543074
 21
212.977294
 31
0.0
  0
LINE
  5
305
100
AcDbEntity
  8
0
370
    -3
  6
Continuous
100
AcDbLine
 10
-259.543074
 20
214.191003
 30
0.0
 11
-145.543074
 21
214.191003
 31
0.0
  0
LINE
  5
306
100
AcDbEntity
  8
0
370
    -3
  6
Continuous
100
AcDbLine
 10
-259.543074
 20
259.991414
 30
0.0
 11
-154.043074
 21
259.991414
 31
0.0
  0
LINE
  5
307
100
AcDbEntity
  8
0
370
    -3
  6
Continuous
100
AcDbLine
 10
-259.543074
 20
192.158761
 30
0.0
 11
-145.543074
 21
192.158761
 31
0.0
  0
LINE
  5
308
100
AcDbEntity
  8
0
370
    -3
  6
Continuous
100
AcDbLine
 10
-259.543074
 20
185.264612
 30
0.0
 11
-145.543074
 21
185.264612
 31
0.0
  0
LINE
  5
309
100
AcDbEntity
  8
0
370
    -3
  6
Continuous
100
AcDbLine
 10
-259.543074
 20
181.591209
 30
0.0
 11
-145.543074
 21
181.591209
 31
0.0
  0
LINE
  5
30A
100
AcDbEntity
  8
0
370
    -3
  6
Continuous
100
AcDbLine
 10
-259.543074
 20
182.091209
 30
0.0
 11
-145.543074
 21
182.091209
 31
0.0
  0
LINE
  5
30B
100
AcDbEntity
  8
0
370
    -3
  6
Continuous
100
AcDbLine
 10
-259.543074
 20
199.491414
 30
0.0
 11
-145.543074
 21
199.491414
 31
0.0
  0
LINE
  5
30C
100
AcDbEntity
  8
0
370
    -3
  6
Continuous
100
AcDbLine
 10
-259.543074
 20
200.691003
 30
0.0
 11
-145.543074
 21
200.691003
 31
0.0
  0
LINE
  5
30D
100
AcDbEntity
  8
0
370
    -3
  6
Continuous
100
AcDbLine
 10
-259.543074
 20
283.591209
 30
0.0
 11
-145.543074
 21
283.591209
 31
0.0
  0
LINE
  5
30E
100
AcDbEntity
  8
0
370
    -3
  6
Continuous
100
AcDbLine
 10
-259.543074
 20
283.091209
 30
0.0
 11
-145.543074
 21
283.091209
 31
0.0
  0
LINE
  5
30F
100
AcDbEntity
  8
0
370
    -3
  6
Continuous
100
AcDbLine
 10
-259.543074
 20
265.691003
 30
0.0
 11
-145.543074
 21
265.691003
 31
0.0
  0
LINE
  5
310
100
AcDbEntity
  8
0
370
    -3
  6
Continuous
100
AcDbLine
 10
-259.543074
 20
264.491414
 30
0.0
 11
-145.543074
 21
264.491414
 31
0.0
  0
LINE
  5
311
100
AcDbEntity
  8
0
370
    -3
  6
Continuous
100
AcDbLine
 10
-177.543074
 20
255.491414
 30
0.0
 11
-145.543074
 21
255.491414
 31
0.0
  0
LINE
  5
312
100
AcDbEntity
  8
0
370
    -3
  6
Continuous
100
AcDbLine
 10
-252.543074
 20
261.191003
 30
0.0
 11
-145.543074
 21
261.191003
 31
0.0
  0
LINE
  5
313
100
AcDbEntity
  8
0
370
    -3
  6
Continuous
100
AcDbLine
 10
-256.043074
 20
256.691003
 30
0.0
 11
-145.543074
 21
256.691003
 31
0.0
  0
LINE
  5
314
100
AcDbEntity
  8
0
370
    -3
  6
Continuous
100
AcDbLine
 10
-252.543074
 20
203.991414
 30
0.0
 11
-145.543074
 21
203.991414
 31
0.0
  0
LINE
  5
315
100
AcDbEntity
  8
0
370
    -3
  6
Continuous
100
AcDbLine
 10
-252.543074
 20
208.491414
 30
0.0
 11
-145.543074
 21
208.491414
 31
0.0
  0
LINE
  5
316
100
AcDbEntity
  8
0
370
    -3
  6
Continuous
100
AcDbLine
 10
-177.543074
 20
205.191003
 30
0.0
 11
-145.543074
 21
205.191003
 31
0.0
  0
LINE
  5
317
100
AcDbEntity
  8
0
370
    -3
  6
Continuous
100
AcDbLine
 10
-177.543074
 20
209.691003
 30
0.0
 11
-145.543074
 21
209.691003
 31
0.0
  0
LINE
  5
318
100
AcDbEntity
  8
0
370
    -3
  6
Continuous
100
AcDbLine
 10
-177.543074
 20
259.991414
 30
0.0
 11
-145.543074
 21
259.991414
 31
0.0
  0
LINE
  5
319
100
AcDbEntity
  8
0
370
    -3
  6
Continuous
100
AcDbLine
 10
-145.543074
 20
286.091209
 30
0.0
 11
-145.543074
 21
232.591209
 31
0.0
  0
LINE
  5
31A
100
AcDbEntity
  8
0
370
    -3
  6
Continuous
100
AcDbLine
 10
-145.543074
 20
179.091209
 30
0.0
 11
-145.543074
 21
232.591209
 31
0.0
  0
LINE
  5
31B
100
AcDbEntity
  8
0
370
    -3
  6
Continuous
100
AcDbLine
 10
-145.543074
 20
179.091209
 30
0.0
 11
-191.749595
 21
179.091209
 31
0.0
  0
LINE
  5
31C
100
AcDbEntity
  8
0
370
    -3
  6
Continuous
100
AcDbLine
 10
-199.374595
 20
179.091209
 30
0.0
 11
-237.711535
 21
179.091209
 31
0.0
  0
ARC
  5
31D
100
AcDbEntity
  8
0
370
    -3
  6
Continuous
100
AcDbCircle
 10
193.928074
 20
-64.495913
 30
0.0
 40
62.692928
100
AcDbArc
 50
15.321688
 51
56.614043
  0
LINE
  5
31E
100
AcDbEntity
  8
0
370
    -3
  6
Continuous
100
AcDbLine
 10
-358.130371
 20
-127.022764
 30
0.0
 11
-358.130371
 21
-139.222764
 31
0.0
  0
ARC
  5
31F
100
AcDbEntity
  8
0
370
    -3
  6
Continuous
100
AcDbCircle
 10
-438.630371
 20
-64.495913
 30
0.0
 40
65.0
100
AcDbArc
 50
28.55802
 51
87.841597
  0
ARC
  5
320
100
AcDbEntity
  8
0
370
    -3
  6
Continuous
100
AcDbCircle
 10
-429.630371
 20
-130.222764
 30
0.0
 40
1.0
100
AcDbArc
 50
183.0
 51
357.0
  0
ARC
  5
321
100
AcDbEntity
  8
0
370
    -3
  6
Continuous
100
AcDbCircle
 10
-427.298186
 20
-127.073038
 30
0.0
 40
1.0
100
AcDbArc
 50
3.0
 51
118.871352
  0
LINE
  5
322
100
AcDbEntity
  8
0
370
    -3
  6
Continuous
100
AcDbLine
 10
-428.466056
 20
-127.11362
 30
0.0
 11
-428.631742
 21
-130.2751
 31
0.0
  0
ARC
  5
323
100
AcDbEntity
  8
0
370
    -3
  6
Continuous
100
AcDbCircle
 10
-427.467426
 20
-127.165956
 30
0.0
 40
1.0
100
AcDbArc
 50
118.664584
 51
177.0
  0
ARC
  5
324
100
AcDbEntity
  8
0
370
    -3
  6
Continuous
100
AcDbCircle
 10
-431.684808
 20
-129.236413
 30
0.0
 40
1.0
100
AcDbArc
 50
3.0
 51
113.63143
  0
ARC
  5
325
100
AcDbEntity
  8
0
370
    -3
  6
Continuous
100
AcDbCircle
 10
-436.008915
 20
-130.909111
 30
0.0
 40
1.0
100
AcDbArc
 50
20.070332
 51
108.664571
  0
ARC
  5
326
100
AcDbEntity
  8
0
370
    -3
  6
Continuous
100
AcDbCircle
 10
-432.085009
 20
-129.409579
 30
0.0
 40
1.0
100
AcDbArc
 50
113.164432
 51
177.0
  0
LINE
  5
327
100
AcDbEntity
  8
0
370
    -3
  6
Continuous
100
AcDbLine
 10
-433.083639
 20
-129.357243
 30
0.0
 11
-433.131742
 21
-130.2751
 31
0.0
  0
ARC
  5
328
100
AcDbEntity
  8
0
370
    -3
  6
Continuous
100
AcDbCircle
 10
-434.130371
 20
-130.222764
 30
0.0
 40
1.0
100
AcDbArc
 50
200.070332
 51
357.0
  0
LINE
  5
329
100
AcDbEntity
  8
0
370
    -3
  6
Continuous
100
AcDbLine
 10
-430.686179
 20
-129.184078
 30
0.0
 11
-430.629001
 21
-130.2751
 31
0.0
  0
ARC
  5
32A
100
AcDbEntity
  8
0
370
    -3
  6
Continuous
100
AcDbCircle
 10
-425.130371
 20
-130.222764
 30
0.0
 40
1.0
100
AcDbArc
 50
183.0
 51
357.0
  0
LINE
  5
32B
100
AcDbEntity
  8
0
370
    -3
  6
Continuous
100
AcDbLine
 10
-426.299557
 20
-127.020702
 30
0.0
 11
-426.129001
 21
-130.2751
 31
0.0
  0
ARC
  5
32C
100
AcDbEntity
  8
0
370
    -3
  6
Continuous
100
AcDbCircle
 10
-420.630371
 20
-129.722764
 30
0.0
 40
1.0
100
AcDbArc
 50
183.0
 51
357.0
  0
LINE
  5
32D
100
AcDbEntity
  8
0
370
    -3
  6
Continuous
100
AcDbLine
 10
-421.914886
 20
-124.320079
 30
0.0
 11
-421.629001
 21
-129.7751
 31
0.0
  0
LINE
  5
32E
100
AcDbEntity
  8
0
370
    -3
  6
Continuous
100
AcDbLine
 10
-423.816203
 20
-124.254261
 30
0.0
 11
-424.131742
 21
-130.2751
 31
0.0
  0
ARC
  5
32F
100
AcDbEntity
  8
0
370
    -3
  6
Continuous
100
AcDbCircle
 10
-453.130371
 20
-80.222764
 30
0.0
 40
52.5
100
AcDbArc
 50
331.026551
 51
331.437166
  0
ARC
  5
330
100
AcDbEntity
  8
0
370
    -3
  6
Continuous
100
AcDbCircle
 10
-453.130371
 20
-80.222764
 30
0.0
 40
52.5
100
AcDbArc
 50
331.026551
 51
331.437166
  0
LINE
  5
331
100
AcDbEntity
  8
0
370
    -3
  6
Continuous
100
AcDbLine
 10
-409.033057
 20
-111.438249
 30
0.0
 11
-403.578035
 21
-111.724134
 31
0.0
  0
LINE
  5
332
100
AcDbEntity
  8
0
370
    -3
  6
Continuous
100
AcDbLine
 10
-409.098875
 20
-109.536932
 30
0.0
 11
-403.078035
 21
-109.221394
 31
0.0
  0
ARC
  5
333
100
AcDbEntity
  8
0
370
    -3
  6
Continuous
100
AcDbCircle
 10
-406.280097
 20
-106.054949
 30
0.0
 40
1.0
100
AcDbArc
 50
151.128648
 51
267.0
  0
ARC
  5
334
100
AcDbEntity
  8
0
370
    -3
  6
Continuous
100
AcDbCircle
 10
-406.18718
 20
-105.885709
 30
0.0
 40
1.0
100
AcDbArc
 50
93.0
 51
151.335416
  0
ARC
  5
335
100
AcDbEntity
  8
0
370
    -3
  6
Continuous
100
AcDbCircle
 10
-408.980721
 20
-110.439619
 30
0.0
 40
1.0
100
AcDbArc
 50
145.611524
 51
267.0
  0
ARC
  5
336
100
AcDbEntity
  8
0
370
    -3
  6
Continuous
100
AcDbCircle
 10
-409.046539
 20
-110.535562
 30
0.0
 40
1.0
100
AcDbArc
 50
93.0
 51
145.486921
  0
ARC
  5
337
100
AcDbEntity
  8
0
370
    -3
  6
Continuous
100
AcDbCircle
 10
-413.120127
 20
-125.603711
 30
0.0
 40
1.0
100
AcDbArc
 50
228.0
 51
311.401106
  0
LINE
  5
338
100
AcDbEntity
  8
0
370
    -3
  6
Continuous
100
AcDbLine
 10
-419.306623
 20
-123.571465
 30
0.0
 11
-419.631742
 21
-129.7751
 31
0.0
  0
ARC
  5
339
100
AcDbEntity
  8
0
370
    -3
  6
Continuous
100
AcDbCircle
 10
-418.307994
 20
-123.623801
 30
0.0
 40
1.0
100
AcDbArc
 50
48.0
 51
177.0
  0
ARC
  5
33A
100
AcDbEntity
  8
0
370
    -3
  6
Continuous
100
AcDbCircle
 10
-407.749424
 20
-120.233008
 30
0.0
 40
1.0
100
AcDbArc
 50
318.598894
 51
42.0
  0
ARC
  5
33B
100
AcDbEntity
  8
0
370
    -3
  6
Continuous
100
AcDbCircle
 10
-453.130371
 20
-80.222764
 30
0.0
 40
61.5
100
AcDbArc
 50
311.401106
 51
318.598894
  0
LINE
  5
33C
100
AcDbEntity
  8
0
370
    -3
  6
Continuous
100
AcDbLine
 10
-409.781671
 20
-114.046512
 30
0.0
 11
-403.578035
 21
-113.721394
 31
0.0
  0
ARC
  5
33D
100
AcDbEntity
  8
0
370
    -3
  6
Continuous
100
AcDbCircle
 10
-409.729335
 20
-115.045142
 30
0.0
 40
1.0
100
AcDbArc
 50
93.0
 51
222.0
  0
LINE
  5
33E
100
AcDbEntity
  8
0
370
    -3
  6
Continuous
100
AcDbLine
 10
-417.039006
 20
-52.024123
 30
0.0
 11
-407.006279
 21
-40.88165
 31
0.0
  0
LINE
  5
33F
100
AcDbEntity
  8
0
370
    -3
  6
Continuous
100
AcDbLine
 10
-424.93173
 20
-44.131399
 30
0.0
 11
-413.789258
 21
-34.098672
 31
0.0
  0
ARC
  5
340
100
AcDbEntity
  8
0
370
    -3
  6
Continuous
100
AcDbCircle
 10
-453.130371
 20
-80.222764
 30
0.0
 40
52.5
100
AcDbArc
 50
66.336295
 51
66.863111
  0
ARC
  5
341
100
AcDbEntity
  8
0
370
    -3
  6
Continuous
100
AcDbCircle
 10
-422.817573
 20
-36.138932
 30
0.0
 40
1.0
100
AcDbArc
 50
183.0
 51
232.214197
  0
ARC
  5
342
100
AcDbEntity
  8
0
370
    -3
  6
Continuous
100
AcDbCircle
 10
-422.913516
 20
-36.073113
 30
0.0
 40
1.0
100
AcDbArc
 50
238.884247
 51
357.0
  0
ARC
  5
343
100
AcDbEntity
  8
0
370
    -3
  6
Continuous
100
AcDbCircle
 10
-438.630371
 20
-29.244828
 30
0.0
 40
0.5
100
AcDbArc
 50
180.0
 51
254.122298
  0
LINE
  5
344
100
AcDbEntity
  8
0
370
    -3
  6
Continuous
100
AcDbLine
 10
-439.130371
 20
-29.142847
 30
0.0
 11
-439.130371
 21
-29.244828
 31
0.0
  0
ARC
  5
345
100
AcDbEntity
  8
0
370
    -3
  6
Continuous
100
AcDbCircle
 10
-439.630371
 20
-29.142847
 30
0.0
 40
0.5
100
AcDbArc
 50
0.0
 51
82.20215
  0
ARC
  5
346
100
AcDbEntity
  8
0
370
    -3
  6
Continuous
100
AcDbCircle
 10
-453.130371
 20
-80.222764
 30
0.0
 40
52.5
100
AcDbArc
 50
71.335429
 51
74.122298
  0
ARC
  5
347
100
AcDbEntity
  8
0
370
    -3
  6
Continuous
100
AcDbCircle
 10
-453.130371
 20
-80.222764
 30
0.0
 40
52.5
100
AcDbArc
 50
61.026551
 51
61.437166
  0
ARC
  5
348
100
AcDbEntity
  8
0
370
    -3
  6
Continuous
100
AcDbCircle
 10
-429.630371
 20
-30.222764
 30
0.0
 40
1.0
100
AcDbArc
 50
3.0
 51
177.0
  0
ARC
  5
349
100
AcDbEntity
  8
0
370
    -3
  6
Continuous
100
AcDbCircle
 10
-427.298186
 20
-33.37249
 30
0.0
 40
1.0
100
AcDbArc
 50
241.128648
 51
357.0
  0
LINE
  5
34A
100
AcDbEntity
  8
0
370
    -3
  6
Continuous
100
AcDbLine
 10
-428.466056
 20
-33.331908
 30
0.0
 11
-428.631742
 21
-30.170428
 31
0.0
  0
ARC
  5
34B
100
AcDbEntity
  8
0
370
    -3
  6
Continuous
100
AcDbCircle
 10
-427.467426
 20
-33.279572
 30
0.0
 40
1.0
100
AcDbArc
 50
183.0
 51
241.335416
  0
ARC
  5
34C
100
AcDbEntity
  8
0
370
    -3
  6
Continuous
100
AcDbCircle
 10
-431.684808
 20
-31.209115
 30
0.0
 40
1.0
100
AcDbArc
 50
246.36857
 51
357.0
  0
ARC
  5
34D
100
AcDbEntity
  8
0
370
    -3
  6
Continuous
100
AcDbCircle
 10
-436.008915
 20
-29.536417
 30
0.0
 40
1.0
100
AcDbArc
 50
251.335429
 51
339.929668
  0
ARC
  5
34E
100
AcDbEntity
  8
0
370
    -3
  6
Continuous
100
AcDbCircle
 10
-432.085009
 20
-31.035949
 30
0.0
 40
1.0
100
AcDbArc
 50
183.0
 51
246.835568
  0
LINE
  5
34F
100
AcDbEntity
  8
0
370
    -3
  6
Continuous
100
AcDbLine
 10
-433.083639
 20
-31.088285
 30
0.0
 11
-433.131742
 21
-30.170428
 31
0.0
  0
ARC
  5
350
100
AcDbEntity
  8
0
370
    -3
  6
Continuous
100
AcDbCircle
 10
-434.130371
 20
-30.222764
 30
0.0
 40
1.0
100
AcDbArc
 50
3.0
 51
159.929668
  0
LINE
  5
351
100
AcDbEntity
  8
0
370
    -3
  6
Continuous
100
AcDbLine
 10
-430.686179
 20
-31.261451
 30
0.0
 11
-430.629001
 21
-30.170428
 31
0.0
  0
ARC
  5
352
100
AcDbEntity
  8
0
370
    -3
  6
Continuous
100
AcDbCircle
 10
-425.130371
 20
-30.222764
 30
0.0
 40
1.0
100
AcDbArc
 50
3.0
 51
177.0
  0
LINE
  5
353
100
AcDbEntity
  8
0
370
    -3
  6
Continuous
100
AcDbLine
 10
-426.299557
 20
-33.424826
 30
0.0
 11
-426.129001
 21
-30.170428
 31
0.0
  0
ARC
  5
354
100
AcDbEntity
  8
0
370
    -3
  6
Continuous
100
AcDbCircle
 10
-420.630371
 20
-30.722764
 30
0.0
 40
1.0
100
AcDbArc
 50
3.0
 51
177.0
  0
LINE
  5
355
100
AcDbEntity
  8
0
370
    -3
  6
Continuous
100
AcDbLine
 10
-421.914886
 20
-36.125449
 30
0.0
 11
-421.629001
 21
-30.670428
 31
0.0
  0
LINE
  5
356
100
AcDbEntity
  8
0
370
    -3
  6
Continuous
100
AcDbLine
 10
-423.816203
 20
-36.191268
 30
0.0
 11
-424.131742
 21
-30.170428
 31
0.0
  0
ARC
  5
357
100
AcDbEntity
  8
0
370
    -3
  6
Continuous
100
AcDbCircle
 10
-453.130371
 20
-80.222764
 30
0.0
 40
52.5
100
AcDbArc
 50
28.562834
 51
28.973449
  0
ARC
  5
358
100
AcDbEntity
  8
0
370
    -3
  6
Continuous
100
AcDbCircle
 10
-453.130371
 20
-80.222764
 30
0.0
 40
52.5
100
AcDbArc
 50
28.562834
 51
28.973449
  0
LINE
  5
359
100
AcDbEntity
  8
0
370
    -3
  6
Continuous
100
AcDbLine
 10
-409.033057
 20
-49.007279
 30
0.0
 11
-403.578035
 21
-48.721394
 31
0.0
  0
LINE
  5
35A
100
AcDbEntity
  8
0
370
    -3
  6
Continuous
100
AcDbLine
 10
-409.098875
 20
-50.908596
 30
0.0
 11
-403.078035
 21
-51.224134
 31
0.0
  0
ARC
  5
35B
100
AcDbEntity
  8
0
370
    -3
  6
Continuous
100
AcDbCircle
 10
-406.280097
 20
-54.390579
 30
0.0
 40
1.0
100
AcDbArc
 50
93.0
 51
208.871352
  0
ARC
  5
35C
100
AcDbEntity
  8
0
370
    -3
  6
Continuous
100
AcDbCircle
 10
-406.18718
 20
-54.559819
 30
0.0
 40
1.0
100
AcDbArc
 50
208.664584
 51
267.0
  0
ARC
  5
35D
100
AcDbEntity
  8
0
370
    -3
  6
Continuous
100
AcDbCircle
 10
-408.980721
 20
-50.005909
 30
0.0
 40
1.0
100
AcDbArc
 50
93.0
 51
214.388476
  0
ARC
  5
35E
100
AcDbEntity
  8
0
370
    -3
  6
Continuous
100
AcDbCircle
 10
-409.046539
 20
-49.909966
 30
0.0
 40
1.0
100
AcDbArc
 50
214.513079
 51
267.0
  0
ARC
  5
35F
100
AcDbEntity
  8
0
370
    -3
  6
Continuous
100
AcDbCircle
 10
-413.120127
 20
-34.841817
 30
0.0
 40
1.0
100
AcDbArc
 50
48.598894
 51
132.0
  0
LINE
  5
360
100
AcDbEntity
  8
0
370
    -3
  6
Continuous
100
AcDbLine
 10
-419.306623
 20
-36.874063
 30
0.0
 11
-419.631742
 21
-30.670428
 31
0.0
  0
ARC
  5
361
100
AcDbEntity
  8
0
370
    -3
  6
Continuous
100
AcDbCircle
 10
-418.307994
 20
-36.821727
 30
0.0
 40
1.0
100
AcDbArc
 50
183.0
 51
312.0
  0
ARC
  5
362
100
AcDbEntity
  8
0
370
    -3
  6
Continuous
100
AcDbCircle
 10
-407.749424
 20
-40.21252
 30
0.0
 40
1.0
100
AcDbArc
 50
318.0
 51
41.401106
  0
ARC
  5
363
100
AcDbEntity
  8
0
370
    -3
  6
Continuous
100
AcDbCircle
 10
-453.130371
 20
-80.222764
 30
0.0
 40
61.5
100
AcDbArc
 50
41.401106
 51
48.598894
  0
LINE
  5
364
100
AcDbEntity
  8
0
370
    -3
  6
Continuous
100
AcDbLine
 10
-409.781671
 20
-46.399016
 30
0.0
 11
-403.578035
 21
-46.724134
 31
0.0
  0
ARC
  5
365
100
AcDbEntity
  8
0
370
    -3
  6
Continuous
100
AcDbCircle
 10
-409.729335
 20
-45.400386
 30
0.0
 40
1.0
100
AcDbArc
 50
138.0
 51
267.0
  0
LINE
  5
366
100
AcDbEntity
  8
0
370
    -3
  6
Continuous
100
AcDbLine
 10
-399.630371
 20
-99.522764
 30
0.0
 11
-399.630371
 21
-80.222764
 31
0.0
  0
ARC
  5
367
100
AcDbEntity
  8
0
370
    -3
  6
Continuous
100
AcDbCircle
 10
-400.330371
 20
-99.522764
 30
0.0
 40
0.7
100
AcDbArc
 50
270.0
 51
0.0
  0
LINE
  5
368
100
AcDbEntity
  8
0
370
    -3
  6
Continuous
100
AcDbLine
 10
-400.330371
 20
-100.222764
 30
0.0
 11
-403.924173
 21
-100.222764
 31
0.0
  0
ARC
  5
369
100
AcDbEntity
  8
0
370
    -3
  6
Continuous
100
AcDbCircle
 10
-453.130371
 20
-80.222764
 30
0.0
 40
52.5
100
AcDbArc
 50
336.304919
 51
336.888398
  0
ARC
  5
36A
100
AcDbEntity
  8
0
370
    -3
  6
Continuous
100
AcDbCircle
 10
-403.924173
 20
-101.222764
 30
0.0
 40
1.0
100
AcDbArc
 50
90.0
 51
156.888398
  0
ARC
  5
36B
100
AcDbEntity
  8
0
370
    -3
  6
Continuous
100
AcDbCircle
 10
-453.130371
 20
-80.222764
 30
0.0
 40
52.5
100
AcDbArc
 50
336.336295
 51
336.888398
  0
ARC
  5
36C
100
AcDbEntity
  8
0
370
    -3
  6
Continuous
100
AcDbCircle
 10
-403.630371
 20
-112.722764
 30
0.0
 40
1.0
100
AcDbArc
 50
273.0
 51
87.0
  0
ARC
  5
36D
100
AcDbEntity
  8
0
370
    -3
  6
Continuous
100
AcDbCircle
 10
-403.130371
 20
-108.222764
 30
0.0
 40
1.0
100
AcDbArc
 50
273.0
 51
87.0
  0
LINE
  5
36E
100
AcDbEntity
  8
0
370
    -3
  6
Continuous
100
AcDbLine
 10
-406.332433
 20
-107.053579
 30
0.0
 11
-403.078035
 21
-107.224134
 31
0.0
  0
LINE
  5
36F
100
AcDbEntity
  8
0
370
    -3
  6
Continuous
100
AcDbLine
 10
-406.239516
 20
-104.88708
 30
0.0
 11
-403.078035
 21
-104.721394
 31
0.0
  0
ARC
  5
370
100
AcDbEntity
  8
0
370
    -3
  6
Continuous
100
AcDbCircle
 10
-403.130371
 20
-103.722764
 30
0.0
 40
1.0
100
AcDbArc
 50
273.0
 51
87.0
  0
ARC
  5
371
100
AcDbEntity
  8
0
370
    -3
  6
Continuous
100
AcDbCircle
 10
-404.116722
 20
-101.668327
 30
0.0
 40
1.0
100
AcDbArc
 50
156.36857
 51
267.0
  0
LINE
  5
372
100
AcDbEntity
  8
0
370
    -3
  6
Continuous
100
AcDbLine
 10
-404.169058
 20
-102.666956
 30
0.0
 11
-403.078035
 21
-102.724134
 31
0.0
  0
LINE
  5
373
100
AcDbEntity
  8
0
370
    -3
  6
Continuous
100
AcDbLine
 10
-399.630371
 20
-60.922764
 30
0.0
 11
-399.630371
 21
-80.222764
 31
0.0
  0
ARC
  5
374
100
AcDbEntity
  8
0
370
    -3
  6
Continuous
100
AcDbCircle
 10
-400.330371
 20
-60.922764
 30
0.0
 40
0.7
100
AcDbArc
 50
0.0
 51
90.0
  0
LINE
  5
375
100
AcDbEntity
  8
0
370
    -3
  6
Continuous
100
AcDbLine
 10
-400.330371
 20
-60.222764
 30
0.0
 11
-403.924173
 21
-60.222764
 31
0.0
  0
ARC
  5
376
100
AcDbEntity
  8
0
370
    -3
  6
Continuous
100
AcDbCircle
 10
-453.130371
 20
-80.222764
 30
0.0
 40
52.5
100
AcDbArc
 50
23.111602
 51
23.695081
  0
ARC
  5
377
100
AcDbEntity
  8
0
370
    -3
  6
Continuous
100
AcDbCircle
 10
-403.924173
 20
-59.222764
 30
0.0
 40
1.0
100
AcDbArc
 50
203.111602
 51
270.0
  0
ARC
  5
378
100
AcDbEntity
  8
0
370
    -3
  6
Continuous
100
AcDbCircle
 10
-453.130371
 20
-80.222764
 30
0.0
 40
52.5
100
AcDbArc
 50
23.111602
 51
23.663705
  0
ARC
  5
379
100
AcDbEntity
  8
0
370
    -3
  6
Continuous
100
AcDbCircle
 10
-403.630371
 20
-47.722764
 30
0.0
 40
1.0
100
AcDbArc
 50
273.0
 51
87.0
  0
ARC
  5
37A
100
AcDbEntity
  8
0
370
    -3
  6
Continuous
100
AcDbCircle
 10
-403.130371
 20
-52.222764
 30
0.0
 40
1.0
100
AcDbArc
 50
273.0
 51
87.0
  0
LINE
  5
37B
100
AcDbEntity
  8
0
370
    -3
  6
Continuous
100
AcDbLine
 10
-406.332433
 20
-53.391949
 30
0.0
 11
-403.078035
 21
-53.221394
 31
0.0
  0
LINE
  5
37C
100
AcDbEntity
  8
0
370
    -3
  6
Continuous
100
AcDbLine
 10
-406.239516
 20
-55.558448
 30
0.0
 11
-403.078035
 21
-55.724134
 31
0.0
  0
ARC
  5
37D
100
AcDbEntity
  8
0
370
    -3
  6
Continuous
100
AcDbCircle
 10
-403.130371
 20
-56.722764
 30
0.0
 40
1.0
100
AcDbArc
 50
273.0
 51
87.0
  0
LINE
  5
37E
100
AcDbEntity
  8
0
370
    -3
  6
Continuous
100
AcDbLine
 10
-489.221736
 20
-52.024123
 30
0.0
 11
-499.254463
 21
-40.88165
 31
0.0
  0
ARC
  5
37F
100
AcDbEntity
  8
0
370
    -3
  6
Continuous
100
AcDbCircle
 10
-404.116722
 20
-58.777201
 30
0.0
 40
1.0
100
AcDbArc
 50
93.0
 51
203.63143
  0
LINE
  5
380
100
AcDbEntity
  8
0
370
    -3
  6
Continuous
100
AcDbLine
 10
-404.169058
 20
-57.778572
 30
0.0
 11
-403.078035
 21
-57.721394
 31
0.0
  0
LINE
  5
381
100
AcDbEntity
  8
0
370
    -3
  6
Continuous
100
AcDbLine
 10
-481.329013
 20
-44.131399
 30
0.0
 11
-492.471485
 21
-34.098672
 31
0.0
  0
ARC
  5
382
100
AcDbEntity
  8
0
370
    -3
  6
Continuous
100
AcDbCircle
 10
-453.130371
 20
-80.222764
 30
0.0
 40
52.5
100
AcDbArc
 50
113.136889
 51
113.663705
  0
ARC
  5
383
100
AcDbEntity
  8
0
370
    -3
  6
Continuous
100
AcDbCircle
 10
-483.443169
 20
-36.138932
 30
0.0
 40
1.0
100
AcDbArc
 50
307.785803
 51
357.0
  0
LINE
  5
384
100
AcDbEntity
  8
0
370
    -3
  6
Continuous
100
AcDbLine
 10
-506.630371
 20
-98.972764
 30
0.0
 11
-506.630371
 21
-61.472764
 31
0.0
  0
ARC
  5
385
100
AcDbEntity
  8
0
370
    -3
  6
Continuous
100
AcDbCircle
 10
-483.347227
 20
-36.073113
 30
0.0
 40
1.0
100
AcDbArc
 50
183.0
 51
301.115753
  0
ARC
  5
386
100
AcDbEntity
  8
0
370
    -3
  6
Continuous
100
AcDbCircle
 10
-467.630371
 20
-29.244828
 30
0.0
 40
0.5
100
AcDbArc
 50
285.877702
 51
0.0
  0
LINE
  5
387
100
AcDbEntity
  8
0
370
    -3
  6
Continuous
100
AcDbLine
 10
-467.130371
 20
-29.142847
 30
0.0
 11
-467.130371
 21
-29.244828
 31
0.0
  0
ARC
  5
388
100
AcDbEntity
  8
0
370
    -3
  6
Continuous
100
AcDbCircle
 10
-466.630371
 20
-29.142847
 30
0.0
 40
0.5
100
AcDbArc
 50
97.79785
 51
180.0
  0
ARC
  5
389
100
AcDbEntity
  8
0
370
    -3
  6
Continuous
100
AcDbCircle
 10
-453.130371
 20
-127.722764
 30
0.0
 40
100.0
100
AcDbArc
 50
90.0
 51
97.79785
  0
ARC
  5
38A
100
AcDbEntity
  8
0
370
    -3
  6
Continuous
100
AcDbCircle
 10
-453.130371
 20
-80.222764
 30
0.0
 40
52.5
100
AcDbArc
 50
105.877702
 51
108.664571
  0
ARC
  5
38B
100
AcDbEntity
  8
0
370
    -3
  6
Continuous
100
AcDbCircle
 10
-453.130371
 20
-80.222764
 30
0.0
 40
52.5
100
AcDbArc
 50
118.562834
 51
118.973449
  0
ARC
  5
38C
100
AcDbEntity
  8
0
370
    -3
  6
Continuous
100
AcDbCircle
 10
-476.630371
 20
-30.222764
 30
0.0
 40
1.0
100
AcDbArc
 50
3.0
 51
177.0
  0
ARC
  5
38D
100
AcDbEntity
  8
0
370
    -3
  6
Continuous
100
AcDbCircle
 10
-478.962557
 20
-33.37249
 30
0.0
 40
1.0
100
AcDbArc
 50
183.0
 51
298.871352
  0
LINE
  5
38E
100
AcDbEntity
  8
0
370
    -3
  6
Continuous
100
AcDbLine
 10
-477.794687
 20
-33.331908
 30
0.0
 11
-477.629001
 21
-30.170428
 31
0.0
  0
ARC
  5
38F
100
AcDbEntity
  8
0
370
    -3
  6
Continuous
100
AcDbCircle
 10
-478.793317
 20
-33.279572
 30
0.0
 40
1.0
100
AcDbArc
 50
298.664584
 51
357.0
  0
ARC
  5
390
100
AcDbEntity
  8
0
370
    -3
  6
Continuous
100
AcDbCircle
 10
-474.575934
 20
-31.209115
 30
0.0
 40
1.0
100
AcDbArc
 50
183.0
 51
293.63143
  0
ARC
  5
391
100
AcDbEntity
  8
0
370
    -3
  6
Continuous
100
AcDbCircle
 10
-470.251827
 20
-29.536417
 30
0.0
 40
1.0
100
AcDbArc
 50
200.070332
 51
288.664571
  0
ARC
  5
392
100
AcDbEntity
  8
0
370
    -3
  6
Continuous
100
AcDbCircle
 10
-474.175733
 20
-31.035949
 30
0.0
 40
1.0
100
AcDbArc
 50
293.164432
 51
357.0
  0
LINE
  5
393
100
AcDbEntity
  8
0
370
    -3
  6
Continuous
100
AcDbLine
 10
-473.177104
 20
-31.088285
 30
0.0
 11
-473.129001
 21
-30.170428
 31
0.0
  0
ARC
  5
394
100
AcDbEntity
  8
0
370
    -3
  6
Continuous
100
AcDbCircle
 10
-472.130371
 20
-30.222764
 30
0.0
 40
1.0
100
AcDbArc
 50
20.070332
 51
177.0
  0
LINE
  5
395
100
AcDbEntity
  8
0
370
    -3
  6
Continuous
100
AcDbLine
 10
-475.574564
 20
-31.261451
 30
0.0
 11
-475.631742
 21
-30.170428
 31
0.0
  0
ARC
  5
396
100
AcDbEntity
  8
0
370
    -3
  6
Continuous
100
AcDbCircle
 10
-481.130371
 20
-30.222764
 30
0.0
 40
1.0
100
AcDbArc
 50
3.0
 51
177.0
  0
LINE
  5
397
100
AcDbEntity
  8
0
370
    -3
  6
Continuous
100
AcDbLine
 10
-479.961186
 20
-33.424826
 30
0.0
 11
-480.131742
 21
-30.170428
 31
0.0
  0
ARC
  5
398
100
AcDbEntity
  8
0
370
    -3
  6
Continuous
100
AcDbCircle
 10
-485.630371
 20
-30.722764
 30
0.0
 40
1.0
100
AcDbArc
 50
3.0
 51
177.0
  0
LINE
  5
399
100
AcDbEntity
  8
0
370
    -3
  6
Continuous
100
AcDbLine
 10
-484.345856
 20
-36.125449
 30
0.0
 11
-484.631742
 21
-30.670428
 31
0.0
  0
LINE
  5
39A
100
AcDbEntity
  8
0
370
    -3
  6
Continuous
100
AcDbLine
 10
-482.44454
 20
-36.191268
 30
0.0
 11
-482.129001
 21
-30.170428
 31
0.0
  0
LINE
  5
39B
100
AcDbEntity
  8
0
370
    -3
  6
Continuous
100
AcDbLine
 10
-506.630371
 20
-60.922764
 30
0.0
 11
-506.630371
 21
-80.222764
 31
0.0
  0
ARC
  5
39C
100
AcDbEntity
  8
0
370
    -3
  6
Continuous
100
AcDbCircle
 10
-505.930371
 20
-60.922764
 30
0.0
 40
0.7
100
AcDbArc
 50
90.0
 51
180.0
  0
LINE
  5
39D
100
AcDbEntity
  8
0
370
    -3
  6
Continuous
100
AcDbLine
 10
-505.930371
 20
-60.222764
 30
0.0
 11
-502.33657
 21
-60.222764
 31
0.0
  0
ARC
  5
39E
100
AcDbEntity
  8
0
370
    -3
  6
Continuous
100
AcDbCircle
 10
-453.130371
 20
-80.222764
 30
0.0
 40
52.5
100
AcDbArc
 50
156.304919
 51
156.888398
  0
ARC
  5
39F
100
AcDbEntity
  8
0
370
    -3
  6
Continuous
100
AcDbCircle
 10
-502.33657
 20
-59.222764
 30
0.0
 40
1.0
100
AcDbArc
 50
270.0
 51
336.888398
  0
ARC
  5
3A0
100
AcDbEntity
  8
0
370
    -3
  6
Continuous
100
AcDbCircle
 10
-453.130371
 20
-80.222764
 30
0.0
 40
52.5
100
AcDbArc
 50
156.336295
 51
156.888398
  0
ARC
  5
3A1
100
AcDbEntity
  8
0
370
    -3
  6
Continuous
100
AcDbCircle
 10
-453.130371
 20
-80.222764
 30
0.0
 40
52.5
100
AcDbArc
 50
151.026551
 51
151.437166
  0
ARC
  5
3A2
100
AcDbEntity
  8
0
370
    -3
  6
Continuous
100
AcDbCircle
 10
-453.130371
 20
-80.222764
 30
0.0
 40
52.5
100
AcDbArc
 50
151.026551
 51
151.437166
  0
ARC
  5
3A3
100
AcDbEntity
  8
0
370
    -3
  6
Continuous
100
AcDbCircle
 10
-502.630371
 20
-47.722764
 30
0.0
 40
1.0
100
AcDbArc
 50
93.0
 51
267.0
  0
ARC
  5
3A4
100
AcDbEntity
  8
0
370
    -3
  6
Continuous
100
AcDbCircle
 10
-503.130371
 20
-52.222764
 30
0.0
 40
1.0
100
AcDbArc
 50
93.0
 51
267.0
  0
LINE
  5
3A5
100
AcDbEntity
  8
0
370
    -3
  6
Continuous
100
AcDbLine
 10
-497.227686
 20
-49.007279
 30
0.0
 11
-502.682707
 21
-48.721394
 31
0.0
  0
LINE
  5
3A6
100
AcDbEntity
  8
0
370
    -3
  6
Continuous
100
AcDbLine
 10
-497.161868
 20
-50.908596
 30
0.0
 11
-503.182707
 21
-51.224134
 31
0.0
  0
LINE
  5
3A7
100
AcDbEntity
  8
0
370
    -3
  6
Continuous
100
AcDbLine
 10
-499.92831
 20
-53.391949
 30
0.0
 11
-503.182707
 21
-53.221394
 31
0.0
  0
ARC
  5
3A8
100
AcDbEntity
  8
0
370
    -3
  6
Continuous
100
AcDbCircle
 10
-499.980646
 20
-54.390579
 30
0.0
 40
1.0
100
AcDbArc
 50
331.128648
 51
87.0
  0
LINE
  5
3A9
100
AcDbEntity
  8
0
370
    -3
  6
Continuous
100
AcDbLine
 10
-500.021227
 20
-55.558448
 30
0.0
 11
-503.182707
 21
-55.724134
 31
0.0
  0
ARC
  5
3AA
100
AcDbEntity
  8
0
370
    -3
  6
Continuous
100
AcDbCircle
 10
-500.073563
 20
-54.559819
 30
0.0
 40
1.0
100
AcDbArc
 50
273.0
 51
331.335416
  0
ARC
  5
3AB
100
AcDbEntity
  8
0
370
    -3
  6
Continuous
100
AcDbCircle
 10
-503.130371
 20
-56.722764
 30
0.0
 40
1.0
100
AcDbArc
 50
93.0
 51
267.0
  0
ARC
  5
3AC
100
AcDbEntity
  8
0
370
    -3
  6
Continuous
100
AcDbCircle
 10
-502.144021
 20
-58.777201
 30
0.0
 40
1.0
100
AcDbArc
 50
336.36857
 51
87.0
  0
LINE
  5
3AD
100
AcDbEntity
  8
0
370
    -3
  6
Continuous
100
AcDbLine
 10
-502.091685
 20
-57.778572
 30
0.0
 11
-503.182707
 21
-57.721394
 31
0.0
  0
ARC
  5
3AE
100
AcDbEntity
  8
0
370
    -3
  6
Continuous
100
AcDbCircle
 10
-497.280022
 20
-50.005909
 30
0.0
 40
1.0
100
AcDbArc
 50
325.611524
 51
87.0
  0
ARC
  5
3AF
100
AcDbEntity
  8
0
370
    -3
  6
Continuous
100
AcDbCircle
 10
-497.214204
 20
-49.909966
 30
0.0
 40
1.0
100
AcDbArc
 50
273.0
 51
325.486921
  0
ARC
  5
3B0
100
AcDbEntity
  8
0
370
    -3
  6
Continuous
100
AcDbCircle
 10
-493.140616
 20
-34.841817
 30
0.0
 40
1.0
100
AcDbArc
 50
48.0
 51
131.401106
  0
LINE
  5
3B1
100
AcDbEntity
  8
0
370
    -3
  6
Continuous
100
AcDbLine
 10
-486.95412
 20
-36.874063
 30
0.0
 11
-486.629001
 21
-30.670428
 31
0.0
  0
ARC
  5
3B2
100
AcDbEntity
  8
0
370
    -3
  6
Continuous
100
AcDbCircle
 10
-487.952749
 20
-36.821727
 30
0.0
 40
1.0
100
AcDbArc
 50
228.0
 51
357.0
  0
ARC
  5
3B3
100
AcDbEntity
  8
0
370
    -3
  6
Continuous
100
AcDbCircle
 10
-498.511318
 20
-40.21252
 30
0.0
 40
1.0
100
AcDbArc
 50
138.598894
 51
222.0
  0
ARC
  5
3B4
100
AcDbEntity
  8
0
370
    -3
  6
Continuous
100
AcDbCircle
 10
-453.130371
 20
-80.222764
 30
0.0
 40
61.5
100
AcDbArc
 50
131.401106
 51
138.598894
  0
LINE
  5
3B5
100
AcDbEntity
  8
0
370
    -3
  6
Continuous
100
AcDbLine
 10
-496.479072
 20
-46.399016
 30
0.0
 11
-502.682707
 21
-46.724134
 31
0.0
  0
ARC
  5
3B6
100
AcDbEntity
  8
0
370
    -3
  6
Continuous
100
AcDbCircle
 10
-496.531408
 20
-45.400386
 30
0.0
 40
1.0
100
AcDbArc
 50
273.0
 51
42.0
  0
LINE
  5
3B7
100
AcDbEntity
  8
0
370
    -3
  6
Continuous
100
AcDbLine
 10
-489.221736
 20
-108.421405
 30
0.0
 11
-499.254463
 21
-119.563878
 31
0.0
  0
LINE
  5
3B8
100
AcDbEntity
  8
0
370
    -3
  6
Continuous
100
AcDbLine
 10
-481.329013
 20
-116.314129
 30
0.0
 11
-492.471485
 21
-126.346856
 31
0.0
  0
ARC
  5
3B9
100
AcDbEntity
  8
0
370
    -3
  6
Continuous
100
AcDbCircle
 10
-453.130371
 20
-80.222764
 30
0.0
 40
52.5
100
AcDbArc
 50
246.336295
 51
246.863111
  0
ARC
  5
3BA
100
AcDbEntity
  8
0
370
    -3
  6
Continuous
100
AcDbCircle
 10
-483.443169
 20
-124.306596
 30
0.0
 40
1.0
100
AcDbArc
 50
3.0
 51
52.214197
  0
ARC
  5
3BB
100
AcDbEntity
  8
0
370
    -3
  6
Continuous
100
AcDbCircle
 10
-483.347227
 20
-124.372415
 30
0.0
 40
1.0
100
AcDbArc
 50
58.884247
 51
177.0
  0
ARC
  5
3BC
100
AcDbEntity
  8
0
370
    -3
  6
Continuous
100
AcDbCircle
 10
-467.630371
 20
-131.2007
 30
0.0
 40
0.5
100
AcDbArc
 50
0.0
 51
74.122298
  0
LINE
  5
3BD
100
AcDbEntity
  8
0
370
    -3
  6
Continuous
100
AcDbLine
 10
-467.130371
 20
-131.302681
 30
0.0
 11
-467.130371
 21
-131.2007
 31
0.0
  0
ARC
  5
3BE
100
AcDbEntity
  8
0
370
    -3
  6
Continuous
100
AcDbCircle
 10
-466.630371
 20
-131.302681
 30
0.0
 40
0.5
100
AcDbArc
 50
180.0
 51
262.20215
  0
ARC
  5
3BF
100
AcDbEntity
  8
0
370
    -3
  6
Continuous
100
AcDbCircle
 10
-453.130371
 20
-32.722764
 30
0.0
 40
100.0
100
AcDbArc
 50
262.20215
 51
270.0
  0
ARC
  5
3C0
100
AcDbEntity
  8
0
370
    -3
  6
Continuous
100
AcDbCircle
 10
-453.130371
 20
-80.222764
 30
0.0
 40
52.5
100
AcDbArc
 50
251.335429
 51
254.122298
  0
ARC
  5
3C1
100
AcDbEntity
  8
0
370
    -3
  6
Continuous
100
AcDbCircle
 10
-453.130371
 20
-80.222764
 30
0.0
 40
52.5
100
AcDbArc
 50
241.026551
 51
241.437166
  0
ARC
  5
3C2
100
AcDbEntity
  8
0
370
    -3
  6
Continuous
100
AcDbCircle
 10
-476.630371
 20
-130.222764
 30
0.0
 40
1.0
100
AcDbArc
 50
183.0
 51
357.0
  0
ARC
  5
3C3
100
AcDbEntity
  8
0
370
    -3
  6
Continuous
100
AcDbCircle
 10
-478.962557
 20
-127.073038
 30
0.0
 40
1.0
100
AcDbArc
 50
61.128648
 51
177.0
  0
LINE
  5
3C4
100
AcDbEntity
  8
0
370
    -3
  6
Continuous
100
AcDbLine
 10
-477.794687
 20
-127.11362
 30
0.0
 11
-477.629001
 21
-130.2751
 31
0.0
  0
ARC
  5
3C5
100
AcDbEntity
  8
0
370
    -3
  6
Continuous
100
AcDbCircle
 10
-478.793317
 20
-127.165956
 30
0.0
 40
1.0
100
AcDbArc
 50
3.0
 51
61.335416
  0
ARC
  5
3C6
100
AcDbEntity
  8
0
370
    -3
  6
Continuous
100
AcDbCircle
 10
-474.575934
 20
-129.236413
 30
0.0
 40
1.0
100
AcDbArc
 50
66.36857
 51
177.0
  0
ARC
  5
3C7
100
AcDbEntity
  8
0
370
    -3
  6
Continuous
100
AcDbCircle
 10
-470.251827
 20
-130.909111
 30
0.0
 40
1.0
100
AcDbArc
 50
71.335429
 51
159.929668
  0
ARC
  5
3C8
100
AcDbEntity
  8
0
370
    -3
  6
Continuous
100
AcDbCircle
 10
-474.175733
 20
-129.409579
 30
0.0
 40
1.0
100
AcDbArc
 50
3.0
 51
66.835568
  0
LINE
  5
3C9
100
AcDbEntity
  8
0
370
    -3
  6
Continuous
100
AcDbLine
 10
-473.177104
 20
-129.357243
 30
0.0
 11
-473.129001
 21
-130.2751
 31
0.0
  0
ARC
  5
3CA
100
AcDbEntity
  8
0
370
    -3
  6
Continuous
100
AcDbCircle
 10
-472.130371
 20
-130.222764
 30
0.0
 40
1.0
100
AcDbArc
 50
183.0
 51
339.929668
  0
LINE
  5
3CB
100
AcDbEntity
  8
0
370
    -3
  6
Continuous
100
AcDbLine
 10
-475.574564
 20
-129.184078
 30
0.0
 11
-475.631742
 21
-130.2751
 31
0.0
  0
ARC
  5
3CC
100
AcDbEntity
  8
0
370
    -3
  6
Continuous
100
AcDbCircle
 10
-481.130371
 20
-130.222764
 30
0.0
 40
1.0
100
AcDbArc
 50
183.0
 51
357.0
  0
LINE
  5
3CD
100
AcDbEntity
  8
0
370
    -3
  6
Continuous
100
AcDbLine
 10
-479.961186
 20
-127.020702
 30
0.0
 11
-480.131742
 21
-130.2751
 31
0.0
  0
ARC
  5
3CE
100
AcDbEntity
  8
0
370
    -3
  6
Continuous
100
AcDbCircle
 10
-485.630371
 20
-129.722764
 30
0.0
 40
1.0
100
AcDbArc
 50
183.0
 51
357.0
  0
LINE
  5
3CF
100
AcDbEntity
  8
0
370
    -3
  6
Continuous
100
AcDbLine
 10
-484.345856
 20
-124.320079
 30
0.0
 11
-484.631742
 21
-129.7751
 31
0.0
  0
LINE
  5
3D0
100
AcDbEntity
  8
0
370
    -3
  6
Continuous
100
AcDbLine
 10
-482.44454
 20
-124.254261
 30
0.0
 11
-482.129001
 21
-130.2751
 31
0.0
  0
LINE
  5
3D1
100
AcDbEntity
  8
0
370
    -3
  6
Continuous
100
AcDbLine
 10
-506.630371
 20
-99.522764
 30
0.0
 11
-506.630371
 21
-80.222764
 31
0.0
  0
ARC
  5
3D2
100
AcDbEntity
  8
0
370
    -3
  6
Continuous
100
AcDbCircle
 10
-505.930371
 20
-99.522764
 30
0.0
 40
0.7
100
AcDbArc
 50
180.0
 51
270.0
  0
LINE
  5
3D3
100
AcDbEntity
  8
0
370
    -3
  6
Continuous
100
AcDbLine
 10
-505.930371
 20
-100.222764
 30
0.0
 11
-502.33657
 21
-100.222764
 31
0.0
  0
ARC
  5
3D4
100
AcDbEntity
  8
0
370
    -3
  6
Continuous
100
AcDbCircle
 10
-453.130371
 20
-80.222764
 30
0.0
 40
52.5
100
AcDbArc
 50
203.111602
 51
203.695081
  0
ARC
  5
3D5
100
AcDbEntity
  8
0
370
    -3
  6
Continuous
100
AcDbCircle
 10
-502.33657
 20
-101.222764
 30
0.0
 40
1.0
100
AcDbArc
 50
23.111602
 51
90.0
  0
ARC
  5
3D6
100
AcDbEntity
  8
0
370
    -3
  6
Continuous
100
AcDbCircle
 10
-453.130371
 20
-80.222764
 30
0.0
 40
52.5
100
AcDbArc
 50
203.111602
 51
203.663705
  0
ARC
  5
3D7
100
AcDbEntity
  8
0
370
    -3
  6
Continuous
100
AcDbCircle
 10
-453.130371
 20
-80.222764
 30
0.0
 40
52.5
100
AcDbArc
 50
208.562834
 51
208.973449
  0
ARC
  5
3D8
100
AcDbEntity
  8
0
370
    -3
  6
Continuous
100
AcDbCircle
 10
-453.130371
 20
-80.222764
 30
0.0
 40
52.5
100
AcDbArc
 50
208.562834
 51
208.973449
  0
ARC
  5
3D9
100
AcDbEntity
  8
0
370
    -3
  6
Continuous
100
AcDbCircle
 10
-502.630371
 20
-112.722764
 30
0.0
 40
1.0
100
AcDbArc
 50
93.0
 51
267.0
  0
ARC
  5
3DA
100
AcDbEntity
  8
0
370
    -3
  6
Continuous
100
AcDbCircle
 10
-503.130371
 20
-108.222764
 30
0.0
 40
1.0
100
AcDbArc
 50
93.0
 51
267.0
  0
LINE
  5
3DB
100
AcDbEntity
  8
0
370
    -3
  6
Continuous
100
AcDbLine
 10
-497.227686
 20
-111.438249
 30
0.0
 11
-502.682707
 21
-111.724134
 31
0.0
  0
LINE
  5
3DC
100
AcDbEntity
  8
0
370
    -3
  6
Continuous
100
AcDbLine
 10
-497.161868
 20
-109.536932
 30
0.0
 11
-503.182707
 21
-109.221394
 31
0.0
  0
LINE
  5
3DD
100
AcDbEntity
  8
0
370
    -3
  6
Continuous
100
AcDbLine
 10
-499.92831
 20
-107.053579
 30
0.0
 11
-503.182707
 21
-107.224134
 31
0.0
  0
ARC
  5
3DE
100
AcDbEntity
  8
0
370
    -3
  6
Continuous
100
AcDbCircle
 10
-499.980646
 20
-106.054949
 30
0.0
 40
1.0
100
AcDbArc
 50
273.0
 51
28.871352
  0
LINE
  5
3DF
100
AcDbEntity
  8
0
370
    -3
  6
Continuous
100
AcDbLine
 10
-500.021227
 20
-104.88708
 30
0.0
 11
-503.182707
 21
-104.721394
 31
0.0
  0
ARC
  5
3E0
100
AcDbEntity
  8
0
370
    -3
  6
Continuous
100
AcDbCircle
 10
-500.073563
 20
-105.885709
 30
0.0
 40
1.0
100
AcDbArc
 50
28.664584
 51
87.0
  0
ARC
  5
3E1
100
AcDbEntity
  8
0
370
    -3
  6
Continuous
100
AcDbCircle
 10
-503.130371
 20
-103.722764
 30
0.0
 40
1.0
100
AcDbArc
 50
93.0
 51
267.0
  0
ARC
  5
3E2
100
AcDbEntity
  8
0
370
    -3
  6
Continuous
100
AcDbCircle
 10
-502.144021
 20
-101.668327
 30
0.0
 40
1.0
100
AcDbArc
 50
273.0
 51
23.63143
  0
LINE
  5
3E3
100
AcDbEntity
  8
0
370
    -3
  6
Continuous
100
AcDbLine
 10
-502.091685
 20
-102.666956
 30
0.0
 11
-503.182707
 21
-102.724134
 31
0.0
  0
ARC
  5
3E4
100
AcDbEntity
  8
0
370
    -3
  6
Continuous
100
AcDbCircle
 10
-497.280022
 20
-110.439619
 30
0.0
 40
1.0
100
AcDbArc
 50
273.0
 51
34.388476
  0
ARC
  5
3E5
100
AcDbEntity
  8
0
370
    -3
  6
Continuous
100
AcDbCircle
 10
-497.214204
 20
-110.535562
 30
0.0
 40
1.0
100
AcDbArc
 50
34.513079
 51
87.0
  0
ARC
  5
3E6
100
AcDbEntity
  8
0
370
    -3
  6
Continuous
100
AcDbCircle
 10
-493.140616
 20
-125.603711
 30
0.0
 40
1.0
100
AcDbArc
 50
228.598894
 51
312.0
  0
LINE
  5
3E7
100
AcDbEntity
  8
0
370
    -3
  6
Continuous
100
AcDbLine
 10
-486.95412
 20
-123.571465
 30
0.0
 11
-486.629001
 21
-129.7751
 31
0.0
  0
ARC
  5
3E8
100
AcDbEntity
  8
0
370
    -3
  6
Continuous
100
AcDbCircle
 10
-487.952749
 20
-123.623801
 30
0.0
 40
1.0
100
AcDbArc
 50
3.0
 51
132.0
  0
ARC
  5
3E9
100
AcDbEntity
  8
0
370
    -3
  6
Continuous
100
AcDbCircle
 10
-498.511318
 20
-120.233008
 30
0.0
 40
1.0
100
AcDbArc
 50
138.0
 51
221.401106
  0
ARC
  5
3EA
100
AcDbEntity
  8
0
370
    -3
  6
Continuous
100
AcDbCircle
 10
-453.130371
 20
-80.222764
 30
0.0
 40
61.5
100
AcDbArc
 50
221.401106
 51
228.598894
  0
LINE
  5
3EB
100
AcDbEntity
  8
0
370
    -3
  6
Continuous
100
AcDbLine
 10
-496.479072
 20
-114.046512
 30
0.0
 11
-502.682707
 21
-113.721394
 31
0.0
  0
ARC
  5
3EC
100
AcDbEntity
  8
0
370
    -3
  6
Continuous
100
AcDbCircle
 10
-496.531408
 20
-115.045142
 30
0.0
 40
1.0
100
AcDbArc
 50
318.0
 51
87.0
  0
ARC
  5
3ED
100
AcDbEntity
  8
0
370
    -3
  6
Continuous
100
AcDbCircle
 10
-453.130371
 20
-32.722764
 30
0.0
 40
100.0
100
AcDbArc
 50
270.0
 51
277.79785
  0
ARC
  5
3EE
100
AcDbEntity
  8
0
370
    -3
  6
Continuous
100
AcDbCircle
 10
-453.130371
 20
-127.722764
 30
0.0
 40
100.0
100
AcDbArc
 50
82.20215
 51
90.0
  0
LINE
  5
3EF
100
AcDbEntity
  8
0
370
    -3
  6
Continuous
100
AcDbLine
 10
-417.039006
 20
-108.421405
 30
0.0
 11
-407.006279
 21
-119.563878
 31
0.0
  0
LINE
  5
3F0
100
AcDbEntity
  8
0
370
    -3
  6
Continuous
100
AcDbLine
 10
-424.93173
 20
-116.314129
 30
0.0
 11
-413.789258
 21
-126.346856
 31
0.0
  0
ARC
  5
3F1
100
AcDbEntity
  8
0
370
    -3
  6
Continuous
100
AcDbCircle
 10
-453.130371
 20
-80.222764
 30
0.0
 40
52.5
100
AcDbArc
 50
293.136889
 51
293.663705
  0
ARC
  5
3F2
100
AcDbEntity
  8
0
370
    -3
  6
Continuous
100
AcDbCircle
 10
-422.817573
 20
-124.306596
 30
0.0
 40
1.0
100
AcDbArc
 50
127.785803
 51
177.0
  0
ARC
  5
3F3
100
AcDbEntity
  8
0
370
    -3
  6
Continuous
100
AcDbCircle
 10
-422.913516
 20
-124.372415
 30
0.0
 40
1.0
100
AcDbArc
 50
3.0
 51
121.115753
  0
ARC
  5
3F4
100
AcDbEntity
  8
0
370
    -3
  6
Continuous
100
AcDbCircle
 10
-438.630371
 20
-131.2007
 30
0.0
 40
0.5
100
AcDbArc
 50
105.877702
 51
180.0
  0
LINE
  5
3F5
100
AcDbEntity
  8
0
370
    -3
  6
Continuous
100
AcDbLine
 10
-439.130371
 20
-131.302681
 30
0.0
 11
-439.130371
 21
-131.2007
 31
0.0
  0
ARC
  5
3F6
100
AcDbEntity
  8
0
370
    -3
  6
Continuous
100
AcDbCircle
 10
-439.630371
 20
-131.302681
 30
0.0
 40
0.5
100
AcDbArc
 50
277.79785
 51
0.0
  0
ARC
  5
3F7
100
AcDbEntity
  8
0
370
    -3
  6
Continuous
100
AcDbCircle
 10
-453.130371
 20
-80.222764
 30
0.0
 40
52.5
100
AcDbArc
 50
285.877702
 51
288.664571
  0
ARC
  5
3F8
100
AcDbEntity
  8
0
370
    -3
  6
Continuous
100
AcDbCircle
 10
-453.130371
 20
-80.222764
 30
0.0
 40
52.5
100
AcDbArc
 50
298.562834
 51
298.973449
  0
LINE
  5
3F9
100
AcDbEntity
  8
0
370
    -3
  6
Continuous
100
AcDbLine
 10
-529.216275
 20
-53.222764
 30
0.0
 11
-523.130371
 21
-53.222764
 31
0.0
  0
LINE
  5
3FA
100
AcDbEntity
  8
0
370
    -3
  6
Continuous
100
AcDbLine
 10
-530.630371
 20
-69.222764
 30
0.0
 11
-523.130371
 21
-69.222764
 31
0.0
  0
ARC
  5
3FB
100
AcDbEntity
  8
0
370
    -3
  6
Continuous
100
AcDbCircle
 10
-523.130371
 20
-61.222764
 30
0.0
 40
8.0
100
AcDbArc
 50
270.0
 51
90.0
  0
ARC
  5
3FC
100
AcDbEntity
  8
0
370
    -3
  6
Continuous
100
AcDbCircle
 10
-399.963785
 20
-18.616777
 30
0.0
 40
5.0
100
AcDbArc
 50
49.876066
 51
158.520534
  0
ARC
  5
3FD
100
AcDbEntity
  8
0
370
    -3
  6
Continuous
100
AcDbCircle
 10
-423.130371
 20
-6.532562
 30
0.0
 40
5.0
100
AcDbArc
 50
0.0
 51
75.028809
  0
ARC
  5
3FE
100
AcDbEntity
  8
0
370
    -3
  6
Continuous
100
AcDbCircle
 10
-506.296958
 20
-18.616777
 30
0.0
 40
5.0
100
AcDbArc
 50
21.479466
 51
130.123934
  0
ARC
  5
3FF
100
AcDbEntity
  8
0
370
    -3
  6
Continuous
100
AcDbCircle
 10
-483.130371
 20
-6.532562
 30
0.0
 40
5.0
100
AcDbArc
 50
104.971191
 51
180.0
  0
ARC
  5
400
100
AcDbEntity
  8
0
370
    -3
  6
Continuous
100
AcDbCircle
 10
-403.973517
 20
-122.30855
 30
0.0
 40
3.0
100
AcDbArc
 50
135.0
 51
225.0
  0
ARC
  5
401
100
AcDbEntity
  8
0
370
    -3
  6
Continuous
100
AcDbCircle
 10
-411.044585
 20
-129.379618
 30
0.0
 40
3.0
100
AcDbArc
 50
45.0
 51
135.0
  0
ARC
  5
402
100
AcDbEntity
  8
0
370
    -3
  6
Continuous
100
AcDbCircle
 10
-502.287226
 20
-122.30855
 30
0.0
 40
3.0
100
AcDbArc
 50
315.0
 51
45.0
  0
ARC
  5
403
100
AcDbEntity
  8
0
370
    -3
  6
Continuous
100
AcDbCircle
 10
-495.216158
 20
-129.379618
 30
0.0
 40
3.0
100
AcDbArc
 50
45.0
 51
135.0
  0
ARC
  5
404
100
AcDbEntity
  8
0
370
    -3
  6
Continuous
100
AcDbCircle
 10
-502.287226
 20
-38.136978
 30
0.0
 40
3.0
100
AcDbArc
 50
315.0
 51
45.0
  0
ARC
  5
405
100
AcDbEntity
  8
0
370
    -3
  6
Continuous
100
AcDbCircle
 10
-495.216158
 20
-31.06591
 30
0.0
 40
3.0
100
AcDbArc
 50
225.0
 51
315.0
  0
ARC
  5
406
100
AcDbEntity
  8
0
370
    -3
  6
Continuous
100
AcDbCircle
 10
-403.973517
 20
-38.136978
 30
0.0
 40
3.0
100
AcDbArc
 50
135.0
 51
225.0
  0
ARC
  5
407
100
AcDbEntity
  8
0
370
    -3
  6
Continuous
100
AcDbCircle
 10
-411.044585
 20
-31.06591
 30
0.0
 40
3.0
100
AcDbArc
 50
225.0
 51
315.0
  0
ARC
  5
408
100
AcDbEntity
  8
0
370
    -3
  6
Continuous
100
AcDbCircle
 10
-525.130371
 20
-80.222764
 30
0.0
 40
7.0
100
AcDbArc
 50
270.0
 51
90.0
  0
ARC
  5
409
100
AcDbEntity
  8
0
370
    -3
  6
Continuous
100
AcDbCircle
 10
-495.130371
 20
-14.222764
 30
0.0
 40
7.0
100
AcDbArc
 50
201.479466
 51
0.0
  0
ARC
  5
40A
100
AcDbEntity
  8
0
370
    -3
  6
Continuous
100
AcDbCircle
 10
-411.130371
 20
-14.222764
 30
0.0
 40
7.0
100
AcDbArc
 50
180.0
 51
338.520534
  0
ARC
  5
40B
100
AcDbEntity
  8
0
370
    -3
  6
Continuous
100
AcDbCircle
 10
-510.772507
 20
-29.651696
 30
0.0
 40
3.0
100
AcDbArc
 50
45.0
 51
135.0
  0
ARC
  5
40C
100
AcDbEntity
  8
0
370
    -3
  6
Continuous
100
AcDbCircle
 10
-503.701439
 20
-22.580628
 30
0.0
 40
3.0
100
AcDbArc
 50
135.0
 51
225.0
  0
ARC
  5
40D
100
AcDbEntity
  8
0
370
    -3
  6
Continuous
100
AcDbCircle
 10
-402.559304
 20
-22.580628
 30
0.0
 40
3.0
100
AcDbArc
 50
315.0
 51
45.0
  0
ARC
  5
40E
100
AcDbEntity
  8
0
370
    -3
  6
Continuous
100
AcDbCircle
 10
-402.559304
 20
-137.8649
 30
0.0
 40
3.0
100
AcDbArc
 50
315.0
 51
45.0
  0
ARC
  5
40F
100
AcDbEntity
  8
0
370
    -3
  6
Continuous
100
AcDbCircle
 10
-503.701439
 20
-137.8649
 30
0.0
 40
3.0
100
AcDbArc
 50
135.0
 51
225.0
  0
ARC
  5
410
100
AcDbEntity
  8
0
370
    -3
  6
Continuous
100
AcDbCircle
 10
-510.772507
 20
-130.793832
 30
0.0
 40
3.0
100
AcDbArc
 50
225.0
 51
315.0
  0
LINE
  5
411
100
AcDbEntity
  8
0
370
    -3
  6
CENTER
100
AcDbLine
 10
-453.130371
 20
47.185179
 30
0.0
 11
-453.130371
 21
-164.138754
 31
0.0
  0
LINE
  5
412
100
AcDbEntity
  8
0
370
    -3
  6
CENTER
100
AcDbLine
 10
-437.415717
 20
-54.222764
 30
0.0
 11
-468.518887
 21
-54.222764
 31
0.0
  0
LINE
  5
413
100
AcDbEntity
  8
0
370
    -3
  6
Continuous
100
AcDbLine
 10
-531.630371
 20
-73.222764
 30
0.0
 11
-525.130371
 21
-73.222764
 31
0.0
  0
LINE
  5
414
100
AcDbEntity
  8
0
370
    -3
  6
Continuous
100
AcDbLine
 10
-531.630371
 20
-87.222764
 30
0.0
 11
-525.130371
 21
-87.222764
 31
0.0
  0
LINE
  5
415
100
AcDbEntity
  8
0
370
    -3
  6
Continuous
100
AcDbLine
 10
-488.130371
 20
-6.532562
 30
0.0
 11
-488.130371
 21
-14.222764
 31
0.0
  0
LINE
  5
416
100
AcDbEntity
  8
0
370
    -3
  6
Continuous
100
AcDbLine
 10
-418.130371
 20
-6.532562
 30
0.0
 11
-418.130371
 21
-14.222764
 31
0.0
  0
LINE
  5
417
100
AcDbEntity
  8
0
370
    -3
  6
Continuous
100
AcDbLine
 10
-500.165905
 20
-36.015657
 30
0.0
 11
-508.651187
 21
-27.530376
 31
0.0
  0
LINE
  5
418
100
AcDbEntity
  8
0
370
    -3
  6
Continuous
100
AcDbLine
 10
-497.337478
 20
-33.18723
 30
0.0
 11
-505.822759
 21
-24.701949
 31
0.0
  0
LINE
  5
419
100
AcDbEntity
  8
0
370
    -3
  6
Continuous
100
AcDbLine
 10
-408.923265
 20
-33.18723
 30
0.0
 11
-400.437983
 21
-24.701949
 31
0.0
  0
LINE
  5
41A
100
AcDbEntity
  8
0
370
    -3
  6
Continuous
100
AcDbLine
 10
-406.094837
 20
-36.015657
 30
0.0
 11
-397.609556
 21
-27.530376
 31
0.0
  0
LINE
  5
41B
100
AcDbEntity
  8
0
370
    -3
  6
Continuous
100
AcDbLine
 10
-408.923265
 20
-127.258298
 30
0.0
 11
-400.437983
 21
-135.743579
 31
0.0
  0
LINE
  5
41C
100
AcDbEntity
  8
0
370
    -3
  6
Continuous
100
AcDbLine
 10
-406.094837
 20
-124.429871
 30
0.0
 11
-397.609556
 21
-132.915152
 31
0.0
  0
LINE
  5
41D
100
AcDbEntity
  8
0
370
    -3
  6
Continuous
100
AcDbLine
 10
-497.337478
 20
-127.258298
 30
0.0
 11
-505.822759
 21
-135.743579
 31
0.0
  0
LINE
  5
41E
100
AcDbEntity
  8
0
370
    -3
  6
Continuous
100
AcDbLine
 10
-500.165905
 20
-124.429871
 30
0.0
 11
-508.651187
 21
-132.915152
 31
0.0
  0
LINE
  5
41F
100
AcDbEntity
  8
0
370
    -3
  6
Continuous
100
AcDbLine
 10
-401.92273
 20
-6.550657
 30
0.0
 11
-388.076547
 21
7.295526
 31
0.0
  0
ARC
  5
420
100
AcDbEntity
  8
0
370
    -3
  6
Continuous
100
AcDbCircle
 10
-399.80141
 20
-8.671977
 30
0.0
 40
3.0
100
AcDbArc
 50
135.0
 51
235.179025
  0
ARC
  5
421
100
AcDbEntity
  8
0
370
    -3
  6
Continuous
100
AcDbCircle
 10
-409.661113
 20
-2.975331
 30
0.0
 40
3.0
100
AcDbArc
 50
244.784851
 51
315.0
  0
ARC
  5
422
100
AcDbEntity
  8
0
370
    -3
  6
Continuous
100
AcDbCircle
 10
-506.459333
 20
-8.671977
 30
0.0
 40
3.0
100
AcDbArc
 50
304.820975
 51
45.0
  0
ARC
  5
423
100
AcDbEntity
  8
0
370
    -3
  6
Continuous
100
AcDbCircle
 10
-496.59963
 20
-2.975331
 30
0.0
 40
3.0
100
AcDbArc
 50
225.0
 51
295.215149
  0
LINE
  5
424
100
AcDbEntity
  8
0
370
    -3
  6
Continuous
100
AcDbLine
 10
-504.338012
 20
-6.550657
 30
0.0
 11
-518.184195
 21
7.295526
 31
0.0
  0
LINE
  5
425
100
AcDbEntity
  8
0
370
    -3
  6
CENTER
100
AcDbLine
 10
-346.756174
 20
-80.222764
 30
0.0
 11
-557.073803
 21
-80.222764
 31
0.0
  0
LINE
  5
426
100
AcDbEntity
  8
0
370
    -3
  6
Continuous
100
AcDbLine
 10
-408.630372
 20
-15.666138
 30
0.0
 11
-411.130376
 21
-17.109512
 31
0.0
  0
LINE
  5
427
100
AcDbEntity
  8
0
370
    -3
  6
Continuous
100
AcDbLine
 10
-411.130367
 20
-11.336016
 30
0.0
 11
-413.630371
 21
-12.779387
 31
0.0
  0
LINE
  5
428
100
AcDbEntity
  8
0
370
    -3
  6
Continuous
100
AcDbLine
 10
-411.130377
 20
-17.109511
 30
0.0
 11
-413.630369
 21
-15.666136
 31
0.0
  0
LINE
  5
429
100
AcDbEntity
  8
0
370
    -3
  6
Continuous
100
AcDbLine
 10
-411.130367
 20
-11.336015
 30
0.0
 11
-408.630373
 21
-12.779392
 31
0.0
  0
LINE
  5
42A
100
AcDbEntity
  8
0
370
    -3
  6
Continuous
100
AcDbLine
 10
-408.630374
 20
-12.779392
 30
0.0
 11
-408.630373
 21
-15.666138
 31
0.0
  0
LINE
  5
42B
100
AcDbEntity
  8
0
370
    -3
  6
Continuous
100
AcDbLine
 10
-413.630369
 20
-15.666136
 30
0.0
 11
-413.63037
 21
-12.779386
 31
0.0
  0
CIRCLE
  5
42C
100
AcDbEntity
  8
0
370
    -3
  6
Continuous
100
AcDbCircle
 10
-411.130371
 20
-14.222764
 30
0.0
 40
5.0
  0
LINE
  5
42D
100
AcDbEntity
  8
0
370
    -3
  6
Continuous
100
AcDbLine
 10
-497.630371
 20
-15.666138
 30
0.0
 11
-495.130366
 21
-17.109512
 31
0.0
  0
LINE
  5
42E
100
AcDbEntity
  8
0
370
    -3
  6
Continuous
100
AcDbLine
 10
-495.130376
 20
-11.336016
 30
0.0
 11
-492.630371
 21
-12.779387
 31
0.0
  0
LINE
  5
42F
100
AcDbEntity
  8
0
370
    -3
  6
Continuous
100
AcDbLine
 10
-495.130366
 20
-17.109511
 30
0.0
 11
-492.630374
 21
-15.666136
 31
0.0
  0
LINE
  5
430
100
AcDbEntity
  8
0
370
    -3
  6
Continuous
100
AcDbLine
 10
-495.130376
 20
-11.336015
 30
0.0
 11
-497.63037
 21
-12.779392
 31
0.0
  0
LINE
  5
431
100
AcDbEntity
  8
0
370
    -3
  6
Continuous
100
AcDbLine
 10
-497.630369
 20
-12.779392
 30
0.0
 11
-497.63037
 21
-15.666138
 31
0.0
  0
LINE
  5
432
100
AcDbEntity
  8
0
370
    -3
  6
Continuous
100
AcDbLine
 10
-492.630374
 20
-15.666136
 30
0.0
 11
-492.630373
 21
-12.779386
 31
0.0
  0
CIRCLE
  5
433
100
AcDbEntity
  8
0
370
    -3
  6
Continuous
100
AcDbCircle
 10
-495.130371
 20
-14.222764
 30
0.0
 40
5.0
  0
LINE
  5
434
100
AcDbEntity
  8
0
370
    -3
  6
Continuous
100
AcDbLine
 10
-527.630371
 20
-81.666138
 30
0.0
 11
-525.130366
 21
-83.109512
 31
0.0
  0
LINE
  5
435
100
AcDbEntity
  8
0
370
    -3
  6
Continuous
100
AcDbLine
 10
-525.130376
 20
-77.336016
 30
0.0
 11
-522.630371
 21
-78.779387
 31
0.0
  0
LINE
  5
436
100
AcDbEntity
  8
0
370
    -3
  6
Continuous
100
AcDbLine
 10
-525.130366
 20
-83.109511
 30
0.0
 11
-522.630374
 21
-81.666136
 31
0.0
  0
LINE
  5
437
100
AcDbEntity
  8
0
370
    -3
  6
Continuous
100
AcDbLine
 10
-525.130376
 20
-77.336015
 30
0.0
 11
-527.63037
 21
-78.779392
 31
0.0
  0
LINE
  5
438
100
AcDbEntity
  8
0
370
    -3
  6
Continuous
100
AcDbLine
 10
-522.630374
 20
-81.666136
 30
0.0
 11
-522.630373
 21
-78.779386
 31
0.0
  0
CIRCLE
  5
439
100
AcDbEntity
  8
0
370
    -3
  6
Continuous
100
AcDbCircle
 10
-525.130371
 20
-80.222764
 30
0.0
 40
5.0
  0
ARC
  5
43A
100
AcDbEntity
  8
0
370
    -3
  6
Continuous
100
AcDbCircle
 10
-467.630371
 20
-64.495913
 30
0.0
 40
65.0
100
AcDbArc
 50
92.158403
 51
180.0
  0
ARC
  5
43B
100
AcDbEntity
  8
0
370
    -3
  6
Continuous
100
AcDbCircle
 10
-453.130371
 20
-80.222764
 30
0.0
 40
83.0
100
AcDbArc
 50
197.813976
 51
230.357906
  0
LINE
  5
43C
100
AcDbEntity
  8
0
370
    -3
  6
CENTER
100
AcDbLine
 10
-523.487496
 20
-124.579889
 30
0.0
 11
-548.94334
 21
-150.035733
 31
0.0
  0
INSERT
  5
448
100
AcDbEntity
  8
0
100
AcDbBlockReference
  2
ZU_SYM__USERS_HOME_SYMBOL_STD_SYM_B01_00004-1
 10
-492.728351
 20
-119.820744
 30
0.0
 50
180.0
  0
INSERT
  5
454
100
AcDbEntity
  8
0
100
AcDbBlockReference
  2
ZU_SYM__USERS_HOME_SYMBOL_STD_SYM_B01_00005-1
 10
-413.532392
 20
-40.624784
 30
0.0
 50
360.0
  0
INSERT
  5
460
100
AcDbEntity
  8
0
100
AcDbBlockReference
  2
ZU_SYM__USERS_HOME_SYMBOL_STD_SYM_B01_00006-1
 10
-492.728351
 20
-40.624784
 30
0.0
 41
-1.0
  0
INSERT
  5
46C
100
AcDbEntity
  8
0
100
AcDbBlockReference
  2
ZU_SYM__USERS_HOME_SYMBOL_STD_SYM_B01_00007-1
 10
-413.532392
 20
-119.820744
 30
0.0
 41
-1.0
 50
180.0
  0
MTEXT
  5
46E
100
AcDbEntity
  8
0
370
    -3
  6
Continuous
100
AcDbMText
 10
-539.710144
 20
249.455353
 30
0.0
 40
15.0
 41
0.0
 71
     7
 72
     1
  1
\W0.48;GV-SF
  7
ZU_SHPTB00001
 11
1.0
 21
0.0
 31
0.0
 73
     1
 44
1.0
  0
MTEXT
  5
46F
100
AcDbEntity
  8
0
370
    -3
  6
Continuous
100
AcDbMText
 10
-539.710144
 20
266.405365
 30
0.0
 40
15.0
 41
0.0
 71
     7
 72
     1
  1
\W0.63;三菱ギヤードモータ  
  7
ZU_SHPTB00001
 11
1.0
 21
0.0
 31
0.0
 73
     1
 44
1.0
  0
MTEXT
  5
470
100
AcDbEntity
  8
0
370
    -3
  6
Continuous
100
AcDbMText
 10
-539.710144
 20
266.405365
 30
0.0
 40
15.0
 41
0.0
 71
     7
 72
     1
  1
\W0.63;三菱ギヤードモータ  
  7
ZU_SHPTB00001
 11
1.0
 21
0.0
 31
0.0
 73
     1
 44
1.0
  0
MTEXT
  5
471
100
AcDbEntity
  8
0
370
    -3
  6
Continuous
100
AcDbMText
 10
-539.710144
 20
181.655365
 30
0.0
 40
15.0
 41
0.0
 71
     7
 72
     1
  1
\W0.43;SCALE\W0.72;  \W0.43;1/1
  7
ZU_SHPTB00001
 11
1.0
 21
0.0
 31
0.0
 73
     1
 44
1.0
  0
MTEXT
  5
472
100
AcDbEntity
  8
0
370
    -3
  6
Continuous
100
AcDbMText
 10
-539.710144
 20
215.555389
 30
0.0
 40
15.0
 41
0.0
 71
     7
 72
     1
  1
\W0.43;25-15r/min\W0.53;　
  7
ZU_SHPTB00001
 11
1.0
 21
0.0
 31
0.0
 73
     1
 44
1.0
  0
MTEXT
  5
473
100
AcDbEntity
  8
0
370
    -3
  6
Continuous
100
AcDbMText
 10
-539.710144
 20
198.605377
 30
0.0
 40
15.0
 41
0.0
 71
     7
 72
     1
  1
\W0.42;GEAR\W0.70; \W0.42;RATIO\W0.70;  \W0.42;1/120-1/200
  7
ZU_SHPTB00001
 11
1.0
 21
0.0
 31
0.0
 73
     1
 44
1.0
  0
MTEXT
  5
474
100
AcDbEntity
  8
0
370
    -3
  6
Continuous
100
AcDbMText
 10
-539.710144
 20
232.505341
 30
0.0
 40
15.0
 41
0.0
 71
     7
 72
     1
  1
\W0.43;0.4kW
  7
ZU_SHPTB00001
 11
1.0
 21
0.0
 31
0.0
 73
     1
 44
1.0
  0
LINE
  5
475
100
AcDbEntity
  8
0
370
    -3
  6
Continuous
100
AcDbLine
 10
-181.445604
 20
-33.422764
 30
0.0
 11
-264.317134
 21
-33.422764
 31
0.0
  0
LINE
  5
476
100
AcDbEntity
  8
0
370
    -3
  6
Continuous
100
AcDbLine
 10
-181.445604
 20
-127.022764
 30
0.0
 11
-264.317134
 21
-127.022764
 31
0.0
  0
LINE
  5
477
100
AcDbEntity
  8
0
370
    -3
  6
CENTER
100
AcDbLine
 10
-218.543074
 20
-129.914528
 30
0.0
 11
-218.543074
 21
-29.530125
 31
0.0
  0
LINE
  5
478
100
AcDbEntity
  8
0
370
    -3
  6
Continuous
100
AcDbLine
 10
-173.645604
 20
-80.222764
 30
0.0
 11
-173.645604
 21
-41.222764
 31
0.0
  0
LINE
  5
479
100
AcDbEntity
  8
0
370
    -3
  6
Continuous
100
AcDbLine
 10
-173.645604
 20
-80.222764
 30
0.0
 11
-173.645604
 21
-119.222764
 31
0.0
  0
LINE
  5
47A
100
AcDbEntity
  8
0
370
    -3
  6
Continuous
100
AcDbLine
 10
-180.663714
 20
-80.222764
 30
0.0
 11
-180.663714
 21
-104.769755
 31
0.0
  0
ARC
  5
47B
100
AcDbEntity
  8
0
370
    -3
  6
Continuous
100
AcDbCircle
 10
-184.463714
 20
-104.769755
 30
0.0
 40
3.8
100
AcDbArc
 50
318.14922
 51
0.0
  0
LINE
  5
47C
100
AcDbEntity
  8
0
370
    -3
  6
Continuous
100
AcDbLine
 10
-191.117121
 20
-80.222764
 30
0.0
 11
-191.117121
 21
-108.772764
 31
0.0
  0
ARC
  5
47D
100
AcDbEntity
  8
0
370
    -3
  6
Continuous
100
AcDbCircle
 10
-181.445604
 20
-119.222764
 30
0.0
 40
7.8
100
AcDbArc
 50
270.0
 51
360.0
  0
LINE
  5
47E
100
AcDbEntity
  8
0
370
    -3
  6
Continuous
100
AcDbLine
 10
-179.023931
 20
-119.722764
 30
0.0
 11
-177.306419
 21
-117.722764
 31
0.0
  0
LINE
  5
47F
100
AcDbEntity
  8
0
370
    -3
  6
Continuous
100
AcDbLine
 10
-177.306419
 20
-121.722764
 30
0.0
 11
-179.023931
 21
-119.722764
 31
0.0
  0
ELLIPSE
  5
480
100
AcDbEntity
  8
0
370
    -3
  6
Continuous
100
AcDbEllipse
 10
-179.854961
 20
-119.722764
 30
0.0
 11
0.000000000000199
 21
3.5
 31
0.0
210
0.0
220
0.0
230
1.0
 40
0.982815
 41
0.0
 42
6.2831853071795862
  0
LINE
  5
481
100
AcDbEntity
  8
0
370
    -3
  6
Continuous
100
AcDbLine
 10
-180.93165
 20
-121.722764
 30
0.0
 11
-179.023931
 21
-119.722764
 31
0.0
  0
LINE
  5
482
100
AcDbEntity
  8
0
370
    -3
  6
Continuous
100
AcDbLine
 10
-179.023931
 20
-119.722764
 30
0.0
 11
-180.93165
 21
-117.722764
 31
0.0
  0
ARC
  5
483
100
AcDbEntity
  8
0
370
    -3
  6
Continuous
100
AcDbCircle
 10
-193.602541
 20
-114.972764
 30
0.0
 40
3.8
100
AcDbArc
 50
270.0
 51
318.14922
  0
LINE
  5
484
100
AcDbEntity
  8
0
370
    -3
  6
Continuous
100
AcDbLine
 10
-190.771978
 20
-117.508097
 30
0.0
 11
-181.633151
 21
-107.305088
 31
0.0
  0
ARC
  5
485
100
AcDbEntity
  8
0
370
    -3
  6
Continuous
100
AcDbCircle
 10
-201.117121
 20
-108.772764
 30
0.0
 40
10.0
100
AcDbArc
 50
270.0
 51
360.0
  0
ARC
  5
486
100
AcDbEntity
  8
0
370
    -3
  6
Continuous
100
AcDbCircle
 10
-181.445604
 20
-41.222764
 30
0.0
 40
7.8
100
AcDbArc
 50
0.0
 51
90.0
  0
LINE
  5
487
100
AcDbEntity
  8
0
370
    -3
  6
Continuous
100
AcDbLine
 10
-180.663714
 20
-80.222764
 30
0.0
 11
-180.663714
 21
-55.675773
 31
0.0
  0
LINE
  5
488
100
AcDbEntity
  8
0
370
    -3
  6
Continuous
100
AcDbLine
 10
-179.023931
 20
-40.722764
 30
0.0
 11
-177.306419
 21
-42.722764
 31
0.0
  0
LINE
  5
489
100
AcDbEntity
  8
0
370
    -3
  6
Continuous
100
AcDbLine
 10
-177.306419
 20
-38.722764
 30
0.0
 11
-179.023931
 21
-40.722764
 31
0.0
  0
ARC
  5
48A
100
AcDbEntity
  8
0
370
    -3
  6
Continuous
100
AcDbCircle
 10
-184.463714
 20
-55.675773
 30
0.0
 40
3.8
100
AcDbArc
 50
0.0
 51
41.85078
  0
LINE
  5
48B
100
AcDbEntity
  8
0
370
    -3
  6
Continuous
100
AcDbLine
 10
-180.93165
 20
-38.722764
 30
0.0
 11
-179.023931
 21
-40.722764
 31
0.0
  0
LINE
  5
48C
100
AcDbEntity
  8
0
370
    -3
  6
Continuous
100
AcDbLine
 10
-179.023931
 20
-40.722764
 30
0.0
 11
-180.93165
 21
-42.722764
 31
0.0
  0
ELLIPSE
  5
48D
100
AcDbEntity
  8
0
370
    -3
  6
Continuous
100
AcDbEllipse
 10
-179.854961
 20
-40.722764
 30
0.0
 11
0.0
 21
3.5
 31
0.0
210
0.0
220
0.0
230
1.0
 40
0.982815
 41
0.0
 42
6.2831853071795862
  0
ARC
  5
48E
100
AcDbEntity
  8
0
370
    -3
  6
Continuous
100
AcDbCircle
 10
-193.602541
 20
-45.472764
 30
0.0
 40
3.8
100
AcDbArc
 50
41.85078
 51
90.0
  0
LINE
  5
48F
100
AcDbEntity
  8
0
370
    -3
  6
Continuous
100
AcDbLine
 10
-190.771978
 20
-42.937431
 30
0.0
 11
-181.633151
 21
-53.14044
 31
0.0
  0
ARC
  5
490
100
AcDbEntity
  8
0
370
    -3
  6
Continuous
100
AcDbCircle
 10
-201.117121
 20
-51.672764
 30
0.0
 40
10.0
100
AcDbArc
 50
0.0
 51
90.0
  0
LINE
  5
491
100
AcDbEntity
  8
0
370
    -3
  6
Continuous
100
AcDbLine
 10
-191.117121
 20
-80.222764
 30
0.0
 11
-191.117121
 21
-51.672764
 31
0.0
  0
LINE
  5
492
100
AcDbEntity
  8
0
370
    -3
  6
Continuous
100
AcDbLine
 10
-259.780428
 20
-121.722764
 30
0.0
 11
-261.497939
 21
-119.722764
 31
0.0
  0
LINE
  5
493
100
AcDbEntity
  8
0
370
    -3
  6
Continuous
100
AcDbLine
 10
-261.497939
 20
-119.722764
 30
0.0
 11
-259.780428
 21
-117.722764
 31
0.0
  0
ARC
  5
494
100
AcDbEntity
  8
0
370
    -3
  6
Continuous
100
AcDbCircle
 10
-249.098598
 20
-114.972764
 30
0.0
 40
3.8
100
AcDbArc
 50
221.390427
 51
270.0
  0
ARC
  5
495
100
AcDbEntity
  8
0
370
    -3
  6
Continuous
100
AcDbCircle
 10
-264.317134
 20
-119.222764
 30
0.0
 40
7.8
100
AcDbArc
 50
180.0
 51
270.0
  0
ARC
  5
496
100
AcDbEntity
  8
0
370
    -3
  6
Continuous
100
AcDbCircle
 10
-261.865948
 20
-119.222764
 30
0.0
 40
7.8
100
AcDbArc
 50
180.0
 51
270.0
  0
ELLIPSE
  5
497
100
AcDbEntity
  8
0
370
    -3
  6
Continuous
100
AcDbEllipse
 10
-262.32897
 20
-119.722764
 30
0.0
 11
0.0000000000002274
 21
3.5
 31
0.0
210
0.0
220
0.0
230
1.0
 40
0.982815
 41
0.0
 42
6.2831853071795862
  0
LINE
  5
498
100
AcDbEntity
  8
0
370
    -3
  6
Continuous
100
AcDbLine
 10
-263.405659
 20
-121.722764
 30
0.0
 11
-261.497939
 21
-119.722764
 31
0.0
  0
LINE
  5
499
100
AcDbEntity
  8
0
370
    -3
  6
Continuous
100
AcDbLine
 10
-261.497939
 20
-119.722764
 30
0.0
 11
-263.405659
 21
-117.722764
 31
0.0
  0
LINE
  5
49A
100
AcDbEntity
  8
0
370
    -3
  6
Continuous
100
AcDbLine
 10
-249.098598
 20
-118.772764
 30
0.0
 11
-193.602541
 21
-118.772764
 31
0.0
  0
POINT
  5
49B
100
AcDbEntity
  8
0
370
    -3
  6
CENTER
100
AcDbPoint
 10
-289.543074
 20
-90.700264
 30
0.0
  0
POINT
  5
49C
100
AcDbEntity
  8
0
370
    -3
  6
CENTER
100
AcDbPoint
 10
-289.543074
 20
-90.700264
 30
0.0
  0
ARC
  5
49D
100
AcDbEntity
  8
0
370
    -3
  6
Continuous
100
AcDbCircle
 10
-287.543074
 20
-92.222764
 30
0.0
 40
2.0
100
AcDbArc
 50
180.0
 51
270.0
  0
LINE
  5
49E
100
AcDbEntity
  8
0
370
    -3
  6
Continuous
100
AcDbLine
 10
-289.543074
 20
-92.222764
 30
0.0
 11
-289.543074
 21
-80.222764
 31
0.0
  0
ARC
  5
49F
100
AcDbEntity
  8
0
370
    -3
  6
Continuous
100
AcDbCircle
 10
-258.075333
 20
-104.787226
 30
0.0
 40
3.8
100
AcDbArc
 50
180.0
 51
221.390427
  0
LINE
  5
4A0
100
AcDbEntity
  8
0
370
    -3
  6
Continuous
100
AcDbLine
 10
-251.94944
 20
-117.485273
 30
0.0
 11
-260.926175
 21
-107.299735
 31
0.0
  0
LINE
  5
4A1
100
AcDbEntity
  8
0
370
    -3
  6
Continuous
100
AcDbLine
 10
-287.543074
 20
-94.222764
 30
0.0
 11
-272.117134
 21
-94.222764
 31
0.0
  0
LINE
  5
4A2
100
AcDbEntity
  8
0
370
    -3
  6
Continuous
100
AcDbLine
 10
-272.117134
 20
-80.222764
 30
0.0
 11
-272.117134
 21
-119.222764
 31
0.0
  0
LINE
  5
4A3
100
AcDbEntity
  8
0
370
    -3
  6
Continuous
100
AcDbLine
 10
-269.665948
 20
-80.222764
 30
0.0
 11
-269.665948
 21
-119.222764
 31
0.0
  0
LINE
  5
4A4
100
AcDbEntity
  8
0
370
    -3
  6
Continuous
100
AcDbLine
 10
-261.875333
 20
-80.222764
 30
0.0
 11
-261.875333
 21
-104.787226
 31
0.0
  0
POINT
  5
4A5
100
AcDbEntity
  8
0
370
    -3
  6
CENTER
100
AcDbPoint
 10
-289.543074
 20
-69.745264
 30
0.0
  0
POINT
  5
4A6
100
AcDbEntity
  8
0
370
    -3
  6
CENTER
100
AcDbPoint
 10
-289.543074
 20
-69.745264
 30
0.0
  0
LINE
  5
4A7
100
AcDbEntity
  8
0
370
    -3
  6
Continuous
100
AcDbLine
 10
-287.543074
 20
-66.222764
 30
0.0
 11
-272.117134
 21
-66.222764
 31
0.0
  0
ARC
  5
4A8
100
AcDbEntity
  8
0
370
    -3
  6
Continuous
100
AcDbCircle
 10
-287.543074
 20
-68.222764
 30
0.0
 40
2.0
100
AcDbArc
 50
90.0
 51
180.0
  0
LINE
  5
4A9
100
AcDbEntity
  8
0
370
    -3
  6
Continuous
100
AcDbLine
 10
-289.543074
 20
-68.222764
 30
0.0
 11
-289.543074
 21
-80.222764
 31
0.0
  0
ARC
  5
4AA
100
AcDbEntity
  8
0
370
    -3
  6
Continuous
100
AcDbCircle
 10
-249.098598
 20
-45.472764
 30
0.0
 40
3.8
100
AcDbArc
 50
90.0
 51
138.609573
  0
LINE
  5
4AB
100
AcDbEntity
  8
0
370
    -3
  6
Continuous
100
AcDbLine
 10
-249.098598
 20
-41.672764
 30
0.0
 11
-193.602541
 21
-41.672764
 31
0.0
  0
LINE
  5
4AC
100
AcDbEntity
  8
0
370
    -3
  6
Continuous
100
AcDbLine
 10
-251.94944
 20
-42.960255
 30
0.0
 11
-260.926175
 21
-53.145793
 31
0.0
  0
LINE
  5
4AD
100
AcDbEntity
  8
0
370
    -3
  6
Continuous
100
AcDbLine
 10
-261.497939
 20
-40.722764
 30
0.0
 11
-259.780428
 21
-42.722764
 31
0.0
  0
LINE
  5
4AE
100
AcDbEntity
  8
0
370
    -3
  6
Continuous
100
AcDbLine
 10
-259.780428
 20
-38.722764
 30
0.0
 11
-261.497939
 21
-40.722764
 31
0.0
  0
ARC
  5
4AF
100
AcDbEntity
  8
0
370
    -3
  6
Continuous
100
AcDbCircle
 10
-258.075333
 20
-55.658302
 30
0.0
 40
3.8
100
AcDbArc
 50
138.609573
 51
180.0
  0
ARC
  5
4B0
100
AcDbEntity
  8
0
370
    -3
  6
Continuous
100
AcDbCircle
 10
-264.317134
 20
-41.222764
 30
0.0
 40
7.8
100
AcDbArc
 50
90.0
 51
180.0
  0
ARC
  5
4B1
100
AcDbEntity
  8
0
370
    -3
  6
Continuous
100
AcDbCircle
 10
-261.865948
 20
-41.222764
 30
0.0
 40
7.8
100
AcDbArc
 50
90.0
 51
180.0
  0
ELLIPSE
  5
4B2
100
AcDbEntity
  8
0
370
    -3
  6
Continuous
100
AcDbEllipse
 10
-262.32897
 20
-40.722764
 30
0.0
 11
0.0
 21
3.5
 31
0.0
210
0.0
220
0.0
230
1.0
 40
0.982815
 41
0.0
 42
6.2831853071795862
  0
LINE
  5
4B3
100
AcDbEntity
  8
0
370
    -3
  6
Continuous
100
AcDbLine
 10
-263.405659
 20
-38.722764
 30
0.0
 11
-261.497939
 21
-40.722764
 31
0.0
  0
LINE
  5
4B4
100
AcDbEntity
  8
0
370
    -3
  6
Continuous
100
AcDbLine
 10
-261.497939
 20
-40.722764
 30
0.0
 11
-263.405659
 21
-42.722764
 31
0.0
  0
LINE
  5
4B5
100
AcDbEntity
  8
0
370
    -3
  6
Continuous
100
AcDbLine
 10
-261.875333
 20
-80.222764
 30
0.0
 11
-261.875333
 21
-55.658302
 31
0.0
  0
LINE
  5
4B6
100
AcDbEntity
  8
0
370
    -3
  6
Continuous
100
AcDbLine
 10
-272.117134
 20
-80.222764
 30
0.0
 11
-272.117134
 21
-41.222764
 31
0.0
  0
LINE
  5
4B7
100
AcDbEntity
  8
0
370
    -3
  6
Continuous
100
AcDbLine
 10
-269.665948
 20
-80.222764
 30
0.0
 11
-269.665948
 21
-41.222764
 31
0.0
  0
LINE
  5
4B8
100
AcDbEntity
  8
0
370
    -3
  6
Continuous
100
AcDbLine
 10
67.810548
 20
-48.472764
 30
0.0
 11
67.810548
 21
-111.972764
 31
0.0
  0
ARC
  5
4B9
100
AcDbEntity
  8
0
370
    -3
  6
Continuous
100
AcDbCircle
 10
74.610548
 20
-48.472764
 30
0.0
 40
6.8
100
AcDbArc
 50
90.0
 51
180.0
  0
LINE
  5
4BA
100
AcDbEntity
  8
0
370
    -3
  6
Continuous
100
AcDbLine
 10
73.756926
 20
-33.422764
 30
0.0
 11
84.428074
 21
-33.422764
 31
0.0
  0
LINE
  5
4BB
100
AcDbEntity
  8
0
370
    -3
  6
Continuous
100
AcDbLine
 10
84.428074
 20
-41.672764
 30
0.0
 11
74.610548
 21
-41.672764
 31
0.0
  0
LINE
  5
4BC
100
AcDbEntity
  8
0
370
    -3
  6
Continuous
100
AcDbLine
 10
65.795054
 20
-42.312781
 30
0.0
 11
66.304881
 21
-40.722764
 31
0.0
  0
LINE
  5
4BD
100
AcDbEntity
  8
0
370
    -3
  6
Continuous
100
AcDbLine
 10
66.304881
 20
-40.722764
 30
0.0
 11
67.354069
 21
-42.722764
 31
0.0
  0
LINE
  5
4BE
100
AcDbEntity
  8
0
370
    -3
  6
Continuous
100
AcDbLine
 10
66.304881
 20
-40.722764
 30
0.0
 11
67.354069
 21
-38.722764
 31
0.0
  0
LINE
  5
4BF
100
AcDbEntity
  8
0
370
    -3
  6
Continuous
100
AcDbLine
 10
65.795054
 20
-39.132747
 30
0.0
 11
66.304881
 21
-40.722764
 31
0.0
  0
ELLIPSE
  5
4C0
100
AcDbEntity
  8
0
370
    -3
  6
Continuous
100
AcDbEllipse
 10
67.842335
 20
-40.722764
 30
0.0
 11
0.0
 21
3.5
 31
0.0
210
0.0
220
0.0
230
1.0
 40
0.656603
 41
0.0
 42
6.2831853071795862
  0
ARC
  5
4C1
100
AcDbEntity
  8
0
370
    -3
  6
Continuous
100
AcDbCircle
 10
73.756926
 20
-41.222764
 30
0.0
 40
7.8
100
AcDbArc
 50
90.0
 51
151.87484
  0
LINE
  5
4C2
100
AcDbEntity
  8
0
370
    -3
  6
Continuous
100
AcDbLine
 10
65.956926
 20
-42.723945
 30
0.0
 11
65.956926
 21
-117.721583
 31
0.0
  0
LINE
  5
4C3
100
AcDbEntity
  8
0
370
    -3
  6
CENTER
100
AcDbLine
 10
91.428074
 20
-61.577832
 30
0.0
 11
91.428074
 21
-101.523221
 31
0.0
  0
ARC
  5
4C4
100
AcDbEntity
  8
0
370
    -3
  6
Continuous
100
AcDbCircle
 10
74.610548
 20
-111.972764
 30
0.0
 40
6.8
100
AcDbArc
 50
180.0
 51
270.0
  0
LINE
  5
4C5
100
AcDbEntity
  8
0
370
    -3
  6
Continuous
100
AcDbLine
 10
84.428074
 20
-118.772764
 30
0.0
 11
74.610548
 21
-118.772764
 31
0.0
  0
LINE
  5
4C6
100
AcDbEntity
  8
0
370
    -3
  6
Continuous
100
AcDbLine
 10
65.795054
 20
-118.132747
 30
0.0
 11
66.304881
 21
-119.722764
 31
0.0
  0
LINE
  5
4C7
100
AcDbEntity
  8
0
370
    -3
  6
Continuous
100
AcDbLine
 10
66.304881
 20
-119.722764
 30
0.0
 11
67.354069
 21
-117.722764
 31
0.0
  0
LINE
  5
4C8
100
AcDbEntity
  8
0
370
    -3
  6
Continuous
100
AcDbLine
 10
66.304881
 20
-119.722764
 30
0.0
 11
67.354069
 21
-121.722764
 31
0.0
  0
LINE
  5
4C9
100
AcDbEntity
  8
0
370
    -3
  6
Continuous
100
AcDbLine
 10
65.795054
 20
-121.312781
 30
0.0
 11
66.304881
 21
-119.722764
 31
0.0
  0
ELLIPSE
  5
4CA
100
AcDbEntity
  8
0
370
    -3
  6
Continuous
100
AcDbEllipse
 10
67.842335
 20
-119.722764
 30
0.0
 11
0.0
 21
3.5
 31
0.0
210
0.0
220
0.0
230
1.0
 40
0.656603
 41
0.0
 42
6.2831853071795862
  0
ARC
  5
4CB
100
AcDbEntity
  8
0
370
    -3
  6
Continuous
100
AcDbCircle
 10
73.756926
 20
-119.222764
 30
0.0
 40
7.8
100
AcDbArc
 50
208.12516
 51
270.0
  0
LINE
  5
4CC
100
AcDbEntity
  8
0
370
    -3
  6
Continuous
100
AcDbLine
 10
73.756926
 20
-127.022764
 30
0.0
 11
84.428074
 21
-127.022764
 31
0.0
  0
CIRCLE
  5
4CD
100
AcDbEntity
  8
0
370
    -3
  6
DASHED
100
AcDbCircle
 10
91.428074
 20
-80.222764
 30
0.0
 40
14.0
  0
LINE
  5
4CE
100
AcDbEntity
  8
0
370
    -3
  6
CENTER
100
AcDbLine
 10
72.783142
 20
-80.222764
 30
0.0
 11
112.728531
 21
-80.222764
 31
0.0
  0
LINE
  5
4CF
100
AcDbEntity
  8
0
370
    -3
  6
Continuous
100
AcDbLine
 10
-401.576239
 20
-106.758482
 30
0.0
 11
-398.452205
 21
-107.148987
 31
0.0
  0
LINE
  5
4D0
100
AcDbEntity
  8
0
370
    -3
  6
Continuous
100
AcDbLine
 10
-380.504109
 20
-125.722764
 30
0.0
 11
-348.94761
 21
-125.722764
 31
0.0
  0
LINE
  5
4D1
100
AcDbEntity
  8
0
370
    -3
  6
Continuous
100
AcDbLine
 10
-347.343074
 20
-127.022764
 30
0.0
 11
-381.458699
 21
-127.022764
 31
0.0
  0
LINE
  5
4D2
100
AcDbEntity
  8
0
370
    -3
  6
Continuous
100
AcDbLine
 10
-351.545687
 20
-126.222764
 30
0.0
 11
-381.920604
 21
-126.222764
 31
0.0
  0
ARC
  5
4D3
100
AcDbEntity
  8
0
370
    -3
  6
Continuous
100
AcDbCircle
 10
-380.504109
 20
-119.722764
 30
0.0
 40
6.0
100
AcDbArc
 50
180.0
 51
270.0
  0
ARC
  5
4D4
100
AcDbEntity
  8
0
370
    -3
  6
Continuous
100
AcDbCircle
 10
-381.920604
 20
-119.222764
 30
0.0
 40
7.0
100
AcDbArc
 50
180.0
 51
270.0
  0
ARC
  5
4D5
100
AcDbEntity
  8
0
370
    -3
  6
Continuous
100
AcDbCircle
 10
-347.343074
 20
-119.222764
 30
0.0
 40
7.8
100
AcDbArc
 50
270.0
 51
0.0
  0
ARC
  5
4D6
100
AcDbEntity
  8
0
370
    -3
  6
Continuous
100
AcDbCircle
 10
-352.007592
 20
-119.222764
 30
0.0
 40
7.8
100
AcDbArc
 50
270.0
 51
0.0
  0
ARC
  5
4D7
100
AcDbEntity
  8
0
370
    -3
  6
Continuous
100
AcDbCircle
 10
-351.545687
 20
-119.222764
 30
0.0
 40
7.0
100
AcDbArc
 50
270.0
 51
0.0
  0
ARC
  5
4D8
100
AcDbEntity
  8
0
370
    -3
  6
Continuous
100
AcDbCircle
 10
-381.458699
 20
-119.222764
 30
0.0
 40
7.8
100
AcDbArc
 50
180.0
 51
270.0
  0
LINE
  5
4D9
100
AcDbEntity
  8
0
370
    -3
  6
Continuous
100
AcDbLine
 10
-392.014222
 20
-49.222764
 30
0.0
 11
-392.014222
 21
-111.222764
 31
0.0
  0
LINE
  5
4DA
100
AcDbEntity
  8
0
370
    -3
  6
Continuous
100
AcDbLine
 10
-383.214222
 20
-53.391393
 30
0.0
 11
-345.857626
 21
-53.391393
 31
0.0
  0
ARC
  5
4DB
100
AcDbEntity
  8
0
370
    -3
  6
Continuous
100
AcDbCircle
 10
-383.214222
 20
-60.191393
 30
0.0
 40
6.8
100
AcDbArc
 50
90.0
 51
180.0
  0
ARC
  5
4DC
100
AcDbEntity
  8
0
370
    -3
  6
Continuous
100
AcDbCircle
 10
-383.214222
 20
-100.254135
 30
0.0
 40
6.8
100
AcDbArc
 50
180.0
 51
270.0
  0
LINE
  5
4DD
100
AcDbEntity
  8
0
370
    -3
  6
Continuous
100
AcDbLine
 10
-383.214222
 20
-107.054135
 30
0.0
 11
-345.857626
 21
-107.054135
 31
0.0
  0
ARC
  5
4DE
100
AcDbEntity
  8
0
370
    -3
  6
Continuous
100
AcDbCircle
 10
-365.014222
 20
-80.222764
 30
0.0
 40
10.4775
100
AcDbArc
 50
0.0
 51
180.0
  0
ARC
  5
4DF
100
AcDbEntity
  8
0
370
    -3
  6
Continuous
100
AcDbCircle
 10
-365.014222
 20
-80.222764
 30
0.0
 40
9.3155
100
AcDbArc
 50
0.0
 51
180.0
  0
ARC
  5
4E0
100
AcDbEntity
  8
0
370
    -3
  6
Continuous
100
AcDbCircle
 10
-365.014222
 20
-80.222764
 30
0.0
 40
14.0
100
AcDbArc
 50
0.0
 51
180.0
  0
LINE
  5
4E1
100
AcDbEntity
  8
0
370
    -3
  6
Continuous
100
AcDbLine
 10
-344.207592
 20
-80.222764
 30
0.0
 11
-344.207592
 21
-41.222764
 31
0.0
  0
LINE
  5
4E2
100
AcDbEntity
  8
0
370
    -3
  6
Continuous
100
AcDbLine
 10
-380.504109
 20
-34.722764
 30
0.0
 11
-348.94761
 21
-34.722764
 31
0.0
  0
LINE
  5
4E3
100
AcDbEntity
  8
0
370
    -3
  6
Continuous
100
AcDbLine
 10
-389.258699
 20
-41.222764
 30
0.0
 11
-389.258699
 21
-44.607591
 31
0.0
  0
LINE
  5
4E4
100
AcDbEntity
  8
0
370
    -3
  6
Continuous
100
AcDbLine
 10
-388.920604
 20
-44.024494
 30
0.0
 11
-388.920604
 21
-41.222764
 31
0.0
  0
ARC
  5
4E5
100
AcDbEntity
  8
0
370
    -3
  6
Continuous
100
AcDbCircle
 10
-390.014222
 20
-52.222764
 30
0.0
 40
1.0
100
AcDbArc
 50
103.342364
 51
180.0
  0
ARC
  5
4E6
100
AcDbEntity
  8
0
370
    -3
  6
Continuous
100
AcDbCircle
 10
-390.314222
 20
-50.957853
 30
0.0
 40
0.3
100
AcDbArc
 50
283.342364
 51
0.0
  0
ARC
  5
4E7
100
AcDbEntity
  8
0
370
    -3
  6
Continuous
100
AcDbCircle
 10
-380.504109
 20
-40.722764
 30
0.0
 40
6.0
100
AcDbArc
 50
90.0
 51
180.0
  0
LINE
  5
4E8
100
AcDbEntity
  8
0
370
    -3
  6
Continuous
100
AcDbLine
 10
-386.504109
 20
-41.771575
 30
0.0
 11
-386.504109
 21
-40.722764
 31
0.0
  0
ARC
  5
4E9
100
AcDbEntity
  8
0
370
    -3
  6
Continuous
100
AcDbCircle
 10
-383.214222
 20
-47.722764
 30
0.0
 40
6.8
100
AcDbArc
 50
90.0
 51
180.0
  0
LINE
  5
4EA
100
AcDbEntity
  8
0
370
    -3
  6
Continuous
100
AcDbLine
 10
-390.014222
 20
-80.222764
 30
0.0
 11
-390.014222
 21
-47.722764
 31
0.0
  0
ARC
  5
4EB
100
AcDbEntity
  8
0
370
    -3
  6
Continuous
100
AcDbCircle
 10
-353.581364
 20
-44.722764
 30
0.0
 40
3.8
100
AcDbArc
 50
22.977375
 51
90.0
  0
ARC
  5
4EC
100
AcDbEntity
  8
0
370
    -3
  6
Continuous
100
AcDbCircle
 10
-349.57831
 20
-54.163731
 30
0.0
 40
3.8
100
AcDbArc
 50
360.0
 51
22.977375
  0
LINE
  5
4ED
100
AcDbEntity
  8
0
370
    -3
  6
Continuous
100
AcDbLine
 10
-346.079806
 20
-52.680334
 30
0.0
 11
-350.082859
 21
-43.239367
 31
0.0
  0
LINE
  5
4EE
100
AcDbEntity
  8
0
370
    -3
  6
Continuous
100
AcDbLine
 10
-383.214222
 20
-40.922764
 30
0.0
 11
-353.581364
 21
-40.922764
 31
0.0
  0
LINE
  5
4EF
100
AcDbEntity
  8
0
370
    -3
  6
Continuous
100
AcDbLine
 10
-345.77831
 20
-80.222764
 30
0.0
 11
-345.77831
 21
-54.163731
 31
0.0
  0
LINE
  5
4F0
100
AcDbEntity
  8
0
370
    -3
  6
Continuous
100
AcDbLine
 10
-391.014222
 20
-80.222764
 30
0.0
 11
-391.014222
 21
-52.222764
 31
0.0
  0
ARC
  5
4F1
100
AcDbEntity
  8
0
370
    -3
  6
Continuous
100
AcDbCircle
 10
-381.920604
 20
-41.222764
 30
0.0
 40
7.0
100
AcDbArc
 50
90.0
 51
180.0
  0
LINE
  5
4F2
100
AcDbEntity
  8
0
370
    -3
  6
Continuous
100
AcDbLine
 10
-392.014222
 20
-49.222764
 30
0.0
 11
-391.014222
 21
-49.222764
 31
0.0
  0
LINE
  5
4F3
100
AcDbEntity
  8
0
370
    -3
  6
Continuous
100
AcDbLine
 10
-391.014222
 20
-49.222764
 30
0.0
 11
-391.014222
 21
-80.222764
 31
0.0
  0
LINE
  5
4F4
100
AcDbEntity
  8
0
370
    -3
  6
Continuous
100
AcDbLine
 10
-392.014222
 20
-80.222764
 30
0.0
 11
-392.014222
 21
-49.222764
 31
0.0
  0
LINE
  5
4F5
100
AcDbEntity
  8
0
370
    -3
  6
Continuous
100
AcDbLine
 10
-339.543074
 20
-41.222764
 30
0.0
 11
-339.543074
 21
-80.222764
 31
0.0
  0
LINE
  5
4F6
100
AcDbEntity
  8
0
370
    -3
  6
Continuous
100
AcDbLine
 10
-344.545687
 20
-80.222764
 30
0.0
 11
-344.545687
 21
-41.222764
 31
0.0
  0
LINE
  5
4F7
100
AcDbEntity
  8
0
370
    -3
  6
Continuous
100
AcDbLine
 10
-347.343074
 20
-33.422764
 30
0.0
 11
-381.458699
 21
-33.422764
 31
0.0
  0
ELLIPSE
  5
4F8
100
AcDbEntity
  8
0
370
    -3
  6
Continuous
100
AcDbEllipse
 10
-341.428482
 20
-40.722764
 30
0.0
 11
0.0
 21
3.5
 31
0.0
210
0.0
220
0.0
230
1.0
 40
0.656603
 41
4.1037320181003913
 42
5.8501343317260348
  0
ARC
  5
4F9
100
AcDbEntity
  8
0
370
    -3
  6
Continuous
100
AcDbCircle
 10
-347.343074
 20
-41.222764
 30
0.0
 40
7.8
100
AcDbArc
 50
0.0
 51
90.0
  0
ARC
  5
4FA
100
AcDbEntity
  8
0
370
    -3
  6
Continuous
100
AcDbCircle
 10
-352.007592
 20
-41.222764
 30
0.0
 40
7.8
100
AcDbArc
 50
0.0
 51
90.0
  0
ARC
  5
4FB
100
AcDbEntity
  8
0
370
    -3
  6
Continuous
100
AcDbCircle
 10
-351.545687
 20
-41.222764
 30
0.0
 40
7.0
100
AcDbArc
 50
0.0
 51
90.0
  0
LINE
  5
4FC
100
AcDbEntity
  8
0
370
    -3
  6
Continuous
100
AcDbLine
 10
-351.545687
 20
-34.222764
 30
0.0
 11
-381.920604
 21
-34.222764
 31
0.0
  0
ARC
  5
4FD
100
AcDbEntity
  8
0
370
    -3
  6
Continuous
100
AcDbCircle
 10
-381.458699
 20
-41.222764
 30
0.0
 40
7.8
100
AcDbArc
 50
90.0
 51
180.0
  0
LINE
  5
4FE
100
AcDbEntity
  8
0
370
    -3
  6
CENTER
100
AcDbLine
 10
-365.014222
 20
-61.577832
 30
0.0
 11
-365.014222
 21
-101.523221
 31
0.0
  0
LINE
  5
4FF
100
AcDbEntity
  8
0
370
    -3
  6
Continuous
100
AcDbLine
 10
-344.207592
 20
-80.222764
 30
0.0
 11
-344.207592
 21
-119.222764
 31
0.0
  0
LINE
  5
500
100
AcDbEntity
  8
0
370
    -3
  6
Continuous
100
AcDbLine
 10
-389.258699
 20
-119.222764
 30
0.0
 11
-389.258699
 21
-115.837937
 31
0.0
  0
LINE
  5
501
100
AcDbEntity
  8
0
370
    -3
  6
Continuous
100
AcDbLine
 10
-388.920604
 20
-116.421034
 30
0.0
 11
-388.920604
 21
-119.222764
 31
0.0
  0
ARC
  5
502
100
AcDbEntity
  8
0
370
    -3
  6
Continuous
100
AcDbCircle
 10
-390.014222
 20
-108.222764
 30
0.0
 40
1.0
100
AcDbArc
 50
180.0
 51
256.657636
  0
ARC
  5
503
100
AcDbEntity
  8
0
370
    -3
  6
Continuous
100
AcDbCircle
 10
-390.314222
 20
-109.487675
 30
0.0
 40
0.3
100
AcDbArc
 50
0.0
 51
76.657636
  0
LINE
  5
504
100
AcDbEntity
  8
0
370
    -3
  6
Continuous
100
AcDbLine
 10
-386.504109
 20
-118.673953
 30
0.0
 11
-386.504109
 21
-119.722764
 31
0.0
  0
ARC
  5
505
100
AcDbEntity
  8
0
370
    -3
  6
Continuous
100
AcDbCircle
 10
-383.214222
 20
-112.722764
 30
0.0
 40
6.8
100
AcDbArc
 50
180.0
 51
270.0
  0
LINE
  5
506
100
AcDbEntity
  8
0
370
    -3
  6
Continuous
100
AcDbLine
 10
-390.014222
 20
-80.222764
 30
0.0
 11
-390.014222
 21
-112.722764
 31
0.0
  0
ARC
  5
507
100
AcDbEntity
  8
0
370
    -3
  6
Continuous
100
AcDbCircle
 10
-353.581364
 20
-115.722764
 30
0.0
 40
3.8
100
AcDbArc
 50
270.0
 51
337.022625
  0
ARC
  5
508
100
AcDbEntity
  8
0
370
    -3
  6
Continuous
100
AcDbCircle
 10
-349.57831
 20
-106.281797
 30
0.0
 40
3.8
100
AcDbArc
 50
337.022625
 51
0.0
  0
LINE
  5
509
100
AcDbEntity
  8
0
370
    -3
  6
Continuous
100
AcDbLine
 10
-346.079806
 20
-107.765194
 30
0.0
 11
-350.082859
 21
-117.206161
 31
0.0
  0
LINE
  5
50A
100
AcDbEntity
  8
0
370
    -3
  6
Continuous
100
AcDbLine
 10
-383.214222
 20
-119.522764
 30
0.0
 11
-353.581364
 21
-119.522764
 31
0.0
  0
LINE
  5
50B
100
AcDbEntity
  8
0
370
    -3
  6
Continuous
100
AcDbLine
 10
-345.77831
 20
-80.222764
 30
0.0
 11
-345.77831
 21
-106.281797
 31
0.0
  0
LINE
  5
50C
100
AcDbEntity
  8
0
370
    -3
  6
Continuous
100
AcDbLine
 10
-391.014222
 20
-80.222764
 30
0.0
 11
-391.014222
 21
-108.222764
 31
0.0
  0
LINE
  5
50D
100
AcDbEntity
  8
0
370
    -3
  6
Continuous
100
AcDbLine
 10
-392.014222
 20
-111.222764
 30
0.0
 11
-391.014222
 21
-111.222764
 31
0.0
  0
LINE
  5
50E
100
AcDbEntity
  8
0
370
    -3
  6
Continuous
100
AcDbLine
 10
-391.014222
 20
-111.222764
 30
0.0
 11
-391.014222
 21
-80.222764
 31
0.0
  0
LINE
  5
50F
100
AcDbEntity
  8
0
370
    -3
  6
Continuous
100
AcDbLine
 10
-392.014222
 20
-80.222764
 30
0.0
 11
-392.014222
 21
-111.222764
 31
0.0
  0
LINE
  5
510
100
AcDbEntity
  8
0
370
    -3
  6
Continuous
100
AcDbLine
 10
-339.543074
 20
-119.222764
 30
0.0
 11
-339.543074
 21
-80.222764
 31
0.0
  0
LINE
  5
511
100
AcDbEntity
  8
0
370
    -3
  6
Continuous
100
AcDbLine
 10
-344.545687
 20
-80.222764
 30
0.0
 11
-344.545687
 21
-119.222764
 31
0.0
  0
ELLIPSE
  5
512
100
AcDbEntity
  8
0
370
    -3
  6
Continuous
100
AcDbEllipse
 10
-341.428482
 20
-119.722764
 30
0.0
 11
0.0
 21
3.5
 31
0.0
210
0.0
220
0.0
230
1.0
 40
0.656603
 41
3.5746436290429577
 42
5.3210459426689347
  0
ARC
  5
513
100
AcDbEntity
  8
0
370
    -3
  6
Continuous
100
AcDbCircle
 10
-365.014222
 20
-80.222764
 30
0.0
 40
10.4775
100
AcDbArc
 50
180.0
 51
360.0
  0
ARC
  5
514
100
AcDbEntity
  8
0
370
    -3
  6
Continuous
100
AcDbCircle
 10
-365.014222
 20
-80.222764
 30
0.0
 40
9.3155
100
AcDbArc
 50
180.0
 51
360.0
  0
ARC
  5
515
100
AcDbEntity
  8
0
370
    -3
  6
Continuous
100
AcDbCircle
 10
-365.014222
 20
-80.222764
 30
0.0
 40
14.0
100
AcDbArc
 50
180.0
 51
360.0
  0
ARC
  5
516
100
AcDbEntity
  8
0
370
    -3
  6
Continuous
100
AcDbCircle
 10
-396.514222
 20
-108.703734
 30
0.0
 40
0.5
100
AcDbArc
 50
0.0
 51
90.0
  0
LINE
  5
517
100
AcDbEntity
  8
0
370
    -3
  6
Continuous
100
AcDbLine
 10
-397.514222
 20
-108.203734
 30
0.0
 11
-396.514222
 21
-108.203734
 31
0.0
  0
ARC
  5
518
100
AcDbEntity
  8
0
370
    -3
  6
Continuous
100
AcDbCircle
 10
-397.514222
 20
-107.703734
 30
0.0
 40
0.5
100
AcDbArc
 50
180.0
 51
270.0
  0
ARC
  5
519
100
AcDbEntity
  8
0
370
    -3
  6
Continuous
100
AcDbCircle
 10
-398.514222
 20
-107.645126
 30
0.0
 40
0.5
100
AcDbArc
 50
0.0
 51
82.874984
  0
LINE
  5
51A
100
AcDbEntity
  8
0
370
    -3
  6
Continuous
100
AcDbLine
 10
-398.014222
 20
-98.73992
 30
0.0
 11
-398.014222
 21
-107.703734
 31
0.0
  0
LINE
  5
51B
100
AcDbEntity
  8
0
370
    -3
  6
Continuous
100
AcDbLine
 10
-399.630371
 20
-98.972764
 30
0.0
 11
-398.014222
 21
-98.972764
 31
0.0
  0
ARC
  5
51C
100
AcDbEntity
  8
0
370
    -3
  6
Continuous
100
AcDbCircle
 10
-398.514222
 20
-98.762343
 30
0.0
 40
0.5
100
AcDbArc
 50
277.125016
 51
0.0
  0
LINE
  5
51D
100
AcDbEntity
  8
0
370
    -3
  6
Continuous
100
AcDbLine
 10
-399.630371
 20
-99.405753
 30
0.0
 11
-398.452205
 21
-99.258482
 31
0.0
  0
ARC
  5
51E
100
AcDbEntity
  8
0
370
    -3
  6
Continuous
100
AcDbCircle
 10
-397.514222
 20
-61.705608
 30
0.0
 40
0.5
100
AcDbArc
 50
92.0
 51
180.0
  0
LINE
  5
51F
100
AcDbEntity
  8
0
370
    -3
  6
Continuous
100
AcDbLine
 10
-397.531672
 20
-61.205913
 30
0.0
 11
-396.496772
 21
-61.169774
 31
0.0
  0
ARC
  5
520
100
AcDbEntity
  8
0
370
    -3
  6
Continuous
100
AcDbCircle
 10
-396.514222
 20
-60.670078
 30
0.0
 40
0.5
100
AcDbArc
 50
272.0
 51
0.0
  0
LINE
  5
521
100
AcDbEntity
  8
0
370
    -3
  6
Continuous
100
AcDbLine
 10
-396.014222
 20
-60.670078
 30
0.0
 11
-396.014222
 21
-47.61802
 31
0.0
  0
LINE
  5
522
100
AcDbEntity
  8
0
370
    -3
  6
Continuous
100
AcDbLine
 10
-396.014222
 20
-47.61802
 30
0.0
 11
-392.988045
 21
-47.697264
 31
0.0
  0
ARC
  5
523
100
AcDbEntity
  8
0
370
    -3
  6
Continuous
100
AcDbCircle
 10
-393.014222
 20
-48.696921
 30
0.0
 40
1.0
100
AcDbArc
 50
0.0
 51
88.5
  0
LINE
  5
524
100
AcDbEntity
  8
0
370
    -3
  6
Continuous
100
AcDbLine
 10
-392.014222
 20
-111.748607
 30
0.0
 11
-392.014222
 21
-48.696921
 31
0.0
  0
ARC
  5
525
100
AcDbEntity
  8
0
370
    -3
  6
Continuous
100
AcDbCircle
 10
-393.014222
 20
-111.748607
 30
0.0
 40
1.0
100
AcDbArc
 50
271.5
 51
0.0
  0
LINE
  5
526
100
AcDbEntity
  8
0
370
    -3
  6
Continuous
100
AcDbLine
 10
-396.014222
 20
-112.827508
 30
0.0
 11
-392.988045
 21
-112.748264
 31
0.0
  0
LINE
  5
527
100
AcDbEntity
  8
0
370
    -3
  6
Continuous
100
AcDbLine
 10
-396.014222
 20
-99.77545
 30
0.0
 11
-396.014222
 21
-112.827508
 31
0.0
  0
ARC
  5
528
100
AcDbEntity
  8
0
370
    -3
  6
Continuous
100
AcDbCircle
 10
-396.514222
 20
-99.77545
 30
0.0
 40
0.5
100
AcDbArc
 50
0.0
 51
88.0
  0
LINE
  5
529
100
AcDbEntity
  8
0
370
    -3
  6
Continuous
100
AcDbLine
 10
-397.531672
 20
-99.239615
 30
0.0
 11
-396.496772
 21
-99.275755
 31
0.0
  0
ARC
  5
52A
100
AcDbEntity
  8
0
370
    -3
  6
Continuous
100
AcDbCircle
 10
-397.514222
 20
-98.73992
 30
0.0
 40
0.5
100
AcDbArc
 50
180.0
 51
268.0
  0
LINE
  5
52B
100
AcDbEntity
  8
0
370
    -3
  6
Continuous
100
AcDbLine
 10
-398.014222
 20
-80.222764
 30
0.0
 11
-398.014222
 21
-98.73992
 31
0.0
  0
LINE
  5
52C
100
AcDbEntity
  8
0
370
    -3
  6
Continuous
100
AcDbLine
 10
-398.014222
 20
-80.222764
 30
0.0
 11
-398.014222
 21
-61.705608
 31
0.0
  0
LINE
  5
52D
100
AcDbEntity
  8
0
370
    -3
  6
Continuous
100
AcDbLine
 10
-398.014222
 20
-61.705608
 30
0.0
 11
-398.014222
 21
-52.741794
 31
0.0
  0
ARC
  5
52E
100
AcDbEntity
  8
0
370
    -3
  6
Continuous
100
AcDbCircle
 10
-396.514222
 20
-51.741794
 30
0.0
 40
0.5
100
AcDbArc
 50
270.0
 51
0.0
  0
LINE
  5
52F
100
AcDbEntity
  8
0
370
    -3
  6
Continuous
100
AcDbLine
 10
-397.514222
 20
-52.241794
 30
0.0
 11
-396.514222
 21
-52.241794
 31
0.0
  0
ARC
  5
530
100
AcDbEntity
  8
0
370
    -3
  6
Continuous
100
AcDbCircle
 10
-397.514222
 20
-52.741794
 30
0.0
 40
0.5
100
AcDbArc
 50
90.0
 51
180.0
  0
ARC
  5
531
100
AcDbEntity
  8
0
370
    -3
  6
Continuous
100
AcDbCircle
 10
-398.514222
 20
-52.800403
 30
0.0
 40
0.5
100
AcDbArc
 50
277.125016
 51
0.0
  0
LINE
  5
532
100
AcDbEntity
  8
0
370
    -3
  6
Continuous
100
AcDbLine
 10
-401.576239
 20
-53.687046
 30
0.0
 11
-398.452205
 21
-53.296541
 31
0.0
  0
ARC
  5
533
100
AcDbEntity
  8
0
370
    -3
  6
Continuous
100
AcDbCircle
 10
-398.514222
 20
-61.683185
 30
0.0
 40
0.5
100
AcDbArc
 50
0.0
 51
82.874984
  0
LINE
  5
534
100
AcDbEntity
  8
0
370
    -3
  6
Continuous
100
AcDbLine
 10
-399.630371
 20
-61.039775
 30
0.0
 11
-398.452205
 21
-61.187046
 31
0.0
  0
LINE
  5
535
100
AcDbEntity
  8
0
370
    -3
  6
Continuous
100
AcDbLine
 10
-399.630371
 20
-61.472764
 30
0.0
 11
-398.014222
 21
-61.472764
 31
0.0
  0
LINE
  5
536
100
AcDbEntity
  8
0
370
    -3
  6
Continuous
100
AcDbLine
 10
-402.014222
 20
-54.183185
 30
0.0
 11
-402.014222
 21
-60.222764
 31
0.0
  0
ARC
  5
537
100
AcDbEntity
  8
0
370
    -3
  6
Continuous
100
AcDbCircle
 10
-401.514222
 20
-54.183185
 30
0.0
 40
0.5
100
AcDbArc
 50
97.125016
 51
180.0
  0
LINE
  5
538
100
AcDbEntity
  8
0
370
    -3
  6
Continuous
100
AcDbLine
 10
-402.014222
 20
-106.262343
 30
0.0
 11
-402.014222
 21
-100.222764
 31
0.0
  0
ARC
  5
539
100
AcDbEntity
  8
0
370
    -3
  6
Continuous
100
AcDbCircle
 10
-401.514222
 20
-106.262343
 30
0.0
 40
0.5
100
AcDbArc
 50
180.0
 51
262.874984
  0
LINE
  5
53A
100
AcDbEntity
  8
0
370
    -3
  6
Continuous
100
AcDbLine
 10
-190.562095
 20
177.091209
 30
0.0
 11
-190.562095
 21
176.091209
 31
0.0
  0
ARC
  5
53B
100
AcDbEntity
  8
0
370
    -3
  6
Continuous
100
AcDbCircle
 10
-190.062095
 20
176.091209
 30
0.0
 40
0.5
100
AcDbArc
 50
180.0
 51
270.0
  0
LINE
  5
53C
100
AcDbEntity
  8
0
370
    -3
  6
Continuous
100
AcDbLine
 10
-181.793065
 20
179.096621
 30
0.0
 11
-181.793065
 21
177.591209
 31
0.0
  0
ARC
  5
53D
100
AcDbEntity
  8
0
370
    -3
  6
Continuous
100
AcDbCircle
 10
-191.120703
 20
178.091209
 30
0.0
 40
0.5
100
AcDbArc
 50
187.125016
 51
270.0
  0
ARC
  5
53E
100
AcDbEntity
  8
0
370
    -3
  6
Continuous
100
AcDbCircle
 10
-191.062095
 20
177.091209
 30
0.0
 40
0.5
100
AcDbArc
 50
0.0
 51
90.0
  0
LINE
  5
53F
100
AcDbEntity
  8
0
370
    -3
  6
Continuous
100
AcDbLine
 10
-200.025909
 20
177.591209
 30
0.0
 11
-191.062095
 21
177.591209
 31
0.0
  0
LINE
  5
540
100
AcDbEntity
  8
0
370
    -3
  6
Continuous
100
AcDbLine
 10
-198.990379
 20
175.591209
 30
0.0
 11
-185.938321
 21
175.591209
 31
0.0
  0
LINE
  5
541
100
AcDbEntity
  8
0
370
    -3
  6
Continuous
100
AcDbLine
 10
-198.990379
 20
175.591209
 30
0.0
 11
-238.095751
 21
175.591209
 31
0.0
  0
LINE
  5
542
100
AcDbEntity
  8
0
370
    -3
  6
Continuous
100
AcDbLine
 10
-238.095751
 20
175.591209
 30
0.0
 11
-251.147809
 21
175.591209
 31
0.0
  0
LINE
  5
543
100
AcDbEntity
  8
0
370
    -3
  6
Continuous
100
AcDbLine
 10
-251.147809
 20
175.591209
 30
0.0
 11
-251.068565
 21
172.565032
 31
0.0
  0
ARC
  5
544
100
AcDbEntity
  8
0
370
    -3
  6
Continuous
100
AcDbCircle
 10
-250.068908
 20
172.591209
 30
0.0
 40
1.0
100
AcDbArc
 50
181.5
 51
270.0
  0
LINE
  5
545
100
AcDbEntity
  8
0
370
    -3
  6
Continuous
100
AcDbLine
 10
-250.068908
 20
171.591209
 30
0.0
 11
-187.017222
 21
171.591209
 31
0.0
  0
ARC
  5
546
100
AcDbEntity
  8
0
370
    -3
  6
Continuous
100
AcDbCircle
 10
-187.017222
 20
172.591209
 30
0.0
 40
1.0
100
AcDbArc
 50
270.0
 51
358.5
  0
LINE
  5
547
100
AcDbEntity
  8
0
370
    -3
  6
Continuous
100
AcDbLine
 10
-185.938321
 20
175.591209
 30
0.0
 11
-186.017565
 21
172.565032
 31
0.0
  0
ARC
  5
548
100
AcDbEntity
  8
0
370
    -3
  6
Continuous
100
AcDbCircle
 10
-200.003486
 20
178.091209
 30
0.0
 40
0.5
100
AcDbArc
 50
270.0
 51
352.874984
  0
ARC
  5
549
100
AcDbEntity
  8
0
370
    -3
  6
Continuous
100
AcDbCircle
 10
-201.062095
 20
176.091209
 30
0.0
 40
0.5
100
AcDbArc
 50
270.0
 51
0.0
  0
LINE
  5
54A
100
AcDbEntity
  8
0
370
    -3
  6
Continuous
100
AcDbLine
 10
-200.562095
 20
177.091209
 30
0.0
 11
-200.562095
 21
176.091209
 31
0.0
  0
ARC
  5
54B
100
AcDbEntity
  8
0
370
    -3
  6
Continuous
100
AcDbCircle
 10
-200.062095
 20
177.091209
 30
0.0
 40
0.5
100
AcDbArc
 50
90.0
 51
180.0
  0
LINE
  5
54C
100
AcDbEntity
  8
0
370
    -3
  6
Continuous
100
AcDbLine
 10
-250.293074
 20
177.591209
 30
0.0
 11
-181.793065
 21
177.591209
 31
0.0
  0
ARC
  5
54D
100
AcDbEntity
  8
0
370
    -3
  6
Continuous
100
AcDbCircle
 10
-237.082644
 20
178.091209
 30
0.0
 40
0.5
100
AcDbArc
 50
187.125016
 51
270.0
  0
LINE
  5
54E
100
AcDbEntity
  8
0
370
    -3
  6
Continuous
100
AcDbLine
 10
-245.336535
 20
179.091209
 30
0.0
 11
-245.469288
 21
178.029191
 31
0.0
  0
ARC
  5
54F
100
AcDbEntity
  8
0
370
    -3
  6
Continuous
100
AcDbCircle
 10
-245.965426
 20
178.091209
 30
0.0
 40
0.5
100
AcDbArc
 50
270.0
 51
352.874984
  0
ARC
  5
550
100
AcDbEntity
  8
0
370
    -3
  6
Continuous
100
AcDbCircle
 10
-237.024035
 20
177.091209
 30
0.0
 40
0.5
100
AcDbArc
 50
0.0
 51
90.0
  0
ARC
  5
551
100
AcDbEntity
  8
0
370
    -3
  6
Continuous
100
AcDbCircle
 10
-246.024035
 20
177.091209
 30
0.0
 40
0.5
100
AcDbArc
 50
90.0
 51
180.0
  0
LINE
  5
552
100
AcDbEntity
  8
0
370
    -3
  6
Continuous
100
AcDbLine
 10
-237.024035
 20
177.591209
 30
0.0
 11
-245.717718
 21
177.591209
 31
0.0
  0
ARC
  5
553
100
AcDbEntity
  8
0
370
    -3
  6
Continuous
100
AcDbCircle
 10
-247.024035
 20
176.091209
 30
0.0
 40
0.5
100
AcDbArc
 50
270.0
 51
0.0
  0
LINE
  5
554
100
AcDbEntity
  8
0
370
    -3
  6
Continuous
100
AcDbLine
 10
-246.524035
 20
177.091209
 30
0.0
 11
-246.524035
 21
176.091209
 31
0.0
  0
LINE
  5
555
100
AcDbEntity
  8
0
370
    -3
  6
Continuous
100
AcDbLine
 10
-236.524035
 20
177.091209
 30
0.0
 11
-236.524035
 21
176.091209
 31
0.0
  0
ARC
  5
556
100
AcDbEntity
  8
0
370
    -3
  6
Continuous
100
AcDbCircle
 10
-236.024035
 20
176.091209
 30
0.0
 40
0.5
100
AcDbArc
 50
180.0
 51
270.0
  0
LINE
  5
557
100
AcDbEntity
  8
0
370
    -3
  6
Continuous
100
AcDbLine
 10
-250.293074
 20
177.591209
 30
0.0
 11
-250.293074
 21
179.091209
 31
0.0
  0
LINE
  5
558
100
AcDbEntity
  8
0
370
    -3
  6
Continuous
100
AcDbLine
 10
-237.060221
 20
177.591209
 30
0.0
 11
-245.717718
 21
177.591209
 31
0.0
  0
ARC
  5
559
100
AcDbEntity
  8
0
370
    -3
  6
Continuous
100
AcDbCircle
 10
-475.368705
 20
220.276606
 30
0.0
 40
300.8
100
AcDbArc
 50
342.341575
 51
347.89975
  0
ARC
  5
55A
100
AcDbEntity
  8
0
370
    -3
  6
Continuous
100
AcDbCircle
 10
-199.03297
 20
132.307511
 30
0.0
 40
10.8
100
AcDbArc
 50
272.437505
 51
342.341575
  0
LINE
  5
55B
100
AcDbEntity
  8
0
370
    -3
  6
Continuous
100
AcDbLine
 10
-175.504715
 20
168.835685
 30
0.0
 11
-263.95378
 21
127.591209
 31
0.0
  0
LINE
  5
55C
100
AcDbEntity
  8
0
370
    -3
  6
Continuous
100
AcDbLine
 10
-174.684883
 20
162.818387
 30
0.0
 11
-268.034585
 21
119.288706
 31
0.0
  0
LINE
  5
55D
100
AcDbEntity
  8
0
370
    -3
  6
Continuous
100
AcDbLine
 10
-182.755177
 20
165.454739
 30
0.0
 11
-183.660942
 21
167.397158
 31
0.0
  0
LINE
  5
55E
100
AcDbEntity
  8
0
370
    -3
  6
Continuous
100
AcDbLine
 10
-194.355917
 20
160.045226
 30
0.0
 11
-197.784179
 21
167.397158
 31
0.0
  0
ARC
  5
55F
100
AcDbEntity
  8
0
370
    -3
  6
Continuous
100
AcDbCircle
 10
-201.228149
 20
165.791209
 30
0.0
 40
3.8
100
AcDbArc
 50
25.0
 51
90.0
  0
ARC
  5
560
100
AcDbEntity
  8
0
370
    -3
  6
Continuous
100
AcDbCircle
 10
-188.143248
 20
140.869194
 30
0.0
 40
2.8
100
AcDbArc
 50
344.545811
 51
25.0
  0
LINE
  5
561
100
AcDbEntity
  8
0
370
    -3
  6
Continuous
100
AcDbLine
 10
-185.605586
 20
142.052525
 30
0.0
 11
-190.341013
 21
152.20768
 31
0.0
  0
ARC
  5
562
100
AcDbEntity
  8
0
370
    -3
  6
Continuous
100
AcDbCircle
 10
-187.62209
 20
153.475535
 30
0.0
 40
3.0
100
AcDbArc
 50
115.0
 51
205.0
  0
ARC
  5
563
100
AcDbEntity
  8
0
370
    -3
  6
Continuous
100
AcDbCircle
 10
-181.702853
 20
158.465619
 30
0.0
 40
1.299999
100
AcDbArc
 50
204.999999
 51
278.398469
  0
LINE
  5
564
100
AcDbEntity
  8
0
370
    -3
  6
Continuous
100
AcDbLine
 10
-183.294807
 20
158.803514
 30
0.0
 11
-182.881053
 21
157.916216
 31
0.0
  0
ARC
  5
565
100
AcDbEntity
  8
0
370
    -3
  6
Continuous
100
AcDbCircle
 10
-182.827486
 20
166.083047
 30
0.0
 40
9.0
100
AcDbArc
 50
278.398469
 51
311.601548
  0
ARC
  5
566
100
AcDbEntity
  8
0
370
    -3
  6
Continuous
100
AcDbCircle
 10
-177.715098
 20
160.32514
 30
0.0
 40
1.299999
100
AcDbArc
 50
311.601548
 51
25.000018
  0
LINE
  5
567
100
AcDbEntity
  8
0
370
    -3
  6
CENTER
100
AcDbLine
 10
-181.380404
 20
162.979769
 30
0.0
 11
-178.510483
 21
156.825204
 31
0.0
  0
LINE
  5
568
100
AcDbEntity
  8
0
370
    -3
  6
Continuous
100
AcDbLine
 10
-176.950652
 20
161.761842
 30
0.0
 11
-176.536898
 21
160.874543
 31
0.0
  0
POINT
  5
569
100
AcDbEntity
  8
0
370
    -3
  6
Continuous
100
AcDbPoint
 10
-180.14644
 20
160.271622
 30
0.0
  0
LINE
  5
56A
100
AcDbEntity
  8
0
370
    -3
  6
CENTER
100
AcDbLine
 10
-181.380404
 20
162.979769
 30
0.0
 11
-178.510483
 21
156.825204
 31
0.0
  0
ARC
  5
56B
100
AcDbEntity
  8
0
370
    -3
  6
Continuous
100
AcDbCircle
 10
-175.445596
 20
164.449741
 30
0.0
 40
1.8
100
AcDbArc
 50
295.0
 51
25.0
  0
LINE
  5
56C
100
AcDbEntity
  8
0
370
    -3
  6
Continuous
100
AcDbLine
 10
-173.814242
 20
165.210454
 30
0.0
 11
-175.504715
 21
168.835685
 31
0.0
  0
ARC
  5
56D
100
AcDbEntity
  8
0
370
    -3
  6
Continuous
100
AcDbCircle
 10
-187.104911
 20
165.791209
 30
0.0
 40
3.8
100
AcDbArc
 50
25.0
 51
90.0
  0
LINE
  5
56E
100
AcDbEntity
  8
0
370
    -3
  6
Continuous
100
AcDbLine
 10
-251.867372
 20
133.227194
 30
0.0
 11
-251.867372
 21
166.591209
 31
0.0
  0
LINE
  5
56F
100
AcDbEntity
  8
0
370
    -3
  6
Continuous
100
AcDbLine
 10
-263.543065
 20
127.782728
 30
0.0
 11
-263.543065
 21
162.791209
 31
0.0
  0
LINE
  5
570
100
AcDbEntity
  8
0
370
    -3
  6
Continuous
100
AcDbLine
 10
-265.543065
 20
144.591209
 30
0.0
 11
-265.543065
 21
130.591209
 31
0.0
  0
LINE
  5
571
100
AcDbEntity
  8
0
370
    -3
  6
Continuous
100
AcDbLine
 10
-263.95378
 20
127.591209
 30
0.0
 11
-272.117125
 21
123.784579
 31
0.0
  0
ARC
  5
572
100
AcDbEntity
  8
0
370
    -3
  6
Continuous
100
AcDbCircle
 10
-252.561669
 20
123.193712
 30
0.0
 40
3.0
100
AcDbArc
 50
25.0
 51
115.0
  0
LINE
  5
573
100
AcDbEntity
  8
0
370
    -3
  6
Continuous
100
AcDbLine
 10
-287.543065
 20
130.591209
 30
0.0
 11
-263.543065
 21
130.591209
 31
0.0
  0
POINT
  5
574
100
AcDbEntity
  8
0
370
    -3
  6
CENTER
100
AcDbPoint
 10
-289.543065
 20
134.113709
 30
0.0
  0
POINT
  5
575
100
AcDbEntity
  8
0
370
    -3
  6
CENTER
100
AcDbPoint
 10
-289.543065
 20
155.068709
 30
0.0
  0
ARC
  5
576
100
AcDbEntity
  8
0
370
    -3
  6
Continuous
100
AcDbCircle
 10
-248.867372
 20
166.591209
 30
0.0
 40
3.0
100
AcDbArc
 50
90.0
 51
180.0
  0
LINE
  5
577
100
AcDbEntity
  8
0
370
    -3
  6
CENTER
100
AcDbLine
 10
-218.543065
 20
182.368626
 30
0.0
 11
-218.543065
 21
159.458649
 31
0.0
  0
ARC
  5
578
100
AcDbEntity
  8
0
370
    -3
  6
Continuous
100
AcDbCircle
 10
-246.543065
 20
169.591209
 30
0.0
 40
1.0
100
AcDbArc
 50
90.0
 51
166.657636
  0
LINE
  5
579
100
AcDbEntity
  8
0
370
    -3
  6
Continuous
100
AcDbLine
 10
-256.743065
 20
169.591209
 30
0.0
 11
-187.104911
 21
169.591209
 31
0.0
  0
ARC
  5
57A
100
AcDbEntity
  8
0
370
    -3
  6
Continuous
100
AcDbCircle
 10
-190.543065
 20
169.591209
 30
0.0
 40
1.0
100
AcDbArc
 50
13.342364
 51
90.0
  0
LINE
  5
57B
100
AcDbEntity
  8
0
370
    -3
  6
Continuous
100
AcDbLine
 10
-265.543065
 20
158.591209
 30
0.0
 11
-265.543065
 21
144.591209
 31
0.0
  0
LINE
  5
57C
100
AcDbEntity
  8
0
370
    -3
  6
CENTER
100
AcDbLine
 10
-295.021688
 20
144.591209
 30
0.0
 11
-254.715202
 21
144.591209
 31
0.0
  0
LINE
  5
57D
100
AcDbEntity
  8
0
370
    -3
  6
Continuous
100
AcDbLine
 10
-289.543065
 20
132.591209
 30
0.0
 11
-289.543065
 21
144.591209
 31
0.0
  0
LINE
  5
57E
100
AcDbEntity
  8
0
370
    -3
  6
Continuous
100
AcDbLine
 10
-289.543065
 20
156.591209
 30
0.0
 11
-289.543065
 21
144.591209
 31
0.0
  0
ARC
  5
57F
100
AcDbEntity
  8
0
370
    -3
  6
Continuous
100
AcDbCircle
 10
-287.543065
 20
132.591209
 30
0.0
 40
2.0
100
AcDbArc
 50
180.0
 51
270.0
  0
ARC
  5
580
100
AcDbEntity
  8
0
370
    -3
  6
Continuous
100
AcDbCircle
 10
-287.543065
 20
156.591209
 30
0.0
 40
2.0
100
AcDbArc
 50
90.0
 51
180.0
  0
LINE
  5
581
100
AcDbEntity
  8
0
370
    -3
  6
Continuous
100
AcDbLine
 10
-287.543065
 20
158.591209
 30
0.0
 11
-265.543065
 21
158.591209
 31
0.0
  0
LINE
  5
582
100
AcDbEntity
  8
0
370
    -3
  6
Continuous
100
AcDbLine
 10
-265.543065
 20
158.591209
 30
0.0
 11
-263.543065
 21
158.591209
 31
0.0
  0
LINE
  5
583
100
AcDbEntity
  8
0
370
    -3
  6
Continuous
100
AcDbLine
 10
-249.543065
 20
171.591209
 30
0.0
 11
-187.543065
 21
171.591209
 31
0.0
  0
LINE
  5
584
100
AcDbEntity
  8
0
370
    -3
  6
Continuous
100
AcDbLine
 10
-249.543065
 20
170.591209
 30
0.0
 11
-187.543065
 21
170.591209
 31
0.0
  0
LINE
  5
585
100
AcDbEntity
  8
0
370
    -3
  6
Continuous
100
AcDbLine
 10
-249.543065
 20
171.591209
 30
0.0
 11
-249.543065
 21
170.591209
 31
0.0
  0
LINE
  5
586
100
AcDbEntity
  8
0
370
    -3
  6
Continuous
100
AcDbLine
 10
-187.543065
 20
171.591209
 30
0.0
 11
-187.543065
 21
170.591209
 31
0.0
  0
ARC
  5
587
100
AcDbEntity
  8
0
370
    -3
  6
Continuous
100
AcDbCircle
 10
-256.743065
 20
162.791209
 30
0.0
 40
6.8
100
AcDbArc
 50
90.0
 51
180.0
  0
ARC
  5
588
100
AcDbEntity
  8
0
370
    -3
  6
Continuous
100
AcDbCircle
 10
-189.278154
 20
169.891209
 30
0.0
 40
0.3
100
AcDbArc
 50
193.342364
 51
270.0
  0
ARC
  5
589
100
AcDbEntity
  8
0
370
    -3
  6
Continuous
100
AcDbCircle
 10
-247.807976
 20
169.891209
 30
0.0
 40
0.3
100
AcDbArc
 50
270.0
 51
346.657636
  0
ARC
  5
58A
100
AcDbEntity
  8
0
370
    -3
  6
Continuous
100
AcDbCircle
 10
-224.125463
 20
721.773682
 30
0.0
 40
600.8
100
AcDbArc
 50
266.682408
 51
272.437505
  0
LINE
  5
58B
100
AcDbEntity
  8
0
370
    -3
  6
Continuous
100
AcDbLine
 10
-249.842745
 20
124.461567
 30
0.0
 11
-249.167715
 21
123.01396
 31
0.0
  0
ARC
  5
58C
100
AcDbEntity
  8
0
370
    -3
  6
Continuous
100
AcDbCircle
 10
-246.630053
 20
124.197291
 30
0.0
 40
2.8
100
AcDbArc
 50
205.0
 51
267.843273
  0
ARC
  5
58D
100
AcDbEntity
  8
0
370
    -3
  6
Continuous
100
AcDbCircle
 10
-264.176862
 20
120.007357
 30
0.0
 40
1.299999
100
AcDbArc
 50
204.999999
 51
278.398469
  0
ARC
  5
58E
100
AcDbEntity
  8
0
370
    -3
  6
Continuous
100
AcDbCircle
 10
-260.189106
 20
121.866878
 30
0.0
 40
1.299999
100
AcDbArc
 50
311.601548
 51
25.000018
  0
LINE
  5
58F
100
AcDbEntity
  8
0
370
    -3
  6
Continuous
100
AcDbLine
 10
-265.768815
 20
120.345252
 30
0.0
 11
-265.355061
 21
119.457954
 31
0.0
  0
LINE
  5
590
100
AcDbEntity
  8
0
370
    -3
  6
Continuous
100
AcDbLine
 10
-259.424661
 20
123.30358
 30
0.0
 11
-259.010907
 21
122.416282
 31
0.0
  0
POINT
  5
591
100
AcDbEntity
  8
0
370
    -3
  6
Continuous
100
AcDbPoint
 10
-262.596738
 20
121.824416
 30
0.0
  0
ARC
  5
592
100
AcDbEntity
  8
0
370
    -3
  6
Continuous
100
AcDbCircle
 10
-265.301495
 20
127.624786
 30
0.0
 40
9.0
100
AcDbArc
 50
278.398469
 51
311.601548
  0
LINE
  5
593
100
AcDbEntity
  8
0
370
    -3
  6
CENTER
100
AcDbLine
 10
-263.854412
 20
124.521507
 30
0.0
 11
-260.984492
 21
118.366942
 31
0.0
  0
ARC
  5
594
100
AcDbEntity
  8
0
370
    -3
  6
Continuous
100
AcDbCircle
 10
-268.795298
 20
120.92006
 30
0.0
 40
1.8
100
AcDbArc
 50
205.0
 51
295.0
  0
LINE
  5
595
100
AcDbEntity
  8
0
370
    -3
  6
Continuous
100
AcDbLine
 10
-270.426652
 20
120.159348
 30
0.0
 11
-272.117125
 21
123.784579
 31
0.0
  0
POINT
  5
596
100
AcDbEntity
  8
0
370
    -3
  6
Continuous
100
AcDbPoint
 10
-289.543065
 20
155.068709
 30
0.0
  0
LINE
  5
597
100
AcDbEntity
  8
0
370
    -3
  6
CENTER
100
AcDbLine
 10
-218.543065
 20
182.368626
 30
0.0
 11
-218.543065
 21
159.458649
 31
0.0
  0
LINE
  5
598
100
AcDbEntity
  8
0
370
    -3
  6
Continuous
100
AcDbLine
 10
-192.007347
 20
181.153226
 30
0.0
 11
-191.616842
 21
178.029191
 31
0.0
  0
ARC
  5
599
100
AcDbEntity
  8
0
370
    -3
  6
Continuous
100
AcDbCircle
 10
-198.620703
 20
181.091209
 30
0.0
 40
0.5
100
AcDbArc
 50
90.0
 51
172.874984
  0
ARC
  5
59A
100
AcDbEntity
  8
0
370
    -3
  6
Continuous
100
AcDbCircle
 10
-192.503486
 20
181.091209
 30
0.0
 40
0.5
100
AcDbArc
 50
7.125016
 51
90.0
  0
LINE
  5
59B
100
AcDbEntity
  8
0
370
    -3
  6
Continuous
100
AcDbLine
 10
-192.503486
 20
181.591209
 30
0.0
 11
-198.614573
 21
181.591209
 31
0.0
  0
LINE
  5
59C
100
AcDbEntity
  8
0
370
    -3
  6
Continuous
100
AcDbLine
 10
-199.116842
 20
181.153226
 30
0.0
 11
-199.507347
 21
178.029191
 31
0.0
  0
LINE
  5
59D
100
AcDbEntity
  8
0
370
    -3
  6
Continuous
100
AcDbLine
 10
-244.543065
 20
181.591209
 30
0.0
 11
-238.471557
 21
181.591209
 31
0.0
  0
LINE
  5
59E
100
AcDbEntity
  8
0
370
    -3
  6
Continuous
100
AcDbLine
 10
-237.969288
 20
181.153226
 30
0.0
 11
-237.578783
 21
178.029191
 31
0.0
  0
LINE
  5
59F
100
AcDbEntity
  8
0
370
    -3
  6
Continuous
100
AcDbLine
 10
-245.078783
 20
181.153226
 30
0.0
 11
-245.469288
 21
178.029191
 31
0.0
  0
ARC
  5
5A0
100
AcDbEntity
  8
0
370
    -3
  6
Continuous
100
AcDbCircle
 10
-238.465426
 20
181.091209
 30
0.0
 40
0.5
100
AcDbArc
 50
7.125016
 51
90.0
  0
ARC
  5
5A1
100
AcDbEntity
  8
0
370
    -3
  6
Continuous
100
AcDbCircle
 10
-244.582644
 20
181.091209
 30
0.0
 40
0.5
100
AcDbArc
 50
90.0
 51
172.874984
  0
MTEXT
  5
5A2
100
AcDbEntity
  8
0
370
    -3
  6
Continuous
100
AcDbMText
 10
-539.314331
 20
164.843964
 30
0.0
 40
15.0
 41
0.0
 71
     7
 72
     1
  1
\W0.43;DATE\W0.72; \W0.43;2011.12.29
  7
ZU_SHPTB00001
 11
1.0
 21
0.0
 31
0.0
 73
     1
 44
1.0
  0
ENDSEC
  0
SECTION
  2
OBJECTS
  0
DICTIONARY
  5
19
100
AcDbDictionary
280
     0
281
     1
  3
ACAD_GROUP
350
1A
  3
ACAD_MLINESTYLE
350
1B
  3
ACAD_LAYOUT
350
1E
  3
ACAD_PLOTSETTINGS
350
22
  3
ACAD_PLOTSTYLENAME
350
1F
  3
ACAD_WIPEOUT_VARS
350
23
  3
DWGPROPS
350
5A3
  0
DICTIONARY
  5
1A
102
{ACAD_REACTORS
330
19
102
}
100
AcDbDictionary
280
     0
281
     1
  0
DICTIONARY
  5
1B
102
{ACAD_REACTORS
330
19
102
}
100
AcDbDictionary
280
     0
281
     1
  3
Standard
350
1C
  0
MLINESTYLE
  5
1C
102
{ACAD_REACTORS
330
1B
102
}
100
AcDbMlineStyle
  2
Standard
 70
     0
  3

 62
     0
 51
90.0
 52
90.0
 71
     2
 49
0.5
 62
   256
  6
ByLayer
 49
-0.5
 62
   256
  6
ByLayer
  0
ACDBDICTIONARYWDFLT
  5
1F
102
{ACAD_REACTORS
330
19
102
}
100
AcDbDictionary
281
     1
  3
Normal
350
1D
100
AcDbDictionaryWithDefault
340
1D
  0
ACDBPLACEHOLDER
  5
1D
102
{ACAD_REACTORS
330
1F
102
}
  0
LAYOUT
  5
20
102
{ACAD_REACTORS
330
1E
102
}
100
AcDbPlotSettings
  1

  2

  4

  6

 40
0.0
 41
0.0
 42
0.0
 43
0.0
 44
0.0
 45
0.0
 46
0.0
 47
0.0
 48
0.0
 49
0.0
140
0.0
141
0.0
142
1.0
143
1.0
 70
  1024
 72
     0
 73
     0
 74
     0
  7

 75
     0
147
1.0
148
0.0
149
0.0
100
AcDbLayout
  1
Model
 70
     0
 71
     0
 10
0.0
 20
0.0
 11
0.0
 21
0.0
 12
0.0
 22
0.0
 32
0.0
 14
0.0
 24
0.0
 34
0.0
 15
0.0
 25
0.0
 35
0.0
146
0.0
 13
0.0
 23
0.0
 33
0.0
 16
0.0
 26
0.0
 36
0.0
 17
0.0
 27
0.0
 37
0.0
 76
     0
330
A
331
0
345
0
346
0
  0
LAYOUT
  5
21
102
{ACAD_REACTORS
330
1E
102
}
100
AcDbPlotSettings
  1

  2

  4

  6

 40
0.0
 41
0.0
 42
0.0
 43
0.0
 44
0.0
 45
0.0
 46
0.0
 47
0.0
 48
0.0
 49
0.0
140
0.0
141
0.0
142
1.0
143
1.0
 70
     0
 72
     0
 73
     0
 74
     0
  7

 75
     0
147
1.0
148
0.0
149
0.0
100
AcDbLayout
  1
Layout1
 70
     0
 71
     0
 10
0.0
 20
0.0
 11
0.0
 21
0.0
 12
0.0
 22
0.0
 32
0.0
 14
0.0
 24
0.0
 34
0.0
 15
0.0
 25
0.0
 35
0.0
146
0.0
 13
0.0
 23
0.0
 33
0.0
 16
0.0
 26
0.0
 36
0.0
 17
0.0
 27
0.0
 37
0.0
 76
     0
330
B
331
0
345
0
346
0
  0
DICTIONARY
  5
1E
102
{ACAD_REACTORS
330
19
102
}
100
AcDbDictionary
280
     0
281
     1
  3
Layout1
350
21
  3
Model
350
20
  0
DICTIONARY
  5
22
102
{ACAD_REACTORS
330
19
102
}
100
AcDbDictionary
280
     0
281
     1
  0
WIPEOUTVARIABLES
  5
23
100
AcDbWipeoutVariables
 70
     1
  0
XRECORD
  5
5A3
100
AcDbXrecord
280
     1
  1
DWGPROPS COOKIE
  2

  3

  4

  6

  7

  8
HK96464
  9

300
=
301
=
302
=
303
=
304
=
305
=
306
=
307
=
308
=
309
=
 40
0.0
 41
2455931.628264
 42
2455931.628264
  1

 90
        0
  0
ENDSEC
  0
EOF
