  0
SECTION
  2
HEADER
  9
$ACADVER
  1
AC1015
  9
$ACADMAINTVER
 70
     6
  9
$DWGCODEPAGE
  3
ANSI_932
  9
$INSBASE
 10
0.0
 20
0.0
 30
0.0
  9
$EXTMIN
 10
1.000000E+20
 20
1.000000E+20
 30
1.000000E+20
  9
$EXTMAX
 10
-1.000000E+20
 20
-1.000000E+20
 30
-1.000000E+20
  9
$LIMMIN
 10
0.0
 20
0.0
  9
$LIMMAX
 10
0.0
 20
0.0
  9
$ORTHOMODE
 70
     0
  9
$REGENMODE
 70
     1
  9
$FILLMODE
 70
     1
  9
$QTEXTMODE
 70
     0
  9
$MIRRTEXT
 70
     1
  9
$LTSCALE
 40
1.0
  9
$ATTMODE
 70
     1
  9
$TEXTSIZE
 40
7.0
  9
$TRACEWID
 40
0.05
  9
$TEXTSTYLE
  7
Standard
  9
$CLAYER
  8
0
  9
$CELTYPE
  6
Continuous
  9
$CECOLOR
 62
   256
  9
$CELTSCALE
 40
1.0
  9
$DISPSILH
 70
     0
  9
$DIMSCALE
 40
1.0
  9
$DIMASZ
 40
1.931852
  9
$DIMEXO
 40
1.0
  9
$DIMDLI
 40
0.38
  9
$DIMRND
 40
0.0
  9
$DIMDLE
 40
0.0
  9
$DIMEXE
 40
2.0
  9
$DIMTP
 40
0.0
  9
$DIMTM
 40
0.0
  9
$DIMTXT
 40
3.2
  9
$DIMCEN
 40
0.09
  9
$DIMTSZ
 40
0.0
  9
$DIMTOL
 70
     0
  9
$DIMLIM
 70
     0
  9
$DIMTIH
 70
     1
  9
$DIMTOH
 70
     1
  9
$DIMSE1
 70
     0
  9
$DIMSE2
 70
     0
  9
$DIMTAD
 70
     1
  9
$DIMZIN
 70
     0
  9
$DIMBLK
  1

  9
$DIMASO
 70
     1
  9
$DIMSHO
 70
     1
  9
$DIMPOST
  1

  9
$DIMAPOST
  1

  9
$DIMALT
 70
     0
  9
$DIMALTD
 70
     2
  9
$DIMALTF
 40
25.4
  9
$DIMLFAC
 40
1.0
  9
$DIMTOFL
 70
     0
  9
$DIMTVP
 40
0.0
  9
$DIMTIX
 70
     0
  9
$DIMSOXD
 70
     0
  9
$DIMSAH
 70
     0
  9
$DIMBLK1
  1

  9
$DIMBLK2
  1

  9
$DIMSTYLE
  2
Standard
  9
$DIMCLRD
 70
     0
  9
$DIMCLRE
 70
     0
  9
$DIMCLRT
 70
     0
  9
$DIMTFAC
 40
0.714286
  9
$DIMGAP
 40
0.09
  9
$DIMJUST
 70
     0
  9
$DIMSD1
 70
     0
  9
$DIMSD2
 70
     0
  9
$DIMTOLJ
 70
     1
  9
$DIMTZIN
 70
     0
  9
$DIMALTZ
 70
     0
  9
$DIMALTTZ
 70
     0
  9
$DIMUPT
 70
     0
  9
$DIMDEC
 70
     4
  9
$DIMTDEC
 70
     4
  9
$DIMALTU
 70
     2
  9
$DIMALTTD
 70
     2
  9
$DIMTXSTY
  7
Standard
  9
$DIMAUNIT
 70
     0
  9
$DIMADEC
 70
     0
  9
$DIMALTRND
 40
0.0
  9
$DIMAZIN
 70
     0
  9
$DIMDSEP
 70
     0
  9
$DIMATFIT
 70
     3
  9
$DIMFRAC
 70
     0
  9
$DIMLDRBLK
  1

  9
$DIMLUNIT
 70
     2
  9
$DIMLWD
 70
     0
  9
$DIMLWE
 70
     0
  9
$DIMTMOVE
 70
     0
  9
$LUNITS
 70
     2
  9
$LUPREC
 70
     3
  9
$SKETCHINC
 40
0.1
  9
$FILLETRAD
 40
0.0
  9
$AUNITS
 70
     0
  9
$AUPREC
 70
     0
  9
$MENU
  1
acad
  9
$ELEVATION
 40
0.0
  9
$PELEVATION
 40
0.0
  9
$THICKNESS
 40
0.0
  9
$LIMCHECK
 70
     0
  9
$CHAMFERA
 40
0.0
  9
$CHAMFERB
 40
0.0
  9
$CHAMFERC
 40
0.0
  9
$CHAMFERD
 40
0.0
  9
$SKPOLY
 70
     0
  9
$TDCREATE
 40
0.000000000
  9
$TDUCREATE
 40
0.000000000
  9
$TDUPDATE
 40
0.000000000
  9
$TDUUPDATE
 40
0.000000000
  9
$TDINDWG
 40
0.0000000000
  9
$TDUSRTIMER
 40
0.0000000000
  9
$USRTIMER
 70
     1
  9
$ANGBASE
 50
0.0
  9
$ANGDIR
 70
     0
  9
$PDMODE
 70
     0
  9
$PDSIZE
 40
0.0
  9
$PLINEWID
 40
0.0
  9
$SPLFRAME
 70
     0
  9
$SPLINETYPE
 70
     6
  9
$SPLINESEGS
 70
     8
  9
$HANDSEED
  5
5B1
  9
$SURFTAB1
 70
     6
  9
$SURFTAB2
 70
     6
  9
$SURFTYPE
 70
     6
  9
$SURFU
 70
     6
  9
$SURFV
 70
     6
  9
$UCSBASE
  2

  9
$UCSNAME
  2

  9
$UCSORG
 10
0.0
 20
0.0
 30
0.0
  9
$UCSXDIR
 10
1.0
 20
0.0
 30
0.0
  9
$UCSYDIR
 10
0.0
 20
1.0
 30
0.0
  9
$UCSORTHOREF
  2

  9
$UCSORTHOVIEW
 70
     0
  9
$UCSORGTOP
 10
0.0
 20
0.0
 30
0.0
  9
$UCSORGBOTTOM
 10
0.0
 20
0.0
 30
0.0
  9
$UCSORGLEFT
 10
0.0
 20
0.0
 30
0.0
  9
$UCSORGRIGHT
 10
0.0
 20
0.0
 30
0.0
  9
$UCSORGFRONT
 10
0.0
 20
0.0
 30
0.0
  9
$UCSORGBACK
 10
0.0
 20
0.0
 30
0.0
  9
$PUCSBASE
  2

  9
$PUCSNAME
  2

  9
$PUCSORG
 10
0.0
 20
0.0
 30
0.0
  9
$PUCSXDIR
 10
1.0
 20
0.0
 30
0.0
  9
$PUCSYDIR
 10
0.0
 20
1.0
 30
0.0
  9
$PUCSORTHOREF
  2

  9
$PUCSORTHOVIEW
 70
     0
  9
$PUCSORGTOP
 10
0.0
 20
0.0
 30
0.0
  9
$PUCSORGBOTTOM
 10
0.0
 20
0.0
 30
0.0
  9
$PUCSORGLEFT
 10
0.0
 20
0.0
 30
0.0
  9
$PUCSORGRIGHT
 10
0.0
 20
0.0
 30
0.0
  9
$PUCSORGFRONT
 10
0.0
 20
0.0
 30
0.0
  9
$PUCSORGBACK
 10
0.0
 20
0.0
 30
0.0
  9
$USERI1
 70
     0
  9
$USERI2
 70
     0
  9
$USERI3
 70
     0
  9
$USERI4
 70
     0
  9
$USERI5
 70
     0
  9
$USERR1
 40
0.0
  9
$USERR2
 40
0.0
  9
$USERR3
 40
0.0
  9
$USERR4
 40
0.0
  9
$USERR5
 40
0.0
  9
$WORLDVIEW
 70
     1
  9
$SHADEDGE
 70
     3
  9
$SHADEDIF
 70
    70
  9
$TILEMODE
 70
     1
  9
$MAXACTVP
 70
    16
  9
$PINSBASE
 10
0.0
 20
0.0
 30
0.0
  9
$PLIMCHECK
 70
     0
  9
$PEXTMIN
 10
1.000000E+20
 20
1.000000E+20
 30
1.000000E+20
  9
$PEXTMAX
 10
-1.000000E+20
 20
-1.000000E+20
 30
-1.000000E+20
  9
$PLIMMIN
 10
0.0
 20
0.0
  9
$PLIMMAX
 10
12.0
 20
9.0
  9
$UNITMODE
 70
     0
  9
$VISRETAIN
 70
     0
  9
$PLINEGEN
 70
     1
  9
$PSLTSCALE
 70
     0
  9
$TREEDEPTH
 70
  3020
  9
$CMLSTYLE
  2
Standard
  9
$CMLJUST
 70
     0
  9
$CMLSCALE
 40
1.0
  9
$PROXYGRAPHICS
 70
     0
  9
$MEASUREMENT
 70
     0
  9
$CELWEIGHT
370
     0
  9
$ENDCAPS
280
     0
  9
$JOINSTYLE
280
     0
  9
$LWDISPLAY
290
     0
  9
$INSUNITS
 70
     0
  9
$HYPERLINKBASE
  1

  9
$STYLESHEET
  1

  9
$XEDIT
290
     1
  9
$CEPSNTYPE
380
     0
  9
$PSTYLEMODE
290
     1
  9
$FINGERPRINTGUID
  2

  9
$VERSIONGUID
  2

  9
$EXTNAMES
290
     1
  9
$PSVPSCALE
 40
0.0
  0
ENDSEC
  0
SECTION
  2
CLASSES
  0
CLASS
  1
LWPOLYLINE
  2
AcDbPolyline
  3
AutoCAD 2000
 90
    32768
280
     0
281
     1
  0
CLASS
  1
IMAGE
  2
AcDbRasterImage
  3
ISM
 90
    32895
280
     0
281
     1
  0
CLASS
  1
OLE2FRAME
  2
AcDbOle2Frame
  3
AutoCAD 2000
 90
    32768
280
     0
281
     1
  0
CLASS
  1
HATCH
  2
AcDbHatch
  3
AutoCAD 2000
 90
    32768
280
     0
281
     1
  0
CLASS
  1
DICTIONARYVAR
  2
AcDbDictionaryVar
  3
AutoCAD 2000
 90
    32768
280
     0
281
     0
  0
CLASS
  1
RASTERVARIABLES
  2
AcDbRasterVariables
  3
ISM
 90
    32768
280
     0
281
     0
  0
CLASS
  1
IMAGEDEF
  2
AcDbRasterImageDef
  3
ISM
 90
    32768
280
     0
281
     0
  0
CLASS
  1
IMAGEDEF_REACTOR
  2
AcDbRasterImageDefReactor
  3
ISM
 90
    32769
280
     0
281
     0
  0
CLASS
  1
IDBUFFER
  2
AcDbIdBuffer
  3
AutoCAD 2000
 90
    32768
280
     0
281
     0
  0
CLASS
  1
SPATIAL_FILTER
  2
AcDbSpatialFilter
  3
AutoCAD 2000
 90
    32768
280
     0
281
     0
  0
CLASS
  1
XRECORD
  2
AcDbXrecord
  3
AutoCAD 2000
 90
        0
280
     0
281
     0
  0
CLASS
  1
SORTENTSTABLE
  2
AcDbSortentsTable
  3
AutoCAD 2000
 90
    32768
280
     0
281
     0
  0
CLASS
  1
LAYER_INDEX
  2
AcDbLayerIndex
  3
AutoCAD 2000
 90
    32768
280
     0
281
     0
  0
CLASS
  1
SPATIAL_INDEX
  2
AcDbSpatialIndex
  3
AutoCAD 2000
 90
    32768
280
     0
281
     0
  0
CLASS
  1
OBJECT_PTR
  2
CAseDLPNTableRecord
  3
"ASE-LPNTableRecord"
 90
    32769
280
     0
281
     0
  0
CLASS
  1
LAYOUT
  2
AcDbLayout
  3
AutoCAD 2000
 90
        0
280
     0
281
     0
  0
CLASS
  1
PLOTSETTINGS
  2
AcDbPlotSettings
  3
AutoCAD 2000
 90
    32768
280
     0
281
     0
  0
CLASS
  1
ACDBDICTIONARYWDFLT
  2
AcDbDictionaryWithDefault
  3
AutoCAD 2000
 90
        0
280
     0
281
     0
  0
CLASS
  1
ACDBPLACEHOLDER
  2
AcDbPlaceHolder
  3
AutoCAD 2000
 90
        0
280
     0
281
     0
  0
CLASS
  1
VBA_PROJECT
  2
AcDbVbaProject
  3
acadvba
 90
    32768
280
     0
281
     0
  0
CLASS
  1
WIPEOUT
  2
AcDbWipeout
  3
WipeOut|AutoCAD Express Tool|expresstools@autodesk.com
 90
    32895
280
     0
281
     1
  0
CLASS
  1
WIPEOUTVARIABLES
  2
AcDbWipeoutVariables
  3
WipeOut|AutoCAD Express Tool|expresstools@autodesk.com
 90
        0
280
     0
281
     0
  0
CLASS
  1
RTEXT
  2
RText
  3
RText|AutoCAD Express Tool|expresstools@autodesk.com
 90
    32768
280
     0
281
     1
  0
CLASS
  1
ARCALIGNEDTEXT
  2
AcDbArcAlignedText
  3
ATEXT|AutoCAD Express Tool|expresstools@autodesk.com
 90
    32768
280
     0
281
     1
  0
ENDSEC
  0
SECTION
  2
TABLES
  0
TABLE
  2
VPORT
  5
7
100
AcDbSymbolTable
 70
     1
  0
VPORT
  5
15
100
AcDbSymbolTableRecord
100
AcDbViewportTableRecord
  2
*ACTIVE
 70
     0
 10
0.0
 20
0.0
 11
1.0
 21
1.0
 12
0.0
 22
0.0
 13
0.0
 23
0.0
 14
1.0
 24
1.0
 15
0.0
 25
0.0
 16
0.0
 26
0.0
 36
1.0
 17
0.0
 27
0.0
 37
0.0
 40
100.0
 41
1.0
 42
50.0
 43
0.0
 44
0.0
 50
0.0
 51
0.0
 71
     0
 72
   100
 73
     1
 74
     1
 75
     0
 76
     0
 77
     0
 78
     0
281
     0
 65
     0
110
0.0
120
0.0
130
0.0
111
1.0
121
0.0
131
0.0
112
0.0
122
1.0
132
0.0
345
0
346
0
 79
     0
146
0.0
  0
ENDTAB
  0
TABLE
  2
LTYPE
  5
4
100
AcDbSymbolTable
 70
     7
  0
LTYPE
  5
11
100
AcDbSymbolTableRecord
100
AcDbLinetypeTableRecord
  2
ByBlock
 70
    64
  3

 72
    65
 73
     0
 40
0.0
  0
LTYPE
  5
12
100
AcDbSymbolTableRecord
100
AcDbLinetypeTableRecord
  2
ByLayer
 70
    64
  3

 72
    65
 73
     0
 40
0.0
  0
LTYPE
  5
13
100
AcDbSymbolTableRecord
100
AcDbLinetypeTableRecord
  2
Continuous
 70
    64
  3
Solid line
 72
    65
 73
     0
 40
0.0
  0
LTYPE
  5
24
100
AcDbSymbolTableRecord
100
AcDbLinetypeTableRecord
  2
DASHED
 70
    64
  3
Dashed __ __ __ __ __ __ __ __ __ __ __ __ __ _
 72
    65
 73
     2
 40
0.75
 49
0.5
 74
     0
 49
-0.25
 74
     0
  0
LTYPE
  5
25
100
AcDbSymbolTableRecord
100
AcDbLinetypeTableRecord
  2
CENTER
 70
    64
  3
Center ____ _ ____ _ ____ _ ____ _ ____ _ ____
 72
    65
 73
     4
 40
1.0
 49
0.5
 74
     0
 49
-0.25
 74
     0
 49
0.0
 74
     0
 49
-0.25
 74
     0
  0
LTYPE
  5
26
100
AcDbSymbolTableRecord
100
AcDbLinetypeTableRecord
  2
DIVIDE
 70
    64
  3
Divide ____ . . ____ . . ____ . . ____ . . ____
 72
    65
 73
     6
 40
1.25
 49
0.5
 74
     0
 49
-0.25
 74
     0
 49
0.0
 74
     0
 49
-0.25
 74
     0
 49
0.0
 74
     0
 49
-0.25
 74
     0
  0
LTYPE
  5
27
100
AcDbSymbolTableRecord
100
AcDbLinetypeTableRecord
  2
PHANTOM
 70
    64
  3
Phantom ______  __  __  ______  __  __  ______
 72
    65
 73
     6
 40
9.0
 49
4.3
 74
     0
 49
-0.7
 74
     0
 49
1.3
 74
     0
 49
-0.7
 74
     0
 49
1.3
 74
     0
 49
-0.7
 74
     0
  0
ENDTAB
  0
TABLE
  2
LAYER
  5
2
100
AcDbSymbolTable
 70
     4
  0
LAYER
  5
14
100
AcDbSymbolTableRecord
100
AcDbLayerTableRecord
  2
0
 70
    64
 62
    53
  6
Continuous
290
     1
370
    -3
390
1D
  0
LAYER
  5
28
100
AcDbSymbolTableRecord
100
AcDbLayerTableRecord
  2
1
 70
    64
 62
    42
  6
Continuous
290
     1
370
    -3
390
1D
  0
LAYER
  5
29
100
AcDbSymbolTableRecord
100
AcDbLayerTableRecord
  2
3
 70
    64
 62
     4
  6
Continuous
290
     1
370
    -3
390
1D
  0
LAYER
  5
2A
100
AcDbSymbolTableRecord
100
AcDbLayerTableRecord
  2
5
 70
    64
 62
   191
  6
Continuous
290
     1
370
    -3
390
1D
  0
ENDTAB
  0
TABLE
  2
STYLE
  5
3
100
AcDbSymbolTable
 70
     2
  0
STYLE
  5
17
100
AcDbSymbolTableRecord
100
AcDbTextStyleTableRecord
  2
Standard
 70
     0
 40
0.0
 41
1.0
 50
0.0
 71
     0
 42
0.0
  3
txt
  4

  0
STYLE
  5
11D
100
AcDbSymbolTableRecord
100
AcDbTextStyleTableRecord
  2
ZU_SHPTB00001
 70
     0
 40
0.0
 41
1.0
 50
0.0
 71
     0
 42
0.0
  3
monotxt
  4
bigfont
  0
ENDTAB
  0
TABLE
  2
VIEW
  5
5
100
AcDbSymbolTable
 70
     0
  0
ENDTAB
  0
TABLE
  2
UCS
  5
6
100
AcDbSymbolTable
 70
     0
  0
ENDTAB
  0
TABLE
  2
APPID
  5
8
100
AcDbSymbolTable
 70
     1
  0
APPID
  5
16
100
AcDbSymbolTableRecord
100
AcDbRegAppTableRecord
  2
ACAD
 70
     0
  0
ENDTAB
  0
TABLE
  2
DIMSTYLE
  5
9
100
AcDbSymbolTable
 70
     1
100
AcDbDimStyleTable
 71
     0
  0
DIMSTYLE
105
18
100
AcDbSymbolTableRecord
100
AcDbDimStyleTableRecord
  2
Standard
 70
     0
  3

  4

 40
1.0
 41
0.18
 42
0.0625
 43
0.38
 44
0.18
 45
0.0
 46
0.0
 47
0.0
 48
0.0
 71
     0
 72
     0
 73
     1
 74
     1
 75
     0
 76
     0
 77
     0
 78
     0
 79
     0
140
0.18
141
0.09
142
0.0
143
25.4
144
1.0
145
0.0
146
1.0
147
0.09
148
0.0
170
     0
171
     2
172
     0
173
     0
174
     0
175
     0
176
     0
177
     0
178
     0
179
     0
271
     4
272
     4
273
     2
274
     2
275
     0
276
     0
277
     2
278
    46
279
     0
280
     0
281
     0
282
     0
283
     1
284
     0
285
     0
286
     0
288
     0
340
17
341
0
342
0
343
0
344
0
371
    -2
372
    -2
  0
ENDTAB
  0
TABLE
  2
BLOCK_RECORD
  5
1
100
AcDbSymbolTable
 70
    10
  0
BLOCK_RECORD
  5
A
100
AcDbSymbolTableRecord
100
AcDbBlockTableRecord
  2
*MODEL_SPACE
340
20
  0
BLOCK_RECORD
  5
B
100
AcDbSymbolTableRecord
100
AcDbBlockTableRecord
  2
*PAPER_SPACE
340
21
  0
BLOCK_RECORD
  5
C1
100
AcDbSymbolTableRecord
100
AcDbBlockTableRecord
  2
ZU_SYM__USERS_HOME_SYMBOL_STD_SYM_B01_-1
340
0
102
{BLKREFS
331
D3
102
}
  0
BLOCK_RECORD
  5
101
100
AcDbSymbolTableRecord
100
AcDbBlockTableRecord
  2
ZU_SYM__USERS_HOME_SYMBOL_STD_SYM_B01_00001-1
340
0
102
{BLKREFS
331
113
102
}
  0
BLOCK_RECORD
  5
1CA
100
AcDbSymbolTableRecord
100
AcDbBlockTableRecord
  2
ZU_SYM__USERS_HOME_SYMBOL_POO_SYM_B20_-1
340
0
102
{BLKREFS
331
1D5
102
}
  0
BLOCK_RECORD
  5
1D6
100
AcDbSymbolTableRecord
100
AcDbBlockTableRecord
  2
ZU_SYM__USERS_HOME_SYMBOL_POO_SYM_B20_00002-1
340
0
102
{BLKREFS
331
1E1
102
}
  0
BLOCK_RECORD
  5
1E4
100
AcDbSymbolTableRecord
100
AcDbBlockTableRecord
  2
ZU_SYM__USERS_HOME_SYMBOL_POO_SYM_B20_00003-1
340
0
102
{BLKREFS
331
1EF
102
}
  0
BLOCK_RECORD
  5
1F0
100
AcDbSymbolTableRecord
100
AcDbBlockTableRecord
  2
ZU_SYM__USERS_HOME_SYMBOL_POO_SYM_B20_00004-1
340
0
102
{BLKREFS
331
1FB
102
}
  0
BLOCK_RECORD
  5
488
100
AcDbSymbolTableRecord
100
AcDbBlockTableRecord
  2
ZU_SYM__USERS_HOME_SYMBOL_STD_SYM_B01_00005-1
340
0
102
{BLKREFS
331
493
102
}
  0
BLOCK_RECORD
  5
494
100
AcDbSymbolTableRecord
100
AcDbBlockTableRecord
  2
ZU_SYM__USERS_HOME_SYMBOL_STD_SYM_B01_00006-1
340
0
102
{BLKREFS
331
49F
102
}
  0
BLOCK_RECORD
  5
4A0
100
AcDbSymbolTableRecord
100
AcDbBlockTableRecord
  2
ZU_SYM__USERS_HOME_SYMBOL_STD_SYM_B01_00007-1
340
0
102
{BLKREFS
331
4AB
102
}
  0
BLOCK_RECORD
  5
4AC
100
AcDbSymbolTableRecord
100
AcDbBlockTableRecord
  2
ZU_SYM__USERS_HOME_SYMBOL_STD_SYM_B01_00008-1
340
0
102
{BLKREFS
331
4B7
102
}
  0
ENDTAB
  0
ENDSEC
  0
SECTION
  2
BLOCKS
  0
BLOCK
  5
D
100
AcDbEntity
  8
0
100
AcDbBlockBegin
  2
*MODEL_SPACE
 70
     0
 10
0.0
 20
0.0
 30
0.0
  3
*MODEL_SPACE
  1

  0
ENDBLK
  5
E
100
AcDbEntity
  8
0
100
AcDbBlockEnd
  0
BLOCK
  5
F
100
AcDbEntity
 67
     1
  8
0
100
AcDbBlockBegin
  2
*PAPER_SPACE
 70
     0
 10
0.0
 20
0.0
 30
0.0
  3
*PAPER_SPACE
  1

  0
ENDBLK
  5
10
100
AcDbEntity
 67
     1
  8
0
100
AcDbBlockEnd
  0
BLOCK
  5
C2
100
AcDbEntity
  8
0
100
AcDbBlockBegin
  2
ZU_SYM__USERS_HOME_SYMBOL_STD_SYM_B01_-1
 70
    64
 10
0.0
 20
0.0
 30
0.0
  3
ZU_SYM__USERS_HOME_SYMBOL_STD_SYM_B01_-1
  1

  0
POINT
  5
C3
100
AcDbEntity
  8
0
370
    -3
  6
Continuous
100
AcDbPoint
 10
0.0
 20
0.0
 30
0.0
  0
LINE
  5
C4
100
AcDbEntity
  8
0
370
    -3
  6
Continuous
100
AcDbLine
 10
-0.000025
 20
-4.599994
 30
0.0
 11
-4.300015
 21
-4.599977
 31
0.0
  0
LINE
  5
C5
100
AcDbEntity
  8
0
370
    -3
  6
Continuous
100
AcDbLine
 10
-4.299996
 20
-4.599962
 30
0.0
 11
-4.79999
 21
-3.899959
 31
0.0
  0
LINE
  5
C6
100
AcDbEntity
  8
0
370
    -3
  6
Continuous
100
AcDbLine
 10
-4.80001
 20
-3.899973
 30
0.0
 11
-4.799979
 21
3.900012
 31
0.0
  0
LINE
  5
C7
100
AcDbEntity
  8
0
370
    -3
  6
Continuous
100
AcDbLine
 10
-4.799962
 20
3.900001
 30
0.0
 11
-4.299962
 21
4.599999
 31
0.0
  0
LINE
  5
C8
100
AcDbEntity
  8
0
370
    -3
  6
Continuous
100
AcDbLine
 10
-4.299978
 20
4.600015
 30
0.0
 11
0.000013
 21
4.599998
 31
0.0
  0
LINE
  5
C9
100
AcDbEntity
  8
0
370
    -3
  6
Continuous
100
AcDbLine
 10
0.000016
 20
4.599992
 30
0.0
 11
-0.000021
 21
-4.599992
 31
0.0
  0
LINE
  5
CA
100
AcDbEntity
  8
0
370
    -3
  6
Continuous
100
AcDbLine
 10
-4.300006
 20
-2.29998
 30
0.0
 11
-1.300007
 21
-2.299992
 31
0.0
  0
LINE
  5
CB
100
AcDbEntity
  8
0
370
    -3
  6
Continuous
100
AcDbLine
 10
-4.299987
 20
2.300014
 30
0.0
 11
-1.29999
 21
2.300004
 31
0.0
  0
ARC
  5
CC
100
AcDbEntity
  8
0
370
    -3
  6
Continuous
100
AcDbCircle
 10
-3.230014
 20
-3.449986
 30
0.0
 40
1.57
100
AcDbArc
 50
132.899744
 51
179.999745
  0
ARC
  5
CD
100
AcDbEntity
  8
0
370
    -3
  6
Continuous
100
AcDbCircle
 10
-3.229986
 20
3.450012
 30
0.0
 40
1.57
100
AcDbArc
 50
179.999745
 51
227.099746
  0
ARC
  5
CE
100
AcDbEntity
  8
0
370
    -3
  6
Continuous
100
AcDbCircle
 10
0.740001
 20
-0.000003
 30
0.0
 40
5.539999
100
AcDbArc
 50
155.470187
 51
204.52925
  0
LINE
  5
CF
100
AcDbEntity
  8
0
370
    -3
  6
Continuous
100
AcDbLine
 10
-1.300018
 20
-4.599993
 30
0.0
 11
-1.299981
 21
4.600004
 31
0.0
  0
LINE
  5
D0
100
AcDbEntity
  8
0
370
    -3
  6
Continuous
100
AcDbLine
 10
-1.3
 20
-0.299995
 30
0.0
 11
-0.000004
 21
-0.000001
 31
0.0
  0
LINE
  5
D1
100
AcDbEntity
  8
0
370
    -3
  6
Continuous
100
AcDbLine
 10
-1.299999
 20
0.300007
 30
0.0
 11
-0.000001
 21
0.600002
 31
0.0
  0
ENDBLK
  5
D2
100
AcDbEntity
  8
0
100
AcDbBlockEnd
  0
BLOCK
  5
102
100
AcDbEntity
  8
0
100
AcDbBlockBegin
  2
ZU_SYM__USERS_HOME_SYMBOL_STD_SYM_B01_00001-1
 70
    64
 10
0.0
 20
0.0
 30
0.0
  3
ZU_SYM__USERS_HOME_SYMBOL_STD_SYM_B01_00001-1
  1

  0
POINT
  5
103
100
AcDbEntity
  8
0
370
    -3
  6
Continuous
100
AcDbPoint
 10
0.0
 20
0.0
 30
0.0
  0
LINE
  5
104
100
AcDbEntity
  8
0
370
    -3
  6
Continuous
100
AcDbLine
 10
-0.000025
 20
-4.599994
 30
0.0
 11
-4.300015
 21
-4.599977
 31
0.0
  0
LINE
  5
105
100
AcDbEntity
  8
0
370
    -3
  6
Continuous
100
AcDbLine
 10
-4.299996
 20
-4.599962
 30
0.0
 11
-4.79999
 21
-3.899959
 31
0.0
  0
LINE
  5
106
100
AcDbEntity
  8
0
370
    -3
  6
Continuous
100
AcDbLine
 10
-4.80001
 20
-3.899973
 30
0.0
 11
-4.799979
 21
3.900012
 31
0.0
  0
LINE
  5
107
100
AcDbEntity
  8
0
370
    -3
  6
Continuous
100
AcDbLine
 10
-4.799962
 20
3.900001
 30
0.0
 11
-4.299962
 21
4.599999
 31
0.0
  0
LINE
  5
108
100
AcDbEntity
  8
0
370
    -3
  6
Continuous
100
AcDbLine
 10
-4.299978
 20
4.600015
 30
0.0
 11
0.000013
 21
4.599998
 31
0.0
  0
LINE
  5
109
100
AcDbEntity
  8
0
370
    -3
  6
Continuous
100
AcDbLine
 10
0.000016
 20
4.599992
 30
0.0
 11
-0.000021
 21
-4.599992
 31
0.0
  0
LINE
  5
10A
100
AcDbEntity
  8
0
370
    -3
  6
Continuous
100
AcDbLine
 10
-4.300006
 20
-2.29998
 30
0.0
 11
-1.300007
 21
-2.299992
 31
0.0
  0
LINE
  5
10B
100
AcDbEntity
  8
0
370
    -3
  6
Continuous
100
AcDbLine
 10
-4.299987
 20
2.300014
 30
0.0
 11
-1.29999
 21
2.300004
 31
0.0
  0
ARC
  5
10C
100
AcDbEntity
  8
0
370
    -3
  6
Continuous
100
AcDbCircle
 10
-3.230014
 20
-3.449986
 30
0.0
 40
1.57
100
AcDbArc
 50
132.899744
 51
179.999745
  0
ARC
  5
10D
100
AcDbEntity
  8
0
370
    -3
  6
Continuous
100
AcDbCircle
 10
-3.229986
 20
3.450012
 30
0.0
 40
1.57
100
AcDbArc
 50
179.999745
 51
227.099746
  0
ARC
  5
10E
100
AcDbEntity
  8
0
370
    -3
  6
Continuous
100
AcDbCircle
 10
0.740001
 20
-0.000003
 30
0.0
 40
5.539999
100
AcDbArc
 50
155.470187
 51
204.52925
  0
LINE
  5
10F
100
AcDbEntity
  8
0
370
    -3
  6
Continuous
100
AcDbLine
 10
-1.300018
 20
-4.599993
 30
0.0
 11
-1.299981
 21
4.600004
 31
0.0
  0
LINE
  5
110
100
AcDbEntity
  8
0
370
    -3
  6
Continuous
100
AcDbLine
 10
-1.3
 20
-0.299995
 30
0.0
 11
-0.000004
 21
-0.000001
 31
0.0
  0
LINE
  5
111
100
AcDbEntity
  8
0
370
    -3
  6
Continuous
100
AcDbLine
 10
-1.299999
 20
0.300007
 30
0.0
 11
-0.000001
 21
0.600002
 31
0.0
  0
ENDBLK
  5
112
100
AcDbEntity
  8
0
100
AcDbBlockEnd
  0
BLOCK
  5
1CB
100
AcDbEntity
  8
0
100
AcDbBlockBegin
  2
ZU_SYM__USERS_HOME_SYMBOL_POO_SYM_B20_-1
 70
    64
 10
0.0
 20
0.0
 30
0.0
  3
ZU_SYM__USERS_HOME_SYMBOL_POO_SYM_B20_-1
  1

  0
POINT
  5
1CC
100
AcDbEntity
  8
0
370
    -3
  6
Continuous
100
AcDbPoint
 10
0.0
 20
0.0
 30
0.0
  0
LINE
  5
1CD
100
AcDbEntity
  8
0
370
    -3
  6
Continuous
100
AcDbLine
 10
0.0
 20
-6.5
 30
0.0
 11
0.0
 21
6.5
 31
0.0
  0
LINE
  5
1CE
100
AcDbEntity
  8
0
370
    -3
  6
Continuous
100
AcDbLine
 10
-7.999999
 20
5.633876
 30
0.0
 11
-7.999999
 21
-5.63407
 31
0.0
  0
LINE
  5
1CF
100
AcDbEntity
  8
0
370
    -3
  6
Continuous
100
AcDbLine
 10
0.0
 20
6.5
 30
0.0
 11
-7.499999
 21
6.5
 31
0.0
  0
LINE
  5
1D0
100
AcDbEntity
  8
0
370
    -3
  6
Continuous
100
AcDbLine
 10
0.0
 20
-6.5
 30
0.0
 11
-7.499998
 21
-6.5
 31
0.0
  0
LINE
  5
1D1
100
AcDbEntity
  8
0
370
    -3
  6
Continuous
100
AcDbLine
 10
-7.499999
 20
6.5
 30
0.0
 11
-7.999999
 21
5.633876
 31
0.0
  0
LINE
  5
1D2
100
AcDbEntity
  8
0
370
    -3
  6
Continuous
100
AcDbLine
 10
-7.499998
 20
-6.499999
 30
0.0
 11
-7.999999
 21
-5.63407
 31
0.0
  0
LINE
  5
1D3
100
AcDbEntity
  8
0
370
    -3
  6
Continuous
100
AcDbLine
 10
-7.499999
 20
6.5
 30
0.0
 11
-7.499999
 21
-6.5
 31
0.0
  0
ENDBLK
  5
1D4
100
AcDbEntity
  8
0
100
AcDbBlockEnd
  0
BLOCK
  5
1D7
100
AcDbEntity
  8
0
100
AcDbBlockBegin
  2
ZU_SYM__USERS_HOME_SYMBOL_POO_SYM_B20_00002-1
 70
    64
 10
0.0
 20
0.0
 30
0.0
  3
ZU_SYM__USERS_HOME_SYMBOL_POO_SYM_B20_00002-1
  1

  0
POINT
  5
1D8
100
AcDbEntity
  8
0
370
    -3
  6
Continuous
100
AcDbPoint
 10
0.0
 20
0.0
 30
0.0
  0
LINE
  5
1D9
100
AcDbEntity
  8
0
370
    -3
  6
Continuous
100
AcDbLine
 10
0.0
 20
-6.5
 30
0.0
 11
0.0
 21
6.5
 31
0.0
  0
LINE
  5
1DA
100
AcDbEntity
  8
0
370
    -3
  6
Continuous
100
AcDbLine
 10
-7.999999
 20
5.633876
 30
0.0
 11
-7.999999
 21
-5.63407
 31
0.0
  0
LINE
  5
1DB
100
AcDbEntity
  8
0
370
    -3
  6
Continuous
100
AcDbLine
 10
0.0
 20
6.5
 30
0.0
 11
-7.499999
 21
6.5
 31
0.0
  0
LINE
  5
1DC
100
AcDbEntity
  8
0
370
    -3
  6
Continuous
100
AcDbLine
 10
0.0
 20
-6.5
 30
0.0
 11
-7.499998
 21
-6.5
 31
0.0
  0
LINE
  5
1DD
100
AcDbEntity
  8
0
370
    -3
  6
Continuous
100
AcDbLine
 10
-7.499999
 20
6.5
 30
0.0
 11
-7.999999
 21
5.633876
 31
0.0
  0
LINE
  5
1DE
100
AcDbEntity
  8
0
370
    -3
  6
Continuous
100
AcDbLine
 10
-7.499998
 20
-6.499999
 30
0.0
 11
-7.999999
 21
-5.63407
 31
0.0
  0
LINE
  5
1DF
100
AcDbEntity
  8
0
370
    -3
  6
Continuous
100
AcDbLine
 10
-7.499999
 20
6.5
 30
0.0
 11
-7.499999
 21
-6.5
 31
0.0
  0
ENDBLK
  5
1E0
100
AcDbEntity
  8
0
100
AcDbBlockEnd
  0
BLOCK
  5
1E5
100
AcDbEntity
  8
0
100
AcDbBlockBegin
  2
ZU_SYM__USERS_HOME_SYMBOL_POO_SYM_B20_00003-1
 70
    64
 10
0.0
 20
0.0
 30
0.0
  3
ZU_SYM__USERS_HOME_SYMBOL_POO_SYM_B20_00003-1
  1

  0
POINT
  5
1E6
100
AcDbEntity
  8
0
370
    -3
  6
Continuous
100
AcDbPoint
 10
0.0
 20
0.0
 30
0.0
  0
LINE
  5
1E7
100
AcDbEntity
  8
0
370
    -3
  6
Continuous
100
AcDbLine
 10
0.0
 20
-6.5
 30
0.0
 11
0.0
 21
6.5
 31
0.0
  0
LINE
  5
1E8
100
AcDbEntity
  8
0
370
    -3
  6
Continuous
100
AcDbLine
 10
-7.999999
 20
5.633876
 30
0.0
 11
-7.999999
 21
-5.63407
 31
0.0
  0
LINE
  5
1E9
100
AcDbEntity
  8
0
370
    -3
  6
Continuous
100
AcDbLine
 10
0.0
 20
6.5
 30
0.0
 11
-7.499999
 21
6.5
 31
0.0
  0
LINE
  5
1EA
100
AcDbEntity
  8
0
370
    -3
  6
Continuous
100
AcDbLine
 10
0.0
 20
-6.5
 30
0.0
 11
-7.499998
 21
-6.5
 31
0.0
  0
LINE
  5
1EB
100
AcDbEntity
  8
0
370
    -3
  6
Continuous
100
AcDbLine
 10
-7.499999
 20
6.5
 30
0.0
 11
-7.999999
 21
5.633876
 31
0.0
  0
LINE
  5
1EC
100
AcDbEntity
  8
0
370
    -3
  6
Continuous
100
AcDbLine
 10
-7.499998
 20
-6.499999
 30
0.0
 11
-7.999999
 21
-5.63407
 31
0.0
  0
LINE
  5
1ED
100
AcDbEntity
  8
0
370
    -3
  6
Continuous
100
AcDbLine
 10
-7.499999
 20
6.5
 30
0.0
 11
-7.499999
 21
-6.5
 31
0.0
  0
ENDBLK
  5
1EE
100
AcDbEntity
  8
0
100
AcDbBlockEnd
  0
BLOCK
  5
1F1
100
AcDbEntity
  8
0
100
AcDbBlockBegin
  2
ZU_SYM__USERS_HOME_SYMBOL_POO_SYM_B20_00004-1
 70
    64
 10
0.0
 20
0.0
 30
0.0
  3
ZU_SYM__USERS_HOME_SYMBOL_POO_SYM_B20_00004-1
  1

  0
POINT
  5
1F2
100
AcDbEntity
  8
0
370
    -3
  6
Continuous
100
AcDbPoint
 10
0.0
 20
0.0
 30
0.0
  0
LINE
  5
1F3
100
AcDbEntity
  8
0
370
    -3
  6
Continuous
100
AcDbLine
 10
0.0
 20
-6.5
 30
0.0
 11
0.0
 21
6.5
 31
0.0
  0
LINE
  5
1F4
100
AcDbEntity
  8
0
370
    -3
  6
Continuous
100
AcDbLine
 10
-7.999999
 20
5.633876
 30
0.0
 11
-7.999999
 21
-5.63407
 31
0.0
  0
LINE
  5
1F5
100
AcDbEntity
  8
0
370
    -3
  6
Continuous
100
AcDbLine
 10
0.0
 20
6.5
 30
0.0
 11
-7.499999
 21
6.5
 31
0.0
  0
LINE
  5
1F6
100
AcDbEntity
  8
0
370
    -3
  6
Continuous
100
AcDbLine
 10
0.0
 20
-6.5
 30
0.0
 11
-7.499998
 21
-6.5
 31
0.0
  0
LINE
  5
1F7
100
AcDbEntity
  8
0
370
    -3
  6
Continuous
100
AcDbLine
 10
-7.499999
 20
6.5
 30
0.0
 11
-7.999999
 21
5.633876
 31
0.0
  0
LINE
  5
1F8
100
AcDbEntity
  8
0
370
    -3
  6
Continuous
100
AcDbLine
 10
-7.499998
 20
-6.499999
 30
0.0
 11
-7.999999
 21
-5.63407
 31
0.0
  0
LINE
  5
1F9
100
AcDbEntity
  8
0
370
    -3
  6
Continuous
100
AcDbLine
 10
-7.499999
 20
6.5
 30
0.0
 11
-7.499999
 21
-6.5
 31
0.0
  0
ENDBLK
  5
1FA
100
AcDbEntity
  8
0
100
AcDbBlockEnd
  0
BLOCK
  5
489
100
AcDbEntity
  8
0
100
AcDbBlockBegin
  2
ZU_SYM__USERS_HOME_SYMBOL_STD_SYM_B01_00005-1
 70
    64
 10
0.0
 20
0.0
 30
0.0
  3
ZU_SYM__USERS_HOME_SYMBOL_STD_SYM_B01_00005-1
  1

  0
POINT
  5
48A
100
AcDbEntity
  8
0
370
    -3
  6
Continuous
100
AcDbPoint
 10
0.0
 20
0.0
 30
0.0
  0
LINE
  5
48B
100
AcDbEntity
  8
0
370
    -3
  6
Continuous
100
AcDbLine
 10
-2.300001
 20
-4.0
 30
0.0
 11
-4.6
 21
-0.000001
 31
0.0
  0
LINE
  5
48C
100
AcDbEntity
  8
0
370
    -3
  6
Continuous
100
AcDbLine
 10
-4.6
 20
0.000001
 30
0.0
 11
-2.300001
 21
4.0
 31
0.0
  0
LINE
  5
48D
100
AcDbEntity
  8
0
370
    -3
  6
Continuous
100
AcDbLine
 10
-2.299999
 20
4.0
 30
0.0
 11
2.299999
 21
4.0
 31
0.0
  0
LINE
  5
48E
100
AcDbEntity
  8
0
370
    -3
  6
Continuous
100
AcDbLine
 10
2.300001
 20
4.0
 30
0.0
 11
4.6
 21
0.000001
 31
0.0
  0
LINE
  5
48F
100
AcDbEntity
  8
0
370
    -3
  6
Continuous
100
AcDbLine
 10
4.6
 20
-0.000001
 30
0.0
 11
2.300001
 21
-4.0
 31
0.0
  0
LINE
  5
490
100
AcDbEntity
  8
0
370
    -3
  6
Continuous
100
AcDbLine
 10
2.299999
 20
-4.0
 30
0.0
 11
-2.299999
 21
-4.0
 31
0.0
  0
CIRCLE
  5
491
100
AcDbEntity
  8
0
370
    -3
  6
Continuous
100
AcDbCircle
 10
0.0
 20
0.0
 30
0.0
 40
4.0
  0
ENDBLK
  5
492
100
AcDbEntity
  8
0
100
AcDbBlockEnd
  0
BLOCK
  5
495
100
AcDbEntity
  8
0
100
AcDbBlockBegin
  2
ZU_SYM__USERS_HOME_SYMBOL_STD_SYM_B01_00006-1
 70
    64
 10
0.0
 20
0.0
 30
0.0
  3
ZU_SYM__USERS_HOME_SYMBOL_STD_SYM_B01_00006-1
  1

  0
POINT
  5
496
100
AcDbEntity
  8
0
370
    -3
  6
Continuous
100
AcDbPoint
 10
0.0
 20
0.0
 30
0.0
  0
LINE
  5
497
100
AcDbEntity
  8
0
370
    -3
  6
Continuous
100
AcDbLine
 10
-2.300001
 20
-4.0
 30
0.0
 11
-4.6
 21
-0.000001
 31
0.0
  0
LINE
  5
498
100
AcDbEntity
  8
0
370
    -3
  6
Continuous
100
AcDbLine
 10
-4.6
 20
0.000001
 30
0.0
 11
-2.300001
 21
4.0
 31
0.0
  0
LINE
  5
499
100
AcDbEntity
  8
0
370
    -3
  6
Continuous
100
AcDbLine
 10
-2.299999
 20
4.0
 30
0.0
 11
2.299999
 21
4.0
 31
0.0
  0
LINE
  5
49A
100
AcDbEntity
  8
0
370
    -3
  6
Continuous
100
AcDbLine
 10
2.300001
 20
4.0
 30
0.0
 11
4.6
 21
0.000001
 31
0.0
  0
LINE
  5
49B
100
AcDbEntity
  8
0
370
    -3
  6
Continuous
100
AcDbLine
 10
4.6
 20
-0.000001
 30
0.0
 11
2.300001
 21
-4.0
 31
0.0
  0
LINE
  5
49C
100
AcDbEntity
  8
0
370
    -3
  6
Continuous
100
AcDbLine
 10
2.299999
 20
-4.0
 30
0.0
 11
-2.299999
 21
-4.0
 31
0.0
  0
CIRCLE
  5
49D
100
AcDbEntity
  8
0
370
    -3
  6
Continuous
100
AcDbCircle
 10
0.0
 20
0.0
 30
0.0
 40
4.0
  0
ENDBLK
  5
49E
100
AcDbEntity
  8
0
100
AcDbBlockEnd
  0
BLOCK
  5
4A1
100
AcDbEntity
  8
0
100
AcDbBlockBegin
  2
ZU_SYM__USERS_HOME_SYMBOL_STD_SYM_B01_00007-1
 70
    64
 10
0.0
 20
0.0
 30
0.0
  3
ZU_SYM__USERS_HOME_SYMBOL_STD_SYM_B01_00007-1
  1

  0
POINT
  5
4A2
100
AcDbEntity
  8
0
370
    -3
  6
Continuous
100
AcDbPoint
 10
0.0
 20
0.0
 30
0.0
  0
LINE
  5
4A3
100
AcDbEntity
  8
0
370
    -3
  6
Continuous
100
AcDbLine
 10
-2.300001
 20
-4.0
 30
0.0
 11
-4.6
 21
-0.000001
 31
0.0
  0
LINE
  5
4A4
100
AcDbEntity
  8
0
370
    -3
  6
Continuous
100
AcDbLine
 10
-4.6
 20
0.000001
 30
0.0
 11
-2.300001
 21
4.0
 31
0.0
  0
LINE
  5
4A5
100
AcDbEntity
  8
0
370
    -3
  6
Continuous
100
AcDbLine
 10
-2.299999
 20
4.0
 30
0.0
 11
2.299999
 21
4.0
 31
0.0
  0
LINE
  5
4A6
100
AcDbEntity
  8
0
370
    -3
  6
Continuous
100
AcDbLine
 10
2.300001
 20
4.0
 30
0.0
 11
4.6
 21
0.000001
 31
0.0
  0
LINE
  5
4A7
100
AcDbEntity
  8
0
370
    -3
  6
Continuous
100
AcDbLine
 10
4.6
 20
-0.000001
 30
0.0
 11
2.300001
 21
-4.0
 31
0.0
  0
LINE
  5
4A8
100
AcDbEntity
  8
0
370
    -3
  6
Continuous
100
AcDbLine
 10
2.299999
 20
-4.0
 30
0.0
 11
-2.299999
 21
-4.0
 31
0.0
  0
CIRCLE
  5
4A9
100
AcDbEntity
  8
0
370
    -3
  6
Continuous
100
AcDbCircle
 10
0.0
 20
0.0
 30
0.0
 40
4.0
  0
ENDBLK
  5
4AA
100
AcDbEntity
  8
0
100
AcDbBlockEnd
  0
BLOCK
  5
4AD
100
AcDbEntity
  8
0
100
AcDbBlockBegin
  2
ZU_SYM__USERS_HOME_SYMBOL_STD_SYM_B01_00008-1
 70
    64
 10
0.0
 20
0.0
 30
0.0
  3
ZU_SYM__USERS_HOME_SYMBOL_STD_SYM_B01_00008-1
  1

  0
POINT
  5
4AE
100
AcDbEntity
  8
0
370
    -3
  6
Continuous
100
AcDbPoint
 10
0.0
 20
0.0
 30
0.0
  0
LINE
  5
4AF
100
AcDbEntity
  8
0
370
    -3
  6
Continuous
100
AcDbLine
 10
-2.300001
 20
-4.0
 30
0.0
 11
-4.6
 21
-0.000001
 31
0.0
  0
LINE
  5
4B0
100
AcDbEntity
  8
0
370
    -3
  6
Continuous
100
AcDbLine
 10
-4.6
 20
0.000001
 30
0.0
 11
-2.300001
 21
4.0
 31
0.0
  0
LINE
  5
4B1
100
AcDbEntity
  8
0
370
    -3
  6
Continuous
100
AcDbLine
 10
-2.299999
 20
4.0
 30
0.0
 11
2.299999
 21
4.0
 31
0.0
  0
LINE
  5
4B2
100
AcDbEntity
  8
0
370
    -3
  6
Continuous
100
AcDbLine
 10
2.300001
 20
4.0
 30
0.0
 11
4.6
 21
0.000001
 31
0.0
  0
LINE
  5
4B3
100
AcDbEntity
  8
0
370
    -3
  6
Continuous
100
AcDbLine
 10
4.6
 20
-0.000001
 30
0.0
 11
2.300001
 21
-4.0
 31
0.0
  0
LINE
  5
4B4
100
AcDbEntity
  8
0
370
    -3
  6
Continuous
100
AcDbLine
 10
2.299999
 20
-4.0
 30
0.0
 11
-2.299999
 21
-4.0
 31
0.0
  0
CIRCLE
  5
4B5
100
AcDbEntity
  8
0
370
    -3
  6
Continuous
100
AcDbCircle
 10
0.0
 20
0.0
 30
0.0
 40
4.0
  0
ENDBLK
  5
4B6
100
AcDbEntity
  8
0
100
AcDbBlockEnd
  0
ENDSEC
  0
SECTION
  2
ENTITIES
  0
LINE
  5
2B
100
AcDbEntity
  8
0
370
    -3
  6
CENTER
100
AcDbLine
 10
-319.537175
 20
185.610087
 30
0.0
 11
-279.230689
 21
185.610087
 31
0.0
  0
LINE
  5
2C
100
AcDbEntity
  8
0
370
    -3
  6
Continuous
100
AcDbLine
 10
-315.058552
 20
168.610087
 30
0.0
 11
-288.469267
 21
168.610087
 31
0.0
  0
ARC
  5
2D
100
AcDbEntity
  8
0
370
    -3
  6
Continuous
100
AcDbCircle
 10
-315.058552
 20
170.610087
 30
0.0
 40
2.0
100
AcDbArc
 50
180.0
 51
270.0
  0
LINE
  5
2E
100
AcDbEntity
  8
0
370
    -3
  6
Continuous
100
AcDbLine
 10
-317.058552
 20
185.610087
 30
0.0
 11
-317.058552
 21
170.610087
 31
0.0
  0
LINE
  5
2F
100
AcDbEntity
  8
0
370
    -3
  6
Continuous
100
AcDbLine
 10
-315.058552
 20
202.610087
 30
0.0
 11
-288.058552
 21
202.610087
 31
0.0
  0
ARC
  5
30
100
AcDbEntity
  8
0
370
    -3
  6
Continuous
100
AcDbCircle
 10
-315.058552
 20
200.610087
 30
0.0
 40
2.0
100
AcDbArc
 50
90.0
 51
180.0
  0
LINE
  5
31
100
AcDbEntity
  8
0
370
    -3
  6
Continuous
100
AcDbLine
 10
-317.058552
 20
185.610087
 30
0.0
 11
-317.058552
 21
200.610087
 31
0.0
  0
LINE
  5
32
100
AcDbEntity
  8
0
370
    -3
  6
Continuous
100
AcDbLine
 10
-290.058552
 20
185.610087
 30
0.0
 11
-290.058552
 21
168.610087
 31
0.0
  0
LINE
  5
33
100
AcDbEntity
  8
0
370
    -3
  6
Continuous
100
AcDbLine
 10
-290.058552
 20
185.610087
 30
0.0
 11
-290.058552
 21
202.610087
 31
0.0
  0
LINE
  5
34
100
AcDbEntity
  8
0
370
    -3
  6
Continuous
100
AcDbLine
 10
-261.575707
 20
218.610087
 30
0.0
 11
-270.233205
 21
218.610087
 31
0.0
  0
LINE
  5
35
100
AcDbEntity
  8
0
370
    -3
  6
Continuous
100
AcDbLine
 10
-243.058552
 20
212.610087
 30
0.0
 11
-212.058552
 21
212.610087
 31
0.0
  0
LINE
  5
36
100
AcDbEntity
  8
0
370
    -3
  6
Continuous
100
AcDbLine
 10
-243.058552
 20
212.610087
 30
0.0
 11
-274.058552
 21
212.610087
 31
0.0
  0
LINE
  5
37
100
AcDbEntity
  8
0
370
    -3
  6
Continuous
100
AcDbLine
 10
-274.058552
 20
212.610087
 30
0.0
 11
-212.058552
 21
212.610087
 31
0.0
  0
ARC
  5
38
100
AcDbEntity
  8
0
370
    -3
  6
Continuous
100
AcDbCircle
 10
-272.323463
 20
210.910087
 30
0.0
 40
0.3
100
AcDbArc
 50
270.0
 51
346.657636
  0
ARC
  5
39
100
AcDbEntity
  8
0
370
    -3
  6
Continuous
100
AcDbCircle
 10
-213.793641
 20
210.910087
 30
0.0
 40
0.3
100
AcDbArc
 50
193.342364
 51
270.0
  0
ARC
  5
3A
100
AcDbEntity
  8
0
370
    -3
  6
Continuous
100
AcDbCircle
 10
-281.258552
 20
203.810087
 30
0.0
 40
6.8
100
AcDbArc
 50
90.0
 51
180.0
  0
ARC
  5
3B
100
AcDbEntity
  8
0
370
    -3
  6
Continuous
100
AcDbCircle
 10
-211.620398
 20
206.810087
 30
0.0
 40
3.8
100
AcDbArc
 50
25.0
 51
90.0
  0
LINE
  5
3C
100
AcDbEntity
  8
0
370
    -3
  6
Continuous
100
AcDbLine
 10
-294.942138
 20
161.178226
 30
0.0
 11
-296.632611
 21
164.803457
 31
0.0
  0
ARC
  5
3D
100
AcDbEntity
  8
0
370
    -3
  6
Continuous
100
AcDbCircle
 10
-293.310784
 20
161.938939
 30
0.0
 40
1.8
100
AcDbArc
 50
205.0
 51
295.0
  0
LINE
  5
3E
100
AcDbEntity
  8
0
370
    -3
  6
Continuous
100
AcDbLine
 10
-198.329728
 20
206.229333
 30
0.0
 11
-200.020201
 21
209.854564
 31
0.0
  0
ARC
  5
3F
100
AcDbEntity
  8
0
370
    -3
  6
Continuous
100
AcDbCircle
 10
-199.961082
 20
205.46862
 30
0.0
 40
1.8
100
AcDbArc
 50
295.0
 51
25.0
  0
LINE
  5
40
100
AcDbEntity
  8
0
370
    -3
  6
CENTER
100
AcDbLine
 10
-205.89589
 20
203.998647
 30
0.0
 11
-203.02597
 21
197.844082
 31
0.0
  0
POINT
  5
41
100
AcDbEntity
  8
0
370
    -3
  6
Continuous
100
AcDbPoint
 10
-204.661927
 20
201.2905
 30
0.0
  0
LINE
  5
42
100
AcDbEntity
  8
0
370
    -3
  6
CENTER
100
AcDbLine
 10
-288.369899
 20
165.540385
 30
0.0
 11
-285.499978
 21
159.38582
 31
0.0
  0
ARC
  5
43
100
AcDbEntity
  8
0
370
    -3
  6
Continuous
100
AcDbCircle
 10
-223.548457
 20
173.326389
 30
0.0
 40
10.8
100
AcDbArc
 50
272.437505
 51
342.341575
  0
ARC
  5
44
100
AcDbEntity
  8
0
370
    -3
  6
Continuous
100
AcDbCircle
 10
-289.816982
 20
168.643664
 30
0.0
 40
9.0
100
AcDbArc
 50
278.398469
 51
311.601548
  0
POINT
  5
45
100
AcDbEntity
  8
0
370
    -3
  6
Continuous
100
AcDbPoint
 10
-287.112225
 20
162.843294
 30
0.0
  0
LINE
  5
46
100
AcDbEntity
  8
0
370
    -3
  6
Continuous
100
AcDbLine
 10
-283.940148
 20
164.322458
 30
0.0
 11
-283.526394
 21
163.43516
 31
0.0
  0
LINE
  5
47
100
AcDbEntity
  8
0
370
    -3
  6
Continuous
100
AcDbLine
 10
-290.284302
 20
161.36413
 30
0.0
 11
-289.870548
 21
160.476832
 31
0.0
  0
ARC
  5
48
100
AcDbEntity
  8
0
370
    -3
  6
Continuous
100
AcDbCircle
 10
-284.704593
 20
162.885757
 30
0.0
 40
1.299999
100
AcDbArc
 50
311.601548
 51
25.000018
  0
ARC
  5
49
100
AcDbEntity
  8
0
370
    -3
  6
Continuous
100
AcDbCircle
 10
-288.692349
 20
161.026236
 30
0.0
 40
1.299999
100
AcDbArc
 50
204.999999
 51
278.398469
  0
LINE
  5
4A
100
AcDbEntity
  8
0
370
    -3
  6
Continuous
100
AcDbLine
 10
-201.466139
 20
202.78072
 30
0.0
 11
-201.052385
 21
201.893422
 31
0.0
  0
LINE
  5
4B
100
AcDbEntity
  8
0
370
    -3
  6
CENTER
100
AcDbLine
 10
-205.89589
 20
203.998647
 30
0.0
 11
-203.02597
 21
197.844082
 31
0.0
  0
ARC
  5
4C
100
AcDbEntity
  8
0
370
    -3
  6
Continuous
100
AcDbCircle
 10
-202.230584
 20
201.344018
 30
0.0
 40
1.299999
100
AcDbArc
 50
311.601548
 51
25.000018
  0
ARC
  5
4D
100
AcDbEntity
  8
0
370
    -3
  6
Continuous
100
AcDbCircle
 10
-207.342973
 20
207.101926
 30
0.0
 40
9.0
100
AcDbArc
 50
278.398469
 51
311.601548
  0
LINE
  5
4E
100
AcDbEntity
  8
0
370
    -3
  6
Continuous
100
AcDbLine
 10
-207.810293
 20
199.822392
 30
0.0
 11
-207.396539
 21
198.935094
 31
0.0
  0
ARC
  5
4F
100
AcDbEntity
  8
0
370
    -3
  6
Continuous
100
AcDbCircle
 10
-206.21834
 20
199.484497
 30
0.0
 40
1.299999
100
AcDbArc
 50
204.999999
 51
278.398469
  0
LINE
  5
50
100
AcDbEntity
  8
0
370
    -3
  6
Continuous
100
AcDbLine
 10
-212.058552
 20
212.610087
 30
0.0
 11
-212.058552
 21
211.610087
 31
0.0
  0
LINE
  5
51
100
AcDbEntity
  8
0
370
    -3
  6
Continuous
100
AcDbLine
 10
-274.058552
 20
212.610087
 30
0.0
 11
-274.058552
 21
211.610087
 31
0.0
  0
LINE
  5
52
100
AcDbEntity
  8
0
370
    -3
  6
Continuous
100
AcDbLine
 10
-274.058552
 20
211.610087
 30
0.0
 11
-212.058552
 21
211.610087
 31
0.0
  0
LINE
  5
53
100
AcDbEntity
  8
0
370
    -3
  6
CENTER
100
AcDbLine
 10
-319.537175
 20
185.610087
 30
0.0
 11
-279.230689
 21
185.610087
 31
0.0
  0
LINE
  5
54
100
AcDbEntity
  8
0
370
    -3
  6
Continuous
100
AcDbLine
 10
-199.200369
 20
203.837266
 30
0.0
 11
-292.550072
 21
160.307585
 31
0.0
  0
ARC
  5
55
100
AcDbEntity
  8
0
370
    -3
  6
Continuous
100
AcDbCircle
 10
-212.137576
 20
194.494413
 30
0.0
 40
3.0
100
AcDbArc
 50
115.0
 51
205.0
  0
LINE
  5
56
100
AcDbEntity
  8
0
370
    -3
  6
Continuous
100
AcDbLine
 10
-210.121073
 20
183.071403
 30
0.0
 11
-214.8565
 21
193.226559
 31
0.0
  0
ARC
  5
57
100
AcDbEntity
  8
0
370
    -3
  6
Continuous
100
AcDbCircle
 10
-271.14554
 20
165.216169
 30
0.0
 40
2.8
100
AcDbArc
 50
205.0
 51
267.843273
  0
LINE
  5
58
100
AcDbEntity
  8
0
370
    -3
  6
Continuous
100
AcDbLine
 10
-274.358232
 20
165.480445
 30
0.0
 11
-273.683202
 21
164.032838
 31
0.0
  0
ARC
  5
59
100
AcDbEntity
  8
0
370
    -3
  6
Continuous
100
AcDbCircle
 10
-277.077155
 20
164.21259
 30
0.0
 40
3.0
100
AcDbArc
 50
25.0
 51
115.0
  0
ARC
  5
5A
100
AcDbEntity
  8
0
370
    -3
  6
Continuous
100
AcDbCircle
 10
-212.658735
 20
181.888072
 30
0.0
 40
2.8
100
AcDbArc
 50
344.545811
 51
25.0
  0
ARC
  5
5B
100
AcDbEntity
  8
0
370
    -3
  6
Continuous
100
AcDbCircle
 10
-248.64095
 20
762.79256
 30
0.0
 40
600.8
100
AcDbArc
 50
266.682408
 51
272.437505
  0
ARC
  5
5C
100
AcDbEntity
  8
0
370
    -3
  6
Continuous
100
AcDbCircle
 10
-499.884191
 20
261.295484
 30
0.0
 40
300.8
100
AcDbArc
 50
342.341575
 51
347.89975
  0
ARC
  5
5D
100
AcDbEntity
  8
0
370
    -3
  6
Continuous
100
AcDbCircle
 10
-225.743635
 20
206.810087
 30
0.0
 40
3.8
100
AcDbArc
 50
25.0
 51
90.0
  0
LINE
  5
5E
100
AcDbEntity
  8
0
370
    -3
  6
Continuous
100
AcDbLine
 10
-218.871403
 20
201.064104
 30
0.0
 11
-222.299666
 21
208.416036
 31
0.0
  0
LINE
  5
5F
100
AcDbEntity
  8
0
370
    -3
  6
Continuous
100
AcDbLine
 10
-200.020201
 20
209.854564
 30
0.0
 11
-288.469267
 21
168.610087
 31
0.0
  0
LINE
  5
60
100
AcDbEntity
  8
0
370
    -3
  6
Continuous
100
AcDbLine
 10
-288.469267
 20
168.610087
 30
0.0
 11
-296.632611
 21
164.803457
 31
0.0
  0
LINE
  5
61
100
AcDbEntity
  8
0
370
    -3
  6
Continuous
100
AcDbLine
 10
-288.058552
 20
168.801607
 30
0.0
 11
-288.058552
 21
203.810087
 31
0.0
  0
LINE
  5
62
100
AcDbEntity
  8
0
370
    -3
  6
Continuous
100
AcDbLine
 10
-207.270664
 20
206.473618
 30
0.0
 11
-208.176428
 21
208.416036
 31
0.0
  0
ARC
  5
63
100
AcDbEntity
  8
0
370
    -3
  6
Continuous
100
AcDbCircle
 10
-215.058552
 20
210.610087
 30
0.0
 40
1.0
100
AcDbArc
 50
13.342364
 51
90.0
  0
LINE
  5
64
100
AcDbEntity
  8
0
370
    -3
  6
Continuous
100
AcDbLine
 10
-281.258552
 20
210.610087
 30
0.0
 11
-211.620398
 21
210.610087
 31
0.0
  0
ARC
  5
65
100
AcDbEntity
  8
0
370
    -3
  6
Continuous
100
AcDbCircle
 10
-271.058552
 20
210.610087
 30
0.0
 40
1.0
100
AcDbArc
 50
90.0
 51
166.657636
  0
LINE
  5
66
100
AcDbEntity
  8
0
370
    -3
  6
Continuous
100
AcDbLine
 10
-276.382858
 20
174.246072
 30
0.0
 11
-276.382858
 21
207.610087
 31
0.0
  0
ARC
  5
67
100
AcDbEntity
  8
0
370
    -3
  6
Continuous
100
AcDbCircle
 10
-273.382858
 20
207.610087
 30
0.0
 40
3.0
100
AcDbArc
 50
90.0
 51
180.0
  0
LINE
  5
68
100
AcDbEntity
  8
0
370
    -3
  6
CENTER
100
AcDbLine
 10
-243.058552
 20
223.387504
 30
0.0
 11
-243.058552
 21
200.477528
 31
0.0
  0
POINT
  5
69
100
AcDbEntity
  8
0
370
    -3
  6
CENTER
100
AcDbPoint
 10
-317.058552
 20
172.389587
 30
0.0
  0
POINT
  5
6A
100
AcDbEntity
  8
0
370
    -3
  6
CENTER
100
AcDbPoint
 10
-317.058552
 20
198.830587
 30
0.0
  0
ARC
  5
6B
100
AcDbEntity
  8
0
370
    -3
  6
Continuous
100
AcDbCircle
 10
-270.539522
 20
218.110087
 30
0.0
 40
0.5
100
AcDbArc
 50
90.0
 51
180.0
  0
LINE
  5
6C
100
AcDbEntity
  8
0
370
    -3
  6
Continuous
100
AcDbLine
 10
-224.541396
 20
218.610087
 30
0.0
 11
-215.577581
 21
218.610087
 31
0.0
  0
ARC
  5
6D
100
AcDbEntity
  8
0
370
    -3
  6
Continuous
100
AcDbCircle
 10
-215.577581
 20
218.110087
 30
0.0
 40
0.5
100
AcDbArc
 50
0.0
 51
90.0
  0
LINE
  5
6E
100
AcDbEntity
  8
0
370
    -3
  6
Continuous
100
AcDbLine
 10
-215.077581
 20
218.110087
 30
0.0
 11
-215.077581
 21
217.110087
 31
0.0
  0
ARC
  5
6F
100
AcDbEntity
  8
0
370
    -3
  6
Continuous
100
AcDbCircle
 10
-214.577581
 20
217.110087
 30
0.0
 40
0.5
100
AcDbArc
 50
180.0
 51
270.0
  0
ARC
  5
70
100
AcDbEntity
  8
0
370
    -3
  6
Continuous
100
AcDbCircle
 10
-224.577581
 20
218.110087
 30
0.0
 40
0.5
100
AcDbArc
 50
90.0
 51
180.0
  0
LINE
  5
71
100
AcDbEntity
  8
0
370
    -3
  6
Continuous
100
AcDbLine
 10
-225.077581
 20
218.110087
 30
0.0
 11
-225.077581
 21
217.110087
 31
0.0
  0
ARC
  5
72
100
AcDbEntity
  8
0
370
    -3
  6
Continuous
100
AcDbCircle
 10
-225.577581
 20
217.110087
 30
0.0
 40
0.5
100
AcDbArc
 50
270.0
 51
0.0
  0
ARC
  5
73
100
AcDbEntity
  8
0
370
    -3
  6
Continuous
100
AcDbCircle
 10
-261.539522
 20
218.110087
 30
0.0
 40
0.5
100
AcDbArc
 50
0.0
 51
90.0
  0
LINE
  5
74
100
AcDbEntity
  8
0
370
    -3
  6
Continuous
100
AcDbLine
 10
-261.539522
 20
218.610087
 30
0.0
 11
-270.233205
 21
218.610087
 31
0.0
  0
LINE
  5
75
100
AcDbEntity
  8
0
370
    -3
  6
Continuous
100
AcDbLine
 10
-261.039522
 20
218.110087
 30
0.0
 11
-261.039522
 21
217.110087
 31
0.0
  0
ARC
  5
76
100
AcDbEntity
  8
0
370
    -3
  6
Continuous
100
AcDbCircle
 10
-260.539522
 20
217.110087
 30
0.0
 40
0.5
100
AcDbArc
 50
180.0
 51
270.0
  0
ARC
  5
77
100
AcDbEntity
  8
0
370
    -3
  6
Continuous
100
AcDbCircle
 10
-271.539522
 20
217.110087
 30
0.0
 40
0.5
100
AcDbArc
 50
270.0
 51
0.0
  0
LINE
  5
78
100
AcDbEntity
  8
0
370
    -3
  6
Continuous
100
AcDbLine
 10
-271.039522
 20
218.110087
 30
0.0
 11
-271.039522
 21
217.110087
 31
0.0
  0
LINE
  5
79
100
AcDbEntity
  8
0
370
    -3
  6
Continuous
100
AcDbLine
 10
-269.59427
 20
222.172104
 30
0.0
 11
-269.984774
 21
219.04807
 31
0.0
  0
LINE
  5
7A
100
AcDbEntity
  8
0
370
    -3
  6
Continuous
100
AcDbLine
 10
-262.484774
 20
222.172104
 30
0.0
 11
-262.09427
 21
219.04807
 31
0.0
  0
ARC
  5
7B
100
AcDbEntity
  8
0
370
    -3
  6
Continuous
100
AcDbCircle
 10
-261.598131
 20
219.110087
 30
0.0
 40
0.5
100
AcDbArc
 50
187.125016
 51
270.0
  0
ARC
  5
7C
100
AcDbEntity
  8
0
370
    -3
  6
Continuous
100
AcDbCircle
 10
-270.480913
 20
219.110087
 30
0.0
 40
0.5
100
AcDbArc
 50
270.0
 51
352.874984
  0
LINE
  5
7D
100
AcDbEntity
  8
0
370
    -3
  6
Continuous
100
AcDbLine
 10
-216.522833
 20
222.172104
 30
0.0
 11
-216.132329
 21
219.04807
 31
0.0
  0
ARC
  5
7E
100
AcDbEntity
  8
0
370
    -3
  6
Continuous
100
AcDbCircle
 10
-215.63619
 20
219.110087
 30
0.0
 40
0.5
100
AcDbArc
 50
187.125016
 51
270.0
  0
LINE
  5
7F
100
AcDbEntity
  8
0
370
    -3
  6
Continuous
100
AcDbLine
 10
-223.632329
 20
222.172104
 30
0.0
 11
-224.022833
 21
219.04807
 31
0.0
  0
ARC
  5
80
100
AcDbEntity
  8
0
370
    -3
  6
Continuous
100
AcDbCircle
 10
-224.518972
 20
219.110087
 30
0.0
 40
0.5
100
AcDbArc
 50
270.0
 51
352.874984
  0
LINE
  5
81
100
AcDbEntity
  8
0
370
    -3
  6
Continuous
100
AcDbLine
 10
-206.308552
 20
220.115499
 30
0.0
 11
-206.308552
 21
218.610087
 31
0.0
  0
LINE
  5
82
100
AcDbEntity
  8
0
370
    -3
  6
Continuous
100
AcDbLine
 10
-270.740286
 20
218.610087
 30
0.0
 11
-206.308552
 21
218.610087
 31
0.0
  0
LINE
  5
83
100
AcDbEntity
  8
0
370
    -3
  6
CENTER
100
AcDbLine
 10
-220.077581
 20
225.919974
 30
0.0
 11
-220.077581
 21
210.585448
 31
0.0
  0
LINE
  5
84
100
AcDbEntity
  8
0
370
    -3
  6
Continuous
100
AcDbLine
 10
-262.611238
 20
216.610087
 30
0.0
 11
-275.663295
 21
216.610087
 31
0.0
  0
LINE
  5
85
100
AcDbEntity
  8
0
370
    -3
  6
Continuous
100
AcDbLine
 10
-223.505866
 20
216.610087
 30
0.0
 11
-210.453808
 21
216.610087
 31
0.0
  0
LINE
  5
86
100
AcDbEntity
  8
0
370
    -3
  6
Continuous
100
AcDbLine
 10
-274.584395
 20
212.610087
 30
0.0
 11
-211.532709
 21
212.610087
 31
0.0
  0
LINE
  5
87
100
AcDbEntity
  8
0
370
    -3
  6
CENTER
100
AcDbLine
 10
-266.039522
 20
225.498946
 30
0.0
 11
-266.039522
 21
210.585448
 31
0.0
  0
ARC
  5
88
100
AcDbEntity
  8
0
370
    -3
  6
Continuous
100
AcDbCircle
 10
-211.532709
 20
213.610087
 30
0.0
 40
1.0
100
AcDbArc
 50
270.0
 51
358.5
  0
ARC
  5
89
100
AcDbEntity
  8
0
370
    -3
  6
Continuous
100
AcDbCircle
 10
-274.584395
 20
213.610087
 30
0.0
 40
1.0
100
AcDbArc
 50
181.5
 51
270.0
  0
LINE
  5
8A
100
AcDbEntity
  8
0
370
    -3
  6
Continuous
100
AcDbLine
 10
-275.663295
 20
216.610087
 30
0.0
 11
-275.584052
 21
213.58391
 31
0.0
  0
LINE
  5
8B
100
AcDbEntity
  8
0
370
    -3
  6
Continuous
100
AcDbLine
 10
-210.453808
 20
216.610087
 30
0.0
 11
-210.533051
 21
213.58391
 31
0.0
  0
LINE
  5
8C
100
AcDbEntity
  8
0
370
    -3
  6
Continuous
100
AcDbLine
 10
-223.505866
 20
216.610087
 30
0.0
 11
-262.611238
 21
216.610087
 31
0.0
  0
ARC
  5
8D
100
AcDbEntity
  8
0
370
    -3
  6
Continuous
100
AcDbCircle
 10
-217.018972
 20
222.110087
 30
0.0
 40
0.5
100
AcDbArc
 50
7.125016
 51
90.0
  0
ARC
  5
8E
100
AcDbEntity
  8
0
370
    -3
  6
Continuous
100
AcDbCircle
 10
-223.13619
 20
222.110087
 30
0.0
 40
0.5
100
AcDbArc
 50
90.0
 51
172.874984
  0
LINE
  5
8F
100
AcDbEntity
  8
0
370
    -3
  6
Continuous
100
AcDbLine
 10
-217.018972
 20
222.610087
 30
0.0
 11
-223.13006
 21
222.610087
 31
0.0
  0
ARC
  5
90
100
AcDbEntity
  8
0
370
    -3
  6
Continuous
100
AcDbCircle
 10
-262.980913
 20
222.110087
 30
0.0
 40
0.5
100
AcDbArc
 50
7.125016
 51
90.0
  0
LINE
  5
91
100
AcDbEntity
  8
0
370
    -3
  6
Continuous
100
AcDbLine
 10
-269.098131
 20
222.610087
 30
0.0
 11
-262.987043
 21
222.610087
 31
0.0
  0
ARC
  5
92
100
AcDbEntity
  8
0
370
    -3
  6
Continuous
100
AcDbCircle
 10
-269.098131
 20
222.110087
 30
0.0
 40
0.5
100
AcDbArc
 50
90.0
 51
172.874984
  0
LINE
  5
93
100
AcDbEntity
  8
0
370
    -3
  6
Continuous
100
AcDbLine
 10
-284.058552
 20
220.115499
 30
0.0
 11
-269.851346
 21
220.115499
 31
0.0
  0
LINE
  5
94
100
AcDbEntity
  8
0
370
    -3
  6
Continuous
100
AcDbLine
 10
-284.058552
 20
222.615499
 30
0.0
 11
-145.058552
 21
222.615499
 31
0.0
  0
LINE
  5
95
100
AcDbEntity
  8
0
370
    -3
  6
Continuous
100
AcDbLine
 10
-284.058552
 20
223.615499
 30
0.0
 11
-145.058552
 21
223.615499
 31
0.0
  0
LINE
  5
96
100
AcDbEntity
  8
0
370
    -3
  6
Continuous
100
AcDbLine
 10
-284.058552
 20
224.615499
 30
0.0
 11
-145.058552
 21
224.615499
 31
0.0
  0
LINE
  5
97
100
AcDbEntity
  8
0
370
    -3
  6
Continuous
100
AcDbLine
 10
-284.058552
 20
264.615499
 30
0.0
 11
-146.058551
 21
264.615499
 31
0.0
  0
LINE
  5
98
100
AcDbEntity
  8
0
370
    -3
  6
Continuous
100
AcDbLine
 10
-284.058552
 20
336.615499
 30
0.0
 11
-145.058552
 21
336.615499
 31
0.0
  0
LINE
  5
99
100
AcDbEntity
  8
0
370
    -3
  6
Continuous
100
AcDbLine
 10
-284.058552
 20
335.615499
 30
0.0
 11
-145.058552
 21
335.615499
 31
0.0
  0
LINE
  5
9A
100
AcDbEntity
  8
0
370
    -3
  6
Continuous
100
AcDbLine
 10
-284.058552
 20
334.615499
 30
0.0
 11
-145.058552
 21
334.615499
 31
0.0
  0
LINE
  5
9B
100
AcDbEntity
  8
0
370
    -3
  6
Continuous
100
AcDbLine
 10
-284.058552
 20
329.931034
 30
0.0
 11
-145.058552
 21
329.931034
 31
0.0
  0
LINE
  5
9C
100
AcDbEntity
  8
0
370
    -3
  6
Continuous
100
AcDbLine
 10
-284.058552
 20
324.981286
 30
0.0
 11
-145.058552
 21
324.981286
 31
0.0
  0
LINE
  5
9D
100
AcDbEntity
  8
0
370
    -3
  6
Continuous
100
AcDbLine
 10
-284.058552
 20
294.615499
 30
0.0
 11
-146.058551
 21
294.615499
 31
0.0
  0
LINE
  5
9E
100
AcDbEntity
  8
0
370
    -3
  6
Continuous
100
AcDbLine
 10
-284.058552
 20
339.115499
 30
0.0
 11
-145.058552
 21
339.115499
 31
0.0
  0
LINE
  5
9F
100
AcDbEntity
  8
0
370
    -3
  6
Continuous
100
AcDbLine
 10
-284.058552
 20
234.238888
 30
0.0
 11
-145.058552
 21
234.238888
 31
0.0
  0
LINE
  5
A0
100
AcDbEntity
  8
0
370
    -3
  6
Continuous
100
AcDbLine
 10
-284.058552
 20
229.28914
 30
0.0
 11
-145.058552
 21
229.28914
 31
0.0
  0
LINE
  5
A1
100
AcDbEntity
  8
0
370
    -3
  6
Continuous
100
AcDbLine
 10
-284.058552
 20
260.610049
 30
0.0
 11
-145.058552
 21
260.610049
 31
0.0
  0
LINE
  5
A2
100
AcDbEntity
  8
0
370
    -3
  6
Continuous
100
AcDbLine
 10
-284.058552
 20
258.581537
 30
0.0
 11
-145.058552
 21
258.581537
 31
0.0
  0
LINE
  5
A3
100
AcDbEntity
  8
0
370
    -3
  6
Continuous
100
AcDbLine
 10
-284.058552
 20
255.151116
 30
0.0
 11
-145.058552
 21
255.151116
 31
0.0
  0
LINE
  5
A4
100
AcDbEntity
  8
0
370
    -3
  6
Continuous
100
AcDbLine
 10
-284.058552
 20
253.026891
 30
0.0
 11
-145.058552
 21
253.026891
 31
0.0
  0
LINE
  5
A5
100
AcDbEntity
  8
0
370
    -3
  6
Continuous
100
AcDbLine
 10
-284.058552
 20
249.694381
 30
0.0
 11
-145.058552
 21
249.694381
 31
0.0
  0
LINE
  5
A6
100
AcDbEntity
  8
0
370
    -3
  6
Continuous
100
AcDbLine
 10
-284.058552
 20
247.464978
 30
0.0
 11
-145.058552
 21
247.464978
 31
0.0
  0
LINE
  5
A7
100
AcDbEntity
  8
0
370
    -3
  6
Continuous
100
AcDbLine
 10
-284.058552
 20
244.256379
 30
0.0
 11
-145.058552
 21
244.256379
 31
0.0
  0
LINE
  5
A8
100
AcDbEntity
  8
0
370
    -3
  6
Continuous
100
AcDbLine
 10
-284.058552
 20
241.919679
 30
0.0
 11
-145.058552
 21
241.919679
 31
0.0
  0
LINE
  5
A9
100
AcDbEntity
  8
0
370
    -3
  6
Continuous
100
AcDbLine
 10
-284.058552
 20
298.62095
 30
0.0
 11
-145.058552
 21
298.62095
 31
0.0
  0
LINE
  5
AA
100
AcDbEntity
  8
0
370
    -3
  6
Continuous
100
AcDbLine
 10
-284.058552
 20
300.649462
 30
0.0
 11
-145.058552
 21
300.649462
 31
0.0
  0
LINE
  5
AB
100
AcDbEntity
  8
0
370
    -3
  6
Continuous
100
AcDbLine
 10
-284.058552
 20
304.079883
 30
0.0
 11
-145.058552
 21
304.079883
 31
0.0
  0
LINE
  5
AC
100
AcDbEntity
  8
0
370
    -3
  6
Continuous
100
AcDbLine
 10
-284.058552
 20
306.204108
 30
0.0
 11
-145.058552
 21
306.204108
 31
0.0
  0
LINE
  5
AD
100
AcDbEntity
  8
0
370
    -3
  6
Continuous
100
AcDbLine
 10
-284.058552
 20
309.536617
 30
0.0
 11
-145.058552
 21
309.536617
 31
0.0
  0
LINE
  5
AE
100
AcDbEntity
  8
0
370
    -3
  6
Continuous
100
AcDbLine
 10
-284.058552
 20
311.766021
 30
0.0
 11
-145.058552
 21
311.766021
 31
0.0
  0
LINE
  5
AF
100
AcDbEntity
  8
0
370
    -3
  6
Continuous
100
AcDbLine
 10
-284.058552
 20
314.97462
 30
0.0
 11
-145.058552
 21
314.97462
 31
0.0
  0
LINE
  5
B0
100
AcDbEntity
  8
0
370
    -3
  6
Continuous
100
AcDbLine
 10
-284.058552
 20
317.311319
 30
0.0
 11
-145.058552
 21
317.311319
 31
0.0
  0
LINE
  5
B1
100
AcDbEntity
  8
0
370
    -3
  6
Continuous
100
AcDbLine
 10
-284.058552
 20
339.115499
 30
0.0
 11
-284.058552
 21
279.610087
 31
0.0
  0
LINE
  5
B2
100
AcDbEntity
  8
0
370
    -3
  6
Continuous
100
AcDbLine
 10
-284.058552
 20
220.115499
 30
0.0
 11
-284.058552
 21
279.610087
 31
0.0
  0
LINE
  5
B3
100
AcDbEntity
  8
0
370
    -3
  6
Continuous
100
AcDbLine
 10
-216.265758
 20
220.115499
 30
0.0
 11
-145.058552
 21
220.115499
 31
0.0
  0
LINE
  5
B4
100
AcDbEntity
  8
0
370
    -3
  6
Continuous
100
AcDbLine
 10
-202.058552
 20
339.115499
 30
0.0
 11
-145.058552
 21
339.115499
 31
0.0
  0
LINE
  5
B5
100
AcDbEntity
  8
0
370
    -3
  6
Continuous
100
AcDbLine
 10
-262.227699
 20
220.115499
 30
0.0
 11
-223.889405
 21
220.115499
 31
0.0
  0
LINE
  5
B6
100
AcDbEntity
  8
0
370
    -3
  6
CENTER
100
AcDbLine
 10
-301.742001
 20
279.610087
 30
0.0
 11
71.101274
 21
279.610087
 31
0.0
  0
LINE
  5
B7
100
AcDbEntity
  8
0
370
    -3
  6
Continuous
100
AcDbLine
 10
-284.558552
 20
321.054261
 30
0.0
 11
-284.558552
 21
330.241496
 31
0.0
  0
LINE
  5
B8
100
AcDbEntity
  8
0
370
    -3
  6
Continuous
100
AcDbLine
 10
-284.058552
 20
339.115499
 30
0.0
 11
-284.058552
 21
279.610087
 31
0.0
  0
ARC
  5
B9
100
AcDbEntity
  8
0
370
    -3
  6
Continuous
100
AcDbCircle
 10
-287.733552
 20
305.110087
 30
0.0
 40
1.0
100
AcDbArc
 50
90.0
 51
270.0
  0
ARC
  5
BA
100
AcDbEntity
  8
0
370
    -3
  6
Continuous
100
AcDbCircle
 10
-287.814552
 20
299.610087
 30
0.0
 40
1.0
100
AcDbArc
 50
90.0
 51
270.0
  0
ARC
  5
BB
100
AcDbEntity
  8
0
370
    -3
  6
Continuous
100
AcDbCircle
 10
-287.609552
 20
316.110087
 30
0.0
 40
1.0
100
AcDbArc
 50
90.0
 51
270.0
  0
ARC
  5
BC
100
AcDbEntity
  8
0
370
    -3
  6
Continuous
100
AcDbCircle
 10
-291.767078
 20
299.815771
 30
0.0
 40
0.5
100
AcDbArc
 50
315.115138
 51
358.347093
  0
ARC
  5
BD
100
AcDbEntity
  8
0
370
    -3
  6
Continuous
100
AcDbCircle
 10
-291.058552
 20
299.110087
 30
0.0
 40
0.5
100
AcDbArc
 50
135.115138
 51
180.0
  0
LINE
  5
BE
100
AcDbEntity
  8
0
370
    -3
  6
Continuous
100
AcDbLine
 10
-291.558552
 20
299.110087
 30
0.0
 11
-291.558552
 21
279.610087
 31
0.0
  0
ARC
  5
BF
100
AcDbEntity
  8
0
370
    -3
  6
Continuous
100
AcDbCircle
 10
408.441448
 20
279.610087
 30
0.0
 40
700.0
100
AcDbArc
 50
176.757441
 51
178.347093
  0
LINE
  5
C0
100
AcDbEntity
  8
0
370
    -3
  6
Continuous
100
AcDbLine
 10
-289.558552
 20
308.555939
 30
0.0
 11
-289.558552
 21
329.741496
 31
0.0
  0
INSERT
  5
D3
100
AcDbEntity
  8
0
100
AcDbBlockReference
  2
ZU_SYM__USERS_HOME_SYMBOL_STD_SYM_B01_-1
 10
-289.558549
 20
323.804261
 30
0.0
  0
LINE
  5
D4
100
AcDbEntity
  8
0
370
    -3
  6
Continuous
100
AcDbLine
 10
-289.558552
 20
279.610087
 30
0.0
 11
-289.558552
 21
287.610087
 31
0.0
  0
ARC
  5
D5
100
AcDbEntity
  8
0
370
    -3
  6
Continuous
100
AcDbCircle
 10
-290.558552
 20
308.628784
 30
0.0
 40
1.0
100
AcDbArc
 50
285.221258
 51
0.0
  0
ARC
  5
D6
100
AcDbEntity
  8
0
370
    -3
  6
Continuous
100
AcDbCircle
 10
-290.033457
 20
306.698945
 30
0.0
 40
1.0
100
AcDbArc
 50
105.221258
 51
177.779019
  0
ARC
  5
D7
100
AcDbEntity
  8
0
370
    -3
  6
Continuous
100
AcDbCircle
 10
408.441448
 20
280.610087
 30
0.0
 40
700.0
100
AcDbArc
 50
175.281496
 51
176.084948
  0
LINE
  5
D8
100
AcDbEntity
  8
0
370
    -3
  6
Continuous
100
AcDbLine
 10
-287.733552
 20
306.110087
 30
0.0
 11
-284.058552
 21
306.302686
 31
0.0
  0
LINE
  5
D9
100
AcDbEntity
  8
0
370
    -3
  6
Continuous
100
AcDbLine
 10
-287.733552
 20
304.110087
 30
0.0
 11
-284.058552
 21
303.917488
 31
0.0
  0
LINE
  5
DA
100
AcDbEntity
  8
0
370
    -3
  6
Continuous
100
AcDbLine
 10
-287.814552
 20
300.610087
 30
0.0
 11
-284.058552
 21
300.806931
 31
0.0
  0
LINE
  5
DB
100
AcDbEntity
  8
0
370
    -3
  6
Continuous
100
AcDbLine
 10
-287.814552
 20
298.610087
 30
0.0
 11
-284.058552
 21
298.413243
 31
0.0
  0
LINE
  5
DC
100
AcDbEntity
  8
0
370
    -3
  6
Continuous
100
AcDbLine
 10
-289.558552
 20
250.664235
 30
0.0
 11
-289.558552
 21
229.478678
 31
0.0
  0
ARC
  5
DD
100
AcDbEntity
  8
0
370
    -3
  6
Continuous
100
AcDbCircle
 10
-288.189552
 20
338.110087
 30
0.0
 40
1.0
100
AcDbArc
 50
90.0
 51
175.281496
  0
ARC
  5
DE
100
AcDbEntity
  8
0
370
    -3
  6
Continuous
100
AcDbCircle
 10
-290.558552
 20
250.59139
 30
0.0
 40
1.0
100
AcDbArc
 50
0.0
 51
74.778742
  0
ARC
  5
DF
100
AcDbEntity
  8
0
370
    -3
  6
Continuous
100
AcDbCircle
 10
-290.033457
 20
252.521229
 30
0.0
 40
1.0
100
AcDbArc
 50
182.220981
 51
254.778742
  0
LINE
  5
E0
100
AcDbEntity
  8
0
370
    -3
  6
Continuous
100
AcDbLine
 10
-287.692552
 20
311.610087
 30
0.0
 11
-284.058552
 21
311.800537
 31
0.0
  0
ARC
  5
E1
100
AcDbEntity
  8
0
370
    -3
  6
Continuous
100
AcDbCircle
 10
-291.767078
 20
259.404403
 30
0.0
 40
0.5
100
AcDbArc
 50
1.652907
 51
44.884862
  0
LINE
  5
E2
100
AcDbEntity
  8
0
370
    -3
  6
Continuous
100
AcDbLine
 10
-287.692552
 20
309.610087
 30
0.0
 11
-284.058552
 21
309.419637
 31
0.0
  0
ARC
  5
E3
100
AcDbEntity
  8
0
370
    -3
  6
Continuous
100
AcDbCircle
 10
-288.858552
 20
293.910087
 30
0.0
 40
0.7
100
AcDbArc
 50
90.0
 51
180.0
  0
ARC
  5
E4
100
AcDbEntity
  8
0
370
    -3
  6
Continuous
100
AcDbCircle
 10
-291.058552
 20
260.110087
 30
0.0
 40
0.5
100
AcDbArc
 50
180.0
 51
224.884862
  0
LINE
  5
E5
100
AcDbEntity
  8
0
370
    -3
  6
Continuous
100
AcDbLine
 10
-289.558552
 20
293.910087
 30
0.0
 11
-289.558552
 21
287.610087
 31
0.0
  0
LINE
  5
E6
100
AcDbEntity
  8
0
370
    -3
  6
Continuous
100
AcDbLine
 10
-284.058552
 20
294.610087
 30
0.0
 11
-288.858552
 21
294.610087
 31
0.0
  0
LINE
  5
E7
100
AcDbEntity
  8
0
370
    -3
  6
Continuous
100
AcDbLine
 10
-288.189552
 20
339.110087
 30
0.0
 11
-284.058552
 21
339.110087
 31
0.0
  0
LINE
  5
E8
100
AcDbEntity
  8
0
370
    -3
  6
Continuous
100
AcDbLine
 10
-287.609552
 20
317.110087
 30
0.0
 11
-284.058552
 21
317.296187
 31
0.0
  0
LINE
  5
E9
100
AcDbEntity
  8
0
370
    -3
  6
Continuous
100
AcDbLine
 10
-291.558552
 20
260.110087
 30
0.0
 11
-291.558552
 21
279.610087
 31
0.0
  0
LINE
  5
EA
100
AcDbEntity
  8
0
370
    -3
  6
Continuous
100
AcDbLine
 10
-289.558552
 20
279.610087
 30
0.0
 11
-289.558552
 21
271.610087
 31
0.0
  0
ARC
  5
EB
100
AcDbEntity
  8
0
370
    -3
  6
Continuous
100
AcDbCircle
 10
-289.058552
 20
229.478678
 30
0.0
 40
0.5
100
AcDbArc
 50
180.0
 51
270.0
  0
LINE
  5
EC
100
AcDbEntity
  8
0
370
    -3
  6
CENTER
100
AcDbLine
 10
-295.994782
 20
323.804261
 30
0.0
 11
-287.149067
 21
323.804261
 31
0.0
  0
LINE
  5
ED
100
AcDbEntity
  8
0
370
    -3
  6
Continuous
100
AcDbLine
 10
-287.609552
 20
315.110087
 30
0.0
 11
-284.058552
 21
314.923987
 31
0.0
  0
ARC
  5
EE
100
AcDbEntity
  8
0
370
    -3
  6
Continuous
100
AcDbCircle
 10
-288.858552
 20
265.310087
 30
0.0
 40
0.7
100
AcDbArc
 50
180.0
 51
270.0
  0
LINE
  5
EF
100
AcDbEntity
  8
0
370
    -3
  6
Continuous
100
AcDbLine
 10
-289.558552
 20
265.310087
 30
0.0
 11
-289.558552
 21
271.610087
 31
0.0
  0
LINE
  5
F0
100
AcDbEntity
  8
0
370
    -3
  6
Continuous
100
AcDbLine
 10
-284.058552
 20
264.610087
 30
0.0
 11
-288.858552
 21
264.610087
 31
0.0
  0
ARC
  5
F1
100
AcDbEntity
  8
0
370
    -3
  6
Continuous
100
AcDbCircle
 10
-287.692552
 20
248.610087
 30
0.0
 40
1.0
100
AcDbArc
 50
90.0
 51
270.0
  0
ARC
  5
F2
100
AcDbEntity
  8
0
370
    -3
  6
Continuous
100
AcDbCircle
 10
-287.733552
 20
254.110087
 30
0.0
 40
1.0
100
AcDbArc
 50
90.0
 51
270.0
  0
ARC
  5
F3
100
AcDbEntity
  8
0
370
    -3
  6
Continuous
100
AcDbCircle
 10
-287.609552
 20
243.110087
 30
0.0
 40
1.0
100
AcDbArc
 50
90.0
 51
270.0
  0
ARC
  5
F4
100
AcDbEntity
  8
0
370
    -3
  6
Continuous
100
AcDbCircle
 10
-287.814552
 20
259.610087
 30
0.0
 40
1.0
100
AcDbArc
 50
90.0
 51
270.0
  0
LINE
  5
F5
100
AcDbEntity
  8
0
370
    -3
  6
Continuous
100
AcDbLine
 10
-287.609552
 20
242.110087
 30
0.0
 11
-284.058552
 21
241.923987
 31
0.0
  0
LINE
  5
F6
100
AcDbEntity
  8
0
370
    -3
  6
Continuous
100
AcDbLine
 10
-287.609552
 20
244.110087
 30
0.0
 11
-284.058552
 21
244.296187
 31
0.0
  0
LINE
  5
F7
100
AcDbEntity
  8
0
370
    -3
  6
Continuous
100
AcDbLine
 10
-287.692552
 20
247.610087
 30
0.0
 11
-284.058552
 21
247.419637
 31
0.0
  0
ARC
  5
F8
100
AcDbEntity
  8
0
370
    -3
  6
Continuous
100
AcDbCircle
 10
-289.058552
 20
329.741496
 30
0.0
 40
0.5
100
AcDbArc
 50
90.0
 51
180.0
  0
LINE
  5
F9
100
AcDbEntity
  8
0
370
    -3
  6
Continuous
100
AcDbLine
 10
-287.692552
 20
249.610087
 30
0.0
 11
-284.058552
 21
249.800537
 31
0.0
  0
LINE
  5
FA
100
AcDbEntity
  8
0
370
    -3
  6
Continuous
100
AcDbLine
 10
-287.733552
 20
253.110087
 30
0.0
 11
-284.058552
 21
252.917488
 31
0.0
  0
LINE
  5
FB
100
AcDbEntity
  8
0
370
    -3
  6
Continuous
100
AcDbLine
 10
-287.733552
 20
255.110087
 30
0.0
 11
-284.058552
 21
255.302686
 31
0.0
  0
LINE
  5
FC
100
AcDbEntity
  8
0
370
    -3
  6
Continuous
100
AcDbLine
 10
-287.814552
 20
258.610087
 30
0.0
 11
-284.058552
 21
258.413243
 31
0.0
  0
LINE
  5
FD
100
AcDbEntity
  8
0
370
    -3
  6
Continuous
100
AcDbLine
 10
-287.814552
 20
260.610087
 30
0.0
 11
-284.058552
 21
260.806931
 31
0.0
  0
ARC
  5
FE
100
AcDbEntity
  8
0
370
    -3
  6
Continuous
100
AcDbCircle
 10
-287.692552
 20
310.610087
 30
0.0
 40
1.0
100
AcDbArc
 50
90.0
 51
270.0
  0
ARC
  5
FF
100
AcDbEntity
  8
0
370
    -3
  6
Continuous
100
AcDbCircle
 10
408.441448
 20
279.610087
 30
0.0
 40
700.0
100
AcDbArc
 50
181.652907
 51
183.242558
  0
LINE
  5
100
100
AcDbEntity
  8
0
370
    -3
  6
CENTER
100
AcDbLine
 10
-295.994782
 20
235.415913
 30
0.0
 11
-287.149067
 21
235.415913
 31
0.0
  0
INSERT
  5
113
100
AcDbEntity
  8
0
100
AcDbBlockReference
  2
ZU_SYM__USERS_HOME_SYMBOL_STD_SYM_B01_00001-1
 10
-289.558549
 20
235.415913
 30
0.0
  0
LINE
  5
114
100
AcDbEntity
  8
0
370
    -3
  6
Continuous
100
AcDbLine
 10
-288.189552
 20
220.110087
 30
0.0
 11
-284.058552
 21
220.110087
 31
0.0
  0
ARC
  5
115
100
AcDbEntity
  8
0
370
    -3
  6
Continuous
100
AcDbCircle
 10
-288.189552
 20
221.110087
 30
0.0
 40
1.0
100
AcDbArc
 50
184.718504
 51
270.0
  0
ARC
  5
116
100
AcDbEntity
  8
0
370
    -3
  6
Continuous
100
AcDbCircle
 10
408.441448
 20
278.610087
 30
0.0
 40
700.0
100
AcDbArc
 50
183.915052
 51
184.718504
  0
LINE
  5
117
100
AcDbEntity
  8
0
370
    -3
  6
Continuous
100
AcDbLine
 10
-284.558552
 20
238.165913
 30
0.0
 11
-284.558552
 21
228.978678
 31
0.0
  0
LINE
  5
118
100
AcDbEntity
  8
0
370
    -3
  6
Continuous
100
AcDbLine
 10
-284.558552
 20
238.165913
 30
0.0
 11
-284.058552
 21
238.165913
 31
0.0
  0
LINE
  5
119
100
AcDbEntity
  8
0
370
    -3
  6
Continuous
100
AcDbLine
 10
-289.225051
 20
228.978678
 30
0.0
 11
-284.558552
 21
228.978678
 31
0.0
  0
LINE
  5
11A
100
AcDbEntity
  8
0
370
    -3
  6
Continuous
100
AcDbLine
 10
-284.058552
 20
220.115499
 30
0.0
 11
-284.058552
 21
279.610087
 31
0.0
  0
LINE
  5
11B
100
AcDbEntity
  8
0
370
    -3
  6
Continuous
100
AcDbLine
 10
-289.225051
 20
330.241496
 30
0.0
 11
-284.558552
 21
330.241496
 31
0.0
  0
LINE
  5
11C
100
AcDbEntity
  8
0
370
    -3
  6
Continuous
100
AcDbLine
 10
-284.558552
 20
321.054261
 30
0.0
 11
-284.058552
 21
321.054261
 31
0.0
  0
MTEXT
  5
11E
100
AcDbEntity
  8
0
370
    -3
  6
Continuous
100
AcDbMText
 10
-18.375488
 20
-253.40625
 30
0.0
 40
2.8
 41
0.0
 71
     7
 72
     1
  1
\W0.83;　
  7
ZU_SHPTB00001
 11
1.0
 21
0.0
 31
0.0
 73
     1
 44
1.0
  0
LINE
  5
11F
100
AcDbEntity
  8
0
370
    -3
  6
Continuous
100
AcDbLine
 10
-201.453671
 20
-33.151932
 30
0.0
 11
-145.058552
 21
-33.151932
 31
0.0
  0
LINE
  5
120
100
AcDbEntity
  8
0
370
    -3
  6
Continuous
100
AcDbLine
 10
-201.453671
 20
-123.883505
 30
0.0
 11
-145.058552
 21
-123.883505
 31
0.0
  0
LINE
  5
121
100
AcDbEntity
  8
0
370
    -3
  6
Continuous
100
AcDbLine
 10
-198.161082
 20
-97.267719
 30
0.0
 11
-145.058552
 21
-97.267719
 31
0.0
  0
LINE
  5
122
100
AcDbEntity
  8
0
370
    -3
  6
Continuous
100
AcDbLine
 10
-198.161082
 20
-46.367197
 30
0.0
 11
-145.058552
 21
-46.367197
 31
0.0
  0
LINE
  5
123
100
AcDbEntity
  8
0
370
    -3
  6
Continuous
100
AcDbLine
 10
-198.161082
 20
-43.158598
 30
0.0
 11
-145.058552
 21
-43.158598
 31
0.0
  0
LINE
  5
124
100
AcDbEntity
  8
0
370
    -3
  6
Continuous
100
AcDbLine
 10
-198.214292
 20
-40.821899
 30
0.0
 11
-145.058552
 21
-40.821899
 31
0.0
  0
LINE
  5
125
100
AcDbEntity
  8
0
370
    -3
  6
Continuous
100
AcDbLine
 10
-198.161082
 20
-59.767719
 30
0.0
 11
-145.058552
 21
-59.767719
 31
0.0
  0
LINE
  5
126
100
AcDbEntity
  8
0
370
    -3
  6
Continuous
100
AcDbLine
 10
-198.161082
 20
-51.92911
 30
0.0
 11
-145.058552
 21
-51.92911
 31
0.0
  0
LINE
  5
127
100
AcDbEntity
  8
0
370
    -3
  6
Continuous
100
AcDbLine
 10
-198.161082
 20
-54.053335
 30
0.0
 11
-145.058552
 21
-54.053335
 31
0.0
  0
LINE
  5
128
100
AcDbEntity
  8
0
370
    -3
  6
Continuous
100
AcDbLine
 10
-198.161082
 20
-48.596601
 30
0.0
 11
-145.058552
 21
-48.596601
 31
0.0
  0
LINE
  5
129
100
AcDbEntity
  8
0
370
    -3
  6
Continuous
100
AcDbLine
 10
-145.058552
 20
-137.017719
 30
0.0
 11
-145.058552
 21
-78.517719
 31
0.0
  0
LINE
  5
12A
100
AcDbEntity
  8
0
370
    -3
  6
Continuous
100
AcDbLine
 10
-145.058552
 20
-20.017719
 30
0.0
 11
-145.058552
 21
-78.517719
 31
0.0
  0
LINE
  5
12B
100
AcDbEntity
  8
0
370
    -3
  6
Continuous
100
AcDbLine
 10
-198.161082
 20
-116.213538
 30
0.0
 11
-145.058552
 21
-116.213538
 31
0.0
  0
LINE
  5
12C
100
AcDbEntity
  8
0
370
    -3
  6
Continuous
100
AcDbLine
 10
-198.161082
 20
-113.876839
 30
0.0
 11
-145.058552
 21
-113.876839
 31
0.0
  0
LINE
  5
12D
100
AcDbEntity
  8
0
370
    -3
  6
Continuous
100
AcDbLine
 10
-198.161082
 20
-110.66824
 30
0.0
 11
-145.058552
 21
-110.66824
 31
0.0
  0
LINE
  5
12E
100
AcDbEntity
  8
0
370
    -3
  6
Continuous
100
AcDbLine
 10
-198.161082
 20
-108.438837
 30
0.0
 11
-145.058552
 21
-108.438837
 31
0.0
  0
LINE
  5
12F
100
AcDbEntity
  8
0
370
    -3
  6
Continuous
100
AcDbLine
 10
-198.161082
 20
-105.106327
 30
0.0
 11
-145.058552
 21
-105.106327
 31
0.0
  0
LINE
  5
130
100
AcDbEntity
  8
0
370
    -3
  6
Continuous
100
AcDbLine
 10
-198.161082
 20
-102.982102
 30
0.0
 11
-145.058552
 21
-102.982102
 31
0.0
  0
LINE
  5
131
100
AcDbEntity
  8
0
370
    -3
  6
Continuous
100
AcDbLine
 10
-294.358512
 20
-30.423544
 30
0.0
 11
-293.858511
 21
-29.723546
 31
0.0
  0
LINE
  5
132
100
AcDbEntity
  8
0
370
    -3
  6
Continuous
100
AcDbLine
 10
-293.858527
 20
-29.72353
 30
0.0
 11
-289.558536
 21
-29.723547
 31
0.0
  0
LINE
  5
133
100
AcDbEntity
  8
0
370
    -3
  6
Continuous
100
AcDbLine
 10
-289.558533
 20
-29.723553
 30
0.0
 11
-289.558541
 21
-31.751572
 31
0.0
  0
LINE
  5
134
100
AcDbEntity
  8
0
370
    -3
  6
Continuous
100
AcDbLine
 10
-290.858539
 20
-31.985414
 30
0.0
 11
-290.85853
 21
-29.723541
 31
0.0
  0
ARC
  5
135
100
AcDbEntity
  8
0
370
    -3
  6
Continuous
100
AcDbCircle
 10
-289.058552
 20
-28.38631
 30
0.0
 40
0.5
100
AcDbArc
 50
90.0
 51
180.0
  0
LINE
  5
136
100
AcDbEntity
  8
0
370
    -3
  6
Continuous
100
AcDbLine
 10
-289.558552
 20
-31.717719
 30
0.0
 11
-289.558552
 21
-28.38631
 31
0.0
  0
LINE
  5
137
100
AcDbEntity
  8
0
370
    -3
  6
Continuous
100
AcDbLine
 10
-289.058552
 20
-27.88631
 30
0.0
 11
-284.558552
 21
-27.88631
 31
0.0
  0
LINE
  5
138
100
AcDbEntity
  8
0
370
    -3
  6
Continuous
100
AcDbLine
 10
-284.558552
 20
-31.717719
 30
0.0
 11
-284.558552
 21
-27.88631
 31
0.0
  0
LINE
  5
139
100
AcDbEntity
  8
0
370
    -3
  6
Continuous
100
AcDbLine
 10
-284.058552
 20
-20.017719
 30
0.0
 11
-284.058552
 21
-31.717719
 31
0.0
  0
LINE
  5
13A
100
AcDbEntity
  8
0
370
    -3
  6
Continuous
100
AcDbLine
 10
-288.189552
 20
-20.017719
 30
0.0
 11
-284.058552
 21
-20.017719
 31
0.0
  0
ARC
  5
13B
100
AcDbEntity
  8
0
370
    -3
  6
Continuous
100
AcDbCircle
 10
408.441448
 20
-78.517719
 30
0.0
 40
700.0
100
AcDbArc
 50
175.281496
 51
176.002901
  0
ARC
  5
13C
100
AcDbEntity
  8
0
370
    -3
  6
Continuous
100
AcDbCircle
 10
-288.189552
 20
-21.017719
 30
0.0
 40
1.0
100
AcDbArc
 50
90.0
 51
175.281496
  0
LINE
  5
13D
100
AcDbEntity
  8
0
370
    -3
  6
Continuous
100
AcDbLine
 10
-284.058552
 20
-20.017719
 30
0.0
 11
-284.058552
 21
-31.717719
 31
0.0
  0
LINE
  5
13E
100
AcDbEntity
  8
0
370
    -3
  6
Continuous
100
AcDbLine
 10
-284.058552
 20
-21.517719
 30
0.0
 11
-145.058552
 21
-21.517719
 31
0.0
  0
LINE
  5
13F
100
AcDbEntity
  8
0
370
    -3
  6
Continuous
100
AcDbLine
 10
-284.058552
 20
-21.017719
 30
0.0
 11
-145.058552
 21
-21.017719
 31
0.0
  0
LINE
  5
140
100
AcDbEntity
  8
0
370
    -3
  6
Continuous
100
AcDbLine
 10
-284.058552
 20
-22.517719
 30
0.0
 11
-145.058552
 21
-22.517719
 31
0.0
  0
LINE
  5
141
100
AcDbEntity
  8
0
370
    -3
  6
Continuous
100
AcDbLine
 10
-284.058552
 20
-23.517719
 30
0.0
 11
-145.058552
 21
-23.517719
 31
0.0
  0
LINE
  5
142
100
AcDbEntity
  8
0
370
    -3
  6
Continuous
100
AcDbLine
 10
-284.058552
 20
-28.202184
 30
0.0
 11
-145.058552
 21
-28.202184
 31
0.0
  0
LINE
  5
143
100
AcDbEntity
  8
0
370
    -3
  6
Continuous
100
AcDbLine
 10
-145.058552
 20
-20.017719
 30
0.0
 11
-284.058552
 21
-20.017719
 31
0.0
  0
LINE
  5
144
100
AcDbEntity
  8
0
370
    -3
  6
Continuous
100
AcDbLine
 10
-294.358542
 20
-34.012804
 30
0.0
 11
-294.358528
 21
-30.423532
 31
0.0
  0
LINE
  5
145
100
AcDbEntity
  8
0
370
    -3
  6
Continuous
100
AcDbLine
 10
-293.858536
 20
-32.023531
 30
0.0
 11
-290.858539
 21
-32.02354
 31
0.0
  0
ARC
  5
146
100
AcDbEntity
  8
0
370
    -3
  6
Continuous
100
AcDbCircle
 10
-292.788535
 20
-30.873533
 30
0.0
 40
1.57
100
AcDbArc
 50
179.999745
 51
227.099746
  0
ARC
  5
147
100
AcDbEntity
  8
0
370
    -3
  6
Continuous
100
AcDbCircle
 10
-288.818549
 20
-34.323548
 30
0.0
 40
5.539999
100
AcDbArc
 50
155.470187
 51
176.688562
  0
LINE
  5
148
100
AcDbEntity
  8
0
370
    -3
  6
Continuous
100
AcDbLine
 10
-289.558562
 20
-125.283863
 30
0.0
 11
-289.55857
 21
-127.311884
 31
0.0
  0
LINE
  5
149
100
AcDbEntity
  8
0
370
    -3
  6
Continuous
100
AcDbLine
 10
-290.858567
 20
-127.311886
 30
0.0
 11
-290.858558
 21
-125.050018
 31
0.0
  0
ARC
  5
14A
100
AcDbEntity
  8
0
370
    -3
  6
Continuous
100
AcDbCircle
 10
-289.058552
 20
-128.649127
 30
0.0
 40
0.5
100
AcDbArc
 50
180.0
 51
270.0
  0
LINE
  5
14B
100
AcDbEntity
  8
0
370
    -3
  6
Continuous
100
AcDbLine
 10
-289.558552
 20
-125.283864
 30
0.0
 11
-289.558552
 21
-128.649127
 31
0.0
  0
LINE
  5
14C
100
AcDbEntity
  8
0
370
    -3
  6
Continuous
100
AcDbLine
 10
-289.058552
 20
-129.149127
 30
0.0
 11
-284.558552
 21
-129.149127
 31
0.0
  0
LINE
  5
14D
100
AcDbEntity
  8
0
370
    -3
  6
Continuous
100
AcDbLine
 10
-284.558552
 20
-125.317719
 30
0.0
 11
-284.558552
 21
-129.149127
 31
0.0
  0
LINE
  5
14E
100
AcDbEntity
  8
0
370
    -3
  6
Continuous
100
AcDbLine
 10
-284.058552
 20
-137.017719
 30
0.0
 11
-284.058552
 21
-125.317719
 31
0.0
  0
LINE
  5
14F
100
AcDbEntity
  8
0
370
    -3
  6
Continuous
100
AcDbLine
 10
-288.189552
 20
-137.017719
 30
0.0
 11
-284.058552
 21
-137.017719
 31
0.0
  0
ARC
  5
150
100
AcDbEntity
  8
0
370
    -3
  6
Continuous
100
AcDbCircle
 10
408.441448
 20
-78.517719
 30
0.0
 40
700.0
100
AcDbArc
 50
183.997098
 51
184.718504
  0
ARC
  5
151
100
AcDbEntity
  8
0
370
    -3
  6
Continuous
100
AcDbCircle
 10
-288.189552
 20
-136.017719
 30
0.0
 40
1.0
100
AcDbArc
 50
184.718504
 51
270.0
  0
LINE
  5
152
100
AcDbEntity
  8
0
370
    -3
  6
Continuous
100
AcDbLine
 10
-284.058552
 20
-135.517719
 30
0.0
 11
-145.058552
 21
-135.517719
 31
0.0
  0
LINE
  5
153
100
AcDbEntity
  8
0
370
    -3
  6
Continuous
100
AcDbLine
 10
-284.058552
 20
-136.017719
 30
0.0
 11
-145.058552
 21
-136.017719
 31
0.0
  0
LINE
  5
154
100
AcDbEntity
  8
0
370
    -3
  6
Continuous
100
AcDbLine
 10
-284.058552
 20
-134.517719
 30
0.0
 11
-145.058552
 21
-134.517719
 31
0.0
  0
LINE
  5
155
100
AcDbEntity
  8
0
370
    -3
  6
Continuous
100
AcDbLine
 10
-284.058552
 20
-133.517719
 30
0.0
 11
-145.058552
 21
-133.517719
 31
0.0
  0
LINE
  5
156
100
AcDbEntity
  8
0
370
    -3
  6
Continuous
100
AcDbLine
 10
-284.058552
 20
-128.833253
 30
0.0
 11
-145.058552
 21
-128.833253
 31
0.0
  0
LINE
  5
157
100
AcDbEntity
  8
0
370
    -3
  6
Continuous
100
AcDbLine
 10
-145.058552
 20
-137.017719
 30
0.0
 11
-284.058552
 21
-137.017719
 31
0.0
  0
LINE
  5
158
100
AcDbEntity
  8
0
370
    -3
  6
Continuous
100
AcDbLine
 10
-289.558574
 20
-127.311886
 30
0.0
 11
-293.858564
 21
-127.311869
 31
0.0
  0
LINE
  5
159
100
AcDbEntity
  8
0
370
    -3
  6
Continuous
100
AcDbLine
 10
-293.858545
 20
-127.311854
 30
0.0
 11
-294.358539
 21
-126.611851
 31
0.0
  0
LINE
  5
15A
100
AcDbEntity
  8
0
370
    -3
  6
Continuous
100
AcDbLine
 10
-294.358559
 20
-126.611865
 30
0.0
 11
-294.358545
 21
-123.022631
 31
0.0
  0
LINE
  5
15B
100
AcDbEntity
  8
0
370
    -3
  6
Continuous
100
AcDbLine
 10
-293.858555
 20
-125.011872
 30
0.0
 11
-290.995362
 21
-125.011884
 31
0.0
  0
ARC
  5
15C
100
AcDbEntity
  8
0
370
    -3
  6
Continuous
100
AcDbCircle
 10
-292.788563
 20
-126.161878
 30
0.0
 40
1.57
100
AcDbArc
 50
132.899744
 51
179.999745
  0
ARC
  5
15D
100
AcDbEntity
  8
0
370
    -3
  6
Continuous
100
AcDbCircle
 10
-288.818549
 20
-122.711895
 30
0.0
 40
5.539999
100
AcDbArc
 50
183.311371
 51
204.52925
  0
LINE
  5
15E
100
AcDbEntity
  8
0
370
    -3
  6
Continuous
100
AcDbLine
 10
-145.058552
 20
-140.010613
 30
0.0
 11
-145.058552
 21
-78.517719
 31
0.0
  0
LINE
  5
15F
100
AcDbEntity
  8
0
370
    -3
  6
Continuous
100
AcDbLine
 10
-138.058552
 20
2.482281
 30
0.0
 11
-138.058552
 21
56.482281
 31
0.0
  0
ARC
  5
160
100
AcDbEntity
  8
0
370
    -3
  6
Continuous
100
AcDbCircle
 10
-49.318426
 20
15.408017
 30
0.0
 40
3.0
100
AcDbArc
 50
270.0
 51
320.631038
  0
LINE
  5
161
100
AcDbEntity
  8
0
370
    -3
  6
Continuous
100
AcDbLine
 10
-46.999194
 20
13.505081
 30
0.0
 11
-26.73932
 21
38.197116
 31
0.0
  0
ARC
  5
162
100
AcDbEntity
  8
0
370
    -3
  6
Continuous
100
AcDbCircle
 10
-29.058552
 20
40.100051
 30
0.0
 40
3.0
100
AcDbArc
 50
320.631038
 51
0.0
  0
ARC
  5
163
100
AcDbEntity
  8
0
370
    -3
  6
Continuous
100
AcDbCircle
 10
-29.058552
 20
34.61477
 30
0.0
 40
3.0
100
AcDbArc
 50
320.631038
 51
0.0
  0
ARC
  5
164
100
AcDbEntity
  8
0
370
    -3
  6
Continuous
100
AcDbCircle
 10
-49.318426
 20
9.922735
 30
0.0
 40
3.0
100
AcDbArc
 50
270.0
 51
320.631038
  0
LINE
  5
165
100
AcDbEntity
  8
0
370
    -3
  6
Continuous
100
AcDbLine
 10
-46.999194
 20
8.0198
 30
0.0
 11
-26.73932
 21
32.711835
 31
0.0
  0
LINE
  5
166
100
AcDbEntity
  8
0
370
    -3
  6
Continuous
100
AcDbLine
 10
-29.039567
 20
6.922735
 30
0.0
 11
-45.789006
 21
6.922735
 31
0.0
  0
LINE
  5
167
100
AcDbEntity
  8
0
370
    -3
  6
Continuous
100
AcDbLine
 10
49.941448
 20
-48.517719
 30
0.0
 11
49.941448
 21
-32.917719
 31
0.0
  0
ARC
  5
168
100
AcDbEntity
  8
0
370
    -3
  6
Continuous
100
AcDbCircle
 10
49.541448
 20
-32.917719
 30
0.0
 40
0.4
100
AcDbArc
 50
0.0
 51
90.0
  0
LINE
  5
169
100
AcDbEntity
  8
0
370
    -3
  6
Continuous
100
AcDbLine
 10
49.541448
 20
-32.517719
 30
0.0
 11
2.501256
 21
-32.517719
 31
0.0
  0
LINE
  5
16A
100
AcDbEntity
  8
0
370
    -3
  6
Continuous
100
AcDbLine
 10
1.941448
 20
-32.667719
 30
0.0
 11
2.501256
 21
-32.517719
 31
0.0
  0
LINE
  5
16B
100
AcDbEntity
  8
0
370
    -3
  6
Continuous
100
AcDbLine
 10
1.941448
 20
-32.667719
 30
0.0
 11
0.741448
 21
-32.667719
 31
0.0
  0
LINE
  5
16C
100
AcDbEntity
  8
0
370
    -3
  6
Continuous
100
AcDbLine
 10
-2.058552
 20
-31.517719
 30
0.0
 11
-0.258552
 21
-31.517719
 31
0.0
  0
LINE
  5
16D
100
AcDbEntity
  8
0
370
    -3
  6
Continuous
100
AcDbLine
 10
-0.058552
 20
-31.717719
 30
0.0
 11
-0.058552
 21
-48.517719
 31
0.0
  0
ARC
  5
16E
100
AcDbEntity
  8
0
370
    -3
  6
Continuous
100
AcDbCircle
 10
0.741448
 20
-31.867719
 30
0.0
 40
0.8
100
AcDbArc
 50
183.703197
 51
270.0
  0
LINE
  5
16F
100
AcDbEntity
  8
0
370
    -3
  6
Continuous
100
AcDbLine
 10
-0.058552
 20
-31.717719
 30
0.0
 11
-0.258552
 21
-31.517719
 31
0.0
  0
LINE
  5
170
100
AcDbEntity
  8
0
370
    -3
  6
Continuous
100
AcDbLine
 10
1.941448
 20
-64.367719
 30
0.0
 11
2.501256
 21
-64.517719
 31
0.0
  0
LINE
  5
171
100
AcDbEntity
  8
0
370
    -3
  6
Continuous
100
AcDbLine
 10
-2.058552
 20
-65.517719
 30
0.0
 11
-0.258552
 21
-65.517719
 31
0.0
  0
LINE
  5
172
100
AcDbEntity
  8
0
370
    -3
  6
Continuous
100
AcDbLine
 10
49.541448
 20
-64.517719
 30
0.0
 11
2.501256
 21
-64.517719
 31
0.0
  0
LINE
  5
173
100
AcDbEntity
  8
0
370
    -3
  6
Continuous
100
AcDbLine
 10
1.941448
 20
-64.367719
 30
0.0
 11
0.741448
 21
-64.367719
 31
0.0
  0
LINE
  5
174
100
AcDbEntity
  8
0
370
    -3
  6
Continuous
100
AcDbLine
 10
-0.058552
 20
-65.317719
 30
0.0
 11
-0.058552
 21
-48.517719
 31
0.0
  0
ARC
  5
175
100
AcDbEntity
  8
0
370
    -3
  6
Continuous
100
AcDbCircle
 10
0.741448
 20
-65.167719
 30
0.0
 40
0.8
100
AcDbArc
 50
90.0
 51
176.296803
  0
LINE
  5
176
100
AcDbEntity
  8
0
370
    -3
  6
Continuous
100
AcDbLine
 10
-0.058552
 20
-65.317719
 30
0.0
 11
-0.258552
 21
-65.517719
 31
0.0
  0
LINE
  5
177
100
AcDbEntity
  8
0
370
    -3
  6
Continuous
100
AcDbLine
 10
49.941448
 20
-48.517719
 30
0.0
 11
49.941448
 21
-64.117719
 31
0.0
  0
ARC
  5
178
100
AcDbEntity
  8
0
370
    -3
  6
Continuous
100
AcDbCircle
 10
49.541448
 20
-64.117719
 30
0.0
 40
0.4
100
AcDbArc
 50
270.0
 51
0.0
  0
LINE
  5
179
100
AcDbEntity
  8
0
370
    -3
  6
Continuous
100
AcDbLine
 10
49.941448
 20
-43.517719
 30
0.0
 11
9.941448
 21
-43.517719
 31
0.0
  0
LINE
  5
17A
100
AcDbEntity
  8
0
370
    -3
  6
Continuous
100
AcDbLine
 10
49.941448
 20
-53.517719
 30
0.0
 11
9.941448
 21
-53.517719
 31
0.0
  0
ARC
  5
17B
100
AcDbEntity
  8
0
370
    -3
  6
Continuous
100
AcDbCircle
 10
9.941448
 20
-48.517719
 30
0.0
 40
5.0
100
AcDbArc
 50
90.0
 51
270.0
  0
LINE
  5
17C
100
AcDbEntity
  8
0
370
    -3
  6
CENTER
100
AcDbLine
 10
5.577958
 20
-147.512668
 30
0.0
 11
-33.418034
 21
-147.512668
 31
0.0
  0
LINE
  5
17D
100
AcDbEntity
  8
0
370
    -3
  6
CENTER
100
AcDbLine
 10
5.577958
 20
50.477231
 30
0.0
 11
-33.418034
 21
50.477231
 31
0.0
  0
ARC
  5
17E
100
AcDbEntity
  8
0
370
    -3
  6
Continuous
100
AcDbCircle
 10
-14.058552
 20
-56.517719
 30
0.0
 40
3.0
100
AcDbArc
 50
90.0
 51
180.0
  0
ARC
  5
17F
100
AcDbEntity
  8
0
370
    -3
  6
Continuous
100
AcDbCircle
 10
-14.058552
 20
-111.966292
 30
0.0
 40
3.0
100
AcDbArc
 50
180.0
 51
270.0
  0
LINE
  5
180
100
AcDbEntity
  8
0
370
    -3
  6
Continuous
100
AcDbLine
 10
-17.058552
 20
-56.517719
 30
0.0
 11
-17.058552
 21
-136.804515
 31
0.0
  0
ARC
  5
181
100
AcDbEntity
  8
0
370
    -3
  6
Continuous
100
AcDbCircle
 10
-14.058552
 20
-136.804515
 30
0.0
 40
3.0
100
AcDbArc
 50
180.0
 51
270.0
  0
LINE
  5
182
100
AcDbEntity
  8
0
370
    -3
  6
Continuous
100
AcDbLine
 10
-10.058552
 20
-139.804515
 30
0.0
 11
-14.058552
 21
-139.804515
 31
0.0
  0
LINE
  5
183
100
AcDbEntity
  8
0
370
    -3
  6
Continuous
100
AcDbLine
 10
-10.058552
 20
-114.966292
 30
0.0
 11
-14.058552
 21
-114.966292
 31
0.0
  0
LINE
  5
184
100
AcDbEntity
  8
0
370
    -3
  6
Continuous
100
AcDbLine
 10
-14.058552
 20
-53.517719
 30
0.0
 11
-10.058552
 21
-53.517719
 31
0.0
  0
ARC
  5
185
100
AcDbEntity
  8
0
370
    -3
  6
Continuous
100
AcDbCircle
 10
-14.058552
 20
39.769078
 30
0.0
 40
3.0
100
AcDbArc
 50
90.0
 51
180.0
  0
ARC
  5
186
100
AcDbEntity
  8
0
370
    -3
  6
Continuous
100
AcDbCircle
 10
-14.058552
 20
14.930855
 30
0.0
 40
3.0
100
AcDbArc
 50
90.0
 51
180.0
  0
ARC
  5
187
100
AcDbEntity
  8
0
370
    -3
  6
Continuous
100
AcDbCircle
 10
-14.058552
 20
-40.517719
 30
0.0
 40
3.0
100
AcDbArc
 50
180.0
 51
270.0
  0
LINE
  5
188
100
AcDbEntity
  8
0
370
    -3
  6
Continuous
100
AcDbLine
 10
-14.058552
 20
-43.517719
 30
0.0
 11
-10.058552
 21
-43.517719
 31
0.0
  0
LINE
  5
189
100
AcDbEntity
  8
0
370
    -3
  6
Continuous
100
AcDbLine
 10
-10.058552
 20
17.930855
 30
0.0
 11
-14.058552
 21
17.930855
 31
0.0
  0
LINE
  5
18A
100
AcDbEntity
  8
0
370
    -3
  6
Continuous
100
AcDbLine
 10
-10.058552
 20
42.769078
 30
0.0
 11
-14.058552
 21
42.769078
 31
0.0
  0
LINE
  5
18B
100
AcDbEntity
  8
0
370
    -3
  6
Continuous
100
AcDbLine
 10
-17.058552
 20
-40.517719
 30
0.0
 11
-17.058552
 21
39.769078
 31
0.0
  0
ARC
  5
18C
100
AcDbEntity
  8
0
370
    -3
  6
Continuous
100
AcDbCircle
 10
-24.058552
 20
-159.017719
 30
0.0
 40
2.0
100
AcDbArc
 50
180.0
 51
270.0
  0
ARC
  5
18D
100
AcDbEntity
  8
0
370
    -3
  6
Continuous
100
AcDbCircle
 10
-29.048185
 20
62.304084
 30
0.0
 40
3.0
100
AcDbArc
 50
330.0
 51
356.309861
  0
LINE
  5
18E
100
AcDbEntity
  8
0
370
    -3
  6
Continuous
100
AcDbLine
 10
-6.058552
 20
-48.517719
 30
0.0
 11
-6.058552
 21
-152.517719
 31
0.0
  0
LINE
  5
18F
100
AcDbEntity
  8
0
370
    -3
  6
Continuous
100
AcDbLine
 10
-17.104591
 20
-160.695149
 30
0.0
 11
-17.104591
 21
-161.017719
 31
0.0
  0
LINE
  5
190
100
AcDbEntity
  8
0
370
    -3
  6
Continuous
100
AcDbLine
 10
-6.058552
 20
-152.517719
 30
0.0
 11
-7.058552
 21
-153.517719
 31
0.0
  0
LINE
  5
191
100
AcDbEntity
  8
0
370
    -3
  6
Continuous
100
AcDbLine
 10
-7.058552
 20
-153.517719
 30
0.0
 11
-10.058552
 21
-153.517719
 31
0.0
  0
LINE
  5
192
100
AcDbEntity
  8
0
370
    -3
  6
Continuous
100
AcDbLine
 10
-7.058552
 20
56.482281
 30
0.0
 11
-6.058552
 21
55.482281
 31
0.0
  0
LINE
  5
193
100
AcDbEntity
  8
0
370
    -3
  6
Continuous
100
AcDbLine
 10
-10.058552
 20
56.482281
 30
0.0
 11
-7.058552
 21
56.482281
 31
0.0
  0
LINE
  5
194
100
AcDbEntity
  8
0
370
    -3
  6
Continuous
100
AcDbLine
 10
-6.058552
 20
-48.517719
 30
0.0
 11
-6.058552
 21
55.482281
 31
0.0
  0
LINE
  5
195
100
AcDbEntity
  8
0
370
    -3
  6
Continuous
100
AcDbLine
 10
-110.058552
 20
21.482281
 30
0.0
 11
-38.4007
 21
23.984629
 31
0.0
  0
LINE
  5
196
100
AcDbEntity
  8
0
370
    -3
  6
Continuous
100
AcDbLine
 10
-47.067875
 20
25.093066
 30
0.0
 11
-26.450109
 21
60.804084
 31
0.0
  0
LINE
  5
197
100
AcDbEntity
  8
0
370
    -3
  6
Continuous
100
AcDbLine
 10
-26.058552
 20
-159.017719
 30
0.0
 11
-26.058552
 21
61.982281
 31
0.0
  0
LINE
  5
198
100
AcDbEntity
  8
0
370
    -3
  6
Continuous
100
AcDbLine
 10
-110.058552
 20
-171.517719
 30
0.0
 11
-24.143823
 21
-173.960728
 31
0.0
  0
LINE
  5
199
100
AcDbEntity
  8
0
370
    -3
  6
Continuous
100
AcDbLine
 10
-21.058552
 20
-164.017719
 30
0.0
 11
-21.058552
 21
-170.96194
 31
0.0
  0
LINE
  5
19A
100
AcDbEntity
  8
0
370
    -3
  6
Continuous
100
AcDbLine
 10
-24.058552
 20
63.982281
 30
0.0
 11
-10.058552
 21
63.982281
 31
0.0
  0
LINE
  5
19B
100
AcDbEntity
  8
0
370
    -3
  6
Continuous
100
AcDbLine
 10
-3.058552
 20
-15.017719
 30
0.0
 11
-2.058552
 21
-15.017719
 31
0.0
  0
LINE
  5
19C
100
AcDbEntity
  8
0
370
    -3
  6
Continuous
100
AcDbLine
 10
-3.058552
 20
-82.017719
 30
0.0
 11
-2.058552
 21
-82.017719
 31
0.0
  0
LINE
  5
19D
100
AcDbEntity
  8
0
370
    -3
  6
CENTER
100
AcDbLine
 10
-65.359536
 20
-48.517719
 30
0.0
 11
55.8604
 21
-48.517719
 31
0.0
  0
LINE
  5
19E
100
AcDbEntity
  8
0
370
    -3
  6
Continuous
100
AcDbLine
 10
-2.058552
 20
-82.017719
 30
0.0
 11
-2.058552
 21
-15.017719
 31
0.0
  0
LINE
  5
19F
100
AcDbEntity
  8
0
370
    -3
  6
Continuous
100
AcDbLine
 10
-10.058552
 20
-48.517719
 30
0.0
 11
-10.058552
 21
63.982281
 31
0.0
  0
LINE
  5
1A0
100
AcDbEntity
  8
0
370
    -3
  6
Continuous
100
AcDbLine
 10
-110.058552
 20
-171.517719
 30
0.0
 11
-110.058552
 21
21.482281
 31
0.0
  0
LINE
  5
1A1
100
AcDbEntity
  8
0
370
    -3
  6
Continuous
100
AcDbLine
 10
-10.058552
 20
-161.017719
 30
0.0
 11
-24.058552
 21
-161.017719
 31
0.0
  0
LINE
  5
1A2
100
AcDbEntity
  8
0
370
    -3
  6
Continuous
100
AcDbLine
 10
-4.058552
 20
-48.517719
 30
0.0
 11
-4.058552
 21
-93.670825
 31
0.0
  0
LINE
  5
1A3
100
AcDbEntity
  8
0
370
    -3
  6
Continuous
100
AcDbLine
 10
-4.058552
 20
-48.517719
 30
0.0
 11
-4.058552
 21
-3.364612
 31
0.0
  0
LINE
  5
1A4
100
AcDbEntity
  8
0
370
    -3
  6
Continuous
100
AcDbLine
 10
-10.058552
 20
-48.517719
 30
0.0
 11
-10.058552
 21
-161.017719
 31
0.0
  0
ARC
  5
1A5
100
AcDbEntity
  8
0
370
    -3
  6
Continuous
100
AcDbCircle
 10
-4.058552
 20
-98.866968
 30
0.0
 40
3.0
100
AcDbArc
 50
120.000187
 51
131.810315
  0
ARC
  5
1A6
100
AcDbEntity
  8
0
370
    -3
  6
Continuous
100
AcDbCircle
 10
-7.058569
 20
-93.670825
 30
0.0
 40
3.0
100
AcDbArc
 50
300.000187
 51
0.0
  0
ARC
  5
1A7
100
AcDbEntity
  8
0
370
    -3
  6
Continuous
100
AcDbCircle
 10
-49.665951
 20
26.593066
 30
0.0
 40
3.0
100
AcDbArc
 50
272.0
 51
330.0
  0
ARC
  5
1A8
100
AcDbEntity
  8
0
370
    -3
  6
Continuous
100
AcDbCircle
 10
-18.058552
 20
-164.017719
 30
0.0
 40
3.0
100
AcDbArc
 50
90.0
 51
180.0
  0
ARC
  5
1A9
100
AcDbEntity
  8
0
370
    -3
  6
Continuous
100
AcDbCircle
 10
-24.058552
 20
-170.96194
 30
0.0
 40
3.0
100
AcDbArc
 50
268.371218
 51
0.0
  0
ARC
  5
1AA
100
AcDbEntity
  8
0
370
    -3
  6
Continuous
100
AcDbCircle
 10
-24.058552
 20
61.982281
 30
0.0
 40
2.0
100
AcDbArc
 50
90.0
 51
180.0
  0
ARC
  5
1AB
100
AcDbEntity
  8
0
370
    -3
  6
Continuous
100
AcDbCircle
 10
-3.058552
 20
-83.017719
 30
0.0
 40
1.0
100
AcDbArc
 50
90.0
 51
180.0
  0
ARC
  5
1AC
100
AcDbEntity
  8
0
370
    -3
  6
Continuous
100
AcDbCircle
 10
-7.058552
 20
-3.364612
 30
0.0
 40
3.0
100
AcDbArc
 50
0.0
 51
70.528779
  0
ARC
  5
1AD
100
AcDbEntity
  8
0
370
    -3
  6
Continuous
100
AcDbCircle
 10
-3.058552
 20
-14.017719
 30
0.0
 40
1.0
100
AcDbArc
 50
180.0
 51
270.0
  0
LINE
  5
1AE
100
AcDbEntity
  8
0
370
    -3
  6
Continuous
100
AcDbLine
 10
-138.058552
 20
56.482281
 30
0.0
 11
-133.558552
 21
56.482281
 31
0.0
  0
LINE
  5
1AF
100
AcDbEntity
  8
0
370
    -3
  6
CENTER
100
AcDbLine
 10
-152.552595
 20
12.482281
 30
0.0
 11
-128.41498
 21
12.482281
 31
0.0
  0
LINE
  5
1B0
100
AcDbEntity
  8
0
370
    -3
  6
CENTER
100
AcDbLine
 10
-143.788799
 20
36.482281
 30
0.0
 11
-125.689533
 21
36.482281
 31
0.0
  0
LINE
  5
1B1
100
AcDbEntity
  8
0
370
    -3
  6
Continuous
100
AcDbLine
 10
-133.558552
 20
56.482281
 30
0.0
 11
-133.558552
 21
2.482281
 31
0.0
  0
LINE
  5
1B2
100
AcDbEntity
  8
0
370
    -3
  6
Continuous
100
AcDbLine
 10
-138.058552
 20
2.482281
 30
0.0
 11
-133.558552
 21
2.482281
 31
0.0
  0
LINE
  5
1B3
100
AcDbEntity
  8
0
370
    -3
  6
Continuous
100
AcDbLine
 10
-130.558552
 20
-16.410912
 30
0.0
 11
-130.558552
 21
-3.151789
 31
0.0
  0
LINE
  5
1B4
100
AcDbEntity
  8
0
370
    -3
  6
Continuous
100
AcDbLine
 10
-145.058552
 20
-98.517719
 30
0.0
 11
-122.558552
 21
-98.517719
 31
0.0
  0
LINE
  5
1B5
100
AcDbEntity
  8
0
370
    -3
  6
Continuous
100
AcDbLine
 10
-145.058552
 20
-58.517719
 30
0.0
 11
-124.558552
 21
-58.517719
 31
0.0
  0
ARC
  5
1B6
100
AcDbEntity
  8
0
370
    -3
  6
Continuous
100
AcDbCircle
 10
-124.558552
 20
-44.053617
 30
0.0
 40
2.0
100
AcDbArc
 50
300.0
 51
0.0
  0
ARC
  5
1B7
100
AcDbEntity
  8
0
370
    -3
  6
Continuous
100
AcDbCircle
 10
-122.558552
 20
-47.517719
 30
0.0
 40
2.0
100
AcDbArc
 50
120.0
 51
180.0
  0
ARC
  5
1B8
100
AcDbEntity
  8
0
370
    -3
  6
Continuous
100
AcDbCircle
 10
-124.558552
 20
-62.98182
 30
0.0
 40
2.0
100
AcDbArc
 50
0.0
 51
60.0
  0
ARC
  5
1B9
100
AcDbEntity
  8
0
370
    -3
  6
Continuous
100
AcDbCircle
 10
-122.558552
 20
-59.517719
 30
0.0
 40
2.0
100
AcDbArc
 50
180.0
 51
240.0
  0
LINE
  5
1BA
100
AcDbEntity
  8
0
370
    -3
  6
Continuous
100
AcDbLine
 10
-124.558552
 20
-47.517719
 30
0.0
 11
-124.558552
 21
-59.517719
 31
0.0
  0
ARC
  5
1BB
100
AcDbEntity
  8
0
370
    -3
  6
Continuous
100
AcDbCircle
 10
-125.558552
 20
-15.99165
 30
0.0
 40
3.0
100
AcDbArc
 50
273.0
 51
0.0
  0
LINE
  5
1BC
100
AcDbEntity
  8
0
370
    -3
  6
Continuous
100
AcDbLine
 10
-122.558552
 20
18.482281
 30
0.0
 11
-122.558552
 21
-44.053617
 31
0.0
  0
LINE
  5
1BD
100
AcDbEntity
  8
0
370
    -3
  6
Continuous
100
AcDbLine
 10
-110.558552
 20
-78.517719
 30
0.0
 11
-110.558552
 21
21.482281
 31
0.0
  0
LINE
  5
1BE
100
AcDbEntity
  8
0
370
    -3
  6
Continuous
100
AcDbLine
 10
-110.558552
 20
-78.517719
 30
0.0
 11
-110.558552
 21
-171.517719
 31
0.0
  0
LINE
  5
1BF
100
AcDbEntity
  8
0
370
    -3
  6
Continuous
100
AcDbLine
 10
-125.401544
 20
-18.987538
 30
0.0
 11
-145.058552
 21
-20.017719
 31
0.0
  0
ARC
  5
1C0
100
AcDbEntity
  8
0
370
    -3
  6
Continuous
100
AcDbCircle
 10
-120.558552
 20
-169.517719
 30
0.0
 40
2.0
100
AcDbArc
 50
180.0
 51
270.0
  0
ARC
  5
1C1
100
AcDbEntity
  8
0
370
    -3
  6
Continuous
100
AcDbCircle
 10
-125.558552
 20
-144.036682
 30
0.0
 40
3.0
100
AcDbArc
 50
0.0
 51
87.0
  0
ARC
  5
1C2
100
AcDbEntity
  8
0
370
    -3
  6
Continuous
100
AcDbCircle
 10
-133.558552
 20
-16.410912
 30
0.0
 40
3.0
100
AcDbArc
 50
273.0
 51
0.0
  0
ARC
  5
1C3
100
AcDbEntity
  8
0
370
    -3
  6
Continuous
100
AcDbCircle
 10
-130.558552
 20
18.482281
 30
0.0
 40
3.0
100
AcDbArc
 50
90.0
 51
180.0
  0
ARC
  5
1C4
100
AcDbEntity
  8
0
370
    -3
  6
DASHED
100
AcDbCircle
 10
-119.558552
 20
18.482281
 30
0.0
 40
3.0
100
AcDbArc
 50
90.0
 51
180.0
  0
LINE
  5
1C5
100
AcDbEntity
  8
0
370
    -3
  6
Continuous
100
AcDbLine
 10
-145.058552
 20
-140.010613
 30
0.0
 11
-125.401544
 21
-141.040793
 31
0.0
  0
LINE
  5
1C6
100
AcDbEntity
  8
0
370
    -3
  6
Continuous
100
AcDbLine
 10
-110.558552
 20
-171.517719
 30
0.0
 11
-120.558552
 21
-171.517719
 31
0.0
  0
LINE
  5
1C7
100
AcDbEntity
  8
0
370
    -3
  6
Continuous
100
AcDbLine
 10
-110.558552
 20
21.482281
 30
0.0
 11
-130.558552
 21
21.482281
 31
0.0
  0
LINE
  5
1C8
100
AcDbEntity
  8
0
370
    -3
  6
Continuous
100
AcDbLine
 10
-133.558552
 20
3.482281
 30
0.0
 11
-133.558552
 21
18.482281
 31
0.0
  0
LINE
  5
1C9
100
AcDbEntity
  8
0
370
    -3
  6
Continuous
100
AcDbLine
 10
-122.558552
 20
-62.98182
 30
0.0
 11
-122.558552
 21
-169.517719
 31
0.0
  0
INSERT
  5
1D5
100
AcDbEntity
  8
0
100
AcDbBlockReference
  2
ZU_SYM__USERS_HOME_SYMBOL_POO_SYM_B20_-1
 10
-138.058552
 20
12.482281
 30
0.0
  0
INSERT
  5
1E1
100
AcDbEntity
  8
0
100
AcDbBlockReference
  2
ZU_SYM__USERS_HOME_SYMBOL_POO_SYM_B20_00002-1
 10
-122.558552
 20
2.482281
 30
0.0
  0
ARC
  5
1E2
100
AcDbEntity
  8
0
370
    -3
  6
Continuous
100
AcDbCircle
 10
-130.558552
 20
3.482281
 30
0.0
 40
3.0
100
AcDbArc
 50
180.0
 51
240.0
  0
ARC
  5
1E3
100
AcDbEntity
  8
0
370
    -3
  6
Continuous
100
AcDbCircle
 10
-133.558552
 20
-1.713871
 30
0.0
 40
3.0
100
AcDbArc
 50
360.0
 51
60.0
  0
INSERT
  5
1EF
100
AcDbEntity
  8
0
100
AcDbBlockReference
  2
ZU_SYM__USERS_HOME_SYMBOL_POO_SYM_B20_00003-1
 10
-122.558552
 20
-73.517719
 30
0.0
  0
INSERT
  5
1FB
100
AcDbEntity
  8
0
100
AcDbBlockReference
  2
ZU_SYM__USERS_HOME_SYMBOL_POO_SYM_B20_00004-1
 10
-122.558552
 20
-161.517719
 30
0.0
  0
LINE
  5
1FC
100
AcDbEntity
  8
0
370
    -3
  6
Continuous
100
AcDbLine
 10
-145.058552
 20
-20.017719
 30
0.0
 11
-145.058552
 21
-78.517719
 31
0.0
  0
LINE
  5
1FD
100
AcDbEntity
  8
0
370
    -3
  6
Continuous
100
AcDbLine
 10
-145.058552
 20
-137.017719
 30
0.0
 11
-145.058552
 21
-78.517719
 31
0.0
  0
LINE
  5
1FE
100
AcDbEntity
  8
0
370
    -3
  6
Continuous
100
AcDbLine
 10
-145.058552
 20
-78.517719
 30
0.0
 11
-145.058552
 21
-20.017719
 31
0.0
  0
LINE
  5
1FF
100
AcDbEntity
  8
0
370
    -3
  6
Continuous
100
AcDbLine
 10
-145.058552
 20
-20.017719
 30
0.0
 11
-145.058552
 21
-78.517719
 31
0.0
  0
LINE
  5
200
100
AcDbEntity
  8
0
370
    -3
  6
CENTER
100
AcDbLine
 10
-99.649739
 20
-78.517719
 30
0.0
 11
-326.42886
 21
-78.517719
 31
0.0
  0
LINE
  5
201
100
AcDbEntity
  8
0
370
    -3
  6
Continuous
100
AcDbLine
 10
-145.058552
 20
-137.017719
 30
0.0
 11
-145.058552
 21
-78.517719
 31
0.0
  0
CIRCLE
  5
202
100
AcDbEntity
  8
0
370
    -3
  6
Continuous
100
AcDbCircle
 10
219.412597
 20
-48.517719
 30
0.0
 40
99.0
  0
ARC
  5
203
100
AcDbEntity
  8
0
370
    -3
  6
Continuous
100
AcDbCircle
 10
206.25445
 20
-117.269905
 30
0.0
 40
38.0
100
AcDbArc
 50
128.284839
 51
189.4497
  0
ARC
  5
204
100
AcDbEntity
  8
0
370
    -3
  6
Continuous
100
AcDbCircle
 10
205.412597
 20
-58.751117
 30
0.0
 40
77.139212
100
AcDbArc
 50
91.910213
 51
165.359523
  0
LINE
  5
205
100
AcDbEntity
  8
0
370
    -3
  6
CENTER
100
AcDbLine
 10
99.778378
 20
-48.517719
 30
0.0
 11
219.412597
 21
-48.517719
 31
0.0
  0
CIRCLE
  5
206
100
AcDbEntity
  8
0
370
    -3
  6
Continuous
100
AcDbCircle
 10
219.412597
 20
-48.517719
 30
0.0
 40
105.0
  0
LINE
  5
207
100
AcDbEntity
  8
0
370
    -3
  6
Continuous
100
AcDbLine
 10
200.412597
 20
-53.517719
 30
0.0
 11
208.412597
 21
-53.517719
 31
0.0
  0
LINE
  5
208
100
AcDbEntity
  8
0
370
    -3
  6
Continuous
100
AcDbLine
 10
208.412597
 20
-53.517719
 30
0.0
 11
208.412597
 21
-43.517719
 31
0.0
  0
ARC
  5
209
100
AcDbEntity
  8
0
370
    -3
  6
Continuous
100
AcDbCircle
 10
219.412597
 20
-48.517719
 30
0.0
 40
16.0
100
AcDbArc
 50
198.209957
 51
161.790043
  0
LINE
  5
20A
100
AcDbEntity
  8
0
370
    -3
  6
Continuous
100
AcDbLine
 10
200.412597
 20
-53.517719
 30
0.0
 11
200.412597
 21
-43.517719
 31
0.0
  0
LINE
  5
20B
100
AcDbEntity
  8
0
370
    -3
  6
Continuous
100
AcDbLine
 10
200.412597
 20
-43.517719
 30
0.0
 11
208.412597
 21
-43.517719
 31
0.0
  0
CIRCLE
  5
20C
100
AcDbEntity
  8
0
370
    -3
  6
Continuous
100
AcDbCircle
 10
219.412597
 20
-48.517719
 30
0.0
 40
3.3235
  0
CIRCLE
  5
20D
100
AcDbEntity
  8
0
370
    -3
  6
Continuous
100
AcDbCircle
 10
219.412597
 20
-48.517719
 30
0.0
 40
4.0
  0
LINE
  5
20E
100
AcDbEntity
  8
0
370
    -3
  6
Continuous
100
AcDbLine
 10
331.912597
 20
-53.517719
 30
0.0
 11
331.912597
 21
-153.017719
 31
0.0
  0
LINE
  5
20F
100
AcDbEntity
  8
0
370
    -3
  6
Continuous
100
AcDbLine
 10
331.912597
 20
-43.517719
 30
0.0
 11
331.912597
 21
-53.517719
 31
0.0
  0
LINE
  5
210
100
AcDbEntity
  8
0
370
    -3
  6
Continuous
100
AcDbLine
 10
331.912597
 20
55.982281
 30
0.0
 11
331.912597
 21
-43.517719
 31
0.0
  0
LINE
  5
211
100
AcDbEntity
  8
0
370
    -3
  6
CENTER
100
AcDbLine
 10
219.412597
 20
-48.517719
 30
0.0
 11
219.412597
 21
-181.092141
 31
0.0
  0
LINE
  5
212
100
AcDbEntity
  8
0
370
    -3
  6
Continuous
100
AcDbLine
 10
216.412597
 20
47.294598
 30
0.0
 11
216.412597
 21
2.12811
 31
0.0
  0
LINE
  5
213
100
AcDbEntity
  8
0
370
    -3
  6
Continuous
100
AcDbLine
 10
222.412597
 20
47.294598
 30
0.0
 11
222.412597
 21
2.12811
 31
0.0
  0
LINE
  5
214
100
AcDbEntity
  8
0
370
    -3
  6
Continuous
100
AcDbLine
 10
315.224913
 20
-45.517719
 30
0.0
 11
270.058426
 21
-45.517719
 31
0.0
  0
LINE
  5
215
100
AcDbEntity
  8
0
370
    -3
  6
Continuous
100
AcDbLine
 10
315.224913
 20
-51.517719
 30
0.0
 11
270.058426
 21
-51.517719
 31
0.0
  0
LINE
  5
216
100
AcDbEntity
  8
0
370
    -3
  6
CENTER
100
AcDbLine
 10
250.596847
 20
-78.517719
 30
0.0
 11
190.584575
 21
-78.517719
 31
0.0
  0
LINE
  5
217
100
AcDbEntity
  8
0
370
    -3
  6
Continuous
100
AcDbLine
 10
310.551809
 20
-58.751117
 30
0.0
 11
310.551809
 21
-86.147975
 31
0.0
  0
LINE
  5
218
100
AcDbEntity
  8
0
370
    -3
  6
Continuous
100
AcDbLine
 10
167.412597
 20
-174.017719
 30
0.0
 11
219.412597
 21
-174.017719
 31
0.0
  0
LINE
  5
219
100
AcDbEntity
  8
0
370
    -3
  6
Continuous
100
AcDbLine
 10
271.412597
 20
-174.017719
 30
0.0
 11
219.412597
 21
-174.017719
 31
0.0
  0
LINE
  5
21A
100
AcDbEntity
  8
0
370
    -3
  6
CENTER
100
AcDbLine
 10
327.604359
 20
59.674044
 30
0.0
 11
308.351235
 21
40.42092
 31
0.0
  0
LINE
  5
21B
100
AcDbEntity
  8
0
370
    -3
  6
Continuous
100
AcDbLine
 10
310.113607
 20
63.396495
 30
0.0
 11
291.796958
 21
45.079846
 31
0.0
  0
LINE
  5
21C
100
AcDbEntity
  8
0
370
    -3
  6
Continuous
100
AcDbLine
 10
331.32681
 20
42.183292
 30
0.0
 11
313.010162
 21
23.866643
 31
0.0
  0
LINE
  5
21D
100
AcDbEntity
  8
0
370
    -3
  6
Continuous
100
AcDbLine
 10
114.912597
 20
-161.017719
 30
0.0
 11
323.912597
 21
-161.017719
 31
0.0
  0
LINE
  5
21E
100
AcDbEntity
  8
0
370
    -3
  6
Continuous
100
AcDbLine
 10
114.912597
 20
63.982281
 30
0.0
 11
323.912597
 21
63.982281
 31
0.0
  0
LINE
  5
21F
100
AcDbEntity
  8
0
370
    -3
  6
Continuous
100
AcDbLine
 10
331.32681
 20
-139.218729
 30
0.0
 11
313.010162
 21
-120.90208
 31
0.0
  0
LINE
  5
220
100
AcDbEntity
  8
0
370
    -3
  6
Continuous
100
AcDbLine
 10
310.113607
 20
-160.431932
 30
0.0
 11
291.796958
 21
-142.115284
 31
0.0
  0
LINE
  5
221
100
AcDbEntity
  8
0
370
    -3
  6
CENTER
100
AcDbLine
 10
219.412597
 20
70.036529
 30
0.0
 11
219.412597
 21
-48.517719
 31
0.0
  0
LINE
  5
222
100
AcDbEntity
  8
0
370
    -3
  6
CENTER
100
AcDbLine
 10
344.130329
 20
-48.517719
 30
0.0
 11
219.412597
 21
-48.517719
 31
0.0
  0
ARC
  5
223
100
AcDbEntity
  8
0
370
    -3
  6
Continuous
100
AcDbCircle
 10
219.412597
 20
-48.517719
 30
0.0
 40
110.0
100
AcDbArc
 50
327.024699
 51
356.436697
  0
ARC
  5
224
100
AcDbEntity
  8
0
370
    -3
  6
Continuous
100
AcDbCircle
 10
219.412597
 20
-48.517719
 30
0.0
 40
110.0
100
AcDbArc
 50
3.787068
 51
32.975301
  0
ARC
  5
225
100
AcDbEntity
  8
0
370
    -3
  6
Continuous
100
AcDbCircle
 10
332.194138
 20
-55.540814
 30
0.0
 40
3.0
100
AcDbArc
 50
123.156214
 51
176.436697
  0
ARC
  5
226
100
AcDbEntity
  8
0
370
    -3
  6
Continuous
100
AcDbCircle
 10
328.912597
 20
-50.517719
 30
0.0
 40
3.0
100
AcDbArc
 50
303.156214
 51
0.0
  0
ARC
  5
227
100
AcDbEntity
  8
0
370
    -3
  6
Continuous
100
AcDbCircle
 10
332.16585
 20
-41.054217
 30
0.0
 40
3.0
100
AcDbArc
 50
183.787068
 51
243.214562
  0
ARC
  5
228
100
AcDbEntity
  8
0
370
    -3
  6
Continuous
100
AcDbCircle
 10
329.912597
 20
-45.517719
 30
0.0
 40
2.0
100
AcDbArc
 50
0.0
 51
63.214562
  0
ARC
  5
229
100
AcDbEntity
  8
0
370
    -3
  6
Continuous
100
AcDbCircle
 10
213.412597
 20
15.585065
 30
0.0
 40
3.0
100
AcDbArc
 50
0.0
 51
90.695721
  0
ARC
  5
22A
100
AcDbEntity
  8
0
370
    -3
  6
Continuous
100
AcDbCircle
 10
219.412597
 20
-478.517719
 30
0.0
 40
497.139212
100
AcDbArc
 50
90.695721
 51
91.910213
  0
ARC
  5
22B
100
AcDbEntity
  8
0
370
    -3
  6
Continuous
100
AcDbCircle
 10
225.412597
 20
15.585065
 30
0.0
 40
3.0
100
AcDbArc
 50
89.304279
 51
180.0
  0
ARC
  5
22C
100
AcDbEntity
  8
0
370
    -3
  6
Continuous
100
AcDbCircle
 10
219.412597
 20
-478.517719
 30
0.0
 40
497.139212
100
AcDbArc
 50
88.089787
 51
89.304279
  0
ARC
  5
22D
100
AcDbEntity
  8
0
370
    -3
  6
Continuous
100
AcDbCircle
 10
213.412597
 20
47.294598
 30
0.0
 40
3.0
100
AcDbArc
 50
0.0
 51
93.583322
  0
ARC
  5
22E
100
AcDbEntity
  8
0
370
    -3
  6
Continuous
100
AcDbCircle
 10
225.412597
 20
47.294598
 30
0.0
 40
3.0
100
AcDbArc
 50
86.416678
 51
180.0
  0
ARC
  5
22F
100
AcDbEntity
  8
0
370
    -3
  6
Continuous
100
AcDbCircle
 10
225.412597
 20
2.12811
 30
0.0
 40
3.0
100
AcDbArc
 50
180.0
 51
263.243673
  0
ARC
  5
230
100
AcDbEntity
  8
0
370
    -3
  6
Continuous
100
AcDbCircle
 10
213.412597
 20
2.12811
 30
0.0
 40
3.0
100
AcDbArc
 50
276.756327
 51
0.0
  0
ARC
  5
231
100
AcDbEntity
  8
0
370
    -3
  6
Continuous
100
AcDbCircle
 10
233.412597
 20
-58.751117
 30
0.0
 40
77.139212
100
AcDbArc
 50
0.0
 51
1.774136
  0
ARC
  5
232
100
AcDbEntity
  8
0
370
    -3
  6
Continuous
100
AcDbCircle
 10
270.058426
 20
-54.517719
 30
0.0
 40
3.0
100
AcDbArc
 50
90.0
 51
173.243673
  0
ARC
  5
233
100
AcDbEntity
  8
0
370
    -3
  6
Continuous
100
AcDbCircle
 10
270.058426
 20
-42.517719
 30
0.0
 40
3.0
100
AcDbArc
 50
186.756327
 51
270.0
  0
ARC
  5
234
100
AcDbEntity
  8
0
370
    -3
  6
Continuous
100
AcDbCircle
 10
315.224913
 20
-42.517719
 30
0.0
 40
3.0
100
AcDbArc
 50
270.0
 51
3.583322
  0
ARC
  5
235
100
AcDbEntity
  8
0
370
    -3
  6
Continuous
100
AcDbCircle
 10
315.224913
 20
-54.517719
 30
0.0
 40
3.0
100
AcDbArc
 50
356.416678
 51
90.0
  0
ARC
  5
236
100
AcDbEntity
  8
0
370
    -3
  6
Continuous
100
AcDbCircle
 10
303.20951
 20
-40.517719
 30
0.0
 40
5.0
100
AcDbArc
 50
270.0
 51
14.640477
  0
ARC
  5
237
100
AcDbEntity
  8
0
370
    -3
  6
Continuous
100
AcDbCircle
 10
305.517228
 20
-56.517719
 30
0.0
 40
5.0
100
AcDbArc
 50
1.774136
 51
90.0
  0
ARC
  5
238
100
AcDbEntity
  8
0
370
    -3
  6
Continuous
100
AcDbCircle
 10
179.612881
 20
-83.517471
 30
0.0
 40
5.0
100
AcDbArc
 50
308.284839
 51
41.328302
  0
ARC
  5
239
100
AcDbEntity
  8
0
370
    -3
  6
Continuous
100
AcDbCircle
 10
296.017393
 20
-102.994366
 30
0.0
 40
5.0
100
AcDbArc
 50
185.724046
 51
324.581889
  0
ARC
  5
23A
100
AcDbEntity
  8
0
370
    -3
  6
Continuous
100
AcDbCircle
 10
258.206869
 20
-106.784385
 30
0.0
 40
33.0
100
AcDbArc
 50
5.724046
 51
75.297859
  0
ARC
  5
23B
100
AcDbEntity
  8
0
370
    -3
  6
Continuous
100
AcDbCircle
 10
267.851044
 20
-70.028571
 30
0.0
 40
5.0
100
AcDbArc
 50
156.054647
 51
255.297859
  0
ARC
  5
23C
100
AcDbEntity
  8
0
370
    -3
  6
Continuous
100
AcDbCircle
 10
289.976062
 20
-110.620837
 30
0.0
 40
5.0
100
AcDbArc
 50
173.114296
 51
318.648897
  0
ARC
  5
23D
100
AcDbEntity
  8
0
370
    -3
  6
Continuous
100
AcDbCircle
 10
265.019463
 20
-75.517973
 30
0.0
 40
5.0
100
AcDbArc
 50
149.373547
 51
257.708023
  0
ARC
  5
23E
100
AcDbEntity
  8
0
370
    -3
  6
Continuous
100
AcDbCircle
 10
258.206869
 20
-106.784385
 30
0.0
 40
27.0
100
AcDbArc
 50
353.114296
 51
77.708023
  0
ARC
  5
23F
100
AcDbEntity
  8
0
370
    -3
  6
Continuous
100
AcDbCircle
 10
171.243465
 20
-129.23782
 30
0.0
 40
5.0
100
AcDbArc
 50
239.173668
 51
18.872129
  0
ARC
  5
240
100
AcDbEntity
  8
0
370
    -3
  6
Continuous
100
AcDbCircle
 10
206.25445
 20
-117.269905
 30
0.0
 40
32.0
100
AcDbArc
 50
127.256131
 51
198.872129
  0
ARC
  5
241
100
AcDbEntity
  8
0
370
    -3
  6
Continuous
100
AcDbCircle
 10
183.855421
 20
-87.820228
 30
0.0
 40
5.0
100
AcDbArc
 50
307.256131
 51
47.864198
  0
ARC
  5
242
100
AcDbEntity
  8
0
370
    -3
  6
Continuous
100
AcDbCircle
 10
305.551809
 20
-86.147975
 30
0.0
 40
5.0
100
AcDbArc
 50
336.401698
 51
0.0
  0
CIRCLE
  5
243
100
AcDbEntity
  8
0
370
    -3
  6
Continuous
100
AcDbCircle
 10
219.412597
 20
-48.517719
 30
0.0
 40
33.5
  0
ARC
  5
244
100
AcDbEntity
  8
0
370
    -3
  6
Continuous
100
AcDbCircle
 10
289.403894
 20
-162.077388
 30
0.0
 40
5.433559
100
AcDbArc
 50
168.753929
 51
178.21823
  0
ARC
  5
245
100
AcDbEntity
  8
0
370
    -3
  6
Continuous
100
AcDbCircle
 10
271.412597
 20
-161.517719
 30
0.0
 40
12.566441
100
AcDbArc
 50
270.0
 51
358.21823
  0
ARC
  5
246
100
AcDbEntity
  8
0
370
    -3
  6
Continuous
100
AcDbCircle
 10
219.412597
 20
-48.517719
 30
0.0
 40
110.0
100
AcDbArc
 50
57.024699
 51
90.0
  0
ARC
  5
247
100
AcDbEntity
  8
0
370
    -3
  6
Continuous
100
AcDbCircle
 10
284.72589
 20
52.150914
 30
0.0
 40
10.0
100
AcDbArc
 50
237.024699
 51
315.0
  0
ARC
  5
248
100
AcDbEntity
  8
0
370
    -3
  6
Continuous
100
AcDbCircle
 10
320.08123
 20
16.795575
 30
0.0
 40
10.0
100
AcDbArc
 50
135.0
 51
212.975301
  0
ARC
  5
249
100
AcDbEntity
  8
0
370
    -3
  6
Continuous
100
AcDbCircle
 10
323.912597
 20
55.982281
 30
0.0
 40
8.0
100
AcDbArc
 50
0.0
 51
90.0
  0
ARC
  5
24A
100
AcDbEntity
  8
0
370
    -3
  6
CENTER
100
AcDbCircle
 10
219.412597
 20
-48.517719
 30
0.0
 40
140.0
100
AcDbArc
 50
32.66772
 51
54.405374
  0
CIRCLE
  5
24B
100
AcDbEntity
  8
0
370
    -3
  6
Continuous
100
AcDbCircle
 10
318.407546
 20
50.477231
 30
0.0
 40
7.5
  0
ARC
  5
24C
100
AcDbEntity
  8
0
370
    -3
  6
Continuous
100
AcDbCircle
 10
311.52782
 20
61.982281
 30
0.0
 40
2.0
100
AcDbArc
 50
90.0
 51
135.0
  0
ARC
  5
24D
100
AcDbEntity
  8
0
370
    -3
  6
Continuous
100
AcDbCircle
 10
329.912597
 20
43.597505
 30
0.0
 40
2.0
100
AcDbArc
 50
315.0
 51
0.0
  0
ARC
  5
24E
100
AcDbEntity
  8
0
370
    -3
  6
Continuous
100
AcDbCircle
 10
323.912597
 20
-153.017719
 30
0.0
 40
8.0
100
AcDbArc
 50
270.0
 51
0.0
  0
ARC
  5
24F
100
AcDbEntity
  8
0
370
    -3
  6
Continuous
100
AcDbCircle
 10
219.412597
 20
-48.517719
 30
0.0
 40
110.0
100
AcDbArc
 50
90.0
 51
122.975301
  0
ARC
  5
250
100
AcDbEntity
  8
0
370
    -3
  6
Continuous
100
AcDbCircle
 10
219.412597
 20
-48.517719
 30
0.0
 40
110.0
100
AcDbArc
 50
237.024699
 51
270.0
  0
ARC
  5
251
100
AcDbEntity
  8
0
370
    -3
  6
Continuous
100
AcDbCircle
 10
320.08123
 20
-113.831012
 30
0.0
 40
10.0
100
AcDbArc
 50
147.024699
 51
225.0
  0
ARC
  5
252
100
AcDbEntity
  8
0
370
    -3
  6
Continuous
100
AcDbCircle
 10
219.412597
 20
-48.517719
 30
0.0
 40
110.0
100
AcDbArc
 50
270.0
 51
302.975301
  0
ARC
  5
253
100
AcDbEntity
  8
0
370
    -3
  6
Continuous
100
AcDbCircle
 10
284.72589
 20
-149.186352
 30
0.0
 40
10.0
100
AcDbArc
 50
45.0
 51
122.975301
  0
ARC
  5
254
100
AcDbEntity
  8
0
370
    -3
  6
Continuous
100
AcDbCircle
 10
329.912597
 20
-140.632942
 30
0.0
 40
2.0
100
AcDbArc
 50
0.0
 51
45.0
  0
CIRCLE
  5
255
100
AcDbEntity
  8
0
370
    -3
  6
Continuous
100
AcDbCircle
 10
318.407546
 20
-147.512668
 30
0.0
 40
7.5
  0
ARC
  5
256
100
AcDbEntity
  8
0
370
    -3
  6
Continuous
100
AcDbCircle
 10
311.52782
 20
-159.017719
 30
0.0
 40
2.0
100
AcDbArc
 50
225.0
 51
270.0
  0
CIRCLE
  5
257
100
AcDbEntity
  8
0
370
    -3
  6
Continuous
100
AcDbCircle
 10
219.412597
 20
-48.517719
 30
0.0
 40
48.0
  0
CIRCLE
  5
258
100
AcDbEntity
  8
0
370
    -3
  6
Continuous
100
AcDbCircle
 10
219.412597
 20
-48.517719
 30
0.0
 40
23.5
  0
ARC
  5
259
100
AcDbEntity
  8
0
370
    -3
  6
Continuous
100
AcDbCircle
 10
118.743964
 20
-113.831012
 30
0.0
 40
10.0
100
AcDbArc
 50
315.0
 51
32.975301
  0
ARC
  5
25A
100
AcDbEntity
  8
0
370
    -3
  6
Continuous
100
AcDbCircle
 10
163.837954
 20
-124.329717
 30
0.0
 40
5.0
100
AcDbArc
 50
233.756398
 51
9.4497
  0
LINE
  5
25B
100
AcDbEntity
  8
0
370
    -3
  6
Continuous
100
AcDbLine
 10
107.498383
 20
-139.218729
 30
0.0
 11
125.815032
 21
-120.90208
 31
0.0
  0
LINE
  5
25C
100
AcDbEntity
  8
0
370
    -3
  6
Continuous
100
AcDbLine
 10
106.912597
 20
55.982281
 30
0.0
 11
106.912597
 21
-153.017719
 31
0.0
  0
LINE
  5
25D
100
AcDbEntity
  8
0
370
    -3
  6
Continuous
100
AcDbLine
 10
128.711586
 20
-160.431932
 30
0.0
 11
147.028235
 21
-142.115284
 31
0.0
  0
ARC
  5
25E
100
AcDbEntity
  8
0
370
    -3
  6
Continuous
100
AcDbCircle
 10
149.4213
 20
-162.077388
 30
0.0
 40
5.46926
100
AcDbArc
 50
1.78177
 51
11.246071
  0
ARC
  5
25F
100
AcDbEntity
  8
0
370
    -3
  6
Continuous
100
AcDbCircle
 10
167.412597
 20
-161.517719
 30
0.0
 40
12.53074
100
AcDbArc
 50
181.78177
 51
270.0
  0
ARC
  5
260
100
AcDbEntity
  8
0
370
    -3
  6
Continuous
100
AcDbCircle
 10
114.912597
 20
-153.017719
 30
0.0
 40
8.0
100
AcDbArc
 50
180.0
 51
270.0
  0
ARC
  5
261
100
AcDbEntity
  8
0
370
    -3
  6
Continuous
100
AcDbCircle
 10
154.099303
 20
-149.186352
 30
0.0
 40
10.0
100
AcDbArc
 50
57.024699
 51
135.0
  0
ARC
  5
262
100
AcDbEntity
  8
0
370
    -3
  6
Continuous
100
AcDbCircle
 10
108.912597
 20
-140.632942
 30
0.0
 40
2.0
100
AcDbArc
 50
135.0
 51
180.0
  0
CIRCLE
  5
263
100
AcDbEntity
  8
0
370
    -3
  6
Continuous
100
AcDbCircle
 10
120.417647
 20
-147.512668
 30
0.0
 40
7.5
  0
ARC
  5
264
100
AcDbEntity
  8
0
370
    -3
  6
Continuous
100
AcDbCircle
 10
127.297373
 20
-159.017719
 30
0.0
 40
2.0
100
AcDbArc
 50
270.0
 51
315.0
  0
LINE
  5
265
100
AcDbEntity
  8
0
370
    -3
  6
CENTER
100
AcDbLine
 10
112.207827
 20
58.687051
 30
0.0
 11
130.552785
 21
40.342093
 31
0.0
  0
LINE
  5
266
100
AcDbEntity
  8
0
370
    -3
  6
Continuous
100
AcDbLine
 10
107.498383
 20
42.183292
 30
0.0
 11
125.815032
 21
23.866643
 31
0.0
  0
LINE
  5
267
100
AcDbEntity
  8
0
370
    -3
  6
Continuous
100
AcDbLine
 10
128.711586
 20
63.396495
 30
0.0
 11
147.028235
 21
45.079846
 31
0.0
  0
ARC
  5
268
100
AcDbEntity
  8
0
370
    -3
  6
Continuous
100
AcDbCircle
 10
219.412597
 20
-48.517719
 30
0.0
 40
110.0
100
AcDbArc
 50
147.024699
 51
176.212932
  0
ARC
  5
269
100
AcDbEntity
  8
0
370
    -3
  6
Continuous
100
AcDbCircle
 10
114.912597
 20
55.982281
 30
0.0
 40
8.0
100
AcDbArc
 50
90.0
 51
180.0
  0
ARC
  5
26A
100
AcDbEntity
  8
0
370
    -3
  6
Continuous
100
AcDbCircle
 10
118.743964
 20
16.795575
 30
0.0
 40
10.0
100
AcDbArc
 50
327.024699
 51
45.0
  0
ARC
  5
26B
100
AcDbEntity
  8
0
370
    -3
  6
Continuous
100
AcDbCircle
 10
154.099303
 20
52.150914
 30
0.0
 40
10.0
100
AcDbArc
 50
225.0
 51
302.975301
  0
ARC
  5
26C
100
AcDbEntity
  8
0
370
    -3
  6
Continuous
100
AcDbCircle
 10
108.912597
 20
43.597505
 30
0.0
 40
2.0
100
AcDbArc
 50
180.0
 51
225.0
  0
ARC
  5
26D
100
AcDbEntity
  8
0
370
    -3
  6
CENTER
100
AcDbCircle
 10
219.412597
 20
-48.517719
 30
0.0
 40
140.0
100
AcDbArc
 50
130.186513
 51
140.01721
  0
CIRCLE
  5
26E
100
AcDbEntity
  8
0
370
    -3
  6
Continuous
100
AcDbCircle
 10
120.417647
 20
50.477231
 30
0.0
 40
7.5
  0
ARC
  5
26F
100
AcDbEntity
  8
0
370
    -3
  6
Continuous
100
AcDbCircle
 10
168.766768
 20
-42.517719
 30
0.0
 40
3.0
100
AcDbArc
 50
270.0
 51
353.243673
  0
ARC
  5
270
100
AcDbEntity
  8
0
370
    -3
  6
Continuous
100
AcDbCircle
 10
123.60028
 20
-42.517719
 30
0.0
 40
3.0
100
AcDbArc
 50
176.416678
 51
270.0
  0
ARC
  5
271
100
AcDbEntity
  8
0
370
    -3
  6
Continuous
100
AcDbCircle
 10
135.615683
 20
-40.517719
 30
0.0
 40
5.0
100
AcDbArc
 50
165.359523
 51
270.0
  0
ARC
  5
272
100
AcDbEntity
  8
0
370
    -3
  6
Continuous
100
AcDbCircle
 10
106.659343
 20
-41.054217
 30
0.0
 40
3.0
100
AcDbArc
 50
296.785438
 51
356.212932
  0
ARC
  5
273
100
AcDbEntity
  8
0
370
    -3
  6
Continuous
100
AcDbCircle
 10
108.912597
 20
-45.517719
 30
0.0
 40
2.0
100
AcDbArc
 50
116.785438
 51
180.0
  0
ARC
  5
274
100
AcDbEntity
  8
0
370
    -3
  6
Continuous
100
AcDbCircle
 10
219.412597
 20
-48.517719
 30
0.0
 40
110.0
100
AcDbArc
 50
183.563303
 51
212.975301
  0
ARC
  5
275
100
AcDbEntity
  8
0
370
    -3
  6
Continuous
100
AcDbCircle
 10
106.631055
 20
-55.540814
 30
0.0
 40
3.0
100
AcDbArc
 50
3.563303
 51
56.843786
  0
ARC
  5
276
100
AcDbEntity
  8
0
370
    -3
  6
Continuous
100
AcDbCircle
 10
109.912597
 20
-50.517719
 30
0.0
 40
3.0
100
AcDbArc
 50
180.0
 51
236.843786
  0
ARC
  5
277
100
AcDbEntity
  8
0
370
    -3
  6
Continuous
100
AcDbCircle
 10
123.60028
 20
-54.517719
 30
0.0
 40
3.0
100
AcDbArc
 50
90.0
 51
183.583322
  0
LINE
  5
278
100
AcDbEntity
  8
0
370
    -3
  6
Continuous
100
AcDbLine
 10
123.60028
 20
-51.517719
 30
0.0
 11
168.766768
 21
-51.517719
 31
0.0
  0
LINE
  5
279
100
AcDbEntity
  8
0
370
    -3
  6
Continuous
100
AcDbLine
 10
123.60028
 20
-45.517719
 30
0.0
 11
168.766768
 21
-45.517719
 31
0.0
  0
ARC
  5
27A
100
AcDbEntity
  8
0
370
    -3
  6
Continuous
100
AcDbCircle
 10
168.766768
 20
-54.517719
 30
0.0
 40
3.0
100
AcDbArc
 50
6.756327
 51
90.0
  0
LINE
  5
27B
100
AcDbEntity
  8
0
370
    -3
  6
CENTER
100
AcDbLine
 10
112.207827
 20
-155.722488
 30
0.0
 11
130.552785
 21
-137.37753
 31
0.0
  0
ARC
  5
27C
100
AcDbEntity
  8
0
370
    -3
  6
CENTER
100
AcDbCircle
 10
219.412597
 20
-48.517719
 30
0.0
 40
140.0
100
AcDbArc
 50
220.186513
 51
230.01721
  0
LINE
  5
27D
100
AcDbEntity
  8
0
370
    -3
  6
CENTER
100
AcDbLine
 10
326.617366
 20
-155.722488
 30
0.0
 11
308.272408
 21
-137.37753
 31
0.0
  0
ARC
  5
27E
100
AcDbEntity
  8
0
370
    -3
  6
CENTER
100
AcDbCircle
 10
219.412597
 20
-48.517719
 30
0.0
 40
140.0
100
AcDbArc
 50
310.186513
 51
320.01721
  0
LINE
  5
27F
100
AcDbEntity
  8
0
370
    -3
  6
CENTER
100
AcDbLine
 10
-243.058552
 20
-25.7355
 30
0.0
 11
-243.058552
 21
-132.663196
 31
0.0
  0
LINE
  5
280
100
AcDbEntity
  8
0
370
    -3
  6
Continuous
100
AcDbLine
 10
-110.058552
 20
185.610087
 30
0.0
 11
-110.058552
 21
373.610087
 31
0.0
  0
LINE
  5
281
100
AcDbEntity
  8
0
370
    -3
  6
Continuous
100
AcDbLine
 10
-110.058552
 20
185.610087
 30
0.0
 11
-28.953853
 21
182.777849
 31
0.0
  0
ARC
  5
282
100
AcDbEntity
  8
0
370
    -3
  6
Continuous
100
AcDbCircle
 10
-29.058552
 20
179.779676
 30
0.0
 40
3.0
100
AcDbArc
 50
0.0
 51
88.0
  0
LINE
  5
283
100
AcDbEntity
  8
0
370
    -3
  6
Continuous
100
AcDbLine
 10
-110.058552
 20
373.610087
 30
0.0
 11
-28.953853
 21
376.442325
 31
0.0
  0
ARC
  5
284
100
AcDbEntity
  8
0
370
    -3
  6
Continuous
100
AcDbCircle
 10
-29.058552
 20
379.440498
 30
0.0
 40
3.0
100
AcDbArc
 50
272.0
 51
0.0
  0
LINE
  5
285
100
AcDbEntity
  8
0
370
    -3
  6
Continuous
100
AcDbLine
 10
-110.558552
 20
279.610087
 30
0.0
 11
-110.558552
 21
185.610087
 31
0.0
  0
ARC
  5
286
100
AcDbEntity
  8
0
370
    -3
  6
Continuous
100
AcDbCircle
 10
-120.558552
 20
187.610087
 30
0.0
 40
2.0
100
AcDbArc
 50
180.0
 51
270.0
  0
ARC
  5
287
100
AcDbEntity
  8
0
370
    -3
  6
Continuous
100
AcDbCircle
 10
-130.558552
 20
262.110087
 30
0.0
 40
3.0
100
AcDbArc
 50
180.0
 51
270.0
  0
LINE
  5
288
100
AcDbEntity
  8
0
370
    -3
  6
Continuous
100
AcDbLine
 10
-125.558552
 20
259.110087
 30
0.0
 11
-130.558552
 21
259.110087
 31
0.0
  0
ARC
  5
289
100
AcDbEntity
  8
0
370
    -3
  6
Continuous
100
AcDbCircle
 10
-125.558552
 20
256.110087
 30
0.0
 40
3.0
100
AcDbArc
 50
0.0
 51
90.0
  0
LINE
  5
28A
100
AcDbEntity
  8
0
370
    -3
  6
Continuous
100
AcDbLine
 10
-138.058552
 20
279.610087
 30
0.0
 11
-138.058552
 21
259.110087
 31
0.0
  0
LINE
  5
28B
100
AcDbEntity
  8
0
370
    -3
  6
Continuous
100
AcDbLine
 10
-133.558552
 20
279.610087
 30
0.0
 11
-133.558552
 21
259.110087
 31
0.0
  0
LINE
  5
28C
100
AcDbEntity
  8
0
370
    -3
  6
Continuous
100
AcDbLine
 10
-133.558552
 20
259.110087
 30
0.0
 11
-138.058552
 21
259.110087
 31
0.0
  0
LINE
  5
28D
100
AcDbEntity
  8
0
370
    -3
  6
Continuous
100
AcDbLine
 10
-145.058552
 20
279.610087
 30
0.0
 11
-145.058552
 21
275.610087
 31
0.0
  0
ARC
  5
28E
100
AcDbEntity
  8
0
370
    -3
  6
Continuous
100
AcDbCircle
 10
-124.558552
 20
204.342138
 30
0.0
 40
2.0
100
AcDbArc
 50
300.0
 51
0.0
  0
ARC
  5
28F
100
AcDbEntity
  8
0
370
    -3
  6
Continuous
100
AcDbCircle
 10
-122.558552
 20
200.878036
 30
0.0
 40
2.0
100
AcDbArc
 50
120.0
 51
180.0
  0
LINE
  5
290
100
AcDbEntity
  8
0
370
    -3
  6
Continuous
100
AcDbLine
 10
-110.058552
 20
185.610087
 30
0.0
 11
-122.558552
 21
185.610087
 31
0.0
  0
ARC
  5
291
100
AcDbEntity
  8
0
370
    -3
  6
Continuous
100
AcDbCircle
 10
-122.558552
 20
187.610087
 30
0.0
 40
2.0
100
AcDbArc
 50
180.0
 51
270.0
  0
LINE
  5
292
100
AcDbEntity
  8
0
370
    -3
  6
Continuous
100
AcDbLine
 10
-124.558552
 20
200.878036
 30
0.0
 11
-124.558552
 21
187.610087
 31
0.0
  0
LINE
  5
293
100
AcDbEntity
  8
0
370
    -3
  6
Continuous
100
AcDbLine
 10
-122.558552
 20
256.110087
 30
0.0
 11
-122.558552
 21
187.610087
 31
0.0
  0
ARC
  5
294
100
AcDbEntity
  8
0
370
    -3
  6
Continuous
100
AcDbCircle
 10
-125.558552
 20
216.084018
 30
0.0
 40
3.0
100
AcDbArc
 50
0.0
 51
87.0
  0
LINE
  5
295
100
AcDbEntity
  8
0
370
    -3
  6
Continuous
100
AcDbLine
 10
-145.058552
 20
220.110087
 30
0.0
 11
-125.401544
 21
219.079907
 31
0.0
  0
LINE
  5
296
100
AcDbEntity
  8
0
370
    -3
  6
Continuous
100
AcDbLine
 10
-145.058552
 20
262.610087
 30
0.0
 11
-145.058552
 21
220.110087
 31
0.0
  0
LINE
  5
297
100
AcDbEntity
  8
0
370
    -3
  6
Continuous
100
AcDbLine
 10
-110.558552
 20
279.610087
 30
0.0
 11
-110.558552
 21
373.610087
 31
0.0
  0
ARC
  5
298
100
AcDbEntity
  8
0
370
    -3
  6
Continuous
100
AcDbCircle
 10
-120.558552
 20
371.610087
 30
0.0
 40
2.0
100
AcDbArc
 50
90.0
 51
180.0
  0
ARC
  5
299
100
AcDbEntity
  8
0
370
    -3
  6
Continuous
100
AcDbCircle
 10
-130.558552
 20
297.110087
 30
0.0
 40
3.0
100
AcDbArc
 50
90.0
 51
180.0
  0
LINE
  5
29A
100
AcDbEntity
  8
0
370
    -3
  6
Continuous
100
AcDbLine
 10
-125.558552
 20
300.110087
 30
0.0
 11
-130.558552
 21
300.110087
 31
0.0
  0
ARC
  5
29B
100
AcDbEntity
  8
0
370
    -3
  6
Continuous
100
AcDbCircle
 10
-125.558552
 20
303.110087
 30
0.0
 40
3.0
100
AcDbArc
 50
270.0
 51
360.0
  0
LINE
  5
29C
100
AcDbEntity
  8
0
370
    -3
  6
Continuous
100
AcDbLine
 10
-138.058552
 20
279.610087
 30
0.0
 11
-138.058552
 21
300.110087
 31
0.0
  0
LINE
  5
29D
100
AcDbEntity
  8
0
370
    -3
  6
Continuous
100
AcDbLine
 10
-133.558552
 20
279.610087
 30
0.0
 11
-133.558552
 21
300.110087
 31
0.0
  0
LINE
  5
29E
100
AcDbEntity
  8
0
370
    -3
  6
Continuous
100
AcDbLine
 10
-133.558552
 20
300.110087
 30
0.0
 11
-138.058552
 21
300.110087
 31
0.0
  0
LINE
  5
29F
100
AcDbEntity
  8
0
370
    -3
  6
Continuous
100
AcDbLine
 10
-145.058552
 20
279.610087
 30
0.0
 11
-145.058552
 21
283.610087
 31
0.0
  0
ARC
  5
2A0
100
AcDbEntity
  8
0
370
    -3
  6
Continuous
100
AcDbCircle
 10
-124.558552
 20
354.878036
 30
0.0
 40
2.0
100
AcDbArc
 50
0.0
 51
60.0
  0
ARC
  5
2A1
100
AcDbEntity
  8
0
370
    -3
  6
Continuous
100
AcDbCircle
 10
-122.558552
 20
358.342138
 30
0.0
 40
2.0
100
AcDbArc
 50
180.0
 51
240.0
  0
LINE
  5
2A2
100
AcDbEntity
  8
0
370
    -3
  6
Continuous
100
AcDbLine
 10
-110.058552
 20
373.610087
 30
0.0
 11
-122.558552
 21
373.610087
 31
0.0
  0
ARC
  5
2A3
100
AcDbEntity
  8
0
370
    -3
  6
Continuous
100
AcDbCircle
 10
-122.558552
 20
371.610087
 30
0.0
 40
2.0
100
AcDbArc
 50
90.0
 51
180.0
  0
LINE
  5
2A4
100
AcDbEntity
  8
0
370
    -3
  6
Continuous
100
AcDbLine
 10
-124.558552
 20
358.342138
 30
0.0
 11
-124.558552
 21
371.610087
 31
0.0
  0
LINE
  5
2A5
100
AcDbEntity
  8
0
370
    -3
  6
Continuous
100
AcDbLine
 10
-122.558552
 20
303.110087
 30
0.0
 11
-122.558552
 21
371.610087
 31
0.0
  0
ARC
  5
2A6
100
AcDbEntity
  8
0
370
    -3
  6
Continuous
100
AcDbCircle
 10
-125.558552
 20
343.136156
 30
0.0
 40
3.0
100
AcDbArc
 50
273.0
 51
360.0
  0
LINE
  5
2A7
100
AcDbEntity
  8
0
370
    -3
  6
Continuous
100
AcDbLine
 10
-145.058552
 20
339.110087
 30
0.0
 11
-125.401544
 21
340.140267
 31
0.0
  0
LINE
  5
2A8
100
AcDbEntity
  8
0
370
    -3
  6
Continuous
100
AcDbLine
 10
-145.058552
 20
296.610087
 30
0.0
 11
-145.058552
 21
339.110087
 31
0.0
  0
ARC
  5
2A9
100
AcDbEntity
  8
0
370
    -3
  6
Continuous
100
AcDbCircle
 10
-49.349387
 20
222.100697
 30
0.0
 40
3.0
100
AcDbArc
 50
38.406433
 51
90.0
  0
LINE
  5
2AA
100
AcDbEntity
  8
0
370
    -3
  6
Continuous
100
AcDbLine
 10
-46.998516
 20
223.964405
 30
0.0
 11
-26.707681
 21
198.369645
 31
0.0
  0
ARC
  5
2AB
100
AcDbEntity
  8
0
370
    -3
  6
Continuous
100
AcDbCircle
 10
-29.058552
 20
196.505938
 30
0.0
 40
3.0
100
AcDbArc
 50
0.0
 51
38.406433
  0
ARC
  5
2AC
100
AcDbEntity
  8
0
370
    -3
  6
Continuous
100
AcDbCircle
 10
-49.349387
 20
216.615416
 30
0.0
 40
3.0
100
AcDbArc
 50
38.406433
 51
90.0
  0
LINE
  5
2AD
100
AcDbEntity
  8
0
370
    -3
  6
Continuous
100
AcDbLine
 10
-46.998516
 20
218.479123
 30
0.0
 11
-26.707681
 21
192.884364
 31
0.0
  0
ARC
  5
2AE
100
AcDbEntity
  8
0
370
    -3
  6
Continuous
100
AcDbCircle
 10
-29.058552
 20
191.020656
 30
0.0
 40
3.0
100
AcDbArc
 50
0.0
 51
38.406433
  0
LINE
  5
2AF
100
AcDbEntity
  8
0
370
    -3
  6
Continuous
100
AcDbLine
 10
-29.313853
 20
225.100697
 30
0.0
 11
-44.296567
 21
225.100697
 31
0.0
  0
ARC
  5
2B0
100
AcDbEntity
  8
0
370
    -3
  6
Continuous
100
AcDbCircle
 10
-49.349387
 20
342.604758
 30
0.0
 40
3.0
100
AcDbArc
 50
270.0
 51
321.593567
  0
LINE
  5
2B1
100
AcDbEntity
  8
0
370
    -3
  6
Continuous
100
AcDbLine
 10
-46.998516
 20
340.741051
 30
0.0
 11
-26.707681
 21
366.33581
 31
0.0
  0
ARC
  5
2B2
100
AcDbEntity
  8
0
370
    -3
  6
Continuous
100
AcDbCircle
 10
-29.058552
 20
368.199518
 30
0.0
 40
3.0
100
AcDbArc
 50
321.593567
 51
0.0
  0
ARC
  5
2B3
100
AcDbEntity
  8
0
370
    -3
  6
Continuous
100
AcDbCircle
 10
-29.058552
 20
362.714236
 30
0.0
 40
3.0
100
AcDbArc
 50
321.593567
 51
0.0
  0
ARC
  5
2B4
100
AcDbEntity
  8
0
370
    -3
  6
Continuous
100
AcDbCircle
 10
-49.349387
 20
337.119477
 30
0.0
 40
3.0
100
AcDbArc
 50
270.0
 51
321.593567
  0
LINE
  5
2B5
100
AcDbEntity
  8
0
370
    -3
  6
Continuous
100
AcDbLine
 10
-46.998516
 20
335.255769
 30
0.0
 11
-26.707681
 21
360.850529
 31
0.0
  0
LINE
  5
2B6
100
AcDbEntity
  8
0
370
    -3
  6
Continuous
100
AcDbLine
 10
-29.313853
 20
334.119477
 30
0.0
 11
-44.296567
 21
334.119477
 31
0.0
  0
ARC
  5
2B7
100
AcDbEntity
  8
0
370
    -3
  6
Continuous
100
AcDbCircle
 10
-44.899338
 20
285.610087
 30
0.0
 40
3.0
100
AcDbArc
 50
180.0
 51
270.0
  0
ARC
  5
2B8
100
AcDbEntity
  8
0
370
    -3
  6
Continuous
100
AcDbCircle
 10
-44.899338
 20
273.610087
 30
0.0
 40
3.0
100
AcDbArc
 50
90.0
 51
180.0
  0
ARC
  5
2B9
100
AcDbEntity
  8
0
370
    -3
  6
Continuous
100
AcDbCircle
 10
-29.058552
 20
273.610087
 30
0.0
 40
3.0
100
AcDbArc
 50
0.0
 51
90.0
  0
ARC
  5
2BA
100
AcDbEntity
  8
0
370
    -3
  6
Continuous
100
AcDbCircle
 10
-29.058552
 20
285.610087
 30
0.0
 40
3.0
100
AcDbArc
 50
270.0
 51
0.0
  0
LINE
  5
2BB
100
AcDbEntity
  8
0
370
    -3
  6
Continuous
100
AcDbLine
 10
-44.899338
 20
276.610087
 30
0.0
 11
-29.058552
 21
276.610087
 31
0.0
  0
LINE
  5
2BC
100
AcDbEntity
  8
0
370
    -3
  6
Continuous
100
AcDbLine
 10
-44.899338
 20
282.610087
 30
0.0
 11
-29.058552
 21
282.610087
 31
0.0
  0
LINE
  5
2BD
100
AcDbEntity
  8
0
370
    -3
  6
Continuous
100
AcDbLine
 10
49.941448
 20
279.610087
 30
0.0
 11
49.941448
 21
260.610087
 31
0.0
  0
ARC
  5
2BE
100
AcDbEntity
  8
0
370
    -3
  6
Continuous
100
AcDbCircle
 10
49.541448
 20
295.210087
 30
0.0
 40
0.4
100
AcDbArc
 50
0.0
 51
90.0
  0
LINE
  5
2BF
100
AcDbEntity
  8
0
370
    -3
  6
Continuous
100
AcDbLine
 10
49.941448
 20
260.610087
 30
0.0
 11
4.941448
 21
260.610087
 31
0.0
  0
LINE
  5
2C0
100
AcDbEntity
  8
0
370
    -3
  6
Continuous
100
AcDbLine
 10
49.541448
 20
295.610087
 30
0.0
 11
2.501256
 21
295.610087
 31
0.0
  0
LINE
  5
2C1
100
AcDbEntity
  8
0
370
    -3
  6
Continuous
100
AcDbLine
 10
4.941448
 20
263.610087
 30
0.0
 11
4.941448
 21
260.610087
 31
0.0
  0
LINE
  5
2C2
100
AcDbEntity
  8
0
370
    -3
  6
Continuous
100
AcDbLine
 10
1.941448
 20
295.460087
 30
0.0
 11
2.501256
 21
295.610087
 31
0.0
  0
LINE
  5
2C3
100
AcDbEntity
  8
0
370
    -3
  6
Continuous
100
AcDbLine
 10
1.941448
 20
295.460087
 30
0.0
 11
0.741448
 21
295.460087
 31
0.0
  0
LINE
  5
2C4
100
AcDbEntity
  8
0
370
    -3
  6
Continuous
100
AcDbLine
 10
-2.058552
 20
296.610087
 30
0.0
 11
-0.258552
 21
296.610087
 31
0.0
  0
LINE
  5
2C5
100
AcDbEntity
  8
0
370
    -3
  6
Continuous
100
AcDbLine
 10
-0.058552
 20
296.410087
 30
0.0
 11
-0.058552
 21
279.610087
 31
0.0
  0
ARC
  5
2C6
100
AcDbEntity
  8
0
370
    -3
  6
Continuous
100
AcDbCircle
 10
0.741448
 20
296.260087
 30
0.0
 40
0.8
100
AcDbArc
 50
183.703197
 51
270.0
  0
LINE
  5
2C7
100
AcDbEntity
  8
0
370
    -3
  6
Continuous
100
AcDbLine
 10
-0.058552
 20
296.410087
 30
0.0
 11
-0.258552
 21
296.610087
 31
0.0
  0
LINE
  5
2C8
100
AcDbEntity
  8
0
370
    -3
  6
Continuous
100
AcDbLine
 10
1.941448
 20
263.760087
 30
0.0
 11
2.501256
 21
263.610087
 31
0.0
  0
LINE
  5
2C9
100
AcDbEntity
  8
0
370
    -3
  6
Continuous
100
AcDbLine
 10
-2.058552
 20
262.610087
 30
0.0
 11
-0.258552
 21
262.610087
 31
0.0
  0
LINE
  5
2CA
100
AcDbEntity
  8
0
370
    -3
  6
Continuous
100
AcDbLine
 10
49.541448
 20
263.610087
 30
0.0
 11
2.501256
 21
263.610087
 31
0.0
  0
LINE
  5
2CB
100
AcDbEntity
  8
0
370
    -3
  6
Continuous
100
AcDbLine
 10
1.941448
 20
263.760087
 30
0.0
 11
0.741448
 21
263.760087
 31
0.0
  0
LINE
  5
2CC
100
AcDbEntity
  8
0
370
    -3
  6
Continuous
100
AcDbLine
 10
-0.058552
 20
262.810087
 30
0.0
 11
-0.058552
 21
279.610087
 31
0.0
  0
ARC
  5
2CD
100
AcDbEntity
  8
0
370
    -3
  6
Continuous
100
AcDbCircle
 10
0.741448
 20
262.960087
 30
0.0
 40
0.8
100
AcDbArc
 50
90.0
 51
176.296803
  0
LINE
  5
2CE
100
AcDbEntity
  8
0
370
    -3
  6
Continuous
100
AcDbLine
 10
-0.058552
 20
262.810087
 30
0.0
 11
-0.258552
 21
262.610087
 31
0.0
  0
LINE
  5
2CF
100
AcDbEntity
  8
0
370
    -3
  6
Continuous
100
AcDbLine
 10
49.941448
 20
279.610087
 30
0.0
 11
49.941448
 21
295.210087
 31
0.0
  0
ARC
  5
2D0
100
AcDbEntity
  8
0
370
    -3
  6
Continuous
100
AcDbCircle
 10
49.541448
 20
264.010087
 30
0.0
 40
0.4
100
AcDbArc
 50
270.0
 51
0.0
  0
LINE
  5
2D1
100
AcDbEntity
  8
0
370
    -3
  6
Continuous
100
AcDbLine
 10
-17.104591
 20
167.432656
 30
0.0
 11
-17.104591
 21
167.110087
 31
0.0
  0
LINE
  5
2D2
100
AcDbEntity
  8
0
370
    -3
  6
Continuous
100
AcDbLine
 10
-6.058552
 20
175.610087
 30
0.0
 11
-7.058552
 21
174.610087
 31
0.0
  0
LINE
  5
2D3
100
AcDbEntity
  8
0
370
    -3
  6
Continuous
100
AcDbLine
 10
-7.058552
 20
174.610087
 30
0.0
 11
-10.058552
 21
174.610087
 31
0.0
  0
LINE
  5
2D4
100
AcDbEntity
  8
0
370
    -3
  6
Continuous
100
AcDbLine
 10
-7.058552
 20
384.610087
 30
0.0
 11
-6.058552
 21
383.610087
 31
0.0
  0
LINE
  5
2D5
100
AcDbEntity
  8
0
370
    -3
  6
Continuous
100
AcDbLine
 10
-10.058552
 20
384.610087
 30
0.0
 11
-7.058552
 21
384.610087
 31
0.0
  0
LINE
  5
2D6
100
AcDbEntity
  8
0
370
    -3
  6
Continuous
100
AcDbLine
 10
-3.058552
 20
313.110087
 30
0.0
 11
-2.058552
 21
313.110087
 31
0.0
  0
LINE
  5
2D7
100
AcDbEntity
  8
0
370
    -3
  6
Continuous
100
AcDbLine
 10
-3.058552
 20
246.110087
 30
0.0
 11
-2.058552
 21
246.110087
 31
0.0
  0
LINE
  5
2D8
100
AcDbEntity
  8
0
370
    -3
  6
Continuous
100
AcDbLine
 10
-2.058552
 20
246.110087
 30
0.0
 11
-2.058552
 21
313.110087
 31
0.0
  0
ARC
  5
2D9
100
AcDbEntity
  8
0
370
    -3
  6
Continuous
100
AcDbCircle
 10
-7.058569
 20
234.456981
 30
0.0
 40
3.0
100
AcDbArc
 50
300.000187
 51
0.0
  0
ARC
  5
2DA
100
AcDbEntity
  8
0
370
    -3
  6
Continuous
100
AcDbCircle
 10
-3.058552
 20
245.110087
 30
0.0
 40
1.0
100
AcDbArc
 50
90.0
 51
180.0
  0
ARC
  5
2DB
100
AcDbEntity
  8
0
370
    -3
  6
Continuous
100
AcDbCircle
 10
-3.058552
 20
314.110087
 30
0.0
 40
1.0
100
AcDbArc
 50
180.0
 51
270.0
  0
LINE
  5
2DC
100
AcDbEntity
  8
0
370
    -3
  6
Continuous
100
AcDbLine
 10
-24.058552
 20
392.110087
 30
0.0
 11
-10.058552
 21
392.110087
 31
0.0
  0
ARC
  5
2DD
100
AcDbEntity
  8
0
370
    -3
  6
Continuous
100
AcDbCircle
 10
-24.058552
 20
390.110087
 30
0.0
 40
2.0
100
AcDbArc
 50
90.0
 51
180.0
  0
LINE
  5
2DE
100
AcDbEntity
  8
0
370
    -3
  6
Continuous
100
AcDbLine
 10
-4.058552
 20
279.610087
 30
0.0
 11
-4.058552
 21
324.763193
 31
0.0
  0
LINE
  5
2DF
100
AcDbEntity
  8
0
370
    -3
  6
Continuous
100
AcDbLine
 10
-10.058552
 20
279.610087
 30
0.0
 11
-10.058552
 21
392.110087
 31
0.0
  0
LINE
  5
2E0
100
AcDbEntity
  8
0
370
    -3
  6
Continuous
100
AcDbLine
 10
-4.058552
 20
279.610087
 30
0.0
 11
-4.058552
 21
234.456981
 31
0.0
  0
LINE
  5
2E1
100
AcDbEntity
  8
0
370
    -3
  6
Continuous
100
AcDbLine
 10
-6.058552
 20
279.610087
 30
0.0
 11
-6.058552
 21
175.610087
 31
0.0
  0
LINE
  5
2E2
100
AcDbEntity
  8
0
370
    -3
  6
Continuous
100
AcDbLine
 10
-10.058552
 20
279.610087
 30
0.0
 11
-10.058552
 21
167.110087
 31
0.0
  0
ARC
  5
2E3
100
AcDbEntity
  8
0
370
    -3
  6
Continuous
100
AcDbCircle
 10
-4.058552
 20
229.260838
 30
0.0
 40
3.0
100
AcDbArc
 50
120.000187
 51
131.810315
  0
ARC
  5
2E4
100
AcDbEntity
  8
0
370
    -3
  6
Continuous
100
AcDbCircle
 10
-7.058552
 20
324.763193
 30
0.0
 40
3.0
100
AcDbArc
 50
0.0
 51
70.528779
  0
LINE
  5
2E5
100
AcDbEntity
  8
0
370
    -3
  6
Continuous
100
AcDbLine
 10
-6.058552
 20
279.610087
 30
0.0
 11
-6.058552
 21
383.610087
 31
0.0
  0
ARC
  5
2E6
100
AcDbEntity
  8
0
370
    -3
  6
Continuous
100
AcDbCircle
 10
-24.058552
 20
169.110087
 30
0.0
 40
2.0
100
AcDbArc
 50
180.0
 51
270.0
  0
LINE
  5
2E7
100
AcDbEntity
  8
0
370
    -3
  6
Continuous
100
AcDbLine
 10
-26.058552
 20
169.110087
 30
0.0
 11
-26.058552
 21
390.110087
 31
0.0
  0
LINE
  5
2E8
100
AcDbEntity
  8
0
370
    -3
  6
Continuous
100
AcDbLine
 10
-10.058552
 20
167.110087
 30
0.0
 11
-24.058552
 21
167.110087
 31
0.0
  0
ARC
  5
2E9
100
AcDbEntity
  8
0
370
    -3
  6
Continuous
100
AcDbCircle
 10
-14.058552
 20
287.610087
 30
0.0
 40
3.0
100
AcDbArc
 50
180.0
 51
270.0
  0
ARC
  5
2EA
100
AcDbEntity
  8
0
370
    -3
  6
Continuous
100
AcDbCircle
 10
-14.058552
 20
343.05866
 30
0.0
 40
3.0
100
AcDbArc
 50
90.0
 51
180.0
  0
LINE
  5
2EB
100
AcDbEntity
  8
0
370
    -3
  6
Continuous
100
AcDbLine
 10
-17.058552
 20
287.610087
 30
0.0
 11
-17.058552
 21
367.896884
 31
0.0
  0
ARC
  5
2EC
100
AcDbEntity
  8
0
370
    -3
  6
Continuous
100
AcDbCircle
 10
-14.058552
 20
367.896884
 30
0.0
 40
3.0
100
AcDbArc
 50
90.0
 51
180.0
  0
LINE
  5
2ED
100
AcDbEntity
  8
0
370
    -3
  6
Continuous
100
AcDbLine
 10
-10.058552
 20
370.896884
 30
0.0
 11
-14.058552
 21
370.896884
 31
0.0
  0
LINE
  5
2EE
100
AcDbEntity
  8
0
370
    -3
  6
Continuous
100
AcDbLine
 10
-10.058552
 20
346.05866
 30
0.0
 11
-14.058552
 21
346.05866
 31
0.0
  0
LINE
  5
2EF
100
AcDbEntity
  8
0
370
    -3
  6
Continuous
100
AcDbLine
 10
-14.058552
 20
284.610087
 30
0.0
 11
-10.058552
 21
284.610087
 31
0.0
  0
ARC
  5
2F0
100
AcDbEntity
  8
0
370
    -3
  6
Continuous
100
AcDbCircle
 10
-14.058552
 20
271.610087
 30
0.0
 40
3.0
100
AcDbArc
 50
90.0
 51
180.0
  0
ARC
  5
2F1
100
AcDbEntity
  8
0
370
    -3
  6
Continuous
100
AcDbCircle
 10
-14.058552
 20
216.161514
 30
0.0
 40
3.0
100
AcDbArc
 50
180.0
 51
270.0
  0
LINE
  5
2F2
100
AcDbEntity
  8
0
370
    -3
  6
Continuous
100
AcDbLine
 10
-17.058552
 20
271.610087
 30
0.0
 11
-17.058552
 21
191.32329
 31
0.0
  0
ARC
  5
2F3
100
AcDbEntity
  8
0
370
    -3
  6
Continuous
100
AcDbCircle
 10
-14.058552
 20
191.32329
 30
0.0
 40
3.0
100
AcDbArc
 50
180.0
 51
270.0
  0
LINE
  5
2F4
100
AcDbEntity
  8
0
370
    -3
  6
Continuous
100
AcDbLine
 10
-10.058552
 20
188.32329
 30
0.0
 11
-14.058552
 21
188.32329
 31
0.0
  0
LINE
  5
2F5
100
AcDbEntity
  8
0
370
    -3
  6
Continuous
100
AcDbLine
 10
-10.058552
 20
213.161514
 30
0.0
 11
-14.058552
 21
213.161514
 31
0.0
  0
LINE
  5
2F6
100
AcDbEntity
  8
0
370
    -3
  6
Continuous
100
AcDbLine
 10
-14.058552
 20
274.610087
 30
0.0
 11
-10.058552
 21
274.610087
 31
0.0
  0
LINE
  5
2F7
100
AcDbEntity
  8
0
370
    -3
  6
CENTER
100
AcDbLine
 10
5.577958
 20
180.615138
 30
0.0
 11
-33.418034
 21
180.615138
 31
0.0
  0
LINE
  5
2F8
100
AcDbEntity
  8
0
370
    -3
  6
CENTER
100
AcDbLine
 10
5.577958
 20
378.605036
 30
0.0
 11
-33.418034
 21
378.605036
 31
0.0
  0
LINE
  5
2F9
100
AcDbEntity
  8
0
370
    -3
  6
Continuous
100
AcDbLine
 10
-122.558552
 20
321.910087
 30
0.0
 11
-122.558552
 21
337.310087
 31
0.0
  0
LINE
  5
2FA
100
AcDbEntity
  8
0
370
    -3
  6
Continuous
100
AcDbLine
 10
-138.058552
 20
282.410087
 30
0.0
 11
-138.058552
 21
297.810087
 31
0.0
  0
LINE
  5
2FB
100
AcDbEntity
  8
0
370
    -3
  6
Continuous
100
AcDbLine
 10
-138.058552
 20
276.810087
 30
0.0
 11
-138.058552
 21
261.410087
 31
0.0
  0
LINE
  5
2FC
100
AcDbEntity
  8
0
370
    -3
  6
Continuous
100
AcDbLine
 10
-122.558552
 20
237.310087
 30
0.0
 11
-122.558552
 21
221.910087
 31
0.0
  0
LINE
  5
2FD
100
AcDbEntity
  8
0
370
    -3
  6
Continuous
100
AcDbLine
 10
-124.134004
 20
357.110087
 30
0.0
 11
-130.058551
 21
357.110087
 31
0.0
  0
LINE
  5
2FE
100
AcDbEntity
  8
0
370
    -3
  6
Continuous
100
AcDbLine
 10
-124.558552
 20
370.110087
 30
0.0
 11
-130.05855
 21
370.110087
 31
0.0
  0
LINE
  5
2FF
100
AcDbEntity
  8
0
370
    -3
  6
Continuous
100
AcDbLine
 10
-130.558551
 20
357.976211
 30
0.0
 11
-130.558551
 21
369.244157
 31
0.0
  0
LINE
  5
300
100
AcDbEntity
  8
0
370
    -3
  6
Continuous
100
AcDbLine
 10
-130.05855
 20
357.110087
 30
0.0
 11
-130.55855
 21
357.976211
 31
0.0
  0
LINE
  5
301
100
AcDbEntity
  8
0
370
    -3
  6
Continuous
100
AcDbLine
 10
-130.058549
 20
370.110087
 30
0.0
 11
-130.55855
 21
369.244157
 31
0.0
  0
LINE
  5
302
100
AcDbEntity
  8
0
370
    -3
  6
Continuous
100
AcDbLine
 10
-130.058551
 20
357.110087
 30
0.0
 11
-130.058551
 21
370.110087
 31
0.0
  0
LINE
  5
303
100
AcDbEntity
  8
0
370
    -3
  6
Continuous
100
AcDbLine
 10
-130.058551
 20
323.110087
 30
0.0
 11
-130.058551
 21
336.110087
 31
0.0
  0
LINE
  5
304
100
AcDbEntity
  8
0
370
    -3
  6
Continuous
100
AcDbLine
 10
-130.058549
 20
336.110087
 30
0.0
 11
-130.55855
 21
335.244157
 31
0.0
  0
LINE
  5
305
100
AcDbEntity
  8
0
370
    -3
  6
Continuous
100
AcDbLine
 10
-130.05855
 20
323.110087
 30
0.0
 11
-130.55855
 21
323.976211
 31
0.0
  0
LINE
  5
306
100
AcDbEntity
  8
0
370
    -3
  6
Continuous
100
AcDbLine
 10
-122.558552
 20
336.110087
 30
0.0
 11
-130.05855
 21
336.110087
 31
0.0
  0
LINE
  5
307
100
AcDbEntity
  8
0
370
    -3
  6
Continuous
100
AcDbLine
 10
-122.558552
 20
323.110087
 30
0.0
 11
-130.058551
 21
323.110087
 31
0.0
  0
LINE
  5
308
100
AcDbEntity
  8
0
370
    -3
  6
Continuous
100
AcDbLine
 10
-130.558551
 20
323.976211
 30
0.0
 11
-130.558551
 21
335.244157
 31
0.0
  0
LINE
  5
309
100
AcDbEntity
  8
0
370
    -3
  6
Continuous
100
AcDbLine
 10
-130.058551
 20
236.110087
 30
0.0
 11
-130.058551
 21
223.110087
 31
0.0
  0
LINE
  5
30A
100
AcDbEntity
  8
0
370
    -3
  6
Continuous
100
AcDbLine
 10
-130.058549
 20
223.110087
 30
0.0
 11
-130.55855
 21
223.976017
 31
0.0
  0
LINE
  5
30B
100
AcDbEntity
  8
0
370
    -3
  6
Continuous
100
AcDbLine
 10
-130.05855
 20
236.110087
 30
0.0
 11
-130.55855
 21
235.243963
 31
0.0
  0
LINE
  5
30C
100
AcDbEntity
  8
0
370
    -3
  6
Continuous
100
AcDbLine
 10
-122.558552
 20
223.110087
 30
0.0
 11
-130.05855
 21
223.110087
 31
0.0
  0
LINE
  5
30D
100
AcDbEntity
  8
0
370
    -3
  6
Continuous
100
AcDbLine
 10
-122.558552
 20
236.110087
 30
0.0
 11
-130.058551
 21
236.110087
 31
0.0
  0
LINE
  5
30E
100
AcDbEntity
  8
0
370
    -3
  6
Continuous
100
AcDbLine
 10
-130.558551
 20
235.243963
 30
0.0
 11
-130.558551
 21
223.976017
 31
0.0
  0
LINE
  5
30F
100
AcDbEntity
  8
0
370
    -3
  6
Continuous
100
AcDbLine
 10
-124.134004
 20
202.110087
 30
0.0
 11
-130.058551
 21
202.110087
 31
0.0
  0
LINE
  5
310
100
AcDbEntity
  8
0
370
    -3
  6
Continuous
100
AcDbLine
 10
-124.558552
 20
189.110087
 30
0.0
 11
-130.05855
 21
189.110087
 31
0.0
  0
LINE
  5
311
100
AcDbEntity
  8
0
370
    -3
  6
Continuous
100
AcDbLine
 10
-130.558551
 20
201.243963
 30
0.0
 11
-130.558551
 21
189.976017
 31
0.0
  0
LINE
  5
312
100
AcDbEntity
  8
0
370
    -3
  6
Continuous
100
AcDbLine
 10
-130.05855
 20
202.110087
 30
0.0
 11
-130.55855
 21
201.243963
 31
0.0
  0
LINE
  5
313
100
AcDbEntity
  8
0
370
    -3
  6
Continuous
100
AcDbLine
 10
-130.058549
 20
189.110087
 30
0.0
 11
-130.55855
 21
189.976017
 31
0.0
  0
LINE
  5
314
100
AcDbEntity
  8
0
370
    -3
  6
Continuous
100
AcDbLine
 10
-130.058551
 20
202.110087
 30
0.0
 11
-130.058551
 21
189.110087
 31
0.0
  0
LINE
  5
315
100
AcDbEntity
  8
0
370
    -3
  6
Continuous
100
AcDbLine
 10
-145.558551
 20
283.610087
 30
0.0
 11
-145.558551
 21
296.610087
 31
0.0
  0
LINE
  5
316
100
AcDbEntity
  8
0
370
    -3
  6
Continuous
100
AcDbLine
 10
-146.058551
 20
284.476211
 30
0.0
 11
-146.058551
 21
295.744157
 31
0.0
  0
LINE
  5
317
100
AcDbEntity
  8
0
370
    -3
  6
Continuous
100
AcDbLine
 10
-138.058552
 20
296.610087
 30
0.0
 11
-145.55855
 21
296.610087
 31
0.0
  0
LINE
  5
318
100
AcDbEntity
  8
0
370
    -3
  6
Continuous
100
AcDbLine
 10
-138.058552
 20
283.610087
 30
0.0
 11
-145.558551
 21
283.610087
 31
0.0
  0
LINE
  5
319
100
AcDbEntity
  8
0
370
    -3
  6
Continuous
100
AcDbLine
 10
-145.55855
 20
283.610087
 30
0.0
 11
-146.05855
 21
284.476211
 31
0.0
  0
LINE
  5
31A
100
AcDbEntity
  8
0
370
    -3
  6
Continuous
100
AcDbLine
 10
-145.558549
 20
296.610087
 30
0.0
 11
-146.05855
 21
295.744157
 31
0.0
  0
LINE
  5
31B
100
AcDbEntity
  8
0
370
    -3
  6
Continuous
100
AcDbLine
 10
-145.558549
 20
262.610087
 30
0.0
 11
-146.05855
 21
263.476017
 31
0.0
  0
LINE
  5
31C
100
AcDbEntity
  8
0
370
    -3
  6
Continuous
100
AcDbLine
 10
-145.55855
 20
275.610087
 30
0.0
 11
-146.05855
 21
274.743963
 31
0.0
  0
LINE
  5
31D
100
AcDbEntity
  8
0
370
    -3
  6
Continuous
100
AcDbLine
 10
-146.058551
 20
274.743963
 30
0.0
 11
-146.058551
 21
263.476017
 31
0.0
  0
LINE
  5
31E
100
AcDbEntity
  8
0
370
    -3
  6
Continuous
100
AcDbLine
 10
-138.058552
 20
262.610087
 30
0.0
 11
-145.55855
 21
262.610087
 31
0.0
  0
LINE
  5
31F
100
AcDbEntity
  8
0
370
    -3
  6
Continuous
100
AcDbLine
 10
-138.058552
 20
275.610087
 30
0.0
 11
-145.558551
 21
275.610087
 31
0.0
  0
LINE
  5
320
100
AcDbEntity
  8
0
370
    -3
  6
Continuous
100
AcDbLine
 10
-145.558551
 20
275.610087
 30
0.0
 11
-145.558551
 21
262.610087
 31
0.0
  0
ARC
  5
321
100
AcDbEntity
  8
0
370
    -3
  6
Continuous
100
AcDbCircle
 10
-480.645849
 20
-0.517719
 30
0.0
 40
3.0
100
AcDbArc
 50
90.0
 51
180.0
  0
ARC
  5
322
100
AcDbEntity
  8
0
370
    -3
  6
Continuous
100
AcDbCircle
 10
-492.645849
 20
-0.517719
 30
0.0
 40
3.0
100
AcDbArc
 50
0.0
 51
90.0
  0
ARC
  5
323
100
AcDbEntity
  8
0
370
    -3
  6
Continuous
100
AcDbCircle
 10
-575.645849
 20
-114.503827
 30
0.0
 40
5.0
100
AcDbArc
 50
180.0
 51
202.01537
  0
ARC
  5
324
100
AcDbEntity
  8
0
370
    -3
  6
Continuous
100
AcDbCircle
 10
-472.645849
 20
-58.751117
 30
0.0
 40
80.0
100
AcDbArc
 50
19.750046
 51
85.339581
  0
ARC
  5
325
100
AcDbEntity
  8
0
370
    -3
  6
Continuous
100
AcDbCircle
 10
-577.143846
 20
-43.517719
 30
0.0
 40
2.0
100
AcDbArc
 50
168.737752
 51
270.0
  0
ARC
  5
326
100
AcDbEntity
  8
0
370
    -3
  6
Continuous
100
AcDbCircle
 10
-571.645849
 20
-53.517719
 30
0.0
 40
8.0
100
AcDbArc
 50
270.0
 51
90.0
  0
ARC
  5
327
100
AcDbEntity
  8
0
370
    -3
  6
Continuous
100
AcDbCircle
 10
-578.645849
 20
-63.517719
 30
0.0
 40
2.0
100
AcDbArc
 50
90.0
 51
180.0
  0
LINE
  5
328
100
AcDbEntity
  8
0
370
    -3
  6
Continuous
100
AcDbLine
 10
-580.645849
 20
-58.751117
 30
0.0
 11
-580.645849
 21
-114.503827
 31
0.0
  0
LINE
  5
329
100
AcDbEntity
  8
0
370
    -3
  6
Continuous
100
AcDbLine
 10
-577.143846
 20
-45.517719
 30
0.0
 11
-571.645849
 21
-45.517719
 31
0.0
  0
LINE
  5
32A
100
AcDbEntity
  8
0
370
    -3
  6
Continuous
100
AcDbLine
 10
-578.645849
 20
-61.517719
 30
0.0
 11
-571.645849
 21
-61.517719
 31
0.0
  0
ARC
  5
32B
100
AcDbEntity
  8
0
370
    -3
  6
Continuous
100
AcDbCircle
 10
-432.641442
 20
13.97197
 30
0.0
 40
3.0
100
AcDbArc
 50
241.185148
 51
315.0
  0
LINE
  5
32C
100
AcDbEntity
  8
0
370
    -3
  6
Continuous
100
AcDbLine
 10
-489.645849
 20
58.482281
 30
0.0
 11
-489.645849
 21
56.482281
 31
0.0
  0
LINE
  5
32D
100
AcDbEntity
  8
0
370
    -3
  6
Continuous
100
AcDbLine
 10
-483.645849
 20
58.482281
 30
0.0
 11
-483.645849
 21
56.482281
 31
0.0
  0
ARC
  5
32E
100
AcDbEntity
  8
0
370
    -3
  6
Continuous
100
AcDbCircle
 10
-382.145849
 20
-153.017719
 30
0.0
 40
8.0
100
AcDbArc
 50
270.0
 51
0.0
  0
ARC
  5
32F
100
AcDbEntity
  8
0
370
    -3
  6
Continuous
100
AcDbCircle
 10
-591.145849
 20
-153.017719
 30
0.0
 40
8.0
100
AcDbArc
 50
180.0
 51
270.0
  0
ARC
  5
330
100
AcDbEntity
  8
0
370
    -3
  6
Continuous
100
AcDbCircle
 10
-591.145849
 20
55.982281
 30
0.0
 40
8.0
100
AcDbArc
 50
90.0
 51
180.0
  0
ARC
  5
331
100
AcDbEntity
  8
0
370
    -3
  6
Continuous
100
AcDbCircle
 10
-382.145849
 20
55.982281
 30
0.0
 40
8.0
100
AcDbArc
 50
0.0
 51
90.0
  0
CIRCLE
  5
332
100
AcDbEntity
  8
0
370
    -3
  6
Continuous
100
AcDbCircle
 10
-387.6509
 20
-147.512668
 30
0.0
 40
7.5
  0
CIRCLE
  5
333
100
AcDbEntity
  8
0
370
    -3
  6
Continuous
100
AcDbCircle
 10
-585.640799
 20
-147.512668
 30
0.0
 40
7.5
  0
CIRCLE
  5
334
100
AcDbEntity
  8
0
370
    -3
  6
Continuous
100
AcDbCircle
 10
-585.640799
 20
50.477231
 30
0.0
 40
7.5
  0
CIRCLE
  5
335
100
AcDbEntity
  8
0
370
    -3
  6
Continuous
100
AcDbCircle
 10
-387.6509
 20
50.477231
 30
0.0
 40
7.5
  0
ARC
  5
336
100
AcDbEntity
  8
0
370
    -3
  6
Continuous
100
AcDbCircle
 10
-492.645849
 20
58.482281
 30
0.0
 40
3.0
100
AcDbArc
 50
0.0
 51
90.0
  0
ARC
  5
337
100
AcDbEntity
  8
0
370
    -3
  6
Continuous
100
AcDbCircle
 10
-480.645849
 20
58.482281
 30
0.0
 40
3.0
100
AcDbArc
 50
90.0
 51
180.0
  0
ARC
  5
338
100
AcDbEntity
  8
0
370
    -3
  6
Continuous
100
AcDbCircle
 10
-550.931048
 20
7.282199
 30
0.0
 40
3.0
100
AcDbArc
 50
307.289727
 51
45.0
  0
ARC
  5
339
100
AcDbEntity
  8
0
370
    -3
  6
Continuous
100
AcDbCircle
 10
-574.19038
 20
30.541531
 30
0.0
 40
3.0
100
AcDbArc
 50
45.0
 51
135.0
  0
ARC
  5
33A
100
AcDbEntity
  8
0
370
    -3
  6
Continuous
100
AcDbCircle
 10
-565.705099
 20
39.026813
 30
0.0
 40
3.0
100
AcDbArc
 50
135.0
 51
225.0
  0
ARC
  5
33B
100
AcDbEntity
  8
0
370
    -3
  6
Continuous
100
AcDbCircle
 10
-407.586599
 20
39.026813
 30
0.0
 40
3.0
100
AcDbArc
 50
315.0
 51
45.0
  0
ARC
  5
33C
100
AcDbEntity
  8
0
370
    -3
  6
Continuous
100
AcDbCircle
 10
-399.101318
 20
30.541531
 30
0.0
 40
3.0
100
AcDbArc
 50
45.0
 51
135.0
  0
ARC
  5
33D
100
AcDbEntity
  8
0
370
    -3
  6
Continuous
100
AcDbCircle
 10
-422.36065
 20
7.282199
 30
0.0
 40
3.0
100
AcDbArc
 50
135.0
 51
232.710273
  0
LINE
  5
33E
100
AcDbEntity
  8
0
370
    -3
  6
Continuous
100
AcDbLine
 10
-599.145849
 20
55.982281
 30
0.0
 11
-599.145849
 21
-153.017719
 31
0.0
  0
LINE
  5
33F
100
AcDbEntity
  8
0
370
    -3
  6
Continuous
100
AcDbLine
 10
-591.145849
 20
63.982281
 30
0.0
 11
-382.145849
 21
63.982281
 31
0.0
  0
LINE
  5
340
100
AcDbEntity
  8
0
370
    -3
  6
Continuous
100
AcDbLine
 10
-374.145849
 20
55.982281
 30
0.0
 11
-374.145849
 21
-31.750347
 31
0.0
  0
LINE
  5
341
100
AcDbEntity
  8
0
370
    -3
  6
Continuous
100
AcDbLine
 10
-567.826419
 20
36.905492
 30
0.0
 11
-542.771577
 21
11.85065
 31
0.0
  0
LINE
  5
342
100
AcDbEntity
  8
0
370
    -3
  6
Continuous
100
AcDbLine
 10
-572.06906
 20
32.662852
 30
0.0
 11
-548.809728
 21
9.403519
 31
0.0
  0
LINE
  5
343
100
AcDbEntity
  8
0
370
    -3
  6
Continuous
100
AcDbLine
 10
-405.465279
 20
36.905492
 30
0.0
 11
-430.520121
 21
11.85065
 31
0.0
  0
LINE
  5
344
100
AcDbEntity
  8
0
370
    -3
  6
Continuous
100
AcDbLine
 10
-401.222638
 20
32.662852
 30
0.0
 11
-424.481971
 21
9.403519
 31
0.0
  0
ARC
  5
345
100
AcDbEntity
  8
0
370
    -3
  6
Continuous
100
AcDbCircle
 10
-540.650257
 20
13.97197
 30
0.0
 40
3.0
100
AcDbArc
 50
225.0
 51
298.814852
  0
ARC
  5
346
100
AcDbEntity
  8
0
370
    -3
  6
Continuous
100
AcDbCircle
 10
-476.145849
 20
46.482281
 30
0.0
 40
10.0
100
AcDbArc
 50
0.0
 51
90.0
  0
LINE
  5
347
100
AcDbEntity
  8
0
370
    -3
  6
Continuous
100
AcDbLine
 10
-476.145849
 20
56.482281
 30
0.0
 11
-497.145849
 21
56.482281
 31
0.0
  0
ARC
  5
348
100
AcDbEntity
  8
0
370
    -3
  6
Continuous
100
AcDbCircle
 10
-497.145849
 20
46.482281
 30
0.0
 40
10.0
100
AcDbArc
 50
90.0
 51
180.0
  0
LINE
  5
349
100
AcDbEntity
  8
0
370
    -3
  6
Continuous
100
AcDbLine
 10
-507.145849
 20
46.482281
 30
0.0
 11
-507.145849
 21
7.482281
 31
0.0
  0
LINE
  5
34A
100
AcDbEntity
  8
0
370
    -3
  6
Continuous
100
AcDbLine
 10
-466.145849
 20
46.482281
 30
0.0
 11
-466.145849
 21
7.482281
 31
0.0
  0
LINE
  5
34B
100
AcDbEntity
  8
0
370
    -3
  6
CENTER
100
AcDbLine
 10
-463.477936
 20
36.482281
 30
0.0
 11
-510.50045
 21
36.482281
 31
0.0
  0
CIRCLE
  5
34C
100
AcDbEntity
  8
0
370
    -3
  6
Continuous
100
AcDbCircle
 10
-486.645849
 20
36.482281
 30
0.0
 40
10.0
  0
LINE
  5
34D
100
AcDbEntity
  8
0
370
    -3
  6
Continuous
100
AcDbLine
 10
-483.645849
 20
46.021673
 30
0.0
 11
-483.645849
 21
26.942889
 31
0.0
  0
LINE
  5
34E
100
AcDbEntity
  8
0
370
    -3
  6
Continuous
100
AcDbLine
 10
-489.645849
 20
46.021673
 30
0.0
 11
-489.645849
 21
26.942889
 31
0.0
  0
LINE
  5
34F
100
AcDbEntity
  8
0
370
    -3
  6
Continuous
100
AcDbLine
 10
-570.645845
 20
-76.981817
 30
0.0
 11
-567.645852
 21
-75.249765
 31
0.0
  0
LINE
  5
350
100
AcDbEntity
  8
0
370
    -3
  6
Continuous
100
AcDbLine
 10
-570.645856
 20
-70.053622
 30
0.0
 11
-573.645847
 21
-71.785672
 31
0.0
  0
LINE
  5
351
100
AcDbEntity
  8
0
370
    -3
  6
Continuous
100
AcDbLine
 10
-573.645847
 20
-75.24977
 30
0.0
 11
-570.645845
 21
-76.981817
 31
0.0
  0
LINE
  5
352
100
AcDbEntity
  8
0
370
    -3
  6
Continuous
100
AcDbLine
 10
-570.645856
 20
-70.053622
 30
0.0
 11
-567.645851
 21
-71.785667
 31
0.0
  0
LINE
  5
353
100
AcDbEntity
  8
0
370
    -3
  6
Continuous
100
AcDbLine
 10
-573.645846
 20
-71.785672
 30
0.0
 11
-573.645847
 21
-75.24977
 31
0.0
  0
LINE
  5
354
100
AcDbEntity
  8
0
370
    -3
  6
Continuous
100
AcDbLine
 10
-567.645853
 20
-75.249765
 30
0.0
 11
-567.645852
 21
-71.785667
 31
0.0
  0
CIRCLE
  5
355
100
AcDbEntity
  8
0
370
    -3
  6
Continuous
100
AcDbCircle
 10
-570.645849
 20
-73.517719
 30
0.0
 40
6.5
  0
CIRCLE
  5
356
100
AcDbEntity
  8
0
370
    -3
  6
Continuous
100
AcDbCircle
 10
-570.645849
 20
-73.517719
 30
0.0
 40
5.633955
  0
LINE
  5
357
100
AcDbEntity
  8
0
370
    -3
  6
Continuous
100
AcDbLine
 10
-536.645845
 20
-0.981817
 30
0.0
 11
-533.645852
 21
0.750235
 31
0.0
  0
LINE
  5
358
100
AcDbEntity
  8
0
370
    -3
  6
Continuous
100
AcDbLine
 10
-536.645856
 20
5.946378
 30
0.0
 11
-539.645847
 21
4.214328
 31
0.0
  0
LINE
  5
359
100
AcDbEntity
  8
0
370
    -3
  6
Continuous
100
AcDbLine
 10
-539.645847
 20
0.75023
 30
0.0
 11
-536.645845
 21
-0.981817
 31
0.0
  0
LINE
  5
35A
100
AcDbEntity
  8
0
370
    -3
  6
Continuous
100
AcDbLine
 10
-536.645856
 20
5.946378
 30
0.0
 11
-533.645851
 21
4.214333
 31
0.0
  0
LINE
  5
35B
100
AcDbEntity
  8
0
370
    -3
  6
Continuous
100
AcDbLine
 10
-539.645846
 20
4.214328
 30
0.0
 11
-539.645847
 21
0.75023
 31
0.0
  0
LINE
  5
35C
100
AcDbEntity
  8
0
370
    -3
  6
Continuous
100
AcDbLine
 10
-533.645853
 20
0.750235
 30
0.0
 11
-533.645852
 21
4.214333
 31
0.0
  0
CIRCLE
  5
35D
100
AcDbEntity
  8
0
370
    -3
  6
Continuous
100
AcDbCircle
 10
-536.645849
 20
2.482281
 30
0.0
 40
6.5
  0
CIRCLE
  5
35E
100
AcDbEntity
  8
0
370
    -3
  6
Continuous
100
AcDbCircle
 10
-536.645849
 20
2.482281
 30
0.0
 40
5.633955
  0
LINE
  5
35F
100
AcDbEntity
  8
0
370
    -3
  6
Continuous
100
AcDbLine
 10
-497.145845
 20
9.018183
 30
0.0
 11
-494.145852
 21
10.750235
 31
0.0
  0
LINE
  5
360
100
AcDbEntity
  8
0
370
    -3
  6
Continuous
100
AcDbLine
 10
-497.145856
 20
15.946378
 30
0.0
 11
-500.145847
 21
14.214328
 31
0.0
  0
LINE
  5
361
100
AcDbEntity
  8
0
370
    -3
  6
Continuous
100
AcDbLine
 10
-500.145847
 20
10.75023
 30
0.0
 11
-497.145845
 21
9.018183
 31
0.0
  0
LINE
  5
362
100
AcDbEntity
  8
0
370
    -3
  6
Continuous
100
AcDbLine
 10
-497.145856
 20
15.946378
 30
0.0
 11
-494.145851
 21
14.214333
 31
0.0
  0
LINE
  5
363
100
AcDbEntity
  8
0
370
    -3
  6
Continuous
100
AcDbLine
 10
-500.145846
 20
14.214328
 30
0.0
 11
-500.145847
 21
10.75023
 31
0.0
  0
LINE
  5
364
100
AcDbEntity
  8
0
370
    -3
  6
Continuous
100
AcDbLine
 10
-494.145853
 20
10.750235
 30
0.0
 11
-494.145852
 21
14.214333
 31
0.0
  0
CIRCLE
  5
365
100
AcDbEntity
  8
0
370
    -3
  6
Continuous
100
AcDbCircle
 10
-497.145849
 20
12.482281
 30
0.0
 40
6.5
  0
CIRCLE
  5
366
100
AcDbEntity
  8
0
370
    -3
  6
Continuous
100
AcDbCircle
 10
-497.145849
 20
12.482281
 30
0.0
 40
5.633955
  0
LINE
  5
367
100
AcDbEntity
  8
0
370
    -3
  6
Continuous
100
AcDbLine
 10
-476.145854
 20
9.018183
 30
0.0
 11
-479.145847
 21
10.750235
 31
0.0
  0
LINE
  5
368
100
AcDbEntity
  8
0
370
    -3
  6
Continuous
100
AcDbLine
 10
-476.145843
 20
15.946378
 30
0.0
 11
-473.145852
 21
14.214328
 31
0.0
  0
LINE
  5
369
100
AcDbEntity
  8
0
370
    -3
  6
Continuous
100
AcDbLine
 10
-473.145851
 20
10.75023
 30
0.0
 11
-476.145854
 21
9.018183
 31
0.0
  0
LINE
  5
36A
100
AcDbEntity
  8
0
370
    -3
  6
Continuous
100
AcDbLine
 10
-476.145843
 20
15.946378
 30
0.0
 11
-479.145847
 21
14.214333
 31
0.0
  0
LINE
  5
36B
100
AcDbEntity
  8
0
370
    -3
  6
Continuous
100
AcDbLine
 10
-473.145853
 20
14.214328
 30
0.0
 11
-473.145852
 21
10.75023
 31
0.0
  0
LINE
  5
36C
100
AcDbEntity
  8
0
370
    -3
  6
Continuous
100
AcDbLine
 10
-479.145846
 20
10.750235
 30
0.0
 11
-479.145847
 21
14.214333
 31
0.0
  0
CIRCLE
  5
36D
100
AcDbEntity
  8
0
370
    -3
  6
Continuous
100
AcDbCircle
 10
-476.145849
 20
12.482281
 30
0.0
 40
6.5
  0
CIRCLE
  5
36E
100
AcDbEntity
  8
0
370
    -3
  6
Continuous
100
AcDbCircle
 10
-476.145849
 20
12.482281
 30
0.0
 40
5.633955
  0
LINE
  5
36F
100
AcDbEntity
  8
0
370
    -3
  6
Continuous
100
AcDbLine
 10
-436.645854
 20
-0.981817
 30
0.0
 11
-439.645847
 21
0.750235
 31
0.0
  0
LINE
  5
370
100
AcDbEntity
  8
0
370
    -3
  6
Continuous
100
AcDbLine
 10
-436.645843
 20
5.946378
 30
0.0
 11
-433.645852
 21
4.214328
 31
0.0
  0
LINE
  5
371
100
AcDbEntity
  8
0
370
    -3
  6
Continuous
100
AcDbLine
 10
-433.645851
 20
0.75023
 30
0.0
 11
-436.645854
 21
-0.981817
 31
0.0
  0
LINE
  5
372
100
AcDbEntity
  8
0
370
    -3
  6
Continuous
100
AcDbLine
 10
-436.645843
 20
5.946378
 30
0.0
 11
-439.645847
 21
4.214333
 31
0.0
  0
LINE
  5
373
100
AcDbEntity
  8
0
370
    -3
  6
Continuous
100
AcDbLine
 10
-433.645853
 20
4.214328
 30
0.0
 11
-433.645852
 21
0.75023
 31
0.0
  0
LINE
  5
374
100
AcDbEntity
  8
0
370
    -3
  6
Continuous
100
AcDbLine
 10
-439.645846
 20
0.750235
 30
0.0
 11
-439.645847
 21
4.214333
 31
0.0
  0
CIRCLE
  5
375
100
AcDbEntity
  8
0
370
    -3
  6
Continuous
100
AcDbCircle
 10
-436.645849
 20
2.482281
 30
0.0
 40
6.5
  0
CIRCLE
  5
376
100
AcDbEntity
  8
0
370
    -3
  6
Continuous
100
AcDbCircle
 10
-436.645849
 20
2.482281
 30
0.0
 40
5.633955
  0
LINE
  5
377
100
AcDbEntity
  8
0
370
    -3
  6
Continuous
100
AcDbLine
 10
-471.145849
 20
2.482281
 30
0.0
 11
-502.145849
 21
2.482281
 31
0.0
  0
ARC
  5
378
100
AcDbEntity
  8
0
370
    -3
  6
Continuous
100
AcDbCircle
 10
-471.145849
 20
7.482281
 30
0.0
 40
5.0
100
AcDbArc
 50
270.0
 51
0.0
  0
ARC
  5
379
100
AcDbEntity
  8
0
370
    -3
  6
Continuous
100
AcDbCircle
 10
-502.145849
 20
7.482281
 30
0.0
 40
5.0
100
AcDbArc
 50
180.0
 51
270.0
  0
LINE
  5
37A
100
AcDbEntity
  8
0
370
    -3
  6
CENTER
100
AcDbLine
 10
-403.560802
 20
34.567328
 30
0.0
 11
-371.740997
 21
66.387133
 31
0.0
  0
ARC
  5
37B
100
AcDbEntity
  8
0
370
    -3
  6
CENTER
100
AcDbCircle
 10
-486.645849
 20
-48.517719
 30
0.0
 40
140.0
100
AcDbArc
 50
35.791383
 51
54.208617
  0
LINE
  5
37C
100
AcDbEntity
  8
0
370
    -3
  6
CENTER
100
AcDbLine
 10
-403.560802
 20
-131.602765
 30
0.0
 11
-371.740997
 21
-163.422571
 31
0.0
  0
ARC
  5
37D
100
AcDbEntity
  8
0
370
    -3
  6
CENTER
100
AcDbCircle
 10
-486.645849
 20
-48.517719
 30
0.0
 40
140.0
100
AcDbArc
 50
305.791383
 51
324.208617
  0
LINE
  5
37E
100
AcDbEntity
  8
0
370
    -3
  6
CENTER
100
AcDbLine
 10
-569.730896
 20
-131.602765
 30
0.0
 11
-601.550701
 21
-163.422571
 31
0.0
  0
ARC
  5
37F
100
AcDbEntity
  8
0
370
    -3
  6
CENTER
100
AcDbCircle
 10
-486.645849
 20
-48.517719
 30
0.0
 40
140.0
100
AcDbArc
 50
215.791383
 51
234.208617
  0
LINE
  5
380
100
AcDbEntity
  8
0
370
    -3
  6
CENTER
100
AcDbLine
 10
-569.730896
 20
34.567328
 30
0.0
 11
-601.550701
 21
66.387133
 31
0.0
  0
ARC
  5
381
100
AcDbEntity
  8
0
370
    -3
  6
CENTER
100
AcDbCircle
 10
-486.645849
 20
-48.517719
 30
0.0
 40
140.0
100
AcDbArc
 50
125.791383
 51
144.208617
  0
ARC
  5
382
100
AcDbEntity
  8
0
370
    -3
  6
Continuous
100
AcDbCircle
 10
233.412597
 20
-58.751117
 30
0.0
 40
77.139212
100
AcDbArc
 50
14.640477
 51
88.089787
  0
LINE
  5
383
100
AcDbEntity
  8
0
370
    -3
  6
Continuous
100
AcDbLine
 10
-145.058552
 20
339.115499
 30
0.0
 11
-145.058552
 21
296.610087
 31
0.0
  0
LINE
  5
384
100
AcDbEntity
  8
0
370
    -3
  6
Continuous
100
AcDbLine
 10
-374.145849
 20
-125.28509
 30
0.0
 11
-374.145849
 21
-153.017719
 31
0.0
  0
ARC
  5
385
100
AcDbEntity
  8
0
370
    -3
  6
Continuous
100
AcDbCircle
 10
-486.645849
 20
-78.517719
 30
0.0
 40
101.0
100
AcDbArc
 50
309.950234
 51
332.395455
  0
ARC
  5
386
100
AcDbEntity
  8
0
370
    -3
  6
Continuous
100
AcDbCircle
 10
-500.645849
 20
-58.751117
 30
0.0
 40
80.0
100
AcDbArc
 50
94.660419
 51
180.0
  0
ARC
  5
387
100
AcDbEntity
  8
0
370
    -3
  6
Continuous
100
AcDbCircle
 10
-525.440121
 20
-106.784385
 30
0.0
 40
27.0
100
AcDbArc
 50
140.07443
 51
284.503338
  0
ARC
  5
388
100
AcDbEntity
  8
0
370
    -3
  6
Continuous
100
AcDbCircle
 10
-472.426472
 20
-117.058286
 30
0.0
 40
27.0
100
AcDbArc
 50
227.45287
 51
323.142529
  0
ARC
  5
389
100
AcDbEntity
  8
0
370
    -3
  6
Continuous
100
AcDbCircle
 10
-437.337731
 20
-45.216675
 30
0.0
 40
1.0
100
AcDbArc
 50
214.033768
 51
267.0
  0
ARC
  5
38A
100
AcDbEntity
  8
0
370
    -3
  6
Continuous
100
AcDbCircle
 10
-434.603795
 20
-49.675483
 30
0.0
 40
1.0
100
AcDbArc
 50
93.0
 51
208.995666
  0
ARC
  5
38B
100
AcDbEntity
  8
0
370
    -3
  6
Continuous
100
AcDbCircle
 10
-433.974968
 20
-50.840502
 30
0.0
 40
1.0
100
AcDbArc
 50
207.720791
 51
267.0
  0
ARC
  5
38C
100
AcDbEntity
  8
0
370
    -3
  6
Continuous
100
AcDbCircle
 10
-432.645849
 20
-42.017719
 30
0.0
 40
1.0
100
AcDbArc
 50
273.0
 51
87.0
  0
LINE
  5
38D
100
AcDbEntity
  8
0
370
    -3
  6
Continuous
100
AcDbLine
 10
-432.593513
 20
-43.016348
 30
0.0
 11
-438.022093
 21
-43.300848
 31
0.0
  0
ARC
  5
38E
100
AcDbEntity
  8
0
370
    -3
  6
Continuous
100
AcDbCircle
 10
-437.969757
 20
-44.299477
 30
0.0
 40
1.0
100
AcDbArc
 50
93.0
 51
215.10639
  0
LINE
  5
38F
100
AcDbEntity
  8
0
370
    -3
  6
Continuous
100
AcDbLine
 10
-432.593513
 20
-41.019089
 30
0.0
 11
-435.063099
 21
-40.889664
 31
0.0
  0
ARC
  5
390
100
AcDbEntity
  8
0
370
    -3
  6
Continuous
100
AcDbCircle
 10
-486.645849
 20
-78.517719
 30
0.0
 40
58.5
100
AcDbArc
 50
20.667316
 51
23.18871
  0
LINE
  5
391
100
AcDbEntity
  8
0
370
    -3
  6
Continuous
100
AcDbLine
 10
-431.593513
 20
-48.516348
 30
0.0
 11
-434.656131
 21
-48.676853
 31
0.0
  0
LINE
  5
392
100
AcDbEntity
  8
0
370
    -3
  6
Continuous
100
AcDbLine
 10
-431.593513
 20
-46.519089
 30
0.0
 11
-437.390067
 21
-46.215305
 31
0.0
  0
LINE
  5
393
100
AcDbEntity
  8
0
370
    -3
  6
Continuous
100
AcDbLine
 10
-430.593513
 20
-52.019089
 30
0.0
 11
-434.027304
 21
-51.839132
 31
0.0
  0
LINE
  5
394
100
AcDbEntity
  8
0
370
    -3
  6
Continuous
100
AcDbLine
 10
-430.593513
 20
-54.016348
 30
0.0
 11
-432.005015
 21
-54.090322
 31
0.0
  0
ARC
  5
395
100
AcDbEntity
  8
0
370
    -3
  6
Continuous
100
AcDbCircle
 10
-431.952679
 20
-55.088951
 30
0.0
 40
1.0
100
AcDbArc
 50
93.0
 51
203.18871
  0
ARC
  5
396
100
AcDbEntity
  8
0
370
    -3
  6
Continuous
100
AcDbCircle
 10
-430.645849
 20
-53.017719
 30
0.0
 40
1.0
100
AcDbArc
 50
273.0
 51
87.0
  0
ARC
  5
397
100
AcDbEntity
  8
0
370
    -3
  6
Continuous
100
AcDbCircle
 10
-431.645849
 20
-47.517719
 30
0.0
 40
1.0
100
AcDbArc
 50
273.0
 51
87.0
  0
ARC
  5
398
100
AcDbEntity
  8
0
370
    -3
  6
Continuous
100
AcDbCircle
 10
-430.974941
 20
-57.517719
 30
0.0
 40
1.0
100
AcDbArc
 50
200.667316
 51
270.0
  0
LINE
  5
399
100
AcDbEntity
  8
0
370
    -3
  6
Continuous
100
AcDbLine
 10
-430.974941
 20
-58.517719
 30
0.0
 11
-427.845849
 21
-58.517719
 31
0.0
  0
ARC
  5
39A
100
AcDbEntity
  8
0
370
    -3
  6
Continuous
100
AcDbCircle
 10
-427.845849
 20
-59.217719
 30
0.0
 40
0.7
100
AcDbArc
 50
0.0
 51
90.0
  0
LINE
  5
39B
100
AcDbEntity
  8
0
370
    -3
  6
Continuous
100
AcDbLine
 10
-427.145849
 20
-59.217719
 30
0.0
 11
-427.145849
 21
-78.517719
 31
0.0
  0
LINE
  5
39C
100
AcDbEntity
  8
0
370
    -3
  6
Continuous
100
AcDbLine
 10
-450.358394
 20
-50.571867
 30
0.0
 11
-436.271296
 21
-34.926559
 31
0.0
  0
ARC
  5
39D
100
AcDbEntity
  8
0
370
    -3
  6
Continuous
100
AcDbCircle
 10
-486.645849
 20
-78.517719
 30
0.0
 40
67.5
100
AcDbArc
 50
41.725937
 51
48.274063
  0
ARC
  5
39E
100
AcDbEntity
  8
0
370
    -3
  6
Continuous
100
AcDbCircle
 10
-442.385559
 20
-28.88631
 30
0.0
 40
1.0
100
AcDbArc
 50
48.274063
 51
132.0
  0
LINE
  5
39F
100
AcDbEntity
  8
0
370
    -3
  6
Continuous
100
AcDbLine
 10
-458.699998
 20
-42.230264
 30
0.0
 11
-443.05469
 21
-28.143165
 31
0.0
  0
ARC
  5
3A0
100
AcDbEntity
  8
0
370
    -3
  6
Continuous
100
AcDbCircle
 10
-437.014441
 20
-34.257428
 30
0.0
 40
1.0
100
AcDbArc
 50
318.0
 51
41.725937
  0
ARC
  5
3A1
100
AcDbEntity
  8
0
370
    -3
  6
Continuous
100
AcDbCircle
 10
-450.145849
 20
-24.517719
 30
0.0
 40
1.0
100
AcDbArc
 50
3.0
 51
177.0
  0
LINE
  5
3A2
100
AcDbEntity
  8
0
370
    -3
  6
Continuous
100
AcDbLine
 10
-449.14722
 20
-24.465383
 30
0.0
 11
-449.017794
 21
-26.934968
 31
0.0
  0
LINE
  5
3A3
100
AcDbEntity
  8
0
370
    -3
  6
Continuous
100
AcDbLine
 10
-451.144479
 20
-24.465383
 30
0.0
 11
-451.428979
 21
-29.893962
 31
0.0
  0
ARC
  5
3A4
100
AcDbEntity
  8
0
370
    -3
  6
Continuous
100
AcDbCircle
 10
-486.645849
 20
-78.517719
 30
0.0
 40
58.5
100
AcDbArc
 50
54.89361
 51
55.966232
  0
ARC
  5
3A5
100
AcDbEntity
  8
0
370
    -3
  6
Continuous
100
AcDbCircle
 10
-452.427608
 20
-29.841626
 30
0.0
 40
1.0
100
AcDbArc
 50
234.89361
 51
357.0
  0
ARC
  5
3A6
100
AcDbEntity
  8
0
370
    -3
  6
Continuous
100
AcDbCircle
 10
-455.645849
 20
-23.517719
 30
0.0
 40
1.0
100
AcDbArc
 50
3.0
 51
177.0
  0
LINE
  5
3A7
100
AcDbEntity
  8
0
370
    -3
  6
Continuous
100
AcDbLine
 10
-454.64722
 20
-23.465383
 30
0.0
 11
-454.343435
 21
-29.261937
 31
0.0
  0
ARC
  5
3A8
100
AcDbEntity
  8
0
370
    -3
  6
Continuous
100
AcDbCircle
 10
-453.344806
 20
-29.209601
 30
0.0
 40
1.0
100
AcDbArc
 50
183.0
 51
235.966232
  0
LINE
  5
3A9
100
AcDbEntity
  8
0
370
    -3
  6
Continuous
100
AcDbLine
 10
-456.644479
 20
-23.465383
 30
0.0
 11
-456.804984
 21
-26.528
 31
0.0
  0
ARC
  5
3AA
100
AcDbEntity
  8
0
370
    -3
  6
Continuous
100
AcDbCircle
 10
-457.803613
 20
-26.475664
 30
0.0
 40
1.0
100
AcDbArc
 50
241.004334
 51
357.0
  0
ARC
  5
3AB
100
AcDbEntity
  8
0
370
    -3
  6
Continuous
100
AcDbCircle
 10
-486.645849
 20
-78.517719
 30
0.0
 40
58.5
100
AcDbArc
 50
61.004334
 51
62.279209
  0
ARC
  5
3AC
100
AcDbEntity
  8
0
370
    -3
  6
Continuous
100
AcDbCircle
 10
-461.145849
 20
-22.517719
 30
0.0
 40
1.0
100
AcDbArc
 50
3.0
 51
177.0
  0
LINE
  5
3AD
100
AcDbEntity
  8
0
370
    -3
  6
Continuous
100
AcDbLine
 10
-462.144479
 20
-22.465383
 30
0.0
 11
-462.218452
 21
-23.876884
 31
0.0
  0
ARC
  5
3AE
100
AcDbEntity
  8
0
370
    -3
  6
Continuous
100
AcDbCircle
 10
-463.217082
 20
-23.824548
 30
0.0
 40
1.0
100
AcDbArc
 50
246.81129
 51
357.0
  0
LINE
  5
3AF
100
AcDbEntity
  8
0
370
    -3
  6
Continuous
100
AcDbLine
 10
-460.14722
 20
-22.465383
 30
0.0
 11
-459.967262
 21
-25.899174
 31
0.0
  0
ARC
  5
3B0
100
AcDbEntity
  8
0
370
    -3
  6
Continuous
100
AcDbCircle
 10
-458.968633
 20
-25.846838
 30
0.0
 40
1.0
100
AcDbArc
 50
183.0
 51
242.279209
  0
ARC
  5
3B1
100
AcDbEntity
  8
0
370
    -3
  6
Continuous
100
AcDbCircle
 10
-486.645849
 20
-78.517719
 30
0.0
 40
58.5
100
AcDbArc
 50
66.81129
 51
68.229515
  0
LINE
  5
3B2
100
AcDbEntity
  8
0
370
    -3
  6
Continuous
100
AcDbLine
 10
-465.64722
 20
-21.965383
 30
0.0
 11
-465.576554
 21
-23.313773
 31
0.0
  0
ARC
  5
3B3
100
AcDbEntity
  8
0
370
    -3
  6
Continuous
100
AcDbCircle
 10
-464.577924
 20
-23.261437
 30
0.0
 40
1.0
100
AcDbArc
 50
183.0
 51
248.229515
  0
ARC
  5
3B4
100
AcDbEntity
  8
0
370
    -3
  6
Continuous
100
AcDbCircle
 10
-466.645849
 20
-22.017719
 30
0.0
 40
1.0
100
AcDbArc
 50
3.0
 51
174.01516
  0
ARC
  5
3B5
100
AcDbEntity
  8
0
370
    -3
  6
Continuous
100
AcDbCircle
 10
-468.634948
 20
-21.809188
 30
0.0
 40
1.0
100
AcDbArc
 50
252.379903
 51
354.01516
  0
ARC
  5
3B6
100
AcDbEntity
  8
0
370
    -3
  6
Continuous
100
AcDbCircle
 10
-486.645849
 20
-78.517719
 30
0.0
 40
58.5
100
AcDbArc
 50
72.379903
 51
74.768964
  0
ARC
  5
3B7
100
AcDbEntity
  8
0
370
    -3
  6
Continuous
100
AcDbCircle
 10
-471.145849
 20
-21.590133
 30
0.0
 40
0.5
100
AcDbArc
 50
180.0
 51
254.768964
  0
LINE
  5
3B8
100
AcDbEntity
  8
0
370
    -3
  6
Continuous
100
AcDbLine
 10
-471.645849
 20
-21.590133
 30
0.0
 11
-471.645849
 21
-21.400688
 31
0.0
  0
ARC
  5
3B9
100
AcDbEntity
  8
0
370
    -3
  6
Continuous
100
AcDbCircle
 10
-486.645849
 20
-78.517719
 30
0.0
 40
58.5
100
AcDbArc
 50
27.720791
 51
28.995666
  0
ARC
  5
3BA
100
AcDbEntity
  8
0
370
    -3
  6
Continuous
100
AcDbCircle
 10
-486.645849
 20
-78.517719
 30
0.0
 40
58.5
100
AcDbArc
 50
34.033768
 51
35.10639
  0
ARC
  5
3BB
100
AcDbEntity
  8
0
370
    -3
  6
Continuous
100
AcDbCircle
 10
-472.145849
 20
-21.400688
 30
0.0
 40
0.5
100
AcDbArc
 50
0.0
 51
83.030619
  0
ARC
  5
3BC
100
AcDbEntity
  8
0
370
    -3
  6
Continuous
100
AcDbCircle
 10
-486.645849
 20
-140.017719
 30
0.0
 40
120.0
100
AcDbArc
 50
83.030619
 51
90.0
  0
ARC
  5
3BD
100
AcDbEntity
  8
0
370
    -3
  6
Continuous
100
AcDbCircle
 10
-486.645849
 20
-17.017719
 30
0.0
 40
120.0
100
AcDbArc
 50
270.0
 51
276.969381
  0
ARC
  5
3BE
100
AcDbEntity
  8
0
370
    -3
  6
Continuous
100
AcDbCircle
 10
-472.145849
 20
-135.634749
 30
0.0
 40
0.5
100
AcDbArc
 50
276.969381
 51
0.0
  0
LINE
  5
3BF
100
AcDbEntity
  8
0
370
    -3
  6
Continuous
100
AcDbLine
 10
-450.358394
 20
-106.46357
 30
0.0
 11
-436.271296
 21
-122.108878
 31
0.0
  0
LINE
  5
3C0
100
AcDbEntity
  8
0
370
    -3
  6
Continuous
100
AcDbLine
 10
-458.699998
 20
-114.805173
 30
0.0
 11
-443.05469
 21
-128.892272
 31
0.0
  0
ARC
  5
3C1
100
AcDbEntity
  8
0
370
    -3
  6
Continuous
100
AcDbCircle
 10
-486.645849
 20
-78.517719
 30
0.0
 40
58.5
100
AcDbArc
 50
324.89361
 51
325.966232
  0
ARC
  5
3C2
100
AcDbEntity
  8
0
370
    -3
  6
Continuous
100
AcDbCircle
 10
-486.645849
 20
-78.517719
 30
0.0
 40
58.5
100
AcDbArc
 50
331.004334
 51
332.279209
  0
ARC
  5
3C3
100
AcDbEntity
  8
0
370
    -3
  6
Continuous
100
AcDbCircle
 10
-486.645849
 20
-78.517719
 30
0.0
 40
58.5
100
AcDbArc
 50
304.033768
 51
305.10639
  0
ARC
  5
3C4
100
AcDbEntity
  8
0
370
    -3
  6
Continuous
100
AcDbCircle
 10
-452.427608
 20
-127.193811
 30
0.0
 40
1.0
100
AcDbArc
 50
3.0
 51
125.10639
  0
ARC
  5
3C5
100
AcDbEntity
  8
0
370
    -3
  6
Continuous
100
AcDbCircle
 10
-455.645849
 20
-133.517719
 30
0.0
 40
1.0
100
AcDbArc
 50
183.0
 51
357.0
  0
LINE
  5
3C6
100
AcDbEntity
  8
0
370
    -3
  6
Continuous
100
AcDbLine
 10
-454.64722
 20
-133.570055
 30
0.0
 11
-454.343435
 21
-127.773501
 31
0.0
  0
ARC
  5
3C7
100
AcDbEntity
  8
0
370
    -3
  6
Continuous
100
AcDbCircle
 10
-453.344806
 20
-127.825837
 30
0.0
 40
1.0
100
AcDbArc
 50
124.033768
 51
177.0
  0
LINE
  5
3C8
100
AcDbEntity
  8
0
370
    -3
  6
Continuous
100
AcDbLine
 10
-456.644479
 20
-133.570055
 30
0.0
 11
-456.804984
 21
-130.507437
 31
0.0
  0
ARC
  5
3C9
100
AcDbEntity
  8
0
370
    -3
  6
Continuous
100
AcDbCircle
 10
-457.803613
 20
-130.559773
 30
0.0
 40
1.0
100
AcDbArc
 50
3.0
 51
118.995666
  0
ARC
  5
3CA
100
AcDbEntity
  8
0
370
    -3
  6
Continuous
100
AcDbCircle
 10
-486.645849
 20
-78.517719
 30
0.0
 40
58.5
100
AcDbArc
 50
297.720791
 51
298.995666
  0
ARC
  5
3CB
100
AcDbEntity
  8
0
370
    -3
  6
Continuous
100
AcDbCircle
 10
-461.145849
 20
-134.517719
 30
0.0
 40
1.0
100
AcDbArc
 50
183.0
 51
357.0
  0
LINE
  5
3CC
100
AcDbEntity
  8
0
370
    -3
  6
Continuous
100
AcDbLine
 10
-462.144479
 20
-134.570055
 30
0.0
 11
-462.218452
 21
-133.158553
 31
0.0
  0
ARC
  5
3CD
100
AcDbEntity
  8
0
370
    -3
  6
Continuous
100
AcDbCircle
 10
-463.217082
 20
-133.210889
 30
0.0
 40
1.0
100
AcDbArc
 50
3.0
 51
113.18871
  0
LINE
  5
3CE
100
AcDbEntity
  8
0
370
    -3
  6
Continuous
100
AcDbLine
 10
-460.14722
 20
-134.570055
 30
0.0
 11
-459.967262
 21
-131.136264
 31
0.0
  0
ARC
  5
3CF
100
AcDbEntity
  8
0
370
    -3
  6
Continuous
100
AcDbCircle
 10
-458.968633
 20
-131.188599
 30
0.0
 40
1.0
100
AcDbArc
 50
117.720791
 51
177.0
  0
ARC
  5
3D0
100
AcDbEntity
  8
0
370
    -3
  6
Continuous
100
AcDbCircle
 10
-486.645849
 20
-78.517719
 30
0.0
 40
58.5
100
AcDbArc
 50
291.770485
 51
293.18871
  0
LINE
  5
3D1
100
AcDbEntity
  8
0
370
    -3
  6
Continuous
100
AcDbLine
 10
-465.64722
 20
-135.070055
 30
0.0
 11
-465.576554
 21
-133.721664
 31
0.0
  0
ARC
  5
3D2
100
AcDbEntity
  8
0
370
    -3
  6
Continuous
100
AcDbCircle
 10
-464.577924
 20
-133.774
 30
0.0
 40
1.0
100
AcDbArc
 50
111.770485
 51
177.0
  0
ARC
  5
3D3
100
AcDbEntity
  8
0
370
    -3
  6
Continuous
100
AcDbCircle
 10
-466.645849
 20
-135.017719
 30
0.0
 40
1.0
100
AcDbArc
 50
185.98484
 51
357.0
  0
ARC
  5
3D4
100
AcDbEntity
  8
0
370
    -3
  6
Continuous
100
AcDbCircle
 10
-468.634948
 20
-135.226249
 30
0.0
 40
1.0
100
AcDbArc
 50
5.98484
 51
107.620097
  0
ARC
  5
3D5
100
AcDbEntity
  8
0
370
    -3
  6
Continuous
100
AcDbCircle
 10
-486.645849
 20
-78.517719
 30
0.0
 40
58.5
100
AcDbArc
 50
285.231036
 51
287.620097
  0
ARC
  5
3D6
100
AcDbEntity
  8
0
370
    -3
  6
Continuous
100
AcDbCircle
 10
-471.145849
 20
-135.445304
 30
0.0
 40
0.5
100
AcDbArc
 50
105.231036
 51
180.0
  0
LINE
  5
3D7
100
AcDbEntity
  8
0
370
    -3
  6
Continuous
100
AcDbLine
 10
-471.645849
 20
-135.445304
 30
0.0
 11
-471.645849
 21
-135.634749
 31
0.0
  0
ARC
  5
3D8
100
AcDbEntity
  8
0
370
    -3
  6
Continuous
100
AcDbCircle
 10
-450.145849
 20
-132.517719
 30
0.0
 40
1.0
100
AcDbArc
 50
183.0
 51
357.0
  0
LINE
  5
3D9
100
AcDbEntity
  8
0
370
    -3
  6
Continuous
100
AcDbLine
 10
-449.14722
 20
-132.570055
 30
0.0
 11
-449.017794
 21
-130.100469
 31
0.0
  0
LINE
  5
3DA
100
AcDbEntity
  8
0
370
    -3
  6
Continuous
100
AcDbLine
 10
-451.144479
 20
-132.570055
 30
0.0
 11
-451.428979
 21
-127.141475
 31
0.0
  0
ARC
  5
3DB
100
AcDbEntity
  8
0
370
    -3
  6
Continuous
100
AcDbCircle
 10
-437.014441
 20
-122.778009
 30
0.0
 40
1.0
100
AcDbArc
 50
318.274063
 51
42.0
  0
ARC
  5
3DC
100
AcDbEntity
  8
0
370
    -3
  6
Continuous
100
AcDbCircle
 10
-486.645849
 20
-78.517719
 30
0.0
 40
67.5
100
AcDbArc
 50
311.725937
 51
318.274063
  0
ARC
  5
3DD
100
AcDbEntity
  8
0
370
    -3
  6
Continuous
100
AcDbCircle
 10
-442.385559
 20
-128.149127
 30
0.0
 40
1.0
100
AcDbArc
 50
228.0
 51
311.725937
  0
LINE
  5
3DE
100
AcDbEntity
  8
0
370
    -3
  6
Continuous
100
AcDbLine
 10
-431.593513
 20
-108.519089
 30
0.0
 11
-434.656131
 21
-108.358584
 31
0.0
  0
LINE
  5
3DF
100
AcDbEntity
  8
0
370
    -3
  6
Continuous
100
AcDbLine
 10
-431.593513
 20
-110.516348
 30
0.0
 11
-437.390067
 21
-110.820133
 31
0.0
  0
LINE
  5
3E0
100
AcDbEntity
  8
0
370
    -3
  6
Continuous
100
AcDbLine
 10
-430.593513
 20
-105.016348
 30
0.0
 11
-434.027304
 21
-105.196306
 31
0.0
  0
ARC
  5
3E1
100
AcDbEntity
  8
0
370
    -3
  6
Continuous
100
AcDbCircle
 10
-430.645849
 20
-104.017719
 30
0.0
 40
1.0
100
AcDbArc
 50
273.0
 51
87.0
  0
ARC
  5
3E2
100
AcDbEntity
  8
0
370
    -3
  6
Continuous
100
AcDbCircle
 10
-431.645849
 20
-109.517719
 30
0.0
 40
1.0
100
AcDbArc
 50
273.0
 51
87.0
  0
LINE
  5
3E3
100
AcDbEntity
  8
0
370
    -3
  6
Continuous
100
AcDbLine
 10
-432.593513
 20
-116.016348
 30
0.0
 11
-435.063099
 21
-116.145774
 31
0.0
  0
ARC
  5
3E4
100
AcDbEntity
  8
0
370
    -3
  6
Continuous
100
AcDbCircle
 10
-437.969757
 20
-112.73596
 30
0.0
 40
1.0
100
AcDbArc
 50
144.89361
 51
267.0
  0
LINE
  5
3E5
100
AcDbEntity
  8
0
370
    -3
  6
Continuous
100
AcDbLine
 10
-432.593513
 20
-114.019089
 30
0.0
 11
-438.022093
 21
-113.734589
 31
0.0
  0
ARC
  5
3E6
100
AcDbEntity
  8
0
370
    -3
  6
Continuous
100
AcDbCircle
 10
-432.645849
 20
-115.017719
 30
0.0
 40
1.0
100
AcDbArc
 50
273.0
 51
87.0
  0
ARC
  5
3E7
100
AcDbEntity
  8
0
370
    -3
  6
Continuous
100
AcDbCircle
 10
-433.974968
 20
-106.194935
 30
0.0
 40
1.0
100
AcDbArc
 50
93.0
 51
152.279209
  0
ARC
  5
3E8
100
AcDbEntity
  8
0
370
    -3
  6
Continuous
100
AcDbCircle
 10
-434.603795
 20
-107.359955
 30
0.0
 40
1.0
100
AcDbArc
 50
151.004334
 51
267.0
  0
ARC
  5
3E9
100
AcDbEntity
  8
0
370
    -3
  6
Continuous
100
AcDbCircle
 10
-437.337731
 20
-111.818762
 30
0.0
 40
1.0
100
AcDbArc
 50
93.0
 51
145.966232
  0
ARC
  5
3EA
100
AcDbEntity
  8
0
370
    -3
  6
Continuous
100
AcDbCircle
 10
-486.645849
 20
-78.517719
 30
0.0
 40
58.5
100
AcDbArc
 50
336.81129
 51
339.332684
  0
LINE
  5
3EB
100
AcDbEntity
  8
0
370
    -3
  6
Continuous
100
AcDbLine
 10
-427.145849
 20
-97.817719
 30
0.0
 11
-427.145849
 21
-78.517719
 31
0.0
  0
ARC
  5
3EC
100
AcDbEntity
  8
0
370
    -3
  6
Continuous
100
AcDbCircle
 10
-430.974941
 20
-99.517719
 30
0.0
 40
1.0
100
AcDbArc
 50
90.0
 51
159.332684
  0
LINE
  5
3ED
100
AcDbEntity
  8
0
370
    -3
  6
Continuous
100
AcDbLine
 10
-430.974941
 20
-98.517719
 30
0.0
 11
-427.845849
 21
-98.517719
 31
0.0
  0
ARC
  5
3EE
100
AcDbEntity
  8
0
370
    -3
  6
Continuous
100
AcDbCircle
 10
-427.845849
 20
-97.817719
 30
0.0
 40
0.7
100
AcDbArc
 50
270.0
 51
0.0
  0
LINE
  5
3EF
100
AcDbEntity
  8
0
370
    -3
  6
Continuous
100
AcDbLine
 10
-430.593513
 20
-103.019089
 30
0.0
 11
-432.005015
 21
-102.945115
 31
0.0
  0
ARC
  5
3F0
100
AcDbEntity
  8
0
370
    -3
  6
Continuous
100
AcDbCircle
 10
-431.952679
 20
-101.946486
 30
0.0
 40
1.0
100
AcDbArc
 50
156.81129
 51
267.0
  0
ARC
  5
3F1
100
AcDbEntity
  8
0
370
    -3
  6
Continuous
100
AcDbCircle
 10
-486.645849
 20
-17.017719
 30
0.0
 40
120.0
100
AcDbArc
 50
263.030619
 51
270.0
  0
ARC
  5
3F2
100
AcDbEntity
  8
0
370
    -3
  6
Continuous
100
AcDbCircle
 10
-501.145849
 20
-135.634749
 30
0.0
 40
0.5
100
AcDbArc
 50
180.0
 51
263.030619
  0
LINE
  5
3F3
100
AcDbEntity
  8
0
370
    -3
  6
Continuous
100
AcDbLine
 10
-522.933304
 20
-106.46357
 30
0.0
 11
-537.020403
 21
-122.108878
 31
0.0
  0
LINE
  5
3F4
100
AcDbEntity
  8
0
370
    -3
  6
Continuous
100
AcDbLine
 10
-514.591701
 20
-114.805173
 30
0.0
 11
-530.237009
 21
-128.892272
 31
0.0
  0
ARC
  5
3F5
100
AcDbEntity
  8
0
370
    -3
  6
Continuous
100
AcDbCircle
 10
-486.645849
 20
-78.517719
 30
0.0
 40
58.5
100
AcDbArc
 50
214.033768
 51
215.10639
  0
ARC
  5
3F6
100
AcDbEntity
  8
0
370
    -3
  6
Continuous
100
AcDbCircle
 10
-486.645849
 20
-78.517719
 30
0.0
 40
58.5
100
AcDbArc
 50
207.720791
 51
208.995666
  0
ARC
  5
3F7
100
AcDbEntity
  8
0
370
    -3
  6
Continuous
100
AcDbCircle
 10
-486.645849
 20
-78.517719
 30
0.0
 40
58.5
100
AcDbArc
 50
234.89361
 51
235.966232
  0
ARC
  5
3F8
100
AcDbEntity
  8
0
370
    -3
  6
Continuous
100
AcDbCircle
 10
-520.86409
 20
-127.193811
 30
0.0
 40
1.0
100
AcDbArc
 50
54.89361
 51
177.0
  0
ARC
  5
3F9
100
AcDbEntity
  8
0
370
    -3
  6
Continuous
100
AcDbCircle
 10
-517.645849
 20
-133.517719
 30
0.0
 40
1.0
100
AcDbArc
 50
183.0
 51
357.0
  0
LINE
  5
3FA
100
AcDbEntity
  8
0
370
    -3
  6
Continuous
100
AcDbLine
 10
-518.644479
 20
-133.570055
 30
0.0
 11
-518.948263
 21
-127.773501
 31
0.0
  0
ARC
  5
3FB
100
AcDbEntity
  8
0
370
    -3
  6
Continuous
100
AcDbCircle
 10
-519.946893
 20
-127.825837
 30
0.0
 40
1.0
100
AcDbArc
 50
3.0
 51
55.966232
  0
LINE
  5
3FC
100
AcDbEntity
  8
0
370
    -3
  6
Continuous
100
AcDbLine
 10
-516.64722
 20
-133.570055
 30
0.0
 11
-516.486715
 21
-130.507437
 31
0.0
  0
ARC
  5
3FD
100
AcDbEntity
  8
0
370
    -3
  6
Continuous
100
AcDbCircle
 10
-515.488085
 20
-130.559773
 30
0.0
 40
1.0
100
AcDbArc
 50
61.004334
 51
177.0
  0
ARC
  5
3FE
100
AcDbEntity
  8
0
370
    -3
  6
Continuous
100
AcDbCircle
 10
-486.645849
 20
-78.517719
 30
0.0
 40
58.5
100
AcDbArc
 50
241.004334
 51
242.279209
  0
ARC
  5
3FF
100
AcDbEntity
  8
0
370
    -3
  6
Continuous
100
AcDbCircle
 10
-512.145849
 20
-134.517719
 30
0.0
 40
1.0
100
AcDbArc
 50
183.0
 51
357.0
  0
LINE
  5
400
100
AcDbEntity
  8
0
370
    -3
  6
Continuous
100
AcDbLine
 10
-511.14722
 20
-134.570055
 30
0.0
 11
-511.073246
 21
-133.158553
 31
0.0
  0
ARC
  5
401
100
AcDbEntity
  8
0
370
    -3
  6
Continuous
100
AcDbCircle
 10
-510.074616
 20
-133.210889
 30
0.0
 40
1.0
100
AcDbArc
 50
66.81129
 51
177.0
  0
LINE
  5
402
100
AcDbEntity
  8
0
370
    -3
  6
Continuous
100
AcDbLine
 10
-513.144479
 20
-134.570055
 30
0.0
 11
-513.324436
 21
-131.136264
 31
0.0
  0
ARC
  5
403
100
AcDbEntity
  8
0
370
    -3
  6
Continuous
100
AcDbCircle
 10
-514.323066
 20
-131.188599
 30
0.0
 40
1.0
100
AcDbArc
 50
3.0
 51
62.279209
  0
ARC
  5
404
100
AcDbEntity
  8
0
370
    -3
  6
Continuous
100
AcDbCircle
 10
-486.645849
 20
-78.517719
 30
0.0
 40
58.5
100
AcDbArc
 50
246.81129
 51
248.229515
  0
LINE
  5
405
100
AcDbEntity
  8
0
370
    -3
  6
Continuous
100
AcDbLine
 10
-507.644479
 20
-135.070055
 30
0.0
 11
-507.715145
 21
-133.721664
 31
0.0
  0
ARC
  5
406
100
AcDbEntity
  8
0
370
    -3
  6
Continuous
100
AcDbCircle
 10
-508.713774
 20
-133.774
 30
0.0
 40
1.0
100
AcDbArc
 50
3.0
 51
68.229515
  0
ARC
  5
407
100
AcDbEntity
  8
0
370
    -3
  6
Continuous
100
AcDbCircle
 10
-506.645849
 20
-135.017719
 30
0.0
 40
1.0
100
AcDbArc
 50
183.0
 51
354.01516
  0
ARC
  5
408
100
AcDbEntity
  8
0
370
    -3
  6
Continuous
100
AcDbCircle
 10
-504.65675
 20
-135.226249
 30
0.0
 40
1.0
100
AcDbArc
 50
72.379903
 51
174.01516
  0
ARC
  5
409
100
AcDbEntity
  8
0
370
    -3
  6
Continuous
100
AcDbCircle
 10
-486.645849
 20
-78.517719
 30
0.0
 40
58.5
100
AcDbArc
 50
252.379903
 51
254.768964
  0
ARC
  5
40A
100
AcDbEntity
  8
0
370
    -3
  6
Continuous
100
AcDbCircle
 10
-502.145849
 20
-135.445304
 30
0.0
 40
0.5
100
AcDbArc
 50
0.0
 51
74.768964
  0
LINE
  5
40B
100
AcDbEntity
  8
0
370
    -3
  6
Continuous
100
AcDbLine
 10
-501.645849
 20
-135.445304
 30
0.0
 11
-501.645849
 21
-135.634749
 31
0.0
  0
ARC
  5
40C
100
AcDbEntity
  8
0
370
    -3
  6
Continuous
100
AcDbCircle
 10
-523.145849
 20
-132.517719
 30
0.0
 40
1.0
100
AcDbArc
 50
183.0
 51
357.0
  0
LINE
  5
40D
100
AcDbEntity
  8
0
370
    -3
  6
Continuous
100
AcDbLine
 10
-524.144479
 20
-132.570055
 30
0.0
 11
-524.273904
 21
-130.100469
 31
0.0
  0
LINE
  5
40E
100
AcDbEntity
  8
0
370
    -3
  6
Continuous
100
AcDbLine
 10
-522.14722
 20
-132.570055
 30
0.0
 11
-521.86272
 21
-127.141475
 31
0.0
  0
ARC
  5
40F
100
AcDbEntity
  8
0
370
    -3
  6
Continuous
100
AcDbCircle
 10
-536.277258
 20
-122.778009
 30
0.0
 40
1.0
100
AcDbArc
 50
138.0
 51
221.725937
  0
ARC
  5
410
100
AcDbEntity
  8
0
370
    -3
  6
Continuous
100
AcDbCircle
 10
-486.645849
 20
-78.517719
 30
0.0
 40
67.5
100
AcDbArc
 50
221.725937
 51
228.274063
  0
ARC
  5
411
100
AcDbEntity
  8
0
370
    -3
  6
Continuous
100
AcDbCircle
 10
-530.906139
 20
-128.149127
 30
0.0
 40
1.0
100
AcDbArc
 50
228.274063
 51
312.0
  0
LINE
  5
412
100
AcDbEntity
  8
0
370
    -3
  6
Continuous
100
AcDbLine
 10
-541.698185
 20
-108.519089
 30
0.0
 11
-538.635568
 21
-108.358584
 31
0.0
  0
LINE
  5
413
100
AcDbEntity
  8
0
370
    -3
  6
Continuous
100
AcDbLine
 10
-541.698185
 20
-110.516348
 30
0.0
 11
-535.901631
 21
-110.820133
 31
0.0
  0
LINE
  5
414
100
AcDbEntity
  8
0
370
    -3
  6
Continuous
100
AcDbLine
 10
-542.698185
 20
-105.016348
 30
0.0
 11
-539.264394
 21
-105.196306
 31
0.0
  0
ARC
  5
415
100
AcDbEntity
  8
0
370
    -3
  6
Continuous
100
AcDbCircle
 10
-542.645849
 20
-104.017719
 30
0.0
 40
1.0
100
AcDbArc
 50
93.0
 51
267.0
  0
ARC
  5
416
100
AcDbEntity
  8
0
370
    -3
  6
Continuous
100
AcDbCircle
 10
-541.645849
 20
-109.517719
 30
0.0
 40
1.0
100
AcDbArc
 50
93.0
 51
267.0
  0
LINE
  5
417
100
AcDbEntity
  8
0
370
    -3
  6
Continuous
100
AcDbLine
 10
-540.698185
 20
-116.016348
 30
0.0
 11
-538.2286
 21
-116.145774
 31
0.0
  0
ARC
  5
418
100
AcDbEntity
  8
0
370
    -3
  6
Continuous
100
AcDbCircle
 10
-535.321942
 20
-112.73596
 30
0.0
 40
1.0
100
AcDbArc
 50
273.0
 51
35.10639
  0
LINE
  5
419
100
AcDbEntity
  8
0
370
    -3
  6
Continuous
100
AcDbLine
 10
-540.698185
 20
-114.019089
 30
0.0
 11
-535.269606
 21
-113.734589
 31
0.0
  0
ARC
  5
41A
100
AcDbEntity
  8
0
370
    -3
  6
Continuous
100
AcDbCircle
 10
-540.645849
 20
-115.017719
 30
0.0
 40
1.0
100
AcDbArc
 50
93.0
 51
267.0
  0
ARC
  5
41B
100
AcDbEntity
  8
0
370
    -3
  6
Continuous
100
AcDbCircle
 10
-539.31673
 20
-106.194935
 30
0.0
 40
1.0
100
AcDbArc
 50
27.720791
 51
87.0
  0
ARC
  5
41C
100
AcDbEntity
  8
0
370
    -3
  6
Continuous
100
AcDbCircle
 10
-538.687904
 20
-107.359955
 30
0.0
 40
1.0
100
AcDbArc
 50
273.0
 51
28.995666
  0
ARC
  5
41D
100
AcDbEntity
  8
0
370
    -3
  6
Continuous
100
AcDbCircle
 10
-535.953967
 20
-111.818762
 30
0.0
 40
1.0
100
AcDbArc
 50
34.033768
 51
87.0
  0
ARC
  5
41E
100
AcDbEntity
  8
0
370
    -3
  6
Continuous
100
AcDbCircle
 10
-486.645849
 20
-78.517719
 30
0.0
 40
58.5
100
AcDbArc
 50
200.667316
 51
203.18871
  0
LINE
  5
41F
100
AcDbEntity
  8
0
370
    -3
  6
Continuous
100
AcDbLine
 10
-546.145849
 20
-97.817719
 30
0.0
 11
-546.145849
 21
-78.517719
 31
0.0
  0
ARC
  5
420
100
AcDbEntity
  8
0
370
    -3
  6
Continuous
100
AcDbCircle
 10
-542.316757
 20
-99.517719
 30
0.0
 40
1.0
100
AcDbArc
 50
20.667316
 51
90.0
  0
LINE
  5
421
100
AcDbEntity
  8
0
370
    -3
  6
Continuous
100
AcDbLine
 10
-542.316757
 20
-98.517719
 30
0.0
 11
-545.445849
 21
-98.517719
 31
0.0
  0
ARC
  5
422
100
AcDbEntity
  8
0
370
    -3
  6
Continuous
100
AcDbCircle
 10
-545.445849
 20
-97.817719
 30
0.0
 40
0.7
100
AcDbArc
 50
180.0
 51
270.0
  0
LINE
  5
423
100
AcDbEntity
  8
0
370
    -3
  6
Continuous
100
AcDbLine
 10
-542.698185
 20
-103.019089
 30
0.0
 11
-541.286683
 21
-102.945115
 31
0.0
  0
ARC
  5
424
100
AcDbEntity
  8
0
370
    -3
  6
Continuous
100
AcDbCircle
 10
-541.339019
 20
-101.946486
 30
0.0
 40
1.0
100
AcDbArc
 50
273.0
 51
23.18871
  0
ARC
  5
425
100
AcDbEntity
  8
0
370
    -3
  6
Continuous
100
AcDbCircle
 10
-486.645849
 20
-140.017719
 30
0.0
 40
120.0
100
AcDbArc
 50
90.0
 51
96.969381
  0
ARC
  5
426
100
AcDbEntity
  8
0
370
    -3
  6
Continuous
100
AcDbCircle
 10
-501.145849
 20
-21.400688
 30
0.0
 40
0.5
100
AcDbArc
 50
96.969381
 51
180.0
  0
LINE
  5
427
100
AcDbEntity
  8
0
370
    -3
  6
Continuous
100
AcDbLine
 10
-522.933304
 20
-50.571867
 30
0.0
 11
-537.020403
 21
-34.926559
 31
0.0
  0
LINE
  5
428
100
AcDbEntity
  8
0
370
    -3
  6
Continuous
100
AcDbLine
 10
-514.591701
 20
-42.230264
 30
0.0
 11
-530.237009
 21
-28.143165
 31
0.0
  0
ARC
  5
429
100
AcDbEntity
  8
0
370
    -3
  6
Continuous
100
AcDbCircle
 10
-486.645849
 20
-78.517719
 30
0.0
 40
58.5
100
AcDbArc
 50
144.89361
 51
145.966232
  0
ARC
  5
42A
100
AcDbEntity
  8
0
370
    -3
  6
Continuous
100
AcDbCircle
 10
-486.645849
 20
-78.517719
 30
0.0
 40
58.5
100
AcDbArc
 50
151.004334
 51
152.279209
  0
ARC
  5
42B
100
AcDbEntity
  8
0
370
    -3
  6
Continuous
100
AcDbCircle
 10
-486.645849
 20
-78.517719
 30
0.0
 40
58.5
100
AcDbArc
 50
124.033768
 51
125.10639
  0
ARC
  5
42C
100
AcDbEntity
  8
0
370
    -3
  6
Continuous
100
AcDbCircle
 10
-520.86409
 20
-29.841626
 30
0.0
 40
1.0
100
AcDbArc
 50
183.0
 51
305.10639
  0
ARC
  5
42D
100
AcDbEntity
  8
0
370
    -3
  6
Continuous
100
AcDbCircle
 10
-517.645849
 20
-23.517719
 30
0.0
 40
1.0
100
AcDbArc
 50
3.0
 51
177.0
  0
LINE
  5
42E
100
AcDbEntity
  8
0
370
    -3
  6
Continuous
100
AcDbLine
 10
-518.644479
 20
-23.465383
 30
0.0
 11
-518.948263
 21
-29.261937
 31
0.0
  0
ARC
  5
42F
100
AcDbEntity
  8
0
370
    -3
  6
Continuous
100
AcDbCircle
 10
-519.946893
 20
-29.209601
 30
0.0
 40
1.0
100
AcDbArc
 50
304.033768
 51
357.0
  0
LINE
  5
430
100
AcDbEntity
  8
0
370
    -3
  6
Continuous
100
AcDbLine
 10
-516.64722
 20
-23.465383
 30
0.0
 11
-516.486715
 21
-26.528
 31
0.0
  0
ARC
  5
431
100
AcDbEntity
  8
0
370
    -3
  6
Continuous
100
AcDbCircle
 10
-515.488085
 20
-26.475664
 30
0.0
 40
1.0
100
AcDbArc
 50
183.0
 51
298.995666
  0
ARC
  5
432
100
AcDbEntity
  8
0
370
    -3
  6
Continuous
100
AcDbCircle
 10
-486.645849
 20
-78.517719
 30
0.0
 40
58.5
100
AcDbArc
 50
117.720791
 51
118.995666
  0
ARC
  5
433
100
AcDbEntity
  8
0
370
    -3
  6
Continuous
100
AcDbCircle
 10
-512.145849
 20
-22.517719
 30
0.0
 40
1.0
100
AcDbArc
 50
3.0
 51
177.0
  0
LINE
  5
434
100
AcDbEntity
  8
0
370
    -3
  6
Continuous
100
AcDbLine
 10
-511.14722
 20
-22.465383
 30
0.0
 11
-511.073246
 21
-23.876884
 31
0.0
  0
ARC
  5
435
100
AcDbEntity
  8
0
370
    -3
  6
Continuous
100
AcDbCircle
 10
-510.074616
 20
-23.824548
 30
0.0
 40
1.0
100
AcDbArc
 50
183.0
 51
293.18871
  0
LINE
  5
436
100
AcDbEntity
  8
0
370
    -3
  6
Continuous
100
AcDbLine
 10
-513.144479
 20
-22.465383
 30
0.0
 11
-513.324436
 21
-25.899174
 31
0.0
  0
ARC
  5
437
100
AcDbEntity
  8
0
370
    -3
  6
Continuous
100
AcDbCircle
 10
-514.323066
 20
-25.846838
 30
0.0
 40
1.0
100
AcDbArc
 50
297.720791
 51
357.0
  0
ARC
  5
438
100
AcDbEntity
  8
0
370
    -3
  6
Continuous
100
AcDbCircle
 10
-486.645849
 20
-78.517719
 30
0.0
 40
58.5
100
AcDbArc
 50
111.770485
 51
113.18871
  0
LINE
  5
439
100
AcDbEntity
  8
0
370
    -3
  6
Continuous
100
AcDbLine
 10
-507.644479
 20
-21.965383
 30
0.0
 11
-507.715145
 21
-23.313773
 31
0.0
  0
ARC
  5
43A
100
AcDbEntity
  8
0
370
    -3
  6
Continuous
100
AcDbCircle
 10
-508.713774
 20
-23.261437
 30
0.0
 40
1.0
100
AcDbArc
 50
291.770485
 51
357.0
  0
ARC
  5
43B
100
AcDbEntity
  8
0
370
    -3
  6
Continuous
100
AcDbCircle
 10
-506.645849
 20
-22.017719
 30
0.0
 40
1.0
100
AcDbArc
 50
5.98484
 51
177.0
  0
ARC
  5
43C
100
AcDbEntity
  8
0
370
    -3
  6
Continuous
100
AcDbCircle
 10
-504.65675
 20
-21.809188
 30
0.0
 40
1.0
100
AcDbArc
 50
185.98484
 51
287.620097
  0
ARC
  5
43D
100
AcDbEntity
  8
0
370
    -3
  6
Continuous
100
AcDbCircle
 10
-486.645849
 20
-78.517719
 30
0.0
 40
58.5
100
AcDbArc
 50
105.231036
 51
107.620097
  0
ARC
  5
43E
100
AcDbEntity
  8
0
370
    -3
  6
Continuous
100
AcDbCircle
 10
-502.145849
 20
-21.590133
 30
0.0
 40
0.5
100
AcDbArc
 50
285.231036
 51
0.0
  0
LINE
  5
43F
100
AcDbEntity
  8
0
370
    -3
  6
Continuous
100
AcDbLine
 10
-501.645849
 20
-21.590133
 30
0.0
 11
-501.645849
 21
-21.400688
 31
0.0
  0
ARC
  5
440
100
AcDbEntity
  8
0
370
    -3
  6
Continuous
100
AcDbCircle
 10
-523.145849
 20
-24.517719
 30
0.0
 40
1.0
100
AcDbArc
 50
3.0
 51
177.0
  0
LINE
  5
441
100
AcDbEntity
  8
0
370
    -3
  6
Continuous
100
AcDbLine
 10
-524.144479
 20
-24.465383
 30
0.0
 11
-524.273904
 21
-26.934968
 31
0.0
  0
LINE
  5
442
100
AcDbEntity
  8
0
370
    -3
  6
Continuous
100
AcDbLine
 10
-522.14722
 20
-24.465383
 30
0.0
 11
-521.86272
 21
-29.893962
 31
0.0
  0
ARC
  5
443
100
AcDbEntity
  8
0
370
    -3
  6
Continuous
100
AcDbCircle
 10
-536.277258
 20
-34.257428
 30
0.0
 40
1.0
100
AcDbArc
 50
138.274063
 51
222.0
  0
ARC
  5
444
100
AcDbEntity
  8
0
370
    -3
  6
Continuous
100
AcDbCircle
 10
-486.645849
 20
-78.517719
 30
0.0
 40
67.5
100
AcDbArc
 50
131.725937
 51
138.274063
  0
ARC
  5
445
100
AcDbEntity
  8
0
370
    -3
  6
Continuous
100
AcDbCircle
 10
-530.906139
 20
-28.88631
 30
0.0
 40
1.0
100
AcDbArc
 50
48.0
 51
131.725937
  0
LINE
  5
446
100
AcDbEntity
  8
0
370
    -3
  6
Continuous
100
AcDbLine
 10
-541.698185
 20
-48.516348
 30
0.0
 11
-538.635568
 21
-48.676853
 31
0.0
  0
LINE
  5
447
100
AcDbEntity
  8
0
370
    -3
  6
Continuous
100
AcDbLine
 10
-541.698185
 20
-46.519089
 30
0.0
 11
-535.901631
 21
-46.215305
 31
0.0
  0
LINE
  5
448
100
AcDbEntity
  8
0
370
    -3
  6
Continuous
100
AcDbLine
 10
-542.698185
 20
-52.019089
 30
0.0
 11
-539.264394
 21
-51.839132
 31
0.0
  0
ARC
  5
449
100
AcDbEntity
  8
0
370
    -3
  6
Continuous
100
AcDbCircle
 10
-542.645849
 20
-53.017719
 30
0.0
 40
1.0
100
AcDbArc
 50
93.0
 51
267.0
  0
ARC
  5
44A
100
AcDbEntity
  8
0
370
    -3
  6
Continuous
100
AcDbCircle
 10
-541.645849
 20
-47.517719
 30
0.0
 40
1.0
100
AcDbArc
 50
93.0
 51
267.0
  0
LINE
  5
44B
100
AcDbEntity
  8
0
370
    -3
  6
Continuous
100
AcDbLine
 10
-540.698185
 20
-41.019089
 30
0.0
 11
-538.2286
 21
-40.889664
 31
0.0
  0
ARC
  5
44C
100
AcDbEntity
  8
0
370
    -3
  6
Continuous
100
AcDbCircle
 10
-535.321942
 20
-44.299477
 30
0.0
 40
1.0
100
AcDbArc
 50
324.89361
 51
87.0
  0
LINE
  5
44D
100
AcDbEntity
  8
0
370
    -3
  6
Continuous
100
AcDbLine
 10
-540.698185
 20
-43.016348
 30
0.0
 11
-535.269606
 21
-43.300848
 31
0.0
  0
ARC
  5
44E
100
AcDbEntity
  8
0
370
    -3
  6
Continuous
100
AcDbCircle
 10
-540.645849
 20
-42.017719
 30
0.0
 40
1.0
100
AcDbArc
 50
93.0
 51
267.0
  0
ARC
  5
44F
100
AcDbEntity
  8
0
370
    -3
  6
Continuous
100
AcDbCircle
 10
-539.31673
 20
-50.840502
 30
0.0
 40
1.0
100
AcDbArc
 50
273.0
 51
332.279209
  0
ARC
  5
450
100
AcDbEntity
  8
0
370
    -3
  6
Continuous
100
AcDbCircle
 10
-538.687904
 20
-49.675483
 30
0.0
 40
1.0
100
AcDbArc
 50
331.004334
 51
87.0
  0
ARC
  5
451
100
AcDbEntity
  8
0
370
    -3
  6
Continuous
100
AcDbCircle
 10
-535.953967
 20
-45.216675
 30
0.0
 40
1.0
100
AcDbArc
 50
273.0
 51
325.966232
  0
ARC
  5
452
100
AcDbEntity
  8
0
370
    -3
  6
Continuous
100
AcDbCircle
 10
-486.645849
 20
-78.517719
 30
0.0
 40
58.5
100
AcDbArc
 50
156.81129
 51
159.332684
  0
LINE
  5
453
100
AcDbEntity
  8
0
370
    -3
  6
Continuous
100
AcDbLine
 10
-546.145849
 20
-59.217719
 30
0.0
 11
-546.145849
 21
-78.517719
 31
0.0
  0
ARC
  5
454
100
AcDbEntity
  8
0
370
    -3
  6
Continuous
100
AcDbCircle
 10
-542.316757
 20
-57.517719
 30
0.0
 40
1.0
100
AcDbArc
 50
270.0
 51
339.332684
  0
LINE
  5
455
100
AcDbEntity
  8
0
370
    -3
  6
Continuous
100
AcDbLine
 10
-542.316757
 20
-58.517719
 30
0.0
 11
-545.445849
 21
-58.517719
 31
0.0
  0
ARC
  5
456
100
AcDbEntity
  8
0
370
    -3
  6
Continuous
100
AcDbCircle
 10
-545.445849
 20
-59.217719
 30
0.0
 40
0.7
100
AcDbArc
 50
90.0
 51
180.0
  0
LINE
  5
457
100
AcDbEntity
  8
0
370
    -3
  6
Continuous
100
AcDbLine
 10
-542.698185
 20
-54.016348
 30
0.0
 11
-541.286683
 21
-54.090322
 31
0.0
  0
ARC
  5
458
100
AcDbEntity
  8
0
370
    -3
  6
Continuous
100
AcDbCircle
 10
-541.339019
 20
-55.088951
 30
0.0
 40
1.0
100
AcDbArc
 50
336.81129
 51
87.0
  0
ARC
  5
459
100
AcDbEntity
  8
0
370
    -3
  6
Continuous
100
AcDbCircle
 10
-434.906091
 20
-119.141662
 30
0.0
 40
3.0
100
AcDbArc
 50
93.0
 51
222.0
  0
ARC
  5
45A
100
AcDbEntity
  8
0
370
    -3
  6
Continuous
100
AcDbCircle
 10
-446.021906
 20
-130.257477
 30
0.0
 40
3.0
100
AcDbArc
 50
48.0
 51
177.0
  0
ARC
  5
45B
100
AcDbEntity
  8
0
370
    -3
  6
Continuous
100
AcDbCircle
 10
-527.269793
 20
-130.257477
 30
0.0
 40
3.0
100
AcDbArc
 50
3.0
 51
132.0
  0
ARC
  5
45C
100
AcDbEntity
  8
0
370
    -3
  6
Continuous
100
AcDbCircle
 10
-538.385607
 20
-119.141662
 30
0.0
 40
3.0
100
AcDbArc
 50
318.0
 51
87.0
  0
ARC
  5
45D
100
AcDbEntity
  8
0
370
    -3
  6
Continuous
100
AcDbCircle
 10
-538.385607
 20
-37.893775
 30
0.0
 40
3.0
100
AcDbArc
 50
273.0
 51
42.0
  0
ARC
  5
45E
100
AcDbEntity
  8
0
370
    -3
  6
Continuous
100
AcDbCircle
 10
-527.269793
 20
-26.77796
 30
0.0
 40
3.0
100
AcDbArc
 50
228.0
 51
357.0
  0
ARC
  5
45F
100
AcDbEntity
  8
0
370
    -3
  6
Continuous
100
AcDbCircle
 10
-434.906091
 20
-37.893775
 30
0.0
 40
3.0
100
AcDbArc
 50
138.0
 51
267.0
  0
ARC
  5
460
100
AcDbEntity
  8
0
370
    -3
  6
Continuous
100
AcDbCircle
 10
-446.021906
 20
-26.77796
 30
0.0
 40
3.0
100
AcDbArc
 50
183.0
 51
312.0
  0
LINE
  5
461
100
AcDbEntity
  8
0
370
    -3
  6
CENTER
100
AcDbLine
 10
-475.418926
 20
-48.517719
 30
0.0
 11
-497.507612
 21
-48.517719
 31
0.0
  0
ARC
  5
462
100
AcDbEntity
  8
0
370
    -3
  6
Continuous
100
AcDbCircle
 10
-480.645849
 20
-17.017719
 30
0.0
 40
3.0
100
AcDbArc
 50
180.0
 51
270.0
  0
ARC
  5
463
100
AcDbEntity
  8
0
370
    -3
  6
Continuous
100
AcDbCircle
 10
-492.645849
 20
-17.017719
 30
0.0
 40
3.0
100
AcDbArc
 50
270.0
 51
0.0
  0
ARC
  5
464
100
AcDbEntity
  8
0
370
    -3
  6
Continuous
100
AcDbCircle
 10
-486.645849
 20
-78.517719
 30
0.0
 40
101.0
100
AcDbArc
 50
202.01537
 51
230.049766
  0
ARC
  5
465
100
AcDbEntity
  8
0
370
    -3
  6
Continuous
100
AcDbCircle
 10
-556.637146
 20
-162.077388
 30
0.0
 40
8.0
100
AcDbArc
 50
1.78177
 51
50.049766
  0
ARC
  5
466
100
AcDbEntity
  8
0
370
    -3
  6
Continuous
100
AcDbCircle
 10
-538.645849
 20
-161.517719
 30
0.0
 40
10.0
100
AcDbArc
 50
181.78177
 51
270.0
  0
ARC
  5
467
100
AcDbEntity
  8
0
370
    -3
  6
Continuous
100
AcDbCircle
 10
-434.645849
 20
-161.517719
 30
0.0
 40
10.0
100
AcDbArc
 50
270.0
 51
358.21823
  0
ARC
  5
468
100
AcDbEntity
  8
0
370
    -3
  6
Continuous
100
AcDbCircle
 10
-416.654552
 20
-162.077388
 30
0.0
 40
8.0
100
AcDbArc
 50
129.950234
 51
178.21823
  0
LINE
  5
469
100
AcDbEntity
  8
0
370
    -3
  6
Continuous
100
AcDbLine
 10
-483.645849
 20
-0.517719
 30
0.0
 11
-483.645849
 21
-17.017719
 31
0.0
  0
LINE
  5
46A
100
AcDbEntity
  8
0
370
    -3
  6
Continuous
100
AcDbLine
 10
-489.645849
 20
-0.517719
 30
0.0
 11
-489.645849
 21
-17.017719
 31
0.0
  0
LINE
  5
46B
100
AcDbEntity
  8
0
370
    -3
  6
Continuous
100
AcDbLine
 10
-486.645849
 20
-78.517719
 30
0.0
 11
-486.262444
 21
-78.134313
 31
0.0
  0
LINE
  5
46C
100
AcDbEntity
  8
0
370
    -3
  6
Continuous
100
AcDbLine
 10
-434.645849
 20
-171.517719
 30
0.0
 11
-486.645849
 21
-171.517719
 31
0.0
  0
LINE
  5
46D
100
AcDbEntity
  8
0
370
    -3
  6
Continuous
100
AcDbLine
 10
-538.645849
 20
-171.517719
 30
0.0
 11
-486.645849
 21
-171.517719
 31
0.0
  0
ARC
  5
46E
100
AcDbEntity
  8
0
370
    -3
  6
Continuous
100
AcDbCircle
 10
-416.654552
 20
-162.077388
 30
0.0
 40
8.0
100
AcDbArc
 50
129.950234
 51
178.21823
  0
LINE
  5
46F
100
AcDbEntity
  8
0
370
    -3
  6
CENTER
100
AcDbLine
 10
-363.63546
 20
-78.517719
 30
0.0
 11
-606.67325
 21
-78.517719
 31
0.0
  0
ARC
  5
470
100
AcDbEntity
  8
0
370
    -3
  6
Continuous
100
AcDbCircle
 10
-556.637146
 20
-162.077388
 30
0.0
 40
8.0
100
AcDbArc
 50
1.78177
 51
50.049766
  0
ARC
  5
471
100
AcDbEntity
  8
0
370
    -3
  6
Continuous
100
AcDbCircle
 10
-538.645849
 20
-161.517719
 30
0.0
 40
10.0
100
AcDbArc
 50
181.78177
 51
270.0
  0
ARC
  5
472
100
AcDbEntity
  8
0
370
    -3
  6
Continuous
100
AcDbCircle
 10
-434.645849
 20
-161.517719
 30
0.0
 40
10.0
100
AcDbArc
 50
270.0
 51
358.21823
  0
LINE
  5
473
100
AcDbEntity
  8
0
370
    -3
  6
Continuous
100
AcDbLine
 10
-538.645849
 20
-171.517719
 30
0.0
 11
-486.645849
 21
-171.517719
 31
0.0
  0
LINE
  5
474
100
AcDbEntity
  8
0
370
    -3
  6
Continuous
100
AcDbLine
 10
-434.645849
 20
-171.517719
 30
0.0
 11
-486.645849
 21
-171.517719
 31
0.0
  0
LINE
  5
475
100
AcDbEntity
  8
0
370
    -3
  6
CENTER
100
AcDbLine
 10
-486.645849
 20
77.49041
 30
0.0
 11
-486.645849
 21
-173.274101
 31
0.0
  0
LINE
  5
476
100
AcDbEntity
  8
0
370
    -3
  6
Continuous
100
AcDbLine
 10
-424.58406
 20
-161.017719
 30
0.0
 11
-382.145849
 21
-161.017719
 31
0.0
  0
LINE
  5
477
100
AcDbEntity
  8
0
370
    -3
  6
Continuous
100
AcDbLine
 10
-591.145849
 20
-161.017719
 30
0.0
 11
-548.707638
 21
-161.017719
 31
0.0
  0
LINE
  5
478
100
AcDbEntity
  8
0
370
    -3
  6
Continuous
100
AcDbLine
 10
-538.645845
 20
-164.981817
 30
0.0
 11
-535.645852
 21
-163.249765
 31
0.0
  0
LINE
  5
479
100
AcDbEntity
  8
0
370
    -3
  6
Continuous
100
AcDbLine
 10
-538.645856
 20
-158.053622
 30
0.0
 11
-541.645847
 21
-159.785672
 31
0.0
  0
LINE
  5
47A
100
AcDbEntity
  8
0
370
    -3
  6
Continuous
100
AcDbLine
 10
-541.645847
 20
-163.24977
 30
0.0
 11
-538.645845
 21
-164.981817
 31
0.0
  0
LINE
  5
47B
100
AcDbEntity
  8
0
370
    -3
  6
Continuous
100
AcDbLine
 10
-538.645856
 20
-158.053622
 30
0.0
 11
-535.645851
 21
-159.785667
 31
0.0
  0
LINE
  5
47C
100
AcDbEntity
  8
0
370
    -3
  6
Continuous
100
AcDbLine
 10
-541.645846
 20
-159.785672
 30
0.0
 11
-541.645847
 21
-163.24977
 31
0.0
  0
LINE
  5
47D
100
AcDbEntity
  8
0
370
    -3
  6
Continuous
100
AcDbLine
 10
-535.645853
 20
-163.249765
 30
0.0
 11
-535.645852
 21
-159.785667
 31
0.0
  0
CIRCLE
  5
47E
100
AcDbEntity
  8
0
370
    -3
  6
Continuous
100
AcDbCircle
 10
-538.645849
 20
-161.517719
 30
0.0
 40
6.5
  0
CIRCLE
  5
47F
100
AcDbEntity
  8
0
370
    -3
  6
Continuous
100
AcDbCircle
 10
-538.645849
 20
-161.517719
 30
0.0
 40
5.633955
  0
LINE
  5
480
100
AcDbEntity
  8
0
370
    -3
  6
Continuous
100
AcDbLine
 10
-434.645854
 20
-164.981817
 30
0.0
 11
-437.645847
 21
-163.249765
 31
0.0
  0
LINE
  5
481
100
AcDbEntity
  8
0
370
    -3
  6
Continuous
100
AcDbLine
 10
-434.645843
 20
-158.053622
 30
0.0
 11
-431.645852
 21
-159.785672
 31
0.0
  0
LINE
  5
482
100
AcDbEntity
  8
0
370
    -3
  6
Continuous
100
AcDbLine
 10
-431.645851
 20
-163.24977
 30
0.0
 11
-434.645854
 21
-164.981817
 31
0.0
  0
LINE
  5
483
100
AcDbEntity
  8
0
370
    -3
  6
Continuous
100
AcDbLine
 10
-434.645843
 20
-158.053622
 30
0.0
 11
-437.645847
 21
-159.785667
 31
0.0
  0
LINE
  5
484
100
AcDbEntity
  8
0
370
    -3
  6
Continuous
100
AcDbLine
 10
-431.645853
 20
-159.785672
 30
0.0
 11
-431.645852
 21
-163.24977
 31
0.0
  0
LINE
  5
485
100
AcDbEntity
  8
0
370
    -3
  6
Continuous
100
AcDbLine
 10
-437.645846
 20
-163.249765
 30
0.0
 11
-437.645847
 21
-159.785667
 31
0.0
  0
CIRCLE
  5
486
100
AcDbEntity
  8
0
370
    -3
  6
Continuous
100
AcDbCircle
 10
-434.645849
 20
-161.517719
 30
0.0
 40
6.5
  0
CIRCLE
  5
487
100
AcDbEntity
  8
0
370
    -3
  6
Continuous
100
AcDbCircle
 10
-434.645849
 20
-161.517719
 30
0.0
 40
5.633955
  0
INSERT
  5
493
100
AcDbEntity
  8
0
100
AcDbBlockReference
  2
ZU_SYM__USERS_HOME_SYMBOL_STD_SYM_B01_00005-1
 10
-442.451675
 20
-34.323545
 30
0.0
  0
INSERT
  5
49F
100
AcDbEntity
  8
0
100
AcDbBlockReference
  2
ZU_SYM__USERS_HOME_SYMBOL_STD_SYM_B01_00006-1
 10
-530.840023
 20
-34.323545
 30
0.0
 41
-1.0
  0
INSERT
  5
4AB
100
AcDbEntity
  8
0
100
AcDbBlockReference
  2
ZU_SYM__USERS_HOME_SYMBOL_STD_SYM_B01_00007-1
 10
-530.840023
 20
-122.711892
 30
0.0
 50
180.0
  0
INSERT
  5
4B7
100
AcDbEntity
  8
0
100
AcDbBlockReference
  2
ZU_SYM__USERS_HOME_SYMBOL_STD_SYM_B01_00008-1
 10
-442.451675
 20
-122.711892
 30
0.0
 41
-1.0
 50
180.0
  0
LINE
  5
4B8
100
AcDbEntity
  8
0
370
    -3
  6
Continuous
100
AcDbLine
 10
-145.058552
 20
283.610087
 30
0.0
 11
-145.058552
 21
275.610087
 31
0.0
  0
LINE
  5
4B9
100
AcDbEntity
  8
0
370
    -3
  6
Continuous
100
AcDbLine
 10
-145.058552
 20
262.610087
 30
0.0
 11
-145.058552
 21
220.115499
 31
0.0
  0
MTEXT
  5
4BA
100
AcDbEntity
  8
0
370
    -3
  6
Continuous
100
AcDbMText
 10
-579.416931
 20
308.41391
 30
0.0
 40
15.0
 41
0.0
 71
     7
 72
     1
  1
\W0.48;GV-SF
  7
ZU_SHPTB00001
 11
1.0
 21
0.0
 31
0.0
 73
     1
 44
1.0
  0
MTEXT
  5
4BB
100
AcDbEntity
  8
0
370
    -3
  6
Continuous
100
AcDbMText
 10
-579.416931
 20
325.363922
 30
0.0
 40
15.0
 41
0.0
 71
     7
 72
     1
  1
\W0.63;三菱ギヤードモータ  
  7
ZU_SHPTB00001
 11
1.0
 21
0.0
 31
0.0
 73
     1
 44
1.0
  0
MTEXT
  5
4BC
100
AcDbEntity
  8
0
370
    -3
  6
Continuous
100
AcDbMText
 10
-579.416931
 20
325.363922
 30
0.0
 40
15.0
 41
0.0
 71
     7
 72
     1
  1
\W0.63;三菱ギヤードモータ  
  7
ZU_SHPTB00001
 11
1.0
 21
0.0
 31
0.0
 73
     1
 44
1.0
  0
MTEXT
  5
4BD
100
AcDbEntity
  8
0
370
    -3
  6
Continuous
100
AcDbMText
 10
-579.416931
 20
240.613937
 30
0.0
 40
15.0
 41
0.0
 71
     7
 72
     1
  1
\W0.43;SCALE\W0.72;  \W0.43;1/1
  7
ZU_SHPTB00001
 11
1.0
 21
0.0
 31
0.0
 73
     1
 44
1.0
  0
MTEXT
  5
4BE
100
AcDbEntity
  8
0
370
    -3
  6
Continuous
100
AcDbMText
 10
-579.416931
 20
274.513947
 30
0.0
 40
15.0
 41
0.0
 71
     7
 72
     1
  1
\W0.43;25-15r/min\W0.53;　
  7
ZU_SHPTB00001
 11
1.0
 21
0.0
 31
0.0
 73
     1
 44
1.0
  0
MTEXT
  5
4BF
100
AcDbEntity
  8
0
370
    -3
  6
Continuous
100
AcDbMText
 10
-579.416931
 20
257.563934
 30
0.0
 40
15.0
 41
0.0
 71
     7
 72
     1
  1
\W0.42;GEAR\W0.70; \W0.42;RATIO\W0.70;  \W0.42;1/120-1/200
  7
ZU_SHPTB00001
 11
1.0
 21
0.0
 31
0.0
 73
     1
 44
1.0
  0
MTEXT
  5
4C0
100
AcDbEntity
  8
0
370
    -3
  6
Continuous
100
AcDbMText
 10
-579.416931
 20
291.463898
 30
0.0
 40
15.0
 41
0.0
 71
     7
 72
     1
  1
\W0.43;0.75kW
  7
ZU_SHPTB00001
 11
1.0
 21
0.0
 31
0.0
 73
     1
 44
1.0
  0
LINE
  5
4C1
100
AcDbEntity
  8
0
370
    -3
  6
Continuous
100
AcDbLine
 10
-286.390811
 20
-78.517719
 30
0.0
 11
-286.390811
 21
-53.953256
 31
0.0
  0
LINE
  5
4C2
100
AcDbEntity
  8
0
370
    -3
  6
Continuous
100
AcDbLine
 10
-276.464918
 20
-41.25521
 30
0.0
 11
-285.441653
 21
-51.440747
 31
0.0
  0
ARC
  5
4C3
100
AcDbEntity
  8
0
370
    -3
  6
Continuous
100
AcDbCircle
 10
-282.590811
 20
-53.953256
 30
0.0
 40
3.8
100
AcDbArc
 50
138.609573
 51
180.0
  0
POINT
  5
4C4
100
AcDbEntity
  8
0
370
    -3
  6
CENTER
100
AcDbPoint
 10
-317.058552
 20
-65.297219
 30
0.0
  0
LINE
  5
4C5
100
AcDbEntity
  8
0
370
    -3
  6
Continuous
100
AcDbLine
 10
-317.058552
 20
-78.517719
 30
0.0
 11
-317.058552
 21
-63.517719
 31
0.0
  0
ARC
  5
4C6
100
AcDbEntity
  8
0
370
    -3
  6
Continuous
100
AcDbCircle
 10
-315.058552
 20
-63.517719
 30
0.0
 40
2.0
100
AcDbArc
 50
90.0
 51
180.0
  0
LINE
  5
4C7
100
AcDbEntity
  8
0
370
    -3
  6
Continuous
100
AcDbLine
 10
-315.058552
 20
-61.517719
 30
0.0
 11
-296.632611
 21
-61.517719
 31
0.0
  0
LINE
  5
4C8
100
AcDbEntity
  8
0
370
    -3
  6
Continuous
100
AcDbLine
 10
-294.181426
 20
-78.517719
 30
0.0
 11
-294.181426
 21
-39.517719
 31
0.0
  0
LINE
  5
4C9
100
AcDbEntity
  8
0
370
    -3
  6
Continuous
100
AcDbLine
 10
-296.632611
 20
-78.517719
 30
0.0
 11
-296.632611
 21
-39.517719
 31
0.0
  0
POINT
  5
4CA
100
AcDbEntity
  8
0
370
    -3
  6
CENTER
100
AcDbPoint
 10
-317.058552
 20
-91.738219
 30
0.0
  0
LINE
  5
4CB
100
AcDbEntity
  8
0
370
    -3
  6
Continuous
100
AcDbLine
 10
-317.058552
 20
-78.517719
 30
0.0
 11
-317.058552
 21
-93.517719
 31
0.0
  0
ARC
  5
4CC
100
AcDbEntity
  8
0
370
    -3
  6
Continuous
100
AcDbCircle
 10
-315.058552
 20
-93.517719
 30
0.0
 40
2.0
100
AcDbArc
 50
180.0
 51
270.0
  0
LINE
  5
4CD
100
AcDbEntity
  8
0
370
    -3
  6
Continuous
100
AcDbLine
 10
-315.058552
 20
-95.517719
 30
0.0
 11
-296.632611
 21
-95.517719
 31
0.0
  0
LINE
  5
4CE
100
AcDbEntity
  8
0
370
    -3
  6
Continuous
100
AcDbLine
 10
-286.390811
 20
-78.517719
 30
0.0
 11
-286.390811
 21
-103.082181
 31
0.0
  0
LINE
  5
4CF
100
AcDbEntity
  8
0
370
    -3
  6
Continuous
100
AcDbLine
 10
-294.181426
 20
-78.517719
 30
0.0
 11
-294.181426
 21
-117.517719
 31
0.0
  0
LINE
  5
4D0
100
AcDbEntity
  8
0
370
    -3
  6
Continuous
100
AcDbLine
 10
-296.632611
 20
-78.517719
 30
0.0
 11
-296.632611
 21
-117.517719
 31
0.0
  0
LINE
  5
4D1
100
AcDbEntity
  8
0
370
    -3
  6
Continuous
100
AcDbLine
 10
-284.558552
 20
-119.961892
 30
0.0
 11
-284.058552
 21
-119.961892
 31
0.0
  0
LINE
  5
4D2
100
AcDbEntity
  8
0
370
    -3
  6
Continuous
100
AcDbLine
 10
-273.614076
 20
-117.067719
 30
0.0
 11
-218.118019
 21
-117.067719
 31
0.0
  0
LINE
  5
4D3
100
AcDbEntity
  8
0
370
    -3
  6
Continuous
100
AcDbLine
 10
-286.013417
 20
-118.017719
 30
0.0
 11
-287.921137
 21
-116.017719
 31
0.0
  0
LINE
  5
4D4
100
AcDbEntity
  8
0
370
    -3
  6
Continuous
100
AcDbLine
 10
-284.295906
 20
-120.017719
 30
0.0
 11
-286.013417
 21
-118.017719
 31
0.0
  0
LINE
  5
4D5
100
AcDbEntity
  8
0
370
    -3
  6
Continuous
100
AcDbLine
 10
-286.013417
 20
-118.017719
 30
0.0
 11
-284.295906
 21
-116.017719
 31
0.0
  0
LINE
  5
4D6
100
AcDbEntity
  8
0
370
    -3
  6
Continuous
100
AcDbLine
 10
-287.921137
 20
-120.017719
 30
0.0
 11
-286.013417
 21
-118.017719
 31
0.0
  0
ELLIPSE
  5
4D7
100
AcDbEntity
  8
0
370
    -3
  6
Continuous
100
AcDbEllipse
 10
-286.844448
 20
-118.017719
 30
0.0
 11
0.0000000000002274
 21
3.5
 31
0.0
210
0.0
220
0.0
230
1.0
 40
0.982815
 41
0.0
 42
6.2831853071795862
  0
ARC
  5
4D8
100
AcDbEntity
  8
0
370
    -3
  6
Continuous
100
AcDbCircle
 10
-282.590811
 20
-103.082181
 30
0.0
 40
3.8
100
AcDbArc
 50
180.0
 51
221.390427
  0
LINE
  5
4D9
100
AcDbEntity
  8
0
370
    -3
  6
Continuous
100
AcDbLine
 10
-276.464918
 20
-115.780227
 30
0.0
 11
-285.441653
 21
-105.59469
 31
0.0
  0
ARC
  5
4DA
100
AcDbEntity
  8
0
370
    -3
  6
Continuous
100
AcDbCircle
 10
-273.614076
 20
-113.267719
 30
0.0
 40
3.8
100
AcDbArc
 50
221.390427
 51
270.0
  0
ARC
  5
4DB
100
AcDbEntity
  8
0
370
    -3
  6
Continuous
100
AcDbCircle
 10
-286.381426
 20
-117.517719
 30
0.0
 40
7.8
100
AcDbArc
 50
180.0
 51
270.0
  0
ARC
  5
4DC
100
AcDbEntity
  8
0
370
    -3
  6
Continuous
100
AcDbCircle
 10
-288.832611
 20
-117.517719
 30
0.0
 40
7.8
100
AcDbArc
 50
180.0
 51
270.0
  0
LINE
  5
4DD
100
AcDbEntity
  8
0
370
    -3
  6
Continuous
100
AcDbLine
 10
-203.539409
 20
-118.017719
 30
0.0
 11
-205.447128
 21
-116.017719
 31
0.0
  0
LINE
  5
4DE
100
AcDbEntity
  8
0
370
    -3
  6
Continuous
100
AcDbLine
 10
-201.821897
 20
-120.017719
 30
0.0
 11
-203.539409
 21
-118.017719
 31
0.0
  0
LINE
  5
4DF
100
AcDbEntity
  8
0
370
    -3
  6
Continuous
100
AcDbLine
 10
-203.539409
 20
-118.017719
 30
0.0
 11
-201.821897
 21
-116.017719
 31
0.0
  0
LINE
  5
4E0
100
AcDbEntity
  8
0
370
    -3
  6
Continuous
100
AcDbLine
 10
-205.447128
 20
-120.017719
 30
0.0
 11
-203.539409
 21
-118.017719
 31
0.0
  0
ELLIPSE
  5
4E1
100
AcDbEntity
  8
0
370
    -3
  6
Continuous
100
AcDbEllipse
 10
-204.370439
 20
-118.017719
 30
0.0
 11
0.000000000000199
 21
3.5
 31
0.0
210
0.0
220
0.0
230
1.0
 40
0.982815
 41
0.0
 42
6.2831853071795862
  0
LINE
  5
4E2
100
AcDbEntity
  8
0
370
    -3
  6
Continuous
100
AcDbLine
 10
-215.632599
 20
-78.517719
 30
0.0
 11
-215.632599
 21
-107.067719
 31
0.0
  0
ARC
  5
4E3
100
AcDbEntity
  8
0
370
    -3
  6
Continuous
100
AcDbCircle
 10
-225.632599
 20
-107.067719
 30
0.0
 40
10.0
100
AcDbArc
 50
270.0
 51
360.0
  0
LINE
  5
4E4
100
AcDbEntity
  8
0
370
    -3
  6
Continuous
100
AcDbLine
 10
-205.179192
 20
-78.517719
 30
0.0
 11
-205.179192
 21
-103.06471
 31
0.0
  0
ARC
  5
4E5
100
AcDbEntity
  8
0
370
    -3
  6
Continuous
100
AcDbCircle
 10
-208.979192
 20
-103.06471
 30
0.0
 40
3.8
100
AcDbArc
 50
318.14922
 51
360.0
  0
LINE
  5
4E6
100
AcDbEntity
  8
0
370
    -3
  6
Continuous
100
AcDbLine
 10
-215.287456
 20
-115.803052
 30
0.0
 11
-206.148629
 21
-105.600043
 31
0.0
  0
ARC
  5
4E7
100
AcDbEntity
  8
0
370
    -3
  6
Continuous
100
AcDbCircle
 10
-218.118019
 20
-113.267719
 30
0.0
 40
3.8
100
AcDbArc
 50
270.0
 51
318.14922
  0
ARC
  5
4E8
100
AcDbEntity
  8
0
370
    -3
  6
Continuous
100
AcDbCircle
 10
-205.961082
 20
-117.517719
 30
0.0
 40
7.8
100
AcDbArc
 50
270.0
 51
360.0
  0
LINE
  5
4E9
100
AcDbEntity
  8
0
370
    -3
  6
Continuous
100
AcDbLine
 10
-205.961082
 20
-125.317719
 30
0.0
 11
-288.832611
 21
-125.317719
 31
0.0
  0
LINE
  5
4EA
100
AcDbEntity
  8
0
370
    -3
  6
Continuous
100
AcDbLine
 10
-198.161082
 20
-78.517719
 30
0.0
 11
-198.161082
 21
-117.517719
 31
0.0
  0
LINE
  5
4EB
100
AcDbEntity
  8
0
370
    -3
  6
Continuous
100
AcDbLine
 10
-215.632599
 20
-78.517719
 30
0.0
 11
-215.632599
 21
-49.967719
 31
0.0
  0
LINE
  5
4EC
100
AcDbEntity
  8
0
370
    -3
  6
Continuous
100
AcDbLine
 10
-205.179192
 20
-78.517719
 30
0.0
 11
-205.179192
 21
-53.970727
 31
0.0
  0
LINE
  5
4ED
100
AcDbEntity
  8
0
370
    -3
  6
Continuous
100
AcDbLine
 10
-198.161082
 20
-78.517719
 30
0.0
 11
-198.161082
 21
-39.517719
 31
0.0
  0
LINE
  5
4EE
100
AcDbEntity
  8
0
370
    -3
  6
Continuous
100
AcDbLine
 10
-203.539409
 20
-39.017719
 30
0.0
 11
-205.447128
 21
-41.017719
 31
0.0
  0
LINE
  5
4EF
100
AcDbEntity
  8
0
370
    -3
  6
Continuous
100
AcDbLine
 10
-201.821897
 20
-37.017719
 30
0.0
 11
-203.539409
 21
-39.017719
 31
0.0
  0
LINE
  5
4F0
100
AcDbEntity
  8
0
370
    -3
  6
Continuous
100
AcDbLine
 10
-203.539409
 20
-39.017719
 30
0.0
 11
-201.821897
 21
-41.017719
 31
0.0
  0
LINE
  5
4F1
100
AcDbEntity
  8
0
370
    -3
  6
Continuous
100
AcDbLine
 10
-205.447128
 20
-37.017719
 30
0.0
 11
-203.539409
 21
-39.017719
 31
0.0
  0
ELLIPSE
  5
4F2
100
AcDbEntity
  8
0
370
    -3
  6
Continuous
100
AcDbEllipse
 10
-204.370439
 20
-39.017719
 30
0.0
 11
0.0
 21
3.5
 31
0.0
210
0.0
220
0.0
230
1.0
 40
0.982815
 41
0.0
 42
6.2831853071795862
  0
ARC
  5
4F3
100
AcDbEntity
  8
0
370
    -3
  6
Continuous
100
AcDbCircle
 10
-225.632599
 20
-49.967719
 30
0.0
 40
10.0
100
AcDbArc
 50
0.0
 51
90.0
  0
LINE
  5
4F4
100
AcDbEntity
  8
0
370
    -3
  6
Continuous
100
AcDbLine
 10
-273.614076
 20
-39.967719
 30
0.0
 11
-218.118019
 21
-39.967719
 31
0.0
  0
ARC
  5
4F5
100
AcDbEntity
  8
0
370
    -3
  6
Continuous
100
AcDbCircle
 10
-208.979192
 20
-53.970727
 30
0.0
 40
3.8
100
AcDbArc
 50
0.0
 51
41.85078
  0
LINE
  5
4F6
100
AcDbEntity
  8
0
370
    -3
  6
Continuous
100
AcDbLine
 10
-215.287456
 20
-41.232386
 30
0.0
 11
-206.148629
 21
-51.435394
 31
0.0
  0
ARC
  5
4F7
100
AcDbEntity
  8
0
370
    -3
  6
Continuous
100
AcDbCircle
 10
-218.118019
 20
-43.767719
 30
0.0
 40
3.8
100
AcDbArc
 50
41.85078
 51
90.0
  0
LINE
  5
4F8
100
AcDbEntity
  8
0
370
    -3
  6
Continuous
100
AcDbLine
 10
-205.961082
 20
-31.717719
 30
0.0
 11
-288.832611
 21
-31.717719
 31
0.0
  0
ARC
  5
4F9
100
AcDbEntity
  8
0
370
    -3
  6
Continuous
100
AcDbCircle
 10
-205.961082
 20
-39.517719
 30
0.0
 40
7.8
100
AcDbArc
 50
0.0
 51
90.0
  0
LINE
  5
4FA
100
AcDbEntity
  8
0
370
    -3
  6
Continuous
100
AcDbLine
 10
-286.013417
 20
-39.017719
 30
0.0
 11
-287.921137
 21
-41.017719
 31
0.0
  0
LINE
  5
4FB
100
AcDbEntity
  8
0
370
    -3
  6
Continuous
100
AcDbLine
 10
-284.295906
 20
-37.017719
 30
0.0
 11
-286.013417
 21
-39.017719
 31
0.0
  0
LINE
  5
4FC
100
AcDbEntity
  8
0
370
    -3
  6
Continuous
100
AcDbLine
 10
-286.013417
 20
-39.017719
 30
0.0
 11
-284.295906
 21
-41.017719
 31
0.0
  0
LINE
  5
4FD
100
AcDbEntity
  8
0
370
    -3
  6
Continuous
100
AcDbLine
 10
-287.921137
 20
-37.017719
 30
0.0
 11
-286.013417
 21
-39.017719
 31
0.0
  0
ELLIPSE
  5
4FE
100
AcDbEntity
  8
0
370
    -3
  6
Continuous
100
AcDbEllipse
 10
-286.844448
 20
-39.017719
 30
0.0
 11
0.0
 21
3.5
 31
0.0
210
0.0
220
0.0
230
1.0
 40
0.982815
 41
0.0
 42
6.2831853071795862
  0
ARC
  5
4FF
100
AcDbEntity
  8
0
370
    -3
  6
Continuous
100
AcDbCircle
 10
-273.614076
 20
-43.767719
 30
0.0
 40
3.8
100
AcDbArc
 50
90.0
 51
138.609573
  0
ARC
  5
500
100
AcDbEntity
  8
0
370
    -3
  6
Continuous
100
AcDbCircle
 10
-286.381426
 20
-39.517719
 30
0.0
 40
7.8
100
AcDbArc
 50
90.0
 51
180.0
  0
ARC
  5
501
100
AcDbEntity
  8
0
370
    -3
  6
Continuous
100
AcDbCircle
 10
-288.832611
 20
-39.517719
 30
0.0
 40
7.8
100
AcDbArc
 50
90.0
 51
180.0
  0
ARC
  5
502
100
AcDbEntity
  8
0
370
    -3
  6
Continuous
100
AcDbCircle
 10
107.741448
 20
-117.517719
 30
0.0
 40
7.8
100
AcDbArc
 50
263.900059
 51
270.0
  0
ARC
  5
503
100
AcDbEntity
  8
0
370
    -3
  6
DASHED
100
AcDbCircle
 10
108.59507
 20
-110.267719
 30
0.0
 40
6.8
100
AcDbArc
 50
255.674957
 51
270.0
  0
ARC
  5
504
100
AcDbEntity
  8
0
370
    -3
  6
Continuous
100
AcDbCircle
 10
108.59507
 20
-46.767719
 30
0.0
 40
6.8
100
AcDbArc
 50
104.325043
 51
180.0
  0
ARC
  5
505
100
AcDbEntity
  8
0
370
    -3
  6
Continuous
100
AcDbCircle
 10
107.741448
 20
-39.517719
 30
0.0
 40
7.8
100
AcDbArc
 50
96.099941
 51
151.87484
  0
LINE
  5
506
100
AcDbEntity
  8
0
370
    -3
  6
DASHED
100
AcDbLine
 10
149.353168
 20
-38.860206
 30
0.0
 11
149.778
 21
-39.861048
 31
0.0
  0
ARC
  5
507
100
AcDbEntity
  8
0
370
    -3
  6
DASHED
100
AcDbCircle
 10
146.612597
 20
-43.017719
 30
0.0
 40
3.8
100
AcDbArc
 50
0.0
 51
36.757251
  0
LINE
  5
508
100
AcDbEntity
  8
0
370
    -3
  6
DASHED
100
AcDbLine
 10
150.412597
 20
-43.017719
 30
0.0
 11
150.412597
 21
-114.017719
 31
0.0
  0
ARC
  5
509
100
AcDbEntity
  8
0
370
    -3
  6
DASHED
100
AcDbCircle
 10
146.612597
 20
-114.017719
 30
0.0
 40
3.8
100
AcDbArc
 50
321.247352
 51
0.0
  0
LINE
  5
50A
100
AcDbEntity
  8
0
370
    -3
  6
DASHED
100
AcDbLine
 10
149.657073
 20
-39.517719
 30
0.0
 11
149.657073
 21
-117.517719
 31
0.0
  0
LINE
  5
50B
100
AcDbEntity
  8
0
370
    -3
  6
CENTER
100
AcDbLine
 10
125.412597
 20
-57.217262
 30
0.0
 11
125.412597
 21
-99.818176
 31
0.0
  0
LINE
  5
50C
100
AcDbEntity
  8
0
370
    -3
  6
Continuous
100
AcDbLine
 10
99.941448
 20
-41.0189
 30
0.0
 11
99.941448
 21
-116.016537
 31
0.0
  0
ARC
  5
50D
100
AcDbEntity
  8
0
370
    -3
  6
DASHED
100
AcDbCircle
 10
107.741448
 20
-39.517719
 30
0.0
 40
7.8
100
AcDbArc
 50
90.0
 51
96.099941
  0
ELLIPSE
  5
50E
100
AcDbEntity
  8
0
370
    -3
  6
Continuous
100
AcDbEllipse
 10
101.826857
 20
-39.017719
 30
0.0
 11
0.0
 21
3.5
 31
0.0
210
0.0
220
0.0
230
1.0
 40
0.656603
 41
0.0
 42
6.2831853071795862
  0
LINE
  5
50F
100
AcDbEntity
  8
0
370
    -3
  6
Continuous
100
AcDbLine
 10
99.779576
 20
-37.427702
 30
0.0
 11
100.289403
 21
-39.017719
 31
0.0
  0
LINE
  5
510
100
AcDbEntity
  8
0
370
    -3
  6
Continuous
100
AcDbLine
 10
100.289403
 20
-39.017719
 30
0.0
 11
101.338591
 21
-37.017719
 31
0.0
  0
LINE
  5
511
100
AcDbEntity
  8
0
370
    -3
  6
Continuous
100
AcDbLine
 10
100.289403
 20
-39.017719
 30
0.0
 11
101.338591
 21
-41.017719
 31
0.0
  0
LINE
  5
512
100
AcDbEntity
  8
0
370
    -3
  6
Continuous
100
AcDbLine
 10
99.779576
 20
-40.607735
 30
0.0
 11
100.289403
 21
-39.017719
 31
0.0
  0
LINE
  5
513
100
AcDbEntity
  8
0
370
    -3
  6
DASHED
100
AcDbLine
 10
138.237838
 20
-37.427702
 30
0.0
 11
138.747665
 21
-39.017719
 31
0.0
  0
LINE
  5
514
100
AcDbEntity
  8
0
370
    -3
  6
DASHED
100
AcDbLine
 10
138.237838
 20
-40.607735
 30
0.0
 11
138.747665
 21
-39.017719
 31
0.0
  0
LINE
  5
515
100
AcDbEntity
  8
0
370
    -3
  6
DASHED
100
AcDbLine
 10
138.747665
 20
-39.017719
 30
0.0
 11
139.796853
 21
-41.017719
 31
0.0
  0
LINE
  5
516
100
AcDbEntity
  8
0
370
    -3
  6
DASHED
100
AcDbLine
 10
138.747665
 20
-39.017719
 30
0.0
 11
139.796853
 21
-37.017719
 31
0.0
  0
ELLIPSE
  5
517
100
AcDbEntity
  8
0
370
    -3
  6
DASHED
100
AcDbEllipse
 10
140.285119
 20
-39.017719
 30
0.0
 11
0.0
 21
3.5
 31
0.0
210
0.0
220
0.0
230
1.0
 40
0.656603
 41
0.0
 42
6.2831853071795862
  0
ARC
  5
518
100
AcDbEntity
  8
0
370
    -3
  6
DASHED
100
AcDbCircle
 10
133.105706
 20
-43.767719
 30
0.0
 40
3.8
100
AcDbArc
 50
23.227672
 51
90.0
  0
LINE
  5
519
100
AcDbEntity
  8
0
370
    -3
  6
DASHED
100
AcDbLine
 10
133.105706
 20
-39.967719
 30
0.0
 11
108.59507
 21
-39.967719
 31
0.0
  0
ARC
  5
51A
100
AcDbEntity
  8
0
370
    -3
  6
Continuous
100
AcDbCircle
 10
137.051805
 20
-52.962389
 30
0.0
 40
3.8
100
AcDbArc
 50
0.0
 51
23.227672
  0
LINE
  5
51B
100
AcDbEntity
  8
0
370
    -3
  6
DASHED
100
AcDbLine
 10
140.851805
 20
-52.962389
 30
0.0
 11
140.851805
 21
-104.073049
 31
0.0
  0
LINE
  5
51C
100
AcDbEntity
  8
0
370
    -3
  6
DASHED
100
AcDbLine
 10
136.597697
 20
-42.269053
 30
0.0
 11
140.543795
 21
-51.463723
 31
0.0
  0
ARC
  5
51D
100
AcDbEntity
  8
0
370
    -3
  6
DASHED
100
AcDbCircle
 10
137.051805
 20
-104.073049
 30
0.0
 40
3.8
100
AcDbArc
 50
336.772328
 51
0.0
  0
LINE
  5
51E
100
AcDbEntity
  8
0
370
    -3
  6
DASHED
100
AcDbLine
 10
136.597697
 20
-114.766385
 30
0.0
 11
140.543795
 21
-105.571715
 31
0.0
  0
ARC
  5
51F
100
AcDbEntity
  8
0
370
    -3
  6
DASHED
100
AcDbCircle
 10
141.857073
 20
-39.517719
 30
0.0
 40
7.8
100
AcDbArc
 50
0.0
 51
90.0
  0
LINE
  5
520
100
AcDbEntity
  8
0
370
    -3
  6
DASHED
100
AcDbLine
 10
107.741448
 20
-31.717719
 30
0.0
 11
141.857073
 21
-31.717719
 31
0.0
  0
LINE
  5
521
100
AcDbEntity
  8
0
370
    -3
  6
DASHED
100
AcDbLine
 10
144.400488
 20
-117.517719
 30
0.0
 11
144.400488
 21
-39.517719
 31
0.0
  0
ARC
  5
522
100
AcDbEntity
  8
0
370
    -3
  6
DASHED
100
AcDbCircle
 10
136.600488
 20
-39.517719
 30
0.0
 40
7.8
100
AcDbArc
 50
0.0
 51
90.0
  0
ARC
  5
523
100
AcDbEntity
  8
0
370
    -3
  6
DASHED
100
AcDbCircle
 10
108.59507
 20
-46.767719
 30
0.0
 40
6.8
100
AcDbArc
 50
90.0
 51
104.325043
  0
LINE
  5
524
100
AcDbEntity
  8
0
370
    -3
  6
Continuous
100
AcDbLine
 10
101.79507
 20
-46.767719
 30
0.0
 11
101.79507
 21
-110.267719
 31
0.0
  0
ARC
  5
525
100
AcDbEntity
  8
0
370
    -3
  6
Continuous
100
AcDbCircle
 10
108.59507
 20
-110.267719
 30
0.0
 40
6.8
100
AcDbArc
 50
180.0
 51
255.674957
  0
LINE
  5
526
100
AcDbEntity
  8
0
370
    -3
  6
DASHED
100
AcDbLine
 10
107.741448
 20
-125.317719
 30
0.0
 11
141.857073
 21
-125.317719
 31
0.0
  0
ARC
  5
527
100
AcDbEntity
  8
0
370
    -3
  6
Continuous
100
AcDbCircle
 10
107.741448
 20
-117.517719
 30
0.0
 40
7.8
100
AcDbArc
 50
208.12516
 51
263.900059
  0
ELLIPSE
  5
528
100
AcDbEntity
  8
0
370
    -3
  6
Continuous
100
AcDbEllipse
 10
101.826857
 20
-118.017719
 30
0.0
 11
0.0
 21
3.5
 31
0.0
210
0.0
220
0.0
230
1.0
 40
0.656603
 41
0.0
 42
6.2831853071795862
  0
LINE
  5
529
100
AcDbEntity
  8
0
370
    -3
  6
Continuous
100
AcDbLine
 10
99.779576
 20
-119.607735
 30
0.0
 11
100.289403
 21
-118.017719
 31
0.0
  0
LINE
  5
52A
100
AcDbEntity
  8
0
370
    -3
  6
Continuous
100
AcDbLine
 10
100.289403
 20
-118.017719
 30
0.0
 11
101.338591
 21
-120.017719
 31
0.0
  0
LINE
  5
52B
100
AcDbEntity
  8
0
370
    -3
  6
Continuous
100
AcDbLine
 10
100.289403
 20
-118.017719
 30
0.0
 11
101.338591
 21
-116.017719
 31
0.0
  0
LINE
  5
52C
100
AcDbEntity
  8
0
370
    -3
  6
Continuous
100
AcDbLine
 10
99.779576
 20
-116.427702
 30
0.0
 11
100.289403
 21
-118.017719
 31
0.0
  0
LINE
  5
52D
100
AcDbEntity
  8
0
370
    -3
  6
DASHED
100
AcDbLine
 10
138.237838
 20
-119.607735
 30
0.0
 11
138.747665
 21
-118.017719
 31
0.0
  0
LINE
  5
52E
100
AcDbEntity
  8
0
370
    -3
  6
DASHED
100
AcDbLine
 10
138.237838
 20
-116.427702
 30
0.0
 11
138.747665
 21
-118.017719
 31
0.0
  0
LINE
  5
52F
100
AcDbEntity
  8
0
370
    -3
  6
DASHED
100
AcDbLine
 10
138.747665
 20
-118.017719
 30
0.0
 11
139.796853
 21
-116.017719
 31
0.0
  0
LINE
  5
530
100
AcDbEntity
  8
0
370
    -3
  6
DASHED
100
AcDbLine
 10
138.747665
 20
-118.017719
 30
0.0
 11
139.796853
 21
-120.017719
 31
0.0
  0
ELLIPSE
  5
531
100
AcDbEntity
  8
0
370
    -3
  6
DASHED
100
AcDbEllipse
 10
140.285119
 20
-118.017719
 30
0.0
 11
0.0
 21
3.5
 31
0.0
210
0.0
220
0.0
230
1.0
 40
0.656603
 41
0.0
 42
6.2831853071795862
  0
ARC
  5
532
100
AcDbEntity
  8
0
370
    -3
  6
DASHED
100
AcDbCircle
 10
133.105706
 20
-113.267719
 30
0.0
 40
3.8
100
AcDbArc
 50
270.0
 51
336.772328
  0
LINE
  5
533
100
AcDbEntity
  8
0
370
    -3
  6
DASHED
100
AcDbLine
 10
133.105706
 20
-117.067719
 30
0.0
 11
108.59507
 21
-117.067719
 31
0.0
  0
ARC
  5
534
100
AcDbEntity
  8
0
370
    -3
  6
DASHED
100
AcDbCircle
 10
141.857073
 20
-117.517719
 30
0.0
 40
7.8
100
AcDbArc
 50
270.0
 51
0.0
  0
ARC
  5
535
100
AcDbEntity
  8
0
370
    -3
  6
DASHED
100
AcDbCircle
 10
136.600488
 20
-117.517719
 30
0.0
 40
7.8
100
AcDbArc
 50
270.0
 51
0.0
  0
CIRCLE
  5
536
100
AcDbEntity
  8
0
370
    -3
  6
DASHED
100
AcDbCircle
 10
125.412597
 20
-78.517719
 30
0.0
 40
17.0
  0
LINE
  5
537
100
AcDbEntity
  8
0
370
    -3
  6
CENTER
100
AcDbLine
 10
104.11214
 20
-78.517719
 30
0.0
 11
146.713054
 21
-78.517719
 31
0.0
  0
ARC
  5
538
100
AcDbEntity
  8
0
370
    -3
  6
Continuous
100
AcDbCircle
 10
-429.0297
 20
-104.557298
 30
0.0
 40
0.5
100
AcDbArc
 50
180.0
 51
262.874984
  0
LINE
  5
539
100
AcDbEntity
  8
0
370
    -3
  6
Continuous
100
AcDbLine
 10
-429.5297
 20
-104.557298
 30
0.0
 11
-429.5297
 21
-98.517719
 31
0.0
  0
LINE
  5
53A
100
AcDbEntity
  8
0
370
    -3
  6
Continuous
100
AcDbLine
 10
-429.091717
 20
-105.053437
 30
0.0
 11
-425.967683
 21
-105.443941
 31
0.0
  0
ARC
  5
53B
100
AcDbEntity
  8
0
370
    -3
  6
Continuous
100
AcDbCircle
 10
-429.0297
 20
-52.478139
 30
0.0
 40
0.5
100
AcDbArc
 50
97.125016
 51
180.0
  0
LINE
  5
53C
100
AcDbEntity
  8
0
370
    -3
  6
Continuous
100
AcDbLine
 10
-429.5297
 20
-52.478139
 30
0.0
 11
-429.5297
 21
-58.517719
 31
0.0
  0
LINE
  5
53D
100
AcDbEntity
  8
0
370
    -3
  6
Continuous
100
AcDbLine
 10
-429.091717
 20
-51.982
 30
0.0
 11
-425.967683
 21
-51.591496
 31
0.0
  0
ARC
  5
53E
100
AcDbEntity
  8
0
370
    -3
  6
Continuous
100
AcDbCircle
 10
-392.5297
 20
-78.517719
 30
0.0
 40
17.0
100
AcDbArc
 50
180.0
 51
0.0
  0
ARC
  5
53F
100
AcDbEntity
  8
0
370
    -3
  6
Continuous
100
AcDbCircle
 10
-392.5297
 20
-78.517719
 30
0.0
 40
12.0585
100
AcDbArc
 50
180.0
 51
0.0
  0
ARC
  5
540
100
AcDbEntity
  8
0
370
    -3
  6
Continuous
100
AcDbCircle
 10
-392.5297
 20
-78.517719
 30
0.0
 40
13.2205
100
AcDbArc
 50
180.0
 51
0.0
  0
ARC
  5
541
100
AcDbEntity
  8
0
370
    -3
  6
Continuous
100
AcDbCircle
 10
-392.5297
 20
-78.517719
 30
0.0
 40
17.0
100
AcDbArc
 50
360.0
 51
180.0
  0
ARC
  5
542
100
AcDbEntity
  8
0
370
    -3
  6
Continuous
100
AcDbCircle
 10
-392.5297
 20
-78.517719
 30
0.0
 40
12.0585
100
AcDbArc
 50
360.0
 51
180.0
  0
ARC
  5
543
100
AcDbEntity
  8
0
370
    -3
  6
Continuous
100
AcDbCircle
 10
-392.5297
 20
-78.517719
 30
0.0
 40
13.2205
100
AcDbArc
 50
360.0
 51
180.0
  0
LINE
  5
544
100
AcDbEntity
  8
0
370
    -3
  6
Continuous
100
AcDbLine
 10
-410.7297
 20
-51.686348
 30
0.0
 11
-373.373104
 21
-51.686348
 31
0.0
  0
ARC
  5
545
100
AcDbEntity
  8
0
370
    -3
  6
Continuous
100
AcDbCircle
 10
-410.7297
 20
-58.486348
 30
0.0
 40
6.8
100
AcDbArc
 50
90.0
 51
180.0
  0
ARC
  5
546
100
AcDbEntity
  8
0
370
    -3
  6
Continuous
100
AcDbCircle
 10
-410.7297
 20
-98.549089
 30
0.0
 40
6.8
100
AcDbArc
 50
180.0
 51
270.0
  0
LINE
  5
547
100
AcDbEntity
  8
0
370
    -3
  6
Continuous
100
AcDbLine
 10
-410.7297
 20
-105.349089
 30
0.0
 11
-373.373104
 21
-105.349089
 31
0.0
  0
LINE
  5
548
100
AcDbEntity
  8
0
370
    -3
  6
Continuous
100
AcDbLine
 10
-371.72307
 20
-78.517719
 30
0.0
 11
-371.72307
 21
-39.517719
 31
0.0
  0
LINE
  5
549
100
AcDbEntity
  8
0
370
    -3
  6
Continuous
100
AcDbLine
 10
-408.019587
 20
-33.017719
 30
0.0
 11
-376.463088
 21
-33.017719
 31
0.0
  0
LINE
  5
54A
100
AcDbEntity
  8
0
370
    -3
  6
Continuous
100
AcDbLine
 10
-416.774177
 20
-39.517719
 30
0.0
 11
-416.774177
 21
-42.902546
 31
0.0
  0
LINE
  5
54B
100
AcDbEntity
  8
0
370
    -3
  6
Continuous
100
AcDbLine
 10
-416.436082
 20
-42.319448
 30
0.0
 11
-416.436082
 21
-39.517719
 31
0.0
  0
ARC
  5
54C
100
AcDbEntity
  8
0
370
    -3
  6
Continuous
100
AcDbCircle
 10
-417.5297
 20
-50.517719
 30
0.0
 40
1.0
100
AcDbArc
 50
103.342364
 51
180.0
  0
ARC
  5
54D
100
AcDbEntity
  8
0
370
    -3
  6
Continuous
100
AcDbCircle
 10
-417.8297
 20
-49.252808
 30
0.0
 40
0.3
100
AcDbArc
 50
283.342364
 51
0.0
  0
ARC
  5
54E
100
AcDbEntity
  8
0
370
    -3
  6
Continuous
100
AcDbCircle
 10
-408.019587
 20
-39.017719
 30
0.0
 40
6.0
100
AcDbArc
 50
90.0
 51
180.0
  0
LINE
  5
54F
100
AcDbEntity
  8
0
370
    -3
  6
Continuous
100
AcDbLine
 10
-414.019587
 20
-40.06653
 30
0.0
 11
-414.019587
 21
-39.017719
 31
0.0
  0
ARC
  5
550
100
AcDbEntity
  8
0
370
    -3
  6
Continuous
100
AcDbCircle
 10
-410.7297
 20
-46.017719
 30
0.0
 40
6.8
100
AcDbArc
 50
90.0
 51
180.0
  0
LINE
  5
551
100
AcDbEntity
  8
0
370
    -3
  6
Continuous
100
AcDbLine
 10
-417.5297
 20
-78.517719
 30
0.0
 11
-417.5297
 21
-46.017719
 31
0.0
  0
ARC
  5
552
100
AcDbEntity
  8
0
370
    -3
  6
Continuous
100
AcDbCircle
 10
-381.096842
 20
-43.017719
 30
0.0
 40
3.8
100
AcDbArc
 50
22.977375
 51
90.0
  0
ARC
  5
553
100
AcDbEntity
  8
0
370
    -3
  6
Continuous
100
AcDbCircle
 10
-377.093788
 20
-52.458685
 30
0.0
 40
3.8
100
AcDbArc
 50
360.0
 51
22.977375
  0
LINE
  5
554
100
AcDbEntity
  8
0
370
    -3
  6
Continuous
100
AcDbLine
 10
-373.595284
 20
-50.975288
 30
0.0
 11
-377.598337
 21
-41.534322
 31
0.0
  0
LINE
  5
555
100
AcDbEntity
  8
0
370
    -3
  6
Continuous
100
AcDbLine
 10
-410.7297
 20
-39.217719
 30
0.0
 11
-381.096842
 21
-39.217719
 31
0.0
  0
LINE
  5
556
100
AcDbEntity
  8
0
370
    -3
  6
Continuous
100
AcDbLine
 10
-373.293788
 20
-78.517719
 30
0.0
 11
-373.293788
 21
-52.458685
 31
0.0
  0
LINE
  5
557
100
AcDbEntity
  8
0
370
    -3
  6
Continuous
100
AcDbLine
 10
-418.5297
 20
-78.517719
 30
0.0
 11
-418.5297
 21
-50.517719
 31
0.0
  0
ARC
  5
558
100
AcDbEntity
  8
0
370
    -3
  6
Continuous
100
AcDbCircle
 10
-409.436082
 20
-39.517719
 30
0.0
 40
7.0
100
AcDbArc
 50
90.0
 51
180.0
  0
LINE
  5
559
100
AcDbEntity
  8
0
370
    -3
  6
Continuous
100
AcDbLine
 10
-419.5297
 20
-47.517719
 30
0.0
 11
-418.5297
 21
-47.517719
 31
0.0
  0
LINE
  5
55A
100
AcDbEntity
  8
0
370
    -3
  6
Continuous
100
AcDbLine
 10
-418.5297
 20
-47.517719
 30
0.0
 11
-418.5297
 21
-78.517719
 31
0.0
  0
LINE
  5
55B
100
AcDbEntity
  8
0
370
    -3
  6
Continuous
100
AcDbLine
 10
-419.5297
 20
-78.517719
 30
0.0
 11
-419.5297
 21
-47.517719
 31
0.0
  0
LINE
  5
55C
100
AcDbEntity
  8
0
370
    -3
  6
Continuous
100
AcDbLine
 10
-367.058552
 20
-39.517719
 30
0.0
 11
-367.058552
 21
-78.517719
 31
0.0
  0
LINE
  5
55D
100
AcDbEntity
  8
0
370
    -3
  6
Continuous
100
AcDbLine
 10
-372.061165
 20
-78.517719
 30
0.0
 11
-372.061165
 21
-39.517719
 31
0.0
  0
LINE
  5
55E
100
AcDbEntity
  8
0
370
    -3
  6
Continuous
100
AcDbLine
 10
-374.858552
 20
-31.717719
 30
0.0
 11
-408.974177
 21
-31.717719
 31
0.0
  0
ELLIPSE
  5
55F
100
AcDbEntity
  8
0
370
    -3
  6
Continuous
100
AcDbEllipse
 10
-368.94396
 20
-39.017719
 30
0.0
 11
0.0
 21
3.5
 31
0.0
210
0.0
220
0.0
230
1.0
 40
0.656603
 41
4.1037320181008443
 42
5.8501343317260348
  0
ARC
  5
560
100
AcDbEntity
  8
0
370
    -3
  6
Continuous
100
AcDbCircle
 10
-374.858552
 20
-39.517719
 30
0.0
 40
7.8
100
AcDbArc
 50
0.0
 51
90.0
  0
ARC
  5
561
100
AcDbEntity
  8
0
370
    -3
  6
Continuous
100
AcDbCircle
 10
-379.52307
 20
-39.517719
 30
0.0
 40
7.8
100
AcDbArc
 50
0.0
 51
90.0
  0
ARC
  5
562
100
AcDbEntity
  8
0
370
    -3
  6
Continuous
100
AcDbCircle
 10
-379.061165
 20
-39.517719
 30
0.0
 40
7.0
100
AcDbArc
 50
0.0
 51
90.0
  0
LINE
  5
563
100
AcDbEntity
  8
0
370
    -3
  6
Continuous
100
AcDbLine
 10
-379.061165
 20
-32.517719
 30
0.0
 11
-409.436082
 21
-32.517719
 31
0.0
  0
ARC
  5
564
100
AcDbEntity
  8
0
370
    -3
  6
Continuous
100
AcDbCircle
 10
-408.974177
 20
-39.517719
 30
0.0
 40
7.8
100
AcDbArc
 50
90.0
 51
180.0
  0
LINE
  5
565
100
AcDbEntity
  8
0
370
    -3
  6
CENTER
100
AcDbLine
 10
-392.5297
 20
-59.872786
 30
0.0
 11
-392.5297
 21
-99.818176
 31
0.0
  0
LINE
  5
566
100
AcDbEntity
  8
0
370
    -3
  6
Continuous
100
AcDbLine
 10
-371.72307
 20
-78.517719
 30
0.0
 11
-371.72307
 21
-117.517719
 31
0.0
  0
LINE
  5
567
100
AcDbEntity
  8
0
370
    -3
  6
Continuous
100
AcDbLine
 10
-408.019587
 20
-124.017719
 30
0.0
 11
-376.463088
 21
-124.017719
 31
0.0
  0
LINE
  5
568
100
AcDbEntity
  8
0
370
    -3
  6
Continuous
100
AcDbLine
 10
-416.774177
 20
-117.517719
 30
0.0
 11
-416.774177
 21
-114.132891
 31
0.0
  0
LINE
  5
569
100
AcDbEntity
  8
0
370
    -3
  6
Continuous
100
AcDbLine
 10
-416.436082
 20
-114.715989
 30
0.0
 11
-416.436082
 21
-117.517719
 31
0.0
  0
ARC
  5
56A
100
AcDbEntity
  8
0
370
    -3
  6
Continuous
100
AcDbCircle
 10
-417.5297
 20
-106.517719
 30
0.0
 40
1.0
100
AcDbArc
 50
180.0
 51
256.657636
  0
ARC
  5
56B
100
AcDbEntity
  8
0
370
    -3
  6
Continuous
100
AcDbCircle
 10
-417.8297
 20
-107.78263
 30
0.0
 40
0.3
100
AcDbArc
 50
0.0
 51
76.657636
  0
ARC
  5
56C
100
AcDbEntity
  8
0
370
    -3
  6
Continuous
100
AcDbCircle
 10
-408.019587
 20
-118.017719
 30
0.0
 40
6.0
100
AcDbArc
 50
180.0
 51
270.0
  0
LINE
  5
56D
100
AcDbEntity
  8
0
370
    -3
  6
Continuous
100
AcDbLine
 10
-414.019587
 20
-116.968907
 30
0.0
 11
-414.019587
 21
-118.017719
 31
0.0
  0
ARC
  5
56E
100
AcDbEntity
  8
0
370
    -3
  6
Continuous
100
AcDbCircle
 10
-410.7297
 20
-111.017719
 30
0.0
 40
6.8
100
AcDbArc
 50
180.0
 51
270.0
  0
LINE
  5
56F
100
AcDbEntity
  8
0
370
    -3
  6
Continuous
100
AcDbLine
 10
-417.5297
 20
-78.517719
 30
0.0
 11
-417.5297
 21
-111.017719
 31
0.0
  0
ARC
  5
570
100
AcDbEntity
  8
0
370
    -3
  6
Continuous
100
AcDbCircle
 10
-381.096842
 20
-114.017719
 30
0.0
 40
3.8
100
AcDbArc
 50
270.0
 51
337.022625
  0
ARC
  5
571
100
AcDbEntity
  8
0
370
    -3
  6
Continuous
100
AcDbCircle
 10
-377.093788
 20
-104.576752
 30
0.0
 40
3.8
100
AcDbArc
 50
337.022625
 51
0.0
  0
LINE
  5
572
100
AcDbEntity
  8
0
370
    -3
  6
Continuous
100
AcDbLine
 10
-373.595284
 20
-106.060149
 30
0.0
 11
-377.598337
 21
-115.501115
 31
0.0
  0
LINE
  5
573
100
AcDbEntity
  8
0
370
    -3
  6
Continuous
100
AcDbLine
 10
-410.7297
 20
-117.817719
 30
0.0
 11
-381.096842
 21
-117.817719
 31
0.0
  0
LINE
  5
574
100
AcDbEntity
  8
0
370
    -3
  6
Continuous
100
AcDbLine
 10
-373.293788
 20
-78.517719
 30
0.0
 11
-373.293788
 21
-104.576752
 31
0.0
  0
LINE
  5
575
100
AcDbEntity
  8
0
370
    -3
  6
Continuous
100
AcDbLine
 10
-418.5297
 20
-78.517719
 30
0.0
 11
-418.5297
 21
-106.517719
 31
0.0
  0
ARC
  5
576
100
AcDbEntity
  8
0
370
    -3
  6
Continuous
100
AcDbCircle
 10
-409.436082
 20
-117.517719
 30
0.0
 40
7.0
100
AcDbArc
 50
180.0
 51
270.0
  0
LINE
  5
577
100
AcDbEntity
  8
0
370
    -3
  6
Continuous
100
AcDbLine
 10
-419.5297
 20
-109.517719
 30
0.0
 11
-418.5297
 21
-109.517719
 31
0.0
  0
LINE
  5
578
100
AcDbEntity
  8
0
370
    -3
  6
Continuous
100
AcDbLine
 10
-418.5297
 20
-109.517719
 30
0.0
 11
-418.5297
 21
-78.517719
 31
0.0
  0
LINE
  5
579
100
AcDbEntity
  8
0
370
    -3
  6
Continuous
100
AcDbLine
 10
-419.5297
 20
-78.517719
 30
0.0
 11
-419.5297
 21
-109.517719
 31
0.0
  0
LINE
  5
57A
100
AcDbEntity
  8
0
370
    -3
  6
Continuous
100
AcDbLine
 10
-367.058552
 20
-117.517719
 30
0.0
 11
-367.058552
 21
-78.517719
 31
0.0
  0
LINE
  5
57B
100
AcDbEntity
  8
0
370
    -3
  6
Continuous
100
AcDbLine
 10
-372.061165
 20
-78.517719
 30
0.0
 11
-372.061165
 21
-117.517719
 31
0.0
  0
LINE
  5
57C
100
AcDbEntity
  8
0
370
    -3
  6
Continuous
100
AcDbLine
 10
-374.858552
 20
-125.317719
 30
0.0
 11
-408.974177
 21
-125.317719
 31
0.0
  0
ELLIPSE
  5
57D
100
AcDbEntity
  8
0
370
    -3
  6
Continuous
100
AcDbEllipse
 10
-368.94396
 20
-118.017719
 30
0.0
 11
0.0
 21
3.5
 31
0.0
210
0.0
220
0.0
230
1.0
 40
0.656603
 41
3.5746436290433174
 42
5.3210459426689347
  0
ARC
  5
57E
100
AcDbEntity
  8
0
370
    -3
  6
Continuous
100
AcDbCircle
 10
-374.858552
 20
-117.517719
 30
0.0
 40
7.8
100
AcDbArc
 50
270.0
 51
0.0
  0
ARC
  5
57F
100
AcDbEntity
  8
0
370
    -3
  6
Continuous
100
AcDbCircle
 10
-379.52307
 20
-117.517719
 30
0.0
 40
7.8
100
AcDbArc
 50
270.0
 51
0.0
  0
ARC
  5
580
100
AcDbEntity
  8
0
370
    -3
  6
Continuous
100
AcDbCircle
 10
-379.061165
 20
-117.517719
 30
0.0
 40
7.0
100
AcDbArc
 50
270.0
 51
0.0
  0
LINE
  5
581
100
AcDbEntity
  8
0
370
    -3
  6
Continuous
100
AcDbLine
 10
-379.061165
 20
-124.517719
 30
0.0
 11
-409.436082
 21
-124.517719
 31
0.0
  0
ARC
  5
582
100
AcDbEntity
  8
0
370
    -3
  6
Continuous
100
AcDbCircle
 10
-408.974177
 20
-117.517719
 30
0.0
 40
7.8
100
AcDbArc
 50
180.0
 51
270.0
  0
LINE
  5
583
100
AcDbEntity
  8
0
370
    -3
  6
CENTER
100
AcDbLine
 10
-392.5297
 20
-59.872786
 30
0.0
 11
-392.5297
 21
-99.818176
 31
0.0
  0
LINE
  5
584
100
AcDbEntity
  8
0
370
    -3
  6
Continuous
100
AcDbLine
 10
-419.5297
 20
-110.043562
 30
0.0
 11
-419.5297
 21
-46.991875
 31
0.0
  0
ARC
  5
585
100
AcDbEntity
  8
0
370
    -3
  6
Continuous
100
AcDbCircle
 10
-420.5297
 20
-110.043562
 30
0.0
 40
1.0
100
AcDbArc
 50
271.5
 51
0.0
  0
LINE
  5
586
100
AcDbEntity
  8
0
370
    -3
  6
Continuous
100
AcDbLine
 10
-418.5297
 20
-109.517719
 30
0.0
 11
-418.5297
 21
-78.517719
 31
0.0
  0
LINE
  5
587
100
AcDbEntity
  8
0
370
    -3
  6
Continuous
100
AcDbLine
 10
-418.5297
 20
-47.517719
 30
0.0
 11
-418.5297
 21
-78.517719
 31
0.0
  0
LINE
  5
588
100
AcDbEntity
  8
0
370
    -3
  6
Continuous
100
AcDbLine
 10
-427.145849
 20
-59.767719
 30
0.0
 11
-425.5297
 21
-59.767719
 31
0.0
  0
LINE
  5
589
100
AcDbEntity
  8
0
370
    -3
  6
Continuous
100
AcDbLine
 10
-427.145849
 20
-59.33473
 30
0.0
 11
-425.967683
 21
-59.482
 31
0.0
  0
ARC
  5
58A
100
AcDbEntity
  8
0
370
    -3
  6
Continuous
100
AcDbCircle
 10
-426.0297
 20
-59.978139
 30
0.0
 40
0.5
100
AcDbArc
 50
0.0
 51
82.874984
  0
ARC
  5
58B
100
AcDbEntity
  8
0
370
    -3
  6
Continuous
100
AcDbCircle
 10
-426.0297
 20
-51.095357
 30
0.0
 40
0.5
100
AcDbArc
 50
277.125016
 51
0.0
  0
ARC
  5
58C
100
AcDbEntity
  8
0
370
    -3
  6
Continuous
100
AcDbCircle
 10
-425.0297
 20
-51.036748
 30
0.0
 40
0.5
100
AcDbArc
 50
90.0
 51
180.0
  0
LINE
  5
58D
100
AcDbEntity
  8
0
370
    -3
  6
Continuous
100
AcDbLine
 10
-425.0297
 20
-50.536748
 30
0.0
 11
-424.0297
 21
-50.536748
 31
0.0
  0
ARC
  5
58E
100
AcDbEntity
  8
0
370
    -3
  6
Continuous
100
AcDbCircle
 10
-424.0297
 20
-50.036748
 30
0.0
 40
0.5
100
AcDbArc
 50
270.0
 51
0.0
  0
LINE
  5
58F
100
AcDbEntity
  8
0
370
    -3
  6
Continuous
100
AcDbLine
 10
-425.5297
 20
-60.000563
 30
0.0
 11
-425.5297
 21
-51.036748
 31
0.0
  0
ARC
  5
590
100
AcDbEntity
  8
0
370
    -3
  6
Continuous
100
AcDbCircle
 10
-425.0297
 20
-97.034874
 30
0.0
 40
0.5
100
AcDbArc
 50
180.0
 51
268.0
  0
LINE
  5
591
100
AcDbEntity
  8
0
370
    -3
  6
Continuous
100
AcDbLine
 10
-425.04715
 20
-97.53457
 30
0.0
 11
-424.01225
 21
-97.570709
 31
0.0
  0
ARC
  5
592
100
AcDbEntity
  8
0
370
    -3
  6
Continuous
100
AcDbCircle
 10
-424.0297
 20
-98.070405
 30
0.0
 40
0.5
100
AcDbArc
 50
0.0
 51
88.0
  0
LINE
  5
593
100
AcDbEntity
  8
0
370
    -3
  6
Continuous
100
AcDbLine
 10
-423.5297
 20
-98.070405
 30
0.0
 11
-423.5297
 21
-111.122462
 31
0.0
  0
LINE
  5
594
100
AcDbEntity
  8
0
370
    -3
  6
Continuous
100
AcDbLine
 10
-423.5297
 20
-111.122462
 30
0.0
 11
-420.503523
 21
-111.043219
 31
0.0
  0
ARC
  5
595
100
AcDbEntity
  8
0
370
    -3
  6
Continuous
100
AcDbCircle
 10
-420.5297
 20
-110.043562
 30
0.0
 40
1.0
100
AcDbArc
 50
271.5
 51
0.0
  0
LINE
  5
596
100
AcDbEntity
  8
0
370
    -3
  6
Continuous
100
AcDbLine
 10
-419.5297
 20
-110.043562
 30
0.0
 11
-419.5297
 21
-46.991875
 31
0.0
  0
ARC
  5
597
100
AcDbEntity
  8
0
370
    -3
  6
Continuous
100
AcDbCircle
 10
-420.5297
 20
-46.991875
 30
0.0
 40
1.0
100
AcDbArc
 50
0.0
 51
88.5
  0
LINE
  5
598
100
AcDbEntity
  8
0
370
    -3
  6
Continuous
100
AcDbLine
 10
-423.5297
 20
-45.912975
 30
0.0
 11
-420.503523
 21
-45.992218
 31
0.0
  0
LINE
  5
599
100
AcDbEntity
  8
0
370
    -3
  6
Continuous
100
AcDbLine
 10
-423.5297
 20
-58.965033
 30
0.0
 11
-423.5297
 21
-45.912975
 31
0.0
  0
ARC
  5
59A
100
AcDbEntity
  8
0
370
    -3
  6
Continuous
100
AcDbCircle
 10
-424.0297
 20
-58.965033
 30
0.0
 40
0.5
100
AcDbArc
 50
272.0
 51
0.0
  0
LINE
  5
59B
100
AcDbEntity
  8
0
370
    -3
  6
Continuous
100
AcDbLine
 10
-425.04715
 20
-59.500868
 30
0.0
 11
-424.01225
 21
-59.464728
 31
0.0
  0
ARC
  5
59C
100
AcDbEntity
  8
0
370
    -3
  6
Continuous
100
AcDbCircle
 10
-425.0297
 20
-60.000563
 30
0.0
 40
0.5
100
AcDbArc
 50
92.0
 51
180.0
  0
LINE
  5
59D
100
AcDbEntity
  8
0
370
    -3
  6
Continuous
100
AcDbLine
 10
-427.145849
 20
-97.700708
 30
0.0
 11
-425.967683
 21
-97.553437
 31
0.0
  0
ARC
  5
59E
100
AcDbEntity
  8
0
370
    -3
  6
Continuous
100
AcDbCircle
 10
-426.0297
 20
-97.057298
 30
0.0
 40
0.5
100
AcDbArc
 50
277.125016
 51
0.0
  0
LINE
  5
59F
100
AcDbEntity
  8
0
370
    -3
  6
Continuous
100
AcDbLine
 10
-427.145849
 20
-97.267719
 30
0.0
 11
-425.5297
 21
-97.267719
 31
0.0
  0
LINE
  5
5A0
100
AcDbEntity
  8
0
370
    -3
  6
Continuous
100
AcDbLine
 10
-425.5297
 20
-97.034874
 30
0.0
 11
-425.5297
 21
-105.998689
 31
0.0
  0
ARC
  5
5A1
100
AcDbEntity
  8
0
370
    -3
  6
Continuous
100
AcDbCircle
 10
-426.0297
 20
-105.94008
 30
0.0
 40
0.5
100
AcDbArc
 50
0.0
 51
82.874984
  0
ARC
  5
5A2
100
AcDbEntity
  8
0
370
    -3
  6
Continuous
100
AcDbCircle
 10
-425.0297
 20
-105.998689
 30
0.0
 40
0.5
100
AcDbArc
 50
180.0
 51
270.0
  0
LINE
  5
5A3
100
AcDbEntity
  8
0
370
    -3
  6
Continuous
100
AcDbLine
 10
-425.0297
 20
-106.498689
 30
0.0
 11
-424.0297
 21
-106.498689
 31
0.0
  0
ARC
  5
5A4
100
AcDbEntity
  8
0
370
    -3
  6
Continuous
100
AcDbCircle
 10
-424.0297
 20
-106.998689
 30
0.0
 40
0.5
100
AcDbArc
 50
0.0
 51
90.0
  0
LINE
  5
5A5
100
AcDbEntity
  8
0
370
    -3
  6
Continuous
100
AcDbLine
 10
-419.5297
 20
-78.517719
 30
0.0
 11
-419.5297
 21
-109.517719
 31
0.0
  0
LINE
  5
5A6
100
AcDbEntity
  8
0
370
    -3
  6
Continuous
100
AcDbLine
 10
-419.5297
 20
-109.517719
 30
0.0
 11
-418.5297
 21
-109.517719
 31
0.0
  0
LINE
  5
5A7
100
AcDbEntity
  8
0
370
    -3
  6
Continuous
100
AcDbLine
 10
-419.5297
 20
-78.517719
 30
0.0
 11
-419.5297
 21
-47.517719
 31
0.0
  0
LINE
  5
5A8
100
AcDbEntity
  8
0
370
    -3
  6
Continuous
100
AcDbLine
 10
-419.5297
 20
-47.517719
 30
0.0
 11
-418.5297
 21
-47.517719
 31
0.0
  0
LINE
  5
5A9
100
AcDbEntity
  8
0
370
    -3
  6
CENTER
100
AcDbLine
 10
-363.430514
 20
-78.517719
 30
0.0
 11
-425.214853
 21
-78.517719
 31
0.0
  0
LINE
  5
5AA
100
AcDbEntity
  8
0
370
    -3
  6
Continuous
100
AcDbLine
 10
-419.5297
 20
-47.517719
 30
0.0
 11
-419.5297
 21
-109.517719
 31
0.0
  0
LINE
  5
5AB
100
AcDbEntity
  8
0
370
    -3
  6
Continuous
100
AcDbLine
 10
-425.5297
 20
-78.517719
 30
0.0
 11
-425.5297
 21
-97.034874
 31
0.0
  0
LINE
  5
5AC
100
AcDbEntity
  8
0
370
    -3
  6
Continuous
100
AcDbLine
 10
-425.5297
 20
-78.517719
 30
0.0
 11
-425.5297
 21
-60.000563
 31
0.0
  0
LINE
  5
5AD
100
AcDbEntity
  8
0
370
    -3
  6
Continuous
100
AcDbLine
 10
-419.5297
 20
-46.991875
 30
0.0
 11
-419.5297
 21
-110.043562
 31
0.0
  0
LINE
  5
5AE
100
AcDbEntity
  8
0
370
    -3
  6
Continuous
100
AcDbLine
 10
-419.5297
 20
-47.517719
 30
0.0
 11
-419.5297
 21
-109.517719
 31
0.0
  0
MTEXT
  5
5AF
100
AcDbEntity
  8
0
370
    -3
  6
Continuous
100
AcDbMText
 10
-580.677124
 20
219.842209
 30
0.0
 40
15.0
 41
0.0
 71
     7
 72
     1
  1
\W0.43;DATE\W0.72; \W0.43;2011.12.29
  7
ZU_SHPTB00001
 11
1.0
 21
0.0
 31
0.0
 73
     1
 44
1.0
  0
ENDSEC
  0
SECTION
  2
OBJECTS
  0
DICTIONARY
  5
19
100
AcDbDictionary
280
     0
281
     1
  3
ACAD_GROUP
350
1A
  3
ACAD_MLINESTYLE
350
1B
  3
ACAD_LAYOUT
350
1E
  3
ACAD_PLOTSETTINGS
350
22
  3
ACAD_PLOTSTYLENAME
350
1F
  3
ACAD_WIPEOUT_VARS
350
23
  3
DWGPROPS
350
5B0
  0
DICTIONARY
  5
1A
102
{ACAD_REACTORS
330
19
102
}
100
AcDbDictionary
280
     0
281
     1
  0
DICTIONARY
  5
1B
102
{ACAD_REACTORS
330
19
102
}
100
AcDbDictionary
280
     0
281
     1
  3
Standard
350
1C
  0
MLINESTYLE
  5
1C
102
{ACAD_REACTORS
330
1B
102
}
100
AcDbMlineStyle
  2
Standard
 70
     0
  3

 62
     0
 51
90.0
 52
90.0
 71
     2
 49
0.5
 62
   256
  6
ByLayer
 49
-0.5
 62
   256
  6
ByLayer
  0
ACDBDICTIONARYWDFLT
  5
1F
102
{ACAD_REACTORS
330
19
102
}
100
AcDbDictionary
281
     1
  3
Normal
350
1D
100
AcDbDictionaryWithDefault
340
1D
  0
ACDBPLACEHOLDER
  5
1D
102
{ACAD_REACTORS
330
1F
102
}
  0
LAYOUT
  5
20
102
{ACAD_REACTORS
330
1E
102
}
100
AcDbPlotSettings
  1

  2

  4

  6

 40
0.0
 41
0.0
 42
0.0
 43
0.0
 44
0.0
 45
0.0
 46
0.0
 47
0.0
 48
0.0
 49
0.0
140
0.0
141
0.0
142
1.0
143
1.0
 70
  1024
 72
     0
 73
     0
 74
     0
  7

 75
     0
147
1.0
148
0.0
149
0.0
100
AcDbLayout
  1
Model
 70
     0
 71
     0
 10
0.0
 20
0.0
 11
0.0
 21
0.0
 12
0.0
 22
0.0
 32
0.0
 14
0.0
 24
0.0
 34
0.0
 15
0.0
 25
0.0
 35
0.0
146
0.0
 13
0.0
 23
0.0
 33
0.0
 16
0.0
 26
0.0
 36
0.0
 17
0.0
 27
0.0
 37
0.0
 76
     0
330
A
331
0
345
0
346
0
  0
LAYOUT
  5
21
102
{ACAD_REACTORS
330
1E
102
}
100
AcDbPlotSettings
  1

  2

  4

  6

 40
0.0
 41
0.0
 42
0.0
 43
0.0
 44
0.0
 45
0.0
 46
0.0
 47
0.0
 48
0.0
 49
0.0
140
0.0
141
0.0
142
1.0
143
1.0
 70
     0
 72
     0
 73
     0
 74
     0
  7

 75
     0
147
1.0
148
0.0
149
0.0
100
AcDbLayout
  1
Layout1
 70
     0
 71
     0
 10
0.0
 20
0.0
 11
0.0
 21
0.0
 12
0.0
 22
0.0
 32
0.0
 14
0.0
 24
0.0
 34
0.0
 15
0.0
 25
0.0
 35
0.0
146
0.0
 13
0.0
 23
0.0
 33
0.0
 16
0.0
 26
0.0
 36
0.0
 17
0.0
 27
0.0
 37
0.0
 76
     0
330
B
331
0
345
0
346
0
  0
DICTIONARY
  5
1E
102
{ACAD_REACTORS
330
19
102
}
100
AcDbDictionary
280
     0
281
     1
  3
Layout1
350
21
  3
Model
350
20
  0
DICTIONARY
  5
22
102
{ACAD_REACTORS
330
19
102
}
100
AcDbDictionary
280
     0
281
     1
  0
WIPEOUTVARIABLES
  5
23
100
AcDbWipeoutVariables
 70
     1
  0
XRECORD
  5
5B0
100
AcDbXrecord
280
     1
  1
DWGPROPS COOKIE
  2

  3

  4

  6

  7

  8
HK96464
  9

300
=
301
=
302
=
303
=
304
=
305
=
306
=
307
=
308
=
309
=
 40
0.0
 41
2455931.628299
 42
2455931.628299
  1

 90
        0
  0
ENDSEC
  0
EOF
