  0
SECTION
  2
HEADER
  9
$ACADVER
  1
AC1015
  9
$ACADMAINTVER
 70
     6
  9
$DWGCODEPAGE
  3
ANSI_932
  9
$INSBASE
 10
0.0
 20
0.0
 30
0.0
  9
$EXTMIN
 10
1.000000E+20
 20
1.000000E+20
 30
1.000000E+20
  9
$EXTMAX
 10
-1.000000E+20
 20
-1.000000E+20
 30
-1.000000E+20
  9
$LIMMIN
 10
0.0
 20
0.0
  9
$LIMMAX
 10
0.0
 20
0.0
  9
$ORTHOMODE
 70
     0
  9
$REGENMODE
 70
     1
  9
$FILLMODE
 70
     1
  9
$QTEXTMODE
 70
     0
  9
$MIRRTEXT
 70
     1
  9
$LTSCALE
 40
1.0
  9
$ATTMODE
 70
     1
  9
$TEXTSIZE
 40
7.0
  9
$TRACEWID
 40
0.05
  9
$TEXTSTYLE
  7
Standard
  9
$CLAYER
  8
0
  9
$CELTYPE
  6
Continuous
  9
$CECOLOR
 62
   256
  9
$CELTSCALE
 40
1.0
  9
$DISPSILH
 70
     0
  9
$DIMSCALE
 40
1.0
  9
$DIMASZ
 40
1.931852
  9
$DIMEXO
 40
1.0
  9
$DIMDLI
 40
0.38
  9
$DIMRND
 40
0.0
  9
$DIMDLE
 40
0.0
  9
$DIMEXE
 40
2.0
  9
$DIMTP
 40
0.0
  9
$DIMTM
 40
0.0
  9
$DIMTXT
 40
10.0
  9
$DIMCEN
 40
0.09
  9
$DIMTSZ
 40
0.0
  9
$DIMTOL
 70
     0
  9
$DIMLIM
 70
     0
  9
$DIMTIH
 70
     1
  9
$DIMTOH
 70
     1
  9
$DIMSE1
 70
     0
  9
$DIMSE2
 70
     0
  9
$DIMTAD
 70
     1
  9
$DIMZIN
 70
     0
  9
$DIMBLK
  1

  9
$DIMASO
 70
     1
  9
$DIMSHO
 70
     1
  9
$DIMPOST
  1

  9
$DIMAPOST
  1

  9
$DIMALT
 70
     0
  9
$DIMALTD
 70
     2
  9
$DIMALTF
 40
25.4
  9
$DIMLFAC
 40
1.0
  9
$DIMTOFL
 70
     0
  9
$DIMTVP
 40
0.0
  9
$DIMTIX
 70
     0
  9
$DIMSOXD
 70
     0
  9
$DIMSAH
 70
     0
  9
$DIMBLK1
  1

  9
$DIMBLK2
  1

  9
$DIMSTYLE
  2
Standard
  9
$DIMCLRD
 70
     0
  9
$DIMCLRE
 70
     0
  9
$DIMCLRT
 70
     0
  9
$DIMTFAC
 40
0.714286
  9
$DIMGAP
 40
0.09
  9
$DIMJUST
 70
     0
  9
$DIMSD1
 70
     0
  9
$DIMSD2
 70
     0
  9
$DIMTOLJ
 70
     1
  9
$DIMTZIN
 70
     0
  9
$DIMALTZ
 70
     0
  9
$DIMALTTZ
 70
     0
  9
$DIMUPT
 70
     0
  9
$DIMDEC
 70
     4
  9
$DIMTDEC
 70
     4
  9
$DIMALTU
 70
     2
  9
$DIMALTTD
 70
     2
  9
$DIMTXSTY
  7
Standard
  9
$DIMAUNIT
 70
     0
  9
$DIMADEC
 70
     0
  9
$DIMALTRND
 40
0.0
  9
$DIMAZIN
 70
     0
  9
$DIMDSEP
 70
     0
  9
$DIMATFIT
 70
     3
  9
$DIMFRAC
 70
     0
  9
$DIMLDRBLK
  1

  9
$DIMLUNIT
 70
     2
  9
$DIMLWD
 70
     0
  9
$DIMLWE
 70
     0
  9
$DIMTMOVE
 70
     0
  9
$LUNITS
 70
     2
  9
$LUPREC
 70
     3
  9
$SKETCHINC
 40
0.1
  9
$FILLETRAD
 40
0.0
  9
$AUNITS
 70
     0
  9
$AUPREC
 70
     0
  9
$MENU
  1
acad
  9
$ELEVATION
 40
0.0
  9
$PELEVATION
 40
0.0
  9
$THICKNESS
 40
0.0
  9
$LIMCHECK
 70
     0
  9
$CHAMFERA
 40
0.0
  9
$CHAMFERB
 40
0.0
  9
$CHAMFERC
 40
0.0
  9
$CHAMFERD
 40
0.0
  9
$SKPOLY
 70
     0
  9
$TDCREATE
 40
0.000000000
  9
$TDUCREATE
 40
0.000000000
  9
$TDUPDATE
 40
0.000000000
  9
$TDUUPDATE
 40
0.000000000
  9
$TDINDWG
 40
0.0000000000
  9
$TDUSRTIMER
 40
0.0000000000
  9
$USRTIMER
 70
     1
  9
$ANGBASE
 50
0.0
  9
$ANGDIR
 70
     0
  9
$PDMODE
 70
     0
  9
$PDSIZE
 40
0.0
  9
$PLINEWID
 40
0.0
  9
$SPLFRAME
 70
     0
  9
$SPLINETYPE
 70
     6
  9
$SPLINESEGS
 70
     8
  9
$HANDSEED
  5
63C
  9
$SURFTAB1
 70
     6
  9
$SURFTAB2
 70
     6
  9
$SURFTYPE
 70
     6
  9
$SURFU
 70
     6
  9
$SURFV
 70
     6
  9
$UCSBASE
  2

  9
$UCSNAME
  2

  9
$UCSORG
 10
0.0
 20
0.0
 30
0.0
  9
$UCSXDIR
 10
1.0
 20
0.0
 30
0.0
  9
$UCSYDIR
 10
0.0
 20
1.0
 30
0.0
  9
$UCSORTHOREF
  2

  9
$UCSORTHOVIEW
 70
     0
  9
$UCSORGTOP
 10
0.0
 20
0.0
 30
0.0
  9
$UCSORGBOTTOM
 10
0.0
 20
0.0
 30
0.0
  9
$UCSORGLEFT
 10
0.0
 20
0.0
 30
0.0
  9
$UCSORGRIGHT
 10
0.0
 20
0.0
 30
0.0
  9
$UCSORGFRONT
 10
0.0
 20
0.0
 30
0.0
  9
$UCSORGBACK
 10
0.0
 20
0.0
 30
0.0
  9
$PUCSBASE
  2

  9
$PUCSNAME
  2

  9
$PUCSORG
 10
0.0
 20
0.0
 30
0.0
  9
$PUCSXDIR
 10
1.0
 20
0.0
 30
0.0
  9
$PUCSYDIR
 10
0.0
 20
1.0
 30
0.0
  9
$PUCSORTHOREF
  2

  9
$PUCSORTHOVIEW
 70
     0
  9
$PUCSORGTOP
 10
0.0
 20
0.0
 30
0.0
  9
$PUCSORGBOTTOM
 10
0.0
 20
0.0
 30
0.0
  9
$PUCSORGLEFT
 10
0.0
 20
0.0
 30
0.0
  9
$PUCSORGRIGHT
 10
0.0
 20
0.0
 30
0.0
  9
$PUCSORGFRONT
 10
0.0
 20
0.0
 30
0.0
  9
$PUCSORGBACK
 10
0.0
 20
0.0
 30
0.0
  9
$USERI1
 70
     0
  9
$USERI2
 70
     0
  9
$USERI3
 70
     0
  9
$USERI4
 70
     0
  9
$USERI5
 70
     0
  9
$USERR1
 40
0.0
  9
$USERR2
 40
0.0
  9
$USERR3
 40
0.0
  9
$USERR4
 40
0.0
  9
$USERR5
 40
0.0
  9
$WORLDVIEW
 70
     1
  9
$SHADEDGE
 70
     3
  9
$SHADEDIF
 70
    70
  9
$TILEMODE
 70
     1
  9
$MAXACTVP
 70
    16
  9
$PINSBASE
 10
0.0
 20
0.0
 30
0.0
  9
$PLIMCHECK
 70
     0
  9
$PEXTMIN
 10
1.000000E+20
 20
1.000000E+20
 30
1.000000E+20
  9
$PEXTMAX
 10
-1.000000E+20
 20
-1.000000E+20
 30
-1.000000E+20
  9
$PLIMMIN
 10
0.0
 20
0.0
  9
$PLIMMAX
 10
12.0
 20
9.0
  9
$UNITMODE
 70
     0
  9
$VISRETAIN
 70
     0
  9
$PLINEGEN
 70
     1
  9
$PSLTSCALE
 70
     0
  9
$TREEDEPTH
 70
  3020
  9
$CMLSTYLE
  2
Standard
  9
$CMLJUST
 70
     0
  9
$CMLSCALE
 40
1.0
  9
$PROXYGRAPHICS
 70
     0
  9
$MEASUREMENT
 70
     0
  9
$CELWEIGHT
370
     0
  9
$ENDCAPS
280
     0
  9
$JOINSTYLE
280
     0
  9
$LWDISPLAY
290
     0
  9
$INSUNITS
 70
     0
  9
$HYPERLINKBASE
  1

  9
$STYLESHEET
  1

  9
$XEDIT
290
     1
  9
$CEPSNTYPE
380
     0
  9
$PSTYLEMODE
290
     1
  9
$FINGERPRINTGUID
  2

  9
$VERSIONGUID
  2

  9
$EXTNAMES
290
     1
  9
$PSVPSCALE
 40
0.0
  0
ENDSEC
  0
SECTION
  2
CLASSES
  0
CLASS
  1
LWPOLYLINE
  2
AcDbPolyline
  3
AutoCAD 2000
 90
    32768
280
     0
281
     1
  0
CLASS
  1
IMAGE
  2
AcDbRasterImage
  3
ISM
 90
    32895
280
     0
281
     1
  0
CLASS
  1
OLE2FRAME
  2
AcDbOle2Frame
  3
AutoCAD 2000
 90
    32768
280
     0
281
     1
  0
CLASS
  1
HATCH
  2
AcDbHatch
  3
AutoCAD 2000
 90
    32768
280
     0
281
     1
  0
CLASS
  1
DICTIONARYVAR
  2
AcDbDictionaryVar
  3
AutoCAD 2000
 90
    32768
280
     0
281
     0
  0
CLASS
  1
RASTERVARIABLES
  2
AcDbRasterVariables
  3
ISM
 90
    32768
280
     0
281
     0
  0
CLASS
  1
IMAGEDEF
  2
AcDbRasterImageDef
  3
ISM
 90
    32768
280
     0
281
     0
  0
CLASS
  1
IMAGEDEF_REACTOR
  2
AcDbRasterImageDefReactor
  3
ISM
 90
    32769
280
     0
281
     0
  0
CLASS
  1
IDBUFFER
  2
AcDbIdBuffer
  3
AutoCAD 2000
 90
    32768
280
     0
281
     0
  0
CLASS
  1
SPATIAL_FILTER
  2
AcDbSpatialFilter
  3
AutoCAD 2000
 90
    32768
280
     0
281
     0
  0
CLASS
  1
XRECORD
  2
AcDbXrecord
  3
AutoCAD 2000
 90
        0
280
     0
281
     0
  0
CLASS
  1
SORTENTSTABLE
  2
AcDbSortentsTable
  3
AutoCAD 2000
 90
    32768
280
     0
281
     0
  0
CLASS
  1
LAYER_INDEX
  2
AcDbLayerIndex
  3
AutoCAD 2000
 90
    32768
280
     0
281
     0
  0
CLASS
  1
SPATIAL_INDEX
  2
AcDbSpatialIndex
  3
AutoCAD 2000
 90
    32768
280
     0
281
     0
  0
CLASS
  1
OBJECT_PTR
  2
CAseDLPNTableRecord
  3
"ASE-LPNTableRecord"
 90
    32769
280
     0
281
     0
  0
CLASS
  1
LAYOUT
  2
AcDbLayout
  3
AutoCAD 2000
 90
        0
280
     0
281
     0
  0
CLASS
  1
PLOTSETTINGS
  2
AcDbPlotSettings
  3
AutoCAD 2000
 90
    32768
280
     0
281
     0
  0
CLASS
  1
ACDBDICTIONARYWDFLT
  2
AcDbDictionaryWithDefault
  3
AutoCAD 2000
 90
        0
280
     0
281
     0
  0
CLASS
  1
ACDBPLACEHOLDER
  2
AcDbPlaceHolder
  3
AutoCAD 2000
 90
        0
280
     0
281
     0
  0
CLASS
  1
VBA_PROJECT
  2
AcDbVbaProject
  3
acadvba
 90
    32768
280
     0
281
     0
  0
CLASS
  1
WIPEOUT
  2
AcDbWipeout
  3
WipeOut|AutoCAD Express Tool|expresstools@autodesk.com
 90
    32895
280
     0
281
     1
  0
CLASS
  1
WIPEOUTVARIABLES
  2
AcDbWipeoutVariables
  3
WipeOut|AutoCAD Express Tool|expresstools@autodesk.com
 90
        0
280
     0
281
     0
  0
CLASS
  1
RTEXT
  2
RText
  3
RText|AutoCAD Express Tool|expresstools@autodesk.com
 90
    32768
280
     0
281
     1
  0
CLASS
  1
ARCALIGNEDTEXT
  2
AcDbArcAlignedText
  3
ATEXT|AutoCAD Express Tool|expresstools@autodesk.com
 90
    32768
280
     0
281
     1
  0
ENDSEC
  0
SECTION
  2
TABLES
  0
TABLE
  2
VPORT
  5
7
100
AcDbSymbolTable
 70
     1
  0
VPORT
  5
15
100
AcDbSymbolTableRecord
100
AcDbViewportTableRecord
  2
*ACTIVE
 70
     0
 10
0.0
 20
0.0
 11
1.0
 21
1.0
 12
0.0
 22
0.0
 13
0.0
 23
0.0
 14
1.0
 24
1.0
 15
0.0
 25
0.0
 16
0.0
 26
0.0
 36
1.0
 17
0.0
 27
0.0
 37
0.0
 40
100.0
 41
1.0
 42
50.0
 43
0.0
 44
0.0
 50
0.0
 51
0.0
 71
     0
 72
   100
 73
     1
 74
     1
 75
     0
 76
     0
 77
     0
 78
     0
281
     0
 65
     0
110
0.0
120
0.0
130
0.0
111
1.0
121
0.0
131
0.0
112
0.0
122
1.0
132
0.0
345
0
346
0
 79
     0
146
0.0
  0
ENDTAB
  0
TABLE
  2
LTYPE
  5
4
100
AcDbSymbolTable
 70
     7
  0
LTYPE
  5
11
100
AcDbSymbolTableRecord
100
AcDbLinetypeTableRecord
  2
ByBlock
 70
    64
  3

 72
    65
 73
     0
 40
0.0
  0
LTYPE
  5
12
100
AcDbSymbolTableRecord
100
AcDbLinetypeTableRecord
  2
ByLayer
 70
    64
  3

 72
    65
 73
     0
 40
0.0
  0
LTYPE
  5
13
100
AcDbSymbolTableRecord
100
AcDbLinetypeTableRecord
  2
Continuous
 70
    64
  3
Solid line
 72
    65
 73
     0
 40
0.0
  0
LTYPE
  5
24
100
AcDbSymbolTableRecord
100
AcDbLinetypeTableRecord
  2
DASHED
 70
    64
  3
Dashed __ __ __ __ __ __ __ __ __ __ __ __ __ _
 72
    65
 73
     2
 40
0.75
 49
0.5
 74
     0
 49
-0.25
 74
     0
  0
LTYPE
  5
25
100
AcDbSymbolTableRecord
100
AcDbLinetypeTableRecord
  2
CENTER
 70
    64
  3
Center ____ _ ____ _ ____ _ ____ _ ____ _ ____
 72
    65
 73
     4
 40
1.0
 49
0.5
 74
     0
 49
-0.25
 74
     0
 49
0.0
 74
     0
 49
-0.25
 74
     0
  0
LTYPE
  5
26
100
AcDbSymbolTableRecord
100
AcDbLinetypeTableRecord
  2
DIVIDE
 70
    64
  3
Divide ____ . . ____ . . ____ . . ____ . . ____
 72
    65
 73
     6
 40
1.25
 49
0.5
 74
     0
 49
-0.25
 74
     0
 49
0.0
 74
     0
 49
-0.25
 74
     0
 49
0.0
 74
     0
 49
-0.25
 74
     0
  0
LTYPE
  5
27
100
AcDbSymbolTableRecord
100
AcDbLinetypeTableRecord
  2
PHANTOM
 70
    64
  3
Phantom ______  __  __  ______  __  __  ______
 72
    65
 73
     6
 40
9.0
 49
4.3
 74
     0
 49
-0.7
 74
     0
 49
1.3
 74
     0
 49
-0.7
 74
     0
 49
1.3
 74
     0
 49
-0.7
 74
     0
  0
ENDTAB
  0
TABLE
  2
LAYER
  5
2
100
AcDbSymbolTable
 70
     4
  0
LAYER
  5
14
100
AcDbSymbolTableRecord
100
AcDbLayerTableRecord
  2
0
 70
    64
 62
    53
  6
Continuous
290
     1
370
    -3
390
1D
  0
LAYER
  5
28
100
AcDbSymbolTableRecord
100
AcDbLayerTableRecord
  2
3
 70
    64
 62
     4
  6
Continuous
290
     1
370
    -3
390
1D
  0
LAYER
  5
29
100
AcDbSymbolTableRecord
100
AcDbLayerTableRecord
  2
5
 70
    64
 62
   191
  6
Continuous
290
     1
370
    -3
390
1D
  0
LAYER
  5
2A
100
AcDbSymbolTableRecord
100
AcDbLayerTableRecord
  2
16
 70
    64
 62
     1
  6
Continuous
290
     1
370
    -3
390
1D
  0
ENDTAB
  0
TABLE
  2
STYLE
  5
3
100
AcDbSymbolTable
 70
     2
  0
STYLE
  5
17
100
AcDbSymbolTableRecord
100
AcDbTextStyleTableRecord
  2
Standard
 70
     0
 40
0.0
 41
1.0
 50
0.0
 71
     0
 42
0.0
  3
txt
  4

  0
STYLE
  5
502
100
AcDbSymbolTableRecord
100
AcDbTextStyleTableRecord
  2
ZU_SHPTB00001
 70
     0
 40
0.0
 41
1.0
 50
0.0
 71
     0
 42
0.0
  3
monotxt
  4
bigfont
  0
ENDTAB
  0
TABLE
  2
VIEW
  5
5
100
AcDbSymbolTable
 70
     0
  0
ENDTAB
  0
TABLE
  2
UCS
  5
6
100
AcDbSymbolTable
 70
     0
  0
ENDTAB
  0
TABLE
  2
APPID
  5
8
100
AcDbSymbolTable
 70
     1
  0
APPID
  5
16
100
AcDbSymbolTableRecord
100
AcDbRegAppTableRecord
  2
ACAD
 70
     0
  0
ENDTAB
  0
TABLE
  2
DIMSTYLE
  5
9
100
AcDbSymbolTable
 70
     1
100
AcDbDimStyleTable
 71
     0
  0
DIMSTYLE
105
18
100
AcDbSymbolTableRecord
100
AcDbDimStyleTableRecord
  2
Standard
 70
     0
  3

  4

 40
1.0
 41
0.18
 42
0.0625
 43
0.38
 44
0.18
 45
0.0
 46
0.0
 47
0.0
 48
0.0
 71
     0
 72
     0
 73
     1
 74
     1
 75
     0
 76
     0
 77
     0
 78
     0
 79
     0
140
0.18
141
0.09
142
0.0
143
25.4
144
1.0
145
0.0
146
1.0
147
0.09
148
0.0
170
     0
171
     2
172
     0
173
     0
174
     0
175
     0
176
     0
177
     0
178
     0
179
     0
271
     4
272
     4
273
     2
274
     2
275
     0
276
     0
277
     2
278
    46
279
     0
280
     0
281
     0
282
     0
283
     1
284
     0
285
     0
286
     0
288
     0
340
17
341
0
342
0
343
0
344
0
371
    -2
372
    -2
  0
ENDTAB
  0
TABLE
  2
BLOCK_RECORD
  5
1
100
AcDbSymbolTable
 70
    21
  0
BLOCK_RECORD
  5
A
100
AcDbSymbolTableRecord
100
AcDbBlockTableRecord
  2
*MODEL_SPACE
340
20
  0
BLOCK_RECORD
  5
B
100
AcDbSymbolTableRecord
100
AcDbBlockTableRecord
  2
*PAPER_SPACE
340
21
  0
BLOCK_RECORD
  5
CA
100
AcDbSymbolTableRecord
100
AcDbBlockTableRecord
  2
ZU_SYM__USERS_HOME_SYMBOL_POO_SYM_B20_-1
340
0
102
{BLKREFS
331
D5
102
}
  0
BLOCK_RECORD
  5
D6
100
AcDbSymbolTableRecord
100
AcDbBlockTableRecord
  2
ZU_SYM__USERS_HOME_SYMBOL_POO_SYM_B20_00001-1
340
0
102
{BLKREFS
331
E1
102
}
  0
BLOCK_RECORD
  5
E2
100
AcDbSymbolTableRecord
100
AcDbBlockTableRecord
  2
ZU_SYM__USERS_HOME_SYMBOL_STD_SYM_B01_-1
340
0
102
{BLKREFS
331
F1
102
}
  0
BLOCK_RECORD
  5
F2
100
AcDbSymbolTableRecord
100
AcDbBlockTableRecord
  2
ZU_SYM__USERS_HOME_SYMBOL_POO_SYM_B20_00002-1
340
0
102
{BLKREFS
331
FD
102
}
  0
BLOCK_RECORD
  5
FE
100
AcDbSymbolTableRecord
100
AcDbBlockTableRecord
  2
ZU_SYM__USERS_HOME_SYMBOL_STD_SYM_B01_00003-1
340
0
102
{BLKREFS
331
10D
102
}
  0
BLOCK_RECORD
  5
10E
100
AcDbSymbolTableRecord
100
AcDbBlockTableRecord
  2
ZU_SYM__USERS_HOME_SYMBOL_POO_SYM_B20_00004-1
340
0
102
{BLKREFS
331
119
102
}
  0
BLOCK_RECORD
  5
19F
100
AcDbSymbolTableRecord
100
AcDbBlockTableRecord
  2
ZU_SYM__USERS_HOME_SYMBOL_STD_SYM_B01_00005-1
340
0
102
{BLKREFS
331
1AE
102
}
  0
BLOCK_RECORD
  5
1B2
100
AcDbSymbolTableRecord
100
AcDbBlockTableRecord
  2
ZU_SYM__USERS_HOME_SYMBOL_STD_SYM_B01_00006-1
340
0
102
{BLKREFS
331
1C1
102
}
  0
BLOCK_RECORD
  5
1D0
100
AcDbSymbolTableRecord
100
AcDbBlockTableRecord
  2
ZU_SYM__USERS_HOME_SYMBOL_POO_SYM_B20_00007-1
340
0
102
{BLKREFS
331
1DB
102
}
  0
BLOCK_RECORD
  5
1DF
100
AcDbSymbolTableRecord
100
AcDbBlockTableRecord
  2
ZU_SYM__USERS_HOME_SYMBOL_POO_SYM_B20_00008-1
340
0
102
{BLKREFS
331
1EA
102
}
  0
BLOCK_RECORD
  5
1FC
100
AcDbSymbolTableRecord
100
AcDbBlockTableRecord
  2
ZU_SYM__USERS_HOME_SYMBOL_POO_SYM_B20_00009-1
340
0
102
{BLKREFS
331
207
102
}
  0
BLOCK_RECORD
  5
20B
100
AcDbSymbolTableRecord
100
AcDbBlockTableRecord
  2
ZU_SYM__USERS_HOME_SYMBOL_POO_SYM_B20_00010-1
340
0
102
{BLKREFS
331
216
102
}
  0
BLOCK_RECORD
  5
2DE
100
AcDbSymbolTableRecord
100
AcDbBlockTableRecord
  2
ZU_SYM__USERS_HOME_SYMBOL_POO_SYM_B20_00011-1
340
0
102
{BLKREFS
331
2EA
102
}
  0
BLOCK_RECORD
  5
2EB
100
AcDbSymbolTableRecord
100
AcDbBlockTableRecord
  2
ZU_SYM__USERS_HOME_SYMBOL_POO_SYM_B20_00012-1
340
0
102
{BLKREFS
331
2F7
102
}
  0
BLOCK_RECORD
  5
311
100
AcDbSymbolTableRecord
100
AcDbBlockTableRecord
  2
ZU_SYM__USERS_HOME_SYMBOL_STD_SYM_B01_00013-1
340
0
102
{BLKREFS
331
31C
102
}
  0
BLOCK_RECORD
  5
31D
100
AcDbSymbolTableRecord
100
AcDbBlockTableRecord
  2
ZU_SYM__USERS_HOME_SYMBOL_STD_SYM_B01_00014-1
340
0
102
{BLKREFS
331
328
102
}
  0
BLOCK_RECORD
  5
329
100
AcDbSymbolTableRecord
100
AcDbBlockTableRecord
  2
ZU_SYM__USERS_HOME_SYMBOL_POO_SYM_B20_00015-1
340
0
102
{BLKREFS
331
335
102
}
  0
BLOCK_RECORD
  5
336
100
AcDbSymbolTableRecord
100
AcDbBlockTableRecord
  2
ZU_SYM__USERS_HOME_SYMBOL_POO_SYM_B20_00016-1
340
0
102
{BLKREFS
331
342
102
}
  0
BLOCK_RECORD
  5
3BB
100
AcDbSymbolTableRecord
100
AcDbBlockTableRecord
  2
ZU_SYM__USERS_HOME_SYMBOL_POO_SYM_B20_00017-1
340
0
102
{BLKREFS
331
3C7
102
}
  0
BLOCK_RECORD
  5
4D2
100
AcDbSymbolTableRecord
100
AcDbBlockTableRecord
  2
ZU_SYM__USERS_HOME_SYMBOL_POO_SYM_B20_00018-1
340
0
102
{BLKREFS
331
4DE
102
}
  0
BLOCK_RECORD
  5
4DF
100
AcDbSymbolTableRecord
100
AcDbBlockTableRecord
  2
ZU_SYM__USERS_HOME_SYMBOL_POO_SYM_B20_00019-1
340
0
102
{BLKREFS
331
4EB
102
}
  0
ENDTAB
  0
ENDSEC
  0
SECTION
  2
BLOCKS
  0
BLOCK
  5
D
100
AcDbEntity
  8
0
100
AcDbBlockBegin
  2
*MODEL_SPACE
 70
     0
 10
0.0
 20
0.0
 30
0.0
  3
*MODEL_SPACE
  1

  0
ENDBLK
  5
E
100
AcDbEntity
  8
0
100
AcDbBlockEnd
  0
BLOCK
  5
F
100
AcDbEntity
 67
     1
  8
0
100
AcDbBlockBegin
  2
*PAPER_SPACE
 70
     0
 10
0.0
 20
0.0
 30
0.0
  3
*PAPER_SPACE
  1

  0
ENDBLK
  5
10
100
AcDbEntity
 67
     1
  8
0
100
AcDbBlockEnd
  0
BLOCK
  5
CB
100
AcDbEntity
  8
0
100
AcDbBlockBegin
  2
ZU_SYM__USERS_HOME_SYMBOL_POO_SYM_B20_-1
 70
    64
 10
0.0
 20
0.0
 30
0.0
  3
ZU_SYM__USERS_HOME_SYMBOL_POO_SYM_B20_-1
  1

  0
POINT
  5
CC
100
AcDbEntity
  8
0
370
    -3
  6
Continuous
100
AcDbPoint
 10
0.0
 20
0.0
 30
0.0
  0
LINE
  5
CD
100
AcDbEntity
  8
0
370
    -3
  6
Continuous
100
AcDbLine
 10
0.0
 20
-6.5
 30
0.0
 11
0.0
 21
6.5
 31
0.0
  0
LINE
  5
CE
100
AcDbEntity
  8
0
370
    -3
  6
Continuous
100
AcDbLine
 10
-7.999999
 20
5.633876
 30
0.0
 11
-7.999999
 21
-5.63407
 31
0.0
  0
LINE
  5
CF
100
AcDbEntity
  8
0
370
    -3
  6
Continuous
100
AcDbLine
 10
0.0
 20
6.5
 30
0.0
 11
-7.499999
 21
6.5
 31
0.0
  0
LINE
  5
D0
100
AcDbEntity
  8
0
370
    -3
  6
Continuous
100
AcDbLine
 10
0.0
 20
-6.5
 30
0.0
 11
-7.499998
 21
-6.5
 31
0.0
  0
LINE
  5
D1
100
AcDbEntity
  8
0
370
    -3
  6
Continuous
100
AcDbLine
 10
-7.499999
 20
6.5
 30
0.0
 11
-7.999999
 21
5.633876
 31
0.0
  0
LINE
  5
D2
100
AcDbEntity
  8
0
370
    -3
  6
Continuous
100
AcDbLine
 10
-7.499998
 20
-6.499999
 30
0.0
 11
-7.999999
 21
-5.63407
 31
0.0
  0
LINE
  5
D3
100
AcDbEntity
  8
0
370
    -3
  6
Continuous
100
AcDbLine
 10
-7.499999
 20
6.5
 30
0.0
 11
-7.499999
 21
-6.5
 31
0.0
  0
ENDBLK
  5
D4
100
AcDbEntity
  8
0
100
AcDbBlockEnd
  0
BLOCK
  5
D7
100
AcDbEntity
  8
0
100
AcDbBlockBegin
  2
ZU_SYM__USERS_HOME_SYMBOL_POO_SYM_B20_00001-1
 70
    64
 10
0.0
 20
0.0
 30
0.0
  3
ZU_SYM__USERS_HOME_SYMBOL_POO_SYM_B20_00001-1
  1

  0
POINT
  5
D8
100
AcDbEntity
  8
0
370
    -3
  6
Continuous
100
AcDbPoint
 10
0.0
 20
0.0
 30
0.0
  0
LINE
  5
D9
100
AcDbEntity
  8
0
370
    -3
  6
Continuous
100
AcDbLine
 10
0.0
 20
-6.5
 30
0.0
 11
0.0
 21
6.5
 31
0.0
  0
LINE
  5
DA
100
AcDbEntity
  8
0
370
    -3
  6
Continuous
100
AcDbLine
 10
-7.999999
 20
5.633876
 30
0.0
 11
-7.999999
 21
-5.63407
 31
0.0
  0
LINE
  5
DB
100
AcDbEntity
  8
0
370
    -3
  6
Continuous
100
AcDbLine
 10
0.0
 20
6.5
 30
0.0
 11
-7.499999
 21
6.5
 31
0.0
  0
LINE
  5
DC
100
AcDbEntity
  8
0
370
    -3
  6
Continuous
100
AcDbLine
 10
0.0
 20
-6.5
 30
0.0
 11
-7.499998
 21
-6.5
 31
0.0
  0
LINE
  5
DD
100
AcDbEntity
  8
0
370
    -3
  6
Continuous
100
AcDbLine
 10
-7.499999
 20
6.5
 30
0.0
 11
-7.999999
 21
5.633876
 31
0.0
  0
LINE
  5
DE
100
AcDbEntity
  8
0
370
    -3
  6
Continuous
100
AcDbLine
 10
-7.499998
 20
-6.499999
 30
0.0
 11
-7.999999
 21
-5.63407
 31
0.0
  0
LINE
  5
DF
100
AcDbEntity
  8
0
370
    -3
  6
Continuous
100
AcDbLine
 10
-7.499999
 20
6.5
 30
0.0
 11
-7.499999
 21
-6.5
 31
0.0
  0
ENDBLK
  5
E0
100
AcDbEntity
  8
0
100
AcDbBlockEnd
  0
BLOCK
  5
E3
100
AcDbEntity
  8
0
100
AcDbBlockBegin
  2
ZU_SYM__USERS_HOME_SYMBOL_STD_SYM_B01_-1
 70
    64
 10
0.0
 20
0.0
 30
0.0
  3
ZU_SYM__USERS_HOME_SYMBOL_STD_SYM_B01_-1
  1

  0
ARC
  5
E4
100
AcDbEntity
  8
0
370
    -3
  6
Continuous
100
AcDbCircle
 10
2.040001
 20
-0.000008
 30
0.0
 40
5.539999
100
AcDbArc
 50
155.470187
 51
204.52925
  0
ARC
  5
E5
100
AcDbEntity
  8
0
370
    -3
  6
Continuous
100
AcDbCircle
 10
-1.929986
 20
3.450007
 30
0.0
 40
1.57
100
AcDbArc
 50
179.999745
 51
227.099746
  0
ARC
  5
E6
100
AcDbEntity
  8
0
370
    -3
  6
Continuous
100
AcDbCircle
 10
-1.930014
 20
-3.449991
 30
0.0
 40
1.57
100
AcDbArc
 50
132.899744
 51
179.999745
  0
LINE
  5
E7
100
AcDbEntity
  8
0
370
    -3
  6
Continuous
100
AcDbLine
 10
-2.999989
 20
2.300011
 30
0.0
 11
0.000009
 21
2.3
 31
0.0
  0
LINE
  5
E8
100
AcDbEntity
  8
0
370
    -3
  6
Continuous
100
AcDbLine
 10
-3.000008
 20
-2.299986
 30
0.0
 11
-0.000008
 21
-2.299998
 31
0.0
  0
LINE
  5
E9
100
AcDbEntity
  8
0
370
    -3
  6
Continuous
100
AcDbLine
 10
0.000019
 20
4.6
 30
0.0
 11
-0.000019
 21
-4.6
 31
0.0
  0
LINE
  5
EA
100
AcDbEntity
  8
0
370
    -3
  6
Continuous
100
AcDbLine
 10
-2.999979
 20
4.600012
 30
0.0
 11
0.000019
 21
4.600001
 31
0.0
  0
LINE
  5
EB
100
AcDbEntity
  8
0
370
    -3
  6
Continuous
100
AcDbLine
 10
-3.499965
 20
3.9
 30
0.0
 11
-2.999964
 21
4.599998
 31
0.0
  0
LINE
  5
EC
100
AcDbEntity
  8
0
370
    -3
  6
Continuous
100
AcDbLine
 10
-3.500012
 20
-3.89998
 30
0.0
 11
-3.49998
 21
3.90001
 31
0.0
  0
LINE
  5
ED
100
AcDbEntity
  8
0
370
    -3
  6
Continuous
100
AcDbLine
 10
-2.999996
 20
-4.59997
 30
0.0
 11
-3.499991
 21
-3.899967
 31
0.0
  0
LINE
  5
EE
100
AcDbEntity
  8
0
370
    -3
  6
Continuous
100
AcDbLine
 10
-0.000018
 20
-4.599998
 30
0.0
 11
-3.000017
 21
-4.599986
 31
0.0
  0
POINT
  5
EF
100
AcDbEntity
  8
0
370
    -3
  6
Continuous
100
AcDbPoint
 10
0.0
 20
0.0
 30
0.0
  0
ENDBLK
  5
F0
100
AcDbEntity
  8
0
100
AcDbBlockEnd
  0
BLOCK
  5
F3
100
AcDbEntity
  8
0
100
AcDbBlockBegin
  2
ZU_SYM__USERS_HOME_SYMBOL_POO_SYM_B20_00002-1
 70
    64
 10
0.0
 20
0.0
 30
0.0
  3
ZU_SYM__USERS_HOME_SYMBOL_POO_SYM_B20_00002-1
  1

  0
POINT
  5
F4
100
AcDbEntity
  8
0
370
    -3
  6
Continuous
100
AcDbPoint
 10
0.0
 20
0.0
 30
0.0
  0
LINE
  5
F5
100
AcDbEntity
  8
0
370
    -3
  6
Continuous
100
AcDbLine
 10
0.0
 20
-6.5
 30
0.0
 11
0.0
 21
6.5
 31
0.0
  0
LINE
  5
F6
100
AcDbEntity
  8
0
370
    -3
  6
Continuous
100
AcDbLine
 10
-7.999999
 20
5.633876
 30
0.0
 11
-7.999999
 21
-5.63407
 31
0.0
  0
LINE
  5
F7
100
AcDbEntity
  8
0
370
    -3
  6
Continuous
100
AcDbLine
 10
0.0
 20
6.5
 30
0.0
 11
-7.499999
 21
6.5
 31
0.0
  0
LINE
  5
F8
100
AcDbEntity
  8
0
370
    -3
  6
Continuous
100
AcDbLine
 10
0.0
 20
-6.5
 30
0.0
 11
-7.499998
 21
-6.5
 31
0.0
  0
LINE
  5
F9
100
AcDbEntity
  8
0
370
    -3
  6
Continuous
100
AcDbLine
 10
-7.499999
 20
6.5
 30
0.0
 11
-7.999999
 21
5.633876
 31
0.0
  0
LINE
  5
FA
100
AcDbEntity
  8
0
370
    -3
  6
Continuous
100
AcDbLine
 10
-7.499998
 20
-6.499999
 30
0.0
 11
-7.999999
 21
-5.63407
 31
0.0
  0
LINE
  5
FB
100
AcDbEntity
  8
0
370
    -3
  6
Continuous
100
AcDbLine
 10
-7.499999
 20
6.5
 30
0.0
 11
-7.499999
 21
-6.5
 31
0.0
  0
ENDBLK
  5
FC
100
AcDbEntity
  8
0
100
AcDbBlockEnd
  0
BLOCK
  5
FF
100
AcDbEntity
  8
0
100
AcDbBlockBegin
  2
ZU_SYM__USERS_HOME_SYMBOL_STD_SYM_B01_00003-1
 70
    64
 10
0.0
 20
0.0
 30
0.0
  3
ZU_SYM__USERS_HOME_SYMBOL_STD_SYM_B01_00003-1
  1

  0
ARC
  5
100
100
AcDbEntity
  8
0
370
    -3
  6
Continuous
100
AcDbCircle
 10
2.040001
 20
-0.000008
 30
0.0
 40
5.539999
100
AcDbArc
 50
155.470187
 51
204.52925
  0
ARC
  5
101
100
AcDbEntity
  8
0
370
    -3
  6
Continuous
100
AcDbCircle
 10
-1.929986
 20
3.450007
 30
0.0
 40
1.57
100
AcDbArc
 50
179.999745
 51
227.099746
  0
ARC
  5
102
100
AcDbEntity
  8
0
370
    -3
  6
Continuous
100
AcDbCircle
 10
-1.930014
 20
-3.449991
 30
0.0
 40
1.57
100
AcDbArc
 50
132.899744
 51
179.999745
  0
LINE
  5
103
100
AcDbEntity
  8
0
370
    -3
  6
Continuous
100
AcDbLine
 10
-2.999989
 20
2.300011
 30
0.0
 11
0.000009
 21
2.3
 31
0.0
  0
LINE
  5
104
100
AcDbEntity
  8
0
370
    -3
  6
Continuous
100
AcDbLine
 10
-3.000008
 20
-2.299986
 30
0.0
 11
-0.000008
 21
-2.299998
 31
0.0
  0
LINE
  5
105
100
AcDbEntity
  8
0
370
    -3
  6
Continuous
100
AcDbLine
 10
0.000019
 20
4.6
 30
0.0
 11
-0.000019
 21
-4.6
 31
0.0
  0
LINE
  5
106
100
AcDbEntity
  8
0
370
    -3
  6
Continuous
100
AcDbLine
 10
-2.999979
 20
4.600012
 30
0.0
 11
0.000019
 21
4.600001
 31
0.0
  0
LINE
  5
107
100
AcDbEntity
  8
0
370
    -3
  6
Continuous
100
AcDbLine
 10
-3.499965
 20
3.9
 30
0.0
 11
-2.999964
 21
4.599998
 31
0.0
  0
LINE
  5
108
100
AcDbEntity
  8
0
370
    -3
  6
Continuous
100
AcDbLine
 10
-3.500012
 20
-3.89998
 30
0.0
 11
-3.49998
 21
3.90001
 31
0.0
  0
LINE
  5
109
100
AcDbEntity
  8
0
370
    -3
  6
Continuous
100
AcDbLine
 10
-2.999996
 20
-4.59997
 30
0.0
 11
-3.499991
 21
-3.899967
 31
0.0
  0
LINE
  5
10A
100
AcDbEntity
  8
0
370
    -3
  6
Continuous
100
AcDbLine
 10
-0.000018
 20
-4.599998
 30
0.0
 11
-3.000017
 21
-4.599986
 31
0.0
  0
POINT
  5
10B
100
AcDbEntity
  8
0
370
    -3
  6
Continuous
100
AcDbPoint
 10
0.0
 20
0.0
 30
0.0
  0
ENDBLK
  5
10C
100
AcDbEntity
  8
0
100
AcDbBlockEnd
  0
BLOCK
  5
10F
100
AcDbEntity
  8
0
100
AcDbBlockBegin
  2
ZU_SYM__USERS_HOME_SYMBOL_POO_SYM_B20_00004-1
 70
    64
 10
0.0
 20
0.0
 30
0.0
  3
ZU_SYM__USERS_HOME_SYMBOL_POO_SYM_B20_00004-1
  1

  0
POINT
  5
110
100
AcDbEntity
  8
0
370
    -3
  6
Continuous
100
AcDbPoint
 10
0.0
 20
0.0
 30
0.0
  0
LINE
  5
111
100
AcDbEntity
  8
0
370
    -3
  6
Continuous
100
AcDbLine
 10
0.0
 20
-6.5
 30
0.0
 11
0.0
 21
6.5
 31
0.0
  0
LINE
  5
112
100
AcDbEntity
  8
0
370
    -3
  6
Continuous
100
AcDbLine
 10
-7.999999
 20
5.633876
 30
0.0
 11
-7.999999
 21
-5.63407
 31
0.0
  0
LINE
  5
113
100
AcDbEntity
  8
0
370
    -3
  6
Continuous
100
AcDbLine
 10
0.0
 20
6.5
 30
0.0
 11
-7.499999
 21
6.5
 31
0.0
  0
LINE
  5
114
100
AcDbEntity
  8
0
370
    -3
  6
Continuous
100
AcDbLine
 10
0.0
 20
-6.5
 30
0.0
 11
-7.499998
 21
-6.5
 31
0.0
  0
LINE
  5
115
100
AcDbEntity
  8
0
370
    -3
  6
Continuous
100
AcDbLine
 10
-7.499999
 20
6.5
 30
0.0
 11
-7.999999
 21
5.633876
 31
0.0
  0
LINE
  5
116
100
AcDbEntity
  8
0
370
    -3
  6
Continuous
100
AcDbLine
 10
-7.499998
 20
-6.499999
 30
0.0
 11
-7.999999
 21
-5.63407
 31
0.0
  0
LINE
  5
117
100
AcDbEntity
  8
0
370
    -3
  6
Continuous
100
AcDbLine
 10
-7.499999
 20
6.5
 30
0.0
 11
-7.499999
 21
-6.5
 31
0.0
  0
ENDBLK
  5
118
100
AcDbEntity
  8
0
100
AcDbBlockEnd
  0
BLOCK
  5
1A0
100
AcDbEntity
  8
0
100
AcDbBlockBegin
  2
ZU_SYM__USERS_HOME_SYMBOL_STD_SYM_B01_00005-1
 70
    64
 10
0.0
 20
0.0
 30
0.0
  3
ZU_SYM__USERS_HOME_SYMBOL_STD_SYM_B01_00005-1
  1

  0
ARC
  5
1A1
100
AcDbEntity
  8
0
370
    -3
  6
Continuous
100
AcDbCircle
 10
2.040001
 20
-0.000008
 30
0.0
 40
5.539999
100
AcDbArc
 50
155.470187
 51
204.52925
  0
ARC
  5
1A2
100
AcDbEntity
  8
0
370
    -3
  6
Continuous
100
AcDbCircle
 10
-1.929986
 20
3.450007
 30
0.0
 40
1.57
100
AcDbArc
 50
179.999745
 51
227.099746
  0
ARC
  5
1A3
100
AcDbEntity
  8
0
370
    -3
  6
Continuous
100
AcDbCircle
 10
-1.930014
 20
-3.449991
 30
0.0
 40
1.57
100
AcDbArc
 50
132.899744
 51
179.999745
  0
LINE
  5
1A4
100
AcDbEntity
  8
0
370
    -3
  6
Continuous
100
AcDbLine
 10
-2.999989
 20
2.300011
 30
0.0
 11
0.000009
 21
2.3
 31
0.0
  0
LINE
  5
1A5
100
AcDbEntity
  8
0
370
    -3
  6
Continuous
100
AcDbLine
 10
-3.000008
 20
-2.299986
 30
0.0
 11
-0.000008
 21
-2.299998
 31
0.0
  0
LINE
  5
1A6
100
AcDbEntity
  8
0
370
    -3
  6
Continuous
100
AcDbLine
 10
0.000019
 20
4.6
 30
0.0
 11
-0.000019
 21
-4.6
 31
0.0
  0
LINE
  5
1A7
100
AcDbEntity
  8
0
370
    -3
  6
Continuous
100
AcDbLine
 10
-2.999979
 20
4.600012
 30
0.0
 11
0.000019
 21
4.600001
 31
0.0
  0
LINE
  5
1A8
100
AcDbEntity
  8
0
370
    -3
  6
Continuous
100
AcDbLine
 10
-3.499965
 20
3.9
 30
0.0
 11
-2.999964
 21
4.599998
 31
0.0
  0
LINE
  5
1A9
100
AcDbEntity
  8
0
370
    -3
  6
Continuous
100
AcDbLine
 10
-3.500012
 20
-3.89998
 30
0.0
 11
-3.49998
 21
3.90001
 31
0.0
  0
LINE
  5
1AA
100
AcDbEntity
  8
0
370
    -3
  6
Continuous
100
AcDbLine
 10
-2.999996
 20
-4.59997
 30
0.0
 11
-3.499991
 21
-3.899967
 31
0.0
  0
LINE
  5
1AB
100
AcDbEntity
  8
0
370
    -3
  6
Continuous
100
AcDbLine
 10
-0.000018
 20
-4.599998
 30
0.0
 11
-3.000017
 21
-4.599986
 31
0.0
  0
POINT
  5
1AC
100
AcDbEntity
  8
0
370
    -3
  6
Continuous
100
AcDbPoint
 10
0.0
 20
0.0
 30
0.0
  0
ENDBLK
  5
1AD
100
AcDbEntity
  8
0
100
AcDbBlockEnd
  0
BLOCK
  5
1B3
100
AcDbEntity
  8
0
100
AcDbBlockBegin
  2
ZU_SYM__USERS_HOME_SYMBOL_STD_SYM_B01_00006-1
 70
    64
 10
0.0
 20
0.0
 30
0.0
  3
ZU_SYM__USERS_HOME_SYMBOL_STD_SYM_B01_00006-1
  1

  0
ARC
  5
1B4
100
AcDbEntity
  8
0
370
    -3
  6
Continuous
100
AcDbCircle
 10
2.040001
 20
-0.000008
 30
0.0
 40
5.539999
100
AcDbArc
 50
155.470187
 51
204.52925
  0
ARC
  5
1B5
100
AcDbEntity
  8
0
370
    -3
  6
Continuous
100
AcDbCircle
 10
-1.929986
 20
3.450007
 30
0.0
 40
1.57
100
AcDbArc
 50
179.999745
 51
227.099746
  0
ARC
  5
1B6
100
AcDbEntity
  8
0
370
    -3
  6
Continuous
100
AcDbCircle
 10
-1.930014
 20
-3.449991
 30
0.0
 40
1.57
100
AcDbArc
 50
132.899744
 51
179.999745
  0
LINE
  5
1B7
100
AcDbEntity
  8
0
370
    -3
  6
Continuous
100
AcDbLine
 10
-2.999989
 20
2.300011
 30
0.0
 11
0.000009
 21
2.3
 31
0.0
  0
LINE
  5
1B8
100
AcDbEntity
  8
0
370
    -3
  6
Continuous
100
AcDbLine
 10
-3.000008
 20
-2.299986
 30
0.0
 11
-0.000008
 21
-2.299998
 31
0.0
  0
LINE
  5
1B9
100
AcDbEntity
  8
0
370
    -3
  6
Continuous
100
AcDbLine
 10
0.000019
 20
4.6
 30
0.0
 11
-0.000019
 21
-4.6
 31
0.0
  0
LINE
  5
1BA
100
AcDbEntity
  8
0
370
    -3
  6
Continuous
100
AcDbLine
 10
-2.999979
 20
4.600012
 30
0.0
 11
0.000019
 21
4.600001
 31
0.0
  0
LINE
  5
1BB
100
AcDbEntity
  8
0
370
    -3
  6
Continuous
100
AcDbLine
 10
-3.499965
 20
3.9
 30
0.0
 11
-2.999964
 21
4.599998
 31
0.0
  0
LINE
  5
1BC
100
AcDbEntity
  8
0
370
    -3
  6
Continuous
100
AcDbLine
 10
-3.500012
 20
-3.89998
 30
0.0
 11
-3.49998
 21
3.90001
 31
0.0
  0
LINE
  5
1BD
100
AcDbEntity
  8
0
370
    -3
  6
Continuous
100
AcDbLine
 10
-2.999996
 20
-4.59997
 30
0.0
 11
-3.499991
 21
-3.899967
 31
0.0
  0
LINE
  5
1BE
100
AcDbEntity
  8
0
370
    -3
  6
Continuous
100
AcDbLine
 10
-0.000018
 20
-4.599998
 30
0.0
 11
-3.000017
 21
-4.599986
 31
0.0
  0
POINT
  5
1BF
100
AcDbEntity
  8
0
370
    -3
  6
Continuous
100
AcDbPoint
 10
0.0
 20
0.0
 30
0.0
  0
ENDBLK
  5
1C0
100
AcDbEntity
  8
0
100
AcDbBlockEnd
  0
BLOCK
  5
1D1
100
AcDbEntity
  8
0
100
AcDbBlockBegin
  2
ZU_SYM__USERS_HOME_SYMBOL_POO_SYM_B20_00007-1
 70
    64
 10
0.0
 20
0.0
 30
0.0
  3
ZU_SYM__USERS_HOME_SYMBOL_POO_SYM_B20_00007-1
  1

  0
POINT
  5
1D2
100
AcDbEntity
  8
0
370
    -3
  6
Continuous
100
AcDbPoint
 10
0.0
 20
0.0
 30
0.0
  0
LINE
  5
1D3
100
AcDbEntity
  8
0
370
    -3
  6
Continuous
100
AcDbLine
 10
0.0
 20
-6.5
 30
0.0
 11
0.0
 21
6.5
 31
0.0
  0
LINE
  5
1D4
100
AcDbEntity
  8
0
370
    -3
  6
Continuous
100
AcDbLine
 10
-7.999999
 20
5.633876
 30
0.0
 11
-7.999999
 21
-5.63407
 31
0.0
  0
LINE
  5
1D5
100
AcDbEntity
  8
0
370
    -3
  6
Continuous
100
AcDbLine
 10
0.0
 20
6.5
 30
0.0
 11
-7.499999
 21
6.5
 31
0.0
  0
LINE
  5
1D6
100
AcDbEntity
  8
0
370
    -3
  6
Continuous
100
AcDbLine
 10
0.0
 20
-6.5
 30
0.0
 11
-7.499998
 21
-6.5
 31
0.0
  0
LINE
  5
1D7
100
AcDbEntity
  8
0
370
    -3
  6
Continuous
100
AcDbLine
 10
-7.499999
 20
6.5
 30
0.0
 11
-7.999999
 21
5.633876
 31
0.0
  0
LINE
  5
1D8
100
AcDbEntity
  8
0
370
    -3
  6
Continuous
100
AcDbLine
 10
-7.499998
 20
-6.499999
 30
0.0
 11
-7.999999
 21
-5.63407
 31
0.0
  0
LINE
  5
1D9
100
AcDbEntity
  8
0
370
    -3
  6
Continuous
100
AcDbLine
 10
-7.499999
 20
6.5
 30
0.0
 11
-7.499999
 21
-6.5
 31
0.0
  0
ENDBLK
  5
1DA
100
AcDbEntity
  8
0
100
AcDbBlockEnd
  0
BLOCK
  5
1E0
100
AcDbEntity
  8
0
100
AcDbBlockBegin
  2
ZU_SYM__USERS_HOME_SYMBOL_POO_SYM_B20_00008-1
 70
    64
 10
0.0
 20
0.0
 30
0.0
  3
ZU_SYM__USERS_HOME_SYMBOL_POO_SYM_B20_00008-1
  1

  0
POINT
  5
1E1
100
AcDbEntity
  8
0
370
    -3
  6
Continuous
100
AcDbPoint
 10
0.0
 20
0.0
 30
0.0
  0
LINE
  5
1E2
100
AcDbEntity
  8
0
370
    -3
  6
Continuous
100
AcDbLine
 10
0.0
 20
-6.5
 30
0.0
 11
0.0
 21
6.5
 31
0.0
  0
LINE
  5
1E3
100
AcDbEntity
  8
0
370
    -3
  6
Continuous
100
AcDbLine
 10
-7.999999
 20
5.633876
 30
0.0
 11
-7.999999
 21
-5.63407
 31
0.0
  0
LINE
  5
1E4
100
AcDbEntity
  8
0
370
    -3
  6
Continuous
100
AcDbLine
 10
0.0
 20
6.5
 30
0.0
 11
-7.499999
 21
6.5
 31
0.0
  0
LINE
  5
1E5
100
AcDbEntity
  8
0
370
    -3
  6
Continuous
100
AcDbLine
 10
0.0
 20
-6.5
 30
0.0
 11
-7.499998
 21
-6.5
 31
0.0
  0
LINE
  5
1E6
100
AcDbEntity
  8
0
370
    -3
  6
Continuous
100
AcDbLine
 10
-7.499999
 20
6.5
 30
0.0
 11
-7.999999
 21
5.633876
 31
0.0
  0
LINE
  5
1E7
100
AcDbEntity
  8
0
370
    -3
  6
Continuous
100
AcDbLine
 10
-7.499998
 20
-6.499999
 30
0.0
 11
-7.999999
 21
-5.63407
 31
0.0
  0
LINE
  5
1E8
100
AcDbEntity
  8
0
370
    -3
  6
Continuous
100
AcDbLine
 10
-7.499999
 20
6.5
 30
0.0
 11
-7.499999
 21
-6.5
 31
0.0
  0
ENDBLK
  5
1E9
100
AcDbEntity
  8
0
100
AcDbBlockEnd
  0
BLOCK
  5
1FD
100
AcDbEntity
  8
0
100
AcDbBlockBegin
  2
ZU_SYM__USERS_HOME_SYMBOL_POO_SYM_B20_00009-1
 70
    64
 10
0.0
 20
0.0
 30
0.0
  3
ZU_SYM__USERS_HOME_SYMBOL_POO_SYM_B20_00009-1
  1

  0
POINT
  5
1FE
100
AcDbEntity
  8
0
370
    -3
  6
Continuous
100
AcDbPoint
 10
0.0
 20
0.0
 30
0.0
  0
LINE
  5
1FF
100
AcDbEntity
  8
0
370
    -3
  6
Continuous
100
AcDbLine
 10
0.0
 20
-6.5
 30
0.0
 11
0.0
 21
6.5
 31
0.0
  0
LINE
  5
200
100
AcDbEntity
  8
0
370
    -3
  6
Continuous
100
AcDbLine
 10
-7.999999
 20
5.633876
 30
0.0
 11
-7.999999
 21
-5.63407
 31
0.0
  0
LINE
  5
201
100
AcDbEntity
  8
0
370
    -3
  6
Continuous
100
AcDbLine
 10
0.0
 20
6.5
 30
0.0
 11
-7.499999
 21
6.5
 31
0.0
  0
LINE
  5
202
100
AcDbEntity
  8
0
370
    -3
  6
Continuous
100
AcDbLine
 10
0.0
 20
-6.5
 30
0.0
 11
-7.499998
 21
-6.5
 31
0.0
  0
LINE
  5
203
100
AcDbEntity
  8
0
370
    -3
  6
Continuous
100
AcDbLine
 10
-7.499999
 20
6.5
 30
0.0
 11
-7.999999
 21
5.633876
 31
0.0
  0
LINE
  5
204
100
AcDbEntity
  8
0
370
    -3
  6
Continuous
100
AcDbLine
 10
-7.499998
 20
-6.499999
 30
0.0
 11
-7.999999
 21
-5.63407
 31
0.0
  0
LINE
  5
205
100
AcDbEntity
  8
0
370
    -3
  6
Continuous
100
AcDbLine
 10
-7.499999
 20
6.5
 30
0.0
 11
-7.499999
 21
-6.5
 31
0.0
  0
ENDBLK
  5
206
100
AcDbEntity
  8
0
100
AcDbBlockEnd
  0
BLOCK
  5
20C
100
AcDbEntity
  8
0
100
AcDbBlockBegin
  2
ZU_SYM__USERS_HOME_SYMBOL_POO_SYM_B20_00010-1
 70
    64
 10
0.0
 20
0.0
 30
0.0
  3
ZU_SYM__USERS_HOME_SYMBOL_POO_SYM_B20_00010-1
  1

  0
POINT
  5
20D
100
AcDbEntity
  8
0
370
    -3
  6
Continuous
100
AcDbPoint
 10
0.0
 20
0.0
 30
0.0
  0
LINE
  5
20E
100
AcDbEntity
  8
0
370
    -3
  6
Continuous
100
AcDbLine
 10
0.0
 20
-6.5
 30
0.0
 11
0.0
 21
6.5
 31
0.0
  0
LINE
  5
20F
100
AcDbEntity
  8
0
370
    -3
  6
Continuous
100
AcDbLine
 10
-7.999999
 20
5.633876
 30
0.0
 11
-7.999999
 21
-5.63407
 31
0.0
  0
LINE
  5
210
100
AcDbEntity
  8
0
370
    -3
  6
Continuous
100
AcDbLine
 10
0.0
 20
6.5
 30
0.0
 11
-7.499999
 21
6.5
 31
0.0
  0
LINE
  5
211
100
AcDbEntity
  8
0
370
    -3
  6
Continuous
100
AcDbLine
 10
0.0
 20
-6.5
 30
0.0
 11
-7.499998
 21
-6.5
 31
0.0
  0
LINE
  5
212
100
AcDbEntity
  8
0
370
    -3
  6
Continuous
100
AcDbLine
 10
-7.499999
 20
6.5
 30
0.0
 11
-7.999999
 21
5.633876
 31
0.0
  0
LINE
  5
213
100
AcDbEntity
  8
0
370
    -3
  6
Continuous
100
AcDbLine
 10
-7.499998
 20
-6.499999
 30
0.0
 11
-7.999999
 21
-5.63407
 31
0.0
  0
LINE
  5
214
100
AcDbEntity
  8
0
370
    -3
  6
Continuous
100
AcDbLine
 10
-7.499999
 20
6.5
 30
0.0
 11
-7.499999
 21
-6.5
 31
0.0
  0
ENDBLK
  5
215
100
AcDbEntity
  8
0
100
AcDbBlockEnd
  0
BLOCK
  5
2DF
100
AcDbEntity
  8
0
100
AcDbBlockBegin
  2
ZU_SYM__USERS_HOME_SYMBOL_POO_SYM_B20_00011-1
 70
    64
 10
0.0
 20
0.0
 30
0.0
  3
ZU_SYM__USERS_HOME_SYMBOL_POO_SYM_B20_00011-1
  1

  0
CIRCLE
  5
2E0
100
AcDbEntity
  8
0
370
    -3
  6
Continuous
100
AcDbCircle
 10
0.0
 20
0.0
 30
0.0
 40
5.633955
  0
CIRCLE
  5
2E1
100
AcDbEntity
  8
0
370
    -3
  6
Continuous
100
AcDbCircle
 10
0.0
 20
0.0
 30
0.0
 40
6.5
  0
POINT
  5
2E2
100
AcDbEntity
  8
0
370
    -3
  6
Continuous
100
AcDbPoint
 10
0.0
 20
0.0
 30
0.0
  0
LINE
  5
2E3
100
AcDbEntity
  8
0
370
    -3
  6
Continuous
100
AcDbLine
 10
-2.999997
 20
-1.732046
 30
0.0
 11
-2.999998
 21
1.732052
 31
0.0
  0
LINE
  5
2E4
100
AcDbEntity
  8
0
370
    -3
  6
Continuous
100
AcDbLine
 10
2.999997
 20
1.732047
 30
0.0
 11
2.999998
 21
-1.732051
 31
0.0
  0
LINE
  5
2E5
100
AcDbEntity
  8
0
370
    -3
  6
Continuous
100
AcDbLine
 10
0.000007
 20
3.464097
 30
0.0
 11
-2.999998
 21
1.732052
 31
0.0
  0
LINE
  5
2E6
100
AcDbEntity
  8
0
370
    -3
  6
Continuous
100
AcDbLine
 10
2.999998
 20
-1.732051
 30
0.0
 11
-0.000004
 21
-3.464098
 31
0.0
  0
LINE
  5
2E7
100
AcDbEntity
  8
0
370
    -3
  6
Continuous
100
AcDbLine
 10
0.000007
 20
3.464097
 30
0.0
 11
2.999997
 21
1.732047
 31
0.0
  0
LINE
  5
2E8
100
AcDbEntity
  8
0
370
    -3
  6
Continuous
100
AcDbLine
 10
-0.000005
 20
-3.464098
 30
0.0
 11
-2.999998
 21
-1.732046
 31
0.0
  0
ENDBLK
  5
2E9
100
AcDbEntity
  8
0
100
AcDbBlockEnd
  0
BLOCK
  5
2EC
100
AcDbEntity
  8
0
100
AcDbBlockBegin
  2
ZU_SYM__USERS_HOME_SYMBOL_POO_SYM_B20_00012-1
 70
    64
 10
0.0
 20
0.0
 30
0.0
  3
ZU_SYM__USERS_HOME_SYMBOL_POO_SYM_B20_00012-1
  1

  0
CIRCLE
  5
2ED
100
AcDbEntity
  8
0
370
    -3
  6
Continuous
100
AcDbCircle
 10
0.0
 20
0.0
 30
0.0
 40
5.633955
  0
CIRCLE
  5
2EE
100
AcDbEntity
  8
0
370
    -3
  6
Continuous
100
AcDbCircle
 10
0.0
 20
0.0
 30
0.0
 40
6.5
  0
POINT
  5
2EF
100
AcDbEntity
  8
0
370
    -3
  6
Continuous
100
AcDbPoint
 10
0.0
 20
0.0
 30
0.0
  0
LINE
  5
2F0
100
AcDbEntity
  8
0
370
    -3
  6
Continuous
100
AcDbLine
 10
-2.999997
 20
-1.732046
 30
0.0
 11
-2.999998
 21
1.732052
 31
0.0
  0
LINE
  5
2F1
100
AcDbEntity
  8
0
370
    -3
  6
Continuous
100
AcDbLine
 10
2.999997
 20
1.732047
 30
0.0
 11
2.999998
 21
-1.732051
 31
0.0
  0
LINE
  5
2F2
100
AcDbEntity
  8
0
370
    -3
  6
Continuous
100
AcDbLine
 10
0.000007
 20
3.464097
 30
0.0
 11
-2.999998
 21
1.732052
 31
0.0
  0
LINE
  5
2F3
100
AcDbEntity
  8
0
370
    -3
  6
Continuous
100
AcDbLine
 10
2.999998
 20
-1.732051
 30
0.0
 11
-0.000004
 21
-3.464098
 31
0.0
  0
LINE
  5
2F4
100
AcDbEntity
  8
0
370
    -3
  6
Continuous
100
AcDbLine
 10
0.000007
 20
3.464097
 30
0.0
 11
2.999997
 21
1.732047
 31
0.0
  0
LINE
  5
2F5
100
AcDbEntity
  8
0
370
    -3
  6
Continuous
100
AcDbLine
 10
-0.000005
 20
-3.464098
 30
0.0
 11
-2.999998
 21
-1.732046
 31
0.0
  0
ENDBLK
  5
2F6
100
AcDbEntity
  8
0
100
AcDbBlockEnd
  0
BLOCK
  5
312
100
AcDbEntity
  8
0
100
AcDbBlockBegin
  2
ZU_SYM__USERS_HOME_SYMBOL_STD_SYM_B01_00013-1
 70
    64
 10
0.0
 20
0.0
 30
0.0
  3
ZU_SYM__USERS_HOME_SYMBOL_STD_SYM_B01_00013-1
  1

  0
POINT
  5
313
100
AcDbEntity
  8
0
370
    -3
  6
Continuous
100
AcDbPoint
 10
0.0
 20
0.0
 30
0.0
  0
LINE
  5
314
100
AcDbEntity
  8
0
370
    -3
  6
Continuous
100
AcDbLine
 10
3.999993
 20
-2.300002
 30
0.0
 11
-0.000005
 21
-4.599996
 31
0.0
  0
LINE
  5
315
100
AcDbEntity
  8
0
370
    -3
  6
Continuous
100
AcDbLine
 10
-0.000007
 20
-4.6
 30
0.0
 11
-4.000001
 21
-2.299995
 31
0.0
  0
LINE
  5
316
100
AcDbEntity
  8
0
370
    -3
  6
Continuous
100
AcDbLine
 10
-4.0
 20
-2.299992
 30
0.0
 11
-3.999996
 21
2.300002
 31
0.0
  0
LINE
  5
317
100
AcDbEntity
  8
0
370
    -3
  6
Continuous
100
AcDbLine
 10
-3.999993
 20
2.300002
 30
0.0
 11
0.000005
 21
4.599996
 31
0.0
  0
LINE
  5
318
100
AcDbEntity
  8
0
370
    -3
  6
Continuous
100
AcDbLine
 10
0.000007
 20
4.6
 30
0.0
 11
4.000001
 21
2.299995
 31
0.0
  0
LINE
  5
319
100
AcDbEntity
  8
0
370
    -3
  6
Continuous
100
AcDbLine
 10
4.0
 20
2.299992
 30
0.0
 11
3.999996
 21
-2.300002
 31
0.0
  0
CIRCLE
  5
31A
100
AcDbEntity
  8
0
370
    -3
  6
Continuous
100
AcDbCircle
 10
0.0
 20
0.0
 30
0.0
 40
4.0
  0
ENDBLK
  5
31B
100
AcDbEntity
  8
0
100
AcDbBlockEnd
  0
BLOCK
  5
31E
100
AcDbEntity
  8
0
100
AcDbBlockBegin
  2
ZU_SYM__USERS_HOME_SYMBOL_STD_SYM_B01_00014-1
 70
    64
 10
0.0
 20
0.0
 30
0.0
  3
ZU_SYM__USERS_HOME_SYMBOL_STD_SYM_B01_00014-1
  1

  0
POINT
  5
31F
100
AcDbEntity
  8
0
370
    -3
  6
Continuous
100
AcDbPoint
 10
0.0
 20
0.0
 30
0.0
  0
LINE
  5
320
100
AcDbEntity
  8
0
370
    -3
  6
Continuous
100
AcDbLine
 10
3.999993
 20
-2.300002
 30
0.0
 11
-0.000005
 21
-4.599996
 31
0.0
  0
LINE
  5
321
100
AcDbEntity
  8
0
370
    -3
  6
Continuous
100
AcDbLine
 10
-0.000007
 20
-4.6
 30
0.0
 11
-4.000001
 21
-2.299995
 31
0.0
  0
LINE
  5
322
100
AcDbEntity
  8
0
370
    -3
  6
Continuous
100
AcDbLine
 10
-4.0
 20
-2.299992
 30
0.0
 11
-3.999996
 21
2.300002
 31
0.0
  0
LINE
  5
323
100
AcDbEntity
  8
0
370
    -3
  6
Continuous
100
AcDbLine
 10
-3.999993
 20
2.300002
 30
0.0
 11
0.000005
 21
4.599996
 31
0.0
  0
LINE
  5
324
100
AcDbEntity
  8
0
370
    -3
  6
Continuous
100
AcDbLine
 10
0.000007
 20
4.6
 30
0.0
 11
4.000001
 21
2.299995
 31
0.0
  0
LINE
  5
325
100
AcDbEntity
  8
0
370
    -3
  6
Continuous
100
AcDbLine
 10
4.0
 20
2.299992
 30
0.0
 11
3.999996
 21
-2.300002
 31
0.0
  0
CIRCLE
  5
326
100
AcDbEntity
  8
0
370
    -3
  6
Continuous
100
AcDbCircle
 10
0.0
 20
0.0
 30
0.0
 40
4.0
  0
ENDBLK
  5
327
100
AcDbEntity
  8
0
100
AcDbBlockEnd
  0
BLOCK
  5
32A
100
AcDbEntity
  8
0
100
AcDbBlockBegin
  2
ZU_SYM__USERS_HOME_SYMBOL_POO_SYM_B20_00015-1
 70
    64
 10
0.0
 20
0.0
 30
0.0
  3
ZU_SYM__USERS_HOME_SYMBOL_POO_SYM_B20_00015-1
  1

  0
CIRCLE
  5
32B
100
AcDbEntity
  8
0
370
    -3
  6
Continuous
100
AcDbCircle
 10
0.0
 20
0.0
 30
0.0
 40
5.633955
  0
CIRCLE
  5
32C
100
AcDbEntity
  8
0
370
    -3
  6
Continuous
100
AcDbCircle
 10
0.0
 20
0.0
 30
0.0
 40
6.5
  0
POINT
  5
32D
100
AcDbEntity
  8
0
370
    -3
  6
Continuous
100
AcDbPoint
 10
0.0
 20
0.0
 30
0.0
  0
LINE
  5
32E
100
AcDbEntity
  8
0
370
    -3
  6
Continuous
100
AcDbLine
 10
-2.999997
 20
-1.732046
 30
0.0
 11
-2.999998
 21
1.732052
 31
0.0
  0
LINE
  5
32F
100
AcDbEntity
  8
0
370
    -3
  6
Continuous
100
AcDbLine
 10
2.999997
 20
1.732047
 30
0.0
 11
2.999998
 21
-1.732051
 31
0.0
  0
LINE
  5
330
100
AcDbEntity
  8
0
370
    -3
  6
Continuous
100
AcDbLine
 10
0.000007
 20
3.464097
 30
0.0
 11
-2.999998
 21
1.732052
 31
0.0
  0
LINE
  5
331
100
AcDbEntity
  8
0
370
    -3
  6
Continuous
100
AcDbLine
 10
2.999998
 20
-1.732051
 30
0.0
 11
-0.000004
 21
-3.464098
 31
0.0
  0
LINE
  5
332
100
AcDbEntity
  8
0
370
    -3
  6
Continuous
100
AcDbLine
 10
0.000007
 20
3.464097
 30
0.0
 11
2.999997
 21
1.732047
 31
0.0
  0
LINE
  5
333
100
AcDbEntity
  8
0
370
    -3
  6
Continuous
100
AcDbLine
 10
-0.000005
 20
-3.464098
 30
0.0
 11
-2.999998
 21
-1.732046
 31
0.0
  0
ENDBLK
  5
334
100
AcDbEntity
  8
0
100
AcDbBlockEnd
  0
BLOCK
  5
337
100
AcDbEntity
  8
0
100
AcDbBlockBegin
  2
ZU_SYM__USERS_HOME_SYMBOL_POO_SYM_B20_00016-1
 70
    64
 10
0.0
 20
0.0
 30
0.0
  3
ZU_SYM__USERS_HOME_SYMBOL_POO_SYM_B20_00016-1
  1

  0
CIRCLE
  5
338
100
AcDbEntity
  8
0
370
    -3
  6
Continuous
100
AcDbCircle
 10
0.0
 20
0.0
 30
0.0
 40
5.633955
  0
CIRCLE
  5
339
100
AcDbEntity
  8
0
370
    -3
  6
Continuous
100
AcDbCircle
 10
0.0
 20
0.0
 30
0.0
 40
6.5
  0
POINT
  5
33A
100
AcDbEntity
  8
0
370
    -3
  6
Continuous
100
AcDbPoint
 10
0.0
 20
0.0
 30
0.0
  0
LINE
  5
33B
100
AcDbEntity
  8
0
370
    -3
  6
Continuous
100
AcDbLine
 10
-2.999997
 20
-1.732046
 30
0.0
 11
-2.999998
 21
1.732052
 31
0.0
  0
LINE
  5
33C
100
AcDbEntity
  8
0
370
    -3
  6
Continuous
100
AcDbLine
 10
2.999997
 20
1.732047
 30
0.0
 11
2.999998
 21
-1.732051
 31
0.0
  0
LINE
  5
33D
100
AcDbEntity
  8
0
370
    -3
  6
Continuous
100
AcDbLine
 10
0.000007
 20
3.464097
 30
0.0
 11
-2.999998
 21
1.732052
 31
0.0
  0
LINE
  5
33E
100
AcDbEntity
  8
0
370
    -3
  6
Continuous
100
AcDbLine
 10
2.999998
 20
-1.732051
 30
0.0
 11
-0.000004
 21
-3.464098
 31
0.0
  0
LINE
  5
33F
100
AcDbEntity
  8
0
370
    -3
  6
Continuous
100
AcDbLine
 10
0.000007
 20
3.464097
 30
0.0
 11
2.999997
 21
1.732047
 31
0.0
  0
LINE
  5
340
100
AcDbEntity
  8
0
370
    -3
  6
Continuous
100
AcDbLine
 10
-0.000005
 20
-3.464098
 30
0.0
 11
-2.999998
 21
-1.732046
 31
0.0
  0
ENDBLK
  5
341
100
AcDbEntity
  8
0
100
AcDbBlockEnd
  0
BLOCK
  5
3BC
100
AcDbEntity
  8
0
100
AcDbBlockBegin
  2
ZU_SYM__USERS_HOME_SYMBOL_POO_SYM_B20_00017-1
 70
    64
 10
0.0
 20
0.0
 30
0.0
  3
ZU_SYM__USERS_HOME_SYMBOL_POO_SYM_B20_00017-1
  1

  0
CIRCLE
  5
3BD
100
AcDbEntity
  8
0
370
    -3
  6
Continuous
100
AcDbCircle
 10
0.0
 20
0.0
 30
0.0
 40
5.633955
  0
CIRCLE
  5
3BE
100
AcDbEntity
  8
0
370
    -3
  6
Continuous
100
AcDbCircle
 10
0.0
 20
0.0
 30
0.0
 40
6.5
  0
POINT
  5
3BF
100
AcDbEntity
  8
0
370
    -3
  6
Continuous
100
AcDbPoint
 10
0.0
 20
0.0
 30
0.0
  0
LINE
  5
3C0
100
AcDbEntity
  8
0
370
    -3
  6
Continuous
100
AcDbLine
 10
-2.999997
 20
-1.732046
 30
0.0
 11
-2.999998
 21
1.732052
 31
0.0
  0
LINE
  5
3C1
100
AcDbEntity
  8
0
370
    -3
  6
Continuous
100
AcDbLine
 10
2.999997
 20
1.732047
 30
0.0
 11
2.999998
 21
-1.732051
 31
0.0
  0
LINE
  5
3C2
100
AcDbEntity
  8
0
370
    -3
  6
Continuous
100
AcDbLine
 10
0.000007
 20
3.464097
 30
0.0
 11
-2.999998
 21
1.732052
 31
0.0
  0
LINE
  5
3C3
100
AcDbEntity
  8
0
370
    -3
  6
Continuous
100
AcDbLine
 10
2.999998
 20
-1.732051
 30
0.0
 11
-0.000004
 21
-3.464098
 31
0.0
  0
LINE
  5
3C4
100
AcDbEntity
  8
0
370
    -3
  6
Continuous
100
AcDbLine
 10
0.000007
 20
3.464097
 30
0.0
 11
2.999997
 21
1.732047
 31
0.0
  0
LINE
  5
3C5
100
AcDbEntity
  8
0
370
    -3
  6
Continuous
100
AcDbLine
 10
-0.000005
 20
-3.464098
 30
0.0
 11
-2.999998
 21
-1.732046
 31
0.0
  0
ENDBLK
  5
3C6
100
AcDbEntity
  8
0
100
AcDbBlockEnd
  0
BLOCK
  5
4D3
100
AcDbEntity
  8
0
100
AcDbBlockBegin
  2
ZU_SYM__USERS_HOME_SYMBOL_POO_SYM_B20_00018-1
 70
    64
 10
0.0
 20
0.0
 30
0.0
  3
ZU_SYM__USERS_HOME_SYMBOL_POO_SYM_B20_00018-1
  1

  0
CIRCLE
  5
4D4
100
AcDbEntity
  8
0
370
    -3
  6
Continuous
100
AcDbCircle
 10
0.0
 20
0.0
 30
0.0
 40
5.633955
  0
CIRCLE
  5
4D5
100
AcDbEntity
  8
0
370
    -3
  6
Continuous
100
AcDbCircle
 10
0.0
 20
0.0
 30
0.0
 40
6.5
  0
POINT
  5
4D6
100
AcDbEntity
  8
0
370
    -3
  6
Continuous
100
AcDbPoint
 10
0.0
 20
0.0
 30
0.0
  0
LINE
  5
4D7
100
AcDbEntity
  8
0
370
    -3
  6
Continuous
100
AcDbLine
 10
-2.999997
 20
-1.732046
 30
0.0
 11
-2.999998
 21
1.732052
 31
0.0
  0
LINE
  5
4D8
100
AcDbEntity
  8
0
370
    -3
  6
Continuous
100
AcDbLine
 10
2.999997
 20
1.732047
 30
0.0
 11
2.999998
 21
-1.732051
 31
0.0
  0
LINE
  5
4D9
100
AcDbEntity
  8
0
370
    -3
  6
Continuous
100
AcDbLine
 10
0.000007
 20
3.464097
 30
0.0
 11
-2.999998
 21
1.732052
 31
0.0
  0
LINE
  5
4DA
100
AcDbEntity
  8
0
370
    -3
  6
Continuous
100
AcDbLine
 10
2.999998
 20
-1.732051
 30
0.0
 11
-0.000004
 21
-3.464098
 31
0.0
  0
LINE
  5
4DB
100
AcDbEntity
  8
0
370
    -3
  6
Continuous
100
AcDbLine
 10
0.000007
 20
3.464097
 30
0.0
 11
2.999997
 21
1.732047
 31
0.0
  0
LINE
  5
4DC
100
AcDbEntity
  8
0
370
    -3
  6
Continuous
100
AcDbLine
 10
-0.000005
 20
-3.464098
 30
0.0
 11
-2.999998
 21
-1.732046
 31
0.0
  0
ENDBLK
  5
4DD
100
AcDbEntity
  8
0
100
AcDbBlockEnd
  0
BLOCK
  5
4E0
100
AcDbEntity
  8
0
100
AcDbBlockBegin
  2
ZU_SYM__USERS_HOME_SYMBOL_POO_SYM_B20_00019-1
 70
    64
 10
0.0
 20
0.0
 30
0.0
  3
ZU_SYM__USERS_HOME_SYMBOL_POO_SYM_B20_00019-1
  1

  0
CIRCLE
  5
4E1
100
AcDbEntity
  8
0
370
    -3
  6
Continuous
100
AcDbCircle
 10
0.0
 20
0.0
 30
0.0
 40
5.633955
  0
CIRCLE
  5
4E2
100
AcDbEntity
  8
0
370
    -3
  6
Continuous
100
AcDbCircle
 10
0.0
 20
0.0
 30
0.0
 40
6.5
  0
POINT
  5
4E3
100
AcDbEntity
  8
0
370
    -3
  6
Continuous
100
AcDbPoint
 10
0.0
 20
0.0
 30
0.0
  0
LINE
  5
4E4
100
AcDbEntity
  8
0
370
    -3
  6
Continuous
100
AcDbLine
 10
-2.999997
 20
-1.732046
 30
0.0
 11
-2.999998
 21
1.732052
 31
0.0
  0
LINE
  5
4E5
100
AcDbEntity
  8
0
370
    -3
  6
Continuous
100
AcDbLine
 10
2.999997
 20
1.732047
 30
0.0
 11
2.999998
 21
-1.732051
 31
0.0
  0
LINE
  5
4E6
100
AcDbEntity
  8
0
370
    -3
  6
Continuous
100
AcDbLine
 10
0.000007
 20
3.464097
 30
0.0
 11
-2.999998
 21
1.732052
 31
0.0
  0
LINE
  5
4E7
100
AcDbEntity
  8
0
370
    -3
  6
Continuous
100
AcDbLine
 10
2.999998
 20
-1.732051
 30
0.0
 11
-0.000004
 21
-3.464098
 31
0.0
  0
LINE
  5
4E8
100
AcDbEntity
  8
0
370
    -3
  6
Continuous
100
AcDbLine
 10
0.000007
 20
3.464097
 30
0.0
 11
2.999997
 21
1.732047
 31
0.0
  0
LINE
  5
4E9
100
AcDbEntity
  8
0
370
    -3
  6
Continuous
100
AcDbLine
 10
-0.000005
 20
-3.464098
 30
0.0
 11
-2.999998
 21
-1.732046
 31
0.0
  0
ENDBLK
  5
4EA
100
AcDbEntity
  8
0
100
AcDbBlockEnd
  0
ENDSEC
  0
SECTION
  2
ENTITIES
  0
LINE
  5
2B
100
AcDbEntity
  8
0
370
    -3
  6
Continuous
100
AcDbLine
 10
-220.328581
 20
-3.055901
 30
0.0
 11
-220.328581
 21
-8.808292
 31
0.0
  0
LINE
  5
2C
100
AcDbEntity
  8
0
370
    -3
  6
Continuous
100
AcDbLine
 10
-220.328581
 20
-108.055901
 30
0.0
 11
-220.328581
 21
-102.355901
 31
0.0
  0
LINE
  5
2D
100
AcDbEntity
  8
0
370
    -3
  6
Continuous
100
AcDbLine
 10
-220.328581
 20
-102.303509
 30
0.0
 11
-220.328581
 21
-108.064628
 31
0.0
  0
ARC
  5
2E
100
AcDbEntity
  8
0
370
    -3
  6
Continuous
100
AcDbCircle
 10
-214.747909
 20
-111.162496
 30
0.0
 40
3.0
100
AcDbArc
 50
40.0
 51
89.0
  0
LINE
  5
2F
100
AcDbEntity
  8
0
370
    -3
  6
CENTER
100
AcDbLine
 10
-185.822625
 20
10.944099
 30
0.0
 11
-161.685009
 21
10.944099
 31
0.0
  0
ARC
  5
30
100
AcDbEntity
  8
0
370
    -3
  6
Continuous
100
AcDbCircle
 10
-205.328581
 20
-20.356153
 30
0.0
 40
1.0
100
AcDbArc
 50
120.0
 51
180.0
  0
LINE
  5
31
100
AcDbEntity
  8
0
370
    -3
  6
Continuous
100
AcDbLine
 10
-206.328581
 20
-41.861727
 30
0.0
 11
-206.328581
 21
-20.356153
 31
0.0
  0
ARC
  5
32
100
AcDbEntity
  8
0
370
    -3
  6
Continuous
100
AcDbCircle
 10
-205.328581
 20
-41.861727
 30
0.0
 40
1.0
100
AcDbArc
 50
180.0
 51
240.0
  0
LINE
  5
33
100
AcDbEntity
  8
0
370
    -3
  6
Continuous
100
AcDbLine
 10
-206.328581
 20
-35.555901
 30
0.0
 11
-213.431112
 21
-35.555901
 31
0.0
  0
ARC
  5
34
100
AcDbEntity
  8
0
370
    -3
  6
Continuous
100
AcDbCircle
 10
-62.318215
 20
60.765902
 30
0.0
 40
3.0
100
AcDbArc
 50
330.0
 51
356.309861
  0
LINE
  5
35
100
AcDbEntity
  8
0
370
    -3
  6
Continuous
100
AcDbLine
 10
-57.328581
 20
62.444099
 30
0.0
 11
-43.328581
 21
62.444099
 31
0.0
  0
ARC
  5
36
100
AcDbEntity
  8
0
370
    -3
  6
Continuous
100
AcDbCircle
 10
-57.328581
 20
60.444099
 30
0.0
 40
2.0
100
AcDbArc
 50
90.0
 51
180.0
  0
ARC
  5
37
100
AcDbEntity
  8
0
370
    -3
  6
Continuous
100
AcDbCircle
 10
-82.588456
 20
13.869835
 30
0.0
 40
3.0
100
AcDbArc
 50
270.0
 51
320.631038
  0
LINE
  5
38
100
AcDbEntity
  8
0
370
    -3
  6
Continuous
100
AcDbLine
 10
-80.269224
 20
11.966899
 30
0.0
 11
-60.009349
 21
36.658934
 31
0.0
  0
ARC
  5
39
100
AcDbEntity
  8
0
370
    -3
  6
Continuous
100
AcDbCircle
 10
-62.328581
 20
38.561869
 30
0.0
 40
3.0
100
AcDbArc
 50
320.631038
 51
0.0
  0
ARC
  5
3A
100
AcDbEntity
  8
0
370
    -3
  6
Continuous
100
AcDbCircle
 10
-62.328581
 20
33.076588
 30
0.0
 40
3.0
100
AcDbArc
 50
320.631038
 51
0.0
  0
ARC
  5
3B
100
AcDbEntity
  8
0
370
    -3
  6
Continuous
100
AcDbCircle
 10
-82.588456
 20
8.384553
 30
0.0
 40
3.0
100
AcDbArc
 50
270.0
 51
320.631038
  0
LINE
  5
3C
100
AcDbEntity
  8
0
370
    -3
  6
Continuous
100
AcDbLine
 10
-80.269224
 20
6.481618
 30
0.0
 11
-60.009349
 21
31.173653
 31
0.0
  0
LINE
  5
3D
100
AcDbEntity
  8
0
370
    -3
  6
Continuous
100
AcDbLine
 10
-62.309597
 20
5.384553
 30
0.0
 11
-79.059035
 21
5.384553
 31
0.0
  0
LINE
  5
3E
100
AcDbEntity
  8
0
370
    -3
  6
Continuous
100
AcDbLine
 10
16.671419
 20
-50.055901
 30
0.0
 11
16.671419
 21
-34.455901
 31
0.0
  0
ARC
  5
3F
100
AcDbEntity
  8
0
370
    -3
  6
Continuous
100
AcDbCircle
 10
16.271419
 20
-34.455901
 30
0.0
 40
0.4
100
AcDbArc
 50
0.0
 51
90.0
  0
LINE
  5
40
100
AcDbEntity
  8
0
370
    -3
  6
Continuous
100
AcDbLine
 10
16.271419
 20
-34.055901
 30
0.0
 11
-30.768774
 21
-34.055901
 31
0.0
  0
LINE
  5
41
100
AcDbEntity
  8
0
370
    -3
  6
Continuous
100
AcDbLine
 10
-31.328581
 20
-34.205901
 30
0.0
 11
-30.768774
 21
-34.055901
 31
0.0
  0
LINE
  5
42
100
AcDbEntity
  8
0
370
    -3
  6
Continuous
100
AcDbLine
 10
-31.328581
 20
-34.205901
 30
0.0
 11
-32.528581
 21
-34.205901
 31
0.0
  0
LINE
  5
43
100
AcDbEntity
  8
0
370
    -3
  6
Continuous
100
AcDbLine
 10
-35.328581
 20
-33.055901
 30
0.0
 11
-33.528581
 21
-33.055901
 31
0.0
  0
LINE
  5
44
100
AcDbEntity
  8
0
370
    -3
  6
Continuous
100
AcDbLine
 10
-33.328581
 20
-33.255901
 30
0.0
 11
-33.328581
 21
-50.055901
 31
0.0
  0
ARC
  5
45
100
AcDbEntity
  8
0
370
    -3
  6
Continuous
100
AcDbCircle
 10
-32.528581
 20
-33.405901
 30
0.0
 40
0.8
100
AcDbArc
 50
183.703197
 51
270.0
  0
LINE
  5
46
100
AcDbEntity
  8
0
370
    -3
  6
Continuous
100
AcDbLine
 10
-33.328581
 20
-33.255901
 30
0.0
 11
-33.528581
 21
-33.055901
 31
0.0
  0
LINE
  5
47
100
AcDbEntity
  8
0
370
    -3
  6
Continuous
100
AcDbLine
 10
-31.328581
 20
-65.905901
 30
0.0
 11
-30.768774
 21
-66.055901
 31
0.0
  0
LINE
  5
48
100
AcDbEntity
  8
0
370
    -3
  6
Continuous
100
AcDbLine
 10
-35.328581
 20
-67.055901
 30
0.0
 11
-33.528581
 21
-67.055901
 31
0.0
  0
LINE
  5
49
100
AcDbEntity
  8
0
370
    -3
  6
Continuous
100
AcDbLine
 10
16.271419
 20
-66.055901
 30
0.0
 11
-30.768774
 21
-66.055901
 31
0.0
  0
LINE
  5
4A
100
AcDbEntity
  8
0
370
    -3
  6
Continuous
100
AcDbLine
 10
-31.328581
 20
-65.905901
 30
0.0
 11
-32.528581
 21
-65.905901
 31
0.0
  0
LINE
  5
4B
100
AcDbEntity
  8
0
370
    -3
  6
Continuous
100
AcDbLine
 10
-33.328581
 20
-66.855901
 30
0.0
 11
-33.328581
 21
-50.055901
 31
0.0
  0
ARC
  5
4C
100
AcDbEntity
  8
0
370
    -3
  6
Continuous
100
AcDbCircle
 10
-32.528581
 20
-66.705901
 30
0.0
 40
0.8
100
AcDbArc
 50
90.0
 51
176.296803
  0
LINE
  5
4D
100
AcDbEntity
  8
0
370
    -3
  6
Continuous
100
AcDbLine
 10
-33.328581
 20
-66.855901
 30
0.0
 11
-33.528581
 21
-67.055901
 31
0.0
  0
LINE
  5
4E
100
AcDbEntity
  8
0
370
    -3
  6
Continuous
100
AcDbLine
 10
16.671419
 20
-50.055901
 30
0.0
 11
16.671419
 21
-65.655901
 31
0.0
  0
ARC
  5
4F
100
AcDbEntity
  8
0
370
    -3
  6
Continuous
100
AcDbCircle
 10
16.271419
 20
-65.655901
 30
0.0
 40
0.4
100
AcDbArc
 50
270.0
 51
0.0
  0
LINE
  5
50
100
AcDbEntity
  8
0
370
    -3
  6
Continuous
100
AcDbLine
 10
16.671419
 20
-45.055901
 30
0.0
 11
-23.328581
 21
-45.055901
 31
0.0
  0
LINE
  5
51
100
AcDbEntity
  8
0
370
    -3
  6
Continuous
100
AcDbLine
 10
16.671419
 20
-55.055901
 30
0.0
 11
-23.328581
 21
-55.055901
 31
0.0
  0
ARC
  5
52
100
AcDbEntity
  8
0
370
    -3
  6
Continuous
100
AcDbCircle
 10
-23.328581
 20
-50.055901
 30
0.0
 40
5.0
100
AcDbArc
 50
90.0
 51
270.0
  0
LINE
  5
53
100
AcDbEntity
  8
0
370
    -3
  6
CENTER
100
AcDbLine
 10
-27.692072
 20
-149.05085
 30
0.0
 11
-66.688064
 21
-149.05085
 31
0.0
  0
LINE
  5
54
100
AcDbEntity
  8
0
370
    -3
  6
CENTER
100
AcDbLine
 10
-27.692072
 20
48.939049
 30
0.0
 11
-66.688064
 21
48.939049
 31
0.0
  0
ARC
  5
55
100
AcDbEntity
  8
0
370
    -3
  6
Continuous
100
AcDbCircle
 10
-47.328581
 20
-58.055901
 30
0.0
 40
3.0
100
AcDbArc
 50
90.0
 51
180.0
  0
ARC
  5
56
100
AcDbEntity
  8
0
370
    -3
  6
Continuous
100
AcDbCircle
 10
-47.328581
 20
-113.504474
 30
0.0
 40
3.0
100
AcDbArc
 50
180.0
 51
270.0
  0
LINE
  5
57
100
AcDbEntity
  8
0
370
    -3
  6
Continuous
100
AcDbLine
 10
-50.328581
 20
-58.055901
 30
0.0
 11
-50.328581
 21
-138.342697
 31
0.0
  0
ARC
  5
58
100
AcDbEntity
  8
0
370
    -3
  6
Continuous
100
AcDbCircle
 10
-47.328581
 20
-138.342697
 30
0.0
 40
3.0
100
AcDbArc
 50
180.0
 51
270.0
  0
LINE
  5
59
100
AcDbEntity
  8
0
370
    -3
  6
Continuous
100
AcDbLine
 10
-43.328581
 20
-141.342697
 30
0.0
 11
-47.328581
 21
-141.342697
 31
0.0
  0
LINE
  5
5A
100
AcDbEntity
  8
0
370
    -3
  6
Continuous
100
AcDbLine
 10
-43.328581
 20
-116.504474
 30
0.0
 11
-47.328581
 21
-116.504474
 31
0.0
  0
LINE
  5
5B
100
AcDbEntity
  8
0
370
    -3
  6
Continuous
100
AcDbLine
 10
-47.328581
 20
-55.055901
 30
0.0
 11
-43.328581
 21
-55.055901
 31
0.0
  0
ARC
  5
5C
100
AcDbEntity
  8
0
370
    -3
  6
Continuous
100
AcDbCircle
 10
-47.328581
 20
38.230896
 30
0.0
 40
3.0
100
AcDbArc
 50
90.0
 51
180.0
  0
ARC
  5
5D
100
AcDbEntity
  8
0
370
    -3
  6
Continuous
100
AcDbCircle
 10
-47.328581
 20
13.392673
 30
0.0
 40
3.0
100
AcDbArc
 50
90.0
 51
180.0
  0
ARC
  5
5E
100
AcDbEntity
  8
0
370
    -3
  6
Continuous
100
AcDbCircle
 10
-47.328581
 20
-42.055901
 30
0.0
 40
3.0
100
AcDbArc
 50
180.0
 51
270.0
  0
LINE
  5
5F
100
AcDbEntity
  8
0
370
    -3
  6
Continuous
100
AcDbLine
 10
-47.328581
 20
-45.055901
 30
0.0
 11
-43.328581
 21
-45.055901
 31
0.0
  0
LINE
  5
60
100
AcDbEntity
  8
0
370
    -3
  6
Continuous
100
AcDbLine
 10
-43.328581
 20
16.392673
 30
0.0
 11
-47.328581
 21
16.392673
 31
0.0
  0
LINE
  5
61
100
AcDbEntity
  8
0
370
    -3
  6
Continuous
100
AcDbLine
 10
-43.328581
 20
41.230896
 30
0.0
 11
-47.328581
 21
41.230896
 31
0.0
  0
LINE
  5
62
100
AcDbEntity
  8
0
370
    -3
  6
Continuous
100
AcDbLine
 10
-50.328581
 20
-42.055901
 30
0.0
 11
-50.328581
 21
38.230896
 31
0.0
  0
ARC
  5
63
100
AcDbEntity
  8
0
370
    -3
  6
Continuous
100
AcDbCircle
 10
-57.328581
 20
-160.555901
 30
0.0
 40
2.0
100
AcDbArc
 50
180.0
 51
270.0
  0
LINE
  5
64
100
AcDbEntity
  8
0
370
    -3
  6
Continuous
100
AcDbLine
 10
-39.328581
 20
-50.055901
 30
0.0
 11
-39.328581
 21
-154.055901
 31
0.0
  0
LINE
  5
65
100
AcDbEntity
  8
0
370
    -3
  6
Continuous
100
AcDbLine
 10
-50.374621
 20
-162.233331
 30
0.0
 11
-50.374621
 21
-162.555901
 31
0.0
  0
LINE
  5
66
100
AcDbEntity
  8
0
370
    -3
  6
Continuous
100
AcDbLine
 10
-39.328581
 20
-154.055901
 30
0.0
 11
-40.328581
 21
-155.055901
 31
0.0
  0
LINE
  5
67
100
AcDbEntity
  8
0
370
    -3
  6
Continuous
100
AcDbLine
 10
-40.328581
 20
-155.055901
 30
0.0
 11
-43.328581
 21
-155.055901
 31
0.0
  0
LINE
  5
68
100
AcDbEntity
  8
0
370
    -3
  6
Continuous
100
AcDbLine
 10
-40.328581
 20
54.944099
 30
0.0
 11
-39.328581
 21
53.944099
 31
0.0
  0
LINE
  5
69
100
AcDbEntity
  8
0
370
    -3
  6
Continuous
100
AcDbLine
 10
-43.328581
 20
54.944099
 30
0.0
 11
-40.328581
 21
54.944099
 31
0.0
  0
LINE
  5
6A
100
AcDbEntity
  8
0
370
    -3
  6
Continuous
100
AcDbLine
 10
-39.328581
 20
-50.055901
 30
0.0
 11
-39.328581
 21
53.944099
 31
0.0
  0
LINE
  5
6B
100
AcDbEntity
  8
0
370
    -3
  6
Continuous
100
AcDbLine
 10
-143.328581
 20
19.944099
 30
0.0
 11
-71.67073
 21
22.446447
 31
0.0
  0
LINE
  5
6C
100
AcDbEntity
  8
0
370
    -3
  6
Continuous
100
AcDbLine
 10
-80.337905
 20
23.554884
 30
0.0
 11
-59.720139
 21
59.265902
 31
0.0
  0
LINE
  5
6D
100
AcDbEntity
  8
0
370
    -3
  6
Continuous
100
AcDbLine
 10
-59.328581
 20
-160.555901
 30
0.0
 11
-59.328581
 21
60.444099
 31
0.0
  0
LINE
  5
6E
100
AcDbEntity
  8
0
370
    -3
  6
Continuous
100
AcDbLine
 10
-54.328581
 20
-165.555901
 30
0.0
 11
-54.328581
 21
-172.500122
 31
0.0
  0
LINE
  5
6F
100
AcDbEntity
  8
0
370
    -3
  6
Continuous
100
AcDbLine
 10
-36.328581
 20
-16.555901
 30
0.0
 11
-35.328581
 21
-16.555901
 31
0.0
  0
LINE
  5
70
100
AcDbEntity
  8
0
370
    -3
  6
Continuous
100
AcDbLine
 10
-36.328581
 20
-83.555901
 30
0.0
 11
-35.328581
 21
-83.555901
 31
0.0
  0
LINE
  5
71
100
AcDbEntity
  8
0
370
    -3
  6
CENTER
100
AcDbLine
 10
-98.629566
 20
-50.055901
 30
0.0
 11
22.59037
 21
-50.055901
 31
0.0
  0
LINE
  5
72
100
AcDbEntity
  8
0
370
    -3
  6
Continuous
100
AcDbLine
 10
-35.328581
 20
-83.555901
 30
0.0
 11
-35.328581
 21
-16.555901
 31
0.0
  0
LINE
  5
73
100
AcDbEntity
  8
0
370
    -3
  6
Continuous
100
AcDbLine
 10
-43.328581
 20
-50.055901
 30
0.0
 11
-43.328581
 21
62.444099
 31
0.0
  0
LINE
  5
74
100
AcDbEntity
  8
0
370
    -3
  6
Continuous
100
AcDbLine
 10
-143.328581
 20
-173.055901
 30
0.0
 11
-143.328581
 21
19.944099
 31
0.0
  0
LINE
  5
75
100
AcDbEntity
  8
0
370
    -3
  6
Continuous
100
AcDbLine
 10
-43.328581
 20
-162.555901
 30
0.0
 11
-57.328581
 21
-162.555901
 31
0.0
  0
LINE
  5
76
100
AcDbEntity
  8
0
370
    -3
  6
Continuous
100
AcDbLine
 10
-37.328581
 20
-50.055901
 30
0.0
 11
-37.328581
 21
-95.209007
 31
0.0
  0
LINE
  5
77
100
AcDbEntity
  8
0
370
    -3
  6
Continuous
100
AcDbLine
 10
-37.328581
 20
-50.055901
 30
0.0
 11
-37.328581
 21
-4.902794
 31
0.0
  0
LINE
  5
78
100
AcDbEntity
  8
0
370
    -3
  6
Continuous
100
AcDbLine
 10
-43.328581
 20
-50.055901
 30
0.0
 11
-43.328581
 21
-162.555901
 31
0.0
  0
ARC
  5
79
100
AcDbEntity
  8
0
370
    -3
  6
Continuous
100
AcDbCircle
 10
-37.328581
 20
-100.40515
 30
0.0
 40
3.0
100
AcDbArc
 50
120.000187
 51
131.810315
  0
ARC
  5
7A
100
AcDbEntity
  8
0
370
    -3
  6
Continuous
100
AcDbCircle
 10
-40.328598
 20
-95.209007
 30
0.0
 40
3.0
100
AcDbArc
 50
300.000187
 51
0.0
  0
ARC
  5
7B
100
AcDbEntity
  8
0
370
    -3
  6
Continuous
100
AcDbCircle
 10
-82.935981
 20
25.054884
 30
0.0
 40
3.0
100
AcDbArc
 50
272.0
 51
330.0
  0
ARC
  5
7C
100
AcDbEntity
  8
0
370
    -3
  6
Continuous
100
AcDbCircle
 10
-51.328581
 20
-165.555901
 30
0.0
 40
3.0
100
AcDbArc
 50
90.0
 51
180.0
  0
ARC
  5
7D
100
AcDbEntity
  8
0
370
    -3
  6
Continuous
100
AcDbCircle
 10
-36.328581
 20
-84.555901
 30
0.0
 40
1.0
100
AcDbArc
 50
90.0
 51
180.0
  0
ARC
  5
7E
100
AcDbEntity
  8
0
370
    -3
  6
Continuous
100
AcDbCircle
 10
-40.328581
 20
-4.902794
 30
0.0
 40
3.0
100
AcDbArc
 50
0.0
 51
70.528779
  0
ARC
  5
7F
100
AcDbEntity
  8
0
370
    -3
  6
Continuous
100
AcDbCircle
 10
-36.328581
 20
-15.555901
 30
0.0
 40
1.0
100
AcDbArc
 50
180.0
 51
270.0
  0
LINE
  5
80
100
AcDbEntity
  8
0
370
    -3
  6
Continuous
100
AcDbLine
 10
-171.328581
 20
54.944099
 30
0.0
 11
-166.828581
 21
54.944099
 31
0.0
  0
LINE
  5
81
100
AcDbEntity
  8
0
370
    -3
  6
CENTER
100
AcDbLine
 10
-177.058829
 20
34.944099
 30
0.0
 11
-158.959563
 21
34.944099
 31
0.0
  0
LINE
  5
82
100
AcDbEntity
  8
0
370
    -3
  6
Continuous
100
AcDbLine
 10
-166.828581
 20
54.944099
 30
0.0
 11
-166.828581
 21
0.944099
 31
0.0
  0
LINE
  5
83
100
AcDbEntity
  8
0
370
    -3
  6
Continuous
100
AcDbLine
 10
-171.328581
 20
0.944099
 30
0.0
 11
-171.328581
 21
54.944099
 31
0.0
  0
LINE
  5
84
100
AcDbEntity
  8
0
370
    -3
  6
Continuous
100
AcDbLine
 10
-171.328581
 20
0.944099
 30
0.0
 11
-166.828581
 21
0.944099
 31
0.0
  0
LINE
  5
85
100
AcDbEntity
  8
0
370
    -3
  6
Continuous
100
AcDbLine
 10
-163.828581
 20
-17.949094
 30
0.0
 11
-163.828581
 21
-4.689971
 31
0.0
  0
ARC
  5
86
100
AcDbEntity
  8
0
370
    -3
  6
Continuous
100
AcDbCircle
 10
-163.828581
 20
1.944099
 30
0.0
 40
3.0
100
AcDbArc
 50
180.0
 51
270.0
  0
LINE
  5
87
100
AcDbEntity
  8
0
370
    -3
  6
Continuous
100
AcDbLine
 10
-178.328581
 20
-100.055901
 30
0.0
 11
-155.828581
 21
-100.055901
 31
0.0
  0
LINE
  5
88
100
AcDbEntity
  8
0
370
    -3
  6
Continuous
100
AcDbLine
 10
-178.328581
 20
-60.055901
 30
0.0
 11
-157.828581
 21
-60.055901
 31
0.0
  0
ARC
  5
89
100
AcDbEntity
  8
0
370
    -3
  6
Continuous
100
AcDbCircle
 10
-157.828581
 20
-45.591799
 30
0.0
 40
2.0
100
AcDbArc
 50
300.0
 51
0.0
  0
ARC
  5
8A
100
AcDbEntity
  8
0
370
    -3
  6
Continuous
100
AcDbCircle
 10
-155.828581
 20
-49.055901
 30
0.0
 40
2.0
100
AcDbArc
 50
120.0
 51
180.0
  0
ARC
  5
8B
100
AcDbEntity
  8
0
370
    -3
  6
Continuous
100
AcDbCircle
 10
-157.828581
 20
-64.520002
 30
0.0
 40
2.0
100
AcDbArc
 50
0.0
 51
60.0
  0
ARC
  5
8C
100
AcDbEntity
  8
0
370
    -3
  6
Continuous
100
AcDbCircle
 10
-155.828581
 20
-61.055901
 30
0.0
 40
2.0
100
AcDbArc
 50
180.0
 51
240.0
  0
LINE
  5
8D
100
AcDbEntity
  8
0
370
    -3
  6
Continuous
100
AcDbLine
 10
-157.828581
 20
-49.055901
 30
0.0
 11
-157.828581
 21
-61.055901
 31
0.0
  0
ARC
  5
8E
100
AcDbEntity
  8
0
370
    -3
  6
Continuous
100
AcDbCircle
 10
-158.828581
 20
-17.529832
 30
0.0
 40
3.0
100
AcDbArc
 50
273.0
 51
0.0
  0
LINE
  5
8F
100
AcDbEntity
  8
0
370
    -3
  6
Continuous
100
AcDbLine
 10
-155.828581
 20
16.944099
 30
0.0
 11
-155.828581
 21
-45.591799
 31
0.0
  0
LINE
  5
90
100
AcDbEntity
  8
0
370
    -3
  6
Continuous
100
AcDbLine
 10
-143.828581
 20
-80.055901
 30
0.0
 11
-143.828581
 21
19.944099
 31
0.0
  0
LINE
  5
91
100
AcDbEntity
  8
0
370
    -3
  6
Continuous
100
AcDbLine
 10
-143.828581
 20
-80.055901
 30
0.0
 11
-143.828581
 21
-173.055901
 31
0.0
  0
LINE
  5
92
100
AcDbEntity
  8
0
370
    -3
  6
Continuous
100
AcDbLine
 10
-178.328581
 20
-80.055901
 30
0.0
 11
-178.328581
 21
-141.548795
 31
0.0
  0
LINE
  5
93
100
AcDbEntity
  8
0
370
    -3
  6
Continuous
100
AcDbLine
 10
-178.328581
 20
-80.055901
 30
0.0
 11
-178.328581
 21
-21.555901
 31
0.0
  0
LINE
  5
94
100
AcDbEntity
  8
0
370
    -3
  6
Continuous
100
AcDbLine
 10
-158.671573
 20
-20.52572
 30
0.0
 11
-178.328581
 21
-21.555901
 31
0.0
  0
ARC
  5
95
100
AcDbEntity
  8
0
370
    -3
  6
Continuous
100
AcDbCircle
 10
-158.828581
 20
-145.574864
 30
0.0
 40
3.0
100
AcDbArc
 50
0.0
 51
87.0
  0
ARC
  5
96
100
AcDbEntity
  8
0
370
    -3
  6
Continuous
100
AcDbCircle
 10
-166.828581
 20
-17.949094
 30
0.0
 40
3.0
100
AcDbArc
 50
273.0
 51
0.0
  0
ARC
  5
97
100
AcDbEntity
  8
0
370
    -3
  6
Continuous
100
AcDbCircle
 10
-163.828581
 20
16.944099
 30
0.0
 40
3.0
100
AcDbArc
 50
90.0
 51
180.0
  0
ARC
  5
98
100
AcDbEntity
  8
0
370
    -3
  6
Continuous
100
AcDbCircle
 10
-152.828581
 20
16.944099
 30
0.0
 40
3.0
100
AcDbArc
 50
90.0
 51
180.0
  0
LINE
  5
99
100
AcDbEntity
  8
0
370
    -3
  6
Continuous
100
AcDbLine
 10
-178.328581
 20
-141.548795
 30
0.0
 11
-158.671573
 21
-142.578975
 31
0.0
  0
LINE
  5
9A
100
AcDbEntity
  8
0
370
    -3
  6
Continuous
100
AcDbLine
 10
-143.328581
 20
19.944099
 30
0.0
 11
-163.828581
 21
19.944099
 31
0.0
  0
LINE
  5
9B
100
AcDbEntity
  8
0
370
    -3
  6
CENTER
100
AcDbLine
 10
-134.746502
 20
-80.055901
 30
0.0
 11
-191.091702
 21
-80.055901
 31
0.0
  0
LINE
  5
9C
100
AcDbEntity
  8
0
370
    -3
  6
Continuous
100
AcDbLine
 10
-166.828581
 20
1.944099
 30
0.0
 11
-166.828581
 21
16.944099
 31
0.0
  0
LINE
  5
9D
100
AcDbEntity
  8
0
370
    -3
  6
Continuous
100
AcDbLine
 10
-155.828581
 20
-64.520002
 30
0.0
 11
-155.828581
 21
-171.055901
 31
0.0
  0
ARC
  5
9E
100
AcDbEntity
  8
0
370
    -3
  6
Continuous
100
AcDbCircle
 10
-185.328581
 20
-135.184929
 30
0.0
 40
3.0
100
AcDbArc
 50
180.0
 51
267.0
  0
ARC
  5
9F
100
AcDbEntity
  8
0
370
    -3
  6
Continuous
100
AcDbCircle
 10
-191.328581
 20
-111.571282
 30
0.0
 40
3.0
100
AcDbArc
 50
0.0
 51
89.0
  0
ARC
  5
A0
100
AcDbEntity
  8
0
370
    -3
  6
Continuous
100
AcDbCircle
 10
-183.328581
 20
-7.349798
 30
0.0
 40
3.0
100
AcDbArc
 50
0.0
 51
88.0
  0
ARC
  5
A1
100
AcDbEntity
  8
0
370
    -3
  6
Continuous
100
AcDbCircle
 10
-186.824013
 20
-135.106557
 30
0.0
 40
3.0
100
AcDbArc
 50
220.0
 51
267.0
  0
ARC
  5
A2
100
AcDbEntity
  8
0
370
    -3
  6
Continuous
100
AcDbCircle
 10
-178.328581
 20
-19.555901
 30
0.0
 40
2.0
100
AcDbArc
 50
180.0
 51
270.0
  0
LINE
  5
A3
100
AcDbEntity
  8
0
370
    -3
  6
Continuous
100
AcDbLine
 10
-178.328581
 20
-138.555901
 30
0.0
 11
-186.98102
 21
-138.102445
 31
0.0
  0
LINE
  5
A4
100
AcDbEntity
  8
0
370
    -3
  6
Continuous
100
AcDbLine
 10
-212.449776
 20
-109.234133
 30
0.0
 11
-189.122146
 21
-137.03492
 31
0.0
  0
LINE
  5
A5
100
AcDbEntity
  8
0
370
    -3
  6
Continuous
100
AcDbLine
 10
-180.328581
 20
-19.555901
 30
0.0
 11
-180.328581
 21
-7.349798
 31
0.0
  0
LINE
  5
A6
100
AcDbEntity
  8
0
370
    -3
  6
CENTER
100
AcDbLine
 10
-194.328581
 20
-25.123251
 30
0.0
 11
-194.328581
 21
-0.66011
 31
0.0
  0
LINE
  5
A7
100
AcDbEntity
  8
0
370
    -3
  6
Continuous
100
AcDbLine
 10
-191.276209
 20
-108.571739
 30
0.0
 11
-220.328566
 21
-108.064628
 31
0.0
  0
LINE
  5
A8
100
AcDbEntity
  8
0
370
    -3
  6
Continuous
100
AcDbLine
 10
-183.223883
 20
-4.351626
 30
0.0
 11
-220.328597
 21
-3.055901
 31
0.0
  0
LINE
  5
A9
100
AcDbEntity
  8
0
370
    -3
  6
Continuous
100
AcDbLine
 10
-178.328581
 20
-136.355901
 30
0.0
 11
-178.328581
 21
-138.555901
 31
0.0
  0
ARC
  5
AA
100
AcDbEntity
  8
0
370
    -3
  6
Continuous
100
AcDbCircle
 10
-210.328566
 20
-8.460537
 30
0.0
 40
5.0
100
AcDbArc
 50
0.0
 51
88.0
  0
LINE
  5
AB
100
AcDbEntity
  8
0
370
    -3
  6
Continuous
100
AcDbLine
 10
-178.328581
 20
-21.555901
 30
0.0
 11
-200.590261
 21
-20.389215
 31
0.0
  0
ARC
  5
AC
100
AcDbEntity
  8
0
370
    -3
  6
Continuous
100
AcDbCircle
 10
-185.328581
 20
-24.193163
 30
0.0
 40
3.0
100
AcDbArc
 50
87.0
 51
180.0
  0
ARC
  5
AD
100
AcDbEntity
  8
0
370
    -3
  6
Continuous
100
AcDbCircle
 10
-186.328581
 20
-119.250074
 30
0.0
 40
2.0
100
AcDbArc
 50
0.0
 51
90.0
  0
ARC
  5
AE
100
AcDbEntity
  8
0
370
    -3
  6
Continuous
100
AcDbCircle
 10
-186.328581
 20
-115.250074
 30
0.0
 40
2.0
100
AcDbArc
 50
180.0
 51
270.0
  0
LINE
  5
AF
100
AcDbEntity
  8
0
370
    -3
  6
Continuous
100
AcDbLine
 10
-184.328581
 20
-136.343525
 30
0.0
 11
-184.328581
 21
-119.250074
 31
0.0
  0
ARC
  5
B0
100
AcDbEntity
  8
0
370
    -3
  6
Continuous
100
AcDbCircle
 10
-182.328581
 20
-136.343525
 30
0.0
 40
2.0
100
AcDbArc
 50
180.0
 51
267.0
  0
ARC
  5
B1
100
AcDbEntity
  8
0
370
    -3
  6
Continuous
100
AcDbCircle
 10
-182.328581
 20
-23.349014
 30
0.0
 40
2.0
100
AcDbArc
 50
87.0
 51
180.0
  0
ARC
  5
B2
100
AcDbEntity
  8
0
370
    -3
  6
Continuous
100
AcDbCircle
 10
-206.328581
 20
-43.593778
 30
0.0
 40
1.0
100
AcDbArc
 50
0.0
 51
60.0
  0
ARC
  5
B3
100
AcDbEntity
  8
0
370
    -3
  6
Continuous
100
AcDbCircle
 10
-200.328581
 20
-15.396068
 30
0.0
 40
5.0
100
AcDbArc
 50
180.0
 51
267.0
  0
LINE
  5
B4
100
AcDbEntity
  8
0
370
    -3
  6
Continuous
100
AcDbLine
 10
-205.328581
 20
-18.624102
 30
0.0
 11
-205.328581
 21
-8.460537
 31
0.0
  0
ARC
  5
B5
100
AcDbEntity
  8
0
370
    -3
  6
Continuous
100
AcDbCircle
 10
-206.328581
 20
-18.624102
 30
0.0
 40
1.0
100
AcDbArc
 50
300.0
 51
0.0
  0
LINE
  5
B6
100
AcDbEntity
  8
0
370
    -3
  6
Continuous
100
AcDbLine
 10
-188.328581
 20
-135.184929
 30
0.0
 11
-188.328581
 21
-128.850052
 31
0.0
  0
LINE
  5
B7
100
AcDbEntity
  8
0
370
    -3
  6
Continuous
100
AcDbLine
 10
-188.328581
 20
-100.055901
 30
0.0
 11
-178.328581
 21
-100.055901
 31
0.0
  0
LINE
  5
B8
100
AcDbEntity
  8
0
370
    -3
  6
Continuous
100
AcDbLine
 10
-178.328581
 20
-136.355901
 30
0.0
 11
-178.328581
 21
-21.555901
 31
0.0
  0
LINE
  5
B9
100
AcDbEntity
  8
0
370
    -3
  6
Continuous
100
AcDbLine
 10
-188.328581
 20
-60.055901
 30
0.0
 11
-178.328581
 21
-60.055901
 31
0.0
  0
LINE
  5
BA
100
AcDbEntity
  8
0
370
    -3
  6
Continuous
100
AcDbLine
 10
-191.328581
 20
-75.555901
 30
0.0
 11
-213.431112
 21
-75.555901
 31
0.0
  0
LINE
  5
BB
100
AcDbEntity
  8
0
370
    -3
  6
Continuous
100
AcDbLine
 10
-205.328581
 20
-45.997939
 30
0.0
 11
-205.328581
 21
-43.593778
 31
0.0
  0
ARC
  5
BC
100
AcDbEntity
  8
0
370
    -3
  6
Continuous
100
AcDbCircle
 10
-202.328581
 20
-45.997939
 30
0.0
 40
3.0
100
AcDbArc
 50
180.0
 51
270.0
  0
ARC
  5
BD
100
AcDbEntity
  8
0
370
    -3
  6
Continuous
100
AcDbCircle
 10
-191.328581
 20
-45.997939
 30
0.0
 40
3.0
100
AcDbArc
 50
270.0
 51
0.0
  0
LINE
  5
BE
100
AcDbEntity
  8
0
370
    -3
  6
Continuous
100
AcDbLine
 10
-187.328581
 20
-48.997939
 30
0.0
 11
-202.328581
 21
-48.997939
 31
0.0
  0
ARC
  5
BF
100
AcDbEntity
  8
0
370
    -3
  6
Continuous
100
AcDbCircle
 10
-187.328581
 20
-45.997939
 30
0.0
 40
3.0
100
AcDbArc
 50
270.0
 51
0.0
  0
LINE
  5
C0
100
AcDbEntity
  8
0
370
    -3
  6
Continuous
100
AcDbLine
 10
-184.328581
 20
-45.997939
 30
0.0
 11
-184.328581
 21
-23.349014
 31
0.0
  0
LINE
  5
C1
100
AcDbEntity
  8
0
370
    -3
  6
Continuous
100
AcDbLine
 10
-188.328581
 20
-128.850052
 30
0.0
 11
-188.328581
 21
-50.896918
 31
0.0
  0
ARC
  5
C2
100
AcDbEntity
  8
0
370
    -3
  6
Continuous
100
AcDbCircle
 10
-186.328581
 20
-50.896918
 30
0.0
 40
2.0
100
AcDbArc
 50
101.536959
 51
180.0
  0
LINE
  5
C3
100
AcDbEntity
  8
0
370
    -3
  6
Continuous
100
AcDbLine
 10
-188.328581
 20
-45.997939
 30
0.0
 11
-188.328581
 21
-40.461705
 31
0.0
  0
LINE
  5
C4
100
AcDbEntity
  8
0
370
    -3
  6
Continuous
100
AcDbLine
 10
-188.328581
 20
-40.461705
 30
0.0
 11
-188.328581
 21
-24.193163
 31
0.0
  0
ARC
  5
C5
100
AcDbEntity
  8
0
370
    -3
  6
Continuous
100
AcDbCircle
 10
-191.328581
 20
-78.555901
 30
0.0
 40
3.0
100
AcDbArc
 50
0.0
 51
90.0
  0
LINE
  5
C6
100
AcDbEntity
  8
0
370
    -3
  6
Continuous
100
AcDbLine
 10
-143.328581
 20
-173.055901
 30
0.0
 11
-57.413853
 21
-175.49891
 31
0.0
  0
ARC
  5
C7
100
AcDbEntity
  8
0
370
    -3
  6
Continuous
100
AcDbCircle
 10
-57.328581
 20
-172.500122
 30
0.0
 40
3.0
100
AcDbArc
 50
268.371218
 51
0.0
  0
ARC
  5
C8
100
AcDbEntity
  8
0
370
    -3
  6
Continuous
100
AcDbCircle
 10
-153.828581
 20
-171.055901
 30
0.0
 40
2.0
100
AcDbArc
 50
180.0
 51
270.0
  0
LINE
  5
C9
100
AcDbEntity
  8
0
370
    -3
  6
Continuous
100
AcDbLine
 10
-143.328581
 20
-173.055901
 30
0.0
 11
-153.828581
 21
-173.055901
 31
0.0
  0
INSERT
  5
D5
100
AcDbEntity
  8
0
100
AcDbBlockReference
  2
ZU_SYM__USERS_HOME_SYMBOL_POO_SYM_B20_-1
 10
-171.328581
 20
10.944099
 30
0.0
  0
INSERT
  5
E1
100
AcDbEntity
  8
0
100
AcDbBlockReference
  2
ZU_SYM__USERS_HOME_SYMBOL_POO_SYM_B20_00001-1
 10
-155.828581
 20
0.944099
 30
0.0
  0
INSERT
  5
F1
100
AcDbEntity
  8
0
100
AcDbBlockReference
  2
ZU_SYM__USERS_HOME_SYMBOL_STD_SYM_B01_-1
 10
-184.328581
 20
-35.861727
 30
0.0
  0
INSERT
  5
FD
100
AcDbEntity
  8
0
100
AcDbBlockReference
  2
ZU_SYM__USERS_HOME_SYMBOL_POO_SYM_B20_00002-1
 10
-155.828581
 20
-75.055901
 30
0.0
  0
INSERT
  5
10D
100
AcDbEntity
  8
0
100
AcDbBlockReference
  2
ZU_SYM__USERS_HOME_SYMBOL_STD_SYM_B01_00003-1
 10
-184.328581
 20
-124.250074
 30
0.0
  0
INSERT
  5
119
100
AcDbEntity
  8
0
100
AcDbBlockReference
  2
ZU_SYM__USERS_HOME_SYMBOL_POO_SYM_B20_00004-1
 10
-155.828581
 20
-163.055901
 30
0.0
  0
LINE
  5
11A
100
AcDbEntity
  8
0
370
    -3
  6
Continuous
100
AcDbLine
 10
-220.328581
 20
-3.055901
 30
0.0
 11
-220.328581
 21
-8.808292
 31
0.0
  0
LINE
  5
11B
100
AcDbEntity
  8
0
370
    -3
  6
Continuous
100
AcDbLine
 10
-220.328581
 20
-108.055901
 30
0.0
 11
-220.328581
 21
-102.355901
 31
0.0
  0
LINE
  5
11C
100
AcDbEntity
  8
0
370
    -3
  6
DASHED
100
AcDbLine
 10
94.642569
 20
-53.055901
 30
0.0
 11
94.142567
 21
-53.055901
 31
0.0
  0
LINE
  5
11D
100
AcDbEntity
  8
0
370
    -3
  6
CENTER
100
AcDbLine
 10
221.98555
 20
-55.555901
 30
0.0
 11
156.395666
 21
-55.555901
 31
0.0
  0
ARC
  5
11E
100
AcDbEntity
  8
0
370
    -3
  6
CENTER
100
AcDbCircle
 10
186.142567
 20
-50.055901
 30
0.0
 40
140.0
100
AcDbArc
 50
218.434015
 51
230.97692
  0
LINE
  5
11F
100
AcDbEntity
  8
0
370
    -3
  6
CENTER
100
AcDbLine
 10
77.642567
 20
-158.555901
 30
0.0
 11
96.567735
 21
-139.630733
 31
0.0
  0
ARC
  5
120
100
AcDbEntity
  8
0
370
    -3
  6
CENTER
100
AcDbCircle
 10
186.142567
 20
-50.055901
 30
0.0
 40
140.0
100
AcDbArc
 50
309.02308
 51
321.565985
  0
LINE
  5
121
100
AcDbEntity
  8
0
370
    -3
  6
CENTER
100
AcDbLine
 10
294.642567
 20
-158.555901
 30
0.0
 11
275.717399
 21
-139.630733
 31
0.0
  0
ARC
  5
122
100
AcDbEntity
  8
0
370
    -3
  6
CENTER
100
AcDbCircle
 10
186.142567
 20
-50.055901
 30
0.0
 40
140.0
100
AcDbArc
 50
38.434015
 51
50.97692
  0
LINE
  5
123
100
AcDbEntity
  8
0
370
    -3
  6
CENTER
100
AcDbLine
 10
294.642567
 20
58.444099
 30
0.0
 11
275.717399
 21
39.518931
 31
0.0
  0
CIRCLE
  5
124
100
AcDbEntity
  8
0
370
    -3
  6
Continuous
100
AcDbCircle
 10
186.142567
 20
-50.055901
 30
0.0
 40
23.5
  0
CIRCLE
  5
125
100
AcDbEntity
  8
0
370
    -3
  6
Continuous
100
AcDbCircle
 10
186.142567
 20
-50.055901
 30
0.0
 40
48.0
  0
ARC
  5
126
100
AcDbEntity
  8
0
370
    -3
  6
Continuous
100
AcDbCircle
 10
278.257791
 20
-160.555901
 30
0.0
 40
2.0
100
AcDbArc
 50
225.0
 51
270.0
  0
CIRCLE
  5
127
100
AcDbEntity
  8
0
370
    -3
  6
Continuous
100
AcDbCircle
 10
285.137516
 20
-149.05085
 30
0.0
 40
7.5
  0
ARC
  5
128
100
AcDbEntity
  8
0
370
    -3
  6
Continuous
100
AcDbCircle
 10
296.642567
 20
-142.171124
 30
0.0
 40
2.0
100
AcDbArc
 50
0.0
 51
45.0
  0
ARC
  5
129
100
AcDbEntity
  8
0
370
    -3
  6
Continuous
100
AcDbCircle
 10
251.455861
 20
-150.724534
 30
0.0
 40
10.0
100
AcDbArc
 50
45.0
 51
122.975301
  0
ARC
  5
12A
100
AcDbEntity
  8
0
370
    -3
  6
Continuous
100
AcDbCircle
 10
186.142567
 20
-50.055901
 30
0.0
 40
110.0
100
AcDbArc
 50
270.0
 51
302.975301
  0
ARC
  5
12B
100
AcDbEntity
  8
0
370
    -3
  6
Continuous
100
AcDbCircle
 10
286.8112
 20
-115.369194
 30
0.0
 40
10.0
100
AcDbArc
 50
147.024699
 51
225.0
  0
ARC
  5
12C
100
AcDbEntity
  8
0
370
    -3
  6
Continuous
100
AcDbCircle
 10
94.027343
 20
-160.555901
 30
0.0
 40
2.0
100
AcDbArc
 50
270.0
 51
315.0
  0
CIRCLE
  5
12D
100
AcDbEntity
  8
0
370
    -3
  6
Continuous
100
AcDbCircle
 10
87.147618
 20
-149.05085
 30
0.0
 40
7.5
  0
ARC
  5
12E
100
AcDbEntity
  8
0
370
    -3
  6
Continuous
100
AcDbCircle
 10
75.642567
 20
-142.171124
 30
0.0
 40
2.0
100
AcDbArc
 50
135.0
 51
180.0
  0
ARC
  5
12F
100
AcDbEntity
  8
0
370
    -3
  6
Continuous
100
AcDbCircle
 10
120.829273
 20
-150.724534
 30
0.0
 40
10.0
100
AcDbArc
 50
57.024699
 51
135.0
  0
ARC
  5
130
100
AcDbEntity
  8
0
370
    -3
  6
Continuous
100
AcDbCircle
 10
186.142567
 20
-50.055901
 30
0.0
 40
110.0
100
AcDbArc
 50
237.024699
 51
270.0
  0
ARC
  5
131
100
AcDbEntity
  8
0
370
    -3
  6
Continuous
100
AcDbCircle
 10
85.473934
 20
-115.369194
 30
0.0
 40
10.0
100
AcDbArc
 50
315.0
 51
32.975301
  0
ARC
  5
132
100
AcDbEntity
  8
0
370
    -3
  6
Continuous
100
AcDbCircle
 10
94.027343
 20
60.444099
 30
0.0
 40
2.0
100
AcDbArc
 50
45.0
 51
90.0
  0
CIRCLE
  5
133
100
AcDbEntity
  8
0
370
    -3
  6
Continuous
100
AcDbCircle
 10
87.147618
 20
48.939049
 30
0.0
 40
7.5
  0
ARC
  5
134
100
AcDbEntity
  8
0
370
    -3
  6
CENTER
100
AcDbCircle
 10
186.142567
 20
-50.055901
 30
0.0
 40
140.0
100
AcDbArc
 50
129.02308
 51
141.565985
  0
ARC
  5
135
100
AcDbEntity
  8
0
370
    -3
  6
Continuous
100
AcDbCircle
 10
75.642567
 20
42.059323
 30
0.0
 40
2.0
100
AcDbArc
 50
180.0
 51
225.0
  0
ARC
  5
136
100
AcDbEntity
  8
0
370
    -3
  6
Continuous
100
AcDbCircle
 10
120.829273
 20
50.612732
 30
0.0
 40
10.0
100
AcDbArc
 50
225.0
 51
302.975301
  0
ARC
  5
137
100
AcDbEntity
  8
0
370
    -3
  6
Continuous
100
AcDbCircle
 10
186.142567
 20
-50.055901
 30
0.0
 40
110.0
100
AcDbArc
 50
90.0
 51
122.975301
  0
ARC
  5
138
100
AcDbEntity
  8
0
370
    -3
  6
Continuous
100
AcDbCircle
 10
85.473934
 20
15.257393
 30
0.0
 40
10.0
100
AcDbArc
 50
327.024699
 51
45.0
  0
ARC
  5
139
100
AcDbEntity
  8
0
370
    -3
  6
Continuous
100
AcDbCircle
 10
81.642567
 20
54.444099
 30
0.0
 40
8.0
100
AcDbArc
 50
90.0
 51
180.0
  0
ARC
  5
13A
100
AcDbEntity
  8
0
370
    -3
  6
Continuous
100
AcDbCircle
 10
290.642567
 20
-154.555901
 30
0.0
 40
8.0
100
AcDbArc
 50
270.0
 51
0.0
  0
ARC
  5
13B
100
AcDbEntity
  8
0
370
    -3
  6
Continuous
100
AcDbCircle
 10
81.642567
 20
-154.555901
 30
0.0
 40
8.0
100
AcDbArc
 50
180.0
 51
270.0
  0
CIRCLE
  5
13C
100
AcDbEntity
  8
0
370
    -3
  6
Continuous
100
AcDbCircle
 10
186.142567
 20
-50.055901
 30
0.0
 40
99.0
  0
ARC
  5
13D
100
AcDbEntity
  8
0
370
    -3
  6
Continuous
100
AcDbCircle
 10
296.642567
 20
42.059323
 30
0.0
 40
2.0
100
AcDbArc
 50
315.0
 51
0.0
  0
ARC
  5
13E
100
AcDbEntity
  8
0
370
    -3
  6
Continuous
100
AcDbCircle
 10
278.257791
 20
60.444099
 30
0.0
 40
2.0
100
AcDbArc
 50
90.0
 51
135.0
  0
CIRCLE
  5
13F
100
AcDbEntity
  8
0
370
    -3
  6
Continuous
100
AcDbCircle
 10
285.137516
 20
48.939049
 30
0.0
 40
7.5
  0
ARC
  5
140
100
AcDbEntity
  8
0
370
    -3
  6
Continuous
100
AcDbCircle
 10
290.642567
 20
54.444099
 30
0.0
 40
8.0
100
AcDbArc
 50
0.0
 51
90.0
  0
CIRCLE
  5
141
100
AcDbEntity
  8
0
370
    -3
  6
Continuous
100
AcDbCircle
 10
186.142567
 20
-50.055901
 30
0.0
 40
105.0
  0
ARC
  5
142
100
AcDbEntity
  8
0
370
    -3
  6
Continuous
100
AcDbCircle
 10
286.8112
 20
15.257393
 30
0.0
 40
10.0
100
AcDbArc
 50
135.0
 51
212.975301
  0
ARC
  5
143
100
AcDbEntity
  8
0
370
    -3
  6
Continuous
100
AcDbCircle
 10
251.455861
 20
50.612732
 30
0.0
 40
10.0
100
AcDbArc
 50
237.024699
 51
315.0
  0
ARC
  5
144
100
AcDbEntity
  8
0
370
    -3
  6
Continuous
100
AcDbCircle
 10
186.142567
 20
-50.055901
 30
0.0
 40
110.0
100
AcDbArc
 50
57.024699
 51
90.0
  0
ARC
  5
145
100
AcDbEntity
  8
0
370
    -3
  6
Continuous
100
AcDbCircle
 10
238.142567
 20
-163.055901
 30
0.0
 40
12.566441
100
AcDbArc
 50
270.0
 51
358.21823
  0
ARC
  5
146
100
AcDbEntity
  8
0
370
    -3
  6
Continuous
100
AcDbCircle
 10
134.142567
 20
-163.055901
 30
0.0
 40
12.53074
100
AcDbArc
 50
181.78177
 51
270.0
  0
ARC
  5
147
100
AcDbEntity
  8
0
370
    -3
  6
Continuous
100
AcDbCircle
 10
256.133864
 20
-163.61557
 30
0.0
 40
5.433559
100
AcDbArc
 50
168.753929
 51
178.21823
  0
ARC
  5
148
100
AcDbEntity
  8
0
370
    -3
  6
Continuous
100
AcDbCircle
 10
116.15127
 20
-163.61557
 30
0.0
 40
5.46926
100
AcDbArc
 50
1.78177
 51
11.246071
  0
CIRCLE
  5
149
100
AcDbEntity
  8
0
370
    -3
  6
Continuous
100
AcDbCircle
 10
186.142567
 20
-50.055901
 30
0.0
 40
33.5
  0
ARC
  5
14A
100
AcDbEntity
  8
0
370
    -3
  6
Continuous
100
AcDbCircle
 10
272.281779
 20
-87.686156
 30
0.0
 40
5.0
100
AcDbArc
 50
336.401698
 51
0.0
  0
ARC
  5
14B
100
AcDbEntity
  8
0
370
    -3
  6
Continuous
100
AcDbCircle
 10
100.003355
 20
-87.686156
 30
0.0
 40
5.0
100
AcDbArc
 50
180.0
 51
203.598302
  0
ARC
  5
14C
100
AcDbEntity
  8
0
370
    -3
  6
Continuous
100
AcDbCircle
 10
150.585391
 20
-89.35841
 30
0.0
 40
5.0
100
AcDbArc
 50
307.256131
 51
47.864198
  0
ARC
  5
14D
100
AcDbEntity
  8
0
370
    -3
  6
Continuous
100
AcDbCircle
 10
172.98442
 20
-118.808087
 30
0.0
 40
32.0
100
AcDbArc
 50
127.256131
 51
198.872129
  0
ARC
  5
14E
100
AcDbEntity
  8
0
370
    -3
  6
Continuous
100
AcDbCircle
 10
137.973436
 20
-130.776002
 30
0.0
 40
5.0
100
AcDbArc
 50
239.173668
 51
18.872129
  0
ARC
  5
14F
100
AcDbEntity
  8
0
370
    -3
  6
Continuous
100
AcDbCircle
 10
224.936839
 20
-108.322567
 30
0.0
 40
27.0
100
AcDbArc
 50
353.114296
 51
77.708023
  0
ARC
  5
150
100
AcDbEntity
  8
0
370
    -3
  6
Continuous
100
AcDbCircle
 10
231.749434
 20
-77.056155
 30
0.0
 40
5.0
100
AcDbArc
 50
149.373547
 51
257.708023
  0
ARC
  5
151
100
AcDbEntity
  8
0
370
    -3
  6
Continuous
100
AcDbCircle
 10
256.706032
 20
-112.159019
 30
0.0
 40
5.0
100
AcDbArc
 50
173.114296
 51
318.648897
  0
ARC
  5
152
100
AcDbEntity
  8
0
370
    -3
  6
Continuous
100
AcDbCircle
 10
234.581015
 20
-71.566753
 30
0.0
 40
5.0
100
AcDbArc
 50
156.054647
 51
255.297859
  0
ARC
  5
153
100
AcDbEntity
  8
0
370
    -3
  6
Continuous
100
AcDbCircle
 10
224.936839
 20
-108.322567
 30
0.0
 40
33.0
100
AcDbArc
 50
5.724046
 51
75.297859
  0
ARC
  5
154
100
AcDbEntity
  8
0
370
    -3
  6
Continuous
100
AcDbCircle
 10
262.747364
 20
-104.532548
 30
0.0
 40
5.0
100
AcDbArc
 50
185.724046
 51
324.581889
  0
ARC
  5
155
100
AcDbEntity
  8
0
370
    -3
  6
Continuous
100
AcDbCircle
 10
146.342851
 20
-85.055653
 30
0.0
 40
5.0
100
AcDbArc
 50
308.284839
 51
41.328302
  0
ARC
  5
156
100
AcDbEntity
  8
0
370
    -3
  6
Continuous
100
AcDbCircle
 10
172.98442
 20
-118.808087
 30
0.0
 40
38.0
100
AcDbArc
 50
128.284839
 51
189.4497
  0
ARC
  5
157
100
AcDbEntity
  8
0
370
    -3
  6
Continuous
100
AcDbCircle
 10
130.567925
 20
-125.867899
 30
0.0
 40
5.0
100
AcDbArc
 50
233.756398
 51
9.4497
  0
ARC
  5
158
100
AcDbEntity
  8
0
370
    -3
  6
Continuous
100
AcDbCircle
 10
135.496738
 20
-44.055901
 30
0.0
 40
3.0
100
AcDbArc
 50
270.0
 51
353.243673
  0
ARC
  5
159
100
AcDbEntity
  8
0
370
    -3
  6
Continuous
100
AcDbCircle
 10
135.496738
 20
-56.055901
 30
0.0
 40
3.0
100
AcDbArc
 50
6.756327
 51
90.0
  0
ARC
  5
15A
100
AcDbEntity
  8
0
370
    -3
  6
Continuous
100
AcDbCircle
 10
90.33025
 20
-56.055901
 30
0.0
 40
3.0
100
AcDbArc
 50
90.0
 51
183.583322
  0
ARC
  5
15B
100
AcDbEntity
  8
0
370
    -3
  6
Continuous
100
AcDbCircle
 10
90.33025
 20
-44.055901
 30
0.0
 40
3.0
100
AcDbArc
 50
176.416678
 51
270.0
  0
ARC
  5
15C
100
AcDbEntity
  8
0
370
    -3
  6
Continuous
100
AcDbCircle
 10
172.142567
 20
-60.289299
 30
0.0
 40
77.139212
100
AcDbArc
 50
91.910213
 51
165.359523
  0
ARC
  5
15D
100
AcDbEntity
  8
0
370
    -3
  6
Continuous
100
AcDbCircle
 10
102.345654
 20
-42.055901
 30
0.0
 40
5.0
100
AcDbArc
 50
165.359523
 51
270.0
  0
ARC
  5
15E
100
AcDbEntity
  8
0
370
    -3
  6
Continuous
100
AcDbCircle
 10
172.142567
 20
-60.289299
 30
0.0
 40
77.139212
100
AcDbArc
 50
178.225864
 51
180.0
  0
ARC
  5
15F
100
AcDbEntity
  8
0
370
    -3
  6
Continuous
100
AcDbCircle
 10
100.037936
 20
-58.055901
 30
0.0
 40
5.0
100
AcDbArc
 50
90.0
 51
178.225864
  0
ARC
  5
160
100
AcDbEntity
  8
0
370
    -3
  6
Continuous
100
AcDbCircle
 10
272.247198
 20
-58.055901
 30
0.0
 40
5.0
100
AcDbArc
 50
1.774136
 51
90.0
  0
ARC
  5
161
100
AcDbEntity
  8
0
370
    -3
  6
Continuous
100
AcDbCircle
 10
269.93948
 20
-42.055901
 30
0.0
 40
5.0
100
AcDbArc
 50
270.0
 51
14.640477
  0
ARC
  5
162
100
AcDbEntity
  8
0
370
    -3
  6
Continuous
100
AcDbCircle
 10
281.954883
 20
-56.055901
 30
0.0
 40
3.0
100
AcDbArc
 50
356.416678
 51
90.0
  0
ARC
  5
163
100
AcDbEntity
  8
0
370
    -3
  6
Continuous
100
AcDbCircle
 10
281.954883
 20
-44.055901
 30
0.0
 40
3.0
100
AcDbArc
 50
270.0
 51
3.583322
  0
ARC
  5
164
100
AcDbEntity
  8
0
370
    -3
  6
Continuous
100
AcDbCircle
 10
236.788396
 20
-44.055901
 30
0.0
 40
3.0
100
AcDbArc
 50
186.756327
 51
270.0
  0
ARC
  5
165
100
AcDbEntity
  8
0
370
    -3
  6
Continuous
100
AcDbCircle
 10
236.788396
 20
-56.055901
 30
0.0
 40
3.0
100
AcDbArc
 50
90.0
 51
173.243673
  0
ARC
  5
166
100
AcDbEntity
  8
0
370
    -3
  6
Continuous
100
AcDbCircle
 10
200.142567
 20
-60.289299
 30
0.0
 40
77.139212
100
AcDbArc
 50
0.0
 51
1.774136
  0
ARC
  5
167
100
AcDbEntity
  8
0
370
    -3
  6
Continuous
100
AcDbCircle
 10
180.142567
 20
0.589928
 30
0.0
 40
3.0
100
AcDbArc
 50
276.756327
 51
0.0
  0
ARC
  5
168
100
AcDbEntity
  8
0
370
    -3
  6
Continuous
100
AcDbCircle
 10
192.142567
 20
0.589928
 30
0.0
 40
3.0
100
AcDbArc
 50
180.0
 51
263.243673
  0
ARC
  5
169
100
AcDbEntity
  8
0
370
    -3
  6
Continuous
100
AcDbCircle
 10
192.142567
 20
45.756416
 30
0.0
 40
3.0
100
AcDbArc
 50
86.416678
 51
180.0
  0
ARC
  5
16A
100
AcDbEntity
  8
0
370
    -3
  6
Continuous
100
AcDbCircle
 10
180.142567
 20
45.756416
 30
0.0
 40
3.0
100
AcDbArc
 50
0.0
 51
93.583322
  0
ARC
  5
16B
100
AcDbEntity
  8
0
370
    -3
  6
Continuous
100
AcDbCircle
 10
186.142567
 20
-480.055901
 30
0.0
 40
497.139212
100
AcDbArc
 50
88.089787
 51
89.304279
  0
ARC
  5
16C
100
AcDbEntity
  8
0
370
    -3
  6
Continuous
100
AcDbCircle
 10
192.142567
 20
14.046883
 30
0.0
 40
3.0
100
AcDbArc
 50
89.304279
 51
180.0
  0
ARC
  5
16D
100
AcDbEntity
  8
0
370
    -3
  6
Continuous
100
AcDbCircle
 10
186.142567
 20
-480.055901
 30
0.0
 40
497.139212
100
AcDbArc
 50
90.695721
 51
91.910213
  0
ARC
  5
16E
100
AcDbEntity
  8
0
370
    -3
  6
Continuous
100
AcDbCircle
 10
180.142567
 20
14.046883
 30
0.0
 40
3.0
100
AcDbArc
 50
0.0
 51
90.695721
  0
ARC
  5
16F
100
AcDbEntity
  8
0
370
    -3
  6
Continuous
100
AcDbCircle
 10
296.642567
 20
-47.055901
 30
0.0
 40
2.0
100
AcDbArc
 50
0.0
 51
63.214562
  0
ARC
  5
170
100
AcDbEntity
  8
0
370
    -3
  6
Continuous
100
AcDbCircle
 10
298.89582
 20
-42.592399
 30
0.0
 40
3.0
100
AcDbArc
 50
183.787068
 51
243.214562
  0
ARC
  5
171
100
AcDbEntity
  8
0
370
    -3
  6
Continuous
100
AcDbCircle
 10
295.642567
 20
-52.055901
 30
0.0
 40
3.0
100
AcDbArc
 50
303.156214
 51
0.0
  0
ARC
  5
172
100
AcDbEntity
  8
0
370
    -3
  6
Continuous
100
AcDbCircle
 10
298.924109
 20
-57.078996
 30
0.0
 40
3.0
100
AcDbArc
 50
123.156214
 51
176.436697
  0
ARC
  5
173
100
AcDbEntity
  8
0
370
    -3
  6
Continuous
100
AcDbCircle
 10
76.642567
 20
-52.055901
 30
0.0
 40
3.0
100
AcDbArc
 50
180.0
 51
236.843786
  0
ARC
  5
174
100
AcDbEntity
  8
0
370
    -3
  6
Continuous
100
AcDbCircle
 10
73.361025
 20
-57.078996
 30
0.0
 40
3.0
100
AcDbArc
 50
3.563303
 51
56.843786
  0
ARC
  5
175
100
AcDbEntity
  8
0
370
    -3
  6
Continuous
100
AcDbCircle
 10
75.642567
 20
-47.055901
 30
0.0
 40
2.0
100
AcDbArc
 50
116.785438
 51
180.0
  0
ARC
  5
176
100
AcDbEntity
  8
0
370
    -3
  6
Continuous
100
AcDbCircle
 10
73.389314
 20
-42.592399
 30
0.0
 40
3.0
100
AcDbArc
 50
296.785438
 51
356.212932
  0
ARC
  5
177
100
AcDbEntity
  8
0
370
    -3
  6
Continuous
100
AcDbCircle
 10
186.142567
 20
-50.055901
 30
0.0
 40
110.0
100
AcDbArc
 50
3.787068
 51
32.975301
  0
ARC
  5
178
100
AcDbEntity
  8
0
370
    -3
  6
Continuous
100
AcDbCircle
 10
186.142567
 20
-50.055901
 30
0.0
 40
110.0
100
AcDbArc
 50
327.024699
 51
356.436697
  0
ARC
  5
179
100
AcDbEntity
  8
0
370
    -3
  6
Continuous
100
AcDbCircle
 10
186.142567
 20
-50.055901
 30
0.0
 40
110.0
100
AcDbArc
 50
147.024699
 51
176.212932
  0
ARC
  5
17A
100
AcDbEntity
  8
0
370
    -3
  6
Continuous
100
AcDbCircle
 10
186.142567
 20
-50.055901
 30
0.0
 40
110.0
100
AcDbArc
 50
183.563303
 51
212.975301
  0
LINE
  5
17B
100
AcDbEntity
  8
0
370
    -3
  6
CENTER
100
AcDbLine
 10
310.8603
 20
-50.055901
 30
0.0
 11
66.096726
 21
-50.055901
 31
0.0
  0
LINE
  5
17C
100
AcDbEntity
  8
0
370
    -3
  6
CENTER
100
AcDbLine
 10
186.142567
 20
68.498347
 30
0.0
 11
186.142567
 21
-186.629526
 31
0.0
  0
LINE
  5
17D
100
AcDbEntity
  8
0
370
    -3
  6
Continuous
100
AcDbLine
 10
276.843577
 20
-161.970114
 30
0.0
 11
258.526929
 21
-143.653466
 31
0.0
  0
LINE
  5
17E
100
AcDbEntity
  8
0
370
    -3
  6
Continuous
100
AcDbLine
 10
298.056781
 20
-140.756911
 30
0.0
 11
279.740132
 21
-122.440262
 31
0.0
  0
LINE
  5
17F
100
AcDbEntity
  8
0
370
    -3
  6
Continuous
100
AcDbLine
 10
95.441557
 20
-161.970114
 30
0.0
 11
113.758205
 21
-143.653466
 31
0.0
  0
LINE
  5
180
100
AcDbEntity
  8
0
370
    -3
  6
Continuous
100
AcDbLine
 10
74.228353
 20
-140.756911
 30
0.0
 11
92.545002
 21
-122.440262
 31
0.0
  0
LINE
  5
181
100
AcDbEntity
  8
0
370
    -3
  6
Continuous
100
AcDbLine
 10
95.441557
 20
61.858313
 30
0.0
 11
113.758205
 21
43.541664
 31
0.0
  0
LINE
  5
182
100
AcDbEntity
  8
0
370
    -3
  6
Continuous
100
AcDbLine
 10
74.228353
 20
40.64511
 30
0.0
 11
92.545002
 21
22.328461
 31
0.0
  0
LINE
  5
183
100
AcDbEntity
  8
0
370
    -3
  6
CENTER
100
AcDbLine
 10
77.642567
 20
58.444099
 30
0.0
 11
96.567735
 21
39.518931
 31
0.0
  0
LINE
  5
184
100
AcDbEntity
  8
0
370
    -3
  6
Continuous
100
AcDbLine
 10
73.642567
 20
54.444099
 30
0.0
 11
73.642567
 21
-154.555901
 31
0.0
  0
LINE
  5
185
100
AcDbEntity
  8
0
370
    -3
  6
Continuous
100
AcDbLine
 10
81.642567
 20
62.444099
 30
0.0
 11
290.642567
 21
62.444099
 31
0.0
  0
LINE
  5
186
100
AcDbEntity
  8
0
370
    -3
  6
Continuous
100
AcDbLine
 10
81.642567
 20
-162.555901
 30
0.0
 11
290.642567
 21
-162.555901
 31
0.0
  0
LINE
  5
187
100
AcDbEntity
  8
0
370
    -3
  6
Continuous
100
AcDbLine
 10
298.056781
 20
40.64511
 30
0.0
 11
279.740132
 21
22.328461
 31
0.0
  0
LINE
  5
188
100
AcDbEntity
  8
0
370
    -3
  6
Continuous
100
AcDbLine
 10
276.843577
 20
61.858313
 30
0.0
 11
258.526929
 21
43.541664
 31
0.0
  0
LINE
  5
189
100
AcDbEntity
  8
0
370
    -3
  6
Continuous
100
AcDbLine
 10
238.142567
 20
-175.555901
 30
0.0
 11
186.142567
 21
-175.555901
 31
0.0
  0
LINE
  5
18A
100
AcDbEntity
  8
0
370
    -3
  6
Continuous
100
AcDbLine
 10
134.142567
 20
-175.555901
 30
0.0
 11
186.142567
 21
-175.555901
 31
0.0
  0
LINE
  5
18B
100
AcDbEntity
  8
0
370
    -3
  6
Continuous
100
AcDbLine
 10
277.281779
 20
-60.289299
 30
0.0
 11
277.281779
 21
-87.686156
 31
0.0
  0
LINE
  5
18C
100
AcDbEntity
  8
0
370
    -3
  6
Continuous
100
AcDbLine
 10
95.003355
 20
-60.289299
 30
0.0
 11
95.003355
 21
-87.686156
 31
0.0
  0
LINE
  5
18D
100
AcDbEntity
  8
0
370
    -3
  6
Continuous
100
AcDbLine
 10
90.33025
 20
-53.055901
 30
0.0
 11
135.496738
 21
-53.055901
 31
0.0
  0
LINE
  5
18E
100
AcDbEntity
  8
0
370
    -3
  6
Continuous
100
AcDbLine
 10
90.33025
 20
-47.055901
 30
0.0
 11
135.496738
 21
-47.055901
 31
0.0
  0
LINE
  5
18F
100
AcDbEntity
  8
0
370
    -3
  6
Continuous
100
AcDbLine
 10
281.954883
 20
-53.055901
 30
0.0
 11
236.788396
 21
-53.055901
 31
0.0
  0
LINE
  5
190
100
AcDbEntity
  8
0
370
    -3
  6
Continuous
100
AcDbLine
 10
281.954883
 20
-47.055901
 30
0.0
 11
236.788396
 21
-47.055901
 31
0.0
  0
LINE
  5
191
100
AcDbEntity
  8
0
370
    -3
  6
Continuous
100
AcDbLine
 10
189.142567
 20
45.756416
 30
0.0
 11
189.142567
 21
0.589928
 31
0.0
  0
LINE
  5
192
100
AcDbEntity
  8
0
370
    -3
  6
Continuous
100
AcDbLine
 10
183.142567
 20
45.756416
 30
0.0
 11
183.142567
 21
0.589928
 31
0.0
  0
LINE
  5
193
100
AcDbEntity
  8
0
370
    -3
  6
Continuous
100
AcDbLine
 10
298.642567
 20
54.444099
 30
0.0
 11
298.642567
 21
-45.055901
 31
0.0
  0
LINE
  5
194
100
AcDbEntity
  8
0
370
    -3
  6
Continuous
100
AcDbLine
 10
298.642567
 20
-45.055901
 30
0.0
 11
298.642567
 21
-55.055901
 31
0.0
  0
LINE
  5
195
100
AcDbEntity
  8
0
370
    -3
  6
Continuous
100
AcDbLine
 10
298.642567
 20
-55.055901
 30
0.0
 11
298.642567
 21
-154.555901
 31
0.0
  0
CIRCLE
  5
196
100
AcDbEntity
  8
0
370
    -3
  6
Continuous
100
AcDbCircle
 10
186.142567
 20
-50.055901
 30
0.0
 40
4.0
  0
CIRCLE
  5
197
100
AcDbEntity
  8
0
370
    -3
  6
Continuous
100
AcDbCircle
 10
186.142567
 20
-50.055901
 30
0.0
 40
3.3235
  0
LINE
  5
198
100
AcDbEntity
  8
0
370
    -3
  6
Continuous
100
AcDbLine
 10
167.142567
 20
-45.055901
 30
0.0
 11
175.142567
 21
-45.055901
 31
0.0
  0
LINE
  5
199
100
AcDbEntity
  8
0
370
    -3
  6
Continuous
100
AcDbLine
 10
167.142567
 20
-55.055901
 30
0.0
 11
167.142567
 21
-45.055901
 31
0.0
  0
ARC
  5
19A
100
AcDbEntity
  8
0
370
    -3
  6
Continuous
100
AcDbCircle
 10
186.142567
 20
-50.055901
 30
0.0
 40
16.0
100
AcDbArc
 50
198.209957
 51
161.790043
  0
LINE
  5
19B
100
AcDbEntity
  8
0
370
    -3
  6
Continuous
100
AcDbLine
 10
175.142567
 20
-55.055901
 30
0.0
 11
175.142567
 21
-45.055901
 31
0.0
  0
LINE
  5
19C
100
AcDbEntity
  8
0
370
    -3
  6
Continuous
100
AcDbLine
 10
167.142567
 20
-55.055901
 30
0.0
 11
175.142567
 21
-55.055901
 31
0.0
  0
ARC
  5
19D
100
AcDbEntity
  8
0
370
    -3
  6
Continuous
100
AcDbCircle
 10
-157.828581
 20
220.126295
 30
0.0
 40
2.0
100
AcDbArc
 50
300.0
 51
0.0
  0
ARC
  5
19E
100
AcDbEntity
  8
0
370
    -3
  6
Continuous
100
AcDbCircle
 10
-155.828581
 20
216.662194
 30
0.0
 40
2.0
100
AcDbArc
 50
120.0
 51
180.0
  0
INSERT
  5
1AE
100
AcDbEntity
  8
0
100
AcDbBlockReference
  2
ZU_SYM__USERS_HOME_SYMBOL_STD_SYM_B01_00005-1
 10
-184.328589
 20
251.200071
 30
0.0
  0
LINE
  5
1AF
100
AcDbEntity
  8
0
370
    -3
  6
CENTER
100
AcDbLine
 10
-194.328581
 20
284.04882
 30
0.0
 11
-194.328581
 21
306.553734
 31
0.0
  0
LINE
  5
1B0
100
AcDbEntity
  8
0
370
    -3
  6
Continuous
100
AcDbLine
 10
-178.328581
 20
238.094244
 30
0.0
 11
-178.328581
 21
235.894244
 31
0.0
  0
LINE
  5
1B1
100
AcDbEntity
  8
0
370
    -3
  6
Continuous
100
AcDbLine
 10
-178.328581
 20
352.694244
 30
0.0
 11
-178.328581
 21
354.894244
 31
0.0
  0
INSERT
  5
1C1
100
AcDbEntity
  8
0
100
AcDbBlockReference
  2
ZU_SYM__USERS_HOME_SYMBOL_STD_SYM_B01_00006-1
 10
-184.328589
 20
339.588418
 30
0.0
 41
-1.0
 50
180.0
  0
LINE
  5
1C2
100
AcDbEntity
  8
0
370
    -3
  6
Continuous
100
AcDbLine
 10
-178.328581
 20
354.894244
 30
0.0
 11
-158.671573
 21
355.924425
 31
0.0
  0
ARC
  5
1C3
100
AcDbEntity
  8
0
370
    -3
  6
Continuous
100
AcDbCircle
 10
-158.828581
 20
358.920313
 30
0.0
 40
3.0
100
AcDbArc
 50
273.0
 51
360.0
  0
LINE
  5
1C4
100
AcDbEntity
  8
0
370
    -3
  6
Continuous
100
AcDbLine
 10
-155.828581
 20
318.894244
 30
0.0
 11
-155.828581
 21
387.394244
 31
0.0
  0
LINE
  5
1C5
100
AcDbEntity
  8
0
370
    -3
  6
Continuous
100
AcDbLine
 10
-157.828581
 20
374.126295
 30
0.0
 11
-157.828581
 21
387.394244
 31
0.0
  0
LINE
  5
1C6
100
AcDbEntity
  8
0
370
    -3
  6
Continuous
100
AcDbLine
 10
-163.32858
 20
372.894244
 30
0.0
 11
-163.32858
 21
385.894244
 31
0.0
  0
LINE
  5
1C7
100
AcDbEntity
  8
0
370
    -3
  6
Continuous
100
AcDbLine
 10
-163.328579
 20
385.894244
 30
0.0
 11
-163.82858
 21
385.028315
 31
0.0
  0
LINE
  5
1C8
100
AcDbEntity
  8
0
370
    -3
  6
Continuous
100
AcDbLine
 10
-163.32858
 20
372.894244
 30
0.0
 11
-163.82858
 21
373.760369
 31
0.0
  0
LINE
  5
1C9
100
AcDbEntity
  8
0
370
    -3
  6
Continuous
100
AcDbLine
 10
-157.828581
 20
385.894244
 30
0.0
 11
-163.328579
 21
385.894244
 31
0.0
  0
LINE
  5
1CA
100
AcDbEntity
  8
0
370
    -3
  6
Continuous
100
AcDbLine
 10
-157.404034
 20
372.894244
 30
0.0
 11
-163.32858
 21
372.894244
 31
0.0
  0
LINE
  5
1CB
100
AcDbEntity
  8
0
370
    -3
  6
Continuous
100
AcDbLine
 10
-163.82858
 20
373.760369
 30
0.0
 11
-163.82858
 21
385.028315
 31
0.0
  0
ARC
  5
1CC
100
AcDbEntity
  8
0
370
    -3
  6
Continuous
100
AcDbCircle
 10
-155.828581
 20
387.394244
 30
0.0
 40
2.0
100
AcDbArc
 50
90.0
 51
180.0
  0
LINE
  5
1CD
100
AcDbEntity
  8
0
370
    -3
  6
Continuous
100
AcDbLine
 10
-143.328581
 20
389.394244
 30
0.0
 11
-155.828581
 21
389.394244
 31
0.0
  0
ARC
  5
1CE
100
AcDbEntity
  8
0
370
    -3
  6
Continuous
100
AcDbCircle
 10
-155.828581
 20
374.126295
 30
0.0
 40
2.0
100
AcDbArc
 50
180.0
 51
240.0
  0
ARC
  5
1CF
100
AcDbEntity
  8
0
370
    -3
  6
Continuous
100
AcDbCircle
 10
-157.828581
 20
370.662194
 30
0.0
 40
2.0
100
AcDbArc
 50
0.0
 51
60.0
  0
INSERT
  5
1DB
100
AcDbEntity
  8
0
100
AcDbBlockReference
  2
ZU_SYM__USERS_HOME_SYMBOL_POO_SYM_B20_00007-1
 10
-171.328581
 20
305.894244
 30
0.0
 41
-1.0
 50
180.0
  0
LINE
  5
1DC
100
AcDbEntity
  8
0
370
    -3
  6
Continuous
100
AcDbLine
 10
-166.828581
 20
315.894244
 30
0.0
 11
-171.328581
 21
315.894244
 31
0.0
  0
LINE
  5
1DD
100
AcDbEntity
  8
0
370
    -3
  6
Continuous
100
AcDbLine
 10
-166.828581
 20
295.394244
 30
0.0
 11
-166.828581
 21
315.894244
 31
0.0
  0
LINE
  5
1DE
100
AcDbEntity
  8
0
370
    -3
  6
Continuous
100
AcDbLine
 10
-171.328581
 20
295.394244
 30
0.0
 11
-171.328581
 21
315.894244
 31
0.0
  0
INSERT
  5
1EA
100
AcDbEntity
  8
0
100
AcDbBlockReference
  2
ZU_SYM__USERS_HOME_SYMBOL_POO_SYM_B20_00008-1
 10
-155.828581
 20
345.394244
 30
0.0
 41
-1.0
 50
180.0
  0
ARC
  5
1EB
100
AcDbEntity
  8
0
370
    -3
  6
Continuous
100
AcDbCircle
 10
-158.828581
 20
318.894244
 30
0.0
 40
3.0
100
AcDbArc
 50
270.0
 51
360.0
  0
LINE
  5
1EC
100
AcDbEntity
  8
0
370
    -3
  6
Continuous
100
AcDbLine
 10
-158.828581
 20
315.894244
 30
0.0
 11
-163.828581
 21
315.894244
 31
0.0
  0
ARC
  5
1ED
100
AcDbEntity
  8
0
370
    -3
  6
Continuous
100
AcDbCircle
 10
-163.828581
 20
312.894244
 30
0.0
 40
3.0
100
AcDbArc
 50
90.0
 51
180.0
  0
ARC
  5
1EE
100
AcDbEntity
  8
0
370
    -3
  6
Continuous
100
AcDbCircle
 10
-153.828581
 20
387.394244
 30
0.0
 40
2.0
100
AcDbArc
 50
90.0
 51
180.0
  0
LINE
  5
1EF
100
AcDbEntity
  8
0
370
    -3
  6
Continuous
100
AcDbLine
 10
-143.828581
 20
295.394244
 30
0.0
 11
-143.828581
 21
389.394244
 31
0.0
  0
LINE
  5
1F0
100
AcDbEntity
  8
0
370
    -3
  6
Continuous
100
AcDbLine
 10
-178.328581
 20
235.894244
 30
0.0
 11
-158.671573
 21
234.864064
 31
0.0
  0
ARC
  5
1F1
100
AcDbEntity
  8
0
370
    -3
  6
Continuous
100
AcDbCircle
 10
-158.828581
 20
231.868176
 30
0.0
 40
3.0
100
AcDbArc
 50
0.0
 51
87.0
  0
LINE
  5
1F2
100
AcDbEntity
  8
0
370
    -3
  6
Continuous
100
AcDbLine
 10
-155.828581
 20
271.894244
 30
0.0
 11
-155.828581
 21
203.394244
 31
0.0
  0
LINE
  5
1F3
100
AcDbEntity
  8
0
370
    -3
  6
Continuous
100
AcDbLine
 10
-157.828581
 20
216.662194
 30
0.0
 11
-157.828581
 21
203.394244
 31
0.0
  0
LINE
  5
1F4
100
AcDbEntity
  8
0
370
    -3
  6
Continuous
100
AcDbLine
 10
-163.32858
 20
217.894244
 30
0.0
 11
-163.32858
 21
204.894244
 31
0.0
  0
LINE
  5
1F5
100
AcDbEntity
  8
0
370
    -3
  6
Continuous
100
AcDbLine
 10
-163.328579
 20
204.894244
 30
0.0
 11
-163.82858
 21
205.760174
 31
0.0
  0
LINE
  5
1F6
100
AcDbEntity
  8
0
370
    -3
  6
Continuous
100
AcDbLine
 10
-163.32858
 20
217.894244
 30
0.0
 11
-163.82858
 21
217.02812
 31
0.0
  0
LINE
  5
1F7
100
AcDbEntity
  8
0
370
    -3
  6
Continuous
100
AcDbLine
 10
-157.828581
 20
204.894244
 30
0.0
 11
-163.328579
 21
204.894244
 31
0.0
  0
LINE
  5
1F8
100
AcDbEntity
  8
0
370
    -3
  6
Continuous
100
AcDbLine
 10
-157.404034
 20
217.894244
 30
0.0
 11
-163.32858
 21
217.894244
 31
0.0
  0
LINE
  5
1F9
100
AcDbEntity
  8
0
370
    -3
  6
Continuous
100
AcDbLine
 10
-163.82858
 20
217.02812
 30
0.0
 11
-163.82858
 21
205.760174
 31
0.0
  0
ARC
  5
1FA
100
AcDbEntity
  8
0
370
    -3
  6
Continuous
100
AcDbCircle
 10
-155.828581
 20
203.394244
 30
0.0
 40
2.0
100
AcDbArc
 50
180.0
 51
270.0
  0
LINE
  5
1FB
100
AcDbEntity
  8
0
370
    -3
  6
Continuous
100
AcDbLine
 10
-143.328581
 20
201.394244
 30
0.0
 11
-155.828581
 21
201.394244
 31
0.0
  0
INSERT
  5
207
100
AcDbEntity
  8
0
100
AcDbBlockReference
  2
ZU_SYM__USERS_HOME_SYMBOL_POO_SYM_B20_00009-1
 10
-171.328581
 20
284.894244
 30
0.0
  0
LINE
  5
208
100
AcDbEntity
  8
0
370
    -3
  6
Continuous
100
AcDbLine
 10
-166.828581
 20
274.894244
 30
0.0
 11
-171.328581
 21
274.894244
 31
0.0
  0
LINE
  5
209
100
AcDbEntity
  8
0
370
    -3
  6
Continuous
100
AcDbLine
 10
-166.828581
 20
295.394244
 30
0.0
 11
-166.828581
 21
274.894244
 31
0.0
  0
LINE
  5
20A
100
AcDbEntity
  8
0
370
    -3
  6
Continuous
100
AcDbLine
 10
-171.328581
 20
295.394244
 30
0.0
 11
-171.328581
 21
274.894244
 31
0.0
  0
INSERT
  5
216
100
AcDbEntity
  8
0
100
AcDbBlockReference
  2
ZU_SYM__USERS_HOME_SYMBOL_POO_SYM_B20_00010-1
 10
-155.828581
 20
245.394244
 30
0.0
  0
ARC
  5
217
100
AcDbEntity
  8
0
370
    -3
  6
Continuous
100
AcDbCircle
 10
-158.828581
 20
271.894244
 30
0.0
 40
3.0
100
AcDbArc
 50
0.0
 51
90.0
  0
LINE
  5
218
100
AcDbEntity
  8
0
370
    -3
  6
Continuous
100
AcDbLine
 10
-158.828581
 20
274.894244
 30
0.0
 11
-163.828581
 21
274.894244
 31
0.0
  0
ARC
  5
219
100
AcDbEntity
  8
0
370
    -3
  6
Continuous
100
AcDbCircle
 10
-163.828581
 20
277.894244
 30
0.0
 40
3.0
100
AcDbArc
 50
180.0
 51
270.0
  0
ARC
  5
21A
100
AcDbEntity
  8
0
370
    -3
  6
Continuous
100
AcDbCircle
 10
-153.828581
 20
203.394244
 30
0.0
 40
2.0
100
AcDbArc
 50
180.0
 51
270.0
  0
LINE
  5
21B
100
AcDbEntity
  8
0
370
    -3
  6
Continuous
100
AcDbLine
 10
-143.828581
 20
295.394244
 30
0.0
 11
-143.828581
 21
201.394244
 31
0.0
  0
LINE
  5
21C
100
AcDbEntity
  8
0
370
    -3
  6
Continuous
100
AcDbLine
 10
-143.328581
 20
389.394244
 30
0.0
 11
-62.223883
 21
392.226483
 31
0.0
  0
LINE
  5
21D
100
AcDbEntity
  8
0
370
    -3
  6
Continuous
100
AcDbLine
 10
-143.328581
 20
201.394244
 30
0.0
 11
-62.223883
 21
198.562006
 31
0.0
  0
LINE
  5
21E
100
AcDbEntity
  8
0
370
    -3
  6
Continuous
100
AcDbLine
 10
-143.328581
 20
201.394244
 30
0.0
 11
-143.328581
 21
389.394244
 31
0.0
  0
LINE
  5
21F
100
AcDbEntity
  8
0
370
    -3
  6
Continuous
100
AcDbLine
 10
-188.328581
 20
325.824821
 30
0.0
 11
-202.328581
 21
325.824821
 31
0.0
  0
ARC
  5
220
100
AcDbEntity
  8
0
370
    -3
  6
Continuous
100
AcDbCircle
 10
-202.328581
 20
328.824821
 30
0.0
 40
3.0
100
AcDbArc
 50
180.0
 51
270.0
  0
ARC
  5
221
100
AcDbEntity
  8
0
370
    -3
  6
Continuous
100
AcDbCircle
 10
-210.328581
 20
341.394244
 30
0.0
 40
5.0
100
AcDbArc
 50
0.0
 51
90.0
  0
LINE
  5
222
100
AcDbEntity
  8
0
370
    -3
  6
Continuous
100
AcDbLine
 10
-220.328581
 20
346.394244
 30
0.0
 11
-210.328581
 21
346.394244
 31
0.0
  0
ARC
  5
223
100
AcDbEntity
  8
0
370
    -3
  6
Continuous
100
AcDbCircle
 10
-210.328581
 20
343.894244
 30
0.0
 40
5.0
100
AcDbArc
 50
0.0
 51
90.0
  0
LINE
  5
224
100
AcDbEntity
  8
0
370
    -3
  6
Continuous
100
AcDbLine
 10
-220.328581
 20
348.894244
 30
0.0
 11
-191.328581
 21
348.894244
 31
0.0
  0
LINE
  5
225
100
AcDbEntity
  8
0
370
    -3
  6
Continuous
100
AcDbLine
 10
-205.328581
 20
343.894244
 30
0.0
 11
-205.328581
 21
311.394244
 31
0.0
  0
LINE
  5
226
100
AcDbEntity
  8
0
370
    -3
  6
Continuous
100
AcDbLine
 10
-188.328581
 20
264.963668
 30
0.0
 11
-202.328581
 21
264.963668
 31
0.0
  0
ARC
  5
227
100
AcDbEntity
  8
0
370
    -3
  6
Continuous
100
AcDbCircle
 10
-202.328581
 20
261.963668
 30
0.0
 40
3.0
100
AcDbArc
 50
90.0
 51
180.0
  0
ARC
  5
228
100
AcDbEntity
  8
0
370
    -3
  6
Continuous
100
AcDbCircle
 10
-202.328581
 20
279.394244
 30
0.0
 40
3.0
100
AcDbArc
 50
90.0
 51
180.0
  0
LINE
  5
229
100
AcDbEntity
  8
0
370
    -3
  6
Continuous
100
AcDbLine
 10
-220.328581
 20
282.394244
 30
0.0
 11
-183.328581
 21
282.394244
 31
0.0
  0
LINE
  5
22A
100
AcDbEntity
  8
0
370
    -3
  6
Continuous
100
AcDbLine
 10
-205.328581
 20
246.894244
 30
0.0
 11
-205.328581
 21
279.394244
 31
0.0
  0
ARC
  5
22B
100
AcDbEntity
  8
0
370
    -3
  6
Continuous
100
AcDbCircle
 10
-210.328581
 20
249.394244
 30
0.0
 40
5.0
100
AcDbArc
 50
270.0
 51
0.0
  0
LINE
  5
22C
100
AcDbEntity
  8
0
370
    -3
  6
Continuous
100
AcDbLine
 10
-220.328581
 20
244.394244
 30
0.0
 11
-210.328581
 21
244.394244
 31
0.0
  0
ARC
  5
22D
100
AcDbEntity
  8
0
370
    -3
  6
Continuous
100
AcDbCircle
 10
-210.328581
 20
246.894244
 30
0.0
 40
5.0
100
AcDbArc
 50
270.0
 51
0.0
  0
LINE
  5
22E
100
AcDbEntity
  8
0
370
    -3
  6
Continuous
100
AcDbLine
 10
-220.328581
 20
241.894244
 30
0.0
 11
-191.328581
 21
241.894244
 31
0.0
  0
ARC
  5
22F
100
AcDbEntity
  8
0
370
    -3
  6
Continuous
100
AcDbCircle
 10
-202.328581
 20
311.394244
 30
0.0
 40
3.0
100
AcDbArc
 50
180.0
 51
270.0
  0
LINE
  5
230
100
AcDbEntity
  8
0
370
    -3
  6
Continuous
100
AcDbLine
 10
-220.328581
 20
308.394244
 30
0.0
 11
-183.328581
 21
308.394244
 31
0.0
  0
CIRCLE
  5
231
100
AcDbEntity
  8
0
370
    -3
  6
Continuous
100
AcDbCircle
 10
-194.328581
 20
295.394244
 30
0.0
 40
8.35
  0
LINE
  5
232
100
AcDbEntity
  8
0
370
    -3
  6
Continuous
100
AcDbLine
 10
-188.328581
 20
351.523273
 30
0.0
 11
-188.328581
 21
308.394244
 31
0.0
  0
ARC
  5
233
100
AcDbEntity
  8
0
370
    -3
  6
Continuous
100
AcDbCircle
 10
-186.328581
 20
323.824821
 30
0.0
 40
2.0
100
AcDbArc
 50
90.0
 51
180.0
  0
ARC
  5
234
100
AcDbEntity
  8
0
370
    -3
  6
Continuous
100
AcDbCircle
 10
-186.328581
 20
327.824821
 30
0.0
 40
2.0
100
AcDbArc
 50
270.0
 51
0.0
  0
LINE
  5
235
100
AcDbEntity
  8
0
370
    -3
  6
Continuous
100
AcDbLine
 10
-184.328581
 20
352.681869
 30
0.0
 11
-184.328581
 21
327.824821
 31
0.0
  0
ARC
  5
236
100
AcDbEntity
  8
0
370
    -3
  6
Continuous
100
AcDbCircle
 10
-191.328581
 20
351.894244
 30
0.0
 40
3.0
100
AcDbArc
 50
270.0
 51
0.0
  0
ARC
  5
237
100
AcDbEntity
  8
0
370
    -3
  6
Continuous
100
AcDbCircle
 10
-185.328581
 20
351.523273
 30
0.0
 40
3.0
100
AcDbArc
 50
93.0
 51
180.0
  0
LINE
  5
238
100
AcDbEntity
  8
0
370
    -3
  6
Continuous
100
AcDbLine
 10
-178.328581
 20
354.894244
 30
0.0
 11
-185.485589
 21
354.519162
 31
0.0
  0
ARC
  5
239
100
AcDbEntity
  8
0
370
    -3
  6
Continuous
100
AcDbCircle
 10
-182.328581
 20
352.681869
 30
0.0
 40
2.0
100
AcDbArc
 50
93.0
 51
180.0
  0
LINE
  5
23A
100
AcDbEntity
  8
0
370
    -3
  6
Continuous
100
AcDbLine
 10
-188.328581
 20
238.894244
 30
0.0
 11
-188.328581
 21
282.394244
 31
0.0
  0
ARC
  5
23B
100
AcDbEntity
  8
0
370
    -3
  6
Continuous
100
AcDbCircle
 10
-186.328581
 20
266.963668
 30
0.0
 40
2.0
100
AcDbArc
 50
180.0
 51
270.0
  0
ARC
  5
23C
100
AcDbEntity
  8
0
370
    -3
  6
Continuous
100
AcDbCircle
 10
-186.328581
 20
262.963668
 30
0.0
 40
2.0
100
AcDbArc
 50
0.0
 51
90.0
  0
LINE
  5
23D
100
AcDbEntity
  8
0
370
    -3
  6
Continuous
100
AcDbLine
 10
-184.328581
 20
238.10662
 30
0.0
 11
-184.328581
 21
262.963668
 31
0.0
  0
ARC
  5
23E
100
AcDbEntity
  8
0
370
    -3
  6
Continuous
100
AcDbCircle
 10
-191.328581
 20
238.894244
 30
0.0
 40
3.0
100
AcDbArc
 50
0.0
 51
90.0
  0
ARC
  5
23F
100
AcDbEntity
  8
0
370
    -3
  6
Continuous
100
AcDbCircle
 10
-185.328581
 20
239.265216
 30
0.0
 40
3.0
100
AcDbArc
 50
180.0
 51
267.0
  0
LINE
  5
240
100
AcDbEntity
  8
0
370
    -3
  6
Continuous
100
AcDbLine
 10
-178.328581
 20
235.894244
 30
0.0
 11
-185.485589
 21
236.269327
 31
0.0
  0
ARC
  5
241
100
AcDbEntity
  8
0
370
    -3
  6
Continuous
100
AcDbCircle
 10
-182.328581
 20
238.10662
 30
0.0
 40
2.0
100
AcDbArc
 50
180.0
 51
267.0
  0
LINE
  5
242
100
AcDbEntity
  8
0
370
    -3
  6
Continuous
100
AcDbLine
 10
-178.328581
 20
238.094244
 30
0.0
 11
-178.328581
 21
278.394244
 31
0.0
  0
ARC
  5
243
100
AcDbEntity
  8
0
370
    -3
  6
Continuous
100
AcDbCircle
 10
-183.328581
 20
305.394244
 30
0.0
 40
3.0
100
AcDbArc
 50
0.0
 51
90.0
  0
LINE
  5
244
100
AcDbEntity
  8
0
370
    -3
  6
Continuous
100
AcDbLine
 10
-180.328581
 20
305.394244
 30
0.0
 11
-180.328581
 21
295.394244
 31
0.0
  0
ARC
  5
245
100
AcDbEntity
  8
0
370
    -3
  6
Continuous
100
AcDbCircle
 10
-183.328581
 20
285.394244
 30
0.0
 40
3.0
100
AcDbArc
 50
270.0
 51
0.0
  0
LINE
  5
246
100
AcDbEntity
  8
0
370
    -3
  6
Continuous
100
AcDbLine
 10
-180.328581
 20
285.394244
 30
0.0
 11
-180.328581
 21
295.394244
 31
0.0
  0
LINE
  5
247
100
AcDbEntity
  8
0
370
    -3
  6
Continuous
100
AcDbLine
 10
-178.328581
 20
352.694244
 30
0.0
 11
-178.328581
 21
312.394244
 31
0.0
  0
LINE
  5
248
100
AcDbEntity
  8
0
370
    -3
  6
Continuous
100
AcDbLine
 10
-178.328581
 20
352.694244
 30
0.0
 11
-178.328581
 21
354.894244
 31
0.0
  0
LINE
  5
249
100
AcDbEntity
  8
0
370
    -3
  6
Continuous
100
AcDbLine
 10
-178.328581
 20
238.094244
 30
0.0
 11
-178.328581
 21
235.894244
 31
0.0
  0
LINE
  5
24A
100
AcDbEntity
  8
0
370
    -3
  6
Continuous
100
AcDbLine
 10
-178.328581
 20
299.394244
 30
0.0
 11
-178.328581
 21
295.394244
 31
0.0
  0
LINE
  5
24B
100
AcDbEntity
  8
0
370
    -3
  6
Continuous
100
AcDbLine
 10
-178.328581
 20
291.394244
 30
0.0
 11
-178.328581
 21
295.394244
 31
0.0
  0
ARC
  5
24C
100
AcDbEntity
  8
0
370
    -3
  6
Continuous
100
AcDbCircle
 10
-62.328581
 20
195.563833
 30
0.0
 40
3.0
100
AcDbArc
 50
0.0
 51
88.0
  0
ARC
  5
24D
100
AcDbEntity
  8
0
370
    -3
  6
Continuous
100
AcDbCircle
 10
-62.328581
 20
395.224655
 30
0.0
 40
3.0
100
AcDbArc
 50
272.0
 51
0.0
  0
ARC
  5
24E
100
AcDbEntity
  8
0
370
    -3
  6
Continuous
100
AcDbCircle
 10
-82.619417
 20
237.884855
 30
0.0
 40
3.0
100
AcDbArc
 50
38.406433
 51
90.0
  0
LINE
  5
24F
100
AcDbEntity
  8
0
370
    -3
  6
Continuous
100
AcDbLine
 10
-80.268546
 20
239.748562
 30
0.0
 11
-59.97771
 21
214.153803
 31
0.0
  0
ARC
  5
250
100
AcDbEntity
  8
0
370
    -3
  6
Continuous
100
AcDbCircle
 10
-62.328581
 20
212.290095
 30
0.0
 40
3.0
100
AcDbArc
 50
0.0
 51
38.406433
  0
ARC
  5
251
100
AcDbEntity
  8
0
370
    -3
  6
Continuous
100
AcDbCircle
 10
-82.619417
 20
232.399573
 30
0.0
 40
3.0
100
AcDbArc
 50
38.406433
 51
90.0
  0
LINE
  5
252
100
AcDbEntity
  8
0
370
    -3
  6
Continuous
100
AcDbLine
 10
-80.268546
 20
234.263281
 30
0.0
 11
-59.97771
 21
208.668521
 31
0.0
  0
ARC
  5
253
100
AcDbEntity
  8
0
370
    -3
  6
Continuous
100
AcDbCircle
 10
-62.328581
 20
206.804814
 30
0.0
 40
3.0
100
AcDbArc
 50
0.0
 51
38.406433
  0
LINE
  5
254
100
AcDbEntity
  8
0
370
    -3
  6
Continuous
100
AcDbLine
 10
-62.583882
 20
240.884855
 30
0.0
 11
-77.566597
 21
240.884855
 31
0.0
  0
ARC
  5
255
100
AcDbEntity
  8
0
370
    -3
  6
Continuous
100
AcDbCircle
 10
-82.619417
 20
358.388915
 30
0.0
 40
3.0
100
AcDbArc
 50
270.0
 51
321.593567
  0
LINE
  5
256
100
AcDbEntity
  8
0
370
    -3
  6
Continuous
100
AcDbLine
 10
-80.268546
 20
356.525208
 30
0.0
 11
-59.97771
 21
382.119968
 31
0.0
  0
ARC
  5
257
100
AcDbEntity
  8
0
370
    -3
  6
Continuous
100
AcDbCircle
 10
-62.328581
 20
383.983675
 30
0.0
 40
3.0
100
AcDbArc
 50
321.593567
 51
0.0
  0
ARC
  5
258
100
AcDbEntity
  8
0
370
    -3
  6
Continuous
100
AcDbCircle
 10
-62.328581
 20
378.498394
 30
0.0
 40
3.0
100
AcDbArc
 50
321.593567
 51
0.0
  0
ARC
  5
259
100
AcDbEntity
  8
0
370
    -3
  6
Continuous
100
AcDbCircle
 10
-82.619417
 20
352.903634
 30
0.0
 40
3.0
100
AcDbArc
 50
270.0
 51
321.593567
  0
LINE
  5
25A
100
AcDbEntity
  8
0
370
    -3
  6
Continuous
100
AcDbLine
 10
-80.268546
 20
351.039927
 30
0.0
 11
-59.97771
 21
376.634686
 31
0.0
  0
LINE
  5
25B
100
AcDbEntity
  8
0
370
    -3
  6
Continuous
100
AcDbLine
 10
-62.583882
 20
349.903634
 30
0.0
 11
-77.566597
 21
349.903634
 31
0.0
  0
ARC
  5
25C
100
AcDbEntity
  8
0
370
    -3
  6
Continuous
100
AcDbCircle
 10
-78.169368
 20
301.394244
 30
0.0
 40
3.0
100
AcDbArc
 50
180.0
 51
270.0
  0
ARC
  5
25D
100
AcDbEntity
  8
0
370
    -3
  6
Continuous
100
AcDbCircle
 10
-78.169368
 20
289.394244
 30
0.0
 40
3.0
100
AcDbArc
 50
90.0
 51
180.0
  0
ARC
  5
25E
100
AcDbEntity
  8
0
370
    -3
  6
Continuous
100
AcDbCircle
 10
-62.328581
 20
289.394244
 30
0.0
 40
3.0
100
AcDbArc
 50
0.0
 51
90.0
  0
ARC
  5
25F
100
AcDbEntity
  8
0
370
    -3
  6
Continuous
100
AcDbCircle
 10
-62.328581
 20
301.394244
 30
0.0
 40
3.0
100
AcDbArc
 50
270.0
 51
0.0
  0
LINE
  5
260
100
AcDbEntity
  8
0
370
    -3
  6
Continuous
100
AcDbLine
 10
-78.169368
 20
292.394244
 30
0.0
 11
-62.328581
 21
292.394244
 31
0.0
  0
LINE
  5
261
100
AcDbEntity
  8
0
370
    -3
  6
Continuous
100
AcDbLine
 10
-78.169368
 20
298.394244
 30
0.0
 11
-62.328581
 21
298.394244
 31
0.0
  0
LINE
  5
262
100
AcDbEntity
  8
0
370
    -3
  6
Continuous
100
AcDbLine
 10
16.671419
 20
295.394244
 30
0.0
 11
16.671419
 21
276.394244
 31
0.0
  0
ARC
  5
263
100
AcDbEntity
  8
0
370
    -3
  6
Continuous
100
AcDbCircle
 10
16.271419
 20
310.994244
 30
0.0
 40
0.4
100
AcDbArc
 50
0.0
 51
90.0
  0
LINE
  5
264
100
AcDbEntity
  8
0
370
    -3
  6
Continuous
100
AcDbLine
 10
16.671419
 20
276.394244
 30
0.0
 11
-28.328581
 21
276.394244
 31
0.0
  0
LINE
  5
265
100
AcDbEntity
  8
0
370
    -3
  6
Continuous
100
AcDbLine
 10
16.271419
 20
311.394244
 30
0.0
 11
-30.768774
 21
311.394244
 31
0.0
  0
LINE
  5
266
100
AcDbEntity
  8
0
370
    -3
  6
Continuous
100
AcDbLine
 10
-28.328581
 20
279.394244
 30
0.0
 11
-28.328581
 21
276.394244
 31
0.0
  0
LINE
  5
267
100
AcDbEntity
  8
0
370
    -3
  6
Continuous
100
AcDbLine
 10
-31.328581
 20
311.244244
 30
0.0
 11
-30.768774
 21
311.394244
 31
0.0
  0
LINE
  5
268
100
AcDbEntity
  8
0
370
    -3
  6
Continuous
100
AcDbLine
 10
-31.328581
 20
311.244244
 30
0.0
 11
-32.528581
 21
311.244244
 31
0.0
  0
LINE
  5
269
100
AcDbEntity
  8
0
370
    -3
  6
Continuous
100
AcDbLine
 10
-35.328581
 20
312.394244
 30
0.0
 11
-33.528581
 21
312.394244
 31
0.0
  0
LINE
  5
26A
100
AcDbEntity
  8
0
370
    -3
  6
Continuous
100
AcDbLine
 10
-33.328581
 20
312.194244
 30
0.0
 11
-33.328581
 21
295.394244
 31
0.0
  0
ARC
  5
26B
100
AcDbEntity
  8
0
370
    -3
  6
Continuous
100
AcDbCircle
 10
-32.528581
 20
312.044244
 30
0.0
 40
0.8
100
AcDbArc
 50
183.703197
 51
270.0
  0
LINE
  5
26C
100
AcDbEntity
  8
0
370
    -3
  6
Continuous
100
AcDbLine
 10
-33.328581
 20
312.194244
 30
0.0
 11
-33.528581
 21
312.394244
 31
0.0
  0
LINE
  5
26D
100
AcDbEntity
  8
0
370
    -3
  6
Continuous
100
AcDbLine
 10
-31.328581
 20
279.544244
 30
0.0
 11
-30.768774
 21
279.394244
 31
0.0
  0
LINE
  5
26E
100
AcDbEntity
  8
0
370
    -3
  6
Continuous
100
AcDbLine
 10
-35.328581
 20
278.394244
 30
0.0
 11
-33.528581
 21
278.394244
 31
0.0
  0
LINE
  5
26F
100
AcDbEntity
  8
0
370
    -3
  6
Continuous
100
AcDbLine
 10
16.271419
 20
279.394244
 30
0.0
 11
-30.768774
 21
279.394244
 31
0.0
  0
LINE
  5
270
100
AcDbEntity
  8
0
370
    -3
  6
Continuous
100
AcDbLine
 10
-31.328581
 20
279.544244
 30
0.0
 11
-32.528581
 21
279.544244
 31
0.0
  0
LINE
  5
271
100
AcDbEntity
  8
0
370
    -3
  6
Continuous
100
AcDbLine
 10
-33.328581
 20
278.594244
 30
0.0
 11
-33.328581
 21
295.394244
 31
0.0
  0
ARC
  5
272
100
AcDbEntity
  8
0
370
    -3
  6
Continuous
100
AcDbCircle
 10
-32.528581
 20
278.744244
 30
0.0
 40
0.8
100
AcDbArc
 50
90.0
 51
176.296803
  0
LINE
  5
273
100
AcDbEntity
  8
0
370
    -3
  6
Continuous
100
AcDbLine
 10
-33.328581
 20
278.594244
 30
0.0
 11
-33.528581
 21
278.394244
 31
0.0
  0
LINE
  5
274
100
AcDbEntity
  8
0
370
    -3
  6
Continuous
100
AcDbLine
 10
16.671419
 20
295.394244
 30
0.0
 11
16.671419
 21
310.994244
 31
0.0
  0
ARC
  5
275
100
AcDbEntity
  8
0
370
    -3
  6
Continuous
100
AcDbCircle
 10
16.271419
 20
279.794244
 30
0.0
 40
0.4
100
AcDbArc
 50
270.0
 51
0.0
  0
LINE
  5
276
100
AcDbEntity
  8
0
370
    -3
  6
Continuous
100
AcDbLine
 10
-50.374621
 20
183.216814
 30
0.0
 11
-50.374621
 21
182.894244
 31
0.0
  0
LINE
  5
277
100
AcDbEntity
  8
0
370
    -3
  6
Continuous
100
AcDbLine
 10
-39.328581
 20
191.394244
 30
0.0
 11
-40.328581
 21
190.394244
 31
0.0
  0
LINE
  5
278
100
AcDbEntity
  8
0
370
    -3
  6
Continuous
100
AcDbLine
 10
-40.328581
 20
190.394244
 30
0.0
 11
-43.328581
 21
190.394244
 31
0.0
  0
LINE
  5
279
100
AcDbEntity
  8
0
370
    -3
  6
Continuous
100
AcDbLine
 10
-40.328581
 20
400.394244
 30
0.0
 11
-39.328581
 21
399.394244
 31
0.0
  0
LINE
  5
27A
100
AcDbEntity
  8
0
370
    -3
  6
Continuous
100
AcDbLine
 10
-43.328581
 20
400.394244
 30
0.0
 11
-40.328581
 21
400.394244
 31
0.0
  0
LINE
  5
27B
100
AcDbEntity
  8
0
370
    -3
  6
Continuous
100
AcDbLine
 10
-36.328581
 20
328.894244
 30
0.0
 11
-35.328581
 21
328.894244
 31
0.0
  0
LINE
  5
27C
100
AcDbEntity
  8
0
370
    -3
  6
Continuous
100
AcDbLine
 10
-36.328581
 20
261.894244
 30
0.0
 11
-35.328581
 21
261.894244
 31
0.0
  0
LINE
  5
27D
100
AcDbEntity
  8
0
370
    -3
  6
Continuous
100
AcDbLine
 10
-35.328581
 20
261.894244
 30
0.0
 11
-35.328581
 21
328.894244
 31
0.0
  0
ARC
  5
27E
100
AcDbEntity
  8
0
370
    -3
  6
Continuous
100
AcDbCircle
 10
-40.328598
 20
250.241138
 30
0.0
 40
3.0
100
AcDbArc
 50
300.000187
 51
0.0
  0
ARC
  5
27F
100
AcDbEntity
  8
0
370
    -3
  6
Continuous
100
AcDbCircle
 10
-36.328581
 20
260.894244
 30
0.0
 40
1.0
100
AcDbArc
 50
90.0
 51
180.0
  0
ARC
  5
280
100
AcDbEntity
  8
0
370
    -3
  6
Continuous
100
AcDbCircle
 10
-36.328581
 20
329.894244
 30
0.0
 40
1.0
100
AcDbArc
 50
180.0
 51
270.0
  0
LINE
  5
281
100
AcDbEntity
  8
0
370
    -3
  6
Continuous
100
AcDbLine
 10
-57.328581
 20
407.894244
 30
0.0
 11
-43.328581
 21
407.894244
 31
0.0
  0
ARC
  5
282
100
AcDbEntity
  8
0
370
    -3
  6
Continuous
100
AcDbCircle
 10
-57.328581
 20
405.894244
 30
0.0
 40
2.0
100
AcDbArc
 50
90.0
 51
180.0
  0
LINE
  5
283
100
AcDbEntity
  8
0
370
    -3
  6
Continuous
100
AcDbLine
 10
-37.328581
 20
295.394244
 30
0.0
 11
-37.328581
 21
340.547351
 31
0.0
  0
LINE
  5
284
100
AcDbEntity
  8
0
370
    -3
  6
Continuous
100
AcDbLine
 10
-43.328581
 20
295.394244
 30
0.0
 11
-43.328581
 21
407.894244
 31
0.0
  0
LINE
  5
285
100
AcDbEntity
  8
0
370
    -3
  6
Continuous
100
AcDbLine
 10
-37.328581
 20
295.394244
 30
0.0
 11
-37.328581
 21
250.241138
 31
0.0
  0
LINE
  5
286
100
AcDbEntity
  8
0
370
    -3
  6
Continuous
100
AcDbLine
 10
-39.328581
 20
295.394244
 30
0.0
 11
-39.328581
 21
191.394244
 31
0.0
  0
LINE
  5
287
100
AcDbEntity
  8
0
370
    -3
  6
Continuous
100
AcDbLine
 10
-43.328581
 20
295.394244
 30
0.0
 11
-43.328581
 21
182.894244
 31
0.0
  0
ARC
  5
288
100
AcDbEntity
  8
0
370
    -3
  6
Continuous
100
AcDbCircle
 10
-37.328581
 20
245.044996
 30
0.0
 40
3.0
100
AcDbArc
 50
120.000187
 51
131.810315
  0
ARC
  5
289
100
AcDbEntity
  8
0
370
    -3
  6
Continuous
100
AcDbCircle
 10
-40.328581
 20
340.547351
 30
0.0
 40
3.0
100
AcDbArc
 50
0.0
 51
70.528779
  0
LINE
  5
28A
100
AcDbEntity
  8
0
370
    -3
  6
Continuous
100
AcDbLine
 10
-39.328581
 20
295.394244
 30
0.0
 11
-39.328581
 21
399.394244
 31
0.0
  0
ARC
  5
28B
100
AcDbEntity
  8
0
370
    -3
  6
Continuous
100
AcDbCircle
 10
-57.328581
 20
184.894244
 30
0.0
 40
2.0
100
AcDbArc
 50
180.0
 51
270.0
  0
LINE
  5
28C
100
AcDbEntity
  8
0
370
    -3
  6
Continuous
100
AcDbLine
 10
-59.328581
 20
184.894244
 30
0.0
 11
-59.328581
 21
405.894244
 31
0.0
  0
LINE
  5
28D
100
AcDbEntity
  8
0
370
    -3
  6
Continuous
100
AcDbLine
 10
-43.328581
 20
182.894244
 30
0.0
 11
-57.328581
 21
182.894244
 31
0.0
  0
ARC
  5
28E
100
AcDbEntity
  8
0
370
    -3
  6
Continuous
100
AcDbCircle
 10
-47.328581
 20
358.842818
 30
0.0
 40
3.0
100
AcDbArc
 50
90.0
 51
180.0
  0
LINE
  5
28F
100
AcDbEntity
  8
0
370
    -3
  6
Continuous
100
AcDbLine
 10
-50.328581
 20
295.394244
 30
0.0
 11
-50.328581
 21
383.681041
 31
0.0
  0
ARC
  5
290
100
AcDbEntity
  8
0
370
    -3
  6
Continuous
100
AcDbCircle
 10
-47.328581
 20
383.681041
 30
0.0
 40
3.0
100
AcDbArc
 50
90.0
 51
180.0
  0
LINE
  5
291
100
AcDbEntity
  8
0
370
    -3
  6
Continuous
100
AcDbLine
 10
-43.328581
 20
386.681041
 30
0.0
 11
-47.328581
 21
386.681041
 31
0.0
  0
LINE
  5
292
100
AcDbEntity
  8
0
370
    -3
  6
Continuous
100
AcDbLine
 10
-43.328581
 20
361.842818
 30
0.0
 11
-47.328581
 21
361.842818
 31
0.0
  0
ARC
  5
293
100
AcDbEntity
  8
0
370
    -3
  6
Continuous
100
AcDbCircle
 10
-47.328581
 20
231.945671
 30
0.0
 40
3.0
100
AcDbArc
 50
180.0
 51
270.0
  0
LINE
  5
294
100
AcDbEntity
  8
0
370
    -3
  6
Continuous
100
AcDbLine
 10
-50.328581
 20
295.394244
 30
0.0
 11
-50.328581
 21
207.107448
 31
0.0
  0
ARC
  5
295
100
AcDbEntity
  8
0
370
    -3
  6
Continuous
100
AcDbCircle
 10
-47.328581
 20
207.107448
 30
0.0
 40
3.0
100
AcDbArc
 50
180.0
 51
270.0
  0
LINE
  5
296
100
AcDbEntity
  8
0
370
    -3
  6
Continuous
100
AcDbLine
 10
-43.328581
 20
204.107448
 30
0.0
 11
-47.328581
 21
204.107448
 31
0.0
  0
LINE
  5
297
100
AcDbEntity
  8
0
370
    -3
  6
Continuous
100
AcDbLine
 10
-43.328581
 20
228.945671
 30
0.0
 11
-47.328581
 21
228.945671
 31
0.0
  0
LINE
  5
298
100
AcDbEntity
  8
0
370
    -3
  6
CENTER
100
AcDbLine
 10
-27.692072
 20
196.399295
 30
0.0
 11
-66.688064
 21
196.399295
 31
0.0
  0
LINE
  5
299
100
AcDbEntity
  8
0
370
    -3
  6
CENTER
100
AcDbLine
 10
-27.692072
 20
394.389194
 30
0.0
 11
-66.688064
 21
394.389194
 31
0.0
  0
LINE
  5
29A
100
AcDbEntity
  8
0
370
    -3
  6
Continuous
100
AcDbLine
 10
-220.328581
 20
241.894244
 30
0.0
 11
-220.328581
 21
295.394244
 31
0.0
  0
LINE
  5
29B
100
AcDbEntity
  8
0
370
    -3
  6
Continuous
100
AcDbLine
 10
-220.328581
 20
348.894244
 30
0.0
 11
-220.328581
 21
295.394244
 31
0.0
  0
LINE
  5
29C
100
AcDbEntity
  8
0
370
    -3
  6
Continuous
100
AcDbLine
 10
-220.328581
 20
241.894244
 30
0.0
 11
-220.328581
 21
295.394244
 31
0.0
  0
LINE
  5
29D
100
AcDbEntity
  8
0
370
    -3
  6
Continuous
100
AcDbLine
 10
-220.328581
 20
348.894244
 30
0.0
 11
-220.328581
 21
295.394244
 31
0.0
  0
CIRCLE
  5
29E
100
AcDbEntity
  8
0
370
    -3
  6
Continuous
100
AcDbCircle
 10
-628.794679
 20
48.939049
 30
0.0
 40
7.5
  0
ARC
  5
29F
100
AcDbEntity
  8
0
370
    -3
  6
CENTER
100
AcDbCircle
 10
-529.79973
 20
-50.055901
 30
0.0
 40
140.0
100
AcDbArc
 50
128.763453
 51
140.94774
  0
LINE
  5
2A0
100
AcDbEntity
  8
0
370
    -3
  6
CENTER
100
AcDbLine
 10
-637.339223
 20
57.483593
 30
0.0
 11
-619.508512
 21
39.652882
 31
0.0
  0
CIRCLE
  5
2A1
100
AcDbEntity
  8
0
370
    -3
  6
Continuous
100
AcDbCircle
 10
-628.794679
 20
-149.05085
 30
0.0
 40
7.5
  0
ARC
  5
2A2
100
AcDbEntity
  8
0
370
    -3
  6
CENTER
100
AcDbCircle
 10
-529.79973
 20
-50.055901
 30
0.0
 40
140.0
100
AcDbArc
 50
219.05226
 51
231.236547
  0
LINE
  5
2A3
100
AcDbEntity
  8
0
370
    -3
  6
CENTER
100
AcDbLine
 10
-637.339223
 20
-157.595394
 30
0.0
 11
-619.508512
 21
-139.764683
 31
0.0
  0
CIRCLE
  5
2A4
100
AcDbEntity
  8
0
370
    -3
  6
Continuous
100
AcDbCircle
 10
-430.80478
 20
-149.05085
 30
0.0
 40
7.5
  0
ARC
  5
2A5
100
AcDbEntity
  8
0
370
    -3
  6
CENTER
100
AcDbCircle
 10
-529.79973
 20
-50.055901
 30
0.0
 40
140.0
100
AcDbArc
 50
308.763453
 51
320.94774
  0
LINE
  5
2A6
100
AcDbEntity
  8
0
370
    -3
  6
CENTER
100
AcDbLine
 10
-422.260236
 20
-157.595394
 30
0.0
 11
-440.090947
 21
-139.764683
 31
0.0
  0
ARC
  5
2A7
100
AcDbEntity
  8
0
370
    -3
  6
CENTER
100
AcDbCircle
 10
-529.79973
 20
-50.055901
 30
0.0
 40
140.0
100
AcDbArc
 50
39.05226
 51
51.236547
  0
LINE
  5
2A8
100
AcDbEntity
  8
0
370
    -3
  6
CENTER
100
AcDbLine
 10
-422.260236
 20
57.483593
 30
0.0
 11
-440.090947
 21
39.652882
 31
0.0
  0
ARC
  5
2A9
100
AcDbEntity
  8
0
370
    -3
  6
Continuous
100
AcDbCircle
 10
-540.29973
 20
10.944099
 30
0.0
 40
10.0
100
AcDbArc
 50
180.0
 51
270.0
  0
LINE
  5
2AA
100
AcDbEntity
  8
0
370
    -3
  6
Continuous
100
AcDbLine
 10
-540.29973
 20
0.944099
 30
0.0
 11
-519.29973
 21
0.944099
 31
0.0
  0
ARC
  5
2AB
100
AcDbEntity
  8
0
370
    -3
  6
Continuous
100
AcDbCircle
 10
-519.29973
 20
10.944099
 30
0.0
 40
10.0
100
AcDbArc
 50
270.0
 51
0.0
  0
LINE
  5
2AC
100
AcDbEntity
  8
0
370
    -3
  6
Continuous
100
AcDbLine
 10
-532.79973
 20
56.944099
 30
0.0
 11
-532.79973
 21
54.944099
 31
0.0
  0
LINE
  5
2AD
100
AcDbEntity
  8
0
370
    -3
  6
Continuous
100
AcDbLine
 10
-526.79973
 20
56.944099
 30
0.0
 11
-526.79973
 21
54.944099
 31
0.0
  0
ARC
  5
2AE
100
AcDbEntity
  8
0
370
    -3
  6
Continuous
100
AcDbCircle
 10
-425.29973
 20
-154.555901
 30
0.0
 40
8.0
100
AcDbArc
 50
270.0
 51
0.0
  0
ARC
  5
2AF
100
AcDbEntity
  8
0
370
    -3
  6
Continuous
100
AcDbCircle
 10
-634.29973
 20
-154.555901
 30
0.0
 40
8.0
100
AcDbArc
 50
180.0
 51
270.0
  0
ARC
  5
2B0
100
AcDbEntity
  8
0
370
    -3
  6
Continuous
100
AcDbCircle
 10
-634.29973
 20
54.444099
 30
0.0
 40
8.0
100
AcDbArc
 50
90.0
 51
180.0
  0
ARC
  5
2B1
100
AcDbEntity
  8
0
370
    -3
  6
Continuous
100
AcDbCircle
 10
-425.29973
 20
54.444099
 30
0.0
 40
8.0
100
AcDbArc
 50
0.0
 51
90.0
  0
CIRCLE
  5
2B2
100
AcDbEntity
  8
0
370
    -3
  6
Continuous
100
AcDbCircle
 10
-430.80478
 20
48.939049
 30
0.0
 40
7.5
  0
ARC
  5
2B3
100
AcDbEntity
  8
0
370
    -3
  6
Continuous
100
AcDbCircle
 10
-535.79973
 20
56.944099
 30
0.0
 40
3.0
100
AcDbArc
 50
0.0
 51
90.0
  0
ARC
  5
2B4
100
AcDbEntity
  8
0
370
    -3
  6
Continuous
100
AcDbCircle
 10
-523.79973
 20
56.944099
 30
0.0
 40
3.0
100
AcDbArc
 50
90.0
 51
180.0
  0
ARC
  5
2B5
100
AcDbEntity
  8
0
370
    -3
  6
Continuous
100
AcDbCircle
 10
-583.804137
 20
12.433788
 30
0.0
 40
3.0
100
AcDbArc
 50
225.0
 51
298.814852
  0
ARC
  5
2B6
100
AcDbEntity
  8
0
370
    -3
  6
Continuous
100
AcDbCircle
 10
-594.084928
 20
5.744017
 30
0.0
 40
3.0
100
AcDbArc
 50
307.289727
 51
45.0
  0
ARC
  5
2B7
100
AcDbEntity
  8
0
370
    -3
  6
Continuous
100
AcDbCircle
 10
-617.344261
 20
29.003349
 30
0.0
 40
3.0
100
AcDbArc
 50
45.0
 51
135.0
  0
ARC
  5
2B8
100
AcDbEntity
  8
0
370
    -3
  6
Continuous
100
AcDbCircle
 10
-608.858979
 20
37.488631
 30
0.0
 40
3.0
100
AcDbArc
 50
135.0
 51
225.0
  0
ARC
  5
2B9
100
AcDbEntity
  8
0
370
    -3
  6
Continuous
100
AcDbCircle
 10
-450.74048
 20
37.488631
 30
0.0
 40
3.0
100
AcDbArc
 50
315.0
 51
45.0
  0
ARC
  5
2BA
100
AcDbEntity
  8
0
370
    -3
  6
Continuous
100
AcDbCircle
 10
-442.255198
 20
29.003349
 30
0.0
 40
3.0
100
AcDbArc
 50
45.0
 51
135.0
  0
ARC
  5
2BB
100
AcDbEntity
  8
0
370
    -3
  6
Continuous
100
AcDbCircle
 10
-465.514531
 20
5.744017
 30
0.0
 40
3.0
100
AcDbArc
 50
135.0
 51
232.710273
  0
ARC
  5
2BC
100
AcDbEntity
  8
0
370
    -3
  6
Continuous
100
AcDbCircle
 10
-475.795322
 20
12.433788
 30
0.0
 40
3.0
100
AcDbArc
 50
241.185148
 51
315.0
  0
LINE
  5
2BD
100
AcDbEntity
  8
0
370
    -3
  6
Continuous
100
AcDbLine
 10
-467.737941
 20
-162.555901
 30
0.0
 11
-425.29973
 21
-162.555901
 31
0.0
  0
LINE
  5
2BE
100
AcDbEntity
  8
0
370
    -3
  6
Continuous
100
AcDbLine
 10
-634.29973
 20
-162.555901
 30
0.0
 11
-591.861518
 21
-162.555901
 31
0.0
  0
LINE
  5
2BF
100
AcDbEntity
  8
0
370
    -3
  6
Continuous
100
AcDbLine
 10
-642.29973
 20
54.444099
 30
0.0
 11
-642.29973
 21
-154.555901
 31
0.0
  0
LINE
  5
2C0
100
AcDbEntity
  8
0
370
    -3
  6
Continuous
100
AcDbLine
 10
-634.29973
 20
62.444099
 30
0.0
 11
-425.29973
 21
62.444099
 31
0.0
  0
LINE
  5
2C1
100
AcDbEntity
  8
0
370
    -3
  6
Continuous
100
AcDbLine
 10
-417.29973
 20
54.444099
 30
0.0
 11
-417.29973
 21
-8.800064
 31
0.0
  0
LINE
  5
2C2
100
AcDbEntity
  8
0
370
    -3
  6
Continuous
100
AcDbLine
 10
-610.9803
 20
35.36731
 30
0.0
 11
-585.925457
 21
10.312468
 31
0.0
  0
LINE
  5
2C3
100
AcDbEntity
  8
0
370
    -3
  6
Continuous
100
AcDbLine
 10
-615.22294
 20
31.12467
 30
0.0
 11
-591.963608
 21
7.865337
 31
0.0
  0
LINE
  5
2C4
100
AcDbEntity
  8
0
370
    -3
  6
Continuous
100
AcDbLine
 10
-448.619159
 20
35.36731
 30
0.0
 11
-473.674002
 21
10.312468
 31
0.0
  0
LINE
  5
2C5
100
AcDbEntity
  8
0
370
    -3
  6
Continuous
100
AcDbLine
 10
-444.376519
 20
31.12467
 30
0.0
 11
-467.635851
 21
7.865337
 31
0.0
  0
ARC
  5
2C6
100
AcDbEntity
  8
0
370
    -3
  6
Continuous
100
AcDbCircle
 10
-565.649989
 20
-138.177764
 30
0.0
 40
3.0
100
AcDbArc
 50
79.695154
 51
95.631714
  0
ARC
  5
2C7
100
AcDbEntity
  8
0
370
    -3
  6
Continuous
100
AcDbCircle
 10
-492.64995
 20
-137.94063
 30
0.0
 40
3.0
100
AcDbArc
 50
99.749988
 51
139.848912
  0
ARC
  5
2C8
100
AcDbEntity
  8
0
370
    -3
  6
Continuous
100
AcDbCircle
 10
-515.580353
 20
-118.596468
 30
0.0
 40
27.0
100
AcDbArc
 50
232.492357
 51
319.848912
  0
ARC
  5
2C9
100
AcDbEntity
  8
0
370
    -3
  6
Continuous
100
AcDbCircle
 10
-529.79973
 20
-80.055901
 30
0.0
 40
101.0
100
AcDbArc
 50
309.950234
 51
337.98463
  0
ARC
  5
2CA
100
AcDbEntity
  8
0
370
    -3
  6
Continuous
100
AcDbCircle
 10
-529.79973
 20
-80.055901
 30
0.0
 40
101.0
100
AcDbArc
 50
202.01537
 51
230.049766
  0
ARC
  5
2CB
100
AcDbEntity
  8
0
370
    -3
  6
Continuous
100
AcDbCircle
 10
-618.79973
 20
-116.042009
 30
0.0
 40
5.0
100
AcDbArc
 50
180.0
 51
202.01537
  0
ARC
  5
2CC
100
AcDbEntity
  8
0
370
    -3
  6
Continuous
100
AcDbCircle
 10
-440.79973
 20
-116.042009
 30
0.0
 40
5.0
100
AcDbArc
 50
337.98463
 51
0.0
  0
ARC
  5
2CD
100
AcDbEntity
  8
0
370
    -3
  6
Continuous
100
AcDbCircle
 10
-599.791027
 20
-163.61557
 30
0.0
 40
8.0
100
AcDbArc
 50
1.78177
 51
50.049766
  0
ARC
  5
2CE
100
AcDbEntity
  8
0
370
    -3
  6
Continuous
100
AcDbCircle
 10
-581.79973
 20
-163.055901
 30
0.0
 40
10.0
100
AcDbArc
 50
181.78177
 51
270.0
  0
ARC
  5
2CF
100
AcDbEntity
  8
0
370
    -3
  6
Continuous
100
AcDbCircle
 10
-477.79973
 20
-163.055901
 30
0.0
 40
10.0
100
AcDbArc
 50
270.0
 51
358.21823
  0
ARC
  5
2D0
100
AcDbEntity
  8
0
370
    -3
  6
Continuous
100
AcDbCircle
 10
-459.808433
 20
-163.61557
 30
0.0
 40
8.0
100
AcDbArc
 50
129.950234
 51
178.21823
  0
ARC
  5
2D1
100
AcDbEntity
  8
0
370
    -3
  6
Continuous
100
AcDbCircle
 10
-620.297727
 20
-45.055901
 30
0.0
 40
2.0
100
AcDbArc
 50
168.737752
 51
270.0
  0
ARC
  5
2D2
100
AcDbEntity
  8
0
370
    -3
  6
Continuous
100
AcDbCircle
 10
-621.79973
 20
-65.055901
 30
0.0
 40
2.0
100
AcDbArc
 50
90.0
 51
180.0
  0
LINE
  5
2D3
100
AcDbEntity
  8
0
370
    -3
  6
Continuous
100
AcDbLine
 10
-435.79973
 20
-102.355901
 30
0.0
 11
-435.79973
 21
-116.042009
 31
0.0
  0
LINE
  5
2D4
100
AcDbEntity
  8
0
370
    -3
  6
Continuous
100
AcDbLine
 10
-477.79973
 20
-173.055901
 30
0.0
 11
-529.79973
 21
-173.055901
 31
0.0
  0
LINE
  5
2D5
100
AcDbEntity
  8
0
370
    -3
  6
Continuous
100
AcDbLine
 10
-581.79973
 20
-173.055901
 30
0.0
 11
-529.79973
 21
-173.055901
 31
0.0
  0
LINE
  5
2D6
100
AcDbEntity
  8
0
370
    -3
  6
Continuous
100
AcDbLine
 10
-623.79973
 20
-60.289299
 30
0.0
 11
-623.79973
 21
-116.042009
 31
0.0
  0
LINE
  5
2D7
100
AcDbEntity
  8
0
370
    -3
  6
CENTER
100
AcDbLine
 10
-506.631817
 20
34.944099
 30
0.0
 11
-553.65433
 21
34.944099
 31
0.0
  0
CIRCLE
  5
2D8
100
AcDbEntity
  8
0
370
    -3
  6
Continuous
100
AcDbCircle
 10
-529.79973
 20
34.944099
 30
0.0
 40
10.0
  0
LINE
  5
2D9
100
AcDbEntity
  8
0
370
    -3
  6
Continuous
100
AcDbLine
 10
-550.29973
 20
44.944099
 30
0.0
 11
-550.29973
 21
1.944099
 31
0.0
  0
ARC
  5
2DA
100
AcDbEntity
  8
0
370
    -3
  6
Continuous
100
AcDbCircle
 10
-540.29973
 20
44.944099
 30
0.0
 40
10.0
100
AcDbArc
 50
90.0
 51
180.0
  0
LINE
  5
2DB
100
AcDbEntity
  8
0
370
    -3
  6
Continuous
100
AcDbLine
 10
-519.29973
 20
54.944099
 30
0.0
 11
-540.29973
 21
54.944099
 31
0.0
  0
ARC
  5
2DC
100
AcDbEntity
  8
0
370
    -3
  6
Continuous
100
AcDbCircle
 10
-519.29973
 20
44.944099
 30
0.0
 40
10.0
100
AcDbArc
 50
0.0
 51
90.0
  0
LINE
  5
2DD
100
AcDbEntity
  8
0
370
    -3
  6
Continuous
100
AcDbLine
 10
-509.29973
 20
44.944099
 30
0.0
 11
-509.29973
 21
1.944099
 31
0.0
  0
INSERT
  5
2EA
100
AcDbEntity
  8
0
100
AcDbBlockReference
  2
ZU_SYM__USERS_HOME_SYMBOL_POO_SYM_B20_00011-1
 10
-477.79973
 20
-163.055901
 30
0.0
  0
INSERT
  5
2F7
100
AcDbEntity
  8
0
100
AcDbBlockReference
  2
ZU_SYM__USERS_HOME_SYMBOL_POO_SYM_B20_00012-1
 10
-581.79973
 20
-163.055901
 30
0.0
 41
-1.0
  0
LINE
  5
2F8
100
AcDbEntity
  8
0
370
    -3
  6
Continuous
100
AcDbLine
 10
-543.132021
 20
-138.555901
 30
0.0
 11
-545.44718
 21
-138.555901
 31
0.0
  0
LINE
  5
2F9
100
AcDbEntity
  8
0
370
    -3
  6
Continuous
100
AcDbLine
 10
-516.467438
 20
-138.555901
 30
0.0
 11
-514.152279
 21
-138.555901
 31
0.0
  0
ARC
  5
2FA
100
AcDbEntity
  8
0
370
    -3
  6
Continuous
100
AcDbCircle
 10
-529.79973
 20
-80.055901
 30
0.0
 40
60.0
100
AcDbArc
 50
257.161432
 51
282.838568
  0
ARC
  5
2FB
100
AcDbEntity
  8
0
370
    -3
  6
Continuous
100
AcDbCircle
 10
-545.29973
 20
-134.555901
 30
0.0
 40
3.0
100
AcDbArc
 50
180.0
 51
270.0
  0
ARC
  5
2FC
100
AcDbEntity
  8
0
370
    -3
  6
Continuous
100
AcDbCircle
 10
-514.29973
 20
-134.555901
 30
0.0
 40
3.0
100
AcDbArc
 50
270.0
 51
0.0
  0
ARC
  5
2FD
100
AcDbEntity
  8
0
370
    -3
  6
Continuous
100
AcDbCircle
 10
-557.29973
 20
-134.785349
 30
0.0
 40
5.0
100
AcDbArc
 50
0.0
 51
63.321766
  0
ARC
  5
2FE
100
AcDbEntity
  8
0
370
    -3
  6
Continuous
100
AcDbCircle
 10
-529.79973
 20
-80.055901
 30
0.0
 40
56.25
100
AcDbArc
 50
220.772805
 51
243.321766
  0
ARC
  5
2FF
100
AcDbEntity
  8
0
370
    -3
  6
Continuous
100
AcDbCircle
 10
-576.184668
 20
-120.055901
 30
0.0
 40
5.0
100
AcDbArc
 50
40.772805
 51
90.0
  0
LINE
  5
300
100
AcDbEntity
  8
0
370
    -3
  6
Continuous
100
AcDbLine
 10
-580.959327
 20
-115.055901
 30
0.0
 11
-576.184668
 21
-115.055901
 31
0.0
  0
ARC
  5
301
100
AcDbEntity
  8
0
370
    -3
  6
Continuous
100
AcDbCircle
 10
-580.959327
 20
-110.055901
 30
0.0
 40
5.0
100
AcDbArc
 50
190.0
 51
270.0
  0
ARC
  5
302
100
AcDbEntity
  8
0
370
    -3
  6
Continuous
100
AcDbCircle
 10
-502.29973
 20
-134.785349
 30
0.0
 40
5.0
100
AcDbArc
 50
116.678234
 51
180.0
  0
ARC
  5
303
100
AcDbEntity
  8
0
370
    -3
  6
Continuous
100
AcDbCircle
 10
-529.79973
 20
-80.055901
 30
0.0
 40
56.25
100
AcDbArc
 50
296.678234
 51
319.227195
  0
ARC
  5
304
100
AcDbEntity
  8
0
370
    -3
  6
Continuous
100
AcDbCircle
 10
-483.414791
 20
-120.055901
 30
0.0
 40
5.0
100
AcDbArc
 50
90.0
 51
139.227195
  0
LINE
  5
305
100
AcDbEntity
  8
0
370
    -3
  6
Continuous
100
AcDbLine
 10
-478.640132
 20
-115.055901
 30
0.0
 11
-483.414791
 21
-115.055901
 31
0.0
  0
ARC
  5
306
100
AcDbEntity
  8
0
370
    -3
  6
Continuous
100
AcDbCircle
 10
-478.640132
 20
-110.055901
 30
0.0
 40
5.0
100
AcDbArc
 50
270.0
 51
350.0
  0
ARC
  5
307
100
AcDbEntity
  8
0
370
    -3
  6
Continuous
100
AcDbCircle
 10
-570.111272
 20
-113.99057
 30
0.0
 40
15.0
100
AcDbArc
 50
190.0
 51
225.0
  0
LINE
  5
308
100
AcDbEntity
  8
0
370
    -3
  6
Continuous
100
AcDbLine
 10
-580.717874
 20
-124.597172
 30
0.0
 11
-574.507824
 21
-130.807222
 31
0.0
  0
ARC
  5
309
100
AcDbEntity
  8
0
370
    -3
  6
Continuous
100
AcDbCircle
 10
-563.901222
 20
-120.20062
 30
0.0
 40
15.0
100
AcDbArc
 50
225.0
 51
259.695154
  0
LINE
  5
30A
100
AcDbEntity
  8
0
370
    -3
  6
Continuous
100
AcDbLine
 10
-566.584503
 20
-134.958669
 30
0.0
 11
-548.130462
 21
-138.313949
 31
0.0
  0
ARC
  5
30B
100
AcDbEntity
  8
0
370
    -3
  6
Continuous
100
AcDbCircle
 10
-545.44718
 20
-123.555901
 30
0.0
 40
15.0
100
AcDbArc
 50
259.695154
 51
270.0
  0
ARC
  5
30C
100
AcDbEntity
  8
0
370
    -3
  6
Continuous
100
AcDbCircle
 10
-489.488187
 20
-113.99057
 30
0.0
 40
15.0
100
AcDbArc
 50
315.0
 51
350.0
  0
LINE
  5
30D
100
AcDbEntity
  8
0
370
    -3
  6
Continuous
100
AcDbLine
 10
-478.881585
 20
-124.597172
 30
0.0
 11
-485.091636
 21
-130.807222
 31
0.0
  0
ARC
  5
30E
100
AcDbEntity
  8
0
370
    -3
  6
Continuous
100
AcDbCircle
 10
-495.698237
 20
-120.20062
 30
0.0
 40
15.0
100
AcDbArc
 50
280.304846
 51
315.0
  0
LINE
  5
30F
100
AcDbEntity
  8
0
370
    -3
  6
Continuous
100
AcDbLine
 10
-493.014956
 20
-134.958669
 30
0.0
 11
-511.468997
 21
-138.313949
 31
0.0
  0
ARC
  5
310
100
AcDbEntity
  8
0
370
    -3
  6
Continuous
100
AcDbCircle
 10
-514.152279
 20
-123.555901
 30
0.0
 40
15.0
100
AcDbArc
 50
270.0
 51
280.304846
  0
INSERT
  5
31C
100
AcDbEntity
  8
0
100
AcDbBlockReference
  2
ZU_SYM__USERS_HOME_SYMBOL_STD_SYM_B01_00013-1
 10
-573.993903
 20
-124.250074
 30
0.0
  0
INSERT
  5
328
100
AcDbEntity
  8
0
100
AcDbBlockReference
  2
ZU_SYM__USERS_HOME_SYMBOL_STD_SYM_B01_00014-1
 10
-485.605556
 20
-124.250074
 30
0.0
 41
-1.0
  0
INSERT
  5
335
100
AcDbEntity
  8
0
100
AcDbBlockReference
  2
ZU_SYM__USERS_HOME_SYMBOL_POO_SYM_B20_00015-1
 10
-540.29973
 20
10.944099
 30
0.0
 41
-1.0
  0
INSERT
  5
342
100
AcDbEntity
  8
0
100
AcDbBlockReference
  2
ZU_SYM__USERS_HOME_SYMBOL_POO_SYM_B20_00016-1
 10
-519.29973
 20
10.944099
 30
0.0
  0
LINE
  5
343
100
AcDbEntity
  8
0
370
    -3
  6
Continuous
100
AcDbLine
 10
-526.79973
 20
44.483491
 30
0.0
 11
-526.79973
 21
25.404707
 31
0.0
  0
LINE
  5
344
100
AcDbEntity
  8
0
370
    -3
  6
Continuous
100
AcDbLine
 10
-532.79973
 20
44.483491
 30
0.0
 11
-532.79973
 21
25.404707
 31
0.0
  0
LINE
  5
345
100
AcDbEntity
  8
0
370
    -3
  6
Continuous
100
AcDbLine
 10
-417.29973
 20
-102.311737
 30
0.0
 11
-417.29973
 21
-154.555901
 31
0.0
  0
LINE
  5
346
100
AcDbEntity
  8
0
370
    -3
  6
Continuous
100
AcDbLine
 10
-220.328581
 20
348.894244
 30
0.0
 11
-220.328581
 21
295.394244
 31
0.0
  0
LINE
  5
347
100
AcDbEntity
  8
0
370
    -3
  6
Continuous
100
AcDbLine
 10
-220.328581
 20
241.894244
 30
0.0
 11
-220.328581
 21
295.394244
 31
0.0
  0
ARC
  5
348
100
AcDbEntity
  8
0
370
    -3
  6
Continuous
100
AcDbCircle
 10
200.142567
 20
-60.289299
 30
0.0
 40
77.139212
100
AcDbArc
 50
14.640477
 51
88.089787
  0
LINE
  5
349
100
AcDbEntity
  8
0
370
    -3
  6
Continuous
100
AcDbLine
 10
-284.328581
 20
-109.555901
 30
0.0
 11
-284.328581
 21
-102.355901
 31
0.0
  0
LINE
  5
34A
100
AcDbEntity
  8
0
370
    -3
  6
Continuous
100
AcDbLine
 10
-295.328581
 20
-104.699822
 30
0.0
 11
-297.328581
 21
-103.04718
 31
0.0
  0
LINE
  5
34B
100
AcDbEntity
  8
0
370
    -3
  6
Continuous
100
AcDbLine
 10
-295.328581
 20
-104.699822
 30
0.0
 11
-293.328581
 21
-103.04718
 31
0.0
  0
LINE
  5
34C
100
AcDbEntity
  8
0
370
    -3
  6
Continuous
100
AcDbLine
 10
-297.328581
 20
-105.875607
 30
0.0
 11
-295.328581
 21
-104.699822
 31
0.0
  0
LINE
  5
34D
100
AcDbEntity
  8
0
370
    -3
  6
Continuous
100
AcDbLine
 10
-293.328581
 20
-105.875607
 30
0.0
 11
-295.328581
 21
-104.699822
 31
0.0
  0
ELLIPSE
  5
34E
100
AcDbEntity
  8
0
370
    -3
  6
Continuous
100
AcDbEllipse
 10
-295.328581
 20
-102.883232
 30
0.0
 11
4.6999999999999886
 21
0.0
 31
0.0
210
0.0
220
0.0
230
1.0
 40
0.766646
 41
2.9947159677073079
 42
0.146876685882366
  0
LINE
  5
34F
100
AcDbEntity
  8
0
370
    -3
  6
Continuous
100
AcDbLine
 10
-284.328581
 20
-109.555901
 30
0.0
 11
-339.833426
 21
-109.555901
 31
0.0
  0
LINE
  5
350
100
AcDbEntity
  8
0
370
    -3
  6
Continuous
100
AcDbLine
 10
-351.649101
 20
-105.830433
 30
0.0
 11
-359.21988
 21
-100.529316
 31
0.0
  0
LINE
  5
351
100
AcDbEntity
  8
0
370
    -3
  6
Continuous
100
AcDbLine
 10
-360.328581
 20
-98.399521
 30
0.0
 11
-360.328581
 21
-55.555901
 31
0.0
  0
ARC
  5
352
100
AcDbEntity
  8
0
370
    -3
  6
Continuous
100
AcDbCircle
 10
-357.728581
 20
-98.399521
 30
0.0
 40
2.6
100
AcDbArc
 50
180.0
 51
235.0
  0
ARC
  5
353
100
AcDbEntity
  8
0
370
    -3
  6
Continuous
100
AcDbCircle
 10
-339.833426
 20
-88.955901
 30
0.0
 40
20.6
100
AcDbArc
 50
235.0
 51
270.0
  0
LINE
  5
354
100
AcDbEntity
  8
0
370
    -3
  6
Continuous
100
AcDbLine
 10
-351.649101
 20
-5.281369
 30
0.0
 11
-359.21988
 21
-10.582485
 31
0.0
  0
LINE
  5
355
100
AcDbEntity
  8
0
370
    -3
  6
Continuous
100
AcDbLine
 10
-360.328581
 20
-12.71228
 30
0.0
 11
-360.328581
 21
-55.555901
 31
0.0
  0
ARC
  5
356
100
AcDbEntity
  8
0
370
    -3
  6
Continuous
100
AcDbCircle
 10
-357.728581
 20
-12.71228
 30
0.0
 40
2.6
100
AcDbArc
 50
125.0
 51
180.0
  0
ARC
  5
357
100
AcDbEntity
  8
0
370
    -3
  6
Continuous
100
AcDbCircle
 10
-339.833426
 20
-22.155901
 30
0.0
 40
20.6
100
AcDbArc
 50
90.0
 51
125.0
  0
LINE
  5
358
100
AcDbEntity
  8
0
370
    -3
  6
Continuous
100
AcDbLine
 10
-284.328581
 20
-1.555901
 30
0.0
 11
-284.328581
 21
-8.755901
 31
0.0
  0
ELLIPSE
  5
359
100
AcDbEntity
  8
0
370
    -3
  6
Continuous
100
AcDbEllipse
 10
-295.328581
 20
-8.22857
 30
0.0
 11
4.6999999999999886
 21
0.0
 31
0.0
210
0.0
220
0.0
230
1.0
 40
0.766646
 41
6.1363086212977818
 42
3.2884693394715918
  0
LINE
  5
35A
100
AcDbEntity
  8
0
370
    -3
  6
Continuous
100
AcDbLine
 10
-297.328581
 20
-5.236194
 30
0.0
 11
-295.328581
 21
-6.41198
 31
0.0
  0
LINE
  5
35B
100
AcDbEntity
  8
0
370
    -3
  6
Continuous
100
AcDbLine
 10
-295.328581
 20
-6.41198
 30
0.0
 11
-293.328581
 21
-8.064621
 31
0.0
  0
LINE
  5
35C
100
AcDbEntity
  8
0
370
    -3
  6
Continuous
100
AcDbLine
 10
-293.328581
 20
-5.236194
 30
0.0
 11
-295.328581
 21
-6.41198
 31
0.0
  0
LINE
  5
35D
100
AcDbEntity
  8
0
370
    -3
  6
Continuous
100
AcDbLine
 10
-295.328581
 20
-6.41198
 30
0.0
 11
-297.328581
 21
-8.064621
 31
0.0
  0
LINE
  5
35E
100
AcDbEntity
  8
0
370
    -3
  6
Continuous
100
AcDbLine
 10
-284.328581
 20
-1.555901
 30
0.0
 11
-339.833426
 21
-1.555901
 31
0.0
  0
LINE
  5
35F
100
AcDbEntity
  8
0
370
    -3
  6
Continuous
100
AcDbLine
 10
-284.328581
 20
-109.555901
 30
0.0
 11
-284.328581
 21
-102.355901
 31
0.0
  0
LINE
  5
360
100
AcDbEntity
  8
0
370
    -3
  6
Continuous
100
AcDbLine
 10
-295.328581
 20
-104.699822
 30
0.0
 11
-297.328581
 21
-103.04718
 31
0.0
  0
LINE
  5
361
100
AcDbEntity
  8
0
370
    -3
  6
Continuous
100
AcDbLine
 10
-295.328581
 20
-104.699822
 30
0.0
 11
-293.328581
 21
-103.04718
 31
0.0
  0
LINE
  5
362
100
AcDbEntity
  8
0
370
    -3
  6
Continuous
100
AcDbLine
 10
-297.328581
 20
-105.875607
 30
0.0
 11
-295.328581
 21
-104.699822
 31
0.0
  0
LINE
  5
363
100
AcDbEntity
  8
0
370
    -3
  6
Continuous
100
AcDbLine
 10
-293.328581
 20
-105.875607
 30
0.0
 11
-295.328581
 21
-104.699822
 31
0.0
  0
ELLIPSE
  5
364
100
AcDbEntity
  8
0
370
    -3
  6
Continuous
100
AcDbEllipse
 10
-295.328581
 20
-102.883232
 30
0.0
 11
4.6999999999999886
 21
0.0
 31
0.0
210
0.0
220
0.0
230
1.0
 40
0.766646
 41
2.9947159677073079
 42
0.146876685882366
  0
LINE
  5
365
100
AcDbEntity
  8
0
370
    -3
  6
Continuous
100
AcDbLine
 10
-284.328581
 20
-109.555901
 30
0.0
 11
-339.833426
 21
-109.555901
 31
0.0
  0
LINE
  5
366
100
AcDbEntity
  8
0
370
    -3
  6
Continuous
100
AcDbLine
 10
-351.649101
 20
-105.830433
 30
0.0
 11
-359.21988
 21
-100.529316
 31
0.0
  0
LINE
  5
367
100
AcDbEntity
  8
0
370
    -3
  6
Continuous
100
AcDbLine
 10
-360.328581
 20
-98.399521
 30
0.0
 11
-360.328581
 21
-55.555901
 31
0.0
  0
ARC
  5
368
100
AcDbEntity
  8
0
370
    -3
  6
Continuous
100
AcDbCircle
 10
-357.728581
 20
-98.399521
 30
0.0
 40
2.6
100
AcDbArc
 50
180.0
 51
235.0
  0
ARC
  5
369
100
AcDbEntity
  8
0
370
    -3
  6
Continuous
100
AcDbCircle
 10
-339.833426
 20
-88.955901
 30
0.0
 40
20.6
100
AcDbArc
 50
235.0
 51
270.0
  0
LINE
  5
36A
100
AcDbEntity
  8
0
370
    -3
  6
Continuous
100
AcDbLine
 10
-351.649101
 20
-5.281369
 30
0.0
 11
-359.21988
 21
-10.582485
 31
0.0
  0
LINE
  5
36B
100
AcDbEntity
  8
0
370
    -3
  6
Continuous
100
AcDbLine
 10
-360.328581
 20
-12.71228
 30
0.0
 11
-360.328581
 21
-55.555901
 31
0.0
  0
ARC
  5
36C
100
AcDbEntity
  8
0
370
    -3
  6
Continuous
100
AcDbCircle
 10
-357.728581
 20
-12.71228
 30
0.0
 40
2.6
100
AcDbArc
 50
125.0
 51
180.0
  0
ARC
  5
36D
100
AcDbEntity
  8
0
370
    -3
  6
Continuous
100
AcDbCircle
 10
-339.833426
 20
-22.155901
 30
0.0
 40
20.6
100
AcDbArc
 50
90.0
 51
125.0
  0
LINE
  5
36E
100
AcDbEntity
  8
0
370
    -3
  6
Continuous
100
AcDbLine
 10
-284.328581
 20
-1.555901
 30
0.0
 11
-284.328581
 21
-8.755901
 31
0.0
  0
ELLIPSE
  5
36F
100
AcDbEntity
  8
0
370
    -3
  6
Continuous
100
AcDbEllipse
 10
-295.328581
 20
-8.22857
 30
0.0
 11
4.6999999999999886
 21
0.0
 31
0.0
210
0.0
220
0.0
230
1.0
 40
0.766646
 41
6.1363086212977818
 42
3.2884693394715918
  0
LINE
  5
370
100
AcDbEntity
  8
0
370
    -3
  6
Continuous
100
AcDbLine
 10
-297.328581
 20
-5.236194
 30
0.0
 11
-295.328581
 21
-6.41198
 31
0.0
  0
LINE
  5
371
100
AcDbEntity
  8
0
370
    -3
  6
Continuous
100
AcDbLine
 10
-295.328581
 20
-6.41198
 30
0.0
 11
-293.328581
 21
-8.064621
 31
0.0
  0
LINE
  5
372
100
AcDbEntity
  8
0
370
    -3
  6
Continuous
100
AcDbLine
 10
-293.328581
 20
-5.236194
 30
0.0
 11
-295.328581
 21
-6.41198
 31
0.0
  0
LINE
  5
373
100
AcDbEntity
  8
0
370
    -3
  6
Continuous
100
AcDbLine
 10
-295.328581
 20
-6.41198
 30
0.0
 11
-297.328581
 21
-8.064621
 31
0.0
  0
LINE
  5
374
100
AcDbEntity
  8
0
370
    -3
  6
Continuous
100
AcDbLine
 10
-284.328581
 20
-1.555901
 30
0.0
 11
-339.833426
 21
-1.555901
 31
0.0
  0
LINE
  5
375
100
AcDbEntity
  8
0
370
    -3
  6
Continuous
100
AcDbLine
 10
-220.328581
 20
-3.055901
 30
0.0
 11
-284.328581
 21
-3.055901
 31
0.0
  0
LINE
  5
376
100
AcDbEntity
  8
0
370
    -3
  6
Continuous
100
AcDbLine
 10
-284.328581
 20
-5.055901
 30
0.0
 11
-220.328581
 21
-5.055901
 31
0.0
  0
LINE
  5
377
100
AcDbEntity
  8
0
370
    -3
  6
Continuous
100
AcDbLine
 10
-284.328581
 20
-4.555901
 30
0.0
 11
-220.328581
 21
-4.555901
 31
0.0
  0
LINE
  5
378
100
AcDbEntity
  8
0
370
    -3
  6
Continuous
100
AcDbLine
 10
-284.328581
 20
-8.229304
 30
0.0
 11
-220.328581
 21
-8.229304
 31
0.0
  0
LINE
  5
379
100
AcDbEntity
  8
0
370
    -3
  6
Continuous
100
AcDbLine
 10
-284.328581
 20
-106.055901
 30
0.0
 11
-220.328581
 21
-106.055901
 31
0.0
  0
LINE
  5
37A
100
AcDbEntity
  8
0
370
    -3
  6
Continuous
100
AcDbLine
 10
-284.328581
 20
-106.555901
 30
0.0
 11
-220.328581
 21
-106.555901
 31
0.0
  0
LINE
  5
37B
100
AcDbEntity
  8
0
370
    -3
  6
Continuous
100
AcDbLine
 10
-220.328581
 20
-108.055901
 30
0.0
 11
-284.328581
 21
-108.055901
 31
0.0
  0
LINE
  5
37C
100
AcDbEntity
  8
0
370
    -3
  6
Continuous
100
AcDbLine
 10
-284.328581
 20
-102.880444
 30
0.0
 11
-220.328581
 21
-102.880444
 31
0.0
  0
LINE
  5
37D
100
AcDbEntity
  8
0
370
    -3
  6
CENTER
100
AcDbLine
 10
-185.449715
 20
-55.555901
 30
0.0
 11
-366.576588
 21
-55.555901
 31
0.0
  0
LINE
  5
37E
100
AcDbEntity
  8
0
370
    -3
  6
Continuous
100
AcDbLine
 10
-284.328573
 20
244.394244
 30
0.0
 11
-220.328581
 21
244.394244
 31
0.0
  0
LINE
  5
37F
100
AcDbEntity
  8
0
370
    -3
  6
Continuous
100
AcDbLine
 10
-220.328581
 20
241.894244
 30
0.0
 11
-258.328573
 21
241.894244
 31
0.0
  0
LINE
  5
380
100
AcDbEntity
  8
0
370
    -3
  6
Continuous
100
AcDbLine
 10
-237.328581
 20
322.79445
 30
0.0
 11
-220.328581
 21
322.79445
 31
0.0
  0
LINE
  5
381
100
AcDbEntity
  8
0
370
    -3
  6
Continuous
100
AcDbLine
 10
-237.328581
 20
272.494039
 30
0.0
 11
-220.328581
 21
272.494039
 31
0.0
  0
LINE
  5
382
100
AcDbEntity
  8
0
370
    -3
  6
Continuous
100
AcDbLine
 10
-237.328581
 20
267.994039
 30
0.0
 11
-220.328581
 21
267.994039
 31
0.0
  0
LINE
  5
383
100
AcDbEntity
  8
0
370
    -3
  6
Continuous
100
AcDbLine
 10
-220.328581
 20
241.894244
 30
0.0
 11
-220.328581
 21
295.394244
 31
0.0
  0
LINE
  5
384
100
AcDbEntity
  8
0
370
    -3
  6
Continuous
100
AcDbLine
 10
-220.328581
 20
348.894244
 30
0.0
 11
-220.328581
 21
295.394244
 31
0.0
  0
LINE
  5
385
100
AcDbEntity
  8
0
370
    -3
  6
Continuous
100
AcDbLine
 10
-237.328581
 20
318.29445
 30
0.0
 11
-220.328581
 21
318.29445
 31
0.0
  0
LINE
  5
386
100
AcDbEntity
  8
0
370
    -3
  6
Continuous
100
AcDbLine
 10
-284.328573
 20
327.29445
 30
0.0
 11
-220.328581
 21
327.29445
 31
0.0
  0
LINE
  5
387
100
AcDbEntity
  8
0
370
    -3
  6
Continuous
100
AcDbLine
 10
-284.328573
 20
328.494039
 30
0.0
 11
-220.328581
 21
328.494039
 31
0.0
  0
LINE
  5
388
100
AcDbEntity
  8
0
370
    -3
  6
Continuous
100
AcDbLine
 10
-284.328573
 20
345.894244
 30
0.0
 11
-220.328581
 21
345.894244
 31
0.0
  0
LINE
  5
389
100
AcDbEntity
  8
0
370
    -3
  6
Continuous
100
AcDbLine
 10
-284.328573
 20
346.394244
 30
0.0
 11
-220.328581
 21
346.394244
 31
0.0
  0
LINE
  5
38A
100
AcDbEntity
  8
0
370
    -3
  6
Continuous
100
AcDbLine
 10
-284.328573
 20
263.494039
 30
0.0
 11
-220.328581
 21
263.494039
 31
0.0
  0
LINE
  5
38B
100
AcDbEntity
  8
0
370
    -3
  6
Continuous
100
AcDbLine
 10
-284.328573
 20
262.29445
 30
0.0
 11
-220.328581
 21
262.29445
 31
0.0
  0
LINE
  5
38C
100
AcDbEntity
  8
0
370
    -3
  6
Continuous
100
AcDbLine
 10
-284.328573
 20
244.894244
 30
0.0
 11
-220.328581
 21
244.894244
 31
0.0
  0
LINE
  5
38D
100
AcDbEntity
  8
0
370
    -3
  6
Continuous
100
AcDbLine
 10
-284.328573
 20
248.067648
 30
0.0
 11
-220.328581
 21
248.067648
 31
0.0
  0
LINE
  5
38E
100
AcDbEntity
  8
0
370
    -3
  6
Continuous
100
AcDbLine
 10
-284.328573
 20
254.961797
 30
0.0
 11
-220.328581
 21
254.961797
 31
0.0
  0
LINE
  5
38F
100
AcDbEntity
  8
0
370
    -3
  6
Continuous
100
AcDbLine
 10
-284.328573
 20
272.494039
 30
0.0
 11
-237.328581
 21
272.494039
 31
0.0
  0
LINE
  5
390
100
AcDbEntity
  8
0
370
    -3
  6
Continuous
100
AcDbLine
 10
-284.328573
 20
271.29445
 30
0.0
 11
-220.328581
 21
271.29445
 31
0.0
  0
LINE
  5
391
100
AcDbEntity
  8
0
370
    -3
  6
Continuous
100
AcDbLine
 10
-284.328573
 20
267.994039
 30
0.0
 11
-232.185972
 21
267.994039
 31
0.0
  0
LINE
  5
392
100
AcDbEntity
  8
0
370
    -3
  6
Continuous
100
AcDbLine
 10
-284.328573
 20
266.79445
 30
0.0
 11
-220.328581
 21
266.79445
 31
0.0
  0
LINE
  5
393
100
AcDbEntity
  8
0
370
    -3
  6
Continuous
100
AcDbLine
 10
-284.328573
 20
318.29445
 30
0.0
 11
-237.328581
 21
318.29445
 31
0.0
  0
LINE
  5
394
100
AcDbEntity
  8
0
370
    -3
  6
Continuous
100
AcDbLine
 10
-284.328573
 20
319.494039
 30
0.0
 11
-220.328581
 21
319.494039
 31
0.0
  0
LINE
  5
395
100
AcDbEntity
  8
0
370
    -3
  6
Continuous
100
AcDbLine
 10
-284.328573
 20
322.79445
 30
0.0
 11
-228.828581
 21
322.79445
 31
0.0
  0
LINE
  5
396
100
AcDbEntity
  8
0
370
    -3
  6
Continuous
100
AcDbLine
 10
-284.328573
 20
323.994039
 30
0.0
 11
-220.328581
 21
323.994039
 31
0.0
  0
LINE
  5
397
100
AcDbEntity
  8
0
370
    -3
  6
Continuous
100
AcDbLine
 10
-284.328573
 20
276.994039
 30
0.0
 11
-220.328581
 21
276.994039
 31
0.0
  0
LINE
  5
398
100
AcDbEntity
  8
0
370
    -3
  6
Continuous
100
AcDbLine
 10
-284.328573
 20
275.78033
 30
0.0
 11
-220.328581
 21
275.78033
 31
0.0
  0
LINE
  5
399
100
AcDbEntity
  8
0
370
    -3
  6
Continuous
100
AcDbLine
 10
-220.328581
 20
348.894244
 30
0.0
 11
-284.328573
 21
348.894244
 31
0.0
  0
LINE
  5
39A
100
AcDbEntity
  8
0
370
    -3
  6
Continuous
100
AcDbLine
 10
-284.328573
 20
335.826692
 30
0.0
 11
-220.328581
 21
335.826692
 31
0.0
  0
LINE
  5
39B
100
AcDbEntity
  8
0
370
    -3
  6
Continuous
100
AcDbLine
 10
-284.328573
 20
342.720841
 30
0.0
 11
-220.328581
 21
342.720841
 31
0.0
  0
LINE
  5
39C
100
AcDbEntity
  8
0
370
    -3
  6
Continuous
100
AcDbLine
 10
-284.328573
 20
313.787405
 30
0.0
 11
-220.328581
 21
313.787405
 31
0.0
  0
LINE
  5
39D
100
AcDbEntity
  8
0
370
    -3
  6
Continuous
100
AcDbLine
 10
-284.328573
 20
309.394244
 30
0.0
 11
-220.328581
 21
309.394244
 31
0.0
  0
LINE
  5
39E
100
AcDbEntity
  8
0
370
    -3
  6
Continuous
100
AcDbLine
 10
-284.328573
 20
315.008159
 30
0.0
 11
-220.328581
 21
315.008159
 31
0.0
  0
LINE
  5
39F
100
AcDbEntity
  8
0
370
    -3
  6
Continuous
100
AcDbLine
 10
-284.328573
 20
281.394244
 30
0.0
 11
-220.328581
 21
281.394244
 31
0.0
  0
LINE
  5
3A0
100
AcDbEntity
  8
0
370
    -3
  6
Continuous
100
AcDbLine
 10
-284.328573
 20
354.394192
 30
0.0
 11
-284.328573
 21
295.394192
 31
0.0
  0
LINE
  5
3A1
100
AcDbEntity
  8
0
370
    -3
  6
Continuous
100
AcDbLine
 10
-284.328573
 20
244.054496
 30
0.0
 11
-284.328573
 21
295.394192
 31
0.0
  0
ARC
  5
3A2
100
AcDbEntity
  8
0
370
    -3
  6
Continuous
100
AcDbCircle
 10
-287.328573
 20
244.054496
 30
0.0
 40
3.0
100
AcDbArc
 50
270.0
 51
0.0
  0
LINE
  5
3A3
100
AcDbEntity
  8
0
370
    -3
  6
Continuous
100
AcDbLine
 10
-291.328573
 20
241.054496
 30
0.0
 11
-287.328573
 21
241.054496
 31
0.0
  0
ARC
  5
3A4
100
AcDbEntity
  8
0
370
    -3
  6
Continuous
100
AcDbCircle
 10
-291.328573
 20
238.054496
 30
0.0
 40
3.0
100
AcDbArc
 50
90.0
 51
180.0
  0
LINE
  5
3A5
100
AcDbEntity
  8
0
370
    -3
  6
Continuous
100
AcDbLine
 10
-294.328573
 20
236.394192
 30
0.0
 11
-294.328573
 21
238.054496
 31
0.0
  0
LINE
  5
3A6
100
AcDbEntity
  8
0
370
    -3
  6
Continuous
100
AcDbLine
 10
-294.328573
 20
236.394192
 30
0.0
 11
-339.833417
 21
236.394192
 31
0.0
  0
ARC
  5
3A7
100
AcDbEntity
  8
0
370
    -3
  6
Continuous
100
AcDbCircle
 10
-339.833417
 20
256.994192
 30
0.0
 40
20.6
100
AcDbArc
 50
235.0
 51
270.0
  0
LINE
  5
3A8
100
AcDbEntity
  8
0
370
    -3
  6
Continuous
100
AcDbLine
 10
-351.649092
 20
240.11966
 30
0.0
 11
-359.219871
 21
245.420777
 31
0.0
  0
ARC
  5
3A9
100
AcDbEntity
  8
0
370
    -3
  6
Continuous
100
AcDbCircle
 10
-357.728573
 20
247.550572
 30
0.0
 40
2.6
100
AcDbArc
 50
180.0
 51
235.0
  0
LINE
  5
3AA
100
AcDbEntity
  8
0
370
    -3
  6
Continuous
100
AcDbLine
 10
-360.328573
 20
247.550572
 30
0.0
 11
-360.328573
 21
295.394192
 31
0.0
  0
LINE
  5
3AB
100
AcDbEntity
  8
0
370
    -3
  6
Continuous
100
AcDbLine
 10
-360.328573
 20
343.237812
 30
0.0
 11
-360.328573
 21
295.394192
 31
0.0
  0
ARC
  5
3AC
100
AcDbEntity
  8
0
370
    -3
  6
Continuous
100
AcDbCircle
 10
-357.728573
 20
343.237812
 30
0.0
 40
2.6
100
AcDbArc
 50
125.0
 51
180.0
  0
LINE
  5
3AD
100
AcDbEntity
  8
0
370
    -3
  6
Continuous
100
AcDbLine
 10
-351.649092
 20
350.668724
 30
0.0
 11
-359.219871
 21
345.367608
 31
0.0
  0
ARC
  5
3AE
100
AcDbEntity
  8
0
370
    -3
  6
Continuous
100
AcDbCircle
 10
-339.833417
 20
333.794192
 30
0.0
 40
20.6
100
AcDbArc
 50
90.0
 51
125.0
  0
LINE
  5
3AF
100
AcDbEntity
  8
0
370
    -3
  6
Continuous
100
AcDbLine
 10
-284.328573
 20
354.394192
 30
0.0
 11
-339.833417
 21
354.394192
 31
0.0
  0
LINE
  5
3B0
100
AcDbEntity
  8
0
370
    -3
  6
Continuous
100
AcDbLine
 10
-295.328573
 20
246.250271
 30
0.0
 11
-297.328573
 21
247.902913
 31
0.0
  0
LINE
  5
3B1
100
AcDbEntity
  8
0
370
    -3
  6
Continuous
100
AcDbLine
 10
-293.328573
 20
245.074486
 30
0.0
 11
-295.328573
 21
246.250271
 31
0.0
  0
LINE
  5
3B2
100
AcDbEntity
  8
0
370
    -3
  6
Continuous
100
AcDbLine
 10
-295.328573
 20
246.250271
 30
0.0
 11
-293.328573
 21
247.902913
 31
0.0
  0
LINE
  5
3B3
100
AcDbEntity
  8
0
370
    -3
  6
Continuous
100
AcDbLine
 10
-297.328573
 20
245.074486
 30
0.0
 11
-295.328573
 21
246.250271
 31
0.0
  0
ELLIPSE
  5
3B4
100
AcDbEntity
  8
0
370
    -3
  6
Continuous
100
AcDbEllipse
 10
-295.328573
 20
248.066861
 30
0.0
 11
-4.6999999999999886
 21
0.0
 31
0.0
210
0.0
220
0.0
230
1.0
 40
0.766646
 41
0.0
 42
6.2831853071795862
  0
LINE
  5
3B5
100
AcDbEntity
  8
0
370
    -3
  6
Continuous
100
AcDbLine
 10
-295.328573
 20
344.538113
 30
0.0
 11
-297.328573
 21
342.885472
 31
0.0
  0
LINE
  5
3B6
100
AcDbEntity
  8
0
370
    -3
  6
Continuous
100
AcDbLine
 10
-293.328573
 20
345.713899
 30
0.0
 11
-295.328573
 21
344.538113
 31
0.0
  0
LINE
  5
3B7
100
AcDbEntity
  8
0
370
    -3
  6
Continuous
100
AcDbLine
 10
-295.328573
 20
344.538113
 30
0.0
 11
-293.328573
 21
342.885472
 31
0.0
  0
LINE
  5
3B8
100
AcDbEntity
  8
0
370
    -3
  6
Continuous
100
AcDbLine
 10
-297.328573
 20
345.713899
 30
0.0
 11
-295.328573
 21
344.538113
 31
0.0
  0
ELLIPSE
  5
3B9
100
AcDbEntity
  8
0
370
    -3
  6
Continuous
100
AcDbEllipse
 10
-295.328573
 20
342.721523
 30
0.0
 11
-4.6999999999999886
 21
0.0
 31
0.0
210
0.0
220
0.0
230
1.0
 40
0.766646
 41
0.0
 42
6.2831853071795862
  0
LINE
  5
3BA
100
AcDbEntity
  8
0
370
    -3
  6
Continuous
100
AcDbLine
 10
-258.328573
 20
241.894244
 30
0.0
 11
-285.246911
 21
241.894244
 31
0.0
  0
INSERT
  5
3C7
100
AcDbEntity
  8
0
100
AcDbBlockReference
  2
ZU_SYM__USERS_HOME_SYMBOL_POO_SYM_B20_00017-1
 10
-579.79973
 20
0.944099
 30
0.0
 41
-1.0
  0
LINE
  5
3C8
100
AcDbEntity
  8
0
370
    -3
  6
CENTER
100
AcDbLine
 10
-400.216508
 20
-55.555901
 30
0.0
 11
-659.030802
 21
-55.555901
 31
0.0
  0
ARC
  5
3C9
100
AcDbEntity
  8
0
370
    -3
  6
Continuous
100
AcDbCircle
 10
-588.29973
 20
-61.055901
 30
0.0
 40
1.0
100
AcDbArc
 50
118.253179
 51
180.0
  0
ARC
  5
3CA
100
AcDbEntity
  8
0
370
    -3
  6
Continuous
100
AcDbCircle
 10
-545.29973
 20
1.944099
 30
0.0
 40
5.0
100
AcDbArc
 50
180.0
 51
231.841678
  0
ARC
  5
3CB
100
AcDbEntity
  8
0
370
    -3
  6
Continuous
100
AcDbCircle
 10
-514.29973
 20
1.944099
 30
0.0
 40
5.0
100
AcDbArc
 50
308.158322
 51
0.0
  0
ARC
  5
3CC
100
AcDbEntity
  8
0
370
    -3
  6
Continuous
100
AcDbCircle
 10
-871.39973
 20
-55.555901
 30
0.0
 40
400.6
100
AcDbArc
 50
357.470639
 51
0.0
  0
ARC
  5
3CD
100
AcDbEntity
  8
0
370
    -3
  6
Continuous
100
AcDbCircle
 10
-871.39973
 20
-55.555901
 30
0.0
 40
400.6
100
AcDbArc
 50
360.0
 51
2.529361
  0
LINE
  5
3CE
100
AcDbEntity
  8
0
370
    -3
  6
Continuous
100
AcDbLine
 10
-556.417031
 20
-43.075146
 30
0.0
 11
-553.798356
 21
-44.587039
 31
0.0
  0
ARC
  5
3CF
100
AcDbEntity
  8
0
370
    -3
  6
Continuous
100
AcDbCircle
 10
-556.917031
 20
-43.941171
 30
0.0
 40
1.0
100
AcDbArc
 50
60.0
 51
156.813854
  0
ARC
  5
3D0
100
AcDbEntity
  8
0
370
    -3
  6
Continuous
100
AcDbCircle
 10
-529.79973
 20
-55.555901
 30
0.0
 40
39.0
100
AcDbArc
 50
95.284733
 51
144.715267
  0
ARC
  5
3D1
100
AcDbEntity
  8
0
370
    -3
  6
Continuous
100
AcDbCircle
 10
-529.79973
 20
-55.555901
 30
0.0
 40
34.0
100
AcDbArc
 50
95.73917
 51
144.26083
  0
ARC
  5
3D2
100
AcDbEntity
  8
0
370
    -3
  6
Continuous
100
AcDbCircle
 10
-529.79973
 20
-55.555901
 30
0.0
 40
25.5
100
AcDbArc
 50
97.589542
 51
142.410458
  0
ARC
  5
3D3
100
AcDbEntity
  8
0
370
    -3
  6
Continuous
100
AcDbCircle
 10
-529.79973
 20
-55.555901
 30
0.0
 40
30.5
100
AcDbArc
 50
96.813854
 51
143.186146
  0
ARC
  5
3D4
100
AcDbEntity
  8
0
370
    -3
  6
Continuous
100
AcDbCircle
 10
-529.79973
 20
-55.555901
 30
0.0
 40
22.0
100
AcDbArc
 50
99.594068
 51
140.405932
  0
ARC
  5
3D5
100
AcDbEntity
  8
0
370
    -3
  6
Continuous
100
AcDbCircle
 10
-529.79973
 20
-55.555901
 30
0.0
 40
17.0
100
AcDbArc
 50
101.212271
 51
138.787729
  0
ARC
  5
3D6
100
AcDbEntity
  8
0
370
    -3
  6
Continuous
100
AcDbCircle
 10
-529.79973
 20
-55.555901
 30
0.0
 40
13.5
100
AcDbArc
 50
106.260205
 51
133.739795
  0
ARC
  5
3D7
100
AcDbEntity
  8
0
370
    -3
  6
Continuous
100
AcDbCircle
 10
-533.29973
 20
-43.555901
 30
0.0
 40
1.0
100
AcDbArc
 50
0.0
 51
106.260205
  0
LINE
  5
3D8
100
AcDbEntity
  8
0
370
    -3
  6
Continuous
100
AcDbLine
 10
-532.29973
 20
-43.555901
 30
0.0
 11
-532.29973
 21
-46.72414
 31
0.0
  0
ARC
  5
3D9
100
AcDbEntity
  8
0
370
    -3
  6
Continuous
100
AcDbCircle
 10
-538.442034
 20
-46.524812
 30
0.0
 40
1.0
100
AcDbArc
 50
133.739795
 51
240.0
  0
ARC
  5
3DA
100
AcDbEntity
  8
0
370
    -3
  6
Continuous
100
AcDbCircle
 10
-529.79973
 20
-55.555901
 30
0.0
 40
8.5
100
AcDbArc
 50
111.618272
 51
128.381728
  0
ARC
  5
3DB
100
AcDbEntity
  8
0
370
    -3
  6
Continuous
100
AcDbCircle
 10
-533.29973
 20
-46.72414
 30
0.0
 40
1.0
100
AcDbArc
 50
291.618272
 51
0.0
  0
ARC
  5
3DC
100
AcDbEntity
  8
0
370
    -3
  6
Continuous
100
AcDbCircle
 10
-545.981893
 20
-42.171672
 30
0.0
 40
1.0
100
AcDbArc
 50
140.405932
 51
240.0
  0
LINE
  5
3DD
100
AcDbEntity
  8
0
370
    -3
  6
Continuous
100
AcDbLine
 10
-546.481893
 20
-43.037697
 30
0.0
 11
-543.840658
 21
-44.562615
 31
0.0
  0
ARC
  5
3DE
100
AcDbEntity
  8
0
370
    -3
  6
Continuous
100
AcDbCircle
 10
-543.340658
 20
-43.69659
 30
0.0
 40
1.0
100
AcDbArc
 50
240.0
 51
318.787729
  0
LINE
  5
3DF
100
AcDbEntity
  8
0
370
    -3
  6
Continuous
100
AcDbLine
 10
-538.942034
 20
-47.390837
 30
0.0
 11
-536.198259
 21
-48.974957
 31
0.0
  0
ARC
  5
3E0
100
AcDbEntity
  8
0
370
    -3
  6
Continuous
100
AcDbCircle
 10
-535.698259
 20
-48.108931
 30
0.0
 40
1.0
100
AcDbArc
 50
240.0
 51
308.381728
  0
ARC
  5
3E1
100
AcDbEntity
  8
0
370
    -3
  6
Continuous
100
AcDbCircle
 10
-558.208683
 20
-35.112532
 30
0.0
 40
1.0
100
AcDbArc
 50
240.0
 51
324.26083
  0
LINE
  5
3E2
100
AcDbEntity
  8
0
370
    -3
  6
Continuous
100
AcDbLine
 10
-561.318808
 20
-34.471601
 30
0.0
 11
-558.708683
 21
-35.978557
 31
0.0
  0
ARC
  5
3E3
100
AcDbEntity
  8
0
370
    -3
  6
Continuous
100
AcDbCircle
 10
-560.818808
 20
-33.605575
 30
0.0
 40
1.0
100
AcDbArc
 50
144.715267
 51
240.0
  0
ARC
  5
3E4
100
AcDbEntity
  8
0
370
    -3
  6
Continuous
100
AcDbCircle
 10
-550.798356
 20
-39.390886
 30
0.0
 40
1.0
100
AcDbArc
 50
240.0
 51
322.410458
  0
LINE
  5
3E5
100
AcDbEntity
  8
0
370
    -3
  6
Continuous
100
AcDbLine
 10
-553.917031
 20
-38.745019
 30
0.0
 11
-551.298356
 21
-40.256912
 31
0.0
  0
ARC
  5
3E6
100
AcDbEntity
  8
0
370
    -3
  6
Continuous
100
AcDbCircle
 10
-553.417031
 20
-37.878993
 30
0.0
 40
1.0
100
AcDbArc
 50
143.186146
 51
240.0
  0
ARC
  5
3E7
100
AcDbEntity
  8
0
370
    -3
  6
Continuous
100
AcDbCircle
 10
-533.29973
 20
-17.717428
 30
0.0
 40
1.0
100
AcDbArc
 50
0.0
 51
95.284733
  0
LINE
  5
3E8
100
AcDbEntity
  8
0
370
    -3
  6
Continuous
100
AcDbLine
 10
-532.29973
 20
-17.717428
 30
0.0
 11
-532.29973
 21
-20.73134
 31
0.0
  0
ARC
  5
3E9
100
AcDbEntity
  8
0
370
    -3
  6
Continuous
100
AcDbCircle
 10
-533.29973
 20
-20.73134
 30
0.0
 40
1.0
100
AcDbArc
 50
275.73917
 51
0.0
  0
ARC
  5
3EA
100
AcDbEntity
  8
0
370
    -3
  6
Continuous
100
AcDbCircle
 10
-533.29973
 20
-26.264264
 30
0.0
 40
1.0
100
AcDbArc
 50
0.0
 51
96.813854
  0
LINE
  5
3EB
100
AcDbEntity
  8
0
370
    -3
  6
Continuous
100
AcDbLine
 10
-532.29973
 20
-26.264264
 30
0.0
 11
-532.29973
 21
-29.28805
 31
0.0
  0
ARC
  5
3EC
100
AcDbEntity
  8
0
370
    -3
  6
Continuous
100
AcDbCircle
 10
-533.29973
 20
-29.28805
 30
0.0
 40
1.0
100
AcDbArc
 50
277.589542
 51
0.0
  0
ARC
  5
3ED
100
AcDbEntity
  8
0
370
    -3
  6
Continuous
100
AcDbCircle
 10
-533.29973
 20
-34.849621
 30
0.0
 40
1.0
100
AcDbArc
 50
0.0
 51
99.594068
  0
LINE
  5
3EE
100
AcDbEntity
  8
0
370
    -3
  6
Continuous
100
AcDbLine
 10
-532.29973
 20
-34.849621
 30
0.0
 11
-532.29973
 21
-37.899457
 31
0.0
  0
ARC
  5
3EF
100
AcDbEntity
  8
0
370
    -3
  6
Continuous
100
AcDbCircle
 10
-533.29973
 20
-37.899457
 30
0.0
 40
1.0
100
AcDbArc
 50
281.212271
 51
0.0
  0
LINE
  5
3F0
100
AcDbEntity
  8
0
370
    -3
  6
Continuous
100
AcDbLine
 10
-569.625551
 20
-17.887062
 30
0.0
 11
-567.446805
 21
-15.708316
 31
0.0
  0
ARC
  5
3F1
100
AcDbEntity
  8
0
370
    -3
  6
Continuous
100
AcDbCircle
 10
-559.812174
 20
-23.342948
 30
0.0
 40
10.797
100
AcDbArc
 50
94.529945
 51
135.0
  0
ARC
  5
3F2
100
AcDbEntity
  8
0
370
    -3
  6
Continuous
100
AcDbCircle
 10
-529.79973
 20
-402.155901
 30
0.0
 40
390.797
100
AcDbArc
 50
90.0
 51
94.529193
  0
ARC
  5
3F3
100
AcDbEntity
  8
0
370
    -3
  6
Continuous
100
AcDbCircle
 10
-541.942034
 20
-58.524812
 30
0.0
 40
1.0
100
AcDbArc
 50
193.739795
 51
300.0
  0
LINE
  5
3F4
100
AcDbEntity
  8
0
370
    -3
  6
Continuous
100
AcDbLine
 10
-541.442034
 20
-59.390837
 30
0.0
 11
-538.698259
 21
-57.806718
 31
0.0
  0
ARC
  5
3F5
100
AcDbEntity
  8
0
370
    -3
  6
Continuous
100
AcDbCircle
 10
-529.79973
 20
-55.555901
 30
0.0
 40
8.5
100
AcDbArc
 50
171.618272
 51
188.381728
  0
ARC
  5
3F6
100
AcDbEntity
  8
0
370
    -3
  6
Continuous
100
AcDbCircle
 10
-539.198259
 20
-56.940692
 30
0.0
 40
1.0
100
AcDbArc
 50
300.0
 51
8.381728
  0
ARC
  5
3F7
100
AcDbEntity
  8
0
370
    -3
  6
Continuous
100
AcDbCircle
 10
-188.19973
 20
-55.555901
 30
0.0
 40
390.797
100
AcDbArc
 50
177.470639
 51
180.0
  0
ARC
  5
3F8
100
AcDbEntity
  8
0
370
    -3
  6
Continuous
100
AcDbCircle
 10
-547.848784
 20
-39.663829
 30
0.0
 40
30.797
100
AcDbArc
 50
135.0
 51
177.469876
  0
LINE
  5
3F9
100
AcDbEntity
  8
0
370
    -3
  6
Continuous
100
AcDbLine
 10
-532.29973
 20
-84.847538
 30
0.0
 11
-532.29973
 21
-81.823752
 31
0.0
  0
LINE
  5
3FA
100
AcDbEntity
  8
0
370
    -3
  6
Continuous
100
AcDbLine
 10
-532.29973
 20
-76.26218
 30
0.0
 11
-532.29973
 21
-73.212344
 31
0.0
  0
LINE
  5
3FB
100
AcDbEntity
  8
0
370
    -3
  6
Continuous
100
AcDbLine
 10
-532.29973
 20
-67.555901
 30
0.0
 11
-532.29973
 21
-64.387661
 31
0.0
  0
LINE
  5
3FC
100
AcDbEntity
  8
0
370
    -3
  6
Continuous
100
AcDbLine
 10
-538.942034
 20
-63.720964
 30
0.0
 11
-536.198259
 21
-62.136845
 31
0.0
  0
LINE
  5
3FD
100
AcDbEntity
  8
0
370
    -3
  6
Continuous
100
AcDbLine
 10
-546.481893
 20
-68.074104
 30
0.0
 11
-543.840658
 21
-66.549186
 31
0.0
  0
LINE
  5
3FE
100
AcDbEntity
  8
0
370
    -3
  6
Continuous
100
AcDbLine
 10
-561.318808
 20
-76.6402
 30
0.0
 11
-558.708683
 21
-75.133244
 31
0.0
  0
LINE
  5
3FF
100
AcDbEntity
  8
0
370
    -3
  6
Continuous
100
AcDbLine
 10
-553.917031
 20
-72.366783
 30
0.0
 11
-551.298356
 21
-70.85489
 31
0.0
  0
ARC
  5
400
100
AcDbEntity
  8
0
370
    -3
  6
Continuous
100
AcDbCircle
 10
-529.79973
 20
-55.555901
 30
0.0
 40
8.5
100
AcDbArc
 50
231.618272
 51
248.381728
  0
ARC
  5
401
100
AcDbEntity
  8
0
370
    -3
  6
Continuous
100
AcDbCircle
 10
-529.79973
 20
-55.555901
 30
0.0
 40
13.5
100
AcDbArc
 50
226.260205
 51
253.739795
  0
ARC
  5
402
100
AcDbEntity
  8
0
370
    -3
  6
Continuous
100
AcDbCircle
 10
-529.79973
 20
-55.555901
 30
0.0
 40
17.0
100
AcDbArc
 50
221.212271
 51
258.787729
  0
ARC
  5
403
100
AcDbEntity
  8
0
370
    -3
  6
Continuous
100
AcDbCircle
 10
-529.79973
 20
-55.555901
 30
0.0
 40
22.0
100
AcDbArc
 50
219.594068
 51
260.405932
  0
ARC
  5
404
100
AcDbEntity
  8
0
370
    -3
  6
Continuous
100
AcDbCircle
 10
-529.79973
 20
-55.555901
 30
0.0
 40
25.5
100
AcDbArc
 50
217.589542
 51
262.410458
  0
ARC
  5
405
100
AcDbEntity
  8
0
370
    -3
  6
Continuous
100
AcDbCircle
 10
-529.79973
 20
-55.555901
 30
0.0
 40
34.0
100
AcDbArc
 50
215.73917
 51
264.26083
  0
ARC
  5
406
100
AcDbEntity
  8
0
370
    -3
  6
Continuous
100
AcDbCircle
 10
-529.79973
 20
-55.555901
 30
0.0
 40
30.5
100
AcDbArc
 50
216.813854
 51
263.186146
  0
ARC
  5
407
100
AcDbEntity
  8
0
370
    -3
  6
Continuous
100
AcDbCircle
 10
-529.79973
 20
-55.555901
 30
0.0
 40
39.0
100
AcDbArc
 50
215.284733
 51
264.715267
  0
ARC
  5
408
100
AcDbEntity
  8
0
370
    -3
  6
Continuous
100
AcDbCircle
 10
-535.698259
 20
-63.00287
 30
0.0
 40
1.0
100
AcDbArc
 50
51.618272
 51
120.0
  0
ARC
  5
409
100
AcDbEntity
  8
0
370
    -3
  6
Continuous
100
AcDbCircle
 10
-533.29973
 20
-64.387661
 30
0.0
 40
1.0
100
AcDbArc
 50
0.0
 51
68.381728
  0
ARC
  5
40A
100
AcDbEntity
  8
0
370
    -3
  6
Continuous
100
AcDbCircle
 10
-533.29973
 20
-67.555901
 30
0.0
 40
1.0
100
AcDbArc
 50
253.739795
 51
0.0
  0
ARC
  5
40B
100
AcDbEntity
  8
0
370
    -3
  6
Continuous
100
AcDbCircle
 10
-538.442034
 20
-64.58699
 30
0.0
 40
1.0
100
AcDbArc
 50
120.0
 51
226.260205
  0
ARC
  5
40C
100
AcDbEntity
  8
0
370
    -3
  6
Continuous
100
AcDbCircle
 10
-543.340658
 20
-67.415211
 30
0.0
 40
1.0
100
AcDbArc
 50
41.212271
 51
120.0
  0
ARC
  5
40D
100
AcDbEntity
  8
0
370
    -3
  6
Continuous
100
AcDbCircle
 10
-545.981893
 20
-68.940129
 30
0.0
 40
1.0
100
AcDbArc
 50
120.0
 51
219.594068
  0
ARC
  5
40E
100
AcDbEntity
  8
0
370
    -3
  6
Continuous
100
AcDbCircle
 10
-533.29973
 20
-73.212344
 30
0.0
 40
1.0
100
AcDbArc
 50
0.0
 51
78.787729
  0
ARC
  5
40F
100
AcDbEntity
  8
0
370
    -3
  6
Continuous
100
AcDbCircle
 10
-533.29973
 20
-76.26218
 30
0.0
 40
1.0
100
AcDbArc
 50
260.405932
 51
0.0
  0
ARC
  5
410
100
AcDbEntity
  8
0
370
    -3
  6
Continuous
100
AcDbCircle
 10
-550.798356
 20
-71.720915
 30
0.0
 40
1.0
100
AcDbArc
 50
37.589542
 51
120.0
  0
ARC
  5
411
100
AcDbEntity
  8
0
370
    -3
  6
Continuous
100
AcDbCircle
 10
-553.417031
 20
-73.232808
 30
0.0
 40
1.0
100
AcDbArc
 50
120.0
 51
216.813854
  0
ARC
  5
412
100
AcDbEntity
  8
0
370
    -3
  6
Continuous
100
AcDbCircle
 10
-533.29973
 20
-81.823752
 30
0.0
 40
1.0
100
AcDbArc
 50
0.0
 51
82.410458
  0
ARC
  5
413
100
AcDbEntity
  8
0
370
    -3
  6
Continuous
100
AcDbCircle
 10
-558.208683
 20
-75.99927
 30
0.0
 40
1.0
100
AcDbArc
 50
35.73917
 51
120.0
  0
ARC
  5
414
100
AcDbEntity
  8
0
370
    -3
  6
Continuous
100
AcDbCircle
 10
-560.818808
 20
-77.506226
 30
0.0
 40
1.0
100
AcDbArc
 50
120.0
 51
215.284733
  0
ARC
  5
415
100
AcDbEntity
  8
0
370
    -3
  6
Continuous
100
AcDbCircle
 10
-564.318808
 20
-71.444048
 30
0.0
 40
1.0
100
AcDbArc
 50
204.715267
 51
300.0
  0
LINE
  5
416
100
AcDbEntity
  8
0
370
    -3
  6
Continuous
100
AcDbLine
 10
-563.818808
 20
-72.310073
 30
0.0
 11
-561.208683
 21
-70.803117
 31
0.0
  0
ARC
  5
417
100
AcDbEntity
  8
0
370
    -3
  6
Continuous
100
AcDbCircle
 10
-556.917031
 20
-67.17063
 30
0.0
 40
1.0
100
AcDbArc
 50
203.186146
 51
300.0
  0
LINE
  5
418
100
AcDbEntity
  8
0
370
    -3
  6
Continuous
100
AcDbLine
 10
-556.417031
 20
-68.036656
 30
0.0
 11
-553.798356
 21
-66.524763
 31
0.0
  0
ARC
  5
419
100
AcDbEntity
  8
0
370
    -3
  6
Continuous
100
AcDbCircle
 10
-561.708683
 20
-69.937092
 30
0.0
 40
1.0
100
AcDbArc
 50
300.0
 51
24.26083
  0
ARC
  5
41A
100
AcDbEntity
  8
0
370
    -3
  6
Continuous
100
AcDbCircle
 10
-554.298356
 20
-65.658737
 30
0.0
 40
1.0
100
AcDbArc
 50
300.0
 51
22.410458
  0
ARC
  5
41B
100
AcDbEntity
  8
0
370
    -3
  6
Continuous
100
AcDbCircle
 10
-549.481893
 20
-62.877951
 30
0.0
 40
1.0
100
AcDbArc
 50
200.405932
 51
300.0
  0
LINE
  5
41C
100
AcDbEntity
  8
0
370
    -3
  6
Continuous
100
AcDbLine
 10
-548.981893
 20
-63.743977
 30
0.0
 11
-546.340658
 21
-62.219059
 31
0.0
  0
ARC
  5
41D
100
AcDbEntity
  8
0
370
    -3
  6
Continuous
100
AcDbCircle
 10
-546.840658
 20
-61.353033
 30
0.0
 40
1.0
100
AcDbArc
 50
300.0
 51
18.787729
  0
ARC
  5
41E
100
AcDbEntity
  8
0
370
    -3
  6
Continuous
100
AcDbCircle
 10
-547.848784
 20
-71.447972
 30
0.0
 40
30.797
100
AcDbArc
 50
182.530124
 51
225.0
  0
LINE
  5
41F
100
AcDbEntity
  8
0
370
    -3
  6
Continuous
100
AcDbLine
 10
-532.29973
 20
-93.394373
 30
0.0
 11
-532.29973
 21
-90.380461
 31
0.0
  0
ARC
  5
420
100
AcDbEntity
  8
0
370
    -3
  6
Continuous
100
AcDbCircle
 10
-533.29973
 20
-84.847538
 30
0.0
 40
1.0
100
AcDbArc
 50
263.186146
 51
0.0
  0
ARC
  5
421
100
AcDbEntity
  8
0
370
    -3
  6
Continuous
100
AcDbCircle
 10
-533.29973
 20
-93.394373
 30
0.0
 40
1.0
100
AcDbArc
 50
264.715267
 51
360.0
  0
ARC
  5
422
100
AcDbEntity
  8
0
370
    -3
  6
Continuous
100
AcDbCircle
 10
-533.29973
 20
-90.380461
 30
0.0
 40
1.0
100
AcDbArc
 50
0.0
 51
84.26083
  0
ARC
  5
423
100
AcDbEntity
  8
0
370
    -3
  6
Continuous
100
AcDbCircle
 10
-529.79973
 20
291.044099
 30
0.0
 40
390.797
100
AcDbArc
 50
265.470807
 51
270.0
  0
ARC
  5
424
100
AcDbEntity
  8
0
370
    -3
  6
Continuous
100
AcDbCircle
 10
-559.812174
 20
-87.768853
 30
0.0
 40
10.797
100
AcDbArc
 50
225.0
 51
265.470055
  0
LINE
  5
425
100
AcDbEntity
  8
0
370
    -3
  6
Continuous
100
AcDbLine
 10
-569.625551
 20
-93.22474
 30
0.0
 11
-567.446805
 21
-95.403485
 31
0.0
  0
ARC
  5
426
100
AcDbEntity
  8
0
370
    -3
  6
Continuous
100
AcDbCircle
 10
-529.79973
 20
-402.155901
 30
0.0
 40
390.797
100
AcDbArc
 50
85.470807
 51
90.0
  0
ARC
  5
427
100
AcDbEntity
  8
0
370
    -3
  6
Continuous
100
AcDbCircle
 10
-499.787286
 20
-23.342948
 30
0.0
 40
10.797
100
AcDbArc
 50
45.0
 51
85.470055
  0
LINE
  5
428
100
AcDbEntity
  8
0
370
    -3
  6
Continuous
100
AcDbLine
 10
-489.973908
 20
-17.887062
 30
0.0
 11
-492.152654
 21
-15.708316
 31
0.0
  0
ARC
  5
429
100
AcDbEntity
  8
0
370
    -3
  6
Continuous
100
AcDbCircle
 10
-511.750676
 20
-39.663829
 30
0.0
 40
30.797
100
AcDbArc
 50
2.530124
 51
45.0
  0
ARC
  5
42A
100
AcDbEntity
  8
0
370
    -3
  6
Continuous
100
AcDbCircle
 10
-871.39973
 20
-55.555901
 30
0.0
 40
390.797
100
AcDbArc
 50
360.0
 51
2.529361
  0
ARC
  5
42B
100
AcDbEntity
  8
0
370
    -3
  6
Continuous
100
AcDbCircle
 10
-871.39973
 20
-55.555901
 30
0.0
 40
390.797
100
AcDbArc
 50
357.470639
 51
0.0
  0
ARC
  5
42C
100
AcDbEntity
  8
0
370
    -3
  6
Continuous
100
AcDbCircle
 10
-511.750676
 20
-71.447972
 30
0.0
 40
30.797
100
AcDbArc
 50
315.0
 51
357.469876
  0
LINE
  5
42D
100
AcDbEntity
  8
0
370
    -3
  6
Continuous
100
AcDbLine
 10
-489.973908
 20
-93.22474
 30
0.0
 11
-492.152654
 21
-95.403485
 31
0.0
  0
ARC
  5
42E
100
AcDbEntity
  8
0
370
    -3
  6
Continuous
100
AcDbCircle
 10
-499.787286
 20
-87.768853
 30
0.0
 40
10.797
100
AcDbArc
 50
274.529945
 51
315.0
  0
ARC
  5
42F
100
AcDbEntity
  8
0
370
    -3
  6
Continuous
100
AcDbCircle
 10
-529.79973
 20
291.044099
 30
0.0
 40
390.797
100
AcDbArc
 50
270.0
 51
274.529193
  0
ARC
  5
430
100
AcDbEntity
  8
0
370
    -3
  6
Continuous
100
AcDbCircle
 10
-526.29973
 20
-37.899457
 30
0.0
 40
1.0
100
AcDbArc
 50
180.0
 51
258.787729
  0
LINE
  5
431
100
AcDbEntity
  8
0
370
    -3
  6
Continuous
100
AcDbLine
 10
-527.29973
 20
-34.849621
 30
0.0
 11
-527.29973
 21
-37.899457
 31
0.0
  0
ARC
  5
432
100
AcDbEntity
  8
0
370
    -3
  6
Continuous
100
AcDbCircle
 10
-526.29973
 20
-34.849621
 30
0.0
 40
1.0
100
AcDbArc
 50
80.405932
 51
180.0
  0
ARC
  5
433
100
AcDbEntity
  8
0
370
    -3
  6
Continuous
100
AcDbCircle
 10
-526.29973
 20
-29.28805
 30
0.0
 40
1.0
100
AcDbArc
 50
180.0
 51
262.410458
  0
LINE
  5
434
100
AcDbEntity
  8
0
370
    -3
  6
Continuous
100
AcDbLine
 10
-527.29973
 20
-26.264264
 30
0.0
 11
-527.29973
 21
-29.28805
 31
0.0
  0
ARC
  5
435
100
AcDbEntity
  8
0
370
    -3
  6
Continuous
100
AcDbCircle
 10
-526.29973
 20
-26.264264
 30
0.0
 40
1.0
100
AcDbArc
 50
83.186146
 51
180.0
  0
ARC
  5
436
100
AcDbEntity
  8
0
370
    -3
  6
Continuous
100
AcDbCircle
 10
-526.29973
 20
-20.73134
 30
0.0
 40
1.0
100
AcDbArc
 50
180.0
 51
264.26083
  0
LINE
  5
437
100
AcDbEntity
  8
0
370
    -3
  6
Continuous
100
AcDbLine
 10
-527.29973
 20
-17.717428
 30
0.0
 11
-527.29973
 21
-20.73134
 31
0.0
  0
ARC
  5
438
100
AcDbEntity
  8
0
370
    -3
  6
Continuous
100
AcDbCircle
 10
-526.29973
 20
-17.717428
 30
0.0
 40
1.0
100
AcDbArc
 50
84.715267
 51
180.0
  0
ARC
  5
439
100
AcDbEntity
  8
0
370
    -3
  6
Continuous
100
AcDbCircle
 10
-506.182428
 20
-37.878993
 30
0.0
 40
1.0
100
AcDbArc
 50
300.0
 51
36.813854
  0
LINE
  5
43A
100
AcDbEntity
  8
0
370
    -3
  6
Continuous
100
AcDbLine
 10
-505.682428
 20
-38.745019
 30
0.0
 11
-508.301103
 21
-40.256912
 31
0.0
  0
ARC
  5
43B
100
AcDbEntity
  8
0
370
    -3
  6
Continuous
100
AcDbCircle
 10
-508.801103
 20
-39.390886
 30
0.0
 40
1.0
100
AcDbArc
 50
217.589542
 51
300.0
  0
ARC
  5
43C
100
AcDbEntity
  8
0
370
    -3
  6
Continuous
100
AcDbCircle
 10
-498.780651
 20
-33.605575
 30
0.0
 40
1.0
100
AcDbArc
 50
300.0
 51
35.284733
  0
LINE
  5
43D
100
AcDbEntity
  8
0
370
    -3
  6
Continuous
100
AcDbLine
 10
-498.280651
 20
-34.471601
 30
0.0
 11
-500.890776
 21
-35.978557
 31
0.0
  0
ARC
  5
43E
100
AcDbEntity
  8
0
370
    -3
  6
Continuous
100
AcDbCircle
 10
-501.390776
 20
-35.112532
 30
0.0
 40
1.0
100
AcDbArc
 50
215.73917
 51
300.0
  0
ARC
  5
43F
100
AcDbEntity
  8
0
370
    -3
  6
Continuous
100
AcDbCircle
 10
-523.9012
 20
-48.108931
 30
0.0
 40
1.0
100
AcDbArc
 50
231.618272
 51
300.0
  0
LINE
  5
440
100
AcDbEntity
  8
0
370
    -3
  6
Continuous
100
AcDbLine
 10
-520.657425
 20
-47.390837
 30
0.0
 11
-523.4012
 21
-48.974957
 31
0.0
  0
ARC
  5
441
100
AcDbEntity
  8
0
370
    -3
  6
Continuous
100
AcDbCircle
 10
-516.258801
 20
-43.69659
 30
0.0
 40
1.0
100
AcDbArc
 50
221.212271
 51
300.0
  0
LINE
  5
442
100
AcDbEntity
  8
0
370
    -3
  6
Continuous
100
AcDbLine
 10
-513.117566
 20
-43.037697
 30
0.0
 11
-515.758801
 21
-44.562615
 31
0.0
  0
ARC
  5
443
100
AcDbEntity
  8
0
370
    -3
  6
Continuous
100
AcDbCircle
 10
-513.617566
 20
-42.171672
 30
0.0
 40
1.0
100
AcDbArc
 50
300.0
 51
39.594068
  0
ARC
  5
444
100
AcDbEntity
  8
0
370
    -3
  6
Continuous
100
AcDbCircle
 10
-526.29973
 20
-46.72414
 30
0.0
 40
1.0
100
AcDbArc
 50
180.0
 51
248.381728
  0
ARC
  5
445
100
AcDbEntity
  8
0
370
    -3
  6
Continuous
100
AcDbCircle
 10
-529.79973
 20
-55.555901
 30
0.0
 40
8.5
100
AcDbArc
 50
51.618272
 51
68.381728
  0
ARC
  5
446
100
AcDbEntity
  8
0
370
    -3
  6
Continuous
100
AcDbCircle
 10
-521.157425
 20
-46.524812
 30
0.0
 40
1.0
100
AcDbArc
 50
300.0
 51
46.260205
  0
LINE
  5
447
100
AcDbEntity
  8
0
370
    -3
  6
Continuous
100
AcDbLine
 10
-527.29973
 20
-43.555901
 30
0.0
 11
-527.29973
 21
-46.72414
 31
0.0
  0
ARC
  5
448
100
AcDbEntity
  8
0
370
    -3
  6
Continuous
100
AcDbCircle
 10
-526.29973
 20
-43.555901
 30
0.0
 40
1.0
100
AcDbArc
 50
73.739795
 51
180.0
  0
ARC
  5
449
100
AcDbEntity
  8
0
370
    -3
  6
Continuous
100
AcDbCircle
 10
-529.79973
 20
-55.555901
 30
0.0
 40
13.5
100
AcDbArc
 50
46.260205
 51
73.739795
  0
ARC
  5
44A
100
AcDbEntity
  8
0
370
    -3
  6
Continuous
100
AcDbCircle
 10
-529.79973
 20
-55.555901
 30
0.0
 40
17.0
100
AcDbArc
 50
41.212271
 51
78.787729
  0
ARC
  5
44B
100
AcDbEntity
  8
0
370
    -3
  6
Continuous
100
AcDbCircle
 10
-529.79973
 20
-55.555901
 30
0.0
 40
22.0
100
AcDbArc
 50
39.594068
 51
80.405932
  0
ARC
  5
44C
100
AcDbEntity
  8
0
370
    -3
  6
Continuous
100
AcDbCircle
 10
-529.79973
 20
-55.555901
 30
0.0
 40
30.5
100
AcDbArc
 50
36.813854
 51
83.186146
  0
ARC
  5
44D
100
AcDbEntity
  8
0
370
    -3
  6
Continuous
100
AcDbCircle
 10
-529.79973
 20
-55.555901
 30
0.0
 40
25.5
100
AcDbArc
 50
37.589542
 51
82.410458
  0
ARC
  5
44E
100
AcDbEntity
  8
0
370
    -3
  6
Continuous
100
AcDbCircle
 10
-529.79973
 20
-55.555901
 30
0.0
 40
34.0
100
AcDbArc
 50
35.73917
 51
84.26083
  0
ARC
  5
44F
100
AcDbEntity
  8
0
370
    -3
  6
Continuous
100
AcDbCircle
 10
-529.79973
 20
-55.555901
 30
0.0
 40
39.0
100
AcDbArc
 50
35.284733
 51
84.715267
  0
ARC
  5
450
100
AcDbEntity
  8
0
370
    -3
  6
Continuous
100
AcDbCircle
 10
-502.682428
 20
-43.941171
 30
0.0
 40
1.0
100
AcDbArc
 50
23.186146
 51
120.0
  0
LINE
  5
451
100
AcDbEntity
  8
0
370
    -3
  6
Continuous
100
AcDbLine
 10
-503.182428
 20
-43.075146
 30
0.0
 11
-505.801103
 21
-44.587039
 31
0.0
  0
ARC
  5
452
100
AcDbEntity
  8
0
370
    -3
  6
Continuous
100
AcDbCircle
 10
-505.301103
 20
-45.453064
 30
0.0
 40
1.0
100
AcDbArc
 50
120.0
 51
202.410458
  0
ARC
  5
453
100
AcDbEntity
  8
0
370
    -3
  6
Continuous
100
AcDbCircle
 10
-495.280651
 20
-39.667753
 30
0.0
 40
1.0
100
AcDbArc
 50
24.715267
 51
120.0
  0
LINE
  5
454
100
AcDbEntity
  8
0
370
    -3
  6
Continuous
100
AcDbLine
 10
-495.780651
 20
-38.801728
 30
0.0
 11
-498.390776
 21
-40.308684
 31
0.0
  0
ARC
  5
455
100
AcDbEntity
  8
0
370
    -3
  6
Continuous
100
AcDbCircle
 10
-497.890776
 20
-41.174709
 30
0.0
 40
1.0
100
AcDbArc
 50
120.0
 51
204.26083
  0
ARC
  5
456
100
AcDbEntity
  8
0
370
    -3
  6
Continuous
100
AcDbCircle
 10
-520.4012
 20
-54.171109
 30
0.0
 40
1.0
100
AcDbArc
 50
120.0
 51
188.381728
  0
LINE
  5
457
100
AcDbEntity
  8
0
370
    -3
  6
Continuous
100
AcDbLine
 10
-518.157425
 20
-51.720964
 30
0.0
 11
-520.9012
 21
-53.305084
 31
0.0
  0
ARC
  5
458
100
AcDbEntity
  8
0
370
    -3
  6
Continuous
100
AcDbCircle
 10
-512.758801
 20
-49.758768
 30
0.0
 40
1.0
100
AcDbArc
 50
120.0
 51
198.787729
  0
LINE
  5
459
100
AcDbEntity
  8
0
370
    -3
  6
Continuous
100
AcDbLine
 10
-510.617566
 20
-47.367825
 30
0.0
 11
-513.258801
 21
-48.892742
 31
0.0
  0
ARC
  5
45A
100
AcDbEntity
  8
0
370
    -3
  6
Continuous
100
AcDbCircle
 10
-510.117566
 20
-48.23385
 30
0.0
 40
1.0
100
AcDbArc
 50
20.405932
 51
120.0
  0
ARC
  5
45B
100
AcDbEntity
  8
0
370
    -3
  6
Continuous
100
AcDbCircle
 10
-520.4012
 20
-56.940692
 30
0.0
 40
1.0
100
AcDbArc
 50
171.618272
 51
240.0
  0
ARC
  5
45C
100
AcDbEntity
  8
0
370
    -3
  6
Continuous
100
AcDbCircle
 10
-529.79973
 20
-55.555901
 30
0.0
 40
8.5
100
AcDbArc
 50
351.618272
 51
8.381728
  0
ARC
  5
45D
100
AcDbEntity
  8
0
370
    -3
  6
Continuous
100
AcDbCircle
 10
-517.657425
 20
-52.58699
 30
0.0
 40
1.0
100
AcDbArc
 50
13.739795
 51
120.0
  0
LINE
  5
45E
100
AcDbEntity
  8
0
370
    -3
  6
Continuous
100
AcDbLine
 10
-518.157425
 20
-59.390837
 30
0.0
 11
-520.9012
 21
-57.806718
 31
0.0
  0
ARC
  5
45F
100
AcDbEntity
  8
0
370
    -3
  6
Continuous
100
AcDbCircle
 10
-517.657425
 20
-58.524812
 30
0.0
 40
1.0
100
AcDbArc
 50
240.0
 51
346.260205
  0
ARC
  5
460
100
AcDbEntity
  8
0
370
    -3
  6
Continuous
100
AcDbCircle
 10
-529.79973
 20
-55.555901
 30
0.0
 40
13.5
100
AcDbArc
 50
346.260205
 51
13.739795
  0
ARC
  5
461
100
AcDbEntity
  8
0
370
    -3
  6
Continuous
100
AcDbCircle
 10
-512.758801
 20
-61.353033
 30
0.0
 40
1.0
100
AcDbArc
 50
161.212271
 51
240.0
  0
LINE
  5
462
100
AcDbEntity
  8
0
370
    -3
  6
Continuous
100
AcDbLine
 10
-510.617566
 20
-63.743977
 30
0.0
 11
-513.258801
 21
-62.219059
 31
0.0
  0
ARC
  5
463
100
AcDbEntity
  8
0
370
    -3
  6
Continuous
100
AcDbCircle
 10
-529.79973
 20
-55.555901
 30
0.0
 40
17.0
100
AcDbArc
 50
341.212271
 51
18.787729
  0
ARC
  5
464
100
AcDbEntity
  8
0
370
    -3
  6
Continuous
100
AcDbCircle
 10
-510.117566
 20
-62.877951
 30
0.0
 40
1.0
100
AcDbArc
 50
240.0
 51
339.594068
  0
ARC
  5
465
100
AcDbEntity
  8
0
370
    -3
  6
Continuous
100
AcDbCircle
 10
-505.301103
 20
-65.658737
 30
0.0
 40
1.0
100
AcDbArc
 50
157.589542
 51
240.0
  0
ARC
  5
466
100
AcDbEntity
  8
0
370
    -3
  6
Continuous
100
AcDbCircle
 10
-497.890776
 20
-69.937092
 30
0.0
 40
1.0
100
AcDbArc
 50
155.73917
 51
240.0
  0
ARC
  5
467
100
AcDbEntity
  8
0
370
    -3
  6
Continuous
100
AcDbCircle
 10
-529.79973
 20
-55.555901
 30
0.0
 40
22.0
100
AcDbArc
 50
339.594068
 51
20.405932
  0
LINE
  5
468
100
AcDbEntity
  8
0
370
    -3
  6
Continuous
100
AcDbLine
 10
-503.182428
 20
-68.036656
 30
0.0
 11
-505.801103
 21
-66.524763
 31
0.0
  0
ARC
  5
469
100
AcDbEntity
  8
0
370
    -3
  6
Continuous
100
AcDbCircle
 10
-502.682428
 20
-67.17063
 30
0.0
 40
1.0
100
AcDbArc
 50
240.0
 51
336.813854
  0
ARC
  5
46A
100
AcDbEntity
  8
0
370
    -3
  6
Continuous
100
AcDbCircle
 10
-529.79973
 20
-55.555901
 30
0.0
 40
30.5
100
AcDbArc
 50
336.813854
 51
23.186146
  0
ARC
  5
46B
100
AcDbEntity
  8
0
370
    -3
  6
Continuous
100
AcDbCircle
 10
-529.79973
 20
-55.555901
 30
0.0
 40
25.5
100
AcDbArc
 50
337.589542
 51
22.410458
  0
ARC
  5
46C
100
AcDbEntity
  8
0
370
    -3
  6
Continuous
100
AcDbCircle
 10
-529.79973
 20
-55.555901
 30
0.0
 40
34.0
100
AcDbArc
 50
335.73917
 51
24.26083
  0
ARC
  5
46D
100
AcDbEntity
  8
0
370
    -3
  6
Continuous
100
AcDbCircle
 10
-529.79973
 20
-55.555901
 30
0.0
 40
39.0
100
AcDbArc
 50
335.284733
 51
24.715267
  0
LINE
  5
46E
100
AcDbEntity
  8
0
370
    -3
  6
Continuous
100
AcDbLine
 10
-495.780651
 20
-72.310073
 30
0.0
 11
-498.390776
 21
-70.803117
 31
0.0
  0
ARC
  5
46F
100
AcDbEntity
  8
0
370
    -3
  6
Continuous
100
AcDbCircle
 10
-495.280651
 20
-71.444048
 30
0.0
 40
1.0
100
AcDbArc
 50
240.0
 51
335.284733
  0
CIRCLE
  5
470
100
AcDbEntity
  8
0
370
    -3
  6
Continuous
100
AcDbCircle
 10
-529.79973
 20
-55.555901
 30
0.0
 40
5.0
  0
ARC
  5
471
100
AcDbEntity
  8
0
370
    -3
  6
Continuous
100
AcDbCircle
 10
-498.780651
 20
-77.506226
 30
0.0
 40
1.0
100
AcDbArc
 50
324.715267
 51
60.0
  0
ARC
  5
472
100
AcDbEntity
  8
0
370
    -3
  6
Continuous
100
AcDbCircle
 10
-501.390776
 20
-75.99927
 30
0.0
 40
1.0
100
AcDbArc
 50
60.0
 51
144.26083
  0
ARC
  5
473
100
AcDbEntity
  8
0
370
    -3
  6
Continuous
100
AcDbCircle
 10
-526.29973
 20
-90.380461
 30
0.0
 40
1.0
100
AcDbArc
 50
95.73917
 51
180.0
  0
ARC
  5
474
100
AcDbEntity
  8
0
370
    -3
  6
Continuous
100
AcDbCircle
 10
-526.29973
 20
-93.394373
 30
0.0
 40
1.0
100
AcDbArc
 50
180.0
 51
275.284733
  0
ARC
  5
475
100
AcDbEntity
  8
0
370
    -3
  6
Continuous
100
AcDbCircle
 10
-526.29973
 20
-81.823752
 30
0.0
 40
1.0
100
AcDbArc
 50
97.589542
 51
180.0
  0
ARC
  5
476
100
AcDbEntity
  8
0
370
    -3
  6
Continuous
100
AcDbCircle
 10
-506.182428
 20
-73.232808
 30
0.0
 40
1.0
100
AcDbArc
 50
323.186146
 51
60.0
  0
ARC
  5
477
100
AcDbEntity
  8
0
370
    -3
  6
Continuous
100
AcDbCircle
 10
-508.801103
 20
-71.720915
 30
0.0
 40
1.0
100
AcDbArc
 50
60.0
 51
142.410458
  0
ARC
  5
478
100
AcDbEntity
  8
0
370
    -3
  6
Continuous
100
AcDbCircle
 10
-526.29973
 20
-84.847538
 30
0.0
 40
1.0
100
AcDbArc
 50
180.0
 51
276.813854
  0
ARC
  5
479
100
AcDbEntity
  8
0
370
    -3
  6
Continuous
100
AcDbCircle
 10
-526.29973
 20
-76.26218
 30
0.0
 40
1.0
100
AcDbArc
 50
180.0
 51
279.594068
  0
ARC
  5
47A
100
AcDbEntity
  8
0
370
    -3
  6
Continuous
100
AcDbCircle
 10
-526.29973
 20
-73.212344
 30
0.0
 40
1.0
100
AcDbArc
 50
101.212271
 51
180.0
  0
ARC
  5
47B
100
AcDbEntity
  8
0
370
    -3
  6
Continuous
100
AcDbCircle
 10
-513.617566
 20
-68.940129
 30
0.0
 40
1.0
100
AcDbArc
 50
320.405932
 51
60.0
  0
ARC
  5
47C
100
AcDbEntity
  8
0
370
    -3
  6
Continuous
100
AcDbCircle
 10
-516.258801
 20
-67.415211
 30
0.0
 40
1.0
100
AcDbArc
 50
60.0
 51
138.787729
  0
ARC
  5
47D
100
AcDbEntity
  8
0
370
    -3
  6
Continuous
100
AcDbCircle
 10
-521.157425
 20
-64.58699
 30
0.0
 40
1.0
100
AcDbArc
 50
313.739795
 51
60.0
  0
ARC
  5
47E
100
AcDbEntity
  8
0
370
    -3
  6
Continuous
100
AcDbCircle
 10
-526.29973
 20
-67.555901
 30
0.0
 40
1.0
100
AcDbArc
 50
180.0
 51
286.260205
  0
ARC
  5
47F
100
AcDbEntity
  8
0
370
    -3
  6
Continuous
100
AcDbCircle
 10
-526.29973
 20
-64.387661
 30
0.0
 40
1.0
100
AcDbArc
 50
111.618272
 51
180.0
  0
ARC
  5
480
100
AcDbEntity
  8
0
370
    -3
  6
Continuous
100
AcDbCircle
 10
-523.9012
 20
-63.00287
 30
0.0
 40
1.0
100
AcDbArc
 50
60.0
 51
128.381728
  0
ARC
  5
481
100
AcDbEntity
  8
0
370
    -3
  6
Continuous
100
AcDbCircle
 10
-529.79973
 20
-55.555901
 30
0.0
 40
39.0
100
AcDbArc
 50
275.284733
 51
324.715267
  0
ARC
  5
482
100
AcDbEntity
  8
0
370
    -3
  6
Continuous
100
AcDbCircle
 10
-529.79973
 20
-55.555901
 30
0.0
 40
30.5
100
AcDbArc
 50
276.813854
 51
323.186146
  0
ARC
  5
483
100
AcDbEntity
  8
0
370
    -3
  6
Continuous
100
AcDbCircle
 10
-529.79973
 20
-55.555901
 30
0.0
 40
34.0
100
AcDbArc
 50
275.73917
 51
324.26083
  0
ARC
  5
484
100
AcDbEntity
  8
0
370
    -3
  6
Continuous
100
AcDbCircle
 10
-529.79973
 20
-55.555901
 30
0.0
 40
25.5
100
AcDbArc
 50
277.589542
 51
322.410458
  0
ARC
  5
485
100
AcDbEntity
  8
0
370
    -3
  6
Continuous
100
AcDbCircle
 10
-529.79973
 20
-55.555901
 30
0.0
 40
22.0
100
AcDbArc
 50
279.594068
 51
320.405932
  0
ARC
  5
486
100
AcDbEntity
  8
0
370
    -3
  6
Continuous
100
AcDbCircle
 10
-529.79973
 20
-55.555901
 30
0.0
 40
17.0
100
AcDbArc
 50
281.212271
 51
318.787729
  0
ARC
  5
487
100
AcDbEntity
  8
0
370
    -3
  6
Continuous
100
AcDbCircle
 10
-529.79973
 20
-55.555901
 30
0.0
 40
13.5
100
AcDbArc
 50
286.260205
 51
313.739795
  0
ARC
  5
488
100
AcDbEntity
  8
0
370
    -3
  6
Continuous
100
AcDbCircle
 10
-529.79973
 20
-55.555901
 30
0.0
 40
8.5
100
AcDbArc
 50
291.618272
 51
308.381728
  0
LINE
  5
489
100
AcDbEntity
  8
0
370
    -3
  6
Continuous
100
AcDbLine
 10
-505.682428
 20
-72.366783
 30
0.0
 11
-508.301103
 21
-70.85489
 31
0.0
  0
LINE
  5
48A
100
AcDbEntity
  8
0
370
    -3
  6
Continuous
100
AcDbLine
 10
-527.29973
 20
-93.394373
 30
0.0
 11
-527.29973
 21
-90.380461
 31
0.0
  0
ARC
  5
48B
100
AcDbEntity
  8
0
370
    -3
  6
Continuous
100
AcDbCircle
 10
-529.79973
 20
-402.155901
 30
0.0
 40
400.6
100
AcDbArc
 50
85.470807
 51
90.0
  0
ARC
  5
48C
100
AcDbEntity
  8
0
370
    -3
  6
Continuous
100
AcDbCircle
 10
-499.787286
 20
-23.342948
 30
0.0
 40
20.6
100
AcDbArc
 50
45.0
 51
85.470055
  0
LINE
  5
48D
100
AcDbEntity
  8
0
370
    -3
  6
Continuous
100
AcDbLine
 10
-483.04214
 20
-10.955294
 30
0.0
 11
-485.220886
 21
-8.776548
 31
0.0
  0
LINE
  5
48E
100
AcDbEntity
  8
0
370
    -3
  6
Continuous
100
AcDbLine
 10
-578.802229
 20
-97.911597
 30
0.0
 11
-579.289033
 21
-98.3984
 31
0.0
  0
ARC
  5
48F
100
AcDbEntity
  8
0
370
    -3
  6
Continuous
100
AcDbCircle
 10
-511.750676
 20
-39.663829
 30
0.0
 40
40.6
100
AcDbArc
 50
2.530124
 51
45.0
  0
LINE
  5
490
100
AcDbEntity
  8
0
370
    -3
  6
Continuous
100
AcDbLine
 10
-572.155426
 20
-104.5584
 30
0.0
 11
-572.642229
 21
-105.045204
 31
0.0
  0
LINE
  5
491
100
AcDbEntity
  8
0
370
    -3
  6
Continuous
100
AcDbLine
 10
-579.115368
 20
-98.164144
 30
0.0
 11
-572.438269
 21
-104.841243
 31
0.0
  0
ARC
  5
492
100
AcDbEntity
  8
0
370
    -3
  6
Continuous
100
AcDbCircle
 10
-499.787286
 20
-87.768853
 30
0.0
 40
20.6
100
AcDbArc
 50
274.529945
 51
315.0
  0
LINE
  5
493
100
AcDbEntity
  8
0
370
    -3
  6
Continuous
100
AcDbLine
 10
-578.802229
 20
-97.911597
 30
0.0
 11
-572.155426
 21
-104.5584
 31
0.0
  0
LINE
  5
494
100
AcDbEntity
  8
0
370
    -3
  6
Continuous
100
AcDbLine
 10
-483.04214
 20
-100.156507
 30
0.0
 11
-485.220886
 21
-102.335253
 31
0.0
  0
POINT
  5
495
100
AcDbEntity
  8
0
370
    -3
  6
Continuous
100
AcDbPoint
 10
-575.478828
 20
-101.234999
 30
0.0
  0
ARC
  5
496
100
AcDbEntity
  8
0
370
    -3
  6
Continuous
100
AcDbCircle
 10
-511.750676
 20
-71.447972
 30
0.0
 40
40.6
100
AcDbArc
 50
315.0
 51
357.469876
  0
ARC
  5
497
100
AcDbEntity
  8
0
370
    -3
  6
Continuous
100
AcDbCircle
 10
-573.216086
 20
-98.972257
 30
0.0
 40
6.099999
100
AcDbArc
 50
174.601911
 51
275.398072
  0
ARC
  5
498
100
AcDbEntity
  8
0
370
    -3
  6
Continuous
100
AcDbCircle
 10
-188.19973
 20
-55.555901
 30
0.0
 40
400.6
100
AcDbArc
 50
180.0
 51
182.529361
  0
LINE
  5
499
100
AcDbEntity
  8
0
370
    -3
  6
Continuous
100
AcDbLine
 10
-487.444033
 20
-104.5584
 30
0.0
 11
-486.95723
 21
-105.045204
 31
0.0
  0
LINE
  5
49A
100
AcDbEntity
  8
0
370
    -3
  6
Continuous
100
AcDbLine
 10
-480.79723
 20
-97.911597
 30
0.0
 11
-480.310426
 21
-98.3984
 31
0.0
  0
ARC
  5
49B
100
AcDbEntity
  8
0
370
    -3
  6
Continuous
100
AcDbCircle
 10
-559.812174
 20
-87.768853
 30
0.0
 40
20.6
100
AcDbArc
 50
225.0
 51
265.470055
  0
LINE
  5
49C
100
AcDbEntity
  8
0
370
    -3
  6
Continuous
100
AcDbLine
 10
-480.484091
 20
-98.164144
 30
0.0
 11
-487.16119
 21
-104.841243
 31
0.0
  0
LINE
  5
49D
100
AcDbEntity
  8
0
370
    -3
  6
Continuous
100
AcDbLine
 10
-576.557319
 20
-100.156507
 30
0.0
 11
-574.378573
 21
-102.335253
 31
0.0
  0
LINE
  5
49E
100
AcDbEntity
  8
0
370
    -3
  6
Continuous
100
AcDbLine
 10
-480.79723
 20
-97.911597
 30
0.0
 11
-487.444033
 21
-104.5584
 31
0.0
  0
ARC
  5
49F
100
AcDbEntity
  8
0
370
    -3
  6
Continuous
100
AcDbCircle
 10
-547.848784
 20
-71.447972
 30
0.0
 40
40.6
100
AcDbArc
 50
182.530124
 51
225.0
  0
POINT
  5
4A0
100
AcDbEntity
  8
0
370
    -3
  6
Continuous
100
AcDbPoint
 10
-484.120632
 20
-101.234999
 30
0.0
  0
ARC
  5
4A1
100
AcDbEntity
  8
0
370
    -3
  6
Continuous
100
AcDbCircle
 10
-188.19973
 20
-55.555901
 30
0.0
 40
400.6
100
AcDbArc
 50
177.470639
 51
180.0
  0
ARC
  5
4A2
100
AcDbEntity
  8
0
370
    -3
  6
Continuous
100
AcDbCircle
 10
-486.383373
 20
-98.972257
 30
0.0
 40
6.099999
100
AcDbArc
 50
264.601928
 51
5.398089
  0
ARC
  5
4A3
100
AcDbEntity
  8
0
370
    -3
  6
Continuous
100
AcDbCircle
 10
-529.79973
 20
-402.155901
 30
0.0
 40
400.6
100
AcDbArc
 50
90.0
 51
94.529193
  0
LINE
  5
4A4
100
AcDbEntity
  8
0
370
    -3
  6
Continuous
100
AcDbLine
 10
-480.79723
 20
-13.200204
 30
0.0
 11
-480.310426
 21
-12.713401
 31
0.0
  0
ARC
  5
4A5
100
AcDbEntity
  8
0
370
    -3
  6
Continuous
100
AcDbCircle
 10
-559.812174
 20
-23.342948
 30
0.0
 40
20.6
100
AcDbArc
 50
94.529945
 51
135.0
  0
LINE
  5
4A6
100
AcDbEntity
  8
0
370
    -3
  6
Continuous
100
AcDbLine
 10
-487.444033
 20
-6.553401
 30
0.0
 11
-486.95723
 21
-6.066597
 31
0.0
  0
LINE
  5
4A7
100
AcDbEntity
  8
0
370
    -3
  6
Continuous
100
AcDbLine
 10
-576.557319
 20
-10.955294
 30
0.0
 11
-574.378573
 21
-8.776548
 31
0.0
  0
LINE
  5
4A8
100
AcDbEntity
  8
0
370
    -3
  6
Continuous
100
AcDbLine
 10
-480.484091
 20
-12.947657
 30
0.0
 11
-487.16119
 21
-6.270558
 31
0.0
  0
ARC
  5
4A9
100
AcDbEntity
  8
0
370
    -3
  6
Continuous
100
AcDbCircle
 10
-547.848784
 20
-39.663829
 30
0.0
 40
40.6
100
AcDbArc
 50
135.0
 51
177.469876
  0
LINE
  5
4AA
100
AcDbEntity
  8
0
370
    -3
  6
Continuous
100
AcDbLine
 10
-480.79723
 20
-13.200204
 30
0.0
 11
-487.444033
 21
-6.553401
 31
0.0
  0
LINE
  5
4AB
100
AcDbEntity
  8
0
370
    -3
  6
Continuous
100
AcDbLine
 10
-498.280651
 20
-76.6402
 30
0.0
 11
-500.890776
 21
-75.133244
 31
0.0
  0
POINT
  5
4AC
100
AcDbEntity
  8
0
370
    -3
  6
Continuous
100
AcDbPoint
 10
-484.120632
 20
-9.876803
 30
0.0
  0
LINE
  5
4AD
100
AcDbEntity
  8
0
370
    -3
  6
Continuous
100
AcDbLine
 10
-513.117566
 20
-68.074104
 30
0.0
 11
-515.758801
 21
-66.549186
 31
0.0
  0
ARC
  5
4AE
100
AcDbEntity
  8
0
370
    -3
  6
Continuous
100
AcDbCircle
 10
-486.383373
 20
-12.139544
 30
0.0
 40
6.099999
100
AcDbArc
 50
354.601911
 51
95.398072
  0
LINE
  5
4AF
100
AcDbEntity
  8
0
370
    -3
  6
Continuous
100
AcDbLine
 10
-520.657425
 20
-63.720964
 30
0.0
 11
-523.4012
 21
-62.136845
 31
0.0
  0
LINE
  5
4B0
100
AcDbEntity
  8
0
370
    -3
  6
Continuous
100
AcDbLine
 10
-572.155426
 20
-6.553401
 30
0.0
 11
-572.642229
 21
-6.066597
 31
0.0
  0
LINE
  5
4B1
100
AcDbEntity
  8
0
370
    -3
  6
Continuous
100
AcDbLine
 10
-527.29973
 20
-67.555901
 30
0.0
 11
-527.29973
 21
-64.387661
 31
0.0
  0
LINE
  5
4B2
100
AcDbEntity
  8
0
370
    -3
  6
Continuous
100
AcDbLine
 10
-578.802229
 20
-13.200204
 30
0.0
 11
-579.289033
 21
-12.713401
 31
0.0
  0
LINE
  5
4B3
100
AcDbEntity
  8
0
370
    -3
  6
Continuous
100
AcDbLine
 10
-527.29973
 20
-76.26218
 30
0.0
 11
-527.29973
 21
-73.212344
 31
0.0
  0
LINE
  5
4B4
100
AcDbEntity
  8
0
370
    -3
  6
Continuous
100
AcDbLine
 10
-579.115368
 20
-12.947657
 30
0.0
 11
-572.438269
 21
-6.270558
 31
0.0
  0
LINE
  5
4B5
100
AcDbEntity
  8
0
370
    -3
  6
Continuous
100
AcDbLine
 10
-527.29973
 20
-84.847538
 30
0.0
 11
-527.29973
 21
-81.823752
 31
0.0
  0
LINE
  5
4B6
100
AcDbEntity
  8
0
370
    -3
  6
Continuous
100
AcDbLine
 10
-578.802229
 20
-13.200204
 30
0.0
 11
-572.155426
 21
-6.553401
 31
0.0
  0
ARC
  5
4B7
100
AcDbEntity
  8
0
370
    -3
  6
Continuous
100
AcDbCircle
 10
-529.79973
 20
-55.555901
 30
0.0
 40
39.0
100
AcDbArc
 50
155.284733
 51
204.715267
  0
POINT
  5
4B8
100
AcDbEntity
  8
0
370
    -3
  6
Continuous
100
AcDbPoint
 10
-575.478828
 20
-9.876803
 30
0.0
  0
ARC
  5
4B9
100
AcDbEntity
  8
0
370
    -3
  6
Continuous
100
AcDbCircle
 10
-529.79973
 20
-55.555901
 30
0.0
 40
34.0
100
AcDbArc
 50
155.73917
 51
204.26083
  0
ARC
  5
4BA
100
AcDbEntity
  8
0
370
    -3
  6
Continuous
100
AcDbCircle
 10
-573.216086
 20
-12.139544
 30
0.0
 40
6.099999
100
AcDbArc
 50
84.601928
 51
185.398089
  0
ARC
  5
4BB
100
AcDbEntity
  8
0
370
    -3
  6
Continuous
100
AcDbCircle
 10
-529.79973
 20
-55.555901
 30
0.0
 40
25.5
100
AcDbArc
 50
157.589542
 51
202.410458
  0
ARC
  5
4BC
100
AcDbEntity
  8
0
370
    -3
  6
Continuous
100
AcDbCircle
 10
-529.79973
 20
-55.555901
 30
0.0
 40
30.5
100
AcDbArc
 50
156.813854
 51
203.186146
  0
ARC
  5
4BD
100
AcDbEntity
  8
0
370
    -3
  6
Continuous
100
AcDbCircle
 10
-529.79973
 20
-55.555901
 30
0.0
 40
22.0
100
AcDbArc
 50
159.594068
 51
200.405932
  0
ARC
  5
4BE
100
AcDbEntity
  8
0
370
    -3
  6
Continuous
100
AcDbCircle
 10
-529.79973
 20
-55.555901
 30
0.0
 40
17.0
100
AcDbArc
 50
161.212271
 51
198.787729
  0
ARC
  5
4BF
100
AcDbEntity
  8
0
370
    -3
  6
Continuous
100
AcDbCircle
 10
-529.79973
 20
-55.555901
 30
0.0
 40
13.5
100
AcDbArc
 50
166.260205
 51
193.739795
  0
ARC
  5
4C0
100
AcDbEntity
  8
0
370
    -3
  6
Continuous
100
AcDbCircle
 10
-541.942034
 20
-52.58699
 30
0.0
 40
1.0
100
AcDbArc
 50
60.0
 51
166.260205
  0
ARC
  5
4C1
100
AcDbEntity
  8
0
370
    -3
  6
Continuous
100
AcDbCircle
 10
-549.481893
 20
-48.23385
 30
0.0
 40
1.0
100
AcDbArc
 50
60.0
 51
159.594068
  0
LINE
  5
4C2
100
AcDbEntity
  8
0
370
    -3
  6
Continuous
100
AcDbLine
 10
-548.981893
 20
-47.367825
 30
0.0
 11
-546.340658
 21
-48.892742
 31
0.0
  0
ARC
  5
4C3
100
AcDbEntity
  8
0
370
    -3
  6
Continuous
100
AcDbCircle
 10
-546.840658
 20
-49.758768
 30
0.0
 40
1.0
100
AcDbArc
 50
341.212271
 51
60.0
  0
LINE
  5
4C4
100
AcDbEntity
  8
0
370
    -3
  6
Continuous
100
AcDbLine
 10
-541.442034
 20
-51.720964
 30
0.0
 11
-538.698259
 21
-53.305084
 31
0.0
  0
ARC
  5
4C5
100
AcDbEntity
  8
0
370
    -3
  6
Continuous
100
AcDbCircle
 10
-539.198259
 20
-54.171109
 30
0.0
 40
1.0
100
AcDbArc
 50
351.618272
 51
60.0
  0
ARC
  5
4C6
100
AcDbEntity
  8
0
370
    -3
  6
Continuous
100
AcDbCircle
 10
-561.708683
 20
-41.174709
 30
0.0
 40
1.0
100
AcDbArc
 50
335.73917
 51
60.0
  0
LINE
  5
4C7
100
AcDbEntity
  8
0
370
    -3
  6
Continuous
100
AcDbLine
 10
-563.818808
 20
-38.801728
 30
0.0
 11
-561.208683
 21
-40.308684
 31
0.0
  0
ARC
  5
4C8
100
AcDbEntity
  8
0
370
    -3
  6
Continuous
100
AcDbCircle
 10
-564.318808
 20
-39.667753
 30
0.0
 40
1.0
100
AcDbArc
 50
60.0
 51
155.284733
  0
ARC
  5
4C9
100
AcDbEntity
  8
0
370
    -3
  6
Continuous
100
AcDbCircle
 10
-554.298356
 20
-45.453064
 30
0.0
 40
1.0
100
AcDbArc
 50
337.589542
 51
60.0
  0
LINE
  5
4CA
100
AcDbEntity
  8
0
370
    -3
  6
Continuous
100
AcDbLine
 10
-470.29973
 20
-88.2838
 30
0.0
 11
-470.29973
 21
-99.055901
 31
0.0
  0
ARC
  5
4CB
100
AcDbEntity
  8
0
370
    -3
  6
Continuous
100
AcDbCircle
 10
-471.29973
 20
-99.055901
 30
0.0
 40
1.0
100
AcDbArc
 50
279.914783
 51
0.0
  0
ARC
  5
4CC
100
AcDbEntity
  8
0
370
    -3
  6
Continuous
100
AcDbCircle
 10
-470.955363
 20
-101.02603
 30
0.0
 40
1.0
100
AcDbArc
 50
99.914783
 51
170.0
  0
LINE
  5
4CD
100
AcDbEntity
  8
0
370
    -3
  6
Continuous
100
AcDbLine
 10
-589.29973
 20
-80.055901
 30
0.0
 11
-589.29973
 21
-99.055901
 31
0.0
  0
LINE
  5
4CE
100
AcDbEntity
  8
0
370
    -3
  6
Continuous
100
AcDbLine
 10
-587.659288
 20
-100.852382
 30
0.0
 11
-584.883389
 21
-116.595293
 31
0.0
  0
ARC
  5
4CF
100
AcDbEntity
  8
0
370
    -3
  6
Continuous
100
AcDbCircle
 10
-588.29973
 20
-99.055901
 30
0.0
 40
1.0
100
AcDbArc
 50
180.0
 51
260.085217
  0
ARC
  5
4D0
100
AcDbEntity
  8
0
370
    -3
  6
Continuous
100
AcDbCircle
 10
-588.644096
 20
-101.02603
 30
0.0
 40
1.0
100
AcDbArc
 50
10.0
 51
80.085217
  0
LINE
  5
4D1
100
AcDbEntity
  8
0
370
    -3
  6
Continuous
100
AcDbLine
 10
-589.29973
 20
-80.055901
 30
0.0
 11
-589.29973
 21
-61.055901
 31
0.0
  0
INSERT
  5
4DE
100
AcDbEntity
  8
0
100
AcDbBlockReference
  2
ZU_SYM__USERS_HOME_SYMBOL_POO_SYM_B20_00018-1
 10
-613.79973
 20
-75.055901
 30
0.0
 41
-1.0
  0
INSERT
  5
4EB
100
AcDbEntity
  8
0
100
AcDbBlockReference
  2
ZU_SYM__USERS_HOME_SYMBOL_POO_SYM_B20_00019-1
 10
-479.79973
 20
0.944099
 30
0.0
  0
LINE
  5
4EC
100
AcDbEntity
  8
0
370
    -3
  6
Continuous
100
AcDbLine
 10
-621.79973
 20
-63.055901
 30
0.0
 11
-614.79973
 21
-63.055901
 31
0.0
  0
LINE
  5
4ED
100
AcDbEntity
  8
0
370
    -3
  6
Continuous
100
AcDbLine
 10
-620.297727
 20
-47.055901
 30
0.0
 11
-614.79973
 21
-47.055901
 31
0.0
  0
LINE
  5
4EE
100
AcDbEntity
  8
0
370
    -3
  6
CENTER
100
AcDbLine
 10
-551.964042
 20
-50.055901
 30
0.0
 11
-507.108142
 21
-50.055901
 31
0.0
  0
LINE
  5
4EF
100
AcDbEntity
  8
0
370
    -3
  6
Continuous
100
AcDbLine
 10
-529.79973
 20
-80.055901
 30
0.0
 11
-529.416324
 21
-79.672495
 31
0.0
  0
ARC
  5
4F0
100
AcDbEntity
  8
0
370
    -3
  6
Continuous
100
AcDbCircle
 10
-614.79973
 20
-55.055901
 30
0.0
 40
8.0
100
AcDbArc
 50
270.0
 51
90.0
  0
ARC
  5
4F1
100
AcDbEntity
  8
0
370
    -3
  6
Continuous
100
AcDbCircle
 10
-515.79973
 20
-60.289299
 30
0.0
 40
80.0
100
AcDbArc
 50
39.82918
 51
85.339581
  0
ARC
  5
4F2
100
AcDbEntity
  8
0
370
    -3
  6
Continuous
100
AcDbCircle
 10
-543.79973
 20
-60.289299
 30
0.0
 40
80.0
100
AcDbArc
 50
94.660419
 51
180.0
  0
ARC
  5
4F3
100
AcDbEntity
  8
0
370
    -3
  6
Continuous
100
AcDbCircle
 10
-568.594002
 20
-108.322567
 30
0.0
 40
27.0
100
AcDbArc
 50
142.203357
 51
275.631714
  0
ARC
  5
4F4
100
AcDbEntity
  8
0
370
    -3
  6
Continuous
100
AcDbCircle
 10
-592.29973
 20
-89.936745
 30
0.0
 40
3.0
100
AcDbArc
 50
322.203357
 51
0.0
  0
LINE
  5
4F5
100
AcDbEntity
  8
0
370
    -3
  6
Continuous
100
AcDbLine
 10
-471.940171
 20
-100.852382
 30
0.0
 11
-474.716071
 21
-116.595293
 31
0.0
  0
ARC
  5
4F6
100
AcDbEntity
  8
0
370
    -3
  6
Continuous
100
AcDbCircle
 10
-188.19973
 20
-55.555901
 30
0.0
 40
390.797
100
AcDbArc
 50
180.0
 51
182.529361
  0
LINE
  5
4F7
100
AcDbEntity
  8
0
370
    -3
  6
CENTER
100
AcDbLine
 10
-529.79973
 20
78.118615
 30
0.0
 11
-529.79973
 21
-184.238671
 31
0.0
  0
ARC
  5
4F8
100
AcDbEntity
  8
0
370
    -3
  6
Continuous
100
AcDbCircle
 10
-504.29973
 20
-109.555901
 30
0.0
 40
3.0
100
AcDbArc
 50
167.756347
 51
180.0
  0
ARC
  5
4F9
100
AcDbEntity
  8
0
370
    -3
  6
Continuous
100
AcDbCircle
 10
-514.29973
 20
-109.88296
 30
0.0
 40
3.0
100
AcDbArc
 50
0.0
 51
14.478806
  0
ARC
  5
4FA
100
AcDbEntity
  8
0
370
    -3
  6
Continuous
100
AcDbCircle
 10
-545.29973
 20
-109.88296
 30
0.0
 40
3.0
100
AcDbArc
 50
165.521194
 51
180.0
  0
ARC
  5
4FB
100
AcDbEntity
  8
0
370
    -3
  6
Continuous
100
AcDbCircle
 10
-555.29973
 20
-109.555901
 30
0.0
 40
3.0
100
AcDbArc
 50
0.0
 51
12.243653
  0
ARC
  5
4FC
100
AcDbEntity
  8
0
370
    -3
  6
Continuous
100
AcDbCircle
 10
-529.79973
 20
291.044099
 30
0.0
 40
400.6
100
AcDbArc
 50
270.0
 51
274.529193
  0
ARC
  5
4FD
100
AcDbEntity
  8
0
370
    -3
  6
Continuous
100
AcDbCircle
 10
-529.79973
 20
291.044099
 30
0.0
 40
400.6
100
AcDbArc
 50
265.470807
 51
270.0
  0
LINE
  5
4FE
100
AcDbEntity
  8
0
370
    -3
  6
Continuous
100
AcDbLine
 10
-511.29973
 20
-109.88296
 30
0.0
 11
-511.29973
 21
-134.555901
 31
0.0
  0
LINE
  5
4FF
100
AcDbEntity
  8
0
370
    -3
  6
Continuous
100
AcDbLine
 10
-548.29973
 20
-109.88296
 30
0.0
 11
-548.29973
 21
-134.555901
 31
0.0
  0
LINE
  5
500
100
AcDbEntity
  8
0
370
    -3
  6
Continuous
100
AcDbLine
 10
-507.29973
 20
-109.555901
 30
0.0
 11
-507.29973
 21
-137.555901
 31
0.0
  0
LINE
  5
501
100
AcDbEntity
  8
0
370
    -3
  6
Continuous
100
AcDbLine
 10
-552.29973
 20
-109.555901
 30
0.0
 11
-552.29973
 21
-137.555901
 31
0.0
  0
MTEXT
  5
503
100
AcDbEntity
  8
0
370
    -3
  6
Continuous
100
AcDbMText
 10
-609.907959
 20
306.429932
 30
0.0
 40
15.0
 41
0.0
 71
     7
 72
     1
  1
\W0.48;GV-SFB
  7
ZU_SHPTB00001
 11
1.0
 21
0.0
 31
0.0
 73
     1
 44
1.0
  0
MTEXT
  5
504
100
AcDbEntity
  8
0
370
    -3
  6
Continuous
100
AcDbMText
 10
-609.907959
 20
289.479919
 30
0.0
 40
15.0
 41
0.0
 71
     7
 72
     1
  1
\W0.43;0.1kW
  7
ZU_SHPTB00001
 11
1.0
 21
0.0
 31
0.0
 73
     1
 44
1.0
  0
MTEXT
  5
505
100
AcDbEntity
  8
0
370
    -3
  6
Continuous
100
AcDbMText
 10
-609.907959
 20
255.579956
 30
0.0
 40
15.0
 41
0.0
 71
     7
 72
     1
  1
\W0.42;GEAR\W0.70; \W0.42;RATIO\W0.70;  \W0.42;1/540-1/900
  7
ZU_SHPTB00001
 11
1.0
 21
0.0
 31
0.0
 73
     1
 44
1.0
  0
MTEXT
  5
506
100
AcDbEntity
  8
0
370
    -3
  6
Continuous
100
AcDbMText
 10
-609.907959
 20
272.529968
 30
0.0
 40
15.0
 41
0.0
 71
     7
 72
     1
  1
\W0.43;5.6-3.3r/min\W0.53;　
  7
ZU_SHPTB00001
 11
1.0
 21
0.0
 31
0.0
 73
     1
 44
1.0
  0
MTEXT
  5
507
100
AcDbEntity
  8
0
370
    -3
  6
Continuous
100
AcDbMText
 10
-609.907959
 20
238.629944
 30
0.0
 40
15.0
 41
0.0
 71
     7
 72
     1
  1
\W0.43;SCALE\W0.72;  \W0.43;1/1
  7
ZU_SHPTB00001
 11
1.0
 21
0.0
 31
0.0
 73
     1
 44
1.0
  0
MTEXT
  5
508
100
AcDbEntity
  8
0
370
    -3
  6
Continuous
100
AcDbMText
 10
-609.907959
 20
323.379944
 30
0.0
 40
15.0
 41
0.0
 71
     7
 72
     1
  1
\W0.63;三菱ギヤードモータ  
  7
ZU_SHPTB00001
 11
1.0
 21
0.0
 31
0.0
 73
     1
 44
1.0
  0
MTEXT
  5
509
100
AcDbEntity
  8
0
370
    -3
  6
Continuous
100
AcDbMText
 10
-609.907959
 20
323.379944
 30
0.0
 40
15.0
 41
0.0
 71
     7
 72
     1
  1
\W0.63;三菱ギヤードモータ  
  7
ZU_SHPTB00001
 11
1.0
 21
0.0
 31
0.0
 73
     1
 44
1.0
  0
LINE
  5
50A
100
AcDbEntity
  8
0
370
    -3
  6
CENTER
100
AcDbLine
 10
-258.328581
 20
-105.247664
 30
0.0
 11
-258.328581
 21
-4.863261
 31
0.0
  0
LINE
  5
50B
100
AcDbEntity
  8
0
370
    -3
  6
Continuous
100
AcDbLine
 10
-309.451455
 20
-55.555901
 30
0.0
 11
-309.451455
 21
-16.555901
 31
0.0
  0
LINE
  5
50C
100
AcDbEntity
  8
0
370
    -3
  6
Continuous
100
AcDbLine
 10
-311.902641
 20
-55.555901
 30
0.0
 11
-311.902641
 21
-16.555901
 31
0.0
  0
LINE
  5
50D
100
AcDbEntity
  8
0
370
    -3
  6
Continuous
100
AcDbLine
 10
-301.660841
 20
-55.555901
 30
0.0
 11
-301.660841
 21
-30.991438
 31
0.0
  0
LINE
  5
50E
100
AcDbEntity
  8
0
370
    -3
  6
Continuous
100
AcDbLine
 10
-327.328581
 20
-41.555901
 30
0.0
 11
-311.902641
 21
-41.555901
 31
0.0
  0
LINE
  5
50F
100
AcDbEntity
  8
0
370
    -3
  6
Continuous
100
AcDbLine
 10
-301.283447
 20
-16.055901
 30
0.0
 11
-303.191167
 21
-18.055901
 31
0.0
  0
LINE
  5
510
100
AcDbEntity
  8
0
370
    -3
  6
Continuous
100
AcDbLine
 10
-303.191167
 20
-14.055901
 30
0.0
 11
-301.283447
 21
-16.055901
 31
0.0
  0
ELLIPSE
  5
511
100
AcDbEntity
  8
0
370
    -3
  6
Continuous
100
AcDbEllipse
 10
-302.114478
 20
-16.055901
 30
0.0
 11
0.0
 21
3.5
 31
0.0
210
0.0
220
0.0
230
1.0
 40
0.982815
 41
0.0
 42
6.2831853071795862
  0
ARC
  5
512
100
AcDbEntity
  8
0
370
    -3
  6
Continuous
100
AcDbCircle
 10
-301.651455
 20
-16.555901
 30
0.0
 40
7.8
100
AcDbArc
 50
90.0
 51
180.0
  0
ARC
  5
513
100
AcDbEntity
  8
0
370
    -3
  6
Continuous
100
AcDbCircle
 10
-304.102641
 20
-16.555901
 30
0.0
 40
7.8
100
AcDbArc
 50
90.0
 51
180.0
  0
ARC
  5
514
100
AcDbEntity
  8
0
370
    -3
  6
Continuous
100
AcDbCircle
 10
-297.860841
 20
-30.991438
 30
0.0
 40
3.8
100
AcDbArc
 50
138.609573
 51
180.0
  0
LINE
  5
515
100
AcDbEntity
  8
0
370
    -3
  6
Continuous
100
AcDbLine
 10
-299.565935
 20
-14.055901
 30
0.0
 11
-301.283447
 21
-16.055901
 31
0.0
  0
LINE
  5
516
100
AcDbEntity
  8
0
370
    -3
  6
Continuous
100
AcDbLine
 10
-301.283447
 20
-16.055901
 30
0.0
 11
-299.565935
 21
-18.055901
 31
0.0
  0
LINE
  5
517
100
AcDbEntity
  8
0
370
    -3
  6
Continuous
100
AcDbLine
 10
-291.734947
 20
-18.293392
 30
0.0
 11
-300.711682
 21
-28.478929
 31
0.0
  0
LINE
  5
518
100
AcDbEntity
  8
0
370
    -3
  6
Continuous
100
AcDbLine
 10
-288.884105
 20
-17.005901
 30
0.0
 11
-233.388049
 21
-17.005901
 31
0.0
  0
ARC
  5
519
100
AcDbEntity
  8
0
370
    -3
  6
Continuous
100
AcDbCircle
 10
-288.884105
 20
-20.805901
 30
0.0
 40
3.8
100
AcDbArc
 50
90.0
 51
138.609573
  0
LINE
  5
51A
100
AcDbEntity
  8
0
370
    -3
  6
Continuous
100
AcDbLine
 10
-230.902628
 20
-55.555901
 30
0.0
 11
-230.902628
 21
-27.005901
 31
0.0
  0
ARC
  5
51B
100
AcDbEntity
  8
0
370
    -3
  6
Continuous
100
AcDbCircle
 10
-240.902628
 20
-27.005901
 30
0.0
 40
10.0
100
AcDbArc
 50
0.0
 51
90.0
  0
LINE
  5
51C
100
AcDbEntity
  8
0
370
    -3
  6
Continuous
100
AcDbLine
 10
-230.557486
 20
-18.270568
 30
0.0
 11
-221.418659
 21
-28.473576
 31
0.0
  0
ARC
  5
51D
100
AcDbEntity
  8
0
370
    -3
  6
Continuous
100
AcDbCircle
 10
-233.388049
 20
-20.805901
 30
0.0
 40
3.8
100
AcDbArc
 50
41.85078
 51
90.0
  0
ELLIPSE
  5
51E
100
AcDbEntity
  8
0
370
    -3
  6
Continuous
100
AcDbEllipse
 10
-219.640469
 20
-16.055901
 30
0.0
 11
0.0
 21
3.5
 31
0.0
210
0.0
220
0.0
230
1.0
 40
0.982815
 41
0.0
 42
6.2831853071795862
  0
LINE
  5
51F
100
AcDbEntity
  8
0
370
    -3
  6
Continuous
100
AcDbLine
 10
-218.809438
 20
-16.055901
 30
0.0
 11
-220.717158
 21
-18.055901
 31
0.0
  0
LINE
  5
520
100
AcDbEntity
  8
0
370
    -3
  6
Continuous
100
AcDbLine
 10
-220.717158
 20
-14.055901
 30
0.0
 11
-218.809438
 21
-16.055901
 31
0.0
  0
ARC
  5
521
100
AcDbEntity
  8
0
370
    -3
  6
Continuous
100
AcDbCircle
 10
-221.231112
 20
-16.555901
 30
0.0
 40
7.8
100
AcDbArc
 50
0.0
 51
90.0
  0
ARC
  5
522
100
AcDbEntity
  8
0
370
    -3
  6
Continuous
100
AcDbCircle
 10
-224.249222
 20
-31.008909
 30
0.0
 40
3.8
100
AcDbArc
 50
0.0
 51
41.85078
  0
LINE
  5
523
100
AcDbEntity
  8
0
370
    -3
  6
Continuous
100
AcDbLine
 10
-217.091927
 20
-14.055901
 30
0.0
 11
-218.809438
 21
-16.055901
 31
0.0
  0
LINE
  5
524
100
AcDbEntity
  8
0
370
    -3
  6
Continuous
100
AcDbLine
 10
-218.809438
 20
-16.055901
 30
0.0
 11
-217.091927
 21
-18.055901
 31
0.0
  0
LINE
  5
525
100
AcDbEntity
  8
0
370
    -3
  6
Continuous
100
AcDbLine
 10
-213.431112
 20
-55.555901
 30
0.0
 11
-213.431112
 21
-16.555901
 31
0.0
  0
LINE
  5
526
100
AcDbEntity
  8
0
370
    -3
  6
Continuous
100
AcDbLine
 10
-220.449222
 20
-55.555901
 30
0.0
 11
-220.449222
 21
-31.008909
 31
0.0
  0
LINE
  5
527
100
AcDbEntity
  8
0
370
    -3
  6
Continuous
100
AcDbLine
 10
-288.884105
 20
-94.105901
 30
0.0
 11
-233.388049
 21
-94.105901
 31
0.0
  0
ARC
  5
528
100
AcDbEntity
  8
0
370
    -3
  6
Continuous
100
AcDbCircle
 10
-240.902628
 20
-84.105901
 30
0.0
 40
10.0
100
AcDbArc
 50
270.0
 51
360.0
  0
LINE
  5
529
100
AcDbEntity
  8
0
370
    -3
  6
Continuous
100
AcDbLine
 10
-230.557486
 20
-92.841234
 30
0.0
 11
-221.418659
 21
-82.638225
 31
0.0
  0
ARC
  5
52A
100
AcDbEntity
  8
0
370
    -3
  6
Continuous
100
AcDbCircle
 10
-233.388049
 20
-90.305901
 30
0.0
 40
3.8
100
AcDbArc
 50
270.0
 51
318.14922
  0
LINE
  5
52B
100
AcDbEntity
  8
0
370
    -3
  6
Continuous
100
AcDbLine
 10
-218.809438
 20
-95.055901
 30
0.0
 11
-220.717158
 21
-93.055901
 31
0.0
  0
LINE
  5
52C
100
AcDbEntity
  8
0
370
    -3
  6
Continuous
100
AcDbLine
 10
-220.717158
 20
-97.055901
 30
0.0
 11
-218.809438
 21
-95.055901
 31
0.0
  0
ELLIPSE
  5
52D
100
AcDbEntity
  8
0
370
    -3
  6
Continuous
100
AcDbEllipse
 10
-219.640469
 20
-95.055901
 30
0.0
 11
0.000000000000199
 21
3.5
 31
0.0
210
0.0
220
0.0
230
1.0
 40
0.982815
 41
0.0
 42
6.2831853071795862
  0
LINE
  5
52E
100
AcDbEntity
  8
0
370
    -3
  6
Continuous
100
AcDbLine
 10
-217.091927
 20
-97.055901
 30
0.0
 11
-218.809438
 21
-95.055901
 31
0.0
  0
LINE
  5
52F
100
AcDbEntity
  8
0
370
    -3
  6
Continuous
100
AcDbLine
 10
-218.809438
 20
-95.055901
 30
0.0
 11
-217.091927
 21
-93.055901
 31
0.0
  0
ARC
  5
530
100
AcDbEntity
  8
0
370
    -3
  6
Continuous
100
AcDbCircle
 10
-221.231112
 20
-94.555901
 30
0.0
 40
7.8
100
AcDbArc
 50
270.0
 51
360.0
  0
LINE
  5
531
100
AcDbEntity
  8
0
370
    -3
  6
Continuous
100
AcDbLine
 10
-230.902628
 20
-55.555901
 30
0.0
 11
-230.902628
 21
-84.105901
 31
0.0
  0
ARC
  5
532
100
AcDbEntity
  8
0
370
    -3
  6
Continuous
100
AcDbCircle
 10
-224.249222
 20
-80.102892
 30
0.0
 40
3.8
100
AcDbArc
 50
318.14922
 51
0.0
  0
LINE
  5
533
100
AcDbEntity
  8
0
370
    -3
  6
Continuous
100
AcDbLine
 10
-220.449222
 20
-55.555901
 30
0.0
 11
-220.449222
 21
-80.102892
 31
0.0
  0
LINE
  5
534
100
AcDbEntity
  8
0
370
    -3
  6
Continuous
100
AcDbLine
 10
-213.431112
 20
-55.555901
 30
0.0
 11
-213.431112
 21
-94.555901
 31
0.0
  0
LINE
  5
535
100
AcDbEntity
  8
0
370
    -3
  6
Continuous
100
AcDbLine
 10
-301.660841
 20
-55.555901
 30
0.0
 11
-301.660841
 21
-80.120363
 31
0.0
  0
LINE
  5
536
100
AcDbEntity
  8
0
370
    -3
  6
Continuous
100
AcDbLine
 10
-309.451455
 20
-55.555901
 30
0.0
 11
-309.451455
 21
-94.555901
 31
0.0
  0
LINE
  5
537
100
AcDbEntity
  8
0
370
    -3
  6
Continuous
100
AcDbLine
 10
-311.902641
 20
-55.555901
 30
0.0
 11
-311.902641
 21
-94.555901
 31
0.0
  0
LINE
  5
538
100
AcDbEntity
  8
0
370
    -3
  6
Continuous
100
AcDbLine
 10
-327.328581
 20
-69.555901
 30
0.0
 11
-311.902641
 21
-69.555901
 31
0.0
  0
LINE
  5
539
100
AcDbEntity
  8
0
370
    -3
  6
Continuous
100
AcDbLine
 10
-291.734947
 20
-92.818409
 30
0.0
 11
-300.711682
 21
-82.632872
 31
0.0
  0
ARC
  5
53A
100
AcDbEntity
  8
0
370
    -3
  6
Continuous
100
AcDbCircle
 10
-297.860841
 20
-80.120363
 30
0.0
 40
3.8
100
AcDbArc
 50
180.0
 51
221.390427
  0
LINE
  5
53B
100
AcDbEntity
  8
0
370
    -3
  6
Continuous
100
AcDbLine
 10
-301.283447
 20
-95.055901
 30
0.0
 11
-303.191167
 21
-93.055901
 31
0.0
  0
LINE
  5
53C
100
AcDbEntity
  8
0
370
    -3
  6
Continuous
100
AcDbLine
 10
-303.191167
 20
-97.055901
 30
0.0
 11
-301.283447
 21
-95.055901
 31
0.0
  0
ELLIPSE
  5
53D
100
AcDbEntity
  8
0
370
    -3
  6
Continuous
100
AcDbEllipse
 10
-302.114478
 20
-95.055901
 30
0.0
 11
0.0000000000002274
 21
3.5
 31
0.0
210
0.0
220
0.0
230
1.0
 40
0.982815
 41
0.0
 42
6.2831853071795862
  0
ARC
  5
53E
100
AcDbEntity
  8
0
370
    -3
  6
Continuous
100
AcDbCircle
 10
-301.651455
 20
-94.555901
 30
0.0
 40
7.8
100
AcDbArc
 50
180.0
 51
270.0
  0
ARC
  5
53F
100
AcDbEntity
  8
0
370
    -3
  6
Continuous
100
AcDbCircle
 10
-304.102641
 20
-94.555901
 30
0.0
 40
7.8
100
AcDbArc
 50
180.0
 51
270.0
  0
ARC
  5
540
100
AcDbEntity
  8
0
370
    -3
  6
Continuous
100
AcDbCircle
 10
-288.884105
 20
-90.305901
 30
0.0
 40
3.8
100
AcDbArc
 50
221.390427
 51
270.0
  0
LINE
  5
541
100
AcDbEntity
  8
0
370
    -3
  6
Continuous
100
AcDbLine
 10
-301.283447
 20
-95.055901
 30
0.0
 11
-299.565935
 21
-93.055901
 31
0.0
  0
LINE
  5
542
100
AcDbEntity
  8
0
370
    -3
  6
Continuous
100
AcDbLine
 10
-299.565935
 20
-97.055901
 30
0.0
 11
-301.283447
 21
-95.055901
 31
0.0
  0
LINE
  5
543
100
AcDbEntity
  8
0
370
    -3
  6
Continuous
100
AcDbLine
 10
-329.328581
 20
-43.555901
 30
0.0
 11
-329.328581
 21
-55.555901
 31
0.0
  0
ARC
  5
544
100
AcDbEntity
  8
0
370
    -3
  6
Continuous
100
AcDbCircle
 10
-327.328581
 20
-43.555901
 30
0.0
 40
2.0
100
AcDbArc
 50
90.0
 51
180.0
  0
LINE
  5
545
100
AcDbEntity
  8
0
370
    -3
  6
Continuous
100
AcDbLine
 10
-329.328581
 20
-67.555901
 30
0.0
 11
-329.328581
 21
-55.555901
 31
0.0
  0
ARC
  5
546
100
AcDbEntity
  8
0
370
    -3
  6
Continuous
100
AcDbCircle
 10
-327.328581
 20
-67.555901
 30
0.0
 40
2.0
100
AcDbArc
 50
180.0
 51
270.0
  0
POINT
  5
547
100
AcDbEntity
  8
0
370
    -3
  6
CENTER
100
AcDbPoint
 10
-329.328581
 20
-45.078401
 30
0.0
  0
POINT
  5
548
100
AcDbEntity
  8
0
370
    -3
  6
CENTER
100
AcDbPoint
 10
-329.328581
 20
-66.033401
 30
0.0
  0
POINT
  5
549
100
AcDbEntity
  8
0
370
    -3
  6
CENTER
100
AcDbPoint
 10
-329.328581
 20
-66.033401
 30
0.0
  0
POINT
  5
54A
100
AcDbEntity
  8
0
370
    -3
  6
CENTER
100
AcDbPoint
 10
-329.328581
 20
-45.078401
 30
0.0
  0
LINE
  5
54B
100
AcDbEntity
  8
0
370
    -3
  6
Continuous
100
AcDbLine
 10
-221.231112
 20
-8.755901
 30
0.0
 11
-304.102641
 21
-8.755901
 31
0.0
  0
LINE
  5
54C
100
AcDbEntity
  8
0
370
    -3
  6
Continuous
100
AcDbLine
 10
-221.231112
 20
-102.355901
 30
0.0
 11
-304.102641
 21
-102.355901
 31
0.0
  0
ARC
  5
54D
100
AcDbEntity
  8
0
370
    -3
  6
DASHED
100
AcDbCircle
 10
74.471419
 20
-94.555901
 30
0.0
 40
7.8
100
AcDbArc
 50
263.900059
 51
270.0
  0
ARC
  5
54E
100
AcDbEntity
  8
0
370
    -3
  6
DASHED
100
AcDbCircle
 10
75.32504
 20
-87.305901
 30
0.0
 40
6.8
100
AcDbArc
 50
255.674957
 51
270.0
  0
ARC
  5
54F
100
AcDbEntity
  8
0
370
    -3
  6
Continuous
100
AcDbCircle
 10
75.32504
 20
-23.805901
 30
0.0
 40
6.8
100
AcDbArc
 50
104.325043
 51
180.0
  0
ARC
  5
550
100
AcDbEntity
  8
0
370
    -3
  6
Continuous
100
AcDbCircle
 10
74.471419
 20
-16.555901
 30
0.0
 40
7.8
100
AcDbArc
 50
96.099941
 51
151.87484
  0
LINE
  5
551
100
AcDbEntity
  8
0
370
    -3
  6
DASHED
100
AcDbLine
 10
117.142567
 20
-20.055901
 30
0.0
 11
117.142567
 21
-91.055901
 31
0.0
  0
ARC
  5
552
100
AcDbEntity
  8
0
370
    -3
  6
Continuous
100
AcDbCircle
 10
75.32504
 20
-87.305901
 30
0.0
 40
6.8
100
AcDbArc
 50
180.0
 51
255.674957
  0
LINE
  5
553
100
AcDbEntity
  8
0
370
    -3
  6
Continuous
100
AcDbLine
 10
68.52504
 20
-23.805901
 30
0.0
 11
68.52504
 21
-87.305901
 31
0.0
  0
ARC
  5
554
100
AcDbEntity
  8
0
370
    -3
  6
DASHED
100
AcDbCircle
 10
75.32504
 20
-23.805901
 30
0.0
 40
6.8
100
AcDbArc
 50
90.0
 51
104.325043
  0
ARC
  5
555
100
AcDbEntity
  8
0
370
    -3
  6
DASHED
100
AcDbCircle
 10
103.330459
 20
-16.555901
 30
0.0
 40
7.8
100
AcDbArc
 50
0.0
 51
90.0
  0
LINE
  5
556
100
AcDbEntity
  8
0
370
    -3
  6
DASHED
100
AcDbLine
 10
111.130459
 20
-94.555901
 30
0.0
 11
111.130459
 21
-16.555901
 31
0.0
  0
ARC
  5
557
100
AcDbEntity
  8
0
370
    -3
  6
DASHED
100
AcDbCircle
 10
103.330459
 20
-94.555901
 30
0.0
 40
7.8
100
AcDbArc
 50
270.0
 51
0.0
  0
ARC
  5
558
100
AcDbEntity
  8
0
370
    -3
  6
DASHED
100
AcDbCircle
 10
108.587044
 20
-94.555901
 30
0.0
 40
7.8
100
AcDbArc
 50
270.0
 51
0.0
  0
LINE
  5
559
100
AcDbEntity
  8
0
370
    -3
  6
DASHED
100
AcDbLine
 10
74.471419
 20
-8.755901
 30
0.0
 11
108.587044
 21
-8.755901
 31
0.0
  0
LINE
  5
55A
100
AcDbEntity
  8
0
370
    -3
  6
DASHED
100
AcDbLine
 10
116.387044
 20
-16.555901
 30
0.0
 11
116.387044
 21
-94.555901
 31
0.0
  0
ARC
  5
55B
100
AcDbEntity
  8
0
370
    -3
  6
DASHED
100
AcDbCircle
 10
108.587044
 20
-16.555901
 30
0.0
 40
7.8
100
AcDbArc
 50
0.0
 51
90.0
  0
LINE
  5
55C
100
AcDbEntity
  8
0
370
    -3
  6
DASHED
100
AcDbLine
 10
99.835677
 20
-94.105901
 30
0.0
 11
75.32504
 21
-94.105901
 31
0.0
  0
ARC
  5
55D
100
AcDbEntity
  8
0
370
    -3
  6
DASHED
100
AcDbCircle
 10
99.835677
 20
-90.305901
 30
0.0
 40
3.8
100
AcDbArc
 50
270.0
 51
336.772328
  0
LINE
  5
55E
100
AcDbEntity
  8
0
370
    -3
  6
DASHED
100
AcDbLine
 10
103.327668
 20
-91.804567
 30
0.0
 11
107.273766
 21
-82.609897
 31
0.0
  0
ARC
  5
55F
100
AcDbEntity
  8
0
370
    -3
  6
Continuous
100
AcDbCircle
 10
103.781775
 20
-81.111231
 30
0.0
 40
3.8
100
AcDbArc
 50
336.772328
 51
0.0
  0
LINE
  5
560
100
AcDbEntity
  8
0
370
    -3
  6
DASHED
100
AcDbLine
 10
103.327668
 20
-19.307235
 30
0.0
 11
107.273766
 21
-28.501905
 31
0.0
  0
LINE
  5
561
100
AcDbEntity
  8
0
370
    -3
  6
DASHED
100
AcDbLine
 10
107.581775
 20
-30.000571
 30
0.0
 11
107.581775
 21
-81.111231
 31
0.0
  0
ARC
  5
562
100
AcDbEntity
  8
0
370
    -3
  6
DASHED
100
AcDbCircle
 10
103.781775
 20
-30.000571
 30
0.0
 40
3.8
100
AcDbArc
 50
0.0
 51
23.227672
  0
LINE
  5
563
100
AcDbEntity
  8
0
370
    -3
  6
DASHED
100
AcDbLine
 10
99.835677
 20
-17.005901
 30
0.0
 11
75.32504
 21
-17.005901
 31
0.0
  0
ARC
  5
564
100
AcDbEntity
  8
0
370
    -3
  6
DASHED
100
AcDbCircle
 10
99.835677
 20
-20.805901
 30
0.0
 40
3.8
100
AcDbArc
 50
23.227672
 51
90.0
  0
ELLIPSE
  5
565
100
AcDbEntity
  8
0
370
    -3
  6
DASHED
100
AcDbEllipse
 10
107.015089
 20
-95.055901
 30
0.0
 11
0.0
 21
3.5
 31
0.0
210
0.0
220
0.0
230
1.0
 40
0.656603
 41
0.0
 42
6.2831853071795862
  0
LINE
  5
566
100
AcDbEntity
  8
0
370
    -3
  6
DASHED
100
AcDbLine
 10
105.477635
 20
-95.055901
 30
0.0
 11
106.526824
 21
-97.055901
 31
0.0
  0
LINE
  5
567
100
AcDbEntity
  8
0
370
    -3
  6
DASHED
100
AcDbLine
 10
105.477635
 20
-95.055901
 30
0.0
 11
106.526824
 21
-93.055901
 31
0.0
  0
LINE
  5
568
100
AcDbEntity
  8
0
370
    -3
  6
DASHED
100
AcDbLine
 10
104.967809
 20
-93.465884
 30
0.0
 11
105.477635
 21
-95.055901
 31
0.0
  0
LINE
  5
569
100
AcDbEntity
  8
0
370
    -3
  6
DASHED
100
AcDbLine
 10
104.967809
 20
-96.645917
 30
0.0
 11
105.477635
 21
-95.055901
 31
0.0
  0
LINE
  5
56A
100
AcDbEntity
  8
0
370
    -3
  6
Continuous
100
AcDbLine
 10
66.509547
 20
-93.465884
 30
0.0
 11
67.019374
 21
-95.055901
 31
0.0
  0
LINE
  5
56B
100
AcDbEntity
  8
0
370
    -3
  6
Continuous
100
AcDbLine
 10
67.019374
 20
-95.055901
 30
0.0
 11
68.068562
 21
-93.055901
 31
0.0
  0
LINE
  5
56C
100
AcDbEntity
  8
0
370
    -3
  6
Continuous
100
AcDbLine
 10
67.019374
 20
-95.055901
 30
0.0
 11
68.068562
 21
-97.055901
 31
0.0
  0
LINE
  5
56D
100
AcDbEntity
  8
0
370
    -3
  6
Continuous
100
AcDbLine
 10
66.509547
 20
-96.645917
 30
0.0
 11
67.019374
 21
-95.055901
 31
0.0
  0
ELLIPSE
  5
56E
100
AcDbEntity
  8
0
370
    -3
  6
Continuous
100
AcDbEllipse
 10
68.556827
 20
-95.055901
 30
0.0
 11
0.0
 21
3.5
 31
0.0
210
0.0
220
0.0
230
1.0
 40
0.656603
 41
0.0
 42
6.2831853071795862
  0
ARC
  5
56F
100
AcDbEntity
  8
0
370
    -3
  6
Continuous
100
AcDbCircle
 10
74.471419
 20
-94.555901
 30
0.0
 40
7.8
100
AcDbArc
 50
208.12516
 51
263.900059
  0
ELLIPSE
  5
570
100
AcDbEntity
  8
0
370
    -3
  6
DASHED
100
AcDbEllipse
 10
107.015089
 20
-16.055901
 30
0.0
 11
0.0
 21
3.5
 31
0.0
210
0.0
220
0.0
230
1.0
 40
0.656603
 41
0.0
 42
6.2831853071795862
  0
LINE
  5
571
100
AcDbEntity
  8
0
370
    -3
  6
DASHED
100
AcDbLine
 10
105.477635
 20
-16.055901
 30
0.0
 11
106.526824
 21
-14.055901
 31
0.0
  0
LINE
  5
572
100
AcDbEntity
  8
0
370
    -3
  6
DASHED
100
AcDbLine
 10
105.477635
 20
-16.055901
 30
0.0
 11
106.526824
 21
-18.055901
 31
0.0
  0
LINE
  5
573
100
AcDbEntity
  8
0
370
    -3
  6
DASHED
100
AcDbLine
 10
104.967809
 20
-17.645917
 30
0.0
 11
105.477635
 21
-16.055901
 31
0.0
  0
LINE
  5
574
100
AcDbEntity
  8
0
370
    -3
  6
DASHED
100
AcDbLine
 10
104.967809
 20
-14.465884
 30
0.0
 11
105.477635
 21
-16.055901
 31
0.0
  0
LINE
  5
575
100
AcDbEntity
  8
0
370
    -3
  6
Continuous
100
AcDbLine
 10
66.509547
 20
-17.645917
 30
0.0
 11
67.019374
 21
-16.055901
 31
0.0
  0
LINE
  5
576
100
AcDbEntity
  8
0
370
    -3
  6
Continuous
100
AcDbLine
 10
67.019374
 20
-16.055901
 30
0.0
 11
68.068562
 21
-18.055901
 31
0.0
  0
LINE
  5
577
100
AcDbEntity
  8
0
370
    -3
  6
Continuous
100
AcDbLine
 10
67.019374
 20
-16.055901
 30
0.0
 11
68.068562
 21
-14.055901
 31
0.0
  0
LINE
  5
578
100
AcDbEntity
  8
0
370
    -3
  6
Continuous
100
AcDbLine
 10
66.509547
 20
-14.465884
 30
0.0
 11
67.019374
 21
-16.055901
 31
0.0
  0
ELLIPSE
  5
579
100
AcDbEntity
  8
0
370
    -3
  6
Continuous
100
AcDbEllipse
 10
68.556827
 20
-16.055901
 30
0.0
 11
0.0
 21
3.5
 31
0.0
210
0.0
220
0.0
230
1.0
 40
0.656603
 41
0.0
 42
6.2831853071795862
  0
ARC
  5
57A
100
AcDbEntity
  8
0
370
    -3
  6
DASHED
100
AcDbCircle
 10
74.471419
 20
-16.555901
 30
0.0
 40
7.8
100
AcDbArc
 50
90.0
 51
96.099941
  0
LINE
  5
57B
100
AcDbEntity
  8
0
370
    -3
  6
Continuous
100
AcDbLine
 10
66.671419
 20
-18.057082
 30
0.0
 11
66.671419
 21
-93.054719
 31
0.0
  0
ARC
  5
57C
100
AcDbEntity
  8
0
370
    -3
  6
DASHED
100
AcDbCircle
 10
113.342567
 20
-20.055901
 30
0.0
 40
3.8
100
AcDbArc
 50
0.0
 51
36.757251
  0
ARC
  5
57D
100
AcDbEntity
  8
0
370
    -3
  6
DASHED
100
AcDbCircle
 10
113.342567
 20
-91.055901
 30
0.0
 40
3.8
100
AcDbArc
 50
321.247352
 51
0.0
  0
LINE
  5
57E
100
AcDbEntity
  8
0
370
    -3
  6
CENTER
100
AcDbLine
 10
92.142567
 20
-36.910968
 30
0.0
 11
92.142567
 21
-76.856358
 31
0.0
  0
LINE
  5
57F
100
AcDbEntity
  8
0
370
    -3
  6
DASHED
100
AcDbLine
 10
74.471419
 20
-102.355901
 30
0.0
 11
108.587044
 21
-102.355901
 31
0.0
  0
CIRCLE
  5
580
100
AcDbEntity
  8
0
370
    -3
  6
DASHED
100
AcDbCircle
 10
92.142567
 20
-55.555901
 30
0.0
 40
14.0
  0
LINE
  5
581
100
AcDbEntity
  8
0
370
    -3
  6
CENTER
100
AcDbLine
 10
73.497635
 20
-55.555901
 30
0.0
 11
113.443024
 21
-55.555901
 31
0.0
  0
ARC
  5
582
100
AcDbEntity
  8
0
370
    -3
  6
Continuous
100
AcDbCircle
 10
-435.79973
 20
-55.555901
 30
0.0
 40
14.0
100
AcDbArc
 50
180.0
 51
360.0
  0
ARC
  5
583
100
AcDbEntity
  8
0
370
    -3
  6
Continuous
100
AcDbCircle
 10
-435.79973
 20
-55.555901
 30
0.0
 40
9.3155
100
AcDbArc
 50
180.0
 51
360.0
  0
ARC
  5
584
100
AcDbEntity
  8
0
370
    -3
  6
Continuous
100
AcDbCircle
 10
-435.79973
 20
-55.555901
 30
0.0
 40
10.4775
100
AcDbArc
 50
180.0
 51
360.0
  0
ARC
  5
585
100
AcDbEntity
  8
0
370
    -3
  6
Continuous
100
AcDbCircle
 10
-452.244206
 20
-94.555901
 30
0.0
 40
7.8
100
AcDbArc
 50
180.0
 51
270.0
  0
LINE
  5
586
100
AcDbEntity
  8
0
370
    -3
  6
Continuous
100
AcDbLine
 10
-422.331194
 20
-101.555901
 30
0.0
 11
-452.706112
 21
-101.555901
 31
0.0
  0
ARC
  5
587
100
AcDbEntity
  8
0
370
    -3
  6
Continuous
100
AcDbCircle
 10
-422.331194
 20
-94.555901
 30
0.0
 40
7.0
100
AcDbArc
 50
270.0
 51
0.0
  0
ARC
  5
588
100
AcDbEntity
  8
0
370
    -3
  6
Continuous
100
AcDbCircle
 10
-422.7931
 20
-94.555901
 30
0.0
 40
7.8
100
AcDbArc
 50
270.0
 51
0.0
  0
ARC
  5
589
100
AcDbEntity
  8
0
370
    -3
  6
Continuous
100
AcDbCircle
 10
-418.128581
 20
-94.555901
 30
0.0
 40
7.8
100
AcDbArc
 50
270.0
 51
0.0
  0
ELLIPSE
  5
58A
100
AcDbEntity
  8
0
370
    -3
  6
Continuous
100
AcDbEllipse
 10
-412.21399
 20
-95.055901
 30
0.0
 11
0.0
 21
3.5
 31
0.0
210
0.0
220
0.0
230
1.0
 40
0.656603
 41
3.5746436290431376
 42
5.3210459426689347
  0
LINE
  5
58B
100
AcDbEntity
  8
0
370
    -3
  6
Continuous
100
AcDbLine
 10
-418.128581
 20
-102.355901
 30
0.0
 11
-452.244206
 21
-102.355901
 31
0.0
  0
LINE
  5
58C
100
AcDbEntity
  8
0
370
    -3
  6
Continuous
100
AcDbLine
 10
-415.331194
 20
-55.555901
 30
0.0
 11
-415.331194
 21
-94.555901
 31
0.0
  0
LINE
  5
58D
100
AcDbEntity
  8
0
370
    -3
  6
Continuous
100
AcDbLine
 10
-410.328581
 20
-94.555901
 30
0.0
 11
-410.328581
 21
-55.555901
 31
0.0
  0
LINE
  5
58E
100
AcDbEntity
  8
0
370
    -3
  6
Continuous
100
AcDbLine
 10
-461.79973
 20
-86.555901
 30
0.0
 11
-461.79973
 21
-55.555901
 31
0.0
  0
LINE
  5
58F
100
AcDbEntity
  8
0
370
    -3
  6
Continuous
100
AcDbLine
 10
-462.79973
 20
-86.555901
 30
0.0
 11
-461.79973
 21
-86.555901
 31
0.0
  0
ARC
  5
590
100
AcDbEntity
  8
0
370
    -3
  6
Continuous
100
AcDbCircle
 10
-452.706112
 20
-94.555901
 30
0.0
 40
7.0
100
AcDbArc
 50
180.0
 51
270.0
  0
LINE
  5
591
100
AcDbEntity
  8
0
370
    -3
  6
Continuous
100
AcDbLine
 10
-461.79973
 20
-55.555901
 30
0.0
 11
-461.79973
 21
-83.555901
 31
0.0
  0
LINE
  5
592
100
AcDbEntity
  8
0
370
    -3
  6
Continuous
100
AcDbLine
 10
-416.563818
 20
-55.555901
 30
0.0
 11
-416.563818
 21
-81.614934
 31
0.0
  0
LINE
  5
593
100
AcDbEntity
  8
0
370
    -3
  6
Continuous
100
AcDbLine
 10
-453.99973
 20
-94.855901
 30
0.0
 11
-424.366871
 21
-94.855901
 31
0.0
  0
LINE
  5
594
100
AcDbEntity
  8
0
370
    -3
  6
Continuous
100
AcDbLine
 10
-416.865313
 20
-83.098331
 30
0.0
 11
-420.868367
 21
-92.539297
 31
0.0
  0
ARC
  5
595
100
AcDbEntity
  8
0
370
    -3
  6
Continuous
100
AcDbCircle
 10
-420.363818
 20
-81.614934
 30
0.0
 40
3.8
100
AcDbArc
 50
337.022625
 51
0.0
  0
ARC
  5
596
100
AcDbEntity
  8
0
370
    -3
  6
Continuous
100
AcDbCircle
 10
-424.366871
 20
-91.055901
 30
0.0
 40
3.8
100
AcDbArc
 50
270.0
 51
337.022625
  0
LINE
  5
597
100
AcDbEntity
  8
0
370
    -3
  6
Continuous
100
AcDbLine
 10
-460.79973
 20
-55.555901
 30
0.0
 11
-460.79973
 21
-88.055901
 31
0.0
  0
ARC
  5
598
100
AcDbEntity
  8
0
370
    -3
  6
Continuous
100
AcDbCircle
 10
-453.99973
 20
-88.055901
 30
0.0
 40
6.8
100
AcDbArc
 50
180.0
 51
270.0
  0
LINE
  5
599
100
AcDbEntity
  8
0
370
    -3
  6
Continuous
100
AcDbLine
 10
-457.289616
 20
-94.007089
 30
0.0
 11
-457.289616
 21
-95.055901
 31
0.0
  0
ARC
  5
59A
100
AcDbEntity
  8
0
370
    -3
  6
Continuous
100
AcDbCircle
 10
-451.289616
 20
-95.055901
 30
0.0
 40
6.0
100
AcDbArc
 50
180.0
 51
270.0
  0
ARC
  5
59B
100
AcDbEntity
  8
0
370
    -3
  6
Continuous
100
AcDbCircle
 10
-461.09973
 20
-84.820812
 30
0.0
 40
0.3
100
AcDbArc
 50
0.0
 51
76.657636
  0
ARC
  5
59C
100
AcDbEntity
  8
0
370
    -3
  6
Continuous
100
AcDbCircle
 10
-460.79973
 20
-83.555901
 30
0.0
 40
1.0
100
AcDbArc
 50
180.0
 51
256.657636
  0
LINE
  5
59D
100
AcDbEntity
  8
0
370
    -3
  6
Continuous
100
AcDbLine
 10
-459.706112
 20
-91.754171
 30
0.0
 11
-459.706112
 21
-94.555901
 31
0.0
  0
LINE
  5
59E
100
AcDbEntity
  8
0
370
    -3
  6
Continuous
100
AcDbLine
 10
-460.044206
 20
-94.555901
 30
0.0
 11
-460.044206
 21
-91.171073
 31
0.0
  0
LINE
  5
59F
100
AcDbEntity
  8
0
370
    -3
  6
Continuous
100
AcDbLine
 10
-451.289616
 20
-101.055901
 30
0.0
 11
-419.733118
 21
-101.055901
 31
0.0
  0
LINE
  5
5A0
100
AcDbEntity
  8
0
370
    -3
  6
Continuous
100
AcDbLine
 10
-414.9931
 20
-55.555901
 30
0.0
 11
-414.9931
 21
-94.555901
 31
0.0
  0
LINE
  5
5A1
100
AcDbEntity
  8
0
370
    -3
  6
CENTER
100
AcDbLine
 10
-435.79973
 20
-36.910968
 30
0.0
 11
-435.79973
 21
-76.856358
 31
0.0
  0
ARC
  5
5A2
100
AcDbEntity
  8
0
370
    -3
  6
Continuous
100
AcDbCircle
 10
-452.244206
 20
-16.555901
 30
0.0
 40
7.8
100
AcDbArc
 50
90.0
 51
180.0
  0
LINE
  5
5A3
100
AcDbEntity
  8
0
370
    -3
  6
Continuous
100
AcDbLine
 10
-422.331194
 20
-9.555901
 30
0.0
 11
-452.706112
 21
-9.555901
 31
0.0
  0
ARC
  5
5A4
100
AcDbEntity
  8
0
370
    -3
  6
Continuous
100
AcDbCircle
 10
-422.331194
 20
-16.555901
 30
0.0
 40
7.0
100
AcDbArc
 50
0.0
 51
90.0
  0
ARC
  5
5A5
100
AcDbEntity
  8
0
370
    -3
  6
Continuous
100
AcDbCircle
 10
-422.7931
 20
-16.555901
 30
0.0
 40
7.8
100
AcDbArc
 50
0.0
 51
90.0
  0
ARC
  5
5A6
100
AcDbEntity
  8
0
370
    -3
  6
Continuous
100
AcDbCircle
 10
-418.128581
 20
-16.555901
 30
0.0
 40
7.8
100
AcDbArc
 50
0.0
 51
90.0
  0
ELLIPSE
  5
5A7
100
AcDbEntity
  8
0
370
    -3
  6
Continuous
100
AcDbEllipse
 10
-412.21399
 20
-16.055901
 30
0.0
 11
0.0
 21
3.5
 31
0.0
210
0.0
220
0.0
230
1.0
 40
0.656603
 41
4.1037320181004482
 42
5.8501343317261245
  0
LINE
  5
5A8
100
AcDbEntity
  8
0
370
    -3
  6
Continuous
100
AcDbLine
 10
-418.128581
 20
-8.755901
 30
0.0
 11
-452.244206
 21
-8.755901
 31
0.0
  0
LINE
  5
5A9
100
AcDbEntity
  8
0
370
    -3
  6
Continuous
100
AcDbLine
 10
-415.331194
 20
-55.555901
 30
0.0
 11
-415.331194
 21
-16.555901
 31
0.0
  0
LINE
  5
5AA
100
AcDbEntity
  8
0
370
    -3
  6
Continuous
100
AcDbLine
 10
-410.328581
 20
-16.555901
 30
0.0
 11
-410.328581
 21
-55.555901
 31
0.0
  0
LINE
  5
5AB
100
AcDbEntity
  8
0
370
    -3
  6
Continuous
100
AcDbLine
 10
-461.79973
 20
-24.555901
 30
0.0
 11
-461.79973
 21
-55.555901
 31
0.0
  0
LINE
  5
5AC
100
AcDbEntity
  8
0
370
    -3
  6
Continuous
100
AcDbLine
 10
-462.79973
 20
-24.555901
 30
0.0
 11
-461.79973
 21
-24.555901
 31
0.0
  0
ARC
  5
5AD
100
AcDbEntity
  8
0
370
    -3
  6
Continuous
100
AcDbCircle
 10
-452.706112
 20
-16.555901
 30
0.0
 40
7.0
100
AcDbArc
 50
90.0
 51
180.0
  0
LINE
  5
5AE
100
AcDbEntity
  8
0
370
    -3
  6
Continuous
100
AcDbLine
 10
-461.79973
 20
-55.555901
 30
0.0
 11
-461.79973
 21
-27.555901
 31
0.0
  0
LINE
  5
5AF
100
AcDbEntity
  8
0
370
    -3
  6
Continuous
100
AcDbLine
 10
-416.563818
 20
-55.555901
 30
0.0
 11
-416.563818
 21
-29.496867
 31
0.0
  0
LINE
  5
5B0
100
AcDbEntity
  8
0
370
    -3
  6
Continuous
100
AcDbLine
 10
-453.99973
 20
-16.255901
 30
0.0
 11
-424.366871
 21
-16.255901
 31
0.0
  0
LINE
  5
5B1
100
AcDbEntity
  8
0
370
    -3
  6
Continuous
100
AcDbLine
 10
-416.865313
 20
-28.01347
 30
0.0
 11
-420.868367
 21
-18.572504
 31
0.0
  0
ARC
  5
5B2
100
AcDbEntity
  8
0
370
    -3
  6
Continuous
100
AcDbCircle
 10
-420.363818
 20
-29.496867
 30
0.0
 40
3.8
100
AcDbArc
 50
0.0
 51
22.977375
  0
ARC
  5
5B3
100
AcDbEntity
  8
0
370
    -3
  6
Continuous
100
AcDbCircle
 10
-424.366871
 20
-20.055901
 30
0.0
 40
3.8
100
AcDbArc
 50
22.977375
 51
90.0
  0
LINE
  5
5B4
100
AcDbEntity
  8
0
370
    -3
  6
Continuous
100
AcDbLine
 10
-460.79973
 20
-55.555901
 30
0.0
 11
-460.79973
 21
-23.055901
 31
0.0
  0
ARC
  5
5B5
100
AcDbEntity
  8
0
370
    -3
  6
Continuous
100
AcDbCircle
 10
-453.99973
 20
-23.055901
 30
0.0
 40
6.8
100
AcDbArc
 50
90.0
 51
180.0
  0
LINE
  5
5B6
100
AcDbEntity
  8
0
370
    -3
  6
Continuous
100
AcDbLine
 10
-457.289616
 20
-17.104712
 30
0.0
 11
-457.289616
 21
-16.055901
 31
0.0
  0
ARC
  5
5B7
100
AcDbEntity
  8
0
370
    -3
  6
Continuous
100
AcDbCircle
 10
-451.289616
 20
-16.055901
 30
0.0
 40
6.0
100
AcDbArc
 50
90.0
 51
180.0
  0
ARC
  5
5B8
100
AcDbEntity
  8
0
370
    -3
  6
Continuous
100
AcDbCircle
 10
-461.09973
 20
-26.29099
 30
0.0
 40
0.3
100
AcDbArc
 50
283.342364
 51
0.0
  0
ARC
  5
5B9
100
AcDbEntity
  8
0
370
    -3
  6
Continuous
100
AcDbCircle
 10
-460.79973
 20
-27.555901
 30
0.0
 40
1.0
100
AcDbArc
 50
103.342364
 51
180.0
  0
LINE
  5
5BA
100
AcDbEntity
  8
0
370
    -3
  6
Continuous
100
AcDbLine
 10
-459.706112
 20
-19.35763
 30
0.0
 11
-459.706112
 21
-16.555901
 31
0.0
  0
LINE
  5
5BB
100
AcDbEntity
  8
0
370
    -3
  6
Continuous
100
AcDbLine
 10
-460.044206
 20
-16.555901
 30
0.0
 11
-460.044206
 21
-19.940728
 31
0.0
  0
LINE
  5
5BC
100
AcDbEntity
  8
0
370
    -3
  6
Continuous
100
AcDbLine
 10
-451.289616
 20
-10.055901
 30
0.0
 11
-419.733118
 21
-10.055901
 31
0.0
  0
LINE
  5
5BD
100
AcDbEntity
  8
0
370
    -3
  6
Continuous
100
AcDbLine
 10
-414.9931
 20
-55.555901
 30
0.0
 11
-414.9931
 21
-16.555901
 31
0.0
  0
ARC
  5
5BE
100
AcDbEntity
  8
0
370
    -3
  6
Continuous
100
AcDbCircle
 10
-435.79973
 20
-55.555901
 30
0.0
 40
14.0
100
AcDbArc
 50
0.0
 51
180.0
  0
ARC
  5
5BF
100
AcDbEntity
  8
0
370
    -3
  6
Continuous
100
AcDbCircle
 10
-435.79973
 20
-55.555901
 30
0.0
 40
9.3155
100
AcDbArc
 50
0.0
 51
180.0
  0
ARC
  5
5C0
100
AcDbEntity
  8
0
370
    -3
  6
Continuous
100
AcDbCircle
 10
-435.79973
 20
-55.555901
 30
0.0
 40
10.4775
100
AcDbArc
 50
0.0
 51
180.0
  0
LINE
  5
5C1
100
AcDbEntity
  8
0
370
    -3
  6
Continuous
100
AcDbLine
 10
-453.99973
 20
-82.387271
 30
0.0
 11
-416.643133
 21
-82.387271
 31
0.0
  0
ARC
  5
5C2
100
AcDbEntity
  8
0
370
    -3
  6
Continuous
100
AcDbCircle
 10
-453.99973
 20
-75.587271
 30
0.0
 40
6.8
100
AcDbArc
 50
180.0
 51
270.0
  0
ARC
  5
5C3
100
AcDbEntity
  8
0
370
    -3
  6
Continuous
100
AcDbCircle
 10
-453.99973
 20
-35.52453
 30
0.0
 40
6.8
100
AcDbArc
 50
90.0
 51
180.0
  0
LINE
  5
5C4
100
AcDbEntity
  8
0
370
    -3
  6
Continuous
100
AcDbLine
 10
-453.99973
 20
-28.72453
 30
0.0
 11
-416.643133
 21
-28.72453
 31
0.0
  0
ARC
  5
5C5
100
AcDbEntity
  8
0
370
    -3
  6
Continuous
100
AcDbCircle
 10
-473.29973
 20
-27.07493
 30
0.0
 40
0.5
100
AcDbArc
 50
304.131887
 51
0.0
  0
LINE
  5
5C6
100
AcDbEntity
  8
0
370
    -3
  6
Continuous
100
AcDbLine
 10
-472.79973
 20
-28.210279
 30
0.0
 11
-472.79973
 21
-22.7407
 31
0.0
  0
LINE
  5
5C7
100
AcDbEntity
  8
0
370
    -3
  6
Continuous
100
AcDbLine
 10
-462.79973
 20
-24.055596
 30
0.0
 11
-462.79973
 21
-55.555901
 31
0.0
  0
LINE
  5
5C8
100
AcDbEntity
  8
0
370
    -3
  6
Continuous
100
AcDbLine
 10
-472.79973
 20
-22.7407
 30
0.0
 11
-463.76483
 21
-23.056205
 31
0.0
  0
ARC
  5
5C9
100
AcDbEntity
  8
0
370
    -3
  6
Continuous
100
AcDbCircle
 10
-463.79973
 20
-24.055596
 30
0.0
 40
1.0
100
AcDbArc
 50
0.0
 51
88.0
  0
ARC
  5
5CA
100
AcDbEntity
  8
0
370
    -3
  6
Continuous
100
AcDbCircle
 10
-473.29973
 20
-84.036871
 30
0.0
 40
0.5
100
AcDbArc
 50
0.0
 51
55.868113
  0
LINE
  5
5CB
100
AcDbEntity
  8
0
370
    -3
  6
Continuous
100
AcDbLine
 10
-472.79973
 20
-82.901522
 30
0.0
 11
-472.79973
 21
-88.371102
 31
0.0
  0
LINE
  5
5CC
100
AcDbEntity
  8
0
370
    -3
  6
Continuous
100
AcDbLine
 10
-462.79973
 20
-87.056205
 30
0.0
 11
-462.79973
 21
-55.555901
 31
0.0
  0
LINE
  5
5CD
100
AcDbEntity
  8
0
370
    -3
  6
Continuous
100
AcDbLine
 10
-472.79973
 20
-88.371102
 30
0.0
 11
-463.76483
 21
-88.055596
 31
0.0
  0
ARC
  5
5CE
100
AcDbEntity
  8
0
370
    -3
  6
Continuous
100
AcDbCircle
 10
-463.79973
 20
-87.056205
 30
0.0
 40
1.0
100
AcDbArc
 50
272.0
 51
0.0
  0
LINE
  5
5CF
100
AcDbEntity
  8
0
370
    -3
  6
Continuous
100
AcDbLine
 10
-461.79973
 20
-27.555901
 30
0.0
 11
-461.79973
 21
-83.555901
 31
0.0
  0
LINE
  5
5D0
100
AcDbEntity
  8
0
370
    -3
  6
Continuous
100
AcDbLine
 10
-462.79973
 20
-86.555901
 30
0.0
 11
-461.79973
 21
-86.555901
 31
0.0
  0
LINE
  5
5D1
100
AcDbEntity
  8
0
370
    -3
  6
Continuous
100
AcDbLine
 10
-462.79973
 20
-86.555901
 30
0.0
 11
-462.79973
 21
-24.555901
 31
0.0
  0
LINE
  5
5D2
100
AcDbEntity
  8
0
370
    -3
  6
Continuous
100
AcDbLine
 10
-462.79973
 20
-24.555901
 30
0.0
 11
-461.79973
 21
-24.555901
 31
0.0
  0
LINE
  5
5D3
100
AcDbEntity
  8
0
370
    -3
  6
Continuous
100
AcDbLine
 10
-461.79973
 20
-86.555901
 30
0.0
 11
-461.79973
 21
-24.555901
 31
0.0
  0
LINE
  5
5D4
100
AcDbEntity
  8
0
370
    -3
  6
Continuous
100
AcDbLine
 10
-462.79973
 20
-24.555901
 30
0.0
 11
-462.79973
 21
-86.555901
 31
0.0
  0
ARC
  5
5D5
100
AcDbEntity
  8
0
370
    -3
  6
Continuous
100
AcDbCircle
 10
-229.847602
 20
238.894244
 30
0.0
 40
0.5
100
AcDbArc
 50
180.0
 51
270.0
  0
LINE
  5
5D6
100
AcDbEntity
  8
0
370
    -3
  6
Continuous
100
AcDbLine
 10
-230.347602
 20
239.894244
 30
0.0
 11
-230.347602
 21
238.894244
 31
0.0
  0
ARC
  5
5D7
100
AcDbEntity
  8
0
370
    -3
  6
Continuous
100
AcDbCircle
 10
-230.847602
 20
239.894244
 30
0.0
 40
0.5
100
AcDbArc
 50
0.0
 51
90.0
  0
LINE
  5
5D8
100
AcDbEntity
  8
0
370
    -3
  6
Continuous
100
AcDbLine
 10
-239.811417
 20
240.394244
 30
0.0
 11
-230.847602
 21
240.394244
 31
0.0
  0
LINE
  5
5D9
100
AcDbEntity
  8
0
370
    -3
  6
Continuous
100
AcDbLine
 10
-276.845728
 20
240.394244
 30
0.0
 11
-285.809543
 21
240.394244
 31
0.0
  0
LINE
  5
5DA
100
AcDbEntity
  8
0
370
    -3
  6
Continuous
100
AcDbLine
 10
-286.309543
 20
239.894244
 30
0.0
 11
-286.309543
 21
238.894244
 31
0.0
  0
ARC
  5
5DB
100
AcDbEntity
  8
0
370
    -3
  6
Continuous
100
AcDbCircle
 10
-286.809543
 20
238.894244
 30
0.0
 40
0.5
100
AcDbArc
 50
270.0
 51
0.0
  0
ARC
  5
5DC
100
AcDbEntity
  8
0
370
    -3
  6
Continuous
100
AcDbCircle
 10
-285.809543
 20
239.894244
 30
0.0
 40
0.5
100
AcDbArc
 50
90.0
 51
180.0
  0
LINE
  5
5DD
100
AcDbEntity
  8
0
370
    -3
  6
Continuous
100
AcDbLine
 10
-258.328573
 20
238.394244
 30
0.0
 11
-291.143774
 21
238.394244
 31
0.0
  0
LINE
  5
5DE
100
AcDbEntity
  8
0
370
    -3
  6
Continuous
100
AcDbLine
 10
-258.328573
 20
238.394244
 30
0.0
 11
-225.513371
 21
238.394244
 31
0.0
  0
ARC
  5
5DF
100
AcDbEntity
  8
0
370
    -3
  6
Continuous
100
AcDbCircle
 10
-286.809543
 20
238.894244
 30
0.0
 40
0.5
100
AcDbArc
 50
270.0
 51
0.0
  0
ARC
  5
5E0
100
AcDbEntity
  8
0
370
    -3
  6
Continuous
100
AcDbCircle
 10
-285.809543
 20
239.894244
 30
0.0
 40
0.5
100
AcDbArc
 50
90.0
 51
180.0
  0
LINE
  5
5E1
100
AcDbEntity
  8
0
370
    -3
  6
Continuous
100
AcDbLine
 10
-286.309543
 20
239.894244
 30
0.0
 11
-286.309543
 21
238.894244
 31
0.0
  0
ARC
  5
5E2
100
AcDbEntity
  8
0
370
    -3
  6
Continuous
100
AcDbCircle
 10
-275.809543
 20
238.894244
 30
0.0
 40
0.5
100
AcDbArc
 50
180.0
 51
270.0
  0
LINE
  5
5E3
100
AcDbEntity
  8
0
370
    -3
  6
Continuous
100
AcDbLine
 10
-276.845728
 20
240.394244
 30
0.0
 11
-285.503226
 21
240.394244
 31
0.0
  0
LINE
  5
5E4
100
AcDbEntity
  8
0
370
    -3
  6
Continuous
100
AcDbLine
 10
-276.809543
 20
240.394244
 30
0.0
 11
-285.503226
 21
240.394244
 31
0.0
  0
ARC
  5
5E5
100
AcDbEntity
  8
0
370
    -3
  6
Continuous
100
AcDbCircle
 10
-276.809543
 20
239.894244
 30
0.0
 40
0.5
100
AcDbArc
 50
0.0
 51
90.0
  0
LINE
  5
5E6
100
AcDbEntity
  8
0
370
    -3
  6
Continuous
100
AcDbLine
 10
-276.309543
 20
239.894244
 30
0.0
 11
-276.309543
 21
238.894244
 31
0.0
  0
ARC
  5
5E7
100
AcDbEntity
  8
0
370
    -3
  6
Continuous
100
AcDbCircle
 10
-239.847602
 20
239.894244
 30
0.0
 40
0.5
100
AcDbArc
 50
90.0
 51
180.0
  0
LINE
  5
5E8
100
AcDbEntity
  8
0
370
    -3
  6
Continuous
100
AcDbLine
 10
-240.347602
 20
239.894244
 30
0.0
 11
-240.347602
 21
238.894244
 31
0.0
  0
ARC
  5
5E9
100
AcDbEntity
  8
0
370
    -3
  6
Continuous
100
AcDbCircle
 10
-240.847602
 20
238.894244
 30
0.0
 40
0.5
100
AcDbArc
 50
270.0
 51
0.0
  0
ARC
  5
5EA
100
AcDbEntity
  8
0
370
    -3
  6
Continuous
100
AcDbCircle
 10
-229.847602
 20
238.894244
 30
0.0
 40
0.5
100
AcDbArc
 50
180.0
 51
270.0
  0
LINE
  5
5EB
100
AcDbEntity
  8
0
370
    -3
  6
Continuous
100
AcDbLine
 10
-239.811417
 20
240.394244
 30
0.0
 11
-230.847602
 21
240.394244
 31
0.0
  0
ARC
  5
5EC
100
AcDbEntity
  8
0
370
    -3
  6
Continuous
100
AcDbCircle
 10
-230.847602
 20
239.894244
 30
0.0
 40
0.5
100
AcDbArc
 50
0.0
 51
90.0
  0
LINE
  5
5ED
100
AcDbEntity
  8
0
370
    -3
  6
Continuous
100
AcDbLine
 10
-230.347602
 20
239.894244
 30
0.0
 11
-230.347602
 21
238.894244
 31
0.0
  0
LINE
  5
5EE
100
AcDbEntity
  8
0
370
    -3
  6
Continuous
100
AcDbLine
 10
-225.513371
 20
238.394244
 30
0.0
 11
-225.513371
 21
240.394244
 31
0.0
  0
LINE
  5
5EF
100
AcDbEntity
  8
0
370
    -3
  6
Continuous
100
AcDbLine
 10
-291.143774
 20
238.394244
 30
0.0
 11
-291.143774
 21
240.394244
 31
0.0
  0
LINE
  5
5F0
100
AcDbEntity
  8
0
370
    -3
  6
CENTER
100
AcDbLine
 10
-258.328573
 20
245.171662
 30
0.0
 11
-258.328573
 21
222.261685
 31
0.0
  0
ARC
  5
5F1
100
AcDbEntity
  8
0
370
    -3
  6
Continuous
100
AcDbCircle
 10
-287.593484
 20
226.694244
 30
0.0
 40
0.3
100
AcDbArc
 50
270.0
 51
346.657636
  0
ARC
  5
5F2
100
AcDbEntity
  8
0
370
    -3
  6
Continuous
100
AcDbCircle
 10
-229.063661
 20
226.694244
 30
0.0
 40
0.3
100
AcDbArc
 50
193.342364
 51
270.0
  0
ARC
  5
5F3
100
AcDbEntity
  8
0
370
    -3
  6
Continuous
100
AcDbCircle
 10
-296.528573
 20
219.594244
 30
0.0
 40
6.8
100
AcDbArc
 50
90.0
 51
180.0
  0
LINE
  5
5F4
100
AcDbEntity
  8
0
370
    -3
  6
Continuous
100
AcDbLine
 10
-227.328573
 20
228.394244
 30
0.0
 11
-227.328573
 21
227.394244
 31
0.0
  0
LINE
  5
5F5
100
AcDbEntity
  8
0
370
    -3
  6
Continuous
100
AcDbLine
 10
-289.328573
 20
228.394244
 30
0.0
 11
-289.328573
 21
227.394244
 31
0.0
  0
LINE
  5
5F6
100
AcDbEntity
  8
0
370
    -3
  6
Continuous
100
AcDbLine
 10
-289.328573
 20
227.394244
 30
0.0
 11
-227.328573
 21
227.394244
 31
0.0
  0
LINE
  5
5F7
100
AcDbEntity
  8
0
370
    -3
  6
Continuous
100
AcDbLine
 10
-289.328573
 20
228.394244
 30
0.0
 11
-227.328573
 21
228.394244
 31
0.0
  0
LINE
  5
5F8
100
AcDbEntity
  8
0
370
    -3
  6
Continuous
100
AcDbLine
 10
-305.328573
 20
215.394244
 30
0.0
 11
-303.328573
 21
215.394244
 31
0.0
  0
LINE
  5
5F9
100
AcDbEntity
  8
0
370
    -3
  6
Continuous
100
AcDbLine
 10
-327.328573
 20
215.394244
 30
0.0
 11
-305.328573
 21
215.394244
 31
0.0
  0
ARC
  5
5FA
100
AcDbEntity
  8
0
370
    -3
  6
Continuous
100
AcDbCircle
 10
-327.328573
 20
213.394244
 30
0.0
 40
2.0
100
AcDbArc
 50
90.0
 51
180.0
  0
ARC
  5
5FB
100
AcDbEntity
  8
0
370
    -3
  6
Continuous
100
AcDbCircle
 10
-327.328573
 20
189.394244
 30
0.0
 40
2.0
100
AcDbArc
 50
180.0
 51
270.0
  0
LINE
  5
5FC
100
AcDbEntity
  8
0
370
    -3
  6
Continuous
100
AcDbLine
 10
-329.328573
 20
213.394244
 30
0.0
 11
-329.328573
 21
201.394244
 31
0.0
  0
LINE
  5
5FD
100
AcDbEntity
  8
0
370
    -3
  6
Continuous
100
AcDbLine
 10
-329.328573
 20
189.394244
 30
0.0
 11
-329.328573
 21
201.394244
 31
0.0
  0
LINE
  5
5FE
100
AcDbEntity
  8
0
370
    -3
  6
CENTER
100
AcDbLine
 10
-334.807196
 20
201.394244
 30
0.0
 11
-294.50071
 21
201.394244
 31
0.0
  0
LINE
  5
5FF
100
AcDbEntity
  8
0
370
    -3
  6
Continuous
100
AcDbLine
 10
-305.328573
 20
215.394244
 30
0.0
 11
-305.328573
 21
201.394244
 31
0.0
  0
ARC
  5
600
100
AcDbEntity
  8
0
370
    -3
  6
Continuous
100
AcDbCircle
 10
-230.328573
 20
226.394244
 30
0.0
 40
1.0
100
AcDbArc
 50
13.342364
 51
90.0
  0
LINE
  5
601
100
AcDbEntity
  8
0
370
    -3
  6
Continuous
100
AcDbLine
 10
-296.528573
 20
226.394244
 30
0.0
 11
-226.890419
 21
226.394244
 31
0.0
  0
ARC
  5
602
100
AcDbEntity
  8
0
370
    -3
  6
Continuous
100
AcDbCircle
 10
-286.328573
 20
226.394244
 30
0.0
 40
1.0
100
AcDbArc
 50
90.0
 51
166.657636
  0
ARC
  5
603
100
AcDbEntity
  8
0
370
    -3
  6
Continuous
100
AcDbCircle
 10
-241.013656
 20
222.594244
 30
0.0
 40
3.8
100
AcDbArc
 50
25.0
 51
90.0
  0
LINE
  5
604
100
AcDbEntity
  8
0
370
    -3
  6
CENTER
100
AcDbLine
 10
-258.328573
 20
245.171662
 30
0.0
 11
-258.328573
 21
216.261685
 31
0.0
  0
ARC
  5
605
100
AcDbEntity
  8
0
370
    -3
  6
Continuous
100
AcDbCircle
 10
-288.652879
 20
223.394244
 30
0.0
 40
3.0
100
AcDbArc
 50
90.0
 51
180.0
  0
POINT
  5
606
100
AcDbEntity
  8
0
370
    -3
  6
CENTER
100
AcDbPoint
 10
-329.328573
 20
211.871744
 30
0.0
  0
POINT
  5
607
100
AcDbEntity
  8
0
370
    -3
  6
CENTER
100
AcDbPoint
 10
-329.328573
 20
190.916744
 30
0.0
  0
LINE
  5
608
100
AcDbEntity
  8
0
370
    -3
  6
Continuous
100
AcDbLine
 10
-327.328573
 20
187.394244
 30
0.0
 11
-303.328573
 21
187.394244
 31
0.0
  0
LINE
  5
609
100
AcDbEntity
  8
0
370
    -3
  6
Continuous
100
AcDbLine
 10
-234.141424
 20
216.848261
 30
0.0
 11
-237.569687
 21
224.200194
 31
0.0
  0
LINE
  5
60A
100
AcDbEntity
  8
0
370
    -3
  6
Continuous
100
AcDbLine
 10
-222.540685
 20
222.257775
 30
0.0
 11
-223.446449
 21
224.200194
 31
0.0
  0
ARC
  5
60B
100
AcDbEntity
  8
0
370
    -3
  6
Continuous
100
AcDbCircle
 10
-292.347176
 20
179.996748
 30
0.0
 40
3.0
100
AcDbArc
 50
25.0
 51
115.0
  0
LINE
  5
60C
100
AcDbEntity
  8
0
370
    -3
  6
Continuous
100
AcDbLine
 10
-303.739288
 20
184.394244
 30
0.0
 11
-311.902632
 21
180.587614
 31
0.0
  0
LINE
  5
60D
100
AcDbEntity
  8
0
370
    -3
  6
Continuous
100
AcDbLine
 10
-305.328573
 20
201.394244
 30
0.0
 11
-305.328573
 21
187.394244
 31
0.0
  0
LINE
  5
60E
100
AcDbEntity
  8
0
370
    -3
  6
Continuous
100
AcDbLine
 10
-303.328573
 20
184.585764
 30
0.0
 11
-303.328573
 21
219.594244
 31
0.0
  0
LINE
  5
60F
100
AcDbEntity
  8
0
370
    -3
  6
Continuous
100
AcDbLine
 10
-291.652879
 20
190.030229
 30
0.0
 11
-291.652879
 21
223.394244
 31
0.0
  0
ARC
  5
610
100
AcDbEntity
  8
0
370
    -3
  6
Continuous
100
AcDbCircle
 10
-226.890419
 20
222.594244
 30
0.0
 40
3.8
100
AcDbArc
 50
25.0
 51
90.0
  0
LINE
  5
611
100
AcDbEntity
  8
0
370
    -3
  6
Continuous
100
AcDbLine
 10
-214.47039
 20
219.621423
 30
0.0
 11
-307.820092
 21
176.091742
 31
0.0
  0
LINE
  5
612
100
AcDbEntity
  8
0
370
    -3
  6
Continuous
100
AcDbLine
 10
-213.599749
 20
222.01349
 30
0.0
 11
-215.290222
 21
225.638721
 31
0.0
  0
LINE
  5
613
100
AcDbEntity
  8
0
370
    -3
  6
Continuous
100
AcDbLine
 10
-215.290222
 20
225.638721
 30
0.0
 11
-303.739288
 21
184.394244
 31
0.0
  0
ARC
  5
614
100
AcDbEntity
  8
0
370
    -3
  6
Continuous
100
AcDbCircle
 10
-215.231103
 20
221.252777
 30
0.0
 40
1.8
100
AcDbArc
 50
295.0
 51
25.0
  0
LINE
  5
615
100
AcDbEntity
  8
0
370
    -3
  6
CENTER
100
AcDbLine
 10
-221.165911
 20
219.782804
 30
0.0
 11
-218.29599
 21
213.628239
 31
0.0
  0
POINT
  5
616
100
AcDbEntity
  8
0
370
    -3
  6
Continuous
100
AcDbPoint
 10
-219.931947
 20
217.074657
 30
0.0
  0
LINE
  5
617
100
AcDbEntity
  8
0
370
    -3
  6
Continuous
100
AcDbLine
 10
-216.73616
 20
218.564877
 30
0.0
 11
-216.322406
 21
217.677579
 31
0.0
  0
LINE
  5
618
100
AcDbEntity
  8
0
370
    -3
  6
CENTER
100
AcDbLine
 10
-221.165911
 20
219.782804
 30
0.0
 11
-218.29599
 21
213.628239
 31
0.0
  0
ARC
  5
619
100
AcDbEntity
  8
0
370
    -3
  6
Continuous
100
AcDbCircle
 10
-217.500605
 20
217.128176
 30
0.0
 40
1.299999
100
AcDbArc
 50
311.601548
 51
25.000018
  0
ARC
  5
61A
100
AcDbEntity
  8
0
370
    -3
  6
Continuous
100
AcDbCircle
 10
-222.612994
 20
222.886083
 30
0.0
 40
9.0
100
AcDbArc
 50
278.398469
 51
311.601548
  0
LINE
  5
61B
100
AcDbEntity
  8
0
370
    -3
  6
Continuous
100
AcDbLine
 10
-223.080314
 20
215.60655
 30
0.0
 11
-222.66656
 21
214.719251
 31
0.0
  0
ARC
  5
61C
100
AcDbEntity
  8
0
370
    -3
  6
Continuous
100
AcDbCircle
 10
-221.488361
 20
215.268655
 30
0.0
 40
1.299999
100
AcDbArc
 50
204.999999
 51
278.398469
  0
ARC
  5
61D
100
AcDbEntity
  8
0
370
    -3
  6
Continuous
100
AcDbCircle
 10
-227.407597
 20
210.278571
 30
0.0
 40
3.0
100
AcDbArc
 50
115.0
 51
205.0
  0
LINE
  5
61E
100
AcDbEntity
  8
0
370
    -3
  6
Continuous
100
AcDbLine
 10
-225.391094
 20
198.855561
 30
0.0
 11
-230.12652
 21
209.010716
 31
0.0
  0
ARC
  5
61F
100
AcDbEntity
  8
0
370
    -3
  6
Continuous
100
AcDbCircle
 10
-227.928756
 20
197.67223
 30
0.0
 40
2.8
100
AcDbArc
 50
344.545811
 51
25.0
  0
ARC
  5
620
100
AcDbEntity
  8
0
370
    -3
  6
Continuous
100
AcDbCircle
 10
-238.818477
 20
189.110547
 30
0.0
 40
10.8
100
AcDbArc
 50
272.437505
 51
342.341575
  0
ARC
  5
621
100
AcDbEntity
  8
0
370
    -3
  6
Continuous
100
AcDbCircle
 10
-515.154212
 20
277.079641
 30
0.0
 40
300.8
100
AcDbArc
 50
342.341575
 51
347.89975
  0
POINT
  5
622
100
AcDbEntity
  8
0
370
    -3
  6
Continuous
100
AcDbPoint
 10
-329.328573
 20
189.394244
 30
0.0
  0
POINT
  5
623
100
AcDbEntity
  8
0
370
    -3
  6
Continuous
100
AcDbPoint
 10
-329.328573
 20
190.916744
 30
0.0
  0
LINE
  5
624
100
AcDbEntity
  8
0
370
    -3
  6
Continuous
100
AcDbLine
 10
-310.212159
 20
176.962383
 30
0.0
 11
-311.902632
 21
180.587614
 31
0.0
  0
ARC
  5
625
100
AcDbEntity
  8
0
370
    -3
  6
Continuous
100
AcDbCircle
 10
-308.580805
 20
177.723096
 30
0.0
 40
1.8
100
AcDbArc
 50
205.0
 51
295.0
  0
LINE
  5
626
100
AcDbEntity
  8
0
370
    -3
  6
CENTER
100
AcDbLine
 10
-303.63992
 20
181.324542
 30
0.0
 11
-300.769999
 21
175.169978
 31
0.0
  0
ARC
  5
627
100
AcDbEntity
  8
0
370
    -3
  6
Continuous
100
AcDbCircle
 10
-305.087002
 20
184.427821
 30
0.0
 40
9.0
100
AcDbArc
 50
278.398469
 51
311.601548
  0
POINT
  5
628
100
AcDbEntity
  8
0
370
    -3
  6
Continuous
100
AcDbPoint
 10
-302.382246
 20
178.627452
 30
0.0
  0
LINE
  5
629
100
AcDbEntity
  8
0
370
    -3
  6
Continuous
100
AcDbLine
 10
-299.210168
 20
180.106616
 30
0.0
 11
-298.796414
 21
179.219317
 31
0.0
  0
LINE
  5
62A
100
AcDbEntity
  8
0
370
    -3
  6
Continuous
100
AcDbLine
 10
-305.554323
 20
177.148288
 30
0.0
 11
-305.140569
 21
176.26099
 31
0.0
  0
ARC
  5
62B
100
AcDbEntity
  8
0
370
    -3
  6
Continuous
100
AcDbCircle
 10
-299.974614
 20
178.669914
 30
0.0
 40
1.299999
100
AcDbArc
 50
311.601548
 51
25.000018
  0
ARC
  5
62C
100
AcDbEntity
  8
0
370
    -3
  6
Continuous
100
AcDbCircle
 10
-303.96237
 20
176.810393
 30
0.0
 40
1.299999
100
AcDbArc
 50
204.999999
 51
278.398469
  0
ARC
  5
62D
100
AcDbEntity
  8
0
370
    -3
  6
Continuous
100
AcDbCircle
 10
-286.415561
 20
181.000326
 30
0.0
 40
2.8
100
AcDbArc
 50
205.0
 51
267.843273
  0
LINE
  5
62E
100
AcDbEntity
  8
0
370
    -3
  6
Continuous
100
AcDbLine
 10
-289.628253
 20
181.264603
 30
0.0
 11
-288.953222
 21
179.816995
 31
0.0
  0
ARC
  5
62F
100
AcDbEntity
  8
0
370
    -3
  6
Continuous
100
AcDbCircle
 10
-263.910971
 20
778.576718
 30
0.0
 40
600.8
100
AcDbArc
 50
266.682408
 51
272.437505
  0
LINE
  5
630
100
AcDbEntity
  8
0
370
    -3
  6
Continuous
100
AcDbLine
 10
-291.143774
 20
238.394244
 30
0.0
 11
-290.828268
 21
229.359345
 31
0.0
  0
LINE
  5
631
100
AcDbEntity
  8
0
370
    -3
  6
Continuous
100
AcDbLine
 10
-225.513371
 20
238.394244
 30
0.0
 11
-225.828877
 21
229.359345
 31
0.0
  0
LINE
  5
632
100
AcDbEntity
  8
0
370
    -3
  6
Continuous
100
AcDbLine
 10
-226.828268
 20
228.394244
 30
0.0
 11
-289.854416
 21
228.394244
 31
0.0
  0
ARC
  5
633
100
AcDbEntity
  8
0
370
    -3
  6
Continuous
100
AcDbCircle
 10
-226.828268
 20
229.394244
 30
0.0
 40
1.0
100
AcDbArc
 50
270.0
 51
358.0
  0
ARC
  5
634
100
AcDbEntity
  8
0
370
    -3
  6
Continuous
100
AcDbCircle
 10
-289.828877
 20
229.394244
 30
0.0
 40
1.0
100
AcDbArc
 50
182.0
 51
270.0
  0
LINE
  5
635
100
AcDbEntity
  8
0
370
    -3
  6
Continuous
100
AcDbLine
 10
-290.078581
 20
240.394244
 30
0.0
 11
-221.578573
 21
240.394244
 31
0.0
  0
LINE
  5
636
100
AcDbEntity
  8
0
370
    -3
  6
Continuous
100
AcDbLine
 10
-221.578573
 20
241.899657
 30
0.0
 11
-221.578573
 21
240.394244
 31
0.0
  0
LINE
  5
637
100
AcDbEntity
  8
0
370
    -3
  6
Continuous
100
AcDbLine
 10
-225.513371
 20
240.394244
 30
0.0
 11
-291.143774
 21
240.394244
 31
0.0
  0
LINE
  5
638
100
AcDbEntity
  8
0
370
    -3
  6
Continuous
100
AcDbLine
 10
-290.078581
 20
240.394244
 30
0.0
 11
-290.078581
 21
241.054496
 31
0.0
  0
MTEXT
  5
639
100
AcDbEntity
  8
0
370
    -3
  6
Continuous
100
AcDbMText
 10
-609.405884
 20
221.17067
 30
0.0
 40
15.0
 41
0.0
 71
     7
 72
     1
  1
\W0.43;DATE\W0.72; \W0.43;2011.12.29
  7
ZU_SHPTB00001
 11
1.0
 21
0.0
 31
0.0
 73
     1
 44
1.0
  0
LINE
  5
63A
100
AcDbEntity
  8
0
370
    -3
  6
CENTER
100
AcDbLine
 10
-377.248974
 20
295.394244
 30
0.0
 11
37.831245
 21
295.394244
 31
0.0
  0
ENDSEC
  0
SECTION
  2
OBJECTS
  0
DICTIONARY
  5
19
100
AcDbDictionary
280
     0
281
     1
  3
ACAD_GROUP
350
1A
  3
ACAD_MLINESTYLE
350
1B
  3
ACAD_LAYOUT
350
1E
  3
ACAD_PLOTSETTINGS
350
22
  3
ACAD_PLOTSTYLENAME
350
1F
  3
ACAD_WIPEOUT_VARS
350
23
  3
DWGPROPS
350
63B
  0
DICTIONARY
  5
1A
102
{ACAD_REACTORS
330
19
102
}
100
AcDbDictionary
280
     0
281
     1
  0
DICTIONARY
  5
1B
102
{ACAD_REACTORS
330
19
102
}
100
AcDbDictionary
280
     0
281
     1
  3
Standard
350
1C
  0
MLINESTYLE
  5
1C
102
{ACAD_REACTORS
330
1B
102
}
100
AcDbMlineStyle
  2
Standard
 70
     0
  3

 62
     0
 51
90.0
 52
90.0
 71
     2
 49
0.5
 62
   256
  6
ByLayer
 49
-0.5
 62
   256
  6
ByLayer
  0
ACDBDICTIONARYWDFLT
  5
1F
102
{ACAD_REACTORS
330
19
102
}
100
AcDbDictionary
281
     1
  3
Normal
350
1D
100
AcDbDictionaryWithDefault
340
1D
  0
ACDBPLACEHOLDER
  5
1D
102
{ACAD_REACTORS
330
1F
102
}
  0
LAYOUT
  5
20
102
{ACAD_REACTORS
330
1E
102
}
100
AcDbPlotSettings
  1

  2

  4

  6

 40
0.0
 41
0.0
 42
0.0
 43
0.0
 44
0.0
 45
0.0
 46
0.0
 47
0.0
 48
0.0
 49
0.0
140
0.0
141
0.0
142
1.0
143
1.0
 70
  1024
 72
     0
 73
     0
 74
     0
  7

 75
     0
147
1.0
148
0.0
149
0.0
100
AcDbLayout
  1
Model
 70
     0
 71
     0
 10
0.0
 20
0.0
 11
0.0
 21
0.0
 12
0.0
 22
0.0
 32
0.0
 14
0.0
 24
0.0
 34
0.0
 15
0.0
 25
0.0
 35
0.0
146
0.0
 13
0.0
 23
0.0
 33
0.0
 16
0.0
 26
0.0
 36
0.0
 17
0.0
 27
0.0
 37
0.0
 76
     0
330
A
331
0
345
0
346
0
  0
LAYOUT
  5
21
102
{ACAD_REACTORS
330
1E
102
}
100
AcDbPlotSettings
  1

  2

  4

  6

 40
0.0
 41
0.0
 42
0.0
 43
0.0
 44
0.0
 45
0.0
 46
0.0
 47
0.0
 48
0.0
 49
0.0
140
0.0
141
0.0
142
1.0
143
1.0
 70
     0
 72
     0
 73
     0
 74
     0
  7

 75
     0
147
1.0
148
0.0
149
0.0
100
AcDbLayout
  1
Layout1
 70
     0
 71
     0
 10
0.0
 20
0.0
 11
0.0
 21
0.0
 12
0.0
 22
0.0
 32
0.0
 14
0.0
 24
0.0
 34
0.0
 15
0.0
 25
0.0
 35
0.0
146
0.0
 13
0.0
 23
0.0
 33
0.0
 16
0.0
 26
0.0
 36
0.0
 17
0.0
 27
0.0
 37
0.0
 76
     0
330
B
331
0
345
0
346
0
  0
DICTIONARY
  5
1E
102
{ACAD_REACTORS
330
19
102
}
100
AcDbDictionary
280
     0
281
     1
  3
Layout1
350
21
  3
Model
350
20
  0
DICTIONARY
  5
22
102
{ACAD_REACTORS
330
19
102
}
100
AcDbDictionary
280
     0
281
     1
  0
WIPEOUTVARIABLES
  5
23
100
AcDbWipeoutVariables
 70
     1
  0
XRECORD
  5
63B
100
AcDbXrecord
280
     1
  1
DWGPROPS COOKIE
  2

  3

  4

  6

  7

  8
HK96464
  9

300
=
301
=
302
=
303
=
304
=
305
=
306
=
307
=
308
=
309
=
 40
0.0
 41
2455931.710243
 42
2455931.710243
  1

 90
        0
  0
ENDSEC
  0
EOF
