  0
SECTION
  2
HEADER
  9
$ACADVER
  1
AC1015
  9
$ACADMAINTVER
 70
     6
  9
$DWGCODEPAGE
  3
ANSI_932
  9
$INSBASE
 10
0.0
 20
0.0
 30
0.0
  9
$EXTMIN
 10
1.000000E+20
 20
1.000000E+20
 30
1.000000E+20
  9
$EXTMAX
 10
-1.000000E+20
 20
-1.000000E+20
 30
-1.000000E+20
  9
$LIMMIN
 10
0.0
 20
0.0
  9
$LIMMAX
 10
0.0
 20
0.0
  9
$ORTHOMODE
 70
     0
  9
$REGENMODE
 70
     1
  9
$FILLMODE
 70
     1
  9
$QTEXTMODE
 70
     0
  9
$MIRRTEXT
 70
     1
  9
$LTSCALE
 40
1.0
  9
$ATTMODE
 70
     1
  9
$TEXTSIZE
 40
7.0
  9
$TRACEWID
 40
0.05
  9
$TEXTSTYLE
  7
Standard
  9
$CLAYER
  8
0
  9
$CELTYPE
  6
Continuous
  9
$CECOLOR
 62
   256
  9
$CELTSCALE
 40
1.0
  9
$DISPSILH
 70
     0
  9
$DIMSCALE
 40
1.0
  9
$DIMASZ
 40
1.931852
  9
$DIMEXO
 40
1.0
  9
$DIMDLI
 40
0.38
  9
$DIMRND
 40
0.0
  9
$DIMDLE
 40
0.0
  9
$DIMEXE
 40
2.0
  9
$DIMTP
 40
0.0
  9
$DIMTM
 40
0.0
  9
$DIMTXT
 40
2.8
  9
$DIMCEN
 40
0.09
  9
$DIMTSZ
 40
0.0
  9
$DIMTOL
 70
     0
  9
$DIMLIM
 70
     0
  9
$DIMTIH
 70
     1
  9
$DIMTOH
 70
     1
  9
$DIMSE1
 70
     0
  9
$DIMSE2
 70
     0
  9
$DIMTAD
 70
     1
  9
$DIMZIN
 70
     0
  9
$DIMBLK
  1

  9
$DIMASO
 70
     1
  9
$DIMSHO
 70
     1
  9
$DIMPOST
  1

  9
$DIMAPOST
  1

  9
$DIMALT
 70
     0
  9
$DIMALTD
 70
     2
  9
$DIMALTF
 40
25.4
  9
$DIMLFAC
 40
1.0
  9
$DIMTOFL
 70
     0
  9
$DIMTVP
 40
0.0
  9
$DIMTIX
 70
     0
  9
$DIMSOXD
 70
     0
  9
$DIMSAH
 70
     0
  9
$DIMBLK1
  1

  9
$DIMBLK2
  1

  9
$DIMSTYLE
  2
Standard
  9
$DIMCLRD
 70
     0
  9
$DIMCLRE
 70
     0
  9
$DIMCLRT
 70
     0
  9
$DIMTFAC
 40
0.714286
  9
$DIMGAP
 40
0.09
  9
$DIMJUST
 70
     0
  9
$DIMSD1
 70
     0
  9
$DIMSD2
 70
     0
  9
$DIMTOLJ
 70
     1
  9
$DIMTZIN
 70
     0
  9
$DIMALTZ
 70
     0
  9
$DIMALTTZ
 70
     0
  9
$DIMUPT
 70
     0
  9
$DIMDEC
 70
     4
  9
$DIMTDEC
 70
     4
  9
$DIMALTU
 70
     2
  9
$DIMALTTD
 70
     2
  9
$DIMTXSTY
  7
Standard
  9
$DIMAUNIT
 70
     0
  9
$DIMADEC
 70
     0
  9
$DIMALTRND
 40
0.0
  9
$DIMAZIN
 70
     0
  9
$DIMDSEP
 70
     0
  9
$DIMATFIT
 70
     3
  9
$DIMFRAC
 70
     0
  9
$DIMLDRBLK
  1

  9
$DIMLUNIT
 70
     2
  9
$DIMLWD
 70
     0
  9
$DIMLWE
 70
     0
  9
$DIMTMOVE
 70
     0
  9
$LUNITS
 70
     2
  9
$LUPREC
 70
     3
  9
$SKETCHINC
 40
0.1
  9
$FILLETRAD
 40
0.0
  9
$AUNITS
 70
     0
  9
$AUPREC
 70
     0
  9
$MENU
  1
acad
  9
$ELEVATION
 40
0.0
  9
$PELEVATION
 40
0.0
  9
$THICKNESS
 40
0.0
  9
$LIMCHECK
 70
     0
  9
$CHAMFERA
 40
0.0
  9
$CHAMFERB
 40
0.0
  9
$CHAMFERC
 40
0.0
  9
$CHAMFERD
 40
0.0
  9
$SKPOLY
 70
     0
  9
$TDCREATE
 40
0.000000000
  9
$TDUCREATE
 40
0.000000000
  9
$TDUPDATE
 40
0.000000000
  9
$TDUUPDATE
 40
0.000000000
  9
$TDINDWG
 40
0.0000000000
  9
$TDUSRTIMER
 40
0.0000000000
  9
$USRTIMER
 70
     1
  9
$ANGBASE
 50
0.0
  9
$ANGDIR
 70
     0
  9
$PDMODE
 70
     0
  9
$PDSIZE
 40
0.0
  9
$PLINEWID
 40
0.0
  9
$SPLFRAME
 70
     0
  9
$SPLINETYPE
 70
     6
  9
$SPLINESEGS
 70
     8
  9
$HANDSEED
  5
64A
  9
$SURFTAB1
 70
     6
  9
$SURFTAB2
 70
     6
  9
$SURFTYPE
 70
     6
  9
$SURFU
 70
     6
  9
$SURFV
 70
     6
  9
$UCSBASE
  2

  9
$UCSNAME
  2

  9
$UCSORG
 10
0.0
 20
0.0
 30
0.0
  9
$UCSXDIR
 10
1.0
 20
0.0
 30
0.0
  9
$UCSYDIR
 10
0.0
 20
1.0
 30
0.0
  9
$UCSORTHOREF
  2

  9
$UCSORTHOVIEW
 70
     0
  9
$UCSORGTOP
 10
0.0
 20
0.0
 30
0.0
  9
$UCSORGBOTTOM
 10
0.0
 20
0.0
 30
0.0
  9
$UCSORGLEFT
 10
0.0
 20
0.0
 30
0.0
  9
$UCSORGRIGHT
 10
0.0
 20
0.0
 30
0.0
  9
$UCSORGFRONT
 10
0.0
 20
0.0
 30
0.0
  9
$UCSORGBACK
 10
0.0
 20
0.0
 30
0.0
  9
$PUCSBASE
  2

  9
$PUCSNAME
  2

  9
$PUCSORG
 10
0.0
 20
0.0
 30
0.0
  9
$PUCSXDIR
 10
1.0
 20
0.0
 30
0.0
  9
$PUCSYDIR
 10
0.0
 20
1.0
 30
0.0
  9
$PUCSORTHOREF
  2

  9
$PUCSORTHOVIEW
 70
     0
  9
$PUCSORGTOP
 10
0.0
 20
0.0
 30
0.0
  9
$PUCSORGBOTTOM
 10
0.0
 20
0.0
 30
0.0
  9
$PUCSORGLEFT
 10
0.0
 20
0.0
 30
0.0
  9
$PUCSORGRIGHT
 10
0.0
 20
0.0
 30
0.0
  9
$PUCSORGFRONT
 10
0.0
 20
0.0
 30
0.0
  9
$PUCSORGBACK
 10
0.0
 20
0.0
 30
0.0
  9
$USERI1
 70
     0
  9
$USERI2
 70
     0
  9
$USERI3
 70
     0
  9
$USERI4
 70
     0
  9
$USERI5
 70
     0
  9
$USERR1
 40
0.0
  9
$USERR2
 40
0.0
  9
$USERR3
 40
0.0
  9
$USERR4
 40
0.0
  9
$USERR5
 40
0.0
  9
$WORLDVIEW
 70
     1
  9
$SHADEDGE
 70
     3
  9
$SHADEDIF
 70
    70
  9
$TILEMODE
 70
     1
  9
$MAXACTVP
 70
    16
  9
$PINSBASE
 10
0.0
 20
0.0
 30
0.0
  9
$PLIMCHECK
 70
     0
  9
$PEXTMIN
 10
1.000000E+20
 20
1.000000E+20
 30
1.000000E+20
  9
$PEXTMAX
 10
-1.000000E+20
 20
-1.000000E+20
 30
-1.000000E+20
  9
$PLIMMIN
 10
0.0
 20
0.0
  9
$PLIMMAX
 10
12.0
 20
9.0
  9
$UNITMODE
 70
     0
  9
$VISRETAIN
 70
     0
  9
$PLINEGEN
 70
     1
  9
$PSLTSCALE
 70
     0
  9
$TREEDEPTH
 70
  3020
  9
$CMLSTYLE
  2
Standard
  9
$CMLJUST
 70
     0
  9
$CMLSCALE
 40
1.0
  9
$PROXYGRAPHICS
 70
     0
  9
$MEASUREMENT
 70
     0
  9
$CELWEIGHT
370
     0
  9
$ENDCAPS
280
     0
  9
$JOINSTYLE
280
     0
  9
$LWDISPLAY
290
     0
  9
$INSUNITS
 70
     0
  9
$HYPERLINKBASE
  1

  9
$STYLESHEET
  1

  9
$XEDIT
290
     1
  9
$CEPSNTYPE
380
     0
  9
$PSTYLEMODE
290
     1
  9
$FINGERPRINTGUID
  2

  9
$VERSIONGUID
  2

  9
$EXTNAMES
290
     1
  9
$PSVPSCALE
 40
0.0
  0
ENDSEC
  0
SECTION
  2
CLASSES
  0
CLASS
  1
LWPOLYLINE
  2
AcDbPolyline
  3
AutoCAD 2000
 90
    32768
280
     0
281
     1
  0
CLASS
  1
IMAGE
  2
AcDbRasterImage
  3
ISM
 90
    32895
280
     0
281
     1
  0
CLASS
  1
OLE2FRAME
  2
AcDbOle2Frame
  3
AutoCAD 2000
 90
    32768
280
     0
281
     1
  0
CLASS
  1
HATCH
  2
AcDbHatch
  3
AutoCAD 2000
 90
    32768
280
     0
281
     1
  0
CLASS
  1
DICTIONARYVAR
  2
AcDbDictionaryVar
  3
AutoCAD 2000
 90
    32768
280
     0
281
     0
  0
CLASS
  1
RASTERVARIABLES
  2
AcDbRasterVariables
  3
ISM
 90
    32768
280
     0
281
     0
  0
CLASS
  1
IMAGEDEF
  2
AcDbRasterImageDef
  3
ISM
 90
    32768
280
     0
281
     0
  0
CLASS
  1
IMAGEDEF_REACTOR
  2
AcDbRasterImageDefReactor
  3
ISM
 90
    32769
280
     0
281
     0
  0
CLASS
  1
IDBUFFER
  2
AcDbIdBuffer
  3
AutoCAD 2000
 90
    32768
280
     0
281
     0
  0
CLASS
  1
SPATIAL_FILTER
  2
AcDbSpatialFilter
  3
AutoCAD 2000
 90
    32768
280
     0
281
     0
  0
CLASS
  1
XRECORD
  2
AcDbXrecord
  3
AutoCAD 2000
 90
        0
280
     0
281
     0
  0
CLASS
  1
SORTENTSTABLE
  2
AcDbSortentsTable
  3
AutoCAD 2000
 90
    32768
280
     0
281
     0
  0
CLASS
  1
LAYER_INDEX
  2
AcDbLayerIndex
  3
AutoCAD 2000
 90
    32768
280
     0
281
     0
  0
CLASS
  1
SPATIAL_INDEX
  2
AcDbSpatialIndex
  3
AutoCAD 2000
 90
    32768
280
     0
281
     0
  0
CLASS
  1
OBJECT_PTR
  2
CAseDLPNTableRecord
  3
"ASE-LPNTableRecord"
 90
    32769
280
     0
281
     0
  0
CLASS
  1
LAYOUT
  2
AcDbLayout
  3
AutoCAD 2000
 90
        0
280
     0
281
     0
  0
CLASS
  1
PLOTSETTINGS
  2
AcDbPlotSettings
  3
AutoCAD 2000
 90
    32768
280
     0
281
     0
  0
CLASS
  1
ACDBDICTIONARYWDFLT
  2
AcDbDictionaryWithDefault
  3
AutoCAD 2000
 90
        0
280
     0
281
     0
  0
CLASS
  1
ACDBPLACEHOLDER
  2
AcDbPlaceHolder
  3
AutoCAD 2000
 90
        0
280
     0
281
     0
  0
CLASS
  1
VBA_PROJECT
  2
AcDbVbaProject
  3
acadvba
 90
    32768
280
     0
281
     0
  0
CLASS
  1
WIPEOUT
  2
AcDbWipeout
  3
WipeOut|AutoCAD Express Tool|expresstools@autodesk.com
 90
    32895
280
     0
281
     1
  0
CLASS
  1
WIPEOUTVARIABLES
  2
AcDbWipeoutVariables
  3
WipeOut|AutoCAD Express Tool|expresstools@autodesk.com
 90
        0
280
     0
281
     0
  0
CLASS
  1
RTEXT
  2
RText
  3
RText|AutoCAD Express Tool|expresstools@autodesk.com
 90
    32768
280
     0
281
     1
  0
CLASS
  1
ARCALIGNEDTEXT
  2
AcDbArcAlignedText
  3
ATEXT|AutoCAD Express Tool|expresstools@autodesk.com
 90
    32768
280
     0
281
     1
  0
ENDSEC
  0
SECTION
  2
TABLES
  0
TABLE
  2
VPORT
  5
7
100
AcDbSymbolTable
 70
     1
  0
VPORT
  5
15
100
AcDbSymbolTableRecord
100
AcDbViewportTableRecord
  2
*ACTIVE
 70
     0
 10
0.0
 20
0.0
 11
1.0
 21
1.0
 12
0.0
 22
0.0
 13
0.0
 23
0.0
 14
1.0
 24
1.0
 15
0.0
 25
0.0
 16
0.0
 26
0.0
 36
1.0
 17
0.0
 27
0.0
 37
0.0
 40
100.0
 41
1.0
 42
50.0
 43
0.0
 44
0.0
 50
0.0
 51
0.0
 71
     0
 72
   100
 73
     1
 74
     1
 75
     0
 76
     0
 77
     0
 78
     0
281
     0
 65
     0
110
0.0
120
0.0
130
0.0
111
1.0
121
0.0
131
0.0
112
0.0
122
1.0
132
0.0
345
0
346
0
 79
     0
146
0.0
  0
ENDTAB
  0
TABLE
  2
LTYPE
  5
4
100
AcDbSymbolTable
 70
     7
  0
LTYPE
  5
11
100
AcDbSymbolTableRecord
100
AcDbLinetypeTableRecord
  2
ByBlock
 70
    64
  3

 72
    65
 73
     0
 40
0.0
  0
LTYPE
  5
12
100
AcDbSymbolTableRecord
100
AcDbLinetypeTableRecord
  2
ByLayer
 70
    64
  3

 72
    65
 73
     0
 40
0.0
  0
LTYPE
  5
13
100
AcDbSymbolTableRecord
100
AcDbLinetypeTableRecord
  2
Continuous
 70
    64
  3
Solid line
 72
    65
 73
     0
 40
0.0
  0
LTYPE
  5
24
100
AcDbSymbolTableRecord
100
AcDbLinetypeTableRecord
  2
DASHED
 70
    64
  3
Dashed __ __ __ __ __ __ __ __ __ __ __ __ __ _
 72
    65
 73
     2
 40
0.75
 49
0.5
 74
     0
 49
-0.25
 74
     0
  0
LTYPE
  5
25
100
AcDbSymbolTableRecord
100
AcDbLinetypeTableRecord
  2
CENTER
 70
    64
  3
Center ____ _ ____ _ ____ _ ____ _ ____ _ ____
 72
    65
 73
     4
 40
1.0
 49
0.5
 74
     0
 49
-0.25
 74
     0
 49
0.0
 74
     0
 49
-0.25
 74
     0
  0
LTYPE
  5
26
100
AcDbSymbolTableRecord
100
AcDbLinetypeTableRecord
  2
DIVIDE
 70
    64
  3
Divide ____ . . ____ . . ____ . . ____ . . ____
 72
    65
 73
     6
 40
1.25
 49
0.5
 74
     0
 49
-0.25
 74
     0
 49
0.0
 74
     0
 49
-0.25
 74
     0
 49
0.0
 74
     0
 49
-0.25
 74
     0
  0
LTYPE
  5
27
100
AcDbSymbolTableRecord
100
AcDbLinetypeTableRecord
  2
PHANTOM
 70
    64
  3
Phantom ______  __  __  ______  __  __  ______
 72
    65
 73
     6
 40
9.0
 49
4.3
 74
     0
 49
-0.7
 74
     0
 49
1.3
 74
     0
 49
-0.7
 74
     0
 49
1.3
 74
     0
 49
-0.7
 74
     0
  0
ENDTAB
  0
TABLE
  2
LAYER
  5
2
100
AcDbSymbolTable
 70
     4
  0
LAYER
  5
14
100
AcDbSymbolTableRecord
100
AcDbLayerTableRecord
  2
0
 70
    64
 62
    53
  6
Continuous
290
     1
370
    -3
390
1D
  0
LAYER
  5
28
100
AcDbSymbolTableRecord
100
AcDbLayerTableRecord
  2
3
 70
    64
 62
     4
  6
Continuous
290
     1
370
    -3
390
1D
  0
LAYER
  5
29
100
AcDbSymbolTableRecord
100
AcDbLayerTableRecord
  2
5
 70
    64
 62
   191
  6
Continuous
290
     1
370
    -3
390
1D
  0
LAYER
  5
2A
100
AcDbSymbolTableRecord
100
AcDbLayerTableRecord
  2
16
 70
    64
 62
     1
  6
Continuous
290
     1
370
    -3
390
1D
  0
ENDTAB
  0
TABLE
  2
STYLE
  5
3
100
AcDbSymbolTable
 70
     2
  0
STYLE
  5
17
100
AcDbSymbolTableRecord
100
AcDbTextStyleTableRecord
  2
Standard
 70
     0
 40
0.0
 41
1.0
 50
0.0
 71
     0
 42
0.0
  3
txt
  4

  0
STYLE
  5
50B
100
AcDbSymbolTableRecord
100
AcDbTextStyleTableRecord
  2
ZU_SHPTB00001
 70
     0
 40
0.0
 41
1.0
 50
0.0
 71
     0
 42
0.0
  3
monotxt
  4
bigfont
  0
ENDTAB
  0
TABLE
  2
VIEW
  5
5
100
AcDbSymbolTable
 70
     0
  0
ENDTAB
  0
TABLE
  2
UCS
  5
6
100
AcDbSymbolTable
 70
     0
  0
ENDTAB
  0
TABLE
  2
APPID
  5
8
100
AcDbSymbolTable
 70
     1
  0
APPID
  5
16
100
AcDbSymbolTableRecord
100
AcDbRegAppTableRecord
  2
ACAD
 70
     0
  0
ENDTAB
  0
TABLE
  2
DIMSTYLE
  5
9
100
AcDbSymbolTable
 70
     1
100
AcDbDimStyleTable
 71
     0
  0
DIMSTYLE
105
18
100
AcDbSymbolTableRecord
100
AcDbDimStyleTableRecord
  2
Standard
 70
     0
  3

  4

 40
1.0
 41
0.18
 42
0.0625
 43
0.38
 44
0.18
 45
0.0
 46
0.0
 47
0.0
 48
0.0
 71
     0
 72
     0
 73
     1
 74
     1
 75
     0
 76
     0
 77
     0
 78
     0
 79
     0
140
0.18
141
0.09
142
0.0
143
25.4
144
1.0
145
0.0
146
1.0
147
0.09
148
0.0
170
     0
171
     2
172
     0
173
     0
174
     0
175
     0
176
     0
177
     0
178
     0
179
     0
271
     4
272
     4
273
     2
274
     2
275
     0
276
     0
277
     2
278
    46
279
     0
280
     0
281
     0
282
     0
283
     1
284
     0
285
     0
286
     0
288
     0
340
17
341
0
342
0
343
0
344
0
371
    -2
372
    -2
  0
ENDTAB
  0
TABLE
  2
BLOCK_RECORD
  5
1
100
AcDbSymbolTable
 70
    24
  0
BLOCK_RECORD
  5
A
100
AcDbSymbolTableRecord
100
AcDbBlockTableRecord
  2
*MODEL_SPACE
340
20
  0
BLOCK_RECORD
  5
B
100
AcDbSymbolTableRecord
100
AcDbBlockTableRecord
  2
*PAPER_SPACE
340
21
  0
BLOCK_RECORD
  5
B3
100
AcDbSymbolTableRecord
100
AcDbBlockTableRecord
  2
ZU_SYM__USERS_HOME_SYMBOL_POO_SYM_B20_-1
340
0
102
{BLKREFS
331
BE
102
}
  0
BLOCK_RECORD
  5
BF
100
AcDbSymbolTableRecord
100
AcDbBlockTableRecord
  2
ZU_SYM__USERS_HOME_SYMBOL_POO_SYM_B20_00001-1
340
0
102
{BLKREFS
331
CA
102
}
  0
BLOCK_RECORD
  5
CD
100
AcDbSymbolTableRecord
100
AcDbBlockTableRecord
  2
ZU_SYM__USERS_HOME_SYMBOL_POO_SYM_B20_00002-1
340
0
102
{BLKREFS
331
D5
102
}
  0
BLOCK_RECORD
  5
D6
100
AcDbSymbolTableRecord
100
AcDbBlockTableRecord
  2
ZU_SYM__USERS_HOME_SYMBOL_POO_SYM_B20_00003-1
340
0
102
{BLKREFS
331
E1
102
}
  0
BLOCK_RECORD
  5
E2
100
AcDbSymbolTableRecord
100
AcDbBlockTableRecord
  2
ZU_SYM__USERS_HOME_SYMBOL_POO_SYM_B20_00004-1
340
0
102
{BLKREFS
331
ED
102
}
  0
BLOCK_RECORD
  5
EE
100
AcDbSymbolTableRecord
100
AcDbBlockTableRecord
  2
ZU_SYM__USERS_HOME_SYMBOL_POO_SYM_B20_00005-1
340
0
102
{BLKREFS
331
F9
102
}
  0
BLOCK_RECORD
  5
FA
100
AcDbSymbolTableRecord
100
AcDbBlockTableRecord
  2
ZU_SYM__USERS_HOME_SYMBOL_POO_SYM_B20_00006-1
340
0
102
{BLKREFS
331
102
102
}
  0
BLOCK_RECORD
  5
192
100
AcDbSymbolTableRecord
100
AcDbBlockTableRecord
  2
ZU_SYM__USERS_HOME_SYMBOL_STD_SYM_B02_-1
340
0
102
{BLKREFS
331
1A1
102
}
  0
BLOCK_RECORD
  5
1A5
100
AcDbSymbolTableRecord
100
AcDbBlockTableRecord
  2
ZU_SYM__USERS_HOME_SYMBOL_STD_SYM_B02_00007-1
340
0
102
{BLKREFS
331
1B4
102
}
  0
BLOCK_RECORD
  5
1B5
100
AcDbSymbolTableRecord
100
AcDbBlockTableRecord
  2
ZU_SYM__USERS_HOME_SYMBOL_POO_SYM_B20_00008-1
340
0
102
{BLKREFS
331
1C0
102
}
  0
BLOCK_RECORD
  5
1C1
100
AcDbSymbolTableRecord
100
AcDbBlockTableRecord
  2
ZU_SYM__USERS_HOME_SYMBOL_POO_SYM_B20_00009-1
340
0
102
{BLKREFS
331
1CC
102
}
  0
BLOCK_RECORD
  5
1E4
100
AcDbSymbolTableRecord
100
AcDbBlockTableRecord
  2
ZU_SYM__USERS_HOME_SYMBOL_POO_SYM_B20_00010-1
340
0
102
{BLKREFS
331
1EF
102
}
  0
BLOCK_RECORD
  5
1F0
100
AcDbSymbolTableRecord
100
AcDbBlockTableRecord
  2
ZU_SYM__USERS_HOME_SYMBOL_POO_SYM_B20_00011-1
340
0
102
{BLKREFS
331
1FB
102
}
  0
BLOCK_RECORD
  5
283
100
AcDbSymbolTableRecord
100
AcDbBlockTableRecord
  2
ZU_SYM__USERS_HOME_SYMBOL_STD_SYM_B02_00012-1
340
0
102
{BLKREFS
331
28E
102
}
  0
BLOCK_RECORD
  5
28F
100
AcDbSymbolTableRecord
100
AcDbBlockTableRecord
  2
ZU_SYM__USERS_HOME_SYMBOL_STD_SYM_B02_00013-1
340
0
102
{BLKREFS
331
29A
102
}
  0
BLOCK_RECORD
  5
29B
100
AcDbSymbolTableRecord
100
AcDbBlockTableRecord
  2
ZU_SYM__USERS_HOME_SYMBOL_POO_SYM_B20_00014-1
340
0
102
{BLKREFS
331
2A7
102
}
  0
BLOCK_RECORD
  5
2A8
100
AcDbSymbolTableRecord
100
AcDbBlockTableRecord
  2
ZU_SYM__USERS_HOME_SYMBOL_POO_SYM_B20_00015-1
340
0
102
{BLKREFS
331
2B4
102
}
  0
BLOCK_RECORD
  5
2B5
100
AcDbSymbolTableRecord
100
AcDbBlockTableRecord
  2
ZU_SYM__USERS_HOME_SYMBOL_POO_SYM_B20_00016-1
340
0
102
{BLKREFS
331
2C1
102
}
  0
BLOCK_RECORD
  5
2C2
100
AcDbSymbolTableRecord
100
AcDbBlockTableRecord
  2
ZU_SYM__USERS_HOME_SYMBOL_POO_SYM_B20_00017-1
340
0
102
{BLKREFS
331
2CE
102
}
  0
BLOCK_RECORD
  5
2CF
100
AcDbSymbolTableRecord
100
AcDbBlockTableRecord
  2
ZU_SYM__USERS_HOME_SYMBOL_POO_SYM_B20_00018-1
340
0
102
{BLKREFS
331
2DB
102
}
  0
BLOCK_RECORD
  5
2DC
100
AcDbSymbolTableRecord
100
AcDbBlockTableRecord
  2
ZU_SYM__USERS_HOME_SYMBOL_POO_SYM_B20_00019-1
340
0
102
{BLKREFS
331
2E8
102
}
  0
BLOCK_RECORD
  5
2E9
100
AcDbSymbolTableRecord
100
AcDbBlockTableRecord
  2
ZU_SYM__USERS_HOME_SYMBOL_POO_SYM_B20_00020-1
340
0
102
{BLKREFS
331
2F5
102
}
  0
BLOCK_RECORD
  5
2F6
100
AcDbSymbolTableRecord
100
AcDbBlockTableRecord
  2
ZU_SYM__USERS_HOME_SYMBOL_POO_SYM_B20_00021-1
340
0
102
{BLKREFS
331
302
102
}
  0
BLOCK_RECORD
  5
4FE
100
AcDbSymbolTableRecord
100
AcDbBlockTableRecord
  2
ZU_SYM__USERS_HOME_SYMBOL_POO_SYM_B20_00022-1
340
0
102
{BLKREFS
331
50A
102
}
  0
ENDTAB
  0
ENDSEC
  0
SECTION
  2
BLOCKS
  0
BLOCK
  5
D
100
AcDbEntity
  8
0
100
AcDbBlockBegin
  2
*MODEL_SPACE
 70
     0
 10
0.0
 20
0.0
 30
0.0
  3
*MODEL_SPACE
  1

  0
ENDBLK
  5
E
100
AcDbEntity
  8
0
100
AcDbBlockEnd
  0
BLOCK
  5
F
100
AcDbEntity
 67
     1
  8
0
100
AcDbBlockBegin
  2
*PAPER_SPACE
 70
     0
 10
0.0
 20
0.0
 30
0.0
  3
*PAPER_SPACE
  1

  0
ENDBLK
  5
10
100
AcDbEntity
 67
     1
  8
0
100
AcDbBlockEnd
  0
BLOCK
  5
B4
100
AcDbEntity
  8
0
100
AcDbBlockBegin
  2
ZU_SYM__USERS_HOME_SYMBOL_POO_SYM_B20_-1
 70
    64
 10
0.0
 20
0.0
 30
0.0
  3
ZU_SYM__USERS_HOME_SYMBOL_POO_SYM_B20_-1
  1

  0
POINT
  5
B5
100
AcDbEntity
  8
0
370
    -3
  6
Continuous
100
AcDbPoint
 10
0.0
 20
0.0
 30
0.0
  0
LINE
  5
B6
100
AcDbEntity
  8
0
370
    -3
  6
Continuous
100
AcDbLine
 10
0.0
 20
-6.5
 30
0.0
 11
0.0
 21
6.5
 31
0.0
  0
LINE
  5
B7
100
AcDbEntity
  8
0
370
    -3
  6
Continuous
100
AcDbLine
 10
-7.999999
 20
5.633876
 30
0.0
 11
-7.999999
 21
-5.63407
 31
0.0
  0
LINE
  5
B8
100
AcDbEntity
  8
0
370
    -3
  6
Continuous
100
AcDbLine
 10
0.0
 20
6.5
 30
0.0
 11
-7.499999
 21
6.5
 31
0.0
  0
LINE
  5
B9
100
AcDbEntity
  8
0
370
    -3
  6
Continuous
100
AcDbLine
 10
0.0
 20
-6.5
 30
0.0
 11
-7.499998
 21
-6.5
 31
0.0
  0
LINE
  5
BA
100
AcDbEntity
  8
0
370
    -3
  6
Continuous
100
AcDbLine
 10
-7.499999
 20
6.5
 30
0.0
 11
-7.999999
 21
5.633876
 31
0.0
  0
LINE
  5
BB
100
AcDbEntity
  8
0
370
    -3
  6
Continuous
100
AcDbLine
 10
-7.499998
 20
-6.499999
 30
0.0
 11
-7.999999
 21
-5.63407
 31
0.0
  0
LINE
  5
BC
100
AcDbEntity
  8
0
370
    -3
  6
Continuous
100
AcDbLine
 10
-7.499999
 20
6.5
 30
0.0
 11
-7.499999
 21
-6.5
 31
0.0
  0
ENDBLK
  5
BD
100
AcDbEntity
  8
0
100
AcDbBlockEnd
  0
BLOCK
  5
C0
100
AcDbEntity
  8
0
100
AcDbBlockBegin
  2
ZU_SYM__USERS_HOME_SYMBOL_POO_SYM_B20_00001-1
 70
    64
 10
0.0
 20
0.0
 30
0.0
  3
ZU_SYM__USERS_HOME_SYMBOL_POO_SYM_B20_00001-1
  1

  0
POINT
  5
C1
100
AcDbEntity
  8
0
370
    -3
  6
Continuous
100
AcDbPoint
 10
0.0
 20
0.0
 30
0.0
  0
LINE
  5
C2
100
AcDbEntity
  8
0
370
    -3
  6
Continuous
100
AcDbLine
 10
0.0
 20
-6.5
 30
0.0
 11
0.0
 21
6.5
 31
0.0
  0
LINE
  5
C3
100
AcDbEntity
  8
0
370
    -3
  6
Continuous
100
AcDbLine
 10
-7.999999
 20
5.633876
 30
0.0
 11
-7.999999
 21
-5.63407
 31
0.0
  0
LINE
  5
C4
100
AcDbEntity
  8
0
370
    -3
  6
Continuous
100
AcDbLine
 10
0.0
 20
6.5
 30
0.0
 11
-7.499999
 21
6.5
 31
0.0
  0
LINE
  5
C5
100
AcDbEntity
  8
0
370
    -3
  6
Continuous
100
AcDbLine
 10
0.0
 20
-6.5
 30
0.0
 11
-7.499998
 21
-6.5
 31
0.0
  0
LINE
  5
C6
100
AcDbEntity
  8
0
370
    -3
  6
Continuous
100
AcDbLine
 10
-7.499999
 20
6.5
 30
0.0
 11
-7.999999
 21
5.633876
 31
0.0
  0
LINE
  5
C7
100
AcDbEntity
  8
0
370
    -3
  6
Continuous
100
AcDbLine
 10
-7.499998
 20
-6.499999
 30
0.0
 11
-7.999999
 21
-5.63407
 31
0.0
  0
LINE
  5
C8
100
AcDbEntity
  8
0
370
    -3
  6
Continuous
100
AcDbLine
 10
-7.499999
 20
6.5
 30
0.0
 11
-7.499999
 21
-6.5
 31
0.0
  0
ENDBLK
  5
C9
100
AcDbEntity
  8
0
100
AcDbBlockEnd
  0
BLOCK
  5
CE
100
AcDbEntity
  8
0
100
AcDbBlockBegin
  2
ZU_SYM__USERS_HOME_SYMBOL_POO_SYM_B20_00002-1
 70
    64
 10
0.0
 20
0.0
 30
0.0
  3
ZU_SYM__USERS_HOME_SYMBOL_POO_SYM_B20_00002-1
  1

  0
POINT
  5
CF
100
AcDbEntity
  8
0
370
    -3
  6
Continuous
100
AcDbPoint
 10
0.0
 20
0.0
 30
0.0
  0
LINE
  5
D0
100
AcDbEntity
  8
0
370
    -3
  6
Continuous
100
AcDbLine
 10
0.0
 20
5.0
 30
0.0
 11
0.0
 21
-5.0
 31
0.0
  0
LINE
  5
D1
100
AcDbEntity
  8
0
370
    -3
  6
Continuous
100
AcDbLine
 10
-6.0
 20
-5.0
 30
0.0
 11
-6.0
 21
5.0
 31
0.0
  0
LINE
  5
D2
100
AcDbEntity
  8
0
370
    -3
  6
Continuous
100
AcDbLine
 10
0.0
 20
5.0
 30
0.0
 11
-6.0
 21
5.0
 31
0.0
  0
LINE
  5
D3
100
AcDbEntity
  8
0
370
    -3
  6
Continuous
100
AcDbLine
 10
0.0
 20
-5.0
 30
0.0
 11
-6.0
 21
-5.0
 31
0.0
  0
ENDBLK
  5
D4
100
AcDbEntity
  8
0
100
AcDbBlockEnd
  0
BLOCK
  5
D7
100
AcDbEntity
  8
0
100
AcDbBlockBegin
  2
ZU_SYM__USERS_HOME_SYMBOL_POO_SYM_B20_00003-1
 70
    64
 10
0.0
 20
0.0
 30
0.0
  3
ZU_SYM__USERS_HOME_SYMBOL_POO_SYM_B20_00003-1
  1

  0
POINT
  5
D8
100
AcDbEntity
  8
0
370
    -3
  6
Continuous
100
AcDbPoint
 10
0.0
 20
0.0
 30
0.0
  0
LINE
  5
D9
100
AcDbEntity
  8
0
370
    -3
  6
Continuous
100
AcDbLine
 10
0.0
 20
-6.5
 30
0.0
 11
0.0
 21
6.5
 31
0.0
  0
LINE
  5
DA
100
AcDbEntity
  8
0
370
    -3
  6
Continuous
100
AcDbLine
 10
-7.999999
 20
5.633876
 30
0.0
 11
-7.999999
 21
-5.63407
 31
0.0
  0
LINE
  5
DB
100
AcDbEntity
  8
0
370
    -3
  6
Continuous
100
AcDbLine
 10
0.0
 20
6.5
 30
0.0
 11
-7.499999
 21
6.5
 31
0.0
  0
LINE
  5
DC
100
AcDbEntity
  8
0
370
    -3
  6
Continuous
100
AcDbLine
 10
0.0
 20
-6.5
 30
0.0
 11
-7.499998
 21
-6.5
 31
0.0
  0
LINE
  5
DD
100
AcDbEntity
  8
0
370
    -3
  6
Continuous
100
AcDbLine
 10
-7.499999
 20
6.5
 30
0.0
 11
-7.999999
 21
5.633876
 31
0.0
  0
LINE
  5
DE
100
AcDbEntity
  8
0
370
    -3
  6
Continuous
100
AcDbLine
 10
-7.499998
 20
-6.499999
 30
0.0
 11
-7.999999
 21
-5.63407
 31
0.0
  0
LINE
  5
DF
100
AcDbEntity
  8
0
370
    -3
  6
Continuous
100
AcDbLine
 10
-7.499999
 20
6.5
 30
0.0
 11
-7.499999
 21
-6.5
 31
0.0
  0
ENDBLK
  5
E0
100
AcDbEntity
  8
0
100
AcDbBlockEnd
  0
BLOCK
  5
E3
100
AcDbEntity
  8
0
100
AcDbBlockBegin
  2
ZU_SYM__USERS_HOME_SYMBOL_POO_SYM_B20_00004-1
 70
    64
 10
0.0
 20
0.0
 30
0.0
  3
ZU_SYM__USERS_HOME_SYMBOL_POO_SYM_B20_00004-1
  1

  0
POINT
  5
E4
100
AcDbEntity
  8
0
370
    -3
  6
Continuous
100
AcDbPoint
 10
0.0
 20
0.0
 30
0.0
  0
LINE
  5
E5
100
AcDbEntity
  8
0
370
    -3
  6
Continuous
100
AcDbLine
 10
0.0
 20
-6.5
 30
0.0
 11
0.0
 21
6.5
 31
0.0
  0
LINE
  5
E6
100
AcDbEntity
  8
0
370
    -3
  6
Continuous
100
AcDbLine
 10
-7.999999
 20
5.633876
 30
0.0
 11
-7.999999
 21
-5.63407
 31
0.0
  0
LINE
  5
E7
100
AcDbEntity
  8
0
370
    -3
  6
Continuous
100
AcDbLine
 10
0.0
 20
6.5
 30
0.0
 11
-7.499999
 21
6.5
 31
0.0
  0
LINE
  5
E8
100
AcDbEntity
  8
0
370
    -3
  6
Continuous
100
AcDbLine
 10
0.0
 20
-6.5
 30
0.0
 11
-7.499998
 21
-6.5
 31
0.0
  0
LINE
  5
E9
100
AcDbEntity
  8
0
370
    -3
  6
Continuous
100
AcDbLine
 10
-7.499999
 20
6.5
 30
0.0
 11
-7.999999
 21
5.633876
 31
0.0
  0
LINE
  5
EA
100
AcDbEntity
  8
0
370
    -3
  6
Continuous
100
AcDbLine
 10
-7.499998
 20
-6.499999
 30
0.0
 11
-7.999999
 21
-5.63407
 31
0.0
  0
LINE
  5
EB
100
AcDbEntity
  8
0
370
    -3
  6
Continuous
100
AcDbLine
 10
-7.499999
 20
6.5
 30
0.0
 11
-7.499999
 21
-6.5
 31
0.0
  0
ENDBLK
  5
EC
100
AcDbEntity
  8
0
100
AcDbBlockEnd
  0
BLOCK
  5
EF
100
AcDbEntity
  8
0
100
AcDbBlockBegin
  2
ZU_SYM__USERS_HOME_SYMBOL_POO_SYM_B20_00005-1
 70
    64
 10
0.0
 20
0.0
 30
0.0
  3
ZU_SYM__USERS_HOME_SYMBOL_POO_SYM_B20_00005-1
  1

  0
POINT
  5
F0
100
AcDbEntity
  8
0
370
    -3
  6
Continuous
100
AcDbPoint
 10
0.0
 20
0.0
 30
0.0
  0
LINE
  5
F1
100
AcDbEntity
  8
0
370
    -3
  6
Continuous
100
AcDbLine
 10
0.0
 20
-6.5
 30
0.0
 11
0.0
 21
6.5
 31
0.0
  0
LINE
  5
F2
100
AcDbEntity
  8
0
370
    -3
  6
Continuous
100
AcDbLine
 10
-7.999999
 20
5.633876
 30
0.0
 11
-7.999999
 21
-5.63407
 31
0.0
  0
LINE
  5
F3
100
AcDbEntity
  8
0
370
    -3
  6
Continuous
100
AcDbLine
 10
0.0
 20
6.5
 30
0.0
 11
-7.499999
 21
6.5
 31
0.0
  0
LINE
  5
F4
100
AcDbEntity
  8
0
370
    -3
  6
Continuous
100
AcDbLine
 10
0.0
 20
-6.5
 30
0.0
 11
-7.499998
 21
-6.5
 31
0.0
  0
LINE
  5
F5
100
AcDbEntity
  8
0
370
    -3
  6
Continuous
100
AcDbLine
 10
-7.499999
 20
6.5
 30
0.0
 11
-7.999999
 21
5.633876
 31
0.0
  0
LINE
  5
F6
100
AcDbEntity
  8
0
370
    -3
  6
Continuous
100
AcDbLine
 10
-7.499998
 20
-6.499999
 30
0.0
 11
-7.999999
 21
-5.63407
 31
0.0
  0
LINE
  5
F7
100
AcDbEntity
  8
0
370
    -3
  6
Continuous
100
AcDbLine
 10
-7.499999
 20
6.5
 30
0.0
 11
-7.499999
 21
-6.5
 31
0.0
  0
ENDBLK
  5
F8
100
AcDbEntity
  8
0
100
AcDbBlockEnd
  0
BLOCK
  5
FB
100
AcDbEntity
  8
0
100
AcDbBlockBegin
  2
ZU_SYM__USERS_HOME_SYMBOL_POO_SYM_B20_00006-1
 70
    64
 10
0.0
 20
0.0
 30
0.0
  3
ZU_SYM__USERS_HOME_SYMBOL_POO_SYM_B20_00006-1
  1

  0
POINT
  5
FC
100
AcDbEntity
  8
0
370
    -3
  6
Continuous
100
AcDbPoint
 10
0.0
 20
0.0
 30
0.0
  0
LINE
  5
FD
100
AcDbEntity
  8
0
370
    -3
  6
Continuous
100
AcDbLine
 10
0.0
 20
5.0
 30
0.0
 11
0.0
 21
-5.0
 31
0.0
  0
LINE
  5
FE
100
AcDbEntity
  8
0
370
    -3
  6
Continuous
100
AcDbLine
 10
-6.0
 20
-5.0
 30
0.0
 11
-6.0
 21
5.0
 31
0.0
  0
LINE
  5
FF
100
AcDbEntity
  8
0
370
    -3
  6
Continuous
100
AcDbLine
 10
0.0
 20
5.0
 30
0.0
 11
-6.0
 21
5.0
 31
0.0
  0
LINE
  5
100
100
AcDbEntity
  8
0
370
    -3
  6
Continuous
100
AcDbLine
 10
0.0
 20
-5.0
 30
0.0
 11
-6.0
 21
-5.0
 31
0.0
  0
ENDBLK
  5
101
100
AcDbEntity
  8
0
100
AcDbBlockEnd
  0
BLOCK
  5
193
100
AcDbEntity
  8
0
100
AcDbBlockBegin
  2
ZU_SYM__USERS_HOME_SYMBOL_STD_SYM_B02_-1
 70
    64
 10
0.0
 20
0.0
 30
0.0
  3
ZU_SYM__USERS_HOME_SYMBOL_STD_SYM_B02_-1
  1

  0
ARC
  5
194
100
AcDbEntity
  8
0
370
    -3
  6
Continuous
100
AcDbCircle
 10
1.981663
 20
-0.000008
 30
0.0
 40
5.981662
100
AcDbArc
 50
150.999363
 51
209.000073
  0
ARC
  5
195
100
AcDbEntity
  8
0
370
    -3
  6
Continuous
100
AcDbCircle
 10
-2.269982
 20
4.325008
 30
0.0
 40
1.73
100
AcDbArc
 50
179.999745
 51
235.499786
  0
ARC
  5
196
100
AcDbEntity
  8
0
370
    -3
  6
Continuous
100
AcDbCircle
 10
-2.270018
 20
-4.32499
 30
0.0
 40
1.73
100
AcDbArc
 50
124.499759
 51
179.999745
  0
LINE
  5
197
100
AcDbEntity
  8
0
370
    -3
  6
Continuous
100
AcDbLine
 10
-3.249984
 20
2.900012
 30
0.0
 11
0.000013
 21
2.9
 31
0.0
  0
LINE
  5
198
100
AcDbEntity
  8
0
370
    -3
  6
Continuous
100
AcDbLine
 10
-3.250009
 20
-2.899986
 30
0.0
 11
-0.000013
 21
-2.9
 31
0.0
  0
LINE
  5
199
100
AcDbEntity
  8
0
370
    -3
  6
Continuous
100
AcDbLine
 10
0.000024
 20
5.749999
 30
0.0
 11
-0.000024
 21
-5.749999
 31
0.0
  0
LINE
  5
19A
100
AcDbEntity
  8
0
370
    -3
  6
Continuous
100
AcDbLine
 10
-3.249972
 20
5.750006
 30
0.0
 11
0.000028
 21
5.749993
 31
0.0
  0
LINE
  5
19B
100
AcDbEntity
  8
0
370
    -3
  6
Continuous
100
AcDbLine
 10
-3.999973
 20
4.900009
 30
0.0
 11
-3.24997
 21
5.750007
 31
0.0
  0
LINE
  5
19C
100
AcDbEntity
  8
0
370
    -3
  6
Continuous
100
AcDbLine
 10
-4.000015
 20
-4.899978
 30
0.0
 11
-3.999974
 21
4.900012
 31
0.0
  0
LINE
  5
19D
100
AcDbEntity
  8
0
370
    -3
  6
Continuous
100
AcDbLine
 10
-3.250024
 20
-5.749987
 30
0.0
 11
-4.00002
 21
-4.899982
 31
0.0
  0
LINE
  5
19E
100
AcDbEntity
  8
0
370
    -3
  6
Continuous
100
AcDbLine
 10
-0.000027
 20
-5.749995
 30
0.0
 11
-3.250021
 21
-5.749982
 31
0.0
  0
POINT
  5
19F
100
AcDbEntity
  8
0
370
    -3
  6
Continuous
100
AcDbPoint
 10
0.0
 20
0.0
 30
0.0
  0
ENDBLK
  5
1A0
100
AcDbEntity
  8
0
100
AcDbBlockEnd
  0
BLOCK
  5
1A6
100
AcDbEntity
  8
0
100
AcDbBlockBegin
  2
ZU_SYM__USERS_HOME_SYMBOL_STD_SYM_B02_00007-1
 70
    64
 10
0.0
 20
0.0
 30
0.0
  3
ZU_SYM__USERS_HOME_SYMBOL_STD_SYM_B02_00007-1
  1

  0
ARC
  5
1A7
100
AcDbEntity
  8
0
370
    -3
  6
Continuous
100
AcDbCircle
 10
1.981663
 20
-0.000008
 30
0.0
 40
5.981662
100
AcDbArc
 50
150.999363
 51
209.000073
  0
ARC
  5
1A8
100
AcDbEntity
  8
0
370
    -3
  6
Continuous
100
AcDbCircle
 10
-2.269982
 20
4.325008
 30
0.0
 40
1.73
100
AcDbArc
 50
179.999745
 51
235.499786
  0
ARC
  5
1A9
100
AcDbEntity
  8
0
370
    -3
  6
Continuous
100
AcDbCircle
 10
-2.270018
 20
-4.32499
 30
0.0
 40
1.73
100
AcDbArc
 50
124.499759
 51
179.999745
  0
LINE
  5
1AA
100
AcDbEntity
  8
0
370
    -3
  6
Continuous
100
AcDbLine
 10
-3.249984
 20
2.900012
 30
0.0
 11
0.000013
 21
2.9
 31
0.0
  0
LINE
  5
1AB
100
AcDbEntity
  8
0
370
    -3
  6
Continuous
100
AcDbLine
 10
-3.250009
 20
-2.899986
 30
0.0
 11
-0.000013
 21
-2.9
 31
0.0
  0
LINE
  5
1AC
100
AcDbEntity
  8
0
370
    -3
  6
Continuous
100
AcDbLine
 10
0.000024
 20
5.749999
 30
0.0
 11
-0.000024
 21
-5.749999
 31
0.0
  0
LINE
  5
1AD
100
AcDbEntity
  8
0
370
    -3
  6
Continuous
100
AcDbLine
 10
-3.249972
 20
5.750006
 30
0.0
 11
0.000028
 21
5.749993
 31
0.0
  0
LINE
  5
1AE
100
AcDbEntity
  8
0
370
    -3
  6
Continuous
100
AcDbLine
 10
-3.999973
 20
4.900009
 30
0.0
 11
-3.24997
 21
5.750007
 31
0.0
  0
LINE
  5
1AF
100
AcDbEntity
  8
0
370
    -3
  6
Continuous
100
AcDbLine
 10
-4.000015
 20
-4.899978
 30
0.0
 11
-3.999974
 21
4.900012
 31
0.0
  0
LINE
  5
1B0
100
AcDbEntity
  8
0
370
    -3
  6
Continuous
100
AcDbLine
 10
-3.250024
 20
-5.749987
 30
0.0
 11
-4.00002
 21
-4.899982
 31
0.0
  0
LINE
  5
1B1
100
AcDbEntity
  8
0
370
    -3
  6
Continuous
100
AcDbLine
 10
-0.000027
 20
-5.749995
 30
0.0
 11
-3.250021
 21
-5.749982
 31
0.0
  0
POINT
  5
1B2
100
AcDbEntity
  8
0
370
    -3
  6
Continuous
100
AcDbPoint
 10
0.0
 20
0.0
 30
0.0
  0
ENDBLK
  5
1B3
100
AcDbEntity
  8
0
100
AcDbBlockEnd
  0
BLOCK
  5
1B6
100
AcDbEntity
  8
0
100
AcDbBlockBegin
  2
ZU_SYM__USERS_HOME_SYMBOL_POO_SYM_B20_00008-1
 70
    64
 10
0.0
 20
0.0
 30
0.0
  3
ZU_SYM__USERS_HOME_SYMBOL_POO_SYM_B20_00008-1
  1

  0
POINT
  5
1B7
100
AcDbEntity
  8
0
370
    -3
  6
Continuous
100
AcDbPoint
 10
0.0
 20
0.0
 30
0.0
  0
LINE
  5
1B8
100
AcDbEntity
  8
0
370
    -3
  6
Continuous
100
AcDbLine
 10
0.0
 20
-6.5
 30
0.0
 11
0.0
 21
6.5
 31
0.0
  0
LINE
  5
1B9
100
AcDbEntity
  8
0
370
    -3
  6
Continuous
100
AcDbLine
 10
-7.999999
 20
5.633876
 30
0.0
 11
-7.999999
 21
-5.63407
 31
0.0
  0
LINE
  5
1BA
100
AcDbEntity
  8
0
370
    -3
  6
Continuous
100
AcDbLine
 10
0.0
 20
6.5
 30
0.0
 11
-7.499999
 21
6.5
 31
0.0
  0
LINE
  5
1BB
100
AcDbEntity
  8
0
370
    -3
  6
Continuous
100
AcDbLine
 10
0.0
 20
-6.5
 30
0.0
 11
-7.499998
 21
-6.5
 31
0.0
  0
LINE
  5
1BC
100
AcDbEntity
  8
0
370
    -3
  6
Continuous
100
AcDbLine
 10
-7.499999
 20
6.5
 30
0.0
 11
-7.999999
 21
5.633876
 31
0.0
  0
LINE
  5
1BD
100
AcDbEntity
  8
0
370
    -3
  6
Continuous
100
AcDbLine
 10
-7.499998
 20
-6.499999
 30
0.0
 11
-7.999999
 21
-5.63407
 31
0.0
  0
LINE
  5
1BE
100
AcDbEntity
  8
0
370
    -3
  6
Continuous
100
AcDbLine
 10
-7.499999
 20
6.5
 30
0.0
 11
-7.499999
 21
-6.5
 31
0.0
  0
ENDBLK
  5
1BF
100
AcDbEntity
  8
0
100
AcDbBlockEnd
  0
BLOCK
  5
1C2
100
AcDbEntity
  8
0
100
AcDbBlockBegin
  2
ZU_SYM__USERS_HOME_SYMBOL_POO_SYM_B20_00009-1
 70
    64
 10
0.0
 20
0.0
 30
0.0
  3
ZU_SYM__USERS_HOME_SYMBOL_POO_SYM_B20_00009-1
  1

  0
POINT
  5
1C3
100
AcDbEntity
  8
0
370
    -3
  6
Continuous
100
AcDbPoint
 10
0.0
 20
0.0
 30
0.0
  0
LINE
  5
1C4
100
AcDbEntity
  8
0
370
    -3
  6
Continuous
100
AcDbLine
 10
0.0
 20
-6.5
 30
0.0
 11
0.0
 21
6.5
 31
0.0
  0
LINE
  5
1C5
100
AcDbEntity
  8
0
370
    -3
  6
Continuous
100
AcDbLine
 10
-7.999999
 20
5.633876
 30
0.0
 11
-7.999999
 21
-5.63407
 31
0.0
  0
LINE
  5
1C6
100
AcDbEntity
  8
0
370
    -3
  6
Continuous
100
AcDbLine
 10
0.0
 20
6.5
 30
0.0
 11
-7.499999
 21
6.5
 31
0.0
  0
LINE
  5
1C7
100
AcDbEntity
  8
0
370
    -3
  6
Continuous
100
AcDbLine
 10
0.0
 20
-6.5
 30
0.0
 11
-7.499998
 21
-6.5
 31
0.0
  0
LINE
  5
1C8
100
AcDbEntity
  8
0
370
    -3
  6
Continuous
100
AcDbLine
 10
-7.499999
 20
6.5
 30
0.0
 11
-7.999999
 21
5.633876
 31
0.0
  0
LINE
  5
1C9
100
AcDbEntity
  8
0
370
    -3
  6
Continuous
100
AcDbLine
 10
-7.499998
 20
-6.499999
 30
0.0
 11
-7.999999
 21
-5.63407
 31
0.0
  0
LINE
  5
1CA
100
AcDbEntity
  8
0
370
    -3
  6
Continuous
100
AcDbLine
 10
-7.499999
 20
6.5
 30
0.0
 11
-7.499999
 21
-6.5
 31
0.0
  0
ENDBLK
  5
1CB
100
AcDbEntity
  8
0
100
AcDbBlockEnd
  0
BLOCK
  5
1E5
100
AcDbEntity
  8
0
100
AcDbBlockBegin
  2
ZU_SYM__USERS_HOME_SYMBOL_POO_SYM_B20_00010-1
 70
    64
 10
0.0
 20
0.0
 30
0.0
  3
ZU_SYM__USERS_HOME_SYMBOL_POO_SYM_B20_00010-1
  1

  0
POINT
  5
1E6
100
AcDbEntity
  8
0
370
    -3
  6
Continuous
100
AcDbPoint
 10
0.0
 20
0.0
 30
0.0
  0
LINE
  5
1E7
100
AcDbEntity
  8
0
370
    -3
  6
Continuous
100
AcDbLine
 10
0.0
 20
-6.5
 30
0.0
 11
0.0
 21
6.5
 31
0.0
  0
LINE
  5
1E8
100
AcDbEntity
  8
0
370
    -3
  6
Continuous
100
AcDbLine
 10
-7.999999
 20
5.633876
 30
0.0
 11
-7.999999
 21
-5.63407
 31
0.0
  0
LINE
  5
1E9
100
AcDbEntity
  8
0
370
    -3
  6
Continuous
100
AcDbLine
 10
0.0
 20
6.5
 30
0.0
 11
-7.499999
 21
6.5
 31
0.0
  0
LINE
  5
1EA
100
AcDbEntity
  8
0
370
    -3
  6
Continuous
100
AcDbLine
 10
0.0
 20
-6.5
 30
0.0
 11
-7.499998
 21
-6.5
 31
0.0
  0
LINE
  5
1EB
100
AcDbEntity
  8
0
370
    -3
  6
Continuous
100
AcDbLine
 10
-7.499999
 20
6.5
 30
0.0
 11
-7.999999
 21
5.633876
 31
0.0
  0
LINE
  5
1EC
100
AcDbEntity
  8
0
370
    -3
  6
Continuous
100
AcDbLine
 10
-7.499998
 20
-6.499999
 30
0.0
 11
-7.999999
 21
-5.63407
 31
0.0
  0
LINE
  5
1ED
100
AcDbEntity
  8
0
370
    -3
  6
Continuous
100
AcDbLine
 10
-7.499999
 20
6.5
 30
0.0
 11
-7.499999
 21
-6.5
 31
0.0
  0
ENDBLK
  5
1EE
100
AcDbEntity
  8
0
100
AcDbBlockEnd
  0
BLOCK
  5
1F1
100
AcDbEntity
  8
0
100
AcDbBlockBegin
  2
ZU_SYM__USERS_HOME_SYMBOL_POO_SYM_B20_00011-1
 70
    64
 10
0.0
 20
0.0
 30
0.0
  3
ZU_SYM__USERS_HOME_SYMBOL_POO_SYM_B20_00011-1
  1

  0
POINT
  5
1F2
100
AcDbEntity
  8
0
370
    -3
  6
Continuous
100
AcDbPoint
 10
0.0
 20
0.0
 30
0.0
  0
LINE
  5
1F3
100
AcDbEntity
  8
0
370
    -3
  6
Continuous
100
AcDbLine
 10
0.0
 20
-6.5
 30
0.0
 11
0.0
 21
6.5
 31
0.0
  0
LINE
  5
1F4
100
AcDbEntity
  8
0
370
    -3
  6
Continuous
100
AcDbLine
 10
-7.999999
 20
5.633876
 30
0.0
 11
-7.999999
 21
-5.63407
 31
0.0
  0
LINE
  5
1F5
100
AcDbEntity
  8
0
370
    -3
  6
Continuous
100
AcDbLine
 10
0.0
 20
6.5
 30
0.0
 11
-7.499999
 21
6.5
 31
0.0
  0
LINE
  5
1F6
100
AcDbEntity
  8
0
370
    -3
  6
Continuous
100
AcDbLine
 10
0.0
 20
-6.5
 30
0.0
 11
-7.499998
 21
-6.5
 31
0.0
  0
LINE
  5
1F7
100
AcDbEntity
  8
0
370
    -3
  6
Continuous
100
AcDbLine
 10
-7.499999
 20
6.5
 30
0.0
 11
-7.999999
 21
5.633876
 31
0.0
  0
LINE
  5
1F8
100
AcDbEntity
  8
0
370
    -3
  6
Continuous
100
AcDbLine
 10
-7.499998
 20
-6.499999
 30
0.0
 11
-7.999999
 21
-5.63407
 31
0.0
  0
LINE
  5
1F9
100
AcDbEntity
  8
0
370
    -3
  6
Continuous
100
AcDbLine
 10
-7.499999
 20
6.5
 30
0.0
 11
-7.499999
 21
-6.5
 31
0.0
  0
ENDBLK
  5
1FA
100
AcDbEntity
  8
0
100
AcDbBlockEnd
  0
BLOCK
  5
284
100
AcDbEntity
  8
0
100
AcDbBlockBegin
  2
ZU_SYM__USERS_HOME_SYMBOL_STD_SYM_B02_00012-1
 70
    64
 10
0.0
 20
0.0
 30
0.0
  3
ZU_SYM__USERS_HOME_SYMBOL_STD_SYM_B02_00012-1
  1

  0
POINT
  5
285
100
AcDbEntity
  8
0
370
    -3
  6
Continuous
100
AcDbPoint
 10
0.0
 20
0.0
 30
0.0
  0
LINE
  5
286
100
AcDbEntity
  8
0
370
    -3
  6
Continuous
100
AcDbLine
 10
0.010171
 20
-5.767623
 30
0.0
 11
-4.979645
 21
-2.874994
 31
0.0
  0
LINE
  5
287
100
AcDbEntity
  8
0
370
    -3
  6
Continuous
100
AcDbLine
 10
-4.979648
 20
-2.874995
 30
0.0
 11
-4.989821
 21
2.89263
 31
0.0
  0
LINE
  5
288
100
AcDbEntity
  8
0
370
    -3
  6
Continuous
100
AcDbLine
 10
-4.989817
 20
2.892629
 30
0.0
 11
-0.010171
 21
5.767622
 31
0.0
  0
LINE
  5
289
100
AcDbEntity
  8
0
370
    -3
  6
Continuous
100
AcDbLine
 10
-0.010171
 20
5.767623
 30
0.0
 11
4.979645
 21
2.874994
 31
0.0
  0
LINE
  5
28A
100
AcDbEntity
  8
0
370
    -3
  6
Continuous
100
AcDbLine
 10
4.979648
 20
2.874995
 30
0.0
 11
4.989821
 21
-2.89263
 31
0.0
  0
LINE
  5
28B
100
AcDbEntity
  8
0
370
    -3
  6
Continuous
100
AcDbLine
 10
4.989817
 20
-2.892629
 30
0.0
 11
0.010171
 21
-5.767622
 31
0.0
  0
CIRCLE
  5
28C
100
AcDbEntity
  8
0
370
    -3
  6
Continuous
100
AcDbCircle
 10
0.0
 20
0.0
 30
0.0
 40
5.0
  0
ENDBLK
  5
28D
100
AcDbEntity
  8
0
100
AcDbBlockEnd
  0
BLOCK
  5
290
100
AcDbEntity
  8
0
100
AcDbBlockBegin
  2
ZU_SYM__USERS_HOME_SYMBOL_STD_SYM_B02_00013-1
 70
    64
 10
0.0
 20
0.0
 30
0.0
  3
ZU_SYM__USERS_HOME_SYMBOL_STD_SYM_B02_00013-1
  1

  0
POINT
  5
291
100
AcDbEntity
  8
0
370
    -3
  6
Continuous
100
AcDbPoint
 10
0.0
 20
0.0
 30
0.0
  0
LINE
  5
292
100
AcDbEntity
  8
0
370
    -3
  6
Continuous
100
AcDbLine
 10
0.010171
 20
-5.767623
 30
0.0
 11
-4.979645
 21
-2.874994
 31
0.0
  0
LINE
  5
293
100
AcDbEntity
  8
0
370
    -3
  6
Continuous
100
AcDbLine
 10
-4.979648
 20
-2.874995
 30
0.0
 11
-4.989821
 21
2.89263
 31
0.0
  0
LINE
  5
294
100
AcDbEntity
  8
0
370
    -3
  6
Continuous
100
AcDbLine
 10
-4.989817
 20
2.892629
 30
0.0
 11
-0.010171
 21
5.767622
 31
0.0
  0
LINE
  5
295
100
AcDbEntity
  8
0
370
    -3
  6
Continuous
100
AcDbLine
 10
-0.010171
 20
5.767623
 30
0.0
 11
4.979645
 21
2.874994
 31
0.0
  0
LINE
  5
296
100
AcDbEntity
  8
0
370
    -3
  6
Continuous
100
AcDbLine
 10
4.979648
 20
2.874995
 30
0.0
 11
4.989821
 21
-2.89263
 31
0.0
  0
LINE
  5
297
100
AcDbEntity
  8
0
370
    -3
  6
Continuous
100
AcDbLine
 10
4.989817
 20
-2.892629
 30
0.0
 11
0.010171
 21
-5.767622
 31
0.0
  0
CIRCLE
  5
298
100
AcDbEntity
  8
0
370
    -3
  6
Continuous
100
AcDbCircle
 10
0.0
 20
0.0
 30
0.0
 40
5.0
  0
ENDBLK
  5
299
100
AcDbEntity
  8
0
100
AcDbBlockEnd
  0
BLOCK
  5
29C
100
AcDbEntity
  8
0
100
AcDbBlockBegin
  2
ZU_SYM__USERS_HOME_SYMBOL_POO_SYM_B20_00014-1
 70
    64
 10
0.0
 20
0.0
 30
0.0
  3
ZU_SYM__USERS_HOME_SYMBOL_POO_SYM_B20_00014-1
  1

  0
CIRCLE
  5
29D
100
AcDbEntity
  8
0
370
    -3
  6
Continuous
100
AcDbCircle
 10
0.0
 20
0.0
 30
0.0
 40
5.633955
  0
CIRCLE
  5
29E
100
AcDbEntity
  8
0
370
    -3
  6
Continuous
100
AcDbCircle
 10
0.0
 20
0.0
 30
0.0
 40
6.5
  0
POINT
  5
29F
100
AcDbEntity
  8
0
370
    -3
  6
Continuous
100
AcDbPoint
 10
0.0
 20
0.0
 30
0.0
  0
LINE
  5
2A0
100
AcDbEntity
  8
0
370
    -3
  6
Continuous
100
AcDbLine
 10
-2.999997
 20
-1.732046
 30
0.0
 11
-2.999998
 21
1.732052
 31
0.0
  0
LINE
  5
2A1
100
AcDbEntity
  8
0
370
    -3
  6
Continuous
100
AcDbLine
 10
2.999997
 20
1.732047
 30
0.0
 11
2.999998
 21
-1.732051
 31
0.0
  0
LINE
  5
2A2
100
AcDbEntity
  8
0
370
    -3
  6
Continuous
100
AcDbLine
 10
0.000007
 20
3.464097
 30
0.0
 11
-2.999998
 21
1.732052
 31
0.0
  0
LINE
  5
2A3
100
AcDbEntity
  8
0
370
    -3
  6
Continuous
100
AcDbLine
 10
2.999998
 20
-1.732051
 30
0.0
 11
-0.000004
 21
-3.464098
 31
0.0
  0
LINE
  5
2A4
100
AcDbEntity
  8
0
370
    -3
  6
Continuous
100
AcDbLine
 10
0.000007
 20
3.464097
 30
0.0
 11
2.999997
 21
1.732047
 31
0.0
  0
LINE
  5
2A5
100
AcDbEntity
  8
0
370
    -3
  6
Continuous
100
AcDbLine
 10
-0.000005
 20
-3.464098
 30
0.0
 11
-2.999998
 21
-1.732046
 31
0.0
  0
ENDBLK
  5
2A6
100
AcDbEntity
  8
0
100
AcDbBlockEnd
  0
BLOCK
  5
2A9
100
AcDbEntity
  8
0
100
AcDbBlockBegin
  2
ZU_SYM__USERS_HOME_SYMBOL_POO_SYM_B20_00015-1
 70
    64
 10
0.0
 20
0.0
 30
0.0
  3
ZU_SYM__USERS_HOME_SYMBOL_POO_SYM_B20_00015-1
  1

  0
CIRCLE
  5
2AA
100
AcDbEntity
  8
0
370
    -3
  6
Continuous
100
AcDbCircle
 10
0.0
 20
0.0
 30
0.0
 40
5.633955
  0
CIRCLE
  5
2AB
100
AcDbEntity
  8
0
370
    -3
  6
Continuous
100
AcDbCircle
 10
0.0
 20
0.0
 30
0.0
 40
6.5
  0
POINT
  5
2AC
100
AcDbEntity
  8
0
370
    -3
  6
Continuous
100
AcDbPoint
 10
0.0
 20
0.0
 30
0.0
  0
LINE
  5
2AD
100
AcDbEntity
  8
0
370
    -3
  6
Continuous
100
AcDbLine
 10
-2.999997
 20
-1.732046
 30
0.0
 11
-2.999998
 21
1.732052
 31
0.0
  0
LINE
  5
2AE
100
AcDbEntity
  8
0
370
    -3
  6
Continuous
100
AcDbLine
 10
2.999997
 20
1.732047
 30
0.0
 11
2.999998
 21
-1.732051
 31
0.0
  0
LINE
  5
2AF
100
AcDbEntity
  8
0
370
    -3
  6
Continuous
100
AcDbLine
 10
0.000007
 20
3.464097
 30
0.0
 11
-2.999998
 21
1.732052
 31
0.0
  0
LINE
  5
2B0
100
AcDbEntity
  8
0
370
    -3
  6
Continuous
100
AcDbLine
 10
2.999998
 20
-1.732051
 30
0.0
 11
-0.000004
 21
-3.464098
 31
0.0
  0
LINE
  5
2B1
100
AcDbEntity
  8
0
370
    -3
  6
Continuous
100
AcDbLine
 10
0.000007
 20
3.464097
 30
0.0
 11
2.999997
 21
1.732047
 31
0.0
  0
LINE
  5
2B2
100
AcDbEntity
  8
0
370
    -3
  6
Continuous
100
AcDbLine
 10
-0.000005
 20
-3.464098
 30
0.0
 11
-2.999998
 21
-1.732046
 31
0.0
  0
ENDBLK
  5
2B3
100
AcDbEntity
  8
0
100
AcDbBlockEnd
  0
BLOCK
  5
2B6
100
AcDbEntity
  8
0
100
AcDbBlockBegin
  2
ZU_SYM__USERS_HOME_SYMBOL_POO_SYM_B20_00016-1
 70
    64
 10
0.0
 20
0.0
 30
0.0
  3
ZU_SYM__USERS_HOME_SYMBOL_POO_SYM_B20_00016-1
  1

  0
CIRCLE
  5
2B7
100
AcDbEntity
  8
0
370
    -3
  6
Continuous
100
AcDbCircle
 10
0.0
 20
0.0
 30
0.0
 40
5.633955
  0
CIRCLE
  5
2B8
100
AcDbEntity
  8
0
370
    -3
  6
Continuous
100
AcDbCircle
 10
0.0
 20
0.0
 30
0.0
 40
6.5
  0
POINT
  5
2B9
100
AcDbEntity
  8
0
370
    -3
  6
Continuous
100
AcDbPoint
 10
0.0
 20
0.0
 30
0.0
  0
LINE
  5
2BA
100
AcDbEntity
  8
0
370
    -3
  6
Continuous
100
AcDbLine
 10
-2.999997
 20
-1.732046
 30
0.0
 11
-2.999998
 21
1.732052
 31
0.0
  0
LINE
  5
2BB
100
AcDbEntity
  8
0
370
    -3
  6
Continuous
100
AcDbLine
 10
2.999997
 20
1.732047
 30
0.0
 11
2.999998
 21
-1.732051
 31
0.0
  0
LINE
  5
2BC
100
AcDbEntity
  8
0
370
    -3
  6
Continuous
100
AcDbLine
 10
0.000007
 20
3.464097
 30
0.0
 11
-2.999998
 21
1.732052
 31
0.0
  0
LINE
  5
2BD
100
AcDbEntity
  8
0
370
    -3
  6
Continuous
100
AcDbLine
 10
2.999998
 20
-1.732051
 30
0.0
 11
-0.000004
 21
-3.464098
 31
0.0
  0
LINE
  5
2BE
100
AcDbEntity
  8
0
370
    -3
  6
Continuous
100
AcDbLine
 10
0.000007
 20
3.464097
 30
0.0
 11
2.999997
 21
1.732047
 31
0.0
  0
LINE
  5
2BF
100
AcDbEntity
  8
0
370
    -3
  6
Continuous
100
AcDbLine
 10
-0.000005
 20
-3.464098
 30
0.0
 11
-2.999998
 21
-1.732046
 31
0.0
  0
ENDBLK
  5
2C0
100
AcDbEntity
  8
0
100
AcDbBlockEnd
  0
BLOCK
  5
2C3
100
AcDbEntity
  8
0
100
AcDbBlockBegin
  2
ZU_SYM__USERS_HOME_SYMBOL_POO_SYM_B20_00017-1
 70
    64
 10
0.0
 20
0.0
 30
0.0
  3
ZU_SYM__USERS_HOME_SYMBOL_POO_SYM_B20_00017-1
  1

  0
CIRCLE
  5
2C4
100
AcDbEntity
  8
0
370
    -3
  6
Continuous
100
AcDbCircle
 10
0.0
 20
0.0
 30
0.0
 40
5.633955
  0
CIRCLE
  5
2C5
100
AcDbEntity
  8
0
370
    -3
  6
Continuous
100
AcDbCircle
 10
0.0
 20
0.0
 30
0.0
 40
6.5
  0
POINT
  5
2C6
100
AcDbEntity
  8
0
370
    -3
  6
Continuous
100
AcDbPoint
 10
0.0
 20
0.0
 30
0.0
  0
LINE
  5
2C7
100
AcDbEntity
  8
0
370
    -3
  6
Continuous
100
AcDbLine
 10
-2.999997
 20
-1.732046
 30
0.0
 11
-2.999998
 21
1.732052
 31
0.0
  0
LINE
  5
2C8
100
AcDbEntity
  8
0
370
    -3
  6
Continuous
100
AcDbLine
 10
2.999997
 20
1.732047
 30
0.0
 11
2.999998
 21
-1.732051
 31
0.0
  0
LINE
  5
2C9
100
AcDbEntity
  8
0
370
    -3
  6
Continuous
100
AcDbLine
 10
0.000007
 20
3.464097
 30
0.0
 11
-2.999998
 21
1.732052
 31
0.0
  0
LINE
  5
2CA
100
AcDbEntity
  8
0
370
    -3
  6
Continuous
100
AcDbLine
 10
2.999998
 20
-1.732051
 30
0.0
 11
-0.000004
 21
-3.464098
 31
0.0
  0
LINE
  5
2CB
100
AcDbEntity
  8
0
370
    -3
  6
Continuous
100
AcDbLine
 10
0.000007
 20
3.464097
 30
0.0
 11
2.999997
 21
1.732047
 31
0.0
  0
LINE
  5
2CC
100
AcDbEntity
  8
0
370
    -3
  6
Continuous
100
AcDbLine
 10
-0.000005
 20
-3.464098
 30
0.0
 11
-2.999998
 21
-1.732046
 31
0.0
  0
ENDBLK
  5
2CD
100
AcDbEntity
  8
0
100
AcDbBlockEnd
  0
BLOCK
  5
2D0
100
AcDbEntity
  8
0
100
AcDbBlockBegin
  2
ZU_SYM__USERS_HOME_SYMBOL_POO_SYM_B20_00018-1
 70
    64
 10
0.0
 20
0.0
 30
0.0
  3
ZU_SYM__USERS_HOME_SYMBOL_POO_SYM_B20_00018-1
  1

  0
CIRCLE
  5
2D1
100
AcDbEntity
  8
0
370
    -3
  6
Continuous
100
AcDbCircle
 10
0.0
 20
0.0
 30
0.0
 40
5.633955
  0
CIRCLE
  5
2D2
100
AcDbEntity
  8
0
370
    -3
  6
Continuous
100
AcDbCircle
 10
0.0
 20
0.0
 30
0.0
 40
6.5
  0
POINT
  5
2D3
100
AcDbEntity
  8
0
370
    -3
  6
Continuous
100
AcDbPoint
 10
0.0
 20
0.0
 30
0.0
  0
LINE
  5
2D4
100
AcDbEntity
  8
0
370
    -3
  6
Continuous
100
AcDbLine
 10
-2.999997
 20
-1.732046
 30
0.0
 11
-2.999998
 21
1.732052
 31
0.0
  0
LINE
  5
2D5
100
AcDbEntity
  8
0
370
    -3
  6
Continuous
100
AcDbLine
 10
2.999997
 20
1.732047
 30
0.0
 11
2.999998
 21
-1.732051
 31
0.0
  0
LINE
  5
2D6
100
AcDbEntity
  8
0
370
    -3
  6
Continuous
100
AcDbLine
 10
0.000007
 20
3.464097
 30
0.0
 11
-2.999998
 21
1.732052
 31
0.0
  0
LINE
  5
2D7
100
AcDbEntity
  8
0
370
    -3
  6
Continuous
100
AcDbLine
 10
2.999998
 20
-1.732051
 30
0.0
 11
-0.000004
 21
-3.464098
 31
0.0
  0
LINE
  5
2D8
100
AcDbEntity
  8
0
370
    -3
  6
Continuous
100
AcDbLine
 10
0.000007
 20
3.464097
 30
0.0
 11
2.999997
 21
1.732047
 31
0.0
  0
LINE
  5
2D9
100
AcDbEntity
  8
0
370
    -3
  6
Continuous
100
AcDbLine
 10
-0.000005
 20
-3.464098
 30
0.0
 11
-2.999998
 21
-1.732046
 31
0.0
  0
ENDBLK
  5
2DA
100
AcDbEntity
  8
0
100
AcDbBlockEnd
  0
BLOCK
  5
2DD
100
AcDbEntity
  8
0
100
AcDbBlockBegin
  2
ZU_SYM__USERS_HOME_SYMBOL_POO_SYM_B20_00019-1
 70
    64
 10
0.0
 20
0.0
 30
0.0
  3
ZU_SYM__USERS_HOME_SYMBOL_POO_SYM_B20_00019-1
  1

  0
CIRCLE
  5
2DE
100
AcDbEntity
  8
0
370
    -3
  6
Continuous
100
AcDbCircle
 10
0.0
 20
0.0
 30
0.0
 40
5.633955
  0
CIRCLE
  5
2DF
100
AcDbEntity
  8
0
370
    -3
  6
Continuous
100
AcDbCircle
 10
0.0
 20
0.0
 30
0.0
 40
6.5
  0
POINT
  5
2E0
100
AcDbEntity
  8
0
370
    -3
  6
Continuous
100
AcDbPoint
 10
0.0
 20
0.0
 30
0.0
  0
LINE
  5
2E1
100
AcDbEntity
  8
0
370
    -3
  6
Continuous
100
AcDbLine
 10
-2.999997
 20
-1.732046
 30
0.0
 11
-2.999998
 21
1.732052
 31
0.0
  0
LINE
  5
2E2
100
AcDbEntity
  8
0
370
    -3
  6
Continuous
100
AcDbLine
 10
2.999997
 20
1.732047
 30
0.0
 11
2.999998
 21
-1.732051
 31
0.0
  0
LINE
  5
2E3
100
AcDbEntity
  8
0
370
    -3
  6
Continuous
100
AcDbLine
 10
0.000007
 20
3.464097
 30
0.0
 11
-2.999998
 21
1.732052
 31
0.0
  0
LINE
  5
2E4
100
AcDbEntity
  8
0
370
    -3
  6
Continuous
100
AcDbLine
 10
2.999998
 20
-1.732051
 30
0.0
 11
-0.000004
 21
-3.464098
 31
0.0
  0
LINE
  5
2E5
100
AcDbEntity
  8
0
370
    -3
  6
Continuous
100
AcDbLine
 10
0.000007
 20
3.464097
 30
0.0
 11
2.999997
 21
1.732047
 31
0.0
  0
LINE
  5
2E6
100
AcDbEntity
  8
0
370
    -3
  6
Continuous
100
AcDbLine
 10
-0.000005
 20
-3.464098
 30
0.0
 11
-2.999998
 21
-1.732046
 31
0.0
  0
ENDBLK
  5
2E7
100
AcDbEntity
  8
0
100
AcDbBlockEnd
  0
BLOCK
  5
2EA
100
AcDbEntity
  8
0
100
AcDbBlockBegin
  2
ZU_SYM__USERS_HOME_SYMBOL_POO_SYM_B20_00020-1
 70
    64
 10
0.0
 20
0.0
 30
0.0
  3
ZU_SYM__USERS_HOME_SYMBOL_POO_SYM_B20_00020-1
  1

  0
CIRCLE
  5
2EB
100
AcDbEntity
  8
0
370
    -3
  6
Continuous
100
AcDbCircle
 10
0.0
 20
0.0
 30
0.0
 40
5.633955
  0
CIRCLE
  5
2EC
100
AcDbEntity
  8
0
370
    -3
  6
Continuous
100
AcDbCircle
 10
0.0
 20
0.0
 30
0.0
 40
6.5
  0
POINT
  5
2ED
100
AcDbEntity
  8
0
370
    -3
  6
Continuous
100
AcDbPoint
 10
0.0
 20
0.0
 30
0.0
  0
LINE
  5
2EE
100
AcDbEntity
  8
0
370
    -3
  6
Continuous
100
AcDbLine
 10
-2.999997
 20
-1.732046
 30
0.0
 11
-2.999998
 21
1.732052
 31
0.0
  0
LINE
  5
2EF
100
AcDbEntity
  8
0
370
    -3
  6
Continuous
100
AcDbLine
 10
2.999997
 20
1.732047
 30
0.0
 11
2.999998
 21
-1.732051
 31
0.0
  0
LINE
  5
2F0
100
AcDbEntity
  8
0
370
    -3
  6
Continuous
100
AcDbLine
 10
0.000007
 20
3.464097
 30
0.0
 11
-2.999998
 21
1.732052
 31
0.0
  0
LINE
  5
2F1
100
AcDbEntity
  8
0
370
    -3
  6
Continuous
100
AcDbLine
 10
2.999998
 20
-1.732051
 30
0.0
 11
-0.000004
 21
-3.464098
 31
0.0
  0
LINE
  5
2F2
100
AcDbEntity
  8
0
370
    -3
  6
Continuous
100
AcDbLine
 10
0.000007
 20
3.464097
 30
0.0
 11
2.999997
 21
1.732047
 31
0.0
  0
LINE
  5
2F3
100
AcDbEntity
  8
0
370
    -3
  6
Continuous
100
AcDbLine
 10
-0.000005
 20
-3.464098
 30
0.0
 11
-2.999998
 21
-1.732046
 31
0.0
  0
ENDBLK
  5
2F4
100
AcDbEntity
  8
0
100
AcDbBlockEnd
  0
BLOCK
  5
2F7
100
AcDbEntity
  8
0
100
AcDbBlockBegin
  2
ZU_SYM__USERS_HOME_SYMBOL_POO_SYM_B20_00021-1
 70
    64
 10
0.0
 20
0.0
 30
0.0
  3
ZU_SYM__USERS_HOME_SYMBOL_POO_SYM_B20_00021-1
  1

  0
CIRCLE
  5
2F8
100
AcDbEntity
  8
0
370
    -3
  6
Continuous
100
AcDbCircle
 10
0.0
 20
0.0
 30
0.0
 40
5.633955
  0
CIRCLE
  5
2F9
100
AcDbEntity
  8
0
370
    -3
  6
Continuous
100
AcDbCircle
 10
0.0
 20
0.0
 30
0.0
 40
6.5
  0
POINT
  5
2FA
100
AcDbEntity
  8
0
370
    -3
  6
Continuous
100
AcDbPoint
 10
0.0
 20
0.0
 30
0.0
  0
LINE
  5
2FB
100
AcDbEntity
  8
0
370
    -3
  6
Continuous
100
AcDbLine
 10
-2.999997
 20
-1.732046
 30
0.0
 11
-2.999998
 21
1.732052
 31
0.0
  0
LINE
  5
2FC
100
AcDbEntity
  8
0
370
    -3
  6
Continuous
100
AcDbLine
 10
2.999997
 20
1.732047
 30
0.0
 11
2.999998
 21
-1.732051
 31
0.0
  0
LINE
  5
2FD
100
AcDbEntity
  8
0
370
    -3
  6
Continuous
100
AcDbLine
 10
0.000007
 20
3.464097
 30
0.0
 11
-2.999998
 21
1.732052
 31
0.0
  0
LINE
  5
2FE
100
AcDbEntity
  8
0
370
    -3
  6
Continuous
100
AcDbLine
 10
2.999998
 20
-1.732051
 30
0.0
 11
-0.000004
 21
-3.464098
 31
0.0
  0
LINE
  5
2FF
100
AcDbEntity
  8
0
370
    -3
  6
Continuous
100
AcDbLine
 10
0.000007
 20
3.464097
 30
0.0
 11
2.999997
 21
1.732047
 31
0.0
  0
LINE
  5
300
100
AcDbEntity
  8
0
370
    -3
  6
Continuous
100
AcDbLine
 10
-0.000005
 20
-3.464098
 30
0.0
 11
-2.999998
 21
-1.732046
 31
0.0
  0
ENDBLK
  5
301
100
AcDbEntity
  8
0
100
AcDbBlockEnd
  0
BLOCK
  5
4FF
100
AcDbEntity
  8
0
100
AcDbBlockBegin
  2
ZU_SYM__USERS_HOME_SYMBOL_POO_SYM_B20_00022-1
 70
    64
 10
0.0
 20
0.0
 30
0.0
  3
ZU_SYM__USERS_HOME_SYMBOL_POO_SYM_B20_00022-1
  1

  0
CIRCLE
  5
500
100
AcDbEntity
  8
0
370
    -3
  6
Continuous
100
AcDbCircle
 10
0.0
 20
0.0
 30
0.0
 40
5.633955
  0
CIRCLE
  5
501
100
AcDbEntity
  8
0
370
    -3
  6
Continuous
100
AcDbCircle
 10
0.0
 20
0.0
 30
0.0
 40
6.5
  0
POINT
  5
502
100
AcDbEntity
  8
0
370
    -3
  6
Continuous
100
AcDbPoint
 10
0.0
 20
0.0
 30
0.0
  0
LINE
  5
503
100
AcDbEntity
  8
0
370
    -3
  6
Continuous
100
AcDbLine
 10
-2.999997
 20
-1.732046
 30
0.0
 11
-2.999998
 21
1.732052
 31
0.0
  0
LINE
  5
504
100
AcDbEntity
  8
0
370
    -3
  6
Continuous
100
AcDbLine
 10
2.999997
 20
1.732047
 30
0.0
 11
2.999998
 21
-1.732051
 31
0.0
  0
LINE
  5
505
100
AcDbEntity
  8
0
370
    -3
  6
Continuous
100
AcDbLine
 10
0.000007
 20
3.464097
 30
0.0
 11
-2.999998
 21
1.732052
 31
0.0
  0
LINE
  5
506
100
AcDbEntity
  8
0
370
    -3
  6
Continuous
100
AcDbLine
 10
2.999998
 20
-1.732051
 30
0.0
 11
-0.000004
 21
-3.464098
 31
0.0
  0
LINE
  5
507
100
AcDbEntity
  8
0
370
    -3
  6
Continuous
100
AcDbLine
 10
0.000007
 20
3.464097
 30
0.0
 11
2.999997
 21
1.732047
 31
0.0
  0
LINE
  5
508
100
AcDbEntity
  8
0
370
    -3
  6
Continuous
100
AcDbLine
 10
-0.000005
 20
-3.464098
 30
0.0
 11
-2.999998
 21
-1.732046
 31
0.0
  0
ENDBLK
  5
509
100
AcDbEntity
  8
0
100
AcDbBlockEnd
  0
ENDSEC
  0
SECTION
  2
ENTITIES
  0
LINE
  5
2B
100
AcDbEntity
  8
0
370
    -3
  6
Continuous
100
AcDbLine
 10
-258.676999
 20
-110.250352
 30
0.0
 11
-258.676999
 21
-51.750352
 31
0.0
  0
LINE
  5
2C
100
AcDbEntity
  8
0
370
    -3
  6
Continuous
100
AcDbLine
 10
-258.676999
 20
6.749648
 30
0.0
 11
-258.676999
 21
-51.750352
 31
0.0
  0
ARC
  5
2D
100
AcDbEntity
  8
0
370
    -3
  6
Continuous
100
AcDbCircle
 10
-158.676999
 20
31.749648
 30
0.0
 40
3.0
100
AcDbArc
 50
90.0
 51
180.0
  0
LINE
  5
2E
100
AcDbEntity
  8
0
370
    -3
  6
Continuous
100
AcDbLine
 10
-150.176999
 20
34.749648
 30
0.0
 11
-170.676999
 21
34.749648
 31
0.0
  0
LINE
  5
2F
100
AcDbEntity
  8
0
370
    -3
  6
CENTER
100
AcDbLine
 10
-183.907247
 20
49.74966
 30
0.0
 11
-165.807981
 21
49.74966
 31
0.0
  0
LINE
  5
30
100
AcDbEntity
  8
0
370
    -3
  6
Continuous
100
AcDbLine
 10
-178.176999
 20
69.74966
 30
0.0
 11
-173.676999
 21
69.74966
 31
0.0
  0
LINE
  5
31
100
AcDbEntity
  8
0
370
    -3
  6
CENTER
100
AcDbLine
 10
-193.477452
 20
21.74966
 30
0.0
 11
-170.401644
 21
21.74966
 31
0.0
  0
ARC
  5
32
100
AcDbEntity
  8
0
370
    -3
  6
Continuous
100
AcDbCircle
 10
-170.676999
 20
31.749669
 30
0.0
 40
3.0
100
AcDbArc
 50
90.0
 51
180.0
  0
LINE
  5
33
100
AcDbEntity
  8
0
370
    -3
  6
Continuous
100
AcDbLine
 10
-53.980117
 20
21.730472
 30
0.0
 11
-69.150878
 21
21.730472
 31
0.0
  0
LINE
  5
34
100
AcDbEntity
  8
0
370
    -3
  6
Continuous
100
AcDbLine
 10
-71.299188
 20
22.812998
 30
0.0
 11
-51.369767
 21
46.793339
 31
0.0
  0
LINE
  5
35
100
AcDbEntity
  8
0
370
    -3
  6
Continuous
100
AcDbLine
 10
-71.299188
 20
28.651832
 30
0.0
 11
-51.369767
 21
52.632174
 31
0.0
  0
ARC
  5
36
100
AcDbEntity
  8
0
370
    -3
  6
Continuous
100
AcDbCircle
 10
-53.676993
 20
54.549648
 30
0.0
 40
3.0
100
AcDbArc
 50
320.270935
 51
0.0
  0
ARC
  5
37
100
AcDbEntity
  8
0
370
    -3
  6
Continuous
100
AcDbCircle
 10
-73.606414
 20
30.569307
 30
0.0
 40
3.0
100
AcDbArc
 50
270.0
 51
320.270935
  0
ARC
  5
38
100
AcDbEntity
  8
0
370
    -3
  6
Continuous
100
AcDbCircle
 10
-53.676993
 20
48.710813
 30
0.0
 40
3.0
100
AcDbArc
 50
320.270935
 51
0.0
  0
ARC
  5
39
100
AcDbEntity
  8
0
370
    -3
  6
Continuous
100
AcDbCircle
 10
-73.606414
 20
24.730472
 30
0.0
 40
3.0
100
AcDbArc
 50
270.0
 51
320.270935
  0
ARC
  5
3A
100
AcDbEntity
  8
0
370
    -3
  6
Continuous
100
AcDbCircle
 10
-73.965459
 20
40.412808
 30
0.0
 40
3.0
100
AcDbArc
 50
272.0
 51
330.0
  0
ARC
  5
3B
100
AcDbEntity
  8
0
370
    -3
  6
Continuous
100
AcDbCircle
 10
-53.676993
 20
75.553461
 30
0.0
 40
3.0
100
AcDbArc
 50
330.0
 51
0.0
  0
ARC
  5
3C
100
AcDbEntity
  8
0
370
    -3
  6
Continuous
100
AcDbCircle
 10
-47.676993
 20
86.749634
 30
0.0
 40
3.0
100
AcDbArc
 50
90.0
 51
180.0
  0
ARC
  5
3D
100
AcDbEntity
  8
0
370
    -3
  6
Continuous
100
AcDbCircle
 10
-36.676993
 20
87.891146
 30
0.0
 40
3.0
100
AcDbArc
 50
180.0
 51
268.0
  0
LINE
  5
3E
100
AcDbEntity
  8
0
370
    -3
  6
Continuous
100
AcDbLine
 10
-51.078917
 20
74.053461
 30
0.0
 11
-71.367383
 21
38.912808
 31
0.0
  0
LINE
  5
3F
100
AcDbEntity
  8
0
370
    -3
  6
Continuous
100
AcDbLine
 10
-29.676993
 20
79.749634
 30
0.0
 11
-28.676993
 21
78.749634
 31
0.0
  0
LINE
  5
40
100
AcDbEntity
  8
0
370
    -3
  6
Continuous
100
AcDbLine
 10
-29.676993
 20
79.749634
 30
0.0
 11
-32.676993
 21
79.749634
 31
0.0
  0
LINE
  5
41
100
AcDbEntity
  8
0
370
    -3
  6
Continuous
100
AcDbLine
 10
-32.676993
 20
89.749634
 30
0.0
 11
-47.676993
 21
89.749634
 31
0.0
  0
LINE
  5
42
100
AcDbEntity
  8
0
370
    -3
  6
Continuous
100
AcDbLine
 10
-32.676993
 20
84.749634
 30
0.0
 11
-36.781692
 21
84.892974
 31
0.0
  0
LINE
  5
43
100
AcDbEntity
  8
0
370
    -3
  6
Continuous
100
AcDbLine
 10
-39.676993
 20
89.749634
 30
0.0
 11
-39.676993
 21
87.891146
 31
0.0
  0
LINE
  5
44
100
AcDbEntity
  8
0
370
    -3
  6
Continuous
100
AcDbLine
 10
-150.176999
 20
34.749613
 30
0.0
 11
-63.722425
 21
37.768674
 31
0.0
  0
LINE
  5
45
100
AcDbEntity
  8
0
370
    -3
  6
CENTER
100
AcDbLine
 10
-23.628853
 20
69.957801
 30
0.0
 11
-77.560412
 21
69.957801
 31
0.0
  0
LINE
  5
46
100
AcDbEntity
  8
0
370
    -3
  6
Continuous
100
AcDbLine
 10
-187.176999
 20
-165.680478
 30
0.0
 11
-166.502502
 21
-166.402448
 31
0.0
  0
LINE
  5
47
100
AcDbEntity
  8
0
370
    -3
  6
Continuous
100
AcDbLine
 10
-150.676999
 20
-193.250355
 30
0.0
 11
-150.676999
 21
-82.250352
 31
0.0
  0
LINE
  5
48
100
AcDbEntity
  8
0
370
    -3
  6
Continuous
100
AcDbLine
 10
-150.176999
 20
-193.250355
 30
0.0
 11
-158.676999
 21
-193.250355
 31
0.0
  0
LINE
  5
49
100
AcDbEntity
  8
0
370
    -3
  6
Continuous
100
AcDbLine
 10
-150.676999
 20
34.749627
 30
0.0
 11
-150.676999
 21
-82.250352
 31
0.0
  0
LINE
  5
4A
100
AcDbEntity
  8
0
370
    -3
  6
CENTER
100
AcDbLine
 10
-155.037571
 20
-82.250352
 30
0.0
 11
-211.442746
 21
-82.250352
 31
0.0
  0
LINE
  5
4B
100
AcDbEntity
  8
0
370
    -3
  6
Continuous
100
AcDbLine
 10
-161.676999
 20
-189.250355
 30
0.0
 11
-161.676999
 21
-82.250352
 31
0.0
  0
ARC
  5
4C
100
AcDbEntity
  8
0
370
    -3
  6
Continuous
100
AcDbCircle
 10
-158.676999
 20
-190.250355
 30
0.0
 40
3.0
100
AcDbArc
 50
180.0
 51
270.0
  0
ARC
  5
4D
100
AcDbEntity
  8
0
370
    -3
  6
Continuous
100
AcDbCircle
 10
-163.676999
 20
-20.518289
 30
0.0
 40
2.0
100
AcDbArc
 50
270.0
 51
0.0
  0
ARC
  5
4E
100
AcDbEntity
  8
0
370
    -3
  6
Continuous
100
AcDbCircle
 10
-163.676999
 20
-49.982391
 30
0.0
 40
2.0
100
AcDbArc
 50
0.0
 51
90.0
  0
LINE
  5
4F
100
AcDbEntity
  8
0
370
    -3
  6
Continuous
100
AcDbLine
 10
-163.676999
 20
-47.982391
 30
0.0
 11
-166.676999
 21
-47.982391
 31
0.0
  0
ARC
  5
50
100
AcDbEntity
  8
0
370
    -3
  6
Continuous
100
AcDbCircle
 10
-166.676999
 20
-45.982391
 30
0.0
 40
2.0
100
AcDbArc
 50
180.0
 51
270.0
  0
LINE
  5
51
100
AcDbEntity
  8
0
370
    -3
  6
Continuous
100
AcDbLine
 10
-168.676999
 20
-24.518289
 30
0.0
 11
-168.676999
 21
-45.982391
 31
0.0
  0
LINE
  5
52
100
AcDbEntity
  8
0
370
    -3
  6
Continuous
100
AcDbLine
 10
-163.676999
 20
-22.518289
 30
0.0
 11
-166.676999
 21
-22.518289
 31
0.0
  0
ARC
  5
53
100
AcDbEntity
  8
0
370
    -3
  6
Continuous
100
AcDbCircle
 10
-166.676999
 20
-24.518289
 30
0.0
 40
2.0
100
AcDbArc
 50
90.0
 51
180.0
  0
LINE
  5
54
100
AcDbEntity
  8
0
370
    -3
  6
Continuous
100
AcDbLine
 10
-161.676999
 20
31.749648
 30
0.0
 11
-161.676999
 21
-20.518289
 31
0.0
  0
LINE
  5
55
100
AcDbEntity
  8
0
370
    -3
  6
Continuous
100
AcDbLine
 10
-161.676999
 20
-49.982391
 30
0.0
 11
-161.676999
 21
-82.250352
 31
0.0
  0
LINE
  5
56
100
AcDbEntity
  8
0
370
    -3
  6
Continuous
100
AcDbLine
 10
-187.176999
 20
-165.680478
 30
0.0
 11
-187.176999
 21
-82.250352
 31
0.0
  0
ARC
  5
57
100
AcDbEntity
  8
0
370
    -3
  6
Continuous
100
AcDbCircle
 10
-166.676999
 20
-171.399402
 30
0.0
 40
5.0
100
AcDbArc
 50
0.0
 51
88.0
  0
LINE
  5
58
100
AcDbEntity
  8
0
370
    -3
  6
Continuous
100
AcDbLine
 10
-187.176999
 20
1.179839
 30
0.0
 11
-166.502502
 21
1.901808
 31
0.0
  0
LINE
  5
59
100
AcDbEntity
  8
0
370
    -3
  6
Continuous
100
AcDbLine
 10
-187.176999
 20
1.179839
 30
0.0
 11
-187.176999
 21
-82.250352
 31
0.0
  0
LINE
  5
5A
100
AcDbEntity
  8
0
370
    -3
  6
Continuous
100
AcDbLine
 10
-170.676999
 20
9.553508
 30
0.0
 11
-170.676999
 21
4.653098
 31
0.0
  0
ARC
  5
5B
100
AcDbEntity
  8
0
370
    -3
  6
Continuous
100
AcDbCircle
 10
-173.676999
 20
4.653098
 30
0.0
 40
3.0
100
AcDbArc
 50
272.0
 51
0.0
  0
ARC
  5
5C
100
AcDbEntity
  8
0
370
    -3
  6
Continuous
100
AcDbCircle
 10
-166.676999
 20
6.898762
 30
0.0
 40
5.0
100
AcDbArc
 50
272.0
 51
356.081796
  0
LINE
  5
5D
100
AcDbEntity
  8
0
370
    -3
  6
Continuous
100
AcDbLine
 10
-173.676999
 20
31.749648
 30
0.0
 11
-173.676999
 21
14.74966
 31
0.0
  0
LINE
  5
5E
100
AcDbEntity
  8
0
370
    -3
  6
Continuous
100
AcDbLine
 10
-173.676999
 20
31.749669
 30
0.0
 11
-173.676999
 21
14.749681
 31
0.0
  0
LINE
  5
5F
100
AcDbEntity
  8
0
370
    -3
  6
Continuous
100
AcDbLine
 10
-178.176999
 20
11.74966
 30
0.0
 11
-173.676999
 21
11.74966
 31
0.0
  0
LINE
  5
60
100
AcDbEntity
  8
0
370
    -3
  6
Continuous
100
AcDbLine
 10
-173.676999
 20
69.74966
 30
0.0
 11
-173.676999
 21
11.74966
 31
0.0
  0
LINE
  5
61
100
AcDbEntity
  8
0
370
    -3
  6
Continuous
100
AcDbLine
 10
-178.176999
 20
11.74966
 30
0.0
 11
-178.176999
 21
69.74966
 31
0.0
  0
LINE
  5
62
100
AcDbEntity
  8
0
370
    -3
  6
CENTER
100
AcDbLine
 10
-111.647045
 20
-50.250352
 30
0.0
 11
45.254947
 21
-50.250352
 31
0.0
  0
ARC
  5
63
100
AcDbEntity
  8
0
370
    -3
  6
Continuous
100
AcDbCircle
 10
-8.177014
 20
-50.250366
 30
0.0
 40
5.0
100
AcDbArc
 50
90.0
 51
270.0
  0
LINE
  5
64
100
AcDbEntity
  8
0
370
    -3
  6
Continuous
100
AcDbLine
 10
41.823007
 20
-45.250366
 30
0.0
 11
-8.177014
 21
-45.250366
 31
0.0
  0
LINE
  5
65
100
AcDbEntity
  8
0
370
    -3
  6
Continuous
100
AcDbLine
 10
41.823007
 20
-55.250366
 30
0.0
 11
-8.177014
 21
-55.250366
 31
0.0
  0
LINE
  5
66
100
AcDbEntity
  8
0
370
    -3
  6
Continuous
100
AcDbLine
 10
-18.576993
 20
-72.750366
 30
0.0
 11
-20.176993
 21
-72.750366
 31
0.0
  0
LINE
  5
67
100
AcDbEntity
  8
0
370
    -3
  6
Continuous
100
AcDbLine
 10
-18.576993
 20
-27.750366
 30
0.0
 11
-20.176993
 21
-27.750366
 31
0.0
  0
LINE
  5
68
100
AcDbEntity
  8
0
370
    -3
  6
Continuous
100
AcDbLine
 10
41.423007
 20
-30.250366
 30
0.0
 11
-15.117178
 21
-30.250366
 31
0.0
  0
ARC
  5
69
100
AcDbEntity
  8
0
370
    -3
  6
Continuous
100
AcDbCircle
 10
-16.576993
 20
-28.800366
 30
0.0
 40
1.6
100
AcDbArc
 50
180.0
 51
270.0
  0
LINE
  5
6A
100
AcDbEntity
  8
0
370
    -3
  6
Continuous
100
AcDbLine
 10
-15.676986
 20
-30.400366
 30
0.0
 11
-16.576993
 21
-30.400366
 31
0.0
  0
LINE
  5
6B
100
AcDbEntity
  8
0
370
    -3
  6
Continuous
100
AcDbLine
 10
-18.576993
 20
-27.750366
 30
0.0
 11
-18.176993
 21
-28.150366
 31
0.0
  0
LINE
  5
6C
100
AcDbEntity
  8
0
370
    -3
  6
Continuous
100
AcDbLine
 10
-18.176993
 20
-50.250366
 30
0.0
 11
-18.176993
 21
-28.150366
 31
0.0
  0
LINE
  5
6D
100
AcDbEntity
  8
0
370
    -3
  6
Continuous
100
AcDbLine
 10
-15.117178
 20
-30.250366
 30
0.0
 11
-15.676986
 21
-30.400366
 31
0.0
  0
ARC
  5
6E
100
AcDbEntity
  8
0
370
    -3
  6
Continuous
100
AcDbCircle
 10
-16.576993
 20
-71.700366
 30
0.0
 40
1.6
100
AcDbArc
 50
90.0
 51
180.0
  0
LINE
  5
6F
100
AcDbEntity
  8
0
370
    -3
  6
Continuous
100
AcDbLine
 10
-15.676986
 20
-70.100366
 30
0.0
 11
-16.576993
 21
-70.100366
 31
0.0
  0
LINE
  5
70
100
AcDbEntity
  8
0
370
    -3
  6
Continuous
100
AcDbLine
 10
-18.576993
 20
-72.750366
 30
0.0
 11
-18.176993
 21
-72.350366
 31
0.0
  0
LINE
  5
71
100
AcDbEntity
  8
0
370
    -3
  6
Continuous
100
AcDbLine
 10
-18.176993
 20
-50.250366
 30
0.0
 11
-18.176993
 21
-72.350366
 31
0.0
  0
LINE
  5
72
100
AcDbEntity
  8
0
370
    -3
  6
Continuous
100
AcDbLine
 10
41.423007
 20
-70.250366
 30
0.0
 11
-15.117178
 21
-70.250366
 31
0.0
  0
LINE
  5
73
100
AcDbEntity
  8
0
370
    -3
  6
Continuous
100
AcDbLine
 10
-15.117178
 20
-70.250366
 30
0.0
 11
-15.676986
 21
-70.100366
 31
0.0
  0
ARC
  5
74
100
AcDbEntity
  8
0
370
    -3
  6
Continuous
100
AcDbCircle
 10
-47.676993
 20
-187.250338
 30
0.0
 40
3.0
100
AcDbArc
 50
180.0
 51
270.0
  0
ARC
  5
75
100
AcDbEntity
  8
0
370
    -3
  6
Continuous
100
AcDbCircle
 10
-36.676993
 20
-188.391864
 30
0.0
 40
3.0
100
AcDbArc
 50
92.0
 51
180.0
  0
ARC
  5
76
100
AcDbEntity
  8
0
370
    -3
  6
Continuous
100
AcDbCircle
 10
-25.176993
 20
-0.09702
 30
0.0
 40
3.0
100
AcDbArc
 50
0.0
 51
87.0
  0
ARC
  5
77
100
AcDbEntity
  8
0
370
    -3
  6
Continuous
100
AcDbCircle
 10
-41.676993
 20
-193.250352
 30
0.0
 40
3.0
100
AcDbArc
 50
90.0
 51
180.0
  0
ARC
  5
78
100
AcDbEntity
  8
0
370
    -3
  6
Continuous
100
AcDbCircle
 10
-47.676993
 20
-193.249071
 30
0.0
 40
3.0
100
AcDbArc
 50
268.323529
 51
0.0
  0
ARC
  5
79
100
AcDbEntity
  8
0
370
    -3
  6
Continuous
100
AcDbCircle
 10
-25.176993
 20
-100.403486
 30
0.0
 40
3.0
100
AcDbArc
 50
273.0
 51
0.0
  0
ARC
  5
7A
100
AcDbEntity
  8
0
370
    -3
  6
Continuous
100
AcDbCircle
 10
-21.176993
 20
-92.250366
 30
0.0
 40
1.0
100
AcDbArc
 50
90.0
 51
180.0
  0
ARC
  5
7B
100
AcDbEntity
  8
0
370
    -3
  6
Continuous
100
AcDbCircle
 10
-21.176993
 20
-8.250366
 30
0.0
 40
1.0
100
AcDbArc
 50
180.0
 51
270.0
  0
LINE
  5
7C
100
AcDbEntity
  8
0
370
    -3
  6
Continuous
100
AcDbLine
 10
-21.176993
 20
-9.250366
 30
0.0
 11
-20.176993
 21
-9.250366
 31
0.0
  0
LINE
  5
7D
100
AcDbEntity
  8
0
370
    -3
  6
Continuous
100
AcDbLine
 10
-28.676993
 20
-179.250352
 30
0.0
 11
-29.676993
 21
-180.250352
 31
0.0
  0
LINE
  5
7E
100
AcDbEntity
  8
0
370
    -3
  6
Continuous
100
AcDbLine
 10
-21.176993
 20
-91.250366
 30
0.0
 11
-20.176993
 21
-91.250366
 31
0.0
  0
LINE
  5
7F
100
AcDbEntity
  8
0
370
    -3
  6
Continuous
100
AcDbLine
 10
-29.676993
 20
-180.250352
 30
0.0
 11
-32.676993
 21
-180.250352
 31
0.0
  0
LINE
  5
80
100
AcDbEntity
  8
0
370
    -3
  6
Continuous
100
AcDbLine
 10
-32.676993
 20
-190.250352
 30
0.0
 11
-32.676993
 21
-50.250352
 31
0.0
  0
LINE
  5
81
100
AcDbEntity
  8
0
370
    -3
  6
Continuous
100
AcDbLine
 10
-25.019985
 20
-103.399374
 30
0.0
 11
-28.676993
 21
-103.59103
 31
0.0
  0
LINE
  5
82
100
AcDbEntity
  8
0
370
    -3
  6
Continuous
100
AcDbLine
 10
-28.676993
 20
-179.250352
 30
0.0
 11
-28.676993
 21
-50.250352
 31
0.0
  0
LINE
  5
83
100
AcDbEntity
  8
0
370
    -3
  6
Continuous
100
AcDbLine
 10
-22.176993
 20
-100.403486
 30
0.0
 11
-22.176993
 21
-50.250352
 31
0.0
  0
LINE
  5
84
100
AcDbEntity
  8
0
370
    -3
  6
Continuous
100
AcDbLine
 10
-20.176993
 20
-9.250366
 30
0.0
 11
-20.176993
 21
-91.250366
 31
0.0
  0
LINE
  5
85
100
AcDbEntity
  8
0
370
    -3
  6
Continuous
100
AcDbLine
 10
-22.176993
 20
-0.09702
 30
0.0
 11
-22.176993
 21
-50.250352
 31
0.0
  0
LINE
  5
86
100
AcDbEntity
  8
0
370
    -3
  6
Continuous
100
AcDbLine
 10
-28.676993
 20
3.090524
 30
0.0
 11
-25.019985
 21
2.898869
 31
0.0
  0
LINE
  5
87
100
AcDbEntity
  8
0
370
    -3
  6
Continuous
100
AcDbLine
 10
-32.676993
 20
89.749634
 30
0.0
 11
-32.676993
 21
-50.250352
 31
0.0
  0
LINE
  5
88
100
AcDbEntity
  8
0
370
    -3
  6
Continuous
100
AcDbLine
 10
-50.676993
 20
86.749634
 30
0.0
 11
-50.676993
 21
-187.250338
 31
0.0
  0
LINE
  5
89
100
AcDbEntity
  8
0
370
    -3
  6
Continuous
100
AcDbLine
 10
-28.676993
 20
78.749634
 30
0.0
 11
-28.676993
 21
-50.250352
 31
0.0
  0
LINE
  5
8A
100
AcDbEntity
  8
0
370
    -3
  6
Continuous
100
AcDbLine
 10
-32.676993
 20
-190.250352
 30
0.0
 11
-47.676993
 21
-190.250352
 31
0.0
  0
LINE
  5
8B
100
AcDbEntity
  8
0
370
    -3
  6
Continuous
100
AcDbLine
 10
-150.176999
 20
34.749613
 30
0.0
 11
-150.176999
 21
-193.250355
 31
0.0
  0
LINE
  5
8C
100
AcDbEntity
  8
0
370
    -3
  6
Continuous
100
AcDbLine
 10
-39.676993
 20
-190.250352
 30
0.0
 11
-39.676993
 21
-188.391864
 31
0.0
  0
LINE
  5
8D
100
AcDbEntity
  8
0
370
    -3
  6
Continuous
100
AcDbLine
 10
-150.176999
 20
-193.250355
 30
0.0
 11
-47.76476
 21
-196.247787
 31
0.0
  0
LINE
  5
8E
100
AcDbEntity
  8
0
370
    -3
  6
Continuous
100
AcDbLine
 10
-32.676993
 20
-185.250352
 30
0.0
 11
-36.781692
 21
-185.393691
 31
0.0
  0
LINE
  5
8F
100
AcDbEntity
  8
0
370
    -3
  6
Continuous
100
AcDbLine
 10
41.823007
 20
-50.250366
 30
0.0
 11
41.823007
 21
-30.650366
 31
0.0
  0
ARC
  5
90
100
AcDbEntity
  8
0
370
    -3
  6
Continuous
100
AcDbCircle
 10
41.423007
 20
-30.650366
 30
0.0
 40
0.4
100
AcDbArc
 50
0.0
 51
90.0
  0
LINE
  5
91
100
AcDbEntity
  8
0
370
    -3
  6
Continuous
100
AcDbLine
 10
41.823007
 20
-50.250366
 30
0.0
 11
41.823007
 21
-69.850366
 31
0.0
  0
ARC
  5
92
100
AcDbEntity
  8
0
370
    -3
  6
Continuous
100
AcDbCircle
 10
41.423007
 20
-69.850366
 30
0.0
 40
0.4
100
AcDbArc
 50
270.0
 51
0.0
  0
LINE
  5
93
100
AcDbEntity
  8
0
370
    -3
  6
CENTER
100
AcDbLine
 10
-23.628853
 20
-170.458505
 30
0.0
 11
-77.560412
 21
-170.458505
 31
0.0
  0
LINE
  5
94
100
AcDbEntity
  8
0
370
    -3
  6
Continuous
100
AcDbLine
 10
-194.176999
 20
1.249648
 30
0.0
 11
-187.176999
 21
1.249648
 31
0.0
  0
LINE
  5
95
100
AcDbEntity
  8
0
370
    -3
  6
Continuous
100
AcDbLine
 10
-203.176999
 20
-137.040827
 30
0.0
 11
-226.351497
 21
-136.231556
 31
0.0
  0
ARC
  5
96
100
AcDbEntity
  8
0
370
    -3
  6
Continuous
100
AcDbCircle
 10
-236.176999
 20
-97.947374
 30
0.0
 40
5.0
100
AcDbArc
 50
360.0
 51
90.0
  0
LINE
  5
97
100
AcDbEntity
  8
0
370
    -3
  6
Continuous
100
AcDbLine
 10
-236.176999
 20
-92.947374
 30
0.0
 11
-258.676999
 21
-92.947374
 31
0.0
  0
LINE
  5
98
100
AcDbEntity
  8
0
370
    -3
  6
Continuous
100
AcDbLine
 10
-231.176999
 20
-131.234602
 30
0.0
 11
-231.176999
 21
-97.947374
 31
0.0
  0
LINE
  5
99
100
AcDbEntity
  8
0
370
    -3
  6
Continuous
100
AcDbLine
 10
-240.176999
 20
-50.534623
 30
0.0
 11
-240.176999
 21
2.450291
 31
0.0
  0
LINE
  5
9A
100
AcDbEntity
  8
0
370
    -3
  6
Continuous
100
AcDbLine
 10
-258.676999
 20
-70.750352
 30
0.0
 11
-200.176999
 21
-70.750352
 31
0.0
  0
ARC
  5
9B
100
AcDbEntity
  8
0
370
    -3
  6
Continuous
100
AcDbCircle
 10
-200.176999
 20
-73.750352
 30
0.0
 40
3.0
100
AcDbArc
 50
0.0
 51
90.0
  0
LINE
  5
9C
100
AcDbEntity
  8
0
370
    -3
  6
Continuous
100
AcDbLine
 10
-258.676999
 20
-32.750352
 30
0.0
 11
-240.176999
 21
-32.750352
 31
0.0
  0
ARC
  5
9D
100
AcDbEntity
  8
0
370
    -3
  6
Continuous
100
AcDbCircle
 10
-235.176999
 20
-50.534623
 30
0.0
 40
5.0
100
AcDbArc
 50
180.0
 51
270.0
  0
LINE
  5
9E
100
AcDbEntity
  8
0
370
    -3
  6
Continuous
100
AcDbLine
 10
-235.176999
 20
-55.534623
 30
0.0
 11
-200.176999
 21
-55.534623
 31
0.0
  0
ARC
  5
9F
100
AcDbEntity
  8
0
370
    -3
  6
Continuous
100
AcDbCircle
 10
-200.176999
 20
-52.534623
 30
0.0
 40
3.0
100
AcDbArc
 50
270.0
 51
0.0
  0
ARC
  5
A0
100
AcDbEntity
  8
0
370
    -3
  6
Continuous
100
AcDbCircle
 10
-235.176999
 20
-11.250352
 30
0.0
 40
5.0
100
AcDbArc
 50
180.0
 51
270.0
  0
ARC
  5
A1
100
AcDbEntity
  8
0
370
    -3
  6
Continuous
100
AcDbCircle
 10
-200.176999
 20
-13.250352
 30
0.0
 40
3.0
100
AcDbArc
 50
270.0
 51
0.0
  0
LINE
  5
A2
100
AcDbEntity
  8
0
370
    -3
  6
Continuous
100
AcDbLine
 10
-200.176999
 20
-16.250352
 30
0.0
 11
-235.176999
 21
-16.250352
 31
0.0
  0
LINE
  5
A3
100
AcDbEntity
  8
0
370
    -3
  6
Continuous
100
AcDbLine
 10
-197.176999
 20
-1.433019
 30
0.0
 11
-197.176999
 21
-162.504078
 31
0.0
  0
LINE
  5
A4
100
AcDbEntity
  8
0
370
    -3
  6
Continuous
100
AcDbLine
 10
-245.438679
 20
7.443439
 30
0.0
 11
-258.676999
 21
6.749648
 31
0.0
  0
LINE
  5
A5
100
AcDbEntity
  8
0
370
    -3
  6
Continuous
100
AcDbLine
 10
-235.915319
 20
-111.443241
 30
0.0
 11
-258.676999
 21
-110.250352
 31
0.0
  0
ARC
  5
A6
100
AcDbEntity
  8
0
370
    -3
  6
Continuous
100
AcDbCircle
 10
-236.176999
 20
-116.436389
 30
0.0
 40
5.0
100
AcDbArc
 50
0.0
 51
87.0
  0
LINE
  5
A7
100
AcDbEntity
  8
0
370
    -3
  6
Continuous
100
AcDbLine
 10
-202.035116
 20
-5.250352
 30
0.0
 11
-235.176999
 21
-5.250352
 31
0.0
  0
LINE
  5
A8
100
AcDbEntity
  8
0
370
    -3
  6
Continuous
100
AcDbLine
 10
-194.281698
 20
-165.50225
 30
0.0
 11
-187.176999
 21
-165.750352
 31
0.0
  0
ARC
  5
A9
100
AcDbEntity
  8
0
370
    -3
  6
Continuous
100
AcDbCircle
 10
-194.176999
 20
-1.750352
 30
0.0
 40
3.0
100
AcDbArc
 50
90.0
 51
180.0
  0
ARC
  5
AA
100
AcDbEntity
  8
0
370
    -3
  6
Continuous
100
AcDbCircle
 10
-202.035116
 20
-0.250352
 30
0.0
 40
5.0
100
AcDbArc
 50
270.0
 51
349.193077
  0
LINE
  5
AB
100
AcDbEntity
  8
0
370
    -3
  6
CENTER
100
AcDbLine
 10
-218.176999
 20
-29.994464
 30
0.0
 11
-218.176999
 21
-1.354562
 31
0.0
  0
ARC
  5
AC
100
AcDbEntity
  8
0
370
    -3
  6
Continuous
100
AcDbCircle
 10
-226.176999
 20
-131.234602
 30
0.0
 40
5.0
100
AcDbArc
 50
180.0
 51
268.0
  0
ARC
  5
AD
100
AcDbEntity
  8
0
370
    -3
  6
Continuous
100
AcDbCircle
 10
-194.176999
 20
-162.504078
 30
0.0
 40
3.0
100
AcDbArc
 50
180.0
 51
268.0
  0
LINE
  5
AE
100
AcDbEntity
  8
0
370
    -3
  6
Continuous
100
AcDbLine
 10
-225.045891
 20
-137.193736
 30
0.0
 11
-198.927852
 21
-159.270417
 31
0.0
  0
ARC
  5
AF
100
AcDbEntity
  8
0
370
    -3
  6
Continuous
100
AcDbCircle
 10
-228.273625
 20
-141.01234
 30
0.0
 40
5.0
100
AcDbArc
 50
49.793313
 51
77.897419
  0
ARC
  5
B0
100
AcDbEntity
  8
0
370
    -3
  6
Continuous
100
AcDbCircle
 10
-202.155586
 20
-163.08902
 30
0.0
 40
5.0
100
AcDbArc
 50
4.193082
 51
49.793313
  0
ARC
  5
B1
100
AcDbEntity
  8
0
370
    -3
  6
Continuous
100
AcDbCircle
 10
-245.176999
 20
2.450291
 30
0.0
 40
5.0
100
AcDbArc
 50
360.0
 51
93.0
  0
ARC
  5
B2
100
AcDbEntity
  8
0
370
    -3
  6
Continuous
100
AcDbCircle
 10
-235.176999
 20
-0.250352
 30
0.0
 40
5.0
100
AcDbArc
 50
180.0
 51
270.0
  0
INSERT
  5
BE
100
AcDbEntity
  8
0
100
AcDbBlockReference
  2
ZU_SYM__USERS_HOME_SYMBOL_POO_SYM_B20_-1
 10
-178.176999
 20
21.74966
 30
0.0
  0
INSERT
  5
CA
100
AcDbEntity
  8
0
100
AcDbBlockReference
  2
ZU_SYM__USERS_HOME_SYMBOL_POO_SYM_B20_00001-1
 10
-161.676999
 20
14.257101
 30
0.0
  0
ARC
  5
CB
100
AcDbEntity
  8
0
370
    -3
  6
Continuous
100
AcDbCircle
 10
-170.676999
 20
14.749681
 30
0.0
 40
3.0
100
AcDbArc
 50
180.0
 51
240.0
  0
ARC
  5
CC
100
AcDbEntity
  8
0
370
    -3
  6
Continuous
100
AcDbCircle
 10
-173.676999
 20
9.553508
 30
0.0
 40
3.0
100
AcDbArc
 50
0.0
 51
60.0
  0
INSERT
  5
D5
100
AcDbEntity
  8
0
100
AcDbBlockReference
  2
ZU_SYM__USERS_HOME_SYMBOL_POO_SYM_B20_00002-1
 10
-197.176999
 20
-27.449576
 30
0.0
  0
INSERT
  5
E1
100
AcDbEntity
  8
0
100
AcDbBlockReference
  2
ZU_SYM__USERS_HOME_SYMBOL_POO_SYM_B20_00003-1
 10
-161.676999
 20
-61.25034
 30
0.0
  0
INSERT
  5
ED
100
AcDbEntity
  8
0
100
AcDbBlockReference
  2
ZU_SYM__USERS_HOME_SYMBOL_POO_SYM_B20_00004-1
 10
-161.676999
 20
-127.25034
 30
0.0
  0
INSERT
  5
F9
100
AcDbEntity
  8
0
100
AcDbBlockReference
  2
ZU_SYM__USERS_HOME_SYMBOL_POO_SYM_B20_00005-1
 10
-161.676999
 20
-185.25034
 30
0.0
  0
INSERT
  5
102
100
AcDbEntity
  8
0
100
AcDbBlockReference
  2
ZU_SYM__USERS_HOME_SYMBOL_POO_SYM_B20_00006-1
 10
-197.176999
 20
-137.051127
 30
0.0
  0
LINE
  5
103
100
AcDbEntity
  8
0
370
    -3
  6
Continuous
100
AcDbLine
 10
-258.676999
 20
6.749648
 30
0.0
 11
-258.676999
 21
-51.750352
 31
0.0
  0
LINE
  5
104
100
AcDbEntity
  8
0
370
    -3
  6
Continuous
100
AcDbLine
 10
-258.676999
 20
-110.250352
 30
0.0
 11
-258.676999
 21
-51.750352
 31
0.0
  0
LINE
  5
105
100
AcDbEntity
  8
0
370
    -3
  6
Continuous
100
AcDbLine
 10
-258.676999
 20
6.749648
 30
0.0
 11
-258.676999
 21
-51.750352
 31
0.0
  0
LINE
  5
106
100
AcDbEntity
  8
0
370
    -3
  6
Continuous
100
AcDbLine
 10
-258.676999
 20
-110.250352
 30
0.0
 11
-258.676999
 21
-51.750352
 31
0.0
  0
LINE
  5
107
100
AcDbEntity
  8
0
370
    -3
  6
Continuous
100
AcDbLine
 10
-258.676999
 20
-110.250352
 30
0.0
 11
-258.676999
 21
6.749648
 31
0.0
  0
LINE
  5
108
100
AcDbEntity
  8
0
370
    -3
  6
Continuous
100
AcDbLine
 10
-258.676999
 20
-110.250352
 30
0.0
 11
-258.676999
 21
-51.750352
 31
0.0
  0
LINE
  5
109
100
AcDbEntity
  8
0
370
    -3
  6
Continuous
100
AcDbLine
 10
-258.676999
 20
6.749648
 30
0.0
 11
-258.676999
 21
-51.750352
 31
0.0
  0
ARC
  5
10A
100
AcDbEntity
  8
0
370
    -3
  6
Continuous
100
AcDbCircle
 10
94.055086
 20
-42.250352
 30
0.0
 40
3.0
100
AcDbArc
 50
270.0
 51
356.676642
  0
CIRCLE
  5
10B
100
AcDbEntity
  8
0
370
    -3
  6
Continuous
100
AcDbCircle
 10
231.823007
 20
-50.250352
 30
0.0
 40
3.325
  0
CIRCLE
  5
10C
100
AcDbEntity
  8
0
370
    -3
  6
Continuous
100
AcDbCircle
 10
231.823007
 20
-50.250352
 30
0.0
 40
4.0
  0
LINE
  5
10D
100
AcDbEntity
  8
0
370
    -3
  6
Continuous
100
AcDbLine
 10
208.823007
 20
-45.250352
 30
0.0
 11
208.823007
 21
-55.250352
 31
0.0
  0
ARC
  5
10E
100
AcDbEntity
  8
0
370
    -3
  6
Continuous
100
AcDbCircle
 10
231.823007
 20
-50.250352
 30
0.0
 40
31.0
100
AcDbArc
 50
70.008591
 51
180.0
  0
CIRCLE
  5
10F
100
AcDbEntity
  8
0
370
    -3
  6
Continuous
100
AcDbCircle
 10
231.823007
 20
-50.250352
 30
0.0
 40
31.0
  0
LINE
  5
110
100
AcDbEntity
  8
0
370
    -3
  6
Continuous
100
AcDbLine
 10
208.823007
 20
-55.250352
 30
0.0
 11
216.823007
 21
-55.250352
 31
0.0
  0
LINE
  5
111
100
AcDbEntity
  8
0
370
    -3
  6
Continuous
100
AcDbLine
 10
216.823007
 20
-45.250352
 30
0.0
 11
216.823007
 21
-55.250352
 31
0.0
  0
ARC
  5
112
100
AcDbEntity
  8
0
370
    -3
  6
Continuous
100
AcDbCircle
 10
231.823007
 20
-50.250352
 30
0.0
 40
20.0
100
AcDbArc
 50
194.477512
 51
165.522488
  0
LINE
  5
113
100
AcDbEntity
  8
0
370
    -3
  6
Continuous
100
AcDbLine
 10
208.823007
 20
-45.250352
 30
0.0
 11
216.823007
 21
-45.250352
 31
0.0
  0
LINE
  5
114
100
AcDbEntity
  8
0
370
    -3
  6
Continuous
100
AcDbLine
 10
235.073007
 20
70.087454
 30
0.0
 11
235.073007
 21
5.399797
 31
0.0
  0
LINE
  5
115
100
AcDbEntity
  8
0
370
    -3
  6
Continuous
100
AcDbLine
 10
228.573007
 20
70.087454
 30
0.0
 11
228.573007
 21
5.399797
 31
0.0
  0
LINE
  5
116
100
AcDbEntity
  8
0
370
    -3
  6
Continuous
100
AcDbLine
 10
352.160813
 20
-53.500352
 30
0.0
 11
287.473155
 21
-53.500352
 31
0.0
  0
LINE
  5
117
100
AcDbEntity
  8
0
370
    -3
  6
Continuous
100
AcDbLine
 10
352.160813
 20
-47.000352
 30
0.0
 11
287.473155
 21
-47.000352
 31
0.0
  0
LINE
  5
118
100
AcDbEntity
  8
0
370
    -3
  6
Continuous
100
AcDbLine
 10
346.011325
 20
-58.500352
 30
0.0
 11
346.011325
 21
-96.29556
 31
0.0
  0
LINE
  5
119
100
AcDbEntity
  8
0
370
    -3
  6
CENTER
100
AcDbLine
 10
231.823007
 20
-203.312301
 30
0.0
 11
231.823007
 21
99.370166
 31
0.0
  0
LINE
  5
11A
100
AcDbEntity
  8
0
370
    -3
  6
Continuous
100
AcDbLine
 10
117.368858
 20
-136.42023
 30
0.0
 11
93.287473
 21
-160.501615
 31
0.0
  0
LINE
  5
11B
100
AcDbEntity
  8
0
370
    -3
  6
Continuous
100
AcDbLine
 10
145.653129
 20
-164.704501
 30
0.0
 11
121.571744
 21
-188.785886
 31
0.0
  0
LINE
  5
11C
100
AcDbEntity
  8
0
370
    -3
  6
Continuous
100
AcDbLine
 10
292.189762
 20
-196.33816
 30
0.0
 11
305.456251
 21
-196.33816
 31
0.0
  0
LINE
  5
11D
100
AcDbEntity
  8
0
370
    -3
  6
Continuous
100
AcDbLine
 10
101.823007
 20
-190.250352
 30
0.0
 11
231.823007
 21
-190.250352
 31
0.0
  0
LINE
  5
11E
100
AcDbEntity
  8
0
370
    -3
  6
Continuous
100
AcDbLine
 10
91.823007
 20
-180.250352
 30
0.0
 11
91.823007
 21
79.749648
 31
0.0
  0
LINE
  5
11F
100
AcDbEntity
  8
0
370
    -3
  6
Continuous
100
AcDbLine
 10
231.823007
 20
-195.33816
 30
0.0
 11
290.749869
 21
-195.33816
 31
0.0
  0
LINE
  5
120
100
AcDbEntity
  8
0
370
    -3
  6
Continuous
100
AcDbLine
 10
317.992884
 20
-164.704501
 30
0.0
 11
342.074269
 21
-188.785886
 31
0.0
  0
LINE
  5
121
100
AcDbEntity
  8
0
370
    -3
  6
Continuous
100
AcDbLine
 10
231.823007
 20
-190.250352
 30
0.0
 11
361.823007
 21
-190.250352
 31
0.0
  0
LINE
  5
122
100
AcDbEntity
  8
0
370
    -3
  6
Continuous
100
AcDbLine
 10
371.823007
 20
-180.250352
 30
0.0
 11
371.823007
 21
79.749648
 31
0.0
  0
LINE
  5
123
100
AcDbEntity
  8
0
370
    -3
  6
Continuous
100
AcDbLine
 10
346.277156
 20
-136.42023
 30
0.0
 11
370.358541
 21
-160.501615
 31
0.0
  0
LINE
  5
124
100
AcDbEntity
  8
0
370
    -3
  6
Continuous
100
AcDbLine
 10
145.653129
 20
64.203797
 30
0.0
 11
121.571744
 21
88.285182
 31
0.0
  0
LINE
  5
125
100
AcDbEntity
  8
0
370
    -3
  6
Continuous
100
AcDbLine
 10
117.368858
 20
35.919526
 30
0.0
 11
93.287473
 21
60.000911
 31
0.0
  0
LINE
  5
126
100
AcDbEntity
  8
0
370
    -3
  6
Continuous
100
AcDbLine
 10
101.823007
 20
89.749648
 30
0.0
 11
361.823007
 21
89.749648
 31
0.0
  0
LINE
  5
127
100
AcDbEntity
  8
0
370
    -3
  6
Continuous
100
AcDbLine
 10
317.992884
 20
64.203797
 30
0.0
 11
342.074269
 21
88.285182
 31
0.0
  0
LINE
  5
128
100
AcDbEntity
  8
0
370
    -3
  6
Continuous
100
AcDbLine
 10
346.277156
 20
35.919526
 30
0.0
 11
370.358541
 21
60.000911
 31
0.0
  0
LINE
  5
129
100
AcDbEntity
  8
0
370
    -3
  6
Continuous
100
AcDbLine
 10
117.634689
 20
-58.500352
 30
0.0
 11
117.634689
 21
-96.29556
 31
0.0
  0
LINE
  5
12A
100
AcDbEntity
  8
0
370
    -3
  6
Continuous
100
AcDbLine
 10
93.823007
 20
-45.250352
 30
0.0
 11
94.055086
 21
-45.250352
 31
0.0
  0
LINE
  5
12B
100
AcDbEntity
  8
0
370
    -3
  6
Continuous
100
AcDbLine
 10
231.823007
 20
-195.33816
 30
0.0
 11
172.896144
 21
-195.33816
 31
0.0
  0
LINE
  5
12C
100
AcDbEntity
  8
0
370
    -3
  6
Continuous
100
AcDbLine
 10
171.456251
 20
-196.33816
 30
0.0
 11
158.189762
 21
-196.33816
 31
0.0
  0
LINE
  5
12D
100
AcDbEntity
  8
0
370
    -3
  6
Continuous
100
AcDbLine
 10
93.823007
 20
-55.250352
 30
0.0
 11
94.055086
 21
-55.250352
 31
0.0
  0
LINE
  5
12E
100
AcDbEntity
  8
0
370
    -3
  6
Continuous
100
AcDbLine
 10
369.823007
 20
-55.250352
 30
0.0
 11
369.590928
 21
-55.250352
 31
0.0
  0
LINE
  5
12F
100
AcDbEntity
  8
0
370
    -3
  6
Continuous
100
AcDbLine
 10
369.823007
 20
-45.250352
 30
0.0
 11
369.590928
 21
-45.250352
 31
0.0
  0
ARC
  5
130
100
AcDbEntity
  8
0
370
    -3
  6
Continuous
100
AcDbCircle
 10
123.210383
 20
-42.000352
 30
0.0
 40
5.0
100
AcDbArc
 50
172.942005
 51
270.0
  0
ARC
  5
131
100
AcDbEntity
  8
0
370
    -3
  6
Continuous
100
AcDbCircle
 10
111.485201
 20
-44.000352
 30
0.0
 40
3.0
100
AcDbArc
 50
177.026893
 51
270.0
  0
ARC
  5
132
100
AcDbEntity
  8
0
370
    -3
  6
Continuous
100
AcDbCircle
 10
225.573007
 20
5.399797
 30
0.0
 40
3.0
100
AcDbArc
 50
276.407967
 51
0.0
  0
ARC
  5
133
100
AcDbEntity
  8
0
370
    -3
  6
Continuous
100
AcDbCircle
 10
111.485201
 20
-56.500352
 30
0.0
 40
3.0
100
AcDbArc
 50
90.0
 51
182.973107
  0
ARC
  5
134
100
AcDbEntity
  8
0
370
    -3
  6
Continuous
100
AcDbCircle
 10
122.634689
 20
-58.500352
 30
0.0
 40
5.0
100
AcDbArc
 50
90.0
 51
180.0
  0
ARC
  5
135
100
AcDbEntity
  8
0
370
    -3
  6
Continuous
100
AcDbCircle
 10
238.073007
 20
5.399797
 30
0.0
 40
3.0
100
AcDbArc
 50
180.0
 51
263.592033
  0
ARC
  5
136
100
AcDbEntity
  8
0
370
    -3
  6
Continuous
100
AcDbCircle
 10
122.634689
 20
-96.29556
 30
0.0
 40
5.0
100
AcDbArc
 50
180.0
 51
202.865373
  0
ARC
  5
137
100
AcDbEntity
  8
0
370
    -3
  6
Continuous
100
AcDbCircle
 10
238.073007
 20
70.087454
 30
0.0
 40
3.0
100
AcDbArc
 50
87.026893
 51
180.0
  0
ARC
  5
138
100
AcDbEntity
  8
0
370
    -3
  6
Continuous
100
AcDbCircle
 10
225.573007
 20
70.087454
 30
0.0
 40
3.0
100
AcDbArc
 50
0.0
 51
92.973107
  0
ARC
  5
139
100
AcDbEntity
  8
0
370
    -3
  6
Continuous
100
AcDbCircle
 10
287.473155
 20
-44.000352
 30
0.0
 40
3.0
100
AcDbArc
 50
186.407967
 51
270.0
  0
ARC
  5
13A
100
AcDbEntity
  8
0
370
    -3
  6
Continuous
100
AcDbCircle
 10
287.473155
 20
-56.500352
 30
0.0
 40
3.0
100
AcDbArc
 50
90.0
 51
173.592033
  0
ARC
  5
13B
100
AcDbEntity
  8
0
370
    -3
  6
Continuous
100
AcDbCircle
 10
352.160813
 20
-56.500352
 30
0.0
 40
3.0
100
AcDbArc
 50
357.026893
 51
90.0
  0
ARC
  5
13C
100
AcDbEntity
  8
0
370
    -3
  6
Continuous
100
AcDbCircle
 10
352.160813
 20
-44.000352
 30
0.0
 40
3.0
100
AcDbArc
 50
270.0
 51
2.973107
  0
ARC
  5
13D
100
AcDbEntity
  8
0
370
    -3
  6
Continuous
100
AcDbCircle
 10
223.573007
 20
26.878107
 30
0.0
 40
5.0
100
AcDbArc
 50
0.0
 51
90.960412
  0
ARC
  5
13E
100
AcDbEntity
  8
0
370
    -3
  6
Continuous
100
AcDbCircle
 10
341.011325
 20
-58.500352
 30
0.0
 40
5.0
100
AcDbArc
 50
0.0
 51
90.0
  0
ARC
  5
13F
100
AcDbEntity
  8
0
370
    -3
  6
Continuous
100
AcDbCircle
 10
280.591135
 20
-90.133574
 30
0.0
 40
10.0
100
AcDbArc
 50
140.723244
 51
242.705659
  0
ARC
  5
140
100
AcDbEntity
  8
0
370
    -3
  6
Continuous
100
AcDbCircle
 10
260.414416
 20
-129.234726
 30
0.0
 40
40.5
100
AcDbArc
 50
357.185212
 51
61.540294
  0
ARC
  5
141
100
AcDbEntity
  8
0
370
    -3
  6
Continuous
100
AcDbCircle
 10
303.475973
 20
-138.273658
 30
0.0
 40
10.0
100
AcDbArc
 50
168.145312
 51
309.146371
  0
ARC
  5
142
100
AcDbEntity
  8
0
370
    -3
  6
Continuous
100
AcDbCircle
 10
310.853488
 20
-131.714658
 30
0.0
 40
10.0
100
AcDbArc
 50
177.185212
 51
314.131204
  0
ARC
  5
143
100
AcDbEntity
  8
0
370
    -3
  6
Continuous
100
AcDbCircle
 10
101.823007
 20
-180.250352
 30
0.0
 40
10.0
100
AcDbArc
 50
180.0
 51
270.0
  0
CIRCLE
  5
144
100
AcDbEntity
  8
0
370
    -3
  6
Continuous
100
AcDbCircle
 10
111.614854
 20
-170.458505
 30
0.0
 40
9.5
  0
ARC
  5
145
100
AcDbEntity
  8
0
370
    -3
  6
Continuous
100
AcDbCircle
 10
110.29779
 20
-129.349162
 30
0.0
 40
10.0
100
AcDbArc
 50
315.0
 51
33.059456
  0
ARC
  5
146
100
AcDbEntity
  8
0
370
    -3
  6
Continuous
100
AcDbCircle
 10
260.414416
 20
-129.234726
 30
0.0
 40
34.0
100
AcDbArc
 50
348.145312
 51
62.705659
  0
ARC
  5
147
100
AcDbEntity
  8
0
370
    -3
  6
Continuous
100
AcDbCircle
 10
152.724197
 20
-171.775569
 30
0.0
 40
10.0
100
AcDbArc
 50
56.940544
 51
135.0
  0
ARC
  5
148
100
AcDbEntity
  8
0
370
    -3
  6
Continuous
100
AcDbCircle
 10
298.823007
 20
-185.250352
 30
0.0
 40
12.920504
100
AcDbArc
 50
300.889833
 51
337.233171
  0
ARC
  5
149
100
AcDbEntity
  8
0
370
    -3
  6
Continuous
100
AcDbCircle
 10
298.823007
 20
-185.250352
 30
0.0
 40
12.920504
100
AcDbArc
 50
231.330182
 51
239.110167
  0
CIRCLE
  5
14A
100
AcDbEntity
  8
0
370
    -3
  6
Continuous
100
AcDbCircle
 10
231.823007
 20
-50.250352
 30
0.0
 40
123.5
  0
ARC
  5
14B
100
AcDbEntity
  8
0
370
    -3
  6
Continuous
100
AcDbCircle
 10
231.823007
 20
-50.250352
 30
0.0
 40
135.0
100
AcDbArc
 50
236.940544
 51
303.059456
  0
ARC
  5
14C
100
AcDbEntity
  8
0
370
    -3
  6
Continuous
100
AcDbCircle
 10
310.921817
 20
-171.775569
 30
0.0
 40
10.0
100
AcDbArc
 50
45.0
 51
123.059456
  0
ARC
  5
14D
100
AcDbEntity
  8
0
370
    -3
  6
Continuous
100
AcDbCircle
 10
361.823007
 20
-180.250352
 30
0.0
 40
10.0
100
AcDbArc
 50
270.0
 51
0.0
  0
CIRCLE
  5
14E
100
AcDbEntity
  8
0
370
    -3
  6
Continuous
100
AcDbCircle
 10
352.03116
 20
-170.458505
 30
0.0
 40
9.5
  0
ARC
  5
14F
100
AcDbEntity
  8
0
370
    -3
  6
Continuous
100
AcDbCircle
 10
284.479717
 20
-84.837526
 30
0.0
 40
10.0
100
AcDbArc
 50
146.701383
 51
241.540294
  0
ARC
  5
150
100
AcDbEntity
  8
0
370
    -3
  6
Continuous
100
AcDbCircle
 10
353.348223
 20
-129.349162
 30
0.0
 40
10.0
100
AcDbArc
 50
146.940544
 51
225.0
  0
ARC
  5
151
100
AcDbEntity
  8
0
370
    -3
  6
Continuous
100
AcDbCircle
 10
341.011325
 20
-96.29556
 30
0.0
 40
5.0
100
AcDbArc
 50
337.134627
 51
0.0
  0
ARC
  5
152
100
AcDbEntity
  8
0
370
    -3
  6
Continuous
100
AcDbCircle
 10
231.823007
 20
-50.250352
 30
0.0
 40
135.0
100
AcDbArc
 50
146.940544
 51
176.676642
  0
ARC
  5
153
100
AcDbEntity
  8
0
370
    -3
  6
Continuous
100
AcDbCircle
 10
340.435631
 20
-42.000352
 30
0.0
 40
5.0
100
AcDbArc
 50
270.0
 51
7.057995
  0
ARC
  5
154
100
AcDbEntity
  8
0
370
    -3
  6
Continuous
100
AcDbCircle
 10
101.823007
 20
79.749648
 30
0.0
 40
10.0
100
AcDbArc
 50
90.0
 51
180.0
  0
CIRCLE
  5
155
100
AcDbEntity
  8
0
370
    -3
  6
Continuous
100
AcDbCircle
 10
111.614854
 20
69.957801
 30
0.0
 40
9.5
  0
ARC
  5
156
100
AcDbEntity
  8
0
370
    -3
  6
Continuous
100
AcDbCircle
 10
152.724197
 20
71.274865
 30
0.0
 40
10.0
100
AcDbArc
 50
225.0
 51
303.059456
  0
ARC
  5
157
100
AcDbEntity
  8
0
370
    -3
  6
Continuous
100
AcDbCircle
 10
140.125796
 20
-117.137357
 30
0.0
 40
10.0
100
AcDbArc
 50
216.108259
 51
351.603098
  0
ARC
  5
158
100
AcDbEntity
  8
0
370
    -3
  6
Continuous
100
AcDbCircle
 10
110.29779
 20
28.848458
 30
0.0
 40
10.0
100
AcDbArc
 50
326.940544
 51
45.0
  0
ARC
  5
159
100
AcDbEntity
  8
0
370
    -3
  6
Continuous
100
AcDbCircle
 10
263.823007
 20
-51.485926
 30
0.0
 40
82.197605
100
AcDbArc
 50
7.057995
 51
85.577622
  0
ARC
  5
15A
100
AcDbEntity
  8
0
370
    -3
  6
Continuous
100
AcDbCircle
 10
231.823007
 20
-50.250352
 30
0.0
 40
135.0
100
AcDbArc
 50
56.940544
 51
123.059456
  0
ARC
  5
15B
100
AcDbEntity
  8
0
370
    -3
  6
Continuous
100
AcDbCircle
 10
240.073007
 20
26.878107
 30
0.0
 40
5.0
100
AcDbArc
 50
89.039588
 51
180.0
  0
ARC
  5
15C
100
AcDbEntity
  8
0
370
    -3
  6
Continuous
100
AcDbCircle
 10
231.823007
 20
-465.250352
 30
0.0
 40
497.197605
100
AcDbArc
 50
85.577622
 51
89.039588
  0
ARC
  5
15D
100
AcDbEntity
  8
0
370
    -3
  6
Continuous
100
AcDbCircle
 10
361.823007
 20
79.749648
 30
0.0
 40
10.0
100
AcDbArc
 50
0.0
 51
90.0
  0
CIRCLE
  5
15E
100
AcDbEntity
  8
0
370
    -3
  6
Continuous
100
AcDbCircle
 10
352.03116
 20
69.957801
 30
0.0
 40
9.5
  0
ARC
  5
15F
100
AcDbEntity
  8
0
370
    -3
  6
Continuous
100
AcDbCircle
 10
310.921817
 20
71.274865
 30
0.0
 40
10.0
100
AcDbArc
 50
236.940544
 51
315.0
  0
ARC
  5
160
100
AcDbEntity
  8
0
370
    -3
  6
Continuous
100
AcDbCircle
 10
353.348223
 20
28.848458
 30
0.0
 40
10.0
100
AcDbArc
 50
135.0
 51
213.059456
  0
ARC
  5
161
100
AcDbEntity
  8
0
370
    -3
  6
Continuous
100
AcDbCircle
 10
231.823007
 20
-50.250352
 30
0.0
 40
135.0
100
AcDbArc
 50
326.940544
 51
356.676642
  0
ARC
  5
162
100
AcDbEntity
  8
0
370
    -3
  6
Continuous
100
AcDbCircle
 10
231.823007
 20
-50.250352
 30
0.0
 40
31.0
100
AcDbArc
 50
180.0
 51
0.0
  0
ARC
  5
163
100
AcDbEntity
  8
0
370
    -3
  6
Continuous
100
AcDbCircle
 10
231.823007
 20
-50.250352
 30
0.0
 40
31.0
100
AcDbArc
 50
0.0
 51
180.0
  0
ARC
  5
164
100
AcDbEntity
  8
0
370
    -3
  6
Continuous
100
AcDbCircle
 10
231.823007
 20
-465.250352
 30
0.0
 40
497.197605
100
AcDbArc
 50
90.960412
 51
94.422378
  0
ARC
  5
165
100
AcDbEntity
  8
0
370
    -3
  6
Continuous
100
AcDbCircle
 10
345.609803
 20
84.749648
 30
0.0
 40
5.0
100
AcDbArc
 50
90.0
 51
135.0
  0
ARC
  5
166
100
AcDbEntity
  8
0
370
    -3
  6
Continuous
100
AcDbCircle
 10
366.823007
 20
63.536445
 30
0.0
 40
5.0
100
AcDbArc
 50
315.0
 51
0.0
  0
ARC
  5
167
100
AcDbEntity
  8
0
370
    -3
  6
Continuous
100
AcDbCircle
 10
231.823007
 20
-50.250352
 30
0.0
 40
41.0
100
AcDbArc
 50
0.0
 51
180.0
  0
ARC
  5
168
100
AcDbEntity
  8
0
370
    -3
  6
Continuous
100
AcDbCircle
 10
118.03621
 20
84.749648
 30
0.0
 40
5.0
100
AcDbArc
 50
45.0
 51
90.0
  0
ARC
  5
169
100
AcDbEntity
  8
0
370
    -3
  6
Continuous
100
AcDbCircle
 10
231.823007
 20
-50.250352
 30
0.0
 40
41.0
100
AcDbArc
 50
180.0
 51
0.0
  0
ARC
  5
16A
100
AcDbEntity
  8
0
370
    -3
  6
Continuous
100
AcDbCircle
 10
135.055062
 20
-109.564893
 30
0.0
 40
10.0
100
AcDbArc
 50
211.506486
 51
345.196483
  0
ARC
  5
16B
100
AcDbEntity
  8
0
370
    -3
  6
Continuous
100
AcDbCircle
 10
164.823007
 20
-185.250352
 30
0.0
 40
12.920504
100
AcDbArc
 50
300.889833
 51
308.669818
  0
ARC
  5
16C
100
AcDbEntity
  8
0
370
    -3
  6
Continuous
100
AcDbCircle
 10
164.823007
 20
-185.250352
 30
0.0
 40
12.920504
100
AcDbArc
 50
202.766829
 51
239.110167
  0
ARC
  5
16D
100
AcDbEntity
  8
0
370
    -3
  6
Continuous
100
AcDbCircle
 10
93.823007
 20
-47.250352
 30
0.0
 40
2.0
100
AcDbArc
 50
90.0
 51
180.0
  0
ARC
  5
16E
100
AcDbEntity
  8
0
370
    -3
  6
Continuous
100
AcDbCircle
 10
96.823007
 20
63.536445
 30
0.0
 40
5.0
100
AcDbArc
 50
180.0
 51
225.0
  0
ARC
  5
16F
100
AcDbEntity
  8
0
370
    -3
  6
Continuous
100
AcDbCircle
 10
94.055086
 20
-58.250352
 30
0.0
 40
3.0
100
AcDbArc
 50
3.323358
 51
90.0
  0
ARC
  5
170
100
AcDbEntity
  8
0
370
    -3
  6
Continuous
100
AcDbCircle
 10
93.823007
 20
-53.250352
 30
0.0
 40
2.0
100
AcDbArc
 50
180.0
 51
270.0
  0
ARC
  5
171
100
AcDbEntity
  8
0
370
    -3
  6
Continuous
100
AcDbCircle
 10
369.590928
 20
-58.250352
 30
0.0
 40
3.0
100
AcDbArc
 50
90.0
 51
176.676642
  0
ARC
  5
172
100
AcDbEntity
  8
0
370
    -3
  6
Continuous
100
AcDbCircle
 10
96.823007
 20
-164.037149
 30
0.0
 40
5.0
100
AcDbArc
 50
135.0
 51
180.0
  0
ARC
  5
173
100
AcDbEntity
  8
0
370
    -3
  6
Continuous
100
AcDbCircle
 10
118.03621
 20
-185.250352
 30
0.0
 40
5.0
100
AcDbArc
 50
270.0
 51
315.0
  0
ARC
  5
174
100
AcDbEntity
  8
0
370
    -3
  6
Continuous
100
AcDbCircle
 10
345.609803
 20
-185.250352
 30
0.0
 40
5.0
100
AcDbArc
 50
225.0
 51
270.0
  0
ARC
  5
175
100
AcDbEntity
  8
0
370
    -3
  6
Continuous
100
AcDbCircle
 10
366.823007
 20
-164.037149
 30
0.0
 40
5.0
100
AcDbArc
 50
0.0
 51
45.0
  0
ARC
  5
176
100
AcDbEntity
  8
0
370
    -3
  6
Continuous
100
AcDbCircle
 10
366.823007
 20
63.536445
 30
0.0
 40
5.0
100
AcDbArc
 50
315.0
 51
0.0
  0
ARC
  5
177
100
AcDbEntity
  8
0
370
    -3
  6
Continuous
100
AcDbCircle
 10
345.609803
 20
84.749648
 30
0.0
 40
5.0
100
AcDbArc
 50
90.0
 51
135.0
  0
ARC
  5
178
100
AcDbEntity
  8
0
370
    -3
  6
Continuous
100
AcDbCircle
 10
369.823007
 20
-53.250352
 30
0.0
 40
2.0
100
AcDbArc
 50
270.0
 51
0.0
  0
ARC
  5
179
100
AcDbEntity
  8
0
370
    -3
  6
Continuous
100
AcDbCircle
 10
369.590928
 20
-42.250352
 30
0.0
 40
3.0
100
AcDbArc
 50
183.323358
 51
270.0
  0
ARC
  5
17A
100
AcDbEntity
  8
0
370
    -3
  6
Continuous
100
AcDbCircle
 10
369.823007
 20
-47.250352
 30
0.0
 40
2.0
100
AcDbArc
 50
0.0
 51
90.0
  0
ARC
  5
17B
100
AcDbEntity
  8
0
370
    -3
  6
Continuous
100
AcDbCircle
 10
231.823007
 20
-50.250352
 30
0.0
 40
135.0
100
AcDbArc
 50
3.323358
 51
33.059456
  0
ARC
  5
17C
100
AcDbEntity
  8
0
370
    -3
  6
Continuous
100
AcDbCircle
 10
231.823007
 20
-50.250352
 30
0.0
 40
135.0
100
AcDbArc
 50
183.323358
 51
213.059456
  0
LINE
  5
17D
100
AcDbEntity
  8
0
370
    -3
  6
CENTER
100
AcDbLine
 10
340.332555
 20
-158.759901
 30
0.0
 11
365.859703
 21
-184.287048
 31
0.0
  0
LINE
  5
17E
100
AcDbEntity
  8
0
370
    -3
  6
CENTER
100
AcDbLine
 10
124.181735
 20
-157.891623
 30
0.0
 11
97.903789
 21
-184.169569
 31
0.0
  0
LINE
  5
17F
100
AcDbEntity
  8
0
370
    -3
  6
CENTER
100
AcDbLine
 10
340.332555
 20
58.259197
 30
0.0
 11
365.859703
 21
83.786344
 31
0.0
  0
LINE
  5
180
100
AcDbEntity
  8
0
370
    -3
  6
CENTER
100
AcDbLine
 10
123.313458
 20
58.259197
 30
0.0
 11
97.786311
 21
83.786344
 31
0.0
  0
LINE
  5
181
100
AcDbEntity
  8
0
370
    -3
  6
CENTER
100
AcDbLine
 10
200.97843
 20
-51.750352
 30
0.0
 11
267.121854
 21
-51.750352
 31
0.0
  0
CIRCLE
  5
182
100
AcDbEntity
  8
0
370
    -3
  6
Continuous
100
AcDbCircle
 10
231.823007
 20
-50.250352
 30
0.0
 40
130.0
  0
LINE
  5
183
100
AcDbEntity
  8
0
370
    -3
  6
DASHED
100
AcDbLine
 10
149.659631
 20
-54.356049
 30
0.0
 11
149.659254
 21
-54.356049
 31
0.0
  0
ARC
  5
184
100
AcDbEntity
  8
0
370
    -3
  6
Continuous
100
AcDbCircle
 10
199.823007
 20
-51.485926
 30
0.0
 40
82.197605
100
AcDbArc
 50
94.422378
 51
172.942005
  0
ARC
  5
185
100
AcDbEntity
  8
0
370
    -3
  6
Continuous
100
AcDbCircle
 10
193.546928
 20
-125.022953
 30
0.0
 40
44.0
100
AcDbArc
 50
111.461978
 51
171.603098
  0
ARC
  5
186
100
AcDbEntity
  8
0
370
    -3
  6
Continuous
100
AcDbCircle
 10
171.57134
 20
-68.6552
 30
0.0
 40
10.0
100
AcDbArc
 50
291.29887
 51
16.986141
  0
ARC
  5
187
100
AcDbEntity
  8
0
370
    -3
  6
Continuous
100
AcDbCircle
 10
173.789207
 20
-74.767282
 30
0.0
 40
10.0
100
AcDbArc
 50
291.461978
 51
22.902088
  0
CIRCLE
  5
188
100
AcDbEntity
  8
0
370
    -3
  6
Continuous
100
AcDbCircle
 10
231.823007
 20
-50.250352
 30
0.0
 40
53.000014
  0
ARC
  5
189
100
AcDbEntity
  8
0
370
    -3
  6
Continuous
100
AcDbCircle
 10
193.546928
 20
-125.022953
 30
0.0
 40
50.5
100
AcDbArc
 50
111.29887
 51
165.196483
  0
ARC
  5
18A
100
AcDbEntity
  8
0
370
    -3
  6
Continuous
100
AcDbCircle
 10
176.172858
 20
-44.000352
 30
0.0
 40
3.0
100
AcDbArc
 50
270.0
 51
353.592033
  0
ARC
  5
18B
100
AcDbEntity
  8
0
370
    -3
  6
Continuous
100
AcDbCircle
 10
176.172858
 20
-56.500352
 30
0.0
 40
3.0
100
AcDbArc
 50
6.407967
 51
90.0
  0
LINE
  5
18C
100
AcDbEntity
  8
0
370
    -3
  6
CENTER
100
AcDbLine
 10
79.554908
 20
-50.250352
 30
0.0
 11
389.305193
 21
-50.250352
 31
0.0
  0
LINE
  5
18D
100
AcDbEntity
  8
0
370
    -3
  6
Continuous
100
AcDbLine
 10
111.485201
 20
-53.500352
 30
0.0
 11
176.172858
 21
-53.500352
 31
0.0
  0
LINE
  5
18E
100
AcDbEntity
  8
0
370
    -3
  6
Continuous
100
AcDbLine
 10
111.485201
 20
-47.000352
 30
0.0
 11
176.172858
 21
-47.000352
 31
0.0
  0
LINE
  5
18F
100
AcDbEntity
  8
0
370
    -3
  6
Continuous
100
AcDbLine
 10
-197.176999
 20
328.45714
 30
0.0
 11
-197.176999
 21
248.203414
 31
0.0
  0
LINE
  5
190
100
AcDbEntity
  8
0
370
    -3
  6
Continuous
100
AcDbLine
 10
-194.281698
 20
245.205242
 30
0.0
 11
-187.176999
 21
244.95714
 31
0.0
  0
ARC
  5
191
100
AcDbEntity
  8
0
370
    -3
  6
Continuous
100
AcDbCircle
 10
-194.176999
 20
248.203414
 30
0.0
 40
3.0
100
AcDbArc
 50
180.0
 51
268.0
  0
INSERT
  5
1A1
100
AcDbEntity
  8
0
100
AcDbBlockReference
  2
ZU_SYM__USERS_HOME_SYMBOL_STD_SYM_B02_-1
 10
-197.176999
 20
273.656365
 30
0.0
  0
LINE
  5
1A2
100
AcDbEntity
  8
0
370
    -3
  6
Continuous
100
AcDbLine
 10
-194.281698
 20
411.709039
 30
0.0
 11
-187.176999
 21
411.95714
 31
0.0
  0
LINE
  5
1A3
100
AcDbEntity
  8
0
370
    -3
  6
Continuous
100
AcDbLine
 10
-197.176999
 20
328.45714
 30
0.0
 11
-197.176999
 21
408.710866
 31
0.0
  0
ARC
  5
1A4
100
AcDbEntity
  8
0
370
    -3
  6
Continuous
100
AcDbCircle
 10
-194.176999
 20
408.710866
 30
0.0
 40
3.0
100
AcDbArc
 50
92.0
 51
180.0
  0
INSERT
  5
1B4
100
AcDbEntity
  8
0
100
AcDbBlockReference
  2
ZU_SYM__USERS_HOME_SYMBOL_STD_SYM_B02_00007-1
 10
-197.176999
 20
383.257916
 30
0.0
 41
-1.0
 50
180.0
  0
INSERT
  5
1C0
100
AcDbEntity
  8
0
100
AcDbBlockReference
  2
ZU_SYM__USERS_HOME_SYMBOL_POO_SYM_B20_00008-1
 10
-178.176999
 20
317.95714
 30
0.0
  0
INSERT
  5
1CC
100
AcDbEntity
  8
0
100
AcDbBlockReference
  2
ZU_SYM__USERS_HOME_SYMBOL_POO_SYM_B20_00009-1
 10
-161.676999
 20
261.45714
 30
0.0
  0
ARC
  5
1CD
100
AcDbEntity
  8
0
370
    -3
  6
Continuous
100
AcDbCircle
 10
-166.676999
 20
237.45714
 30
0.0
 40
2.0
100
AcDbArc
 50
90.0
 51
180.0
  0
LINE
  5
1CE
100
AcDbEntity
  8
0
370
    -3
  6
Continuous
100
AcDbLine
 10
-163.676999
 20
239.45714
 30
0.0
 11
-166.676999
 21
239.45714
 31
0.0
  0
ARC
  5
1CF
100
AcDbEntity
  8
0
370
    -3
  6
Continuous
100
AcDbCircle
 10
-163.676999
 20
241.45714
 30
0.0
 40
2.0
100
AcDbArc
 50
270.0
 51
0.0
  0
LINE
  5
1D0
100
AcDbEntity
  8
0
370
    -3
  6
Continuous
100
AcDbLine
 10
-168.676999
 20
237.45714
 30
0.0
 11
-168.676999
 21
214.45714
 31
0.0
  0
LINE
  5
1D1
100
AcDbEntity
  8
0
370
    -3
  6
Continuous
100
AcDbLine
 10
-150.176999
 20
211.45714
 30
0.0
 11
-165.676999
 21
211.45714
 31
0.0
  0
ARC
  5
1D2
100
AcDbEntity
  8
0
370
    -3
  6
Continuous
100
AcDbCircle
 10
-165.676999
 20
214.45714
 30
0.0
 40
3.0
100
AcDbArc
 50
180.0
 51
270.0
  0
LINE
  5
1D3
100
AcDbEntity
  8
0
370
    -3
  6
Continuous
100
AcDbLine
 10
-169.676998
 20
228.091016
 30
0.0
 11
-169.676998
 21
216.82307
 31
0.0
  0
LINE
  5
1D4
100
AcDbEntity
  8
0
370
    -3
  6
Continuous
100
AcDbLine
 10
-169.176998
 20
228.95714
 30
0.0
 11
-169.676998
 21
228.091016
 31
0.0
  0
LINE
  5
1D5
100
AcDbEntity
  8
0
370
    -3
  6
Continuous
100
AcDbLine
 10
-169.176997
 20
215.95714
 30
0.0
 11
-169.676998
 21
216.82307
 31
0.0
  0
LINE
  5
1D6
100
AcDbEntity
  8
0
370
    -3
  6
Continuous
100
AcDbLine
 10
-169.176998
 20
228.95714
 30
0.0
 11
-169.176998
 21
215.95714
 31
0.0
  0
LINE
  5
1D7
100
AcDbEntity
  8
0
370
    -3
  6
Continuous
100
AcDbLine
 10
-168.676999
 20
215.95714
 30
0.0
 11
-169.176997
 21
215.95714
 31
0.0
  0
LINE
  5
1D8
100
AcDbEntity
  8
0
370
    -3
  6
Continuous
100
AcDbLine
 10
-168.676999
 20
228.95714
 30
0.0
 11
-169.176998
 21
228.95714
 31
0.0
  0
ARC
  5
1D9
100
AcDbEntity
  8
0
370
    -3
  6
Continuous
100
AcDbCircle
 10
-158.676999
 20
214.45714
 30
0.0
 40
3.0
100
AcDbArc
 50
180.0
 51
270.0
  0
ARC
  5
1DA
100
AcDbEntity
  8
0
370
    -3
  6
Continuous
100
AcDbCircle
 10
-164.676999
 20
304.95714
 30
0.0
 40
3.0
100
AcDbArc
 50
0.0
 51
90.0
  0
ARC
  5
1DB
100
AcDbEntity
  8
0
370
    -3
  6
Continuous
100
AcDbCircle
 10
-170.676999
 20
310.95714
 30
0.0
 40
3.0
100
AcDbArc
 50
180.0
 51
270.0
  0
LINE
  5
1DC
100
AcDbEntity
  8
0
370
    -3
  6
Continuous
100
AcDbLine
 10
-173.676999
 20
328.45714
 30
0.0
 11
-173.676999
 21
307.95714
 31
0.0
  0
LINE
  5
1DD
100
AcDbEntity
  8
0
370
    -3
  6
Continuous
100
AcDbLine
 10
-178.176999
 20
307.95714
 30
0.0
 11
-178.176999
 21
328.45714
 31
0.0
  0
LINE
  5
1DE
100
AcDbEntity
  8
0
370
    -3
  6
Continuous
100
AcDbLine
 10
-178.176999
 20
307.95714
 30
0.0
 11
-173.676999
 21
307.95714
 31
0.0
  0
LINE
  5
1DF
100
AcDbEntity
  8
0
370
    -3
  6
Continuous
100
AcDbLine
 10
-170.676999
 20
307.95714
 30
0.0
 11
-164.676999
 21
307.95714
 31
0.0
  0
LINE
  5
1E0
100
AcDbEntity
  8
0
370
    -3
  6
Continuous
100
AcDbLine
 10
-161.676999
 20
214.45714
 30
0.0
 11
-161.676999
 21
304.95714
 31
0.0
  0
LINE
  5
1E1
100
AcDbEntity
  8
0
370
    -3
  6
Continuous
100
AcDbLine
 10
-187.176999
 20
245.027014
 30
0.0
 11
-166.502502
 21
244.305045
 31
0.0
  0
LINE
  5
1E2
100
AcDbEntity
  8
0
370
    -3
  6
Continuous
100
AcDbLine
 10
-187.176999
 20
245.027014
 30
0.0
 11
-187.176999
 21
328.45714
 31
0.0
  0
ARC
  5
1E3
100
AcDbEntity
  8
0
370
    -3
  6
Continuous
100
AcDbCircle
 10
-166.676999
 20
239.30809
 30
0.0
 40
5.0
100
AcDbArc
 50
15.34893
 51
88.0
  0
INSERT
  5
1EF
100
AcDbEntity
  8
0
100
AcDbBlockReference
  2
ZU_SYM__USERS_HOME_SYMBOL_POO_SYM_B20_00010-1
 10
-178.176999
 20
338.95714
 30
0.0
 41
-1.0
 50
180.0
  0
INSERT
  5
1FB
100
AcDbEntity
  8
0
100
AcDbBlockReference
  2
ZU_SYM__USERS_HOME_SYMBOL_POO_SYM_B20_00011-1
 10
-161.676999
 20
395.45714
 30
0.0
 41
-1.0
 50
180.0
  0
ARC
  5
1FC
100
AcDbEntity
  8
0
370
    -3
  6
Continuous
100
AcDbCircle
 10
-166.676999
 20
419.45714
 30
0.0
 40
2.0
100
AcDbArc
 50
180.0
 51
270.0
  0
LINE
  5
1FD
100
AcDbEntity
  8
0
370
    -3
  6
Continuous
100
AcDbLine
 10
-163.676999
 20
417.45714
 30
0.0
 11
-166.676999
 21
417.45714
 31
0.0
  0
ARC
  5
1FE
100
AcDbEntity
  8
0
370
    -3
  6
Continuous
100
AcDbCircle
 10
-163.676999
 20
415.45714
 30
0.0
 40
2.0
100
AcDbArc
 50
0.0
 51
90.0
  0
LINE
  5
1FF
100
AcDbEntity
  8
0
370
    -3
  6
Continuous
100
AcDbLine
 10
-168.676999
 20
419.45714
 30
0.0
 11
-168.676999
 21
442.45714
 31
0.0
  0
LINE
  5
200
100
AcDbEntity
  8
0
370
    -3
  6
Continuous
100
AcDbLine
 10
-150.176999
 20
445.45714
 30
0.0
 11
-165.676999
 21
445.45714
 31
0.0
  0
ARC
  5
201
100
AcDbEntity
  8
0
370
    -3
  6
Continuous
100
AcDbCircle
 10
-165.676999
 20
442.45714
 30
0.0
 40
3.0
100
AcDbArc
 50
90.0
 51
180.0
  0
LINE
  5
202
100
AcDbEntity
  8
0
370
    -3
  6
Continuous
100
AcDbLine
 10
-169.676998
 20
428.823264
 30
0.0
 11
-169.676998
 21
440.091211
 31
0.0
  0
LINE
  5
203
100
AcDbEntity
  8
0
370
    -3
  6
Continuous
100
AcDbLine
 10
-169.176998
 20
427.95714
 30
0.0
 11
-169.676998
 21
428.823264
 31
0.0
  0
LINE
  5
204
100
AcDbEntity
  8
0
370
    -3
  6
Continuous
100
AcDbLine
 10
-169.176997
 20
440.95714
 30
0.0
 11
-169.676998
 21
440.091211
 31
0.0
  0
LINE
  5
205
100
AcDbEntity
  8
0
370
    -3
  6
Continuous
100
AcDbLine
 10
-169.176998
 20
427.95714
 30
0.0
 11
-169.176998
 21
440.95714
 31
0.0
  0
LINE
  5
206
100
AcDbEntity
  8
0
370
    -3
  6
Continuous
100
AcDbLine
 10
-168.676999
 20
440.95714
 30
0.0
 11
-169.176997
 21
440.95714
 31
0.0
  0
LINE
  5
207
100
AcDbEntity
  8
0
370
    -3
  6
Continuous
100
AcDbLine
 10
-168.676999
 20
427.95714
 30
0.0
 11
-169.176998
 21
427.95714
 31
0.0
  0
ARC
  5
208
100
AcDbEntity
  8
0
370
    -3
  6
Continuous
100
AcDbCircle
 10
-158.676999
 20
442.45714
 30
0.0
 40
3.0
100
AcDbArc
 50
90.0
 51
180.0
  0
ARC
  5
209
100
AcDbEntity
  8
0
370
    -3
  6
Continuous
100
AcDbCircle
 10
-164.676999
 20
351.95714
 30
0.0
 40
3.0
100
AcDbArc
 50
270.0
 51
0.0
  0
ARC
  5
20A
100
AcDbEntity
  8
0
370
    -3
  6
Continuous
100
AcDbCircle
 10
-170.676999
 20
345.95714
 30
0.0
 40
3.0
100
AcDbArc
 50
90.0
 51
180.0
  0
LINE
  5
20B
100
AcDbEntity
  8
0
370
    -3
  6
Continuous
100
AcDbLine
 10
-173.676999
 20
328.45714
 30
0.0
 11
-173.676999
 21
348.95714
 31
0.0
  0
LINE
  5
20C
100
AcDbEntity
  8
0
370
    -3
  6
Continuous
100
AcDbLine
 10
-178.176999
 20
348.95714
 30
0.0
 11
-178.176999
 21
328.45714
 31
0.0
  0
LINE
  5
20D
100
AcDbEntity
  8
0
370
    -3
  6
Continuous
100
AcDbLine
 10
-178.176999
 20
348.95714
 30
0.0
 11
-173.676999
 21
348.95714
 31
0.0
  0
LINE
  5
20E
100
AcDbEntity
  8
0
370
    -3
  6
Continuous
100
AcDbLine
 10
-170.676999
 20
348.95714
 30
0.0
 11
-164.676999
 21
348.95714
 31
0.0
  0
LINE
  5
20F
100
AcDbEntity
  8
0
370
    -3
  6
Continuous
100
AcDbLine
 10
-161.676999
 20
442.45714
 30
0.0
 11
-161.676999
 21
351.95714
 31
0.0
  0
LINE
  5
210
100
AcDbEntity
  8
0
370
    -3
  6
Continuous
100
AcDbLine
 10
-187.176999
 20
411.887267
 30
0.0
 11
-166.502502
 21
412.609236
 31
0.0
  0
LINE
  5
211
100
AcDbEntity
  8
0
370
    -3
  6
Continuous
100
AcDbLine
 10
-187.176999
 20
411.887267
 30
0.0
 11
-187.176999
 21
328.45714
 31
0.0
  0
ARC
  5
212
100
AcDbEntity
  8
0
370
    -3
  6
Continuous
100
AcDbCircle
 10
-166.676999
 20
417.60619
 30
0.0
 40
5.0
100
AcDbArc
 50
272.0
 51
344.65107
  0
LINE
  5
213
100
AcDbEntity
  8
0
370
    -3
  6
CENTER
100
AcDbLine
 10
-497.83485
 20
328.45714
 30
0.0
 11
58.769058
 21
328.45714
 31
0.0
  0
LINE
  5
214
100
AcDbEntity
  8
0
370
    -3
  6
Continuous
100
AcDbLine
 10
-258.676999
 20
268.95714
 30
0.0
 11
-202.176999
 21
268.95714
 31
0.0
  0
ARC
  5
215
100
AcDbEntity
  8
0
370
    -3
  6
Continuous
100
AcDbCircle
 10
-244.676999
 20
273.95714
 30
0.0
 40
5.0
100
AcDbArc
 50
270.0
 51
0.0
  0
ARC
  5
216
100
AcDbEntity
  8
0
370
    -3
  6
Continuous
100
AcDbCircle
 10
-200.176999
 20
310.45714
 30
0.0
 40
3.0
100
AcDbArc
 50
0.0
 51
90.0
  0
ARC
  5
217
100
AcDbEntity
  8
0
370
    -3
  6
Continuous
100
AcDbCircle
 10
-200.176999
 20
346.45714
 30
0.0
 40
3.0
100
AcDbArc
 50
270.0
 51
0.0
  0
LINE
  5
218
100
AcDbEntity
  8
0
370
    -3
  6
Continuous
100
AcDbLine
 10
-236.676999
 20
313.45714
 30
0.0
 11
-200.176999
 21
313.45714
 31
0.0
  0
LINE
  5
219
100
AcDbEntity
  8
0
370
    -3
  6
CENTER
100
AcDbLine
 10
-217.176999
 20
311.704802
 30
0.0
 11
-217.176999
 21
343.227609
 31
0.0
  0
ARC
  5
21A
100
AcDbEntity
  8
0
370
    -3
  6
Continuous
100
AcDbCircle
 10
-236.676999
 20
310.45714
 30
0.0
 40
3.0
100
AcDbArc
 50
90.0
 51
180.0
  0
LINE
  5
21B
100
AcDbEntity
  8
0
370
    -3
  6
Continuous
100
AcDbLine
 10
-258.676999
 20
387.95714
 30
0.0
 11
-202.176999
 21
387.95714
 31
0.0
  0
CIRCLE
  5
21C
100
AcDbEntity
  8
0
370
    -3
  6
Continuous
100
AcDbCircle
 10
-217.176999
 20
328.45714
 30
0.0
 40
10.5
  0
LINE
  5
21D
100
AcDbEntity
  8
0
370
    -3
  6
Continuous
100
AcDbLine
 10
-236.676999
 20
343.45714
 30
0.0
 11
-200.176999
 21
343.45714
 31
0.0
  0
LINE
  5
21E
100
AcDbEntity
  8
0
370
    -3
  6
Continuous
100
AcDbLine
 10
-239.676999
 20
328.45714
 30
0.0
 11
-239.676999
 21
273.95714
 31
0.0
  0
LINE
  5
21F
100
AcDbEntity
  8
0
370
    -3
  6
Continuous
100
AcDbLine
 10
-239.676999
 20
382.95714
 30
0.0
 11
-239.676999
 21
328.45714
 31
0.0
  0
ARC
  5
220
100
AcDbEntity
  8
0
370
    -3
  6
Continuous
100
AcDbCircle
 10
-236.676999
 20
346.45714
 30
0.0
 40
3.0
100
AcDbArc
 50
180.0
 51
270.0
  0
ARC
  5
221
100
AcDbEntity
  8
0
370
    -3
  6
Continuous
100
AcDbCircle
 10
-244.676999
 20
382.95714
 30
0.0
 40
5.0
100
AcDbArc
 50
0.0
 51
90.0
  0
ARC
  5
222
100
AcDbEntity
  8
0
370
    -3
  6
Continuous
100
AcDbCircle
 10
-202.176999
 20
263.95714
 30
0.0
 40
5.0
100
AcDbArc
 50
0.0
 51
52.171256
  0
ARC
  5
223
100
AcDbEntity
  8
0
370
    -3
  6
Continuous
100
AcDbCircle
 10
-202.176999
 20
263.95714
 30
0.0
 40
5.0
100
AcDbArc
 50
78.463209
 51
90.0
  0
ARC
  5
224
100
AcDbEntity
  8
0
370
    -3
  6
Continuous
100
AcDbCircle
 10
-202.176999
 20
392.95714
 30
0.0
 40
5.0
100
AcDbArc
 50
270.0
 51
281.536791
  0
ARC
  5
225
100
AcDbEntity
  8
0
370
    -3
  6
Continuous
100
AcDbCircle
 10
-202.176999
 20
392.95714
 30
0.0
 40
5.0
100
AcDbArc
 50
307.828744
 51
0.0
  0
ARC
  5
226
100
AcDbEntity
  8
0
370
    -3
  6
Continuous
100
AcDbCircle
 10
-36.676993
 20
219.741412
 30
0.0
 40
3.0
100
AcDbArc
 50
180.0
 51
270.0
  0
LINE
  5
227
100
AcDbEntity
  8
0
370
    -3
  6
Continuous
100
AcDbLine
 10
-39.676993
 20
219.741412
 30
0.0
 11
-39.676993
 21
328.45714
 31
0.0
  0
ARC
  5
228
100
AcDbEntity
  8
0
370
    -3
  6
Continuous
100
AcDbCircle
 10
-36.676993
 20
251.193238
 30
0.0
 40
3.0
100
AcDbArc
 50
180.0
 51
270.0
  0
LINE
  5
229
100
AcDbEntity
  8
0
370
    -3
  6
Continuous
100
AcDbLine
 10
-32.676993
 20
216.741412
 30
0.0
 11
-36.676993
 21
216.741412
 31
0.0
  0
LINE
  5
22A
100
AcDbEntity
  8
0
370
    -3
  6
Continuous
100
AcDbLine
 10
-32.676993
 20
248.193238
 30
0.0
 11
-36.676993
 21
248.193238
 31
0.0
  0
ARC
  5
22B
100
AcDbEntity
  8
0
370
    -3
  6
Continuous
100
AcDbCircle
 10
-36.676993
 20
437.172869
 30
0.0
 40
3.0
100
AcDbArc
 50
90.0
 51
180.0
  0
LINE
  5
22C
100
AcDbEntity
  8
0
370
    -3
  6
Continuous
100
AcDbLine
 10
-39.676993
 20
437.172869
 30
0.0
 11
-39.676993
 21
328.45714
 31
0.0
  0
ARC
  5
22D
100
AcDbEntity
  8
0
370
    -3
  6
Continuous
100
AcDbCircle
 10
-36.676993
 20
405.721043
 30
0.0
 40
3.0
100
AcDbArc
 50
90.0
 51
180.0
  0
LINE
  5
22E
100
AcDbEntity
  8
0
370
    -3
  6
Continuous
100
AcDbLine
 10
-32.676993
 20
440.172869
 30
0.0
 11
-36.676993
 21
440.172869
 31
0.0
  0
LINE
  5
22F
100
AcDbEntity
  8
0
370
    -3
  6
Continuous
100
AcDbLine
 10
-32.676993
 20
408.721043
 30
0.0
 11
-36.676993
 21
408.721043
 31
0.0
  0
LINE
  5
230
100
AcDbEntity
  8
0
370
    -3
  6
Continuous
100
AcDbLine
 10
41.423007
 20
308.457127
 30
0.0
 11
-15.117178
 21
308.457127
 31
0.0
  0
LINE
  5
231
100
AcDbEntity
  8
0
370
    -3
  6
Continuous
100
AcDbLine
 10
41.423007
 20
348.457127
 30
0.0
 11
-15.117178
 21
348.457127
 31
0.0
  0
LINE
  5
232
100
AcDbEntity
  8
0
370
    -3
  6
Continuous
100
AcDbLine
 10
41.823014
 20
305.457127
 30
0.0
 11
-13.176986
 21
305.457127
 31
0.0
  0
LINE
  5
233
100
AcDbEntity
  8
0
370
    -3
  6
Continuous
100
AcDbLine
 10
-15.117178
 20
308.457127
 30
0.0
 11
-15.676986
 21
308.607127
 31
0.0
  0
LINE
  5
234
100
AcDbEntity
  8
0
370
    -3
  6
Continuous
100
AcDbLine
 10
-18.176993
 20
328.457127
 30
0.0
 11
-18.176993
 21
306.357127
 31
0.0
  0
LINE
  5
235
100
AcDbEntity
  8
0
370
    -3
  6
Continuous
100
AcDbLine
 10
-18.576993
 20
305.957127
 30
0.0
 11
-18.176993
 21
306.357127
 31
0.0
  0
LINE
  5
236
100
AcDbEntity
  8
0
370
    -3
  6
Continuous
100
AcDbLine
 10
-15.676986
 20
308.607127
 30
0.0
 11
-16.576993
 21
308.607127
 31
0.0
  0
ARC
  5
237
100
AcDbEntity
  8
0
370
    -3
  6
Continuous
100
AcDbCircle
 10
-16.576993
 20
307.007127
 30
0.0
 40
1.6
100
AcDbArc
 50
90.0
 51
180.0
  0
LINE
  5
238
100
AcDbEntity
  8
0
370
    -3
  6
Continuous
100
AcDbLine
 10
-18.576993
 20
305.957127
 30
0.0
 11
-20.176993
 21
305.957127
 31
0.0
  0
LINE
  5
239
100
AcDbEntity
  8
0
370
    -3
  6
Continuous
100
AcDbLine
 10
-15.117178
 20
348.457127
 30
0.0
 11
-15.676986
 21
348.307127
 31
0.0
  0
LINE
  5
23A
100
AcDbEntity
  8
0
370
    -3
  6
Continuous
100
AcDbLine
 10
-18.176993
 20
328.457127
 30
0.0
 11
-18.176993
 21
350.557127
 31
0.0
  0
LINE
  5
23B
100
AcDbEntity
  8
0
370
    -3
  6
Continuous
100
AcDbLine
 10
-18.576993
 20
350.957127
 30
0.0
 11
-20.176993
 21
350.957127
 31
0.0
  0
LINE
  5
23C
100
AcDbEntity
  8
0
370
    -3
  6
Continuous
100
AcDbLine
 10
-18.576993
 20
350.957127
 30
0.0
 11
-18.176993
 21
350.557127
 31
0.0
  0
LINE
  5
23D
100
AcDbEntity
  8
0
370
    -3
  6
Continuous
100
AcDbLine
 10
-15.676986
 20
348.307127
 30
0.0
 11
-16.576993
 21
348.307127
 31
0.0
  0
ARC
  5
23E
100
AcDbEntity
  8
0
370
    -3
  6
Continuous
100
AcDbCircle
 10
-16.576993
 20
349.907127
 30
0.0
 40
1.6
100
AcDbArc
 50
180.0
 51
270.0
  0
LINE
  5
23F
100
AcDbEntity
  8
0
370
    -3
  6
Continuous
100
AcDbLine
 10
-13.176993
 20
308.457127
 30
0.0
 11
-13.176993
 21
305.457127
 31
0.0
  0
ARC
  5
240
100
AcDbEntity
  8
0
370
    -3
  6
Continuous
100
AcDbCircle
 10
-56.676993
 20
202.188391
 30
0.0
 40
6.0
100
AcDbArc
 50
0.0
 51
88.0
  0
LINE
  5
241
100
AcDbEntity
  8
0
370
    -3
  6
Continuous
100
AcDbLine
 10
-150.176999
 20
211.45714
 30
0.0
 11
-56.467596
 21
208.184736
 31
0.0
  0
LINE
  5
242
100
AcDbEntity
  8
0
370
    -3
  6
Continuous
100
AcDbLine
 10
-69.198846
 20
331.70714
 30
0.0
 11
-53.676993
 21
331.70714
 31
0.0
  0
LINE
  5
243
100
AcDbEntity
  8
0
370
    -3
  6
Continuous
100
AcDbLine
 10
-69.198846
 20
325.20714
 30
0.0
 11
-53.676993
 21
325.20714
 31
0.0
  0
LINE
  5
244
100
AcDbEntity
  8
0
370
    -3
  6
Continuous
100
AcDbLine
 10
-53.708975
 20
397.981323
 30
0.0
 11
-69.305797
 21
397.981323
 31
0.0
  0
ARC
  5
245
100
AcDbEntity
  8
0
370
    -3
  6
Continuous
100
AcDbCircle
 10
-53.676993
 20
334.70714
 30
0.0
 40
3.0
100
AcDbArc
 50
270.0
 51
0.0
  0
ARC
  5
246
100
AcDbEntity
  8
0
370
    -3
  6
Continuous
100
AcDbCircle
 10
-53.676993
 20
322.20714
 30
0.0
 40
3.0
100
AcDbArc
 50
0.0
 51
90.0
  0
ARC
  5
247
100
AcDbEntity
  8
0
370
    -3
  6
Continuous
100
AcDbCircle
 10
-69.198846
 20
322.20714
 30
0.0
 40
3.0
100
AcDbArc
 50
90.0
 51
180.0
  0
LINE
  5
248
100
AcDbEntity
  8
0
370
    -3
  6
Continuous
100
AcDbLine
 10
-71.298469
 20
399.167489
 30
0.0
 11
-51.287431
 21
425.530224
 31
0.0
  0
ARC
  5
249
100
AcDbEntity
  8
0
370
    -3
  6
Continuous
100
AcDbCircle
 10
-69.198846
 20
334.70714
 30
0.0
 40
3.0
100
AcDbArc
 50
180.0
 51
270.0
  0
LINE
  5
24A
100
AcDbEntity
  8
0
370
    -3
  6
Continuous
100
AcDbLine
 10
-71.298469
 20
405.006324
 30
0.0
 11
-51.287431
 21
431.369059
 31
0.0
  0
ARC
  5
24B
100
AcDbEntity
  8
0
370
    -3
  6
Continuous
100
AcDbCircle
 10
-53.676993
 20
433.182892
 30
0.0
 40
3.0
100
AcDbArc
 50
322.799128
 51
0.0
  0
ARC
  5
24C
100
AcDbEntity
  8
0
370
    -3
  6
Continuous
100
AcDbCircle
 10
-73.688031
 20
406.820157
 30
0.0
 40
3.0
100
AcDbArc
 50
270.0
 51
322.799128
  0
ARC
  5
24D
100
AcDbEntity
  8
0
370
    -3
  6
Continuous
100
AcDbCircle
 10
-53.676993
 20
427.344058
 30
0.0
 40
3.0
100
AcDbArc
 50
322.799128
 51
0.0
  0
ARC
  5
24E
100
AcDbEntity
  8
0
370
    -3
  6
Continuous
100
AcDbCircle
 10
-73.688031
 20
400.981323
 30
0.0
 40
3.0
100
AcDbArc
 50
270.0
 51
322.799128
  0
LINE
  5
24F
100
AcDbEntity
  8
0
370
    -3
  6
Continuous
100
AcDbLine
 10
-53.708975
 20
258.932958
 30
0.0
 11
-69.305797
 21
258.932958
 31
0.0
  0
LINE
  5
250
100
AcDbEntity
  8
0
370
    -3
  6
Continuous
100
AcDbLine
 10
-71.298469
 20
251.907957
 30
0.0
 11
-51.287431
 21
225.545222
 31
0.0
  0
ARC
  5
251
100
AcDbEntity
  8
0
370
    -3
  6
Continuous
100
AcDbCircle
 10
-53.676993
 20
223.731388
 30
0.0
 40
3.0
100
AcDbArc
 50
0.0
 51
37.200872
  0
ARC
  5
252
100
AcDbEntity
  8
0
370
    -3
  6
Continuous
100
AcDbCircle
 10
-73.688031
 20
250.094123
 30
0.0
 40
3.0
100
AcDbArc
 50
37.200872
 51
90.0
  0
ARC
  5
253
100
AcDbEntity
  8
0
370
    -3
  6
Continuous
100
AcDbCircle
 10
-73.688031
 20
255.932958
 30
0.0
 40
3.0
100
AcDbArc
 50
37.200872
 51
90.0
  0
LINE
  5
254
100
AcDbEntity
  8
0
370
    -3
  6
Continuous
100
AcDbLine
 10
-71.298469
 20
257.746792
 30
0.0
 11
-51.287431
 21
231.384057
 31
0.0
  0
ARC
  5
255
100
AcDbEntity
  8
0
370
    -3
  6
Continuous
100
AcDbCircle
 10
-53.676993
 20
229.570223
 30
0.0
 40
3.0
100
AcDbArc
 50
0.0
 51
37.200872
  0
LINE
  5
256
100
AcDbEntity
  8
0
370
    -3
  6
Continuous
100
AcDbLine
 10
-32.676993
 20
188.45714
 30
0.0
 11
-32.676993
 21
328.45714
 31
0.0
  0
LINE
  5
257
100
AcDbEntity
  8
0
370
    -3
  6
Continuous
100
AcDbLine
 10
-28.676993
 20
199.45714
 30
0.0
 11
-28.676993
 21
328.45714
 31
0.0
  0
LINE
  5
258
100
AcDbEntity
  8
0
370
    -3
  6
Continuous
100
AcDbLine
 10
-22.176993
 20
278.304007
 30
0.0
 11
-22.176993
 21
328.45714
 31
0.0
  0
LINE
  5
259
100
AcDbEntity
  8
0
370
    -3
  6
Continuous
100
AcDbLine
 10
-22.176993
 20
378.610472
 30
0.0
 11
-22.176993
 21
328.45714
 31
0.0
  0
LINE
  5
25A
100
AcDbEntity
  8
0
370
    -3
  6
Continuous
100
AcDbLine
 10
-32.676993
 20
468.457127
 30
0.0
 11
-32.676993
 21
328.45714
 31
0.0
  0
LINE
  5
25B
100
AcDbEntity
  8
0
370
    -3
  6
Continuous
100
AcDbLine
 10
-28.676993
 20
457.457127
 30
0.0
 11
-28.676993
 21
328.45714
 31
0.0
  0
LINE
  5
25C
100
AcDbEntity
  8
0
370
    -3
  6
Continuous
100
AcDbLine
 10
-28.676993
 20
381.798017
 30
0.0
 11
-25.019985
 21
381.606361
 31
0.0
  0
LINE
  5
25D
100
AcDbEntity
  8
0
370
    -3
  6
Continuous
100
AcDbLine
 10
-50.676993
 20
465.457127
 30
0.0
 11
-50.676993
 21
191.457154
 31
0.0
  0
LINE
  5
25E
100
AcDbEntity
  8
0
370
    -3
  6
Continuous
100
AcDbLine
 10
-32.676993
 20
188.45714
 30
0.0
 11
-47.676993
 21
188.45714
 31
0.0
  0
ARC
  5
25F
100
AcDbEntity
  8
0
370
    -3
  6
Continuous
100
AcDbCircle
 10
-47.676993
 20
191.457154
 30
0.0
 40
3.0
100
AcDbArc
 50
180.0
 51
270.0
  0
LINE
  5
260
100
AcDbEntity
  8
0
370
    -3
  6
Continuous
100
AcDbLine
 10
-25.019985
 20
275.308118
 30
0.0
 11
-28.676993
 21
275.116462
 31
0.0
  0
ARC
  5
261
100
AcDbEntity
  8
0
370
    -3
  6
Continuous
100
AcDbCircle
 10
-25.176993
 20
378.610472
 30
0.0
 40
3.0
100
AcDbArc
 50
0.0
 51
87.0
  0
ARC
  5
262
100
AcDbEntity
  8
0
370
    -3
  6
Continuous
100
AcDbCircle
 10
-25.176993
 20
278.304007
 30
0.0
 40
3.0
100
AcDbArc
 50
273.0
 51
0.0
  0
ARC
  5
263
100
AcDbEntity
  8
0
370
    -3
  6
Continuous
100
AcDbCircle
 10
-21.176993
 20
286.457127
 30
0.0
 40
1.0
100
AcDbArc
 50
90.0
 51
180.0
  0
ARC
  5
264
100
AcDbEntity
  8
0
370
    -3
  6
Continuous
100
AcDbCircle
 10
-21.176993
 20
370.457127
 30
0.0
 40
1.0
100
AcDbArc
 50
180.0
 51
270.0
  0
ARC
  5
265
100
AcDbEntity
  8
0
370
    -3
  6
Continuous
100
AcDbCircle
 10
-56.676993
 20
454.72589
 30
0.0
 40
6.0
100
AcDbArc
 50
272.0
 51
0.0
  0
ARC
  5
266
100
AcDbEntity
  8
0
370
    -3
  6
Continuous
100
AcDbCircle
 10
-47.676993
 20
465.457127
 30
0.0
 40
3.0
100
AcDbArc
 50
90.0
 51
180.0
  0
LINE
  5
267
100
AcDbEntity
  8
0
370
    -3
  6
Continuous
100
AcDbLine
 10
-21.176993
 20
369.457127
 30
0.0
 11
-20.176993
 21
369.457127
 31
0.0
  0
LINE
  5
268
100
AcDbEntity
  8
0
370
    -3
  6
Continuous
100
AcDbLine
 10
-28.676993
 20
199.45714
 30
0.0
 11
-29.676993
 21
198.45714
 31
0.0
  0
LINE
  5
269
100
AcDbEntity
  8
0
370
    -3
  6
Continuous
100
AcDbLine
 10
-21.176993
 20
287.457127
 30
0.0
 11
-20.176993
 21
287.457127
 31
0.0
  0
LINE
  5
26A
100
AcDbEntity
  8
0
370
    -3
  6
Continuous
100
AcDbLine
 10
-29.676993
 20
458.457127
 30
0.0
 11
-28.676993
 21
457.457127
 31
0.0
  0
LINE
  5
26B
100
AcDbEntity
  8
0
370
    -3
  6
Continuous
100
AcDbLine
 10
-29.676993
 20
198.45714
 30
0.0
 11
-32.676993
 21
198.45714
 31
0.0
  0
LINE
  5
26C
100
AcDbEntity
  8
0
370
    -3
  6
Continuous
100
AcDbLine
 10
-20.176993
 20
369.457127
 30
0.0
 11
-20.176993
 21
287.457127
 31
0.0
  0
LINE
  5
26D
100
AcDbEntity
  8
0
370
    -3
  6
Continuous
100
AcDbLine
 10
-29.676993
 20
458.457127
 30
0.0
 11
-32.676993
 21
458.457127
 31
0.0
  0
LINE
  5
26E
100
AcDbEntity
  8
0
370
    -3
  6
Continuous
100
AcDbLine
 10
-32.676993
 20
468.457127
 30
0.0
 11
-47.676993
 21
468.457127
 31
0.0
  0
LINE
  5
26F
100
AcDbEntity
  8
0
370
    -3
  6
Continuous
100
AcDbLine
 10
-150.176999
 20
445.45714
 30
0.0
 11
-150.176999
 21
211.45714
 31
0.0
  0
LINE
  5
270
100
AcDbEntity
  8
0
370
    -3
  6
Continuous
100
AcDbLine
 10
-150.176999
 20
445.45714
 30
0.0
 11
-56.467596
 21
448.729545
 31
0.0
  0
ARC
  5
271
100
AcDbEntity
  8
0
370
    -3
  6
Continuous
100
AcDbCircle
 10
41.423007
 20
308.857127
 30
0.0
 40
0.4
100
AcDbArc
 50
270.0
 51
0.0
  0
LINE
  5
272
100
AcDbEntity
  8
0
370
    -3
  6
Continuous
100
AcDbLine
 10
41.823007
 20
328.457127
 30
0.0
 11
41.823007
 21
305.457127
 31
0.0
  0
LINE
  5
273
100
AcDbEntity
  8
0
370
    -3
  6
Continuous
100
AcDbLine
 10
41.823007
 20
328.457127
 30
0.0
 11
41.823007
 21
348.057127
 31
0.0
  0
ARC
  5
274
100
AcDbEntity
  8
0
370
    -3
  6
Continuous
100
AcDbCircle
 10
41.423007
 20
348.057127
 30
0.0
 40
0.4
100
AcDbArc
 50
0.0
 51
90.0
  0
LINE
  5
275
100
AcDbEntity
  8
0
370
    -3
  6
CENTER
100
AcDbLine
 10
-23.628853
 20
448.665293
 30
0.0
 11
-77.560412
 21
448.665293
 31
0.0
  0
LINE
  5
276
100
AcDbEntity
  8
0
370
    -3
  6
CENTER
100
AcDbLine
 10
-23.628853
 20
208.248987
 30
0.0
 11
-77.560412
 21
208.248987
 31
0.0
  0
LINE
  5
277
100
AcDbEntity
  8
0
370
    -3
  6
Continuous
100
AcDbLine
 10
-150.676999
 20
445.45714
 30
0.0
 11
-150.676999
 21
328.45714
 31
0.0
  0
LINE
  5
278
100
AcDbEntity
  8
0
370
    -3
  6
Continuous
100
AcDbLine
 10
-150.676999
 20
211.45714
 30
0.0
 11
-150.676999
 21
328.45714
 31
0.0
  0
LINE
  5
279
100
AcDbEntity
  8
0
370
    -3
  6
Continuous
100
AcDbLine
 10
-258.676999
 20
268.95714
 30
0.0
 11
-258.676999
 21
328.45714
 31
0.0
  0
LINE
  5
27A
100
AcDbEntity
  8
0
370
    -3
  6
Continuous
100
AcDbLine
 10
-258.676999
 20
387.95714
 30
0.0
 11
-258.676999
 21
328.45714
 31
0.0
  0
LINE
  5
27B
100
AcDbEntity
  8
0
370
    -3
  6
Continuous
100
AcDbLine
 10
-258.676999
 20
268.95714
 30
0.0
 11
-258.676999
 21
328.45714
 31
0.0
  0
LINE
  5
27C
100
AcDbEntity
  8
0
370
    -3
  6
Continuous
100
AcDbLine
 10
-258.676999
 20
387.95714
 30
0.0
 11
-258.676999
 21
328.45714
 31
0.0
  0
ARC
  5
27D
100
AcDbEntity
  8
0
370
    -3
  6
Continuous
100
AcDbCircle
 10
-620.876224
 20
-137.051127
 30
0.0
 40
7.5
100
AcDbArc
 50
57.076446
 51
212.923554
  0
ARC
  5
27E
100
AcDbEntity
  8
0
370
    -3
  6
Continuous
100
AcDbCircle
 10
-730.477775
 20
-137.051127
 30
0.0
 40
7.5
100
AcDbArc
 50
327.076446
 51
122.923554
  0
ARC
  5
27F
100
AcDbEntity
  8
0
370
    -3
  6
Continuous
100
AcDbCircle
 10
-615.169268
 20
-128.237464
 30
0.0
 40
3.0
100
AcDbArc
 50
237.076446
 51
322.764424
  0
ARC
  5
280
100
AcDbEntity
  8
0
370
    -3
  6
Continuous
100
AcDbCircle
 10
-629.689887
 20
-142.758083
 30
0.0
 40
3.0
100
AcDbArc
 50
307.235576
 51
32.923554
  0
ARC
  5
281
100
AcDbEntity
  8
0
370
    -3
  6
Continuous
100
AcDbCircle
 10
-721.664112
 20
-142.758083
 30
0.0
 40
3.0
100
AcDbArc
 50
147.076446
 51
232.764424
  0
ARC
  5
282
100
AcDbEntity
  8
0
370
    -3
  6
Continuous
100
AcDbCircle
 10
-736.18473
 20
-128.237464
 30
0.0
 40
3.0
100
AcDbArc
 50
217.235576
 51
302.923554
  0
INSERT
  5
28E
100
AcDbEntity
  8
0
100
AcDbBlockReference
  2
ZU_SYM__USERS_HOME_SYMBOL_STD_SYM_B02_00012-1
 10
-620.876224
 20
-137.051127
 30
0.0
  0
INSERT
  5
29A
100
AcDbEntity
  8
0
100
AcDbBlockReference
  2
ZU_SYM__USERS_HOME_SYMBOL_STD_SYM_B02_00013-1
 10
-730.477775
 20
-137.051127
 30
0.0
  0
INSERT
  5
2A7
100
AcDbEntity
  8
0
100
AcDbBlockReference
  2
ZU_SYM__USERS_HOME_SYMBOL_POO_SYM_B20_00014-1
 10
-608.676999
 20
14.749648
 30
0.0
  0
INSERT
  5
2B4
100
AcDbEntity
  8
0
100
AcDbBlockReference
  2
ZU_SYM__USERS_HOME_SYMBOL_POO_SYM_B20_00015-1
 10
-568.676999
 20
-127.250352
 30
0.0
  0
INSERT
  5
2C1
100
AcDbEntity
  8
0
100
AcDbBlockReference
  2
ZU_SYM__USERS_HOME_SYMBOL_POO_SYM_B20_00016-1
 10
-608.676999
 20
-185.250352
 30
0.0
  0
INSERT
  5
2CE
100
AcDbEntity
  8
0
100
AcDbBlockReference
  2
ZU_SYM__USERS_HOME_SYMBOL_POO_SYM_B20_00017-1
 10
-742.676999
 20
-185.250352
 30
0.0
 41
-1.0
  0
INSERT
  5
2DB
100
AcDbEntity
  8
0
100
AcDbBlockReference
  2
ZU_SYM__USERS_HOME_SYMBOL_POO_SYM_B20_00018-1
 10
-782.676999
 20
-127.250352
 30
0.0
 41
-1.0
  0
INSERT
  5
2E8
100
AcDbEntity
  8
0
100
AcDbBlockReference
  2
ZU_SYM__USERS_HOME_SYMBOL_POO_SYM_B20_00019-1
 10
-781.676999
 20
-61.250352
 30
0.0
 41
-1.0
  0
INSERT
  5
2F5
100
AcDbEntity
  8
0
100
AcDbBlockReference
  2
ZU_SYM__USERS_HOME_SYMBOL_POO_SYM_B20_00020-1
 10
-742.676999
 20
14.749648
 30
0.0
 41
-1.0
  0
INSERT
  5
302
100
AcDbEntity
  8
0
100
AcDbBlockReference
  2
ZU_SYM__USERS_HOME_SYMBOL_POO_SYM_B20_00021-1
 10
-686.176999
 20
21.749648
 30
0.0
 41
-1.0
  0
LINE
  5
303
100
AcDbEntity
  8
0
370
    -3
  6
Continuous
100
AcDbLine
 10
-792.676999
 20
-127.846405
 30
0.0
 11
-792.676999
 21
-51.485926
 31
0.0
  0
ARC
  5
304
100
AcDbEntity
  8
0
370
    -3
  6
Continuous
100
AcDbCircle
 10
-790.676999
 20
-50.250352
 30
0.0
 40
2.0
100
AcDbArc
 50
90.0
 51
180.0
  0
ARC
  5
305
100
AcDbEntity
  8
0
370
    -3
  6
Continuous
100
AcDbCircle
 10
-786.676999
 20
-127.846405
 30
0.0
 40
6.0
100
AcDbArc
 50
180.0
 51
202.331645
  0
LINE
  5
306
100
AcDbEntity
  8
0
370
    -3
  6
Continuous
100
AcDbLine
 10
-777.676999
 20
-48.250352
 30
0.0
 11
-790.676999
 21
-48.250352
 31
0.0
  0
LINE
  5
307
100
AcDbEntity
  8
0
370
    -3
  6
Continuous
100
AcDbLine
 10
-777.676999
 20
-22.250352
 30
0.0
 11
-784.575237
 21
-22.250352
 31
0.0
  0
LINE
  5
308
100
AcDbEntity
  8
0
370
    -3
  6
Continuous
100
AcDbLine
 10
-675.676999
 20
-192.250355
 30
0.0
 11
-615.818424
 21
-192.250355
 31
0.0
  0
LINE
  5
309
100
AcDbEntity
  8
0
370
    -3
  6
Continuous
100
AcDbLine
 10
-675.676999
 20
-192.250355
 30
0.0
 11
-735.535574
 21
-192.250355
 31
0.0
  0
LINE
  5
30A
100
AcDbEntity
  8
0
370
    -3
  6
Continuous
100
AcDbLine
 10
-558.676999
 20
-127.846405
 30
0.0
 11
-558.676999
 21
-96.552742
 31
0.0
  0
LINE
  5
30B
100
AcDbEntity
  8
0
370
    -3
  6
Continuous
100
AcDbLine
 10
-614.676995
 20
-193.250355
 30
0.0
 11
-602.677004
 21
-193.250355
 31
0.0
  0
LINE
  5
30C
100
AcDbEntity
  8
0
370
    -3
  6
Continuous
100
AcDbLine
 10
-736.677004
 20
-193.250355
 30
0.0
 11
-748.676995
 21
-193.250355
 31
0.0
  0
LINE
  5
30D
100
AcDbEntity
  8
0
370
    -3
  6
Continuous
100
AcDbLine
 10
-608.449643
 20
-19.61919
 30
0.0
 11
-606.332173
 21
-17.501721
 31
0.0
  0
LINE
  5
30E
100
AcDbEntity
  8
0
370
    -3
  6
Continuous
100
AcDbLine
 10
-742.904356
 20
-144.881515
 30
0.0
 11
-764.836876
 21
-166.814035
 31
0.0
  0
LINE
  5
30F
100
AcDbEntity
  8
0
370
    -3
  6
Continuous
100
AcDbLine
 10
-738.308162
 20
-149.477709
 30
0.0
 11
-760.240682
 21
-171.410229
 31
0.0
  0
LINE
  5
310
100
AcDbEntity
  8
0
370
    -3
  6
Continuous
100
AcDbLine
 10
-604.640345
 20
-148.690812
 30
0.0
 11
-586.517123
 21
-166.814035
 31
0.0
  0
LINE
  5
311
100
AcDbEntity
  8
0
370
    -3
  6
Continuous
100
AcDbLine
 10
-608.540792
 20
-153.982754
 30
0.0
 11
-591.113317
 21
-171.410229
 31
0.0
  0
ARC
  5
312
100
AcDbEntity
  8
0
370
    -3
  6
Continuous
100
AcDbCircle
 10
-777.676999
 20
-35.250352
 30
0.0
 40
13.0
100
AcDbArc
 50
270.0
 51
90.0
  0
ARC
  5
313
100
AcDbEntity
  8
0
370
    -3
  6
Continuous
100
AcDbCircle
 10
-784.575237
 20
-20.250352
 30
0.0
 40
2.0
100
AcDbArc
 50
157.893324
 51
270.0
  0
ARC
  5
314
100
AcDbEntity
  8
0
370
    -3
  6
Continuous
100
AcDbCircle
 10
-675.676999
 20
-82.250353
 30
0.0
 40
126.0
100
AcDbArc
 50
309.364679
 51
337.668355
  0
ARC
  5
315
100
AcDbEntity
  8
0
370
    -3
  6
Continuous
100
AcDbCircle
 10
-564.676999
 20
-127.846405
 30
0.0
 40
6.0
100
AcDbArc
 50
337.668355
 51
0.0
  0
ARC
  5
316
100
AcDbEntity
  8
0
370
    -3
  6
Continuous
100
AcDbCircle
 10
-675.676999
 20
-82.250353
 30
0.0
 40
126.0
100
AcDbArc
 50
202.331645
 51
230.635321
  0
ARC
  5
317
100
AcDbEntity
  8
0
370
    -3
  6
Continuous
100
AcDbCircle
 10
-643.676999
 20
-51.485926
 30
0.0
 40
85.0
100
AcDbArc
 50
33.19412
 51
85.577622
  0
ARC
  5
318
100
AcDbEntity
  8
0
370
    -3
  6
Continuous
100
AcDbCircle
 10
-590.686959
 20
-185.849065
 30
0.0
 40
8.0
100
AcDbArc
 50
129.364679
 51
178.093887
  0
ARC
  5
319
100
AcDbEntity
  8
0
370
    -3
  6
Continuous
100
AcDbCircle
 10
-742.676999
 20
-185.250352
 30
0.0
 40
10.0
100
AcDbArc
 50
306.869864
 51
315.572968
  0
ARC
  5
31A
100
AcDbEntity
  8
0
370
    -3
  6
Continuous
100
AcDbCircle
 10
-760.667039
 20
-185.849065
 30
0.0
 40
8.0
100
AcDbArc
 50
1.906113
 51
50.635321
  0
ARC
  5
31B
100
AcDbEntity
  8
0
370
    -3
  6
Continuous
100
AcDbCircle
 10
-742.676999
 20
-185.250352
 30
0.0
 40
10.0
100
AcDbArc
 50
181.906113
 51
233.130136
  0
ARC
  5
31C
100
AcDbEntity
  8
0
370
    -3
  6
Continuous
100
AcDbCircle
 10
-608.676999
 20
-185.250352
 30
0.0
 40
10.0
100
AcDbArc
 50
224.427032
 51
233.130136
  0
ARC
  5
31D
100
AcDbEntity
  8
0
370
    -3
  6
Continuous
100
AcDbCircle
 10
-608.676999
 20
-185.250352
 30
0.0
 40
10.0
100
AcDbArc
 50
306.869864
 51
358.093887
  0
ARC
  5
31E
100
AcDbEntity
  8
0
370
    -3
  6
Continuous
100
AcDbCircle
 10
-637.400921
 20
-125.022953
 30
0.0
 40
38.0
100
AcDbArc
 50
264.588105
 51
355.900478
  0
ARC
  5
31F
100
AcDbEntity
  8
0
370
    -3
  6
Continuous
100
AcDbCircle
 10
-594.510941
 20
-128.096985
 30
0.0
 40
5.0
100
AcDbArc
 50
154.450645
 51
175.900478
  0
ARC
  5
320
100
AcDbEntity
  8
0
370
    -3
  6
Continuous
100
AcDbCircle
 10
-641.456466
 20
-167.831276
 30
0.0
 40
5.0
100
AcDbArc
 50
84.588105
 51
106.037938
  0
ARC
  5
321
100
AcDbEntity
  8
0
370
    -3
  6
Continuous
100
AcDbCircle
 10
-606.328322
 20
-21.74051
 30
0.0
 40
3.0
100
AcDbArc
 50
135.0
 51
140.456277
  0
ARC
  5
322
100
AcDbEntity
  8
0
370
    -3
  6
Continuous
100
AcDbCircle
 10
-582.017373
 20
2.570438
 30
0.0
 40
3.0
100
AcDbArc
 50
41.240714
 51
135.0
  0
ARC
  5
323
100
AcDbEntity
  8
0
370
    -3
  6
Continuous
100
AcDbCircle
 10
-590.950663
 20
11.314818
 30
0.0
 40
3.0
100
AcDbArc
 50
315.0
 51
49.983806
  0
ARC
  5
324
100
AcDbEntity
  8
0
370
    -3
  6
Continuous
100
AcDbCircle
 10
-745.025676
 20
-142.760195
 30
0.0
 40
3.0
100
AcDbArc
 50
315.0
 51
40.088527
  0
ARC
  5
325
100
AcDbEntity
  8
0
370
    -3
  6
Continuous
100
AcDbCircle
 10
-736.186842
 20
-151.59903
 30
0.0
 40
3.0
100
AcDbArc
 50
49.911473
 51
135.0
  0
ARC
  5
326
100
AcDbEntity
  8
0
370
    -3
  6
Continuous
100
AcDbCircle
 10
-766.958196
 20
-164.692715
 30
0.0
 40
3.0
100
AcDbArc
 50
222.087375
 51
315.0
  0
ARC
  5
327
100
AcDbEntity
  8
0
370
    -3
  6
Continuous
100
AcDbCircle
 10
-758.119361
 20
-173.53155
 30
0.0
 40
3.0
100
AcDbArc
 50
135.0
 51
227.912625
  0
ARC
  5
328
100
AcDbEntity
  8
0
370
    -3
  6
Continuous
100
AcDbCircle
 10
-593.234637
 20
-173.53155
 30
0.0
 40
3.0
100
AcDbArc
 50
312.087375
 51
45.0
  0
ARC
  5
329
100
AcDbEntity
  8
0
370
    -3
  6
Continuous
100
AcDbCircle
 10
-584.395802
 20
-164.692715
 30
0.0
 40
3.0
100
AcDbArc
 50
225.0
 51
317.912625
  0
ARC
  5
32A
100
AcDbEntity
  8
0
370
    -3
  6
Continuous
100
AcDbCircle
 10
-610.662112
 20
-156.104074
 30
0.0
 40
3.0
100
AcDbArc
 50
45.0
 51
130.705113
  0
ARC
  5
32B
100
AcDbEntity
  8
0
370
    -3
  6
Continuous
100
AcDbCircle
 10
-602.519025
 20
-146.569492
 30
0.0
 40
3.0
100
AcDbArc
 50
148.296383
 51
225.0
  0
ARC
  5
32C
100
AcDbEntity
  8
0
370
    -3
  6
Continuous
100
AcDbCircle
 10
-707.676999
 20
-51.485926
 30
0.0
 40
85.0
100
AcDbArc
 50
94.422378
 51
180.0
  0
LINE
  5
32D
100
AcDbEntity
  8
0
370
    -3
  6
Continuous
100
AcDbLine
 10
-696.176999
 20
34.329221
 30
0.0
 11
-696.176999
 21
12.749648
 31
0.0
  0
ARC
  5
32E
100
AcDbEntity
  8
0
370
    -3
  6
Continuous
100
AcDbCircle
 10
-675.676999
 20
-465.250352
 30
0.0
 40
500.0
100
AcDbArc
 50
92.349786
 51
94.422378
  0
ARC
  5
32F
100
AcDbEntity
  8
0
370
    -3
  6
Continuous
100
AcDbCircle
 10
-675.676999
 20
-465.250352
 30
0.0
 40
500.0
100
AcDbArc
 50
85.577622
 51
87.650214
  0
ARC
  5
330
100
AcDbEntity
  8
0
370
    -3
  6
Continuous
100
AcDbCircle
 10
-665.176999
 20
59.749648
 30
0.0
 40
10.0
100
AcDbArc
 50
0.0
 51
90.0
  0
LINE
  5
331
100
AcDbEntity
  8
0
370
    -3
  6
Continuous
100
AcDbLine
 10
-655.176999
 20
59.749648
 30
0.0
 11
-655.176999
 21
34.329221
 31
0.0
  0
LINE
  5
332
100
AcDbEntity
  8
0
370
    -3
  6
Continuous
100
AcDbLine
 10
-665.176999
 20
69.749648
 30
0.0
 11
-686.176999
 21
69.749648
 31
0.0
  0
ARC
  5
333
100
AcDbEntity
  8
0
370
    -3
  6
Continuous
100
AcDbCircle
 10
-686.176999
 20
59.749648
 30
0.0
 40
10.0
100
AcDbArc
 50
90.0
 51
180.0
  0
LINE
  5
334
100
AcDbEntity
  8
0
370
    -3
  6
CENTER
100
AcDbLine
 10
-652.509086
 20
49.749648
 30
0.0
 11
-699.5316
 21
49.749648
 31
0.0
  0
CIRCLE
  5
335
100
AcDbEntity
  8
0
370
    -3
  6
Continuous
100
AcDbCircle
 10
-675.676999
 20
49.749648
 30
0.0
 40
10.0
  0
LINE
  5
336
100
AcDbEntity
  8
0
370
    -3
  6
Continuous
100
AcDbLine
 10
-696.176999
 20
59.749648
 30
0.0
 11
-696.176999
 21
34.329221
 31
0.0
  0
LINE
  5
337
100
AcDbEntity
  8
0
370
    -3
  6
Continuous
100
AcDbLine
 10
-754.375337
 20
23.851792
 30
0.0
 11
-777.271794
 21
46.748249
 31
0.0
  0
LINE
  5
338
100
AcDbEntity
  8
0
370
    -3
  6
Continuous
100
AcDbLine
 10
-747.322502
 20
25.991345
 30
0.0
 11
-772.6756
 21
51.344443
 31
0.0
  0
LINE
  5
339
100
AcDbEntity
  8
0
370
    -3
  6
Continuous
100
AcDbLine
 10
-805.676999
 20
-190.250352
 30
0.0
 11
-751.337253
 21
-190.250352
 31
0.0
  0
LINE
  5
33A
100
AcDbEntity
  8
0
370
    -3
  6
Continuous
100
AcDbLine
 10
-815.676999
 20
-180.250352
 30
0.0
 11
-815.676999
 21
79.749648
 31
0.0
  0
LINE
  5
33B
100
AcDbEntity
  8
0
370
    -3
  6
Continuous
100
AcDbLine
 10
-600.016745
 20
-190.250352
 30
0.0
 11
-545.676999
 21
-190.250352
 31
0.0
  0
LINE
  5
33C
100
AcDbEntity
  8
0
370
    -3
  6
Continuous
100
AcDbLine
 10
-535.676999
 20
-180.250352
 30
0.0
 11
-535.676999
 21
79.749648
 31
0.0
  0
LINE
  5
33D
100
AcDbEntity
  8
0
370
    -3
  6
Continuous
100
AcDbLine
 10
-805.676999
 20
89.749648
 30
0.0
 11
-545.676999
 21
89.749648
 31
0.0
  0
LINE
  5
33E
100
AcDbEntity
  8
0
370
    -3
  6
Continuous
100
AcDbLine
 10
-604.031497
 20
25.991345
 30
0.0
 11
-578.678399
 21
51.344443
 31
0.0
  0
LINE
  5
33F
100
AcDbEntity
  8
0
370
    -3
  6
Continuous
100
AcDbLine
 10
-596.978661
 20
23.851792
 30
0.0
 11
-574.082205
 21
46.748249
 31
0.0
  0
ARC
  5
340
100
AcDbEntity
  8
0
370
    -3
  6
Continuous
100
AcDbCircle
 10
-681.926999
 20
71.749613
 30
0.0
 40
3.0
100
AcDbArc
 50
0.0
 51
90.0
  0
ARC
  5
341
100
AcDbEntity
  8
0
370
    -3
  6
Continuous
100
AcDbCircle
 10
-805.676999
 20
-180.250352
 30
0.0
 40
10.0
100
AcDbArc
 50
180.0
 51
270.0
  0
CIRCLE
  5
342
100
AcDbEntity
  8
0
370
    -3
  6
Continuous
100
AcDbCircle
 10
-795.885152
 20
-170.458505
 30
0.0
 40
9.5
  0
ARC
  5
343
100
AcDbEntity
  8
0
370
    -3
  6
Continuous
100
AcDbCircle
 10
-545.676999
 20
-180.250352
 30
0.0
 40
10.0
100
AcDbArc
 50
270.0
 51
0.0
  0
CIRCLE
  5
344
100
AcDbEntity
  8
0
370
    -3
  6
Continuous
100
AcDbCircle
 10
-555.468846
 20
-170.458505
 30
0.0
 40
9.5
  0
ARC
  5
345
100
AcDbEntity
  8
0
370
    -3
  6
Continuous
100
AcDbCircle
 10
-805.676999
 20
79.749648
 30
0.0
 40
10.0
100
AcDbArc
 50
90.0
 51
180.0
  0
CIRCLE
  5
346
100
AcDbEntity
  8
0
370
    -3
  6
Continuous
100
AcDbCircle
 10
-795.885152
 20
69.957801
 30
0.0
 40
9.5
  0
ARC
  5
347
100
AcDbEntity
  8
0
370
    -3
  6
Continuous
100
AcDbCircle
 10
-745.201182
 20
28.112665
 30
0.0
 40
3.0
100
AcDbArc
 50
225.0
 51
295.240018
  0
ARC
  5
348
100
AcDbEntity
  8
0
370
    -3
  6
Continuous
100
AcDbCircle
 10
-545.676999
 20
79.749648
 30
0.0
 40
10.0
100
AcDbArc
 50
0.0
 51
90.0
  0
CIRCLE
  5
349
100
AcDbEntity
  8
0
370
    -3
  6
Continuous
100
AcDbCircle
 10
-555.468846
 20
69.957801
 30
0.0
 40
9.5
  0
ARC
  5
34A
100
AcDbEntity
  8
0
370
    -3
  6
Continuous
100
AcDbCircle
 10
-770.55428
 20
53.465763
 30
0.0
 40
3.0
100
AcDbArc
 50
132.451607
 51
225.0
  0
ARC
  5
34B
100
AcDbEntity
  8
0
370
    -3
  6
Continuous
100
AcDbCircle
 10
-779.393114
 20
44.626928
 30
0.0
 40
3.0
100
AcDbArc
 50
45.0
 51
137.548393
  0
ARC
  5
34C
100
AcDbEntity
  8
0
370
    -3
  6
Continuous
100
AcDbCircle
 10
-580.799719
 20
53.465763
 30
0.0
 40
3.0
100
AcDbArc
 50
315.0
 51
47.548393
  0
ARC
  5
34D
100
AcDbEntity
  8
0
370
    -3
  6
Continuous
100
AcDbCircle
 10
-606.152817
 20
28.112665
 30
0.0
 40
3.0
100
AcDbArc
 50
244.759982
 51
315.0
  0
ARC
  5
34E
100
AcDbEntity
  8
0
370
    -3
  6
Continuous
100
AcDbCircle
 10
-571.960884
 20
44.626928
 30
0.0
 40
3.0
100
AcDbArc
 50
42.451607
 51
135.0
  0
ARC
  5
34F
100
AcDbEntity
  8
0
370
    -3
  6
Continuous
100
AcDbCircle
 10
-756.496658
 20
21.730472
 30
0.0
 40
3.0
100
AcDbArc
 50
303.694795
 51
45.0
  0
ARC
  5
350
100
AcDbEntity
  8
0
370
    -3
  6
Continuous
100
AcDbCircle
 10
-594.857341
 20
21.730472
 30
0.0
 40
3.0
100
AcDbArc
 50
135.0
 51
236.305205
  0
ARC
  5
351
100
AcDbEntity
  8
0
370
    -3
  6
Continuous
100
AcDbCircle
 10
-669.426999
 20
71.749613
 30
0.0
 40
3.0
100
AcDbArc
 50
90.0
 51
180.0
  0
LINE
  5
352
100
AcDbEntity
  8
0
370
    -3
  6
Continuous
100
AcDbLine
 10
-672.426999
 20
69.749648
 30
0.0
 11
-672.426999
 21
71.749613
 31
0.0
  0
LINE
  5
353
100
AcDbEntity
  8
0
370
    -3
  6
Continuous
100
AcDbLine
 10
-678.926999
 20
69.749648
 30
0.0
 11
-678.926999
 21
71.749613
 31
0.0
  0
LINE
  5
354
100
AcDbEntity
  8
0
370
    -3
  6
Continuous
100
AcDbLine
 10
-672.426999
 20
40.292508
 30
0.0
 11
-672.426999
 21
59.206788
 31
0.0
  0
LINE
  5
355
100
AcDbEntity
  8
0
370
    -3
  6
Continuous
100
AcDbLine
 10
-678.926999
 20
40.292508
 30
0.0
 11
-678.926999
 21
59.206788
 31
0.0
  0
LINE
  5
356
100
AcDbEntity
  8
0
370
    -3
  6
CENTER
100
AcDbLine
 10
-569.108386
 20
56.318261
 30
0.0
 11
-540.71051
 21
84.716137
 31
0.0
  0
ARC
  5
357
100
AcDbEntity
  8
0
370
    -3
  6
CENTER
100
AcDbCircle
 10
-675.676999
 20
-50.250352
 30
0.0
 40
170.0
100
AcDbArc
 50
38.2238
 51
51.57155
  0
ARC
  5
358
100
AcDbEntity
  8
0
370
    -3
  6
CENTER
100
AcDbCircle
 10
-675.676999
 20
-50.250352
 30
0.0
 40
170.0
100
AcDbArc
 50
307.96248
 51
322.555898
  0
LINE
  5
359
100
AcDbEntity
  8
0
370
    -3
  6
CENTER
100
AcDbLine
 10
-541.433946
 20
-184.493406
 30
0.0
 11
-569.767793
 21
-156.159558
 31
0.0
  0
ARC
  5
35A
100
AcDbEntity
  8
0
370
    -3
  6
CENTER
100
AcDbCircle
 10
-675.676999
 20
-50.250352
 30
0.0
 40
170.0
100
AcDbArc
 50
217.444102
 51
232.03752
  0
LINE
  5
35B
100
AcDbEntity
  8
0
370
    -3
  6
CENTER
100
AcDbLine
 10
-809.920053
 20
-184.493406
 30
0.0
 11
-781.586206
 21
-156.159558
 31
0.0
  0
LINE
  5
35C
100
AcDbEntity
  8
0
370
    -3
  6
CENTER
100
AcDbLine
 10
-782.245612
 20
56.318261
 30
0.0
 11
-810.643489
 21
84.716137
 31
0.0
  0
ARC
  5
35D
100
AcDbEntity
  8
0
370
    -3
  6
CENTER
100
AcDbCircle
 10
-675.676999
 20
-50.250352
 30
0.0
 40
170.0
100
AcDbArc
 50
128.42845
 51
142.020716
  0
LINE
  5
35E
100
AcDbEntity
  8
0
370
    -3
  6
Continuous
100
AcDbLine
 10
-258.676999
 20
387.962553
 30
0.0
 11
-258.676999
 21
268.962553
 31
0.0
  0
LINE
  5
35F
100
AcDbEntity
  8
0
370
    -3
  6
Continuous
100
AcDbLine
 10
-759.176999
 20
-68.750352
 30
0.0
 11
-759.176999
 21
-95.750352
 31
0.0
  0
ARC
  5
360
100
AcDbEntity
  8
0
370
    -3
  6
Continuous
100
AcDbCircle
 10
-689.176999
 20
-95.750352
 30
0.0
 40
70.0
100
AcDbArc
 50
180.0
 51
270.0
  0
ARC
  5
361
100
AcDbEntity
  8
0
370
    -3
  6
Continuous
100
AcDbCircle
 10
-690.176999
 20
-122.731829
 30
0.0
 40
3.0
100
AcDbArc
 50
70.293059
 51
180.0
  0
ARC
  5
362
100
AcDbEntity
  8
0
370
    -3
  6
Continuous
100
AcDbCircle
 10
-701.176999
 20
-157.750352
 30
0.0
 40
3.0
100
AcDbArc
 50
270.0
 51
0.0
  0
ARC
  5
363
100
AcDbEntity
  8
0
370
    -3
  6
Continuous
100
AcDbCircle
 10
-690.176999
 20
-157.750352
 30
0.0
 40
3.0
100
AcDbArc
 50
180.0
 51
270.0
  0
LINE
  5
364
100
AcDbEntity
  8
0
370
    -3
  6
Continuous
100
AcDbLine
 10
-693.176999
 20
-122.731829
 30
0.0
 11
-693.176999
 21
-157.750352
 31
0.0
  0
ARC
  5
365
100
AcDbEntity
  8
0
370
    -3
  6
Continuous
100
AcDbCircle
 10
-661.176999
 20
-157.750352
 30
0.0
 40
3.0
100
AcDbArc
 50
270.0
 51
0.0
  0
ARC
  5
366
100
AcDbEntity
  8
0
370
    -3
  6
Continuous
100
AcDbCircle
 10
-650.176999
 20
-157.750352
 30
0.0
 40
3.0
100
AcDbArc
 50
180.0
 51
270.0
  0
LINE
  5
367
100
AcDbEntity
  8
0
370
    -3
  6
Continuous
100
AcDbLine
 10
-662.176999
 20
-165.750352
 30
0.0
 11
-689.176999
 21
-165.750352
 31
0.0
  0
ARC
  5
368
100
AcDbEntity
  8
0
370
    -3
  6
Continuous
100
AcDbCircle
 10
-662.176999
 20
-95.750352
 30
0.0
 40
70.0
100
AcDbArc
 50
270.0
 51
357.707557
  0
ARC
  5
369
100
AcDbEntity
  8
0
370
    -3
  6
Continuous
100
AcDbCircle
 10
-760.403335
 20
11.314819
 30
0.0
 40
3.0
100
AcDbArc
 50
130.016194
 51
225.0
  0
ARC
  5
36A
100
AcDbEntity
  8
0
370
    -3
  6
Continuous
100
AcDbCircle
 10
-769.336625
 20
2.570439
 30
0.0
 40
3.0
100
AcDbArc
 50
45.0
 51
138.759286
  0
ARC
  5
36B
100
AcDbEntity
  8
0
370
    -3
  6
Continuous
100
AcDbCircle
 10
-669.426999
 20
6.749648
 30
0.0
 40
3.0
100
AcDbArc
 50
90.0
 51
150.364526
  0
LINE
  5
36C
100
AcDbEntity
  8
0
370
    -3
  6
Continuous
100
AcDbLine
 10
-593.780804
 20
-4.950352
 30
0.0
 11
-584.138694
 21
4.691759
 31
0.0
  0
LINE
  5
36D
100
AcDbEntity
  8
0
370
    -3
  6
CENTER
100
AcDbLine
 10
-243.980337
 20
-51.750352
 30
0.0
 11
-468.606212
 21
-51.750352
 31
0.0
  0
ELLIPSE
  5
36E
100
AcDbEntity
  8
0
370
    -3
  6
Continuous
100
AcDbEllipse
 10
-393.676999
 20
0.173173
 30
0.0
 11
4.6999999999999886
 21
0.0
 31
0.0
210
0.0
220
0.0
230
1.0
 40
0.766646
 41
0.0
 42
6.2831853071795862
  0
LINE
  5
36F
100
AcDbEntity
  8
0
370
    -3
  6
Continuous
100
AcDbLine
 10
-395.676999
 20
3.165549
 30
0.0
 11
-393.676999
 21
1.989763
 31
0.0
  0
LINE
  5
370
100
AcDbEntity
  8
0
370
    -3
  6
Continuous
100
AcDbLine
 10
-393.676999
 20
1.989763
 30
0.0
 11
-391.676999
 21
0.337122
 31
0.0
  0
LINE
  5
371
100
AcDbEntity
  8
0
370
    -3
  6
Continuous
100
AcDbLine
 10
-391.676999
 20
3.165549
 30
0.0
 11
-393.676999
 21
1.989763
 31
0.0
  0
LINE
  5
372
100
AcDbEntity
  8
0
370
    -3
  6
Continuous
100
AcDbLine
 10
-393.676999
 20
1.989763
 30
0.0
 11
-395.676999
 21
0.337122
 31
0.0
  0
ELLIPSE
  5
373
100
AcDbEntity
  8
0
370
    -3
  6
Continuous
100
AcDbEllipse
 10
-393.676999
 20
-103.673877
 30
0.0
 11
4.6999999999999886
 21
0.0
 31
0.0
210
0.0
220
0.0
230
1.0
 40
0.766646
 41
0.0
 42
6.2831853071795862
  0
LINE
  5
374
100
AcDbEntity
  8
0
370
    -3
  6
Continuous
100
AcDbLine
 10
-395.676999
 20
-106.666253
 30
0.0
 11
-393.676999
 21
-105.490467
 31
0.0
  0
LINE
  5
375
100
AcDbEntity
  8
0
370
    -3
  6
Continuous
100
AcDbLine
 10
-393.676999
 20
-105.490467
 30
0.0
 11
-391.676999
 21
-103.837825
 31
0.0
  0
LINE
  5
376
100
AcDbEntity
  8
0
370
    -3
  6
Continuous
100
AcDbLine
 10
-391.676999
 20
-106.666253
 30
0.0
 11
-393.676999
 21
-105.490467
 31
0.0
  0
LINE
  5
377
100
AcDbEntity
  8
0
370
    -3
  6
Continuous
100
AcDbLine
 10
-393.676999
 20
-105.490467
 30
0.0
 11
-395.676999
 21
-103.837825
 31
0.0
  0
LINE
  5
378
100
AcDbEntity
  8
0
370
    -3
  6
Continuous
100
AcDbLine
 10
-382.676999
 20
-98.550352
 30
0.0
 11
-382.676999
 21
-111.750352
 31
0.0
  0
ARC
  5
379
100
AcDbEntity
  8
0
370
    -3
  6
Continuous
100
AcDbCircle
 10
-463.371023
 20
-91.750352
 30
0.0
 40
20.0
100
AcDbArc
 50
235.0
 51
270.0
  0
LINE
  5
37A
100
AcDbEntity
  8
0
370
    -3
  6
Continuous
100
AcDbLine
 10
-382.676999
 20
-111.750352
 30
0.0
 11
-463.371023
 21
-111.750352
 31
0.0
  0
LINE
  5
37B
100
AcDbEntity
  8
0
370
    -3
  6
Continuous
100
AcDbLine
 10
-485.676999
 20
-51.750352
 30
0.0
 11
-485.676999
 21
-99.193557
 31
0.0
  0
ARC
  5
37C
100
AcDbEntity
  8
0
370
    -3
  6
Continuous
100
AcDbCircle
 10
-483.076999
 20
-99.193557
 30
0.0
 40
2.6
100
AcDbArc
 50
180.0
 51
235.0
  0
LINE
  5
37D
100
AcDbEntity
  8
0
370
    -3
  6
Continuous
100
AcDbLine
 10
-474.842552
 20
-108.133393
 30
0.0
 11
-484.568298
 21
-101.323352
 31
0.0
  0
ARC
  5
37E
100
AcDbEntity
  8
0
370
    -3
  6
Continuous
100
AcDbCircle
 10
-483.076999
 20
-4.307147
 30
0.0
 40
2.6
100
AcDbArc
 50
125.0
 51
180.0
  0
LINE
  5
37F
100
AcDbEntity
  8
0
370
    -3
  6
Continuous
100
AcDbLine
 10
-485.676999
 20
-51.750352
 30
0.0
 11
-485.676999
 21
-4.307147
 31
0.0
  0
ARC
  5
380
100
AcDbEntity
  8
0
370
    -3
  6
Continuous
100
AcDbCircle
 10
-463.371023
 20
-11.750352
 30
0.0
 40
20.0
100
AcDbArc
 50
90.0
 51
125.0
  0
LINE
  5
381
100
AcDbEntity
  8
0
370
    -3
  6
Continuous
100
AcDbLine
 10
-474.842552
 20
4.632689
 30
0.0
 11
-484.568298
 21
-2.177352
 31
0.0
  0
LINE
  5
382
100
AcDbEntity
  8
0
370
    -3
  6
Continuous
100
AcDbLine
 10
-382.676999
 20
-4.950352
 30
0.0
 11
-382.676999
 21
8.249648
 31
0.0
  0
LINE
  5
383
100
AcDbEntity
  8
0
370
    -3
  6
Continuous
100
AcDbLine
 10
-382.676999
 20
8.249648
 30
0.0
 11
-463.371023
 21
8.249648
 31
0.0
  0
LINE
  5
384
100
AcDbEntity
  8
0
370
    -3
  6
Continuous
100
AcDbLine
 10
-311.77953
 20
-76.214736
 30
0.0
 11
-258.676999
 21
-76.214736
 31
0.0
  0
LINE
  5
385
100
AcDbEntity
  8
0
370
    -3
  6
Continuous
100
AcDbLine
 10
-311.77953
 20
-78.33896
 30
0.0
 11
-258.676999
 21
-78.33896
 31
0.0
  0
LINE
  5
386
100
AcDbEntity
  8
0
370
    -3
  6
Continuous
100
AcDbLine
 10
-311.77953
 20
-81.67147
 30
0.0
 11
-258.676999
 21
-81.67147
 31
0.0
  0
LINE
  5
387
100
AcDbEntity
  8
0
370
    -3
  6
Continuous
100
AcDbLine
 10
-311.77953
 20
-83.900874
 30
0.0
 11
-258.676999
 21
-83.900874
 31
0.0
  0
LINE
  5
388
100
AcDbEntity
  8
0
370
    -3
  6
Continuous
100
AcDbLine
 10
-311.77953
 20
-87.109473
 30
0.0
 11
-258.676999
 21
-87.109473
 31
0.0
  0
LINE
  5
389
100
AcDbEntity
  8
0
370
    -3
  6
Continuous
100
AcDbLine
 10
-311.77953
 20
-89.446172
 30
0.0
 11
-258.676999
 21
-89.446172
 31
0.0
  0
LINE
  5
38A
100
AcDbEntity
  8
0
370
    -3
  6
Continuous
100
AcDbLine
 10
-311.77953
 20
-21.829234
 30
0.0
 11
-258.676999
 21
-21.829234
 31
0.0
  0
LINE
  5
38B
100
AcDbEntity
  8
0
370
    -3
  6
Continuous
100
AcDbLine
 10
-311.77953
 20
-27.285968
 30
0.0
 11
-258.676999
 21
-27.285968
 31
0.0
  0
LINE
  5
38C
100
AcDbEntity
  8
0
370
    -3
  6
Continuous
100
AcDbLine
 10
-311.77953
 20
-25.161744
 30
0.0
 11
-258.676999
 21
-25.161744
 31
0.0
  0
LINE
  5
38D
100
AcDbEntity
  8
0
370
    -3
  6
Continuous
100
AcDbLine
 10
-311.77953
 20
-33.000352
 30
0.0
 11
-258.676999
 21
-33.000352
 31
0.0
  0
LINE
  5
38E
100
AcDbEntity
  8
0
370
    -3
  6
Continuous
100
AcDbLine
 10
-311.83274
 20
-14.054532
 30
0.0
 11
-258.676999
 21
-14.054532
 31
0.0
  0
LINE
  5
38F
100
AcDbEntity
  8
0
370
    -3
  6
Continuous
100
AcDbLine
 10
-311.77953
 20
-16.391231
 30
0.0
 11
-258.676999
 21
-16.391231
 31
0.0
  0
LINE
  5
390
100
AcDbEntity
  8
0
370
    -3
  6
Continuous
100
AcDbLine
 10
-311.77953
 20
-19.59983
 30
0.0
 11
-258.676999
 21
-19.59983
 31
0.0
  0
LINE
  5
391
100
AcDbEntity
  8
0
370
    -3
  6
Continuous
100
AcDbLine
 10
-311.77953
 20
-70.500352
 30
0.0
 11
-258.676999
 21
-70.500352
 31
0.0
  0
LINE
  5
392
100
AcDbEntity
  8
0
370
    -3
  6
Continuous
100
AcDbLine
 10
-382.676999
 20
-108.750352
 30
0.0
 11
-258.676999
 21
-108.750352
 31
0.0
  0
LINE
  5
393
100
AcDbEntity
  8
0
370
    -3
  6
Continuous
100
AcDbLine
 10
-382.676999
 20
-109.250352
 30
0.0
 11
-258.676999
 21
-109.250352
 31
0.0
  0
LINE
  5
394
100
AcDbEntity
  8
0
370
    -3
  6
Continuous
100
AcDbLine
 10
-382.676999
 20
-107.750352
 30
0.0
 11
-258.676999
 21
-107.750352
 31
0.0
  0
LINE
  5
395
100
AcDbEntity
  8
0
370
    -3
  6
Continuous
100
AcDbLine
 10
-382.676999
 20
-106.750352
 30
0.0
 11
-258.676999
 21
-106.750352
 31
0.0
  0
LINE
  5
396
100
AcDbEntity
  8
0
370
    -3
  6
Continuous
100
AcDbLine
 10
-382.676999
 20
-102.065886
 30
0.0
 11
-258.676999
 21
-102.065886
 31
0.0
  0
LINE
  5
397
100
AcDbEntity
  8
0
370
    -3
  6
Continuous
100
AcDbLine
 10
-315.072118
 20
-97.116139
 30
0.0
 11
-258.676999
 21
-97.116139
 31
0.0
  0
LINE
  5
398
100
AcDbEntity
  8
0
370
    -3
  6
Continuous
100
AcDbLine
 10
-258.676999
 20
-110.250352
 30
0.0
 11
-382.676999
 21
-110.250352
 31
0.0
  0
LINE
  5
399
100
AcDbEntity
  8
0
370
    -3
  6
Continuous
100
AcDbLine
 10
-382.676999
 20
5.249648
 30
0.0
 11
-258.676999
 21
5.249648
 31
0.0
  0
LINE
  5
39A
100
AcDbEntity
  8
0
370
    -3
  6
Continuous
100
AcDbLine
 10
-382.676999
 20
5.749648
 30
0.0
 11
-258.676999
 21
5.749648
 31
0.0
  0
LINE
  5
39B
100
AcDbEntity
  8
0
370
    -3
  6
Continuous
100
AcDbLine
 10
-382.676999
 20
4.249648
 30
0.0
 11
-258.676999
 21
4.249648
 31
0.0
  0
LINE
  5
39C
100
AcDbEntity
  8
0
370
    -3
  6
Continuous
100
AcDbLine
 10
-382.676999
 20
3.249648
 30
0.0
 11
-258.676999
 21
3.249648
 31
0.0
  0
LINE
  5
39D
100
AcDbEntity
  8
0
370
    -3
  6
Continuous
100
AcDbLine
 10
-382.676999
 20
-1.434818
 30
0.0
 11
-258.676999
 21
-1.434818
 31
0.0
  0
LINE
  5
39E
100
AcDbEntity
  8
0
370
    -3
  6
Continuous
100
AcDbLine
 10
-315.072118
 20
-6.384565
 30
0.0
 11
-258.676999
 21
-6.384565
 31
0.0
  0
LINE
  5
39F
100
AcDbEntity
  8
0
370
    -3
  6
Continuous
100
AcDbLine
 10
-258.676999
 20
6.749648
 30
0.0
 11
-382.676999
 21
6.749648
 31
0.0
  0
LINE
  5
3A0
100
AcDbEntity
  8
0
370
    -3
  6
CENTER
100
AcDbLine
 10
-243.986093
 20
-51.750352
 30
0.0
 11
-493.177001
 21
-51.750352
 31
0.0
  0
LINE
  5
3A1
100
AcDbEntity
  8
0
370
    -3
  6
CENTER
100
AcDbLine
 10
-356.676999
 20
1.031867
 30
0.0
 11
-356.676999
 21
-105.895829
 31
0.0
  0
ELLIPSE
  5
3A2
100
AcDbEntity
  8
0
370
    -3
  6
Continuous
100
AcDbEllipse
 10
-393.676999
 20
278.328435
 30
0.0
 11
-4.6999999999999886
 21
0.0
 31
0.0
210
0.0
220
0.0
230
1.0
 40
0.766646
 41
0.0
 42
6.2831853071795862
  0
LINE
  5
3A3
100
AcDbEntity
  8
0
370
    -3
  6
Continuous
100
AcDbLine
 10
-395.676999
 20
275.33606
 30
0.0
 11
-393.676999
 21
276.511845
 31
0.0
  0
LINE
  5
3A4
100
AcDbEntity
  8
0
370
    -3
  6
Continuous
100
AcDbLine
 10
-393.676999
 20
276.511845
 30
0.0
 11
-391.676999
 21
278.164487
 31
0.0
  0
LINE
  5
3A5
100
AcDbEntity
  8
0
370
    -3
  6
Continuous
100
AcDbLine
 10
-391.676999
 20
275.33606
 30
0.0
 11
-393.676999
 21
276.511845
 31
0.0
  0
LINE
  5
3A6
100
AcDbEntity
  8
0
370
    -3
  6
Continuous
100
AcDbLine
 10
-393.676999
 20
276.511845
 30
0.0
 11
-395.676999
 21
278.164487
 31
0.0
  0
ELLIPSE
  5
3A7
100
AcDbEntity
  8
0
370
    -3
  6
Continuous
100
AcDbEllipse
 10
-393.676999
 20
378.585845
 30
0.0
 11
4.6999999999999886
 21
0.0
 31
0.0
210
0.0
220
0.0
230
1.0
 40
0.766646
 41
0.0
 42
6.2831853071795862
  0
LINE
  5
3A8
100
AcDbEntity
  8
0
370
    -3
  6
Continuous
100
AcDbLine
 10
-395.676999
 20
381.578221
 30
0.0
 11
-393.676999
 21
380.402436
 31
0.0
  0
LINE
  5
3A9
100
AcDbEntity
  8
0
370
    -3
  6
Continuous
100
AcDbLine
 10
-393.676999
 20
380.402436
 30
0.0
 11
-391.676999
 21
378.749794
 31
0.0
  0
LINE
  5
3AA
100
AcDbEntity
  8
0
370
    -3
  6
Continuous
100
AcDbLine
 10
-391.676999
 20
381.578221
 30
0.0
 11
-393.676999
 21
380.402436
 31
0.0
  0
LINE
  5
3AB
100
AcDbEntity
  8
0
370
    -3
  6
Continuous
100
AcDbLine
 10
-393.676999
 20
380.402436
 30
0.0
 11
-395.676999
 21
378.749794
 31
0.0
  0
LINE
  5
3AC
100
AcDbEntity
  8
0
370
    -3
  6
Continuous
100
AcDbLine
 10
-376.346146
 20
268.962553
 30
0.0
 11
-338.007852
 21
268.962553
 31
0.0
  0
LINE
  5
3AD
100
AcDbEntity
  8
0
370
    -3
  6
Continuous
100
AcDbLine
 10
-330.384205
 20
268.962553
 30
0.0
 11
-258.676999
 21
268.962553
 31
0.0
  0
LINE
  5
3AE
100
AcDbEntity
  8
0
370
    -3
  6
Continuous
100
AcDbLine
 10
-382.676999
 20
313.462553
 30
0.0
 11
-258.676999
 21
313.462553
 31
0.0
  0
LINE
  5
3AF
100
AcDbEntity
  8
0
370
    -3
  6
Continuous
100
AcDbLine
 10
-382.676999
 20
273.462553
 30
0.0
 11
-258.676999
 21
273.462553
 31
0.0
  0
LINE
  5
3B0
100
AcDbEntity
  8
0
370
    -3
  6
Continuous
100
AcDbLine
 10
-382.676999
 20
272.462553
 30
0.0
 11
-258.676999
 21
272.462553
 31
0.0
  0
LINE
  5
3B1
100
AcDbEntity
  8
0
370
    -3
  6
Continuous
100
AcDbLine
 10
-382.676999
 20
271.462553
 30
0.0
 11
-258.676999
 21
271.462553
 31
0.0
  0
LINE
  5
3B2
100
AcDbEntity
  8
0
370
    -3
  6
Continuous
100
AcDbLine
 10
-382.676999
 20
385.462553
 30
0.0
 11
-258.676999
 21
385.462553
 31
0.0
  0
LINE
  5
3B3
100
AcDbEntity
  8
0
370
    -3
  6
Continuous
100
AcDbLine
 10
-382.676999
 20
384.462553
 30
0.0
 11
-258.676999
 21
384.462553
 31
0.0
  0
LINE
  5
3B4
100
AcDbEntity
  8
0
370
    -3
  6
Continuous
100
AcDbLine
 10
-382.676999
 20
383.462553
 30
0.0
 11
-258.676999
 21
383.462553
 31
0.0
  0
LINE
  5
3B5
100
AcDbEntity
  8
0
370
    -3
  6
Continuous
100
AcDbLine
 10
-382.676999
 20
378.778087
 30
0.0
 11
-258.676999
 21
378.778087
 31
0.0
  0
LINE
  5
3B6
100
AcDbEntity
  8
0
370
    -3
  6
Continuous
100
AcDbLine
 10
-382.676999
 20
373.828339
 30
0.0
 11
-258.676999
 21
373.828339
 31
0.0
  0
LINE
  5
3B7
100
AcDbEntity
  8
0
370
    -3
  6
Continuous
100
AcDbLine
 10
-382.676999
 20
343.462553
 30
0.0
 11
-258.676999
 21
343.462553
 31
0.0
  0
LINE
  5
3B8
100
AcDbEntity
  8
0
370
    -3
  6
Continuous
100
AcDbLine
 10
-258.676999
 20
387.962553
 30
0.0
 11
-258.676999
 21
268.962553
 31
0.0
  0
LINE
  5
3B9
100
AcDbEntity
  8
0
370
    -3
  6
Continuous
100
AcDbLine
 10
-382.676999
 20
387.962553
 30
0.0
 11
-258.676999
 21
387.962553
 31
0.0
  0
LINE
  5
3BA
100
AcDbEntity
  8
0
370
    -3
  6
Continuous
100
AcDbLine
 10
-315.676999
 20
387.962553
 30
0.0
 11
-258.676999
 21
387.962553
 31
0.0
  0
LINE
  5
3BB
100
AcDbEntity
  8
0
370
    -3
  6
Continuous
100
AcDbLine
 10
-382.676999
 20
283.085941
 30
0.0
 11
-258.676999
 21
283.085941
 31
0.0
  0
LINE
  5
3BC
100
AcDbEntity
  8
0
370
    -3
  6
Continuous
100
AcDbLine
 10
-382.676999
 20
278.136194
 30
0.0
 11
-258.676999
 21
278.136194
 31
0.0
  0
LINE
  5
3BD
100
AcDbEntity
  8
0
370
    -3
  6
Continuous
100
AcDbLine
 10
-382.676999
 20
309.457102
 30
0.0
 11
-258.676999
 21
309.457102
 31
0.0
  0
LINE
  5
3BE
100
AcDbEntity
  8
0
370
    -3
  6
Continuous
100
AcDbLine
 10
-382.676999
 20
307.42859
 30
0.0
 11
-258.676999
 21
307.42859
 31
0.0
  0
LINE
  5
3BF
100
AcDbEntity
  8
0
370
    -3
  6
Continuous
100
AcDbLine
 10
-382.676999
 20
303.998169
 30
0.0
 11
-258.676999
 21
303.998169
 31
0.0
  0
LINE
  5
3C0
100
AcDbEntity
  8
0
370
    -3
  6
Continuous
100
AcDbLine
 10
-382.676999
 20
301.873944
 30
0.0
 11
-258.676999
 21
301.873944
 31
0.0
  0
LINE
  5
3C1
100
AcDbEntity
  8
0
370
    -3
  6
Continuous
100
AcDbLine
 10
-382.676999
 20
298.541435
 30
0.0
 11
-258.676999
 21
298.541435
 31
0.0
  0
LINE
  5
3C2
100
AcDbEntity
  8
0
370
    -3
  6
Continuous
100
AcDbLine
 10
-382.676999
 20
296.312031
 30
0.0
 11
-258.676999
 21
296.312031
 31
0.0
  0
LINE
  5
3C3
100
AcDbEntity
  8
0
370
    -3
  6
Continuous
100
AcDbLine
 10
-382.676999
 20
293.103432
 30
0.0
 11
-258.676999
 21
293.103432
 31
0.0
  0
LINE
  5
3C4
100
AcDbEntity
  8
0
370
    -3
  6
Continuous
100
AcDbLine
 10
-382.676999
 20
290.766733
 30
0.0
 11
-258.676999
 21
290.766733
 31
0.0
  0
LINE
  5
3C5
100
AcDbEntity
  8
0
370
    -3
  6
Continuous
100
AcDbLine
 10
-382.676999
 20
347.468003
 30
0.0
 11
-258.676999
 21
347.468003
 31
0.0
  0
LINE
  5
3C6
100
AcDbEntity
  8
0
370
    -3
  6
Continuous
100
AcDbLine
 10
-382.676999
 20
349.496515
 30
0.0
 11
-258.676999
 21
349.496515
 31
0.0
  0
LINE
  5
3C7
100
AcDbEntity
  8
0
370
    -3
  6
Continuous
100
AcDbLine
 10
-382.676999
 20
352.926936
 30
0.0
 11
-258.676999
 21
352.926936
 31
0.0
  0
LINE
  5
3C8
100
AcDbEntity
  8
0
370
    -3
  6
Continuous
100
AcDbLine
 10
-382.676999
 20
355.051161
 30
0.0
 11
-258.676999
 21
355.051161
 31
0.0
  0
LINE
  5
3C9
100
AcDbEntity
  8
0
370
    -3
  6
Continuous
100
AcDbLine
 10
-382.676999
 20
358.383671
 30
0.0
 11
-258.676999
 21
358.383671
 31
0.0
  0
LINE
  5
3CA
100
AcDbEntity
  8
0
370
    -3
  6
Continuous
100
AcDbLine
 10
-382.676999
 20
360.613074
 30
0.0
 11
-258.676999
 21
360.613074
 31
0.0
  0
LINE
  5
3CB
100
AcDbEntity
  8
0
370
    -3
  6
Continuous
100
AcDbLine
 10
-382.676999
 20
363.821673
 30
0.0
 11
-258.676999
 21
363.821673
 31
0.0
  0
LINE
  5
3CC
100
AcDbEntity
  8
0
370
    -3
  6
Continuous
100
AcDbLine
 10
-382.676999
 20
366.158372
 30
0.0
 11
-258.676999
 21
366.158372
 31
0.0
  0
LINE
  5
3CD
100
AcDbEntity
  8
0
370
    -3
  6
Continuous
100
AcDbLine
 10
-485.676999
 20
328.462553
 30
0.0
 11
-485.676999
 21
380.905758
 31
0.0
  0
ARC
  5
3CE
100
AcDbEntity
  8
0
370
    -3
  6
Continuous
100
AcDbCircle
 10
-463.371023
 20
373.462553
 30
0.0
 40
20.0
100
AcDbArc
 50
90.0
 51
125.0
  0
LINE
  5
3CF
100
AcDbEntity
  8
0
370
    -3
  6
Continuous
100
AcDbLine
 10
-474.842552
 20
389.845594
 30
0.0
 11
-484.568298
 21
383.035553
 31
0.0
  0
ARC
  5
3D0
100
AcDbEntity
  8
0
370
    -3
  6
Continuous
100
AcDbCircle
 10
-483.076999
 20
380.905758
 30
0.0
 40
2.6
100
AcDbArc
 50
125.0
 51
180.0
  0
LINE
  5
3D1
100
AcDbEntity
  8
0
370
    -3
  6
Continuous
100
AcDbLine
 10
-382.676999
 20
393.462553
 30
0.0
 11
-463.371023
 21
393.462553
 31
0.0
  0
LINE
  5
3D2
100
AcDbEntity
  8
0
370
    -3
  6
Continuous
100
AcDbLine
 10
-485.676999
 20
328.462553
 30
0.0
 11
-485.676999
 21
276.019348
 31
0.0
  0
LINE
  5
3D3
100
AcDbEntity
  8
0
370
    -3
  6
Continuous
100
AcDbLine
 10
-474.842552
 20
267.079512
 30
0.0
 11
-484.568298
 21
273.889552
 31
0.0
  0
ARC
  5
3D4
100
AcDbEntity
  8
0
370
    -3
  6
Continuous
100
AcDbCircle
 10
-483.076999
 20
276.019348
 30
0.0
 40
2.6
100
AcDbArc
 50
180.0
 51
235.0
  0
ARC
  5
3D5
100
AcDbEntity
  8
0
370
    -3
  6
Continuous
100
AcDbCircle
 10
-463.371023
 20
283.462553
 30
0.0
 40
20.0
100
AcDbArc
 50
235.0
 51
270.0
  0
LINE
  5
3D6
100
AcDbEntity
  8
0
370
    -3
  6
Continuous
100
AcDbLine
 10
-382.676999
 20
328.462553
 30
0.0
 11
-382.676999
 21
393.462553
 31
0.0
  0
LINE
  5
3D7
100
AcDbEntity
  8
0
370
    -3
  6
Continuous
100
AcDbLine
 10
-382.676999
 20
328.462553
 30
0.0
 11
-382.676999
 21
269.843332
 31
0.0
  0
ARC
  5
3D8
100
AcDbEntity
  8
0
370
    -3
  6
Continuous
100
AcDbCircle
 10
-385.676999
 20
269.843332
 30
0.0
 40
3.0
100
AcDbArc
 50
270.0
 51
0.0
  0
LINE
  5
3D9
100
AcDbEntity
  8
0
370
    -3
  6
Continuous
100
AcDbLine
 10
-389.676999
 20
266.843332
 30
0.0
 11
-385.676999
 21
266.843332
 31
0.0
  0
ARC
  5
3DA
100
AcDbEntity
  8
0
370
    -3
  6
Continuous
100
AcDbCircle
 10
-389.676999
 20
263.843332
 30
0.0
 40
3.0
100
AcDbArc
 50
90.0
 51
180.0
  0
LINE
  5
3DB
100
AcDbEntity
  8
0
370
    -3
  6
Continuous
100
AcDbLine
 10
-392.676999
 20
263.462553
 30
0.0
 11
-463.371023
 21
263.462553
 31
0.0
  0
LINE
  5
3DC
100
AcDbEntity
  8
0
370
    -3
  6
Continuous
100
AcDbLine
 10
-392.676999
 20
263.462553
 30
0.0
 11
-392.676999
 21
263.843332
 31
0.0
  0
ARC
  5
3DD
100
AcDbEntity
  8
0
370
    -3
  6
Continuous
100
AcDbCircle
 10
-745.025676
 20
-21.74051
 30
0.0
 40
3.0
100
AcDbArc
 50
319.911473
 51
45.0
  0
LINE
  5
3DE
100
AcDbEntity
  8
0
370
    -3
  6
Continuous
100
AcDbLine
 10
-742.904356
 20
-19.619189
 30
0.0
 11
-767.215305
 21
4.691759
 31
0.0
  0
ARC
  5
3DF
100
AcDbEntity
  8
0
370
    -3
  6
Continuous
100
AcDbCircle
 10
-701.176999
 20
-116.873321
 30
0.0
 40
3.0
100
AcDbArc
 50
0.0
 51
53.628158
  0
LINE
  5
3E0
100
AcDbEntity
  8
0
370
    -3
  6
Continuous
100
AcDbLine
 10
-698.176999
 20
-116.873321
 30
0.0
 11
-698.176999
 21
-157.750352
 31
0.0
  0
ARC
  5
3E1
100
AcDbEntity
  8
0
370
    -3
  6
Continuous
100
AcDbCircle
 10
-662.176999
 20
-68.750352
 30
0.0
 40
70.0
100
AcDbArc
 50
44.862463
 51
46.763036
  0
ARC
  5
3E2
100
AcDbEntity
  8
0
370
    -3
  6
Continuous
100
AcDbCircle
 10
-615.167157
 20
-12.901675
 30
0.0
 40
3.0
100
AcDbArc
 50
272.311226
 51
315.0
  0
ARC
  5
3E3
100
AcDbEntity
  8
0
370
    -3
  6
Continuous
100
AcDbCircle
 10
-736.186842
 20
-12.901675
 30
0.0
 40
3.0
100
AcDbArc
 50
225.0
 51
267.688774
  0
ARC
  5
3E4
100
AcDbEntity
  8
0
370
    -3
  6
Continuous
100
AcDbCircle
 10
-689.176999
 20
-68.750352
 30
0.0
 40
70.0
100
AcDbArc
 50
133.236964
 51
180.0
  0
ARC
  5
3E5
100
AcDbEntity
  8
0
370
    -3
  6
Continuous
100
AcDbCircle
 10
-615.167157
 20
-12.901675
 30
0.0
 40
3.0
100
AcDbArc
 50
308.162428
 51
315.0
  0
LINE
  5
3E6
100
AcDbEntity
  8
0
370
    -3
  6
Continuous
100
AcDbLine
 10
-613.045837
 20
-15.022995
 30
0.0
 11
-611.805327
 21
-13.782485
 31
0.0
  0
ARC
  5
3E7
100
AcDbEntity
  8
0
370
    -3
  6
Continuous
100
AcDbCircle
 10
-736.186842
 20
-12.901675
 30
0.0
 40
3.0
100
AcDbArc
 50
225.0
 51
231.837572
  0
LINE
  5
3E8
100
AcDbEntity
  8
0
370
    -3
  6
Continuous
100
AcDbLine
 10
-738.308162
 20
-15.022995
 30
0.0
 11
-762.524656
 21
9.193499
 31
0.0
  0
ARC
  5
3E9
100
AcDbEntity
  8
0
370
    -3
  6
Continuous
100
AcDbCircle
 10
-615.167157
 20
-12.901676
 30
0.0
 40
3.0
100
AcDbArc
 50
308.162433
 51
315.0
  0
LINE
  5
3EA
100
AcDbEntity
  8
0
370
    -3
  6
Continuous
100
AcDbLine
 10
-613.045837
 20
-15.022996
 30
0.0
 11
-588.829343
 21
9.193498
 31
0.0
  0
LINE
  5
3EB
100
AcDbEntity
  8
0
370
    -3
  6
CENTER
100
AcDbLine
 10
-645.842393
 20
-50.250352
 30
0.0
 11
-705.121843
 21
-50.250352
 31
0.0
  0
ARC
  5
3EC
100
AcDbEntity
  8
0
370
    -3
  6
Continuous
100
AcDbCircle
 10
-1011.276999
 20
-51.750352
 30
0.0
 40
400.6
100
AcDbArc
 50
0.0
 51
2.946011
  0
ARC
  5
3ED
100
AcDbEntity
  8
0
370
    -3
  6
Continuous
100
AcDbCircle
 10
-1011.276999
 20
-51.750352
 30
0.0
 40
400.6
100
AcDbArc
 50
357.053989
 51
0.0
  0
LINE
  5
3EE
100
AcDbEntity
  8
0
370
    -3
  6
Continuous
100
AcDbLine
 10
-728.92214
 20
-5.152015
 30
0.0
 11
-729.408943
 21
-4.665212
 31
0.0
  0
LINE
  5
3EF
100
AcDbEntity
  8
0
370
    -3
  6
Continuous
100
AcDbLine
 10
-722.275336
 20
1.494789
 30
0.0
 11
-722.76214
 21
1.981592
 31
0.0
  0
LINE
  5
3F0
100
AcDbEntity
  8
0
370
    -3
  6
Continuous
100
AcDbLine
 10
-729.204983
 20
-4.869172
 30
0.0
 11
-722.558179
 21
1.777631
 31
0.0
  0
LINE
  5
3F1
100
AcDbEntity
  8
0
370
    -3
  6
Continuous
100
AcDbLine
 10
-728.92214
 20
-5.152015
 30
0.0
 11
-722.275336
 21
1.494789
 31
0.0
  0
POINT
  5
3F2
100
AcDbEntity
  8
0
370
    -3
  6
Continuous
100
AcDbPoint
 10
-725.598738
 20
-1.828613
 30
0.0
  0
ARC
  5
3F3
100
AcDbEntity
  8
0
370
    -3
  6
Continuous
100
AcDbCircle
 10
-723.335996
 20
-4.091355
 30
0.0
 40
6.099999
100
AcDbArc
 50
84.601928
 51
185.398089
  0
LINE
  5
3F4
100
AcDbEntity
  8
0
370
    -3
  6
Continuous
100
AcDbLine
 10
-622.431859
 20
-5.152015
 30
0.0
 11
-621.945055
 21
-4.665212
 31
0.0
  0
POINT
  5
3F5
100
AcDbEntity
  8
0
370
    -3
  6
Continuous
100
AcDbPoint
 10
-625.755261
 20
-1.828613
 30
0.0
  0
LINE
  5
3F6
100
AcDbEntity
  8
0
370
    -3
  6
Continuous
100
AcDbLine
 10
-622.431859
 20
-98.348689
 30
0.0
 11
-621.945055
 21
-98.835492
 31
0.0
  0
LINE
  5
3F7
100
AcDbEntity
  8
0
370
    -3
  6
Continuous
100
AcDbLine
 10
-629.078662
 20
-104.995492
 30
0.0
 11
-628.591859
 21
-105.482296
 31
0.0
  0
LINE
  5
3F8
100
AcDbEntity
  8
0
370
    -3
  6
Continuous
100
AcDbLine
 10
-622.149016
 20
-98.631532
 30
0.0
 11
-628.795819
 21
-105.278335
 31
0.0
  0
LINE
  5
3F9
100
AcDbEntity
  8
0
370
    -3
  6
Continuous
100
AcDbLine
 10
-622.431859
 20
-98.348689
 30
0.0
 11
-629.078662
 21
-104.995492
 31
0.0
  0
POINT
  5
3FA
100
AcDbEntity
  8
0
370
    -3
  6
Continuous
100
AcDbPoint
 10
-625.755261
 20
-101.672091
 30
0.0
  0
ARC
  5
3FB
100
AcDbEntity
  8
0
370
    -3
  6
Continuous
100
AcDbCircle
 10
-628.018002
 20
-99.409349
 30
0.0
 40
6.099999
100
AcDbArc
 50
264.601928
 51
5.398089
  0
LINE
  5
3FC
100
AcDbEntity
  8
0
370
    -3
  6
Continuous
100
AcDbLine
 10
-728.92214
 20
-98.348689
 30
0.0
 11
-729.408943
 21
-98.835492
 31
0.0
  0
LINE
  5
3FD
100
AcDbEntity
  8
0
370
    -3
  6
Continuous
100
AcDbLine
 10
-722.275336
 20
-104.995492
 30
0.0
 11
-722.76214
 21
-105.482296
 31
0.0
  0
LINE
  5
3FE
100
AcDbEntity
  8
0
370
    -3
  6
Continuous
100
AcDbLine
 10
-729.204983
 20
-98.631532
 30
0.0
 11
-722.558179
 21
-105.278335
 31
0.0
  0
LINE
  5
3FF
100
AcDbEntity
  8
0
370
    -3
  6
Continuous
100
AcDbLine
 10
-728.92214
 20
-98.348689
 30
0.0
 11
-722.275336
 21
-104.995492
 31
0.0
  0
POINT
  5
400
100
AcDbEntity
  8
0
370
    -3
  6
Continuous
100
AcDbPoint
 10
-725.598738
 20
-101.672091
 30
0.0
  0
ARC
  5
401
100
AcDbEntity
  8
0
370
    -3
  6
Continuous
100
AcDbCircle
 10
-723.335996
 20
-99.409349
 30
0.0
 40
6.099999
100
AcDbArc
 50
174.601911
 51
275.398072
  0
ARC
  5
402
100
AcDbEntity
  8
0
370
    -3
  6
Continuous
100
AcDbCircle
 10
-651.752773
 20
-70.252532
 30
0.0
 40
40.6
100
AcDbArc
 50
315.0
 51
357.053989
  0
LINE
  5
403
100
AcDbEntity
  8
0
370
    -3
  6
Continuous
100
AcDbLine
 10
-623.044238
 20
-98.961068
 30
0.0
 11
-627.094663
 21
-103.011493
 31
0.0
  0
ARC
  5
404
100
AcDbEntity
  8
0
370
    -3
  6
Continuous
100
AcDbCircle
 10
-645.196596
 20
-84.909559
 30
0.0
 40
25.6
100
AcDbArc
 50
274.662206
 51
315.0
  0
LINE
  5
405
100
AcDbEntity
  8
0
370
    -3
  6
Continuous
100
AcDbLine
 10
-728.309761
 20
-98.961068
 30
0.0
 11
-724.259336
 21
-103.011493
 31
0.0
  0
ARC
  5
406
100
AcDbEntity
  8
0
370
    -3
  6
Continuous
100
AcDbCircle
 10
-706.157402
 20
-84.909559
 30
0.0
 40
25.6
100
AcDbArc
 50
225.0
 51
265.337794
  0
ARC
  5
407
100
AcDbEntity
  8
0
370
    -3
  6
Continuous
100
AcDbCircle
 10
-699.601226
 20
-70.252532
 30
0.0
 40
40.6
100
AcDbArc
 50
182.946011
 51
225.0
  0
ARC
  5
408
100
AcDbEntity
  8
0
370
    -3
  6
Continuous
100
AcDbCircle
 10
-699.601226
 20
-33.248171
 30
0.0
 40
40.6
100
AcDbArc
 50
135.0
 51
177.053989
  0
ARC
  5
409
100
AcDbEntity
  8
0
370
    -3
  6
Continuous
100
AcDbCircle
 10
-706.157402
 20
-18.591145
 30
0.0
 40
25.6
100
AcDbArc
 50
94.662206
 51
135.0
  0
LINE
  5
40A
100
AcDbEntity
  8
0
370
    -3
  6
Continuous
100
AcDbLine
 10
-728.309761
 20
-4.539636
 30
0.0
 11
-724.259336
 21
-0.489211
 31
0.0
  0
ARC
  5
40B
100
AcDbEntity
  8
0
370
    -3
  6
Continuous
100
AcDbCircle
 10
-651.752773
 20
-33.248171
 30
0.0
 40
40.6
100
AcDbArc
 50
2.946011
 51
45.0
  0
LINE
  5
40C
100
AcDbEntity
  8
0
370
    -3
  6
Continuous
100
AcDbLine
 10
-623.044238
 20
-4.539636
 30
0.0
 11
-627.094663
 21
-0.489211
 31
0.0
  0
LINE
  5
40D
100
AcDbEntity
  8
0
370
    -3
  6
Continuous
100
AcDbLine
 10
-673.176999
 20
-10.443573
 30
0.0
 11
-673.176999
 21
-13.458708
 31
0.0
  0
LINE
  5
40E
100
AcDbEntity
  8
0
370
    -3
  6
Continuous
100
AcDbLine
 10
-643.765463
 20
-30.439466
 30
0.0
 11
-641.154279
 21
-28.931899
 31
0.0
  0
LINE
  5
40F
100
AcDbEntity
  8
0
370
    -3
  6
Continuous
100
AcDbLine
 10
-673.176999
 20
-20.001336
 30
0.0
 11
-673.176999
 21
-23.027539
 31
0.0
  0
ARC
  5
410
100
AcDbEntity
  8
0
370
    -3
  6
Continuous
100
AcDbCircle
 10
-671.676999
 20
-20.001336
 30
0.0
 40
1.5
100
AcDbArc
 50
82.819244
 51
180.0
  0
ARC
  5
411
100
AcDbEntity
  8
0
370
    -3
  6
Continuous
100
AcDbCircle
 10
-671.676999
 20
-13.458708
 30
0.0
 40
1.5
100
AcDbArc
 50
180.0
 51
264.03643
  0
ARC
  5
412
100
AcDbEntity
  8
0
370
    -3
  6
Continuous
100
AcDbCircle
 10
-671.676999
 20
-10.443573
 30
0.0
 40
1.5
100
AcDbArc
 50
84.468928
 51
180.0
  0
ARC
  5
413
100
AcDbEntity
  8
0
370
    -3
  6
Continuous
100
AcDbCircle
 10
-641.904279
 20
-27.632861
 30
0.0
 40
1.5
100
AcDbArc
 50
300.0
 51
35.531072
  0
ARC
  5
414
100
AcDbEntity
  8
0
370
    -3
  6
Continuous
100
AcDbCircle
 10
-675.676999
 20
-51.750352
 30
0.0
 40
43.0
100
AcDbArc
 50
35.531072
 51
84.468928
  0
ARC
  5
415
100
AcDbEntity
  8
0
370
    -3
  6
Continuous
100
AcDbCircle
 10
-637.904279
 20
-34.561064
 30
0.0
 40
1.5
100
AcDbArc
 50
24.468928
 51
120.0
  0
LINE
  5
416
100
AcDbEntity
  8
0
370
    -3
  6
Continuous
100
AcDbLine
 10
-641.265463
 20
-34.769593
 30
0.0
 11
-638.654279
 21
-33.262026
 31
0.0
  0
ARC
  5
417
100
AcDbEntity
  8
0
370
    -3
  6
Continuous
100
AcDbCircle
 10
-640.515463
 20
-36.068632
 30
0.0
 40
1.5
100
AcDbArc
 50
120.0
 51
204.03643
  0
ARC
  5
418
100
AcDbEntity
  8
0
370
    -3
  6
Continuous
100
AcDbCircle
 10
-675.676999
 20
-51.750352
 30
0.0
 40
37.0
100
AcDbArc
 50
335.96357
 51
24.03643
  0
ARC
  5
419
100
AcDbEntity
  8
0
370
    -3
  6
Continuous
100
AcDbCircle
 10
-675.676999
 20
-51.750352
 30
0.0
 40
43.0
100
AcDbArc
 50
335.531072
 51
24.468928
  0
ARC
  5
41A
100
AcDbEntity
  8
0
370
    -3
  6
Continuous
100
AcDbCircle
 10
-637.904279
 20
-68.93964
 30
0.0
 40
1.5
100
AcDbArc
 50
240.0
 51
335.531072
  0
LINE
  5
41B
100
AcDbEntity
  8
0
370
    -3
  6
Continuous
100
AcDbLine
 10
-638.654279
 20
-70.238678
 30
0.0
 11
-641.265463
 21
-68.73111
 31
0.0
  0
ARC
  5
41C
100
AcDbEntity
  8
0
370
    -3
  6
Continuous
100
AcDbCircle
 10
-640.515463
 20
-67.432072
 30
0.0
 40
1.5
100
AcDbArc
 50
155.96357
 51
240.0
  0
ARC
  5
41D
100
AcDbEntity
  8
0
370
    -3
  6
Continuous
100
AcDbCircle
 10
-641.904279
 20
-75.867843
 30
0.0
 40
1.5
100
AcDbArc
 50
324.468928
 51
60.0
  0
LINE
  5
41E
100
AcDbEntity
  8
0
370
    -3
  6
Continuous
100
AcDbLine
 10
-641.154279
 20
-74.568805
 30
0.0
 11
-643.765463
 21
-73.061237
 31
0.0
  0
ARC
  5
41F
100
AcDbEntity
  8
0
370
    -3
  6
Continuous
100
AcDbCircle
 10
-679.676999
 20
-10.443573
 30
0.0
 40
1.5
100
AcDbArc
 50
0.0
 51
95.531072
  0
LINE
  5
420
100
AcDbEntity
  8
0
370
    -3
  6
Continuous
100
AcDbLine
 10
-678.176999
 20
-10.443573
 30
0.0
 11
-678.176999
 21
-13.458708
 31
0.0
  0
ARC
  5
421
100
AcDbEntity
  8
0
370
    -3
  6
Continuous
100
AcDbCircle
 10
-679.676999
 20
-13.458708
 30
0.0
 40
1.5
100
AcDbArc
 50
275.96357
 51
0.0
  0
LINE
  5
422
100
AcDbEntity
  8
0
370
    -3
  6
Continuous
100
AcDbLine
 10
-678.176999
 20
-20.001336
 30
0.0
 11
-678.176999
 21
-23.027539
 31
0.0
  0
ARC
  5
423
100
AcDbEntity
  8
0
370
    -3
  6
Continuous
100
AcDbCircle
 10
-679.676999
 20
-20.001336
 30
0.0
 40
1.5
100
AcDbArc
 50
0.0
 51
97.180756
  0
ARC
  5
424
100
AcDbEntity
  8
0
370
    -3
  6
Continuous
100
AcDbCircle
 10
-645.196596
 20
-84.909559
 30
0.0
 40
14.6
100
AcDbArc
 50
274.662206
 51
315.0
  0
ARC
  5
425
100
AcDbEntity
  8
0
370
    -3
  6
Continuous
100
AcDbCircle
 10
-651.752773
 20
-70.252532
 30
0.0
 40
29.6
100
AcDbArc
 50
315.0
 51
357.053989
  0
LINE
  5
426
100
AcDbEntity
  8
0
370
    -3
  6
Continuous
100
AcDbLine
 10
-630.822412
 20
-91.182893
 30
0.0
 11
-634.872837
 21
-95.233318
 31
0.0
  0
ARC
  5
427
100
AcDbEntity
  8
0
370
    -3
  6
Continuous
100
AcDbCircle
 10
-1011.276999
 20
-51.750352
 30
0.0
 40
389.6
100
AcDbArc
 50
357.053989
 51
0.0
  0
ARC
  5
428
100
AcDbEntity
  8
0
370
    -3
  6
Continuous
100
AcDbCircle
 10
-645.196596
 20
-18.591145
 30
0.0
 40
14.6
100
AcDbArc
 50
45.0
 51
85.337794
  0
LINE
  5
429
100
AcDbEntity
  8
0
370
    -3
  6
Continuous
100
AcDbLine
 10
-630.822412
 20
-12.317811
 30
0.0
 11
-634.872837
 21
-8.267386
 31
0.0
  0
ARC
  5
42A
100
AcDbEntity
  8
0
370
    -3
  6
Continuous
100
AcDbCircle
 10
-651.752773
 20
-33.248171
 30
0.0
 40
29.6
100
AcDbArc
 50
2.946011
 51
45.0
  0
ARC
  5
42B
100
AcDbEntity
  8
0
370
    -3
  6
Continuous
100
AcDbCircle
 10
-1011.276999
 20
-51.750352
 30
0.0
 40
389.6
100
AcDbArc
 50
0.0
 51
2.946011
  0
ARC
  5
42C
100
AcDbEntity
  8
0
370
    -3
  6
Continuous
100
AcDbCircle
 10
-675.676999
 20
-392.350352
 30
0.0
 40
389.6
100
AcDbArc
 50
90.0
 51
94.662206
  0
ARC
  5
42D
100
AcDbEntity
  8
0
370
    -3
  6
Continuous
100
AcDbCircle
 10
-706.157402
 20
-18.591145
 30
0.0
 40
14.6
100
AcDbArc
 50
94.662206
 51
135.0
  0
LINE
  5
42E
100
AcDbEntity
  8
0
370
    -3
  6
Continuous
100
AcDbLine
 10
-720.531586
 20
-12.317811
 30
0.0
 11
-716.481161
 21
-8.267386
 31
0.0
  0
ARC
  5
42F
100
AcDbEntity
  8
0
370
    -3
  6
Continuous
100
AcDbCircle
 10
-675.676999
 20
-51.750352
 30
0.0
 40
24.0
100
AcDbArc
 50
100.240348
 51
139.759652
  0
ARC
  5
430
100
AcDbEntity
  8
0
370
    -3
  6
Continuous
100
AcDbCircle
 10
-692.852179
 20
-37.215455
 30
0.0
 40
1.5
100
AcDbArc
 50
139.759652
 51
240.0
  0
LINE
  5
431
100
AcDbEntity
  8
0
370
    -3
  6
Continuous
100
AcDbLine
 10
-690.955384
 20
-40.042621
 30
0.0
 11
-693.602179
 21
-38.514494
 31
0.0
  0
ARC
  5
432
100
AcDbEntity
  8
0
370
    -3
  6
Continuous
100
AcDbCircle
 10
-690.205384
 20
-38.743583
 30
0.0
 40
1.5
100
AcDbArc
 50
240.0
 51
318.162996
  0
ARC
  5
433
100
AcDbEntity
  8
0
370
    -3
  6
Continuous
100
AcDbCircle
 10
-675.676999
 20
-51.750352
 30
0.0
 40
18.0
100
AcDbArc
 50
101.837004
 51
138.162996
  0
ARC
  5
434
100
AcDbEntity
  8
0
370
    -3
  6
Continuous
100
AcDbCircle
 10
-679.676999
 20
-32.665017
 30
0.0
 40
1.5
100
AcDbArc
 50
281.837004
 51
0.0
  0
LINE
  5
435
100
AcDbEntity
  8
0
370
    -3
  6
Continuous
100
AcDbLine
 10
-678.176999
 20
-29.608762
 30
0.0
 11
-678.176999
 21
-32.665017
 31
0.0
  0
ARC
  5
436
100
AcDbEntity
  8
0
370
    -3
  6
Continuous
100
AcDbCircle
 10
-679.676999
 20
-29.608762
 30
0.0
 40
1.5
100
AcDbArc
 50
0.0
 51
100.240348
  0
ARC
  5
437
100
AcDbEntity
  8
0
370
    -3
  6
Continuous
100
AcDbCircle
 10
-675.676999
 20
-51.750352
 30
0.0
 40
14.5
100
AcDbArc
 50
107.920213
 51
132.079787
  0
ARC
  5
438
100
AcDbEntity
  8
0
370
    -3
  6
Continuous
100
AcDbCircle
 10
-684.389142
 20
-42.101592
 30
0.0
 40
1.5
100
AcDbArc
 50
132.079787
 51
240.0
  0
LINE
  5
439
100
AcDbEntity
  8
0
370
    -3
  6
Continuous
100
AcDbLine
 10
-682.364253
 20
-45.002713
 30
0.0
 11
-685.139142
 21
-43.40063
 31
0.0
  0
ARC
  5
43A
100
AcDbEntity
  8
0
370
    -3
  6
Continuous
100
AcDbCircle
 10
-681.614253
 20
-43.703675
 30
0.0
 40
1.5
100
AcDbArc
 50
240.0
 51
306.421822
  0
ARC
  5
43B
100
AcDbEntity
  8
0
370
    -3
  6
Continuous
100
AcDbCircle
 10
-675.676999
 20
-51.750352
 30
0.0
 40
8.5
100
AcDbArc
 50
113.578178
 51
126.421822
  0
ARC
  5
43C
100
AcDbEntity
  8
0
370
    -3
  6
Continuous
100
AcDbCircle
 10
-679.676999
 20
-42.585201
 30
0.0
 40
1.5
100
AcDbArc
 50
293.578178
 51
0.0
  0
LINE
  5
43D
100
AcDbEntity
  8
0
370
    -3
  6
Continuous
100
AcDbLine
 10
-678.176999
 20
-39.381035
 30
0.0
 11
-678.176999
 21
-42.585201
 31
0.0
  0
ARC
  5
43E
100
AcDbEntity
  8
0
370
    -3
  6
Continuous
100
AcDbCircle
 10
-679.676999
 20
-39.381035
 30
0.0
 40
1.5
100
AcDbArc
 50
0.0
 51
107.920213
  0
ARC
  5
43F
100
AcDbEntity
  8
0
370
    -3
  6
Continuous
100
AcDbCircle
 10
-675.676999
 20
-51.750352
 30
0.0
 40
24.0
100
AcDbArc
 50
280.240348
 51
319.759652
  0
ARC
  5
440
100
AcDbEntity
  8
0
370
    -3
  6
Continuous
100
AcDbCircle
 10
-671.676999
 20
-73.891942
 30
0.0
 40
1.5
100
AcDbArc
 50
180.0
 51
280.240348
  0
LINE
  5
441
100
AcDbEntity
  8
0
370
    -3
  6
Continuous
100
AcDbLine
 10
-673.176999
 20
-70.835687
 30
0.0
 11
-673.176999
 21
-73.891942
 31
0.0
  0
ARC
  5
442
100
AcDbEntity
  8
0
370
    -3
  6
Continuous
100
AcDbCircle
 10
-671.676999
 20
-70.835687
 30
0.0
 40
1.5
100
AcDbArc
 50
101.837004
 51
180.0
  0
ARC
  5
443
100
AcDbEntity
  8
0
370
    -3
  6
Continuous
100
AcDbCircle
 10
-675.676999
 20
-51.750352
 30
0.0
 40
18.0
100
AcDbArc
 50
281.837004
 51
318.162996
  0
ARC
  5
444
100
AcDbEntity
  8
0
370
    -3
  6
Continuous
100
AcDbCircle
 10
-661.148615
 20
-64.757121
 30
0.0
 40
1.5
100
AcDbArc
 50
60.0
 51
138.162996
  0
LINE
  5
445
100
AcDbEntity
  8
0
370
    -3
  6
Continuous
100
AcDbLine
 10
-657.75182
 20
-64.98621
 30
0.0
 11
-660.398615
 21
-63.458083
 31
0.0
  0
ARC
  5
446
100
AcDbEntity
  8
0
370
    -3
  6
Continuous
100
AcDbCircle
 10
-658.50182
 20
-66.285248
 30
0.0
 40
1.5
100
AcDbArc
 50
319.759652
 51
60.0
  0
ARC
  5
447
100
AcDbEntity
  8
0
370
    -3
  6
Continuous
100
AcDbCircle
 10
-675.676999
 20
-51.750352
 30
0.0
 40
14.5
100
AcDbArc
 50
287.920213
 51
312.079787
  0
ARC
  5
448
100
AcDbEntity
  8
0
370
    -3
  6
Continuous
100
AcDbCircle
 10
-671.676999
 20
-64.119669
 30
0.0
 40
1.5
100
AcDbArc
 50
180.0
 51
287.920213
  0
LINE
  5
449
100
AcDbEntity
  8
0
370
    -3
  6
Continuous
100
AcDbLine
 10
-673.176999
 20
-60.915503
 30
0.0
 11
-673.176999
 21
-64.119669
 31
0.0
  0
ARC
  5
44A
100
AcDbEntity
  8
0
370
    -3
  6
Continuous
100
AcDbCircle
 10
-671.676999
 20
-60.915503
 30
0.0
 40
1.5
100
AcDbArc
 50
113.578178
 51
180.0
  0
ARC
  5
44B
100
AcDbEntity
  8
0
370
    -3
  6
Continuous
100
AcDbCircle
 10
-675.676999
 20
-51.750352
 30
0.0
 40
8.5
100
AcDbArc
 50
293.578178
 51
306.421822
  0
ARC
  5
44C
100
AcDbEntity
  8
0
370
    -3
  6
Continuous
100
AcDbCircle
 10
-669.739745
 20
-59.797029
 30
0.0
 40
1.5
100
AcDbArc
 50
60.0
 51
126.421822
  0
LINE
  5
44D
100
AcDbEntity
  8
0
370
    -3
  6
Continuous
100
AcDbLine
 10
-666.214857
 20
-60.100074
 30
0.0
 11
-668.989745
 21
-58.497991
 31
0.0
  0
ARC
  5
44E
100
AcDbEntity
  8
0
370
    -3
  6
Continuous
100
AcDbCircle
 10
-666.964857
 20
-61.399112
 30
0.0
 40
1.5
100
AcDbArc
 50
312.079787
 51
60.0
  0
ARC
  5
44F
100
AcDbEntity
  8
0
370
    -3
  6
Continuous
100
AcDbCircle
 10
-675.676999
 20
-51.750352
 30
0.0
 40
24.0
100
AcDbArc
 50
220.240348
 51
259.759652
  0
ARC
  5
450
100
AcDbEntity
  8
0
370
    -3
  6
Continuous
100
AcDbCircle
 10
-679.676999
 20
-73.891942
 30
0.0
 40
1.5
100
AcDbArc
 50
259.759652
 51
0.0
  0
LINE
  5
451
100
AcDbEntity
  8
0
370
    -3
  6
Continuous
100
AcDbLine
 10
-678.176999
 20
-70.835687
 30
0.0
 11
-678.176999
 21
-73.891942
 31
0.0
  0
ARC
  5
452
100
AcDbEntity
  8
0
370
    -3
  6
Continuous
100
AcDbCircle
 10
-679.676999
 20
-70.835687
 30
0.0
 40
1.5
100
AcDbArc
 50
0.0
 51
78.162996
  0
ARC
  5
453
100
AcDbEntity
  8
0
370
    -3
  6
Continuous
100
AcDbCircle
 10
-675.676999
 20
-51.750352
 30
0.0
 40
18.0
100
AcDbArc
 50
221.837004
 51
258.162996
  0
ARC
  5
454
100
AcDbEntity
  8
0
370
    -3
  6
Continuous
100
AcDbCircle
 10
-690.205384
 20
-64.757121
 30
0.0
 40
1.5
100
AcDbArc
 50
41.837004
 51
120.0
  0
LINE
  5
455
100
AcDbEntity
  8
0
370
    -3
  6
Continuous
100
AcDbLine
 10
-693.602179
 20
-64.98621
 30
0.0
 11
-690.955384
 21
-63.458083
 31
0.0
  0
ARC
  5
456
100
AcDbEntity
  8
0
370
    -3
  6
Continuous
100
AcDbCircle
 10
-692.852179
 20
-66.285248
 30
0.0
 40
1.5
100
AcDbArc
 50
120.0
 51
220.240348
  0
ARC
  5
457
100
AcDbEntity
  8
0
370
    -3
  6
Continuous
100
AcDbCircle
 10
-675.676999
 20
-51.750352
 30
0.0
 40
14.5
100
AcDbArc
 50
227.920213
 51
252.079787
  0
ARC
  5
458
100
AcDbEntity
  8
0
370
    -3
  6
Continuous
100
AcDbCircle
 10
-679.676999
 20
-64.119669
 30
0.0
 40
1.5
100
AcDbArc
 50
252.079787
 51
0.0
  0
LINE
  5
459
100
AcDbEntity
  8
0
370
    -3
  6
Continuous
100
AcDbLine
 10
-678.176999
 20
-60.915503
 30
0.0
 11
-678.176999
 21
-64.119669
 31
0.0
  0
ARC
  5
45A
100
AcDbEntity
  8
0
370
    -3
  6
Continuous
100
AcDbCircle
 10
-679.676999
 20
-60.915503
 30
0.0
 40
1.5
100
AcDbArc
 50
0.0
 51
66.421822
  0
ARC
  5
45B
100
AcDbEntity
  8
0
370
    -3
  6
Continuous
100
AcDbCircle
 10
-675.676999
 20
-51.750352
 30
0.0
 40
8.5
100
AcDbArc
 50
233.578178
 51
246.421822
  0
ARC
  5
45C
100
AcDbEntity
  8
0
370
    -3
  6
Continuous
100
AcDbCircle
 10
-681.614253
 20
-59.797029
 30
0.0
 40
1.5
100
AcDbArc
 50
53.578178
 51
120.0
  0
LINE
  5
45D
100
AcDbEntity
  8
0
370
    -3
  6
Continuous
100
AcDbLine
 10
-685.139142
 20
-60.100074
 30
0.0
 11
-682.364253
 21
-58.497991
 31
0.0
  0
ARC
  5
45E
100
AcDbEntity
  8
0
370
    -3
  6
Continuous
100
AcDbCircle
 10
-684.389142
 20
-61.399112
 30
0.0
 40
1.5
100
AcDbArc
 50
120.0
 51
227.920213
  0
ARC
  5
45F
100
AcDbEntity
  8
0
370
    -3
  6
Continuous
100
AcDbCircle
 10
-675.676999
 20
-51.750352
 30
0.0
 40
24.0
100
AcDbArc
 50
160.240348
 51
199.759652
  0
ARC
  5
460
100
AcDbEntity
  8
0
370
    -3
  6
Continuous
100
AcDbCircle
 10
-696.852179
 20
-44.143659
 30
0.0
 40
1.5
100
AcDbArc
 50
60.0
 51
160.240348
  0
LINE
  5
461
100
AcDbEntity
  8
0
370
    -3
  6
Continuous
100
AcDbLine
 10
-693.455384
 20
-44.372748
 30
0.0
 11
-696.102179
 21
-42.844621
 31
0.0
  0
ARC
  5
462
100
AcDbEntity
  8
0
370
    -3
  6
Continuous
100
AcDbCircle
 10
-694.205384
 20
-45.671786
 30
0.0
 40
1.5
100
AcDbArc
 50
341.837004
 51
60.0
  0
ARC
  5
463
100
AcDbEntity
  8
0
370
    -3
  6
Continuous
100
AcDbCircle
 10
-675.676999
 20
-51.750352
 30
0.0
 40
18.0
100
AcDbArc
 50
161.837004
 51
198.162996
  0
ARC
  5
464
100
AcDbEntity
  8
0
370
    -3
  6
Continuous
100
AcDbCircle
 10
-694.205384
 20
-57.828918
 30
0.0
 40
1.5
100
AcDbArc
 50
300.0
 51
18.162996
  0
LINE
  5
465
100
AcDbEntity
  8
0
370
    -3
  6
Continuous
100
AcDbLine
 10
-696.102179
 20
-60.656083
 30
0.0
 11
-693.455384
 21
-59.127956
 31
0.0
  0
ARC
  5
466
100
AcDbEntity
  8
0
370
    -3
  6
Continuous
100
AcDbCircle
 10
-696.852179
 20
-59.357045
 30
0.0
 40
1.5
100
AcDbArc
 50
199.759652
 51
300.0
  0
ARC
  5
467
100
AcDbEntity
  8
0
370
    -3
  6
Continuous
100
AcDbCircle
 10
-675.676999
 20
-51.750352
 30
0.0
 40
14.5
100
AcDbArc
 50
167.920213
 51
192.079787
  0
ARC
  5
468
100
AcDbEntity
  8
0
370
    -3
  6
Continuous
100
AcDbCircle
 10
-688.389142
 20
-49.029795
 30
0.0
 40
1.5
100
AcDbArc
 50
60.0
 51
167.920213
  0
LINE
  5
469
100
AcDbEntity
  8
0
370
    -3
  6
Continuous
100
AcDbLine
 10
-684.864253
 20
-49.33284
 30
0.0
 11
-687.639142
 21
-47.730757
 31
0.0
  0
ARC
  5
46A
100
AcDbEntity
  8
0
370
    -3
  6
Continuous
100
AcDbCircle
 10
-685.614253
 20
-50.631878
 30
0.0
 40
1.5
100
AcDbArc
 50
353.578178
 51
60.0
  0
ARC
  5
46B
100
AcDbEntity
  8
0
370
    -3
  6
Continuous
100
AcDbCircle
 10
-675.676999
 20
-51.750352
 30
0.0
 40
8.5
100
AcDbArc
 50
173.578178
 51
186.421822
  0
ARC
  5
46C
100
AcDbEntity
  8
0
370
    -3
  6
Continuous
100
AcDbCircle
 10
-685.614253
 20
-52.868826
 30
0.0
 40
1.5
100
AcDbArc
 50
300.0
 51
6.421822
  0
LINE
  5
46D
100
AcDbEntity
  8
0
370
    -3
  6
Continuous
100
AcDbLine
 10
-687.639142
 20
-55.769947
 30
0.0
 11
-684.864253
 21
-54.167864
 31
0.0
  0
ARC
  5
46E
100
AcDbEntity
  8
0
370
    -3
  6
Continuous
100
AcDbCircle
 10
-688.389142
 20
-54.470909
 30
0.0
 40
1.5
100
AcDbArc
 50
192.079787
 51
300.0
  0
ARC
  5
46F
100
AcDbEntity
  8
0
370
    -3
  6
Continuous
100
AcDbCircle
 10
-675.676999
 20
-51.750352
 30
0.0
 40
24.0
100
AcDbArc
 50
340.240348
 51
19.759652
  0
ARC
  5
470
100
AcDbEntity
  8
0
370
    -3
  6
Continuous
100
AcDbCircle
 10
-654.50182
 20
-44.143659
 30
0.0
 40
1.5
100
AcDbArc
 50
19.759652
 51
120.0
  0
LINE
  5
471
100
AcDbEntity
  8
0
370
    -3
  6
Continuous
100
AcDbLine
 10
-657.898615
 20
-44.372748
 30
0.0
 11
-655.25182
 21
-42.844621
 31
0.0
  0
ARC
  5
472
100
AcDbEntity
  8
0
370
    -3
  6
Continuous
100
AcDbCircle
 10
-657.148615
 20
-45.671786
 30
0.0
 40
1.5
100
AcDbArc
 50
120.0
 51
198.162996
  0
ARC
  5
473
100
AcDbEntity
  8
0
370
    -3
  6
Continuous
100
AcDbCircle
 10
-675.676999
 20
-51.750352
 30
0.0
 40
18.0
100
AcDbArc
 50
341.837004
 51
18.162996
  0
ARC
  5
474
100
AcDbEntity
  8
0
370
    -3
  6
Continuous
100
AcDbCircle
 10
-657.148615
 20
-57.828918
 30
0.0
 40
1.5
100
AcDbArc
 50
161.837004
 51
240.0
  0
LINE
  5
475
100
AcDbEntity
  8
0
370
    -3
  6
Continuous
100
AcDbLine
 10
-655.25182
 20
-60.656083
 30
0.0
 11
-657.898615
 21
-59.127956
 31
0.0
  0
ARC
  5
476
100
AcDbEntity
  8
0
370
    -3
  6
Continuous
100
AcDbCircle
 10
-654.50182
 20
-59.357045
 30
0.0
 40
1.5
100
AcDbArc
 50
240.0
 51
340.240348
  0
ARC
  5
477
100
AcDbEntity
  8
0
370
    -3
  6
Continuous
100
AcDbCircle
 10
-675.676999
 20
-51.750352
 30
0.0
 40
14.5
100
AcDbArc
 50
347.920213
 51
12.079787
  0
ARC
  5
478
100
AcDbEntity
  8
0
370
    -3
  6
Continuous
100
AcDbCircle
 10
-662.964857
 20
-49.029795
 30
0.0
 40
1.5
100
AcDbArc
 50
12.079787
 51
120.0
  0
LINE
  5
479
100
AcDbEntity
  8
0
370
    -3
  6
Continuous
100
AcDbLine
 10
-666.489745
 20
-49.33284
 30
0.0
 11
-663.714857
 21
-47.730757
 31
0.0
  0
ARC
  5
47A
100
AcDbEntity
  8
0
370
    -3
  6
Continuous
100
AcDbCircle
 10
-665.739745
 20
-50.631878
 30
0.0
 40
1.5
100
AcDbArc
 50
120.0
 51
186.421822
  0
ARC
  5
47B
100
AcDbEntity
  8
0
370
    -3
  6
Continuous
100
AcDbCircle
 10
-675.676999
 20
-51.750352
 30
0.0
 40
8.5
100
AcDbArc
 50
353.578178
 51
6.421822
  0
ARC
  5
47C
100
AcDbEntity
  8
0
370
    -3
  6
Continuous
100
AcDbCircle
 10
-665.739745
 20
-52.868826
 30
0.0
 40
1.5
100
AcDbArc
 50
173.578178
 51
240.0
  0
LINE
  5
47D
100
AcDbEntity
  8
0
370
    -3
  6
Continuous
100
AcDbLine
 10
-663.714857
 20
-55.769947
 30
0.0
 11
-666.489745
 21
-54.167864
 31
0.0
  0
ARC
  5
47E
100
AcDbEntity
  8
0
370
    -3
  6
Continuous
100
AcDbCircle
 10
-662.964857
 20
-54.470909
 30
0.0
 40
1.5
100
AcDbArc
 50
240.0
 51
347.920213
  0
ARC
  5
47F
100
AcDbEntity
  8
0
370
    -3
  6
Continuous
100
AcDbCircle
 10
-675.676999
 20
-51.750352
 30
0.0
 40
8.5
100
AcDbArc
 50
53.578178
 51
66.421822
  0
ARC
  5
480
100
AcDbEntity
  8
0
370
    -3
  6
Continuous
100
AcDbCircle
 10
-675.676999
 20
-51.750352
 30
0.0
 40
24.0
100
AcDbArc
 50
40.240348
 51
79.759652
  0
LINE
  5
481
100
AcDbEntity
  8
0
370
    -3
  6
Continuous
100
AcDbLine
 10
-668.989745
 20
-45.002713
 30
0.0
 11
-666.214857
 21
-43.40063
 31
0.0
  0
LINE
  5
482
100
AcDbEntity
  8
0
370
    -3
  6
Continuous
100
AcDbLine
 10
-673.176999
 20
-29.608762
 30
0.0
 11
-673.176999
 21
-32.665017
 31
0.0
  0
LINE
  5
483
100
AcDbEntity
  8
0
370
    -3
  6
Continuous
100
AcDbLine
 10
-673.176999
 20
-39.381035
 30
0.0
 11
-673.176999
 21
-42.585201
 31
0.0
  0
ARC
  5
484
100
AcDbEntity
  8
0
370
    -3
  6
Continuous
100
AcDbCircle
 10
-675.676999
 20
-51.750352
 30
0.0
 40
14.5
100
AcDbArc
 50
47.920213
 51
72.079787
  0
ARC
  5
485
100
AcDbEntity
  8
0
370
    -3
  6
Continuous
100
AcDbCircle
 10
-675.676999
 20
-51.750352
 30
0.0
 40
18.0
100
AcDbArc
 50
41.837004
 51
78.162996
  0
LINE
  5
486
100
AcDbEntity
  8
0
370
    -3
  6
Continuous
100
AcDbLine
 10
-660.398615
 20
-40.042621
 30
0.0
 11
-657.75182
 21
-38.514494
 31
0.0
  0
ARC
  5
487
100
AcDbEntity
  8
0
370
    -3
  6
Continuous
100
AcDbCircle
 10
-666.964857
 20
-42.101592
 30
0.0
 40
1.5
100
AcDbArc
 50
300.0
 51
47.920213
  0
ARC
  5
488
100
AcDbEntity
  8
0
370
    -3
  6
Continuous
100
AcDbCircle
 10
-671.676999
 20
-29.608762
 30
0.0
 40
1.5
100
AcDbArc
 50
79.759652
 51
180.0
  0
ARC
  5
489
100
AcDbEntity
  8
0
370
    -3
  6
Continuous
100
AcDbCircle
 10
-661.148615
 20
-38.743583
 30
0.0
 40
1.5
100
AcDbArc
 50
221.837004
 51
300.0
  0
ARC
  5
48A
100
AcDbEntity
  8
0
370
    -3
  6
Continuous
100
AcDbCircle
 10
-671.676999
 20
-32.665017
 30
0.0
 40
1.5
100
AcDbArc
 50
180.0
 51
258.162996
  0
ARC
  5
48B
100
AcDbEntity
  8
0
370
    -3
  6
Continuous
100
AcDbCircle
 10
-671.676999
 20
-39.381035
 30
0.0
 40
1.5
100
AcDbArc
 50
72.079787
 51
180.0
  0
ARC
  5
48C
100
AcDbEntity
  8
0
370
    -3
  6
Continuous
100
AcDbCircle
 10
-658.50182
 20
-37.215455
 30
0.0
 40
1.5
100
AcDbArc
 50
300.0
 51
40.240348
  0
ARC
  5
48D
100
AcDbEntity
  8
0
370
    -3
  6
Continuous
100
AcDbCircle
 10
-671.676999
 20
-42.585201
 30
0.0
 40
1.5
100
AcDbArc
 50
180.0
 51
246.421822
  0
ARC
  5
48E
100
AcDbEntity
  8
0
370
    -3
  6
Continuous
100
AcDbCircle
 10
-669.739745
 20
-43.703675
 30
0.0
 40
1.5
100
AcDbArc
 50
233.578178
 51
300.0
  0
CIRCLE
  5
48F
100
AcDbEntity
  8
0
370
    -3
  6
Continuous
100
AcDbCircle
 10
-675.676999
 20
-51.750352
 30
0.0
 40
5.0
  0
ARC
  5
490
100
AcDbEntity
  8
0
370
    -3
  6
Continuous
100
AcDbCircle
 10
-652.802313
 20
-33.924844
 30
0.0
 40
1.5
100
AcDbArc
 50
217.928142
 51
300.0
  0
LINE
  5
491
100
AcDbEntity
  8
0
370
    -3
  6
Continuous
100
AcDbLine
 10
-652.052313
 20
-35.223882
 30
0.0
 11
-649.431545
 21
-33.710781
 31
0.0
  0
ARC
  5
492
100
AcDbEntity
  8
0
370
    -3
  6
Continuous
100
AcDbCircle
 10
-671.676999
 20
-23.027539
 30
0.0
 40
1.5
100
AcDbArc
 50
180.0
 51
262.071858
  0
ARC
  5
493
100
AcDbEntity
  8
0
370
    -3
  6
Continuous
100
AcDbCircle
 10
-675.676999
 20
-51.750352
 30
0.0
 40
27.5
100
AcDbArc
 50
37.928142
 51
82.071858
  0
ARC
  5
494
100
AcDbEntity
  8
0
370
    -3
  6
Continuous
100
AcDbCircle
 10
-650.181545
 20
-32.411742
 30
0.0
 40
1.5
100
AcDbArc
 50
300.0
 51
37.180756
  0
ARC
  5
495
100
AcDbEntity
  8
0
370
    -3
  6
Continuous
100
AcDbCircle
 10
-644.515463
 20
-29.140428
 30
0.0
 40
1.5
100
AcDbArc
 50
215.96357
 51
300.0
  0
ARC
  5
496
100
AcDbEntity
  8
0
370
    -3
  6
Continuous
100
AcDbCircle
 10
-675.676999
 20
-51.750352
 30
0.0
 40
37.0
100
AcDbArc
 50
35.96357
 51
84.03643
  0
ARC
  5
497
100
AcDbEntity
  8
0
370
    -3
  6
Continuous
100
AcDbCircle
 10
-675.676999
 20
-51.750352
 30
0.0
 40
33.5
100
AcDbArc
 50
37.180756
 51
82.819244
  0
LINE
  5
498
100
AcDbEntity
  8
0
370
    -3
  6
Continuous
100
AcDbLine
 10
-649.552313
 20
-39.554009
 30
0.0
 11
-646.931545
 21
-38.040908
 31
0.0
  0
ARC
  5
499
100
AcDbEntity
  8
0
370
    -3
  6
Continuous
100
AcDbCircle
 10
-646.181545
 20
-39.339946
 30
0.0
 40
1.5
100
AcDbArc
 50
22.819244
 51
120.0
  0
ARC
  5
49A
100
AcDbEntity
  8
0
370
    -3
  6
Continuous
100
AcDbCircle
 10
-648.802313
 20
-40.853047
 30
0.0
 40
1.5
100
AcDbArc
 50
120.0
 51
202.071858
  0
ARC
  5
49B
100
AcDbEntity
  8
0
370
    -3
  6
Continuous
100
AcDbCircle
 10
-675.676999
 20
-51.750352
 30
0.0
 40
27.5
100
AcDbArc
 50
337.928142
 51
22.071858
  0
ARC
  5
49C
100
AcDbEntity
  8
0
370
    -3
  6
Continuous
100
AcDbCircle
 10
-675.676999
 20
-51.750352
 30
0.0
 40
33.5
100
AcDbArc
 50
337.180756
 51
22.819244
  0
ARC
  5
49D
100
AcDbEntity
  8
0
370
    -3
  6
Continuous
100
AcDbCircle
 10
-648.802313
 20
-62.647657
 30
0.0
 40
1.5
100
AcDbArc
 50
157.928142
 51
240.0
  0
LINE
  5
49E
100
AcDbEntity
  8
0
370
    -3
  6
Continuous
100
AcDbLine
 10
-646.931545
 20
-65.459796
 30
0.0
 11
-649.552313
 21
-63.946695
 31
0.0
  0
ARC
  5
49F
100
AcDbEntity
  8
0
370
    -3
  6
Continuous
100
AcDbCircle
 10
-646.181545
 20
-64.160758
 30
0.0
 40
1.5
100
AcDbArc
 50
240.0
 51
337.180756
  0
ARC
  5
4A0
100
AcDbEntity
  8
0
370
    -3
  6
Continuous
100
AcDbCircle
 10
-671.676999
 20
-93.057131
 30
0.0
 40
1.5
100
AcDbArc
 50
180.0
 51
275.531072
  0
LINE
  5
4A1
100
AcDbEntity
  8
0
370
    -3
  6
Continuous
100
AcDbLine
 10
-673.176999
 20
-90.041996
 30
0.0
 11
-673.176999
 21
-93.057131
 31
0.0
  0
LINE
  5
4A2
100
AcDbEntity
  8
0
370
    -3
  6
Continuous
100
AcDbLine
 10
-673.176999
 20
-80.473165
 30
0.0
 11
-673.176999
 21
-83.499368
 31
0.0
  0
ARC
  5
4A3
100
AcDbEntity
  8
0
370
    -3
  6
Continuous
100
AcDbCircle
 10
-671.676999
 20
-90.041996
 30
0.0
 40
1.5
100
AcDbArc
 50
95.96357
 51
180.0
  0
ARC
  5
4A4
100
AcDbEntity
  8
0
370
    -3
  6
Continuous
100
AcDbCircle
 10
-671.676999
 20
-83.499368
 30
0.0
 40
1.5
100
AcDbArc
 50
180.0
 51
277.180756
  0
ARC
  5
4A5
100
AcDbEntity
  8
0
370
    -3
  6
Continuous
100
AcDbCircle
 10
-671.676999
 20
-80.473165
 30
0.0
 40
1.5
100
AcDbArc
 50
97.928142
 51
180.0
  0
ARC
  5
4A6
100
AcDbEntity
  8
0
370
    -3
  6
Continuous
100
AcDbCircle
 10
-675.676999
 20
-51.750352
 30
0.0
 40
27.5
100
AcDbArc
 50
277.928142
 51
322.071858
  0
ARC
  5
4A7
100
AcDbEntity
  8
0
370
    -3
  6
Continuous
100
AcDbCircle
 10
-675.676999
 20
-51.750352
 30
0.0
 40
37.0
100
AcDbArc
 50
275.96357
 51
324.03643
  0
ARC
  5
4A8
100
AcDbEntity
  8
0
370
    -3
  6
Continuous
100
AcDbCircle
 10
-675.676999
 20
-51.750352
 30
0.0
 40
43.0
100
AcDbArc
 50
275.531072
 51
324.468928
  0
ARC
  5
4A9
100
AcDbEntity
  8
0
370
    -3
  6
Continuous
100
AcDbCircle
 10
-675.676999
 20
-51.750352
 30
0.0
 40
33.5
100
AcDbArc
 50
277.180756
 51
322.819244
  0
ARC
  5
4AA
100
AcDbEntity
  8
0
370
    -3
  6
Continuous
100
AcDbCircle
 10
-652.802313
 20
-69.57586
 30
0.0
 40
1.5
100
AcDbArc
 50
60.0
 51
142.071858
  0
ARC
  5
4AB
100
AcDbEntity
  8
0
370
    -3
  6
Continuous
100
AcDbCircle
 10
-644.515463
 20
-74.360276
 30
0.0
 40
1.5
100
AcDbArc
 50
60.0
 51
144.03643
  0
LINE
  5
4AC
100
AcDbEntity
  8
0
370
    -3
  6
Continuous
100
AcDbLine
 10
-649.431545
 20
-69.789923
 30
0.0
 11
-652.052313
 21
-68.276822
 31
0.0
  0
ARC
  5
4AD
100
AcDbEntity
  8
0
370
    -3
  6
Continuous
100
AcDbCircle
 10
-650.181545
 20
-71.088961
 30
0.0
 40
1.5
100
AcDbArc
 50
322.819244
 51
60.0
  0
ARC
  5
4AE
100
AcDbEntity
  8
0
370
    -3
  6
Continuous
100
AcDbCircle
 10
-679.676999
 20
-93.057131
 30
0.0
 40
1.5
100
AcDbArc
 50
264.468928
 51
0.0
  0
LINE
  5
4AF
100
AcDbEntity
  8
0
370
    -3
  6
Continuous
100
AcDbLine
 10
-678.176999
 20
-90.041996
 30
0.0
 11
-678.176999
 21
-93.057131
 31
0.0
  0
LINE
  5
4B0
100
AcDbEntity
  8
0
370
    -3
  6
Continuous
100
AcDbLine
 10
-678.176999
 20
-80.473165
 30
0.0
 11
-678.176999
 21
-83.499368
 31
0.0
  0
ARC
  5
4B1
100
AcDbEntity
  8
0
370
    -3
  6
Continuous
100
AcDbCircle
 10
-679.676999
 20
-90.041996
 30
0.0
 40
1.5
100
AcDbArc
 50
0.0
 51
84.03643
  0
ARC
  5
4B2
100
AcDbEntity
  8
0
370
    -3
  6
Continuous
100
AcDbCircle
 10
-679.676999
 20
-83.499368
 30
0.0
 40
1.5
100
AcDbArc
 50
262.819244
 51
0.0
  0
ARC
  5
4B3
100
AcDbEntity
  8
0
370
    -3
  6
Continuous
100
AcDbCircle
 10
-679.676999
 20
-80.473165
 30
0.0
 40
1.5
100
AcDbArc
 50
0.0
 51
82.071858
  0
ARC
  5
4B4
100
AcDbEntity
  8
0
370
    -3
  6
Continuous
100
AcDbCircle
 10
-675.676999
 20
-51.750352
 30
0.0
 40
27.5
100
AcDbArc
 50
217.928142
 51
262.071858
  0
ARC
  5
4B5
100
AcDbEntity
  8
0
370
    -3
  6
Continuous
100
AcDbCircle
 10
-675.676999
 20
-51.750352
 30
0.0
 40
37.0
100
AcDbArc
 50
215.96357
 51
264.03643
  0
ARC
  5
4B6
100
AcDbEntity
  8
0
370
    -3
  6
Continuous
100
AcDbCircle
 10
-675.676999
 20
-51.750352
 30
0.0
 40
43.0
100
AcDbArc
 50
215.531072
 51
264.468928
  0
ARC
  5
4B7
100
AcDbEntity
  8
0
370
    -3
  6
Continuous
100
AcDbCircle
 10
-675.676999
 20
-51.750352
 30
0.0
 40
33.5
100
AcDbArc
 50
217.180756
 51
262.819244
  0
ARC
  5
4B8
100
AcDbEntity
  8
0
370
    -3
  6
Continuous
100
AcDbCircle
 10
-698.551685
 20
-69.57586
 30
0.0
 40
1.5
100
AcDbArc
 50
37.928142
 51
120.0
  0
ARC
  5
4B9
100
AcDbEntity
  8
0
370
    -3
  6
Continuous
100
AcDbCircle
 10
-709.449719
 20
-75.867843
 30
0.0
 40
1.5
100
AcDbArc
 50
120.0
 51
215.531072
  0
LINE
  5
4BA
100
AcDbEntity
  8
0
370
    -3
  6
Continuous
100
AcDbLine
 10
-710.199719
 20
-74.568805
 30
0.0
 11
-707.588536
 21
-73.061237
 31
0.0
  0
ARC
  5
4BB
100
AcDbEntity
  8
0
370
    -3
  6
Continuous
100
AcDbCircle
 10
-706.838536
 20
-74.360276
 30
0.0
 40
1.5
100
AcDbArc
 50
35.96357
 51
120.0
  0
LINE
  5
4BC
100
AcDbEntity
  8
0
370
    -3
  6
Continuous
100
AcDbLine
 10
-701.922453
 20
-69.789923
 30
0.0
 11
-699.301685
 21
-68.276822
 31
0.0
  0
ARC
  5
4BD
100
AcDbEntity
  8
0
370
    -3
  6
Continuous
100
AcDbCircle
 10
-701.172453
 20
-71.088961
 30
0.0
 40
1.5
100
AcDbArc
 50
120.0
 51
217.180756
  0
ARC
  5
4BE
100
AcDbEntity
  8
0
370
    -3
  6
Continuous
100
AcDbCircle
 10
-713.449719
 20
-34.561064
 30
0.0
 40
1.5
100
AcDbArc
 50
60.0
 51
155.531072
  0
LINE
  5
4BF
100
AcDbEntity
  8
0
370
    -3
  6
Continuous
100
AcDbLine
 10
-710.088536
 20
-34.769593
 30
0.0
 11
-712.699719
 21
-33.262026
 31
0.0
  0
LINE
  5
4C0
100
AcDbEntity
  8
0
370
    -3
  6
Continuous
100
AcDbLine
 10
-701.801685
 20
-39.554009
 30
0.0
 11
-704.422453
 21
-38.040908
 31
0.0
  0
ARC
  5
4C1
100
AcDbEntity
  8
0
370
    -3
  6
Continuous
100
AcDbCircle
 10
-710.838536
 20
-36.068632
 30
0.0
 40
1.5
100
AcDbArc
 50
335.96357
 51
60.0
  0
ARC
  5
4C2
100
AcDbEntity
  8
0
370
    -3
  6
Continuous
100
AcDbCircle
 10
-705.172453
 20
-39.339946
 30
0.0
 40
1.5
100
AcDbArc
 50
60.0
 51
157.180756
  0
ARC
  5
4C3
100
AcDbEntity
  8
0
370
    -3
  6
Continuous
100
AcDbCircle
 10
-702.551685
 20
-40.853047
 30
0.0
 40
1.5
100
AcDbArc
 50
337.928142
 51
60.0
  0
ARC
  5
4C4
100
AcDbEntity
  8
0
370
    -3
  6
Continuous
100
AcDbCircle
 10
-675.676999
 20
-51.750352
 30
0.0
 40
27.5
100
AcDbArc
 50
157.928142
 51
202.071858
  0
ARC
  5
4C5
100
AcDbEntity
  8
0
370
    -3
  6
Continuous
100
AcDbCircle
 10
-675.676999
 20
-51.750352
 30
0.0
 40
37.0
100
AcDbArc
 50
155.96357
 51
204.03643
  0
ARC
  5
4C6
100
AcDbEntity
  8
0
370
    -3
  6
Continuous
100
AcDbCircle
 10
-675.676999
 20
-51.750352
 30
0.0
 40
43.0
100
AcDbArc
 50
155.531072
 51
204.468928
  0
ARC
  5
4C7
100
AcDbEntity
  8
0
370
    -3
  6
Continuous
100
AcDbCircle
 10
-675.676999
 20
-51.750352
 30
0.0
 40
33.5
100
AcDbArc
 50
157.180756
 51
202.819244
  0
ARC
  5
4C8
100
AcDbEntity
  8
0
370
    -3
  6
Continuous
100
AcDbCircle
 10
-702.551685
 20
-62.647657
 30
0.0
 40
1.5
100
AcDbArc
 50
300.0
 51
22.071858
  0
ARC
  5
4C9
100
AcDbEntity
  8
0
370
    -3
  6
Continuous
100
AcDbCircle
 10
-713.449719
 20
-68.93964
 30
0.0
 40
1.5
100
AcDbArc
 50
204.468928
 51
300.0
  0
LINE
  5
4CA
100
AcDbEntity
  8
0
370
    -3
  6
Continuous
100
AcDbLine
 10
-712.699719
 20
-70.238678
 30
0.0
 11
-710.088536
 21
-68.73111
 31
0.0
  0
ARC
  5
4CB
100
AcDbEntity
  8
0
370
    -3
  6
Continuous
100
AcDbCircle
 10
-710.838536
 20
-67.432072
 30
0.0
 40
1.5
100
AcDbArc
 50
300.0
 51
24.03643
  0
LINE
  5
4CC
100
AcDbEntity
  8
0
370
    -3
  6
Continuous
100
AcDbLine
 10
-704.422453
 20
-65.459796
 30
0.0
 11
-701.801685
 21
-63.946695
 31
0.0
  0
ARC
  5
4CD
100
AcDbEntity
  8
0
370
    -3
  6
Continuous
100
AcDbCircle
 10
-705.172453
 20
-64.160758
 30
0.0
 40
1.5
100
AcDbArc
 50
202.819244
 51
300.0
  0
ARC
  5
4CE
100
AcDbEntity
  8
0
370
    -3
  6
Continuous
100
AcDbCircle
 10
-709.449719
 20
-27.632861
 30
0.0
 40
1.5
100
AcDbArc
 50
144.468928
 51
240.0
  0
LINE
  5
4CF
100
AcDbEntity
  8
0
370
    -3
  6
Continuous
100
AcDbLine
 10
-707.588536
 20
-30.439466
 30
0.0
 11
-710.199719
 21
-28.931899
 31
0.0
  0
LINE
  5
4D0
100
AcDbEntity
  8
0
370
    -3
  6
Continuous
100
AcDbLine
 10
-699.301685
 20
-35.223882
 30
0.0
 11
-701.922453
 21
-33.710781
 31
0.0
  0
ARC
  5
4D1
100
AcDbEntity
  8
0
370
    -3
  6
Continuous
100
AcDbCircle
 10
-706.838536
 20
-29.140428
 30
0.0
 40
1.5
100
AcDbArc
 50
240.0
 51
324.03643
  0
ARC
  5
4D2
100
AcDbEntity
  8
0
370
    -3
  6
Continuous
100
AcDbCircle
 10
-701.172453
 20
-32.411742
 30
0.0
 40
1.5
100
AcDbArc
 50
142.819244
 51
240.0
  0
ARC
  5
4D3
100
AcDbEntity
  8
0
370
    -3
  6
Continuous
100
AcDbCircle
 10
-698.551685
 20
-33.924844
 30
0.0
 40
1.5
100
AcDbArc
 50
240.0
 51
322.071858
  0
ARC
  5
4D4
100
AcDbEntity
  8
0
370
    -3
  6
Continuous
100
AcDbCircle
 10
-675.676999
 20
-51.750352
 30
0.0
 40
27.5
100
AcDbArc
 50
97.928142
 51
142.071858
  0
ARC
  5
4D5
100
AcDbEntity
  8
0
370
    -3
  6
Continuous
100
AcDbCircle
 10
-675.676999
 20
-51.750352
 30
0.0
 40
37.0
100
AcDbArc
 50
95.96357
 51
144.03643
  0
ARC
  5
4D6
100
AcDbEntity
  8
0
370
    -3
  6
Continuous
100
AcDbCircle
 10
-675.676999
 20
-51.750352
 30
0.0
 40
43.0
100
AcDbArc
 50
95.531072
 51
144.468928
  0
ARC
  5
4D7
100
AcDbEntity
  8
0
370
    -3
  6
Continuous
100
AcDbCircle
 10
-675.676999
 20
-51.750352
 30
0.0
 40
33.5
100
AcDbArc
 50
97.180756
 51
142.819244
  0
ARC
  5
4D8
100
AcDbEntity
  8
0
370
    -3
  6
Continuous
100
AcDbCircle
 10
-679.676999
 20
-23.027539
 30
0.0
 40
1.5
100
AcDbArc
 50
277.928142
 51
0.0
  0
LINE
  5
4D9
100
AcDbEntity
  8
0
370
    -3
  6
DASHED
100
AcDbLine
 10
-722.223413
 20
-88.818974
 30
0.0
 11
-722.223413
 21
-88.802331
 31
0.0
  0
LINE
  5
4DA
100
AcDbEntity
  8
0
370
    -3
  6
Continuous
100
AcDbLine
 10
-720.531586
 20
-91.182893
 30
0.0
 11
-716.481161
 21
-95.233318
 31
0.0
  0
ARC
  5
4DB
100
AcDbEntity
  8
0
370
    -3
  6
Continuous
100
AcDbCircle
 10
-699.601226
 20
-33.248171
 30
0.0
 40
29.6
100
AcDbArc
 50
135.0
 51
177.053989
  0
ARC
  5
4DC
100
AcDbEntity
  8
0
370
    -3
  6
Continuous
100
AcDbCircle
 10
-340.076999
 20
-51.750352
 30
0.0
 40
389.6
100
AcDbArc
 50
180.0
 51
182.946011
  0
ARC
  5
4DD
100
AcDbEntity
  8
0
370
    -3
  6
Continuous
100
AcDbCircle
 10
-340.076999
 20
-51.750352
 30
0.0
 40
389.6
100
AcDbArc
 50
177.053989
 51
180.0
  0
ARC
  5
4DE
100
AcDbEntity
  8
0
370
    -3
  6
Continuous
100
AcDbCircle
 10
-699.601226
 20
-70.252532
 30
0.0
 40
29.6
100
AcDbArc
 50
182.946011
 51
225.0
  0
ARC
  5
4DF
100
AcDbEntity
  8
0
370
    -3
  6
Continuous
100
AcDbCircle
 10
-706.157402
 20
-84.909559
 30
0.0
 40
14.6
100
AcDbArc
 50
225.0
 51
265.337794
  0
LINE
  5
4E0
100
AcDbEntity
  8
0
370
    -3
  6
CENTER
100
AcDbLine
 10
-675.676999
 20
-206.889239
 30
0.0
 11
-675.676999
 21
103.0262
 31
0.0
  0
ARC
  5
4E1
100
AcDbEntity
  8
0
370
    -3
  6
Continuous
100
AcDbCircle
 10
-675.676999
 20
288.849648
 30
0.0
 40
389.6
100
AcDbArc
 50
265.337794
 51
270.0
  0
ARC
  5
4E2
100
AcDbEntity
  8
0
370
    -3
  6
Continuous
100
AcDbCircle
 10
-675.676999
 20
288.849648
 30
0.0
 40
389.6
100
AcDbArc
 50
270.0
 51
274.662206
  0
ARC
  5
4E3
100
AcDbEntity
  8
0
370
    -3
  6
Continuous
100
AcDbCircle
 10
-675.676999
 20
-82.250352
 30
0.0
 40
40.0
100
AcDbArc
 50
225.472942
 51
314.527058
  0
ARC
  5
4E4
100
AcDbEntity
  8
0
370
    -3
  6
Continuous
100
AcDbCircle
 10
-650.176999
 20
-116.873321
 30
0.0
 40
3.0
100
AcDbArc
 50
126.371842
 51
180.0
  0
LINE
  5
4E5
100
AcDbEntity
  8
0
370
    -3
  6
Continuous
100
AcDbLine
 10
-653.176999
 20
-116.873321
 30
0.0
 11
-653.176999
 21
-157.750352
 31
0.0
  0
ARC
  5
4E6
100
AcDbEntity
  8
0
370
    -3
  6
Continuous
100
AcDbCircle
 10
-675.676999
 20
288.849648
 30
0.0
 40
400.6
100
AcDbArc
 50
265.337794
 51
270.0
  0
ARC
  5
4E7
100
AcDbEntity
  8
0
370
    -3
  6
Continuous
100
AcDbCircle
 10
-675.676999
 20
288.849648
 30
0.0
 40
400.6
100
AcDbArc
 50
270.0
 51
274.662206
  0
ARC
  5
4E8
100
AcDbEntity
  8
0
370
    -3
  6
Continuous
100
AcDbCircle
 10
-661.176999
 20
-122.731829
 30
0.0
 40
3.0
100
AcDbArc
 50
0.0
 51
109.706941
  0
LINE
  5
4E9
100
AcDbEntity
  8
0
370
    -3
  6
Continuous
100
AcDbLine
 10
-658.176999
 20
-122.731829
 30
0.0
 11
-658.176999
 21
-157.750352
 31
0.0
  0
LINE
  5
4EA
100
AcDbEntity
  8
0
370
    -3
  6
CENTER
100
AcDbLine
 10
-830.800155
 20
-51.750352
 30
0.0
 11
-523.206568
 21
-51.750352
 31
0.0
  0
ARC
  5
4EB
100
AcDbEntity
  8
0
370
    -3
  6
Continuous
100
AcDbCircle
 10
-340.076999
 20
-51.750352
 30
0.0
 40
400.6
100
AcDbArc
 50
180.0
 51
182.946011
  0
ARC
  5
4EC
100
AcDbEntity
  8
0
370
    -3
  6
Continuous
100
AcDbCircle
 10
-340.076999
 20
-51.750352
 30
0.0
 40
400.6
100
AcDbArc
 50
177.053989
 51
180.0
  0
ARC
  5
4ED
100
AcDbEntity
  8
0
370
    -3
  6
Continuous
100
AcDbCircle
 10
-681.926999
 20
6.749648
 30
0.0
 40
3.0
100
AcDbArc
 50
29.635474
 51
90.0
  0
ARC
  5
4EE
100
AcDbEntity
  8
0
370
    -3
  6
Continuous
100
AcDbCircle
 10
-675.676999
 20
-392.350352
 30
0.0
 40
400.6
100
AcDbArc
 50
90.0
 51
94.662206
  0
LINE
  5
4EF
100
AcDbEntity
  8
0
370
    -3
  6
Continuous
100
AcDbLine
 10
-665.176999
 20
11.74966
 30
0.0
 11
-686.176999
 21
11.74966
 31
0.0
  0
ARC
  5
4F0
100
AcDbEntity
  8
0
370
    -3
  6
Continuous
100
AcDbCircle
 10
-686.176999
 20
21.74966
 30
0.0
 40
10.0
100
AcDbArc
 50
180.0
 51
270.0
  0
ARC
  5
4F1
100
AcDbEntity
  8
0
370
    -3
  6
Continuous
100
AcDbCircle
 10
-693.176999
 20
12.749648
 30
0.0
 40
3.0
100
AcDbArc
 50
180.0
 51
270.0
  0
LINE
  5
4F2
100
AcDbEntity
  8
0
370
    -3
  6
Continuous
100
AcDbLine
 10
-675.676999
 20
9.749648
 30
0.0
 11
-693.176999
 21
9.749648
 31
0.0
  0
LINE
  5
4F3
100
AcDbEntity
  8
0
370
    -3
  6
Continuous
100
AcDbLine
 10
-629.078662
 20
1.494789
 30
0.0
 11
-628.591859
 21
1.981592
 31
0.0
  0
LINE
  5
4F4
100
AcDbEntity
  8
0
370
    -3
  6
Continuous
100
AcDbLine
 10
-622.149016
 20
-4.869172
 30
0.0
 11
-628.795819
 21
1.777631
 31
0.0
  0
LINE
  5
4F5
100
AcDbEntity
  8
0
370
    -3
  6
Continuous
100
AcDbLine
 10
-622.431859
 20
-5.152015
 30
0.0
 11
-629.078662
 21
1.494789
 31
0.0
  0
ARC
  5
4F6
100
AcDbEntity
  8
0
370
    -3
  6
Continuous
100
AcDbCircle
 10
-628.018002
 20
-4.091355
 30
0.0
 40
6.099999
100
AcDbArc
 50
354.601911
 51
95.398072
  0
ARC
  5
4F7
100
AcDbEntity
  8
0
370
    -3
  6
Continuous
100
AcDbCircle
 10
-645.196596
 20
-18.591145
 30
0.0
 40
25.6
100
AcDbArc
 50
45.0
 51
85.337794
  0
ARC
  5
4F8
100
AcDbEntity
  8
0
370
    -3
  6
Continuous
100
AcDbCircle
 10
-675.676999
 20
-392.350352
 30
0.0
 40
389.6
100
AcDbArc
 50
85.337794
 51
90.0
  0
ARC
  5
4F9
100
AcDbEntity
  8
0
370
    -3
  6
Continuous
100
AcDbCircle
 10
-675.676999
 20
-392.350352
 30
0.0
 40
400.6
100
AcDbArc
 50
85.337794
 51
90.0
  0
ARC
  5
4FA
100
AcDbEntity
  8
0
370
    -3
  6
Continuous
100
AcDbCircle
 10
-665.176999
 20
21.74966
 30
0.0
 40
10.0
100
AcDbArc
 50
270.0
 51
0.0
  0
LINE
  5
4FB
100
AcDbEntity
  8
0
370
    -3
  6
Continuous
100
AcDbLine
 10
-655.176999
 20
34.329221
 30
0.0
 11
-655.176999
 21
12.749648
 31
0.0
  0
ARC
  5
4FC
100
AcDbEntity
  8
0
370
    -3
  6
Continuous
100
AcDbCircle
 10
-658.176999
 20
12.749648
 30
0.0
 40
3.0
100
AcDbArc
 50
270.0
 51
0.0
  0
LINE
  5
4FD
100
AcDbEntity
  8
0
370
    -3
  6
Continuous
100
AcDbLine
 10
-675.676999
 20
9.749648
 30
0.0
 11
-658.176999
 21
9.749648
 31
0.0
  0
INSERT
  5
50A
100
AcDbEntity
  8
0
100
AcDbBlockReference
  2
ZU_SYM__USERS_HOME_SYMBOL_POO_SYM_B20_00022-1
 10
-665.176999
 20
21.749648
 30
0.0
  0
MTEXT
  5
50C
100
AcDbEntity
  8
0
370
    -3
  6
Continuous
100
AcDbMText
 10
-773.114563
 20
331.701752
 30
0.0
 40
15.0
 41
0.0
 71
     7
 72
     1
  1
\W0.48;GV-SFB
  7
ZU_SHPTB00001
 11
1.0
 21
0.0
 31
0.0
 73
     1
 44
1.0
  0
MTEXT
  5
50D
100
AcDbEntity
  8
0
370
    -3
  6
Continuous
100
AcDbMText
 10
-773.114563
 20
314.75174
 30
0.0
 40
15.0
 41
0.0
 71
     7
 72
     1
  1
\W0.43;0.75kW
  7
ZU_SHPTB00001
 11
1.0
 21
0.0
 31
0.0
 73
     1
 44
1.0
  0
MTEXT
  5
50E
100
AcDbEntity
  8
0
370
    -3
  6
Continuous
100
AcDbMText
 10
-773.114563
 20
280.851776
 30
0.0
 40
15.0
 41
0.0
 71
     7
 72
     1
  1
\W0.42;GEAR\W0.70; \W0.42;RATIO\W0.70;  \W0.42;1/270-1/450
  7
ZU_SHPTB00001
 11
1.0
 21
0.0
 31
0.0
 73
     1
 44
1.0
  0
MTEXT
  5
50F
100
AcDbEntity
  8
0
370
    -3
  6
Continuous
100
AcDbMText
 10
-773.114563
 20
297.801788
 30
0.0
 40
15.0
 41
0.0
 71
     7
 72
     1
  1
\W0.43;11.1-6.7r/min\W0.53;　
  7
ZU_SHPTB00001
 11
1.0
 21
0.0
 31
0.0
 73
     1
 44
1.0
  0
MTEXT
  5
510
100
AcDbEntity
  8
0
370
    -3
  6
Continuous
100
AcDbMText
 10
-773.114563
 20
263.901764
 30
0.0
 40
15.0
 41
0.0
 71
     7
 72
     1
  1
\W0.43;SCALE\W0.72;  \W0.43;1/1
  7
ZU_SHPTB00001
 11
1.0
 21
0.0
 31
0.0
 73
     1
 44
1.0
  0
MTEXT
  5
511
100
AcDbEntity
  8
0
370
    -3
  6
Continuous
100
AcDbMText
 10
-773.114563
 20
348.651764
 30
0.0
 40
15.0
 41
0.0
 71
     7
 72
     1
  1
\W0.63;三菱ギヤードモータ  
  7
ZU_SHPTB00001
 11
1.0
 21
0.0
 31
0.0
 73
     1
 44
1.0
  0
MTEXT
  5
512
100
AcDbEntity
  8
0
370
    -3
  6
Continuous
100
AcDbMText
 10
-773.114563
 20
348.651764
 30
0.0
 40
15.0
 41
0.0
 71
     7
 72
     1
  1
\W0.63;三菱ギヤードモータ  
  7
ZU_SHPTB00001
 11
1.0
 21
0.0
 31
0.0
 73
     1
 44
1.0
  0
LINE
  5
513
100
AcDbEntity
  8
0
370
    -3
  6
DASHED
100
AcDbLine
 10
162.823007
 20
-16.250352
 30
0.0
 11
162.823007
 21
-87.250352
 31
0.0
  0
ARC
  5
514
100
AcDbEntity
  8
0
370
    -3
  6
DASHED
100
AcDbCircle
 10
159.023007
 20
-87.250352
 30
0.0
 40
3.8
100
AcDbArc
 50
321.247352
 51
0.0
  0
LINE
  5
515
100
AcDbEntity
  8
0
370
    -3
  6
DASHED
100
AcDbLine
 10
161.763578
 20
-12.092839
 30
0.0
 11
162.18841
 21
-13.093681
 31
0.0
  0
ARC
  5
516
100
AcDbEntity
  8
0
370
    -3
  6
DASHED
100
AcDbCircle
 10
159.023007
 20
-16.250352
 30
0.0
 40
3.8
100
AcDbArc
 50
0.0
 51
36.757251
  0
LINE
  5
517
100
AcDbEntity
  8
0
370
    -3
  6
DASHED
100
AcDbLine
 10
162.067484
 20
-12.750352
 30
0.0
 11
162.067484
 21
-90.750352
 31
0.0
  0
LINE
  5
518
100
AcDbEntity
  8
0
370
    -3
  6
CENTER
100
AcDbLine
 10
137.823007
 20
-30.449895
 30
0.0
 11
137.823007
 21
-73.050809
 31
0.0
  0
LINE
  5
519
100
AcDbEntity
  8
0
370
    -3
  6
DASHED
100
AcDbLine
 10
112.351859
 20
-14.251533
 30
0.0
 11
112.351859
 21
-89.249171
 31
0.0
  0
ARC
  5
51A
100
AcDbEntity
  8
0
370
    -3
  6
DASHED
100
AcDbCircle
 10
120.151859
 20
-12.750352
 30
0.0
 40
7.8
100
AcDbArc
 50
90.0
 51
151.87484
  0
ELLIPSE
  5
51B
100
AcDbEntity
  8
0
370
    -3
  6
DASHED
100
AcDbEllipse
 10
114.237267
 20
-12.250352
 30
0.0
 11
0.0
 21
3.5
 31
0.0
210
0.0
220
0.0
230
1.0
 40
0.656603
 41
0.0
 42
6.2831853071795862
  0
LINE
  5
51C
100
AcDbEntity
  8
0
370
    -3
  6
DASHED
100
AcDbLine
 10
112.189987
 20
-10.660335
 30
0.0
 11
112.699813
 21
-12.250352
 31
0.0
  0
LINE
  5
51D
100
AcDbEntity
  8
0
370
    -3
  6
DASHED
100
AcDbLine
 10
112.699813
 20
-12.250352
 30
0.0
 11
113.749002
 21
-10.250352
 31
0.0
  0
LINE
  5
51E
100
AcDbEntity
  8
0
370
    -3
  6
DASHED
100
AcDbLine
 10
112.699813
 20
-12.250352
 30
0.0
 11
113.749002
 21
-14.250352
 31
0.0
  0
LINE
  5
51F
100
AcDbEntity
  8
0
370
    -3
  6
DASHED
100
AcDbLine
 10
112.189987
 20
-13.840369
 30
0.0
 11
112.699813
 21
-12.250352
 31
0.0
  0
LINE
  5
520
100
AcDbEntity
  8
0
370
    -3
  6
DASHED
100
AcDbLine
 10
150.648248
 20
-10.660335
 30
0.0
 11
151.158075
 21
-12.250352
 31
0.0
  0
LINE
  5
521
100
AcDbEntity
  8
0
370
    -3
  6
DASHED
100
AcDbLine
 10
150.648248
 20
-13.840369
 30
0.0
 11
151.158075
 21
-12.250352
 31
0.0
  0
LINE
  5
522
100
AcDbEntity
  8
0
370
    -3
  6
DASHED
100
AcDbLine
 10
151.158075
 20
-12.250352
 30
0.0
 11
152.207263
 21
-14.250352
 31
0.0
  0
LINE
  5
523
100
AcDbEntity
  8
0
370
    -3
  6
DASHED
100
AcDbLine
 10
151.158075
 20
-12.250352
 30
0.0
 11
152.207263
 21
-10.250352
 31
0.0
  0
ELLIPSE
  5
524
100
AcDbEntity
  8
0
370
    -3
  6
DASHED
100
AcDbEllipse
 10
152.695529
 20
-12.250352
 30
0.0
 11
0.0
 21
3.5
 31
0.0
210
0.0
220
0.0
230
1.0
 40
0.656603
 41
0.0
 42
6.2831853071795862
  0
ARC
  5
525
100
AcDbEntity
  8
0
370
    -3
  6
DASHED
100
AcDbCircle
 10
145.516117
 20
-17.000352
 30
0.0
 40
3.8
100
AcDbArc
 50
23.227672
 51
90.0
  0
LINE
  5
526
100
AcDbEntity
  8
0
370
    -3
  6
DASHED
100
AcDbLine
 10
145.516117
 20
-13.200352
 30
0.0
 11
121.00548
 21
-13.200352
 31
0.0
  0
ARC
  5
527
100
AcDbEntity
  8
0
370
    -3
  6
DASHED
100
AcDbCircle
 10
149.462215
 20
-26.195022
 30
0.0
 40
3.8
100
AcDbArc
 50
0.0
 51
23.227672
  0
LINE
  5
528
100
AcDbEntity
  8
0
370
    -3
  6
DASHED
100
AcDbLine
 10
153.262215
 20
-26.195022
 30
0.0
 11
153.262215
 21
-77.305682
 31
0.0
  0
LINE
  5
529
100
AcDbEntity
  8
0
370
    -3
  6
DASHED
100
AcDbLine
 10
149.008107
 20
-15.501686
 30
0.0
 11
152.954206
 21
-24.696356
 31
0.0
  0
ARC
  5
52A
100
AcDbEntity
  8
0
370
    -3
  6
DASHED
100
AcDbCircle
 10
149.462215
 20
-77.305682
 30
0.0
 40
3.8
100
AcDbArc
 50
336.772328
 51
0.0
  0
LINE
  5
52B
100
AcDbEntity
  8
0
370
    -3
  6
DASHED
100
AcDbLine
 10
149.008107
 20
-87.999018
 30
0.0
 11
152.954206
 21
-78.804348
 31
0.0
  0
ARC
  5
52C
100
AcDbEntity
  8
0
370
    -3
  6
DASHED
100
AcDbCircle
 10
154.267484
 20
-12.750352
 30
0.0
 40
7.8
100
AcDbArc
 50
0.0
 51
90.0
  0
LINE
  5
52D
100
AcDbEntity
  8
0
370
    -3
  6
DASHED
100
AcDbLine
 10
120.151859
 20
-4.950352
 30
0.0
 11
154.267484
 21
-4.950352
 31
0.0
  0
LINE
  5
52E
100
AcDbEntity
  8
0
370
    -3
  6
DASHED
100
AcDbLine
 10
156.810898
 20
-90.750352
 30
0.0
 11
156.810898
 21
-12.750352
 31
0.0
  0
ARC
  5
52F
100
AcDbEntity
  8
0
370
    -3
  6
DASHED
100
AcDbCircle
 10
149.010898
 20
-12.750352
 30
0.0
 40
7.8
100
AcDbArc
 50
0.0
 51
90.0
  0
ARC
  5
530
100
AcDbEntity
  8
0
370
    -3
  6
DASHED
100
AcDbCircle
 10
121.00548
 20
-20.000352
 30
0.0
 40
6.8
100
AcDbArc
 50
90.0
 51
180.0
  0
LINE
  5
531
100
AcDbEntity
  8
0
370
    -3
  6
DASHED
100
AcDbLine
 10
114.20548
 20
-20.000352
 30
0.0
 11
114.20548
 21
-83.500352
 31
0.0
  0
ARC
  5
532
100
AcDbEntity
  8
0
370
    -3
  6
DASHED
100
AcDbCircle
 10
121.00548
 20
-83.500352
 30
0.0
 40
6.8
100
AcDbArc
 50
180.0
 51
270.0
  0
LINE
  5
533
100
AcDbEntity
  8
0
370
    -3
  6
DASHED
100
AcDbLine
 10
120.151859
 20
-98.550352
 30
0.0
 11
154.267484
 21
-98.550352
 31
0.0
  0
ARC
  5
534
100
AcDbEntity
  8
0
370
    -3
  6
DASHED
100
AcDbCircle
 10
120.151859
 20
-90.750352
 30
0.0
 40
7.8
100
AcDbArc
 50
208.12516
 51
270.0
  0
ELLIPSE
  5
535
100
AcDbEntity
  8
0
370
    -3
  6
DASHED
100
AcDbEllipse
 10
114.237267
 20
-91.250352
 30
0.0
 11
0.0
 21
3.5
 31
0.0
210
0.0
220
0.0
230
1.0
 40
0.656603
 41
0.0
 42
6.2831853071795862
  0
LINE
  5
536
100
AcDbEntity
  8
0
370
    -3
  6
DASHED
100
AcDbLine
 10
112.189987
 20
-92.840369
 30
0.0
 11
112.699813
 21
-91.250352
 31
0.0
  0
LINE
  5
537
100
AcDbEntity
  8
0
370
    -3
  6
DASHED
100
AcDbLine
 10
112.699813
 20
-91.250352
 30
0.0
 11
113.749002
 21
-93.250352
 31
0.0
  0
LINE
  5
538
100
AcDbEntity
  8
0
370
    -3
  6
DASHED
100
AcDbLine
 10
112.699813
 20
-91.250352
 30
0.0
 11
113.749002
 21
-89.250352
 31
0.0
  0
LINE
  5
539
100
AcDbEntity
  8
0
370
    -3
  6
DASHED
100
AcDbLine
 10
112.189987
 20
-89.660335
 30
0.0
 11
112.699813
 21
-91.250352
 31
0.0
  0
LINE
  5
53A
100
AcDbEntity
  8
0
370
    -3
  6
DASHED
100
AcDbLine
 10
150.648248
 20
-92.840369
 30
0.0
 11
151.158075
 21
-91.250352
 31
0.0
  0
LINE
  5
53B
100
AcDbEntity
  8
0
370
    -3
  6
DASHED
100
AcDbLine
 10
150.648248
 20
-89.660335
 30
0.0
 11
151.158075
 21
-91.250352
 31
0.0
  0
LINE
  5
53C
100
AcDbEntity
  8
0
370
    -3
  6
DASHED
100
AcDbLine
 10
151.158075
 20
-91.250352
 30
0.0
 11
152.207263
 21
-89.250352
 31
0.0
  0
LINE
  5
53D
100
AcDbEntity
  8
0
370
    -3
  6
DASHED
100
AcDbLine
 10
151.158075
 20
-91.250352
 30
0.0
 11
152.207263
 21
-93.250352
 31
0.0
  0
ELLIPSE
  5
53E
100
AcDbEntity
  8
0
370
    -3
  6
DASHED
100
AcDbEllipse
 10
152.695529
 20
-91.250352
 30
0.0
 11
0.0
 21
3.5
 31
0.0
210
0.0
220
0.0
230
1.0
 40
0.656603
 41
0.0
 42
6.2831853071795862
  0
ARC
  5
53F
100
AcDbEntity
  8
0
370
    -3
  6
DASHED
100
AcDbCircle
 10
145.516117
 20
-86.500352
 30
0.0
 40
3.8
100
AcDbArc
 50
270.0
 51
336.772328
  0
LINE
  5
540
100
AcDbEntity
  8
0
370
    -3
  6
DASHED
100
AcDbLine
 10
145.516117
 20
-90.300352
 30
0.0
 11
121.00548
 21
-90.300352
 31
0.0
  0
ARC
  5
541
100
AcDbEntity
  8
0
370
    -3
  6
DASHED
100
AcDbCircle
 10
154.267484
 20
-90.750352
 30
0.0
 40
7.8
100
AcDbArc
 50
270.0
 51
0.0
  0
ARC
  5
542
100
AcDbEntity
  8
0
370
    -3
  6
DASHED
100
AcDbCircle
 10
149.010898
 20
-90.750352
 30
0.0
 40
7.8
100
AcDbArc
 50
270.0
 51
0.0
  0
CIRCLE
  5
543
100
AcDbEntity
  8
0
370
    -3
  6
DASHED
100
AcDbCircle
 10
137.823007
 20
-51.750352
 30
0.0
 40
17.0
  0
LINE
  5
544
100
AcDbEntity
  8
0
370
    -3
  6
CENTER
100
AcDbLine
 10
116.52255
 20
-51.750352
 30
0.0
 11
159.123464
 21
-51.750352
 31
0.0
  0
LINE
  5
545
100
AcDbEntity
  8
0
370
    -3
  6
Continuous
100
AcDbLine
 10
-400.009258
 20
-51.750352
 30
0.0
 11
-400.009258
 21
-27.18589
 31
0.0
  0
LINE
  5
546
100
AcDbEntity
  8
0
370
    -3
  6
Continuous
100
AcDbLine
 10
-390.083365
 20
-14.487843
 30
0.0
 11
-399.0601
 21
-24.673381
 31
0.0
  0
ARC
  5
547
100
AcDbEntity
  8
0
370
    -3
  6
Continuous
100
AcDbCircle
 10
-396.209258
 20
-27.18589
 30
0.0
 40
3.8
100
AcDbArc
 50
138.609573
 51
180.0
  0
POINT
  5
548
100
AcDbEntity
  8
0
370
    -3
  6
CENTER
100
AcDbPoint
 10
-430.676999
 20
-38.529852
 30
0.0
  0
LINE
  5
549
100
AcDbEntity
  8
0
370
    -3
  6
Continuous
100
AcDbLine
 10
-430.676999
 20
-51.750352
 30
0.0
 11
-430.676999
 21
-36.750352
 31
0.0
  0
ARC
  5
54A
100
AcDbEntity
  8
0
370
    -3
  6
Continuous
100
AcDbCircle
 10
-428.676999
 20
-36.750352
 30
0.0
 40
2.0
100
AcDbArc
 50
90.0
 51
180.0
  0
LINE
  5
54B
100
AcDbEntity
  8
0
370
    -3
  6
Continuous
100
AcDbLine
 10
-428.676999
 20
-34.750352
 30
0.0
 11
-410.251059
 21
-34.750352
 31
0.0
  0
LINE
  5
54C
100
AcDbEntity
  8
0
370
    -3
  6
Continuous
100
AcDbLine
 10
-407.799873
 20
-51.750352
 30
0.0
 11
-407.799873
 21
-12.750352
 31
0.0
  0
LINE
  5
54D
100
AcDbEntity
  8
0
370
    -3
  6
Continuous
100
AcDbLine
 10
-410.251059
 20
-51.750352
 30
0.0
 11
-410.251059
 21
-12.750352
 31
0.0
  0
POINT
  5
54E
100
AcDbEntity
  8
0
370
    -3
  6
CENTER
100
AcDbPoint
 10
-430.676999
 20
-64.970852
 30
0.0
  0
LINE
  5
54F
100
AcDbEntity
  8
0
370
    -3
  6
Continuous
100
AcDbLine
 10
-430.676999
 20
-51.750352
 30
0.0
 11
-430.676999
 21
-66.750352
 31
0.0
  0
ARC
  5
550
100
AcDbEntity
  8
0
370
    -3
  6
Continuous
100
AcDbCircle
 10
-428.676999
 20
-66.750352
 30
0.0
 40
2.0
100
AcDbArc
 50
180.0
 51
270.0
  0
LINE
  5
551
100
AcDbEntity
  8
0
370
    -3
  6
Continuous
100
AcDbLine
 10
-428.676999
 20
-68.750352
 30
0.0
 11
-410.251059
 21
-68.750352
 31
0.0
  0
LINE
  5
552
100
AcDbEntity
  8
0
370
    -3
  6
Continuous
100
AcDbLine
 10
-400.009258
 20
-51.750352
 30
0.0
 11
-400.009258
 21
-76.314814
 31
0.0
  0
LINE
  5
553
100
AcDbEntity
  8
0
370
    -3
  6
Continuous
100
AcDbLine
 10
-407.799873
 20
-51.750352
 30
0.0
 11
-407.799873
 21
-90.750352
 31
0.0
  0
LINE
  5
554
100
AcDbEntity
  8
0
370
    -3
  6
Continuous
100
AcDbLine
 10
-410.251059
 20
-51.750352
 30
0.0
 11
-410.251059
 21
-90.750352
 31
0.0
  0
LINE
  5
555
100
AcDbEntity
  8
0
370
    -3
  6
Continuous
100
AcDbLine
 10
-398.176999
 20
-93.194526
 30
0.0
 11
-397.676999
 21
-93.194526
 31
0.0
  0
LINE
  5
556
100
AcDbEntity
  8
0
370
    -3
  6
Continuous
100
AcDbLine
 10
-387.232523
 20
-90.300352
 30
0.0
 11
-331.736467
 21
-90.300352
 31
0.0
  0
LINE
  5
557
100
AcDbEntity
  8
0
370
    -3
  6
Continuous
100
AcDbLine
 10
-399.631865
 20
-91.250352
 30
0.0
 11
-401.539585
 21
-89.250352
 31
0.0
  0
LINE
  5
558
100
AcDbEntity
  8
0
370
    -3
  6
Continuous
100
AcDbLine
 10
-397.914353
 20
-93.250352
 30
0.0
 11
-399.631865
 21
-91.250352
 31
0.0
  0
LINE
  5
559
100
AcDbEntity
  8
0
370
    -3
  6
Continuous
100
AcDbLine
 10
-399.631865
 20
-91.250352
 30
0.0
 11
-397.914353
 21
-89.250352
 31
0.0
  0
LINE
  5
55A
100
AcDbEntity
  8
0
370
    -3
  6
Continuous
100
AcDbLine
 10
-401.539585
 20
-93.250352
 30
0.0
 11
-399.631865
 21
-91.250352
 31
0.0
  0
ELLIPSE
  5
55B
100
AcDbEntity
  8
0
370
    -3
  6
Continuous
100
AcDbEllipse
 10
-400.462896
 20
-91.250352
 30
0.0
 11
0.0000000000002274
 21
3.5
 31
0.0
210
0.0
220
0.0
230
1.0
 40
0.982815
 41
0.0
 42
6.2831853071795862
  0
ARC
  5
55C
100
AcDbEntity
  8
0
370
    -3
  6
Continuous
100
AcDbCircle
 10
-396.209258
 20
-76.314814
 30
0.0
 40
3.8
100
AcDbArc
 50
180.0
 51
221.390427
  0
LINE
  5
55D
100
AcDbEntity
  8
0
370
    -3
  6
Continuous
100
AcDbLine
 10
-390.083365
 20
-89.012861
 30
0.0
 11
-399.0601
 21
-78.827323
 31
0.0
  0
ARC
  5
55E
100
AcDbEntity
  8
0
370
    -3
  6
Continuous
100
AcDbCircle
 10
-387.232523
 20
-86.500352
 30
0.0
 40
3.8
100
AcDbArc
 50
221.390427
 51
270.0
  0
ARC
  5
55F
100
AcDbEntity
  8
0
370
    -3
  6
Continuous
100
AcDbCircle
 10
-399.999873
 20
-90.750352
 30
0.0
 40
7.8
100
AcDbArc
 50
180.0
 51
270.0
  0
ARC
  5
560
100
AcDbEntity
  8
0
370
    -3
  6
Continuous
100
AcDbCircle
 10
-402.451059
 20
-90.750352
 30
0.0
 40
7.8
100
AcDbArc
 50
180.0
 51
270.0
  0
LINE
  5
561
100
AcDbEntity
  8
0
370
    -3
  6
Continuous
100
AcDbLine
 10
-317.157856
 20
-91.250352
 30
0.0
 11
-319.065576
 21
-89.250352
 31
0.0
  0
LINE
  5
562
100
AcDbEntity
  8
0
370
    -3
  6
Continuous
100
AcDbLine
 10
-315.440345
 20
-93.250352
 30
0.0
 11
-317.157856
 21
-91.250352
 31
0.0
  0
LINE
  5
563
100
AcDbEntity
  8
0
370
    -3
  6
Continuous
100
AcDbLine
 10
-317.157856
 20
-91.250352
 30
0.0
 11
-315.440345
 21
-89.250352
 31
0.0
  0
LINE
  5
564
100
AcDbEntity
  8
0
370
    -3
  6
Continuous
100
AcDbLine
 10
-319.065576
 20
-93.250352
 30
0.0
 11
-317.157856
 21
-91.250352
 31
0.0
  0
ELLIPSE
  5
565
100
AcDbEntity
  8
0
370
    -3
  6
Continuous
100
AcDbEllipse
 10
-317.988887
 20
-91.250352
 30
0.0
 11
0.0000000000002274
 21
3.5
 31
0.0
210
0.0
220
0.0
230
1.0
 40
0.982815
 41
0.0
 42
6.2831853071795862
  0
LINE
  5
566
100
AcDbEntity
  8
0
370
    -3
  6
Continuous
100
AcDbLine
 10
-329.251046
 20
-51.750352
 30
0.0
 11
-329.251046
 21
-80.300352
 31
0.0
  0
ARC
  5
567
100
AcDbEntity
  8
0
370
    -3
  6
Continuous
100
AcDbCircle
 10
-339.251046
 20
-80.300352
 30
0.0
 40
10.0
100
AcDbArc
 50
270.0
 51
360.0
  0
LINE
  5
568
100
AcDbEntity
  8
0
370
    -3
  6
Continuous
100
AcDbLine
 10
-318.79764
 20
-51.750352
 30
0.0
 11
-318.79764
 21
-76.297343
 31
0.0
  0
ARC
  5
569
100
AcDbEntity
  8
0
370
    -3
  6
Continuous
100
AcDbCircle
 10
-322.59764
 20
-76.297343
 30
0.0
 40
3.8
100
AcDbArc
 50
318.14922
 51
360.0
  0
LINE
  5
56A
100
AcDbEntity
  8
0
370
    -3
  6
Continuous
100
AcDbLine
 10
-328.905904
 20
-89.035685
 30
0.0
 11
-319.767077
 21
-78.832676
 31
0.0
  0
ARC
  5
56B
100
AcDbEntity
  8
0
370
    -3
  6
Continuous
100
AcDbCircle
 10
-331.736467
 20
-86.500352
 30
0.0
 40
3.8
100
AcDbArc
 50
270.0
 51
318.14922
  0
ARC
  5
56C
100
AcDbEntity
  8
0
370
    -3
  6
Continuous
100
AcDbCircle
 10
-319.57953
 20
-90.750352
 30
0.0
 40
7.8
100
AcDbArc
 50
270.0
 51
360.0
  0
LINE
  5
56D
100
AcDbEntity
  8
0
370
    -3
  6
Continuous
100
AcDbLine
 10
-319.57953
 20
-98.550352
 30
0.0
 11
-402.451059
 21
-98.550352
 31
0.0
  0
LINE
  5
56E
100
AcDbEntity
  8
0
370
    -3
  6
Continuous
100
AcDbLine
 10
-311.77953
 20
-51.750352
 30
0.0
 11
-311.77953
 21
-90.750352
 31
0.0
  0
LINE
  5
56F
100
AcDbEntity
  8
0
370
    -3
  6
Continuous
100
AcDbLine
 10
-329.251046
 20
-51.750352
 30
0.0
 11
-329.251046
 21
-23.200352
 31
0.0
  0
LINE
  5
570
100
AcDbEntity
  8
0
370
    -3
  6
Continuous
100
AcDbLine
 10
-318.79764
 20
-51.750352
 30
0.0
 11
-318.79764
 21
-27.203361
 31
0.0
  0
LINE
  5
571
100
AcDbEntity
  8
0
370
    -3
  6
Continuous
100
AcDbLine
 10
-311.77953
 20
-51.750352
 30
0.0
 11
-311.77953
 21
-12.750352
 31
0.0
  0
LINE
  5
572
100
AcDbEntity
  8
0
370
    -3
  6
Continuous
100
AcDbLine
 10
-317.157856
 20
-12.250352
 30
0.0
 11
-319.065576
 21
-14.250352
 31
0.0
  0
LINE
  5
573
100
AcDbEntity
  8
0
370
    -3
  6
Continuous
100
AcDbLine
 10
-315.440345
 20
-10.250352
 30
0.0
 11
-317.157856
 21
-12.250352
 31
0.0
  0
LINE
  5
574
100
AcDbEntity
  8
0
370
    -3
  6
Continuous
100
AcDbLine
 10
-317.157856
 20
-12.250352
 30
0.0
 11
-315.440345
 21
-14.250352
 31
0.0
  0
LINE
  5
575
100
AcDbEntity
  8
0
370
    -3
  6
Continuous
100
AcDbLine
 10
-319.065576
 20
-10.250352
 30
0.0
 11
-317.157856
 21
-12.250352
 31
0.0
  0
ELLIPSE
  5
576
100
AcDbEntity
  8
0
370
    -3
  6
Continuous
100
AcDbEllipse
 10
-317.988887
 20
-12.250352
 30
0.0
 11
0.0
 21
3.5
 31
0.0
210
0.0
220
0.0
230
1.0
 40
0.982815
 41
0.0
 42
6.2831853071795862
  0
ARC
  5
577
100
AcDbEntity
  8
0
370
    -3
  6
Continuous
100
AcDbCircle
 10
-339.251046
 20
-23.200352
 30
0.0
 40
10.0
100
AcDbArc
 50
0.0
 51
90.0
  0
LINE
  5
578
100
AcDbEntity
  8
0
370
    -3
  6
Continuous
100
AcDbLine
 10
-387.232523
 20
-13.200352
 30
0.0
 11
-331.736467
 21
-13.200352
 31
0.0
  0
ARC
  5
579
100
AcDbEntity
  8
0
370
    -3
  6
Continuous
100
AcDbCircle
 10
-322.59764
 20
-27.203361
 30
0.0
 40
3.8
100
AcDbArc
 50
0.0
 51
41.85078
  0
LINE
  5
57A
100
AcDbEntity
  8
0
370
    -3
  6
Continuous
100
AcDbLine
 10
-328.905904
 20
-14.465019
 30
0.0
 11
-319.767077
 21
-24.668028
 31
0.0
  0
ARC
  5
57B
100
AcDbEntity
  8
0
370
    -3
  6
Continuous
100
AcDbCircle
 10
-331.736467
 20
-17.000352
 30
0.0
 40
3.8
100
AcDbArc
 50
41.85078
 51
90.0
  0
LINE
  5
57C
100
AcDbEntity
  8
0
370
    -3
  6
Continuous
100
AcDbLine
 10
-319.57953
 20
-4.950352
 30
0.0
 11
-402.451059
 21
-4.950352
 31
0.0
  0
ARC
  5
57D
100
AcDbEntity
  8
0
370
    -3
  6
Continuous
100
AcDbCircle
 10
-319.57953
 20
-12.750352
 30
0.0
 40
7.8
100
AcDbArc
 50
0.0
 51
90.0
  0
LINE
  5
57E
100
AcDbEntity
  8
0
370
    -3
  6
Continuous
100
AcDbLine
 10
-399.631865
 20
-12.250352
 30
0.0
 11
-401.539585
 21
-14.250352
 31
0.0
  0
LINE
  5
57F
100
AcDbEntity
  8
0
370
    -3
  6
Continuous
100
AcDbLine
 10
-397.914353
 20
-10.250352
 30
0.0
 11
-399.631865
 21
-12.250352
 31
0.0
  0
LINE
  5
580
100
AcDbEntity
  8
0
370
    -3
  6
Continuous
100
AcDbLine
 10
-399.631865
 20
-12.250352
 30
0.0
 11
-397.914353
 21
-14.250352
 31
0.0
  0
LINE
  5
581
100
AcDbEntity
  8
0
370
    -3
  6
Continuous
100
AcDbLine
 10
-401.539585
 20
-10.250352
 30
0.0
 11
-399.631865
 21
-12.250352
 31
0.0
  0
ELLIPSE
  5
582
100
AcDbEntity
  8
0
370
    -3
  6
Continuous
100
AcDbEllipse
 10
-400.462896
 20
-12.250352
 30
0.0
 11
0.0
 21
3.5
 31
0.0
210
0.0
220
0.0
230
1.0
 40
0.982815
 41
0.0
 42
6.2831853071795862
  0
ARC
  5
583
100
AcDbEntity
  8
0
370
    -3
  6
Continuous
100
AcDbCircle
 10
-387.232523
 20
-17.000352
 30
0.0
 40
3.8
100
AcDbArc
 50
90.0
 51
138.609573
  0
ARC
  5
584
100
AcDbEntity
  8
0
370
    -3
  6
Continuous
100
AcDbCircle
 10
-399.999873
 20
-12.750352
 30
0.0
 40
7.8
100
AcDbArc
 50
90.0
 51
180.0
  0
ARC
  5
585
100
AcDbEntity
  8
0
370
    -3
  6
Continuous
100
AcDbCircle
 10
-402.451059
 20
-12.750352
 30
0.0
 40
7.8
100
AcDbArc
 50
90.0
 51
180.0
  0
LINE
  5
586
100
AcDbEntity
  8
0
370
    -3
  6
Continuous
100
AcDbLine
 10
-430.676999
 20
234.45714
 30
0.0
 11
-430.676999
 21
219.45714
 31
0.0
  0
LINE
  5
587
100
AcDbEntity
  8
0
370
    -3
  6
Continuous
100
AcDbLine
 10
-430.676999
 20
234.45714
 30
0.0
 11
-430.676999
 21
249.45714
 31
0.0
  0
ARC
  5
588
100
AcDbEntity
  8
0
370
    -3
  6
Continuous
100
AcDbCircle
 10
-327.412088
 20
259.75714
 30
0.0
 40
0.3
100
AcDbArc
 50
193.342364
 51
270.0
  0
LINE
  5
589
100
AcDbEntity
  8
0
370
    -3
  6
Continuous
100
AcDbLine
 10
-374.694155
 20
267.45714
 30
0.0
 11
-383.351652
 21
267.45714
 31
0.0
  0
ARC
  5
58A
100
AcDbEntity
  8
0
370
    -3
  6
Continuous
100
AcDbCircle
 10
-385.94191
 20
259.75714
 30
0.0
 40
0.3
100
AcDbArc
 50
270.0
 51
346.657636
  0
LINE
  5
58B
100
AcDbEntity
  8
0
370
    -3
  6
Continuous
100
AcDbLine
 10
-387.676999
 20
261.45714
 30
0.0
 11
-325.676999
 21
261.45714
 31
0.0
  0
LINE
  5
58C
100
AcDbEntity
  8
0
370
    -3
  6
Continuous
100
AcDbLine
 10
-356.676999
 20
261.45714
 30
0.0
 11
-387.676999
 21
261.45714
 31
0.0
  0
LINE
  5
58D
100
AcDbEntity
  8
0
370
    -3
  6
Continuous
100
AcDbLine
 10
-356.676999
 20
261.45714
 30
0.0
 11
-325.676999
 21
261.45714
 31
0.0
  0
ARC
  5
58E
100
AcDbEntity
  8
0
370
    -3
  6
Continuous
100
AcDbCircle
 10
-428.676999
 20
219.45714
 30
0.0
 40
2.0
100
AcDbArc
 50
180.0
 51
270.0
  0
LINE
  5
58F
100
AcDbEntity
  8
0
370
    -3
  6
Continuous
100
AcDbLine
 10
-428.676999
 20
217.45714
 30
0.0
 11
-402.087715
 21
217.45714
 31
0.0
  0
ARC
  5
590
100
AcDbEntity
  8
0
370
    -3
  6
Continuous
100
AcDbCircle
 10
-428.676999
 20
249.45714
 30
0.0
 40
2.0
100
AcDbArc
 50
90.0
 51
180.0
  0
LINE
  5
591
100
AcDbEntity
  8
0
370
    -3
  6
Continuous
100
AcDbLine
 10
-428.676999
 20
251.45714
 30
0.0
 11
-401.676999
 21
251.45714
 31
0.0
  0
LINE
  5
592
100
AcDbEntity
  8
0
370
    -3
  6
Continuous
100
AcDbLine
 10
-403.676999
 20
234.45714
 30
0.0
 11
-403.676999
 21
251.45714
 31
0.0
  0
LINE
  5
593
100
AcDbEntity
  8
0
370
    -3
  6
Continuous
100
AcDbLine
 10
-403.676999
 20
234.45714
 30
0.0
 11
-403.676999
 21
217.45714
 31
0.0
  0
POINT
  5
594
100
AcDbEntity
  8
0
370
    -3
  6
CENTER
100
AcDbPoint
 10
-430.176999
 20
221.23664
 30
0.0
  0
POINT
  5
595
100
AcDbEntity
  8
0
370
    -3
  6
CENTER
100
AcDbPoint
 10
-430.176999
 20
247.67764
 30
0.0
  0
LINE
  5
596
100
AcDbEntity
  8
0
370
    -3
  6
Continuous
100
AcDbLine
 10
-385.15797
 20
266.843332
 30
0.0
 11
-385.15797
 21
265.95714
 31
0.0
  0
ARC
  5
597
100
AcDbEntity
  8
0
370
    -3
  6
Continuous
100
AcDbCircle
 10
-385.65797
 20
265.95714
 30
0.0
 40
0.5
100
AcDbArc
 50
270.0
 51
0.0
  0
ARC
  5
598
100
AcDbEntity
  8
0
370
    -3
  6
Continuous
100
AcDbCircle
 10
-374.65797
 20
265.95714
 30
0.0
 40
0.5
100
AcDbArc
 50
180.0
 51
270.0
  0
LINE
  5
599
100
AcDbEntity
  8
0
370
    -3
  6
Continuous
100
AcDbLine
 10
-375.15797
 20
266.95714
 30
0.0
 11
-375.15797
 21
265.95714
 31
0.0
  0
LINE
  5
59A
100
AcDbEntity
  8
0
370
    -3
  6
Continuous
100
AcDbLine
 10
-375.65797
 20
267.45714
 30
0.0
 11
-383.858733
 21
267.45714
 31
0.0
  0
ARC
  5
59B
100
AcDbEntity
  8
0
370
    -3
  6
Continuous
100
AcDbCircle
 10
-375.65797
 20
266.95714
 30
0.0
 40
0.5
100
AcDbArc
 50
0.0
 51
90.0
  0
ARC
  5
59C
100
AcDbEntity
  8
0
370
    -3
  6
Continuous
100
AcDbCircle
 10
-339.696029
 20
265.95714
 30
0.0
 40
0.5
100
AcDbArc
 50
270.0
 51
0.0
  0
LINE
  5
59D
100
AcDbEntity
  8
0
370
    -3
  6
Continuous
100
AcDbLine
 10
-339.196029
 20
266.95714
 30
0.0
 11
-339.196029
 21
265.95714
 31
0.0
  0
ARC
  5
59E
100
AcDbEntity
  8
0
370
    -3
  6
Continuous
100
AcDbCircle
 10
-338.696029
 20
266.95714
 30
0.0
 40
0.5
100
AcDbArc
 50
90.0
 51
180.0
  0
ARC
  5
59F
100
AcDbEntity
  8
0
370
    -3
  6
Continuous
100
AcDbCircle
 10
-328.696029
 20
265.95714
 30
0.0
 40
0.5
100
AcDbArc
 50
180.0
 51
270.0
  0
LINE
  5
5A0
100
AcDbEntity
  8
0
370
    -3
  6
Continuous
100
AcDbLine
 10
-329.196029
 20
266.95714
 30
0.0
 11
-329.196029
 21
265.95714
 31
0.0
  0
ARC
  5
5A1
100
AcDbEntity
  8
0
370
    -3
  6
Continuous
100
AcDbCircle
 10
-329.696029
 20
266.95714
 30
0.0
 40
0.5
100
AcDbArc
 50
0.0
 51
90.0
  0
LINE
  5
5A2
100
AcDbEntity
  8
0
370
    -3
  6
Continuous
100
AcDbLine
 10
-338.659844
 20
267.45714
 30
0.0
 11
-329.696029
 21
267.45714
 31
0.0
  0
ARC
  5
5A3
100
AcDbEntity
  8
0
370
    -3
  6
Continuous
100
AcDbCircle
 10
-338.63742
 20
267.95714
 30
0.0
 40
0.5
100
AcDbArc
 50
270.0
 51
352.874984
  0
LINE
  5
5A4
100
AcDbEntity
  8
0
370
    -3
  6
Continuous
100
AcDbLine
 10
-337.750777
 20
271.019158
 30
0.0
 11
-338.141281
 21
267.895123
 31
0.0
  0
ARC
  5
5A5
100
AcDbEntity
  8
0
370
    -3
  6
Continuous
100
AcDbCircle
 10
-329.754638
 20
267.95714
 30
0.0
 40
0.5
100
AcDbArc
 50
187.125016
 51
270.0
  0
LINE
  5
5A6
100
AcDbEntity
  8
0
370
    -3
  6
Continuous
100
AcDbLine
 10
-330.641281
 20
271.019158
 30
0.0
 11
-330.250777
 21
267.895123
 31
0.0
  0
ARC
  5
5A7
100
AcDbEntity
  8
0
370
    -3
  6
Continuous
100
AcDbCircle
 10
-331.13742
 20
270.95714
 30
0.0
 40
0.5
100
AcDbArc
 50
7.125016
 51
90.0
  0
ARC
  5
5A8
100
AcDbEntity
  8
0
370
    -3
  6
Continuous
100
AcDbCircle
 10
-337.254638
 20
270.95714
 30
0.0
 40
0.5
100
AcDbArc
 50
90.0
 51
172.874984
  0
LINE
  5
5A9
100
AcDbEntity
  8
0
370
    -3
  6
Continuous
100
AcDbLine
 10
-331.13742
 20
271.45714
 30
0.0
 11
-337.248507
 21
271.45714
 31
0.0
  0
ARC
  5
5AA
100
AcDbEntity
  8
0
370
    -3
  6
Continuous
100
AcDbCircle
 10
-375.716579
 20
267.95714
 30
0.0
 40
0.5
100
AcDbArc
 50
187.125016
 51
270.0
  0
LINE
  5
5AB
100
AcDbEntity
  8
0
370
    -3
  6
Continuous
100
AcDbLine
 10
-376.603222
 20
271.019158
 30
0.0
 11
-376.212717
 21
267.895123
 31
0.0
  0
ARC
  5
5AC
100
AcDbEntity
  8
0
370
    -3
  6
Continuous
100
AcDbCircle
 10
-377.099361
 20
270.95714
 30
0.0
 40
0.5
100
AcDbArc
 50
7.125016
 51
90.0
  0
LINE
  5
5AD
100
AcDbEntity
  8
0
370
    -3
  6
Continuous
100
AcDbLine
 10
-382.676999
 20
271.45714
 30
0.0
 11
-377.105491
 21
271.45714
 31
0.0
  0
LINE
  5
5AE
100
AcDbEntity
  8
0
370
    -3
  6
Continuous
100
AcDbLine
 10
-337.624313
 20
265.45714
 30
0.0
 11
-376.729685
 21
265.45714
 31
0.0
  0
LINE
  5
5AF
100
AcDbEntity
  8
0
370
    -3
  6
Continuous
100
AcDbLine
 10
-324.572256
 20
265.45714
 30
0.0
 11
-324.651499
 21
262.430963
 31
0.0
  0
LINE
  5
5B0
100
AcDbEntity
  8
0
370
    -3
  6
Continuous
100
AcDbLine
 10
-389.781743
 20
265.45714
 30
0.0
 11
-389.7025
 21
262.430963
 31
0.0
  0
ARC
  5
5B1
100
AcDbEntity
  8
0
370
    -3
  6
Continuous
100
AcDbCircle
 10
-388.702842
 20
262.45714
 30
0.0
 40
1.0
100
AcDbArc
 50
181.5
 51
270.0
  0
ARC
  5
5B2
100
AcDbEntity
  8
0
370
    -3
  6
Continuous
100
AcDbCircle
 10
-325.651156
 20
262.45714
 30
0.0
 40
1.0
100
AcDbArc
 50
270.0
 51
358.5
  0
LINE
  5
5B3
100
AcDbEntity
  8
0
370
    -3
  6
CENTER
100
AcDbLine
 10
-380.15797
 20
274.345999
 30
0.0
 11
-380.15797
 21
259.432501
 31
0.0
  0
LINE
  5
5B4
100
AcDbEntity
  8
0
370
    -3
  6
Continuous
100
AcDbLine
 10
-388.702842
 20
261.45714
 30
0.0
 11
-325.651156
 21
261.45714
 31
0.0
  0
LINE
  5
5B5
100
AcDbEntity
  8
0
370
    -3
  6
Continuous
100
AcDbLine
 10
-337.624313
 20
265.45714
 30
0.0
 11
-324.572256
 21
265.45714
 31
0.0
  0
LINE
  5
5B6
100
AcDbEntity
  8
0
370
    -3
  6
Continuous
100
AcDbLine
 10
-376.729685
 20
265.45714
 30
0.0
 11
-389.781743
 21
265.45714
 31
0.0
  0
LINE
  5
5B7
100
AcDbEntity
  8
0
370
    -3
  6
CENTER
100
AcDbLine
 10
-334.196029
 20
274.767027
 30
0.0
 11
-334.196029
 21
259.432501
 31
0.0
  0
LINE
  5
5B8
100
AcDbEntity
  8
0
370
    -3
  6
Continuous
100
AcDbLine
 10
-383.858733
 20
267.45714
 30
0.0
 11
-320.426999
 21
267.45714
 31
0.0
  0
LINE
  5
5B9
100
AcDbEntity
  8
0
370
    -3
  6
Continuous
100
AcDbLine
 10
-320.426999
 20
268.962553
 30
0.0
 11
-320.426999
 21
267.45714
 31
0.0
  0
LINE
  5
5BA
100
AcDbEntity
  8
0
370
    -3
  6
CENTER
100
AcDbLine
 10
-356.676999
 20
272.234557
 30
0.0
 11
-356.676999
 21
249.324581
 31
0.0
  0
ARC
  5
5BB
100
AcDbEntity
  8
0
370
    -3
  6
Continuous
100
AcDbCircle
 10
-387.001306
 20
256.45714
 30
0.0
 40
3.0
100
AcDbArc
 50
90.0
 51
180.0
  0
LINE
  5
5BC
100
AcDbEntity
  8
0
370
    -3
  6
Continuous
100
AcDbLine
 10
-390.001306
 20
223.093125
 30
0.0
 11
-390.001306
 21
256.45714
 31
0.0
  0
ARC
  5
5BD
100
AcDbEntity
  8
0
370
    -3
  6
Continuous
100
AcDbCircle
 10
-384.676999
 20
259.45714
 30
0.0
 40
1.0
100
AcDbArc
 50
90.0
 51
166.657636
  0
LINE
  5
5BE
100
AcDbEntity
  8
0
370
    -3
  6
Continuous
100
AcDbLine
 10
-394.876999
 20
259.45714
 30
0.0
 11
-325.238846
 21
259.45714
 31
0.0
  0
ARC
  5
5BF
100
AcDbEntity
  8
0
370
    -3
  6
Continuous
100
AcDbCircle
 10
-328.676999
 20
259.45714
 30
0.0
 40
1.0
100
AcDbArc
 50
13.342364
 51
90.0
  0
LINE
  5
5C0
100
AcDbEntity
  8
0
370
    -3
  6
Continuous
100
AcDbLine
 10
-320.889111
 20
255.320671
 30
0.0
 11
-321.794876
 21
257.26309
 31
0.0
  0
LINE
  5
5C1
100
AcDbEntity
  8
0
370
    -3
  6
Continuous
100
AcDbLine
 10
-401.676999
 20
217.64866
 30
0.0
 11
-401.676999
 21
252.65714
 31
0.0
  0
LINE
  5
5C2
100
AcDbEntity
  8
0
370
    -3
  6
Continuous
100
AcDbLine
 10
-402.087715
 20
217.45714
 30
0.0
 11
-410.251059
 21
213.65051
 31
0.0
  0
LINE
  5
5C3
100
AcDbEntity
  8
0
370
    -3
  6
Continuous
100
AcDbLine
 10
-313.638649
 20
258.701617
 30
0.0
 11
-402.087715
 21
217.45714
 31
0.0
  0
LINE
  5
5C4
100
AcDbEntity
  8
0
370
    -3
  6
Continuous
100
AcDbLine
 10
-332.489851
 20
249.911157
 30
0.0
 11
-335.918113
 21
257.26309
 31
0.0
  0
ARC
  5
5C5
100
AcDbEntity
  8
0
370
    -3
  6
Continuous
100
AcDbCircle
 10
-339.362083
 20
255.65714
 30
0.0
 40
3.8
100
AcDbArc
 50
25.0
 51
90.0
  0
ARC
  5
5C6
100
AcDbEntity
  8
0
370
    -3
  6
Continuous
100
AcDbCircle
 10
-613.502639
 20
310.142537
 30
0.0
 40
300.8
100
AcDbArc
 50
342.341575
 51
347.89975
  0
ARC
  5
5C7
100
AcDbEntity
  8
0
370
    -3
  6
Continuous
100
AcDbCircle
 10
-362.259397
 20
811.639614
 30
0.0
 40
600.8
100
AcDbArc
 50
266.682408
 51
272.437505
  0
ARC
  5
5C8
100
AcDbEntity
  8
0
370
    -3
  6
Continuous
100
AcDbCircle
 10
-326.277182
 20
230.735126
 30
0.0
 40
2.8
100
AcDbArc
 50
344.545811
 51
25.0
  0
ARC
  5
5C9
100
AcDbEntity
  8
0
370
    -3
  6
Continuous
100
AcDbCircle
 10
-390.695603
 20
213.059644
 30
0.0
 40
3.0
100
AcDbArc
 50
25.0
 51
115.0
  0
LINE
  5
5CA
100
AcDbEntity
  8
0
370
    -3
  6
Continuous
100
AcDbLine
 10
-387.976679
 20
214.327498
 30
0.0
 11
-387.301649
 21
212.879891
 31
0.0
  0
ARC
  5
5CB
100
AcDbEntity
  8
0
370
    -3
  6
Continuous
100
AcDbCircle
 10
-384.763987
 20
214.063222
 30
0.0
 40
2.8
100
AcDbArc
 50
205.0
 51
267.843273
  0
LINE
  5
5CC
100
AcDbEntity
  8
0
370
    -3
  6
Continuous
100
AcDbLine
 10
-323.739521
 20
231.918457
 30
0.0
 11
-328.474947
 21
242.073612
 31
0.0
  0
ARC
  5
5CD
100
AcDbEntity
  8
0
370
    -3
  6
Continuous
100
AcDbCircle
 10
-325.756024
 20
243.341467
 30
0.0
 40
3.0
100
AcDbArc
 50
115.0
 51
205.0
  0
LINE
  5
5CE
100
AcDbEntity
  8
0
370
    -3
  6
Continuous
100
AcDbLine
 10
-312.818817
 20
252.684319
 30
0.0
 11
-406.168519
 21
209.154638
 31
0.0
  0
LINE
  5
5CF
100
AcDbEntity
  8
0
370
    -3
  6
CENTER
100
AcDbLine
 10
-433.155623
 20
234.45714
 30
0.0
 11
-392.849136
 21
234.45714
 31
0.0
  0
LINE
  5
5D0
100
AcDbEntity
  8
0
370
    -3
  6
Continuous
100
AcDbLine
 10
-387.676999
 20
260.45714
 30
0.0
 11
-325.676999
 21
260.45714
 31
0.0
  0
LINE
  5
5D1
100
AcDbEntity
  8
0
370
    -3
  6
Continuous
100
AcDbLine
 10
-387.676999
 20
261.45714
 30
0.0
 11
-387.676999
 21
260.45714
 31
0.0
  0
LINE
  5
5D2
100
AcDbEntity
  8
0
370
    -3
  6
Continuous
100
AcDbLine
 10
-325.676999
 20
261.45714
 30
0.0
 11
-325.676999
 21
260.45714
 31
0.0
  0
ARC
  5
5D3
100
AcDbEntity
  8
0
370
    -3
  6
Continuous
100
AcDbCircle
 10
-319.836788
 20
248.331551
 30
0.0
 40
1.299999
100
AcDbArc
 50
204.999999
 51
278.398469
  0
LINE
  5
5D4
100
AcDbEntity
  8
0
370
    -3
  6
Continuous
100
AcDbLine
 10
-321.428741
 20
248.669445
 30
0.0
 11
-321.014987
 21
247.782147
 31
0.0
  0
ARC
  5
5D5
100
AcDbEntity
  8
0
370
    -3
  6
Continuous
100
AcDbCircle
 10
-320.961421
 20
255.948979
 30
0.0
 40
9.0
100
AcDbArc
 50
278.398469
 51
311.601548
  0
ARC
  5
5D6
100
AcDbEntity
  8
0
370
    -3
  6
Continuous
100
AcDbCircle
 10
-315.849032
 20
250.191072
 30
0.0
 40
1.299999
100
AcDbArc
 50
311.601548
 51
25.000018
  0
LINE
  5
5D7
100
AcDbEntity
  8
0
370
    -3
  6
CENTER
100
AcDbLine
 10
-319.514338
 20
252.8457
 30
0.0
 11
-316.644417
 21
246.691135
 31
0.0
  0
LINE
  5
5D8
100
AcDbEntity
  8
0
370
    -3
  6
Continuous
100
AcDbLine
 10
-315.084587
 20
251.627773
 30
0.0
 11
-314.670833
 21
250.740475
 31
0.0
  0
ARC
  5
5D9
100
AcDbEntity
  8
0
370
    -3
  6
Continuous
100
AcDbCircle
 10
-402.310796
 20
209.873289
 30
0.0
 40
1.299999
100
AcDbArc
 50
204.999999
 51
278.398469
  0
ARC
  5
5DA
100
AcDbEntity
  8
0
370
    -3
  6
Continuous
100
AcDbCircle
 10
-398.323041
 20
211.73281
 30
0.0
 40
1.299999
100
AcDbArc
 50
311.601548
 51
25.000018
  0
LINE
  5
5DB
100
AcDbEntity
  8
0
370
    -3
  6
Continuous
100
AcDbLine
 10
-403.90275
 20
210.211184
 30
0.0
 11
-403.488996
 21
209.323885
 31
0.0
  0
LINE
  5
5DC
100
AcDbEntity
  8
0
370
    -3
  6
Continuous
100
AcDbLine
 10
-397.558595
 20
213.169511
 30
0.0
 11
-397.144841
 21
212.282213
 31
0.0
  0
POINT
  5
5DD
100
AcDbEntity
  8
0
370
    -3
  6
Continuous
100
AcDbPoint
 10
-400.730672
 20
211.690348
 30
0.0
  0
ARC
  5
5DE
100
AcDbEntity
  8
0
370
    -3
  6
Continuous
100
AcDbCircle
 10
-403.435429
 20
217.490717
 30
0.0
 40
9.0
100
AcDbArc
 50
278.398469
 51
311.601548
  0
ARC
  5
5DF
100
AcDbEntity
  8
0
370
    -3
  6
Continuous
100
AcDbCircle
 10
-337.166904
 20
222.173442
 30
0.0
 40
10.8
100
AcDbArc
 50
272.437505
 51
342.341575
  0
LINE
  5
5E0
100
AcDbEntity
  8
0
370
    -3
  6
CENTER
100
AcDbLine
 10
-401.988346
 20
214.387438
 30
0.0
 11
-399.118426
 21
208.232873
 31
0.0
  0
POINT
  5
5E1
100
AcDbEntity
  8
0
370
    -3
  6
Continuous
100
AcDbPoint
 10
-318.280374
 20
250.137553
 30
0.0
  0
LINE
  5
5E2
100
AcDbEntity
  8
0
370
    -3
  6
CENTER
100
AcDbLine
 10
-319.514338
 20
252.8457
 30
0.0
 11
-316.644417
 21
246.691135
 31
0.0
  0
ARC
  5
5E3
100
AcDbEntity
  8
0
370
    -3
  6
Continuous
100
AcDbCircle
 10
-313.57953
 20
254.315673
 30
0.0
 40
1.8
100
AcDbArc
 50
295.0
 51
25.0
  0
LINE
  5
5E4
100
AcDbEntity
  8
0
370
    -3
  6
Continuous
100
AcDbLine
 10
-311.948176
 20
255.076386
 30
0.0
 11
-313.638649
 21
258.701617
 31
0.0
  0
ARC
  5
5E5
100
AcDbEntity
  8
0
370
    -3
  6
Continuous
100
AcDbCircle
 10
-406.929232
 20
210.785992
 30
0.0
 40
1.8
100
AcDbArc
 50
205.0
 51
295.0
  0
LINE
  5
5E6
100
AcDbEntity
  8
0
370
    -3
  6
Continuous
100
AcDbLine
 10
-408.560586
 20
210.025279
 30
0.0
 11
-410.251059
 21
213.65051
 31
0.0
  0
ARC
  5
5E7
100
AcDbEntity
  8
0
370
    -3
  6
Continuous
100
AcDbCircle
 10
-325.238846
 20
255.65714
 30
0.0
 40
3.8
100
AcDbArc
 50
25.0
 51
90.0
  0
ARC
  5
5E8
100
AcDbEntity
  8
0
370
    -3
  6
Continuous
100
AcDbCircle
 10
-394.876999
 20
252.65714
 30
0.0
 40
6.8
100
AcDbArc
 50
90.0
 51
180.0
  0
ARC
  5
5E9
100
AcDbEntity
  8
0
370
    -3
  6
Continuous
100
AcDbCircle
 10
-609.56085
 20
-83.276195
 30
0.0
 40
1.0
100
AcDbArc
 50
271.5
 51
0.0
  0
LINE
  5
5EA
100
AcDbEntity
  8
0
370
    -3
  6
Continuous
100
AcDbLine
 10
-612.56085
 20
-84.355096
 30
0.0
 11
-609.534673
 21
-84.275852
 31
0.0
  0
LINE
  5
5EB
100
AcDbEntity
  8
0
370
    -3
  6
Continuous
100
AcDbLine
 10
-612.56085
 20
-80.852211
 30
0.0
 11
-612.56085
 21
-84.355096
 31
0.0
  0
LINE
  5
5EC
100
AcDbEntity
  8
0
370
    -3
  6
Continuous
100
AcDbLine
 10
-612.56085
 20
-19.145608
 30
0.0
 11
-609.534673
 21
-19.224851
 31
0.0
  0
ARC
  5
5ED
100
AcDbEntity
  8
0
370
    -3
  6
Continuous
100
AcDbCircle
 10
-609.56085
 20
-20.224509
 30
0.0
 40
1.0
100
AcDbArc
 50
0.0
 51
88.5
  0
LINE
  5
5EE
100
AcDbEntity
  8
0
370
    -3
  6
Continuous
100
AcDbLine
 10
-608.56085
 20
-83.276195
 30
0.0
 11
-608.56085
 21
-20.224509
 31
0.0
  0
LINE
  5
5EF
100
AcDbEntity
  8
0
370
    -3
  6
Continuous
100
AcDbLine
 10
-612.56085
 20
-22.648493
 30
0.0
 11
-612.56085
 21
-19.145608
 31
0.0
  0
ARC
  5
5F0
100
AcDbEntity
  8
0
370
    -3
  6
Continuous
100
AcDbCircle
 10
-581.56085
 20
-51.750352
 30
0.0
 40
14.0
100
AcDbArc
 50
180.0
 51
360.0
  0
ARC
  5
5F1
100
AcDbEntity
  8
0
370
    -3
  6
Continuous
100
AcDbCircle
 10
-581.56085
 20
-51.750352
 30
0.0
 40
9.3155
100
AcDbArc
 50
180.0
 51
360.0
  0
ARC
  5
5F2
100
AcDbEntity
  8
0
370
    -3
  6
Continuous
100
AcDbCircle
 10
-581.56085
 20
-51.750352
 30
0.0
 40
10.4775
100
AcDbArc
 50
180.0
 51
360.0
  0
ARC
  5
5F3
100
AcDbEntity
  8
0
370
    -3
  6
Continuous
100
AcDbCircle
 10
-581.56085
 20
-51.750352
 30
0.0
 40
14.0
100
AcDbArc
 50
180.0
 51
360.0
  0
ARC
  5
5F4
100
AcDbEntity
  8
0
370
    -3
  6
Continuous
100
AcDbCircle
 10
-581.56085
 20
-51.750352
 30
0.0
 40
9.3155
100
AcDbArc
 50
180.0
 51
360.0
  0
ARC
  5
5F5
100
AcDbEntity
  8
0
370
    -3
  6
Continuous
100
AcDbCircle
 10
-581.56085
 20
-51.750352
 30
0.0
 40
10.4775
100
AcDbArc
 50
180.0
 51
360.0
  0
LINE
  5
5F6
100
AcDbEntity
  8
0
370
    -3
  6
CENTER
100
AcDbLine
 10
-581.56085
 20
-33.10542
 30
0.0
 11
-581.56085
 21
-73.050809
 31
0.0
  0
ARC
  5
5F7
100
AcDbEntity
  8
0
370
    -3
  6
Continuous
100
AcDbCircle
 10
-581.56085
 20
-51.750352
 30
0.0
 40
14.0
100
AcDbArc
 50
0.0
 51
180.0
  0
ARC
  5
5F8
100
AcDbEntity
  8
0
370
    -3
  6
Continuous
100
AcDbCircle
 10
-581.56085
 20
-51.750352
 30
0.0
 40
9.3155
100
AcDbArc
 50
0.0
 51
180.0
  0
ARC
  5
5F9
100
AcDbEntity
  8
0
370
    -3
  6
Continuous
100
AcDbCircle
 10
-581.56085
 20
-51.750352
 30
0.0
 40
10.4775
100
AcDbArc
 50
0.0
 51
180.0
  0
ARC
  5
5FA
100
AcDbEntity
  8
0
370
    -3
  6
Continuous
100
AcDbCircle
 10
-598.005327
 20
-90.750352
 30
0.0
 40
7.8
100
AcDbArc
 50
180.0
 51
270.0
  0
LINE
  5
5FB
100
AcDbEntity
  8
0
370
    -3
  6
Continuous
100
AcDbLine
 10
-568.092315
 20
-97.750352
 30
0.0
 11
-598.467232
 21
-97.750352
 31
0.0
  0
ARC
  5
5FC
100
AcDbEntity
  8
0
370
    -3
  6
Continuous
100
AcDbCircle
 10
-568.092315
 20
-90.750352
 30
0.0
 40
7.0
100
AcDbArc
 50
270.0
 51
0.0
  0
ARC
  5
5FD
100
AcDbEntity
  8
0
370
    -3
  6
Continuous
100
AcDbCircle
 10
-568.55422
 20
-90.750352
 30
0.0
 40
7.8
100
AcDbArc
 50
270.0
 51
0.0
  0
ARC
  5
5FE
100
AcDbEntity
  8
0
370
    -3
  6
Continuous
100
AcDbCircle
 10
-563.889702
 20
-90.750352
 30
0.0
 40
7.8
100
AcDbArc
 50
270.0
 51
0.0
  0
ELLIPSE
  5
5FF
100
AcDbEntity
  8
0
370
    -3
  6
Continuous
100
AcDbEllipse
 10
-557.97511
 20
-91.250352
 30
0.0
 11
0.0
 21
3.5
 31
0.0
210
0.0
220
0.0
230
1.0
 40
0.656603
 41
3.5746436290433174
 42
5.3210459426689347
  0
LINE
  5
600
100
AcDbEntity
  8
0
370
    -3
  6
Continuous
100
AcDbLine
 10
-563.889702
 20
-98.550352
 30
0.0
 11
-598.005327
 21
-98.550352
 31
0.0
  0
LINE
  5
601
100
AcDbEntity
  8
0
370
    -3
  6
Continuous
100
AcDbLine
 10
-561.092315
 20
-51.750352
 30
0.0
 11
-561.092315
 21
-90.750352
 31
0.0
  0
LINE
  5
602
100
AcDbEntity
  8
0
370
    -3
  6
Continuous
100
AcDbLine
 10
-556.089702
 20
-90.750352
 30
0.0
 11
-556.089702
 21
-51.750352
 31
0.0
  0
LINE
  5
603
100
AcDbEntity
  8
0
370
    -3
  6
Continuous
100
AcDbLine
 10
-608.56085
 20
-51.750352
 30
0.0
 11
-608.56085
 21
-82.750352
 31
0.0
  0
LINE
  5
604
100
AcDbEntity
  8
0
370
    -3
  6
Continuous
100
AcDbLine
 10
-607.56085
 20
-82.750352
 30
0.0
 11
-607.56085
 21
-51.750352
 31
0.0
  0
LINE
  5
605
100
AcDbEntity
  8
0
370
    -3
  6
Continuous
100
AcDbLine
 10
-608.56085
 20
-82.750352
 30
0.0
 11
-607.56085
 21
-82.750352
 31
0.0
  0
ARC
  5
606
100
AcDbEntity
  8
0
370
    -3
  6
Continuous
100
AcDbCircle
 10
-598.467232
 20
-90.750352
 30
0.0
 40
7.0
100
AcDbArc
 50
180.0
 51
270.0
  0
LINE
  5
607
100
AcDbEntity
  8
0
370
    -3
  6
Continuous
100
AcDbLine
 10
-607.56085
 20
-51.750352
 30
0.0
 11
-607.56085
 21
-79.750352
 31
0.0
  0
LINE
  5
608
100
AcDbEntity
  8
0
370
    -3
  6
Continuous
100
AcDbLine
 10
-562.324938
 20
-51.750352
 30
0.0
 11
-562.324938
 21
-77.809385
 31
0.0
  0
LINE
  5
609
100
AcDbEntity
  8
0
370
    -3
  6
Continuous
100
AcDbLine
 10
-599.76085
 20
-91.050352
 30
0.0
 11
-570.127992
 21
-91.050352
 31
0.0
  0
LINE
  5
60A
100
AcDbEntity
  8
0
370
    -3
  6
Continuous
100
AcDbLine
 10
-562.626434
 20
-79.292782
 30
0.0
 11
-566.629487
 21
-88.733749
 31
0.0
  0
ARC
  5
60B
100
AcDbEntity
  8
0
370
    -3
  6
Continuous
100
AcDbCircle
 10
-566.124938
 20
-77.809385
 30
0.0
 40
3.8
100
AcDbArc
 50
337.022625
 51
0.0
  0
ARC
  5
60C
100
AcDbEntity
  8
0
370
    -3
  6
Continuous
100
AcDbCircle
 10
-570.127992
 20
-87.250352
 30
0.0
 40
3.8
100
AcDbArc
 50
270.0
 51
337.022625
  0
LINE
  5
60D
100
AcDbEntity
  8
0
370
    -3
  6
Continuous
100
AcDbLine
 10
-606.56085
 20
-51.750352
 30
0.0
 11
-606.56085
 21
-84.250352
 31
0.0
  0
ARC
  5
60E
100
AcDbEntity
  8
0
370
    -3
  6
Continuous
100
AcDbCircle
 10
-599.76085
 20
-84.250352
 30
0.0
 40
6.8
100
AcDbArc
 50
180.0
 51
270.0
  0
LINE
  5
60F
100
AcDbEntity
  8
0
370
    -3
  6
Continuous
100
AcDbLine
 10
-603.050737
 20
-90.201541
 30
0.0
 11
-603.050737
 21
-91.250352
 31
0.0
  0
ARC
  5
610
100
AcDbEntity
  8
0
370
    -3
  6
Continuous
100
AcDbCircle
 10
-597.050737
 20
-91.250352
 30
0.0
 40
6.0
100
AcDbArc
 50
180.0
 51
270.0
  0
ARC
  5
611
100
AcDbEntity
  8
0
370
    -3
  6
Continuous
100
AcDbCircle
 10
-606.86085
 20
-81.015263
 30
0.0
 40
0.3
100
AcDbArc
 50
0.0
 51
76.657636
  0
ARC
  5
612
100
AcDbEntity
  8
0
370
    -3
  6
Continuous
100
AcDbCircle
 10
-606.56085
 20
-79.750352
 30
0.0
 40
1.0
100
AcDbArc
 50
180.0
 51
256.657636
  0
LINE
  5
613
100
AcDbEntity
  8
0
370
    -3
  6
CENTER
100
AcDbLine
 10
-564.449586
 20
-91.250352
 30
0.0
 11
-560.004828
 21
-91.250352
 31
0.0
  0
LINE
  5
614
100
AcDbEntity
  8
0
370
    -3
  6
CENTER
100
AcDbLine
 10
-562.056765
 20
-94.115211
 30
0.0
 11
-562.056765
 21
-88.503821
 31
0.0
  0
ELLIPSE
  5
615
100
AcDbEntity
  8
0
370
    -3
  6
Continuous
100
AcDbEllipse
 10
-562.056765
 20
-91.250352
 30
0.0
 11
0.0
 21
1.6500000000000057
 31
0.0
210
0.0
220
0.0
230
1.0
 40
0.422618
 41
0.0
 42
6.2831853071795862
  0
ELLIPSE
  5
616
100
AcDbEntity
  8
0
370
    -3
  6
Continuous
100
AcDbEllipse
 10
-562.056765
 20
-91.250352
 30
0.0
 11
0.0
 21
2.0
 31
0.0
210
0.0
220
0.0
230
1.0
 40
0.422618
 41
0.0
 42
6.2831853071795862
  0
LINE
  5
617
100
AcDbEntity
  8
0
370
    -3
  6
Continuous
100
AcDbLine
 10
-605.467232
 20
-87.948622
 30
0.0
 11
-605.467232
 21
-90.750352
 31
0.0
  0
LINE
  5
618
100
AcDbEntity
  8
0
370
    -3
  6
Continuous
100
AcDbLine
 10
-605.805327
 20
-90.750352
 30
0.0
 11
-605.805327
 21
-87.365525
 31
0.0
  0
LINE
  5
619
100
AcDbEntity
  8
0
370
    -3
  6
Continuous
100
AcDbLine
 10
-597.050737
 20
-97.250352
 30
0.0
 11
-565.494238
 21
-97.250352
 31
0.0
  0
LINE
  5
61A
100
AcDbEntity
  8
0
370
    -3
  6
Continuous
100
AcDbLine
 10
-560.75422
 20
-51.750352
 30
0.0
 11
-560.75422
 21
-90.750352
 31
0.0
  0
LINE
  5
61B
100
AcDbEntity
  8
0
370
    -3
  6
CENTER
100
AcDbLine
 10
-581.56085
 20
-33.10542
 30
0.0
 11
-581.56085
 21
-73.050809
 31
0.0
  0
ARC
  5
61C
100
AcDbEntity
  8
0
370
    -3
  6
Continuous
100
AcDbCircle
 10
-598.005327
 20
-12.750352
 30
0.0
 40
7.8
100
AcDbArc
 50
90.0
 51
180.0
  0
LINE
  5
61D
100
AcDbEntity
  8
0
370
    -3
  6
Continuous
100
AcDbLine
 10
-568.092315
 20
-5.750352
 30
0.0
 11
-598.467232
 21
-5.750352
 31
0.0
  0
ARC
  5
61E
100
AcDbEntity
  8
0
370
    -3
  6
Continuous
100
AcDbCircle
 10
-568.092315
 20
-12.750352
 30
0.0
 40
7.0
100
AcDbArc
 50
0.0
 51
90.0
  0
ARC
  5
61F
100
AcDbEntity
  8
0
370
    -3
  6
Continuous
100
AcDbCircle
 10
-568.55422
 20
-12.750352
 30
0.0
 40
7.8
100
AcDbArc
 50
0.0
 51
90.0
  0
ARC
  5
620
100
AcDbEntity
  8
0
370
    -3
  6
Continuous
100
AcDbCircle
 10
-563.889702
 20
-12.750352
 30
0.0
 40
7.8
100
AcDbArc
 50
0.0
 51
90.0
  0
ELLIPSE
  5
621
100
AcDbEntity
  8
0
370
    -3
  6
Continuous
100
AcDbEllipse
 10
-557.97511
 20
-12.250352
 30
0.0
 11
0.0
 21
3.5
 31
0.0
210
0.0
220
0.0
230
1.0
 40
0.656603
 41
4.1037320181003913
 42
5.8501343317260348
  0
LINE
  5
622
100
AcDbEntity
  8
0
370
    -3
  6
Continuous
100
AcDbLine
 10
-563.889702
 20
-4.950352
 30
0.0
 11
-598.005327
 21
-4.950352
 31
0.0
  0
LINE
  5
623
100
AcDbEntity
  8
0
370
    -3
  6
Continuous
100
AcDbLine
 10
-561.092315
 20
-51.750352
 30
0.0
 11
-561.092315
 21
-12.750352
 31
0.0
  0
LINE
  5
624
100
AcDbEntity
  8
0
370
    -3
  6
Continuous
100
AcDbLine
 10
-556.089702
 20
-12.750352
 30
0.0
 11
-556.089702
 21
-51.750352
 31
0.0
  0
LINE
  5
625
100
AcDbEntity
  8
0
370
    -3
  6
Continuous
100
AcDbLine
 10
-608.56085
 20
-51.750352
 30
0.0
 11
-608.56085
 21
-20.750352
 31
0.0
  0
LINE
  5
626
100
AcDbEntity
  8
0
370
    -3
  6
Continuous
100
AcDbLine
 10
-607.56085
 20
-20.750352
 30
0.0
 11
-607.56085
 21
-51.750352
 31
0.0
  0
LINE
  5
627
100
AcDbEntity
  8
0
370
    -3
  6
Continuous
100
AcDbLine
 10
-608.56085
 20
-20.750352
 30
0.0
 11
-607.56085
 21
-20.750352
 31
0.0
  0
ARC
  5
628
100
AcDbEntity
  8
0
370
    -3
  6
Continuous
100
AcDbCircle
 10
-598.467232
 20
-12.750352
 30
0.0
 40
7.0
100
AcDbArc
 50
90.0
 51
180.0
  0
LINE
  5
629
100
AcDbEntity
  8
0
370
    -3
  6
Continuous
100
AcDbLine
 10
-607.56085
 20
-51.750352
 30
0.0
 11
-607.56085
 21
-23.750352
 31
0.0
  0
LINE
  5
62A
100
AcDbEntity
  8
0
370
    -3
  6
Continuous
100
AcDbLine
 10
-562.324938
 20
-51.750352
 30
0.0
 11
-562.324938
 21
-25.691319
 31
0.0
  0
LINE
  5
62B
100
AcDbEntity
  8
0
370
    -3
  6
Continuous
100
AcDbLine
 10
-599.76085
 20
-12.450352
 30
0.0
 11
-570.127992
 21
-12.450352
 31
0.0
  0
LINE
  5
62C
100
AcDbEntity
  8
0
370
    -3
  6
Continuous
100
AcDbLine
 10
-562.626434
 20
-24.207922
 30
0.0
 11
-566.629487
 21
-14.766955
 31
0.0
  0
ARC
  5
62D
100
AcDbEntity
  8
0
370
    -3
  6
Continuous
100
AcDbCircle
 10
-566.124938
 20
-25.691319
 30
0.0
 40
3.8
100
AcDbArc
 50
360.0
 51
22.977375
  0
ARC
  5
62E
100
AcDbEntity
  8
0
370
    -3
  6
Continuous
100
AcDbCircle
 10
-570.127992
 20
-16.250352
 30
0.0
 40
3.8
100
AcDbArc
 50
22.977375
 51
90.0
  0
LINE
  5
62F
100
AcDbEntity
  8
0
370
    -3
  6
Continuous
100
AcDbLine
 10
-606.56085
 20
-51.750352
 30
0.0
 11
-606.56085
 21
-19.250352
 31
0.0
  0
ARC
  5
630
100
AcDbEntity
  8
0
370
    -3
  6
Continuous
100
AcDbCircle
 10
-599.76085
 20
-19.250352
 30
0.0
 40
6.8
100
AcDbArc
 50
90.0
 51
180.0
  0
LINE
  5
631
100
AcDbEntity
  8
0
370
    -3
  6
Continuous
100
AcDbLine
 10
-603.050737
 20
-13.299163
 30
0.0
 11
-603.050737
 21
-12.250352
 31
0.0
  0
ARC
  5
632
100
AcDbEntity
  8
0
370
    -3
  6
Continuous
100
AcDbCircle
 10
-597.050737
 20
-12.250352
 30
0.0
 40
6.0
100
AcDbArc
 50
90.0
 51
180.0
  0
ARC
  5
633
100
AcDbEntity
  8
0
370
    -3
  6
Continuous
100
AcDbCircle
 10
-606.86085
 20
-22.485441
 30
0.0
 40
0.3
100
AcDbArc
 50
283.342364
 51
0.0
  0
ARC
  5
634
100
AcDbEntity
  8
0
370
    -3
  6
Continuous
100
AcDbCircle
 10
-606.56085
 20
-23.750352
 30
0.0
 40
1.0
100
AcDbArc
 50
103.342364
 51
180.0
  0
LINE
  5
635
100
AcDbEntity
  8
0
370
    -3
  6
CENTER
100
AcDbLine
 10
-564.449586
 20
-12.250352
 30
0.0
 11
-560.004828
 21
-12.250352
 31
0.0
  0
LINE
  5
636
100
AcDbEntity
  8
0
370
    -3
  6
CENTER
100
AcDbLine
 10
-562.056765
 20
-9.385493
 30
0.0
 11
-562.056765
 21
-14.996883
 31
0.0
  0
ELLIPSE
  5
637
100
AcDbEntity
  8
0
370
    -3
  6
Continuous
100
AcDbEllipse
 10
-562.056765
 20
-12.250352
 30
0.0
 11
0.0
 21
1.6500000000000057
 31
0.0
210
0.0
220
0.0
230
1.0
 40
0.422618
 41
0.0
 42
6.2831853071795862
  0
ELLIPSE
  5
638
100
AcDbEntity
  8
0
370
    -3
  6
Continuous
100
AcDbEllipse
 10
-562.056765
 20
-12.250352
 30
0.0
 11
0.0
 21
2.0
 31
0.0
210
0.0
220
0.0
230
1.0
 40
0.422618
 41
0.0
 42
6.2831853071795862
  0
LINE
  5
639
100
AcDbEntity
  8
0
370
    -3
  6
Continuous
100
AcDbLine
 10
-605.467232
 20
-15.552082
 30
0.0
 11
-605.467232
 21
-12.750352
 31
0.0
  0
LINE
  5
63A
100
AcDbEntity
  8
0
370
    -3
  6
Continuous
100
AcDbLine
 10
-605.805327
 20
-12.750352
 30
0.0
 11
-605.805327
 21
-16.135179
 31
0.0
  0
LINE
  5
63B
100
AcDbEntity
  8
0
370
    -3
  6
Continuous
100
AcDbLine
 10
-597.050737
 20
-6.250352
 30
0.0
 11
-565.494238
 21
-6.250352
 31
0.0
  0
LINE
  5
63C
100
AcDbEntity
  8
0
370
    -3
  6
Continuous
100
AcDbLine
 10
-560.75422
 20
-51.750352
 30
0.0
 11
-560.75422
 21
-12.750352
 31
0.0
  0
ARC
  5
63D
100
AcDbEntity
  8
0
370
    -3
  6
Continuous
100
AcDbCircle
 10
-581.56085
 20
-51.750352
 30
0.0
 40
14.0
100
AcDbArc
 50
0.0
 51
180.0
  0
ARC
  5
63E
100
AcDbEntity
  8
0
370
    -3
  6
Continuous
100
AcDbCircle
 10
-581.56085
 20
-51.750352
 30
0.0
 40
9.3155
100
AcDbArc
 50
0.0
 51
180.0
  0
ARC
  5
63F
100
AcDbEntity
  8
0
370
    -3
  6
Continuous
100
AcDbCircle
 10
-581.56085
 20
-51.750352
 30
0.0
 40
10.4775
100
AcDbArc
 50
0.0
 51
180.0
  0
LINE
  5
640
100
AcDbEntity
  8
0
370
    -3
  6
Continuous
100
AcDbLine
 10
-599.76085
 20
-78.581723
 30
0.0
 11
-562.404254
 21
-78.581723
 31
0.0
  0
ARC
  5
641
100
AcDbEntity
  8
0
370
    -3
  6
Continuous
100
AcDbCircle
 10
-599.76085
 20
-71.781723
 30
0.0
 40
6.8
100
AcDbArc
 50
180.0
 51
270.0
  0
ARC
  5
642
100
AcDbEntity
  8
0
370
    -3
  6
Continuous
100
AcDbCircle
 10
-599.76085
 20
-31.718981
 30
0.0
 40
6.8
100
AcDbArc
 50
90.0
 51
180.0
  0
LINE
  5
643
100
AcDbEntity
  8
0
370
    -3
  6
Continuous
100
AcDbLine
 10
-599.76085
 20
-24.918981
 30
0.0
 11
-562.404254
 21
-24.918981
 31
0.0
  0
MTEXT
  5
644
100
AcDbEntity
  8
0
370
    -3
  6
Continuous
100
AcDbMText
 10
-773.010315
 20
247.054047
 30
0.0
 40
15.0
 41
0.0
 71
     7
 72
     1
  1
\W0.43;DATE\W0.72; \W0.43;2011.12.29
  7
ZU_SHPTB00001
 11
1.0
 21
0.0
 31
0.0
 73
     1
 44
1.0
  0
ARC
  5
645
100
AcDbEntity
  8
0
370
    -3
  6
CENTER
100
AcDbCircle
 10
231.823007
 20
-50.250352
 30
0.0
 40
170.0
100
AcDbArc
 50
39.976275
 51
50.599181
  0
ARC
  5
646
100
AcDbEntity
  8
0
370
    -3
  6
CENTER
100
AcDbCircle
 10
231.823007
 20
-50.250352
 30
0.0
 40
170.0
100
AcDbArc
 50
219.193631
 51
230.652203
  0
ARC
  5
647
100
AcDbEntity
  8
0
370
    -3
  6
CENTER
100
AcDbCircle
 10
231.823007
 20
-50.250352
 30
0.0
 40
170.0
100
AcDbArc
 50
130.080601
 51
140.194082
  0
ARC
  5
648
100
AcDbEntity
  8
0
370
    -3
  6
CENTER
100
AcDbCircle
 10
231.823007
 20
-50.250352
 30
0.0
 40
170.0
100
AcDbArc
 50
309.911686
 51
320.180652
  0
ENDSEC
  0
SECTION
  2
OBJECTS
  0
DICTIONARY
  5
19
100
AcDbDictionary
280
     0
281
     1
  3
ACAD_GROUP
350
1A
  3
ACAD_MLINESTYLE
350
1B
  3
ACAD_LAYOUT
350
1E
  3
ACAD_PLOTSETTINGS
350
22
  3
ACAD_PLOTSTYLENAME
350
1F
  3
ACAD_WIPEOUT_VARS
350
23
  3
DWGPROPS
350
649
  0
DICTIONARY
  5
1A
102
{ACAD_REACTORS
330
19
102
}
100
AcDbDictionary
280
     0
281
     1
  0
DICTIONARY
  5
1B
102
{ACAD_REACTORS
330
19
102
}
100
AcDbDictionary
280
     0
281
     1
  3
Standard
350
1C
  0
MLINESTYLE
  5
1C
102
{ACAD_REACTORS
330
1B
102
}
100
AcDbMlineStyle
  2
Standard
 70
     0
  3

 62
     0
 51
90.0
 52
90.0
 71
     2
 49
0.5
 62
   256
  6
ByLayer
 49
-0.5
 62
   256
  6
ByLayer
  0
ACDBDICTIONARYWDFLT
  5
1F
102
{ACAD_REACTORS
330
19
102
}
100
AcDbDictionary
281
     1
  3
Normal
350
1D
100
AcDbDictionaryWithDefault
340
1D
  0
ACDBPLACEHOLDER
  5
1D
102
{ACAD_REACTORS
330
1F
102
}
  0
LAYOUT
  5
20
102
{ACAD_REACTORS
330
1E
102
}
100
AcDbPlotSettings
  1

  2

  4

  6

 40
0.0
 41
0.0
 42
0.0
 43
0.0
 44
0.0
 45
0.0
 46
0.0
 47
0.0
 48
0.0
 49
0.0
140
0.0
141
0.0
142
1.0
143
1.0
 70
  1024
 72
     0
 73
     0
 74
     0
  7

 75
     0
147
1.0
148
0.0
149
0.0
100
AcDbLayout
  1
Model
 70
     0
 71
     0
 10
0.0
 20
0.0
 11
0.0
 21
0.0
 12
0.0
 22
0.0
 32
0.0
 14
0.0
 24
0.0
 34
0.0
 15
0.0
 25
0.0
 35
0.0
146
0.0
 13
0.0
 23
0.0
 33
0.0
 16
0.0
 26
0.0
 36
0.0
 17
0.0
 27
0.0
 37
0.0
 76
     0
330
A
331
0
345
0
346
0
  0
LAYOUT
  5
21
102
{ACAD_REACTORS
330
1E
102
}
100
AcDbPlotSettings
  1

  2

  4

  6

 40
0.0
 41
0.0
 42
0.0
 43
0.0
 44
0.0
 45
0.0
 46
0.0
 47
0.0
 48
0.0
 49
0.0
140
0.0
141
0.0
142
1.0
143
1.0
 70
     0
 72
     0
 73
     0
 74
     0
  7

 75
     0
147
1.0
148
0.0
149
0.0
100
AcDbLayout
  1
Layout1
 70
     0
 71
     0
 10
0.0
 20
0.0
 11
0.0
 21
0.0
 12
0.0
 22
0.0
 32
0.0
 14
0.0
 24
0.0
 34
0.0
 15
0.0
 25
0.0
 35
0.0
146
0.0
 13
0.0
 23
0.0
 33
0.0
 16
0.0
 26
0.0
 36
0.0
 17
0.0
 27
0.0
 37
0.0
 76
     0
330
B
331
0
345
0
346
0
  0
DICTIONARY
  5
1E
102
{ACAD_REACTORS
330
19
102
}
100
AcDbDictionary
280
     0
281
     1
  3
Layout1
350
21
  3
Model
350
20
  0
DICTIONARY
  5
22
102
{ACAD_REACTORS
330
19
102
}
100
AcDbDictionary
280
     0
281
     1
  0
WIPEOUTVARIABLES
  5
23
100
AcDbWipeoutVariables
 70
     1
  0
XRECORD
  5
649
100
AcDbXrecord
280
     1
  1
DWGPROPS COOKIE
  2

  3

  4

  6

  7

  8
HK96464
  9

300
=
301
=
302
=
303
=
304
=
305
=
306
=
307
=
308
=
309
=
 40
0.0
 41
2455931.710324
 42
2455931.710324
  1

 90
        0
  0
ENDSEC
  0
EOF
