  0
SECTION
  2
HEADER
  9
$ACADVER
  1
AC1015
  9
$ACADMAINTVER
 70
     6
  9
$DWGCODEPAGE
  3
ANSI_932
  9
$INSBASE
 10
0.0
 20
0.0
 30
0.0
  9
$EXTMIN
 10
1.000000E+20
 20
1.000000E+20
 30
1.000000E+20
  9
$EXTMAX
 10
-1.000000E+20
 20
-1.000000E+20
 30
-1.000000E+20
  9
$LIMMIN
 10
0.0
 20
0.0
  9
$LIMMAX
 10
0.0
 20
0.0
  9
$ORTHOMODE
 70
     0
  9
$REGENMODE
 70
     1
  9
$FILLMODE
 70
     1
  9
$QTEXTMODE
 70
     0
  9
$MIRRTEXT
 70
     1
  9
$LTSCALE
 40
1.0
  9
$ATTMODE
 70
     1
  9
$TEXTSIZE
 40
2.8
  9
$TRACEWID
 40
0.05
  9
$TEXTSTYLE
  7
Standard
  9
$CLAYER
  8
0
  9
$CELTYPE
  6
Continuous
  9
$CECOLOR
 62
   256
  9
$CELTSCALE
 40
1.0
  9
$DISPSILH
 70
     0
  9
$DIMSCALE
 40
1.0
  9
$DIMASZ
 40
1.931852
  9
$DIMEXO
 40
1.0
  9
$DIMDLI
 40
0.38
  9
$DIMRND
 40
0.0
  9
$DIMDLE
 40
0.0
  9
$DIMEXE
 40
2.0
  9
$DIMTP
 40
0.0
  9
$DIMTM
 40
0.0
  9
$DIMTXT
 40
10.0
  9
$DIMCEN
 40
0.09
  9
$DIMTSZ
 40
0.0
  9
$DIMTOL
 70
     0
  9
$DIMLIM
 70
     0
  9
$DIMTIH
 70
     1
  9
$DIMTOH
 70
     1
  9
$DIMSE1
 70
     0
  9
$DIMSE2
 70
     0
  9
$DIMTAD
 70
     1
  9
$DIMZIN
 70
     0
  9
$DIMBLK
  1

  9
$DIMASO
 70
     1
  9
$DIMSHO
 70
     1
  9
$DIMPOST
  1

  9
$DIMAPOST
  1

  9
$DIMALT
 70
     0
  9
$DIMALTD
 70
     2
  9
$DIMALTF
 40
25.4
  9
$DIMLFAC
 40
1.0
  9
$DIMTOFL
 70
     0
  9
$DIMTVP
 40
0.0
  9
$DIMTIX
 70
     0
  9
$DIMSOXD
 70
     0
  9
$DIMSAH
 70
     0
  9
$DIMBLK1
  1

  9
$DIMBLK2
  1

  9
$DIMSTYLE
  2
Standard
  9
$DIMCLRD
 70
     0
  9
$DIMCLRE
 70
     0
  9
$DIMCLRT
 70
     0
  9
$DIMTFAC
 40
0.714286
  9
$DIMGAP
 40
0.09
  9
$DIMJUST
 70
     0
  9
$DIMSD1
 70
     0
  9
$DIMSD2
 70
     0
  9
$DIMTOLJ
 70
     1
  9
$DIMTZIN
 70
     0
  9
$DIMALTZ
 70
     0
  9
$DIMALTTZ
 70
     0
  9
$DIMUPT
 70
     0
  9
$DIMDEC
 70
     4
  9
$DIMTDEC
 70
     4
  9
$DIMALTU
 70
     2
  9
$DIMALTTD
 70
     2
  9
$DIMTXSTY
  7
Standard
  9
$DIMAUNIT
 70
     0
  9
$DIMADEC
 70
     0
  9
$DIMALTRND
 40
0.0
  9
$DIMAZIN
 70
     0
  9
$DIMDSEP
 70
     0
  9
$DIMATFIT
 70
     3
  9
$DIMFRAC
 70
     0
  9
$DIMLDRBLK
  1

  9
$DIMLUNIT
 70
     2
  9
$DIMLWD
 70
     0
  9
$DIMLWE
 70
     0
  9
$DIMTMOVE
 70
     0
  9
$LUNITS
 70
     2
  9
$LUPREC
 70
     3
  9
$SKETCHINC
 40
0.1
  9
$FILLETRAD
 40
0.0
  9
$AUNITS
 70
     0
  9
$AUPREC
 70
     0
  9
$MENU
  1
acad
  9
$ELEVATION
 40
0.0
  9
$PELEVATION
 40
0.0
  9
$THICKNESS
 40
0.0
  9
$LIMCHECK
 70
     0
  9
$CHAMFERA
 40
0.0
  9
$CHAMFERB
 40
0.0
  9
$CHAMFERC
 40
0.0
  9
$CHAMFERD
 40
0.0
  9
$SKPOLY
 70
     0
  9
$TDCREATE
 40
0.000000000
  9
$TDUCREATE
 40
0.000000000
  9
$TDUPDATE
 40
0.000000000
  9
$TDUUPDATE
 40
0.000000000
  9
$TDINDWG
 40
0.0000000000
  9
$TDUSRTIMER
 40
0.0000000000
  9
$USRTIMER
 70
     1
  9
$ANGBASE
 50
0.0
  9
$ANGDIR
 70
     0
  9
$PDMODE
 70
     0
  9
$PDSIZE
 40
0.0
  9
$PLINEWID
 40
0.0
  9
$SPLFRAME
 70
     0
  9
$SPLINETYPE
 70
     6
  9
$SPLINESEGS
 70
     8
  9
$HANDSEED
  5
50B
  9
$SURFTAB1
 70
     6
  9
$SURFTAB2
 70
     6
  9
$SURFTYPE
 70
     6
  9
$SURFU
 70
     6
  9
$SURFV
 70
     6
  9
$UCSBASE
  2

  9
$UCSNAME
  2

  9
$UCSORG
 10
0.0
 20
0.0
 30
0.0
  9
$UCSXDIR
 10
1.0
 20
0.0
 30
0.0
  9
$UCSYDIR
 10
0.0
 20
1.0
 30
0.0
  9
$UCSORTHOREF
  2

  9
$UCSORTHOVIEW
 70
     0
  9
$UCSORGTOP
 10
0.0
 20
0.0
 30
0.0
  9
$UCSORGBOTTOM
 10
0.0
 20
0.0
 30
0.0
  9
$UCSORGLEFT
 10
0.0
 20
0.0
 30
0.0
  9
$UCSORGRIGHT
 10
0.0
 20
0.0
 30
0.0
  9
$UCSORGFRONT
 10
0.0
 20
0.0
 30
0.0
  9
$UCSORGBACK
 10
0.0
 20
0.0
 30
0.0
  9
$PUCSBASE
  2

  9
$PUCSNAME
  2

  9
$PUCSORG
 10
0.0
 20
0.0
 30
0.0
  9
$PUCSXDIR
 10
1.0
 20
0.0
 30
0.0
  9
$PUCSYDIR
 10
0.0
 20
1.0
 30
0.0
  9
$PUCSORTHOREF
  2

  9
$PUCSORTHOVIEW
 70
     0
  9
$PUCSORGTOP
 10
0.0
 20
0.0
 30
0.0
  9
$PUCSORGBOTTOM
 10
0.0
 20
0.0
 30
0.0
  9
$PUCSORGLEFT
 10
0.0
 20
0.0
 30
0.0
  9
$PUCSORGRIGHT
 10
0.0
 20
0.0
 30
0.0
  9
$PUCSORGFRONT
 10
0.0
 20
0.0
 30
0.0
  9
$PUCSORGBACK
 10
0.0
 20
0.0
 30
0.0
  9
$USERI1
 70
     0
  9
$USERI2
 70
     0
  9
$USERI3
 70
     0
  9
$USERI4
 70
     0
  9
$USERI5
 70
     0
  9
$USERR1
 40
0.0
  9
$USERR2
 40
0.0
  9
$USERR3
 40
0.0
  9
$USERR4
 40
0.0
  9
$USERR5
 40
0.0
  9
$WORLDVIEW
 70
     1
  9
$SHADEDGE
 70
     3
  9
$SHADEDIF
 70
    70
  9
$TILEMODE
 70
     1
  9
$MAXACTVP
 70
    16
  9
$PINSBASE
 10
0.0
 20
0.0
 30
0.0
  9
$PLIMCHECK
 70
     0
  9
$PEXTMIN
 10
1.000000E+20
 20
1.000000E+20
 30
1.000000E+20
  9
$PEXTMAX
 10
-1.000000E+20
 20
-1.000000E+20
 30
-1.000000E+20
  9
$PLIMMIN
 10
0.0
 20
0.0
  9
$PLIMMAX
 10
12.0
 20
9.0
  9
$UNITMODE
 70
     0
  9
$VISRETAIN
 70
     0
  9
$PLINEGEN
 70
     1
  9
$PSLTSCALE
 70
     0
  9
$TREEDEPTH
 70
  3020
  9
$CMLSTYLE
  2
Standard
  9
$CMLJUST
 70
     0
  9
$CMLSCALE
 40
1.0
  9
$PROXYGRAPHICS
 70
     0
  9
$MEASUREMENT
 70
     0
  9
$CELWEIGHT
370
     0
  9
$ENDCAPS
280
     0
  9
$JOINSTYLE
280
     0
  9
$LWDISPLAY
290
     0
  9
$INSUNITS
 70
     0
  9
$HYPERLINKBASE
  1

  9
$STYLESHEET
  1

  9
$XEDIT
290
     1
  9
$CEPSNTYPE
380
     0
  9
$PSTYLEMODE
290
     1
  9
$FINGERPRINTGUID
  2

  9
$VERSIONGUID
  2

  9
$EXTNAMES
290
     1
  9
$PSVPSCALE
 40
0.0
  0
ENDSEC
  0
SECTION
  2
CLASSES
  0
CLASS
  1
LWPOLYLINE
  2
AcDbPolyline
  3
AutoCAD 2000
 90
    32768
280
     0
281
     1
  0
CLASS
  1
IMAGE
  2
AcDbRasterImage
  3
ISM
 90
    32895
280
     0
281
     1
  0
CLASS
  1
OLE2FRAME
  2
AcDbOle2Frame
  3
AutoCAD 2000
 90
    32768
280
     0
281
     1
  0
CLASS
  1
HATCH
  2
AcDbHatch
  3
AutoCAD 2000
 90
    32768
280
     0
281
     1
  0
CLASS
  1
DICTIONARYVAR
  2
AcDbDictionaryVar
  3
AutoCAD 2000
 90
    32768
280
     0
281
     0
  0
CLASS
  1
RASTERVARIABLES
  2
AcDbRasterVariables
  3
ISM
 90
    32768
280
     0
281
     0
  0
CLASS
  1
IMAGEDEF
  2
AcDbRasterImageDef
  3
ISM
 90
    32768
280
     0
281
     0
  0
CLASS
  1
IMAGEDEF_REACTOR
  2
AcDbRasterImageDefReactor
  3
ISM
 90
    32769
280
     0
281
     0
  0
CLASS
  1
IDBUFFER
  2
AcDbIdBuffer
  3
AutoCAD 2000
 90
    32768
280
     0
281
     0
  0
CLASS
  1
SPATIAL_FILTER
  2
AcDbSpatialFilter
  3
AutoCAD 2000
 90
    32768
280
     0
281
     0
  0
CLASS
  1
XRECORD
  2
AcDbXrecord
  3
AutoCAD 2000
 90
        0
280
     0
281
     0
  0
CLASS
  1
SORTENTSTABLE
  2
AcDbSortentsTable
  3
AutoCAD 2000
 90
    32768
280
     0
281
     0
  0
CLASS
  1
LAYER_INDEX
  2
AcDbLayerIndex
  3
AutoCAD 2000
 90
    32768
280
     0
281
     0
  0
CLASS
  1
SPATIAL_INDEX
  2
AcDbSpatialIndex
  3
AutoCAD 2000
 90
    32768
280
     0
281
     0
  0
CLASS
  1
OBJECT_PTR
  2
CAseDLPNTableRecord
  3
"ASE-LPNTableRecord"
 90
    32769
280
     0
281
     0
  0
CLASS
  1
LAYOUT
  2
AcDbLayout
  3
AutoCAD 2000
 90
        0
280
     0
281
     0
  0
CLASS
  1
PLOTSETTINGS
  2
AcDbPlotSettings
  3
AutoCAD 2000
 90
    32768
280
     0
281
     0
  0
CLASS
  1
ACDBDICTIONARYWDFLT
  2
AcDbDictionaryWithDefault
  3
AutoCAD 2000
 90
        0
280
     0
281
     0
  0
CLASS
  1
ACDBPLACEHOLDER
  2
AcDbPlaceHolder
  3
AutoCAD 2000
 90
        0
280
     0
281
     0
  0
CLASS
  1
VBA_PROJECT
  2
AcDbVbaProject
  3
acadvba
 90
    32768
280
     0
281
     0
  0
CLASS
  1
WIPEOUT
  2
AcDbWipeout
  3
WipeOut|AutoCAD Express Tool|expresstools@autodesk.com
 90
    32895
280
     0
281
     1
  0
CLASS
  1
WIPEOUTVARIABLES
  2
AcDbWipeoutVariables
  3
WipeOut|AutoCAD Express Tool|expresstools@autodesk.com
 90
        0
280
     0
281
     0
  0
CLASS
  1
RTEXT
  2
RText
  3
RText|AutoCAD Express Tool|expresstools@autodesk.com
 90
    32768
280
     0
281
     1
  0
CLASS
  1
ARCALIGNEDTEXT
  2
AcDbArcAlignedText
  3
ATEXT|AutoCAD Express Tool|expresstools@autodesk.com
 90
    32768
280
     0
281
     1
  0
ENDSEC
  0
SECTION
  2
TABLES
  0
TABLE
  2
VPORT
  5
7
100
AcDbSymbolTable
 70
     1
  0
VPORT
  5
15
100
AcDbSymbolTableRecord
100
AcDbViewportTableRecord
  2
*ACTIVE
 70
     0
 10
0.0
 20
0.0
 11
1.0
 21
1.0
 12
0.0
 22
0.0
 13
0.0
 23
0.0
 14
1.0
 24
1.0
 15
0.0
 25
0.0
 16
0.0
 26
0.0
 36
1.0
 17
0.0
 27
0.0
 37
0.0
 40
100.0
 41
1.0
 42
50.0
 43
0.0
 44
0.0
 50
0.0
 51
0.0
 71
     0
 72
   100
 73
     1
 74
     1
 75
     0
 76
     0
 77
     0
 78
     0
281
     0
 65
     0
110
0.0
120
0.0
130
0.0
111
1.0
121
0.0
131
0.0
112
0.0
122
1.0
132
0.0
345
0
346
0
 79
     0
146
0.0
  0
ENDTAB
  0
TABLE
  2
LTYPE
  5
4
100
AcDbSymbolTable
 70
     7
  0
LTYPE
  5
11
100
AcDbSymbolTableRecord
100
AcDbLinetypeTableRecord
  2
ByBlock
 70
    64
  3

 72
    65
 73
     0
 40
0.0
  0
LTYPE
  5
12
100
AcDbSymbolTableRecord
100
AcDbLinetypeTableRecord
  2
ByLayer
 70
    64
  3

 72
    65
 73
     0
 40
0.0
  0
LTYPE
  5
13
100
AcDbSymbolTableRecord
100
AcDbLinetypeTableRecord
  2
Continuous
 70
    64
  3
Solid line
 72
    65
 73
     0
 40
0.0
  0
LTYPE
  5
24
100
AcDbSymbolTableRecord
100
AcDbLinetypeTableRecord
  2
DASHED
 70
    64
  3
Dashed __ __ __ __ __ __ __ __ __ __ __ __ __ _
 72
    65
 73
     2
 40
0.75
 49
0.5
 74
     0
 49
-0.25
 74
     0
  0
LTYPE
  5
25
100
AcDbSymbolTableRecord
100
AcDbLinetypeTableRecord
  2
CENTER
 70
    64
  3
Center ____ _ ____ _ ____ _ ____ _ ____ _ ____
 72
    65
 73
     4
 40
1.0
 49
0.5
 74
     0
 49
-0.25
 74
     0
 49
0.0
 74
     0
 49
-0.25
 74
     0
  0
LTYPE
  5
26
100
AcDbSymbolTableRecord
100
AcDbLinetypeTableRecord
  2
DIVIDE
 70
    64
  3
Divide ____ . . ____ . . ____ . . ____ . . ____
 72
    65
 73
     6
 40
1.25
 49
0.5
 74
     0
 49
-0.25
 74
     0
 49
0.0
 74
     0
 49
-0.25
 74
     0
 49
0.0
 74
     0
 49
-0.25
 74
     0
  0
LTYPE
  5
27
100
AcDbSymbolTableRecord
100
AcDbLinetypeTableRecord
  2
PHANTOM
 70
    64
  3
Phantom ______  __  __  ______  __  __  ______
 72
    65
 73
     6
 40
9.0
 49
4.3
 74
     0
 49
-0.7
 74
     0
 49
1.3
 74
     0
 49
-0.7
 74
     0
 49
1.3
 74
     0
 49
-0.7
 74
     0
  0
ENDTAB
  0
TABLE
  2
LAYER
  5
2
100
AcDbSymbolTable
 70
     3
  0
LAYER
  5
14
100
AcDbSymbolTableRecord
100
AcDbLayerTableRecord
  2
0
 70
    64
 62
    53
  6
Continuous
290
     1
370
    -3
390
1D
  0
LAYER
  5
28
100
AcDbSymbolTableRecord
100
AcDbLayerTableRecord
  2
3
 70
    64
 62
     4
  6
Continuous
290
     1
370
    -3
390
1D
  0
LAYER
  5
29
100
AcDbSymbolTableRecord
100
AcDbLayerTableRecord
  2
5
 70
    64
 62
   191
  6
Continuous
290
     1
370
    -3
390
1D
  0
ENDTAB
  0
TABLE
  2
STYLE
  5
3
100
AcDbSymbolTable
 70
     2
  0
STYLE
  5
17
100
AcDbSymbolTableRecord
100
AcDbTextStyleTableRecord
  2
Standard
 70
     0
 40
0.0
 41
1.0
 50
0.0
 71
     0
 42
0.0
  3
txt
  4

  0
STYLE
  5
3D9
100
AcDbSymbolTableRecord
100
AcDbTextStyleTableRecord
  2
ZU_SHPTB00001
 70
     0
 40
0.0
 41
1.0
 50
0.0
 71
     0
 42
0.0
  3
monotxt
  4
bigfont
  0
ENDTAB
  0
TABLE
  2
VIEW
  5
5
100
AcDbSymbolTable
 70
     0
  0
ENDTAB
  0
TABLE
  2
UCS
  5
6
100
AcDbSymbolTable
 70
     0
  0
ENDTAB
  0
TABLE
  2
APPID
  5
8
100
AcDbSymbolTable
 70
     1
  0
APPID
  5
16
100
AcDbSymbolTableRecord
100
AcDbRegAppTableRecord
  2
ACAD
 70
     0
  0
ENDTAB
  0
TABLE
  2
DIMSTYLE
  5
9
100
AcDbSymbolTable
 70
     1
100
AcDbDimStyleTable
 71
     0
  0
DIMSTYLE
105
18
100
AcDbSymbolTableRecord
100
AcDbDimStyleTableRecord
  2
Standard
 70
     0
  3

  4

 40
1.0
 41
0.18
 42
0.0625
 43
0.38
 44
0.18
 45
0.0
 46
0.0
 47
0.0
 48
0.0
 71
     0
 72
     0
 73
     1
 74
     1
 75
     0
 76
     0
 77
     0
 78
     0
 79
     0
140
0.18
141
0.09
142
0.0
143
25.4
144
1.0
145
0.0
146
1.0
147
0.09
148
0.0
170
     0
171
     2
172
     0
173
     0
174
     0
175
     0
176
     0
177
     0
178
     0
179
     0
271
     4
272
     4
273
     2
274
     2
275
     0
276
     0
277
     2
278
    46
279
     0
280
     0
281
     0
282
     0
283
     1
284
     0
285
     0
286
     0
288
     0
340
17
341
0
342
0
343
0
344
0
371
    -2
372
    -2
  0
ENDTAB
  0
TABLE
  2
BLOCK_RECORD
  5
1
100
AcDbSymbolTable
 70
     1
  0
BLOCK_RECORD
  5
A
100
AcDbSymbolTableRecord
100
AcDbBlockTableRecord
  2
*MODEL_SPACE
340
20
  0
BLOCK_RECORD
  5
B
100
AcDbSymbolTableRecord
100
AcDbBlockTableRecord
  2
*PAPER_SPACE
340
21
  0
BLOCK_RECORD
  5
C7
100
AcDbSymbolTableRecord
100
AcDbBlockTableRecord
  2
ZU_SYM__USERS_HOME_SYMBOL_POO_SYM_B20_-1
340
0
102
{BLKREFS
331
CF
102
}
  0
ENDTAB
  0
ENDSEC
  0
SECTION
  2
BLOCKS
  0
BLOCK
  5
D
100
AcDbEntity
  8
0
100
AcDbBlockBegin
  2
*MODEL_SPACE
 70
     0
 10
0.0
 20
0.0
 30
0.0
  3
*MODEL_SPACE
  1

  0
ENDBLK
  5
E
100
AcDbEntity
  8
0
100
AcDbBlockEnd
  0
BLOCK
  5
F
100
AcDbEntity
 67
     1
  8
0
100
AcDbBlockBegin
  2
*PAPER_SPACE
 70
     0
 10
0.0
 20
0.0
 30
0.0
  3
*PAPER_SPACE
  1

  0
ENDBLK
  5
10
100
AcDbEntity
 67
     1
  8
0
100
AcDbBlockEnd
  0
BLOCK
  5
C8
100
AcDbEntity
  8
0
100
AcDbBlockBegin
  2
ZU_SYM__USERS_HOME_SYMBOL_POO_SYM_B20_-1
 70
    64
 10
0.0
 20
0.0
 30
0.0
  3
ZU_SYM__USERS_HOME_SYMBOL_POO_SYM_B20_-1
  1

  0
LINE
  5
C9
100
AcDbEntity
  8
0
370
    -3
  6
Continuous
100
AcDbLine
 10
0.0
 20
-5.0
 30
0.0
 11
-6.0
 21
-5.0
 31
0.0
  0
LINE
  5
CA
100
AcDbEntity
  8
0
370
    -3
  6
Continuous
100
AcDbLine
 10
0.0
 20
5.0
 30
0.0
 11
-6.0
 21
5.0
 31
0.0
  0
LINE
  5
CB
100
AcDbEntity
  8
0
370
    -3
  6
Continuous
100
AcDbLine
 10
-6.0
 20
-5.0
 30
0.0
 11
-6.0
 21
5.0
 31
0.0
  0
LINE
  5
CC
100
AcDbEntity
  8
0
370
    -3
  6
Continuous
100
AcDbLine
 10
0.0
 20
5.0
 30
0.0
 11
0.0
 21
-5.0
 31
0.0
  0
POINT
  5
CD
100
AcDbEntity
  8
0
370
    -3
  6
Continuous
100
AcDbPoint
 10
0.0
 20
0.0
 30
0.0
  0
ENDBLK
  5
CE
100
AcDbEntity
  8
0
100
AcDbBlockEnd
  0
ENDSEC
  0
SECTION
  2
ENTITIES
  0
LINE
  5
2A
100
AcDbEntity
  8
0
370
    -3
  6
Continuous
100
AcDbLine
 10
-129.853912
 20
-122.774818
 30
0.0
 11
-129.853912
 21
-64.274818
 31
0.0
  0
LINE
  5
2B
100
AcDbEntity
  8
0
370
    -3
  6
Continuous
100
AcDbLine
 10
-129.853912
 20
-5.774818
 30
0.0
 11
-129.853912
 21
-64.274818
 31
0.0
  0
LINE
  5
2C
100
AcDbEntity
  8
0
370
    -3
  6
Continuous
100
AcDbLine
 10
-129.853912
 20
-64.274818
 30
0.0
 11
-129.853912
 21
-114.929789
 31
0.0
  0
LINE
  5
2D
100
AcDbEntity
  8
0
370
    -3
  6
Continuous
100
AcDbLine
 10
-129.853912
 20
-64.274818
 30
0.0
 11
-129.853912
 21
-5.774818
 31
0.0
  0
LINE
  5
2E
100
AcDbEntity
  8
0
370
    -3
  6
Continuous
100
AcDbLine
 10
-129.853912
 20
-5.76609
 30
0.0
 11
-108.353912
 21
-5.390806
 31
0.0
  0
LINE
  5
2F
100
AcDbEntity
  8
0
370
    -3
  6
Continuous
100
AcDbLine
 10
-105.353912
 20
-71.274818
 30
0.0
 11
-105.353912
 21
-118.883003
 31
0.0
  0
LINE
  5
30
100
AcDbEntity
  8
0
370
    -3
  6
Continuous
100
AcDbLine
 10
-102.353912
 20
-128.274818
 30
0.0
 11
-96.353912
 21
-128.274818
 31
0.0
  0
ARC
  5
31
100
AcDbEntity
  8
0
370
    -3
  6
Continuous
100
AcDbCircle
 10
-101.853912
 20
-126.274818
 30
0.0
 40
2.0
100
AcDbArc
 50
228.590378
 51
255.522488
  0
LINE
  5
32
100
AcDbEntity
  8
0
370
    -3
  6
Continuous
100
AcDbLine
 10
-105.353912
 20
-117.774818
 30
0.0
 11
-108.353912
 21
-117.774818
 31
0.0
  0
LINE
  5
33
100
AcDbEntity
  8
0
370
    -3
  6
Continuous
100
AcDbLine
 10
-104.353912
 20
-119.883003
 30
0.0
 11
-102.453912
 21
-119.883003
 31
0.0
  0
ARC
  5
34
100
AcDbEntity
  8
0
370
    -3
  6
Continuous
100
AcDbCircle
 10
-102.453912
 20
-119.983003
 30
0.0
 40
0.1
100
AcDbArc
 50
0.0
 51
90.0
  0
LINE
  5
35
100
AcDbEntity
  8
0
370
    -3
  6
Continuous
100
AcDbLine
 10
-102.353912
 20
-119.983003
 30
0.0
 11
-102.353912
 21
-128.274818
 31
0.0
  0
ARC
  5
36
100
AcDbEntity
  8
0
370
    -3
  6
Continuous
100
AcDbCircle
 10
-102.253912
 20
-128.174818
 30
0.0
 40
0.1
100
AcDbArc
 50
180.0
 51
270.0
  0
LINE
  5
37
100
AcDbEntity
  8
0
370
    -3
  6
Continuous
100
AcDbLine
 10
-102.353912
 20
-128.174818
 30
0.0
 11
-102.353912
 21
-120.883003
 31
0.0
  0
ARC
  5
38
100
AcDbEntity
  8
0
370
    -3
  6
Continuous
100
AcDbCircle
 10
-102.453912
 20
-2.841635
 30
0.0
 40
0.1
100
AcDbArc
 50
270.0
 51
0.0
  0
LINE
  5
39
100
AcDbEntity
  8
0
370
    -3
  6
Continuous
100
AcDbLine
 10
-102.353912
 20
-2.841635
 30
0.0
 11
-102.353912
 21
0.495892
 31
0.0
  0
LINE
  5
3A
100
AcDbEntity
  8
0
370
    -3
  6
Continuous
100
AcDbLine
 10
-104.353912
 20
-2.941635
 30
0.0
 11
-102.453912
 21
-2.941635
 31
0.0
  0
ARC
  5
3B
100
AcDbEntity
  8
0
370
    -3
  6
Continuous
100
AcDbCircle
 10
-102.453912
 20
0.495892
 30
0.0
 40
0.1
100
AcDbArc
 50
0.0
 51
90.0
  0
LINE
  5
3C
100
AcDbEntity
  8
0
370
    -3
  6
Continuous
100
AcDbLine
 10
-104.353912
 20
0.595892
 30
0.0
 11
-102.453912
 21
0.595892
 31
0.0
  0
ARC
  5
3D
100
AcDbEntity
  8
0
370
    -3
  6
Continuous
100
AcDbCircle
 10
-102.453912
 20
-72.424818
 30
0.0
 40
0.1
100
AcDbArc
 50
270.0
 51
0.0
  0
LINE
  5
3E
100
AcDbEntity
  8
0
370
    -3
  6
Continuous
100
AcDbLine
 10
-102.353912
 20
-72.424818
 30
0.0
 11
-102.353912
 21
-60.124818
 31
0.0
  0
LINE
  5
3F
100
AcDbEntity
  8
0
370
    -3
  6
Continuous
100
AcDbLine
 10
-104.353912
 20
-72.524818
 30
0.0
 11
-102.453912
 21
-72.524818
 31
0.0
  0
ARC
  5
40
100
AcDbEntity
  8
0
370
    -3
  6
Continuous
100
AcDbCircle
 10
-102.453912
 20
-60.124818
 30
0.0
 40
0.1
100
AcDbArc
 50
0.0
 51
90.0
  0
LINE
  5
41
100
AcDbEntity
  8
0
370
    -3
  6
Continuous
100
AcDbLine
 10
-104.353912
 20
-60.024818
 30
0.0
 11
-102.453912
 21
-60.024818
 31
0.0
  0
LINE
  5
42
100
AcDbEntity
  8
0
370
    -3
  6
Continuous
100
AcDbLine
 10
-105.353912
 20
-3.941635
 30
0.0
 11
-105.353912
 21
-61.274818
 31
0.0
  0
LINE
  5
43
100
AcDbEntity
  8
0
370
    -3
  6
Continuous
100
AcDbLine
 10
-129.853912
 20
-64.274818
 30
0.0
 11
-129.853912
 21
-5.774818
 31
0.0
  0
LINE
  5
44
100
AcDbEntity
  8
0
370
    -3
  6
Continuous
100
AcDbLine
 10
-129.853912
 20
-5.76609
 30
0.0
 11
-108.353912
 21
-5.390806
 31
0.0
  0
LINE
  5
45
100
AcDbEntity
  8
0
370
    -3
  6
Continuous
100
AcDbLine
 10
-129.853912
 20
-64.274818
 30
0.0
 11
-129.853912
 21
-122.774818
 31
0.0
  0
LINE
  5
46
100
AcDbEntity
  8
0
370
    -3
  6
Continuous
100
AcDbLine
 10
-129.853912
 20
-122.783545
 30
0.0
 11
-108.353912
 21
-123.158829
 31
0.0
  0
LINE
  5
47
100
AcDbEntity
  8
0
370
    -3
  6
Continuous
100
AcDbLine
 10
-105.353912
 20
0.725182
 30
0.0
 11
-105.353912
 21
-3.979335
 31
0.0
  0
POINT
  5
48
100
AcDbEntity
  8
0
370
    -3
  6
Continuous
100
AcDbPoint
 10
-102.353912
 20
-122.774818
 30
0.0
  0
LINE
  5
49
100
AcDbEntity
  8
0
370
    -3
  6
Continuous
100
AcDbLine
 10
-102.353912
 20
-127.774818
 30
0.0
 11
-108.353912
 21
-127.774818
 31
0.0
  0
LINE
  5
4A
100
AcDbEntity
  8
0
370
    -3
  6
Continuous
100
AcDbLine
 10
-108.353912
 20
-127.774818
 30
0.0
 11
-108.353912
 21
-117.774818
 31
0.0
  0
ARC
  5
4B
100
AcDbEntity
  8
0
370
    -3
  6
Continuous
100
AcDbCircle
 10
-104.353912
 20
-118.883003
 30
0.0
 40
1.0
100
AcDbArc
 50
180.0
 51
270.0
  0
ARC
  5
4C
100
AcDbEntity
  8
0
370
    -3
  6
Continuous
100
AcDbCircle
 10
-104.353912
 20
-0.404108
 30
0.0
 40
1.0
100
AcDbArc
 50
90.0
 51
180.0
  0
ARC
  5
4D
100
AcDbEntity
  8
0
370
    -3
  6
Continuous
100
AcDbCircle
 10
-104.353912
 20
-3.941635
 30
0.0
 40
1.0
100
AcDbArc
 50
90.0
 51
180.0
  0
ARC
  5
4E
100
AcDbEntity
  8
0
370
    -3
  6
Continuous
100
AcDbCircle
 10
-104.353912
 20
-59.024818
 30
0.0
 40
1.0
100
AcDbArc
 50
180.0
 51
270.0
  0
ARC
  5
4F
100
AcDbEntity
  8
0
370
    -3
  6
Continuous
100
AcDbCircle
 10
-104.353912
 20
-73.524818
 30
0.0
 40
1.0
100
AcDbArc
 50
90.0
 51
180.0
  0
ARC
  5
50
100
AcDbEntity
  8
0
370
    -3
  6
Continuous
100
AcDbCircle
 10
-105.353912
 20
-52.542767
 30
0.0
 40
1.0
100
AcDbArc
 50
180.0
 51
240.0
  0
LINE
  5
51
100
AcDbEntity
  8
0
370
    -3
  6
Continuous
100
AcDbLine
 10
-106.353912
 20
-38.006869
 30
0.0
 11
-106.353912
 21
-52.542767
 31
0.0
  0
ARC
  5
52
100
AcDbEntity
  8
0
370
    -3
  6
Continuous
100
AcDbCircle
 10
-106.353912
 20
-54.274818
 30
0.0
 40
1.0
100
AcDbArc
 50
0.0
 51
60.0
  0
ARC
  5
53
100
AcDbEntity
  8
0
370
    -3
  6
Continuous
100
AcDbCircle
 10
-105.353912
 20
-38.006869
 30
0.0
 40
1.0
100
AcDbArc
 50
120.0
 51
180.0
  0
ARC
  5
54
100
AcDbEntity
  8
0
370
    -3
  6
Continuous
100
AcDbCircle
 10
-106.353912
 20
-36.274818
 30
0.0
 40
1.0
100
AcDbArc
 50
300.0
 51
0.0
  0
LINE
  5
55
100
AcDbEntity
  8
0
370
    -3
  6
Continuous
100
AcDbLine
 10
-96.353912
 20
-128.274818
 30
0.0
 11
-96.353912
 21
-64.274818
 31
0.0
  0
LINE
  5
56
100
AcDbEntity
  8
0
370
    -3
  6
Continuous
100
AcDbLine
 10
-96.353912
 20
1.725182
 30
0.0
 11
-96.353912
 21
-64.274818
 31
0.0
  0
LINE
  5
57
100
AcDbEntity
  8
0
370
    -3
  6
Continuous
100
AcDbLine
 10
-104.353912
 20
1.725182
 30
0.0
 11
-96.353912
 21
1.725182
 31
0.0
  0
ARC
  5
58
100
AcDbEntity
  8
0
370
    -3
  6
Continuous
100
AcDbCircle
 10
-104.353912
 20
0.725182
 30
0.0
 40
1.0
100
AcDbArc
 50
90.0
 51
180.0
  0
LINE
  5
59
100
AcDbEntity
  8
0
370
    -3
  6
Continuous
100
AcDbLine
 10
-13.853912
 20
-44.274818
 30
0.0
 11
-13.853912
 21
-65.252195
 31
0.0
  0
LINE
  5
5A
100
AcDbEntity
  8
0
370
    -3
  6
Continuous
100
AcDbLine
 10
-13.853912
 20
-44.274818
 30
0.0
 11
-13.853912
 21
-23.29744
 31
0.0
  0
LINE
  5
5B
100
AcDbEntity
  8
0
370
    -3
  6
Continuous
100
AcDbLine
 10
-29.853912
 20
35.725182
 30
0.0
 11
-33.380089
 21
35.632846
 31
0.0
  0
LINE
  5
5C
100
AcDbEntity
  8
0
370
    -3
  6
Continuous
100
AcDbLine
 10
-22.353912
 20
35.528788
 30
0.0
 11
-29.853912
 21
35.725182
 31
0.0
  0
LINE
  5
5D
100
AcDbEntity
  8
0
370
    -3
  6
CENTER
100
AcDbLine
 10
27.651203
 20
-44.274818
 30
0.0
 11
-52.649411
 21
-44.274818
 31
0.0
  0
LINE
  5
5E
100
AcDbEntity
  8
0
370
    -3
  6
Continuous
100
AcDbLine
 10
-95.853912
 20
-128.274818
 30
0.0
 11
-29.86143
 21
-129.267186
 31
0.0
  0
LINE
  5
5F
100
AcDbEntity
  8
0
370
    -3
  6
Continuous
100
AcDbLine
 10
-47.454772
 20
4.0251
 30
0.0
 11
-34.755836
 21
26.020302
 31
0.0
  0
LINE
  5
60
100
AcDbEntity
  8
0
370
    -3
  6
Continuous
100
AcDbLine
 10
-20.133238
 20
-119.274818
 30
0.0
 11
-19.353912
 21
-118.474818
 31
0.0
  0
LINE
  5
61
100
AcDbEntity
  8
0
370
    -3
  6
Continuous
100
AcDbLine
 10
-20.133238
 20
30.725182
 30
0.0
 11
-19.353912
 21
29.925182
 31
0.0
  0
ARC
  5
62
100
AcDbEntity
  8
0
370
    -3
  6
Continuous
100
AcDbCircle
 10
-33.353912
 20
34.633189
 30
0.0
 40
1.0
100
AcDbArc
 50
91.5
 51
180.0
  0
ARC
  5
63
100
AcDbEntity
  8
0
370
    -3
  6
Continuous
100
AcDbCircle
 10
-29.853912
 20
-128.767243
 30
0.0
 40
0.5
100
AcDbArc
 50
269.138474
 51
0.0
  0
ARC
  5
64
100
AcDbEntity
  8
0
370
    -3
  6
Continuous
100
AcDbCircle
 10
-37.353912
 20
27.520302
 30
0.0
 40
3.0
100
AcDbArc
 50
330.0
 51
0.0
  0
ARC
  5
65
100
AcDbEntity
  8
0
370
    -3
  6
Continuous
100
AcDbCircle
 10
-50.052848
 20
5.5251
 30
0.0
 40
3.0
100
AcDbArc
 50
271.0
 51
330.0
  0
ARC
  5
66
100
AcDbEntity
  8
0
370
    -3
  6
Continuous
100
AcDbCircle
 10
-15.853912
 20
-23.29744
 30
0.0
 40
2.0
100
AcDbArc
 50
0.0
 51
54.162347
  0
ARC
  5
67
100
AcDbEntity
  8
0
370
    -3
  6
Continuous
100
AcDbCircle
 10
-15.853912
 20
-65.252195
 30
0.0
 40
2.0
100
AcDbArc
 50
305.837653
 51
0.0
  0
LINE
  5
68
100
AcDbEntity
  8
0
370
    -3
  6
Continuous
100
AcDbLine
 10
-95.853912
 20
1.725182
 30
0.0
 11
-95.853912
 21
-128.274818
 31
0.0
  0
LINE
  5
69
100
AcDbEntity
  8
0
370
    -3
  6
Continuous
100
AcDbLine
 10
-20.133238
 20
30.725182
 30
0.0
 11
-22.353912
 21
30.725182
 31
0.0
  0
LINE
  5
6A
100
AcDbEntity
  8
0
370
    -3
  6
Continuous
100
AcDbLine
 10
-20.133238
 20
-119.274818
 30
0.0
 11
-22.353912
 21
-119.274818
 31
0.0
  0
LINE
  5
6B
100
AcDbEntity
  8
0
370
    -3
  6
Continuous
100
AcDbLine
 10
-22.353912
 20
-44.274818
 30
0.0
 11
-22.353912
 21
35.515695
 31
0.0
  0
LINE
  5
6C
100
AcDbEntity
  8
0
370
    -3
  6
Continuous
100
AcDbLine
 10
-19.353912
 20
-44.274818
 30
0.0
 11
-19.353912
 21
29.925182
 31
0.0
  0
LINE
  5
6D
100
AcDbEntity
  8
0
370
    -3
  6
Continuous
100
AcDbLine
 10
-19.353912
 20
-44.274818
 30
0.0
 11
-19.353912
 21
-118.474818
 31
0.0
  0
LINE
  5
6E
100
AcDbEntity
  8
0
370
    -3
  6
Continuous
100
AcDbLine
 10
-14.682931
 20
-66.873554
 30
0.0
 11
-19.353912
 21
-70.24704
 31
0.0
  0
LINE
  5
6F
100
AcDbEntity
  8
0
370
    -3
  6
Continuous
100
AcDbLine
 10
-14.682931
 20
-21.676082
 30
0.0
 11
-19.353912
 21
-18.302596
 31
0.0
  0
LINE
  5
70
100
AcDbEntity
  8
0
370
    -3
  6
Continuous
100
AcDbLine
 10
-29.853912
 20
-124.274818
 30
0.0
 11
-33.380089
 21
-124.182482
 31
0.0
  0
ARC
  5
71
100
AcDbEntity
  8
0
370
    -3
  6
Continuous
100
AcDbCircle
 10
-33.353912
 20
-123.182824
 30
0.0
 40
1.0
100
AcDbArc
 50
180.0
 51
268.5
  0
LINE
  5
72
100
AcDbEntity
  8
0
370
    -3
  6
Continuous
100
AcDbLine
 10
-22.353912
 20
-124.078423
 30
0.0
 11
-29.853912
 21
-124.274818
 31
0.0
  0
LINE
  5
73
100
AcDbEntity
  8
0
370
    -3
  6
Continuous
100
AcDbLine
 10
-22.353912
 20
-44.274818
 30
0.0
 11
-22.353912
 21
-124.078423
 31
0.0
  0
LINE
  5
74
100
AcDbEntity
  8
0
370
    -3
  6
Continuous
100
AcDbLine
 10
-34.353912
 20
-123.182824
 30
0.0
 11
-34.353912
 21
34.633189
 31
0.0
  0
ARC
  5
75
100
AcDbEntity
  8
0
370
    -3
  6
Continuous
100
AcDbCircle
 10
-27.353912
 20
16.754619
 30
0.0
 40
2.0
100
AcDbArc
 50
90.0
 51
180.0
  0
LINE
  5
76
100
AcDbEntity
  8
0
370
    -3
  6
Continuous
100
AcDbLine
 10
-22.353912
 20
18.754619
 30
0.0
 11
-27.353912
 21
18.754619
 31
0.0
  0
LINE
  5
77
100
AcDbEntity
  8
0
370
    -3
  6
Continuous
100
AcDbLine
 10
-27.353912
 20
-39.274818
 30
0.0
 11
-22.353912
 21
-39.274818
 31
0.0
  0
ARC
  5
78
100
AcDbEntity
  8
0
370
    -3
  6
Continuous
100
AcDbCircle
 10
-27.353912
 20
-37.274818
 30
0.0
 40
2.0
100
AcDbArc
 50
180.0
 51
270.0
  0
LINE
  5
79
100
AcDbEntity
  8
0
370
    -3
  6
Continuous
100
AcDbLine
 10
-27.353912
 20
0.418314
 30
0.0
 11
-22.353912
 21
0.418314
 31
0.0
  0
ARC
  5
7A
100
AcDbEntity
  8
0
370
    -3
  6
Continuous
100
AcDbCircle
 10
-27.353912
 20
-1.581686
 30
0.0
 40
2.0
100
AcDbArc
 50
90.0
 51
180.0
  0
ARC
  5
7B
100
AcDbEntity
  8
0
370
    -3
  6
Continuous
100
AcDbCircle
 10
-27.353912
 20
-105.304255
 30
0.0
 40
2.0
100
AcDbArc
 50
180.0
 51
270.0
  0
LINE
  5
7C
100
AcDbEntity
  8
0
370
    -3
  6
Continuous
100
AcDbLine
 10
-22.353912
 20
-107.304255
 30
0.0
 11
-27.353912
 21
-107.304255
 31
0.0
  0
LINE
  5
7D
100
AcDbEntity
  8
0
370
    -3
  6
Continuous
100
AcDbLine
 10
-27.353912
 20
-49.274818
 30
0.0
 11
-22.353912
 21
-49.274818
 31
0.0
  0
ARC
  5
7E
100
AcDbEntity
  8
0
370
    -3
  6
Continuous
100
AcDbCircle
 10
-27.353912
 20
-51.274818
 30
0.0
 40
2.0
100
AcDbArc
 50
90.0
 51
180.0
  0
LINE
  5
7F
100
AcDbEntity
  8
0
370
    -3
  6
Continuous
100
AcDbLine
 10
-27.353912
 20
-88.96795
 30
0.0
 11
-22.353912
 21
-88.96795
 31
0.0
  0
ARC
  5
80
100
AcDbEntity
  8
0
370
    -3
  6
Continuous
100
AcDbCircle
 10
-27.353912
 20
-86.96795
 30
0.0
 40
2.0
100
AcDbArc
 50
180.0
 51
270.0
  0
LINE
  5
81
100
AcDbEntity
  8
0
370
    -3
  6
Continuous
100
AcDbLine
 10
-29.353912
 20
-105.304255
 30
0.0
 11
-29.353912
 21
-51.274818
 31
0.0
  0
LINE
  5
82
100
AcDbEntity
  8
0
370
    -3
  6
Continuous
100
AcDbLine
 10
-29.353912
 20
-37.274818
 30
0.0
 11
-29.353912
 21
16.754619
 31
0.0
  0
LINE
  5
83
100
AcDbEntity
  8
0
370
    -3
  6
Continuous
100
AcDbLine
 10
-29.353912
 20
-124.261725
 30
0.0
 11
-29.353912
 21
-128.767243
 31
0.0
  0
ARC
  5
84
100
AcDbEntity
  8
0
370
    -3
  6
Continuous
100
AcDbCircle
 10
-37.353912
 20
13.26862
 30
0.0
 40
3.0
100
AcDbArc
 50
319.523455
 51
0.0
  0
LINE
  5
85
100
AcDbEntity
  8
0
370
    -3
  6
Continuous
100
AcDbLine
 10
-47.40518
 20
-3.131185
 30
0.0
 11
-35.071897
 21
11.321209
 31
0.0
  0
ARC
  5
86
100
AcDbEntity
  8
0
370
    -3
  6
Continuous
100
AcDbCircle
 10
-49.687195
 20
-1.183775
 30
0.0
 40
3.0
100
AcDbArc
 50
270.0
 51
319.523455
  0
ARC
  5
87
100
AcDbEntity
  8
0
370
    -3
  6
Continuous
100
AcDbCircle
 10
-49.687195
 20
2.473079
 30
0.0
 40
3.0
100
AcDbArc
 50
270.0
 51
319.523455
  0
ARC
  5
88
100
AcDbEntity
  8
0
370
    -3
  6
Continuous
100
AcDbCircle
 10
-37.353912
 20
16.925474
 30
0.0
 40
3.0
100
AcDbArc
 50
319.523455
 51
0.0
  0
LINE
  5
89
100
AcDbEntity
  8
0
370
    -3
  6
Continuous
100
AcDbLine
 10
-47.40518
 20
0.525669
 30
0.0
 11
-35.071897
 21
14.978064
 31
0.0
  0
LINE
  5
8A
100
AcDbEntity
  8
0
370
    -3
  6
Continuous
100
AcDbLine
 10
-36.205815
 20
-4.183775
 30
0.0
 11
-46.566185
 21
-4.183775
 31
0.0
  0
LINE
  5
8B
100
AcDbEntity
  8
0
370
    -3
  6
Continuous
100
AcDbLine
 10
-95.853912
 20
1.725182
 30
0.0
 11
-45.63348
 21
2.601783
 31
0.0
  0
LINE
  5
8C
100
AcDbEntity
  8
0
370
    -3
  6
CENTER
100
AcDbLine
 10
-10.631079
 20
24.668093
 30
0.0
 11
-43.468267
 21
24.668093
 31
0.0
  0
LINE
  5
8D
100
AcDbEntity
  8
0
370
    -3
  6
CENTER
100
AcDbLine
 10
-10.631079
 20
-113.217729
 30
0.0
 11
-43.468267
 21
-113.217729
 31
0.0
  0
LINE
  5
8E
100
AcDbEntity
  8
0
370
    -3
  6
Continuous
100
AcDbLine
 10
24.146088
 20
-41.274818
 30
0.0
 11
-4.853912
 21
-41.274818
 31
0.0
  0
LINE
  5
8F
100
AcDbEntity
  8
0
370
    -3
  6
Continuous
100
AcDbLine
 10
24.146088
 20
-47.274818
 30
0.0
 11
-4.853912
 21
-47.274818
 31
0.0
  0
ARC
  5
90
100
AcDbEntity
  8
0
370
    -3
  6
Continuous
100
AcDbCircle
 10
-4.853912
 20
-44.274818
 30
0.0
 40
3.0
100
AcDbArc
 50
90.0
 51
270.0
  0
LINE
  5
91
100
AcDbEntity
  8
0
370
    -3
  6
Continuous
100
AcDbLine
 10
24.146088
 20
-44.274818
 30
0.0
 11
24.146088
 21
-33.674818
 31
0.0
  0
LINE
  5
92
100
AcDbEntity
  8
0
370
    -3
  6
Continuous
100
AcDbLine
 10
23.746088
 20
-33.274818
 30
0.0
 11
-9.294105
 21
-33.274818
 31
0.0
  0
LINE
  5
93
100
AcDbEntity
  8
0
370
    -3
  6
Continuous
100
AcDbLine
 10
23.746088
 20
-33.274818
 30
0.0
 11
-9.294105
 21
-33.274818
 31
0.0
  0
ARC
  5
94
100
AcDbEntity
  8
0
370
    -3
  6
Continuous
100
AcDbCircle
 10
23.746088
 20
-33.674818
 30
0.0
 40
0.4
100
AcDbArc
 50
0.0
 51
90.0
  0
LINE
  5
95
100
AcDbEntity
  8
0
370
    -3
  6
Continuous
100
AcDbLine
 10
-13.853912
 20
-32.274818
 30
0.0
 11
-12.253912
 21
-32.274818
 31
0.0
  0
LINE
  5
96
100
AcDbEntity
  8
0
370
    -3
  6
Continuous
100
AcDbLine
 10
-11.853912
 20
-44.274818
 30
0.0
 11
-11.853912
 21
-32.674818
 31
0.0
  0
LINE
  5
97
100
AcDbEntity
  8
0
370
    -3
  6
Continuous
100
AcDbLine
 10
-9.853912
 20
-33.424818
 30
0.0
 11
-11.053912
 21
-33.424818
 31
0.0
  0
LINE
  5
98
100
AcDbEntity
  8
0
370
    -3
  6
Continuous
100
AcDbLine
 10
-9.294105
 20
-33.274818
 30
0.0
 11
-9.853912
 21
-33.424818
 31
0.0
  0
LINE
  5
99
100
AcDbEntity
  8
0
370
    -3
  6
Continuous
100
AcDbLine
 10
-11.853912
 20
-32.674818
 30
0.0
 11
-12.253912
 21
-32.274818
 31
0.0
  0
ARC
  5
9A
100
AcDbEntity
  8
0
370
    -3
  6
Continuous
100
AcDbCircle
 10
-11.053912
 20
-32.624818
 30
0.0
 40
0.8
100
AcDbArc
 50
183.703197
 51
270.0
  0
LINE
  5
9B
100
AcDbEntity
  8
0
370
    -3
  6
Continuous
100
AcDbLine
 10
-9.853912
 20
-33.424818
 30
0.0
 11
-11.053912
 21
-33.424818
 31
0.0
  0
LINE
  5
9C
100
AcDbEntity
  8
0
370
    -3
  6
Continuous
100
AcDbLine
 10
-9.294105
 20
-33.274818
 30
0.0
 11
-9.853912
 21
-33.424818
 31
0.0
  0
LINE
  5
9D
100
AcDbEntity
  8
0
370
    -3
  6
Continuous
100
AcDbLine
 10
-11.853912
 20
-32.674818
 30
0.0
 11
-12.253912
 21
-32.274818
 31
0.0
  0
LINE
  5
9E
100
AcDbEntity
  8
0
370
    -3
  6
Continuous
100
AcDbLine
 10
-13.853912
 20
-32.274818
 30
0.0
 11
-12.253912
 21
-32.274818
 31
0.0
  0
LINE
  5
9F
100
AcDbEntity
  8
0
370
    -3
  6
Continuous
100
AcDbLine
 10
-13.853912
 20
-56.274818
 30
0.0
 11
-12.253912
 21
-56.274818
 31
0.0
  0
LINE
  5
A0
100
AcDbEntity
  8
0
370
    -3
  6
Continuous
100
AcDbLine
 10
-11.853912
 20
-44.274818
 30
0.0
 11
-11.853912
 21
-55.874818
 31
0.0
  0
LINE
  5
A1
100
AcDbEntity
  8
0
370
    -3
  6
Continuous
100
AcDbLine
 10
-9.853912
 20
-55.124818
 30
0.0
 11
-11.053912
 21
-55.124818
 31
0.0
  0
LINE
  5
A2
100
AcDbEntity
  8
0
370
    -3
  6
Continuous
100
AcDbLine
 10
-9.294105
 20
-55.274818
 30
0.0
 11
-9.853912
 21
-55.124818
 31
0.0
  0
LINE
  5
A3
100
AcDbEntity
  8
0
370
    -3
  6
Continuous
100
AcDbLine
 10
-11.853912
 20
-55.874818
 30
0.0
 11
-12.253912
 21
-56.274818
 31
0.0
  0
LINE
  5
A4
100
AcDbEntity
  8
0
370
    -3
  6
Continuous
100
AcDbLine
 10
23.746088
 20
-55.274818
 30
0.0
 11
-9.294105
 21
-55.274818
 31
0.0
  0
ARC
  5
A5
100
AcDbEntity
  8
0
370
    -3
  6
Continuous
100
AcDbCircle
 10
-11.053912
 20
-55.924818
 30
0.0
 40
0.8
100
AcDbArc
 50
90.0
 51
176.296803
  0
LINE
  5
A6
100
AcDbEntity
  8
0
370
    -3
  6
Continuous
100
AcDbLine
 10
-9.853912
 20
-55.124818
 30
0.0
 11
-11.053912
 21
-55.124818
 31
0.0
  0
LINE
  5
A7
100
AcDbEntity
  8
0
370
    -3
  6
Continuous
100
AcDbLine
 10
-9.294105
 20
-55.274818
 30
0.0
 11
-9.853912
 21
-55.124818
 31
0.0
  0
LINE
  5
A8
100
AcDbEntity
  8
0
370
    -3
  6
Continuous
100
AcDbLine
 10
-11.853912
 20
-55.874818
 30
0.0
 11
-12.253912
 21
-56.274818
 31
0.0
  0
LINE
  5
A9
100
AcDbEntity
  8
0
370
    -3
  6
Continuous
100
AcDbLine
 10
23.746088
 20
-55.274818
 30
0.0
 11
-9.294105
 21
-55.274818
 31
0.0
  0
LINE
  5
AA
100
AcDbEntity
  8
0
370
    -3
  6
Continuous
100
AcDbLine
 10
-13.853912
 20
-56.274818
 30
0.0
 11
-12.253912
 21
-56.274818
 31
0.0
  0
LINE
  5
AB
100
AcDbEntity
  8
0
370
    -3
  6
Continuous
100
AcDbLine
 10
24.146088
 20
-44.274818
 30
0.0
 11
24.146088
 21
-54.874818
 31
0.0
  0
ARC
  5
AC
100
AcDbEntity
  8
0
370
    -3
  6
Continuous
100
AcDbCircle
 10
23.746088
 20
-54.874818
 30
0.0
 40
0.4
100
AcDbArc
 50
270.0
 51
0.0
  0
LINE
  5
AD
100
AcDbEntity
  8
0
370
    -3
  6
Continuous
100
AcDbLine
 10
-129.853912
 20
-6.774818
 30
0.0
 11
-108.353912
 21
-6.774818
 31
0.0
  0
LINE
  5
AE
100
AcDbEntity
  8
0
370
    -3
  6
Continuous
100
AcDbLine
 10
-129.853912
 20
-7.274818
 30
0.0
 11
-108.353912
 21
-7.274818
 31
0.0
  0
LINE
  5
AF
100
AcDbEntity
  8
0
370
    -3
  6
Continuous
100
AcDbLine
 10
-129.853912
 20
-8.274818
 30
0.0
 11
-108.353912
 21
-8.274818
 31
0.0
  0
LINE
  5
B0
100
AcDbEntity
  8
0
370
    -3
  6
Continuous
100
AcDbLine
 10
-129.853912
 20
-9.274818
 30
0.0
 11
-108.353912
 21
-9.274818
 31
0.0
  0
LINE
  5
B1
100
AcDbEntity
  8
0
370
    -3
  6
Continuous
100
AcDbLine
 10
-129.853912
 20
-13.959284
 30
0.0
 11
-105.353912
 21
-13.959284
 31
0.0
  0
LINE
  5
B2
100
AcDbEntity
  8
0
370
    -3
  6
Continuous
100
AcDbLine
 10
-129.853912
 20
-18.909031
 30
0.0
 11
-105.353912
 21
-18.909031
 31
0.0
  0
LINE
  5
B3
100
AcDbEntity
  8
0
370
    -3
  6
Continuous
100
AcDbLine
 10
-129.853912
 20
-26.955633
 30
0.0
 11
-105.353912
 21
-26.955633
 31
0.0
  0
LINE
  5
B4
100
AcDbEntity
  8
0
370
    -3
  6
Continuous
100
AcDbLine
 10
-129.853912
 20
-28.560281
 30
0.0
 11
-105.353912
 21
-28.560281
 31
0.0
  0
LINE
  5
B5
100
AcDbEntity
  8
0
370
    -3
  6
Continuous
100
AcDbLine
 10
-129.853912
 20
-32.524026
 30
0.0
 11
-105.353912
 21
-32.524026
 31
0.0
  0
LINE
  5
B6
100
AcDbEntity
  8
0
370
    -3
  6
Continuous
100
AcDbLine
 10
-129.853912
 20
-33.992384
 30
0.0
 11
-105.353912
 21
-33.992384
 31
0.0
  0
LINE
  5
B7
100
AcDbEntity
  8
0
370
    -3
  6
Continuous
100
AcDbLine
 10
-129.853912
 20
-38.082884
 30
0.0
 11
-106.353912
 21
-38.082884
 31
0.0
  0
LINE
  5
B8
100
AcDbEntity
  8
0
370
    -3
  6
Continuous
100
AcDbLine
 10
-129.853912
 20
-39.444764
 30
0.0
 11
-106.353912
 21
-39.444764
 31
0.0
  0
LINE
  5
B9
100
AcDbEntity
  8
0
370
    -3
  6
Continuous
100
AcDbLine
 10
-129.853912
 20
-44.274818
 30
0.0
 11
-106.353912
 21
-44.274818
 31
0.0
  0
LINE
  5
BA
100
AcDbEntity
  8
0
370
    -3
  6
Continuous
100
AcDbLine
 10
-129.853912
 20
-84.274818
 30
0.0
 11
-105.353912
 21
-84.274818
 31
0.0
  0
LINE
  5
BB
100
AcDbEntity
  8
0
370
    -3
  6
Continuous
100
AcDbLine
 10
-129.853912
 20
-89.104871
 30
0.0
 11
-105.353912
 21
-89.104871
 31
0.0
  0
LINE
  5
BC
100
AcDbEntity
  8
0
370
    -3
  6
Continuous
100
AcDbLine
 10
-129.853912
 20
-90.466752
 30
0.0
 11
-105.353912
 21
-90.466752
 31
0.0
  0
LINE
  5
BD
100
AcDbEntity
  8
0
370
    -3
  6
Continuous
100
AcDbLine
 10
-129.853912
 20
-94.557252
 30
0.0
 11
-105.353912
 21
-94.557252
 31
0.0
  0
LINE
  5
BE
100
AcDbEntity
  8
0
370
    -3
  6
Continuous
100
AcDbLine
 10
-129.853912
 20
-96.02561
 30
0.0
 11
-105.353912
 21
-96.02561
 31
0.0
  0
LINE
  5
BF
100
AcDbEntity
  8
0
370
    -3
  6
Continuous
100
AcDbLine
 10
-129.853912
 20
-99.989355
 30
0.0
 11
-105.353912
 21
-99.989355
 31
0.0
  0
LINE
  5
C0
100
AcDbEntity
  8
0
370
    -3
  6
Continuous
100
AcDbLine
 10
-129.853912
 20
-101.594003
 30
0.0
 11
-105.353912
 21
-101.594003
 31
0.0
  0
LINE
  5
C1
100
AcDbEntity
  8
0
370
    -3
  6
Continuous
100
AcDbLine
 10
-129.853912
 20
-109.640605
 30
0.0
 11
-105.353912
 21
-109.640605
 31
0.0
  0
LINE
  5
C2
100
AcDbEntity
  8
0
370
    -3
  6
Continuous
100
AcDbLine
 10
-129.853912
 20
-114.590352
 30
0.0
 11
-105.353912
 21
-114.590352
 31
0.0
  0
LINE
  5
C3
100
AcDbEntity
  8
0
370
    -3
  6
Continuous
100
AcDbLine
 10
-129.853912
 20
-119.274818
 30
0.0
 11
-108.353912
 21
-119.274818
 31
0.0
  0
LINE
  5
C4
100
AcDbEntity
  8
0
370
    -3
  6
Continuous
100
AcDbLine
 10
-129.853912
 20
-120.274818
 30
0.0
 11
-108.353912
 21
-120.274818
 31
0.0
  0
LINE
  5
C5
100
AcDbEntity
  8
0
370
    -3
  6
Continuous
100
AcDbLine
 10
-129.853912
 20
-121.274818
 30
0.0
 11
-108.353912
 21
-121.274818
 31
0.0
  0
LINE
  5
C6
100
AcDbEntity
  8
0
370
    -3
  6
Continuous
100
AcDbLine
 10
-129.853912
 20
-121.774818
 30
0.0
 11
-108.353912
 21
-121.774818
 31
0.0
  0
INSERT
  5
CF
100
AcDbEntity
  8
0
100
AcDbBlockReference
  2
ZU_SYM__USERS_HOME_SYMBOL_POO_SYM_B20_-1
 10
-102.353912
 20
-66.274818
 30
0.0
  0
LINE
  5
D0
100
AcDbEntity
  8
0
370
    -3
  6
Continuous
100
AcDbLine
 10
-105.353912
 20
-3.274818
 30
0.0
 11
-108.353912
 21
-3.274818
 31
0.0
  0
LINE
  5
D1
100
AcDbEntity
  8
0
370
    -3
  6
Continuous
100
AcDbLine
 10
-108.353912
 20
-13.274818
 30
0.0
 11
-108.353912
 21
-3.274818
 31
0.0
  0
LINE
  5
D2
100
AcDbEntity
  8
0
370
    -3
  6
Continuous
100
AcDbLine
 10
-105.353912
 20
-13.274818
 30
0.0
 11
-108.353912
 21
-13.274818
 31
0.0
  0
ARC
  5
D3
100
AcDbEntity
  8
0
370
    -3
  6
Continuous
100
AcDbCircle
 10
153.617236
 20
-122.774818
 30
0.0
 40
9.0
100
AcDbArc
 50
313.761743
 51
330.0
  0
ARC
  5
D4
100
AcDbEntity
  8
0
370
    -3
  6
Continuous
100
AcDbCircle
 10
153.617236
 20
-122.774818
 30
0.0
 40
8.0
100
AcDbArc
 50
190.806923
 51
234.340912
  0
ARC
  5
D5
100
AcDbEntity
  8
0
370
    -3
  6
Continuous
100
AcDbCircle
 10
233.617236
 20
-122.774818
 30
0.0
 40
8.0
100
AcDbArc
 50
305.659088
 51
349.193077
  0
ARC
  5
D6
100
AcDbEntity
  8
0
370
    -3
  6
Continuous
100
AcDbCircle
 10
233.617236
 20
-122.774818
 30
0.0
 40
9.0
100
AcDbArc
 50
210.0
 51
226.238257
  0
ARC
  5
D7
100
AcDbEntity
  8
0
370
    -3
  6
Continuous
100
AcDbCircle
 10
142.1286
 20
0.14275
 30
0.0
 40
3.0
100
AcDbArc
 50
45.0
 51
139.21673
  0
ARC
  5
D8
100
AcDbEntity
  8
0
370
    -3
  6
Continuous
100
AcDbCircle
 10
149.199668
 20
7.213818
 30
0.0
 40
3.0
100
AcDbArc
 50
130.78327
 51
225.0
  0
ARC
  5
D9
100
AcDbEntity
  8
0
370
    -3
  6
Continuous
100
AcDbCircle
 10
238.034804
 20
7.213818
 30
0.0
 40
3.0
100
AcDbArc
 50
315.0
 51
49.21673
  0
ARC
  5
DA
100
AcDbEntity
  8
0
370
    -3
  6
Continuous
100
AcDbCircle
 10
245.105872
 20
0.14275
 30
0.0
 40
3.0
100
AcDbArc
 50
40.78327
 51
135.0
  0
ARC
  5
DB
100
AcDbEntity
  8
0
370
    -3
  6
Continuous
100
AcDbCircle
 10
188.617236
 20
23.541109
 30
0.0
 40
3.0
100
AcDbArc
 50
0.0
 51
94.21673
  0
ARC
  5
DC
100
AcDbEntity
  8
0
370
    -3
  6
Continuous
100
AcDbCircle
 10
198.617236
 20
23.541109
 30
0.0
 40
3.0
100
AcDbArc
 50
85.78327
 51
180.0
  0
ARC
  5
DD
100
AcDbEntity
  8
0
370
    -3
  6
Continuous
100
AcDbCircle
 10
123.617236
 20
-114.274818
 30
0.0
 40
10.0
100
AcDbArc
 50
180.0
 51
270.0
  0
ARC
  5
DE
100
AcDbEntity
  8
0
370
    -3
  6
Continuous
100
AcDbCircle
 10
263.617236
 20
-114.274818
 30
0.0
 40
10.0
100
AcDbArc
 50
270.0
 51
0.0
  0
ARC
  5
DF
100
AcDbEntity
  8
0
370
    -3
  6
CENTER
100
AcDbCircle
 10
193.617236
 20
-44.274818
 30
0.0
 40
97.5
100
AcDbArc
 50
309.123188
 51
320.876812
  0
ARC
  5
E0
100
AcDbEntity
  8
0
370
    -3
  6
Continuous
100
AcDbCircle
 10
271.617236
 20
-108.132682
 30
0.0
 40
2.0
100
AcDbArc
 50
0.0
 51
45.0
  0
ARC
  5
E1
100
AcDbEntity
  8
0
370
    -3
  6
Continuous
100
AcDbCircle
 10
257.4751
 20
-122.274818
 30
0.0
 40
2.0
100
AcDbArc
 50
225.0
 51
270.0
  0
ARC
  5
E2
100
AcDbEntity
  8
0
370
    -3
  6
Continuous
100
AcDbCircle
 10
129.759372
 20
-122.274818
 30
0.0
 40
2.0
100
AcDbArc
 50
270.0
 51
315.0
  0
ARC
  5
E3
100
AcDbEntity
  8
0
370
    -3
  6
Continuous
100
AcDbCircle
 10
115.617236
 20
-108.132682
 30
0.0
 40
2.0
100
AcDbArc
 50
135.0
 51
180.0
  0
ARC
  5
E4
100
AcDbEntity
  8
0
370
    -3
  6
Continuous
100
AcDbCircle
 10
115.617236
 20
19.583047
 30
0.0
 40
2.0
100
AcDbArc
 50
180.0
 51
225.0
  0
ARC
  5
E5
100
AcDbEntity
  8
0
370
    -3
  6
Continuous
100
AcDbCircle
 10
129.759372
 20
33.725182
 30
0.0
 40
2.0
100
AcDbArc
 50
45.0
 51
90.0
  0
ARC
  5
E6
100
AcDbEntity
  8
0
370
    -3
  6
Continuous
100
AcDbCircle
 10
123.617236
 20
25.725182
 30
0.0
 40
10.0
100
AcDbArc
 50
90.0
 51
180.0
  0
ARC
  5
E7
100
AcDbEntity
  8
0
370
    -3
  6
Continuous
100
AcDbCircle
 10
257.4751
 20
33.725182
 30
0.0
 40
2.0
100
AcDbArc
 50
90.0
 51
135.0
  0
ARC
  5
E8
100
AcDbEntity
  8
0
370
    -3
  6
Continuous
100
AcDbCircle
 10
271.617236
 20
19.583047
 30
0.0
 40
2.0
100
AcDbArc
 50
315.0
 51
0.0
  0
ARC
  5
E9
100
AcDbEntity
  8
0
370
    -3
  6
Continuous
100
AcDbCircle
 10
263.617236
 20
25.725182
 30
0.0
 40
10.0
100
AcDbArc
 50
0.0
 51
90.0
  0
ARC
  5
EA
100
AcDbEntity
  8
0
370
    -3
  6
Continuous
100
AcDbCircle
 10
193.617236
 20
-44.274818
 30
0.0
 40
78.0
100
AcDbArc
 50
59.477512
 51
120.522488
  0
ARC
  5
EB
100
AcDbEntity
  8
0
370
    -3
  6
Continuous
100
AcDbCircle
 10
148.924104
 20
31.531013
 30
0.0
 40
10.0
100
AcDbArc
 50
225.0
 51
300.522488
  0
ARC
  5
EC
100
AcDbEntity
  8
0
370
    -3
  6
Continuous
100
AcDbCircle
 10
148.924104
 20
-120.080648
 30
0.0
 40
10.0
100
AcDbArc
 50
59.477512
 51
135.0
  0
ARC
  5
ED
100
AcDbEntity
  8
0
370
    -3
  6
Continuous
100
AcDbCircle
 10
193.617236
 20
-44.274818
 30
0.0
 40
78.0
100
AcDbArc
 50
239.477512
 51
300.522488
  0
ARC
  5
EE
100
AcDbEntity
  8
0
370
    -3
  6
Continuous
100
AcDbCircle
 10
238.310368
 20
-120.080648
 30
0.0
 40
10.0
100
AcDbArc
 50
45.0
 51
120.522488
  0
ARC
  5
EF
100
AcDbEntity
  8
0
370
    -3
  6
Continuous
100
AcDbCircle
 10
238.310368
 20
31.531013
 30
0.0
 40
10.0
100
AcDbArc
 50
239.477512
 51
315.0
  0
CIRCLE
  5
F0
100
AcDbEntity
  8
0
370
    -3
  6
Continuous
100
AcDbCircle
 10
124.674325
 20
24.668093
 30
0.0
 40
5.3
  0
CIRCLE
  5
F1
100
AcDbEntity
  8
0
370
    -3
  6
Continuous
100
AcDbCircle
 10
124.674325
 20
-113.217729
 30
0.0
 40
5.3
  0
CIRCLE
  5
F2
100
AcDbEntity
  8
0
370
    -3
  6
Continuous
100
AcDbCircle
 10
262.560147
 20
-113.217729
 30
0.0
 40
5.3
  0
CIRCLE
  5
F3
100
AcDbEntity
  8
0
370
    -3
  6
Continuous
100
AcDbCircle
 10
262.560147
 20
24.668093
 30
0.0
 40
5.3
  0
LINE
  5
F4
100
AcDbEntity
  8
0
370
    -3
  6
Continuous
100
AcDbLine
 10
272.617236
 20
-49.274818
 30
0.0
 11
272.389058
 21
-49.274818
 31
0.0
  0
LINE
  5
F5
100
AcDbEntity
  8
0
370
    -3
  6
Continuous
100
AcDbLine
 10
272.617236
 20
-39.274818
 30
0.0
 11
272.389058
 21
-39.274818
 31
0.0
  0
LINE
  5
F6
100
AcDbEntity
  8
0
370
    -3
  6
Continuous
100
AcDbLine
 10
114.617236
 20
-49.274818
 30
0.0
 11
114.845414
 21
-49.274818
 31
0.0
  0
LINE
  5
F7
100
AcDbEntity
  8
0
370
    -3
  6
Continuous
100
AcDbLine
 10
114.617236
 20
-39.274818
 30
0.0
 11
114.845414
 21
-39.274818
 31
0.0
  0
LINE
  5
F8
100
AcDbEntity
  8
0
370
    -3
  6
Continuous
100
AcDbLine
 10
262.351999
 20
7.489382
 30
0.0
 11
273.03145
 21
18.168833
 31
0.0
  0
LINE
  5
F9
100
AcDbEntity
  8
0
370
    -3
  6
Continuous
100
AcDbLine
 10
245.381436
 20
24.459945
 30
0.0
 11
256.060887
 21
35.139396
 31
0.0
  0
LINE
  5
FA
100
AcDbEntity
  8
0
370
    -3
  6
Continuous
100
AcDbLine
 10
273.617236
 20
25.725182
 30
0.0
 11
273.617236
 21
-114.274818
 31
0.0
  0
LINE
  5
FB
100
AcDbEntity
  8
0
370
    -3
  6
Continuous
100
AcDbLine
 10
263.617236
 20
35.725182
 30
0.0
 11
123.617236
 21
35.725182
 31
0.0
  0
LINE
  5
FC
100
AcDbEntity
  8
0
370
    -3
  6
Continuous
100
AcDbLine
 10
141.853036
 20
24.459945
 30
0.0
 11
131.173585
 21
35.139396
 31
0.0
  0
LINE
  5
FD
100
AcDbEntity
  8
0
370
    -3
  6
Continuous
100
AcDbLine
 10
124.882473
 20
7.489382
 30
0.0
 11
114.203022
 21
18.168833
 31
0.0
  0
LINE
  5
FE
100
AcDbEntity
  8
0
370
    -3
  6
Continuous
100
AcDbLine
 10
113.617236
 20
25.725182
 30
0.0
 11
113.617236
 21
-114.274818
 31
0.0
  0
LINE
  5
FF
100
AcDbEntity
  8
0
370
    -3
  6
Continuous
100
AcDbLine
 10
124.882473
 20
-96.039018
 30
0.0
 11
114.203022
 21
-106.718469
 31
0.0
  0
LINE
  5
100
100
AcDbEntity
  8
0
370
    -3
  6
Continuous
100
AcDbLine
 10
141.853036
 20
-113.009581
 30
0.0
 11
131.173585
 21
-123.689031
 31
0.0
  0
LINE
  5
101
100
AcDbEntity
  8
0
370
    -3
  6
Continuous
100
AcDbLine
 10
262.351999
 20
-96.039018
 30
0.0
 11
273.03145
 21
-106.718469
 31
0.0
  0
LINE
  5
102
100
AcDbEntity
  8
0
370
    -3
  6
Continuous
100
AcDbLine
 10
245.381436
 20
-113.009581
 30
0.0
 11
256.060887
 21
-123.689031
 31
0.0
  0
LINE
  5
103
100
AcDbEntity
  8
0
370
    -3
  6
CENTER
100
AcDbLine
 10
255.919179
 20
-106.576761
 30
0.0
 11
268.966457
 21
-119.624039
 31
0.0
  0
LINE
  5
104
100
AcDbEntity
  8
0
370
    -3
  6
CENTER
100
AcDbLine
 10
108.389536
 20
-44.274818
 30
0.0
 11
278.406744
 21
-44.274818
 31
0.0
  0
LINE
  5
105
100
AcDbEntity
  8
0
370
    -3
  6
CENTER
100
AcDbLine
 10
185.508694
 20
-64.274818
 30
0.0
 11
202.77666
 21
-64.274818
 31
0.0
  0
LINE
  5
106
100
AcDbEntity
  8
0
370
    -3
  6
CENTER
100
AcDbLine
 10
193.617236
 20
41.897638
 30
0.0
 11
193.617236
 21
-140.44267
 31
0.0
  0
LINE
  5
107
100
AcDbEntity
  8
0
370
    -3
  6
Continuous
100
AcDbLine
 10
191.617236
 20
23.541109
 30
0.0
 11
191.617236
 21
-2.022584
 31
0.0
  0
LINE
  5
108
100
AcDbEntity
  8
0
370
    -3
  6
Continuous
100
AcDbLine
 10
195.617236
 20
23.541109
 30
0.0
 11
195.617236
 21
-2.022584
 31
0.0
  0
LINE
  5
109
100
AcDbEntity
  8
0
370
    -3
  6
Continuous
100
AcDbLine
 10
240.156124
 20
5.092498
 30
0.0
 11
228.654088
 21
-6.409538
 31
0.0
  0
LINE
  5
10A
100
AcDbEntity
  8
0
370
    -3
  6
Continuous
100
AcDbLine
 10
242.984552
 20
2.264071
 30
0.0
 11
234.442507
 21
-6.277974
 31
0.0
  0
LINE
  5
10B
100
AcDbEntity
  8
0
370
    -3
  6
Continuous
100
AcDbLine
 10
144.24992
 20
2.264071
 30
0.0
 11
152.791965
 21
-6.277974
 31
0.0
  0
LINE
  5
10C
100
AcDbEntity
  8
0
370
    -3
  6
Continuous
100
AcDbLine
 10
147.078347
 20
5.092498
 30
0.0
 11
158.580384
 21
-6.409538
 31
0.0
  0
LINE
  5
10D
100
AcDbEntity
  8
0
370
    -3
  6
Continuous
100
AcDbLine
 10
193.617236
 20
-127.274818
 30
0.0
 11
225.823007
 21
-127.274818
 31
0.0
  0
LINE
  5
10E
100
AcDbEntity
  8
0
370
    -3
  6
Continuous
100
AcDbLine
 10
227.392286
 20
-129.274818
 30
0.0
 11
238.280925
 21
-129.274818
 31
0.0
  0
LINE
  5
10F
100
AcDbEntity
  8
0
370
    -3
  6
Continuous
100
AcDbLine
 10
241.475353
 20
-124.274818
 30
0.0
 11
263.617236
 21
-124.274818
 31
0.0
  0
LINE
  5
110
100
AcDbEntity
  8
0
370
    -3
  6
Continuous
100
AcDbLine
 10
159.842186
 20
-129.274818
 30
0.0
 11
148.953546
 21
-129.274818
 31
0.0
  0
LINE
  5
111
100
AcDbEntity
  8
0
370
    -3
  6
Continuous
100
AcDbLine
 10
123.617236
 20
-124.274818
 30
0.0
 11
145.759119
 21
-124.274818
 31
0.0
  0
LINE
  5
112
100
AcDbEntity
  8
0
370
    -3
  6
Continuous
100
AcDbLine
 10
193.617236
 20
-127.274818
 30
0.0
 11
161.411465
 21
-127.274818
 31
0.0
  0
ARC
  5
113
100
AcDbEntity
  8
0
370
    -3
  6
Continuous
100
AcDbCircle
 10
272.389058
 20
-50.274818
 30
0.0
 40
1.0
100
AcDbArc
 50
90.0
 51
175.644227
  0
ARC
  5
114
100
AcDbEntity
  8
0
370
    -3
  6
Continuous
100
AcDbCircle
 10
272.617236
 20
-48.274818
 30
0.0
 40
1.0
100
AcDbArc
 50
270.0
 51
0.0
  0
ARC
  5
115
100
AcDbEntity
  8
0
370
    -3
  6
Continuous
100
AcDbCircle
 10
272.389058
 20
-38.274818
 30
0.0
 40
1.0
100
AcDbArc
 50
184.355773
 51
270.0
  0
ARC
  5
116
100
AcDbEntity
  8
0
370
    -3
  6
Continuous
100
AcDbCircle
 10
272.617236
 20
-40.274818
 30
0.0
 40
1.0
100
AcDbArc
 50
0.0
 51
90.0
  0
ARC
  5
117
100
AcDbEntity
  8
0
370
    -3
  6
Continuous
100
AcDbCircle
 10
114.617236
 20
-48.274818
 30
0.0
 40
1.0
100
AcDbArc
 50
180.0
 51
270.0
  0
ARC
  5
118
100
AcDbEntity
  8
0
370
    -3
  6
Continuous
100
AcDbCircle
 10
114.845414
 20
-50.274818
 30
0.0
 40
1.0
100
AcDbArc
 50
4.355773
 51
90.0
  0
ARC
  5
119
100
AcDbEntity
  8
0
370
    -3
  6
Continuous
100
AcDbCircle
 10
114.617236
 20
-40.274818
 30
0.0
 40
1.0
100
AcDbArc
 50
90.0
 51
180.0
  0
ARC
  5
11A
100
AcDbEntity
  8
0
370
    -3
  6
Continuous
100
AcDbCircle
 10
114.845414
 20
-38.274818
 30
0.0
 40
1.0
100
AcDbArc
 50
270.0
 51
355.644227
  0
ARC
  5
11B
100
AcDbEntity
  8
0
370
    -3
  6
Continuous
100
AcDbCircle
 10
193.617236
 20
-44.274818
 30
0.0
 40
78.0
100
AcDbArc
 50
4.355773
 51
30.522488
  0
ARC
  5
11C
100
AcDbEntity
  8
0
370
    -3
  6
Continuous
100
AcDbCircle
 10
193.617236
 20
-44.274818
 30
0.0
 40
78.0
100
AcDbArc
 50
184.355773
 51
210.522488
  0
ARC
  5
11D
100
AcDbEntity
  8
0
370
    -3
  6
Continuous
100
AcDbCircle
 10
257.493366
 20
-27.666386
 30
0.0
 40
5.0
100
AcDbArc
 50
206.056903
 51
14.574752
  0
ARC
  5
11E
100
AcDbEntity
  8
0
370
    -3
  6
Continuous
100
AcDbCircle
 10
193.617236
 20
-398.274818
 30
0.0
 40
393.283779
100
AcDbArc
 50
90.722933
 51
93.357817
  0
ARC
  5
11F
100
AcDbEntity
  8
0
370
    -3
  6
Continuous
100
AcDbCircle
 10
193.617236
 20
-398.274818
 30
0.0
 40
393.283779
100
AcDbArc
 50
86.642183
 51
89.277067
  0
ARC
  5
120
100
AcDbEntity
  8
0
370
    -3
  6
Continuous
100
AcDbCircle
 10
173.117236
 20
-48.875691
 30
0.0
 40
43.283779
100
AcDbArc
 50
93.357817
 51
105.56004
  0
ARC
  5
121
100
AcDbEntity
  8
0
370
    -3
  6
Continuous
100
AcDbCircle
 10
129.741106
 20
-27.666386
 30
0.0
 40
5.0
100
AcDbArc
 50
165.425248
 51
333.943097
  0
ARC
  5
122
100
AcDbEntity
  8
0
370
    -3
  6
Continuous
100
AcDbCircle
 10
269.423066
 20
0.418314
 30
0.0
 40
10.0
100
AcDbArc
 50
135.0
 51
210.522488
  0
ARC
  5
123
100
AcDbEntity
  8
0
370
    -3
  6
Continuous
100
AcDbCircle
 10
269.423066
 20
-88.96795
 30
0.0
 40
10.0
100
AcDbArc
 50
149.477512
 51
225.0
  0
ARC
  5
124
100
AcDbEntity
  8
0
370
    -3
  6
Continuous
100
AcDbCircle
 10
193.617236
 20
-44.274818
 30
0.0
 40
78.0
100
AcDbArc
 50
329.477512
 51
355.644227
  0
ARC
  5
125
100
AcDbEntity
  8
0
370
    -3
  6
Continuous
100
AcDbCircle
 10
117.811405
 20
-88.96795
 30
0.0
 40
10.0
100
AcDbArc
 50
315.0
 51
30.522488
  0
ARC
  5
126
100
AcDbEntity
  8
0
370
    -3
  6
Continuous
100
AcDbCircle
 10
117.811405
 20
0.418314
 30
0.0
 40
10.0
100
AcDbArc
 50
329.477512
 51
45.0
  0
ARC
  5
127
100
AcDbEntity
  8
0
370
    -3
  6
Continuous
100
AcDbCircle
 10
193.617236
 20
-44.274818
 30
0.0
 40
78.0
100
AcDbArc
 50
149.477512
 51
175.644227
  0
CIRCLE
  5
128
100
AcDbEntity
  8
0
370
    -3
  6
Continuous
100
AcDbCircle
 10
193.617236
 20
-44.274818
 30
0.0
 40
71.0
  0
ARC
  5
129
100
AcDbEntity
  8
0
370
    -3
  6
Continuous
100
AcDbCircle
 10
173.117236
 20
-48.875691
 30
0.0
 40
43.283779
100
AcDbArc
 50
119.010999
 51
153.943097
  0
ARC
  5
12A
100
AcDbEntity
  8
0
370
    -3
  6
Continuous
100
AcDbCircle
 10
214.117236
 20
-48.875691
 30
0.0
 40
43.283779
100
AcDbArc
 50
74.43996
 51
86.642183
  0
ARC
  5
12B
100
AcDbEntity
  8
0
370
    -3
  6
Continuous
100
AcDbCircle
 10
188.617236
 20
-2.022584
 30
0.0
 40
3.0
100
AcDbArc
 50
270.722933
 51
0.0
  0
ARC
  5
12C
100
AcDbEntity
  8
0
370
    -3
  6
Continuous
100
AcDbCircle
 10
198.617236
 20
-2.022584
 30
0.0
 40
3.0
100
AcDbArc
 50
180.0
 51
269.277067
  0
ARC
  5
12D
100
AcDbEntity
  8
0
370
    -3
  6
Continuous
100
AcDbCircle
 10
236.563827
 20
-8.399294
 30
0.0
 40
3.0
100
AcDbArc
 50
135.0
 51
240.989001
  0
ARC
  5
12E
100
AcDbEntity
  8
0
370
    -3
  6
Continuous
100
AcDbCircle
 10
226.532768
 20
-4.288218
 30
0.0
 40
3.0
100
AcDbArc
 50
254.43996
 51
315.0
  0
ARC
  5
12F
100
AcDbEntity
  8
0
370
    -3
  6
Continuous
100
AcDbCircle
 10
150.670644
 20
-8.399294
 30
0.0
 40
3.0
100
AcDbArc
 50
299.010999
 51
45.0
  0
ARC
  5
130
100
AcDbEntity
  8
0
370
    -3
  6
Continuous
100
AcDbCircle
 10
160.701704
 20
-4.288218
 30
0.0
 40
3.0
100
AcDbArc
 50
225.0
 51
285.56004
  0
CIRCLE
  5
131
100
AcDbEntity
  8
0
370
    -3
  6
Continuous
100
AcDbCircle
 10
193.939067
 20
-44.5593
 30
0.0
 40
21.881537
  0
CIRCLE
  5
132
100
AcDbEntity
  8
0
370
    -3
  6
Continuous
100
AcDbCircle
 10
193.607681
 20
-44.227914
 30
0.0
 40
28.50115
  0
CIRCLE
  5
133
100
AcDbEntity
  8
0
370
    -3
  6
Continuous
100
AcDbCircle
 10
193.80918
 20
-44.249293
 30
0.0
 40
75.0
  0
CIRCLE
  5
134
100
AcDbEntity
  8
0
370
    -3
  6
Continuous
100
AcDbCircle
 10
193.617236
 20
-44.274818
 30
0.0
 40
19.0
  0
LINE
  5
135
100
AcDbEntity
  8
0
370
    -3
  6
Continuous
100
AcDbLine
 10
180.117236
 20
-41.274818
 30
0.0
 11
186.117236
 21
-41.274818
 31
0.0
  0
CIRCLE
  5
136
100
AcDbEntity
  8
0
370
    -3
  6
Continuous
100
AcDbCircle
 10
193.617236
 20
-44.274818
 30
0.0
 40
3.3235
  0
CIRCLE
  5
137
100
AcDbEntity
  8
0
370
    -3
  6
Continuous
100
AcDbCircle
 10
193.617236
 20
-44.274818
 30
0.0
 40
4.0
  0
LINE
  5
138
100
AcDbEntity
  8
0
370
    -3
  6
Continuous
100
AcDbLine
 10
180.117236
 20
-41.274818
 30
0.0
 11
180.117236
 21
-47.274818
 31
0.0
  0
LINE
  5
139
100
AcDbEntity
  8
0
370
    -3
  6
Continuous
100
AcDbLine
 10
186.117236
 20
-47.274818
 30
0.0
 11
186.117236
 21
-41.274818
 31
0.0
  0
LINE
  5
13A
100
AcDbEntity
  8
0
370
    -3
  6
Continuous
100
AcDbLine
 10
180.117236
 20
-47.274818
 30
0.0
 11
186.117236
 21
-47.274818
 31
0.0
  0
ARC
  5
13B
100
AcDbEntity
  8
0
370
    -3
  6
Continuous
100
AcDbCircle
 10
193.617236
 20
-44.274818
 30
0.0
 40
11.0
100
AcDbArc
 50
195.82662
 51
164.17338
  0
ARC
  5
13C
100
AcDbEntity
  8
0
370
    -3
  6
Continuous
100
AcDbCircle
 10
214.117236
 20
-48.875691
 30
0.0
 40
43.283779
100
AcDbArc
 50
58.744441
 51
60.989001
  0
LINE
  5
13D
100
AcDbEntity
  8
0
370
    -3
  6
CENTER
100
AcDbLine
 10
131.315293
 20
-106.576761
 30
0.0
 11
118.268015
 21
-119.624039
 31
0.0
  0
ARC
  5
13E
100
AcDbEntity
  8
0
370
    -3
  6
CENTER
100
AcDbCircle
 10
193.617236
 20
-44.274818
 30
0.0
 40
97.5
100
AcDbArc
 50
218.943587
 51
230.876812
  0
LINE
  5
13F
100
AcDbEntity
  8
0
370
    -3
  6
CENTER
100
AcDbLine
 10
131.315293
 20
18.027125
 30
0.0
 11
118.268015
 21
31.074403
 31
0.0
  0
ARC
  5
140
100
AcDbEntity
  8
0
370
    -3
  6
CENTER
100
AcDbCircle
 10
193.617236
 20
-44.274818
 30
0.0
 40
97.5
100
AcDbArc
 50
129.123188
 51
140.876812
  0
LINE
  5
141
100
AcDbEntity
  8
0
370
    -3
  6
CENTER
100
AcDbLine
 10
255.919179
 20
18.027125
 30
0.0
 11
268.966457
 21
31.074403
 31
0.0
  0
ARC
  5
142
100
AcDbEntity
  8
0
370
    -3
  6
CENTER
100
AcDbCircle
 10
193.617236
 20
-44.274818
 30
0.0
 40
97.5
100
AcDbArc
 50
38.630004
 51
50.876812
  0
ARC
  5
143
100
AcDbEntity
  8
0
370
    -3
  6
Continuous
100
AcDbCircle
 10
214.117236
 20
-48.875691
 30
0.0
 40
43.283779
100
AcDbArc
 50
26.056903
 51
60.989001
  0
ARC
  5
144
100
AcDbEntity
  8
0
370
    -3
  6
Continuous
100
AcDbCircle
 10
-530.44121
 20
24.716455
 30
0.0
 40
2.0
100
AcDbArc
 50
0.0
 51
90.0
  0
ARC
  5
145
100
AcDbEntity
  8
0
370
    -3
  6
Continuous
100
AcDbCircle
 10
-522.44121
 20
24.716455
 30
0.0
 40
2.0
100
AcDbArc
 50
90.0
 51
180.0
  0
ARC
  5
146
100
AcDbEntity
  8
0
370
    -3
  6
Continuous
100
AcDbCircle
 10
-466.346979
 20
10.162559
 30
0.0
 40
2.0
100
AcDbArc
 50
45.0
 51
135.0
  0
ARC
  5
147
100
AcDbEntity
  8
0
370
    -3
  6
Continuous
100
AcDbCircle
 10
-472.003833
 20
15.819413
 30
0.0
 40
2.0
100
AcDbArc
 50
315.0
 51
45.0
  0
ARC
  5
148
100
AcDbEntity
  8
0
370
    -3
  6
Continuous
100
AcDbCircle
 10
-586.535441
 20
10.162559
 30
0.0
 40
2.0
100
AcDbArc
 50
45.0
 51
135.0
  0
ARC
  5
149
100
AcDbEntity
  8
0
370
    -3
  6
Continuous
100
AcDbCircle
 10
-580.878586
 20
15.819413
 30
0.0
 40
2.0
100
AcDbArc
 50
135.0
 51
225.0
  0
ARC
  5
14A
100
AcDbEntity
  8
0
370
    -3
  6
Continuous
100
AcDbCircle
 10
-456.44121
 20
-114.274818
 30
0.0
 40
10.0
100
AcDbArc
 50
270.0
 51
0.0
  0
ARC
  5
14B
100
AcDbEntity
  8
0
370
    -3
  6
Continuous
100
AcDbCircle
 10
-456.44121
 20
25.725182
 30
0.0
 40
10.0
100
AcDbArc
 50
0.0
 51
90.0
  0
ARC
  5
14C
100
AcDbEntity
  8
0
370
    -3
  6
Continuous
100
AcDbCircle
 10
-596.44121
 20
25.725182
 30
0.0
 40
10.0
100
AcDbArc
 50
90.0
 51
180.0
  0
CIRCLE
  5
14D
100
AcDbEntity
  8
0
370
    -3
  6
Continuous
100
AcDbCircle
 10
-457.498299
 20
24.668093
 30
0.0
 40
5.0
  0
CIRCLE
  5
14E
100
AcDbEntity
  8
0
370
    -3
  6
Continuous
100
AcDbCircle
 10
-595.384121
 20
24.668093
 30
0.0
 40
5.0
  0
LINE
  5
14F
100
AcDbEntity
  8
0
370
    -3
  6
Continuous
100
AcDbLine
 10
-528.44121
 20
24.716455
 30
0.0
 11
-528.44121
 21
3.705281
 31
0.0
  0
LINE
  5
150
100
AcDbEntity
  8
0
370
    -3
  6
Continuous
100
AcDbLine
 10
-524.44121
 20
24.716455
 30
0.0
 11
-524.44121
 21
3.705281
 31
0.0
  0
LINE
  5
151
100
AcDbEntity
  8
0
370
    -3
  6
Continuous
100
AcDbLine
 10
-446.44121
 20
25.725182
 30
0.0
 11
-446.44121
 21
-17.474818
 31
0.0
  0
LINE
  5
152
100
AcDbEntity
  8
0
370
    -3
  6
Continuous
100
AcDbLine
 10
-596.44121
 20
35.725182
 30
0.0
 11
-456.44121
 21
35.725182
 31
0.0
  0
ARC
  5
153
100
AcDbEntity
  8
0
370
    -3
  6
Continuous
100
AcDbCircle
 10
-105.516551
 20
107.222632
 30
0.0
 40
1.0
100
AcDbArc
 50
54.456596
 51
85.335585
  0
ARC
  5
154
100
AcDbEntity
  8
0
370
    -3
  6
Continuous
100
AcDbCircle
 10
-105.353912
 20
109.216008
 30
0.0
 40
1.0
100
AcDbArc
 50
180.0
 51
265.335585
  0
ARC
  5
155
100
AcDbEntity
  8
0
370
    -3
  6
Continuous
100
AcDbCircle
 10
-104.353912
 20
108.849983
 30
0.0
 40
1.0
100
AcDbArc
 50
253.216767
 51
270.0
  0
LINE
  5
156
100
AcDbEntity
  8
0
370
    -3
  6
Continuous
100
AcDbLine
 10
-104.353912
 20
107.849983
 30
0.0
 11
-96.353912
 21
107.849983
 31
0.0
  0
ARC
  5
157
100
AcDbEntity
  8
0
370
    -3
  6
Continuous
100
AcDbCircle
 10
-104.353912
 20
108.849983
 30
0.0
 40
1.0
100
AcDbArc
 50
180.0
 51
253.216767
  0
LINE
  5
158
100
AcDbEntity
  8
0
370
    -3
  6
Continuous
100
AcDbLine
 10
-105.353912
 20
108.849983
 30
0.0
 11
-105.353912
 21
139.349983
 31
0.0
  0
LINE
  5
159
100
AcDbEntity
  8
0
370
    -3
  6
Continuous
100
AcDbLine
 10
-129.853912
 20
178.349983
 30
0.0
 11
-129.853912
 21
118.849983
 31
0.0
  0
LINE
  5
15A
100
AcDbEntity
  8
0
370
    -3
  6
Continuous
100
AcDbLine
 10
-129.853912
 20
118.849983
 30
0.0
 11
-126.853912
 21
118.849983
 31
0.0
  0
ARC
  5
15B
100
AcDbEntity
  8
0
370
    -3
  6
Continuous
100
AcDbCircle
 10
-111.353912
 20
119.849983
 30
0.0
 40
6.0
100
AcDbArc
 50
0.0
 51
90.0
  0
LINE
  5
15C
100
AcDbEntity
  8
0
370
    -3
  6
Continuous
100
AcDbLine
 10
-116.954417
 20
125.849983
 30
0.0
 11
-111.353912
 21
125.849983
 31
0.0
  0
LINE
  5
15D
100
AcDbEntity
  8
0
370
    -3
  6
Continuous
100
AcDbLine
 10
-106.353912
 20
119.349983
 30
0.0
 11
-108.353912
 21
119.349983
 31
0.0
  0
LINE
  5
15E
100
AcDbEntity
  8
0
370
    -3
  6
Continuous
100
AcDbLine
 10
-106.353912
 20
109.349983
 30
0.0
 11
-108.353912
 21
109.349983
 31
0.0
  0
LINE
  5
15F
100
AcDbEntity
  8
0
370
    -3
  6
Continuous
100
AcDbLine
 10
-108.353912
 20
109.349983
 30
0.0
 11
-108.353912
 21
119.349983
 31
0.0
  0
LINE
  5
160
100
AcDbEntity
  8
0
370
    -3
  6
Continuous
100
AcDbLine
 10
-106.353912
 20
120.388055
 30
0.0
 11
-106.353912
 21
109.216008
 31
0.0
  0
LINE
  5
161
100
AcDbEntity
  8
0
370
    -3
  6
Continuous
100
AcDbLine
 10
-105.353912
 20
149.349983
 30
0.0
 11
-105.353912
 21
178.349983
 31
0.0
  0
LINE
  5
162
100
AcDbEntity
  8
0
370
    -3
  6
Continuous
100
AcDbLine
 10
-104.353912
 20
150.599983
 30
0.0
 11
-102.453912
 21
150.599983
 31
0.0
  0
LINE
  5
163
100
AcDbEntity
  8
0
370
    -3
  6
Continuous
100
AcDbLine
 10
-104.353912
 20
138.099983
 30
0.0
 11
-102.453912
 21
138.099983
 31
0.0
  0
LINE
  5
164
100
AcDbEntity
  8
0
370
    -3
  6
Continuous
100
AcDbLine
 10
-102.353912
 20
138.199983
 30
0.0
 11
-102.353912
 21
150.499983
 31
0.0
  0
ARC
  5
165
100
AcDbEntity
  8
0
370
    -3
  6
Continuous
100
AcDbCircle
 10
-104.353912
 20
151.599983
 30
0.0
 40
1.0
100
AcDbArc
 50
180.0
 51
270.0
  0
ARC
  5
166
100
AcDbEntity
  8
0
370
    -3
  6
Continuous
100
AcDbCircle
 10
-102.453912
 20
150.499983
 30
0.0
 40
0.1
100
AcDbArc
 50
0.0
 51
90.0
  0
ARC
  5
167
100
AcDbEntity
  8
0
370
    -3
  6
Continuous
100
AcDbCircle
 10
-104.353912
 20
137.099983
 30
0.0
 40
1.0
100
AcDbArc
 50
90.0
 51
180.0
  0
ARC
  5
168
100
AcDbEntity
  8
0
370
    -3
  6
Continuous
100
AcDbCircle
 10
-102.453912
 20
138.199983
 30
0.0
 40
0.1
100
AcDbArc
 50
270.0
 51
0.0
  0
ARC
  5
169
100
AcDbEntity
  8
0
370
    -3
  6
Continuous
100
AcDbCircle
 10
-112.353912
 20
119.849983
 30
0.0
 40
6.0
100
AcDbArc
 50
0.0
 51
90.0
  0
ARC
  5
16A
100
AcDbEntity
  8
0
370
    -3
  6
Continuous
100
AcDbCircle
 10
-116.954417
 20
115.849983
 30
0.0
 40
10.0
100
AcDbArc
 50
90.0
 51
160.528779
  0
ARC
  5
16B
100
AcDbEntity
  8
0
370
    -3
  6
Continuous
100
AcDbCircle
 10
-126.853912
 20
119.349983
 30
0.0
 40
0.5
100
AcDbArc
 50
270.0
 51
340.528779
  0
ARC
  5
16C
100
AcDbEntity
  8
0
370
    -3
  6
Continuous
100
AcDbCircle
 10
-105.516551
 20
249.477333
 30
0.0
 40
1.0
100
AcDbArc
 50
274.664415
 51
305.543404
  0
ARC
  5
16D
100
AcDbEntity
  8
0
370
    -3
  6
Continuous
100
AcDbCircle
 10
-105.353912
 20
247.483957
 30
0.0
 40
1.0
100
AcDbArc
 50
94.664415
 51
180.0
  0
ARC
  5
16E
100
AcDbEntity
  8
0
370
    -3
  6
Continuous
100
AcDbCircle
 10
-104.353912
 20
247.849983
 30
0.0
 40
1.0
100
AcDbArc
 50
90.0
 51
106.783233
  0
LINE
  5
16F
100
AcDbEntity
  8
0
370
    -3
  6
Continuous
100
AcDbLine
 10
-104.353912
 20
248.849983
 30
0.0
 11
-96.353912
 21
248.849983
 31
0.0
  0
ARC
  5
170
100
AcDbEntity
  8
0
370
    -3
  6
Continuous
100
AcDbCircle
 10
-104.353912
 20
247.849983
 30
0.0
 40
1.0
100
AcDbArc
 50
106.783233
 51
180.0
  0
LINE
  5
171
100
AcDbEntity
  8
0
370
    -3
  6
Continuous
100
AcDbLine
 10
-105.353912
 20
247.849983
 30
0.0
 11
-105.353912
 21
217.349983
 31
0.0
  0
LINE
  5
172
100
AcDbEntity
  8
0
370
    -3
  6
Continuous
100
AcDbLine
 10
-129.853912
 20
178.349983
 30
0.0
 11
-129.853912
 21
237.849983
 31
0.0
  0
LINE
  5
173
100
AcDbEntity
  8
0
370
    -3
  6
Continuous
100
AcDbLine
 10
-129.853912
 20
237.849983
 30
0.0
 11
-126.853912
 21
237.849983
 31
0.0
  0
ARC
  5
174
100
AcDbEntity
  8
0
370
    -3
  6
Continuous
100
AcDbCircle
 10
-111.353912
 20
236.849983
 30
0.0
 40
6.0
100
AcDbArc
 50
270.0
 51
0.0
  0
LINE
  5
175
100
AcDbEntity
  8
0
370
    -3
  6
Continuous
100
AcDbLine
 10
-116.954417
 20
230.849983
 30
0.0
 11
-111.353912
 21
230.849983
 31
0.0
  0
LINE
  5
176
100
AcDbEntity
  8
0
370
    -3
  6
Continuous
100
AcDbLine
 10
-106.353912
 20
237.349983
 30
0.0
 11
-108.353912
 21
237.349983
 31
0.0
  0
LINE
  5
177
100
AcDbEntity
  8
0
370
    -3
  6
Continuous
100
AcDbLine
 10
-106.353912
 20
247.349983
 30
0.0
 11
-108.353912
 21
247.349983
 31
0.0
  0
LINE
  5
178
100
AcDbEntity
  8
0
370
    -3
  6
Continuous
100
AcDbLine
 10
-108.353912
 20
247.349983
 30
0.0
 11
-108.353912
 21
237.349983
 31
0.0
  0
LINE
  5
179
100
AcDbEntity
  8
0
370
    -3
  6
Continuous
100
AcDbLine
 10
-106.353912
 20
236.31191
 30
0.0
 11
-106.353912
 21
247.483957
 31
0.0
  0
LINE
  5
17A
100
AcDbEntity
  8
0
370
    -3
  6
Continuous
100
AcDbLine
 10
-105.353912
 20
207.349983
 30
0.0
 11
-105.353912
 21
178.349983
 31
0.0
  0
LINE
  5
17B
100
AcDbEntity
  8
0
370
    -3
  6
Continuous
100
AcDbLine
 10
-104.353912
 20
206.099983
 30
0.0
 11
-102.453912
 21
206.099983
 31
0.0
  0
LINE
  5
17C
100
AcDbEntity
  8
0
370
    -3
  6
Continuous
100
AcDbLine
 10
-104.353912
 20
218.599983
 30
0.0
 11
-102.453912
 21
218.599983
 31
0.0
  0
LINE
  5
17D
100
AcDbEntity
  8
0
370
    -3
  6
Continuous
100
AcDbLine
 10
-102.353912
 20
218.499983
 30
0.0
 11
-102.353912
 21
206.199983
 31
0.0
  0
ARC
  5
17E
100
AcDbEntity
  8
0
370
    -3
  6
Continuous
100
AcDbCircle
 10
-104.353912
 20
205.099983
 30
0.0
 40
1.0
100
AcDbArc
 50
90.0
 51
180.0
  0
ARC
  5
17F
100
AcDbEntity
  8
0
370
    -3
  6
Continuous
100
AcDbCircle
 10
-102.453912
 20
206.199983
 30
0.0
 40
0.1
100
AcDbArc
 50
270.0
 51
0.0
  0
ARC
  5
180
100
AcDbEntity
  8
0
370
    -3
  6
Continuous
100
AcDbCircle
 10
-104.353912
 20
219.599983
 30
0.0
 40
1.0
100
AcDbArc
 50
180.0
 51
270.0
  0
ARC
  5
181
100
AcDbEntity
  8
0
370
    -3
  6
Continuous
100
AcDbCircle
 10
-102.453912
 20
218.499983
 30
0.0
 40
0.1
100
AcDbArc
 50
0.0
 51
90.0
  0
ARC
  5
182
100
AcDbEntity
  8
0
370
    -3
  6
Continuous
100
AcDbCircle
 10
-112.353912
 20
236.849983
 30
0.0
 40
6.0
100
AcDbArc
 50
270.0
 51
0.0
  0
ARC
  5
183
100
AcDbEntity
  8
0
370
    -3
  6
Continuous
100
AcDbCircle
 10
-116.954417
 20
240.849983
 30
0.0
 40
10.0
100
AcDbArc
 50
199.471221
 51
270.0
  0
ARC
  5
184
100
AcDbEntity
  8
0
370
    -3
  6
Continuous
100
AcDbCircle
 10
-126.853912
 20
237.349983
 30
0.0
 40
0.5
100
AcDbArc
 50
19.471221
 51
90.0
  0
LINE
  5
185
100
AcDbEntity
  8
0
370
    -3
  6
Continuous
100
AcDbLine
 10
24.146088
 20
178.349983
 30
0.0
 11
24.146088
 21
167.749983
 31
0.0
  0
LINE
  5
186
100
AcDbEntity
  8
0
370
    -3
  6
Continuous
100
AcDbLine
 10
23.746088
 20
167.349983
 30
0.0
 11
-9.294105
 21
167.349983
 31
0.0
  0
LINE
  5
187
100
AcDbEntity
  8
0
370
    -3
  6
Continuous
100
AcDbLine
 10
23.746088
 20
167.349983
 30
0.0
 11
-9.294105
 21
167.349983
 31
0.0
  0
ARC
  5
188
100
AcDbEntity
  8
0
370
    -3
  6
Continuous
100
AcDbCircle
 10
23.746088
 20
167.749983
 30
0.0
 40
0.4
100
AcDbArc
 50
270.0
 51
0.0
  0
LINE
  5
189
100
AcDbEntity
  8
0
370
    -3
  6
Continuous
100
AcDbLine
 10
24.146088
 20
167.749983
 30
0.0
 11
24.146088
 21
164.849983
 31
0.0
  0
LINE
  5
18A
100
AcDbEntity
  8
0
370
    -3
  6
Continuous
100
AcDbLine
 10
24.14609
 20
164.849983
 30
0.0
 11
-7.85391
 21
164.849983
 31
0.0
  0
LINE
  5
18B
100
AcDbEntity
  8
0
370
    -3
  6
Continuous
100
AcDbLine
 10
-11.853912
 20
178.349983
 30
0.0
 11
-11.853912
 21
189.949983
 31
0.0
  0
LINE
  5
18C
100
AcDbEntity
  8
0
370
    -3
  6
Continuous
100
AcDbLine
 10
-9.853912
 20
189.199983
 30
0.0
 11
-11.053912
 21
189.199983
 31
0.0
  0
LINE
  5
18D
100
AcDbEntity
  8
0
370
    -3
  6
Continuous
100
AcDbLine
 10
-9.294105
 20
189.349983
 30
0.0
 11
-9.853912
 21
189.199983
 31
0.0
  0
LINE
  5
18E
100
AcDbEntity
  8
0
370
    -3
  6
Continuous
100
AcDbLine
 10
-11.853912
 20
189.949983
 30
0.0
 11
-12.253912
 21
190.349983
 31
0.0
  0
ARC
  5
18F
100
AcDbEntity
  8
0
370
    -3
  6
Continuous
100
AcDbCircle
 10
-11.053912
 20
189.999983
 30
0.0
 40
0.8
100
AcDbArc
 50
183.703197
 51
270.0
  0
LINE
  5
190
100
AcDbEntity
  8
0
370
    -3
  6
Continuous
100
AcDbLine
 10
-9.853912
 20
189.199983
 30
0.0
 11
-11.053912
 21
189.199983
 31
0.0
  0
LINE
  5
191
100
AcDbEntity
  8
0
370
    -3
  6
Continuous
100
AcDbLine
 10
-9.294105
 20
189.349983
 30
0.0
 11
-9.853912
 21
189.199983
 31
0.0
  0
LINE
  5
192
100
AcDbEntity
  8
0
370
    -3
  6
Continuous
100
AcDbLine
 10
-11.853912
 20
189.949983
 30
0.0
 11
-12.253912
 21
190.349983
 31
0.0
  0
LINE
  5
193
100
AcDbEntity
  8
0
370
    -3
  6
Continuous
100
AcDbLine
 10
-13.853912
 20
190.349983
 30
0.0
 11
-12.253912
 21
190.349983
 31
0.0
  0
LINE
  5
194
100
AcDbEntity
  8
0
370
    -3
  6
Continuous
100
AcDbLine
 10
-7.853912
 20
167.349983
 30
0.0
 11
-7.853912
 21
164.849983
 31
0.0
  0
LINE
  5
195
100
AcDbEntity
  8
0
370
    -3
  6
Continuous
100
AcDbLine
 10
-13.853912
 20
166.349983
 30
0.0
 11
-12.253912
 21
166.349983
 31
0.0
  0
LINE
  5
196
100
AcDbEntity
  8
0
370
    -3
  6
Continuous
100
AcDbLine
 10
-11.853912
 20
178.349983
 30
0.0
 11
-11.853912
 21
166.749983
 31
0.0
  0
LINE
  5
197
100
AcDbEntity
  8
0
370
    -3
  6
Continuous
100
AcDbLine
 10
-9.853912
 20
167.499983
 30
0.0
 11
-11.053912
 21
167.499983
 31
0.0
  0
LINE
  5
198
100
AcDbEntity
  8
0
370
    -3
  6
Continuous
100
AcDbLine
 10
-9.294105
 20
167.349983
 30
0.0
 11
-9.853912
 21
167.499983
 31
0.0
  0
LINE
  5
199
100
AcDbEntity
  8
0
370
    -3
  6
Continuous
100
AcDbLine
 10
-11.853912
 20
166.749983
 30
0.0
 11
-12.253912
 21
166.349983
 31
0.0
  0
LINE
  5
19A
100
AcDbEntity
  8
0
370
    -3
  6
Continuous
100
AcDbLine
 10
23.746088
 20
189.349983
 30
0.0
 11
-9.294105
 21
189.349983
 31
0.0
  0
ARC
  5
19B
100
AcDbEntity
  8
0
370
    -3
  6
Continuous
100
AcDbCircle
 10
-11.053912
 20
166.699983
 30
0.0
 40
0.8
100
AcDbArc
 50
90.0
 51
176.296803
  0
LINE
  5
19C
100
AcDbEntity
  8
0
370
    -3
  6
Continuous
100
AcDbLine
 10
-9.853912
 20
167.499983
 30
0.0
 11
-11.053912
 21
167.499983
 31
0.0
  0
LINE
  5
19D
100
AcDbEntity
  8
0
370
    -3
  6
Continuous
100
AcDbLine
 10
-9.294105
 20
167.349983
 30
0.0
 11
-9.853912
 21
167.499983
 31
0.0
  0
LINE
  5
19E
100
AcDbEntity
  8
0
370
    -3
  6
Continuous
100
AcDbLine
 10
-11.853912
 20
166.749983
 30
0.0
 11
-12.253912
 21
166.349983
 31
0.0
  0
LINE
  5
19F
100
AcDbEntity
  8
0
370
    -3
  6
Continuous
100
AcDbLine
 10
23.746088
 20
189.349983
 30
0.0
 11
-9.294105
 21
189.349983
 31
0.0
  0
LINE
  5
1A0
100
AcDbEntity
  8
0
370
    -3
  6
Continuous
100
AcDbLine
 10
-13.853912
 20
166.349983
 30
0.0
 11
-12.253912
 21
166.349983
 31
0.0
  0
LINE
  5
1A1
100
AcDbEntity
  8
0
370
    -3
  6
Continuous
100
AcDbLine
 10
24.146088
 20
178.349983
 30
0.0
 11
24.146088
 21
188.949983
 31
0.0
  0
ARC
  5
1A2
100
AcDbEntity
  8
0
370
    -3
  6
Continuous
100
AcDbCircle
 10
23.746088
 20
188.949983
 30
0.0
 40
0.4
100
AcDbArc
 50
0.0
 51
90.0
  0
LINE
  5
1A3
100
AcDbEntity
  8
0
370
    -3
  6
CENTER
100
AcDbLine
 10
-10.631079
 20
109.407071
 30
0.0
 11
-43.468267
 21
109.407071
 31
0.0
  0
LINE
  5
1A4
100
AcDbEntity
  8
0
370
    -3
  6
CENTER
100
AcDbLine
 10
-10.631079
 20
247.292894
 30
0.0
 11
-43.468267
 21
247.292894
 31
0.0
  0
LINE
  5
1A5
100
AcDbEntity
  8
0
370
    -3
  6
Continuous
100
AcDbLine
 10
-36.353912
 20
139.334045
 30
0.0
 11
-46.303431
 21
139.334045
 31
0.0
  0
ARC
  5
1A6
100
AcDbEntity
  8
0
370
    -3
  6
Continuous
100
AcDbCircle
 10
-49.264148
 20
133.677191
 30
0.0
 40
2.0
100
AcDbArc
 50
38.684601
 51
90.0
  0
LINE
  5
1A7
100
AcDbEntity
  8
0
370
    -3
  6
Continuous
100
AcDbLine
 10
-47.702952
 20
134.927257
 30
0.0
 11
-34.792715
 21
118.803769
 31
0.0
  0
ARC
  5
1A8
100
AcDbEntity
  8
0
370
    -3
  6
Continuous
100
AcDbCircle
 10
-36.353912
 20
117.553704
 30
0.0
 40
2.0
100
AcDbArc
 50
0.0
 51
38.684601
  0
ARC
  5
1A9
100
AcDbEntity
  8
0
370
    -3
  6
Continuous
100
AcDbCircle
 10
-49.264148
 20
137.334045
 30
0.0
 40
2.0
100
AcDbArc
 50
38.684601
 51
90.0
  0
LINE
  5
1AA
100
AcDbEntity
  8
0
370
    -3
  6
Continuous
100
AcDbLine
 10
-47.702952
 20
138.584111
 30
0.0
 11
-34.792715
 21
122.460624
 31
0.0
  0
ARC
  5
1AB
100
AcDbEntity
  8
0
370
    -3
  6
Continuous
100
AcDbCircle
 10
-36.353912
 20
121.210558
 30
0.0
 40
2.0
100
AcDbArc
 50
0.0
 51
38.684601
  0
ARC
  5
1AC
100
AcDbEntity
  8
0
370
    -3
  6
Continuous
100
AcDbCircle
 10
-49.264148
 20
219.36592
 30
0.0
 40
2.0
100
AcDbArc
 50
270.0
 51
321.315399
  0
LINE
  5
1AD
100
AcDbEntity
  8
0
370
    -3
  6
Continuous
100
AcDbLine
 10
-47.702952
 20
218.115854
 30
0.0
 11
-34.792715
 21
234.239342
 31
0.0
  0
ARC
  5
1AE
100
AcDbEntity
  8
0
370
    -3
  6
Continuous
100
AcDbCircle
 10
-36.353912
 20
235.489407
 30
0.0
 40
2.0
100
AcDbArc
 50
321.315399
 51
0.0
  0
ARC
  5
1AF
100
AcDbEntity
  8
0
370
    -3
  6
Continuous
100
AcDbCircle
 10
-36.353912
 20
239.146262
 30
0.0
 40
2.0
100
AcDbArc
 50
321.315399
 51
0.0
  0
ARC
  5
1B0
100
AcDbEntity
  8
0
370
    -3
  6
Continuous
100
AcDbCircle
 10
-49.264148
 20
223.022774
 30
0.0
 40
2.0
100
AcDbArc
 50
270.0
 51
321.315399
  0
ARC
  5
1B1
100
AcDbEntity
  8
0
370
    -3
  6
Continuous
100
AcDbCircle
 10
-36.353912
 20
182.349983
 30
0.0
 40
2.0
100
AcDbArc
 50
270.0
 51
0.0
  0
ARC
  5
1B2
100
AcDbEntity
  8
0
370
    -3
  6
Continuous
100
AcDbCircle
 10
-36.353912
 20
174.349983
 30
0.0
 40
2.0
100
AcDbArc
 50
0.0
 51
90.0
  0
ARC
  5
1B3
100
AcDbEntity
  8
0
370
    -3
  6
Continuous
100
AcDbCircle
 10
-46.303431
 20
174.349983
 30
0.0
 40
2.0
100
AcDbArc
 50
90.0
 51
180.0
  0
ARC
  5
1B4
100
AcDbEntity
  8
0
370
    -3
  6
Continuous
100
AcDbCircle
 10
-46.303431
 20
182.349983
 30
0.0
 40
2.0
100
AcDbArc
 50
180.0
 51
270.0
  0
LINE
  5
1B5
100
AcDbEntity
  8
0
370
    -3
  6
Continuous
100
AcDbLine
 10
-47.702952
 20
221.772708
 30
0.0
 11
-34.792715
 21
237.896196
 31
0.0
  0
LINE
  5
1B6
100
AcDbEntity
  8
0
370
    -3
  6
Continuous
100
AcDbLine
 10
-36.353912
 20
217.36592
 30
0.0
 11
-46.303431
 21
217.36592
 31
0.0
  0
LINE
  5
1B7
100
AcDbEntity
  8
0
370
    -3
  6
Continuous
100
AcDbLine
 10
-36.353912
 20
176.349983
 30
0.0
 11
-46.303431
 21
176.349983
 31
0.0
  0
LINE
  5
1B8
100
AcDbEntity
  8
0
370
    -3
  6
Continuous
100
AcDbLine
 10
-36.353912
 20
180.349983
 30
0.0
 11
-46.303431
 21
180.349983
 31
0.0
  0
LINE
  5
1B9
100
AcDbEntity
  8
0
370
    -3
  6
Continuous
100
AcDbLine
 10
-95.853912
 20
107.25661
 30
0.0
 11
-37.301555
 21
106.234574
 31
0.0
  0
ARC
  5
1BA
100
AcDbEntity
  8
0
370
    -3
  6
Continuous
100
AcDbCircle
 10
-37.353912
 20
103.235031
 30
0.0
 40
3.0
100
AcDbArc
 50
0.0
 51
89.0
  0
LINE
  5
1BB
100
AcDbEntity
  8
0
370
    -3
  6
Continuous
100
AcDbLine
 10
-95.853912
 20
249.443356
 30
0.0
 11
-37.301555
 21
250.465391
 31
0.0
  0
LINE
  5
1BC
100
AcDbEntity
  8
0
370
    -3
  6
Continuous
100
AcDbLine
 10
-13.853912
 20
178.349983
 30
0.0
 11
-13.853912
 21
157.372605
 31
0.0
  0
LINE
  5
1BD
100
AcDbEntity
  8
0
370
    -3
  6
Continuous
100
AcDbLine
 10
-13.853912
 20
178.349983
 30
0.0
 11
-13.853912
 21
199.32736
 31
0.0
  0
LINE
  5
1BE
100
AcDbEntity
  8
0
370
    -3
  6
Continuous
100
AcDbLine
 10
-29.853912
 20
258.349983
 30
0.0
 11
-33.380089
 21
258.257646
 31
0.0
  0
LINE
  5
1BF
100
AcDbEntity
  8
0
370
    -3
  6
Continuous
100
AcDbLine
 10
-22.353912
 20
258.153588
 30
0.0
 11
-29.853912
 21
258.349983
 31
0.0
  0
LINE
  5
1C0
100
AcDbEntity
  8
0
370
    -3
  6
CENTER
100
AcDbLine
 10
37.432242
 20
178.349983
 30
0.0
 11
-372.708823
 21
178.349983
 31
0.0
  0
LINE
  5
1C1
100
AcDbEntity
  8
0
370
    -3
  6
Continuous
100
AcDbLine
 10
-20.133238
 20
103.349983
 30
0.0
 11
-19.353912
 21
104.149983
 31
0.0
  0
LINE
  5
1C2
100
AcDbEntity
  8
0
370
    -3
  6
Continuous
100
AcDbLine
 10
-20.133238
 20
253.349983
 30
0.0
 11
-19.353912
 21
252.549983
 31
0.0
  0
ARC
  5
1C3
100
AcDbEntity
  8
0
370
    -3
  6
Continuous
100
AcDbCircle
 10
-33.353912
 20
257.257989
 30
0.0
 40
1.0
100
AcDbArc
 50
91.5
 51
180.0
  0
ARC
  5
1C4
100
AcDbEntity
  8
0
370
    -3
  6
Continuous
100
AcDbCircle
 10
-37.353912
 20
253.464934
 30
0.0
 40
3.0
100
AcDbArc
 50
271.0
 51
0.0
  0
ARC
  5
1C5
100
AcDbEntity
  8
0
370
    -3
  6
Continuous
100
AcDbCircle
 10
-15.853912
 20
199.32736
 30
0.0
 40
2.0
100
AcDbArc
 50
0.0
 51
54.162347
  0
ARC
  5
1C6
100
AcDbEntity
  8
0
370
    -3
  6
Continuous
100
AcDbCircle
 10
-15.853912
 20
157.372605
 30
0.0
 40
2.0
100
AcDbArc
 50
305.837653
 51
0.0
  0
LINE
  5
1C7
100
AcDbEntity
  8
0
370
    -3
  6
Continuous
100
AcDbLine
 10
-95.853912
 20
249.443356
 30
0.0
 11
-95.853912
 21
107.25661
 31
0.0
  0
LINE
  5
1C8
100
AcDbEntity
  8
0
370
    -3
  6
Continuous
100
AcDbLine
 10
-20.133238
 20
253.349983
 30
0.0
 11
-22.353912
 21
253.349983
 31
0.0
  0
LINE
  5
1C9
100
AcDbEntity
  8
0
370
    -3
  6
Continuous
100
AcDbLine
 10
-20.133238
 20
103.349983
 30
0.0
 11
-22.353912
 21
103.349983
 31
0.0
  0
LINE
  5
1CA
100
AcDbEntity
  8
0
370
    -3
  6
Continuous
100
AcDbLine
 10
-22.353912
 20
178.349983
 30
0.0
 11
-22.353912
 21
258.140495
 31
0.0
  0
LINE
  5
1CB
100
AcDbEntity
  8
0
370
    -3
  6
Continuous
100
AcDbLine
 10
-19.353912
 20
178.349983
 30
0.0
 11
-19.353912
 21
252.549983
 31
0.0
  0
LINE
  5
1CC
100
AcDbEntity
  8
0
370
    -3
  6
Continuous
100
AcDbLine
 10
-19.353912
 20
178.349983
 30
0.0
 11
-19.353912
 21
104.149983
 31
0.0
  0
LINE
  5
1CD
100
AcDbEntity
  8
0
370
    -3
  6
Continuous
100
AcDbLine
 10
-14.682931
 20
155.751247
 30
0.0
 11
-19.353912
 21
152.37776
 31
0.0
  0
LINE
  5
1CE
100
AcDbEntity
  8
0
370
    -3
  6
Continuous
100
AcDbLine
 10
-14.682931
 20
200.948718
 30
0.0
 11
-19.353912
 21
204.322205
 31
0.0
  0
LINE
  5
1CF
100
AcDbEntity
  8
0
370
    -3
  6
Continuous
100
AcDbLine
 10
-29.853912
 20
98.349983
 30
0.0
 11
-33.380089
 21
98.442319
 31
0.0
  0
ARC
  5
1D0
100
AcDbEntity
  8
0
370
    -3
  6
Continuous
100
AcDbCircle
 10
-33.353912
 20
99.441976
 30
0.0
 40
1.0
100
AcDbArc
 50
180.0
 51
268.5
  0
LINE
  5
1D1
100
AcDbEntity
  8
0
370
    -3
  6
Continuous
100
AcDbLine
 10
-22.353912
 20
98.546377
 30
0.0
 11
-29.853912
 21
98.349983
 31
0.0
  0
LINE
  5
1D2
100
AcDbEntity
  8
0
370
    -3
  6
Continuous
100
AcDbLine
 10
-22.353912
 20
178.349983
 30
0.0
 11
-22.353912
 21
98.546377
 31
0.0
  0
LINE
  5
1D3
100
AcDbEntity
  8
0
370
    -3
  6
Continuous
100
AcDbLine
 10
-34.353912
 20
99.441976
 30
0.0
 11
-34.353912
 21
257.257989
 31
0.0
  0
ARC
  5
1D4
100
AcDbEntity
  8
0
370
    -3
  6
Continuous
100
AcDbCircle
 10
-27.353912
 20
239.37942
 30
0.0
 40
2.0
100
AcDbArc
 50
90.0
 51
180.0
  0
LINE
  5
1D5
100
AcDbEntity
  8
0
370
    -3
  6
Continuous
100
AcDbLine
 10
-22.353912
 20
241.37942
 30
0.0
 11
-27.353912
 21
241.37942
 31
0.0
  0
LINE
  5
1D6
100
AcDbEntity
  8
0
370
    -3
  6
Continuous
100
AcDbLine
 10
-27.353912
 20
223.043115
 30
0.0
 11
-22.353912
 21
223.043115
 31
0.0
  0
ARC
  5
1D7
100
AcDbEntity
  8
0
370
    -3
  6
Continuous
100
AcDbCircle
 10
-27.353912
 20
221.043115
 30
0.0
 40
2.0
100
AcDbArc
 50
90.0
 51
180.0
  0
ARC
  5
1D8
100
AcDbEntity
  8
0
370
    -3
  6
Continuous
100
AcDbCircle
 10
-27.353912
 20
117.320545
 30
0.0
 40
2.0
100
AcDbArc
 50
180.0
 51
270.0
  0
LINE
  5
1D9
100
AcDbEntity
  8
0
370
    -3
  6
Continuous
100
AcDbLine
 10
-22.353912
 20
115.320545
 30
0.0
 11
-27.353912
 21
115.320545
 31
0.0
  0
LINE
  5
1DA
100
AcDbEntity
  8
0
370
    -3
  6
Continuous
100
AcDbLine
 10
-27.353912
 20
133.65685
 30
0.0
 11
-22.353912
 21
133.65685
 31
0.0
  0
ARC
  5
1DB
100
AcDbEntity
  8
0
370
    -3
  6
Continuous
100
AcDbCircle
 10
-27.353912
 20
135.65685
 30
0.0
 40
2.0
100
AcDbArc
 50
180.0
 51
270.0
  0
LINE
  5
1DC
100
AcDbEntity
  8
0
370
    -3
  6
Continuous
100
AcDbLine
 10
-29.353912
 20
117.320545
 30
0.0
 11
-29.353912
 21
178.349983
 31
0.0
  0
LINE
  5
1DD
100
AcDbEntity
  8
0
370
    -3
  6
Continuous
100
AcDbLine
 10
-29.353912
 20
178.349983
 30
0.0
 11
-29.353912
 21
239.37942
 31
0.0
  0
LINE
  5
1DE
100
AcDbEntity
  8
0
370
    -3
  6
Continuous
100
AcDbLine
 10
-95.853912
 20
249.443356
 30
0.0
 11
-96.353912
 21
249.443356
 31
0.0
  0
LINE
  5
1DF
100
AcDbEntity
  8
0
370
    -3
  6
Continuous
100
AcDbLine
 10
-96.353912
 20
107.25661
 30
0.0
 11
-96.353912
 21
249.443356
 31
0.0
  0
LINE
  5
1E0
100
AcDbEntity
  8
0
370
    -3
  6
Continuous
100
AcDbLine
 10
-95.853912
 20
107.25661
 30
0.0
 11
-96.353912
 21
107.25661
 31
0.0
  0
LINE
  5
1E1
100
AcDbEntity
  8
0
370
    -3
  6
Continuous
100
AcDbLine
 10
-102.353912
 20
139.349983
 30
0.0
 11
-108.353912
 21
139.349983
 31
0.0
  0
LINE
  5
1E2
100
AcDbEntity
  8
0
370
    -3
  6
Continuous
100
AcDbLine
 10
-102.353912
 20
149.349983
 30
0.0
 11
-108.353912
 21
149.349983
 31
0.0
  0
LINE
  5
1E3
100
AcDbEntity
  8
0
370
    -3
  6
Continuous
100
AcDbLine
 10
-108.353912
 20
139.349983
 30
0.0
 11
-108.353912
 21
149.349983
 31
0.0
  0
LINE
  5
1E4
100
AcDbEntity
  8
0
370
    -3
  6
Continuous
100
AcDbLine
 10
-102.353912
 20
150.449982
 30
0.0
 11
-102.353912
 21
138.249983
 31
0.0
  0
LINE
  5
1E5
100
AcDbEntity
  8
0
370
    -3
  6
Continuous
100
AcDbLine
 10
-102.353912
 20
217.349983
 30
0.0
 11
-108.353912
 21
217.349983
 31
0.0
  0
LINE
  5
1E6
100
AcDbEntity
  8
0
370
    -3
  6
Continuous
100
AcDbLine
 10
-102.353912
 20
207.349983
 30
0.0
 11
-108.353912
 21
207.349983
 31
0.0
  0
LINE
  5
1E7
100
AcDbEntity
  8
0
370
    -3
  6
Continuous
100
AcDbLine
 10
-108.353912
 20
217.349983
 30
0.0
 11
-108.353912
 21
207.349983
 31
0.0
  0
LINE
  5
1E8
100
AcDbEntity
  8
0
370
    -3
  6
Continuous
100
AcDbLine
 10
-102.353912
 20
206.249983
 30
0.0
 11
-102.353912
 21
218.449982
 31
0.0
  0
LINE
  5
1E9
100
AcDbEntity
  8
0
370
    -3
  6
Continuous
100
AcDbLine
 10
-129.853912
 20
237.855395
 30
0.0
 11
-129.853912
 21
118.855395
 31
0.0
  0
LINE
  5
1EA
100
AcDbEntity
  8
0
370
    -3
  6
Continuous
100
AcDbLine
 10
-446.44121
 20
-111.074818
 30
0.0
 11
-446.44121
 21
-114.274818
 31
0.0
  0
LINE
  5
1EB
100
AcDbEntity
  8
0
370
    -3
  6
Continuous
100
AcDbLine
 10
-606.44121
 20
25.725182
 30
0.0
 11
-606.44121
 21
-114.274818
 31
0.0
  0
ARC
  5
1EC
100
AcDbEntity
  8
0
370
    -3
  6
Continuous
100
AcDbCircle
 10
-566.44121
 20
-122.774818
 30
0.0
 40
6.25
100
AcDbArc
 50
331.134273
 51
359.545944
  0
ARC
  5
1ED
100
AcDbEntity
  8
0
370
    -3
  6
Continuous
100
AcDbCircle
 10
-486.44121
 20
-122.774818
 30
0.0
 40
6.25
100
AcDbArc
 50
180.454056
 51
208.865727
  0
ARC
  5
1EE
100
AcDbEntity
  8
0
370
    -3
  6
Continuous
100
AcDbCircle
 10
-566.44121
 20
-122.774818
 30
0.0
 40
7.0
100
AcDbArc
 50
171.263954
 51
231.786789
  0
ARC
  5
1EF
100
AcDbEntity
  8
0
370
    -3
  6
Continuous
100
AcDbCircle
 10
-486.44121
 20
-122.774818
 30
0.0
 40
7.0
100
AcDbArc
 50
308.213211
 51
8.736046
  0
ARC
  5
1F0
100
AcDbEntity
  8
0
370
    -3
  6
Continuous
100
AcDbCircle
 10
-486.44121
 20
-122.774818
 30
0.0
 40
8.0
100
AcDbArc
 50
214.228866
 51
223.432537
  0
ARC
  5
1F1
100
AcDbEntity
  8
0
370
    -3
  6
Continuous
100
AcDbCircle
 10
-566.44121
 20
-122.774818
 30
0.0
 40
8.0
100
AcDbArc
 50
316.567463
 51
325.771134
  0
ARC
  5
1F2
100
AcDbEntity
  8
0
370
    -3
  6
Continuous
100
AcDbCircle
 10
-596.44121
 20
-114.274818
 30
0.0
 40
10.0
100
AcDbArc
 50
180.0
 51
270.0
  0
LINE
  5
1F3
100
AcDbEntity
  8
0
370
    -3
  6
Continuous
100
AcDbLine
 10
-492.250685
 20
-128.274818
 30
0.0
 11
-482.111083
 21
-128.274818
 31
0.0
  0
LINE
  5
1F4
100
AcDbEntity
  8
0
370
    -3
  6
Continuous
100
AcDbLine
 10
-560.631735
 20
-128.274818
 30
0.0
 11
-570.771337
 21
-128.274818
 31
0.0
  0
LINE
  5
1F5
100
AcDbEntity
  8
0
370
    -3
  6
Continuous
100
AcDbLine
 10
-596.44121
 20
-124.274818
 30
0.0
 11
-573.149414
 21
-124.274818
 31
0.0
  0
LINE
  5
1F6
100
AcDbEntity
  8
0
370
    -3
  6
Continuous
100
AcDbLine
 10
-479.603813
 20
-124.274818
 30
0.0
 11
-456.44121
 21
-124.274818
 31
0.0
  0
ARC
  5
1F7
100
AcDbEntity
  8
0
370
    -3
  6
Continuous
100
AcDbCircle
 10
-566.44121
 20
-122.774818
 30
0.0
 40
7.0
100
AcDbArc
 50
171.263954
 51
231.786789
  0
ARC
  5
1F8
100
AcDbEntity
  8
0
370
    -3
  6
Continuous
100
AcDbCircle
 10
-566.44121
 20
-122.774818
 30
0.0
 40
8.0
100
AcDbArc
 50
316.567463
 51
325.771134
  0
ARC
  5
1F9
100
AcDbEntity
  8
0
370
    -3
  6
Continuous
100
AcDbCircle
 10
-560.091997
 20
-126.274818
 30
0.0
 40
1.0
100
AcDbArc
 50
151.134273
 51
270.0
  0
ARC
  5
1FA
100
AcDbEntity
  8
0
370
    -3
  6
Continuous
100
AcDbCircle
 10
-486.44121
 20
-122.774818
 30
0.0
 40
8.0
100
AcDbArc
 50
214.228866
 51
223.432537
  0
ARC
  5
1FB
100
AcDbEntity
  8
0
370
    -3
  6
Continuous
100
AcDbCircle
 10
-492.790422
 20
-126.274818
 30
0.0
 40
1.0
100
AcDbArc
 50
270.0
 51
28.865727
  0
ARC
  5
1FC
100
AcDbEntity
  8
0
370
    -3
  6
Continuous
100
AcDbCircle
 10
-486.44121
 20
-122.774818
 30
0.0
 40
7.0
100
AcDbArc
 50
308.213211
 51
8.736046
  0
ARC
  5
1FD
100
AcDbEntity
  8
0
370
    -3
  6
Continuous
100
AcDbCircle
 10
-595.94121
 20
-59.024818
 30
0.0
 40
1.0
100
AcDbArc
 50
180.0
 51
270.0
  0
ARC
  5
1FE
100
AcDbEntity
  8
0
370
    -3
  6
Continuous
100
AcDbCircle
 10
-595.94121
 20
-73.524818
 30
0.0
 40
1.0
100
AcDbArc
 50
90.0
 51
180.0
  0
LINE
  5
1FF
100
AcDbEntity
  8
0
370
    -3
  6
Continuous
100
AcDbLine
 10
-560.631735
 20
-128.274818
 30
0.0
 11
-570.771337
 21
-128.274818
 31
0.0
  0
LINE
  5
200
100
AcDbEntity
  8
0
370
    -3
  6
Continuous
100
AcDbLine
 10
-492.250685
 20
-128.274818
 30
0.0
 11
-482.111083
 21
-128.274818
 31
0.0
  0
LINE
  5
201
100
AcDbEntity
  8
0
370
    -3
  6
Continuous
100
AcDbLine
 10
-596.94121
 20
-81.632917
 30
0.0
 11
-596.94121
 21
-48.875691
 31
0.0
  0
LINE
  5
202
100
AcDbEntity
  8
0
370
    -3
  6
Continuous
100
AcDbLine
 10
-483.941211
 20
-124.218192
 30
0.0
 11
-486.441215
 21
-125.661565
 31
0.0
  0
LINE
  5
203
100
AcDbEntity
  8
0
370
    -3
  6
Continuous
100
AcDbLine
 10
-486.441215
 20
-125.661565
 30
0.0
 11
-488.941208
 21
-124.218189
 31
0.0
  0
LINE
  5
204
100
AcDbEntity
  8
0
370
    -3
  6
Continuous
100
AcDbLine
 10
-488.941208
 20
-124.218189
 30
0.0
 11
-488.941208
 21
-122.052824
 31
0.0
  0
LINE
  5
205
100
AcDbEntity
  8
0
370
    -3
  6
Continuous
100
AcDbLine
 10
-568.941209
 20
-124.218192
 30
0.0
 11
-566.441205
 21
-125.661565
 31
0.0
  0
LINE
  5
206
100
AcDbEntity
  8
0
370
    -3
  6
Continuous
100
AcDbLine
 10
-566.441204
 20
-125.661565
 30
0.0
 11
-563.941212
 21
-124.218189
 31
0.0
  0
LINE
  5
207
100
AcDbEntity
  8
0
370
    -3
  6
Continuous
100
AcDbLine
 10
-563.941212
 20
-124.218189
 30
0.0
 11
-563.941212
 21
-122.052824
 31
0.0
  0
ELLIPSE
  5
208
100
AcDbEntity
  8
0
370
    -3
  6
Continuous
100
AcDbEllipse
 10
-264.853912
 20
-14.146104
 30
0.0
 11
4.6999999999999886
 21
0.0
 31
0.0
210
0.0
220
0.0
230
1.0
 40
0.766646
 41
5.1052656875386635
 42
4.3195122732306146
  0
LINE
  5
209
100
AcDbEntity
  8
0
370
    -3
  6
Continuous
100
AcDbLine
 10
-266.853912
 20
-11.153729
 30
0.0
 11
-264.853912
 21
-12.329514
 31
0.0
  0
LINE
  5
20A
100
AcDbEntity
  8
0
370
    -3
  6
Continuous
100
AcDbLine
 10
-264.853912
 20
-12.329514
 30
0.0
 11
-262.853912
 21
-13.982156
 31
0.0
  0
LINE
  5
20B
100
AcDbEntity
  8
0
370
    -3
  6
Continuous
100
AcDbLine
 10
-262.853912
 20
-11.153729
 30
0.0
 11
-264.853912
 21
-12.329514
 31
0.0
  0
LINE
  5
20C
100
AcDbEntity
  8
0
370
    -3
  6
Continuous
100
AcDbLine
 10
-264.853912
 20
-12.329514
 30
0.0
 11
-266.853912
 21
-13.982156
 31
0.0
  0
LINE
  5
20D
100
AcDbEntity
  8
0
370
    -3
  6
Continuous
100
AcDbLine
 10
-253.853912
 20
-111.074818
 30
0.0
 11
-253.853912
 21
-124.274818
 31
0.0
  0
ARC
  5
20E
100
AcDbEntity
  8
0
370
    -3
  6
Continuous
100
AcDbCircle
 10
-334.547937
 20
-104.274818
 30
0.0
 40
20.0
100
AcDbArc
 50
235.0
 51
270.0
  0
LINE
  5
20F
100
AcDbEntity
  8
0
370
    -3
  6
Continuous
100
AcDbLine
 10
-253.853912
 20
-124.274818
 30
0.0
 11
-334.547937
 21
-124.274818
 31
0.0
  0
LINE
  5
210
100
AcDbEntity
  8
0
370
    -3
  6
Continuous
100
AcDbLine
 10
-356.853912
 20
-64.274818
 30
0.0
 11
-356.853912
 21
-111.718023
 31
0.0
  0
ARC
  5
211
100
AcDbEntity
  8
0
370
    -3
  6
Continuous
100
AcDbCircle
 10
-354.253912
 20
-111.718023
 30
0.0
 40
2.6
100
AcDbArc
 50
180.0
 51
235.0
  0
LINE
  5
212
100
AcDbEntity
  8
0
370
    -3
  6
Continuous
100
AcDbLine
 10
-346.019465
 20
-120.657859
 30
0.0
 11
-355.745211
 21
-113.847818
 31
0.0
  0
ARC
  5
213
100
AcDbEntity
  8
0
370
    -3
  6
Continuous
100
AcDbCircle
 10
-354.253912
 20
-16.831613
 30
0.0
 40
2.6
100
AcDbArc
 50
125.0
 51
180.0
  0
LINE
  5
214
100
AcDbEntity
  8
0
370
    -3
  6
Continuous
100
AcDbLine
 10
-356.853912
 20
-64.274818
 30
0.0
 11
-356.853912
 21
-16.831613
 31
0.0
  0
ARC
  5
215
100
AcDbEntity
  8
0
370
    -3
  6
Continuous
100
AcDbCircle
 10
-334.547937
 20
-24.274818
 30
0.0
 40
20.0
100
AcDbArc
 50
90.0
 51
125.0
  0
LINE
  5
216
100
AcDbEntity
  8
0
370
    -3
  6
Continuous
100
AcDbLine
 10
-346.019465
 20
-7.891777
 30
0.0
 11
-355.745211
 21
-14.701817
 31
0.0
  0
LINE
  5
217
100
AcDbEntity
  8
0
370
    -3
  6
Continuous
100
AcDbLine
 10
-253.853912
 20
-17.474818
 30
0.0
 11
-253.853912
 21
-4.274818
 31
0.0
  0
LINE
  5
218
100
AcDbEntity
  8
0
370
    -3
  6
Continuous
100
AcDbLine
 10
-253.853912
 20
-4.274818
 30
0.0
 11
-334.547937
 21
-4.274818
 31
0.0
  0
LINE
  5
219
100
AcDbEntity
  8
0
370
    -3
  6
Continuous
100
AcDbLine
 10
-182.956443
 20
-88.739201
 30
0.0
 11
-129.853912
 21
-88.739201
 31
0.0
  0
LINE
  5
21A
100
AcDbEntity
  8
0
370
    -3
  6
Continuous
100
AcDbLine
 10
-182.956443
 20
-90.863426
 30
0.0
 11
-129.853912
 21
-90.863426
 31
0.0
  0
LINE
  5
21B
100
AcDbEntity
  8
0
370
    -3
  6
Continuous
100
AcDbLine
 10
-182.956443
 20
-94.195936
 30
0.0
 11
-129.853912
 21
-94.195936
 31
0.0
  0
LINE
  5
21C
100
AcDbEntity
  8
0
370
    -3
  6
Continuous
100
AcDbLine
 10
-182.956443
 20
-96.42534
 30
0.0
 11
-129.853912
 21
-96.42534
 31
0.0
  0
LINE
  5
21D
100
AcDbEntity
  8
0
370
    -3
  6
Continuous
100
AcDbLine
 10
-182.956443
 20
-99.633938
 30
0.0
 11
-129.853912
 21
-99.633938
 31
0.0
  0
LINE
  5
21E
100
AcDbEntity
  8
0
370
    -3
  6
Continuous
100
AcDbLine
 10
-182.956443
 20
-101.970638
 30
0.0
 11
-129.853912
 21
-101.970638
 31
0.0
  0
LINE
  5
21F
100
AcDbEntity
  8
0
370
    -3
  6
Continuous
100
AcDbLine
 10
-182.956443
 20
-34.3537
 30
0.0
 11
-129.853912
 21
-34.3537
 31
0.0
  0
LINE
  5
220
100
AcDbEntity
  8
0
370
    -3
  6
Continuous
100
AcDbLine
 10
-182.956443
 20
-39.810434
 30
0.0
 11
-129.853912
 21
-39.810434
 31
0.0
  0
LINE
  5
221
100
AcDbEntity
  8
0
370
    -3
  6
Continuous
100
AcDbLine
 10
-182.956443
 20
-37.68621
 30
0.0
 11
-129.853912
 21
-37.68621
 31
0.0
  0
LINE
  5
222
100
AcDbEntity
  8
0
370
    -3
  6
Continuous
100
AcDbLine
 10
-182.956443
 20
-45.524818
 30
0.0
 11
-129.853912
 21
-45.524818
 31
0.0
  0
LINE
  5
223
100
AcDbEntity
  8
0
370
    -3
  6
Continuous
100
AcDbLine
 10
-183.009653
 20
-26.578998
 30
0.0
 11
-129.853912
 21
-26.578998
 31
0.0
  0
LINE
  5
224
100
AcDbEntity
  8
0
370
    -3
  6
Continuous
100
AcDbLine
 10
-182.956443
 20
-28.915697
 30
0.0
 11
-129.853912
 21
-28.915697
 31
0.0
  0
LINE
  5
225
100
AcDbEntity
  8
0
370
    -3
  6
Continuous
100
AcDbLine
 10
-182.956443
 20
-32.124296
 30
0.0
 11
-129.853912
 21
-32.124296
 31
0.0
  0
LINE
  5
226
100
AcDbEntity
  8
0
370
    -3
  6
Continuous
100
AcDbLine
 10
-182.956443
 20
-83.024818
 30
0.0
 11
-129.853912
 21
-83.024818
 31
0.0
  0
LINE
  5
227
100
AcDbEntity
  8
0
370
    -3
  6
Continuous
100
AcDbLine
 10
-253.853912
 20
-121.274818
 30
0.0
 11
-129.853912
 21
-121.274818
 31
0.0
  0
LINE
  5
228
100
AcDbEntity
  8
0
370
    -3
  6
Continuous
100
AcDbLine
 10
-253.853912
 20
-121.774818
 30
0.0
 11
-129.853912
 21
-121.774818
 31
0.0
  0
LINE
  5
229
100
AcDbEntity
  8
0
370
    -3
  6
Continuous
100
AcDbLine
 10
-253.853912
 20
-120.274818
 30
0.0
 11
-129.853912
 21
-120.274818
 31
0.0
  0
LINE
  5
22A
100
AcDbEntity
  8
0
370
    -3
  6
Continuous
100
AcDbLine
 10
-253.853912
 20
-119.274818
 30
0.0
 11
-129.853912
 21
-119.274818
 31
0.0
  0
LINE
  5
22B
100
AcDbEntity
  8
0
370
    -3
  6
Continuous
100
AcDbLine
 10
-253.853912
 20
-114.590352
 30
0.0
 11
-129.853912
 21
-114.590352
 31
0.0
  0
LINE
  5
22C
100
AcDbEntity
  8
0
370
    -3
  6
Continuous
100
AcDbLine
 10
-186.249031
 20
-109.640605
 30
0.0
 11
-129.853912
 21
-109.640605
 31
0.0
  0
LINE
  5
22D
100
AcDbEntity
  8
0
370
    -3
  6
Continuous
100
AcDbLine
 10
-129.853912
 20
-122.774818
 30
0.0
 11
-253.853912
 21
-122.774818
 31
0.0
  0
LINE
  5
22E
100
AcDbEntity
  8
0
370
    -3
  6
Continuous
100
AcDbLine
 10
-253.853912
 20
-7.274818
 30
0.0
 11
-129.853912
 21
-7.274818
 31
0.0
  0
LINE
  5
22F
100
AcDbEntity
  8
0
370
    -3
  6
Continuous
100
AcDbLine
 10
-253.853912
 20
-6.774818
 30
0.0
 11
-129.853912
 21
-6.774818
 31
0.0
  0
LINE
  5
230
100
AcDbEntity
  8
0
370
    -3
  6
Continuous
100
AcDbLine
 10
-253.853912
 20
-8.274818
 30
0.0
 11
-129.853912
 21
-8.274818
 31
0.0
  0
LINE
  5
231
100
AcDbEntity
  8
0
370
    -3
  6
Continuous
100
AcDbLine
 10
-253.853912
 20
-9.274818
 30
0.0
 11
-129.853912
 21
-9.274818
 31
0.0
  0
LINE
  5
232
100
AcDbEntity
  8
0
370
    -3
  6
Continuous
100
AcDbLine
 10
-253.853912
 20
-13.959284
 30
0.0
 11
-129.853912
 21
-13.959284
 31
0.0
  0
LINE
  5
233
100
AcDbEntity
  8
0
370
    -3
  6
Continuous
100
AcDbLine
 10
-186.249031
 20
-18.909031
 30
0.0
 11
-129.853912
 21
-18.909031
 31
0.0
  0
LINE
  5
234
100
AcDbEntity
  8
0
370
    -3
  6
Continuous
100
AcDbLine
 10
-129.853912
 20
-5.774818
 30
0.0
 11
-253.853912
 21
-5.774818
 31
0.0
  0
ELLIPSE
  5
235
100
AcDbEntity
  8
0
370
    -3
  6
Continuous
100
AcDbEllipse
 10
-264.853912
 20
-114.403531
 30
0.0
 11
4.6999999999999886
 21
0.0
 31
0.0
210
0.0
220
0.0
230
1.0
 40
0.766646
 41
1.9636730339489714
 42
1.1779196196409232
  0
LINE
  5
236
100
AcDbEntity
  8
0
370
    -3
  6
Continuous
100
AcDbLine
 10
-264.853912
 20
-116.220121
 30
0.0
 11
-266.853912
 21
-114.56748
 31
0.0
  0
LINE
  5
237
100
AcDbEntity
  8
0
370
    -3
  6
Continuous
100
AcDbLine
 10
-262.853912
 20
-117.395907
 30
0.0
 11
-264.853912
 21
-116.220121
 31
0.0
  0
LINE
  5
238
100
AcDbEntity
  8
0
370
    -3
  6
Continuous
100
AcDbLine
 10
-264.853912
 20
-116.220121
 30
0.0
 11
-262.853912
 21
-114.56748
 31
0.0
  0
LINE
  5
239
100
AcDbEntity
  8
0
370
    -3
  6
Continuous
100
AcDbLine
 10
-266.853912
 20
-117.395907
 30
0.0
 11
-264.853912
 21
-116.220121
 31
0.0
  0
LINE
  5
23A
100
AcDbEntity
  8
0
370
    -3
  6
CENTER
100
AcDbLine
 10
-88.136031
 20
-64.274818
 30
0.0
 11
-366.1481
 21
-64.274818
 31
0.0
  0
LINE
  5
23B
100
AcDbEntity
  8
0
370
    -3
  6
Continuous
100
AcDbLine
 10
-129.853912
 20
163.349983
 30
0.0
 11
-105.353912
 21
163.349983
 31
0.0
  0
LINE
  5
23C
100
AcDbEntity
  8
0
370
    -3
  6
Continuous
100
AcDbLine
 10
-129.853912
 20
158.976721
 30
0.0
 11
-105.353912
 21
158.976721
 31
0.0
  0
LINE
  5
23D
100
AcDbEntity
  8
0
370
    -3
  6
Continuous
100
AcDbLine
 10
-129.853912
 20
157.710483
 30
0.0
 11
-105.353912
 21
157.710483
 31
0.0
  0
LINE
  5
23E
100
AcDbEntity
  8
0
370
    -3
  6
Continuous
100
AcDbLine
 10
-129.853912
 20
153.519929
 30
0.0
 11
-105.353912
 21
153.519929
 31
0.0
  0
LINE
  5
23F
100
AcDbEntity
  8
0
370
    -3
  6
Continuous
100
AcDbLine
 10
-129.853912
 20
152.158049
 30
0.0
 11
-105.353912
 21
152.158049
 31
0.0
  0
LINE
  5
240
100
AcDbEntity
  8
0
370
    -3
  6
Continuous
100
AcDbLine
 10
-129.853912
 20
148.067548
 30
0.0
 11
-108.353912
 21
148.067548
 31
0.0
  0
LINE
  5
241
100
AcDbEntity
  8
0
370
    -3
  6
Continuous
100
AcDbLine
 10
-129.853912
 20
146.599191
 30
0.0
 11
-108.353912
 21
146.599191
 31
0.0
  0
LINE
  5
242
100
AcDbEntity
  8
0
370
    -3
  6
Continuous
100
AcDbLine
 10
-129.853912
 20
142.635445
 30
0.0
 11
-108.353912
 21
142.635445
 31
0.0
  0
LINE
  5
243
100
AcDbEntity
  8
0
370
    -3
  6
Continuous
100
AcDbLine
 10
-129.853912
 20
141.030798
 30
0.0
 11
-108.353912
 21
141.030798
 31
0.0
  0
LINE
  5
244
100
AcDbEntity
  8
0
370
    -3
  6
Continuous
100
AcDbLine
 10
-129.853912
 20
132.984196
 30
0.0
 11
-105.353912
 21
132.984196
 31
0.0
  0
LINE
  5
245
100
AcDbEntity
  8
0
370
    -3
  6
Continuous
100
AcDbLine
 10
-129.853912
 20
128.034448
 30
0.0
 11
-105.353912
 21
128.034448
 31
0.0
  0
LINE
  5
246
100
AcDbEntity
  8
0
370
    -3
  6
Continuous
100
AcDbLine
 10
-129.853912
 20
123.349983
 30
0.0
 11
-123.568796
 21
123.349983
 31
0.0
  0
LINE
  5
247
100
AcDbEntity
  8
0
370
    -3
  6
Continuous
100
AcDbLine
 10
-129.853912
 20
122.349983
 30
0.0
 11
-124.553759
 21
122.349983
 31
0.0
  0
LINE
  5
248
100
AcDbEntity
  8
0
370
    -3
  6
Continuous
100
AcDbLine
 10
-129.853912
 20
121.349983
 30
0.0
 11
-125.306064
 21
121.349983
 31
0.0
  0
LINE
  5
249
100
AcDbEntity
  8
0
370
    -3
  6
Continuous
100
AcDbLine
 10
-129.853912
 20
223.715769
 30
0.0
 11
-105.353912
 21
223.715769
 31
0.0
  0
LINE
  5
24A
100
AcDbEntity
  8
0
370
    -3
  6
Continuous
100
AcDbLine
 10
-129.853912
 20
193.349983
 30
0.0
 11
-105.353912
 21
193.349983
 31
0.0
  0
LINE
  5
24B
100
AcDbEntity
  8
0
370
    -3
  6
Continuous
100
AcDbLine
 10
-129.853912
 20
197.723244
 30
0.0
 11
-105.353912
 21
197.723244
 31
0.0
  0
LINE
  5
24C
100
AcDbEntity
  8
0
370
    -3
  6
Continuous
100
AcDbLine
 10
-129.853912
 20
198.989482
 30
0.0
 11
-105.353912
 21
198.989482
 31
0.0
  0
LINE
  5
24D
100
AcDbEntity
  8
0
370
    -3
  6
Continuous
100
AcDbLine
 10
-129.853912
 20
203.180036
 30
0.0
 11
-105.353912
 21
203.180036
 31
0.0
  0
LINE
  5
24E
100
AcDbEntity
  8
0
370
    -3
  6
Continuous
100
AcDbLine
 10
-129.853912
 20
204.541916
 30
0.0
 11
-105.353912
 21
204.541916
 31
0.0
  0
LINE
  5
24F
100
AcDbEntity
  8
0
370
    -3
  6
Continuous
100
AcDbLine
 10
-129.853912
 20
208.632417
 30
0.0
 11
-108.353912
 21
208.632417
 31
0.0
  0
LINE
  5
250
100
AcDbEntity
  8
0
370
    -3
  6
Continuous
100
AcDbLine
 10
-129.853912
 20
210.100774
 30
0.0
 11
-108.353912
 21
210.100774
 31
0.0
  0
LINE
  5
251
100
AcDbEntity
  8
0
370
    -3
  6
Continuous
100
AcDbLine
 10
-129.853912
 20
214.06452
 30
0.0
 11
-108.353912
 21
214.06452
 31
0.0
  0
LINE
  5
252
100
AcDbEntity
  8
0
370
    -3
  6
Continuous
100
AcDbLine
 10
-129.853912
 20
215.669168
 30
0.0
 11
-108.353912
 21
215.669168
 31
0.0
  0
LINE
  5
253
100
AcDbEntity
  8
0
370
    -3
  6
Continuous
100
AcDbLine
 10
-129.853912
 20
233.349983
 30
0.0
 11
-123.568796
 21
233.349983
 31
0.0
  0
LINE
  5
254
100
AcDbEntity
  8
0
370
    -3
  6
Continuous
100
AcDbLine
 10
-129.853912
 20
235.349983
 30
0.0
 11
-125.306064
 21
235.349983
 31
0.0
  0
LINE
  5
255
100
AcDbEntity
  8
0
370
    -3
  6
Continuous
100
AcDbLine
 10
-129.853912
 20
234.349983
 30
0.0
 11
-124.553759
 21
234.349983
 31
0.0
  0
LINE
  5
256
100
AcDbEntity
  8
0
370
    -3
  6
Continuous
100
AcDbLine
 10
-129.853912
 20
228.665517
 30
0.0
 11
-105.353912
 21
228.665517
 31
0.0
  0
ELLIPSE
  5
257
100
AcDbEntity
  8
0
370
    -3
  6
Continuous
100
AcDbEllipse
 10
-264.853912
 20
128.221277
 30
0.0
 11
-4.6999999999999886
 21
0.0
 31
0.0
210
0.0
220
0.0
230
1.0
 40
0.766646
 41
0.0
 42
6.2831853071795862
  0
LINE
  5
258
100
AcDbEntity
  8
0
370
    -3
  6
Continuous
100
AcDbLine
 10
-266.853912
 20
125.228902
 30
0.0
 11
-264.853912
 21
126.404687
 31
0.0
  0
LINE
  5
259
100
AcDbEntity
  8
0
370
    -3
  6
Continuous
100
AcDbLine
 10
-264.853912
 20
126.404687
 30
0.0
 11
-262.853912
 21
128.057329
 31
0.0
  0
LINE
  5
25A
100
AcDbEntity
  8
0
370
    -3
  6
Continuous
100
AcDbLine
 10
-262.853912
 20
125.228902
 30
0.0
 11
-264.853912
 21
126.404687
 31
0.0
  0
LINE
  5
25B
100
AcDbEntity
  8
0
370
    -3
  6
Continuous
100
AcDbLine
 10
-264.853912
 20
126.404687
 30
0.0
 11
-266.853912
 21
128.057329
 31
0.0
  0
ELLIPSE
  5
25C
100
AcDbEntity
  8
0
370
    -3
  6
Continuous
100
AcDbEllipse
 10
-264.853912
 20
228.478688
 30
0.0
 11
4.6999999999999886
 21
0.0
 31
0.0
210
0.0
220
0.0
230
1.0
 40
0.766646
 41
0.0
 42
6.2831853071795862
  0
LINE
  5
25D
100
AcDbEntity
  8
0
370
    -3
  6
Continuous
100
AcDbLine
 10
-266.853912
 20
231.471063
 30
0.0
 11
-264.853912
 21
230.295278
 31
0.0
  0
LINE
  5
25E
100
AcDbEntity
  8
0
370
    -3
  6
Continuous
100
AcDbLine
 10
-264.853912
 20
230.295278
 30
0.0
 11
-262.853912
 21
228.642636
 31
0.0
  0
LINE
  5
25F
100
AcDbEntity
  8
0
370
    -3
  6
Continuous
100
AcDbLine
 10
-262.853912
 20
231.471063
 30
0.0
 11
-264.853912
 21
230.295278
 31
0.0
  0
LINE
  5
260
100
AcDbEntity
  8
0
370
    -3
  6
Continuous
100
AcDbLine
 10
-264.853912
 20
230.295278
 30
0.0
 11
-266.853912
 21
228.642636
 31
0.0
  0
LINE
  5
261
100
AcDbEntity
  8
0
370
    -3
  6
Continuous
100
AcDbLine
 10
-247.523059
 20
118.855395
 30
0.0
 11
-209.184765
 21
118.855395
 31
0.0
  0
LINE
  5
262
100
AcDbEntity
  8
0
370
    -3
  6
Continuous
100
AcDbLine
 10
-201.561118
 20
118.855395
 30
0.0
 11
-129.853912
 21
118.855395
 31
0.0
  0
LINE
  5
263
100
AcDbEntity
  8
0
370
    -3
  6
Continuous
100
AcDbLine
 10
-253.853912
 20
163.355395
 30
0.0
 11
-129.853912
 21
163.355395
 31
0.0
  0
LINE
  5
264
100
AcDbEntity
  8
0
370
    -3
  6
Continuous
100
AcDbLine
 10
-253.853912
 20
123.355395
 30
0.0
 11
-129.853912
 21
123.355395
 31
0.0
  0
LINE
  5
265
100
AcDbEntity
  8
0
370
    -3
  6
Continuous
100
AcDbLine
 10
-253.853912
 20
122.355395
 30
0.0
 11
-129.853912
 21
122.355395
 31
0.0
  0
LINE
  5
266
100
AcDbEntity
  8
0
370
    -3
  6
Continuous
100
AcDbLine
 10
-253.853912
 20
121.355395
 30
0.0
 11
-129.853912
 21
121.355395
 31
0.0
  0
LINE
  5
267
100
AcDbEntity
  8
0
370
    -3
  6
Continuous
100
AcDbLine
 10
-253.853912
 20
235.355395
 30
0.0
 11
-129.853912
 21
235.355395
 31
0.0
  0
LINE
  5
268
100
AcDbEntity
  8
0
370
    -3
  6
Continuous
100
AcDbLine
 10
-253.853912
 20
234.355395
 30
0.0
 11
-129.853912
 21
234.355395
 31
0.0
  0
LINE
  5
269
100
AcDbEntity
  8
0
370
    -3
  6
Continuous
100
AcDbLine
 10
-253.853912
 20
233.355395
 30
0.0
 11
-129.853912
 21
233.355395
 31
0.0
  0
LINE
  5
26A
100
AcDbEntity
  8
0
370
    -3
  6
Continuous
100
AcDbLine
 10
-253.853912
 20
228.670929
 30
0.0
 11
-129.853912
 21
228.670929
 31
0.0
  0
LINE
  5
26B
100
AcDbEntity
  8
0
370
    -3
  6
Continuous
100
AcDbLine
 10
-253.853912
 20
223.721182
 30
0.0
 11
-129.853912
 21
223.721182
 31
0.0
  0
LINE
  5
26C
100
AcDbEntity
  8
0
370
    -3
  6
Continuous
100
AcDbLine
 10
-253.853912
 20
193.355395
 30
0.0
 11
-129.853912
 21
193.355395
 31
0.0
  0
LINE
  5
26D
100
AcDbEntity
  8
0
370
    -3
  6
Continuous
100
AcDbLine
 10
-129.853912
 20
237.855395
 30
0.0
 11
-129.853912
 21
118.855395
 31
0.0
  0
LINE
  5
26E
100
AcDbEntity
  8
0
370
    -3
  6
Continuous
100
AcDbLine
 10
-253.853912
 20
237.855395
 30
0.0
 11
-129.853912
 21
237.855395
 31
0.0
  0
LINE
  5
26F
100
AcDbEntity
  8
0
370
    -3
  6
Continuous
100
AcDbLine
 10
-186.853912
 20
237.855395
 30
0.0
 11
-129.853912
 21
237.855395
 31
0.0
  0
LINE
  5
270
100
AcDbEntity
  8
0
370
    -3
  6
Continuous
100
AcDbLine
 10
-253.853912
 20
132.978784
 30
0.0
 11
-129.853912
 21
132.978784
 31
0.0
  0
LINE
  5
271
100
AcDbEntity
  8
0
370
    -3
  6
Continuous
100
AcDbLine
 10
-253.853912
 20
128.029036
 30
0.0
 11
-129.853912
 21
128.029036
 31
0.0
  0
LINE
  5
272
100
AcDbEntity
  8
0
370
    -3
  6
Continuous
100
AcDbLine
 10
-253.853912
 20
159.349944
 30
0.0
 11
-129.853912
 21
159.349944
 31
0.0
  0
LINE
  5
273
100
AcDbEntity
  8
0
370
    -3
  6
Continuous
100
AcDbLine
 10
-253.853912
 20
157.321432
 30
0.0
 11
-129.853912
 21
157.321432
 31
0.0
  0
LINE
  5
274
100
AcDbEntity
  8
0
370
    -3
  6
Continuous
100
AcDbLine
 10
-253.853912
 20
153.891011
 30
0.0
 11
-129.853912
 21
153.891011
 31
0.0
  0
LINE
  5
275
100
AcDbEntity
  8
0
370
    -3
  6
Continuous
100
AcDbLine
 10
-253.853912
 20
151.766787
 30
0.0
 11
-129.853912
 21
151.766787
 31
0.0
  0
LINE
  5
276
100
AcDbEntity
  8
0
370
    -3
  6
Continuous
100
AcDbLine
 10
-253.853912
 20
148.434277
 30
0.0
 11
-129.853912
 21
148.434277
 31
0.0
  0
LINE
  5
277
100
AcDbEntity
  8
0
370
    -3
  6
Continuous
100
AcDbLine
 10
-253.853912
 20
146.204873
 30
0.0
 11
-129.853912
 21
146.204873
 31
0.0
  0
LINE
  5
278
100
AcDbEntity
  8
0
370
    -3
  6
Continuous
100
AcDbLine
 10
-253.853912
 20
142.996274
 30
0.0
 11
-129.853912
 21
142.996274
 31
0.0
  0
LINE
  5
279
100
AcDbEntity
  8
0
370
    -3
  6
Continuous
100
AcDbLine
 10
-253.853912
 20
140.659575
 30
0.0
 11
-129.853912
 21
140.659575
 31
0.0
  0
LINE
  5
27A
100
AcDbEntity
  8
0
370
    -3
  6
Continuous
100
AcDbLine
 10
-253.853912
 20
197.360845
 30
0.0
 11
-129.853912
 21
197.360845
 31
0.0
  0
LINE
  5
27B
100
AcDbEntity
  8
0
370
    -3
  6
Continuous
100
AcDbLine
 10
-253.853912
 20
199.389358
 30
0.0
 11
-129.853912
 21
199.389358
 31
0.0
  0
LINE
  5
27C
100
AcDbEntity
  8
0
370
    -3
  6
Continuous
100
AcDbLine
 10
-253.853912
 20
202.819779
 30
0.0
 11
-129.853912
 21
202.819779
 31
0.0
  0
LINE
  5
27D
100
AcDbEntity
  8
0
370
    -3
  6
Continuous
100
AcDbLine
 10
-253.853912
 20
204.944003
 30
0.0
 11
-129.853912
 21
204.944003
 31
0.0
  0
LINE
  5
27E
100
AcDbEntity
  8
0
370
    -3
  6
Continuous
100
AcDbLine
 10
-253.853912
 20
208.276513
 30
0.0
 11
-129.853912
 21
208.276513
 31
0.0
  0
LINE
  5
27F
100
AcDbEntity
  8
0
370
    -3
  6
Continuous
100
AcDbLine
 10
-253.853912
 20
210.505917
 30
0.0
 11
-129.853912
 21
210.505917
 31
0.0
  0
LINE
  5
280
100
AcDbEntity
  8
0
370
    -3
  6
Continuous
100
AcDbLine
 10
-253.853912
 20
213.714515
 30
0.0
 11
-129.853912
 21
213.714515
 31
0.0
  0
LINE
  5
281
100
AcDbEntity
  8
0
370
    -3
  6
Continuous
100
AcDbLine
 10
-253.853912
 20
216.051215
 30
0.0
 11
-129.853912
 21
216.051215
 31
0.0
  0
LINE
  5
282
100
AcDbEntity
  8
0
370
    -3
  6
Continuous
100
AcDbLine
 10
-356.853912
 20
178.355395
 30
0.0
 11
-356.853912
 21
230.7986
 31
0.0
  0
ARC
  5
283
100
AcDbEntity
  8
0
370
    -3
  6
Continuous
100
AcDbCircle
 10
-334.547937
 20
223.355395
 30
0.0
 40
20.0
100
AcDbArc
 50
90.0
 51
125.0
  0
LINE
  5
284
100
AcDbEntity
  8
0
370
    -3
  6
Continuous
100
AcDbLine
 10
-346.019465
 20
239.738436
 30
0.0
 11
-355.745211
 21
232.928395
 31
0.0
  0
ARC
  5
285
100
AcDbEntity
  8
0
370
    -3
  6
Continuous
100
AcDbCircle
 10
-354.253912
 20
230.7986
 30
0.0
 40
2.6
100
AcDbArc
 50
125.0
 51
180.0
  0
LINE
  5
286
100
AcDbEntity
  8
0
370
    -3
  6
Continuous
100
AcDbLine
 10
-253.853912
 20
243.355395
 30
0.0
 11
-334.547937
 21
243.355395
 31
0.0
  0
LINE
  5
287
100
AcDbEntity
  8
0
370
    -3
  6
Continuous
100
AcDbLine
 10
-356.853912
 20
178.355395
 30
0.0
 11
-356.853912
 21
125.91219
 31
0.0
  0
LINE
  5
288
100
AcDbEntity
  8
0
370
    -3
  6
Continuous
100
AcDbLine
 10
-346.019465
 20
116.972354
 30
0.0
 11
-355.745211
 21
123.782395
 31
0.0
  0
ARC
  5
289
100
AcDbEntity
  8
0
370
    -3
  6
Continuous
100
AcDbCircle
 10
-354.253912
 20
125.91219
 30
0.0
 40
2.6
100
AcDbArc
 50
180.0
 51
235.0
  0
ARC
  5
28A
100
AcDbEntity
  8
0
370
    -3
  6
Continuous
100
AcDbCircle
 10
-334.547937
 20
133.355395
 30
0.0
 40
20.0
100
AcDbArc
 50
235.0
 51
270.0
  0
LINE
  5
28B
100
AcDbEntity
  8
0
370
    -3
  6
Continuous
100
AcDbLine
 10
-253.853912
 20
178.355395
 30
0.0
 11
-253.853912
 21
243.355395
 31
0.0
  0
LINE
  5
28C
100
AcDbEntity
  8
0
370
    -3
  6
Continuous
100
AcDbLine
 10
-253.853912
 20
178.355395
 30
0.0
 11
-253.853912
 21
119.736174
 31
0.0
  0
ARC
  5
28D
100
AcDbEntity
  8
0
370
    -3
  6
Continuous
100
AcDbCircle
 10
-256.853912
 20
119.736174
 30
0.0
 40
3.0
100
AcDbArc
 50
270.0
 51
0.0
  0
LINE
  5
28E
100
AcDbEntity
  8
0
370
    -3
  6
Continuous
100
AcDbLine
 10
-260.853912
 20
116.736174
 30
0.0
 11
-256.853912
 21
116.736174
 31
0.0
  0
ARC
  5
28F
100
AcDbEntity
  8
0
370
    -3
  6
Continuous
100
AcDbCircle
 10
-260.853912
 20
113.736174
 30
0.0
 40
3.0
100
AcDbArc
 50
90.0
 51
180.0
  0
LINE
  5
290
100
AcDbEntity
  8
0
370
    -3
  6
Continuous
100
AcDbLine
 10
-263.853912
 20
113.355395
 30
0.0
 11
-334.547937
 21
113.355395
 31
0.0
  0
LINE
  5
291
100
AcDbEntity
  8
0
370
    -3
  6
Continuous
100
AcDbLine
 10
-263.853912
 20
113.355395
 30
0.0
 11
-263.853912
 21
113.736174
 31
0.0
  0
ARC
  5
292
100
AcDbEntity
  8
0
370
    -3
  6
Continuous
100
AcDbCircle
 10
-505.639856
 20
-86.421036
 30
0.0
 40
41.0
100
AcDbArc
 50
322.922202
 51
327.536836
  0
LINE
  5
293
100
AcDbEntity
  8
0
370
    -3
  6
Continuous
100
AcDbLine
 10
-463.325061
 20
-96.211081
 30
0.0
 11
-465.843512
 21
-100.195852
 31
0.0
  0
ARC
  5
294
100
AcDbEntity
  8
0
370
    -3
  6
Continuous
100
AcDbCircle
 10
-473.592029
 20
-120.800343
 30
0.0
 40
6.0
100
AcDbArc
 50
152.527008
 51
188.736046
  0
ARC
  5
295
100
AcDbEntity
  8
0
370
    -3
  6
Continuous
100
AcDbCircle
 10
-486.44121
 20
-122.774818
 30
0.0
 40
6.25
100
AcDbArc
 50
32.4662
 51
40.724623
  0
ARC
  5
296
100
AcDbEntity
  8
0
370
    -3
  6
Continuous
100
AcDbCircle
 10
-486.44121
 20
-122.774818
 30
0.0
 40
5.0
100
AcDbArc
 50
178.357915
 51
42.820764
  0
LINE
  5
297
100
AcDbEntity
  8
0
370
    -3
  6
Continuous
100
AcDbLine
 10
-485.144454
 20
-120.636751
 30
0.0
 11
-483.941211
 21
-121.331446
 31
0.0
  0
LINE
  5
298
100
AcDbEntity
  8
0
370
    -3
  6
Continuous
100
AcDbLine
 10
-567.737966
 20
-120.636751
 30
0.0
 11
-568.941208
 21
-121.331446
 31
0.0
  0
ARC
  5
299
100
AcDbEntity
  8
0
370
    -3
  6
Continuous
100
AcDbCircle
 10
-566.44121
 20
-122.774818
 30
0.0
 40
5.0
100
AcDbArc
 50
137.179236
 51
1.642085
  0
ARC
  5
29A
100
AcDbEntity
  8
0
370
    -3
  6
Continuous
100
AcDbCircle
 10
-566.44121
 20
-122.774818
 30
0.0
 40
6.25
100
AcDbArc
 50
139.275377
 51
147.5338
  0
ARC
  5
29B
100
AcDbEntity
  8
0
370
    -3
  6
Continuous
100
AcDbCircle
 10
-547.242563
 20
-86.421036
 30
0.0
 40
41.0
100
AcDbArc
 50
212.293667
 51
217.077798
  0
ARC
  5
29C
100
AcDbEntity
  8
0
370
    -3
  6
Continuous
100
AcDbCircle
 10
-579.290391
 20
-120.800343
 30
0.0
 40
6.0
100
AcDbArc
 50
351.263954
 51
27.472992
  0
LINE
  5
29D
100
AcDbEntity
  8
0
370
    -3
  6
Continuous
100
AcDbLine
 10
-595.394419
 20
-86.975506
 30
0.0
 11
-587.038908
 21
-100.195852
 31
0.0
  0
LINE
  5
29E
100
AcDbEntity
  8
0
370
    -3
  6
Continuous
100
AcDbLine
 10
-592.941209
 20
-67.718192
 30
0.0
 11
-591.417885
 21
-68.597681
 31
0.0
  0
LINE
  5
29F
100
AcDbEntity
  8
0
370
    -3
  6
Continuous
100
AcDbLine
 10
-591.44109
 20
-63.965349
 30
0.0
 11
-592.941208
 21
-64.831446
 31
0.0
  0
ARC
  5
2A0
100
AcDbEntity
  8
0
370
    -3
  6
Continuous
100
AcDbCircle
 10
-590.44121
 20
-66.274818
 30
0.0
 40
5.0
100
AcDbArc
 50
101.414126
 51
259.159401
  0
LINE
  5
2A1
100
AcDbEntity
  8
0
370
    -3
  6
Continuous
100
AcDbLine
 10
-591.35625
 20
-72.524818
 30
0.0
 11
-595.94121
 21
-72.524818
 31
0.0
  0
LINE
  5
2A2
100
AcDbEntity
  8
0
370
    -3
  6
Continuous
100
AcDbLine
 10
-591.418665
 20
-60.024818
 30
0.0
 11
-595.94121
 21
-60.024818
 31
0.0
  0
ARC
  5
2A3
100
AcDbEntity
  8
0
370
    -3
  6
Continuous
100
AcDbCircle
 10
-588.44121
 20
-45.274818
 30
0.0
 40
8.0
100
AcDbArc
 50
101.9898
 51
249.24978
  0
LINE
  5
2A4
100
AcDbEntity
  8
0
370
    -3
  6
Continuous
100
AcDbLine
 10
-492.441205
 20
-5.38807
 30
0.0
 11
-492.966473
 21
-5.691332
 31
0.0
  0
LINE
  5
2A5
100
AcDbEntity
  8
0
370
    -3
  6
Continuous
100
AcDbLine
 10
-492.441205
 20
-5.388069
 30
0.0
 11
-491.560307
 21
-5.896657
 31
0.0
  0
ARC
  5
2A6
100
AcDbEntity
  8
0
370
    -3
  6
Continuous
100
AcDbCircle
 10
-495.960807
 20
-31.115611
 30
0.0
 40
25.6
100
AcDbArc
 50
45.0
 51
85.337794
  0
ARC
  5
2A7
100
AcDbEntity
  8
0
370
    -3
  6
Continuous
100
AcDbCircle
 10
-492.44121
 20
-8.274818
 30
0.0
 40
5.0
100
AcDbArc
 50
15.8582
 51
119.999946
  0
LINE
  5
2A8
100
AcDbEntity
  8
0
370
    -3
  6
Continuous
100
AcDbLine
 10
-486.19121
 20
-4.486081
 30
0.0
 11
-486.19121
 21
-7.453088
 31
0.0
  0
LINE
  5
2A9
100
AcDbEntity
  8
0
370
    -3
  6
Continuous
100
AcDbLine
 10
-498.69121
 20
-0.275922
 30
0.0
 11
-498.69121
 21
-5.23711
 31
0.0
  0
ARC
  5
2AA
100
AcDbEntity
  8
0
370
    -3
  6
Continuous
100
AcDbCircle
 10
-560.44121
 20
-8.274818
 30
0.0
 40
5.0
100
AcDbArc
 50
35.191643
 51
164.1418
  0
LINE
  5
2AB
100
AcDbEntity
  8
0
370
    -3
  6
Continuous
100
AcDbLine
 10
-560.441215
 20
-5.38807
 30
0.0
 11
-559.915947
 21
-5.691332
 31
0.0
  0
LINE
  5
2AC
100
AcDbEntity
  8
0
370
    -3
  6
Continuous
100
AcDbLine
 10
-560.441215
 20
-5.388069
 30
0.0
 11
-561.322112
 21
-5.896657
 31
0.0
  0
LINE
  5
2AD
100
AcDbEntity
  8
0
370
    -3
  6
Continuous
100
AcDbLine
 10
-566.69121
 20
-4.486081
 30
0.0
 11
-566.69121
 21
-7.453088
 31
0.0
  0
LINE
  5
2AE
100
AcDbEntity
  8
0
370
    -3
  6
Continuous
100
AcDbLine
 10
-554.19121
 20
-0.275922
 30
0.0
 11
-554.19121
 21
-5.23711
 31
0.0
  0
ARC
  5
2AF
100
AcDbEntity
  8
0
370
    -3
  6
Continuous
100
AcDbCircle
 10
-190.84121
 20
-64.274818
 30
0.0
 40
389.6
100
AcDbArc
 50
177.053989
 51
180.0
  0
ARC
  5
2B0
100
AcDbEntity
  8
0
370
    -3
  6
Continuous
100
AcDbCircle
 10
-550.365436
 20
-82.776998
 30
0.0
 40
29.6
100
AcDbArc
 50
182.946011
 51
225.0
  0
ARC
  5
2B1
100
AcDbEntity
  8
0
370
    -3
  6
Continuous
100
AcDbCircle
 10
-556.921613
 20
-97.434025
 30
0.0
 40
14.6
100
AcDbArc
 50
225.0
 51
265.337794
  0
ARC
  5
2B2
100
AcDbEntity
  8
0
370
    -3
  6
Continuous
100
AcDbCircle
 10
-862.04121
 20
-64.274818
 30
0.0
 40
400.6
100
AcDbArc
 50
0.0
 51
2.946011
  0
ARC
  5
2B3
100
AcDbEntity
  8
0
370
    -3
  6
Continuous
100
AcDbCircle
 10
-526.44121
 20
276.325182
 30
0.0
 40
389.6
100
AcDbArc
 50
265.337794
 51
270.0
  0
ARC
  5
2B4
100
AcDbEntity
  8
0
370
    -3
  6
Continuous
100
AcDbCircle
 10
-862.04121
 20
-64.274818
 30
0.0
 40
400.6
100
AcDbArc
 50
357.053989
 51
0.0
  0
ARC
  5
2B5
100
AcDbEntity
  8
0
370
    -3
  6
Continuous
100
AcDbCircle
 10
-526.44121
 20
276.325182
 30
0.0
 40
389.6
100
AcDbArc
 50
270.0
 51
274.662206
  0
LINE
  5
2B6
100
AcDbEntity
  8
0
370
    -3
  6
Continuous
100
AcDbLine
 10
-579.68635
 20
-17.676481
 30
0.0
 11
-580.173154
 21
-17.189677
 31
0.0
  0
LINE
  5
2B7
100
AcDbEntity
  8
0
370
    -3
  6
Continuous
100
AcDbLine
 10
-573.039547
 20
-11.029677
 30
0.0
 11
-573.52635
 21
-10.542874
 31
0.0
  0
LINE
  5
2B8
100
AcDbEntity
  8
0
370
    -3
  6
Continuous
100
AcDbLine
 10
-579.969193
 20
-17.393638
 30
0.0
 11
-573.32239
 21
-10.746835
 31
0.0
  0
LINE
  5
2B9
100
AcDbEntity
  8
0
370
    -3
  6
Continuous
100
AcDbLine
 10
-579.68635
 20
-17.676481
 30
0.0
 11
-573.039547
 21
-11.029677
 31
0.0
  0
POINT
  5
2BA
100
AcDbEntity
  8
0
370
    -3
  6
Continuous
100
AcDbPoint
 10
-576.362949
 20
-14.353079
 30
0.0
  0
ARC
  5
2BB
100
AcDbEntity
  8
0
370
    -3
  6
Continuous
100
AcDbCircle
 10
-574.100207
 20
-16.615821
 30
0.0
 40
6.099999
100
AcDbArc
 50
84.601928
 51
185.398089
  0
LINE
  5
2BC
100
AcDbEntity
  8
0
370
    -3
  6
Continuous
100
AcDbLine
 10
-473.196069
 20
-17.676481
 30
0.0
 11
-472.709266
 21
-17.189677
 31
0.0
  0
LINE
  5
2BD
100
AcDbEntity
  8
0
370
    -3
  6
Continuous
100
AcDbLine
 10
-479.842873
 20
-11.029677
 30
0.0
 11
-479.356069
 21
-10.542874
 31
0.0
  0
LINE
  5
2BE
100
AcDbEntity
  8
0
370
    -3
  6
Continuous
100
AcDbLine
 10
-472.913227
 20
-17.393638
 30
0.0
 11
-479.56003
 21
-10.746835
 31
0.0
  0
LINE
  5
2BF
100
AcDbEntity
  8
0
370
    -3
  6
Continuous
100
AcDbLine
 10
-473.196069
 20
-17.676481
 30
0.0
 11
-479.842873
 21
-11.029677
 31
0.0
  0
POINT
  5
2C0
100
AcDbEntity
  8
0
370
    -3
  6
Continuous
100
AcDbPoint
 10
-476.519471
 20
-14.353079
 30
0.0
  0
ARC
  5
2C1
100
AcDbEntity
  8
0
370
    -3
  6
Continuous
100
AcDbCircle
 10
-478.782213
 20
-16.615821
 30
0.0
 40
6.099999
100
AcDbArc
 50
354.601911
 51
95.398072
  0
LINE
  5
2C2
100
AcDbEntity
  8
0
370
    -3
  6
Continuous
100
AcDbLine
 10
-473.196069
 20
-110.873155
 30
0.0
 11
-472.709266
 21
-111.359958
 31
0.0
  0
LINE
  5
2C3
100
AcDbEntity
  8
0
370
    -3
  6
Continuous
100
AcDbLine
 10
-479.842873
 20
-117.519958
 30
0.0
 11
-479.356069
 21
-118.006762
 31
0.0
  0
LINE
  5
2C4
100
AcDbEntity
  8
0
370
    -3
  6
Continuous
100
AcDbLine
 10
-472.913227
 20
-111.155998
 30
0.0
 11
-479.56003
 21
-117.802801
 31
0.0
  0
LINE
  5
2C5
100
AcDbEntity
  8
0
370
    -3
  6
Continuous
100
AcDbLine
 10
-473.196069
 20
-110.873155
 30
0.0
 11
-479.842873
 21
-117.519958
 31
0.0
  0
POINT
  5
2C6
100
AcDbEntity
  8
0
370
    -3
  6
Continuous
100
AcDbPoint
 10
-476.519471
 20
-114.196557
 30
0.0
  0
ARC
  5
2C7
100
AcDbEntity
  8
0
370
    -3
  6
Continuous
100
AcDbCircle
 10
-478.782213
 20
-111.933815
 30
0.0
 40
6.099999
100
AcDbArc
 50
264.601928
 51
5.398089
  0
LINE
  5
2C8
100
AcDbEntity
  8
0
370
    -3
  6
Continuous
100
AcDbLine
 10
-579.68635
 20
-110.873155
 30
0.0
 11
-580.173154
 21
-111.359958
 31
0.0
  0
LINE
  5
2C9
100
AcDbEntity
  8
0
370
    -3
  6
Continuous
100
AcDbLine
 10
-573.039547
 20
-117.519958
 30
0.0
 11
-573.52635
 21
-118.006762
 31
0.0
  0
LINE
  5
2CA
100
AcDbEntity
  8
0
370
    -3
  6
Continuous
100
AcDbLine
 10
-579.969193
 20
-111.155998
 30
0.0
 11
-573.32239
 21
-117.802801
 31
0.0
  0
LINE
  5
2CB
100
AcDbEntity
  8
0
370
    -3
  6
Continuous
100
AcDbLine
 10
-579.68635
 20
-110.873155
 30
0.0
 11
-573.039547
 21
-117.519958
 31
0.0
  0
POINT
  5
2CC
100
AcDbEntity
  8
0
370
    -3
  6
Continuous
100
AcDbPoint
 10
-576.362949
 20
-114.196557
 30
0.0
  0
ARC
  5
2CD
100
AcDbEntity
  8
0
370
    -3
  6
Continuous
100
AcDbCircle
 10
-574.100207
 20
-111.933815
 30
0.0
 40
6.099999
100
AcDbArc
 50
174.601911
 51
275.398072
  0
ARC
  5
2CE
100
AcDbEntity
  8
0
370
    -3
  6
Continuous
100
AcDbCircle
 10
-526.44121
 20
-404.874818
 30
0.0
 40
400.6
100
AcDbArc
 50
85.337794
 51
90.0
  0
ARC
  5
2CF
100
AcDbEntity
  8
0
370
    -3
  6
Continuous
100
AcDbCircle
 10
-502.516984
 20
-82.776998
 30
0.0
 40
40.6
100
AcDbArc
 50
315.0
 51
357.053989
  0
LINE
  5
2D0
100
AcDbEntity
  8
0
370
    -3
  6
Continuous
100
AcDbLine
 10
-473.808448
 20
-111.485534
 30
0.0
 11
-477.858873
 21
-115.535959
 31
0.0
  0
ARC
  5
2D1
100
AcDbEntity
  8
0
370
    -3
  6
Continuous
100
AcDbCircle
 10
-495.960807
 20
-97.434025
 30
0.0
 40
25.6
100
AcDbArc
 50
274.662206
 51
315.0
  0
ARC
  5
2D2
100
AcDbEntity
  8
0
370
    -3
  6
Continuous
100
AcDbCircle
 10
-190.84121
 20
-64.274818
 30
0.0
 40
400.6
100
AcDbArc
 50
180.0
 51
182.946011
  0
LINE
  5
2D3
100
AcDbEntity
  8
0
370
    -3
  6
Continuous
100
AcDbLine
 10
-579.073972
 20
-111.485534
 30
0.0
 11
-575.023547
 21
-115.535959
 31
0.0
  0
ARC
  5
2D4
100
AcDbEntity
  8
0
370
    -3
  6
Continuous
100
AcDbCircle
 10
-556.921613
 20
-97.434025
 30
0.0
 40
25.6
100
AcDbArc
 50
225.0
 51
265.337794
  0
ARC
  5
2D5
100
AcDbEntity
  8
0
370
    -3
  6
Continuous
100
AcDbCircle
 10
-550.365436
 20
-82.776998
 30
0.0
 40
40.6
100
AcDbArc
 50
182.946011
 51
225.0
  0
ARC
  5
2D6
100
AcDbEntity
  8
0
370
    -3
  6
Continuous
100
AcDbCircle
 10
-550.365436
 20
-45.772637
 30
0.0
 40
40.6
100
AcDbArc
 50
135.0
 51
177.053989
  0
ARC
  5
2D7
100
AcDbEntity
  8
0
370
    -3
  6
Continuous
100
AcDbCircle
 10
-190.84121
 20
-64.274818
 30
0.0
 40
400.6
100
AcDbArc
 50
177.053989
 51
180.0
  0
ARC
  5
2D8
100
AcDbEntity
  8
0
370
    -3
  6
Continuous
100
AcDbCircle
 10
-526.44121
 20
-404.874818
 30
0.0
 40
400.6
100
AcDbArc
 50
90.0
 51
94.662206
  0
ARC
  5
2D9
100
AcDbEntity
  8
0
370
    -3
  6
Continuous
100
AcDbCircle
 10
-556.921613
 20
-31.115611
 30
0.0
 40
25.6
100
AcDbArc
 50
94.662206
 51
135.0
  0
LINE
  5
2DA
100
AcDbEntity
  8
0
370
    -3
  6
Continuous
100
AcDbLine
 10
-579.073972
 20
-17.064102
 30
0.0
 11
-575.023547
 21
-13.013677
 31
0.0
  0
ARC
  5
2DB
100
AcDbEntity
  8
0
370
    -3
  6
Continuous
100
AcDbCircle
 10
-502.516984
 20
-45.772637
 30
0.0
 40
40.6
100
AcDbArc
 50
2.946011
 51
45.0
  0
LINE
  5
2DC
100
AcDbEntity
  8
0
370
    -3
  6
Continuous
100
AcDbLine
 10
-473.808448
 20
-17.064102
 30
0.0
 11
-477.858873
 21
-13.013677
 31
0.0
  0
LINE
  5
2DD
100
AcDbEntity
  8
0
370
    -3
  6
Continuous
100
AcDbLine
 10
-523.94121
 20
-22.968039
 30
0.0
 11
-523.94121
 21
-25.983174
 31
0.0
  0
LINE
  5
2DE
100
AcDbEntity
  8
0
370
    -3
  6
Continuous
100
AcDbLine
 10
-494.529673
 20
-42.963932
 30
0.0
 11
-491.91849
 21
-41.456365
 31
0.0
  0
LINE
  5
2DF
100
AcDbEntity
  8
0
370
    -3
  6
Continuous
100
AcDbLine
 10
-523.94121
 20
-32.525802
 30
0.0
 11
-523.94121
 21
-35.552005
 31
0.0
  0
ARC
  5
2E0
100
AcDbEntity
  8
0
370
    -3
  6
Continuous
100
AcDbCircle
 10
-522.44121
 20
-32.525802
 30
0.0
 40
1.5
100
AcDbArc
 50
82.819244
 51
180.0
  0
ARC
  5
2E1
100
AcDbEntity
  8
0
370
    -3
  6
Continuous
100
AcDbCircle
 10
-522.44121
 20
-25.983174
 30
0.0
 40
1.5
100
AcDbArc
 50
180.0
 51
264.03643
  0
ARC
  5
2E2
100
AcDbEntity
  8
0
370
    -3
  6
Continuous
100
AcDbCircle
 10
-522.44121
 20
-22.968039
 30
0.0
 40
1.5
100
AcDbArc
 50
84.468928
 51
180.0
  0
ARC
  5
2E3
100
AcDbEntity
  8
0
370
    -3
  6
Continuous
100
AcDbCircle
 10
-492.66849
 20
-40.157327
 30
0.0
 40
1.5
100
AcDbArc
 50
300.0
 51
35.531072
  0
ARC
  5
2E4
100
AcDbEntity
  8
0
370
    -3
  6
Continuous
100
AcDbCircle
 10
-526.44121
 20
-64.274818
 30
0.0
 40
43.0
100
AcDbArc
 50
35.531072
 51
84.468928
  0
ARC
  5
2E5
100
AcDbEntity
  8
0
370
    -3
  6
Continuous
100
AcDbCircle
 10
-488.66849
 20
-47.08553
 30
0.0
 40
1.5
100
AcDbArc
 50
24.468928
 51
120.0
  0
LINE
  5
2E6
100
AcDbEntity
  8
0
370
    -3
  6
Continuous
100
AcDbLine
 10
-492.029673
 20
-47.294059
 30
0.0
 11
-489.41849
 21
-45.786492
 31
0.0
  0
ARC
  5
2E7
100
AcDbEntity
  8
0
370
    -3
  6
Continuous
100
AcDbCircle
 10
-491.279673
 20
-48.593097
 30
0.0
 40
1.5
100
AcDbArc
 50
120.0
 51
204.03643
  0
ARC
  5
2E8
100
AcDbEntity
  8
0
370
    -3
  6
Continuous
100
AcDbCircle
 10
-526.44121
 20
-64.274818
 30
0.0
 40
37.0
100
AcDbArc
 50
335.96357
 51
24.03643
  0
ARC
  5
2E9
100
AcDbEntity
  8
0
370
    -3
  6
Continuous
100
AcDbCircle
 10
-526.44121
 20
-64.274818
 30
0.0
 40
43.0
100
AcDbArc
 50
335.531072
 51
24.468928
  0
ARC
  5
2EA
100
AcDbEntity
  8
0
370
    -3
  6
Continuous
100
AcDbCircle
 10
-488.66849
 20
-81.464106
 30
0.0
 40
1.5
100
AcDbArc
 50
240.0
 51
335.531072
  0
LINE
  5
2EB
100
AcDbEntity
  8
0
370
    -3
  6
Continuous
100
AcDbLine
 10
-489.41849
 20
-82.763144
 30
0.0
 11
-492.029673
 21
-81.255576
 31
0.0
  0
ARC
  5
2EC
100
AcDbEntity
  8
0
370
    -3
  6
Continuous
100
AcDbCircle
 10
-491.279673
 20
-79.956538
 30
0.0
 40
1.5
100
AcDbArc
 50
155.96357
 51
240.0
  0
ARC
  5
2ED
100
AcDbEntity
  8
0
370
    -3
  6
Continuous
100
AcDbCircle
 10
-492.66849
 20
-88.392309
 30
0.0
 40
1.5
100
AcDbArc
 50
324.468928
 51
60.0
  0
LINE
  5
2EE
100
AcDbEntity
  8
0
370
    -3
  6
Continuous
100
AcDbLine
 10
-491.91849
 20
-87.093271
 30
0.0
 11
-494.529673
 21
-85.585703
 31
0.0
  0
ARC
  5
2EF
100
AcDbEntity
  8
0
370
    -3
  6
Continuous
100
AcDbCircle
 10
-530.44121
 20
-22.968039
 30
0.0
 40
1.5
100
AcDbArc
 50
0.0
 51
95.531072
  0
LINE
  5
2F0
100
AcDbEntity
  8
0
370
    -3
  6
Continuous
100
AcDbLine
 10
-528.94121
 20
-22.968039
 30
0.0
 11
-528.94121
 21
-25.983174
 31
0.0
  0
ARC
  5
2F1
100
AcDbEntity
  8
0
370
    -3
  6
Continuous
100
AcDbCircle
 10
-530.44121
 20
-25.983174
 30
0.0
 40
1.5
100
AcDbArc
 50
275.96357
 51
0.0
  0
LINE
  5
2F2
100
AcDbEntity
  8
0
370
    -3
  6
Continuous
100
AcDbLine
 10
-528.94121
 20
-32.525802
 30
0.0
 11
-528.94121
 21
-35.552005
 31
0.0
  0
ARC
  5
2F3
100
AcDbEntity
  8
0
370
    -3
  6
Continuous
100
AcDbCircle
 10
-530.44121
 20
-32.525802
 30
0.0
 40
1.5
100
AcDbArc
 50
0.0
 51
97.180756
  0
ARC
  5
2F4
100
AcDbEntity
  8
0
370
    -3
  6
Continuous
100
AcDbCircle
 10
-495.960807
 20
-97.434025
 30
0.0
 40
14.6
100
AcDbArc
 50
274.662206
 51
315.0
  0
ARC
  5
2F5
100
AcDbEntity
  8
0
370
    -3
  6
Continuous
100
AcDbCircle
 10
-502.516984
 20
-82.776998
 30
0.0
 40
29.6
100
AcDbArc
 50
315.0
 51
357.053989
  0
LINE
  5
2F6
100
AcDbEntity
  8
0
370
    -3
  6
Continuous
100
AcDbLine
 10
-481.586623
 20
-103.707359
 30
0.0
 11
-485.637048
 21
-107.757784
 31
0.0
  0
ARC
  5
2F7
100
AcDbEntity
  8
0
370
    -3
  6
Continuous
100
AcDbCircle
 10
-862.04121
 20
-64.274818
 30
0.0
 40
389.6
100
AcDbArc
 50
357.053989
 51
0.0
  0
ARC
  5
2F8
100
AcDbEntity
  8
0
370
    -3
  6
Continuous
100
AcDbCircle
 10
-526.44121
 20
-404.874818
 30
0.0
 40
389.6
100
AcDbArc
 50
85.337794
 51
90.0
  0
ARC
  5
2F9
100
AcDbEntity
  8
0
370
    -3
  6
Continuous
100
AcDbCircle
 10
-495.960807
 20
-31.115611
 30
0.0
 40
14.6
100
AcDbArc
 50
45.0
 51
85.337794
  0
LINE
  5
2FA
100
AcDbEntity
  8
0
370
    -3
  6
Continuous
100
AcDbLine
 10
-481.586623
 20
-24.842277
 30
0.0
 11
-485.637048
 21
-20.791852
 31
0.0
  0
ARC
  5
2FB
100
AcDbEntity
  8
0
370
    -3
  6
Continuous
100
AcDbCircle
 10
-502.516984
 20
-45.772637
 30
0.0
 40
29.6
100
AcDbArc
 50
2.946011
 51
45.0
  0
ARC
  5
2FC
100
AcDbEntity
  8
0
370
    -3
  6
Continuous
100
AcDbCircle
 10
-862.04121
 20
-64.274818
 30
0.0
 40
389.6
100
AcDbArc
 50
0.0
 51
2.946011
  0
ARC
  5
2FD
100
AcDbEntity
  8
0
370
    -3
  6
Continuous
100
AcDbCircle
 10
-526.44121
 20
-404.874818
 30
0.0
 40
389.6
100
AcDbArc
 50
90.0
 51
94.662206
  0
ARC
  5
2FE
100
AcDbEntity
  8
0
370
    -3
  6
Continuous
100
AcDbCircle
 10
-556.921613
 20
-31.115611
 30
0.0
 40
14.6
100
AcDbArc
 50
94.662206
 51
135.0
  0
LINE
  5
2FF
100
AcDbEntity
  8
0
370
    -3
  6
Continuous
100
AcDbLine
 10
-571.295797
 20
-24.842277
 30
0.0
 11
-567.245372
 21
-20.791852
 31
0.0
  0
ARC
  5
300
100
AcDbEntity
  8
0
370
    -3
  6
Continuous
100
AcDbCircle
 10
-526.44121
 20
-64.274818
 30
0.0
 40
24.0
100
AcDbArc
 50
100.240348
 51
139.759652
  0
ARC
  5
301
100
AcDbEntity
  8
0
370
    -3
  6
Continuous
100
AcDbCircle
 10
-543.616389
 20
-49.739921
 30
0.0
 40
1.5
100
AcDbArc
 50
139.759652
 51
240.0
  0
LINE
  5
302
100
AcDbEntity
  8
0
370
    -3
  6
Continuous
100
AcDbLine
 10
-541.719595
 20
-52.567087
 30
0.0
 11
-544.366389
 21
-51.038959
 31
0.0
  0
ARC
  5
303
100
AcDbEntity
  8
0
370
    -3
  6
Continuous
100
AcDbCircle
 10
-540.969595
 20
-51.268049
 30
0.0
 40
1.5
100
AcDbArc
 50
240.0
 51
318.162996
  0
ARC
  5
304
100
AcDbEntity
  8
0
370
    -3
  6
Continuous
100
AcDbCircle
 10
-526.44121
 20
-64.274818
 30
0.0
 40
18.0
100
AcDbArc
 50
101.837004
 51
138.162996
  0
ARC
  5
305
100
AcDbEntity
  8
0
370
    -3
  6
Continuous
100
AcDbCircle
 10
-530.44121
 20
-45.189483
 30
0.0
 40
1.5
100
AcDbArc
 50
281.837004
 51
0.0
  0
LINE
  5
306
100
AcDbEntity
  8
0
370
    -3
  6
Continuous
100
AcDbLine
 10
-528.94121
 20
-42.133228
 30
0.0
 11
-528.94121
 21
-45.189483
 31
0.0
  0
ARC
  5
307
100
AcDbEntity
  8
0
370
    -3
  6
Continuous
100
AcDbCircle
 10
-530.44121
 20
-42.133228
 30
0.0
 40
1.5
100
AcDbArc
 50
0.0
 51
100.240348
  0
ARC
  5
308
100
AcDbEntity
  8
0
370
    -3
  6
Continuous
100
AcDbCircle
 10
-526.44121
 20
-64.274818
 30
0.0
 40
14.5
100
AcDbArc
 50
107.920213
 51
132.079787
  0
ARC
  5
309
100
AcDbEntity
  8
0
370
    -3
  6
Continuous
100
AcDbCircle
 10
-535.153353
 20
-54.626058
 30
0.0
 40
1.5
100
AcDbArc
 50
132.079787
 51
240.0
  0
LINE
  5
30A
100
AcDbEntity
  8
0
370
    -3
  6
Continuous
100
AcDbLine
 10
-533.128464
 20
-57.527179
 30
0.0
 11
-535.903353
 21
-55.925096
 31
0.0
  0
ARC
  5
30B
100
AcDbEntity
  8
0
370
    -3
  6
Continuous
100
AcDbCircle
 10
-532.378464
 20
-56.228141
 30
0.0
 40
1.5
100
AcDbArc
 50
240.0
 51
306.421822
  0
ARC
  5
30C
100
AcDbEntity
  8
0
370
    -3
  6
Continuous
100
AcDbCircle
 10
-526.44121
 20
-64.274818
 30
0.0
 40
8.5
100
AcDbArc
 50
113.578178
 51
126.421822
  0
ARC
  5
30D
100
AcDbEntity
  8
0
370
    -3
  6
Continuous
100
AcDbCircle
 10
-530.44121
 20
-55.109666
 30
0.0
 40
1.5
100
AcDbArc
 50
293.578178
 51
0.0
  0
LINE
  5
30E
100
AcDbEntity
  8
0
370
    -3
  6
Continuous
100
AcDbLine
 10
-528.94121
 20
-51.905501
 30
0.0
 11
-528.94121
 21
-55.109666
 31
0.0
  0
ARC
  5
30F
100
AcDbEntity
  8
0
370
    -3
  6
Continuous
100
AcDbCircle
 10
-530.44121
 20
-51.905501
 30
0.0
 40
1.5
100
AcDbArc
 50
0.0
 51
107.920213
  0
ARC
  5
310
100
AcDbEntity
  8
0
370
    -3
  6
Continuous
100
AcDbCircle
 10
-526.44121
 20
-64.274818
 30
0.0
 40
24.0
100
AcDbArc
 50
280.240348
 51
319.759652
  0
ARC
  5
311
100
AcDbEntity
  8
0
370
    -3
  6
Continuous
100
AcDbCircle
 10
-522.44121
 20
-86.416408
 30
0.0
 40
1.5
100
AcDbArc
 50
180.0
 51
280.240348
  0
LINE
  5
312
100
AcDbEntity
  8
0
370
    -3
  6
Continuous
100
AcDbLine
 10
-523.94121
 20
-83.360153
 30
0.0
 11
-523.94121
 21
-86.416408
 31
0.0
  0
ARC
  5
313
100
AcDbEntity
  8
0
370
    -3
  6
Continuous
100
AcDbCircle
 10
-522.44121
 20
-83.360153
 30
0.0
 40
1.5
100
AcDbArc
 50
101.837004
 51
180.0
  0
ARC
  5
314
100
AcDbEntity
  8
0
370
    -3
  6
Continuous
100
AcDbCircle
 10
-526.44121
 20
-64.274818
 30
0.0
 40
18.0
100
AcDbArc
 50
281.837004
 51
318.162996
  0
ARC
  5
315
100
AcDbEntity
  8
0
370
    -3
  6
Continuous
100
AcDbCircle
 10
-511.912825
 20
-77.281587
 30
0.0
 40
1.5
100
AcDbArc
 50
60.0
 51
138.162996
  0
LINE
  5
316
100
AcDbEntity
  8
0
370
    -3
  6
Continuous
100
AcDbLine
 10
-508.516031
 20
-77.510676
 30
0.0
 11
-511.162825
 21
-75.982549
 31
0.0
  0
ARC
  5
317
100
AcDbEntity
  8
0
370
    -3
  6
Continuous
100
AcDbCircle
 10
-509.266031
 20
-78.809714
 30
0.0
 40
1.5
100
AcDbArc
 50
319.759652
 51
60.0
  0
ARC
  5
318
100
AcDbEntity
  8
0
370
    -3
  6
Continuous
100
AcDbCircle
 10
-526.44121
 20
-64.274818
 30
0.0
 40
14.5
100
AcDbArc
 50
287.920213
 51
312.079787
  0
ARC
  5
319
100
AcDbEntity
  8
0
370
    -3
  6
Continuous
100
AcDbCircle
 10
-522.44121
 20
-76.644135
 30
0.0
 40
1.5
100
AcDbArc
 50
180.0
 51
287.920213
  0
LINE
  5
31A
100
AcDbEntity
  8
0
370
    -3
  6
Continuous
100
AcDbLine
 10
-523.94121
 20
-73.439969
 30
0.0
 11
-523.94121
 21
-76.644135
 31
0.0
  0
ARC
  5
31B
100
AcDbEntity
  8
0
370
    -3
  6
Continuous
100
AcDbCircle
 10
-522.44121
 20
-73.439969
 30
0.0
 40
1.5
100
AcDbArc
 50
113.578178
 51
180.0
  0
ARC
  5
31C
100
AcDbEntity
  8
0
370
    -3
  6
Continuous
100
AcDbCircle
 10
-526.44121
 20
-64.274818
 30
0.0
 40
8.5
100
AcDbArc
 50
293.578178
 51
306.421822
  0
ARC
  5
31D
100
AcDbEntity
  8
0
370
    -3
  6
Continuous
100
AcDbCircle
 10
-520.503956
 20
-72.321495
 30
0.0
 40
1.5
100
AcDbArc
 50
60.0
 51
126.421822
  0
LINE
  5
31E
100
AcDbEntity
  8
0
370
    -3
  6
Continuous
100
AcDbLine
 10
-516.979067
 20
-72.62454
 30
0.0
 11
-519.753956
 21
-71.022457
 31
0.0
  0
ARC
  5
31F
100
AcDbEntity
  8
0
370
    -3
  6
Continuous
100
AcDbCircle
 10
-517.729067
 20
-73.923578
 30
0.0
 40
1.5
100
AcDbArc
 50
312.079787
 51
60.0
  0
ARC
  5
320
100
AcDbEntity
  8
0
370
    -3
  6
Continuous
100
AcDbCircle
 10
-526.44121
 20
-64.274818
 30
0.0
 40
24.0
100
AcDbArc
 50
220.240348
 51
259.759652
  0
ARC
  5
321
100
AcDbEntity
  8
0
370
    -3
  6
Continuous
100
AcDbCircle
 10
-530.44121
 20
-86.416408
 30
0.0
 40
1.5
100
AcDbArc
 50
259.759652
 51
0.0
  0
LINE
  5
322
100
AcDbEntity
  8
0
370
    -3
  6
Continuous
100
AcDbLine
 10
-528.94121
 20
-83.360153
 30
0.0
 11
-528.94121
 21
-86.416408
 31
0.0
  0
ARC
  5
323
100
AcDbEntity
  8
0
370
    -3
  6
Continuous
100
AcDbCircle
 10
-530.44121
 20
-83.360153
 30
0.0
 40
1.5
100
AcDbArc
 50
0.0
 51
78.162996
  0
ARC
  5
324
100
AcDbEntity
  8
0
370
    -3
  6
Continuous
100
AcDbCircle
 10
-526.44121
 20
-64.274818
 30
0.0
 40
18.0
100
AcDbArc
 50
221.837004
 51
258.162996
  0
ARC
  5
325
100
AcDbEntity
  8
0
370
    -3
  6
Continuous
100
AcDbCircle
 10
-540.969595
 20
-77.281587
 30
0.0
 40
1.5
100
AcDbArc
 50
41.837004
 51
120.0
  0
LINE
  5
326
100
AcDbEntity
  8
0
370
    -3
  6
Continuous
100
AcDbLine
 10
-544.366389
 20
-77.510676
 30
0.0
 11
-541.719595
 21
-75.982549
 31
0.0
  0
ARC
  5
327
100
AcDbEntity
  8
0
370
    -3
  6
Continuous
100
AcDbCircle
 10
-543.616389
 20
-78.809714
 30
0.0
 40
1.5
100
AcDbArc
 50
120.0
 51
220.240348
  0
ARC
  5
328
100
AcDbEntity
  8
0
370
    -3
  6
Continuous
100
AcDbCircle
 10
-526.44121
 20
-64.274818
 30
0.0
 40
14.5
100
AcDbArc
 50
227.920213
 51
252.079787
  0
ARC
  5
329
100
AcDbEntity
  8
0
370
    -3
  6
Continuous
100
AcDbCircle
 10
-530.44121
 20
-76.644135
 30
0.0
 40
1.5
100
AcDbArc
 50
252.079787
 51
0.0
  0
LINE
  5
32A
100
AcDbEntity
  8
0
370
    -3
  6
Continuous
100
AcDbLine
 10
-528.94121
 20
-73.439969
 30
0.0
 11
-528.94121
 21
-76.644135
 31
0.0
  0
ARC
  5
32B
100
AcDbEntity
  8
0
370
    -3
  6
Continuous
100
AcDbCircle
 10
-530.44121
 20
-73.439969
 30
0.0
 40
1.5
100
AcDbArc
 50
0.0
 51
66.421822
  0
ARC
  5
32C
100
AcDbEntity
  8
0
370
    -3
  6
Continuous
100
AcDbCircle
 10
-526.44121
 20
-64.274818
 30
0.0
 40
8.5
100
AcDbArc
 50
233.578178
 51
246.421822
  0
ARC
  5
32D
100
AcDbEntity
  8
0
370
    -3
  6
Continuous
100
AcDbCircle
 10
-532.378464
 20
-72.321495
 30
0.0
 40
1.5
100
AcDbArc
 50
53.578178
 51
120.0
  0
LINE
  5
32E
100
AcDbEntity
  8
0
370
    -3
  6
Continuous
100
AcDbLine
 10
-535.903353
 20
-72.62454
 30
0.0
 11
-533.128464
 21
-71.022457
 31
0.0
  0
ARC
  5
32F
100
AcDbEntity
  8
0
370
    -3
  6
Continuous
100
AcDbCircle
 10
-535.153353
 20
-73.923578
 30
0.0
 40
1.5
100
AcDbArc
 50
120.0
 51
227.920213
  0
ARC
  5
330
100
AcDbEntity
  8
0
370
    -3
  6
Continuous
100
AcDbCircle
 10
-526.44121
 20
-64.274818
 30
0.0
 40
24.0
100
AcDbArc
 50
160.240348
 51
199.759652
  0
ARC
  5
331
100
AcDbEntity
  8
0
370
    -3
  6
Continuous
100
AcDbCircle
 10
-547.616389
 20
-56.668125
 30
0.0
 40
1.5
100
AcDbArc
 50
60.0
 51
160.240348
  0
LINE
  5
332
100
AcDbEntity
  8
0
370
    -3
  6
Continuous
100
AcDbLine
 10
-544.219595
 20
-56.897214
 30
0.0
 11
-546.866389
 21
-55.369086
 31
0.0
  0
ARC
  5
333
100
AcDbEntity
  8
0
370
    -3
  6
Continuous
100
AcDbCircle
 10
-544.969595
 20
-58.196252
 30
0.0
 40
1.5
100
AcDbArc
 50
341.837004
 51
60.0
  0
ARC
  5
334
100
AcDbEntity
  8
0
370
    -3
  6
Continuous
100
AcDbCircle
 10
-526.44121
 20
-64.274818
 30
0.0
 40
18.0
100
AcDbArc
 50
161.837004
 51
198.162996
  0
ARC
  5
335
100
AcDbEntity
  8
0
370
    -3
  6
Continuous
100
AcDbCircle
 10
-544.969595
 20
-70.353384
 30
0.0
 40
1.5
100
AcDbArc
 50
300.0
 51
18.162996
  0
LINE
  5
336
100
AcDbEntity
  8
0
370
    -3
  6
Continuous
100
AcDbLine
 10
-546.866389
 20
-73.180549
 30
0.0
 11
-544.219595
 21
-71.652422
 31
0.0
  0
ARC
  5
337
100
AcDbEntity
  8
0
370
    -3
  6
Continuous
100
AcDbCircle
 10
-547.616389
 20
-71.881511
 30
0.0
 40
1.5
100
AcDbArc
 50
199.759652
 51
300.0
  0
ARC
  5
338
100
AcDbEntity
  8
0
370
    -3
  6
Continuous
100
AcDbCircle
 10
-526.44121
 20
-64.274818
 30
0.0
 40
14.5
100
AcDbArc
 50
167.920213
 51
192.079787
  0
ARC
  5
339
100
AcDbEntity
  8
0
370
    -3
  6
Continuous
100
AcDbCircle
 10
-539.153353
 20
-61.554261
 30
0.0
 40
1.5
100
AcDbArc
 50
60.0
 51
167.920213
  0
LINE
  5
33A
100
AcDbEntity
  8
0
370
    -3
  6
Continuous
100
AcDbLine
 10
-535.628464
 20
-61.857306
 30
0.0
 11
-538.403353
 21
-60.255223
 31
0.0
  0
ARC
  5
33B
100
AcDbEntity
  8
0
370
    -3
  6
Continuous
100
AcDbCircle
 10
-536.378464
 20
-63.156344
 30
0.0
 40
1.5
100
AcDbArc
 50
353.578178
 51
60.0
  0
ARC
  5
33C
100
AcDbEntity
  8
0
370
    -3
  6
Continuous
100
AcDbCircle
 10
-526.44121
 20
-64.274818
 30
0.0
 40
8.5
100
AcDbArc
 50
173.578178
 51
186.421822
  0
ARC
  5
33D
100
AcDbEntity
  8
0
370
    -3
  6
Continuous
100
AcDbCircle
 10
-536.378464
 20
-65.393292
 30
0.0
 40
1.5
100
AcDbArc
 50
300.0
 51
6.421822
  0
LINE
  5
33E
100
AcDbEntity
  8
0
370
    -3
  6
Continuous
100
AcDbLine
 10
-538.403353
 20
-68.294413
 30
0.0
 11
-535.628464
 21
-66.69233
 31
0.0
  0
ARC
  5
33F
100
AcDbEntity
  8
0
370
    -3
  6
Continuous
100
AcDbCircle
 10
-539.153353
 20
-66.995375
 30
0.0
 40
1.5
100
AcDbArc
 50
192.079787
 51
300.0
  0
ARC
  5
340
100
AcDbEntity
  8
0
370
    -3
  6
Continuous
100
AcDbCircle
 10
-526.44121
 20
-64.274818
 30
0.0
 40
24.0
100
AcDbArc
 50
340.240348
 51
19.759652
  0
ARC
  5
341
100
AcDbEntity
  8
0
370
    -3
  6
Continuous
100
AcDbCircle
 10
-505.266031
 20
-56.668125
 30
0.0
 40
1.5
100
AcDbArc
 50
19.759652
 51
120.0
  0
LINE
  5
342
100
AcDbEntity
  8
0
370
    -3
  6
Continuous
100
AcDbLine
 10
-508.662825
 20
-56.897214
 30
0.0
 11
-506.016031
 21
-55.369086
 31
0.0
  0
ARC
  5
343
100
AcDbEntity
  8
0
370
    -3
  6
Continuous
100
AcDbCircle
 10
-507.912825
 20
-58.196252
 30
0.0
 40
1.5
100
AcDbArc
 50
120.0
 51
198.162996
  0
ARC
  5
344
100
AcDbEntity
  8
0
370
    -3
  6
Continuous
100
AcDbCircle
 10
-526.44121
 20
-64.274818
 30
0.0
 40
18.0
100
AcDbArc
 50
341.837004
 51
18.162996
  0
ARC
  5
345
100
AcDbEntity
  8
0
370
    -3
  6
Continuous
100
AcDbCircle
 10
-507.912825
 20
-70.353384
 30
0.0
 40
1.5
100
AcDbArc
 50
161.837004
 51
240.0
  0
LINE
  5
346
100
AcDbEntity
  8
0
370
    -3
  6
Continuous
100
AcDbLine
 10
-506.016031
 20
-73.180549
 30
0.0
 11
-508.662825
 21
-71.652422
 31
0.0
  0
ARC
  5
347
100
AcDbEntity
  8
0
370
    -3
  6
Continuous
100
AcDbCircle
 10
-505.266031
 20
-71.881511
 30
0.0
 40
1.5
100
AcDbArc
 50
240.0
 51
340.240348
  0
ARC
  5
348
100
AcDbEntity
  8
0
370
    -3
  6
Continuous
100
AcDbCircle
 10
-526.44121
 20
-64.274818
 30
0.0
 40
14.5
100
AcDbArc
 50
347.920213
 51
12.079787
  0
ARC
  5
349
100
AcDbEntity
  8
0
370
    -3
  6
Continuous
100
AcDbCircle
 10
-513.729067
 20
-61.554261
 30
0.0
 40
1.5
100
AcDbArc
 50
12.079787
 51
120.0
  0
LINE
  5
34A
100
AcDbEntity
  8
0
370
    -3
  6
Continuous
100
AcDbLine
 10
-517.253956
 20
-61.857306
 30
0.0
 11
-514.479067
 21
-60.255223
 31
0.0
  0
ARC
  5
34B
100
AcDbEntity
  8
0
370
    -3
  6
Continuous
100
AcDbCircle
 10
-516.503956
 20
-63.156344
 30
0.0
 40
1.5
100
AcDbArc
 50
120.0
 51
186.421822
  0
ARC
  5
34C
100
AcDbEntity
  8
0
370
    -3
  6
Continuous
100
AcDbCircle
 10
-526.44121
 20
-64.274818
 30
0.0
 40
8.5
100
AcDbArc
 50
353.578178
 51
6.421822
  0
ARC
  5
34D
100
AcDbEntity
  8
0
370
    -3
  6
Continuous
100
AcDbCircle
 10
-516.503956
 20
-65.393292
 30
0.0
 40
1.5
100
AcDbArc
 50
173.578178
 51
240.0
  0
LINE
  5
34E
100
AcDbEntity
  8
0
370
    -3
  6
Continuous
100
AcDbLine
 10
-514.479067
 20
-68.294413
 30
0.0
 11
-517.253956
 21
-66.69233
 31
0.0
  0
ARC
  5
34F
100
AcDbEntity
  8
0
370
    -3
  6
Continuous
100
AcDbCircle
 10
-513.729067
 20
-66.995375
 30
0.0
 40
1.5
100
AcDbArc
 50
240.0
 51
347.920213
  0
ARC
  5
350
100
AcDbEntity
  8
0
370
    -3
  6
Continuous
100
AcDbCircle
 10
-526.44121
 20
-64.274818
 30
0.0
 40
8.5
100
AcDbArc
 50
53.578178
 51
66.421822
  0
ARC
  5
351
100
AcDbEntity
  8
0
370
    -3
  6
Continuous
100
AcDbCircle
 10
-526.44121
 20
-64.274818
 30
0.0
 40
24.0
100
AcDbArc
 50
40.240348
 51
79.759652
  0
LINE
  5
352
100
AcDbEntity
  8
0
370
    -3
  6
Continuous
100
AcDbLine
 10
-519.753956
 20
-57.527179
 30
0.0
 11
-516.979067
 21
-55.925096
 31
0.0
  0
LINE
  5
353
100
AcDbEntity
  8
0
370
    -3
  6
Continuous
100
AcDbLine
 10
-523.94121
 20
-42.133228
 30
0.0
 11
-523.94121
 21
-45.189483
 31
0.0
  0
LINE
  5
354
100
AcDbEntity
  8
0
370
    -3
  6
Continuous
100
AcDbLine
 10
-523.94121
 20
-51.905501
 30
0.0
 11
-523.94121
 21
-55.109666
 31
0.0
  0
ARC
  5
355
100
AcDbEntity
  8
0
370
    -3
  6
Continuous
100
AcDbCircle
 10
-526.44121
 20
-64.274818
 30
0.0
 40
14.5
100
AcDbArc
 50
47.920213
 51
72.079787
  0
ARC
  5
356
100
AcDbEntity
  8
0
370
    -3
  6
Continuous
100
AcDbCircle
 10
-526.44121
 20
-64.274818
 30
0.0
 40
18.0
100
AcDbArc
 50
41.837004
 51
78.162996
  0
LINE
  5
357
100
AcDbEntity
  8
0
370
    -3
  6
Continuous
100
AcDbLine
 10
-511.162825
 20
-52.567087
 30
0.0
 11
-508.516031
 21
-51.038959
 31
0.0
  0
ARC
  5
358
100
AcDbEntity
  8
0
370
    -3
  6
Continuous
100
AcDbCircle
 10
-517.729067
 20
-54.626058
 30
0.0
 40
1.5
100
AcDbArc
 50
300.0
 51
47.920213
  0
ARC
  5
359
100
AcDbEntity
  8
0
370
    -3
  6
Continuous
100
AcDbCircle
 10
-522.44121
 20
-42.133228
 30
0.0
 40
1.5
100
AcDbArc
 50
79.759652
 51
180.0
  0
ARC
  5
35A
100
AcDbEntity
  8
0
370
    -3
  6
Continuous
100
AcDbCircle
 10
-511.912825
 20
-51.268049
 30
0.0
 40
1.5
100
AcDbArc
 50
221.837004
 51
300.0
  0
ARC
  5
35B
100
AcDbEntity
  8
0
370
    -3
  6
Continuous
100
AcDbCircle
 10
-522.44121
 20
-45.189483
 30
0.0
 40
1.5
100
AcDbArc
 50
180.0
 51
258.162996
  0
ARC
  5
35C
100
AcDbEntity
  8
0
370
    -3
  6
Continuous
100
AcDbCircle
 10
-522.44121
 20
-51.905501
 30
0.0
 40
1.5
100
AcDbArc
 50
72.079787
 51
180.0
  0
ARC
  5
35D
100
AcDbEntity
  8
0
370
    -3
  6
Continuous
100
AcDbCircle
 10
-509.266031
 20
-49.739921
 30
0.0
 40
1.5
100
AcDbArc
 50
300.0
 51
40.240348
  0
ARC
  5
35E
100
AcDbEntity
  8
0
370
    -3
  6
Continuous
100
AcDbCircle
 10
-522.44121
 20
-55.109666
 30
0.0
 40
1.5
100
AcDbArc
 50
180.0
 51
246.421822
  0
ARC
  5
35F
100
AcDbEntity
  8
0
370
    -3
  6
Continuous
100
AcDbCircle
 10
-520.503956
 20
-56.228141
 30
0.0
 40
1.5
100
AcDbArc
 50
233.578178
 51
300.0
  0
CIRCLE
  5
360
100
AcDbEntity
  8
0
370
    -3
  6
Continuous
100
AcDbCircle
 10
-526.44121
 20
-64.274818
 30
0.0
 40
5.0
  0
ARC
  5
361
100
AcDbEntity
  8
0
370
    -3
  6
Continuous
100
AcDbCircle
 10
-503.566524
 20
-46.44931
 30
0.0
 40
1.5
100
AcDbArc
 50
217.928142
 51
300.0
  0
LINE
  5
362
100
AcDbEntity
  8
0
370
    -3
  6
Continuous
100
AcDbLine
 10
-502.816524
 20
-47.748348
 30
0.0
 11
-500.195756
 21
-46.235246
 31
0.0
  0
ARC
  5
363
100
AcDbEntity
  8
0
370
    -3
  6
Continuous
100
AcDbCircle
 10
-522.44121
 20
-35.552005
 30
0.0
 40
1.5
100
AcDbArc
 50
180.0
 51
262.071858
  0
ARC
  5
364
100
AcDbEntity
  8
0
370
    -3
  6
Continuous
100
AcDbCircle
 10
-526.44121
 20
-64.274818
 30
0.0
 40
27.5
100
AcDbArc
 50
37.928142
 51
82.071858
  0
ARC
  5
365
100
AcDbEntity
  8
0
370
    -3
  6
Continuous
100
AcDbCircle
 10
-500.945756
 20
-44.936208
 30
0.0
 40
1.5
100
AcDbArc
 50
300.0
 51
37.180756
  0
ARC
  5
366
100
AcDbEntity
  8
0
370
    -3
  6
Continuous
100
AcDbCircle
 10
-495.279673
 20
-41.664894
 30
0.0
 40
1.5
100
AcDbArc
 50
215.96357
 51
300.0
  0
ARC
  5
367
100
AcDbEntity
  8
0
370
    -3
  6
Continuous
100
AcDbCircle
 10
-526.44121
 20
-64.274818
 30
0.0
 40
37.0
100
AcDbArc
 50
35.96357
 51
84.03643
  0
ARC
  5
368
100
AcDbEntity
  8
0
370
    -3
  6
Continuous
100
AcDbCircle
 10
-526.44121
 20
-64.274818
 30
0.0
 40
33.5
100
AcDbArc
 50
37.180756
 51
82.819244
  0
LINE
  5
369
100
AcDbEntity
  8
0
370
    -3
  6
Continuous
100
AcDbLine
 10
-500.316524
 20
-52.078475
 30
0.0
 11
-497.695756
 21
-50.565373
 31
0.0
  0
ARC
  5
36A
100
AcDbEntity
  8
0
370
    -3
  6
Continuous
100
AcDbCircle
 10
-496.945756
 20
-51.864412
 30
0.0
 40
1.5
100
AcDbArc
 50
22.819244
 51
120.0
  0
ARC
  5
36B
100
AcDbEntity
  8
0
370
    -3
  6
Continuous
100
AcDbCircle
 10
-499.566524
 20
-53.377513
 30
0.0
 40
1.5
100
AcDbArc
 50
120.0
 51
202.071858
  0
ARC
  5
36C
100
AcDbEntity
  8
0
370
    -3
  6
Continuous
100
AcDbCircle
 10
-526.44121
 20
-64.274818
 30
0.0
 40
27.5
100
AcDbArc
 50
337.928142
 51
22.071858
  0
ARC
  5
36D
100
AcDbEntity
  8
0
370
    -3
  6
Continuous
100
AcDbCircle
 10
-526.44121
 20
-64.274818
 30
0.0
 40
33.5
100
AcDbArc
 50
337.180756
 51
22.819244
  0
ARC
  5
36E
100
AcDbEntity
  8
0
370
    -3
  6
Continuous
100
AcDbCircle
 10
-499.566524
 20
-75.172123
 30
0.0
 40
1.5
100
AcDbArc
 50
157.928142
 51
240.0
  0
LINE
  5
36F
100
AcDbEntity
  8
0
370
    -3
  6
Continuous
100
AcDbLine
 10
-497.695756
 20
-77.984262
 30
0.0
 11
-500.316524
 21
-76.471161
 31
0.0
  0
ARC
  5
370
100
AcDbEntity
  8
0
370
    -3
  6
Continuous
100
AcDbCircle
 10
-496.945756
 20
-76.685224
 30
0.0
 40
1.5
100
AcDbArc
 50
240.0
 51
337.180756
  0
ARC
  5
371
100
AcDbEntity
  8
0
370
    -3
  6
Continuous
100
AcDbCircle
 10
-522.44121
 20
-105.581597
 30
0.0
 40
1.5
100
AcDbArc
 50
180.0
 51
275.531072
  0
LINE
  5
372
100
AcDbEntity
  8
0
370
    -3
  6
Continuous
100
AcDbLine
 10
-523.94121
 20
-102.566462
 30
0.0
 11
-523.94121
 21
-105.581597
 31
0.0
  0
LINE
  5
373
100
AcDbEntity
  8
0
370
    -3
  6
Continuous
100
AcDbLine
 10
-523.94121
 20
-92.997631
 30
0.0
 11
-523.94121
 21
-96.023834
 31
0.0
  0
ARC
  5
374
100
AcDbEntity
  8
0
370
    -3
  6
Continuous
100
AcDbCircle
 10
-522.44121
 20
-102.566462
 30
0.0
 40
1.5
100
AcDbArc
 50
95.96357
 51
180.0
  0
ARC
  5
375
100
AcDbEntity
  8
0
370
    -3
  6
Continuous
100
AcDbCircle
 10
-522.44121
 20
-96.023834
 30
0.0
 40
1.5
100
AcDbArc
 50
180.0
 51
277.180756
  0
ARC
  5
376
100
AcDbEntity
  8
0
370
    -3
  6
Continuous
100
AcDbCircle
 10
-522.44121
 20
-92.997631
 30
0.0
 40
1.5
100
AcDbArc
 50
97.928142
 51
180.0
  0
ARC
  5
377
100
AcDbEntity
  8
0
370
    -3
  6
Continuous
100
AcDbCircle
 10
-526.44121
 20
-64.274818
 30
0.0
 40
27.5
100
AcDbArc
 50
277.928142
 51
322.071858
  0
ARC
  5
378
100
AcDbEntity
  8
0
370
    -3
  6
Continuous
100
AcDbCircle
 10
-526.44121
 20
-64.274818
 30
0.0
 40
37.0
100
AcDbArc
 50
275.96357
 51
324.03643
  0
ARC
  5
379
100
AcDbEntity
  8
0
370
    -3
  6
Continuous
100
AcDbCircle
 10
-526.44121
 20
-64.274818
 30
0.0
 40
43.0
100
AcDbArc
 50
275.531072
 51
324.468928
  0
ARC
  5
37A
100
AcDbEntity
  8
0
370
    -3
  6
Continuous
100
AcDbCircle
 10
-526.44121
 20
-64.274818
 30
0.0
 40
33.5
100
AcDbArc
 50
277.180756
 51
322.819244
  0
ARC
  5
37B
100
AcDbEntity
  8
0
370
    -3
  6
Continuous
100
AcDbCircle
 10
-503.566524
 20
-82.100326
 30
0.0
 40
1.5
100
AcDbArc
 50
60.0
 51
142.071858
  0
ARC
  5
37C
100
AcDbEntity
  8
0
370
    -3
  6
Continuous
100
AcDbCircle
 10
-495.279673
 20
-86.884741
 30
0.0
 40
1.5
100
AcDbArc
 50
60.0
 51
144.03643
  0
LINE
  5
37D
100
AcDbEntity
  8
0
370
    -3
  6
Continuous
100
AcDbLine
 10
-500.195756
 20
-82.314389
 30
0.0
 11
-502.816524
 21
-80.801288
 31
0.0
  0
ARC
  5
37E
100
AcDbEntity
  8
0
370
    -3
  6
Continuous
100
AcDbCircle
 10
-500.945756
 20
-83.613427
 30
0.0
 40
1.5
100
AcDbArc
 50
322.819244
 51
60.0
  0
ARC
  5
37F
100
AcDbEntity
  8
0
370
    -3
  6
Continuous
100
AcDbCircle
 10
-530.44121
 20
-105.581597
 30
0.0
 40
1.5
100
AcDbArc
 50
264.468928
 51
0.0
  0
LINE
  5
380
100
AcDbEntity
  8
0
370
    -3
  6
Continuous
100
AcDbLine
 10
-528.94121
 20
-102.566462
 30
0.0
 11
-528.94121
 21
-105.581597
 31
0.0
  0
LINE
  5
381
100
AcDbEntity
  8
0
370
    -3
  6
Continuous
100
AcDbLine
 10
-528.94121
 20
-92.997631
 30
0.0
 11
-528.94121
 21
-96.023834
 31
0.0
  0
ARC
  5
382
100
AcDbEntity
  8
0
370
    -3
  6
Continuous
100
AcDbCircle
 10
-530.44121
 20
-102.566462
 30
0.0
 40
1.5
100
AcDbArc
 50
0.0
 51
84.03643
  0
ARC
  5
383
100
AcDbEntity
  8
0
370
    -3
  6
Continuous
100
AcDbCircle
 10
-530.44121
 20
-96.023834
 30
0.0
 40
1.5
100
AcDbArc
 50
262.819244
 51
0.0
  0
ARC
  5
384
100
AcDbEntity
  8
0
370
    -3
  6
Continuous
100
AcDbCircle
 10
-530.44121
 20
-92.997631
 30
0.0
 40
1.5
100
AcDbArc
 50
0.0
 51
82.071858
  0
ARC
  5
385
100
AcDbEntity
  8
0
370
    -3
  6
Continuous
100
AcDbCircle
 10
-526.44121
 20
-64.274818
 30
0.0
 40
27.5
100
AcDbArc
 50
217.928142
 51
262.071858
  0
ARC
  5
386
100
AcDbEntity
  8
0
370
    -3
  6
Continuous
100
AcDbCircle
 10
-526.44121
 20
-64.274818
 30
0.0
 40
37.0
100
AcDbArc
 50
215.96357
 51
264.03643
  0
ARC
  5
387
100
AcDbEntity
  8
0
370
    -3
  6
Continuous
100
AcDbCircle
 10
-526.44121
 20
-64.274818
 30
0.0
 40
43.0
100
AcDbArc
 50
215.531072
 51
264.468928
  0
ARC
  5
388
100
AcDbEntity
  8
0
370
    -3
  6
Continuous
100
AcDbCircle
 10
-526.44121
 20
-64.274818
 30
0.0
 40
33.5
100
AcDbArc
 50
217.180756
 51
262.819244
  0
ARC
  5
389
100
AcDbEntity
  8
0
370
    -3
  6
Continuous
100
AcDbCircle
 10
-549.315896
 20
-82.100326
 30
0.0
 40
1.5
100
AcDbArc
 50
37.928142
 51
120.0
  0
ARC
  5
38A
100
AcDbEntity
  8
0
370
    -3
  6
Continuous
100
AcDbCircle
 10
-560.21393
 20
-88.392309
 30
0.0
 40
1.5
100
AcDbArc
 50
120.0
 51
215.531072
  0
LINE
  5
38B
100
AcDbEntity
  8
0
370
    -3
  6
Continuous
100
AcDbLine
 10
-560.96393
 20
-87.093271
 30
0.0
 11
-558.352746
 21
-85.585703
 31
0.0
  0
ARC
  5
38C
100
AcDbEntity
  8
0
370
    -3
  6
Continuous
100
AcDbCircle
 10
-557.602746
 20
-86.884741
 30
0.0
 40
1.5
100
AcDbArc
 50
35.96357
 51
120.0
  0
LINE
  5
38D
100
AcDbEntity
  8
0
370
    -3
  6
Continuous
100
AcDbLine
 10
-552.686664
 20
-82.314389
 30
0.0
 11
-550.065896
 21
-80.801288
 31
0.0
  0
ARC
  5
38E
100
AcDbEntity
  8
0
370
    -3
  6
Continuous
100
AcDbCircle
 10
-551.936664
 20
-83.613427
 30
0.0
 40
1.5
100
AcDbArc
 50
120.0
 51
217.180756
  0
ARC
  5
38F
100
AcDbEntity
  8
0
370
    -3
  6
Continuous
100
AcDbCircle
 10
-564.21393
 20
-47.08553
 30
0.0
 40
1.5
100
AcDbArc
 50
60.0
 51
155.531072
  0
LINE
  5
390
100
AcDbEntity
  8
0
370
    -3
  6
Continuous
100
AcDbLine
 10
-560.852746
 20
-47.294059
 30
0.0
 11
-563.46393
 21
-45.786492
 31
0.0
  0
LINE
  5
391
100
AcDbEntity
  8
0
370
    -3
  6
Continuous
100
AcDbLine
 10
-552.565896
 20
-52.078475
 30
0.0
 11
-555.186664
 21
-50.565373
 31
0.0
  0
ARC
  5
392
100
AcDbEntity
  8
0
370
    -3
  6
Continuous
100
AcDbCircle
 10
-561.602746
 20
-48.593097
 30
0.0
 40
1.5
100
AcDbArc
 50
335.96357
 51
60.0
  0
ARC
  5
393
100
AcDbEntity
  8
0
370
    -3
  6
Continuous
100
AcDbCircle
 10
-555.936664
 20
-51.864412
 30
0.0
 40
1.5
100
AcDbArc
 50
60.0
 51
157.180756
  0
ARC
  5
394
100
AcDbEntity
  8
0
370
    -3
  6
Continuous
100
AcDbCircle
 10
-553.315896
 20
-53.377513
 30
0.0
 40
1.5
100
AcDbArc
 50
337.928142
 51
60.0
  0
ARC
  5
395
100
AcDbEntity
  8
0
370
    -3
  6
Continuous
100
AcDbCircle
 10
-526.44121
 20
-64.274818
 30
0.0
 40
27.5
100
AcDbArc
 50
157.928142
 51
202.071858
  0
ARC
  5
396
100
AcDbEntity
  8
0
370
    -3
  6
Continuous
100
AcDbCircle
 10
-526.44121
 20
-64.274818
 30
0.0
 40
37.0
100
AcDbArc
 50
155.96357
 51
204.03643
  0
ARC
  5
397
100
AcDbEntity
  8
0
370
    -3
  6
Continuous
100
AcDbCircle
 10
-526.44121
 20
-64.274818
 30
0.0
 40
43.0
100
AcDbArc
 50
155.531072
 51
204.468928
  0
ARC
  5
398
100
AcDbEntity
  8
0
370
    -3
  6
Continuous
100
AcDbCircle
 10
-526.44121
 20
-64.274818
 30
0.0
 40
33.5
100
AcDbArc
 50
157.180756
 51
202.819244
  0
ARC
  5
399
100
AcDbEntity
  8
0
370
    -3
  6
Continuous
100
AcDbCircle
 10
-553.315896
 20
-75.172123
 30
0.0
 40
1.5
100
AcDbArc
 50
300.0
 51
22.071858
  0
ARC
  5
39A
100
AcDbEntity
  8
0
370
    -3
  6
Continuous
100
AcDbCircle
 10
-564.21393
 20
-81.464106
 30
0.0
 40
1.5
100
AcDbArc
 50
204.468928
 51
300.0
  0
LINE
  5
39B
100
AcDbEntity
  8
0
370
    -3
  6
Continuous
100
AcDbLine
 10
-563.46393
 20
-82.763144
 30
0.0
 11
-560.852746
 21
-81.255576
 31
0.0
  0
ARC
  5
39C
100
AcDbEntity
  8
0
370
    -3
  6
Continuous
100
AcDbCircle
 10
-561.602746
 20
-79.956538
 30
0.0
 40
1.5
100
AcDbArc
 50
300.0
 51
24.03643
  0
LINE
  5
39D
100
AcDbEntity
  8
0
370
    -3
  6
Continuous
100
AcDbLine
 10
-555.186664
 20
-77.984262
 30
0.0
 11
-552.565896
 21
-76.471161
 31
0.0
  0
ARC
  5
39E
100
AcDbEntity
  8
0
370
    -3
  6
Continuous
100
AcDbCircle
 10
-555.936664
 20
-76.685224
 30
0.0
 40
1.5
100
AcDbArc
 50
202.819244
 51
300.0
  0
ARC
  5
39F
100
AcDbEntity
  8
0
370
    -3
  6
Continuous
100
AcDbCircle
 10
-560.21393
 20
-40.157327
 30
0.0
 40
1.5
100
AcDbArc
 50
144.468928
 51
240.0
  0
LINE
  5
3A0
100
AcDbEntity
  8
0
370
    -3
  6
Continuous
100
AcDbLine
 10
-558.352746
 20
-42.963932
 30
0.0
 11
-560.96393
 21
-41.456365
 31
0.0
  0
LINE
  5
3A1
100
AcDbEntity
  8
0
370
    -3
  6
Continuous
100
AcDbLine
 10
-550.065896
 20
-47.748348
 30
0.0
 11
-552.686664
 21
-46.235246
 31
0.0
  0
ARC
  5
3A2
100
AcDbEntity
  8
0
370
    -3
  6
Continuous
100
AcDbCircle
 10
-557.602746
 20
-41.664894
 30
0.0
 40
1.5
100
AcDbArc
 50
240.0
 51
324.03643
  0
ARC
  5
3A3
100
AcDbEntity
  8
0
370
    -3
  6
Continuous
100
AcDbCircle
 10
-551.936664
 20
-44.936208
 30
0.0
 40
1.5
100
AcDbArc
 50
142.819244
 51
240.0
  0
ARC
  5
3A4
100
AcDbEntity
  8
0
370
    -3
  6
Continuous
100
AcDbCircle
 10
-549.315896
 20
-46.44931
 30
0.0
 40
1.5
100
AcDbArc
 50
240.0
 51
322.071858
  0
ARC
  5
3A5
100
AcDbEntity
  8
0
370
    -3
  6
Continuous
100
AcDbCircle
 10
-526.44121
 20
-64.274818
 30
0.0
 40
27.5
100
AcDbArc
 50
97.928142
 51
142.071858
  0
ARC
  5
3A6
100
AcDbEntity
  8
0
370
    -3
  6
Continuous
100
AcDbCircle
 10
-526.44121
 20
-64.274818
 30
0.0
 40
37.0
100
AcDbArc
 50
95.96357
 51
144.03643
  0
ARC
  5
3A7
100
AcDbEntity
  8
0
370
    -3
  6
Continuous
100
AcDbCircle
 10
-526.44121
 20
-64.274818
 30
0.0
 40
43.0
100
AcDbArc
 50
95.531072
 51
144.468928
  0
ARC
  5
3A8
100
AcDbEntity
  8
0
370
    -3
  6
Continuous
100
AcDbCircle
 10
-526.44121
 20
-64.274818
 30
0.0
 40
33.5
100
AcDbArc
 50
97.180756
 51
142.819244
  0
ARC
  5
3A9
100
AcDbEntity
  8
0
370
    -3
  6
Continuous
100
AcDbCircle
 10
-530.44121
 20
-35.552005
 30
0.0
 40
1.5
100
AcDbArc
 50
277.928142
 51
0.0
  0
LINE
  5
3AA
100
AcDbEntity
  8
0
370
    -3
  6
DASHED
100
AcDbLine
 10
-572.987624
 20
-101.34344
 30
0.0
 11
-572.987624
 21
-101.326797
 31
0.0
  0
LINE
  5
3AB
100
AcDbEntity
  8
0
370
    -3
  6
Continuous
100
AcDbLine
 10
-571.295797
 20
-103.707359
 30
0.0
 11
-567.245372
 21
-107.757784
 31
0.0
  0
ARC
  5
3AC
100
AcDbEntity
  8
0
370
    -3
  6
Continuous
100
AcDbCircle
 10
-550.365436
 20
-45.772637
 30
0.0
 40
29.6
100
AcDbArc
 50
135.0
 51
177.053989
  0
ARC
  5
3AD
100
AcDbEntity
  8
0
370
    -3
  6
Continuous
100
AcDbCircle
 10
-190.84121
 20
-64.274818
 30
0.0
 40
389.6
100
AcDbArc
 50
180.0
 51
182.946011
  0
LINE
  5
3AE
100
AcDbEntity
  8
0
370
    -3
  6
Continuous
100
AcDbLine
 10
-568.941208
 20
-121.331446
 30
0.0
 11
-568.941208
 21
-124.218192
 31
0.0
  0
LINE
  5
3AF
100
AcDbEntity
  8
0
370
    -3
  6
Continuous
100
AcDbLine
 10
-592.941208
 20
-64.831446
 30
0.0
 11
-592.941208
 21
-67.718192
 31
0.0
  0
LINE
  5
3B0
100
AcDbEntity
  8
0
370
    -3
  6
Continuous
100
AcDbLine
 10
-483.941212
 20
-121.331446
 30
0.0
 11
-483.941211
 21
-124.218192
 31
0.0
  0
LINE
  5
3B1
100
AcDbEntity
  8
0
370
    -3
  6
CENTER
100
AcDbLine
 10
-526.44121
 20
40.688233
 30
0.0
 11
-526.44121
 21
-131.977447
 31
0.0
  0
ARC
  5
3B2
100
AcDbEntity
  8
0
370
    -3
  6
Continuous
100
AcDbCircle
 10
-526.44121
 20
-398.274818
 30
0.0
 40
400.0
100
AcDbArc
 50
86.642183
 51
90.0
  0
ARC
  5
3B3
100
AcDbEntity
  8
0
370
    -3
  6
Continuous
100
AcDbCircle
 10
-586.94121
 20
-81.632917
 30
0.0
 40
10.0
100
AcDbArc
 50
180.0
 51
212.293667
  0
ARC
  5
3B4
100
AcDbEntity
  8
0
370
    -3
  6
Continuous
100
AcDbCircle
 10
-526.44121
 20
-398.274818
 30
0.0
 40
400.0
100
AcDbArc
 50
90.0
 51
93.357817
  0
ARC
  5
3B5
100
AcDbEntity
  8
0
370
    -3
  6
Continuous
100
AcDbCircle
 10
-546.94121
 20
-48.875691
 30
0.0
 40
50.0
100
AcDbArc
 50
93.357817
 51
180.0
  0
ARC
  5
3B6
100
AcDbEntity
  8
0
370
    -3
  6
Continuous
100
AcDbCircle
 10
-567.69121
 20
-4.486081
 30
0.0
 40
1.0
100
AcDbArc
 50
0.0
 51
115.053819
  0
ARC
  5
3B7
100
AcDbEntity
  8
0
370
    -3
  6
Continuous
100
AcDbCircle
 10
-553.19121
 20
-0.275922
 30
0.0
 40
1.0
100
AcDbArc
 50
97.328098
 51
180.0
  0
ARC
  5
3B8
100
AcDbEntity
  8
0
370
    -3
  6
Continuous
100
AcDbCircle
 10
-499.69121
 20
-0.275922
 30
0.0
 40
1.0
100
AcDbArc
 50
0.0
 51
82.671902
  0
ARC
  5
3B9
100
AcDbEntity
  8
0
370
    -3
  6
Continuous
100
AcDbCircle
 10
-485.19121
 20
-4.486081
 30
0.0
 40
1.0
100
AcDbArc
 50
64.946181
 51
180.0
  0
ARC
  5
3BA
100
AcDbEntity
  8
0
370
    -3
  6
Continuous
100
AcDbCircle
 10
-480.324325
 20
-118.883003
 30
0.0
 40
1.0
100
AcDbArc
 50
212.4662
 51
344.103191
  0
ARC
  5
3BB
100
AcDbEntity
  8
0
370
    -3
  6
Continuous
100
AcDbCircle
 10
-572.558095
 20
-118.883003
 30
0.0
 40
1.0
100
AcDbArc
 50
195.896809
 51
327.5338
  0
LINE
  5
3BC
100
AcDbEntity
  8
0
370
    -3
  6
CENTER
100
AcDbLine
 10
-517.385451
 20
-44.274818
 30
0.0
 11
-537.988215
 21
-44.274818
 31
0.0
  0
LINE
  5
3BD
100
AcDbEntity
  8
0
370
    -3
  6
Continuous
100
AcDbLine
 10
-585.121227
 20
11.576772
 30
0.0
 11
-571.265987
 21
-2.278468
 31
0.0
  0
LINE
  5
3BE
100
AcDbEntity
  8
0
370
    -3
  6
Continuous
100
AcDbLine
 10
-582.2928
 20
14.405199
 30
0.0
 11
-566.37552
 21
-1.51208
 31
0.0
  0
LINE
  5
3BF
100
AcDbEntity
  8
0
370
    -3
  6
Continuous
100
AcDbLine
 10
-470.58962
 20
14.405199
 30
0.0
 11
-486.5069
 21
-1.51208
 31
0.0
  0
LINE
  5
3C0
100
AcDbEntity
  8
0
370
    -3
  6
Continuous
100
AcDbLine
 10
-467.761193
 20
11.576772
 30
0.0
 11
-481.616433
 21
-2.278468
 31
0.0
  0
CIRCLE
  5
3C1
100
AcDbEntity
  8
0
370
    -3
  6
Continuous
100
AcDbCircle
 10
-595.384121
 20
-113.217729
 30
0.0
 40
5.0
  0
CIRCLE
  5
3C2
100
AcDbEntity
  8
0
370
    -3
  6
Continuous
100
AcDbCircle
 10
-457.498299
 20
-113.217729
 30
0.0
 40
5.0
  0
ARC
  5
3C3
100
AcDbEntity
  8
0
370
    -3
  6
Continuous
100
AcDbCircle
 10
-522.44121
 20
3.705281
 30
0.0
 40
2.0
100
AcDbArc
 50
180.0
 51
269.429883
  0
ARC
  5
3C4
100
AcDbEntity
  8
0
370
    -3
  6
Continuous
100
AcDbCircle
 10
-530.44121
 20
3.705281
 30
0.0
 40
2.0
100
AcDbArc
 50
270.570117
 51
0.0
  0
ARC
  5
3C5
100
AcDbEntity
  8
0
370
    -3
  6
Continuous
100
AcDbCircle
 10
-572.680201
 20
-3.692681
 30
0.0
 40
2.0
100
AcDbArc
 50
299.668471
 51
45.0
  0
ARC
  5
3C6
100
AcDbEntity
  8
0
370
    -3
  6
Continuous
100
AcDbCircle
 10
-564.961307
 20
-0.097867
 30
0.0
 40
2.0
100
AcDbArc
 50
225.0
 51
290.275851
  0
ARC
  5
3C7
100
AcDbEntity
  8
0
370
    -3
  6
Continuous
100
AcDbCircle
 10
-487.921113
 20
-0.097867
 30
0.0
 40
2.0
100
AcDbArc
 50
249.724149
 51
315.0
  0
ARC
  5
3C8
100
AcDbEntity
  8
0
370
    -3
  6
Continuous
100
AcDbCircle
 10
-480.202219
 20
-3.692681
 30
0.0
 40
2.0
100
AcDbArc
 50
135.0
 51
240.331529
  0
ARC
  5
3C9
100
AcDbEntity
  8
0
370
    -3
  6
Continuous
100
AcDbCircle
 10
-505.94121
 20
-48.875691
 30
0.0
 40
50.0
100
AcDbArc
 50
18.180854
 51
86.642183
  0
ARC
  5
3CA
100
AcDbEntity
  8
0
370
    -3
  6
Continuous
100
AcDbCircle
 10
-505.94121
 20
-48.875691
 30
0.0
 40
50.0
100
AcDbArc
 50
15.645492
 51
17.763679
  0
ARC
  5
3CB
100
AcDbEntity
  8
0
370
    -3
  6
Continuous
100
AcDbCircle
 10
-526.44121
 20
276.325182
 30
0.0
 40
400.6
100
AcDbArc
 50
265.337794
 51
270.0
  0
ARC
  5
3CC
100
AcDbEntity
  8
0
370
    -3
  6
Continuous
100
AcDbCircle
 10
-526.44121
 20
276.325182
 30
0.0
 40
400.6
100
AcDbArc
 50
270.0
 51
274.662206
  0
LINE
  5
3CD
100
AcDbEntity
  8
0
370
    -3
  6
Continuous
100
AcDbLine
 10
-526.44121
 20
-127.274818
 30
0.0
 11
-492.790422
 21
-127.274818
 31
0.0
  0
LINE
  5
3CE
100
AcDbEntity
  8
0
370
    -3
  6
Continuous
100
AcDbLine
 10
-526.44121
 20
-127.274818
 30
0.0
 11
-560.091997
 21
-127.274818
 31
0.0
  0
LINE
  5
3CF
100
AcDbEntity
  8
0
370
    -3
  6
Continuous
100
AcDbLine
 10
-526.44121
 20
-127.274818
 30
0.0
 11
-559.826832
 21
-127.274818
 31
0.0
  0
LINE
  5
3D0
100
AcDbEntity
  8
0
370
    -3
  6
Continuous
100
AcDbLine
 10
-526.44121
 20
-127.274818
 30
0.0
 11
-493.055588
 21
-127.274818
 31
0.0
  0
ARC
  5
3D1
100
AcDbEntity
  8
0
370
    -3
  6
CENTER
100
AcDbCircle
 10
-526.44121
 20
-44.274818
 30
0.0
 40
97.5
100
AcDbArc
 50
129.123188
 51
140.876812
  0
LINE
  5
3D2
100
AcDbEntity
  8
0
370
    -3
  6
CENTER
100
AcDbLine
 10
-586.606311
 20
15.890283
 30
0.0
 11
-602.311063
 21
31.595035
 31
0.0
  0
LINE
  5
3D3
100
AcDbEntity
  8
0
370
    -3
  6
CENTER
100
AcDbLine
 10
-464.230731
 20
17.935661
 30
0.0
 11
-450.937802
 21
31.22859
 31
0.0
  0
ARC
  5
3D4
100
AcDbEntity
  8
0
370
    -3
  6
CENTER
100
AcDbCircle
 10
-526.44121
 20
-44.274818
 30
0.0
 40
97.5
100
AcDbArc
 50
39.492866
 51
50.876812
  0
ARC
  5
3D5
100
AcDbEntity
  8
0
370
    -3
  6
CENTER
100
AcDbCircle
 10
-526.44121
 20
-44.274818
 30
0.0
 40
97.5
100
AcDbArc
 50
309.123188
 51
320.876812
  0
LINE
  5
3D6
100
AcDbEntity
  8
0
370
    -3
  6
CENTER
100
AcDbLine
 10
-465.099047
 20
-105.616981
 30
0.0
 11
-450.360273
 21
-120.355755
 31
0.0
  0
LINE
  5
3D7
100
AcDbEntity
  8
0
370
    -3
  6
CENTER
100
AcDbLine
 10
-587.745269
 20
-105.578877
 30
0.0
 11
-602.427242
 21
-120.26085
 31
0.0
  0
ARC
  5
3D8
100
AcDbEntity
  8
0
370
    -3
  6
CENTER
100
AcDbCircle
 10
-526.44121
 20
-44.274818
 30
0.0
 40
97.5
100
AcDbArc
 50
219.125774
 51
230.876812
  0
MTEXT
  5
3DA
100
AcDbEntity
  8
0
370
    -3
  6
Continuous
100
AcDbMText
 10
-595.860962
 20
212.867935
 30
0.0
 40
15.0
 41
0.0
 71
     7
 72
     1
  1
\W0.48;GV-SFB
  7
ZU_SHPTB00001
 11
1.0
 21
0.0
 31
0.0
 73
     1
 44
1.0
  0
MTEXT
  5
3DB
100
AcDbEntity
  8
0
370
    -3
  6
Continuous
100
AcDbMText
 10
-595.860962
 20
195.917923
 30
0.0
 40
15.0
 41
0.0
 71
     7
 72
     1
  1
\W0.43;0.75kW
  7
ZU_SHPTB00001
 11
1.0
 21
0.0
 31
0.0
 73
     1
 44
1.0
  0
MTEXT
  5
3DC
100
AcDbEntity
  8
0
370
    -3
  6
Continuous
100
AcDbMText
 10
-595.860962
 20
162.01796
 30
0.0
 40
15.0
 41
0.0
 71
     7
 72
     1
  1
\W0.42;GEAR\W0.70; \W0.42;RATIO\W0.70;  \W0.42;1/40-1/50
  7
ZU_SHPTB00001
 11
1.0
 21
0.0
 31
0.0
 73
     1
 44
1.0
  0
MTEXT
  5
3DD
100
AcDbEntity
  8
0
370
    -3
  6
Continuous
100
AcDbMText
 10
-595.860962
 20
178.967972
 30
0.0
 40
15.0
 41
0.0
 71
     7
 72
     1
  1
\W0.43;75-60r/min\W0.53;　
  7
ZU_SHPTB00001
 11
1.0
 21
0.0
 31
0.0
 73
     1
 44
1.0
  0
MTEXT
  5
3DE
100
AcDbEntity
  8
0
370
    -3
  6
Continuous
100
AcDbMText
 10
-595.860962
 20
145.067932
 30
0.0
 40
15.0
 41
0.0
 71
     7
 72
     1
  1
\W0.43;SCALE\W0.72;  \W0.43;1/1
  7
ZU_SHPTB00001
 11
1.0
 21
0.0
 31
0.0
 73
     1
 44
1.0
  0
MTEXT
  5
3DF
100
AcDbEntity
  8
0
370
    -3
  6
Continuous
100
AcDbMText
 10
-595.860962
 20
229.817947
 30
0.0
 40
15.0
 41
0.0
 71
     7
 72
     1
  1
\W0.63;三菱ギヤードモータ  
  7
ZU_SHPTB00001
 11
1.0
 21
0.0
 31
0.0
 73
     1
 44
1.0
  0
MTEXT
  5
3E0
100
AcDbEntity
  8
0
370
    -3
  6
Continuous
100
AcDbMText
 10
-595.860962
 20
229.817947
 30
0.0
 40
15.0
 41
0.0
 71
     7
 72
     1
  1
\W0.63;三菱ギヤードモータ  
  7
ZU_SHPTB00001
 11
1.0
 21
0.0
 31
0.0
 73
     1
 44
1.0
  0
LINE
  5
3E1
100
AcDbEntity
  8
0
370
    -3
  6
CENTER
100
AcDbLine
 10
99.617236
 20
-42.974361
 30
0.0
 11
99.617236
 21
-85.575275
 31
0.0
  0
LINE
  5
3E2
100
AcDbEntity
  8
0
370
    -3
  6
Continuous
100
AcDbLine
 10
74.146088
 20
-26.775999
 30
0.0
 11
74.146088
 21
-101.773636
 31
0.0
  0
ARC
  5
3E3
100
AcDbEntity
  8
0
370
    -3
  6
Continuous
100
AcDbCircle
 10
81.946088
 20
-25.274818
 30
0.0
 40
7.8
100
AcDbArc
 50
90.0
 51
151.87484
  0
ELLIPSE
  5
3E4
100
AcDbEntity
  8
0
370
    -3
  6
Continuous
100
AcDbEllipse
 10
76.031496
 20
-24.774818
 30
0.0
 11
0.0
 21
3.5
 31
0.0
210
0.0
220
0.0
230
1.0
 40
0.656603
 41
0.0
 42
6.2831853071795862
  0
LINE
  5
3E5
100
AcDbEntity
  8
0
370
    -3
  6
Continuous
100
AcDbLine
 10
73.984216
 20
-23.184801
 30
0.0
 11
74.494043
 21
-24.774818
 31
0.0
  0
LINE
  5
3E6
100
AcDbEntity
  8
0
370
    -3
  6
Continuous
100
AcDbLine
 10
74.494043
 20
-24.774818
 30
0.0
 11
75.543231
 21
-22.774818
 31
0.0
  0
LINE
  5
3E7
100
AcDbEntity
  8
0
370
    -3
  6
Continuous
100
AcDbLine
 10
74.494043
 20
-24.774818
 30
0.0
 11
75.543231
 21
-26.774818
 31
0.0
  0
LINE
  5
3E8
100
AcDbEntity
  8
0
370
    -3
  6
Continuous
100
AcDbLine
 10
73.984216
 20
-26.364834
 30
0.0
 11
74.494043
 21
-24.774818
 31
0.0
  0
LINE
  5
3E9
100
AcDbEntity
  8
0
370
    -3
  6
Continuous
100
AcDbLine
 10
112.442478
 20
-23.184801
 30
0.0
 11
112.952304
 21
-24.774818
 31
0.0
  0
LINE
  5
3EA
100
AcDbEntity
  8
0
370
    -3
  6
Continuous
100
AcDbLine
 10
112.442478
 20
-26.364834
 30
0.0
 11
112.952304
 21
-24.774818
 31
0.0
  0
LINE
  5
3EB
100
AcDbEntity
  8
0
370
    -3
  6
Continuous
100
AcDbLine
 10
112.952304
 20
-24.774818
 30
0.0
 11
113.617236
 21
-26.042334
 31
0.0
  0
LINE
  5
3EC
100
AcDbEntity
  8
0
370
    -3
  6
Continuous
100
AcDbLine
 10
112.952304
 20
-24.774818
 30
0.0
 11
113.617236
 21
-23.507302
 31
0.0
  0
ELLIPSE
  5
3ED
100
AcDbEntity
  8
0
370
    -3
  6
Continuous
100
AcDbEllipse
 10
114.489758
 20
-24.774818
 30
0.0
 11
0.0
 21
3.5
 31
0.0
210
0.0
220
0.0
230
1.0
 40
0.656603
 41
0.3894387522769047
 42
2.7521539013128891
  0
ARC
  5
3EE
100
AcDbEntity
  8
0
370
    -3
  6
Continuous
100
AcDbCircle
 10
107.310346
 20
-29.524818
 30
0.0
 40
3.8
100
AcDbArc
 50
23.227672
 51
90.0
  0
LINE
  5
3EF
100
AcDbEntity
  8
0
370
    -3
  6
Continuous
100
AcDbLine
 10
107.310346
 20
-25.724818
 30
0.0
 11
82.799709
 21
-25.724818
 31
0.0
  0
LINE
  5
3F0
100
AcDbEntity
  8
0
370
    -3
  6
Continuous
100
AcDbLine
 10
110.802337
 20
-28.026152
 30
0.0
 11
113.617236
 21
-34.585054
 31
0.0
  0
LINE
  5
3F1
100
AcDbEntity
  8
0
370
    -3
  6
Continuous
100
AcDbLine
 10
110.802337
 20
-100.523484
 30
0.0
 11
113.617236
 21
-93.964582
 31
0.0
  0
LINE
  5
3F2
100
AcDbEntity
  8
0
370
    -3
  6
Continuous
100
AcDbLine
 10
81.946088
 20
-17.474818
 30
0.0
 11
113.617236
 21
-17.474818
 31
0.0
  0
ARC
  5
3F3
100
AcDbEntity
  8
0
370
    -3
  6
Continuous
100
AcDbCircle
 10
110.805127
 20
-25.274818
 30
0.0
 40
7.8
100
AcDbArc
 50
68.867452
 51
90.0
  0
ARC
  5
3F4
100
AcDbEntity
  8
0
370
    -3
  6
Continuous
100
AcDbCircle
 10
82.799709
 20
-32.524818
 30
0.0
 40
6.8
100
AcDbArc
 50
90.0
 51
180.0
  0
LINE
  5
3F5
100
AcDbEntity
  8
0
370
    -3
  6
Continuous
100
AcDbLine
 10
75.999709
 20
-32.524818
 30
0.0
 11
75.999709
 21
-96.024818
 31
0.0
  0
ARC
  5
3F6
100
AcDbEntity
  8
0
370
    -3
  6
Continuous
100
AcDbCircle
 10
82.799709
 20
-96.024818
 30
0.0
 40
6.8
100
AcDbArc
 50
180.0
 51
270.0
  0
LINE
  5
3F7
100
AcDbEntity
  8
0
370
    -3
  6
Continuous
100
AcDbLine
 10
81.946088
 20
-111.074818
 30
0.0
 11
113.617236
 21
-111.074818
 31
0.0
  0
ARC
  5
3F8
100
AcDbEntity
  8
0
370
    -3
  6
Continuous
100
AcDbCircle
 10
81.946088
 20
-103.274818
 30
0.0
 40
7.8
100
AcDbArc
 50
208.12516
 51
270.0
  0
ELLIPSE
  5
3F9
100
AcDbEntity
  8
0
370
    -3
  6
Continuous
100
AcDbEllipse
 10
76.031496
 20
-103.774818
 30
0.0
 11
0.0
 21
3.5
 31
0.0
210
0.0
220
0.0
230
1.0
 40
0.656603
 41
0.0
 42
6.2831853071795862
  0
LINE
  5
3FA
100
AcDbEntity
  8
0
370
    -3
  6
Continuous
100
AcDbLine
 10
73.984216
 20
-105.364834
 30
0.0
 11
74.494043
 21
-103.774818
 31
0.0
  0
LINE
  5
3FB
100
AcDbEntity
  8
0
370
    -3
  6
Continuous
100
AcDbLine
 10
74.494043
 20
-103.774818
 30
0.0
 11
75.543231
 21
-105.774818
 31
0.0
  0
LINE
  5
3FC
100
AcDbEntity
  8
0
370
    -3
  6
Continuous
100
AcDbLine
 10
74.494043
 20
-103.774818
 30
0.0
 11
75.543231
 21
-101.774818
 31
0.0
  0
LINE
  5
3FD
100
AcDbEntity
  8
0
370
    -3
  6
Continuous
100
AcDbLine
 10
73.984216
 20
-102.184801
 30
0.0
 11
74.494043
 21
-103.774818
 31
0.0
  0
LINE
  5
3FE
100
AcDbEntity
  8
0
370
    -3
  6
Continuous
100
AcDbLine
 10
112.442478
 20
-105.364834
 30
0.0
 11
112.952304
 21
-103.774818
 31
0.0
  0
LINE
  5
3FF
100
AcDbEntity
  8
0
370
    -3
  6
Continuous
100
AcDbLine
 10
112.442478
 20
-102.184801
 30
0.0
 11
112.952304
 21
-103.774818
 31
0.0
  0
LINE
  5
400
100
AcDbEntity
  8
0
370
    -3
  6
Continuous
100
AcDbLine
 10
112.952304
 20
-103.774818
 30
0.0
 11
113.617236
 21
-102.507302
 31
0.0
  0
LINE
  5
401
100
AcDbEntity
  8
0
370
    -3
  6
Continuous
100
AcDbLine
 10
112.952304
 20
-103.774818
 30
0.0
 11
113.617236
 21
-105.042334
 31
0.0
  0
ELLIPSE
  5
402
100
AcDbEntity
  8
0
370
    -3
  6
Continuous
100
AcDbEllipse
 10
114.489758
 20
-103.774818
 30
0.0
 11
0.0
 21
3.5
 31
0.0
210
0.0
220
0.0
230
1.0
 40
0.656603
 41
0.3894387522769047
 42
2.7521539013128891
  0
ARC
  5
403
100
AcDbEntity
  8
0
370
    -3
  6
Continuous
100
AcDbCircle
 10
107.310346
 20
-99.024818
 30
0.0
 40
3.8
100
AcDbArc
 50
270.0
 51
336.772328
  0
LINE
  5
404
100
AcDbEntity
  8
0
370
    -3
  6
Continuous
100
AcDbLine
 10
107.310346
 20
-102.824818
 30
0.0
 11
82.799709
 21
-102.824818
 31
0.0
  0
ARC
  5
405
100
AcDbEntity
  8
0
370
    -3
  6
Continuous
100
AcDbCircle
 10
110.805127
 20
-103.274818
 30
0.0
 40
7.8
100
AcDbArc
 50
270.0
 51
291.132548
  0
CIRCLE
  5
406
100
AcDbEntity
  8
0
370
    -3
  6
DASHED
100
AcDbCircle
 10
99.617236
 20
-64.274818
 30
0.0
 40
17.0
  0
LINE
  5
407
100
AcDbEntity
  8
0
370
    -3
  6
CENTER
100
AcDbLine
 10
78.316779
 20
-64.274818
 30
0.0
 11
120.917693
 21
-64.274818
 31
0.0
  0
LINE
  5
408
100
AcDbEntity
  8
0
370
    -3
  6
Continuous
100
AcDbLine
 10
-271.186172
 20
-64.274818
 30
0.0
 11
-271.186172
 21
-39.710355
 31
0.0
  0
LINE
  5
409
100
AcDbEntity
  8
0
370
    -3
  6
Continuous
100
AcDbLine
 10
-261.260278
 20
-27.012309
 30
0.0
 11
-270.237013
 21
-37.197847
 31
0.0
  0
ARC
  5
40A
100
AcDbEntity
  8
0
370
    -3
  6
Continuous
100
AcDbCircle
 10
-267.386172
 20
-39.710355
 30
0.0
 40
3.8
100
AcDbArc
 50
138.609573
 51
180.0
  0
POINT
  5
40B
100
AcDbEntity
  8
0
370
    -3
  6
CENTER
100
AcDbPoint
 10
-301.853912
 20
-51.054318
 30
0.0
  0
LINE
  5
40C
100
AcDbEntity
  8
0
370
    -3
  6
Continuous
100
AcDbLine
 10
-301.853912
 20
-64.274818
 30
0.0
 11
-301.853912
 21
-49.274818
 31
0.0
  0
ARC
  5
40D
100
AcDbEntity
  8
0
370
    -3
  6
Continuous
100
AcDbCircle
 10
-299.853912
 20
-49.274818
 30
0.0
 40
2.0
100
AcDbArc
 50
90.0
 51
180.0
  0
LINE
  5
40E
100
AcDbEntity
  8
0
370
    -3
  6
Continuous
100
AcDbLine
 10
-299.853912
 20
-47.274818
 30
0.0
 11
-281.427972
 21
-47.274818
 31
0.0
  0
LINE
  5
40F
100
AcDbEntity
  8
0
370
    -3
  6
Continuous
100
AcDbLine
 10
-278.976786
 20
-64.274818
 30
0.0
 11
-278.976786
 21
-25.274818
 31
0.0
  0
LINE
  5
410
100
AcDbEntity
  8
0
370
    -3
  6
Continuous
100
AcDbLine
 10
-281.427972
 20
-64.274818
 30
0.0
 11
-281.427972
 21
-25.274818
 31
0.0
  0
POINT
  5
411
100
AcDbEntity
  8
0
370
    -3
  6
CENTER
100
AcDbPoint
 10
-301.853912
 20
-77.495318
 30
0.0
  0
LINE
  5
412
100
AcDbEntity
  8
0
370
    -3
  6
Continuous
100
AcDbLine
 10
-301.853912
 20
-64.274818
 30
0.0
 11
-301.853912
 21
-79.274818
 31
0.0
  0
ARC
  5
413
100
AcDbEntity
  8
0
370
    -3
  6
Continuous
100
AcDbCircle
 10
-299.853912
 20
-79.274818
 30
0.0
 40
2.0
100
AcDbArc
 50
180.0
 51
270.0
  0
LINE
  5
414
100
AcDbEntity
  8
0
370
    -3
  6
Continuous
100
AcDbLine
 10
-299.853912
 20
-81.274818
 30
0.0
 11
-281.427972
 21
-81.274818
 31
0.0
  0
LINE
  5
415
100
AcDbEntity
  8
0
370
    -3
  6
Continuous
100
AcDbLine
 10
-271.186172
 20
-64.274818
 30
0.0
 11
-271.186172
 21
-88.83928
 31
0.0
  0
LINE
  5
416
100
AcDbEntity
  8
0
370
    -3
  6
Continuous
100
AcDbLine
 10
-278.976786
 20
-64.274818
 30
0.0
 11
-278.976786
 21
-103.274818
 31
0.0
  0
LINE
  5
417
100
AcDbEntity
  8
0
370
    -3
  6
Continuous
100
AcDbLine
 10
-281.427972
 20
-64.274818
 30
0.0
 11
-281.427972
 21
-103.274818
 31
0.0
  0
LINE
  5
418
100
AcDbEntity
  8
0
370
    -3
  6
Continuous
100
AcDbLine
 10
-269.353912
 20
-105.718992
 30
0.0
 11
-268.853912
 21
-105.718992
 31
0.0
  0
LINE
  5
419
100
AcDbEntity
  8
0
370
    -3
  6
Continuous
100
AcDbLine
 10
-270.808778
 20
-103.774818
 30
0.0
 11
-272.716498
 21
-101.774818
 31
0.0
  0
LINE
  5
41A
100
AcDbEntity
  8
0
370
    -3
  6
Continuous
100
AcDbLine
 10
-269.091266
 20
-105.774818
 30
0.0
 11
-270.808778
 21
-103.774818
 31
0.0
  0
LINE
  5
41B
100
AcDbEntity
  8
0
370
    -3
  6
Continuous
100
AcDbLine
 10
-270.808778
 20
-103.774818
 30
0.0
 11
-269.091266
 21
-101.774818
 31
0.0
  0
LINE
  5
41C
100
AcDbEntity
  8
0
370
    -3
  6
Continuous
100
AcDbLine
 10
-272.716498
 20
-105.774818
 30
0.0
 11
-270.808778
 21
-103.774818
 31
0.0
  0
ELLIPSE
  5
41D
100
AcDbEntity
  8
0
370
    -3
  6
Continuous
100
AcDbEllipse
 10
-271.639809
 20
-103.774818
 30
0.0
 11
0.0000000000002274
 21
3.5
 31
0.0
210
0.0
220
0.0
230
1.0
 40
0.982815
 41
0.0
 42
6.2831853071795862
  0
ARC
  5
41E
100
AcDbEntity
  8
0
370
    -3
  6
Continuous
100
AcDbCircle
 10
-267.386172
 20
-88.83928
 30
0.0
 40
3.8
100
AcDbArc
 50
180.0
 51
221.390427
  0
LINE
  5
41F
100
AcDbEntity
  8
0
370
    -3
  6
Continuous
100
AcDbLine
 10
-261.260278
 20
-101.537327
 30
0.0
 11
-270.237013
 21
-91.351789
 31
0.0
  0
ARC
  5
420
100
AcDbEntity
  8
0
370
    -3
  6
Continuous
100
AcDbCircle
 10
-258.409436
 20
-99.024818
 30
0.0
 40
3.8
100
AcDbArc
 50
221.390427
 51
270.0
  0
ARC
  5
421
100
AcDbEntity
  8
0
370
    -3
  6
Continuous
100
AcDbCircle
 10
-271.176786
 20
-103.274818
 30
0.0
 40
7.8
100
AcDbArc
 50
180.0
 51
270.0
  0
ARC
  5
422
100
AcDbEntity
  8
0
370
    -3
  6
Continuous
100
AcDbCircle
 10
-273.627972
 20
-103.274818
 30
0.0
 40
7.8
100
AcDbArc
 50
180.0
 51
270.0
  0
LINE
  5
423
100
AcDbEntity
  8
0
370
    -3
  6
Continuous
100
AcDbLine
 10
-188.334769
 20
-103.774818
 30
0.0
 11
-190.242489
 21
-101.774818
 31
0.0
  0
LINE
  5
424
100
AcDbEntity
  8
0
370
    -3
  6
Continuous
100
AcDbLine
 10
-186.617258
 20
-105.774818
 30
0.0
 11
-188.334769
 21
-103.774818
 31
0.0
  0
LINE
  5
425
100
AcDbEntity
  8
0
370
    -3
  6
Continuous
100
AcDbLine
 10
-188.334769
 20
-103.774818
 30
0.0
 11
-186.617258
 21
-101.774818
 31
0.0
  0
LINE
  5
426
100
AcDbEntity
  8
0
370
    -3
  6
Continuous
100
AcDbLine
 10
-190.242489
 20
-105.774818
 30
0.0
 11
-188.334769
 21
-103.774818
 31
0.0
  0
ELLIPSE
  5
427
100
AcDbEntity
  8
0
370
    -3
  6
Continuous
100
AcDbEllipse
 10
-189.1658
 20
-103.774818
 30
0.0
 11
0.000000000000199
 21
3.5
 31
0.0
210
0.0
220
0.0
230
1.0
 40
0.982815
 41
0.0
 42
6.2831853071795862
  0
LINE
  5
428
100
AcDbEntity
  8
0
370
    -3
  6
Continuous
100
AcDbLine
 10
-200.427959
 20
-64.274818
 30
0.0
 11
-200.427959
 21
-92.824818
 31
0.0
  0
ARC
  5
429
100
AcDbEntity
  8
0
370
    -3
  6
Continuous
100
AcDbCircle
 10
-210.427959
 20
-92.824818
 30
0.0
 40
10.0
100
AcDbArc
 50
270.0
 51
360.0
  0
LINE
  5
42A
100
AcDbEntity
  8
0
370
    -3
  6
Continuous
100
AcDbLine
 10
-189.974553
 20
-64.274818
 30
0.0
 11
-189.974553
 21
-88.821809
 31
0.0
  0
ARC
  5
42B
100
AcDbEntity
  8
0
370
    -3
  6
Continuous
100
AcDbCircle
 10
-193.774553
 20
-88.821809
 30
0.0
 40
3.8
100
AcDbArc
 50
318.14922
 51
360.0
  0
LINE
  5
42C
100
AcDbEntity
  8
0
370
    -3
  6
Continuous
100
AcDbLine
 10
-200.082817
 20
-101.560151
 30
0.0
 11
-190.94399
 21
-91.357142
 31
0.0
  0
ARC
  5
42D
100
AcDbEntity
  8
0
370
    -3
  6
Continuous
100
AcDbCircle
 10
-202.91338
 20
-99.024818
 30
0.0
 40
3.8
100
AcDbArc
 50
270.0
 51
318.14922
  0
ARC
  5
42E
100
AcDbEntity
  8
0
370
    -3
  6
Continuous
100
AcDbCircle
 10
-190.756443
 20
-103.274818
 30
0.0
 40
7.8
100
AcDbArc
 50
270.0
 51
360.0
  0
LINE
  5
42F
100
AcDbEntity
  8
0
370
    -3
  6
Continuous
100
AcDbLine
 10
-190.756443
 20
-111.074818
 30
0.0
 11
-273.627972
 21
-111.074818
 31
0.0
  0
LINE
  5
430
100
AcDbEntity
  8
0
370
    -3
  6
Continuous
100
AcDbLine
 10
-182.956443
 20
-64.274818
 30
0.0
 11
-182.956443
 21
-103.274818
 31
0.0
  0
LINE
  5
431
100
AcDbEntity
  8
0
370
    -3
  6
Continuous
100
AcDbLine
 10
-200.427959
 20
-64.274818
 30
0.0
 11
-200.427959
 21
-35.724818
 31
0.0
  0
LINE
  5
432
100
AcDbEntity
  8
0
370
    -3
  6
Continuous
100
AcDbLine
 10
-189.974553
 20
-64.274818
 30
0.0
 11
-189.974553
 21
-39.727827
 31
0.0
  0
LINE
  5
433
100
AcDbEntity
  8
0
370
    -3
  6
Continuous
100
AcDbLine
 10
-182.956443
 20
-64.274818
 30
0.0
 11
-182.956443
 21
-25.274818
 31
0.0
  0
LINE
  5
434
100
AcDbEntity
  8
0
370
    -3
  6
Continuous
100
AcDbLine
 10
-188.334769
 20
-24.774818
 30
0.0
 11
-190.242489
 21
-26.774818
 31
0.0
  0
LINE
  5
435
100
AcDbEntity
  8
0
370
    -3
  6
Continuous
100
AcDbLine
 10
-186.617258
 20
-22.774818
 30
0.0
 11
-188.334769
 21
-24.774818
 31
0.0
  0
LINE
  5
436
100
AcDbEntity
  8
0
370
    -3
  6
Continuous
100
AcDbLine
 10
-188.334769
 20
-24.774818
 30
0.0
 11
-186.617258
 21
-26.774818
 31
0.0
  0
LINE
  5
437
100
AcDbEntity
  8
0
370
    -3
  6
Continuous
100
AcDbLine
 10
-190.242489
 20
-22.774818
 30
0.0
 11
-188.334769
 21
-24.774818
 31
0.0
  0
ELLIPSE
  5
438
100
AcDbEntity
  8
0
370
    -3
  6
Continuous
100
AcDbEllipse
 10
-189.1658
 20
-24.774818
 30
0.0
 11
0.0
 21
3.5
 31
0.0
210
0.0
220
0.0
230
1.0
 40
0.982815
 41
0.0
 42
6.2831853071795862
  0
ARC
  5
439
100
AcDbEntity
  8
0
370
    -3
  6
Continuous
100
AcDbCircle
 10
-210.427959
 20
-35.724818
 30
0.0
 40
10.0
100
AcDbArc
 50
0.0
 51
90.0
  0
LINE
  5
43A
100
AcDbEntity
  8
0
370
    -3
  6
Continuous
100
AcDbLine
 10
-258.409436
 20
-25.724818
 30
0.0
 11
-202.91338
 21
-25.724818
 31
0.0
  0
ARC
  5
43B
100
AcDbEntity
  8
0
370
    -3
  6
Continuous
100
AcDbCircle
 10
-193.774553
 20
-39.727827
 30
0.0
 40
3.8
100
AcDbArc
 50
0.0
 51
41.85078
  0
LINE
  5
43C
100
AcDbEntity
  8
0
370
    -3
  6
Continuous
100
AcDbLine
 10
-200.082817
 20
-26.989485
 30
0.0
 11
-190.94399
 21
-37.192493
 31
0.0
  0
ARC
  5
43D
100
AcDbEntity
  8
0
370
    -3
  6
Continuous
100
AcDbCircle
 10
-202.91338
 20
-29.524818
 30
0.0
 40
3.8
100
AcDbArc
 50
41.85078
 51
90.0
  0
LINE
  5
43E
100
AcDbEntity
  8
0
370
    -3
  6
Continuous
100
AcDbLine
 10
-190.756443
 20
-17.474818
 30
0.0
 11
-273.627972
 21
-17.474818
 31
0.0
  0
ARC
  5
43F
100
AcDbEntity
  8
0
370
    -3
  6
Continuous
100
AcDbCircle
 10
-190.756443
 20
-25.274818
 30
0.0
 40
7.8
100
AcDbArc
 50
0.0
 51
90.0
  0
LINE
  5
440
100
AcDbEntity
  8
0
370
    -3
  6
Continuous
100
AcDbLine
 10
-270.808778
 20
-24.774818
 30
0.0
 11
-272.716498
 21
-26.774818
 31
0.0
  0
LINE
  5
441
100
AcDbEntity
  8
0
370
    -3
  6
Continuous
100
AcDbLine
 10
-269.091266
 20
-22.774818
 30
0.0
 11
-270.808778
 21
-24.774818
 31
0.0
  0
LINE
  5
442
100
AcDbEntity
  8
0
370
    -3
  6
Continuous
100
AcDbLine
 10
-270.808778
 20
-24.774818
 30
0.0
 11
-269.091266
 21
-26.774818
 31
0.0
  0
LINE
  5
443
100
AcDbEntity
  8
0
370
    -3
  6
Continuous
100
AcDbLine
 10
-272.716498
 20
-22.774818
 30
0.0
 11
-270.808778
 21
-24.774818
 31
0.0
  0
ELLIPSE
  5
444
100
AcDbEntity
  8
0
370
    -3
  6
Continuous
100
AcDbEllipse
 10
-271.639809
 20
-24.774818
 30
0.0
 11
0.0
 21
3.5
 31
0.0
210
0.0
220
0.0
230
1.0
 40
0.982815
 41
0.0
 42
6.2831853071795862
  0
ARC
  5
445
100
AcDbEntity
  8
0
370
    -3
  6
Continuous
100
AcDbCircle
 10
-258.409436
 20
-29.524818
 30
0.0
 40
3.8
100
AcDbArc
 50
90.0
 51
138.609573
  0
ARC
  5
446
100
AcDbEntity
  8
0
370
    -3
  6
Continuous
100
AcDbCircle
 10
-271.176786
 20
-25.274818
 30
0.0
 40
7.8
100
AcDbArc
 50
90.0
 51
180.0
  0
ARC
  5
447
100
AcDbEntity
  8
0
370
    -3
  6
Continuous
100
AcDbCircle
 10
-273.627972
 20
-25.274818
 30
0.0
 40
7.8
100
AcDbArc
 50
90.0
 51
180.0
  0
LINE
  5
448
100
AcDbEntity
  8
0
370
    -3
  6
Continuous
100
AcDbLine
 10
-258.409436
 20
-102.824818
 30
0.0
 11
-202.91338
 21
-102.824818
 31
0.0
  0
LINE
  5
449
100
AcDbEntity
  8
0
370
    -3
  6
Continuous
100
AcDbLine
 10
-301.853912
 20
84.349983
 30
0.0
 11
-301.853912
 21
69.349983
 31
0.0
  0
LINE
  5
44A
100
AcDbEntity
  8
0
370
    -3
  6
Continuous
100
AcDbLine
 10
-301.853912
 20
84.349983
 30
0.0
 11
-301.853912
 21
99.349983
 31
0.0
  0
ARC
  5
44B
100
AcDbEntity
  8
0
370
    -3
  6
Continuous
100
AcDbCircle
 10
-198.589001
 20
109.649983
 30
0.0
 40
0.3
100
AcDbArc
 50
193.342364
 51
270.0
  0
LINE
  5
44C
100
AcDbEntity
  8
0
370
    -3
  6
Continuous
100
AcDbLine
 10
-245.871068
 20
117.349983
 30
0.0
 11
-254.528566
 21
117.349983
 31
0.0
  0
ARC
  5
44D
100
AcDbEntity
  8
0
370
    -3
  6
Continuous
100
AcDbCircle
 10
-257.118823
 20
109.649983
 30
0.0
 40
0.3
100
AcDbArc
 50
270.0
 51
346.657636
  0
LINE
  5
44E
100
AcDbEntity
  8
0
370
    -3
  6
Continuous
100
AcDbLine
 10
-258.853912
 20
111.349983
 30
0.0
 11
-196.853912
 21
111.349983
 31
0.0
  0
LINE
  5
44F
100
AcDbEntity
  8
0
370
    -3
  6
Continuous
100
AcDbLine
 10
-227.853912
 20
111.349983
 30
0.0
 11
-258.853912
 21
111.349983
 31
0.0
  0
LINE
  5
450
100
AcDbEntity
  8
0
370
    -3
  6
Continuous
100
AcDbLine
 10
-227.853912
 20
111.349983
 30
0.0
 11
-196.853912
 21
111.349983
 31
0.0
  0
ARC
  5
451
100
AcDbEntity
  8
0
370
    -3
  6
Continuous
100
AcDbCircle
 10
-299.853912
 20
69.349983
 30
0.0
 40
2.0
100
AcDbArc
 50
180.0
 51
270.0
  0
LINE
  5
452
100
AcDbEntity
  8
0
370
    -3
  6
Continuous
100
AcDbLine
 10
-299.853912
 20
67.349983
 30
0.0
 11
-273.264628
 21
67.349983
 31
0.0
  0
ARC
  5
453
100
AcDbEntity
  8
0
370
    -3
  6
Continuous
100
AcDbCircle
 10
-299.853912
 20
99.349983
 30
0.0
 40
2.0
100
AcDbArc
 50
90.0
 51
180.0
  0
LINE
  5
454
100
AcDbEntity
  8
0
370
    -3
  6
Continuous
100
AcDbLine
 10
-299.853912
 20
101.349983
 30
0.0
 11
-272.853912
 21
101.349983
 31
0.0
  0
LINE
  5
455
100
AcDbEntity
  8
0
370
    -3
  6
Continuous
100
AcDbLine
 10
-274.853912
 20
84.349983
 30
0.0
 11
-274.853912
 21
101.349983
 31
0.0
  0
LINE
  5
456
100
AcDbEntity
  8
0
370
    -3
  6
Continuous
100
AcDbLine
 10
-274.853912
 20
84.349983
 30
0.0
 11
-274.853912
 21
67.349983
 31
0.0
  0
POINT
  5
457
100
AcDbEntity
  8
0
370
    -3
  6
CENTER
100
AcDbPoint
 10
-301.353912
 20
71.129483
 30
0.0
  0
POINT
  5
458
100
AcDbEntity
  8
0
370
    -3
  6
CENTER
100
AcDbPoint
 10
-301.353912
 20
97.570483
 30
0.0
  0
LINE
  5
459
100
AcDbEntity
  8
0
370
    -3
  6
Continuous
100
AcDbLine
 10
-256.334883
 20
116.736174
 30
0.0
 11
-256.334883
 21
115.849983
 31
0.0
  0
ARC
  5
45A
100
AcDbEntity
  8
0
370
    -3
  6
Continuous
100
AcDbCircle
 10
-256.834883
 20
115.849983
 30
0.0
 40
0.5
100
AcDbArc
 50
270.0
 51
0.0
  0
ARC
  5
45B
100
AcDbEntity
  8
0
370
    -3
  6
Continuous
100
AcDbCircle
 10
-245.834883
 20
115.849983
 30
0.0
 40
0.5
100
AcDbArc
 50
180.0
 51
270.0
  0
LINE
  5
45C
100
AcDbEntity
  8
0
370
    -3
  6
Continuous
100
AcDbLine
 10
-246.334883
 20
116.849983
 30
0.0
 11
-246.334883
 21
115.849983
 31
0.0
  0
LINE
  5
45D
100
AcDbEntity
  8
0
370
    -3
  6
Continuous
100
AcDbLine
 10
-246.834883
 20
117.349983
 30
0.0
 11
-255.035647
 21
117.349983
 31
0.0
  0
ARC
  5
45E
100
AcDbEntity
  8
0
370
    -3
  6
Continuous
100
AcDbCircle
 10
-246.834883
 20
116.849983
 30
0.0
 40
0.5
100
AcDbArc
 50
0.0
 51
90.0
  0
ARC
  5
45F
100
AcDbEntity
  8
0
370
    -3
  6
Continuous
100
AcDbCircle
 10
-210.872942
 20
115.849983
 30
0.0
 40
0.5
100
AcDbArc
 50
270.0
 51
0.0
  0
LINE
  5
460
100
AcDbEntity
  8
0
370
    -3
  6
Continuous
100
AcDbLine
 10
-210.372942
 20
116.849983
 30
0.0
 11
-210.372942
 21
115.849983
 31
0.0
  0
ARC
  5
461
100
AcDbEntity
  8
0
370
    -3
  6
Continuous
100
AcDbCircle
 10
-209.872942
 20
116.849983
 30
0.0
 40
0.5
100
AcDbArc
 50
90.0
 51
180.0
  0
ARC
  5
462
100
AcDbEntity
  8
0
370
    -3
  6
Continuous
100
AcDbCircle
 10
-199.872942
 20
115.849983
 30
0.0
 40
0.5
100
AcDbArc
 50
180.0
 51
270.0
  0
LINE
  5
463
100
AcDbEntity
  8
0
370
    -3
  6
Continuous
100
AcDbLine
 10
-200.372942
 20
116.849983
 30
0.0
 11
-200.372942
 21
115.849983
 31
0.0
  0
ARC
  5
464
100
AcDbEntity
  8
0
370
    -3
  6
Continuous
100
AcDbCircle
 10
-200.872942
 20
116.849983
 30
0.0
 40
0.5
100
AcDbArc
 50
0.0
 51
90.0
  0
LINE
  5
465
100
AcDbEntity
  8
0
370
    -3
  6
Continuous
100
AcDbLine
 10
-209.836757
 20
117.349983
 30
0.0
 11
-200.872942
 21
117.349983
 31
0.0
  0
ARC
  5
466
100
AcDbEntity
  8
0
370
    -3
  6
Continuous
100
AcDbCircle
 10
-209.814333
 20
117.849983
 30
0.0
 40
0.5
100
AcDbArc
 50
270.0
 51
352.874984
  0
LINE
  5
467
100
AcDbEntity
  8
0
370
    -3
  6
Continuous
100
AcDbLine
 10
-208.92769
 20
120.912
 30
0.0
 11
-209.318194
 21
117.787965
 31
0.0
  0
ARC
  5
468
100
AcDbEntity
  8
0
370
    -3
  6
Continuous
100
AcDbCircle
 10
-200.931551
 20
117.849983
 30
0.0
 40
0.5
100
AcDbArc
 50
187.125016
 51
270.0
  0
LINE
  5
469
100
AcDbEntity
  8
0
370
    -3
  6
Continuous
100
AcDbLine
 10
-201.818194
 20
120.912
 30
0.0
 11
-201.42769
 21
117.787965
 31
0.0
  0
ARC
  5
46A
100
AcDbEntity
  8
0
370
    -3
  6
Continuous
100
AcDbCircle
 10
-202.314333
 20
120.849983
 30
0.0
 40
0.5
100
AcDbArc
 50
7.125016
 51
90.0
  0
ARC
  5
46B
100
AcDbEntity
  8
0
370
    -3
  6
Continuous
100
AcDbCircle
 10
-208.431551
 20
120.849983
 30
0.0
 40
0.5
100
AcDbArc
 50
90.0
 51
172.874984
  0
LINE
  5
46C
100
AcDbEntity
  8
0
370
    -3
  6
Continuous
100
AcDbLine
 10
-202.314333
 20
121.349983
 30
0.0
 11
-208.425421
 21
121.349983
 31
0.0
  0
ARC
  5
46D
100
AcDbEntity
  8
0
370
    -3
  6
Continuous
100
AcDbCircle
 10
-246.893492
 20
117.849983
 30
0.0
 40
0.5
100
AcDbArc
 50
187.125016
 51
270.0
  0
LINE
  5
46E
100
AcDbEntity
  8
0
370
    -3
  6
Continuous
100
AcDbLine
 10
-247.780135
 20
120.912
 30
0.0
 11
-247.389631
 21
117.787965
 31
0.0
  0
ARC
  5
46F
100
AcDbEntity
  8
0
370
    -3
  6
Continuous
100
AcDbCircle
 10
-248.276274
 20
120.849983
 30
0.0
 40
0.5
100
AcDbArc
 50
7.125016
 51
90.0
  0
LINE
  5
470
100
AcDbEntity
  8
0
370
    -3
  6
Continuous
100
AcDbLine
 10
-253.853912
 20
121.349983
 30
0.0
 11
-248.282404
 21
121.349983
 31
0.0
  0
LINE
  5
471
100
AcDbEntity
  8
0
370
    -3
  6
Continuous
100
AcDbLine
 10
-208.801226
 20
115.349983
 30
0.0
 11
-247.906598
 21
115.349983
 31
0.0
  0
LINE
  5
472
100
AcDbEntity
  8
0
370
    -3
  6
Continuous
100
AcDbLine
 10
-195.749169
 20
115.349983
 30
0.0
 11
-195.828412
 21
112.323806
 31
0.0
  0
LINE
  5
473
100
AcDbEntity
  8
0
370
    -3
  6
Continuous
100
AcDbLine
 10
-260.958656
 20
115.349983
 30
0.0
 11
-260.879413
 21
112.323806
 31
0.0
  0
ARC
  5
474
100
AcDbEntity
  8
0
370
    -3
  6
Continuous
100
AcDbCircle
 10
-259.879755
 20
112.349983
 30
0.0
 40
1.0
100
AcDbArc
 50
181.5
 51
270.0
  0
ARC
  5
475
100
AcDbEntity
  8
0
370
    -3
  6
Continuous
100
AcDbCircle
 10
-196.828069
 20
112.349983
 30
0.0
 40
1.0
100
AcDbArc
 50
270.0
 51
358.5
  0
LINE
  5
476
100
AcDbEntity
  8
0
370
    -3
  6
CENTER
100
AcDbLine
 10
-251.334883
 20
124.238841
 30
0.0
 11
-251.334883
 21
109.325343
 31
0.0
  0
LINE
  5
477
100
AcDbEntity
  8
0
370
    -3
  6
Continuous
100
AcDbLine
 10
-259.879755
 20
111.349983
 30
0.0
 11
-196.828069
 21
111.349983
 31
0.0
  0
LINE
  5
478
100
AcDbEntity
  8
0
370
    -3
  6
Continuous
100
AcDbLine
 10
-208.801226
 20
115.349983
 30
0.0
 11
-195.749169
 21
115.349983
 31
0.0
  0
LINE
  5
479
100
AcDbEntity
  8
0
370
    -3
  6
Continuous
100
AcDbLine
 10
-247.906598
 20
115.349983
 30
0.0
 11
-260.958656
 21
115.349983
 31
0.0
  0
LINE
  5
47A
100
AcDbEntity
  8
0
370
    -3
  6
CENTER
100
AcDbLine
 10
-205.372942
 20
124.659869
 30
0.0
 11
-205.372942
 21
109.325343
 31
0.0
  0
LINE
  5
47B
100
AcDbEntity
  8
0
370
    -3
  6
Continuous
100
AcDbLine
 10
-255.035647
 20
117.349983
 30
0.0
 11
-191.603912
 21
117.349983
 31
0.0
  0
LINE
  5
47C
100
AcDbEntity
  8
0
370
    -3
  6
Continuous
100
AcDbLine
 10
-191.603912
 20
118.855395
 30
0.0
 11
-191.603912
 21
117.349983
 31
0.0
  0
LINE
  5
47D
100
AcDbEntity
  8
0
370
    -3
  6
CENTER
100
AcDbLine
 10
-227.853912
 20
122.1274
 30
0.0
 11
-227.853912
 21
99.217423
 31
0.0
  0
ARC
  5
47E
100
AcDbEntity
  8
0
370
    -3
  6
Continuous
100
AcDbCircle
 10
-258.178219
 20
106.349983
 30
0.0
 40
3.0
100
AcDbArc
 50
90.0
 51
180.0
  0
LINE
  5
47F
100
AcDbEntity
  8
0
370
    -3
  6
Continuous
100
AcDbLine
 10
-261.178219
 20
72.985968
 30
0.0
 11
-261.178219
 21
106.349983
 31
0.0
  0
ARC
  5
480
100
AcDbEntity
  8
0
370
    -3
  6
Continuous
100
AcDbCircle
 10
-255.853912
 20
109.349983
 30
0.0
 40
1.0
100
AcDbArc
 50
90.0
 51
166.657636
  0
LINE
  5
481
100
AcDbEntity
  8
0
370
    -3
  6
Continuous
100
AcDbLine
 10
-266.053912
 20
109.349983
 30
0.0
 11
-196.415759
 21
109.349983
 31
0.0
  0
ARC
  5
482
100
AcDbEntity
  8
0
370
    -3
  6
Continuous
100
AcDbCircle
 10
-199.853912
 20
109.349983
 30
0.0
 40
1.0
100
AcDbArc
 50
13.342364
 51
90.0
  0
LINE
  5
483
100
AcDbEntity
  8
0
370
    -3
  6
Continuous
100
AcDbLine
 10
-192.066024
 20
105.213513
 30
0.0
 11
-192.971789
 21
107.155932
 31
0.0
  0
LINE
  5
484
100
AcDbEntity
  8
0
370
    -3
  6
Continuous
100
AcDbLine
 10
-272.853912
 20
67.541502
 30
0.0
 11
-272.853912
 21
102.549983
 31
0.0
  0
LINE
  5
485
100
AcDbEntity
  8
0
370
    -3
  6
Continuous
100
AcDbLine
 10
-273.264628
 20
67.349983
 30
0.0
 11
-281.427972
 21
63.543353
 31
0.0
  0
LINE
  5
486
100
AcDbEntity
  8
0
370
    -3
  6
Continuous
100
AcDbLine
 10
-184.815562
 20
108.594459
 30
0.0
 11
-273.264628
 21
67.349983
 31
0.0
  0
LINE
  5
487
100
AcDbEntity
  8
0
370
    -3
  6
Continuous
100
AcDbLine
 10
-203.666764
 20
99.803999
 30
0.0
 11
-207.095026
 21
107.155932
 31
0.0
  0
ARC
  5
488
100
AcDbEntity
  8
0
370
    -3
  6
Continuous
100
AcDbCircle
 10
-210.538996
 20
105.549983
 30
0.0
 40
3.8
100
AcDbArc
 50
25.0
 51
90.0
  0
ARC
  5
489
100
AcDbEntity
  8
0
370
    -3
  6
Continuous
100
AcDbCircle
 10
-484.679552
 20
160.03538
 30
0.0
 40
300.8
100
AcDbArc
 50
342.341575
 51
347.89975
  0
ARC
  5
48A
100
AcDbEntity
  8
0
370
    -3
  6
Continuous
100
AcDbCircle
 10
-233.43631
 20
661.532456
 30
0.0
 40
600.8
100
AcDbArc
 50
266.682408
 51
272.437505
  0
ARC
  5
48B
100
AcDbEntity
  8
0
370
    -3
  6
Continuous
100
AcDbCircle
 10
-197.454095
 20
80.627968
 30
0.0
 40
2.8
100
AcDbArc
 50
344.545811
 51
25.0
  0
ARC
  5
48C
100
AcDbEntity
  8
0
370
    -3
  6
Continuous
100
AcDbCircle
 10
-261.872516
 20
62.952486
 30
0.0
 40
3.0
100
AcDbArc
 50
25.0
 51
115.0
  0
LINE
  5
48D
100
AcDbEntity
  8
0
370
    -3
  6
Continuous
100
AcDbLine
 10
-259.153593
 20
64.220341
 30
0.0
 11
-258.478562
 21
62.772733
 31
0.0
  0
ARC
  5
48E
100
AcDbEntity
  8
0
370
    -3
  6
Continuous
100
AcDbCircle
 10
-255.9409
 20
63.956065
 30
0.0
 40
2.8
100
AcDbArc
 50
205.0
 51
267.843273
  0
LINE
  5
48F
100
AcDbEntity
  8
0
370
    -3
  6
Continuous
100
AcDbLine
 10
-194.916434
 20
81.811299
 30
0.0
 11
-199.65186
 21
91.966454
 31
0.0
  0
ARC
  5
490
100
AcDbEntity
  8
0
370
    -3
  6
Continuous
100
AcDbCircle
 10
-196.932937
 20
93.234309
 30
0.0
 40
3.0
100
AcDbArc
 50
115.0
 51
205.0
  0
LINE
  5
491
100
AcDbEntity
  8
0
370
    -3
  6
Continuous
100
AcDbLine
 10
-183.99573
 20
102.577161
 30
0.0
 11
-277.345432
 21
59.04748
 31
0.0
  0
LINE
  5
492
100
AcDbEntity
  8
0
370
    -3
  6
Continuous
100
AcDbLine
 10
-258.853912
 20
110.349983
 30
0.0
 11
-196.853912
 21
110.349983
 31
0.0
  0
LINE
  5
493
100
AcDbEntity
  8
0
370
    -3
  6
Continuous
100
AcDbLine
 10
-258.853912
 20
111.349983
 30
0.0
 11
-258.853912
 21
110.349983
 31
0.0
  0
LINE
  5
494
100
AcDbEntity
  8
0
370
    -3
  6
Continuous
100
AcDbLine
 10
-196.853912
 20
111.349983
 30
0.0
 11
-196.853912
 21
110.349983
 31
0.0
  0
ARC
  5
495
100
AcDbEntity
  8
0
370
    -3
  6
Continuous
100
AcDbCircle
 10
-191.013701
 20
98.224393
 30
0.0
 40
1.299999
100
AcDbArc
 50
204.999999
 51
278.398469
  0
LINE
  5
496
100
AcDbEntity
  8
0
370
    -3
  6
Continuous
100
AcDbLine
 10
-192.605654
 20
98.562288
 30
0.0
 11
-192.1919
 21
97.67499
 31
0.0
  0
ARC
  5
497
100
AcDbEntity
  8
0
370
    -3
  6
Continuous
100
AcDbCircle
 10
-192.138334
 20
105.841821
 30
0.0
 40
9.0
100
AcDbArc
 50
278.398469
 51
311.601548
  0
ARC
  5
498
100
AcDbEntity
  8
0
370
    -3
  6
Continuous
100
AcDbCircle
 10
-187.025945
 20
100.083914
 30
0.0
 40
1.299999
100
AcDbArc
 50
311.601548
 51
25.000018
  0
LINE
  5
499
100
AcDbEntity
  8
0
370
    -3
  6
CENTER
100
AcDbLine
 10
-190.691251
 20
102.738542
 30
0.0
 11
-187.82133
 21
96.583978
 31
0.0
  0
LINE
  5
49A
100
AcDbEntity
  8
0
370
    -3
  6
Continuous
100
AcDbLine
 10
-186.2615
 20
101.520616
 30
0.0
 11
-185.847746
 21
100.633317
 31
0.0
  0
ARC
  5
49B
100
AcDbEntity
  8
0
370
    -3
  6
Continuous
100
AcDbCircle
 10
-273.487709
 20
59.766131
 30
0.0
 40
1.299999
100
AcDbArc
 50
204.999999
 51
278.398469
  0
ARC
  5
49C
100
AcDbEntity
  8
0
370
    -3
  6
Continuous
100
AcDbCircle
 10
-269.499954
 20
61.625652
 30
0.0
 40
1.299999
100
AcDbArc
 50
311.601548
 51
25.000018
  0
LINE
  5
49D
100
AcDbEntity
  8
0
370
    -3
  6
Continuous
100
AcDbLine
 10
-275.079663
 20
60.104026
 30
0.0
 11
-274.665909
 21
59.216728
 31
0.0
  0
LINE
  5
49E
100
AcDbEntity
  8
0
370
    -3
  6
Continuous
100
AcDbLine
 10
-268.735508
 20
63.062354
 30
0.0
 11
-268.321754
 21
62.175056
 31
0.0
  0
POINT
  5
49F
100
AcDbEntity
  8
0
370
    -3
  6
Continuous
100
AcDbPoint
 10
-271.907586
 20
61.58319
 30
0.0
  0
ARC
  5
4A0
100
AcDbEntity
  8
0
370
    -3
  6
Continuous
100
AcDbCircle
 10
-274.612342
 20
67.383559
 30
0.0
 40
9.0
100
AcDbArc
 50
278.398469
 51
311.601548
  0
ARC
  5
4A1
100
AcDbEntity
  8
0
370
    -3
  6
Continuous
100
AcDbCircle
 10
-208.343817
 20
72.066285
 30
0.0
 40
10.8
100
AcDbArc
 50
272.437505
 51
342.341575
  0
LINE
  5
4A2
100
AcDbEntity
  8
0
370
    -3
  6
CENTER
100
AcDbLine
 10
-273.16526
 20
64.280281
 30
0.0
 11
-270.295339
 21
58.125716
 31
0.0
  0
POINT
  5
4A3
100
AcDbEntity
  8
0
370
    -3
  6
Continuous
100
AcDbPoint
 10
-189.457287
 20
100.030395
 30
0.0
  0
LINE
  5
4A4
100
AcDbEntity
  8
0
370
    -3
  6
CENTER
100
AcDbLine
 10
-190.691251
 20
102.738542
 30
0.0
 11
-187.82133
 21
96.583978
 31
0.0
  0
ARC
  5
4A5
100
AcDbEntity
  8
0
370
    -3
  6
Continuous
100
AcDbCircle
 10
-184.756443
 20
104.208515
 30
0.0
 40
1.8
100
AcDbArc
 50
295.0
 51
25.0
  0
LINE
  5
4A6
100
AcDbEntity
  8
0
370
    -3
  6
Continuous
100
AcDbLine
 10
-183.125089
 20
104.969228
 30
0.0
 11
-184.815562
 21
108.594459
 31
0.0
  0
ARC
  5
4A7
100
AcDbEntity
  8
0
370
    -3
  6
Continuous
100
AcDbCircle
 10
-278.106145
 20
60.678834
 30
0.0
 40
1.8
100
AcDbArc
 50
205.0
 51
295.0
  0
LINE
  5
4A8
100
AcDbEntity
  8
0
370
    -3
  6
Continuous
100
AcDbLine
 10
-279.737499
 20
59.918121
 30
0.0
 11
-281.427972
 21
63.543353
 31
0.0
  0
ARC
  5
4A9
100
AcDbEntity
  8
0
370
    -3
  6
Continuous
100
AcDbCircle
 10
-196.415759
 20
105.549983
 30
0.0
 40
3.8
100
AcDbArc
 50
25.0
 51
90.0
  0
ARC
  5
4AA
100
AcDbEntity
  8
0
370
    -3
  6
Continuous
100
AcDbCircle
 10
-266.053912
 20
102.549983
 30
0.0
 40
6.8
100
AcDbArc
 50
90.0
 51
180.0
  0
ARC
  5
4AB
100
AcDbEntity
  8
0
370
    -3
  6
Continuous
100
AcDbCircle
 10
-460.325061
 20
-95.800661
 30
0.0
 40
1.0
100
AcDbArc
 50
271.5
 51
0.0
  0
LINE
  5
4AC
100
AcDbEntity
  8
0
370
    -3
  6
Continuous
100
AcDbLine
 10
-463.325061
 20
-96.879562
 30
0.0
 11
-460.298884
 21
-96.800318
 31
0.0
  0
LINE
  5
4AD
100
AcDbEntity
  8
0
370
    -3
  6
Continuous
100
AcDbLine
 10
-463.325061
 20
-93.376676
 30
0.0
 11
-463.325061
 21
-96.879562
 31
0.0
  0
LINE
  5
4AE
100
AcDbEntity
  8
0
370
    -3
  6
Continuous
100
AcDbLine
 10
-463.325061
 20
-31.670074
 30
0.0
 11
-460.298884
 21
-31.749317
 31
0.0
  0
ARC
  5
4AF
100
AcDbEntity
  8
0
370
    -3
  6
Continuous
100
AcDbCircle
 10
-460.325061
 20
-32.748975
 30
0.0
 40
1.0
100
AcDbArc
 50
0.0
 51
88.5
  0
LINE
  5
4B0
100
AcDbEntity
  8
0
370
    -3
  6
Continuous
100
AcDbLine
 10
-459.325061
 20
-95.800661
 30
0.0
 11
-459.325061
 21
-32.748975
 31
0.0
  0
LINE
  5
4B1
100
AcDbEntity
  8
0
370
    -3
  6
Continuous
100
AcDbLine
 10
-463.325061
 20
-35.172959
 30
0.0
 11
-463.325061
 21
-31.670074
 31
0.0
  0
ARC
  5
4B2
100
AcDbEntity
  8
0
370
    -3
  6
Continuous
100
AcDbCircle
 10
-432.325061
 20
-64.274818
 30
0.0
 40
14.0
100
AcDbArc
 50
180.0
 51
360.0
  0
ARC
  5
4B3
100
AcDbEntity
  8
0
370
    -3
  6
Continuous
100
AcDbCircle
 10
-432.325061
 20
-64.274818
 30
0.0
 40
9.3155
100
AcDbArc
 50
180.0
 51
360.0
  0
ARC
  5
4B4
100
AcDbEntity
  8
0
370
    -3
  6
Continuous
100
AcDbCircle
 10
-432.325061
 20
-64.274818
 30
0.0
 40
10.4775
100
AcDbArc
 50
180.0
 51
360.0
  0
ARC
  5
4B5
100
AcDbEntity
  8
0
370
    -3
  6
Continuous
100
AcDbCircle
 10
-432.325061
 20
-64.274818
 30
0.0
 40
14.0
100
AcDbArc
 50
180.0
 51
360.0
  0
ARC
  5
4B6
100
AcDbEntity
  8
0
370
    -3
  6
Continuous
100
AcDbCircle
 10
-432.325061
 20
-64.274818
 30
0.0
 40
9.3155
100
AcDbArc
 50
180.0
 51
360.0
  0
ARC
  5
4B7
100
AcDbEntity
  8
0
370
    -3
  6
Continuous
100
AcDbCircle
 10
-432.325061
 20
-64.274818
 30
0.0
 40
10.4775
100
AcDbArc
 50
180.0
 51
360.0
  0
LINE
  5
4B8
100
AcDbEntity
  8
0
370
    -3
  6
CENTER
100
AcDbLine
 10
-432.325061
 20
-45.629885
 30
0.0
 11
-432.325061
 21
-85.575275
 31
0.0
  0
ARC
  5
4B9
100
AcDbEntity
  8
0
370
    -3
  6
Continuous
100
AcDbCircle
 10
-432.325061
 20
-64.274818
 30
0.0
 40
14.0
100
AcDbArc
 50
0.0
 51
180.0
  0
ARC
  5
4BA
100
AcDbEntity
  8
0
370
    -3
  6
Continuous
100
AcDbCircle
 10
-432.325061
 20
-64.274818
 30
0.0
 40
9.3155
100
AcDbArc
 50
0.0
 51
180.0
  0
ARC
  5
4BB
100
AcDbEntity
  8
0
370
    -3
  6
Continuous
100
AcDbCircle
 10
-432.325061
 20
-64.274818
 30
0.0
 40
10.4775
100
AcDbArc
 50
0.0
 51
180.0
  0
ARC
  5
4BC
100
AcDbEntity
  8
0
370
    -3
  6
Continuous
100
AcDbCircle
 10
-448.769537
 20
-103.274818
 30
0.0
 40
7.8
100
AcDbArc
 50
180.0
 51
270.0
  0
LINE
  5
4BD
100
AcDbEntity
  8
0
370
    -3
  6
Continuous
100
AcDbLine
 10
-418.856525
 20
-110.274818
 30
0.0
 11
-449.231443
 21
-110.274818
 31
0.0
  0
ARC
  5
4BE
100
AcDbEntity
  8
0
370
    -3
  6
Continuous
100
AcDbCircle
 10
-418.856525
 20
-103.274818
 30
0.0
 40
7.0
100
AcDbArc
 50
270.0
 51
0.0
  0
ARC
  5
4BF
100
AcDbEntity
  8
0
370
    -3
  6
Continuous
100
AcDbCircle
 10
-419.318431
 20
-103.274818
 30
0.0
 40
7.8
100
AcDbArc
 50
270.0
 51
0.0
  0
ARC
  5
4C0
100
AcDbEntity
  8
0
370
    -3
  6
Continuous
100
AcDbCircle
 10
-414.653912
 20
-103.274818
 30
0.0
 40
7.8
100
AcDbArc
 50
270.0
 51
0.0
  0
ELLIPSE
  5
4C1
100
AcDbEntity
  8
0
370
    -3
  6
Continuous
100
AcDbEllipse
 10
-408.739321
 20
-103.774818
 30
0.0
 11
0.0
 21
3.5
 31
0.0
210
0.0
220
0.0
230
1.0
 40
0.656603
 41
3.5746436290433174
 42
5.3210459426689347
  0
LINE
  5
4C2
100
AcDbEntity
  8
0
370
    -3
  6
Continuous
100
AcDbLine
 10
-414.653912
 20
-111.074818
 30
0.0
 11
-448.769537
 21
-111.074818
 31
0.0
  0
LINE
  5
4C3
100
AcDbEntity
  8
0
370
    -3
  6
Continuous
100
AcDbLine
 10
-411.856525
 20
-64.274818
 30
0.0
 11
-411.856525
 21
-103.274818
 31
0.0
  0
LINE
  5
4C4
100
AcDbEntity
  8
0
370
    -3
  6
Continuous
100
AcDbLine
 10
-406.853912
 20
-103.274818
 30
0.0
 11
-406.853912
 21
-64.274818
 31
0.0
  0
LINE
  5
4C5
100
AcDbEntity
  8
0
370
    -3
  6
Continuous
100
AcDbLine
 10
-459.325061
 20
-64.274818
 30
0.0
 11
-459.325061
 21
-95.274818
 31
0.0
  0
LINE
  5
4C6
100
AcDbEntity
  8
0
370
    -3
  6
Continuous
100
AcDbLine
 10
-458.325061
 20
-95.274818
 30
0.0
 11
-458.325061
 21
-64.274818
 31
0.0
  0
LINE
  5
4C7
100
AcDbEntity
  8
0
370
    -3
  6
Continuous
100
AcDbLine
 10
-459.325061
 20
-95.274818
 30
0.0
 11
-458.325061
 21
-95.274818
 31
0.0
  0
ARC
  5
4C8
100
AcDbEntity
  8
0
370
    -3
  6
Continuous
100
AcDbCircle
 10
-449.231443
 20
-103.274818
 30
0.0
 40
7.0
100
AcDbArc
 50
180.0
 51
270.0
  0
LINE
  5
4C9
100
AcDbEntity
  8
0
370
    -3
  6
Continuous
100
AcDbLine
 10
-458.325061
 20
-64.274818
 30
0.0
 11
-458.325061
 21
-92.274818
 31
0.0
  0
LINE
  5
4CA
100
AcDbEntity
  8
0
370
    -3
  6
Continuous
100
AcDbLine
 10
-413.089149
 20
-64.274818
 30
0.0
 11
-413.089149
 21
-90.333851
 31
0.0
  0
LINE
  5
4CB
100
AcDbEntity
  8
0
370
    -3
  6
Continuous
100
AcDbLine
 10
-450.525061
 20
-103.574818
 30
0.0
 11
-420.892202
 21
-103.574818
 31
0.0
  0
LINE
  5
4CC
100
AcDbEntity
  8
0
370
    -3
  6
Continuous
100
AcDbLine
 10
-413.390644
 20
-91.817248
 30
0.0
 11
-417.393698
 21
-101.258215
 31
0.0
  0
ARC
  5
4CD
100
AcDbEntity
  8
0
370
    -3
  6
Continuous
100
AcDbCircle
 10
-416.889149
 20
-90.333851
 30
0.0
 40
3.8
100
AcDbArc
 50
337.022625
 51
0.0
  0
ARC
  5
4CE
100
AcDbEntity
  8
0
370
    -3
  6
Continuous
100
AcDbCircle
 10
-420.892202
 20
-99.774818
 30
0.0
 40
3.8
100
AcDbArc
 50
270.0
 51
337.022625
  0
LINE
  5
4CF
100
AcDbEntity
  8
0
370
    -3
  6
Continuous
100
AcDbLine
 10
-457.325061
 20
-64.274818
 30
0.0
 11
-457.325061
 21
-96.774818
 31
0.0
  0
ARC
  5
4D0
100
AcDbEntity
  8
0
370
    -3
  6
Continuous
100
AcDbCircle
 10
-450.525061
 20
-96.774818
 30
0.0
 40
6.8
100
AcDbArc
 50
180.0
 51
270.0
  0
LINE
  5
4D1
100
AcDbEntity
  8
0
370
    -3
  6
Continuous
100
AcDbLine
 10
-453.814947
 20
-102.726006
 30
0.0
 11
-453.814947
 21
-103.774818
 31
0.0
  0
ARC
  5
4D2
100
AcDbEntity
  8
0
370
    -3
  6
Continuous
100
AcDbCircle
 10
-447.814947
 20
-103.774818
 30
0.0
 40
6.0
100
AcDbArc
 50
180.0
 51
270.0
  0
ARC
  5
4D3
100
AcDbEntity
  8
0
370
    -3
  6
Continuous
100
AcDbCircle
 10
-457.625061
 20
-93.539729
 30
0.0
 40
0.3
100
AcDbArc
 50
0.0
 51
76.657636
  0
ARC
  5
4D4
100
AcDbEntity
  8
0
370
    -3
  6
Continuous
100
AcDbCircle
 10
-457.325061
 20
-92.274818
 30
0.0
 40
1.0
100
AcDbArc
 50
180.0
 51
256.657636
  0
LINE
  5
4D5
100
AcDbEntity
  8
0
370
    -3
  6
CENTER
100
AcDbLine
 10
-415.213797
 20
-103.774818
 30
0.0
 11
-410.769039
 21
-103.774818
 31
0.0
  0
LINE
  5
4D6
100
AcDbEntity
  8
0
370
    -3
  6
CENTER
100
AcDbLine
 10
-412.820976
 20
-106.639677
 30
0.0
 11
-412.820976
 21
-101.028287
 31
0.0
  0
ELLIPSE
  5
4D7
100
AcDbEntity
  8
0
370
    -3
  6
Continuous
100
AcDbEllipse
 10
-412.820976
 20
-103.774818
 30
0.0
 11
0.0
 21
1.6500000000000057
 31
0.0
210
0.0
220
0.0
230
1.0
 40
0.422618
 41
0.0
 42
6.2831853071795862
  0
ELLIPSE
  5
4D8
100
AcDbEntity
  8
0
370
    -3
  6
Continuous
100
AcDbEllipse
 10
-412.820976
 20
-103.774818
 30
0.0
 11
0.0
 21
2.0
 31
0.0
210
0.0
220
0.0
230
1.0
 40
0.422618
 41
0.0
 42
6.2831853071795862
  0
LINE
  5
4D9
100
AcDbEntity
  8
0
370
    -3
  6
Continuous
100
AcDbLine
 10
-456.231443
 20
-100.473088
 30
0.0
 11
-456.231443
 21
-103.274818
 31
0.0
  0
LINE
  5
4DA
100
AcDbEntity
  8
0
370
    -3
  6
Continuous
100
AcDbLine
 10
-456.569537
 20
-103.274818
 30
0.0
 11
-456.569537
 21
-99.889991
 31
0.0
  0
LINE
  5
4DB
100
AcDbEntity
  8
0
370
    -3
  6
Continuous
100
AcDbLine
 10
-447.814947
 20
-109.774818
 30
0.0
 11
-416.258449
 21
-109.774818
 31
0.0
  0
LINE
  5
4DC
100
AcDbEntity
  8
0
370
    -3
  6
Continuous
100
AcDbLine
 10
-411.518431
 20
-64.274818
 30
0.0
 11
-411.518431
 21
-103.274818
 31
0.0
  0
LINE
  5
4DD
100
AcDbEntity
  8
0
370
    -3
  6
CENTER
100
AcDbLine
 10
-432.325061
 20
-45.629885
 30
0.0
 11
-432.325061
 21
-85.575275
 31
0.0
  0
ARC
  5
4DE
100
AcDbEntity
  8
0
370
    -3
  6
Continuous
100
AcDbCircle
 10
-448.769537
 20
-25.274818
 30
0.0
 40
7.8
100
AcDbArc
 50
90.0
 51
180.0
  0
LINE
  5
4DF
100
AcDbEntity
  8
0
370
    -3
  6
Continuous
100
AcDbLine
 10
-418.856525
 20
-18.274818
 30
0.0
 11
-449.231443
 21
-18.274818
 31
0.0
  0
ARC
  5
4E0
100
AcDbEntity
  8
0
370
    -3
  6
Continuous
100
AcDbCircle
 10
-418.856525
 20
-25.274818
 30
0.0
 40
7.0
100
AcDbArc
 50
0.0
 51
90.0
  0
ARC
  5
4E1
100
AcDbEntity
  8
0
370
    -3
  6
Continuous
100
AcDbCircle
 10
-419.318431
 20
-25.274818
 30
0.0
 40
7.8
100
AcDbArc
 50
0.0
 51
90.0
  0
ARC
  5
4E2
100
AcDbEntity
  8
0
370
    -3
  6
Continuous
100
AcDbCircle
 10
-414.653912
 20
-25.274818
 30
0.0
 40
7.8
100
AcDbArc
 50
0.0
 51
90.0
  0
ELLIPSE
  5
4E3
100
AcDbEntity
  8
0
370
    -3
  6
Continuous
100
AcDbEllipse
 10
-408.739321
 20
-24.774818
 30
0.0
 11
0.0
 21
3.5
 31
0.0
210
0.0
220
0.0
230
1.0
 40
0.656603
 41
4.1037320181003913
 42
5.8501343317260348
  0
LINE
  5
4E4
100
AcDbEntity
  8
0
370
    -3
  6
Continuous
100
AcDbLine
 10
-414.653912
 20
-17.474818
 30
0.0
 11
-448.769537
 21
-17.474818
 31
0.0
  0
LINE
  5
4E5
100
AcDbEntity
  8
0
370
    -3
  6
Continuous
100
AcDbLine
 10
-411.856525
 20
-64.274818
 30
0.0
 11
-411.856525
 21
-25.274818
 31
0.0
  0
LINE
  5
4E6
100
AcDbEntity
  8
0
370
    -3
  6
Continuous
100
AcDbLine
 10
-406.853912
 20
-25.274818
 30
0.0
 11
-406.853912
 21
-64.274818
 31
0.0
  0
LINE
  5
4E7
100
AcDbEntity
  8
0
370
    -3
  6
Continuous
100
AcDbLine
 10
-459.325061
 20
-64.274818
 30
0.0
 11
-459.325061
 21
-33.274818
 31
0.0
  0
LINE
  5
4E8
100
AcDbEntity
  8
0
370
    -3
  6
Continuous
100
AcDbLine
 10
-458.325061
 20
-33.274818
 30
0.0
 11
-458.325061
 21
-64.274818
 31
0.0
  0
LINE
  5
4E9
100
AcDbEntity
  8
0
370
    -3
  6
Continuous
100
AcDbLine
 10
-459.325061
 20
-33.274818
 30
0.0
 11
-458.325061
 21
-33.274818
 31
0.0
  0
ARC
  5
4EA
100
AcDbEntity
  8
0
370
    -3
  6
Continuous
100
AcDbCircle
 10
-449.231443
 20
-25.274818
 30
0.0
 40
7.0
100
AcDbArc
 50
90.0
 51
180.0
  0
LINE
  5
4EB
100
AcDbEntity
  8
0
370
    -3
  6
Continuous
100
AcDbLine
 10
-458.325061
 20
-64.274818
 30
0.0
 11
-458.325061
 21
-36.274818
 31
0.0
  0
LINE
  5
4EC
100
AcDbEntity
  8
0
370
    -3
  6
Continuous
100
AcDbLine
 10
-413.089149
 20
-64.274818
 30
0.0
 11
-413.089149
 21
-38.215784
 31
0.0
  0
LINE
  5
4ED
100
AcDbEntity
  8
0
370
    -3
  6
Continuous
100
AcDbLine
 10
-450.525061
 20
-24.974818
 30
0.0
 11
-420.892202
 21
-24.974818
 31
0.0
  0
LINE
  5
4EE
100
AcDbEntity
  8
0
370
    -3
  6
Continuous
100
AcDbLine
 10
-413.390644
 20
-36.732388
 30
0.0
 11
-417.393698
 21
-27.291421
 31
0.0
  0
ARC
  5
4EF
100
AcDbEntity
  8
0
370
    -3
  6
Continuous
100
AcDbCircle
 10
-416.889149
 20
-38.215784
 30
0.0
 40
3.8
100
AcDbArc
 50
360.0
 51
22.977375
  0
ARC
  5
4F0
100
AcDbEntity
  8
0
370
    -3
  6
Continuous
100
AcDbCircle
 10
-420.892202
 20
-28.774818
 30
0.0
 40
3.8
100
AcDbArc
 50
22.977375
 51
90.0
  0
LINE
  5
4F1
100
AcDbEntity
  8
0
370
    -3
  6
Continuous
100
AcDbLine
 10
-457.325061
 20
-64.274818
 30
0.0
 11
-457.325061
 21
-31.774818
 31
0.0
  0
ARC
  5
4F2
100
AcDbEntity
  8
0
370
    -3
  6
Continuous
100
AcDbCircle
 10
-450.525061
 20
-31.774818
 30
0.0
 40
6.8
100
AcDbArc
 50
90.0
 51
180.0
  0
LINE
  5
4F3
100
AcDbEntity
  8
0
370
    -3
  6
Continuous
100
AcDbLine
 10
-453.814947
 20
-25.823629
 30
0.0
 11
-453.814947
 21
-24.774818
 31
0.0
  0
ARC
  5
4F4
100
AcDbEntity
  8
0
370
    -3
  6
Continuous
100
AcDbCircle
 10
-447.814947
 20
-24.774818
 30
0.0
 40
6.0
100
AcDbArc
 50
90.0
 51
180.0
  0
ARC
  5
4F5
100
AcDbEntity
  8
0
370
    -3
  6
Continuous
100
AcDbCircle
 10
-457.625061
 20
-35.009907
 30
0.0
 40
0.3
100
AcDbArc
 50
283.342364
 51
0.0
  0
ARC
  5
4F6
100
AcDbEntity
  8
0
370
    -3
  6
Continuous
100
AcDbCircle
 10
-457.325061
 20
-36.274818
 30
0.0
 40
1.0
100
AcDbArc
 50
103.342364
 51
180.0
  0
LINE
  5
4F7
100
AcDbEntity
  8
0
370
    -3
  6
CENTER
100
AcDbLine
 10
-415.213797
 20
-24.774818
 30
0.0
 11
-410.769039
 21
-24.774818
 31
0.0
  0
LINE
  5
4F8
100
AcDbEntity
  8
0
370
    -3
  6
CENTER
100
AcDbLine
 10
-412.820976
 20
-21.909959
 30
0.0
 11
-412.820976
 21
-27.521349
 31
0.0
  0
ELLIPSE
  5
4F9
100
AcDbEntity
  8
0
370
    -3
  6
Continuous
100
AcDbEllipse
 10
-412.820976
 20
-24.774818
 30
0.0
 11
0.0
 21
1.6500000000000057
 31
0.0
210
0.0
220
0.0
230
1.0
 40
0.422618
 41
0.0
 42
6.2831853071795862
  0
ELLIPSE
  5
4FA
100
AcDbEntity
  8
0
370
    -3
  6
Continuous
100
AcDbEllipse
 10
-412.820976
 20
-24.774818
 30
0.0
 11
0.0
 21
2.0
 31
0.0
210
0.0
220
0.0
230
1.0
 40
0.422618
 41
0.0
 42
6.2831853071795862
  0
LINE
  5
4FB
100
AcDbEntity
  8
0
370
    -3
  6
Continuous
100
AcDbLine
 10
-456.231443
 20
-28.076548
 30
0.0
 11
-456.231443
 21
-25.274818
 31
0.0
  0
LINE
  5
4FC
100
AcDbEntity
  8
0
370
    -3
  6
Continuous
100
AcDbLine
 10
-456.569537
 20
-25.274818
 30
0.0
 11
-456.569537
 21
-28.659645
 31
0.0
  0
LINE
  5
4FD
100
AcDbEntity
  8
0
370
    -3
  6
Continuous
100
AcDbLine
 10
-447.814947
 20
-18.774818
 30
0.0
 11
-416.258449
 21
-18.774818
 31
0.0
  0
LINE
  5
4FE
100
AcDbEntity
  8
0
370
    -3
  6
Continuous
100
AcDbLine
 10
-411.518431
 20
-64.274818
 30
0.0
 11
-411.518431
 21
-25.274818
 31
0.0
  0
ARC
  5
4FF
100
AcDbEntity
  8
0
370
    -3
  6
Continuous
100
AcDbCircle
 10
-432.325061
 20
-64.274818
 30
0.0
 40
14.0
100
AcDbArc
 50
0.0
 51
180.0
  0
ARC
  5
500
100
AcDbEntity
  8
0
370
    -3
  6
Continuous
100
AcDbCircle
 10
-432.325061
 20
-64.274818
 30
0.0
 40
9.3155
100
AcDbArc
 50
0.0
 51
180.0
  0
ARC
  5
501
100
AcDbEntity
  8
0
370
    -3
  6
Continuous
100
AcDbCircle
 10
-432.325061
 20
-64.274818
 30
0.0
 40
10.4775
100
AcDbArc
 50
0.0
 51
180.0
  0
LINE
  5
502
100
AcDbEntity
  8
0
370
    -3
  6
Continuous
100
AcDbLine
 10
-450.525061
 20
-91.106189
 30
0.0
 11
-413.168464
 21
-91.106189
 31
0.0
  0
ARC
  5
503
100
AcDbEntity
  8
0
370
    -3
  6
Continuous
100
AcDbCircle
 10
-450.525061
 20
-84.306189
 30
0.0
 40
6.8
100
AcDbArc
 50
180.0
 51
270.0
  0
ARC
  5
504
100
AcDbEntity
  8
0
370
    -3
  6
Continuous
100
AcDbCircle
 10
-450.525061
 20
-44.243447
 30
0.0
 40
6.8
100
AcDbArc
 50
90.0
 51
180.0
  0
LINE
  5
505
100
AcDbEntity
  8
0
370
    -3
  6
Continuous
100
AcDbLine
 10
-450.525061
 20
-37.443447
 30
0.0
 11
-413.168464
 21
-37.443447
 31
0.0
  0
MTEXT
  5
506
100
AcDbEntity
  8
0
370
    -3
  6
Continuous
100
AcDbMText
 10
-595.394531
 20
127.838158
 30
0.0
 40
15.0
 41
0.0
 71
     7
 72
     1
  1
\W0.43;DATE\W0.72; \W0.43;2011.12.29
  7
ZU_SHPTB00001
 11
1.0
 21
0.0
 31
0.0
 73
     1
 44
1.0
  0
LINE
  5
507
100
AcDbEntity
  8
0
370
    -3
  6
CENTER
100
AcDbLine
 10
-304.332536
 20
84.349983
 30
0.0
 11
-264.026049
 21
84.349983
 31
0.0
  0
LINE
  5
508
100
AcDbEntity
  8
0
370
    -3
  6
CENTER
100
AcDbLine
 10
-227.853912
 20
-11.492599
 30
0.0
 11
-227.853912
 21
-118.420295
 31
0.0
  0
LINE
  5
509
100
AcDbEntity
  8
0
370
    -3
  6
CENTER
100
AcDbLine
 10
-393.391608
 20
-64.274818
 30
0.0
 11
-612.85004
 21
-64.274818
 31
0.0
  0
ENDSEC
  0
SECTION
  2
OBJECTS
  0
DICTIONARY
  5
19
100
AcDbDictionary
280
     0
281
     1
  3
ACAD_GROUP
350
1A
  3
ACAD_MLINESTYLE
350
1B
  3
ACAD_LAYOUT
350
1E
  3
ACAD_PLOTSETTINGS
350
22
  3
ACAD_PLOTSTYLENAME
350
1F
  3
ACAD_WIPEOUT_VARS
350
23
  3
DWGPROPS
350
50A
  0
DICTIONARY
  5
1A
102
{ACAD_REACTORS
330
19
102
}
100
AcDbDictionary
280
     0
281
     1
  0
DICTIONARY
  5
1B
102
{ACAD_REACTORS
330
19
102
}
100
AcDbDictionary
280
     0
281
     1
  3
Standard
350
1C
  0
MLINESTYLE
  5
1C
102
{ACAD_REACTORS
330
1B
102
}
100
AcDbMlineStyle
  2
Standard
 70
     0
  3

 62
     0
 51
90.0
 52
90.0
 71
     2
 49
0.5
 62
   256
  6
ByLayer
 49
-0.5
 62
   256
  6
ByLayer
  0
ACDBDICTIONARYWDFLT
  5
1F
102
{ACAD_REACTORS
330
19
102
}
100
AcDbDictionary
281
     1
  3
Normal
350
1D
100
AcDbDictionaryWithDefault
340
1D
  0
ACDBPLACEHOLDER
  5
1D
102
{ACAD_REACTORS
330
1F
102
}
  0
LAYOUT
  5
20
102
{ACAD_REACTORS
330
1E
102
}
100
AcDbPlotSettings
  1

  2

  4

  6

 40
0.0
 41
0.0
 42
0.0
 43
0.0
 44
0.0
 45
0.0
 46
0.0
 47
0.0
 48
0.0
 49
0.0
140
0.0
141
0.0
142
1.0
143
1.0
 70
  1024
 72
     0
 73
     0
 74
     0
  7

 75
     0
147
1.0
148
0.0
149
0.0
100
AcDbLayout
  1
Model
 70
     0
 71
     0
 10
0.0
 20
0.0
 11
0.0
 21
0.0
 12
0.0
 22
0.0
 32
0.0
 14
0.0
 24
0.0
 34
0.0
 15
0.0
 25
0.0
 35
0.0
146
0.0
 13
0.0
 23
0.0
 33
0.0
 16
0.0
 26
0.0
 36
0.0
 17
0.0
 27
0.0
 37
0.0
 76
     0
330
A
331
0
345
0
346
0
  0
LAYOUT
  5
21
102
{ACAD_REACTORS
330
1E
102
}
100
AcDbPlotSettings
  1

  2

  4

  6

 40
0.0
 41
0.0
 42
0.0
 43
0.0
 44
0.0
 45
0.0
 46
0.0
 47
0.0
 48
0.0
 49
0.0
140
0.0
141
0.0
142
1.0
143
1.0
 70
     0
 72
     0
 73
     0
 74
     0
  7

 75
     0
147
1.0
148
0.0
149
0.0
100
AcDbLayout
  1
Layout1
 70
     0
 71
     0
 10
0.0
 20
0.0
 11
0.0
 21
0.0
 12
0.0
 22
0.0
 32
0.0
 14
0.0
 24
0.0
 34
0.0
 15
0.0
 25
0.0
 35
0.0
146
0.0
 13
0.0
 23
0.0
 33
0.0
 16
0.0
 26
0.0
 36
0.0
 17
0.0
 27
0.0
 37
0.0
 76
     0
330
B
331
0
345
0
346
0
  0
DICTIONARY
  5
1E
102
{ACAD_REACTORS
330
19
102
}
100
AcDbDictionary
280
     0
281
     1
  3
Layout1
350
21
  3
Model
350
20
  0
DICTIONARY
  5
22
102
{ACAD_REACTORS
330
19
102
}
100
AcDbDictionary
280
     0
281
     1
  0
WIPEOUTVARIABLES
  5
23
100
AcDbWipeoutVariables
 70
     1
  0
XRECORD
  5
50A
100
AcDbXrecord
280
     1
  1
DWGPROPS COOKIE
  2

  3

  4

  6

  7

  8
HK96464
  9

300
=
301
=
302
=
303
=
304
=
305
=
306
=
307
=
308
=
309
=
 40
0.0
 41
2455931.710336
 42
2455931.710336
  1

 90
        0
  0
ENDSEC
  0
EOF
