  0
SECTION
  2
HEADER
  9
$ACADVER
  1
AC1015
  9
$ACADMAINTVER
 70
     6
  9
$DWGCODEPAGE
  3
ANSI_932
  9
$INSBASE
 10
0.0
 20
0.0
 30
0.0
  9
$EXTMIN
 10
1.000000E+20
 20
1.000000E+20
 30
1.000000E+20
  9
$EXTMAX
 10
-1.000000E+20
 20
-1.000000E+20
 30
-1.000000E+20
  9
$LIMMIN
 10
0.0
 20
0.0
  9
$LIMMAX
 10
0.0
 20
0.0
  9
$ORTHOMODE
 70
     0
  9
$REGENMODE
 70
     1
  9
$FILLMODE
 70
     1
  9
$QTEXTMODE
 70
     0
  9
$MIRRTEXT
 70
     1
  9
$LTSCALE
 40
1.0
  9
$ATTMODE
 70
     1
  9
$TEXTSIZE
 40
2.8
  9
$TRACEWID
 40
0.05
  9
$TEXTSTYLE
  7
Standard
  9
$CLAYER
  8
0
  9
$CELTYPE
  6
Continuous
  9
$CECOLOR
 62
   256
  9
$CELTSCALE
 40
1.0
  9
$DISPSILH
 70
     0
  9
$DIMSCALE
 40
1.0
  9
$DIMASZ
 40
1.931852
  9
$DIMEXO
 40
1.0
  9
$DIMDLI
 40
0.38
  9
$DIMRND
 40
0.0
  9
$DIMDLE
 40
0.0
  9
$DIMEXE
 40
2.0
  9
$DIMTP
 40
0.0
  9
$DIMTM
 40
0.0
  9
$DIMTXT
 40
10.0
  9
$DIMCEN
 40
0.09
  9
$DIMTSZ
 40
0.0
  9
$DIMTOL
 70
     0
  9
$DIMLIM
 70
     0
  9
$DIMTIH
 70
     1
  9
$DIMTOH
 70
     1
  9
$DIMSE1
 70
     0
  9
$DIMSE2
 70
     0
  9
$DIMTAD
 70
     1
  9
$DIMZIN
 70
     0
  9
$DIMBLK
  1

  9
$DIMASO
 70
     1
  9
$DIMSHO
 70
     1
  9
$DIMPOST
  1

  9
$DIMAPOST
  1

  9
$DIMALT
 70
     0
  9
$DIMALTD
 70
     2
  9
$DIMALTF
 40
25.4
  9
$DIMLFAC
 40
1.0
  9
$DIMTOFL
 70
     0
  9
$DIMTVP
 40
0.0
  9
$DIMTIX
 70
     0
  9
$DIMSOXD
 70
     0
  9
$DIMSAH
 70
     0
  9
$DIMBLK1
  1

  9
$DIMBLK2
  1

  9
$DIMSTYLE
  2
Standard
  9
$DIMCLRD
 70
     0
  9
$DIMCLRE
 70
     0
  9
$DIMCLRT
 70
     0
  9
$DIMTFAC
 40
0.714286
  9
$DIMGAP
 40
0.09
  9
$DIMJUST
 70
     0
  9
$DIMSD1
 70
     0
  9
$DIMSD2
 70
     0
  9
$DIMTOLJ
 70
     1
  9
$DIMTZIN
 70
     0
  9
$DIMALTZ
 70
     0
  9
$DIMALTTZ
 70
     0
  9
$DIMUPT
 70
     0
  9
$DIMDEC
 70
     4
  9
$DIMTDEC
 70
     4
  9
$DIMALTU
 70
     2
  9
$DIMALTTD
 70
     2
  9
$DIMTXSTY
  7
Standard
  9
$DIMAUNIT
 70
     0
  9
$DIMADEC
 70
     0
  9
$DIMALTRND
 40
0.0
  9
$DIMAZIN
 70
     0
  9
$DIMDSEP
 70
     0
  9
$DIMATFIT
 70
     3
  9
$DIMFRAC
 70
     0
  9
$DIMLDRBLK
  1

  9
$DIMLUNIT
 70
     2
  9
$DIMLWD
 70
     0
  9
$DIMLWE
 70
     0
  9
$DIMTMOVE
 70
     0
  9
$LUNITS
 70
     2
  9
$LUPREC
 70
     3
  9
$SKETCHINC
 40
0.1
  9
$FILLETRAD
 40
0.0
  9
$AUNITS
 70
     0
  9
$AUPREC
 70
     0
  9
$MENU
  1
acad
  9
$ELEVATION
 40
0.0
  9
$PELEVATION
 40
0.0
  9
$THICKNESS
 40
0.0
  9
$LIMCHECK
 70
     0
  9
$CHAMFERA
 40
0.0
  9
$CHAMFERB
 40
0.0
  9
$CHAMFERC
 40
0.0
  9
$CHAMFERD
 40
0.0
  9
$SKPOLY
 70
     0
  9
$TDCREATE
 40
0.000000000
  9
$TDUCREATE
 40
0.000000000
  9
$TDUPDATE
 40
0.000000000
  9
$TDUUPDATE
 40
0.000000000
  9
$TDINDWG
 40
0.0000000000
  9
$TDUSRTIMER
 40
0.0000000000
  9
$USRTIMER
 70
     1
  9
$ANGBASE
 50
0.0
  9
$ANGDIR
 70
     0
  9
$PDMODE
 70
     0
  9
$PDSIZE
 40
0.0
  9
$PLINEWID
 40
0.0
  9
$SPLFRAME
 70
     0
  9
$SPLINETYPE
 70
     6
  9
$SPLINESEGS
 70
     8
  9
$HANDSEED
  5
4C6
  9
$SURFTAB1
 70
     6
  9
$SURFTAB2
 70
     6
  9
$SURFTYPE
 70
     6
  9
$SURFU
 70
     6
  9
$SURFV
 70
     6
  9
$UCSBASE
  2

  9
$UCSNAME
  2

  9
$UCSORG
 10
0.0
 20
0.0
 30
0.0
  9
$UCSXDIR
 10
1.0
 20
0.0
 30
0.0
  9
$UCSYDIR
 10
0.0
 20
1.0
 30
0.0
  9
$UCSORTHOREF
  2

  9
$UCSORTHOVIEW
 70
     0
  9
$UCSORGTOP
 10
0.0
 20
0.0
 30
0.0
  9
$UCSORGBOTTOM
 10
0.0
 20
0.0
 30
0.0
  9
$UCSORGLEFT
 10
0.0
 20
0.0
 30
0.0
  9
$UCSORGRIGHT
 10
0.0
 20
0.0
 30
0.0
  9
$UCSORGFRONT
 10
0.0
 20
0.0
 30
0.0
  9
$UCSORGBACK
 10
0.0
 20
0.0
 30
0.0
  9
$PUCSBASE
  2

  9
$PUCSNAME
  2

  9
$PUCSORG
 10
0.0
 20
0.0
 30
0.0
  9
$PUCSXDIR
 10
1.0
 20
0.0
 30
0.0
  9
$PUCSYDIR
 10
0.0
 20
1.0
 30
0.0
  9
$PUCSORTHOREF
  2

  9
$PUCSORTHOVIEW
 70
     0
  9
$PUCSORGTOP
 10
0.0
 20
0.0
 30
0.0
  9
$PUCSORGBOTTOM
 10
0.0
 20
0.0
 30
0.0
  9
$PUCSORGLEFT
 10
0.0
 20
0.0
 30
0.0
  9
$PUCSORGRIGHT
 10
0.0
 20
0.0
 30
0.0
  9
$PUCSORGFRONT
 10
0.0
 20
0.0
 30
0.0
  9
$PUCSORGBACK
 10
0.0
 20
0.0
 30
0.0
  9
$USERI1
 70
     0
  9
$USERI2
 70
     0
  9
$USERI3
 70
     0
  9
$USERI4
 70
     0
  9
$USERI5
 70
     0
  9
$USERR1
 40
0.0
  9
$USERR2
 40
0.0
  9
$USERR3
 40
0.0
  9
$USERR4
 40
0.0
  9
$USERR5
 40
0.0
  9
$WORLDVIEW
 70
     1
  9
$SHADEDGE
 70
     3
  9
$SHADEDIF
 70
    70
  9
$TILEMODE
 70
     1
  9
$MAXACTVP
 70
    16
  9
$PINSBASE
 10
0.0
 20
0.0
 30
0.0
  9
$PLIMCHECK
 70
     0
  9
$PEXTMIN
 10
1.000000E+20
 20
1.000000E+20
 30
1.000000E+20
  9
$PEXTMAX
 10
-1.000000E+20
 20
-1.000000E+20
 30
-1.000000E+20
  9
$PLIMMIN
 10
0.0
 20
0.0
  9
$PLIMMAX
 10
12.0
 20
9.0
  9
$UNITMODE
 70
     0
  9
$VISRETAIN
 70
     0
  9
$PLINEGEN
 70
     1
  9
$PSLTSCALE
 70
     0
  9
$TREEDEPTH
 70
  3020
  9
$CMLSTYLE
  2
Standard
  9
$CMLJUST
 70
     0
  9
$CMLSCALE
 40
1.0
  9
$PROXYGRAPHICS
 70
     0
  9
$MEASUREMENT
 70
     0
  9
$CELWEIGHT
370
     0
  9
$ENDCAPS
280
     0
  9
$JOINSTYLE
280
     0
  9
$LWDISPLAY
290
     0
  9
$INSUNITS
 70
     0
  9
$HYPERLINKBASE
  1

  9
$STYLESHEET
  1

  9
$XEDIT
290
     1
  9
$CEPSNTYPE
380
     0
  9
$PSTYLEMODE
290
     1
  9
$FINGERPRINTGUID
  2

  9
$VERSIONGUID
  2

  9
$EXTNAMES
290
     1
  9
$PSVPSCALE
 40
0.0
  0
ENDSEC
  0
SECTION
  2
CLASSES
  0
CLASS
  1
LWPOLYLINE
  2
AcDbPolyline
  3
AutoCAD 2000
 90
    32768
280
     0
281
     1
  0
CLASS
  1
IMAGE
  2
AcDbRasterImage
  3
ISM
 90
    32895
280
     0
281
     1
  0
CLASS
  1
OLE2FRAME
  2
AcDbOle2Frame
  3
AutoCAD 2000
 90
    32768
280
     0
281
     1
  0
CLASS
  1
HATCH
  2
AcDbHatch
  3
AutoCAD 2000
 90
    32768
280
     0
281
     1
  0
CLASS
  1
DICTIONARYVAR
  2
AcDbDictionaryVar
  3
AutoCAD 2000
 90
    32768
280
     0
281
     0
  0
CLASS
  1
RASTERVARIABLES
  2
AcDbRasterVariables
  3
ISM
 90
    32768
280
     0
281
     0
  0
CLASS
  1
IMAGEDEF
  2
AcDbRasterImageDef
  3
ISM
 90
    32768
280
     0
281
     0
  0
CLASS
  1
IMAGEDEF_REACTOR
  2
AcDbRasterImageDefReactor
  3
ISM
 90
    32769
280
     0
281
     0
  0
CLASS
  1
IDBUFFER
  2
AcDbIdBuffer
  3
AutoCAD 2000
 90
    32768
280
     0
281
     0
  0
CLASS
  1
SPATIAL_FILTER
  2
AcDbSpatialFilter
  3
AutoCAD 2000
 90
    32768
280
     0
281
     0
  0
CLASS
  1
XRECORD
  2
AcDbXrecord
  3
AutoCAD 2000
 90
        0
280
     0
281
     0
  0
CLASS
  1
SORTENTSTABLE
  2
AcDbSortentsTable
  3
AutoCAD 2000
 90
    32768
280
     0
281
     0
  0
CLASS
  1
LAYER_INDEX
  2
AcDbLayerIndex
  3
AutoCAD 2000
 90
    32768
280
     0
281
     0
  0
CLASS
  1
SPATIAL_INDEX
  2
AcDbSpatialIndex
  3
AutoCAD 2000
 90
    32768
280
     0
281
     0
  0
CLASS
  1
OBJECT_PTR
  2
CAseDLPNTableRecord
  3
"ASE-LPNTableRecord"
 90
    32769
280
     0
281
     0
  0
CLASS
  1
LAYOUT
  2
AcDbLayout
  3
AutoCAD 2000
 90
        0
280
     0
281
     0
  0
CLASS
  1
PLOTSETTINGS
  2
AcDbPlotSettings
  3
AutoCAD 2000
 90
    32768
280
     0
281
     0
  0
CLASS
  1
ACDBDICTIONARYWDFLT
  2
AcDbDictionaryWithDefault
  3
AutoCAD 2000
 90
        0
280
     0
281
     0
  0
CLASS
  1
ACDBPLACEHOLDER
  2
AcDbPlaceHolder
  3
AutoCAD 2000
 90
        0
280
     0
281
     0
  0
CLASS
  1
VBA_PROJECT
  2
AcDbVbaProject
  3
acadvba
 90
    32768
280
     0
281
     0
  0
CLASS
  1
WIPEOUT
  2
AcDbWipeout
  3
WipeOut|AutoCAD Express Tool|expresstools@autodesk.com
 90
    32895
280
     0
281
     1
  0
CLASS
  1
WIPEOUTVARIABLES
  2
AcDbWipeoutVariables
  3
WipeOut|AutoCAD Express Tool|expresstools@autodesk.com
 90
        0
280
     0
281
     0
  0
CLASS
  1
RTEXT
  2
RText
  3
RText|AutoCAD Express Tool|expresstools@autodesk.com
 90
    32768
280
     0
281
     1
  0
CLASS
  1
ARCALIGNEDTEXT
  2
AcDbArcAlignedText
  3
ATEXT|AutoCAD Express Tool|expresstools@autodesk.com
 90
    32768
280
     0
281
     1
  0
ENDSEC
  0
SECTION
  2
TABLES
  0
TABLE
  2
VPORT
  5
7
100
AcDbSymbolTable
 70
     1
  0
VPORT
  5
15
100
AcDbSymbolTableRecord
100
AcDbViewportTableRecord
  2
*ACTIVE
 70
     0
 10
0.0
 20
0.0
 11
1.0
 21
1.0
 12
0.0
 22
0.0
 13
0.0
 23
0.0
 14
1.0
 24
1.0
 15
0.0
 25
0.0
 16
0.0
 26
0.0
 36
1.0
 17
0.0
 27
0.0
 37
0.0
 40
100.0
 41
1.0
 42
50.0
 43
0.0
 44
0.0
 50
0.0
 51
0.0
 71
     0
 72
   100
 73
     1
 74
     1
 75
     0
 76
     0
 77
     0
 78
     0
281
     0
 65
     0
110
0.0
120
0.0
130
0.0
111
1.0
121
0.0
131
0.0
112
0.0
122
1.0
132
0.0
345
0
346
0
 79
     0
146
0.0
  0
ENDTAB
  0
TABLE
  2
LTYPE
  5
4
100
AcDbSymbolTable
 70
     7
  0
LTYPE
  5
11
100
AcDbSymbolTableRecord
100
AcDbLinetypeTableRecord
  2
ByBlock
 70
    64
  3

 72
    65
 73
     0
 40
0.0
  0
LTYPE
  5
12
100
AcDbSymbolTableRecord
100
AcDbLinetypeTableRecord
  2
ByLayer
 70
    64
  3

 72
    65
 73
     0
 40
0.0
  0
LTYPE
  5
13
100
AcDbSymbolTableRecord
100
AcDbLinetypeTableRecord
  2
Continuous
 70
    64
  3
Solid line
 72
    65
 73
     0
 40
0.0
  0
LTYPE
  5
24
100
AcDbSymbolTableRecord
100
AcDbLinetypeTableRecord
  2
DASHED
 70
    64
  3
Dashed __ __ __ __ __ __ __ __ __ __ __ __ __ _
 72
    65
 73
     2
 40
0.75
 49
0.5
 74
     0
 49
-0.25
 74
     0
  0
LTYPE
  5
25
100
AcDbSymbolTableRecord
100
AcDbLinetypeTableRecord
  2
CENTER
 70
    64
  3
Center ____ _ ____ _ ____ _ ____ _ ____ _ ____
 72
    65
 73
     4
 40
1.0
 49
0.5
 74
     0
 49
-0.25
 74
     0
 49
0.0
 74
     0
 49
-0.25
 74
     0
  0
LTYPE
  5
26
100
AcDbSymbolTableRecord
100
AcDbLinetypeTableRecord
  2
DIVIDE
 70
    64
  3
Divide ____ . . ____ . . ____ . . ____ . . ____
 72
    65
 73
     6
 40
1.25
 49
0.5
 74
     0
 49
-0.25
 74
     0
 49
0.0
 74
     0
 49
-0.25
 74
     0
 49
0.0
 74
     0
 49
-0.25
 74
     0
  0
LTYPE
  5
27
100
AcDbSymbolTableRecord
100
AcDbLinetypeTableRecord
  2
PHANTOM
 70
    64
  3
Phantom ______  __  __  ______  __  __  ______
 72
    65
 73
     6
 40
9.0
 49
4.3
 74
     0
 49
-0.7
 74
     0
 49
1.3
 74
     0
 49
-0.7
 74
     0
 49
1.3
 74
     0
 49
-0.7
 74
     0
  0
ENDTAB
  0
TABLE
  2
LAYER
  5
2
100
AcDbSymbolTable
 70
     4
  0
LAYER
  5
14
100
AcDbSymbolTableRecord
100
AcDbLayerTableRecord
  2
0
 70
    64
 62
    53
  6
Continuous
290
     1
370
    -3
390
1D
  0
LAYER
  5
28
100
AcDbSymbolTableRecord
100
AcDbLayerTableRecord
  2
3
 70
    64
 62
     4
  6
Continuous
290
     1
370
    -3
390
1D
  0
LAYER
  5
29
100
AcDbSymbolTableRecord
100
AcDbLayerTableRecord
  2
5
 70
    64
 62
   191
  6
Continuous
290
     1
370
    -3
390
1D
  0
LAYER
  5
2A
100
AcDbSymbolTableRecord
100
AcDbLayerTableRecord
  2
16
 70
    64
 62
     1
  6
Continuous
290
     1
370
    -3
390
1D
  0
ENDTAB
  0
TABLE
  2
STYLE
  5
3
100
AcDbSymbolTable
 70
     2
  0
STYLE
  5
17
100
AcDbSymbolTableRecord
100
AcDbTextStyleTableRecord
  2
Standard
 70
     0
 40
0.0
 41
1.0
 50
0.0
 71
     0
 42
0.0
  3
txt
  4

  0
STYLE
  5
38F
100
AcDbSymbolTableRecord
100
AcDbTextStyleTableRecord
  2
ZU_SHPTB00001
 70
     0
 40
0.0
 41
1.0
 50
0.0
 71
     0
 42
0.0
  3
monotxt
  4
bigfont
  0
ENDTAB
  0
TABLE
  2
VIEW
  5
5
100
AcDbSymbolTable
 70
     0
  0
ENDTAB
  0
TABLE
  2
UCS
  5
6
100
AcDbSymbolTable
 70
     0
  0
ENDTAB
  0
TABLE
  2
APPID
  5
8
100
AcDbSymbolTable
 70
     1
  0
APPID
  5
16
100
AcDbSymbolTableRecord
100
AcDbRegAppTableRecord
  2
ACAD
 70
     0
  0
ENDTAB
  0
TABLE
  2
DIMSTYLE
  5
9
100
AcDbSymbolTable
 70
     1
100
AcDbDimStyleTable
 71
     0
  0
DIMSTYLE
105
18
100
AcDbSymbolTableRecord
100
AcDbDimStyleTableRecord
  2
Standard
 70
     0
  3

  4

 40
1.0
 41
0.18
 42
0.0625
 43
0.38
 44
0.18
 45
0.0
 46
0.0
 47
0.0
 48
0.0
 71
     0
 72
     0
 73
     1
 74
     1
 75
     0
 76
     0
 77
     0
 78
     0
 79
     0
140
0.18
141
0.09
142
0.0
143
25.4
144
1.0
145
0.0
146
1.0
147
0.09
148
0.0
170
     0
171
     2
172
     0
173
     0
174
     0
175
     0
176
     0
177
     0
178
     0
179
     0
271
     4
272
     4
273
     2
274
     2
275
     0
276
     0
277
     2
278
    46
279
     0
280
     0
281
     0
282
     0
283
     1
284
     0
285
     0
286
     0
288
     0
340
17
341
0
342
0
343
0
344
0
371
    -2
372
    -2
  0
ENDTAB
  0
TABLE
  2
BLOCK_RECORD
  5
1
100
AcDbSymbolTable
 70
     1
  0
BLOCK_RECORD
  5
A
100
AcDbSymbolTableRecord
100
AcDbBlockTableRecord
  2
*MODEL_SPACE
340
20
  0
BLOCK_RECORD
  5
B
100
AcDbSymbolTableRecord
100
AcDbBlockTableRecord
  2
*PAPER_SPACE
340
21
  0
BLOCK_RECORD
  5
B8
100
AcDbSymbolTableRecord
100
AcDbBlockTableRecord
  2
ZU_SYM__USERS_HOME_SYMBOL_POO_SYM_B20_-1
340
0
102
{BLKREFS
331
C0
102
}
  0
ENDTAB
  0
ENDSEC
  0
SECTION
  2
BLOCKS
  0
BLOCK
  5
D
100
AcDbEntity
  8
0
100
AcDbBlockBegin
  2
*MODEL_SPACE
 70
     0
 10
0.0
 20
0.0
 30
0.0
  3
*MODEL_SPACE
  1

  0
ENDBLK
  5
E
100
AcDbEntity
  8
0
100
AcDbBlockEnd
  0
BLOCK
  5
F
100
AcDbEntity
 67
     1
  8
0
100
AcDbBlockBegin
  2
*PAPER_SPACE
 70
     0
 10
0.0
 20
0.0
 30
0.0
  3
*PAPER_SPACE
  1

  0
ENDBLK
  5
10
100
AcDbEntity
 67
     1
  8
0
100
AcDbBlockEnd
  0
BLOCK
  5
B9
100
AcDbEntity
  8
0
100
AcDbBlockBegin
  2
ZU_SYM__USERS_HOME_SYMBOL_POO_SYM_B20_-1
 70
    64
 10
0.0
 20
0.0
 30
0.0
  3
ZU_SYM__USERS_HOME_SYMBOL_POO_SYM_B20_-1
  1

  0
LINE
  5
BA
100
AcDbEntity
  8
0
370
    -3
  6
Continuous
100
AcDbLine
 10
0.0
 20
-4.249999
 30
0.0
 11
-5.0
 21
-4.249999
 31
0.0
  0
LINE
  5
BB
100
AcDbEntity
  8
0
370
    -3
  6
Continuous
100
AcDbLine
 10
0.0
 20
4.249999
 30
0.0
 11
-5.0
 21
4.249999
 31
0.0
  0
LINE
  5
BC
100
AcDbEntity
  8
0
370
    -3
  6
Continuous
100
AcDbLine
 10
-5.0
 20
-4.249999
 30
0.0
 11
-5.0
 21
4.249999
 31
0.0
  0
LINE
  5
BD
100
AcDbEntity
  8
0
370
    -3
  6
Continuous
100
AcDbLine
 10
0.0
 20
-4.249999
 30
0.0
 11
0.0
 21
4.249999
 31
0.0
  0
POINT
  5
BE
100
AcDbEntity
  8
0
370
    -3
  6
Continuous
100
AcDbPoint
 10
0.0
 20
0.0
 30
0.0
  0
ENDBLK
  5
BF
100
AcDbEntity
  8
0
100
AcDbBlockEnd
  0
ENDSEC
  0
SECTION
  2
ENTITIES
  0
LINE
  5
2B
100
AcDbEntity
  8
0
370
    -3
  6
Continuous
100
AcDbLine
 10
-88.094111
 20
-136.341194
 30
0.0
 11
-88.094111
 21
-77.841194
 31
0.0
  0
LINE
  5
2C
100
AcDbEntity
  8
0
370
    -3
  6
Continuous
100
AcDbLine
 10
-88.094111
 20
-19.341194
 30
0.0
 11
-88.094111
 21
-77.841194
 31
0.0
  0
LINE
  5
2D
100
AcDbEntity
  8
0
370
    -3
  6
Continuous
100
AcDbLine
 10
-88.094111
 20
-77.841194
 30
0.0
 11
-88.094111
 21
-19.341194
 31
0.0
  0
LINE
  5
2E
100
AcDbEntity
  8
0
370
    -3
  6
Continuous
100
AcDbLine
 10
-88.094111
 20
-77.841194
 30
0.0
 11
-88.094111
 21
-136.341194
 31
0.0
  0
LINE
  5
2F
100
AcDbEntity
  8
0
370
    -3
  6
Continuous
100
AcDbLine
 10
-88.094111
 20
-136.349921
 30
0.0
 11
-87.094111
 21
-136.367376
 31
0.0
  0
LINE
  5
30
100
AcDbEntity
  8
0
370
    -3
  6
CENTER
100
AcDbLine
 10
45.337508
 20
-59.841194
 30
0.0
 11
-20.884099
 21
-59.841194
 31
0.0
  0
ARC
  5
31
100
AcDbEntity
  8
0
370
    -3
  6
Continuous
100
AcDbCircle
 10
40.505906
 20
-68.941194
 30
0.0
 40
0.4
100
AcDbArc
 50
270.0
 51
0.0
  0
ARC
  5
32
100
AcDbEntity
  8
0
370
    -3
  6
Continuous
100
AcDbCircle
 10
40.505906
 20
-50.66927
 30
0.0
 40
0.4
100
AcDbArc
 50
0.0
 51
90.0
  0
LINE
  5
33
100
AcDbEntity
  8
0
370
    -3
  6
Continuous
100
AcDbLine
 10
15.465713
 20
-50.26927
 30
0.0
 11
14.905906
 21
-50.41927
 31
0.0
  0
LINE
  5
34
100
AcDbEntity
  8
0
370
    -3
  6
Continuous
100
AcDbLine
 10
40.505906
 20
-50.26927
 30
0.0
 11
15.465713
 21
-50.26927
 31
0.0
  0
LINE
  5
35
100
AcDbEntity
  8
0
370
    -3
  6
Continuous
100
AcDbLine
 10
12.705906
 20
-48.76927
 30
0.0
 11
12.905906
 21
-48.96927
 31
0.0
  0
LINE
  5
36
100
AcDbEntity
  8
0
370
    -3
  6
Continuous
100
AcDbLine
 10
14.905906
 20
-50.41927
 30
0.0
 11
13.305906
 21
-50.41927
 31
0.0
  0
LINE
  5
37
100
AcDbEntity
  8
0
370
    -3
  6
Continuous
100
AcDbLine
 10
12.905906
 20
-59.76927
 30
0.0
 11
12.905906
 21
-48.96927
 31
0.0
  0
ARC
  5
38
100
AcDbEntity
  8
0
370
    -3
  6
Continuous
100
AcDbCircle
 10
13.305906
 20
-50.01927
 30
0.0
 40
0.4
100
AcDbArc
 50
180.0
 51
270.0
  0
LINE
  5
39
100
AcDbEntity
  8
0
370
    -3
  6
Continuous
100
AcDbLine
 10
40.505906
 20
-69.341194
 30
0.0
 11
15.465713
 21
-69.341194
 31
0.0
  0
LINE
  5
3A
100
AcDbEntity
  8
0
370
    -3
  6
Continuous
100
AcDbLine
 10
12.705906
 20
-70.841194
 30
0.0
 11
12.905906
 21
-70.641194
 31
0.0
  0
LINE
  5
3B
100
AcDbEntity
  8
0
370
    -3
  6
Continuous
100
AcDbLine
 10
14.905906
 20
-69.191194
 30
0.0
 11
13.305906
 21
-69.191194
 31
0.0
  0
LINE
  5
3C
100
AcDbEntity
  8
0
370
    -3
  6
Continuous
100
AcDbLine
 10
15.465713
 20
-69.341194
 30
0.0
 11
14.905906
 21
-69.191194
 31
0.0
  0
LINE
  5
3D
100
AcDbEntity
  8
0
370
    -3
  6
Continuous
100
AcDbLine
 10
12.905906
 20
-59.841194
 30
0.0
 11
12.905906
 21
-70.641194
 31
0.0
  0
ARC
  5
3E
100
AcDbEntity
  8
0
370
    -3
  6
Continuous
100
AcDbCircle
 10
13.305906
 20
-69.591194
 30
0.0
 40
0.4
100
AcDbArc
 50
90.0
 51
180.0
  0
LINE
  5
3F
100
AcDbEntity
  8
0
370
    -3
  6
Continuous
100
AcDbLine
 10
12.705906
 20
-48.76927
 30
0.0
 11
10.405889
 21
-48.76927
 31
0.0
  0
LINE
  5
40
100
AcDbEntity
  8
0
370
    -3
  6
Continuous
100
AcDbLine
 10
12.705906
 20
-70.841194
 30
0.0
 11
10.405889
 21
-70.841194
 31
0.0
  0
LINE
  5
41
100
AcDbEntity
  8
0
370
    -3
  6
Continuous
100
AcDbLine
 10
40.905906
 20
-50.66927
 30
0.0
 11
40.905906
 21
-68.941194
 31
0.0
  0
LINE
  5
42
100
AcDbEntity
  8
0
370
    -3
  6
Continuous
100
AcDbLine
 10
18.793951
 20
-57.065348
 30
0.0
 11
40.905906
 21
-57.065348
 31
0.0
  0
LINE
  5
43
100
AcDbEntity
  8
0
370
    -3
  6
Continuous
100
AcDbLine
 10
18.793951
 20
-62.841438
 30
0.0
 11
40.905906
 21
-62.841438
 31
0.0
  0
ARC
  5
44
100
AcDbEntity
  8
0
370
    -3
  6
Continuous
100
AcDbCircle
 10
18.793951
 20
-59.953393
 30
0.0
 40
2.888045
100
AcDbArc
 50
90.0
 51
270.0
  0
LINE
  5
45
100
AcDbEntity
  8
0
370
    -3
  6
Continuous
100
AcDbLine
 10
-16.586663
 20
-11.721409
 30
0.0
 11
-52.094111
 21
-12.341194
 31
0.0
  0
LINE
  5
46
100
AcDbEntity
  8
0
370
    -3
  6
Continuous
100
AcDbLine
 10
-9.803808
 20
-19.079654
 30
0.0
 11
-18.434529
 21
-19.079654
 31
0.0
  0
ARC
  5
47
100
AcDbEntity
  8
0
370
    -3
  6
Continuous
100
AcDbCircle
 10
-11.594111
 20
-1.422214
 30
0.0
 40
3.0
100
AcDbArc
 50
318.942708
 51
0.0
  0
LINE
  5
48
100
AcDbEntity
  8
0
370
    -3
  6
Continuous
100
AcDbLine
 10
-9.331952
 20
-3.392654
 30
0.0
 11
-18.913944
 21
-14.39324
 31
0.0
  0
ARC
  5
49
100
AcDbEntity
  8
0
370
    -3
  6
Continuous
100
AcDbCircle
 10
-21.176104
 20
-12.4228
 30
0.0
 40
3.0
100
AcDbArc
 50
270.0
 51
318.942708
  0
ARC
  5
4A
100
AcDbEntity
  8
0
370
    -3
  6
Continuous
100
AcDbCircle
 10
-21.176104
 20
-16.079654
 30
0.0
 40
3.0
100
AcDbArc
 50
270.0
 51
318.942708
  0
LINE
  5
4B
100
AcDbEntity
  8
0
370
    -3
  6
Continuous
100
AcDbLine
 10
-9.331952
 20
-7.049508
 30
0.0
 11
-18.913944
 21
-18.050094
 31
0.0
  0
ARC
  5
4C
100
AcDbEntity
  8
0
370
    -3
  6
Continuous
100
AcDbCircle
 10
-11.594111
 20
-5.079068
 30
0.0
 40
3.0
100
AcDbArc
 50
318.942708
 51
0.0
  0
ARC
  5
4D
100
AcDbEntity
  8
0
370
    -3
  6
Continuous
100
AcDbCircle
 10
-0.594111
 20
-67.841194
 30
0.0
 40
3.0
100
AcDbArc
 50
90.0
 51
180.0
  0
ARC
  5
4E
100
AcDbEntity
  8
0
370
    -3
  6
Continuous
100
AcDbCircle
 10
-0.594111
 20
-51.841194
 30
0.0
 40
3.0
100
AcDbArc
 50
180.0
 51
270.0
  0
LINE
  5
4F
100
AcDbEntity
  8
0
370
    -3
  6
Continuous
100
AcDbLine
 10
-0.594111
 20
-64.841194
 30
0.0
 11
3.405889
 21
-64.841194
 31
0.0
  0
LINE
  5
50
100
AcDbEntity
  8
0
370
    -3
  6
Continuous
100
AcDbLine
 10
-0.594111
 20
-54.841194
 30
0.0
 11
3.405889
 21
-54.841194
 31
0.0
  0
LINE
  5
51
100
AcDbEntity
  8
0
370
    -3
  6
Continuous
100
AcDbLine
 10
-0.672642
 20
-98.577751
 30
0.0
 11
3.405889
 21
-98.684551
 31
0.0
  0
ARC
  5
52
100
AcDbEntity
  8
0
370
    -3
  6
Continuous
100
AcDbCircle
 10
-0.594111
 20
-95.578779
 30
0.0
 40
3.0
100
AcDbArc
 50
180.0
 51
268.5
  0
LINE
  5
53
100
AcDbEntity
  8
0
370
    -3
  6
Continuous
100
AcDbLine
 10
-0.672642
 20
-115.263831
 30
0.0
 11
3.405889
 21
-115.370631
 31
0.0
  0
ARC
  5
54
100
AcDbEntity
  8
0
370
    -3
  6
Continuous
100
AcDbCircle
 10
-0.594111
 20
-112.264859
 30
0.0
 40
3.0
100
AcDbArc
 50
180.0
 51
268.5
  0
LINE
  5
55
100
AcDbEntity
  8
0
370
    -3
  6
Continuous
100
AcDbLine
 10
-3.594111
 20
-112.264859
 30
0.0
 11
-3.594111
 21
-67.841194
 31
0.0
  0
LINE
  5
56
100
AcDbEntity
  8
0
370
    -3
  6
Continuous
100
AcDbLine
 10
-3.594111
 20
-7.417529
 30
0.0
 11
-3.594111
 21
-51.841194
 31
0.0
  0
LINE
  5
57
100
AcDbEntity
  8
0
370
    -3
  6
Continuous
100
AcDbLine
 10
-0.672642
 20
-4.418557
 30
0.0
 11
3.405889
 21
-4.311757
 31
0.0
  0
ARC
  5
58
100
AcDbEntity
  8
0
370
    -3
  6
Continuous
100
AcDbCircle
 10
-0.594111
 20
-7.417529
 30
0.0
 40
3.0
100
AcDbArc
 50
91.5
 51
180.0
  0
LINE
  5
59
100
AcDbEntity
  8
0
370
    -3
  6
Continuous
100
AcDbLine
 10
-0.672642
 20
-21.104637
 30
0.0
 11
3.405889
 21
-20.997837
 31
0.0
  0
LINE
  5
5A
100
AcDbEntity
  8
0
370
    -3
  6
Continuous
100
AcDbLine
 10
-4.094111
 20
12.855201
 30
0.0
 11
3.405889
 21
12.658806
 31
0.0
  0
LINE
  5
5B
100
AcDbEntity
  8
0
370
    -3
  6
Continuous
100
AcDbLine
 10
-4.104418
 20
-139.830672
 30
0.0
 11
-52.094111
 21
-138.841194
 31
0.0
  0
LINE
  5
5C
100
AcDbEntity
  8
0
370
    -3
  6
Continuous
100
AcDbLine
 10
-7.620288
 20
12.762864
 30
0.0
 11
-4.1072
 21
12.854858
 31
0.0
  0
LINE
  5
5D
100
AcDbEntity
  8
0
370
    -3
  6
Continuous
100
AcDbLine
 10
-18.962077
 20
-10.307765
 30
0.0
 11
-8.996035
 21
6.953926
 31
0.0
  0
LINE
  5
5E
100
AcDbEntity
  8
0
370
    -3
  6
Continuous
100
AcDbLine
 10
10.405889
 20
-59.841194
 30
0.0
 11
10.405889
 21
-38.57381
 31
0.0
  0
LINE
  5
5F
100
AcDbEntity
  8
0
370
    -3
  6
Continuous
100
AcDbLine
 10
6.405889
 20
4.358806
 30
0.0
 11
5.626563
 21
5.158806
 31
0.0
  0
LINE
  5
60
100
AcDbEntity
  8
0
370
    -3
  6
Continuous
100
AcDbLine
 10
6.405889
 20
-124.041194
 30
0.0
 11
5.626563
 21
-124.841194
 31
0.0
  0
LINE
  5
61
100
AcDbEntity
  8
0
370
    -3
  6
Continuous
100
AcDbLine
 10
10.405889
 20
-59.841194
 30
0.0
 11
10.405889
 21
-81.108578
 31
0.0
  0
ARC
  5
62
100
AcDbEntity
  8
0
370
    -3
  6
Continuous
100
AcDbCircle
 10
-0.594111
 20
-24.103609
 30
0.0
 40
3.0
100
AcDbArc
 50
91.5
 51
180.0
  0
ARC
  5
63
100
AcDbEntity
  8
0
370
    -3
  6
Continuous
100
AcDbCircle
 10
-4.094111
 20
-139.330778
 30
0.0
 40
0.5
100
AcDbArc
 50
268.818811
 51
0.0
  0
ARC
  5
64
100
AcDbEntity
  8
0
370
    -3
  6
Continuous
100
AcDbCircle
 10
-7.594111
 20
11.763207
 30
0.0
 40
1.0
100
AcDbArc
 50
91.5
 51
180.0
  0
ARC
  5
65
100
AcDbEntity
  8
0
370
    -3
  6
Continuous
100
AcDbCircle
 10
8.405889
 20
-38.57381
 30
0.0
 40
2.0
100
AcDbArc
 50
0.0
 51
40.236358
  0
ARC
  5
66
100
AcDbEntity
  8
0
370
    -3
  6
Continuous
100
AcDbCircle
 10
8.405889
 20
-81.108578
 30
0.0
 40
2.0
100
AcDbArc
 50
319.763642
 51
0.0
  0
ARC
  5
67
100
AcDbEntity
  8
0
370
    -3
  6
Continuous
100
AcDbCircle
 10
-11.594111
 20
8.453926
 30
0.0
 40
3.0
100
AcDbArc
 50
330.0
 51
0.0
  0
ARC
  5
68
100
AcDbEntity
  8
0
370
    -3
  6
Continuous
100
AcDbCircle
 10
-21.560153
 20
-8.807765
 30
0.0
 40
3.0
100
AcDbArc
 50
271.0
 51
330.0
  0
LINE
  5
69
100
AcDbEntity
  8
0
370
    -3
  6
Continuous
100
AcDbLine
 10
-52.594111
 20
-59.841194
 30
0.0
 11
-52.594111
 21
-12.349921
 31
0.0
  0
LINE
  5
6A
100
AcDbEntity
  8
0
370
    -3
  6
Continuous
100
AcDbLine
 10
5.626563
 20
5.158806
 30
0.0
 11
3.405889
 21
5.158806
 31
0.0
  0
LINE
  5
6B
100
AcDbEntity
  8
0
370
    -3
  6
Continuous
100
AcDbLine
 10
5.626563
 20
-124.841194
 30
0.0
 11
3.405889
 21
-124.841194
 31
0.0
  0
LINE
  5
6C
100
AcDbEntity
  8
0
370
    -3
  6
Continuous
100
AcDbLine
 10
-52.594111
 20
-138.830885
 30
0.0
 11
-52.594111
 21
-59.841194
 31
0.0
  0
LINE
  5
6D
100
AcDbEntity
  8
0
370
    -3
  6
Continuous
100
AcDbLine
 10
3.405889
 20
-59.841194
 30
0.0
 11
3.405889
 21
12.658806
 31
0.0
  0
LINE
  5
6E
100
AcDbEntity
  8
0
370
    -3
  6
Continuous
100
AcDbLine
 10
9.932661
 20
-82.400463
 30
0.0
 11
6.405889
 21
-86.568467
 31
0.0
  0
LINE
  5
6F
100
AcDbEntity
  8
0
370
    -3
  6
Continuous
100
AcDbLine
 10
9.932661
 20
-37.281925
 30
0.0
 11
6.405889
 21
-33.113921
 31
0.0
  0
LINE
  5
70
100
AcDbEntity
  8
0
370
    -3
  6
Continuous
100
AcDbLine
 10
3.405889
 20
-59.841194
 30
0.0
 11
3.405889
 21
-132.341194
 31
0.0
  0
LINE
  5
71
100
AcDbEntity
  8
0
370
    -3
  6
Continuous
100
AcDbLine
 10
6.405889
 20
-59.841194
 30
0.0
 11
6.405889
 21
4.358806
 31
0.0
  0
LINE
  5
72
100
AcDbEntity
  8
0
370
    -3
  6
Continuous
100
AcDbLine
 10
6.405889
 20
-59.841194
 30
0.0
 11
6.405889
 21
-124.041194
 31
0.0
  0
LINE
  5
73
100
AcDbEntity
  8
0
370
    -3
  6
Continuous
100
AcDbLine
 10
-4.094111
 20
-132.537588
 30
0.0
 11
3.405889
 21
-132.341194
 31
0.0
  0
LINE
  5
74
100
AcDbEntity
  8
0
370
    -3
  6
Continuous
100
AcDbLine
 10
-8.594111
 20
-131.445595
 30
0.0
 11
-8.594111
 21
11.763207
 31
0.0
  0
LINE
  5
75
100
AcDbEntity
  8
0
370
    -3
  6
Continuous
100
AcDbLine
 10
-3.594111
 20
-132.524495
 30
0.0
 11
-3.594111
 21
-139.330778
 31
0.0
  0
LINE
  5
76
100
AcDbEntity
  8
0
370
    -3
  6
Continuous
100
AcDbLine
 10
-62.594111
 20
-131.259956
 30
0.0
 11
-62.594111
 21
-79.091193
 31
0.0
  0
LINE
  5
77
100
AcDbEntity
  8
0
370
    -3
  6
Continuous
100
AcDbLine
 10
-52.594111
 20
-12.306284
 30
0.0
 11
-62.094111
 21
-12.306284
 31
0.0
  0
LINE
  5
78
100
AcDbEntity
  8
0
370
    -3
  6
Continuous
100
AcDbLine
 10
-88.094111
 20
-19.332466
 30
0.0
 11
-62.594111
 21
-18.887362
 31
0.0
  0
LINE
  5
79
100
AcDbEntity
  8
0
370
    -3
  6
Continuous
100
AcDbLine
 10
-88.094111
 20
-136.349921
 30
0.0
 11
-62.59411
 21
-136.795026
 31
0.0
  0
LINE
  5
7A
100
AcDbEntity
  8
0
370
    -3
  6
Continuous
100
AcDbLine
 10
-52.594111
 20
-138.841194
 30
0.0
 11
-57.594111
 21
-138.841194
 31
0.0
  0
ARC
  5
7B
100
AcDbEntity
  8
0
370
    -3
  6
Continuous
100
AcDbCircle
 10
-62.094111
 20
-12.806284
 30
0.0
 40
0.5
100
AcDbArc
 50
90.0
 51
180.0
  0
ARC
  5
7C
100
AcDbEntity
  8
0
370
    -3
  6
Continuous
100
AcDbCircle
 10
-60.794111
 20
-138.341194
 30
0.0
 40
0.5
100
AcDbArc
 50
209.999874
 51
270.0
  0
LINE
  5
7D
100
AcDbEntity
  8
0
370
    -3
  6
Continuous
100
AcDbLine
 10
-88.094111
 20
-77.841194
 30
0.0
 11
-88.094111
 21
-19.341194
 31
0.0
  0
LINE
  5
7E
100
AcDbEntity
  8
0
370
    -3
  6
Continuous
100
AcDbLine
 10
-52.094111
 20
-77.841194
 30
0.0
 11
-52.094111
 21
-12.297556
 31
0.0
  0
LINE
  5
7F
100
AcDbEntity
  8
0
370
    -3
  6
Continuous
100
AcDbLine
 10
-52.094111
 20
-138.841194
 30
0.0
 11
-52.094111
 21
-77.841194
 31
0.0
  0
LINE
  5
80
100
AcDbEntity
  8
0
370
    -3
  6
Continuous
100
AcDbLine
 10
-88.094111
 20
-77.841194
 30
0.0
 11
-88.094111
 21
-136.341194
 31
0.0
  0
LINE
  5
81
100
AcDbEntity
  8
0
370
    -3
  6
Continuous
100
AcDbLine
 10
-62.594111
 20
-70.591195
 30
0.0
 11
-62.594111
 21
-12.806284
 31
0.0
  0
LINE
  5
82
100
AcDbEntity
  8
0
370
    -3
  6
Continuous
100
AcDbLine
 10
-57.994111
 20
-16.751259
 30
0.0
 11
-61.594111
 21
-16.751259
 31
0.0
  0
ARC
  5
83
100
AcDbEntity
  8
0
370
    -3
  6
Continuous
100
AcDbCircle
 10
-57.994111
 20
-16.351259
 30
0.0
 40
0.4
100
AcDbArc
 50
270.0
 51
0.0
  0
ARC
  5
84
100
AcDbEntity
  8
0
370
    -3
  6
Continuous
100
AcDbCircle
 10
-61.594111
 20
-17.751259
 30
0.0
 40
1.0
100
AcDbArc
 50
90.0
 51
180.0
  0
LINE
  5
85
100
AcDbEntity
  8
0
370
    -3
  6
Continuous
100
AcDbLine
 10
-57.994111
 20
-13.280058
 30
0.0
 11
-61.594111
 21
-13.280058
 31
0.0
  0
ARC
  5
86
100
AcDbEntity
  8
0
370
    -3
  6
Continuous
100
AcDbCircle
 10
-61.594111
 20
-14.280058
 30
0.0
 40
1.0
100
AcDbArc
 50
90.0
 51
180.0
  0
LINE
  5
87
100
AcDbEntity
  8
0
370
    -3
  6
Continuous
100
AcDbLine
 10
-57.594111
 20
-13.680058
 30
0.0
 11
-57.594111
 21
-16.351259
 31
0.0
  0
ARC
  5
88
100
AcDbEntity
  8
0
370
    -3
  6
Continuous
100
AcDbCircle
 10
-57.994111
 20
-13.680058
 30
0.0
 40
0.4
100
AcDbArc
 50
0.0
 51
90.0
  0
LINE
  5
89
100
AcDbEntity
  8
0
370
    -3
  6
Continuous
100
AcDbLine
 10
-57.994111
 20
-69.591194
 30
0.0
 11
-61.594111
 21
-69.591194
 31
0.0
  0
ARC
  5
8A
100
AcDbEntity
  8
0
370
    -3
  6
Continuous
100
AcDbCircle
 10
-57.994111
 20
-69.991194
 30
0.0
 40
0.4
100
AcDbArc
 50
0.0
 51
90.0
  0
ARC
  5
8B
100
AcDbEntity
  8
0
370
    -3
  6
Continuous
100
AcDbCircle
 10
-61.594111
 20
-68.591194
 30
0.0
 40
1.0
100
AcDbArc
 50
180.0
 51
270.0
  0
LINE
  5
8C
100
AcDbEntity
  8
0
370
    -3
  6
Continuous
100
AcDbLine
 10
-57.994111
 20
-80.091194
 30
0.0
 11
-61.594111
 21
-80.091194
 31
0.0
  0
ARC
  5
8D
100
AcDbEntity
  8
0
370
    -3
  6
Continuous
100
AcDbCircle
 10
-57.994111
 20
-79.691194
 30
0.0
 40
0.4
100
AcDbArc
 50
270.0
 51
0.0
  0
ARC
  5
8E
100
AcDbEntity
  8
0
370
    -3
  6
Continuous
100
AcDbCircle
 10
-61.594111
 20
-81.091194
 30
0.0
 40
1.0
100
AcDbArc
 50
90.0
 51
180.0
  0
LINE
  5
8F
100
AcDbEntity
  8
0
370
    -3
  6
Continuous
100
AcDbLine
 10
-57.594111
 20
-69.991194
 30
0.0
 11
-57.594111
 21
-79.691194
 31
0.0
  0
ARC
  5
90
100
AcDbEntity
  8
0
370
    -3
  6
Continuous
100
AcDbCircle
 10
-61.594111
 20
-131.259956
 30
0.0
 40
1.0
100
AcDbArc
 50
180.0
 51
270.0
  0
LINE
  5
91
100
AcDbEntity
  8
0
370
    -3
  6
Continuous
100
AcDbLine
 10
-62.59411
 20
-138.591193
 30
0.0
 11
-62.59411
 21
-130.091195
 31
0.0
  0
LINE
  5
92
100
AcDbEntity
  8
0
370
    -3
  6
Continuous
100
AcDbLine
 10
-57.59411
 20
-138.591193
 30
0.0
 11
-62.59411
 21
-138.591193
 31
0.0
  0
ARC
  5
93
100
AcDbEntity
  8
0
370
    -3
  6
Continuous
100
AcDbCircle
 10
-57.994111
 20
-132.659956
 30
0.0
 40
0.4
100
AcDbArc
 50
0.0
 51
90.0
  0
LINE
  5
94
100
AcDbEntity
  8
0
370
    -3
  6
Continuous
100
AcDbLine
 10
-57.594111
 20
-132.659956
 30
0.0
 11
-57.594111
 21
-138.341194
 31
0.0
  0
LINE
  5
95
100
AcDbEntity
  8
0
370
    -3
  6
Continuous
100
AcDbLine
 10
-57.594111
 20
-132.659956
 30
0.0
 11
-57.594111
 21
-138.841194
 31
0.0
  0
LINE
  5
96
100
AcDbEntity
  8
0
370
    -3
  6
Continuous
100
AcDbLine
 10
-57.994111
 20
-132.259956
 30
0.0
 11
-61.594111
 21
-132.259956
 31
0.0
  0
ARC
  5
97
100
AcDbEntity
  8
0
370
    -3
  6
Continuous
100
AcDbCircle
 10
-57.994111
 20
-79.691194
 30
0.0
 40
0.4
100
AcDbArc
 50
270.0
 51
0.0
  0
LINE
  5
98
100
AcDbEntity
  8
0
370
    -3
  6
Continuous
100
AcDbLine
 10
-57.59411
 20
-138.841194
 30
0.0
 11
-60.794111
 21
-138.841194
 31
0.0
  0
ARC
  5
99
100
AcDbEntity
  8
0
370
    -3
  6
Continuous
100
AcDbCircle
 10
-57.994111
 20
-69.991194
 30
0.0
 40
0.4
100
AcDbArc
 50
0.0
 51
90.0
  0
LINE
  5
9A
100
AcDbEntity
  8
0
370
    -3
  6
Continuous
100
AcDbLine
 10
-7.620288
 20
-132.445252
 30
0.0
 11
-4.1072
 21
-132.537246
 31
0.0
  0
ARC
  5
9B
100
AcDbEntity
  8
0
370
    -3
  6
Continuous
100
AcDbCircle
 10
-7.594111
 20
-131.445595
 30
0.0
 40
1.0
100
AcDbArc
 50
180.0
 51
268.5
  0
LINE
  5
9C
100
AcDbEntity
  8
0
370
    -3
  6
CENTER
100
AcDbLine
 10
11.901888
 20
-123.480804
 30
0.0
 11
-13.92987
 21
-123.480804
 31
0.0
  0
LINE
  5
9D
100
AcDbEntity
  8
0
370
    -3
  6
CENTER
100
AcDbLine
 10
11.901888
 20
3.798416
 30
0.0
 11
-13.92987
 21
3.798416
 31
0.0
  0
LINE
  5
9E
100
AcDbEntity
  8
0
370
    -3
  6
Continuous
100
AcDbLine
 10
-88.094111
 20
-57.841194
 30
0.0
 11
-62.594111
 21
-57.841194
 31
0.0
  0
LINE
  5
9F
100
AcDbEntity
  8
0
370
    -3
  6
Continuous
100
AcDbLine
 10
-88.094111
 20
-53.01114
 30
0.0
 11
-62.594111
 21
-53.01114
 31
0.0
  0
LINE
  5
A0
100
AcDbEntity
  8
0
370
    -3
  6
Continuous
100
AcDbLine
 10
-88.094111
 20
-51.64926
 30
0.0
 11
-62.594111
 21
-51.64926
 31
0.0
  0
LINE
  5
A1
100
AcDbEntity
  8
0
370
    -3
  6
Continuous
100
AcDbLine
 10
-88.094111
 20
-47.55876
 30
0.0
 11
-62.594111
 21
-47.55876
 31
0.0
  0
LINE
  5
A2
100
AcDbEntity
  8
0
370
    -3
  6
Continuous
100
AcDbLine
 10
-88.094111
 20
-46.090402
 30
0.0
 11
-62.594111
 21
-46.090402
 31
0.0
  0
LINE
  5
A3
100
AcDbEntity
  8
0
370
    -3
  6
Continuous
100
AcDbLine
 10
-88.094111
 20
-42.126657
 30
0.0
 11
-62.594111
 21
-42.126657
 31
0.0
  0
LINE
  5
A4
100
AcDbEntity
  8
0
370
    -3
  6
Continuous
100
AcDbLine
 10
-88.094111
 20
-40.522009
 30
0.0
 11
-62.594111
 21
-40.522009
 31
0.0
  0
LINE
  5
A5
100
AcDbEntity
  8
0
370
    -3
  6
Continuous
100
AcDbLine
 10
-88.094111
 20
-32.475407
 30
0.0
 11
-62.594111
 21
-32.475407
 31
0.0
  0
LINE
  5
A6
100
AcDbEntity
  8
0
370
    -3
  6
Continuous
100
AcDbLine
 10
-88.094111
 20
-27.52566
 30
0.0
 11
-62.594111
 21
-27.52566
 31
0.0
  0
LINE
  5
A7
100
AcDbEntity
  8
0
370
    -3
  6
Continuous
100
AcDbLine
 10
-88.094111
 20
-22.841194
 30
0.0
 11
-62.594111
 21
-22.841194
 31
0.0
  0
LINE
  5
A8
100
AcDbEntity
  8
0
370
    -3
  6
Continuous
100
AcDbLine
 10
-88.094111
 20
-21.841194
 30
0.0
 11
-62.594111
 21
-21.841194
 31
0.0
  0
LINE
  5
A9
100
AcDbEntity
  8
0
370
    -3
  6
Continuous
100
AcDbLine
 10
-88.094111
 20
-20.841194
 30
0.0
 11
-62.594111
 21
-20.841194
 31
0.0
  0
LINE
  5
AA
100
AcDbEntity
  8
0
370
    -3
  6
Continuous
100
AcDbLine
 10
-88.094111
 20
-20.341194
 30
0.0
 11
-62.594111
 21
-20.341194
 31
0.0
  0
LINE
  5
AB
100
AcDbEntity
  8
0
370
    -3
  6
Continuous
100
AcDbLine
 10
-88.094111
 20
-97.841194
 30
0.0
 11
-62.594111
 21
-97.841194
 31
0.0
  0
LINE
  5
AC
100
AcDbEntity
  8
0
370
    -3
  6
Continuous
100
AcDbLine
 10
-88.094111
 20
-102.671247
 30
0.0
 11
-62.594111
 21
-102.671247
 31
0.0
  0
LINE
  5
AD
100
AcDbEntity
  8
0
370
    -3
  6
Continuous
100
AcDbLine
 10
-88.094111
 20
-104.033128
 30
0.0
 11
-62.594111
 21
-104.033128
 31
0.0
  0
LINE
  5
AE
100
AcDbEntity
  8
0
370
    -3
  6
Continuous
100
AcDbLine
 10
-88.094111
 20
-108.123628
 30
0.0
 11
-62.594111
 21
-108.123628
 31
0.0
  0
LINE
  5
AF
100
AcDbEntity
  8
0
370
    -3
  6
Continuous
100
AcDbLine
 10
-88.094111
 20
-109.591986
 30
0.0
 11
-62.594111
 21
-109.591986
 31
0.0
  0
LINE
  5
B0
100
AcDbEntity
  8
0
370
    -3
  6
Continuous
100
AcDbLine
 10
-88.094111
 20
-113.555731
 30
0.0
 11
-62.594111
 21
-113.555731
 31
0.0
  0
LINE
  5
B1
100
AcDbEntity
  8
0
370
    -3
  6
Continuous
100
AcDbLine
 10
-88.094111
 20
-115.160379
 30
0.0
 11
-62.594111
 21
-115.160379
 31
0.0
  0
LINE
  5
B2
100
AcDbEntity
  8
0
370
    -3
  6
Continuous
100
AcDbLine
 10
-88.094111
 20
-123.206981
 30
0.0
 11
-62.594111
 21
-123.206981
 31
0.0
  0
LINE
  5
B3
100
AcDbEntity
  8
0
370
    -3
  6
Continuous
100
AcDbLine
 10
-88.094111
 20
-132.841194
 30
0.0
 11
-62.59411
 21
-132.841194
 31
0.0
  0
LINE
  5
B4
100
AcDbEntity
  8
0
370
    -3
  6
Continuous
100
AcDbLine
 10
-88.094111
 20
-133.841194
 30
0.0
 11
-62.59411
 21
-133.841194
 31
0.0
  0
LINE
  5
B5
100
AcDbEntity
  8
0
370
    -3
  6
Continuous
100
AcDbLine
 10
-88.094111
 20
-134.841194
 30
0.0
 11
-62.59411
 21
-134.841194
 31
0.0
  0
LINE
  5
B6
100
AcDbEntity
  8
0
370
    -3
  6
Continuous
100
AcDbLine
 10
-88.094111
 20
-135.341194
 30
0.0
 11
-62.59411
 21
-135.341194
 31
0.0
  0
LINE
  5
B7
100
AcDbEntity
  8
0
370
    -3
  6
Continuous
100
AcDbLine
 10
-88.094111
 20
-128.156728
 30
0.0
 11
-62.594111
 21
-128.156728
 31
0.0
  0
INSERT
  5
C0
100
AcDbEntity
  8
0
100
AcDbBlockReference
  2
ZU_SYM__USERS_HOME_SYMBOL_POO_SYM_B20_-1
 10
-57.594111
 20
-74.841194
 30
0.0
  0
LINE
  5
C1
100
AcDbEntity
  8
0
370
    -3
  6
CENTER
100
AcDbLine
 10
210.377054
 20
-146.777166
 30
0.0
 11
210.377054
 21
20.084692
 31
0.0
  0
LINE
  5
C2
100
AcDbEntity
  8
0
370
    -3
  6
Continuous
100
AcDbLine
 10
204.377054
 20
-56.841438
 30
0.0
 11
198.377054
 21
-56.841438
 31
0.0
  0
LINE
  5
C3
100
AcDbEntity
  8
0
370
    -3
  6
Continuous
100
AcDbLine
 10
204.377054
 20
-62.841438
 30
0.0
 11
198.377054
 21
-62.841438
 31
0.0
  0
LINE
  5
C4
100
AcDbEntity
  8
0
370
    -3
  6
Continuous
100
AcDbLine
 10
198.377054
 20
-62.841438
 30
0.0
 11
198.377054
 21
-56.841438
 31
0.0
  0
LINE
  5
C5
100
AcDbEntity
  8
0
370
    -3
  6
Continuous
100
AcDbLine
 10
204.377054
 20
-62.841438
 30
0.0
 11
204.377054
 21
-56.841438
 31
0.0
  0
ARC
  5
C6
100
AcDbEntity
  8
0
370
    -3
  6
Continuous
100
AcDbCircle
 10
210.377054
 20
-59.841438
 30
0.0
 40
9.5
100
AcDbArc
 50
198.434949
 51
161.591512
  0
CIRCLE
  5
C7
100
AcDbEntity
  8
0
370
    -3
  6
Continuous
100
AcDbCircle
 10
210.377054
 20
-59.841438
 30
0.0
 40
3.0
  0
CIRCLE
  5
C8
100
AcDbEntity
  8
0
370
    -3
  6
Continuous
100
AcDbCircle
 10
210.377054
 20
-59.841438
 30
0.0
 40
2.4585
  0
LINE
  5
C9
100
AcDbEntity
  8
0
370
    -3
  6
Continuous
100
AcDbLine
 10
280.877054
 20
-64.841438
 30
0.0
 11
280.026175
 21
-64.841438
 31
0.0
  0
LINE
  5
CA
100
AcDbEntity
  8
0
370
    -3
  6
Continuous
100
AcDbLine
 10
280.877054
 20
-54.841438
 30
0.0
 11
280.026175
 21
-54.841438
 31
0.0
  0
LINE
  5
CB
100
AcDbEntity
  8
0
370
    -3
  6
Continuous
100
AcDbLine
 10
139.877054
 20
-64.841438
 30
0.0
 11
140.727933
 21
-64.841438
 31
0.0
  0
LINE
  5
CC
100
AcDbEntity
  8
0
370
    -3
  6
Continuous
100
AcDbLine
 10
139.877054
 20
-54.841438
 30
0.0
 11
140.727933
 21
-54.841438
 31
0.0
  0
LINE
  5
CD
100
AcDbEntity
  8
0
370
    -3
  6
CENTER
100
AcDbLine
 10
128.638766
 20
-59.841438
 30
0.0
 11
287.238508
 21
-59.841438
 31
0.0
  0
LINE
  5
CE
100
AcDbEntity
  8
0
370
    -3
  6
Continuous
100
AcDbLine
 10
137.877054
 20
-123.841438
 30
0.0
 11
137.877054
 21
4.158562
 31
0.0
  0
LINE
  5
CF
100
AcDbEntity
  8
0
370
    -3
  6
CENTER
100
AcDbLine
 10
268.35981
 20
-1.858682
 30
0.0
 11
279.673518
 21
9.455027
 31
0.0
  0
LINE
  5
D0
100
AcDbEntity
  8
0
370
    -3
  6
CENTER
100
AcDbLine
 10
152.394298
 20
-1.858682
 30
0.0
 11
141.080589
 21
9.455027
 31
0.0
  0
LINE
  5
D1
100
AcDbEntity
  8
0
370
    -3
  6
CENTER
100
AcDbLine
 10
152.394298
 20
-117.824194
 30
0.0
 11
141.080589
 21
-129.137903
 31
0.0
  0
LINE
  5
D2
100
AcDbEntity
  8
0
370
    -3
  6
CENTER
100
AcDbLine
 10
268.35981
 20
-117.824194
 30
0.0
 11
279.673518
 21
-129.137903
 31
0.0
  0
LINE
  5
D3
100
AcDbEntity
  8
0
370
    -3
  6
Continuous
100
AcDbLine
 10
146.377054
 20
12.658562
 30
0.0
 11
274.377054
 21
12.658562
 31
0.0
  0
LINE
  5
D4
100
AcDbEntity
  8
0
370
    -3
  6
Continuous
100
AcDbLine
 10
254.806799
 20
1.55887
 30
0.0
 11
265.320705
 21
12.072776
 31
0.0
  0
LINE
  5
D5
100
AcDbEntity
  8
0
370
    -3
  6
Continuous
100
AcDbLine
 10
271.777362
 20
-15.411693
 30
0.0
 11
282.291267
 21
-4.897787
 31
0.0
  0
LINE
  5
D6
100
AcDbEntity
  8
0
370
    -3
  6
Continuous
100
AcDbLine
 10
282.877054
 20
-123.841438
 30
0.0
 11
282.877054
 21
4.158562
 31
0.0
  0
LINE
  5
D7
100
AcDbEntity
  8
0
370
    -3
  6
Continuous
100
AcDbLine
 10
164.877054
 20
-132.341438
 30
0.0
 11
146.377054
 21
-132.341438
 31
0.0
  0
LINE
  5
D8
100
AcDbEntity
  8
0
370
    -3
  6
Continuous
100
AcDbLine
 10
252.877054
 20
-137.841438
 30
0.0
 11
252.877054
 21
-135.341438
 31
0.0
  0
LINE
  5
D9
100
AcDbEntity
  8
0
370
    -3
  6
Continuous
100
AcDbLine
 10
210.377054
 20
-139.841438
 30
0.0
 11
250.877054
 21
-139.841438
 31
0.0
  0
LINE
  5
DA
100
AcDbEntity
  8
0
370
    -3
  6
Continuous
100
AcDbLine
 10
210.377054
 20
-139.841438
 30
0.0
 11
169.877054
 21
-139.841438
 31
0.0
  0
LINE
  5
DB
100
AcDbEntity
  8
0
370
    -3
  6
Continuous
100
AcDbLine
 10
167.877054
 20
-137.841438
 30
0.0
 11
167.877054
 21
-135.341438
 31
0.0
  0
LINE
  5
DC
100
AcDbEntity
  8
0
370
    -3
  6
Continuous
100
AcDbLine
 10
255.877054
 20
-132.341438
 30
0.0
 11
274.377054
 21
-132.341438
 31
0.0
  0
LINE
  5
DD
100
AcDbEntity
  8
0
370
    -3
  6
CENTER
100
AcDbLine
 10
227.243002
 20
-77.841438
 30
0.0
 11
193.839295
 21
-77.841438
 31
0.0
  0
LINE
  5
DE
100
AcDbEntity
  8
0
370
    -3
  6
Continuous
100
AcDbLine
 10
148.976746
 20
-15.411693
 30
0.0
 11
138.46284
 21
-4.897787
 31
0.0
  0
LINE
  5
DF
100
AcDbEntity
  8
0
370
    -3
  6
Continuous
100
AcDbLine
 10
165.947309
 20
1.55887
 30
0.0
 11
155.433403
 21
12.072776
 31
0.0
  0
LINE
  5
E0
100
AcDbEntity
  8
0
370
    -3
  6
Continuous
100
AcDbLine
 10
148.976746
 20
-104.271183
 30
0.0
 11
138.46284
 21
-114.785089
 31
0.0
  0
LINE
  5
E1
100
AcDbEntity
  8
0
370
    -3
  6
Continuous
100
AcDbLine
 10
165.947309
 20
-121.241746
 30
0.0
 11
155.433403
 21
-131.755652
 31
0.0
  0
LINE
  5
E2
100
AcDbEntity
  8
0
370
    -3
  6
Continuous
100
AcDbLine
 10
271.777362
 20
-104.271183
 30
0.0
 11
282.291267
 21
-114.785089
 31
0.0
  0
LINE
  5
E3
100
AcDbEntity
  8
0
370
    -3
  6
Continuous
100
AcDbLine
 10
254.806799
 20
-121.241746
 30
0.0
 11
265.320705
 21
-131.755652
 31
0.0
  0
ARC
  5
E4
100
AcDbEntity
  8
0
370
    -3
  6
Continuous
100
AcDbCircle
 10
280.877054
 20
-62.841438
 30
0.0
 40
2.0
100
AcDbArc
 50
270.0
 51
0.0
  0
ARC
  5
E5
100
AcDbEntity
  8
0
370
    -3
  6
Continuous
100
AcDbCircle
 10
280.026175
 20
-66.841438
 30
0.0
 40
2.0
100
AcDbArc
 50
90.0
 51
174.26083
  0
ARC
  5
E6
100
AcDbEntity
  8
0
370
    -3
  6
Continuous
100
AcDbCircle
 10
280.877054
 20
-56.841438
 30
0.0
 40
2.0
100
AcDbArc
 50
0.0
 51
90.0
  0
ARC
  5
E7
100
AcDbEntity
  8
0
370
    -3
  6
Continuous
100
AcDbCircle
 10
280.026175
 20
-52.841438
 30
0.0
 40
2.0
100
AcDbArc
 50
185.73917
 51
270.0
  0
ARC
  5
E8
100
AcDbEntity
  8
0
370
    -3
  6
Continuous
100
AcDbCircle
 10
140.727933
 20
-52.841438
 30
0.0
 40
2.0
100
AcDbArc
 50
270.0
 51
354.26083
  0
ARC
  5
E9
100
AcDbEntity
  8
0
370
    -3
  6
Continuous
100
AcDbCircle
 10
140.727933
 20
-66.841438
 30
0.0
 40
2.0
100
AcDbArc
 50
5.73917
 51
90.0
  0
ARC
  5
EA
100
AcDbEntity
  8
0
370
    -3
  6
Continuous
100
AcDbCircle
 10
139.877054
 20
-62.841438
 30
0.0
 40
2.0
100
AcDbArc
 50
180.0
 51
270.0
  0
ARC
  5
EB
100
AcDbEntity
  8
0
370
    -3
  6
Continuous
100
AcDbCircle
 10
139.877054
 20
-56.841438
 30
0.0
 40
2.0
100
AcDbArc
 50
90.0
 51
180.0
  0
ARC
  5
EC
100
AcDbEntity
  8
0
370
    -3
  6
Continuous
100
AcDbCircle
 10
210.377054
 20
-59.841438
 30
0.0
 40
68.0
100
AcDbArc
 50
5.73917
 51
28.61733
  0
ARC
  5
ED
100
AcDbEntity
  8
0
370
    -3
  6
Continuous
100
AcDbCircle
 10
210.377054
 20
-59.841438
 30
0.0
 40
68.0
100
AcDbArc
 50
185.73917
 51
208.61733
  0
CIRCLE
  5
EE
100
AcDbEntity
  8
0
370
    -3
  6
Continuous
100
AcDbCircle
 10
274.016664
 20
-123.481048
 30
0.0
 40
5.3
  0
CIRCLE
  5
EF
100
AcDbEntity
  8
0
370
    -3
  6
Continuous
100
AcDbCircle
 10
146.737444
 20
-123.481048
 30
0.0
 40
5.3
  0
CIRCLE
  5
F0
100
AcDbEntity
  8
0
370
    -3
  6
Continuous
100
AcDbCircle
 10
146.737444
 20
3.798172
 30
0.0
 40
5.3
  0
CIRCLE
  5
F1
100
AcDbEntity
  8
0
370
    -3
  6
Continuous
100
AcDbCircle
 10
274.016664
 20
3.798172
 30
0.0
 40
5.3
  0
ARC
  5
F2
100
AcDbEntity
  8
0
370
    -3
  6
Continuous
100
AcDbCircle
 10
210.377054
 20
-412.341438
 30
0.0
 40
398.525807
100
AcDbArc
 50
86.806153
 51
90.0
  0
ARC
  5
F3
100
AcDbEntity
  8
0
370
    -3
  6
Continuous
100
AcDbCircle
 10
210.377054
 20
-412.341438
 30
0.0
 40
398.525807
100
AcDbArc
 50
90.0
 51
93.193847
  0
ARC
  5
F4
100
AcDbEntity
  8
0
370
    -3
  6
Continuous
100
AcDbCircle
 10
190.877054
 20
-62.885075
 30
0.0
 40
48.525807
100
AcDbArc
 50
93.193847
 51
107.911741
  0
ARC
  5
F5
100
AcDbEntity
  8
0
370
    -3
  6
Continuous
100
AcDbCircle
 10
229.877054
 20
-62.885075
 30
0.0
 40
48.525807
100
AcDbArc
 50
72.088259
 51
86.806153
  0
ARC
  5
F6
100
AcDbEntity
  8
0
370
    -3
  6
Continuous
100
AcDbCircle
 10
245.723898
 20
-13.856652
 30
0.0
 40
3.0
100
AcDbArc
 50
252.088259
 51
52.451819
  0
ARC
  5
F7
100
AcDbEntity
  8
0
370
    -3
  6
Continuous
100
AcDbCircle
 10
175.030209
 20
-13.856652
 30
0.0
 40
3.0
100
AcDbArc
 50
127.548181
 51
287.911741
  0
ARC
  5
F8
100
AcDbEntity
  8
0
370
    -3
  6
CENTER
100
AcDbCircle
 10
210.377054
 20
-59.841438
 30
0.0
 40
90.0
100
AcDbArc
 50
129.906632
 51
140.093368
  0
ARC
  5
F9
100
AcDbEntity
  8
0
370
    -3
  6
CENTER
100
AcDbCircle
 10
210.377054
 20
-59.841438
 30
0.0
 40
90.0
100
AcDbArc
 50
309.906632
 51
320.093368
  0
ARC
  5
FA
100
AcDbEntity
  8
0
370
    -3
  6
Continuous
100
AcDbCircle
 10
274.377054
 20
-123.841438
 30
0.0
 40
8.5
100
AcDbArc
 50
270.0
 51
0.0
  0
CIRCLE
  5
FB
100
AcDbEntity
  8
0
370
    -3
  6
Continuous
100
AcDbCircle
 10
210.377054
 20
-59.841438
 30
0.0
 40
26.956362
  0
ARC
  5
FC
100
AcDbEntity
  8
0
370
    -3
  6
Continuous
100
AcDbCircle
 10
274.377054
 20
4.158562
 30
0.0
 40
8.5
100
AcDbArc
 50
0.0
 51
90.0
  0
ARC
  5
FD
100
AcDbEntity
  8
0
370
    -3
  6
Continuous
100
AcDbCircle
 10
146.377054
 20
-123.841438
 30
0.0
 40
8.5
100
AcDbArc
 50
180.0
 51
270.0
  0
ARC
  5
FE
100
AcDbEntity
  8
0
370
    -3
  6
Continuous
100
AcDbCircle
 10
210.377054
 20
-59.841438
 30
0.0
 40
68.0
100
AcDbArc
 50
61.38267
 51
118.61733
  0
ARC
  5
FF
100
AcDbEntity
  8
0
370
    -3
  6
Continuous
100
AcDbCircle
 10
164.877054
 20
-135.341438
 30
0.0
 40
3.0
100
AcDbArc
 50
0.0
 51
90.0
  0
ARC
  5
100
100
AcDbEntity
  8
0
370
    -3
  6
Continuous
100
AcDbCircle
 10
146.377054
 20
4.158562
 30
0.0
 40
8.5
100
AcDbArc
 50
90.0
 51
180.0
  0
ARC
  5
101
100
AcDbEntity
  8
0
370
    -3
  6
Continuous
100
AcDbCircle
 10
250.877054
 20
-137.841438
 30
0.0
 40
2.0
100
AcDbArc
 50
270.0
 51
0.0
  0
ARC
  5
102
100
AcDbEntity
  8
0
370
    -3
  6
Continuous
100
AcDbCircle
 10
169.877054
 20
-137.841438
 30
0.0
 40
2.0
100
AcDbArc
 50
180.0
 51
270.0
  0
ARC
  5
103
100
AcDbEntity
  8
0
370
    -3
  6
Continuous
100
AcDbCircle
 10
255.877054
 20
-135.341438
 30
0.0
 40
3.0
100
AcDbArc
 50
90.0
 51
180.0
  0
ARC
  5
104
100
AcDbEntity
  8
0
370
    -3
  6
Continuous
100
AcDbCircle
 10
280.877054
 20
-3.483574
 30
0.0
 40
2.0
100
AcDbArc
 50
315.0
 51
0.0
  0
ARC
  5
105
100
AcDbEntity
  8
0
370
    -3
  6
Continuous
100
AcDbCircle
 10
247.735731
 20
8.629937
 30
0.0
 40
10.0
100
AcDbArc
 50
241.38267
 51
315.0
  0
ARC
  5
106
100
AcDbEntity
  8
0
370
    -3
  6
Continuous
100
AcDbCircle
 10
139.877054
 20
-3.483574
 30
0.0
 40
2.0
100
AcDbArc
 50
180.0
 51
225.0
  0
ARC
  5
107
100
AcDbEntity
  8
0
370
    -3
  6
Continuous
100
AcDbCircle
 10
278.848429
 20
-22.482761
 30
0.0
 40
10.0
100
AcDbArc
 50
135.0
 51
208.61733
  0
ARC
  5
108
100
AcDbEntity
  8
0
370
    -3
  6
Continuous
100
AcDbCircle
 10
154.01919
 20
10.658562
 30
0.0
 40
2.0
100
AcDbArc
 50
45.0
 51
90.0
  0
ARC
  5
109
100
AcDbEntity
  8
0
370
    -3
  6
Continuous
100
AcDbCircle
 10
210.377054
 20
-59.841438
 30
0.0
 40
68.0
100
AcDbArc
 50
331.38267
 51
354.26083
  0
ARC
  5
10A
100
AcDbEntity
  8
0
370
    -3
  6
Continuous
100
AcDbCircle
 10
173.018377
 20
8.629937
 30
0.0
 40
10.0
100
AcDbArc
 50
225.0
 51
298.61733
  0
ARC
  5
10B
100
AcDbEntity
  8
0
370
    -3
  6
Continuous
100
AcDbCircle
 10
141.905679
 20
-22.482761
 30
0.0
 40
10.0
100
AcDbArc
 50
331.38267
 51
45.0
  0
ARC
  5
10C
100
AcDbEntity
  8
0
370
    -3
  6
Continuous
100
AcDbCircle
 10
266.734918
 20
10.658562
 30
0.0
 40
2.0
100
AcDbArc
 50
90.0
 51
135.0
  0
ARC
  5
10D
100
AcDbEntity
  8
0
370
    -3
  6
Continuous
100
AcDbCircle
 10
139.877054
 20
-116.199302
 30
0.0
 40
2.0
100
AcDbArc
 50
135.0
 51
180.0
  0
ARC
  5
10E
100
AcDbEntity
  8
0
370
    -3
  6
Continuous
100
AcDbCircle
 10
154.01919
 20
-130.341438
 30
0.0
 40
2.0
100
AcDbArc
 50
270.0
 51
315.0
  0
ARC
  5
10F
100
AcDbEntity
  8
0
370
    -3
  6
Continuous
100
AcDbCircle
 10
173.018377
 20
-128.312813
 30
0.0
 40
10.0
100
AcDbArc
 50
61.38267
 51
135.0
  0
ARC
  5
110
100
AcDbEntity
  8
0
370
    -3
  6
Continuous
100
AcDbCircle
 10
141.905679
 20
-97.200115
 30
0.0
 40
10.0
100
AcDbArc
 50
315.0
 51
28.61733
  0
ARC
  5
111
100
AcDbEntity
  8
0
370
    -3
  6
Continuous
100
AcDbCircle
 10
280.877054
 20
-116.199302
 30
0.0
 40
2.0
100
AcDbArc
 50
0.0
 51
45.0
  0
ARC
  5
112
100
AcDbEntity
  8
0
370
    -3
  6
Continuous
100
AcDbCircle
 10
266.734918
 20
-130.341438
 30
0.0
 40
2.0
100
AcDbArc
 50
225.0
 51
270.0
  0
ARC
  5
113
100
AcDbEntity
  8
0
370
    -3
  6
Continuous
100
AcDbCircle
 10
247.735731
 20
-128.312813
 30
0.0
 40
10.0
100
AcDbArc
 50
45.0
 51
118.61733
  0
ARC
  5
114
100
AcDbEntity
  8
0
370
    -3
  6
Continuous
100
AcDbCircle
 10
278.848429
 20
-97.200115
 30
0.0
 40
10.0
100
AcDbArc
 50
151.38267
 51
225.0
  0
ARC
  5
115
100
AcDbEntity
  8
0
370
    -3
  6
Continuous
100
AcDbCircle
 10
210.377054
 20
-59.841438
 30
0.0
 40
68.0
100
AcDbArc
 50
241.38267
 51
298.61733
  0
ARC
  5
116
100
AcDbEntity
  8
0
370
    -3
  6
Continuous
100
AcDbCircle
 10
210.377054
 20
-59.841438
 30
0.0
 40
68.0
100
AcDbArc
 50
151.38267
 51
174.26083
  0
CIRCLE
  5
117
100
AcDbEntity
  8
0
370
    -3
  6
Continuous
100
AcDbCircle
 10
210.377054
 20
-59.841438
 30
0.0
 40
22.0
  0
CIRCLE
  5
118
100
AcDbEntity
  8
0
370
    -3
  6
Continuous
100
AcDbCircle
 10
210.377054
 20
-59.841438
 30
0.0
 40
61.0
  0
CIRCLE
  5
119
100
AcDbEntity
  8
0
370
    -3
  6
Continuous
100
AcDbCircle
 10
210.377054
 20
-59.841438
 30
0.0
 40
17.5
  0
CIRCLE
  5
11A
100
AcDbEntity
  8
0
370
    -3
  6
Continuous
100
AcDbCircle
 10
210.377054
 20
-59.841438
 30
0.0
 40
64.918148
  0
ARC
  5
11B
100
AcDbEntity
  8
0
370
    -3
  6
Continuous
100
AcDbCircle
 10
-420.681409
 20
4.158806
 30
0.0
 40
8.5
100
AcDbArc
 50
0.0
 51
90.0
  0
LINE
  5
11C
100
AcDbEntity
  8
0
370
    -3
  6
Continuous
100
AcDbLine
 10
-74.594111
 20
242.998538
 30
0.0
 11
-64.594111
 21
242.998538
 31
0.0
  0
ARC
  5
11D
100
AcDbEntity
  8
0
370
    -3
  6
Continuous
100
AcDbCircle
 10
-62.094111
 20
259.498538
 30
0.0
 40
0.5
100
AcDbArc
 50
90.0
 51
180.0
  0
ARC
  5
11E
100
AcDbEntity
  8
0
370
    -3
  6
Continuous
100
AcDbCircle
 10
-74.594111
 20
252.998538
 30
0.0
 40
10.0
100
AcDbArc
 50
199.082118
 51
270.0
  0
ARC
  5
11F
100
AcDbEntity
  8
0
370
    -3
  6
Continuous
100
AcDbCircle
 10
-64.594111
 20
244.998538
 30
0.0
 40
2.0
100
AcDbArc
 50
270.0
 51
0.0
  0
ARC
  5
120
100
AcDbEntity
  8
0
370
    -3
  6
Continuous
100
AcDbCircle
 10
-84.517147
 20
249.565847
 30
0.0
 40
0.5
100
AcDbArc
 50
19.082118
 51
91.5
  0
LINE
  5
121
100
AcDbEntity
  8
0
370
    -3
  6
Continuous
100
AcDbLine
 10
-62.094111
 20
259.998538
 30
0.0
 11
-52.594111
 21
259.998538
 31
0.0
  0
LINE
  5
122
100
AcDbEntity
  8
0
370
    -3
  6
Continuous
100
AcDbLine
 10
-84.530235
 20
250.065676
 30
0.0
 11
-88.094111
 21
249.972353
 31
0.0
  0
LINE
  5
123
100
AcDbEntity
  8
0
370
    -3
  6
Continuous
100
AcDbLine
 10
-88.094111
 20
190.498538
 30
0.0
 11
-88.094111
 21
249.972353
 31
0.0
  0
LINE
  5
124
100
AcDbEntity
  8
0
370
    -3
  6
Continuous
100
AcDbLine
 10
-57.994111
 20
218.248538
 30
0.0
 11
-61.594111
 21
218.248538
 31
0.0
  0
ARC
  5
125
100
AcDbEntity
  8
0
370
    -3
  6
Continuous
100
AcDbCircle
 10
-57.994111
 20
218.648538
 30
0.0
 40
0.4
100
AcDbArc
 50
270.0
 51
0.0
  0
ARC
  5
126
100
AcDbEntity
  8
0
370
    -3
  6
Continuous
100
AcDbCircle
 10
-61.594111
 20
217.248538
 30
0.0
 40
1.0
100
AcDbArc
 50
90.0
 51
180.0
  0
LINE
  5
127
100
AcDbEntity
  8
0
370
    -3
  6
Continuous
100
AcDbLine
 10
-57.994111
 20
228.748538
 30
0.0
 11
-61.594111
 21
228.748538
 31
0.0
  0
ARC
  5
128
100
AcDbEntity
  8
0
370
    -3
  6
Continuous
100
AcDbCircle
 10
-57.994111
 20
228.348538
 30
0.0
 40
0.4
100
AcDbArc
 50
0.0
 51
90.0
  0
ARC
  5
129
100
AcDbEntity
  8
0
370
    -3
  6
Continuous
100
AcDbCircle
 10
-61.594111
 20
229.748538
 30
0.0
 40
1.0
100
AcDbArc
 50
180.0
 51
270.0
  0
LINE
  5
12A
100
AcDbEntity
  8
0
370
    -3
  6
Continuous
100
AcDbLine
 10
-57.594111
 20
218.648538
 30
0.0
 11
-57.594111
 21
228.348538
 31
0.0
  0
ARC
  5
12B
100
AcDbEntity
  8
0
370
    -3
  6
Continuous
100
AcDbCircle
 10
-57.994111
 20
228.348538
 30
0.0
 40
0.4
100
AcDbArc
 50
0.0
 51
90.0
  0
ARC
  5
12C
100
AcDbEntity
  8
0
370
    -3
  6
Continuous
100
AcDbCircle
 10
-57.994111
 20
218.648538
 30
0.0
 40
0.4
100
AcDbArc
 50
270.0
 51
0.0
  0
LINE
  5
12D
100
AcDbEntity
  8
0
370
    -3
  6
Continuous
100
AcDbLine
 10
-62.594111
 20
190.498538
 30
0.0
 11
-62.594111
 21
219.248539
 31
0.0
  0
LINE
  5
12E
100
AcDbEntity
  8
0
370
    -3
  6
Continuous
100
AcDbLine
 10
-62.594111
 20
227.748538
 30
0.0
 11
-62.594111
 21
259.498538
 31
0.0
  0
LINE
  5
12F
100
AcDbEntity
  8
0
370
    -3
  6
Continuous
100
AcDbLine
 10
-74.594111
 20
137.998538
 30
0.0
 11
-64.594111
 21
137.998538
 31
0.0
  0
ARC
  5
130
100
AcDbEntity
  8
0
370
    -3
  6
Continuous
100
AcDbCircle
 10
-62.094111
 20
121.498538
 30
0.0
 40
0.5
100
AcDbArc
 50
180.0
 51
270.0
  0
ARC
  5
131
100
AcDbEntity
  8
0
370
    -3
  6
Continuous
100
AcDbCircle
 10
-74.594111
 20
127.998538
 30
0.0
 40
10.0
100
AcDbArc
 50
90.0
 51
160.917882
  0
ARC
  5
132
100
AcDbEntity
  8
0
370
    -3
  6
Continuous
100
AcDbCircle
 10
-64.594111
 20
135.998538
 30
0.0
 40
2.0
100
AcDbArc
 50
0.0
 51
90.0
  0
ARC
  5
133
100
AcDbEntity
  8
0
370
    -3
  6
Continuous
100
AcDbCircle
 10
-84.517147
 20
131.43123
 30
0.0
 40
0.5
100
AcDbArc
 50
268.5
 51
340.917882
  0
LINE
  5
134
100
AcDbEntity
  8
0
370
    -3
  6
Continuous
100
AcDbLine
 10
-62.094111
 20
120.998538
 30
0.0
 11
-52.594111
 21
120.998538
 31
0.0
  0
LINE
  5
135
100
AcDbEntity
  8
0
370
    -3
  6
Continuous
100
AcDbLine
 10
-84.530235
 20
130.931401
 30
0.0
 11
-88.094111
 21
131.024724
 31
0.0
  0
LINE
  5
136
100
AcDbEntity
  8
0
370
    -3
  6
Continuous
100
AcDbLine
 10
-88.094111
 20
190.498538
 30
0.0
 11
-88.094111
 21
131.024724
 31
0.0
  0
LINE
  5
137
100
AcDbEntity
  8
0
370
    -3
  6
Continuous
100
AcDbLine
 10
-57.994111
 20
162.748538
 30
0.0
 11
-61.594111
 21
162.748538
 31
0.0
  0
ARC
  5
138
100
AcDbEntity
  8
0
370
    -3
  6
Continuous
100
AcDbCircle
 10
-57.994111
 20
162.348538
 30
0.0
 40
0.4
100
AcDbArc
 50
0.0
 51
90.0
  0
ARC
  5
139
100
AcDbEntity
  8
0
370
    -3
  6
Continuous
100
AcDbCircle
 10
-61.594111
 20
163.748538
 30
0.0
 40
1.0
100
AcDbArc
 50
180.0
 51
270.0
  0
LINE
  5
13A
100
AcDbEntity
  8
0
370
    -3
  6
Continuous
100
AcDbLine
 10
-57.994111
 20
152.248538
 30
0.0
 11
-61.594111
 21
152.248538
 31
0.0
  0
ARC
  5
13B
100
AcDbEntity
  8
0
370
    -3
  6
Continuous
100
AcDbCircle
 10
-57.994111
 20
152.648538
 30
0.0
 40
0.4
100
AcDbArc
 50
270.0
 51
0.0
  0
ARC
  5
13C
100
AcDbEntity
  8
0
370
    -3
  6
Continuous
100
AcDbCircle
 10
-61.594111
 20
151.248538
 30
0.0
 40
1.0
100
AcDbArc
 50
90.0
 51
180.0
  0
LINE
  5
13D
100
AcDbEntity
  8
0
370
    -3
  6
Continuous
100
AcDbLine
 10
-57.594111
 20
162.348538
 30
0.0
 11
-57.594111
 21
152.648538
 31
0.0
  0
ARC
  5
13E
100
AcDbEntity
  8
0
370
    -3
  6
Continuous
100
AcDbCircle
 10
-57.994111
 20
152.648538
 30
0.0
 40
0.4
100
AcDbArc
 50
270.0
 51
0.0
  0
ARC
  5
13F
100
AcDbEntity
  8
0
370
    -3
  6
Continuous
100
AcDbCircle
 10
-57.994111
 20
162.348538
 30
0.0
 40
0.4
100
AcDbArc
 50
0.0
 51
90.0
  0
LINE
  5
140
100
AcDbEntity
  8
0
370
    -3
  6
Continuous
100
AcDbLine
 10
-62.594111
 20
190.498538
 30
0.0
 11
-62.594111
 21
161.748538
 31
0.0
  0
LINE
  5
141
100
AcDbEntity
  8
0
370
    -3
  6
Continuous
100
AcDbLine
 10
-62.594111
 20
153.248539
 30
0.0
 11
-62.594111
 21
121.498538
 31
0.0
  0
LINE
  5
142
100
AcDbEntity
  8
0
370
    -3
  6
Continuous
100
AcDbLine
 10
-52.594111
 20
120.998538
 30
0.0
 11
-52.094111
 21
120.998538
 31
0.0
  0
LINE
  5
143
100
AcDbEntity
  8
0
370
    -3
  6
Continuous
100
AcDbLine
 10
-52.594111
 20
259.998538
 30
0.0
 11
-52.094111
 21
259.998538
 31
0.0
  0
LINE
  5
144
100
AcDbEntity
  8
0
370
    -3
  6
Continuous
100
AcDbLine
 10
-3.594111
 20
138.074873
 30
0.0
 11
-3.594111
 21
190.498538
 31
0.0
  0
LINE
  5
145
100
AcDbEntity
  8
0
370
    -3
  6
Continuous
100
AcDbLine
 10
-3.594111
 20
242.922204
 30
0.0
 11
-3.594111
 21
190.498538
 31
0.0
  0
ARC
  5
146
100
AcDbEntity
  8
0
370
    -3
  6
Continuous
100
AcDbCircle
 10
-0.594111
 20
138.074873
 30
0.0
 40
3.0
100
AcDbArc
 50
180.0
 51
268.5
  0
LINE
  5
147
100
AcDbEntity
  8
0
370
    -3
  6
Continuous
100
AcDbLine
 10
-0.672642
 20
135.075901
 30
0.0
 11
3.405889
 21
134.969101
 31
0.0
  0
ARC
  5
148
100
AcDbEntity
  8
0
370
    -3
  6
Continuous
100
AcDbCircle
 10
-0.594111
 20
154.760954
 30
0.0
 40
3.0
100
AcDbArc
 50
180.0
 51
268.5
  0
LINE
  5
149
100
AcDbEntity
  8
0
370
    -3
  6
Continuous
100
AcDbLine
 10
-0.672642
 20
151.761982
 30
0.0
 11
3.405889
 21
151.655182
 31
0.0
  0
ARC
  5
14A
100
AcDbEntity
  8
0
370
    -3
  6
Continuous
100
AcDbCircle
 10
-0.594111
 20
242.922204
 30
0.0
 40
3.0
100
AcDbArc
 50
91.5
 51
180.0
  0
LINE
  5
14B
100
AcDbEntity
  8
0
370
    -3
  6
Continuous
100
AcDbLine
 10
-0.672642
 20
245.921176
 30
0.0
 11
3.405889
 21
246.027976
 31
0.0
  0
ARC
  5
14C
100
AcDbEntity
  8
0
370
    -3
  6
Continuous
100
AcDbCircle
 10
-0.594111
 20
226.236123
 30
0.0
 40
3.0
100
AcDbArc
 50
91.5
 51
180.0
  0
LINE
  5
14D
100
AcDbEntity
  8
0
370
    -3
  6
Continuous
100
AcDbLine
 10
-0.672642
 20
229.235095
 30
0.0
 11
3.405889
 21
229.341895
 31
0.0
  0
ARC
  5
14E
100
AcDbEntity
  8
0
370
    -3
  6
Continuous
100
AcDbCircle
 10
-7.594111
 20
118.710836
 30
0.0
 40
1.0
100
AcDbArc
 50
180.0
 51
271.5
  0
LINE
  5
14F
100
AcDbEntity
  8
0
370
    -3
  6
Continuous
100
AcDbLine
 10
-8.594111
 20
118.710836
 30
0.0
 11
-8.594111
 21
262.102939
 31
0.0
  0
LINE
  5
150
100
AcDbEntity
  8
0
370
    -3
  6
Continuous
100
AcDbLine
 10
-7.567934
 20
117.711179
 30
0.0
 11
3.405889
 21
117.998538
 31
0.0
  0
LINE
  5
151
100
AcDbEntity
  8
0
370
    -3
  6
Continuous
100
AcDbLine
 10
6.405889
 20
190.498538
 30
0.0
 11
6.405889
 21
126.298538
 31
0.0
  0
LINE
  5
152
100
AcDbEntity
  8
0
370
    -3
  6
Continuous
100
AcDbLine
 10
6.405889
 20
190.498538
 30
0.0
 11
6.405889
 21
254.698538
 31
0.0
  0
LINE
  5
153
100
AcDbEntity
  8
0
370
    -3
  6
Continuous
100
AcDbLine
 10
3.405889
 20
190.498538
 30
0.0
 11
3.405889
 21
117.998538
 31
0.0
  0
LINE
  5
154
100
AcDbEntity
  8
0
370
    -3
  6
Continuous
100
AcDbLine
 10
9.932661
 20
213.057807
 30
0.0
 11
6.405889
 21
217.225811
 31
0.0
  0
LINE
  5
155
100
AcDbEntity
  8
0
370
    -3
  6
Continuous
100
AcDbLine
 10
9.932661
 20
167.93927
 30
0.0
 11
6.405889
 21
163.771266
 31
0.0
  0
LINE
  5
156
100
AcDbEntity
  8
0
370
    -3
  6
Continuous
100
AcDbLine
 10
3.405889
 20
190.498538
 30
0.0
 11
3.405889
 21
262.998538
 31
0.0
  0
LINE
  5
157
100
AcDbEntity
  8
0
370
    -3
  6
Continuous
100
AcDbLine
 10
5.626563
 20
125.498538
 30
0.0
 11
3.405889
 21
125.498538
 31
0.0
  0
LINE
  5
158
100
AcDbEntity
  8
0
370
    -3
  6
Continuous
100
AcDbLine
 10
5.626563
 20
255.498538
 30
0.0
 11
3.405889
 21
255.498538
 31
0.0
  0
ARC
  5
159
100
AcDbEntity
  8
0
370
    -3
  6
Continuous
100
AcDbCircle
 10
8.405889
 20
169.231154
 30
0.0
 40
2.0
100
AcDbArc
 50
319.763642
 51
0.0
  0
ARC
  5
15A
100
AcDbEntity
  8
0
370
    -3
  6
Continuous
100
AcDbCircle
 10
8.405889
 20
211.765923
 30
0.0
 40
2.0
100
AcDbArc
 50
0.0
 51
40.236358
  0
ARC
  5
15B
100
AcDbEntity
  8
0
370
    -3
  6
Continuous
100
AcDbCircle
 10
-7.594111
 20
262.102939
 30
0.0
 40
1.0
100
AcDbArc
 50
91.5
 51
180.0
  0
LINE
  5
15C
100
AcDbEntity
  8
0
370
    -3
  6
Continuous
100
AcDbLine
 10
10.405889
 20
190.498538
 30
0.0
 11
10.405889
 21
169.231154
 31
0.0
  0
LINE
  5
15D
100
AcDbEntity
  8
0
370
    -3
  6
Continuous
100
AcDbLine
 10
6.405889
 20
126.298538
 30
0.0
 11
5.626563
 21
125.498538
 31
0.0
  0
LINE
  5
15E
100
AcDbEntity
  8
0
370
    -3
  6
Continuous
100
AcDbLine
 10
6.405889
 20
254.698538
 30
0.0
 11
5.626563
 21
255.498538
 31
0.0
  0
LINE
  5
15F
100
AcDbEntity
  8
0
370
    -3
  6
Continuous
100
AcDbLine
 10
10.405889
 20
190.498538
 30
0.0
 11
10.405889
 21
211.765923
 31
0.0
  0
LINE
  5
160
100
AcDbEntity
  8
0
370
    -3
  6
CENTER
100
AcDbLine
 10
49.65819
 20
190.498538
 30
0.0
 11
-324.940673
 21
190.498538
 31
0.0
  0
LINE
  5
161
100
AcDbEntity
  8
0
370
    -3
  6
Continuous
100
AcDbLine
 10
-7.620288
 20
263.102597
 30
0.0
 11
-4.1072
 21
263.19459
 31
0.0
  0
LINE
  5
162
100
AcDbEntity
  8
0
370
    -3
  6
Continuous
100
AcDbLine
 10
-4.094111
 20
263.194933
 30
0.0
 11
3.405889
 21
262.998538
 31
0.0
  0
LINE
  5
163
100
AcDbEntity
  8
0
370
    -3
  6
Continuous
100
AcDbLine
 10
-11.203925
 20
260.712279
 30
0.0
 11
-52.094111
 21
259.998538
 31
0.0
  0
LINE
  5
164
100
AcDbEntity
  8
0
370
    -3
  6
Continuous
100
AcDbLine
 10
-52.094111
 20
120.998538
 30
0.0
 11
-52.094111
 21
259.998538
 31
0.0
  0
ARC
  5
165
100
AcDbEntity
  8
0
370
    -3
  6
Continuous
100
AcDbCircle
 10
-11.256282
 20
263.711822
 30
0.0
 40
3.0
100
AcDbArc
 50
271.0
 51
336.282917
  0
ARC
  5
166
100
AcDbEntity
  8
0
370
    -3
  6
Continuous
100
AcDbCircle
 10
-11.256282
 20
117.285255
 30
0.0
 40
3.0
100
AcDbArc
 50
23.717083
 51
89.0
  0
LINE
  5
167
100
AcDbEntity
  8
0
370
    -3
  6
Continuous
100
AcDbLine
 10
-11.203925
 20
120.284798
 30
0.0
 11
-52.094111
 21
120.998538
 31
0.0
  0
LINE
  5
168
100
AcDbEntity
  8
0
370
    -3
  6
Continuous
100
AcDbLine
 10
-10.594111
 20
192.498538
 30
0.0
 11
-17.810736
 21
192.498538
 31
0.0
  0
LINE
  5
169
100
AcDbEntity
  8
0
370
    -3
  6
Continuous
100
AcDbLine
 10
-10.594111
 20
188.498538
 30
0.0
 11
-17.810736
 21
188.498538
 31
0.0
  0
ARC
  5
16A
100
AcDbEntity
  8
0
370
    -3
  6
Continuous
100
AcDbCircle
 10
-17.810736
 20
194.498538
 30
0.0
 40
2.0
100
AcDbArc
 50
180.0
 51
270.0
  0
ARC
  5
16B
100
AcDbEntity
  8
0
370
    -3
  6
Continuous
100
AcDbCircle
 10
-17.810736
 20
186.498538
 30
0.0
 40
2.0
100
AcDbArc
 50
90.0
 51
180.0
  0
ARC
  5
16C
100
AcDbEntity
  8
0
370
    -3
  6
Continuous
100
AcDbCircle
 10
-10.594111
 20
186.498538
 30
0.0
 40
2.0
100
AcDbArc
 50
0.0
 51
90.0
  0
ARC
  5
16D
100
AcDbEntity
  8
0
370
    -3
  6
Continuous
100
AcDbCircle
 10
-10.594111
 20
194.498538
 30
0.0
 40
2.0
100
AcDbArc
 50
270.0
 51
0.0
  0
LINE
  5
16E
100
AcDbEntity
  8
0
370
    -3
  6
Continuous
100
AcDbLine
 10
-19.210421
 20
231.064806
 30
0.0
 11
-9.040824
 21
243.60274
 31
0.0
  0
ARC
  5
16F
100
AcDbEntity
  8
0
370
    -3
  6
Continuous
100
AcDbCircle
 10
-20.763708
 20
232.324687
 30
0.0
 40
2.0
100
AcDbArc
 50
270.0
 51
320.954274
  0
ARC
  5
170
100
AcDbEntity
  8
0
370
    -3
  6
Continuous
100
AcDbCircle
 10
-10.594111
 20
244.862621
 30
0.0
 40
2.0
100
AcDbArc
 50
320.954274
 51
0.0
  0
ARC
  5
171
100
AcDbEntity
  8
0
370
    -3
  6
Continuous
100
AcDbCircle
 10
-10.594111
 20
248.519475
 30
0.0
 40
2.0
100
AcDbArc
 50
320.954274
 51
0.0
  0
LINE
  5
172
100
AcDbEntity
  8
0
370
    -3
  6
Continuous
100
AcDbLine
 10
-19.210421
 20
234.721661
 30
0.0
 11
-9.040824
 21
247.259594
 31
0.0
  0
ARC
  5
173
100
AcDbEntity
  8
0
370
    -3
  6
Continuous
100
AcDbCircle
 10
-20.763708
 20
235.981542
 30
0.0
 40
2.0
100
AcDbArc
 50
270.0
 51
320.954274
  0
LINE
  5
174
100
AcDbEntity
  8
0
370
    -3
  6
Continuous
100
AcDbLine
 10
-17.920487
 20
230.324687
 30
0.0
 11
-10.117942
 21
230.324687
 31
0.0
  0
LINE
  5
175
100
AcDbEntity
  8
0
370
    -3
  6
Continuous
100
AcDbLine
 10
-17.920487
 20
150.67239
 30
0.0
 11
-10.117942
 21
150.67239
 31
0.0
  0
ARC
  5
176
100
AcDbEntity
  8
0
370
    -3
  6
Continuous
100
AcDbCircle
 10
-10.594111
 20
132.477602
 30
0.0
 40
2.0
100
AcDbArc
 50
0.0
 51
39.045726
  0
LINE
  5
177
100
AcDbEntity
  8
0
370
    -3
  6
Continuous
100
AcDbLine
 10
-19.210421
 20
146.275416
 30
0.0
 11
-9.040824
 21
133.737483
 31
0.0
  0
ARC
  5
178
100
AcDbEntity
  8
0
370
    -3
  6
Continuous
100
AcDbCircle
 10
-20.763708
 20
145.015535
 30
0.0
 40
2.0
100
AcDbArc
 50
39.045726
 51
90.0
  0
ARC
  5
179
100
AcDbEntity
  8
0
370
    -3
  6
Continuous
100
AcDbCircle
 10
-10.594111
 20
136.134456
 30
0.0
 40
2.0
100
AcDbArc
 50
0.0
 51
39.045726
  0
LINE
  5
17A
100
AcDbEntity
  8
0
370
    -3
  6
Continuous
100
AcDbLine
 10
-19.210421
 20
149.932271
 30
0.0
 11
-9.040824
 21
137.394337
 31
0.0
  0
ARC
  5
17B
100
AcDbEntity
  8
0
370
    -3
  6
Continuous
100
AcDbCircle
 10
-20.763708
 20
148.67239
 30
0.0
 40
2.0
100
AcDbArc
 50
39.045726
 51
90.0
  0
LINE
  5
17C
100
AcDbEntity
  8
0
370
    -3
  6
Continuous
100
AcDbLine
 10
12.705906
 20
201.570462
 30
0.0
 11
12.905906
 21
201.370462
 31
0.0
  0
LINE
  5
17D
100
AcDbEntity
  8
0
370
    -3
  6
Continuous
100
AcDbLine
 10
12.905906
 20
190.570462
 30
0.0
 11
12.905906
 21
201.370462
 31
0.0
  0
ARC
  5
17E
100
AcDbEntity
  8
0
370
    -3
  6
Continuous
100
AcDbCircle
 10
13.305906
 20
200.320462
 30
0.0
 40
0.4
100
AcDbArc
 50
180.0
 51
270.0
  0
LINE
  5
17F
100
AcDbEntity
  8
0
370
    -3
  6
Continuous
100
AcDbLine
 10
12.705906
 20
179.498538
 30
0.0
 11
12.905906
 21
179.698538
 31
0.0
  0
LINE
  5
180
100
AcDbEntity
  8
0
370
    -3
  6
Continuous
100
AcDbLine
 10
12.905906
 20
190.498538
 30
0.0
 11
12.905906
 21
179.698538
 31
0.0
  0
ARC
  5
181
100
AcDbEntity
  8
0
370
    -3
  6
Continuous
100
AcDbCircle
 10
13.305906
 20
180.748538
 30
0.0
 40
0.4
100
AcDbArc
 50
90.0
 51
180.0
  0
LINE
  5
182
100
AcDbEntity
  8
0
370
    -3
  6
Continuous
100
AcDbLine
 10
12.705906
 20
201.570462
 30
0.0
 11
10.405889
 21
201.570462
 31
0.0
  0
LINE
  5
183
100
AcDbEntity
  8
0
370
    -3
  6
Continuous
100
AcDbLine
 10
12.705906
 20
179.498538
 30
0.0
 11
10.405889
 21
179.498538
 31
0.0
  0
LINE
  5
184
100
AcDbEntity
  8
0
370
    -3
  6
Continuous
100
AcDbLine
 10
40.905906
 20
190.498538
 30
0.0
 11
40.905906
 21
199.598538
 31
0.0
  0
ARC
  5
185
100
AcDbEntity
  8
0
370
    -3
  6
Continuous
100
AcDbCircle
 10
40.505906
 20
199.598538
 30
0.0
 40
0.4
100
AcDbArc
 50
0.0
 51
90.0
  0
ARC
  5
186
100
AcDbEntity
  8
0
370
    -3
  6
Continuous
100
AcDbCircle
 10
40.505906
 20
181.326615
 30
0.0
 40
0.4
100
AcDbArc
 50
270.0
 51
0.0
  0
LINE
  5
187
100
AcDbEntity
  8
0
370
    -3
  6
Continuous
100
AcDbLine
 10
40.905906
 20
190.426615
 30
0.0
 11
40.905906
 21
178.426615
 31
0.0
  0
LINE
  5
188
100
AcDbEntity
  8
0
370
    -3
  6
Continuous
100
AcDbLine
 10
40.905906
 20
178.426615
 30
0.0
 11
15.905907
 21
178.426615
 31
0.0
  0
LINE
  5
189
100
AcDbEntity
  8
0
370
    -3
  6
Continuous
100
AcDbLine
 10
15.465713
 20
180.926615
 30
0.0
 11
14.905906
 21
181.076615
 31
0.0
  0
LINE
  5
18A
100
AcDbEntity
  8
0
370
    -3
  6
Continuous
100
AcDbLine
 10
40.505906
 20
180.926615
 30
0.0
 11
15.465713
 21
180.926615
 31
0.0
  0
LINE
  5
18B
100
AcDbEntity
  8
0
370
    -3
  6
Continuous
100
AcDbLine
 10
15.905906
 20
180.926615
 30
0.0
 11
15.905906
 21
178.426615
 31
0.0
  0
LINE
  5
18C
100
AcDbEntity
  8
0
370
    -3
  6
Continuous
100
AcDbLine
 10
14.905906
 20
181.076615
 30
0.0
 11
13.305906
 21
181.076615
 31
0.0
  0
LINE
  5
18D
100
AcDbEntity
  8
0
370
    -3
  6
Continuous
100
AcDbLine
 10
40.505906
 20
199.998538
 30
0.0
 11
15.465713
 21
199.998538
 31
0.0
  0
LINE
  5
18E
100
AcDbEntity
  8
0
370
    -3
  6
Continuous
100
AcDbLine
 10
14.905906
 20
199.848538
 30
0.0
 11
13.305906
 21
199.848538
 31
0.0
  0
LINE
  5
18F
100
AcDbEntity
  8
0
370
    -3
  6
Continuous
100
AcDbLine
 10
15.465713
 20
199.998538
 30
0.0
 11
14.905906
 21
199.848538
 31
0.0
  0
LINE
  5
190
100
AcDbEntity
  8
0
370
    -3
  6
CENTER
100
AcDbLine
 10
11.901888
 20
126.858928
 30
0.0
 11
-13.92987
 21
126.858928
 31
0.0
  0
LINE
  5
191
100
AcDbEntity
  8
0
370
    -3
  6
CENTER
100
AcDbLine
 10
11.901888
 20
254.138149
 30
0.0
 11
-13.92987
 21
254.138149
 31
0.0
  0
LINE
  5
192
100
AcDbEntity
  8
0
370
    -3
  6
Continuous
100
AcDbLine
 10
-52.594111
 20
259.998538
 30
0.0
 11
-52.594111
 21
190.498538
 31
0.0
  0
LINE
  5
193
100
AcDbEntity
  8
0
370
    -3
  6
Continuous
100
AcDbLine
 10
-52.594111
 20
120.998538
 30
0.0
 11
-52.594111
 21
190.498538
 31
0.0
  0
LINE
  5
194
100
AcDbEntity
  8
0
370
    -3
  6
Continuous
100
AcDbLine
 10
-57.594111
 20
153.248539
 30
0.0
 11
-62.594111
 21
153.248539
 31
0.0
  0
LINE
  5
195
100
AcDbEntity
  8
0
370
    -3
  6
Continuous
100
AcDbLine
 10
-57.594111
 20
161.748538
 30
0.0
 11
-62.594111
 21
161.748538
 31
0.0
  0
LINE
  5
196
100
AcDbEntity
  8
0
370
    -3
  6
Continuous
100
AcDbLine
 10
-62.594111
 20
153.248539
 30
0.0
 11
-62.594111
 21
161.748538
 31
0.0
  0
LINE
  5
197
100
AcDbEntity
  8
0
370
    -3
  6
Continuous
100
AcDbLine
 10
-57.594111
 20
162.098538
 30
0.0
 11
-57.594111
 21
152.898539
 31
0.0
  0
LINE
  5
198
100
AcDbEntity
  8
0
370
    -3
  6
Continuous
100
AcDbLine
 10
-57.594111
 20
227.748538
 30
0.0
 11
-62.594111
 21
227.748538
 31
0.0
  0
LINE
  5
199
100
AcDbEntity
  8
0
370
    -3
  6
Continuous
100
AcDbLine
 10
-57.594111
 20
219.248539
 30
0.0
 11
-62.594111
 21
219.248539
 31
0.0
  0
LINE
  5
19A
100
AcDbEntity
  8
0
370
    -3
  6
Continuous
100
AcDbLine
 10
-62.594111
 20
227.748538
 30
0.0
 11
-62.594111
 21
219.248539
 31
0.0
  0
LINE
  5
19B
100
AcDbEntity
  8
0
370
    -3
  6
Continuous
100
AcDbLine
 10
-57.594111
 20
218.898539
 30
0.0
 11
-57.594111
 21
228.098538
 31
0.0
  0
LINE
  5
19C
100
AcDbEntity
  8
0
370
    -3
  6
Continuous
100
AcDbLine
 10
-88.094111
 20
250.003951
 30
0.0
 11
-88.094111
 21
131.003951
 31
0.0
  0
ARC
  5
19D
100
AcDbEntity
  8
0
370
    -3
  6
Continuous
100
AcDbCircle
 10
-541.99321
 20
-8.202432
 30
0.0
 40
2.0
100
AcDbArc
 50
45.0
 51
135.0
  0
ARC
  5
19E
100
AcDbEntity
  8
0
370
    -3
  6
Continuous
100
AcDbCircle
 10
-536.336355
 20
-2.545577
 30
0.0
 40
2.0
100
AcDbArc
 50
135.0
 51
225.0
  0
ARC
  5
19F
100
AcDbEntity
  8
0
370
    -3
  6
Continuous
100
AcDbCircle
 10
-427.369608
 20
-8.202432
 30
0.0
 40
2.0
100
AcDbArc
 50
45.0
 51
135.0
  0
ARC
  5
1A0
100
AcDbEntity
  8
0
370
    -3
  6
Continuous
100
AcDbCircle
 10
-433.026462
 20
-2.545577
 30
0.0
 40
2.0
100
AcDbArc
 50
315.0
 51
45.0
  0
ARC
  5
1A1
100
AcDbEntity
  8
0
370
    -3
  6
Continuous
100
AcDbCircle
 10
-488.681409
 20
5.650079
 30
0.0
 40
2.0
100
AcDbArc
 50
0.0
 51
90.0
  0
ARC
  5
1A2
100
AcDbEntity
  8
0
370
    -3
  6
Continuous
100
AcDbCircle
 10
-480.681409
 20
5.650079
 30
0.0
 40
2.0
100
AcDbArc
 50
90.0
 51
180.0
  0
CIRCLE
  5
1A3
100
AcDbEntity
  8
0
370
    -3
  6
Continuous
100
AcDbCircle
 10
-548.321019
 20
3.798416
 30
0.0
 40
5.0
  0
ARC
  5
1A4
100
AcDbEntity
  8
0
370
    -3
  6
CENTER
100
AcDbCircle
 10
-484.681409
 20
-59.841194
 30
0.0
 40
90.0
100
AcDbArc
 50
129.906632
 51
140.093368
  0
ARC
  5
1A5
100
AcDbEntity
  8
0
370
    -3
  6
CENTER
100
AcDbCircle
 10
-484.681409
 20
-59.841194
 30
0.0
 40
90.0
100
AcDbArc
 50
39.906632
 51
50.093368
  0
CIRCLE
  5
1A6
100
AcDbEntity
  8
0
370
    -3
  6
Continuous
100
AcDbCircle
 10
-421.041798
 20
3.798416
 30
0.0
 40
5.0
  0
ARC
  5
1A7
100
AcDbEntity
  8
0
370
    -3
  6
Continuous
100
AcDbCircle
 10
-548.681409
 20
4.158806
 30
0.0
 40
8.5
100
AcDbArc
 50
90.0
 51
180.0
  0
LINE
  5
1A8
100
AcDbEntity
  8
0
370
    -3
  6
CENTER
100
AcDbLine
 10
-542.664165
 20
-1.858438
 30
0.0
 11
-553.977873
 21
9.455271
 31
0.0
  0
LINE
  5
1A9
100
AcDbEntity
  8
0
370
    -3
  6
CENTER
100
AcDbLine
 10
-426.698653
 20
-1.858438
 30
0.0
 11
-415.384944
 21
9.455271
 31
0.0
  0
LINE
  5
1AA
100
AcDbEntity
  8
0
370
    -3
  6
Continuous
100
AcDbLine
 10
-420.681409
 20
12.658806
 30
0.0
 11
-548.681409
 21
12.658806
 31
0.0
  0
LINE
  5
1AB
100
AcDbEntity
  8
0
370
    -3
  6
Continuous
100
AcDbLine
 10
-88.094111
 20
175.498538
 30
0.0
 11
-62.594111
 21
175.498538
 31
0.0
  0
LINE
  5
1AC
100
AcDbEntity
  8
0
370
    -3
  6
Continuous
100
AcDbLine
 10
-88.094111
 20
171.125277
 30
0.0
 11
-62.594111
 21
171.125277
 31
0.0
  0
LINE
  5
1AD
100
AcDbEntity
  8
0
370
    -3
  6
Continuous
100
AcDbLine
 10
-88.094111
 20
169.859039
 30
0.0
 11
-62.594111
 21
169.859039
 31
0.0
  0
LINE
  5
1AE
100
AcDbEntity
  8
0
370
    -3
  6
Continuous
100
AcDbLine
 10
-88.094111
 20
165.668485
 30
0.0
 11
-62.594111
 21
165.668485
 31
0.0
  0
LINE
  5
1AF
100
AcDbEntity
  8
0
370
    -3
  6
Continuous
100
AcDbLine
 10
-88.094111
 20
164.306605
 30
0.0
 11
-62.594111
 21
164.306605
 31
0.0
  0
LINE
  5
1B0
100
AcDbEntity
  8
0
370
    -3
  6
Continuous
100
AcDbLine
 10
-88.094111
 20
160.216104
 30
0.0
 11
-62.594111
 21
160.216104
 31
0.0
  0
LINE
  5
1B1
100
AcDbEntity
  8
0
370
    -3
  6
Continuous
100
AcDbLine
 10
-88.094111
 20
158.747747
 30
0.0
 11
-62.594111
 21
158.747747
 31
0.0
  0
LINE
  5
1B2
100
AcDbEntity
  8
0
370
    -3
  6
Continuous
100
AcDbLine
 10
-88.094111
 20
154.784001
 30
0.0
 11
-62.594111
 21
154.784001
 31
0.0
  0
LINE
  5
1B3
100
AcDbEntity
  8
0
370
    -3
  6
Continuous
100
AcDbLine
 10
-88.094111
 20
153.179353
 30
0.0
 11
-62.594111
 21
153.179353
 31
0.0
  0
LINE
  5
1B4
100
AcDbEntity
  8
0
370
    -3
  6
Continuous
100
AcDbLine
 10
-88.094111
 20
145.132752
 30
0.0
 11
-62.594111
 21
145.132752
 31
0.0
  0
LINE
  5
1B5
100
AcDbEntity
  8
0
370
    -3
  6
Continuous
100
AcDbLine
 10
-88.094111
 20
140.183004
 30
0.0
 11
-62.594111
 21
140.183004
 31
0.0
  0
LINE
  5
1B6
100
AcDbEntity
  8
0
370
    -3
  6
Continuous
100
AcDbLine
 10
-88.094111
 20
135.498538
 30
0.0
 11
-81.20849
 21
135.498538
 31
0.0
  0
LINE
  5
1B7
100
AcDbEntity
  8
0
370
    -3
  6
Continuous
100
AcDbLine
 10
-88.094111
 20
134.498538
 30
0.0
 11
-82.193453
 21
134.498538
 31
0.0
  0
LINE
  5
1B8
100
AcDbEntity
  8
0
370
    -3
  6
Continuous
100
AcDbLine
 10
-88.094111
 20
133.498538
 30
0.0
 11
-82.945758
 21
133.498538
 31
0.0
  0
LINE
  5
1B9
100
AcDbEntity
  8
0
370
    -3
  6
Continuous
100
AcDbLine
 10
-88.094111
 20
240.814073
 30
0.0
 11
-62.594111
 21
240.814073
 31
0.0
  0
LINE
  5
1BA
100
AcDbEntity
  8
0
370
    -3
  6
Continuous
100
AcDbLine
 10
-88.094111
 20
235.864325
 30
0.0
 11
-62.594111
 21
235.864325
 31
0.0
  0
LINE
  5
1BB
100
AcDbEntity
  8
0
370
    -3
  6
Continuous
100
AcDbLine
 10
-88.094111
 20
227.817724
 30
0.0
 11
-62.594111
 21
227.817724
 31
0.0
  0
LINE
  5
1BC
100
AcDbEntity
  8
0
370
    -3
  6
Continuous
100
AcDbLine
 10
-88.094111
 20
226.213076
 30
0.0
 11
-62.594111
 21
226.213076
 31
0.0
  0
LINE
  5
1BD
100
AcDbEntity
  8
0
370
    -3
  6
Continuous
100
AcDbLine
 10
-88.094111
 20
222.24933
 30
0.0
 11
-62.594111
 21
222.24933
 31
0.0
  0
LINE
  5
1BE
100
AcDbEntity
  8
0
370
    -3
  6
Continuous
100
AcDbLine
 10
-88.094111
 20
220.780973
 30
0.0
 11
-62.594111
 21
220.780973
 31
0.0
  0
LINE
  5
1BF
100
AcDbEntity
  8
0
370
    -3
  6
Continuous
100
AcDbLine
 10
-88.094111
 20
216.690472
 30
0.0
 11
-62.594111
 21
216.690472
 31
0.0
  0
LINE
  5
1C0
100
AcDbEntity
  8
0
370
    -3
  6
Continuous
100
AcDbLine
 10
-88.094111
 20
215.328592
 30
0.0
 11
-62.594111
 21
215.328592
 31
0.0
  0
LINE
  5
1C1
100
AcDbEntity
  8
0
370
    -3
  6
Continuous
100
AcDbLine
 10
-88.094111
 20
211.138038
 30
0.0
 11
-62.594111
 21
211.138038
 31
0.0
  0
LINE
  5
1C2
100
AcDbEntity
  8
0
370
    -3
  6
Continuous
100
AcDbLine
 10
-88.094111
 20
209.8718
 30
0.0
 11
-62.594111
 21
209.8718
 31
0.0
  0
LINE
  5
1C3
100
AcDbEntity
  8
0
370
    -3
  6
Continuous
100
AcDbLine
 10
-88.094111
 20
205.498538
 30
0.0
 11
-62.594111
 21
205.498538
 31
0.0
  0
LINE
  5
1C4
100
AcDbEntity
  8
0
370
    -3
  6
Continuous
100
AcDbLine
 10
-88.094111
 20
247.498538
 30
0.0
 11
-82.945758
 21
247.498538
 31
0.0
  0
LINE
  5
1C5
100
AcDbEntity
  8
0
370
    -3
  6
Continuous
100
AcDbLine
 10
-88.094111
 20
246.498538
 30
0.0
 11
-82.193453
 21
246.498538
 31
0.0
  0
LINE
  5
1C6
100
AcDbEntity
  8
0
370
    -3
  6
Continuous
100
AcDbLine
 10
-88.094111
 20
245.498538
 30
0.0
 11
-81.20849
 21
245.498538
 31
0.0
  0
ELLIPSE
  5
1C7
100
AcDbEntity
  8
0
370
    -3
  6
Continuous
100
AcDbEllipse
 10
-223.094111
 20
-27.712481
 30
0.0
 11
4.6999999999999886
 21
0.0
 31
0.0
210
0.0
220
0.0
230
1.0
 40
0.766646
 41
5.1052656875386635
 42
4.3195122732306146
  0
LINE
  5
1C8
100
AcDbEntity
  8
0
370
    -3
  6
Continuous
100
AcDbLine
 10
-225.094111
 20
-24.720105
 30
0.0
 11
-223.094111
 21
-25.89589
 31
0.0
  0
LINE
  5
1C9
100
AcDbEntity
  8
0
370
    -3
  6
Continuous
100
AcDbLine
 10
-223.094111
 20
-25.89589
 30
0.0
 11
-221.094111
 21
-27.548532
 31
0.0
  0
LINE
  5
1CA
100
AcDbEntity
  8
0
370
    -3
  6
Continuous
100
AcDbLine
 10
-221.094111
 20
-24.720105
 30
0.0
 11
-223.094111
 21
-25.89589
 31
0.0
  0
LINE
  5
1CB
100
AcDbEntity
  8
0
370
    -3
  6
Continuous
100
AcDbLine
 10
-223.094111
 20
-25.89589
 30
0.0
 11
-225.094111
 21
-27.548532
 31
0.0
  0
LINE
  5
1CC
100
AcDbEntity
  8
0
370
    -3
  6
Continuous
100
AcDbLine
 10
-212.094111
 20
-124.641194
 30
0.0
 11
-212.094111
 21
-137.841194
 31
0.0
  0
ARC
  5
1CD
100
AcDbEntity
  8
0
370
    -3
  6
Continuous
100
AcDbCircle
 10
-292.788135
 20
-117.841194
 30
0.0
 40
20.0
100
AcDbArc
 50
235.0
 51
270.0
  0
LINE
  5
1CE
100
AcDbEntity
  8
0
370
    -3
  6
Continuous
100
AcDbLine
 10
-212.094111
 20
-137.841194
 30
0.0
 11
-292.788135
 21
-137.841194
 31
0.0
  0
LINE
  5
1CF
100
AcDbEntity
  8
0
370
    -3
  6
Continuous
100
AcDbLine
 10
-315.094111
 20
-77.841194
 30
0.0
 11
-315.094111
 21
-125.284399
 31
0.0
  0
ARC
  5
1D0
100
AcDbEntity
  8
0
370
    -3
  6
Continuous
100
AcDbCircle
 10
-312.494111
 20
-125.284399
 30
0.0
 40
2.6
100
AcDbArc
 50
180.0
 51
235.0
  0
LINE
  5
1D1
100
AcDbEntity
  8
0
370
    -3
  6
Continuous
100
AcDbLine
 10
-304.259664
 20
-134.224235
 30
0.0
 11
-313.98541
 21
-127.414194
 31
0.0
  0
ARC
  5
1D2
100
AcDbEntity
  8
0
370
    -3
  6
Continuous
100
AcDbCircle
 10
-312.494111
 20
-30.397989
 30
0.0
 40
2.6
100
AcDbArc
 50
125.0
 51
180.0
  0
LINE
  5
1D3
100
AcDbEntity
  8
0
370
    -3
  6
Continuous
100
AcDbLine
 10
-315.094111
 20
-77.841194
 30
0.0
 11
-315.094111
 21
-30.397989
 31
0.0
  0
ARC
  5
1D4
100
AcDbEntity
  8
0
370
    -3
  6
Continuous
100
AcDbCircle
 10
-292.788135
 20
-37.841194
 30
0.0
 40
20.0
100
AcDbArc
 50
90.0
 51
125.0
  0
LINE
  5
1D5
100
AcDbEntity
  8
0
370
    -3
  6
Continuous
100
AcDbLine
 10
-304.259664
 20
-21.458153
 30
0.0
 11
-313.98541
 21
-28.268194
 31
0.0
  0
LINE
  5
1D6
100
AcDbEntity
  8
0
370
    -3
  6
Continuous
100
AcDbLine
 10
-212.094111
 20
-31.041194
 30
0.0
 11
-212.094111
 21
-17.841194
 31
0.0
  0
LINE
  5
1D7
100
AcDbEntity
  8
0
370
    -3
  6
Continuous
100
AcDbLine
 10
-212.094111
 20
-17.841194
 30
0.0
 11
-292.788135
 21
-17.841194
 31
0.0
  0
LINE
  5
1D8
100
AcDbEntity
  8
0
370
    -3
  6
Continuous
100
AcDbLine
 10
-141.196642
 20
-102.305578
 30
0.0
 11
-88.094111
 21
-102.305578
 31
0.0
  0
LINE
  5
1D9
100
AcDbEntity
  8
0
370
    -3
  6
Continuous
100
AcDbLine
 10
-141.196642
 20
-104.429802
 30
0.0
 11
-88.094111
 21
-104.429802
 31
0.0
  0
LINE
  5
1DA
100
AcDbEntity
  8
0
370
    -3
  6
Continuous
100
AcDbLine
 10
-141.196642
 20
-107.762312
 30
0.0
 11
-88.094111
 21
-107.762312
 31
0.0
  0
LINE
  5
1DB
100
AcDbEntity
  8
0
370
    -3
  6
Continuous
100
AcDbLine
 10
-141.196642
 20
-109.991716
 30
0.0
 11
-88.094111
 21
-109.991716
 31
0.0
  0
LINE
  5
1DC
100
AcDbEntity
  8
0
370
    -3
  6
Continuous
100
AcDbLine
 10
-141.196642
 20
-113.200314
 30
0.0
 11
-88.094111
 21
-113.200314
 31
0.0
  0
LINE
  5
1DD
100
AcDbEntity
  8
0
370
    -3
  6
Continuous
100
AcDbLine
 10
-141.196642
 20
-115.537014
 30
0.0
 11
-88.094111
 21
-115.537014
 31
0.0
  0
LINE
  5
1DE
100
AcDbEntity
  8
0
370
    -3
  6
Continuous
100
AcDbLine
 10
-141.196642
 20
-47.920076
 30
0.0
 11
-88.094111
 21
-47.920076
 31
0.0
  0
LINE
  5
1DF
100
AcDbEntity
  8
0
370
    -3
  6
Continuous
100
AcDbLine
 10
-141.196642
 20
-53.37681
 30
0.0
 11
-88.094111
 21
-53.37681
 31
0.0
  0
LINE
  5
1E0
100
AcDbEntity
  8
0
370
    -3
  6
Continuous
100
AcDbLine
 10
-141.196642
 20
-51.252586
 30
0.0
 11
-88.094111
 21
-51.252586
 31
0.0
  0
LINE
  5
1E1
100
AcDbEntity
  8
0
370
    -3
  6
Continuous
100
AcDbLine
 10
-141.196642
 20
-59.091194
 30
0.0
 11
-88.094111
 21
-59.091194
 31
0.0
  0
LINE
  5
1E2
100
AcDbEntity
  8
0
370
    -3
  6
Continuous
100
AcDbLine
 10
-141.249852
 20
-40.145374
 30
0.0
 11
-88.094111
 21
-40.145374
 31
0.0
  0
LINE
  5
1E3
100
AcDbEntity
  8
0
370
    -3
  6
Continuous
100
AcDbLine
 10
-141.196642
 20
-42.482073
 30
0.0
 11
-88.094111
 21
-42.482073
 31
0.0
  0
LINE
  5
1E4
100
AcDbEntity
  8
0
370
    -3
  6
Continuous
100
AcDbLine
 10
-141.196642
 20
-45.690672
 30
0.0
 11
-88.094111
 21
-45.690672
 31
0.0
  0
LINE
  5
1E5
100
AcDbEntity
  8
0
370
    -3
  6
Continuous
100
AcDbLine
 10
-141.196642
 20
-96.591194
 30
0.0
 11
-88.094111
 21
-96.591194
 31
0.0
  0
LINE
  5
1E6
100
AcDbEntity
  8
0
370
    -3
  6
Continuous
100
AcDbLine
 10
-212.094111
 20
-134.841194
 30
0.0
 11
-88.094111
 21
-134.841194
 31
0.0
  0
LINE
  5
1E7
100
AcDbEntity
  8
0
370
    -3
  6
Continuous
100
AcDbLine
 10
-212.094111
 20
-135.341194
 30
0.0
 11
-88.094111
 21
-135.341194
 31
0.0
  0
LINE
  5
1E8
100
AcDbEntity
  8
0
370
    -3
  6
Continuous
100
AcDbLine
 10
-212.094111
 20
-133.841194
 30
0.0
 11
-88.094111
 21
-133.841194
 31
0.0
  0
LINE
  5
1E9
100
AcDbEntity
  8
0
370
    -3
  6
Continuous
100
AcDbLine
 10
-212.094111
 20
-132.841194
 30
0.0
 11
-88.094111
 21
-132.841194
 31
0.0
  0
LINE
  5
1EA
100
AcDbEntity
  8
0
370
    -3
  6
Continuous
100
AcDbLine
 10
-212.094111
 20
-128.156728
 30
0.0
 11
-88.094111
 21
-128.156728
 31
0.0
  0
LINE
  5
1EB
100
AcDbEntity
  8
0
370
    -3
  6
Continuous
100
AcDbLine
 10
-144.48923
 20
-123.206981
 30
0.0
 11
-88.094111
 21
-123.206981
 31
0.0
  0
LINE
  5
1EC
100
AcDbEntity
  8
0
370
    -3
  6
Continuous
100
AcDbLine
 10
-88.094111
 20
-136.341194
 30
0.0
 11
-212.094111
 21
-136.341194
 31
0.0
  0
LINE
  5
1ED
100
AcDbEntity
  8
0
370
    -3
  6
Continuous
100
AcDbLine
 10
-212.094111
 20
-20.841194
 30
0.0
 11
-88.094111
 21
-20.841194
 31
0.0
  0
LINE
  5
1EE
100
AcDbEntity
  8
0
370
    -3
  6
Continuous
100
AcDbLine
 10
-212.094111
 20
-20.341194
 30
0.0
 11
-88.094111
 21
-20.341194
 31
0.0
  0
LINE
  5
1EF
100
AcDbEntity
  8
0
370
    -3
  6
Continuous
100
AcDbLine
 10
-212.094111
 20
-21.841194
 30
0.0
 11
-88.094111
 21
-21.841194
 31
0.0
  0
LINE
  5
1F0
100
AcDbEntity
  8
0
370
    -3
  6
Continuous
100
AcDbLine
 10
-212.094111
 20
-22.841194
 30
0.0
 11
-88.094111
 21
-22.841194
 31
0.0
  0
LINE
  5
1F1
100
AcDbEntity
  8
0
370
    -3
  6
Continuous
100
AcDbLine
 10
-212.094111
 20
-27.52566
 30
0.0
 11
-88.094111
 21
-27.52566
 31
0.0
  0
LINE
  5
1F2
100
AcDbEntity
  8
0
370
    -3
  6
Continuous
100
AcDbLine
 10
-144.48923
 20
-32.475407
 30
0.0
 11
-88.094111
 21
-32.475407
 31
0.0
  0
LINE
  5
1F3
100
AcDbEntity
  8
0
370
    -3
  6
Continuous
100
AcDbLine
 10
-88.094111
 20
-19.341194
 30
0.0
 11
-212.094111
 21
-19.341194
 31
0.0
  0
ELLIPSE
  5
1F4
100
AcDbEntity
  8
0
370
    -3
  6
Continuous
100
AcDbEllipse
 10
-223.094111
 20
-127.969907
 30
0.0
 11
4.6999999999999886
 21
0.0
 31
0.0
210
0.0
220
0.0
230
1.0
 40
0.766646
 41
1.9636730339489714
 42
1.1779196196409232
  0
LINE
  5
1F5
100
AcDbEntity
  8
0
370
    -3
  6
Continuous
100
AcDbLine
 10
-223.094111
 20
-129.786497
 30
0.0
 11
-225.094111
 21
-128.133856
 31
0.0
  0
LINE
  5
1F6
100
AcDbEntity
  8
0
370
    -3
  6
Continuous
100
AcDbLine
 10
-221.094111
 20
-130.962283
 30
0.0
 11
-223.094111
 21
-129.786497
 31
0.0
  0
LINE
  5
1F7
100
AcDbEntity
  8
0
370
    -3
  6
Continuous
100
AcDbLine
 10
-223.094111
 20
-129.786497
 30
0.0
 11
-221.094111
 21
-128.133856
 31
0.0
  0
LINE
  5
1F8
100
AcDbEntity
  8
0
370
    -3
  6
Continuous
100
AcDbLine
 10
-225.094111
 20
-130.962283
 30
0.0
 11
-223.094111
 21
-129.786497
 31
0.0
  0
LINE
  5
1F9
100
AcDbEntity
  8
0
370
    -3
  6
CENTER
100
AcDbLine
 10
-39.137485
 20
-77.841194
 30
0.0
 11
-324.797628
 21
-77.841194
 31
0.0
  0
ELLIPSE
  5
1FA
100
AcDbEntity
  8
0
370
    -3
  6
Continuous
100
AcDbEllipse
 10
-223.094111
 20
140.369833
 30
0.0
 11
-4.6999999999999886
 21
0.0
 31
0.0
210
0.0
220
0.0
230
1.0
 40
0.766646
 41
0.0
 42
6.2831853071795862
  0
LINE
  5
1FB
100
AcDbEntity
  8
0
370
    -3
  6
Continuous
100
AcDbLine
 10
-225.094111
 20
137.377458
 30
0.0
 11
-223.094111
 21
138.553243
 31
0.0
  0
LINE
  5
1FC
100
AcDbEntity
  8
0
370
    -3
  6
Continuous
100
AcDbLine
 10
-223.094111
 20
138.553243
 30
0.0
 11
-221.094111
 21
140.205885
 31
0.0
  0
LINE
  5
1FD
100
AcDbEntity
  8
0
370
    -3
  6
Continuous
100
AcDbLine
 10
-221.094111
 20
137.377458
 30
0.0
 11
-223.094111
 21
138.553243
 31
0.0
  0
LINE
  5
1FE
100
AcDbEntity
  8
0
370
    -3
  6
Continuous
100
AcDbLine
 10
-223.094111
 20
138.553243
 30
0.0
 11
-225.094111
 21
140.205885
 31
0.0
  0
ELLIPSE
  5
1FF
100
AcDbEntity
  8
0
370
    -3
  6
Continuous
100
AcDbEllipse
 10
-223.094111
 20
240.627244
 30
0.0
 11
4.6999999999999886
 21
0.0
 31
0.0
210
0.0
220
0.0
230
1.0
 40
0.766646
 41
0.0
 42
6.2831853071795862
  0
LINE
  5
200
100
AcDbEntity
  8
0
370
    -3
  6
Continuous
100
AcDbLine
 10
-225.094111
 20
243.619619
 30
0.0
 11
-223.094111
 21
242.443834
 31
0.0
  0
LINE
  5
201
100
AcDbEntity
  8
0
370
    -3
  6
Continuous
100
AcDbLine
 10
-223.094111
 20
242.443834
 30
0.0
 11
-221.094111
 21
240.791192
 31
0.0
  0
LINE
  5
202
100
AcDbEntity
  8
0
370
    -3
  6
Continuous
100
AcDbLine
 10
-221.094111
 20
243.619619
 30
0.0
 11
-223.094111
 21
242.443834
 31
0.0
  0
LINE
  5
203
100
AcDbEntity
  8
0
370
    -3
  6
Continuous
100
AcDbLine
 10
-223.094111
 20
242.443834
 30
0.0
 11
-225.094111
 21
240.791192
 31
0.0
  0
LINE
  5
204
100
AcDbEntity
  8
0
370
    -3
  6
Continuous
100
AcDbLine
 10
-205.763258
 20
131.003951
 30
0.0
 11
-167.424964
 21
131.003951
 31
0.0
  0
LINE
  5
205
100
AcDbEntity
  8
0
370
    -3
  6
Continuous
100
AcDbLine
 10
-159.801317
 20
131.003951
 30
0.0
 11
-88.094111
 21
131.003951
 31
0.0
  0
LINE
  5
206
100
AcDbEntity
  8
0
370
    -3
  6
Continuous
100
AcDbLine
 10
-212.094111
 20
175.503951
 30
0.0
 11
-88.094111
 21
175.503951
 31
0.0
  0
LINE
  5
207
100
AcDbEntity
  8
0
370
    -3
  6
Continuous
100
AcDbLine
 10
-212.094111
 20
135.503951
 30
0.0
 11
-88.094111
 21
135.503951
 31
0.0
  0
LINE
  5
208
100
AcDbEntity
  8
0
370
    -3
  6
Continuous
100
AcDbLine
 10
-212.094111
 20
134.503951
 30
0.0
 11
-88.094111
 21
134.503951
 31
0.0
  0
LINE
  5
209
100
AcDbEntity
  8
0
370
    -3
  6
Continuous
100
AcDbLine
 10
-212.094111
 20
133.503951
 30
0.0
 11
-88.094111
 21
133.503951
 31
0.0
  0
LINE
  5
20A
100
AcDbEntity
  8
0
370
    -3
  6
Continuous
100
AcDbLine
 10
-212.094111
 20
247.503951
 30
0.0
 11
-88.094111
 21
247.503951
 31
0.0
  0
LINE
  5
20B
100
AcDbEntity
  8
0
370
    -3
  6
Continuous
100
AcDbLine
 10
-212.094111
 20
246.503951
 30
0.0
 11
-88.094111
 21
246.503951
 31
0.0
  0
LINE
  5
20C
100
AcDbEntity
  8
0
370
    -3
  6
Continuous
100
AcDbLine
 10
-212.094111
 20
245.503951
 30
0.0
 11
-88.094111
 21
245.503951
 31
0.0
  0
LINE
  5
20D
100
AcDbEntity
  8
0
370
    -3
  6
Continuous
100
AcDbLine
 10
-212.094111
 20
240.819485
 30
0.0
 11
-88.094111
 21
240.819485
 31
0.0
  0
LINE
  5
20E
100
AcDbEntity
  8
0
370
    -3
  6
Continuous
100
AcDbLine
 10
-212.094111
 20
235.869738
 30
0.0
 11
-88.094111
 21
235.869738
 31
0.0
  0
LINE
  5
20F
100
AcDbEntity
  8
0
370
    -3
  6
Continuous
100
AcDbLine
 10
-212.094111
 20
205.503951
 30
0.0
 11
-88.094111
 21
205.503951
 31
0.0
  0
LINE
  5
210
100
AcDbEntity
  8
0
370
    -3
  6
Continuous
100
AcDbLine
 10
-88.094111
 20
250.003951
 30
0.0
 11
-88.094111
 21
131.003951
 31
0.0
  0
LINE
  5
211
100
AcDbEntity
  8
0
370
    -3
  6
Continuous
100
AcDbLine
 10
-212.094111
 20
250.003951
 30
0.0
 11
-88.094111
 21
250.003951
 31
0.0
  0
LINE
  5
212
100
AcDbEntity
  8
0
370
    -3
  6
Continuous
100
AcDbLine
 10
-145.094111
 20
250.003951
 30
0.0
 11
-88.094111
 21
250.003951
 31
0.0
  0
LINE
  5
213
100
AcDbEntity
  8
0
370
    -3
  6
Continuous
100
AcDbLine
 10
-212.094111
 20
145.127339
 30
0.0
 11
-88.094111
 21
145.127339
 31
0.0
  0
LINE
  5
214
100
AcDbEntity
  8
0
370
    -3
  6
Continuous
100
AcDbLine
 10
-212.094111
 20
140.177592
 30
0.0
 11
-88.094111
 21
140.177592
 31
0.0
  0
LINE
  5
215
100
AcDbEntity
  8
0
370
    -3
  6
Continuous
100
AcDbLine
 10
-212.094111
 20
171.4985
 30
0.0
 11
-88.094111
 21
171.4985
 31
0.0
  0
LINE
  5
216
100
AcDbEntity
  8
0
370
    -3
  6
Continuous
100
AcDbLine
 10
-212.094111
 20
169.469988
 30
0.0
 11
-88.094111
 21
169.469988
 31
0.0
  0
LINE
  5
217
100
AcDbEntity
  8
0
370
    -3
  6
Continuous
100
AcDbLine
 10
-212.094111
 20
166.039567
 30
0.0
 11
-88.094111
 21
166.039567
 31
0.0
  0
LINE
  5
218
100
AcDbEntity
  8
0
370
    -3
  6
Continuous
100
AcDbLine
 10
-212.094111
 20
163.915343
 30
0.0
 11
-88.094111
 21
163.915343
 31
0.0
  0
LINE
  5
219
100
AcDbEntity
  8
0
370
    -3
  6
Continuous
100
AcDbLine
 10
-212.094111
 20
160.582833
 30
0.0
 11
-88.094111
 21
160.582833
 31
0.0
  0
LINE
  5
21A
100
AcDbEntity
  8
0
370
    -3
  6
Continuous
100
AcDbLine
 10
-212.094111
 20
158.353429
 30
0.0
 11
-88.094111
 21
158.353429
 31
0.0
  0
LINE
  5
21B
100
AcDbEntity
  8
0
370
    -3
  6
Continuous
100
AcDbLine
 10
-212.094111
 20
155.14483
 30
0.0
 11
-88.094111
 21
155.14483
 31
0.0
  0
LINE
  5
21C
100
AcDbEntity
  8
0
370
    -3
  6
Continuous
100
AcDbLine
 10
-212.094111
 20
152.808131
 30
0.0
 11
-88.094111
 21
152.808131
 31
0.0
  0
LINE
  5
21D
100
AcDbEntity
  8
0
370
    -3
  6
Continuous
100
AcDbLine
 10
-212.094111
 20
209.509401
 30
0.0
 11
-88.094111
 21
209.509401
 31
0.0
  0
LINE
  5
21E
100
AcDbEntity
  8
0
370
    -3
  6
Continuous
100
AcDbLine
 10
-212.094111
 20
211.537913
 30
0.0
 11
-88.094111
 21
211.537913
 31
0.0
  0
LINE
  5
21F
100
AcDbEntity
  8
0
370
    -3
  6
Continuous
100
AcDbLine
 10
-212.094111
 20
214.968334
 30
0.0
 11
-88.094111
 21
214.968334
 31
0.0
  0
LINE
  5
220
100
AcDbEntity
  8
0
370
    -3
  6
Continuous
100
AcDbLine
 10
-212.094111
 20
217.092559
 30
0.0
 11
-88.094111
 21
217.092559
 31
0.0
  0
LINE
  5
221
100
AcDbEntity
  8
0
370
    -3
  6
Continuous
100
AcDbLine
 10
-212.094111
 20
220.425069
 30
0.0
 11
-88.094111
 21
220.425069
 31
0.0
  0
LINE
  5
222
100
AcDbEntity
  8
0
370
    -3
  6
Continuous
100
AcDbLine
 10
-212.094111
 20
222.654473
 30
0.0
 11
-88.094111
 21
222.654473
 31
0.0
  0
LINE
  5
223
100
AcDbEntity
  8
0
370
    -3
  6
Continuous
100
AcDbLine
 10
-212.094111
 20
225.863071
 30
0.0
 11
-88.094111
 21
225.863071
 31
0.0
  0
LINE
  5
224
100
AcDbEntity
  8
0
370
    -3
  6
Continuous
100
AcDbLine
 10
-212.094111
 20
228.199771
 30
0.0
 11
-88.094111
 21
228.199771
 31
0.0
  0
LINE
  5
225
100
AcDbEntity
  8
0
370
    -3
  6
Continuous
100
AcDbLine
 10
-315.094111
 20
190.503951
 30
0.0
 11
-315.094111
 21
242.947156
 31
0.0
  0
ARC
  5
226
100
AcDbEntity
  8
0
370
    -3
  6
Continuous
100
AcDbCircle
 10
-292.788135
 20
235.503951
 30
0.0
 40
20.0
100
AcDbArc
 50
90.0
 51
125.0
  0
LINE
  5
227
100
AcDbEntity
  8
0
370
    -3
  6
Continuous
100
AcDbLine
 10
-304.259664
 20
251.886992
 30
0.0
 11
-313.98541
 21
245.076951
 31
0.0
  0
ARC
  5
228
100
AcDbEntity
  8
0
370
    -3
  6
Continuous
100
AcDbCircle
 10
-312.494111
 20
242.947156
 30
0.0
 40
2.6
100
AcDbArc
 50
125.0
 51
180.0
  0
LINE
  5
229
100
AcDbEntity
  8
0
370
    -3
  6
Continuous
100
AcDbLine
 10
-212.094111
 20
255.503951
 30
0.0
 11
-292.788135
 21
255.503951
 31
0.0
  0
LINE
  5
22A
100
AcDbEntity
  8
0
370
    -3
  6
Continuous
100
AcDbLine
 10
-315.094111
 20
190.503951
 30
0.0
 11
-315.094111
 21
138.060746
 31
0.0
  0
LINE
  5
22B
100
AcDbEntity
  8
0
370
    -3
  6
Continuous
100
AcDbLine
 10
-304.259664
 20
129.12091
 30
0.0
 11
-313.98541
 21
135.93095
 31
0.0
  0
ARC
  5
22C
100
AcDbEntity
  8
0
370
    -3
  6
Continuous
100
AcDbCircle
 10
-312.494111
 20
138.060746
 30
0.0
 40
2.6
100
AcDbArc
 50
180.0
 51
235.0
  0
ARC
  5
22D
100
AcDbEntity
  8
0
370
    -3
  6
Continuous
100
AcDbCircle
 10
-292.788135
 20
145.503951
 30
0.0
 40
20.0
100
AcDbArc
 50
235.0
 51
270.0
  0
LINE
  5
22E
100
AcDbEntity
  8
0
370
    -3
  6
Continuous
100
AcDbLine
 10
-212.094111
 20
190.503951
 30
0.0
 11
-212.094111
 21
255.503951
 31
0.0
  0
LINE
  5
22F
100
AcDbEntity
  8
0
370
    -3
  6
Continuous
100
AcDbLine
 10
-212.094111
 20
190.503951
 30
0.0
 11
-212.094111
 21
131.88473
 31
0.0
  0
ARC
  5
230
100
AcDbEntity
  8
0
370
    -3
  6
Continuous
100
AcDbCircle
 10
-215.094111
 20
131.88473
 30
0.0
 40
3.0
100
AcDbArc
 50
270.0
 51
0.0
  0
LINE
  5
231
100
AcDbEntity
  8
0
370
    -3
  6
Continuous
100
AcDbLine
 10
-219.094111
 20
128.88473
 30
0.0
 11
-215.094111
 21
128.88473
 31
0.0
  0
ARC
  5
232
100
AcDbEntity
  8
0
370
    -3
  6
Continuous
100
AcDbCircle
 10
-219.094111
 20
125.88473
 30
0.0
 40
3.0
100
AcDbArc
 50
90.0
 51
180.0
  0
LINE
  5
233
100
AcDbEntity
  8
0
370
    -3
  6
Continuous
100
AcDbLine
 10
-222.094111
 20
125.503951
 30
0.0
 11
-292.788135
 21
125.503951
 31
0.0
  0
LINE
  5
234
100
AcDbEntity
  8
0
370
    -3
  6
Continuous
100
AcDbLine
 10
-222.094111
 20
125.503951
 30
0.0
 11
-222.094111
 21
125.88473
 31
0.0
  0
LINE
  5
235
100
AcDbEntity
  8
0
370
    -3
  6
Continuous
100
AcDbLine
 10
-526.181409
 20
-136.841194
 30
0.0
 11
-526.181409
 21
-134.107294
 31
0.0
  0
LINE
  5
236
100
AcDbEntity
  8
0
370
    -3
  6
Continuous
100
AcDbLine
 10
-548.891849
 20
-101.381326
 30
0.0
 11
-553.511536
 21
-93.379794
 31
0.0
  0
ARC
  5
237
100
AcDbEntity
  8
0
370
    -3
  6
Continuous
100
AcDbCircle
 10
-548.181409
 20
-74.841194
 30
0.0
 40
4.249999
100
AcDbArc
 50
109.7888
 51
249.349842
  0
LINE
  5
238
100
AcDbEntity
  8
0
370
    -3
  6
Continuous
100
AcDbLine
 10
-553.181409
 20
-80.091194
 30
0.0
 11
-549.67509
 21
-80.091194
 31
0.0
  0
LINE
  5
239
100
AcDbEntity
  8
0
370
    -3
  6
Continuous
100
AcDbLine
 10
-550.181408
 20
-75.995893
 30
0.0
 11
-549.678391
 21
-76.286309
 31
0.0
  0
LINE
  5
23A
100
AcDbEntity
  8
0
370
    -3
  6
Continuous
100
AcDbLine
 10
-550.181407
 20
-73.686498
 30
0.0
 11
-549.656606
 21
-73.383503
 31
0.0
  0
LINE
  5
23B
100
AcDbEntity
  8
0
370
    -3
  6
Continuous
100
AcDbLine
 10
-553.181409
 20
-69.591194
 30
0.0
 11
-549.596449
 21
-69.591194
 31
0.0
  0
LINE
  5
23C
100
AcDbEntity
  8
0
370
    -3
  6
Continuous
100
AcDbLine
 10
-456.931409
 20
-14.134057
 30
0.0
 11
-456.931409
 21
-18.803486
 31
0.0
  0
LINE
  5
23D
100
AcDbEntity
  8
0
370
    -3
  6
Continuous
100
AcDbLine
 10
-446.431409
 20
-17.751259
 30
0.0
 11
-446.431409
 21
-20.289501
 31
0.0
  0
LINE
  5
23E
100
AcDbEntity
  8
0
370
    -3
  6
Continuous
100
AcDbLine
 10
-440.061325
 20
-132.341194
 30
0.0
 11
-420.681409
 21
-132.341194
 31
0.0
  0
ARC
  5
23F
100
AcDbEntity
  8
0
370
    -3
  6
Continuous
100
AcDbCircle
 10
-440.181409
 20
-135.341194
 30
0.0
 40
3.0
100
AcDbArc
 50
152.109984
 51
180.0
  0
LINE
  5
240
100
AcDbEntity
  8
0
370
    -3
  6
Continuous
100
AcDbLine
 10
-443.181409
 20
-136.841194
 30
0.0
 11
-443.181409
 21
-134.107294
 31
0.0
  0
LINE
  5
241
100
AcDbEntity
  8
0
370
    -3
  6
Continuous
100
AcDbLine
 10
-447.590841
 20
-135.732278
 30
0.0
 11
-449.181411
 21
-136.650591
 31
0.0
  0
LINE
  5
242
100
AcDbEntity
  8
0
370
    -3
  6
Continuous
100
AcDbLine
 10
-449.181411
 20
-136.650591
 30
0.0
 11
-449.898929
 21
-136.236331
 31
0.0
  0
LINE
  5
243
100
AcDbEntity
  8
0
370
    -3
  6
Continuous
100
AcDbLine
 10
-454.431409
 20
-136.841194
 30
0.0
 11
-454.431409
 21
-136.697446
 31
0.0
  0
LINE
  5
244
100
AcDbEntity
  8
0
370
    -3
  6
Continuous
100
AcDbLine
 10
-514.931409
 20
-136.841194
 30
0.0
 11
-514.931409
 21
-136.697446
 31
0.0
  0
ARC
  5
245
100
AcDbEntity
  8
0
370
    -3
  6
Continuous
100
AcDbCircle
 10
-513.931409
 20
-136.841194
 30
0.0
 40
1.0
100
AcDbArc
 50
180.0
 51
270.0
  0
LINE
  5
246
100
AcDbEntity
  8
0
370
    -3
  6
Continuous
100
AcDbLine
 10
-521.771976
 20
-135.732278
 30
0.0
 11
-520.181407
 21
-136.650591
 31
0.0
  0
LINE
  5
247
100
AcDbEntity
  8
0
370
    -3
  6
Continuous
100
AcDbLine
 10
-520.181407
 20
-136.650591
 30
0.0
 11
-519.463889
 21
-136.236331
 31
0.0
  0
LINE
  5
248
100
AcDbEntity
  8
0
370
    -3
  6
Continuous
100
AcDbLine
 10
-529.301492
 20
-132.341194
 30
0.0
 11
-548.681409
 21
-132.341194
 31
0.0
  0
ARC
  5
249
100
AcDbEntity
  8
0
370
    -3
  6
Continuous
100
AcDbCircle
 10
-529.181409
 20
-135.341194
 30
0.0
 40
3.0
100
AcDbArc
 50
0.0
 51
27.890016
  0
ARC
  5
24A
100
AcDbEntity
  8
0
370
    -3
  6
Continuous
100
AcDbCircle
 10
-520.181409
 20
-134.341194
 30
0.0
 40
4.249999
100
AcDbArc
 50
187.233733
 51
328.362011
  0
ARC
  5
24B
100
AcDbEntity
  8
0
370
    -3
  6
Continuous
100
AcDbCircle
 10
-449.181409
 20
-134.341194
 30
0.0
 40
4.249999
100
AcDbArc
 50
211.637989
 51
352.766267
  0
ARC
  5
24C
100
AcDbEntity
  8
0
370
    -3
  6
Continuous
100
AcDbCircle
 10
-451.681409
 20
-21.841194
 30
0.0
 40
4.249999
100
AcDbArc
 50
27.713335
 51
137.262674
  0
ARC
  5
24D
100
AcDbEntity
  8
0
370
    -3
  6
Continuous
100
AcDbCircle
 10
-517.681409
 20
-21.841194
 30
0.0
 40
4.249999
100
AcDbArc
 50
42.737326
 51
152.286665
  0
LINE
  5
24E
100
AcDbEntity
  8
0
370
    -3
  6
Continuous
100
AcDbLine
 10
-522.931409
 20
-17.751259
 30
0.0
 11
-522.931409
 21
-20.289501
 31
0.0
  0
LINE
  5
24F
100
AcDbEntity
  8
0
370
    -3
  6
Continuous
100
AcDbLine
 10
-512.431409
 20
-14.134057
 30
0.0
 11
-512.431409
 21
-18.803486
 31
0.0
  0
ARC
  5
250
100
AcDbEntity
  8
0
370
    -3
  6
Continuous
100
AcDbCircle
 10
-820.281409
 20
-77.841194
 30
0.0
 40
400.6
100
AcDbArc
 50
0.0
 51
2.946011
  0
ARC
  5
251
100
AcDbEntity
  8
0
370
    -3
  6
Continuous
100
AcDbCircle
 10
-820.281409
 20
-77.841194
 30
0.0
 40
400.6
100
AcDbArc
 50
357.053989
 51
0.0
  0
LINE
  5
252
100
AcDbEntity
  8
0
370
    -3
  6
Continuous
100
AcDbLine
 10
-537.926549
 20
-31.242857
 30
0.0
 11
-538.413353
 21
-30.756053
 31
0.0
  0
LINE
  5
253
100
AcDbEntity
  8
0
370
    -3
  6
Continuous
100
AcDbLine
 10
-531.279746
 20
-24.596053
 30
0.0
 11
-531.766549
 21
-24.10925
 31
0.0
  0
LINE
  5
254
100
AcDbEntity
  8
0
370
    -3
  6
Continuous
100
AcDbLine
 10
-538.209392
 20
-30.960014
 30
0.0
 11
-531.562589
 21
-24.313211
 31
0.0
  0
LINE
  5
255
100
AcDbEntity
  8
0
370
    -3
  6
Continuous
100
AcDbLine
 10
-537.926549
 20
-31.242857
 30
0.0
 11
-531.279746
 21
-24.596053
 31
0.0
  0
POINT
  5
256
100
AcDbEntity
  8
0
370
    -3
  6
Continuous
100
AcDbPoint
 10
-534.603148
 20
-27.919455
 30
0.0
  0
ARC
  5
257
100
AcDbEntity
  8
0
370
    -3
  6
Continuous
100
AcDbCircle
 10
-532.340406
 20
-30.182197
 30
0.0
 40
6.099999
100
AcDbArc
 50
84.601928
 51
185.398089
  0
LINE
  5
258
100
AcDbEntity
  8
0
370
    -3
  6
Continuous
100
AcDbLine
 10
-431.436268
 20
-31.242857
 30
0.0
 11
-430.949465
 21
-30.756053
 31
0.0
  0
LINE
  5
259
100
AcDbEntity
  8
0
370
    -3
  6
Continuous
100
AcDbLine
 10
-438.083072
 20
-24.596053
 30
0.0
 11
-437.596268
 21
-24.10925
 31
0.0
  0
LINE
  5
25A
100
AcDbEntity
  8
0
370
    -3
  6
Continuous
100
AcDbLine
 10
-431.153426
 20
-30.960014
 30
0.0
 11
-437.800229
 21
-24.313211
 31
0.0
  0
LINE
  5
25B
100
AcDbEntity
  8
0
370
    -3
  6
Continuous
100
AcDbLine
 10
-431.436268
 20
-31.242857
 30
0.0
 11
-438.083072
 21
-24.596053
 31
0.0
  0
POINT
  5
25C
100
AcDbEntity
  8
0
370
    -3
  6
Continuous
100
AcDbPoint
 10
-434.75967
 20
-27.919455
 30
0.0
  0
ARC
  5
25D
100
AcDbEntity
  8
0
370
    -3
  6
Continuous
100
AcDbCircle
 10
-437.022412
 20
-30.182197
 30
0.0
 40
6.099999
100
AcDbArc
 50
354.601911
 51
95.398072
  0
LINE
  5
25E
100
AcDbEntity
  8
0
370
    -3
  6
Continuous
100
AcDbLine
 10
-431.436268
 20
-124.439531
 30
0.0
 11
-430.949465
 21
-124.926334
 31
0.0
  0
LINE
  5
25F
100
AcDbEntity
  8
0
370
    -3
  6
Continuous
100
AcDbLine
 10
-438.083072
 20
-131.086334
 30
0.0
 11
-437.596268
 21
-131.573138
 31
0.0
  0
LINE
  5
260
100
AcDbEntity
  8
0
370
    -3
  6
Continuous
100
AcDbLine
 10
-431.153426
 20
-124.722374
 30
0.0
 11
-437.800229
 21
-131.369177
 31
0.0
  0
LINE
  5
261
100
AcDbEntity
  8
0
370
    -3
  6
Continuous
100
AcDbLine
 10
-431.436268
 20
-124.439531
 30
0.0
 11
-438.083072
 21
-131.086334
 31
0.0
  0
POINT
  5
262
100
AcDbEntity
  8
0
370
    -3
  6
Continuous
100
AcDbPoint
 10
-434.75967
 20
-127.762933
 30
0.0
  0
ARC
  5
263
100
AcDbEntity
  8
0
370
    -3
  6
Continuous
100
AcDbCircle
 10
-437.022412
 20
-125.500191
 30
0.0
 40
6.099999
100
AcDbArc
 50
264.601928
 51
5.398089
  0
LINE
  5
264
100
AcDbEntity
  8
0
370
    -3
  6
Continuous
100
AcDbLine
 10
-537.926549
 20
-124.439531
 30
0.0
 11
-538.413353
 21
-124.926334
 31
0.0
  0
LINE
  5
265
100
AcDbEntity
  8
0
370
    -3
  6
Continuous
100
AcDbLine
 10
-531.279746
 20
-131.086334
 30
0.0
 11
-531.766549
 21
-131.573138
 31
0.0
  0
LINE
  5
266
100
AcDbEntity
  8
0
370
    -3
  6
Continuous
100
AcDbLine
 10
-538.209392
 20
-124.722374
 30
0.0
 11
-531.562589
 21
-131.369177
 31
0.0
  0
LINE
  5
267
100
AcDbEntity
  8
0
370
    -3
  6
Continuous
100
AcDbLine
 10
-537.926549
 20
-124.439531
 30
0.0
 11
-531.279746
 21
-131.086334
 31
0.0
  0
POINT
  5
268
100
AcDbEntity
  8
0
370
    -3
  6
Continuous
100
AcDbPoint
 10
-534.603148
 20
-127.762933
 30
0.0
  0
ARC
  5
269
100
AcDbEntity
  8
0
370
    -3
  6
Continuous
100
AcDbCircle
 10
-532.340406
 20
-125.500191
 30
0.0
 40
6.099999
100
AcDbArc
 50
174.601911
 51
275.398072
  0
ARC
  5
26A
100
AcDbEntity
  8
0
370
    -3
  6
Continuous
100
AcDbCircle
 10
-484.681409
 20
-418.441194
 30
0.0
 40
400.6
100
AcDbArc
 50
85.337794
 51
90.0
  0
ARC
  5
26B
100
AcDbEntity
  8
0
370
    -3
  6
Continuous
100
AcDbCircle
 10
-460.757182
 20
-96.343374
 30
0.0
 40
40.6
100
AcDbArc
 50
315.0
 51
357.053989
  0
LINE
  5
26C
100
AcDbEntity
  8
0
370
    -3
  6
Continuous
100
AcDbLine
 10
-432.048647
 20
-125.05191
 30
0.0
 11
-436.099072
 21
-129.102335
 31
0.0
  0
ARC
  5
26D
100
AcDbEntity
  8
0
370
    -3
  6
Continuous
100
AcDbCircle
 10
-454.201006
 20
-111.000401
 30
0.0
 40
25.6
100
AcDbArc
 50
274.662206
 51
315.0
  0
ARC
  5
26E
100
AcDbEntity
  8
0
370
    -3
  6
Continuous
100
AcDbCircle
 10
-149.081409
 20
-77.841194
 30
0.0
 40
400.6
100
AcDbArc
 50
180.0
 51
182.946011
  0
LINE
  5
26F
100
AcDbEntity
  8
0
370
    -3
  6
Continuous
100
AcDbLine
 10
-537.31417
 20
-125.05191
 30
0.0
 11
-533.263745
 21
-129.102335
 31
0.0
  0
ARC
  5
270
100
AcDbEntity
  8
0
370
    -3
  6
Continuous
100
AcDbCircle
 10
-515.161812
 20
-111.000401
 30
0.0
 40
25.6
100
AcDbArc
 50
225.0
 51
265.337794
  0
ARC
  5
271
100
AcDbEntity
  8
0
370
    -3
  6
Continuous
100
AcDbCircle
 10
-484.681409
 20
262.758806
 30
0.0
 40
400.6
100
AcDbArc
 50
265.337794
 51
270.0
  0
ARC
  5
272
100
AcDbEntity
  8
0
370
    -3
  6
Continuous
100
AcDbCircle
 10
-508.605635
 20
-96.343374
 30
0.0
 40
40.6
100
AcDbArc
 50
182.946011
 51
225.0
  0
ARC
  5
273
100
AcDbEntity
  8
0
370
    -3
  6
Continuous
100
AcDbCircle
 10
-508.605635
 20
-59.339013
 30
0.0
 40
40.6
100
AcDbArc
 50
135.0
 51
177.053989
  0
ARC
  5
274
100
AcDbEntity
  8
0
370
    -3
  6
Continuous
100
AcDbCircle
 10
-149.081409
 20
-77.841194
 30
0.0
 40
400.6
100
AcDbArc
 50
177.053989
 51
180.0
  0
ARC
  5
275
100
AcDbEntity
  8
0
370
    -3
  6
Continuous
100
AcDbCircle
 10
-484.681409
 20
262.758806
 30
0.0
 40
400.6
100
AcDbArc
 50
270.0
 51
274.662206
  0
ARC
  5
276
100
AcDbEntity
  8
0
370
    -3
  6
Continuous
100
AcDbCircle
 10
-484.681409
 20
-418.441194
 30
0.0
 40
400.6
100
AcDbArc
 50
90.0
 51
94.662206
  0
ARC
  5
277
100
AcDbEntity
  8
0
370
    -3
  6
Continuous
100
AcDbCircle
 10
-515.161812
 20
-44.681987
 30
0.0
 40
25.6
100
AcDbArc
 50
94.662206
 51
135.0
  0
LINE
  5
278
100
AcDbEntity
  8
0
370
    -3
  6
Continuous
100
AcDbLine
 10
-537.31417
 20
-30.630478
 30
0.0
 11
-533.263745
 21
-26.580053
 31
0.0
  0
ARC
  5
279
100
AcDbEntity
  8
0
370
    -3
  6
Continuous
100
AcDbCircle
 10
-460.757182
 20
-59.339013
 30
0.0
 40
40.6
100
AcDbArc
 50
2.946011
 51
45.0
  0
LINE
  5
27A
100
AcDbEntity
  8
0
370
    -3
  6
Continuous
100
AcDbLine
 10
-432.048647
 20
-30.630478
 30
0.0
 11
-436.099072
 21
-26.580053
 31
0.0
  0
ARC
  5
27B
100
AcDbEntity
  8
0
370
    -3
  6
Continuous
100
AcDbCircle
 10
-454.201006
 20
-44.681987
 30
0.0
 40
25.6
100
AcDbArc
 50
45.0
 51
85.337794
  0
LINE
  5
27C
100
AcDbEntity
  8
0
370
    -3
  6
Continuous
100
AcDbLine
 10
-482.181409
 20
-36.534415
 30
0.0
 11
-482.181409
 21
-39.54955
 31
0.0
  0
LINE
  5
27D
100
AcDbEntity
  8
0
370
    -3
  6
Continuous
100
AcDbLine
 10
-452.769872
 20
-56.530308
 30
0.0
 11
-450.158689
 21
-55.022741
 31
0.0
  0
LINE
  5
27E
100
AcDbEntity
  8
0
370
    -3
  6
Continuous
100
AcDbLine
 10
-482.181409
 20
-46.092178
 30
0.0
 11
-482.181409
 21
-49.118381
 31
0.0
  0
ARC
  5
27F
100
AcDbEntity
  8
0
370
    -3
  6
Continuous
100
AcDbCircle
 10
-480.681409
 20
-46.092178
 30
0.0
 40
1.5
100
AcDbArc
 50
82.819244
 51
180.0
  0
ARC
  5
280
100
AcDbEntity
  8
0
370
    -3
  6
Continuous
100
AcDbCircle
 10
-480.681409
 20
-39.54955
 30
0.0
 40
1.5
100
AcDbArc
 50
180.0
 51
264.03643
  0
ARC
  5
281
100
AcDbEntity
  8
0
370
    -3
  6
Continuous
100
AcDbCircle
 10
-480.681409
 20
-36.534415
 30
0.0
 40
1.5
100
AcDbArc
 50
84.468928
 51
180.0
  0
ARC
  5
282
100
AcDbEntity
  8
0
370
    -3
  6
Continuous
100
AcDbCircle
 10
-450.908689
 20
-53.723703
 30
0.0
 40
1.5
100
AcDbArc
 50
300.0
 51
35.531072
  0
ARC
  5
283
100
AcDbEntity
  8
0
370
    -3
  6
Continuous
100
AcDbCircle
 10
-484.681409
 20
-77.841194
 30
0.0
 40
43.0
100
AcDbArc
 50
35.531072
 51
84.468928
  0
ARC
  5
284
100
AcDbEntity
  8
0
370
    -3
  6
Continuous
100
AcDbCircle
 10
-446.908689
 20
-60.651906
 30
0.0
 40
1.5
100
AcDbArc
 50
24.468928
 51
120.0
  0
LINE
  5
285
100
AcDbEntity
  8
0
370
    -3
  6
Continuous
100
AcDbLine
 10
-450.269872
 20
-60.860435
 30
0.0
 11
-447.658689
 21
-59.352868
 31
0.0
  0
ARC
  5
286
100
AcDbEntity
  8
0
370
    -3
  6
Continuous
100
AcDbCircle
 10
-449.519872
 20
-62.159474
 30
0.0
 40
1.5
100
AcDbArc
 50
120.0
 51
204.03643
  0
ARC
  5
287
100
AcDbEntity
  8
0
370
    -3
  6
Continuous
100
AcDbCircle
 10
-484.681409
 20
-77.841194
 30
0.0
 40
37.0
100
AcDbArc
 50
335.96357
 51
24.03643
  0
ARC
  5
288
100
AcDbEntity
  8
0
370
    -3
  6
Continuous
100
AcDbCircle
 10
-484.681409
 20
-77.841194
 30
0.0
 40
43.0
100
AcDbArc
 50
335.531072
 51
24.468928
  0
ARC
  5
289
100
AcDbEntity
  8
0
370
    -3
  6
Continuous
100
AcDbCircle
 10
-446.908689
 20
-95.030482
 30
0.0
 40
1.5
100
AcDbArc
 50
240.0
 51
335.531072
  0
LINE
  5
28A
100
AcDbEntity
  8
0
370
    -3
  6
Continuous
100
AcDbLine
 10
-447.658689
 20
-96.32952
 30
0.0
 11
-450.269872
 21
-94.821952
 31
0.0
  0
ARC
  5
28B
100
AcDbEntity
  8
0
370
    -3
  6
Continuous
100
AcDbCircle
 10
-449.519872
 20
-93.522914
 30
0.0
 40
1.5
100
AcDbArc
 50
155.96357
 51
240.0
  0
ARC
  5
28C
100
AcDbEntity
  8
0
370
    -3
  6
Continuous
100
AcDbCircle
 10
-450.908689
 20
-101.958685
 30
0.0
 40
1.5
100
AcDbArc
 50
324.468928
 51
60.0
  0
LINE
  5
28D
100
AcDbEntity
  8
0
370
    -3
  6
Continuous
100
AcDbLine
 10
-450.158689
 20
-100.659647
 30
0.0
 11
-452.769872
 21
-99.152079
 31
0.0
  0
ARC
  5
28E
100
AcDbEntity
  8
0
370
    -3
  6
Continuous
100
AcDbCircle
 10
-488.681409
 20
-36.534415
 30
0.0
 40
1.5
100
AcDbArc
 50
0.0
 51
95.531072
  0
LINE
  5
28F
100
AcDbEntity
  8
0
370
    -3
  6
Continuous
100
AcDbLine
 10
-487.181409
 20
-36.534415
 30
0.0
 11
-487.181409
 21
-39.54955
 31
0.0
  0
ARC
  5
290
100
AcDbEntity
  8
0
370
    -3
  6
Continuous
100
AcDbCircle
 10
-488.681409
 20
-39.54955
 30
0.0
 40
1.5
100
AcDbArc
 50
275.96357
 51
0.0
  0
LINE
  5
291
100
AcDbEntity
  8
0
370
    -3
  6
Continuous
100
AcDbLine
 10
-487.181409
 20
-46.092178
 30
0.0
 11
-487.181409
 21
-49.118381
 31
0.0
  0
ARC
  5
292
100
AcDbEntity
  8
0
370
    -3
  6
Continuous
100
AcDbCircle
 10
-488.681409
 20
-46.092178
 30
0.0
 40
1.5
100
AcDbArc
 50
0.0
 51
97.180756
  0
ARC
  5
293
100
AcDbEntity
  8
0
370
    -3
  6
Continuous
100
AcDbCircle
 10
-454.201006
 20
-111.000401
 30
0.0
 40
14.6
100
AcDbArc
 50
274.662206
 51
315.0
  0
ARC
  5
294
100
AcDbEntity
  8
0
370
    -3
  6
Continuous
100
AcDbCircle
 10
-460.757182
 20
-96.343374
 30
0.0
 40
29.6
100
AcDbArc
 50
315.0
 51
357.053989
  0
LINE
  5
295
100
AcDbEntity
  8
0
370
    -3
  6
Continuous
100
AcDbLine
 10
-439.826822
 20
-117.273735
 30
0.0
 11
-443.877247
 21
-121.32416
 31
0.0
  0
ARC
  5
296
100
AcDbEntity
  8
0
370
    -3
  6
Continuous
100
AcDbCircle
 10
-820.281409
 20
-77.841194
 30
0.0
 40
389.6
100
AcDbArc
 50
357.053989
 51
0.0
  0
ARC
  5
297
100
AcDbEntity
  8
0
370
    -3
  6
Continuous
100
AcDbCircle
 10
-484.681409
 20
-418.441194
 30
0.0
 40
389.6
100
AcDbArc
 50
85.337794
 51
90.0
  0
ARC
  5
298
100
AcDbEntity
  8
0
370
    -3
  6
Continuous
100
AcDbCircle
 10
-454.201006
 20
-44.681987
 30
0.0
 40
14.6
100
AcDbArc
 50
45.0
 51
85.337794
  0
LINE
  5
299
100
AcDbEntity
  8
0
370
    -3
  6
Continuous
100
AcDbLine
 10
-439.826822
 20
-38.408653
 30
0.0
 11
-443.877247
 21
-34.358228
 31
0.0
  0
ARC
  5
29A
100
AcDbEntity
  8
0
370
    -3
  6
Continuous
100
AcDbCircle
 10
-460.757182
 20
-59.339013
 30
0.0
 40
29.6
100
AcDbArc
 50
2.946011
 51
45.0
  0
ARC
  5
29B
100
AcDbEntity
  8
0
370
    -3
  6
Continuous
100
AcDbCircle
 10
-820.281409
 20
-77.841194
 30
0.0
 40
389.6
100
AcDbArc
 50
0.0
 51
2.946011
  0
ARC
  5
29C
100
AcDbEntity
  8
0
370
    -3
  6
Continuous
100
AcDbCircle
 10
-484.681409
 20
-418.441194
 30
0.0
 40
389.6
100
AcDbArc
 50
90.0
 51
94.662206
  0
ARC
  5
29D
100
AcDbEntity
  8
0
370
    -3
  6
Continuous
100
AcDbCircle
 10
-515.161812
 20
-44.681987
 30
0.0
 40
14.6
100
AcDbArc
 50
94.662206
 51
135.0
  0
LINE
  5
29E
100
AcDbEntity
  8
0
370
    -3
  6
Continuous
100
AcDbLine
 10
-529.535996
 20
-38.408653
 30
0.0
 11
-525.485571
 21
-34.358228
 31
0.0
  0
ARC
  5
29F
100
AcDbEntity
  8
0
370
    -3
  6
Continuous
100
AcDbCircle
 10
-484.681409
 20
-77.841194
 30
0.0
 40
24.0
100
AcDbArc
 50
100.240348
 51
139.759652
  0
ARC
  5
2A0
100
AcDbEntity
  8
0
370
    -3
  6
Continuous
100
AcDbCircle
 10
-501.856588
 20
-63.306297
 30
0.0
 40
1.5
100
AcDbArc
 50
139.759652
 51
240.0
  0
LINE
  5
2A1
100
AcDbEntity
  8
0
370
    -3
  6
Continuous
100
AcDbLine
 10
-499.959793
 20
-66.133463
 30
0.0
 11
-502.606588
 21
-64.605335
 31
0.0
  0
ARC
  5
2A2
100
AcDbEntity
  8
0
370
    -3
  6
Continuous
100
AcDbCircle
 10
-499.209793
 20
-64.834425
 30
0.0
 40
1.5
100
AcDbArc
 50
240.0
 51
318.162996
  0
ARC
  5
2A3
100
AcDbEntity
  8
0
370
    -3
  6
Continuous
100
AcDbCircle
 10
-484.681409
 20
-77.841194
 30
0.0
 40
18.0
100
AcDbArc
 50
101.837004
 51
138.162996
  0
ARC
  5
2A4
100
AcDbEntity
  8
0
370
    -3
  6
Continuous
100
AcDbCircle
 10
-488.681409
 20
-58.755859
 30
0.0
 40
1.5
100
AcDbArc
 50
281.837004
 51
0.0
  0
LINE
  5
2A5
100
AcDbEntity
  8
0
370
    -3
  6
Continuous
100
AcDbLine
 10
-487.181409
 20
-55.699604
 30
0.0
 11
-487.181409
 21
-58.755859
 31
0.0
  0
ARC
  5
2A6
100
AcDbEntity
  8
0
370
    -3
  6
Continuous
100
AcDbCircle
 10
-488.681409
 20
-55.699604
 30
0.0
 40
1.5
100
AcDbArc
 50
0.0
 51
100.240348
  0
ARC
  5
2A7
100
AcDbEntity
  8
0
370
    -3
  6
Continuous
100
AcDbCircle
 10
-484.681409
 20
-77.841194
 30
0.0
 40
14.5
100
AcDbArc
 50
107.920213
 51
132.079787
  0
ARC
  5
2A8
100
AcDbEntity
  8
0
370
    -3
  6
Continuous
100
AcDbCircle
 10
-493.393551
 20
-68.192434
 30
0.0
 40
1.5
100
AcDbArc
 50
132.079787
 51
240.0
  0
LINE
  5
2A9
100
AcDbEntity
  8
0
370
    -3
  6
Continuous
100
AcDbLine
 10
-491.368663
 20
-71.093555
 30
0.0
 11
-494.143551
 21
-69.491472
 31
0.0
  0
ARC
  5
2AA
100
AcDbEntity
  8
0
370
    -3
  6
Continuous
100
AcDbCircle
 10
-490.618663
 20
-69.794517
 30
0.0
 40
1.5
100
AcDbArc
 50
240.0
 51
306.421822
  0
ARC
  5
2AB
100
AcDbEntity
  8
0
370
    -3
  6
Continuous
100
AcDbCircle
 10
-484.681409
 20
-77.841194
 30
0.0
 40
8.5
100
AcDbArc
 50
113.578178
 51
126.421822
  0
ARC
  5
2AC
100
AcDbEntity
  8
0
370
    -3
  6
Continuous
100
AcDbCircle
 10
-488.681409
 20
-68.676043
 30
0.0
 40
1.5
100
AcDbArc
 50
293.578178
 51
0.0
  0
LINE
  5
2AD
100
AcDbEntity
  8
0
370
    -3
  6
Continuous
100
AcDbLine
 10
-487.181409
 20
-65.471877
 30
0.0
 11
-487.181409
 21
-68.676043
 31
0.0
  0
ARC
  5
2AE
100
AcDbEntity
  8
0
370
    -3
  6
Continuous
100
AcDbCircle
 10
-488.681409
 20
-65.471877
 30
0.0
 40
1.5
100
AcDbArc
 50
0.0
 51
107.920213
  0
ARC
  5
2AF
100
AcDbEntity
  8
0
370
    -3
  6
Continuous
100
AcDbCircle
 10
-484.681409
 20
-77.841194
 30
0.0
 40
24.0
100
AcDbArc
 50
280.240348
 51
319.759652
  0
ARC
  5
2B0
100
AcDbEntity
  8
0
370
    -3
  6
Continuous
100
AcDbCircle
 10
-480.681409
 20
-99.982784
 30
0.0
 40
1.5
100
AcDbArc
 50
180.0
 51
280.240348
  0
LINE
  5
2B1
100
AcDbEntity
  8
0
370
    -3
  6
Continuous
100
AcDbLine
 10
-482.181409
 20
-96.926529
 30
0.0
 11
-482.181409
 21
-99.982784
 31
0.0
  0
ARC
  5
2B2
100
AcDbEntity
  8
0
370
    -3
  6
Continuous
100
AcDbCircle
 10
-480.681409
 20
-96.926529
 30
0.0
 40
1.5
100
AcDbArc
 50
101.837004
 51
180.0
  0
ARC
  5
2B3
100
AcDbEntity
  8
0
370
    -3
  6
Continuous
100
AcDbCircle
 10
-484.681409
 20
-77.841194
 30
0.0
 40
18.0
100
AcDbArc
 50
281.837004
 51
318.162996
  0
ARC
  5
2B4
100
AcDbEntity
  8
0
370
    -3
  6
Continuous
100
AcDbCircle
 10
-470.153024
 20
-90.847963
 30
0.0
 40
1.5
100
AcDbArc
 50
60.0
 51
138.162996
  0
LINE
  5
2B5
100
AcDbEntity
  8
0
370
    -3
  6
Continuous
100
AcDbLine
 10
-466.75623
 20
-91.077052
 30
0.0
 11
-469.403024
 21
-89.548925
 31
0.0
  0
ARC
  5
2B6
100
AcDbEntity
  8
0
370
    -3
  6
Continuous
100
AcDbCircle
 10
-467.50623
 20
-92.37609
 30
0.0
 40
1.5
100
AcDbArc
 50
319.759652
 51
60.0
  0
ARC
  5
2B7
100
AcDbEntity
  8
0
370
    -3
  6
Continuous
100
AcDbCircle
 10
-484.681409
 20
-77.841194
 30
0.0
 40
14.5
100
AcDbArc
 50
287.920213
 51
312.079787
  0
ARC
  5
2B8
100
AcDbEntity
  8
0
370
    -3
  6
Continuous
100
AcDbCircle
 10
-480.681409
 20
-90.210511
 30
0.0
 40
1.5
100
AcDbArc
 50
180.0
 51
287.920213
  0
LINE
  5
2B9
100
AcDbEntity
  8
0
370
    -3
  6
Continuous
100
AcDbLine
 10
-482.181409
 20
-87.006345
 30
0.0
 11
-482.181409
 21
-90.210511
 31
0.0
  0
ARC
  5
2BA
100
AcDbEntity
  8
0
370
    -3
  6
Continuous
100
AcDbCircle
 10
-480.681409
 20
-87.006345
 30
0.0
 40
1.5
100
AcDbArc
 50
113.578178
 51
180.0
  0
ARC
  5
2BB
100
AcDbEntity
  8
0
370
    -3
  6
Continuous
100
AcDbCircle
 10
-484.681409
 20
-77.841194
 30
0.0
 40
8.5
100
AcDbArc
 50
293.578178
 51
306.421822
  0
ARC
  5
2BC
100
AcDbEntity
  8
0
370
    -3
  6
Continuous
100
AcDbCircle
 10
-478.744155
 20
-85.887871
 30
0.0
 40
1.5
100
AcDbArc
 50
60.0
 51
126.421822
  0
LINE
  5
2BD
100
AcDbEntity
  8
0
370
    -3
  6
Continuous
100
AcDbLine
 10
-475.219266
 20
-86.190916
 30
0.0
 11
-477.994155
 21
-84.588833
 31
0.0
  0
ARC
  5
2BE
100
AcDbEntity
  8
0
370
    -3
  6
Continuous
100
AcDbCircle
 10
-475.969266
 20
-87.489954
 30
0.0
 40
1.5
100
AcDbArc
 50
312.079787
 51
60.0
  0
ARC
  5
2BF
100
AcDbEntity
  8
0
370
    -3
  6
Continuous
100
AcDbCircle
 10
-484.681409
 20
-77.841194
 30
0.0
 40
24.0
100
AcDbArc
 50
220.240348
 51
259.759652
  0
ARC
  5
2C0
100
AcDbEntity
  8
0
370
    -3
  6
Continuous
100
AcDbCircle
 10
-488.681409
 20
-99.982784
 30
0.0
 40
1.5
100
AcDbArc
 50
259.759652
 51
0.0
  0
LINE
  5
2C1
100
AcDbEntity
  8
0
370
    -3
  6
Continuous
100
AcDbLine
 10
-487.181409
 20
-96.926529
 30
0.0
 11
-487.181409
 21
-99.982784
 31
0.0
  0
ARC
  5
2C2
100
AcDbEntity
  8
0
370
    -3
  6
Continuous
100
AcDbCircle
 10
-488.681409
 20
-96.926529
 30
0.0
 40
1.5
100
AcDbArc
 50
0.0
 51
78.162996
  0
ARC
  5
2C3
100
AcDbEntity
  8
0
370
    -3
  6
Continuous
100
AcDbCircle
 10
-484.681409
 20
-77.841194
 30
0.0
 40
18.0
100
AcDbArc
 50
221.837004
 51
258.162996
  0
ARC
  5
2C4
100
AcDbEntity
  8
0
370
    -3
  6
Continuous
100
AcDbCircle
 10
-499.209793
 20
-90.847963
 30
0.0
 40
1.5
100
AcDbArc
 50
41.837004
 51
120.0
  0
LINE
  5
2C5
100
AcDbEntity
  8
0
370
    -3
  6
Continuous
100
AcDbLine
 10
-502.606588
 20
-91.077052
 30
0.0
 11
-499.959793
 21
-89.548925
 31
0.0
  0
ARC
  5
2C6
100
AcDbEntity
  8
0
370
    -3
  6
Continuous
100
AcDbCircle
 10
-501.856588
 20
-92.37609
 30
0.0
 40
1.5
100
AcDbArc
 50
120.0
 51
220.240348
  0
ARC
  5
2C7
100
AcDbEntity
  8
0
370
    -3
  6
Continuous
100
AcDbCircle
 10
-484.681409
 20
-77.841194
 30
0.0
 40
14.5
100
AcDbArc
 50
227.920213
 51
252.079787
  0
ARC
  5
2C8
100
AcDbEntity
  8
0
370
    -3
  6
Continuous
100
AcDbCircle
 10
-488.681409
 20
-90.210511
 30
0.0
 40
1.5
100
AcDbArc
 50
252.079787
 51
0.0
  0
LINE
  5
2C9
100
AcDbEntity
  8
0
370
    -3
  6
Continuous
100
AcDbLine
 10
-487.181409
 20
-87.006345
 30
0.0
 11
-487.181409
 21
-90.210511
 31
0.0
  0
ARC
  5
2CA
100
AcDbEntity
  8
0
370
    -3
  6
Continuous
100
AcDbCircle
 10
-488.681409
 20
-87.006345
 30
0.0
 40
1.5
100
AcDbArc
 50
0.0
 51
66.421822
  0
ARC
  5
2CB
100
AcDbEntity
  8
0
370
    -3
  6
Continuous
100
AcDbCircle
 10
-484.681409
 20
-77.841194
 30
0.0
 40
8.5
100
AcDbArc
 50
233.578178
 51
246.421822
  0
ARC
  5
2CC
100
AcDbEntity
  8
0
370
    -3
  6
Continuous
100
AcDbCircle
 10
-490.618663
 20
-85.887871
 30
0.0
 40
1.5
100
AcDbArc
 50
53.578178
 51
120.0
  0
LINE
  5
2CD
100
AcDbEntity
  8
0
370
    -3
  6
Continuous
100
AcDbLine
 10
-494.143551
 20
-86.190916
 30
0.0
 11
-491.368663
 21
-84.588833
 31
0.0
  0
ARC
  5
2CE
100
AcDbEntity
  8
0
370
    -3
  6
Continuous
100
AcDbCircle
 10
-493.393551
 20
-87.489954
 30
0.0
 40
1.5
100
AcDbArc
 50
120.0
 51
227.920213
  0
ARC
  5
2CF
100
AcDbEntity
  8
0
370
    -3
  6
Continuous
100
AcDbCircle
 10
-484.681409
 20
-77.841194
 30
0.0
 40
24.0
100
AcDbArc
 50
160.240348
 51
199.759652
  0
ARC
  5
2D0
100
AcDbEntity
  8
0
370
    -3
  6
Continuous
100
AcDbCircle
 10
-505.856588
 20
-70.234501
 30
0.0
 40
1.5
100
AcDbArc
 50
60.0
 51
160.240348
  0
LINE
  5
2D1
100
AcDbEntity
  8
0
370
    -3
  6
Continuous
100
AcDbLine
 10
-502.459793
 20
-70.46359
 30
0.0
 11
-505.106588
 21
-68.935462
 31
0.0
  0
ARC
  5
2D2
100
AcDbEntity
  8
0
370
    -3
  6
Continuous
100
AcDbCircle
 10
-503.209793
 20
-71.762628
 30
0.0
 40
1.5
100
AcDbArc
 50
341.837004
 51
60.0
  0
ARC
  5
2D3
100
AcDbEntity
  8
0
370
    -3
  6
Continuous
100
AcDbCircle
 10
-484.681409
 20
-77.841194
 30
0.0
 40
18.0
100
AcDbArc
 50
161.837004
 51
198.162996
  0
ARC
  5
2D4
100
AcDbEntity
  8
0
370
    -3
  6
Continuous
100
AcDbCircle
 10
-503.209793
 20
-83.91976
 30
0.0
 40
1.5
100
AcDbArc
 50
300.0
 51
18.162996
  0
LINE
  5
2D5
100
AcDbEntity
  8
0
370
    -3
  6
Continuous
100
AcDbLine
 10
-505.106588
 20
-86.746925
 30
0.0
 11
-502.459793
 21
-85.218798
 31
0.0
  0
ARC
  5
2D6
100
AcDbEntity
  8
0
370
    -3
  6
Continuous
100
AcDbCircle
 10
-505.856588
 20
-85.447887
 30
0.0
 40
1.5
100
AcDbArc
 50
199.759652
 51
300.0
  0
ARC
  5
2D7
100
AcDbEntity
  8
0
370
    -3
  6
Continuous
100
AcDbCircle
 10
-484.681409
 20
-77.841194
 30
0.0
 40
14.5
100
AcDbArc
 50
167.920213
 51
192.079787
  0
ARC
  5
2D8
100
AcDbEntity
  8
0
370
    -3
  6
Continuous
100
AcDbCircle
 10
-497.393551
 20
-75.120637
 30
0.0
 40
1.5
100
AcDbArc
 50
60.0
 51
167.920213
  0
LINE
  5
2D9
100
AcDbEntity
  8
0
370
    -3
  6
Continuous
100
AcDbLine
 10
-493.868663
 20
-75.423682
 30
0.0
 11
-496.643551
 21
-73.821599
 31
0.0
  0
ARC
  5
2DA
100
AcDbEntity
  8
0
370
    -3
  6
Continuous
100
AcDbCircle
 10
-494.618663
 20
-76.72272
 30
0.0
 40
1.5
100
AcDbArc
 50
353.578178
 51
60.0
  0
ARC
  5
2DB
100
AcDbEntity
  8
0
370
    -3
  6
Continuous
100
AcDbCircle
 10
-484.681409
 20
-77.841194
 30
0.0
 40
8.5
100
AcDbArc
 50
173.578178
 51
186.421822
  0
ARC
  5
2DC
100
AcDbEntity
  8
0
370
    -3
  6
Continuous
100
AcDbCircle
 10
-494.618663
 20
-78.959668
 30
0.0
 40
1.5
100
AcDbArc
 50
300.0
 51
6.421822
  0
LINE
  5
2DD
100
AcDbEntity
  8
0
370
    -3
  6
Continuous
100
AcDbLine
 10
-496.643551
 20
-81.860789
 30
0.0
 11
-493.868663
 21
-80.258706
 31
0.0
  0
ARC
  5
2DE
100
AcDbEntity
  8
0
370
    -3
  6
Continuous
100
AcDbCircle
 10
-497.393551
 20
-80.561751
 30
0.0
 40
1.5
100
AcDbArc
 50
192.079787
 51
300.0
  0
ARC
  5
2DF
100
AcDbEntity
  8
0
370
    -3
  6
Continuous
100
AcDbCircle
 10
-484.681409
 20
-77.841194
 30
0.0
 40
24.0
100
AcDbArc
 50
340.240348
 51
19.759652
  0
ARC
  5
2E0
100
AcDbEntity
  8
0
370
    -3
  6
Continuous
100
AcDbCircle
 10
-463.50623
 20
-70.234501
 30
0.0
 40
1.5
100
AcDbArc
 50
19.759652
 51
120.0
  0
LINE
  5
2E1
100
AcDbEntity
  8
0
370
    -3
  6
Continuous
100
AcDbLine
 10
-466.903024
 20
-70.46359
 30
0.0
 11
-464.25623
 21
-68.935462
 31
0.0
  0
ARC
  5
2E2
100
AcDbEntity
  8
0
370
    -3
  6
Continuous
100
AcDbCircle
 10
-466.153024
 20
-71.762628
 30
0.0
 40
1.5
100
AcDbArc
 50
120.0
 51
198.162996
  0
ARC
  5
2E3
100
AcDbEntity
  8
0
370
    -3
  6
Continuous
100
AcDbCircle
 10
-484.681409
 20
-77.841194
 30
0.0
 40
18.0
100
AcDbArc
 50
341.837004
 51
18.162996
  0
ARC
  5
2E4
100
AcDbEntity
  8
0
370
    -3
  6
Continuous
100
AcDbCircle
 10
-466.153024
 20
-83.91976
 30
0.0
 40
1.5
100
AcDbArc
 50
161.837004
 51
240.0
  0
LINE
  5
2E5
100
AcDbEntity
  8
0
370
    -3
  6
Continuous
100
AcDbLine
 10
-464.25623
 20
-86.746925
 30
0.0
 11
-466.903024
 21
-85.218798
 31
0.0
  0
ARC
  5
2E6
100
AcDbEntity
  8
0
370
    -3
  6
Continuous
100
AcDbCircle
 10
-463.50623
 20
-85.447887
 30
0.0
 40
1.5
100
AcDbArc
 50
240.0
 51
340.240348
  0
ARC
  5
2E7
100
AcDbEntity
  8
0
370
    -3
  6
Continuous
100
AcDbCircle
 10
-484.681409
 20
-77.841194
 30
0.0
 40
14.5
100
AcDbArc
 50
347.920213
 51
12.079787
  0
ARC
  5
2E8
100
AcDbEntity
  8
0
370
    -3
  6
Continuous
100
AcDbCircle
 10
-471.969266
 20
-75.120637
 30
0.0
 40
1.5
100
AcDbArc
 50
12.079787
 51
120.0
  0
LINE
  5
2E9
100
AcDbEntity
  8
0
370
    -3
  6
Continuous
100
AcDbLine
 10
-475.494155
 20
-75.423682
 30
0.0
 11
-472.719266
 21
-73.821599
 31
0.0
  0
ARC
  5
2EA
100
AcDbEntity
  8
0
370
    -3
  6
Continuous
100
AcDbCircle
 10
-474.744155
 20
-76.72272
 30
0.0
 40
1.5
100
AcDbArc
 50
120.0
 51
186.421822
  0
ARC
  5
2EB
100
AcDbEntity
  8
0
370
    -3
  6
Continuous
100
AcDbCircle
 10
-484.681409
 20
-77.841194
 30
0.0
 40
8.5
100
AcDbArc
 50
353.578178
 51
6.421822
  0
ARC
  5
2EC
100
AcDbEntity
  8
0
370
    -3
  6
Continuous
100
AcDbCircle
 10
-474.744155
 20
-78.959668
 30
0.0
 40
1.5
100
AcDbArc
 50
173.578178
 51
240.0
  0
LINE
  5
2ED
100
AcDbEntity
  8
0
370
    -3
  6
Continuous
100
AcDbLine
 10
-472.719266
 20
-81.860789
 30
0.0
 11
-475.494155
 21
-80.258706
 31
0.0
  0
ARC
  5
2EE
100
AcDbEntity
  8
0
370
    -3
  6
Continuous
100
AcDbCircle
 10
-471.969266
 20
-80.561751
 30
0.0
 40
1.5
100
AcDbArc
 50
240.0
 51
347.920213
  0
ARC
  5
2EF
100
AcDbEntity
  8
0
370
    -3
  6
Continuous
100
AcDbCircle
 10
-484.681409
 20
-77.841194
 30
0.0
 40
8.5
100
AcDbArc
 50
53.578178
 51
66.421822
  0
ARC
  5
2F0
100
AcDbEntity
  8
0
370
    -3
  6
Continuous
100
AcDbCircle
 10
-484.681409
 20
-77.841194
 30
0.0
 40
24.0
100
AcDbArc
 50
40.240348
 51
79.759652
  0
LINE
  5
2F1
100
AcDbEntity
  8
0
370
    -3
  6
Continuous
100
AcDbLine
 10
-477.994155
 20
-71.093555
 30
0.0
 11
-475.219266
 21
-69.491472
 31
0.0
  0
LINE
  5
2F2
100
AcDbEntity
  8
0
370
    -3
  6
Continuous
100
AcDbLine
 10
-482.181409
 20
-55.699604
 30
0.0
 11
-482.181409
 21
-58.755859
 31
0.0
  0
LINE
  5
2F3
100
AcDbEntity
  8
0
370
    -3
  6
Continuous
100
AcDbLine
 10
-482.181409
 20
-65.471877
 30
0.0
 11
-482.181409
 21
-68.676043
 31
0.0
  0
ARC
  5
2F4
100
AcDbEntity
  8
0
370
    -3
  6
Continuous
100
AcDbCircle
 10
-484.681409
 20
-77.841194
 30
0.0
 40
14.5
100
AcDbArc
 50
47.920213
 51
72.079787
  0
ARC
  5
2F5
100
AcDbEntity
  8
0
370
    -3
  6
Continuous
100
AcDbCircle
 10
-484.681409
 20
-77.841194
 30
0.0
 40
18.0
100
AcDbArc
 50
41.837004
 51
78.162996
  0
LINE
  5
2F6
100
AcDbEntity
  8
0
370
    -3
  6
Continuous
100
AcDbLine
 10
-469.403024
 20
-66.133463
 30
0.0
 11
-466.75623
 21
-64.605335
 31
0.0
  0
ARC
  5
2F7
100
AcDbEntity
  8
0
370
    -3
  6
Continuous
100
AcDbCircle
 10
-475.969266
 20
-68.192434
 30
0.0
 40
1.5
100
AcDbArc
 50
300.0
 51
47.920213
  0
ARC
  5
2F8
100
AcDbEntity
  8
0
370
    -3
  6
Continuous
100
AcDbCircle
 10
-480.681409
 20
-55.699604
 30
0.0
 40
1.5
100
AcDbArc
 50
79.759652
 51
180.0
  0
ARC
  5
2F9
100
AcDbEntity
  8
0
370
    -3
  6
Continuous
100
AcDbCircle
 10
-470.153024
 20
-64.834425
 30
0.0
 40
1.5
100
AcDbArc
 50
221.837004
 51
300.0
  0
ARC
  5
2FA
100
AcDbEntity
  8
0
370
    -3
  6
Continuous
100
AcDbCircle
 10
-480.681409
 20
-58.755859
 30
0.0
 40
1.5
100
AcDbArc
 50
180.0
 51
258.162996
  0
ARC
  5
2FB
100
AcDbEntity
  8
0
370
    -3
  6
Continuous
100
AcDbCircle
 10
-480.681409
 20
-65.471877
 30
0.0
 40
1.5
100
AcDbArc
 50
72.079787
 51
180.0
  0
ARC
  5
2FC
100
AcDbEntity
  8
0
370
    -3
  6
Continuous
100
AcDbCircle
 10
-467.50623
 20
-63.306297
 30
0.0
 40
1.5
100
AcDbArc
 50
300.0
 51
40.240348
  0
ARC
  5
2FD
100
AcDbEntity
  8
0
370
    -3
  6
Continuous
100
AcDbCircle
 10
-480.681409
 20
-68.676043
 30
0.0
 40
1.5
100
AcDbArc
 50
180.0
 51
246.421822
  0
ARC
  5
2FE
100
AcDbEntity
  8
0
370
    -3
  6
Continuous
100
AcDbCircle
 10
-478.744155
 20
-69.794517
 30
0.0
 40
1.5
100
AcDbArc
 50
233.578178
 51
300.0
  0
CIRCLE
  5
2FF
100
AcDbEntity
  8
0
370
    -3
  6
Continuous
100
AcDbCircle
 10
-484.681409
 20
-77.841194
 30
0.0
 40
5.0
  0
ARC
  5
300
100
AcDbEntity
  8
0
370
    -3
  6
Continuous
100
AcDbCircle
 10
-461.806723
 20
-60.015686
 30
0.0
 40
1.5
100
AcDbArc
 50
217.928142
 51
300.0
  0
LINE
  5
301
100
AcDbEntity
  8
0
370
    -3
  6
Continuous
100
AcDbLine
 10
-461.056723
 20
-61.314724
 30
0.0
 11
-458.435955
 21
-59.801623
 31
0.0
  0
ARC
  5
302
100
AcDbEntity
  8
0
370
    -3
  6
Continuous
100
AcDbCircle
 10
-480.681409
 20
-49.118381
 30
0.0
 40
1.5
100
AcDbArc
 50
180.0
 51
262.071858
  0
ARC
  5
303
100
AcDbEntity
  8
0
370
    -3
  6
Continuous
100
AcDbCircle
 10
-484.681409
 20
-77.841194
 30
0.0
 40
27.5
100
AcDbArc
 50
37.928142
 51
82.071858
  0
ARC
  5
304
100
AcDbEntity
  8
0
370
    -3
  6
Continuous
100
AcDbCircle
 10
-459.185955
 20
-58.502584
 30
0.0
 40
1.5
100
AcDbArc
 50
300.0
 51
37.180756
  0
ARC
  5
305
100
AcDbEntity
  8
0
370
    -3
  6
Continuous
100
AcDbCircle
 10
-453.519872
 20
-55.23127
 30
0.0
 40
1.5
100
AcDbArc
 50
215.96357
 51
300.0
  0
ARC
  5
306
100
AcDbEntity
  8
0
370
    -3
  6
Continuous
100
AcDbCircle
 10
-484.681409
 20
-77.841194
 30
0.0
 40
37.0
100
AcDbArc
 50
35.96357
 51
84.03643
  0
ARC
  5
307
100
AcDbEntity
  8
0
370
    -3
  6
Continuous
100
AcDbCircle
 10
-484.681409
 20
-77.841194
 30
0.0
 40
33.5
100
AcDbArc
 50
37.180756
 51
82.819244
  0
LINE
  5
308
100
AcDbEntity
  8
0
370
    -3
  6
Continuous
100
AcDbLine
 10
-458.556723
 20
-65.644851
 30
0.0
 11
-455.935955
 21
-64.13175
 31
0.0
  0
ARC
  5
309
100
AcDbEntity
  8
0
370
    -3
  6
Continuous
100
AcDbCircle
 10
-455.185955
 20
-65.430788
 30
0.0
 40
1.5
100
AcDbArc
 50
22.819244
 51
120.0
  0
ARC
  5
30A
100
AcDbEntity
  8
0
370
    -3
  6
Continuous
100
AcDbCircle
 10
-457.806723
 20
-66.943889
 30
0.0
 40
1.5
100
AcDbArc
 50
120.0
 51
202.071858
  0
ARC
  5
30B
100
AcDbEntity
  8
0
370
    -3
  6
Continuous
100
AcDbCircle
 10
-484.681409
 20
-77.841194
 30
0.0
 40
27.5
100
AcDbArc
 50
337.928142
 51
22.071858
  0
ARC
  5
30C
100
AcDbEntity
  8
0
370
    -3
  6
Continuous
100
AcDbCircle
 10
-484.681409
 20
-77.841194
 30
0.0
 40
33.5
100
AcDbArc
 50
337.180756
 51
22.819244
  0
ARC
  5
30D
100
AcDbEntity
  8
0
370
    -3
  6
Continuous
100
AcDbCircle
 10
-457.806723
 20
-88.738499
 30
0.0
 40
1.5
100
AcDbArc
 50
157.928142
 51
240.0
  0
LINE
  5
30E
100
AcDbEntity
  8
0
370
    -3
  6
Continuous
100
AcDbLine
 10
-455.935955
 20
-91.550638
 30
0.0
 11
-458.556723
 21
-90.037537
 31
0.0
  0
ARC
  5
30F
100
AcDbEntity
  8
0
370
    -3
  6
Continuous
100
AcDbCircle
 10
-455.185955
 20
-90.2516
 30
0.0
 40
1.5
100
AcDbArc
 50
240.0
 51
337.180756
  0
ARC
  5
310
100
AcDbEntity
  8
0
370
    -3
  6
Continuous
100
AcDbCircle
 10
-480.681409
 20
-119.147973
 30
0.0
 40
1.5
100
AcDbArc
 50
180.0
 51
275.531072
  0
LINE
  5
311
100
AcDbEntity
  8
0
370
    -3
  6
Continuous
100
AcDbLine
 10
-482.181409
 20
-116.132838
 30
0.0
 11
-482.181409
 21
-119.147973
 31
0.0
  0
LINE
  5
312
100
AcDbEntity
  8
0
370
    -3
  6
Continuous
100
AcDbLine
 10
-482.181409
 20
-106.564007
 30
0.0
 11
-482.181409
 21
-109.59021
 31
0.0
  0
ARC
  5
313
100
AcDbEntity
  8
0
370
    -3
  6
Continuous
100
AcDbCircle
 10
-480.681409
 20
-116.132838
 30
0.0
 40
1.5
100
AcDbArc
 50
95.96357
 51
180.0
  0
ARC
  5
314
100
AcDbEntity
  8
0
370
    -3
  6
Continuous
100
AcDbCircle
 10
-480.681409
 20
-109.59021
 30
0.0
 40
1.5
100
AcDbArc
 50
180.0
 51
277.180756
  0
ARC
  5
315
100
AcDbEntity
  8
0
370
    -3
  6
Continuous
100
AcDbCircle
 10
-480.681409
 20
-106.564007
 30
0.0
 40
1.5
100
AcDbArc
 50
97.928142
 51
180.0
  0
ARC
  5
316
100
AcDbEntity
  8
0
370
    -3
  6
Continuous
100
AcDbCircle
 10
-484.681409
 20
-77.841194
 30
0.0
 40
27.5
100
AcDbArc
 50
277.928142
 51
322.071858
  0
ARC
  5
317
100
AcDbEntity
  8
0
370
    -3
  6
Continuous
100
AcDbCircle
 10
-484.681409
 20
-77.841194
 30
0.0
 40
37.0
100
AcDbArc
 50
275.96357
 51
324.03643
  0
ARC
  5
318
100
AcDbEntity
  8
0
370
    -3
  6
Continuous
100
AcDbCircle
 10
-484.681409
 20
-77.841194
 30
0.0
 40
43.0
100
AcDbArc
 50
275.531072
 51
324.468928
  0
ARC
  5
319
100
AcDbEntity
  8
0
370
    -3
  6
Continuous
100
AcDbCircle
 10
-484.681409
 20
-77.841194
 30
0.0
 40
33.5
100
AcDbArc
 50
277.180756
 51
322.819244
  0
ARC
  5
31A
100
AcDbEntity
  8
0
370
    -3
  6
Continuous
100
AcDbCircle
 10
-461.806723
 20
-95.666702
 30
0.0
 40
1.5
100
AcDbArc
 50
60.0
 51
142.071858
  0
ARC
  5
31B
100
AcDbEntity
  8
0
370
    -3
  6
Continuous
100
AcDbCircle
 10
-453.519872
 20
-100.451118
 30
0.0
 40
1.5
100
AcDbArc
 50
60.0
 51
144.03643
  0
LINE
  5
31C
100
AcDbEntity
  8
0
370
    -3
  6
Continuous
100
AcDbLine
 10
-458.435955
 20
-95.880765
 30
0.0
 11
-461.056723
 21
-94.367664
 31
0.0
  0
ARC
  5
31D
100
AcDbEntity
  8
0
370
    -3
  6
Continuous
100
AcDbCircle
 10
-459.185955
 20
-97.179803
 30
0.0
 40
1.5
100
AcDbArc
 50
322.819244
 51
60.0
  0
ARC
  5
31E
100
AcDbEntity
  8
0
370
    -3
  6
Continuous
100
AcDbCircle
 10
-488.681409
 20
-119.147973
 30
0.0
 40
1.5
100
AcDbArc
 50
264.468928
 51
0.0
  0
LINE
  5
31F
100
AcDbEntity
  8
0
370
    -3
  6
Continuous
100
AcDbLine
 10
-487.181409
 20
-116.132838
 30
0.0
 11
-487.181409
 21
-119.147973
 31
0.0
  0
LINE
  5
320
100
AcDbEntity
  8
0
370
    -3
  6
Continuous
100
AcDbLine
 10
-487.181409
 20
-106.564007
 30
0.0
 11
-487.181409
 21
-109.59021
 31
0.0
  0
ARC
  5
321
100
AcDbEntity
  8
0
370
    -3
  6
Continuous
100
AcDbCircle
 10
-488.681409
 20
-116.132838
 30
0.0
 40
1.5
100
AcDbArc
 50
0.0
 51
84.03643
  0
ARC
  5
322
100
AcDbEntity
  8
0
370
    -3
  6
Continuous
100
AcDbCircle
 10
-488.681409
 20
-109.59021
 30
0.0
 40
1.5
100
AcDbArc
 50
262.819244
 51
0.0
  0
ARC
  5
323
100
AcDbEntity
  8
0
370
    -3
  6
Continuous
100
AcDbCircle
 10
-488.681409
 20
-106.564007
 30
0.0
 40
1.5
100
AcDbArc
 50
0.0
 51
82.071858
  0
ARC
  5
324
100
AcDbEntity
  8
0
370
    -3
  6
Continuous
100
AcDbCircle
 10
-484.681409
 20
-77.841194
 30
0.0
 40
27.5
100
AcDbArc
 50
217.928142
 51
262.071858
  0
ARC
  5
325
100
AcDbEntity
  8
0
370
    -3
  6
Continuous
100
AcDbCircle
 10
-484.681409
 20
-77.841194
 30
0.0
 40
37.0
100
AcDbArc
 50
215.96357
 51
264.03643
  0
ARC
  5
326
100
AcDbEntity
  8
0
370
    -3
  6
Continuous
100
AcDbCircle
 10
-484.681409
 20
-77.841194
 30
0.0
 40
43.0
100
AcDbArc
 50
215.531072
 51
264.468928
  0
ARC
  5
327
100
AcDbEntity
  8
0
370
    -3
  6
Continuous
100
AcDbCircle
 10
-484.681409
 20
-77.841194
 30
0.0
 40
33.5
100
AcDbArc
 50
217.180756
 51
262.819244
  0
ARC
  5
328
100
AcDbEntity
  8
0
370
    -3
  6
Continuous
100
AcDbCircle
 10
-507.556095
 20
-95.666702
 30
0.0
 40
1.5
100
AcDbArc
 50
37.928142
 51
120.0
  0
ARC
  5
329
100
AcDbEntity
  8
0
370
    -3
  6
Continuous
100
AcDbCircle
 10
-518.454129
 20
-101.958685
 30
0.0
 40
1.5
100
AcDbArc
 50
120.0
 51
215.531072
  0
LINE
  5
32A
100
AcDbEntity
  8
0
370
    -3
  6
Continuous
100
AcDbLine
 10
-519.204129
 20
-100.659647
 30
0.0
 11
-516.592945
 21
-99.152079
 31
0.0
  0
ARC
  5
32B
100
AcDbEntity
  8
0
370
    -3
  6
Continuous
100
AcDbCircle
 10
-515.842945
 20
-100.451118
 30
0.0
 40
1.5
100
AcDbArc
 50
35.96357
 51
120.0
  0
LINE
  5
32C
100
AcDbEntity
  8
0
370
    -3
  6
Continuous
100
AcDbLine
 10
-510.926863
 20
-95.880765
 30
0.0
 11
-508.306095
 21
-94.367664
 31
0.0
  0
ARC
  5
32D
100
AcDbEntity
  8
0
370
    -3
  6
Continuous
100
AcDbCircle
 10
-510.176863
 20
-97.179803
 30
0.0
 40
1.5
100
AcDbArc
 50
120.0
 51
217.180756
  0
ARC
  5
32E
100
AcDbEntity
  8
0
370
    -3
  6
Continuous
100
AcDbCircle
 10
-522.454129
 20
-60.651906
 30
0.0
 40
1.5
100
AcDbArc
 50
60.0
 51
155.531072
  0
LINE
  5
32F
100
AcDbEntity
  8
0
370
    -3
  6
Continuous
100
AcDbLine
 10
-519.092945
 20
-60.860435
 30
0.0
 11
-521.704129
 21
-59.352868
 31
0.0
  0
LINE
  5
330
100
AcDbEntity
  8
0
370
    -3
  6
Continuous
100
AcDbLine
 10
-510.806095
 20
-65.644851
 30
0.0
 11
-513.426863
 21
-64.13175
 31
0.0
  0
ARC
  5
331
100
AcDbEntity
  8
0
370
    -3
  6
Continuous
100
AcDbCircle
 10
-519.842945
 20
-62.159474
 30
0.0
 40
1.5
100
AcDbArc
 50
335.96357
 51
60.0
  0
ARC
  5
332
100
AcDbEntity
  8
0
370
    -3
  6
Continuous
100
AcDbCircle
 10
-514.176863
 20
-65.430788
 30
0.0
 40
1.5
100
AcDbArc
 50
60.0
 51
157.180756
  0
ARC
  5
333
100
AcDbEntity
  8
0
370
    -3
  6
Continuous
100
AcDbCircle
 10
-511.556095
 20
-66.943889
 30
0.0
 40
1.5
100
AcDbArc
 50
337.928142
 51
60.0
  0
ARC
  5
334
100
AcDbEntity
  8
0
370
    -3
  6
Continuous
100
AcDbCircle
 10
-484.681409
 20
-77.841194
 30
0.0
 40
27.5
100
AcDbArc
 50
157.928142
 51
202.071858
  0
ARC
  5
335
100
AcDbEntity
  8
0
370
    -3
  6
Continuous
100
AcDbCircle
 10
-484.681409
 20
-77.841194
 30
0.0
 40
37.0
100
AcDbArc
 50
155.96357
 51
204.03643
  0
ARC
  5
336
100
AcDbEntity
  8
0
370
    -3
  6
Continuous
100
AcDbCircle
 10
-484.681409
 20
-77.841194
 30
0.0
 40
43.0
100
AcDbArc
 50
155.531072
 51
204.468928
  0
ARC
  5
337
100
AcDbEntity
  8
0
370
    -3
  6
Continuous
100
AcDbCircle
 10
-484.681409
 20
-77.841194
 30
0.0
 40
33.5
100
AcDbArc
 50
157.180756
 51
202.819244
  0
ARC
  5
338
100
AcDbEntity
  8
0
370
    -3
  6
Continuous
100
AcDbCircle
 10
-511.556095
 20
-88.738499
 30
0.0
 40
1.5
100
AcDbArc
 50
300.0
 51
22.071858
  0
ARC
  5
339
100
AcDbEntity
  8
0
370
    -3
  6
Continuous
100
AcDbCircle
 10
-522.454129
 20
-95.030482
 30
0.0
 40
1.5
100
AcDbArc
 50
204.468928
 51
300.0
  0
LINE
  5
33A
100
AcDbEntity
  8
0
370
    -3
  6
Continuous
100
AcDbLine
 10
-521.704129
 20
-96.32952
 30
0.0
 11
-519.092945
 21
-94.821952
 31
0.0
  0
ARC
  5
33B
100
AcDbEntity
  8
0
370
    -3
  6
Continuous
100
AcDbCircle
 10
-519.842945
 20
-93.522914
 30
0.0
 40
1.5
100
AcDbArc
 50
300.0
 51
24.03643
  0
LINE
  5
33C
100
AcDbEntity
  8
0
370
    -3
  6
Continuous
100
AcDbLine
 10
-513.426863
 20
-91.550638
 30
0.0
 11
-510.806095
 21
-90.037537
 31
0.0
  0
ARC
  5
33D
100
AcDbEntity
  8
0
370
    -3
  6
Continuous
100
AcDbCircle
 10
-514.176863
 20
-90.2516
 30
0.0
 40
1.5
100
AcDbArc
 50
202.819244
 51
300.0
  0
ARC
  5
33E
100
AcDbEntity
  8
0
370
    -3
  6
Continuous
100
AcDbCircle
 10
-518.454129
 20
-53.723703
 30
0.0
 40
1.5
100
AcDbArc
 50
144.468928
 51
240.0
  0
LINE
  5
33F
100
AcDbEntity
  8
0
370
    -3
  6
Continuous
100
AcDbLine
 10
-516.592945
 20
-56.530308
 30
0.0
 11
-519.204129
 21
-55.022741
 31
0.0
  0
LINE
  5
340
100
AcDbEntity
  8
0
370
    -3
  6
Continuous
100
AcDbLine
 10
-508.306095
 20
-61.314724
 30
0.0
 11
-510.926863
 21
-59.801623
 31
0.0
  0
ARC
  5
341
100
AcDbEntity
  8
0
370
    -3
  6
Continuous
100
AcDbCircle
 10
-515.842945
 20
-55.23127
 30
0.0
 40
1.5
100
AcDbArc
 50
240.0
 51
324.03643
  0
ARC
  5
342
100
AcDbEntity
  8
0
370
    -3
  6
Continuous
100
AcDbCircle
 10
-510.176863
 20
-58.502584
 30
0.0
 40
1.5
100
AcDbArc
 50
142.819244
 51
240.0
  0
ARC
  5
343
100
AcDbEntity
  8
0
370
    -3
  6
Continuous
100
AcDbCircle
 10
-507.556095
 20
-60.015686
 30
0.0
 40
1.5
100
AcDbArc
 50
240.0
 51
322.071858
  0
ARC
  5
344
100
AcDbEntity
  8
0
370
    -3
  6
Continuous
100
AcDbCircle
 10
-484.681409
 20
-77.841194
 30
0.0
 40
27.5
100
AcDbArc
 50
97.928142
 51
142.071858
  0
ARC
  5
345
100
AcDbEntity
  8
0
370
    -3
  6
Continuous
100
AcDbCircle
 10
-484.681409
 20
-77.841194
 30
0.0
 40
37.0
100
AcDbArc
 50
95.96357
 51
144.03643
  0
ARC
  5
346
100
AcDbEntity
  8
0
370
    -3
  6
Continuous
100
AcDbCircle
 10
-484.681409
 20
-77.841194
 30
0.0
 40
43.0
100
AcDbArc
 50
95.531072
 51
144.468928
  0
ARC
  5
347
100
AcDbEntity
  8
0
370
    -3
  6
Continuous
100
AcDbCircle
 10
-484.681409
 20
-77.841194
 30
0.0
 40
33.5
100
AcDbArc
 50
97.180756
 51
142.819244
  0
ARC
  5
348
100
AcDbEntity
  8
0
370
    -3
  6
Continuous
100
AcDbCircle
 10
-488.681409
 20
-49.118381
 30
0.0
 40
1.5
100
AcDbArc
 50
277.928142
 51
0.0
  0
LINE
  5
349
100
AcDbEntity
  8
0
370
    -3
  6
DASHED
100
AcDbLine
 10
-531.227823
 20
-114.909816
 30
0.0
 11
-531.227823
 21
-114.893173
 31
0.0
  0
LINE
  5
34A
100
AcDbEntity
  8
0
370
    -3
  6
Continuous
100
AcDbLine
 10
-529.535996
 20
-117.273735
 30
0.0
 11
-525.485571
 21
-121.32416
 31
0.0
  0
ARC
  5
34B
100
AcDbEntity
  8
0
370
    -3
  6
Continuous
100
AcDbCircle
 10
-508.605635
 20
-59.339013
 30
0.0
 40
29.6
100
AcDbArc
 50
135.0
 51
177.053989
  0
ARC
  5
34C
100
AcDbEntity
  8
0
370
    -3
  6
Continuous
100
AcDbCircle
 10
-149.081409
 20
-77.841194
 30
0.0
 40
389.6
100
AcDbArc
 50
180.0
 51
182.946011
  0
ARC
  5
34D
100
AcDbEntity
  8
0
370
    -3
  6
Continuous
100
AcDbCircle
 10
-149.081409
 20
-77.841194
 30
0.0
 40
389.6
100
AcDbArc
 50
177.053989
 51
180.0
  0
ARC
  5
34E
100
AcDbEntity
  8
0
370
    -3
  6
Continuous
100
AcDbCircle
 10
-508.605635
 20
-96.343374
 30
0.0
 40
29.6
100
AcDbArc
 50
182.946011
 51
225.0
  0
ARC
  5
34F
100
AcDbEntity
  8
0
370
    -3
  6
Continuous
100
AcDbCircle
 10
-515.161812
 20
-111.000401
 30
0.0
 40
14.6
100
AcDbArc
 50
225.0
 51
265.337794
  0
ARC
  5
350
100
AcDbEntity
  8
0
370
    -3
  6
Continuous
100
AcDbCircle
 10
-484.681409
 20
262.758806
 30
0.0
 40
389.6
100
AcDbArc
 50
265.337794
 51
270.0
  0
ARC
  5
351
100
AcDbEntity
  8
0
370
    -3
  6
Continuous
100
AcDbCircle
 10
-484.681409
 20
262.758806
 30
0.0
 40
389.6
100
AcDbArc
 50
270.0
 51
274.662206
  0
ARC
  5
352
100
AcDbEntity
  8
0
370
    -3
  6
Continuous
100
AcDbCircle
 10
-531.713939
 20
-18.481703
 30
0.0
 40
2.0
100
AcDbArc
 50
301.969769
 51
45.0
  0
ARC
  5
353
100
AcDbEntity
  8
0
370
    -3
  6
Continuous
100
AcDbCircle
 10
-524.256034
 20
-14.625899
 30
0.0
 40
2.0
100
AcDbArc
 50
225.0
 51
292.708971
  0
ARC
  5
354
100
AcDbEntity
  8
0
370
    -3
  6
Continuous
100
AcDbCircle
 10
-445.106783
 20
-14.625899
 30
0.0
 40
2.0
100
AcDbArc
 50
247.291029
 51
315.0
  0
ARC
  5
355
100
AcDbEntity
  8
0
370
    -3
  6
Continuous
100
AcDbCircle
 10
-437.648879
 20
-18.481703
 30
0.0
 40
2.0
100
AcDbArc
 50
135.0
 51
238.030231
  0
LINE
  5
356
100
AcDbEntity
  8
0
370
    -3
  6
Continuous
100
AcDbLine
 10
-550.181406
 20
-73.686499
 30
0.0
 11
-550.181407
 21
-75.995893
 31
0.0
  0
LINE
  5
357
100
AcDbEntity
  8
0
370
    -3
  6
Continuous
100
AcDbLine
 10
-484.681409
 20
-137.841194
 30
0.0
 11
-514.436846
 21
-137.841194
 31
0.0
  0
LINE
  5
358
100
AcDbEntity
  8
0
370
    -3
  6
Continuous
100
AcDbLine
 10
-482.681409
 20
-10.361095
 30
0.0
 11
-482.681409
 21
5.650079
 31
0.0
  0
LINE
  5
359
100
AcDbEntity
  8
0
370
    -3
  6
Continuous
100
AcDbLine
 10
-486.681409
 20
-10.361095
 30
0.0
 11
-486.681409
 21
5.650079
 31
0.0
  0
LINE
  5
35A
100
AcDbEntity
  8
0
370
    -3
  6
Continuous
100
AcDbLine
 10
-557.181409
 20
-123.841194
 30
0.0
 11
-557.181409
 21
4.158806
 31
0.0
  0
LINE
  5
35B
100
AcDbEntity
  8
0
370
    -3
  6
Continuous
100
AcDbLine
 10
-484.681409
 20
-137.841194
 30
0.0
 11
-454.925971
 21
-137.841194
 31
0.0
  0
LINE
  5
35C
100
AcDbEntity
  8
0
370
    -3
  6
Continuous
100
AcDbLine
 10
-515.282429
 20
-138.841194
 30
0.0
 11
-454.080388
 21
-138.841194
 31
0.0
  0
LINE
  5
35D
100
AcDbEntity
  8
0
370
    -3
  6
CENTER
100
AcDbLine
 10
-426.698653
 20
-117.82395
 30
0.0
 11
-415.384944
 21
-129.137658
 31
0.0
  0
LINE
  5
35E
100
AcDbEntity
  8
0
370
    -3
  6
Continuous
100
AcDbLine
 10
-454.080388
 20
-138.841194
 30
0.0
 11
-445.181409
 21
-138.841194
 31
0.0
  0
LINE
  5
35F
100
AcDbEntity
  8
0
370
    -3
  6
Continuous
100
AcDbLine
 10
-443.181409
 20
-136.841194
 30
0.0
 11
-443.181409
 21
-135.341194
 31
0.0
  0
LINE
  5
360
100
AcDbEntity
  8
0
370
    -3
  6
Continuous
100
AcDbLine
 10
-454.080388
 20
-138.841194
 30
0.0
 11
-445.181409
 21
-138.841194
 31
0.0
  0
LINE
  5
361
100
AcDbEntity
  8
0
370
    -3
  6
CENTER
100
AcDbLine
 10
-542.664165
 20
-117.82395
 30
0.0
 11
-553.977873
 21
-129.137658
 31
0.0
  0
LINE
  5
362
100
AcDbEntity
  8
0
370
    -3
  6
Continuous
100
AcDbLine
 10
-515.282429
 20
-138.841194
 30
0.0
 11
-524.181409
 21
-138.841194
 31
0.0
  0
LINE
  5
363
100
AcDbEntity
  8
0
370
    -3
  6
Continuous
100
AcDbLine
 10
-515.282429
 20
-138.841194
 30
0.0
 11
-524.181409
 21
-138.841194
 31
0.0
  0
LINE
  5
364
100
AcDbEntity
  8
0
370
    -3
  6
Continuous
100
AcDbLine
 10
-526.181409
 20
-136.841194
 30
0.0
 11
-526.181409
 21
-135.341194
 31
0.0
  0
LINE
  5
365
100
AcDbEntity
  8
0
370
    -3
  6
Continuous
100
AcDbLine
 10
-443.69257
 20
-16.040112
 30
0.0
 11
-431.612249
 21
-3.959791
 31
0.0
  0
LINE
  5
366
100
AcDbEntity
  8
0
370
    -3
  6
Continuous
100
AcDbLine
 10
-439.063092
 20
-17.067489
 30
0.0
 11
-428.783821
 21
-6.788218
 31
0.0
  0
LINE
  5
367
100
AcDbEntity
  8
0
370
    -3
  6
Continuous
100
AcDbLine
 10
-525.670248
 20
-16.040112
 30
0.0
 11
-537.750569
 21
-3.959791
 31
0.0
  0
LINE
  5
368
100
AcDbEntity
  8
0
370
    -3
  6
Continuous
100
AcDbLine
 10
-530.299725
 20
-17.067489
 30
0.0
 11
-540.578996
 21
-6.788218
 31
0.0
  0
ARC
  5
369
100
AcDbEntity
  8
0
370
    -3
  6
Continuous
100
AcDbCircle
 10
-520.181409
 20
-133.841194
 30
0.0
 40
7.0
100
AcDbArc
 50
314.415309
 51
325.150095
  0
CIRCLE
  5
36A
100
AcDbEntity
  8
0
370
    -3
  6
Continuous
100
AcDbCircle
 10
-421.041798
 20
-123.480804
 30
0.0
 40
5.0
  0
ARC
  5
36B
100
AcDbEntity
  8
0
370
    -3
  6
CENTER
100
AcDbCircle
 10
-484.681409
 20
-59.841194
 30
0.0
 40
90.0
100
AcDbArc
 50
309.906632
 51
320.093368
  0
ARC
  5
36C
100
AcDbEntity
  8
0
370
    -3
  6
Continuous
100
AcDbCircle
 10
-449.181409
 20
-133.841194
 30
0.0
 40
7.0
100
AcDbArc
 50
214.849905
 51
225.584691
  0
ARC
  5
36D
100
AcDbEntity
  8
0
370
    -3
  6
Continuous
100
AcDbCircle
 10
-445.181409
 20
-136.841194
 30
0.0
 40
2.0
100
AcDbArc
 50
270.0
 51
0.0
  0
ARC
  5
36E
100
AcDbEntity
  8
0
370
    -3
  6
Continuous
100
AcDbCircle
 10
-445.181409
 20
-136.841194
 30
0.0
 40
2.0
100
AcDbArc
 50
270.0
 51
0.0
  0
ARC
  5
36F
100
AcDbEntity
  8
0
370
    -3
  6
Continuous
100
AcDbCircle
 10
-548.681409
 20
-123.841194
 30
0.0
 40
8.5
100
AcDbArc
 50
180.0
 51
270.0
  0
CIRCLE
  5
370
100
AcDbEntity
  8
0
370
    -3
  6
Continuous
100
AcDbCircle
 10
-548.321019
 20
-123.480804
 30
0.0
 40
5.0
  0
ARC
  5
371
100
AcDbEntity
  8
0
370
    -3
  6
CENTER
100
AcDbCircle
 10
-484.681409
 20
-59.841194
 30
0.0
 40
90.0
100
AcDbArc
 50
219.906632
 51
230.093368
  0
ARC
  5
372
100
AcDbEntity
  8
0
370
    -3
  6
Continuous
100
AcDbCircle
 10
-524.181409
 20
-136.841194
 30
0.0
 40
2.0
100
AcDbArc
 50
180.0
 51
270.0
  0
ARC
  5
373
100
AcDbEntity
  8
0
370
    -3
  6
Continuous
100
AcDbCircle
 10
-524.181409
 20
-136.841194
 30
0.0
 40
2.0
100
AcDbArc
 50
180.0
 51
270.0
  0
ARC
  5
374
100
AcDbEntity
  8
0
370
    -3
  6
Continuous
100
AcDbCircle
 10
-488.681409
 20
-10.361095
 30
0.0
 40
2.0
100
AcDbArc
 50
270.570117
 51
0.0
  0
ARC
  5
375
100
AcDbEntity
  8
0
370
    -3
  6
Continuous
100
AcDbCircle
 10
-480.681409
 20
-10.361095
 30
0.0
 40
2.0
100
AcDbArc
 50
180.0
 51
269.429883
  0
LINE
  5
376
100
AcDbEntity
  8
0
370
    -3
  6
Continuous
100
AcDbLine
 10
-454.080388
 20
-138.841194
 30
0.0
 11
-445.181409
 21
-138.841194
 31
0.0
  0
LINE
  5
377
100
AcDbEntity
  8
0
370
    -3
  6
Continuous
100
AcDbLine
 10
-515.282429
 20
-138.841194
 30
0.0
 11
-524.181409
 21
-138.841194
 31
0.0
  0
LINE
  5
378
100
AcDbEntity
  8
0
370
    -3
  6
Continuous
100
AcDbLine
 10
-554.181409
 20
-90.879794
 30
0.0
 11
-554.181409
 21
-62.341194
 31
0.0
  0
LINE
  5
379
100
AcDbEntity
  8
0
370
    -3
  6
Continuous
100
AcDbLine
 10
-484.681409
 20
-137.841194
 30
0.0
 11
-454.925971
 21
-137.841194
 31
0.0
  0
LINE
  5
37A
100
AcDbEntity
  8
0
370
    -3
  6
Continuous
100
AcDbLine
 10
-484.681409
 20
-137.841194
 30
0.0
 11
-514.436846
 21
-137.841194
 31
0.0
  0
ARC
  5
37B
100
AcDbEntity
  8
0
370
    -3
  6
Continuous
100
AcDbCircle
 10
-449.181409
 20
-133.841194
 30
0.0
 40
7.0
100
AcDbArc
 50
214.849905
 51
225.584691
  0
ARC
  5
37C
100
AcDbEntity
  8
0
370
    -3
  6
Continuous
100
AcDbCircle
 10
-520.181409
 20
-133.841194
 30
0.0
 40
7.0
100
AcDbArc
 50
314.415309
 51
325.150095
  0
ARC
  5
37D
100
AcDbEntity
  8
0
370
    -3
  6
Continuous
100
AcDbCircle
 10
-484.681409
 20
-812.341194
 30
0.0
 40
800.0
100
AcDbArc
 50
90.0
 51
91.489858
  0
ARC
  5
37E
100
AcDbEntity
  8
0
370
    -3
  6
Continuous
100
AcDbCircle
 10
-504.181409
 20
-62.594737
 30
0.0
 40
50.0
100
AcDbArc
 50
91.489858
 51
180.0
  0
ARC
  5
37F
100
AcDbEntity
  8
0
370
    -3
  6
Continuous
100
AcDbCircle
 10
-524.181409
 20
-136.841194
 30
0.0
 40
2.0
100
AcDbArc
 50
180.0
 51
270.0
  0
ARC
  5
380
100
AcDbEntity
  8
0
370
    -3
  6
Continuous
100
AcDbCircle
 10
-445.181409
 20
-136.841194
 30
0.0
 40
2.0
100
AcDbArc
 50
270.0
 51
0.0
  0
ARC
  5
381
100
AcDbEntity
  8
0
370
    -3
  6
Continuous
100
AcDbCircle
 10
-549.181409
 20
-90.879794
 30
0.0
 40
5.0
100
AcDbArc
 50
180.0
 51
210.0
  0
ARC
  5
382
100
AcDbEntity
  8
0
370
    -3
  6
Continuous
100
AcDbCircle
 10
-523.931409
 20
-17.751259
 30
0.0
 40
1.0
100
AcDbArc
 50
0.0
 51
113.76969
  0
ARC
  5
383
100
AcDbEntity
  8
0
370
    -3
  6
Continuous
100
AcDbCircle
 10
-511.431409
 20
-14.134057
 30
0.0
 40
1.0
100
AcDbArc
 50
98.508677
 51
180.0
  0
ARC
  5
384
100
AcDbEntity
  8
0
370
    -3
  6
Continuous
100
AcDbCircle
 10
-445.431409
 20
-17.751259
 30
0.0
 40
1.0
100
AcDbArc
 50
66.23031
 51
180.0
  0
ARC
  5
385
100
AcDbEntity
  8
0
370
    -3
  6
Continuous
100
AcDbCircle
 10
-457.931409
 20
-14.134057
 30
0.0
 40
1.0
100
AcDbArc
 50
0.0
 51
81.491323
  0
ARC
  5
386
100
AcDbEntity
  8
0
370
    -3
  6
Continuous
100
AcDbCircle
 10
-484.681409
 20
-812.341194
 30
0.0
 40
800.0
100
AcDbArc
 50
88.510142
 51
90.0
  0
ARC
  5
387
100
AcDbEntity
  8
0
370
    -3
  6
Continuous
100
AcDbCircle
 10
-455.431409
 20
-136.841194
 30
0.0
 40
1.0
100
AcDbArc
 50
270.0
 51
0.0
  0
ARC
  5
388
100
AcDbEntity
  8
0
370
    -3
  6
Continuous
100
AcDbCircle
 10
-553.181409
 20
-68.591194
 30
0.0
 40
1.0
100
AcDbArc
 50
180.0
 51
270.0
  0
ARC
  5
389
100
AcDbEntity
  8
0
370
    -3
  6
Continuous
100
AcDbCircle
 10
-553.181409
 20
-81.091194
 30
0.0
 40
1.0
100
AcDbArc
 50
90.0
 51
180.0
  0
LINE
  5
38A
100
AcDbEntity
  8
0
370
    -3
  6
CENTER
100
AcDbLine
 10
-484.681409
 20
-147.785094
 30
0.0
 11
-484.681409
 21
19.845936
 31
0.0
  0
ARC
  5
38B
100
AcDbEntity
  8
0
370
    -3
  6
Continuous
100
AcDbCircle
 10
-465.181409
 20
-62.594737
 30
0.0
 40
50.0
100
AcDbArc
 50
20.152293
 51
88.510142
  0
LINE
  5
38C
100
AcDbEntity
  8
0
370
    -3
  6
Continuous
100
AcDbLine
 10
-412.181409
 20
-33.002204
 30
0.0
 11
-412.181409
 21
4.158806
 31
0.0
  0
LINE
  5
38D
100
AcDbEntity
  8
0
370
    -3
  6
Continuous
100
AcDbLine
 10
-412.181409
 20
-123.841194
 30
0.0
 11
-412.181409
 21
-122.680184
 31
0.0
  0
ARC
  5
38E
100
AcDbEntity
  8
0
370
    -3
  6
Continuous
100
AcDbCircle
 10
-420.681409
 20
-123.841194
 30
0.0
 40
8.5
100
AcDbArc
 50
270.0
 51
0.0
  0
MTEXT
  5
390
100
AcDbEntity
  8
0
370
    -3
  6
Continuous
100
AcDbMText
 10
-534.694031
 20
213.188293
 30
0.0
 40
15.0
 41
0.0
 71
     7
 72
     1
  1
\W0.48;GV-SFB
  7
ZU_SHPTB00001
 11
1.0
 21
0.0
 31
0.0
 73
     1
 44
1.0
  0
MTEXT
  5
391
100
AcDbEntity
  8
0
370
    -3
  6
Continuous
100
AcDbMText
 10
-534.694031
 20
196.238281
 30
0.0
 40
15.0
 41
0.0
 71
     7
 72
     1
  1
\W0.43;0.75kW
  7
ZU_SHPTB00001
 11
1.0
 21
0.0
 31
0.0
 73
     1
 44
1.0
  0
MTEXT
  5
392
100
AcDbEntity
  8
0
370
    -3
  6
Continuous
100
AcDbMText
 10
-534.694031
 20
162.338318
 30
0.0
 40
15.0
 41
0.0
 71
     7
 72
     1
  1
\W0.42;GEAR\W0.70; \W0.42;RATIO\W0.70;  \W0.42;1/5-1/30
  7
ZU_SHPTB00001
 11
1.0
 21
0.0
 31
0.0
 73
     1
 44
1.0
  0
MTEXT
  5
393
100
AcDbEntity
  8
0
370
    -3
  6
Continuous
100
AcDbMText
 10
-534.694031
 20
179.28833
 30
0.0
 40
15.0
 41
0.0
 71
     7
 72
     1
  1
\W0.43;600-100r/min\W0.53;　
  7
ZU_SHPTB00001
 11
1.0
 21
0.0
 31
0.0
 73
     1
 44
1.0
  0
MTEXT
  5
394
100
AcDbEntity
  8
0
370
    -3
  6
Continuous
100
AcDbMText
 10
-534.694031
 20
145.388306
 30
0.0
 40
15.0
 41
0.0
 71
     7
 72
     1
  1
\W0.43;SCALE\W0.72;  \W0.43;1/1
  7
ZU_SHPTB00001
 11
1.0
 21
0.0
 31
0.0
 73
     1
 44
1.0
  0
MTEXT
  5
395
100
AcDbEntity
  8
0
370
    -3
  6
Continuous
100
AcDbMText
 10
-534.694031
 20
230.138306
 30
0.0
 40
15.0
 41
0.0
 71
     7
 72
     1
  1
\W0.63;三菱ギヤードモータ  
  7
ZU_SHPTB00001
 11
1.0
 21
0.0
 31
0.0
 73
     1
 44
1.0
  0
MTEXT
  5
396
100
AcDbEntity
  8
0
370
    -3
  6
Continuous
100
AcDbMText
 10
-534.694031
 20
230.138306
 30
0.0
 40
15.0
 41
0.0
 71
     7
 72
     1
  1
\W0.63;三菱ギヤードモータ  
  7
ZU_SHPTB00001
 11
1.0
 21
0.0
 31
0.0
 73
     1
 44
1.0
  0
LINE
  5
397
100
AcDbEntity
  8
0
370
    -3
  6
CENTER
100
AcDbLine
 10
116.377054
 20
-56.540981
 30
0.0
 11
116.377054
 21
-99.141895
 31
0.0
  0
LINE
  5
398
100
AcDbEntity
  8
0
370
    -3
  6
Continuous
100
AcDbLine
 10
90.905906
 20
-40.342619
 30
0.0
 11
90.905906
 21
-115.340257
 31
0.0
  0
ARC
  5
399
100
AcDbEntity
  8
0
370
    -3
  6
Continuous
100
AcDbCircle
 10
98.705906
 20
-38.841438
 30
0.0
 40
7.8
100
AcDbArc
 50
90.0
 51
151.87484
  0
ELLIPSE
  5
39A
100
AcDbEntity
  8
0
370
    -3
  6
Continuous
100
AcDbEllipse
 10
92.791314
 20
-38.341438
 30
0.0
 11
0.0
 21
3.5
 31
0.0
210
0.0
220
0.0
230
1.0
 40
0.656603
 41
0.0
 42
6.2831853071795862
  0
LINE
  5
39B
100
AcDbEntity
  8
0
370
    -3
  6
Continuous
100
AcDbLine
 10
90.744034
 20
-36.751421
 30
0.0
 11
91.253861
 21
-38.341438
 31
0.0
  0
LINE
  5
39C
100
AcDbEntity
  8
0
370
    -3
  6
Continuous
100
AcDbLine
 10
91.253861
 20
-38.341438
 30
0.0
 11
92.303049
 21
-36.341438
 31
0.0
  0
LINE
  5
39D
100
AcDbEntity
  8
0
370
    -3
  6
Continuous
100
AcDbLine
 10
91.253861
 20
-38.341438
 30
0.0
 11
92.303049
 21
-40.341438
 31
0.0
  0
LINE
  5
39E
100
AcDbEntity
  8
0
370
    -3
  6
Continuous
100
AcDbLine
 10
90.744034
 20
-39.931455
 30
0.0
 11
91.253861
 21
-38.341438
 31
0.0
  0
LINE
  5
39F
100
AcDbEntity
  8
0
370
    -3
  6
Continuous
100
AcDbLine
 10
129.202296
 20
-36.751421
 30
0.0
 11
129.712122
 21
-38.341438
 31
0.0
  0
LINE
  5
3A0
100
AcDbEntity
  8
0
370
    -3
  6
Continuous
100
AcDbLine
 10
129.202296
 20
-39.931455
 30
0.0
 11
129.712122
 21
-38.341438
 31
0.0
  0
LINE
  5
3A1
100
AcDbEntity
  8
0
370
    -3
  6
Continuous
100
AcDbLine
 10
129.712122
 20
-38.341438
 30
0.0
 11
130.76131
 21
-40.341438
 31
0.0
  0
LINE
  5
3A2
100
AcDbEntity
  8
0
370
    -3
  6
Continuous
100
AcDbLine
 10
129.712122
 20
-38.341438
 30
0.0
 11
130.76131
 21
-36.341438
 31
0.0
  0
ELLIPSE
  5
3A3
100
AcDbEntity
  8
0
370
    -3
  6
Continuous
100
AcDbEllipse
 10
131.249576
 20
-38.341438
 30
0.0
 11
0.0
 21
3.5
 31
0.0
210
0.0
220
0.0
230
1.0
 40
0.656603
 41
0.0
 42
6.2831853071795862
  0
ARC
  5
3A4
100
AcDbEntity
  8
0
370
    -3
  6
Continuous
100
AcDbCircle
 10
124.070164
 20
-43.091438
 30
0.0
 40
3.8
100
AcDbArc
 50
23.227672
 51
90.0
  0
LINE
  5
3A5
100
AcDbEntity
  8
0
370
    -3
  6
Continuous
100
AcDbLine
 10
124.070164
 20
-39.291438
 30
0.0
 11
99.559527
 21
-39.291438
 31
0.0
  0
ARC
  5
3A6
100
AcDbEntity
  8
0
370
    -3
  6
Continuous
100
AcDbCircle
 10
128.016262
 20
-52.286108
 30
0.0
 40
3.8
100
AcDbArc
 50
0.0
 51
23.227672
  0
LINE
  5
3A7
100
AcDbEntity
  8
0
370
    -3
  6
Continuous
100
AcDbLine
 10
131.816262
 20
-52.286108
 30
0.0
 11
131.816262
 21
-103.396768
 31
0.0
  0
LINE
  5
3A8
100
AcDbEntity
  8
0
370
    -3
  6
Continuous
100
AcDbLine
 10
127.562155
 20
-41.592772
 30
0.0
 11
131.508253
 21
-50.787442
 31
0.0
  0
ARC
  5
3A9
100
AcDbEntity
  8
0
370
    -3
  6
Continuous
100
AcDbCircle
 10
128.016262
 20
-103.396768
 30
0.0
 40
3.8
100
AcDbArc
 50
336.772328
 51
0.0
  0
LINE
  5
3AA
100
AcDbEntity
  8
0
370
    -3
  6
Continuous
100
AcDbLine
 10
127.562155
 20
-114.090104
 30
0.0
 11
131.508253
 21
-104.895434
 31
0.0
  0
ARC
  5
3AB
100
AcDbEntity
  8
0
370
    -3
  6
Continuous
100
AcDbCircle
 10
132.821531
 20
-38.841438
 30
0.0
 40
7.8
100
AcDbArc
 50
49.598186
 51
90.0
  0
LINE
  5
3AC
100
AcDbEntity
  8
0
370
    -3
  6
Continuous
100
AcDbLine
 10
98.705906
 20
-31.041438
 30
0.0
 11
132.821531
 21
-31.041438
 31
0.0
  0
LINE
  5
3AD
100
AcDbEntity
  8
0
370
    -3
  6
Continuous
100
AcDbLine
 10
135.364945
 20
-116.841438
 30
0.0
 11
135.364945
 21
-38.841438
 31
0.0
  0
ARC
  5
3AE
100
AcDbEntity
  8
0
370
    -3
  6
Continuous
100
AcDbCircle
 10
127.564945
 20
-38.841438
 30
0.0
 40
7.8
100
AcDbArc
 50
0.0
 51
90.0
  0
ARC
  5
3AF
100
AcDbEntity
  8
0
370
    -3
  6
Continuous
100
AcDbCircle
 10
99.559527
 20
-46.091438
 30
0.0
 40
6.8
100
AcDbArc
 50
90.0
 51
180.0
  0
LINE
  5
3B0
100
AcDbEntity
  8
0
370
    -3
  6
Continuous
100
AcDbLine
 10
92.759527
 20
-46.091438
 30
0.0
 11
92.759527
 21
-109.591438
 31
0.0
  0
ARC
  5
3B1
100
AcDbEntity
  8
0
370
    -3
  6
Continuous
100
AcDbCircle
 10
99.559527
 20
-109.591438
 30
0.0
 40
6.8
100
AcDbArc
 50
180.0
 51
270.0
  0
LINE
  5
3B2
100
AcDbEntity
  8
0
370
    -3
  6
Continuous
100
AcDbLine
 10
98.705906
 20
-124.641438
 30
0.0
 11
132.821531
 21
-124.641438
 31
0.0
  0
ARC
  5
3B3
100
AcDbEntity
  8
0
370
    -3
  6
Continuous
100
AcDbCircle
 10
98.705906
 20
-116.841438
 30
0.0
 40
7.8
100
AcDbArc
 50
208.12516
 51
270.0
  0
ELLIPSE
  5
3B4
100
AcDbEntity
  8
0
370
    -3
  6
Continuous
100
AcDbEllipse
 10
92.791314
 20
-117.341438
 30
0.0
 11
0.0
 21
3.5
 31
0.0
210
0.0
220
0.0
230
1.0
 40
0.656603
 41
0.0
 42
6.2831853071795862
  0
LINE
  5
3B5
100
AcDbEntity
  8
0
370
    -3
  6
Continuous
100
AcDbLine
 10
90.744034
 20
-118.931455
 30
0.0
 11
91.253861
 21
-117.341438
 31
0.0
  0
LINE
  5
3B6
100
AcDbEntity
  8
0
370
    -3
  6
Continuous
100
AcDbLine
 10
91.253861
 20
-117.341438
 30
0.0
 11
92.303049
 21
-119.341438
 31
0.0
  0
LINE
  5
3B7
100
AcDbEntity
  8
0
370
    -3
  6
Continuous
100
AcDbLine
 10
91.253861
 20
-117.341438
 30
0.0
 11
92.303049
 21
-115.341438
 31
0.0
  0
LINE
  5
3B8
100
AcDbEntity
  8
0
370
    -3
  6
Continuous
100
AcDbLine
 10
90.744034
 20
-115.751421
 30
0.0
 11
91.253861
 21
-117.341438
 31
0.0
  0
LINE
  5
3B9
100
AcDbEntity
  8
0
370
    -3
  6
Continuous
100
AcDbLine
 10
129.202296
 20
-118.931455
 30
0.0
 11
129.712122
 21
-117.341438
 31
0.0
  0
LINE
  5
3BA
100
AcDbEntity
  8
0
370
    -3
  6
Continuous
100
AcDbLine
 10
129.202296
 20
-115.751421
 30
0.0
 11
129.712122
 21
-117.341438
 31
0.0
  0
LINE
  5
3BB
100
AcDbEntity
  8
0
370
    -3
  6
Continuous
100
AcDbLine
 10
129.712122
 20
-117.341438
 30
0.0
 11
130.76131
 21
-115.341438
 31
0.0
  0
LINE
  5
3BC
100
AcDbEntity
  8
0
370
    -3
  6
Continuous
100
AcDbLine
 10
129.712122
 20
-117.341438
 30
0.0
 11
130.76131
 21
-119.341438
 31
0.0
  0
ELLIPSE
  5
3BD
100
AcDbEntity
  8
0
370
    -3
  6
Continuous
100
AcDbEllipse
 10
131.249576
 20
-117.341438
 30
0.0
 11
0.0
 21
3.5
 31
0.0
210
0.0
220
0.0
230
1.0
 40
0.656603
 41
0.0
 42
6.2831853071795862
  0
ARC
  5
3BE
100
AcDbEntity
  8
0
370
    -3
  6
Continuous
100
AcDbCircle
 10
124.070164
 20
-112.591438
 30
0.0
 40
3.8
100
AcDbArc
 50
270.0
 51
336.772328
  0
LINE
  5
3BF
100
AcDbEntity
  8
0
370
    -3
  6
Continuous
100
AcDbLine
 10
124.070164
 20
-116.391438
 30
0.0
 11
99.559527
 21
-116.391438
 31
0.0
  0
ARC
  5
3C0
100
AcDbEntity
  8
0
370
    -3
  6
Continuous
100
AcDbCircle
 10
132.821531
 20
-116.841438
 30
0.0
 40
7.8
100
AcDbArc
 50
270.0
 51
311.126494
  0
ARC
  5
3C1
100
AcDbEntity
  8
0
370
    -3
  6
Continuous
100
AcDbCircle
 10
127.564945
 20
-116.841438
 30
0.0
 40
7.8
100
AcDbArc
 50
270.0
 51
0.0
  0
CIRCLE
  5
3C2
100
AcDbEntity
  8
0
370
    -3
  6
DASHED
100
AcDbCircle
 10
116.377054
 20
-77.841438
 30
0.0
 40
17.0
  0
LINE
  5
3C3
100
AcDbEntity
  8
0
370
    -3
  6
CENTER
100
AcDbLine
 10
95.076597
 20
-77.841438
 30
0.0
 11
137.677511
 21
-77.841438
 31
0.0
  0
ARC
  5
3C4
100
AcDbEntity
  8
0
370
    -3
  6
Continuous
100
AcDbCircle
 10
-390.56526
 20
-77.841194
 30
0.0
 40
17.0
100
AcDbArc
 50
180.0
 51
0.0
  0
ARC
  5
3C5
100
AcDbEntity
  8
0
370
    -3
  6
Continuous
100
AcDbCircle
 10
-390.56526
 20
-77.841194
 30
0.0
 40
12.0585
100
AcDbArc
 50
180.0
 51
0.0
  0
ARC
  5
3C6
100
AcDbEntity
  8
0
370
    -3
  6
Continuous
100
AcDbCircle
 10
-390.56526
 20
-77.841194
 30
0.0
 40
13.2205
100
AcDbArc
 50
180.0
 51
0.0
  0
ARC
  5
3C7
100
AcDbEntity
  8
0
370
    -3
  6
Continuous
100
AcDbCircle
 10
-390.56526
 20
-77.841194
 30
0.0
 40
17.0
100
AcDbArc
 50
360.0
 51
180.0
  0
ARC
  5
3C8
100
AcDbEntity
  8
0
370
    -3
  6
Continuous
100
AcDbCircle
 10
-390.56526
 20
-77.841194
 30
0.0
 40
12.0585
100
AcDbArc
 50
360.0
 51
180.0
  0
ARC
  5
3C9
100
AcDbEntity
  8
0
370
    -3
  6
Continuous
100
AcDbCircle
 10
-390.56526
 20
-77.841194
 30
0.0
 40
13.2205
100
AcDbArc
 50
360.0
 51
180.0
  0
LINE
  5
3CA
100
AcDbEntity
  8
0
370
    -3
  6
Continuous
100
AcDbLine
 10
-408.76526
 20
-51.009823
 30
0.0
 11
-371.408663
 21
-51.009823
 31
0.0
  0
ARC
  5
3CB
100
AcDbEntity
  8
0
370
    -3
  6
Continuous
100
AcDbCircle
 10
-408.76526
 20
-57.809823
 30
0.0
 40
6.8
100
AcDbArc
 50
90.0
 51
180.0
  0
ARC
  5
3CC
100
AcDbEntity
  8
0
370
    -3
  6
Continuous
100
AcDbCircle
 10
-408.76526
 20
-97.872565
 30
0.0
 40
6.8
100
AcDbArc
 50
180.0
 51
270.0
  0
LINE
  5
3CD
100
AcDbEntity
  8
0
370
    -3
  6
Continuous
100
AcDbLine
 10
-408.76526
 20
-104.672565
 30
0.0
 11
-371.408663
 21
-104.672565
 31
0.0
  0
LINE
  5
3CE
100
AcDbEntity
  8
0
370
    -3
  6
Continuous
100
AcDbLine
 10
-369.75863
 20
-77.841194
 30
0.0
 11
-369.75863
 21
-38.841194
 31
0.0
  0
LINE
  5
3CF
100
AcDbEntity
  8
0
370
    -3
  6
Continuous
100
AcDbLine
 10
-406.055146
 20
-32.341194
 30
0.0
 11
-374.498648
 21
-32.341194
 31
0.0
  0
LINE
  5
3D0
100
AcDbEntity
  8
0
370
    -3
  6
Continuous
100
AcDbLine
 10
-414.809736
 20
-38.841194
 30
0.0
 11
-414.809736
 21
-42.226021
 31
0.0
  0
LINE
  5
3D1
100
AcDbEntity
  8
0
370
    -3
  6
Continuous
100
AcDbLine
 10
-414.471642
 20
-41.642924
 30
0.0
 11
-414.471642
 21
-38.841194
 31
0.0
  0
ARC
  5
3D2
100
AcDbEntity
  8
0
370
    -3
  6
Continuous
100
AcDbCircle
 10
-415.56526
 20
-49.841194
 30
0.0
 40
1.0
100
AcDbArc
 50
103.342364
 51
180.0
  0
ARC
  5
3D3
100
AcDbEntity
  8
0
370
    -3
  6
Continuous
100
AcDbCircle
 10
-415.86526
 20
-48.576283
 30
0.0
 40
0.3
100
AcDbArc
 50
283.342364
 51
0.0
  0
ARC
  5
3D4
100
AcDbEntity
  8
0
370
    -3
  6
Continuous
100
AcDbCircle
 10
-406.055146
 20
-38.341194
 30
0.0
 40
6.0
100
AcDbArc
 50
90.0
 51
180.0
  0
LINE
  5
3D5
100
AcDbEntity
  8
0
370
    -3
  6
Continuous
100
AcDbLine
 10
-412.055146
 20
-39.390005
 30
0.0
 11
-412.055146
 21
-38.341194
 31
0.0
  0
ARC
  5
3D6
100
AcDbEntity
  8
0
370
    -3
  6
Continuous
100
AcDbCircle
 10
-408.76526
 20
-45.341194
 30
0.0
 40
6.8
100
AcDbArc
 50
90.0
 51
180.0
  0
LINE
  5
3D7
100
AcDbEntity
  8
0
370
    -3
  6
Continuous
100
AcDbLine
 10
-415.56526
 20
-77.841194
 30
0.0
 11
-415.56526
 21
-45.341194
 31
0.0
  0
ARC
  5
3D8
100
AcDbEntity
  8
0
370
    -3
  6
Continuous
100
AcDbCircle
 10
-379.132401
 20
-42.341194
 30
0.0
 40
3.8
100
AcDbArc
 50
22.977375
 51
90.0
  0
ARC
  5
3D9
100
AcDbEntity
  8
0
370
    -3
  6
Continuous
100
AcDbCircle
 10
-375.129348
 20
-51.78216
 30
0.0
 40
3.8
100
AcDbArc
 50
360.0
 51
22.977375
  0
LINE
  5
3DA
100
AcDbEntity
  8
0
370
    -3
  6
Continuous
100
AcDbLine
 10
-371.630843
 20
-50.298764
 30
0.0
 11
-375.633897
 21
-40.857797
 31
0.0
  0
LINE
  5
3DB
100
AcDbEntity
  8
0
370
    -3
  6
Continuous
100
AcDbLine
 10
-408.76526
 20
-38.541194
 30
0.0
 11
-379.132401
 21
-38.541194
 31
0.0
  0
LINE
  5
3DC
100
AcDbEntity
  8
0
370
    -3
  6
Continuous
100
AcDbLine
 10
-371.329348
 20
-77.841194
 30
0.0
 11
-371.329348
 21
-51.78216
 31
0.0
  0
LINE
  5
3DD
100
AcDbEntity
  8
0
370
    -3
  6
Continuous
100
AcDbLine
 10
-416.56526
 20
-77.841194
 30
0.0
 11
-416.56526
 21
-49.841194
 31
0.0
  0
ARC
  5
3DE
100
AcDbEntity
  8
0
370
    -3
  6
Continuous
100
AcDbCircle
 10
-407.471642
 20
-38.841194
 30
0.0
 40
7.0
100
AcDbArc
 50
90.0
 51
180.0
  0
LINE
  5
3DF
100
AcDbEntity
  8
0
370
    -3
  6
Continuous
100
AcDbLine
 10
-417.56526
 20
-46.841194
 30
0.0
 11
-416.56526
 21
-46.841194
 31
0.0
  0
LINE
  5
3E0
100
AcDbEntity
  8
0
370
    -3
  6
Continuous
100
AcDbLine
 10
-416.56526
 20
-46.841194
 30
0.0
 11
-416.56526
 21
-77.841194
 31
0.0
  0
LINE
  5
3E1
100
AcDbEntity
  8
0
370
    -3
  6
Continuous
100
AcDbLine
 10
-417.56526
 20
-77.841194
 30
0.0
 11
-417.56526
 21
-46.841194
 31
0.0
  0
LINE
  5
3E2
100
AcDbEntity
  8
0
370
    -3
  6
Continuous
100
AcDbLine
 10
-365.094111
 20
-38.841194
 30
0.0
 11
-365.094111
 21
-77.841194
 31
0.0
  0
LINE
  5
3E3
100
AcDbEntity
  8
0
370
    -3
  6
Continuous
100
AcDbLine
 10
-370.096724
 20
-77.841194
 30
0.0
 11
-370.096724
 21
-38.841194
 31
0.0
  0
LINE
  5
3E4
100
AcDbEntity
  8
0
370
    -3
  6
Continuous
100
AcDbLine
 10
-372.894111
 20
-31.041194
 30
0.0
 11
-407.009736
 21
-31.041194
 31
0.0
  0
ELLIPSE
  5
3E5
100
AcDbEntity
  8
0
370
    -3
  6
Continuous
100
AcDbEllipse
 10
-366.97952
 20
-38.341194
 30
0.0
 11
0.0
 21
3.5
 31
0.0
210
0.0
220
0.0
230
1.0
 40
0.656603
 41
4.1037320181008443
 42
5.8501343317260348
  0
ARC
  5
3E6
100
AcDbEntity
  8
0
370
    -3
  6
Continuous
100
AcDbCircle
 10
-372.894111
 20
-38.841194
 30
0.0
 40
7.8
100
AcDbArc
 50
0.0
 51
90.0
  0
ARC
  5
3E7
100
AcDbEntity
  8
0
370
    -3
  6
Continuous
100
AcDbCircle
 10
-377.55863
 20
-38.841194
 30
0.0
 40
7.8
100
AcDbArc
 50
0.0
 51
90.0
  0
ARC
  5
3E8
100
AcDbEntity
  8
0
370
    -3
  6
Continuous
100
AcDbCircle
 10
-377.096724
 20
-38.841194
 30
0.0
 40
7.0
100
AcDbArc
 50
0.0
 51
90.0
  0
LINE
  5
3E9
100
AcDbEntity
  8
0
370
    -3
  6
Continuous
100
AcDbLine
 10
-377.096724
 20
-31.841194
 30
0.0
 11
-407.471642
 21
-31.841194
 31
0.0
  0
ARC
  5
3EA
100
AcDbEntity
  8
0
370
    -3
  6
Continuous
100
AcDbCircle
 10
-407.009736
 20
-38.841194
 30
0.0
 40
7.8
100
AcDbArc
 50
90.0
 51
180.0
  0
LINE
  5
3EB
100
AcDbEntity
  8
0
370
    -3
  6
CENTER
100
AcDbLine
 10
-390.56526
 20
-59.196261
 30
0.0
 11
-390.56526
 21
-99.141651
 31
0.0
  0
LINE
  5
3EC
100
AcDbEntity
  8
0
370
    -3
  6
Continuous
100
AcDbLine
 10
-369.75863
 20
-77.841194
 30
0.0
 11
-369.75863
 21
-116.841194
 31
0.0
  0
LINE
  5
3ED
100
AcDbEntity
  8
0
370
    -3
  6
Continuous
100
AcDbLine
 10
-406.055146
 20
-123.341194
 30
0.0
 11
-374.498648
 21
-123.341194
 31
0.0
  0
LINE
  5
3EE
100
AcDbEntity
  8
0
370
    -3
  6
Continuous
100
AcDbLine
 10
-414.809736
 20
-116.841194
 30
0.0
 11
-414.809736
 21
-113.456367
 31
0.0
  0
LINE
  5
3EF
100
AcDbEntity
  8
0
370
    -3
  6
Continuous
100
AcDbLine
 10
-414.471642
 20
-114.039464
 30
0.0
 11
-414.471642
 21
-116.841194
 31
0.0
  0
ARC
  5
3F0
100
AcDbEntity
  8
0
370
    -3
  6
Continuous
100
AcDbCircle
 10
-415.56526
 20
-105.841194
 30
0.0
 40
1.0
100
AcDbArc
 50
180.0
 51
256.657636
  0
ARC
  5
3F1
100
AcDbEntity
  8
0
370
    -3
  6
Continuous
100
AcDbCircle
 10
-415.86526
 20
-107.106105
 30
0.0
 40
0.3
100
AcDbArc
 50
0.0
 51
76.657636
  0
ARC
  5
3F2
100
AcDbEntity
  8
0
370
    -3
  6
Continuous
100
AcDbCircle
 10
-406.055146
 20
-117.341194
 30
0.0
 40
6.0
100
AcDbArc
 50
180.0
 51
270.0
  0
LINE
  5
3F3
100
AcDbEntity
  8
0
370
    -3
  6
Continuous
100
AcDbLine
 10
-412.055146
 20
-116.292382
 30
0.0
 11
-412.055146
 21
-117.341194
 31
0.0
  0
ARC
  5
3F4
100
AcDbEntity
  8
0
370
    -3
  6
Continuous
100
AcDbCircle
 10
-408.76526
 20
-110.341194
 30
0.0
 40
6.8
100
AcDbArc
 50
180.0
 51
270.0
  0
LINE
  5
3F5
100
AcDbEntity
  8
0
370
    -3
  6
Continuous
100
AcDbLine
 10
-415.56526
 20
-77.841194
 30
0.0
 11
-415.56526
 21
-110.341194
 31
0.0
  0
ARC
  5
3F6
100
AcDbEntity
  8
0
370
    -3
  6
Continuous
100
AcDbCircle
 10
-379.132401
 20
-113.341194
 30
0.0
 40
3.8
100
AcDbArc
 50
270.0
 51
337.022625
  0
ARC
  5
3F7
100
AcDbEntity
  8
0
370
    -3
  6
Continuous
100
AcDbCircle
 10
-375.129348
 20
-103.900227
 30
0.0
 40
3.8
100
AcDbArc
 50
337.022625
 51
0.0
  0
LINE
  5
3F8
100
AcDbEntity
  8
0
370
    -3
  6
Continuous
100
AcDbLine
 10
-371.630843
 20
-105.383624
 30
0.0
 11
-375.633897
 21
-114.824591
 31
0.0
  0
LINE
  5
3F9
100
AcDbEntity
  8
0
370
    -3
  6
Continuous
100
AcDbLine
 10
-408.76526
 20
-117.141194
 30
0.0
 11
-379.132401
 21
-117.141194
 31
0.0
  0
LINE
  5
3FA
100
AcDbEntity
  8
0
370
    -3
  6
Continuous
100
AcDbLine
 10
-371.329348
 20
-77.841194
 30
0.0
 11
-371.329348
 21
-103.900227
 31
0.0
  0
LINE
  5
3FB
100
AcDbEntity
  8
0
370
    -3
  6
Continuous
100
AcDbLine
 10
-416.56526
 20
-77.841194
 30
0.0
 11
-416.56526
 21
-105.841194
 31
0.0
  0
ARC
  5
3FC
100
AcDbEntity
  8
0
370
    -3
  6
Continuous
100
AcDbCircle
 10
-407.471642
 20
-116.841194
 30
0.0
 40
7.0
100
AcDbArc
 50
180.0
 51
270.0
  0
LINE
  5
3FD
100
AcDbEntity
  8
0
370
    -3
  6
Continuous
100
AcDbLine
 10
-417.56526
 20
-108.841194
 30
0.0
 11
-416.56526
 21
-108.841194
 31
0.0
  0
LINE
  5
3FE
100
AcDbEntity
  8
0
370
    -3
  6
Continuous
100
AcDbLine
 10
-416.56526
 20
-108.841194
 30
0.0
 11
-416.56526
 21
-77.841194
 31
0.0
  0
LINE
  5
3FF
100
AcDbEntity
  8
0
370
    -3
  6
Continuous
100
AcDbLine
 10
-417.56526
 20
-77.841194
 30
0.0
 11
-417.56526
 21
-108.841194
 31
0.0
  0
LINE
  5
400
100
AcDbEntity
  8
0
370
    -3
  6
Continuous
100
AcDbLine
 10
-365.094111
 20
-116.841194
 30
0.0
 11
-365.094111
 21
-77.841194
 31
0.0
  0
LINE
  5
401
100
AcDbEntity
  8
0
370
    -3
  6
Continuous
100
AcDbLine
 10
-370.096724
 20
-77.841194
 30
0.0
 11
-370.096724
 21
-116.841194
 31
0.0
  0
LINE
  5
402
100
AcDbEntity
  8
0
370
    -3
  6
Continuous
100
AcDbLine
 10
-372.894111
 20
-124.641194
 30
0.0
 11
-407.009736
 21
-124.641194
 31
0.0
  0
ELLIPSE
  5
403
100
AcDbEntity
  8
0
370
    -3
  6
Continuous
100
AcDbEllipse
 10
-366.97952
 20
-117.341194
 30
0.0
 11
0.0
 21
3.5
 31
0.0
210
0.0
220
0.0
230
1.0
 40
0.656603
 41
3.5746436290433174
 42
5.3210459426689347
  0
ARC
  5
404
100
AcDbEntity
  8
0
370
    -3
  6
Continuous
100
AcDbCircle
 10
-372.894111
 20
-116.841194
 30
0.0
 40
7.8
100
AcDbArc
 50
270.0
 51
0.0
  0
ARC
  5
405
100
AcDbEntity
  8
0
370
    -3
  6
Continuous
100
AcDbCircle
 10
-377.55863
 20
-116.841194
 30
0.0
 40
7.8
100
AcDbArc
 50
270.0
 51
0.0
  0
ARC
  5
406
100
AcDbEntity
  8
0
370
    -3
  6
Continuous
100
AcDbCircle
 10
-377.096724
 20
-116.841194
 30
0.0
 40
7.0
100
AcDbArc
 50
270.0
 51
0.0
  0
LINE
  5
407
100
AcDbEntity
  8
0
370
    -3
  6
Continuous
100
AcDbLine
 10
-377.096724
 20
-123.841194
 30
0.0
 11
-407.471642
 21
-123.841194
 31
0.0
  0
ARC
  5
408
100
AcDbEntity
  8
0
370
    -3
  6
Continuous
100
AcDbCircle
 10
-407.009736
 20
-116.841194
 30
0.0
 40
7.8
100
AcDbArc
 50
180.0
 51
270.0
  0
LINE
  5
409
100
AcDbEntity
  8
0
370
    -3
  6
CENTER
100
AcDbLine
 10
-390.56526
 20
-59.196261
 30
0.0
 11
-390.56526
 21
-99.141651
 31
0.0
  0
LINE
  5
40A
100
AcDbEntity
  8
0
370
    -3
  6
Continuous
100
AcDbLine
 10
-417.56526
 20
-109.367037
 30
0.0
 11
-417.56526
 21
-46.315351
 31
0.0
  0
ARC
  5
40B
100
AcDbEntity
  8
0
370
    -3
  6
Continuous
100
AcDbCircle
 10
-418.56526
 20
-109.367037
 30
0.0
 40
1.0
100
AcDbArc
 50
271.5
 51
0.0
  0
LINE
  5
40C
100
AcDbEntity
  8
0
370
    -3
  6
Continuous
100
AcDbLine
 10
-416.56526
 20
-108.841194
 30
0.0
 11
-416.56526
 21
-77.841194
 31
0.0
  0
LINE
  5
40D
100
AcDbEntity
  8
0
370
    -3
  6
Continuous
100
AcDbLine
 10
-416.56526
 20
-46.841194
 30
0.0
 11
-416.56526
 21
-77.841194
 31
0.0
  0
LINE
  5
40E
100
AcDbEntity
  8
0
370
    -3
  6
Continuous
100
AcDbLine
 10
-421.56526
 20
-106.943052
 30
0.0
 11
-421.56526
 21
-110.445938
 31
0.0
  0
LINE
  5
40F
100
AcDbEntity
  8
0
370
    -3
  6
Continuous
100
AcDbLine
 10
-421.56526
 20
-110.445938
 30
0.0
 11
-418.539083
 21
-110.366694
 31
0.0
  0
ARC
  5
410
100
AcDbEntity
  8
0
370
    -3
  6
Continuous
100
AcDbCircle
 10
-418.56526
 20
-109.367037
 30
0.0
 40
1.0
100
AcDbArc
 50
271.5
 51
0.0
  0
LINE
  5
411
100
AcDbEntity
  8
0
370
    -3
  6
Continuous
100
AcDbLine
 10
-417.56526
 20
-109.367037
 30
0.0
 11
-417.56526
 21
-46.315351
 31
0.0
  0
ARC
  5
412
100
AcDbEntity
  8
0
370
    -3
  6
Continuous
100
AcDbCircle
 10
-418.56526
 20
-46.315351
 30
0.0
 40
1.0
100
AcDbArc
 50
0.0
 51
88.5
  0
LINE
  5
413
100
AcDbEntity
  8
0
370
    -3
  6
Continuous
100
AcDbLine
 10
-421.56526
 20
-45.23645
 30
0.0
 11
-418.539083
 21
-45.315693
 31
0.0
  0
LINE
  5
414
100
AcDbEntity
  8
0
370
    -3
  6
Continuous
100
AcDbLine
 10
-421.56526
 20
-48.739335
 30
0.0
 11
-421.56526
 21
-45.23645
 31
0.0
  0
LINE
  5
415
100
AcDbEntity
  8
0
370
    -3
  6
Continuous
100
AcDbLine
 10
-417.56526
 20
-77.841194
 30
0.0
 11
-417.56526
 21
-108.841194
 31
0.0
  0
LINE
  5
416
100
AcDbEntity
  8
0
370
    -3
  6
Continuous
100
AcDbLine
 10
-417.56526
 20
-108.841194
 30
0.0
 11
-416.56526
 21
-108.841194
 31
0.0
  0
LINE
  5
417
100
AcDbEntity
  8
0
370
    -3
  6
Continuous
100
AcDbLine
 10
-417.56526
 20
-77.841194
 30
0.0
 11
-417.56526
 21
-46.841194
 31
0.0
  0
LINE
  5
418
100
AcDbEntity
  8
0
370
    -3
  6
Continuous
100
AcDbLine
 10
-417.56526
 20
-46.841194
 30
0.0
 11
-416.56526
 21
-46.841194
 31
0.0
  0
LINE
  5
419
100
AcDbEntity
  8
0
370
    -3
  6
CENTER
100
AcDbLine
 10
-361.466073
 20
-77.841194
 30
0.0
 11
-562.411639
 21
-77.841194
 31
0.0
  0
LINE
  5
41A
100
AcDbEntity
  8
0
370
    -3
  6
Continuous
100
AcDbLine
 10
-417.56526
 20
-46.841194
 30
0.0
 11
-417.56526
 21
-108.841194
 31
0.0
  0
LINE
  5
41B
100
AcDbEntity
  8
0
370
    -3
  6
Continuous
100
AcDbLine
 10
-417.56526
 20
-46.315351
 30
0.0
 11
-417.56526
 21
-109.367037
 31
0.0
  0
LINE
  5
41C
100
AcDbEntity
  8
0
370
    -3
  6
Continuous
100
AcDbLine
 10
-417.56526
 20
-46.841194
 30
0.0
 11
-417.56526
 21
-108.841194
 31
0.0
  0
LINE
  5
41D
100
AcDbEntity
  8
0
370
    -3
  6
Continuous
100
AcDbLine
 10
-229.42637
 20
-77.841194
 30
0.0
 11
-229.42637
 21
-53.276731
 31
0.0
  0
LINE
  5
41E
100
AcDbEntity
  8
0
370
    -3
  6
Continuous
100
AcDbLine
 10
-219.500477
 20
-40.578685
 30
0.0
 11
-228.477212
 21
-50.764223
 31
0.0
  0
ARC
  5
41F
100
AcDbEntity
  8
0
370
    -3
  6
Continuous
100
AcDbCircle
 10
-225.62637
 20
-53.276731
 30
0.0
 40
3.8
100
AcDbArc
 50
138.609573
 51
180.0
  0
POINT
  5
420
100
AcDbEntity
  8
0
370
    -3
  6
CENTER
100
AcDbPoint
 10
-260.094111
 20
-64.620694
 30
0.0
  0
LINE
  5
421
100
AcDbEntity
  8
0
370
    -3
  6
Continuous
100
AcDbLine
 10
-260.094111
 20
-77.841194
 30
0.0
 11
-260.094111
 21
-62.841194
 31
0.0
  0
ARC
  5
422
100
AcDbEntity
  8
0
370
    -3
  6
Continuous
100
AcDbCircle
 10
-258.094111
 20
-62.841194
 30
0.0
 40
2.0
100
AcDbArc
 50
90.0
 51
180.0
  0
LINE
  5
423
100
AcDbEntity
  8
0
370
    -3
  6
Continuous
100
AcDbLine
 10
-258.094111
 20
-60.841194
 30
0.0
 11
-239.668171
 21
-60.841194
 31
0.0
  0
LINE
  5
424
100
AcDbEntity
  8
0
370
    -3
  6
Continuous
100
AcDbLine
 10
-237.216985
 20
-77.841194
 30
0.0
 11
-237.216985
 21
-38.841194
 31
0.0
  0
LINE
  5
425
100
AcDbEntity
  8
0
370
    -3
  6
Continuous
100
AcDbLine
 10
-239.668171
 20
-77.841194
 30
0.0
 11
-239.668171
 21
-38.841194
 31
0.0
  0
POINT
  5
426
100
AcDbEntity
  8
0
370
    -3
  6
CENTER
100
AcDbPoint
 10
-260.094111
 20
-91.061694
 30
0.0
  0
LINE
  5
427
100
AcDbEntity
  8
0
370
    -3
  6
Continuous
100
AcDbLine
 10
-260.094111
 20
-77.841194
 30
0.0
 11
-260.094111
 21
-92.841194
 31
0.0
  0
ARC
  5
428
100
AcDbEntity
  8
0
370
    -3
  6
Continuous
100
AcDbCircle
 10
-258.094111
 20
-92.841194
 30
0.0
 40
2.0
100
AcDbArc
 50
180.0
 51
270.0
  0
LINE
  5
429
100
AcDbEntity
  8
0
370
    -3
  6
Continuous
100
AcDbLine
 10
-258.094111
 20
-94.841194
 30
0.0
 11
-239.668171
 21
-94.841194
 31
0.0
  0
LINE
  5
42A
100
AcDbEntity
  8
0
370
    -3
  6
Continuous
100
AcDbLine
 10
-229.42637
 20
-77.841194
 30
0.0
 11
-229.42637
 21
-102.405656
 31
0.0
  0
LINE
  5
42B
100
AcDbEntity
  8
0
370
    -3
  6
Continuous
100
AcDbLine
 10
-237.216985
 20
-77.841194
 30
0.0
 11
-237.216985
 21
-116.841194
 31
0.0
  0
LINE
  5
42C
100
AcDbEntity
  8
0
370
    -3
  6
Continuous
100
AcDbLine
 10
-239.668171
 20
-77.841194
 30
0.0
 11
-239.668171
 21
-116.841194
 31
0.0
  0
LINE
  5
42D
100
AcDbEntity
  8
0
370
    -3
  6
Continuous
100
AcDbLine
 10
-227.594111
 20
-119.285368
 30
0.0
 11
-227.094111
 21
-119.285368
 31
0.0
  0
LINE
  5
42E
100
AcDbEntity
  8
0
370
    -3
  6
Continuous
100
AcDbLine
 10
-229.048977
 20
-117.341194
 30
0.0
 11
-230.956697
 21
-115.341194
 31
0.0
  0
LINE
  5
42F
100
AcDbEntity
  8
0
370
    -3
  6
Continuous
100
AcDbLine
 10
-227.331465
 20
-119.341194
 30
0.0
 11
-229.048977
 21
-117.341194
 31
0.0
  0
LINE
  5
430
100
AcDbEntity
  8
0
370
    -3
  6
Continuous
100
AcDbLine
 10
-229.048977
 20
-117.341194
 30
0.0
 11
-227.331465
 21
-115.341194
 31
0.0
  0
LINE
  5
431
100
AcDbEntity
  8
0
370
    -3
  6
Continuous
100
AcDbLine
 10
-230.956697
 20
-119.341194
 30
0.0
 11
-229.048977
 21
-117.341194
 31
0.0
  0
ELLIPSE
  5
432
100
AcDbEntity
  8
0
370
    -3
  6
Continuous
100
AcDbEllipse
 10
-229.880008
 20
-117.341194
 30
0.0
 11
0.000000000000199
 21
3.5
 31
0.0
210
0.0
220
0.0
230
1.0
 40
0.982815
 41
0.0
 42
6.2831853071795862
  0
ARC
  5
433
100
AcDbEntity
  8
0
370
    -3
  6
Continuous
100
AcDbCircle
 10
-225.62637
 20
-102.405656
 30
0.0
 40
3.8
100
AcDbArc
 50
180.0
 51
221.390427
  0
LINE
  5
434
100
AcDbEntity
  8
0
370
    -3
  6
Continuous
100
AcDbLine
 10
-219.500477
 20
-115.103703
 30
0.0
 11
-228.477212
 21
-104.918165
 31
0.0
  0
ARC
  5
435
100
AcDbEntity
  8
0
370
    -3
  6
Continuous
100
AcDbCircle
 10
-216.649635
 20
-112.591194
 30
0.0
 40
3.8
100
AcDbArc
 50
221.390427
 51
270.0
  0
ARC
  5
436
100
AcDbEntity
  8
0
370
    -3
  6
Continuous
100
AcDbCircle
 10
-229.416985
 20
-116.841194
 30
0.0
 40
7.8
100
AcDbArc
 50
180.0
 51
270.0
  0
ARC
  5
437
100
AcDbEntity
  8
0
370
    -3
  6
Continuous
100
AcDbCircle
 10
-231.868171
 20
-116.841194
 30
0.0
 40
7.8
100
AcDbArc
 50
180.0
 51
270.0
  0
LINE
  5
438
100
AcDbEntity
  8
0
370
    -3
  6
Continuous
100
AcDbLine
 10
-146.574968
 20
-117.341194
 30
0.0
 11
-148.482688
 21
-115.341194
 31
0.0
  0
LINE
  5
439
100
AcDbEntity
  8
0
370
    -3
  6
Continuous
100
AcDbLine
 10
-144.857457
 20
-119.341194
 30
0.0
 11
-146.574968
 21
-117.341194
 31
0.0
  0
LINE
  5
43A
100
AcDbEntity
  8
0
370
    -3
  6
Continuous
100
AcDbLine
 10
-146.574968
 20
-117.341194
 30
0.0
 11
-144.857457
 21
-115.341194
 31
0.0
  0
LINE
  5
43B
100
AcDbEntity
  8
0
370
    -3
  6
Continuous
100
AcDbLine
 10
-148.482688
 20
-119.341194
 30
0.0
 11
-146.574968
 21
-117.341194
 31
0.0
  0
ELLIPSE
  5
43C
100
AcDbEntity
  8
0
370
    -3
  6
Continuous
100
AcDbEllipse
 10
-147.405999
 20
-117.341194
 30
0.0
 11
0.000000000000199
 21
3.5
 31
0.0
210
0.0
220
0.0
230
1.0
 40
0.982815
 41
0.0
 42
6.2831853071795862
  0
LINE
  5
43D
100
AcDbEntity
  8
0
370
    -3
  6
Continuous
100
AcDbLine
 10
-158.668158
 20
-77.841194
 30
0.0
 11
-158.668158
 21
-106.391194
 31
0.0
  0
ARC
  5
43E
100
AcDbEntity
  8
0
370
    -3
  6
Continuous
100
AcDbCircle
 10
-168.668158
 20
-106.391194
 30
0.0
 40
10.0
100
AcDbArc
 50
270.0
 51
360.0
  0
LINE
  5
43F
100
AcDbEntity
  8
0
370
    -3
  6
Continuous
100
AcDbLine
 10
-148.214752
 20
-77.841194
 30
0.0
 11
-148.214752
 21
-102.388185
 31
0.0
  0
ARC
  5
440
100
AcDbEntity
  8
0
370
    -3
  6
Continuous
100
AcDbCircle
 10
-152.014752
 20
-102.388185
 30
0.0
 40
3.8
100
AcDbArc
 50
318.14922
 51
360.0
  0
LINE
  5
441
100
AcDbEntity
  8
0
370
    -3
  6
Continuous
100
AcDbLine
 10
-158.323016
 20
-115.126527
 30
0.0
 11
-149.184189
 21
-104.923518
 31
0.0
  0
ARC
  5
442
100
AcDbEntity
  8
0
370
    -3
  6
Continuous
100
AcDbCircle
 10
-161.153579
 20
-112.591194
 30
0.0
 40
3.8
100
AcDbArc
 50
270.0
 51
318.14922
  0
ARC
  5
443
100
AcDbEntity
  8
0
370
    -3
  6
Continuous
100
AcDbCircle
 10
-148.996642
 20
-116.841194
 30
0.0
 40
7.8
100
AcDbArc
 50
270.0
 51
360.0
  0
LINE
  5
444
100
AcDbEntity
  8
0
370
    -3
  6
Continuous
100
AcDbLine
 10
-148.996642
 20
-124.641194
 30
0.0
 11
-231.868171
 21
-124.641194
 31
0.0
  0
LINE
  5
445
100
AcDbEntity
  8
0
370
    -3
  6
Continuous
100
AcDbLine
 10
-141.196642
 20
-77.841194
 30
0.0
 11
-141.196642
 21
-116.841194
 31
0.0
  0
LINE
  5
446
100
AcDbEntity
  8
0
370
    -3
  6
Continuous
100
AcDbLine
 10
-158.668158
 20
-77.841194
 30
0.0
 11
-158.668158
 21
-49.291194
 31
0.0
  0
LINE
  5
447
100
AcDbEntity
  8
0
370
    -3
  6
Continuous
100
AcDbLine
 10
-148.214752
 20
-77.841194
 30
0.0
 11
-148.214752
 21
-53.294203
 31
0.0
  0
LINE
  5
448
100
AcDbEntity
  8
0
370
    -3
  6
Continuous
100
AcDbLine
 10
-141.196642
 20
-77.841194
 30
0.0
 11
-141.196642
 21
-38.841194
 31
0.0
  0
LINE
  5
449
100
AcDbEntity
  8
0
370
    -3
  6
Continuous
100
AcDbLine
 10
-146.574968
 20
-38.341194
 30
0.0
 11
-148.482688
 21
-40.341194
 31
0.0
  0
LINE
  5
44A
100
AcDbEntity
  8
0
370
    -3
  6
Continuous
100
AcDbLine
 10
-144.857457
 20
-36.341194
 30
0.0
 11
-146.574968
 21
-38.341194
 31
0.0
  0
LINE
  5
44B
100
AcDbEntity
  8
0
370
    -3
  6
Continuous
100
AcDbLine
 10
-146.574968
 20
-38.341194
 30
0.0
 11
-144.857457
 21
-40.341194
 31
0.0
  0
LINE
  5
44C
100
AcDbEntity
  8
0
370
    -3
  6
Continuous
100
AcDbLine
 10
-148.482688
 20
-36.341194
 30
0.0
 11
-146.574968
 21
-38.341194
 31
0.0
  0
ELLIPSE
  5
44D
100
AcDbEntity
  8
0
370
    -3
  6
Continuous
100
AcDbEllipse
 10
-147.405999
 20
-38.341194
 30
0.0
 11
0.0
 21
3.5
 31
0.0
210
0.0
220
0.0
230
1.0
 40
0.982815
 41
0.0
 42
6.2831853071795862
  0
ARC
  5
44E
100
AcDbEntity
  8
0
370
    -3
  6
Continuous
100
AcDbCircle
 10
-168.668158
 20
-49.291194
 30
0.0
 40
10.0
100
AcDbArc
 50
0.0
 51
90.0
  0
LINE
  5
44F
100
AcDbEntity
  8
0
370
    -3
  6
Continuous
100
AcDbLine
 10
-216.649635
 20
-39.291194
 30
0.0
 11
-161.153579
 21
-39.291194
 31
0.0
  0
ARC
  5
450
100
AcDbEntity
  8
0
370
    -3
  6
Continuous
100
AcDbCircle
 10
-152.014752
 20
-53.294203
 30
0.0
 40
3.8
100
AcDbArc
 50
0.0
 51
41.85078
  0
LINE
  5
451
100
AcDbEntity
  8
0
370
    -3
  6
Continuous
100
AcDbLine
 10
-158.323016
 20
-40.555861
 30
0.0
 11
-149.184189
 21
-50.75887
 31
0.0
  0
ARC
  5
452
100
AcDbEntity
  8
0
370
    -3
  6
Continuous
100
AcDbCircle
 10
-161.153579
 20
-43.091194
 30
0.0
 40
3.8
100
AcDbArc
 50
41.85078
 51
90.0
  0
LINE
  5
453
100
AcDbEntity
  8
0
370
    -3
  6
Continuous
100
AcDbLine
 10
-148.996642
 20
-31.041194
 30
0.0
 11
-231.868171
 21
-31.041194
 31
0.0
  0
ARC
  5
454
100
AcDbEntity
  8
0
370
    -3
  6
Continuous
100
AcDbCircle
 10
-148.996642
 20
-38.841194
 30
0.0
 40
7.8
100
AcDbArc
 50
0.0
 51
90.0
  0
LINE
  5
455
100
AcDbEntity
  8
0
370
    -3
  6
Continuous
100
AcDbLine
 10
-229.048977
 20
-38.341194
 30
0.0
 11
-230.956697
 21
-40.341194
 31
0.0
  0
LINE
  5
456
100
AcDbEntity
  8
0
370
    -3
  6
Continuous
100
AcDbLine
 10
-227.331465
 20
-36.341194
 30
0.0
 11
-229.048977
 21
-38.341194
 31
0.0
  0
LINE
  5
457
100
AcDbEntity
  8
0
370
    -3
  6
Continuous
100
AcDbLine
 10
-229.048977
 20
-38.341194
 30
0.0
 11
-227.331465
 21
-40.341194
 31
0.0
  0
LINE
  5
458
100
AcDbEntity
  8
0
370
    -3
  6
Continuous
100
AcDbLine
 10
-230.956697
 20
-36.341194
 30
0.0
 11
-229.048977
 21
-38.341194
 31
0.0
  0
ELLIPSE
  5
459
100
AcDbEntity
  8
0
370
    -3
  6
Continuous
100
AcDbEllipse
 10
-229.880008
 20
-38.341194
 30
0.0
 11
0.0
 21
3.5
 31
0.0
210
0.0
220
0.0
230
1.0
 40
0.982815
 41
0.0
 42
6.2831853071795862
  0
ARC
  5
45A
100
AcDbEntity
  8
0
370
    -3
  6
Continuous
100
AcDbCircle
 10
-216.649635
 20
-43.091194
 30
0.0
 40
3.8
100
AcDbArc
 50
90.0
 51
138.609573
  0
ARC
  5
45B
100
AcDbEntity
  8
0
370
    -3
  6
Continuous
100
AcDbCircle
 10
-229.416985
 20
-38.841194
 30
0.0
 40
7.8
100
AcDbArc
 50
90.0
 51
180.0
  0
ARC
  5
45C
100
AcDbEntity
  8
0
370
    -3
  6
Continuous
100
AcDbCircle
 10
-231.868171
 20
-38.841194
 30
0.0
 40
7.8
100
AcDbArc
 50
90.0
 51
180.0
  0
LINE
  5
45D
100
AcDbEntity
  8
0
370
    -3
  6
Continuous
100
AcDbLine
 10
-216.649635
 20
-116.391194
 30
0.0
 11
-161.153579
 21
-116.391194
 31
0.0
  0
LINE
  5
45E
100
AcDbEntity
  8
0
370
    -3
  6
CENTER
100
AcDbLine
 10
-186.094111
 20
-25.058975
 30
0.0
 11
-186.094111
 21
-131.986671
 31
0.0
  0
LINE
  5
45F
100
AcDbEntity
  8
0
370
    -3
  6
Continuous
100
AcDbLine
 10
-260.094111
 20
96.498538
 30
0.0
 11
-260.094111
 21
81.498538
 31
0.0
  0
LINE
  5
460
100
AcDbEntity
  8
0
370
    -3
  6
Continuous
100
AcDbLine
 10
-260.094111
 20
96.498538
 30
0.0
 11
-260.094111
 21
111.498538
 31
0.0
  0
ARC
  5
461
100
AcDbEntity
  8
0
370
    -3
  6
Continuous
100
AcDbCircle
 10
-156.8292
 20
121.798538
 30
0.0
 40
0.3
100
AcDbArc
 50
193.342364
 51
270.0
  0
LINE
  5
462
100
AcDbEntity
  8
0
370
    -3
  6
Continuous
100
AcDbLine
 10
-204.111267
 20
129.498538
 30
0.0
 11
-212.768764
 21
129.498538
 31
0.0
  0
ARC
  5
463
100
AcDbEntity
  8
0
370
    -3
  6
Continuous
100
AcDbCircle
 10
-215.359022
 20
121.798538
 30
0.0
 40
0.3
100
AcDbArc
 50
270.0
 51
346.657636
  0
LINE
  5
464
100
AcDbEntity
  8
0
370
    -3
  6
Continuous
100
AcDbLine
 10
-217.094111
 20
123.498538
 30
0.0
 11
-155.094111
 21
123.498538
 31
0.0
  0
LINE
  5
465
100
AcDbEntity
  8
0
370
    -3
  6
Continuous
100
AcDbLine
 10
-186.094111
 20
123.498538
 30
0.0
 11
-217.094111
 21
123.498538
 31
0.0
  0
LINE
  5
466
100
AcDbEntity
  8
0
370
    -3
  6
Continuous
100
AcDbLine
 10
-186.094111
 20
123.498538
 30
0.0
 11
-155.094111
 21
123.498538
 31
0.0
  0
ARC
  5
467
100
AcDbEntity
  8
0
370
    -3
  6
Continuous
100
AcDbCircle
 10
-258.094111
 20
81.498538
 30
0.0
 40
2.0
100
AcDbArc
 50
180.0
 51
270.0
  0
LINE
  5
468
100
AcDbEntity
  8
0
370
    -3
  6
Continuous
100
AcDbLine
 10
-258.094111
 20
79.498538
 30
0.0
 11
-231.504827
 21
79.498538
 31
0.0
  0
ARC
  5
469
100
AcDbEntity
  8
0
370
    -3
  6
Continuous
100
AcDbCircle
 10
-258.094111
 20
111.498538
 30
0.0
 40
2.0
100
AcDbArc
 50
90.0
 51
180.0
  0
LINE
  5
46A
100
AcDbEntity
  8
0
370
    -3
  6
Continuous
100
AcDbLine
 10
-258.094111
 20
113.498538
 30
0.0
 11
-231.094111
 21
113.498538
 31
0.0
  0
LINE
  5
46B
100
AcDbEntity
  8
0
370
    -3
  6
Continuous
100
AcDbLine
 10
-233.094111
 20
96.498538
 30
0.0
 11
-233.094111
 21
113.498538
 31
0.0
  0
LINE
  5
46C
100
AcDbEntity
  8
0
370
    -3
  6
Continuous
100
AcDbLine
 10
-233.094111
 20
96.498538
 30
0.0
 11
-233.094111
 21
79.498538
 31
0.0
  0
POINT
  5
46D
100
AcDbEntity
  8
0
370
    -3
  6
CENTER
100
AcDbPoint
 10
-259.594111
 20
83.278038
 30
0.0
  0
POINT
  5
46E
100
AcDbEntity
  8
0
370
    -3
  6
CENTER
100
AcDbPoint
 10
-259.594111
 20
109.719038
 30
0.0
  0
LINE
  5
46F
100
AcDbEntity
  8
0
370
    -3
  6
Continuous
100
AcDbLine
 10
-214.575082
 20
128.88473
 30
0.0
 11
-214.575082
 21
127.998538
 31
0.0
  0
ARC
  5
470
100
AcDbEntity
  8
0
370
    -3
  6
Continuous
100
AcDbCircle
 10
-215.075082
 20
127.998538
 30
0.0
 40
0.5
100
AcDbArc
 50
270.0
 51
0.0
  0
ARC
  5
471
100
AcDbEntity
  8
0
370
    -3
  6
Continuous
100
AcDbCircle
 10
-204.075082
 20
127.998538
 30
0.0
 40
0.5
100
AcDbArc
 50
180.0
 51
270.0
  0
LINE
  5
472
100
AcDbEntity
  8
0
370
    -3
  6
Continuous
100
AcDbLine
 10
-204.575082
 20
128.998538
 30
0.0
 11
-204.575082
 21
127.998538
 31
0.0
  0
LINE
  5
473
100
AcDbEntity
  8
0
370
    -3
  6
Continuous
100
AcDbLine
 10
-205.075082
 20
129.498538
 30
0.0
 11
-213.275845
 21
129.498538
 31
0.0
  0
ARC
  5
474
100
AcDbEntity
  8
0
370
    -3
  6
Continuous
100
AcDbCircle
 10
-205.075082
 20
128.998538
 30
0.0
 40
0.5
100
AcDbArc
 50
0.0
 51
90.0
  0
ARC
  5
475
100
AcDbEntity
  8
0
370
    -3
  6
Continuous
100
AcDbCircle
 10
-169.113141
 20
127.998538
 30
0.0
 40
0.5
100
AcDbArc
 50
270.0
 51
0.0
  0
LINE
  5
476
100
AcDbEntity
  8
0
370
    -3
  6
Continuous
100
AcDbLine
 10
-168.613141
 20
128.998538
 30
0.0
 11
-168.613141
 21
127.998538
 31
0.0
  0
ARC
  5
477
100
AcDbEntity
  8
0
370
    -3
  6
Continuous
100
AcDbCircle
 10
-168.113141
 20
128.998538
 30
0.0
 40
0.5
100
AcDbArc
 50
90.0
 51
180.0
  0
ARC
  5
478
100
AcDbEntity
  8
0
370
    -3
  6
Continuous
100
AcDbCircle
 10
-158.113141
 20
127.998538
 30
0.0
 40
0.5
100
AcDbArc
 50
180.0
 51
270.0
  0
LINE
  5
479
100
AcDbEntity
  8
0
370
    -3
  6
Continuous
100
AcDbLine
 10
-158.613141
 20
128.998538
 30
0.0
 11
-158.613141
 21
127.998538
 31
0.0
  0
ARC
  5
47A
100
AcDbEntity
  8
0
370
    -3
  6
Continuous
100
AcDbCircle
 10
-159.113141
 20
128.998538
 30
0.0
 40
0.5
100
AcDbArc
 50
0.0
 51
90.0
  0
LINE
  5
47B
100
AcDbEntity
  8
0
370
    -3
  6
Continuous
100
AcDbLine
 10
-168.076956
 20
129.498538
 30
0.0
 11
-159.113141
 21
129.498538
 31
0.0
  0
ARC
  5
47C
100
AcDbEntity
  8
0
370
    -3
  6
Continuous
100
AcDbCircle
 10
-168.054532
 20
129.998538
 30
0.0
 40
0.5
100
AcDbArc
 50
270.0
 51
352.874984
  0
LINE
  5
47D
100
AcDbEntity
  8
0
370
    -3
  6
Continuous
100
AcDbLine
 10
-167.167889
 20
133.060556
 30
0.0
 11
-167.558393
 21
129.936521
 31
0.0
  0
ARC
  5
47E
100
AcDbEntity
  8
0
370
    -3
  6
Continuous
100
AcDbCircle
 10
-159.17175
 20
129.998538
 30
0.0
 40
0.5
100
AcDbArc
 50
187.125016
 51
270.0
  0
LINE
  5
47F
100
AcDbEntity
  8
0
370
    -3
  6
Continuous
100
AcDbLine
 10
-160.058393
 20
133.060556
 30
0.0
 11
-159.667889
 21
129.936521
 31
0.0
  0
ARC
  5
480
100
AcDbEntity
  8
0
370
    -3
  6
Continuous
100
AcDbCircle
 10
-160.554532
 20
132.998538
 30
0.0
 40
0.5
100
AcDbArc
 50
7.125016
 51
90.0
  0
ARC
  5
481
100
AcDbEntity
  8
0
370
    -3
  6
Continuous
100
AcDbCircle
 10
-166.67175
 20
132.998538
 30
0.0
 40
0.5
100
AcDbArc
 50
90.0
 51
172.874984
  0
LINE
  5
482
100
AcDbEntity
  8
0
370
    -3
  6
Continuous
100
AcDbLine
 10
-160.554532
 20
133.498538
 30
0.0
 11
-166.665619
 21
133.498538
 31
0.0
  0
ARC
  5
483
100
AcDbEntity
  8
0
370
    -3
  6
Continuous
100
AcDbCircle
 10
-205.133691
 20
129.998538
 30
0.0
 40
0.5
100
AcDbArc
 50
187.125016
 51
270.0
  0
LINE
  5
484
100
AcDbEntity
  8
0
370
    -3
  6
Continuous
100
AcDbLine
 10
-206.020334
 20
133.060556
 30
0.0
 11
-205.629829
 21
129.936521
 31
0.0
  0
ARC
  5
485
100
AcDbEntity
  8
0
370
    -3
  6
Continuous
100
AcDbCircle
 10
-206.516473
 20
132.998538
 30
0.0
 40
0.5
100
AcDbArc
 50
7.125016
 51
90.0
  0
LINE
  5
486
100
AcDbEntity
  8
0
370
    -3
  6
Continuous
100
AcDbLine
 10
-212.094111
 20
133.498538
 30
0.0
 11
-206.522603
 21
133.498538
 31
0.0
  0
LINE
  5
487
100
AcDbEntity
  8
0
370
    -3
  6
Continuous
100
AcDbLine
 10
-167.041425
 20
127.498538
 30
0.0
 11
-206.146797
 21
127.498538
 31
0.0
  0
LINE
  5
488
100
AcDbEntity
  8
0
370
    -3
  6
Continuous
100
AcDbLine
 10
-153.989368
 20
127.498538
 30
0.0
 11
-154.068611
 21
124.472362
 31
0.0
  0
LINE
  5
489
100
AcDbEntity
  8
0
370
    -3
  6
Continuous
100
AcDbLine
 10
-219.198855
 20
127.498538
 30
0.0
 11
-219.119612
 21
124.472362
 31
0.0
  0
ARC
  5
48A
100
AcDbEntity
  8
0
370
    -3
  6
Continuous
100
AcDbCircle
 10
-218.119954
 20
124.498538
 30
0.0
 40
1.0
100
AcDbArc
 50
181.5
 51
270.0
  0
ARC
  5
48B
100
AcDbEntity
  8
0
370
    -3
  6
Continuous
100
AcDbCircle
 10
-155.068268
 20
124.498538
 30
0.0
 40
1.0
100
AcDbArc
 50
270.0
 51
358.5
  0
LINE
  5
48C
100
AcDbEntity
  8
0
370
    -3
  6
CENTER
100
AcDbLine
 10
-209.575082
 20
136.387397
 30
0.0
 11
-209.575082
 21
121.473899
 31
0.0
  0
LINE
  5
48D
100
AcDbEntity
  8
0
370
    -3
  6
Continuous
100
AcDbLine
 10
-218.119954
 20
123.498538
 30
0.0
 11
-155.068268
 21
123.498538
 31
0.0
  0
LINE
  5
48E
100
AcDbEntity
  8
0
370
    -3
  6
Continuous
100
AcDbLine
 10
-167.041425
 20
127.498538
 30
0.0
 11
-153.989368
 21
127.498538
 31
0.0
  0
LINE
  5
48F
100
AcDbEntity
  8
0
370
    -3
  6
Continuous
100
AcDbLine
 10
-206.146797
 20
127.498538
 30
0.0
 11
-219.198855
 21
127.498538
 31
0.0
  0
LINE
  5
490
100
AcDbEntity
  8
0
370
    -3
  6
Continuous
100
AcDbLine
 10
-213.275845
 20
129.498538
 30
0.0
 11
-149.844111
 21
129.498538
 31
0.0
  0
LINE
  5
491
100
AcDbEntity
  8
0
370
    -3
  6
Continuous
100
AcDbLine
 10
-149.844111
 20
131.003951
 30
0.0
 11
-149.844111
 21
129.498538
 31
0.0
  0
ARC
  5
492
100
AcDbEntity
  8
0
370
    -3
  6
Continuous
100
AcDbCircle
 10
-216.418418
 20
118.498538
 30
0.0
 40
3.0
100
AcDbArc
 50
90.0
 51
180.0
  0
LINE
  5
493
100
AcDbEntity
  8
0
370
    -3
  6
Continuous
100
AcDbLine
 10
-219.418418
 20
85.134524
 30
0.0
 11
-219.418418
 21
118.498538
 31
0.0
  0
ARC
  5
494
100
AcDbEntity
  8
0
370
    -3
  6
Continuous
100
AcDbCircle
 10
-214.094111
 20
121.498538
 30
0.0
 40
1.0
100
AcDbArc
 50
90.0
 51
166.657636
  0
LINE
  5
495
100
AcDbEntity
  8
0
370
    -3
  6
Continuous
100
AcDbLine
 10
-224.294111
 20
121.498538
 30
0.0
 11
-154.655958
 21
121.498538
 31
0.0
  0
ARC
  5
496
100
AcDbEntity
  8
0
370
    -3
  6
Continuous
100
AcDbCircle
 10
-158.094111
 20
121.498538
 30
0.0
 40
1.0
100
AcDbArc
 50
13.342364
 51
90.0
  0
LINE
  5
497
100
AcDbEntity
  8
0
370
    -3
  6
Continuous
100
AcDbLine
 10
-150.306223
 20
117.362069
 30
0.0
 11
-151.211988
 21
119.304488
 31
0.0
  0
LINE
  5
498
100
AcDbEntity
  8
0
370
    -3
  6
Continuous
100
AcDbLine
 10
-231.094111
 20
79.690058
 30
0.0
 11
-231.094111
 21
114.698538
 31
0.0
  0
LINE
  5
499
100
AcDbEntity
  8
0
370
    -3
  6
Continuous
100
AcDbLine
 10
-231.504827
 20
79.498538
 30
0.0
 11
-239.668171
 21
75.691909
 31
0.0
  0
LINE
  5
49A
100
AcDbEntity
  8
0
370
    -3
  6
Continuous
100
AcDbLine
 10
-143.055761
 20
120.743015
 30
0.0
 11
-231.504827
 21
79.498538
 31
0.0
  0
LINE
  5
49B
100
AcDbEntity
  8
0
370
    -3
  6
Continuous
100
AcDbLine
 10
-161.906963
 20
111.952555
 30
0.0
 11
-165.335225
 21
119.304488
 31
0.0
  0
ARC
  5
49C
100
AcDbEntity
  8
0
370
    -3
  6
Continuous
100
AcDbCircle
 10
-168.779195
 20
117.698538
 30
0.0
 40
3.8
100
AcDbArc
 50
25.0
 51
90.0
  0
ARC
  5
49D
100
AcDbEntity
  8
0
370
    -3
  6
Continuous
100
AcDbCircle
 10
-442.919751
 20
172.183935
 30
0.0
 40
300.8
100
AcDbArc
 50
342.341575
 51
347.89975
  0
ARC
  5
49E
100
AcDbEntity
  8
0
370
    -3
  6
Continuous
100
AcDbCircle
 10
-191.676509
 20
673.681012
 30
0.0
 40
600.8
100
AcDbArc
 50
266.682408
 51
272.437505
  0
ARC
  5
49F
100
AcDbEntity
  8
0
370
    -3
  6
Continuous
100
AcDbCircle
 10
-155.694294
 20
92.776524
 30
0.0
 40
2.8
100
AcDbArc
 50
344.545811
 51
25.0
  0
ARC
  5
4A0
100
AcDbEntity
  8
0
370
    -3
  6
Continuous
100
AcDbCircle
 10
-220.112715
 20
75.101042
 30
0.0
 40
3.0
100
AcDbArc
 50
25.0
 51
115.0
  0
LINE
  5
4A1
100
AcDbEntity
  8
0
370
    -3
  6
Continuous
100
AcDbLine
 10
-217.393791
 20
76.368897
 30
0.0
 11
-216.718761
 21
74.921289
 31
0.0
  0
ARC
  5
4A2
100
AcDbEntity
  8
0
370
    -3
  6
Continuous
100
AcDbCircle
 10
-214.181099
 20
76.10462
 30
0.0
 40
2.8
100
AcDbArc
 50
205.0
 51
267.843273
  0
LINE
  5
4A3
100
AcDbEntity
  8
0
370
    -3
  6
Continuous
100
AcDbLine
 10
-153.156633
 20
93.959855
 30
0.0
 11
-157.892059
 21
104.11501
 31
0.0
  0
ARC
  5
4A4
100
AcDbEntity
  8
0
370
    -3
  6
Continuous
100
AcDbCircle
 10
-155.173136
 20
105.382865
 30
0.0
 40
3.0
100
AcDbArc
 50
115.0
 51
205.0
  0
LINE
  5
4A5
100
AcDbEntity
  8
0
370
    -3
  6
Continuous
100
AcDbLine
 10
-142.235929
 20
114.725717
 30
0.0
 11
-235.585631
 21
71.196036
 31
0.0
  0
LINE
  5
4A6
100
AcDbEntity
  8
0
370
    -3
  6
CENTER
100
AcDbLine
 10
-262.572735
 20
96.498538
 30
0.0
 11
-222.266248
 21
96.498538
 31
0.0
  0
LINE
  5
4A7
100
AcDbEntity
  8
0
370
    -3
  6
Continuous
100
AcDbLine
 10
-217.094111
 20
122.498538
 30
0.0
 11
-155.094111
 21
122.498538
 31
0.0
  0
LINE
  5
4A8
100
AcDbEntity
  8
0
370
    -3
  6
Continuous
100
AcDbLine
 10
-217.094111
 20
123.498538
 30
0.0
 11
-217.094111
 21
122.498538
 31
0.0
  0
LINE
  5
4A9
100
AcDbEntity
  8
0
370
    -3
  6
Continuous
100
AcDbLine
 10
-155.094111
 20
123.498538
 30
0.0
 11
-155.094111
 21
122.498538
 31
0.0
  0
ARC
  5
4AA
100
AcDbEntity
  8
0
370
    -3
  6
Continuous
100
AcDbCircle
 10
-149.2539
 20
110.372949
 30
0.0
 40
1.299999
100
AcDbArc
 50
204.999999
 51
278.398469
  0
LINE
  5
4AB
100
AcDbEntity
  8
0
370
    -3
  6
Continuous
100
AcDbLine
 10
-150.845853
 20
110.710844
 30
0.0
 11
-150.432099
 21
109.823545
 31
0.0
  0
ARC
  5
4AC
100
AcDbEntity
  8
0
370
    -3
  6
Continuous
100
AcDbCircle
 10
-150.378533
 20
117.990377
 30
0.0
 40
9.0
100
AcDbArc
 50
278.398469
 51
311.601548
  0
ARC
  5
4AD
100
AcDbEntity
  8
0
370
    -3
  6
Continuous
100
AcDbCircle
 10
-145.266144
 20
112.23247
 30
0.0
 40
1.299999
100
AcDbArc
 50
311.601548
 51
25.000018
  0
LINE
  5
4AE
100
AcDbEntity
  8
0
370
    -3
  6
CENTER
100
AcDbLine
 10
-148.93145
 20
114.887098
 30
0.0
 11
-146.061529
 21
108.732533
 31
0.0
  0
LINE
  5
4AF
100
AcDbEntity
  8
0
370
    -3
  6
Continuous
100
AcDbLine
 10
-144.501699
 20
113.669172
 30
0.0
 11
-144.087945
 21
112.781873
 31
0.0
  0
ARC
  5
4B0
100
AcDbEntity
  8
0
370
    -3
  6
Continuous
100
AcDbCircle
 10
-231.727908
 20
71.914687
 30
0.0
 40
1.299999
100
AcDbArc
 50
204.999999
 51
278.398469
  0
ARC
  5
4B1
100
AcDbEntity
  8
0
370
    -3
  6
Continuous
100
AcDbCircle
 10
-227.740153
 20
73.774208
 30
0.0
 40
1.299999
100
AcDbArc
 50
311.601548
 51
25.000018
  0
LINE
  5
4B2
100
AcDbEntity
  8
0
370
    -3
  6
Continuous
100
AcDbLine
 10
-233.319862
 20
72.252582
 30
0.0
 11
-232.906108
 21
71.365284
 31
0.0
  0
LINE
  5
4B3
100
AcDbEntity
  8
0
370
    -3
  6
Continuous
100
AcDbLine
 10
-226.975707
 20
75.21091
 30
0.0
 11
-226.561953
 21
74.323611
 31
0.0
  0
POINT
  5
4B4
100
AcDbEntity
  8
0
370
    -3
  6
Continuous
100
AcDbPoint
 10
-230.147784
 20
73.731746
 30
0.0
  0
ARC
  5
4B5
100
AcDbEntity
  8
0
370
    -3
  6
Continuous
100
AcDbCircle
 10
-232.852541
 20
79.532115
 30
0.0
 40
9.0
100
AcDbArc
 50
278.398469
 51
311.601548
  0
ARC
  5
4B6
100
AcDbEntity
  8
0
370
    -3
  6
Continuous
100
AcDbCircle
 10
-166.584016
 20
84.214841
 30
0.0
 40
10.8
100
AcDbArc
 50
272.437505
 51
342.341575
  0
LINE
  5
4B7
100
AcDbEntity
  8
0
370
    -3
  6
CENTER
100
AcDbLine
 10
-231.405458
 20
76.428836
 30
0.0
 11
-228.535538
 21
70.274272
 31
0.0
  0
POINT
  5
4B8
100
AcDbEntity
  8
0
370
    -3
  6
Continuous
100
AcDbPoint
 10
-147.697486
 20
112.178951
 30
0.0
  0
LINE
  5
4B9
100
AcDbEntity
  8
0
370
    -3
  6
CENTER
100
AcDbLine
 10
-148.93145
 20
114.887098
 30
0.0
 11
-146.061529
 21
108.732533
 31
0.0
  0
ARC
  5
4BA
100
AcDbEntity
  8
0
370
    -3
  6
Continuous
100
AcDbCircle
 10
-142.996642
 20
116.357071
 30
0.0
 40
1.8
100
AcDbArc
 50
295.0
 51
25.0
  0
LINE
  5
4BB
100
AcDbEntity
  8
0
370
    -3
  6
Continuous
100
AcDbLine
 10
-141.365288
 20
117.117784
 30
0.0
 11
-143.055761
 21
120.743015
 31
0.0
  0
ARC
  5
4BC
100
AcDbEntity
  8
0
370
    -3
  6
Continuous
100
AcDbCircle
 10
-236.346344
 20
72.82739
 30
0.0
 40
1.8
100
AcDbArc
 50
205.0
 51
295.0
  0
LINE
  5
4BD
100
AcDbEntity
  8
0
370
    -3
  6
Continuous
100
AcDbLine
 10
-237.977698
 20
72.066677
 30
0.0
 11
-239.668171
 21
75.691909
 31
0.0
  0
ARC
  5
4BE
100
AcDbEntity
  8
0
370
    -3
  6
Continuous
100
AcDbCircle
 10
-154.655958
 20
117.698538
 30
0.0
 40
3.8
100
AcDbArc
 50
25.0
 51
90.0
  0
ARC
  5
4BF
100
AcDbEntity
  8
0
370
    -3
  6
Continuous
100
AcDbCircle
 10
-224.294111
 20
114.698538
 30
0.0
 40
6.8
100
AcDbArc
 50
90.0
 51
180.0
  0
MTEXT
  5
4C0
100
AcDbEntity
  8
0
370
    -3
  6
Continuous
100
AcDbMText
 10
-534.344788
 20
127.93856
 30
0.0
 40
15.0
 41
0.0
 71
     7
 72
     1
  1
\W0.43;DATE\W0.72; \W0.43;2011.12.29
  7
ZU_SHPTB00001
 11
1.0
 21
0.0
 31
0.0
 73
     1
 44
1.0
  0
ARC
  5
4C1
100
AcDbEntity
  8
0
370
    -3
  6
CENTER
100
AcDbCircle
 10
210.377054
 20
-59.841438
 30
0.0
 40
90.0
100
AcDbArc
 50
38.963684
 51
50.093368
  0
ARC
  5
4C2
100
AcDbEntity
  8
0
370
    -3
  6
CENTER
100
AcDbCircle
 10
210.377054
 20
-59.841438
 30
0.0
 40
90.0
100
AcDbArc
 50
218.817596
 51
230.093368
  0
LINE
  5
4C3
100
AcDbEntity
  8
0
370
    -3
  6
CENTER
100
AcDbLine
 10
-163.613141
 20
136.808425
 30
0.0
 11
-163.613141
 21
121.473899
 31
0.0
  0
LINE
  5
4C4
100
AcDbEntity
  8
0
370
    -3
  6
CENTER
100
AcDbLine
 10
-186.094111
 20
134.275956
 30
0.0
 11
-186.094111
 21
111.365979
 31
0.0
  0
ENDSEC
  0
SECTION
  2
OBJECTS
  0
DICTIONARY
  5
19
100
AcDbDictionary
280
     0
281
     1
  3
ACAD_GROUP
350
1A
  3
ACAD_MLINESTYLE
350
1B
  3
ACAD_LAYOUT
350
1E
  3
ACAD_PLOTSETTINGS
350
22
  3
ACAD_PLOTSTYLENAME
350
1F
  3
ACAD_WIPEOUT_VARS
350
23
  3
DWGPROPS
350
4C5
  0
DICTIONARY
  5
1A
102
{ACAD_REACTORS
330
19
102
}
100
AcDbDictionary
280
     0
281
     1
  0
DICTIONARY
  5
1B
102
{ACAD_REACTORS
330
19
102
}
100
AcDbDictionary
280
     0
281
     1
  3
Standard
350
1C
  0
MLINESTYLE
  5
1C
102
{ACAD_REACTORS
330
1B
102
}
100
AcDbMlineStyle
  2
Standard
 70
     0
  3

 62
     0
 51
90.0
 52
90.0
 71
     2
 49
0.5
 62
   256
  6
ByLayer
 49
-0.5
 62
   256
  6
ByLayer
  0
ACDBDICTIONARYWDFLT
  5
1F
102
{ACAD_REACTORS
330
19
102
}
100
AcDbDictionary
281
     1
  3
Normal
350
1D
100
AcDbDictionaryWithDefault
340
1D
  0
ACDBPLACEHOLDER
  5
1D
102
{ACAD_REACTORS
330
1F
102
}
  0
LAYOUT
  5
20
102
{ACAD_REACTORS
330
1E
102
}
100
AcDbPlotSettings
  1

  2

  4

  6

 40
0.0
 41
0.0
 42
0.0
 43
0.0
 44
0.0
 45
0.0
 46
0.0
 47
0.0
 48
0.0
 49
0.0
140
0.0
141
0.0
142
1.0
143
1.0
 70
  1024
 72
     0
 73
     0
 74
     0
  7

 75
     0
147
1.0
148
0.0
149
0.0
100
AcDbLayout
  1
Model
 70
     0
 71
     0
 10
0.0
 20
0.0
 11
0.0
 21
0.0
 12
0.0
 22
0.0
 32
0.0
 14
0.0
 24
0.0
 34
0.0
 15
0.0
 25
0.0
 35
0.0
146
0.0
 13
0.0
 23
0.0
 33
0.0
 16
0.0
 26
0.0
 36
0.0
 17
0.0
 27
0.0
 37
0.0
 76
     0
330
A
331
0
345
0
346
0
  0
LAYOUT
  5
21
102
{ACAD_REACTORS
330
1E
102
}
100
AcDbPlotSettings
  1

  2

  4

  6

 40
0.0
 41
0.0
 42
0.0
 43
0.0
 44
0.0
 45
0.0
 46
0.0
 47
0.0
 48
0.0
 49
0.0
140
0.0
141
0.0
142
1.0
143
1.0
 70
     0
 72
     0
 73
     0
 74
     0
  7

 75
     0
147
1.0
148
0.0
149
0.0
100
AcDbLayout
  1
Layout1
 70
     0
 71
     0
 10
0.0
 20
0.0
 11
0.0
 21
0.0
 12
0.0
 22
0.0
 32
0.0
 14
0.0
 24
0.0
 34
0.0
 15
0.0
 25
0.0
 35
0.0
146
0.0
 13
0.0
 23
0.0
 33
0.0
 16
0.0
 26
0.0
 36
0.0
 17
0.0
 27
0.0
 37
0.0
 76
     0
330
B
331
0
345
0
346
0
  0
DICTIONARY
  5
1E
102
{ACAD_REACTORS
330
19
102
}
100
AcDbDictionary
280
     0
281
     1
  3
Layout1
350
21
  3
Model
350
20
  0
DICTIONARY
  5
22
102
{ACAD_REACTORS
330
19
102
}
100
AcDbDictionary
280
     0
281
     1
  0
WIPEOUTVARIABLES
  5
23
100
AcDbWipeoutVariables
 70
     1
  0
XRECORD
  5
4C5
100
AcDbXrecord
280
     1
  1
DWGPROPS COOKIE
  2

  3

  4

  6

  7

  8
HK96464
  9

300
=
301
=
302
=
303
=
304
=
305
=
306
=
307
=
308
=
309
=
 40
0.0
 41
2455931.710336
 42
2455931.710336
  1

 90
        0
  0
ENDSEC
  0
EOF
