  0
SECTION
  2
HEADER
  9
$ACADVER
  1
AC1015
  9
$ACADMAINTVER
 70
     6
  9
$DWGCODEPAGE
  3
ANSI_932
  9
$INSBASE
 10
0.0
 20
0.0
 30
0.0
  9
$EXTMIN
 10
1.000000E+20
 20
1.000000E+20
 30
1.000000E+20
  9
$EXTMAX
 10
-1.000000E+20
 20
-1.000000E+20
 30
-1.000000E+20
  9
$LIMMIN
 10
0.0
 20
0.0
  9
$LIMMAX
 10
0.0
 20
0.0
  9
$ORTHOMODE
 70
     0
  9
$REGENMODE
 70
     1
  9
$FILLMODE
 70
     1
  9
$QTEXTMODE
 70
     0
  9
$MIRRTEXT
 70
     1
  9
$LTSCALE
 40
1.0
  9
$ATTMODE
 70
     1
  9
$TEXTSIZE
 40
2.8
  9
$TRACEWID
 40
0.05
  9
$TEXTSTYLE
  7
Standard
  9
$CLAYER
  8
0
  9
$CELTYPE
  6
Continuous
  9
$CECOLOR
 62
   256
  9
$CELTSCALE
 40
1.0
  9
$DISPSILH
 70
     0
  9
$DIMSCALE
 40
1.0
  9
$DIMASZ
 40
1.931852
  9
$DIMEXO
 40
1.0
  9
$DIMDLI
 40
0.38
  9
$DIMRND
 40
0.0
  9
$DIMDLE
 40
0.0
  9
$DIMEXE
 40
2.0
  9
$DIMTP
 40
0.0
  9
$DIMTM
 40
0.0
  9
$DIMTXT
 40
10.0
  9
$DIMCEN
 40
0.09
  9
$DIMTSZ
 40
0.0
  9
$DIMTOL
 70
     0
  9
$DIMLIM
 70
     0
  9
$DIMTIH
 70
     1
  9
$DIMTOH
 70
     1
  9
$DIMSE1
 70
     0
  9
$DIMSE2
 70
     0
  9
$DIMTAD
 70
     1
  9
$DIMZIN
 70
     0
  9
$DIMBLK
  1

  9
$DIMASO
 70
     1
  9
$DIMSHO
 70
     1
  9
$DIMPOST
  1

  9
$DIMAPOST
  1

  9
$DIMALT
 70
     0
  9
$DIMALTD
 70
     2
  9
$DIMALTF
 40
25.4
  9
$DIMLFAC
 40
1.0
  9
$DIMTOFL
 70
     0
  9
$DIMTVP
 40
0.0
  9
$DIMTIX
 70
     0
  9
$DIMSOXD
 70
     0
  9
$DIMSAH
 70
     0
  9
$DIMBLK1
  1

  9
$DIMBLK2
  1

  9
$DIMSTYLE
  2
Standard
  9
$DIMCLRD
 70
     0
  9
$DIMCLRE
 70
     0
  9
$DIMCLRT
 70
     0
  9
$DIMTFAC
 40
0.714286
  9
$DIMGAP
 40
0.09
  9
$DIMJUST
 70
     0
  9
$DIMSD1
 70
     0
  9
$DIMSD2
 70
     0
  9
$DIMTOLJ
 70
     1
  9
$DIMTZIN
 70
     0
  9
$DIMALTZ
 70
     0
  9
$DIMALTTZ
 70
     0
  9
$DIMUPT
 70
     0
  9
$DIMDEC
 70
     4
  9
$DIMTDEC
 70
     4
  9
$DIMALTU
 70
     2
  9
$DIMALTTD
 70
     2
  9
$DIMTXSTY
  7
Standard
  9
$DIMAUNIT
 70
     0
  9
$DIMADEC
 70
     0
  9
$DIMALTRND
 40
0.0
  9
$DIMAZIN
 70
     0
  9
$DIMDSEP
 70
     0
  9
$DIMATFIT
 70
     3
  9
$DIMFRAC
 70
     0
  9
$DIMLDRBLK
  1

  9
$DIMLUNIT
 70
     2
  9
$DIMLWD
 70
     0
  9
$DIMLWE
 70
     0
  9
$DIMTMOVE
 70
     0
  9
$LUNITS
 70
     2
  9
$LUPREC
 70
     3
  9
$SKETCHINC
 40
0.1
  9
$FILLETRAD
 40
0.0
  9
$AUNITS
 70
     0
  9
$AUPREC
 70
     0
  9
$MENU
  1
acad
  9
$ELEVATION
 40
0.0
  9
$PELEVATION
 40
0.0
  9
$THICKNESS
 40
0.0
  9
$LIMCHECK
 70
     0
  9
$CHAMFERA
 40
0.0
  9
$CHAMFERB
 40
0.0
  9
$CHAMFERC
 40
0.0
  9
$CHAMFERD
 40
0.0
  9
$SKPOLY
 70
     0
  9
$TDCREATE
 40
0.000000000
  9
$TDUCREATE
 40
0.000000000
  9
$TDUPDATE
 40
0.000000000
  9
$TDUUPDATE
 40
0.000000000
  9
$TDINDWG
 40
0.0000000000
  9
$TDUSRTIMER
 40
0.0000000000
  9
$USRTIMER
 70
     1
  9
$ANGBASE
 50
0.0
  9
$ANGDIR
 70
     0
  9
$PDMODE
 70
     0
  9
$PDSIZE
 40
0.0
  9
$PLINEWID
 40
0.0
  9
$SPLFRAME
 70
     0
  9
$SPLINETYPE
 70
     6
  9
$SPLINESEGS
 70
     8
  9
$HANDSEED
  5
57D
  9
$SURFTAB1
 70
     6
  9
$SURFTAB2
 70
     6
  9
$SURFTYPE
 70
     6
  9
$SURFU
 70
     6
  9
$SURFV
 70
     6
  9
$UCSBASE
  2

  9
$UCSNAME
  2

  9
$UCSORG
 10
0.0
 20
0.0
 30
0.0
  9
$UCSXDIR
 10
1.0
 20
0.0
 30
0.0
  9
$UCSYDIR
 10
0.0
 20
1.0
 30
0.0
  9
$UCSORTHOREF
  2

  9
$UCSORTHOVIEW
 70
     0
  9
$UCSORGTOP
 10
0.0
 20
0.0
 30
0.0
  9
$UCSORGBOTTOM
 10
0.0
 20
0.0
 30
0.0
  9
$UCSORGLEFT
 10
0.0
 20
0.0
 30
0.0
  9
$UCSORGRIGHT
 10
0.0
 20
0.0
 30
0.0
  9
$UCSORGFRONT
 10
0.0
 20
0.0
 30
0.0
  9
$UCSORGBACK
 10
0.0
 20
0.0
 30
0.0
  9
$PUCSBASE
  2

  9
$PUCSNAME
  2

  9
$PUCSORG
 10
0.0
 20
0.0
 30
0.0
  9
$PUCSXDIR
 10
1.0
 20
0.0
 30
0.0
  9
$PUCSYDIR
 10
0.0
 20
1.0
 30
0.0
  9
$PUCSORTHOREF
  2

  9
$PUCSORTHOVIEW
 70
     0
  9
$PUCSORGTOP
 10
0.0
 20
0.0
 30
0.0
  9
$PUCSORGBOTTOM
 10
0.0
 20
0.0
 30
0.0
  9
$PUCSORGLEFT
 10
0.0
 20
0.0
 30
0.0
  9
$PUCSORGRIGHT
 10
0.0
 20
0.0
 30
0.0
  9
$PUCSORGFRONT
 10
0.0
 20
0.0
 30
0.0
  9
$PUCSORGBACK
 10
0.0
 20
0.0
 30
0.0
  9
$USERI1
 70
     0
  9
$USERI2
 70
     0
  9
$USERI3
 70
     0
  9
$USERI4
 70
     0
  9
$USERI5
 70
     0
  9
$USERR1
 40
0.0
  9
$USERR2
 40
0.0
  9
$USERR3
 40
0.0
  9
$USERR4
 40
0.0
  9
$USERR5
 40
0.0
  9
$WORLDVIEW
 70
     1
  9
$SHADEDGE
 70
     3
  9
$SHADEDIF
 70
    70
  9
$TILEMODE
 70
     1
  9
$MAXACTVP
 70
    16
  9
$PINSBASE
 10
0.0
 20
0.0
 30
0.0
  9
$PLIMCHECK
 70
     0
  9
$PEXTMIN
 10
1.000000E+20
 20
1.000000E+20
 30
1.000000E+20
  9
$PEXTMAX
 10
-1.000000E+20
 20
-1.000000E+20
 30
-1.000000E+20
  9
$PLIMMIN
 10
0.0
 20
0.0
  9
$PLIMMAX
 10
12.0
 20
9.0
  9
$UNITMODE
 70
     0
  9
$VISRETAIN
 70
     0
  9
$PLINEGEN
 70
     1
  9
$PSLTSCALE
 70
     0
  9
$TREEDEPTH
 70
  3020
  9
$CMLSTYLE
  2
Standard
  9
$CMLJUST
 70
     0
  9
$CMLSCALE
 40
1.0
  9
$PROXYGRAPHICS
 70
     0
  9
$MEASUREMENT
 70
     0
  9
$CELWEIGHT
370
     0
  9
$ENDCAPS
280
     0
  9
$JOINSTYLE
280
     0
  9
$LWDISPLAY
290
     0
  9
$INSUNITS
 70
     0
  9
$HYPERLINKBASE
  1

  9
$STYLESHEET
  1

  9
$XEDIT
290
     1
  9
$CEPSNTYPE
380
     0
  9
$PSTYLEMODE
290
     1
  9
$FINGERPRINTGUID
  2

  9
$VERSIONGUID
  2

  9
$EXTNAMES
290
     1
  9
$PSVPSCALE
 40
0.0
  0
ENDSEC
  0
SECTION
  2
CLASSES
  0
CLASS
  1
LWPOLYLINE
  2
AcDbPolyline
  3
AutoCAD 2000
 90
    32768
280
     0
281
     1
  0
CLASS
  1
IMAGE
  2
AcDbRasterImage
  3
ISM
 90
    32895
280
     0
281
     1
  0
CLASS
  1
OLE2FRAME
  2
AcDbOle2Frame
  3
AutoCAD 2000
 90
    32768
280
     0
281
     1
  0
CLASS
  1
HATCH
  2
AcDbHatch
  3
AutoCAD 2000
 90
    32768
280
     0
281
     1
  0
CLASS
  1
DICTIONARYVAR
  2
AcDbDictionaryVar
  3
AutoCAD 2000
 90
    32768
280
     0
281
     0
  0
CLASS
  1
RASTERVARIABLES
  2
AcDbRasterVariables
  3
ISM
 90
    32768
280
     0
281
     0
  0
CLASS
  1
IMAGEDEF
  2
AcDbRasterImageDef
  3
ISM
 90
    32768
280
     0
281
     0
  0
CLASS
  1
IMAGEDEF_REACTOR
  2
AcDbRasterImageDefReactor
  3
ISM
 90
    32769
280
     0
281
     0
  0
CLASS
  1
IDBUFFER
  2
AcDbIdBuffer
  3
AutoCAD 2000
 90
    32768
280
     0
281
     0
  0
CLASS
  1
SPATIAL_FILTER
  2
AcDbSpatialFilter
  3
AutoCAD 2000
 90
    32768
280
     0
281
     0
  0
CLASS
  1
XRECORD
  2
AcDbXrecord
  3
AutoCAD 2000
 90
        0
280
     0
281
     0
  0
CLASS
  1
SORTENTSTABLE
  2
AcDbSortentsTable
  3
AutoCAD 2000
 90
    32768
280
     0
281
     0
  0
CLASS
  1
LAYER_INDEX
  2
AcDbLayerIndex
  3
AutoCAD 2000
 90
    32768
280
     0
281
     0
  0
CLASS
  1
SPATIAL_INDEX
  2
AcDbSpatialIndex
  3
AutoCAD 2000
 90
    32768
280
     0
281
     0
  0
CLASS
  1
OBJECT_PTR
  2
CAseDLPNTableRecord
  3
"ASE-LPNTableRecord"
 90
    32769
280
     0
281
     0
  0
CLASS
  1
LAYOUT
  2
AcDbLayout
  3
AutoCAD 2000
 90
        0
280
     0
281
     0
  0
CLASS
  1
PLOTSETTINGS
  2
AcDbPlotSettings
  3
AutoCAD 2000
 90
    32768
280
     0
281
     0
  0
CLASS
  1
ACDBDICTIONARYWDFLT
  2
AcDbDictionaryWithDefault
  3
AutoCAD 2000
 90
        0
280
     0
281
     0
  0
CLASS
  1
ACDBPLACEHOLDER
  2
AcDbPlaceHolder
  3
AutoCAD 2000
 90
        0
280
     0
281
     0
  0
CLASS
  1
VBA_PROJECT
  2
AcDbVbaProject
  3
acadvba
 90
    32768
280
     0
281
     0
  0
CLASS
  1
WIPEOUT
  2
AcDbWipeout
  3
WipeOut|AutoCAD Express Tool|expresstools@autodesk.com
 90
    32895
280
     0
281
     1
  0
CLASS
  1
WIPEOUTVARIABLES
  2
AcDbWipeoutVariables
  3
WipeOut|AutoCAD Express Tool|expresstools@autodesk.com
 90
        0
280
     0
281
     0
  0
CLASS
  1
RTEXT
  2
RText
  3
RText|AutoCAD Express Tool|expresstools@autodesk.com
 90
    32768
280
     0
281
     1
  0
CLASS
  1
ARCALIGNEDTEXT
  2
AcDbArcAlignedText
  3
ATEXT|AutoCAD Express Tool|expresstools@autodesk.com
 90
    32768
280
     0
281
     1
  0
ENDSEC
  0
SECTION
  2
TABLES
  0
TABLE
  2
VPORT
  5
7
100
AcDbSymbolTable
 70
     1
  0
VPORT
  5
15
100
AcDbSymbolTableRecord
100
AcDbViewportTableRecord
  2
*ACTIVE
 70
     0
 10
0.0
 20
0.0
 11
1.0
 21
1.0
 12
0.0
 22
0.0
 13
0.0
 23
0.0
 14
1.0
 24
1.0
 15
0.0
 25
0.0
 16
0.0
 26
0.0
 36
1.0
 17
0.0
 27
0.0
 37
0.0
 40
100.0
 41
1.0
 42
50.0
 43
0.0
 44
0.0
 50
0.0
 51
0.0
 71
     0
 72
   100
 73
     1
 74
     1
 75
     0
 76
     0
 77
     0
 78
     0
281
     0
 65
     0
110
0.0
120
0.0
130
0.0
111
1.0
121
0.0
131
0.0
112
0.0
122
1.0
132
0.0
345
0
346
0
 79
     0
146
0.0
  0
ENDTAB
  0
TABLE
  2
LTYPE
  5
4
100
AcDbSymbolTable
 70
     7
  0
LTYPE
  5
11
100
AcDbSymbolTableRecord
100
AcDbLinetypeTableRecord
  2
ByBlock
 70
    64
  3

 72
    65
 73
     0
 40
0.0
  0
LTYPE
  5
12
100
AcDbSymbolTableRecord
100
AcDbLinetypeTableRecord
  2
ByLayer
 70
    64
  3

 72
    65
 73
     0
 40
0.0
  0
LTYPE
  5
13
100
AcDbSymbolTableRecord
100
AcDbLinetypeTableRecord
  2
Continuous
 70
    64
  3
Solid line
 72
    65
 73
     0
 40
0.0
  0
LTYPE
  5
24
100
AcDbSymbolTableRecord
100
AcDbLinetypeTableRecord
  2
DASHED
 70
    64
  3
Dashed __ __ __ __ __ __ __ __ __ __ __ __ __ _
 72
    65
 73
     2
 40
0.75
 49
0.5
 74
     0
 49
-0.25
 74
     0
  0
LTYPE
  5
25
100
AcDbSymbolTableRecord
100
AcDbLinetypeTableRecord
  2
CENTER
 70
    64
  3
Center ____ _ ____ _ ____ _ ____ _ ____ _ ____
 72
    65
 73
     4
 40
1.0
 49
0.5
 74
     0
 49
-0.25
 74
     0
 49
0.0
 74
     0
 49
-0.25
 74
     0
  0
LTYPE
  5
26
100
AcDbSymbolTableRecord
100
AcDbLinetypeTableRecord
  2
DIVIDE
 70
    64
  3
Divide ____ . . ____ . . ____ . . ____ . . ____
 72
    65
 73
     6
 40
1.25
 49
0.5
 74
     0
 49
-0.25
 74
     0
 49
0.0
 74
     0
 49
-0.25
 74
     0
 49
0.0
 74
     0
 49
-0.25
 74
     0
  0
LTYPE
  5
27
100
AcDbSymbolTableRecord
100
AcDbLinetypeTableRecord
  2
PHANTOM
 70
    64
  3
Phantom ______  __  __  ______  __  __  ______
 72
    65
 73
     6
 40
9.0
 49
4.3
 74
     0
 49
-0.7
 74
     0
 49
1.3
 74
     0
 49
-0.7
 74
     0
 49
1.3
 74
     0
 49
-0.7
 74
     0
  0
ENDTAB
  0
TABLE
  2
LAYER
  5
2
100
AcDbSymbolTable
 70
     3
  0
LAYER
  5
14
100
AcDbSymbolTableRecord
100
AcDbLayerTableRecord
  2
0
 70
    64
 62
    53
  6
Continuous
290
     1
370
    -3
390
1D
  0
LAYER
  5
28
100
AcDbSymbolTableRecord
100
AcDbLayerTableRecord
  2
3
 70
    64
 62
     4
  6
Continuous
290
     1
370
    -3
390
1D
  0
LAYER
  5
29
100
AcDbSymbolTableRecord
100
AcDbLayerTableRecord
  2
5
 70
    64
 62
   191
  6
Continuous
290
     1
370
    -3
390
1D
  0
ENDTAB
  0
TABLE
  2
STYLE
  5
3
100
AcDbSymbolTable
 70
     2
  0
STYLE
  5
17
100
AcDbSymbolTableRecord
100
AcDbTextStyleTableRecord
  2
Standard
 70
     0
 40
0.0
 41
1.0
 50
0.0
 71
     0
 42
0.0
  3
txt
  4

  0
STYLE
  5
52A
100
AcDbSymbolTableRecord
100
AcDbTextStyleTableRecord
  2
ZU_SHPTB00001
 70
     0
 40
0.0
 41
1.0
 50
0.0
 71
     0
 42
0.0
  3
monotxt
  4
bigfont
  0
ENDTAB
  0
TABLE
  2
VIEW
  5
5
100
AcDbSymbolTable
 70
     0
  0
ENDTAB
  0
TABLE
  2
UCS
  5
6
100
AcDbSymbolTable
 70
     0
  0
ENDTAB
  0
TABLE
  2
APPID
  5
8
100
AcDbSymbolTable
 70
     1
  0
APPID
  5
16
100
AcDbSymbolTableRecord
100
AcDbRegAppTableRecord
  2
ACAD
 70
     0
  0
ENDTAB
  0
TABLE
  2
DIMSTYLE
  5
9
100
AcDbSymbolTable
 70
     1
100
AcDbDimStyleTable
 71
     0
  0
DIMSTYLE
105
18
100
AcDbSymbolTableRecord
100
AcDbDimStyleTableRecord
  2
Standard
 70
     0
  3

  4

 40
1.0
 41
0.18
 42
0.0625
 43
0.38
 44
0.18
 45
0.0
 46
0.0
 47
0.0
 48
0.0
 71
     0
 72
     0
 73
     1
 74
     1
 75
     0
 76
     0
 77
     0
 78
     0
 79
     0
140
0.18
141
0.09
142
0.0
143
25.4
144
1.0
145
0.0
146
1.0
147
0.09
148
0.0
170
     0
171
     2
172
     0
173
     0
174
     0
175
     0
176
     0
177
     0
178
     0
179
     0
271
     4
272
     4
273
     2
274
     2
275
     0
276
     0
277
     2
278
    46
279
     0
280
     0
281
     0
282
     0
283
     1
284
     0
285
     0
286
     0
288
     0
340
17
341
0
342
0
343
0
344
0
371
    -2
372
    -2
  0
ENDTAB
  0
TABLE
  2
BLOCK_RECORD
  5
1
100
AcDbSymbolTable
 70
     7
  0
BLOCK_RECORD
  5
A
100
AcDbSymbolTableRecord
100
AcDbBlockTableRecord
  2
*MODEL_SPACE
340
20
  0
BLOCK_RECORD
  5
B
100
AcDbSymbolTableRecord
100
AcDbBlockTableRecord
  2
*PAPER_SPACE
340
21
  0
BLOCK_RECORD
  5
1A0
100
AcDbSymbolTableRecord
100
AcDbBlockTableRecord
  2
ZU_SYM__USERS_HOME_SYMBOL_POO_SYM_S07_-1
340
0
102
{BLKREFS
331
1AB
102
}
  0
BLOCK_RECORD
  5
1AC
100
AcDbSymbolTableRecord
100
AcDbBlockTableRecord
  2
ZU_SYM__USERS_HOME_SYMBOL_POO_SYM_S07_00001-1
340
0
102
{BLKREFS
331
1B7
102
}
  0
BLOCK_RECORD
  5
1B8
100
AcDbSymbolTableRecord
100
AcDbBlockTableRecord
  2
ZU_SYM__USERS_HOME_SYMBOL_POO_SYM_S07_00002-1
340
0
102
{BLKREFS
331
1C3
102
}
  0
BLOCK_RECORD
  5
1C4
100
AcDbSymbolTableRecord
100
AcDbBlockTableRecord
  2
ZU_SYM__USERS_HOME_SYMBOL_POO_SYM_S07_00003-1
340
0
102
{BLKREFS
331
1CF
102
}
  0
BLOCK_RECORD
  5
280
100
AcDbSymbolTableRecord
100
AcDbBlockTableRecord
  2
ZU_SYM__USERS_HOME_SYMBOL_POO_SYM_B20_-1
340
0
102
{BLKREFS
331
28B
102
}
  0
BLOCK_RECORD
  5
28C
100
AcDbSymbolTableRecord
100
AcDbBlockTableRecord
  2
ZU_SYM__USERS_HOME_SYMBOL_POO_SYM_B20_00004-1
340
0
102
{BLKREFS
331
297
102
}
  0
BLOCK_RECORD
  5
298
100
AcDbSymbolTableRecord
100
AcDbBlockTableRecord
  2
ZU_SYM__USERS_HOME_SYMBOL_POO_SYM_B20_00005-1
340
0
102
{BLKREFS
331
2A3
102
}
  0
ENDTAB
  0
ENDSEC
  0
SECTION
  2
BLOCKS
  0
BLOCK
  5
D
100
AcDbEntity
  8
0
100
AcDbBlockBegin
  2
*MODEL_SPACE
 70
     0
 10
0.0
 20
0.0
 30
0.0
  3
*MODEL_SPACE
  1

  0
ENDBLK
  5
E
100
AcDbEntity
  8
0
100
AcDbBlockEnd
  0
BLOCK
  5
F
100
AcDbEntity
 67
     1
  8
0
100
AcDbBlockBegin
  2
*PAPER_SPACE
 70
     0
 10
0.0
 20
0.0
 30
0.0
  3
*PAPER_SPACE
  1

  0
ENDBLK
  5
10
100
AcDbEntity
 67
     1
  8
0
100
AcDbBlockEnd
  0
BLOCK
  5
1A1
100
AcDbEntity
  8
0
100
AcDbBlockBegin
  2
ZU_SYM__USERS_HOME_SYMBOL_POO_SYM_S07_-1
 70
    64
 10
0.0
 20
0.0
 30
0.0
  3
ZU_SYM__USERS_HOME_SYMBOL_POO_SYM_S07_-1
  1

  0
ARC
  5
1A2
100
AcDbEntity
  8
0
370
    -3
  6
Continuous
100
AcDbCircle
 10
-0.979025
 20
-2.200001
 30
0.0
 40
1.299999
100
AcDbArc
 50
196.601531
 51
270.0
  0
ARC
  5
1A3
100
AcDbEntity
  8
0
370
    -3
  6
Continuous
100
AcDbCircle
 10
-0.979025
 20
2.200001
 30
0.0
 40
1.299999
100
AcDbArc
 50
90.0
 51
163.398452
  0
LINE
  5
1A4
100
AcDbEntity
  8
0
370
    -3
  6
Continuous
100
AcDbLine
 10
0.0
 20
-3.5
 30
0.0
 11
-0.979025
 21
-3.5
 31
0.0
  0
LINE
  5
1A5
100
AcDbEntity
  8
0
370
    -3
  6
Continuous
100
AcDbLine
 10
0.0
 20
3.5
 30
0.0
 11
-0.979025
 21
3.5
 31
0.0
  0
LINE
  5
1A6
100
AcDbEntity
  8
0
370
    -3
  6
Continuous
100
AcDbLine
 10
0.0
 20
-3.5
 30
0.0
 11
0.0
 21
3.5
 31
0.0
  0
LINE
  5
1A7
100
AcDbEntity
  8
0
370
    -3
  6
Continuous
100
AcDbLine
 10
0.0
 20
-3.5
 30
0.0
 11
0.0
 21
3.5
 31
0.0
  0
POINT
  5
1A8
100
AcDbEntity
  8
0
370
    -3
  6
Continuous
100
AcDbPoint
 10
0.0
 20
0.0
 30
0.0
  0
ARC
  5
1A9
100
AcDbEntity
  8
0
370
    -3
  6
Continuous
100
AcDbCircle
 10
6.4
 20
0.0
 30
0.0
 40
9.0
100
AcDbArc
 50
163.398452
 51
196.601531
  0
ENDBLK
  5
1AA
100
AcDbEntity
  8
0
100
AcDbBlockEnd
  0
BLOCK
  5
1AD
100
AcDbEntity
  8
0
100
AcDbBlockBegin
  2
ZU_SYM__USERS_HOME_SYMBOL_POO_SYM_S07_00001-1
 70
    64
 10
0.0
 20
0.0
 30
0.0
  3
ZU_SYM__USERS_HOME_SYMBOL_POO_SYM_S07_00001-1
  1

  0
ARC
  5
1AE
100
AcDbEntity
  8
0
370
    -3
  6
Continuous
100
AcDbCircle
 10
-0.979025
 20
-2.200001
 30
0.0
 40
1.299999
100
AcDbArc
 50
196.601531
 51
270.0
  0
ARC
  5
1AF
100
AcDbEntity
  8
0
370
    -3
  6
Continuous
100
AcDbCircle
 10
-0.979025
 20
2.200001
 30
0.0
 40
1.299999
100
AcDbArc
 50
90.0
 51
163.398452
  0
LINE
  5
1B0
100
AcDbEntity
  8
0
370
    -3
  6
Continuous
100
AcDbLine
 10
0.0
 20
-3.5
 30
0.0
 11
-0.979025
 21
-3.5
 31
0.0
  0
LINE
  5
1B1
100
AcDbEntity
  8
0
370
    -3
  6
Continuous
100
AcDbLine
 10
0.0
 20
3.5
 30
0.0
 11
-0.979025
 21
3.5
 31
0.0
  0
LINE
  5
1B2
100
AcDbEntity
  8
0
370
    -3
  6
Continuous
100
AcDbLine
 10
0.0
 20
-3.5
 30
0.0
 11
0.0
 21
3.5
 31
0.0
  0
LINE
  5
1B3
100
AcDbEntity
  8
0
370
    -3
  6
Continuous
100
AcDbLine
 10
0.0
 20
-3.5
 30
0.0
 11
0.0
 21
3.5
 31
0.0
  0
POINT
  5
1B4
100
AcDbEntity
  8
0
370
    -3
  6
Continuous
100
AcDbPoint
 10
0.0
 20
0.0
 30
0.0
  0
ARC
  5
1B5
100
AcDbEntity
  8
0
370
    -3
  6
Continuous
100
AcDbCircle
 10
6.4
 20
0.0
 30
0.0
 40
9.0
100
AcDbArc
 50
163.398452
 51
196.601531
  0
ENDBLK
  5
1B6
100
AcDbEntity
  8
0
100
AcDbBlockEnd
  0
BLOCK
  5
1B9
100
AcDbEntity
  8
0
100
AcDbBlockBegin
  2
ZU_SYM__USERS_HOME_SYMBOL_POO_SYM_S07_00002-1
 70
    64
 10
0.0
 20
0.0
 30
0.0
  3
ZU_SYM__USERS_HOME_SYMBOL_POO_SYM_S07_00002-1
  1

  0
ARC
  5
1BA
100
AcDbEntity
  8
0
370
    -3
  6
Continuous
100
AcDbCircle
 10
-0.979025
 20
-2.200001
 30
0.0
 40
1.299999
100
AcDbArc
 50
196.601531
 51
270.0
  0
ARC
  5
1BB
100
AcDbEntity
  8
0
370
    -3
  6
Continuous
100
AcDbCircle
 10
-0.979025
 20
2.200001
 30
0.0
 40
1.299999
100
AcDbArc
 50
90.0
 51
163.398452
  0
LINE
  5
1BC
100
AcDbEntity
  8
0
370
    -3
  6
Continuous
100
AcDbLine
 10
0.0
 20
-3.5
 30
0.0
 11
-0.979025
 21
-3.5
 31
0.0
  0
LINE
  5
1BD
100
AcDbEntity
  8
0
370
    -3
  6
Continuous
100
AcDbLine
 10
0.0
 20
3.5
 30
0.0
 11
-0.979025
 21
3.5
 31
0.0
  0
LINE
  5
1BE
100
AcDbEntity
  8
0
370
    -3
  6
Continuous
100
AcDbLine
 10
0.0
 20
-3.5
 30
0.0
 11
0.0
 21
3.5
 31
0.0
  0
LINE
  5
1BF
100
AcDbEntity
  8
0
370
    -3
  6
Continuous
100
AcDbLine
 10
0.0
 20
-3.5
 30
0.0
 11
0.0
 21
3.5
 31
0.0
  0
POINT
  5
1C0
100
AcDbEntity
  8
0
370
    -3
  6
Continuous
100
AcDbPoint
 10
0.0
 20
0.0
 30
0.0
  0
ARC
  5
1C1
100
AcDbEntity
  8
0
370
    -3
  6
Continuous
100
AcDbCircle
 10
6.4
 20
0.0
 30
0.0
 40
9.0
100
AcDbArc
 50
163.398452
 51
196.601531
  0
ENDBLK
  5
1C2
100
AcDbEntity
  8
0
100
AcDbBlockEnd
  0
BLOCK
  5
1C5
100
AcDbEntity
  8
0
100
AcDbBlockBegin
  2
ZU_SYM__USERS_HOME_SYMBOL_POO_SYM_S07_00003-1
 70
    64
 10
0.0
 20
0.0
 30
0.0
  3
ZU_SYM__USERS_HOME_SYMBOL_POO_SYM_S07_00003-1
  1

  0
ARC
  5
1C6
100
AcDbEntity
  8
0
370
    -3
  6
Continuous
100
AcDbCircle
 10
-0.979025
 20
-2.200001
 30
0.0
 40
1.299999
100
AcDbArc
 50
196.601531
 51
270.0
  0
ARC
  5
1C7
100
AcDbEntity
  8
0
370
    -3
  6
Continuous
100
AcDbCircle
 10
-0.979025
 20
2.200001
 30
0.0
 40
1.299999
100
AcDbArc
 50
90.0
 51
163.398452
  0
LINE
  5
1C8
100
AcDbEntity
  8
0
370
    -3
  6
Continuous
100
AcDbLine
 10
0.0
 20
-3.5
 30
0.0
 11
-0.979025
 21
-3.5
 31
0.0
  0
LINE
  5
1C9
100
AcDbEntity
  8
0
370
    -3
  6
Continuous
100
AcDbLine
 10
0.0
 20
3.5
 30
0.0
 11
-0.979025
 21
3.5
 31
0.0
  0
LINE
  5
1CA
100
AcDbEntity
  8
0
370
    -3
  6
Continuous
100
AcDbLine
 10
0.0
 20
-3.5
 30
0.0
 11
0.0
 21
3.5
 31
0.0
  0
LINE
  5
1CB
100
AcDbEntity
  8
0
370
    -3
  6
Continuous
100
AcDbLine
 10
0.0
 20
-3.5
 30
0.0
 11
0.0
 21
3.5
 31
0.0
  0
POINT
  5
1CC
100
AcDbEntity
  8
0
370
    -3
  6
Continuous
100
AcDbPoint
 10
0.0
 20
0.0
 30
0.0
  0
ARC
  5
1CD
100
AcDbEntity
  8
0
370
    -3
  6
Continuous
100
AcDbCircle
 10
6.4
 20
0.0
 30
0.0
 40
9.0
100
AcDbArc
 50
163.398452
 51
196.601531
  0
ENDBLK
  5
1CE
100
AcDbEntity
  8
0
100
AcDbBlockEnd
  0
BLOCK
  5
281
100
AcDbEntity
  8
0
100
AcDbBlockBegin
  2
ZU_SYM__USERS_HOME_SYMBOL_POO_SYM_B20_-1
 70
    64
 10
0.0
 20
0.0
 30
0.0
  3
ZU_SYM__USERS_HOME_SYMBOL_POO_SYM_B20_-1
  1

  0
LINE
  5
282
100
AcDbEntity
  8
0
370
    -3
  6
Continuous
100
AcDbLine
 10
-7.499999
 20
6.5
 30
0.0
 11
-7.499999
 21
-6.5
 31
0.0
  0
LINE
  5
283
100
AcDbEntity
  8
0
370
    -3
  6
Continuous
100
AcDbLine
 10
-7.499998
 20
-6.499999
 30
0.0
 11
-7.999999
 21
-5.63407
 31
0.0
  0
LINE
  5
284
100
AcDbEntity
  8
0
370
    -3
  6
Continuous
100
AcDbLine
 10
-7.499999
 20
6.5
 30
0.0
 11
-7.999999
 21
5.633876
 31
0.0
  0
LINE
  5
285
100
AcDbEntity
  8
0
370
    -3
  6
Continuous
100
AcDbLine
 10
0.0
 20
-6.5
 30
0.0
 11
-7.499998
 21
-6.5
 31
0.0
  0
LINE
  5
286
100
AcDbEntity
  8
0
370
    -3
  6
Continuous
100
AcDbLine
 10
0.0
 20
6.5
 30
0.0
 11
-7.499999
 21
6.5
 31
0.0
  0
LINE
  5
287
100
AcDbEntity
  8
0
370
    -3
  6
Continuous
100
AcDbLine
 10
-7.999999
 20
5.633876
 30
0.0
 11
-7.999999
 21
-5.63407
 31
0.0
  0
LINE
  5
288
100
AcDbEntity
  8
0
370
    -3
  6
Continuous
100
AcDbLine
 10
0.0
 20
-6.5
 30
0.0
 11
0.0
 21
6.5
 31
0.0
  0
POINT
  5
289
100
AcDbEntity
  8
0
370
    -3
  6
Continuous
100
AcDbPoint
 10
0.0
 20
0.0
 30
0.0
  0
ENDBLK
  5
28A
100
AcDbEntity
  8
0
100
AcDbBlockEnd
  0
BLOCK
  5
28D
100
AcDbEntity
  8
0
100
AcDbBlockBegin
  2
ZU_SYM__USERS_HOME_SYMBOL_POO_SYM_B20_00004-1
 70
    64
 10
0.0
 20
0.0
 30
0.0
  3
ZU_SYM__USERS_HOME_SYMBOL_POO_SYM_B20_00004-1
  1

  0
LINE
  5
28E
100
AcDbEntity
  8
0
370
    -3
  6
Continuous
100
AcDbLine
 10
-7.499999
 20
6.5
 30
0.0
 11
-7.499999
 21
-6.5
 31
0.0
  0
LINE
  5
28F
100
AcDbEntity
  8
0
370
    -3
  6
Continuous
100
AcDbLine
 10
-7.499998
 20
-6.499999
 30
0.0
 11
-7.999999
 21
-5.63407
 31
0.0
  0
LINE
  5
290
100
AcDbEntity
  8
0
370
    -3
  6
Continuous
100
AcDbLine
 10
-7.499999
 20
6.5
 30
0.0
 11
-7.999999
 21
5.633876
 31
0.0
  0
LINE
  5
291
100
AcDbEntity
  8
0
370
    -3
  6
Continuous
100
AcDbLine
 10
0.0
 20
-6.5
 30
0.0
 11
-7.499998
 21
-6.5
 31
0.0
  0
LINE
  5
292
100
AcDbEntity
  8
0
370
    -3
  6
Continuous
100
AcDbLine
 10
0.0
 20
6.5
 30
0.0
 11
-7.499999
 21
6.5
 31
0.0
  0
LINE
  5
293
100
AcDbEntity
  8
0
370
    -3
  6
Continuous
100
AcDbLine
 10
-7.999999
 20
5.633876
 30
0.0
 11
-7.999999
 21
-5.63407
 31
0.0
  0
LINE
  5
294
100
AcDbEntity
  8
0
370
    -3
  6
Continuous
100
AcDbLine
 10
0.0
 20
-6.5
 30
0.0
 11
0.0
 21
6.5
 31
0.0
  0
POINT
  5
295
100
AcDbEntity
  8
0
370
    -3
  6
Continuous
100
AcDbPoint
 10
0.0
 20
0.0
 30
0.0
  0
ENDBLK
  5
296
100
AcDbEntity
  8
0
100
AcDbBlockEnd
  0
BLOCK
  5
299
100
AcDbEntity
  8
0
100
AcDbBlockBegin
  2
ZU_SYM__USERS_HOME_SYMBOL_POO_SYM_B20_00005-1
 70
    64
 10
0.0
 20
0.0
 30
0.0
  3
ZU_SYM__USERS_HOME_SYMBOL_POO_SYM_B20_00005-1
  1

  0
LINE
  5
29A
100
AcDbEntity
  8
0
370
    -3
  6
Continuous
100
AcDbLine
 10
-7.499999
 20
6.5
 30
0.0
 11
-7.499999
 21
-6.5
 31
0.0
  0
LINE
  5
29B
100
AcDbEntity
  8
0
370
    -3
  6
Continuous
100
AcDbLine
 10
-7.499998
 20
-6.499999
 30
0.0
 11
-7.999999
 21
-5.63407
 31
0.0
  0
LINE
  5
29C
100
AcDbEntity
  8
0
370
    -3
  6
Continuous
100
AcDbLine
 10
-7.499999
 20
6.5
 30
0.0
 11
-7.999999
 21
5.633876
 31
0.0
  0
LINE
  5
29D
100
AcDbEntity
  8
0
370
    -3
  6
Continuous
100
AcDbLine
 10
0.0
 20
-6.5
 30
0.0
 11
-7.499998
 21
-6.5
 31
0.0
  0
LINE
  5
29E
100
AcDbEntity
  8
0
370
    -3
  6
Continuous
100
AcDbLine
 10
0.0
 20
6.5
 30
0.0
 11
-7.499999
 21
6.5
 31
0.0
  0
LINE
  5
29F
100
AcDbEntity
  8
0
370
    -3
  6
Continuous
100
AcDbLine
 10
-7.999999
 20
5.633876
 30
0.0
 11
-7.999999
 21
-5.63407
 31
0.0
  0
LINE
  5
2A0
100
AcDbEntity
  8
0
370
    -3
  6
Continuous
100
AcDbLine
 10
0.0
 20
-6.5
 30
0.0
 11
0.0
 21
6.5
 31
0.0
  0
POINT
  5
2A1
100
AcDbEntity
  8
0
370
    -3
  6
Continuous
100
AcDbPoint
 10
0.0
 20
0.0
 30
0.0
  0
ENDBLK
  5
2A2
100
AcDbEntity
  8
0
100
AcDbBlockEnd
  0
ENDSEC
  0
SECTION
  2
ENTITIES
  0
LINE
  5
2A
100
AcDbEntity
  8
0
370
    -3
  6
Continuous
100
AcDbLine
 10
-254.782065
 20
304.713016
 30
0.0
 11
-254.782065
 21
388.213016
 31
0.0
  0
LINE
  5
2B
100
AcDbEntity
  8
0
370
    -3
  6
Continuous
100
AcDbLine
 10
-254.782065
 20
388.213016
 30
0.0
 11
-254.782065
 21
224.713016
 31
0.0
  0
LINE
  5
2C
100
AcDbEntity
  8
0
370
    -3
  6
CENTER
100
AcDbLine
 10
-739.201451
 20
78.327032
 30
0.0
 11
-786.223965
 21
78.327032
 31
0.0
  0
ARC
  5
2D
100
AcDbEntity
  8
0
370
    -3
  6
Continuous
100
AcDbCircle
 10
-751.869364
 20
88.327032
 30
0.0
 40
10.0
100
AcDbArc
 50
0.0
 51
90.0
  0
LINE
  5
2E
100
AcDbEntity
  8
0
370
    -3
  6
Continuous
100
AcDbLine
 10
-741.869364
 20
88.327032
 30
0.0
 11
-741.869364
 21
62.829134
 31
0.0
  0
CIRCLE
  5
2F
100
AcDbEntity
  8
0
370
    -3
  6
Continuous
100
AcDbCircle
 10
-762.369364
 20
78.327032
 30
0.0
 40
10.0
  0
LINE
  5
30
100
AcDbEntity
  8
0
370
    -3
  6
Continuous
100
AcDbLine
 10
-782.869364
 20
88.327032
 30
0.0
 11
-782.869364
 21
62.829134
 31
0.0
  0
ARC
  5
31
100
AcDbEntity
  8
0
370
    -3
  6
Continuous
100
AcDbCircle
 10
-772.869364
 20
88.327032
 30
0.0
 40
10.0
100
AcDbArc
 50
90.0
 51
180.0
  0
LINE
  5
32
100
AcDbEntity
  8
0
370
    -3
  6
Continuous
100
AcDbLine
 10
-751.869364
 20
98.327032
 30
0.0
 11
-772.869364
 21
98.327032
 31
0.0
  0
LINE
  5
33
100
AcDbEntity
  8
0
370
    -3
  6
Continuous
100
AcDbLine
 10
-856.369364
 20
-16.906367
 30
0.0
 11
-856.369364
 21
-72.659077
 31
0.0
  0
LINE
  5
34
100
AcDbEntity
  8
0
370
    -3
  6
Continuous
100
AcDbLine
 10
-814.369364
 20
-129.672968
 30
0.0
 11
-762.369364
 21
-129.672968
 31
0.0
  0
LINE
  5
35
100
AcDbEntity
  8
0
370
    -3
  6
Continuous
100
AcDbLine
 10
-710.369364
 20
-129.672968
 30
0.0
 11
-762.369364
 21
-129.672968
 31
0.0
  0
LINE
  5
36
100
AcDbEntity
  8
0
370
    -3
  6
Continuous
100
AcDbLine
 10
-741.869364
 20
62.829134
 30
0.0
 11
-741.869364
 21
50.088767
 31
0.0
  0
LINE
  5
37
100
AcDbEntity
  8
0
370
    -3
  6
Continuous
100
AcDbLine
 10
-782.869364
 20
62.829134
 30
0.0
 11
-782.869364
 21
50.088767
 31
0.0
  0
LINE
  5
38
100
AcDbEntity
  8
0
370
    -3
  6
Continuous
100
AcDbLine
 10
-671.871367
 20
-3.672968
 30
0.0
 11
-677.510067
 21
-3.672968
 31
0.0
  0
LINE
  5
39
100
AcDbEntity
  8
0
370
    -3
  6
Continuous
100
AcDbLine
 10
-852.867361
 20
-3.672968
 30
0.0
 11
-847.22866
 21
-3.672968
 31
0.0
  0
ARC
  5
3A
100
AcDbEntity
  8
0
370
    -3
  6
Continuous
100
AcDbCircle
 10
-852.867361
 20
-1.672968
 30
0.0
 40
2.0
100
AcDbArc
 50
168.737752
 51
270.0
  0
ARC
  5
3B
100
AcDbEntity
  8
0
370
    -3
  6
Continuous
100
AcDbCircle
 10
-671.871367
 20
-1.672968
 30
0.0
 40
2.0
100
AcDbArc
 50
270.0
 51
11.262248
  0
ARC
  5
3C
100
AcDbEntity
  8
0
370
    -3
  6
Continuous
100
AcDbCircle
 10
-776.369364
 20
-16.906367
 30
0.0
 40
80.0
100
AcDbArc
 50
94.660419
 51
180.0
  0
ARC
  5
3D
100
AcDbEntity
  8
0
370
    -3
  6
Continuous
100
AcDbCircle
 10
-762.369364
 20
-36.672968
 30
0.0
 40
101.0
100
AcDbArc
 50
309.950234
 51
337.98463
  0
ARC
  5
3E
100
AcDbEntity
  8
0
370
    -3
  6
Continuous
100
AcDbCircle
 10
-762.369364
 20
-36.672968
 30
0.0
 40
101.0
100
AcDbArc
 50
202.01537
 51
230.049766
  0
ARC
  5
3F
100
AcDbEntity
  8
0
370
    -3
  6
Continuous
100
AcDbCircle
 10
-851.369364
 20
-72.659077
 30
0.0
 40
5.0
100
AcDbArc
 50
180.0
 51
202.01537
  0
ARC
  5
40
100
AcDbEntity
  8
0
370
    -3
  6
Continuous
100
AcDbCircle
 10
-673.369364
 20
-72.659077
 30
0.0
 40
5.0
100
AcDbArc
 50
337.98463
 51
0.0
  0
ARC
  5
41
100
AcDbEntity
  8
0
370
    -3
  6
Continuous
100
AcDbCircle
 10
-832.360661
 20
-120.232638
 30
0.0
 40
8.0
100
AcDbArc
 50
1.78177
 51
50.049766
  0
ARC
  5
42
100
AcDbEntity
  8
0
370
    -3
  6
Continuous
100
AcDbCircle
 10
-814.369364
 20
-119.672968
 30
0.0
 40
10.0
100
AcDbArc
 50
181.78177
 51
270.0
  0
ARC
  5
43
100
AcDbEntity
  8
0
370
    -3
  6
Continuous
100
AcDbCircle
 10
-710.369364
 20
-119.672968
 30
0.0
 40
10.0
100
AcDbArc
 50
270.0
 51
358.21823
  0
ARC
  5
44
100
AcDbEntity
  8
0
370
    -3
  6
Continuous
100
AcDbCircle
 10
-692.378067
 20
-120.232638
 30
0.0
 40
8.0
100
AcDbArc
 50
129.950234
 51
178.21823
  0
LINE
  5
45
100
AcDbEntity
  8
0
370
    -3
  6
Continuous
100
AcDbLine
 10
-854.369364
 20
-19.672968
 30
0.0
 11
-849.299434
 21
-19.672968
 31
0.0
  0
ARC
  5
46
100
AcDbEntity
  8
0
370
    -3
  6
Continuous
100
AcDbCircle
 10
-854.369364
 20
-21.672968
 30
0.0
 40
2.0
100
AcDbArc
 50
90.0
 51
180.0
  0
ARC
  5
47
100
AcDbEntity
  8
0
370
    -3
  6
Continuous
100
AcDbCircle
 10
-673.369364
 20
-72.659077
 30
0.0
 40
5.0
100
AcDbArc
 50
337.98463
 51
0.0
  0
ARC
  5
48
100
AcDbEntity
  8
0
370
    -3
  6
Continuous
100
AcDbCircle
 10
-851.369364
 20
-72.659077
 30
0.0
 40
5.0
100
AcDbArc
 50
180.0
 51
202.01537
  0
LINE
  5
49
100
AcDbEntity
  8
0
370
    -3
  6
Continuous
100
AcDbLine
 10
-856.369364
 20
-16.906367
 30
0.0
 11
-856.369364
 21
-72.659077
 31
0.0
  0
LINE
  5
4A
100
AcDbEntity
  8
0
370
    -3
  6
Continuous
100
AcDbLine
 10
-668.369364
 20
-62.072968
 30
0.0
 11
-668.369364
 21
-72.659077
 31
0.0
  0
LINE
  5
4B
100
AcDbEntity
  8
0
370
    -3
  6
CENTER
100
AcDbLine
 10
-762.369364
 20
105.617376
 30
0.0
 11
-762.369364
 21
-135.580508
 31
0.0
  0
ARC
  5
4C
100
AcDbEntity
  8
0
370
    -3
  6
Continuous
100
AcDbCircle
 10
-710.369364
 20
-119.672968
 30
0.0
 40
10.0
100
AcDbArc
 50
270.0
 51
358.21823
  0
ARC
  5
4D
100
AcDbEntity
  8
0
370
    -3
  6
Continuous
100
AcDbCircle
 10
-762.369364
 20
-36.672968
 30
0.0
 40
101.0
100
AcDbArc
 50
320.054317
 51
337.98463
  0
ARC
  5
4E
100
AcDbEntity
  8
0
370
    -3
  6
Continuous
100
AcDbCircle
 10
-776.369364
 20
-16.906367
 30
0.0
 40
80.0
100
AcDbArc
 50
94.660419
 51
180.0
  0
ARC
  5
4F
100
AcDbEntity
  8
0
370
    -3
  6
Continuous
100
AcDbCircle
 10
-748.369364
 20
-16.906367
 30
0.0
 40
80.0
100
AcDbArc
 50
3.885545
 51
85.339581
  0
ARC
  5
50
100
AcDbEntity
  8
0
370
    -3
  6
Continuous
100
AcDbCircle
 10
-814.369364
 20
-119.672968
 30
0.0
 40
10.0
100
AcDbArc
 50
181.78177
 51
270.0
  0
ARC
  5
51
100
AcDbEntity
  8
0
370
    -3
  6
Continuous
100
AcDbCircle
 10
-692.378067
 20
-120.232638
 30
0.0
 40
8.0
100
AcDbArc
 50
129.950234
 51
178.21823
  0
ARC
  5
52
100
AcDbEntity
  8
0
370
    -3
  6
Continuous
100
AcDbCircle
 10
-762.369364
 20
-36.672968
 30
0.0
 40
101.0
100
AcDbArc
 50
309.950234
 51
320.054317
  0
ARC
  5
53
100
AcDbEntity
  8
0
370
    -3
  6
Continuous
100
AcDbCircle
 10
-762.369364
 20
-36.672968
 30
0.0
 40
101.0
100
AcDbArc
 50
202.01537
 51
230.049766
  0
ARC
  5
54
100
AcDbEntity
  8
0
370
    -3
  6
Continuous
100
AcDbCircle
 10
-832.360661
 20
-120.232638
 30
0.0
 40
8.0
100
AcDbArc
 50
1.78177
 51
50.049766
  0
LINE
  5
55
100
AcDbEntity
  8
0
370
    -3
  6
CENTER
100
AcDbLine
 10
-860.869364
 20
-36.672968
 30
0.0
 11
-605.381927
 21
-36.672968
 31
0.0
  0
LINE
  5
56
100
AcDbEntity
  8
0
370
    -3
  6
CENTER
100
AcDbLine
 10
-789.540607
 20
-6.672968
 30
0.0
 11
-735.806702
 21
-6.672968
 31
0.0
  0
ARC
  5
57
100
AcDbEntity
  8
0
370
    -3
  6
Continuous
100
AcDbCircle
 10
-762.369364
 20
-36.672968
 30
0.0
 40
76.8
100
AcDbArc
 50
38.737581
 51
51.262419
  0
ARC
  5
58
100
AcDbEntity
  8
0
370
    -3
  6
Continuous
100
AcDbCircle
 10
-762.369364
 20
266.827032
 30
0.0
 40
374.8
100
AcDbArc
 50
270.0
 51
272.979907
  0
ARC
  5
59
100
AcDbEntity
  8
0
370
    -3
  6
Continuous
100
AcDbCircle
 10
-1065.869364
 20
-36.672968
 30
0.0
 40
374.8
100
AcDbArc
 50
360.0
 51
2.979907
  0
ARC
  5
5A
100
AcDbEntity
  8
0
370
    -3
  6
Continuous
100
AcDbCircle
 10
-1065.869364
 20
-36.672968
 30
0.0
 40
374.8
100
AcDbArc
 50
357.020093
 51
0.0
  0
ARC
  5
5B
100
AcDbEntity
  8
0
370
    -3
  6
Continuous
100
AcDbCircle
 10
-741.30882
 20
-53.568338
 30
0.0
 40
49.8
100
AcDbArc
 50
321.262419
 51
357.020093
  0
ARC
  5
5C
100
AcDbEntity
  8
0
370
    -3
  6
Continuous
100
AcDbCircle
 10
-762.369364
 20
-36.672968
 30
0.0
 40
76.8
100
AcDbArc
 50
308.737581
 51
321.262419
  0
ARC
  5
5D
100
AcDbEntity
  8
0
370
    -3
  6
Continuous
100
AcDbCircle
 10
-745.473995
 20
-57.733512
 30
0.0
 40
49.8
100
AcDbArc
 50
272.979907
 51
308.737581
  0
ARC
  5
5E
100
AcDbEntity
  8
0
370
    -3
  6
Continuous
100
AcDbCircle
 10
-762.369364
 20
266.827032
 30
0.0
 40
374.8
100
AcDbArc
 50
267.020093
 51
270.0
  0
ARC
  5
5F
100
AcDbEntity
  8
0
370
    -3
  6
Continuous
100
AcDbCircle
 10
-762.369364
 20
-36.672968
 30
0.0
 40
76.8
100
AcDbArc
 50
218.737581
 51
231.262419
  0
ARC
  5
60
100
AcDbEntity
  8
0
370
    -3
  6
Continuous
100
AcDbCircle
 10
-779.264733
 20
-57.733512
 30
0.0
 40
49.8
100
AcDbArc
 50
231.262419
 51
267.020093
  0
ARC
  5
61
100
AcDbEntity
  8
0
370
    -3
  6
Continuous
100
AcDbCircle
 10
-783.429907
 20
-53.568338
 30
0.0
 40
49.8
100
AcDbArc
 50
182.979907
 51
218.737581
  0
ARC
  5
62
100
AcDbEntity
  8
0
370
    -3
  6
Continuous
100
AcDbCircle
 10
-458.869364
 20
-36.672968
 30
0.0
 40
374.8
100
AcDbArc
 50
180.0
 51
182.979907
  0
ARC
  5
63
100
AcDbEntity
  8
0
370
    -3
  6
Continuous
100
AcDbCircle
 10
-783.429907
 20
-19.777599
 30
0.0
 40
49.8
100
AcDbArc
 50
141.262419
 51
177.020093
  0
ARC
  5
64
100
AcDbEntity
  8
0
370
    -3
  6
Continuous
100
AcDbCircle
 10
-762.369364
 20
-36.672968
 30
0.0
 40
76.8
100
AcDbArc
 50
128.737581
 51
141.262419
  0
ARC
  5
65
100
AcDbEntity
  8
0
370
    -3
  6
Continuous
100
AcDbCircle
 10
-779.264733
 20
-15.612425
 30
0.0
 40
49.8
100
AcDbArc
 50
92.979907
 51
128.737581
  0
ARC
  5
66
100
AcDbEntity
  8
0
370
    -3
  6
Continuous
100
AcDbCircle
 10
-762.369364
 20
-340.172968
 30
0.0
 40
374.8
100
AcDbArc
 50
90.0
 51
92.979907
  0
ARC
  5
67
100
AcDbEntity
  8
0
370
    -3
  6
Continuous
100
AcDbCircle
 10
-762.369364
 20
-340.172968
 30
0.0
 40
374.8
100
AcDbArc
 50
87.020093
 51
90.0
  0
ARC
  5
68
100
AcDbEntity
  8
0
370
    -3
  6
Continuous
100
AcDbCircle
 10
-745.473995
 20
-15.612425
 30
0.0
 40
49.8
100
AcDbArc
 50
51.262419
 51
87.020093
  0
ARC
  5
69
100
AcDbEntity
  8
0
370
    -3
  6
Continuous
100
AcDbCircle
 10
-741.30882
 20
-19.777599
 30
0.0
 40
49.8
100
AcDbArc
 50
2.979907
 51
38.737581
  0
ARC
  5
6A
100
AcDbEntity
  8
0
370
    -3
  6
Continuous
100
AcDbCircle
 10
-762.369364
 20
-36.672968
 30
0.0
 40
92.8
100
AcDbArc
 50
308.737581
 51
321.262419
  0
ARC
  5
6B
100
AcDbEntity
  8
0
370
    -3
  6
Continuous
100
AcDbCircle
 10
-745.473995
 20
-57.733512
 30
0.0
 40
65.8
100
AcDbArc
 50
272.979907
 51
308.737581
  0
ARC
  5
6C
100
AcDbEntity
  8
0
370
    -3
  6
Continuous
100
AcDbCircle
 10
-762.369364
 20
-36.672968
 30
0.0
 40
92.8
100
AcDbArc
 50
218.737581
 51
231.262419
  0
ARC
  5
6D
100
AcDbEntity
  8
0
370
    -3
  6
Continuous
100
AcDbCircle
 10
-779.264733
 20
-57.733512
 30
0.0
 40
65.8
100
AcDbArc
 50
231.262419
 51
267.020093
  0
ARC
  5
6E
100
AcDbEntity
  8
0
370
    -3
  6
Continuous
100
AcDbCircle
 10
-783.429907
 20
-53.568338
 30
0.0
 40
65.8
100
AcDbArc
 50
182.979907
 51
218.737581
  0
ARC
  5
6F
100
AcDbEntity
  8
0
370
    -3
  6
Continuous
100
AcDbCircle
 10
-762.369364
 20
-36.672968
 30
0.0
 40
92.8
100
AcDbArc
 50
128.737581
 51
141.262419
  0
ARC
  5
70
100
AcDbEntity
  8
0
370
    -3
  6
Continuous
100
AcDbCircle
 10
-783.429907
 20
-19.777599
 30
0.0
 40
65.8
100
AcDbArc
 50
141.262419
 51
177.020093
  0
ARC
  5
71
100
AcDbEntity
  8
0
370
    -3
  6
Continuous
100
AcDbCircle
 10
-779.264733
 20
-15.612425
 30
0.0
 40
65.8
100
AcDbArc
 50
92.979907
 51
128.737581
  0
ARC
  5
72
100
AcDbEntity
  8
0
370
    -3
  6
Continuous
100
AcDbCircle
 10
-762.369364
 20
-36.672968
 30
0.0
 40
92.8
100
AcDbArc
 50
38.737581
 51
51.262419
  0
ARC
  5
73
100
AcDbEntity
  8
0
370
    -3
  6
Continuous
100
AcDbCircle
 10
-745.473995
 20
-15.612425
 30
0.0
 40
65.8
100
AcDbArc
 50
51.262419
 51
87.020093
  0
ARC
  5
74
100
AcDbEntity
  8
0
370
    -3
  6
Continuous
100
AcDbCircle
 10
-741.30882
 20
-19.777599
 30
0.0
 40
65.8
100
AcDbArc
 50
2.979907
 51
38.737581
  0
ARC
  5
75
100
AcDbEntity
  8
0
370
    -3
  6
Continuous
100
AcDbCircle
 10
-1065.869364
 20
-36.672968
 30
0.0
 40
390.8
100
AcDbArc
 50
357.020093
 51
2.979907
  0
ARC
  5
76
100
AcDbEntity
  8
0
370
    -3
  6
Continuous
100
AcDbCircle
 10
-741.30882
 20
-53.568338
 30
0.0
 40
65.8
100
AcDbArc
 50
321.262419
 51
357.020093
  0
CIRCLE
  5
77
100
AcDbEntity
  8
0
370
    -3
  6
Continuous
100
AcDbCircle
 10
-762.369364
 20
-36.672968
 30
0.0
 40
5.0
  0
LINE
  5
78
100
AcDbEntity
  8
0
370
    -3
  6
Continuous
100
AcDbLine
 10
-754.422142
 20
-28.620536
 30
0.0
 11
-751.163558
 21
-26.739192
 31
0.0
  0
LINE
  5
79
100
AcDbEntity
  8
0
370
    -3
  6
Continuous
100
AcDbLine
 10
-758.369364
 20
-26.280664
 30
0.0
 11
-758.369364
 21
-22.381362
 31
0.0
  0
LINE
  5
7A
100
AcDbEntity
  8
0
370
    -3
  6
Continuous
100
AcDbLine
 10
-766.369364
 20
-26.280664
 30
0.0
 11
-766.369364
 21
-22.381362
 31
0.0
  0
LINE
  5
7B
100
AcDbEntity
  8
0
370
    -3
  6
Continuous
100
AcDbLine
 10
-751.422142
 20
-33.816689
 30
0.0
 11
-748.163558
 21
-31.935344
 31
0.0
  0
ARC
  5
7C
100
AcDbEntity
  8
0
370
    -3
  6
Continuous
100
AcDbCircle
 10
-762.369364
 20
-36.672968
 30
0.0
 40
65.0
100
AcDbArc
 50
335.465024
 51
25.447929
  0
ARC
  5
7D
100
AcDbEntity
  8
0
370
    -3
  6
Continuous
100
AcDbCircle
 10
-710.481865
 20
-0.942204
 30
0.0
 40
2.0
100
AcDbArc
 50
300.0
 51
34.552071
  0
ARC
  5
7E
100
AcDbEntity
  8
0
370
    -3
  6
Continuous
100
AcDbCircle
 10
-756.369364
 20
26.040666
 30
0.0
 40
2.0
100
AcDbArc
 50
84.534976
 51
180.0
  0
ARC
  5
7F
100
AcDbEntity
  8
0
370
    -3
  6
Continuous
100
AcDbCircle
 10
-768.369364
 20
26.040666
 30
0.0
 40
2.0
100
AcDbArc
 50
0.0
 51
95.465024
  0
ARC
  5
80
100
AcDbEntity
  8
0
370
    -3
  6
Continuous
100
AcDbCircle
 10
-705.481865
 20
-9.602458
 30
0.0
 40
2.0
100
AcDbArc
 50
25.447929
 51
120.0
  0
LINE
  5
81
100
AcDbEntity
  8
0
370
    -3
  6
Continuous
100
AcDbLine
 10
-770.316586
 20
-28.620536
 30
0.0
 11
-773.57517
 21
-26.739192
 31
0.0
  0
ARC
  5
82
100
AcDbEntity
  8
0
370
    -3
  6
Continuous
100
AcDbCircle
 10
-814.256862
 20
-0.942204
 30
0.0
 40
2.0
100
AcDbArc
 50
145.447929
 51
240.0
  0
ARC
  5
83
100
AcDbEntity
  8
0
370
    -3
  6
Continuous
100
AcDbCircle
 10
-762.369364
 20
-36.672968
 30
0.0
 40
65.0
100
AcDbArc
 50
95.465024
 51
145.447929
  0
LINE
  5
84
100
AcDbEntity
  8
0
370
    -3
  6
Continuous
100
AcDbLine
 10
-766.369364
 20
25.036026
 30
0.0
 11
-766.369364
 21
26.040666
 31
0.0
  0
LINE
  5
85
100
AcDbEntity
  8
0
370
    -3
  6
Continuous
100
AcDbLine
 10
-766.369364
 20
12.46205
 30
0.0
 11
-766.369364
 21
15.986314
 31
0.0
  0
LINE
  5
86
100
AcDbEntity
  8
0
370
    -3
  6
Continuous
100
AcDbLine
 10
-766.369364
 20
-0.162696
 30
0.0
 11
-766.369364
 21
3.380121
 31
0.0
  0
LINE
  5
87
100
AcDbEntity
  8
0
370
    -3
  6
Continuous
100
AcDbLine
 10
-766.369364
 20
-12.919021
 30
0.0
 11
-766.369364
 21
-9.32338
 31
0.0
  0
LINE
  5
88
100
AcDbEntity
  8
0
370
    -3
  6
Continuous
100
AcDbLine
 10
-758.369364
 20
25.036026
 30
0.0
 11
-758.369364
 21
26.040666
 31
0.0
  0
LINE
  5
89
100
AcDbEntity
  8
0
370
    -3
  6
Continuous
100
AcDbLine
 10
-758.369364
 20
12.46205
 30
0.0
 11
-758.369364
 21
15.986314
 31
0.0
  0
LINE
  5
8A
100
AcDbEntity
  8
0
370
    -3
  6
Continuous
100
AcDbLine
 10
-758.369364
 20
-0.162696
 30
0.0
 11
-758.369364
 21
3.380121
 31
0.0
  0
LINE
  5
8B
100
AcDbEntity
  8
0
370
    -3
  6
Continuous
100
AcDbLine
 10
-758.369364
 20
-12.919021
 30
0.0
 11
-758.369364
 21
-9.32338
 31
0.0
  0
LINE
  5
8C
100
AcDbEntity
  8
0
370
    -3
  6
Continuous
100
AcDbLine
 10
-814.388052
 20
-3.175863
 30
0.0
 11
-815.256862
 21
-2.674255
 31
0.0
  0
LINE
  5
8D
100
AcDbEntity
  8
0
370
    -3
  6
Continuous
100
AcDbLine
 10
-803.518367
 20
-9.451479
 30
0.0
 11
-806.564002
 21
-7.69308
 31
0.0
  0
LINE
  5
8E
100
AcDbEntity
  8
0
370
    -3
  6
Continuous
100
AcDbLine
 10
-792.61838
 20
-15.744589
 30
0.0
 11
-795.675075
 21
-13.979806
 31
0.0
  0
LINE
  5
8F
100
AcDbEntity
  8
0
370
    -3
  6
Continuous
100
AcDbLine
 10
-781.640437
 20
-22.082707
 30
0.0
 11
-784.728324
 21
-20.299915
 31
0.0
  0
LINE
  5
90
100
AcDbEntity
  8
0
370
    -3
  6
Continuous
100
AcDbLine
 10
-710.350675
 20
-3.175863
 30
0.0
 11
-709.481865
 21
-2.674255
 31
0.0
  0
LINE
  5
91
100
AcDbEntity
  8
0
370
    -3
  6
Continuous
100
AcDbLine
 10
-721.22036
 20
-9.451479
 30
0.0
 11
-718.174725
 21
-7.69308
 31
0.0
  0
LINE
  5
92
100
AcDbEntity
  8
0
370
    -3
  6
Continuous
100
AcDbLine
 10
-732.120348
 20
-15.744589
 30
0.0
 11
-729.063653
 21
-13.979806
 31
0.0
  0
LINE
  5
93
100
AcDbEntity
  8
0
370
    -3
  6
Continuous
100
AcDbLine
 10
-743.09829
 20
-22.082707
 30
0.0
 11
-740.010403
 21
-20.299915
 31
0.0
  0
LINE
  5
94
100
AcDbEntity
  8
0
370
    -3
  6
Continuous
100
AcDbLine
 10
-707.350675
 20
-8.372015
 30
0.0
 11
-706.481865
 21
-7.870408
 31
0.0
  0
LINE
  5
95
100
AcDbEntity
  8
0
370
    -3
  6
Continuous
100
AcDbLine
 10
-718.22036
 20
-14.647631
 30
0.0
 11
-715.174725
 21
-12.889233
 31
0.0
  0
LINE
  5
96
100
AcDbEntity
  8
0
370
    -3
  6
Continuous
100
AcDbLine
 10
-729.120348
 20
-20.940742
 30
0.0
 11
-726.063653
 21
-19.175958
 31
0.0
  0
LINE
  5
97
100
AcDbEntity
  8
0
370
    -3
  6
Continuous
100
AcDbLine
 10
-740.09829
 20
-27.27886
 30
0.0
 11
-737.010403
 21
-25.496067
 31
0.0
  0
ARC
  5
98
100
AcDbEntity
  8
0
370
    -3
  6
Continuous
100
AcDbCircle
 10
-762.369364
 20
-36.672968
 30
0.0
 40
65.0
100
AcDbArc
 50
34.552071
 51
84.534976
  0
ARC
  5
99
100
AcDbEntity
  8
0
370
    -3
  6
Continuous
100
AcDbCircle
 10
-762.369364
 20
-36.672968
 30
0.0
 40
65.0
100
AcDbArc
 50
154.552071
 51
204.534976
  0
LINE
  5
9A
100
AcDbEntity
  8
0
370
    -3
  6
Continuous
100
AcDbLine
 10
-817.388052
 20
-8.372015
 30
0.0
 11
-818.256862
 21
-7.870408
 31
0.0
  0
ARC
  5
9B
100
AcDbEntity
  8
0
370
    -3
  6
Continuous
100
AcDbCircle
 10
-819.256862
 20
-9.602458
 30
0.0
 40
2.0
100
AcDbArc
 50
60.0
 51
154.552071
  0
LINE
  5
9C
100
AcDbEntity
  8
0
370
    -3
  6
Continuous
100
AcDbLine
 10
-817.810921
 20
-64.063364
 30
0.0
 11
-818.680965
 21
-64.565684
 31
0.0
  0
ARC
  5
9D
100
AcDbEntity
  8
0
370
    -3
  6
Continuous
100
AcDbCircle
 10
-819.680965
 20
-62.833633
 30
0.0
 40
2.0
100
AcDbArc
 50
204.534976
 51
300.0
  0
LINE
  5
9E
100
AcDbEntity
  8
0
370
    -3
  6
Continuous
100
AcDbLine
 10
-806.921538
 20
-57.776376
 30
0.0
 11
-809.97364
 21
-59.538508
 31
0.0
  0
LINE
  5
9F
100
AcDbEntity
  8
0
370
    -3
  6
Continuous
100
AcDbLine
 10
-806.518367
 20
-14.647631
 30
0.0
 11
-809.564002
 21
-12.889233
 31
0.0
  0
LINE
  5
A0
100
AcDbEntity
  8
0
370
    -3
  6
Continuous
100
AcDbLine
 10
-795.61838
 20
-20.940742
 30
0.0
 11
-798.675075
 21
-19.175958
 31
0.0
  0
LINE
  5
A1
100
AcDbEntity
  8
0
370
    -3
  6
Continuous
100
AcDbLine
 10
-773.316586
 20
-33.816689
 30
0.0
 11
-776.57517
 21
-31.935344
 31
0.0
  0
LINE
  5
A2
100
AcDbEntity
  8
0
370
    -3
  6
Continuous
100
AcDbLine
 10
-773.369364
 20
-38.405019
 30
0.0
 11
-776.746258
 21
-40.35467
 31
0.0
  0
LINE
  5
A3
100
AcDbEntity
  8
0
370
    -3
  6
Continuous
100
AcDbLine
 10
-784.940885
 20
-45.08584
 30
0.0
 11
-788.054802
 21
-46.883661
 31
0.0
  0
LINE
  5
A4
100
AcDbEntity
  8
0
370
    -3
  6
Continuous
100
AcDbLine
 10
-795.988187
 20
-51.464003
 30
0.0
 11
-799.056357
 21
-53.235412
 31
0.0
  0
LINE
  5
A5
100
AcDbEntity
  8
0
370
    -3
  6
Continuous
100
AcDbLine
 10
-784.640437
 20
-27.27886
 30
0.0
 11
-787.728324
 21
-25.496067
 31
0.0
  0
ARC
  5
A6
100
AcDbEntity
  8
0
370
    -3
  6
Continuous
100
AcDbCircle
 10
-762.369364
 20
-36.672968
 30
0.0
 40
65.0
100
AcDbArc
 50
215.465024
 51
265.447929
  0
LINE
  5
A7
100
AcDbEntity
  8
0
370
    -3
  6
Continuous
100
AcDbLine
 10
-765.369364
 20
-47.581681
 30
0.0
 11
-765.369364
 21
-51.344369
 31
0.0
  0
LINE
  5
A8
100
AcDbEntity
  8
0
370
    -3
  6
Continuous
100
AcDbLine
 10
-769.369364
 20
-45.333222
 30
0.0
 11
-772.746258
 21
-47.282873
 31
0.0
  0
LINE
  5
A9
100
AcDbEntity
  8
0
370
    -3
  6
Continuous
100
AcDbLine
 10
-791.988187
 20
-58.392206
 30
0.0
 11
-795.056357
 21
-60.163615
 31
0.0
  0
LINE
  5
AA
100
AcDbEntity
  8
0
370
    -3
  6
Continuous
100
AcDbLine
 10
-802.921538
 20
-64.704579
 30
0.0
 11
-805.97364
 21
-66.466711
 31
0.0
  0
LINE
  5
AB
100
AcDbEntity
  8
0
370
    -3
  6
Continuous
100
AcDbLine
 10
-813.810921
 20
-70.991567
 30
0.0
 11
-814.680965
 21
-71.493887
 31
0.0
  0
LINE
  5
AC
100
AcDbEntity
  8
0
370
    -3
  6
Continuous
100
AcDbLine
 10
-765.369364
 20
-98.471027
 30
0.0
 11
-765.369364
 21
-99.474242
 31
0.0
  0
ARC
  5
AD
100
AcDbEntity
  8
0
370
    -3
  6
Continuous
100
AcDbCircle
 10
-767.369364
 20
-99.474242
 30
0.0
 40
2.0
100
AcDbArc
 50
265.447929
 51
0.0
  0
LINE
  5
AE
100
AcDbEntity
  8
0
370
    -3
  6
Continuous
100
AcDbLine
 10
-765.369364
 20
-85.919796
 30
0.0
 11
-765.369364
 21
-89.436592
 31
0.0
  0
LINE
  5
AF
100
AcDbEntity
  8
0
370
    -3
  6
Continuous
100
AcDbLine
 10
-765.369364
 20
-73.333574
 30
0.0
 11
-765.369364
 21
-76.863141
 31
0.0
  0
LINE
  5
B0
100
AcDbEntity
  8
0
370
    -3
  6
Continuous
100
AcDbLine
 10
-765.369364
 20
-60.657338
 30
0.0
 11
-765.369364
 21
-64.222923
 31
0.0
  0
ARC
  5
B1
100
AcDbEntity
  8
0
370
    -3
  6
Continuous
100
AcDbCircle
 10
-762.369364
 20
-36.672968
 30
0.0
 40
65.0
100
AcDbArc
 50
274.552071
 51
324.534976
  0
LINE
  5
B2
100
AcDbEntity
  8
0
370
    -3
  6
Continuous
100
AcDbLine
 10
-759.369364
 20
-98.471027
 30
0.0
 11
-759.369364
 21
-99.474242
 31
0.0
  0
ARC
  5
B3
100
AcDbEntity
  8
0
370
    -3
  6
Continuous
100
AcDbCircle
 10
-757.369364
 20
-99.474242
 30
0.0
 40
2.0
100
AcDbArc
 50
180.0
 51
274.552071
  0
LINE
  5
B4
100
AcDbEntity
  8
0
370
    -3
  6
Continuous
100
AcDbLine
 10
-759.369364
 20
-85.919796
 30
0.0
 11
-759.369364
 21
-89.436592
 31
0.0
  0
LINE
  5
B5
100
AcDbEntity
  8
0
370
    -3
  6
Continuous
100
AcDbLine
 10
-759.369364
 20
-73.333574
 30
0.0
 11
-759.369364
 21
-76.863141
 31
0.0
  0
LINE
  5
B6
100
AcDbEntity
  8
0
370
    -3
  6
Continuous
100
AcDbLine
 10
-759.369364
 20
-60.657338
 30
0.0
 11
-759.369364
 21
-64.222923
 31
0.0
  0
LINE
  5
B7
100
AcDbEntity
  8
0
370
    -3
  6
Continuous
100
AcDbLine
 10
-759.369364
 20
-47.581681
 30
0.0
 11
-759.369364
 21
-51.344369
 31
0.0
  0
ARC
  5
B8
100
AcDbEntity
  8
0
370
    -3
  6
Continuous
100
AcDbCircle
 10
-458.869364
 20
-36.672968
 30
0.0
 40
374.8
100
AcDbArc
 50
177.020093
 51
180.0
  0
ARC
  5
B9
100
AcDbEntity
  8
0
370
    -3
  6
Continuous
100
AcDbCircle
 10
-762.369364
 20
-340.172968
 30
0.0
 40
390.8
100
AcDbArc
 50
87.020093
 51
92.979907
  0
ARC
  5
BA
100
AcDbEntity
  8
0
370
    -3
  6
Continuous
100
AcDbCircle
 10
-458.869364
 20
-36.672968
 30
0.0
 40
390.8
100
AcDbArc
 50
177.020093
 51
182.979907
  0
ARC
  5
BB
100
AcDbEntity
  8
0
370
    -3
  6
Continuous
100
AcDbCircle
 10
-762.369364
 20
266.827032
 30
0.0
 40
390.8
100
AcDbArc
 50
267.020093
 51
272.979907
  0
ARC
  5
BC
100
AcDbEntity
  8
0
370
    -3
  6
Continuous
100
AcDbCircle
 10
-762.369364
 20
-36.672968
 30
0.0
 40
60.0
100
AcDbArc
 50
95.553444
 51
145.374349
  0
ARC
  5
BD
100
AcDbEntity
  8
0
370
    -3
  6
Continuous
100
AcDbCircle
 10
-762.369364
 20
-36.672968
 30
0.0
 40
60.0
100
AcDbArc
 50
154.625651
 51
204.446556
  0
ARC
  5
BE
100
AcDbEntity
  8
0
370
    -3
  6
Continuous
100
AcDbCircle
 10
-762.369364
 20
-36.672968
 30
0.0
 40
60.0
100
AcDbArc
 50
215.553444
 51
265.374349
  0
ARC
  5
BF
100
AcDbEntity
  8
0
370
    -3
  6
Continuous
100
AcDbCircle
 10
-762.369364
 20
-36.672968
 30
0.0
 40
60.0
100
AcDbArc
 50
274.625651
 51
324.446556
  0
ARC
  5
C0
100
AcDbEntity
  8
0
370
    -3
  6
Continuous
100
AcDbCircle
 10
-762.369364
 20
-36.672968
 30
0.0
 40
60.0
100
AcDbArc
 50
335.553444
 51
25.374349
  0
ARC
  5
C1
100
AcDbEntity
  8
0
370
    -3
  6
Continuous
100
AcDbCircle
 10
-762.369364
 20
-36.672968
 30
0.0
 40
60.0
100
AcDbArc
 50
34.625651
 51
84.446556
  0
ARC
  5
C2
100
AcDbEntity
  8
0
370
    -3
  6
Continuous
100
AcDbCircle
 10
-756.369364
 20
25.036026
 30
0.0
 40
2.0
100
AcDbArc
 50
180.0
 51
264.446556
  0
ARC
  5
C3
100
AcDbEntity
  8
0
370
    -3
  6
Continuous
100
AcDbCircle
 10
-711.350675
 20
-1.443812
 30
0.0
 40
2.0
100
AcDbArc
 50
214.625651
 51
300.0
  0
ARC
  5
C4
100
AcDbEntity
  8
0
370
    -3
  6
Continuous
100
AcDbCircle
 10
-706.350675
 20
-10.104066
 30
0.0
 40
2.0
100
AcDbArc
 50
120.0
 51
205.374349
  0
ARC
  5
C5
100
AcDbEntity
  8
0
370
    -3
  6
Continuous
100
AcDbCircle
 10
-757.369364
 20
-98.471027
 30
0.0
 40
2.0
100
AcDbArc
 50
94.625651
 51
180.0
  0
ARC
  5
C6
100
AcDbEntity
  8
0
370
    -3
  6
Continuous
100
AcDbCircle
 10
-767.369364
 20
-98.471027
 30
0.0
 40
2.0
100
AcDbArc
 50
0.0
 51
85.374349
  0
ARC
  5
C7
100
AcDbEntity
  8
0
370
    -3
  6
Continuous
100
AcDbCircle
 10
-812.810921
 20
-72.723618
 30
0.0
 40
2.0
100
AcDbArc
 50
35.553444
 51
120.0
  0
ARC
  5
C8
100
AcDbEntity
  8
0
370
    -3
  6
Continuous
100
AcDbCircle
 10
-818.810921
 20
-62.331313
 30
0.0
 40
2.0
100
AcDbArc
 50
300.0
 51
24.446556
  0
ARC
  5
C9
100
AcDbEntity
  8
0
370
    -3
  6
Continuous
100
AcDbCircle
 10
-818.388052
 20
-10.104066
 30
0.0
 40
2.0
100
AcDbArc
 50
334.625651
 51
60.0
  0
ARC
  5
CA
100
AcDbEntity
  8
0
370
    -3
  6
Continuous
100
AcDbCircle
 10
-813.388052
 20
-1.443812
 30
0.0
 40
2.0
100
AcDbArc
 50
240.0
 51
325.374349
  0
ARC
  5
CB
100
AcDbEntity
  8
0
370
    -3
  6
Continuous
100
AcDbCircle
 10
-768.369364
 20
25.036026
 30
0.0
 40
2.0
100
AcDbArc
 50
275.553444
 51
0.0
  0
ARC
  5
CC
100
AcDbEntity
  8
0
370
    -3
  6
Continuous
100
AcDbCircle
 10
-762.369364
 20
-36.672968
 30
0.0
 40
55.0
100
AcDbArc
 50
96.50025
 51
144.586688
  0
ARC
  5
CD
100
AcDbEntity
  8
0
370
    -3
  6
Continuous
100
AcDbCircle
 10
-762.369364
 20
-36.672968
 30
0.0
 40
47.5
100
AcDbArc
 50
96.962063
 51
144.20266
  0
ARC
  5
CE
100
AcDbEntity
  8
0
370
    -3
  6
Continuous
100
AcDbCircle
 10
-762.369364
 20
-36.672968
 30
0.0
 40
42.5
100
AcDbArc
 50
98.519624
 51
142.908354
  0
ARC
  5
CF
100
AcDbEntity
  8
0
370
    -3
  6
Continuous
100
AcDbCircle
 10
-762.369364
 20
-36.672968
 30
0.0
 40
35.0
100
AcDbArc
 50
99.332418
 51
142.233566
  0
ARC
  5
D0
100
AcDbEntity
  8
0
370
    -3
  6
Continuous
100
AcDbCircle
 10
-762.369364
 20
-36.672968
 30
0.0
 40
30.0
100
AcDbArc
 50
102.373625
 51
139.713439
  0
ARC
  5
D1
100
AcDbEntity
  8
0
370
    -3
  6
Continuous
100
AcDbCircle
 10
-762.369364
 20
-36.672968
 30
0.0
 40
22.5
100
AcDbArc
 50
104.175804
 51
138.224256
  0
ARC
  5
D2
100
AcDbEntity
  8
0
370
    -3
  6
Continuous
100
AcDbCircle
 10
-762.369364
 20
-36.672968
 30
0.0
 40
17.5
100
AcDbArc
 50
112.773972
 51
131.180937
  0
ARC
  5
D3
100
AcDbEntity
  8
0
370
    -3
  6
Continuous
100
AcDbCircle
 10
-762.369364
 20
-36.672968
 30
0.0
 40
10.0
100
AcDbArc
 50
120.0
 51
125.375682
  0
ARC
  5
D4
100
AcDbEntity
  8
0
370
    -3
  6
Continuous
100
AcDbCircle
 10
-762.369364
 20
-36.672968
 30
0.0
 40
55.0
100
AcDbArc
 50
35.413312
 51
83.49975
  0
ARC
  5
D5
100
AcDbEntity
  8
0
370
    -3
  6
Continuous
100
AcDbCircle
 10
-762.369364
 20
-36.672968
 30
0.0
 40
47.5
100
AcDbArc
 50
35.79734
 51
83.037937
  0
ARC
  5
D6
100
AcDbEntity
  8
0
370
    -3
  6
Continuous
100
AcDbCircle
 10
-762.369364
 20
-36.672968
 30
0.0
 40
42.5
100
AcDbArc
 50
37.091646
 51
81.480376
  0
ARC
  5
D7
100
AcDbEntity
  8
0
370
    -3
  6
Continuous
100
AcDbCircle
 10
-762.369364
 20
-36.672968
 30
0.0
 40
35.0
100
AcDbArc
 50
37.766434
 51
80.667582
  0
ARC
  5
D8
100
AcDbEntity
  8
0
370
    -3
  6
Continuous
100
AcDbCircle
 10
-762.369364
 20
-36.672968
 30
0.0
 40
30.0
100
AcDbArc
 50
40.286561
 51
77.626375
  0
ARC
  5
D9
100
AcDbEntity
  8
0
370
    -3
  6
Continuous
100
AcDbCircle
 10
-762.369364
 20
-36.672968
 30
0.0
 40
22.5
100
AcDbArc
 50
41.775744
 51
75.824196
  0
ARC
  5
DA
100
AcDbEntity
  8
0
370
    -3
  6
Continuous
100
AcDbCircle
 10
-762.369364
 20
-36.672968
 30
0.0
 40
17.5
100
AcDbArc
 50
48.819063
 51
67.226028
  0
ARC
  5
DB
100
AcDbEntity
  8
0
370
    -3
  6
Continuous
100
AcDbCircle
 10
-756.369364
 20
15.986314
 30
0.0
 40
2.0
100
AcDbArc
 50
83.49975
 51
180.0
  0
ARC
  5
DC
100
AcDbEntity
  8
0
370
    -3
  6
Continuous
100
AcDbCircle
 10
-756.369364
 20
12.46205
 30
0.0
 40
2.0
100
AcDbArc
 50
180.0
 51
263.037937
  0
ARC
  5
DD
100
AcDbEntity
  8
0
370
    -3
  6
Continuous
100
AcDbCircle
 10
-719.174725
 20
-5.961029
 30
0.0
 40
2.0
100
AcDbArc
 50
300.0
 51
35.413312
  0
ARC
  5
DE
100
AcDbEntity
  8
0
370
    -3
  6
Continuous
100
AcDbCircle
 10
-722.22036
 20
-7.719428
 30
0.0
 40
2.0
100
AcDbArc
 50
215.79734
 51
300.0
  0
ARC
  5
DF
100
AcDbEntity
  8
0
370
    -3
  6
Continuous
100
AcDbCircle
 10
-730.063653
 20
-12.247755
 30
0.0
 40
2.0
100
AcDbArc
 50
300.0
 51
37.091646
  0
ARC
  5
E0
100
AcDbEntity
  8
0
370
    -3
  6
Continuous
100
AcDbCircle
 10
-756.369364
 20
3.380121
 30
0.0
 40
2.0
100
AcDbArc
 50
81.480376
 51
180.0
  0
ARC
  5
E1
100
AcDbEntity
  8
0
370
    -3
  6
Continuous
100
AcDbCircle
 10
-756.369364
 20
-0.162696
 30
0.0
 40
2.0
100
AcDbArc
 50
180.0
 51
260.667582
  0
ARC
  5
E2
100
AcDbEntity
  8
0
370
    -3
  6
Continuous
100
AcDbCircle
 10
-733.120348
 20
-14.012539
 30
0.0
 40
2.0
100
AcDbArc
 50
217.766434
 51
300.0
  0
ARC
  5
E3
100
AcDbEntity
  8
0
370
    -3
  6
Continuous
100
AcDbCircle
 10
-741.010403
 20
-18.567864
 30
0.0
 40
2.0
100
AcDbArc
 50
300.0
 51
40.286561
  0
ARC
  5
E4
100
AcDbEntity
  8
0
370
    -3
  6
Continuous
100
AcDbCircle
 10
-756.369364
 20
-9.32338
 30
0.0
 40
2.0
100
AcDbArc
 50
77.626375
 51
180.0
  0
ARC
  5
E5
100
AcDbEntity
  8
0
370
    -3
  6
Continuous
100
AcDbCircle
 10
-756.369364
 20
-12.919021
 30
0.0
 40
2.0
100
AcDbArc
 50
180.0
 51
255.824196
  0
ARC
  5
E6
100
AcDbEntity
  8
0
370
    -3
  6
Continuous
100
AcDbCircle
 10
-744.09829
 20
-20.350656
 30
0.0
 40
2.0
100
AcDbArc
 50
221.775744
 51
300.0
  0
ARC
  5
E7
100
AcDbEntity
  8
0
370
    -3
  6
Continuous
100
AcDbCircle
 10
-752.163558
 20
-25.007141
 30
0.0
 40
2.0
100
AcDbArc
 50
300.0
 51
48.819063
  0
ARC
  5
E8
100
AcDbEntity
  8
0
370
    -3
  6
Continuous
100
AcDbCircle
 10
-756.369364
 20
-22.381362
 30
0.0
 40
2.0
100
AcDbArc
 50
67.226028
 51
180.0
  0
ARC
  5
E9
100
AcDbEntity
  8
0
370
    -3
  6
Continuous
100
AcDbCircle
 10
-762.369364
 20
-36.672968
 30
0.0
 40
10.0
100
AcDbArc
 50
294.624318
 51
300.0
  0
ARC
  5
EA
100
AcDbEntity
  8
0
370
    -3
  6
Continuous
100
AcDbCircle
 10
-762.369364
 20
-36.672968
 30
0.0
 40
10.0
100
AcDbArc
 50
54.624318
 51
60.0
  0
ARC
  5
EB
100
AcDbEntity
  8
0
370
    -3
  6
Continuous
100
AcDbCircle
 10
-756.369364
 20
-26.280664
 30
0.0
 40
2.0
100
AcDbArc
 50
180.0
 51
240.0
  0
ARC
  5
EC
100
AcDbEntity
  8
0
370
    -3
  6
Continuous
100
AcDbCircle
 10
-755.422142
 20
-26.888485
 30
0.0
 40
2.0
100
AcDbArc
 50
234.624318
 51
300.0
  0
ARC
  5
ED
100
AcDbEntity
  8
0
370
    -3
  6
Continuous
100
AcDbCircle
 10
-762.369364
 20
-36.672968
 30
0.0
 40
55.0
100
AcDbArc
 50
336.50025
 51
24.586688
  0
ARC
  5
EE
100
AcDbEntity
  8
0
370
    -3
  6
Continuous
100
AcDbCircle
 10
-762.369364
 20
-36.672968
 30
0.0
 40
47.5
100
AcDbArc
 50
336.962063
 51
24.20266
  0
ARC
  5
EF
100
AcDbEntity
  8
0
370
    -3
  6
Continuous
100
AcDbCircle
 10
-762.369364
 20
-36.672968
 30
0.0
 40
42.5
100
AcDbArc
 50
338.519624
 51
22.908354
  0
ARC
  5
F0
100
AcDbEntity
  8
0
370
    -3
  6
Continuous
100
AcDbCircle
 10
-762.369364
 20
-36.672968
 30
0.0
 40
35.0
100
AcDbArc
 50
339.332418
 51
22.233566
  0
ARC
  5
F1
100
AcDbEntity
  8
0
370
    -3
  6
Continuous
100
AcDbCircle
 10
-762.369364
 20
-36.672968
 30
0.0
 40
30.0
100
AcDbArc
 50
342.373625
 51
19.713439
  0
ARC
  5
F2
100
AcDbEntity
  8
0
370
    -3
  6
Continuous
100
AcDbCircle
 10
-762.369364
 20
-36.672968
 30
0.0
 40
22.5
100
AcDbArc
 50
344.175804
 51
18.224256
  0
ARC
  5
F3
100
AcDbEntity
  8
0
370
    -3
  6
Continuous
100
AcDbCircle
 10
-762.369364
 20
-36.672968
 30
0.0
 40
17.5
100
AcDbArc
 50
352.773972
 51
11.180937
  0
ARC
  5
F4
100
AcDbEntity
  8
0
370
    -3
  6
Continuous
100
AcDbCircle
 10
-762.369364
 20
-36.672968
 30
0.0
 40
10.0
100
AcDbArc
 50
0.0
 51
5.375682
  0
ARC
  5
F5
100
AcDbEntity
  8
0
370
    -3
  6
Continuous
100
AcDbCircle
 10
-762.369364
 20
-36.672968
 30
0.0
 40
17.5
100
AcDbArc
 50
288.819063
 51
307.226028
  0
ARC
  5
F6
100
AcDbEntity
  8
0
370
    -3
  6
Continuous
100
AcDbCircle
 10
-762.369364
 20
-36.672968
 30
0.0
 40
22.5
100
AcDbArc
 50
281.775744
 51
315.824196
  0
ARC
  5
F7
100
AcDbEntity
  8
0
370
    -3
  6
Continuous
100
AcDbCircle
 10
-762.369364
 20
-36.672968
 30
0.0
 40
30.0
100
AcDbArc
 50
280.286561
 51
317.626375
  0
ARC
  5
F8
100
AcDbEntity
  8
0
370
    -3
  6
Continuous
100
AcDbCircle
 10
-762.369364
 20
-36.672968
 30
0.0
 40
35.0
100
AcDbArc
 50
277.766434
 51
320.667582
  0
ARC
  5
F9
100
AcDbEntity
  8
0
370
    -3
  6
Continuous
100
AcDbCircle
 10
-762.369364
 20
-36.672968
 30
0.0
 40
42.5
100
AcDbArc
 50
277.091646
 51
321.480376
  0
ARC
  5
FA
100
AcDbEntity
  8
0
370
    -3
  6
Continuous
100
AcDbCircle
 10
-762.369364
 20
-36.672968
 30
0.0
 40
47.5
100
AcDbArc
 50
275.79734
 51
323.037937
  0
ARC
  5
FB
100
AcDbEntity
  8
0
370
    -3
  6
Continuous
100
AcDbCircle
 10
-762.369364
 20
-36.672968
 30
0.0
 40
55.0
100
AcDbArc
 50
275.413312
 51
323.49975
  0
ARC
  5
FC
100
AcDbEntity
  8
0
370
    -3
  6
Continuous
100
AcDbCircle
 10
-762.369364
 20
-36.672968
 30
0.0
 40
55.0
100
AcDbArc
 50
216.50025
 51
264.586688
  0
ARC
  5
FD
100
AcDbEntity
  8
0
370
    -3
  6
Continuous
100
AcDbCircle
 10
-762.369364
 20
-36.672968
 30
0.0
 40
47.5
100
AcDbArc
 50
216.962063
 51
264.20266
  0
ARC
  5
FE
100
AcDbEntity
  8
0
370
    -3
  6
Continuous
100
AcDbCircle
 10
-762.369364
 20
-36.672968
 30
0.0
 40
42.5
100
AcDbArc
 50
218.519624
 51
262.908354
  0
ARC
  5
FF
100
AcDbEntity
  8
0
370
    -3
  6
Continuous
100
AcDbCircle
 10
-762.369364
 20
-36.672968
 30
0.0
 40
35.0
100
AcDbArc
 50
219.332418
 51
262.233566
  0
ARC
  5
100
100
AcDbEntity
  8
0
370
    -3
  6
Continuous
100
AcDbCircle
 10
-762.369364
 20
-36.672968
 30
0.0
 40
30.0
100
AcDbArc
 50
222.373625
 51
259.713439
  0
ARC
  5
101
100
AcDbEntity
  8
0
370
    -3
  6
Continuous
100
AcDbCircle
 10
-762.369364
 20
-36.672968
 30
0.0
 40
22.5
100
AcDbArc
 50
224.175804
 51
258.224256
  0
ARC
  5
102
100
AcDbEntity
  8
0
370
    -3
  6
Continuous
100
AcDbCircle
 10
-762.369364
 20
-36.672968
 30
0.0
 40
17.5
100
AcDbArc
 50
232.773972
 51
251.180937
  0
ARC
  5
103
100
AcDbEntity
  8
0
370
    -3
  6
Continuous
100
AcDbCircle
 10
-762.369364
 20
-36.672968
 30
0.0
 40
10.0
100
AcDbArc
 50
240.0
 51
245.375682
  0
ARC
  5
104
100
AcDbEntity
  8
0
370
    -3
  6
Continuous
100
AcDbCircle
 10
-762.369364
 20
-36.672968
 30
0.0
 40
55.0
100
AcDbArc
 50
155.413312
 51
203.49975
  0
ARC
  5
105
100
AcDbEntity
  8
0
370
    -3
  6
Continuous
100
AcDbCircle
 10
-762.369364
 20
-36.672968
 30
0.0
 40
47.5
100
AcDbArc
 50
155.79734
 51
203.037937
  0
ARC
  5
106
100
AcDbEntity
  8
0
370
    -3
  6
Continuous
100
AcDbCircle
 10
-762.369364
 20
-36.672968
 30
0.0
 40
42.5
100
AcDbArc
 50
157.091646
 51
201.480376
  0
ARC
  5
107
100
AcDbEntity
  8
0
370
    -3
  6
Continuous
100
AcDbCircle
 10
-762.369364
 20
-36.672968
 30
0.0
 40
35.0
100
AcDbArc
 50
157.766434
 51
200.667582
  0
ARC
  5
108
100
AcDbEntity
  8
0
370
    -3
  6
Continuous
100
AcDbCircle
 10
-762.369364
 20
-36.672968
 30
0.0
 40
30.0
100
AcDbArc
 50
160.286561
 51
197.626375
  0
ARC
  5
109
100
AcDbEntity
  8
0
370
    -3
  6
Continuous
100
AcDbCircle
 10
-762.369364
 20
-36.672968
 30
0.0
 40
22.5
100
AcDbArc
 50
161.775744
 51
195.824196
  0
ARC
  5
10A
100
AcDbEntity
  8
0
370
    -3
  6
Continuous
100
AcDbCircle
 10
-762.369364
 20
-36.672968
 30
0.0
 40
17.5
100
AcDbArc
 50
168.819063
 51
187.226028
  0
ARC
  5
10B
100
AcDbEntity
  8
0
370
    -3
  6
Continuous
100
AcDbCircle
 10
-762.369364
 20
-36.672968
 30
0.0
 40
10.0
100
AcDbArc
 50
174.624318
 51
180.0
  0
ARC
  5
10C
100
AcDbEntity
  8
0
370
    -3
  6
Continuous
100
AcDbCircle
 10
-714.174725
 20
-14.621283
 30
0.0
 40
2.0
100
AcDbArc
 50
24.586688
 51
120.0
  0
ARC
  5
10D
100
AcDbEntity
  8
0
370
    -3
  6
Continuous
100
AcDbCircle
 10
-717.22036
 20
-16.379682
 30
0.0
 40
2.0
100
AcDbArc
 50
120.0
 51
204.20266
  0
ARC
  5
10E
100
AcDbEntity
  8
0
370
    -3
  6
Continuous
100
AcDbCircle
 10
-757.369364
 20
-85.919796
 30
0.0
 40
2.0
100
AcDbArc
 50
95.79734
 51
180.0
  0
ARC
  5
10F
100
AcDbEntity
  8
0
370
    -3
  6
Continuous
100
AcDbCircle
 10
-757.369364
 20
-89.436592
 30
0.0
 40
2.0
100
AcDbArc
 50
180.0
 51
275.413312
  0
ARC
  5
110
100
AcDbEntity
  8
0
370
    -3
  6
Continuous
100
AcDbCircle
 10
-767.369364
 20
-89.436592
 30
0.0
 40
2.0
100
AcDbArc
 50
264.586688
 51
0.0
  0
ARC
  5
111
100
AcDbEntity
  8
0
370
    -3
  6
Continuous
100
AcDbCircle
 10
-767.369364
 20
-85.919796
 30
0.0
 40
2.0
100
AcDbArc
 50
0.0
 51
84.20266
  0
ARC
  5
112
100
AcDbEntity
  8
0
370
    -3
  6
Continuous
100
AcDbCircle
 10
-801.921538
 20
-66.43663
 30
0.0
 40
2.0
100
AcDbArc
 50
36.962063
 51
120.0
  0
ARC
  5
113
100
AcDbEntity
  8
0
370
    -3
  6
Continuous
100
AcDbCircle
 10
-804.97364
 20
-68.198762
 30
0.0
 40
2.0
100
AcDbArc
 50
120.0
 51
216.50025
  0
ARC
  5
114
100
AcDbEntity
  8
0
370
    -3
  6
Continuous
100
AcDbCircle
 10
-810.97364
 20
-57.806457
 30
0.0
 40
2.0
100
AcDbArc
 50
203.49975
 51
300.0
  0
ARC
  5
115
100
AcDbEntity
  8
0
370
    -3
  6
Continuous
100
AcDbCircle
 10
-810.564002
 20
-14.621283
 30
0.0
 40
2.0
100
AcDbArc
 50
60.0
 51
155.413312
  0
ARC
  5
116
100
AcDbEntity
  8
0
370
    -3
  6
Continuous
100
AcDbCircle
 10
-805.564002
 20
-5.961029
 30
0.0
 40
2.0
100
AcDbArc
 50
144.586688
 51
240.0
  0
ARC
  5
117
100
AcDbEntity
  8
0
370
    -3
  6
Continuous
100
AcDbCircle
 10
-768.369364
 20
15.986314
 30
0.0
 40
2.0
100
AcDbArc
 50
0.0
 51
96.50025
  0
ARC
  5
118
100
AcDbEntity
  8
0
370
    -3
  6
Continuous
100
AcDbCircle
 10
-768.369364
 20
12.46205
 30
0.0
 40
2.0
100
AcDbArc
 50
276.962063
 51
0.0
  0
ARC
  5
119
100
AcDbEntity
  8
0
370
    -3
  6
Continuous
100
AcDbCircle
 10
-802.518367
 20
-7.719428
 30
0.0
 40
2.0
100
AcDbArc
 50
240.0
 51
324.20266
  0
ARC
  5
11A
100
AcDbEntity
  8
0
370
    -3
  6
Continuous
100
AcDbCircle
 10
-768.369364
 20
3.380121
 30
0.0
 40
2.0
100
AcDbArc
 50
0.0
 51
98.519624
  0
ARC
  5
11B
100
AcDbEntity
  8
0
370
    -3
  6
Continuous
100
AcDbCircle
 10
-768.369364
 20
-0.162696
 30
0.0
 40
2.0
100
AcDbArc
 50
279.332418
 51
0.0
  0
ARC
  5
11C
100
AcDbEntity
  8
0
370
    -3
  6
Continuous
100
AcDbCircle
 10
-791.61838
 20
-14.012539
 30
0.0
 40
2.0
100
AcDbArc
 50
240.0
 51
322.233566
  0
ARC
  5
11D
100
AcDbEntity
  8
0
370
    -3
  6
Continuous
100
AcDbCircle
 10
-794.675075
 20
-12.247755
 30
0.0
 40
2.0
100
AcDbArc
 50
142.908354
 51
240.0
  0
ARC
  5
11E
100
AcDbEntity
  8
0
370
    -3
  6
Continuous
100
AcDbCircle
 10
-796.61838
 20
-22.672793
 30
0.0
 40
2.0
100
AcDbArc
 50
337.766434
 51
60.0
  0
ARC
  5
11F
100
AcDbEntity
  8
0
370
    -3
  6
Continuous
100
AcDbCircle
 10
-799.675075
 20
-20.908009
 30
0.0
 40
2.0
100
AcDbArc
 50
60.0
 51
157.091646
  0
ARC
  5
120
100
AcDbEntity
  8
0
370
    -3
  6
Continuous
100
AcDbCircle
 10
-807.518367
 20
-16.379682
 30
0.0
 40
2.0
100
AcDbArc
 50
335.79734
 51
60.0
  0
ARC
  5
121
100
AcDbEntity
  8
0
370
    -3
  6
Continuous
100
AcDbCircle
 10
-768.369364
 20
-9.32338
 30
0.0
 40
2.0
100
AcDbArc
 50
0.0
 51
102.373625
  0
ARC
  5
122
100
AcDbEntity
  8
0
370
    -3
  6
Continuous
100
AcDbCircle
 10
-783.728324
 20
-18.567864
 30
0.0
 40
2.0
100
AcDbArc
 50
139.713439
 51
240.0
  0
ARC
  5
123
100
AcDbEntity
  8
0
370
    -3
  6
Continuous
100
AcDbCircle
 10
-780.640437
 20
-20.350656
 30
0.0
 40
2.0
100
AcDbArc
 50
240.0
 51
318.224256
  0
ARC
  5
124
100
AcDbEntity
  8
0
370
    -3
  6
Continuous
100
AcDbCircle
 10
-768.369364
 20
-12.919021
 30
0.0
 40
2.0
100
AcDbArc
 50
284.175804
 51
0.0
  0
ARC
  5
125
100
AcDbEntity
  8
0
370
    -3
  6
Continuous
100
AcDbCircle
 10
-768.369364
 20
-22.381362
 30
0.0
 40
2.0
100
AcDbArc
 50
0.0
 51
112.773972
  0
ARC
  5
126
100
AcDbEntity
  8
0
370
    -3
  6
Continuous
100
AcDbCircle
 10
-772.57517
 20
-25.007141
 30
0.0
 40
2.0
100
AcDbArc
 50
131.180937
 51
240.0
  0
ARC
  5
127
100
AcDbEntity
  8
0
370
    -3
  6
Continuous
100
AcDbCircle
 10
-768.369364
 20
-26.280664
 30
0.0
 40
2.0
100
AcDbArc
 50
300.0
 51
0.0
  0
ARC
  5
128
100
AcDbEntity
  8
0
370
    -3
  6
Continuous
100
AcDbCircle
 10
-769.316586
 20
-26.888485
 30
0.0
 40
2.0
100
AcDbArc
 50
240.0
 51
305.375682
  0
ARC
  5
129
100
AcDbEntity
  8
0
370
    -3
  6
Continuous
100
AcDbCircle
 10
-774.316586
 20
-35.548739
 30
0.0
 40
2.0
100
AcDbArc
 50
354.624318
 51
60.0
  0
ARC
  5
12A
100
AcDbEntity
  8
0
370
    -3
  6
Continuous
100
AcDbCircle
 10
-777.57517
 20
-33.667395
 30
0.0
 40
2.0
100
AcDbArc
 50
60.0
 51
168.819063
  0
ARC
  5
12B
100
AcDbEntity
  8
0
370
    -3
  6
Continuous
100
AcDbCircle
 10
-777.746258
 20
-38.622619
 30
0.0
 40
2.0
100
AcDbArc
 50
187.226028
 51
300.0
  0
ARC
  5
12C
100
AcDbEntity
  8
0
370
    -3
  6
Continuous
100
AcDbCircle
 10
-774.369364
 20
-36.672968
 30
0.0
 40
2.0
100
AcDbArc
 50
300.0
 51
0.0
  0
ARC
  5
12D
100
AcDbEntity
  8
0
370
    -3
  6
Continuous
100
AcDbCircle
 10
-768.369364
 20
-47.065273
 30
0.0
 40
2.0
100
AcDbArc
 50
60.0
 51
120.0
  0
ARC
  5
12E
100
AcDbEntity
  8
0
370
    -3
  6
Continuous
100
AcDbCircle
 10
-767.369364
 20
-47.581681
 30
0.0
 40
2.0
100
AcDbArc
 50
0.0
 51
65.375682
  0
ARC
  5
12F
100
AcDbEntity
  8
0
370
    -3
  6
Continuous
100
AcDbCircle
 10
-771.746258
 20
-49.014924
 30
0.0
 40
2.0
100
AcDbArc
 50
120.0
 51
232.773972
  0
ARC
  5
130
100
AcDbEntity
  8
0
370
    -3
  6
Continuous
100
AcDbCircle
 10
-767.369364
 20
-51.344369
 30
0.0
 40
2.0
100
AcDbArc
 50
251.180937
 51
0.0
  0
ARC
  5
131
100
AcDbEntity
  8
0
370
    -3
  6
Continuous
100
AcDbCircle
 10
-757.369364
 20
-51.344369
 30
0.0
 40
2.0
100
AcDbArc
 50
180.0
 51
288.819063
  0
ARC
  5
132
100
AcDbEntity
  8
0
370
    -3
  6
Continuous
100
AcDbCircle
 10
-757.369364
 20
-47.581681
 30
0.0
 40
2.0
100
AcDbArc
 50
114.624318
 51
180.0
  0
ARC
  5
133
100
AcDbEntity
  8
0
370
    -3
  6
Continuous
100
AcDbCircle
 10
-750.422142
 20
-35.548739
 30
0.0
 40
2.0
100
AcDbArc
 50
120.0
 51
185.375682
  0
ARC
  5
134
100
AcDbEntity
  8
0
370
    -3
  6
Continuous
100
AcDbCircle
 10
-747.163558
 20
-33.667395
 30
0.0
 40
2.0
100
AcDbArc
 50
11.180937
 51
120.0
  0
ARC
  5
135
100
AcDbEntity
  8
0
370
    -3
  6
Continuous
100
AcDbCircle
 10
-739.09829
 20
-29.01091
 30
0.0
 40
2.0
100
AcDbArc
 50
120.0
 51
198.224256
  0
ARC
  5
136
100
AcDbEntity
  8
0
370
    -3
  6
Continuous
100
AcDbCircle
 10
-736.010403
 20
-27.228118
 30
0.0
 40
2.0
100
AcDbArc
 50
19.713439
 51
120.0
  0
ARC
  5
137
100
AcDbEntity
  8
0
370
    -3
  6
Continuous
100
AcDbCircle
 10
-728.120348
 20
-22.672793
 30
0.0
 40
2.0
100
AcDbArc
 50
120.0
 51
202.233566
  0
ARC
  5
138
100
AcDbEntity
  8
0
370
    -3
  6
Continuous
100
AcDbCircle
 10
-725.063653
 20
-20.908009
 30
0.0
 40
2.0
100
AcDbArc
 50
22.908354
 51
120.0
  0
ARC
  5
139
100
AcDbEntity
  8
0
370
    -3
  6
Continuous
100
AcDbCircle
 10
-757.369364
 20
-60.657338
 30
0.0
 40
2.0
100
AcDbArc
 50
101.775744
 51
180.0
  0
ARC
  5
13A
100
AcDbEntity
  8
0
370
    -3
  6
Continuous
100
AcDbCircle
 10
-757.369364
 20
-64.222923
 30
0.0
 40
2.0
100
AcDbArc
 50
180.0
 51
280.286561
  0
ARC
  5
13B
100
AcDbEntity
  8
0
370
    -3
  6
Continuous
100
AcDbCircle
 10
-757.369364
 20
-73.333574
 30
0.0
 40
2.0
100
AcDbArc
 50
97.766434
 51
180.0
  0
ARC
  5
13C
100
AcDbEntity
  8
0
370
    -3
  6
Continuous
100
AcDbCircle
 10
-757.369364
 20
-76.863141
 30
0.0
 40
2.0
100
AcDbArc
 50
180.0
 51
277.091646
  0
ARC
  5
13D
100
AcDbEntity
  8
0
370
    -3
  6
Continuous
100
AcDbCircle
 10
-767.369364
 20
-76.863141
 30
0.0
 40
2.0
100
AcDbArc
 50
262.908354
 51
0.0
  0
ARC
  5
13E
100
AcDbEntity
  8
0
370
    -3
  6
Continuous
100
AcDbCircle
 10
-767.369364
 20
-73.333574
 30
0.0
 40
2.0
100
AcDbArc
 50
0.0
 51
82.233566
  0
ARC
  5
13F
100
AcDbEntity
  8
0
370
    -3
  6
Continuous
100
AcDbCircle
 10
-767.369364
 20
-64.222923
 30
0.0
 40
2.0
100
AcDbArc
 50
259.713439
 51
0.0
  0
ARC
  5
140
100
AcDbEntity
  8
0
370
    -3
  6
Continuous
100
AcDbCircle
 10
-767.369364
 20
-60.657338
 30
0.0
 40
2.0
100
AcDbArc
 50
0.0
 51
78.224256
  0
ARC
  5
141
100
AcDbEntity
  8
0
370
    -3
  6
Continuous
100
AcDbCircle
 10
-794.056357
 20
-61.895666
 30
0.0
 40
2.0
100
AcDbArc
 50
120.0
 51
218.519624
  0
ARC
  5
142
100
AcDbEntity
  8
0
370
    -3
  6
Continuous
100
AcDbCircle
 10
-790.988187
 20
-60.124257
 30
0.0
 40
2.0
100
AcDbArc
 50
39.332418
 51
120.0
  0
ARC
  5
143
100
AcDbEntity
  8
0
370
    -3
  6
Continuous
100
AcDbCircle
 10
-796.988187
 20
-49.731952
 30
0.0
 40
2.0
100
AcDbArc
 50
300.0
 51
20.667582
  0
ARC
  5
144
100
AcDbEntity
  8
0
370
    -3
  6
Continuous
100
AcDbCircle
 10
-800.056357
 20
-51.503361
 30
0.0
 40
2.0
100
AcDbArc
 50
201.480376
 51
300.0
  0
ARC
  5
145
100
AcDbEntity
  8
0
370
    -3
  6
Continuous
100
AcDbCircle
 10
-789.054802
 20
-45.15161
 30
0.0
 40
2.0
100
AcDbArc
 50
197.626375
 51
300.0
  0
ARC
  5
146
100
AcDbEntity
  8
0
370
    -3
  6
Continuous
100
AcDbCircle
 10
-785.940885
 20
-43.353789
 30
0.0
 40
2.0
100
AcDbArc
 50
300.0
 51
15.824196
  0
ARC
  5
147
100
AcDbEntity
  8
0
370
    -3
  6
Continuous
100
AcDbCircle
 10
-785.640437
 20
-29.01091
 30
0.0
 40
2.0
100
AcDbArc
 50
341.775744
 51
60.0
  0
ARC
  5
148
100
AcDbEntity
  8
0
370
    -3
  6
Continuous
100
AcDbCircle
 10
-788.728324
 20
-27.228118
 30
0.0
 40
2.0
100
AcDbArc
 50
60.0
 51
160.286561
  0
ARC
  5
149
100
AcDbEntity
  8
0
370
    -3
  6
Continuous
100
AcDbCircle
 10
-807.921538
 20
-56.044325
 30
0.0
 40
2.0
100
AcDbArc
 50
300.0
 51
23.037937
  0
LINE
  5
14A
100
AcDbEntity
  8
0
370
    -3
  6
Continuous
100
AcDbLine
 10
-780.940885
 20
-52.014044
 30
0.0
 11
-784.054802
 21
-53.811864
 31
0.0
  0
ARC
  5
14B
100
AcDbEntity
  8
0
370
    -3
  6
Continuous
100
AcDbCircle
 10
-779.940885
 20
-53.746094
 30
0.0
 40
2.0
100
AcDbArc
 50
44.175804
 51
120.0
  0
ARC
  5
14C
100
AcDbEntity
  8
0
370
    -3
  6
Continuous
100
AcDbCircle
 10
-783.054802
 20
-55.543915
 30
0.0
 40
2.0
100
AcDbArc
 50
120.0
 51
222.373625
  0
LINE
  5
14D
100
AcDbEntity
  8
0
370
    -3
  6
Continuous
100
AcDbLine
 10
-751.369364
 20
-38.405019
 30
0.0
 11
-747.99247
 21
-40.35467
 31
0.0
  0
LINE
  5
14E
100
AcDbEntity
  8
0
370
    -3
  6
Continuous
100
AcDbLine
 10
-755.369364
 20
-45.333222
 30
0.0
 11
-751.99247
 21
-47.282873
 31
0.0
  0
LINE
  5
14F
100
AcDbEntity
  8
0
370
    -3
  6
Continuous
100
AcDbLine
 10
-706.927807
 20
-64.063364
 30
0.0
 11
-706.057763
 21
-64.565684
 31
0.0
  0
LINE
  5
150
100
AcDbEntity
  8
0
370
    -3
  6
Continuous
100
AcDbLine
 10
-717.81719
 20
-57.776376
 30
0.0
 11
-714.765088
 21
-59.538508
 31
0.0
  0
LINE
  5
151
100
AcDbEntity
  8
0
370
    -3
  6
Continuous
100
AcDbLine
 10
-728.75054
 20
-51.464003
 30
0.0
 11
-725.682371
 21
-53.235412
 31
0.0
  0
LINE
  5
152
100
AcDbEntity
  8
0
370
    -3
  6
Continuous
100
AcDbLine
 10
-739.797842
 20
-45.08584
 30
0.0
 11
-736.683925
 21
-46.883661
 31
0.0
  0
LINE
  5
153
100
AcDbEntity
  8
0
370
    -3
  6
Continuous
100
AcDbLine
 10
-743.797842
 20
-52.014044
 30
0.0
 11
-740.683925
 21
-53.811864
 31
0.0
  0
LINE
  5
154
100
AcDbEntity
  8
0
370
    -3
  6
Continuous
100
AcDbLine
 10
-732.75054
 20
-58.392206
 30
0.0
 11
-729.682371
 21
-60.163615
 31
0.0
  0
LINE
  5
155
100
AcDbEntity
  8
0
370
    -3
  6
Continuous
100
AcDbLine
 10
-721.81719
 20
-64.704579
 30
0.0
 11
-718.765088
 21
-66.466711
 31
0.0
  0
LINE
  5
156
100
AcDbEntity
  8
0
370
    -3
  6
Continuous
100
AcDbLine
 10
-710.927807
 20
-70.991567
 30
0.0
 11
-710.057763
 21
-71.493887
 31
0.0
  0
ARC
  5
157
100
AcDbEntity
  8
0
370
    -3
  6
Continuous
100
AcDbCircle
 10
-705.057763
 20
-62.833633
 30
0.0
 40
2.0
100
AcDbArc
 50
240.0
 51
335.465024
  0
ARC
  5
158
100
AcDbEntity
  8
0
370
    -3
  6
Continuous
100
AcDbCircle
 10
-705.927807
 20
-62.331313
 30
0.0
 40
2.0
100
AcDbArc
 50
155.553444
 51
240.0
  0
ARC
  5
159
100
AcDbEntity
  8
0
370
    -3
  6
Continuous
100
AcDbCircle
 10
-713.765088
 20
-57.806457
 30
0.0
 40
2.0
100
AcDbArc
 50
240.0
 51
336.50025
  0
ARC
  5
15A
100
AcDbEntity
  8
0
370
    -3
  6
Continuous
100
AcDbCircle
 10
-716.81719
 20
-56.044325
 30
0.0
 40
2.0
100
AcDbArc
 50
156.962063
 51
240.0
  0
ARC
  5
15B
100
AcDbEntity
  8
0
370
    -3
  6
Continuous
100
AcDbCircle
 10
-724.682371
 20
-51.503361
 30
0.0
 40
2.0
100
AcDbArc
 50
240.0
 51
338.519624
  0
ARC
  5
15C
100
AcDbEntity
  8
0
370
    -3
  6
Continuous
100
AcDbCircle
 10
-727.75054
 20
-49.731952
 30
0.0
 40
2.0
100
AcDbArc
 50
159.332418
 51
240.0
  0
ARC
  5
15D
100
AcDbEntity
  8
0
370
    -3
  6
Continuous
100
AcDbCircle
 10
-735.683925
 20
-45.15161
 30
0.0
 40
2.0
100
AcDbArc
 50
240.0
 51
342.373625
  0
ARC
  5
15E
100
AcDbEntity
  8
0
370
    -3
  6
Continuous
100
AcDbCircle
 10
-738.797842
 20
-43.353789
 30
0.0
 40
2.0
100
AcDbArc
 50
164.175804
 51
240.0
  0
ARC
  5
15F
100
AcDbEntity
  8
0
370
    -3
  6
Continuous
100
AcDbCircle
 10
-746.99247
 20
-38.622619
 30
0.0
 40
2.0
100
AcDbArc
 50
240.0
 51
352.773972
  0
ARC
  5
160
100
AcDbEntity
  8
0
370
    -3
  6
Continuous
100
AcDbCircle
 10
-750.369364
 20
-36.672968
 30
0.0
 40
2.0
100
AcDbArc
 50
180.0
 51
240.0
  0
ARC
  5
161
100
AcDbEntity
  8
0
370
    -3
  6
Continuous
100
AcDbCircle
 10
-756.369364
 20
-47.065273
 30
0.0
 40
2.0
100
AcDbArc
 50
60.0
 51
120.0
  0
ARC
  5
162
100
AcDbEntity
  8
0
370
    -3
  6
Continuous
100
AcDbCircle
 10
-752.99247
 20
-49.014924
 30
0.0
 40
2.0
100
AcDbArc
 50
307.226028
 51
60.0
  0
ARC
  5
163
100
AcDbEntity
  8
0
370
    -3
  6
Continuous
100
AcDbCircle
 10
-744.797842
 20
-53.746094
 30
0.0
 40
2.0
100
AcDbArc
 50
60.0
 51
135.824196
  0
ARC
  5
164
100
AcDbEntity
  8
0
370
    -3
  6
Continuous
100
AcDbCircle
 10
-741.683925
 20
-55.543915
 30
0.0
 40
2.0
100
AcDbArc
 50
317.626375
 51
60.0
  0
ARC
  5
165
100
AcDbEntity
  8
0
370
    -3
  6
Continuous
100
AcDbCircle
 10
-733.75054
 20
-60.124257
 30
0.0
 40
2.0
100
AcDbArc
 50
60.0
 51
140.667582
  0
ARC
  5
166
100
AcDbEntity
  8
0
370
    -3
  6
Continuous
100
AcDbCircle
 10
-730.682371
 20
-61.895666
 30
0.0
 40
2.0
100
AcDbArc
 50
321.480376
 51
60.0
  0
ARC
  5
167
100
AcDbEntity
  8
0
370
    -3
  6
Continuous
100
AcDbCircle
 10
-722.81719
 20
-66.43663
 30
0.0
 40
2.0
100
AcDbArc
 50
60.0
 51
143.037937
  0
ARC
  5
168
100
AcDbEntity
  8
0
370
    -3
  6
Continuous
100
AcDbCircle
 10
-719.765088
 20
-68.198762
 30
0.0
 40
2.0
100
AcDbArc
 50
323.49975
 51
60.0
  0
ARC
  5
169
100
AcDbEntity
  8
0
370
    -3
  6
Continuous
100
AcDbCircle
 10
-711.927807
 20
-72.723618
 30
0.0
 40
2.0
100
AcDbArc
 50
60.0
 51
144.446556
  0
ARC
  5
16A
100
AcDbEntity
  8
0
370
    -3
  6
Continuous
100
AcDbCircle
 10
-711.057763
 20
-73.225938
 30
0.0
 40
2.0
100
AcDbArc
 50
324.534976
 51
60.0
  0
ARC
  5
16B
100
AcDbEntity
  8
0
370
    -3
  6
Continuous
100
AcDbCircle
 10
-813.680965
 20
-73.225938
 30
0.0
 40
2.0
100
AcDbArc
 50
120.0
 51
215.465024
  0
ARC
  5
16C
100
AcDbEntity
  8
0
370
    -3
  6
Continuous
100
AcDbCircle
 10
-692.790057
 20
26.259535
 30
0.0
 40
0.3
100
AcDbArc
 50
315.0
 51
45.0
  0
LINE
  5
16D
100
AcDbEntity
  8
0
370
    -3
  6
Continuous
100
AcDbLine
 10
-692.15366
 20
27.178774
 30
0.0
 11
-692.719346
 21
26.613089
 31
0.0
  0
LINE
  5
16E
100
AcDbEntity
  8
0
370
    -3
  6
Continuous
100
AcDbLine
 10
-694.381047
 20
28.274789
 30
0.0
 11
-692.577924
 21
26.471667
 31
0.0
  0
LINE
  5
16F
100
AcDbEntity
  8
0
370
    -3
  6
Continuous
100
AcDbLine
 10
-697.421606
 20
31.315349
 30
0.0
 11
-699.083307
 21
32.97705
 31
0.0
  0
LINE
  5
170
100
AcDbEntity
  8
0
370
    -3
  6
Continuous
100
AcDbLine
 10
-692.577924
 20
26.047403
 30
0.0
 11
-693.309636
 21
25.315692
 31
0.0
  0
LINE
  5
171
100
AcDbEntity
  8
0
370
    -3
  6
Continuous
100
AcDbLine
 10
-695.335641
 20
30.360754
 30
0.0
 11
-692.15366
 21
27.178774
 31
0.0
  0
LINE
  5
172
100
AcDbEntity
  8
0
370
    -3
  6
Continuous
100
AcDbLine
 10
-695.901326
 20
29.795069
 30
0.0
 11
-692.577924
 21
26.471667
 31
0.0
  0
ARC
  5
173
100
AcDbEntity
  8
0
370
    -3
  6
Continuous
100
AcDbCircle
 10
-699.43686
 20
32.906339
 30
0.0
 40
0.3
100
AcDbArc
 50
45.0
 51
135.0
  0
LINE
  5
174
100
AcDbEntity
  8
0
370
    -3
  6
Continuous
100
AcDbLine
 10
-698.517621
 20
33.542735
 30
0.0
 11
-699.083307
 21
32.97705
 31
0.0
  0
LINE
  5
175
100
AcDbEntity
  8
0
370
    -3
  6
Continuous
100
AcDbLine
 10
-697.421606
 20
31.315349
 30
0.0
 11
-699.224728
 21
33.118471
 31
0.0
  0
LINE
  5
176
100
AcDbEntity
  8
0
370
    -3
  6
Continuous
100
AcDbLine
 10
-699.648992
 20
33.118471
 30
0.0
 11
-700.380704
 21
32.38676
 31
0.0
  0
LINE
  5
177
100
AcDbEntity
  8
0
370
    -3
  6
Continuous
100
AcDbLine
 10
-695.335641
 20
30.360754
 30
0.0
 11
-698.517621
 21
33.542735
 31
0.0
  0
LINE
  5
178
100
AcDbEntity
  8
0
370
    -3
  6
Continuous
100
AcDbLine
 10
-695.901326
 20
29.795069
 30
0.0
 11
-699.224728
 21
33.118471
 31
0.0
  0
ARC
  5
179
100
AcDbEntity
  8
0
370
    -3
  6
Continuous
100
AcDbCircle
 10
-692.790057
 20
-99.605472
 30
0.0
 40
0.3
100
AcDbArc
 50
315.0
 51
45.0
  0
LINE
  5
17A
100
AcDbEntity
  8
0
370
    -3
  6
Continuous
100
AcDbLine
 10
-692.15366
 20
-100.524711
 30
0.0
 11
-692.719346
 21
-99.959025
 31
0.0
  0
LINE
  5
17B
100
AcDbEntity
  8
0
370
    -3
  6
Continuous
100
AcDbLine
 10
-694.381047
 20
-101.620726
 30
0.0
 11
-692.577924
 21
-99.817604
 31
0.0
  0
LINE
  5
17C
100
AcDbEntity
  8
0
370
    -3
  6
Continuous
100
AcDbLine
 10
-697.421606
 20
-104.661285
 30
0.0
 11
-699.083307
 21
-106.322986
 31
0.0
  0
LINE
  5
17D
100
AcDbEntity
  8
0
370
    -3
  6
Continuous
100
AcDbLine
 10
-692.577924
 20
-99.39334
 30
0.0
 11
-693.309636
 21
-98.661628
 31
0.0
  0
LINE
  5
17E
100
AcDbEntity
  8
0
370
    -3
  6
Continuous
100
AcDbLine
 10
-695.335641
 20
-103.706691
 30
0.0
 11
-692.15366
 21
-100.524711
 31
0.0
  0
LINE
  5
17F
100
AcDbEntity
  8
0
370
    -3
  6
Continuous
100
AcDbLine
 10
-695.901326
 20
-103.141006
 30
0.0
 11
-692.577924
 21
-99.817604
 31
0.0
  0
ARC
  5
180
100
AcDbEntity
  8
0
370
    -3
  6
Continuous
100
AcDbCircle
 10
-699.43686
 20
-106.252276
 30
0.0
 40
0.3
100
AcDbArc
 50
225.0
 51
315.0
  0
LINE
  5
181
100
AcDbEntity
  8
0
370
    -3
  6
Continuous
100
AcDbLine
 10
-698.517621
 20
-106.888672
 30
0.0
 11
-699.083307
 21
-106.322986
 31
0.0
  0
LINE
  5
182
100
AcDbEntity
  8
0
370
    -3
  6
Continuous
100
AcDbLine
 10
-697.421606
 20
-104.661285
 30
0.0
 11
-699.224728
 21
-106.464408
 31
0.0
  0
LINE
  5
183
100
AcDbEntity
  8
0
370
    -3
  6
Continuous
100
AcDbLine
 10
-699.648992
 20
-106.464408
 30
0.0
 11
-700.380704
 21
-105.732696
 31
0.0
  0
LINE
  5
184
100
AcDbEntity
  8
0
370
    -3
  6
Continuous
100
AcDbLine
 10
-695.335641
 20
-103.706691
 30
0.0
 11
-698.517621
 21
-106.888672
 31
0.0
  0
LINE
  5
185
100
AcDbEntity
  8
0
370
    -3
  6
Continuous
100
AcDbLine
 10
-695.901326
 20
-103.141006
 30
0.0
 11
-699.224728
 21
-106.464408
 31
0.0
  0
ARC
  5
186
100
AcDbEntity
  8
0
370
    -3
  6
Continuous
100
AcDbCircle
 10
-831.948671
 20
-99.605472
 30
0.0
 40
0.3
100
AcDbArc
 50
135.0
 51
225.0
  0
LINE
  5
187
100
AcDbEntity
  8
0
370
    -3
  6
Continuous
100
AcDbLine
 10
-832.585067
 20
-100.524711
 30
0.0
 11
-832.019382
 21
-99.959025
 31
0.0
  0
LINE
  5
188
100
AcDbEntity
  8
0
370
    -3
  6
Continuous
100
AcDbLine
 10
-830.357681
 20
-101.620726
 30
0.0
 11
-832.160803
 21
-99.817604
 31
0.0
  0
LINE
  5
189
100
AcDbEntity
  8
0
370
    -3
  6
Continuous
100
AcDbLine
 10
-827.317122
 20
-104.661285
 30
0.0
 11
-825.655421
 21
-106.322986
 31
0.0
  0
LINE
  5
18A
100
AcDbEntity
  8
0
370
    -3
  6
Continuous
100
AcDbLine
 10
-832.160803
 20
-99.39334
 30
0.0
 11
-831.429092
 21
-98.661628
 31
0.0
  0
LINE
  5
18B
100
AcDbEntity
  8
0
370
    -3
  6
Continuous
100
AcDbLine
 10
-829.403087
 20
-103.706691
 30
0.0
 11
-832.585067
 21
-100.524711
 31
0.0
  0
LINE
  5
18C
100
AcDbEntity
  8
0
370
    -3
  6
Continuous
100
AcDbLine
 10
-828.837401
 20
-103.141006
 30
0.0
 11
-832.160803
 21
-99.817604
 31
0.0
  0
ARC
  5
18D
100
AcDbEntity
  8
0
370
    -3
  6
Continuous
100
AcDbCircle
 10
-825.301867
 20
-106.252276
 30
0.0
 40
0.3
100
AcDbArc
 50
225.0
 51
315.0
  0
LINE
  5
18E
100
AcDbEntity
  8
0
370
    -3
  6
Continuous
100
AcDbLine
 10
-826.221106
 20
-106.888672
 30
0.0
 11
-825.655421
 21
-106.322986
 31
0.0
  0
LINE
  5
18F
100
AcDbEntity
  8
0
370
    -3
  6
Continuous
100
AcDbLine
 10
-827.317122
 20
-104.661285
 30
0.0
 11
-825.513999
 21
-106.464408
 31
0.0
  0
LINE
  5
190
100
AcDbEntity
  8
0
370
    -3
  6
Continuous
100
AcDbLine
 10
-825.089735
 20
-106.464408
 30
0.0
 11
-824.358024
 21
-105.732696
 31
0.0
  0
LINE
  5
191
100
AcDbEntity
  8
0
370
    -3
  6
Continuous
100
AcDbLine
 10
-829.403087
 20
-103.706691
 30
0.0
 11
-826.221106
 21
-106.888672
 31
0.0
  0
LINE
  5
192
100
AcDbEntity
  8
0
370
    -3
  6
Continuous
100
AcDbLine
 10
-828.837401
 20
-103.141006
 30
0.0
 11
-825.513999
 21
-106.464408
 31
0.0
  0
ARC
  5
193
100
AcDbEntity
  8
0
370
    -3
  6
Continuous
100
AcDbCircle
 10
-831.948671
 20
26.259535
 30
0.0
 40
0.3
100
AcDbArc
 50
135.0
 51
225.0
  0
LINE
  5
194
100
AcDbEntity
  8
0
370
    -3
  6
Continuous
100
AcDbLine
 10
-832.585067
 20
27.178774
 30
0.0
 11
-832.019382
 21
26.613089
 31
0.0
  0
LINE
  5
195
100
AcDbEntity
  8
0
370
    -3
  6
Continuous
100
AcDbLine
 10
-830.357681
 20
28.274789
 30
0.0
 11
-832.160803
 21
26.471667
 31
0.0
  0
LINE
  5
196
100
AcDbEntity
  8
0
370
    -3
  6
Continuous
100
AcDbLine
 10
-827.317122
 20
31.315349
 30
0.0
 11
-825.655421
 21
32.97705
 31
0.0
  0
LINE
  5
197
100
AcDbEntity
  8
0
370
    -3
  6
Continuous
100
AcDbLine
 10
-832.160803
 20
26.047403
 30
0.0
 11
-831.429092
 21
25.315692
 31
0.0
  0
LINE
  5
198
100
AcDbEntity
  8
0
370
    -3
  6
Continuous
100
AcDbLine
 10
-829.403087
 20
30.360754
 30
0.0
 11
-832.585067
 21
27.178774
 31
0.0
  0
LINE
  5
199
100
AcDbEntity
  8
0
370
    -3
  6
Continuous
100
AcDbLine
 10
-828.837401
 20
29.795069
 30
0.0
 11
-832.160803
 21
26.471667
 31
0.0
  0
ARC
  5
19A
100
AcDbEntity
  8
0
370
    -3
  6
Continuous
100
AcDbCircle
 10
-825.301867
 20
32.906339
 30
0.0
 40
0.3
100
AcDbArc
 50
45.0
 51
135.0
  0
LINE
  5
19B
100
AcDbEntity
  8
0
370
    -3
  6
Continuous
100
AcDbLine
 10
-826.221106
 20
33.542735
 30
0.0
 11
-825.655421
 21
32.97705
 31
0.0
  0
LINE
  5
19C
100
AcDbEntity
  8
0
370
    -3
  6
Continuous
100
AcDbLine
 10
-827.317122
 20
31.315349
 30
0.0
 11
-825.513999
 21
33.118471
 31
0.0
  0
LINE
  5
19D
100
AcDbEntity
  8
0
370
    -3
  6
Continuous
100
AcDbLine
 10
-825.089735
 20
33.118471
 30
0.0
 11
-824.358024
 21
32.38676
 31
0.0
  0
LINE
  5
19E
100
AcDbEntity
  8
0
370
    -3
  6
Continuous
100
AcDbLine
 10
-829.403087
 20
30.360754
 30
0.0
 11
-826.221106
 21
33.542735
 31
0.0
  0
LINE
  5
19F
100
AcDbEntity
  8
0
370
    -3
  6
Continuous
100
AcDbLine
 10
-828.837401
 20
29.795069
 30
0.0
 11
-825.513999
 21
33.118471
 31
0.0
  0
INSERT
  5
1AB
100
AcDbEntity
  8
0
100
AcDbBlockReference
  2
ZU_SYM__USERS_HOME_SYMBOL_POO_SYM_S07_-1
 10
-695.335641
 20
30.360754
 30
0.0
 41
-1.0
 42
1.0
 50
45.0
  0
INSERT
  5
1B7
100
AcDbEntity
  8
0
100
AcDbBlockReference
  2
ZU_SYM__USERS_HOME_SYMBOL_POO_SYM_S07_00001-1
 10
-695.335641
 20
-103.706691
 30
0.0
 41
1.0
 42
1.0
 50
135.0
  0
INSERT
  5
1C3
100
AcDbEntity
  8
0
100
AcDbBlockReference
  2
ZU_SYM__USERS_HOME_SYMBOL_POO_SYM_S07_00002-1
 10
-829.403087
 20
-103.706691
 30
0.0
 41
-1.0
 42
1.0
 50
225.0
  0
INSERT
  5
1CF
100
AcDbEntity
  8
0
100
AcDbBlockReference
  2
ZU_SYM__USERS_HOME_SYMBOL_POO_SYM_S07_00003-1
 10
-829.403087
 20
30.360754
 30
0.0
 41
1.0
 42
1.0
 50
315.0
  0
ARC
  5
1D0
100
AcDbEntity
  8
0
370
    -3
  6
Continuous
100
AcDbCircle
 10
-710.369364
 20
-119.672968
 30
0.0
 40
5.633955
100
AcDbArc
 50
135.598919
 51
103.486495
  0
ARC
  5
1D1
100
AcDbEntity
  8
0
370
    -3
  6
Continuous
100
AcDbCircle
 10
-710.369364
 20
-119.672968
 30
0.0
 40
6.5
100
AcDbArc
 50
151.945209
 51
87.140205
  0
LINE
  5
1D2
100
AcDbEntity
  8
0
370
    -3
  6
Continuous
100
AcDbLine
 10
-713.36936
 20
-121.405014
 30
0.0
 11
-713.369361
 21
-117.940916
 31
0.0
  0
LINE
  5
1D3
100
AcDbEntity
  8
0
370
    -3
  6
Continuous
100
AcDbLine
 10
-707.369367
 20
-117.940921
 30
0.0
 11
-707.369366
 21
-121.405019
 31
0.0
  0
LINE
  5
1D4
100
AcDbEntity
  8
0
370
    -3
  6
Continuous
100
AcDbLine
 10
-710.369357
 20
-116.208871
 30
0.0
 11
-713.369362
 21
-117.940917
 31
0.0
  0
LINE
  5
1D5
100
AcDbEntity
  8
0
370
    -3
  6
Continuous
100
AcDbLine
 10
-707.369366
 20
-121.40502
 30
0.0
 11
-710.369368
 21
-123.137067
 31
0.0
  0
LINE
  5
1D6
100
AcDbEntity
  8
0
370
    -3
  6
Continuous
100
AcDbLine
 10
-710.369357
 20
-116.208871
 30
0.0
 11
-707.369366
 21
-117.940922
 31
0.0
  0
LINE
  5
1D7
100
AcDbEntity
  8
0
370
    -3
  6
Continuous
100
AcDbLine
 10
-710.369368
 20
-123.137067
 30
0.0
 11
-713.369361
 21
-121.405015
 31
0.0
  0
ARC
  5
1D8
100
AcDbEntity
  8
0
370
    -3
  6
Continuous
100
AcDbCircle
 10
-814.369364
 20
-119.672968
 30
0.0
 40
5.633955
100
AcDbArc
 50
76.513505
 51
44.401081
  0
ARC
  5
1D9
100
AcDbEntity
  8
0
370
    -3
  6
Continuous
100
AcDbCircle
 10
-814.369364
 20
-119.672968
 30
0.0
 40
6.5
100
AcDbArc
 50
92.859795
 51
28.054791
  0
LINE
  5
1DA
100
AcDbEntity
  8
0
370
    -3
  6
Continuous
100
AcDbLine
 10
-811.369367
 20
-121.405014
 30
0.0
 11
-811.369366
 21
-117.940916
 31
0.0
  0
LINE
  5
1DB
100
AcDbEntity
  8
0
370
    -3
  6
Continuous
100
AcDbLine
 10
-817.36936
 20
-117.940921
 30
0.0
 11
-817.369361
 21
-121.405019
 31
0.0
  0
LINE
  5
1DC
100
AcDbEntity
  8
0
370
    -3
  6
Continuous
100
AcDbLine
 10
-814.36937
 20
-116.208871
 30
0.0
 11
-811.369366
 21
-117.940917
 31
0.0
  0
LINE
  5
1DD
100
AcDbEntity
  8
0
370
    -3
  6
Continuous
100
AcDbLine
 10
-817.369362
 20
-121.40502
 30
0.0
 11
-814.369359
 21
-123.137067
 31
0.0
  0
LINE
  5
1DE
100
AcDbEntity
  8
0
370
    -3
  6
Continuous
100
AcDbLine
 10
-814.36937
 20
-116.208871
 30
0.0
 11
-817.369361
 21
-117.940922
 31
0.0
  0
LINE
  5
1DF
100
AcDbEntity
  8
0
370
    -3
  6
Continuous
100
AcDbLine
 10
-814.369359
 20
-123.137067
 30
0.0
 11
-811.369366
 21
-121.405015
 31
0.0
  0
ARC
  5
1E0
100
AcDbEntity
  8
0
370
    -3
  6
Continuous
100
AcDbCircle
 10
-846.369364
 20
-31.672968
 30
0.0
 40
5.633955
100
AcDbArc
 50
124.373338
 51
234.148143
  0
ARC
  5
1E1
100
AcDbEntity
  8
0
370
    -3
  6
Continuous
100
AcDbCircle
 10
-846.369364
 20
-31.672968
 30
0.0
 40
6.5
100
AcDbArc
 50
119.027002
 51
239.494479
  0
ARC
  5
1E2
100
AcDbEntity
  8
0
370
    -3
  6
Continuous
100
AcDbCircle
 10
-812.369364
 20
44.327032
 30
0.0
 40
5.633955
100
AcDbArc
 50
358.484106
 51
239.339736
  0
ARC
  5
1E3
100
AcDbEntity
  8
0
370
    -3
  6
Continuous
100
AcDbCircle
 10
-812.369364
 20
44.327032
 30
0.0
 40
6.5
100
AcDbArc
 50
2.118238
 51
235.705604
  0
LINE
  5
1E4
100
AcDbEntity
  8
0
370
    -3
  6
Continuous
100
AcDbLine
 10
-809.369367
 20
42.896985
 30
0.0
 11
-809.369366
 21
46.059084
 31
0.0
  0
LINE
  5
1E5
100
AcDbEntity
  8
0
370
    -3
  6
Continuous
100
AcDbLine
 10
-815.36936
 20
46.059079
 30
0.0
 11
-815.369361
 21
42.594981
 31
0.0
  0
LINE
  5
1E6
100
AcDbEntity
  8
0
370
    -3
  6
Continuous
100
AcDbLine
 10
-812.36937
 20
47.791129
 30
0.0
 11
-809.369366
 21
46.059083
 31
0.0
  0
LINE
  5
1E7
100
AcDbEntity
  8
0
370
    -3
  6
Continuous
100
AcDbLine
 10
-815.369362
 20
42.59498
 30
0.0
 11
-812.704979
 21
41.056702
 31
0.0
  0
LINE
  5
1E8
100
AcDbEntity
  8
0
370
    -3
  6
Continuous
100
AcDbLine
 10
-812.36937
 20
47.791129
 30
0.0
 11
-815.369361
 21
46.059078
 31
0.0
  0
ARC
  5
1E9
100
AcDbEntity
  8
0
370
    -3
  6
Continuous
100
AcDbCircle
 10
-772.869364
 20
50.327032
 30
0.0
 40
5.633955
100
AcDbArc
 50
2.743046
 51
180.337419
  0
ARC
  5
1EA
100
AcDbEntity
  8
0
370
    -3
  6
Continuous
100
AcDbCircle
 10
-772.869364
 20
50.327032
 30
0.0
 40
6.5
100
AcDbArc
 50
2.464188
 51
180.616277
  0
LINE
  5
1EB
100
AcDbEntity
  8
0
370
    -3
  6
Continuous
100
AcDbLine
 10
-769.869367
 20
50.555057
 30
0.0
 11
-769.869366
 21
52.059084
 31
0.0
  0
LINE
  5
1EC
100
AcDbEntity
  8
0
370
    -3
  6
Continuous
100
AcDbLine
 10
-775.86936
 20
52.059079
 30
0.0
 11
-775.869361
 21
50.393787
 31
0.0
  0
LINE
  5
1ED
100
AcDbEntity
  8
0
370
    -3
  6
Continuous
100
AcDbLine
 10
-772.86937
 20
53.791129
 30
0.0
 11
-769.869366
 21
52.059083
 31
0.0
  0
LINE
  5
1EE
100
AcDbEntity
  8
0
370
    -3
  6
Continuous
100
AcDbLine
 10
-772.86937
 20
53.791129
 30
0.0
 11
-775.869361
 21
52.059078
 31
0.0
  0
ARC
  5
1EF
100
AcDbEntity
  8
0
370
    -3
  6
Continuous
100
AcDbCircle
 10
-712.369364
 20
44.327032
 30
0.0
 40
5.633955
100
AcDbArc
 50
300.660264
 51
181.515894
  0
ARC
  5
1F0
100
AcDbEntity
  8
0
370
    -3
  6
Continuous
100
AcDbCircle
 10
-712.369364
 20
44.327032
 30
0.0
 40
6.5
100
AcDbArc
 50
304.294396
 51
177.881762
  0
LINE
  5
1F1
100
AcDbEntity
  8
0
370
    -3
  6
Continuous
100
AcDbLine
 10
-715.369361
 20
42.896985
 30
0.0
 11
-715.369361
 21
46.059084
 31
0.0
  0
LINE
  5
1F2
100
AcDbEntity
  8
0
370
    -3
  6
Continuous
100
AcDbLine
 10
-709.369367
 20
46.059079
 30
0.0
 11
-709.369366
 21
42.594981
 31
0.0
  0
LINE
  5
1F3
100
AcDbEntity
  8
0
370
    -3
  6
Continuous
100
AcDbLine
 10
-712.369357
 20
47.791129
 30
0.0
 11
-715.369362
 21
46.059083
 31
0.0
  0
LINE
  5
1F4
100
AcDbEntity
  8
0
370
    -3
  6
Continuous
100
AcDbLine
 10
-709.369366
 20
42.59498
 30
0.0
 11
-712.033749
 21
41.056702
 31
0.0
  0
LINE
  5
1F5
100
AcDbEntity
  8
0
370
    -3
  6
Continuous
100
AcDbLine
 10
-712.369357
 20
47.791129
 30
0.0
 11
-709.369366
 21
46.059078
 31
0.0
  0
ARC
  5
1F6
100
AcDbEntity
  8
0
370
    -3
  6
Continuous
100
AcDbCircle
 10
-751.869364
 20
50.327032
 30
0.0
 40
5.633955
100
AcDbArc
 50
359.662581
 51
177.256954
  0
ARC
  5
1F7
100
AcDbEntity
  8
0
370
    -3
  6
Continuous
100
AcDbCircle
 10
-751.869364
 20
50.327032
 30
0.0
 40
6.5
100
AcDbArc
 50
359.383723
 51
177.535812
  0
LINE
  5
1F8
100
AcDbEntity
  8
0
370
    -3
  6
Continuous
100
AcDbLine
 10
-754.869361
 20
50.555057
 30
0.0
 11
-754.869361
 21
52.059084
 31
0.0
  0
LINE
  5
1F9
100
AcDbEntity
  8
0
370
    -3
  6
Continuous
100
AcDbLine
 10
-748.869367
 20
52.059079
 30
0.0
 11
-748.869367
 21
50.393787
 31
0.0
  0
LINE
  5
1FA
100
AcDbEntity
  8
0
370
    -3
  6
Continuous
100
AcDbLine
 10
-751.869357
 20
53.791129
 30
0.0
 11
-754.869362
 21
52.059083
 31
0.0
  0
LINE
  5
1FB
100
AcDbEntity
  8
0
370
    -3
  6
Continuous
100
AcDbLine
 10
-751.869357
 20
53.791129
 30
0.0
 11
-748.869366
 21
52.059078
 31
0.0
  0
POINT
  5
1FC
100
AcDbEntity
  8
0
370
    -3
  6
Continuous
100
AcDbPoint
 10
-751.869364
 20
55.960987
 30
0.0
  0
POINT
  5
1FD
100
AcDbEntity
  8
0
370
    -3
  6
Continuous
100
AcDbPoint
 10
-751.369364
 20
56.827032
 30
0.0
  0
POINT
  5
1FE
100
AcDbEntity
  8
0
370
    -3
  6
Continuous
100
AcDbPoint
 10
-712.369364
 20
49.960987
 30
0.0
  0
POINT
  5
1FF
100
AcDbEntity
  8
0
370
    -3
  6
Continuous
100
AcDbPoint
 10
-711.869364
 20
50.827032
 30
0.0
  0
POINT
  5
200
100
AcDbEntity
  8
0
370
    -3
  6
Continuous
100
AcDbPoint
 10
-772.869364
 20
55.960987
 30
0.0
  0
POINT
  5
201
100
AcDbEntity
  8
0
370
    -3
  6
Continuous
100
AcDbPoint
 10
-773.369364
 20
56.827032
 30
0.0
  0
POINT
  5
202
100
AcDbEntity
  8
0
370
    -3
  6
Continuous
100
AcDbPoint
 10
-812.369364
 20
49.960987
 30
0.0
  0
POINT
  5
203
100
AcDbEntity
  8
0
370
    -3
  6
Continuous
100
AcDbPoint
 10
-812.869364
 20
50.827032
 30
0.0
  0
POINT
  5
204
100
AcDbEntity
  8
0
370
    -3
  6
Continuous
100
AcDbPoint
 10
-814.369364
 20
-114.039013
 30
0.0
  0
POINT
  5
205
100
AcDbEntity
  8
0
370
    -3
  6
Continuous
100
AcDbPoint
 10
-814.869364
 20
-113.172968
 30
0.0
  0
POINT
  5
206
100
AcDbEntity
  8
0
370
    -3
  6
Continuous
100
AcDbPoint
 10
-710.369364
 20
-114.039013
 30
0.0
  0
POINT
  5
207
100
AcDbEntity
  8
0
370
    -3
  6
Continuous
100
AcDbPoint
 10
-709.869364
 20
-113.172968
 30
0.0
  0
LINE
  5
208
100
AcDbEntity
  8
0
370
    -3
  6
Continuous
100
AcDbLine
 10
-254.782065
 20
304.713016
 30
0.0
 11
-254.782065
 21
224.713016
 31
0.0
  0
LINE
  5
209
100
AcDbEntity
  8
0
370
    -3
  6
Continuous
100
AcDbLine
 10
-254.782065
 20
304.713016
 30
0.0
 11
-254.782065
 21
388.213016
 31
0.0
  0
LINE
  5
20A
100
AcDbEntity
  8
0
370
    -3
  6
Continuous
100
AcDbLine
 10
-254.782065
 20
-36.672968
 30
0.0
 11
-254.782065
 21
46.827032
 31
0.0
  0
LINE
  5
20B
100
AcDbEntity
  8
0
370
    -3
  6
Continuous
100
AcDbLine
 10
-254.782065
 20
-36.672968
 30
0.0
 11
-254.782065
 21
-120.172968
 31
0.0
  0
LINE
  5
20C
100
AcDbEntity
  8
0
370
    -3
  6
Continuous
100
AcDbLine
 10
-254.782065
 20
-36.672968
 30
0.0
 11
-254.782065
 21
-112.998446
 31
0.0
  0
LINE
  5
20D
100
AcDbEntity
  8
0
370
    -3
  6
Continuous
100
AcDbLine
 10
-254.782065
 20
-36.672968
 30
0.0
 11
-254.782065
 21
47.25719
 31
0.0
  0
LINE
  5
20E
100
AcDbEntity
  8
0
370
    -3
  6
CENTER
100
AcDbLine
 10
-241.198645
 20
50.327032
 30
0.0
 11
-233.757927
 21
50.327032
 31
0.0
  0
LINE
  5
20F
100
AcDbEntity
  8
0
370
    -3
  6
Continuous
100
AcDbLine
 10
-239.747166
 20
47.78222
 30
0.0
 11
-254.782065
 21
47.25719
 31
0.0
  0
LINE
  5
210
100
AcDbEntity
  8
0
370
    -3
  6
Continuous
100
AcDbLine
 10
-238.782065
 20
48.781611
 30
0.0
 11
-238.782065
 21
60.327032
 31
0.0
  0
LINE
  5
211
100
AcDbEntity
  8
0
370
    -3
  6
Continuous
100
AcDbLine
 10
-254.782065
 20
-36.672968
 30
0.0
 11
-254.782065
 21
-120.172968
 31
0.0
  0
LINE
  5
212
100
AcDbEntity
  8
0
370
    -3
  6
Continuous
100
AcDbLine
 10
-232.282064
 20
-120.888844
 30
0.0
 11
-254.782065
 21
-120.103127
 31
0.0
  0
LINE
  5
213
100
AcDbEntity
  8
0
370
    -3
  6
Continuous
100
AcDbLine
 10
-254.782065
 20
-36.672968
 30
0.0
 11
-254.782065
 21
47.25719
 31
0.0
  0
POINT
  5
214
100
AcDbEntity
  8
0
370
    -3
  6
Continuous
100
AcDbPoint
 10
-243.282066
 20
50.477511
 30
0.0
  0
LINE
  5
215
100
AcDbEntity
  8
0
370
    -3
  6
Continuous
100
AcDbLine
 10
-212.282065
 20
63.327032
 30
0.0
 11
-235.782065
 21
63.327032
 31
0.0
  0
ARC
  5
216
100
AcDbEntity
  8
0
370
    -3
  6
Continuous
100
AcDbCircle
 10
-221.282065
 20
60.327032
 30
0.0
 40
3.0
100
AcDbArc
 50
90.0
 51
180.0
  0
LINE
  5
217
100
AcDbEntity
  8
0
370
    -3
  6
Continuous
100
AcDbLine
 10
-212.282065
 20
-36.672968
 30
0.0
 11
-212.282065
 21
63.327032
 31
0.0
  0
LINE
  5
218
100
AcDbEntity
  8
0
370
    -3
  6
Continuous
100
AcDbLine
 10
-226.282065
 20
-5.672968
 30
0.0
 11
-226.282065
 21
-17.672968
 31
0.0
  0
ARC
  5
219
100
AcDbEntity
  8
0
370
    -3
  6
Continuous
100
AcDbCircle
 10
-224.282065
 20
-17.672968
 30
0.0
 40
2.0
100
AcDbArc
 50
180.0
 51
240.0
  0
ARC
  5
21A
100
AcDbEntity
  8
0
370
    -3
  6
Continuous
100
AcDbCircle
 10
-226.282065
 20
-21.13707
 30
0.0
 40
2.0
100
AcDbArc
 50
0.0
 51
60.0
  0
ARC
  5
21B
100
AcDbEntity
  8
0
370
    -3
  6
Continuous
100
AcDbCircle
 10
-224.282065
 20
-5.672968
 30
0.0
 40
2.0
100
AcDbArc
 50
120.0
 51
180.0
  0
ARC
  5
21C
100
AcDbEntity
  8
0
370
    -3
  6
Continuous
100
AcDbCircle
 10
-226.282065
 20
-2.208867
 30
0.0
 40
2.0
100
AcDbArc
 50
300.0
 51
0.0
  0
LINE
  5
21D
100
AcDbEntity
  8
0
370
    -3
  6
Continuous
100
AcDbLine
 10
-243.282066
 20
47.658779
 30
0.0
 11
-243.282066
 21
94.477511
 31
0.0
  0
LINE
  5
21E
100
AcDbEntity
  8
0
370
    -3
  6
Continuous
100
AcDbLine
 10
-238.782066
 20
94.477511
 30
0.0
 11
-238.782066
 21
48.780233
 31
0.0
  0
LINE
  5
21F
100
AcDbEntity
  8
0
370
    -3
  6
CENTER
100
AcDbLine
 10
-249.012314
 20
74.477511
 30
0.0
 11
-230.913048
 21
74.477511
 31
0.0
  0
LINE
  5
220
100
AcDbEntity
  8
0
370
    -3
  6
Continuous
100
AcDbLine
 10
-243.282066
 20
94.477511
 30
0.0
 11
-238.782066
 21
94.477511
 31
0.0
  0
LINE
  5
221
100
AcDbEntity
  8
0
370
    -3
  6
Continuous
100
AcDbLine
 10
-224.282065
 20
60.327032
 30
0.0
 11
-224.282065
 21
-2.208867
 31
0.0
  0
LINE
  5
222
100
AcDbEntity
  8
0
370
    -3
  6
Continuous
100
AcDbLine
 10
-224.282065
 20
-21.13707
 30
0.0
 11
-224.282065
 21
-127.672968
 31
0.0
  0
ARC
  5
223
100
AcDbEntity
  8
0
370
    -3
  6
Continuous
100
AcDbCircle
 10
-239.782065
 20
48.781611
 30
0.0
 40
1.0
100
AcDbArc
 50
272.0
 51
0.0
  0
LINE
  5
224
100
AcDbEntity
  8
0
370
    -3
  6
Continuous
100
AcDbLine
 10
-224.282065
 20
33.334991
 30
0.0
 11
-254.782065
 21
33.334991
 31
0.0
  0
LINE
  5
225
100
AcDbEntity
  8
0
370
    -3
  6
Continuous
100
AcDbLine
 10
-232.282064
 20
-114.46355
 30
0.0
 11
-254.782065
 21
-114.46355
 31
0.0
  0
LINE
  5
226
100
AcDbEntity
  8
0
370
    -3
  6
Continuous
100
AcDbLine
 10
-224.282065
 20
-107.745476
 30
0.0
 11
-254.782065
 21
-107.745476
 31
0.0
  0
LINE
  5
227
100
AcDbEntity
  8
0
370
    -3
  6
Continuous
100
AcDbLine
 10
-224.282065
 20
-41.660461
 30
0.0
 11
-254.782065
 21
-41.660461
 31
0.0
  0
ARC
  5
228
100
AcDbEntity
  8
0
370
    -3
  6
Continuous
100
AcDbCircle
 10
-235.782065
 20
60.327032
 30
0.0
 40
3.0
100
AcDbArc
 50
90.0
 51
180.0
  0
LINE
  5
229
100
AcDbEntity
  8
0
370
    -3
  6
Continuous
100
AcDbLine
 10
-212.282065
 20
-129.672968
 30
0.0
 11
-222.282065
 21
-129.672968
 31
0.0
  0
ARC
  5
22A
100
AcDbEntity
  8
0
370
    -3
  6
Continuous
100
AcDbCircle
 10
-222.282065
 20
-127.672968
 30
0.0
 40
2.0
100
AcDbArc
 50
180.0
 51
270.0
  0
LINE
  5
22B
100
AcDbEntity
  8
0
370
    -3
  6
Continuous
100
AcDbLine
 10
-212.282065
 20
-36.672968
 30
0.0
 11
-212.282065
 21
-129.672968
 31
0.0
  0
LINE
  5
22C
100
AcDbEntity
  8
0
370
    -3
  6
Continuous
100
AcDbLine
 10
-224.282065
 20
-21.686279
 30
0.0
 11
-254.782065
 21
-21.686279
 31
0.0
  0
LINE
  5
22D
100
AcDbEntity
  8
0
370
    -3
  6
Continuous
100
AcDbLine
 10
-232.282064
 20
42.3372
 30
0.0
 11
-254.782065
 21
42.3372
 31
0.0
  0
LINE
  5
22E
100
AcDbEntity
  8
0
370
    -3
  6
CENTER
100
AcDbLine
 10
-161.005802
 20
-6.672968
 30
0.0
 11
-45.863114
 21
-6.672968
 31
0.0
  0
ARC
  5
22F
100
AcDbEntity
  8
0
370
    -3
  6
Continuous
100
AcDbCircle
 10
-91.782065
 20
-6.672968
 30
0.0
 40
5.0
100
AcDbArc
 50
90.0
 51
270.0
  0
LINE
  5
230
100
AcDbEntity
  8
0
370
    -3
  6
Continuous
100
AcDbLine
 10
-51.782065
 20
-11.672968
 30
0.0
 11
-91.782065
 21
-11.672968
 31
0.0
  0
LINE
  5
231
100
AcDbEntity
  8
0
370
    -3
  6
Continuous
100
AcDbLine
 10
-51.782065
 20
-1.672968
 30
0.0
 11
-91.782065
 21
-1.672968
 31
0.0
  0
ARC
  5
232
100
AcDbEntity
  8
0
370
    -3
  6
Continuous
100
AcDbCircle
 10
-52.182065
 20
-22.272968
 30
0.0
 40
0.4
100
AcDbArc
 50
270.0
 51
0.0
  0
LINE
  5
233
100
AcDbEntity
  8
0
370
    -3
  6
Continuous
100
AcDbLine
 10
-51.782065
 20
-6.672968
 30
0.0
 11
-51.782065
 21
-22.272968
 31
0.0
  0
LINE
  5
234
100
AcDbEntity
  8
0
370
    -3
  6
Continuous
100
AcDbLine
 10
-101.782065
 20
-23.472968
 30
0.0
 11
-101.982065
 21
-23.672968
 31
0.0
  0
ARC
  5
235
100
AcDbEntity
  8
0
370
    -3
  6
Continuous
100
AcDbCircle
 10
-100.982065
 20
-23.322968
 30
0.0
 40
0.8
100
AcDbArc
 50
90.0
 51
176.296803
  0
LINE
  5
236
100
AcDbEntity
  8
0
370
    -3
  6
Continuous
100
AcDbLine
 10
-101.782065
 20
-23.472968
 30
0.0
 11
-101.782065
 21
-6.672968
 31
0.0
  0
LINE
  5
237
100
AcDbEntity
  8
0
370
    -3
  6
Continuous
100
AcDbLine
 10
-99.782065
 20
-22.522968
 30
0.0
 11
-100.982065
 21
-22.522968
 31
0.0
  0
LINE
  5
238
100
AcDbEntity
  8
0
370
    -3
  6
Continuous
100
AcDbLine
 10
-52.182065
 20
-22.672968
 30
0.0
 11
-99.222258
 21
-22.672968
 31
0.0
  0
LINE
  5
239
100
AcDbEntity
  8
0
370
    -3
  6
Continuous
100
AcDbLine
 10
-103.782065
 20
-23.672968
 30
0.0
 11
-101.982065
 21
-23.672968
 31
0.0
  0
LINE
  5
23A
100
AcDbEntity
  8
0
370
    -3
  6
Continuous
100
AcDbLine
 10
-99.782065
 20
-22.522968
 30
0.0
 11
-99.222258
 21
-22.672968
 31
0.0
  0
LINE
  5
23B
100
AcDbEntity
  8
0
370
    -3
  6
Continuous
100
AcDbLine
 10
-101.782065
 20
10.127032
 30
0.0
 11
-101.982065
 21
10.327032
 31
0.0
  0
ARC
  5
23C
100
AcDbEntity
  8
0
370
    -3
  6
Continuous
100
AcDbCircle
 10
-100.982065
 20
9.977032
 30
0.0
 40
0.8
100
AcDbArc
 50
183.703197
 51
270.0
  0
LINE
  5
23D
100
AcDbEntity
  8
0
370
    -3
  6
Continuous
100
AcDbLine
 10
-101.782065
 20
10.127032
 30
0.0
 11
-101.782065
 21
-6.672968
 31
0.0
  0
LINE
  5
23E
100
AcDbEntity
  8
0
370
    -3
  6
Continuous
100
AcDbLine
 10
-103.782065
 20
10.327032
 30
0.0
 11
-101.982065
 21
10.327032
 31
0.0
  0
LINE
  5
23F
100
AcDbEntity
  8
0
370
    -3
  6
Continuous
100
AcDbLine
 10
-99.782065
 20
9.177032
 30
0.0
 11
-100.982065
 21
9.177032
 31
0.0
  0
LINE
  5
240
100
AcDbEntity
  8
0
370
    -3
  6
Continuous
100
AcDbLine
 10
-99.782065
 20
9.177032
 30
0.0
 11
-99.222258
 21
9.327032
 31
0.0
  0
LINE
  5
241
100
AcDbEntity
  8
0
370
    -3
  6
Continuous
100
AcDbLine
 10
-52.182065
 20
9.327032
 30
0.0
 11
-99.222258
 21
9.327032
 31
0.0
  0
ARC
  5
242
100
AcDbEntity
  8
0
370
    -3
  6
Continuous
100
AcDbCircle
 10
-52.182065
 20
8.927032
 30
0.0
 40
0.4
100
AcDbArc
 50
0.0
 51
90.0
  0
LINE
  5
243
100
AcDbEntity
  8
0
370
    -3
  6
Continuous
100
AcDbLine
 10
-51.782065
 20
-6.672968
 30
0.0
 11
-51.782065
 21
8.927032
 31
0.0
  0
LINE
  5
244
100
AcDbEntity
  8
0
370
    -3
  6
CENTER
100
AcDbLine
 10
-96.145556
 20
92.321981
 30
0.0
 11
-135.141548
 21
92.321981
 31
0.0
  0
LINE
  5
245
100
AcDbEntity
  8
0
370
    -3
  6
CENTER
100
AcDbLine
 10
-96.145556
 20
-105.667918
 30
0.0
 11
-135.141548
 21
-105.667918
 31
0.0
  0
LINE
  5
246
100
AcDbEntity
  8
0
370
    -3
  6
Continuous
100
AcDbLine
 10
-115.782065
 20
-11.672968
 30
0.0
 11
-111.782065
 21
-11.672968
 31
0.0
  0
LINE
  5
247
100
AcDbEntity
  8
0
370
    -3
  6
Continuous
100
AcDbLine
 10
-111.782065
 20
-73.121542
 30
0.0
 11
-115.782065
 21
-73.121542
 31
0.0
  0
LINE
  5
248
100
AcDbEntity
  8
0
370
    -3
  6
Continuous
100
AcDbLine
 10
-111.782065
 20
-97.959765
 30
0.0
 11
-115.782065
 21
-97.959765
 31
0.0
  0
ARC
  5
249
100
AcDbEntity
  8
0
370
    -3
  6
Continuous
100
AcDbCircle
 10
-115.782065
 20
-94.959765
 30
0.0
 40
3.0
100
AcDbArc
 50
180.0
 51
270.0
  0
LINE
  5
24A
100
AcDbEntity
  8
0
370
    -3
  6
Continuous
100
AcDbLine
 10
-118.782065
 20
-14.672968
 30
0.0
 11
-118.782065
 21
-94.959765
 31
0.0
  0
ARC
  5
24B
100
AcDbEntity
  8
0
370
    -3
  6
Continuous
100
AcDbCircle
 10
-115.782065
 20
-70.121542
 30
0.0
 40
3.0
100
AcDbArc
 50
180.0
 51
270.0
  0
ARC
  5
24C
100
AcDbEntity
  8
0
370
    -3
  6
Continuous
100
AcDbCircle
 10
-115.782065
 20
-14.672968
 30
0.0
 40
3.0
100
AcDbArc
 50
90.0
 51
180.0
  0
LINE
  5
24D
100
AcDbEntity
  8
0
370
    -3
  6
Continuous
100
AcDbLine
 10
-115.782065
 20
-1.672968
 30
0.0
 11
-111.782065
 21
-1.672968
 31
0.0
  0
LINE
  5
24E
100
AcDbEntity
  8
0
370
    -3
  6
Continuous
100
AcDbLine
 10
-111.782065
 20
59.775605
 30
0.0
 11
-115.782065
 21
59.775605
 31
0.0
  0
LINE
  5
24F
100
AcDbEntity
  8
0
370
    -3
  6
Continuous
100
AcDbLine
 10
-111.782065
 20
84.613828
 30
0.0
 11
-115.782065
 21
84.613828
 31
0.0
  0
ARC
  5
250
100
AcDbEntity
  8
0
370
    -3
  6
Continuous
100
AcDbCircle
 10
-115.782065
 20
81.613828
 30
0.0
 40
3.0
100
AcDbArc
 50
90.0
 51
180.0
  0
LINE
  5
251
100
AcDbEntity
  8
0
370
    -3
  6
Continuous
100
AcDbLine
 10
-118.782065
 20
1.327032
 30
0.0
 11
-118.782065
 21
81.613828
 31
0.0
  0
ARC
  5
252
100
AcDbEntity
  8
0
370
    -3
  6
Continuous
100
AcDbCircle
 10
-115.782065
 20
56.775605
 30
0.0
 40
3.0
100
AcDbArc
 50
90.0
 51
180.0
  0
ARC
  5
253
100
AcDbEntity
  8
0
370
    -3
  6
Continuous
100
AcDbCircle
 10
-115.782065
 20
1.327032
 30
0.0
 40
3.0
100
AcDbArc
 50
180.0
 51
270.0
  0
LINE
  5
254
100
AcDbEntity
  8
0
370
    -3
  6
Continuous
100
AcDbLine
 10
-111.782065
 20
-119.172968
 30
0.0
 11
-125.782065
 21
-119.172968
 31
0.0
  0
LINE
  5
255
100
AcDbEntity
  8
0
370
    -3
  6
Continuous
100
AcDbLine
 10
-127.782065
 20
-117.172968
 30
0.0
 11
-127.782065
 21
103.827032
 31
0.0
  0
ARC
  5
256
100
AcDbEntity
  8
0
370
    -3
  6
Continuous
100
AcDbCircle
 10
-125.782065
 20
-117.172968
 30
0.0
 40
2.0
100
AcDbArc
 50
180.0
 51
270.0
  0
LINE
  5
257
100
AcDbEntity
  8
0
370
    -3
  6
Continuous
100
AcDbLine
 10
-107.782065
 20
-6.672968
 30
0.0
 11
-107.782065
 21
97.327032
 31
0.0
  0
ARC
  5
258
100
AcDbEntity
  8
0
370
    -3
  6
Continuous
100
AcDbCircle
 10
-108.782065
 20
38.480138
 30
0.0
 40
3.0
100
AcDbArc
 50
0.0
 51
70.528779
  0
ARC
  5
259
100
AcDbEntity
  8
0
370
    -3
  6
Continuous
100
AcDbCircle
 10
-105.782065
 20
-57.022217
 30
0.0
 40
3.0
100
AcDbArc
 50
120.000187
 51
131.810315
  0
LINE
  5
25A
100
AcDbEntity
  8
0
370
    -3
  6
Continuous
100
AcDbLine
 10
-111.782065
 20
-6.672968
 30
0.0
 11
-111.782065
 21
-119.172968
 31
0.0
  0
LINE
  5
25B
100
AcDbEntity
  8
0
370
    -3
  6
Continuous
100
AcDbLine
 10
-107.782065
 20
-6.672968
 30
0.0
 11
-107.782065
 21
-110.672968
 31
0.0
  0
LINE
  5
25C
100
AcDbEntity
  8
0
370
    -3
  6
Continuous
100
AcDbLine
 10
-105.782065
 20
-6.672968
 30
0.0
 11
-105.782065
 21
-51.826075
 31
0.0
  0
LINE
  5
25D
100
AcDbEntity
  8
0
370
    -3
  6
Continuous
100
AcDbLine
 10
-111.782065
 20
-6.672968
 30
0.0
 11
-111.782065
 21
105.827032
 31
0.0
  0
LINE
  5
25E
100
AcDbEntity
  8
0
370
    -3
  6
Continuous
100
AcDbLine
 10
-105.782065
 20
-6.672968
 30
0.0
 11
-105.782065
 21
38.480138
 31
0.0
  0
ARC
  5
25F
100
AcDbEntity
  8
0
370
    -3
  6
Continuous
100
AcDbCircle
 10
-130.771699
 20
104.148834
 30
0.0
 40
3.0
100
AcDbArc
 50
330.0
 51
356.309861
  0
LINE
  5
260
100
AcDbEntity
  8
0
370
    -3
  6
Continuous
100
AcDbLine
 10
-148.791389
 20
66.937816
 30
0.0
 11
-128.173623
 21
102.648834
 31
0.0
  0
ARC
  5
261
100
AcDbEntity
  8
0
370
    -3
  6
Continuous
100
AcDbCircle
 10
-125.782065
 20
103.827032
 30
0.0
 40
2.0
100
AcDbArc
 50
90.0
 51
180.0
  0
LINE
  5
262
100
AcDbEntity
  8
0
370
    -3
  6
Continuous
100
AcDbLine
 10
-125.782065
 20
105.827032
 30
0.0
 11
-111.782065
 21
105.827032
 31
0.0
  0
LINE
  5
263
100
AcDbEntity
  8
0
370
    -3
  6
Continuous
100
AcDbLine
 10
-211.782065
 20
63.327032
 30
0.0
 11
-140.124214
 21
65.829379
 31
0.0
  0
ARC
  5
264
100
AcDbEntity
  8
0
370
    -3
  6
Continuous
100
AcDbCircle
 10
-104.782065
 20
27.827032
 30
0.0
 40
1.0
100
AcDbArc
 50
180.0
 51
270.0
  0
ARC
  5
265
100
AcDbEntity
  8
0
370
    -3
  6
Continuous
100
AcDbCircle
 10
-104.782065
 20
-41.172968
 30
0.0
 40
1.0
100
AcDbArc
 50
90.0
 51
180.0
  0
ARC
  5
266
100
AcDbEntity
  8
0
370
    -3
  6
Continuous
100
AcDbCircle
 10
-125.782065
 20
-129.11719
 30
0.0
 40
3.0
100
AcDbArc
 50
268.371218
 51
0.0
  0
ARC
  5
267
100
AcDbEntity
  8
0
370
    -3
  6
Continuous
100
AcDbCircle
 10
-119.782065
 20
-122.172968
 30
0.0
 40
3.0
100
AcDbArc
 50
90.0
 51
180.0
  0
ARC
  5
268
100
AcDbEntity
  8
0
370
    -3
  6
Continuous
100
AcDbCircle
 10
-151.389465
 20
68.437816
 30
0.0
 40
3.0
100
AcDbArc
 50
272.0
 51
330.0
  0
ARC
  5
269
100
AcDbEntity
  8
0
370
    -3
  6
Continuous
100
AcDbCircle
 10
-108.782082
 20
-51.826075
 30
0.0
 40
3.0
100
AcDbArc
 50
300.000187
 51
0.0
  0
LINE
  5
26A
100
AcDbEntity
  8
0
370
    -3
  6
Continuous
100
AcDbLine
 10
-211.782065
 20
-129.672968
 30
0.0
 11
-211.782065
 21
63.327032
 31
0.0
  0
LINE
  5
26B
100
AcDbEntity
  8
0
370
    -3
  6
Continuous
100
AcDbLine
 10
-103.782065
 20
-40.172968
 30
0.0
 11
-103.782065
 21
26.827032
 31
0.0
  0
LINE
  5
26C
100
AcDbEntity
  8
0
370
    -3
  6
Continuous
100
AcDbLine
 10
-104.782065
 20
-40.172968
 30
0.0
 11
-103.782065
 21
-40.172968
 31
0.0
  0
LINE
  5
26D
100
AcDbEntity
  8
0
370
    -3
  6
Continuous
100
AcDbLine
 10
-104.782065
 20
26.827032
 30
0.0
 11
-103.782065
 21
26.827032
 31
0.0
  0
LINE
  5
26E
100
AcDbEntity
  8
0
370
    -3
  6
Continuous
100
AcDbLine
 10
-122.782065
 20
-122.172968
 30
0.0
 11
-122.782065
 21
-129.11719
 31
0.0
  0
LINE
  5
26F
100
AcDbEntity
  8
0
370
    -3
  6
Continuous
100
AcDbLine
 10
-211.782065
 20
-129.672968
 30
0.0
 11
-125.867337
 21
-132.115977
 31
0.0
  0
LINE
  5
270
100
AcDbEntity
  8
0
370
    -3
  6
Continuous
100
AcDbLine
 10
-111.782065
 20
98.327032
 30
0.0
 11
-108.782065
 21
98.327032
 31
0.0
  0
LINE
  5
271
100
AcDbEntity
  8
0
370
    -3
  6
Continuous
100
AcDbLine
 10
-108.782065
 20
98.327032
 30
0.0
 11
-107.782065
 21
97.327032
 31
0.0
  0
LINE
  5
272
100
AcDbEntity
  8
0
370
    -3
  6
Continuous
100
AcDbLine
 10
-108.782065
 20
-111.672968
 30
0.0
 11
-111.782065
 21
-111.672968
 31
0.0
  0
LINE
  5
273
100
AcDbEntity
  8
0
370
    -3
  6
Continuous
100
AcDbLine
 10
-107.782065
 20
-110.672968
 30
0.0
 11
-108.782065
 21
-111.672968
 31
0.0
  0
LINE
  5
274
100
AcDbEntity
  8
0
370
    -3
  6
Continuous
100
AcDbLine
 10
-118.828105
 20
-118.850399
 30
0.0
 11
-118.828105
 21
-119.172968
 31
0.0
  0
LINE
  5
275
100
AcDbEntity
  8
0
370
    -3
  6
Continuous
100
AcDbLine
 10
-130.763081
 20
48.767486
 30
0.0
 11
-147.512519
 21
48.767486
 31
0.0
  0
LINE
  5
276
100
AcDbEntity
  8
0
370
    -3
  6
Continuous
100
AcDbLine
 10
-148.722708
 20
55.349832
 30
0.0
 11
-128.462833
 21
80.041866
 31
0.0
  0
ARC
  5
277
100
AcDbEntity
  8
0
370
    -3
  6
Continuous
100
AcDbCircle
 10
-151.04194
 20
57.252767
 30
0.0
 40
3.0
100
AcDbArc
 50
270.0
 51
320.631038
  0
LINE
  5
278
100
AcDbEntity
  8
0
370
    -3
  6
Continuous
100
AcDbLine
 10
-148.722708
 20
49.86455
 30
0.0
 11
-128.462833
 21
74.556585
 31
0.0
  0
ARC
  5
279
100
AcDbEntity
  8
0
370
    -3
  6
Continuous
100
AcDbCircle
 10
-151.04194
 20
51.767486
 30
0.0
 40
3.0
100
AcDbArc
 50
270.0
 51
320.631038
  0
ARC
  5
27A
100
AcDbEntity
  8
0
370
    -3
  6
Continuous
100
AcDbCircle
 10
-130.782065
 20
81.944802
 30
0.0
 40
3.0
100
AcDbArc
 50
320.631038
 51
0.0
  0
ARC
  5
27B
100
AcDbEntity
  8
0
370
    -3
  6
Continuous
100
AcDbCircle
 10
-130.782065
 20
76.45952
 30
0.0
 40
3.0
100
AcDbArc
 50
320.631038
 51
0.0
  0
LINE
  5
27C
100
AcDbEntity
  8
0
370
    -3
  6
Continuous
100
AcDbLine
 10
-243.282066
 20
56.977511
 30
0.0
 11
-250.782065
 21
56.977511
 31
0.0
  0
LINE
  5
27D
100
AcDbEntity
  8
0
370
    -3
  6
Continuous
100
AcDbLine
 10
-250.782065
 20
56.977511
 30
0.0
 11
-251.282065
 21
56.111387
 31
0.0
  0
LINE
  5
27E
100
AcDbEntity
  8
0
370
    -3
  6
Continuous
100
AcDbLine
 10
-250.782065
 20
56.977511
 30
0.0
 11
-250.782065
 21
47.396873
 31
0.0
  0
LINE
  5
27F
100
AcDbEntity
  8
0
370
    -3
  6
Continuous
100
AcDbLine
 10
-251.282065
 20
56.111387
 30
0.0
 11
-251.282065
 21
47.379412
 31
0.0
  0
INSERT
  5
28B
100
AcDbEntity
  8
0
100
AcDbBlockReference
  2
ZU_SYM__USERS_HOME_SYMBOL_POO_SYM_B20_-1
 10
-224.282065
 20
44.327032
 30
0.0
  0
INSERT
  5
297
100
AcDbEntity
  8
0
100
AcDbBlockReference
  2
ZU_SYM__USERS_HOME_SYMBOL_POO_SYM_B20_00004-1
 10
-224.282065
 20
-31.672968
 30
0.0
  0
INSERT
  5
2A3
100
AcDbEntity
  8
0
100
AcDbBlockReference
  2
ZU_SYM__USERS_HOME_SYMBOL_POO_SYM_B20_00005-1
 10
-224.282065
 20
-119.672968
 30
0.0
  0
CIRCLE
  5
2A4
100
AcDbEntity
  8
0
370
    -3
  6
Continuous
100
AcDbCircle
 10
146.689083
 20
-6.672968
 30
0.0
 40
4.0
  0
CIRCLE
  5
2A5
100
AcDbEntity
  8
0
370
    -3
  6
Continuous
100
AcDbCircle
 10
146.689083
 20
-6.672968
 30
0.0
 40
3.3235
  0
LINE
  5
2A6
100
AcDbEntity
  8
0
370
    -3
  6
Continuous
100
AcDbLine
 10
127.689083
 20
-1.672968
 30
0.0
 11
135.689083
 21
-1.672968
 31
0.0
  0
LINE
  5
2A7
100
AcDbEntity
  8
0
370
    -3
  6
Continuous
100
AcDbLine
 10
127.689083
 20
-11.672968
 30
0.0
 11
127.689083
 21
-1.672968
 31
0.0
  0
ARC
  5
2A8
100
AcDbEntity
  8
0
370
    -3
  6
Continuous
100
AcDbCircle
 10
146.689083
 20
-6.672968
 30
0.0
 40
16.0
100
AcDbArc
 50
198.209957
 51
161.790043
  0
LINE
  5
2A9
100
AcDbEntity
  8
0
370
    -3
  6
Continuous
100
AcDbLine
 10
135.689083
 20
-11.672968
 30
0.0
 11
135.689083
 21
-1.672968
 31
0.0
  0
LINE
  5
2AA
100
AcDbEntity
  8
0
370
    -3
  6
Continuous
100
AcDbLine
 10
127.689083
 20
-11.672968
 30
0.0
 11
135.689083
 21
-11.672968
 31
0.0
  0
LINE
  5
2AB
100
AcDbEntity
  8
0
370
    -3
  6
CENTER
100
AcDbLine
 10
177.873334
 20
-36.672968
 30
0.0
 11
117.861062
 21
-36.672968
 31
0.0
  0
CIRCLE
  5
2AC
100
AcDbEntity
  8
0
370
    -3
  6
Continuous
100
AcDbCircle
 10
146.689083
 20
-6.672968
 30
0.0
 40
23.5
  0
CIRCLE
  5
2AD
100
AcDbEntity
  8
0
370
    -3
  6
Continuous
100
AcDbCircle
 10
146.689083
 20
-6.672968
 30
0.0
 40
48.0
  0
ARC
  5
2AE
100
AcDbEntity
  8
0
370
    -3
  6
Continuous
100
AcDbCircle
 10
238.804307
 20
-117.172968
 30
0.0
 40
2.0
100
AcDbArc
 50
225.0
 51
270.0
  0
CIRCLE
  5
2AF
100
AcDbEntity
  8
0
370
    -3
  6
Continuous
100
AcDbCircle
 10
245.684032
 20
-105.667918
 30
0.0
 40
7.5
  0
ARC
  5
2B0
100
AcDbEntity
  8
0
370
    -3
  6
Continuous
100
AcDbCircle
 10
257.189083
 20
-98.788192
 30
0.0
 40
2.0
100
AcDbArc
 50
0.0
 51
45.0
  0
ARC
  5
2B1
100
AcDbEntity
  8
0
370
    -3
  6
Continuous
100
AcDbCircle
 10
212.002377
 20
-107.341601
 30
0.0
 40
10.0
100
AcDbArc
 50
45.0
 51
122.975301
  0
ARC
  5
2B2
100
AcDbEntity
  8
0
370
    -3
  6
Continuous
100
AcDbCircle
 10
146.689083
 20
-6.672968
 30
0.0
 40
110.0
100
AcDbArc
 50
270.0
 51
302.975301
  0
ARC
  5
2B3
100
AcDbEntity
  8
0
370
    -3
  6
Continuous
100
AcDbCircle
 10
247.357716
 20
-71.986262
 30
0.0
 40
10.0
100
AcDbArc
 50
147.024699
 51
225.0
  0
ARC
  5
2B4
100
AcDbEntity
  8
0
370
    -3
  6
Continuous
100
AcDbCircle
 10
54.573859
 20
-117.172968
 30
0.0
 40
2.0
100
AcDbArc
 50
270.0
 51
315.0
  0
CIRCLE
  5
2B5
100
AcDbEntity
  8
0
370
    -3
  6
Continuous
100
AcDbCircle
 10
47.694134
 20
-105.667918
 30
0.0
 40
7.5
  0
ARC
  5
2B6
100
AcDbEntity
  8
0
370
    -3
  6
CENTER
100
AcDbCircle
 10
146.689083
 20
-6.672968
 30
0.0
 40
140.0
100
AcDbArc
 50
220.027624
 51
229.872303
  0
ARC
  5
2B7
100
AcDbEntity
  8
0
370
    -3
  6
Continuous
100
AcDbCircle
 10
36.189083
 20
-98.788192
 30
0.0
 40
2.0
100
AcDbArc
 50
135.0
 51
180.0
  0
ARC
  5
2B8
100
AcDbEntity
  8
0
370
    -3
  6
Continuous
100
AcDbCircle
 10
81.375789
 20
-107.341601
 30
0.0
 40
10.0
100
AcDbArc
 50
57.024699
 51
135.0
  0
ARC
  5
2B9
100
AcDbEntity
  8
0
370
    -3
  6
Continuous
100
AcDbCircle
 10
146.689083
 20
-6.672968
 30
0.0
 40
110.0
100
AcDbArc
 50
237.024699
 51
270.0
  0
ARC
  5
2BA
100
AcDbEntity
  8
0
370
    -3
  6
Continuous
100
AcDbCircle
 10
46.02045
 20
-71.986262
 30
0.0
 40
10.0
100
AcDbArc
 50
315.0
 51
32.975301
  0
ARC
  5
2BB
100
AcDbEntity
  8
0
370
    -3
  6
Continuous
100
AcDbCircle
 10
54.573859
 20
103.827032
 30
0.0
 40
2.0
100
AcDbArc
 50
45.0
 51
90.0
  0
CIRCLE
  5
2BC
100
AcDbEntity
  8
0
370
    -3
  6
Continuous
100
AcDbCircle
 10
47.694134
 20
92.321981
 30
0.0
 40
7.5
  0
ARC
  5
2BD
100
AcDbEntity
  8
0
370
    -3
  6
CENTER
100
AcDbCircle
 10
146.689083
 20
-6.672968
 30
0.0
 40
140.0
100
AcDbArc
 50
130.03375
 51
139.879244
  0
ARC
  5
2BE
100
AcDbEntity
  8
0
370
    -3
  6
Continuous
100
AcDbCircle
 10
36.189083
 20
85.442255
 30
0.0
 40
2.0
100
AcDbArc
 50
180.0
 51
225.0
  0
ARC
  5
2BF
100
AcDbEntity
  8
0
370
    -3
  6
Continuous
100
AcDbCircle
 10
81.375789
 20
93.995664
 30
0.0
 40
10.0
100
AcDbArc
 50
225.0
 51
302.975301
  0
ARC
  5
2C0
100
AcDbEntity
  8
0
370
    -3
  6
Continuous
100
AcDbCircle
 10
146.689083
 20
-6.672968
 30
0.0
 40
110.0
100
AcDbArc
 50
90.0
 51
122.975301
  0
ARC
  5
2C1
100
AcDbEntity
  8
0
370
    -3
  6
Continuous
100
AcDbCircle
 10
46.02045
 20
58.640325
 30
0.0
 40
10.0
100
AcDbArc
 50
327.024699
 51
45.0
  0
ARC
  5
2C2
100
AcDbEntity
  8
0
370
    -3
  6
Continuous
100
AcDbCircle
 10
42.189083
 20
97.827032
 30
0.0
 40
8.0
100
AcDbArc
 50
90.0
 51
180.0
  0
ARC
  5
2C3
100
AcDbEntity
  8
0
370
    -3
  6
Continuous
100
AcDbCircle
 10
251.189083
 20
-111.172968
 30
0.0
 40
8.0
100
AcDbArc
 50
270.0
 51
0.0
  0
ARC
  5
2C4
100
AcDbEntity
  8
0
370
    -3
  6
Continuous
100
AcDbCircle
 10
42.189083
 20
-111.172968
 30
0.0
 40
8.0
100
AcDbArc
 50
180.0
 51
270.0
  0
CIRCLE
  5
2C5
100
AcDbEntity
  8
0
370
    -3
  6
Continuous
100
AcDbCircle
 10
146.689083
 20
-6.672968
 30
0.0
 40
99.0
  0
ARC
  5
2C6
100
AcDbEntity
  8
0
370
    -3
  6
Continuous
100
AcDbCircle
 10
257.189083
 20
85.442255
 30
0.0
 40
2.0
100
AcDbArc
 50
315.0
 51
0.0
  0
ARC
  5
2C7
100
AcDbEntity
  8
0
370
    -3
  6
Continuous
100
AcDbCircle
 10
238.804307
 20
103.827032
 30
0.0
 40
2.0
100
AcDbArc
 50
90.0
 51
135.0
  0
CIRCLE
  5
2C8
100
AcDbEntity
  8
0
370
    -3
  6
Continuous
100
AcDbCircle
 10
245.684032
 20
92.321981
 30
0.0
 40
7.5
  0
ARC
  5
2C9
100
AcDbEntity
  8
0
370
    -3
  6
CENTER
100
AcDbCircle
 10
146.689083
 20
-6.672968
 30
0.0
 40
140.0
100
AcDbArc
 50
40.014384
 51
49.960065
  0
ARC
  5
2CA
100
AcDbEntity
  8
0
370
    -3
  6
Continuous
100
AcDbCircle
 10
251.189083
 20
97.827032
 30
0.0
 40
8.0
100
AcDbArc
 50
0.0
 51
90.0
  0
CIRCLE
  5
2CB
100
AcDbEntity
  8
0
370
    -3
  6
Continuous
100
AcDbCircle
 10
146.689083
 20
-6.672968
 30
0.0
 40
105.0
  0
ARC
  5
2CC
100
AcDbEntity
  8
0
370
    -3
  6
Continuous
100
AcDbCircle
 10
247.357716
 20
58.640325
 30
0.0
 40
10.0
100
AcDbArc
 50
135.0
 51
212.975301
  0
ARC
  5
2CD
100
AcDbEntity
  8
0
370
    -3
  6
Continuous
100
AcDbCircle
 10
212.002377
 20
93.995664
 30
0.0
 40
10.0
100
AcDbArc
 50
237.024699
 51
315.0
  0
ARC
  5
2CE
100
AcDbEntity
  8
0
370
    -3
  6
Continuous
100
AcDbCircle
 10
146.689083
 20
-6.672968
 30
0.0
 40
110.0
100
AcDbArc
 50
57.024699
 51
90.0
  0
ARC
  5
2CF
100
AcDbEntity
  8
0
370
    -3
  6
Continuous
100
AcDbCircle
 10
198.689083
 20
-119.672968
 30
0.0
 40
12.566441
100
AcDbArc
 50
270.0
 51
358.21823
  0
ARC
  5
2D0
100
AcDbEntity
  8
0
370
    -3
  6
Continuous
100
AcDbCircle
 10
94.689083
 20
-119.672968
 30
0.0
 40
12.53074
100
AcDbArc
 50
181.78177
 51
270.0
  0
ARC
  5
2D1
100
AcDbEntity
  8
0
370
    -3
  6
Continuous
100
AcDbCircle
 10
216.68038
 20
-120.232638
 30
0.0
 40
5.433559
100
AcDbArc
 50
168.753929
 51
178.21823
  0
ARC
  5
2D2
100
AcDbEntity
  8
0
370
    -3
  6
Continuous
100
AcDbCircle
 10
76.697786
 20
-120.232638
 30
0.0
 40
5.46926
100
AcDbArc
 50
1.78177
 51
11.246071
  0
CIRCLE
  5
2D3
100
AcDbEntity
  8
0
370
    -3
  6
Continuous
100
AcDbCircle
 10
146.689083
 20
-6.672968
 30
0.0
 40
33.5
  0
ARC
  5
2D4
100
AcDbEntity
  8
0
370
    -3
  6
Continuous
100
AcDbCircle
 10
232.828295
 20
-44.303224
 30
0.0
 40
5.0
100
AcDbArc
 50
336.401698
 51
0.0
  0
ARC
  5
2D5
100
AcDbEntity
  8
0
370
    -3
  6
Continuous
100
AcDbCircle
 10
60.549871
 20
-44.303224
 30
0.0
 40
5.0
100
AcDbArc
 50
180.0
 51
203.598302
  0
ARC
  5
2D6
100
AcDbEntity
  8
0
370
    -3
  6
Continuous
100
AcDbCircle
 10
111.131907
 20
-45.975478
 30
0.0
 40
5.0
100
AcDbArc
 50
307.256131
 51
47.864198
  0
ARC
  5
2D7
100
AcDbEntity
  8
0
370
    -3
  6
Continuous
100
AcDbCircle
 10
133.530936
 20
-75.425155
 30
0.0
 40
32.0
100
AcDbArc
 50
127.256131
 51
198.872129
  0
ARC
  5
2D8
100
AcDbEntity
  8
0
370
    -3
  6
Continuous
100
AcDbCircle
 10
98.519952
 20
-87.39307
 30
0.0
 40
5.0
100
AcDbArc
 50
239.173668
 51
18.872129
  0
ARC
  5
2D9
100
AcDbEntity
  8
0
370
    -3
  6
Continuous
100
AcDbCircle
 10
185.483355
 20
-64.939635
 30
0.0
 40
27.0
100
AcDbArc
 50
353.114296
 51
77.708023
  0
ARC
  5
2DA
100
AcDbEntity
  8
0
370
    -3
  6
Continuous
100
AcDbCircle
 10
192.29595
 20
-33.673222
 30
0.0
 40
5.0
100
AcDbArc
 50
149.373547
 51
257.708023
  0
ARC
  5
2DB
100
AcDbEntity
  8
0
370
    -3
  6
Continuous
100
AcDbCircle
 10
217.252548
 20
-68.776087
 30
0.0
 40
5.0
100
AcDbArc
 50
173.114296
 51
318.648897
  0
ARC
  5
2DC
100
AcDbEntity
  8
0
370
    -3
  6
Continuous
100
AcDbCircle
 10
195.127531
 20
-28.183821
 30
0.0
 40
5.0
100
AcDbArc
 50
156.054647
 51
255.297859
  0
ARC
  5
2DD
100
AcDbEntity
  8
0
370
    -3
  6
Continuous
100
AcDbCircle
 10
185.483355
 20
-64.939635
 30
0.0
 40
33.0
100
AcDbArc
 50
5.724046
 51
75.297859
  0
ARC
  5
2DE
100
AcDbEntity
  8
0
370
    -3
  6
Continuous
100
AcDbCircle
 10
223.29388
 20
-61.149616
 30
0.0
 40
5.0
100
AcDbArc
 50
185.724046
 51
324.581889
  0
ARC
  5
2DF
100
AcDbEntity
  8
0
370
    -3
  6
Continuous
100
AcDbCircle
 10
106.889368
 20
-41.672721
 30
0.0
 40
5.0
100
AcDbArc
 50
308.284839
 51
41.328302
  0
ARC
  5
2E0
100
AcDbEntity
  8
0
370
    -3
  6
Continuous
100
AcDbCircle
 10
133.530936
 20
-75.425155
 30
0.0
 40
38.0
100
AcDbArc
 50
128.284839
 51
189.4497
  0
ARC
  5
2E1
100
AcDbEntity
  8
0
370
    -3
  6
Continuous
100
AcDbCircle
 10
91.114441
 20
-82.484967
 30
0.0
 40
5.0
100
AcDbArc
 50
233.756398
 51
9.4497
  0
ARC
  5
2E2
100
AcDbEntity
  8
0
370
    -3
  6
Continuous
100
AcDbCircle
 10
96.043254
 20
-0.672968
 30
0.0
 40
3.0
100
AcDbArc
 50
270.0
 51
353.243673
  0
ARC
  5
2E3
100
AcDbEntity
  8
0
370
    -3
  6
Continuous
100
AcDbCircle
 10
96.043254
 20
-12.672968
 30
0.0
 40
3.0
100
AcDbArc
 50
6.756327
 51
90.0
  0
ARC
  5
2E4
100
AcDbEntity
  8
0
370
    -3
  6
Continuous
100
AcDbCircle
 10
50.876766
 20
-12.672968
 30
0.0
 40
3.0
100
AcDbArc
 50
90.0
 51
183.583322
  0
ARC
  5
2E5
100
AcDbEntity
  8
0
370
    -3
  6
Continuous
100
AcDbCircle
 10
50.876766
 20
-0.672968
 30
0.0
 40
3.0
100
AcDbArc
 50
176.416678
 51
270.0
  0
ARC
  5
2E6
100
AcDbEntity
  8
0
370
    -3
  6
Continuous
100
AcDbCircle
 10
132.689083
 20
-16.906367
 30
0.0
 40
77.139212
100
AcDbArc
 50
91.910213
 51
165.359523
  0
ARC
  5
2E7
100
AcDbEntity
  8
0
370
    -3
  6
Continuous
100
AcDbCircle
 10
62.89217
 20
1.327032
 30
0.0
 40
5.0
100
AcDbArc
 50
165.359523
 51
270.0
  0
ARC
  5
2E8
100
AcDbEntity
  8
0
370
    -3
  6
Continuous
100
AcDbCircle
 10
132.689083
 20
-16.906367
 30
0.0
 40
77.139212
100
AcDbArc
 50
178.225864
 51
180.0
  0
ARC
  5
2E9
100
AcDbEntity
  8
0
370
    -3
  6
Continuous
100
AcDbCircle
 10
60.584452
 20
-14.672968
 30
0.0
 40
5.0
100
AcDbArc
 50
90.0
 51
178.225864
  0
ARC
  5
2EA
100
AcDbEntity
  8
0
370
    -3
  6
Continuous
100
AcDbCircle
 10
232.793714
 20
-14.672968
 30
0.0
 40
5.0
100
AcDbArc
 50
1.774136
 51
90.0
  0
ARC
  5
2EB
100
AcDbEntity
  8
0
370
    -3
  6
Continuous
100
AcDbCircle
 10
230.485996
 20
1.327032
 30
0.0
 40
5.0
100
AcDbArc
 50
270.0
 51
14.640477
  0
ARC
  5
2EC
100
AcDbEntity
  8
0
370
    -3
  6
Continuous
100
AcDbCircle
 10
242.5014
 20
-12.672968
 30
0.0
 40
3.0
100
AcDbArc
 50
356.416678
 51
90.0
  0
ARC
  5
2ED
100
AcDbEntity
  8
0
370
    -3
  6
Continuous
100
AcDbCircle
 10
242.5014
 20
-0.672968
 30
0.0
 40
3.0
100
AcDbArc
 50
270.0
 51
3.583322
  0
ARC
  5
2EE
100
AcDbEntity
  8
0
370
    -3
  6
Continuous
100
AcDbCircle
 10
197.334912
 20
-0.672968
 30
0.0
 40
3.0
100
AcDbArc
 50
186.756327
 51
270.0
  0
ARC
  5
2EF
100
AcDbEntity
  8
0
370
    -3
  6
Continuous
100
AcDbCircle
 10
197.334912
 20
-12.672968
 30
0.0
 40
3.0
100
AcDbArc
 50
90.0
 51
173.243673
  0
ARC
  5
2F0
100
AcDbEntity
  8
0
370
    -3
  6
Continuous
100
AcDbCircle
 10
160.689083
 20
-16.906367
 30
0.0
 40
77.139212
100
AcDbArc
 50
14.640477
 51
18.250683
  0
ARC
  5
2F1
100
AcDbEntity
  8
0
370
    -3
  6
Continuous
100
AcDbCircle
 10
160.689083
 20
-16.906367
 30
0.0
 40
77.139212
100
AcDbArc
 50
0.0
 51
1.774136
  0
ARC
  5
2F2
100
AcDbEntity
  8
0
370
    -3
  6
Continuous
100
AcDbCircle
 10
140.689083
 20
43.972861
 30
0.0
 40
3.0
100
AcDbArc
 50
276.756327
 51
0.0
  0
ARC
  5
2F3
100
AcDbEntity
  8
0
370
    -3
  6
Continuous
100
AcDbCircle
 10
152.689083
 20
43.972861
 30
0.0
 40
3.0
100
AcDbArc
 50
180.0
 51
263.243673
  0
ARC
  5
2F4
100
AcDbEntity
  8
0
370
    -3
  6
Continuous
100
AcDbCircle
 10
152.689083
 20
89.139348
 30
0.0
 40
3.0
100
AcDbArc
 50
86.416678
 51
180.0
  0
ARC
  5
2F5
100
AcDbEntity
  8
0
370
    -3
  6
Continuous
100
AcDbCircle
 10
140.689083
 20
89.139348
 30
0.0
 40
3.0
100
AcDbArc
 50
0.0
 51
93.583322
  0
ARC
  5
2F6
100
AcDbEntity
  8
0
370
    -3
  6
Continuous
100
AcDbCircle
 10
146.689083
 20
-436.672968
 30
0.0
 40
497.139212
100
AcDbArc
 50
88.089787
 51
89.304279
  0
ARC
  5
2F7
100
AcDbEntity
  8
0
370
    -3
  6
Continuous
100
AcDbCircle
 10
152.689083
 20
57.429815
 30
0.0
 40
3.0
100
AcDbArc
 50
89.304279
 51
180.0
  0
ARC
  5
2F8
100
AcDbEntity
  8
0
370
    -3
  6
Continuous
100
AcDbCircle
 10
146.689083
 20
-436.672968
 30
0.0
 40
497.139212
100
AcDbArc
 50
90.695721
 51
91.910213
  0
ARC
  5
2F9
100
AcDbEntity
  8
0
370
    -3
  6
Continuous
100
AcDbCircle
 10
140.689083
 20
57.429815
 30
0.0
 40
3.0
100
AcDbArc
 50
0.0
 51
90.695721
  0
ARC
  5
2FA
100
AcDbEntity
  8
0
370
    -3
  6
Continuous
100
AcDbCircle
 10
257.189083
 20
-3.672968
 30
0.0
 40
2.0
100
AcDbArc
 50
0.0
 51
63.214562
  0
ARC
  5
2FB
100
AcDbEntity
  8
0
370
    -3
  6
Continuous
100
AcDbCircle
 10
259.442336
 20
0.790534
 30
0.0
 40
3.0
100
AcDbArc
 50
183.787068
 51
243.214562
  0
ARC
  5
2FC
100
AcDbEntity
  8
0
370
    -3
  6
Continuous
100
AcDbCircle
 10
256.189083
 20
-8.672968
 30
0.0
 40
3.0
100
AcDbArc
 50
303.156214
 51
0.0
  0
ARC
  5
2FD
100
AcDbEntity
  8
0
370
    -3
  6
Continuous
100
AcDbCircle
 10
259.470625
 20
-13.696064
 30
0.0
 40
3.0
100
AcDbArc
 50
123.156214
 51
176.436697
  0
ARC
  5
2FE
100
AcDbEntity
  8
0
370
    -3
  6
Continuous
100
AcDbCircle
 10
37.189083
 20
-8.672968
 30
0.0
 40
3.0
100
AcDbArc
 50
180.0
 51
236.843786
  0
ARC
  5
2FF
100
AcDbEntity
  8
0
370
    -3
  6
Continuous
100
AcDbCircle
 10
33.907541
 20
-13.696064
 30
0.0
 40
3.0
100
AcDbArc
 50
3.563303
 51
56.843786
  0
ARC
  5
300
100
AcDbEntity
  8
0
370
    -3
  6
Continuous
100
AcDbCircle
 10
36.189083
 20
-3.672968
 30
0.0
 40
2.0
100
AcDbArc
 50
116.785438
 51
180.0
  0
ARC
  5
301
100
AcDbEntity
  8
0
370
    -3
  6
Continuous
100
AcDbCircle
 10
33.93583
 20
0.790534
 30
0.0
 40
3.0
100
AcDbArc
 50
296.785438
 51
356.212932
  0
ARC
  5
302
100
AcDbEntity
  8
0
370
    -3
  6
Continuous
100
AcDbCircle
 10
146.689083
 20
-6.672968
 30
0.0
 40
110.0
100
AcDbArc
 50
3.787068
 51
32.975301
  0
ARC
  5
303
100
AcDbEntity
  8
0
370
    -3
  6
Continuous
100
AcDbCircle
 10
146.689083
 20
-6.672968
 30
0.0
 40
110.0
100
AcDbArc
 50
327.024699
 51
356.436697
  0
ARC
  5
304
100
AcDbEntity
  8
0
370
    -3
  6
Continuous
100
AcDbCircle
 10
146.689083
 20
-6.672968
 30
0.0
 40
110.0
100
AcDbArc
 50
147.024699
 51
176.212932
  0
ARC
  5
305
100
AcDbEntity
  8
0
370
    -3
  6
Continuous
100
AcDbCircle
 10
146.689083
 20
-6.672968
 30
0.0
 40
110.0
100
AcDbArc
 50
183.563303
 51
212.975301
  0
LINE
  5
306
100
AcDbEntity
  8
0
370
    -3
  6
CENTER
100
AcDbLine
 10
271.406816
 20
-6.672968
 30
0.0
 11
146.689083
 21
-6.672968
 31
0.0
  0
LINE
  5
307
100
AcDbEntity
  8
0
370
    -3
  6
CENTER
100
AcDbLine
 10
146.689083
 20
111.88128
 30
0.0
 11
146.689083
 21
-6.672968
 31
0.0
  0
LINE
  5
308
100
AcDbEntity
  8
0
370
    -3
  6
CENTER
100
AcDbLine
 10
27.054864
 20
-6.672968
 30
0.0
 11
146.689083
 21
-6.672968
 31
0.0
  0
LINE
  5
309
100
AcDbEntity
  8
0
370
    -3
  6
Continuous
100
AcDbLine
 10
237.390093
 20
-118.587182
 30
0.0
 11
219.073445
 21
-100.270533
 31
0.0
  0
LINE
  5
30A
100
AcDbEntity
  8
0
370
    -3
  6
Continuous
100
AcDbLine
 10
258.603297
 20
-97.373979
 30
0.0
 11
240.286648
 21
-79.05733
 31
0.0
  0
LINE
  5
30B
100
AcDbEntity
  8
0
370
    -3
  6
Continuous
100
AcDbLine
 10
55.988073
 20
-118.587182
 30
0.0
 11
74.304721
 21
-100.270533
 31
0.0
  0
LINE
  5
30C
100
AcDbEntity
  8
0
370
    -3
  6
Continuous
100
AcDbLine
 10
34.774869
 20
-97.373979
 30
0.0
 11
53.091518
 21
-79.05733
 31
0.0
  0
LINE
  5
30D
100
AcDbEntity
  8
0
370
    -3
  6
Continuous
100
AcDbLine
 10
55.988073
 20
105.241245
 30
0.0
 11
74.304721
 21
86.924597
 31
0.0
  0
LINE
  5
30E
100
AcDbEntity
  8
0
370
    -3
  6
Continuous
100
AcDbLine
 10
34.774869
 20
84.028042
 30
0.0
 11
53.091518
 21
65.711393
 31
0.0
  0
LINE
  5
30F
100
AcDbEntity
  8
0
370
    -3
  6
Continuous
100
AcDbLine
 10
34.189083
 20
97.827032
 30
0.0
 11
34.189083
 21
-111.172968
 31
0.0
  0
LINE
  5
310
100
AcDbEntity
  8
0
370
    -3
  6
Continuous
100
AcDbLine
 10
42.189083
 20
105.827032
 30
0.0
 11
251.189083
 21
105.827032
 31
0.0
  0
LINE
  5
311
100
AcDbEntity
  8
0
370
    -3
  6
Continuous
100
AcDbLine
 10
42.189083
 20
-119.172968
 30
0.0
 11
251.189083
 21
-119.172968
 31
0.0
  0
LINE
  5
312
100
AcDbEntity
  8
0
370
    -3
  6
Continuous
100
AcDbLine
 10
258.603297
 20
84.028042
 30
0.0
 11
240.286648
 21
65.711393
 31
0.0
  0
LINE
  5
313
100
AcDbEntity
  8
0
370
    -3
  6
Continuous
100
AcDbLine
 10
237.390093
 20
105.241245
 30
0.0
 11
219.073445
 21
86.924597
 31
0.0
  0
LINE
  5
314
100
AcDbEntity
  8
0
370
    -3
  6
CENTER
100
AcDbLine
 10
255.907266
 20
102.545214
 30
0.0
 11
234.988928
 21
81.626877
 31
0.0
  0
LINE
  5
315
100
AcDbEntity
  8
0
370
    -3
  6
Continuous
100
AcDbLine
 10
198.689083
 20
-132.172968
 30
0.0
 11
146.689083
 21
-132.172968
 31
0.0
  0
LINE
  5
316
100
AcDbEntity
  8
0
370
    -3
  6
Continuous
100
AcDbLine
 10
94.689083
 20
-132.172968
 30
0.0
 11
146.689083
 21
-132.172968
 31
0.0
  0
LINE
  5
317
100
AcDbEntity
  8
0
370
    -3
  6
Continuous
100
AcDbLine
 10
237.828295
 20
-16.906367
 30
0.0
 11
237.828295
 21
-44.303224
 31
0.0
  0
LINE
  5
318
100
AcDbEntity
  8
0
370
    -3
  6
Continuous
100
AcDbLine
 10
55.549871
 20
-16.906367
 30
0.0
 11
55.549871
 21
-44.303224
 31
0.0
  0
LINE
  5
319
100
AcDbEntity
  8
0
370
    -3
  6
Continuous
100
AcDbLine
 10
50.876766
 20
-9.672968
 30
0.0
 11
96.043254
 21
-9.672968
 31
0.0
  0
LINE
  5
31A
100
AcDbEntity
  8
0
370
    -3
  6
Continuous
100
AcDbLine
 10
50.876766
 20
-3.672968
 30
0.0
 11
96.043254
 21
-3.672968
 31
0.0
  0
LINE
  5
31B
100
AcDbEntity
  8
0
370
    -3
  6
Continuous
100
AcDbLine
 10
242.5014
 20
-9.672968
 30
0.0
 11
197.334912
 21
-9.672968
 31
0.0
  0
LINE
  5
31C
100
AcDbEntity
  8
0
370
    -3
  6
Continuous
100
AcDbLine
 10
242.5014
 20
-3.672968
 30
0.0
 11
197.334912
 21
-3.672968
 31
0.0
  0
LINE
  5
31D
100
AcDbEntity
  8
0
370
    -3
  6
Continuous
100
AcDbLine
 10
149.689083
 20
89.139348
 30
0.0
 11
149.689083
 21
43.972861
 31
0.0
  0
LINE
  5
31E
100
AcDbEntity
  8
0
370
    -3
  6
Continuous
100
AcDbLine
 10
143.689083
 20
89.139348
 30
0.0
 11
143.689083
 21
43.972861
 31
0.0
  0
LINE
  5
31F
100
AcDbEntity
  8
0
370
    -3
  6
CENTER
100
AcDbLine
 10
146.689083
 20
-6.672968
 30
0.0
 11
146.689083
 21
-139.247391
 31
0.0
  0
LINE
  5
320
100
AcDbEntity
  8
0
370
    -3
  6
Continuous
100
AcDbLine
 10
259.189083
 20
97.827032
 30
0.0
 11
259.189083
 21
-1.672968
 31
0.0
  0
LINE
  5
321
100
AcDbEntity
  8
0
370
    -3
  6
Continuous
100
AcDbLine
 10
259.189083
 20
-1.672968
 30
0.0
 11
259.189083
 21
-11.672968
 31
0.0
  0
LINE
  5
322
100
AcDbEntity
  8
0
370
    -3
  6
Continuous
100
AcDbLine
 10
259.189083
 20
-11.672968
 30
0.0
 11
259.189083
 21
-111.172968
 31
0.0
  0
LINE
  5
323
100
AcDbEntity
  8
0
370
    -3
  6
CENTER
100
AcDbLine
 10
37.4709
 20
102.545214
 30
0.0
 11
58.389238
 21
81.626877
 31
0.0
  0
LINE
  5
324
100
AcDbEntity
  8
0
370
    -3
  6
CENTER
100
AcDbLine
 10
37.4709
 20
-115.891151
 30
0.0
 11
58.389238
 21
-94.972814
 31
0.0
  0
LINE
  5
325
100
AcDbEntity
  8
0
370
    -3
  6
CENTER
100
AcDbLine
 10
255.907266
 20
-115.891151
 30
0.0
 11
234.988928
 21
-94.972814
 31
0.0
  0
ARC
  5
326
100
AcDbEntity
  8
0
370
    -3
  6
CENTER
100
AcDbCircle
 10
146.689083
 20
-6.672968
 30
0.0
 40
140.0
100
AcDbArc
 50
310.03375
 51
319.879244
  0
LINE
  5
327
100
AcDbEntity
  8
0
370
    -3
  6
Continuous
100
AcDbLine
 10
-211.782065
 20
210.713016
 30
0.0
 11
-130.677367
 21
207.880778
 31
0.0
  0
ARC
  5
328
100
AcDbEntity
  8
0
370
    -3
  6
Continuous
100
AcDbCircle
 10
-130.782065
 20
204.882606
 30
0.0
 40
3.0
100
AcDbArc
 50
0.0
 51
88.0
  0
LINE
  5
329
100
AcDbEntity
  8
0
370
    -3
  6
Continuous
100
AcDbLine
 10
-212.282065
 20
304.713016
 30
0.0
 11
-212.282065
 21
210.713016
 31
0.0
  0
ARC
  5
32A
100
AcDbEntity
  8
0
370
    -3
  6
Continuous
100
AcDbCircle
 10
-222.282065
 20
212.713016
 30
0.0
 40
2.0
100
AcDbArc
 50
180.0
 51
270.0
  0
ARC
  5
32B
100
AcDbEntity
  8
0
370
    -3
  6
Continuous
100
AcDbCircle
 10
-227.282065
 20
281.213016
 30
0.0
 40
3.0
100
AcDbArc
 50
0.0
 51
90.0
  0
LINE
  5
32C
100
AcDbEntity
  8
0
370
    -3
  6
Continuous
100
AcDbLine
 10
-211.782065
 20
210.713016
 30
0.0
 11
-224.282065
 21
210.713016
 31
0.0
  0
ARC
  5
32D
100
AcDbEntity
  8
0
370
    -3
  6
Continuous
100
AcDbCircle
 10
-224.282065
 20
212.713016
 30
0.0
 40
2.0
100
AcDbArc
 50
180.0
 51
270.0
  0
LINE
  5
32E
100
AcDbEntity
  8
0
370
    -3
  6
Continuous
100
AcDbLine
 10
-224.282065
 20
281.213016
 30
0.0
 11
-224.282065
 21
212.713016
 31
0.0
  0
ARC
  5
32F
100
AcDbEntity
  8
0
370
    -3
  6
Continuous
100
AcDbCircle
 10
-235.782065
 20
287.213016
 30
0.0
 40
3.0
100
AcDbArc
 50
180.0
 51
270.0
  0
LINE
  5
330
100
AcDbEntity
  8
0
370
    -3
  6
Continuous
100
AcDbLine
 10
-238.782065
 20
304.713016
 30
0.0
 11
-238.782065
 21
284.213016
 31
0.0
  0
LINE
  5
331
100
AcDbEntity
  8
0
370
    -3
  6
Continuous
100
AcDbLine
 10
-243.282065
 20
304.713016
 30
0.0
 11
-243.282065
 21
284.213016
 31
0.0
  0
LINE
  5
332
100
AcDbEntity
  8
0
370
    -3
  6
Continuous
100
AcDbLine
 10
-238.782065
 20
284.213016
 30
0.0
 11
-243.282065
 21
284.213016
 31
0.0
  0
LINE
  5
333
100
AcDbEntity
  8
0
370
    -3
  6
Continuous
100
AcDbLine
 10
-227.282065
 20
284.213016
 30
0.0
 11
-235.782065
 21
284.213016
 31
0.0
  0
ARC
  5
334
100
AcDbEntity
  8
0
370
    -3
  6
Continuous
100
AcDbCircle
 10
-227.282065
 20
217.250867
 30
0.0
 40
3.0
100
AcDbArc
 50
0.0
 51
88.0
  0
LINE
  5
335
100
AcDbEntity
  8
0
370
    -3
  6
Continuous
100
AcDbLine
 10
-254.782065
 20
221.213016
 30
0.0
 11
-227.177367
 21
220.249039
 31
0.0
  0
LINE
  5
336
100
AcDbEntity
  8
0
370
    -3
  6
Continuous
100
AcDbLine
 10
-226.282065
 20
217.320708
 30
0.0
 11
-226.282065
 21
212.713016
 31
0.0
  0
ARC
  5
337
100
AcDbEntity
  8
0
370
    -3
  6
Continuous
100
AcDbCircle
 10
-229.282065
 20
217.320708
 30
0.0
 40
3.0
100
AcDbArc
 50
0.0
 51
88.0
  0
LINE
  5
338
100
AcDbEntity
  8
0
370
    -3
  6
Continuous
100
AcDbLine
 10
-254.782065
 20
304.713016
 30
0.0
 11
-254.782065
 21
221.213016
 31
0.0
  0
ARC
  5
339
100
AcDbEntity
  8
0
370
    -3
  6
Continuous
100
AcDbCircle
 10
-227.282065
 20
328.213016
 30
0.0
 40
3.0
100
AcDbArc
 50
270.0
 51
0.0
  0
ARC
  5
33A
100
AcDbEntity
  8
0
370
    -3
  6
Continuous
100
AcDbCircle
 10
-235.782065
 20
322.213016
 30
0.0
 40
3.0
100
AcDbArc
 50
90.0
 51
180.0
  0
LINE
  5
33B
100
AcDbEntity
  8
0
370
    -3
  6
Continuous
100
AcDbLine
 10
-238.782065
 20
304.713016
 30
0.0
 11
-238.782065
 21
325.213016
 31
0.0
  0
LINE
  5
33C
100
AcDbEntity
  8
0
370
    -3
  6
Continuous
100
AcDbLine
 10
-243.282065
 20
304.713016
 30
0.0
 11
-243.282065
 21
325.213016
 31
0.0
  0
LINE
  5
33D
100
AcDbEntity
  8
0
370
    -3
  6
Continuous
100
AcDbLine
 10
-238.782065
 20
325.213016
 30
0.0
 11
-243.282065
 21
325.213016
 31
0.0
  0
LINE
  5
33E
100
AcDbEntity
  8
0
370
    -3
  6
Continuous
100
AcDbLine
 10
-227.282065
 20
325.213016
 30
0.0
 11
-235.782065
 21
325.213016
 31
0.0
  0
ARC
  5
33F
100
AcDbEntity
  8
0
370
    -3
  6
Continuous
100
AcDbCircle
 10
-130.782065
 20
310.713016
 30
0.0
 40
3.0
100
AcDbArc
 50
270.0
 51
0.0
  0
ARC
  5
340
100
AcDbEntity
  8
0
370
    -3
  6
Continuous
100
AcDbCircle
 10
-130.782065
 20
298.713016
 30
0.0
 40
3.0
100
AcDbArc
 50
0.0
 51
90.0
  0
LINE
  5
341
100
AcDbEntity
  8
0
370
    -3
  6
Continuous
100
AcDbLine
 10
-146.622852
 20
301.713016
 30
0.0
 11
-130.782065
 21
301.713016
 31
0.0
  0
ARC
  5
342
100
AcDbEntity
  8
0
370
    -3
  6
Continuous
100
AcDbCircle
 10
-146.622852
 20
298.713016
 30
0.0
 40
3.0
100
AcDbArc
 50
90.0
 51
180.0
  0
LINE
  5
343
100
AcDbEntity
  8
0
370
    -3
  6
Continuous
100
AcDbLine
 10
-146.622852
 20
307.713016
 30
0.0
 11
-130.782065
 21
307.713016
 31
0.0
  0
ARC
  5
344
100
AcDbEntity
  8
0
370
    -3
  6
Continuous
100
AcDbCircle
 10
-146.622852
 20
310.713016
 30
0.0
 40
3.0
100
AcDbArc
 50
180.0
 51
270.0
  0
ARC
  5
345
100
AcDbEntity
  8
0
370
    -3
  6
Continuous
100
AcDbCircle
 10
-151.072901
 20
247.203627
 30
0.0
 40
3.0
100
AcDbArc
 50
38.406433
 51
90.0
  0
LINE
  5
346
100
AcDbEntity
  8
0
370
    -3
  6
Continuous
100
AcDbLine
 10
-148.72203
 20
249.067334
 30
0.0
 11
-128.431194
 21
223.472575
 31
0.0
  0
ARC
  5
347
100
AcDbEntity
  8
0
370
    -3
  6
Continuous
100
AcDbCircle
 10
-130.782065
 20
221.608867
 30
0.0
 40
3.0
100
AcDbArc
 50
0.0
 51
38.406433
  0
ARC
  5
348
100
AcDbEntity
  8
0
370
    -3
  6
Continuous
100
AcDbCircle
 10
-151.072901
 20
241.718345
 30
0.0
 40
3.0
100
AcDbArc
 50
38.406433
 51
90.0
  0
LINE
  5
349
100
AcDbEntity
  8
0
370
    -3
  6
Continuous
100
AcDbLine
 10
-148.72203
 20
243.582053
 30
0.0
 11
-128.431194
 21
217.987293
 31
0.0
  0
ARC
  5
34A
100
AcDbEntity
  8
0
370
    -3
  6
Continuous
100
AcDbCircle
 10
-130.782065
 20
216.123586
 30
0.0
 40
3.0
100
AcDbArc
 50
0.0
 51
38.406433
  0
LINE
  5
34B
100
AcDbEntity
  8
0
370
    -3
  6
Continuous
100
AcDbLine
 10
-131.037366
 20
250.203627
 30
0.0
 11
-146.020081
 21
250.203627
 31
0.0
  0
ARC
  5
34C
100
AcDbEntity
  8
0
370
    -3
  6
Continuous
100
AcDbCircle
 10
-151.072901
 20
362.222406
 30
0.0
 40
3.0
100
AcDbArc
 50
270.0
 51
321.593567
  0
LINE
  5
34D
100
AcDbEntity
  8
0
370
    -3
  6
Continuous
100
AcDbLine
 10
-131.037366
 20
359.222406
 30
0.0
 11
-146.020081
 21
359.222406
 31
0.0
  0
LINE
  5
34E
100
AcDbEntity
  8
0
370
    -3
  6
Continuous
100
AcDbLine
 10
-118.828105
 20
192.535586
 30
0.0
 11
-118.828105
 21
192.213016
 31
0.0
  0
LINE
  5
34F
100
AcDbEntity
  8
0
370
    -3
  6
Continuous
100
AcDbLine
 10
-107.782065
 20
200.713016
 30
0.0
 11
-108.782065
 21
199.713016
 31
0.0
  0
LINE
  5
350
100
AcDbEntity
  8
0
370
    -3
  6
Continuous
100
AcDbLine
 10
-108.782065
 20
199.713016
 30
0.0
 11
-111.782065
 21
199.713016
 31
0.0
  0
LINE
  5
351
100
AcDbEntity
  8
0
370
    -3
  6
Continuous
100
AcDbLine
 10
-104.782065
 20
338.213016
 30
0.0
 11
-103.782065
 21
338.213016
 31
0.0
  0
LINE
  5
352
100
AcDbEntity
  8
0
370
    -3
  6
Continuous
100
AcDbLine
 10
-104.782065
 20
271.213016
 30
0.0
 11
-103.782065
 21
271.213016
 31
0.0
  0
LINE
  5
353
100
AcDbEntity
  8
0
370
    -3
  6
Continuous
100
AcDbLine
 10
-103.782065
 20
271.213016
 30
0.0
 11
-103.782065
 21
338.213016
 31
0.0
  0
ARC
  5
354
100
AcDbEntity
  8
0
370
    -3
  6
Continuous
100
AcDbCircle
 10
-108.782082
 20
259.55991
 30
0.0
 40
3.0
100
AcDbArc
 50
300.000187
 51
0.0
  0
ARC
  5
355
100
AcDbEntity
  8
0
370
    -3
  6
Continuous
100
AcDbCircle
 10
-104.782065
 20
270.213016
 30
0.0
 40
1.0
100
AcDbArc
 50
90.0
 51
180.0
  0
ARC
  5
356
100
AcDbEntity
  8
0
370
    -3
  6
Continuous
100
AcDbCircle
 10
-104.782065
 20
339.213016
 30
0.0
 40
1.0
100
AcDbArc
 50
180.0
 51
270.0
  0
LINE
  5
357
100
AcDbEntity
  8
0
370
    -3
  6
Continuous
100
AcDbLine
 10
-105.782065
 20
304.713016
 30
0.0
 11
-105.782065
 21
349.866123
 31
0.0
  0
LINE
  5
358
100
AcDbEntity
  8
0
370
    -3
  6
Continuous
100
AcDbLine
 10
-105.782065
 20
304.713016
 30
0.0
 11
-105.782065
 21
259.55991
 31
0.0
  0
LINE
  5
359
100
AcDbEntity
  8
0
370
    -3
  6
Continuous
100
AcDbLine
 10
-107.782065
 20
304.713016
 30
0.0
 11
-107.782065
 21
200.713016
 31
0.0
  0
LINE
  5
35A
100
AcDbEntity
  8
0
370
    -3
  6
Continuous
100
AcDbLine
 10
-111.782065
 20
304.713016
 30
0.0
 11
-111.782065
 21
192.213016
 31
0.0
  0
ARC
  5
35B
100
AcDbEntity
  8
0
370
    -3
  6
Continuous
100
AcDbCircle
 10
-105.782065
 20
254.363768
 30
0.0
 40
3.0
100
AcDbArc
 50
120.000187
 51
131.810315
  0
ARC
  5
35C
100
AcDbEntity
  8
0
370
    -3
  6
Continuous
100
AcDbCircle
 10
-108.782065
 20
349.866123
 30
0.0
 40
3.0
100
AcDbArc
 50
0.0
 51
70.528779
  0
ARC
  5
35D
100
AcDbEntity
  8
0
370
    -3
  6
Continuous
100
AcDbCircle
 10
-125.782065
 20
194.213016
 30
0.0
 40
2.0
100
AcDbArc
 50
180.0
 51
270.0
  0
LINE
  5
35E
100
AcDbEntity
  8
0
370
    -3
  6
Continuous
100
AcDbLine
 10
-111.782065
 20
192.213016
 30
0.0
 11
-125.782065
 21
192.213016
 31
0.0
  0
ARC
  5
35F
100
AcDbEntity
  8
0
370
    -3
  6
Continuous
100
AcDbCircle
 10
-115.782065
 20
312.713016
 30
0.0
 40
3.0
100
AcDbArc
 50
180.0
 51
270.0
  0
LINE
  5
360
100
AcDbEntity
  8
0
370
    -3
  6
Continuous
100
AcDbLine
 10
-115.782065
 20
309.713016
 30
0.0
 11
-111.782065
 21
309.713016
 31
0.0
  0
ARC
  5
361
100
AcDbEntity
  8
0
370
    -3
  6
Continuous
100
AcDbCircle
 10
-115.782065
 20
296.713016
 30
0.0
 40
3.0
100
AcDbArc
 50
90.0
 51
180.0
  0
ARC
  5
362
100
AcDbEntity
  8
0
370
    -3
  6
Continuous
100
AcDbCircle
 10
-115.782065
 20
241.264443
 30
0.0
 40
3.0
100
AcDbArc
 50
180.0
 51
270.0
  0
LINE
  5
363
100
AcDbEntity
  8
0
370
    -3
  6
Continuous
100
AcDbLine
 10
-118.782065
 20
296.713016
 30
0.0
 11
-118.782065
 21
216.42622
 31
0.0
  0
ARC
  5
364
100
AcDbEntity
  8
0
370
    -3
  6
Continuous
100
AcDbCircle
 10
-115.782065
 20
216.42622
 30
0.0
 40
3.0
100
AcDbArc
 50
180.0
 51
270.0
  0
LINE
  5
365
100
AcDbEntity
  8
0
370
    -3
  6
Continuous
100
AcDbLine
 10
-111.782065
 20
213.42622
 30
0.0
 11
-115.782065
 21
213.42622
 31
0.0
  0
LINE
  5
366
100
AcDbEntity
  8
0
370
    -3
  6
Continuous
100
AcDbLine
 10
-111.782065
 20
238.264443
 30
0.0
 11
-115.782065
 21
238.264443
 31
0.0
  0
LINE
  5
367
100
AcDbEntity
  8
0
370
    -3
  6
Continuous
100
AcDbLine
 10
-115.782065
 20
299.713016
 30
0.0
 11
-111.782065
 21
299.713016
 31
0.0
  0
LINE
  5
368
100
AcDbEntity
  8
0
370
    -3
  6
CENTER
100
AcDbLine
 10
-96.145556
 20
205.718067
 30
0.0
 11
-135.141548
 21
205.718067
 31
0.0
  0
LINE
  5
369
100
AcDbEntity
  8
0
370
    -3
  6
Continuous
100
AcDbLine
 10
-51.782065
 20
304.713016
 30
0.0
 11
-51.782065
 21
285.713016
 31
0.0
  0
ARC
  5
36A
100
AcDbEntity
  8
0
370
    -3
  6
Continuous
100
AcDbCircle
 10
-52.182065
 20
320.313016
 30
0.0
 40
0.4
100
AcDbArc
 50
0.0
 51
90.0
  0
LINE
  5
36B
100
AcDbEntity
  8
0
370
    -3
  6
Continuous
100
AcDbLine
 10
-51.782065
 20
285.713016
 30
0.0
 11
-96.782065
 21
285.713016
 31
0.0
  0
LINE
  5
36C
100
AcDbEntity
  8
0
370
    -3
  6
Continuous
100
AcDbLine
 10
-52.182065
 20
320.713016
 30
0.0
 11
-99.222258
 21
320.713016
 31
0.0
  0
LINE
  5
36D
100
AcDbEntity
  8
0
370
    -3
  6
Continuous
100
AcDbLine
 10
-96.782065
 20
288.713016
 30
0.0
 11
-96.782065
 21
285.713016
 31
0.0
  0
LINE
  5
36E
100
AcDbEntity
  8
0
370
    -3
  6
Continuous
100
AcDbLine
 10
-99.782065
 20
320.563016
 30
0.0
 11
-99.222258
 21
320.713016
 31
0.0
  0
LINE
  5
36F
100
AcDbEntity
  8
0
370
    -3
  6
Continuous
100
AcDbLine
 10
-99.782065
 20
320.563016
 30
0.0
 11
-100.982065
 21
320.563016
 31
0.0
  0
LINE
  5
370
100
AcDbEntity
  8
0
370
    -3
  6
Continuous
100
AcDbLine
 10
-103.782065
 20
321.713016
 30
0.0
 11
-101.982065
 21
321.713016
 31
0.0
  0
LINE
  5
371
100
AcDbEntity
  8
0
370
    -3
  6
Continuous
100
AcDbLine
 10
-101.782065
 20
321.513016
 30
0.0
 11
-101.782065
 21
304.713016
 31
0.0
  0
ARC
  5
372
100
AcDbEntity
  8
0
370
    -3
  6
Continuous
100
AcDbCircle
 10
-100.982065
 20
321.363016
 30
0.0
 40
0.8
100
AcDbArc
 50
183.703197
 51
270.0
  0
LINE
  5
373
100
AcDbEntity
  8
0
370
    -3
  6
Continuous
100
AcDbLine
 10
-101.782065
 20
321.513016
 30
0.0
 11
-101.982065
 21
321.713016
 31
0.0
  0
LINE
  5
374
100
AcDbEntity
  8
0
370
    -3
  6
Continuous
100
AcDbLine
 10
-99.782065
 20
288.863016
 30
0.0
 11
-99.222258
 21
288.713016
 31
0.0
  0
LINE
  5
375
100
AcDbEntity
  8
0
370
    -3
  6
Continuous
100
AcDbLine
 10
-103.782065
 20
287.713016
 30
0.0
 11
-101.982065
 21
287.713016
 31
0.0
  0
LINE
  5
376
100
AcDbEntity
  8
0
370
    -3
  6
Continuous
100
AcDbLine
 10
-52.182065
 20
288.713016
 30
0.0
 11
-99.222258
 21
288.713016
 31
0.0
  0
LINE
  5
377
100
AcDbEntity
  8
0
370
    -3
  6
Continuous
100
AcDbLine
 10
-99.782065
 20
288.863016
 30
0.0
 11
-100.982065
 21
288.863016
 31
0.0
  0
LINE
  5
378
100
AcDbEntity
  8
0
370
    -3
  6
Continuous
100
AcDbLine
 10
-101.782065
 20
287.913016
 30
0.0
 11
-101.782065
 21
304.713016
 31
0.0
  0
ARC
  5
379
100
AcDbEntity
  8
0
370
    -3
  6
Continuous
100
AcDbCircle
 10
-100.982065
 20
288.063016
 30
0.0
 40
0.8
100
AcDbArc
 50
90.0
 51
176.296803
  0
LINE
  5
37A
100
AcDbEntity
  8
0
370
    -3
  6
Continuous
100
AcDbLine
 10
-101.782065
 20
287.913016
 30
0.0
 11
-101.982065
 21
287.713016
 31
0.0
  0
LINE
  5
37B
100
AcDbEntity
  8
0
370
    -3
  6
Continuous
100
AcDbLine
 10
-51.782065
 20
304.713016
 30
0.0
 11
-51.782065
 21
320.313016
 31
0.0
  0
ARC
  5
37C
100
AcDbEntity
  8
0
370
    -3
  6
Continuous
100
AcDbCircle
 10
-52.182065
 20
289.113016
 30
0.0
 40
0.4
100
AcDbArc
 50
270.0
 51
0.0
  0
LINE
  5
37D
100
AcDbEntity
  8
0
370
    -3
  6
Continuous
100
AcDbLine
 10
-224.282065
 20
347.013017
 30
0.0
 11
-224.282065
 21
362.413016
 31
0.0
  0
LINE
  5
37E
100
AcDbEntity
  8
0
370
    -3
  6
Continuous
100
AcDbLine
 10
-243.282065
 20
307.513017
 30
0.0
 11
-243.282065
 21
322.913016
 31
0.0
  0
LINE
  5
37F
100
AcDbEntity
  8
0
370
    -3
  6
Continuous
100
AcDbLine
 10
-243.282065
 20
301.913016
 30
0.0
 11
-243.282065
 21
286.513017
 31
0.0
  0
LINE
  5
380
100
AcDbEntity
  8
0
370
    -3
  6
Continuous
100
AcDbLine
 10
-224.282065
 20
262.413016
 30
0.0
 11
-224.282065
 21
247.013017
 31
0.0
  0
LINE
  5
381
100
AcDbEntity
  8
0
370
    -3
  6
Continuous
100
AcDbLine
 10
-226.282065
 20
214.213016
 30
0.0
 11
-231.782063
 21
214.213016
 31
0.0
  0
LINE
  5
382
100
AcDbEntity
  8
0
370
    -3
  6
Continuous
100
AcDbLine
 10
-232.282064
 20
220.427299
 30
0.0
 11
-232.282064
 21
215.078946
 31
0.0
  0
LINE
  5
383
100
AcDbEntity
  8
0
370
    -3
  6
Continuous
100
AcDbLine
 10
-231.782063
 20
214.213017
 30
0.0
 11
-232.282064
 21
215.078946
 31
0.0
  0
LINE
  5
384
100
AcDbEntity
  8
0
370
    -3
  6
Continuous
100
AcDbLine
 10
-231.782064
 20
220.409839
 30
0.0
 11
-231.782064
 21
214.213016
 31
0.0
  0
LINE
  5
385
100
AcDbEntity
  8
0
370
    -3
  6
Continuous
100
AcDbLine
 10
-231.782064
 20
261.213016
 30
0.0
 11
-231.782064
 21
248.213016
 31
0.0
  0
LINE
  5
386
100
AcDbEntity
  8
0
370
    -3
  6
Continuous
100
AcDbLine
 10
-231.782063
 20
248.213017
 30
0.0
 11
-232.282064
 21
249.078946
 31
0.0
  0
LINE
  5
387
100
AcDbEntity
  8
0
370
    -3
  6
Continuous
100
AcDbLine
 10
-231.782064
 20
261.213017
 30
0.0
 11
-232.282064
 21
260.346892
 31
0.0
  0
LINE
  5
388
100
AcDbEntity
  8
0
370
    -3
  6
Continuous
100
AcDbLine
 10
-224.282065
 20
248.213016
 30
0.0
 11
-231.782063
 21
248.213016
 31
0.0
  0
LINE
  5
389
100
AcDbEntity
  8
0
370
    -3
  6
Continuous
100
AcDbLine
 10
-224.282065
 20
261.213016
 30
0.0
 11
-231.782064
 21
261.213016
 31
0.0
  0
LINE
  5
38A
100
AcDbEntity
  8
0
370
    -3
  6
Continuous
100
AcDbLine
 10
-232.282064
 20
260.346892
 30
0.0
 11
-232.282064
 21
249.078946
 31
0.0
  0
LINE
  5
38B
100
AcDbEntity
  8
0
370
    -3
  6
Continuous
100
AcDbLine
 10
-231.782064
 20
348.213016
 30
0.0
 11
-231.782064
 21
361.213016
 31
0.0
  0
LINE
  5
38C
100
AcDbEntity
  8
0
370
    -3
  6
Continuous
100
AcDbLine
 10
-231.782063
 20
361.213016
 30
0.0
 11
-232.282064
 21
360.347087
 31
0.0
  0
LINE
  5
38D
100
AcDbEntity
  8
0
370
    -3
  6
Continuous
100
AcDbLine
 10
-231.782064
 20
348.213016
 30
0.0
 11
-232.282064
 21
349.079141
 31
0.0
  0
LINE
  5
38E
100
AcDbEntity
  8
0
370
    -3
  6
Continuous
100
AcDbLine
 10
-224.282065
 20
361.213016
 30
0.0
 11
-231.782063
 21
361.213016
 31
0.0
  0
LINE
  5
38F
100
AcDbEntity
  8
0
370
    -3
  6
Continuous
100
AcDbLine
 10
-224.282065
 20
348.213016
 30
0.0
 11
-231.782064
 21
348.213016
 31
0.0
  0
LINE
  5
390
100
AcDbEntity
  8
0
370
    -3
  6
Continuous
100
AcDbLine
 10
-232.282064
 20
349.079141
 30
0.0
 11
-232.282064
 21
360.347087
 31
0.0
  0
LINE
  5
391
100
AcDbEntity
  8
0
370
    -3
  6
Continuous
100
AcDbLine
 10
-250.782064
 20
300.713016
 30
0.0
 11
-250.782064
 21
287.713016
 31
0.0
  0
LINE
  5
392
100
AcDbEntity
  8
0
370
    -3
  6
Continuous
100
AcDbLine
 10
-250.782063
 20
287.713017
 30
0.0
 11
-251.282064
 21
288.578946
 31
0.0
  0
LINE
  5
393
100
AcDbEntity
  8
0
370
    -3
  6
Continuous
100
AcDbLine
 10
-250.782064
 20
300.713017
 30
0.0
 11
-251.282064
 21
299.846892
 31
0.0
  0
LINE
  5
394
100
AcDbEntity
  8
0
370
    -3
  6
Continuous
100
AcDbLine
 10
-243.282065
 20
287.713016
 30
0.0
 11
-250.782063
 21
287.713016
 31
0.0
  0
LINE
  5
395
100
AcDbEntity
  8
0
370
    -3
  6
Continuous
100
AcDbLine
 10
-243.282065
 20
300.713016
 30
0.0
 11
-250.782064
 21
300.713016
 31
0.0
  0
LINE
  5
396
100
AcDbEntity
  8
0
370
    -3
  6
Continuous
100
AcDbLine
 10
-251.282064
 20
299.846892
 30
0.0
 11
-251.282064
 21
288.578946
 31
0.0
  0
LINE
  5
397
100
AcDbEntity
  8
0
370
    -3
  6
Continuous
100
AcDbLine
 10
-250.782064
 20
308.713016
 30
0.0
 11
-250.782064
 21
321.713016
 31
0.0
  0
LINE
  5
398
100
AcDbEntity
  8
0
370
    -3
  6
Continuous
100
AcDbLine
 10
-250.782063
 20
321.713016
 30
0.0
 11
-251.282064
 21
320.847087
 31
0.0
  0
LINE
  5
399
100
AcDbEntity
  8
0
370
    -3
  6
Continuous
100
AcDbLine
 10
-250.782064
 20
308.713016
 30
0.0
 11
-251.282064
 21
309.579141
 31
0.0
  0
LINE
  5
39A
100
AcDbEntity
  8
0
370
    -3
  6
Continuous
100
AcDbLine
 10
-243.282065
 20
321.713016
 30
0.0
 11
-250.782063
 21
321.713016
 31
0.0
  0
LINE
  5
39B
100
AcDbEntity
  8
0
370
    -3
  6
Continuous
100
AcDbLine
 10
-243.282065
 20
308.713016
 30
0.0
 11
-250.782064
 21
308.713016
 31
0.0
  0
LINE
  5
39C
100
AcDbEntity
  8
0
370
    -3
  6
Continuous
100
AcDbLine
 10
-251.282064
 20
309.579141
 30
0.0
 11
-251.282064
 21
320.847087
 31
0.0
  0
LINE
  5
39D
100
AcDbEntity
  8
0
370
    -3
  6
Continuous
100
AcDbLine
 10
-211.782065
 20
210.713016
 30
0.0
 11
-211.782065
 21
398.713016
 31
0.0
  0
LINE
  5
39E
100
AcDbEntity
  8
0
370
    -3
  6
Continuous
100
AcDbLine
 10
-211.782065
 20
398.713016
 30
0.0
 11
-130.677367
 21
401.545255
 31
0.0
  0
ARC
  5
39F
100
AcDbEntity
  8
0
370
    -3
  6
Continuous
100
AcDbCircle
 10
-130.782065
 20
404.543427
 30
0.0
 40
3.0
100
AcDbArc
 50
272.0
 51
0.0
  0
LINE
  5
3A0
100
AcDbEntity
  8
0
370
    -3
  6
Continuous
100
AcDbLine
 10
-212.282065
 20
304.713016
 30
0.0
 11
-212.282065
 21
398.713016
 31
0.0
  0
ARC
  5
3A1
100
AcDbEntity
  8
0
370
    -3
  6
Continuous
100
AcDbCircle
 10
-222.282065
 20
396.713016
 30
0.0
 40
2.0
100
AcDbArc
 50
90.0
 51
180.0
  0
LINE
  5
3A2
100
AcDbEntity
  8
0
370
    -3
  6
Continuous
100
AcDbLine
 10
-211.782065
 20
398.713016
 30
0.0
 11
-224.282065
 21
398.713016
 31
0.0
  0
ARC
  5
3A3
100
AcDbEntity
  8
0
370
    -3
  6
Continuous
100
AcDbCircle
 10
-224.282065
 20
396.713016
 30
0.0
 40
2.0
100
AcDbArc
 50
90.0
 51
180.0
  0
LINE
  5
3A4
100
AcDbEntity
  8
0
370
    -3
  6
Continuous
100
AcDbLine
 10
-224.282065
 20
328.213016
 30
0.0
 11
-224.282065
 21
396.713016
 31
0.0
  0
ARC
  5
3A5
100
AcDbEntity
  8
0
370
    -3
  6
Continuous
100
AcDbCircle
 10
-227.282065
 20
392.175166
 30
0.0
 40
3.0
100
AcDbArc
 50
272.0
 51
0.0
  0
LINE
  5
3A6
100
AcDbEntity
  8
0
370
    -3
  6
Continuous
100
AcDbLine
 10
-254.782065
 20
388.213016
 30
0.0
 11
-227.177367
 21
389.176994
 31
0.0
  0
LINE
  5
3A7
100
AcDbEntity
  8
0
370
    -3
  6
Continuous
100
AcDbLine
 10
-226.282065
 20
392.105325
 30
0.0
 11
-226.282065
 21
396.713016
 31
0.0
  0
ARC
  5
3A8
100
AcDbEntity
  8
0
370
    -3
  6
Continuous
100
AcDbCircle
 10
-229.282065
 20
392.105325
 30
0.0
 40
3.0
100
AcDbArc
 50
272.0
 51
0.0
  0
LINE
  5
3A9
100
AcDbEntity
  8
0
370
    -3
  6
Continuous
100
AcDbLine
 10
-254.782065
 20
304.713016
 30
0.0
 11
-254.782065
 21
388.213016
 31
0.0
  0
LINE
  5
3AA
100
AcDbEntity
  8
0
370
    -3
  6
Continuous
100
AcDbLine
 10
-148.72203
 20
360.358699
 30
0.0
 11
-128.431194
 21
385.953458
 31
0.0
  0
ARC
  5
3AB
100
AcDbEntity
  8
0
370
    -3
  6
Continuous
100
AcDbCircle
 10
-130.782065
 20
387.817166
 30
0.0
 40
3.0
100
AcDbArc
 50
321.593567
 51
0.0
  0
ARC
  5
3AC
100
AcDbEntity
  8
0
370
    -3
  6
Continuous
100
AcDbCircle
 10
-151.072901
 20
367.707688
 30
0.0
 40
3.0
100
AcDbArc
 50
270.0
 51
321.593567
  0
LINE
  5
3AD
100
AcDbEntity
  8
0
370
    -3
  6
Continuous
100
AcDbLine
 10
-148.72203
 20
365.84398
 30
0.0
 11
-128.431194
 21
391.43874
 31
0.0
  0
ARC
  5
3AE
100
AcDbEntity
  8
0
370
    -3
  6
Continuous
100
AcDbCircle
 10
-130.782065
 20
393.302447
 30
0.0
 40
3.0
100
AcDbArc
 50
321.593567
 51
0.0
  0
LINE
  5
3AF
100
AcDbEntity
  8
0
370
    -3
  6
Continuous
100
AcDbLine
 10
-108.782065
 20
409.713016
 30
0.0
 11
-107.782065
 21
408.713016
 31
0.0
  0
LINE
  5
3B0
100
AcDbEntity
  8
0
370
    -3
  6
Continuous
100
AcDbLine
 10
-111.782065
 20
409.713016
 30
0.0
 11
-108.782065
 21
409.713016
 31
0.0
  0
LINE
  5
3B1
100
AcDbEntity
  8
0
370
    -3
  6
Continuous
100
AcDbLine
 10
-125.782065
 20
417.213016
 30
0.0
 11
-111.782065
 21
417.213016
 31
0.0
  0
ARC
  5
3B2
100
AcDbEntity
  8
0
370
    -3
  6
Continuous
100
AcDbCircle
 10
-125.782065
 20
415.213016
 30
0.0
 40
2.0
100
AcDbArc
 50
90.0
 51
180.0
  0
LINE
  5
3B3
100
AcDbEntity
  8
0
370
    -3
  6
Continuous
100
AcDbLine
 10
-111.782065
 20
304.713016
 30
0.0
 11
-111.782065
 21
417.213016
 31
0.0
  0
LINE
  5
3B4
100
AcDbEntity
  8
0
370
    -3
  6
Continuous
100
AcDbLine
 10
-107.782065
 20
304.713016
 30
0.0
 11
-107.782065
 21
408.713016
 31
0.0
  0
LINE
  5
3B5
100
AcDbEntity
  8
0
370
    -3
  6
Continuous
100
AcDbLine
 10
-127.782065
 20
194.213016
 30
0.0
 11
-127.782065
 21
415.213016
 31
0.0
  0
ARC
  5
3B6
100
AcDbEntity
  8
0
370
    -3
  6
Continuous
100
AcDbCircle
 10
-115.782065
 20
368.16159
 30
0.0
 40
3.0
100
AcDbArc
 50
90.0
 51
180.0
  0
LINE
  5
3B7
100
AcDbEntity
  8
0
370
    -3
  6
Continuous
100
AcDbLine
 10
-118.782065
 20
312.713016
 30
0.0
 11
-118.782065
 21
392.999813
 31
0.0
  0
ARC
  5
3B8
100
AcDbEntity
  8
0
370
    -3
  6
Continuous
100
AcDbCircle
 10
-115.782065
 20
392.999813
 30
0.0
 40
3.0
100
AcDbArc
 50
90.0
 51
180.0
  0
LINE
  5
3B9
100
AcDbEntity
  8
0
370
    -3
  6
Continuous
100
AcDbLine
 10
-111.782065
 20
395.999813
 30
0.0
 11
-115.782065
 21
395.999813
 31
0.0
  0
LINE
  5
3BA
100
AcDbEntity
  8
0
370
    -3
  6
Continuous
100
AcDbLine
 10
-111.782065
 20
371.16159
 30
0.0
 11
-115.782065
 21
371.16159
 31
0.0
  0
LINE
  5
3BB
100
AcDbEntity
  8
0
370
    -3
  6
CENTER
100
AcDbLine
 10
-96.145556
 20
403.707966
 30
0.0
 11
-135.141548
 21
403.707966
 31
0.0
  0
LINE
  5
3BC
100
AcDbEntity
  8
0
370
    -3
  6
Continuous
100
AcDbLine
 10
-226.282065
 20
395.213016
 30
0.0
 11
-231.782063
 21
395.213016
 31
0.0
  0
LINE
  5
3BD
100
AcDbEntity
  8
0
370
    -3
  6
Continuous
100
AcDbLine
 10
-232.282064
 20
388.998734
 30
0.0
 11
-232.282064
 21
394.347087
 31
0.0
  0
LINE
  5
3BE
100
AcDbEntity
  8
0
370
    -3
  6
Continuous
100
AcDbLine
 10
-231.782063
 20
395.213016
 30
0.0
 11
-232.282064
 21
394.347087
 31
0.0
  0
LINE
  5
3BF
100
AcDbEntity
  8
0
370
    -3
  6
Continuous
100
AcDbLine
 10
-231.782064
 20
389.016194
 30
0.0
 11
-231.782064
 21
395.213016
 31
0.0
  0
ARC
  5
3C0
100
AcDbEntity
  8
0
370
    -3
  6
Continuous
100
AcDbCircle
 10
-657.869364
 20
97.827032
 30
0.0
 40
8.0
100
AcDbArc
 50
0.0
 51
90.0
  0
CIRCLE
  5
3C1
100
AcDbEntity
  8
0
370
    -3
  6
Continuous
100
AcDbCircle
 10
-663.374414
 20
92.321981
 30
0.0
 40
7.5
  0
ARC
  5
3C2
100
AcDbEntity
  8
0
370
    -3
  6
Continuous
100
AcDbCircle
 10
-683.310114
 20
80.871563
 30
0.0
 40
3.0
100
AcDbArc
 50
315.0
 51
45.0
  0
ARC
  5
3C3
100
AcDbEntity
  8
0
370
    -3
  6
Continuous
100
AcDbCircle
 10
-674.824833
 20
72.386281
 30
0.0
 40
3.0
100
AcDbArc
 50
45.0
 51
135.0
  0
LINE
  5
3C4
100
AcDbEntity
  8
0
370
    -3
  6
Continuous
100
AcDbLine
 10
-866.869364
 20
105.827032
 30
0.0
 11
-657.869364
 21
105.827032
 31
0.0
  0
LINE
  5
3C5
100
AcDbEntity
  8
0
370
    -3
  6
Continuous
100
AcDbLine
 10
-649.869364
 20
97.827032
 30
0.0
 11
-649.869364
 21
10.127032
 31
0.0
  0
LINE
  5
3C6
100
AcDbEntity
  8
0
370
    -3
  6
Continuous
100
AcDbLine
 10
-681.188794
 20
78.750242
 30
0.0
 11
-706.243636
 21
53.6954
 31
0.0
  0
LINE
  5
3C7
100
AcDbEntity
  8
0
370
    -3
  6
Continuous
100
AcDbLine
 10
-676.946153
 20
74.507602
 30
0.0
 11
-700.205485
 21
51.248269
 31
0.0
  0
LINE
  5
3C8
100
AcDbEntity
  8
0
370
    -3
  6
CENTER
100
AcDbLine
 10
-679.284317
 20
76.412078
 30
0.0
 11
-647.464512
 21
108.231884
 31
0.0
  0
ARC
  5
3C9
100
AcDbEntity
  8
0
370
    -3
  6
CENTER
100
AcDbCircle
 10
-762.369364
 20
-6.672968
 30
0.0
 40
140.0
100
AcDbArc
 50
35.791383
 51
54.208617
  0
ARC
  5
3CA
100
AcDbEntity
  8
0
370
    -3
  6
Continuous
100
AcDbCircle
 10
-866.869364
 20
97.827032
 30
0.0
 40
8.0
100
AcDbArc
 50
90.0
 51
180.0
  0
CIRCLE
  5
3CB
100
AcDbEntity
  8
0
370
    -3
  6
Continuous
100
AcDbCircle
 10
-861.364313
 20
92.321981
 30
0.0
 40
7.5
  0
ARC
  5
3CC
100
AcDbEntity
  8
0
370
    -3
  6
Continuous
100
AcDbCircle
 10
-849.913895
 20
72.386281
 30
0.0
 40
3.0
100
AcDbArc
 50
45.0
 51
135.0
  0
ARC
  5
3CD
100
AcDbEntity
  8
0
370
    -3
  6
Continuous
100
AcDbCircle
 10
-841.428614
 20
80.871563
 30
0.0
 40
3.0
100
AcDbArc
 50
135.0
 51
225.0
  0
LINE
  5
3CE
100
AcDbEntity
  8
0
370
    -3
  6
Continuous
100
AcDbLine
 10
-874.869364
 20
97.827032
 30
0.0
 11
-874.869364
 21
-111.172968
 31
0.0
  0
LINE
  5
3CF
100
AcDbEntity
  8
0
370
    -3
  6
Continuous
100
AcDbLine
 10
-843.549934
 20
78.750242
 30
0.0
 11
-818.495092
 21
53.6954
 31
0.0
  0
LINE
  5
3D0
100
AcDbEntity
  8
0
370
    -3
  6
Continuous
100
AcDbLine
 10
-847.792575
 20
74.507602
 30
0.0
 11
-824.533242
 21
51.248269
 31
0.0
  0
LINE
  5
3D1
100
AcDbEntity
  8
0
370
    -3
  6
CENTER
100
AcDbLine
 10
-845.454411
 20
76.412078
 30
0.0
 11
-877.274216
 21
108.231884
 31
0.0
  0
ARC
  5
3D2
100
AcDbEntity
  8
0
370
    -3
  6
CENTER
100
AcDbCircle
 10
-762.369364
 20
-6.672968
 30
0.0
 40
140.0
100
AcDbArc
 50
125.791383
 51
144.208617
  0
ARC
  5
3D3
100
AcDbEntity
  8
0
370
    -3
  6
Continuous
100
AcDbCircle
 10
-657.869364
 20
-111.172968
 30
0.0
 40
8.0
100
AcDbArc
 50
270.0
 51
0.0
  0
CIRCLE
  5
3D4
100
AcDbEntity
  8
0
370
    -3
  6
Continuous
100
AcDbCircle
 10
-663.374414
 20
-105.667918
 30
0.0
 40
7.5
  0
LINE
  5
3D5
100
AcDbEntity
  8
0
370
    -3
  6
Continuous
100
AcDbLine
 10
-700.307575
 20
-119.172968
 30
0.0
 11
-657.869364
 21
-119.172968
 31
0.0
  0
LINE
  5
3D6
100
AcDbEntity
  8
0
370
    -3
  6
CENTER
100
AcDbLine
 10
-679.284317
 20
-89.758015
 30
0.0
 11
-647.464512
 21
-121.57782
 31
0.0
  0
ARC
  5
3D7
100
AcDbEntity
  8
0
370
    -3
  6
CENTER
100
AcDbCircle
 10
-762.369364
 20
-6.672968
 30
0.0
 40
140.0
100
AcDbArc
 50
305.791383
 51
324.208617
  0
ARC
  5
3D8
100
AcDbEntity
  8
0
370
    -3
  6
Continuous
100
AcDbCircle
 10
-866.869364
 20
-111.172968
 30
0.0
 40
8.0
100
AcDbArc
 50
180.0
 51
270.0
  0
CIRCLE
  5
3D9
100
AcDbEntity
  8
0
370
    -3
  6
Continuous
100
AcDbCircle
 10
-861.364313
 20
-105.667918
 30
0.0
 40
7.5
  0
LINE
  5
3DA
100
AcDbEntity
  8
0
370
    -3
  6
Continuous
100
AcDbLine
 10
-866.869364
 20
-119.172968
 30
0.0
 11
-824.431153
 21
-119.172968
 31
0.0
  0
LINE
  5
3DB
100
AcDbEntity
  8
0
370
    -3
  6
CENTER
100
AcDbLine
 10
-845.454411
 20
-89.758015
 30
0.0
 11
-877.274216
 21
-121.57782
 31
0.0
  0
ARC
  5
3DC
100
AcDbEntity
  8
0
370
    -3
  6
CENTER
100
AcDbCircle
 10
-762.369364
 20
-6.672968
 30
0.0
 40
140.0
100
AcDbArc
 50
215.791383
 51
234.208617
  0
LINE
  5
3DD
100
AcDbEntity
  8
0
370
    -3
  6
Continuous
100
AcDbLine
 10
-759.369364
 20
87.866424
 30
0.0
 11
-759.369364
 21
68.78764
 31
0.0
  0
LINE
  5
3DE
100
AcDbEntity
  8
0
370
    -3
  6
Continuous
100
AcDbLine
 10
-765.369364
 20
87.866424
 30
0.0
 11
-765.369364
 21
68.78764
 31
0.0
  0
ARC
  5
3DF
100
AcDbEntity
  8
0
370
    -3
  6
Continuous
100
AcDbCircle
 10
-768.369364
 20
100.327032
 30
0.0
 40
3.0
100
AcDbArc
 50
0.0
 51
90.0
  0
ARC
  5
3E0
100
AcDbEntity
  8
0
370
    -3
  6
Continuous
100
AcDbCircle
 10
-756.369364
 20
100.327032
 30
0.0
 40
3.0
100
AcDbArc
 50
90.0
 51
180.0
  0
LINE
  5
3E1
100
AcDbEntity
  8
0
370
    -3
  6
Continuous
100
AcDbLine
 10
-765.369364
 20
100.327032
 30
0.0
 11
-765.369364
 21
98.327032
 31
0.0
  0
LINE
  5
3E2
100
AcDbEntity
  8
0
370
    -3
  6
Continuous
100
AcDbLine
 10
-759.369364
 20
100.327032
 30
0.0
 11
-759.369364
 21
98.327032
 31
0.0
  0
ARC
  5
3E3
100
AcDbEntity
  8
0
370
    -3
  6
Continuous
100
AcDbCircle
 10
-698.084165
 20
49.126949
 30
0.0
 40
3.0
100
AcDbArc
 50
135.0
 51
232.710273
  0
ARC
  5
3E4
100
AcDbEntity
  8
0
370
    -3
  6
Continuous
100
AcDbCircle
 10
-708.364956
 20
55.81672
 30
0.0
 40
3.0
100
AcDbArc
 50
241.185148
 51
315.0
  0
ARC
  5
3E5
100
AcDbEntity
  8
0
370
    -3
  6
Continuous
100
AcDbCircle
 10
-816.373771
 20
55.81672
 30
0.0
 40
3.0
100
AcDbArc
 50
225.0
 51
298.814852
  0
ARC
  5
3E6
100
AcDbEntity
  8
0
370
    -3
  6
Continuous
100
AcDbCircle
 10
-826.654563
 20
49.126949
 30
0.0
 40
3.0
100
AcDbArc
 50
307.289727
 51
45.0
  0
LINE
  5
3E7
100
AcDbEntity
  8
0
370
    -3
  6
Continuous
100
AcDbLine
 10
-649.869364
 20
-83.472968
 30
0.0
 11
-649.869364
 21
-111.172968
 31
0.0
  0
ARC
  5
3E8
100
AcDbEntity
  8
0
370
    -3
  6
Continuous
100
AcDbCircle
 10
160.689083
 20
-16.906367
 30
0.0
 40
77.139212
100
AcDbArc
 50
14.640477
 51
88.089787
  0
LINE
  5
3E9
100
AcDbEntity
  8
0
370
    -3
  6
Continuous
100
AcDbLine
 10
-254.782065
 20
-95.481113
 30
0.0
 11
-409.782066
 21
-95.481113
 31
0.0
  0
LINE
  5
3EA
100
AcDbEntity
  8
0
370
    -3
  6
Continuous
100
AcDbLine
 10
-254.782065
 20
-82.810693
 30
0.0
 11
-359.539299
 21
-82.810693
 31
0.0
  0
LINE
  5
3EB
100
AcDbEntity
  8
0
370
    -3
  6
Continuous
100
AcDbLine
 10
-254.782065
 20
-80.588366
 30
0.0
 11
-356.628288
 21
-80.588366
 31
0.0
  0
LINE
  5
3EC
100
AcDbEntity
  8
0
370
    -3
  6
Continuous
100
AcDbLine
 10
-254.782065
 20
-72.777907
 30
0.0
 11
-354.884596
 21
-72.777907
 31
0.0
  0
LINE
  5
3ED
100
AcDbEntity
  8
0
370
    -3
  6
Continuous
100
AcDbLine
 10
-254.782065
 20
-120.172968
 30
0.0
 11
-409.782066
 21
-120.172968
 31
0.0
  0
LINE
  5
3EE
100
AcDbEntity
  8
0
370
    -3
  6
Continuous
100
AcDbLine
 10
-254.782065
 20
-60.672968
 30
0.0
 11
-354.884596
 21
-60.672968
 31
0.0
  0
LINE
  5
3EF
100
AcDbEntity
  8
0
370
    -3
  6
Continuous
100
AcDbLine
 10
-254.782065
 20
-70.611196
 30
0.0
 11
-354.884596
 21
-70.611196
 31
0.0
  0
LINE
  5
3F0
100
AcDbEntity
  8
0
370
    -3
  6
Continuous
100
AcDbLine
 10
-254.782065
 20
-102.552181
 30
0.0
 11
-409.782066
 21
-102.552181
 31
0.0
  0
LINE
  5
3F1
100
AcDbEntity
  8
0
370
    -3
  6
Continuous
100
AcDbLine
 10
-254.782065
 20
-111.672968
 30
0.0
 11
-409.782066
 21
-111.672968
 31
0.0
  0
LINE
  5
3F2
100
AcDbEntity
  8
0
370
    -3
  6
Continuous
100
AcDbLine
 10
-254.782065
 20
-116.672968
 30
0.0
 11
-409.782066
 21
-116.672968
 31
0.0
  0
LINE
  5
3F3
100
AcDbEntity
  8
0
370
    -3
  6
Continuous
100
AcDbLine
 10
-254.782065
 20
-119.172968
 30
0.0
 11
-409.782066
 21
-119.172968
 31
0.0
  0
LINE
  5
3F4
100
AcDbEntity
  8
0
370
    -3
  6
Continuous
100
AcDbLine
 10
-254.782065
 20
-119.672968
 30
0.0
 11
-409.782066
 21
-119.672968
 31
0.0
  0
LINE
  5
3F5
100
AcDbEntity
  8
0
370
    -3
  6
Continuous
100
AcDbLine
 10
-254.782065
 20
-12.672968
 30
0.0
 11
-354.884596
 21
-12.672968
 31
0.0
  0
LINE
  5
3F6
100
AcDbEntity
  8
0
370
    -3
  6
Continuous
100
AcDbLine
 10
-254.782065
 20
22.135176
 30
0.0
 11
-409.782066
 21
22.135176
 31
0.0
  0
LINE
  5
3F7
100
AcDbEntity
  8
0
370
    -3
  6
Continuous
100
AcDbLine
 10
-254.782065
 20
7.242429
 30
0.0
 11
-356.628288
 21
7.242429
 31
0.0
  0
LINE
  5
3F8
100
AcDbEntity
  8
0
370
    -3
  6
Continuous
100
AcDbLine
 10
-254.782065
 20
9.464756
 30
0.0
 11
-359.539299
 21
9.464756
 31
0.0
  0
LINE
  5
3F9
100
AcDbEntity
  8
0
370
    -3
  6
Continuous
100
AcDbLine
 10
-254.782065
 20
-0.56803
 30
0.0
 11
-354.884596
 21
-0.56803
 31
0.0
  0
LINE
  5
3FA
100
AcDbEntity
  8
0
370
    -3
  6
Continuous
100
AcDbLine
 10
-254.782065
 20
-2.734741
 30
0.0
 11
-354.884596
 21
-2.734741
 31
0.0
  0
LINE
  5
3FB
100
AcDbEntity
  8
0
370
    -3
  6
Continuous
100
AcDbLine
 10
-254.782065
 20
29.206244
 30
0.0
 11
-409.782066
 21
29.206244
 31
0.0
  0
LINE
  5
3FC
100
AcDbEntity
  8
0
370
    -3
  6
Continuous
100
AcDbLine
 10
-254.782065
 20
38.327032
 30
0.0
 11
-409.782066
 21
38.327032
 31
0.0
  0
LINE
  5
3FD
100
AcDbEntity
  8
0
370
    -3
  6
Continuous
100
AcDbLine
 10
-254.782065
 20
43.327032
 30
0.0
 11
-409.782066
 21
43.327032
 31
0.0
  0
LINE
  5
3FE
100
AcDbEntity
  8
0
370
    -3
  6
Continuous
100
AcDbLine
 10
-254.782065
 20
45.827032
 30
0.0
 11
-409.782066
 21
45.827032
 31
0.0
  0
LINE
  5
3FF
100
AcDbEntity
  8
0
370
    -3
  6
Continuous
100
AcDbLine
 10
-254.782065
 20
46.327032
 30
0.0
 11
-409.782066
 21
46.327032
 31
0.0
  0
LINE
  5
400
100
AcDbEntity
  8
0
370
    -3
  6
Continuous
100
AcDbLine
 10
-254.782065
 20
46.827032
 30
0.0
 11
-409.782066
 21
46.827032
 31
0.0
  0
LINE
  5
401
100
AcDbEntity
  8
0
370
    -3
  6
Continuous
100
AcDbLine
 10
-409.782066
 20
50.627032
 30
0.0
 11
-409.782066
 21
10.127032
 31
0.0
  0
LINE
  5
402
100
AcDbEntity
  8
0
370
    -3
  6
Continuous
100
AcDbLine
 10
-515.850099
 20
50.627032
 30
0.0
 11
-409.782066
 21
50.627032
 31
0.0
  0
LINE
  5
403
100
AcDbEntity
  8
0
370
    -3
  6
Continuous
100
AcDbLine
 10
-409.782066
 20
-123.972968
 30
0.0
 11
-409.782066
 21
-83.472968
 31
0.0
  0
LINE
  5
404
100
AcDbEntity
  8
0
370
    -3
  6
Continuous
100
AcDbLine
 10
-515.850099
 20
-123.972968
 30
0.0
 11
-409.782066
 21
-123.972968
 31
0.0
  0
ARC
  5
405
100
AcDbEntity
  8
0
370
    -3
  6
Continuous
100
AcDbCircle
 10
-550.982066
 20
32.267501
 30
0.0
 40
3.8
100
AcDbArc
 50
120.0
 51
180.0
  0
LINE
  5
406
100
AcDbEntity
  8
0
370
    -3
  6
Continuous
100
AcDbLine
 10
-552.882066
 20
35.558397
 30
0.0
 11
-536.250099
 21
45.160868
 31
0.0
  0
LINE
  5
407
100
AcDbEntity
  8
0
370
    -3
  6
Continuous
100
AcDbLine
 10
-554.782066
 20
32.267501
 30
0.0
 11
-554.782066
 21
-36.672968
 31
0.0
  0
ARC
  5
408
100
AcDbEntity
  8
0
370
    -3
  6
Continuous
100
AcDbCircle
 10
-515.850099
 20
9.827032
 30
0.0
 40
40.8
100
AcDbArc
 50
90.0
 51
120.0
  0
LINE
  5
409
100
AcDbEntity
  8
0
370
    -3
  6
Continuous
100
AcDbLine
 10
-435.282065
 20
-105.545169
 30
0.0
 11
-437.21127
 21
-106.755831
 31
0.0
  0
LINE
  5
40A
100
AcDbEntity
  8
0
370
    -3
  6
Continuous
100
AcDbLine
 10
-435.282065
 20
-105.545169
 30
0.0
 11
-437.282065
 21
-103.971831
 31
0.0
  0
LINE
  5
40B
100
AcDbEntity
  8
0
370
    -3
  6
Continuous
100
AcDbLine
 10
-435.282065
 20
-105.545169
 30
0.0
 11
-433.352861
 21
-106.755831
 31
0.0
  0
LINE
  5
40C
100
AcDbEntity
  8
0
370
    -3
  6
Continuous
100
AcDbLine
 10
-435.282065
 20
-105.545169
 30
0.0
 11
-433.282065
 21
-103.971831
 31
0.0
  0
ELLIPSE
  5
40D
100
AcDbEntity
  8
0
370
    -3
  6
Continuous
100
AcDbEllipse
 10
-435.282065
 20
-103.706691
 30
0.0
 11
4.5
 21
0.0
 31
0.0
210
0.0
220
0.0
230
1.0
 40
0.707107
 41
5.3002993159359626
 42
4.1244786448334168
  0
ELLIPSE
  5
40E
100
AcDbEntity
  8
0
370
    -3
  6
Continuous
100
AcDbEllipse
 10
-435.282065
 20
-104.243209
 30
0.0
 11
3.5
 21
0.0
 31
0.0
210
0.0
220
0.0
230
1.0
 40
0.860398
 41
0.0
 42
6.2831853071795862
  0
ELLIPSE
  5
40F
100
AcDbEntity
  8
0
370
    -3
  6
Continuous
100
AcDbEllipse
 10
-435.282065
 20
-103.141006
 30
0.0
 11
5.0
 21
0.0
 31
0.0
210
0.0
220
0.0
230
1.0
 40
0.707107
 41
3.1415926535897931
 42
3.880864480530414
  0
ELLIPSE
  5
410
100
AcDbEntity
  8
0
370
    -3
  6
Continuous
100
AcDbEllipse
 10
-435.282065
 20
-103.141006
 30
0.0
 11
5.0
 21
0.0
 31
0.0
210
0.0
220
0.0
230
1.0
 40
0.707107
 41
5.5439134802389658
 42
0.0
  0
LINE
  5
411
100
AcDbEntity
  8
0
370
    -3
  6
Continuous
100
AcDbLine
 10
-430.782065
 20
-103.706691
 30
0.0
 11
-430.782065
 21
-103.141006
 31
0.0
  0
LINE
  5
412
100
AcDbEntity
  8
0
370
    -3
  6
Continuous
100
AcDbLine
 10
-439.782065
 20
-103.706691
 30
0.0
 11
-439.782065
 21
-103.141006
 31
0.0
  0
ELLIPSE
  5
413
100
AcDbEntity
  8
0
370
    -3
  6
Continuous
100
AcDbEllipse
 10
-435.282065
 20
-103.141006
 30
0.0
 11
4.5
 21
0.0
 31
0.0
210
0.0
220
0.0
230
1.0
 40
0.707107
 41
0.0
 42
3.1415926535897931
  0
LINE
  5
414
100
AcDbEntity
  8
0
370
    -3
  6
Continuous
100
AcDbLine
 10
-430.282065
 20
-103.141006
 30
0.0
 11
-430.282065
 21
-102.324403
 31
0.0
  0
LINE
  5
415
100
AcDbEntity
  8
0
370
    -3
  6
Continuous
100
AcDbLine
 10
-440.282065
 20
-103.141006
 30
0.0
 11
-440.282065
 21
-102.324403
 31
0.0
  0
ELLIPSE
  5
416
100
AcDbEntity
  8
0
370
    -3
  6
Continuous
100
AcDbEllipse
 10
-435.282065
 20
-102.324403
 30
0.0
 11
5.0
 21
0.0
 31
0.0
210
0.0
220
0.0
230
1.0
 40
0.707107
 41
0.0
 42
3.1415926535897931
  0
LINE
  5
417
100
AcDbEntity
  8
0
370
    -3
  6
Continuous
100
AcDbLine
 10
-435.282065
 20
32.199232
 30
0.0
 11
-437.21127
 21
33.409895
 31
0.0
  0
LINE
  5
418
100
AcDbEntity
  8
0
370
    -3
  6
Continuous
100
AcDbLine
 10
-435.282065
 20
32.199232
 30
0.0
 11
-437.282065
 21
30.625895
 31
0.0
  0
LINE
  5
419
100
AcDbEntity
  8
0
370
    -3
  6
Continuous
100
AcDbLine
 10
-435.282065
 20
32.199232
 30
0.0
 11
-433.352861
 21
33.409895
 31
0.0
  0
LINE
  5
41A
100
AcDbEntity
  8
0
370
    -3
  6
Continuous
100
AcDbLine
 10
-435.282065
 20
32.199232
 30
0.0
 11
-433.282065
 21
30.625895
 31
0.0
  0
ELLIPSE
  5
41B
100
AcDbEntity
  8
0
370
    -3
  6
Continuous
100
AcDbEllipse
 10
-435.282065
 20
30.360754
 30
0.0
 11
4.5
 21
0.0
 31
0.0
210
0.0
220
0.0
230
1.0
 40
0.707107
 41
2.158706662346169
 42
0.9828859912436241
  0
ELLIPSE
  5
41C
100
AcDbEntity
  8
0
370
    -3
  6
Continuous
100
AcDbEllipse
 10
-435.282065
 20
30.897273
 30
0.0
 11
3.5
 21
0.0
 31
0.0
210
0.0
220
0.0
230
1.0
 40
0.860398
 41
0.0
 42
6.2831853071795862
  0
ELLIPSE
  5
41D
100
AcDbEntity
  8
0
370
    -3
  6
Continuous
100
AcDbEllipse
 10
-435.282065
 20
29.795069
 30
0.0
 11
5.0
 21
0.0
 31
0.0
210
0.0
220
0.0
230
1.0
 40
0.707107
 41
2.4023208266491722
 42
3.1415926535897931
  0
ELLIPSE
  5
41E
100
AcDbEntity
  8
0
370
    -3
  6
Continuous
100
AcDbEllipse
 10
-435.282065
 20
29.795069
 30
0.0
 11
5.0
 21
0.0
 31
0.0
210
0.0
220
0.0
230
1.0
 40
0.707107
 41
0.0
 42
0.7392718269406207
  0
LINE
  5
41F
100
AcDbEntity
  8
0
370
    -3
  6
Continuous
100
AcDbLine
 10
-430.782065
 20
30.360754
 30
0.0
 11
-430.782065
 21
29.795069
 31
0.0
  0
LINE
  5
420
100
AcDbEntity
  8
0
370
    -3
  6
Continuous
100
AcDbLine
 10
-439.782065
 20
30.360754
 30
0.0
 11
-439.782065
 21
29.795069
 31
0.0
  0
ELLIPSE
  5
421
100
AcDbEntity
  8
0
370
    -3
  6
Continuous
100
AcDbEllipse
 10
-435.282065
 20
29.795069
 30
0.0
 11
4.5
 21
0.0
 31
0.0
210
0.0
220
0.0
230
1.0
 40
0.707107
 41
3.1415926535897931
 42
0.0
  0
LINE
  5
422
100
AcDbEntity
  8
0
370
    -3
  6
Continuous
100
AcDbLine
 10
-430.282065
 20
29.795069
 30
0.0
 11
-430.282065
 21
28.978466
 31
0.0
  0
LINE
  5
423
100
AcDbEntity
  8
0
370
    -3
  6
Continuous
100
AcDbLine
 10
-440.282065
 20
29.795069
 30
0.0
 11
-440.282065
 21
28.978466
 31
0.0
  0
ELLIPSE
  5
424
100
AcDbEntity
  8
0
370
    -3
  6
Continuous
100
AcDbEllipse
 10
-435.282065
 20
28.978466
 30
0.0
 11
5.0
 21
0.0
 31
0.0
210
0.0
220
0.0
230
1.0
 40
0.707107
 41
3.1415926535897931
 42
0.0
  0
ARC
  5
425
100
AcDbEntity
  8
0
370
    -3
  6
Continuous
100
AcDbCircle
 10
-550.982066
 20
-105.613437
 30
0.0
 40
3.8
100
AcDbArc
 50
180.0
 51
240.0
  0
ARC
  5
426
100
AcDbEntity
  8
0
370
    -3
  6
Continuous
100
AcDbCircle
 10
-515.850099
 20
-83.172968
 30
0.0
 40
40.8
100
AcDbArc
 50
240.0
 51
270.0
  0
LINE
  5
427
100
AcDbEntity
  8
0
370
    -3
  6
Continuous
100
AcDbLine
 10
-552.882066
 20
-108.904334
 30
0.0
 11
-536.250099
 21
-118.506805
 31
0.0
  0
LINE
  5
428
100
AcDbEntity
  8
0
370
    -3
  6
Continuous
100
AcDbLine
 10
-554.782066
 20
-105.613437
 30
0.0
 11
-554.782066
 21
-36.672968
 31
0.0
  0
LINE
  5
429
100
AcDbEntity
  8
0
370
    -3
  6
CENTER
100
AcDbLine
 10
-557.42886
 20
-36.672968
 30
0.0
 11
-202.183919
 21
-36.672968
 31
0.0
  0
LINE
  5
42A
100
AcDbEntity
  8
0
370
    -3
  6
Continuous
100
AcDbLine
 10
-254.782065
 20
304.713016
 30
0.0
 11
-254.782065
 21
388.213016
 31
0.0
  0
LINE
  5
42B
100
AcDbEntity
  8
0
370
    -3
  6
Continuous
100
AcDbLine
 10
-254.782065
 20
304.713016
 30
0.0
 11
-254.782065
 21
224.713016
 31
0.0
  0
LINE
  5
42C
100
AcDbEntity
  8
0
370
    -3
  6
Continuous
100
AcDbLine
 10
-657.453214
 20
-9.841598
 30
0.0
 11
-620.096618
 21
-9.841598
 31
0.0
  0
ARC
  5
42D
100
AcDbEntity
  8
0
370
    -3
  6
Continuous
100
AcDbCircle
 10
-657.453214
 20
-16.641598
 30
0.0
 40
6.8
100
AcDbArc
 50
90.0
 51
180.0
  0
ARC
  5
42E
100
AcDbEntity
  8
0
370
    -3
  6
Continuous
100
AcDbCircle
 10
-657.453214
 20
-56.704339
 30
0.0
 40
6.8
100
AcDbArc
 50
180.0
 51
270.0
  0
LINE
  5
42F
100
AcDbEntity
  8
0
370
    -3
  6
Continuous
100
AcDbLine
 10
-657.453214
 20
-63.504339
 30
0.0
 11
-620.096618
 21
-63.504339
 31
0.0
  0
ARC
  5
430
100
AcDbEntity
  8
0
370
    -3
  6
Continuous
100
AcDbCircle
 10
-639.253214
 20
-36.672968
 30
0.0
 40
13.2205
100
AcDbArc
 50
180.0
 51
0.0
  0
ARC
  5
431
100
AcDbEntity
  8
0
370
    -3
  6
Continuous
100
AcDbCircle
 10
-639.253214
 20
-36.672968
 30
0.0
 40
12.0585
100
AcDbArc
 50
180.0
 51
0.0
  0
ARC
  5
432
100
AcDbEntity
  8
0
370
    -3
  6
Continuous
100
AcDbCircle
 10
-639.253214
 20
-36.672968
 30
0.0
 40
17.0
100
AcDbArc
 50
180.0
 51
0.0
  0
LINE
  5
433
100
AcDbEntity
  8
0
370
    -3
  6
Continuous
100
AcDbLine
 10
-618.446584
 20
-36.672968
 30
0.0
 11
-618.446584
 21
2.327032
 31
0.0
  0
LINE
  5
434
100
AcDbEntity
  8
0
370
    -3
  6
Continuous
100
AcDbLine
 10
-654.743101
 20
8.827032
 30
0.0
 11
-623.186603
 21
8.827032
 31
0.0
  0
LINE
  5
435
100
AcDbEntity
  8
0
370
    -3
  6
Continuous
100
AcDbLine
 10
-663.497691
 20
2.327032
 30
0.0
 11
-663.497691
 21
-1.057796
 31
0.0
  0
LINE
  5
436
100
AcDbEntity
  8
0
370
    -3
  6
Continuous
100
AcDbLine
 10
-663.159597
 20
-0.474698
 30
0.0
 11
-663.159597
 21
2.327032
 31
0.0
  0
ELLIPSE
  5
437
100
AcDbEntity
  8
0
370
    -3
  6
Continuous
100
AcDbEllipse
 10
-619.74913
 20
2.827032
 30
0.0
 11
0.0
 21
2.0000000000000009
 31
0.0
210
0.0
220
0.0
230
1.0
 40
0.422618
 41
0.0
 42
6.2831853071795862
  0
ELLIPSE
  5
438
100
AcDbEntity
  8
0
370
    -3
  6
Continuous
100
AcDbEllipse
 10
-619.74913
 20
2.827032
 30
0.0
 11
0.0
 21
1.6500000000000066
 31
0.0
210
0.0
220
0.0
230
1.0
 40
0.422618
 41
0.0
 42
6.2831853071795862
  0
LINE
  5
439
100
AcDbEntity
  8
0
370
    -3
  6
CENTER
100
AcDbLine
 10
-619.74913
 20
5.691891
 30
0.0
 11
-619.74913
 21
0.080501
 31
0.0
  0
LINE
  5
43A
100
AcDbEntity
  8
0
370
    -3
  6
CENTER
100
AcDbLine
 10
-622.141951
 20
2.827032
 30
0.0
 11
-617.697193
 21
2.827032
 31
0.0
  0
ARC
  5
43B
100
AcDbEntity
  8
0
370
    -3
  6
Continuous
100
AcDbCircle
 10
-664.253214
 20
-8.672968
 30
0.0
 40
1.0
100
AcDbArc
 50
103.342364
 51
180.0
  0
ARC
  5
43C
100
AcDbEntity
  8
0
370
    -3
  6
Continuous
100
AcDbCircle
 10
-664.553214
 20
-7.408057
 30
0.0
 40
0.3
100
AcDbArc
 50
283.342364
 51
0.0
  0
ARC
  5
43D
100
AcDbEntity
  8
0
370
    -3
  6
Continuous
100
AcDbCircle
 10
-654.743101
 20
2.827032
 30
0.0
 40
6.0
100
AcDbArc
 50
90.0
 51
180.0
  0
LINE
  5
43E
100
AcDbEntity
  8
0
370
    -3
  6
Continuous
100
AcDbLine
 10
-660.743101
 20
1.77822
 30
0.0
 11
-660.743101
 21
2.827032
 31
0.0
  0
ARC
  5
43F
100
AcDbEntity
  8
0
370
    -3
  6
Continuous
100
AcDbCircle
 10
-657.453214
 20
-4.172968
 30
0.0
 40
6.8
100
AcDbArc
 50
90.0
 51
180.0
  0
LINE
  5
440
100
AcDbEntity
  8
0
370
    -3
  6
Continuous
100
AcDbLine
 10
-664.253214
 20
-36.672968
 30
0.0
 11
-664.253214
 21
-4.172968
 31
0.0
  0
ARC
  5
441
100
AcDbEntity
  8
0
370
    -3
  6
Continuous
100
AcDbCircle
 10
-627.820356
 20
-1.172968
 30
0.0
 40
3.8
100
AcDbArc
 50
22.977375
 51
90.0
  0
ARC
  5
442
100
AcDbEntity
  8
0
370
    -3
  6
Continuous
100
AcDbCircle
 10
-623.817303
 20
-10.613935
 30
0.0
 40
3.8
100
AcDbArc
 50
360.0
 51
22.977375
  0
LINE
  5
443
100
AcDbEntity
  8
0
370
    -3
  6
Continuous
100
AcDbLine
 10
-620.318798
 20
-9.130538
 30
0.0
 11
-624.321852
 21
0.310428
 31
0.0
  0
LINE
  5
444
100
AcDbEntity
  8
0
370
    -3
  6
Continuous
100
AcDbLine
 10
-657.453214
 20
2.627032
 30
0.0
 11
-627.820356
 21
2.627032
 31
0.0
  0
LINE
  5
445
100
AcDbEntity
  8
0
370
    -3
  6
Continuous
100
AcDbLine
 10
-620.017303
 20
-36.672968
 30
0.0
 11
-620.017303
 21
-10.613935
 31
0.0
  0
LINE
  5
446
100
AcDbEntity
  8
0
370
    -3
  6
Continuous
100
AcDbLine
 10
-665.253214
 20
-36.672968
 30
0.0
 11
-665.253214
 21
-8.672968
 31
0.0
  0
ARC
  5
447
100
AcDbEntity
  8
0
370
    -3
  6
Continuous
100
AcDbCircle
 10
-656.159597
 20
2.327032
 30
0.0
 40
7.0
100
AcDbArc
 50
90.0
 51
180.0
  0
LINE
  5
448
100
AcDbEntity
  8
0
370
    -3
  6
Continuous
100
AcDbLine
 10
-666.253214
 20
-5.672968
 30
0.0
 11
-665.253214
 21
-5.672968
 31
0.0
  0
LINE
  5
449
100
AcDbEntity
  8
0
370
    -3
  6
Continuous
100
AcDbLine
 10
-665.253214
 20
-5.672968
 30
0.0
 11
-665.253214
 21
-36.672968
 31
0.0
  0
LINE
  5
44A
100
AcDbEntity
  8
0
370
    -3
  6
Continuous
100
AcDbLine
 10
-666.253214
 20
-36.672968
 30
0.0
 11
-666.253214
 21
-5.672968
 31
0.0
  0
LINE
  5
44B
100
AcDbEntity
  8
0
370
    -3
  6
Continuous
100
AcDbLine
 10
-613.782066
 20
2.327032
 30
0.0
 11
-613.782066
 21
-36.672968
 31
0.0
  0
LINE
  5
44C
100
AcDbEntity
  8
0
370
    -3
  6
Continuous
100
AcDbLine
 10
-618.784679
 20
-36.672968
 30
0.0
 11
-618.784679
 21
2.327032
 31
0.0
  0
LINE
  5
44D
100
AcDbEntity
  8
0
370
    -3
  6
Continuous
100
AcDbLine
 10
-621.582066
 20
10.127032
 30
0.0
 11
-655.697691
 21
10.127032
 31
0.0
  0
ELLIPSE
  5
44E
100
AcDbEntity
  8
0
370
    -3
  6
Continuous
100
AcDbEllipse
 10
-615.667475
 20
2.827032
 30
0.0
 11
0.0
 21
3.5
 31
0.0
210
0.0
220
0.0
230
1.0
 40
0.656603
 41
4.1037320181004482
 42
5.8501343317261245
  0
ARC
  5
44F
100
AcDbEntity
  8
0
370
    -3
  6
Continuous
100
AcDbCircle
 10
-621.582066
 20
2.327032
 30
0.0
 40
7.8
100
AcDbArc
 50
0.0
 51
90.0
  0
ARC
  5
450
100
AcDbEntity
  8
0
370
    -3
  6
Continuous
100
AcDbCircle
 10
-626.246584
 20
2.327032
 30
0.0
 40
7.8
100
AcDbArc
 50
0.0
 51
90.0
  0
ARC
  5
451
100
AcDbEntity
  8
0
370
    -3
  6
Continuous
100
AcDbCircle
 10
-625.784679
 20
2.327032
 30
0.0
 40
7.0
100
AcDbArc
 50
0.0
 51
90.0
  0
LINE
  5
452
100
AcDbEntity
  8
0
370
    -3
  6
Continuous
100
AcDbLine
 10
-625.784679
 20
9.327032
 30
0.0
 11
-656.159597
 21
9.327032
 31
0.0
  0
ARC
  5
453
100
AcDbEntity
  8
0
370
    -3
  6
Continuous
100
AcDbCircle
 10
-655.697691
 20
2.327032
 30
0.0
 40
7.8
100
AcDbArc
 50
90.0
 51
180.0
  0
LINE
  5
454
100
AcDbEntity
  8
0
370
    -3
  6
CENTER
100
AcDbLine
 10
-639.253214
 20
-18.028036
 30
0.0
 11
-639.253214
 21
-57.973425
 31
0.0
  0
LINE
  5
455
100
AcDbEntity
  8
0
370
    -3
  6
Continuous
100
AcDbLine
 10
-618.446584
 20
-36.672968
 30
0.0
 11
-618.446584
 21
-75.672968
 31
0.0
  0
LINE
  5
456
100
AcDbEntity
  8
0
370
    -3
  6
Continuous
100
AcDbLine
 10
-654.743101
 20
-82.172968
 30
0.0
 11
-623.186603
 21
-82.172968
 31
0.0
  0
LINE
  5
457
100
AcDbEntity
  8
0
370
    -3
  6
Continuous
100
AcDbLine
 10
-663.497691
 20
-75.672968
 30
0.0
 11
-663.497691
 21
-72.288141
 31
0.0
  0
LINE
  5
458
100
AcDbEntity
  8
0
370
    -3
  6
Continuous
100
AcDbLine
 10
-663.159597
 20
-72.871239
 30
0.0
 11
-663.159597
 21
-75.672968
 31
0.0
  0
ELLIPSE
  5
459
100
AcDbEntity
  8
0
370
    -3
  6
Continuous
100
AcDbEllipse
 10
-619.74913
 20
-76.172968
 30
0.0
 11
0.0
 21
2.0
 31
0.0
210
0.0
220
0.0
230
1.0
 40
0.422618
 41
0.0
 42
6.2831853071795862
  0
ELLIPSE
  5
45A
100
AcDbEntity
  8
0
370
    -3
  6
Continuous
100
AcDbEllipse
 10
-619.74913
 20
-76.172968
 30
0.0
 11
0.0
 21
1.6500000000000057
 31
0.0
210
0.0
220
0.0
230
1.0
 40
0.422618
 41
0.0
 42
6.2831853071795862
  0
LINE
  5
45B
100
AcDbEntity
  8
0
370
    -3
  6
CENTER
100
AcDbLine
 10
-619.74913
 20
-79.037828
 30
0.0
 11
-619.74913
 21
-73.426437
 31
0.0
  0
LINE
  5
45C
100
AcDbEntity
  8
0
370
    -3
  6
CENTER
100
AcDbLine
 10
-622.141951
 20
-76.172968
 30
0.0
 11
-617.697193
 21
-76.172968
 31
0.0
  0
ARC
  5
45D
100
AcDbEntity
  8
0
370
    -3
  6
Continuous
100
AcDbCircle
 10
-664.253214
 20
-64.672968
 30
0.0
 40
1.0
100
AcDbArc
 50
180.0
 51
256.657636
  0
ARC
  5
45E
100
AcDbEntity
  8
0
370
    -3
  6
Continuous
100
AcDbCircle
 10
-664.553214
 20
-65.937879
 30
0.0
 40
0.3
100
AcDbArc
 50
0.0
 51
76.657636
  0
ARC
  5
45F
100
AcDbEntity
  8
0
370
    -3
  6
Continuous
100
AcDbCircle
 10
-654.743101
 20
-76.172968
 30
0.0
 40
6.0
100
AcDbArc
 50
180.0
 51
270.0
  0
LINE
  5
460
100
AcDbEntity
  8
0
370
    -3
  6
Continuous
100
AcDbLine
 10
-660.743101
 20
-75.124157
 30
0.0
 11
-660.743101
 21
-76.172968
 31
0.0
  0
ARC
  5
461
100
AcDbEntity
  8
0
370
    -3
  6
Continuous
100
AcDbCircle
 10
-657.453214
 20
-69.172968
 30
0.0
 40
6.8
100
AcDbArc
 50
180.0
 51
270.0
  0
LINE
  5
462
100
AcDbEntity
  8
0
370
    -3
  6
Continuous
100
AcDbLine
 10
-664.253214
 20
-36.672968
 30
0.0
 11
-664.253214
 21
-69.172968
 31
0.0
  0
ARC
  5
463
100
AcDbEntity
  8
0
370
    -3
  6
Continuous
100
AcDbCircle
 10
-627.820356
 20
-72.172968
 30
0.0
 40
3.8
100
AcDbArc
 50
270.0
 51
337.022625
  0
ARC
  5
464
100
AcDbEntity
  8
0
370
    -3
  6
Continuous
100
AcDbCircle
 10
-623.817303
 20
-62.732002
 30
0.0
 40
3.8
100
AcDbArc
 50
337.022625
 51
0.0
  0
LINE
  5
465
100
AcDbEntity
  8
0
370
    -3
  6
Continuous
100
AcDbLine
 10
-620.318798
 20
-64.215399
 30
0.0
 11
-624.321852
 21
-73.656365
 31
0.0
  0
LINE
  5
466
100
AcDbEntity
  8
0
370
    -3
  6
Continuous
100
AcDbLine
 10
-657.453214
 20
-75.972968
 30
0.0
 11
-627.820356
 21
-75.972968
 31
0.0
  0
LINE
  5
467
100
AcDbEntity
  8
0
370
    -3
  6
Continuous
100
AcDbLine
 10
-620.017303
 20
-36.672968
 30
0.0
 11
-620.017303
 21
-62.732002
 31
0.0
  0
LINE
  5
468
100
AcDbEntity
  8
0
370
    -3
  6
Continuous
100
AcDbLine
 10
-665.253214
 20
-36.672968
 30
0.0
 11
-665.253214
 21
-64.672968
 31
0.0
  0
ARC
  5
469
100
AcDbEntity
  8
0
370
    -3
  6
Continuous
100
AcDbCircle
 10
-656.159597
 20
-75.672968
 30
0.0
 40
7.0
100
AcDbArc
 50
180.0
 51
270.0
  0
LINE
  5
46A
100
AcDbEntity
  8
0
370
    -3
  6
Continuous
100
AcDbLine
 10
-666.253214
 20
-67.672968
 30
0.0
 11
-665.253214
 21
-67.672968
 31
0.0
  0
LINE
  5
46B
100
AcDbEntity
  8
0
370
    -3
  6
Continuous
100
AcDbLine
 10
-665.253214
 20
-67.672968
 30
0.0
 11
-665.253214
 21
-36.672968
 31
0.0
  0
LINE
  5
46C
100
AcDbEntity
  8
0
370
    -3
  6
Continuous
100
AcDbLine
 10
-666.253214
 20
-36.672968
 30
0.0
 11
-666.253214
 21
-67.672968
 31
0.0
  0
LINE
  5
46D
100
AcDbEntity
  8
0
370
    -3
  6
Continuous
100
AcDbLine
 10
-613.782066
 20
-75.672968
 30
0.0
 11
-613.782066
 21
-36.672968
 31
0.0
  0
LINE
  5
46E
100
AcDbEntity
  8
0
370
    -3
  6
Continuous
100
AcDbLine
 10
-618.784679
 20
-36.672968
 30
0.0
 11
-618.784679
 21
-75.672968
 31
0.0
  0
LINE
  5
46F
100
AcDbEntity
  8
0
370
    -3
  6
Continuous
100
AcDbLine
 10
-621.582066
 20
-83.472968
 30
0.0
 11
-655.697691
 21
-83.472968
 31
0.0
  0
ELLIPSE
  5
470
100
AcDbEntity
  8
0
370
    -3
  6
Continuous
100
AcDbEllipse
 10
-615.667475
 20
-76.172968
 30
0.0
 11
0.0
 21
3.5
 31
0.0
210
0.0
220
0.0
230
1.0
 40
0.656603
 41
3.5746436290431376
 42
5.3210459426689347
  0
ARC
  5
471
100
AcDbEntity
  8
0
370
    -3
  6
Continuous
100
AcDbCircle
 10
-621.582066
 20
-75.672968
 30
0.0
 40
7.8
100
AcDbArc
 50
270.0
 51
0.0
  0
ARC
  5
472
100
AcDbEntity
  8
0
370
    -3
  6
Continuous
100
AcDbCircle
 10
-626.246584
 20
-75.672968
 30
0.0
 40
7.8
100
AcDbArc
 50
270.0
 51
0.0
  0
ARC
  5
473
100
AcDbEntity
  8
0
370
    -3
  6
Continuous
100
AcDbCircle
 10
-625.784679
 20
-75.672968
 30
0.0
 40
7.0
100
AcDbArc
 50
270.0
 51
0.0
  0
LINE
  5
474
100
AcDbEntity
  8
0
370
    -3
  6
Continuous
100
AcDbLine
 10
-625.784679
 20
-82.672968
 30
0.0
 11
-656.159597
 21
-82.672968
 31
0.0
  0
ARC
  5
475
100
AcDbEntity
  8
0
370
    -3
  6
Continuous
100
AcDbCircle
 10
-655.697691
 20
-75.672968
 30
0.0
 40
7.8
100
AcDbArc
 50
180.0
 51
270.0
  0
ARC
  5
476
100
AcDbEntity
  8
0
370
    -3
  6
Continuous
100
AcDbCircle
 10
-639.253214
 20
-36.672968
 30
0.0
 40
17.0
100
AcDbArc
 50
0.0
 51
180.0
  0
ARC
  5
477
100
AcDbEntity
  8
0
370
    -3
  6
Continuous
100
AcDbCircle
 10
-639.253214
 20
-36.672968
 30
0.0
 40
13.2205
100
AcDbArc
 50
0.0
 51
180.0
  0
ARC
  5
478
100
AcDbEntity
  8
0
370
    -3
  6
Continuous
100
AcDbCircle
 10
-639.253214
 20
-36.672968
 30
0.0
 40
12.0585
100
AcDbArc
 50
0.0
 51
180.0
  0
LINE
  5
479
100
AcDbEntity
  8
0
370
    -3
  6
Continuous
100
AcDbLine
 10
-669.853214
 20
-13.672968
 30
0.0
 11
-675.792612
 21
-13.672968
 31
0.0
  0
LINE
  5
47A
100
AcDbEntity
  8
0
370
    -3
  6
Continuous
100
AcDbLine
 10
-669.853214
 20
-12.072968
 30
0.0
 11
-675.961451
 21
-12.072968
 31
0.0
  0
ARC
  5
47B
100
AcDbEntity
  8
0
370
    -3
  6
Continuous
100
AcDbCircle
 10
-669.853214
 20
-10.072968
 30
0.0
 40
3.6
100
AcDbArc
 50
270.0
 51
0.0
  0
ARC
  5
47C
100
AcDbEntity
  8
0
370
    -3
  6
Continuous
100
AcDbCircle
 10
-669.853214
 20
-10.072968
 30
0.0
 40
2.0
100
AcDbArc
 50
270.0
 51
0.0
  0
LINE
  5
47D
100
AcDbEntity
  8
0
370
    -3
  6
Continuous
100
AcDbLine
 10
-667.853214
 20
-10.072968
 30
0.0
 11
-667.853214
 21
-5.672968
 31
0.0
  0
LINE
  5
47E
100
AcDbEntity
  8
0
370
    -3
  6
Continuous
100
AcDbLine
 10
-666.253214
 20
-5.672968
 30
0.0
 11
-667.853214
 21
-5.672968
 31
0.0
  0
LINE
  5
47F
100
AcDbEntity
  8
0
370
    -3
  6
Continuous
100
AcDbLine
 10
-669.853214
 20
-61.272968
 30
0.0
 11
-675.961451
 21
-61.272968
 31
0.0
  0
LINE
  5
480
100
AcDbEntity
  8
0
370
    -3
  6
Continuous
100
AcDbLine
 10
-669.853214
 20
-59.672968
 30
0.0
 11
-675.792612
 21
-59.672968
 31
0.0
  0
LINE
  5
481
100
AcDbEntity
  8
0
370
    -3
  6
Continuous
100
AcDbLine
 10
-667.853214
 20
-67.672968
 30
0.0
 11
-667.853214
 21
-63.272968
 31
0.0
  0
ARC
  5
482
100
AcDbEntity
  8
0
370
    -3
  6
Continuous
100
AcDbCircle
 10
-669.853214
 20
-63.272968
 30
0.0
 40
3.6
100
AcDbArc
 50
0.0
 51
90.0
  0
ARC
  5
483
100
AcDbEntity
  8
0
370
    -3
  6
Continuous
100
AcDbCircle
 10
-669.853214
 20
-63.272968
 30
0.0
 40
2.0
100
AcDbArc
 50
0.0
 51
90.0
  0
LINE
  5
484
100
AcDbEntity
  8
0
370
    -3
  6
Continuous
100
AcDbLine
 10
-666.253214
 20
-67.672968
 30
0.0
 11
-667.853214
 21
-67.672968
 31
0.0
  0
LINE
  5
485
100
AcDbEntity
  8
0
370
    -3
  6
Continuous
100
AcDbLine
 10
6.017935
 20
10.127032
 30
0.0
 11
34.189083
 21
10.127032
 31
0.0
  0
LINE
  5
486
100
AcDbEntity
  8
0
370
    -3
  6
Continuous
100
AcDbLine
 10
6.017935
 20
-83.472968
 30
0.0
 11
34.189083
 21
-83.472968
 31
0.0
  0
LINE
  5
487
100
AcDbEntity
  8
0
370
    -3
  6
Continuous
100
AcDbLine
 10
-1.782065
 20
0.82585
 30
0.0
 11
-1.782065
 21
-74.171787
 31
0.0
  0
ARC
  5
488
100
AcDbEntity
  8
0
370
    -3
  6
Continuous
100
AcDbCircle
 10
6.017935
 20
2.327032
 30
0.0
 40
7.8
100
AcDbArc
 50
90.0
 51
151.87484
  0
ELLIPSE
  5
489
100
AcDbEntity
  8
0
370
    -3
  6
Continuous
100
AcDbEllipse
 10
0.103343
 20
2.827032
 30
0.0
 11
0.0000000000000002
 21
3.5
 31
0.0
210
0.0
220
0.0
230
1.0
 40
0.656603
 41
0.0
 42
6.2831853071795862
  0
LINE
  5
48A
100
AcDbEntity
  8
0
370
    -3
  6
Continuous
100
AcDbLine
 10
-1.943937
 20
4.417048
 30
0.0
 11
-1.43411
 21
2.827032
 31
0.0
  0
LINE
  5
48B
100
AcDbEntity
  8
0
370
    -3
  6
Continuous
100
AcDbLine
 10
-1.43411
 20
2.827032
 30
0.0
 11
-0.384922
 21
4.827032
 31
0.0
  0
LINE
  5
48C
100
AcDbEntity
  8
0
370
    -3
  6
Continuous
100
AcDbLine
 10
-1.43411
 20
2.827032
 30
0.0
 11
-0.384922
 21
0.827032
 31
0.0
  0
LINE
  5
48D
100
AcDbEntity
  8
0
370
    -3
  6
Continuous
100
AcDbLine
 10
-1.943937
 20
1.237015
 30
0.0
 11
-1.43411
 21
2.827032
 31
0.0
  0
ARC
  5
48E
100
AcDbEntity
  8
0
370
    -3
  6
Continuous
100
AcDbCircle
 10
6.017935
 20
-75.672968
 30
0.0
 40
7.8
100
AcDbArc
 50
208.12516
 51
270.0
  0
ELLIPSE
  5
48F
100
AcDbEntity
  8
0
370
    -3
  6
Continuous
100
AcDbEllipse
 10
0.103343
 20
-76.172968
 30
0.0
 11
0.0000000000000002
 21
3.5
 31
0.0
210
0.0
220
0.0
230
1.0
 40
0.656603
 41
0.0
 42
6.2831853071795862
  0
LINE
  5
490
100
AcDbEntity
  8
0
370
    -3
  6
Continuous
100
AcDbLine
 10
-1.943937
 20
-77.762985
 30
0.0
 11
-1.43411
 21
-76.172968
 31
0.0
  0
LINE
  5
491
100
AcDbEntity
  8
0
370
    -3
  6
Continuous
100
AcDbLine
 10
-1.43411
 20
-76.172968
 30
0.0
 11
-0.384922
 21
-78.172968
 31
0.0
  0
LINE
  5
492
100
AcDbEntity
  8
0
370
    -3
  6
Continuous
100
AcDbLine
 10
-1.43411
 20
-76.172968
 30
0.0
 11
-0.384922
 21
-74.172968
 31
0.0
  0
LINE
  5
493
100
AcDbEntity
  8
0
370
    -3
  6
Continuous
100
AcDbLine
 10
-1.943937
 20
-74.582952
 30
0.0
 11
-1.43411
 21
-76.172968
 31
0.0
  0
ARC
  5
494
100
AcDbEntity
  8
0
370
    -3
  6
Continuous
100
AcDbCircle
 10
31.382193
 20
-1.922968
 30
0.0
 40
3.8
100
AcDbArc
 50
42.383005
 51
90.0
  0
LINE
  5
495
100
AcDbEntity
  8
0
370
    -3
  6
Continuous
100
AcDbLine
 10
31.382193
 20
1.877032
 30
0.0
 11
6.871556
 21
1.877032
 31
0.0
  0
ARC
  5
496
100
AcDbEntity
  8
0
370
    -3
  6
Continuous
100
AcDbCircle
 10
31.382193
 20
-71.422968
 30
0.0
 40
3.8
100
AcDbArc
 50
270.0
 51
317.616995
  0
LINE
  5
497
100
AcDbEntity
  8
0
370
    -3
  6
Continuous
100
AcDbLine
 10
31.382193
 20
-75.222968
 30
0.0
 11
6.871556
 21
-75.222968
 31
0.0
  0
ARC
  5
498
100
AcDbEntity
  8
0
370
    -3
  6
Continuous
100
AcDbCircle
 10
6.871556
 20
-4.922968
 30
0.0
 40
6.8
100
AcDbArc
 50
90.0
 51
180.0
  0
LINE
  5
499
100
AcDbEntity
  8
0
370
    -3
  6
Continuous
100
AcDbLine
 10
0.071556
 20
-4.922968
 30
0.0
 11
0.071556
 21
-68.422968
 31
0.0
  0
ARC
  5
49A
100
AcDbEntity
  8
0
370
    -3
  6
Continuous
100
AcDbCircle
 10
6.871556
 20
-68.422968
 30
0.0
 40
6.8
100
AcDbArc
 50
180.0
 51
270.0
  0
CIRCLE
  5
49B
100
AcDbEntity
  8
0
370
    -3
  6
DASHED
100
AcDbCircle
 10
23.689083
 20
-36.672968
 30
0.0
 40
17.0
  0
LINE
  5
49C
100
AcDbEntity
  8
0
370
    -3
  6
CENTER
100
AcDbLine
 10
23.689083
 20
-15.372511
 30
0.0
 11
23.689083
 21
-57.973425
 31
0.0
  0
LINE
  5
49D
100
AcDbEntity
  8
0
370
    -3
  6
CENTER
100
AcDbLine
 10
2.388626
 20
-36.672968
 30
0.0
 11
44.98954
 21
-36.672968
 31
0.0
  0
POINT
  5
49E
100
AcDbEntity
  8
0
370
    -3
  6
CENTER
100
AcDbPoint
 10
-473.948045
 20
-22.901019
 30
0.0
  0
LINE
  5
49F
100
AcDbEntity
  8
0
370
    -3
  6
Continuous
100
AcDbLine
 10
-471.782065
 20
-19.672968
 30
0.0
 11
-453.356125
 21
-19.672968
 31
0.0
  0
ARC
  5
4A0
100
AcDbEntity
  8
0
370
    -3
  6
Continuous
100
AcDbCircle
 10
-471.782065
 20
-21.672968
 30
0.0
 40
2.0
100
AcDbArc
 50
90.0
 51
180.0
  0
LINE
  5
4A1
100
AcDbEntity
  8
0
370
    -3
  6
Continuous
100
AcDbLine
 10
-473.782065
 20
-36.672968
 30
0.0
 11
-473.782065
 21
-21.672968
 31
0.0
  0
LINE
  5
4A2
100
AcDbEntity
  8
0
370
    -3
  6
Continuous
100
AcDbLine
 10
-442.736931
 20
2.827032
 30
0.0
 11
-444.644651
 21
0.827032
 31
0.0
  0
LINE
  5
4A3
100
AcDbEntity
  8
0
370
    -3
  6
Continuous
100
AcDbLine
 10
-441.019419
 20
4.827032
 30
0.0
 11
-442.736931
 21
2.827032
 31
0.0
  0
LINE
  5
4A4
100
AcDbEntity
  8
0
370
    -3
  6
Continuous
100
AcDbLine
 10
-442.736931
 20
2.827032
 30
0.0
 11
-441.019419
 21
0.827032
 31
0.0
  0
LINE
  5
4A5
100
AcDbEntity
  8
0
370
    -3
  6
Continuous
100
AcDbLine
 10
-444.644651
 20
4.827032
 30
0.0
 11
-442.736931
 21
2.827032
 31
0.0
  0
ELLIPSE
  5
4A6
100
AcDbEntity
  8
0
370
    -3
  6
Continuous
100
AcDbEllipse
 10
-443.567962
 20
2.827032
 30
0.0
 11
0.0
 21
3.5
 31
0.0
210
0.0
220
0.0
230
1.0
 40
0.982815
 41
0.0
 42
6.2831853071795862
  0
LINE
  5
4A7
100
AcDbEntity
  8
0
370
    -3
  6
Continuous
100
AcDbLine
 10
-443.114324
 20
-36.672968
 30
0.0
 11
-443.114324
 21
-12.108506
 31
0.0
  0
ARC
  5
4A8
100
AcDbEntity
  8
0
370
    -3
  6
Continuous
100
AcDbCircle
 10
-439.314324
 20
-12.108506
 30
0.0
 40
3.8
100
AcDbArc
 50
138.609573
 51
180.0
  0
LINE
  5
4A9
100
AcDbEntity
  8
0
370
    -3
  6
Continuous
100
AcDbLine
 10
-433.188431
 20
0.58954
 30
0.0
 11
-442.165166
 21
-9.595997
 31
0.0
  0
ARC
  5
4AA
100
AcDbEntity
  8
0
370
    -3
  6
Continuous
100
AcDbCircle
 10
-430.337589
 20
-1.922968
 30
0.0
 40
3.8
100
AcDbArc
 50
90.0
 51
138.609573
  0
LINE
  5
4AB
100
AcDbEntity
  8
0
370
    -3
  6
Continuous
100
AcDbLine
 10
-430.337589
 20
1.877032
 30
0.0
 11
-374.841533
 21
1.877032
 31
0.0
  0
LINE
  5
4AC
100
AcDbEntity
  8
0
370
    -3
  6
Continuous
100
AcDbLine
 10
-450.904939
 20
-36.672968
 30
0.0
 11
-450.904939
 21
2.327032
 31
0.0
  0
LINE
  5
4AD
100
AcDbEntity
  8
0
370
    -3
  6
Continuous
100
AcDbLine
 10
-453.356125
 20
-36.672968
 30
0.0
 11
-453.356125
 21
2.327032
 31
0.0
  0
ARC
  5
4AE
100
AcDbEntity
  8
0
370
    -3
  6
Continuous
100
AcDbCircle
 10
-443.104939
 20
2.327032
 30
0.0
 40
7.8
100
AcDbArc
 50
90.0
 51
180.0
  0
ARC
  5
4AF
100
AcDbEntity
  8
0
370
    -3
  6
Continuous
100
AcDbCircle
 10
-445.556125
 20
2.327032
 30
0.0
 40
7.8
100
AcDbArc
 50
90.0
 51
180.0
  0
LINE
  5
4B0
100
AcDbEntity
  8
0
370
    -3
  6
Continuous
100
AcDbLine
 10
-362.684596
 20
10.127032
 30
0.0
 11
-445.556125
 21
10.127032
 31
0.0
  0
POINT
  5
4B1
100
AcDbEntity
  8
0
370
    -3
  6
CENTER
100
AcDbPoint
 10
-473.948045
 20
-49.342019
 30
0.0
  0
LINE
  5
4B2
100
AcDbEntity
  8
0
370
    -3
  6
Continuous
100
AcDbLine
 10
-471.782065
 20
-53.672968
 30
0.0
 11
-453.356125
 21
-53.672968
 31
0.0
  0
ARC
  5
4B3
100
AcDbEntity
  8
0
370
    -3
  6
Continuous
100
AcDbCircle
 10
-471.782065
 20
-51.672968
 30
0.0
 40
2.0
100
AcDbArc
 50
180.0
 51
270.0
  0
LINE
  5
4B4
100
AcDbEntity
  8
0
370
    -3
  6
Continuous
100
AcDbLine
 10
-473.782065
 20
-36.672968
 30
0.0
 11
-473.782065
 21
-51.672968
 31
0.0
  0
LINE
  5
4B5
100
AcDbEntity
  8
0
370
    -3
  6
Continuous
100
AcDbLine
 10
-443.114324
 20
-36.672968
 30
0.0
 11
-443.114324
 21
-61.237431
 31
0.0
  0
LINE
  5
4B6
100
AcDbEntity
  8
0
370
    -3
  6
Continuous
100
AcDbLine
 10
-430.337589
 20
-75.222968
 30
0.0
 11
-374.841533
 21
-75.222968
 31
0.0
  0
LINE
  5
4B7
100
AcDbEntity
  8
0
370
    -3
  6
Continuous
100
AcDbLine
 10
-442.736931
 20
-76.172968
 30
0.0
 11
-444.644651
 21
-74.172968
 31
0.0
  0
LINE
  5
4B8
100
AcDbEntity
  8
0
370
    -3
  6
Continuous
100
AcDbLine
 10
-441.019419
 20
-78.172968
 30
0.0
 11
-442.736931
 21
-76.172968
 31
0.0
  0
LINE
  5
4B9
100
AcDbEntity
  8
0
370
    -3
  6
Continuous
100
AcDbLine
 10
-442.736931
 20
-76.172968
 30
0.0
 11
-441.019419
 21
-74.172968
 31
0.0
  0
LINE
  5
4BA
100
AcDbEntity
  8
0
370
    -3
  6
Continuous
100
AcDbLine
 10
-444.644651
 20
-78.172968
 30
0.0
 11
-442.736931
 21
-76.172968
 31
0.0
  0
ELLIPSE
  5
4BB
100
AcDbEntity
  8
0
370
    -3
  6
Continuous
100
AcDbEllipse
 10
-443.567962
 20
-76.172968
 30
0.0
 11
0.0000000000002274
 21
3.5
 31
0.0
210
0.0
220
0.0
230
1.0
 40
0.982815
 41
0.0
 42
6.2831853071795862
  0
ARC
  5
4BC
100
AcDbEntity
  8
0
370
    -3
  6
Continuous
100
AcDbCircle
 10
-439.314324
 20
-61.237431
 30
0.0
 40
3.8
100
AcDbArc
 50
180.0
 51
221.390427
  0
LINE
  5
4BD
100
AcDbEntity
  8
0
370
    -3
  6
Continuous
100
AcDbLine
 10
-433.188431
 20
-73.935477
 30
0.0
 11
-442.165166
 21
-63.74994
 31
0.0
  0
ARC
  5
4BE
100
AcDbEntity
  8
0
370
    -3
  6
Continuous
100
AcDbCircle
 10
-430.337589
 20
-71.422968
 30
0.0
 40
3.8
100
AcDbArc
 50
221.390427
 51
270.0
  0
LINE
  5
4BF
100
AcDbEntity
  8
0
370
    -3
  6
Continuous
100
AcDbLine
 10
-450.904939
 20
-36.672968
 30
0.0
 11
-450.904939
 21
-75.672968
 31
0.0
  0
LINE
  5
4C0
100
AcDbEntity
  8
0
370
    -3
  6
Continuous
100
AcDbLine
 10
-453.356125
 20
-36.672968
 30
0.0
 11
-453.356125
 21
-75.672968
 31
0.0
  0
ARC
  5
4C1
100
AcDbEntity
  8
0
370
    -3
  6
Continuous
100
AcDbCircle
 10
-443.104939
 20
-75.672968
 30
0.0
 40
7.8
100
AcDbArc
 50
180.0
 51
270.0
  0
ARC
  5
4C2
100
AcDbEntity
  8
0
370
    -3
  6
Continuous
100
AcDbCircle
 10
-445.556125
 20
-75.672968
 30
0.0
 40
7.8
100
AcDbArc
 50
180.0
 51
270.0
  0
LINE
  5
4C3
100
AcDbEntity
  8
0
370
    -3
  6
Continuous
100
AcDbLine
 10
-362.684596
 20
-83.472968
 30
0.0
 11
-445.556125
 21
-83.472968
 31
0.0
  0
LINE
  5
4C4
100
AcDbEntity
  8
0
370
    -3
  6
Continuous
100
AcDbLine
 10
-360.262922
 20
-76.172968
 30
0.0
 11
-362.170642
 21
-74.172968
 31
0.0
  0
LINE
  5
4C5
100
AcDbEntity
  8
0
370
    -3
  6
Continuous
100
AcDbLine
 10
-358.545411
 20
-78.172968
 30
0.0
 11
-360.262922
 21
-76.172968
 31
0.0
  0
LINE
  5
4C6
100
AcDbEntity
  8
0
370
    -3
  6
Continuous
100
AcDbLine
 10
-360.262922
 20
-76.172968
 30
0.0
 11
-358.545411
 21
-74.172968
 31
0.0
  0
LINE
  5
4C7
100
AcDbEntity
  8
0
370
    -3
  6
Continuous
100
AcDbLine
 10
-362.170642
 20
-78.172968
 30
0.0
 11
-360.262922
 21
-76.172968
 31
0.0
  0
ELLIPSE
  5
4C8
100
AcDbEntity
  8
0
370
    -3
  6
Continuous
100
AcDbEllipse
 10
-361.093953
 20
-76.172968
 30
0.0
 11
0.0000000000002274
 21
3.5
 31
0.0
210
0.0
220
0.0
230
1.0
 40
0.982815
 41
0.0
 42
6.2831853071795862
  0
LINE
  5
4C9
100
AcDbEntity
  8
0
370
    -3
  6
Continuous
100
AcDbLine
 10
-372.356112
 20
-36.672968
 30
0.0
 11
-372.356112
 21
-65.222968
 31
0.0
  0
ARC
  5
4CA
100
AcDbEntity
  8
0
370
    -3
  6
Continuous
100
AcDbCircle
 10
-382.356112
 20
-65.222968
 30
0.0
 40
10.0
100
AcDbArc
 50
270.0
 51
360.0
  0
LINE
  5
4CB
100
AcDbEntity
  8
0
370
    -3
  6
Continuous
100
AcDbLine
 10
-361.902706
 20
-36.672968
 30
0.0
 11
-361.902706
 21
-61.21996
 31
0.0
  0
ARC
  5
4CC
100
AcDbEntity
  8
0
370
    -3
  6
Continuous
100
AcDbCircle
 10
-365.702706
 20
-61.21996
 30
0.0
 40
3.8
100
AcDbArc
 50
318.14922
 51
0.0
  0
LINE
  5
4CD
100
AcDbEntity
  8
0
370
    -3
  6
Continuous
100
AcDbLine
 10
-372.01097
 20
-73.958301
 30
0.0
 11
-362.872143
 21
-63.755293
 31
0.0
  0
ARC
  5
4CE
100
AcDbEntity
  8
0
370
    -3
  6
Continuous
100
AcDbCircle
 10
-374.841533
 20
-71.422968
 30
0.0
 40
3.8
100
AcDbArc
 50
270.0
 51
318.14922
  0
ARC
  5
4CF
100
AcDbEntity
  8
0
370
    -3
  6
Continuous
100
AcDbCircle
 10
-362.684596
 20
-75.672968
 30
0.0
 40
7.8
100
AcDbArc
 50
270.0
 51
360.0
  0
LINE
  5
4D0
100
AcDbEntity
  8
0
370
    -3
  6
Continuous
100
AcDbLine
 10
-354.884596
 20
-36.672968
 30
0.0
 11
-354.884596
 21
-75.672968
 31
0.0
  0
LINE
  5
4D1
100
AcDbEntity
  8
0
370
    -3
  6
Continuous
100
AcDbLine
 10
-360.262922
 20
2.827032
 30
0.0
 11
-362.170642
 21
0.827032
 31
0.0
  0
LINE
  5
4D2
100
AcDbEntity
  8
0
370
    -3
  6
Continuous
100
AcDbLine
 10
-358.545411
 20
4.827032
 30
0.0
 11
-360.262922
 21
2.827032
 31
0.0
  0
LINE
  5
4D3
100
AcDbEntity
  8
0
370
    -3
  6
Continuous
100
AcDbLine
 10
-360.262922
 20
2.827032
 30
0.0
 11
-358.545411
 21
0.827032
 31
0.0
  0
LINE
  5
4D4
100
AcDbEntity
  8
0
370
    -3
  6
Continuous
100
AcDbLine
 10
-362.170642
 20
4.827032
 30
0.0
 11
-360.262922
 21
2.827032
 31
0.0
  0
ELLIPSE
  5
4D5
100
AcDbEntity
  8
0
370
    -3
  6
Continuous
100
AcDbEllipse
 10
-361.093953
 20
2.827032
 30
0.0
 11
0.0
 21
3.5
 31
0.0
210
0.0
220
0.0
230
1.0
 40
0.982815
 41
0.0
 42
6.2831853071795862
  0
LINE
  5
4D6
100
AcDbEntity
  8
0
370
    -3
  6
Continuous
100
AcDbLine
 10
-361.902706
 20
-36.672968
 30
0.0
 11
-361.902706
 21
-12.125977
 31
0.0
  0
ARC
  5
4D7
100
AcDbEntity
  8
0
370
    -3
  6
Continuous
100
AcDbCircle
 10
-365.702706
 20
-12.125977
 30
0.0
 40
3.8
100
AcDbArc
 50
0.0
 51
41.85078
  0
LINE
  5
4D8
100
AcDbEntity
  8
0
370
    -3
  6
Continuous
100
AcDbLine
 10
-372.01097
 20
0.612365
 30
0.0
 11
-362.872143
 21
-9.590644
 31
0.0
  0
ARC
  5
4D9
100
AcDbEntity
  8
0
370
    -3
  6
Continuous
100
AcDbCircle
 10
-362.684596
 20
2.327032
 30
0.0
 40
7.8
100
AcDbArc
 50
0.0
 51
90.0
  0
LINE
  5
4DA
100
AcDbEntity
  8
0
370
    -3
  6
Continuous
100
AcDbLine
 10
-372.356112
 20
-36.672968
 30
0.0
 11
-372.356112
 21
-8.122968
 31
0.0
  0
ARC
  5
4DB
100
AcDbEntity
  8
0
370
    -3
  6
Continuous
100
AcDbCircle
 10
-382.356112
 20
-8.122968
 30
0.0
 40
10.0
100
AcDbArc
 50
0.0
 51
90.0
  0
ARC
  5
4DC
100
AcDbEntity
  8
0
370
    -3
  6
Continuous
100
AcDbCircle
 10
-374.841533
 20
-1.922968
 30
0.0
 40
3.8
100
AcDbArc
 50
41.85078
 51
90.0
  0
LINE
  5
4DD
100
AcDbEntity
  8
0
370
    -3
  6
Continuous
100
AcDbLine
 10
-354.884596
 20
-36.672968
 30
0.0
 11
-354.884596
 21
2.327032
 31
0.0
  0
LINE
  5
4DE
100
AcDbEntity
  8
0
370
    -3
  6
CENTER
100
AcDbLine
 10
-399.782065
 20
19.692619
 30
0.0
 11
-399.782065
 21
-93.714977
 31
0.0
  0
LINE
  5
4DF
100
AcDbEntity
  8
0
370
    -3
  6
CENTER
100
AcDbLine
 10
-569.306624
 20
304.713016
 30
0.0
 11
-33.701367
 21
304.713016
 31
0.0
  0
LINE
  5
4E0
100
AcDbEntity
  8
0
370
    -3
  6
Continuous
100
AcDbLine
 10
-254.782065
 20
387.713016
 30
0.0
 11
-409.782066
 21
387.713016
 31
0.0
  0
LINE
  5
4E1
100
AcDbEntity
  8
0
370
    -3
  6
Continuous
100
AcDbLine
 10
-254.782065
 20
387.213016
 30
0.0
 11
-409.782066
 21
387.213016
 31
0.0
  0
LINE
  5
4E2
100
AcDbEntity
  8
0
370
    -3
  6
Continuous
100
AcDbLine
 10
-254.782065
 20
384.713016
 30
0.0
 11
-409.782066
 21
384.713016
 31
0.0
  0
LINE
  5
4E3
100
AcDbEntity
  8
0
370
    -3
  6
Continuous
100
AcDbLine
 10
-412.782066
 20
218.353507
 30
0.0
 11
-428.782066
 21
218.353507
 31
0.0
  0
ARC
  5
4E4
100
AcDbEntity
  8
0
370
    -3
  6
Continuous
100
AcDbCircle
 10
-428.782066
 20
217.353507
 30
0.0
 40
1.0
100
AcDbArc
 50
90.0
 51
176.588332
  0
LINE
  5
4E5
100
AcDbEntity
  8
0
370
    -3
  6
Continuous
100
AcDbLine
 10
-409.782066
 20
392.013016
 30
0.0
 11
-409.782066
 21
304.713016
 31
0.0
  0
LINE
  5
4E6
100
AcDbEntity
  8
0
370
    -3
  6
Continuous
100
AcDbLine
 10
-435.282065
 20
373.585217
 30
0.0
 11
-437.21127
 21
374.795879
 31
0.0
  0
LINE
  5
4E7
100
AcDbEntity
  8
0
370
    -3
  6
Continuous
100
AcDbLine
 10
-435.282065
 20
373.585217
 30
0.0
 11
-437.282065
 21
372.011879
 31
0.0
  0
LINE
  5
4E8
100
AcDbEntity
  8
0
370
    -3
  6
Continuous
100
AcDbLine
 10
-435.282065
 20
373.585217
 30
0.0
 11
-433.352861
 21
374.795879
 31
0.0
  0
LINE
  5
4E9
100
AcDbEntity
  8
0
370
    -3
  6
Continuous
100
AcDbLine
 10
-435.282065
 20
373.585217
 30
0.0
 11
-433.282065
 21
372.011879
 31
0.0
  0
ELLIPSE
  5
4EA
100
AcDbEntity
  8
0
370
    -3
  6
Continuous
100
AcDbEllipse
 10
-435.282065
 20
371.746739
 30
0.0
 11
4.5
 21
0.0
 31
0.0
210
0.0
220
0.0
230
1.0
 40
0.707107
 41
2.158706662346169
 42
0.9828859912436241
  0
ELLIPSE
  5
4EB
100
AcDbEntity
  8
0
370
    -3
  6
Continuous
100
AcDbEllipse
 10
-435.282065
 20
372.283258
 30
0.0
 11
3.5
 21
0.0
 31
0.0
210
0.0
220
0.0
230
1.0
 40
0.860398
 41
0.0
 42
6.2831853071795862
  0
ELLIPSE
  5
4EC
100
AcDbEntity
  8
0
370
    -3
  6
Continuous
100
AcDbEllipse
 10
-435.282065
 20
371.181054
 30
0.0
 11
5.0
 21
0.0
 31
0.0
210
0.0
220
0.0
230
1.0
 40
0.707107
 41
2.4023208266491722
 42
3.1415926535897931
  0
ELLIPSE
  5
4ED
100
AcDbEntity
  8
0
370
    -3
  6
Continuous
100
AcDbEllipse
 10
-435.282065
 20
371.181054
 30
0.0
 11
5.0
 21
0.0
 31
0.0
210
0.0
220
0.0
230
1.0
 40
0.707107
 41
0.0
 42
0.7392718269406207
  0
LINE
  5
4EE
100
AcDbEntity
  8
0
370
    -3
  6
Continuous
100
AcDbLine
 10
-430.782065
 20
371.746739
 30
0.0
 11
-430.782065
 21
371.181054
 31
0.0
  0
LINE
  5
4EF
100
AcDbEntity
  8
0
370
    -3
  6
Continuous
100
AcDbLine
 10
-439.782065
 20
371.746739
 30
0.0
 11
-439.782065
 21
371.181054
 31
0.0
  0
ELLIPSE
  5
4F0
100
AcDbEntity
  8
0
370
    -3
  6
Continuous
100
AcDbEllipse
 10
-435.282065
 20
371.181054
 30
0.0
 11
4.5
 21
0.0
 31
0.0
210
0.0
220
0.0
230
1.0
 40
0.707107
 41
3.1415926535897931
 42
0.0
  0
LINE
  5
4F1
100
AcDbEntity
  8
0
370
    -3
  6
Continuous
100
AcDbLine
 10
-430.282065
 20
371.181054
 30
0.0
 11
-430.282065
 21
370.364451
 31
0.0
  0
LINE
  5
4F2
100
AcDbEntity
  8
0
370
    -3
  6
Continuous
100
AcDbLine
 10
-440.282065
 20
371.181054
 30
0.0
 11
-440.282065
 21
370.364451
 31
0.0
  0
ELLIPSE
  5
4F3
100
AcDbEntity
  8
0
370
    -3
  6
Continuous
100
AcDbEllipse
 10
-435.282065
 20
370.364451
 30
0.0
 11
5.0
 21
0.0
 31
0.0
210
0.0
220
0.0
230
1.0
 40
0.707107
 41
3.1415926535897931
 42
0.0
  0
LINE
  5
4F4
100
AcDbEntity
  8
0
370
    -3
  6
Continuous
100
AcDbLine
 10
-409.782066
 20
388.213016
 30
0.0
 11
-254.782065
 21
388.213016
 31
0.0
  0
LINE
  5
4F5
100
AcDbEntity
  8
0
370
    -3
  6
Continuous
100
AcDbLine
 10
-254.782065
 20
258.575292
 30
0.0
 11
-409.782066
 21
258.575292
 31
0.0
  0
LINE
  5
4F6
100
AcDbEntity
  8
0
370
    -3
  6
Continuous
100
AcDbLine
 10
-254.782065
 20
260.797619
 30
0.0
 11
-409.782066
 21
260.797619
 31
0.0
  0
LINE
  5
4F7
100
AcDbEntity
  8
0
370
    -3
  6
Continuous
100
AcDbLine
 10
-254.782065
 20
268.608078
 30
0.0
 11
-409.782066
 21
268.608078
 31
0.0
  0
LINE
  5
4F8
100
AcDbEntity
  8
0
370
    -3
  6
Continuous
100
AcDbLine
 10
-254.782065
 20
270.774789
 30
0.0
 11
-409.782066
 21
270.774789
 31
0.0
  0
LINE
  5
4F9
100
AcDbEntity
  8
0
370
    -3
  6
Continuous
100
AcDbLine
 10
-254.782065
 20
278.670396
 30
0.0
 11
-409.782066
 21
278.670396
 31
0.0
  0
LINE
  5
4FA
100
AcDbEntity
  8
0
370
    -3
  6
Continuous
100
AcDbLine
 10
-254.782065
 20
280.735159
 30
0.0
 11
-409.782066
 21
280.735159
 31
0.0
  0
LINE
  5
4FB
100
AcDbEntity
  8
0
370
    -3
  6
Continuous
100
AcDbLine
 10
-254.782065
 20
288.741288
 30
0.0
 11
-409.782066
 21
288.741288
 31
0.0
  0
LINE
  5
4FC
100
AcDbEntity
  8
0
370
    -3
  6
Continuous
100
AcDbLine
 10
-254.782065
 20
290.683672
 30
0.0
 11
-409.782066
 21
290.683672
 31
0.0
  0
LINE
  5
4FD
100
AcDbEntity
  8
0
370
    -3
  6
Continuous
100
AcDbLine
 10
-254.782065
 20
298.773747
 30
0.0
 11
-409.782066
 21
298.773747
 31
0.0
  0
LINE
  5
4FE
100
AcDbEntity
  8
0
370
    -3
  6
Continuous
100
AcDbLine
 10
-254.782065
 20
300.668519
 30
0.0
 11
-409.782066
 21
300.668519
 31
0.0
  0
LINE
  5
4FF
100
AcDbEntity
  8
0
370
    -3
  6
Continuous
100
AcDbLine
 10
-254.782065
 20
308.757514
 30
0.0
 11
-409.782066
 21
308.757514
 31
0.0
  0
LINE
  5
500
100
AcDbEntity
  8
0
370
    -3
  6
Continuous
100
AcDbLine
 10
-254.782065
 20
310.652286
 30
0.0
 11
-409.782066
 21
310.652286
 31
0.0
  0
LINE
  5
501
100
AcDbEntity
  8
0
370
    -3
  6
Continuous
100
AcDbLine
 10
-254.782065
 20
318.742361
 30
0.0
 11
-409.782066
 21
318.742361
 31
0.0
  0
LINE
  5
502
100
AcDbEntity
  8
0
370
    -3
  6
Continuous
100
AcDbLine
 10
-254.782065
 20
320.684745
 30
0.0
 11
-409.782066
 21
320.684745
 31
0.0
  0
LINE
  5
503
100
AcDbEntity
  8
0
370
    -3
  6
Continuous
100
AcDbLine
 10
-254.782065
 20
328.690874
 30
0.0
 11
-409.782066
 21
328.690874
 31
0.0
  0
LINE
  5
504
100
AcDbEntity
  8
0
370
    -3
  6
Continuous
100
AcDbLine
 10
-254.782065
 20
330.755637
 30
0.0
 11
-409.782066
 21
330.755637
 31
0.0
  0
LINE
  5
505
100
AcDbEntity
  8
0
370
    -3
  6
Continuous
100
AcDbLine
 10
-254.782065
 20
338.651244
 30
0.0
 11
-409.782066
 21
338.651244
 31
0.0
  0
LINE
  5
506
100
AcDbEntity
  8
0
370
    -3
  6
Continuous
100
AcDbLine
 10
-254.782065
 20
340.817955
 30
0.0
 11
-409.782066
 21
340.817955
 31
0.0
  0
LINE
  5
507
100
AcDbEntity
  8
0
370
    -3
  6
Continuous
100
AcDbLine
 10
-254.782065
 20
348.628414
 30
0.0
 11
-409.782066
 21
348.628414
 31
0.0
  0
LINE
  5
508
100
AcDbEntity
  8
0
370
    -3
  6
Continuous
100
AcDbLine
 10
-254.782065
 20
350.850741
 30
0.0
 11
-409.782066
 21
350.850741
 31
0.0
  0
LINE
  5
509
100
AcDbEntity
  8
0
370
    -3
  6
Continuous
100
AcDbLine
 10
-254.782065
 20
363.521161
 30
0.0
 11
-409.782066
 21
363.521161
 31
0.0
  0
LINE
  5
50A
100
AcDbEntity
  8
0
370
    -3
  6
Continuous
100
AcDbLine
 10
-254.782065
 20
370.592229
 30
0.0
 11
-409.782066
 21
370.592229
 31
0.0
  0
LINE
  5
50B
100
AcDbEntity
  8
0
370
    -3
  6
Continuous
100
AcDbLine
 10
-254.782065
 20
379.713016
 30
0.0
 11
-409.782066
 21
379.713016
 31
0.0
  0
LINE
  5
50C
100
AcDbEntity
  8
0
370
    -3
  6
Continuous
100
AcDbLine
 10
-409.782066
 20
221.353507
 30
0.0
 11
-409.782066
 21
304.713016
 31
0.0
  0
LINE
  5
50D
100
AcDbEntity
  8
0
370
    -3
  6
Continuous
100
AcDbLine
 10
-435.282065
 20
235.840816
 30
0.0
 11
-437.21127
 21
234.630154
 31
0.0
  0
LINE
  5
50E
100
AcDbEntity
  8
0
370
    -3
  6
Continuous
100
AcDbLine
 10
-435.282065
 20
235.840816
 30
0.0
 11
-437.282065
 21
237.414154
 31
0.0
  0
LINE
  5
50F
100
AcDbEntity
  8
0
370
    -3
  6
Continuous
100
AcDbLine
 10
-435.282065
 20
235.840816
 30
0.0
 11
-433.352861
 21
234.630154
 31
0.0
  0
LINE
  5
510
100
AcDbEntity
  8
0
370
    -3
  6
Continuous
100
AcDbLine
 10
-435.282065
 20
235.840816
 30
0.0
 11
-433.282065
 21
237.414154
 31
0.0
  0
ELLIPSE
  5
511
100
AcDbEntity
  8
0
370
    -3
  6
Continuous
100
AcDbEllipse
 10
-435.282065
 20
237.679294
 30
0.0
 11
4.5
 21
0.0
 31
0.0
210
0.0
220
0.0
230
1.0
 40
0.707107
 41
5.3002993159359626
 42
4.1244786448334168
  0
ELLIPSE
  5
512
100
AcDbEntity
  8
0
370
    -3
  6
Continuous
100
AcDbEllipse
 10
-435.282065
 20
237.142775
 30
0.0
 11
3.5
 21
0.0
 31
0.0
210
0.0
220
0.0
230
1.0
 40
0.860398
 41
0.0
 42
6.2831853071795862
  0
ELLIPSE
  5
513
100
AcDbEntity
  8
0
370
    -3
  6
Continuous
100
AcDbEllipse
 10
-435.282065
 20
238.244979
 30
0.0
 11
5.0
 21
0.0
 31
0.0
210
0.0
220
0.0
230
1.0
 40
0.707107
 41
3.1415926535897931
 42
3.880864480530414
  0
ELLIPSE
  5
514
100
AcDbEntity
  8
0
370
    -3
  6
Continuous
100
AcDbEllipse
 10
-435.282065
 20
238.244979
 30
0.0
 11
5.0
 21
0.0
 31
0.0
210
0.0
220
0.0
230
1.0
 40
0.707107
 41
5.5439134802389658
 42
0.0
  0
LINE
  5
515
100
AcDbEntity
  8
0
370
    -3
  6
Continuous
100
AcDbLine
 10
-430.782065
 20
237.679294
 30
0.0
 11
-430.782065
 21
238.244979
 31
0.0
  0
LINE
  5
516
100
AcDbEntity
  8
0
370
    -3
  6
Continuous
100
AcDbLine
 10
-439.782065
 20
237.679294
 30
0.0
 11
-439.782065
 21
238.244979
 31
0.0
  0
ELLIPSE
  5
517
100
AcDbEntity
  8
0
370
    -3
  6
Continuous
100
AcDbEllipse
 10
-435.282065
 20
238.244979
 30
0.0
 11
4.5
 21
0.0
 31
0.0
210
0.0
220
0.0
230
1.0
 40
0.707107
 41
0.0
 42
3.1415926535897931
  0
LINE
  5
518
100
AcDbEntity
  8
0
370
    -3
  6
Continuous
100
AcDbLine
 10
-430.282065
 20
238.244979
 30
0.0
 11
-430.282065
 21
239.061582
 31
0.0
  0
LINE
  5
519
100
AcDbEntity
  8
0
370
    -3
  6
Continuous
100
AcDbLine
 10
-440.282065
 20
238.244979
 30
0.0
 11
-440.282065
 21
239.061582
 31
0.0
  0
ELLIPSE
  5
51A
100
AcDbEntity
  8
0
370
    -3
  6
Continuous
100
AcDbEllipse
 10
-435.282065
 20
239.061582
 30
0.0
 11
5.0
 21
0.0
 31
0.0
210
0.0
220
0.0
230
1.0
 40
0.707107
 41
0.0
 42
3.1415926535897931
  0
ARC
  5
51B
100
AcDbEntity
  8
0
370
    -3
  6
Continuous
100
AcDbCircle
 10
-412.782066
 20
221.353507
 30
0.0
 40
3.0
100
AcDbArc
 50
270.0
 51
0.0
  0
LINE
  5
51C
100
AcDbEntity
  8
0
370
    -3
  6
Continuous
100
AcDbLine
 10
-254.782065
 20
224.713016
 30
0.0
 11
-409.782066
 21
224.713016
 31
0.0
  0
LINE
  5
51D
100
AcDbEntity
  8
0
370
    -3
  6
Continuous
100
AcDbLine
 10
-254.782065
 20
229.713016
 30
0.0
 11
-409.782066
 21
229.713016
 31
0.0
  0
LINE
  5
51E
100
AcDbEntity
  8
0
370
    -3
  6
Continuous
100
AcDbLine
 10
-254.782065
 20
238.833804
 30
0.0
 11
-409.782066
 21
238.833804
 31
0.0
  0
LINE
  5
51F
100
AcDbEntity
  8
0
370
    -3
  6
Continuous
100
AcDbLine
 10
-254.782065
 20
245.904872
 30
0.0
 11
-409.782066
 21
245.904872
 31
0.0
  0
LINE
  5
520
100
AcDbEntity
  8
0
370
    -3
  6
Continuous
100
AcDbLine
 10
-515.850099
 20
217.413016
 30
0.0
 11
-429.780294
 21
217.413016
 31
0.0
  0
LINE
  5
521
100
AcDbEntity
  8
0
370
    -3
  6
Continuous
100
AcDbLine
 10
-515.850099
 20
392.013016
 30
0.0
 11
-409.782066
 21
392.013016
 31
0.0
  0
ARC
  5
522
100
AcDbEntity
  8
0
370
    -3
  6
Continuous
100
AcDbCircle
 10
-550.982066
 20
373.653485
 30
0.0
 40
3.8
100
AcDbArc
 50
120.0
 51
180.0
  0
ARC
  5
523
100
AcDbEntity
  8
0
370
    -3
  6
Continuous
100
AcDbCircle
 10
-515.850099
 20
351.213016
 30
0.0
 40
40.8
100
AcDbArc
 50
90.0
 51
120.0
  0
LINE
  5
524
100
AcDbEntity
  8
0
370
    -3
  6
Continuous
100
AcDbLine
 10
-552.882066
 20
376.944382
 30
0.0
 11
-536.250099
 21
386.546853
 31
0.0
  0
LINE
  5
525
100
AcDbEntity
  8
0
370
    -3
  6
Continuous
100
AcDbLine
 10
-554.782066
 20
373.653485
 30
0.0
 11
-554.782066
 21
304.713016
 31
0.0
  0
ARC
  5
526
100
AcDbEntity
  8
0
370
    -3
  6
Continuous
100
AcDbCircle
 10
-550.982066
 20
235.772548
 30
0.0
 40
3.8
100
AcDbArc
 50
180.0
 51
240.0
  0
LINE
  5
527
100
AcDbEntity
  8
0
370
    -3
  6
Continuous
100
AcDbLine
 10
-552.882066
 20
232.481651
 30
0.0
 11
-536.250099
 21
222.87918
 31
0.0
  0
LINE
  5
528
100
AcDbEntity
  8
0
370
    -3
  6
Continuous
100
AcDbLine
 10
-554.782066
 20
235.772548
 30
0.0
 11
-554.782066
 21
304.713016
 31
0.0
  0
ARC
  5
529
100
AcDbEntity
  8
0
370
    -3
  6
Continuous
100
AcDbCircle
 10
-515.850099
 20
258.213016
 30
0.0
 40
40.8
100
AcDbArc
 50
240.0
 51
270.0
  0
MTEXT
  5
52B
100
AcDbEntity
  8
0
370
    -3
  6
Continuous
100
AcDbMText
 10
-843.100769
 20
317.307159
 30
0.0
 40
15.0
 41
0.0
 71
     7
 72
     1
  1
\W0.48;GV-SFB
  7
ZU_SHPTB00001
 11
1.0
 21
0.0
 31
0.0
 73
     1
 44
1.0
  0
MTEXT
  5
52C
100
AcDbEntity
  8
0
370
    -3
  6
Continuous
100
AcDbMText
 10
-843.100769
 20
300.357147
 30
0.0
 40
15.0
 41
0.0
 71
     7
 72
     1
  1
\W0.43;2.2kW
  7
ZU_SHPTB00001
 11
1.0
 21
0.0
 31
0.0
 73
     1
 44
1.0
  0
MTEXT
  5
52D
100
AcDbEntity
  8
0
370
    -3
  6
Continuous
100
AcDbMText
 10
-843.100769
 20
266.457184
 30
0.0
 40
15.0
 41
0.0
 71
     7
 72
     1
  1
\W0.42;GEAR\W0.70; \W0.42;RATIO\W0.70;  \W0.42;1/40-1/50
  7
ZU_SHPTB00001
 11
1.0
 21
0.0
 31
0.0
 73
     1
 44
1.0
  0
MTEXT
  5
52E
100
AcDbEntity
  8
0
370
    -3
  6
Continuous
100
AcDbMText
 10
-843.100769
 20
283.407196
 30
0.0
 40
15.0
 41
0.0
 71
     7
 72
     1
  1
\W0.43;75-60r/min\W0.53;　
  7
ZU_SHPTB00001
 11
1.0
 21
0.0
 31
0.0
 73
     1
 44
1.0
  0
MTEXT
  5
52F
100
AcDbEntity
  8
0
370
    -3
  6
Continuous
100
AcDbMText
 10
-843.100769
 20
249.507156
 30
0.0
 40
15.0
 41
0.0
 71
     7
 72
     1
  1
\W0.43;SCALE\W0.72;  \W0.43;1/1
  7
ZU_SHPTB00001
 11
1.0
 21
0.0
 31
0.0
 73
     1
 44
1.0
  0
MTEXT
  5
530
100
AcDbEntity
  8
0
370
    -3
  6
Continuous
100
AcDbMText
 10
-843.100769
 20
334.257172
 30
0.0
 40
15.0
 41
0.0
 71
     7
 72
     1
  1
\W0.63;三菱ギヤードモータ  
  7
ZU_SHPTB00001
 11
1.0
 21
0.0
 31
0.0
 73
     1
 44
1.0
  0
MTEXT
  5
531
100
AcDbEntity
  8
0
370
    -3
  6
Continuous
100
AcDbMText
 10
-843.100769
 20
334.257172
 30
0.0
 40
15.0
 41
0.0
 71
     7
 72
     1
  1
\W0.63;三菱ギヤードモータ  
  7
ZU_SHPTB00001
 11
1.0
 21
0.0
 31
0.0
 73
     1
 44
1.0
  0
LINE
  5
532
100
AcDbEntity
  8
0
370
    -3
  6
Continuous
100
AcDbLine
 10
-425.382065
 20
218.353507
 30
0.0
 11
-425.382065
 21
211.913016
 31
0.0
  0
LINE
  5
533
100
AcDbEntity
  8
0
370
    -3
  6
Continuous
100
AcDbLine
 10
-399.782065
 20
208.713016
 30
0.0
 11
-430.782065
 21
208.713016
 31
0.0
  0
LINE
  5
534
100
AcDbEntity
  8
0
370
    -3
  6
Continuous
100
AcDbLine
 10
-430.782065
 20
208.713016
 30
0.0
 11
-368.782065
 21
208.713016
 31
0.0
  0
ARC
  5
535
100
AcDbEntity
  8
0
370
    -3
  6
Continuous
100
AcDbCircle
 10
-426.982065
 20
211.913016
 30
0.0
 40
1.6
100
AcDbArc
 50
270.0
 51
0.0
  0
LINE
  5
536
100
AcDbEntity
  8
0
370
    -3
  6
Continuous
100
AcDbLine
 10
-430.782065
 20
210.313016
 30
0.0
 11
-399.782065
 21
210.313016
 31
0.0
  0
LINE
  5
537
100
AcDbEntity
  8
0
370
    -3
  6
Continuous
100
AcDbLine
 10
-437.982065
 20
206.713016
 30
0.0
 11
-368.343912
 21
206.713016
 31
0.0
  0
LINE
  5
538
100
AcDbEntity
  8
0
370
    -3
  6
Continuous
100
AcDbLine
 10
-430.782065
 20
207.713016
 30
0.0
 11
-368.782065
 21
207.713016
 31
0.0
  0
LINE
  5
539
100
AcDbEntity
  8
0
370
    -3
  6
Continuous
100
AcDbLine
 10
-374.182065
 20
220.513016
 30
0.0
 11
-374.182065
 21
211.913016
 31
0.0
  0
ARC
  5
53A
100
AcDbEntity
  8
0
370
    -3
  6
Continuous
100
AcDbCircle
 10
-377.382065
 20
220.513016
 30
0.0
 40
3.2
100
AcDbArc
 50
0.0
 51
90.0
  0
LINE
  5
53B
100
AcDbEntity
  8
0
370
    -3
  6
Continuous
100
AcDbLine
 10
-409.782065
 20
223.713016
 30
0.0
 11
-375.782065
 21
223.713016
 31
0.0
  0
LINE
  5
53C
100
AcDbEntity
  8
0
370
    -3
  6
Continuous
100
AcDbLine
 10
-375.782065
 20
224.713016
 30
0.0
 11
-375.782065
 21
223.713016
 31
0.0
  0
LINE
  5
53D
100
AcDbEntity
  8
0
370
    -3
  6
Continuous
100
AcDbLine
 10
-399.782065
 20
208.713016
 30
0.0
 11
-368.782065
 21
208.713016
 31
0.0
  0
ARC
  5
53E
100
AcDbEntity
  8
0
370
    -3
  6
Continuous
100
AcDbCircle
 10
-372.582065
 20
211.913016
 30
0.0
 40
1.6
100
AcDbArc
 50
180.0
 51
270.0
  0
LINE
  5
53F
100
AcDbEntity
  8
0
370
    -3
  6
Continuous
100
AcDbLine
 10
-368.782065
 20
208.713016
 30
0.0
 11
-368.782065
 21
210.313016
 31
0.0
  0
LINE
  5
540
100
AcDbEntity
  8
0
370
    -3
  6
Continuous
100
AcDbLine
 10
-368.782065
 20
210.313016
 30
0.0
 11
-399.782065
 21
210.313016
 31
0.0
  0
LINE
  5
541
100
AcDbEntity
  8
0
370
    -3
  6
Continuous
100
AcDbLine
 10
-430.782065
 20
208.713016
 30
0.0
 11
-430.782065
 21
210.313016
 31
0.0
  0
LINE
  5
542
100
AcDbEntity
  8
0
370
    -3
  6
Continuous
100
AcDbLine
 10
-471.782065
 20
198.713016
 30
0.0
 11
-444.782065
 21
198.713016
 31
0.0
  0
LINE
  5
543
100
AcDbEntity
  8
0
370
    -3
  6
Continuous
100
AcDbLine
 10
-471.782065
 20
164.713016
 30
0.0
 11
-445.192781
 21
164.713016
 31
0.0
  0
ARC
  5
544
100
AcDbEntity
  8
0
370
    -3
  6
Continuous
100
AcDbCircle
 10
-471.782065
 20
166.713016
 30
0.0
 40
2.0
100
AcDbArc
 50
180.0
 51
270.0
  0
LINE
  5
545
100
AcDbEntity
  8
0
370
    -3
  6
Continuous
100
AcDbLine
 10
-473.782065
 20
181.713016
 30
0.0
 11
-473.782065
 21
166.713016
 31
0.0
  0
ARC
  5
546
100
AcDbEntity
  8
0
370
    -3
  6
Continuous
100
AcDbCircle
 10
-471.782065
 20
196.713016
 30
0.0
 40
2.0
100
AcDbArc
 50
90.0
 51
180.0
  0
LINE
  5
547
100
AcDbEntity
  8
0
370
    -3
  6
Continuous
100
AcDbLine
 10
-473.782065
 20
181.713016
 30
0.0
 11
-473.782065
 21
196.713016
 31
0.0
  0
LINE
  5
548
100
AcDbEntity
  8
0
370
    -3
  6
Continuous
100
AcDbLine
 10
-446.782065
 20
181.713016
 30
0.0
 11
-446.782065
 21
198.713016
 31
0.0
  0
LINE
  5
549
100
AcDbEntity
  8
0
370
    -3
  6
Continuous
100
AcDbLine
 10
-446.782065
 20
181.713016
 30
0.0
 11
-446.782065
 21
164.713016
 31
0.0
  0
ARC
  5
54A
100
AcDbEntity
  8
0
370
    -3
  6
Continuous
100
AcDbCircle
 10
-430.106372
 20
203.713016
 30
0.0
 40
3.0
100
AcDbArc
 50
90.0
 51
180.0
  0
LINE
  5
54B
100
AcDbEntity
  8
0
370
    -3
  6
Continuous
100
AcDbLine
 10
-433.106372
 20
170.349002
 30
0.0
 11
-433.106372
 21
203.713016
 31
0.0
  0
LINE
  5
54C
100
AcDbEntity
  8
0
370
    -3
  6
Continuous
100
AcDbLine
 10
-363.994177
 20
202.576547
 30
0.0
 11
-364.899942
 21
204.518966
 31
0.0
  0
LINE
  5
54D
100
AcDbEntity
  8
0
370
    -3
  6
Continuous
100
AcDbLine
 10
-444.782065
 20
164.904536
 30
0.0
 11
-444.782065
 21
199.913016
 31
0.0
  0
LINE
  5
54E
100
AcDbEntity
  8
0
370
    -3
  6
Continuous
100
AcDbLine
 10
-445.192781
 20
164.713016
 30
0.0
 11
-453.356125
 21
160.906387
 31
0.0
  0
LINE
  5
54F
100
AcDbEntity
  8
0
370
    -3
  6
Continuous
100
AcDbLine
 10
-356.743715
 20
205.957493
 30
0.0
 11
-445.192781
 21
164.713016
 31
0.0
  0
LINE
  5
550
100
AcDbEntity
  8
0
370
    -3
  6
Continuous
100
AcDbLine
 10
-375.594917
 20
197.167033
 30
0.0
 11
-379.023179
 21
204.518966
 31
0.0
  0
ARC
  5
551
100
AcDbEntity
  8
0
370
    -3
  6
Continuous
100
AcDbCircle
 10
-382.467149
 20
202.913016
 30
0.0
 40
3.8
100
AcDbArc
 50
25.0
 51
90.0
  0
ARC
  5
552
100
AcDbEntity
  8
0
370
    -3
  6
Continuous
100
AcDbCircle
 10
-656.607705
 20
257.398413
 30
0.0
 40
300.8
100
AcDbArc
 50
342.341575
 51
347.89975
  0
ARC
  5
553
100
AcDbEntity
  8
0
370
    -3
  6
Continuous
100
AcDbCircle
 10
-405.364463
 20
758.89549
 30
0.0
 40
600.8
100
AcDbArc
 50
266.682408
 51
272.437505
  0
ARC
  5
554
100
AcDbEntity
  8
0
370
    -3
  6
Continuous
100
AcDbCircle
 10
-369.382248
 20
177.991002
 30
0.0
 40
2.8
100
AcDbArc
 50
344.545811
 51
25.0
  0
ARC
  5
555
100
AcDbEntity
  8
0
370
    -3
  6
Continuous
100
AcDbCircle
 10
-433.800669
 20
160.31552
 30
0.0
 40
3.0
100
AcDbArc
 50
25.0
 51
115.0
  0
LINE
  5
556
100
AcDbEntity
  8
0
370
    -3
  6
Continuous
100
AcDbLine
 10
-431.081745
 20
161.583375
 30
0.0
 11
-430.406715
 21
160.135767
 31
0.0
  0
ARC
  5
557
100
AcDbEntity
  8
0
370
    -3
  6
Continuous
100
AcDbCircle
 10
-427.869053
 20
161.319098
 30
0.0
 40
2.8
100
AcDbArc
 50
205.0
 51
267.843273
  0
LINE
  5
558
100
AcDbEntity
  8
0
370
    -3
  6
Continuous
100
AcDbLine
 10
-366.844587
 20
179.174333
 30
0.0
 11
-371.580013
 21
189.329488
 31
0.0
  0
ARC
  5
559
100
AcDbEntity
  8
0
370
    -3
  6
Continuous
100
AcDbCircle
 10
-368.86109
 20
190.597343
 30
0.0
 40
3.0
100
AcDbArc
 50
115.0
 51
205.0
  0
LINE
  5
55A
100
AcDbEntity
  8
0
370
    -3
  6
Continuous
100
AcDbLine
 10
-355.923883
 20
199.940195
 30
0.0
 11
-449.273585
 21
156.410514
 31
0.0
  0
LINE
  5
55B
100
AcDbEntity
  8
0
370
    -3
  6
CENTER
100
AcDbLine
 10
-476.260689
 20
181.713016
 30
0.0
 11
-435.954202
 21
181.713016
 31
0.0
  0
ARC
  5
55C
100
AcDbEntity
  8
0
370
    -3
  6
Continuous
100
AcDbCircle
 10
-362.941854
 20
195.587427
 30
0.0
 40
1.299999
100
AcDbArc
 50
204.999999
 51
278.398469
  0
LINE
  5
55D
100
AcDbEntity
  8
0
370
    -3
  6
Continuous
100
AcDbLine
 10
-364.533807
 20
195.925322
 30
0.0
 11
-364.120053
 21
195.038023
 31
0.0
  0
ARC
  5
55E
100
AcDbEntity
  8
0
370
    -3
  6
Continuous
100
AcDbCircle
 10
-364.066487
 20
203.204855
 30
0.0
 40
9.0
100
AcDbArc
 50
278.398469
 51
311.601548
  0
ARC
  5
55F
100
AcDbEntity
  8
0
370
    -3
  6
Continuous
100
AcDbCircle
 10
-358.954098
 20
197.446948
 30
0.0
 40
1.299999
100
AcDbArc
 50
311.601548
 51
25.000018
  0
LINE
  5
560
100
AcDbEntity
  8
0
370
    -3
  6
CENTER
100
AcDbLine
 10
-362.619404
 20
200.101576
 30
0.0
 11
-359.749483
 21
193.947011
 31
0.0
  0
LINE
  5
561
100
AcDbEntity
  8
0
370
    -3
  6
Continuous
100
AcDbLine
 10
-358.189653
 20
198.88365
 30
0.0
 11
-357.775899
 21
197.996351
 31
0.0
  0
ARC
  5
562
100
AcDbEntity
  8
0
370
    -3
  6
Continuous
100
AcDbCircle
 10
-445.415862
 20
157.129165
 30
0.0
 40
1.299999
100
AcDbArc
 50
204.999999
 51
278.398469
  0
ARC
  5
563
100
AcDbEntity
  8
0
370
    -3
  6
Continuous
100
AcDbCircle
 10
-441.428107
 20
158.988686
 30
0.0
 40
1.299999
100
AcDbArc
 50
311.601548
 51
25.000018
  0
LINE
  5
564
100
AcDbEntity
  8
0
370
    -3
  6
Continuous
100
AcDbLine
 10
-447.007816
 20
157.46706
 30
0.0
 11
-446.594062
 21
156.579762
 31
0.0
  0
LINE
  5
565
100
AcDbEntity
  8
0
370
    -3
  6
Continuous
100
AcDbLine
 10
-440.663661
 20
160.425388
 30
0.0
 11
-440.249907
 21
159.538089
 31
0.0
  0
POINT
  5
566
100
AcDbEntity
  8
0
370
    -3
  6
Continuous
100
AcDbPoint
 10
-443.835738
 20
158.946224
 30
0.0
  0
ARC
  5
567
100
AcDbEntity
  8
0
370
    -3
  6
Continuous
100
AcDbCircle
 10
-446.540495
 20
164.746593
 30
0.0
 40
9.0
100
AcDbArc
 50
278.398469
 51
311.601548
  0
ARC
  5
568
100
AcDbEntity
  8
0
370
    -3
  6
Continuous
100
AcDbCircle
 10
-380.27197
 20
169.429319
 30
0.0
 40
10.8
100
AcDbArc
 50
272.437505
 51
342.341575
  0
LINE
  5
569
100
AcDbEntity
  8
0
370
    -3
  6
CENTER
100
AcDbLine
 10
-445.093412
 20
161.643314
 30
0.0
 11
-442.223492
 21
155.48875
 31
0.0
  0
POINT
  5
56A
100
AcDbEntity
  8
0
370
    -3
  6
Continuous
100
AcDbPoint
 10
-361.38544
 20
197.393429
 30
0.0
  0
LINE
  5
56B
100
AcDbEntity
  8
0
370
    -3
  6
CENTER
100
AcDbLine
 10
-362.619404
 20
200.101576
 30
0.0
 11
-359.749483
 21
193.947011
 31
0.0
  0
ARC
  5
56C
100
AcDbEntity
  8
0
370
    -3
  6
Continuous
100
AcDbCircle
 10
-356.684596
 20
201.571549
 30
0.0
 40
1.8
100
AcDbArc
 50
295.0
 51
25.0
  0
LINE
  5
56D
100
AcDbEntity
  8
0
370
    -3
  6
Continuous
100
AcDbLine
 10
-355.053242
 20
202.332262
 30
0.0
 11
-356.743715
 21
205.957493
 31
0.0
  0
ARC
  5
56E
100
AcDbEntity
  8
0
370
    -3
  6
Continuous
100
AcDbCircle
 10
-450.034298
 20
158.041868
 30
0.0
 40
1.8
100
AcDbArc
 50
205.0
 51
295.0
  0
LINE
  5
56F
100
AcDbEntity
  8
0
370
    -3
  6
Continuous
100
AcDbLine
 10
-451.665652
 20
157.281155
 30
0.0
 11
-453.356125
 21
160.906387
 31
0.0
  0
ARC
  5
570
100
AcDbEntity
  8
0
370
    -3
  6
Continuous
100
AcDbCircle
 10
-368.343912
 20
202.913016
 30
0.0
 40
3.8
100
AcDbArc
 50
25.0
 51
90.0
  0
ARC
  5
571
100
AcDbEntity
  8
0
370
    -3
  6
Continuous
100
AcDbCircle
 10
-437.982065
 20
199.913016
 30
0.0
 40
6.8
100
AcDbArc
 50
90.0
 51
180.0
  0
ARC
  5
572
100
AcDbEntity
  8
0
370
    -3
  6
Continuous
100
AcDbCircle
 10
-371.782065
 20
206.713016
 30
0.0
 40
1.0
100
AcDbArc
 50
13.342364
 51
90.0
  0
LINE
  5
573
100
AcDbEntity
  8
0
370
    -3
  6
Continuous
100
AcDbLine
 10
-368.782065
 20
208.713016
 30
0.0
 11
-368.782065
 21
207.713016
 31
0.0
  0
ARC
  5
574
100
AcDbEntity
  8
0
370
    -3
  6
Continuous
100
AcDbCircle
 10
-370.517154
 20
207.013016
 30
0.0
 40
0.3
100
AcDbArc
 50
193.342364
 51
270.0
  0
ARC
  5
575
100
AcDbEntity
  8
0
370
    -3
  6
Continuous
100
AcDbCircle
 10
-427.782065
 20
206.713016
 30
0.0
 40
1.0
100
AcDbArc
 50
90.0
 51
166.657636
  0
LINE
  5
576
100
AcDbEntity
  8
0
370
    -3
  6
Continuous
100
AcDbLine
 10
-430.782065
 20
208.713016
 30
0.0
 11
-430.782065
 21
207.713016
 31
0.0
  0
ARC
  5
577
100
AcDbEntity
  8
0
370
    -3
  6
Continuous
100
AcDbCircle
 10
-429.046976
 20
207.013016
 30
0.0
 40
0.3
100
AcDbArc
 50
270.0
 51
346.657636
  0
POINT
  5
578
100
AcDbEntity
  8
0
370
    -3
  6
CENTER
100
AcDbPoint
 10
-473.948045
 20
167.941067
 30
0.0
  0
POINT
  5
579
100
AcDbEntity
  8
0
370
    -3
  6
CENTER
100
AcDbPoint
 10
-473.948045
 20
194.382067
 30
0.0
  0
MTEXT
  5
57A
100
AcDbEntity
  8
0
370
    -3
  6
Continuous
100
AcDbMText
 10
-842.868103
 20
231.07045
 30
0.0
 40
15.0
 41
0.0
 71
     7
 72
     1
  1
\W0.43;DATE\W0.72; \W0.43;2011.12.29
  7
ZU_SHPTB00001
 11
1.0
 21
0.0
 31
0.0
 73
     1
 44
1.0
  0
LINE
  5
57B
100
AcDbEntity
  8
0
370
    -3
  6
CENTER
100
AcDbLine
 10
-399.782065
 20
234.902271
 30
0.0
 11
-399.782065
 21
196.580457
 31
0.0
  0
ENDSEC
  0
SECTION
  2
OBJECTS
  0
DICTIONARY
  5
19
100
AcDbDictionary
280
     0
281
     1
  3
ACAD_GROUP
350
1A
  3
ACAD_MLINESTYLE
350
1B
  3
ACAD_LAYOUT
350
1E
  3
ACAD_PLOTSETTINGS
350
22
  3
ACAD_PLOTSTYLENAME
350
1F
  3
ACAD_WIPEOUT_VARS
350
23
  3
DWGPROPS
350
57C
  0
DICTIONARY
  5
1A
102
{ACAD_REACTORS
330
19
102
}
100
AcDbDictionary
280
     0
281
     1
  0
DICTIONARY
  5
1B
102
{ACAD_REACTORS
330
19
102
}
100
AcDbDictionary
280
     0
281
     1
  3
Standard
350
1C
  0
MLINESTYLE
  5
1C
102
{ACAD_REACTORS
330
1B
102
}
100
AcDbMlineStyle
  2
Standard
 70
     0
  3

 62
     0
 51
90.0
 52
90.0
 71
     2
 49
0.5
 62
   256
  6
ByLayer
 49
-0.5
 62
   256
  6
ByLayer
  0
ACDBDICTIONARYWDFLT
  5
1F
102
{ACAD_REACTORS
330
19
102
}
100
AcDbDictionary
281
     1
  3
Normal
350
1D
100
AcDbDictionaryWithDefault
340
1D
  0
ACDBPLACEHOLDER
  5
1D
102
{ACAD_REACTORS
330
1F
102
}
  0
LAYOUT
  5
20
102
{ACAD_REACTORS
330
1E
102
}
100
AcDbPlotSettings
  1

  2

  4

  6

 40
0.0
 41
0.0
 42
0.0
 43
0.0
 44
0.0
 45
0.0
 46
0.0
 47
0.0
 48
0.0
 49
0.0
140
0.0
141
0.0
142
1.0
143
1.0
 70
  1024
 72
     0
 73
     0
 74
     0
  7

 75
     0
147
1.0
148
0.0
149
0.0
100
AcDbLayout
  1
Model
 70
     0
 71
     0
 10
0.0
 20
0.0
 11
0.0
 21
0.0
 12
0.0
 22
0.0
 32
0.0
 14
0.0
 24
0.0
 34
0.0
 15
0.0
 25
0.0
 35
0.0
146
0.0
 13
0.0
 23
0.0
 33
0.0
 16
0.0
 26
0.0
 36
0.0
 17
0.0
 27
0.0
 37
0.0
 76
     0
330
A
331
0
345
0
346
0
  0
LAYOUT
  5
21
102
{ACAD_REACTORS
330
1E
102
}
100
AcDbPlotSettings
  1

  2

  4

  6

 40
0.0
 41
0.0
 42
0.0
 43
0.0
 44
0.0
 45
0.0
 46
0.0
 47
0.0
 48
0.0
 49
0.0
140
0.0
141
0.0
142
1.0
143
1.0
 70
     0
 72
     0
 73
     0
 74
     0
  7

 75
     0
147
1.0
148
0.0
149
0.0
100
AcDbLayout
  1
Layout1
 70
     0
 71
     0
 10
0.0
 20
0.0
 11
0.0
 21
0.0
 12
0.0
 22
0.0
 32
0.0
 14
0.0
 24
0.0
 34
0.0
 15
0.0
 25
0.0
 35
0.0
146
0.0
 13
0.0
 23
0.0
 33
0.0
 16
0.0
 26
0.0
 36
0.0
 17
0.0
 27
0.0
 37
0.0
 76
     0
330
B
331
0
345
0
346
0
  0
DICTIONARY
  5
1E
102
{ACAD_REACTORS
330
19
102
}
100
AcDbDictionary
280
     0
281
     1
  3
Layout1
350
21
  3
Model
350
20
  0
DICTIONARY
  5
22
102
{ACAD_REACTORS
330
19
102
}
100
AcDbDictionary
280
     0
281
     1
  0
WIPEOUTVARIABLES
  5
23
100
AcDbWipeoutVariables
 70
     1
  0
XRECORD
  5
57C
100
AcDbXrecord
280
     1
  1
DWGPROPS COOKIE
  2

  3

  4

  6

  7

  8
HK96464
  9

300
=
301
=
302
=
303
=
304
=
305
=
306
=
307
=
308
=
309
=
 40
0.0
 41
2455931.71037
 42
2455931.71037
  1

 90
        0
  0
ENDSEC
  0
EOF
