  0
SECTION
  2
HEADER
  9
$ACADVER
  1
AC1015
  9
$ACADMAINTVER
 70
     6
  9
$DWGCODEPAGE
  3
ANSI_932
  9
$INSBASE
 10
0.0
 20
0.0
 30
0.0
  9
$EXTMIN
 10
1.000000E+20
 20
1.000000E+20
 30
1.000000E+20
  9
$EXTMAX
 10
-1.000000E+20
 20
-1.000000E+20
 30
-1.000000E+20
  9
$LIMMIN
 10
0.0
 20
0.0
  9
$LIMMAX
 10
0.0
 20
0.0
  9
$ORTHOMODE
 70
     0
  9
$REGENMODE
 70
     1
  9
$FILLMODE
 70
     1
  9
$QTEXTMODE
 70
     0
  9
$MIRRTEXT
 70
     1
  9
$LTSCALE
 40
1.0
  9
$ATTMODE
 70
     1
  9
$TEXTSIZE
 40
7.0
  9
$TRACEWID
 40
0.05
  9
$TEXTSTYLE
  7
Standard
  9
$CLAYER
  8
0
  9
$CELTYPE
  6
Continuous
  9
$CECOLOR
 62
   256
  9
$CELTSCALE
 40
1.0
  9
$DISPSILH
 70
     0
  9
$DIMSCALE
 40
1.0
  9
$DIMASZ
 40
1.931852
  9
$DIMEXO
 40
1.0
  9
$DIMDLI
 40
0.38
  9
$DIMRND
 40
0.0
  9
$DIMDLE
 40
0.0
  9
$DIMEXE
 40
2.0
  9
$DIMTP
 40
0.0
  9
$DIMTM
 40
0.0
  9
$DIMTXT
 40
10.0
  9
$DIMCEN
 40
0.09
  9
$DIMTSZ
 40
0.0
  9
$DIMTOL
 70
     0
  9
$DIMLIM
 70
     0
  9
$DIMTIH
 70
     1
  9
$DIMTOH
 70
     1
  9
$DIMSE1
 70
     0
  9
$DIMSE2
 70
     0
  9
$DIMTAD
 70
     1
  9
$DIMZIN
 70
     0
  9
$DIMBLK
  1

  9
$DIMASO
 70
     1
  9
$DIMSHO
 70
     1
  9
$DIMPOST
  1

  9
$DIMAPOST
  1

  9
$DIMALT
 70
     0
  9
$DIMALTD
 70
     2
  9
$DIMALTF
 40
25.4
  9
$DIMLFAC
 40
1.0
  9
$DIMTOFL
 70
     0
  9
$DIMTVP
 40
0.0
  9
$DIMTIX
 70
     0
  9
$DIMSOXD
 70
     0
  9
$DIMSAH
 70
     0
  9
$DIMBLK1
  1

  9
$DIMBLK2
  1

  9
$DIMSTYLE
  2
Standard
  9
$DIMCLRD
 70
     0
  9
$DIMCLRE
 70
     0
  9
$DIMCLRT
 70
     0
  9
$DIMTFAC
 40
0.714286
  9
$DIMGAP
 40
0.09
  9
$DIMJUST
 70
     0
  9
$DIMSD1
 70
     0
  9
$DIMSD2
 70
     0
  9
$DIMTOLJ
 70
     1
  9
$DIMTZIN
 70
     0
  9
$DIMALTZ
 70
     0
  9
$DIMALTTZ
 70
     0
  9
$DIMUPT
 70
     0
  9
$DIMDEC
 70
     4
  9
$DIMTDEC
 70
     4
  9
$DIMALTU
 70
     2
  9
$DIMALTTD
 70
     2
  9
$DIMTXSTY
  7
Standard
  9
$DIMAUNIT
 70
     0
  9
$DIMADEC
 70
     0
  9
$DIMALTRND
 40
0.0
  9
$DIMAZIN
 70
     0
  9
$DIMDSEP
 70
     0
  9
$DIMATFIT
 70
     3
  9
$DIMFRAC
 70
     0
  9
$DIMLDRBLK
  1

  9
$DIMLUNIT
 70
     2
  9
$DIMLWD
 70
     0
  9
$DIMLWE
 70
     0
  9
$DIMTMOVE
 70
     0
  9
$LUNITS
 70
     2
  9
$LUPREC
 70
     3
  9
$SKETCHINC
 40
0.1
  9
$FILLETRAD
 40
0.0
  9
$AUNITS
 70
     0
  9
$AUPREC
 70
     0
  9
$MENU
  1
acad
  9
$ELEVATION
 40
0.0
  9
$PELEVATION
 40
0.0
  9
$THICKNESS
 40
0.0
  9
$LIMCHECK
 70
     0
  9
$CHAMFERA
 40
0.0
  9
$CHAMFERB
 40
0.0
  9
$CHAMFERC
 40
0.0
  9
$CHAMFERD
 40
0.0
  9
$SKPOLY
 70
     0
  9
$TDCREATE
 40
0.000000000
  9
$TDUCREATE
 40
0.000000000
  9
$TDUPDATE
 40
0.000000000
  9
$TDUUPDATE
 40
0.000000000
  9
$TDINDWG
 40
0.0000000000
  9
$TDUSRTIMER
 40
0.0000000000
  9
$USRTIMER
 70
     1
  9
$ANGBASE
 50
0.0
  9
$ANGDIR
 70
     0
  9
$PDMODE
 70
     0
  9
$PDSIZE
 40
0.0
  9
$PLINEWID
 40
0.0
  9
$SPLFRAME
 70
     0
  9
$SPLINETYPE
 70
     6
  9
$SPLINESEGS
 70
     8
  9
$HANDSEED
  5
411
  9
$SURFTAB1
 70
     6
  9
$SURFTAB2
 70
     6
  9
$SURFTYPE
 70
     6
  9
$SURFU
 70
     6
  9
$SURFV
 70
     6
  9
$UCSBASE
  2

  9
$UCSNAME
  2

  9
$UCSORG
 10
0.0
 20
0.0
 30
0.0
  9
$UCSXDIR
 10
1.0
 20
0.0
 30
0.0
  9
$UCSYDIR
 10
0.0
 20
1.0
 30
0.0
  9
$UCSORTHOREF
  2

  9
$UCSORTHOVIEW
 70
     0
  9
$UCSORGTOP
 10
0.0
 20
0.0
 30
0.0
  9
$UCSORGBOTTOM
 10
0.0
 20
0.0
 30
0.0
  9
$UCSORGLEFT
 10
0.0
 20
0.0
 30
0.0
  9
$UCSORGRIGHT
 10
0.0
 20
0.0
 30
0.0
  9
$UCSORGFRONT
 10
0.0
 20
0.0
 30
0.0
  9
$UCSORGBACK
 10
0.0
 20
0.0
 30
0.0
  9
$PUCSBASE
  2

  9
$PUCSNAME
  2

  9
$PUCSORG
 10
0.0
 20
0.0
 30
0.0
  9
$PUCSXDIR
 10
1.0
 20
0.0
 30
0.0
  9
$PUCSYDIR
 10
0.0
 20
1.0
 30
0.0
  9
$PUCSORTHOREF
  2

  9
$PUCSORTHOVIEW
 70
     0
  9
$PUCSORGTOP
 10
0.0
 20
0.0
 30
0.0
  9
$PUCSORGBOTTOM
 10
0.0
 20
0.0
 30
0.0
  9
$PUCSORGLEFT
 10
0.0
 20
0.0
 30
0.0
  9
$PUCSORGRIGHT
 10
0.0
 20
0.0
 30
0.0
  9
$PUCSORGFRONT
 10
0.0
 20
0.0
 30
0.0
  9
$PUCSORGBACK
 10
0.0
 20
0.0
 30
0.0
  9
$USERI1
 70
     0
  9
$USERI2
 70
     0
  9
$USERI3
 70
     0
  9
$USERI4
 70
     0
  9
$USERI5
 70
     0
  9
$USERR1
 40
0.0
  9
$USERR2
 40
0.0
  9
$USERR3
 40
0.0
  9
$USERR4
 40
0.0
  9
$USERR5
 40
0.0
  9
$WORLDVIEW
 70
     1
  9
$SHADEDGE
 70
     3
  9
$SHADEDIF
 70
    70
  9
$TILEMODE
 70
     1
  9
$MAXACTVP
 70
    16
  9
$PINSBASE
 10
0.0
 20
0.0
 30
0.0
  9
$PLIMCHECK
 70
     0
  9
$PEXTMIN
 10
1.000000E+20
 20
1.000000E+20
 30
1.000000E+20
  9
$PEXTMAX
 10
-1.000000E+20
 20
-1.000000E+20
 30
-1.000000E+20
  9
$PLIMMIN
 10
0.0
 20
0.0
  9
$PLIMMAX
 10
12.0
 20
9.0
  9
$UNITMODE
 70
     0
  9
$VISRETAIN
 70
     0
  9
$PLINEGEN
 70
     1
  9
$PSLTSCALE
 70
     0
  9
$TREEDEPTH
 70
  3020
  9
$CMLSTYLE
  2
Standard
  9
$CMLJUST
 70
     0
  9
$CMLSCALE
 40
1.0
  9
$PROXYGRAPHICS
 70
     0
  9
$MEASUREMENT
 70
     0
  9
$CELWEIGHT
370
     0
  9
$ENDCAPS
280
     0
  9
$JOINSTYLE
280
     0
  9
$LWDISPLAY
290
     0
  9
$INSUNITS
 70
     0
  9
$HYPERLINKBASE
  1

  9
$STYLESHEET
  1

  9
$XEDIT
290
     1
  9
$CEPSNTYPE
380
     0
  9
$PSTYLEMODE
290
     1
  9
$FINGERPRINTGUID
  2

  9
$VERSIONGUID
  2

  9
$EXTNAMES
290
     1
  9
$PSVPSCALE
 40
0.0
  0
ENDSEC
  0
SECTION
  2
CLASSES
  0
CLASS
  1
LWPOLYLINE
  2
AcDbPolyline
  3
AutoCAD 2000
 90
    32768
280
     0
281
     1
  0
CLASS
  1
IMAGE
  2
AcDbRasterImage
  3
ISM
 90
    32895
280
     0
281
     1
  0
CLASS
  1
OLE2FRAME
  2
AcDbOle2Frame
  3
AutoCAD 2000
 90
    32768
280
     0
281
     1
  0
CLASS
  1
HATCH
  2
AcDbHatch
  3
AutoCAD 2000
 90
    32768
280
     0
281
     1
  0
CLASS
  1
DICTIONARYVAR
  2
AcDbDictionaryVar
  3
AutoCAD 2000
 90
    32768
280
     0
281
     0
  0
CLASS
  1
RASTERVARIABLES
  2
AcDbRasterVariables
  3
ISM
 90
    32768
280
     0
281
     0
  0
CLASS
  1
IMAGEDEF
  2
AcDbRasterImageDef
  3
ISM
 90
    32768
280
     0
281
     0
  0
CLASS
  1
IMAGEDEF_REACTOR
  2
AcDbRasterImageDefReactor
  3
ISM
 90
    32769
280
     0
281
     0
  0
CLASS
  1
IDBUFFER
  2
AcDbIdBuffer
  3
AutoCAD 2000
 90
    32768
280
     0
281
     0
  0
CLASS
  1
SPATIAL_FILTER
  2
AcDbSpatialFilter
  3
AutoCAD 2000
 90
    32768
280
     0
281
     0
  0
CLASS
  1
XRECORD
  2
AcDbXrecord
  3
AutoCAD 2000
 90
        0
280
     0
281
     0
  0
CLASS
  1
SORTENTSTABLE
  2
AcDbSortentsTable
  3
AutoCAD 2000
 90
    32768
280
     0
281
     0
  0
CLASS
  1
LAYER_INDEX
  2
AcDbLayerIndex
  3
AutoCAD 2000
 90
    32768
280
     0
281
     0
  0
CLASS
  1
SPATIAL_INDEX
  2
AcDbSpatialIndex
  3
AutoCAD 2000
 90
    32768
280
     0
281
     0
  0
CLASS
  1
OBJECT_PTR
  2
CAseDLPNTableRecord
  3
"ASE-LPNTableRecord"
 90
    32769
280
     0
281
     0
  0
CLASS
  1
LAYOUT
  2
AcDbLayout
  3
AutoCAD 2000
 90
        0
280
     0
281
     0
  0
CLASS
  1
PLOTSETTINGS
  2
AcDbPlotSettings
  3
AutoCAD 2000
 90
    32768
280
     0
281
     0
  0
CLASS
  1
ACDBDICTIONARYWDFLT
  2
AcDbDictionaryWithDefault
  3
AutoCAD 2000
 90
        0
280
     0
281
     0
  0
CLASS
  1
ACDBPLACEHOLDER
  2
AcDbPlaceHolder
  3
AutoCAD 2000
 90
        0
280
     0
281
     0
  0
CLASS
  1
VBA_PROJECT
  2
AcDbVbaProject
  3
acadvba
 90
    32768
280
     0
281
     0
  0
CLASS
  1
WIPEOUT
  2
AcDbWipeout
  3
WipeOut|AutoCAD Express Tool|expresstools@autodesk.com
 90
    32895
280
     0
281
     1
  0
CLASS
  1
WIPEOUTVARIABLES
  2
AcDbWipeoutVariables
  3
WipeOut|AutoCAD Express Tool|expresstools@autodesk.com
 90
        0
280
     0
281
     0
  0
CLASS
  1
RTEXT
  2
RText
  3
RText|AutoCAD Express Tool|expresstools@autodesk.com
 90
    32768
280
     0
281
     1
  0
CLASS
  1
ARCALIGNEDTEXT
  2
AcDbArcAlignedText
  3
ATEXT|AutoCAD Express Tool|expresstools@autodesk.com
 90
    32768
280
     0
281
     1
  0
ENDSEC
  0
SECTION
  2
TABLES
  0
TABLE
  2
VPORT
  5
7
100
AcDbSymbolTable
 70
     1
  0
VPORT
  5
15
100
AcDbSymbolTableRecord
100
AcDbViewportTableRecord
  2
*ACTIVE
 70
     0
 10
0.0
 20
0.0
 11
1.0
 21
1.0
 12
0.0
 22
0.0
 13
0.0
 23
0.0
 14
1.0
 24
1.0
 15
0.0
 25
0.0
 16
0.0
 26
0.0
 36
1.0
 17
0.0
 27
0.0
 37
0.0
 40
100.0
 41
1.0
 42
50.0
 43
0.0
 44
0.0
 50
0.0
 51
0.0
 71
     0
 72
   100
 73
     1
 74
     1
 75
     0
 76
     0
 77
     0
 78
     0
281
     0
 65
     0
110
0.0
120
0.0
130
0.0
111
1.0
121
0.0
131
0.0
112
0.0
122
1.0
132
0.0
345
0
346
0
 79
     0
146
0.0
  0
ENDTAB
  0
TABLE
  2
LTYPE
  5
4
100
AcDbSymbolTable
 70
     7
  0
LTYPE
  5
11
100
AcDbSymbolTableRecord
100
AcDbLinetypeTableRecord
  2
ByBlock
 70
    64
  3

 72
    65
 73
     0
 40
0.0
  0
LTYPE
  5
12
100
AcDbSymbolTableRecord
100
AcDbLinetypeTableRecord
  2
ByLayer
 70
    64
  3

 72
    65
 73
     0
 40
0.0
  0
LTYPE
  5
13
100
AcDbSymbolTableRecord
100
AcDbLinetypeTableRecord
  2
Continuous
 70
    64
  3
Solid line
 72
    65
 73
     0
 40
0.0
  0
LTYPE
  5
24
100
AcDbSymbolTableRecord
100
AcDbLinetypeTableRecord
  2
DASHED
 70
    64
  3
Dashed __ __ __ __ __ __ __ __ __ __ __ __ __ _
 72
    65
 73
     2
 40
0.75
 49
0.5
 74
     0
 49
-0.25
 74
     0
  0
LTYPE
  5
25
100
AcDbSymbolTableRecord
100
AcDbLinetypeTableRecord
  2
CENTER
 70
    64
  3
Center ____ _ ____ _ ____ _ ____ _ ____ _ ____
 72
    65
 73
     4
 40
1.0
 49
0.5
 74
     0
 49
-0.25
 74
     0
 49
0.0
 74
     0
 49
-0.25
 74
     0
  0
LTYPE
  5
26
100
AcDbSymbolTableRecord
100
AcDbLinetypeTableRecord
  2
DIVIDE
 70
    64
  3
Divide ____ . . ____ . . ____ . . ____ . . ____
 72
    65
 73
     6
 40
1.25
 49
0.5
 74
     0
 49
-0.25
 74
     0
 49
0.0
 74
     0
 49
-0.25
 74
     0
 49
0.0
 74
     0
 49
-0.25
 74
     0
  0
LTYPE
  5
27
100
AcDbSymbolTableRecord
100
AcDbLinetypeTableRecord
  2
PHANTOM
 70
    64
  3
Phantom ______  __  __  ______  __  __  ______
 72
    65
 73
     6
 40
9.0
 49
4.3
 74
     0
 49
-0.7
 74
     0
 49
1.3
 74
     0
 49
-0.7
 74
     0
 49
1.3
 74
     0
 49
-0.7
 74
     0
  0
ENDTAB
  0
TABLE
  2
LAYER
  5
2
100
AcDbSymbolTable
 70
     3
  0
LAYER
  5
14
100
AcDbSymbolTableRecord
100
AcDbLayerTableRecord
  2
0
 70
    64
 62
    53
  6
Continuous
290
     1
370
    -3
390
1D
  0
LAYER
  5
28
100
AcDbSymbolTableRecord
100
AcDbLayerTableRecord
  2
3
 70
    64
 62
     4
  6
Continuous
290
     1
370
    -3
390
1D
  0
LAYER
  5
29
100
AcDbSymbolTableRecord
100
AcDbLayerTableRecord
  2
5
 70
    64
 62
   191
  6
Continuous
290
     1
370
    -3
390
1D
  0
ENDTAB
  0
TABLE
  2
STYLE
  5
3
100
AcDbSymbolTable
 70
     2
  0
STYLE
  5
17
100
AcDbSymbolTableRecord
100
AcDbTextStyleTableRecord
  2
Standard
 70
     0
 40
0.0
 41
1.0
 50
0.0
 71
     0
 42
0.0
  3
txt
  4

  0
STYLE
  5
6E
100
AcDbSymbolTableRecord
100
AcDbTextStyleTableRecord
  2
ZU_SHPTB00001
 70
     0
 40
0.0
 41
1.0
 50
0.0
 71
     0
 42
0.0
  3
monotxt
  4
bigfont
  0
ENDTAB
  0
TABLE
  2
VIEW
  5
5
100
AcDbSymbolTable
 70
     0
  0
ENDTAB
  0
TABLE
  2
UCS
  5
6
100
AcDbSymbolTable
 70
     0
  0
ENDTAB
  0
TABLE
  2
APPID
  5
8
100
AcDbSymbolTable
 70
     1
  0
APPID
  5
16
100
AcDbSymbolTableRecord
100
AcDbRegAppTableRecord
  2
ACAD
 70
     0
  0
ENDTAB
  0
TABLE
  2
DIMSTYLE
  5
9
100
AcDbSymbolTable
 70
     1
100
AcDbDimStyleTable
 71
     0
  0
DIMSTYLE
105
18
100
AcDbSymbolTableRecord
100
AcDbDimStyleTableRecord
  2
Standard
 70
     0
  3

  4

 40
1.0
 41
0.18
 42
0.0625
 43
0.38
 44
0.18
 45
0.0
 46
0.0
 47
0.0
 48
0.0
 71
     0
 72
     0
 73
     1
 74
     1
 75
     0
 76
     0
 77
     0
 78
     0
 79
     0
140
0.18
141
0.09
142
0.0
143
25.4
144
1.0
145
0.0
146
1.0
147
0.09
148
0.0
170
     0
171
     2
172
     0
173
     0
174
     0
175
     0
176
     0
177
     0
178
     0
179
     0
271
     4
272
     4
273
     2
274
     2
275
     0
276
     0
277
     2
278
    46
279
     0
280
     0
281
     0
282
     0
283
     1
284
     0
285
     0
286
     0
288
     0
340
17
341
0
342
0
343
0
344
0
371
    -2
372
    -2
  0
ENDTAB
  0
TABLE
  2
BLOCK_RECORD
  5
1
100
AcDbSymbolTable
 70
     0
  0
BLOCK_RECORD
  5
A
100
AcDbSymbolTableRecord
100
AcDbBlockTableRecord
  2
*MODEL_SPACE
340
20
  0
BLOCK_RECORD
  5
B
100
AcDbSymbolTableRecord
100
AcDbBlockTableRecord
  2
*PAPER_SPACE
340
21
  0
ENDTAB
  0
ENDSEC
  0
SECTION
  2
BLOCKS
  0
BLOCK
  5
D
100
AcDbEntity
  8
0
100
AcDbBlockBegin
  2
*MODEL_SPACE
 70
     0
 10
0.0
 20
0.0
 30
0.0
  3
*MODEL_SPACE
  1

  0
ENDBLK
  5
E
100
AcDbEntity
  8
0
100
AcDbBlockEnd
  0
BLOCK
  5
F
100
AcDbEntity
 67
     1
  8
0
100
AcDbBlockBegin
  2
*PAPER_SPACE
 70
     0
 10
0.0
 20
0.0
 30
0.0
  3
*PAPER_SPACE
  1

  0
ENDBLK
  5
10
100
AcDbEntity
 67
     1
  8
0
100
AcDbBlockEnd
  0
ENDSEC
  0
SECTION
  2
ENTITIES
  0
LINE
  5
2A
100
AcDbEntity
  8
0
370
    -3
  6
CENTER
100
AcDbLine
 10
-520.870811
 20
83.449706
 30
0.0
 11
-520.870811
 21
-142.07847
 31
0.0
  0
LINE
  5
2B
100
AcDbEntity
  8
0
370
    -3
  6
CENTER
100
AcDbLine
 10
-497.084912
 20
-49.913796
 30
0.0
 11
-539.454051
 21
-49.913796
 31
0.0
  0
LINE
  5
2C
100
AcDbEntity
  8
0
370
    -3
  6
CENTER
100
AcDbLine
 10
-410.999298
 20
-27.747651
 30
0.0
 11
-588.296593
 21
-27.747651
 31
0.0
  0
LINE
  5
2D
100
AcDbEntity
  8
0
370
    -3
  6
Continuous
100
AcDbLine
 10
-460.870793
 20
-15.747651
 30
0.0
 11
-458.870793
 21
-15.747651
 31
0.0
  0
LINE
  5
2E
100
AcDbEntity
  8
0
370
    -3
  6
Continuous
100
AcDbLine
 10
-460.870793
 20
-39.747651
 30
0.0
 11
-458.870793
 21
-39.747651
 31
0.0
  0
LINE
  5
2F
100
AcDbEntity
  8
0
370
    -3
  6
Continuous
100
AcDbLine
 10
-418.870793
 20
-14.247651
 30
0.0
 11
-450.870775
 21
-14.247651
 31
0.0
  0
LINE
  5
30
100
AcDbEntity
  8
0
370
    -3
  6
Continuous
100
AcDbLine
 10
-418.870793
 20
-14.247651
 30
0.0
 11
-418.870793
 21
-16.747651
 31
0.0
  0
LINE
  5
31
100
AcDbEntity
  8
0
370
    -3
  6
Continuous
100
AcDbLine
 10
-450.870793
 20
-16.747651
 30
0.0
 11
-450.870793
 21
-14.247651
 31
0.0
  0
LINE
  5
32
100
AcDbEntity
  8
0
370
    -3
  6
Continuous
100
AcDbLine
 10
-458.870793
 20
-15.747651
 30
0.0
 11
-458.870793
 21
-27.747651
 31
0.0
  0
LINE
  5
33
100
AcDbEntity
  8
0
370
    -3
  6
Continuous
100
AcDbLine
 10
-458.870793
 20
-39.747651
 30
0.0
 11
-458.870793
 21
-27.747651
 31
0.0
  0
LINE
  5
34
100
AcDbEntity
  8
0
370
    -3
  6
Continuous
100
AcDbLine
 10
-418.870793
 20
-38.347651
 30
0.0
 11
-418.870793
 21
-27.747651
 31
0.0
  0
LINE
  5
35
100
AcDbEntity
  8
0
370
    -3
  6
Continuous
100
AcDbLine
 10
-458.870793
 20
-38.747651
 30
0.0
 11
-419.270793
 21
-38.747651
 31
0.0
  0
ARC
  5
36
100
AcDbEntity
  8
0
370
    -3
  6
Continuous
100
AcDbCircle
 10
-419.270793
 20
-38.347651
 30
0.0
 40
0.4
100
AcDbArc
 50
270.0
 51
0.0
  0
LINE
  5
37
100
AcDbEntity
  8
0
370
    -3
  6
Continuous
100
AcDbLine
 10
-418.870793
 20
-16.747651
 30
0.0
 11
-418.870793
 21
-27.747651
 31
0.0
  0
LINE
  5
38
100
AcDbEntity
  8
0
370
    -3
  6
Continuous
100
AcDbLine
 10
-458.870793
 20
-16.747651
 30
0.0
 11
-418.870793
 21
-16.747651
 31
0.0
  0
ARC
  5
39
100
AcDbEntity
  8
0
370
    -3
  6
Continuous
100
AcDbCircle
 10
-577.870829
 20
-56.877698
 30
0.0
 40
3.0
100
AcDbArc
 50
180.0
 51
260.0
  0
LINE
  5
3A
100
AcDbEntity
  8
0
370
    -3
  6
Continuous
100
AcDbLine
 10
-580.870829
 20
1.382397
 30
0.0
 11
-580.870829
 21
-56.877698
 31
0.0
  0
ARC
  5
3B
100
AcDbEntity
  8
0
370
    -3
  6
Continuous
100
AcDbCircle
 10
-577.870829
 20
1.382397
 30
0.0
 40
3.0
100
AcDbArc
 50
100.0
 51
180.0
  0
ARC
  5
3C
100
AcDbEntity
  8
0
370
    -3
  6
Continuous
100
AcDbCircle
 10
-475.370745
 20
11.533558
 30
0.0
 40
5.0
100
AcDbArc
 50
180.000075
 51
260.0
  0
ARC
  5
3D
100
AcDbEntity
  8
0
370
    -3
  6
Continuous
100
AcDbCircle
 10
-480.370829
 20
24.448551
 30
0.0
 40
3.0
100
AcDbArc
 50
180.0
 51
240.000935
  0
ARC
  5
3E
100
AcDbEntity
  8
0
370
    -3
  6
Continuous
100
AcDbCircle
 10
-483.370745
 20
19.252349
 30
0.0
 40
3.0
100
AcDbArc
 50
360.0
 51
60.000935
  0
POINT
  5
3F
100
AcDbEntity
  8
0
370
    -3
  6
Continuous
100
AcDbPoint
 10
-483.370745
 20
22.252349
 30
0.0
  0
LINE
  5
40
100
AcDbEntity
  8
0
370
    -3
  6
Continuous
100
AcDbLine
 10
-463.049867
 20
4.283922
 30
0.0
 11
-476.238985
 21
6.609519
 31
0.0
  0
POINT
  5
41
100
AcDbEntity
  8
0
370
    -3
  6
Continuous
100
AcDbPoint
 10
-462.870811
 20
4.252349
 30
0.0
  0
ARC
  5
42
100
AcDbEntity
  8
0
370
    -3
  6
Continuous
100
AcDbCircle
 10
-463.570811
 20
1.329498
 30
0.0
 40
3.0
100
AcDbArc
 50
25.841933
 51
80.0
  0
ARC
  5
43
100
AcDbEntity
  8
0
370
    -3
  6
Continuous
100
AcDbCircle
 10
-475.370745
 20
-67.028859
 30
0.0
 40
5.0
100
AcDbArc
 50
100.0
 51
179.999925
  0
LINE
  5
44
100
AcDbEntity
  8
0
370
    -3
  6
Continuous
100
AcDbLine
 10
-480.370745
 20
-67.028859
 30
0.0
 11
-480.370745
 21
19.252349
 31
0.0
  0
ARC
  5
45
100
AcDbEntity
  8
0
370
    -3
  6
Continuous
100
AcDbCircle
 10
-463.570811
 20
-56.8248
 30
0.0
 40
3.0
100
AcDbArc
 50
280.0
 51
334.158067
  0
LINE
  5
46
100
AcDbEntity
  8
0
370
    -3
  6
Continuous
100
AcDbLine
 10
-463.049867
 20
-59.779223
 30
0.0
 11
-476.238985
 21
-62.10482
 31
0.0
  0
POINT
  5
47
100
AcDbEntity
  8
0
370
    -3
  6
Continuous
100
AcDbPoint
 10
-462.870811
 20
-59.747651
 30
0.0
  0
LINE
  5
48
100
AcDbEntity
  8
0
370
    -3
  6
Continuous
100
AcDbLine
 10
-460.870811
 20
-58.132469
 30
0.0
 11
-460.870811
 21
2.637168
 31
0.0
  0
ARC
  5
49
100
AcDbEntity
  8
0
370
    -3
  6
Continuous
100
AcDbCircle
 10
-577.870811
 20
-118.695742
 30
0.0
 40
3.0
100
AcDbArc
 50
91.0
 51
180.0
  0
LINE
  5
4A
100
AcDbEntity
  8
0
370
    -3
  6
Continuous
100
AcDbLine
 10
-577.923168
 20
-115.696199
 30
0.0
 11
-554.353359
 21
-115.284787
 31
0.0
  0
LINE
  5
4B
100
AcDbEntity
  8
0
370
    -3
  6
Continuous
100
AcDbLine
 10
-580.870811
 20
-127.747651
 30
0.0
 11
-580.870811
 21
-118.695742
 31
0.0
  0
LINE
  5
4C
100
AcDbEntity
  8
0
370
    -3
  6
CENTER
100
AcDbLine
 10
-570.870811
 20
-132.116658
 30
0.0
 11
-570.870811
 21
-110.963661
 31
0.0
  0
ARC
  5
4D
100
AcDbEntity
  8
0
370
    -3
  6
Continuous
100
AcDbCircle
 10
-557.870811
 20
-110.747923
 30
0.0
 40
3.0
100
AcDbArc
 50
180.0
 51
270.0
  0
LINE
  5
4E
100
AcDbEntity
  8
0
370
    -3
  6
Continuous
100
AcDbLine
 10
-553.370811
 20
-101.908694
 30
0.0
 11
-553.370811
 21
-113.747923
 31
0.0
  0
ARC
  5
4F
100
AcDbEntity
  8
0
370
    -3
  6
Continuous
100
AcDbCircle
 10
-554.370811
 20
-114.284939
 30
0.0
 40
1.0
100
AcDbArc
 50
271.0
 51
0.0
  0
LINE
  5
50
100
AcDbEntity
  8
0
370
    -3
  6
Continuous
100
AcDbLine
 10
-553.370811
 20
-114.284939
 30
0.0
 11
-553.370811
 21
-101.801293
 31
0.0
  0
ARC
  5
51
100
AcDbEntity
  8
0
370
    -3
  6
Continuous
100
AcDbCircle
 10
-463.870811
 20
-118.695742
 30
0.0
 40
3.0
100
AcDbArc
 50
0.0
 51
89.0
  0
ARC
  5
52
100
AcDbEntity
  8
0
370
    -3
  6
Continuous
100
AcDbCircle
 10
-480.370811
 20
-112.40682
 30
0.0
 40
3.0
100
AcDbArc
 50
180.0
 51
269.0
  0
LINE
  5
53
100
AcDbEntity
  8
0
370
    -3
  6
Continuous
100
AcDbLine
 10
-483.370811
 20
-112.40682
 30
0.0
 11
-483.370811
 21
-100.326675
 31
0.0
  0
LINE
  5
54
100
AcDbEntity
  8
0
370
    -3
  6
Continuous
100
AcDbLine
 10
-480.423168
 20
-115.406363
 30
0.0
 11
-463.818454
 21
-115.696199
 31
0.0
  0
LINE
  5
55
100
AcDbEntity
  8
0
370
    -3
  6
CENTER
100
AcDbLine
 10
-470.870811
 20
-130.777766
 30
0.0
 11
-470.870811
 21
-111.542666
 31
0.0
  0
LINE
  5
56
100
AcDbEntity
  8
0
370
    -3
  6
Continuous
100
AcDbLine
 10
-460.870811
 20
-127.747651
 30
0.0
 11
-460.870811
 21
-118.695742
 31
0.0
  0
LINE
  5
57
100
AcDbEntity
  8
0
370
    -3
  6
Continuous
100
AcDbLine
 10
-580.870811
 20
-127.747651
 30
0.0
 11
-460.870811
 21
-127.747651
 31
0.0
  0
LINE
  5
58
100
AcDbEntity
  8
0
370
    -3
  6
Continuous
100
AcDbLine
 10
-578.391774
 20
-59.832121
 30
0.0
 11
-565.00257
 21
-62.192999
 31
0.0
  0
ARC
  5
59
100
AcDbEntity
  8
0
370
    -3
  6
Continuous
100
AcDbCircle
 10
-565.870811
 20
-67.117038
 30
0.0
 40
5.0
100
AcDbArc
 50
0.0
 51
80.0
  0
LINE
  5
5A
100
AcDbEntity
  8
0
370
    -3
  6
Continuous
100
AcDbLine
 10
-560.870811
 20
-67.117038
 30
0.0
 11
-560.870811
 21
-110.747923
 31
0.0
  0
LINE
  5
5B
100
AcDbEntity
  8
0
370
    -3
  6
Continuous
100
AcDbLine
 10
-578.891774
 20
4.248656
 30
0.0
 11
-565.50257
 21
6.609534
 31
0.0
  0
ARC
  5
5C
100
AcDbEntity
  8
0
370
    -3
  6
Continuous
100
AcDbCircle
 10
-566.370811
 20
11.533573
 30
0.0
 40
5.0
100
AcDbArc
 50
280.0
 51
360.0
  0
POINT
  5
5D
100
AcDbEntity
  8
0
370
    -3
  6
Continuous
100
AcDbPoint
 10
-561.370811
 20
7.338075
 30
0.0
  0
LINE
  5
5E
100
AcDbEntity
  8
0
370
    -3
  6
Continuous
100
AcDbLine
 10
-553.370811
 20
28.252349
 30
0.0
 11
-553.370811
 21
24.752077
 31
0.0
  0
LINE
  5
5F
100
AcDbEntity
  8
0
370
    -3
  6
Continuous
100
AcDbLine
 10
-553.370811
 20
-102.218436
 30
0.0
 11
-553.370811
 21
28.252077
 31
0.0
  0
LINE
  5
60
100
AcDbEntity
  8
0
370
    -3
  6
Continuous
100
AcDbLine
 10
-561.370811
 20
-64.937588
 30
0.0
 11
-561.370811
 21
25.164617
 31
0.0
  0
LINE
  5
61
100
AcDbEntity
  8
0
370
    -3
  6
Continuous
100
AcDbLine
 10
-483.370811
 20
-100.326675
 30
0.0
 11
-483.370811
 21
24.082131
 31
0.0
  0
LINE
  5
62
100
AcDbEntity
  8
0
370
    -3
  6
Continuous
100
AcDbLine
 10
-480.370745
 20
-67.028859
 30
0.0
 11
-480.370745
 21
-74.747651
 31
0.0
  0
ARC
  5
63
100
AcDbEntity
  8
0
370
    -3
  6
Continuous
100
AcDbCircle
 10
-483.370745
 20
-74.747651
 30
0.0
 40
3.0
100
AcDbArc
 50
299.999065
 51
0.0
  0
POINT
  5
64
100
AcDbEntity
  8
0
370
    -3
  6
Continuous
100
AcDbPoint
 10
-483.370745
 20
-77.747651
 30
0.0
  0
ARC
  5
65
100
AcDbEntity
  8
0
370
    -3
  6
Continuous
100
AcDbCircle
 10
-480.370829
 20
-79.943852
 30
0.0
 40
3.0
100
AcDbArc
 50
119.999065
 51
180.0
  0
LINE
  5
66
100
AcDbEntity
  8
0
370
    -3
  6
Continuous
100
AcDbLine
 10
-557.870811
 20
-113.747923
 30
0.0
 11
-553.371496
 21
-113.826459
 31
0.0
  0
ARC
  5
67
100
AcDbEntity
  8
0
370
    -3
  6
Continuous
100
AcDbCircle
 10
-558.370811
 20
25.164617
 30
0.0
 40
3.0
100
AcDbArc
 50
91.0
 51
180.0
  0
LINE
  5
68
100
AcDbEntity
  8
0
370
    -3
  6
Continuous
100
AcDbLine
 10
-553.370811
 20
28.252077
 30
0.0
 11
-486.318454
 21
27.081674
 31
0.0
  0
LINE
  5
69
100
AcDbEntity
  8
0
370
    -3
  6
Continuous
100
AcDbLine
 10
-553.370811
 20
28.252349
 30
0.0
 11
-558.423168
 21
28.16416
 31
0.0
  0
ARC
  5
6A
100
AcDbEntity
  8
0
370
    -3
  6
Continuous
100
AcDbCircle
 10
-486.370811
 20
24.082131
 30
0.0
 40
3.0
100
AcDbArc
 50
0.0
 51
89.0
  0
LINE
  5
6B
100
AcDbEntity
  8
0
370
    -3
  6
Continuous
100
AcDbLine
 10
-151.862374
 20
3.586204
 30
0.0
 11
-151.862374
 21
-49.913796
 31
0.0
  0
LINE
  5
6C
100
AcDbEntity
  8
0
370
    -3
  6
Continuous
100
AcDbLine
 10
-151.862374
 20
-103.413796
 30
0.0
 11
-151.862374
 21
-49.913796
 31
0.0
  0
LINE
  5
6D
100
AcDbEntity
  8
0
370
    -3
  6
Continuous
100
AcDbLine
 10
-151.862374
 20
-103.413796
 30
0.0
 11
-151.862374
 21
3.586204
 31
0.0
  0
MTEXT
  5
6F
100
AcDbEntity
  8
0
370
    -3
  6
Continuous
100
AcDbMText
 10
-406.884216
 20
-13.15625
 30
0.0
 40
2.8
 41
0.0
 71
     7
 72
     1
  1
\W0.83;　
  7
ZU_SHPTB00001
 11
1.0
 21
0.0
 31
0.0
 73
     1
 44
1.0
  0
LINE
  5
70
100
AcDbEntity
  8
0
370
    -3
  6
CENTER
100
AcDbLine
 10
-0.193193
 20
210.129799
 30
0.0
 11
-303.71972
 21
210.129799
 31
0.0
  0
LINE
  5
71
100
AcDbEntity
  8
0
370
    -3
  6
Continuous
100
AcDbLine
 10
-151.862374
 20
156.629799
 30
0.0
 11
-151.862374
 21
163.38219
 31
0.0
  0
LINE
  5
72
100
AcDbEntity
  8
0
370
    -3
  6
Continuous
100
AcDbLine
 10
-151.862374
 20
263.629799
 30
0.0
 11
-151.862374
 21
256.877407
 31
0.0
  0
LINE
  5
73
100
AcDbEntity
  8
0
370
    -3
  6
Continuous
100
AcDbLine
 10
38.137617
 20
-14.247651
 30
0.0
 11
38.137617
 21
-16.747651
 31
0.0
  0
LINE
  5
74
100
AcDbEntity
  8
0
370
    -3
  6
Continuous
100
AcDbLine
 10
38.137617
 20
-16.747651
 30
0.0
 11
38.137617
 21
-27.747651
 31
0.0
  0
ARC
  5
75
100
AcDbEntity
  8
0
370
    -3
  6
Continuous
100
AcDbCircle
 10
38.537617
 20
-38.347651
 30
0.0
 40
0.4
100
AcDbArc
 50
180.0
 51
270.0
  0
LINE
  5
76
100
AcDbEntity
  8
0
370
    -3
  6
Continuous
100
AcDbLine
 10
38.137617
 20
-38.347651
 30
0.0
 11
38.137617
 21
-27.747651
 31
0.0
  0
LINE
  5
77
100
AcDbEntity
  8
0
370
    -3
  6
Continuous
100
AcDbLine
 10
172.637635
 20
-105.010612
 30
0.0
 11
172.637635
 21
-115.267636
 31
0.0
  0
LINE
  5
78
100
AcDbEntity
  8
0
370
    -3
  6
Continuous
100
AcDbLine
 10
180.137635
 20
-100.630384
 30
0.0
 11
180.137635
 21
-110.747923
 31
0.0
  0
LINE
  5
79
100
AcDbEntity
  8
0
370
    -3
  6
Continuous
100
AcDbLine
 10
82.316691
 20
-59.779223
 30
0.0
 11
86.276941
 21
-60.477521
 31
0.0
  0
LINE
  5
7A
100
AcDbEntity
  8
0
370
    -3
  6
Continuous
100
AcDbLine
 10
102.637635
 20
2.507594
 30
0.0
 11
102.637635
 21
19.841728
 31
0.0
  0
LINE
  5
7B
100
AcDbEntity
  8
0
370
    -3
  6
Continuous
100
AcDbLine
 10
172.637635
 20
5.183021
 30
0.0
 11
172.637635
 21
7.086204
 31
0.0
  0
LINE
  5
7C
100
AcDbEntity
  8
0
370
    -3
  6
Continuous
100
AcDbLine
 10
180.637635
 20
0.427825
 30
0.0
 11
180.637635
 21
19.987317
 31
0.0
  0
LINE
  5
7D
100
AcDbEntity
  8
0
370
    -3
  6
Continuous
100
AcDbLine
 10
197.658598
 20
-59.832121
 30
0.0
 11
193.99833
 21
-60.477525
 31
0.0
  0
LINE
  5
7E
100
AcDbEntity
  8
0
370
    -3
  6
CENTER
100
AcDbLine
 10
83.341967
 20
-49.913796
 30
0.0
 11
202.690096
 21
-49.913796
 31
0.0
  0
LINE
  5
7F
100
AcDbEntity
  8
0
370
    -3
  6
CENTER
100
AcDbLine
 10
140.137635
 20
-139.386296
 30
0.0
 11
140.137635
 21
80.302635
 31
0.0
  0
ARC
  5
80
100
AcDbEntity
  8
0
370
    -3
  6
Continuous
100
AcDbCircle
 10
197.137653
 20
-56.877698
 30
0.0
 40
3.0
100
AcDbArc
 50
280.0
 51
0.0
  0
LINE
  5
81
100
AcDbEntity
  8
0
370
    -3
  6
Continuous
100
AcDbLine
 10
200.137653
 20
1.382396
 30
0.0
 11
200.137653
 21
-56.877698
 31
0.0
  0
ARC
  5
82
100
AcDbEntity
  8
0
370
    -3
  6
Continuous
100
AcDbCircle
 10
197.137653
 20
1.382396
 30
0.0
 40
3.0
100
AcDbArc
 50
0.0
 51
80.0
  0
ARC
  5
83
100
AcDbEntity
  8
0
370
    -3
  6
Continuous
100
AcDbCircle
 10
94.637569
 20
11.533558
 30
0.0
 40
5.0
100
AcDbArc
 50
280.0
 51
359.999925
  0
ARC
  5
84
100
AcDbEntity
  8
0
370
    -3
  6
Continuous
100
AcDbCircle
 10
102.637569
 20
19.252349
 30
0.0
 40
3.0
100
AcDbArc
 50
166.145114
 51
180.0
  0
LINE
  5
85
100
AcDbEntity
  8
0
370
    -3
  6
Continuous
100
AcDbLine
 10
82.316691
 20
4.283922
 30
0.0
 11
95.505809
 21
6.609519
 31
0.0
  0
ARC
  5
86
100
AcDbEntity
  8
0
370
    -3
  6
Continuous
100
AcDbCircle
 10
82.837635
 20
1.329498
 30
0.0
 40
3.0
100
AcDbArc
 50
100.0
 51
154.158067
  0
ARC
  5
87
100
AcDbEntity
  8
0
370
    -3
  6
Continuous
100
AcDbCircle
 10
82.837635
 20
-56.8248
 30
0.0
 40
3.0
100
AcDbArc
 50
205.841933
 51
260.0
  0
POINT
  5
88
100
AcDbEntity
  8
0
370
    -3
  6
Continuous
100
AcDbPoint
 10
82.137635
 20
-59.747651
 30
0.0
  0
LINE
  5
89
100
AcDbEntity
  8
0
370
    -3
  6
Continuous
100
AcDbLine
 10
80.137635
 20
-58.132469
 30
0.0
 11
80.137635
 21
2.637168
 31
0.0
  0
ARC
  5
8A
100
AcDbEntity
  8
0
370
    -3
  6
Continuous
100
AcDbCircle
 10
197.137635
 20
-118.695743
 30
0.0
 40
3.0
100
AcDbArc
 50
0.0
 51
89.0
  0
LINE
  5
8B
100
AcDbEntity
  8
0
370
    -3
  6
Continuous
100
AcDbLine
 10
200.137635
 20
-127.747651
 30
0.0
 11
200.137635
 21
-118.695743
 31
0.0
  0
LINE
  5
8C
100
AcDbEntity
  8
0
370
    -3
  6
CENTER
100
AcDbLine
 10
190.137635
 20
-132.116658
 30
0.0
 11
190.137635
 21
-110.963661
 31
0.0
  0
ARC
  5
8D
100
AcDbEntity
  8
0
370
    -3
  6
Continuous
100
AcDbCircle
 10
177.137635
 20
-110.747923
 30
0.0
 40
3.0
100
AcDbArc
 50
270.0
 51
0.0
  0
ARC
  5
8E
100
AcDbEntity
  8
0
370
    -3
  6
Continuous
100
AcDbCircle
 10
83.137635
 20
-118.695743
 30
0.0
 40
3.0
100
AcDbArc
 50
91.0
 51
180.0
  0
ARC
  5
8F
100
AcDbEntity
  8
0
370
    -3
  6
Continuous
100
AcDbCircle
 10
99.637635
 20
-112.40682
 30
0.0
 40
3.0
100
AcDbArc
 50
271.0
 51
0.0
  0
LINE
  5
90
100
AcDbEntity
  8
0
370
    -3
  6
Continuous
100
AcDbLine
 10
102.637635
 20
-112.40682
 30
0.0
 11
102.637635
 21
-102.335185
 31
0.0
  0
LINE
  5
91
100
AcDbEntity
  8
0
370
    -3
  6
Continuous
100
AcDbLine
 10
99.689992
 20
-115.406363
 30
0.0
 11
83.085278
 21
-115.696199
 31
0.0
  0
LINE
  5
92
100
AcDbEntity
  8
0
370
    -3
  6
CENTER
100
AcDbLine
 10
90.137635
 20
-130.777766
 30
0.0
 11
90.137635
 21
-111.542666
 31
0.0
  0
LINE
  5
93
100
AcDbEntity
  8
0
370
    -3
  6
Continuous
100
AcDbLine
 10
80.137635
 20
-127.747651
 30
0.0
 11
80.137635
 21
-118.695743
 31
0.0
  0
LINE
  5
94
100
AcDbEntity
  8
0
370
    -3
  6
Continuous
100
AcDbLine
 10
200.137635
 20
-127.747651
 30
0.0
 11
80.137635
 21
-127.747651
 31
0.0
  0
LINE
  5
95
100
AcDbEntity
  8
0
370
    -3
  6
Continuous
100
AcDbLine
 10
198.158598
 20
4.248656
 30
0.0
 11
184.769394
 21
6.609534
 31
0.0
  0
ARC
  5
96
100
AcDbEntity
  8
0
370
    -3
  6
Continuous
100
AcDbCircle
 10
185.637635
 20
11.533573
 30
0.0
 40
5.0
100
AcDbArc
 50
180.0
 51
260.0
  0
POINT
  5
97
100
AcDbEntity
  8
0
370
    -3
  6
Continuous
100
AcDbPoint
 10
180.637635
 20
7.338075
 30
0.0
  0
LINE
  5
98
100
AcDbEntity
  8
0
370
    -3
  6
CENTER
100
AcDbLine
 10
205.25665
 20
-27.747651
 30
0.0
 11
33.344294
 21
-27.747651
 31
0.0
  0
LINE
  5
99
100
AcDbEntity
  8
0
370
    -3
  6
Continuous
100
AcDbLine
 10
78.137617
 20
-15.747651
 30
0.0
 11
78.137617
 21
-27.747651
 31
0.0
  0
LINE
  5
9A
100
AcDbEntity
  8
0
370
    -3
  6
Continuous
100
AcDbLine
 10
78.137617
 20
-39.747651
 30
0.0
 11
78.137617
 21
-27.747651
 31
0.0
  0
LINE
  5
9B
100
AcDbEntity
  8
0
370
    -3
  6
Continuous
100
AcDbLine
 10
78.137617
 20
-38.747651
 30
0.0
 11
38.537617
 21
-38.747651
 31
0.0
  0
LINE
  5
9C
100
AcDbEntity
  8
0
370
    -3
  6
Continuous
100
AcDbLine
 10
78.137617
 20
-16.747651
 30
0.0
 11
38.137617
 21
-16.747651
 31
0.0
  0
LINE
  5
9D
100
AcDbEntity
  8
0
370
    -3
  6
Continuous
100
AcDbLine
 10
80.137617
 20
-15.747651
 30
0.0
 11
78.137617
 21
-15.747651
 31
0.0
  0
LINE
  5
9E
100
AcDbEntity
  8
0
370
    -3
  6
Continuous
100
AcDbLine
 10
80.137617
 20
-39.747651
 30
0.0
 11
78.137617
 21
-39.747651
 31
0.0
  0
LINE
  5
9F
100
AcDbEntity
  8
0
370
    -3
  6
Continuous
100
AcDbLine
 10
38.137617
 20
-14.247651
 30
0.0
 11
70.137599
 21
-14.247651
 31
0.0
  0
LINE
  5
A0
100
AcDbEntity
  8
0
370
    -3
  6
Continuous
100
AcDbLine
 10
70.137617
 20
-16.747651
 30
0.0
 11
70.137617
 21
-14.247651
 31
0.0
  0
LINE
  5
A1
100
AcDbEntity
  8
0
370
    -3
  6
Continuous
100
AcDbLine
 10
197.189992
 20
-115.696199
 30
0.0
 11
172.637635
 21
-115.267636
 31
0.0
  0
LINE
  5
A2
100
AcDbEntity
  8
0
370
    -3
  6
Continuous
100
AcDbLine
 10
177.137635
 20
-113.747923
 30
0.0
 11
172.637635
 21
-113.826471
 31
0.0
  0
LINE
  5
A3
100
AcDbEntity
  8
0
370
    -3
  6
Continuous
100
AcDbLine
 10
-151.862374
 20
157.629799
 30
0.0
 11
-151.862374
 21
163.329799
 31
0.0
  0
LINE
  5
A4
100
AcDbEntity
  8
0
370
    -3
  6
Continuous
100
AcDbLine
 10
-151.862374
 20
262.629799
 30
0.0
 11
-151.862374
 21
256.877407
 31
0.0
  0
LINE
  5
A5
100
AcDbEntity
  8
0
370
    -3
  6
Continuous
100
AcDbLine
 10
172.637635
 20
16.112381
 30
0.0
 11
172.637635
 21
19.086204
 31
0.0
  0
LINE
  5
A6
100
AcDbEntity
  8
0
370
    -3
  6
CENTER
100
AcDbLine
 10
-238.862066
 20
277.507176
 30
0.0
 11
-238.862066
 21
104.620215
 31
0.0
  0
LINE
  5
A7
100
AcDbEntity
  8
0
370
    -3
  6
Continuous
100
AcDbLine
 10
-178.08392
 20
172.629817
 30
0.0
 11
-171.862329
 21
172.629817
 31
0.0
  0
ARC
  5
A8
100
AcDbEntity
  8
0
370
    -3
  6
Continuous
100
AcDbCircle
 10
-171.862329
 20
170.629817
 30
0.0
 40
2.0
100
AcDbArc
 50
0.0
 51
90.0
  0
LINE
  5
A9
100
AcDbEntity
  8
0
370
    -3
  6
Continuous
100
AcDbLine
 10
-174.361745
 20
240.629781
 30
0.0
 11
-172.862329
 21
240.629781
 31
0.0
  0
ARC
  5
AA
100
AcDbEntity
  8
0
370
    -3
  6
Continuous
100
AcDbCircle
 10
-172.862329
 20
243.629781
 30
0.0
 40
3.0
100
AcDbArc
 50
270.0
 51
0.0
  0
ARC
  5
AB
100
AcDbEntity
  8
0
370
    -3
  6
Continuous
100
AcDbCircle
 10
-174.361745
 20
242.629781
 30
0.0
 40
2.0
100
AcDbArc
 50
179.0
 51
270.0
  0
LINE
  5
AC
100
AcDbEntity
  8
0
370
    -3
  6
Continuous
100
AcDbLine
 10
-166.810017
 20
263.890711
 30
0.0
 11
-151.862374
 21
263.629799
 31
0.0
  0
LINE
  5
AD
100
AcDbEntity
  8
0
370
    -3
  6
Continuous
100
AcDbLine
 10
-166.810017
 20
156.368887
 30
0.0
 11
-151.862374
 21
156.629799
 31
0.0
  0
ARC
  5
AE
100
AcDbEntity
  8
0
370
    -3
  6
Continuous
100
AcDbCircle
 10
-166.862374
 20
179.237633
 30
0.0
 40
3.0
100
AcDbArc
 50
180.0
 51
270.0
  0
LINE
  5
AF
100
AcDbEntity
  8
0
370
    -3
  6
Continuous
100
AcDbLine
 10
-169.862374
 20
159.36843
 30
0.0
 11
-169.862374
 21
210.129799
 31
0.0
  0
ARC
  5
B0
100
AcDbEntity
  8
0
370
    -3
  6
Continuous
100
AcDbCircle
 10
-158.862374
 20
170.700147
 30
0.0
 40
2.0
100
AcDbArc
 50
270.0
 51
283.659167
  0
ARC
  5
B1
100
AcDbEntity
  8
0
370
    -3
  6
Continuous
100
AcDbCircle
 10
-159.862374
 20
162.629799
 30
0.0
 40
3.0
100
AcDbArc
 50
0.0
 51
90.0
  0
ARC
  5
B2
100
AcDbEntity
  8
0
370
    -3
  6
Continuous
100
AcDbCircle
 10
-164.862374
 20
170.629799
 30
0.0
 40
5.0
100
AcDbArc
 50
180.0
 51
270.0
  0
ARC
  5
B3
100
AcDbEntity
  8
0
370
    -3
  6
Continuous
100
AcDbCircle
 10
-164.862374
 20
173.700147
 30
0.0
 40
5.0
100
AcDbArc
 50
180.0
 51
270.0
  0
ARC
  5
B4
100
AcDbEntity
  8
0
370
    -3
  6
Continuous
100
AcDbCircle
 10
-159.862374
 20
179.237633
 30
0.0
 40
3.0
100
AcDbArc
 50
270.0
 51
291.562149
  0
LINE
  5
B5
100
AcDbEntity
  8
0
370
    -3
  6
Continuous
100
AcDbLine
 10
-158.862374
 20
168.700147
 30
0.0
 11
-164.862374
 21
168.700147
 31
0.0
  0
LINE
  5
B6
100
AcDbEntity
  8
0
370
    -3
  6
Continuous
100
AcDbLine
 10
-159.862374
 20
165.629799
 30
0.0
 11
-164.862374
 21
165.629799
 31
0.0
  0
LINE
  5
B7
100
AcDbEntity
  8
0
370
    -3
  6
Continuous
100
AcDbLine
 10
-166.862374
 20
176.237633
 30
0.0
 11
-159.862374
 21
176.237633
 31
0.0
  0
LINE
  5
B8
100
AcDbEntity
  8
0
370
    -3
  6
Continuous
100
AcDbLine
 10
-169.862374
 20
173.237633
 30
0.0
 11
-169.862374
 21
170.629799
 31
0.0
  0
LINE
  5
B9
100
AcDbEntity
  8
0
370
    -3
  6
Continuous
100
AcDbLine
 10
-156.862374
 20
162.629799
 30
0.0
 11
-156.862374
 21
159.595346
 31
0.0
  0
ARC
  5
BA
100
AcDbEntity
  8
0
370
    -3
  6
Continuous
100
AcDbCircle
 10
-166.862374
 20
159.36843
 30
0.0
 40
3.0
100
AcDbArc
 50
180.0
 51
271.0
  0
ARC
  5
BB
100
AcDbEntity
  8
0
370
    -3
  6
Continuous
100
AcDbCircle
 10
-153.862374
 20
159.595346
 30
0.0
 40
3.0
100
AcDbArc
 50
180.0
 51
271.0
  0
ARC
  5
BC
100
AcDbEntity
  8
0
370
    -3
  6
Continuous
100
AcDbCircle
 10
-166.862374
 20
241.021965
 30
0.0
 40
3.0
100
AcDbArc
 50
90.0
 51
180.0
  0
LINE
  5
BD
100
AcDbEntity
  8
0
370
    -3
  6
Continuous
100
AcDbLine
 10
-169.862374
 20
260.891168
 30
0.0
 11
-169.862374
 21
210.129799
 31
0.0
  0
ARC
  5
BE
100
AcDbEntity
  8
0
370
    -3
  6
Continuous
100
AcDbCircle
 10
-164.862374
 20
249.629799
 30
0.0
 40
5.0
100
AcDbArc
 50
90.0
 51
180.0
  0
ARC
  5
BF
100
AcDbEntity
  8
0
370
    -3
  6
Continuous
100
AcDbCircle
 10
-164.862374
 20
246.559451
 30
0.0
 40
5.0
100
AcDbArc
 50
90.0
 51
180.0
  0
ARC
  5
C0
100
AcDbEntity
  8
0
370
    -3
  6
Continuous
100
AcDbCircle
 10
-158.862374
 20
249.559451
 30
0.0
 40
2.0
100
AcDbArc
 50
76.340833
 51
90.0
  0
ARC
  5
C1
100
AcDbEntity
  8
0
370
    -3
  6
Continuous
100
AcDbCircle
 10
-159.862374
 20
257.629799
 30
0.0
 40
3.0
100
AcDbArc
 50
270.0
 51
0.0
  0
ARC
  5
C2
100
AcDbEntity
  8
0
370
    -3
  6
Continuous
100
AcDbCircle
 10
-159.862374
 20
241.021965
 30
0.0
 40
3.0
100
AcDbArc
 50
68.437851
 51
90.0
  0
LINE
  5
C3
100
AcDbEntity
  8
0
370
    -3
  6
Continuous
100
AcDbLine
 10
-166.862374
 20
244.021965
 30
0.0
 11
-159.862374
 21
244.021965
 31
0.0
  0
LINE
  5
C4
100
AcDbEntity
  8
0
370
    -3
  6
Continuous
100
AcDbLine
 10
-169.862374
 20
247.021965
 30
0.0
 11
-169.862374
 21
249.629799
 31
0.0
  0
LINE
  5
C5
100
AcDbEntity
  8
0
370
    -3
  6
Continuous
100
AcDbLine
 10
-158.862374
 20
251.559451
 30
0.0
 11
-164.862374
 21
251.559451
 31
0.0
  0
LINE
  5
C6
100
AcDbEntity
  8
0
370
    -3
  6
Continuous
100
AcDbLine
 10
-159.862374
 20
254.629799
 30
0.0
 11
-164.862374
 21
254.629799
 31
0.0
  0
LINE
  5
C7
100
AcDbEntity
  8
0
370
    -3
  6
Continuous
100
AcDbLine
 10
-156.862374
 20
257.629799
 30
0.0
 11
-156.862374
 21
260.664252
 31
0.0
  0
ARC
  5
C8
100
AcDbEntity
  8
0
370
    -3
  6
Continuous
100
AcDbCircle
 10
-166.862374
 20
260.891168
 30
0.0
 40
3.0
100
AcDbArc
 50
89.0
 51
180.0
  0
ARC
  5
C9
100
AcDbEntity
  8
0
370
    -3
  6
Continuous
100
AcDbCircle
 10
-293.783061
 20
247.129799
 30
0.0
 40
3.0
100
AcDbArc
 50
90.0
 51
179.0
  0
ARC
  5
CA
100
AcDbEntity
  8
0
370
    -3
  6
Continuous
100
AcDbCircle
 10
-180.442053
 20
152.129799
 30
0.0
 40
2.0
100
AcDbArc
 50
270.0
 51
359.0
  0
LINE
  5
CB
100
AcDbEntity
  8
0
370
    -3
  6
Continuous
100
AcDbLine
 10
-176.862065
 20
242.629799
 30
0.0
 11
-178.442358
 21
152.094894
 31
0.0
  0
LINE
  5
CC
100
AcDbEntity
  8
0
370
    -3
  6
Continuous
100
AcDbLine
 10
-293.282078
 20
150.129799
 30
0.0
 11
-180.442053
 21
150.129799
 31
0.0
  0
ARC
  5
CD
100
AcDbEntity
  8
0
370
    -3
  6
Continuous
100
AcDbCircle
 10
-293.282078
 20
152.129799
 30
0.0
 40
2.0
100
AcDbArc
 50
181.0
 51
270.0
  0
LINE
  5
CE
100
AcDbEntity
  8
0
370
    -3
  6
Continuous
100
AcDbLine
 10
-296.870793
 20
243.129781
 30
0.0
 11
-295.281773
 21
152.094894
 31
0.0
  0
LINE
  5
CF
100
AcDbEntity
  8
0
370
    -3
  6
Continuous
100
AcDbLine
 10
-177.30778
 20
268.164722
 30
0.0
 11
-176.862066
 21
242.629799
 31
0.0
  0
LINE
  5
D0
100
AcDbEntity
  8
0
370
    -3
  6
Continuous
100
AcDbLine
 10
-296.416352
 20
268.164722
 30
0.0
 11
-296.862066
 21
242.629799
 31
0.0
  0
ARC
  5
D1
100
AcDbEntity
  8
0
370
    -3
  6
Continuous
100
AcDbCircle
 10
-292.69212
 20
175.629799
 30
0.0
 40
3.0
100
AcDbArc
 50
181.0
 51
270.0
  0
ARC
  5
D2
100
AcDbEntity
  8
0
370
    -3
  6
Continuous
100
AcDbCircle
 10
-181.032012
 20
175.629799
 30
0.0
 40
3.0
100
AcDbArc
 50
270.0
 51
359.0
  0
CIRCLE
  5
D3
100
AcDbEntity
  8
0
370
    -3
  6
CENTER
100
AcDbCircle
 10
-190.862066
 20
260.129799
 30
0.0
 40
9.0
  0
CIRCLE
  5
D4
100
AcDbEntity
  8
0
370
    -3
  6
Continuous
100
AcDbCircle
 10
-190.862066
 20
260.129799
 30
0.0
 40
4.5
  0
LINE
  5
D5
100
AcDbEntity
  8
0
370
    -3
  6
CENTER
100
AcDbLine
 10
-180.576775
 20
260.129799
 30
0.0
 11
-202.695933
 21
260.129799
 31
0.0
  0
LINE
  5
D6
100
AcDbEntity
  8
0
370
    -3
  6
CENTER
100
AcDbLine
 10
-190.862066
 20
269.775634
 30
0.0
 11
-190.862066
 21
249.087976
 31
0.0
  0
CIRCLE
  5
D7
100
AcDbEntity
  8
0
370
    -3
  6
CENTER
100
AcDbCircle
 10
-283.862066
 20
260.129799
 30
0.0
 40
9.0
  0
LINE
  5
D8
100
AcDbEntity
  8
0
370
    -3
  6
CENTER
100
AcDbLine
 10
-270.075906
 20
260.129799
 30
0.0
 11
-295.004229
 21
260.129799
 31
0.0
  0
LINE
  5
D9
100
AcDbEntity
  8
0
370
    -3
  6
CENTER
100
AcDbLine
 10
-283.862066
 20
269.775634
 30
0.0
 11
-283.862066
 21
248.91381
 31
0.0
  0
CIRCLE
  5
DA
100
AcDbEntity
  8
0
370
    -3
  6
CENTER
100
AcDbCircle
 10
-190.862066
 20
160.129799
 30
0.0
 40
9.0
  0
CIRCLE
  5
DB
100
AcDbEntity
  8
0
370
    -3
  6
Continuous
100
AcDbCircle
 10
-190.862066
 20
160.129799
 30
0.0
 40
4.5
  0
LINE
  5
DC
100
AcDbEntity
  8
0
370
    -3
  6
CENTER
100
AcDbLine
 10
-179.647073
 20
160.129799
 30
0.0
 11
-201.650933
 21
160.129799
 31
0.0
  0
LINE
  5
DD
100
AcDbEntity
  8
0
370
    -3
  6
CENTER
100
AcDbLine
 10
-190.862066
 20
171.235508
 30
0.0
 11
-190.862066
 21
148.245517
 31
0.0
  0
CIRCLE
  5
DE
100
AcDbEntity
  8
0
370
    -3
  6
CENTER
100
AcDbCircle
 10
-283.862066
 20
160.129799
 30
0.0
 40
9.0
  0
CIRCLE
  5
DF
100
AcDbEntity
  8
0
370
    -3
  6
Continuous
100
AcDbCircle
 10
-283.862066
 20
160.129799
 30
0.0
 40
4.5
  0
LINE
  5
E0
100
AcDbEntity
  8
0
370
    -3
  6
CENTER
100
AcDbLine
 10
-271.840072
 20
160.129799
 30
0.0
 11
-294.251553
 21
160.129799
 31
0.0
  0
LINE
  5
E1
100
AcDbEntity
  8
0
370
    -3
  6
CENTER
100
AcDbLine
 10
-283.862066
 20
171.758007
 30
0.0
 11
-283.862066
 21
148.768017
 31
0.0
  0
LINE
  5
E2
100
AcDbEntity
  8
0
370
    -3
  6
Continuous
100
AcDbLine
 10
-179.307475
 20
270.129817
 30
0.0
 11
-294.416657
 21
270.129817
 31
0.0
  0
LINE
  5
E3
100
AcDbEntity
  8
0
370
    -3
  6
Continuous
100
AcDbLine
 10
-296.862066
 20
242.629799
 30
0.0
 11
-176.862066
 21
242.629799
 31
0.0
  0
ARC
  5
E4
100
AcDbEntity
  8
0
370
    -3
  6
Continuous
100
AcDbCircle
 10
-294.416657
 20
268.129817
 30
0.0
 40
2.0
100
AcDbArc
 50
90.0
 51
179.0
  0
LINE
  5
E5
100
AcDbEntity
  8
0
370
    -3
  6
Continuous
100
AcDbLine
 10
-278.231453
 20
250.129799
 30
0.0
 11
-293.783061
 21
250.129799
 31
0.0
  0
LINE
  5
E6
100
AcDbEntity
  8
0
370
    -3
  6
Continuous
100
AcDbLine
 10
-276.052003
 20
250.629799
 30
0.0
 11
-179.949526
 21
250.629799
 31
0.0
  0
LINE
  5
E7
100
AcDbEntity
  8
0
370
    -3
  6
Continuous
100
AcDbLine
 10
-278.143274
 20
169.629732
 30
0.0
 11
-191.862066
 21
169.629732
 31
0.0
  0
ARC
  5
E8
100
AcDbEntity
  8
0
370
    -3
  6
Continuous
100
AcDbCircle
 10
-209.784917
 20
152.829799
 30
0.0
 40
3.0
100
AcDbArc
 50
295.841933
 51
350.0
  0
POINT
  5
E9
100
AcDbEntity
  8
0
370
    -3
  6
Continuous
100
AcDbPoint
 10
-206.862066
 20
152.129799
 30
0.0
  0
LINE
  5
EA
100
AcDbEntity
  8
0
370
    -3
  6
Continuous
100
AcDbLine
 10
-206.830493
 20
152.308855
 30
0.0
 11
-204.504896
 21
165.497973
 31
0.0
  0
POINT
  5
EB
100
AcDbEntity
  8
0
370
    -3
  6
Continuous
100
AcDbPoint
 10
-188.862066
 20
172.629732
 30
0.0
  0
ARC
  5
EC
100
AcDbEntity
  8
0
370
    -3
  6
Continuous
100
AcDbCircle
 10
-191.862066
 20
172.629732
 30
0.0
 40
3.0
100
AcDbArc
 50
270.0
 51
330.000935
  0
ARC
  5
ED
100
AcDbEntity
  8
0
370
    -3
  6
Continuous
100
AcDbCircle
 10
-186.665864
 20
169.629817
 30
0.0
 40
3.0
100
AcDbArc
 50
90.0
 51
150.000935
  0
ARC
  5
EE
100
AcDbEntity
  8
0
370
    -3
  6
Continuous
100
AcDbCircle
 10
-199.580857
 20
164.629732
 30
0.0
 40
5.0
100
AcDbArc
 50
90.000075
 51
170.0
  0
LINE
  5
EF
100
AcDbEntity
  8
0
370
    -3
  6
Continuous
100
AcDbLine
 10
-278.143274
 20
169.629732
 30
0.0
 11
-285.862066
 21
169.629732
 31
0.0
  0
ARC
  5
F0
100
AcDbEntity
  8
0
370
    -3
  6
Continuous
100
AcDbCircle
 10
-285.862066
 20
172.629732
 30
0.0
 40
3.0
100
AcDbArc
 50
209.999065
 51
270.0
  0
ARC
  5
F1
100
AcDbEntity
  8
0
370
    -3
  6
Continuous
100
AcDbCircle
 10
-291.058267
 20
169.629817
 30
0.0
 40
3.0
100
AcDbArc
 50
29.999065
 51
90.0
  0
POINT
  5
F2
100
AcDbEntity
  8
0
370
    -3
  6
Continuous
100
AcDbPoint
 10
-270.862066
 20
152.129799
 30
0.0
  0
LINE
  5
F3
100
AcDbEntity
  8
0
370
    -3
  6
Continuous
100
AcDbLine
 10
-270.893638
 20
152.308855
 30
0.0
 11
-273.219236
 21
165.497973
 31
0.0
  0
ARC
  5
F4
100
AcDbEntity
  8
0
370
    -3
  6
Continuous
100
AcDbCircle
 10
-267.939215
 20
152.829799
 30
0.0
 40
3.0
100
AcDbArc
 50
190.0
 51
244.158067
  0
ARC
  5
F5
100
AcDbEntity
  8
0
370
    -3
  6
Continuous
100
AcDbCircle
 10
-278.143274
 20
164.629732
 30
0.0
 40
5.0
100
AcDbArc
 50
10.0
 51
89.999925
  0
ARC
  5
F6
100
AcDbEntity
  8
0
370
    -3
  6
Continuous
100
AcDbCircle
 10
-278.231453
 20
255.129799
 30
0.0
 40
5.0
100
AcDbArc
 50
270.0
 51
350.0
  0
LINE
  5
F7
100
AcDbEntity
  8
0
370
    -3
  6
Continuous
100
AcDbLine
 10
-270.946536
 20
267.650762
 30
0.0
 11
-273.307414
 21
254.261558
 31
0.0
  0
ARC
  5
F8
100
AcDbEntity
  8
0
370
    -3
  6
Continuous
100
AcDbCircle
 10
-267.992113
 20
267.129817
 30
0.0
 40
3.0
100
AcDbArc
 50
90.0
 51
170.0
  0
POINT
  5
F9
100
AcDbEntity
  8
0
370
    -3
  6
Continuous
100
AcDbPoint
 10
-203.77634
 20
250.629799
 30
0.0
  0
ARC
  5
FA
100
AcDbEntity
  8
0
370
    -3
  6
Continuous
100
AcDbCircle
 10
-199.580842
 20
255.629799
 30
0.0
 40
5.0
100
AcDbArc
 50
190.0
 51
270.0
  0
LINE
  5
FB
100
AcDbEntity
  8
0
370
    -3
  6
Continuous
100
AcDbLine
 10
-206.865759
 20
268.150762
 30
0.0
 11
-204.504881
 21
254.761558
 31
0.0
  0
ARC
  5
FC
100
AcDbEntity
  8
0
370
    -3
  6
Continuous
100
AcDbCircle
 10
-209.732019
 20
267.129817
 30
0.0
 40
3.0
100
AcDbArc
 50
10.0
 51
90.0
  0
LINE
  5
FD
100
AcDbEntity
  8
0
370
    -3
  6
Continuous
100
AcDbLine
 10
-176.861793
 20
242.629799
 30
0.0
 11
-176.949983
 21
247.682156
 31
0.0
  0
LINE
  5
FE
100
AcDbEntity
  8
0
370
    -3
  6
Continuous
100
AcDbLine
 10
-176.861793
 20
242.629799
 30
0.0
 11
-180.362066
 21
242.629799
 31
0.0
  0
CIRCLE
  5
FF
100
AcDbEntity
  8
0
370
    -3
  6
Continuous
100
AcDbCircle
 10
-283.862066
 20
260.129799
 30
0.0
 40
4.5
  0
LINE
  5
100
100
AcDbEntity
  8
0
370
    -3
  6
Continuous
100
AcDbLine
 10
-181.032012
 20
172.629799
 30
0.0
 11
-186.665864
 21
172.629817
 31
0.0
  0
LINE
  5
101
100
AcDbEntity
  8
0
370
    -3
  6
Continuous
100
AcDbLine
 10
-291.058267
 20
172.629817
 30
0.0
 11
-292.69212
 21
172.629799
 31
0.0
  0
ARC
  5
102
100
AcDbEntity
  8
0
370
    -3
  6
Continuous
100
AcDbCircle
 10
-179.307475
 20
268.129817
 30
0.0
 40
2.0
100
AcDbArc
 50
1.0
 51
90.0
  0
ARC
  5
103
100
AcDbEntity
  8
0
370
    -3
  6
Continuous
100
AcDbCircle
 10
-179.949526
 20
247.629799
 30
0.0
 40
3.0
100
AcDbArc
 50
1.0
 51
90.0
  0
ARC
  5
104
100
AcDbEntity
  8
0
370
    -3
  6
Continuous
100
AcDbCircle
 10
-238.862066
 20
140.129781
 30
0.0
 40
3.0
100
AcDbArc
 50
0.0
 51
180.0
  0
LINE
  5
105
100
AcDbEntity
  8
0
370
    -3
  6
Continuous
100
AcDbLine
 10
-227.862066
 20
148.129781
 30
0.0
 11
-227.862066
 21
108.129781
 31
0.0
  0
LINE
  5
106
100
AcDbEntity
  8
0
370
    -3
  6
Continuous
100
AcDbLine
 10
-227.862066
 20
108.129781
 30
0.0
 11
-238.862066
 21
108.129781
 31
0.0
  0
ARC
  5
107
100
AcDbEntity
  8
0
370
    -3
  6
Continuous
100
AcDbCircle
 10
-249.462066
 20
108.529781
 30
0.0
 40
0.4
100
AcDbArc
 50
180.0
 51
270.0
  0
LINE
  5
108
100
AcDbEntity
  8
0
370
    -3
  6
Continuous
100
AcDbLine
 10
-249.862066
 20
148.129781
 30
0.0
 11
-249.862066
 21
108.529781
 31
0.0
  0
LINE
  5
109
100
AcDbEntity
  8
0
370
    -3
  6
Continuous
100
AcDbLine
 10
-249.462066
 20
108.129781
 30
0.0
 11
-238.862066
 21
108.129781
 31
0.0
  0
LINE
  5
10A
100
AcDbEntity
  8
0
370
    -3
  6
Continuous
100
AcDbLine
 10
-250.862066
 20
148.129781
 30
0.0
 11
-238.862066
 21
148.129781
 31
0.0
  0
LINE
  5
10B
100
AcDbEntity
  8
0
370
    -3
  6
Continuous
100
AcDbLine
 10
-226.862066
 20
148.129781
 30
0.0
 11
-238.862066
 21
148.129781
 31
0.0
  0
LINE
  5
10C
100
AcDbEntity
  8
0
370
    -3
  6
Continuous
100
AcDbLine
 10
-241.862066
 20
140.129781
 30
0.0
 11
-235.862066
 21
140.129781
 31
0.0
  0
LINE
  5
10D
100
AcDbEntity
  8
0
370
    -3
  6
Continuous
100
AcDbLine
 10
-250.862066
 20
150.129781
 30
0.0
 11
-250.862066
 21
148.129781
 31
0.0
  0
LINE
  5
10E
100
AcDbEntity
  8
0
370
    -3
  6
Continuous
100
AcDbLine
 10
-226.862066
 20
150.129781
 30
0.0
 11
-226.862066
 21
148.129781
 31
0.0
  0
LINE
  5
10F
100
AcDbEntity
  8
0
370
    -3
  6
Continuous
100
AcDbLine
 10
-241.862066
 20
108.129781
 30
0.0
 11
-241.862066
 21
140.129781
 31
0.0
  0
LINE
  5
110
100
AcDbEntity
  8
0
370
    -3
  6
Continuous
100
AcDbLine
 10
-235.862066
 20
108.129781
 30
0.0
 11
-235.862066
 21
140.129781
 31
0.0
  0
LINE
  5
111
100
AcDbEntity
  8
0
370
    -3
  6
Continuous
100
AcDbLine
 10
-151.862374
 20
256.877407
 30
0.0
 11
-151.862374
 21
262.629799
 31
0.0
  0
LINE
  5
112
100
AcDbEntity
  8
0
370
    -3
  6
Continuous
100
AcDbLine
 10
-151.862374
 20
163.38219
 30
0.0
 11
-151.862374
 21
157.629799
 31
0.0
  0
ARC
  5
113
100
AcDbEntity
  8
0
370
    -3
  6
Continuous
100
AcDbCircle
 10
-178.853338
 20
-117.747651
 30
0.0
 40
2.0
100
AcDbArc
 50
0.0
 51
90.0
  0
ARC
  5
114
100
AcDbEntity
  8
0
370
    -3
  6
Continuous
100
AcDbCircle
 10
-164.862374
 20
-13.484145
 30
0.0
 40
5.0
100
AcDbArc
 50
90.0
 51
180.0
  0
LINE
  5
115
100
AcDbEntity
  8
0
370
    -3
  6
Continuous
100
AcDbLine
 10
-166.862374
 20
-16.02163
 30
0.0
 11
-159.862374
 21
-16.02163
 31
0.0
  0
CIRCLE
  5
116
100
AcDbEntity
  8
0
370
    -3
  6
Continuous
100
AcDbCircle
 10
-238.862066
 20
-27.747651
 30
0.0
 40
4.0
  0
CIRCLE
  5
117
100
AcDbEntity
  8
0
370
    -3
  6
Continuous
100
AcDbCircle
 10
-238.862066
 20
-27.747651
 30
0.0
 40
3.5
  0
LINE
  5
118
100
AcDbEntity
  8
0
370
    -3
  6
Continuous
100
AcDbLine
 10
-241.862066
 20
-14.247651
 30
0.0
 11
-241.862066
 21
-20.247651
 31
0.0
  0
LINE
  5
119
100
AcDbEntity
  8
0
370
    -3
  6
Continuous
100
AcDbLine
 10
-241.862066
 20
-20.247651
 30
0.0
 11
-235.862066
 21
-20.247651
 31
0.0
  0
LINE
  5
11A
100
AcDbEntity
  8
0
370
    -3
  6
Continuous
100
AcDbLine
 10
-241.862066
 20
-14.247651
 30
0.0
 11
-235.862066
 21
-14.247651
 31
0.0
  0
LINE
  5
11B
100
AcDbEntity
  8
0
370
    -3
  6
Continuous
100
AcDbLine
 10
-235.862066
 20
-14.247651
 30
0.0
 11
-235.862066
 21
-20.247651
 31
0.0
  0
ARC
  5
11C
100
AcDbEntity
  8
0
370
    -3
  6
Continuous
100
AcDbCircle
 10
-238.862066
 20
-27.747651
 30
0.0
 40
11.0
100
AcDbArc
 50
105.82662
 51
74.17338
  0
LINE
  5
11D
100
AcDbEntity
  8
0
370
    -3
  6
Continuous
100
AcDbLine
 10
-173.905695
 20
-103.807291
 30
0.0
 11
-151.862374
 21
-103.413796
 31
0.0
  0
ARC
  5
11E
100
AcDbEntity
  8
0
370
    -3
  6
Continuous
100
AcDbCircle
 10
-166.862374
 20
-100.675165
 30
0.0
 40
3.0
100
AcDbArc
 50
180.0
 51
271.0
  0
LINE
  5
11F
100
AcDbEntity
  8
0
370
    -3
  6
Continuous
100
AcDbLine
 10
-156.862374
 20
-97.413796
 30
0.0
 11
-156.862374
 21
-100.448249
 31
0.0
  0
ARC
  5
120
100
AcDbEntity
  8
0
370
    -3
  6
Continuous
100
AcDbCircle
 10
-153.862374
 20
-100.448249
 30
0.0
 40
3.0
100
AcDbArc
 50
180.0
 51
271.0
  0
LINE
  5
121
100
AcDbEntity
  8
0
370
    -3
  6
Continuous
100
AcDbLine
 10
-159.862374
 20
-94.413796
 30
0.0
 11
-164.862374
 21
-94.413796
 31
0.0
  0
LINE
  5
122
100
AcDbEntity
  8
0
370
    -3
  6
Continuous
100
AcDbLine
 10
-158.862374
 20
-91.343448
 30
0.0
 11
-164.862374
 21
-91.343448
 31
0.0
  0
LINE
  5
123
100
AcDbEntity
  8
0
370
    -3
  6
Continuous
100
AcDbLine
 10
-169.862374
 20
-86.805962
 30
0.0
 11
-169.862374
 21
-89.413796
 31
0.0
  0
LINE
  5
124
100
AcDbEntity
  8
0
370
    -3
  6
Continuous
100
AcDbLine
 10
-166.862374
 20
-83.805962
 30
0.0
 11
-159.862374
 21
-83.805962
 31
0.0
  0
LINE
  5
125
100
AcDbEntity
  8
0
370
    -3
  6
Continuous
100
AcDbLine
 10
-156.862374
 20
-69.913796
 30
0.0
 11
-153.160692
 21
-69.913796
 31
0.0
  0
LINE
  5
126
100
AcDbEntity
  8
0
370
    -3
  6
Continuous
100
AcDbLine
 10
-156.862374
 20
-49.913796
 30
0.0
 11
-156.862374
 21
-89.343448
 31
0.0
  0
ARC
  5
127
100
AcDbEntity
  8
0
370
    -3
  6
Continuous
100
AcDbCircle
 10
-159.862374
 20
-80.805962
 30
0.0
 40
3.0
100
AcDbArc
 50
270.0
 51
0.0
  0
ARC
  5
128
100
AcDbEntity
  8
0
370
    -3
  6
Continuous
100
AcDbCircle
 10
-159.862374
 20
-97.413796
 30
0.0
 40
3.0
100
AcDbArc
 50
0.0
 51
90.0
  0
ARC
  5
129
100
AcDbEntity
  8
0
370
    -3
  6
Continuous
100
AcDbCircle
 10
-158.862374
 20
-89.343448
 30
0.0
 40
2.0
100
AcDbArc
 50
270.0
 51
0.0
  0
ARC
  5
12A
100
AcDbEntity
  8
0
370
    -3
  6
Continuous
100
AcDbCircle
 10
-164.862374
 20
-86.343448
 30
0.0
 40
5.0
100
AcDbArc
 50
180.0
 51
270.0
  0
ARC
  5
12B
100
AcDbEntity
  8
0
370
    -3
  6
Continuous
100
AcDbCircle
 10
-164.862374
 20
-89.413796
 30
0.0
 40
5.0
100
AcDbArc
 50
180.0
 51
270.0
  0
LINE
  5
12C
100
AcDbEntity
  8
0
370
    -3
  6
Continuous
100
AcDbLine
 10
-169.862374
 20
-100.675165
 30
0.0
 11
-169.862374
 21
-49.913796
 31
0.0
  0
ARC
  5
12D
100
AcDbEntity
  8
0
370
    -3
  6
Continuous
100
AcDbCircle
 10
-166.862374
 20
-80.805962
 30
0.0
 40
3.0
100
AcDbArc
 50
180.0
 51
270.0
  0
LINE
  5
12E
100
AcDbEntity
  8
0
370
    -3
  6
Continuous
100
AcDbLine
 10
-175.08626
 20
4.000306
 30
0.0
 11
-151.862374
 21
3.586204
 31
0.0
  0
LINE
  5
12F
100
AcDbEntity
  8
0
370
    -3
  6
Continuous
100
AcDbLine
 10
-156.862374
 20
-29.913796
 30
0.0
 11
-152.725901
 21
-29.913796
 31
0.0
  0
LINE
  5
130
100
AcDbEntity
  8
0
370
    -3
  6
Continuous
100
AcDbLine
 10
-156.862374
 20
-49.913796
 30
0.0
 11
-156.862374
 21
-10.484145
 31
0.0
  0
ARC
  5
131
100
AcDbEntity
  8
0
370
    -3
  6
Continuous
100
AcDbCircle
 10
-153.862374
 20
0.620657
 30
0.0
 40
3.0
100
AcDbArc
 50
89.0
 51
180.0
  0
ARC
  5
132
100
AcDbEntity
  8
0
370
    -3
  6
Continuous
100
AcDbCircle
 10
-166.862374
 20
0.847573
 30
0.0
 40
3.0
100
AcDbArc
 50
89.0
 51
180.0
  0
LINE
  5
133
100
AcDbEntity
  8
0
370
    -3
  6
Continuous
100
AcDbLine
 10
-169.862374
 20
-13.02163
 30
0.0
 11
-169.862374
 21
-10.413796
 31
0.0
  0
LINE
  5
134
100
AcDbEntity
  8
0
370
    -3
  6
Continuous
100
AcDbLine
 10
-159.862374
 20
-5.413796
 30
0.0
 11
-164.862374
 21
-5.413796
 31
0.0
  0
LINE
  5
135
100
AcDbEntity
  8
0
370
    -3
  6
Continuous
100
AcDbLine
 10
-158.862374
 20
-8.484145
 30
0.0
 11
-164.862374
 21
-8.484145
 31
0.0
  0
ARC
  5
136
100
AcDbEntity
  8
0
370
    -3
  6
Continuous
100
AcDbCircle
 10
-159.862374
 20
-19.02163
 30
0.0
 40
3.0
100
AcDbArc
 50
0.0
 51
90.0
  0
ARC
  5
137
100
AcDbEntity
  8
0
370
    -3
  6
Continuous
100
AcDbCircle
 10
-164.862374
 20
-10.413796
 30
0.0
 40
5.0
100
AcDbArc
 50
90.0
 51
180.0
  0
ARC
  5
138
100
AcDbEntity
  8
0
370
    -3
  6
Continuous
100
AcDbCircle
 10
-158.862374
 20
-10.484145
 30
0.0
 40
2.0
100
AcDbArc
 50
0.0
 51
90.0
  0
LINE
  5
139
100
AcDbEntity
  8
0
370
    -3
  6
Continuous
100
AcDbLine
 10
-169.862374
 20
0.847573
 30
0.0
 11
-169.862374
 21
-49.913796
 31
0.0
  0
ARC
  5
13A
100
AcDbEntity
  8
0
370
    -3
  6
Continuous
100
AcDbCircle
 10
-173.853338
 20
-106.806834
 30
0.0
 40
3.0
100
AcDbArc
 50
91.0
 51
180.0
  0
ARC
  5
13B
100
AcDbEntity
  8
0
370
    -3
  6
Continuous
100
AcDbCircle
 10
-175.033903
 20
6.999849
 30
0.0
 40
3.0
100
AcDbArc
 50
195.371944
 51
269.0
  0
ARC
  5
13C
100
AcDbEntity
  8
0
370
    -3
  6
Continuous
100
AcDbCircle
 10
-294.870793
 20
-117.747651
 30
0.0
 40
2.0
100
AcDbArc
 50
90.0
 51
180.0
  0
LINE
  5
13D
100
AcDbEntity
  8
0
370
    -3
  6
DASHED
100
AcDbLine
 10
-205.862066
 20
-127.476241
 30
0.0
 11
-205.862066
 21
-127.747651
 31
0.0
  0
LINE
  5
13E
100
AcDbEntity
  8
0
370
    -3
  6
Continuous
100
AcDbLine
 10
-294.870793
 20
-115.747651
 30
0.0
 11
-178.853338
 21
-115.747651
 31
0.0
  0
LINE
  5
13F
100
AcDbEntity
  8
0
370
    -3
  6
DASHED
100
AcDbLine
 10
-268.862066
 20
-127.476241
 30
0.0
 11
-268.862066
 21
-127.747651
 31
0.0
  0
LINE
  5
140
100
AcDbEntity
  8
0
370
    -3
  6
Continuous
100
AcDbLine
 10
-296.862066
 20
-1.747923
 30
0.0
 11
-296.862066
 21
-127.747651
 31
0.0
  0
LINE
  5
141
100
AcDbEntity
  8
0
370
    -3
  6
CENTER
100
AcDbLine
 10
-305.544961
 20
-27.747651
 30
0.0
 11
-163.34226
 21
-27.747651
 31
0.0
  0
LINE
  5
142
100
AcDbEntity
  8
0
370
    -3
  6
CENTER
100
AcDbLine
 10
-238.862066
 20
36.449276
 30
0.0
 11
-238.862066
 21
-133.63325
 31
0.0
  0
LINE
  5
143
100
AcDbEntity
  8
0
370
    -3
  6
CENTER
100
AcDbLine
 10
-283.862066
 20
-133.489581
 30
0.0
 11
-283.862066
 21
-112.514314
 31
0.0
  0
LINE
  5
144
100
AcDbEntity
  8
0
370
    -3
  6
CENTER
100
AcDbLine
 10
-190.862066
 20
-134.159004
 30
0.0
 11
-190.862066
 21
-111.621749
 31
0.0
  0
ARC
  5
145
100
AcDbEntity
  8
0
370
    -3
  6
Continuous
100
AcDbCircle
 10
-159.862374
 20
-2.413796
 30
0.0
 40
3.0
100
AcDbArc
 50
270.0
 51
0.0
  0
LINE
  5
146
100
AcDbEntity
  8
0
370
    -3
  6
Continuous
100
AcDbLine
 10
-156.862374
 20
-2.413796
 30
0.0
 11
-156.862374
 21
0.620657
 31
0.0
  0
CIRCLE
  5
147
100
AcDbEntity
  8
0
370
    -3
  6
Continuous
100
AcDbCircle
 10
-238.862066
 20
-27.747651
 30
0.0
 40
32.0
  0
CIRCLE
  5
148
100
AcDbEntity
  8
0
370
    -3
  6
Continuous
100
AcDbCircle
 10
-238.862066
 20
-27.747651
 30
0.0
 40
35.085725
  0
LINE
  5
149
100
AcDbEntity
  8
0
370
    -3
  6
Continuous
100
AcDbLine
 10
-296.862066
 20
-127.747651
 30
0.0
 11
-176.853338
 21
-127.747651
 31
0.0
  0
CIRCLE
  5
14A
100
AcDbEntity
  8
0
370
    -3
  6
Continuous
100
AcDbCircle
 10
-238.862066
 20
-27.747651
 30
0.0
 40
20.0
  0
ARC
  5
14B
100
AcDbEntity
  8
0
370
    -3
  6
Continuous
100
AcDbCircle
 10
-206.853338
 20
-1.747923
 30
0.0
 40
30.0
100
AcDbArc
 50
360.0
 51
90.0
  0
ARC
  5
14C
100
AcDbEntity
  8
0
370
    -3
  6
Continuous
100
AcDbCircle
 10
-166.862374
 20
-19.02163
 30
0.0
 40
3.0
100
AcDbArc
 50
90.0
 51
180.0
  0
LINE
  5
14D
100
AcDbEntity
  8
0
370
    -3
  6
Continuous
100
AcDbLine
 10
-288.862066
 20
-27.747651
 30
0.0
 11
-288.862066
 21
-62.747651
 31
0.0
  0
ARC
  5
14E
100
AcDbEntity
  8
0
370
    -3
  6
Continuous
100
AcDbCircle
 10
-253.862066
 20
-62.747651
 30
0.0
 40
35.0
100
AcDbArc
 50
180.0
 51
270.0
  0
LINE
  5
14F
100
AcDbEntity
  8
0
370
    -3
  6
Continuous
100
AcDbLine
 10
-253.862066
 20
-97.747651
 30
0.0
 11
-223.862066
 21
-97.747651
 31
0.0
  0
LINE
  5
150
100
AcDbEntity
  8
0
370
    -3
  6
Continuous
100
AcDbLine
 10
-176.853338
 20
-127.747651
 30
0.0
 11
-176.853338
 21
-1.747923
 31
0.0
  0
ARC
  5
151
100
AcDbEntity
  8
0
370
    -3
  6
Continuous
100
AcDbCircle
 10
-238.862066
 20
-27.747651
 30
0.0
 40
50.0
100
AcDbArc
 50
360.0
 51
180.0
  0
LINE
  5
152
100
AcDbEntity
  8
0
370
    -3
  6
Continuous
100
AcDbLine
 10
-206.853338
 20
28.252077
 30
0.0
 11
-266.870793
 21
28.252077
 31
0.0
  0
ARC
  5
153
100
AcDbEntity
  8
0
370
    -3
  6
Continuous
100
AcDbCircle
 10
-266.870793
 20
-1.747923
 30
0.0
 40
30.0
100
AcDbArc
 50
90.0
 51
180.0
  0
LINE
  5
154
100
AcDbEntity
  8
0
370
    -3
  6
Continuous
100
AcDbLine
 10
-296.870793
 20
-127.747651
 30
0.0
 11
-296.870793
 21
-1.238923
 31
0.0
  0
CIRCLE
  5
155
100
AcDbEntity
  8
0
370
    -3
  6
Continuous
100
AcDbCircle
 10
-238.862066
 20
-27.747651
 30
0.0
 40
26.0
  0
CIRCLE
  5
156
100
AcDbEntity
  8
0
370
    -3
  6
Continuous
100
AcDbCircle
 10
-238.862066
 20
-27.747651
 30
0.0
 40
23.0
  0
LINE
  5
157
100
AcDbEntity
  8
0
370
    -3
  6
Continuous
100
AcDbLine
 10
-188.862066
 20
-27.747651
 30
0.0
 11
-188.862066
 21
-62.747651
 31
0.0
  0
ARC
  5
158
100
AcDbEntity
  8
0
370
    -3
  6
Continuous
100
AcDbCircle
 10
-223.862066
 20
-62.747651
 30
0.0
 40
35.0
100
AcDbArc
 50
270.0
 51
0.0
  0
ELLIPSE
  5
159
100
AcDbEntity
  8
0
370
    -3
  6
Continuous
100
AcDbEllipse
 10
-76.862383
 20
-97.241075
 30
0.0
 11
4.6999999999999886
 21
0.0
 31
0.0
210
0.0
220
0.0
230
1.0
 40
0.766646
 41
0.0
 42
6.2831853071795862
  0
LINE
  5
15A
100
AcDbEntity
  8
0
370
    -3
  6
Continuous
100
AcDbLine
 10
-74.862383
 20
-100.23345
 30
0.0
 11
-76.862383
 21
-99.057665
 31
0.0
  0
LINE
  5
15B
100
AcDbEntity
  8
0
370
    -3
  6
Continuous
100
AcDbLine
 10
-76.862383
 20
-99.057665
 30
0.0
 11
-78.862383
 21
-97.405023
 31
0.0
  0
LINE
  5
15C
100
AcDbEntity
  8
0
370
    -3
  6
Continuous
100
AcDbLine
 10
-78.862383
 20
-100.23345
 30
0.0
 11
-76.862383
 21
-99.057665
 31
0.0
  0
LINE
  5
15D
100
AcDbEntity
  8
0
370
    -3
  6
Continuous
100
AcDbLine
 10
-76.862383
 20
-99.057665
 30
0.0
 11
-74.862383
 21
-97.405023
 31
0.0
  0
ELLIPSE
  5
15E
100
AcDbEntity
  8
0
370
    -3
  6
Continuous
100
AcDbEllipse
 10
-76.862383
 20
-2.586413
 30
0.0
 11
4.6999999999999886
 21
0.0
 31
0.0
210
0.0
220
0.0
230
1.0
 40
0.766646
 41
0.0
 42
6.2831853071795862
  0
LINE
  5
15F
100
AcDbEntity
  8
0
370
    -3
  6
Continuous
100
AcDbLine
 10
-74.862383
 20
0.405963
 30
0.0
 11
-76.862383
 21
-0.769823
 31
0.0
  0
LINE
  5
160
100
AcDbEntity
  8
0
370
    -3
  6
Continuous
100
AcDbLine
 10
-76.862383
 20
-0.769823
 30
0.0
 11
-78.862383
 21
-2.422465
 31
0.0
  0
LINE
  5
161
100
AcDbEntity
  8
0
370
    -3
  6
Continuous
100
AcDbLine
 10
-78.862383
 20
0.405963
 30
0.0
 11
-76.862383
 21
-0.769823
 31
0.0
  0
LINE
  5
162
100
AcDbEntity
  8
0
370
    -3
  6
Continuous
100
AcDbLine
 10
-76.862383
 20
-0.769823
 30
0.0
 11
-74.862383
 21
-2.422465
 31
0.0
  0
LINE
  5
163
100
AcDbEntity
  8
0
370
    -3
  6
Continuous
100
AcDbLine
 10
-87.862383
 20
-108.913744
 30
0.0
 11
-32.357538
 21
-108.913744
 31
0.0
  0
ARC
  5
164
100
AcDbEntity
  8
0
370
    -3
  6
Continuous
100
AcDbCircle
 10
-32.357538
 20
-88.313744
 30
0.0
 40
20.6
100
AcDbArc
 50
270.0
 51
305.0
  0
LINE
  5
165
100
AcDbEntity
  8
0
370
    -3
  6
Continuous
100
AcDbLine
 10
-20.541863
 20
-105.188276
 30
0.0
 11
-12.971084
 21
-99.887159
 31
0.0
  0
ARC
  5
166
100
AcDbEntity
  8
0
370
    -3
  6
Continuous
100
AcDbCircle
 10
-14.462383
 20
-97.757364
 30
0.0
 40
2.6
100
AcDbArc
 50
305.0
 51
0.0
  0
LINE
  5
167
100
AcDbEntity
  8
0
370
    -3
  6
Continuous
100
AcDbLine
 10
-11.862383
 20
-97.757364
 30
0.0
 11
-11.862383
 21
-49.913744
 31
0.0
  0
LINE
  5
168
100
AcDbEntity
  8
0
370
    -3
  6
Continuous
100
AcDbLine
 10
-11.862383
 20
-2.070124
 30
0.0
 11
-11.862383
 21
-49.913744
 31
0.0
  0
ARC
  5
169
100
AcDbEntity
  8
0
370
    -3
  6
Continuous
100
AcDbCircle
 10
-14.462383
 20
-2.070124
 30
0.0
 40
2.6
100
AcDbArc
 50
0.0
 51
55.0
  0
LINE
  5
16A
100
AcDbEntity
  8
0
370
    -3
  6
Continuous
100
AcDbLine
 10
-20.541863
 20
5.360788
 30
0.0
 11
-12.971084
 21
0.059672
 31
0.0
  0
ARC
  5
16B
100
AcDbEntity
  8
0
370
    -3
  6
Continuous
100
AcDbCircle
 10
-32.357538
 20
-11.513744
 30
0.0
 40
20.6
100
AcDbArc
 50
55.0
 51
90.0
  0
LINE
  5
16C
100
AcDbEntity
  8
0
370
    -3
  6
Continuous
100
AcDbLine
 10
-77.862383
 20
9.086256
 30
0.0
 11
-32.357538
 21
9.086256
 31
0.0
  0
LINE
  5
16D
100
AcDbEntity
  8
0
370
    -3
  6
Continuous
100
AcDbLine
 10
-77.862383
 20
9.086256
 30
0.0
 11
-77.862383
 21
7.425952
 31
0.0
  0
ARC
  5
16E
100
AcDbEntity
  8
0
370
    -3
  6
Continuous
100
AcDbCircle
 10
-80.862383
 20
7.425952
 30
0.0
 40
3.0
100
AcDbArc
 50
270.0
 51
0.0
  0
LINE
  5
16F
100
AcDbEntity
  8
0
370
    -3
  6
Continuous
100
AcDbLine
 10
-80.862383
 20
4.425952
 30
0.0
 11
-84.862383
 21
4.425952
 31
0.0
  0
ARC
  5
170
100
AcDbEntity
  8
0
370
    -3
  6
Continuous
100
AcDbCircle
 10
-84.862383
 20
1.425952
 30
0.0
 40
3.0
100
AcDbArc
 50
90.0
 51
180.0
  0
LINE
  5
171
100
AcDbEntity
  8
0
370
    -3
  6
Continuous
100
AcDbLine
 10
-87.862383
 20
1.425952
 30
0.0
 11
-87.862383
 21
-49.913744
 31
0.0
  0
LINE
  5
172
100
AcDbEntity
  8
0
370
    -3
  6
Continuous
100
AcDbLine
 10
-87.862383
 20
-108.913744
 30
0.0
 11
-87.862383
 21
-49.913744
 31
0.0
  0
LINE
  5
173
100
AcDbEntity
  8
0
370
    -3
  6
Continuous
100
AcDbLine
 10
-87.862383
 20
-35.913796
 30
0.0
 11
-151.862374
 21
-35.913796
 31
0.0
  0
LINE
  5
174
100
AcDbEntity
  8
0
370
    -3
  6
Continuous
100
AcDbLine
 10
-87.862383
 20
-69.527711
 30
0.0
 11
-151.862374
 21
-69.527711
 31
0.0
  0
LINE
  5
175
100
AcDbEntity
  8
0
370
    -3
  6
Continuous
100
AcDbLine
 10
-87.862383
 20
-63.913796
 30
0.0
 11
-151.862374
 21
-63.913796
 31
0.0
  0
LINE
  5
176
100
AcDbEntity
  8
0
370
    -3
  6
Continuous
100
AcDbLine
 10
-87.862383
 20
-68.306956
 30
0.0
 11
-151.862374
 21
-68.306956
 31
0.0
  0
LINE
  5
177
100
AcDbEntity
  8
0
370
    -3
  6
Continuous
100
AcDbLine
 10
-87.862383
 20
-97.240393
 30
0.0
 11
-151.862374
 21
-97.240393
 31
0.0
  0
LINE
  5
178
100
AcDbEntity
  8
0
370
    -3
  6
Continuous
100
AcDbLine
 10
-87.862383
 20
-90.346244
 30
0.0
 11
-151.862374
 21
-90.346244
 31
0.0
  0
LINE
  5
179
100
AcDbEntity
  8
0
370
    -3
  6
Continuous
100
AcDbLine
 10
-151.862374
 20
-103.413796
 30
0.0
 11
-87.862383
 21
-103.413796
 31
0.0
  0
LINE
  5
17A
100
AcDbEntity
  8
0
370
    -3
  6
Continuous
100
AcDbLine
 10
-87.862383
 20
-30.299882
 30
0.0
 11
-151.862374
 21
-30.299882
 31
0.0
  0
LINE
  5
17B
100
AcDbEntity
  8
0
370
    -3
  6
Continuous
100
AcDbLine
 10
-87.862383
 20
-31.513591
 30
0.0
 11
-151.862374
 21
-31.513591
 31
0.0
  0
LINE
  5
17C
100
AcDbEntity
  8
0
370
    -3
  6
Continuous
100
AcDbLine
 10
-87.862383
 20
-78.513591
 30
0.0
 11
-151.862374
 21
-78.513591
 31
0.0
  0
LINE
  5
17D
100
AcDbEntity
  8
0
370
    -3
  6
Continuous
100
AcDbLine
 10
-87.862383
 20
-77.314002
 30
0.0
 11
-143.362374
 21
-77.314002
 31
0.0
  0
LINE
  5
17E
100
AcDbEntity
  8
0
370
    -3
  6
Continuous
100
AcDbLine
 10
-87.862383
 20
-74.013591
 30
0.0
 11
-151.862374
 21
-74.013591
 31
0.0
  0
LINE
  5
17F
100
AcDbEntity
  8
0
370
    -3
  6
Continuous
100
AcDbLine
 10
-87.862383
 20
-72.814002
 30
0.0
 11
-134.862374
 21
-72.814002
 31
0.0
  0
LINE
  5
180
100
AcDbEntity
  8
0
370
    -3
  6
Continuous
100
AcDbLine
 10
-87.862383
 20
-21.314002
 30
0.0
 11
-151.862374
 21
-21.314002
 31
0.0
  0
LINE
  5
181
100
AcDbEntity
  8
0
370
    -3
  6
Continuous
100
AcDbLine
 10
-87.862383
 20
-22.513591
 30
0.0
 11
-140.004983
 21
-22.513591
 31
0.0
  0
LINE
  5
182
100
AcDbEntity
  8
0
370
    -3
  6
Continuous
100
AcDbLine
 10
-87.862383
 20
-25.814002
 30
0.0
 11
-151.862374
 21
-25.814002
 31
0.0
  0
LINE
  5
183
100
AcDbEntity
  8
0
370
    -3
  6
Continuous
100
AcDbLine
 10
-87.862383
 20
-27.013591
 30
0.0
 11
-134.862374
 21
-27.013591
 31
0.0
  0
LINE
  5
184
100
AcDbEntity
  8
0
370
    -3
  6
Continuous
100
AcDbLine
 10
-87.862383
 20
-9.481349
 30
0.0
 11
-151.862374
 21
-9.481349
 31
0.0
  0
LINE
  5
185
100
AcDbEntity
  8
0
370
    -3
  6
Continuous
100
AcDbLine
 10
-87.862383
 20
-2.587199
 30
0.0
 11
-151.862374
 21
-2.587199
 31
0.0
  0
LINE
  5
186
100
AcDbEntity
  8
0
370
    -3
  6
Continuous
100
AcDbLine
 10
-87.862383
 20
0.586204
 30
0.0
 11
-151.862374
 21
0.586204
 31
0.0
  0
LINE
  5
187
100
AcDbEntity
  8
0
370
    -3
  6
Continuous
100
AcDbLine
 10
-87.862383
 20
-16.814002
 30
0.0
 11
-151.862374
 21
-16.814002
 31
0.0
  0
LINE
  5
188
100
AcDbEntity
  8
0
370
    -3
  6
Continuous
100
AcDbLine
 10
-87.862383
 20
-18.013591
 30
0.0
 11
-151.862374
 21
-18.013591
 31
0.0
  0
LINE
  5
189
100
AcDbEntity
  8
0
370
    -3
  6
Continuous
100
AcDbLine
 10
-87.862383
 20
-100.913796
 30
0.0
 11
-151.862374
 21
-100.913796
 31
0.0
  0
LINE
  5
18A
100
AcDbEntity
  8
0
370
    -3
  6
Continuous
100
AcDbLine
 10
-87.862383
 20
-100.413796
 30
0.0
 11
-151.862374
 21
-100.413796
 31
0.0
  0
LINE
  5
18B
100
AcDbEntity
  8
0
370
    -3
  6
Continuous
100
AcDbLine
 10
-87.862383
 20
-83.013591
 30
0.0
 11
-151.862374
 21
-83.013591
 31
0.0
  0
LINE
  5
18C
100
AcDbEntity
  8
0
370
    -3
  6
Continuous
100
AcDbLine
 10
-87.862383
 20
-81.814002
 30
0.0
 11
-151.862374
 21
-81.814002
 31
0.0
  0
LINE
  5
18D
100
AcDbEntity
  8
0
370
    -3
  6
Continuous
100
AcDbLine
 10
-134.862374
 20
-72.814002
 30
0.0
 11
-151.862374
 21
-72.814002
 31
0.0
  0
LINE
  5
18E
100
AcDbEntity
  8
0
370
    -3
  6
Continuous
100
AcDbLine
 10
-134.862374
 20
-22.513591
 30
0.0
 11
-151.862374
 21
-22.513591
 31
0.0
  0
LINE
  5
18F
100
AcDbEntity
  8
0
370
    -3
  6
Continuous
100
AcDbLine
 10
-134.862374
 20
-27.013591
 30
0.0
 11
-151.862374
 21
-27.013591
 31
0.0
  0
LINE
  5
190
100
AcDbEntity
  8
0
370
    -3
  6
Continuous
100
AcDbLine
 10
-134.862374
 20
-77.314002
 30
0.0
 11
-151.862374
 21
-77.314002
 31
0.0
  0
LINE
  5
191
100
AcDbEntity
  8
0
370
    -3
  6
Continuous
100
AcDbLine
 10
-151.862374
 20
3.586204
 30
0.0
 11
-113.862383
 21
3.586204
 31
0.0
  0
LINE
  5
192
100
AcDbEntity
  8
0
370
    -3
  6
Continuous
100
AcDbLine
 10
-113.862383
 20
3.586204
 30
0.0
 11
-86.944044
 21
3.586204
 31
0.0
  0
LINE
  5
193
100
AcDbEntity
  8
0
370
    -3
  6
Continuous
100
AcDbLine
 10
-87.862383
 20
1.086204
 30
0.0
 11
-151.862374
 21
1.086204
 31
0.0
  0
LINE
  5
194
100
AcDbEntity
  8
0
370
    -3
  6
CENTER
100
AcDbLine
 10
-202.895826
 20
-49.913796
 30
0.0
 11
-5.0
 21
-49.913796
 31
0.0
  0
LINE
  5
195
100
AcDbEntity
  8
0
370
    -3
  6
Continuous
100
AcDbLine
 10
-74.862374
 20
161.251358
 30
0.0
 11
-76.862374
 21
162.427144
 31
0.0
  0
LINE
  5
196
100
AcDbEntity
  8
0
370
    -3
  6
Continuous
100
AcDbLine
 10
-78.862374
 20
161.251358
 30
0.0
 11
-76.862374
 21
162.427144
 31
0.0
  0
LINE
  5
197
100
AcDbEntity
  8
0
370
    -3
  6
Continuous
100
AcDbLine
 10
-74.862374
 20
161.251358
 30
0.0
 11
-76.862374
 21
162.427144
 31
0.0
  0
LINE
  5
198
100
AcDbEntity
  8
0
370
    -3
  6
Continuous
100
AcDbLine
 10
-78.862374
 20
161.251358
 30
0.0
 11
-76.862374
 21
162.427144
 31
0.0
  0
LINE
  5
199
100
AcDbEntity
  8
0
370
    -3
  6
Continuous
100
AcDbLine
 10
-76.862374
 20
162.427144
 30
0.0
 11
-77.954752
 21
163.329799
 31
0.0
  0
LINE
  5
19A
100
AcDbEntity
  8
0
370
    -3
  6
Continuous
100
AcDbLine
 10
-76.862374
 20
162.427144
 30
0.0
 11
-75.769996
 21
163.329799
 31
0.0
  0
ELLIPSE
  5
19B
100
AcDbEntity
  8
0
370
    -3
  6
Continuous
100
AcDbEllipse
 10
-76.862374
 20
164.243734
 30
0.0
 11
4.6999999999999886
 21
0.0
 31
0.0
210
0.0
220
0.0
230
1.0
 40
0.766646
 41
3.3980369563346051
 42
6.0267410044347134
  0
LINE
  5
19C
100
AcDbEntity
  8
0
370
    -3
  6
Continuous
100
AcDbLine
 10
-87.862374
 20
162.805255
 30
0.0
 11
-151.862374
 21
162.805255
 31
0.0
  0
LINE
  5
19D
100
AcDbEntity
  8
0
370
    -3
  6
Continuous
100
AcDbLine
 10
-151.862374
 20
157.629799
 30
0.0
 11
-87.862374
 21
157.629799
 31
0.0
  0
LINE
  5
19E
100
AcDbEntity
  8
0
370
    -3
  6
Continuous
100
AcDbLine
 10
-87.862374
 20
159.129799
 30
0.0
 11
-151.862374
 21
159.129799
 31
0.0
  0
LINE
  5
19F
100
AcDbEntity
  8
0
370
    -3
  6
Continuous
100
AcDbLine
 10
-87.862374
 20
159.629799
 30
0.0
 11
-151.862374
 21
159.629799
 31
0.0
  0
LINE
  5
1A0
100
AcDbEntity
  8
0
370
    -3
  6
Continuous
100
AcDbLine
 10
-87.862374
 20
257.456395
 30
0.0
 11
-151.862374
 21
257.456395
 31
0.0
  0
LINE
  5
1A1
100
AcDbEntity
  8
0
370
    -3
  6
Continuous
100
AcDbLine
 10
-87.862374
 20
260.629799
 30
0.0
 11
-151.862374
 21
260.629799
 31
0.0
  0
LINE
  5
1A2
100
AcDbEntity
  8
0
370
    -3
  6
Continuous
100
AcDbLine
 10
-87.862374
 20
261.129799
 30
0.0
 11
-151.862374
 21
261.129799
 31
0.0
  0
LINE
  5
1A3
100
AcDbEntity
  8
0
370
    -3
  6
Continuous
100
AcDbLine
 10
-151.862374
 20
262.629799
 30
0.0
 11
-87.862374
 21
262.629799
 31
0.0
  0
LINE
  5
1A4
100
AcDbEntity
  8
0
370
    -3
  6
Continuous
100
AcDbLine
 10
-87.862374
 20
264.129799
 30
0.0
 11
-32.357529
 21
264.129799
 31
0.0
  0
LINE
  5
1A5
100
AcDbEntity
  8
0
370
    -3
  6
Continuous
100
AcDbLine
 10
-76.862374
 20
257.832453
 30
0.0
 11
-75.769996
 21
256.929799
 31
0.0
  0
LINE
  5
1A6
100
AcDbEntity
  8
0
370
    -3
  6
Continuous
100
AcDbLine
 10
-78.862374
 20
259.008239
 30
0.0
 11
-76.862374
 21
257.832453
 31
0.0
  0
LINE
  5
1A7
100
AcDbEntity
  8
0
370
    -3
  6
Continuous
100
AcDbLine
 10
-76.862374
 20
257.832453
 30
0.0
 11
-77.954752
 21
256.929799
 31
0.0
  0
LINE
  5
1A8
100
AcDbEntity
  8
0
370
    -3
  6
Continuous
100
AcDbLine
 10
-74.862374
 20
259.008239
 30
0.0
 11
-76.862374
 21
257.832453
 31
0.0
  0
ELLIPSE
  5
1A9
100
AcDbEntity
  8
0
370
    -3
  6
Continuous
100
AcDbEllipse
 10
-76.862374
 20
256.015863
 30
0.0
 11
4.6999999999999886
 21
0.0
 31
0.0
210
0.0
220
0.0
230
1.0
 40
0.766646
 41
0.256444302744873
 42
2.8851483508449811
  0
LINE
  5
1AA
100
AcDbEntity
  8
0
370
    -3
  6
Continuous
100
AcDbLine
 10
-87.862374
 20
264.129799
 30
0.0
 11
-87.862374
 21
256.929799
 31
0.0
  0
ARC
  5
1AB
100
AcDbEntity
  8
0
370
    -3
  6
Continuous
100
AcDbCircle
 10
-32.357529
 20
243.529799
 30
0.0
 40
20.6
100
AcDbArc
 50
55.0
 51
90.0
  0
ARC
  5
1AC
100
AcDbEntity
  8
0
370
    -3
  6
Continuous
100
AcDbCircle
 10
-14.462374
 20
252.973419
 30
0.0
 40
2.6
100
AcDbArc
 50
0.0
 51
55.0
  0
LINE
  5
1AD
100
AcDbEntity
  8
0
370
    -3
  6
Continuous
100
AcDbLine
 10
-11.862374
 20
252.973419
 30
0.0
 11
-11.862374
 21
210.129799
 31
0.0
  0
LINE
  5
1AE
100
AcDbEntity
  8
0
370
    -3
  6
Continuous
100
AcDbLine
 10
-20.541854
 20
260.404331
 30
0.0
 11
-12.971075
 21
255.103214
 31
0.0
  0
ARC
  5
1AF
100
AcDbEntity
  8
0
370
    -3
  6
Continuous
100
AcDbCircle
 10
-32.357529
 20
176.729799
 30
0.0
 40
20.6
100
AcDbArc
 50
270.0
 51
305.0
  0
ARC
  5
1B0
100
AcDbEntity
  8
0
370
    -3
  6
Continuous
100
AcDbCircle
 10
-14.462374
 20
167.286178
 30
0.0
 40
2.6
100
AcDbArc
 50
305.0
 51
0.0
  0
LINE
  5
1B1
100
AcDbEntity
  8
0
370
    -3
  6
Continuous
100
AcDbLine
 10
-11.862374
 20
167.286178
 30
0.0
 11
-11.862374
 21
210.129799
 31
0.0
  0
LINE
  5
1B2
100
AcDbEntity
  8
0
370
    -3
  6
Continuous
100
AcDbLine
 10
-20.541854
 20
159.855266
 30
0.0
 11
-12.971075
 21
165.156383
 31
0.0
  0
LINE
  5
1B3
100
AcDbEntity
  8
0
370
    -3
  6
Continuous
100
AcDbLine
 10
-87.862374
 20
156.129799
 30
0.0
 11
-32.357529
 21
156.129799
 31
0.0
  0
LINE
  5
1B4
100
AcDbEntity
  8
0
370
    -3
  6
Continuous
100
AcDbLine
 10
-87.862374
 20
156.129799
 30
0.0
 11
-87.862374
 21
163.329799
 31
0.0
  0
LINE
  5
1B5
100
AcDbEntity
  8
0
370
    -3
  6
Continuous
100
AcDbLine
 10
-87.862374
 20
264.129799
 30
0.0
 11
-32.357529
 21
264.129799
 31
0.0
  0
LINE
  5
1B6
100
AcDbEntity
  8
0
370
    -3
  6
Continuous
100
AcDbLine
 10
-78.862374
 20
259.008239
 30
0.0
 11
-76.862374
 21
257.832453
 31
0.0
  0
LINE
  5
1B7
100
AcDbEntity
  8
0
370
    -3
  6
Continuous
100
AcDbLine
 10
-74.862374
 20
259.008239
 30
0.0
 11
-76.862374
 21
257.832453
 31
0.0
  0
LINE
  5
1B8
100
AcDbEntity
  8
0
370
    -3
  6
Continuous
100
AcDbLine
 10
-87.862374
 20
264.129799
 30
0.0
 11
-87.862374
 21
256.929799
 31
0.0
  0
ARC
  5
1B9
100
AcDbEntity
  8
0
370
    -3
  6
Continuous
100
AcDbCircle
 10
-32.357529
 20
243.529799
 30
0.0
 40
20.6
100
AcDbArc
 50
55.0
 51
90.0
  0
ARC
  5
1BA
100
AcDbEntity
  8
0
370
    -3
  6
Continuous
100
AcDbCircle
 10
-14.462374
 20
252.973419
 30
0.0
 40
2.6
100
AcDbArc
 50
0.0
 51
55.0
  0
LINE
  5
1BB
100
AcDbEntity
  8
0
370
    -3
  6
Continuous
100
AcDbLine
 10
-11.862374
 20
252.973419
 30
0.0
 11
-11.862374
 21
210.129799
 31
0.0
  0
LINE
  5
1BC
100
AcDbEntity
  8
0
370
    -3
  6
Continuous
100
AcDbLine
 10
-20.541854
 20
260.404331
 30
0.0
 11
-12.971075
 21
255.103214
 31
0.0
  0
ARC
  5
1BD
100
AcDbEntity
  8
0
370
    -3
  6
Continuous
100
AcDbCircle
 10
-32.357529
 20
176.729799
 30
0.0
 40
20.6
100
AcDbArc
 50
270.0
 51
305.0
  0
ARC
  5
1BE
100
AcDbEntity
  8
0
370
    -3
  6
Continuous
100
AcDbCircle
 10
-14.462374
 20
167.286178
 30
0.0
 40
2.6
100
AcDbArc
 50
305.0
 51
0.0
  0
LINE
  5
1BF
100
AcDbEntity
  8
0
370
    -3
  6
Continuous
100
AcDbLine
 10
-11.862374
 20
167.286178
 30
0.0
 11
-11.862374
 21
210.129799
 31
0.0
  0
LINE
  5
1C0
100
AcDbEntity
  8
0
370
    -3
  6
Continuous
100
AcDbLine
 10
-20.541854
 20
159.855266
 30
0.0
 11
-12.971075
 21
165.156383
 31
0.0
  0
LINE
  5
1C1
100
AcDbEntity
  8
0
370
    -3
  6
Continuous
100
AcDbLine
 10
-87.862374
 20
156.129799
 30
0.0
 11
-32.357529
 21
156.129799
 31
0.0
  0
LINE
  5
1C2
100
AcDbEntity
  8
0
370
    -3
  6
Continuous
100
AcDbLine
 10
-87.862374
 20
156.129799
 30
0.0
 11
-87.862374
 21
163.329799
 31
0.0
  0
LINE
  5
1C3
100
AcDbEntity
  8
0
370
    -3
  6
Continuous
100
AcDbLine
 10
-151.862374
 20
157.629799
 30
0.0
 11
-151.862374
 21
163.329799
 31
0.0
  0
LINE
  5
1C4
100
AcDbEntity
  8
0
370
    -3
  6
Continuous
100
AcDbLine
 10
-151.862374
 20
262.629799
 30
0.0
 11
-151.862374
 21
256.877407
 31
0.0
  0
ARC
  5
1C5
100
AcDbEntity
  8
0
370
    -3
  6
Continuous
100
AcDbCircle
 10
150.240472
 20
-74.412422
 30
0.0
 40
1.0
100
AcDbArc
 50
30.0
 51
112.410458
  0
ARC
  5
1C6
100
AcDbEntity
  8
0
370
    -3
  6
Continuous
100
AcDbCircle
 10
156.025783
 20
-84.432874
 30
0.0
 40
1.0
100
AcDbArc
 50
294.715267
 51
30.0
  0
LINE
  5
1C7
100
AcDbEntity
  8
0
370
    -3
  6
Continuous
100
AcDbLine
 10
156.891808
 20
-83.932874
 30
0.0
 11
155.384852
 21
-81.32275
 31
0.0
  0
ARC
  5
1C8
100
AcDbEntity
  8
0
370
    -3
  6
Continuous
100
AcDbCircle
 10
154.518827
 20
-81.82275
 30
0.0
 40
1.0
100
AcDbArc
 50
30.0
 51
114.26083
  0
ARC
  5
1C9
100
AcDbEntity
  8
0
370
    -3
  6
Continuous
100
AcDbCircle
 10
141.522427
 20
-59.312325
 30
0.0
 40
1.0
100
AcDbArc
 50
30.0
 51
98.381728
  0
LINE
  5
1CA
100
AcDbEntity
  8
0
370
    -3
  6
Continuous
100
AcDbLine
 10
143.972572
 20
-61.5561
 30
0.0
 11
142.388452
 21
-58.812325
 31
0.0
  0
ARC
  5
1CB
100
AcDbEntity
  8
0
370
    -3
  6
Continuous
100
AcDbCircle
 10
145.934768
 20
-66.954724
 30
0.0
 40
1.0
100
AcDbArc
 50
30.0
 51
108.787729
  0
LINE
  5
1CC
100
AcDbEntity
  8
0
370
    -3
  6
Continuous
100
AcDbLine
 10
148.325711
 20
-69.095959
 30
0.0
 11
146.800794
 21
-66.454724
 31
0.0
  0
ARC
  5
1CD
100
AcDbEntity
  8
0
370
    -3
  6
Continuous
100
AcDbCircle
 10
147.459686
 20
-69.595959
 30
0.0
 40
1.0
100
AcDbArc
 50
290.405932
 51
30.0
  0
ARC
  5
1CE
100
AcDbEntity
  8
0
370
    -3
  6
Continuous
100
AcDbCircle
 10
143.106546
 20
-62.0561
 30
0.0
 40
1.0
100
AcDbArc
 50
283.739795
 51
30.0
  0
ARC
  5
1CF
100
AcDbEntity
  8
0
370
    -3
  6
Continuous
100
AcDbCircle
 10
140.137635
 20
-49.913796
 30
0.0
 40
13.5
100
AcDbArc
 50
256.260205
 51
283.739795
  0
ARC
  5
1D0
100
AcDbEntity
  8
0
370
    -3
  6
Continuous
100
AcDbCircle
 10
140.137635
 20
-49.913796
 30
0.0
 40
17.0
100
AcDbArc
 50
251.212271
 51
288.787729
  0
ARC
  5
1D1
100
AcDbEntity
  8
0
370
    -3
  6
Continuous
100
AcDbCircle
 10
140.137635
 20
-49.913796
 30
0.0
 40
22.0
100
AcDbArc
 50
249.594068
 51
290.405932
  0
ARC
  5
1D2
100
AcDbEntity
  8
0
370
    -3
  6
Continuous
100
AcDbCircle
 10
140.137635
 20
-49.913796
 30
0.0
 40
30.5
100
AcDbArc
 50
246.813854
 51
293.186146
  0
ARC
  5
1D3
100
AcDbEntity
  8
0
370
    -3
  6
Continuous
100
AcDbCircle
 10
140.137635
 20
-49.913796
 30
0.0
 40
25.5
100
AcDbArc
 50
247.589542
 51
292.410458
  0
ARC
  5
1D4
100
AcDbEntity
  8
0
370
    -3
  6
Continuous
100
AcDbCircle
 10
183.553992
 20
-93.330152
 30
0.0
 40
6.099999
100
AcDbArc
 50
264.601911
 51
5.398072
  0
ARC
  5
1D5
100
AcDbEntity
  8
0
370
    -3
  6
Continuous
100
AcDbCircle
 10
140.137635
 20
-49.913796
 30
0.0
 40
34.0
100
AcDbArc
 50
245.73917
 51
294.26083
  0
POINT
  5
1D6
100
AcDbEntity
  8
0
370
    -3
  6
Continuous
100
AcDbPoint
 10
185.816733
 20
-95.592894
 30
0.0
  0
ARC
  5
1D7
100
AcDbEntity
  8
0
370
    -3
  6
Continuous
100
AcDbCircle
 10
140.137635
 20
-49.913796
 30
0.0
 40
39.0
100
AcDbArc
 50
245.284733
 51
294.715267
  0
LINE
  5
1D8
100
AcDbEntity
  8
0
370
    -3
  6
Continuous
100
AcDbLine
 10
182.493332
 20
-98.916295
 30
0.0
 11
189.140135
 21
-92.269492
 31
0.0
  0
LINE
  5
1D9
100
AcDbEntity
  8
0
370
    -3
  6
Continuous
100
AcDbLine
 10
110.845998
 20
-47.413796
 30
0.0
 11
113.869784
 21
-47.413796
 31
0.0
  0
LINE
  5
1DA
100
AcDbEntity
  8
0
370
    -3
  6
Continuous
100
AcDbLine
 10
182.745879
 20
-99.229434
 30
0.0
 11
189.422978
 21
-92.552335
 31
0.0
  0
LINE
  5
1DB
100
AcDbEntity
  8
0
370
    -3
  6
Continuous
100
AcDbLine
 10
119.431356
 20
-47.413796
 30
0.0
 11
122.481192
 21
-47.413796
 31
0.0
  0
LINE
  5
1DC
100
AcDbEntity
  8
0
370
    -3
  6
Continuous
100
AcDbLine
 10
182.493332
 20
-98.916295
 30
0.0
 11
182.980135
 21
-99.403099
 31
0.0
  0
LINE
  5
1DD
100
AcDbEntity
  8
0
370
    -3
  6
Continuous
100
AcDbLine
 10
128.137635
 20
-47.413796
 30
0.0
 11
131.305874
 21
-47.413796
 31
0.0
  0
LINE
  5
1DE
100
AcDbEntity
  8
0
370
    -3
  6
Continuous
100
AcDbLine
 10
189.140135
 20
-92.269492
 30
0.0
 11
189.626939
 21
-92.756295
 31
0.0
  0
LINE
  5
1DF
100
AcDbEntity
  8
0
370
    -3
  6
Continuous
100
AcDbLine
 10
131.972572
 20
-40.771491
 30
0.0
 11
133.556691
 21
-43.515266
 31
0.0
  0
ARC
  5
1E0
100
AcDbEntity
  8
0
370
    -3
  6
Continuous
100
AcDbCircle
 10
183.553992
 20
-6.497439
 30
0.0
 40
6.099999
100
AcDbArc
 50
354.601928
 51
95.398089
  0
LINE
  5
1E1
100
AcDbEntity
  8
0
370
    -3
  6
Continuous
100
AcDbLine
 10
127.619432
 20
-33.231632
 30
0.0
 11
129.14435
 21
-35.872867
 31
0.0
  0
POINT
  5
1E2
100
AcDbEntity
  8
0
370
    -3
  6
Continuous
100
AcDbPoint
 10
185.816733
 20
-4.234698
 30
0.0
  0
LINE
  5
1E3
100
AcDbEntity
  8
0
370
    -3
  6
Continuous
100
AcDbLine
 10
119.053336
 20
-18.394717
 30
0.0
 11
120.560292
 21
-21.004842
 31
0.0
  0
LINE
  5
1E4
100
AcDbEntity
  8
0
370
    -3
  6
Continuous
100
AcDbLine
 10
182.493332
 20
-0.911296
 30
0.0
 11
189.140135
 21
-7.558099
 31
0.0
  0
ARC
  5
1E5
100
AcDbEntity
  8
0
370
    -3
  6
Continuous
100
AcDbCircle
 10
156.029707
 20
-67.96285
 30
0.0
 40
40.6
100
AcDbArc
 50
272.530124
 51
315.0
  0
LINE
  5
1E6
100
AcDbEntity
  8
0
370
    -3
  6
Continuous
100
AcDbLine
 10
182.745879
 20
-0.598157
 30
0.0
 11
189.422978
 21
-7.275257
 31
0.0
  0
LINE
  5
1E7
100
AcDbEntity
  8
0
370
    -3
  6
Continuous
100
AcDbLine
 10
184.738242
 20
-96.671385
 30
0.0
 11
186.916988
 21
-94.492639
 31
0.0
  0
LINE
  5
1E8
100
AcDbEntity
  8
0
370
    -3
  6
Continuous
100
AcDbLine
 10
189.140135
 20
-7.558099
 30
0.0
 11
189.626939
 21
-7.071296
 31
0.0
  0
ARC
  5
1E9
100
AcDbEntity
  8
0
370
    -3
  6
Continuous
100
AcDbCircle
 10
172.350588
 20
-79.92624
 30
0.0
 40
20.6
100
AcDbArc
 50
315.0
 51
355.470055
  0
LINE
  5
1EA
100
AcDbEntity
  8
0
370
    -3
  6
Continuous
100
AcDbLine
 10
182.493332
 20
-0.911296
 30
0.0
 11
182.980135
 21
-0.424492
 31
0.0
  0
ARC
  5
1EB
100
AcDbEntity
  8
0
370
    -3
  6
Continuous
100
AcDbCircle
 10
-206.462365
 20
-49.913796
 30
0.0
 40
400.6
100
AcDbArc
 50
355.470807
 51
0.0
  0
ARC
  5
1EC
100
AcDbEntity
  8
0
370
    -3
  6
Continuous
100
AcDbCircle
 10
96.721279
 20
-6.497439
 30
0.0
 40
6.099999
100
AcDbArc
 50
84.601911
 51
185.398072
  0
ARC
  5
1ED
100
AcDbEntity
  8
0
370
    -3
  6
Continuous
100
AcDbCircle
 10
140.137635
 20
291.686204
 30
0.0
 40
400.6
100
AcDbArc
 50
270.0
 51
272.529361
  0
POINT
  5
1EE
100
AcDbEntity
  8
0
370
    -3
  6
Continuous
100
AcDbPoint
 10
94.458537
 20
-4.234698
 30
0.0
  0
ARC
  5
1EF
100
AcDbEntity
  8
0
370
    -3
  6
Continuous
100
AcDbCircle
 10
124.245564
 20
-67.96285
 30
0.0
 40
40.6
100
AcDbArc
 50
225.0
 51
267.469876
  0
LINE
  5
1F0
100
AcDbEntity
  8
0
370
    -3
  6
Continuous
100
AcDbLine
 10
97.781939
 20
-0.911296
 30
0.0
 11
91.135136
 21
-7.558099
 31
0.0
  0
LINE
  5
1F1
100
AcDbEntity
  8
0
370
    -3
  6
Continuous
100
AcDbLine
 10
95.537029
 20
-96.671385
 30
0.0
 11
93.358283
 21
-94.492639
 31
0.0
  0
LINE
  5
1F2
100
AcDbEntity
  8
0
370
    -3
  6
Continuous
100
AcDbLine
 10
97.529392
 20
-0.598157
 30
0.0
 11
90.852293
 21
-7.275257
 31
0.0
  0
ARC
  5
1F3
100
AcDbEntity
  8
0
370
    -3
  6
Continuous
100
AcDbCircle
 10
107.924683
 20
-79.92624
 30
0.0
 40
20.6
100
AcDbArc
 50
184.529945
 51
225.0
  0
LINE
  5
1F4
100
AcDbEntity
  8
0
370
    -3
  6
Continuous
100
AcDbLine
 10
97.781939
 20
-0.911296
 30
0.0
 11
97.295136
 21
-0.424492
 31
0.0
  0
ARC
  5
1F5
100
AcDbEntity
  8
0
370
    -3
  6
Continuous
100
AcDbCircle
 10
486.737635
 20
-49.913796
 30
0.0
 40
400.6
100
AcDbArc
 50
180.0
 51
184.529193
  0
LINE
  5
1F6
100
AcDbEntity
  8
0
370
    -3
  6
Continuous
100
AcDbLine
 10
91.135136
 20
-7.558099
 30
0.0
 11
90.648332
 21
-7.071296
 31
0.0
  0
ARC
  5
1F7
100
AcDbEntity
  8
0
370
    -3
  6
Continuous
100
AcDbCircle
 10
140.137635
 20
291.686204
 30
0.0
 40
400.6
100
AcDbArc
 50
267.470639
 51
270.0
  0
ARC
  5
1F8
100
AcDbEntity
  8
0
370
    -3
  6
Continuous
100
AcDbCircle
 10
96.721279
 20
-93.330152
 30
0.0
 40
6.099999
100
AcDbArc
 50
174.601928
 51
275.398089
  0
ARC
  5
1F9
100
AcDbEntity
  8
0
370
    -3
  6
Continuous
100
AcDbCircle
 10
124.245564
 20
-31.864742
 30
0.0
 40
40.6
100
AcDbArc
 50
92.530124
 51
135.0
  0
POINT
  5
1FA
100
AcDbEntity
  8
0
370
    -3
  6
Continuous
100
AcDbPoint
 10
94.458537
 20
-95.592894
 30
0.0
  0
LINE
  5
1FB
100
AcDbEntity
  8
0
370
    -3
  6
Continuous
100
AcDbLine
 10
95.537029
 20
-3.156206
 30
0.0
 11
93.358283
 21
-5.334952
 31
0.0
  0
LINE
  5
1FC
100
AcDbEntity
  8
0
370
    -3
  6
Continuous
100
AcDbLine
 10
97.781939
 20
-98.916295
 30
0.0
 11
91.135136
 21
-92.269492
 31
0.0
  0
ARC
  5
1FD
100
AcDbEntity
  8
0
370
    -3
  6
Continuous
100
AcDbCircle
 10
107.924683
 20
-19.901352
 30
0.0
 40
20.6
100
AcDbArc
 50
135.0
 51
175.470055
  0
LINE
  5
1FE
100
AcDbEntity
  8
0
370
    -3
  6
Continuous
100
AcDbLine
 10
97.529392
 20
-99.229434
 30
0.0
 11
90.852293
 21
-92.552335
 31
0.0
  0
ARC
  5
1FF
100
AcDbEntity
  8
0
370
    -3
  6
Continuous
100
AcDbCircle
 10
486.737635
 20
-49.913796
 30
0.0
 40
400.6
100
AcDbArc
 50
175.470807
 51
180.0
  0
LINE
  5
200
100
AcDbEntity
  8
0
370
    -3
  6
Continuous
100
AcDbLine
 10
91.135136
 20
-92.269492
 30
0.0
 11
90.648332
 21
-92.756295
 31
0.0
  0
ARC
  5
201
100
AcDbEntity
  8
0
370
    -3
  6
Continuous
100
AcDbCircle
 10
156.029707
 20
-31.864742
 30
0.0
 40
40.6
100
AcDbArc
 50
45.0
 51
87.469876
  0
LINE
  5
202
100
AcDbEntity
  8
0
370
    -3
  6
Continuous
100
AcDbLine
 10
97.781939
 20
-98.916295
 30
0.0
 11
97.295136
 21
-99.403099
 31
0.0
  0
LINE
  5
203
100
AcDbEntity
  8
0
370
    -3
  6
Continuous
100
AcDbLine
 10
184.738242
 20
-3.156206
 30
0.0
 11
186.916988
 21
-5.334952
 31
0.0
  0
ARC
  5
204
100
AcDbEntity
  8
0
370
    -3
  6
Continuous
100
AcDbCircle
 10
172.350588
 20
-19.901352
 30
0.0
 40
20.6
100
AcDbArc
 50
4.529945
 51
45.0
  0
ARC
  5
205
100
AcDbEntity
  8
0
370
    -3
  6
Continuous
100
AcDbCircle
 10
-206.462365
 20
-49.913796
 30
0.0
 40
400.6
100
AcDbArc
 50
0.0
 51
4.529193
  0
LINE
  5
206
100
AcDbEntity
  8
0
370
    -3
  6
Continuous
100
AcDbLine
 10
102.299163
 20
-47.413796
 30
0.0
 11
105.313075
 21
-47.413796
 31
0.0
  0
LINE
  5
207
100
AcDbEntity
  8
0
370
    -3
  6
Continuous
100
AcDbLine
 10
123.326753
 20
-25.796494
 30
0.0
 11
124.838646
 21
-28.415169
 31
0.0
  0
ARC
  5
208
100
AcDbEntity
  8
0
370
    -3
  6
Continuous
100
AcDbCircle
 10
140.137635
 20
-49.913796
 30
0.0
 40
8.5
100
AcDbArc
 50
141.618272
 51
158.381728
  0
ARC
  5
209
100
AcDbEntity
  8
0
370
    -3
  6
Continuous
100
AcDbCircle
 10
140.137635
 20
-49.913796
 30
0.0
 40
13.5
100
AcDbArc
 50
136.260205
 51
163.739795
  0
ARC
  5
20A
100
AcDbEntity
  8
0
370
    -3
  6
Continuous
100
AcDbCircle
 10
140.137635
 20
-49.913796
 30
0.0
 40
17.0
100
AcDbArc
 50
131.212271
 51
168.787729
  0
ARC
  5
20B
100
AcDbEntity
  8
0
370
    -3
  6
Continuous
100
AcDbCircle
 10
140.137635
 20
-49.913796
 30
0.0
 40
22.0
100
AcDbArc
 50
129.594068
 51
170.405932
  0
ARC
  5
20C
100
AcDbEntity
  8
0
370
    -3
  6
Continuous
100
AcDbCircle
 10
140.137635
 20
-49.913796
 30
0.0
 40
25.5
100
AcDbArc
 50
127.589542
 51
172.410458
  0
ARC
  5
20D
100
AcDbEntity
  8
0
370
    -3
  6
Continuous
100
AcDbCircle
 10
140.137635
 20
-49.913796
 30
0.0
 40
34.0
100
AcDbArc
 50
125.73917
 51
174.26083
  0
ARC
  5
20E
100
AcDbEntity
  8
0
370
    -3
  6
Continuous
100
AcDbCircle
 10
140.137635
 20
-49.913796
 30
0.0
 40
30.5
100
AcDbArc
 50
126.813854
 51
173.186146
  0
ARC
  5
20F
100
AcDbEntity
  8
0
370
    -3
  6
Continuous
100
AcDbCircle
 10
140.137635
 20
-49.913796
 30
0.0
 40
39.0
100
AcDbArc
 50
125.284733
 51
174.715267
  0
ARC
  5
210
100
AcDbEntity
  8
0
370
    -3
  6
Continuous
100
AcDbCircle
 10
132.690666
 20
-44.015266
 30
0.0
 40
1.0
100
AcDbArc
 50
321.618272
 51
30.0
  0
ARC
  5
211
100
AcDbEntity
  8
0
370
    -3
  6
Continuous
100
AcDbCircle
 10
131.305874
 20
-46.413796
 30
0.0
 40
1.0
100
AcDbArc
 50
270.0
 51
338.381728
  0
ARC
  5
212
100
AcDbEntity
  8
0
370
    -3
  6
Continuous
100
AcDbCircle
 10
128.137635
 20
-46.413796
 30
0.0
 40
1.0
100
AcDbArc
 50
163.739795
 51
270.0
  0
ARC
  5
213
100
AcDbEntity
  8
0
370
    -3
  6
Continuous
100
AcDbCircle
 10
131.106546
 20
-41.271491
 30
0.0
 40
1.0
100
AcDbArc
 50
30.0
 51
136.260205
  0
ARC
  5
214
100
AcDbEntity
  8
0
370
    -3
  6
Continuous
100
AcDbCircle
 10
128.278325
 20
-36.372867
 30
0.0
 40
1.0
100
AcDbArc
 50
311.212271
 51
30.0
  0
ARC
  5
215
100
AcDbEntity
  8
0
370
    -3
  6
Continuous
100
AcDbCircle
 10
126.753407
 20
-33.731632
 30
0.0
 40
1.0
100
AcDbArc
 50
30.0
 51
129.594068
  0
ARC
  5
216
100
AcDbEntity
  8
0
370
    -3
  6
Continuous
100
AcDbCircle
 10
122.481192
 20
-46.413796
 30
0.0
 40
1.0
100
AcDbArc
 50
270.0
 51
348.787729
  0
ARC
  5
217
100
AcDbEntity
  8
0
370
    -3
  6
Continuous
100
AcDbCircle
 10
119.431356
 20
-46.413796
 30
0.0
 40
1.0
100
AcDbArc
 50
170.405932
 51
270.0
  0
ARC
  5
218
100
AcDbEntity
  8
0
370
    -3
  6
Continuous
100
AcDbCircle
 10
110.845998
 20
-46.413796
 30
0.0
 40
1.0
100
AcDbArc
 50
173.186146
 51
270.0
  0
ARC
  5
219
100
AcDbEntity
  8
0
370
    -3
  6
Continuous
100
AcDbCircle
 10
123.972621
 20
-28.915169
 30
0.0
 40
1.0
100
AcDbArc
 50
307.589542
 51
30.0
  0
ARC
  5
21A
100
AcDbEntity
  8
0
370
    -3
  6
Continuous
100
AcDbCircle
 10
122.460728
 20
-26.296494
 30
0.0
 40
1.0
100
AcDbArc
 50
30.0
 51
126.813854
  0
ARC
  5
21B
100
AcDbEntity
  8
0
370
    -3
  6
Continuous
100
AcDbCircle
 10
113.869784
 20
-46.413796
 30
0.0
 40
1.0
100
AcDbArc
 50
270.0
 51
352.410458
  0
ARC
  5
21C
100
AcDbEntity
  8
0
370
    -3
  6
Continuous
100
AcDbCircle
 10
102.299163
 20
-46.413796
 30
0.0
 40
1.0
100
AcDbArc
 50
174.715267
 51
270.0
  0
ARC
  5
21D
100
AcDbEntity
  8
0
370
    -3
  6
Continuous
100
AcDbCircle
 10
105.313075
 20
-46.413796
 30
0.0
 40
1.0
100
AcDbArc
 50
270.0
 51
354.26083
  0
ARC
  5
21E
100
AcDbEntity
  8
0
370
    -3
  6
Continuous
100
AcDbCircle
 10
119.694266
 20
-21.504842
 30
0.0
 40
1.0
100
AcDbArc
 50
305.73917
 51
30.0
  0
ARC
  5
21F
100
AcDbEntity
  8
0
370
    -3
  6
Continuous
100
AcDbCircle
 10
118.18731
 20
-18.894717
 30
0.0
 40
1.0
100
AcDbArc
 50
30.0
 51
125.284733
  0
CIRCLE
  5
220
100
AcDbEntity
  8
0
370
    -3
  6
Continuous
100
AcDbCircle
 10
140.137635
 20
-49.913796
 30
0.0
 40
5.0
  0
ARC
  5
221
100
AcDbEntity
  8
0
370
    -3
  6
Continuous
100
AcDbCircle
 10
124.249488
 20
-15.394717
 30
0.0
 40
1.0
100
AcDbArc
 50
114.715267
 51
210.0
  0
LINE
  5
222
100
AcDbEntity
  8
0
370
    -3
  6
Continuous
100
AcDbLine
 10
123.383463
 20
-15.894717
 30
0.0
 11
124.890419
 21
-18.504842
 31
0.0
  0
ARC
  5
223
100
AcDbEntity
  8
0
370
    -3
  6
Continuous
100
AcDbCircle
 10
140.137635
 20
-49.913796
 30
0.0
 40
39.0
100
AcDbArc
 50
65.284733
 51
114.715267
  0
ARC
  5
224
100
AcDbEntity
  8
0
370
    -3
  6
Continuous
100
AcDbCircle
 10
140.137635
 20
-49.913796
 30
0.0
 40
34.0
100
AcDbArc
 50
65.73917
 51
114.26083
  0
ARC
  5
225
100
AcDbEntity
  8
0
370
    -3
  6
Continuous
100
AcDbCircle
 10
140.137635
 20
-49.913796
 30
0.0
 40
25.5
100
AcDbArc
 50
67.589542
 51
112.410458
  0
ARC
  5
226
100
AcDbEntity
  8
0
370
    -3
  6
Continuous
100
AcDbCircle
 10
140.137635
 20
-49.913796
 30
0.0
 40
30.5
100
AcDbArc
 50
66.813854
 51
113.186146
  0
ARC
  5
227
100
AcDbEntity
  8
0
370
    -3
  6
Continuous
100
AcDbCircle
 10
128.522906
 20
-22.796494
 30
0.0
 40
1.0
100
AcDbArc
 50
113.186146
 51
210.0
  0
LINE
  5
228
100
AcDbEntity
  8
0
370
    -3
  6
Continuous
100
AcDbLine
 10
127.65688
 20
-23.296494
 30
0.0
 11
129.168773
 21
-25.915169
 31
0.0
  0
ARC
  5
229
100
AcDbEntity
  8
0
370
    -3
  6
Continuous
100
AcDbCircle
 10
140.137635
 20
-49.913796
 30
0.0
 40
22.0
100
AcDbArc
 50
69.594068
 51
110.405932
  0
ARC
  5
22A
100
AcDbEntity
  8
0
370
    -3
  6
Continuous
100
AcDbCircle
 10
125.756444
 20
-18.004842
 30
0.0
 40
1.0
100
AcDbArc
 50
210.0
 51
294.26083
  0
ARC
  5
22B
100
AcDbEntity
  8
0
370
    -3
  6
Continuous
100
AcDbCircle
 10
130.034799
 20
-25.415169
 30
0.0
 40
1.0
100
AcDbArc
 50
210.0
 51
292.410458
  0
ARC
  5
22C
100
AcDbEntity
  8
0
370
    -3
  6
Continuous
100
AcDbCircle
 10
132.815585
 20
-30.231632
 30
0.0
 40
1.0
100
AcDbArc
 50
110.405932
 51
210.0
  0
ARC
  5
22D
100
AcDbEntity
  8
0
370
    -3
  6
Continuous
100
AcDbCircle
 10
140.137635
 20
-49.913796
 30
0.0
 40
17.0
100
AcDbArc
 50
71.212271
 51
108.787729
  0
LINE
  5
22E
100
AcDbEntity
  8
0
370
    -3
  6
Continuous
100
AcDbLine
 10
131.949559
 20
-30.731632
 30
0.0
 11
133.474477
 21
-33.372867
 31
0.0
  0
ARC
  5
22F
100
AcDbEntity
  8
0
370
    -3
  6
Continuous
100
AcDbCircle
 10
134.340502
 20
-32.872867
 30
0.0
 40
1.0
100
AcDbArc
 50
210.0
 51
288.787729
  0
ARC
  5
230
100
AcDbEntity
  8
0
370
    -3
  6
Continuous
100
AcDbCircle
 10
140.137635
 20
-49.913796
 30
0.0
 40
13.5
100
AcDbArc
 50
76.260205
 51
103.739795
  0
ARC
  5
231
100
AcDbEntity
  8
0
370
    -3
  6
Continuous
100
AcDbCircle
 10
137.168724
 20
-37.771491
 30
0.0
 40
1.0
100
AcDbArc
 50
103.739795
 51
210.0
  0
LINE
  5
232
100
AcDbEntity
  8
0
370
    -3
  6
Continuous
100
AcDbLine
 10
136.302699
 20
-38.271491
 30
0.0
 11
137.886818
 21
-41.015266
 31
0.0
  0
ARC
  5
233
100
AcDbEntity
  8
0
370
    -3
  6
Continuous
100
AcDbCircle
 10
143.106546
 20
-37.771491
 30
0.0
 40
1.0
100
AcDbArc
 50
330.0
 51
76.260205
  0
ARC
  5
234
100
AcDbEntity
  8
0
370
    -3
  6
Continuous
100
AcDbCircle
 10
140.137635
 20
-49.913796
 30
0.0
 40
8.5
100
AcDbArc
 50
81.618272
 51
98.381728
  0
ARC
  5
235
100
AcDbEntity
  8
0
370
    -3
  6
Continuous
100
AcDbCircle
 10
138.752844
 20
-40.515266
 30
0.0
 40
1.0
100
AcDbArc
 50
210.0
 51
278.381728
  0
ARC
  5
236
100
AcDbEntity
  8
0
370
    -3
  6
Continuous
100
AcDbCircle
 10
147.459686
 20
-30.231632
 30
0.0
 40
1.0
100
AcDbArc
 50
330.0
 51
69.594068
  0
LINE
  5
237
100
AcDbEntity
  8
0
370
    -3
  6
Continuous
100
AcDbLine
 10
148.325711
 20
-30.731632
 30
0.0
 11
146.800794
 21
-33.372867
 31
0.0
  0
ARC
  5
238
100
AcDbEntity
  8
0
370
    -3
  6
Continuous
100
AcDbCircle
 10
145.934768
 20
-32.872867
 30
0.0
 40
1.0
100
AcDbArc
 50
251.212271
 51
330.0
  0
LINE
  5
239
100
AcDbEntity
  8
0
370
    -3
  6
Continuous
100
AcDbLine
 10
143.972572
 20
-38.271491
 30
0.0
 11
142.388452
 21
-41.015266
 31
0.0
  0
ARC
  5
23A
100
AcDbEntity
  8
0
370
    -3
  6
Continuous
100
AcDbCircle
 10
141.522427
 20
-40.515266
 30
0.0
 40
1.0
100
AcDbArc
 50
261.618272
 51
330.0
  0
ARC
  5
23B
100
AcDbEntity
  8
0
370
    -3
  6
Continuous
100
AcDbCircle
 10
154.518827
 20
-18.004842
 30
0.0
 40
1.0
100
AcDbArc
 50
245.73917
 51
330.0
  0
LINE
  5
23C
100
AcDbEntity
  8
0
370
    -3
  6
Continuous
100
AcDbLine
 10
156.891808
 20
-15.894717
 30
0.0
 11
155.384852
 21
-18.504842
 31
0.0
  0
ARC
  5
23D
100
AcDbEntity
  8
0
370
    -3
  6
Continuous
100
AcDbCircle
 10
156.025783
 20
-15.394717
 30
0.0
 40
1.0
100
AcDbArc
 50
330.0
 51
65.284733
  0
ARC
  5
23E
100
AcDbEntity
  8
0
370
    -3
  6
Continuous
100
AcDbCircle
 10
150.240472
 20
-25.415169
 30
0.0
 40
1.0
100
AcDbArc
 50
247.589542
 51
330.0
  0
LINE
  5
23F
100
AcDbEntity
  8
0
370
    -3
  6
Continuous
100
AcDbLine
 10
152.61839
 20
-23.296494
 30
0.0
 11
151.106497
 21
-25.915169
 31
0.0
  0
ARC
  5
240
100
AcDbEntity
  8
0
370
    -3
  6
Continuous
100
AcDbCircle
 10
151.752365
 20
-22.796494
 30
0.0
 40
1.0
100
AcDbArc
 50
330.0
 51
66.813854
  0
ARC
  5
241
100
AcDbEntity
  8
0
370
    -3
  6
Continuous
100
AcDbCircle
 10
140.137635
 20
-49.913796
 30
0.0
 40
39.0
100
AcDbArc
 50
5.284733
 51
54.715267
  0
ARC
  5
242
100
AcDbEntity
  8
0
370
    -3
  6
Continuous
100
AcDbCircle
 10
140.137635
 20
-49.913796
 30
0.0
 40
34.0
100
AcDbArc
 50
5.73917
 51
54.26083
  0
ARC
  5
243
100
AcDbEntity
  8
0
370
    -3
  6
Continuous
100
AcDbCircle
 10
140.137635
 20
-49.913796
 30
0.0
 40
25.5
100
AcDbArc
 50
7.589542
 51
52.410458
  0
ARC
  5
244
100
AcDbEntity
  8
0
370
    -3
  6
Continuous
100
AcDbCircle
 10
140.137635
 20
-49.913796
 30
0.0
 40
30.5
100
AcDbArc
 50
6.813854
 51
53.186146
  0
ARC
  5
245
100
AcDbEntity
  8
0
370
    -3
  6
Continuous
100
AcDbCircle
 10
140.137635
 20
-49.913796
 30
0.0
 40
22.0
100
AcDbArc
 50
9.594068
 51
50.405932
  0
ARC
  5
246
100
AcDbEntity
  8
0
370
    -3
  6
Continuous
100
AcDbCircle
 10
140.137635
 20
-49.913796
 30
0.0
 40
17.0
100
AcDbArc
 50
11.212271
 51
48.787729
  0
ARC
  5
247
100
AcDbEntity
  8
0
370
    -3
  6
Continuous
100
AcDbCircle
 10
140.137635
 20
-49.913796
 30
0.0
 40
13.5
100
AcDbArc
 50
16.260205
 51
43.739795
  0
ARC
  5
248
100
AcDbEntity
  8
0
370
    -3
  6
Continuous
100
AcDbCircle
 10
152.137635
 20
-46.413796
 30
0.0
 40
1.0
100
AcDbArc
 50
270.0
 51
16.260205
  0
LINE
  5
249
100
AcDbEntity
  8
0
370
    -3
  6
Continuous
100
AcDbLine
 10
152.137635
 20
-47.413796
 30
0.0
 11
148.969396
 21
-47.413796
 31
0.0
  0
ARC
  5
24A
100
AcDbEntity
  8
0
370
    -3
  6
Continuous
100
AcDbCircle
 10
149.168724
 20
-41.271491
 30
0.0
 40
1.0
100
AcDbArc
 50
43.739795
 51
150.0
  0
ARC
  5
24B
100
AcDbEntity
  8
0
370
    -3
  6
Continuous
100
AcDbCircle
 10
140.137635
 20
-49.913796
 30
0.0
 40
8.5
100
AcDbArc
 50
21.618272
 51
38.381728
  0
ARC
  5
24C
100
AcDbEntity
  8
0
370
    -3
  6
Continuous
100
AcDbCircle
 10
148.969396
 20
-46.413796
 30
0.0
 40
1.0
100
AcDbArc
 50
201.618272
 51
270.0
  0
ARC
  5
24D
100
AcDbEntity
  8
0
370
    -3
  6
Continuous
100
AcDbCircle
 10
153.521864
 20
-33.731632
 30
0.0
 40
1.0
100
AcDbArc
 50
50.405932
 51
150.0
  0
LINE
  5
24E
100
AcDbEntity
  8
0
370
    -3
  6
Continuous
100
AcDbLine
 10
152.655838
 20
-33.231632
 30
0.0
 11
151.130921
 21
-35.872867
 31
0.0
  0
ARC
  5
24F
100
AcDbEntity
  8
0
370
    -3
  6
Continuous
100
AcDbCircle
 10
151.996946
 20
-36.372867
 30
0.0
 40
1.0
100
AcDbArc
 50
150.0
 51
228.787729
  0
LINE
  5
250
100
AcDbEntity
  8
0
370
    -3
  6
Continuous
100
AcDbLine
 10
148.302699
 20
-40.771491
 30
0.0
 11
146.718579
 21
-43.515266
 31
0.0
  0
ARC
  5
251
100
AcDbEntity
  8
0
370
    -3
  6
Continuous
100
AcDbCircle
 10
147.584605
 20
-44.015266
 30
0.0
 40
1.0
100
AcDbArc
 50
150.0
 51
218.381728
  0
ARC
  5
252
100
AcDbEntity
  8
0
370
    -3
  6
Continuous
100
AcDbCircle
 10
160.581004
 20
-21.504842
 30
0.0
 40
1.0
100
AcDbArc
 50
150.0
 51
234.26083
  0
LINE
  5
253
100
AcDbEntity
  8
0
370
    -3
  6
Continuous
100
AcDbLine
 10
161.221935
 20
-18.394717
 30
0.0
 11
159.714979
 21
-21.004842
 31
0.0
  0
ARC
  5
254
100
AcDbEntity
  8
0
370
    -3
  6
Continuous
100
AcDbCircle
 10
162.087961
 20
-18.894717
 30
0.0
 40
1.0
100
AcDbArc
 50
54.715267
 51
150.0
  0
ARC
  5
255
100
AcDbEntity
  8
0
370
    -3
  6
Continuous
100
AcDbCircle
 10
156.30265
 20
-28.915169
 30
0.0
 40
1.0
100
AcDbArc
 50
150.0
 51
232.410458
  0
LINE
  5
256
100
AcDbEntity
  8
0
370
    -3
  6
Continuous
100
AcDbLine
 10
156.948517
 20
-25.796494
 30
0.0
 11
155.436624
 21
-28.415169
 31
0.0
  0
ARC
  5
257
100
AcDbEntity
  8
0
370
    -3
  6
Continuous
100
AcDbCircle
 10
157.814543
 20
-26.296494
 30
0.0
 40
1.0
100
AcDbArc
 50
53.186146
 51
150.0
  0
ARC
  5
258
100
AcDbEntity
  8
0
370
    -3
  6
Continuous
100
AcDbCircle
 10
177.976108
 20
-46.413796
 30
0.0
 40
1.0
100
AcDbArc
 50
270.0
 51
5.284733
  0
LINE
  5
259
100
AcDbEntity
  8
0
370
    -3
  6
Continuous
100
AcDbLine
 10
177.976108
 20
-47.413796
 30
0.0
 11
174.962196
 21
-47.413796
 31
0.0
  0
ARC
  5
25A
100
AcDbEntity
  8
0
370
    -3
  6
Continuous
100
AcDbCircle
 10
174.962196
 20
-46.413796
 30
0.0
 40
1.0
100
AcDbArc
 50
185.73917
 51
270.0
  0
ARC
  5
25B
100
AcDbEntity
  8
0
370
    -3
  6
Continuous
100
AcDbCircle
 10
169.429272
 20
-46.413796
 30
0.0
 40
1.0
100
AcDbArc
 50
270.0
 51
6.813854
  0
LINE
  5
25C
100
AcDbEntity
  8
0
370
    -3
  6
Continuous
100
AcDbLine
 10
169.429272
 20
-47.413796
 30
0.0
 11
166.405486
 21
-47.413796
 31
0.0
  0
ARC
  5
25D
100
AcDbEntity
  8
0
370
    -3
  6
Continuous
100
AcDbCircle
 10
166.405486
 20
-46.413796
 30
0.0
 40
1.0
100
AcDbArc
 50
187.589542
 51
270.0
  0
ARC
  5
25E
100
AcDbEntity
  8
0
370
    -3
  6
Continuous
100
AcDbCircle
 10
160.843915
 20
-46.413796
 30
0.0
 40
1.0
100
AcDbArc
 50
270.0
 51
9.594068
  0
LINE
  5
25F
100
AcDbEntity
  8
0
370
    -3
  6
Continuous
100
AcDbLine
 10
160.843915
 20
-47.413796
 30
0.0
 11
157.794079
 21
-47.413796
 31
0.0
  0
ARC
  5
260
100
AcDbEntity
  8
0
370
    -3
  6
Continuous
100
AcDbCircle
 10
157.794079
 20
-46.413796
 30
0.0
 40
1.0
100
AcDbArc
 50
191.212271
 51
270.0
  0
ARC
  5
261
100
AcDbEntity
  8
0
370
    -3
  6
Continuous
100
AcDbCircle
 10
486.737635
 20
-49.913796
 30
0.0
 40
390.797
100
AcDbArc
 50
175.470807
 51
180.0
  0
ARC
  5
262
100
AcDbEntity
  8
0
370
    -3
  6
Continuous
100
AcDbCircle
 10
107.924683
 20
-19.901352
 30
0.0
 40
10.797
100
AcDbArc
 50
135.0
 51
175.470055
  0
LINE
  5
263
100
AcDbEntity
  8
0
370
    -3
  6
Continuous
100
AcDbLine
 10
102.468796
 20
-10.087974
 30
0.0
 11
100.290051
 21
-12.26672
 31
0.0
  0
ARC
  5
264
100
AcDbEntity
  8
0
370
    -3
  6
Continuous
100
AcDbCircle
 10
124.245564
 20
-31.864742
 30
0.0
 40
30.797
100
AcDbArc
 50
92.530124
 51
135.0
  0
ARC
  5
265
100
AcDbEntity
  8
0
370
    -3
  6
Continuous
100
AcDbCircle
 10
140.137635
 20
-391.513796
 30
0.0
 40
390.797
100
AcDbArc
 50
90.0
 51
92.529361
  0
ARC
  5
266
100
AcDbEntity
  8
0
370
    -3
  6
Continuous
100
AcDbCircle
 10
140.137635
 20
-391.513796
 30
0.0
 40
390.797
100
AcDbArc
 50
87.470639
 51
90.0
  0
ARC
  5
267
100
AcDbEntity
  8
0
370
    -3
  6
Continuous
100
AcDbCircle
 10
156.029707
 20
-31.864742
 30
0.0
 40
30.797
100
AcDbArc
 50
45.0
 51
87.469876
  0
LINE
  5
268
100
AcDbEntity
  8
0
370
    -3
  6
Continuous
100
AcDbLine
 10
177.806474
 20
-10.087974
 30
0.0
 11
179.98522
 21
-12.26672
 31
0.0
  0
ARC
  5
269
100
AcDbEntity
  8
0
370
    -3
  6
Continuous
100
AcDbCircle
 10
172.350588
 20
-19.901352
 30
0.0
 40
10.797
100
AcDbArc
 50
4.529945
 51
45.0
  0
ARC
  5
26A
100
AcDbEntity
  8
0
370
    -3
  6
Continuous
100
AcDbCircle
 10
-206.462365
 20
-49.913796
 30
0.0
 40
390.797
100
AcDbArc
 50
0.0
 51
4.529193
  0
LINE
  5
26B
100
AcDbEntity
  8
0
370
    -3
  6
Continuous
100
AcDbLine
 10
102.468796
 20
-89.739617
 30
0.0
 11
100.290051
 21
-87.560871
 31
0.0
  0
ARC
  5
26C
100
AcDbEntity
  8
0
370
    -3
  6
Continuous
100
AcDbCircle
 10
107.924683
 20
-79.92624
 30
0.0
 40
10.797
100
AcDbArc
 50
184.529945
 51
225.0
  0
ARC
  5
26D
100
AcDbEntity
  8
0
370
    -3
  6
Continuous
100
AcDbCircle
 10
486.737635
 20
-49.913796
 30
0.0
 40
390.797
100
AcDbArc
 50
180.0
 51
184.529193
  0
ARC
  5
26E
100
AcDbEntity
  8
0
370
    -3
  6
Continuous
100
AcDbCircle
 10
105.313075
 20
-53.413796
 30
0.0
 40
1.0
100
AcDbArc
 50
5.73917
 51
90.0
  0
ARC
  5
26F
100
AcDbEntity
  8
0
370
    -3
  6
Continuous
100
AcDbCircle
 10
102.299163
 20
-53.413796
 30
0.0
 40
1.0
100
AcDbArc
 50
90.0
 51
185.284733
  0
ARC
  5
270
100
AcDbEntity
  8
0
370
    -3
  6
Continuous
100
AcDbCircle
 10
110.845998
 20
-53.413796
 30
0.0
 40
1.0
100
AcDbArc
 50
90.0
 51
186.813854
  0
LINE
  5
271
100
AcDbEntity
  8
0
370
    -3
  6
Continuous
100
AcDbLine
 10
102.299163
 20
-52.413796
 30
0.0
 11
105.313075
 21
-52.413796
 31
0.0
  0
ARC
  5
272
100
AcDbEntity
  8
0
370
    -3
  6
Continuous
100
AcDbCircle
 10
124.245564
 20
-67.96285
 30
0.0
 40
30.797
100
AcDbArc
 50
225.0
 51
267.469876
  0
ARC
  5
273
100
AcDbEntity
  8
0
370
    -3
  6
Continuous
100
AcDbCircle
 10
134.340502
 20
-66.954724
 30
0.0
 40
1.0
100
AcDbArc
 50
71.212271
 51
150.0
  0
LINE
  5
274
100
AcDbEntity
  8
0
370
    -3
  6
Continuous
100
AcDbLine
 10
131.949559
 20
-69.095959
 30
0.0
 11
133.474477
 21
-66.454724
 31
0.0
  0
ARC
  5
275
100
AcDbEntity
  8
0
370
    -3
  6
Continuous
100
AcDbCircle
 10
132.815585
 20
-69.595959
 30
0.0
 40
1.0
100
AcDbArc
 50
150.0
 51
249.594068
  0
ARC
  5
276
100
AcDbEntity
  8
0
370
    -3
  6
Continuous
100
AcDbCircle
 10
130.034799
 20
-74.412422
 30
0.0
 40
1.0
100
AcDbArc
 50
67.589542
 51
150.0
  0
ARC
  5
277
100
AcDbEntity
  8
0
370
    -3
  6
Continuous
100
AcDbCircle
 10
125.756444
 20
-81.82275
 30
0.0
 40
1.0
100
AcDbArc
 50
65.73917
 51
150.0
  0
LINE
  5
278
100
AcDbEntity
  8
0
370
    -3
  6
Continuous
100
AcDbLine
 10
127.65688
 20
-76.531097
 30
0.0
 11
129.168773
 21
-73.912422
 31
0.0
  0
ARC
  5
279
100
AcDbEntity
  8
0
370
    -3
  6
Continuous
100
AcDbCircle
 10
128.522906
 20
-77.031097
 30
0.0
 40
1.0
100
AcDbArc
 50
150.0
 51
246.813854
  0
LINE
  5
27A
100
AcDbEntity
  8
0
370
    -3
  6
Continuous
100
AcDbLine
 10
123.383463
 20
-83.932874
 30
0.0
 11
124.890419
 21
-81.32275
 31
0.0
  0
ARC
  5
27B
100
AcDbEntity
  8
0
370
    -3
  6
Continuous
100
AcDbCircle
 10
124.249488
 20
-84.432874
 30
0.0
 40
1.0
100
AcDbArc
 50
150.0
 51
245.284733
  0
ARC
  5
27C
100
AcDbEntity
  8
0
370
    -3
  6
Continuous
100
AcDbCircle
 10
118.18731
 20
-80.932874
 30
0.0
 40
1.0
100
AcDbArc
 50
234.715267
 51
330.0
  0
ARC
  5
27D
100
AcDbEntity
  8
0
370
    -3
  6
Continuous
100
AcDbCircle
 10
119.694266
 20
-78.32275
 30
0.0
 40
1.0
100
AcDbArc
 50
330.0
 51
54.26083
  0
ARC
  5
27E
100
AcDbEntity
  8
0
370
    -3
  6
Continuous
100
AcDbCircle
 10
113.869784
 20
-53.413796
 30
0.0
 40
1.0
100
AcDbArc
 50
7.589542
 51
90.0
  0
ARC
  5
27F
100
AcDbEntity
  8
0
370
    -3
  6
Continuous
100
AcDbCircle
 10
122.460728
 20
-73.531097
 30
0.0
 40
1.0
100
AcDbArc
 50
233.186146
 51
330.0
  0
ARC
  5
280
100
AcDbEntity
  8
0
370
    -3
  6
Continuous
100
AcDbCircle
 10
123.972621
 20
-70.912422
 30
0.0
 40
1.0
100
AcDbArc
 50
330.0
 51
52.410458
  0
ARC
  5
281
100
AcDbEntity
  8
0
370
    -3
  6
Continuous
100
AcDbCircle
 10
119.431356
 20
-53.413796
 30
0.0
 40
1.0
100
AcDbArc
 50
90.0
 51
189.594068
  0
ARC
  5
282
100
AcDbEntity
  8
0
370
    -3
  6
Continuous
100
AcDbCircle
 10
122.481192
 20
-53.413796
 30
0.0
 40
1.0
100
AcDbArc
 50
11.212271
 51
90.0
  0
ARC
  5
283
100
AcDbEntity
  8
0
370
    -3
  6
Continuous
100
AcDbCircle
 10
126.753407
 20
-66.095959
 30
0.0
 40
1.0
100
AcDbArc
 50
230.405932
 51
330.0
  0
ARC
  5
284
100
AcDbEntity
  8
0
370
    -3
  6
Continuous
100
AcDbCircle
 10
128.278325
 20
-63.454724
 30
0.0
 40
1.0
100
AcDbArc
 50
330.0
 51
48.787729
  0
ARC
  5
285
100
AcDbEntity
  8
0
370
    -3
  6
Continuous
100
AcDbCircle
 10
131.106546
 20
-58.5561
 30
0.0
 40
1.0
100
AcDbArc
 50
223.739795
 51
330.0
  0
ARC
  5
286
100
AcDbEntity
  8
0
370
    -3
  6
Continuous
100
AcDbCircle
 10
128.137635
 20
-53.413796
 30
0.0
 40
1.0
100
AcDbArc
 50
90.0
 51
196.260205
  0
ARC
  5
287
100
AcDbEntity
  8
0
370
    -3
  6
Continuous
100
AcDbCircle
 10
131.305874
 20
-53.413796
 30
0.0
 40
1.0
100
AcDbArc
 50
21.618272
 51
90.0
  0
ARC
  5
288
100
AcDbEntity
  8
0
370
    -3
  6
Continuous
100
AcDbCircle
 10
132.690666
 20
-55.812325
 30
0.0
 40
1.0
100
AcDbArc
 50
330.0
 51
38.381728
  0
ARC
  5
289
100
AcDbEntity
  8
0
370
    -3
  6
Continuous
100
AcDbCircle
 10
140.137635
 20
-49.913796
 30
0.0
 40
39.0
100
AcDbArc
 50
185.284733
 51
234.715267
  0
ARC
  5
28A
100
AcDbEntity
  8
0
370
    -3
  6
Continuous
100
AcDbCircle
 10
140.137635
 20
-49.913796
 30
0.0
 40
30.5
100
AcDbArc
 50
186.813854
 51
233.186146
  0
ARC
  5
28B
100
AcDbEntity
  8
0
370
    -3
  6
Continuous
100
AcDbCircle
 10
140.137635
 20
-49.913796
 30
0.0
 40
34.0
100
AcDbArc
 50
185.73917
 51
234.26083
  0
ARC
  5
28C
100
AcDbEntity
  8
0
370
    -3
  6
Continuous
100
AcDbCircle
 10
140.137635
 20
-49.913796
 30
0.0
 40
25.5
100
AcDbArc
 50
187.589542
 51
232.410458
  0
ARC
  5
28D
100
AcDbEntity
  8
0
370
    -3
  6
Continuous
100
AcDbCircle
 10
140.137635
 20
-49.913796
 30
0.0
 40
22.0
100
AcDbArc
 50
189.594068
 51
230.405932
  0
ARC
  5
28E
100
AcDbEntity
  8
0
370
    -3
  6
Continuous
100
AcDbCircle
 10
140.137635
 20
-49.913796
 30
0.0
 40
17.0
100
AcDbArc
 50
191.212271
 51
228.787729
  0
ARC
  5
28F
100
AcDbEntity
  8
0
370
    -3
  6
Continuous
100
AcDbCircle
 10
140.137635
 20
-49.913796
 30
0.0
 40
13.5
100
AcDbArc
 50
196.260205
 51
223.739795
  0
ARC
  5
290
100
AcDbEntity
  8
0
370
    -3
  6
Continuous
100
AcDbCircle
 10
140.137635
 20
-49.913796
 30
0.0
 40
8.5
100
AcDbArc
 50
201.618272
 51
218.381728
  0
LINE
  5
291
100
AcDbEntity
  8
0
370
    -3
  6
Continuous
100
AcDbLine
 10
123.326753
 20
-74.031097
 30
0.0
 11
124.838646
 21
-71.412422
 31
0.0
  0
LINE
  5
292
100
AcDbEntity
  8
0
370
    -3
  6
Continuous
100
AcDbLine
 10
119.053336
 20
-81.432874
 30
0.0
 11
120.560292
 21
-78.82275
 31
0.0
  0
LINE
  5
293
100
AcDbEntity
  8
0
370
    -3
  6
Continuous
100
AcDbLine
 10
127.619432
 20
-66.595959
 30
0.0
 11
129.14435
 21
-63.954724
 31
0.0
  0
LINE
  5
294
100
AcDbEntity
  8
0
370
    -3
  6
Continuous
100
AcDbLine
 10
131.972572
 20
-59.0561
 30
0.0
 11
133.556691
 21
-56.312325
 31
0.0
  0
LINE
  5
295
100
AcDbEntity
  8
0
370
    -3
  6
Continuous
100
AcDbLine
 10
128.137635
 20
-52.413796
 30
0.0
 11
131.305874
 21
-52.413796
 31
0.0
  0
LINE
  5
296
100
AcDbEntity
  8
0
370
    -3
  6
Continuous
100
AcDbLine
 10
119.431356
 20
-52.413796
 30
0.0
 11
122.481192
 21
-52.413796
 31
0.0
  0
LINE
  5
297
100
AcDbEntity
  8
0
370
    -3
  6
Continuous
100
AcDbLine
 10
110.845998
 20
-52.413796
 30
0.0
 11
113.869784
 21
-52.413796
 31
0.0
  0
ARC
  5
298
100
AcDbEntity
  8
0
370
    -3
  6
Continuous
100
AcDbCircle
 10
156.029707
 20
-67.96285
 30
0.0
 40
30.797
100
AcDbArc
 50
272.530124
 51
315.0
  0
ARC
  5
299
100
AcDbEntity
  8
0
370
    -3
  6
Continuous
100
AcDbCircle
 10
140.137635
 20
291.686204
 30
0.0
 40
390.797
100
AcDbArc
 50
270.0
 51
272.529361
  0
ARC
  5
29A
100
AcDbEntity
  8
0
370
    -3
  6
Continuous
100
AcDbCircle
 10
140.137635
 20
291.686204
 30
0.0
 40
390.797
100
AcDbArc
 50
267.470639
 51
270.0
  0
ARC
  5
29B
100
AcDbEntity
  8
0
370
    -3
  6
Continuous
100
AcDbCircle
 10
138.752844
 20
-59.312325
 30
0.0
 40
1.0
100
AcDbArc
 50
81.618272
 51
150.0
  0
ARC
  5
29C
100
AcDbEntity
  8
0
370
    -3
  6
Continuous
100
AcDbCircle
 10
140.137635
 20
-49.913796
 30
0.0
 40
8.5
100
AcDbArc
 50
261.618272
 51
278.381728
  0
LINE
  5
29D
100
AcDbEntity
  8
0
370
    -3
  6
Continuous
100
AcDbLine
 10
136.302699
 20
-61.5561
 30
0.0
 11
137.886818
 21
-58.812325
 31
0.0
  0
ARC
  5
29E
100
AcDbEntity
  8
0
370
    -3
  6
Continuous
100
AcDbCircle
 10
137.168724
 20
-62.0561
 30
0.0
 40
1.0
100
AcDbArc
 50
150.0
 51
256.260205
  0
ARC
  5
29F
100
AcDbEntity
  8
0
370
    -3
  6
Continuous
100
AcDbCircle
 10
-206.462365
 20
-49.913796
 30
0.0
 40
390.797
100
AcDbArc
 50
355.470807
 51
0.0
  0
ARC
  5
2A0
100
AcDbEntity
  8
0
370
    -3
  6
Continuous
100
AcDbCircle
 10
172.350588
 20
-79.92624
 30
0.0
 40
10.797
100
AcDbArc
 50
315.0
 51
355.470055
  0
LINE
  5
2A1
100
AcDbEntity
  8
0
370
    -3
  6
Continuous
100
AcDbLine
 10
177.806474
 20
-89.739617
 30
0.0
 11
179.98522
 21
-87.560871
 31
0.0
  0
ARC
  5
2A2
100
AcDbEntity
  8
0
370
    -3
  6
Continuous
100
AcDbCircle
 10
157.794079
 20
-53.413796
 30
0.0
 40
1.0
100
AcDbArc
 50
90.0
 51
168.787729
  0
LINE
  5
2A3
100
AcDbEntity
  8
0
370
    -3
  6
Continuous
100
AcDbLine
 10
160.843915
 20
-52.413796
 30
0.0
 11
157.794079
 21
-52.413796
 31
0.0
  0
ARC
  5
2A4
100
AcDbEntity
  8
0
370
    -3
  6
Continuous
100
AcDbCircle
 10
160.843915
 20
-53.413796
 30
0.0
 40
1.0
100
AcDbArc
 50
350.405932
 51
90.0
  0
ARC
  5
2A5
100
AcDbEntity
  8
0
370
    -3
  6
Continuous
100
AcDbCircle
 10
166.405486
 20
-53.413796
 30
0.0
 40
1.0
100
AcDbArc
 50
90.0
 51
172.410458
  0
LINE
  5
2A6
100
AcDbEntity
  8
0
370
    -3
  6
Continuous
100
AcDbLine
 10
169.429272
 20
-52.413796
 30
0.0
 11
166.405486
 21
-52.413796
 31
0.0
  0
ARC
  5
2A7
100
AcDbEntity
  8
0
370
    -3
  6
Continuous
100
AcDbCircle
 10
169.429272
 20
-53.413796
 30
0.0
 40
1.0
100
AcDbArc
 50
353.186146
 51
90.0
  0
ARC
  5
2A8
100
AcDbEntity
  8
0
370
    -3
  6
Continuous
100
AcDbCircle
 10
174.962196
 20
-53.413796
 30
0.0
 40
1.0
100
AcDbArc
 50
90.0
 51
174.26083
  0
LINE
  5
2A9
100
AcDbEntity
  8
0
370
    -3
  6
Continuous
100
AcDbLine
 10
177.976108
 20
-52.413796
 30
0.0
 11
174.962196
 21
-52.413796
 31
0.0
  0
ARC
  5
2AA
100
AcDbEntity
  8
0
370
    -3
  6
Continuous
100
AcDbCircle
 10
177.976108
 20
-53.413796
 30
0.0
 40
1.0
100
AcDbArc
 50
354.715267
 51
90.0
  0
ARC
  5
2AB
100
AcDbEntity
  8
0
370
    -3
  6
Continuous
100
AcDbCircle
 10
157.814543
 20
-73.531097
 30
0.0
 40
1.0
100
AcDbArc
 50
210.0
 51
306.813854
  0
LINE
  5
2AC
100
AcDbEntity
  8
0
370
    -3
  6
Continuous
100
AcDbLine
 10
156.948517
 20
-74.031097
 30
0.0
 11
155.436624
 21
-71.412422
 31
0.0
  0
ARC
  5
2AD
100
AcDbEntity
  8
0
370
    -3
  6
Continuous
100
AcDbCircle
 10
156.30265
 20
-70.912422
 30
0.0
 40
1.0
100
AcDbArc
 50
127.589542
 51
210.0
  0
ARC
  5
2AE
100
AcDbEntity
  8
0
370
    -3
  6
Continuous
100
AcDbCircle
 10
162.087961
 20
-80.932874
 30
0.0
 40
1.0
100
AcDbArc
 50
210.0
 51
305.284733
  0
LINE
  5
2AF
100
AcDbEntity
  8
0
370
    -3
  6
Continuous
100
AcDbLine
 10
161.221935
 20
-81.432874
 30
0.0
 11
159.714979
 21
-78.82275
 31
0.0
  0
ARC
  5
2B0
100
AcDbEntity
  8
0
370
    -3
  6
Continuous
100
AcDbCircle
 10
160.581004
 20
-78.32275
 30
0.0
 40
1.0
100
AcDbArc
 50
125.73917
 51
210.0
  0
ARC
  5
2B1
100
AcDbEntity
  8
0
370
    -3
  6
Continuous
100
AcDbCircle
 10
147.584605
 20
-55.812325
 30
0.0
 40
1.0
100
AcDbArc
 50
141.618272
 51
210.0
  0
LINE
  5
2B2
100
AcDbEntity
  8
0
370
    -3
  6
Continuous
100
AcDbLine
 10
148.302699
 20
-59.0561
 30
0.0
 11
146.718579
 21
-56.312325
 31
0.0
  0
ARC
  5
2B3
100
AcDbEntity
  8
0
370
    -3
  6
Continuous
100
AcDbCircle
 10
151.996946
 20
-63.454724
 30
0.0
 40
1.0
100
AcDbArc
 50
131.212271
 51
210.0
  0
LINE
  5
2B4
100
AcDbEntity
  8
0
370
    -3
  6
Continuous
100
AcDbLine
 10
152.655838
 20
-66.595959
 30
0.0
 11
151.130921
 21
-63.954724
 31
0.0
  0
ARC
  5
2B5
100
AcDbEntity
  8
0
370
    -3
  6
Continuous
100
AcDbCircle
 10
153.521864
 20
-66.095959
 30
0.0
 40
1.0
100
AcDbArc
 50
210.0
 51
309.594068
  0
ARC
  5
2B6
100
AcDbEntity
  8
0
370
    -3
  6
Continuous
100
AcDbCircle
 10
148.969396
 20
-53.413796
 30
0.0
 40
1.0
100
AcDbArc
 50
90.0
 51
158.381728
  0
ARC
  5
2B7
100
AcDbEntity
  8
0
370
    -3
  6
Continuous
100
AcDbCircle
 10
140.137635
 20
-49.913796
 30
0.0
 40
8.5
100
AcDbArc
 50
321.618272
 51
338.381728
  0
ARC
  5
2B8
100
AcDbEntity
  8
0
370
    -3
  6
Continuous
100
AcDbCircle
 10
149.168724
 20
-58.5561
 30
0.0
 40
1.0
100
AcDbArc
 50
210.0
 51
316.260205
  0
LINE
  5
2B9
100
AcDbEntity
  8
0
370
    -3
  6
Continuous
100
AcDbLine
 10
152.137635
 20
-52.413796
 30
0.0
 11
148.969396
 21
-52.413796
 31
0.0
  0
ARC
  5
2BA
100
AcDbEntity
  8
0
370
    -3
  6
Continuous
100
AcDbCircle
 10
152.137635
 20
-53.413796
 30
0.0
 40
1.0
100
AcDbArc
 50
343.739795
 51
90.0
  0
ARC
  5
2BB
100
AcDbEntity
  8
0
370
    -3
  6
Continuous
100
AcDbCircle
 10
140.137635
 20
-49.913796
 30
0.0
 40
13.5
100
AcDbArc
 50
316.260205
 51
343.739795
  0
ARC
  5
2BC
100
AcDbEntity
  8
0
370
    -3
  6
Continuous
100
AcDbCircle
 10
140.137635
 20
-49.913796
 30
0.0
 40
17.0
100
AcDbArc
 50
311.212271
 51
348.787729
  0
ARC
  5
2BD
100
AcDbEntity
  8
0
370
    -3
  6
Continuous
100
AcDbCircle
 10
140.137635
 20
-49.913796
 30
0.0
 40
22.0
100
AcDbArc
 50
309.594068
 51
350.405932
  0
ARC
  5
2BE
100
AcDbEntity
  8
0
370
    -3
  6
Continuous
100
AcDbCircle
 10
140.137635
 20
-49.913796
 30
0.0
 40
30.5
100
AcDbArc
 50
306.813854
 51
353.186146
  0
ARC
  5
2BF
100
AcDbEntity
  8
0
370
    -3
  6
Continuous
100
AcDbCircle
 10
140.137635
 20
-49.913796
 30
0.0
 40
25.5
100
AcDbArc
 50
307.589542
 51
352.410458
  0
ARC
  5
2C0
100
AcDbEntity
  8
0
370
    -3
  6
Continuous
100
AcDbCircle
 10
140.137635
 20
-49.913796
 30
0.0
 40
34.0
100
AcDbArc
 50
305.73917
 51
354.26083
  0
ARC
  5
2C1
100
AcDbEntity
  8
0
370
    -3
  6
Continuous
100
AcDbCircle
 10
140.137635
 20
-49.913796
 30
0.0
 40
39.0
100
AcDbArc
 50
305.284733
 51
354.715267
  0
ARC
  5
2C2
100
AcDbEntity
  8
0
370
    -3
  6
Continuous
100
AcDbCircle
 10
151.752365
 20
-77.031097
 30
0.0
 40
1.0
100
AcDbArc
 50
293.186146
 51
30.0
  0
LINE
  5
2C3
100
AcDbEntity
  8
0
370
    -3
  6
Continuous
100
AcDbLine
 10
152.61839
 20
-76.531097
 30
0.0
 11
151.106497
 21
-73.912422
 31
0.0
  0
ARC
  5
2C4
100
AcDbEntity
  8
0
370
    -3
  6
Continuous
100
AcDbCircle
 10
140.137635
 20
-391.513796
 30
0.0
 40
400.6
100
AcDbArc
 50
87.470639
 51
90.0
  0
ARC
  5
2C5
100
AcDbEntity
  8
0
370
    -3
  6
Continuous
100
AcDbCircle
 10
140.137635
 20
-391.513796
 30
0.0
 40
400.6
100
AcDbArc
 50
90.0
 51
92.529361
  0
LINE
  5
2C6
100
AcDbEntity
  8
0
370
    -3
  6
Continuous
100
AcDbLine
 10
102.637636
 20
2.507594
 30
0.0
 11
102.637636
 21
19.841728
 31
0.0
  0
LINE
  5
2C7
100
AcDbEntity
  8
0
370
    -3
  6
Continuous
100
AcDbLine
 10
99.637569
 20
0.427774
 30
0.0
 11
99.637569
 21
19.252349
 31
0.0
  0
ARC
  5
2C8
100
AcDbEntity
  8
0
370
    -3
  6
Continuous
100
AcDbCircle
 10
102.637569
 20
19.252349
 30
0.0
 40
3.0
100
AcDbArc
 50
166.145113
 51
180.0
  0
ARC
  5
2C9
100
AcDbEntity
  8
0
370
    -3
  6
Continuous
100
AcDbCircle
 10
-357.870793
 20
-27.747651
 30
0.0
 40
11.0
100
AcDbArc
 50
105.82662
 51
74.17338
  0
LINE
  5
2CA
100
AcDbEntity
  8
0
370
    -3
  6
Continuous
100
AcDbLine
 10
-354.870793
 20
-14.247651
 30
0.0
 11
-354.870793
 21
-20.247651
 31
0.0
  0
LINE
  5
2CB
100
AcDbEntity
  8
0
370
    -3
  6
Continuous
100
AcDbLine
 10
-360.870793
 20
-14.247651
 30
0.0
 11
-360.870793
 21
-20.247651
 31
0.0
  0
LINE
  5
2CC
100
AcDbEntity
  8
0
370
    -3
  6
Continuous
100
AcDbLine
 10
-360.870793
 20
-14.247651
 30
0.0
 11
-354.870793
 21
-14.247651
 31
0.0
  0
LINE
  5
2CD
100
AcDbEntity
  8
0
370
    -3
  6
Continuous
100
AcDbLine
 10
-360.870793
 20
-20.247651
 30
0.0
 11
-354.870793
 21
-20.247651
 31
0.0
  0
LINE
  5
2CE
100
AcDbEntity
  8
0
370
    -3
  6
CENTER
100
AcDbLine
 10
-357.870793
 20
-11.159554
 30
0.0
 11
-357.870793
 21
-41.836043
 31
0.0
  0
LINE
  5
2CF
100
AcDbEntity
  8
0
370
    -3
  6
CENTER
100
AcDbLine
 10
-371.827226
 20
-27.747651
 30
0.0
 11
-343.216494
 21
-27.747651
 31
0.0
  0
CIRCLE
  5
2D0
100
AcDbEntity
  8
0
370
    -3
  6
Continuous
100
AcDbCircle
 10
-357.870793
 20
-27.747651
 30
0.0
 40
4.0
  0
CIRCLE
  5
2D1
100
AcDbEntity
  8
0
370
    -3
  6
Continuous
100
AcDbCircle
 10
-357.870793
 20
-27.747651
 30
0.0
 40
3.5
  0
ARC
  5
2D2
100
AcDbEntity
  8
0
370
    -3
  6
Continuous
100
AcDbCircle
 10
-868.370811
 20
-69.913796
 30
0.0
 40
400.0
100
AcDbArc
 50
358.568016
 51
359.92847
  0
ARC
  5
2D3
100
AcDbEntity
  8
0
370
    -3
  6
Continuous
100
AcDbCircle
 10
-467.870811
 20
-70.413796
 30
0.0
 40
0.5
100
AcDbArc
 50
90.0
 51
180.0
  0
ARC
  5
2D4
100
AcDbEntity
  8
0
370
    -3
  6
Continuous
100
AcDbCircle
 10
-467.870811
 20
-69.413796
 30
0.0
 40
0.5
100
AcDbArc
 50
270.0
 51
0.0
  0
LINE
  5
2D5
100
AcDbEntity
  8
0
370
    -3
  6
Continuous
100
AcDbLine
 10
-467.370811
 20
-69.413796
 30
0.0
 11
-467.370811
 21
-60.541122
 31
0.0
  0
ARC
  5
2D6
100
AcDbEntity
  8
0
370
    -3
  6
Continuous
100
AcDbCircle
 10
-493.370811
 20
-77.413796
 30
0.0
 40
25.0
100
AcDbArc
 50
293.578178
 51
354.269825
  0
ARC
  5
2D7
100
AcDbEntity
  8
0
370
    -3
  6
Continuous
100
AcDbCircle
 10
-475.448864
 20
-89.344663
 30
0.0
 40
6.6
100
AcDbArc
 50
315.0
 51
354.256318
  0
ARC
  5
2D8
100
AcDbEntity
  8
0
370
    -3
  6
Continuous
100
AcDbCircle
 10
-867.470811
 20
-49.913796
 30
0.0
 40
400.6
100
AcDbArc
 50
354.256318
 51
358.488949
  0
ARC
  5
2D9
100
AcDbEntity
  8
0
370
    -3
  6
Continuous
100
AcDbCircle
 10
-492.807054
 20
-86.903863
 30
0.0
 40
20.6
100
AcDbArc
 50
297.262642
 51
315.0
  0
LINE
  5
2DA
100
AcDbEntity
  8
0
370
    -3
  6
Continuous
100
AcDbLine
 10
-478.240655
 20
-101.470263
 30
0.0
 11
-470.78196
 21
-94.011568
 31
0.0
  0
ARC
  5
2DB
100
AcDbEntity
  8
0
370
    -3
  6
Continuous
100
AcDbCircle
 10
-548.370811
 20
-77.413796
 30
0.0
 40
25.0
100
AcDbArc
 50
176.56135
 51
240.0
  0
ARC
  5
2DC
100
AcDbEntity
  8
0
370
    -3
  6
Continuous
100
AcDbCircle
 10
-174.270811
 20
-49.913796
 30
0.0
 40
400.6
100
AcDbArc
 50
181.511052
 51
185.743682
  0
ARC
  5
2DD
100
AcDbEntity
  8
0
370
    -3
  6
Continuous
100
AcDbCircle
 10
-566.292758
 20
-89.344663
 30
0.0
 40
6.6
100
AcDbArc
 50
185.743682
 51
225.0
  0
ARC
  5
2DE
100
AcDbEntity
  8
0
370
    -3
  6
Continuous
100
AcDbCircle
 10
-548.934568
 20
-86.903863
 30
0.0
 40
20.6
100
AcDbArc
 50
225.0
 51
234.589588
  0
LINE
  5
2DF
100
AcDbEntity
  8
0
370
    -3
  6
Continuous
100
AcDbLine
 10
-563.500967
 20
-101.470263
 30
0.0
 11
-570.959663
 21
-94.011568
 31
0.0
  0
ARC
  5
2E0
100
AcDbEntity
  8
0
370
    -3
  6
Continuous
100
AcDbCircle
 10
-173.370811
 20
-69.913796
 30
0.0
 40
400.0
100
AcDbArc
 50
180.07153
 51
180.859541
  0
ARC
  5
2E1
100
AcDbEntity
  8
0
370
    -3
  6
Continuous
100
AcDbCircle
 10
-573.870811
 20
-70.413796
 30
0.0
 40
0.5
100
AcDbArc
 50
0.0
 51
90.0
  0
ARC
  5
2E2
100
AcDbEntity
  8
0
370
    -3
  6
Continuous
100
AcDbCircle
 10
-573.870811
 20
-69.413796
 30
0.0
 40
0.5
100
AcDbArc
 50
180.0
 51
270.0
  0
LINE
  5
2E3
100
AcDbEntity
  8
0
370
    -3
  6
Continuous
100
AcDbLine
 10
-574.370811
 20
-60.541125
 30
0.0
 11
-574.370811
 21
-69.413796
 31
0.0
  0
MTEXT
  5
2E4
100
AcDbEntity
  8
0
370
    -3
  6
Continuous
100
AcDbMText
 10
-597.363586
 20
162.588486
 30
0.0
 40
15.0
 41
0.0
 71
     7
 72
     1
  1
\W0.42;GEAR\W0.70; \W0.42;RATIO\W0.70;  \W0.42;1/5-1/240
  7
ZU_SHPTB00001
 11
1.0
 21
0.0
 31
0.0
 73
     1
 44
1.0
  0
MTEXT
  5
2E5
100
AcDbEntity
  8
0
370
    -3
  6
Continuous
100
AcDbMText
 10
-597.363586
 20
179.538498
 30
0.0
 40
15.0
 41
0.0
 71
     7
 72
     1
  1
\W0.43;600-12.5r/min\W0.53;　
  7
ZU_SHPTB00001
 11
1.0
 21
0.0
 31
0.0
 73
     1
 44
1.0
  0
MTEXT
  5
2E6
100
AcDbEntity
  8
0
370
    -3
  6
Continuous
100
AcDbMText
 10
-597.363586
 20
213.438492
 30
0.0
 40
15.0
 41
0.0
 71
     7
 72
     1
  1
\W0.48;GV-SHYB-RL
  7
ZU_SHPTB00001
 11
1.0
 21
0.0
 31
0.0
 73
     1
 44
1.0
  0
MTEXT
  5
2E7
100
AcDbEntity
  8
0
370
    -3
  6
Continuous
100
AcDbMText
 10
-597.363586
 20
145.638474
 30
0.0
 40
15.0
 41
0.0
 71
     7
 72
     1
  1
\W0.43;SCALE\W0.72;  \W0.43;1/1
  7
ZU_SHPTB00001
 11
1.0
 21
0.0
 31
0.0
 73
     1
 44
1.0
  0
MTEXT
  5
2E8
100
AcDbEntity
  8
0
370
    -3
  6
Continuous
100
AcDbMText
 10
-597.363586
 20
196.48848
 30
0.0
 40
15.0
 41
0.0
 71
     7
 72
     1
  1
\W0.43;0.1kW
  7
ZU_SHPTB00001
 11
1.0
 21
0.0
 31
0.0
 73
     1
 44
1.0
  0
MTEXT
  5
2E9
100
AcDbEntity
  8
0
370
    -3
  6
Continuous
100
AcDbMText
 10
-597.363586
 20
230.388504
 30
0.0
 40
15.0
 41
0.0
 71
     7
 72
     1
  1
\W0.63;三菱ギヤードモータ  
  7
ZU_SHPTB00001
 11
1.0
 21
0.0
 31
0.0
 73
     1
 44
1.0
  0
MTEXT
  5
2EA
100
AcDbEntity
  8
0
370
    -3
  6
Continuous
100
AcDbMText
 10
-597.363586
 20
230.388504
 30
0.0
 40
15.0
 41
0.0
 71
     7
 72
     1
  1
\W0.63;三菱ギヤードモータ  
  7
ZU_SHPTB00001
 11
1.0
 21
0.0
 31
0.0
 73
     1
 44
1.0
  0
ELLIPSE
  5
2EB
100
AcDbEntity
  8
0
370
    -3
  6
Continuous
100
AcDbEllipse
 10
-560.370811
 20
29.213682
 30
0.0
 11
3.5
 21
0.0
 31
0.0
210
0.0
220
0.0
230
1.0
 40
0.656603
 41
5.8189812361289412
 42
4.5910136334286333
  0
CIRCLE
  5
2EC
100
AcDbEntity
  8
0
370
    -3
  6
DASHED
100
AcDbCircle
 10
-520.870811
 20
44.086204
 30
0.0
 40
14.0
  0
ARC
  5
2ED
100
AcDbEntity
  8
0
370
    -3
  6
Continuous
100
AcDbCircle
 10
-552.620811
 20
60.903731
 30
0.0
 40
6.8
100
AcDbArc
 50
90.0
 51
180.0
  0
LINE
  5
2EE
100
AcDbEntity
  8
0
370
    -3
  6
Continuous
100
AcDbLine
 10
-489.120811
 20
67.703731
 30
0.0
 11
-552.620811
 21
67.703731
 31
0.0
  0
ARC
  5
2EF
100
AcDbEntity
  8
0
370
    -3
  6
Continuous
100
AcDbCircle
 10
-489.120811
 20
60.903731
 30
0.0
 40
6.8
100
AcDbArc
 50
0.0
 51
90.0
  0
ARC
  5
2F0
100
AcDbEntity
  8
0
370
    -3
  6
Continuous
100
AcDbCircle
 10
-481.870811
 20
32.898312
 30
0.0
 40
7.8
100
AcDbArc
 50
270.0
 51
0.0
  0
LINE
  5
2F1
100
AcDbEntity
  8
0
370
    -3
  6
Continuous
100
AcDbLine
 10
-483.548157
 20
25.098312
 30
0.0
 11
-481.870811
 21
25.098312
 31
0.0
  0
ARC
  5
2F2
100
AcDbEntity
  8
0
370
    -3
  6
Continuous
100
AcDbCircle
 10
-559.870811
 20
32.898312
 30
0.0
 40
7.8
100
AcDbArc
 50
180.0
 51
258.912511
  0
ARC
  5
2F3
100
AcDbEntity
  8
0
370
    -3
  6
Continuous
100
AcDbCircle
 10
-559.870811
 20
27.641727
 30
0.0
 40
7.8
100
AcDbArc
 50
180.0
 51
258.912511
  0
LINE
  5
2F4
100
AcDbEntity
  8
0
370
    -3
  6
Continuous
100
AcDbLine
 10
-474.070811
 20
61.757352
 30
0.0
 11
-474.070811
 21
27.641727
 31
0.0
  0
ARC
  5
2F5
100
AcDbEntity
  8
0
370
    -3
  6
Continuous
100
AcDbCircle
 10
-481.870811
 20
27.641727
 30
0.0
 40
7.8
100
AcDbArc
 50
281.087987
 51
0.0
  0
LINE
  5
2F6
100
AcDbEntity
  8
0
370
    -3
  6
Continuous
100
AcDbLine
 10
-559.420811
 20
36.393094
 30
0.0
 11
-559.420811
 21
60.903731
 31
0.0
  0
ARC
  5
2F7
100
AcDbEntity
  8
0
370
    -3
  6
Continuous
100
AcDbCircle
 10
-555.620811
 20
36.393094
 30
0.0
 40
3.8
100
AcDbArc
 50
180.0
 51
246.772328
  0
LINE
  5
2F8
100
AcDbEntity
  8
0
370
    -3
  6
Continuous
100
AcDbLine
 10
-557.119477
 20
32.901103
 30
0.0
 11
-547.924807
 21
28.955005
 31
0.0
  0
ARC
  5
2F9
100
AcDbEntity
  8
0
370
    -3
  6
Continuous
100
AcDbCircle
 10
-546.426141
 20
32.446996
 30
0.0
 40
3.8
100
AcDbArc
 50
246.772328
 51
270.0
  0
LINE
  5
2FA
100
AcDbEntity
  8
0
370
    -3
  6
Continuous
100
AcDbLine
 10
-484.622145
 20
32.901103
 30
0.0
 11
-493.816815
 21
28.955005
 31
0.0
  0
LINE
  5
2FB
100
AcDbEntity
  8
0
370
    -3
  6
Continuous
100
AcDbLine
 10
-495.315481
 20
28.646996
 30
0.0
 11
-546.426141
 21
28.646996
 31
0.0
  0
ARC
  5
2FC
100
AcDbEntity
  8
0
370
    -3
  6
Continuous
100
AcDbCircle
 10
-495.315481
 20
32.446996
 30
0.0
 40
3.8
100
AcDbArc
 50
270.0
 51
293.227672
  0
LINE
  5
2FD
100
AcDbEntity
  8
0
370
    -3
  6
Continuous
100
AcDbLine
 10
-482.320811
 20
36.393094
 30
0.0
 11
-482.320811
 21
60.903731
 31
0.0
  0
ARC
  5
2FE
100
AcDbEntity
  8
0
370
    -3
  6
Continuous
100
AcDbCircle
 10
-486.120811
 20
36.393094
 30
0.0
 40
3.8
100
AcDbArc
 50
293.227672
 51
0.0
  0
LINE
  5
2FF
100
AcDbEntity
  8
0
370
    -3
  6
Continuous
100
AcDbLine
 10
-560.370811
 20
30.751135
 30
0.0
 11
-562.370811
 21
29.701947
 31
0.0
  0
LINE
  5
300
100
AcDbEntity
  8
0
370
    -3
  6
Continuous
100
AcDbLine
 10
-560.370811
 20
30.751135
 30
0.0
 11
-558.370811
 21
29.701947
 31
0.0
  0
LINE
  5
301
100
AcDbEntity
  8
0
370
    -3
  6
Continuous
100
AcDbLine
 10
-558.780794
 20
31.260962
 30
0.0
 11
-560.370811
 21
30.751135
 31
0.0
  0
LINE
  5
302
100
AcDbEntity
  8
0
370
    -3
  6
Continuous
100
AcDbLine
 10
-561.960828
 20
31.260962
 30
0.0
 11
-560.370811
 21
30.751135
 31
0.0
  0
LINE
  5
303
100
AcDbEntity
  8
0
370
    -3
  6
Continuous
100
AcDbLine
 10
-558.780794
 20
69.719224
 30
0.0
 11
-560.370811
 21
69.209397
 31
0.0
  0
LINE
  5
304
100
AcDbEntity
  8
0
370
    -3
  6
Continuous
100
AcDbLine
 10
-560.370811
 20
69.209397
 30
0.0
 11
-558.370811
 21
68.160209
 31
0.0
  0
LINE
  5
305
100
AcDbEntity
  8
0
370
    -3
  6
Continuous
100
AcDbLine
 10
-560.370811
 20
69.209397
 30
0.0
 11
-562.370811
 21
68.160209
 31
0.0
  0
LINE
  5
306
100
AcDbEntity
  8
0
370
    -3
  6
Continuous
100
AcDbLine
 10
-561.960828
 20
69.719224
 30
0.0
 11
-560.370811
 21
69.209397
 31
0.0
  0
ELLIPSE
  5
307
100
AcDbEntity
  8
0
370
    -3
  6
Continuous
100
AcDbEllipse
 10
-560.370811
 20
67.671944
 30
0.0
 11
3.5
 21
0.0
 31
0.0
210
0.0
220
0.0
230
1.0
 40
0.656603
 41
0.0
 42
6.2831853071795862
  0
ARC
  5
308
100
AcDbEntity
  8
0
370
    -3
  6
Continuous
100
AcDbCircle
 10
-559.870811
 20
61.757352
 30
0.0
 40
7.8
100
AcDbArc
 50
118.12516
 51
180.0
  0
ELLIPSE
  5
309
100
AcDbEntity
  8
0
370
    -3
  6
Continuous
100
AcDbEllipse
 10
-481.370811
 20
29.213682
 30
0.0
 11
3.5
 21
0.0
 31
0.0
210
0.0
220
0.0
230
1.0
 40
0.656603
 41
0.0
 42
6.2831853071795862
  0
LINE
  5
30A
100
AcDbEntity
  8
0
370
    -3
  6
Continuous
100
AcDbLine
 10
-481.370811
 20
30.751135
 30
0.0
 11
-479.370811
 21
29.701947
 31
0.0
  0
LINE
  5
30B
100
AcDbEntity
  8
0
370
    -3
  6
Continuous
100
AcDbLine
 10
-481.370811
 20
30.751135
 30
0.0
 11
-483.370811
 21
29.701947
 31
0.0
  0
LINE
  5
30C
100
AcDbEntity
  8
0
370
    -3
  6
Continuous
100
AcDbLine
 10
-482.960828
 20
31.260962
 30
0.0
 11
-481.370811
 21
30.751135
 31
0.0
  0
LINE
  5
30D
100
AcDbEntity
  8
0
370
    -3
  6
Continuous
100
AcDbLine
 10
-479.780794
 20
31.260962
 30
0.0
 11
-481.370811
 21
30.751135
 31
0.0
  0
LINE
  5
30E
100
AcDbEntity
  8
0
370
    -3
  6
Continuous
100
AcDbLine
 10
-482.960828
 20
69.719224
 30
0.0
 11
-481.370811
 21
69.209397
 31
0.0
  0
LINE
  5
30F
100
AcDbEntity
  8
0
370
    -3
  6
Continuous
100
AcDbLine
 10
-481.370811
 20
69.209397
 30
0.0
 11
-483.370811
 21
68.160209
 31
0.0
  0
LINE
  5
310
100
AcDbEntity
  8
0
370
    -3
  6
Continuous
100
AcDbLine
 10
-481.370811
 20
69.209397
 30
0.0
 11
-479.370811
 21
68.160209
 31
0.0
  0
LINE
  5
311
100
AcDbEntity
  8
0
370
    -3
  6
Continuous
100
AcDbLine
 10
-479.780794
 20
69.719224
 30
0.0
 11
-481.370811
 21
69.209397
 31
0.0
  0
ELLIPSE
  5
312
100
AcDbEntity
  8
0
370
    -3
  6
Continuous
100
AcDbEllipse
 10
-481.370811
 20
67.671944
 30
0.0
 11
3.5
 21
0.0
 31
0.0
210
0.0
220
0.0
230
1.0
 40
0.656603
 41
0.0
 42
6.2831853071795862
  0
ARC
  5
313
100
AcDbEntity
  8
0
370
    -3
  6
Continuous
100
AcDbCircle
 10
-481.870811
 20
61.757352
 30
0.0
 40
7.8
100
AcDbArc
 50
0.0
 51
61.87484
  0
LINE
  5
314
100
AcDbEntity
  8
0
370
    -3
  6
Continuous
100
AcDbLine
 10
-483.371993
 20
69.557352
 30
0.0
 11
-558.36963
 21
69.557352
 31
0.0
  0
LINE
  5
315
100
AcDbEntity
  8
0
370
    -3
  6
CENTER
100
AcDbLine
 10
-502.225879
 20
44.086204
 30
0.0
 11
-542.171268
 21
44.086204
 31
0.0
  0
LINE
  5
316
100
AcDbEntity
  8
0
370
    -3
  6
Continuous
100
AcDbLine
 10
-567.670811
 20
61.757352
 30
0.0
 11
-567.670811
 21
27.641727
 31
0.0
  0
LINE
  5
317
100
AcDbEntity
  8
0
370
    -3
  6
CENTER
100
AcDbLine
 10
-113.862383
 20
0.308787
 30
0.0
 11
-113.862383
 21
23.218763
 31
0.0
  0
ARC
  5
318
100
AcDbEntity
  8
0
370
    -3
  6
Continuous
100
AcDbCircle
 10
-108.279985
 20
-533.096269
 30
0.0
 40
600.8
100
AcDbArc
 50
86.682408
 51
92.437505
  0
LINE
  5
319
100
AcDbEntity
  8
0
370
    -3
  6
Continuous
100
AcDbLine
 10
-82.562702
 20
64.215846
 30
0.0
 11
-83.237733
 21
65.663453
 31
0.0
  0
ARC
  5
31A
100
AcDbEntity
  8
0
370
    -3
  6
Continuous
100
AcDbCircle
 10
-85.775395
 20
64.480122
 30
0.0
 40
2.8
100
AcDbArc
 50
25.0
 51
87.843273
  0
ARC
  5
31B
100
AcDbEntity
  8
0
370
    -3
  6
Continuous
100
AcDbCircle
 10
-68.228586
 20
68.670055
 30
0.0
 40
1.299999
100
AcDbArc
 50
24.999999
 51
98.398469
  0
ARC
  5
31C
100
AcDbEntity
  8
0
370
    -3
  6
Continuous
100
AcDbCircle
 10
-72.216341
 20
66.810534
 30
0.0
 40
1.299999
100
AcDbArc
 50
131.601548
 51
205.000018
  0
LINE
  5
31D
100
AcDbEntity
  8
0
370
    -3
  6
Continuous
100
AcDbLine
 10
-66.636632
 20
68.332161
 30
0.0
 11
-67.050386
 21
69.219459
 31
0.0
  0
LINE
  5
31E
100
AcDbEntity
  8
0
370
    -3
  6
Continuous
100
AcDbLine
 10
-72.980787
 20
65.373833
 30
0.0
 11
-73.394541
 21
66.261131
 31
0.0
  0
POINT
  5
31F
100
AcDbEntity
  8
0
370
    -3
  6
Continuous
100
AcDbPoint
 10
-69.808709
 20
66.852997
 30
0.0
  0
ARC
  5
320
100
AcDbEntity
  8
0
370
    -3
  6
Continuous
100
AcDbCircle
 10
-67.103953
 20
61.052627
 30
0.0
 40
9.0
100
AcDbArc
 50
98.398469
 51
131.601548
  0
LINE
  5
321
100
AcDbEntity
  8
0
370
    -3
  6
CENTER
100
AcDbLine
 10
-68.551035
 20
64.155906
 30
0.0
 11
-71.420956
 21
70.310471
 31
0.0
  0
ARC
  5
322
100
AcDbEntity
  8
0
370
    -3
  6
Continuous
100
AcDbCircle
 10
-63.61015
 20
67.757352
 30
0.0
 40
1.8
100
AcDbArc
 50
25.0
 51
115.0
  0
LINE
  5
323
100
AcDbEntity
  8
0
370
    -3
  6
Continuous
100
AcDbLine
 10
-61.978796
 20
68.518065
 30
0.0
 11
-60.288323
 21
64.892834
 31
0.0
  0
POINT
  5
324
100
AcDbEntity
  8
0
370
    -3
  6
Continuous
100
AcDbPoint
 10
-42.862383
 20
54.563704
 30
0.0
  0
POINT
  5
325
100
AcDbEntity
  8
0
370
    -3
  6
Continuous
100
AcDbPoint
 10
-42.862383
 20
56.086204
 30
0.0
  0
LINE
  5
326
100
AcDbEntity
  8
0
370
    -3
  6
Continuous
100
AcDbLine
 10
-82.112374
 20
5.086204
 30
0.0
 11
-150.612383
 21
5.086204
 31
0.0
  0
LINE
  5
327
100
AcDbEntity
  8
0
370
    -3
  6
Continuous
100
AcDbLine
 10
-82.112374
 20
5.086204
 30
0.0
 11
-82.112374
 21
3.586204
 31
0.0
  0
ARC
  5
328
100
AcDbEntity
  8
0
370
    -3
  6
Continuous
100
AcDbCircle
 10
142.963257
 20
-31.599193
 30
0.0
 40
300.8
100
AcDbArc
 50
162.341575
 51
167.89975
  0
ARC
  5
329
100
AcDbEntity
  8
0
370
    -3
  6
Continuous
100
AcDbCircle
 10
-133.372478
 20
56.369902
 30
0.0
 40
10.8
100
AcDbArc
 50
92.437505
 51
162.341575
  0
ARC
  5
32A
100
AcDbEntity
  8
0
370
    -3
  6
Continuous
100
AcDbCircle
 10
-144.2622
 20
47.808219
 30
0.0
 40
2.8
100
AcDbArc
 50
164.545811
 51
205.0
  0
LINE
  5
32B
100
AcDbEntity
  8
0
370
    -3
  6
Continuous
100
AcDbLine
 10
-146.799861
 20
46.624887
 30
0.0
 11
-142.064435
 21
36.469732
 31
0.0
  0
ARC
  5
32C
100
AcDbEntity
  8
0
370
    -3
  6
Continuous
100
AcDbCircle
 10
-144.783358
 20
35.201878
 30
0.0
 40
3.0
100
AcDbArc
 50
295.0
 51
25.0
  0
ARC
  5
32D
100
AcDbEntity
  8
0
370
    -3
  6
Continuous
100
AcDbCircle
 10
-150.702594
 20
30.211794
 30
0.0
 40
1.299999
100
AcDbArc
 50
24.999999
 51
98.398469
  0
LINE
  5
32E
100
AcDbEntity
  8
0
370
    -3
  6
Continuous
100
AcDbLine
 10
-149.110641
 20
29.873899
 30
0.0
 11
-149.524395
 21
30.761197
 31
0.0
  0
ARC
  5
32F
100
AcDbEntity
  8
0
370
    -3
  6
Continuous
100
AcDbCircle
 10
-149.577961
 20
22.594365
 30
0.0
 40
9.0
100
AcDbArc
 50
98.398469
 51
131.601548
  0
ARC
  5
330
100
AcDbEntity
  8
0
370
    -3
  6
Continuous
100
AcDbCircle
 10
-154.69035
 20
28.352273
 30
0.0
 40
1.299999
100
AcDbArc
 50
131.601548
 51
205.000018
  0
LINE
  5
331
100
AcDbEntity
  8
0
370
    -3
  6
CENTER
100
AcDbLine
 10
-151.025044
 20
25.697644
 30
0.0
 11
-153.894965
 21
31.852209
 31
0.0
  0
LINE
  5
332
100
AcDbEntity
  8
0
370
    -3
  6
Continuous
100
AcDbLine
 10
-155.454795
 20
26.915571
 30
0.0
 11
-155.868549
 21
27.802869
 31
0.0
  0
POINT
  5
333
100
AcDbEntity
  8
0
370
    -3
  6
Continuous
100
AcDbPoint
 10
-152.259008
 20
28.405791
 30
0.0
  0
LINE
  5
334
100
AcDbEntity
  8
0
370
    -3
  6
CENTER
100
AcDbLine
 10
-151.025044
 20
25.697644
 30
0.0
 11
-153.894965
 21
31.852209
 31
0.0
  0
ARC
  5
335
100
AcDbEntity
  8
0
370
    -3
  6
Continuous
100
AcDbCircle
 10
-156.959852
 20
24.227671
 30
0.0
 40
1.8
100
AcDbArc
 50
115.0
 51
205.0
  0
LINE
  5
336
100
AcDbEntity
  8
0
370
    -3
  6
Continuous
100
AcDbLine
 10
-156.900733
 20
19.841727
 30
0.0
 11
-68.451667
 21
61.086204
 31
0.0
  0
LINE
  5
337
100
AcDbEntity
  8
0
370
    -3
  6
Continuous
100
AcDbLine
 10
-158.591206
 20
23.466958
 30
0.0
 11
-156.900733
 21
19.841727
 31
0.0
  0
LINE
  5
338
100
AcDbEntity
  8
0
370
    -3
  6
Continuous
100
AcDbLine
 10
-157.720565
 20
25.859025
 30
0.0
 11
-64.370863
 21
69.388706
 31
0.0
  0
ARC
  5
339
100
AcDbEntity
  8
0
370
    -3
  6
Continuous
100
AcDbCircle
 10
-145.300536
 20
22.886204
 30
0.0
 40
3.8
100
AcDbArc
 50
205.0
 51
270.0
  0
LINE
  5
33A
100
AcDbEntity
  8
0
370
    -3
  6
Continuous
100
AcDbLine
 10
-80.538076
 20
55.450219
 30
0.0
 11
-80.538076
 21
22.086204
 31
0.0
  0
LINE
  5
33B
100
AcDbEntity
  8
0
370
    -3
  6
Continuous
100
AcDbLine
 10
-68.862383
 20
60.894684
 30
0.0
 11
-68.862383
 21
25.886204
 31
0.0
  0
LINE
  5
33C
100
AcDbEntity
  8
0
370
    -3
  6
Continuous
100
AcDbLine
 10
-66.862383
 20
44.086204
 30
0.0
 11
-66.862383
 21
58.086204
 31
0.0
  0
LINE
  5
33D
100
AcDbEntity
  8
0
370
    -3
  6
Continuous
100
AcDbLine
 10
-68.451667
 20
61.086204
 30
0.0
 11
-60.288323
 21
64.892834
 31
0.0
  0
ARC
  5
33E
100
AcDbEntity
  8
0
370
    -3
  6
Continuous
100
AcDbCircle
 10
-79.843779
 20
65.483701
 30
0.0
 40
3.0
100
AcDbArc
 50
205.0
 51
295.0
  0
LINE
  5
33F
100
AcDbEntity
  8
0
370
    -3
  6
Continuous
100
AcDbLine
 10
-149.650271
 20
23.222673
 30
0.0
 11
-148.744506
 21
21.280254
 31
0.0
  0
LINE
  5
340
100
AcDbEntity
  8
0
370
    -3
  6
Continuous
100
AcDbLine
 10
-138.049531
 20
28.632187
 30
0.0
 11
-134.621268
 21
21.280254
 31
0.0
  0
LINE
  5
341
100
AcDbEntity
  8
0
370
    -3
  6
Continuous
100
AcDbLine
 10
-44.862383
 20
58.086204
 30
0.0
 11
-68.862383
 21
58.086204
 31
0.0
  0
POINT
  5
342
100
AcDbEntity
  8
0
370
    -3
  6
CENTER
100
AcDbPoint
 10
-42.862383
 20
54.563704
 30
0.0
  0
POINT
  5
343
100
AcDbEntity
  8
0
370
    -3
  6
CENTER
100
AcDbPoint
 10
-42.862383
 20
33.608704
 30
0.0
  0
ARC
  5
344
100
AcDbEntity
  8
0
370
    -3
  6
Continuous
100
AcDbCircle
 10
-83.538076
 20
22.086204
 30
0.0
 40
3.0
100
AcDbArc
 50
270.0
 51
0.0
  0
LINE
  5
345
100
AcDbEntity
  8
0
370
    -3
  6
CENTER
100
AcDbLine
 10
-113.862383
 20
0.308787
 30
0.0
 11
-113.862383
 21
29.218763
 31
0.0
  0
LINE
  5
346
100
AcDbEntity
  8
0
370
    -3
  6
Continuous
100
AcDbLine
 10
-150.612383
 20
3.580792
 30
0.0
 11
-150.612383
 21
5.086204
 31
0.0
  0
ARC
  5
347
100
AcDbEntity
  8
0
370
    -3
  6
Continuous
100
AcDbCircle
 10
-131.177299
 20
22.886204
 30
0.0
 40
3.8
100
AcDbArc
 50
205.0
 51
270.0
  0
ARC
  5
348
100
AcDbEntity
  8
0
370
    -3
  6
Continuous
100
AcDbCircle
 10
-85.862383
 20
19.086204
 30
0.0
 40
1.0
100
AcDbArc
 50
270.0
 51
346.657636
  0
LINE
  5
349
100
AcDbEntity
  8
0
370
    -3
  6
Continuous
100
AcDbLine
 10
-75.662383
 20
19.086204
 30
0.0
 11
-145.300536
 21
19.086204
 31
0.0
  0
ARC
  5
34A
100
AcDbEntity
  8
0
370
    -3
  6
Continuous
100
AcDbCircle
 10
-141.862383
 20
19.086204
 30
0.0
 40
1.0
100
AcDbArc
 50
193.342364
 51
270.0
  0
LINE
  5
34B
100
AcDbEntity
  8
0
370
    -3
  6
Continuous
100
AcDbLine
 10
-66.862383
 20
30.086204
 30
0.0
 11
-66.862383
 21
44.086204
 31
0.0
  0
LINE
  5
34C
100
AcDbEntity
  8
0
370
    -3
  6
CENTER
100
AcDbLine
 10
-37.383759
 20
44.086204
 30
0.0
 11
-77.690246
 21
44.086204
 31
0.0
  0
LINE
  5
34D
100
AcDbEntity
  8
0
370
    -3
  6
Continuous
100
AcDbLine
 10
-42.862383
 20
56.086204
 30
0.0
 11
-42.862383
 21
44.086204
 31
0.0
  0
LINE
  5
34E
100
AcDbEntity
  8
0
370
    -3
  6
Continuous
100
AcDbLine
 10
-42.862383
 20
32.086204
 30
0.0
 11
-42.862383
 21
44.086204
 31
0.0
  0
ARC
  5
34F
100
AcDbEntity
  8
0
370
    -3
  6
Continuous
100
AcDbCircle
 10
-44.862383
 20
56.086204
 30
0.0
 40
2.0
100
AcDbArc
 50
0.0
 51
90.0
  0
ARC
  5
350
100
AcDbEntity
  8
0
370
    -3
  6
Continuous
100
AcDbCircle
 10
-44.862383
 20
32.086204
 30
0.0
 40
2.0
100
AcDbArc
 50
270.0
 51
0.0
  0
LINE
  5
351
100
AcDbEntity
  8
0
370
    -3
  6
Continuous
100
AcDbLine
 10
-44.862383
 20
30.086204
 30
0.0
 11
-66.862383
 21
30.086204
 31
0.0
  0
LINE
  5
352
100
AcDbEntity
  8
0
370
    -3
  6
Continuous
100
AcDbLine
 10
-66.862383
 20
30.086204
 30
0.0
 11
-68.862383
 21
30.086204
 31
0.0
  0
LINE
  5
353
100
AcDbEntity
  8
0
370
    -3
  6
Continuous
100
AcDbLine
 10
-82.862383
 20
17.086204
 30
0.0
 11
-144.862383
 21
17.086204
 31
0.0
  0
LINE
  5
354
100
AcDbEntity
  8
0
370
    -3
  6
Continuous
100
AcDbLine
 10
-82.862383
 20
18.086204
 30
0.0
 11
-144.862383
 21
18.086204
 31
0.0
  0
LINE
  5
355
100
AcDbEntity
  8
0
370
    -3
  6
Continuous
100
AcDbLine
 10
-82.862383
 20
17.086204
 30
0.0
 11
-82.862383
 21
18.086204
 31
0.0
  0
LINE
  5
356
100
AcDbEntity
  8
0
370
    -3
  6
Continuous
100
AcDbLine
 10
-144.862383
 20
17.086204
 30
0.0
 11
-144.862383
 21
18.086204
 31
0.0
  0
ARC
  5
357
100
AcDbEntity
  8
0
370
    -3
  6
Continuous
100
AcDbCircle
 10
-75.662383
 20
25.886204
 30
0.0
 40
6.8
100
AcDbArc
 50
270.0
 51
0.0
  0
ARC
  5
358
100
AcDbEntity
  8
0
370
    -3
  6
Continuous
100
AcDbCircle
 10
-143.127294
 20
18.786204
 30
0.0
 40
0.3
100
AcDbArc
 50
13.342364
 51
90.0
  0
ARC
  5
359
100
AcDbEntity
  8
0
370
    -3
  6
Continuous
100
AcDbCircle
 10
-84.597472
 20
18.786204
 30
0.0
 40
0.3
100
AcDbArc
 50
90.0
 51
166.657636
  0
LINE
  5
35A
100
AcDbEntity
  8
0
370
    -3
  6
Continuous
100
AcDbLine
 10
-145.362687
 20
17.086204
 30
0.0
 11
-82.33654
 21
17.086204
 31
0.0
  0
ARC
  5
35B
100
AcDbEntity
  8
0
370
    -3
  6
Continuous
100
AcDbCircle
 10
-145.362687
 20
16.086204
 30
0.0
 40
1.0
100
AcDbArc
 50
90.0
 51
178.0
  0
ARC
  5
35C
100
AcDbEntity
  8
0
370
    -3
  6
Continuous
100
AcDbCircle
 10
-82.362078
 20
16.086204
 30
0.0
 40
1.0
100
AcDbArc
 50
2.0
 51
90.0
  0
LINE
  5
35D
100
AcDbEntity
  8
0
370
    -3
  6
Continuous
100
AcDbLine
 10
-81.047182
 20
7.086204
 30
0.0
 11
-81.362687
 21
16.121103
 31
0.0
  0
ARC
  5
35E
100
AcDbEntity
  8
0
370
    -3
  6
Continuous
100
AcDbCircle
 10
-142.343353
 20
6.586204
 30
0.0
 40
0.5
100
AcDbArc
 50
0.0
 51
90.0
  0
LINE
  5
35F
100
AcDbEntity
  8
0
370
    -3
  6
Continuous
100
AcDbLine
 10
-141.843353
 20
5.586204
 30
0.0
 11
-141.843353
 21
6.586204
 31
0.0
  0
ARC
  5
360
100
AcDbEntity
  8
0
370
    -3
  6
Continuous
100
AcDbCircle
 10
-141.343353
 20
5.586204
 30
0.0
 40
0.5
100
AcDbArc
 50
180.0
 51
270.0
  0
LINE
  5
361
100
AcDbEntity
  8
0
370
    -3
  6
Continuous
100
AcDbLine
 10
-132.379538
 20
5.086204
 30
0.0
 11
-141.343353
 21
5.086204
 31
0.0
  0
LINE
  5
362
100
AcDbEntity
  8
0
370
    -3
  6
Continuous
100
AcDbLine
 10
-95.345227
 20
5.086204
 30
0.0
 11
-86.381412
 21
5.086204
 31
0.0
  0
LINE
  5
363
100
AcDbEntity
  8
0
370
    -3
  6
Continuous
100
AcDbLine
 10
-85.881412
 20
5.586204
 30
0.0
 11
-85.881412
 21
6.586204
 31
0.0
  0
ARC
  5
364
100
AcDbEntity
  8
0
370
    -3
  6
Continuous
100
AcDbCircle
 10
-85.381412
 20
6.586204
 30
0.0
 40
0.5
100
AcDbArc
 50
90.0
 51
180.0
  0
ARC
  5
365
100
AcDbEntity
  8
0
370
    -3
  6
Continuous
100
AcDbCircle
 10
-86.381412
 20
5.586204
 30
0.0
 40
0.5
100
AcDbArc
 50
270.0
 51
0.0
  0
LINE
  5
366
100
AcDbEntity
  8
0
370
    -3
  6
Continuous
100
AcDbLine
 10
-113.862383
 20
7.086204
 30
0.0
 11
-81.047182
 21
7.086204
 31
0.0
  0
LINE
  5
367
100
AcDbEntity
  8
0
370
    -3
  6
Continuous
100
AcDbLine
 10
-113.862383
 20
7.086204
 30
0.0
 11
-146.677584
 21
7.086204
 31
0.0
  0
ARC
  5
368
100
AcDbEntity
  8
0
370
    -3
  6
Continuous
100
AcDbCircle
 10
-85.381412
 20
6.586204
 30
0.0
 40
0.5
100
AcDbArc
 50
90.0
 51
180.0
  0
ARC
  5
369
100
AcDbEntity
  8
0
370
    -3
  6
Continuous
100
AcDbCircle
 10
-86.381412
 20
5.586204
 30
0.0
 40
0.5
100
AcDbArc
 50
270.0
 51
0.0
  0
LINE
  5
36A
100
AcDbEntity
  8
0
370
    -3
  6
Continuous
100
AcDbLine
 10
-85.881412
 20
5.586204
 30
0.0
 11
-85.881412
 21
6.586204
 31
0.0
  0
ARC
  5
36B
100
AcDbEntity
  8
0
370
    -3
  6
Continuous
100
AcDbCircle
 10
-96.381412
 20
6.586204
 30
0.0
 40
0.5
100
AcDbArc
 50
0.0
 51
90.0
  0
LINE
  5
36C
100
AcDbEntity
  8
0
370
    -3
  6
Continuous
100
AcDbLine
 10
-95.345227
 20
5.086204
 30
0.0
 11
-86.687729
 21
5.086204
 31
0.0
  0
LINE
  5
36D
100
AcDbEntity
  8
0
370
    -3
  6
Continuous
100
AcDbLine
 10
-95.381412
 20
5.086204
 30
0.0
 11
-86.687729
 21
5.086204
 31
0.0
  0
ARC
  5
36E
100
AcDbEntity
  8
0
370
    -3
  6
Continuous
100
AcDbCircle
 10
-95.381412
 20
5.586204
 30
0.0
 40
0.5
100
AcDbArc
 50
180.0
 51
270.0
  0
LINE
  5
36F
100
AcDbEntity
  8
0
370
    -3
  6
Continuous
100
AcDbLine
 10
-95.881412
 20
5.586204
 30
0.0
 11
-95.881412
 21
6.586204
 31
0.0
  0
ARC
  5
370
100
AcDbEntity
  8
0
370
    -3
  6
Continuous
100
AcDbCircle
 10
-132.343353
 20
5.586204
 30
0.0
 40
0.5
100
AcDbArc
 50
270.0
 51
0.0
  0
LINE
  5
371
100
AcDbEntity
  8
0
370
    -3
  6
Continuous
100
AcDbLine
 10
-131.843353
 20
5.586204
 30
0.0
 11
-131.843353
 21
6.586204
 31
0.0
  0
ARC
  5
372
100
AcDbEntity
  8
0
370
    -3
  6
Continuous
100
AcDbCircle
 10
-131.343353
 20
6.586204
 30
0.0
 40
0.5
100
AcDbArc
 50
90.0
 51
180.0
  0
ARC
  5
373
100
AcDbEntity
  8
0
370
    -3
  6
Continuous
100
AcDbCircle
 10
-142.343353
 20
6.586204
 30
0.0
 40
0.5
100
AcDbArc
 50
0.0
 51
90.0
  0
LINE
  5
374
100
AcDbEntity
  8
0
370
    -3
  6
Continuous
100
AcDbLine
 10
-132.379538
 20
5.086204
 30
0.0
 11
-141.343353
 21
5.086204
 31
0.0
  0
ARC
  5
375
100
AcDbEntity
  8
0
370
    -3
  6
Continuous
100
AcDbCircle
 10
-141.343353
 20
5.586204
 30
0.0
 40
0.5
100
AcDbArc
 50
180.0
 51
270.0
  0
LINE
  5
376
100
AcDbEntity
  8
0
370
    -3
  6
Continuous
100
AcDbLine
 10
-141.843353
 20
5.586204
 30
0.0
 11
-141.843353
 21
6.586204
 31
0.0
  0
LINE
  5
377
100
AcDbEntity
  8
0
370
    -3
  6
Continuous
100
AcDbLine
 10
-146.677584
 20
7.086204
 30
0.0
 11
-146.362078
 21
16.121103
 31
0.0
  0
LINE
  5
378
100
AcDbEntity
  8
0
370
    -3
  6
Continuous
100
AcDbLine
 10
-146.677584
 20
7.086204
 30
0.0
 11
-146.677584
 21
5.086204
 31
0.0
  0
LINE
  5
379
100
AcDbEntity
  8
0
370
    -3
  6
Continuous
100
AcDbLine
 10
-81.047182
 20
7.086204
 30
0.0
 11
-81.047182
 21
5.086204
 31
0.0
  0
LINE
  5
37A
100
AcDbEntity
  8
0
370
    -3
  6
Continuous
100
AcDbLine
 10
-146.677584
 20
5.086204
 30
0.0
 11
-81.047182
 21
5.086204
 31
0.0
  0
LINE
  5
37B
100
AcDbEntity
  8
0
370
    -3
  6
Continuous
100
AcDbLine
 10
-150.959843
 20
163.329799
 30
0.0
 11
-68.088314
 21
163.329799
 31
0.0
  0
POINT
  5
37C
100
AcDbEntity
  8
0
370
    -3
  6
CENTER
100
AcDbPoint
 10
-42.862374
 20
199.652299
 30
0.0
  0
POINT
  5
37D
100
AcDbEntity
  8
0
370
    -3
  6
CENTER
100
AcDbPoint
 10
-42.862374
 20
199.652299
 30
0.0
  0
ARC
  5
37E
100
AcDbEntity
  8
0
370
    -3
  6
Continuous
100
AcDbCircle
 10
-44.862374
 20
198.129799
 30
0.0
 40
2.0
100
AcDbArc
 50
270.0
 51
0.0
  0
LINE
  5
37F
100
AcDbEntity
  8
0
370
    -3
  6
Continuous
100
AcDbLine
 10
-42.862374
 20
198.129799
 30
0.0
 11
-42.862374
 21
210.129799
 31
0.0
  0
ARC
  5
380
100
AcDbEntity
  8
0
370
    -3
  6
Continuous
100
AcDbCircle
 10
-44.862374
 20
222.129799
 30
0.0
 40
2.0
100
AcDbArc
 50
0.0
 51
90.0
  0
LINE
  5
381
100
AcDbEntity
  8
0
370
    -3
  6
Continuous
100
AcDbLine
 10
-42.862374
 20
222.129799
 30
0.0
 11
-42.862374
 21
210.129799
 31
0.0
  0
LINE
  5
382
100
AcDbEntity
  8
0
370
    -3
  6
Continuous
100
AcDbLine
 10
-150.959843
 20
256.929799
 30
0.0
 11
-68.088314
 21
256.929799
 31
0.0
  0
LINE
  5
383
100
AcDbEntity
  8
0
370
    -3
  6
Continuous
100
AcDbLine
 10
-72.62502
 20
168.629799
 30
0.0
 11
-70.907508
 21
170.629799
 31
0.0
  0
LINE
  5
384
100
AcDbEntity
  8
0
370
    -3
  6
Continuous
100
AcDbLine
 10
-70.907508
 20
170.629799
 30
0.0
 11
-72.62502
 21
172.629799
 31
0.0
  0
ARC
  5
385
100
AcDbEntity
  8
0
370
    -3
  6
Continuous
100
AcDbCircle
 10
-83.30685
 20
175.379799
 30
0.0
 40
3.8
100
AcDbArc
 50
270.0
 51
318.609573
  0
ARC
  5
386
100
AcDbEntity
  8
0
370
    -3
  6
Continuous
100
AcDbCircle
 10
-68.088314
 20
171.129799
 30
0.0
 40
7.8
100
AcDbArc
 50
270.0
 51
0.0
  0
ARC
  5
387
100
AcDbEntity
  8
0
370
    -3
  6
Continuous
100
AcDbCircle
 10
-70.5395
 20
171.129799
 30
0.0
 40
7.8
100
AcDbArc
 50
270.0
 51
0.0
  0
ELLIPSE
  5
388
100
AcDbEntity
  8
0
370
    -3
  6
Continuous
100
AcDbEllipse
 10
-70.076478
 20
170.629799
 30
0.0
 11
-0.0000000000002132
 21
3.5
 31
0.0
210
0.0
220
0.0
230
1.0
 40
0.982815
 41
0.0
 42
6.2831853071795862
  0
LINE
  5
389
100
AcDbEntity
  8
0
370
    -3
  6
Continuous
100
AcDbLine
 10
-68.999789
 20
168.629799
 30
0.0
 11
-70.907508
 21
170.629799
 31
0.0
  0
LINE
  5
38A
100
AcDbEntity
  8
0
370
    -3
  6
Continuous
100
AcDbLine
 10
-70.907508
 20
170.629799
 30
0.0
 11
-68.999789
 21
172.629799
 31
0.0
  0
ARC
  5
38B
100
AcDbEntity
  8
0
370
    -3
  6
Continuous
100
AcDbCircle
 10
-74.330115
 20
185.565336
 30
0.0
 40
3.8
100
AcDbArc
 50
318.609573
 51
0.0
  0
LINE
  5
38C
100
AcDbEntity
  8
0
370
    -3
  6
Continuous
100
AcDbLine
 10
-80.456008
 20
172.86729
 30
0.0
 11
-71.479273
 21
183.052827
 31
0.0
  0
LINE
  5
38D
100
AcDbEntity
  8
0
370
    -3
  6
Continuous
100
AcDbLine
 10
-44.862374
 20
196.129799
 30
0.0
 11
-60.288314
 21
196.129799
 31
0.0
  0
LINE
  5
38E
100
AcDbEntity
  8
0
370
    -3
  6
Continuous
100
AcDbLine
 10
-60.288314
 20
210.129799
 30
0.0
 11
-60.288314
 21
171.129799
 31
0.0
  0
LINE
  5
38F
100
AcDbEntity
  8
0
370
    -3
  6
Continuous
100
AcDbLine
 10
-62.7395
 20
210.129799
 30
0.0
 11
-62.7395
 21
171.129799
 31
0.0
  0
LINE
  5
390
100
AcDbEntity
  8
0
370
    -3
  6
Continuous
100
AcDbLine
 10
-70.530115
 20
210.129799
 30
0.0
 11
-70.530115
 21
185.565336
 31
0.0
  0
LINE
  5
391
100
AcDbEntity
  8
0
370
    -3
  6
Continuous
100
AcDbLine
 10
-158.759843
 20
210.129799
 30
0.0
 11
-158.759843
 21
171.129799
 31
0.0
  0
LINE
  5
392
100
AcDbEntity
  8
0
370
    -3
  6
Continuous
100
AcDbLine
 10
-151.741734
 20
210.129799
 30
0.0
 11
-151.741734
 21
185.582807
 31
0.0
  0
ARC
  5
393
100
AcDbEntity
  8
0
370
    -3
  6
Continuous
100
AcDbCircle
 10
-147.941734
 20
185.582807
 30
0.0
 40
3.8
100
AcDbArc
 50
180.0
 51
221.85078
  0
LINE
  5
394
100
AcDbEntity
  8
0
370
    -3
  6
Continuous
100
AcDbLine
 10
-141.288327
 20
210.129799
 30
0.0
 11
-141.288327
 21
181.579799
 31
0.0
  0
ARC
  5
395
100
AcDbEntity
  8
0
370
    -3
  6
Continuous
100
AcDbCircle
 10
-150.959843
 20
171.129799
 30
0.0
 40
7.8
100
AcDbArc
 50
180.0
 51
270.0
  0
LINE
  5
396
100
AcDbEntity
  8
0
370
    -3
  6
Continuous
100
AcDbLine
 10
-153.381517
 20
170.629799
 30
0.0
 11
-155.099028
 21
172.629799
 31
0.0
  0
LINE
  5
397
100
AcDbEntity
  8
0
370
    -3
  6
Continuous
100
AcDbLine
 10
-155.099028
 20
168.629799
 30
0.0
 11
-153.381517
 21
170.629799
 31
0.0
  0
ELLIPSE
  5
398
100
AcDbEntity
  8
0
370
    -3
  6
Continuous
100
AcDbEllipse
 10
-152.550486
 20
170.629799
 30
0.0
 11
-0.000000000000199
 21
3.5
 31
0.0
210
0.0
220
0.0
230
1.0
 40
0.982815
 41
0.0
 42
6.2831853071795862
  0
LINE
  5
399
100
AcDbEntity
  8
0
370
    -3
  6
Continuous
100
AcDbLine
 10
-151.473797
 20
168.629799
 30
0.0
 11
-153.381517
 21
170.629799
 31
0.0
  0
LINE
  5
39A
100
AcDbEntity
  8
0
370
    -3
  6
Continuous
100
AcDbLine
 10
-153.381517
 20
170.629799
 30
0.0
 11
-151.473797
 21
172.629799
 31
0.0
  0
ARC
  5
39B
100
AcDbEntity
  8
0
370
    -3
  6
Continuous
100
AcDbCircle
 10
-138.802906
 20
175.379799
 30
0.0
 40
3.8
100
AcDbArc
 50
221.85078
 51
270.0
  0
LINE
  5
39C
100
AcDbEntity
  8
0
370
    -3
  6
Continuous
100
AcDbLine
 10
-141.633469
 20
172.844465
 30
0.0
 11
-150.772296
 21
183.047474
 31
0.0
  0
ARC
  5
39D
100
AcDbEntity
  8
0
370
    -3
  6
Continuous
100
AcDbCircle
 10
-131.288327
 20
181.579799
 30
0.0
 40
10.0
100
AcDbArc
 50
180.0
 51
270.0
  0
LINE
  5
39E
100
AcDbEntity
  8
0
370
    -3
  6
Continuous
100
AcDbLine
 10
-83.30685
 20
171.579799
 30
0.0
 11
-138.802906
 21
171.579799
 31
0.0
  0
LINE
  5
39F
100
AcDbEntity
  8
0
370
    -3
  6
Continuous
100
AcDbLine
 10
-151.741734
 20
210.129799
 30
0.0
 11
-151.741734
 21
234.67679
 31
0.0
  0
LINE
  5
3A0
100
AcDbEntity
  8
0
370
    -3
  6
Continuous
100
AcDbLine
 10
-158.759843
 20
210.129799
 30
0.0
 11
-158.759843
 21
249.129799
 31
0.0
  0
LINE
  5
3A1
100
AcDbEntity
  8
0
370
    -3
  6
Continuous
100
AcDbLine
 10
-153.381517
 20
249.629799
 30
0.0
 11
-155.099028
 21
247.629799
 31
0.0
  0
LINE
  5
3A2
100
AcDbEntity
  8
0
370
    -3
  6
Continuous
100
AcDbLine
 10
-155.099028
 20
251.629799
 30
0.0
 11
-153.381517
 21
249.629799
 31
0.0
  0
ARC
  5
3A3
100
AcDbEntity
  8
0
370
    -3
  6
Continuous
100
AcDbCircle
 10
-147.941734
 20
234.67679
 30
0.0
 40
3.8
100
AcDbArc
 50
138.14922
 51
180.0
  0
ARC
  5
3A4
100
AcDbEntity
  8
0
370
    -3
  6
Continuous
100
AcDbCircle
 10
-150.959843
 20
249.129799
 30
0.0
 40
7.8
100
AcDbArc
 50
90.0
 51
180.0
  0
LINE
  5
3A5
100
AcDbEntity
  8
0
370
    -3
  6
Continuous
100
AcDbLine
 10
-151.473797
 20
251.629799
 30
0.0
 11
-153.381517
 21
249.629799
 31
0.0
  0
LINE
  5
3A6
100
AcDbEntity
  8
0
370
    -3
  6
Continuous
100
AcDbLine
 10
-153.381517
 20
249.629799
 30
0.0
 11
-151.473797
 21
247.629799
 31
0.0
  0
ELLIPSE
  5
3A7
100
AcDbEntity
  8
0
370
    -3
  6
Continuous
100
AcDbEllipse
 10
-152.550486
 20
249.629799
 30
0.0
 11
0.0
 21
3.5
 31
0.0
210
0.0
220
0.0
230
1.0
 40
0.982815
 41
0.0
 42
6.2831853071795862
  0
ARC
  5
3A8
100
AcDbEntity
  8
0
370
    -3
  6
Continuous
100
AcDbCircle
 10
-138.802906
 20
244.879799
 30
0.0
 40
3.8
100
AcDbArc
 50
90.0
 51
138.14922
  0
LINE
  5
3A9
100
AcDbEntity
  8
0
370
    -3
  6
Continuous
100
AcDbLine
 10
-141.633469
 20
247.415132
 30
0.0
 11
-150.772296
 21
237.212123
 31
0.0
  0
ARC
  5
3AA
100
AcDbEntity
  8
0
370
    -3
  6
Continuous
100
AcDbCircle
 10
-131.288327
 20
238.679799
 30
0.0
 40
10.0
100
AcDbArc
 50
90.0
 51
180.0
  0
LINE
  5
3AB
100
AcDbEntity
  8
0
370
    -3
  6
Continuous
100
AcDbLine
 10
-141.288327
 20
210.129799
 30
0.0
 11
-141.288327
 21
238.679799
 31
0.0
  0
ARC
  5
3AC
100
AcDbEntity
  8
0
370
    -3
  6
Continuous
100
AcDbCircle
 10
-83.30685
 20
244.879799
 30
0.0
 40
3.8
100
AcDbArc
 50
41.390427
 51
90.0
  0
LINE
  5
3AD
100
AcDbEntity
  8
0
370
    -3
  6
Continuous
100
AcDbLine
 10
-83.30685
 20
248.679799
 30
0.0
 11
-138.802906
 21
248.679799
 31
0.0
  0
LINE
  5
3AE
100
AcDbEntity
  8
0
370
    -3
  6
Continuous
100
AcDbLine
 10
-80.456008
 20
247.392307
 30
0.0
 11
-71.479273
 21
237.20677
 31
0.0
  0
LINE
  5
3AF
100
AcDbEntity
  8
0
370
    -3
  6
Continuous
100
AcDbLine
 10
-70.907508
 20
249.629799
 30
0.0
 11
-72.62502
 21
247.629799
 31
0.0
  0
LINE
  5
3B0
100
AcDbEntity
  8
0
370
    -3
  6
Continuous
100
AcDbLine
 10
-72.62502
 20
251.629799
 30
0.0
 11
-70.907508
 21
249.629799
 31
0.0
  0
ARC
  5
3B1
100
AcDbEntity
  8
0
370
    -3
  6
Continuous
100
AcDbCircle
 10
-74.330115
 20
234.694261
 30
0.0
 40
3.8
100
AcDbArc
 50
0.0
 51
41.390427
  0
ARC
  5
3B2
100
AcDbEntity
  8
0
370
    -3
  6
Continuous
100
AcDbCircle
 10
-68.088314
 20
249.129799
 30
0.0
 40
7.8
100
AcDbArc
 50
0.0
 51
90.0
  0
ARC
  5
3B3
100
AcDbEntity
  8
0
370
    -3
  6
Continuous
100
AcDbCircle
 10
-70.5395
 20
249.129799
 30
0.0
 40
7.8
100
AcDbArc
 50
0.0
 51
90.0
  0
ELLIPSE
  5
3B4
100
AcDbEntity
  8
0
370
    -3
  6
Continuous
100
AcDbEllipse
 10
-70.076478
 20
249.629799
 30
0.0
 11
0.0
 21
3.5
 31
0.0
210
0.0
220
0.0
230
1.0
 40
0.982815
 41
0.0
 42
6.2831853071795862
  0
LINE
  5
3B5
100
AcDbEntity
  8
0
370
    -3
  6
Continuous
100
AcDbLine
 10
-68.999789
 20
251.629799
 30
0.0
 11
-70.907508
 21
249.629799
 31
0.0
  0
LINE
  5
3B6
100
AcDbEntity
  8
0
370
    -3
  6
Continuous
100
AcDbLine
 10
-70.907508
 20
249.629799
 30
0.0
 11
-68.999789
 21
247.629799
 31
0.0
  0
LINE
  5
3B7
100
AcDbEntity
  8
0
370
    -3
  6
Continuous
100
AcDbLine
 10
-44.862374
 20
224.129799
 30
0.0
 11
-60.288314
 21
224.129799
 31
0.0
  0
LINE
  5
3B8
100
AcDbEntity
  8
0
370
    -3
  6
Continuous
100
AcDbLine
 10
-70.530115
 20
210.129799
 30
0.0
 11
-70.530115
 21
234.694261
 31
0.0
  0
LINE
  5
3B9
100
AcDbEntity
  8
0
370
    -3
  6
Continuous
100
AcDbLine
 10
-60.288314
 20
210.129799
 30
0.0
 11
-60.288314
 21
249.129799
 31
0.0
  0
LINE
  5
3BA
100
AcDbEntity
  8
0
370
    -3
  6
Continuous
100
AcDbLine
 10
-62.7395
 20
210.129799
 30
0.0
 11
-62.7395
 21
249.129799
 31
0.0
  0
LINE
  5
3BB
100
AcDbEntity
  8
0
370
    -3
  6
CENTER
100
AcDbLine
 10
-113.862374
 20
160.438035
 30
0.0
 11
-113.862374
 21
260.822438
 31
0.0
  0
LINE
  5
3BC
100
AcDbEntity
  8
0
370
    -3
  6
Continuous
100
AcDbLine
 10
171.137635
 20
17.086204
 30
0.0
 11
109.137635
 21
17.086204
 31
0.0
  0
LINE
  5
3BD
100
AcDbEntity
  8
0
370
    -3
  6
Continuous
100
AcDbLine
 10
109.137635
 20
18.086204
 30
0.0
 11
171.137635
 21
18.086204
 31
0.0
  0
LINE
  5
3BE
100
AcDbEntity
  8
0
370
    -3
  6
Continuous
100
AcDbLine
 10
171.137635
 20
17.086204
 30
0.0
 11
171.137635
 21
18.086204
 31
0.0
  0
LINE
  5
3BF
100
AcDbEntity
  8
0
370
    -3
  6
Continuous
100
AcDbLine
 10
109.137635
 20
17.086204
 30
0.0
 11
171.137635
 21
17.086204
 31
0.0
  0
LINE
  5
3C0
100
AcDbEntity
  8
0
370
    -3
  6
Continuous
100
AcDbLine
 10
109.137635
 20
17.086204
 30
0.0
 11
109.137635
 21
18.086204
 31
0.0
  0
LINE
  5
3C1
100
AcDbEntity
  8
0
370
    -3
  6
Continuous
100
AcDbLine
 10
168.137635
 20
18.086204
 30
0.0
 11
112.137635
 21
18.086204
 31
0.0
  0
ARC
  5
3C2
100
AcDbEntity
  8
0
370
    -3
  6
Continuous
100
AcDbCircle
 10
108.637331
 20
16.086204
 30
0.0
 40
1.0
100
AcDbArc
 50
90.0
 51
178.0
  0
LINE
  5
3C3
100
AcDbEntity
  8
0
370
    -3
  6
Continuous
100
AcDbLine
 10
107.322434
 20
7.086204
 30
0.0
 11
107.63794
 21
16.121104
 31
0.0
  0
LINE
  5
3C4
100
AcDbEntity
  8
0
370
    -3
  6
Continuous
100
AcDbLine
 10
108.637331
 20
17.086204
 30
0.0
 11
140.137635
 21
17.086204
 31
0.0
  0
LINE
  5
3C5
100
AcDbEntity
  8
0
370
    -3
  6
Continuous
100
AcDbLine
 10
112.792014
 20
7.086204
 30
0.0
 11
107.322434
 21
7.086204
 31
0.0
  0
ARC
  5
3C6
100
AcDbEntity
  8
0
370
    -3
  6
Continuous
100
AcDbCircle
 10
111.656665
 20
6.586204
 30
0.0
 40
0.5
100
AcDbArc
 50
34.131887
 51
90.0
  0
ARC
  5
3C7
100
AcDbEntity
  8
0
370
    -3
  6
Continuous
100
AcDbCircle
 10
171.63794
 20
16.086204
 30
0.0
 40
1.0
100
AcDbArc
 50
2.0
 51
90.0
  0
LINE
  5
3C8
100
AcDbEntity
  8
0
370
    -3
  6
Continuous
100
AcDbLine
 10
172.952836
 20
7.086204
 30
0.0
 11
172.637331
 21
16.121104
 31
0.0
  0
LINE
  5
3C9
100
AcDbEntity
  8
0
370
    -3
  6
Continuous
100
AcDbLine
 10
171.63794
 20
17.086204
 30
0.0
 11
140.137635
 21
17.086204
 31
0.0
  0
LINE
  5
3CA
100
AcDbEntity
  8
0
370
    -3
  6
Continuous
100
AcDbLine
 10
167.483257
 20
7.086204
 30
0.0
 11
172.952836
 21
7.086204
 31
0.0
  0
ARC
  5
3CB
100
AcDbEntity
  8
0
370
    -3
  6
Continuous
100
AcDbCircle
 10
168.618606
 20
6.586204
 30
0.0
 40
0.5
100
AcDbArc
 50
90.0
 51
145.868113
  0
ARC
  5
3CC
100
AcDbEntity
  8
0
370
    -3
  6
Continuous
100
AcDbCircle
 10
140.137635
 20
44.086204
 30
0.0
 40
14.0
100
AcDbArc
 50
90.0
 51
270.0
  0
ARC
  5
3CD
100
AcDbEntity
  8
0
370
    -3
  6
Continuous
100
AcDbCircle
 10
140.137635
 20
44.086204
 30
0.0
 40
9.3155
100
AcDbArc
 50
90.0
 51
270.0
  0
ARC
  5
3CE
100
AcDbEntity
  8
0
370
    -3
  6
Continuous
100
AcDbCircle
 10
140.137635
 20
44.086204
 30
0.0
 40
10.4775
100
AcDbArc
 50
90.0
 51
270.0
  0
ARC
  5
3CF
100
AcDbEntity
  8
0
370
    -3
  6
Continuous
100
AcDbCircle
 10
101.137635
 20
27.641728
 30
0.0
 40
7.8
100
AcDbArc
 50
180.0
 51
270.0
  0
LINE
  5
3D0
100
AcDbEntity
  8
0
370
    -3
  6
Continuous
100
AcDbLine
 10
94.137635
 20
57.55474
 30
0.0
 11
94.137635
 21
27.179822
 31
0.0
  0
ARC
  5
3D1
100
AcDbEntity
  8
0
370
    -3
  6
Continuous
100
AcDbCircle
 10
101.137635
 20
57.55474
 30
0.0
 40
7.0
100
AcDbArc
 50
90.0
 51
180.0
  0
ARC
  5
3D2
100
AcDbEntity
  8
0
370
    -3
  6
Continuous
100
AcDbCircle
 10
101.137635
 20
57.092834
 30
0.0
 40
7.8
100
AcDbArc
 50
90.0
 51
180.0
  0
ARC
  5
3D3
100
AcDbEntity
  8
0
370
    -3
  6
Continuous
100
AcDbCircle
 10
101.137635
 20
61.757353
 30
0.0
 40
7.8
100
AcDbArc
 50
90.0
 51
180.0
  0
ELLIPSE
  5
3D4
100
AcDbEntity
  8
0
370
    -3
  6
Continuous
100
AcDbEllipse
 10
100.637635
 20
67.671944
 30
0.0
 11
3.5
 21
0.0
 31
0.0
210
0.0
220
0.0
230
1.0
 40
0.656603
 41
0.9621393645105928
 42
2.7085416781366058
  0
LINE
  5
3D5
100
AcDbEntity
  8
0
370
    -3
  6
Continuous
100
AcDbLine
 10
93.337635
 20
61.757353
 30
0.0
 11
93.337635
 21
27.641728
 31
0.0
  0
LINE
  5
3D6
100
AcDbEntity
  8
0
370
    -3
  6
Continuous
100
AcDbLine
 10
140.137635
 20
64.55474
 30
0.0
 11
101.137635
 21
64.55474
 31
0.0
  0
LINE
  5
3D7
100
AcDbEntity
  8
0
370
    -3
  6
Continuous
100
AcDbLine
 10
101.137635
 20
69.557353
 30
0.0
 11
140.137635
 21
69.557353
 31
0.0
  0
LINE
  5
3D8
100
AcDbEntity
  8
0
370
    -3
  6
Continuous
100
AcDbLine
 10
109.137635
 20
18.086204
 30
0.0
 11
140.137635
 21
18.086204
 31
0.0
  0
LINE
  5
3D9
100
AcDbEntity
  8
0
370
    -3
  6
Continuous
100
AcDbLine
 10
109.137635
 20
17.086204
 30
0.0
 11
109.137635
 21
18.086204
 31
0.0
  0
ARC
  5
3DA
100
AcDbEntity
  8
0
370
    -3
  6
Continuous
100
AcDbCircle
 10
101.137635
 20
27.179822
 30
0.0
 40
7.0
100
AcDbArc
 50
180.0
 51
270.0
  0
LINE
  5
3DB
100
AcDbEntity
  8
0
370
    -3
  6
Continuous
100
AcDbLine
 10
140.137635
 20
18.086204
 30
0.0
 11
112.137635
 21
18.086204
 31
0.0
  0
LINE
  5
3DC
100
AcDbEntity
  8
0
370
    -3
  6
Continuous
100
AcDbLine
 10
140.137635
 20
63.322116
 30
0.0
 11
114.078602
 21
63.322116
 31
0.0
  0
LINE
  5
3DD
100
AcDbEntity
  8
0
370
    -3
  6
Continuous
100
AcDbLine
 10
100.837635
 20
25.886204
 30
0.0
 11
100.837635
 21
55.519063
 31
0.0
  0
LINE
  5
3DE
100
AcDbEntity
  8
0
370
    -3
  6
Continuous
100
AcDbLine
 10
112.595205
 20
63.020621
 30
0.0
 11
103.154238
 21
59.017567
 31
0.0
  0
ARC
  5
3DF
100
AcDbEntity
  8
0
370
    -3
  6
Continuous
100
AcDbCircle
 10
114.078602
 20
59.522116
 30
0.0
 40
3.8
100
AcDbArc
 50
90.0
 51
112.977375
  0
ARC
  5
3E0
100
AcDbEntity
  8
0
370
    -3
  6
Continuous
100
AcDbCircle
 10
104.637635
 20
55.519063
 30
0.0
 40
3.8
100
AcDbArc
 50
112.977375
 51
180.0
  0
LINE
  5
3E1
100
AcDbEntity
  8
0
370
    -3
  6
Continuous
100
AcDbLine
 10
140.137635
 20
19.086204
 30
0.0
 11
107.637635
 21
19.086204
 31
0.0
  0
ARC
  5
3E2
100
AcDbEntity
  8
0
370
    -3
  6
Continuous
100
AcDbCircle
 10
107.637635
 20
25.886204
 30
0.0
 40
6.8
100
AcDbArc
 50
180.0
 51
270.0
  0
LINE
  5
3E3
100
AcDbEntity
  8
0
370
    -3
  6
Continuous
100
AcDbLine
 10
101.686447
 20
22.596318
 30
0.0
 11
100.637635
 21
22.596318
 31
0.0
  0
ARC
  5
3E4
100
AcDbEntity
  8
0
370
    -3
  6
Continuous
100
AcDbCircle
 10
100.637635
 20
28.596318
 30
0.0
 40
6.0
100
AcDbArc
 50
180.0
 51
270.0
  0
ARC
  5
3E5
100
AcDbEntity
  8
0
370
    -3
  6
Continuous
100
AcDbCircle
 10
110.872724
 20
18.786204
 30
0.0
 40
0.3
100
AcDbArc
 50
13.342364
 51
90.0
  0
ARC
  5
3E6
100
AcDbEntity
  8
0
370
    -3
  6
Continuous
100
AcDbCircle
 10
112.137635
 20
19.086204
 30
0.0
 40
1.0
100
AcDbArc
 50
193.342364
 51
270.0
  0
LINE
  5
3E7
100
AcDbEntity
  8
0
370
    -3
  6
Continuous
100
AcDbLine
 10
103.939365
 20
20.179822
 30
0.0
 11
101.137635
 21
20.179822
 31
0.0
  0
LINE
  5
3E8
100
AcDbEntity
  8
0
370
    -3
  6
Continuous
100
AcDbLine
 10
101.137635
 20
19.841728
 30
0.0
 11
104.522463
 21
19.841728
 31
0.0
  0
LINE
  5
3E9
100
AcDbEntity
  8
0
370
    -3
  6
Continuous
100
AcDbLine
 10
94.637635
 20
28.596318
 30
0.0
 11
94.637635
 21
60.152816
 31
0.0
  0
LINE
  5
3EA
100
AcDbEntity
  8
0
370
    -3
  6
Continuous
100
AcDbLine
 10
140.137635
 20
64.892834
 30
0.0
 11
101.137635
 21
64.892834
 31
0.0
  0
LINE
  5
3EB
100
AcDbEntity
  8
0
370
    -3
  6
CENTER
100
AcDbLine
 10
158.782568
 20
44.086204
 30
0.0
 11
118.837178
 21
44.086204
 31
0.0
  0
ARC
  5
3EC
100
AcDbEntity
  8
0
370
    -3
  6
Continuous
100
AcDbCircle
 10
179.137635
 20
27.641728
 30
0.0
 40
7.8
100
AcDbArc
 50
270.0
 51
0.0
  0
LINE
  5
3ED
100
AcDbEntity
  8
0
370
    -3
  6
Continuous
100
AcDbLine
 10
186.137635
 20
57.55474
 30
0.0
 11
186.137635
 21
27.179822
 31
0.0
  0
ARC
  5
3EE
100
AcDbEntity
  8
0
370
    -3
  6
Continuous
100
AcDbCircle
 10
179.137635
 20
57.55474
 30
0.0
 40
7.0
100
AcDbArc
 50
0.0
 51
90.0
  0
ARC
  5
3EF
100
AcDbEntity
  8
0
370
    -3
  6
Continuous
100
AcDbCircle
 10
179.137635
 20
57.092834
 30
0.0
 40
7.8
100
AcDbArc
 50
0.0
 51
90.0
  0
ARC
  5
3F0
100
AcDbEntity
  8
0
370
    -3
  6
Continuous
100
AcDbCircle
 10
179.137635
 20
61.757353
 30
0.0
 40
7.8
100
AcDbArc
 50
0.0
 51
90.0
  0
ELLIPSE
  5
3F1
100
AcDbEntity
  8
0
370
    -3
  6
Continuous
100
AcDbEllipse
 10
179.637635
 20
67.671944
 30
0.0
 11
3.5
 21
0.0
 31
0.0
210
0.0
220
0.0
230
1.0
 40
0.656603
 41
0.4330509754536011
 42
2.1794532890793072
  0
LINE
  5
3F2
100
AcDbEntity
  8
0
370
    -3
  6
Continuous
100
AcDbLine
 10
186.937635
 20
61.757353
 30
0.0
 11
186.937635
 21
27.641728
 31
0.0
  0
LINE
  5
3F3
100
AcDbEntity
  8
0
370
    -3
  6
Continuous
100
AcDbLine
 10
140.137635
 20
64.55474
 30
0.0
 11
179.137635
 21
64.55474
 31
0.0
  0
LINE
  5
3F4
100
AcDbEntity
  8
0
370
    -3
  6
Continuous
100
AcDbLine
 10
179.137635
 20
69.557353
 30
0.0
 11
140.137635
 21
69.557353
 31
0.0
  0
LINE
  5
3F5
100
AcDbEntity
  8
0
370
    -3
  6
Continuous
100
AcDbLine
 10
171.137635
 20
18.086204
 30
0.0
 11
140.137635
 21
18.086204
 31
0.0
  0
LINE
  5
3F6
100
AcDbEntity
  8
0
370
    -3
  6
Continuous
100
AcDbLine
 10
171.137635
 20
17.086204
 30
0.0
 11
171.137635
 21
18.086204
 31
0.0
  0
ARC
  5
3F7
100
AcDbEntity
  8
0
370
    -3
  6
Continuous
100
AcDbCircle
 10
179.137635
 20
27.179822
 30
0.0
 40
7.0
100
AcDbArc
 50
270.0
 51
0.0
  0
LINE
  5
3F8
100
AcDbEntity
  8
0
370
    -3
  6
Continuous
100
AcDbLine
 10
140.137635
 20
18.086204
 30
0.0
 11
168.137635
 21
18.086204
 31
0.0
  0
LINE
  5
3F9
100
AcDbEntity
  8
0
370
    -3
  6
Continuous
100
AcDbLine
 10
140.137635
 20
63.322116
 30
0.0
 11
166.196669
 21
63.322116
 31
0.0
  0
LINE
  5
3FA
100
AcDbEntity
  8
0
370
    -3
  6
Continuous
100
AcDbLine
 10
179.437635
 20
25.886204
 30
0.0
 11
179.437635
 21
55.519063
 31
0.0
  0
LINE
  5
3FB
100
AcDbEntity
  8
0
370
    -3
  6
Continuous
100
AcDbLine
 10
167.680066
 20
63.020621
 30
0.0
 11
177.121032
 21
59.017567
 31
0.0
  0
ARC
  5
3FC
100
AcDbEntity
  8
0
370
    -3
  6
Continuous
100
AcDbCircle
 10
166.196669
 20
59.522116
 30
0.0
 40
3.8
100
AcDbArc
 50
67.022625
 51
90.0
  0
ARC
  5
3FD
100
AcDbEntity
  8
0
370
    -3
  6
Continuous
100
AcDbCircle
 10
175.637635
 20
55.519063
 30
0.0
 40
3.8
100
AcDbArc
 50
0.0
 51
67.022625
  0
LINE
  5
3FE
100
AcDbEntity
  8
0
370
    -3
  6
Continuous
100
AcDbLine
 10
140.137635
 20
19.086204
 30
0.0
 11
172.637635
 21
19.086204
 31
0.0
  0
ARC
  5
3FF
100
AcDbEntity
  8
0
370
    -3
  6
Continuous
100
AcDbCircle
 10
172.637635
 20
25.886204
 30
0.0
 40
6.8
100
AcDbArc
 50
270.0
 51
0.0
  0
LINE
  5
400
100
AcDbEntity
  8
0
370
    -3
  6
Continuous
100
AcDbLine
 10
178.588824
 20
22.596318
 30
0.0
 11
179.637635
 21
22.596318
 31
0.0
  0
ARC
  5
401
100
AcDbEntity
  8
0
370
    -3
  6
Continuous
100
AcDbCircle
 10
179.637635
 20
28.596318
 30
0.0
 40
6.0
100
AcDbArc
 50
270.0
 51
0.0
  0
ARC
  5
402
100
AcDbEntity
  8
0
370
    -3
  6
Continuous
100
AcDbCircle
 10
169.402546
 20
18.786204
 30
0.0
 40
0.3
100
AcDbArc
 50
90.0
 51
166.657636
  0
ARC
  5
403
100
AcDbEntity
  8
0
370
    -3
  6
Continuous
100
AcDbCircle
 10
168.137635
 20
19.086204
 30
0.0
 40
1.0
100
AcDbArc
 50
270.0
 51
346.657636
  0
LINE
  5
404
100
AcDbEntity
  8
0
370
    -3
  6
Continuous
100
AcDbLine
 10
176.335906
 20
20.179822
 30
0.0
 11
179.137635
 21
20.179822
 31
0.0
  0
LINE
  5
405
100
AcDbEntity
  8
0
370
    -3
  6
Continuous
100
AcDbLine
 10
179.137635
 20
19.841728
 30
0.0
 11
175.752808
 21
19.841728
 31
0.0
  0
LINE
  5
406
100
AcDbEntity
  8
0
370
    -3
  6
Continuous
100
AcDbLine
 10
185.637635
 20
28.596318
 30
0.0
 11
185.637635
 21
60.152816
 31
0.0
  0
LINE
  5
407
100
AcDbEntity
  8
0
370
    -3
  6
Continuous
100
AcDbLine
 10
140.137635
 20
64.892834
 30
0.0
 11
179.137635
 21
64.892834
 31
0.0
  0
ARC
  5
408
100
AcDbEntity
  8
0
370
    -3
  6
Continuous
100
AcDbCircle
 10
140.137635
 20
44.086204
 30
0.0
 40
14.0
100
AcDbArc
 50
270.0
 51
90.0
  0
ARC
  5
409
100
AcDbEntity
  8
0
370
    -3
  6
Continuous
100
AcDbCircle
 10
140.137635
 20
44.086204
 30
0.0
 40
9.3155
100
AcDbArc
 50
270.0
 51
90.0
  0
ARC
  5
40A
100
AcDbEntity
  8
0
370
    -3
  6
Continuous
100
AcDbCircle
 10
140.137635
 20
44.086204
 30
0.0
 40
10.4775
100
AcDbArc
 50
270.0
 51
90.0
  0
LINE
  5
40B
100
AcDbEntity
  8
0
370
    -3
  6
Continuous
100
AcDbLine
 10
113.306265
 20
25.886204
 30
0.0
 11
113.306265
 21
63.242801
 31
0.0
  0
ARC
  5
40C
100
AcDbEntity
  8
0
370
    -3
  6
Continuous
100
AcDbCircle
 10
120.106265
 20
25.886204
 30
0.0
 40
6.8
100
AcDbArc
 50
180.0
 51
270.0
  0
ARC
  5
40D
100
AcDbEntity
  8
0
370
    -3
  6
Continuous
100
AcDbCircle
 10
160.169006
 20
25.886204
 30
0.0
 40
6.8
100
AcDbArc
 50
270.0
 51
0.0
  0
LINE
  5
40E
100
AcDbEntity
  8
0
370
    -3
  6
Continuous
100
AcDbLine
 10
166.969006
 20
25.886204
 30
0.0
 11
166.969006
 21
63.242801
 31
0.0
  0
MTEXT
  5
40F
100
AcDbEntity
  8
0
370
    -3
  6
Continuous
100
AcDbMText
 10
-597.363586
 20
128.638474
 30
0.0
 40
15.0
 41
0.0
 71
     7
 72
     1
  1
\W0.43;DATE\W0.72; \W0.43;2012.01.14
  7
ZU_SHPTB00001
 11
1.0
 21
0.0
 31
0.0
 73
     1
 44
1.0
  0
ENDSEC
  0
SECTION
  2
OBJECTS
  0
DICTIONARY
  5
19
100
AcDbDictionary
280
     0
281
     1
  3
ACAD_GROUP
350
1A
  3
ACAD_MLINESTYLE
350
1B
  3
ACAD_LAYOUT
350
1E
  3
ACAD_PLOTSETTINGS
350
22
  3
ACAD_PLOTSTYLENAME
350
1F
  3
ACAD_WIPEOUT_VARS
350
23
  3
DWGPROPS
350
410
  0
DICTIONARY
  5
1A
102
{ACAD_REACTORS
330
19
102
}
100
AcDbDictionary
280
     0
281
     1
  0
DICTIONARY
  5
1B
102
{ACAD_REACTORS
330
19
102
}
100
AcDbDictionary
280
     0
281
     1
  3
Standard
350
1C
  0
MLINESTYLE
  5
1C
102
{ACAD_REACTORS
330
1B
102
}
100
AcDbMlineStyle
  2
Standard
 70
     0
  3

 62
     0
 51
90.0
 52
90.0
 71
     2
 49
0.5
 62
   256
  6
ByLayer
 49
-0.5
 62
   256
  6
ByLayer
  0
ACDBDICTIONARYWDFLT
  5
1F
102
{ACAD_REACTORS
330
19
102
}
100
AcDbDictionary
281
     1
  3
Normal
350
1D
100
AcDbDictionaryWithDefault
340
1D
  0
ACDBPLACEHOLDER
  5
1D
102
{ACAD_REACTORS
330
1F
102
}
  0
LAYOUT
  5
20
102
{ACAD_REACTORS
330
1E
102
}
100
AcDbPlotSettings
  1

  2

  4

  6

 40
0.0
 41
0.0
 42
0.0
 43
0.0
 44
0.0
 45
0.0
 46
0.0
 47
0.0
 48
0.0
 49
0.0
140
0.0
141
0.0
142
1.0
143
1.0
 70
  1024
 72
     0
 73
     0
 74
     0
  7

 75
     0
147
1.0
148
0.0
149
0.0
100
AcDbLayout
  1
Model
 70
     0
 71
     0
 10
0.0
 20
0.0
 11
0.0
 21
0.0
 12
0.0
 22
0.0
 32
0.0
 14
0.0
 24
0.0
 34
0.0
 15
0.0
 25
0.0
 35
0.0
146
0.0
 13
0.0
 23
0.0
 33
0.0
 16
0.0
 26
0.0
 36
0.0
 17
0.0
 27
0.0
 37
0.0
 76
     0
330
A
331
0
345
0
346
0
  0
LAYOUT
  5
21
102
{ACAD_REACTORS
330
1E
102
}
100
AcDbPlotSettings
  1

  2

  4

  6

 40
0.0
 41
0.0
 42
0.0
 43
0.0
 44
0.0
 45
0.0
 46
0.0
 47
0.0
 48
0.0
 49
0.0
140
0.0
141
0.0
142
1.0
143
1.0
 70
     0
 72
     0
 73
     0
 74
     0
  7

 75
     0
147
1.0
148
0.0
149
0.0
100
AcDbLayout
  1
Layout1
 70
     0
 71
     0
 10
0.0
 20
0.0
 11
0.0
 21
0.0
 12
0.0
 22
0.0
 32
0.0
 14
0.0
 24
0.0
 34
0.0
 15
0.0
 25
0.0
 35
0.0
146
0.0
 13
0.0
 23
0.0
 33
0.0
 16
0.0
 26
0.0
 36
0.0
 17
0.0
 27
0.0
 37
0.0
 76
     0
330
B
331
0
345
0
346
0
  0
DICTIONARY
  5
1E
102
{ACAD_REACTORS
330
19
102
}
100
AcDbDictionary
280
     0
281
     1
  3
Layout1
350
21
  3
Model
350
20
  0
DICTIONARY
  5
22
102
{ACAD_REACTORS
330
19
102
}
100
AcDbDictionary
280
     0
281
     1
  0
WIPEOUTVARIABLES
  5
23
100
AcDbWipeoutVariables
 70
     1
  0
XRECORD
  5
410
100
AcDbXrecord
280
     1
  1
DWGPROPS COOKIE
  2

  3

  4

  6

  7

  8
HK96464
  9

300
=
301
=
302
=
303
=
304
=
305
=
306
=
307
=
308
=
309
=
 40
0.0
 41
2455941.792454
 42
2455941.792454
  1

 90
        0
  0
ENDSEC
  0
EOF
