  0
SECTION
  2
HEADER
  9
$ACADVER
  1
AC1015
  9
$ACADMAINTVER
 70
     6
  9
$DWGCODEPAGE
  3
ANSI_932
  9
$INSBASE
 10
0.0
 20
0.0
 30
0.0
  9
$EXTMIN
 10
1.000000E+20
 20
1.000000E+20
 30
1.000000E+20
  9
$EXTMAX
 10
-1.000000E+20
 20
-1.000000E+20
 30
-1.000000E+20
  9
$LIMMIN
 10
0.0
 20
0.0
  9
$LIMMAX
 10
0.0
 20
0.0
  9
$ORTHOMODE
 70
     0
  9
$REGENMODE
 70
     1
  9
$FILLMODE
 70
     1
  9
$QTEXTMODE
 70
     0
  9
$MIRRTEXT
 70
     1
  9
$LTSCALE
 40
1.0
  9
$ATTMODE
 70
     1
  9
$TEXTSIZE
 40
7.0
  9
$TRACEWID
 40
0.05
  9
$TEXTSTYLE
  7
Standard
  9
$CLAYER
  8
0
  9
$CELTYPE
  6
Continuous
  9
$CECOLOR
 62
   256
  9
$CELTSCALE
 40
1.0
  9
$DISPSILH
 70
     0
  9
$DIMSCALE
 40
1.0
  9
$DIMASZ
 40
1.931852
  9
$DIMEXO
 40
1.0
  9
$DIMDLI
 40
0.38
  9
$DIMRND
 40
0.0
  9
$DIMDLE
 40
0.0
  9
$DIMEXE
 40
2.0
  9
$DIMTP
 40
0.0
  9
$DIMTM
 40
0.0
  9
$DIMTXT
 40
2.8
  9
$DIMCEN
 40
0.09
  9
$DIMTSZ
 40
0.0
  9
$DIMTOL
 70
     0
  9
$DIMLIM
 70
     0
  9
$DIMTIH
 70
     1
  9
$DIMTOH
 70
     1
  9
$DIMSE1
 70
     0
  9
$DIMSE2
 70
     0
  9
$DIMTAD
 70
     1
  9
$DIMZIN
 70
     0
  9
$DIMBLK
  1

  9
$DIMASO
 70
     1
  9
$DIMSHO
 70
     1
  9
$DIMPOST
  1

  9
$DIMAPOST
  1

  9
$DIMALT
 70
     0
  9
$DIMALTD
 70
     2
  9
$DIMALTF
 40
25.4
  9
$DIMLFAC
 40
1.0
  9
$DIMTOFL
 70
     0
  9
$DIMTVP
 40
0.0
  9
$DIMTIX
 70
     0
  9
$DIMSOXD
 70
     0
  9
$DIMSAH
 70
     0
  9
$DIMBLK1
  1

  9
$DIMBLK2
  1

  9
$DIMSTYLE
  2
Standard
  9
$DIMCLRD
 70
     0
  9
$DIMCLRE
 70
     0
  9
$DIMCLRT
 70
     0
  9
$DIMTFAC
 40
0.714286
  9
$DIMGAP
 40
0.09
  9
$DIMJUST
 70
     0
  9
$DIMSD1
 70
     0
  9
$DIMSD2
 70
     0
  9
$DIMTOLJ
 70
     1
  9
$DIMTZIN
 70
     0
  9
$DIMALTZ
 70
     0
  9
$DIMALTTZ
 70
     0
  9
$DIMUPT
 70
     0
  9
$DIMDEC
 70
     4
  9
$DIMTDEC
 70
     4
  9
$DIMALTU
 70
     2
  9
$DIMALTTD
 70
     2
  9
$DIMTXSTY
  7
Standard
  9
$DIMAUNIT
 70
     0
  9
$DIMADEC
 70
     0
  9
$DIMALTRND
 40
0.0
  9
$DIMAZIN
 70
     0
  9
$DIMDSEP
 70
     0
  9
$DIMATFIT
 70
     3
  9
$DIMFRAC
 70
     0
  9
$DIMLDRBLK
  1

  9
$DIMLUNIT
 70
     2
  9
$DIMLWD
 70
     0
  9
$DIMLWE
 70
     0
  9
$DIMTMOVE
 70
     0
  9
$LUNITS
 70
     2
  9
$LUPREC
 70
     3
  9
$SKETCHINC
 40
0.1
  9
$FILLETRAD
 40
0.0
  9
$AUNITS
 70
     0
  9
$AUPREC
 70
     0
  9
$MENU
  1
acad
  9
$ELEVATION
 40
0.0
  9
$PELEVATION
 40
0.0
  9
$THICKNESS
 40
0.0
  9
$LIMCHECK
 70
     0
  9
$CHAMFERA
 40
0.0
  9
$CHAMFERB
 40
0.0
  9
$CHAMFERC
 40
0.0
  9
$CHAMFERD
 40
0.0
  9
$SKPOLY
 70
     0
  9
$TDCREATE
 40
0.000000000
  9
$TDUCREATE
 40
0.000000000
  9
$TDUPDATE
 40
0.000000000
  9
$TDUUPDATE
 40
0.000000000
  9
$TDINDWG
 40
0.0000000000
  9
$TDUSRTIMER
 40
0.0000000000
  9
$USRTIMER
 70
     1
  9
$ANGBASE
 50
0.0
  9
$ANGDIR
 70
     0
  9
$PDMODE
 70
     0
  9
$PDSIZE
 40
0.0
  9
$PLINEWID
 40
0.0
  9
$SPLFRAME
 70
     0
  9
$SPLINETYPE
 70
     6
  9
$SPLINESEGS
 70
     8
  9
$HANDSEED
  5
4AE
  9
$SURFTAB1
 70
     6
  9
$SURFTAB2
 70
     6
  9
$SURFTYPE
 70
     6
  9
$SURFU
 70
     6
  9
$SURFV
 70
     6
  9
$UCSBASE
  2

  9
$UCSNAME
  2

  9
$UCSORG
 10
0.0
 20
0.0
 30
0.0
  9
$UCSXDIR
 10
1.0
 20
0.0
 30
0.0
  9
$UCSYDIR
 10
0.0
 20
1.0
 30
0.0
  9
$UCSORTHOREF
  2

  9
$UCSORTHOVIEW
 70
     0
  9
$UCSORGTOP
 10
0.0
 20
0.0
 30
0.0
  9
$UCSORGBOTTOM
 10
0.0
 20
0.0
 30
0.0
  9
$UCSORGLEFT
 10
0.0
 20
0.0
 30
0.0
  9
$UCSORGRIGHT
 10
0.0
 20
0.0
 30
0.0
  9
$UCSORGFRONT
 10
0.0
 20
0.0
 30
0.0
  9
$UCSORGBACK
 10
0.0
 20
0.0
 30
0.0
  9
$PUCSBASE
  2

  9
$PUCSNAME
  2

  9
$PUCSORG
 10
0.0
 20
0.0
 30
0.0
  9
$PUCSXDIR
 10
1.0
 20
0.0
 30
0.0
  9
$PUCSYDIR
 10
0.0
 20
1.0
 30
0.0
  9
$PUCSORTHOREF
  2

  9
$PUCSORTHOVIEW
 70
     0
  9
$PUCSORGTOP
 10
0.0
 20
0.0
 30
0.0
  9
$PUCSORGBOTTOM
 10
0.0
 20
0.0
 30
0.0
  9
$PUCSORGLEFT
 10
0.0
 20
0.0
 30
0.0
  9
$PUCSORGRIGHT
 10
0.0
 20
0.0
 30
0.0
  9
$PUCSORGFRONT
 10
0.0
 20
0.0
 30
0.0
  9
$PUCSORGBACK
 10
0.0
 20
0.0
 30
0.0
  9
$USERI1
 70
     0
  9
$USERI2
 70
     0
  9
$USERI3
 70
     0
  9
$USERI4
 70
     0
  9
$USERI5
 70
     0
  9
$USERR1
 40
0.0
  9
$USERR2
 40
0.0
  9
$USERR3
 40
0.0
  9
$USERR4
 40
0.0
  9
$USERR5
 40
0.0
  9
$WORLDVIEW
 70
     1
  9
$SHADEDGE
 70
     3
  9
$SHADEDIF
 70
    70
  9
$TILEMODE
 70
     1
  9
$MAXACTVP
 70
    16
  9
$PINSBASE
 10
0.0
 20
0.0
 30
0.0
  9
$PLIMCHECK
 70
     0
  9
$PEXTMIN
 10
1.000000E+20
 20
1.000000E+20
 30
1.000000E+20
  9
$PEXTMAX
 10
-1.000000E+20
 20
-1.000000E+20
 30
-1.000000E+20
  9
$PLIMMIN
 10
0.0
 20
0.0
  9
$PLIMMAX
 10
12.0
 20
9.0
  9
$UNITMODE
 70
     0
  9
$VISRETAIN
 70
     0
  9
$PLINEGEN
 70
     1
  9
$PSLTSCALE
 70
     0
  9
$TREEDEPTH
 70
  3020
  9
$CMLSTYLE
  2
Standard
  9
$CMLJUST
 70
     0
  9
$CMLSCALE
 40
1.0
  9
$PROXYGRAPHICS
 70
     0
  9
$MEASUREMENT
 70
     0
  9
$CELWEIGHT
370
     0
  9
$ENDCAPS
280
     0
  9
$JOINSTYLE
280
     0
  9
$LWDISPLAY
290
     0
  9
$INSUNITS
 70
     0
  9
$HYPERLINKBASE
  1

  9
$STYLESHEET
  1

  9
$XEDIT
290
     1
  9
$CEPSNTYPE
380
     0
  9
$PSTYLEMODE
290
     1
  9
$FINGERPRINTGUID
  2

  9
$VERSIONGUID
  2

  9
$EXTNAMES
290
     1
  9
$PSVPSCALE
 40
0.0
  0
ENDSEC
  0
SECTION
  2
CLASSES
  0
CLASS
  1
LWPOLYLINE
  2
AcDbPolyline
  3
AutoCAD 2000
 90
    32768
280
     0
281
     1
  0
CLASS
  1
IMAGE
  2
AcDbRasterImage
  3
ISM
 90
    32895
280
     0
281
     1
  0
CLASS
  1
OLE2FRAME
  2
AcDbOle2Frame
  3
AutoCAD 2000
 90
    32768
280
     0
281
     1
  0
CLASS
  1
HATCH
  2
AcDbHatch
  3
AutoCAD 2000
 90
    32768
280
     0
281
     1
  0
CLASS
  1
DICTIONARYVAR
  2
AcDbDictionaryVar
  3
AutoCAD 2000
 90
    32768
280
     0
281
     0
  0
CLASS
  1
RASTERVARIABLES
  2
AcDbRasterVariables
  3
ISM
 90
    32768
280
     0
281
     0
  0
CLASS
  1
IMAGEDEF
  2
AcDbRasterImageDef
  3
ISM
 90
    32768
280
     0
281
     0
  0
CLASS
  1
IMAGEDEF_REACTOR
  2
AcDbRasterImageDefReactor
  3
ISM
 90
    32769
280
     0
281
     0
  0
CLASS
  1
IDBUFFER
  2
AcDbIdBuffer
  3
AutoCAD 2000
 90
    32768
280
     0
281
     0
  0
CLASS
  1
SPATIAL_FILTER
  2
AcDbSpatialFilter
  3
AutoCAD 2000
 90
    32768
280
     0
281
     0
  0
CLASS
  1
XRECORD
  2
AcDbXrecord
  3
AutoCAD 2000
 90
        0
280
     0
281
     0
  0
CLASS
  1
SORTENTSTABLE
  2
AcDbSortentsTable
  3
AutoCAD 2000
 90
    32768
280
     0
281
     0
  0
CLASS
  1
LAYER_INDEX
  2
AcDbLayerIndex
  3
AutoCAD 2000
 90
    32768
280
     0
281
     0
  0
CLASS
  1
SPATIAL_INDEX
  2
AcDbSpatialIndex
  3
AutoCAD 2000
 90
    32768
280
     0
281
     0
  0
CLASS
  1
OBJECT_PTR
  2
CAseDLPNTableRecord
  3
"ASE-LPNTableRecord"
 90
    32769
280
     0
281
     0
  0
CLASS
  1
LAYOUT
  2
AcDbLayout
  3
AutoCAD 2000
 90
        0
280
     0
281
     0
  0
CLASS
  1
PLOTSETTINGS
  2
AcDbPlotSettings
  3
AutoCAD 2000
 90
    32768
280
     0
281
     0
  0
CLASS
  1
ACDBDICTIONARYWDFLT
  2
AcDbDictionaryWithDefault
  3
AutoCAD 2000
 90
        0
280
     0
281
     0
  0
CLASS
  1
ACDBPLACEHOLDER
  2
AcDbPlaceHolder
  3
AutoCAD 2000
 90
        0
280
     0
281
     0
  0
CLASS
  1
VBA_PROJECT
  2
AcDbVbaProject
  3
acadvba
 90
    32768
280
     0
281
     0
  0
CLASS
  1
WIPEOUT
  2
AcDbWipeout
  3
WipeOut|AutoCAD Express Tool|expresstools@autodesk.com
 90
    32895
280
     0
281
     1
  0
CLASS
  1
WIPEOUTVARIABLES
  2
AcDbWipeoutVariables
  3
WipeOut|AutoCAD Express Tool|expresstools@autodesk.com
 90
        0
280
     0
281
     0
  0
CLASS
  1
RTEXT
  2
RText
  3
RText|AutoCAD Express Tool|expresstools@autodesk.com
 90
    32768
280
     0
281
     1
  0
CLASS
  1
ARCALIGNEDTEXT
  2
AcDbArcAlignedText
  3
ATEXT|AutoCAD Express Tool|expresstools@autodesk.com
 90
    32768
280
     0
281
     1
  0
ENDSEC
  0
SECTION
  2
TABLES
  0
TABLE
  2
VPORT
  5
7
100
AcDbSymbolTable
 70
     1
  0
VPORT
  5
15
100
AcDbSymbolTableRecord
100
AcDbViewportTableRecord
  2
*ACTIVE
 70
     0
 10
0.0
 20
0.0
 11
1.0
 21
1.0
 12
0.0
 22
0.0
 13
0.0
 23
0.0
 14
1.0
 24
1.0
 15
0.0
 25
0.0
 16
0.0
 26
0.0
 36
1.0
 17
0.0
 27
0.0
 37
0.0
 40
100.0
 41
1.0
 42
50.0
 43
0.0
 44
0.0
 50
0.0
 51
0.0
 71
     0
 72
   100
 73
     1
 74
     1
 75
     0
 76
     0
 77
     0
 78
     0
281
     0
 65
     0
110
0.0
120
0.0
130
0.0
111
1.0
121
0.0
131
0.0
112
0.0
122
1.0
132
0.0
345
0
346
0
 79
     0
146
0.0
  0
ENDTAB
  0
TABLE
  2
LTYPE
  5
4
100
AcDbSymbolTable
 70
     7
  0
LTYPE
  5
11
100
AcDbSymbolTableRecord
100
AcDbLinetypeTableRecord
  2
ByBlock
 70
    64
  3

 72
    65
 73
     0
 40
0.0
  0
LTYPE
  5
12
100
AcDbSymbolTableRecord
100
AcDbLinetypeTableRecord
  2
ByLayer
 70
    64
  3

 72
    65
 73
     0
 40
0.0
  0
LTYPE
  5
13
100
AcDbSymbolTableRecord
100
AcDbLinetypeTableRecord
  2
Continuous
 70
    64
  3
Solid line
 72
    65
 73
     0
 40
0.0
  0
LTYPE
  5
24
100
AcDbSymbolTableRecord
100
AcDbLinetypeTableRecord
  2
DASHED
 70
    64
  3
Dashed __ __ __ __ __ __ __ __ __ __ __ __ __ _
 72
    65
 73
     2
 40
0.75
 49
0.5
 74
     0
 49
-0.25
 74
     0
  0
LTYPE
  5
25
100
AcDbSymbolTableRecord
100
AcDbLinetypeTableRecord
  2
CENTER
 70
    64
  3
Center ____ _ ____ _ ____ _ ____ _ ____ _ ____
 72
    65
 73
     4
 40
1.0
 49
0.5
 74
     0
 49
-0.25
 74
     0
 49
0.0
 74
     0
 49
-0.25
 74
     0
  0
LTYPE
  5
26
100
AcDbSymbolTableRecord
100
AcDbLinetypeTableRecord
  2
DIVIDE
 70
    64
  3
Divide ____ . . ____ . . ____ . . ____ . . ____
 72
    65
 73
     6
 40
1.25
 49
0.5
 74
     0
 49
-0.25
 74
     0
 49
0.0
 74
     0
 49
-0.25
 74
     0
 49
0.0
 74
     0
 49
-0.25
 74
     0
  0
LTYPE
  5
27
100
AcDbSymbolTableRecord
100
AcDbLinetypeTableRecord
  2
PHANTOM
 70
    64
  3
Phantom ______  __  __  ______  __  __  ______
 72
    65
 73
     6
 40
9.0
 49
4.3
 74
     0
 49
-0.7
 74
     0
 49
1.3
 74
     0
 49
-0.7
 74
     0
 49
1.3
 74
     0
 49
-0.7
 74
     0
  0
ENDTAB
  0
TABLE
  2
LAYER
  5
2
100
AcDbSymbolTable
 70
     3
  0
LAYER
  5
14
100
AcDbSymbolTableRecord
100
AcDbLayerTableRecord
  2
0
 70
    64
 62
    53
  6
Continuous
290
     1
370
    -3
390
1D
  0
LAYER
  5
28
100
AcDbSymbolTableRecord
100
AcDbLayerTableRecord
  2
3
 70
    64
 62
     4
  6
Continuous
290
     1
370
    -3
390
1D
  0
LAYER
  5
29
100
AcDbSymbolTableRecord
100
AcDbLayerTableRecord
  2
5
 70
    64
 62
   191
  6
Continuous
290
     1
370
    -3
390
1D
  0
ENDTAB
  0
TABLE
  2
STYLE
  5
3
100
AcDbSymbolTable
 70
     2
  0
STYLE
  5
17
100
AcDbSymbolTableRecord
100
AcDbTextStyleTableRecord
  2
Standard
 70
     0
 40
0.0
 41
1.0
 50
0.0
 71
     0
 42
0.0
  3
txt
  4

  0
STYLE
  5
38B
100
AcDbSymbolTableRecord
100
AcDbTextStyleTableRecord
  2
ZU_SHPTB00001
 70
     0
 40
0.0
 41
1.0
 50
0.0
 71
     0
 42
0.0
  3
monotxt
  4
bigfont
  0
ENDTAB
  0
TABLE
  2
VIEW
  5
5
100
AcDbSymbolTable
 70
     0
  0
ENDTAB
  0
TABLE
  2
UCS
  5
6
100
AcDbSymbolTable
 70
     0
  0
ENDTAB
  0
TABLE
  2
APPID
  5
8
100
AcDbSymbolTable
 70
     1
  0
APPID
  5
16
100
AcDbSymbolTableRecord
100
AcDbRegAppTableRecord
  2
ACAD
 70
     0
  0
ENDTAB
  0
TABLE
  2
DIMSTYLE
  5
9
100
AcDbSymbolTable
 70
     1
100
AcDbDimStyleTable
 71
     0
  0
DIMSTYLE
105
18
100
AcDbSymbolTableRecord
100
AcDbDimStyleTableRecord
  2
Standard
 70
     0
  3

  4

 40
1.0
 41
0.18
 42
0.0625
 43
0.38
 44
0.18
 45
0.0
 46
0.0
 47
0.0
 48
0.0
 71
     0
 72
     0
 73
     1
 74
     1
 75
     0
 76
     0
 77
     0
 78
     0
 79
     0
140
0.18
141
0.09
142
0.0
143
25.4
144
1.0
145
0.0
146
1.0
147
0.09
148
0.0
170
     0
171
     2
172
     0
173
     0
174
     0
175
     0
176
     0
177
     0
178
     0
179
     0
271
     4
272
     4
273
     2
274
     2
275
     0
276
     0
277
     2
278
    46
279
     0
280
     0
281
     0
282
     0
283
     1
284
     0
285
     0
286
     0
288
     0
340
17
341
0
342
0
343
0
344
0
371
    -2
372
    -2
  0
ENDTAB
  0
TABLE
  2
BLOCK_RECORD
  5
1
100
AcDbSymbolTable
 70
     4
  0
BLOCK_RECORD
  5
A
100
AcDbSymbolTableRecord
100
AcDbBlockTableRecord
  2
*MODEL_SPACE
340
20
  0
BLOCK_RECORD
  5
B
100
AcDbSymbolTableRecord
100
AcDbBlockTableRecord
  2
*PAPER_SPACE
340
21
  0
BLOCK_RECORD
  5
11A
100
AcDbSymbolTableRecord
100
AcDbBlockTableRecord
  2
ZU_SYM__USERS_HOME_SYMBOL_POO_SYM_B20_-1
340
0
102
{BLKREFS
331
125
102
}
  0
BLOCK_RECORD
  5
126
100
AcDbSymbolTableRecord
100
AcDbBlockTableRecord
  2
ZU_SYM__USERS_HOME_SYMBOL_POO_SYM_B20_00001-1
340
0
102
{BLKREFS
331
131
102
}
  0
BLOCK_RECORD
  5
132
100
AcDbSymbolTableRecord
100
AcDbBlockTableRecord
  2
ZU_SYM__USERS_HOME_SYMBOL_POO_SYM_B20_00002-1
340
0
102
{BLKREFS
331
13D
102
}
  0
BLOCK_RECORD
  5
13E
100
AcDbSymbolTableRecord
100
AcDbBlockTableRecord
  2
ZU_SYM__USERS_HOME_SYMBOL_POO_SYM_B20_00003-1
340
0
102
{BLKREFS
331
149
102
}
  0
ENDTAB
  0
ENDSEC
  0
SECTION
  2
BLOCKS
  0
BLOCK
  5
D
100
AcDbEntity
  8
0
100
AcDbBlockBegin
  2
*MODEL_SPACE
 70
     0
 10
0.0
 20
0.0
 30
0.0
  3
*MODEL_SPACE
  1

  0
ENDBLK
  5
E
100
AcDbEntity
  8
0
100
AcDbBlockEnd
  0
BLOCK
  5
F
100
AcDbEntity
 67
     1
  8
0
100
AcDbBlockBegin
  2
*PAPER_SPACE
 70
     0
 10
0.0
 20
0.0
 30
0.0
  3
*PAPER_SPACE
  1

  0
ENDBLK
  5
10
100
AcDbEntity
 67
     1
  8
0
100
AcDbBlockEnd
  0
BLOCK
  5
11B
100
AcDbEntity
  8
0
100
AcDbBlockBegin
  2
ZU_SYM__USERS_HOME_SYMBOL_POO_SYM_B20_-1
 70
    64
 10
0.0
 20
0.0
 30
0.0
  3
ZU_SYM__USERS_HOME_SYMBOL_POO_SYM_B20_-1
  1

  0
CIRCLE
  5
11C
100
AcDbEntity
  8
0
370
    -3
  6
Continuous
100
AcDbCircle
 10
0.0
 20
0.0
 30
0.0
 40
5.0
  0
POINT
  5
11D
100
AcDbEntity
  8
0
370
    -3
  6
Continuous
100
AcDbPoint
 10
0.0
 20
0.0
 30
0.0
  0
LINE
  5
11E
100
AcDbEntity
  8
0
370
    -3
  6
Continuous
100
AcDbLine
 10
-2.499998
 20
-1.443372
 30
0.0
 11
-2.499999
 21
1.443378
 31
0.0
  0
LINE
  5
11F
100
AcDbEntity
  8
0
370
    -3
  6
Continuous
100
AcDbLine
 10
2.499998
 20
1.443372
 30
0.0
 11
2.499999
 21
-1.443374
 31
0.0
  0
LINE
  5
120
100
AcDbEntity
  8
0
370
    -3
  6
Continuous
100
AcDbLine
 10
0.000005
 20
2.886749
 30
0.0
 11
2.499999
 21
1.443372
 31
0.0
  0
LINE
  5
121
100
AcDbEntity
  8
0
370
    -3
  6
Continuous
100
AcDbLine
 10
-0.000006
 20
-2.886747
 30
0.0
 11
-2.499998
 21
-1.443372
 31
0.0
  0
LINE
  5
122
100
AcDbEntity
  8
0
370
    -3
  6
Continuous
100
AcDbLine
 10
0.000005
 20
2.886748
 30
0.0
 11
-2.5
 21
1.443377
 31
0.0
  0
LINE
  5
123
100
AcDbEntity
  8
0
370
    -3
  6
Continuous
100
AcDbLine
 10
2.499999
 20
-1.443374
 30
0.0
 11
-0.000005
 21
-2.886748
 31
0.0
  0
ENDBLK
  5
124
100
AcDbEntity
  8
0
100
AcDbBlockEnd
  0
BLOCK
  5
127
100
AcDbEntity
  8
0
100
AcDbBlockBegin
  2
ZU_SYM__USERS_HOME_SYMBOL_POO_SYM_B20_00001-1
 70
    64
 10
0.0
 20
0.0
 30
0.0
  3
ZU_SYM__USERS_HOME_SYMBOL_POO_SYM_B20_00001-1
  1

  0
CIRCLE
  5
128
100
AcDbEntity
  8
0
370
    -3
  6
Continuous
100
AcDbCircle
 10
0.0
 20
0.0
 30
0.0
 40
5.0
  0
POINT
  5
129
100
AcDbEntity
  8
0
370
    -3
  6
Continuous
100
AcDbPoint
 10
0.0
 20
0.0
 30
0.0
  0
LINE
  5
12A
100
AcDbEntity
  8
0
370
    -3
  6
Continuous
100
AcDbLine
 10
-2.499998
 20
-1.443372
 30
0.0
 11
-2.499999
 21
1.443378
 31
0.0
  0
LINE
  5
12B
100
AcDbEntity
  8
0
370
    -3
  6
Continuous
100
AcDbLine
 10
2.499998
 20
1.443372
 30
0.0
 11
2.499999
 21
-1.443374
 31
0.0
  0
LINE
  5
12C
100
AcDbEntity
  8
0
370
    -3
  6
Continuous
100
AcDbLine
 10
0.000005
 20
2.886749
 30
0.0
 11
2.499999
 21
1.443372
 31
0.0
  0
LINE
  5
12D
100
AcDbEntity
  8
0
370
    -3
  6
Continuous
100
AcDbLine
 10
-0.000006
 20
-2.886747
 30
0.0
 11
-2.499998
 21
-1.443372
 31
0.0
  0
LINE
  5
12E
100
AcDbEntity
  8
0
370
    -3
  6
Continuous
100
AcDbLine
 10
0.000005
 20
2.886748
 30
0.0
 11
-2.5
 21
1.443377
 31
0.0
  0
LINE
  5
12F
100
AcDbEntity
  8
0
370
    -3
  6
Continuous
100
AcDbLine
 10
2.499999
 20
-1.443374
 30
0.0
 11
-0.000005
 21
-2.886748
 31
0.0
  0
ENDBLK
  5
130
100
AcDbEntity
  8
0
100
AcDbBlockEnd
  0
BLOCK
  5
133
100
AcDbEntity
  8
0
100
AcDbBlockBegin
  2
ZU_SYM__USERS_HOME_SYMBOL_POO_SYM_B20_00002-1
 70
    64
 10
0.0
 20
0.0
 30
0.0
  3
ZU_SYM__USERS_HOME_SYMBOL_POO_SYM_B20_00002-1
  1

  0
CIRCLE
  5
134
100
AcDbEntity
  8
0
370
    -3
  6
Continuous
100
AcDbCircle
 10
0.0
 20
0.0
 30
0.0
 40
5.0
  0
POINT
  5
135
100
AcDbEntity
  8
0
370
    -3
  6
Continuous
100
AcDbPoint
 10
0.0
 20
0.0
 30
0.0
  0
LINE
  5
136
100
AcDbEntity
  8
0
370
    -3
  6
Continuous
100
AcDbLine
 10
-2.499998
 20
-1.443372
 30
0.0
 11
-2.499999
 21
1.443378
 31
0.0
  0
LINE
  5
137
100
AcDbEntity
  8
0
370
    -3
  6
Continuous
100
AcDbLine
 10
2.499998
 20
1.443372
 30
0.0
 11
2.499999
 21
-1.443374
 31
0.0
  0
LINE
  5
138
100
AcDbEntity
  8
0
370
    -3
  6
Continuous
100
AcDbLine
 10
0.000005
 20
2.886749
 30
0.0
 11
2.499999
 21
1.443372
 31
0.0
  0
LINE
  5
139
100
AcDbEntity
  8
0
370
    -3
  6
Continuous
100
AcDbLine
 10
-0.000006
 20
-2.886747
 30
0.0
 11
-2.499998
 21
-1.443372
 31
0.0
  0
LINE
  5
13A
100
AcDbEntity
  8
0
370
    -3
  6
Continuous
100
AcDbLine
 10
0.000005
 20
2.886748
 30
0.0
 11
-2.5
 21
1.443377
 31
0.0
  0
LINE
  5
13B
100
AcDbEntity
  8
0
370
    -3
  6
Continuous
100
AcDbLine
 10
2.499999
 20
-1.443374
 30
0.0
 11
-0.000005
 21
-2.886748
 31
0.0
  0
ENDBLK
  5
13C
100
AcDbEntity
  8
0
100
AcDbBlockEnd
  0
BLOCK
  5
13F
100
AcDbEntity
  8
0
100
AcDbBlockBegin
  2
ZU_SYM__USERS_HOME_SYMBOL_POO_SYM_B20_00003-1
 70
    64
 10
0.0
 20
0.0
 30
0.0
  3
ZU_SYM__USERS_HOME_SYMBOL_POO_SYM_B20_00003-1
  1

  0
CIRCLE
  5
140
100
AcDbEntity
  8
0
370
    -3
  6
Continuous
100
AcDbCircle
 10
0.0
 20
0.0
 30
0.0
 40
5.0
  0
POINT
  5
141
100
AcDbEntity
  8
0
370
    -3
  6
Continuous
100
AcDbPoint
 10
0.0
 20
0.0
 30
0.0
  0
LINE
  5
142
100
AcDbEntity
  8
0
370
    -3
  6
Continuous
100
AcDbLine
 10
-2.499998
 20
-1.443372
 30
0.0
 11
-2.499999
 21
1.443378
 31
0.0
  0
LINE
  5
143
100
AcDbEntity
  8
0
370
    -3
  6
Continuous
100
AcDbLine
 10
2.499998
 20
1.443372
 30
0.0
 11
2.499999
 21
-1.443374
 31
0.0
  0
LINE
  5
144
100
AcDbEntity
  8
0
370
    -3
  6
Continuous
100
AcDbLine
 10
0.000005
 20
2.886749
 30
0.0
 11
2.499999
 21
1.443372
 31
0.0
  0
LINE
  5
145
100
AcDbEntity
  8
0
370
    -3
  6
Continuous
100
AcDbLine
 10
-0.000006
 20
-2.886747
 30
0.0
 11
-2.499998
 21
-1.443372
 31
0.0
  0
LINE
  5
146
100
AcDbEntity
  8
0
370
    -3
  6
Continuous
100
AcDbLine
 10
0.000005
 20
2.886748
 30
0.0
 11
-2.5
 21
1.443377
 31
0.0
  0
LINE
  5
147
100
AcDbEntity
  8
0
370
    -3
  6
Continuous
100
AcDbLine
 10
2.499999
 20
-1.443374
 30
0.0
 11
-0.000005
 21
-2.886748
 31
0.0
  0
ENDBLK
  5
148
100
AcDbEntity
  8
0
100
AcDbBlockEnd
  0
ENDSEC
  0
SECTION
  2
ENTITIES
  0
LINE
  5
2A
100
AcDbEntity
  8
0
370
    -3
  6
CENTER
100
AcDbLine
 10
-420.336551
 20
-48.426525
 30
0.0
 11
-175.967821
 21
-48.426525
 31
0.0
  0
ARC
  5
2B
100
AcDbEntity
  8
0
370
    -3
  6
Continuous
100
AcDbCircle
 10
-185.873417
 20
-63.626525
 30
0.0
 40
0.8
100
AcDbArc
 50
270.0
 51
0.0
  0
LINE
  5
2C
100
AcDbEntity
  8
0
370
    -3
  6
Continuous
100
AcDbLine
 10
-242.073212
 20
-65.426525
 30
0.0
 11
-240.473349
 21
-65.426525
 31
0.0
  0
LINE
  5
2D
100
AcDbEntity
  8
0
370
    -3
  6
Continuous
100
AcDbLine
 10
-239.673349
 20
-64.426525
 30
0.0
 11
-185.873417
 21
-64.426525
 31
0.0
  0
ARC
  5
2E
100
AcDbEntity
  8
0
370
    -3
  6
Continuous
100
AcDbCircle
 10
-239.673349
 20
-64.826525
 30
0.0
 40
0.4
100
AcDbArc
 50
90.0
 51
180.0
  0
ARC
  5
2F
100
AcDbEntity
  8
0
370
    -3
  6
Continuous
100
AcDbCircle
 10
-240.473349
 20
-65.026525
 30
0.0
 40
0.4
100
AcDbArc
 50
270.0
 51
0.0
  0
LINE
  5
30
100
AcDbEntity
  8
0
370
    -3
  6
Continuous
100
AcDbLine
 10
-185.073417
 20
-29.426525
 30
0.0
 11
-185.073417
 21
-63.626525
 31
0.0
  0
ARC
  5
31
100
AcDbEntity
  8
0
370
    -3
  6
Continuous
100
AcDbCircle
 10
-185.873417
 20
-33.226525
 30
0.0
 40
0.8
100
AcDbArc
 50
0.0
 51
90.0
  0
LINE
  5
32
100
AcDbEntity
  8
0
370
    -3
  6
Continuous
100
AcDbLine
 10
-240.073349
 20
-31.826525
 30
0.0
 11
-240.073349
 21
-65.026525
 31
0.0
  0
LINE
  5
33
100
AcDbEntity
  8
0
370
    -3
  6
Continuous
100
AcDbLine
 10
-242.073212
 20
-31.426525
 30
0.0
 11
-240.473349
 21
-31.426525
 31
0.0
  0
LINE
  5
34
100
AcDbEntity
  8
0
370
    -3
  6
Continuous
100
AcDbLine
 10
-239.673349
 20
-32.426525
 30
0.0
 11
-185.873417
 21
-32.426525
 31
0.0
  0
LINE
  5
35
100
AcDbEntity
  8
0
370
    -3
  6
Continuous
100
AcDbLine
 10
-225.073417
 20
-29.426525
 30
0.0
 11
-185.073417
 21
-29.426525
 31
0.0
  0
LINE
  5
36
100
AcDbEntity
  8
0
370
    -3
  6
Continuous
100
AcDbLine
 10
-225.073417
 20
-29.426525
 30
0.0
 11
-225.073417
 21
-32.426525
 31
0.0
  0
ARC
  5
37
100
AcDbEntity
  8
0
370
    -3
  6
Continuous
100
AcDbCircle
 10
-239.673349
 20
-32.026525
 30
0.0
 40
0.4
100
AcDbArc
 50
180.0
 51
270.0
  0
ARC
  5
38
100
AcDbEntity
  8
0
370
    -3
  6
Continuous
100
AcDbCircle
 10
-240.473349
 20
-31.826525
 30
0.0
 40
0.4
100
AcDbArc
 50
0.0
 51
90.0
  0
ARC
  5
39
100
AcDbEntity
  8
0
370
    -3
  6
Continuous
100
AcDbCircle
 10
-387.573212
 20
-101.098442
 30
0.0
 40
5.0
100
AcDbArc
 50
66.421822
 51
79.319199
  0
LINE
  5
3A
100
AcDbEntity
  8
0
370
    -3
  6
Continuous
100
AcDbLine
 10
-406.594225
 20
-92.422832
 30
0.0
 11
-386.646526
 21
-96.185067
 31
0.0
  0
LINE
  5
3B
100
AcDbEntity
  8
0
370
    -3
  6
Continuous
100
AcDbLine
 10
-382.573212
 20
6.573475
 30
0.0
 11
-382.573212
 21
-43.548019
 31
0.0
  0
LINE
  5
3C
100
AcDbEntity
  8
0
370
    -3
  6
Continuous
100
AcDbLine
 10
-269.573212
 20
-143.851921
 30
0.0
 11
-269.573212
 21
-125.539032
 31
0.0
  0
LINE
  5
3D
100
AcDbEntity
  8
0
370
    -3
  6
Continuous
100
AcDbLine
 10
-276.073212
 20
-149.863953
 30
0.0
 11
-276.073212
 21
-137.835435
 31
0.0
  0
LINE
  5
3E
100
AcDbEntity
  8
0
370
    -3
  6
Continuous
100
AcDbLine
 10
-245.552268
 20
-92.687323
 30
0.0
 11
-266.246828
 21
-96.336332
 31
0.0
  0
LINE
  5
3F
100
AcDbEntity
  8
0
370
    -3
  6
Continuous
100
AcDbLine
 10
-281.073212
 20
-11.855827
 30
0.0
 11
-281.073212
 21
-29.858519
 31
0.0
  0
LINE
  5
40
100
AcDbEntity
  8
0
370
    -3
  6
Continuous
100
AcDbLine
 10
-375.073144
 20
-30.933739
 30
0.0
 11
-375.073144
 21
18.97588
 31
0.0
  0
LINE
  5
41
100
AcDbEntity
  8
0
370
    -3
  6
Continuous
100
AcDbLine
 10
-242.473212
 20
-19.426525
 30
0.0
 11
-243.073212
 21
-19.426525
 31
0.0
  0
LINE
  5
42
100
AcDbEntity
  8
0
370
    -3
  6
Continuous
100
AcDbLine
 10
-242.473212
 20
-77.426525
 30
0.0
 11
-243.073212
 21
-77.426525
 31
0.0
  0
LINE
  5
43
100
AcDbEntity
  8
0
370
    -3
  6
Continuous
100
AcDbLine
 10
-243.073212
 20
-89.732899
 30
0.0
 11
-243.073212
 21
-77.426525
 31
0.0
  0
LINE
  5
44
100
AcDbEntity
  8
0
370
    -3
  6
Continuous
100
AcDbLine
 10
-243.073212
 20
-7.120151
 30
0.0
 11
-243.073212
 21
-77.426525
 31
0.0
  0
ARC
  5
45
100
AcDbEntity
  8
0
370
    -3
  6
Continuous
100
AcDbCircle
 10
-273.073212
 20
-149.863953
 30
0.0
 40
3.0
100
AcDbArc
 50
91.222153
 51
180.0
  0
LINE
  5
46
100
AcDbEntity
  8
0
370
    -3
  6
Continuous
100
AcDbLine
 10
-273.137199
 20
-146.864636
 30
0.0
 11
-272.509225
 21
-146.851239
 31
0.0
  0
ARC
  5
47
100
AcDbEntity
  8
0
370
    -3
  6
Continuous
100
AcDbCircle
 10
-272.573212
 20
-143.851921
 30
0.0
 40
3.0
100
AcDbArc
 50
271.222153
 51
0.0
  0
ARC
  5
48
100
AcDbEntity
  8
0
370
    -3
  6
Continuous
100
AcDbCircle
 10
-246.073212
 20
-89.732899
 30
0.0
 40
3.0
100
AcDbArc
 50
280.0
 51
360.0
  0
ARC
  5
49
100
AcDbEntity
  8
0
370
    -3
  6
Continuous
100
AcDbCircle
 10
-246.073212
 20
-7.120151
 30
0.0
 40
3.0
100
AcDbArc
 50
0.0
 51
80.0
  0
LINE
  5
4A
100
AcDbEntity
  8
0
370
    -3
  6
Continuous
100
AcDbLine
 10
-272.573212
 20
9.573475
 30
0.0
 11
-273.073212
 21
9.573475
 31
0.0
  0
LINE
  5
4B
100
AcDbEntity
  8
0
370
    -3
  6
Continuous
100
AcDbLine
 10
-242.073212
 20
-77.026525
 30
0.0
 11
-242.073212
 21
-48.426525
 31
0.0
  0
LINE
  5
4C
100
AcDbEntity
  8
0
370
    -3
  6
Continuous
100
AcDbLine
 10
-242.073212
 20
-19.826525
 30
0.0
 11
-242.073212
 21
-48.426525
 31
0.0
  0
LINE
  5
4D
100
AcDbEntity
  8
0
370
    -3
  6
Continuous
100
AcDbLine
 10
-242.073212
 20
-77.026525
 30
0.0
 11
-242.473212
 21
-77.426525
 31
0.0
  0
LINE
  5
4E
100
AcDbEntity
  8
0
370
    -3
  6
Continuous
100
AcDbLine
 10
-242.073212
 20
-19.826525
 30
0.0
 11
-242.473212
 21
-19.426525
 31
0.0
  0
ARC
  5
4F
100
AcDbEntity
  8
0
370
    -3
  6
Continuous
100
AcDbCircle
 10
-272.573212
 20
6.573475
 30
0.0
 40
3.0
100
AcDbArc
 50
360.0
 51
90.0
  0
ARC
  5
50
100
AcDbEntity
  8
0
370
    -3
  6
Continuous
100
AcDbCircle
 10
-273.073212
 20
12.573475
 30
0.0
 40
3.0
100
AcDbArc
 50
180.0
 51
270.0
  0
LINE
  5
51
100
AcDbEntity
  8
0
370
    -3
  6
Continuous
100
AcDbLine
 10
-276.073212
 20
22.573475
 30
0.0
 11
-277.073212
 21
23.573475
 31
0.0
  0
LINE
  5
52
100
AcDbEntity
  8
0
370
    -3
  6
Continuous
100
AcDbLine
 10
-277.073212
 20
23.573475
 30
0.0
 11
-279.336836
 21
23.573475
 31
0.0
  0
ARC
  5
53
100
AcDbEntity
  8
0
370
    -3
  6
Continuous
100
AcDbCircle
 10
-266.573212
 20
2.587112
 30
0.0
 40
3.0
100
AcDbArc
 50
180.0
 51
260.0
  0
LINE
  5
54
100
AcDbEntity
  8
0
370
    -3
  6
Continuous
100
AcDbLine
 10
-245.552268
 20
-4.165728
 30
0.0
 11
-267.094157
 21
-0.367312
 31
0.0
  0
ARC
  5
55
100
AcDbEntity
  8
0
370
    -3
  6
Continuous
100
AcDbCircle
 10
-266.573212
 20
2.587112
 30
0.0
 40
3.0
100
AcDbArc
 50
180.0
 51
260.0
  0
LINE
  5
56
100
AcDbEntity
  8
0
370
    -3
  6
Continuous
100
AcDbLine
 10
-269.573212
 20
6.573475
 30
0.0
 11
-269.573212
 21
2.587112
 31
0.0
  0
LINE
  5
57
100
AcDbEntity
  8
0
370
    -3
  6
Continuous
100
AcDbLine
 10
-409.673281
 20
-19.426525
 30
0.0
 11
-410.073281
 21
-19.826525
 31
0.0
  0
LINE
  5
58
100
AcDbEntity
  8
0
370
    -3
  6
Continuous
100
AcDbLine
 10
-409.073281
 20
-48.426525
 30
0.0
 11
-409.073281
 21
-7.384642
 31
0.0
  0
LINE
  5
59
100
AcDbEntity
  8
0
370
    -3
  6
Continuous
100
AcDbLine
 10
-409.673281
 20
-77.426525
 30
0.0
 11
-410.073281
 21
-77.026525
 31
0.0
  0
LINE
  5
5A
100
AcDbEntity
  8
0
370
    -3
  6
Continuous
100
AcDbLine
 10
-409.073281
 20
-89.468409
 30
0.0
 11
-409.073281
 21
-48.426525
 31
0.0
  0
LINE
  5
5B
100
AcDbEntity
  8
0
370
    -3
  6
Continuous
100
AcDbLine
 10
-406.594225
 20
-4.430218
 30
0.0
 11
-386.646526
 21
-0.667984
 31
0.0
  0
ARC
  5
5C
100
AcDbEntity
  8
0
370
    -3
  6
Continuous
100
AcDbCircle
 10
-406.073281
 20
-7.384642
 30
0.0
 40
3.0
100
AcDbArc
 50
100.0
 51
180.0
  0
LINE
  5
5D
100
AcDbEntity
  8
0
370
    -3
  6
Continuous
100
AcDbLine
 10
-409.073281
 20
-19.426525
 30
0.0
 11
-409.673281
 21
-19.426525
 31
0.0
  0
LINE
  5
5E
100
AcDbEntity
  8
0
370
    -3
  6
Continuous
100
AcDbLine
 10
-410.073281
 20
-77.026525
 30
0.0
 11
-410.073281
 21
-19.826525
 31
0.0
  0
ARC
  5
5F
100
AcDbEntity
  8
0
370
    -3
  6
Continuous
100
AcDbCircle
 10
-406.073281
 20
-89.468409
 30
0.0
 40
3.0
100
AcDbArc
 50
180.0
 51
260.0
  0
LINE
  5
60
100
AcDbEntity
  8
0
370
    -3
  6
Continuous
100
AcDbLine
 10
-409.073281
 20
-77.426525
 30
0.0
 11
-409.673281
 21
-77.426525
 31
0.0
  0
LINE
  5
61
100
AcDbEntity
  8
0
370
    -3
  6
Continuous
100
AcDbLine
 10
-382.573212
 20
-143.828525
 30
0.0
 11
-382.573212
 21
-125.539032
 31
0.0
  0
ARC
  5
62
100
AcDbEntity
  8
0
370
    -3
  6
Continuous
100
AcDbCircle
 10
-378.073144
 20
12.573475
 30
0.0
 40
3.0
100
AcDbArc
 50
270.0
 51
360.0
  0
LINE
  5
63
100
AcDbEntity
  8
0
370
    -3
  6
Continuous
100
AcDbLine
 10
-379.603183
 20
9.573475
 30
0.0
 11
-378.073144
 21
9.573475
 31
0.0
  0
ARC
  5
64
100
AcDbEntity
  8
0
370
    -3
  6
Continuous
100
AcDbCircle
 10
-372.073144
 20
18.97588
 30
0.0
 40
3.0
100
AcDbArc
 50
105.467364
 51
180.0
  0
LINE
  5
65
100
AcDbEntity
  8
0
370
    -3
  6
Continuous
100
AcDbLine
 10
-379.573212
 20
-146.828525
 30
0.0
 11
-378.073144
 21
-146.828525
 31
0.0
  0
ARC
  5
66
100
AcDbEntity
  8
0
370
    -3
  6
Continuous
100
AcDbCircle
 10
-379.573212
 20
-143.828525
 30
0.0
 40
3.0
100
AcDbArc
 50
180.0
 51
270.0
  0
ARC
  5
67
100
AcDbEntity
  8
0
370
    -3
  6
Continuous
100
AcDbCircle
 10
-378.073144
 20
-149.828525
 30
0.0
 40
3.0
100
AcDbArc
 50
0.0
 51
90.0
  0
ARC
  5
68
100
AcDbEntity
  8
0
370
    -3
  6
Continuous
100
AcDbCircle
 10
-387.573212
 20
4.265311
 30
0.0
 40
5.0
100
AcDbArc
 50
280.0
 51
355.038892
  0
ARC
  5
69
100
AcDbEntity
  8
0
370
    -3
  6
Continuous
100
AcDbCircle
 10
-379.603183
 20
6.573475
 30
0.0
 40
3.0
100
AcDbArc
 50
90.0
 51
175.038892
  0
LINE
  5
6A
100
AcDbEntity
  8
0
370
    -3
  6
CENTER
100
AcDbLine
 10
-345.475344
 20
-84.543525
 30
0.0
 11
-308.486109
 21
-84.543525
 31
0.0
  0
LINE
  5
6B
100
AcDbEntity
  8
0
370
    -3
  6
CENTER
100
AcDbLine
 10
-142.288365
 20
261.614389
 30
0.0
 11
293.329496
 21
261.614389
 31
0.0
  0
ARC
  5
6C
100
AcDbEntity
  8
0
370
    -3
  6
Continuous
100
AcDbCircle
 10
192.426575
 20
160.614594
 30
0.0
 40
5.0
100
AcDbArc
 50
0.0
 51
180.0
  0
LINE
  5
6D
100
AcDbEntity
  8
0
370
    -3
  6
Continuous
100
AcDbLine
 10
187.426575
 20
120.614594
 30
0.0
 11
187.426575
 21
160.614594
 31
0.0
  0
LINE
  5
6E
100
AcDbEntity
  8
0
370
    -3
  6
Continuous
100
AcDbLine
 10
187.426575
 20
160.614594
 30
0.0
 11
197.426575
 21
160.614594
 31
0.0
  0
LINE
  5
6F
100
AcDbEntity
  8
0
370
    -3
  6
Continuous
100
AcDbLine
 10
197.426575
 20
120.614594
 30
0.0
 11
197.426575
 21
160.614594
 31
0.0
  0
ARC
  5
70
100
AcDbEntity
  8
0
370
    -3
  6
Continuous
100
AcDbCircle
 10
207.626177
 20
121.414594
 30
0.0
 40
0.8
100
AcDbArc
 50
270.0
 51
0.0
  0
LINE
  5
71
100
AcDbEntity
  8
0
370
    -3
  6
Continuous
100
AcDbLine
 10
208.426177
 20
175.214526
 30
0.0
 11
208.426177
 21
121.414594
 31
0.0
  0
ARC
  5
72
100
AcDbEntity
  8
0
370
    -3
  6
Continuous
100
AcDbCircle
 10
208.826177
 20
175.214526
 30
0.0
 40
0.4
100
AcDbArc
 50
90.0
 51
180.0
  0
ARC
  5
73
100
AcDbEntity
  8
0
370
    -3
  6
Continuous
100
AcDbCircle
 10
209.526177
 20
176.014526
 30
0.0
 40
0.4
100
AcDbArc
 50
270.0
 51
0.0
  0
LINE
  5
74
100
AcDbEntity
  8
0
370
    -3
  6
Continuous
100
AcDbLine
 10
176.426177
 20
120.614594
 30
0.0
 11
207.626177
 21
120.614594
 31
0.0
  0
ARC
  5
75
100
AcDbEntity
  8
0
370
    -3
  6
Continuous
100
AcDbCircle
 10
177.226177
 20
121.414594
 30
0.0
 40
0.8
100
AcDbArc
 50
180.0
 51
270.0
  0
LINE
  5
76
100
AcDbEntity
  8
0
370
    -3
  6
Continuous
100
AcDbLine
 10
175.326177
 20
175.614526
 30
0.0
 11
209.526177
 21
175.614526
 31
0.0
  0
LINE
  5
77
100
AcDbEntity
  8
0
370
    -3
  6
Continuous
100
AcDbLine
 10
176.426177
 20
175.214526
 30
0.0
 11
176.426177
 21
121.414594
 31
0.0
  0
ARC
  5
78
100
AcDbEntity
  8
0
370
    -3
  6
Continuous
100
AcDbCircle
 10
176.026177
 20
175.214526
 30
0.0
 40
0.4
100
AcDbArc
 50
0.0
 51
90.0
  0
ARC
  5
79
100
AcDbEntity
  8
0
370
    -3
  6
Continuous
100
AcDbCircle
 10
175.326177
 20
176.014526
 30
0.0
 40
0.4
100
AcDbArc
 50
180.0
 51
270.0
  0
LINE
  5
7A
100
AcDbEntity
  8
0
370
    -3
  6
CENTER
100
AcDbLine
 10
192.426575
 20
351.195304
 30
0.0
 11
192.426575
 21
118.66645
 31
0.0
  0
LINE
  5
7B
100
AcDbEntity
  8
0
370
    -3
  6
Continuous
100
AcDbLine
 10
209.926177
 20
177.614389
 30
0.0
 11
209.926177
 21
176.014526
 31
0.0
  0
LINE
  5
7C
100
AcDbEntity
  8
0
370
    -3
  6
Continuous
100
AcDbLine
 10
174.926177
 20
177.614389
 30
0.0
 11
174.926177
 21
176.014526
 31
0.0
  0
LINE
  5
7D
100
AcDbEntity
  8
0
370
    -3
  6
Continuous
100
AcDbLine
 10
163.426575
 20
344.614457
 30
0.0
 11
235.126771
 21
344.614457
 31
0.0
  0
LINE
  5
7E
100
AcDbEntity
  8
0
370
    -3
  6
Continuous
100
AcDbLine
 10
114.935301
 20
310.614389
 30
0.0
 11
253.426575
 21
310.614389
 31
0.0
  0
LINE
  5
7F
100
AcDbEntity
  8
0
370
    -3
  6
Continuous
100
AcDbLine
 10
134.153575
 20
318.114457
 30
0.0
 11
243.440211
 21
318.114457
 31
0.0
  0
LINE
  5
80
100
AcDbEntity
  8
0
370
    -3
  6
Continuous
100
AcDbLine
 10
247.426575
 20
205.114787
 30
0.0
 11
141.412938
 21
205.114787
 31
0.0
  0
LINE
  5
81
100
AcDbEntity
  8
0
370
    -3
  6
Continuous
100
AcDbLine
 10
111.926575
 20
205.114389
 30
0.0
 11
111.926575
 21
318.114389
 31
0.0
  0
ARC
  5
82
100
AcDbEntity
  8
0
370
    -3
  6
Continuous
100
AcDbCircle
 10
100.926575
 20
225.613122
 30
0.0
 40
3.0
100
AcDbArc
 50
180.0
 51
270.0
  0
ARC
  5
83
100
AcDbEntity
  8
0
370
    -3
  6
Continuous
100
AcDbCircle
 10
100.926575
 20
206.518082
 30
0.0
 40
3.0
100
AcDbArc
 50
90.0
 51
180.0
  0
ARC
  5
84
100
AcDbEntity
  8
0
370
    -3
  6
Continuous
100
AcDbCircle
 10
100.926575
 20
219.429658
 30
0.0
 40
3.0
100
AcDbArc
 50
180.0
 51
270.0
  0
LINE
  5
85
100
AcDbEntity
  8
0
370
    -3
  6
Continuous
100
AcDbLine
 10
97.926575
 20
219.429658
 30
0.0
 11
97.926575
 21
261.614389
 31
0.0
  0
LINE
  5
86
100
AcDbEntity
  8
0
370
    -3
  6
Continuous
100
AcDbLine
 10
100.926575
 20
222.613122
 30
0.0
 11
105.926575
 21
222.613122
 31
0.0
  0
LINE
  5
87
100
AcDbEntity
  8
0
370
    -3
  6
Continuous
100
AcDbLine
 10
100.926575
 20
216.429658
 30
0.0
 11
106.926575
 21
216.429658
 31
0.0
  0
LINE
  5
88
100
AcDbEntity
  8
0
370
    -3
  6
Continuous
100
AcDbLine
 10
100.926575
 20
209.518082
 30
0.0
 11
106.926575
 21
209.518082
 31
0.0
  0
ARC
  5
89
100
AcDbEntity
  8
0
370
    -3
  6
Continuous
100
AcDbCircle
 10
106.926575
 20
221.429658
 30
0.0
 40
5.0
100
AcDbArc
 50
270.0
 51
0.0
  0
ARC
  5
8A
100
AcDbEntity
  8
0
370
    -3
  6
Continuous
100
AcDbCircle
 10
106.926575
 20
214.518082
 30
0.0
 40
5.0
100
AcDbArc
 50
270.0
 51
0.0
  0
LINE
  5
8B
100
AcDbEntity
  8
0
370
    -3
  6
Continuous
100
AcDbLine
 10
97.926575
 20
241.614389
 30
0.0
 11
91.926575
 21
241.614389
 31
0.0
  0
ARC
  5
8C
100
AcDbEntity
  8
0
370
    -3
  6
Continuous
100
AcDbCircle
 10
94.926575
 20
205.114389
 30
0.0
 40
3.0
100
AcDbArc
 50
270.0
 51
360.0
  0
LINE
  5
8D
100
AcDbEntity
  8
0
370
    -3
  6
Continuous
100
AcDbLine
 10
97.926575
 20
206.114389
 30
0.0
 11
97.926575
 21
206.518082
 31
0.0
  0
LINE
  5
8E
100
AcDbEntity
  8
0
370
    -3
  6
Continuous
100
AcDbLine
 10
97.926575
 20
206.114389
 30
0.0
 11
97.926575
 21
206.518082
 31
0.0
  0
LINE
  5
8F
100
AcDbEntity
  8
0
370
    -3
  6
Continuous
100
AcDbLine
 10
97.926575
 20
206.114389
 30
0.0
 11
97.926575
 21
205.114389
 31
0.0
  0
ARC
  5
90
100
AcDbEntity
  8
0
370
    -3
  6
Continuous
100
AcDbCircle
 10
108.926575
 20
205.114389
 30
0.0
 40
3.0
100
AcDbArc
 50
270.0
 51
0.0
  0
ARC
  5
91
100
AcDbEntity
  8
0
370
    -3
  6
Continuous
100
AcDbCircle
 10
108.926575
 20
318.114389
 30
0.0
 40
3.0
100
AcDbArc
 50
0.0
 51
90.0
  0
ARC
  5
92
100
AcDbEntity
  8
0
370
    -3
  6
Continuous
100
AcDbCircle
 10
100.926575
 20
297.615656
 30
0.0
 40
3.0
100
AcDbArc
 50
90.0
 51
180.0
  0
ARC
  5
93
100
AcDbEntity
  8
0
370
    -3
  6
Continuous
100
AcDbCircle
 10
100.926575
 20
303.79912
 30
0.0
 40
3.0
100
AcDbArc
 50
90.0
 51
180.0
  0
ARC
  5
94
100
AcDbEntity
  8
0
370
    -3
  6
Continuous
100
AcDbCircle
 10
100.926575
 20
316.710696
 30
0.0
 40
3.0
100
AcDbArc
 50
180.0
 51
270.0
  0
LINE
  5
95
100
AcDbEntity
  8
0
370
    -3
  6
Continuous
100
AcDbLine
 10
97.926575
 20
303.79912
 30
0.0
 11
97.926575
 21
261.614389
 31
0.0
  0
LINE
  5
96
100
AcDbEntity
  8
0
370
    -3
  6
Continuous
100
AcDbLine
 10
100.926575
 20
300.615656
 30
0.0
 11
105.926575
 21
300.615656
 31
0.0
  0
LINE
  5
97
100
AcDbEntity
  8
0
370
    -3
  6
Continuous
100
AcDbLine
 10
100.926575
 20
313.710696
 30
0.0
 11
106.926575
 21
313.710696
 31
0.0
  0
LINE
  5
98
100
AcDbEntity
  8
0
370
    -3
  6
Continuous
100
AcDbLine
 10
100.926575
 20
306.79912
 30
0.0
 11
106.926575
 21
306.79912
 31
0.0
  0
LINE
  5
99
100
AcDbEntity
  8
0
370
    -3
  6
Continuous
100
AcDbLine
 10
97.926575
 20
281.614389
 30
0.0
 11
91.926575
 21
281.614389
 31
0.0
  0
ARC
  5
9A
100
AcDbEntity
  8
0
370
    -3
  6
Continuous
100
AcDbCircle
 10
106.926575
 20
308.710696
 30
0.0
 40
5.0
100
AcDbArc
 50
0.0
 51
90.0
  0
ARC
  5
9B
100
AcDbEntity
  8
0
370
    -3
  6
Continuous
100
AcDbCircle
 10
106.926575
 20
301.79912
 30
0.0
 40
5.0
100
AcDbArc
 50
0.0
 51
90.0
  0
LINE
  5
9C
100
AcDbEntity
  8
0
370
    -3
  6
Continuous
100
AcDbLine
 10
97.926575
 20
317.114389
 30
0.0
 11
97.926575
 21
316.710696
 31
0.0
  0
LINE
  5
9D
100
AcDbEntity
  8
0
370
    -3
  6
Continuous
100
AcDbLine
 10
97.926575
 20
317.114389
 30
0.0
 11
97.926575
 21
318.114389
 31
0.0
  0
ARC
  5
9E
100
AcDbEntity
  8
0
370
    -3
  6
Continuous
100
AcDbCircle
 10
94.926575
 20
318.114389
 30
0.0
 40
3.0
100
AcDbArc
 50
0.0
 51
90.0
  0
LINE
  5
9F
100
AcDbEntity
  8
0
370
    -3
  6
Continuous
100
AcDbLine
 10
116.435302
 20
216.614787
 30
0.0
 11
118.076071
 21
310.614389
 31
0.0
  0
LINE
  5
A0
100
AcDbEntity
  8
0
370
    -3
  6
Continuous
100
AcDbLine
 10
274.926575
 20
216.114787
 30
0.0
 11
273.328529
 21
307.666746
 31
0.0
  0
LINE
  5
A1
100
AcDbEntity
  8
0
370
    -3
  6
Continuous
100
AcDbLine
 10
118.076071
 20
310.614389
 30
0.0
 11
118.635547
 21
342.666746
 31
0.0
  0
LINE
  5
A2
100
AcDbEntity
  8
0
370
    -3
  6
CENTER
100
AcDbLine
 10
274.49627
 20
330.614389
 30
0.0
 11
240.949011
 21
330.614389
 31
0.0
  0
LINE
  5
A3
100
AcDbEntity
  8
0
370
    -3
  6
CENTER
100
AcDbLine
 10
148.028428
 20
330.614389
 30
0.0
 11
117.409898
 21
330.614389
 31
0.0
  0
LINE
  5
A4
100
AcDbEntity
  8
0
370
    -3
  6
Continuous
100
AcDbLine
 10
163.426575
 20
344.614457
 30
0.0
 11
163.426575
 21
345.314457
 31
0.0
  0
LINE
  5
A5
100
AcDbEntity
  8
0
370
    -3
  6
Continuous
100
AcDbLine
 10
221.426575
 20
344.614457
 30
0.0
 11
221.426575
 21
345.314457
 31
0.0
  0
LINE
  5
A6
100
AcDbEntity
  8
0
370
    -3
  6
Continuous
100
AcDbLine
 10
149.726379
 20
344.614457
 30
0.0
 11
163.426575
 21
344.614457
 31
0.0
  0
LINE
  5
A7
100
AcDbEntity
  8
0
370
    -3
  6
Continuous
100
AcDbLine
 10
274.926575
 20
216.614787
 30
0.0
 11
116.426575
 21
216.614787
 31
0.0
  0
LINE
  5
A8
100
AcDbEntity
  8
0
370
    -3
  6
Continuous
100
AcDbLine
 10
148.165777
 20
181.093842
 30
0.0
 11
144.367361
 21
202.635731
 31
0.0
  0
LINE
  5
A9
100
AcDbEntity
  8
0
370
    -3
  6
Continuous
100
AcDbLine
 10
137.426575
 20
205.114787
 30
0.0
 11
141.412938
 21
205.114787
 31
0.0
  0
LINE
  5
AA
100
AcDbEntity
  8
0
370
    -3
  6
Continuous
100
AcDbLine
 10
134.426575
 20
208.114787
 30
0.0
 11
134.426575
 21
208.614787
 31
0.0
  0
ARC
  5
AB
100
AcDbEntity
  8
0
370
    -3
  6
Continuous
100
AcDbCircle
 10
137.426575
 20
208.114787
 30
0.0
 40
3.0
100
AcDbArc
 50
180.0
 51
270.0
  0
ARC
  5
AC
100
AcDbEntity
  8
0
370
    -3
  6
Continuous
100
AcDbCircle
 10
131.426575
 20
208.614787
 30
0.0
 40
3.0
100
AcDbArc
 50
0.0
 51
90.0
  0
ARC
  5
AD
100
AcDbEntity
  8
0
370
    -3
  6
Continuous
100
AcDbCircle
 10
141.412938
 20
202.114787
 30
0.0
 40
3.0
100
AcDbArc
 50
10.0
 51
90.0
  0
ARC
  5
AE
100
AcDbEntity
  8
0
370
    -3
  6
Continuous
100
AcDbCircle
 10
141.412938
 20
202.114787
 30
0.0
 40
3.0
100
AcDbArc
 50
10.0
 51
90.0
  0
LINE
  5
AF
100
AcDbEntity
  8
0
370
    -3
  6
Continuous
100
AcDbLine
 10
221.426575
 20
178.014787
 30
0.0
 11
221.426575
 21
178.614787
 31
0.0
  0
LINE
  5
B0
100
AcDbEntity
  8
0
370
    -3
  6
Continuous
100
AcDbLine
 10
163.426575
 20
178.014787
 30
0.0
 11
163.426575
 21
178.614787
 31
0.0
  0
LINE
  5
B1
100
AcDbEntity
  8
0
370
    -3
  6
Continuous
100
AcDbLine
 10
151.1202
 20
178.614787
 30
0.0
 11
163.426575
 21
178.614787
 31
0.0
  0
LINE
  5
B2
100
AcDbEntity
  8
0
370
    -3
  6
Continuous
100
AcDbLine
 10
233.732949
 20
178.614787
 30
0.0
 11
163.426575
 21
178.614787
 31
0.0
  0
ARC
  5
B3
100
AcDbEntity
  8
0
370
    -3
  6
Continuous
100
AcDbCircle
 10
151.1202
 20
181.614787
 30
0.0
 40
3.0
100
AcDbArc
 50
190.0
 51
270.0
  0
ARC
  5
B4
100
AcDbEntity
  8
0
370
    -3
  6
Continuous
100
AcDbCircle
 10
233.732949
 20
181.614787
 30
0.0
 40
3.0
100
AcDbArc
 50
270.0
 51
350.0
  0
LINE
  5
B5
100
AcDbEntity
  8
0
370
    -3
  6
Continuous
100
AcDbLine
 10
250.426575
 20
208.114787
 30
0.0
 11
250.426575
 21
208.614787
 31
0.0
  0
LINE
  5
B6
100
AcDbEntity
  8
0
370
    -3
  6
Continuous
100
AcDbLine
 10
163.826575
 20
177.614787
 30
0.0
 11
192.426575
 21
177.614787
 31
0.0
  0
LINE
  5
B7
100
AcDbEntity
  8
0
370
    -3
  6
Continuous
100
AcDbLine
 10
221.026575
 20
177.614787
 30
0.0
 11
192.426575
 21
177.614787
 31
0.0
  0
LINE
  5
B8
100
AcDbEntity
  8
0
370
    -3
  6
Continuous
100
AcDbLine
 10
163.826575
 20
177.614787
 30
0.0
 11
163.426575
 21
178.014787
 31
0.0
  0
LINE
  5
B9
100
AcDbEntity
  8
0
370
    -3
  6
Continuous
100
AcDbLine
 10
221.026575
 20
177.614787
 30
0.0
 11
221.426575
 21
178.014787
 31
0.0
  0
ARC
  5
BA
100
AcDbEntity
  8
0
370
    -3
  6
Continuous
100
AcDbCircle
 10
247.426575
 20
208.114787
 30
0.0
 40
3.0
100
AcDbArc
 50
270.0
 51
0.0
  0
ARC
  5
BB
100
AcDbEntity
  8
0
370
    -3
  6
Continuous
100
AcDbCircle
 10
253.426575
 20
208.614787
 30
0.0
 40
3.0
100
AcDbArc
 50
90.0
 51
180.0
  0
ARC
  5
BC
100
AcDbEntity
  8
0
370
    -3
  6
Continuous
100
AcDbCircle
 10
243.440211
 20
202.114787
 30
0.0
 40
3.0
100
AcDbArc
 50
90.0
 51
170.0
  0
LINE
  5
BD
100
AcDbEntity
  8
0
370
    -3
  6
Continuous
100
AcDbLine
 10
236.687372
 20
181.093842
 30
0.0
 11
240.485788
 21
202.635731
 31
0.0
  0
ARC
  5
BE
100
AcDbEntity
  8
0
370
    -3
  6
Continuous
100
AcDbCircle
 10
243.440211
 20
202.114787
 30
0.0
 40
3.0
100
AcDbArc
 50
90.0
 51
170.0
  0
LINE
  5
BF
100
AcDbEntity
  8
0
370
    -3
  6
Continuous
100
AcDbLine
 10
163.726575
 20
345.614457
 30
0.0
 11
221.126575
 21
345.614457
 31
0.0
  0
LINE
  5
C0
100
AcDbEntity
  8
0
370
    -3
  6
Continuous
100
AcDbLine
 10
247.426575
 20
318.114457
 30
0.0
 11
243.440211
 21
318.114457
 31
0.0
  0
ARC
  5
C1
100
AcDbEntity
  8
0
370
    -3
  6
Continuous
100
AcDbCircle
 10
128.153575
 20
313.614389
 30
0.0
 40
3.0
100
AcDbArc
 50
270.0
 51
0.0
  0
ARC
  5
C2
100
AcDbEntity
  8
0
370
    -3
  6
Continuous
100
AcDbCircle
 10
134.153575
 20
315.114457
 30
0.0
 40
3.0
100
AcDbArc
 50
90.0
 51
180.0
  0
LINE
  5
C3
100
AcDbEntity
  8
0
370
    -3
  6
Continuous
100
AcDbLine
 10
131.153575
 20
315.114457
 30
0.0
 11
131.153575
 21
313.614389
 31
0.0
  0
ARC
  5
C4
100
AcDbEntity
  8
0
370
    -3
  6
Continuous
100
AcDbCircle
 10
141.412938
 20
321.114457
 30
0.0
 40
3.0
100
AcDbArc
 50
270.0
 51
350.0
  0
ARC
  5
C5
100
AcDbEntity
  8
0
370
    -3
  6
Continuous
100
AcDbCircle
 10
243.440211
 20
321.114457
 30
0.0
 40
3.0
100
AcDbArc
 50
190.0
 51
270.0
  0
LINE
  5
C6
100
AcDbEntity
  8
0
370
    -3
  6
Continuous
100
AcDbLine
 10
236.422881
 20
342.635402
 30
0.0
 11
240.485788
 21
320.593513
 31
0.0
  0
LINE
  5
C7
100
AcDbEntity
  8
0
370
    -3
  6
Continuous
100
AcDbLine
 10
148.430268
 20
342.635402
 30
0.0
 11
144.367361
 21
320.593513
 31
0.0
  0
LINE
  5
C8
100
AcDbEntity
  8
0
370
    -3
  6
Continuous
100
AcDbLine
 10
91.935301
 20
321.114389
 30
0.0
 11
108.935301
 21
321.114389
 31
0.0
  0
LINE
  5
C9
100
AcDbEntity
  8
0
370
    -3
  6
Continuous
100
AcDbLine
 10
108.935301
 20
202.114389
 30
0.0
 11
91.935301
 21
202.114389
 31
0.0
  0
LINE
  5
CA
100
AcDbEntity
  8
0
370
    -3
  6
Continuous
100
AcDbLine
 10
273.328529
 20
307.666746
 30
0.0
 11
272.717602
 21
342.666746
 31
0.0
  0
LINE
  5
CB
100
AcDbEntity
  8
0
370
    -3
  6
Continuous
100
AcDbLine
 10
253.426575
 20
310.614389
 30
0.0
 11
270.328986
 21
310.614389
 31
0.0
  0
ARC
  5
CC
100
AcDbEntity
  8
0
370
    -3
  6
Continuous
100
AcDbCircle
 10
270.328986
 20
307.614389
 30
0.0
 40
3.0
100
AcDbArc
 50
1.0
 51
90.0
  0
LINE
  5
CD
100
AcDbEntity
  8
0
370
    -3
  6
Continuous
100
AcDbLine
 10
250.426575
 20
315.114457
 30
0.0
 11
250.426575
 21
313.614389
 31
0.0
  0
ARC
  5
CE
100
AcDbEntity
  8
0
370
    -3
  6
Continuous
100
AcDbCircle
 10
247.426575
 20
315.114457
 30
0.0
 40
3.0
100
AcDbArc
 50
0.0
 51
90.0
  0
ARC
  5
CF
100
AcDbEntity
  8
0
370
    -3
  6
Continuous
100
AcDbCircle
 10
253.426575
 20
313.614389
 30
0.0
 40
3.0
100
AcDbArc
 50
180.0
 51
270.0
  0
LINE
  5
D0
100
AcDbEntity
  8
0
370
    -3
  6
Continuous
100
AcDbLine
 10
111.935301
 20
313.614389
 30
0.0
 11
111.935301
 21
318.114389
 31
0.0
  0
ARC
  5
D1
100
AcDbEntity
  8
0
370
    -3
  6
Continuous
100
AcDbCircle
 10
108.935301
 20
318.114389
 30
0.0
 40
3.0
100
AcDbArc
 50
0.0
 51
90.0
  0
ARC
  5
D2
100
AcDbEntity
  8
0
370
    -3
  6
Continuous
100
AcDbCircle
 10
108.935301
 20
205.114389
 30
0.0
 40
3.0
100
AcDbArc
 50
270.0
 51
0.0
  0
LINE
  5
D3
100
AcDbEntity
  8
0
370
    -3
  6
Continuous
100
AcDbLine
 10
111.935301
 20
216.614787
 30
0.0
 11
111.935301
 21
205.114389
 31
0.0
  0
LINE
  5
D4
100
AcDbEntity
  8
0
370
    -3
  6
CENTER
100
AcDbLine
 10
258.426575
 20
175.592239
 30
0.0
 11
258.426575
 21
213.094525
 31
0.0
  0
LINE
  5
D5
100
AcDbEntity
  8
0
370
    -3
  6
CENTER
100
AcDbLine
 10
132.426575
 20
175.592239
 30
0.0
 11
132.426575
 21
213.360773
 31
0.0
  0
LINE
  5
D6
100
AcDbEntity
  8
0
370
    -3
  6
CENTER
100
AcDbLine
 10
277.648675
 20
192.614389
 30
0.0
 11
240.682763
 21
192.614389
 31
0.0
  0
CIRCLE
  5
D7
100
AcDbEntity
  8
0
370
    -3
  6
Continuous
100
AcDbCircle
 10
258.426575
 20
192.614389
 30
0.0
 40
7.0
  0
CIRCLE
  5
D8
100
AcDbEntity
  8
0
370
    -3
  6
CENTER
100
AcDbCircle
 10
258.426575
 20
330.614389
 30
0.0
 40
7.0
  0
CIRCLE
  5
D9
100
AcDbEntity
  8
0
370
    -3
  6
Continuous
100
AcDbCircle
 10
132.426575
 20
330.614389
 30
0.0
 40
7.0
  0
CIRCLE
  5
DA
100
AcDbEntity
  8
0
370
    -3
  6
Continuous
100
AcDbCircle
 10
132.426575
 20
192.614389
 30
0.0
 40
7.0
  0
LINE
  5
DB
100
AcDbEntity
  8
0
370
    -3
  6
Continuous
100
AcDbLine
 10
271.306456
 20
177.614389
 30
0.0
 11
120.046693
 21
177.614389
 31
0.0
  0
LINE
  5
DC
100
AcDbEntity
  8
0
370
    -3
  6
Continuous
100
AcDbLine
 10
269.718059
 20
345.614389
 30
0.0
 11
221.126643
 21
345.614389
 31
0.0
  0
ARC
  5
DD
100
AcDbEntity
  8
0
370
    -3
  6
Continuous
100
AcDbCircle
 10
269.718059
 20
342.614389
 30
0.0
 40
3.0
100
AcDbArc
 50
1.0
 51
90.0
  0
LINE
  5
DE
100
AcDbEntity
  8
0
370
    -3
  6
Continuous
100
AcDbLine
 10
274.926575
 20
216.114787
 30
0.0
 11
274.305999
 21
180.562032
 31
0.0
  0
ARC
  5
DF
100
AcDbEntity
  8
0
370
    -3
  6
Continuous
100
AcDbCircle
 10
271.306456
 20
180.614389
 30
0.0
 40
3.0
100
AcDbArc
 50
270.0
 51
359.0
  0
ARC
  5
E0
100
AcDbEntity
  8
0
370
    -3
  6
Continuous
100
AcDbCircle
 10
121.63509
 20
342.614389
 30
0.0
 40
3.0
100
AcDbArc
 50
90.0
 51
179.0
  0
LINE
  5
E1
100
AcDbEntity
  8
0
370
    -3
  6
Continuous
100
AcDbLine
 10
116.426575
 20
216.114787
 30
0.0
 11
117.04715
 21
180.562032
 31
0.0
  0
ARC
  5
E2
100
AcDbEntity
  8
0
370
    -3
  6
Continuous
100
AcDbCircle
 10
120.046693
 20
180.614389
 30
0.0
 40
3.0
100
AcDbArc
 50
181.0
 51
270.0
  0
ARC
  5
E3
100
AcDbEntity
  8
0
370
    -3
  6
Continuous
100
AcDbCircle
 10
114.935301
 20
313.614389
 30
0.0
 40
3.0
100
AcDbArc
 50
180.0
 51
270.0
  0
LINE
  5
E4
100
AcDbEntity
  8
0
370
    -3
  6
Continuous
100
AcDbLine
 10
114.434997
 20
218.614787
 30
0.0
 11
113.935301
 21
218.614787
 31
0.0
  0
ARC
  5
E5
100
AcDbEntity
  8
0
370
    -3
  6
Continuous
100
AcDbCircle
 10
113.935301
 20
216.614787
 30
0.0
 40
2.0
100
AcDbArc
 50
90.0
 51
180.0
  0
ARC
  5
E6
100
AcDbEntity
  8
0
370
    -3
  6
Continuous
100
AcDbCircle
 10
114.434997
 20
216.614787
 30
0.0
 40
2.0
100
AcDbArc
 50
359.0
 51
90.0
  0
LINE
  5
E7
100
AcDbEntity
  8
0
370
    -3
  6
Continuous
100
AcDbLine
 10
116.426575
 20
216.114787
 30
0.0
 11
116.426575
 21
216.579882
 31
0.0
  0
LINE
  5
E8
100
AcDbEntity
  8
0
370
    -3
  6
Continuous
100
AcDbLine
 10
163.726506
 20
345.614389
 30
0.0
 11
121.63509
 21
345.614389
 31
0.0
  0
CIRCLE
  5
E9
100
AcDbEntity
  8
0
370
    -3
  6
CENTER
100
AcDbCircle
 10
258.426575
 20
192.614389
 30
0.0
 40
11.5
  0
CIRCLE
  5
EA
100
AcDbEntity
  8
0
370
    -3
  6
CENTER
100
AcDbCircle
 10
258.426575
 20
330.614389
 30
0.0
 40
11.5
  0
CIRCLE
  5
EB
100
AcDbEntity
  8
0
370
    -3
  6
CENTER
100
AcDbCircle
 10
132.426575
 20
330.614389
 30
0.0
 40
11.5
  0
CIRCLE
  5
EC
100
AcDbEntity
  8
0
370
    -3
  6
CENTER
100
AcDbCircle
 10
132.426575
 20
192.614389
 30
0.0
 40
11.5
  0
LINE
  5
ED
100
AcDbEntity
  8
0
370
    -3
  6
Continuous
100
AcDbLine
 10
221.426575
 20
345.314457
 30
0.0
 11
221.126575
 21
345.614457
 31
0.0
  0
ARC
  5
EE
100
AcDbEntity
  8
0
370
    -3
  6
Continuous
100
AcDbCircle
 10
233.468458
 20
342.114457
 30
0.0
 40
3.0
100
AcDbArc
 50
10.0
 51
56.44269
  0
LINE
  5
EF
100
AcDbEntity
  8
0
370
    -3
  6
Continuous
100
AcDbLine
 10
163.426575
 20
345.314457
 30
0.0
 11
163.726575
 21
345.614457
 31
0.0
  0
ARC
  5
F0
100
AcDbEntity
  8
0
370
    -3
  6
Continuous
100
AcDbCircle
 10
151.384691
 20
342.114457
 30
0.0
 40
3.0
100
AcDbArc
 50
123.55731
 51
170.0
  0
LINE
  5
F1
100
AcDbEntity
  8
0
370
    -3
  6
CENTER
100
AcDbLine
 10
258.426575
 20
308.943837
 30
0.0
 11
258.426575
 21
347.520379
 31
0.0
  0
LINE
  5
F2
100
AcDbEntity
  8
0
370
    -3
  6
CENTER
100
AcDbLine
 10
132.426575
 20
308.943837
 30
0.0
 11
132.426575
 21
347.734753
 31
0.0
  0
LINE
  5
F3
100
AcDbEntity
  8
0
370
    -3
  6
CENTER
100
AcDbLine
 10
147.495932
 20
192.614389
 30
0.0
 11
114.509879
 21
192.614389
 31
0.0
  0
LINE
  5
F4
100
AcDbEntity
  8
0
370
    -3
  6
Continuous
100
AcDbLine
 10
91.926575
 20
320.114389
 30
0.0
 11
91.926575
 21
261.614389
 31
0.0
  0
LINE
  5
F5
100
AcDbEntity
  8
0
370
    -3
  6
Continuous
100
AcDbLine
 10
91.926575
 20
203.114389
 30
0.0
 11
91.926575
 21
261.614389
 31
0.0
  0
LINE
  5
F6
100
AcDbEntity
  8
0
370
    -3
  6
Continuous
100
AcDbLine
 10
91.926575
 20
202.114389
 30
0.0
 11
91.926575
 21
261.614389
 31
0.0
  0
LINE
  5
F7
100
AcDbEntity
  8
0
370
    -3
  6
Continuous
100
AcDbLine
 10
91.926575
 20
321.114389
 30
0.0
 11
91.926575
 21
261.614389
 31
0.0
  0
LINE
  5
F8
100
AcDbEntity
  8
0
370
    -3
  6
Continuous
100
AcDbLine
 10
91.926575
 20
320.114389
 30
0.0
 11
91.926575
 21
261.614389
 31
0.0
  0
LINE
  5
F9
100
AcDbEntity
  8
0
370
    -3
  6
Continuous
100
AcDbLine
 10
91.926575
 20
203.114389
 30
0.0
 11
91.926575
 21
261.614389
 31
0.0
  0
LINE
  5
FA
100
AcDbEntity
  8
0
370
    -3
  6
Continuous
100
AcDbLine
 10
-276.073212
 20
-31.251616
 30
0.0
 11
-276.073212
 21
22.573475
 31
0.0
  0
LINE
  5
FB
100
AcDbEntity
  8
0
370
    -3
  6
Continuous
100
AcDbLine
 10
-269.573212
 20
-43.548019
 30
0.0
 11
-269.573212
 21
2.587112
 31
0.0
  0
LINE
  5
FC
100
AcDbEntity
  8
0
370
    -3
  6
CENTER
100
AcDbLine
 10
-395.073212
 20
-161.811693
 30
0.0
 11
-395.073212
 21
-195.039524
 31
0.0
  0
LINE
  5
FD
100
AcDbEntity
  8
0
370
    -3
  6
CENTER
100
AcDbLine
 10
-257.073212
 20
-161.811693
 30
0.0
 11
-257.073212
 21
-195.039524
 31
0.0
  0
LINE
  5
FE
100
AcDbEntity
  8
0
370
    -3
  6
Continuous
100
AcDbLine
 10
-277.073001
 20
-168.453949
 30
0.0
 11
-276.073212
 21
-167.433381
 31
0.0
  0
LINE
  5
FF
100
AcDbEntity
  8
0
370
    -3
  6
CENTER
100
AcDbLine
 10
-326.073212
 20
-195.603484
 30
0.0
 11
-326.073212
 21
41.759011
 31
0.0
  0
ARC
  5
100
100
AcDbEntity
  8
0
370
    -3
  6
Continuous
100
AcDbCircle
 10
-378.073144
 20
-167.426525
 30
0.0
 40
3.0
100
AcDbArc
 50
270.0
 51
0.0
  0
LINE
  5
101
100
AcDbEntity
  8
0
370
    -3
  6
Continuous
100
AcDbLine
 10
-409.678367
 20
-173.347995
 30
0.0
 11
-410.06054
 21
-188.426525
 31
0.0
  0
ARC
  5
102
100
AcDbEntity
  8
0
370
    -3
  6
Continuous
100
AcDbCircle
 10
-406.679395
 20
-173.426525
 30
0.0
 40
3.0
100
AcDbArc
 50
90.0
 51
178.5
  0
ARC
  5
103
100
AcDbEntity
  8
0
370
    -3
  6
Continuous
100
AcDbCircle
 10
-245.46703
 20
-173.426525
 30
0.0
 40
3.0
100
AcDbArc
 50
1.5
 51
90.0
  0
LINE
  5
104
100
AcDbEntity
  8
0
370
    -3
  6
Continuous
100
AcDbLine
 10
-242.468058
 20
-173.347995
 30
0.0
 11
-242.085885
 21
-188.426525
 31
0.0
  0
LINE
  5
105
100
AcDbEntity
  8
0
370
    -3
  6
Continuous
100
AcDbLine
 10
-245.46703
 20
-170.426525
 30
0.0
 11
-280.073212
 21
-170.426525
 31
0.0
  0
LINE
  5
106
100
AcDbEntity
  8
0
370
    -3
  6
Continuous
100
AcDbLine
 10
-375.073144
 20
-167.426525
 30
0.0
 11
-375.073144
 21
-138.153311
 31
0.0
  0
LINE
  5
107
100
AcDbEntity
  8
0
370
    -3
  6
Continuous
100
AcDbLine
 10
-242.085885
 20
-188.426525
 30
0.0
 11
-410.06054
 21
-188.426525
 31
0.0
  0
ARC
  5
108
100
AcDbEntity
  8
0
370
    -3
  6
Continuous
100
AcDbCircle
 10
-280.073212
 20
-169.426525
 30
0.0
 40
1.0
100
AcDbArc
 50
180.0
 51
270.0
  0
LINE
  5
109
100
AcDbEntity
  8
0
370
    -3
  6
Continuous
100
AcDbLine
 10
-281.073212
 20
-168.536241
 30
0.0
 11
-277.073001
 21
-168.453949
 31
0.0
  0
LINE
  5
10A
100
AcDbEntity
  8
0
370
    -3
  6
Continuous
100
AcDbLine
 10
-276.073212
 20
-167.433381
 30
0.0
 11
-276.073212
 21
-149.863953
 31
0.0
  0
LINE
  5
10B
100
AcDbEntity
  8
0
370
    -3
  6
Continuous
100
AcDbLine
 10
-281.073212
 20
-139.228531
 30
0.0
 11
-281.073212
 21
-169.426525
 31
0.0
  0
CIRCLE
  5
10C
100
AcDbEntity
  8
0
370
    -3
  6
Continuous
100
AcDbCircle
 10
340.926583
 20
-48.426525
 30
0.0
 40
3.5
  0
CIRCLE
  5
10D
100
AcDbEntity
  8
0
370
    -3
  6
Continuous
100
AcDbCircle
 10
340.926583
 20
-48.426525
 30
0.0
 40
4.0
  0
ARC
  5
10E
100
AcDbEntity
  8
0
370
    -3
  6
Continuous
100
AcDbCircle
 10
340.926583
 20
-48.426525
 30
0.0
 40
16.0
100
AcDbArc
 50
108.209957
 51
71.790043
  0
LINE
  5
10F
100
AcDbEntity
  8
0
370
    -3
  6
Continuous
100
AcDbLine
 10
335.926583
 20
-37.426525
 30
0.0
 11
345.926583
 21
-37.426525
 31
0.0
  0
LINE
  5
110
100
AcDbEntity
  8
0
370
    -3
  6
Continuous
100
AcDbLine
 10
335.926583
 20
-29.426525
 30
0.0
 11
335.926583
 21
-37.426525
 31
0.0
  0
LINE
  5
111
100
AcDbEntity
  8
0
370
    -3
  6
Continuous
100
AcDbLine
 10
345.926583
 20
-29.426525
 30
0.0
 11
335.926583
 21
-29.426525
 31
0.0
  0
LINE
  5
112
100
AcDbEntity
  8
0
370
    -3
  6
Continuous
100
AcDbLine
 10
345.926583
 20
-29.426525
 30
0.0
 11
345.926583
 21
-37.426525
 31
0.0
  0
LINE
  5
113
100
AcDbEntity
  8
0
370
    -3
  6
CENTER
100
AcDbLine
 10
340.926583
 20
-24.928512
 30
0.0
 11
340.926583
 21
-69.450018
 31
0.0
  0
LINE
  5
114
100
AcDbEntity
  8
0
370
    -3
  6
CENTER
100
AcDbLine
 10
319.706763
 20
-48.426525
 30
0.0
 11
360.803537
 21
-48.426525
 31
0.0
  0
LINE
  5
115
100
AcDbEntity
  8
0
370
    -3
  6
Continuous
100
AcDbLine
 10
91.926583
 20
-144.048938
 30
0.0
 11
91.926583
 21
-25.048938
 31
0.0
  0
LINE
  5
116
100
AcDbEntity
  8
0
370
    -3
  6
Continuous
100
AcDbLine
 10
91.926583
 20
-144.048938
 30
0.0
 11
91.926583
 21
-25.048938
 31
0.0
  0
LINE
  5
117
100
AcDbEntity
  8
0
370
    -3
  6
Continuous
100
AcDbLine
 10
151.426583
 20
23.573475
 30
0.0
 11
239.926583
 21
23.573475
 31
0.0
  0
LINE
  5
118
100
AcDbEntity
  8
0
370
    -3
  6
CENTER
100
AcDbLine
 10
280.86011
 20
-48.426525
 30
0.0
 11
105.412788
 21
-48.426525
 31
0.0
  0
LINE
  5
119
100
AcDbEntity
  8
0
370
    -3
  6
CENTER
100
AcDbLine
 10
192.426583
 20
27.340754
 30
0.0
 11
192.426583
 21
-198.715146
 31
0.0
  0
INSERT
  5
125
100
AcDbEntity
  8
0
100
AcDbBlockReference
  2
ZU_SYM__USERS_HOME_SYMBOL_POO_SYM_B20_-1
 10
257.425026
 20
-154.430571
 30
0.0
  0
INSERT
  5
131
100
AcDbEntity
  8
0
100
AcDbBlockReference
  2
ZU_SYM__USERS_HOME_SYMBOL_POO_SYM_B20_00001-1
 10
133.928139
 20
-154.430571
 30
0.0
  0
INSERT
  5
13D
100
AcDbEntity
  8
0
100
AcDbBlockReference
  2
ZU_SYM__USERS_HOME_SYMBOL_POO_SYM_B20_00002-1
 10
137.924896
 20
2.577264
 30
0.0
  0
INSERT
  5
149
100
AcDbEntity
  8
0
100
AcDbBlockReference
  2
ZU_SYM__USERS_HOME_SYMBOL_POO_SYM_B20_00003-1
 10
253.428269
 20
2.577264
 30
0.0
  0
CIRCLE
  5
14A
100
AcDbEntity
  8
0
370
    -3
  6
Continuous
100
AcDbCircle
 10
192.426583
 20
-48.426525
 30
0.0
 40
3.5
  0
CIRCLE
  5
14B
100
AcDbEntity
  8
0
370
    -3
  6
Continuous
100
AcDbCircle
 10
192.426583
 20
-48.426525
 30
0.0
 40
4.0
  0
LINE
  5
14C
100
AcDbEntity
  8
0
370
    -3
  6
Continuous
100
AcDbLine
 10
197.426583
 20
-29.426525
 30
0.0
 11
197.426583
 21
-37.426525
 31
0.0
  0
ARC
  5
14D
100
AcDbEntity
  8
0
370
    -3
  6
Continuous
100
AcDbCircle
 10
192.426583
 20
-48.426525
 30
0.0
 40
16.0
100
AcDbArc
 50
108.209957
 51
71.790043
  0
LINE
  5
14E
100
AcDbEntity
  8
0
370
    -3
  6
Continuous
100
AcDbLine
 10
197.426583
 20
-37.426525
 30
0.0
 11
187.426583
 21
-37.426525
 31
0.0
  0
LINE
  5
14F
100
AcDbEntity
  8
0
370
    -3
  6
Continuous
100
AcDbLine
 10
187.426583
 20
-29.426525
 30
0.0
 11
197.426583
 21
-29.426525
 31
0.0
  0
LINE
  5
150
100
AcDbEntity
  8
0
370
    -3
  6
Continuous
100
AcDbLine
 10
187.426583
 20
-29.426525
 30
0.0
 11
187.426583
 21
-37.426525
 31
0.0
  0
LINE
  5
151
100
AcDbEntity
  8
0
370
    -3
  6
Continuous
100
AcDbLine
 10
274.926583
 20
-188.426525
 30
0.0
 11
116.426583
 21
-188.426525
 31
0.0
  0
ARC
  5
152
100
AcDbEntity
  8
0
370
    -3
  6
Continuous
100
AcDbCircle
 10
239.926583
 20
-11.426525
 30
0.0
 40
35.0
100
AcDbArc
 50
0.0
 51
90.0
  0
LINE
  5
153
100
AcDbEntity
  8
0
370
    -3
  6
Continuous
100
AcDbLine
 10
274.926583
 20
-11.426525
 30
0.0
 11
274.926583
 21
-188.426525
 31
0.0
  0
LINE
  5
154
100
AcDbEntity
  8
0
370
    -3
  6
CENTER
100
AcDbLine
 10
269.425026
 20
-154.430571
 30
0.0
 11
243.396858
 21
-154.430571
 31
0.0
  0
LINE
  5
155
100
AcDbEntity
  8
0
370
    -3
  6
CENTER
100
AcDbLine
 10
266.428269
 20
2.577264
 30
0.0
 11
240.395335
 21
2.577264
 31
0.0
  0
ARC
  5
156
100
AcDbEntity
  8
0
370
    -3
  6
Continuous
100
AcDbCircle
 10
164.426583
 20
-116.926525
 30
0.0
 40
30.0
100
AcDbArc
 50
180.0
 51
270.0
  0
ARC
  5
157
100
AcDbEntity
  8
0
370
    -3
  6
Continuous
100
AcDbCircle
 10
220.426583
 20
-116.926525
 30
0.0
 40
30.0
100
AcDbArc
 50
270.0
 51
0.0
  0
LINE
  5
158
100
AcDbEntity
  8
0
370
    -3
  6
Continuous
100
AcDbLine
 10
134.426583
 20
-48.426525
 30
0.0
 11
134.426583
 21
-116.926525
 31
0.0
  0
LINE
  5
159
100
AcDbEntity
  8
0
370
    -3
  6
Continuous
100
AcDbLine
 10
250.426583
 20
-48.426525
 30
0.0
 11
250.426583
 21
-116.926525
 31
0.0
  0
ARC
  5
15A
100
AcDbEntity
  8
0
370
    -3
  6
Continuous
100
AcDbCircle
 10
192.426583
 20
-48.426525
 30
0.0
 40
58.0
100
AcDbArc
 50
0.0
 51
180.0
  0
LINE
  5
15B
100
AcDbEntity
  8
0
370
    -3
  6
Continuous
100
AcDbLine
 10
220.426583
 20
-146.926525
 30
0.0
 11
164.426583
 21
-146.926525
 31
0.0
  0
ARC
  5
15C
100
AcDbEntity
  8
0
370
    -3
  6
Continuous
100
AcDbCircle
 10
128.426583
 20
-156.426525
 30
0.0
 40
12.0
100
AcDbArc
 50
180.0
 51
270.0
  0
ARC
  5
15D
100
AcDbEntity
  8
0
370
    -3
  6
Continuous
100
AcDbCircle
 10
262.926583
 20
-156.426525
 30
0.0
 40
12.0
100
AcDbArc
 50
270.0
 51
0.0
  0
CIRCLE
  5
15E
100
AcDbEntity
  8
0
370
    -3
  6
Continuous
100
AcDbCircle
 10
192.426583
 20
-48.426525
 30
0.0
 40
26.0
  0
CIRCLE
  5
15F
100
AcDbEntity
  8
0
370
    -3
  6
Continuous
100
AcDbCircle
 10
192.492231
 20
-48.624264
 30
0.0
 40
32.0
  0
CIRCLE
  5
160
100
AcDbEntity
  8
0
370
    -3
  6
Continuous
100
AcDbCircle
 10
192.492231
 20
-48.624264
 30
0.0
 40
29.0
  0
LINE
  5
161
100
AcDbEntity
  8
0
370
    -3
  6
Continuous
100
AcDbLine
 10
128.426583
 20
-168.426525
 30
0.0
 11
262.926583
 21
-168.426525
 31
0.0
  0
CIRCLE
  5
162
100
AcDbEntity
  8
0
370
    -3
  6
Continuous
100
AcDbCircle
 10
133.928139
 20
-154.430571
 30
0.0
 40
6.5
  0
CIRCLE
  5
163
100
AcDbEntity
  8
0
370
    -3
  6
Continuous
100
AcDbCircle
 10
257.425026
 20
-154.430571
 30
0.0
 40
6.5
  0
CIRCLE
  5
164
100
AcDbEntity
  8
0
370
    -3
  6
Continuous
100
AcDbCircle
 10
137.924896
 20
2.577264
 30
0.0
 40
6.5
  0
CIRCLE
  5
165
100
AcDbEntity
  8
0
370
    -3
  6
Continuous
100
AcDbCircle
 10
253.428269
 20
2.577264
 30
0.0
 40
6.5
  0
LINE
  5
166
100
AcDbEntity
  8
0
370
    -3
  6
CENTER
100
AcDbLine
 10
257.425026
 20
-142.430571
 30
0.0
 11
257.425026
 21
-166.430571
 31
0.0
  0
LINE
  5
167
100
AcDbEntity
  8
0
370
    -3
  6
CENTER
100
AcDbLine
 10
146.928139
 20
-154.430571
 30
0.0
 11
120.928139
 21
-154.430571
 31
0.0
  0
LINE
  5
168
100
AcDbEntity
  8
0
370
    -3
  6
CENTER
100
AcDbLine
 10
133.928139
 20
-141.430571
 30
0.0
 11
133.928139
 21
-167.430571
 31
0.0
  0
LINE
  5
169
100
AcDbEntity
  8
0
370
    -3
  6
CENTER
100
AcDbLine
 10
253.428269
 20
15.577264
 30
0.0
 11
253.428269
 21
-10.422736
 31
0.0
  0
LINE
  5
16A
100
AcDbEntity
  8
0
370
    -3
  6
CENTER
100
AcDbLine
 10
137.924896
 20
15.577264
 30
0.0
 11
137.924896
 21
-10.422736
 31
0.0
  0
LINE
  5
16B
100
AcDbEntity
  8
0
370
    -3
  6
CENTER
100
AcDbLine
 10
124.924896
 20
2.577264
 30
0.0
 11
150.924896
 21
2.577264
 31
0.0
  0
CIRCLE
  5
16C
100
AcDbEntity
  8
0
370
    -3
  6
Continuous
100
AcDbCircle
 10
192.426583
 20
-48.426525
 30
0.0
 40
48.496338
  0
LINE
  5
16D
100
AcDbEntity
  8
0
370
    -3
  6
Continuous
100
AcDbLine
 10
118.247583
 20
-13.043119
 30
0.0
 11
118.247511
 21
-13.043119
 31
0.0
  0
LINE
  5
16E
100
AcDbEntity
  8
0
370
    -3
  6
Continuous
100
AcDbLine
 10
118.247583
 20
-13.041525
 30
0.0
 11
118.247511
 21
-13.041525
 31
0.0
  0
ARC
  5
16F
100
AcDbEntity
  8
0
370
    -3
  6
Continuous
100
AcDbCircle
 10
151.426583
 20
-11.426525
 30
0.0
 40
35.0
100
AcDbArc
 50
90.0
 51
180.0
  0
POINT
  5
170
100
AcDbEntity
  8
0
370
    -3
  6
Continuous
100
AcDbPoint
 10
192.426583
 20
-48.426525
 30
0.0
  0
CIRCLE
  5
171
100
AcDbEntity
  8
0
370
    -3
  6
Continuous
100
AcDbCircle
 10
192.426583
 20
-48.426525
 30
0.0
 40
44.0
  0
LINE
  5
172
100
AcDbEntity
  8
0
370
    -3
  6
Continuous
100
AcDbLine
 10
116.426583
 20
-11.426525
 30
0.0
 11
116.426583
 21
-146.509666
 31
0.0
  0
LINE
  5
173
100
AcDbEntity
  8
0
370
    -3
  6
Continuous
100
AcDbLine
 10
116.426583
 20
-156.426525
 30
0.0
 11
116.426583
 21
-145.558899
 31
0.0
  0
ARC
  5
174
100
AcDbEntity
  8
0
370
    -3
  6
Continuous
100
AcDbCircle
 10
100.926583
 20
-48.542258
 30
0.0
 40
3.0
100
AcDbArc
 50
90.0
 51
180.0
  0
ARC
  5
175
100
AcDbEntity
  8
0
370
    -3
  6
Continuous
100
AcDbCircle
 10
100.926583
 20
-42.358794
 30
0.0
 40
3.0
100
AcDbArc
 50
90.0
 51
180.0
  0
ARC
  5
176
100
AcDbEntity
  8
0
370
    -3
  6
Continuous
100
AcDbCircle
 10
100.926583
 20
-29.447218
 30
0.0
 40
3.0
100
AcDbArc
 50
180.0
 51
270.0
  0
ARC
  5
177
100
AcDbEntity
  8
0
370
    -3
  6
Continuous
100
AcDbCircle
 10
106.926583
 20
-37.447218
 30
0.0
 40
5.0
100
AcDbArc
 50
0.0
 51
90.0
  0
ARC
  5
178
100
AcDbEntity
  8
0
370
    -3
  6
Continuous
100
AcDbCircle
 10
106.926583
 20
-44.358794
 30
0.0
 40
5.0
100
AcDbArc
 50
0.0
 51
90.0
  0
LINE
  5
179
100
AcDbEntity
  8
0
370
    -3
  6
Continuous
100
AcDbLine
 10
111.926583
 20
-141.043525
 30
0.0
 11
111.926583
 21
-28.043525
 31
0.0
  0
LINE
  5
17A
100
AcDbEntity
  8
0
370
    -3
  6
Continuous
100
AcDbLine
 10
97.926583
 20
-29.043525
 30
0.0
 11
97.926583
 21
-29.447218
 31
0.0
  0
LINE
  5
17B
100
AcDbEntity
  8
0
370
    -3
  6
Continuous
100
AcDbLine
 10
97.926583
 20
-42.358794
 30
0.0
 11
97.926583
 21
-84.543525
 31
0.0
  0
LINE
  5
17C
100
AcDbEntity
  8
0
370
    -3
  6
Continuous
100
AcDbLine
 10
100.926583
 20
-45.542258
 30
0.0
 11
105.926583
 21
-45.542258
 31
0.0
  0
LINE
  5
17D
100
AcDbEntity
  8
0
370
    -3
  6
Continuous
100
AcDbLine
 10
97.926583
 20
-29.043525
 30
0.0
 11
97.926583
 21
-28.043525
 31
0.0
  0
LINE
  5
17E
100
AcDbEntity
  8
0
370
    -3
  6
Continuous
100
AcDbLine
 10
100.926583
 20
-32.447218
 30
0.0
 11
106.926583
 21
-32.447218
 31
0.0
  0
LINE
  5
17F
100
AcDbEntity
  8
0
370
    -3
  6
Continuous
100
AcDbLine
 10
100.926583
 20
-39.358794
 30
0.0
 11
106.926583
 21
-39.358794
 31
0.0
  0
ARC
  5
180
100
AcDbEntity
  8
0
370
    -3
  6
Continuous
100
AcDbCircle
 10
94.926583
 20
-28.043525
 30
0.0
 40
3.0
100
AcDbArc
 50
0.0
 51
90.0
  0
ARC
  5
181
100
AcDbEntity
  8
0
370
    -3
  6
Continuous
100
AcDbCircle
 10
100.926583
 20
-120.544792
 30
0.0
 40
3.0
100
AcDbArc
 50
180.0
 51
270.0
  0
ARC
  5
182
100
AcDbEntity
  8
0
370
    -3
  6
Continuous
100
AcDbCircle
 10
100.926583
 20
-139.639833
 30
0.0
 40
3.0
100
AcDbArc
 50
90.0
 51
180.0
  0
ARC
  5
183
100
AcDbEntity
  8
0
370
    -3
  6
Continuous
100
AcDbCircle
 10
100.926583
 20
-126.728257
 30
0.0
 40
3.0
100
AcDbArc
 50
180.0
 51
270.0
  0
ARC
  5
184
100
AcDbEntity
  8
0
370
    -3
  6
Continuous
100
AcDbCircle
 10
94.926583
 20
-141.043525
 30
0.0
 40
3.0
100
AcDbArc
 50
270.0
 51
0.0
  0
LINE
  5
185
100
AcDbEntity
  8
0
370
    -3
  6
Continuous
100
AcDbLine
 10
97.926583
 20
-126.728257
 30
0.0
 11
97.926583
 21
-84.543525
 31
0.0
  0
LINE
  5
186
100
AcDbEntity
  8
0
370
    -3
  6
Continuous
100
AcDbLine
 10
100.926583
 20
-123.544792
 30
0.0
 11
105.926583
 21
-123.544792
 31
0.0
  0
LINE
  5
187
100
AcDbEntity
  8
0
370
    -3
  6
Continuous
100
AcDbLine
 10
97.926583
 20
-140.043525
 30
0.0
 11
97.926583
 21
-139.639833
 31
0.0
  0
LINE
  5
188
100
AcDbEntity
  8
0
370
    -3
  6
Continuous
100
AcDbLine
 10
97.926583
 20
-140.043525
 30
0.0
 11
97.926583
 21
-139.639833
 31
0.0
  0
LINE
  5
189
100
AcDbEntity
  8
0
370
    -3
  6
Continuous
100
AcDbLine
 10
97.926583
 20
-140.043525
 30
0.0
 11
97.926583
 21
-141.043525
 31
0.0
  0
LINE
  5
18A
100
AcDbEntity
  8
0
370
    -3
  6
Continuous
100
AcDbLine
 10
100.926583
 20
-129.728257
 30
0.0
 11
106.926583
 21
-129.728257
 31
0.0
  0
LINE
  5
18B
100
AcDbEntity
  8
0
370
    -3
  6
Continuous
100
AcDbLine
 10
100.926583
 20
-136.639833
 30
0.0
 11
106.926583
 21
-136.639833
 31
0.0
  0
ARC
  5
18C
100
AcDbEntity
  8
0
370
    -3
  6
Continuous
100
AcDbCircle
 10
106.926583
 20
-124.728257
 30
0.0
 40
5.0
100
AcDbArc
 50
270.0
 51
0.0
  0
ARC
  5
18D
100
AcDbEntity
  8
0
370
    -3
  6
Continuous
100
AcDbCircle
 10
106.926583
 20
-131.639833
 30
0.0
 40
5.0
100
AcDbArc
 50
270.0
 51
0.0
  0
ARC
  5
18E
100
AcDbEntity
  8
0
370
    -3
  6
Continuous
100
AcDbCircle
 10
108.926583
 20
-28.043525
 30
0.0
 40
3.0
100
AcDbArc
 50
0.0
 51
90.0
  0
ARC
  5
18F
100
AcDbEntity
  8
0
370
    -3
  6
Continuous
100
AcDbCircle
 10
108.926583
 20
-141.043525
 30
0.0
 40
3.0
100
AcDbArc
 50
270.0
 51
0.0
  0
LINE
  5
190
100
AcDbEntity
  8
0
370
    -3
  6
Continuous
100
AcDbLine
 10
97.926583
 20
-104.543525
 30
0.0
 11
91.926583
 21
-104.543525
 31
0.0
  0
LINE
  5
191
100
AcDbEntity
  8
0
370
    -3
  6
Continuous
100
AcDbLine
 10
97.926583
 20
-64.543525
 30
0.0
 11
91.926583
 21
-64.543525
 31
0.0
  0
ARC
  5
192
100
AcDbEntity
  8
0
370
    -3
  6
Continuous
100
AcDbCircle
 10
113.426583
 20
-147.043525
 30
0.0
 40
3.0
100
AcDbArc
 50
0.0
 51
90.0
  0
ARC
  5
193
100
AcDbEntity
  8
0
370
    -3
  6
Continuous
100
AcDbCircle
 10
113.426583
 20
-22.043525
 30
0.0
 40
3.0
100
AcDbArc
 50
270.0
 51
0.0
  0
LINE
  5
194
100
AcDbEntity
  8
0
370
    -3
  6
Continuous
100
AcDbLine
 10
113.426583
 20
-25.043525
 30
0.0
 11
91.926583
 21
-25.043525
 31
0.0
  0
LINE
  5
195
100
AcDbEntity
  8
0
370
    -3
  6
Continuous
100
AcDbLine
 10
113.426583
 20
-144.043525
 30
0.0
 11
91.926583
 21
-144.043525
 31
0.0
  0
LINE
  5
196
100
AcDbEntity
  8
0
370
    -3
  6
Continuous
100
AcDbLine
 10
118.247583
 20
-13.043119
 30
0.0
 11
118.247511
 21
-13.043119
 31
0.0
  0
LINE
  5
197
100
AcDbEntity
  8
0
370
    -3
  6
Continuous
100
AcDbLine
 10
118.247583
 20
-13.041525
 30
0.0
 11
118.247511
 21
-13.041525
 31
0.0
  0
LINE
  5
198
100
AcDbEntity
  8
0
370
    -3
  6
Continuous
100
AcDbLine
 10
271.926583
 20
-170.426525
 30
0.0
 11
119.426583
 21
-170.426525
 31
0.0
  0
ARC
  5
199
100
AcDbEntity
  8
0
370
    -3
  6
Continuous
100
AcDbCircle
 10
271.926583
 20
-173.426525
 30
0.0
 40
3.0
100
AcDbArc
 50
0.0
 51
90.0
  0
LINE
  5
19A
100
AcDbEntity
  8
0
370
    -3
  6
Continuous
100
AcDbLine
 10
116.426583
 20
-188.426525
 30
0.0
 11
116.426583
 21
-146.558899
 31
0.0
  0
ARC
  5
19B
100
AcDbEntity
  8
0
370
    -3
  6
Continuous
100
AcDbCircle
 10
119.426583
 20
-173.426525
 30
0.0
 40
3.0
100
AcDbArc
 50
90.0
 51
180.0
  0
LINE
  5
19C
100
AcDbEntity
  8
0
370
    -3
  6
Continuous
100
AcDbLine
 10
263.926583
 20
-169.926525
 30
0.0
 11
127.426583
 21
-169.926525
 31
0.0
  0
ARC
  5
19D
100
AcDbEntity
  8
0
370
    -3
  6
Continuous
100
AcDbCircle
 10
263.926583
 20
-158.926525
 30
0.0
 40
11.0
100
AcDbArc
 50
270.0
 51
0.0
  0
ARC
  5
19E
100
AcDbEntity
  8
0
370
    -3
  6
Continuous
100
AcDbCircle
 10
127.426583
 20
-158.926525
 30
0.0
 40
11.0
100
AcDbArc
 50
180.0
 51
270.0
  0
LINE
  5
19F
100
AcDbEntity
  8
0
370
    -3
  6
CENTER
100
AcDbLine
 10
132.426583
 20
-167.734199
 30
0.0
 11
132.426583
 21
-195.386228
 31
0.0
  0
LINE
  5
1A0
100
AcDbEntity
  8
0
370
    -3
  6
CENTER
100
AcDbLine
 10
258.426583
 20
-165.86648
 30
0.0
 11
258.426583
 21
-196.626648
 31
0.0
  0
LINE
  5
1A1
100
AcDbEntity
  8
0
370
    -3
  6
Continuous
100
AcDbLine
 10
91.926583
 20
-26.095933
 30
0.0
 11
91.926583
 21
-142.991118
 31
0.0
  0
LINE
  5
1A2
100
AcDbEntity
  8
0
370
    -3
  6
Continuous
100
AcDbLine
 10
91.826583
 20
-26.043525
 30
0.0
 11
91.826583
 21
-26.043525
 31
0.0
  0
LINE
  5
1A3
100
AcDbEntity
  8
0
370
    -3
  6
Continuous
100
AcDbLine
 10
91.926583
 20
-26.045963
 30
0.0
 11
91.926583
 21
-143.043525
 31
0.0
  0
LINE
  5
1A4
100
AcDbEntity
  8
0
370
    -3
  6
Continuous
100
AcDbLine
 10
91.926583
 20
-143.043529
 30
0.0
 11
91.926583
 21
-140.793529
 31
0.0
  0
LINE
  5
1A5
100
AcDbEntity
  8
0
370
    -3
  6
Continuous
100
AcDbLine
 10
91.926583
 20
-26.052253
 30
0.0
 11
91.926583
 21
-84.543525
 31
0.0
  0
LINE
  5
1A6
100
AcDbEntity
  8
0
370
    -3
  6
Continuous
100
AcDbLine
 10
91.926583
 20
-143.034798
 30
0.0
 11
91.926583
 21
-84.543525
 31
0.0
  0
LINE
  5
1A7
100
AcDbEntity
  8
0
370
    -3
  6
Continuous
100
AcDbLine
 10
91.926077
 20
-140.793525
 30
0.0
 11
91.926077
 21
-142.961487
 31
0.0
  0
LINE
  5
1A8
100
AcDbEntity
  8
0
370
    -3
  6
Continuous
100
AcDbLine
 10
91.926077
 20
-143.043525
 30
0.0
 11
91.926077
 21
-140.793525
 31
0.0
  0
LINE
  5
1A9
100
AcDbEntity
  8
0
370
    -3
  6
Continuous
100
AcDbLine
 10
91.926077
 20
-26.043525
 30
0.0
 11
91.926077
 21
-28.293525
 31
0.0
  0
LINE
  5
1AA
100
AcDbEntity
  8
0
370
    -3
  6
Continuous
100
AcDbLine
 10
91.926583
 20
-144.043525
 30
0.0
 11
91.926583
 21
-84.543525
 31
0.0
  0
LINE
  5
1AB
100
AcDbEntity
  8
0
370
    -3
  6
Continuous
100
AcDbLine
 10
91.926583
 20
-25.043525
 30
0.0
 11
91.926583
 21
-84.543525
 31
0.0
  0
LINE
  5
1AC
100
AcDbEntity
  8
0
370
    -3
  6
Continuous
100
AcDbLine
 10
91.926583
 20
-84.543525
 30
0.0
 11
91.926583
 21
-25.069711
 31
0.0
  0
LINE
  5
1AD
100
AcDbEntity
  8
0
370
    -3
  6
Continuous
100
AcDbLine
 10
91.926583
 20
-84.543525
 30
0.0
 11
91.926583
 21
-144.017339
 31
0.0
  0
ARC
  5
1AE
100
AcDbEntity
  8
0
370
    -3
  6
Continuous
100
AcDbCircle
 10
-112.767442
 20
-129.548938
 30
0.0
 40
20.0
100
AcDbArc
 50
235.0
 51
270.0
  0
ARC
  5
1AF
100
AcDbEntity
  8
0
370
    -3
  6
Continuous
100
AcDbCircle
 10
-132.473417
 20
-136.992143
 30
0.0
 40
2.6
100
AcDbArc
 50
180.0
 51
235.0
  0
LINE
  5
1B0
100
AcDbEntity
  8
0
370
    -3
  6
Continuous
100
AcDbLine
 10
-124.23897
 20
-145.931979
 30
0.0
 11
-133.964716
 21
-139.121938
 31
0.0
  0
LINE
  5
1B1
100
AcDbEntity
  8
0
370
    -3
  6
Continuous
100
AcDbLine
 10
-135.073417
 20
-84.548938
 30
0.0
 11
-135.073417
 21
-136.992143
 31
0.0
  0
LINE
  5
1B2
100
AcDbEntity
  8
0
370
    -3
  6
Continuous
100
AcDbLine
 10
-32.073417
 20
-149.548938
 30
0.0
 11
-112.767442
 21
-149.548938
 31
0.0
  0
ELLIPSE
  5
1B3
100
AcDbEntity
  8
0
370
    -3
  6
Continuous
100
AcDbEllipse
 10
-43.073417
 20
-136.472463
 30
0.0
 11
4.6999999999999886
 21
0.0
 31
0.0
210
0.0
220
0.0
230
1.0
 40
0.766646
 41
0.0
 42
6.2831853071795862
  0
LINE
  5
1B4
100
AcDbEntity
  8
0
370
    -3
  6
Continuous
100
AcDbLine
 10
-45.073417
 20
-139.464838
 30
0.0
 11
-43.073417
 21
-138.289053
 31
0.0
  0
LINE
  5
1B5
100
AcDbEntity
  8
0
370
    -3
  6
Continuous
100
AcDbLine
 10
-43.073417
 20
-138.289053
 30
0.0
 11
-41.073417
 21
-136.636411
 31
0.0
  0
LINE
  5
1B6
100
AcDbEntity
  8
0
370
    -3
  6
Continuous
100
AcDbLine
 10
-41.073417
 20
-139.464838
 30
0.0
 11
-43.073417
 21
-138.289053
 31
0.0
  0
LINE
  5
1B7
100
AcDbEntity
  8
0
370
    -3
  6
Continuous
100
AcDbLine
 10
-43.073417
 20
-138.289053
 30
0.0
 11
-45.073417
 21
-136.636411
 31
0.0
  0
ARC
  5
1B8
100
AcDbEntity
  8
0
370
    -3
  6
Continuous
100
AcDbCircle
 10
-35.073417
 20
-25.929717
 30
0.0
 40
3.0
100
AcDbArc
 50
0.0
 51
90.0
  0
LINE
  5
1B9
100
AcDbEntity
  8
0
370
    -3
  6
Continuous
100
AcDbLine
 10
-39.073417
 20
-22.929717
 30
0.0
 11
-35.073417
 21
-22.929717
 31
0.0
  0
ARC
  5
1BA
100
AcDbEntity
  8
0
370
    -3
  6
Continuous
100
AcDbCircle
 10
-39.073417
 20
-19.929717
 30
0.0
 40
3.0
100
AcDbArc
 50
180.0
 51
270.0
  0
LINE
  5
1BB
100
AcDbEntity
  8
0
370
    -3
  6
Continuous
100
AcDbLine
 10
-45.073417
 20
-29.633037
 30
0.0
 11
-43.073417
 21
-30.808823
 31
0.0
  0
LINE
  5
1BC
100
AcDbEntity
  8
0
370
    -3
  6
Continuous
100
AcDbLine
 10
-43.073417
 20
-30.808823
 30
0.0
 11
-41.073417
 21
-32.461464
 31
0.0
  0
LINE
  5
1BD
100
AcDbEntity
  8
0
370
    -3
  6
Continuous
100
AcDbLine
 10
-41.073417
 20
-29.633037
 30
0.0
 11
-43.073417
 21
-30.808823
 31
0.0
  0
LINE
  5
1BE
100
AcDbEntity
  8
0
370
    -3
  6
Continuous
100
AcDbLine
 10
-43.073417
 20
-30.808823
 30
0.0
 11
-45.073417
 21
-32.461464
 31
0.0
  0
ELLIPSE
  5
1BF
100
AcDbEntity
  8
0
370
    -3
  6
Continuous
100
AcDbEllipse
 10
-43.073417
 20
-32.625413
 30
0.0
 11
4.6999999999999886
 21
0.0
 31
0.0
210
0.0
220
0.0
230
1.0
 40
0.766646
 41
0.0
 42
6.2831853071795862
  0
ARC
  5
1C0
100
AcDbEntity
  8
0
370
    -3
  6
Continuous
100
AcDbCircle
 10
-132.473417
 20
-32.105733
 30
0.0
 40
2.6
100
AcDbArc
 50
125.0
 51
180.0
  0
LINE
  5
1C1
100
AcDbEntity
  8
0
370
    -3
  6
Continuous
100
AcDbLine
 10
-124.23897
 20
-23.165897
 30
0.0
 11
-133.964716
 21
-29.975937
 31
0.0
  0
LINE
  5
1C2
100
AcDbEntity
  8
0
370
    -3
  6
Continuous
100
AcDbLine
 10
-42.073417
 20
-19.548938
 30
0.0
 11
-112.767442
 21
-19.548938
 31
0.0
  0
ARC
  5
1C3
100
AcDbEntity
  8
0
370
    -3
  6
Continuous
100
AcDbCircle
 10
-112.767442
 20
-39.548938
 30
0.0
 40
20.0
100
AcDbArc
 50
90.0
 51
125.0
  0
LINE
  5
1C4
100
AcDbEntity
  8
0
370
    -3
  6
Continuous
100
AcDbLine
 10
-32.073417
 20
-84.548938
 30
0.0
 11
-32.073417
 21
-25.929717
 31
0.0
  0
LINE
  5
1C5
100
AcDbEntity
  8
0
370
    -3
  6
Continuous
100
AcDbLine
 10
-32.073417
 20
-84.548938
 30
0.0
 11
-32.073417
 21
-149.548938
 31
0.0
  0
LINE
  5
1C6
100
AcDbEntity
  8
0
370
    -3
  6
Continuous
100
AcDbLine
 10
-135.073417
 20
-84.548938
 30
0.0
 11
-135.073417
 21
-32.105733
 31
0.0
  0
LINE
  5
1C7
100
AcDbEntity
  8
0
370
    -3
  6
Continuous
100
AcDbLine
 10
-32.073417
 20
-122.244758
 30
0.0
 11
91.926583
 21
-122.244758
 31
0.0
  0
LINE
  5
1C8
100
AcDbEntity
  8
0
370
    -3
  6
Continuous
100
AcDbLine
 10
-32.073417
 20
-119.908058
 30
0.0
 11
91.926583
 21
-119.908058
 31
0.0
  0
LINE
  5
1C9
100
AcDbEntity
  8
0
370
    -3
  6
Continuous
100
AcDbLine
 10
-32.073417
 20
-116.699459
 30
0.0
 11
91.926583
 21
-116.699459
 31
0.0
  0
LINE
  5
1CA
100
AcDbEntity
  8
0
370
    -3
  6
Continuous
100
AcDbLine
 10
-32.073417
 20
-114.470056
 30
0.0
 11
91.926583
 21
-114.470056
 31
0.0
  0
LINE
  5
1CB
100
AcDbEntity
  8
0
370
    -3
  6
Continuous
100
AcDbLine
 10
-32.073417
 20
-111.137546
 30
0.0
 11
91.926583
 21
-111.137546
 31
0.0
  0
LINE
  5
1CC
100
AcDbEntity
  8
0
370
    -3
  6
Continuous
100
AcDbLine
 10
-32.073417
 20
-109.013321
 30
0.0
 11
91.926583
 21
-109.013321
 31
0.0
  0
LINE
  5
1CD
100
AcDbEntity
  8
0
370
    -3
  6
Continuous
100
AcDbLine
 10
-32.073417
 20
-105.5829
 30
0.0
 11
91.926583
 21
-105.5829
 31
0.0
  0
LINE
  5
1CE
100
AcDbEntity
  8
0
370
    -3
  6
Continuous
100
AcDbLine
 10
-32.073417
 20
-103.554388
 30
0.0
 11
91.926583
 21
-103.554388
 31
0.0
  0
LINE
  5
1CF
100
AcDbEntity
  8
0
370
    -3
  6
Continuous
100
AcDbLine
 10
-32.073417
 20
-46.853118
 30
0.0
 11
91.926583
 21
-46.853118
 31
0.0
  0
LINE
  5
1D0
100
AcDbEntity
  8
0
370
    -3
  6
Continuous
100
AcDbLine
 10
-32.073417
 20
-49.189817
 30
0.0
 11
91.926583
 21
-49.189817
 31
0.0
  0
LINE
  5
1D1
100
AcDbEntity
  8
0
370
    -3
  6
Continuous
100
AcDbLine
 10
-32.073417
 20
-52.398416
 30
0.0
 11
91.926583
 21
-52.398416
 31
0.0
  0
LINE
  5
1D2
100
AcDbEntity
  8
0
370
    -3
  6
Continuous
100
AcDbLine
 10
-32.073417
 20
-54.62782
 30
0.0
 11
91.926583
 21
-54.62782
 31
0.0
  0
LINE
  5
1D3
100
AcDbEntity
  8
0
370
    -3
  6
Continuous
100
AcDbLine
 10
-32.073417
 20
-57.960329
 30
0.0
 11
91.926583
 21
-57.960329
 31
0.0
  0
LINE
  5
1D4
100
AcDbEntity
  8
0
370
    -3
  6
Continuous
100
AcDbLine
 10
-32.073417
 20
-60.084554
 30
0.0
 11
91.926583
 21
-60.084554
 31
0.0
  0
LINE
  5
1D5
100
AcDbEntity
  8
0
370
    -3
  6
Continuous
100
AcDbLine
 10
-32.073417
 20
-63.514975
 30
0.0
 11
91.926583
 21
-63.514975
 31
0.0
  0
LINE
  5
1D6
100
AcDbEntity
  8
0
370
    -3
  6
Continuous
100
AcDbLine
 10
-32.073417
 20
-65.543487
 30
0.0
 11
91.926583
 21
-65.543487
 31
0.0
  0
LINE
  5
1D7
100
AcDbEntity
  8
0
370
    -3
  6
Continuous
100
AcDbLine
 10
-32.073417
 20
-34.222579
 30
0.0
 11
91.926583
 21
-34.222579
 31
0.0
  0
LINE
  5
1D8
100
AcDbEntity
  8
0
370
    -3
  6
Continuous
100
AcDbLine
 10
-32.073417
 20
-39.172326
 30
0.0
 11
91.926583
 21
-39.172326
 31
0.0
  0
LINE
  5
1D9
100
AcDbEntity
  8
0
370
    -3
  6
Continuous
100
AcDbLine
 10
34.926583
 20
-144.048938
 30
0.0
 11
91.926583
 21
-144.048938
 31
0.0
  0
LINE
  5
1DA
100
AcDbEntity
  8
0
370
    -3
  6
Continuous
100
AcDbLine
 10
-32.073417
 20
-144.048938
 30
0.0
 11
91.926583
 21
-144.048938
 31
0.0
  0
LINE
  5
1DB
100
AcDbEntity
  8
0
370
    -3
  6
Continuous
100
AcDbLine
 10
-32.073417
 20
-99.548938
 30
0.0
 11
91.926583
 21
-99.548938
 31
0.0
  0
LINE
  5
1DC
100
AcDbEntity
  8
0
370
    -3
  6
Continuous
100
AcDbLine
 10
-32.073417
 20
-129.914724
 30
0.0
 11
91.926583
 21
-129.914724
 31
0.0
  0
LINE
  5
1DD
100
AcDbEntity
  8
0
370
    -3
  6
Continuous
100
AcDbLine
 10
-32.073417
 20
-134.864472
 30
0.0
 11
91.926583
 21
-134.864472
 31
0.0
  0
LINE
  5
1DE
100
AcDbEntity
  8
0
370
    -3
  6
Continuous
100
AcDbLine
 10
-32.073417
 20
-139.548938
 30
0.0
 11
91.926583
 21
-139.548938
 31
0.0
  0
LINE
  5
1DF
100
AcDbEntity
  8
0
370
    -3
  6
Continuous
100
AcDbLine
 10
-32.073417
 20
-140.548938
 30
0.0
 11
91.926583
 21
-140.548938
 31
0.0
  0
LINE
  5
1E0
100
AcDbEntity
  8
0
370
    -3
  6
Continuous
100
AcDbLine
 10
-32.073417
 20
-141.548938
 30
0.0
 11
91.926583
 21
-141.548938
 31
0.0
  0
LINE
  5
1E1
100
AcDbEntity
  8
0
370
    -3
  6
Continuous
100
AcDbLine
 10
-32.073417
 20
-27.548938
 30
0.0
 11
91.926583
 21
-27.548938
 31
0.0
  0
LINE
  5
1E2
100
AcDbEntity
  8
0
370
    -3
  6
Continuous
100
AcDbLine
 10
-32.073417
 20
-28.548938
 30
0.0
 11
91.926583
 21
-28.548938
 31
0.0
  0
LINE
  5
1E3
100
AcDbEntity
  8
0
370
    -3
  6
Continuous
100
AcDbLine
 10
-32.073417
 20
-29.548938
 30
0.0
 11
91.926583
 21
-29.548938
 31
0.0
  0
LINE
  5
1E4
100
AcDbEntity
  8
0
370
    -3
  6
Continuous
100
AcDbLine
 10
-32.073417
 20
-69.548938
 30
0.0
 11
91.926583
 21
-69.548938
 31
0.0
  0
LINE
  5
1E5
100
AcDbEntity
  8
0
370
    -3
  6
Continuous
100
AcDbLine
 10
20.219376
 20
-25.048938
 30
0.0
 11
91.926583
 21
-25.048938
 31
0.0
  0
LINE
  5
1E6
100
AcDbEntity
  8
0
370
    -3
  6
Continuous
100
AcDbLine
 10
-25.742564
 20
-25.048938
 30
0.0
 11
12.595729
 21
-25.048938
 31
0.0
  0
LINE
  5
1E7
100
AcDbEntity
  8
0
370
    -3
  6
CENTER
100
AcDbLine
 10
168.381371
 20
-84.543525
 30
0.0
 11
-147.985792
 21
-84.543525
 31
0.0
  0
LINE
  5
1E8
100
AcDbEntity
  8
0
370
    -3
  6
Continuous
100
AcDbLine
 10
-45.073425
 20
208.4933
 30
0.0
 11
-43.073425
 21
209.669086
 31
0.0
  0
LINE
  5
1E9
100
AcDbEntity
  8
0
370
    -3
  6
Continuous
100
AcDbLine
 10
-43.073425
 20
209.669086
 30
0.0
 11
-41.073425
 21
211.321727
 31
0.0
  0
LINE
  5
1EA
100
AcDbEntity
  8
0
370
    -3
  6
Continuous
100
AcDbLine
 10
-41.073425
 20
208.4933
 30
0.0
 11
-43.073425
 21
209.669086
 31
0.0
  0
LINE
  5
1EB
100
AcDbEntity
  8
0
370
    -3
  6
Continuous
100
AcDbLine
 10
-43.073425
 20
209.669086
 30
0.0
 11
-45.073425
 21
211.321727
 31
0.0
  0
ELLIPSE
  5
1EC
100
AcDbEntity
  8
0
370
    -3
  6
Continuous
100
AcDbEllipse
 10
-43.073425
 20
211.485676
 30
0.0
 11
4.6999999999999886
 21
0.0
 31
0.0
210
0.0
220
0.0
230
1.0
 40
0.766646
 41
1.9636730339489699
 42
1.1779196196409245
  0
LINE
  5
1ED
100
AcDbEntity
  8
0
370
    -3
  6
Continuous
100
AcDbLine
 10
91.926575
 20
320.114389
 30
0.0
 11
-32.073425
 21
320.114389
 31
0.0
  0
LINE
  5
1EE
100
AcDbEntity
  8
0
370
    -3
  6
Continuous
100
AcDbLine
 10
35.531455
 20
306.980176
 30
0.0
 11
91.926575
 21
306.980176
 31
0.0
  0
LINE
  5
1EF
100
AcDbEntity
  8
0
370
    -3
  6
Continuous
100
AcDbLine
 10
-32.073425
 20
311.929923
 30
0.0
 11
91.926575
 21
311.929923
 31
0.0
  0
LINE
  5
1F0
100
AcDbEntity
  8
0
370
    -3
  6
Continuous
100
AcDbLine
 10
-32.073425
 20
316.614389
 30
0.0
 11
91.926575
 21
316.614389
 31
0.0
  0
LINE
  5
1F1
100
AcDbEntity
  8
0
370
    -3
  6
Continuous
100
AcDbLine
 10
-32.073425
 20
317.614389
 30
0.0
 11
91.926575
 21
317.614389
 31
0.0
  0
LINE
  5
1F2
100
AcDbEntity
  8
0
370
    -3
  6
Continuous
100
AcDbLine
 10
-32.073425
 20
319.114389
 30
0.0
 11
91.926575
 21
319.114389
 31
0.0
  0
LINE
  5
1F3
100
AcDbEntity
  8
0
370
    -3
  6
Continuous
100
AcDbLine
 10
-32.073425
 20
318.614389
 30
0.0
 11
91.926575
 21
318.614389
 31
0.0
  0
LINE
  5
1F4
100
AcDbEntity
  8
0
370
    -3
  6
Continuous
100
AcDbLine
 10
91.926575
 20
203.114389
 30
0.0
 11
-32.073425
 21
203.114389
 31
0.0
  0
LINE
  5
1F5
100
AcDbEntity
  8
0
370
    -3
  6
Continuous
100
AcDbLine
 10
35.531455
 20
216.248602
 30
0.0
 11
91.926575
 21
216.248602
 31
0.0
  0
LINE
  5
1F6
100
AcDbEntity
  8
0
370
    -3
  6
Continuous
100
AcDbLine
 10
-32.073425
 20
211.298855
 30
0.0
 11
91.926575
 21
211.298855
 31
0.0
  0
LINE
  5
1F7
100
AcDbEntity
  8
0
370
    -3
  6
Continuous
100
AcDbLine
 10
-32.073425
 20
206.614389
 30
0.0
 11
91.926575
 21
206.614389
 31
0.0
  0
LINE
  5
1F8
100
AcDbEntity
  8
0
370
    -3
  6
Continuous
100
AcDbLine
 10
-32.073425
 20
205.614389
 30
0.0
 11
91.926575
 21
205.614389
 31
0.0
  0
LINE
  5
1F9
100
AcDbEntity
  8
0
370
    -3
  6
Continuous
100
AcDbLine
 10
-32.073425
 20
204.114389
 30
0.0
 11
91.926575
 21
204.114389
 31
0.0
  0
LINE
  5
1FA
100
AcDbEntity
  8
0
370
    -3
  6
Continuous
100
AcDbLine
 10
-32.073425
 20
204.614389
 30
0.0
 11
91.926575
 21
204.614389
 31
0.0
  0
LINE
  5
1FB
100
AcDbEntity
  8
0
370
    -3
  6
Continuous
100
AcDbLine
 10
38.824044
 20
242.864389
 30
0.0
 11
91.926575
 21
242.864389
 31
0.0
  0
LINE
  5
1FC
100
AcDbEntity
  8
0
370
    -3
  6
Continuous
100
AcDbLine
 10
38.824044
 20
293.764911
 30
0.0
 11
91.926575
 21
293.764911
 31
0.0
  0
LINE
  5
1FD
100
AcDbEntity
  8
0
370
    -3
  6
Continuous
100
AcDbLine
 10
38.824044
 20
296.97351
 30
0.0
 11
91.926575
 21
296.97351
 31
0.0
  0
LINE
  5
1FE
100
AcDbEntity
  8
0
370
    -3
  6
Continuous
100
AcDbLine
 10
38.770834
 20
299.310209
 30
0.0
 11
91.926575
 21
299.310209
 31
0.0
  0
LINE
  5
1FF
100
AcDbEntity
  8
0
370
    -3
  6
Continuous
100
AcDbLine
 10
38.824044
 20
280.364389
 30
0.0
 11
91.926575
 21
280.364389
 31
0.0
  0
LINE
  5
200
100
AcDbEntity
  8
0
370
    -3
  6
Continuous
100
AcDbLine
 10
38.824044
 20
288.202997
 30
0.0
 11
91.926575
 21
288.202997
 31
0.0
  0
LINE
  5
201
100
AcDbEntity
  8
0
370
    -3
  6
Continuous
100
AcDbLine
 10
38.824044
 20
286.078773
 30
0.0
 11
91.926575
 21
286.078773
 31
0.0
  0
LINE
  5
202
100
AcDbEntity
  8
0
370
    -3
  6
Continuous
100
AcDbLine
 10
38.824044
 20
291.535507
 30
0.0
 11
91.926575
 21
291.535507
 31
0.0
  0
LINE
  5
203
100
AcDbEntity
  8
0
370
    -3
  6
Continuous
100
AcDbLine
 10
91.926575
 20
203.114389
 30
0.0
 11
91.926575
 21
261.614389
 31
0.0
  0
LINE
  5
204
100
AcDbEntity
  8
0
370
    -3
  6
Continuous
100
AcDbLine
 10
91.926575
 20
320.114389
 30
0.0
 11
91.926575
 21
261.614389
 31
0.0
  0
LINE
  5
205
100
AcDbEntity
  8
0
370
    -3
  6
Continuous
100
AcDbLine
 10
38.824044
 20
223.918569
 30
0.0
 11
91.926575
 21
223.918569
 31
0.0
  0
LINE
  5
206
100
AcDbEntity
  8
0
370
    -3
  6
Continuous
100
AcDbLine
 10
38.824044
 20
226.255268
 30
0.0
 11
91.926575
 21
226.255268
 31
0.0
  0
LINE
  5
207
100
AcDbEntity
  8
0
370
    -3
  6
Continuous
100
AcDbLine
 10
38.824044
 20
229.463867
 30
0.0
 11
91.926575
 21
229.463867
 31
0.0
  0
LINE
  5
208
100
AcDbEntity
  8
0
370
    -3
  6
Continuous
100
AcDbLine
 10
38.824044
 20
231.693271
 30
0.0
 11
91.926575
 21
231.693271
 31
0.0
  0
LINE
  5
209
100
AcDbEntity
  8
0
370
    -3
  6
Continuous
100
AcDbLine
 10
38.824044
 20
235.025781
 30
0.0
 11
91.926575
 21
235.025781
 31
0.0
  0
LINE
  5
20A
100
AcDbEntity
  8
0
370
    -3
  6
Continuous
100
AcDbLine
 10
38.824044
 20
237.150005
 30
0.0
 11
91.926575
 21
237.150005
 31
0.0
  0
LINE
  5
20B
100
AcDbEntity
  8
0
370
    -3
  6
Continuous
100
AcDbLine
 10
-32.073425
 20
321.614389
 30
0.0
 11
-112.76745
 21
321.614389
 31
0.0
  0
LINE
  5
20C
100
AcDbEntity
  8
0
370
    -3
  6
Continuous
100
AcDbLine
 10
-32.073425
 20
308.414389
 30
0.0
 11
-32.073425
 21
321.614389
 31
0.0
  0
LINE
  5
20D
100
AcDbEntity
  8
0
370
    -3
  6
Continuous
100
AcDbLine
 10
-124.238978
 20
317.99743
 30
0.0
 11
-133.964724
 21
311.187389
 31
0.0
  0
ARC
  5
20E
100
AcDbEntity
  8
0
370
    -3
  6
Continuous
100
AcDbCircle
 10
-112.76745
 20
301.614389
 30
0.0
 40
20.0
100
AcDbArc
 50
90.0
 51
125.0
  0
LINE
  5
20F
100
AcDbEntity
  8
0
370
    -3
  6
Continuous
100
AcDbLine
 10
-135.073425
 20
261.614389
 30
0.0
 11
-135.073425
 21
309.057594
 31
0.0
  0
ARC
  5
210
100
AcDbEntity
  8
0
370
    -3
  6
Continuous
100
AcDbCircle
 10
-132.473425
 20
309.057594
 30
0.0
 40
2.6
100
AcDbArc
 50
125.0
 51
180.0
  0
LINE
  5
211
100
AcDbEntity
  8
0
370
    -3
  6
Continuous
100
AcDbLine
 10
-124.238978
 20
205.231348
 30
0.0
 11
-133.964724
 21
212.041389
 31
0.0
  0
ARC
  5
212
100
AcDbEntity
  8
0
370
    -3
  6
Continuous
100
AcDbCircle
 10
-132.473425
 20
214.171184
 30
0.0
 40
2.6
100
AcDbArc
 50
180.0
 51
235.0
  0
LINE
  5
213
100
AcDbEntity
  8
0
370
    -3
  6
Continuous
100
AcDbLine
 10
-135.073425
 20
261.614389
 30
0.0
 11
-135.073425
 21
214.171184
 31
0.0
  0
LINE
  5
214
100
AcDbEntity
  8
0
370
    -3
  6
Continuous
100
AcDbLine
 10
-32.073425
 20
201.614389
 30
0.0
 11
-112.76745
 21
201.614389
 31
0.0
  0
ARC
  5
215
100
AcDbEntity
  8
0
370
    -3
  6
Continuous
100
AcDbCircle
 10
-112.76745
 20
221.614389
 30
0.0
 40
20.0
100
AcDbArc
 50
235.0
 51
270.0
  0
LINE
  5
216
100
AcDbEntity
  8
0
370
    -3
  6
Continuous
100
AcDbLine
 10
-32.073425
 20
214.814389
 30
0.0
 11
-32.073425
 21
201.614389
 31
0.0
  0
LINE
  5
217
100
AcDbEntity
  8
0
370
    -3
  6
Continuous
100
AcDbLine
 10
-43.073425
 20
313.559692
 30
0.0
 11
-45.073425
 21
311.907051
 31
0.0
  0
LINE
  5
218
100
AcDbEntity
  8
0
370
    -3
  6
Continuous
100
AcDbLine
 10
-41.073425
 20
314.735478
 30
0.0
 11
-43.073425
 21
313.559692
 31
0.0
  0
LINE
  5
219
100
AcDbEntity
  8
0
370
    -3
  6
Continuous
100
AcDbLine
 10
-43.073425
 20
313.559692
 30
0.0
 11
-41.073425
 21
311.907051
 31
0.0
  0
LINE
  5
21A
100
AcDbEntity
  8
0
370
    -3
  6
Continuous
100
AcDbLine
 10
-45.073425
 20
314.735478
 30
0.0
 11
-43.073425
 21
313.559692
 31
0.0
  0
ELLIPSE
  5
21B
100
AcDbEntity
  8
0
370
    -3
  6
Continuous
100
AcDbEllipse
 10
-43.073425
 20
311.743102
 30
0.0
 11
4.6999999999999886
 21
0.0
 31
0.0
210
0.0
220
0.0
230
1.0
 40
0.766646
 41
5.1052656875386644
 42
4.3195122732306137
  0
LINE
  5
21C
100
AcDbEntity
  8
0
370
    -3
  6
Continuous
100
AcDbLine
 10
498.926166
 20
-168.453949
 30
0.0
 11
497.926377
 21
-167.433381
 31
0.0
  0
LINE
  5
21D
100
AcDbEntity
  8
0
370
    -3
  6
CENTER
100
AcDbLine
 10
478.926377
 20
-161.811693
 30
0.0
 11
478.926377
 21
-195.039524
 31
0.0
  0
LINE
  5
21E
100
AcDbEntity
  8
0
370
    -3
  6
CENTER
100
AcDbLine
 10
616.926377
 20
-161.811693
 30
0.0
 11
616.926377
 21
-195.039524
 31
0.0
  0
ARC
  5
21F
100
AcDbEntity
  8
0
370
    -3
  6
DASHED
100
AcDbCircle
 10
514.76717
 20
-115.023928
 30
0.0
 40
25.6
100
AcDbArc
 50
204.25172
 51
225.0
  0
ARC
  5
220
100
AcDbEntity
  8
0
370
    -3
  6
DASHED
100
AcDbCircle
 10
547.926377
 20
251.056475
 30
0.0
 40
400.6
100
AcDbArc
 50
270.0
 51
272.946011
  0
ARC
  5
221
100
AcDbEntity
  8
0
370
    -3
  6
DASHED
100
AcDbCircle
 10
547.926377
 20
251.056475
 30
0.0
 40
400.6
100
AcDbArc
 50
267.053989
 51
270.0
  0
ARC
  5
222
100
AcDbEntity
  8
0
370
    -3
  6
DASHED
100
AcDbCircle
 10
529.424197
 20
-108.467752
 30
0.0
 40
40.6
100
AcDbArc
 50
225.0
 51
267.053989
  0
LINE
  5
223
100
AcDbEntity
  8
0
370
    -3
  6
DASHED
100
AcDbLine
 10
500.715662
 20
-137.176287
 30
0.0
 11
496.665237
 21
-133.125862
 31
0.0
  0
LINE
  5
224
100
AcDbEntity
  8
0
370
    -3
  6
DASHED
100
AcDbLine
 10
595.137093
 20
-137.176287
 30
0.0
 11
599.187518
 21
-133.125862
 31
0.0
  0
ARC
  5
225
100
AcDbEntity
  8
0
370
    -3
  6
DASHED
100
AcDbCircle
 10
566.428558
 20
-108.467752
 30
0.0
 40
40.6
100
AcDbArc
 50
272.946011
 51
315.0
  0
ARC
  5
226
100
AcDbEntity
  8
0
370
    -3
  6
DASHED
100
AcDbCircle
 10
581.085585
 20
-115.023928
 30
0.0
 40
25.6
100
AcDbArc
 50
315.0
 51
335.74828
  0
LINE
  5
227
100
AcDbEntity
  8
0
370
    -3
  6
CENTER
100
AcDbLine
 10
547.926377
 20
31.524597
 30
0.0
 11
547.926377
 21
-198.719273
 31
0.0
  0
ARC
  5
228
100
AcDbEntity
  8
0
370
    -3
  6
Continuous
100
AcDbCircle
 10
598.022992
 20
-128.492113
 30
0.0
 40
6.6
100
AcDbArc
 50
345.979695
 51
351.402918
  0
ARC
  5
229
100
AcDbEntity
  8
0
370
    -3
  6
Continuous
100
AcDbCircle
 10
497.829763
 20
-128.492113
 30
0.0
 40
6.6
100
AcDbArc
 50
188.597082
 51
194.020305
  0
LINE
  5
22A
100
AcDbEntity
  8
0
370
    -3
  6
Continuous
100
AcDbLine
 10
491.426377
 20
-143.851921
 30
0.0
 11
491.426377
 21
2.587112
 31
0.0
  0
LINE
  5
22B
100
AcDbEntity
  8
0
370
    -3
  6
Continuous
100
AcDbLine
 10
497.926377
 20
-149.863953
 30
0.0
 11
497.926377
 21
22.573475
 31
0.0
  0
LINE
  5
22C
100
AcDbEntity
  8
0
370
    -3
  6
Continuous
100
AcDbLine
 10
502.926377
 20
23.564747
 30
0.0
 11
502.926377
 21
-134.743028
 31
0.0
  0
LINE
  5
22D
100
AcDbEntity
  8
0
370
    -3
  6
Continuous
100
AcDbLine
 10
596.926309
 20
-130.985743
 30
0.0
 11
596.926309
 21
18.97588
 31
0.0
  0
LINE
  5
22E
100
AcDbEntity
  8
0
370
    -3
  6
Continuous
100
AcDbLine
 10
502.926377
 20
-134.743028
 30
0.0
 11
502.926377
 21
-169.426525
 31
0.0
  0
ARC
  5
22F
100
AcDbEntity
  8
0
370
    -3
  6
Continuous
100
AcDbCircle
 10
494.926377
 20
-149.863953
 30
0.0
 40
3.0
100
AcDbArc
 50
0.0
 51
88.777847
  0
LINE
  5
230
100
AcDbEntity
  8
0
370
    -3
  6
Continuous
100
AcDbLine
 10
494.990364
 20
-146.864636
 30
0.0
 11
494.362391
 21
-146.851239
 31
0.0
  0
ARC
  5
231
100
AcDbEntity
  8
0
370
    -3
  6
Continuous
100
AcDbCircle
 10
494.426377
 20
-143.851921
 30
0.0
 40
3.0
100
AcDbArc
 50
180.0
 51
268.777847
  0
LINE
  5
232
100
AcDbEntity
  8
0
370
    -3
  6
Continuous
100
AcDbLine
 10
497.926377
 20
-167.433381
 30
0.0
 11
497.926377
 21
-149.863953
 31
0.0
  0
LINE
  5
233
100
AcDbEntity
  8
0
370
    -3
  6
Continuous
100
AcDbLine
 10
502.926377
 20
-168.536241
 30
0.0
 11
498.926166
 21
-168.453949
 31
0.0
  0
ARC
  5
234
100
AcDbEntity
  8
0
370
    -3
  6
Continuous
100
AcDbCircle
 10
501.926377
 20
-169.426525
 30
0.0
 40
1.0
100
AcDbArc
 50
270.0
 51
0.0
  0
LINE
  5
235
100
AcDbEntity
  8
0
370
    -3
  6
Continuous
100
AcDbLine
 10
463.93905
 20
-188.426525
 30
0.0
 11
631.913705
 21
-188.426525
 31
0.0
  0
LINE
  5
236
100
AcDbEntity
  8
0
370
    -3
  6
Continuous
100
AcDbLine
 10
596.926309
 20
-167.426525
 30
0.0
 11
596.926309
 21
-130.985743
 31
0.0
  0
LINE
  5
237
100
AcDbEntity
  8
0
370
    -3
  6
Continuous
100
AcDbLine
 10
604.426377
 20
-143.828525
 30
0.0
 11
604.426377
 21
-112.75885
 31
0.0
  0
LINE
  5
238
100
AcDbEntity
  8
0
370
    -3
  6
Continuous
100
AcDbLine
 10
467.320195
 20
-170.426525
 30
0.0
 11
501.926377
 21
-170.426525
 31
0.0
  0
LINE
  5
239
100
AcDbEntity
  8
0
370
    -3
  6
Continuous
100
AcDbLine
 10
601.426377
 20
-146.828525
 30
0.0
 11
599.926309
 21
-146.828525
 31
0.0
  0
ARC
  5
23A
100
AcDbEntity
  8
0
370
    -3
  6
Continuous
100
AcDbCircle
 10
601.426377
 20
-143.828525
 30
0.0
 40
3.0
100
AcDbArc
 50
270.0
 51
0.0
  0
ARC
  5
23B
100
AcDbEntity
  8
0
370
    -3
  6
Continuous
100
AcDbCircle
 10
599.926309
 20
-149.828525
 30
0.0
 40
3.0
100
AcDbArc
 50
90.0
 51
180.0
  0
LINE
  5
23C
100
AcDbEntity
  8
0
370
    -3
  6
Continuous
100
AcDbLine
 10
464.321223
 20
-173.347995
 30
0.0
 11
463.93905
 21
-188.426525
 31
0.0
  0
ARC
  5
23D
100
AcDbEntity
  8
0
370
    -3
  6
Continuous
100
AcDbCircle
 10
467.320195
 20
-173.426525
 30
0.0
 40
3.0
100
AcDbArc
 50
90.0
 51
178.5
  0
ARC
  5
23E
100
AcDbEntity
  8
0
370
    -3
  6
Continuous
100
AcDbCircle
 10
628.53256
 20
-173.426525
 30
0.0
 40
3.0
100
AcDbArc
 50
1.5
 51
90.0
  0
LINE
  5
23F
100
AcDbEntity
  8
0
370
    -3
  6
Continuous
100
AcDbLine
 10
631.531532
 20
-173.347995
 30
0.0
 11
631.913705
 21
-188.426525
 31
0.0
  0
ARC
  5
240
100
AcDbEntity
  8
0
370
    -3
  6
Continuous
100
AcDbCircle
 10
599.926309
 20
-167.426525
 30
0.0
 40
3.0
100
AcDbArc
 50
180.0
 51
270.0
  0
ARC
  5
241
100
AcDbEntity
  8
0
370
    -3
  6
Continuous
100
AcDbCircle
 10
888.526377
 20
-84.543525
 30
0.0
 40
400.6
100
AcDbArc
 50
181.686909
 51
184.662206
  0
ARC
  5
242
100
AcDbEntity
  8
0
370
    -3
  6
Continuous
100
AcDbCircle
 10
581.085585
 20
-115.023928
 30
0.0
 40
25.6
100
AcDbArc
 50
335.74828
 51
355.337794
  0
ARC
  5
243
100
AcDbEntity
  8
0
370
    -3
  6
DASHED
100
AcDbCircle
 10
207.326377
 20
-84.543525
 30
0.0
 40
400.6
100
AcDbArc
 50
358.314586
 51
0.0
  0
ARC
  5
244
100
AcDbEntity
  8
0
370
    -3
  6
Continuous
100
AcDbCircle
 10
514.76717
 20
-115.023928
 30
0.0
 40
25.6
100
AcDbArc
 50
184.662206
 51
204.25172
  0
ARC
  5
245
100
AcDbEntity
  8
0
370
    -3
  6
DASHED
100
AcDbCircle
 10
888.526377
 20
-84.543525
 30
0.0
 40
400.6
100
AcDbArc
 50
180.0
 51
181.686909
  0
ARC
  5
246
100
AcDbEntity
  8
0
370
    -3
  6
DASHED
100
AcDbCircle
 10
888.526377
 20
-84.543525
 30
0.0
 40
400.6
100
AcDbArc
 50
175.337794
 51
180.0
  0
ARC
  5
247
100
AcDbEntity
  8
0
370
    -3
  6
DASHED
100
AcDbCircle
 10
547.926377
 20
-420.143525
 30
0.0
 40
400.6
100
AcDbArc
 50
87.053989
 51
90.0
  0
ARC
  5
248
100
AcDbEntity
  8
0
370
    -3
  6
DASHED
100
AcDbCircle
 10
547.926377
 20
-420.143525
 30
0.0
 40
400.6
100
AcDbArc
 50
90.0
 51
92.946011
  0
ARC
  5
249
100
AcDbEntity
  8
0
370
    -3
  6
Continuous
100
AcDbCircle
 10
207.326377
 20
-84.543525
 30
0.0
 40
400.6
100
AcDbArc
 50
355.337794
 51
358.314586
  0
ARC
  5
24A
100
AcDbEntity
  8
0
370
    -3
  6
DASHED
100
AcDbCircle
 10
207.326377
 20
-84.543525
 30
0.0
 40
400.6
100
AcDbArc
 50
0.0
 51
4.662206
  0
ARC
  5
24B
100
AcDbEntity
  8
0
370
    -3
  6
DASHED
100
AcDbCircle
 10
566.428558
 20
-60.619299
 30
0.0
 40
40.6
100
AcDbArc
 50
45.0
 51
87.053989
  0
ARC
  5
24C
100
AcDbEntity
  8
0
370
    -3
  6
DASHED
100
AcDbCircle
 10
581.085585
 20
-54.063122
 30
0.0
 40
25.6
100
AcDbArc
 50
4.662206
 51
45.0
  0
LINE
  5
24D
100
AcDbEntity
  8
0
370
    -3
  6
DASHED
100
AcDbLine
 10
595.137093
 20
-31.910764
 30
0.0
 11
599.187518
 21
-35.961189
 31
0.0
  0
ARC
  5
24E
100
AcDbEntity
  8
0
370
    -3
  6
DASHED
100
AcDbCircle
 10
529.424197
 20
-60.619299
 30
0.0
 40
40.6
100
AcDbArc
 50
92.946011
 51
135.0
  0
ARC
  5
24F
100
AcDbEntity
  8
0
370
    -3
  6
DASHED
100
AcDbCircle
 10
514.76717
 20
-54.063122
 30
0.0
 40
25.6
100
AcDbArc
 50
135.0
 51
175.337794
  0
LINE
  5
250
100
AcDbEntity
  8
0
370
    -3
  6
DASHED
100
AcDbLine
 10
500.715662
 20
-31.910764
 30
0.0
 11
496.665237
 21
-35.961189
 31
0.0
  0
LINE
  5
251
100
AcDbEntity
  8
0
370
    -3
  6
CENTER
100
AcDbLine
 10
528.524245
 20
-84.543525
 30
0.0
 11
565.513481
 21
-84.543525
 31
0.0
  0
LINE
  5
252
100
AcDbEntity
  8
0
370
    -3
  6
CENTER
100
AcDbLine
 10
642.189716
 20
-48.426525
 30
0.0
 11
397.820986
 21
-48.426525
 31
0.0
  0
ARC
  5
253
100
AcDbEntity
  8
0
370
    -3
  6
Continuous
100
AcDbCircle
 10
407.726583
 20
-63.626525
 30
0.0
 40
0.8
100
AcDbArc
 50
180.0
 51
270.0
  0
LINE
  5
254
100
AcDbEntity
  8
0
370
    -3
  6
Continuous
100
AcDbLine
 10
463.926377
 20
-65.426525
 30
0.0
 11
462.326514
 21
-65.426525
 31
0.0
  0
LINE
  5
255
100
AcDbEntity
  8
0
370
    -3
  6
Continuous
100
AcDbLine
 10
461.526514
 20
-64.426525
 30
0.0
 11
407.726583
 21
-64.426525
 31
0.0
  0
ARC
  5
256
100
AcDbEntity
  8
0
370
    -3
  6
Continuous
100
AcDbCircle
 10
461.526514
 20
-64.826525
 30
0.0
 40
0.4
100
AcDbArc
 50
0.0
 51
90.0
  0
ARC
  5
257
100
AcDbEntity
  8
0
370
    -3
  6
Continuous
100
AcDbCircle
 10
462.326514
 20
-65.026525
 30
0.0
 40
0.4
100
AcDbArc
 50
180.0
 51
270.0
  0
LINE
  5
258
100
AcDbEntity
  8
0
370
    -3
  6
Continuous
100
AcDbLine
 10
406.926583
 20
-29.426525
 30
0.0
 11
406.926583
 21
-63.626525
 31
0.0
  0
ARC
  5
259
100
AcDbEntity
  8
0
370
    -3
  6
Continuous
100
AcDbCircle
 10
407.726583
 20
-33.226525
 30
0.0
 40
0.8
100
AcDbArc
 50
90.0
 51
180.0
  0
LINE
  5
25A
100
AcDbEntity
  8
0
370
    -3
  6
Continuous
100
AcDbLine
 10
461.926514
 20
-31.826525
 30
0.0
 11
461.926514
 21
-65.026525
 31
0.0
  0
LINE
  5
25B
100
AcDbEntity
  8
0
370
    -3
  6
Continuous
100
AcDbLine
 10
463.926377
 20
-31.426525
 30
0.0
 11
462.326514
 21
-31.426525
 31
0.0
  0
LINE
  5
25C
100
AcDbEntity
  8
0
370
    -3
  6
Continuous
100
AcDbLine
 10
461.526514
 20
-32.426525
 30
0.0
 11
407.726583
 21
-32.426525
 31
0.0
  0
LINE
  5
25D
100
AcDbEntity
  8
0
370
    -3
  6
Continuous
100
AcDbLine
 10
446.926583
 20
-29.426525
 30
0.0
 11
406.926583
 21
-29.426525
 31
0.0
  0
LINE
  5
25E
100
AcDbEntity
  8
0
370
    -3
  6
Continuous
100
AcDbLine
 10
446.926583
 20
-29.426525
 30
0.0
 11
446.926583
 21
-32.426525
 31
0.0
  0
ARC
  5
25F
100
AcDbEntity
  8
0
370
    -3
  6
Continuous
100
AcDbCircle
 10
461.526514
 20
-32.026525
 30
0.0
 40
0.4
100
AcDbArc
 50
270.0
 51
0.0
  0
ARC
  5
260
100
AcDbEntity
  8
0
370
    -3
  6
Continuous
100
AcDbCircle
 10
462.326514
 20
-31.826525
 30
0.0
 40
0.4
100
AcDbArc
 50
90.0
 51
180.0
  0
ARC
  5
261
100
AcDbEntity
  8
0
370
    -3
  6
Continuous
100
AcDbCircle
 10
609.426377
 20
-101.098442
 30
0.0
 40
5.0
100
AcDbArc
 50
100.680801
 51
180.0
  0
LINE
  5
262
100
AcDbEntity
  8
0
370
    -3
  6
Continuous
100
AcDbLine
 10
628.44739
 20
-92.422832
 30
0.0
 11
608.499691
 21
-96.185067
 31
0.0
  0
LINE
  5
263
100
AcDbEntity
  8
0
370
    -3
  6
Continuous
100
AcDbLine
 10
604.426377
 20
6.573475
 30
0.0
 11
604.426377
 21
-112.75885
 31
0.0
  0
ARC
  5
264
100
AcDbEntity
  8
0
370
    -3
  6
Continuous
100
AcDbCircle
 10
488.426377
 20
-99.440162
 30
0.0
 40
3.0
100
AcDbArc
 50
360.0
 51
80.0
  0
LINE
  5
265
100
AcDbEntity
  8
0
370
    -3
  6
Continuous
100
AcDbLine
 10
467.405433
 20
-92.687323
 30
0.0
 11
488.947322
 21
-96.485739
 31
0.0
  0
LINE
  5
266
100
AcDbEntity
  8
0
370
    -3
  6
Continuous
100
AcDbLine
 10
464.326377
 20
-19.426525
 30
0.0
 11
464.926377
 21
-19.426525
 31
0.0
  0
LINE
  5
267
100
AcDbEntity
  8
0
370
    -3
  6
Continuous
100
AcDbLine
 10
464.326377
 20
-77.426525
 30
0.0
 11
464.926377
 21
-77.426525
 31
0.0
  0
LINE
  5
268
100
AcDbEntity
  8
0
370
    -3
  6
Continuous
100
AcDbLine
 10
464.926377
 20
-89.732899
 30
0.0
 11
464.926377
 21
-77.426525
 31
0.0
  0
LINE
  5
269
100
AcDbEntity
  8
0
370
    -3
  6
Continuous
100
AcDbLine
 10
464.926377
 20
-7.120151
 30
0.0
 11
464.926377
 21
-77.426525
 31
0.0
  0
ARC
  5
26A
100
AcDbEntity
  8
0
370
    -3
  6
Continuous
100
AcDbCircle
 10
467.926377
 20
-89.732899
 30
0.0
 40
3.0
100
AcDbArc
 50
180.0
 51
260.0
  0
ARC
  5
26B
100
AcDbEntity
  8
0
370
    -3
  6
Continuous
100
AcDbCircle
 10
467.926377
 20
-7.120151
 30
0.0
 40
3.0
100
AcDbArc
 50
100.0
 51
180.0
  0
LINE
  5
26C
100
AcDbEntity
  8
0
370
    -3
  6
Continuous
100
AcDbLine
 10
494.426377
 20
9.573475
 30
0.0
 11
494.926377
 21
9.573475
 31
0.0
  0
LINE
  5
26D
100
AcDbEntity
  8
0
370
    -3
  6
Continuous
100
AcDbLine
 10
463.926377
 20
-77.026525
 30
0.0
 11
463.926377
 21
-48.426525
 31
0.0
  0
LINE
  5
26E
100
AcDbEntity
  8
0
370
    -3
  6
Continuous
100
AcDbLine
 10
463.926377
 20
-19.826525
 30
0.0
 11
463.926377
 21
-48.426525
 31
0.0
  0
LINE
  5
26F
100
AcDbEntity
  8
0
370
    -3
  6
Continuous
100
AcDbLine
 10
463.926377
 20
-77.026525
 30
0.0
 11
464.326377
 21
-77.426525
 31
0.0
  0
LINE
  5
270
100
AcDbEntity
  8
0
370
    -3
  6
Continuous
100
AcDbLine
 10
463.926377
 20
-19.826525
 30
0.0
 11
464.326377
 21
-19.426525
 31
0.0
  0
ARC
  5
271
100
AcDbEntity
  8
0
370
    -3
  6
Continuous
100
AcDbCircle
 10
494.426377
 20
6.573475
 30
0.0
 40
3.0
100
AcDbArc
 50
90.0
 51
180.0
  0
ARC
  5
272
100
AcDbEntity
  8
0
370
    -3
  6
Continuous
100
AcDbCircle
 10
494.926377
 20
12.573475
 30
0.0
 40
3.0
100
AcDbArc
 50
270.0
 51
0.0
  0
LINE
  5
273
100
AcDbEntity
  8
0
370
    -3
  6
Continuous
100
AcDbLine
 10
497.926377
 20
22.573475
 30
0.0
 11
498.926377
 21
23.573475
 31
0.0
  0
LINE
  5
274
100
AcDbEntity
  8
0
370
    -3
  6
Continuous
100
AcDbLine
 10
498.926377
 20
23.573475
 30
0.0
 11
502.926377
 21
23.573475
 31
0.0
  0
ARC
  5
275
100
AcDbEntity
  8
0
370
    -3
  6
Continuous
100
AcDbCircle
 10
488.426377
 20
2.587112
 30
0.0
 40
3.0
100
AcDbArc
 50
280.0
 51
0.0
  0
LINE
  5
276
100
AcDbEntity
  8
0
370
    -3
  6
Continuous
100
AcDbLine
 10
467.405433
 20
-4.165728
 30
0.0
 11
488.947322
 21
-0.367312
 31
0.0
  0
ARC
  5
277
100
AcDbEntity
  8
0
370
    -3
  6
Continuous
100
AcDbCircle
 10
488.426377
 20
2.587112
 30
0.0
 40
3.0
100
AcDbArc
 50
280.0
 51
0.0
  0
LINE
  5
278
100
AcDbEntity
  8
0
370
    -3
  6
Continuous
100
AcDbLine
 10
491.426377
 20
6.573475
 30
0.0
 11
491.426377
 21
2.587112
 31
0.0
  0
LINE
  5
279
100
AcDbEntity
  8
0
370
    -3
  6
Continuous
100
AcDbLine
 10
631.526446
 20
-19.426525
 30
0.0
 11
631.926446
 21
-19.826525
 31
0.0
  0
LINE
  5
27A
100
AcDbEntity
  8
0
370
    -3
  6
Continuous
100
AcDbLine
 10
630.926446
 20
-48.426525
 30
0.0
 11
630.926446
 21
-7.384642
 31
0.0
  0
LINE
  5
27B
100
AcDbEntity
  8
0
370
    -3
  6
Continuous
100
AcDbLine
 10
631.526446
 20
-77.426525
 30
0.0
 11
631.926446
 21
-77.026525
 31
0.0
  0
LINE
  5
27C
100
AcDbEntity
  8
0
370
    -3
  6
Continuous
100
AcDbLine
 10
630.926446
 20
-89.468409
 30
0.0
 11
630.926446
 21
-48.426525
 31
0.0
  0
LINE
  5
27D
100
AcDbEntity
  8
0
370
    -3
  6
Continuous
100
AcDbLine
 10
628.44739
 20
-4.430218
 30
0.0
 11
608.499691
 21
-0.667984
 31
0.0
  0
ARC
  5
27E
100
AcDbEntity
  8
0
370
    -3
  6
Continuous
100
AcDbCircle
 10
627.926446
 20
-7.384642
 30
0.0
 40
3.0
100
AcDbArc
 50
360.0
 51
80.0
  0
LINE
  5
27F
100
AcDbEntity
  8
0
370
    -3
  6
Continuous
100
AcDbLine
 10
630.926446
 20
-19.426525
 30
0.0
 11
631.526446
 21
-19.426525
 31
0.0
  0
LINE
  5
280
100
AcDbEntity
  8
0
370
    -3
  6
Continuous
100
AcDbLine
 10
631.926446
 20
-77.026525
 30
0.0
 11
631.926446
 21
-19.826525
 31
0.0
  0
ARC
  5
281
100
AcDbEntity
  8
0
370
    -3
  6
Continuous
100
AcDbCircle
 10
627.926446
 20
-89.468409
 30
0.0
 40
3.0
100
AcDbArc
 50
280.0
 51
360.0
  0
LINE
  5
282
100
AcDbEntity
  8
0
370
    -3
  6
Continuous
100
AcDbLine
 10
630.926446
 20
-77.426525
 30
0.0
 11
631.526446
 21
-77.426525
 31
0.0
  0
ARC
  5
283
100
AcDbEntity
  8
0
370
    -3
  6
Continuous
100
AcDbCircle
 10
599.926309
 20
12.573475
 30
0.0
 40
3.0
100
AcDbArc
 50
180.0
 51
270.0
  0
LINE
  5
284
100
AcDbEntity
  8
0
370
    -3
  6
Continuous
100
AcDbLine
 10
601.456348
 20
9.573475
 30
0.0
 11
599.926309
 21
9.573475
 31
0.0
  0
LINE
  5
285
100
AcDbEntity
  8
0
370
    -3
  6
Continuous
100
AcDbLine
 10
502.926377
 20
23.564747
 30
0.0
 11
593.978666
 21
21.975424
 31
0.0
  0
ARC
  5
286
100
AcDbEntity
  8
0
370
    -3
  6
Continuous
100
AcDbCircle
 10
593.926309
 20
18.97588
 30
0.0
 40
3.0
100
AcDbArc
 50
0.0
 51
89.0
  0
ARC
  5
287
100
AcDbEntity
  8
0
370
    -3
  6
Continuous
100
AcDbCircle
 10
609.426377
 20
4.265311
 30
0.0
 40
5.0
100
AcDbArc
 50
184.961108
 51
260.0
  0
ARC
  5
288
100
AcDbEntity
  8
0
370
    -3
  6
Continuous
100
AcDbCircle
 10
601.456348
 20
6.573475
 30
0.0
 40
3.0
100
AcDbArc
 50
4.961108
 51
90.0
  0
ARC
  5
289
100
AcDbEntity
  8
0
370
    -3
  6
Continuous
100
AcDbCircle
 10
-326.073212
 20
-420.143525
 30
0.0
 40
400.6
100
AcDbArc
 50
90.0
 51
92.946011
  0
ARC
  5
28A
100
AcDbEntity
  8
0
370
    -3
  6
Continuous
100
AcDbCircle
 10
-326.073212
 20
-420.143525
 30
0.0
 40
400.6
100
AcDbArc
 50
87.053989
 51
90.0
  0
ARC
  5
28B
100
AcDbEntity
  8
0
370
    -3
  6
Continuous
100
AcDbCircle
 10
-327.191687
 20
-94.480779
 30
0.0
 40
1.5
100
AcDbArc
 50
83.578178
 51
150.0
  0
ARC
  5
28C
100
AcDbEntity
  8
0
370
    -3
  6
Continuous
100
AcDbCircle
 10
-326.073212
 20
-84.543525
 30
0.0
 40
8.5
100
AcDbArc
 50
263.578178
 51
276.421822
  0
ARC
  5
28D
100
AcDbEntity
  8
0
370
    -3
  6
Continuous
100
AcDbCircle
 10
-324.954738
 20
-94.480779
 30
0.0
 40
1.5
100
AcDbArc
 50
30.0
 51
96.421822
  0
LINE
  5
28E
100
AcDbEntity
  8
0
370
    -3
  6
Continuous
100
AcDbLine
 10
-323.6557
 20
-93.730779
 30
0.0
 11
-322.053617
 21
-96.505668
 31
0.0
  0
ARC
  5
28F
100
AcDbEntity
  8
0
370
    -3
  6
Continuous
100
AcDbCircle
 10
-323.352656
 20
-97.255668
 30
0.0
 40
1.5
100
AcDbArc
 50
282.079787
 51
30.0
  0
ARC
  5
290
100
AcDbEntity
  8
0
370
    -3
  6
Continuous
100
AcDbCircle
 10
-326.073212
 20
-84.543525
 30
0.0
 40
14.5
100
AcDbArc
 50
257.920213
 51
282.079787
  0
ARC
  5
291
100
AcDbEntity
  8
0
370
    -3
  6
Continuous
100
AcDbCircle
 10
-333.679906
 20
-105.718705
 30
0.0
 40
1.5
100
AcDbArc
 50
150.0
 51
250.240348
  0
LINE
  5
292
100
AcDbEntity
  8
0
370
    -3
  6
Continuous
100
AcDbLine
 10
-334.978944
 20
-104.968705
 30
0.0
 11
-333.450816
 21
-102.32191
 31
0.0
  0
ARC
  5
293
100
AcDbEntity
  8
0
370
    -3
  6
Continuous
100
AcDbCircle
 10
-332.151778
 20
-103.07191
 30
0.0
 40
1.5
100
AcDbArc
 50
71.837004
 51
150.0
  0
ARC
  5
294
100
AcDbEntity
  8
0
370
    -3
  6
Continuous
100
AcDbCircle
 10
-326.073212
 20
-84.543525
 30
0.0
 40
18.0
100
AcDbArc
 50
251.837004
 51
288.162996
  0
ARC
  5
295
100
AcDbEntity
  8
0
370
    -3
  6
Continuous
100
AcDbCircle
 10
-319.994647
 20
-103.07191
 30
0.0
 40
1.5
100
AcDbArc
 50
30.0
 51
108.162996
  0
LINE
  5
296
100
AcDbEntity
  8
0
370
    -3
  6
Continuous
100
AcDbLine
 10
-318.695609
 20
-102.32191
 30
0.0
 11
-317.167481
 21
-104.968705
 31
0.0
  0
ARC
  5
297
100
AcDbEntity
  8
0
370
    -3
  6
Continuous
100
AcDbCircle
 10
-318.466519
 20
-105.718705
 30
0.0
 40
1.5
100
AcDbArc
 50
289.759652
 51
30.0
  0
ARC
  5
298
100
AcDbEntity
  8
0
370
    -3
  6
Continuous
100
AcDbCircle
 10
-326.073212
 20
-84.543525
 30
0.0
 40
24.0
100
AcDbArc
 50
250.240348
 51
289.759652
  0
ARC
  5
299
100
AcDbEntity
  8
0
370
    -3
  6
Continuous
100
AcDbCircle
 10
-335.721972
 20
-93.255668
 30
0.0
 40
1.5
100
AcDbArc
 50
222.079787
 51
330.0
  0
LINE
  5
29A
100
AcDbEntity
  8
0
370
    -3
  6
Continuous
100
AcDbLine
 10
-334.422934
 20
-94.005668
 30
0.0
 11
-332.820852
 21
-91.230779
 31
0.0
  0
ARC
  5
29B
100
AcDbEntity
  8
0
370
    -3
  6
Continuous
100
AcDbCircle
 10
-334.11989
 20
-90.480779
 30
0.0
 40
1.5
100
AcDbArc
 50
330.0
 51
36.421822
  0
ARC
  5
29C
100
AcDbEntity
  8
0
370
    -3
  6
Continuous
100
AcDbCircle
 10
-326.073212
 20
-84.543525
 30
0.0
 40
8.5
100
AcDbArc
 50
203.578178
 51
216.421822
  0
ARC
  5
29D
100
AcDbEntity
  8
0
370
    -3
  6
Continuous
100
AcDbCircle
 10
-335.238364
 20
-88.543525
 30
0.0
 40
1.5
100
AcDbArc
 50
23.578178
 51
90.0
  0
LINE
  5
29E
100
AcDbEntity
  8
0
370
    -3
  6
Continuous
100
AcDbLine
 10
-335.238364
 20
-87.043525
 30
0.0
 11
-338.442529
 21
-87.043525
 31
0.0
  0
ARC
  5
29F
100
AcDbEntity
  8
0
370
    -3
  6
Continuous
100
AcDbCircle
 10
-338.442529
 20
-88.543525
 30
0.0
 40
1.5
100
AcDbArc
 50
90.0
 51
197.920213
  0
ARC
  5
2A0
100
AcDbEntity
  8
0
370
    -3
  6
Continuous
100
AcDbCircle
 10
-326.073212
 20
-84.543525
 30
0.0
 40
14.5
100
AcDbArc
 50
197.920213
 51
222.079787
  0
ARC
  5
2A1
100
AcDbEntity
  8
0
370
    -3
  6
Continuous
100
AcDbCircle
 10
-340.608109
 20
-101.718705
 30
0.0
 40
1.5
100
AcDbArc
 50
229.759652
 51
330.0
  0
LINE
  5
2A2
100
AcDbEntity
  8
0
370
    -3
  6
Continuous
100
AcDbLine
 10
-339.309071
 20
-102.468705
 30
0.0
 11
-337.780943
 21
-99.82191
 31
0.0
  0
ARC
  5
2A3
100
AcDbEntity
  8
0
370
    -3
  6
Continuous
100
AcDbCircle
 10
-339.079981
 20
-99.07191
 30
0.0
 40
1.5
100
AcDbArc
 50
330.0
 51
48.162996
  0
ARC
  5
2A4
100
AcDbEntity
  8
0
370
    -3
  6
Continuous
100
AcDbCircle
 10
-326.073212
 20
-84.543525
 30
0.0
 40
18.0
100
AcDbArc
 50
191.837004
 51
228.162996
  0
ARC
  5
2A5
100
AcDbEntity
  8
0
370
    -3
  6
Continuous
100
AcDbCircle
 10
-345.158547
 20
-88.543525
 30
0.0
 40
1.5
100
AcDbArc
 50
11.837004
 51
90.0
  0
LINE
  5
2A6
100
AcDbEntity
  8
0
370
    -3
  6
Continuous
100
AcDbLine
 10
-345.158547
 20
-87.043525
 30
0.0
 11
-348.214802
 21
-87.043525
 31
0.0
  0
ARC
  5
2A7
100
AcDbEntity
  8
0
370
    -3
  6
Continuous
100
AcDbCircle
 10
-348.214802
 20
-88.543525
 30
0.0
 40
1.5
100
AcDbArc
 50
90.0
 51
190.240348
  0
ARC
  5
2A8
100
AcDbEntity
  8
0
370
    -3
  6
Continuous
100
AcDbCircle
 10
-326.073212
 20
-84.543525
 30
0.0
 40
24.0
100
AcDbArc
 50
190.240348
 51
229.759652
  0
ARC
  5
2A9
100
AcDbEntity
  8
0
370
    -3
  6
Continuous
100
AcDbCircle
 10
-335.721972
 20
-75.831383
 30
0.0
 40
1.5
100
AcDbArc
 50
30.0
 51
137.920213
  0
LINE
  5
2AA
100
AcDbEntity
  8
0
370
    -3
  6
Continuous
100
AcDbLine
 10
-334.422934
 20
-75.081383
 30
0.0
 11
-332.820852
 21
-77.856271
 31
0.0
  0
ARC
  5
2AB
100
AcDbEntity
  8
0
370
    -3
  6
Continuous
100
AcDbCircle
 10
-334.11989
 20
-78.606271
 30
0.0
 40
1.5
100
AcDbArc
 50
323.578178
 51
30.0
  0
ARC
  5
2AC
100
AcDbEntity
  8
0
370
    -3
  6
Continuous
100
AcDbCircle
 10
-326.073212
 20
-84.543525
 30
0.0
 40
8.5
100
AcDbArc
 50
143.578178
 51
156.421822
  0
ARC
  5
2AD
100
AcDbEntity
  8
0
370
    -3
  6
Continuous
100
AcDbCircle
 10
-335.238364
 20
-80.543525
 30
0.0
 40
1.5
100
AcDbArc
 50
270.0
 51
336.421822
  0
LINE
  5
2AE
100
AcDbEntity
  8
0
370
    -3
  6
Continuous
100
AcDbLine
 10
-335.238364
 20
-82.043525
 30
0.0
 11
-338.442529
 21
-82.043525
 31
0.0
  0
ARC
  5
2AF
100
AcDbEntity
  8
0
370
    -3
  6
Continuous
100
AcDbCircle
 10
-338.442529
 20
-80.543525
 30
0.0
 40
1.5
100
AcDbArc
 50
162.079787
 51
270.0
  0
ARC
  5
2B0
100
AcDbEntity
  8
0
370
    -3
  6
Continuous
100
AcDbCircle
 10
-326.073212
 20
-84.543525
 30
0.0
 40
14.5
100
AcDbArc
 50
137.920213
 51
162.079787
  0
ARC
  5
2B1
100
AcDbEntity
  8
0
370
    -3
  6
Continuous
100
AcDbCircle
 10
-340.608109
 20
-67.368346
 30
0.0
 40
1.5
100
AcDbArc
 50
30.0
 51
130.240348
  0
LINE
  5
2B2
100
AcDbEntity
  8
0
370
    -3
  6
Continuous
100
AcDbLine
 10
-339.309071
 20
-66.618346
 30
0.0
 11
-337.780943
 21
-69.265141
 31
0.0
  0
ARC
  5
2B3
100
AcDbEntity
  8
0
370
    -3
  6
Continuous
100
AcDbCircle
 10
-339.079981
 20
-70.015141
 30
0.0
 40
1.5
100
AcDbArc
 50
311.837004
 51
30.0
  0
ARC
  5
2B4
100
AcDbEntity
  8
0
370
    -3
  6
Continuous
100
AcDbCircle
 10
-326.073212
 20
-84.543525
 30
0.0
 40
18.0
100
AcDbArc
 50
131.837004
 51
168.162996
  0
ARC
  5
2B5
100
AcDbEntity
  8
0
370
    -3
  6
Continuous
100
AcDbCircle
 10
-345.158547
 20
-80.543525
 30
0.0
 40
1.5
100
AcDbArc
 50
270.0
 51
348.162996
  0
LINE
  5
2B6
100
AcDbEntity
  8
0
370
    -3
  6
Continuous
100
AcDbLine
 10
-345.158547
 20
-82.043525
 30
0.0
 11
-348.214802
 21
-82.043525
 31
0.0
  0
ARC
  5
2B7
100
AcDbEntity
  8
0
370
    -3
  6
Continuous
100
AcDbCircle
 10
-348.214802
 20
-80.543525
 30
0.0
 40
1.5
100
AcDbArc
 50
169.759652
 51
270.0
  0
ARC
  5
2B8
100
AcDbEntity
  8
0
370
    -3
  6
Continuous
100
AcDbCircle
 10
-326.073212
 20
-84.543525
 30
0.0
 40
24.0
100
AcDbArc
 50
130.240348
 51
169.759652
  0
ARC
  5
2B9
100
AcDbEntity
  8
0
370
    -3
  6
Continuous
100
AcDbCircle
 10
-313.703896
 20
-88.543525
 30
0.0
 40
1.5
100
AcDbArc
 50
342.079787
 51
90.0
  0
LINE
  5
2BA
100
AcDbEntity
  8
0
370
    -3
  6
Continuous
100
AcDbLine
 10
-313.703896
 20
-87.043525
 30
0.0
 11
-316.908061
 21
-87.043525
 31
0.0
  0
ARC
  5
2BB
100
AcDbEntity
  8
0
370
    -3
  6
Continuous
100
AcDbCircle
 10
-316.908061
 20
-88.543525
 30
0.0
 40
1.5
100
AcDbArc
 50
90.0
 51
156.421822
  0
ARC
  5
2BC
100
AcDbEntity
  8
0
370
    -3
  6
Continuous
100
AcDbCircle
 10
-326.073212
 20
-84.543525
 30
0.0
 40
8.5
100
AcDbArc
 50
323.578178
 51
336.421822
  0
ARC
  5
2BD
100
AcDbEntity
  8
0
370
    -3
  6
Continuous
100
AcDbCircle
 10
-318.026535
 20
-90.480779
 30
0.0
 40
1.5
100
AcDbArc
 50
143.578178
 51
210.0
  0
LINE
  5
2BE
100
AcDbEntity
  8
0
370
    -3
  6
Continuous
100
AcDbLine
 10
-319.325573
 20
-91.230779
 30
0.0
 11
-317.72349
 21
-94.005668
 31
0.0
  0
ARC
  5
2BF
100
AcDbEntity
  8
0
370
    -3
  6
Continuous
100
AcDbCircle
 10
-316.424452
 20
-93.255668
 30
0.0
 40
1.5
100
AcDbArc
 50
210.0
 51
317.920213
  0
ARC
  5
2C0
100
AcDbEntity
  8
0
370
    -3
  6
Continuous
100
AcDbCircle
 10
-326.073212
 20
-84.543525
 30
0.0
 40
14.5
100
AcDbArc
 50
317.920213
 51
342.079787
  0
ARC
  5
2C1
100
AcDbEntity
  8
0
370
    -3
  6
Continuous
100
AcDbCircle
 10
-303.931623
 20
-88.543525
 30
0.0
 40
1.5
100
AcDbArc
 50
349.759652
 51
90.0
  0
LINE
  5
2C2
100
AcDbEntity
  8
0
370
    -3
  6
Continuous
100
AcDbLine
 10
-303.931623
 20
-87.043525
 30
0.0
 11
-306.987878
 21
-87.043525
 31
0.0
  0
ARC
  5
2C3
100
AcDbEntity
  8
0
370
    -3
  6
Continuous
100
AcDbCircle
 10
-306.987878
 20
-88.543525
 30
0.0
 40
1.5
100
AcDbArc
 50
90.0
 51
168.162996
  0
ARC
  5
2C4
100
AcDbEntity
  8
0
370
    -3
  6
Continuous
100
AcDbCircle
 10
-326.073212
 20
-84.543525
 30
0.0
 40
18.0
100
AcDbArc
 50
311.837004
 51
348.162996
  0
ARC
  5
2C5
100
AcDbEntity
  8
0
370
    -3
  6
Continuous
100
AcDbCircle
 10
-313.066443
 20
-99.07191
 30
0.0
 40
1.5
100
AcDbArc
 50
131.837004
 51
210.0
  0
LINE
  5
2C6
100
AcDbEntity
  8
0
370
    -3
  6
Continuous
100
AcDbLine
 10
-314.365482
 20
-99.82191
 30
0.0
 11
-312.837354
 21
-102.468705
 31
0.0
  0
ARC
  5
2C7
100
AcDbEntity
  8
0
370
    -3
  6
Continuous
100
AcDbCircle
 10
-311.538316
 20
-101.718705
 30
0.0
 40
1.5
100
AcDbArc
 50
210.0
 51
310.240348
  0
ARC
  5
2C8
100
AcDbEntity
  8
0
370
    -3
  6
Continuous
100
AcDbCircle
 10
-326.073212
 20
-84.543525
 30
0.0
 40
24.0
100
AcDbArc
 50
310.240348
 51
349.759652
  0
LINE
  5
2C9
100
AcDbEntity
  8
0
370
    -3
  6
Continuous
100
AcDbLine
 10
-286.640671
 20
-129.398112
 30
0.0
 11
-282.590246
 21
-125.347687
 31
0.0
  0
ARC
  5
2CA
100
AcDbEntity
  8
0
370
    -3
  6
Continuous
100
AcDbCircle
 10
-292.914005
 20
-115.023928
 30
0.0
 40
14.6
100
AcDbArc
 50
315.0
 51
355.337794
  0
ARC
  5
2CB
100
AcDbEntity
  8
0
370
    -3
  6
Continuous
100
AcDbCircle
 10
-666.673212
 20
-84.543525
 30
0.0
 40
389.6
100
AcDbArc
 50
355.337794
 51
0.0
  0
ARC
  5
2CC
100
AcDbEntity
  8
0
370
    -3
  6
Continuous
100
AcDbCircle
 10
-326.073212
 20
-420.143525
 30
0.0
 40
389.6
100
AcDbArc
 50
87.053989
 51
90.0
  0
ARC
  5
2CD
100
AcDbEntity
  8
0
370
    -3
  6
Continuous
100
AcDbCircle
 10
-307.571032
 20
-60.619299
 30
0.0
 40
29.6
100
AcDbArc
 50
45.0
 51
87.053989
  0
LINE
  5
2CE
100
AcDbEntity
  8
0
370
    -3
  6
Continuous
100
AcDbLine
 10
-286.640671
 20
-39.688938
 30
0.0
 11
-282.590246
 21
-43.739363
 31
0.0
  0
ARC
  5
2CF
100
AcDbEntity
  8
0
370
    -3
  6
Continuous
100
AcDbCircle
 10
-292.914005
 20
-54.063122
 30
0.0
 40
14.6
100
AcDbArc
 50
4.662206
 51
45.0
  0
ARC
  5
2D0
100
AcDbEntity
  8
0
370
    -3
  6
Continuous
100
AcDbCircle
 10
-666.673212
 20
-84.543525
 30
0.0
 40
389.6
100
AcDbArc
 50
0.0
 51
4.662206
  0
ARC
  5
2D1
100
AcDbEntity
  8
0
370
    -3
  6
Continuous
100
AcDbCircle
 10
-326.073212
 20
-420.143525
 30
0.0
 40
389.6
100
AcDbArc
 50
90.0
 51
92.946011
  0
LINE
  5
2D2
100
AcDbEntity
  8
0
370
    -3
  6
Continuous
100
AcDbLine
 10
-365.505754
 20
-39.688938
 30
0.0
 11
-369.556179
 21
-43.739363
 31
0.0
  0
ARC
  5
2D3
100
AcDbEntity
  8
0
370
    -3
  6
Continuous
100
AcDbCircle
 10
-344.575393
 20
-60.619299
 30
0.0
 40
29.6
100
AcDbArc
 50
92.946011
 51
135.0
  0
ARC
  5
2D4
100
AcDbEntity
  8
0
370
    -3
  6
Continuous
100
AcDbCircle
 10
-359.23242
 20
-54.063122
 30
0.0
 40
14.6
100
AcDbArc
 50
135.0
 51
175.337794
  0
ARC
  5
2D5
100
AcDbEntity
  8
0
370
    -3
  6
Continuous
100
AcDbCircle
 10
-294.324197
 20
-88.543525
 30
0.0
 40
1.5
100
AcDbArc
 50
352.819244
 51
90.0
  0
LINE
  5
2D6
100
AcDbEntity
  8
0
370
    -3
  6
Continuous
100
AcDbLine
 10
-294.324197
 20
-87.043525
 30
0.0
 11
-297.350399
 21
-87.043525
 31
0.0
  0
ARC
  5
2D7
100
AcDbEntity
  8
0
370
    -3
  6
Continuous
100
AcDbCircle
 10
-287.781568
 20
-88.543525
 30
0.0
 40
1.5
100
AcDbArc
 50
90.0
 51
174.03643
  0
LINE
  5
2D8
100
AcDbEntity
  8
0
370
    -3
  6
Continuous
100
AcDbLine
 10
-284.766433
 20
-87.043525
 30
0.0
 11
-287.781568
 21
-87.043525
 31
0.0
  0
ARC
  5
2D9
100
AcDbEntity
  8
0
370
    -3
  6
Continuous
100
AcDbCircle
 10
-284.766433
 20
-88.543525
 30
0.0
 40
1.5
100
AcDbArc
 50
354.468928
 51
90.0
  0
LINE
  5
2DA
100
AcDbEntity
  8
0
370
    -3
  6
Continuous
100
AcDbLine
 10
-348.891665
 20
-50.020805
 30
0.0
 11
-347.384098
 21
-52.631989
 31
0.0
  0
ARC
  5
2DB
100
AcDbEntity
  8
0
370
    -3
  6
Continuous
100
AcDbCircle
 10
-350.190704
 20
-50.770805
 30
0.0
 40
1.5
100
AcDbArc
 50
30.0
 51
125.531072
  0
ARC
  5
2DC
100
AcDbEntity
  8
0
370
    -3
  6
Continuous
100
AcDbCircle
 10
-341.754933
 20
-49.381989
 30
0.0
 40
1.5
100
AcDbArc
 50
210.0
 51
294.03643
  0
LINE
  5
2DD
100
AcDbEntity
  8
0
370
    -3
  6
Continuous
100
AcDbLine
 10
-344.561538
 20
-47.520805
 30
0.0
 11
-343.053971
 21
-50.131989
 31
0.0
  0
ARC
  5
2DE
100
AcDbEntity
  8
0
370
    -3
  6
Continuous
100
AcDbCircle
 10
-343.2625
 20
-46.770805
 30
0.0
 40
1.5
100
AcDbArc
 50
114.468928
 51
210.0
  0
ARC
  5
2DF
100
AcDbEntity
  8
0
370
    -3
  6
Continuous
100
AcDbCircle
 10
-326.073212
 20
-84.543525
 30
0.0
 40
43.0
100
AcDbArc
 50
65.531072
 51
114.468928
  0
ARC
  5
2E0
100
AcDbEntity
  8
0
370
    -3
  6
Continuous
100
AcDbCircle
 10
-326.073212
 20
-84.543525
 30
0.0
 40
37.0
100
AcDbArc
 50
65.96357
 51
114.03643
  0
ARC
  5
2E1
100
AcDbEntity
  8
0
370
    -3
  6
Continuous
100
AcDbCircle
 10
-310.391492
 20
-49.381989
 30
0.0
 40
1.5
100
AcDbArc
 50
245.96357
 51
330.0
  0
LINE
  5
2E2
100
AcDbEntity
  8
0
370
    -3
  6
Continuous
100
AcDbLine
 10
-309.092454
 20
-50.131989
 30
0.0
 11
-307.584886
 21
-47.520805
 31
0.0
  0
ARC
  5
2E3
100
AcDbEntity
  8
0
370
    -3
  6
Continuous
100
AcDbCircle
 10
-308.883924
 20
-46.770805
 30
0.0
 40
1.5
100
AcDbArc
 50
330.0
 51
65.531072
  0
ARC
  5
2E4
100
AcDbEntity
  8
0
370
    -3
  6
Continuous
100
AcDbCircle
 10
-326.073212
 20
-84.543525
 30
0.0
 40
43.0
100
AcDbArc
 50
5.531072
 51
54.468928
  0
ARC
  5
2E5
100
AcDbEntity
  8
0
370
    -3
  6
Continuous
100
AcDbCircle
 10
-301.955721
 20
-50.770805
 30
0.0
 40
1.5
100
AcDbArc
 50
54.468928
 51
150.0
  0
ARC
  5
2E6
100
AcDbEntity
  8
0
370
    -3
  6
Continuous
100
AcDbCircle
 10
-284.766433
 20
-80.543525
 30
0.0
 40
1.5
100
AcDbArc
 50
270.0
 51
5.531072
  0
ARC
  5
2E7
100
AcDbEntity
  8
0
370
    -3
  6
Continuous
100
AcDbCircle
 10
-287.781568
 20
-80.543525
 30
0.0
 40
1.5
100
AcDbArc
 50
185.96357
 51
270.0
  0
ARC
  5
2E8
100
AcDbEntity
  8
0
370
    -3
  6
Continuous
100
AcDbCircle
 10
-294.324197
 20
-80.543525
 30
0.0
 40
1.5
100
AcDbArc
 50
270.0
 51
7.180756
  0
LINE
  5
2E9
100
AcDbEntity
  8
0
370
    -3
  6
Continuous
100
AcDbLine
 10
-294.324197
 20
-82.043525
 30
0.0
 11
-297.350399
 21
-82.043525
 31
0.0
  0
LINE
  5
2EA
100
AcDbEntity
  8
0
370
    -3
  6
Continuous
100
AcDbLine
 10
-304.762327
 20
-52.631989
 30
0.0
 11
-303.254759
 21
-50.020805
 31
0.0
  0
LINE
  5
2EB
100
AcDbEntity
  8
0
370
    -3
  6
Continuous
100
AcDbLine
 10
-284.766433
 20
-82.043525
 30
0.0
 11
-287.781568
 21
-82.043525
 31
0.0
  0
ARC
  5
2EC
100
AcDbEntity
  8
0
370
    -3
  6
Continuous
100
AcDbCircle
 10
-292.914005
 20
-54.063122
 30
0.0
 40
25.6
100
AcDbArc
 50
4.662206
 51
45.0
  0
LINE
  5
2ED
100
AcDbEntity
  8
0
370
    -3
  6
Continuous
100
AcDbLine
 10
-278.862497
 20
-31.910764
 30
0.0
 11
-274.812072
 21
-35.961189
 31
0.0
  0
ARC
  5
2EE
100
AcDbEntity
  8
0
370
    -3
  6
Continuous
100
AcDbCircle
 10
-307.571032
 20
-60.619299
 30
0.0
 40
40.6
100
AcDbArc
 50
45.0
 51
87.053989
  0
LINE
  5
2EF
100
AcDbEntity
  8
0
370
    -3
  6
Continuous
100
AcDbLine
 10
-278.862497
 20
-137.176287
 30
0.0
 11
-274.812072
 21
-133.125862
 31
0.0
  0
ARC
  5
2F0
100
AcDbEntity
  8
0
370
    -3
  6
Continuous
100
AcDbCircle
 10
-292.914005
 20
-115.023928
 30
0.0
 40
25.6
100
AcDbArc
 50
315.0
 51
355.337794
  0
ARC
  5
2F1
100
AcDbEntity
  8
0
370
    -3
  6
Continuous
100
AcDbCircle
 10
-666.673212
 20
-84.543525
 30
0.0
 40
400.6
100
AcDbArc
 50
355.337794
 51
0.0
  0
ARC
  5
2F2
100
AcDbEntity
  8
0
370
    -3
  6
Continuous
100
AcDbCircle
 10
14.526788
 20
-84.543525
 30
0.0
 40
400.6
100
AcDbArc
 50
175.337794
 51
180.0
  0
ARC
  5
2F3
100
AcDbEntity
  8
0
370
    -3
  6
Continuous
100
AcDbCircle
 10
-326.073212
 20
251.056475
 30
0.0
 40
400.6
100
AcDbArc
 50
270.0
 51
272.946011
  0
ARC
  5
2F4
100
AcDbEntity
  8
0
370
    -3
  6
Continuous
100
AcDbCircle
 10
-307.571032
 20
-108.467752
 30
0.0
 40
40.6
100
AcDbArc
 50
272.946011
 51
315.0
  0
ARC
  5
2F5
100
AcDbEntity
  8
0
370
    -3
  6
Continuous
100
AcDbCircle
 10
-344.575393
 20
-108.467752
 30
0.0
 40
40.6
100
AcDbArc
 50
225.0
 51
267.053989
  0
ARC
  5
2F6
100
AcDbEntity
  8
0
370
    -3
  6
Continuous
100
AcDbCircle
 10
14.526788
 20
-84.543525
 30
0.0
 40
400.6
100
AcDbArc
 50
180.0
 51
184.662206
  0
ARC
  5
2F7
100
AcDbEntity
  8
0
370
    -3
  6
Continuous
100
AcDbCircle
 10
-359.23242
 20
-115.023928
 30
0.0
 40
25.6
100
AcDbArc
 50
184.662206
 51
225.0
  0
LINE
  5
2F8
100
AcDbEntity
  8
0
370
    -3
  6
Continuous
100
AcDbLine
 10
-373.283928
 20
-137.176287
 30
0.0
 11
-377.334353
 21
-133.125862
 31
0.0
  0
ARC
  5
2F9
100
AcDbEntity
  8
0
370
    -3
  6
Continuous
100
AcDbCircle
 10
-326.073212
 20
251.056475
 30
0.0
 40
400.6
100
AcDbArc
 50
267.053989
 51
270.0
  0
ARC
  5
2FA
100
AcDbEntity
  8
0
370
    -3
  6
Continuous
100
AcDbCircle
 10
-359.23242
 20
-54.063122
 30
0.0
 40
25.6
100
AcDbArc
 50
135.0
 51
175.337794
  0
LINE
  5
2FB
100
AcDbEntity
  8
0
370
    -3
  6
Continuous
100
AcDbLine
 10
-373.283928
 20
-31.910764
 30
0.0
 11
-377.334353
 21
-35.961189
 31
0.0
  0
ARC
  5
2FC
100
AcDbEntity
  8
0
370
    -3
  6
Continuous
100
AcDbCircle
 10
-344.575393
 20
-60.619299
 30
0.0
 40
40.6
100
AcDbArc
 50
92.946011
 51
135.0
  0
ARC
  5
2FD
100
AcDbEntity
  8
0
370
    -3
  6
Continuous
100
AcDbCircle
 10
-666.673212
 20
-84.543525
 30
0.0
 40
400.6
100
AcDbArc
 50
0.0
 51
4.662206
  0
ARC
  5
2FE
100
AcDbEntity
  8
0
370
    -3
  6
Continuous
100
AcDbCircle
 10
-373.73221
 20
-132.202523
 30
0.0
 40
6.099999
100
AcDbArc
 50
174.601928
 51
275.398089
  0
POINT
  5
2FF
100
AcDbEntity
  8
0
370
    -3
  6
Continuous
100
AcDbPoint
 10
-375.994951
 20
-134.465264
 30
0.0
  0
LINE
  5
300
100
AcDbEntity
  8
0
370
    -3
  6
Continuous
100
AcDbLine
 10
-372.671549
 20
-137.788666
 30
0.0
 11
-379.318353
 21
-131.141862
 31
0.0
  0
LINE
  5
301
100
AcDbEntity
  8
0
370
    -3
  6
Continuous
100
AcDbLine
 10
-372.924096
 20
-138.101804
 30
0.0
 11
-379.601196
 21
-131.424705
 31
0.0
  0
LINE
  5
302
100
AcDbEntity
  8
0
370
    -3
  6
Continuous
100
AcDbLine
 10
-379.318353
 20
-131.141862
 30
0.0
 11
-379.805156
 21
-131.628666
 31
0.0
  0
LINE
  5
303
100
AcDbEntity
  8
0
370
    -3
  6
Continuous
100
AcDbLine
 10
-372.671549
 20
-137.788666
 30
0.0
 11
-373.158353
 21
-138.275469
 31
0.0
  0
ARC
  5
304
100
AcDbEntity
  8
0
370
    -3
  6
Continuous
100
AcDbCircle
 10
14.526788
 20
-84.543525
 30
0.0
 40
389.6
100
AcDbArc
 50
175.337794
 51
180.0
  0
ARC
  5
305
100
AcDbEntity
  8
0
370
    -3
  6
Continuous
100
AcDbCircle
 10
-373.73221
 20
-36.884528
 30
0.0
 40
6.099999
100
AcDbArc
 50
84.601911
 51
185.398072
  0
ARC
  5
306
100
AcDbEntity
  8
0
370
    -3
  6
Continuous
100
AcDbCircle
 10
14.526788
 20
-84.543525
 30
0.0
 40
389.6
100
AcDbArc
 50
180.0
 51
184.662206
  0
POINT
  5
307
100
AcDbEntity
  8
0
370
    -3
  6
Continuous
100
AcDbPoint
 10
-375.994951
 20
-34.621787
 30
0.0
  0
ARC
  5
308
100
AcDbEntity
  8
0
370
    -3
  6
Continuous
100
AcDbCircle
 10
-359.23242
 20
-115.023928
 30
0.0
 40
14.6
100
AcDbArc
 50
184.662206
 51
225.0
  0
LINE
  5
309
100
AcDbEntity
  8
0
370
    -3
  6
Continuous
100
AcDbLine
 10
-372.671549
 20
-31.298385
 30
0.0
 11
-379.318353
 21
-37.945188
 31
0.0
  0
ARC
  5
30A
100
AcDbEntity
  8
0
370
    -3
  6
Continuous
100
AcDbCircle
 10
-344.575393
 20
-108.467752
 30
0.0
 40
29.6
100
AcDbArc
 50
225.0
 51
267.053989
  0
LINE
  5
30B
100
AcDbEntity
  8
0
370
    -3
  6
Continuous
100
AcDbLine
 10
-372.924096
 20
-30.985246
 30
0.0
 11
-379.601196
 21
-37.662346
 31
0.0
  0
ARC
  5
30C
100
AcDbEntity
  8
0
370
    -3
  6
Continuous
100
AcDbCircle
 10
-326.073212
 20
251.056475
 30
0.0
 40
389.6
100
AcDbArc
 50
270.0
 51
272.946011
  0
LINE
  5
30D
100
AcDbEntity
  8
0
370
    -3
  6
Continuous
100
AcDbLine
 10
-379.318353
 20
-37.945188
 30
0.0
 11
-379.805156
 21
-37.458385
 31
0.0
  0
ARC
  5
30E
100
AcDbEntity
  8
0
370
    -3
  6
Continuous
100
AcDbCircle
 10
-326.073212
 20
251.056475
 30
0.0
 40
389.6
100
AcDbArc
 50
267.053989
 51
270.0
  0
LINE
  5
30F
100
AcDbEntity
  8
0
370
    -3
  6
Continuous
100
AcDbLine
 10
-372.671549
 20
-31.298385
 30
0.0
 11
-373.158353
 21
-30.811581
 31
0.0
  0
ARC
  5
310
100
AcDbEntity
  8
0
370
    -3
  6
Continuous
100
AcDbCircle
 10
-307.571032
 20
-108.467752
 30
0.0
 40
29.6
100
AcDbArc
 50
272.946011
 51
315.0
  0
ARC
  5
311
100
AcDbEntity
  8
0
370
    -3
  6
Continuous
100
AcDbCircle
 10
-278.414215
 20
-36.884528
 30
0.0
 40
6.099999
100
AcDbArc
 50
354.601928
 51
95.398089
  0
LINE
  5
312
100
AcDbEntity
  8
0
370
    -3
  6
Continuous
100
AcDbLine
 10
-365.505754
 20
-129.398112
 30
0.0
 11
-369.556179
 21
-125.347687
 31
0.0
  0
POINT
  5
313
100
AcDbEntity
  8
0
370
    -3
  6
Continuous
100
AcDbPoint
 10
-276.151474
 20
-34.621787
 30
0.0
  0
LINE
  5
314
100
AcDbEntity
  8
0
370
    -3
  6
DASHED
100
AcDbLine
 10
-363.141835
 20
-131.089939
 30
0.0
 11
-363.125192
 21
-131.089939
 31
0.0
  0
LINE
  5
315
100
AcDbEntity
  8
0
370
    -3
  6
Continuous
100
AcDbLine
 10
-279.474875
 20
-31.298385
 30
0.0
 11
-272.828072
 21
-37.945188
 31
0.0
  0
ARC
  5
316
100
AcDbEntity
  8
0
370
    -3
  6
Continuous
100
AcDbCircle
 10
-297.350399
 20
-88.543525
 30
0.0
 40
1.5
100
AcDbArc
 50
90.0
 51
172.071858
  0
LINE
  5
317
100
AcDbEntity
  8
0
370
    -3
  6
Continuous
100
AcDbLine
 10
-279.222328
 20
-30.985246
 30
0.0
 11
-272.545229
 21
-37.662346
 31
0.0
  0
ARC
  5
318
100
AcDbEntity
  8
0
370
    -3
  6
Continuous
100
AcDbCircle
 10
-326.073212
 20
-84.543525
 30
0.0
 40
33.5
100
AcDbArc
 50
307.180756
 51
352.819244
  0
LINE
  5
319
100
AcDbEntity
  8
0
370
    -3
  6
Continuous
100
AcDbLine
 10
-272.828072
 20
-37.945188
 30
0.0
 11
-272.341269
 21
-37.458385
 31
0.0
  0
ARC
  5
31A
100
AcDbEntity
  8
0
370
    -3
  6
Continuous
100
AcDbCircle
 10
-326.073212
 20
-84.543525
 30
0.0
 40
43.0
100
AcDbArc
 50
305.531072
 51
354.468928
  0
LINE
  5
31B
100
AcDbEntity
  8
0
370
    -3
  6
Continuous
100
AcDbLine
 10
-279.474875
 20
-31.298385
 30
0.0
 11
-278.988072
 21
-30.811581
 31
0.0
  0
ARC
  5
31C
100
AcDbEntity
  8
0
370
    -3
  6
Continuous
100
AcDbCircle
 10
-326.073212
 20
-84.543525
 30
0.0
 40
37.0
100
AcDbArc
 50
305.96357
 51
354.03643
  0
ARC
  5
31D
100
AcDbEntity
  8
0
370
    -3
  6
Continuous
100
AcDbCircle
 10
-278.414215
 20
-132.202523
 30
0.0
 40
6.099999
100
AcDbArc
 50
264.601911
 51
5.398072
  0
ARC
  5
31E
100
AcDbEntity
  8
0
370
    -3
  6
Continuous
100
AcDbCircle
 10
-326.073212
 20
-84.543525
 30
0.0
 40
27.5
100
AcDbArc
 50
307.928142
 51
352.071858
  0
POINT
  5
31F
100
AcDbEntity
  8
0
370
    -3
  6
Continuous
100
AcDbPoint
 10
-276.151474
 20
-134.465264
 30
0.0
  0
ARC
  5
320
100
AcDbEntity
  8
0
370
    -3
  6
Continuous
100
AcDbCircle
 10
-308.247704
 20
-107.418211
 30
0.0
 40
1.5
100
AcDbArc
 50
127.928142
 51
210.0
  0
LINE
  5
321
100
AcDbEntity
  8
0
370
    -3
  6
Continuous
100
AcDbLine
 10
-279.474875
 20
-137.788666
 30
0.0
 11
-272.828072
 21
-131.141862
 31
0.0
  0
ARC
  5
322
100
AcDbEntity
  8
0
370
    -3
  6
Continuous
100
AcDbCircle
 10
-306.734603
 20
-110.03898
 30
0.0
 40
1.5
100
AcDbArc
 50
210.0
 51
307.180756
  0
LINE
  5
323
100
AcDbEntity
  8
0
370
    -3
  6
Continuous
100
AcDbLine
 10
-279.222328
 20
-138.101804
 30
0.0
 11
-272.545229
 21
-131.424705
 31
0.0
  0
ARC
  5
324
100
AcDbEntity
  8
0
370
    -3
  6
Continuous
100
AcDbCircle
 10
-303.463289
 20
-115.705062
 30
0.0
 40
1.5
100
AcDbArc
 50
125.96357
 51
210.0
  0
LINE
  5
325
100
AcDbEntity
  8
0
370
    -3
  6
Continuous
100
AcDbLine
 10
-272.828072
 20
-131.141862
 30
0.0
 11
-272.341269
 21
-131.628666
 31
0.0
  0
LINE
  5
326
100
AcDbEntity
  8
0
370
    -3
  6
Continuous
100
AcDbLine
 10
-309.546742
 20
-108.168211
 30
0.0
 11
-308.033641
 21
-110.78898
 31
0.0
  0
LINE
  5
327
100
AcDbEntity
  8
0
370
    -3
  6
Continuous
100
AcDbLine
 10
-279.474875
 20
-137.788666
 30
0.0
 11
-278.988072
 21
-138.275469
 31
0.0
  0
LINE
  5
328
100
AcDbEntity
  8
0
370
    -3
  6
Continuous
100
AcDbLine
 10
-304.762327
 20
-116.455062
 30
0.0
 11
-303.254759
 21
-119.066245
 31
0.0
  0
ARC
  5
329
100
AcDbEntity
  8
0
370
    -3
  6
Continuous
100
AcDbCircle
 10
-301.955721
 20
-118.316245
 30
0.0
 40
1.5
100
AcDbArc
 50
210.0
 51
305.531072
  0
ARC
  5
32A
100
AcDbEntity
  8
0
370
    -3
  6
Continuous
100
AcDbCircle
 10
-338.483619
 20
-114.03898
 30
0.0
 40
1.5
100
AcDbArc
 50
150.0
 51
247.180756
  0
LINE
  5
32B
100
AcDbEntity
  8
0
370
    -3
  6
Continuous
100
AcDbLine
 10
-339.782657
 20
-113.28898
 30
0.0
 11
-338.269556
 21
-110.668211
 31
0.0
  0
ARC
  5
32C
100
AcDbEntity
  8
0
370
    -3
  6
Continuous
100
AcDbCircle
 10
-341.754933
 20
-119.705062
 30
0.0
 40
1.5
100
AcDbArc
 50
65.96357
 51
150.0
  0
LINE
  5
32D
100
AcDbEntity
  8
0
370
    -3
  6
Continuous
100
AcDbLine
 10
-344.561538
 20
-121.566245
 30
0.0
 11
-343.053971
 21
-118.955062
 31
0.0
  0
ARC
  5
32E
100
AcDbEntity
  8
0
370
    -3
  6
Continuous
100
AcDbCircle
 10
-343.2625
 20
-122.316245
 30
0.0
 40
1.5
100
AcDbArc
 50
150.0
 51
245.531072
  0
ARC
  5
32F
100
AcDbEntity
  8
0
370
    -3
  6
Continuous
100
AcDbCircle
 10
-336.970517
 20
-111.418211
 30
0.0
 40
1.5
100
AcDbArc
 50
67.928142
 51
150.0
  0
ARC
  5
330
100
AcDbEntity
  8
0
370
    -3
  6
Continuous
100
AcDbCircle
 10
-326.073212
 20
-84.543525
 30
0.0
 40
33.5
100
AcDbArc
 50
247.180756
 51
292.819244
  0
ARC
  5
331
100
AcDbEntity
  8
0
370
    -3
  6
Continuous
100
AcDbCircle
 10
-326.073212
 20
-84.543525
 30
0.0
 40
43.0
100
AcDbArc
 50
245.531072
 51
294.468928
  0
ARC
  5
332
100
AcDbEntity
  8
0
370
    -3
  6
Continuous
100
AcDbCircle
 10
-326.073212
 20
-84.543525
 30
0.0
 40
37.0
100
AcDbArc
 50
245.96357
 51
294.03643
  0
ARC
  5
333
100
AcDbEntity
  8
0
370
    -3
  6
Continuous
100
AcDbCircle
 10
-326.073212
 20
-84.543525
 30
0.0
 40
27.5
100
AcDbArc
 50
247.928142
 51
292.071858
  0
ARC
  5
334
100
AcDbEntity
  8
0
370
    -3
  6
Continuous
100
AcDbCircle
 10
-315.175907
 20
-111.418211
 30
0.0
 40
1.5
100
AcDbArc
 50
30.0
 51
112.071858
  0
ARC
  5
335
100
AcDbEntity
  8
0
370
    -3
  6
Continuous
100
AcDbCircle
 10
-313.662806
 20
-114.03898
 30
0.0
 40
1.5
100
AcDbArc
 50
292.819244
 51
30.0
  0
ARC
  5
336
100
AcDbEntity
  8
0
370
    -3
  6
Continuous
100
AcDbCircle
 10
-310.391492
 20
-119.705062
 30
0.0
 40
1.5
100
AcDbArc
 50
30.0
 51
114.03643
  0
LINE
  5
337
100
AcDbEntity
  8
0
370
    -3
  6
Continuous
100
AcDbLine
 10
-313.876869
 20
-110.668211
 30
0.0
 11
-312.363768
 21
-113.28898
 31
0.0
  0
LINE
  5
338
100
AcDbEntity
  8
0
370
    -3
  6
Continuous
100
AcDbLine
 10
-309.092454
 20
-118.955062
 30
0.0
 11
-307.584886
 21
-121.566245
 31
0.0
  0
ARC
  5
339
100
AcDbEntity
  8
0
370
    -3
  6
Continuous
100
AcDbCircle
 10
-308.883924
 20
-122.316245
 30
0.0
 40
1.5
100
AcDbArc
 50
294.468928
 51
30.0
  0
ARC
  5
33A
100
AcDbEntity
  8
0
370
    -3
  6
Continuous
100
AcDbCircle
 10
-345.411822
 20
-110.03898
 30
0.0
 40
1.5
100
AcDbArc
 50
232.819244
 51
330.0
  0
LINE
  5
33B
100
AcDbEntity
  8
0
370
    -3
  6
Continuous
100
AcDbLine
 10
-344.112784
 20
-110.78898
 30
0.0
 11
-342.599683
 21
-108.168211
 31
0.0
  0
ARC
  5
33C
100
AcDbEntity
  8
0
370
    -3
  6
Continuous
100
AcDbCircle
 10
-348.683136
 20
-115.705062
 30
0.0
 40
1.5
100
AcDbArc
 50
330.0
 51
54.03643
  0
LINE
  5
33D
100
AcDbEntity
  8
0
370
    -3
  6
Continuous
100
AcDbLine
 10
-348.891665
 20
-119.066245
 30
0.0
 11
-347.384098
 21
-116.455062
 31
0.0
  0
ARC
  5
33E
100
AcDbEntity
  8
0
370
    -3
  6
Continuous
100
AcDbCircle
 10
-350.190704
 20
-118.316245
 30
0.0
 40
1.5
100
AcDbArc
 50
234.468928
 51
330.0
  0
ARC
  5
33F
100
AcDbEntity
  8
0
370
    -3
  6
Continuous
100
AcDbCircle
 10
-343.898721
 20
-107.418211
 30
0.0
 40
1.5
100
AcDbArc
 50
330.0
 51
52.071858
  0
ARC
  5
340
100
AcDbEntity
  8
0
370
    -3
  6
Continuous
100
AcDbCircle
 10
-326.073212
 20
-84.543525
 30
0.0
 40
33.5
100
AcDbArc
 50
187.180756
 51
232.819244
  0
ARC
  5
341
100
AcDbEntity
  8
0
370
    -3
  6
Continuous
100
AcDbCircle
 10
-326.073212
 20
-84.543525
 30
0.0
 40
43.0
100
AcDbArc
 50
185.531072
 51
234.468928
  0
ARC
  5
342
100
AcDbEntity
  8
0
370
    -3
  6
Continuous
100
AcDbCircle
 10
-326.073212
 20
-84.543525
 30
0.0
 40
37.0
100
AcDbArc
 50
185.96357
 51
234.03643
  0
ARC
  5
343
100
AcDbEntity
  8
0
370
    -3
  6
Continuous
100
AcDbCircle
 10
-326.073212
 20
-84.543525
 30
0.0
 40
27.5
100
AcDbArc
 50
187.928142
 51
232.071858
  0
ARC
  5
344
100
AcDbEntity
  8
0
370
    -3
  6
Continuous
100
AcDbCircle
 10
-354.796026
 20
-88.543525
 30
0.0
 40
1.5
100
AcDbArc
 50
7.928142
 51
90.0
  0
ARC
  5
345
100
AcDbEntity
  8
0
370
    -3
  6
Continuous
100
AcDbCircle
 10
-357.822228
 20
-88.543525
 30
0.0
 40
1.5
100
AcDbArc
 50
90.0
 51
187.180756
  0
ARC
  5
346
100
AcDbEntity
  8
0
370
    -3
  6
Continuous
100
AcDbCircle
 10
-364.364856
 20
-88.543525
 30
0.0
 40
1.5
100
AcDbArc
 50
5.96357
 51
90.0
  0
LINE
  5
347
100
AcDbEntity
  8
0
370
    -3
  6
Continuous
100
AcDbLine
 10
-354.796026
 20
-87.043525
 30
0.0
 11
-357.822228
 21
-87.043525
 31
0.0
  0
LINE
  5
348
100
AcDbEntity
  8
0
370
    -3
  6
Continuous
100
AcDbLine
 10
-364.364856
 20
-87.043525
 30
0.0
 11
-367.379992
 21
-87.043525
 31
0.0
  0
ARC
  5
349
100
AcDbEntity
  8
0
370
    -3
  6
Continuous
100
AcDbCircle
 10
-367.379992
 20
-88.543525
 30
0.0
 40
1.5
100
AcDbArc
 50
90.0
 51
185.531072
  0
ARC
  5
34A
100
AcDbEntity
  8
0
370
    -3
  6
Continuous
100
AcDbCircle
 10
-345.411822
 20
-59.048071
 30
0.0
 40
1.5
100
AcDbArc
 50
30.0
 51
127.180756
  0
LINE
  5
34B
100
AcDbEntity
  8
0
370
    -3
  6
Continuous
100
AcDbLine
 10
-344.112784
 20
-58.298071
 30
0.0
 11
-342.599683
 21
-60.918839
 31
0.0
  0
ARC
  5
34C
100
AcDbEntity
  8
0
370
    -3
  6
Continuous
100
AcDbCircle
 10
-348.683136
 20
-53.381989
 30
0.0
 40
1.5
100
AcDbArc
 50
305.96357
 51
30.0
  0
ARC
  5
34D
100
AcDbEntity
  8
0
370
    -3
  6
Continuous
100
AcDbCircle
 10
-343.898721
 20
-61.668839
 30
0.0
 40
1.5
100
AcDbArc
 50
307.928142
 51
30.0
  0
ARC
  5
34E
100
AcDbEntity
  8
0
370
    -3
  6
Continuous
100
AcDbCircle
 10
-326.073212
 20
-84.543525
 30
0.0
 40
33.5
100
AcDbArc
 50
127.180756
 51
172.819244
  0
ARC
  5
34F
100
AcDbEntity
  8
0
370
    -3
  6
Continuous
100
AcDbCircle
 10
-326.073212
 20
-84.543525
 30
0.0
 40
43.0
100
AcDbArc
 50
125.531072
 51
174.468928
  0
ARC
  5
350
100
AcDbEntity
  8
0
370
    -3
  6
Continuous
100
AcDbCircle
 10
-326.073212
 20
-84.543525
 30
0.0
 40
37.0
100
AcDbArc
 50
125.96357
 51
174.03643
  0
ARC
  5
351
100
AcDbEntity
  8
0
370
    -3
  6
Continuous
100
AcDbCircle
 10
-326.073212
 20
-84.543525
 30
0.0
 40
27.5
100
AcDbArc
 50
127.928142
 51
172.071858
  0
ARC
  5
352
100
AcDbEntity
  8
0
370
    -3
  6
Continuous
100
AcDbCircle
 10
-354.796026
 20
-80.543525
 30
0.0
 40
1.5
100
AcDbArc
 50
270.0
 51
352.071858
  0
ARC
  5
353
100
AcDbEntity
  8
0
370
    -3
  6
Continuous
100
AcDbCircle
 10
-357.822228
 20
-80.543525
 30
0.0
 40
1.5
100
AcDbArc
 50
172.819244
 51
270.0
  0
ARC
  5
354
100
AcDbEntity
  8
0
370
    -3
  6
Continuous
100
AcDbCircle
 10
-364.364856
 20
-80.543525
 30
0.0
 40
1.5
100
AcDbArc
 50
270.0
 51
354.03643
  0
LINE
  5
355
100
AcDbEntity
  8
0
370
    -3
  6
Continuous
100
AcDbLine
 10
-354.796026
 20
-82.043525
 30
0.0
 11
-357.822228
 21
-82.043525
 31
0.0
  0
LINE
  5
356
100
AcDbEntity
  8
0
370
    -3
  6
Continuous
100
AcDbLine
 10
-364.364856
 20
-82.043525
 30
0.0
 11
-367.379992
 21
-82.043525
 31
0.0
  0
ARC
  5
357
100
AcDbEntity
  8
0
370
    -3
  6
Continuous
100
AcDbCircle
 10
-367.379992
 20
-80.543525
 30
0.0
 40
1.5
100
AcDbArc
 50
174.468928
 51
270.0
  0
ARC
  5
358
100
AcDbEntity
  8
0
370
    -3
  6
Continuous
100
AcDbCircle
 10
-338.483619
 20
-55.048071
 30
0.0
 40
1.5
100
AcDbArc
 50
112.819244
 51
210.0
  0
LINE
  5
359
100
AcDbEntity
  8
0
370
    -3
  6
Continuous
100
AcDbLine
 10
-339.782657
 20
-55.798071
 30
0.0
 11
-338.269556
 21
-58.418839
 31
0.0
  0
ARC
  5
35A
100
AcDbEntity
  8
0
370
    -3
  6
Continuous
100
AcDbCircle
 10
-336.970517
 20
-57.668839
 30
0.0
 40
1.5
100
AcDbArc
 50
210.0
 51
292.071858
  0
ARC
  5
35B
100
AcDbEntity
  8
0
370
    -3
  6
Continuous
100
AcDbCircle
 10
-326.073212
 20
-84.543525
 30
0.0
 40
33.5
100
AcDbArc
 50
67.180756
 51
112.819244
  0
ARC
  5
35C
100
AcDbEntity
  8
0
370
    -3
  6
Continuous
100
AcDbCircle
 10
-326.073212
 20
-84.543525
 30
0.0
 40
27.5
100
AcDbArc
 50
67.928142
 51
112.071858
  0
ARC
  5
35D
100
AcDbEntity
  8
0
370
    -3
  6
Continuous
100
AcDbCircle
 10
-315.175907
 20
-57.668839
 30
0.0
 40
1.5
100
AcDbArc
 50
247.928142
 51
330.0
  0
ARC
  5
35E
100
AcDbEntity
  8
0
370
    -3
  6
Continuous
100
AcDbCircle
 10
-313.662806
 20
-55.048071
 30
0.0
 40
1.5
100
AcDbArc
 50
330.0
 51
67.180756
  0
LINE
  5
35F
100
AcDbEntity
  8
0
370
    -3
  6
Continuous
100
AcDbLine
 10
-313.876869
 20
-58.418839
 30
0.0
 11
-312.363768
 21
-55.798071
 31
0.0
  0
ARC
  5
360
100
AcDbEntity
  8
0
370
    -3
  6
Continuous
100
AcDbCircle
 10
-326.073212
 20
-84.543525
 30
0.0
 40
33.5
100
AcDbArc
 50
7.180756
 51
52.819244
  0
ARC
  5
361
100
AcDbEntity
  8
0
370
    -3
  6
Continuous
100
AcDbCircle
 10
-326.073212
 20
-84.543525
 30
0.0
 40
37.0
100
AcDbArc
 50
5.96357
 51
54.03643
  0
ARC
  5
362
100
AcDbEntity
  8
0
370
    -3
  6
Continuous
100
AcDbCircle
 10
-303.463289
 20
-53.381989
 30
0.0
 40
1.5
100
AcDbArc
 50
150.0
 51
234.03643
  0
ARC
  5
363
100
AcDbEntity
  8
0
370
    -3
  6
Continuous
100
AcDbCircle
 10
-306.734603
 20
-59.048071
 30
0.0
 40
1.5
100
AcDbArc
 50
52.819244
 51
150.0
  0
ARC
  5
364
100
AcDbEntity
  8
0
370
    -3
  6
Continuous
100
AcDbCircle
 10
-326.073212
 20
-84.543525
 30
0.0
 40
27.5
100
AcDbArc
 50
7.928142
 51
52.071858
  0
ARC
  5
365
100
AcDbEntity
  8
0
370
    -3
  6
Continuous
100
AcDbCircle
 10
-297.350399
 20
-80.543525
 30
0.0
 40
1.5
100
AcDbArc
 50
187.928142
 51
270.0
  0
LINE
  5
366
100
AcDbEntity
  8
0
370
    -3
  6
Continuous
100
AcDbLine
 10
-309.546742
 20
-60.918839
 30
0.0
 11
-308.033641
 21
-58.298071
 31
0.0
  0
ARC
  5
367
100
AcDbEntity
  8
0
370
    -3
  6
Continuous
100
AcDbCircle
 10
-308.247704
 20
-61.668839
 30
0.0
 40
1.5
100
AcDbArc
 50
150.0
 51
232.071858
  0
CIRCLE
  5
368
100
AcDbEntity
  8
0
370
    -3
  6
Continuous
100
AcDbCircle
 10
-326.073212
 20
-84.543525
 30
0.0
 40
5.0
  0
ARC
  5
369
100
AcDbEntity
  8
0
370
    -3
  6
Continuous
100
AcDbCircle
 10
-318.026535
 20
-78.606271
 30
0.0
 40
1.5
100
AcDbArc
 50
150.0
 51
216.421822
  0
ARC
  5
36A
100
AcDbEntity
  8
0
370
    -3
  6
Continuous
100
AcDbCircle
 10
-316.908061
 20
-80.543525
 30
0.0
 40
1.5
100
AcDbArc
 50
203.578178
 51
270.0
  0
ARC
  5
36B
100
AcDbEntity
  8
0
370
    -3
  6
Continuous
100
AcDbCircle
 10
-311.538316
 20
-67.368346
 30
0.0
 40
1.5
100
AcDbArc
 50
49.759652
 51
150.0
  0
ARC
  5
36C
100
AcDbEntity
  8
0
370
    -3
  6
Continuous
100
AcDbCircle
 10
-313.703896
 20
-80.543525
 30
0.0
 40
1.5
100
AcDbArc
 50
270.0
 51
17.920213
  0
ARC
  5
36D
100
AcDbEntity
  8
0
370
    -3
  6
Continuous
100
AcDbCircle
 10
-306.987878
 20
-80.543525
 30
0.0
 40
1.5
100
AcDbArc
 50
191.837004
 51
270.0
  0
ARC
  5
36E
100
AcDbEntity
  8
0
370
    -3
  6
Continuous
100
AcDbCircle
 10
-313.066443
 20
-70.015141
 30
0.0
 40
1.5
100
AcDbArc
 50
150.0
 51
228.162996
  0
ARC
  5
36F
100
AcDbEntity
  8
0
370
    -3
  6
Continuous
100
AcDbCircle
 10
-303.931623
 20
-80.543525
 30
0.0
 40
1.5
100
AcDbArc
 50
270.0
 51
10.240348
  0
ARC
  5
370
100
AcDbEntity
  8
0
370
    -3
  6
Continuous
100
AcDbCircle
 10
-316.424452
 20
-75.831383
 30
0.0
 40
1.5
100
AcDbArc
 50
42.079787
 51
150.0
  0
LINE
  5
371
100
AcDbEntity
  8
0
370
    -3
  6
Continuous
100
AcDbLine
 10
-314.365482
 20
-69.265141
 30
0.0
 11
-312.837354
 21
-66.618346
 31
0.0
  0
ARC
  5
372
100
AcDbEntity
  8
0
370
    -3
  6
Continuous
100
AcDbCircle
 10
-326.073212
 20
-84.543525
 30
0.0
 40
18.0
100
AcDbArc
 50
11.837004
 51
48.162996
  0
ARC
  5
373
100
AcDbEntity
  8
0
370
    -3
  6
Continuous
100
AcDbCircle
 10
-326.073212
 20
-84.543525
 30
0.0
 40
14.5
100
AcDbArc
 50
17.920213
 51
42.079787
  0
LINE
  5
374
100
AcDbEntity
  8
0
370
    -3
  6
Continuous
100
AcDbLine
 10
-313.703896
 20
-82.043525
 30
0.0
 11
-316.908061
 21
-82.043525
 31
0.0
  0
LINE
  5
375
100
AcDbEntity
  8
0
370
    -3
  6
Continuous
100
AcDbLine
 10
-303.931623
 20
-82.043525
 30
0.0
 11
-306.987878
 21
-82.043525
 31
0.0
  0
LINE
  5
376
100
AcDbEntity
  8
0
370
    -3
  6
Continuous
100
AcDbLine
 10
-319.325573
 20
-77.856271
 30
0.0
 11
-317.72349
 21
-75.081383
 31
0.0
  0
ARC
  5
377
100
AcDbEntity
  8
0
370
    -3
  6
Continuous
100
AcDbCircle
 10
-326.073212
 20
-84.543525
 30
0.0
 40
24.0
100
AcDbArc
 50
10.240348
 51
49.759652
  0
ARC
  5
378
100
AcDbEntity
  8
0
370
    -3
  6
Continuous
100
AcDbCircle
 10
-326.073212
 20
-84.543525
 30
0.0
 40
8.5
100
AcDbArc
 50
23.578178
 51
36.421822
  0
ARC
  5
379
100
AcDbEntity
  8
0
370
    -3
  6
Continuous
100
AcDbCircle
 10
-328.793769
 20
-71.831383
 30
0.0
 40
1.5
100
AcDbArc
 50
102.079787
 51
210.0
  0
LINE
  5
37A
100
AcDbEntity
  8
0
370
    -3
  6
Continuous
100
AcDbLine
 10
-330.092807
 20
-72.581383
 30
0.0
 11
-328.490725
 21
-75.356271
 31
0.0
  0
ARC
  5
37B
100
AcDbEntity
  8
0
370
    -3
  6
Continuous
100
AcDbCircle
 10
-327.191687
 20
-74.606271
 30
0.0
 40
1.5
100
AcDbArc
 50
210.0
 51
276.421822
  0
ARC
  5
37C
100
AcDbEntity
  8
0
370
    -3
  6
Continuous
100
AcDbCircle
 10
-326.073212
 20
-84.543525
 30
0.0
 40
8.5
100
AcDbArc
 50
83.578178
 51
96.421822
  0
ARC
  5
37D
100
AcDbEntity
  8
0
370
    -3
  6
Continuous
100
AcDbCircle
 10
-324.954738
 20
-74.606271
 30
0.0
 40
1.5
100
AcDbArc
 50
263.578178
 51
330.0
  0
LINE
  5
37E
100
AcDbEntity
  8
0
370
    -3
  6
Continuous
100
AcDbLine
 10
-323.6557
 20
-75.356271
 30
0.0
 11
-322.053617
 21
-72.581383
 31
0.0
  0
ARC
  5
37F
100
AcDbEntity
  8
0
370
    -3
  6
Continuous
100
AcDbCircle
 10
-323.352656
 20
-71.831383
 30
0.0
 40
1.5
100
AcDbArc
 50
330.0
 51
77.920213
  0
ARC
  5
380
100
AcDbEntity
  8
0
370
    -3
  6
Continuous
100
AcDbCircle
 10
-326.073212
 20
-84.543525
 30
0.0
 40
14.5
100
AcDbArc
 50
77.920213
 51
102.079787
  0
ARC
  5
381
100
AcDbEntity
  8
0
370
    -3
  6
Continuous
100
AcDbCircle
 10
-333.679906
 20
-63.368346
 30
0.0
 40
1.5
100
AcDbArc
 50
109.759652
 51
210.0
  0
LINE
  5
382
100
AcDbEntity
  8
0
370
    -3
  6
Continuous
100
AcDbLine
 10
-334.978944
 20
-64.118346
 30
0.0
 11
-333.450816
 21
-66.765141
 31
0.0
  0
ARC
  5
383
100
AcDbEntity
  8
0
370
    -3
  6
Continuous
100
AcDbCircle
 10
-332.151778
 20
-66.015141
 30
0.0
 40
1.5
100
AcDbArc
 50
210.0
 51
288.162996
  0
ARC
  5
384
100
AcDbEntity
  8
0
370
    -3
  6
Continuous
100
AcDbCircle
 10
-326.073212
 20
-84.543525
 30
0.0
 40
18.0
100
AcDbArc
 50
71.837004
 51
108.162996
  0
ARC
  5
385
100
AcDbEntity
  8
0
370
    -3
  6
Continuous
100
AcDbCircle
 10
-319.994647
 20
-66.015141
 30
0.0
 40
1.5
100
AcDbArc
 50
251.837004
 51
330.0
  0
LINE
  5
386
100
AcDbEntity
  8
0
370
    -3
  6
Continuous
100
AcDbLine
 10
-318.695609
 20
-66.765141
 30
0.0
 11
-317.167481
 21
-64.118346
 31
0.0
  0
ARC
  5
387
100
AcDbEntity
  8
0
370
    -3
  6
Continuous
100
AcDbCircle
 10
-318.466519
 20
-63.368346
 30
0.0
 40
1.5
100
AcDbArc
 50
330.0
 51
70.240348
  0
ARC
  5
388
100
AcDbEntity
  8
0
370
    -3
  6
Continuous
100
AcDbCircle
 10
-326.073212
 20
-84.543525
 30
0.0
 40
24.0
100
AcDbArc
 50
70.240348
 51
109.759652
  0
ARC
  5
389
100
AcDbEntity
  8
0
370
    -3
  6
Continuous
100
AcDbCircle
 10
-328.793769
 20
-97.255668
 30
0.0
 40
1.5
100
AcDbArc
 50
150.0
 51
257.920213
  0
LINE
  5
38A
100
AcDbEntity
  8
0
370
    -3
  6
Continuous
100
AcDbLine
 10
-330.092807
 20
-96.505668
 30
0.0
 11
-328.490725
 21
-93.730779
 31
0.0
  0
MTEXT
  5
38C
100
AcDbEntity
  8
0
370
    -3
  6
Continuous
100
AcDbMText
 10
-398.905945
 20
263.274719
 30
0.0
 40
15.0
 41
0.0
 71
     7
 72
     1
  1
\W0.63;三菱ギヤードモータ  
  7
ZU_SHPTB00001
 11
1.0
 21
0.0
 31
0.0
 73
     1
 44
1.0
  0
MTEXT
  5
38D
100
AcDbEntity
  8
0
370
    -3
  6
Continuous
100
AcDbMText
 10
-398.905945
 20
229.374695
 30
0.0
 40
15.0
 41
0.0
 71
     7
 72
     1
  1
\W0.43;0.75kW
  7
ZU_SHPTB00001
 11
1.0
 21
0.0
 31
0.0
 73
     1
 44
1.0
  0
MTEXT
  5
38E
100
AcDbEntity
  8
0
370
    -3
  6
Continuous
100
AcDbMText
 10
-398.905945
 20
178.524689
 30
0.0
 40
15.0
 41
0.0
 71
     7
 72
     1
  1
\W0.43;SCALE\W0.72;  \W0.43;1/1
  7
ZU_SHPTB00001
 11
1.0
 21
0.0
 31
0.0
 73
     1
 44
1.0
  0
MTEXT
  5
38F
100
AcDbEntity
  8
0
370
    -3
  6
Continuous
100
AcDbMText
 10
-398.905945
 20
212.424713
 30
0.0
 40
15.0
 41
0.0
 71
     7
 72
     1
  1
\W0.43;37.5-12.5r/min\W0.53;　
  7
ZU_SHPTB00001
 11
1.0
 21
0.0
 31
0.0
 73
     1
 44
1.0
  0
MTEXT
  5
390
100
AcDbEntity
  8
0
370
    -3
  6
Continuous
100
AcDbMText
 10
-398.905945
 20
195.474701
 30
0.0
 40
15.0
 41
0.0
 71
     7
 72
     1
  1
\W0.42;GEAR\W0.70; \W0.42;RATIO\W0.70;  \W0.42;1/80-1/240
  7
ZU_SHPTB00001
 11
1.0
 21
0.0
 31
0.0
 73
     1
 44
1.0
  0
MTEXT
  5
391
100
AcDbEntity
  8
0
370
    -3
  6
Continuous
100
AcDbMText
 10
-398.905945
 20
263.274719
 30
0.0
 40
15.0
 41
0.0
 71
     7
 72
     1
  1
\W0.63;三菱ギヤードモータ  
  7
ZU_SHPTB00001
 11
1.0
 21
0.0
 31
0.0
 73
     1
 44
1.0
  0
MTEXT
  5
392
100
AcDbEntity
  8
0
370
    -3
  6
Continuous
100
AcDbMText
 10
-398.905945
 20
246.324707
 30
0.0
 40
15.0
 41
0.0
 71
     7
 72
     1
  1
\W0.48;GV-SHYB-RR
  7
ZU_SHPTB00001
 11
1.0
 21
0.0
 31
0.0
 73
     1
 44
1.0
  0
LINE
  5
393
100
AcDbEntity
  8
0
370
    -3
  6
Continuous
100
AcDbLine
 10
116.426575
 20
212.614787
 30
0.0
 11
116.426575
 21
216.614787
 31
0.0
  0
LINE
  5
394
100
AcDbEntity
  8
0
370
    -3
  6
Continuous
100
AcDbLine
 10
117.426575
 20
211.614787
 30
0.0
 11
116.426575
 21
212.614787
 31
0.0
  0
LINE
  5
395
100
AcDbEntity
  8
0
370
    -3
  6
Continuous
100
AcDbLine
 10
192.426575
 20
211.614787
 30
0.0
 11
117.426575
 21
211.614787
 31
0.0
  0
LINE
  5
396
100
AcDbEntity
  8
0
370
    -3
  6
Continuous
100
AcDbLine
 10
273.926575
 20
211.614787
 30
0.0
 11
274.926575
 21
212.614787
 31
0.0
  0
LINE
  5
397
100
AcDbEntity
  8
0
370
    -3
  6
Continuous
100
AcDbLine
 10
274.926575
 20
212.614787
 30
0.0
 11
274.926575
 21
216.614787
 31
0.0
  0
LINE
  5
398
100
AcDbEntity
  8
0
370
    -3
  6
Continuous
100
AcDbLine
 10
192.426575
 20
211.614787
 30
0.0
 11
273.926575
 21
211.614787
 31
0.0
  0
LINE
  5
399
100
AcDbEntity
  8
0
370
    -3
  6
Continuous
100
AcDbLine
 10
599.926309
 20
-170.426525
 30
0.0
 11
628.53256
 21
-170.426525
 31
0.0
  0
LINE
  5
39A
100
AcDbEntity
  8
0
370
    -3
  6
Continuous
100
AcDbLine
 10
-378.073144
 20
-170.426525
 30
0.0
 11
-406.679395
 21
-170.426525
 31
0.0
  0
ARC
  5
39B
100
AcDbEntity
  8
0
370
    -3
  6
Continuous
100
AcDbCircle
 10
13.348944
 20
-27.043525
 30
0.0
 40
0.5
100
AcDbArc
 50
187.125016
 51
270.0
  0
LINE
  5
39C
100
AcDbEntity
  8
0
370
    -3
  6
Continuous
100
AcDbLine
 10
19.466162
 20
-27.543525
 30
0.0
 11
13.355074
 21
-27.543525
 31
0.0
  0
LINE
  5
39D
100
AcDbEntity
  8
0
370
    -3
  6
Continuous
100
AcDbLine
 10
-33.255152
 20
-23.543525
 30
0.0
 11
30.176583
 21
-23.543525
 31
0.0
  0
LINE
  5
39E
100
AcDbEntity
  8
0
370
    -3
  6
Continuous
100
AcDbLine
 10
11.943738
 20
-23.543525
 30
0.0
 11
20.907553
 21
-23.543525
 31
0.0
  0
LINE
  5
39F
100
AcDbEntity
  8
0
370
    -3
  6
Continuous
100
AcDbLine
 10
12.979268
 20
-21.543525
 30
0.0
 11
26.031326
 21
-21.543525
 31
0.0
  0
ARC
  5
3A0
100
AcDbEntity
  8
0
370
    -3
  6
Continuous
100
AcDbCircle
 10
20.848944
 20
-24.043525
 30
0.0
 40
0.5
100
AcDbArc
 50
90.0
 51
172.874984
  0
ARC
  5
3A1
100
AcDbEntity
  8
0
370
    -3
  6
Continuous
100
AcDbCircle
 10
20.907553
 20
-23.043525
 30
0.0
 40
0.5
100
AcDbArc
 50
270.0
 51
0.0
  0
LINE
  5
3A2
100
AcDbEntity
  8
0
370
    -3
  6
Continuous
100
AcDbLine
 10
21.407553
 20
-23.043525
 30
0.0
 11
21.407553
 21
-22.043525
 31
0.0
  0
ARC
  5
3A3
100
AcDbEntity
  8
0
370
    -3
  6
Continuous
100
AcDbCircle
 10
21.907553
 20
-22.043525
 30
0.0
 40
0.5
100
AcDbArc
 50
90.0
 51
180.0
  0
LINE
  5
3A4
100
AcDbEntity
  8
0
370
    -3
  6
Continuous
100
AcDbLine
 10
12.979268
 20
-21.543525
 30
0.0
 11
-26.126103
 21
-21.543525
 31
0.0
  0
ARC
  5
3A5
100
AcDbEntity
  8
0
370
    -3
  6
Continuous
100
AcDbCircle
 10
11.966162
 20
-24.043525
 30
0.0
 40
0.5
100
AcDbArc
 50
7.125016
 51
90.0
  0
ARC
  5
3A6
100
AcDbEntity
  8
0
370
    -3
  6
Continuous
100
AcDbCircle
 10
11.907553
 20
-23.043525
 30
0.0
 40
0.5
100
AcDbArc
 50
180.0
 51
270.0
  0
LINE
  5
3A7
100
AcDbEntity
  8
0
370
    -3
  6
Continuous
100
AcDbLine
 10
11.407553
 20
-23.043525
 30
0.0
 11
11.407553
 21
-22.043525
 31
0.0
  0
ARC
  5
3A8
100
AcDbEntity
  8
0
370
    -3
  6
Continuous
100
AcDbCircle
 10
10.907553
 20
-22.043525
 30
0.0
 40
0.5
100
AcDbArc
 50
0.0
 51
90.0
  0
LINE
  5
3A9
100
AcDbEntity
  8
0
370
    -3
  6
Continuous
100
AcDbLine
 10
-32.073417
 20
-27.543525
 30
0.0
 11
-26.501909
 21
-27.543525
 31
0.0
  0
LINE
  5
3AA
100
AcDbEntity
  8
0
370
    -3
  6
Continuous
100
AcDbLine
 10
-25.99964
 20
-27.105543
 30
0.0
 11
-25.609136
 21
-23.981508
 31
0.0
  0
ARC
  5
3AB
100
AcDbEntity
  8
0
370
    -3
  6
Continuous
100
AcDbCircle
 10
-26.495779
 20
-27.043525
 30
0.0
 40
0.5
100
AcDbArc
 50
270.0
 51
352.874984
  0
LINE
  5
3AC
100
AcDbEntity
  8
0
370
    -3
  6
Continuous
100
AcDbLine
 10
-25.054388
 20
-23.543525
 30
0.0
 11
-33.255152
 21
-23.543525
 31
0.0
  0
ARC
  5
3AD
100
AcDbEntity
  8
0
370
    -3
  6
Continuous
100
AcDbCircle
 10
-25.112997
 20
-24.043525
 30
0.0
 40
0.5
100
AcDbArc
 50
90.0
 51
172.874984
  0
ARC
  5
3AE
100
AcDbEntity
  8
0
370
    -3
  6
Continuous
100
AcDbCircle
 10
-25.054388
 20
-23.043525
 30
0.0
 40
0.5
100
AcDbArc
 50
270.0
 51
0.0
  0
LINE
  5
3AF
100
AcDbEntity
  8
0
370
    -3
  6
Continuous
100
AcDbLine
 10
-24.554388
 20
-23.043525
 30
0.0
 11
-24.554388
 21
-22.043525
 31
0.0
  0
ARC
  5
3B0
100
AcDbEntity
  8
0
370
    -3
  6
Continuous
100
AcDbCircle
 10
-24.054388
 20
-22.043525
 30
0.0
 40
0.5
100
AcDbArc
 50
90.0
 51
180.0
  0
LINE
  5
3B1
100
AcDbEntity
  8
0
370
    -3
  6
Continuous
100
AcDbLine
 10
-24.090573
 20
-23.543525
 30
0.0
 11
-32.748071
 21
-23.543525
 31
0.0
  0
LINE
  5
3B2
100
AcDbEntity
  8
0
370
    -3
  6
Continuous
100
AcDbLine
 10
-34.554388
 20
-22.929717
 30
0.0
 11
-34.554388
 21
-22.043525
 31
0.0
  0
ARC
  5
3B3
100
AcDbEntity
  8
0
370
    -3
  6
Continuous
100
AcDbCircle
 10
-35.054388
 20
-22.043525
 30
0.0
 40
0.5
100
AcDbArc
 50
0.0
 51
90.0
  0
LINE
  5
3B4
100
AcDbEntity
  8
0
370
    -3
  6
Continuous
100
AcDbLine
 10
-26.126103
 20
-21.543525
 30
0.0
 11
-39.178161
 21
-21.543525
 31
0.0
  0
LINE
  5
3B5
100
AcDbEntity
  8
0
370
    -3
  6
Continuous
100
AcDbLine
 10
30.176583
 20
-25.048938
 30
0.0
 11
30.176583
 21
-23.543525
 31
0.0
  0
LINE
  5
3B6
100
AcDbEntity
  8
0
370
    -3
  6
CENTER
100
AcDbLine
 10
16.407553
 20
-30.853412
 30
0.0
 11
16.407553
 21
-15.518886
 31
0.0
  0
LINE
  5
3B7
100
AcDbEntity
  8
0
370
    -3
  6
Continuous
100
AcDbLine
 10
-38.099261
 20
-17.543525
 30
0.0
 11
24.952426
 21
-17.543525
 31
0.0
  0
LINE
  5
3B8
100
AcDbEntity
  8
0
370
    -3
  6
CENTER
100
AcDbLine
 10
-29.554388
 20
-30.432384
 30
0.0
 11
-29.554388
 21
-15.518886
 31
0.0
  0
ARC
  5
3B9
100
AcDbEntity
  8
0
370
    -3
  6
Continuous
100
AcDbCircle
 10
24.952426
 20
-18.543525
 30
0.0
 40
1.0
100
AcDbArc
 50
1.5
 51
90.0
  0
ARC
  5
3BA
100
AcDbEntity
  8
0
370
    -3
  6
Continuous
100
AcDbCircle
 10
-38.099261
 20
-18.543525
 30
0.0
 40
1.0
100
AcDbArc
 50
90.0
 51
178.5
  0
LINE
  5
3BB
100
AcDbEntity
  8
0
370
    -3
  6
Continuous
100
AcDbLine
 10
-39.178161
 20
-21.543525
 30
0.0
 11
-39.098918
 21
-18.517348
 31
0.0
  0
LINE
  5
3BC
100
AcDbEntity
  8
0
370
    -3
  6
Continuous
100
AcDbLine
 10
26.031326
 20
-21.543525
 30
0.0
 11
25.952083
 21
-18.517348
 31
0.0
  0
LINE
  5
3BD
100
AcDbEntity
  8
0
370
    -3
  6
Continuous
100
AcDbLine
 10
-53.073417
 20
9.456475
 30
0.0
 11
-53.073417
 21
26.456475
 31
0.0
  0
LINE
  5
3BE
100
AcDbEntity
  8
0
370
    -3
  6
Continuous
100
AcDbLine
 10
-53.073417
 20
9.456475
 30
0.0
 11
-53.073417
 21
-7.543525
 31
0.0
  0
LINE
  5
3BF
100
AcDbEntity
  8
0
370
    -3
  6
Continuous
100
AcDbLine
 10
-78.073417
 20
-7.543525
 30
0.0
 11
-51.073417
 21
-7.543525
 31
0.0
  0
ARC
  5
3C0
100
AcDbEntity
  8
0
370
    -3
  6
Continuous
100
AcDbCircle
 10
-78.073417
 20
-5.543525
 30
0.0
 40
2.0
100
AcDbArc
 50
180.0
 51
270.0
  0
LINE
  5
3C1
100
AcDbEntity
  8
0
370
    -3
  6
Continuous
100
AcDbLine
 10
-80.073417
 20
9.456475
 30
0.0
 11
-80.073417
 21
-5.543525
 31
0.0
  0
LINE
  5
3C2
100
AcDbEntity
  8
0
370
    -3
  6
Continuous
100
AcDbLine
 10
-78.073417
 20
26.456475
 30
0.0
 11
-51.484133
 21
26.456475
 31
0.0
  0
ARC
  5
3C3
100
AcDbEntity
  8
0
370
    -3
  6
Continuous
100
AcDbCircle
 10
-78.073417
 20
24.456475
 30
0.0
 40
2.0
100
AcDbArc
 50
90.0
 51
180.0
  0
LINE
  5
3C4
100
AcDbEntity
  8
0
370
    -3
  6
Continuous
100
AcDbLine
 10
-80.073417
 20
9.456475
 30
0.0
 11
-80.073417
 21
24.456475
 31
0.0
  0
LINE
  5
3C5
100
AcDbEntity
  8
0
370
    -3
  6
Continuous
100
AcDbLine
 10
-6.073417
 20
-17.543525
 30
0.0
 11
24.926583
 21
-17.543525
 31
0.0
  0
LINE
  5
3C6
100
AcDbEntity
  8
0
370
    -3
  6
Continuous
100
AcDbLine
 10
-6.073417
 20
-17.543525
 30
0.0
 11
-37.073417
 21
-17.543525
 31
0.0
  0
LINE
  5
3C7
100
AcDbEntity
  8
0
370
    -3
  6
Continuous
100
AcDbLine
 10
-37.073417
 20
-17.543525
 30
0.0
 11
24.926583
 21
-17.543525
 31
0.0
  0
ARC
  5
3C8
100
AcDbEntity
  8
0
370
    -3
  6
Continuous
100
AcDbCircle
 10
-35.338329
 20
-15.843525
 30
0.0
 40
0.3
100
AcDbArc
 50
13.342364
 51
90.0
  0
ARC
  5
3C9
100
AcDbEntity
  8
0
370
    -3
  6
Continuous
100
AcDbCircle
 10
23.191494
 20
-15.843525
 30
0.0
 40
0.3
100
AcDbArc
 50
90.0
 51
166.657636
  0
ARC
  5
3CA
100
AcDbEntity
  8
0
370
    -3
  6
Continuous
100
AcDbCircle
 10
-44.273417
 20
-8.743525
 30
0.0
 40
6.8
100
AcDbArc
 50
180.0
 51
270.0
  0
ARC
  5
3CB
100
AcDbEntity
  8
0
370
    -3
  6
Continuous
100
AcDbCircle
 10
25.364736
 20
-11.743525
 30
0.0
 40
3.8
100
AcDbArc
 50
270.0
 51
335.0
  0
LINE
  5
3CC
100
AcDbEntity
  8
0
370
    -3
  6
Continuous
100
AcDbLine
 10
-57.957004
 20
33.888336
 30
0.0
 11
-59.647477
 21
30.263105
 31
0.0
  0
ARC
  5
3CD
100
AcDbEntity
  8
0
370
    -3
  6
Continuous
100
AcDbCircle
 10
-56.32565
 20
33.127623
 30
0.0
 40
1.8
100
AcDbArc
 50
65.0
 51
155.0
  0
LINE
  5
3CE
100
AcDbEntity
  8
0
370
    -3
  6
Continuous
100
AcDbLine
 10
38.655406
 20
-11.162771
 30
0.0
 11
36.964933
 21
-14.788002
 31
0.0
  0
ARC
  5
3CF
100
AcDbEntity
  8
0
370
    -3
  6
Continuous
100
AcDbCircle
 10
37.024052
 20
-10.402058
 30
0.0
 40
1.8
100
AcDbArc
 50
335.0
 51
65.0
  0
LINE
  5
3D0
100
AcDbEntity
  8
0
370
    -3
  6
CENTER
100
AcDbLine
 10
31.089244
 20
-8.932085
 30
0.0
 11
33.959165
 21
-2.77752
 31
0.0
  0
POINT
  5
3D1
100
AcDbEntity
  8
0
370
    -3
  6
Continuous
100
AcDbPoint
 10
32.323208
 20
-6.223938
 30
0.0
  0
LINE
  5
3D2
100
AcDbEntity
  8
0
370
    -3
  6
CENTER
100
AcDbLine
 10
-51.384765
 20
29.526177
 30
0.0
 11
-48.514844
 21
35.680741
 31
0.0
  0
ARC
  5
3D3
100
AcDbEntity
  8
0
370
    -3
  6
Continuous
100
AcDbCircle
 10
13.436678
 20
21.740172
 30
0.0
 40
10.8
100
AcDbArc
 50
17.658425
 51
87.562495
  0
ARC
  5
3D4
100
AcDbEntity
  8
0
370
    -3
  6
Continuous
100
AcDbCircle
 10
-52.831847
 20
26.422898
 30
0.0
 40
9.0
100
AcDbArc
 50
48.398452
 51
81.601531
  0
POINT
  5
3D5
100
AcDbEntity
  8
0
370
    -3
  6
Continuous
100
AcDbPoint
 10
-50.127091
 20
32.223267
 30
0.0
  0
LINE
  5
3D6
100
AcDbEntity
  8
0
370
    -3
  6
Continuous
100
AcDbLine
 10
-46.955013
 20
30.744103
 30
0.0
 11
-46.541259
 21
31.631402
 31
0.0
  0
LINE
  5
3D7
100
AcDbEntity
  8
0
370
    -3
  6
Continuous
100
AcDbLine
 10
-53.299168
 20
33.702431
 30
0.0
 11
-52.885414
 21
34.58973
 31
0.0
  0
ARC
  5
3D8
100
AcDbEntity
  8
0
370
    -3
  6
Continuous
100
AcDbCircle
 10
-47.719459
 20
32.180805
 30
0.0
 40
1.299999
100
AcDbArc
 50
334.999982
 51
48.398452
  0
ARC
  5
3D9
100
AcDbEntity
  8
0
370
    -3
  6
Continuous
100
AcDbCircle
 10
-51.707214
 20
34.040326
 30
0.0
 40
1.299999
100
AcDbArc
 50
81.601531
 51
155.000001
  0
LINE
  5
3DA
100
AcDbEntity
  8
0
370
    -3
  6
Continuous
100
AcDbLine
 10
35.518995
 20
-7.714158
 30
0.0
 11
35.932749
 21
-6.82686
 31
0.0
  0
LINE
  5
3DB
100
AcDbEntity
  8
0
370
    -3
  6
CENTER
100
AcDbLine
 10
31.089244
 20
-8.932085
 30
0.0
 11
33.959165
 21
-2.77752
 31
0.0
  0
ARC
  5
3DC
100
AcDbEntity
  8
0
370
    -3
  6
Continuous
100
AcDbCircle
 10
34.75455
 20
-6.277457
 30
0.0
 40
1.299999
100
AcDbArc
 50
334.999982
 51
48.398452
  0
ARC
  5
3DD
100
AcDbEntity
  8
0
370
    -3
  6
Continuous
100
AcDbCircle
 10
29.642161
 20
-12.035364
 30
0.0
 40
9.0
100
AcDbArc
 50
48.398452
 51
81.601531
  0
LINE
  5
3DE
100
AcDbEntity
  8
0
370
    -3
  6
Continuous
100
AcDbLine
 10
29.174841
 20
-4.755831
 30
0.0
 11
29.588595
 21
-3.868532
 31
0.0
  0
ARC
  5
3DF
100
AcDbEntity
  8
0
370
    -3
  6
Continuous
100
AcDbCircle
 10
30.766794
 20
-4.417936
 30
0.0
 40
1.299999
100
AcDbArc
 50
81.601531
 51
155.000001
  0
LINE
  5
3E0
100
AcDbEntity
  8
0
370
    -3
  6
Continuous
100
AcDbLine
 10
24.926583
 20
-17.543525
 30
0.0
 11
24.926583
 21
-16.543525
 31
0.0
  0
LINE
  5
3E1
100
AcDbEntity
  8
0
370
    -3
  6
Continuous
100
AcDbLine
 10
-37.073417
 20
-17.543525
 30
0.0
 11
-37.073417
 21
-16.543525
 31
0.0
  0
LINE
  5
3E2
100
AcDbEntity
  8
0
370
    -3
  6
Continuous
100
AcDbLine
 10
-37.073417
 20
-16.543525
 30
0.0
 11
24.926583
 21
-16.543525
 31
0.0
  0
LINE
  5
3E3
100
AcDbEntity
  8
0
370
    -3
  6
CENTER
100
AcDbLine
 10
-82.552041
 20
9.456475
 30
0.0
 11
-42.245555
 21
9.456475
 31
0.0
  0
LINE
  5
3E4
100
AcDbEntity
  8
0
370
    -3
  6
Continuous
100
AcDbLine
 10
37.784765
 20
-8.770704
 30
0.0
 11
-55.564937
 21
34.758977
 31
0.0
  0
ARC
  5
3E5
100
AcDbEntity
  8
0
370
    -3
  6
Continuous
100
AcDbCircle
 10
24.847558
 20
0.572148
 30
0.0
 40
3.0
100
AcDbArc
 50
155.0
 51
245.0
  0
LINE
  5
3E6
100
AcDbEntity
  8
0
370
    -3
  6
Continuous
100
AcDbLine
 10
26.864061
 20
11.995158
 30
0.0
 11
22.128635
 21
1.840003
 31
0.0
  0
ARC
  5
3E7
100
AcDbEntity
  8
0
370
    -3
  6
Continuous
100
AcDbCircle
 10
-34.160406
 20
29.850393
 30
0.0
 40
2.8
100
AcDbArc
 50
92.156727
 51
155.0
  0
LINE
  5
3E8
100
AcDbEntity
  8
0
370
    -3
  6
Continuous
100
AcDbLine
 10
-37.373098
 20
29.586117
 30
0.0
 11
-36.698067
 21
31.033724
 31
0.0
  0
ARC
  5
3E9
100
AcDbEntity
  8
0
370
    -3
  6
Continuous
100
AcDbCircle
 10
-40.092021
 20
30.853971
 30
0.0
 40
3.0
100
AcDbArc
 50
245.0
 51
335.0
  0
ARC
  5
3EA
100
AcDbEntity
  8
0
370
    -3
  6
Continuous
100
AcDbCircle
 10
24.326399
 20
13.178489
 30
0.0
 40
2.8
100
AcDbArc
 50
335.0
 51
15.454189
  0
ARC
  5
3EB
100
AcDbEntity
  8
0
370
    -3
  6
Continuous
100
AcDbCircle
 10
-11.655816
 20
-567.725999
 30
0.0
 40
600.8
100
AcDbArc
 50
87.562495
 51
93.317592
  0
ARC
  5
3EC
100
AcDbEntity
  8
0
370
    -3
  6
Continuous
100
AcDbCircle
 10
-262.899057
 20
-66.228922
 30
0.0
 40
300.8
100
AcDbArc
 50
12.10025
 51
17.658425
  0
ARC
  5
3ED
100
AcDbEntity
  8
0
370
    -3
  6
Continuous
100
AcDbCircle
 10
11.241499
 20
-11.743525
 30
0.0
 40
3.8
100
AcDbArc
 50
270.0
 51
335.0
  0
LINE
  5
3EE
100
AcDbEntity
  8
0
370
    -3
  6
Continuous
100
AcDbLine
 10
18.113731
 20
-5.997542
 30
0.0
 11
14.685468
 21
-13.349475
 31
0.0
  0
LINE
  5
3EF
100
AcDbEntity
  8
0
370
    -3
  6
Continuous
100
AcDbLine
 10
36.964933
 20
-14.788002
 30
0.0
 11
-51.484133
 21
26.456475
 31
0.0
  0
LINE
  5
3F0
100
AcDbEntity
  8
0
370
    -3
  6
Continuous
100
AcDbLine
 10
-51.484133
 20
26.456475
 30
0.0
 11
-59.647477
 21
30.263105
 31
0.0
  0
LINE
  5
3F1
100
AcDbEntity
  8
0
370
    -3
  6
Continuous
100
AcDbLine
 10
-51.073417
 20
26.264955
 30
0.0
 11
-51.073417
 21
-8.743525
 31
0.0
  0
LINE
  5
3F2
100
AcDbEntity
  8
0
370
    -3
  6
Continuous
100
AcDbLine
 10
29.714471
 20
-11.407056
 30
0.0
 11
28.808706
 21
-13.349475
 31
0.0
  0
ARC
  5
3F3
100
AcDbEntity
  8
0
370
    -3
  6
Continuous
100
AcDbCircle
 10
21.926583
 20
-15.543525
 30
0.0
 40
1.0
100
AcDbArc
 50
270.0
 51
346.657636
  0
LINE
  5
3F4
100
AcDbEntity
  8
0
370
    -3
  6
Continuous
100
AcDbLine
 10
-44.273417
 20
-15.543525
 30
0.0
 11
25.364736
 21
-15.543525
 31
0.0
  0
ARC
  5
3F5
100
AcDbEntity
  8
0
370
    -3
  6
Continuous
100
AcDbCircle
 10
-34.073417
 20
-15.543525
 30
0.0
 40
1.0
100
AcDbArc
 50
193.342364
 51
270.0
  0
LINE
  5
3F6
100
AcDbEntity
  8
0
370
    -3
  6
Continuous
100
AcDbLine
 10
-39.397724
 20
20.82049
 30
0.0
 11
-39.397724
 21
-12.543525
 31
0.0
  0
ARC
  5
3F7
100
AcDbEntity
  8
0
370
    -3
  6
Continuous
100
AcDbCircle
 10
-36.397724
 20
-12.543525
 30
0.0
 40
3.0
100
AcDbArc
 50
180.0
 51
270.0
  0
LINE
  5
3F8
100
AcDbEntity
  8
0
370
    -3
  6
CENTER
100
AcDbLine
 10
-6.073417
 20
-28.320942
 30
0.0
 11
-6.073417
 21
-5.410966
 31
0.0
  0
LINE
  5
3F9
100
AcDbEntity
  8
0
370
    -3
  6
CENTER
100
AcDbLine
 10
-6.073417
 20
-28.320942
 30
0.0
 11
-6.073417
 21
-5.410966
 31
0.0
  0
POINT
  5
3FA
100
AcDbEntity
  8
0
370
    -3
  6
CENTER
100
AcDbPoint
 10
-79.573417
 20
-3.764025
 30
0.0
  0
POINT
  5
3FB
100
AcDbEntity
  8
0
370
    -3
  6
CENTER
100
AcDbPoint
 10
-79.573417
 20
22.676975
 30
0.0
  0
LINE
  5
3FC
100
AcDbEntity
  8
0
370
    -3
  6
Continuous
100
AcDbLine
 10
19.962301
 20
-27.105543
 30
0.0
 11
20.352805
 21
-23.981508
 31
0.0
  0
ARC
  5
3FD
100
AcDbEntity
  8
0
370
    -3
  6
Continuous
100
AcDbCircle
 10
19.466162
 20
-27.043525
 30
0.0
 40
0.5
100
AcDbArc
 50
270.0
 51
352.874984
  0
LINE
  5
3FE
100
AcDbEntity
  8
0
370
    -3
  6
Continuous
100
AcDbLine
 10
12.852805
 20
-27.105543
 30
0.0
 11
12.462301
 21
-23.981508
 31
0.0
  0
LINE
  5
3FF
100
AcDbEntity
  8
0
370
    -3
  6
CENTER
100
AcDbLine
 10
-6.073425
 20
314.396608
 30
0.0
 11
-6.073425
 21
207.468912
 31
0.0
  0
LINE
  5
400
100
AcDbEntity
  8
0
370
    -3
  6
Continuous
100
AcDbLine
 10
-36.628949
 20
223.064389
 30
0.0
 11
18.867107
 21
223.064389
 31
0.0
  0
ARC
  5
401
100
AcDbEntity
  8
0
370
    -3
  6
Continuous
100
AcDbCircle
 10
-51.847485
 20
300.614389
 30
0.0
 40
7.8
100
AcDbArc
 50
90.0
 51
180.0
  0
ARC
  5
402
100
AcDbEntity
  8
0
370
    -3
  6
Continuous
100
AcDbCircle
 10
-49.396299
 20
300.614389
 30
0.0
 40
7.8
100
AcDbArc
 50
90.0
 51
180.0
  0
ARC
  5
403
100
AcDbEntity
  8
0
370
    -3
  6
Continuous
100
AcDbCircle
 10
-36.628949
 20
296.364389
 30
0.0
 40
3.8
100
AcDbArc
 50
90.0
 51
138.609573
  0
ELLIPSE
  5
404
100
AcDbEntity
  8
0
370
    -3
  6
Continuous
100
AcDbEllipse
 10
-49.859322
 20
301.114389
 30
0.0
 11
0.0
 21
3.5
 31
0.0
210
0.0
220
0.0
230
1.0
 40
0.982815
 41
0.0
 42
6.2831853071795862
  0
LINE
  5
405
100
AcDbEntity
  8
0
370
    -3
  6
Continuous
100
AcDbLine
 10
-50.936011
 20
303.114389
 30
0.0
 11
-49.028291
 21
301.114389
 31
0.0
  0
LINE
  5
406
100
AcDbEntity
  8
0
370
    -3
  6
Continuous
100
AcDbLine
 10
-49.028291
 20
301.114389
 30
0.0
 11
-47.31078
 21
299.114389
 31
0.0
  0
LINE
  5
407
100
AcDbEntity
  8
0
370
    -3
  6
Continuous
100
AcDbLine
 10
-47.31078
 20
303.114389
 30
0.0
 11
-49.028291
 21
301.114389
 31
0.0
  0
LINE
  5
408
100
AcDbEntity
  8
0
370
    -3
  6
Continuous
100
AcDbLine
 10
-49.028291
 20
301.114389
 30
0.0
 11
-50.936011
 21
299.114389
 31
0.0
  0
ARC
  5
409
100
AcDbEntity
  8
0
370
    -3
  6
Continuous
100
AcDbCircle
 10
31.024044
 20
300.614389
 30
0.0
 40
7.8
100
AcDbArc
 50
0.0
 51
90.0
  0
LINE
  5
40A
100
AcDbEntity
  8
0
370
    -3
  6
Continuous
100
AcDbLine
 10
31.024044
 20
308.414389
 30
0.0
 11
-51.847485
 21
308.414389
 31
0.0
  0
ARC
  5
40B
100
AcDbEntity
  8
0
370
    -3
  6
Continuous
100
AcDbCircle
 10
18.867107
 20
296.364389
 30
0.0
 40
3.8
100
AcDbArc
 50
41.85078
 51
90.0
  0
LINE
  5
40C
100
AcDbEntity
  8
0
370
    -3
  6
Continuous
100
AcDbLine
 10
21.69767
 20
298.899722
 30
0.0
 11
30.836497
 21
288.696713
 31
0.0
  0
ARC
  5
40D
100
AcDbEntity
  8
0
370
    -3
  6
Continuous
100
AcDbCircle
 10
28.005934
 20
286.16138
 30
0.0
 40
3.8
100
AcDbArc
 50
0.0
 51
41.85078
  0
LINE
  5
40E
100
AcDbEntity
  8
0
370
    -3
  6
Continuous
100
AcDbLine
 10
-36.628949
 20
300.164389
 30
0.0
 11
18.867107
 21
300.164389
 31
0.0
  0
ARC
  5
40F
100
AcDbEntity
  8
0
370
    -3
  6
Continuous
100
AcDbCircle
 10
11.352527
 20
290.164389
 30
0.0
 40
10.0
100
AcDbArc
 50
0.0
 51
90.0
  0
ELLIPSE
  5
410
100
AcDbEntity
  8
0
370
    -3
  6
Continuous
100
AcDbEllipse
 10
32.614687
 20
301.114389
 30
0.0
 11
0.0
 21
3.5
 31
0.0
210
0.0
220
0.0
230
1.0
 40
0.982815
 41
0.0
 42
6.2831853071795862
  0
LINE
  5
411
100
AcDbEntity
  8
0
370
    -3
  6
Continuous
100
AcDbLine
 10
31.537998
 20
303.114389
 30
0.0
 11
33.445718
 21
301.114389
 31
0.0
  0
LINE
  5
412
100
AcDbEntity
  8
0
370
    -3
  6
Continuous
100
AcDbLine
 10
33.445718
 20
301.114389
 30
0.0
 11
35.163229
 21
299.114389
 31
0.0
  0
LINE
  5
413
100
AcDbEntity
  8
0
370
    -3
  6
Continuous
100
AcDbLine
 10
35.163229
 20
303.114389
 30
0.0
 11
33.445718
 21
301.114389
 31
0.0
  0
LINE
  5
414
100
AcDbEntity
  8
0
370
    -3
  6
Continuous
100
AcDbLine
 10
33.445718
 20
301.114389
 30
0.0
 11
31.537998
 21
299.114389
 31
0.0
  0
LINE
  5
415
100
AcDbEntity
  8
0
370
    -3
  6
Continuous
100
AcDbLine
 10
38.824044
 20
261.614389
 30
0.0
 11
38.824044
 21
300.614389
 31
0.0
  0
LINE
  5
416
100
AcDbEntity
  8
0
370
    -3
  6
Continuous
100
AcDbLine
 10
31.805934
 20
261.614389
 30
0.0
 11
31.805934
 21
286.16138
 31
0.0
  0
LINE
  5
417
100
AcDbEntity
  8
0
370
    -3
  6
Continuous
100
AcDbLine
 10
21.352527
 20
261.614389
 30
0.0
 11
21.352527
 21
290.164389
 31
0.0
  0
LINE
  5
418
100
AcDbEntity
  8
0
370
    -3
  6
Continuous
100
AcDbLine
 10
38.824044
 20
261.614389
 30
0.0
 11
38.824044
 21
222.614389
 31
0.0
  0
LINE
  5
419
100
AcDbEntity
  8
0
370
    -3
  6
Continuous
100
AcDbLine
 10
31.024044
 20
214.814389
 30
0.0
 11
-51.847485
 21
214.814389
 31
0.0
  0
ARC
  5
41A
100
AcDbEntity
  8
0
370
    -3
  6
Continuous
100
AcDbCircle
 10
31.024044
 20
222.614389
 30
0.0
 40
7.8
100
AcDbArc
 50
270.0
 51
360.0
  0
ARC
  5
41B
100
AcDbEntity
  8
0
370
    -3
  6
Continuous
100
AcDbCircle
 10
18.867107
 20
226.864389
 30
0.0
 40
3.8
100
AcDbArc
 50
270.0
 51
318.14922
  0
LINE
  5
41C
100
AcDbEntity
  8
0
370
    -3
  6
Continuous
100
AcDbLine
 10
21.69767
 20
224.329056
 30
0.0
 11
30.836497
 21
234.532065
 31
0.0
  0
ARC
  5
41D
100
AcDbEntity
  8
0
370
    -3
  6
Continuous
100
AcDbCircle
 10
28.005934
 20
237.067398
 30
0.0
 40
3.8
100
AcDbArc
 50
318.14922
 51
360.0
  0
LINE
  5
41E
100
AcDbEntity
  8
0
370
    -3
  6
Continuous
100
AcDbLine
 10
31.805934
 20
261.614389
 30
0.0
 11
31.805934
 21
237.067398
 31
0.0
  0
ARC
  5
41F
100
AcDbEntity
  8
0
370
    -3
  6
Continuous
100
AcDbCircle
 10
11.352527
 20
233.064389
 30
0.0
 40
10.0
100
AcDbArc
 50
270.0
 51
360.0
  0
LINE
  5
420
100
AcDbEntity
  8
0
370
    -3
  6
Continuous
100
AcDbLine
 10
21.352527
 20
261.614389
 30
0.0
 11
21.352527
 21
233.064389
 31
0.0
  0
ELLIPSE
  5
421
100
AcDbEntity
  8
0
370
    -3
  6
Continuous
100
AcDbEllipse
 10
32.614687
 20
222.114389
 30
0.0
 11
0.0000000000002061
 21
3.5
 31
0.0
210
0.0
220
0.0
230
1.0
 40
0.982815
 41
0.0
 42
6.2831853071795862
  0
LINE
  5
422
100
AcDbEntity
  8
0
370
    -3
  6
Continuous
100
AcDbLine
 10
31.537998
 20
220.114389
 30
0.0
 11
33.445718
 21
222.114389
 31
0.0
  0
LINE
  5
423
100
AcDbEntity
  8
0
370
    -3
  6
Continuous
100
AcDbLine
 10
33.445718
 20
222.114389
 30
0.0
 11
35.163229
 21
224.114389
 31
0.0
  0
LINE
  5
424
100
AcDbEntity
  8
0
370
    -3
  6
Continuous
100
AcDbLine
 10
35.163229
 20
220.114389
 30
0.0
 11
33.445718
 21
222.114389
 31
0.0
  0
LINE
  5
425
100
AcDbEntity
  8
0
370
    -3
  6
Continuous
100
AcDbLine
 10
33.445718
 20
222.114389
 30
0.0
 11
31.537998
 21
224.114389
 31
0.0
  0
ARC
  5
426
100
AcDbEntity
  8
0
370
    -3
  6
Continuous
100
AcDbCircle
 10
-51.847485
 20
222.614389
 30
0.0
 40
7.8
100
AcDbArc
 50
180.0
 51
270.0
  0
ARC
  5
427
100
AcDbEntity
  8
0
370
    -3
  6
Continuous
100
AcDbCircle
 10
-49.396299
 20
222.614389
 30
0.0
 40
7.8
100
AcDbArc
 50
180.0
 51
270.0
  0
ARC
  5
428
100
AcDbEntity
  8
0
370
    -3
  6
Continuous
100
AcDbCircle
 10
-36.628949
 20
226.864389
 30
0.0
 40
3.8
100
AcDbArc
 50
221.390427
 51
270.0
  0
LINE
  5
429
100
AcDbEntity
  8
0
370
    -3
  6
Continuous
100
AcDbLine
 10
-39.479791
 20
224.35188
 30
0.0
 11
-48.456527
 21
234.537418
 31
0.0
  0
ARC
  5
42A
100
AcDbEntity
  8
0
370
    -3
  6
Continuous
100
AcDbCircle
 10
-45.605685
 20
237.049927
 30
0.0
 40
3.8
100
AcDbArc
 50
180.0
 51
221.390427
  0
ELLIPSE
  5
42B
100
AcDbEntity
  8
0
370
    -3
  6
Continuous
100
AcDbEllipse
 10
-49.859322
 20
222.114389
 30
0.0
 11
0.0000000000002061
 21
3.5
 31
0.0
210
0.0
220
0.0
230
1.0
 40
0.982815
 41
0.0
 42
6.2831853071795862
  0
LINE
  5
42C
100
AcDbEntity
  8
0
370
    -3
  6
Continuous
100
AcDbLine
 10
-50.936011
 20
220.114389
 30
0.0
 11
-49.028291
 21
222.114389
 31
0.0
  0
LINE
  5
42D
100
AcDbEntity
  8
0
370
    -3
  6
Continuous
100
AcDbLine
 10
-49.028291
 20
222.114389
 30
0.0
 11
-47.31078
 21
224.114389
 31
0.0
  0
LINE
  5
42E
100
AcDbEntity
  8
0
370
    -3
  6
Continuous
100
AcDbLine
 10
-47.31078
 20
220.114389
 30
0.0
 11
-49.028291
 21
222.114389
 31
0.0
  0
LINE
  5
42F
100
AcDbEntity
  8
0
370
    -3
  6
Continuous
100
AcDbLine
 10
-49.028291
 20
222.114389
 30
0.0
 11
-50.936011
 21
224.114389
 31
0.0
  0
LINE
  5
430
100
AcDbEntity
  8
0
370
    -3
  6
Continuous
100
AcDbLine
 10
-47.573425
 20
220.170215
 30
0.0
 11
-47.073425
 21
220.170215
 31
0.0
  0
LINE
  5
431
100
AcDbEntity
  8
0
370
    -3
  6
Continuous
100
AcDbLine
 10
-59.647485
 20
261.614389
 30
0.0
 11
-59.647485
 21
222.614389
 31
0.0
  0
LINE
  5
432
100
AcDbEntity
  8
0
370
    -3
  6
Continuous
100
AcDbLine
 10
-57.196299
 20
261.614389
 30
0.0
 11
-57.196299
 21
222.614389
 31
0.0
  0
LINE
  5
433
100
AcDbEntity
  8
0
370
    -3
  6
Continuous
100
AcDbLine
 10
-49.405685
 20
261.614389
 30
0.0
 11
-49.405685
 21
237.049927
 31
0.0
  0
LINE
  5
434
100
AcDbEntity
  8
0
370
    -3
  6
Continuous
100
AcDbLine
 10
-78.073425
 20
244.614389
 30
0.0
 11
-59.647485
 21
244.614389
 31
0.0
  0
ARC
  5
435
100
AcDbEntity
  8
0
370
    -3
  6
Continuous
100
AcDbCircle
 10
-78.073425
 20
246.614389
 30
0.0
 40
2.0
100
AcDbArc
 50
180.0
 51
270.0
  0
LINE
  5
436
100
AcDbEntity
  8
0
370
    -3
  6
Continuous
100
AcDbLine
 10
-80.073425
 20
261.614389
 30
0.0
 11
-80.073425
 21
246.614389
 31
0.0
  0
POINT
  5
437
100
AcDbEntity
  8
0
370
    -3
  6
CENTER
100
AcDbPoint
 10
-80.073425
 20
248.393889
 30
0.0
  0
LINE
  5
438
100
AcDbEntity
  8
0
370
    -3
  6
Continuous
100
AcDbLine
 10
-59.647485
 20
261.614389
 30
0.0
 11
-59.647485
 21
300.614389
 31
0.0
  0
LINE
  5
439
100
AcDbEntity
  8
0
370
    -3
  6
Continuous
100
AcDbLine
 10
-57.196299
 20
261.614389
 30
0.0
 11
-57.196299
 21
300.614389
 31
0.0
  0
LINE
  5
43A
100
AcDbEntity
  8
0
370
    -3
  6
Continuous
100
AcDbLine
 10
-78.073425
 20
278.614389
 30
0.0
 11
-59.647485
 21
278.614389
 31
0.0
  0
ARC
  5
43B
100
AcDbEntity
  8
0
370
    -3
  6
Continuous
100
AcDbCircle
 10
-78.073425
 20
276.614389
 30
0.0
 40
2.0
100
AcDbArc
 50
90.0
 51
180.0
  0
LINE
  5
43C
100
AcDbEntity
  8
0
370
    -3
  6
Continuous
100
AcDbLine
 10
-80.073425
 20
261.614389
 30
0.0
 11
-80.073425
 21
276.614389
 31
0.0
  0
POINT
  5
43D
100
AcDbEntity
  8
0
370
    -3
  6
CENTER
100
AcDbPoint
 10
-80.073425
 20
274.834889
 30
0.0
  0
ARC
  5
43E
100
AcDbEntity
  8
0
370
    -3
  6
Continuous
100
AcDbCircle
 10
-45.605685
 20
286.178851
 30
0.0
 40
3.8
100
AcDbArc
 50
138.609573
 51
180.0
  0
LINE
  5
43F
100
AcDbEntity
  8
0
370
    -3
  6
Continuous
100
AcDbLine
 10
-39.479791
 20
298.876898
 30
0.0
 11
-48.456527
 21
288.69136
 31
0.0
  0
LINE
  5
440
100
AcDbEntity
  8
0
370
    -3
  6
Continuous
100
AcDbLine
 10
-49.405685
 20
261.614389
 30
0.0
 11
-49.405685
 21
286.178851
 31
0.0
  0
POINT
  5
441
100
AcDbEntity
  8
0
370
    -3
  6
Continuous
100
AcDbPoint
 10
498.004639
 20
-34.621787
 30
0.0
  0
ARC
  5
442
100
AcDbEntity
  8
0
370
    -3
  6
DASHED
100
AcDbCircle
 10
547.926377
 20
9.456475
 30
0.0
 40
17.0
100
AcDbArc
 50
50.589023
 51
127.410977
  0
LINE
  5
443
100
AcDbEntity
  8
0
370
    -3
  6
Continuous
100
AcDbLine
 10
509.376377
 20
23.452162
 30
0.0
 11
509.376377
 21
26.274001
 31
0.0
  0
LINE
  5
444
100
AcDbEntity
  8
0
370
    -3
  6
Continuous
100
AcDbLine
 10
510.016394
 20
35.089495
 30
0.0
 11
508.426377
 21
34.579668
 31
0.0
  0
LINE
  5
445
100
AcDbEntity
  8
0
370
    -3
  6
Continuous
100
AcDbLine
 10
508.426377
 20
34.579668
 30
0.0
 11
510.426377
 21
33.53048
 31
0.0
  0
LINE
  5
446
100
AcDbEntity
  8
0
370
    -3
  6
Continuous
100
AcDbLine
 10
508.426377
 20
34.579668
 30
0.0
 11
506.426377
 21
33.53048
 31
0.0
  0
LINE
  5
447
100
AcDbEntity
  8
0
370
    -3
  6
Continuous
100
AcDbLine
 10
506.836361
 20
35.089495
 30
0.0
 11
508.426377
 21
34.579668
 31
0.0
  0
ELLIPSE
  5
448
100
AcDbEntity
  8
0
370
    -3
  6
Continuous
100
AcDbEllipse
 10
508.426377
 20
33.042214
 30
0.0
 11
3.5
 21
0.0
 31
0.0
210
0.0
220
0.0
230
1.0
 40
0.656603
 41
0.0
 42
6.2831853071795862
  0
ARC
  5
449
100
AcDbEntity
  8
0
370
    -3
  6
Continuous
100
AcDbCircle
 10
508.926377
 20
27.127623
 30
0.0
 40
7.8
100
AcDbArc
 50
118.12516
 51
180.0
  0
LINE
  5
44A
100
AcDbEntity
  8
0
370
    -3
  6
Continuous
100
AcDbLine
 10
501.126377
 20
27.127623
 30
0.0
 11
501.126377
 21
23.573475
 31
0.0
  0
ARC
  5
44B
100
AcDbEntity
  8
0
370
    -3
  6
Continuous
100
AcDbCircle
 10
516.176377
 20
26.274001
 30
0.0
 40
6.8
100
AcDbArc
 50
90.0
 51
180.0
  0
LINE
  5
44C
100
AcDbEntity
  8
0
370
    -3
  6
Continuous
100
AcDbLine
 10
579.676377
 20
33.074001
 30
0.0
 11
516.176377
 21
33.074001
 31
0.0
  0
ARC
  5
44D
100
AcDbEntity
  8
0
370
    -3
  6
Continuous
100
AcDbCircle
 10
579.676377
 20
26.274001
 30
0.0
 40
6.8
100
AcDbArc
 50
0.0
 51
90.0
  0
LINE
  5
44E
100
AcDbEntity
  8
0
370
    -3
  6
Continuous
100
AcDbLine
 10
594.726377
 20
27.127623
 30
0.0
 11
594.726377
 21
21.867228
 31
0.0
  0
LINE
  5
44F
100
AcDbEntity
  8
0
370
    -3
  6
Continuous
100
AcDbLine
 10
586.476377
 20
22.106376
 30
0.0
 11
586.476377
 21
26.274001
 31
0.0
  0
LINE
  5
450
100
AcDbEntity
  8
0
370
    -3
  6
Continuous
100
AcDbLine
 10
585.836361
 20
35.089495
 30
0.0
 11
587.426377
 21
34.579668
 31
0.0
  0
LINE
  5
451
100
AcDbEntity
  8
0
370
    -3
  6
Continuous
100
AcDbLine
 10
587.426377
 20
34.579668
 30
0.0
 11
585.426377
 21
33.53048
 31
0.0
  0
LINE
  5
452
100
AcDbEntity
  8
0
370
    -3
  6
Continuous
100
AcDbLine
 10
587.426377
 20
34.579668
 30
0.0
 11
589.426377
 21
33.53048
 31
0.0
  0
LINE
  5
453
100
AcDbEntity
  8
0
370
    -3
  6
Continuous
100
AcDbLine
 10
589.016394
 20
35.089495
 30
0.0
 11
587.426377
 21
34.579668
 31
0.0
  0
ELLIPSE
  5
454
100
AcDbEntity
  8
0
370
    -3
  6
Continuous
100
AcDbEllipse
 10
587.426377
 20
33.042214
 30
0.0
 11
3.5
 21
0.0
 31
0.0
210
0.0
220
0.0
230
1.0
 40
0.656603
 41
0.0
 42
6.2831853071795862
  0
ARC
  5
455
100
AcDbEntity
  8
0
370
    -3
  6
Continuous
100
AcDbCircle
 10
586.926377
 20
27.127623
 30
0.0
 40
7.8
100
AcDbArc
 50
0.0
 51
61.87484
  0
LINE
  5
456
100
AcDbEntity
  8
0
370
    -3
  6
Continuous
100
AcDbLine
 10
585.425196
 20
34.927623
 30
0.0
 11
510.427559
 21
34.927623
 31
0.0
  0
LINE
  5
457
100
AcDbEntity
  8
0
370
    -3
  6
Continuous
100
AcDbLine
 10
-299.241842
 20
-8.627376
 30
0.0
 11
-299.241842
 21
28.72922
 31
0.0
  0
ARC
  5
458
100
AcDbEntity
  8
0
370
    -3
  6
Continuous
100
AcDbCircle
 10
-306.041842
 20
-8.627376
 30
0.0
 40
6.8
100
AcDbArc
 50
270.0
 51
0.0
  0
ARC
  5
459
100
AcDbEntity
  8
0
370
    -3
  6
Continuous
100
AcDbCircle
 10
-346.104583
 20
-8.627376
 30
0.0
 40
6.8
100
AcDbArc
 50
180.0
 51
270.0
  0
LINE
  5
45A
100
AcDbEntity
  8
0
370
    -3
  6
Continuous
100
AcDbLine
 10
-352.904583
 20
-8.627376
 30
0.0
 11
-352.904583
 21
28.72922
 31
0.0
  0
LINE
  5
45B
100
AcDbEntity
  8
0
370
    -3
  6
Continuous
100
AcDbLine
 10
-326.073212
 20
30.379254
 30
0.0
 11
-287.073212
 21
30.379254
 31
0.0
  0
LINE
  5
45C
100
AcDbEntity
  8
0
370
    -3
  6
Continuous
100
AcDbLine
 10
-280.573212
 20
-5.917263
 30
0.0
 11
-280.573212
 21
25.639236
 31
0.0
  0
LINE
  5
45D
100
AcDbEntity
  8
0
370
    -3
  6
Continuous
100
AcDbLine
 10
-287.073212
 20
-14.671853
 30
0.0
 11
-290.45804
 21
-14.671853
 31
0.0
  0
LINE
  5
45E
100
AcDbEntity
  8
0
370
    -3
  6
Continuous
100
AcDbLine
 10
-289.874942
 20
-14.333758
 30
0.0
 11
-287.073212
 21
-14.333758
 31
0.0
  0
ELLIPSE
  5
45F
100
AcDbEntity
  8
0
370
    -3
  6
Continuous
100
AcDbEllipse
 10
-286.573212
 20
29.076709
 30
0.0
 11
2.0
 21
0.0000000000000107
 31
0.0
210
0.0
220
0.0
230
1.0
 40
0.422618
 41
0.0
 42
6.2831853071795862
  0
ELLIPSE
  5
460
100
AcDbEntity
  8
0
370
    -3
  6
Continuous
100
AcDbEllipse
 10
-286.573212
 20
29.076709
 30
0.0
 11
1.6500000000000341
 21
0.0000000000000071
 31
0.0
210
0.0
220
0.0
230
1.0
 40
0.422618
 41
0.0
 42
6.2831853071795862
  0
LINE
  5
461
100
AcDbEntity
  8
0
370
    -3
  6
CENTER
100
AcDbLine
 10
-283.708353
 20
29.076709
 30
0.0
 11
-289.319743
 21
29.076709
 31
0.0
  0
LINE
  5
462
100
AcDbEntity
  8
0
370
    -3
  6
CENTER
100
AcDbLine
 10
-286.573212
 20
26.683888
 30
0.0
 11
-286.573212
 21
31.128646
 31
0.0
  0
ARC
  5
463
100
AcDbEntity
  8
0
370
    -3
  6
Continuous
100
AcDbCircle
 10
-298.073212
 20
-15.427376
 30
0.0
 40
1.0
100
AcDbArc
 50
270.0
 51
346.657636
  0
ARC
  5
464
100
AcDbEntity
  8
0
370
    -3
  6
Continuous
100
AcDbCircle
 10
-296.808301
 20
-15.727376
 30
0.0
 40
0.3
100
AcDbArc
 50
90.0
 51
166.657636
  0
ARC
  5
465
100
AcDbEntity
  8
0
370
    -3
  6
Continuous
100
AcDbCircle
 10
-286.573212
 20
-5.917263
 30
0.0
 40
6.0
100
AcDbArc
 50
270.0
 51
0.0
  0
LINE
  5
466
100
AcDbEntity
  8
0
370
    -3
  6
Continuous
100
AcDbLine
 10
-287.622024
 20
-11.917263
 30
0.0
 11
-286.573212
 21
-11.917263
 31
0.0
  0
ARC
  5
467
100
AcDbEntity
  8
0
370
    -3
  6
Continuous
100
AcDbCircle
 10
-293.573212
 20
-8.627376
 30
0.0
 40
6.8
100
AcDbArc
 50
270.0
 51
0.0
  0
LINE
  5
468
100
AcDbEntity
  8
0
370
    -3
  6
Continuous
100
AcDbLine
 10
-326.073212
 20
-15.427376
 30
0.0
 11
-293.573212
 21
-15.427376
 31
0.0
  0
ARC
  5
469
100
AcDbEntity
  8
0
370
    -3
  6
Continuous
100
AcDbCircle
 10
-290.573212
 20
21.005482
 30
0.0
 40
3.8
100
AcDbArc
 50
0.0
 51
67.022625
  0
ARC
  5
46A
100
AcDbEntity
  8
0
370
    -3
  6
Continuous
100
AcDbCircle
 10
-300.014179
 20
25.008536
 30
0.0
 40
3.8
100
AcDbArc
 50
67.022625
 51
90.0
  0
LINE
  5
46B
100
AcDbEntity
  8
0
370
    -3
  6
Continuous
100
AcDbLine
 10
-298.530782
 20
28.50704
 30
0.0
 11
-289.089816
 21
24.503987
 31
0.0
  0
LINE
  5
46C
100
AcDbEntity
  8
0
370
    -3
  6
Continuous
100
AcDbLine
 10
-286.773212
 20
-8.627376
 30
0.0
 11
-286.773212
 21
21.005482
 31
0.0
  0
LINE
  5
46D
100
AcDbEntity
  8
0
370
    -3
  6
Continuous
100
AcDbLine
 10
-326.073212
 20
28.808536
 30
0.0
 11
-300.014179
 21
28.808536
 31
0.0
  0
LINE
  5
46E
100
AcDbEntity
  8
0
370
    -3
  6
Continuous
100
AcDbLine
 10
-326.073212
 20
-16.427376
 30
0.0
 11
-298.073212
 21
-16.427376
 31
0.0
  0
ARC
  5
46F
100
AcDbEntity
  8
0
370
    -3
  6
Continuous
100
AcDbCircle
 10
-287.073212
 20
-7.333758
 30
0.0
 40
7.0
100
AcDbArc
 50
270.0
 51
0.0
  0
LINE
  5
470
100
AcDbEntity
  8
0
370
    -3
  6
Continuous
100
AcDbLine
 10
-295.073212
 20
-17.427376
 30
0.0
 11
-295.073212
 21
-16.427376
 31
0.0
  0
LINE
  5
471
100
AcDbEntity
  8
0
370
    -3
  6
Continuous
100
AcDbLine
 10
-295.073212
 20
-16.427376
 30
0.0
 11
-326.073212
 21
-16.427376
 31
0.0
  0
LINE
  5
472
100
AcDbEntity
  8
0
370
    -3
  6
Continuous
100
AcDbLine
 10
-326.073212
 20
-17.427376
 30
0.0
 11
-295.073212
 21
-17.427376
 31
0.0
  0
LINE
  5
473
100
AcDbEntity
  8
0
370
    -3
  6
Continuous
100
AcDbLine
 10
-287.073212
 20
35.043772
 30
0.0
 11
-326.073212
 21
35.043772
 31
0.0
  0
LINE
  5
474
100
AcDbEntity
  8
0
370
    -3
  6
Continuous
100
AcDbLine
 10
-326.073212
 20
30.041159
 30
0.0
 11
-287.073212
 21
30.041159
 31
0.0
  0
LINE
  5
475
100
AcDbEntity
  8
0
370
    -3
  6
Continuous
100
AcDbLine
 10
-279.273212
 20
27.243772
 30
0.0
 11
-279.273212
 21
-6.871853
 31
0.0
  0
ELLIPSE
  5
476
100
AcDbEntity
  8
0
370
    -3
  6
Continuous
100
AcDbEllipse
 10
-286.573212
 20
33.158364
 30
0.0
 11
3.5
 21
0.0
 31
0.0
210
0.0
220
0.0
230
1.0
 40
0.656603
 41
0.4330509754535478
 42
2.1794532890791989
  0
ARC
  5
477
100
AcDbEntity
  8
0
370
    -3
  6
Continuous
100
AcDbCircle
 10
-287.073212
 20
27.243772
 30
0.0
 40
7.8
100
AcDbArc
 50
0.0
 51
90.0
  0
ARC
  5
478
100
AcDbEntity
  8
0
370
    -3
  6
Continuous
100
AcDbCircle
 10
-287.073212
 20
22.579254
 30
0.0
 40
7.8
100
AcDbArc
 50
0.0
 51
90.0
  0
ARC
  5
479
100
AcDbEntity
  8
0
370
    -3
  6
Continuous
100
AcDbCircle
 10
-287.073212
 20
23.041159
 30
0.0
 40
7.0
100
AcDbArc
 50
0.0
 51
90.0
  0
LINE
  5
47A
100
AcDbEntity
  8
0
370
    -3
  6
Continuous
100
AcDbLine
 10
-280.073212
 20
23.041159
 30
0.0
 11
-280.073212
 21
-7.333758
 31
0.0
  0
ARC
  5
47B
100
AcDbEntity
  8
0
370
    -3
  6
Continuous
100
AcDbCircle
 10
-287.073212
 20
-6.871853
 30
0.0
 40
7.8
100
AcDbArc
 50
270.0
 51
0.0
  0
LINE
  5
47C
100
AcDbEntity
  8
0
370
    -3
  6
CENTER
100
AcDbLine
 10
-307.42828
 20
9.572624
 30
0.0
 11
-347.373669
 21
9.572624
 31
0.0
  0
LINE
  5
47D
100
AcDbEntity
  8
0
370
    -3
  6
Continuous
100
AcDbLine
 10
-326.073212
 20
30.379254
 30
0.0
 11
-365.073212
 21
30.379254
 31
0.0
  0
LINE
  5
47E
100
AcDbEntity
  8
0
370
    -3
  6
Continuous
100
AcDbLine
 10
-371.573212
 20
-5.917263
 30
0.0
 11
-371.573212
 21
25.639236
 31
0.0
  0
LINE
  5
47F
100
AcDbEntity
  8
0
370
    -3
  6
Continuous
100
AcDbLine
 10
-365.073212
 20
-14.671853
 30
0.0
 11
-361.688385
 21
-14.671853
 31
0.0
  0
LINE
  5
480
100
AcDbEntity
  8
0
370
    -3
  6
Continuous
100
AcDbLine
 10
-362.271483
 20
-14.333758
 30
0.0
 11
-365.073212
 21
-14.333758
 31
0.0
  0
ELLIPSE
  5
481
100
AcDbEntity
  8
0
370
    -3
  6
Continuous
100
AcDbEllipse
 10
-365.573212
 20
29.076709
 30
0.0
 11
-2.0
 21
0.0000000000000107
 31
0.0
210
0.0
220
0.0
230
1.0
 40
0.422618
 41
0.0
 42
6.2831853071795862
  0
ELLIPSE
  5
482
100
AcDbEntity
  8
0
370
    -3
  6
Continuous
100
AcDbEllipse
 10
-365.573212
 20
29.076709
 30
0.0
 11
-1.6500000000000341
 21
0.0000000000000107
 31
0.0
210
0.0
220
0.0
230
1.0
 40
0.422618
 41
0.0
 42
6.2831853071795862
  0
LINE
  5
483
100
AcDbEntity
  8
0
370
    -3
  6
CENTER
100
AcDbLine
 10
-368.438072
 20
29.076709
 30
0.0
 11
-362.826681
 21
29.076709
 31
0.0
  0
LINE
  5
484
100
AcDbEntity
  8
0
370
    -3
  6
CENTER
100
AcDbLine
 10
-365.573212
 20
26.683888
 30
0.0
 11
-365.573212
 21
31.128646
 31
0.0
  0
ARC
  5
485
100
AcDbEntity
  8
0
370
    -3
  6
Continuous
100
AcDbCircle
 10
-354.073212
 20
-15.427376
 30
0.0
 40
1.0
100
AcDbArc
 50
193.342364
 51
270.0
  0
ARC
  5
486
100
AcDbEntity
  8
0
370
    -3
  6
Continuous
100
AcDbCircle
 10
-355.338123
 20
-15.727376
 30
0.0
 40
0.3
100
AcDbArc
 50
13.342364
 51
90.0
  0
ARC
  5
487
100
AcDbEntity
  8
0
370
    -3
  6
Continuous
100
AcDbCircle
 10
-365.573212
 20
-5.917263
 30
0.0
 40
6.0
100
AcDbArc
 50
180.0
 51
270.0
  0
LINE
  5
488
100
AcDbEntity
  8
0
370
    -3
  6
Continuous
100
AcDbLine
 10
-364.524401
 20
-11.917263
 30
0.0
 11
-365.573212
 21
-11.917263
 31
0.0
  0
ARC
  5
489
100
AcDbEntity
  8
0
370
    -3
  6
Continuous
100
AcDbCircle
 10
-358.573212
 20
-8.627376
 30
0.0
 40
6.8
100
AcDbArc
 50
180.0
 51
270.0
  0
LINE
  5
48A
100
AcDbEntity
  8
0
370
    -3
  6
Continuous
100
AcDbLine
 10
-326.073212
 20
-15.427376
 30
0.0
 11
-358.573212
 21
-15.427376
 31
0.0
  0
ARC
  5
48B
100
AcDbEntity
  8
0
370
    -3
  6
Continuous
100
AcDbCircle
 10
-361.573212
 20
21.005482
 30
0.0
 40
3.8
100
AcDbArc
 50
112.977375
 51
180.0
  0
ARC
  5
48C
100
AcDbEntity
  8
0
370
    -3
  6
Continuous
100
AcDbCircle
 10
-352.132246
 20
25.008536
 30
0.0
 40
3.8
100
AcDbArc
 50
90.0
 51
112.977375
  0
LINE
  5
48D
100
AcDbEntity
  8
0
370
    -3
  6
Continuous
100
AcDbLine
 10
-353.615643
 20
28.50704
 30
0.0
 11
-363.056609
 21
24.503987
 31
0.0
  0
LINE
  5
48E
100
AcDbEntity
  8
0
370
    -3
  6
Continuous
100
AcDbLine
 10
-365.373212
 20
-8.627376
 30
0.0
 11
-365.373212
 21
21.005482
 31
0.0
  0
LINE
  5
48F
100
AcDbEntity
  8
0
370
    -3
  6
Continuous
100
AcDbLine
 10
-326.073212
 20
28.808536
 30
0.0
 11
-352.132246
 21
28.808536
 31
0.0
  0
LINE
  5
490
100
AcDbEntity
  8
0
370
    -3
  6
Continuous
100
AcDbLine
 10
-326.073212
 20
-16.427376
 30
0.0
 11
-354.073212
 21
-16.427376
 31
0.0
  0
ARC
  5
491
100
AcDbEntity
  8
0
370
    -3
  6
Continuous
100
AcDbCircle
 10
-365.073212
 20
-7.333758
 30
0.0
 40
7.0
100
AcDbArc
 50
180.0
 51
270.0
  0
LINE
  5
492
100
AcDbEntity
  8
0
370
    -3
  6
Continuous
100
AcDbLine
 10
-357.073212
 20
-17.427376
 30
0.0
 11
-357.073212
 21
-16.427376
 31
0.0
  0
LINE
  5
493
100
AcDbEntity
  8
0
370
    -3
  6
Continuous
100
AcDbLine
 10
-357.073212
 20
-16.427376
 30
0.0
 11
-326.073212
 21
-16.427376
 31
0.0
  0
LINE
  5
494
100
AcDbEntity
  8
0
370
    -3
  6
Continuous
100
AcDbLine
 10
-326.073212
 20
-17.427376
 30
0.0
 11
-357.073212
 21
-17.427376
 31
0.0
  0
LINE
  5
495
100
AcDbEntity
  8
0
370
    -3
  6
Continuous
100
AcDbLine
 10
-365.073212
 20
35.043772
 30
0.0
 11
-326.073212
 21
35.043772
 31
0.0
  0
LINE
  5
496
100
AcDbEntity
  8
0
370
    -3
  6
Continuous
100
AcDbLine
 10
-326.073212
 20
30.041159
 30
0.0
 11
-365.073212
 21
30.041159
 31
0.0
  0
LINE
  5
497
100
AcDbEntity
  8
0
370
    -3
  6
Continuous
100
AcDbLine
 10
-372.873212
 20
27.243772
 30
0.0
 11
-372.873212
 21
-6.871853
 31
0.0
  0
ELLIPSE
  5
498
100
AcDbEntity
  8
0
370
    -3
  6
Continuous
100
AcDbEllipse
 10
-365.573212
 20
33.158364
 30
0.0
 11
3.5
 21
0.0
 31
0.0
210
0.0
220
0.0
230
1.0
 40
0.656603
 41
0.9621393645107007
 42
2.7085416781362999
  0
ARC
  5
499
100
AcDbEntity
  8
0
370
    -3
  6
Continuous
100
AcDbCircle
 10
-365.073212
 20
27.243772
 30
0.0
 40
7.8
100
AcDbArc
 50
90.0
 51
180.0
  0
ARC
  5
49A
100
AcDbEntity
  8
0
370
    -3
  6
Continuous
100
AcDbCircle
 10
-365.073212
 20
22.579254
 30
0.0
 40
7.8
100
AcDbArc
 50
90.0
 51
180.0
  0
ARC
  5
49B
100
AcDbEntity
  8
0
370
    -3
  6
Continuous
100
AcDbCircle
 10
-365.073212
 20
23.041159
 30
0.0
 40
7.0
100
AcDbArc
 50
90.0
 51
180.0
  0
LINE
  5
49C
100
AcDbEntity
  8
0
370
    -3
  6
Continuous
100
AcDbLine
 10
-372.073212
 20
23.041159
 30
0.0
 11
-372.073212
 21
-7.333758
 31
0.0
  0
ARC
  5
49D
100
AcDbEntity
  8
0
370
    -3
  6
Continuous
100
AcDbCircle
 10
-365.073212
 20
-6.871853
 30
0.0
 40
7.8
100
AcDbArc
 50
180.0
 51
270.0
  0
LINE
  5
49E
100
AcDbEntity
  8
0
370
    -3
  6
CENTER
100
AcDbLine
 10
-307.42828
 20
9.572624
 30
0.0
 11
-347.373669
 21
9.572624
 31
0.0
  0
LINE
  5
49F
100
AcDbEntity
  8
0
370
    -3
  6
Continuous
100
AcDbLine
 10
-296.971354
 20
-21.427376
 30
0.0
 11
-293.468469
 21
-21.427376
 31
0.0
  0
LINE
  5
4A0
100
AcDbEntity
  8
0
370
    -3
  6
Continuous
100
AcDbLine
 10
-357.599056
 20
-17.427376
 30
0.0
 11
-294.547369
 21
-17.427376
 31
0.0
  0
ARC
  5
4A1
100
AcDbEntity
  8
0
370
    -3
  6
Continuous
100
AcDbCircle
 10
-294.547369
 20
-18.427376
 30
0.0
 40
1.0
100
AcDbArc
 50
1.5
 51
90.0
  0
LINE
  5
4A2
100
AcDbEntity
  8
0
370
    -3
  6
Continuous
100
AcDbLine
 10
-293.468469
 20
-21.427376
 30
0.0
 11
-293.547712
 21
-18.401199
 31
0.0
  0
LINE
  5
4A3
100
AcDbEntity
  8
0
370
    -3
  6
Continuous
100
AcDbLine
 10
-355.175071
 20
-21.427376
 30
0.0
 11
-358.677956
 21
-21.427376
 31
0.0
  0
LINE
  5
4A4
100
AcDbEntity
  8
0
370
    -3
  6
Continuous
100
AcDbLine
 10
-358.677956
 20
-21.427376
 30
0.0
 11
-358.598713
 21
-18.401199
 31
0.0
  0
ARC
  5
4A5
100
AcDbEntity
  8
0
370
    -3
  6
Continuous
100
AcDbCircle
 10
-357.599056
 20
-18.427376
 30
0.0
 40
1.0
100
AcDbArc
 50
90.0
 51
178.5
  0
ARC
  5
4A6
100
AcDbEntity
  8
0
370
    -3
  6
Continuous
100
AcDbCircle
 10
-326.073212
 20
9.572624
 30
0.0
 40
13.2205
100
AcDbArc
 50
90.0
 51
270.0
  0
ARC
  5
4A7
100
AcDbEntity
  8
0
370
    -3
  6
Continuous
100
AcDbCircle
 10
-326.073212
 20
9.572624
 30
0.0
 40
12.0585
100
AcDbArc
 50
90.0
 51
270.0
  0
ARC
  5
4A8
100
AcDbEntity
  8
0
370
    -3
  6
Continuous
100
AcDbCircle
 10
-326.073212
 20
9.572624
 30
0.0
 40
17.0
100
AcDbArc
 50
90.0
 51
270.0
  0
ARC
  5
4A9
100
AcDbEntity
  8
0
370
    -3
  6
Continuous
100
AcDbCircle
 10
-326.073212
 20
9.572624
 30
0.0
 40
13.2205
100
AcDbArc
 50
270.0
 51
90.0
  0
ARC
  5
4AA
100
AcDbEntity
  8
0
370
    -3
  6
Continuous
100
AcDbCircle
 10
-326.073212
 20
9.572624
 30
0.0
 40
12.0585
100
AcDbArc
 50
270.0
 51
90.0
  0
ARC
  5
4AB
100
AcDbEntity
  8
0
370
    -3
  6
Continuous
100
AcDbCircle
 10
-326.073212
 20
9.572624
 30
0.0
 40
17.0
100
AcDbArc
 50
270.0
 51
90.0
  0
MTEXT
  5
4AC
100
AcDbEntity
  8
0
370
    -3
  6
Continuous
100
AcDbMText
 10
-398.905945
 20
161.524689
 30
0.0
 40
15.0
 41
0.0
 71
     7
 72
     1
  1
\W0.43;DATE\W0.72; \W0.43;2012.01.14
  7
ZU_SHPTB00001
 11
1.0
 21
0.0
 31
0.0
 73
     1
 44
1.0
  0
ENDSEC
  0
SECTION
  2
OBJECTS
  0
DICTIONARY
  5
19
100
AcDbDictionary
280
     0
281
     1
  3
ACAD_GROUP
350
1A
  3
ACAD_MLINESTYLE
350
1B
  3
ACAD_LAYOUT
350
1E
  3
ACAD_PLOTSETTINGS
350
22
  3
ACAD_PLOTSTYLENAME
350
1F
  3
ACAD_WIPEOUT_VARS
350
23
  3
DWGPROPS
350
4AD
  0
DICTIONARY
  5
1A
102
{ACAD_REACTORS
330
19
102
}
100
AcDbDictionary
280
     0
281
     1
  0
DICTIONARY
  5
1B
102
{ACAD_REACTORS
330
19
102
}
100
AcDbDictionary
280
     0
281
     1
  3
Standard
350
1C
  0
MLINESTYLE
  5
1C
102
{ACAD_REACTORS
330
1B
102
}
100
AcDbMlineStyle
  2
Standard
 70
     0
  3

 62
     0
 51
90.0
 52
90.0
 71
     2
 49
0.5
 62
   256
  6
ByLayer
 49
-0.5
 62
   256
  6
ByLayer
  0
ACDBDICTIONARYWDFLT
  5
1F
102
{ACAD_REACTORS
330
19
102
}
100
AcDbDictionary
281
     1
  3
Normal
350
1D
100
AcDbDictionaryWithDefault
340
1D
  0
ACDBPLACEHOLDER
  5
1D
102
{ACAD_REACTORS
330
1F
102
}
  0
LAYOUT
  5
20
102
{ACAD_REACTORS
330
1E
102
}
100
AcDbPlotSettings
  1

  2

  4

  6

 40
0.0
 41
0.0
 42
0.0
 43
0.0
 44
0.0
 45
0.0
 46
0.0
 47
0.0
 48
0.0
 49
0.0
140
0.0
141
0.0
142
1.0
143
1.0
 70
  1024
 72
     0
 73
     0
 74
     0
  7

 75
     0
147
1.0
148
0.0
149
0.0
100
AcDbLayout
  1
Model
 70
     0
 71
     0
 10
0.0
 20
0.0
 11
0.0
 21
0.0
 12
0.0
 22
0.0
 32
0.0
 14
0.0
 24
0.0
 34
0.0
 15
0.0
 25
0.0
 35
0.0
146
0.0
 13
0.0
 23
0.0
 33
0.0
 16
0.0
 26
0.0
 36
0.0
 17
0.0
 27
0.0
 37
0.0
 76
     0
330
A
331
0
345
0
346
0
  0
LAYOUT
  5
21
102
{ACAD_REACTORS
330
1E
102
}
100
AcDbPlotSettings
  1

  2

  4

  6

 40
0.0
 41
0.0
 42
0.0
 43
0.0
 44
0.0
 45
0.0
 46
0.0
 47
0.0
 48
0.0
 49
0.0
140
0.0
141
0.0
142
1.0
143
1.0
 70
     0
 72
     0
 73
     0
 74
     0
  7

 75
     0
147
1.0
148
0.0
149
0.0
100
AcDbLayout
  1
Layout1
 70
     0
 71
     0
 10
0.0
 20
0.0
 11
0.0
 21
0.0
 12
0.0
 22
0.0
 32
0.0
 14
0.0
 24
0.0
 34
0.0
 15
0.0
 25
0.0
 35
0.0
146
0.0
 13
0.0
 23
0.0
 33
0.0
 16
0.0
 26
0.0
 36
0.0
 17
0.0
 27
0.0
 37
0.0
 76
     0
330
B
331
0
345
0
346
0
  0
DICTIONARY
  5
1E
102
{ACAD_REACTORS
330
19
102
}
100
AcDbDictionary
280
     0
281
     1
  3
Layout1
350
21
  3
Model
350
20
  0
DICTIONARY
  5
22
102
{ACAD_REACTORS
330
19
102
}
100
AcDbDictionary
280
     0
281
     1
  0
WIPEOUTVARIABLES
  5
23
100
AcDbWipeoutVariables
 70
     1
  0
XRECORD
  5
4AD
100
AcDbXrecord
280
     1
  1
DWGPROPS COOKIE
  2

  3

  4

  6

  7

  8
HK96464
  9

300
=
301
=
302
=
303
=
304
=
305
=
306
=
307
=
308
=
309
=
 40
0.0
 41
2455941.842813
 42
2455941.842813
  1

 90
        0
  0
ENDSEC
  0
EOF
