  0
SECTION
  2
HEADER
  9
$ACADVER
  1
AC1015
  9
$ACADMAINTVER
 70
     6
  9
$DWGCODEPAGE
  3
ANSI_932
  9
$INSBASE
 10
0.0
 20
0.0
 30
0.0
  9
$EXTMIN
 10
1.000000E+20
 20
1.000000E+20
 30
1.000000E+20
  9
$EXTMAX
 10
-1.000000E+20
 20
-1.000000E+20
 30
-1.000000E+20
  9
$LIMMIN
 10
0.0
 20
0.0
  9
$LIMMAX
 10
0.0
 20
0.0
  9
$ORTHOMODE
 70
     0
  9
$REGENMODE
 70
     1
  9
$FILLMODE
 70
     1
  9
$QTEXTMODE
 70
     0
  9
$MIRRTEXT
 70
     1
  9
$LTSCALE
 40
1.0
  9
$ATTMODE
 70
     1
  9
$TEXTSIZE
 40
7.0
  9
$TRACEWID
 40
0.05
  9
$TEXTSTYLE
  7
Standard
  9
$CLAYER
  8
0
  9
$CELTYPE
  6
Continuous
  9
$CECOLOR
 62
   256
  9
$CELTSCALE
 40
1.0
  9
$DISPSILH
 70
     0
  9
$DIMSCALE
 40
1.0
  9
$DIMASZ
 40
1.931852
  9
$DIMEXO
 40
1.0
  9
$DIMDLI
 40
0.38
  9
$DIMRND
 40
0.0
  9
$DIMDLE
 40
0.0
  9
$DIMEXE
 40
2.0
  9
$DIMTP
 40
0.0
  9
$DIMTM
 40
0.0
  9
$DIMTXT
 40
10.0
  9
$DIMCEN
 40
0.09
  9
$DIMTSZ
 40
0.0
  9
$DIMTOL
 70
     0
  9
$DIMLIM
 70
     0
  9
$DIMTIH
 70
     1
  9
$DIMTOH
 70
     1
  9
$DIMSE1
 70
     0
  9
$DIMSE2
 70
     0
  9
$DIMTAD
 70
     1
  9
$DIMZIN
 70
     0
  9
$DIMBLK
  1

  9
$DIMASO
 70
     1
  9
$DIMSHO
 70
     1
  9
$DIMPOST
  1

  9
$DIMAPOST
  1

  9
$DIMALT
 70
     0
  9
$DIMALTD
 70
     2
  9
$DIMALTF
 40
25.4
  9
$DIMLFAC
 40
1.0
  9
$DIMTOFL
 70
     0
  9
$DIMTVP
 40
0.0
  9
$DIMTIX
 70
     0
  9
$DIMSOXD
 70
     0
  9
$DIMSAH
 70
     0
  9
$DIMBLK1
  1

  9
$DIMBLK2
  1

  9
$DIMSTYLE
  2
Standard
  9
$DIMCLRD
 70
     0
  9
$DIMCLRE
 70
     0
  9
$DIMCLRT
 70
     0
  9
$DIMTFAC
 40
0.714286
  9
$DIMGAP
 40
0.09
  9
$DIMJUST
 70
     0
  9
$DIMSD1
 70
     0
  9
$DIMSD2
 70
     0
  9
$DIMTOLJ
 70
     1
  9
$DIMTZIN
 70
     0
  9
$DIMALTZ
 70
     0
  9
$DIMALTTZ
 70
     0
  9
$DIMUPT
 70
     0
  9
$DIMDEC
 70
     4
  9
$DIMTDEC
 70
     4
  9
$DIMALTU
 70
     2
  9
$DIMALTTD
 70
     2
  9
$DIMTXSTY
  7
Standard
  9
$DIMAUNIT
 70
     0
  9
$DIMADEC
 70
     0
  9
$DIMALTRND
 40
0.0
  9
$DIMAZIN
 70
     0
  9
$DIMDSEP
 70
     0
  9
$DIMATFIT
 70
     3
  9
$DIMFRAC
 70
     0
  9
$DIMLDRBLK
  1

  9
$DIMLUNIT
 70
     2
  9
$DIMLWD
 70
     0
  9
$DIMLWE
 70
     0
  9
$DIMTMOVE
 70
     0
  9
$LUNITS
 70
     2
  9
$LUPREC
 70
     3
  9
$SKETCHINC
 40
0.1
  9
$FILLETRAD
 40
0.0
  9
$AUNITS
 70
     0
  9
$AUPREC
 70
     0
  9
$MENU
  1
acad
  9
$ELEVATION
 40
0.0
  9
$PELEVATION
 40
0.0
  9
$THICKNESS
 40
0.0
  9
$LIMCHECK
 70
     0
  9
$CHAMFERA
 40
0.0
  9
$CHAMFERB
 40
0.0
  9
$CHAMFERC
 40
0.0
  9
$CHAMFERD
 40
0.0
  9
$SKPOLY
 70
     0
  9
$TDCREATE
 40
0.000000000
  9
$TDUCREATE
 40
0.000000000
  9
$TDUPDATE
 40
0.000000000
  9
$TDUUPDATE
 40
0.000000000
  9
$TDINDWG
 40
0.0000000000
  9
$TDUSRTIMER
 40
0.0000000000
  9
$USRTIMER
 70
     1
  9
$ANGBASE
 50
0.0
  9
$ANGDIR
 70
     0
  9
$PDMODE
 70
     0
  9
$PDSIZE
 40
0.0
  9
$PLINEWID
 40
0.0
  9
$SPLFRAME
 70
     0
  9
$SPLINETYPE
 70
     6
  9
$SPLINESEGS
 70
     8
  9
$HANDSEED
  5
448
  9
$SURFTAB1
 70
     6
  9
$SURFTAB2
 70
     6
  9
$SURFTYPE
 70
     6
  9
$SURFU
 70
     6
  9
$SURFV
 70
     6
  9
$UCSBASE
  2

  9
$UCSNAME
  2

  9
$UCSORG
 10
0.0
 20
0.0
 30
0.0
  9
$UCSXDIR
 10
1.0
 20
0.0
 30
0.0
  9
$UCSYDIR
 10
0.0
 20
1.0
 30
0.0
  9
$UCSORTHOREF
  2

  9
$UCSORTHOVIEW
 70
     0
  9
$UCSORGTOP
 10
0.0
 20
0.0
 30
0.0
  9
$UCSORGBOTTOM
 10
0.0
 20
0.0
 30
0.0
  9
$UCSORGLEFT
 10
0.0
 20
0.0
 30
0.0
  9
$UCSORGRIGHT
 10
0.0
 20
0.0
 30
0.0
  9
$UCSORGFRONT
 10
0.0
 20
0.0
 30
0.0
  9
$UCSORGBACK
 10
0.0
 20
0.0
 30
0.0
  9
$PUCSBASE
  2

  9
$PUCSNAME
  2

  9
$PUCSORG
 10
0.0
 20
0.0
 30
0.0
  9
$PUCSXDIR
 10
1.0
 20
0.0
 30
0.0
  9
$PUCSYDIR
 10
0.0
 20
1.0
 30
0.0
  9
$PUCSORTHOREF
  2

  9
$PUCSORTHOVIEW
 70
     0
  9
$PUCSORGTOP
 10
0.0
 20
0.0
 30
0.0
  9
$PUCSORGBOTTOM
 10
0.0
 20
0.0
 30
0.0
  9
$PUCSORGLEFT
 10
0.0
 20
0.0
 30
0.0
  9
$PUCSORGRIGHT
 10
0.0
 20
0.0
 30
0.0
  9
$PUCSORGFRONT
 10
0.0
 20
0.0
 30
0.0
  9
$PUCSORGBACK
 10
0.0
 20
0.0
 30
0.0
  9
$USERI1
 70
     0
  9
$USERI2
 70
     0
  9
$USERI3
 70
     0
  9
$USERI4
 70
     0
  9
$USERI5
 70
     0
  9
$USERR1
 40
0.0
  9
$USERR2
 40
0.0
  9
$USERR3
 40
0.0
  9
$USERR4
 40
0.0
  9
$USERR5
 40
0.0
  9
$WORLDVIEW
 70
     1
  9
$SHADEDGE
 70
     3
  9
$SHADEDIF
 70
    70
  9
$TILEMODE
 70
     1
  9
$MAXACTVP
 70
    16
  9
$PINSBASE
 10
0.0
 20
0.0
 30
0.0
  9
$PLIMCHECK
 70
     0
  9
$PEXTMIN
 10
1.000000E+20
 20
1.000000E+20
 30
1.000000E+20
  9
$PEXTMAX
 10
-1.000000E+20
 20
-1.000000E+20
 30
-1.000000E+20
  9
$PLIMMIN
 10
0.0
 20
0.0
  9
$PLIMMAX
 10
12.0
 20
9.0
  9
$UNITMODE
 70
     0
  9
$VISRETAIN
 70
     0
  9
$PLINEGEN
 70
     1
  9
$PSLTSCALE
 70
     0
  9
$TREEDEPTH
 70
  3020
  9
$CMLSTYLE
  2
Standard
  9
$CMLJUST
 70
     0
  9
$CMLSCALE
 40
1.0
  9
$PROXYGRAPHICS
 70
     0
  9
$MEASUREMENT
 70
     0
  9
$CELWEIGHT
370
     0
  9
$ENDCAPS
280
     0
  9
$JOINSTYLE
280
     0
  9
$LWDISPLAY
290
     0
  9
$INSUNITS
 70
     0
  9
$HYPERLINKBASE
  1

  9
$STYLESHEET
  1

  9
$XEDIT
290
     1
  9
$CEPSNTYPE
380
     0
  9
$PSTYLEMODE
290
     1
  9
$FINGERPRINTGUID
  2

  9
$VERSIONGUID
  2

  9
$EXTNAMES
290
     1
  9
$PSVPSCALE
 40
0.0
  0
ENDSEC
  0
SECTION
  2
CLASSES
  0
CLASS
  1
LWPOLYLINE
  2
AcDbPolyline
  3
AutoCAD 2000
 90
    32768
280
     0
281
     1
  0
CLASS
  1
IMAGE
  2
AcDbRasterImage
  3
ISM
 90
    32895
280
     0
281
     1
  0
CLASS
  1
OLE2FRAME
  2
AcDbOle2Frame
  3
AutoCAD 2000
 90
    32768
280
     0
281
     1
  0
CLASS
  1
HATCH
  2
AcDbHatch
  3
AutoCAD 2000
 90
    32768
280
     0
281
     1
  0
CLASS
  1
DICTIONARYVAR
  2
AcDbDictionaryVar
  3
AutoCAD 2000
 90
    32768
280
     0
281
     0
  0
CLASS
  1
RASTERVARIABLES
  2
AcDbRasterVariables
  3
ISM
 90
    32768
280
     0
281
     0
  0
CLASS
  1
IMAGEDEF
  2
AcDbRasterImageDef
  3
ISM
 90
    32768
280
     0
281
     0
  0
CLASS
  1
IMAGEDEF_REACTOR
  2
AcDbRasterImageDefReactor
  3
ISM
 90
    32769
280
     0
281
     0
  0
CLASS
  1
IDBUFFER
  2
AcDbIdBuffer
  3
AutoCAD 2000
 90
    32768
280
     0
281
     0
  0
CLASS
  1
SPATIAL_FILTER
  2
AcDbSpatialFilter
  3
AutoCAD 2000
 90
    32768
280
     0
281
     0
  0
CLASS
  1
XRECORD
  2
AcDbXrecord
  3
AutoCAD 2000
 90
        0
280
     0
281
     0
  0
CLASS
  1
SORTENTSTABLE
  2
AcDbSortentsTable
  3
AutoCAD 2000
 90
    32768
280
     0
281
     0
  0
CLASS
  1
LAYER_INDEX
  2
AcDbLayerIndex
  3
AutoCAD 2000
 90
    32768
280
     0
281
     0
  0
CLASS
  1
SPATIAL_INDEX
  2
AcDbSpatialIndex
  3
AutoCAD 2000
 90
    32768
280
     0
281
     0
  0
CLASS
  1
OBJECT_PTR
  2
CAseDLPNTableRecord
  3
"ASE-LPNTableRecord"
 90
    32769
280
     0
281
     0
  0
CLASS
  1
LAYOUT
  2
AcDbLayout
  3
AutoCAD 2000
 90
        0
280
     0
281
     0
  0
CLASS
  1
PLOTSETTINGS
  2
AcDbPlotSettings
  3
AutoCAD 2000
 90
    32768
280
     0
281
     0
  0
CLASS
  1
ACDBDICTIONARYWDFLT
  2
AcDbDictionaryWithDefault
  3
AutoCAD 2000
 90
        0
280
     0
281
     0
  0
CLASS
  1
ACDBPLACEHOLDER
  2
AcDbPlaceHolder
  3
AutoCAD 2000
 90
        0
280
     0
281
     0
  0
CLASS
  1
VBA_PROJECT
  2
AcDbVbaProject
  3
acadvba
 90
    32768
280
     0
281
     0
  0
CLASS
  1
WIPEOUT
  2
AcDbWipeout
  3
WipeOut|AutoCAD Express Tool|expresstools@autodesk.com
 90
    32895
280
     0
281
     1
  0
CLASS
  1
WIPEOUTVARIABLES
  2
AcDbWipeoutVariables
  3
WipeOut|AutoCAD Express Tool|expresstools@autodesk.com
 90
        0
280
     0
281
     0
  0
CLASS
  1
RTEXT
  2
RText
  3
RText|AutoCAD Express Tool|expresstools@autodesk.com
 90
    32768
280
     0
281
     1
  0
CLASS
  1
ARCALIGNEDTEXT
  2
AcDbArcAlignedText
  3
ATEXT|AutoCAD Express Tool|expresstools@autodesk.com
 90
    32768
280
     0
281
     1
  0
ENDSEC
  0
SECTION
  2
TABLES
  0
TABLE
  2
VPORT
  5
7
100
AcDbSymbolTable
 70
     1
  0
VPORT
  5
15
100
AcDbSymbolTableRecord
100
AcDbViewportTableRecord
  2
*ACTIVE
 70
     0
 10
0.0
 20
0.0
 11
1.0
 21
1.0
 12
0.0
 22
0.0
 13
0.0
 23
0.0
 14
1.0
 24
1.0
 15
0.0
 25
0.0
 16
0.0
 26
0.0
 36
1.0
 17
0.0
 27
0.0
 37
0.0
 40
100.0
 41
1.0
 42
50.0
 43
0.0
 44
0.0
 50
0.0
 51
0.0
 71
     0
 72
   100
 73
     1
 74
     1
 75
     0
 76
     0
 77
     0
 78
     0
281
     0
 65
     0
110
0.0
120
0.0
130
0.0
111
1.0
121
0.0
131
0.0
112
0.0
122
1.0
132
0.0
345
0
346
0
 79
     0
146
0.0
  0
ENDTAB
  0
TABLE
  2
LTYPE
  5
4
100
AcDbSymbolTable
 70
     7
  0
LTYPE
  5
11
100
AcDbSymbolTableRecord
100
AcDbLinetypeTableRecord
  2
ByBlock
 70
    64
  3

 72
    65
 73
     0
 40
0.0
  0
LTYPE
  5
12
100
AcDbSymbolTableRecord
100
AcDbLinetypeTableRecord
  2
ByLayer
 70
    64
  3

 72
    65
 73
     0
 40
0.0
  0
LTYPE
  5
13
100
AcDbSymbolTableRecord
100
AcDbLinetypeTableRecord
  2
Continuous
 70
    64
  3
Solid line
 72
    65
 73
     0
 40
0.0
  0
LTYPE
  5
24
100
AcDbSymbolTableRecord
100
AcDbLinetypeTableRecord
  2
DASHED
 70
    64
  3
Dashed __ __ __ __ __ __ __ __ __ __ __ __ __ _
 72
    65
 73
     2
 40
0.75
 49
0.5
 74
     0
 49
-0.25
 74
     0
  0
LTYPE
  5
25
100
AcDbSymbolTableRecord
100
AcDbLinetypeTableRecord
  2
CENTER
 70
    64
  3
Center ____ _ ____ _ ____ _ ____ _ ____ _ ____
 72
    65
 73
     4
 40
1.0
 49
0.5
 74
     0
 49
-0.25
 74
     0
 49
0.0
 74
     0
 49
-0.25
 74
     0
  0
LTYPE
  5
26
100
AcDbSymbolTableRecord
100
AcDbLinetypeTableRecord
  2
DIVIDE
 70
    64
  3
Divide ____ . . ____ . . ____ . . ____ . . ____
 72
    65
 73
     6
 40
1.25
 49
0.5
 74
     0
 49
-0.25
 74
     0
 49
0.0
 74
     0
 49
-0.25
 74
     0
 49
0.0
 74
     0
 49
-0.25
 74
     0
  0
LTYPE
  5
27
100
AcDbSymbolTableRecord
100
AcDbLinetypeTableRecord
  2
PHANTOM
 70
    64
  3
Phantom ______  __  __  ______  __  __  ______
 72
    65
 73
     6
 40
9.0
 49
4.3
 74
     0
 49
-0.7
 74
     0
 49
1.3
 74
     0
 49
-0.7
 74
     0
 49
1.3
 74
     0
 49
-0.7
 74
     0
  0
ENDTAB
  0
TABLE
  2
LAYER
  5
2
100
AcDbSymbolTable
 70
     3
  0
LAYER
  5
14
100
AcDbSymbolTableRecord
100
AcDbLayerTableRecord
  2
0
 70
    64
 62
    53
  6
Continuous
290
     1
370
    -3
390
1D
  0
LAYER
  5
28
100
AcDbSymbolTableRecord
100
AcDbLayerTableRecord
  2
3
 70
    64
 62
     4
  6
Continuous
290
     1
370
    -3
390
1D
  0
LAYER
  5
29
100
AcDbSymbolTableRecord
100
AcDbLayerTableRecord
  2
5
 70
    64
 62
   191
  6
Continuous
290
     1
370
    -3
390
1D
  0
ENDTAB
  0
TABLE
  2
STYLE
  5
3
100
AcDbSymbolTable
 70
     2
  0
STYLE
  5
17
100
AcDbSymbolTableRecord
100
AcDbTextStyleTableRecord
  2
Standard
 70
     0
 40
0.0
 41
1.0
 50
0.0
 71
     0
 42
0.0
  3
txt
  4

  0
STYLE
  5
7A
100
AcDbSymbolTableRecord
100
AcDbTextStyleTableRecord
  2
ZU_SHPTB00001
 70
     0
 40
0.0
 41
1.0
 50
0.0
 71
     0
 42
0.0
  3
monotxt
  4
bigfont
  0
ENDTAB
  0
TABLE
  2
VIEW
  5
5
100
AcDbSymbolTable
 70
     0
  0
ENDTAB
  0
TABLE
  2
UCS
  5
6
100
AcDbSymbolTable
 70
     0
  0
ENDTAB
  0
TABLE
  2
APPID
  5
8
100
AcDbSymbolTable
 70
     1
  0
APPID
  5
16
100
AcDbSymbolTableRecord
100
AcDbRegAppTableRecord
  2
ACAD
 70
     0
  0
ENDTAB
  0
TABLE
  2
DIMSTYLE
  5
9
100
AcDbSymbolTable
 70
     1
100
AcDbDimStyleTable
 71
     0
  0
DIMSTYLE
105
18
100
AcDbSymbolTableRecord
100
AcDbDimStyleTableRecord
  2
Standard
 70
     0
  3

  4

 40
1.0
 41
0.18
 42
0.0625
 43
0.38
 44
0.18
 45
0.0
 46
0.0
 47
0.0
 48
0.0
 71
     0
 72
     0
 73
     1
 74
     1
 75
     0
 76
     0
 77
     0
 78
     0
 79
     0
140
0.18
141
0.09
142
0.0
143
25.4
144
1.0
145
0.0
146
1.0
147
0.09
148
0.0
170
     0
171
     2
172
     0
173
     0
174
     0
175
     0
176
     0
177
     0
178
     0
179
     0
271
     4
272
     4
273
     2
274
     2
275
     0
276
     0
277
     2
278
    46
279
     0
280
     0
281
     0
282
     0
283
     1
284
     0
285
     0
286
     0
288
     0
340
17
341
0
342
0
343
0
344
0
371
    -2
372
    -2
  0
ENDTAB
  0
TABLE
  2
BLOCK_RECORD
  5
1
100
AcDbSymbolTable
 70
     0
  0
BLOCK_RECORD
  5
A
100
AcDbSymbolTableRecord
100
AcDbBlockTableRecord
  2
*MODEL_SPACE
340
20
  0
BLOCK_RECORD
  5
B
100
AcDbSymbolTableRecord
100
AcDbBlockTableRecord
  2
*PAPER_SPACE
340
21
  0
ENDTAB
  0
ENDSEC
  0
SECTION
  2
BLOCKS
  0
BLOCK
  5
D
100
AcDbEntity
  8
0
100
AcDbBlockBegin
  2
*MODEL_SPACE
 70
     0
 10
0.0
 20
0.0
 30
0.0
  3
*MODEL_SPACE
  1

  0
ENDBLK
  5
E
100
AcDbEntity
  8
0
100
AcDbBlockEnd
  0
BLOCK
  5
F
100
AcDbEntity
 67
     1
  8
0
100
AcDbBlockBegin
  2
*PAPER_SPACE
 70
     0
 10
0.0
 20
0.0
 30
0.0
  3
*PAPER_SPACE
  1

  0
ENDBLK
  5
10
100
AcDbEntity
 67
     1
  8
0
100
AcDbBlockEnd
  0
ENDSEC
  0
SECTION
  2
ENTITIES
  0
LINE
  5
2A
100
AcDbEntity
  8
0
370
    -3
  6
Continuous
100
AcDbLine
 10
-130.147191
 20
-109.751664
 30
0.0
 11
-130.147191
 21
-56.251664
 31
0.0
  0
LINE
  5
2B
100
AcDbEntity
  8
0
370
    -3
  6
Continuous
100
AcDbLine
 10
-130.147191
 20
-2.751664
 30
0.0
 11
-130.147191
 21
-56.251664
 31
0.0
  0
LINE
  5
2C
100
AcDbEntity
  8
0
370
    -3
  6
Continuous
100
AcDbLine
 10
-130.147191
 20
-109.751664
 30
0.0
 11
-130.147191
 21
-56.251664
 31
0.0
  0
LINE
  5
2D
100
AcDbEntity
  8
0
370
    -3
  6
Continuous
100
AcDbLine
 10
-130.147191
 20
-2.751664
 30
0.0
 11
-130.147191
 21
-56.251664
 31
0.0
  0
LINE
  5
2E
100
AcDbEntity
  8
0
370
    -3
  6
CENTER
100
AcDbLine
 10
-173.353451
 20
-34.085518
 30
0.0
 11
-263.782313
 21
-34.085518
 31
0.0
  0
LINE
  5
2F
100
AcDbEntity
  8
0
370
    -3
  6
Continuous
100
AcDbLine
 10
-130.147191
 20
-109.751664
 30
0.0
 11
-130.147191
 21
-56.251664
 31
0.0
  0
LINE
  5
30
100
AcDbEntity
  8
0
370
    -3
  6
Continuous
100
AcDbLine
 10
-130.147191
 20
-2.751664
 30
0.0
 11
-130.147191
 21
-56.251664
 31
0.0
  0
ARC
  5
31
100
AcDbEntity
  8
0
370
    -3
  6
Continuous
100
AcDbCircle
 10
-217.646883
 20
-34.085518
 30
0.0
 40
11.0
100
AcDbArc
 50
105.82662
 51
74.17338
  0
LINE
  5
32
100
AcDbEntity
  8
0
370
    -3
  6
Continuous
100
AcDbLine
 10
-214.646883
 20
-20.585518
 30
0.0
 11
-214.646883
 21
-26.585518
 31
0.0
  0
LINE
  5
33
100
AcDbEntity
  8
0
370
    -3
  6
Continuous
100
AcDbLine
 10
-220.646883
 20
-20.585518
 30
0.0
 11
-214.646883
 21
-20.585518
 31
0.0
  0
LINE
  5
34
100
AcDbEntity
  8
0
370
    -3
  6
Continuous
100
AcDbLine
 10
-220.646883
 20
-26.585518
 30
0.0
 11
-214.646883
 21
-26.585518
 31
0.0
  0
LINE
  5
35
100
AcDbEntity
  8
0
370
    -3
  6
Continuous
100
AcDbLine
 10
-220.646883
 20
-20.585518
 30
0.0
 11
-220.646883
 21
-26.585518
 31
0.0
  0
CIRCLE
  5
36
100
AcDbEntity
  8
0
370
    -3
  6
Continuous
100
AcDbCircle
 10
-217.646883
 20
-34.085518
 30
0.0
 40
3.5
  0
CIRCLE
  5
37
100
AcDbEntity
  8
0
370
    -3
  6
Continuous
100
AcDbCircle
 10
-217.646883
 20
-34.085518
 30
0.0
 40
4.0
  0
LINE
  5
38
100
AcDbEntity
  8
0
370
    -3
  6
DASHED
100
AcDbLine
 10
-247.646883
 20
-133.814109
 30
0.0
 11
-247.646883
 21
-134.085518
 31
0.0
  0
LINE
  5
39
100
AcDbEntity
  8
0
370
    -3
  6
Continuous
100
AcDbLine
 10
-273.65561
 20
-122.085518
 30
0.0
 11
-157.638155
 21
-122.085518
 31
0.0
  0
LINE
  5
3A
100
AcDbEntity
  8
0
370
    -3
  6
DASHED
100
AcDbLine
 10
-184.646883
 20
-133.814109
 30
0.0
 11
-184.646883
 21
-134.085518
 31
0.0
  0
ARC
  5
3B
100
AcDbEntity
  8
0
370
    -3
  6
Continuous
100
AcDbCircle
 10
-273.65561
 20
-124.085518
 30
0.0
 40
2.0
100
AcDbArc
 50
90.0
 51
180.0
  0
ARC
  5
3C
100
AcDbEntity
  8
0
370
    -3
  6
Continuous
100
AcDbCircle
 10
-157.638155
 20
-124.085518
 30
0.0
 40
2.0
100
AcDbArc
 50
0.0
 51
90.0
  0
ARC
  5
3D
100
AcDbEntity
  8
0
370
    -3
  6
Continuous
100
AcDbCircle
 10
-153.81872
 20
0.661981
 30
0.0
 40
3.0
100
AcDbArc
 50
195.371944
 51
269.0
  0
ARC
  5
3E
100
AcDbEntity
  8
0
370
    -3
  6
Continuous
100
AcDbCircle
 10
-152.638155
 20
-113.144702
 30
0.0
 40
3.0
100
AcDbArc
 50
91.0
 51
180.0
  0
ARC
  5
3F
100
AcDbEntity
  8
0
370
    -3
  6
Continuous
100
AcDbCircle
 10
-145.147191
 20
-25.359498
 30
0.0
 40
3.0
100
AcDbArc
 50
90.0
 51
180.0
  0
LINE
  5
40
100
AcDbEntity
  8
0
370
    -3
  6
Continuous
100
AcDbLine
 10
-148.147191
 20
-5.490295
 30
0.0
 11
-148.147191
 21
-56.251664
 31
0.0
  0
ARC
  5
41
100
AcDbEntity
  8
0
370
    -3
  6
Continuous
100
AcDbCircle
 10
-137.147191
 20
-16.822012
 30
0.0
 40
2.0
100
AcDbArc
 50
0.0
 51
90.0
  0
ARC
  5
42
100
AcDbEntity
  8
0
370
    -3
  6
Continuous
100
AcDbCircle
 10
-138.147191
 20
-8.751664
 30
0.0
 40
3.0
100
AcDbArc
 50
270.0
 51
0.0
  0
ARC
  5
43
100
AcDbEntity
  8
0
370
    -3
  6
Continuous
100
AcDbCircle
 10
-143.147191
 20
-16.751664
 30
0.0
 40
5.0
100
AcDbArc
 50
90.0
 51
180.0
  0
ARC
  5
44
100
AcDbEntity
  8
0
370
    -3
  6
Continuous
100
AcDbCircle
 10
-143.147191
 20
-19.822012
 30
0.0
 40
5.0
100
AcDbArc
 50
90.0
 51
180.0
  0
ARC
  5
45
100
AcDbEntity
  8
0
370
    -3
  6
Continuous
100
AcDbCircle
 10
-138.147191
 20
-25.359498
 30
0.0
 40
3.0
100
AcDbArc
 50
0.0
 51
90.0
  0
LINE
  5
46
100
AcDbEntity
  8
0
370
    -3
  6
Continuous
100
AcDbLine
 10
-137.147191
 20
-14.822012
 30
0.0
 11
-143.147191
 21
-14.822012
 31
0.0
  0
LINE
  5
47
100
AcDbEntity
  8
0
370
    -3
  6
Continuous
100
AcDbLine
 10
-138.147191
 20
-11.751664
 30
0.0
 11
-143.147191
 21
-11.751664
 31
0.0
  0
LINE
  5
48
100
AcDbEntity
  8
0
370
    -3
  6
Continuous
100
AcDbLine
 10
-145.147191
 20
-22.359498
 30
0.0
 11
-138.147191
 21
-22.359498
 31
0.0
  0
LINE
  5
49
100
AcDbEntity
  8
0
370
    -3
  6
Continuous
100
AcDbLine
 10
-148.147191
 20
-19.359498
 30
0.0
 11
-148.147191
 21
-16.751664
 31
0.0
  0
LINE
  5
4A
100
AcDbEntity
  8
0
370
    -3
  6
Continuous
100
AcDbLine
 10
-135.147191
 20
-8.751664
 30
0.0
 11
-135.147191
 21
-5.717211
 31
0.0
  0
ARC
  5
4B
100
AcDbEntity
  8
0
370
    -3
  6
Continuous
100
AcDbCircle
 10
-145.147191
 20
-5.490295
 30
0.0
 40
3.0
100
AcDbArc
 50
89.0
 51
180.0
  0
ARC
  5
4C
100
AcDbEntity
  8
0
370
    -3
  6
Continuous
100
AcDbCircle
 10
-132.147191
 20
-5.717211
 30
0.0
 40
3.0
100
AcDbArc
 50
89.0
 51
180.0
  0
LINE
  5
4D
100
AcDbEntity
  8
0
370
    -3
  6
Continuous
100
AcDbLine
 10
-135.147191
 20
-56.251664
 30
0.0
 11
-135.147191
 21
-16.822012
 31
0.0
  0
LINE
  5
4E
100
AcDbEntity
  8
0
370
    -3
  6
Continuous
100
AcDbLine
 10
-135.147191
 20
-36.251664
 30
0.0
 11
-131.010718
 21
-36.251664
 31
0.0
  0
LINE
  5
4F
100
AcDbEntity
  8
0
370
    -3
  6
Continuous
100
AcDbLine
 10
-153.871077
 20
-2.337562
 30
0.0
 11
-130.147191
 21
-2.751664
 31
0.0
  0
ARC
  5
50
100
AcDbEntity
  8
0
370
    -3
  6
Continuous
100
AcDbCircle
 10
-145.147191
 20
-87.14383
 30
0.0
 40
3.0
100
AcDbArc
 50
180.0
 51
270.0
  0
LINE
  5
51
100
AcDbEntity
  8
0
370
    -3
  6
Continuous
100
AcDbLine
 10
-148.147191
 20
-107.013033
 30
0.0
 11
-148.147191
 21
-56.251664
 31
0.0
  0
ARC
  5
52
100
AcDbEntity
  8
0
370
    -3
  6
Continuous
100
AcDbCircle
 10
-143.147191
 20
-95.751664
 30
0.0
 40
5.0
100
AcDbArc
 50
180.0
 51
270.0
  0
ARC
  5
53
100
AcDbEntity
  8
0
370
    -3
  6
Continuous
100
AcDbCircle
 10
-143.147191
 20
-92.681315
 30
0.0
 40
5.0
100
AcDbArc
 50
180.0
 51
270.0
  0
ARC
  5
54
100
AcDbEntity
  8
0
370
    -3
  6
Continuous
100
AcDbCircle
 10
-137.147191
 20
-95.681315
 30
0.0
 40
2.0
100
AcDbArc
 50
270.0
 51
0.0
  0
ARC
  5
55
100
AcDbEntity
  8
0
370
    -3
  6
Continuous
100
AcDbCircle
 10
-138.147191
 20
-103.751664
 30
0.0
 40
3.0
100
AcDbArc
 50
0.0
 51
90.0
  0
ARC
  5
56
100
AcDbEntity
  8
0
370
    -3
  6
Continuous
100
AcDbCircle
 10
-138.147191
 20
-87.14383
 30
0.0
 40
3.0
100
AcDbArc
 50
270.0
 51
0.0
  0
LINE
  5
57
100
AcDbEntity
  8
0
370
    -3
  6
Continuous
100
AcDbLine
 10
-135.147191
 20
-56.251664
 30
0.0
 11
-135.147191
 21
-95.681315
 31
0.0
  0
LINE
  5
58
100
AcDbEntity
  8
0
370
    -3
  6
Continuous
100
AcDbLine
 10
-135.147191
 20
-76.251664
 30
0.0
 11
-131.445509
 21
-76.251664
 31
0.0
  0
LINE
  5
59
100
AcDbEntity
  8
0
370
    -3
  6
Continuous
100
AcDbLine
 10
-145.147191
 20
-90.14383
 30
0.0
 11
-138.147191
 21
-90.14383
 31
0.0
  0
LINE
  5
5A
100
AcDbEntity
  8
0
370
    -3
  6
Continuous
100
AcDbLine
 10
-148.147191
 20
-93.14383
 30
0.0
 11
-148.147191
 21
-95.751664
 31
0.0
  0
LINE
  5
5B
100
AcDbEntity
  8
0
370
    -3
  6
Continuous
100
AcDbLine
 10
-137.147191
 20
-97.681315
 30
0.0
 11
-143.147191
 21
-97.681315
 31
0.0
  0
LINE
  5
5C
100
AcDbEntity
  8
0
370
    -3
  6
Continuous
100
AcDbLine
 10
-138.147191
 20
-100.751664
 30
0.0
 11
-143.147191
 21
-100.751664
 31
0.0
  0
ARC
  5
5D
100
AcDbEntity
  8
0
370
    -3
  6
Continuous
100
AcDbCircle
 10
-132.147191
 20
-106.786117
 30
0.0
 40
3.0
100
AcDbArc
 50
180.0
 51
271.0
  0
LINE
  5
5E
100
AcDbEntity
  8
0
370
    -3
  6
Continuous
100
AcDbLine
 10
-135.147191
 20
-103.751664
 30
0.0
 11
-135.147191
 21
-106.786117
 31
0.0
  0
ARC
  5
5F
100
AcDbEntity
  8
0
370
    -3
  6
Continuous
100
AcDbCircle
 10
-145.147191
 20
-107.013033
 30
0.0
 40
3.0
100
AcDbArc
 50
180.0
 51
271.0
  0
LINE
  5
60
100
AcDbEntity
  8
0
370
    -3
  6
Continuous
100
AcDbLine
 10
-152.690512
 20
-110.145159
 30
0.0
 11
-130.147191
 21
-109.751664
 31
0.0
  0
CIRCLE
  5
61
100
AcDbEntity
  8
0
370
    -3
  6
Continuous
100
AcDbCircle
 10
-217.646883
 20
-34.085518
 30
0.0
 40
20.0
  0
CIRCLE
  5
62
100
AcDbEntity
  8
0
370
    -3
  6
Continuous
100
AcDbCircle
 10
-217.646883
 20
-34.085518
 30
0.0
 40
26.0
  0
CIRCLE
  5
63
100
AcDbEntity
  8
0
370
    -3
  6
Continuous
100
AcDbCircle
 10
-217.646883
 20
-34.085518
 30
0.0
 40
23.0
  0
CIRCLE
  5
64
100
AcDbEntity
  8
0
370
    -3
  6
Continuous
100
AcDbCircle
 10
-217.646883
 20
-34.085518
 30
0.0
 40
35.085725
  0
CIRCLE
  5
65
100
AcDbEntity
  8
0
370
    -3
  6
Continuous
100
AcDbCircle
 10
-217.646883
 20
-34.085518
 30
0.0
 40
32.0
  0
LINE
  5
66
100
AcDbEntity
  8
0
370
    -3
  6
Continuous
100
AcDbLine
 10
-275.646883
 20
-134.085518
 30
0.0
 11
-155.647155
 21
-134.085518
 31
0.0
  0
LINE
  5
67
100
AcDbEntity
  8
0
370
    -3
  6
CENTER
100
AcDbLine
 10
-169.646883
 20
-140.496872
 30
0.0
 11
-169.646883
 21
-117.959617
 31
0.0
  0
LINE
  5
68
100
AcDbEntity
  8
0
370
    -3
  6
CENTER
100
AcDbLine
 10
-262.646883
 20
-139.827448
 30
0.0
 11
-262.646883
 21
-118.852182
 31
0.0
  0
LINE
  5
69
100
AcDbEntity
  8
0
370
    -3
  6
CENTER
100
AcDbLine
 10
-217.646883
 20
25.892895
 30
0.0
 11
-217.646883
 21
-140.378859
 31
0.0
  0
LINE
  5
6A
100
AcDbEntity
  8
0
370
    -3
  6
Continuous
100
AcDbLine
 10
-275.646883
 20
-8.085791
 30
0.0
 11
-275.646883
 21
-134.085518
 31
0.0
  0
LINE
  5
6B
100
AcDbEntity
  8
0
370
    -3
  6
Continuous
100
AcDbLine
 10
-275.65561
 20
-134.085518
 30
0.0
 11
-275.65561
 21
-7.576791
 31
0.0
  0
ARC
  5
6C
100
AcDbEntity
  8
0
370
    -3
  6
Continuous
100
AcDbCircle
 10
-245.65561
 20
-8.085791
 30
0.0
 40
30.0
100
AcDbArc
 50
90.0
 51
180.0
  0
LINE
  5
6D
100
AcDbEntity
  8
0
370
    -3
  6
Continuous
100
AcDbLine
 10
-185.638155
 20
21.914209
 30
0.0
 11
-245.65561
 21
21.914209
 31
0.0
  0
ARC
  5
6E
100
AcDbEntity
  8
0
370
    -3
  6
Continuous
100
AcDbCircle
 10
-185.638155
 20
-8.085791
 30
0.0
 40
30.0
100
AcDbArc
 50
360.0
 51
90.0
  0
LINE
  5
6F
100
AcDbEntity
  8
0
370
    -3
  6
Continuous
100
AcDbLine
 10
-155.638155
 20
-134.085518
 30
0.0
 11
-155.638155
 21
-7.576791
 31
0.0
  0
LINE
  5
70
100
AcDbEntity
  8
0
370
    -3
  6
Continuous
100
AcDbLine
 10
-232.646883
 20
-104.085518
 30
0.0
 11
-202.646883
 21
-104.085518
 31
0.0
  0
ARC
  5
71
100
AcDbEntity
  8
0
370
    -3
  6
Continuous
100
AcDbCircle
 10
-232.646883
 20
-69.085518
 30
0.0
 40
35.0
100
AcDbArc
 50
180.0
 51
270.0
  0
LINE
  5
72
100
AcDbEntity
  8
0
370
    -3
  6
Continuous
100
AcDbLine
 10
-267.646883
 20
-34.085518
 30
0.0
 11
-267.646883
 21
-69.085518
 31
0.0
  0
ARC
  5
73
100
AcDbEntity
  8
0
370
    -3
  6
Continuous
100
AcDbCircle
 10
-217.646883
 20
-34.085518
 30
0.0
 40
50.0
100
AcDbArc
 50
360.0
 51
180.0
  0
LINE
  5
74
100
AcDbEntity
  8
0
370
    -3
  6
Continuous
100
AcDbLine
 10
-167.646883
 20
-34.085518
 30
0.0
 11
-167.646883
 21
-69.085518
 31
0.0
  0
ARC
  5
75
100
AcDbEntity
  8
0
370
    -3
  6
Continuous
100
AcDbCircle
 10
-202.646883
 20
-69.085518
 30
0.0
 40
35.0
100
AcDbArc
 50
270.0
 51
360.0
  0
LINE
  5
76
100
AcDbEntity
  8
0
370
    -3
  6
Continuous
100
AcDbLine
 10
-130.147191
 20
-3.751664
 30
0.0
 11
-130.147191
 21
-108.751664
 31
0.0
  0
LINE
  5
77
100
AcDbEntity
  8
0
370
    -3
  6
Continuous
100
AcDbLine
 10
-130.147191
 20
-2.751664
 30
0.0
 11
-130.147191
 21
-56.251664
 31
0.0
  0
LINE
  5
78
100
AcDbEntity
  8
0
370
    -3
  6
Continuous
100
AcDbLine
 10
-130.147191
 20
-56.251664
 30
0.0
 11
-130.147191
 21
-109.751664
 31
0.0
  0
LINE
  5
79
100
AcDbEntity
  8
0
370
    -3
  6
Continuous
100
AcDbLine
 10
-130.147191
 20
-56.251664
 30
0.0
 11
-130.147191
 21
-3.751664
 31
0.0
  0
MTEXT
  5
7B
100
AcDbEntity
  8
0
370
    -3
  6
Continuous
100
AcDbMText
 10
-298.488281
 20
-13.15625
 30
0.0
 40
2.8
 41
0.0
 71
     7
 72
     1
  1
\W0.83;　
  7
ZU_SHPTB00001
 11
1.0
 21
0.0
 31
0.0
 73
     1
 44
1.0
  0
LINE
  5
7C
100
AcDbEntity
  8
0
370
    -3
  6
Continuous
100
AcDbLine
 10
233.852818
 20
-120.085791
 30
0.0
 11
229.352818
 21
-120.085791
 31
0.0
  0
LINE
  5
7D
100
AcDbEntity
  8
0
370
    -3
  6
CENTER
100
AcDbLine
 10
196.852818
 20
-141.433375
 30
0.0
 11
196.852818
 21
60.064473
 31
0.0
  0
LINE
  5
7E
100
AcDbEntity
  8
0
370
    -3
  6
CENTER
100
AcDbLine
 10
216.189281
 20
-56.251664
 30
0.0
 11
178.852937
 21
-56.251664
 31
0.0
  0
ARC
  5
7F
100
AcDbEntity
  8
0
370
    -3
  6
Continuous
100
AcDbCircle
 10
253.852836
 20
-63.215566
 30
0.0
 40
3.0
100
AcDbArc
 50
280.0
 51
360.0
  0
LINE
  5
80
100
AcDbEntity
  8
0
370
    -3
  6
Continuous
100
AcDbLine
 10
256.852836
 20
-4.955471
 30
0.0
 11
256.852836
 21
-63.215566
 31
0.0
  0
ARC
  5
81
100
AcDbEntity
  8
0
370
    -3
  6
Continuous
100
AcDbCircle
 10
253.852836
 20
-4.955471
 30
0.0
 40
3.0
100
AcDbArc
 50
0.0
 51
80.0
  0
ARC
  5
82
100
AcDbEntity
  8
0
370
    -3
  6
Continuous
100
AcDbCircle
 10
151.352752
 20
5.19569
 30
0.0
 40
5.0
100
AcDbArc
 50
280.0
 51
359.999925
  0
LINE
  5
83
100
AcDbEntity
  8
0
370
    -3
  6
Continuous
100
AcDbLine
 10
139.031874
 20
-2.053946
 30
0.0
 11
152.220992
 21
0.271651
 31
0.0
  0
POINT
  5
84
100
AcDbEntity
  8
0
370
    -3
  6
Continuous
100
AcDbPoint
 10
138.852818
 20
-2.085518
 30
0.0
  0
ARC
  5
85
100
AcDbEntity
  8
0
370
    -3
  6
Continuous
100
AcDbCircle
 10
139.552818
 20
-5.008369
 30
0.0
 40
3.0
100
AcDbArc
 50
100.0
 51
154.158067
  0
ARC
  5
86
100
AcDbEntity
  8
0
370
    -3
  6
Continuous
100
AcDbCircle
 10
139.552818
 20
-63.162667
 30
0.0
 40
3.0
100
AcDbArc
 50
205.841933
 51
260.0
  0
LINE
  5
87
100
AcDbEntity
  8
0
370
    -3
  6
Continuous
100
AcDbLine
 10
139.031874
 20
-66.117091
 30
0.0
 11
143.352818
 21
-66.87899
 31
0.0
  0
POINT
  5
88
100
AcDbEntity
  8
0
370
    -3
  6
Continuous
100
AcDbPoint
 10
138.852818
 20
-66.085518
 30
0.0
  0
LINE
  5
89
100
AcDbEntity
  8
0
370
    -3
  6
Continuous
100
AcDbLine
 10
136.852818
 20
-64.470337
 30
0.0
 11
136.852818
 21
-3.7007
 31
0.0
  0
ARC
  5
8A
100
AcDbEntity
  8
0
370
    -3
  6
Continuous
100
AcDbCircle
 10
253.852818
 20
-125.03361
 30
0.0
 40
3.0
100
AcDbArc
 50
0.0
 51
89.0
  0
LINE
  5
8B
100
AcDbEntity
  8
0
370
    -3
  6
Continuous
100
AcDbLine
 10
253.905175
 20
-122.034067
 30
0.0
 11
230.335366
 21
-121.622655
 31
0.0
  0
LINE
  5
8C
100
AcDbEntity
  8
0
370
    -3
  6
Continuous
100
AcDbLine
 10
256.852818
 20
-134.085518
 30
0.0
 11
256.852818
 21
-125.03361
 31
0.0
  0
LINE
  5
8D
100
AcDbEntity
  8
0
370
    -3
  6
CENTER
100
AcDbLine
 10
246.852818
 20
-138.454525
 30
0.0
 11
246.852818
 21
-117.301529
 31
0.0
  0
ARC
  5
8E
100
AcDbEntity
  8
0
370
    -3
  6
Continuous
100
AcDbCircle
 10
233.852818
 20
-117.085791
 30
0.0
 40
3.0
100
AcDbArc
 50
270.0
 51
0.0
  0
ARC
  5
8F
100
AcDbEntity
  8
0
370
    -3
  6
Continuous
100
AcDbCircle
 10
230.352818
 20
-120.622807
 30
0.0
 40
1.0
100
AcDbArc
 50
180.0
 51
269.0
  0
LINE
  5
90
100
AcDbEntity
  8
0
370
    -3
  6
Continuous
100
AcDbLine
 10
229.352818
 20
-120.622807
 30
0.0
 11
229.352818
 21
-111.34848
 31
0.0
  0
ARC
  5
91
100
AcDbEntity
  8
0
370
    -3
  6
Continuous
100
AcDbCircle
 10
139.852818
 20
-125.03361
 30
0.0
 40
3.0
100
AcDbArc
 50
91.0
 51
180.0
  0
ARC
  5
92
100
AcDbEntity
  8
0
370
    -3
  6
Continuous
100
AcDbCircle
 10
156.352818
 20
-118.744688
 30
0.0
 40
3.0
100
AcDbArc
 50
271.0
 51
0.0
  0
LINE
  5
93
100
AcDbEntity
  8
0
370
    -3
  6
Continuous
100
AcDbLine
 10
159.352818
 20
-118.744688
 30
0.0
 11
159.352818
 21
-108.673053
 31
0.0
  0
LINE
  5
94
100
AcDbEntity
  8
0
370
    -3
  6
Continuous
100
AcDbLine
 10
156.405175
 20
-121.744231
 30
0.0
 11
139.800461
 21
-122.034067
 31
0.0
  0
LINE
  5
95
100
AcDbEntity
  8
0
370
    -3
  6
CENTER
100
AcDbLine
 10
146.852818
 20
-137.115634
 30
0.0
 11
146.852818
 21
-117.880534
 31
0.0
  0
LINE
  5
96
100
AcDbEntity
  8
0
370
    -3
  6
Continuous
100
AcDbLine
 10
136.852818
 20
-134.085518
 30
0.0
 11
136.852818
 21
-125.03361
 31
0.0
  0
LINE
  5
97
100
AcDbEntity
  8
0
370
    -3
  6
Continuous
100
AcDbLine
 10
256.852818
 20
-134.085518
 30
0.0
 11
136.852818
 21
-134.085518
 31
0.0
  0
LINE
  5
98
100
AcDbEntity
  8
0
370
    -3
  6
Continuous
100
AcDbLine
 10
254.373781
 20
-66.169989
 30
0.0
 11
250.713512
 21
-66.815393
 31
0.0
  0
LINE
  5
99
100
AcDbEntity
  8
0
370
    -3
  6
Continuous
100
AcDbLine
 10
236.852818
 20
-106.968252
 30
0.0
 11
236.852818
 21
-117.085791
 31
0.0
  0
LINE
  5
9A
100
AcDbEntity
  8
0
370
    -3
  6
Continuous
100
AcDbLine
 10
254.873781
 20
-2.089211
 30
0.0
 11
241.484577
 21
0.271666
 31
0.0
  0
ARC
  5
9B
100
AcDbEntity
  8
0
370
    -3
  6
Continuous
100
AcDbCircle
 10
242.352818
 20
5.195705
 30
0.0
 40
5.0
100
AcDbArc
 50
180.0
 51
260.0
  0
POINT
  5
9C
100
AcDbEntity
  8
0
370
    -3
  6
Continuous
100
AcDbPoint
 10
237.352818
 20
1.000207
 30
0.0
  0
LINE
  5
9D
100
AcDbEntity
  8
0
370
    -3
  6
Continuous
100
AcDbLine
 10
159.352818
 20
-3.830275
 30
0.0
 11
159.352818
 21
7.503859
 31
0.0
  0
LINE
  5
9E
100
AcDbEntity
  8
0
370
    -3
  6
CENTER
100
AcDbLine
 10
85.725076
 20
-34.085518
 30
0.0
 11
305.857175
 21
-34.085518
 31
0.0
  0
LINE
  5
9F
100
AcDbEntity
  8
0
370
    -3
  6
Continuous
100
AcDbLine
 10
134.8528
 20
-22.085518
 30
0.0
 11
134.8528
 21
-34.085518
 31
0.0
  0
LINE
  5
A0
100
AcDbEntity
  8
0
370
    -3
  6
Continuous
100
AcDbLine
 10
134.8528
 20
-46.085518
 30
0.0
 11
134.8528
 21
-34.085518
 31
0.0
  0
LINE
  5
A1
100
AcDbEntity
  8
0
370
    -3
  6
Continuous
100
AcDbLine
 10
134.8528
 20
-45.085518
 30
0.0
 11
95.2528
 21
-45.085518
 31
0.0
  0
LINE
  5
A2
100
AcDbEntity
  8
0
370
    -3
  6
Continuous
100
AcDbLine
 10
134.8528
 20
-23.085518
 30
0.0
 11
94.8528
 21
-23.085518
 31
0.0
  0
LINE
  5
A3
100
AcDbEntity
  8
0
370
    -3
  6
Continuous
100
AcDbLine
 10
136.8528
 20
-22.085518
 30
0.0
 11
134.8528
 21
-22.085518
 31
0.0
  0
LINE
  5
A4
100
AcDbEntity
  8
0
370
    -3
  6
Continuous
100
AcDbLine
 10
136.8528
 20
-46.085518
 30
0.0
 11
134.8528
 21
-46.085518
 31
0.0
  0
LINE
  5
A5
100
AcDbEntity
  8
0
370
    -3
  6
Continuous
100
AcDbLine
 10
94.8528
 20
-20.585518
 30
0.0
 11
126.852782
 21
-20.585518
 31
0.0
  0
LINE
  5
A6
100
AcDbEntity
  8
0
370
    -3
  6
Continuous
100
AcDbLine
 10
126.8528
 20
-23.085518
 30
0.0
 11
126.8528
 21
-20.585518
 31
0.0
  0
LINE
  5
A7
100
AcDbEntity
  8
0
370
    -3
  6
Continuous
100
AcDbLine
 10
94.8528
 20
-44.685518
 30
0.0
 11
94.8528
 21
-34.085518
 31
0.0
  0
ARC
  5
A8
100
AcDbEntity
  8
0
370
    -3
  6
Continuous
100
AcDbCircle
 10
95.2528
 20
-44.685518
 30
0.0
 40
0.4
100
AcDbArc
 50
180.0
 51
270.0
  0
LINE
  5
A9
100
AcDbEntity
  8
0
370
    -3
  6
Continuous
100
AcDbLine
 10
94.8528
 20
-23.085518
 30
0.0
 11
94.8528
 21
-34.085518
 31
0.0
  0
LINE
  5
AA
100
AcDbEntity
  8
0
370
    -3
  6
Continuous
100
AcDbLine
 10
94.8528
 20
-20.585518
 30
0.0
 11
94.8528
 21
-23.085518
 31
0.0
  0
LINE
  5
AB
100
AcDbEntity
  8
0
370
    -3
  6
Continuous
100
AcDbLine
 10
156.352752
 20
-5.910094
 30
0.0
 11
156.352752
 21
7.649462
 31
0.0
  0
LINE
  5
AC
100
AcDbEntity
  8
0
370
    -3
  6
Continuous
100
AcDbLine
 10
237.352818
 20
-5.910043
 30
0.0
 11
237.352818
 21
7.649449
 31
0.0
  0
LINE
  5
AD
100
AcDbEntity
  8
0
370
    -3
  6
Continuous
100
AcDbLine
 10
229.352818
 20
-1.154847
 30
0.0
 11
229.352818
 21
0.864485
 31
0.0
  0
ARC
  5
AE
100
AcDbEntity
  8
0
370
    -3
  6
Continuous
100
AcDbCircle
 10
-132.147191
 20
283.322569
 30
0.0
 40
3.0
100
AcDbArc
 50
89.0
 51
180.0
  0
LINE
  5
AF
100
AcDbEntity
  8
0
370
    -3
  6
CENTER
100
AcDbLine
 10
-217.646883
 20
128.350931
 30
0.0
 11
-217.646883
 21
340.795372
 31
0.0
  0
ARC
  5
B0
100
AcDbEntity
  8
0
370
    -3
  6
Continuous
100
AcDbCircle
 10
-217.646883
 20
162.788098
 30
0.0
 40
3.0
100
AcDbArc
 50
0.0
 51
180.0
  0
LINE
  5
B1
100
AcDbEntity
  8
0
370
    -3
  6
Continuous
100
AcDbLine
 10
-206.646883
 20
170.788098
 30
0.0
 11
-206.646883
 21
130.788098
 31
0.0
  0
LINE
  5
B2
100
AcDbEntity
  8
0
370
    -3
  6
Continuous
100
AcDbLine
 10
-206.646883
 20
130.788098
 30
0.0
 11
-217.646883
 21
130.788098
 31
0.0
  0
ARC
  5
B3
100
AcDbEntity
  8
0
370
    -3
  6
Continuous
100
AcDbCircle
 10
-228.246883
 20
131.188098
 30
0.0
 40
0.4
100
AcDbArc
 50
180.0
 51
270.0
  0
LINE
  5
B4
100
AcDbEntity
  8
0
370
    -3
  6
Continuous
100
AcDbLine
 10
-228.646883
 20
170.788098
 30
0.0
 11
-228.646883
 21
131.188098
 31
0.0
  0
LINE
  5
B5
100
AcDbEntity
  8
0
370
    -3
  6
Continuous
100
AcDbLine
 10
-228.246883
 20
130.788098
 30
0.0
 11
-217.646883
 21
130.788098
 31
0.0
  0
LINE
  5
B6
100
AcDbEntity
  8
0
370
    -3
  6
Continuous
100
AcDbLine
 10
-229.646883
 20
170.788098
 30
0.0
 11
-217.646883
 21
170.788098
 31
0.0
  0
LINE
  5
B7
100
AcDbEntity
  8
0
370
    -3
  6
Continuous
100
AcDbLine
 10
-205.646883
 20
170.788098
 30
0.0
 11
-217.646883
 21
170.788098
 31
0.0
  0
LINE
  5
B8
100
AcDbEntity
  8
0
370
    -3
  6
Continuous
100
AcDbLine
 10
-220.646883
 20
162.788098
 30
0.0
 11
-214.646883
 21
162.788098
 31
0.0
  0
LINE
  5
B9
100
AcDbEntity
  8
0
370
    -3
  6
Continuous
100
AcDbLine
 10
-229.646883
 20
172.788098
 30
0.0
 11
-229.646883
 21
170.788098
 31
0.0
  0
LINE
  5
BA
100
AcDbEntity
  8
0
370
    -3
  6
Continuous
100
AcDbLine
 10
-205.646883
 20
172.788098
 30
0.0
 11
-205.646883
 21
170.788098
 31
0.0
  0
LINE
  5
BB
100
AcDbEntity
  8
0
370
    -3
  6
Continuous
100
AcDbLine
 10
-220.646883
 20
130.788098
 30
0.0
 11
-220.646883
 21
162.788098
 31
0.0
  0
LINE
  5
BC
100
AcDbEntity
  8
0
370
    -3
  6
Continuous
100
AcDbLine
 10
-214.646883
 20
130.788098
 30
0.0
 11
-214.646883
 21
162.788098
 31
0.0
  0
LINE
  5
BD
100
AcDbEntity
  8
0
370
    -3
  6
Continuous
100
AcDbLine
 10
-156.868737
 20
195.288134
 30
0.0
 11
-150.147146
 21
195.288134
 31
0.0
  0
ARC
  5
BE
100
AcDbEntity
  8
0
370
    -3
  6
Continuous
100
AcDbCircle
 10
-150.147146
 20
193.288134
 30
0.0
 40
2.0
100
AcDbArc
 50
0.0
 51
90.0
  0
LINE
  5
BF
100
AcDbEntity
  8
0
370
    -3
  6
Continuous
100
AcDbLine
 10
-145.094834
 20
286.549028
 30
0.0
 11
-130.147191
 21
286.288116
 31
0.0
  0
LINE
  5
C0
100
AcDbEntity
  8
0
370
    -3
  6
Continuous
100
AcDbLine
 10
-145.094834
 20
179.027204
 30
0.0
 11
-130.147191
 21
179.288116
 31
0.0
  0
ARC
  5
C1
100
AcDbEntity
  8
0
370
    -3
  6
Continuous
100
AcDbCircle
 10
-145.147191
 20
201.89595
 30
0.0
 40
3.0
100
AcDbArc
 50
180.0
 51
270.0
  0
LINE
  5
C2
100
AcDbEntity
  8
0
370
    -3
  6
Continuous
100
AcDbLine
 10
-148.147191
 20
182.026747
 30
0.0
 11
-148.147191
 21
232.788116
 31
0.0
  0
ARC
  5
C3
100
AcDbEntity
  8
0
370
    -3
  6
Continuous
100
AcDbCircle
 10
-137.147191
 20
193.358464
 30
0.0
 40
2.0
100
AcDbArc
 50
270.0
 51
0.0
  0
ARC
  5
C4
100
AcDbEntity
  8
0
370
    -3
  6
Continuous
100
AcDbCircle
 10
-138.147191
 20
185.288116
 30
0.0
 40
3.0
100
AcDbArc
 50
0.0
 51
90.0
  0
ARC
  5
C5
100
AcDbEntity
  8
0
370
    -3
  6
Continuous
100
AcDbCircle
 10
-143.147191
 20
193.288116
 30
0.0
 40
5.0
100
AcDbArc
 50
180.0
 51
270.0
  0
ARC
  5
C6
100
AcDbEntity
  8
0
370
    -3
  6
Continuous
100
AcDbCircle
 10
-143.147191
 20
196.358464
 30
0.0
 40
5.0
100
AcDbArc
 50
180.0
 51
270.0
  0
ARC
  5
C7
100
AcDbEntity
  8
0
370
    -3
  6
Continuous
100
AcDbCircle
 10
-138.147191
 20
201.89595
 30
0.0
 40
3.0
100
AcDbArc
 50
270.0
 51
0.0
  0
LINE
  5
C8
100
AcDbEntity
  8
0
370
    -3
  6
Continuous
100
AcDbLine
 10
-137.147191
 20
191.358464
 30
0.0
 11
-143.147191
 21
191.358464
 31
0.0
  0
LINE
  5
C9
100
AcDbEntity
  8
0
370
    -3
  6
Continuous
100
AcDbLine
 10
-138.147191
 20
188.288116
 30
0.0
 11
-143.147191
 21
188.288116
 31
0.0
  0
LINE
  5
CA
100
AcDbEntity
  8
0
370
    -3
  6
Continuous
100
AcDbLine
 10
-145.147191
 20
198.89595
 30
0.0
 11
-138.147191
 21
198.89595
 31
0.0
  0
LINE
  5
CB
100
AcDbEntity
  8
0
370
    -3
  6
Continuous
100
AcDbLine
 10
-148.147191
 20
195.89595
 30
0.0
 11
-148.147191
 21
193.288116
 31
0.0
  0
LINE
  5
CC
100
AcDbEntity
  8
0
370
    -3
  6
Continuous
100
AcDbLine
 10
-135.147191
 20
185.288116
 30
0.0
 11
-135.147191
 21
182.253663
 31
0.0
  0
ARC
  5
CD
100
AcDbEntity
  8
0
370
    -3
  6
Continuous
100
AcDbCircle
 10
-145.147191
 20
182.026747
 30
0.0
 40
3.0
100
AcDbArc
 50
180.0
 51
271.0
  0
ARC
  5
CE
100
AcDbEntity
  8
0
370
    -3
  6
Continuous
100
AcDbCircle
 10
-132.147191
 20
182.253663
 30
0.0
 40
3.0
100
AcDbArc
 50
180.0
 51
271.0
  0
LINE
  5
CF
100
AcDbEntity
  8
0
370
    -3
  6
Continuous
100
AcDbLine
 10
-135.147191
 20
232.788116
 30
0.0
 11
-135.147191
 21
193.358464
 31
0.0
  0
LINE
  5
D0
100
AcDbEntity
  8
0
370
    -3
  6
Continuous
100
AcDbLine
 10
-135.147191
 20
212.788116
 30
0.0
 11
-131.010718
 21
212.788116
 31
0.0
  0
ARC
  5
D1
100
AcDbEntity
  8
0
370
    -3
  6
Continuous
100
AcDbCircle
 10
-145.147191
 20
263.680282
 30
0.0
 40
3.0
100
AcDbArc
 50
90.0
 51
180.0
  0
LINE
  5
D2
100
AcDbEntity
  8
0
370
    -3
  6
Continuous
100
AcDbLine
 10
-148.147191
 20
283.549485
 30
0.0
 11
-148.147191
 21
232.788116
 31
0.0
  0
ARC
  5
D3
100
AcDbEntity
  8
0
370
    -3
  6
Continuous
100
AcDbCircle
 10
-143.147191
 20
272.288116
 30
0.0
 40
5.0
100
AcDbArc
 50
90.0
 51
180.0
  0
ARC
  5
D4
100
AcDbEntity
  8
0
370
    -3
  6
Continuous
100
AcDbCircle
 10
-143.147191
 20
269.217768
 30
0.0
 40
5.0
100
AcDbArc
 50
90.0
 51
180.0
  0
ARC
  5
D5
100
AcDbEntity
  8
0
370
    -3
  6
Continuous
100
AcDbCircle
 10
-137.147191
 20
272.217768
 30
0.0
 40
2.0
100
AcDbArc
 50
0.0
 51
90.0
  0
ARC
  5
D6
100
AcDbEntity
  8
0
370
    -3
  6
Continuous
100
AcDbCircle
 10
-138.147191
 20
280.288116
 30
0.0
 40
3.0
100
AcDbArc
 50
270.0
 51
0.0
  0
ARC
  5
D7
100
AcDbEntity
  8
0
370
    -3
  6
Continuous
100
AcDbCircle
 10
-138.147191
 20
263.680282
 30
0.0
 40
3.0
100
AcDbArc
 50
0.0
 51
90.0
  0
LINE
  5
D8
100
AcDbEntity
  8
0
370
    -3
  6
Continuous
100
AcDbLine
 10
-135.147191
 20
232.788116
 30
0.0
 11
-135.147191
 21
272.217768
 31
0.0
  0
LINE
  5
D9
100
AcDbEntity
  8
0
370
    -3
  6
Continuous
100
AcDbLine
 10
-135.147191
 20
252.788116
 30
0.0
 11
-131.445509
 21
252.788116
 31
0.0
  0
LINE
  5
DA
100
AcDbEntity
  8
0
370
    -3
  6
Continuous
100
AcDbLine
 10
-145.147191
 20
266.680282
 30
0.0
 11
-138.147191
 21
266.680282
 31
0.0
  0
LINE
  5
DB
100
AcDbEntity
  8
0
370
    -3
  6
Continuous
100
AcDbLine
 10
-148.147191
 20
269.680282
 30
0.0
 11
-148.147191
 21
272.288116
 31
0.0
  0
LINE
  5
DC
100
AcDbEntity
  8
0
370
    -3
  6
Continuous
100
AcDbLine
 10
-137.147191
 20
274.217768
 30
0.0
 11
-143.147191
 21
274.217768
 31
0.0
  0
LINE
  5
DD
100
AcDbEntity
  8
0
370
    -3
  6
Continuous
100
AcDbLine
 10
-138.147191
 20
277.288116
 30
0.0
 11
-143.147191
 21
277.288116
 31
0.0
  0
LINE
  5
DE
100
AcDbEntity
  8
0
370
    -3
  6
Continuous
100
AcDbLine
 10
-135.147191
 20
280.288116
 30
0.0
 11
-135.147191
 21
283.322569
 31
0.0
  0
ARC
  5
DF
100
AcDbEntity
  8
0
370
    -3
  6
Continuous
100
AcDbCircle
 10
-145.147191
 20
283.549485
 30
0.0
 40
3.0
100
AcDbArc
 50
89.0
 51
180.0
  0
ARC
  5
E0
100
AcDbEntity
  8
0
370
    -3
  6
Continuous
100
AcDbCircle
 10
-272.567878
 20
269.788116
 30
0.0
 40
3.0
100
AcDbArc
 50
90.0
 51
179.0
  0
ARC
  5
E1
100
AcDbEntity
  8
0
370
    -3
  6
Continuous
100
AcDbCircle
 10
-159.22687
 20
174.788116
 30
0.0
 40
2.0
100
AcDbArc
 50
270.0
 51
359.0
  0
LINE
  5
E2
100
AcDbEntity
  8
0
370
    -3
  6
Continuous
100
AcDbLine
 10
-155.646882
 20
265.288116
 30
0.0
 11
-157.227175
 21
174.753211
 31
0.0
  0
LINE
  5
E3
100
AcDbEntity
  8
0
370
    -3
  6
Continuous
100
AcDbLine
 10
-272.066895
 20
172.788116
 30
0.0
 11
-159.22687
 21
172.788116
 31
0.0
  0
ARC
  5
E4
100
AcDbEntity
  8
0
370
    -3
  6
Continuous
100
AcDbCircle
 10
-272.066895
 20
174.788116
 30
0.0
 40
2.0
100
AcDbArc
 50
181.0
 51
270.0
  0
LINE
  5
E5
100
AcDbEntity
  8
0
370
    -3
  6
Continuous
100
AcDbLine
 10
-275.65561
 20
265.788098
 30
0.0
 11
-274.06659
 21
174.753211
 31
0.0
  0
LINE
  5
E6
100
AcDbEntity
  8
0
370
    -3
  6
Continuous
100
AcDbLine
 10
-156.092596
 20
290.823039
 30
0.0
 11
-155.646883
 21
265.288116
 31
0.0
  0
LINE
  5
E7
100
AcDbEntity
  8
0
370
    -3
  6
Continuous
100
AcDbLine
 10
-275.201169
 20
290.823039
 30
0.0
 11
-275.646883
 21
265.288116
 31
0.0
  0
ARC
  5
E8
100
AcDbEntity
  8
0
370
    -3
  6
Continuous
100
AcDbCircle
 10
-271.476937
 20
198.288116
 30
0.0
 40
3.0
100
AcDbArc
 50
181.0
 51
270.0
  0
ARC
  5
E9
100
AcDbEntity
  8
0
370
    -3
  6
Continuous
100
AcDbCircle
 10
-159.816829
 20
198.288116
 30
0.0
 40
3.0
100
AcDbArc
 50
270.0
 51
359.0
  0
CIRCLE
  5
EA
100
AcDbEntity
  8
0
370
    -3
  6
CENTER
100
AcDbCircle
 10
-169.646883
 20
282.788116
 30
0.0
 40
9.0
  0
CIRCLE
  5
EB
100
AcDbEntity
  8
0
370
    -3
  6
Continuous
100
AcDbCircle
 10
-169.646883
 20
282.788116
 30
0.0
 40
4.5
  0
LINE
  5
EC
100
AcDbEntity
  8
0
370
    -3
  6
CENTER
100
AcDbLine
 10
-159.361592
 20
282.788116
 30
0.0
 11
-181.48075
 21
282.788116
 31
0.0
  0
LINE
  5
ED
100
AcDbEntity
  8
0
370
    -3
  6
CENTER
100
AcDbLine
 10
-169.646883
 20
292.433951
 30
0.0
 11
-169.646883
 21
271.746293
 31
0.0
  0
CIRCLE
  5
EE
100
AcDbEntity
  8
0
370
    -3
  6
CENTER
100
AcDbCircle
 10
-262.646883
 20
282.788116
 30
0.0
 40
9.0
  0
LINE
  5
EF
100
AcDbEntity
  8
0
370
    -3
  6
CENTER
100
AcDbLine
 10
-248.860723
 20
282.788116
 30
0.0
 11
-273.789046
 21
282.788116
 31
0.0
  0
LINE
  5
F0
100
AcDbEntity
  8
0
370
    -3
  6
CENTER
100
AcDbLine
 10
-262.646883
 20
292.433951
 30
0.0
 11
-262.646883
 21
271.572127
 31
0.0
  0
CIRCLE
  5
F1
100
AcDbEntity
  8
0
370
    -3
  6
CENTER
100
AcDbCircle
 10
-169.646883
 20
182.788116
 30
0.0
 40
9.0
  0
CIRCLE
  5
F2
100
AcDbEntity
  8
0
370
    -3
  6
Continuous
100
AcDbCircle
 10
-169.646883
 20
182.788116
 30
0.0
 40
4.5
  0
LINE
  5
F3
100
AcDbEntity
  8
0
370
    -3
  6
CENTER
100
AcDbLine
 10
-158.43189
 20
182.788116
 30
0.0
 11
-180.43575
 21
182.788116
 31
0.0
  0
LINE
  5
F4
100
AcDbEntity
  8
0
370
    -3
  6
CENTER
100
AcDbLine
 10
-169.646883
 20
193.893825
 30
0.0
 11
-169.646883
 21
170.903834
 31
0.0
  0
CIRCLE
  5
F5
100
AcDbEntity
  8
0
370
    -3
  6
CENTER
100
AcDbCircle
 10
-262.646883
 20
182.788116
 30
0.0
 40
9.0
  0
CIRCLE
  5
F6
100
AcDbEntity
  8
0
370
    -3
  6
Continuous
100
AcDbCircle
 10
-262.646883
 20
182.788116
 30
0.0
 40
4.5
  0
LINE
  5
F7
100
AcDbEntity
  8
0
370
    -3
  6
CENTER
100
AcDbLine
 10
-250.624889
 20
182.788116
 30
0.0
 11
-273.03637
 21
182.788116
 31
0.0
  0
LINE
  5
F8
100
AcDbEntity
  8
0
370
    -3
  6
CENTER
100
AcDbLine
 10
-262.646883
 20
194.416324
 30
0.0
 11
-262.646883
 21
171.426334
 31
0.0
  0
LINE
  5
F9
100
AcDbEntity
  8
0
370
    -3
  6
Continuous
100
AcDbLine
 10
-158.092292
 20
292.788134
 30
0.0
 11
-273.201474
 21
292.788134
 31
0.0
  0
LINE
  5
FA
100
AcDbEntity
  8
0
370
    -3
  6
Continuous
100
AcDbLine
 10
-275.646883
 20
265.288116
 30
0.0
 11
-155.646883
 21
265.288116
 31
0.0
  0
ARC
  5
FB
100
AcDbEntity
  8
0
370
    -3
  6
Continuous
100
AcDbCircle
 10
-273.201474
 20
290.788134
 30
0.0
 40
2.0
100
AcDbArc
 50
90.0
 51
179.0
  0
LINE
  5
FC
100
AcDbEntity
  8
0
370
    -3
  6
Continuous
100
AcDbLine
 10
-257.01627
 20
272.788116
 30
0.0
 11
-272.567878
 21
272.788116
 31
0.0
  0
LINE
  5
FD
100
AcDbEntity
  8
0
370
    -3
  6
Continuous
100
AcDbLine
 10
-254.83682
 20
273.288116
 30
0.0
 11
-158.734343
 21
273.288116
 31
0.0
  0
LINE
  5
FE
100
AcDbEntity
  8
0
370
    -3
  6
Continuous
100
AcDbLine
 10
-256.928091
 20
192.288049
 30
0.0
 11
-170.646883
 21
192.288049
 31
0.0
  0
ARC
  5
FF
100
AcDbEntity
  8
0
370
    -3
  6
Continuous
100
AcDbCircle
 10
-188.569734
 20
175.488116
 30
0.0
 40
3.0
100
AcDbArc
 50
295.841933
 51
350.0
  0
POINT
  5
100
100
AcDbEntity
  8
0
370
    -3
  6
Continuous
100
AcDbPoint
 10
-185.646883
 20
174.788116
 30
0.0
  0
LINE
  5
101
100
AcDbEntity
  8
0
370
    -3
  6
Continuous
100
AcDbLine
 10
-185.61531
 20
174.967172
 30
0.0
 11
-183.289713
 21
188.15629
 31
0.0
  0
POINT
  5
102
100
AcDbEntity
  8
0
370
    -3
  6
Continuous
100
AcDbPoint
 10
-167.646883
 20
195.288049
 30
0.0
  0
ARC
  5
103
100
AcDbEntity
  8
0
370
    -3
  6
Continuous
100
AcDbCircle
 10
-170.646883
 20
195.288049
 30
0.0
 40
3.0
100
AcDbArc
 50
270.0
 51
330.000935
  0
ARC
  5
104
100
AcDbEntity
  8
0
370
    -3
  6
Continuous
100
AcDbCircle
 10
-165.450681
 20
192.288134
 30
0.0
 40
3.0
100
AcDbArc
 50
90.0
 51
150.000935
  0
ARC
  5
105
100
AcDbEntity
  8
0
370
    -3
  6
Continuous
100
AcDbCircle
 10
-178.365674
 20
187.288049
 30
0.0
 40
5.0
100
AcDbArc
 50
90.000075
 51
170.0
  0
LINE
  5
106
100
AcDbEntity
  8
0
370
    -3
  6
Continuous
100
AcDbLine
 10
-256.928091
 20
192.288049
 30
0.0
 11
-264.646883
 21
192.288049
 31
0.0
  0
ARC
  5
107
100
AcDbEntity
  8
0
370
    -3
  6
Continuous
100
AcDbCircle
 10
-264.646883
 20
195.288049
 30
0.0
 40
3.0
100
AcDbArc
 50
209.999065
 51
270.0
  0
ARC
  5
108
100
AcDbEntity
  8
0
370
    -3
  6
Continuous
100
AcDbCircle
 10
-269.843084
 20
192.288134
 30
0.0
 40
3.0
100
AcDbArc
 50
29.999065
 51
90.0
  0
POINT
  5
109
100
AcDbEntity
  8
0
370
    -3
  6
Continuous
100
AcDbPoint
 10
-249.646883
 20
174.788116
 30
0.0
  0
LINE
  5
10A
100
AcDbEntity
  8
0
370
    -3
  6
Continuous
100
AcDbLine
 10
-249.678455
 20
174.967172
 30
0.0
 11
-252.004052
 21
188.15629
 31
0.0
  0
ARC
  5
10B
100
AcDbEntity
  8
0
370
    -3
  6
Continuous
100
AcDbCircle
 10
-246.724032
 20
175.488116
 30
0.0
 40
3.0
100
AcDbArc
 50
190.0
 51
244.158067
  0
ARC
  5
10C
100
AcDbEntity
  8
0
370
    -3
  6
Continuous
100
AcDbCircle
 10
-256.928091
 20
187.288049
 30
0.0
 40
5.0
100
AcDbArc
 50
10.0
 51
89.999925
  0
ARC
  5
10D
100
AcDbEntity
  8
0
370
    -3
  6
Continuous
100
AcDbCircle
 10
-257.01627
 20
277.788116
 30
0.0
 40
5.0
100
AcDbArc
 50
270.0
 51
350.0
  0
LINE
  5
10E
100
AcDbEntity
  8
0
370
    -3
  6
Continuous
100
AcDbLine
 10
-249.731353
 20
290.309079
 30
0.0
 11
-252.092231
 21
276.919875
 31
0.0
  0
ARC
  5
10F
100
AcDbEntity
  8
0
370
    -3
  6
Continuous
100
AcDbCircle
 10
-246.77693
 20
289.788134
 30
0.0
 40
3.0
100
AcDbArc
 50
90.0
 51
170.0
  0
POINT
  5
110
100
AcDbEntity
  8
0
370
    -3
  6
Continuous
100
AcDbPoint
 10
-182.561157
 20
273.288116
 30
0.0
  0
ARC
  5
111
100
AcDbEntity
  8
0
370
    -3
  6
Continuous
100
AcDbCircle
 10
-178.365659
 20
278.288116
 30
0.0
 40
5.0
100
AcDbArc
 50
190.0
 51
270.0
  0
LINE
  5
112
100
AcDbEntity
  8
0
370
    -3
  6
Continuous
100
AcDbLine
 10
-185.650576
 20
290.809079
 30
0.0
 11
-183.289698
 21
277.419875
 31
0.0
  0
ARC
  5
113
100
AcDbEntity
  8
0
370
    -3
  6
Continuous
100
AcDbCircle
 10
-188.516836
 20
289.788134
 30
0.0
 40
3.0
100
AcDbArc
 50
10.0
 51
90.0
  0
LINE
  5
114
100
AcDbEntity
  8
0
370
    -3
  6
Continuous
100
AcDbLine
 10
-155.64661
 20
265.288116
 30
0.0
 11
-155.734799
 21
270.340473
 31
0.0
  0
LINE
  5
115
100
AcDbEntity
  8
0
370
    -3
  6
Continuous
100
AcDbLine
 10
-155.64661
 20
265.288116
 30
0.0
 11
-159.146883
 21
265.288116
 31
0.0
  0
CIRCLE
  5
116
100
AcDbEntity
  8
0
370
    -3
  6
Continuous
100
AcDbCircle
 10
-262.646883
 20
282.788116
 30
0.0
 40
4.5
  0
LINE
  5
117
100
AcDbEntity
  8
0
370
    -3
  6
Continuous
100
AcDbLine
 10
-159.816829
 20
195.288116
 30
0.0
 11
-165.450681
 21
195.288134
 31
0.0
  0
LINE
  5
118
100
AcDbEntity
  8
0
370
    -3
  6
Continuous
100
AcDbLine
 10
-269.843084
 20
195.288134
 30
0.0
 11
-271.476937
 21
195.288116
 31
0.0
  0
ARC
  5
119
100
AcDbEntity
  8
0
370
    -3
  6
Continuous
100
AcDbCircle
 10
-158.092292
 20
290.788134
 30
0.0
 40
2.0
100
AcDbArc
 50
1.0
 51
90.0
  0
ARC
  5
11A
100
AcDbEntity
  8
0
370
    -3
  6
Continuous
100
AcDbCircle
 10
-158.734343
 20
270.288116
 30
0.0
 40
3.0
100
AcDbArc
 50
1.0
 51
90.0
  0
LINE
  5
11B
100
AcDbEntity
  8
0
370
    -3
  6
Continuous
100
AcDbLine
 10
-130.147191
 20
232.788116
 30
0.0
 11
-130.147191
 21
180.288116
 31
0.0
  0
LINE
  5
11C
100
AcDbEntity
  8
0
370
    -3
  6
Continuous
100
AcDbLine
 10
-130.147191
 20
232.788116
 30
0.0
 11
-130.147191
 21
285.288116
 31
0.0
  0
LINE
  5
11D
100
AcDbEntity
  8
0
370
    -3
  6
Continuous
100
AcDbLine
 10
-130.147191
 20
232.788116
 30
0.0
 11
-130.147191
 21
285.288116
 31
0.0
  0
LINE
  5
11E
100
AcDbEntity
  8
0
370
    -3
  6
Continuous
100
AcDbLine
 10
-130.147191
 20
232.788116
 30
0.0
 11
-130.147191
 21
180.288116
 31
0.0
  0
LINE
  5
11F
100
AcDbEntity
  8
0
370
    -3
  6
Continuous
100
AcDbLine
 10
-130.147191
 20
179.288116
 30
0.0
 11
-130.147191
 21
232.788116
 31
0.0
  0
LINE
  5
120
100
AcDbEntity
  8
0
370
    -3
  6
Continuous
100
AcDbLine
 10
-130.147191
 20
286.288116
 30
0.0
 11
-130.147191
 21
232.788116
 31
0.0
  0
ARC
  5
121
100
AcDbEntity
  8
0
370
    -3
  6
Continuous
100
AcDbCircle
 10
-153.646562
 20
265.288098
 30
0.0
 40
2.0
100
AcDbArc
 50
179.0
 51
270.0
  0
ARC
  5
122
100
AcDbEntity
  8
0
370
    -3
  6
Continuous
100
AcDbCircle
 10
-151.147146
 20
266.288098
 30
0.0
 40
3.0
100
AcDbArc
 50
270.0
 51
0.0
  0
LINE
  5
123
100
AcDbEntity
  8
0
370
    -3
  6
Continuous
100
AcDbLine
 10
-153.646562
 20
263.288098
 30
0.0
 11
-151.147146
 21
263.288098
 31
0.0
  0
LINE
  5
124
100
AcDbEntity
  8
0
370
    -3
  6
Continuous
100
AcDbLine
 10
-153.146561
 20
263.288098
 30
0.0
 11
-151.147146
 21
263.288098
 31
0.0
  0
ARC
  5
125
100
AcDbEntity
  8
0
370
    -3
  6
Continuous
100
AcDbCircle
 10
-336.646883
 20
-34.085518
 30
0.0
 40
11.0
100
AcDbArc
 50
105.82662
 51
74.17338
  0
LINE
  5
126
100
AcDbEntity
  8
0
370
    -3
  6
Continuous
100
AcDbLine
 10
-333.646883
 20
-20.585518
 30
0.0
 11
-333.646883
 21
-26.585518
 31
0.0
  0
LINE
  5
127
100
AcDbEntity
  8
0
370
    -3
  6
Continuous
100
AcDbLine
 10
-339.646883
 20
-20.585518
 30
0.0
 11
-339.646883
 21
-26.585518
 31
0.0
  0
LINE
  5
128
100
AcDbEntity
  8
0
370
    -3
  6
Continuous
100
AcDbLine
 10
-339.646883
 20
-20.585518
 30
0.0
 11
-333.646883
 21
-20.585518
 31
0.0
  0
LINE
  5
129
100
AcDbEntity
  8
0
370
    -3
  6
Continuous
100
AcDbLine
 10
-339.646883
 20
-26.585518
 30
0.0
 11
-333.646883
 21
-26.585518
 31
0.0
  0
LINE
  5
12A
100
AcDbEntity
  8
0
370
    -3
  6
CENTER
100
AcDbLine
 10
-336.646883
 20
-17.497422
 30
0.0
 11
-336.646883
 21
-48.17391
 31
0.0
  0
LINE
  5
12B
100
AcDbEntity
  8
0
370
    -3
  6
CENTER
100
AcDbLine
 10
-350.603316
 20
-34.085518
 30
0.0
 11
-321.992584
 21
-34.085518
 31
0.0
  0
CIRCLE
  5
12C
100
AcDbEntity
  8
0
370
    -3
  6
Continuous
100
AcDbCircle
 10
-336.646883
 20
-34.085518
 30
0.0
 40
4.0
  0
CIRCLE
  5
12D
100
AcDbEntity
  8
0
370
    -3
  6
Continuous
100
AcDbCircle
 10
-336.646883
 20
-34.085518
 30
0.0
 40
3.5
  0
LINE
  5
12E
100
AcDbEntity
  8
0
370
    -3
  6
Continuous
100
AcDbLine
 10
298.852836
 20
-20.585518
 30
0.0
 11
298.852836
 21
-23.085518
 31
0.0
  0
LINE
  5
12F
100
AcDbEntity
  8
0
370
    -3
  6
Continuous
100
AcDbLine
 10
298.852836
 20
-23.085518
 30
0.0
 11
298.852836
 21
-34.085518
 31
0.0
  0
ARC
  5
130
100
AcDbEntity
  8
0
370
    -3
  6
Continuous
100
AcDbCircle
 10
298.452836
 20
-44.685518
 30
0.0
 40
0.4
100
AcDbArc
 50
270.0
 51
0.0
  0
LINE
  5
131
100
AcDbEntity
  8
0
370
    -3
  6
Continuous
100
AcDbLine
 10
298.852836
 20
-44.685518
 30
0.0
 11
298.852836
 21
-34.085518
 31
0.0
  0
LINE
  5
132
100
AcDbEntity
  8
0
370
    -3
  6
Continuous
100
AcDbLine
 10
266.852836
 20
-23.085518
 30
0.0
 11
266.852836
 21
-20.585518
 31
0.0
  0
LINE
  5
133
100
AcDbEntity
  8
0
370
    -3
  6
Continuous
100
AcDbLine
 10
298.852836
 20
-20.585518
 30
0.0
 11
266.852855
 21
-20.585518
 31
0.0
  0
LINE
  5
134
100
AcDbEntity
  8
0
370
    -3
  6
Continuous
100
AcDbLine
 10
256.852836
 20
-46.085518
 30
0.0
 11
258.852836
 21
-46.085518
 31
0.0
  0
LINE
  5
135
100
AcDbEntity
  8
0
370
    -3
  6
Continuous
100
AcDbLine
 10
256.852836
 20
-22.085518
 30
0.0
 11
258.852836
 21
-22.085518
 31
0.0
  0
LINE
  5
136
100
AcDbEntity
  8
0
370
    -3
  6
Continuous
100
AcDbLine
 10
258.852836
 20
-23.085518
 30
0.0
 11
298.852836
 21
-23.085518
 31
0.0
  0
LINE
  5
137
100
AcDbEntity
  8
0
370
    -3
  6
Continuous
100
AcDbLine
 10
258.852836
 20
-45.085518
 30
0.0
 11
298.452836
 21
-45.085518
 31
0.0
  0
LINE
  5
138
100
AcDbEntity
  8
0
370
    -3
  6
Continuous
100
AcDbLine
 10
258.852836
 20
-46.085518
 30
0.0
 11
258.852836
 21
-34.085518
 31
0.0
  0
LINE
  5
139
100
AcDbEntity
  8
0
370
    -3
  6
Continuous
100
AcDbLine
 10
258.852836
 20
-22.085518
 30
0.0
 11
258.852836
 21
-34.085518
 31
0.0
  0
LINE
  5
13A
100
AcDbEntity
  8
0
370
    -3
  6
Continuous
100
AcDbLine
 10
-214.646883
 20
334.788134
 30
0.0
 11
-214.646883
 21
302.788134
 31
0.0
  0
LINE
  5
13B
100
AcDbEntity
  8
0
370
    -3
  6
Continuous
100
AcDbLine
 10
-220.646883
 20
334.788134
 30
0.0
 11
-220.646883
 21
302.788134
 31
0.0
  0
LINE
  5
13C
100
AcDbEntity
  8
0
370
    -3
  6
Continuous
100
AcDbLine
 10
-205.646883
 20
292.788134
 30
0.0
 11
-205.646883
 21
294.788134
 31
0.0
  0
LINE
  5
13D
100
AcDbEntity
  8
0
370
    -3
  6
Continuous
100
AcDbLine
 10
-229.646883
 20
292.788134
 30
0.0
 11
-229.646883
 21
294.788134
 31
0.0
  0
LINE
  5
13E
100
AcDbEntity
  8
0
370
    -3
  6
Continuous
100
AcDbLine
 10
-220.646883
 20
302.788134
 30
0.0
 11
-214.646883
 21
302.788134
 31
0.0
  0
LINE
  5
13F
100
AcDbEntity
  8
0
370
    -3
  6
Continuous
100
AcDbLine
 10
-205.646883
 20
294.788134
 30
0.0
 11
-217.646883
 21
294.788134
 31
0.0
  0
LINE
  5
140
100
AcDbEntity
  8
0
370
    -3
  6
Continuous
100
AcDbLine
 10
-229.646883
 20
294.788134
 30
0.0
 11
-217.646883
 21
294.788134
 31
0.0
  0
LINE
  5
141
100
AcDbEntity
  8
0
370
    -3
  6
Continuous
100
AcDbLine
 10
-228.246883
 20
334.788134
 30
0.0
 11
-217.646883
 21
334.788134
 31
0.0
  0
LINE
  5
142
100
AcDbEntity
  8
0
370
    -3
  6
Continuous
100
AcDbLine
 10
-228.646883
 20
294.788134
 30
0.0
 11
-228.646883
 21
334.388134
 31
0.0
  0
ARC
  5
143
100
AcDbEntity
  8
0
370
    -3
  6
Continuous
100
AcDbCircle
 10
-228.246883
 20
334.388134
 30
0.0
 40
0.4
100
AcDbArc
 50
90.0
 51
180.0
  0
LINE
  5
144
100
AcDbEntity
  8
0
370
    -3
  6
Continuous
100
AcDbLine
 10
-206.646883
 20
334.788134
 30
0.0
 11
-217.646883
 21
334.788134
 31
0.0
  0
LINE
  5
145
100
AcDbEntity
  8
0
370
    -3
  6
Continuous
100
AcDbLine
 10
-206.646883
 20
294.788134
 30
0.0
 11
-206.646883
 21
334.788134
 31
0.0
  0
ARC
  5
146
100
AcDbEntity
  8
0
370
    -3
  6
Continuous
100
AcDbCircle
 10
-217.646883
 20
302.788134
 30
0.0
 40
3.0
100
AcDbArc
 50
180.0
 51
0.0
  0
LINE
  5
147
100
AcDbEntity
  8
0
370
    -3
  6
CENTER
100
AcDbLine
 10
-291.43377
 20
232.788116
 30
0.0
 11
54.085815
 21
232.788116
 31
0.0
  0
LINE
  5
148
100
AcDbEntity
  8
0
370
    -3
  6
Continuous
100
AcDbLine
 10
-561.646919
 20
-46.085518
 30
0.0
 11
-561.646919
 21
-34.085518
 31
0.0
  0
LINE
  5
149
100
AcDbEntity
  8
0
370
    -3
  6
Continuous
100
AcDbLine
 10
-559.646919
 20
-46.085518
 30
0.0
 11
-561.646919
 21
-46.085518
 31
0.0
  0
LINE
  5
14A
100
AcDbEntity
  8
0
370
    -3
  6
Continuous
100
AcDbLine
 10
-561.646919
 20
-22.085518
 30
0.0
 11
-561.646919
 21
-34.085518
 31
0.0
  0
LINE
  5
14B
100
AcDbEntity
  8
0
370
    -3
  6
Continuous
100
AcDbLine
 10
-559.646919
 20
-22.085518
 30
0.0
 11
-561.646919
 21
-22.085518
 31
0.0
  0
LINE
  5
14C
100
AcDbEntity
  8
0
370
    -3
  6
Continuous
100
AcDbLine
 10
-561.646919
 20
-45.085518
 30
0.0
 11
-601.246919
 21
-45.085518
 31
0.0
  0
LINE
  5
14D
100
AcDbEntity
  8
0
370
    -3
  6
Continuous
100
AcDbLine
 10
-561.646919
 20
-23.085518
 30
0.0
 11
-601.646919
 21
-23.085518
 31
0.0
  0
LINE
  5
14E
100
AcDbEntity
  8
0
370
    -3
  6
Continuous
100
AcDbLine
 10
-601.646919
 20
-20.585518
 30
0.0
 11
-569.646938
 21
-20.585518
 31
0.0
  0
LINE
  5
14F
100
AcDbEntity
  8
0
370
    -3
  6
Continuous
100
AcDbLine
 10
-569.646919
 20
-23.085518
 30
0.0
 11
-569.646919
 21
-20.585518
 31
0.0
  0
LINE
  5
150
100
AcDbEntity
  8
0
370
    -3
  6
Continuous
100
AcDbLine
 10
-601.646919
 20
-44.685518
 30
0.0
 11
-601.646919
 21
-34.085518
 31
0.0
  0
ARC
  5
151
100
AcDbEntity
  8
0
370
    -3
  6
Continuous
100
AcDbCircle
 10
-601.246919
 20
-44.685518
 30
0.0
 40
0.4
100
AcDbArc
 50
180.0
 51
270.0
  0
LINE
  5
152
100
AcDbEntity
  8
0
370
    -3
  6
Continuous
100
AcDbLine
 10
-601.646919
 20
-23.085518
 30
0.0
 11
-601.646919
 21
-34.085518
 31
0.0
  0
LINE
  5
153
100
AcDbEntity
  8
0
370
    -3
  6
Continuous
100
AcDbLine
 10
-601.646919
 20
-20.585518
 30
0.0
 11
-601.646919
 21
-23.085518
 31
0.0
  0
LINE
  5
154
100
AcDbEntity
  8
0
370
    -3
  6
CENTER
100
AcDbLine
 10
-499.646901
 20
-141.433375
 30
0.0
 11
-499.646901
 21
38.556939
 31
0.0
  0
LINE
  5
155
100
AcDbEntity
  8
0
370
    -3
  6
CENTER
100
AcDbLine
 10
-518.983364
 20
-56.251664
 30
0.0
 11
-481.64702
 21
-56.251664
 31
0.0
  0
ARC
  5
156
100
AcDbEntity
  8
0
370
    -3
  6
Continuous
100
AcDbCircle
 10
-556.646919
 20
-63.215566
 30
0.0
 40
3.0
100
AcDbArc
 50
180.0
 51
260.0
  0
LINE
  5
157
100
AcDbEntity
  8
0
370
    -3
  6
Continuous
100
AcDbLine
 10
-559.646919
 20
-4.955471
 30
0.0
 11
-559.646919
 21
-63.215566
 31
0.0
  0
ARC
  5
158
100
AcDbEntity
  8
0
370
    -3
  6
Continuous
100
AcDbCircle
 10
-556.646919
 20
-4.955471
 30
0.0
 40
3.0
100
AcDbArc
 50
100.0
 51
180.0
  0
ARC
  5
159
100
AcDbEntity
  8
0
370
    -3
  6
Continuous
100
AcDbCircle
 10
-454.146834
 20
5.19569
 30
0.0
 40
5.0
100
AcDbArc
 50
180.000075
 51
260.0
  0
ARC
  5
15A
100
AcDbEntity
  8
0
370
    -3
  6
Continuous
100
AcDbCircle
 10
-459.146919
 20
18.110683
 30
0.0
 40
3.0
100
AcDbArc
 50
180.0
 51
240.000935
  0
ARC
  5
15B
100
AcDbEntity
  8
0
370
    -3
  6
Continuous
100
AcDbCircle
 10
-462.146834
 20
12.914482
 30
0.0
 40
3.0
100
AcDbArc
 50
360.0
 51
60.000935
  0
POINT
  5
15C
100
AcDbEntity
  8
0
370
    -3
  6
Continuous
100
AcDbPoint
 10
-462.146834
 20
15.914482
 30
0.0
  0
LINE
  5
15D
100
AcDbEntity
  8
0
370
    -3
  6
Continuous
100
AcDbLine
 10
-441.825957
 20
-2.053946
 30
0.0
 11
-455.015075
 21
0.271651
 31
0.0
  0
POINT
  5
15E
100
AcDbEntity
  8
0
370
    -3
  6
Continuous
100
AcDbPoint
 10
-441.646901
 20
-2.085518
 30
0.0
  0
ARC
  5
15F
100
AcDbEntity
  8
0
370
    -3
  6
Continuous
100
AcDbCircle
 10
-442.346901
 20
-5.008369
 30
0.0
 40
3.0
100
AcDbArc
 50
25.841933
 51
80.0
  0
ARC
  5
160
100
AcDbEntity
  8
0
370
    -3
  6
Continuous
100
AcDbCircle
 10
-454.146834
 20
-73.366727
 30
0.0
 40
5.0
100
AcDbArc
 50
100.0
 51
179.999925
  0
LINE
  5
161
100
AcDbEntity
  8
0
370
    -3
  6
Continuous
100
AcDbLine
 10
-459.146834
 20
-73.366727
 30
0.0
 11
-459.146834
 21
12.914482
 31
0.0
  0
ARC
  5
162
100
AcDbEntity
  8
0
370
    -3
  6
Continuous
100
AcDbCircle
 10
-442.346901
 20
-63.162667
 30
0.0
 40
3.0
100
AcDbArc
 50
280.0
 51
334.158067
  0
LINE
  5
163
100
AcDbEntity
  8
0
370
    -3
  6
Continuous
100
AcDbLine
 10
-441.825957
 20
-66.117091
 30
0.0
 11
-455.015075
 21
-68.442688
 31
0.0
  0
POINT
  5
164
100
AcDbEntity
  8
0
370
    -3
  6
Continuous
100
AcDbPoint
 10
-441.646901
 20
-66.085518
 30
0.0
  0
LINE
  5
165
100
AcDbEntity
  8
0
370
    -3
  6
Continuous
100
AcDbLine
 10
-439.646901
 20
-64.470337
 30
0.0
 11
-439.646901
 21
-3.7007
 31
0.0
  0
ARC
  5
166
100
AcDbEntity
  8
0
370
    -3
  6
Continuous
100
AcDbCircle
 10
-556.646901
 20
-125.03361
 30
0.0
 40
3.0
100
AcDbArc
 50
91.0
 51
180.0
  0
LINE
  5
167
100
AcDbEntity
  8
0
370
    -3
  6
Continuous
100
AcDbLine
 10
-556.699258
 20
-122.034067
 30
0.0
 11
-533.129449
 21
-121.622655
 31
0.0
  0
LINE
  5
168
100
AcDbEntity
  8
0
370
    -3
  6
Continuous
100
AcDbLine
 10
-559.646901
 20
-134.085518
 30
0.0
 11
-559.646901
 21
-125.03361
 31
0.0
  0
LINE
  5
169
100
AcDbEntity
  8
0
370
    -3
  6
CENTER
100
AcDbLine
 10
-549.646901
 20
-138.454525
 30
0.0
 11
-549.646901
 21
-117.301529
 31
0.0
  0
ARC
  5
16A
100
AcDbEntity
  8
0
370
    -3
  6
Continuous
100
AcDbCircle
 10
-536.646901
 20
-117.085791
 30
0.0
 40
3.0
100
AcDbArc
 50
180.0
 51
270.0
  0
LINE
  5
16B
100
AcDbEntity
  8
0
370
    -3
  6
Continuous
100
AcDbLine
 10
-532.146901
 20
-108.246561
 30
0.0
 11
-532.146901
 21
-120.085791
 31
0.0
  0
ARC
  5
16C
100
AcDbEntity
  8
0
370
    -3
  6
Continuous
100
AcDbCircle
 10
-533.146901
 20
-120.622807
 30
0.0
 40
1.0
100
AcDbArc
 50
271.0
 51
0.0
  0
LINE
  5
16D
100
AcDbEntity
  8
0
370
    -3
  6
Continuous
100
AcDbLine
 10
-532.146901
 20
-120.622807
 30
0.0
 11
-532.146901
 21
-108.139161
 31
0.0
  0
ARC
  5
16E
100
AcDbEntity
  8
0
370
    -3
  6
Continuous
100
AcDbCircle
 10
-442.646901
 20
-125.03361
 30
0.0
 40
3.0
100
AcDbArc
 50
0.0
 51
89.0
  0
ARC
  5
16F
100
AcDbEntity
  8
0
370
    -3
  6
Continuous
100
AcDbCircle
 10
-459.146901
 20
-118.744688
 30
0.0
 40
3.0
100
AcDbArc
 50
180.0
 51
269.0
  0
LINE
  5
170
100
AcDbEntity
  8
0
370
    -3
  6
Continuous
100
AcDbLine
 10
-462.146901
 20
-118.744688
 30
0.0
 11
-462.146901
 21
-106.664542
 31
0.0
  0
LINE
  5
171
100
AcDbEntity
  8
0
370
    -3
  6
Continuous
100
AcDbLine
 10
-459.199258
 20
-121.744231
 30
0.0
 11
-442.594544
 21
-122.034067
 31
0.0
  0
LINE
  5
172
100
AcDbEntity
  8
0
370
    -3
  6
CENTER
100
AcDbLine
 10
-449.646901
 20
-137.115634
 30
0.0
 11
-449.646901
 21
-117.880534
 31
0.0
  0
LINE
  5
173
100
AcDbEntity
  8
0
370
    -3
  6
Continuous
100
AcDbLine
 10
-439.646901
 20
-134.085518
 30
0.0
 11
-439.646901
 21
-125.03361
 31
0.0
  0
LINE
  5
174
100
AcDbEntity
  8
0
370
    -3
  6
Continuous
100
AcDbLine
 10
-559.646901
 20
-134.085518
 30
0.0
 11
-439.646901
 21
-134.085518
 31
0.0
  0
LINE
  5
175
100
AcDbEntity
  8
0
370
    -3
  6
Continuous
100
AcDbLine
 10
-557.167864
 20
-66.169989
 30
0.0
 11
-543.77866
 21
-68.530867
 31
0.0
  0
ARC
  5
176
100
AcDbEntity
  8
0
370
    -3
  6
Continuous
100
AcDbCircle
 10
-544.646901
 20
-73.454905
 30
0.0
 40
5.0
100
AcDbArc
 50
0.0
 51
80.0
  0
LINE
  5
177
100
AcDbEntity
  8
0
370
    -3
  6
Continuous
100
AcDbLine
 10
-539.646901
 20
-73.454905
 30
0.0
 11
-539.646901
 21
-117.085791
 31
0.0
  0
LINE
  5
178
100
AcDbEntity
  8
0
370
    -3
  6
Continuous
100
AcDbLine
 10
-557.667864
 20
-2.089211
 30
0.0
 11
-544.27866
 21
0.271666
 31
0.0
  0
ARC
  5
179
100
AcDbEntity
  8
0
370
    -3
  6
Continuous
100
AcDbCircle
 10
-545.146901
 20
5.195705
 30
0.0
 40
5.0
100
AcDbArc
 50
280.0
 51
360.0
  0
POINT
  5
17A
100
AcDbEntity
  8
0
370
    -3
  6
Continuous
100
AcDbPoint
 10
-540.146901
 20
1.000207
 30
0.0
  0
LINE
  5
17B
100
AcDbEntity
  8
0
370
    -3
  6
Continuous
100
AcDbLine
 10
-532.146901
 20
21.914482
 30
0.0
 11
-532.146901
 21
18.414209
 31
0.0
  0
LINE
  5
17C
100
AcDbEntity
  8
0
370
    -3
  6
Continuous
100
AcDbLine
 10
-532.146901
 20
-108.556304
 30
0.0
 11
-532.146901
 21
21.914209
 31
0.0
  0
LINE
  5
17D
100
AcDbEntity
  8
0
370
    -3
  6
Continuous
100
AcDbLine
 10
-540.146901
 20
-71.275456
 30
0.0
 11
-540.146901
 21
18.826749
 31
0.0
  0
ARC
  5
17E
100
AcDbEntity
  8
0
370
    -3
  6
Continuous
100
AcDbCircle
 10
-459.146919
 20
-86.28172
 30
0.0
 40
3.0
100
AcDbArc
 50
119.999065
 51
180.0
  0
LINE
  5
17F
100
AcDbEntity
  8
0
370
    -3
  6
Continuous
100
AcDbLine
 10
-462.146901
 20
-106.664542
 30
0.0
 11
-462.146901
 21
17.744263
 31
0.0
  0
ARC
  5
180
100
AcDbEntity
  8
0
370
    -3
  6
Continuous
100
AcDbCircle
 10
-462.146834
 20
-81.085518
 30
0.0
 40
3.0
100
AcDbArc
 50
299.999065
 51
0.0
  0
LINE
  5
181
100
AcDbEntity
  8
0
370
    -3
  6
Continuous
100
AcDbLine
 10
-459.146834
 20
-73.366727
 30
0.0
 11
-459.146834
 21
-81.085518
 31
0.0
  0
LINE
  5
182
100
AcDbEntity
  8
0
370
    -3
  6
CENTER
100
AcDbLine
 10
-393.126655
 20
-34.085518
 30
0.0
 11
-605.105837
 21
-34.085518
 31
0.0
  0
LINE
  5
183
100
AcDbEntity
  8
0
370
    -3
  6
Continuous
100
AcDbLine
 10
-437.646883
 20
-22.085518
 30
0.0
 11
-437.646883
 21
-34.085518
 31
0.0
  0
LINE
  5
184
100
AcDbEntity
  8
0
370
    -3
  6
Continuous
100
AcDbLine
 10
-437.646883
 20
-46.085518
 30
0.0
 11
-437.646883
 21
-34.085518
 31
0.0
  0
LINE
  5
185
100
AcDbEntity
  8
0
370
    -3
  6
Continuous
100
AcDbLine
 10
-437.646883
 20
-45.085518
 30
0.0
 11
-398.046883
 21
-45.085518
 31
0.0
  0
LINE
  5
186
100
AcDbEntity
  8
0
370
    -3
  6
Continuous
100
AcDbLine
 10
-437.646883
 20
-23.085518
 30
0.0
 11
-397.646883
 21
-23.085518
 31
0.0
  0
ARC
  5
187
100
AcDbEntity
  8
0
370
    -3
  6
Continuous
100
AcDbCircle
 10
-847.146901
 20
-76.251664
 30
0.0
 40
400.0
100
AcDbArc
 50
358.568016
 51
359.92847
  0
ARC
  5
188
100
AcDbEntity
  8
0
370
    -3
  6
Continuous
100
AcDbCircle
 10
-152.146901
 20
-76.251664
 30
0.0
 40
400.0
100
AcDbArc
 50
180.07153
 51
180.859541
  0
ARC
  5
189
100
AcDbEntity
  8
0
370
    -3
  6
Continuous
100
AcDbCircle
 10
-446.646901
 20
-76.751664
 30
0.0
 40
0.5
100
AcDbArc
 50
90.0
 51
180.0
  0
ARC
  5
18A
100
AcDbEntity
  8
0
370
    -3
  6
Continuous
100
AcDbCircle
 10
-446.646901
 20
-75.751664
 30
0.0
 40
0.5
100
AcDbArc
 50
270.0
 51
0.0
  0
ARC
  5
18B
100
AcDbEntity
  8
0
370
    -3
  6
Continuous
100
AcDbCircle
 10
-552.646901
 20
-76.751664
 30
0.0
 40
0.5
100
AcDbArc
 50
0.0
 51
90.0
  0
ARC
  5
18C
100
AcDbEntity
  8
0
370
    -3
  6
Continuous
100
AcDbCircle
 10
-552.646901
 20
-75.751664
 30
0.0
 40
0.5
100
AcDbArc
 50
180.0
 51
270.0
  0
LINE
  5
18D
100
AcDbEntity
  8
0
370
    -3
  6
Continuous
100
AcDbLine
 10
-446.146901
 20
-75.751664
 30
0.0
 11
-446.146901
 21
-66.87899
 31
0.0
  0
ARC
  5
18E
100
AcDbEntity
  8
0
370
    -3
  6
Continuous
100
AcDbCircle
 10
-472.146901
 20
-83.751664
 30
0.0
 40
25.0
100
AcDbArc
 50
293.578178
 51
354.269825
  0
ARC
  5
18F
100
AcDbEntity
  8
0
370
    -3
  6
Continuous
100
AcDbCircle
 10
-527.146901
 20
-83.751664
 30
0.0
 40
25.0
100
AcDbArc
 50
176.56135
 51
240.0
  0
LINE
  5
190
100
AcDbEntity
  8
0
370
    -3
  6
Continuous
100
AcDbLine
 10
-553.146901
 20
-66.878993
 30
0.0
 11
-553.146901
 21
-75.751664
 31
0.0
  0
LINE
  5
191
100
AcDbEntity
  8
0
370
    -3
  6
Continuous
100
AcDbLine
 10
-439.646883
 20
-22.085518
 30
0.0
 11
-437.646883
 21
-22.085518
 31
0.0
  0
LINE
  5
192
100
AcDbEntity
  8
0
370
    -3
  6
Continuous
100
AcDbLine
 10
-439.646883
 20
-46.085518
 30
0.0
 11
-437.646883
 21
-46.085518
 31
0.0
  0
LINE
  5
193
100
AcDbEntity
  8
0
370
    -3
  6
Continuous
100
AcDbLine
 10
-397.646883
 20
-20.585518
 30
0.0
 11
-429.646864
 21
-20.585518
 31
0.0
  0
LINE
  5
194
100
AcDbEntity
  8
0
370
    -3
  6
Continuous
100
AcDbLine
 10
-429.646883
 20
-23.085518
 30
0.0
 11
-429.646883
 21
-20.585518
 31
0.0
  0
LINE
  5
195
100
AcDbEntity
  8
0
370
    -3
  6
Continuous
100
AcDbLine
 10
-397.646883
 20
-44.685518
 30
0.0
 11
-397.646883
 21
-34.085518
 31
0.0
  0
ARC
  5
196
100
AcDbEntity
  8
0
370
    -3
  6
Continuous
100
AcDbCircle
 10
-398.046883
 20
-44.685518
 30
0.0
 40
0.4
100
AcDbArc
 50
270.0
 51
0.0
  0
LINE
  5
197
100
AcDbEntity
  8
0
370
    -3
  6
Continuous
100
AcDbLine
 10
-397.646883
 20
-23.085518
 30
0.0
 11
-397.646883
 21
-34.085518
 31
0.0
  0
LINE
  5
198
100
AcDbEntity
  8
0
370
    -3
  6
Continuous
100
AcDbLine
 10
-397.646883
 20
-20.585518
 30
0.0
 11
-397.646883
 21
-23.085518
 31
0.0
  0
ARC
  5
199
100
AcDbEntity
  8
0
370
    -3
  6
Continuous
100
AcDbCircle
 10
-153.046901
 20
-56.251664
 30
0.0
 40
400.6
100
AcDbArc
 50
181.511052
 51
185.743682
  0
LINE
  5
19A
100
AcDbEntity
  8
0
370
    -3
  6
Continuous
100
AcDbLine
 10
-542.277057
 20
-107.808131
 30
0.0
 11
-549.735753
 21
-100.349436
 31
0.0
  0
ARC
  5
19B
100
AcDbEntity
  8
0
370
    -3
  6
Continuous
100
AcDbCircle
 10
-545.068848
 20
-95.682531
 30
0.0
 40
6.6
100
AcDbArc
 50
185.743682
 51
225.0
  0
ARC
  5
19C
100
AcDbEntity
  8
0
370
    -3
  6
Continuous
100
AcDbCircle
 10
-527.710658
 20
-93.241731
 30
0.0
 40
20.6
100
AcDbArc
 50
225.0
 51
234.589588
  0
ARC
  5
19D
100
AcDbEntity
  8
0
370
    -3
  6
Continuous
100
AcDbCircle
 10
-471.583144
 20
-93.241731
 30
0.0
 40
20.6
100
AcDbArc
 50
297.262642
 51
315.0
  0
LINE
  5
19E
100
AcDbEntity
  8
0
370
    -3
  6
Continuous
100
AcDbLine
 10
-457.016745
 20
-107.808131
 30
0.0
 11
-449.55805
 21
-100.349436
 31
0.0
  0
ARC
  5
19F
100
AcDbEntity
  8
0
370
    -3
  6
Continuous
100
AcDbCircle
 10
-846.246901
 20
-56.251664
 30
0.0
 40
400.6
100
AcDbArc
 50
354.256318
 51
358.488949
  0
ARC
  5
1A0
100
AcDbEntity
  8
0
370
    -3
  6
Continuous
100
AcDbCircle
 10
-454.224954
 20
-95.682531
 30
0.0
 40
6.6
100
AcDbArc
 50
315.0
 51
354.256318
  0
ARC
  5
1A1
100
AcDbEntity
  8
0
370
    -3
  6
Continuous
100
AcDbCircle
 10
-537.146901
 20
18.826749
 30
0.0
 40
3.0
100
AcDbArc
 50
91.0
 51
180.0
  0
LINE
  5
1A2
100
AcDbEntity
  8
0
370
    -3
  6
Continuous
100
AcDbLine
 10
-532.146901
 20
21.914209
 30
0.0
 11
-465.094544
 21
20.743806
 31
0.0
  0
LINE
  5
1A3
100
AcDbEntity
  8
0
370
    -3
  6
Continuous
100
AcDbLine
 10
-532.146901
 20
21.914482
 30
0.0
 11
-537.199258
 21
21.826292
 31
0.0
  0
ARC
  5
1A4
100
AcDbEntity
  8
0
370
    -3
  6
Continuous
100
AcDbCircle
 10
-465.146901
 20
17.744263
 30
0.0
 40
3.0
100
AcDbArc
 50
0.0
 51
89.0
  0
LINE
  5
1A5
100
AcDbEntity
  8
0
370
    -3
  6
Continuous
100
AcDbLine
 10
-76.315671
 20
-2.751664
 30
0.0
 11
-37.97873
 21
-2.751664
 31
0.0
  0
LINE
  5
1A6
100
AcDbEntity
  8
0
370
    -3
  6
Continuous
100
AcDbLine
 10
-31.1472
 20
-88.151869
 30
0.0
 11
-130.147191
 21
-88.151869
 31
0.0
  0
LINE
  5
1A7
100
AcDbEntity
  8
0
370
    -3
  6
Continuous
100
AcDbLine
 10
-31.1472
 20
-89.351458
 30
0.0
 11
-130.147191
 21
-89.351458
 31
0.0
  0
LINE
  5
1A8
100
AcDbEntity
  8
0
370
    -3
  6
Continuous
100
AcDbLine
 10
-31.1472
 20
-106.751664
 30
0.0
 11
-130.147191
 21
-106.751664
 31
0.0
  0
LINE
  5
1A9
100
AcDbEntity
  8
0
370
    -3
  6
Continuous
100
AcDbLine
 10
-31.1472
 20
-107.251664
 30
0.0
 11
-130.147191
 21
-107.251664
 31
0.0
  0
LINE
  5
1AA
100
AcDbEntity
  8
0
370
    -3
  6
Continuous
100
AcDbLine
 10
-31.1472
 20
-24.351458
 30
0.0
 11
-130.147191
 21
-24.351458
 31
0.0
  0
LINE
  5
1AB
100
AcDbEntity
  8
0
370
    -3
  6
Continuous
100
AcDbLine
 10
-31.1472
 20
-23.151869
 30
0.0
 11
-130.147191
 21
-23.151869
 31
0.0
  0
LINE
  5
1AC
100
AcDbEntity
  8
0
370
    -3
  6
Continuous
100
AcDbLine
 10
-31.1472
 20
-5.751664
 30
0.0
 11
-130.147191
 21
-5.751664
 31
0.0
  0
LINE
  5
1AD
100
AcDbEntity
  8
0
370
    -3
  6
Continuous
100
AcDbLine
 10
-31.1472
 20
-5.251664
 30
0.0
 11
-130.147191
 21
-5.251664
 31
0.0
  0
LINE
  5
1AE
100
AcDbEntity
  8
0
370
    -3
  6
Continuous
100
AcDbLine
 10
-31.1472
 20
-8.925067
 30
0.0
 11
-130.147191
 21
-8.925067
 31
0.0
  0
LINE
  5
1AF
100
AcDbEntity
  8
0
370
    -3
  6
Continuous
100
AcDbLine
 10
-31.1472
 20
-15.819216
 30
0.0
 11
-130.147191
 21
-15.819216
 31
0.0
  0
LINE
  5
1B0
100
AcDbEntity
  8
0
370
    -3
  6
Continuous
100
AcDbLine
 10
-113.147191
 20
-83.651869
 30
0.0
 11
-130.147191
 21
-83.651869
 31
0.0
  0
LINE
  5
1B1
100
AcDbEntity
  8
0
370
    -3
  6
Continuous
100
AcDbLine
 10
-113.147191
 20
-33.351458
 30
0.0
 11
-130.147191
 21
-33.351458
 31
0.0
  0
LINE
  5
1B2
100
AcDbEntity
  8
0
370
    -3
  6
Continuous
100
AcDbLine
 10
-113.147191
 20
-28.851458
 30
0.0
 11
-130.147191
 21
-28.851458
 31
0.0
  0
LINE
  5
1B3
100
AcDbEntity
  8
0
370
    -3
  6
Continuous
100
AcDbLine
 10
-31.1472
 20
-33.351458
 30
0.0
 11
-113.147191
 21
-33.351458
 31
0.0
  0
LINE
  5
1B4
100
AcDbEntity
  8
0
370
    -3
  6
Continuous
100
AcDbLine
 10
-31.1472
 20
-32.151869
 30
0.0
 11
-130.147191
 21
-32.151869
 31
0.0
  0
LINE
  5
1B5
100
AcDbEntity
  8
0
370
    -3
  6
Continuous
100
AcDbLine
 10
-31.1472
 20
-28.851458
 30
0.0
 11
-118.289801
 21
-28.851458
 31
0.0
  0
LINE
  5
1B6
100
AcDbEntity
  8
0
370
    -3
  6
Continuous
100
AcDbLine
 10
-31.1472
 20
-27.651869
 30
0.0
 11
-130.147191
 21
-27.651869
 31
0.0
  0
LINE
  5
1B7
100
AcDbEntity
  8
0
370
    -3
  6
Continuous
100
AcDbLine
 10
-31.1472
 20
-79.151869
 30
0.0
 11
-113.147191
 21
-79.151869
 31
0.0
  0
LINE
  5
1B8
100
AcDbEntity
  8
0
370
    -3
  6
Continuous
100
AcDbLine
 10
-31.1472
 20
-80.351458
 30
0.0
 11
-130.147191
 21
-80.351458
 31
0.0
  0
LINE
  5
1B9
100
AcDbEntity
  8
0
370
    -3
  6
Continuous
100
AcDbLine
 10
-31.1472
 20
-83.651869
 30
0.0
 11
-121.647191
 21
-83.651869
 31
0.0
  0
LINE
  5
1BA
100
AcDbEntity
  8
0
370
    -3
  6
Continuous
100
AcDbLine
 10
-31.1472
 20
-84.851458
 30
0.0
 11
-130.147191
 21
-84.851458
 31
0.0
  0
LINE
  5
1BB
100
AcDbEntity
  8
0
370
    -3
  6
Continuous
100
AcDbLine
 10
-31.1472
 20
-37.851458
 30
0.0
 11
-130.147191
 21
-37.851458
 31
0.0
  0
LINE
  5
1BC
100
AcDbEntity
  8
0
370
    -3
  6
Continuous
100
AcDbLine
 10
-31.1472
 20
-36.637749
 30
0.0
 11
-130.147191
 21
-36.637749
 31
0.0
  0
LINE
  5
1BD
100
AcDbEntity
  8
0
370
    -3
  6
Continuous
100
AcDbLine
 10
-130.147191
 20
-109.751664
 30
0.0
 11
-31.1472
 21
-109.751664
 31
0.0
  0
LINE
  5
1BE
100
AcDbEntity
  8
0
370
    -3
  6
Continuous
100
AcDbLine
 10
-31.1472
 20
-96.684111
 30
0.0
 11
-130.147191
 21
-96.684111
 31
0.0
  0
LINE
  5
1BF
100
AcDbEntity
  8
0
370
    -3
  6
Continuous
100
AcDbLine
 10
-31.1472
 20
-103.578261
 30
0.0
 11
-130.147191
 21
-103.578261
 31
0.0
  0
LINE
  5
1C0
100
AcDbEntity
  8
0
370
    -3
  6
Continuous
100
AcDbLine
 10
-113.147191
 20
-79.151869
 30
0.0
 11
-130.147191
 21
-79.151869
 31
0.0
  0
LINE
  5
1C1
100
AcDbEntity
  8
0
370
    -3
  6
Continuous
100
AcDbLine
 10
-31.1472
 20
-74.644824
 30
0.0
 11
-130.147191
 21
-74.644824
 31
0.0
  0
LINE
  5
1C2
100
AcDbEntity
  8
0
370
    -3
  6
Continuous
100
AcDbLine
 10
-31.1472
 20
-70.251664
 30
0.0
 11
-130.147191
 21
-70.251664
 31
0.0
  0
LINE
  5
1C3
100
AcDbEntity
  8
0
370
    -3
  6
Continuous
100
AcDbLine
 10
-31.1472
 20
-75.865578
 30
0.0
 11
-130.147191
 21
-75.865578
 31
0.0
  0
LINE
  5
1C4
100
AcDbEntity
  8
0
370
    -3
  6
Continuous
100
AcDbLine
 10
-31.1472
 20
-42.251664
 30
0.0
 11
-130.147191
 21
-42.251664
 31
0.0
  0
LINE
  5
1C5
100
AcDbEntity
  8
0
370
    -3
  6
Continuous
100
AcDbLine
 10
-130.147191
 20
-2.751664
 30
0.0
 11
-83.940671
 21
-2.751664
 31
0.0
  0
LINE
  5
1C6
100
AcDbEntity
  8
0
370
    -3
  6
Continuous
100
AcDbLine
 10
-31.1472
 20
-115.251612
 30
0.0
 11
-31.1472
 21
-56.251612
 31
0.0
  0
LINE
  5
1C7
100
AcDbEntity
  8
0
370
    -3
  6
Continuous
100
AcDbLine
 10
-31.1472
 20
-4.911915
 30
0.0
 11
-31.1472
 21
-56.251612
 31
0.0
  0
ARC
  5
1C8
100
AcDbEntity
  8
0
370
    -3
  6
Continuous
100
AcDbCircle
 10
-28.1472
 20
-4.911915
 30
0.0
 40
3.0
100
AcDbArc
 50
90.0
 51
180.0
  0
LINE
  5
1C9
100
AcDbEntity
  8
0
370
    -3
  6
Continuous
100
AcDbLine
 10
-24.1472
 20
-1.911915
 30
0.0
 11
-28.1472
 21
-1.911915
 31
0.0
  0
ARC
  5
1CA
100
AcDbEntity
  8
0
370
    -3
  6
Continuous
100
AcDbCircle
 10
-24.1472
 20
1.088085
 30
0.0
 40
3.0
100
AcDbArc
 50
270.0
 51
0.0
  0
LINE
  5
1CB
100
AcDbEntity
  8
0
370
    -3
  6
Continuous
100
AcDbLine
 10
-21.1472
 20
2.748388
 30
0.0
 11
-21.1472
 21
1.088085
 31
0.0
  0
LINE
  5
1CC
100
AcDbEntity
  8
0
370
    -3
  6
Continuous
100
AcDbLine
 10
-21.1472
 20
2.748388
 30
0.0
 11
24.357645
 21
2.748388
 31
0.0
  0
ARC
  5
1CD
100
AcDbEntity
  8
0
370
    -3
  6
Continuous
100
AcDbCircle
 10
24.357645
 20
-17.851612
 30
0.0
 40
20.6
100
AcDbArc
 50
55.0
 51
90.0
  0
LINE
  5
1CE
100
AcDbEntity
  8
0
370
    -3
  6
Continuous
100
AcDbLine
 10
36.173319
 20
-0.97708
 30
0.0
 11
43.744099
 21
-6.278196
 31
0.0
  0
ARC
  5
1CF
100
AcDbEntity
  8
0
370
    -3
  6
Continuous
100
AcDbCircle
 10
42.2528
 20
-8.407992
 30
0.0
 40
2.6
100
AcDbArc
 50
0.0
 51
55.0
  0
LINE
  5
1D0
100
AcDbEntity
  8
0
370
    -3
  6
Continuous
100
AcDbLine
 10
44.8528
 20
-8.407992
 30
0.0
 11
44.8528
 21
-56.251612
 31
0.0
  0
LINE
  5
1D1
100
AcDbEntity
  8
0
370
    -3
  6
Continuous
100
AcDbLine
 10
44.8528
 20
-104.095232
 30
0.0
 11
44.8528
 21
-56.251612
 31
0.0
  0
ARC
  5
1D2
100
AcDbEntity
  8
0
370
    -3
  6
Continuous
100
AcDbCircle
 10
42.2528
 20
-104.095232
 30
0.0
 40
2.6
100
AcDbArc
 50
305.0
 51
0.0
  0
LINE
  5
1D3
100
AcDbEntity
  8
0
370
    -3
  6
Continuous
100
AcDbLine
 10
36.173319
 20
-111.526144
 30
0.0
 11
43.744099
 21
-106.225027
 31
0.0
  0
ARC
  5
1D4
100
AcDbEntity
  8
0
370
    -3
  6
Continuous
100
AcDbCircle
 10
24.357645
 20
-94.651612
 30
0.0
 40
20.6
100
AcDbArc
 50
270.0
 51
305.0
  0
LINE
  5
1D5
100
AcDbEntity
  8
0
370
    -3
  6
Continuous
100
AcDbLine
 10
-31.1472
 20
-115.251612
 30
0.0
 11
24.357645
 21
-115.251612
 31
0.0
  0
LINE
  5
1D6
100
AcDbEntity
  8
0
370
    -3
  6
Continuous
100
AcDbLine
 10
-20.1472
 20
-7.107691
 30
0.0
 11
-18.1472
 21
-8.760332
 31
0.0
  0
LINE
  5
1D7
100
AcDbEntity
  8
0
370
    -3
  6
Continuous
100
AcDbLine
 10
-22.1472
 20
-5.931905
 30
0.0
 11
-20.1472
 21
-7.107691
 31
0.0
  0
LINE
  5
1D8
100
AcDbEntity
  8
0
370
    -3
  6
Continuous
100
AcDbLine
 10
-20.1472
 20
-7.107691
 30
0.0
 11
-22.1472
 21
-8.760332
 31
0.0
  0
LINE
  5
1D9
100
AcDbEntity
  8
0
370
    -3
  6
Continuous
100
AcDbLine
 10
-18.1472
 20
-5.931905
 30
0.0
 11
-20.1472
 21
-7.107691
 31
0.0
  0
ELLIPSE
  5
1DA
100
AcDbEntity
  8
0
370
    -3
  6
Continuous
100
AcDbEllipse
 10
-20.1472
 20
-8.924281
 30
0.0
 11
4.6999999999999886
 21
0.0000000000000036
 31
0.0
210
0.0
220
0.0
230
1.0
 40
0.766646
 41
0.0
 42
6.2831853071795862
  0
LINE
  5
1DB
100
AcDbEntity
  8
0
370
    -3
  6
Continuous
100
AcDbLine
 10
-20.1472
 20
-105.395533
 30
0.0
 11
-18.1472
 21
-103.742891
 31
0.0
  0
LINE
  5
1DC
100
AcDbEntity
  8
0
370
    -3
  6
Continuous
100
AcDbLine
 10
-22.1472
 20
-106.571318
 30
0.0
 11
-20.1472
 21
-105.395533
 31
0.0
  0
LINE
  5
1DD
100
AcDbEntity
  8
0
370
    -3
  6
Continuous
100
AcDbLine
 10
-20.1472
 20
-105.395533
 30
0.0
 11
-22.1472
 21
-103.742891
 31
0.0
  0
LINE
  5
1DE
100
AcDbEntity
  8
0
370
    -3
  6
Continuous
100
AcDbLine
 10
-18.1472
 20
-106.571318
 30
0.0
 11
-20.1472
 21
-105.395533
 31
0.0
  0
ELLIPSE
  5
1DF
100
AcDbEntity
  8
0
370
    -3
  6
Continuous
100
AcDbEllipse
 10
-20.1472
 20
-103.578943
 30
0.0
 11
4.6999999999999886
 21
0.0
 31
0.0
210
0.0
220
0.0
230
1.0
 40
0.766646
 41
0.0
 42
6.2831853071795862
  0
LINE
  5
1E0
100
AcDbEntity
  8
0
370
    -3
  6
CENTER
100
AcDbLine
 10
-183.916252
 20
-56.251664
 30
0.0
 11
64.830545
 21
-56.251664
 31
0.0
  0
ARC
  5
1E1
100
AcDbEntity
  8
0
370
    -3
  6
Continuous
100
AcDbCircle
 10
196.852818
 20
-397.851664
 30
0.0
 40
390.797
100
AcDbArc
 50
87.470639
 51
90.0
  0
ARC
  5
1E2
100
AcDbEntity
  8
0
370
    -3
  6
Continuous
100
AcDbCircle
 10
196.852818
 20
-397.851664
 30
0.0
 40
400.6
100
AcDbArc
 50
87.470639
 51
90.0
  0
ARC
  5
1E3
100
AcDbEntity
  8
0
370
    -3
  6
Continuous
100
AcDbCircle
 10
196.852818
 20
-397.851664
 30
0.0
 40
390.797
100
AcDbArc
 50
90.0
 51
92.529361
  0
ARC
  5
1E4
100
AcDbEntity
  8
0
370
    -3
  6
Continuous
100
AcDbCircle
 10
196.852818
 20
-397.851664
 30
0.0
 40
400.6
100
AcDbArc
 50
90.0
 51
92.529361
  0
LINE
  5
1E5
100
AcDbEntity
  8
0
370
    -3
  6
Continuous
100
AcDbLine
 10
154.497122
 20
-7.249164
 30
0.0
 11
154.010318
 21
-6.762361
 31
0.0
  0
LINE
  5
1E6
100
AcDbEntity
  8
0
370
    -3
  6
Continuous
100
AcDbLine
 10
147.850318
 20
-13.895968
 30
0.0
 11
147.363515
 21
-13.409164
 31
0.0
  0
LINE
  5
1E7
100
AcDbEntity
  8
0
370
    -3
  6
Continuous
100
AcDbLine
 10
154.244575
 20
-6.936025
 30
0.0
 11
147.567476
 21
-13.613125
 31
0.0
  0
LINE
  5
1E8
100
AcDbEntity
  8
0
370
    -3
  6
Continuous
100
AcDbLine
 10
154.497122
 20
-7.249164
 30
0.0
 11
147.850318
 21
-13.895968
 31
0.0
  0
ARC
  5
1E9
100
AcDbEntity
  8
0
370
    -3
  6
Continuous
100
AcDbCircle
 10
153.436462
 20
-12.835307
 30
0.0
 40
6.099999
100
AcDbArc
 50
84.601911
 51
185.398072
  0
LINE
  5
1EA
100
AcDbEntity
  8
0
370
    -3
  6
Continuous
100
AcDbLine
 10
152.252211
 20
-9.494075
 30
0.0
 11
150.073466
 21
-11.67282
 31
0.0
  0
ARC
  5
1EB
100
AcDbEntity
  8
0
370
    -3
  6
Continuous
100
AcDbCircle
 10
180.960747
 20
-38.20261
 30
0.0
 40
40.6
100
AcDbArc
 50
92.530124
 51
135.0
  0
LINE
  5
1EC
100
AcDbEntity
  8
0
370
    -3
  6
Continuous
100
AcDbLine
 10
239.208514
 20
-7.249164
 30
0.0
 11
239.695318
 21
-6.762361
 31
0.0
  0
LINE
  5
1ED
100
AcDbEntity
  8
0
370
    -3
  6
Continuous
100
AcDbLine
 10
245.855318
 20
-13.895968
 30
0.0
 11
246.342121
 21
-13.409164
 31
0.0
  0
LINE
  5
1EE
100
AcDbEntity
  8
0
370
    -3
  6
Continuous
100
AcDbLine
 10
239.461061
 20
-6.936025
 30
0.0
 11
246.138161
 21
-13.613125
 31
0.0
  0
LINE
  5
1EF
100
AcDbEntity
  8
0
370
    -3
  6
Continuous
100
AcDbLine
 10
239.208514
 20
-7.249164
 30
0.0
 11
245.855318
 21
-13.895968
 31
0.0
  0
ARC
  5
1F0
100
AcDbEntity
  8
0
370
    -3
  6
Continuous
100
AcDbCircle
 10
240.269175
 20
-12.835307
 30
0.0
 40
6.099999
100
AcDbArc
 50
354.601928
 51
95.398089
  0
LINE
  5
1F1
100
AcDbEntity
  8
0
370
    -3
  6
Continuous
100
AcDbLine
 10
241.453425
 20
-9.494075
 30
0.0
 11
243.632171
 21
-11.67282
 31
0.0
  0
ARC
  5
1F2
100
AcDbEntity
  8
0
370
    -3
  6
Continuous
100
AcDbCircle
 10
212.74489
 20
-38.20261
 30
0.0
 40
40.6
100
AcDbArc
 50
45.0
 51
87.469876
  0
ARC
  5
1F3
100
AcDbEntity
  8
0
370
    -3
  6
Continuous
100
AcDbCircle
 10
196.852818
 20
285.348336
 30
0.0
 40
400.6
100
AcDbArc
 50
267.470639
 51
270.0
  0
ARC
  5
1F4
100
AcDbEntity
  8
0
370
    -3
  6
Continuous
100
AcDbCircle
 10
196.852818
 20
285.348336
 30
0.0
 40
400.6
100
AcDbArc
 50
270.0
 51
272.529361
  0
LINE
  5
1F5
100
AcDbEntity
  8
0
370
    -3
  6
CENTER
100
AcDbLine
 10
135.156023
 20
-56.251664
 30
0.0
 11
258.265999
 21
-56.251664
 31
0.0
  0
LINE
  5
1F6
100
AcDbEntity
  8
0
370
    -3
  6
Continuous
100
AcDbLine
 10
147.850318
 20
-98.60736
 30
0.0
 11
147.363515
 21
-99.094164
 31
0.0
  0
LINE
  5
1F7
100
AcDbEntity
  8
0
370
    -3
  6
Continuous
100
AcDbLine
 10
154.497122
 20
-105.254164
 30
0.0
 11
147.850318
 21
-98.60736
 31
0.0
  0
LINE
  5
1F8
100
AcDbEntity
  8
0
370
    -3
  6
Continuous
100
AcDbLine
 10
154.497122
 20
-105.254164
 30
0.0
 11
154.010318
 21
-105.740967
 31
0.0
  0
LINE
  5
1F9
100
AcDbEntity
  8
0
370
    -3
  6
Continuous
100
AcDbLine
 10
154.244575
 20
-105.567302
 30
0.0
 11
147.567476
 21
-98.890203
 31
0.0
  0
ARC
  5
1FA
100
AcDbEntity
  8
0
370
    -3
  6
Continuous
100
AcDbCircle
 10
153.436462
 20
-99.66802
 30
0.0
 40
6.099999
100
AcDbArc
 50
174.601928
 51
275.398089
  0
LINE
  5
1FB
100
AcDbEntity
  8
0
370
    -3
  6
Continuous
100
AcDbLine
 10
239.208514
 20
-105.254164
 30
0.0
 11
245.855318
 21
-98.60736
 31
0.0
  0
LINE
  5
1FC
100
AcDbEntity
  8
0
370
    -3
  6
Continuous
100
AcDbLine
 10
241.453425
 20
-103.009253
 30
0.0
 11
243.632171
 21
-100.830508
 31
0.0
  0
LINE
  5
1FD
100
AcDbEntity
  8
0
370
    -3
  6
Continuous
100
AcDbLine
 10
245.855318
 20
-98.60736
 30
0.0
 11
246.342121
 21
-99.094164
 31
0.0
  0
LINE
  5
1FE
100
AcDbEntity
  8
0
370
    -3
  6
Continuous
100
AcDbLine
 10
239.208514
 20
-105.254164
 30
0.0
 11
239.695318
 21
-105.740967
 31
0.0
  0
LINE
  5
1FF
100
AcDbEntity
  8
0
370
    -3
  6
Continuous
100
AcDbLine
 10
239.461061
 20
-105.567302
 30
0.0
 11
246.138161
 21
-98.890203
 31
0.0
  0
POINT
  5
200
100
AcDbEntity
  8
0
370
    -3
  6
Continuous
100
AcDbPoint
 10
242.531916
 20
-101.930762
 30
0.0
  0
ARC
  5
201
100
AcDbEntity
  8
0
370
    -3
  6
Continuous
100
AcDbCircle
 10
240.269175
 20
-99.66802
 30
0.0
 40
6.099999
100
AcDbArc
 50
264.601911
 51
5.398072
  0
ARC
  5
202
100
AcDbEntity
  8
0
370
    -3
  6
Continuous
100
AcDbCircle
 10
-149.747182
 20
-56.251664
 30
0.0
 40
390.797
100
AcDbArc
 50
0.0
 51
4.529193
  0
ARC
  5
203
100
AcDbEntity
  8
0
370
    -3
  6
Continuous
100
AcDbCircle
 10
229.065771
 20
-26.23922
 30
0.0
 40
10.797
100
AcDbArc
 50
4.529945
 51
45.0
  0
LINE
  5
204
100
AcDbEntity
  8
0
370
    -3
  6
Continuous
100
AcDbLine
 10
234.521657
 20
-16.425842
 30
0.0
 11
236.700403
 21
-18.604588
 31
0.0
  0
ARC
  5
205
100
AcDbEntity
  8
0
370
    -3
  6
Continuous
100
AcDbCircle
 10
212.74489
 20
-38.20261
 30
0.0
 40
30.797
100
AcDbArc
 50
45.0
 51
87.469876
  0
ARC
  5
206
100
AcDbEntity
  8
0
370
    -3
  6
Continuous
100
AcDbCircle
 10
180.960747
 20
-38.20261
 30
0.0
 40
30.797
100
AcDbArc
 50
92.530124
 51
135.0
  0
LINE
  5
207
100
AcDbEntity
  8
0
370
    -3
  6
Continuous
100
AcDbLine
 10
159.183979
 20
-16.425842
 30
0.0
 11
157.005233
 21
-18.604588
 31
0.0
  0
ARC
  5
208
100
AcDbEntity
  8
0
370
    -3
  6
Continuous
100
AcDbCircle
 10
164.639865
 20
-26.23922
 30
0.0
 40
10.797
100
AcDbArc
 50
135.0
 51
175.470055
  0
ARC
  5
209
100
AcDbEntity
  8
0
370
    -3
  6
Continuous
100
AcDbCircle
 10
543.452818
 20
-56.251664
 30
0.0
 40
390.797
100
AcDbArc
 50
175.470807
 51
180.0
  0
ARC
  5
20A
100
AcDbEntity
  8
0
370
    -3
  6
Continuous
100
AcDbCircle
 10
214.509262
 20
-52.751664
 30
0.0
 40
1.0
100
AcDbArc
 50
191.212271
 51
270.0
  0
LINE
  5
20B
100
AcDbEntity
  8
0
370
    -3
  6
Continuous
100
AcDbLine
 10
217.559097
 20
-53.751664
 30
0.0
 11
214.509262
 21
-53.751664
 31
0.0
  0
ARC
  5
20C
100
AcDbEntity
  8
0
370
    -3
  6
Continuous
100
AcDbCircle
 10
217.559097
 20
-52.751664
 30
0.0
 40
1.0
100
AcDbArc
 50
270.0
 51
9.594068
  0
ARC
  5
20D
100
AcDbEntity
  8
0
370
    -3
  6
Continuous
100
AcDbCircle
 10
223.120669
 20
-52.751664
 30
0.0
 40
1.0
100
AcDbArc
 50
187.589542
 51
270.0
  0
LINE
  5
20E
100
AcDbEntity
  8
0
370
    -3
  6
Continuous
100
AcDbLine
 10
226.144455
 20
-53.751664
 30
0.0
 11
223.120669
 21
-53.751664
 31
0.0
  0
ARC
  5
20F
100
AcDbEntity
  8
0
370
    -3
  6
Continuous
100
AcDbCircle
 10
226.144455
 20
-52.751664
 30
0.0
 40
1.0
100
AcDbArc
 50
270.0
 51
6.813854
  0
ARC
  5
210
100
AcDbEntity
  8
0
370
    -3
  6
Continuous
100
AcDbCircle
 10
231.677378
 20
-52.751664
 30
0.0
 40
1.0
100
AcDbArc
 50
185.73917
 51
270.0
  0
LINE
  5
211
100
AcDbEntity
  8
0
370
    -3
  6
Continuous
100
AcDbLine
 10
234.691291
 20
-53.751664
 30
0.0
 11
231.677378
 21
-53.751664
 31
0.0
  0
ARC
  5
212
100
AcDbEntity
  8
0
370
    -3
  6
Continuous
100
AcDbCircle
 10
234.691291
 20
-52.751664
 30
0.0
 40
1.0
100
AcDbArc
 50
270.0
 51
5.284733
  0
ARC
  5
213
100
AcDbEntity
  8
0
370
    -3
  6
Continuous
100
AcDbCircle
 10
214.529726
 20
-32.634362
 30
0.0
 40
1.0
100
AcDbArc
 50
53.186146
 51
150.0
  0
LINE
  5
214
100
AcDbEntity
  8
0
370
    -3
  6
Continuous
100
AcDbLine
 10
213.6637
 20
-32.134362
 30
0.0
 11
212.151807
 21
-34.753038
 31
0.0
  0
ARC
  5
215
100
AcDbEntity
  8
0
370
    -3
  6
Continuous
100
AcDbCircle
 10
213.017833
 20
-35.253038
 30
0.0
 40
1.0
100
AcDbArc
 50
150.0
 51
232.410458
  0
ARC
  5
216
100
AcDbEntity
  8
0
370
    -3
  6
Continuous
100
AcDbCircle
 10
218.803143
 20
-25.232585
 30
0.0
 40
1.0
100
AcDbArc
 50
54.715267
 51
150.0
  0
LINE
  5
217
100
AcDbEntity
  8
0
370
    -3
  6
Continuous
100
AcDbLine
 10
217.937118
 20
-24.732585
 30
0.0
 11
216.430162
 21
-27.34271
 31
0.0
  0
ARC
  5
218
100
AcDbEntity
  8
0
370
    -3
  6
Continuous
100
AcDbCircle
 10
217.296187
 20
-27.84271
 30
0.0
 40
1.0
100
AcDbArc
 50
150.0
 51
234.26083
  0
ARC
  5
219
100
AcDbEntity
  8
0
370
    -3
  6
Continuous
100
AcDbCircle
 10
204.299787
 20
-50.353135
 30
0.0
 40
1.0
100
AcDbArc
 50
150.0
 51
218.381728
  0
LINE
  5
21A
100
AcDbEntity
  8
0
370
    -3
  6
Continuous
100
AcDbLine
 10
205.017882
 20
-47.109359
 30
0.0
 11
203.433762
 21
-49.853135
 31
0.0
  0
ARC
  5
21B
100
AcDbEntity
  8
0
370
    -3
  6
Continuous
100
AcDbCircle
 10
208.712129
 20
-42.710735
 30
0.0
 40
1.0
100
AcDbArc
 50
150.0
 51
228.787729
  0
LINE
  5
21C
100
AcDbEntity
  8
0
370
    -3
  6
Continuous
100
AcDbLine
 10
209.371021
 20
-39.5695
 30
0.0
 11
207.846103
 21
-42.210735
 31
0.0
  0
ARC
  5
21D
100
AcDbEntity
  8
0
370
    -3
  6
Continuous
100
AcDbCircle
 10
210.237047
 20
-40.0695
 30
0.0
 40
1.0
100
AcDbArc
 50
50.405932
 51
150.0
  0
ARC
  5
21E
100
AcDbEntity
  8
0
370
    -3
  6
Continuous
100
AcDbCircle
 10
205.684579
 20
-52.751664
 30
0.0
 40
1.0
100
AcDbArc
 50
201.618272
 51
270.0
  0
ARC
  5
21F
100
AcDbEntity
  8
0
370
    -3
  6
Continuous
100
AcDbCircle
 10
196.852818
 20
-56.251664
 30
0.0
 40
8.5
100
AcDbArc
 50
21.618272
 51
38.381728
  0
ARC
  5
220
100
AcDbEntity
  8
0
370
    -3
  6
Continuous
100
AcDbCircle
 10
205.883907
 20
-47.609359
 30
0.0
 40
1.0
100
AcDbArc
 50
43.739795
 51
150.0
  0
LINE
  5
221
100
AcDbEntity
  8
0
370
    -3
  6
Continuous
100
AcDbLine
 10
208.852818
 20
-53.751664
 30
0.0
 11
205.684579
 21
-53.751664
 31
0.0
  0
ARC
  5
222
100
AcDbEntity
  8
0
370
    -3
  6
Continuous
100
AcDbCircle
 10
208.852818
 20
-52.751664
 30
0.0
 40
1.0
100
AcDbArc
 50
270.0
 51
16.260205
  0
ARC
  5
223
100
AcDbEntity
  8
0
370
    -3
  6
Continuous
100
AcDbCircle
 10
196.852818
 20
-56.251664
 30
0.0
 40
13.5
100
AcDbArc
 50
16.260205
 51
43.739795
  0
ARC
  5
224
100
AcDbEntity
  8
0
370
    -3
  6
Continuous
100
AcDbCircle
 10
196.852818
 20
-56.251664
 30
0.0
 40
17.0
100
AcDbArc
 50
11.212271
 51
48.787729
  0
ARC
  5
225
100
AcDbEntity
  8
0
370
    -3
  6
Continuous
100
AcDbCircle
 10
196.852818
 20
-56.251664
 30
0.0
 40
22.0
100
AcDbArc
 50
9.594068
 51
50.405932
  0
ARC
  5
226
100
AcDbEntity
  8
0
370
    -3
  6
Continuous
100
AcDbCircle
 10
196.852818
 20
-56.251664
 30
0.0
 40
30.5
100
AcDbArc
 50
6.813854
 51
53.186146
  0
ARC
  5
227
100
AcDbEntity
  8
0
370
    -3
  6
Continuous
100
AcDbCircle
 10
196.852818
 20
-56.251664
 30
0.0
 40
25.5
100
AcDbArc
 50
7.589542
 51
52.410458
  0
ARC
  5
228
100
AcDbEntity
  8
0
370
    -3
  6
Continuous
100
AcDbCircle
 10
196.852818
 20
-56.251664
 30
0.0
 40
34.0
100
AcDbArc
 50
5.73917
 51
54.26083
  0
ARC
  5
229
100
AcDbEntity
  8
0
370
    -3
  6
Continuous
100
AcDbCircle
 10
196.852818
 20
-56.251664
 30
0.0
 40
39.0
100
AcDbArc
 50
5.284733
 51
54.715267
  0
ARC
  5
22A
100
AcDbEntity
  8
0
370
    -3
  6
Continuous
100
AcDbCircle
 10
208.467548
 20
-29.134362
 30
0.0
 40
1.0
100
AcDbArc
 50
330.0
 51
66.813854
  0
LINE
  5
22B
100
AcDbEntity
  8
0
370
    -3
  6
Continuous
100
AcDbLine
 10
209.333573
 20
-29.634362
 30
0.0
 11
207.82168
 21
-32.253038
 31
0.0
  0
ARC
  5
22C
100
AcDbEntity
  8
0
370
    -3
  6
Continuous
100
AcDbCircle
 10
206.955655
 20
-31.753038
 30
0.0
 40
1.0
100
AcDbArc
 50
247.589542
 51
330.0
  0
ARC
  5
22D
100
AcDbEntity
  8
0
370
    -3
  6
Continuous
100
AcDbCircle
 10
212.740965
 20
-21.732585
 30
0.0
 40
1.0
100
AcDbArc
 50
330.0
 51
65.284733
  0
LINE
  5
22E
100
AcDbEntity
  8
0
370
    -3
  6
Continuous
100
AcDbLine
 10
213.606991
 20
-22.232585
 30
0.0
 11
212.100035
 21
-24.84271
 31
0.0
  0
ARC
  5
22F
100
AcDbEntity
  8
0
370
    -3
  6
Continuous
100
AcDbCircle
 10
211.234009
 20
-24.34271
 30
0.0
 40
1.0
100
AcDbArc
 50
245.73917
 51
330.0
  0
ARC
  5
230
100
AcDbEntity
  8
0
370
    -3
  6
Continuous
100
AcDbCircle
 10
198.23761
 20
-46.853135
 30
0.0
 40
1.0
100
AcDbArc
 50
261.618272
 51
330.0
  0
LINE
  5
231
100
AcDbEntity
  8
0
370
    -3
  6
Continuous
100
AcDbLine
 10
200.687755
 20
-44.609359
 30
0.0
 11
199.103635
 21
-47.353135
 31
0.0
  0
ARC
  5
232
100
AcDbEntity
  8
0
370
    -3
  6
Continuous
100
AcDbCircle
 10
202.649951
 20
-39.210735
 30
0.0
 40
1.0
100
AcDbArc
 50
251.212271
 51
330.0
  0
LINE
  5
233
100
AcDbEntity
  8
0
370
    -3
  6
Continuous
100
AcDbLine
 10
205.040894
 20
-37.0695
 30
0.0
 11
203.515976
 21
-39.710735
 31
0.0
  0
ARC
  5
234
100
AcDbEntity
  8
0
370
    -3
  6
Continuous
100
AcDbCircle
 10
204.174869
 20
-36.5695
 30
0.0
 40
1.0
100
AcDbArc
 50
330.0
 51
69.594068
  0
ARC
  5
235
100
AcDbEntity
  8
0
370
    -3
  6
Continuous
100
AcDbCircle
 10
195.468027
 20
-46.853135
 30
0.0
 40
1.0
100
AcDbArc
 50
210.0
 51
278.381728
  0
ARC
  5
236
100
AcDbEntity
  8
0
370
    -3
  6
Continuous
100
AcDbCircle
 10
196.852818
 20
-56.251664
 30
0.0
 40
8.5
100
AcDbArc
 50
81.618272
 51
98.381728
  0
ARC
  5
237
100
AcDbEntity
  8
0
370
    -3
  6
Continuous
100
AcDbCircle
 10
199.821729
 20
-44.109359
 30
0.0
 40
1.0
100
AcDbArc
 50
330.0
 51
76.260205
  0
LINE
  5
238
100
AcDbEntity
  8
0
370
    -3
  6
Continuous
100
AcDbLine
 10
193.017882
 20
-44.609359
 30
0.0
 11
194.602001
 21
-47.353135
 31
0.0
  0
ARC
  5
239
100
AcDbEntity
  8
0
370
    -3
  6
Continuous
100
AcDbCircle
 10
193.883907
 20
-44.109359
 30
0.0
 40
1.0
100
AcDbArc
 50
103.739795
 51
210.0
  0
ARC
  5
23A
100
AcDbEntity
  8
0
370
    -3
  6
Continuous
100
AcDbCircle
 10
196.852818
 20
-56.251664
 30
0.0
 40
13.5
100
AcDbArc
 50
76.260205
 51
103.739795
  0
ARC
  5
23B
100
AcDbEntity
  8
0
370
    -3
  6
Continuous
100
AcDbCircle
 10
191.055685
 20
-39.210735
 30
0.0
 40
1.0
100
AcDbArc
 50
210.0
 51
288.787729
  0
LINE
  5
23C
100
AcDbEntity
  8
0
370
    -3
  6
Continuous
100
AcDbLine
 10
188.664742
 20
-37.0695
 30
0.0
 11
190.18966
 21
-39.710735
 31
0.0
  0
ARC
  5
23D
100
AcDbEntity
  8
0
370
    -3
  6
Continuous
100
AcDbCircle
 10
196.852818
 20
-56.251664
 30
0.0
 40
17.0
100
AcDbArc
 50
71.212271
 51
108.787729
  0
ARC
  5
23E
100
AcDbEntity
  8
0
370
    -3
  6
Continuous
100
AcDbCircle
 10
189.530767
 20
-36.5695
 30
0.0
 40
1.0
100
AcDbArc
 50
110.405932
 51
210.0
  0
ARC
  5
23F
100
AcDbEntity
  8
0
370
    -3
  6
Continuous
100
AcDbCircle
 10
186.749982
 20
-31.753038
 30
0.0
 40
1.0
100
AcDbArc
 50
210.0
 51
292.410458
  0
ARC
  5
240
100
AcDbEntity
  8
0
370
    -3
  6
Continuous
100
AcDbCircle
 10
182.471627
 20
-24.34271
 30
0.0
 40
1.0
100
AcDbArc
 50
210.0
 51
294.26083
  0
ARC
  5
241
100
AcDbEntity
  8
0
370
    -3
  6
Continuous
100
AcDbCircle
 10
196.852818
 20
-56.251664
 30
0.0
 40
22.0
100
AcDbArc
 50
69.594068
 51
110.405932
  0
LINE
  5
242
100
AcDbEntity
  8
0
370
    -3
  6
Continuous
100
AcDbLine
 10
184.372063
 20
-29.634362
 30
0.0
 11
185.883956
 21
-32.253038
 31
0.0
  0
ARC
  5
243
100
AcDbEntity
  8
0
370
    -3
  6
Continuous
100
AcDbCircle
 10
185.238089
 20
-29.134362
 30
0.0
 40
1.0
100
AcDbArc
 50
113.186146
 51
210.0
  0
ARC
  5
244
100
AcDbEntity
  8
0
370
    -3
  6
Continuous
100
AcDbCircle
 10
196.852818
 20
-56.251664
 30
0.0
 40
30.5
100
AcDbArc
 50
66.813854
 51
113.186146
  0
ARC
  5
245
100
AcDbEntity
  8
0
370
    -3
  6
Continuous
100
AcDbCircle
 10
196.852818
 20
-56.251664
 30
0.0
 40
25.5
100
AcDbArc
 50
67.589542
 51
112.410458
  0
ARC
  5
246
100
AcDbEntity
  8
0
370
    -3
  6
Continuous
100
AcDbCircle
 10
196.852818
 20
-56.251664
 30
0.0
 40
34.0
100
AcDbArc
 50
65.73917
 51
114.26083
  0
ARC
  5
247
100
AcDbEntity
  8
0
370
    -3
  6
Continuous
100
AcDbCircle
 10
196.852818
 20
-56.251664
 30
0.0
 40
39.0
100
AcDbArc
 50
65.284733
 51
114.715267
  0
LINE
  5
248
100
AcDbEntity
  8
0
370
    -3
  6
Continuous
100
AcDbLine
 10
180.098645
 20
-22.232585
 30
0.0
 11
181.605601
 21
-24.84271
 31
0.0
  0
ARC
  5
249
100
AcDbEntity
  8
0
370
    -3
  6
Continuous
100
AcDbCircle
 10
180.964671
 20
-21.732585
 30
0.0
 40
1.0
100
AcDbArc
 50
114.715267
 51
210.0
  0
CIRCLE
  5
24A
100
AcDbEntity
  8
0
370
    -3
  6
Continuous
100
AcDbCircle
 10
196.852818
 20
-56.251664
 30
0.0
 40
5.0
  0
ARC
  5
24B
100
AcDbEntity
  8
0
370
    -3
  6
Continuous
100
AcDbCircle
 10
174.902493
 20
-25.232585
 30
0.0
 40
1.0
100
AcDbArc
 50
30.0
 51
125.284733
  0
ARC
  5
24C
100
AcDbEntity
  8
0
370
    -3
  6
Continuous
100
AcDbCircle
 10
176.409449
 20
-27.84271
 30
0.0
 40
1.0
100
AcDbArc
 50
305.73917
 51
30.0
  0
ARC
  5
24D
100
AcDbEntity
  8
0
370
    -3
  6
Continuous
100
AcDbCircle
 10
162.028258
 20
-52.751664
 30
0.0
 40
1.0
100
AcDbArc
 50
270.0
 51
354.26083
  0
ARC
  5
24E
100
AcDbEntity
  8
0
370
    -3
  6
Continuous
100
AcDbCircle
 10
159.014346
 20
-52.751664
 30
0.0
 40
1.0
100
AcDbArc
 50
174.715267
 51
270.0
  0
ARC
  5
24F
100
AcDbEntity
  8
0
370
    -3
  6
Continuous
100
AcDbCircle
 10
170.584967
 20
-52.751664
 30
0.0
 40
1.0
100
AcDbArc
 50
270.0
 51
352.410458
  0
ARC
  5
250
100
AcDbEntity
  8
0
370
    -3
  6
Continuous
100
AcDbCircle
 10
179.175911
 20
-32.634362
 30
0.0
 40
1.0
100
AcDbArc
 50
30.0
 51
126.813854
  0
ARC
  5
251
100
AcDbEntity
  8
0
370
    -3
  6
Continuous
100
AcDbCircle
 10
180.687804
 20
-35.253038
 30
0.0
 40
1.0
100
AcDbArc
 50
307.589542
 51
30.0
  0
ARC
  5
252
100
AcDbEntity
  8
0
370
    -3
  6
Continuous
100
AcDbCircle
 10
167.561181
 20
-52.751664
 30
0.0
 40
1.0
100
AcDbArc
 50
173.186146
 51
270.0
  0
ARC
  5
253
100
AcDbEntity
  8
0
370
    -3
  6
Continuous
100
AcDbCircle
 10
176.146539
 20
-52.751664
 30
0.0
 40
1.0
100
AcDbArc
 50
170.405932
 51
270.0
  0
ARC
  5
254
100
AcDbEntity
  8
0
370
    -3
  6
Continuous
100
AcDbCircle
 10
179.196375
 20
-52.751664
 30
0.0
 40
1.0
100
AcDbArc
 50
270.0
 51
348.787729
  0
ARC
  5
255
100
AcDbEntity
  8
0
370
    -3
  6
Continuous
100
AcDbCircle
 10
183.46859
 20
-40.0695
 30
0.0
 40
1.0
100
AcDbArc
 50
30.0
 51
129.594068
  0
ARC
  5
256
100
AcDbEntity
  8
0
370
    -3
  6
Continuous
100
AcDbCircle
 10
184.993507
 20
-42.710735
 30
0.0
 40
1.0
100
AcDbArc
 50
311.212271
 51
30.0
  0
ARC
  5
257
100
AcDbEntity
  8
0
370
    -3
  6
Continuous
100
AcDbCircle
 10
187.821729
 20
-47.609359
 30
0.0
 40
1.0
100
AcDbArc
 50
30.0
 51
136.260205
  0
ARC
  5
258
100
AcDbEntity
  8
0
370
    -3
  6
Continuous
100
AcDbCircle
 10
184.852818
 20
-52.751664
 30
0.0
 40
1.0
100
AcDbArc
 50
163.739795
 51
270.0
  0
ARC
  5
259
100
AcDbEntity
  8
0
370
    -3
  6
Continuous
100
AcDbCircle
 10
188.021057
 20
-52.751664
 30
0.0
 40
1.0
100
AcDbArc
 50
270.0
 51
338.381728
  0
ARC
  5
25A
100
AcDbEntity
  8
0
370
    -3
  6
Continuous
100
AcDbCircle
 10
189.405849
 20
-50.353135
 30
0.0
 40
1.0
100
AcDbArc
 50
321.618272
 51
30.0
  0
ARC
  5
25B
100
AcDbEntity
  8
0
370
    -3
  6
Continuous
100
AcDbCircle
 10
196.852818
 20
-56.251664
 30
0.0
 40
39.0
100
AcDbArc
 50
125.284733
 51
174.715267
  0
ARC
  5
25C
100
AcDbEntity
  8
0
370
    -3
  6
Continuous
100
AcDbCircle
 10
196.852818
 20
-56.251664
 30
0.0
 40
30.5
100
AcDbArc
 50
126.813854
 51
173.186146
  0
ARC
  5
25D
100
AcDbEntity
  8
0
370
    -3
  6
Continuous
100
AcDbCircle
 10
196.852818
 20
-56.251664
 30
0.0
 40
34.0
100
AcDbArc
 50
125.73917
 51
174.26083
  0
ARC
  5
25E
100
AcDbEntity
  8
0
370
    -3
  6
Continuous
100
AcDbCircle
 10
196.852818
 20
-56.251664
 30
0.0
 40
25.5
100
AcDbArc
 50
127.589542
 51
172.410458
  0
ARC
  5
25F
100
AcDbEntity
  8
0
370
    -3
  6
Continuous
100
AcDbCircle
 10
196.852818
 20
-56.251664
 30
0.0
 40
22.0
100
AcDbArc
 50
129.594068
 51
170.405932
  0
ARC
  5
260
100
AcDbEntity
  8
0
370
    -3
  6
Continuous
100
AcDbCircle
 10
196.852818
 20
-56.251664
 30
0.0
 40
17.0
100
AcDbArc
 50
131.212271
 51
168.787729
  0
ARC
  5
261
100
AcDbEntity
  8
0
370
    -3
  6
Continuous
100
AcDbCircle
 10
196.852818
 20
-56.251664
 30
0.0
 40
13.5
100
AcDbArc
 50
136.260205
 51
163.739795
  0
ARC
  5
262
100
AcDbEntity
  8
0
370
    -3
  6
Continuous
100
AcDbCircle
 10
196.852818
 20
-56.251664
 30
0.0
 40
8.5
100
AcDbArc
 50
141.618272
 51
158.381728
  0
LINE
  5
263
100
AcDbEntity
  8
0
370
    -3
  6
Continuous
100
AcDbLine
 10
180.041936
 20
-32.134362
 30
0.0
 11
181.553829
 21
-34.753038
 31
0.0
  0
LINE
  5
264
100
AcDbEntity
  8
0
370
    -3
  6
Continuous
100
AcDbLine
 10
159.014346
 20
-53.751664
 30
0.0
 11
162.028258
 21
-53.751664
 31
0.0
  0
ARC
  5
265
100
AcDbEntity
  8
0
370
    -3
  6
Continuous
100
AcDbCircle
 10
-149.747182
 20
-56.251664
 30
0.0
 40
400.6
100
AcDbArc
 50
0.0
 51
4.529193
  0
ARC
  5
266
100
AcDbEntity
  8
0
370
    -3
  6
Continuous
100
AcDbCircle
 10
229.065771
 20
-26.23922
 30
0.0
 40
20.6
100
AcDbArc
 50
4.529945
 51
45.0
  0
ARC
  5
267
100
AcDbEntity
  8
0
370
    -3
  6
Continuous
100
AcDbCircle
 10
543.452818
 20
-56.251664
 30
0.0
 40
400.6
100
AcDbArc
 50
175.470807
 51
180.0
  0
ARC
  5
268
100
AcDbEntity
  8
0
370
    -3
  6
Continuous
100
AcDbCircle
 10
164.639865
 20
-26.23922
 30
0.0
 40
20.6
100
AcDbArc
 50
135.0
 51
175.470055
  0
ARC
  5
269
100
AcDbEntity
  8
0
370
    -3
  6
Continuous
100
AcDbCircle
 10
543.452818
 20
-56.251664
 30
0.0
 40
400.6
100
AcDbArc
 50
180.0
 51
184.529193
  0
ARC
  5
26A
100
AcDbEntity
  8
0
370
    -3
  6
Continuous
100
AcDbCircle
 10
164.639865
 20
-86.264108
 30
0.0
 40
20.6
100
AcDbArc
 50
184.529945
 51
225.0
  0
LINE
  5
26B
100
AcDbEntity
  8
0
370
    -3
  6
Continuous
100
AcDbLine
 10
152.252211
 20
-103.009253
 30
0.0
 11
150.073466
 21
-100.830508
 31
0.0
  0
ARC
  5
26C
100
AcDbEntity
  8
0
370
    -3
  6
Continuous
100
AcDbCircle
 10
180.960747
 20
-74.300718
 30
0.0
 40
40.6
100
AcDbArc
 50
225.0
 51
267.469876
  0
ARC
  5
26D
100
AcDbEntity
  8
0
370
    -3
  6
Continuous
100
AcDbCircle
 10
-149.747182
 20
-56.251664
 30
0.0
 40
400.6
100
AcDbArc
 50
355.470807
 51
0.0
  0
ARC
  5
26E
100
AcDbEntity
  8
0
370
    -3
  6
Continuous
100
AcDbCircle
 10
229.065771
 20
-86.264108
 30
0.0
 40
20.6
100
AcDbArc
 50
315.0
 51
355.470055
  0
LINE
  5
26F
100
AcDbEntity
  8
0
370
    -3
  6
Continuous
100
AcDbLine
 10
241.453425
 20
-103.009253
 30
0.0
 11
243.632171
 21
-100.830508
 31
0.0
  0
ARC
  5
270
100
AcDbEntity
  8
0
370
    -3
  6
Continuous
100
AcDbCircle
 10
212.74489
 20
-74.300718
 30
0.0
 40
40.6
100
AcDbArc
 50
272.530124
 51
315.0
  0
LINE
  5
271
100
AcDbEntity
  8
0
370
    -3
  6
Continuous
100
AcDbLine
 10
175.768518
 20
-24.732585
 30
0.0
 11
177.275474
 21
-27.34271
 31
0.0
  0
LINE
  5
272
100
AcDbEntity
  8
0
370
    -3
  6
Continuous
100
AcDbLine
 10
184.334615
 20
-39.5695
 30
0.0
 11
185.859533
 21
-42.210735
 31
0.0
  0
LINE
  5
273
100
AcDbEntity
  8
0
370
    -3
  6
Continuous
100
AcDbLine
 10
188.687755
 20
-47.109359
 30
0.0
 11
190.271874
 21
-49.853135
 31
0.0
  0
LINE
  5
274
100
AcDbEntity
  8
0
370
    -3
  6
Continuous
100
AcDbLine
 10
184.852818
 20
-53.751664
 30
0.0
 11
188.021057
 21
-53.751664
 31
0.0
  0
LINE
  5
275
100
AcDbEntity
  8
0
370
    -3
  6
Continuous
100
AcDbLine
 10
176.146539
 20
-53.751664
 30
0.0
 11
179.196375
 21
-53.751664
 31
0.0
  0
LINE
  5
276
100
AcDbEntity
  8
0
370
    -3
  6
Continuous
100
AcDbLine
 10
167.561181
 20
-53.751664
 30
0.0
 11
170.584967
 21
-53.751664
 31
0.0
  0
ARC
  5
277
100
AcDbEntity
  8
0
370
    -3
  6
Continuous
100
AcDbCircle
 10
196.852818
 20
-56.251664
 30
0.0
 40
39.0
100
AcDbArc
 50
245.284733
 51
294.715267
  0
ARC
  5
278
100
AcDbEntity
  8
0
370
    -3
  6
Continuous
100
AcDbCircle
 10
196.852818
 20
-56.251664
 30
0.0
 40
34.0
100
AcDbArc
 50
245.73917
 51
294.26083
  0
ARC
  5
279
100
AcDbEntity
  8
0
370
    -3
  6
Continuous
100
AcDbCircle
 10
196.852818
 20
-56.251664
 30
0.0
 40
25.5
100
AcDbArc
 50
247.589542
 51
292.410458
  0
ARC
  5
27A
100
AcDbEntity
  8
0
370
    -3
  6
Continuous
100
AcDbCircle
 10
196.852818
 20
-56.251664
 30
0.0
 40
30.5
100
AcDbArc
 50
246.813854
 51
293.186146
  0
ARC
  5
27B
100
AcDbEntity
  8
0
370
    -3
  6
Continuous
100
AcDbCircle
 10
196.852818
 20
-56.251664
 30
0.0
 40
22.0
100
AcDbArc
 50
249.594068
 51
290.405932
  0
ARC
  5
27C
100
AcDbEntity
  8
0
370
    -3
  6
Continuous
100
AcDbCircle
 10
196.852818
 20
-56.251664
 30
0.0
 40
17.0
100
AcDbArc
 50
251.212271
 51
288.787729
  0
ARC
  5
27D
100
AcDbEntity
  8
0
370
    -3
  6
Continuous
100
AcDbCircle
 10
196.852818
 20
-56.251664
 30
0.0
 40
13.5
100
AcDbArc
 50
256.260205
 51
283.739795
  0
ARC
  5
27E
100
AcDbEntity
  8
0
370
    -3
  6
Continuous
100
AcDbCircle
 10
199.821729
 20
-68.393969
 30
0.0
 40
1.0
100
AcDbArc
 50
283.739795
 51
30.0
  0
ARC
  5
27F
100
AcDbEntity
  8
0
370
    -3
  6
Continuous
100
AcDbCircle
 10
204.174869
 20
-75.933828
 30
0.0
 40
1.0
100
AcDbArc
 50
290.405932
 51
30.0
  0
LINE
  5
280
100
AcDbEntity
  8
0
370
    -3
  6
Continuous
100
AcDbLine
 10
205.040894
 20
-75.433828
 30
0.0
 11
203.515976
 21
-72.792593
 31
0.0
  0
ARC
  5
281
100
AcDbEntity
  8
0
370
    -3
  6
Continuous
100
AcDbCircle
 10
202.649951
 20
-73.292593
 30
0.0
 40
1.0
100
AcDbArc
 50
30.0
 51
108.787729
  0
LINE
  5
282
100
AcDbEntity
  8
0
370
    -3
  6
Continuous
100
AcDbLine
 10
200.687755
 20
-67.893969
 30
0.0
 11
199.103635
 21
-65.150193
 31
0.0
  0
ARC
  5
283
100
AcDbEntity
  8
0
370
    -3
  6
Continuous
100
AcDbCircle
 10
198.23761
 20
-65.650193
 30
0.0
 40
1.0
100
AcDbArc
 50
30.0
 51
98.381728
  0
ARC
  5
284
100
AcDbEntity
  8
0
370
    -3
  6
Continuous
100
AcDbCircle
 10
211.234009
 20
-88.160618
 30
0.0
 40
1.0
100
AcDbArc
 50
30.0
 51
114.26083
  0
LINE
  5
285
100
AcDbEntity
  8
0
370
    -3
  6
Continuous
100
AcDbLine
 10
213.606991
 20
-90.270742
 30
0.0
 11
212.100035
 21
-87.660618
 31
0.0
  0
ARC
  5
286
100
AcDbEntity
  8
0
370
    -3
  6
Continuous
100
AcDbCircle
 10
212.740965
 20
-90.770742
 30
0.0
 40
1.0
100
AcDbArc
 50
294.715267
 51
30.0
  0
ARC
  5
287
100
AcDbEntity
  8
0
370
    -3
  6
Continuous
100
AcDbCircle
 10
206.955655
 20
-80.75029
 30
0.0
 40
1.0
100
AcDbArc
 50
30.0
 51
112.410458
  0
LINE
  5
288
100
AcDbEntity
  8
0
370
    -3
  6
Continuous
100
AcDbLine
 10
209.333573
 20
-82.868966
 30
0.0
 11
207.82168
 21
-80.25029
 31
0.0
  0
ARC
  5
289
100
AcDbEntity
  8
0
370
    -3
  6
Continuous
100
AcDbCircle
 10
208.467548
 20
-83.368966
 30
0.0
 40
1.0
100
AcDbArc
 50
293.186146
 51
30.0
  0
ARC
  5
28A
100
AcDbEntity
  8
0
370
    -3
  6
Continuous
100
AcDbCircle
 10
196.852818
 20
-56.251664
 30
0.0
 40
39.0
100
AcDbArc
 50
305.284733
 51
354.715267
  0
ARC
  5
28B
100
AcDbEntity
  8
0
370
    -3
  6
Continuous
100
AcDbCircle
 10
196.852818
 20
-56.251664
 30
0.0
 40
34.0
100
AcDbArc
 50
305.73917
 51
354.26083
  0
ARC
  5
28C
100
AcDbEntity
  8
0
370
    -3
  6
Continuous
100
AcDbCircle
 10
196.852818
 20
-56.251664
 30
0.0
 40
25.5
100
AcDbArc
 50
307.589542
 51
352.410458
  0
ARC
  5
28D
100
AcDbEntity
  8
0
370
    -3
  6
Continuous
100
AcDbCircle
 10
196.852818
 20
-56.251664
 30
0.0
 40
30.5
100
AcDbArc
 50
306.813854
 51
353.186146
  0
ARC
  5
28E
100
AcDbEntity
  8
0
370
    -3
  6
Continuous
100
AcDbCircle
 10
196.852818
 20
-56.251664
 30
0.0
 40
22.0
100
AcDbArc
 50
309.594068
 51
350.405932
  0
ARC
  5
28F
100
AcDbEntity
  8
0
370
    -3
  6
Continuous
100
AcDbCircle
 10
196.852818
 20
-56.251664
 30
0.0
 40
17.0
100
AcDbArc
 50
311.212271
 51
348.787729
  0
ARC
  5
290
100
AcDbEntity
  8
0
370
    -3
  6
Continuous
100
AcDbCircle
 10
196.852818
 20
-56.251664
 30
0.0
 40
13.5
100
AcDbArc
 50
316.260205
 51
343.739795
  0
ARC
  5
291
100
AcDbEntity
  8
0
370
    -3
  6
Continuous
100
AcDbCircle
 10
208.852818
 20
-59.751664
 30
0.0
 40
1.0
100
AcDbArc
 50
343.739795
 51
90.0
  0
LINE
  5
292
100
AcDbEntity
  8
0
370
    -3
  6
Continuous
100
AcDbLine
 10
208.852818
 20
-58.751664
 30
0.0
 11
205.684579
 21
-58.751664
 31
0.0
  0
ARC
  5
293
100
AcDbEntity
  8
0
370
    -3
  6
Continuous
100
AcDbCircle
 10
205.883907
 20
-64.893969
 30
0.0
 40
1.0
100
AcDbArc
 50
210.0
 51
316.260205
  0
ARC
  5
294
100
AcDbEntity
  8
0
370
    -3
  6
Continuous
100
AcDbCircle
 10
196.852818
 20
-56.251664
 30
0.0
 40
8.5
100
AcDbArc
 50
321.618272
 51
338.381728
  0
ARC
  5
295
100
AcDbEntity
  8
0
370
    -3
  6
Continuous
100
AcDbCircle
 10
205.684579
 20
-59.751664
 30
0.0
 40
1.0
100
AcDbArc
 50
90.0
 51
158.381728
  0
ARC
  5
296
100
AcDbEntity
  8
0
370
    -3
  6
Continuous
100
AcDbCircle
 10
210.237047
 20
-72.433828
 30
0.0
 40
1.0
100
AcDbArc
 50
210.0
 51
309.594068
  0
LINE
  5
297
100
AcDbEntity
  8
0
370
    -3
  6
Continuous
100
AcDbLine
 10
209.371021
 20
-72.933828
 30
0.0
 11
207.846103
 21
-70.292593
 31
0.0
  0
ARC
  5
298
100
AcDbEntity
  8
0
370
    -3
  6
Continuous
100
AcDbCircle
 10
208.712129
 20
-69.792593
 30
0.0
 40
1.0
100
AcDbArc
 50
131.212271
 51
210.0
  0
LINE
  5
299
100
AcDbEntity
  8
0
370
    -3
  6
Continuous
100
AcDbLine
 10
205.017882
 20
-65.393969
 30
0.0
 11
203.433762
 21
-62.650193
 31
0.0
  0
ARC
  5
29A
100
AcDbEntity
  8
0
370
    -3
  6
Continuous
100
AcDbCircle
 10
204.299787
 20
-62.150193
 30
0.0
 40
1.0
100
AcDbArc
 50
141.618272
 51
210.0
  0
ARC
  5
29B
100
AcDbEntity
  8
0
370
    -3
  6
Continuous
100
AcDbCircle
 10
217.296187
 20
-84.660618
 30
0.0
 40
1.0
100
AcDbArc
 50
125.73917
 51
210.0
  0
LINE
  5
29C
100
AcDbEntity
  8
0
370
    -3
  6
Continuous
100
AcDbLine
 10
217.937118
 20
-87.770742
 30
0.0
 11
216.430162
 21
-85.160618
 31
0.0
  0
ARC
  5
29D
100
AcDbEntity
  8
0
370
    -3
  6
Continuous
100
AcDbCircle
 10
218.803143
 20
-87.270742
 30
0.0
 40
1.0
100
AcDbArc
 50
210.0
 51
305.284733
  0
ARC
  5
29E
100
AcDbEntity
  8
0
370
    -3
  6
Continuous
100
AcDbCircle
 10
213.017833
 20
-77.25029
 30
0.0
 40
1.0
100
AcDbArc
 50
127.589542
 51
210.0
  0
LINE
  5
29F
100
AcDbEntity
  8
0
370
    -3
  6
Continuous
100
AcDbLine
 10
213.6637
 20
-80.368966
 30
0.0
 11
212.151807
 21
-77.75029
 31
0.0
  0
ARC
  5
2A0
100
AcDbEntity
  8
0
370
    -3
  6
Continuous
100
AcDbCircle
 10
214.529726
 20
-79.868966
 30
0.0
 40
1.0
100
AcDbArc
 50
210.0
 51
306.813854
  0
ARC
  5
2A1
100
AcDbEntity
  8
0
370
    -3
  6
Continuous
100
AcDbCircle
 10
234.691291
 20
-59.751664
 30
0.0
 40
1.0
100
AcDbArc
 50
354.715267
 51
90.0
  0
LINE
  5
2A2
100
AcDbEntity
  8
0
370
    -3
  6
Continuous
100
AcDbLine
 10
234.691291
 20
-58.751664
 30
0.0
 11
231.677378
 21
-58.751664
 31
0.0
  0
ARC
  5
2A3
100
AcDbEntity
  8
0
370
    -3
  6
Continuous
100
AcDbCircle
 10
231.677378
 20
-59.751664
 30
0.0
 40
1.0
100
AcDbArc
 50
90.0
 51
174.26083
  0
ARC
  5
2A4
100
AcDbEntity
  8
0
370
    -3
  6
Continuous
100
AcDbCircle
 10
226.144455
 20
-59.751664
 30
0.0
 40
1.0
100
AcDbArc
 50
353.186146
 51
90.0
  0
LINE
  5
2A5
100
AcDbEntity
  8
0
370
    -3
  6
Continuous
100
AcDbLine
 10
226.144455
 20
-58.751664
 30
0.0
 11
223.120669
 21
-58.751664
 31
0.0
  0
ARC
  5
2A6
100
AcDbEntity
  8
0
370
    -3
  6
Continuous
100
AcDbCircle
 10
223.120669
 20
-59.751664
 30
0.0
 40
1.0
100
AcDbArc
 50
90.0
 51
172.410458
  0
ARC
  5
2A7
100
AcDbEntity
  8
0
370
    -3
  6
Continuous
100
AcDbCircle
 10
217.559097
 20
-59.751664
 30
0.0
 40
1.0
100
AcDbArc
 50
350.405932
 51
90.0
  0
LINE
  5
2A8
100
AcDbEntity
  8
0
370
    -3
  6
Continuous
100
AcDbLine
 10
217.559097
 20
-58.751664
 30
0.0
 11
214.509262
 21
-58.751664
 31
0.0
  0
ARC
  5
2A9
100
AcDbEntity
  8
0
370
    -3
  6
Continuous
100
AcDbCircle
 10
214.509262
 20
-59.751664
 30
0.0
 40
1.0
100
AcDbArc
 50
90.0
 51
168.787729
  0
LINE
  5
2AA
100
AcDbEntity
  8
0
370
    -3
  6
Continuous
100
AcDbLine
 10
234.521657
 20
-96.077485
 30
0.0
 11
236.700403
 21
-93.89874
 31
0.0
  0
ARC
  5
2AB
100
AcDbEntity
  8
0
370
    -3
  6
Continuous
100
AcDbCircle
 10
229.065771
 20
-86.264108
 30
0.0
 40
10.797
100
AcDbArc
 50
315.0
 51
355.470055
  0
ARC
  5
2AC
100
AcDbEntity
  8
0
370
    -3
  6
Continuous
100
AcDbCircle
 10
-149.747182
 20
-56.251664
 30
0.0
 40
390.797
100
AcDbArc
 50
355.470807
 51
0.0
  0
ARC
  5
2AD
100
AcDbEntity
  8
0
370
    -3
  6
Continuous
100
AcDbCircle
 10
193.883907
 20
-68.393969
 30
0.0
 40
1.0
100
AcDbArc
 50
150.0
 51
256.260205
  0
LINE
  5
2AE
100
AcDbEntity
  8
0
370
    -3
  6
Continuous
100
AcDbLine
 10
193.017882
 20
-67.893969
 30
0.0
 11
194.602001
 21
-65.150193
 31
0.0
  0
ARC
  5
2AF
100
AcDbEntity
  8
0
370
    -3
  6
Continuous
100
AcDbCircle
 10
196.852818
 20
-56.251664
 30
0.0
 40
8.5
100
AcDbArc
 50
261.618272
 51
278.381728
  0
ARC
  5
2B0
100
AcDbEntity
  8
0
370
    -3
  6
Continuous
100
AcDbCircle
 10
195.468027
 20
-65.650193
 30
0.0
 40
1.0
100
AcDbArc
 50
81.618272
 51
150.0
  0
ARC
  5
2B1
100
AcDbEntity
  8
0
370
    -3
  6
Continuous
100
AcDbCircle
 10
196.852818
 20
285.348336
 30
0.0
 40
390.797
100
AcDbArc
 50
267.470639
 51
270.0
  0
ARC
  5
2B2
100
AcDbEntity
  8
0
370
    -3
  6
Continuous
100
AcDbCircle
 10
196.852818
 20
285.348336
 30
0.0
 40
390.797
100
AcDbArc
 50
270.0
 51
272.529361
  0
ARC
  5
2B3
100
AcDbEntity
  8
0
370
    -3
  6
Continuous
100
AcDbCircle
 10
212.74489
 20
-74.300718
 30
0.0
 40
30.797
100
AcDbArc
 50
272.530124
 51
315.0
  0
LINE
  5
2B4
100
AcDbEntity
  8
0
370
    -3
  6
Continuous
100
AcDbLine
 10
167.561181
 20
-58.751664
 30
0.0
 11
170.584967
 21
-58.751664
 31
0.0
  0
LINE
  5
2B5
100
AcDbEntity
  8
0
370
    -3
  6
Continuous
100
AcDbLine
 10
176.146539
 20
-58.751664
 30
0.0
 11
179.196375
 21
-58.751664
 31
0.0
  0
LINE
  5
2B6
100
AcDbEntity
  8
0
370
    -3
  6
Continuous
100
AcDbLine
 10
184.852818
 20
-58.751664
 30
0.0
 11
188.021057
 21
-58.751664
 31
0.0
  0
LINE
  5
2B7
100
AcDbEntity
  8
0
370
    -3
  6
Continuous
100
AcDbLine
 10
188.687755
 20
-65.393969
 30
0.0
 11
190.271874
 21
-62.650193
 31
0.0
  0
LINE
  5
2B8
100
AcDbEntity
  8
0
370
    -3
  6
Continuous
100
AcDbLine
 10
184.334615
 20
-72.933828
 30
0.0
 11
185.859533
 21
-70.292593
 31
0.0
  0
LINE
  5
2B9
100
AcDbEntity
  8
0
370
    -3
  6
Continuous
100
AcDbLine
 10
175.768518
 20
-87.770742
 30
0.0
 11
177.275474
 21
-85.160618
 31
0.0
  0
LINE
  5
2BA
100
AcDbEntity
  8
0
370
    -3
  6
Continuous
100
AcDbLine
 10
180.041936
 20
-80.368966
 30
0.0
 11
181.553829
 21
-77.75029
 31
0.0
  0
ARC
  5
2BB
100
AcDbEntity
  8
0
370
    -3
  6
Continuous
100
AcDbCircle
 10
196.852818
 20
-56.251664
 30
0.0
 40
8.5
100
AcDbArc
 50
201.618272
 51
218.381728
  0
ARC
  5
2BC
100
AcDbEntity
  8
0
370
    -3
  6
Continuous
100
AcDbCircle
 10
196.852818
 20
-56.251664
 30
0.0
 40
13.5
100
AcDbArc
 50
196.260205
 51
223.739795
  0
ARC
  5
2BD
100
AcDbEntity
  8
0
370
    -3
  6
Continuous
100
AcDbCircle
 10
196.852818
 20
-56.251664
 30
0.0
 40
17.0
100
AcDbArc
 50
191.212271
 51
228.787729
  0
ARC
  5
2BE
100
AcDbEntity
  8
0
370
    -3
  6
Continuous
100
AcDbCircle
 10
196.852818
 20
-56.251664
 30
0.0
 40
22.0
100
AcDbArc
 50
189.594068
 51
230.405932
  0
ARC
  5
2BF
100
AcDbEntity
  8
0
370
    -3
  6
Continuous
100
AcDbCircle
 10
196.852818
 20
-56.251664
 30
0.0
 40
25.5
100
AcDbArc
 50
187.589542
 51
232.410458
  0
ARC
  5
2C0
100
AcDbEntity
  8
0
370
    -3
  6
Continuous
100
AcDbCircle
 10
196.852818
 20
-56.251664
 30
0.0
 40
34.0
100
AcDbArc
 50
185.73917
 51
234.26083
  0
ARC
  5
2C1
100
AcDbEntity
  8
0
370
    -3
  6
Continuous
100
AcDbCircle
 10
196.852818
 20
-56.251664
 30
0.0
 40
30.5
100
AcDbArc
 50
186.813854
 51
233.186146
  0
ARC
  5
2C2
100
AcDbEntity
  8
0
370
    -3
  6
Continuous
100
AcDbCircle
 10
196.852818
 20
-56.251664
 30
0.0
 40
39.0
100
AcDbArc
 50
185.284733
 51
234.715267
  0
ARC
  5
2C3
100
AcDbEntity
  8
0
370
    -3
  6
Continuous
100
AcDbCircle
 10
189.405849
 20
-62.150193
 30
0.0
 40
1.0
100
AcDbArc
 50
330.0
 51
38.381728
  0
ARC
  5
2C4
100
AcDbEntity
  8
0
370
    -3
  6
Continuous
100
AcDbCircle
 10
188.021057
 20
-59.751664
 30
0.0
 40
1.0
100
AcDbArc
 50
21.618272
 51
90.0
  0
ARC
  5
2C5
100
AcDbEntity
  8
0
370
    -3
  6
Continuous
100
AcDbCircle
 10
184.852818
 20
-59.751664
 30
0.0
 40
1.0
100
AcDbArc
 50
90.0
 51
196.260205
  0
ARC
  5
2C6
100
AcDbEntity
  8
0
370
    -3
  6
Continuous
100
AcDbCircle
 10
187.821729
 20
-64.893969
 30
0.0
 40
1.0
100
AcDbArc
 50
223.739795
 51
330.0
  0
ARC
  5
2C7
100
AcDbEntity
  8
0
370
    -3
  6
Continuous
100
AcDbCircle
 10
184.993507
 20
-69.792593
 30
0.0
 40
1.0
100
AcDbArc
 50
330.0
 51
48.787729
  0
ARC
  5
2C8
100
AcDbEntity
  8
0
370
    -3
  6
Continuous
100
AcDbCircle
 10
183.46859
 20
-72.433828
 30
0.0
 40
1.0
100
AcDbArc
 50
230.405932
 51
330.0
  0
ARC
  5
2C9
100
AcDbEntity
  8
0
370
    -3
  6
Continuous
100
AcDbCircle
 10
179.196375
 20
-59.751664
 30
0.0
 40
1.0
100
AcDbArc
 50
11.212271
 51
90.0
  0
ARC
  5
2CA
100
AcDbEntity
  8
0
370
    -3
  6
Continuous
100
AcDbCircle
 10
176.146539
 20
-59.751664
 30
0.0
 40
1.0
100
AcDbArc
 50
90.0
 51
189.594068
  0
ARC
  5
2CB
100
AcDbEntity
  8
0
370
    -3
  6
Continuous
100
AcDbCircle
 10
180.687804
 20
-77.25029
 30
0.0
 40
1.0
100
AcDbArc
 50
330.0
 51
52.410458
  0
ARC
  5
2CC
100
AcDbEntity
  8
0
370
    -3
  6
Continuous
100
AcDbCircle
 10
179.175911
 20
-79.868966
 30
0.0
 40
1.0
100
AcDbArc
 50
233.186146
 51
330.0
  0
ARC
  5
2CD
100
AcDbEntity
  8
0
370
    -3
  6
Continuous
100
AcDbCircle
 10
170.584967
 20
-59.751664
 30
0.0
 40
1.0
100
AcDbArc
 50
7.589542
 51
90.0
  0
ARC
  5
2CE
100
AcDbEntity
  8
0
370
    -3
  6
Continuous
100
AcDbCircle
 10
176.409449
 20
-84.660618
 30
0.0
 40
1.0
100
AcDbArc
 50
330.0
 51
54.26083
  0
ARC
  5
2CF
100
AcDbEntity
  8
0
370
    -3
  6
Continuous
100
AcDbCircle
 10
174.902493
 20
-87.270742
 30
0.0
 40
1.0
100
AcDbArc
 50
234.715267
 51
330.0
  0
ARC
  5
2D0
100
AcDbEntity
  8
0
370
    -3
  6
Continuous
100
AcDbCircle
 10
180.964671
 20
-90.770742
 30
0.0
 40
1.0
100
AcDbArc
 50
150.0
 51
245.284733
  0
LINE
  5
2D1
100
AcDbEntity
  8
0
370
    -3
  6
Continuous
100
AcDbLine
 10
180.098645
 20
-90.270742
 30
0.0
 11
181.605601
 21
-87.660618
 31
0.0
  0
ARC
  5
2D2
100
AcDbEntity
  8
0
370
    -3
  6
Continuous
100
AcDbCircle
 10
185.238089
 20
-83.368966
 30
0.0
 40
1.0
100
AcDbArc
 50
150.0
 51
246.813854
  0
LINE
  5
2D3
100
AcDbEntity
  8
0
370
    -3
  6
Continuous
100
AcDbLine
 10
184.372063
 20
-82.868966
 30
0.0
 11
185.883956
 21
-80.25029
 31
0.0
  0
ARC
  5
2D4
100
AcDbEntity
  8
0
370
    -3
  6
Continuous
100
AcDbCircle
 10
182.471627
 20
-88.160618
 30
0.0
 40
1.0
100
AcDbArc
 50
65.73917
 51
150.0
  0
ARC
  5
2D5
100
AcDbEntity
  8
0
370
    -3
  6
Continuous
100
AcDbCircle
 10
186.749982
 20
-80.75029
 30
0.0
 40
1.0
100
AcDbArc
 50
67.589542
 51
150.0
  0
ARC
  5
2D6
100
AcDbEntity
  8
0
370
    -3
  6
Continuous
100
AcDbCircle
 10
189.530767
 20
-75.933828
 30
0.0
 40
1.0
100
AcDbArc
 50
150.0
 51
249.594068
  0
LINE
  5
2D7
100
AcDbEntity
  8
0
370
    -3
  6
Continuous
100
AcDbLine
 10
188.664742
 20
-75.433828
 30
0.0
 11
190.18966
 21
-72.792593
 31
0.0
  0
ARC
  5
2D8
100
AcDbEntity
  8
0
370
    -3
  6
Continuous
100
AcDbCircle
 10
191.055685
 20
-73.292593
 30
0.0
 40
1.0
100
AcDbArc
 50
71.212271
 51
150.0
  0
ARC
  5
2D9
100
AcDbEntity
  8
0
370
    -3
  6
Continuous
100
AcDbCircle
 10
180.960747
 20
-74.300718
 30
0.0
 40
30.797
100
AcDbArc
 50
225.0
 51
267.469876
  0
LINE
  5
2DA
100
AcDbEntity
  8
0
370
    -3
  6
Continuous
100
AcDbLine
 10
159.014346
 20
-58.751664
 30
0.0
 11
162.028258
 21
-58.751664
 31
0.0
  0
ARC
  5
2DB
100
AcDbEntity
  8
0
370
    -3
  6
Continuous
100
AcDbCircle
 10
167.561181
 20
-59.751664
 30
0.0
 40
1.0
100
AcDbArc
 50
90.0
 51
186.813854
  0
ARC
  5
2DC
100
AcDbEntity
  8
0
370
    -3
  6
Continuous
100
AcDbCircle
 10
159.014346
 20
-59.751664
 30
0.0
 40
1.0
100
AcDbArc
 50
90.0
 51
185.284733
  0
ARC
  5
2DD
100
AcDbEntity
  8
0
370
    -3
  6
Continuous
100
AcDbCircle
 10
162.028258
 20
-59.751664
 30
0.0
 40
1.0
100
AcDbArc
 50
5.73917
 51
90.0
  0
ARC
  5
2DE
100
AcDbEntity
  8
0
370
    -3
  6
Continuous
100
AcDbCircle
 10
543.452818
 20
-56.251664
 30
0.0
 40
390.797
100
AcDbArc
 50
180.0
 51
184.529193
  0
ARC
  5
2DF
100
AcDbEntity
  8
0
370
    -3
  6
Continuous
100
AcDbCircle
 10
164.639865
 20
-86.264108
 30
0.0
 40
10.797
100
AcDbArc
 50
184.529945
 51
225.0
  0
LINE
  5
2E0
100
AcDbEntity
  8
0
370
    -3
  6
Continuous
100
AcDbLine
 10
159.183979
 20
-96.077485
 30
0.0
 11
157.005233
 21
-93.89874
 31
0.0
  0
LINE
  5
2E1
100
AcDbEntity
  8
0
370
    -3
  6
Continuous
100
AcDbLine
 10
229.352818
 20
4.090358
 30
0.0
 11
229.352818
 21
6.748336
 31
0.0
  0
LINE
  5
2E2
100
AcDbEntity
  8
0
370
    -3
  6
Continuous
100
AcDbLine
 10
-18.147191
 20
183.909676
 30
0.0
 11
-20.147191
 21
185.085461
 31
0.0
  0
LINE
  5
2E3
100
AcDbEntity
  8
0
370
    -3
  6
Continuous
100
AcDbLine
 10
-22.147191
 20
183.909676
 30
0.0
 11
-20.147191
 21
185.085461
 31
0.0
  0
LINE
  5
2E4
100
AcDbEntity
  8
0
370
    -3
  6
Continuous
100
AcDbLine
 10
-18.147191
 20
183.909676
 30
0.0
 11
-20.147191
 21
185.085461
 31
0.0
  0
LINE
  5
2E5
100
AcDbEntity
  8
0
370
    -3
  6
Continuous
100
AcDbLine
 10
-22.147191
 20
183.909676
 30
0.0
 11
-20.147191
 21
185.085461
 31
0.0
  0
LINE
  5
2E6
100
AcDbEntity
  8
0
370
    -3
  6
Continuous
100
AcDbLine
 10
-20.147191
 20
185.085461
 30
0.0
 11
-21.239569
 21
185.988116
 31
0.0
  0
LINE
  5
2E7
100
AcDbEntity
  8
0
370
    -3
  6
Continuous
100
AcDbLine
 10
-20.147191
 20
185.085461
 30
0.0
 11
-19.054813
 21
185.988116
 31
0.0
  0
ELLIPSE
  5
2E8
100
AcDbEntity
  8
0
370
    -3
  6
Continuous
100
AcDbEllipse
 10
-20.147191
 20
186.902051
 30
0.0
 11
4.6999999999999886
 21
0.0
 31
0.0
210
0.0
220
0.0
230
1.0
 40
0.766646
 41
3.3980369563346051
 42
6.0267410044347134
  0
LINE
  5
2E9
100
AcDbEntity
  8
0
370
    -3
  6
Continuous
100
AcDbLine
 10
-18.147191
 20
281.666556
 30
0.0
 11
-20.147191
 21
280.490771
 31
0.0
  0
LINE
  5
2EA
100
AcDbEntity
  8
0
370
    -3
  6
Continuous
100
AcDbLine
 10
-22.147191
 20
281.666556
 30
0.0
 11
-20.147191
 21
280.490771
 31
0.0
  0
LINE
  5
2EB
100
AcDbEntity
  8
0
370
    -3
  6
Continuous
100
AcDbLine
 10
-18.147191
 20
281.666556
 30
0.0
 11
-20.147191
 21
280.490771
 31
0.0
  0
LINE
  5
2EC
100
AcDbEntity
  8
0
370
    -3
  6
Continuous
100
AcDbLine
 10
-22.147191
 20
281.666556
 30
0.0
 11
-20.147191
 21
280.490771
 31
0.0
  0
LINE
  5
2ED
100
AcDbEntity
  8
0
370
    -3
  6
Continuous
100
AcDbLine
 10
-20.147191
 20
280.490771
 30
0.0
 11
-21.239569
 21
279.588116
 31
0.0
  0
LINE
  5
2EE
100
AcDbEntity
  8
0
370
    -3
  6
Continuous
100
AcDbLine
 10
-20.147191
 20
280.490771
 30
0.0
 11
-19.054813
 21
279.588116
 31
0.0
  0
ELLIPSE
  5
2EF
100
AcDbEntity
  8
0
370
    -3
  6
Continuous
100
AcDbEllipse
 10
-20.147191
 20
278.674181
 30
0.0
 11
4.6999999999999886
 21
0.0
 31
0.0
210
0.0
220
0.0
230
1.0
 40
0.766646
 41
0.256444302744812
 42
2.8851483508449811
  0
LINE
  5
2F0
100
AcDbEntity
  8
0
370
    -3
  6
Continuous
100
AcDbLine
 10
-102.044661
 20
214.038116
 30
0.0
 11
-130.147191
 21
214.038116
 31
0.0
  0
LINE
  5
2F1
100
AcDbEntity
  8
0
370
    -3
  6
Continuous
100
AcDbLine
 10
-102.044661
 20
251.538116
 30
0.0
 11
-130.147191
 21
251.538116
 31
0.0
  0
LINE
  5
2F2
100
AcDbEntity
  8
0
370
    -3
  6
Continuous
100
AcDbLine
 10
-102.044661
 20
204.188321
 30
0.0
 11
-130.147191
 21
204.188321
 31
0.0
  0
LINE
  5
2F3
100
AcDbEntity
  8
0
370
    -3
  6
Continuous
100
AcDbLine
 10
-102.044661
 20
205.38791
 30
0.0
 11
-130.147191
 21
205.38791
 31
0.0
  0
LINE
  5
2F4
100
AcDbEntity
  8
0
370
    -3
  6
Continuous
100
AcDbLine
 10
-102.044661
 20
208.688321
 30
0.0
 11
-130.147191
 21
208.688321
 31
0.0
  0
LINE
  5
2F5
100
AcDbEntity
  8
0
370
    -3
  6
Continuous
100
AcDbLine
 10
-102.044661
 20
209.88791
 30
0.0
 11
-130.147191
 21
209.88791
 31
0.0
  0
LINE
  5
2F6
100
AcDbEntity
  8
0
370
    -3
  6
Continuous
100
AcDbLine
 10
-101.912
 20
192.355668
 30
0.0
 11
-130.147191
 21
192.355668
 31
0.0
  0
LINE
  5
2F7
100
AcDbEntity
  8
0
370
    -3
  6
Continuous
100
AcDbLine
 10
-31.1472
 20
185.461519
 30
0.0
 11
-130.147191
 21
185.461519
 31
0.0
  0
LINE
  5
2F8
100
AcDbEntity
  8
0
370
    -3
  6
Continuous
100
AcDbLine
 10
-102.044661
 20
199.688321
 30
0.0
 11
-130.147191
 21
199.688321
 31
0.0
  0
LINE
  5
2F9
100
AcDbEntity
  8
0
370
    -3
  6
Continuous
100
AcDbLine
 10
-102.044661
 20
200.88791
 30
0.0
 11
-130.147191
 21
200.88791
 31
0.0
  0
LINE
  5
2FA
100
AcDbEntity
  8
0
370
    -3
  6
Continuous
100
AcDbLine
 10
-31.1472
 20
280.114713
 30
0.0
 11
-130.147191
 21
280.114713
 31
0.0
  0
LINE
  5
2FB
100
AcDbEntity
  8
0
370
    -3
  6
Continuous
100
AcDbLine
 10
-101.912
 20
273.220563
 30
0.0
 11
-130.147191
 21
273.220563
 31
0.0
  0
LINE
  5
2FC
100
AcDbEntity
  8
0
370
    -3
  6
Continuous
100
AcDbLine
 10
-102.044661
 20
261.38791
 30
0.0
 11
-130.147191
 21
261.38791
 31
0.0
  0
LINE
  5
2FD
100
AcDbEntity
  8
0
370
    -3
  6
Continuous
100
AcDbLine
 10
-102.044661
 20
260.188321
 30
0.0
 11
-130.147191
 21
260.188321
 31
0.0
  0
LINE
  5
2FE
100
AcDbEntity
  8
0
370
    -3
  6
Continuous
100
AcDbLine
 10
-102.044661
 20
256.88791
 30
0.0
 11
-130.147191
 21
256.88791
 31
0.0
  0
LINE
  5
2FF
100
AcDbEntity
  8
0
370
    -3
  6
Continuous
100
AcDbLine
 10
-102.044661
 20
255.688321
 30
0.0
 11
-130.147191
 21
255.688321
 31
0.0
  0
LINE
  5
300
100
AcDbEntity
  8
0
370
    -3
  6
Continuous
100
AcDbLine
 10
-102.044661
 20
265.88791
 30
0.0
 11
-130.147191
 21
265.88791
 31
0.0
  0
LINE
  5
301
100
AcDbEntity
  8
0
370
    -3
  6
Continuous
100
AcDbLine
 10
-102.044661
 20
264.688321
 30
0.0
 11
-130.147191
 21
264.688321
 31
0.0
  0
LINE
  5
302
100
AcDbEntity
  8
0
370
    -3
  6
Continuous
100
AcDbLine
 10
-130.147191
 20
180.288116
 30
0.0
 11
-31.147191
 21
180.288116
 31
0.0
  0
LINE
  5
303
100
AcDbEntity
  8
0
370
    -3
  6
Continuous
100
AcDbLine
 10
-31.147191
 20
181.788116
 30
0.0
 11
-130.147191
 21
181.788116
 31
0.0
  0
LINE
  5
304
100
AcDbEntity
  8
0
370
    -3
  6
Continuous
100
AcDbLine
 10
-31.147191
 20
182.288116
 30
0.0
 11
-130.147191
 21
182.288116
 31
0.0
  0
LINE
  5
305
100
AcDbEntity
  8
0
370
    -3
  6
Continuous
100
AcDbLine
 10
-31.147191
 20
283.288116
 30
0.0
 11
-130.147191
 21
283.288116
 31
0.0
  0
LINE
  5
306
100
AcDbEntity
  8
0
370
    -3
  6
Continuous
100
AcDbLine
 10
-31.147191
 20
283.788116
 30
0.0
 11
-130.147191
 21
283.788116
 31
0.0
  0
LINE
  5
307
100
AcDbEntity
  8
0
370
    -3
  6
Continuous
100
AcDbLine
 10
-130.147191
 20
285.288116
 30
0.0
 11
-31.147191
 21
285.288116
 31
0.0
  0
LINE
  5
308
100
AcDbEntity
  8
0
370
    -3
  6
Continuous
100
AcDbLine
 10
-31.147191
 20
286.788116
 30
0.0
 11
24.357654
 21
286.788116
 31
0.0
  0
LINE
  5
309
100
AcDbEntity
  8
0
370
    -3
  6
Continuous
100
AcDbLine
 10
-31.147191
 20
286.788116
 30
0.0
 11
-31.147191
 21
279.588116
 31
0.0
  0
ARC
  5
30A
100
AcDbEntity
  8
0
370
    -3
  6
Continuous
100
AcDbCircle
 10
24.357654
 20
266.188116
 30
0.0
 40
20.6
100
AcDbArc
 50
55.0
 51
90.0
  0
ARC
  5
30B
100
AcDbEntity
  8
0
370
    -3
  6
Continuous
100
AcDbCircle
 10
42.252809
 20
275.631736
 30
0.0
 40
2.6
100
AcDbArc
 50
0.0
 51
55.0
  0
LINE
  5
30C
100
AcDbEntity
  8
0
370
    -3
  6
Continuous
100
AcDbLine
 10
44.852809
 20
275.631736
 30
0.0
 11
44.852809
 21
232.788116
 31
0.0
  0
LINE
  5
30D
100
AcDbEntity
  8
0
370
    -3
  6
Continuous
100
AcDbLine
 10
36.173328
 20
283.062648
 30
0.0
 11
43.744107
 21
277.761531
 31
0.0
  0
ARC
  5
30E
100
AcDbEntity
  8
0
370
    -3
  6
Continuous
100
AcDbCircle
 10
24.357654
 20
199.388116
 30
0.0
 40
20.6
100
AcDbArc
 50
270.0
 51
305.0
  0
ARC
  5
30F
100
AcDbEntity
  8
0
370
    -3
  6
Continuous
100
AcDbCircle
 10
42.252809
 20
189.944496
 30
0.0
 40
2.6
100
AcDbArc
 50
305.0
 51
0.0
  0
LINE
  5
310
100
AcDbEntity
  8
0
370
    -3
  6
Continuous
100
AcDbLine
 10
44.852809
 20
189.944496
 30
0.0
 11
44.852809
 21
232.788116
 31
0.0
  0
LINE
  5
311
100
AcDbEntity
  8
0
370
    -3
  6
Continuous
100
AcDbLine
 10
36.173328
 20
182.513584
 30
0.0
 11
43.744107
 21
187.8147
 31
0.0
  0
LINE
  5
312
100
AcDbEntity
  8
0
370
    -3
  6
Continuous
100
AcDbLine
 10
-31.147191
 20
178.788116
 30
0.0
 11
24.357654
 21
178.788116
 31
0.0
  0
LINE
  5
313
100
AcDbEntity
  8
0
370
    -3
  6
Continuous
100
AcDbLine
 10
-31.147191
 20
178.788116
 30
0.0
 11
-31.147191
 21
185.988116
 31
0.0
  0
LINE
  5
314
100
AcDbEntity
  8
0
370
    -3
  6
Continuous
100
AcDbLine
 10
-31.147191
 20
286.788116
 30
0.0
 11
24.357654
 21
286.788116
 31
0.0
  0
LINE
  5
315
100
AcDbEntity
  8
0
370
    -3
  6
Continuous
100
AcDbLine
 10
-31.147191
 20
286.788116
 30
0.0
 11
-31.147191
 21
279.588116
 31
0.0
  0
ARC
  5
316
100
AcDbEntity
  8
0
370
    -3
  6
Continuous
100
AcDbCircle
 10
24.357654
 20
266.188116
 30
0.0
 40
20.6
100
AcDbArc
 50
55.0
 51
90.0
  0
ARC
  5
317
100
AcDbEntity
  8
0
370
    -3
  6
Continuous
100
AcDbCircle
 10
42.252809
 20
275.631736
 30
0.0
 40
2.6
100
AcDbArc
 50
0.0
 51
55.0
  0
LINE
  5
318
100
AcDbEntity
  8
0
370
    -3
  6
Continuous
100
AcDbLine
 10
44.852809
 20
275.631736
 30
0.0
 11
44.852809
 21
232.788116
 31
0.0
  0
LINE
  5
319
100
AcDbEntity
  8
0
370
    -3
  6
Continuous
100
AcDbLine
 10
36.173328
 20
283.062648
 30
0.0
 11
43.744107
 21
277.761531
 31
0.0
  0
ARC
  5
31A
100
AcDbEntity
  8
0
370
    -3
  6
Continuous
100
AcDbCircle
 10
24.357654
 20
199.388116
 30
0.0
 40
20.6
100
AcDbArc
 50
270.0
 51
305.0
  0
ARC
  5
31B
100
AcDbEntity
  8
0
370
    -3
  6
Continuous
100
AcDbCircle
 10
42.252809
 20
189.944496
 30
0.0
 40
2.6
100
AcDbArc
 50
305.0
 51
0.0
  0
LINE
  5
31C
100
AcDbEntity
  8
0
370
    -3
  6
Continuous
100
AcDbLine
 10
44.852809
 20
189.944496
 30
0.0
 11
44.852809
 21
232.788116
 31
0.0
  0
LINE
  5
31D
100
AcDbEntity
  8
0
370
    -3
  6
Continuous
100
AcDbLine
 10
36.173328
 20
182.513584
 30
0.0
 11
43.744107
 21
187.8147
 31
0.0
  0
LINE
  5
31E
100
AcDbEntity
  8
0
370
    -3
  6
Continuous
100
AcDbLine
 10
-31.147191
 20
178.788116
 30
0.0
 11
24.357654
 21
178.788116
 31
0.0
  0
LINE
  5
31F
100
AcDbEntity
  8
0
370
    -3
  6
Continuous
100
AcDbLine
 10
-31.147191
 20
178.788116
 30
0.0
 11
-31.147191
 21
185.988116
 31
0.0
  0
LINE
  5
320
100
AcDbEntity
  8
0
370
    -3
  6
Continuous
100
AcDbLine
 10
-130.147191
 20
180.288116
 30
0.0
 11
-130.147191
 21
232.788116
 31
0.0
  0
LINE
  5
321
100
AcDbEntity
  8
0
370
    -3
  6
Continuous
100
AcDbLine
 10
-130.147191
 20
285.288116
 30
0.0
 11
-130.147191
 21
232.788116
 31
0.0
  0
MTEXT
  5
322
100
AcDbEntity
  8
0
370
    -3
  6
Continuous
100
AcDbMText
 10
-552.155762
 20
268.211182
 30
0.0
 40
15.0
 41
0.0
 71
     7
 72
     1
  1
\W0.63;三菱ギヤードモータ  
  7
ZU_SHPTB00001
 11
1.0
 21
0.0
 31
0.0
 73
     1
 44
1.0
  0
MTEXT
  5
323
100
AcDbEntity
  8
0
370
    -3
  6
Continuous
100
AcDbMText
 10
-552.155762
 20
200.411179
 30
0.0
 40
15.0
 41
0.0
 71
     7
 72
     1
  1
\W0.42;GEAR\W0.70; \W0.42;RATIO\W0.70;  \W0.42;1/5-1/60
  7
ZU_SHPTB00001
 11
1.0
 21
0.0
 31
0.0
 73
     1
 44
1.0
  0
MTEXT
  5
324
100
AcDbEntity
  8
0
370
    -3
  6
Continuous
100
AcDbMText
 10
-552.155762
 20
217.361191
 30
0.0
 40
15.0
 41
0.0
 71
     7
 72
     1
  1
\W0.43;600-50r/min\W0.53;　
  7
ZU_SHPTB00001
 11
1.0
 21
0.0
 31
0.0
 73
     1
 44
1.0
  0
MTEXT
  5
325
100
AcDbEntity
  8
0
370
    -3
  6
Continuous
100
AcDbMText
 10
-552.155762
 20
183.461166
 30
0.0
 40
15.0
 41
0.0
 71
     7
 72
     1
  1
\W0.43;SCALE\W0.72;  \W0.43;1/1
  7
ZU_SHPTB00001
 11
1.0
 21
0.0
 31
0.0
 73
     1
 44
1.0
  0
MTEXT
  5
326
100
AcDbEntity
  8
0
370
    -3
  6
Continuous
100
AcDbMText
 10
-552.155762
 20
234.311172
 30
0.0
 40
15.0
 41
0.0
 71
     7
 72
     1
  1
\W0.43;0.4kW
  7
ZU_SHPTB00001
 11
1.0
 21
0.0
 31
0.0
 73
     1
 44
1.0
  0
MTEXT
  5
327
100
AcDbEntity
  8
0
370
    -3
  6
Continuous
100
AcDbMText
 10
-552.155762
 20
268.211182
 30
0.0
 40
15.0
 41
0.0
 71
     7
 72
     1
  1
\W0.63;三菱ギヤードモータ  
  7
ZU_SHPTB00001
 11
1.0
 21
0.0
 31
0.0
 73
     1
 44
1.0
  0
MTEXT
  5
328
100
AcDbEntity
  8
0
370
    -3
  6
Continuous
100
AcDbMText
 10
-552.155762
 20
251.261185
 30
0.0
 40
15.0
 41
0.0
 71
     7
 72
     1
  1
\W0.48;GV-SHYB-RT
  7
ZU_SHPTB00001
 11
1.0
 21
0.0
 31
0.0
 73
     1
 44
1.0
  0
ELLIPSE
  5
329
100
AcDbEntity
  8
0
370
    -3
  6
Continuous
100
AcDbEllipse
 10
-460.146901
 20
16.875814
 30
0.0
 11
3.5
 21
0.0
 31
0.0
210
0.0
220
0.0
230
1.0
 40
0.656603
 41
4.8505633397427701
 42
2.2331157695259822
  0
ARC
  5
32A
100
AcDbEntity
  8
0
370
    -3
  6
Continuous
100
AcDbCircle
 10
-538.646901
 20
15.303859
 30
0.0
 40
7.8
100
AcDbArc
 50
180.0
 51
258.912511
  0
ARC
  5
32B
100
AcDbEntity
  8
0
370
    -3
  6
Continuous
100
AcDbCircle
 10
-460.646901
 20
15.303859
 30
0.0
 40
7.8
100
AcDbArc
 50
281.087987
 51
0.0
  0
ARC
  5
32C
100
AcDbEntity
  8
0
370
    -3
  6
DASHED
100
AcDbCircle
 10
-499.646901
 20
31.748336
 30
0.0
 40
14.0
100
AcDbArc
 50
311.025652
 51
226.974348
  0
LINE
  5
32D
100
AcDbEntity
  8
0
370
    -3
  6
Continuous
100
AcDbLine
 10
-467.896901
 20
55.365863
 30
0.0
 11
-531.396901
 21
55.365863
 31
0.0
  0
ARC
  5
32E
100
AcDbEntity
  8
0
370
    -3
  6
Continuous
100
AcDbCircle
 10
-467.896901
 20
48.565863
 30
0.0
 40
6.8
100
AcDbArc
 50
0.0
 51
90.0
  0
ARC
  5
32F
100
AcDbEntity
  8
0
370
    -3
  6
Continuous
100
AcDbCircle
 10
-460.646901
 20
20.560445
 30
0.0
 40
7.8
100
AcDbArc
 50
281.087987
 51
0.0
  0
LINE
  5
330
100
AcDbEntity
  8
0
370
    -3
  6
Continuous
100
AcDbLine
 10
-452.846901
 20
49.419484
 30
0.0
 11
-452.846901
 21
15.303859
 31
0.0
  0
LINE
  5
331
100
AcDbEntity
  8
0
370
    -3
  6
Continuous
100
AcDbLine
 10
-463.398235
 20
20.563235
 30
0.0
 11
-463.763731
 21
20.406375
 31
0.0
  0
LINE
  5
332
100
AcDbEntity
  8
0
370
    -3
  6
Continuous
100
AcDbLine
 10
-461.096901
 20
24.055226
 30
0.0
 11
-461.096901
 21
48.565863
 31
0.0
  0
ARC
  5
333
100
AcDbEntity
  8
0
370
    -3
  6
Continuous
100
AcDbCircle
 10
-464.896901
 20
24.055226
 30
0.0
 40
3.8
100
AcDbArc
 50
293.227672
 51
0.0
  0
LINE
  5
334
100
AcDbEntity
  8
0
370
    -3
  6
Continuous
100
AcDbLine
 10
-460.146901
 20
18.413268
 30
0.0
 11
-458.146901
 21
17.36408
 31
0.0
  0
LINE
  5
335
100
AcDbEntity
  8
0
370
    -3
  6
Continuous
100
AcDbLine
 10
-460.146901
 20
18.413268
 30
0.0
 11
-462.063432
 21
17.407867
 31
0.0
  0
LINE
  5
336
100
AcDbEntity
  8
0
370
    -3
  6
Continuous
100
AcDbLine
 10
-461.736918
 20
18.923095
 30
0.0
 11
-460.146901
 21
18.413268
 31
0.0
  0
LINE
  5
337
100
AcDbEntity
  8
0
370
    -3
  6
Continuous
100
AcDbLine
 10
-458.556884
 20
18.923095
 30
0.0
 11
-460.146901
 21
18.413268
 31
0.0
  0
LINE
  5
338
100
AcDbEntity
  8
0
370
    -3
  6
Continuous
100
AcDbLine
 10
-461.736918
 20
57.381356
 30
0.0
 11
-460.146901
 21
56.871529
 31
0.0
  0
LINE
  5
339
100
AcDbEntity
  8
0
370
    -3
  6
Continuous
100
AcDbLine
 10
-460.146901
 20
56.871529
 30
0.0
 11
-462.146901
 21
55.822341
 31
0.0
  0
LINE
  5
33A
100
AcDbEntity
  8
0
370
    -3
  6
Continuous
100
AcDbLine
 10
-460.146901
 20
56.871529
 30
0.0
 11
-458.146901
 21
55.822341
 31
0.0
  0
LINE
  5
33B
100
AcDbEntity
  8
0
370
    -3
  6
Continuous
100
AcDbLine
 10
-458.556884
 20
57.381356
 30
0.0
 11
-460.146901
 21
56.871529
 31
0.0
  0
ELLIPSE
  5
33C
100
AcDbEntity
  8
0
370
    -3
  6
Continuous
100
AcDbEllipse
 10
-460.146901
 20
55.334076
 30
0.0
 11
3.5
 21
0.0
 31
0.0
210
0.0
220
0.0
230
1.0
 40
0.656603
 41
0.0
 42
6.2831853071795862
  0
ARC
  5
33D
100
AcDbEntity
  8
0
370
    -3
  6
Continuous
100
AcDbCircle
 10
-460.646901
 20
49.419484
 30
0.0
 40
7.8
100
AcDbArc
 50
0.0
 51
61.87484
  0
LINE
  5
33E
100
AcDbEntity
  8
0
370
    -3
  6
Continuous
100
AcDbLine
 10
-462.148082
 20
57.219484
 30
0.0
 11
-537.14572
 21
57.219484
 31
0.0
  0
LINE
  5
33F
100
AcDbEntity
  8
0
370
    -3
  6
CENTER
100
AcDbLine
 10
-481.001969
 20
31.748336
 30
0.0
 11
-520.947358
 21
31.748336
 31
0.0
  0
ARC
  5
340
100
AcDbEntity
  8
0
370
    -3
  6
Continuous
100
AcDbCircle
 10
-531.396901
 20
48.565863
 30
0.0
 40
6.8
100
AcDbArc
 50
90.0
 51
180.0
  0
ARC
  5
341
100
AcDbEntity
  8
0
370
    -3
  6
Continuous
100
AcDbCircle
 10
-538.646901
 20
20.560445
 30
0.0
 40
7.8
100
AcDbArc
 50
180.0
 51
258.912511
  0
LINE
  5
342
100
AcDbEntity
  8
0
370
    -3
  6
Continuous
100
AcDbLine
 10
-538.196901
 20
24.055226
 30
0.0
 11
-538.196901
 21
48.565863
 31
0.0
  0
ARC
  5
343
100
AcDbEntity
  8
0
370
    -3
  6
Continuous
100
AcDbCircle
 10
-534.396901
 20
24.055226
 30
0.0
 40
3.8
100
AcDbArc
 50
180.0
 51
216.215819
  0
ELLIPSE
  5
344
100
AcDbEntity
  8
0
370
    -3
  6
Continuous
100
AcDbEllipse
 10
-539.146901
 20
16.875814
 30
0.0
 11
3.5
 21
0.0
 31
0.0
210
0.0
220
0.0
230
1.0
 40
0.656603
 41
1.8573514627487449
 42
4.422637278950134
  0
LINE
  5
345
100
AcDbEntity
  8
0
370
    -3
  6
Continuous
100
AcDbLine
 10
-540.146901
 20
17.888674
 30
0.0
 11
-541.146901
 21
17.36408
 31
0.0
  0
LINE
  5
346
100
AcDbEntity
  8
0
370
    -3
  6
Continuous
100
AcDbLine
 10
-540.736918
 20
18.923095
 30
0.0
 11
-540.146901
 21
18.73391
 31
0.0
  0
LINE
  5
347
100
AcDbEntity
  8
0
370
    -3
  6
Continuous
100
AcDbLine
 10
-537.556884
 20
57.381356
 30
0.0
 11
-539.146901
 21
56.871529
 31
0.0
  0
LINE
  5
348
100
AcDbEntity
  8
0
370
    -3
  6
Continuous
100
AcDbLine
 10
-539.146901
 20
56.871529
 30
0.0
 11
-537.146901
 21
55.822341
 31
0.0
  0
LINE
  5
349
100
AcDbEntity
  8
0
370
    -3
  6
Continuous
100
AcDbLine
 10
-539.146901
 20
56.871529
 30
0.0
 11
-541.146901
 21
55.822341
 31
0.0
  0
LINE
  5
34A
100
AcDbEntity
  8
0
370
    -3
  6
Continuous
100
AcDbLine
 10
-540.736918
 20
57.381356
 30
0.0
 11
-539.146901
 21
56.871529
 31
0.0
  0
ELLIPSE
  5
34B
100
AcDbEntity
  8
0
370
    -3
  6
Continuous
100
AcDbEllipse
 10
-539.146901
 20
55.334076
 30
0.0
 11
3.5
 21
0.0
 31
0.0
210
0.0
220
0.0
230
1.0
 40
0.656603
 41
0.0
 42
6.2831853071795862
  0
ARC
  5
34C
100
AcDbEntity
  8
0
370
    -3
  6
Continuous
100
AcDbCircle
 10
-538.646901
 20
49.419484
 30
0.0
 40
7.8
100
AcDbArc
 50
118.12516
 51
180.0
  0
LINE
  5
34D
100
AcDbEntity
  8
0
370
    -3
  6
Continuous
100
AcDbLine
 10
-546.446901
 20
49.419484
 30
0.0
 11
-546.446901
 21
15.303859
 31
0.0
  0
LINE
  5
34E
100
AcDbEntity
  8
0
370
    -3
  6
Continuous
100
AcDbLine
 10
-83.186779
 20
-5.251664
 30
0.0
 11
-77.075692
 21
-5.251664
 31
0.0
  0
ARC
  5
34F
100
AcDbEntity
  8
0
370
    -3
  6
Continuous
100
AcDbCircle
 10
-77.069562
 20
-4.751664
 30
0.0
 40
0.5
100
AcDbArc
 50
270.0
 51
352.874984
  0
LINE
  5
350
100
AcDbEntity
  8
0
370
    -3
  6
Continuous
100
AcDbLine
 10
-76.573423
 20
-4.813681
 30
0.0
 11
-76.182918
 21
-1.689646
 31
0.0
  0
ARC
  5
351
100
AcDbEntity
  8
0
370
    -3
  6
Continuous
100
AcDbCircle
 10
-83.186779
 20
-4.751664
 30
0.0
 40
0.5
100
AcDbArc
 50
187.125016
 51
270.0
  0
LINE
  5
352
100
AcDbEntity
  8
0
370
    -3
  6
Continuous
100
AcDbLine
 10
-83.682918
 20
-4.813681
 30
0.0
 11
-84.073423
 21
-1.689646
 31
0.0
  0
LINE
  5
353
100
AcDbEntity
  8
0
370
    -3
  6
Continuous
100
AcDbLine
 10
-85.128171
 20
-0.751664
 30
0.0
 11
-85.128171
 21
0.248336
 31
0.0
  0
ARC
  5
354
100
AcDbEntity
  8
0
370
    -3
  6
Continuous
100
AcDbCircle
 10
-85.628171
 20
0.248336
 30
0.0
 40
0.5
100
AcDbArc
 50
0.0
 51
90.0
  0
LINE
  5
355
100
AcDbEntity
  8
0
370
    -3
  6
Continuous
100
AcDbLine
 10
-93.8972
 20
-2.757076
 30
0.0
 11
-93.8972
 21
-1.251664
 31
0.0
  0
ARC
  5
356
100
AcDbEntity
  8
0
370
    -3
  6
Continuous
100
AcDbCircle
 10
-84.569562
 20
-1.751664
 30
0.0
 40
0.5
100
AcDbArc
 50
7.125016
 51
90.0
  0
ARC
  5
357
100
AcDbEntity
  8
0
370
    -3
  6
Continuous
100
AcDbCircle
 10
-84.628171
 20
-0.751664
 30
0.0
 40
0.5
100
AcDbArc
 50
180.0
 51
270.0
  0
LINE
  5
358
100
AcDbEntity
  8
0
370
    -3
  6
Continuous
100
AcDbLine
 10
-89.751944
 20
0.748336
 30
0.0
 11
-89.672701
 21
3.774513
 31
0.0
  0
ARC
  5
359
100
AcDbEntity
  8
0
370
    -3
  6
Continuous
100
AcDbCircle
 10
-74.628171
 20
0.248336
 30
0.0
 40
0.5
100
AcDbArc
 50
90.0
 51
180.0
  0
LINE
  5
35A
100
AcDbEntity
  8
0
370
    -3
  6
Continuous
100
AcDbLine
 10
-75.128171
 20
-0.751664
 30
0.0
 11
-75.128171
 21
0.248336
 31
0.0
  0
LINE
  5
35B
100
AcDbEntity
  8
0
370
    -3
  6
Continuous
100
AcDbLine
 10
-75.664356
 20
-1.251664
 30
0.0
 11
-84.628171
 21
-1.251664
 31
0.0
  0
LINE
  5
35C
100
AcDbEntity
  8
0
370
    -3
  6
Continuous
100
AcDbLine
 10
-76.699886
 20
0.748336
 30
0.0
 11
-89.751944
 21
0.748336
 31
0.0
  0
ARC
  5
35D
100
AcDbEntity
  8
0
370
    -3
  6
Continuous
100
AcDbCircle
 10
-75.686779
 20
-1.751664
 30
0.0
 40
0.5
100
AcDbArc
 50
90.0
 51
172.874984
  0
ARC
  5
35E
100
AcDbEntity
  8
0
370
    -3
  6
Continuous
100
AcDbCircle
 10
-75.628171
 20
-0.751664
 30
0.0
 40
0.5
100
AcDbArc
 50
270.0
 51
0.0
  0
LINE
  5
35F
100
AcDbEntity
  8
0
370
    -3
  6
Continuous
100
AcDbLine
 10
-76.699886
 20
0.748336
 30
0.0
 11
-37.594514
 21
0.748336
 31
0.0
  0
LINE
  5
360
100
AcDbEntity
  8
0
370
    -3
  6
Continuous
100
AcDbLine
 10
-25.397191
 20
-1.251664
 30
0.0
 11
-93.8972
 21
-1.251664
 31
0.0
  0
LINE
  5
361
100
AcDbEntity
  8
0
370
    -3
  6
Continuous
100
AcDbLine
 10
-31.1279
 20
-5.251664
 30
0.0
 11
-37.218708
 21
-5.251664
 31
0.0
  0
ARC
  5
362
100
AcDbEntity
  8
0
370
    -3
  6
Continuous
100
AcDbCircle
 10
-37.224839
 20
-4.751664
 30
0.0
 40
0.5
100
AcDbArc
 50
187.125016
 51
270.0
  0
LINE
  5
363
100
AcDbEntity
  8
0
370
    -3
  6
Continuous
100
AcDbLine
 10
-30.372227
 20
-2.899639
 30
0.0
 11
-30.220978
 21
-1.689646
 31
0.0
  0
LINE
  5
364
100
AcDbEntity
  8
0
370
    -3
  6
Continuous
100
AcDbLine
 10
-37.720978
 20
-4.813681
 30
0.0
 11
-38.111482
 21
-1.689646
 31
0.0
  0
LINE
  5
365
100
AcDbEntity
  8
0
370
    -3
  6
Continuous
100
AcDbLine
 10
-37.594514
 20
0.748336
 30
0.0
 11
-24.542456
 21
0.748336
 31
0.0
  0
ARC
  5
366
100
AcDbEntity
  8
0
370
    -3
  6
Continuous
100
AcDbCircle
 10
-38.607621
 20
-1.751664
 30
0.0
 40
0.5
100
AcDbArc
 50
7.125016
 51
90.0
  0
ARC
  5
367
100
AcDbEntity
  8
0
370
    -3
  6
Continuous
100
AcDbCircle
 10
-38.66623
 20
-0.751664
 30
0.0
 40
0.5
100
AcDbArc
 50
180.0
 51
270.0
  0
LINE
  5
368
100
AcDbEntity
  8
0
370
    -3
  6
Continuous
100
AcDbLine
 10
-38.66623
 20
-1.251664
 30
0.0
 11
-29.972547
 21
-1.251664
 31
0.0
  0
LINE
  5
369
100
AcDbEntity
  8
0
370
    -3
  6
Continuous
100
AcDbLine
 10
-39.16623
 20
-0.751664
 30
0.0
 11
-39.16623
 21
0.248336
 31
0.0
  0
ARC
  5
36A
100
AcDbEntity
  8
0
370
    -3
  6
Continuous
100
AcDbCircle
 10
-39.66623
 20
0.248336
 30
0.0
 40
0.5
100
AcDbArc
 50
0.0
 51
90.0
  0
LINE
  5
36B
100
AcDbEntity
  8
0
370
    -3
  6
Continuous
100
AcDbLine
 10
-38.630045
 20
-1.251664
 30
0.0
 11
-29.972547
 21
-1.251664
 31
0.0
  0
LINE
  5
36C
100
AcDbEntity
  8
0
370
    -3
  6
Continuous
100
AcDbLine
 10
-24.542456
 20
0.748336
 30
0.0
 11
-24.6217
 21
3.774513
 31
0.0
  0
ARC
  5
36D
100
AcDbEntity
  8
0
370
    -3
  6
Continuous
100
AcDbCircle
 10
-29.724839
 20
-1.751664
 30
0.0
 40
0.5
100
AcDbArc
 50
90.0
 51
172.874984
  0
ARC
  5
36E
100
AcDbEntity
  8
0
370
    -3
  6
Continuous
100
AcDbCircle
 10
-29.66623
 20
-0.751664
 30
0.0
 40
0.5
100
AcDbArc
 50
270.0
 51
0.0
  0
ARC
  5
36F
100
AcDbEntity
  8
0
370
    -3
  6
Continuous
100
AcDbCircle
 10
-28.66623
 20
0.248336
 30
0.0
 40
0.5
100
AcDbArc
 50
90.0
 51
180.0
  0
LINE
  5
370
100
AcDbEntity
  8
0
370
    -3
  6
Continuous
100
AcDbLine
 10
-29.16623
 20
-0.751664
 30
0.0
 11
-29.16623
 21
0.248336
 31
0.0
  0
LINE
  5
371
100
AcDbEntity
  8
0
370
    -3
  6
Continuous
100
AcDbLine
 10
-25.397191
 20
-1.251664
 30
0.0
 11
-25.397191
 21
-1.911915
 31
0.0
  0
LINE
  5
372
100
AcDbEntity
  8
0
370
    -3
  6
CENTER
100
AcDbLine
 10
-57.1472
 20
-6.029081
 30
0.0
 11
-57.1472
 21
16.880896
 31
0.0
  0
ARC
  5
373
100
AcDbEntity
  8
0
370
    -3
  6
Continuous
100
AcDbCircle
 10
-25.621357
 20
3.748336
 30
0.0
 40
1.0
100
AcDbArc
 50
1.5
 51
90.0
  0
LINE
  5
374
100
AcDbEntity
  8
0
370
    -3
  6
Continuous
100
AcDbLine
 10
-25.621357
 20
4.748336
 30
0.0
 11
-88.673043
 21
4.748336
 31
0.0
  0
ARC
  5
375
100
AcDbEntity
  8
0
370
    -3
  6
Continuous
100
AcDbCircle
 10
-26.822894
 20
9.748336
 30
0.0
 40
3.0
100
AcDbArc
 50
270.0
 51
0.0
  0
LINE
  5
376
100
AcDbEntity
  8
0
370
    -3
  6
CENTER
100
AcDbLine
 10
-57.1472
 20
-6.029081
 30
0.0
 11
-57.1472
 21
16.880896
 31
0.0
  0
ARC
  5
377
100
AcDbEntity
  8
0
370
    -3
  6
Continuous
100
AcDbCircle
 10
-29.1472
 20
6.748336
 30
0.0
 40
1.0
100
AcDbArc
 50
270.0
 51
346.657636
  0
LINE
  5
378
100
AcDbEntity
  8
0
370
    -3
  6
Continuous
100
AcDbLine
 10
-18.9472
 20
6.748336
 30
0.0
 11
-88.585354
 21
6.748336
 31
0.0
  0
LINE
  5
379
100
AcDbEntity
  8
0
370
    -3
  6
Continuous
100
AcDbLine
 10
-26.1472
 20
4.748336
 30
0.0
 11
-88.1472
 21
4.748336
 31
0.0
  0
LINE
  5
37A
100
AcDbEntity
  8
0
370
    -3
  6
Continuous
100
AcDbLine
 10
-26.1472
 20
5.748336
 30
0.0
 11
-88.1472
 21
5.748336
 31
0.0
  0
LINE
  5
37B
100
AcDbEntity
  8
0
370
    -3
  6
Continuous
100
AcDbLine
 10
-26.1472
 20
4.748336
 30
0.0
 11
-26.1472
 21
5.748336
 31
0.0
  0
ARC
  5
37C
100
AcDbEntity
  8
0
370
    -3
  6
Continuous
100
AcDbCircle
 10
-27.882289
 20
6.448336
 30
0.0
 40
0.3
100
AcDbArc
 50
90.0
 51
166.657636
  0
ARC
  5
37D
100
AcDbEntity
  8
0
370
    -3
  6
Continuous
100
AcDbCircle
 10
-88.673043
 20
3.748336
 30
0.0
 40
1.0
100
AcDbArc
 50
90.0
 51
178.5
  0
ARC
  5
37E
100
AcDbEntity
  8
0
370
    -3
  6
Continuous
100
AcDbCircle
 10
199.67844
 20
-43.937061
 30
0.0
 40
300.8
100
AcDbArc
 50
162.341575
 51
167.89975
  0
ARC
  5
37F
100
AcDbEntity
  8
0
370
    -3
  6
Continuous
100
AcDbCircle
 10
-76.657295
 20
44.032034
 30
0.0
 40
10.8
100
AcDbArc
 50
92.437505
 51
162.341575
  0
LINE
  5
380
100
AcDbEntity
  8
0
370
    -3
  6
Continuous
100
AcDbLine
 10
-100.18555
 20
7.503859
 30
0.0
 11
-11.736485
 21
48.748336
 31
0.0
  0
LINE
  5
381
100
AcDbEntity
  8
0
370
    -3
  6
Continuous
100
AcDbLine
 10
-101.005382
 20
13.521157
 30
0.0
 11
-7.65568
 21
57.050838
 31
0.0
  0
LINE
  5
382
100
AcDbEntity
  8
0
370
    -3
  6
Continuous
100
AcDbLine
 10
-92.935088
 20
10.884806
 30
0.0
 11
-92.029323
 21
8.942387
 31
0.0
  0
LINE
  5
383
100
AcDbEntity
  8
0
370
    -3
  6
Continuous
100
AcDbLine
 10
-81.334348
 20
16.294319
 30
0.0
 11
-77.906086
 21
8.942387
 31
0.0
  0
ARC
  5
384
100
AcDbEntity
  8
0
370
    -3
  6
Continuous
100
AcDbCircle
 10
-74.462116
 20
10.548336
 30
0.0
 40
3.8
100
AcDbArc
 50
205.0
 51
270.0
  0
ARC
  5
385
100
AcDbEntity
  8
0
370
    -3
  6
Continuous
100
AcDbCircle
 10
-87.547017
 20
35.470351
 30
0.0
 40
2.8
100
AcDbArc
 50
164.545811
 51
205.0
  0
LINE
  5
386
100
AcDbEntity
  8
0
370
    -3
  6
Continuous
100
AcDbLine
 10
-90.084679
 20
34.28702
 30
0.0
 11
-85.349252
 21
24.131865
 31
0.0
  0
ARC
  5
387
100
AcDbEntity
  8
0
370
    -3
  6
Continuous
100
AcDbCircle
 10
-88.068176
 20
22.86401
 30
0.0
 40
3.0
100
AcDbArc
 50
295.0
 51
25.0
  0
ARC
  5
388
100
AcDbEntity
  8
0
370
    -3
  6
Continuous
100
AcDbCircle
 10
-93.987412
 20
17.873926
 30
0.0
 40
1.299999
100
AcDbArc
 50
24.999999
 51
98.398469
  0
LINE
  5
389
100
AcDbEntity
  8
0
370
    -3
  6
Continuous
100
AcDbLine
 10
-92.395458
 20
17.536031
 30
0.0
 11
-92.809212
 21
18.423329
 31
0.0
  0
ARC
  5
38A
100
AcDbEntity
  8
0
370
    -3
  6
Continuous
100
AcDbCircle
 10
-92.862779
 20
10.256498
 30
0.0
 40
9.0
100
AcDbArc
 50
98.398469
 51
131.601548
  0
ARC
  5
38B
100
AcDbEntity
  8
0
370
    -3
  6
Continuous
100
AcDbCircle
 10
-97.975167
 20
16.014405
 30
0.0
 40
1.299999
100
AcDbArc
 50
131.601548
 51
205.000018
  0
LINE
  5
38C
100
AcDbEntity
  8
0
370
    -3
  6
CENTER
100
AcDbLine
 10
-94.309862
 20
13.359776
 30
0.0
 11
-97.179782
 21
19.514341
 31
0.0
  0
LINE
  5
38D
100
AcDbEntity
  8
0
370
    -3
  6
Continuous
100
AcDbLine
 10
-98.739613
 20
14.577703
 30
0.0
 11
-99.153367
 21
15.465001
 31
0.0
  0
POINT
  5
38E
100
AcDbEntity
  8
0
370
    -3
  6
Continuous
100
AcDbPoint
 10
-95.543825
 20
16.067923
 30
0.0
  0
LINE
  5
38F
100
AcDbEntity
  8
0
370
    -3
  6
CENTER
100
AcDbLine
 10
-94.309862
 20
13.359776
 30
0.0
 11
-97.179782
 21
19.514341
 31
0.0
  0
ARC
  5
390
100
AcDbEntity
  8
0
370
    -3
  6
Continuous
100
AcDbCircle
 10
-100.244669
 20
11.889803
 30
0.0
 40
1.8
100
AcDbArc
 50
115.0
 51
205.0
  0
LINE
  5
391
100
AcDbEntity
  8
0
370
    -3
  6
Continuous
100
AcDbLine
 10
-101.876023
 20
11.129091
 30
0.0
 11
-100.18555
 21
7.503859
 31
0.0
  0
ARC
  5
392
100
AcDbEntity
  8
0
370
    -3
  6
Continuous
100
AcDbCircle
 10
-88.585354
 20
10.548336
 30
0.0
 40
3.8
100
AcDbArc
 50
205.0
 51
270.0
  0
LINE
  5
393
100
AcDbEntity
  8
0
370
    -3
  6
Continuous
100
AcDbLine
 10
-23.822894
 20
43.112351
 30
0.0
 11
-23.822894
 21
9.748336
 31
0.0
  0
LINE
  5
394
100
AcDbEntity
  8
0
370
    -3
  6
Continuous
100
AcDbLine
 10
-12.1472
 20
48.556816
 30
0.0
 11
-12.1472
 21
13.548336
 31
0.0
  0
LINE
  5
395
100
AcDbEntity
  8
0
370
    -3
  6
Continuous
100
AcDbLine
 10
-10.1472
 20
31.748336
 30
0.0
 11
-10.1472
 21
45.748336
 31
0.0
  0
LINE
  5
396
100
AcDbEntity
  8
0
370
    -3
  6
Continuous
100
AcDbLine
 10
-11.736485
 20
48.748336
 30
0.0
 11
-3.57314
 21
52.554966
 31
0.0
  0
ARC
  5
397
100
AcDbEntity
  8
0
370
    -3
  6
Continuous
100
AcDbCircle
 10
-23.128597
 20
53.145833
 30
0.0
 40
3.0
100
AcDbArc
 50
205.0
 51
295.0
  0
LINE
  5
398
100
AcDbEntity
  8
0
370
    -3
  6
Continuous
100
AcDbLine
 10
11.8528
 20
45.748336
 30
0.0
 11
-12.1472
 21
45.748336
 31
0.0
  0
POINT
  5
399
100
AcDbEntity
  8
0
370
    -3
  6
CENTER
100
AcDbPoint
 10
13.8528
 20
42.225836
 30
0.0
  0
POINT
  5
39A
100
AcDbEntity
  8
0
370
    -3
  6
CENTER
100
AcDbPoint
 10
13.8528
 20
21.270836
 30
0.0
  0
ARC
  5
39B
100
AcDbEntity
  8
0
370
    -3
  6
Continuous
100
AcDbCircle
 10
-85.1472
 20
6.748336
 30
0.0
 40
1.0
100
AcDbArc
 50
193.342364
 51
270.0
  0
LINE
  5
39C
100
AcDbEntity
  8
0
370
    -3
  6
Continuous
100
AcDbLine
 10
-10.1472
 20
17.748336
 30
0.0
 11
-10.1472
 21
31.748336
 31
0.0
  0
LINE
  5
39D
100
AcDbEntity
  8
0
370
    -3
  6
CENTER
100
AcDbLine
 10
19.331423
 20
31.748336
 30
0.0
 11
-20.975063
 21
31.748336
 31
0.0
  0
LINE
  5
39E
100
AcDbEntity
  8
0
370
    -3
  6
Continuous
100
AcDbLine
 10
13.8528
 20
43.748336
 30
0.0
 11
13.8528
 21
31.748336
 31
0.0
  0
LINE
  5
39F
100
AcDbEntity
  8
0
370
    -3
  6
Continuous
100
AcDbLine
 10
13.8528
 20
19.748336
 30
0.0
 11
13.8528
 21
31.748336
 31
0.0
  0
ARC
  5
3A0
100
AcDbEntity
  8
0
370
    -3
  6
Continuous
100
AcDbCircle
 10
11.8528
 20
43.748336
 30
0.0
 40
2.0
100
AcDbArc
 50
0.0
 51
90.0
  0
ARC
  5
3A1
100
AcDbEntity
  8
0
370
    -3
  6
Continuous
100
AcDbCircle
 10
11.8528
 20
19.748336
 30
0.0
 40
2.0
100
AcDbArc
 50
270.0
 51
0.0
  0
LINE
  5
3A2
100
AcDbEntity
  8
0
370
    -3
  6
Continuous
100
AcDbLine
 10
11.8528
 20
17.748336
 30
0.0
 11
-10.1472
 21
17.748336
 31
0.0
  0
LINE
  5
3A3
100
AcDbEntity
  8
0
370
    -3
  6
Continuous
100
AcDbLine
 10
-10.1472
 20
17.748336
 30
0.0
 11
-12.1472
 21
17.748336
 31
0.0
  0
LINE
  5
3A4
100
AcDbEntity
  8
0
370
    -3
  6
Continuous
100
AcDbLine
 10
-88.1472
 20
4.748336
 30
0.0
 11
-88.1472
 21
5.748336
 31
0.0
  0
ARC
  5
3A5
100
AcDbEntity
  8
0
370
    -3
  6
Continuous
100
AcDbCircle
 10
-18.9472
 20
13.548336
 30
0.0
 40
6.8
100
AcDbArc
 50
270.0
 51
0.0
  0
ARC
  5
3A6
100
AcDbEntity
  8
0
370
    -3
  6
Continuous
100
AcDbCircle
 10
-86.412111
 20
6.448336
 30
0.0
 40
0.3
100
AcDbArc
 50
13.342364
 51
90.0
  0
ARC
  5
3A7
100
AcDbEntity
  8
0
370
    -3
  6
Continuous
100
AcDbCircle
 10
-51.564802
 20
-545.434137
 30
0.0
 40
600.8
100
AcDbArc
 50
86.682408
 51
92.437505
  0
LINE
  5
3A8
100
AcDbEntity
  8
0
370
    -3
  6
Continuous
100
AcDbLine
 10
-25.84752
 20
51.877978
 30
0.0
 11
-26.52255
 21
53.325585
 31
0.0
  0
ARC
  5
3A9
100
AcDbEntity
  8
0
370
    -3
  6
Continuous
100
AcDbCircle
 10
-29.060212
 20
52.142254
 30
0.0
 40
2.8
100
AcDbArc
 50
25.0
 51
87.843273
  0
ARC
  5
3AA
100
AcDbEntity
  8
0
370
    -3
  6
Continuous
100
AcDbCircle
 10
-11.513403
 20
56.332188
 30
0.0
 40
1.299999
100
AcDbArc
 50
24.999999
 51
98.398469
  0
ARC
  5
3AB
100
AcDbEntity
  8
0
370
    -3
  6
Continuous
100
AcDbCircle
 10
-15.501159
 20
54.472667
 30
0.0
 40
1.299999
100
AcDbArc
 50
131.601548
 51
205.000018
  0
LINE
  5
3AC
100
AcDbEntity
  8
0
370
    -3
  6
Continuous
100
AcDbLine
 10
-9.92145
 20
55.994293
 30
0.0
 11
-10.335204
 21
56.881591
 31
0.0
  0
LINE
  5
3AD
100
AcDbEntity
  8
0
370
    -3
  6
Continuous
100
AcDbLine
 10
-16.265604
 20
53.035965
 30
0.0
 11
-16.679358
 21
53.923263
 31
0.0
  0
POINT
  5
3AE
100
AcDbEntity
  8
0
370
    -3
  6
Continuous
100
AcDbPoint
 10
-13.093527
 20
54.515129
 30
0.0
  0
ARC
  5
3AF
100
AcDbEntity
  8
0
370
    -3
  6
Continuous
100
AcDbCircle
 10
-10.38877
 20
48.714759
 30
0.0
 40
9.0
100
AcDbArc
 50
98.398469
 51
131.601548
  0
LINE
  5
3B0
100
AcDbEntity
  8
0
370
    -3
  6
CENTER
100
AcDbLine
 10
-11.835853
 20
51.818038
 30
0.0
 11
-14.705774
 21
57.972603
 31
0.0
  0
ARC
  5
3B1
100
AcDbEntity
  8
0
370
    -3
  6
Continuous
100
AcDbCircle
 10
-6.894967
 20
55.419484
 30
0.0
 40
1.8
100
AcDbArc
 50
25.0
 51
115.0
  0
LINE
  5
3B2
100
AcDbEntity
  8
0
370
    -3
  6
Continuous
100
AcDbLine
 10
-5.263613
 20
56.180197
 30
0.0
 11
-3.57314
 21
52.554966
 31
0.0
  0
POINT
  5
3B3
100
AcDbEntity
  8
0
370
    -3
  6
Continuous
100
AcDbPoint
 10
13.8528
 20
21.270836
 30
0.0
  0
ARC
  5
3B4
100
AcDbEntity
  8
0
370
    -3
  6
Continuous
100
AcDbCircle
 10
196.852818
 20
31.864485
 30
0.0
 40
10.4775
100
AcDbArc
 50
90.0
 51
270.0
  0
ARC
  5
3B5
100
AcDbEntity
  8
0
370
    -3
  6
Continuous
100
AcDbCircle
 10
196.852818
 20
31.864485
 30
0.0
 40
9.3155
100
AcDbArc
 50
90.0
 51
270.0
  0
ARC
  5
3B6
100
AcDbEntity
  8
0
370
    -3
  6
Continuous
100
AcDbCircle
 10
196.852818
 20
31.864485
 30
0.0
 40
14.0
100
AcDbArc
 50
90.0
 51
270.0
  0
LINE
  5
3B7
100
AcDbEntity
  8
0
370
    -3
  6
Continuous
100
AcDbLine
 10
229.457562
 20
0.864485
 30
0.0
 11
229.378319
 21
3.890662
 31
0.0
  0
ARC
  5
3B8
100
AcDbEntity
  8
0
370
    -3
  6
Continuous
100
AcDbCircle
 10
228.378661
 20
3.864485
 30
0.0
 40
1.0
100
AcDbArc
 50
1.5
 51
90.0
  0
LINE
  5
3B9
100
AcDbEntity
  8
0
370
    -3
  6
Continuous
100
AcDbLine
 10
165.326975
 20
4.864485
 30
0.0
 11
228.378661
 21
4.864485
 31
0.0
  0
LINE
  5
3BA
100
AcDbEntity
  8
0
370
    -3
  6
Continuous
100
AcDbLine
 10
164.248074
 20
0.864485
 30
0.0
 11
164.327318
 21
3.890662
 31
0.0
  0
ARC
  5
3BB
100
AcDbEntity
  8
0
370
    -3
  6
Continuous
100
AcDbCircle
 10
165.326975
 20
3.864485
 30
0.0
 40
1.0
100
AcDbArc
 50
90.0
 51
178.5
  0
LINE
  5
3BC
100
AcDbEntity
  8
0
370
    -3
  6
Continuous
100
AcDbLine
 10
227.852818
 20
4.864485
 30
0.0
 11
165.852818
 21
4.864485
 31
0.0
  0
LINE
  5
3BD
100
AcDbEntity
  8
0
370
    -3
  6
Continuous
100
AcDbLine
 10
223.684189
 20
13.664485
 30
0.0
 11
223.684189
 21
51.021082
 31
0.0
  0
ARC
  5
3BE
100
AcDbEntity
  8
0
370
    -3
  6
Continuous
100
AcDbCircle
 10
216.884189
 20
13.664485
 30
0.0
 40
6.8
100
AcDbArc
 50
270.0
 51
0.0
  0
ARC
  5
3BF
100
AcDbEntity
  8
0
370
    -3
  6
Continuous
100
AcDbCircle
 10
176.821447
 20
13.664485
 30
0.0
 40
6.8
100
AcDbArc
 50
180.0
 51
270.0
  0
LINE
  5
3C0
100
AcDbEntity
  8
0
370
    -3
  6
Continuous
100
AcDbLine
 10
170.021447
 20
13.664485
 30
0.0
 11
170.021447
 21
51.021082
 31
0.0
  0
ARC
  5
3C1
100
AcDbEntity
  8
0
370
    -3
  6
Continuous
100
AcDbCircle
 10
196.852818
 20
31.864485
 30
0.0
 40
10.4775
100
AcDbArc
 50
270.0
 51
90.0
  0
ARC
  5
3C2
100
AcDbEntity
  8
0
370
    -3
  6
Continuous
100
AcDbCircle
 10
196.852818
 20
31.864485
 30
0.0
 40
9.3155
100
AcDbArc
 50
270.0
 51
90.0
  0
ARC
  5
3C3
100
AcDbEntity
  8
0
370
    -3
  6
Continuous
100
AcDbCircle
 10
196.852818
 20
31.864485
 30
0.0
 40
14.0
100
AcDbArc
 50
270.0
 51
90.0
  0
LINE
  5
3C4
100
AcDbEntity
  8
0
370
    -3
  6
Continuous
100
AcDbLine
 10
196.852818
 20
52.671115
 30
0.0
 11
235.852818
 21
52.671115
 31
0.0
  0
LINE
  5
3C5
100
AcDbEntity
  8
0
370
    -3
  6
Continuous
100
AcDbLine
 10
242.352818
 20
16.374599
 30
0.0
 11
242.352818
 21
47.931097
 31
0.0
  0
LINE
  5
3C6
100
AcDbEntity
  8
0
370
    -3
  6
Continuous
100
AcDbLine
 10
235.852818
 20
7.620009
 30
0.0
 11
232.467991
 21
7.620009
 31
0.0
  0
LINE
  5
3C7
100
AcDbEntity
  8
0
370
    -3
  6
Continuous
100
AcDbLine
 10
233.051088
 20
7.958103
 30
0.0
 11
235.852818
 21
7.958103
 31
0.0
  0
ARC
  5
3C8
100
AcDbEntity
  8
0
370
    -3
  6
Continuous
100
AcDbCircle
 10
224.852818
 20
6.864485
 30
0.0
 40
1.0
100
AcDbArc
 50
270.0
 51
346.657636
  0
ARC
  5
3C9
100
AcDbEntity
  8
0
370
    -3
  6
Continuous
100
AcDbCircle
 10
226.117729
 20
6.564485
 30
0.0
 40
0.3
100
AcDbArc
 50
90.0
 51
166.657636
  0
ARC
  5
3CA
100
AcDbEntity
  8
0
370
    -3
  6
Continuous
100
AcDbCircle
 10
236.352818
 20
16.374599
 30
0.0
 40
6.0
100
AcDbArc
 50
270.0
 51
0.0
  0
LINE
  5
3CB
100
AcDbEntity
  8
0
370
    -3
  6
Continuous
100
AcDbLine
 10
235.304007
 20
10.374599
 30
0.0
 11
236.352818
 21
10.374599
 31
0.0
  0
ARC
  5
3CC
100
AcDbEntity
  8
0
370
    -3
  6
Continuous
100
AcDbCircle
 10
229.352818
 20
13.664485
 30
0.0
 40
6.8
100
AcDbArc
 50
270.0
 51
0.0
  0
LINE
  5
3CD
100
AcDbEntity
  8
0
370
    -3
  6
Continuous
100
AcDbLine
 10
196.852818
 20
6.864485
 30
0.0
 11
229.352818
 21
6.864485
 31
0.0
  0
ARC
  5
3CE
100
AcDbEntity
  8
0
370
    -3
  6
Continuous
100
AcDbCircle
 10
232.352818
 20
43.297344
 30
0.0
 40
3.8
100
AcDbArc
 50
0.0
 51
67.022625
  0
ARC
  5
3CF
100
AcDbEntity
  8
0
370
    -3
  6
Continuous
100
AcDbCircle
 10
222.911852
 20
47.300397
 30
0.0
 40
3.8
100
AcDbArc
 50
67.022625
 51
90.0
  0
LINE
  5
3D0
100
AcDbEntity
  8
0
370
    -3
  6
Continuous
100
AcDbLine
 10
224.395248
 20
50.798902
 30
0.0
 11
233.836215
 21
46.795848
 31
0.0
  0
LINE
  5
3D1
100
AcDbEntity
  8
0
370
    -3
  6
Continuous
100
AcDbLine
 10
236.152818
 20
13.664485
 30
0.0
 11
236.152818
 21
43.297344
 31
0.0
  0
LINE
  5
3D2
100
AcDbEntity
  8
0
370
    -3
  6
Continuous
100
AcDbLine
 10
196.852818
 20
51.100397
 30
0.0
 11
222.911852
 21
51.100397
 31
0.0
  0
LINE
  5
3D3
100
AcDbEntity
  8
0
370
    -3
  6
Continuous
100
AcDbLine
 10
196.852818
 20
5.864485
 30
0.0
 11
224.852818
 21
5.864485
 31
0.0
  0
ARC
  5
3D4
100
AcDbEntity
  8
0
370
    -3
  6
Continuous
100
AcDbCircle
 10
235.852818
 20
14.958103
 30
0.0
 40
7.0
100
AcDbArc
 50
270.0
 51
0.0
  0
LINE
  5
3D5
100
AcDbEntity
  8
0
370
    -3
  6
Continuous
100
AcDbLine
 10
227.852818
 20
4.864485
 30
0.0
 11
227.852818
 21
5.864485
 31
0.0
  0
LINE
  5
3D6
100
AcDbEntity
  8
0
370
    -3
  6
Continuous
100
AcDbLine
 10
227.852818
 20
5.864485
 30
0.0
 11
196.852818
 21
5.864485
 31
0.0
  0
LINE
  5
3D7
100
AcDbEntity
  8
0
370
    -3
  6
Continuous
100
AcDbLine
 10
196.852818
 20
4.864485
 30
0.0
 11
227.852818
 21
4.864485
 31
0.0
  0
LINE
  5
3D8
100
AcDbEntity
  8
0
370
    -3
  6
Continuous
100
AcDbLine
 10
235.852818
 20
57.335634
 30
0.0
 11
196.852818
 21
57.335634
 31
0.0
  0
LINE
  5
3D9
100
AcDbEntity
  8
0
370
    -3
  6
Continuous
100
AcDbLine
 10
196.852818
 20
52.333021
 30
0.0
 11
235.852818
 21
52.333021
 31
0.0
  0
LINE
  5
3DA
100
AcDbEntity
  8
0
370
    -3
  6
Continuous
100
AcDbLine
 10
243.652818
 20
49.535634
 30
0.0
 11
243.652818
 21
15.420009
 31
0.0
  0
ELLIPSE
  5
3DB
100
AcDbEntity
  8
0
370
    -3
  6
Continuous
100
AcDbEllipse
 10
236.352818
 20
55.450225
 30
0.0
 11
3.5
 21
0.0
 31
0.0
210
0.0
220
0.0
230
1.0
 40
0.656603
 41
0.4330509754536023
 42
2.1794532890793059
  0
ARC
  5
3DC
100
AcDbEntity
  8
0
370
    -3
  6
Continuous
100
AcDbCircle
 10
235.852818
 20
49.535634
 30
0.0
 40
7.8
100
AcDbArc
 50
0.0
 51
90.0
  0
ARC
  5
3DD
100
AcDbEntity
  8
0
370
    -3
  6
Continuous
100
AcDbCircle
 10
235.852818
 20
44.871115
 30
0.0
 40
7.8
100
AcDbArc
 50
0.0
 51
90.0
  0
ARC
  5
3DE
100
AcDbEntity
  8
0
370
    -3
  6
Continuous
100
AcDbCircle
 10
235.852818
 20
45.333021
 30
0.0
 40
7.0
100
AcDbArc
 50
0.0
 51
90.0
  0
LINE
  5
3DF
100
AcDbEntity
  8
0
370
    -3
  6
Continuous
100
AcDbLine
 10
242.852818
 20
45.333021
 30
0.0
 11
242.852818
 21
14.958103
 31
0.0
  0
ARC
  5
3E0
100
AcDbEntity
  8
0
370
    -3
  6
Continuous
100
AcDbCircle
 10
235.852818
 20
15.420009
 30
0.0
 40
7.8
100
AcDbArc
 50
270.0
 51
0.0
  0
LINE
  5
3E1
100
AcDbEntity
  8
0
370
    -3
  6
CENTER
100
AcDbLine
 10
215.497751
 20
31.864485
 30
0.0
 11
175.552361
 21
31.864485
 31
0.0
  0
LINE
  5
3E2
100
AcDbEntity
  8
0
370
    -3
  6
Continuous
100
AcDbLine
 10
196.852818
 20
52.671115
 30
0.0
 11
157.852818
 21
52.671115
 31
0.0
  0
LINE
  5
3E3
100
AcDbEntity
  8
0
370
    -3
  6
Continuous
100
AcDbLine
 10
151.352818
 20
16.374599
 30
0.0
 11
151.352818
 21
47.931097
 31
0.0
  0
LINE
  5
3E4
100
AcDbEntity
  8
0
370
    -3
  6
Continuous
100
AcDbLine
 10
157.852818
 20
7.620009
 30
0.0
 11
161.237645
 21
7.620009
 31
0.0
  0
LINE
  5
3E5
100
AcDbEntity
  8
0
370
    -3
  6
Continuous
100
AcDbLine
 10
160.654548
 20
7.958103
 30
0.0
 11
157.852818
 21
7.958103
 31
0.0
  0
ARC
  5
3E6
100
AcDbEntity
  8
0
370
    -3
  6
Continuous
100
AcDbCircle
 10
168.852818
 20
6.864485
 30
0.0
 40
1.0
100
AcDbArc
 50
193.342364
 51
270.0
  0
ARC
  5
3E7
100
AcDbEntity
  8
0
370
    -3
  6
Continuous
100
AcDbCircle
 10
167.587907
 20
6.564485
 30
0.0
 40
0.3
100
AcDbArc
 50
13.342364
 51
90.0
  0
ARC
  5
3E8
100
AcDbEntity
  8
0
370
    -3
  6
Continuous
100
AcDbCircle
 10
157.352818
 20
16.374599
 30
0.0
 40
6.0
100
AcDbArc
 50
180.0
 51
270.0
  0
LINE
  5
3E9
100
AcDbEntity
  8
0
370
    -3
  6
Continuous
100
AcDbLine
 10
158.40163
 20
10.374599
 30
0.0
 11
157.352818
 21
10.374599
 31
0.0
  0
ARC
  5
3EA
100
AcDbEntity
  8
0
370
    -3
  6
Continuous
100
AcDbCircle
 10
164.352818
 20
13.664485
 30
0.0
 40
6.8
100
AcDbArc
 50
180.0
 51
270.0
  0
LINE
  5
3EB
100
AcDbEntity
  8
0
370
    -3
  6
Continuous
100
AcDbLine
 10
196.852818
 20
6.864485
 30
0.0
 11
164.352818
 21
6.864485
 31
0.0
  0
ARC
  5
3EC
100
AcDbEntity
  8
0
370
    -3
  6
Continuous
100
AcDbCircle
 10
161.352818
 20
43.297344
 30
0.0
 40
3.8
100
AcDbArc
 50
112.977375
 51
180.0
  0
ARC
  5
3ED
100
AcDbEntity
  8
0
370
    -3
  6
Continuous
100
AcDbCircle
 10
170.793785
 20
47.300397
 30
0.0
 40
3.8
100
AcDbArc
 50
90.0
 51
112.977375
  0
LINE
  5
3EE
100
AcDbEntity
  8
0
370
    -3
  6
Continuous
100
AcDbLine
 10
169.310388
 20
50.798902
 30
0.0
 11
159.869421
 21
46.795848
 31
0.0
  0
LINE
  5
3EF
100
AcDbEntity
  8
0
370
    -3
  6
Continuous
100
AcDbLine
 10
157.552818
 20
13.664485
 30
0.0
 11
157.552818
 21
43.297344
 31
0.0
  0
LINE
  5
3F0
100
AcDbEntity
  8
0
370
    -3
  6
Continuous
100
AcDbLine
 10
196.852818
 20
51.100397
 30
0.0
 11
170.793785
 21
51.100397
 31
0.0
  0
LINE
  5
3F1
100
AcDbEntity
  8
0
370
    -3
  6
Continuous
100
AcDbLine
 10
196.852818
 20
5.864485
 30
0.0
 11
168.852818
 21
5.864485
 31
0.0
  0
ARC
  5
3F2
100
AcDbEntity
  8
0
370
    -3
  6
Continuous
100
AcDbCircle
 10
157.852818
 20
14.958103
 30
0.0
 40
7.0
100
AcDbArc
 50
180.0
 51
270.0
  0
LINE
  5
3F3
100
AcDbEntity
  8
0
370
    -3
  6
Continuous
100
AcDbLine
 10
165.852818
 20
4.864485
 30
0.0
 11
165.852818
 21
5.864485
 31
0.0
  0
LINE
  5
3F4
100
AcDbEntity
  8
0
370
    -3
  6
Continuous
100
AcDbLine
 10
165.852818
 20
5.864485
 30
0.0
 11
196.852818
 21
5.864485
 31
0.0
  0
LINE
  5
3F5
100
AcDbEntity
  8
0
370
    -3
  6
Continuous
100
AcDbLine
 10
196.852818
 20
4.864485
 30
0.0
 11
165.852818
 21
4.864485
 31
0.0
  0
LINE
  5
3F6
100
AcDbEntity
  8
0
370
    -3
  6
Continuous
100
AcDbLine
 10
157.852818
 20
57.335634
 30
0.0
 11
196.852818
 21
57.335634
 31
0.0
  0
LINE
  5
3F7
100
AcDbEntity
  8
0
370
    -3
  6
Continuous
100
AcDbLine
 10
196.852818
 20
52.333021
 30
0.0
 11
157.852818
 21
52.333021
 31
0.0
  0
LINE
  5
3F8
100
AcDbEntity
  8
0
370
    -3
  6
Continuous
100
AcDbLine
 10
150.052818
 20
49.535634
 30
0.0
 11
150.052818
 21
15.420009
 31
0.0
  0
ELLIPSE
  5
3F9
100
AcDbEntity
  8
0
370
    -3
  6
Continuous
100
AcDbEllipse
 10
157.352818
 20
55.450225
 30
0.0
 11
3.5
 21
0.0
 31
0.0
210
0.0
220
0.0
230
1.0
 40
0.656603
 41
0.9621393645105941
 42
2.708541678136605
  0
ARC
  5
3FA
100
AcDbEntity
  8
0
370
    -3
  6
Continuous
100
AcDbCircle
 10
157.852818
 20
49.535634
 30
0.0
 40
7.8
100
AcDbArc
 50
90.0
 51
180.0
  0
ARC
  5
3FB
100
AcDbEntity
  8
0
370
    -3
  6
Continuous
100
AcDbCircle
 10
157.852818
 20
44.871115
 30
0.0
 40
7.8
100
AcDbArc
 50
90.0
 51
180.0
  0
ARC
  5
3FC
100
AcDbEntity
  8
0
370
    -3
  6
Continuous
100
AcDbCircle
 10
157.852818
 20
45.333021
 30
0.0
 40
7.0
100
AcDbArc
 50
90.0
 51
180.0
  0
LINE
  5
3FD
100
AcDbEntity
  8
0
370
    -3
  6
Continuous
100
AcDbLine
 10
150.852818
 20
45.333021
 30
0.0
 11
150.852818
 21
14.958103
 31
0.0
  0
ARC
  5
3FE
100
AcDbEntity
  8
0
370
    -3
  6
Continuous
100
AcDbCircle
 10
157.852818
 20
15.420009
 30
0.0
 40
7.8
100
AcDbArc
 50
180.0
 51
270.0
  0
LINE
  5
3FF
100
AcDbEntity
  8
0
370
    -3
  6
Continuous
100
AcDbLine
 10
223.795775
 20
0.864485
 30
0.0
 11
229.457562
 21
0.864485
 31
0.0
  0
LINE
  5
400
100
AcDbEntity
  8
0
370
    -3
  6
Continuous
100
AcDbLine
 10
169.909861
 20
0.864485
 30
0.0
 11
164.248074
 21
0.864485
 31
0.0
  0
ARC
  5
401
100
AcDbEntity
  8
0
370
    -3
  6
Continuous
100
AcDbCircle
 10
225.333789
 20
0.364485
 30
0.0
 40
0.5
100
AcDbArc
 50
90.0
 51
158.801545
  0
ARC
  5
402
100
AcDbEntity
  8
0
370
    -3
  6
Continuous
100
AcDbCircle
 10
168.371848
 20
0.364485
 30
0.0
 40
0.5
100
AcDbArc
 50
21.198455
 51
90.0
  0
LINE
  5
403
100
AcDbEntity
  8
0
370
    -3
  6
Continuous
100
AcDbLine
 10
-14.192326
 20
272.288116
 30
0.0
 11
-15.909837
 21
270.288116
 31
0.0
  0
LINE
  5
404
100
AcDbEntity
  8
0
370
    -3
  6
Continuous
100
AcDbLine
 10
-15.909837
 20
274.288116
 30
0.0
 11
-14.192326
 21
272.288116
 31
0.0
  0
ARC
  5
405
100
AcDbEntity
  8
0
370
    -3
  6
Continuous
100
AcDbCircle
 10
-17.614932
 20
257.352578
 30
0.0
 40
3.8
100
AcDbArc
 50
0.0
 51
41.390427
  0
LINE
  5
406
100
AcDbEntity
  8
0
370
    -3
  6
Continuous
100
AcDbLine
 10
-23.740825
 20
270.050625
 30
0.0
 11
-14.76409
 21
259.865087
 31
0.0
  0
ELLIPSE
  5
407
100
AcDbEntity
  8
0
370
    -3
  6
Continuous
100
AcDbEllipse
 10
-13.361295
 20
272.288116
 30
0.0
 11
0.0
 21
3.5
 31
0.0
210
0.0
220
0.0
230
1.0
 40
0.982815
 41
0.0
 42
6.2831853071795862
  0
LINE
  5
408
100
AcDbEntity
  8
0
370
    -3
  6
Continuous
100
AcDbLine
 10
-12.284606
 20
274.288116
 30
0.0
 11
-14.192326
 21
272.288116
 31
0.0
  0
LINE
  5
409
100
AcDbEntity
  8
0
370
    -3
  6
Continuous
100
AcDbLine
 10
-14.192326
 20
272.288116
 30
0.0
 11
-12.284606
 21
270.288116
 31
0.0
  0
ARC
  5
40A
100
AcDbEntity
  8
0
370
    -3
  6
Continuous
100
AcDbCircle
 10
-11.373131
 20
193.788116
 30
0.0
 40
7.8
100
AcDbArc
 50
270.0
 51
0.0
  0
ARC
  5
40B
100
AcDbEntity
  8
0
370
    -3
  6
Continuous
100
AcDbCircle
 10
-13.824317
 20
193.788116
 30
0.0
 40
7.8
100
AcDbArc
 50
270.0
 51
0.0
  0
ELLIPSE
  5
40C
100
AcDbEntity
  8
0
370
    -3
  6
Continuous
100
AcDbEllipse
 10
-13.361295
 20
193.288116
 30
0.0
 11
-0.0000000000002078
 21
3.5
 31
0.0
210
0.0
220
0.0
230
1.0
 40
0.982815
 41
0.0
 42
6.2831853071795862
  0
LINE
  5
40D
100
AcDbEntity
  8
0
370
    -3
  6
Continuous
100
AcDbLine
 10
-15.909837
 20
191.288116
 30
0.0
 11
-14.192326
 21
193.288116
 31
0.0
  0
LINE
  5
40E
100
AcDbEntity
  8
0
370
    -3
  6
Continuous
100
AcDbLine
 10
-14.192326
 20
193.288116
 30
0.0
 11
-15.909837
 21
195.288116
 31
0.0
  0
ARC
  5
40F
100
AcDbEntity
  8
0
370
    -3
  6
Continuous
100
AcDbCircle
 10
-26.591667
 20
198.038116
 30
0.0
 40
3.8
100
AcDbArc
 50
270.0
 51
318.609573
  0
LINE
  5
410
100
AcDbEntity
  8
0
370
    -3
  6
Continuous
100
AcDbLine
 10
-12.284606
 20
191.288116
 30
0.0
 11
-14.192326
 21
193.288116
 31
0.0
  0
LINE
  5
411
100
AcDbEntity
  8
0
370
    -3
  6
Continuous
100
AcDbLine
 10
-14.192326
 20
193.288116
 30
0.0
 11
-12.284606
 21
195.288116
 31
0.0
  0
LINE
  5
412
100
AcDbEntity
  8
0
370
    -3
  6
Continuous
100
AcDbLine
 10
-23.740825
 20
195.525607
 30
0.0
 11
-14.76409
 21
205.711145
 31
0.0
  0
LINE
  5
413
100
AcDbEntity
  8
0
370
    -3
  6
Continuous
100
AcDbLine
 10
-26.591667
 20
194.238116
 30
0.0
 11
-82.087724
 21
194.238116
 31
0.0
  0
ARC
  5
414
100
AcDbEntity
  8
0
370
    -3
  6
Continuous
100
AcDbCircle
 10
-82.087724
 20
198.038116
 30
0.0
 40
3.8
100
AcDbArc
 50
221.85078
 51
270.0
  0
LINE
  5
415
100
AcDbEntity
  8
0
370
    -3
  6
Continuous
100
AcDbLine
 10
-94.244661
 20
185.988116
 30
0.0
 11
-11.373131
 21
185.988116
 31
0.0
  0
LINE
  5
416
100
AcDbEntity
  8
0
370
    -3
  6
Continuous
100
AcDbLine
 10
-84.918287
 20
195.502783
 30
0.0
 11
-94.057114
 21
205.705792
 31
0.0
  0
ARC
  5
417
100
AcDbEntity
  8
0
370
    -3
  6
Continuous
100
AcDbCircle
 10
-94.244661
 20
193.788116
 30
0.0
 40
7.8
100
AcDbArc
 50
180.0
 51
270.0
  0
LINE
  5
418
100
AcDbEntity
  8
0
370
    -3
  6
Continuous
100
AcDbLine
 10
-96.666334
 20
193.288116
 30
0.0
 11
-98.383846
 21
195.288116
 31
0.0
  0
LINE
  5
419
100
AcDbEntity
  8
0
370
    -3
  6
Continuous
100
AcDbLine
 10
-98.383846
 20
191.288116
 30
0.0
 11
-96.666334
 21
193.288116
 31
0.0
  0
ELLIPSE
  5
41A
100
AcDbEntity
  8
0
370
    -3
  6
Continuous
100
AcDbEllipse
 10
-95.835304
 20
193.288116
 30
0.0
 11
-0.0000000000002132
 21
3.5
 31
0.0
210
0.0
220
0.0
230
1.0
 40
0.982815
 41
0.0
 42
6.2831853071795862
  0
LINE
  5
41B
100
AcDbEntity
  8
0
370
    -3
  6
Continuous
100
AcDbLine
 10
-94.758615
 20
191.288116
 30
0.0
 11
-96.666334
 21
193.288116
 31
0.0
  0
LINE
  5
41C
100
AcDbEntity
  8
0
370
    -3
  6
Continuous
100
AcDbLine
 10
-96.666334
 20
193.288116
 30
0.0
 11
-94.758615
 21
195.288116
 31
0.0
  0
ARC
  5
41D
100
AcDbEntity
  8
0
370
    -3
  6
Continuous
100
AcDbCircle
 10
-94.244661
 20
271.788116
 30
0.0
 40
7.8
100
AcDbArc
 50
90.0
 51
180.0
  0
LINE
  5
41E
100
AcDbEntity
  8
0
370
    -3
  6
Continuous
100
AcDbLine
 10
-98.383846
 20
274.288116
 30
0.0
 11
-96.666334
 21
272.288116
 31
0.0
  0
LINE
  5
41F
100
AcDbEntity
  8
0
370
    -3
  6
Continuous
100
AcDbLine
 10
-94.758615
 20
274.288116
 30
0.0
 11
-96.666334
 21
272.288116
 31
0.0
  0
ELLIPSE
  5
420
100
AcDbEntity
  8
0
370
    -3
  6
Continuous
100
AcDbEllipse
 10
-95.835304
 20
272.288116
 30
0.0
 11
0.0
 21
3.5
 31
0.0
210
0.0
220
0.0
230
1.0
 40
0.982815
 41
0.0
 42
6.2831853071795862
  0
ARC
  5
421
100
AcDbEntity
  8
0
370
    -3
  6
Continuous
100
AcDbCircle
 10
-91.226551
 20
257.335107
 30
0.0
 40
3.8
100
AcDbArc
 50
138.14922
 51
180.0
  0
LINE
  5
422
100
AcDbEntity
  8
0
370
    -3
  6
Continuous
100
AcDbLine
 10
-84.918287
 20
270.073449
 30
0.0
 11
-94.057114
 21
259.87044
 31
0.0
  0
LINE
  5
423
100
AcDbEntity
  8
0
370
    -3
  6
Continuous
100
AcDbLine
 10
-96.666334
 20
272.288116
 30
0.0
 11
-98.383846
 21
270.288116
 31
0.0
  0
LINE
  5
424
100
AcDbEntity
  8
0
370
    -3
  6
Continuous
100
AcDbLine
 10
-96.666334
 20
272.288116
 30
0.0
 11
-94.758615
 21
270.288116
 31
0.0
  0
ARC
  5
425
100
AcDbEntity
  8
0
370
    -3
  6
Continuous
100
AcDbCircle
 10
-82.087724
 20
267.538116
 30
0.0
 40
3.8
100
AcDbArc
 50
90.0
 51
138.14922
  0
ARC
  5
426
100
AcDbEntity
  8
0
370
    -3
  6
Continuous
100
AcDbCircle
 10
-74.573144
 20
261.338116
 30
0.0
 40
10.0
100
AcDbArc
 50
90.0
 51
180.0
  0
ARC
  5
427
100
AcDbEntity
  8
0
370
    -3
  6
Continuous
100
AcDbCircle
 10
-26.591667
 20
267.538116
 30
0.0
 40
3.8
100
AcDbArc
 50
41.390427
 51
90.0
  0
LINE
  5
428
100
AcDbEntity
  8
0
370
    -3
  6
Continuous
100
AcDbLine
 10
-26.591667
 20
271.338116
 30
0.0
 11
-82.087724
 21
271.338116
 31
0.0
  0
LINE
  5
429
100
AcDbEntity
  8
0
370
    -3
  6
Continuous
100
AcDbLine
 10
-94.244661
 20
279.588116
 30
0.0
 11
-11.373131
 21
279.588116
 31
0.0
  0
ARC
  5
42A
100
AcDbEntity
  8
0
370
    -3
  6
Continuous
100
AcDbCircle
 10
-11.373131
 20
271.788116
 30
0.0
 40
7.8
100
AcDbArc
 50
0.0
 51
90.0
  0
ARC
  5
42B
100
AcDbEntity
  8
0
370
    -3
  6
Continuous
100
AcDbCircle
 10
-13.824317
 20
271.788116
 30
0.0
 40
7.8
100
AcDbArc
 50
0.0
 51
90.0
  0
LINE
  5
42C
100
AcDbEntity
  8
0
370
    -3
  6
Continuous
100
AcDbLine
 10
-3.573131
 20
232.788116
 30
0.0
 11
-3.573131
 21
271.788116
 31
0.0
  0
LINE
  5
42D
100
AcDbEntity
  8
0
370
    -3
  6
Continuous
100
AcDbLine
 10
-6.024317
 20
232.788116
 30
0.0
 11
-6.024317
 21
271.788116
 31
0.0
  0
POINT
  5
42E
100
AcDbEntity
  8
0
370
    -3
  6
CENTER
100
AcDbPoint
 10
13.852809
 20
243.265616
 30
0.0
  0
POINT
  5
42F
100
AcDbEntity
  8
0
370
    -3
  6
CENTER
100
AcDbPoint
 10
13.852809
 20
243.265616
 30
0.0
  0
LINE
  5
430
100
AcDbEntity
  8
0
370
    -3
  6
Continuous
100
AcDbLine
 10
11.852809
 20
246.788116
 30
0.0
 11
-3.573131
 21
246.788116
 31
0.0
  0
ARC
  5
431
100
AcDbEntity
  8
0
370
    -3
  6
Continuous
100
AcDbCircle
 10
11.852809
 20
244.788116
 30
0.0
 40
2.0
100
AcDbArc
 50
0.0
 51
90.0
  0
LINE
  5
432
100
AcDbEntity
  8
0
370
    -3
  6
Continuous
100
AcDbLine
 10
13.852809
 20
244.788116
 30
0.0
 11
13.852809
 21
232.788116
 31
0.0
  0
LINE
  5
433
100
AcDbEntity
  8
0
370
    -3
  6
Continuous
100
AcDbLine
 10
-13.814932
 20
232.788116
 30
0.0
 11
-13.814932
 21
257.352578
 31
0.0
  0
LINE
  5
434
100
AcDbEntity
  8
0
370
    -3
  6
Continuous
100
AcDbLine
 10
-95.026551
 20
232.788116
 30
0.0
 11
-95.026551
 21
257.335107
 31
0.0
  0
LINE
  5
435
100
AcDbEntity
  8
0
370
    -3
  6
Continuous
100
AcDbLine
 10
-102.044661
 20
232.788116
 30
0.0
 11
-102.044661
 21
271.788116
 31
0.0
  0
LINE
  5
436
100
AcDbEntity
  8
0
370
    -3
  6
Continuous
100
AcDbLine
 10
-84.573144
 20
232.788116
 30
0.0
 11
-84.573144
 21
261.338116
 31
0.0
  0
LINE
  5
437
100
AcDbEntity
  8
0
370
    -3
  6
Continuous
100
AcDbLine
 10
-102.044661
 20
232.788116
 30
0.0
 11
-102.044661
 21
193.788116
 31
0.0
  0
POINT
  5
438
100
AcDbEntity
  8
0
370
    -3
  6
CENTER
100
AcDbPoint
 10
13.852809
 20
222.310616
 30
0.0
  0
POINT
  5
439
100
AcDbEntity
  8
0
370
    -3
  6
CENTER
100
AcDbPoint
 10
13.852809
 20
222.310616
 30
0.0
  0
ARC
  5
43A
100
AcDbEntity
  8
0
370
    -3
  6
Continuous
100
AcDbCircle
 10
11.852809
 20
220.788116
 30
0.0
 40
2.0
100
AcDbArc
 50
270.0
 51
0.0
  0
LINE
  5
43B
100
AcDbEntity
  8
0
370
    -3
  6
Continuous
100
AcDbLine
 10
13.852809
 20
220.788116
 30
0.0
 11
13.852809
 21
232.788116
 31
0.0
  0
ARC
  5
43C
100
AcDbEntity
  8
0
370
    -3
  6
Continuous
100
AcDbCircle
 10
-17.614932
 20
208.223653
 30
0.0
 40
3.8
100
AcDbArc
 50
318.609573
 51
0.0
  0
LINE
  5
43D
100
AcDbEntity
  8
0
370
    -3
  6
Continuous
100
AcDbLine
 10
11.852809
 20
218.788116
 30
0.0
 11
-3.573131
 21
218.788116
 31
0.0
  0
LINE
  5
43E
100
AcDbEntity
  8
0
370
    -3
  6
Continuous
100
AcDbLine
 10
-3.573131
 20
232.788116
 30
0.0
 11
-3.573131
 21
193.788116
 31
0.0
  0
LINE
  5
43F
100
AcDbEntity
  8
0
370
    -3
  6
Continuous
100
AcDbLine
 10
-6.024317
 20
232.788116
 30
0.0
 11
-6.024317
 21
193.788116
 31
0.0
  0
LINE
  5
440
100
AcDbEntity
  8
0
370
    -3
  6
Continuous
100
AcDbLine
 10
-13.814932
 20
232.788116
 30
0.0
 11
-13.814932
 21
208.223653
 31
0.0
  0
LINE
  5
441
100
AcDbEntity
  8
0
370
    -3
  6
Continuous
100
AcDbLine
 10
-95.026551
 20
232.788116
 30
0.0
 11
-95.026551
 21
208.241125
 31
0.0
  0
ARC
  5
442
100
AcDbEntity
  8
0
370
    -3
  6
Continuous
100
AcDbCircle
 10
-91.226551
 20
208.241125
 30
0.0
 40
3.8
100
AcDbArc
 50
180.0
 51
221.85078
  0
LINE
  5
443
100
AcDbEntity
  8
0
370
    -3
  6
Continuous
100
AcDbLine
 10
-84.573144
 20
232.788116
 30
0.0
 11
-84.573144
 21
204.238116
 31
0.0
  0
ARC
  5
444
100
AcDbEntity
  8
0
370
    -3
  6
Continuous
100
AcDbCircle
 10
-74.573144
 20
204.238116
 30
0.0
 40
10.0
100
AcDbArc
 50
180.0
 51
270.0
  0
LINE
  5
445
100
AcDbEntity
  8
0
370
    -3
  6
CENTER
100
AcDbLine
 10
-57.147191
 20
183.096352
 30
0.0
 11
-57.147191
 21
283.480755
 31
0.0
  0
MTEXT
  5
446
100
AcDbEntity
  8
0
370
    -3
  6
Continuous
100
AcDbMText
 10
-552.155762
 20
166.461166
 30
0.0
 40
15.0
 41
0.0
 71
     7
 72
     1
  1
\W0.43;DATE\W0.72; \W0.43;2012.01.14
  7
ZU_SHPTB00001
 11
1.0
 21
0.0
 31
0.0
 73
     1
 44
1.0
  0
ENDSEC
  0
SECTION
  2
OBJECTS
  0
DICTIONARY
  5
19
100
AcDbDictionary
280
     0
281
     1
  3
ACAD_GROUP
350
1A
  3
ACAD_MLINESTYLE
350
1B
  3
ACAD_LAYOUT
350
1E
  3
ACAD_PLOTSETTINGS
350
22
  3
ACAD_PLOTSTYLENAME
350
1F
  3
ACAD_WIPEOUT_VARS
350
23
  3
DWGPROPS
350
447
  0
DICTIONARY
  5
1A
102
{ACAD_REACTORS
330
19
102
}
100
AcDbDictionary
280
     0
281
     1
  0
DICTIONARY
  5
1B
102
{ACAD_REACTORS
330
19
102
}
100
AcDbDictionary
280
     0
281
     1
  3
Standard
350
1C
  0
MLINESTYLE
  5
1C
102
{ACAD_REACTORS
330
1B
102
}
100
AcDbMlineStyle
  2
Standard
 70
     0
  3

 62
     0
 51
90.0
 52
90.0
 71
     2
 49
0.5
 62
   256
  6
ByLayer
 49
-0.5
 62
   256
  6
ByLayer
  0
ACDBDICTIONARYWDFLT
  5
1F
102
{ACAD_REACTORS
330
19
102
}
100
AcDbDictionary
281
     1
  3
Normal
350
1D
100
AcDbDictionaryWithDefault
340
1D
  0
ACDBPLACEHOLDER
  5
1D
102
{ACAD_REACTORS
330
1F
102
}
  0
LAYOUT
  5
20
102
{ACAD_REACTORS
330
1E
102
}
100
AcDbPlotSettings
  1

  2

  4

  6

 40
0.0
 41
0.0
 42
0.0
 43
0.0
 44
0.0
 45
0.0
 46
0.0
 47
0.0
 48
0.0
 49
0.0
140
0.0
141
0.0
142
1.0
143
1.0
 70
  1024
 72
     0
 73
     0
 74
     0
  7

 75
     0
147
1.0
148
0.0
149
0.0
100
AcDbLayout
  1
Model
 70
     0
 71
     0
 10
0.0
 20
0.0
 11
0.0
 21
0.0
 12
0.0
 22
0.0
 32
0.0
 14
0.0
 24
0.0
 34
0.0
 15
0.0
 25
0.0
 35
0.0
146
0.0
 13
0.0
 23
0.0
 33
0.0
 16
0.0
 26
0.0
 36
0.0
 17
0.0
 27
0.0
 37
0.0
 76
     0
330
A
331
0
345
0
346
0
  0
LAYOUT
  5
21
102
{ACAD_REACTORS
330
1E
102
}
100
AcDbPlotSettings
  1

  2

  4

  6

 40
0.0
 41
0.0
 42
0.0
 43
0.0
 44
0.0
 45
0.0
 46
0.0
 47
0.0
 48
0.0
 49
0.0
140
0.0
141
0.0
142
1.0
143
1.0
 70
     0
 72
     0
 73
     0
 74
     0
  7

 75
     0
147
1.0
148
0.0
149
0.0
100
AcDbLayout
  1
Layout1
 70
     0
 71
     0
 10
0.0
 20
0.0
 11
0.0
 21
0.0
 12
0.0
 22
0.0
 32
0.0
 14
0.0
 24
0.0
 34
0.0
 15
0.0
 25
0.0
 35
0.0
146
0.0
 13
0.0
 23
0.0
 33
0.0
 16
0.0
 26
0.0
 36
0.0
 17
0.0
 27
0.0
 37
0.0
 76
     0
330
B
331
0
345
0
346
0
  0
DICTIONARY
  5
1E
102
{ACAD_REACTORS
330
19
102
}
100
AcDbDictionary
280
     0
281
     1
  3
Layout1
350
21
  3
Model
350
20
  0
DICTIONARY
  5
22
102
{ACAD_REACTORS
330
19
102
}
100
AcDbDictionary
280
     0
281
     1
  0
WIPEOUTVARIABLES
  5
23
100
AcDbWipeoutVariables
 70
     1
  0
XRECORD
  5
447
100
AcDbXrecord
280
     1
  1
DWGPROPS COOKIE
  2

  3

  4

  6

  7

  8
HK96464
  9

300
=
301
=
302
=
303
=
304
=
305
=
306
=
307
=
308
=
309
=
 40
0.0
 41
2455941.858935
 42
2455941.858935
  1

 90
        0
  0
ENDSEC
  0
EOF
