  0
SECTION
  2
HEADER
  9
$ACADVER
  1
AC1015
  9
$ACADMAINTVER
 70
     6
  9
$DWGCODEPAGE
  3
ANSI_932
  9
$INSBASE
 10
0.0
 20
0.0
 30
0.0
  9
$EXTMIN
 10
1.000000E+20
 20
1.000000E+20
 30
1.000000E+20
  9
$EXTMAX
 10
-1.000000E+20
 20
-1.000000E+20
 30
-1.000000E+20
  9
$LIMMIN
 10
0.0
 20
0.0
  9
$LIMMAX
 10
0.0
 20
0.0
  9
$ORTHOMODE
 70
     0
  9
$REGENMODE
 70
     1
  9
$FILLMODE
 70
     1
  9
$QTEXTMODE
 70
     0
  9
$MIRRTEXT
 70
     1
  9
$LTSCALE
 40
1.0
  9
$ATTMODE
 70
     1
  9
$TEXTSIZE
 40
7.0
  9
$TRACEWID
 40
0.05
  9
$TEXTSTYLE
  7
Standard
  9
$CLAYER
  8
0
  9
$CELTYPE
  6
Continuous
  9
$CECOLOR
 62
   256
  9
$CELTSCALE
 40
1.0
  9
$DISPSILH
 70
     0
  9
$DIMSCALE
 40
1.0
  9
$DIMASZ
 40
1.931852
  9
$DIMEXO
 40
1.0
  9
$DIMDLI
 40
0.38
  9
$DIMRND
 40
0.0
  9
$DIMDLE
 40
0.0
  9
$DIMEXE
 40
2.0
  9
$DIMTP
 40
0.0
  9
$DIMTM
 40
0.0
  9
$DIMTXT
 40
2.8
  9
$DIMCEN
 40
0.09
  9
$DIMTSZ
 40
0.0
  9
$DIMTOL
 70
     0
  9
$DIMLIM
 70
     0
  9
$DIMTIH
 70
     1
  9
$DIMTOH
 70
     1
  9
$DIMSE1
 70
     0
  9
$DIMSE2
 70
     0
  9
$DIMTAD
 70
     1
  9
$DIMZIN
 70
     0
  9
$DIMBLK
  1

  9
$DIMASO
 70
     1
  9
$DIMSHO
 70
     1
  9
$DIMPOST
  1

  9
$DIMAPOST
  1

  9
$DIMALT
 70
     0
  9
$DIMALTD
 70
     2
  9
$DIMALTF
 40
25.4
  9
$DIMLFAC
 40
1.0
  9
$DIMTOFL
 70
     0
  9
$DIMTVP
 40
0.0
  9
$DIMTIX
 70
     0
  9
$DIMSOXD
 70
     0
  9
$DIMSAH
 70
     0
  9
$DIMBLK1
  1

  9
$DIMBLK2
  1

  9
$DIMSTYLE
  2
Standard
  9
$DIMCLRD
 70
     0
  9
$DIMCLRE
 70
     0
  9
$DIMCLRT
 70
     0
  9
$DIMTFAC
 40
0.714286
  9
$DIMGAP
 40
0.09
  9
$DIMJUST
 70
     0
  9
$DIMSD1
 70
     0
  9
$DIMSD2
 70
     0
  9
$DIMTOLJ
 70
     1
  9
$DIMTZIN
 70
     0
  9
$DIMALTZ
 70
     0
  9
$DIMALTTZ
 70
     0
  9
$DIMUPT
 70
     0
  9
$DIMDEC
 70
     4
  9
$DIMTDEC
 70
     4
  9
$DIMALTU
 70
     2
  9
$DIMALTTD
 70
     2
  9
$DIMTXSTY
  7
Standard
  9
$DIMAUNIT
 70
     0
  9
$DIMADEC
 70
     0
  9
$DIMALTRND
 40
0.0
  9
$DIMAZIN
 70
     0
  9
$DIMDSEP
 70
     0
  9
$DIMATFIT
 70
     3
  9
$DIMFRAC
 70
     0
  9
$DIMLDRBLK
  1

  9
$DIMLUNIT
 70
     2
  9
$DIMLWD
 70
     0
  9
$DIMLWE
 70
     0
  9
$DIMTMOVE
 70
     0
  9
$LUNITS
 70
     2
  9
$LUPREC
 70
     3
  9
$SKETCHINC
 40
0.1
  9
$FILLETRAD
 40
0.0
  9
$AUNITS
 70
     0
  9
$AUPREC
 70
     0
  9
$MENU
  1
acad
  9
$ELEVATION
 40
0.0
  9
$PELEVATION
 40
0.0
  9
$THICKNESS
 40
0.0
  9
$LIMCHECK
 70
     0
  9
$CHAMFERA
 40
0.0
  9
$CHAMFERB
 40
0.0
  9
$CHAMFERC
 40
0.0
  9
$CHAMFERD
 40
0.0
  9
$SKPOLY
 70
     0
  9
$TDCREATE
 40
0.000000000
  9
$TDUCREATE
 40
0.000000000
  9
$TDUPDATE
 40
0.000000000
  9
$TDUUPDATE
 40
0.000000000
  9
$TDINDWG
 40
0.0000000000
  9
$TDUSRTIMER
 40
0.0000000000
  9
$USRTIMER
 70
     1
  9
$ANGBASE
 50
0.0
  9
$ANGDIR
 70
     0
  9
$PDMODE
 70
     0
  9
$PDSIZE
 40
0.0
  9
$PLINEWID
 40
0.0
  9
$SPLFRAME
 70
     0
  9
$SPLINETYPE
 70
     6
  9
$SPLINESEGS
 70
     8
  9
$HANDSEED
  5
3FC
  9
$SURFTAB1
 70
     6
  9
$SURFTAB2
 70
     6
  9
$SURFTYPE
 70
     6
  9
$SURFU
 70
     6
  9
$SURFV
 70
     6
  9
$UCSBASE
  2

  9
$UCSNAME
  2

  9
$UCSORG
 10
0.0
 20
0.0
 30
0.0
  9
$UCSXDIR
 10
1.0
 20
0.0
 30
0.0
  9
$UCSYDIR
 10
0.0
 20
1.0
 30
0.0
  9
$UCSORTHOREF
  2

  9
$UCSORTHOVIEW
 70
     0
  9
$UCSORGTOP
 10
0.0
 20
0.0
 30
0.0
  9
$UCSORGBOTTOM
 10
0.0
 20
0.0
 30
0.0
  9
$UCSORGLEFT
 10
0.0
 20
0.0
 30
0.0
  9
$UCSORGRIGHT
 10
0.0
 20
0.0
 30
0.0
  9
$UCSORGFRONT
 10
0.0
 20
0.0
 30
0.0
  9
$UCSORGBACK
 10
0.0
 20
0.0
 30
0.0
  9
$PUCSBASE
  2

  9
$PUCSNAME
  2

  9
$PUCSORG
 10
0.0
 20
0.0
 30
0.0
  9
$PUCSXDIR
 10
1.0
 20
0.0
 30
0.0
  9
$PUCSYDIR
 10
0.0
 20
1.0
 30
0.0
  9
$PUCSORTHOREF
  2

  9
$PUCSORTHOVIEW
 70
     0
  9
$PUCSORGTOP
 10
0.0
 20
0.0
 30
0.0
  9
$PUCSORGBOTTOM
 10
0.0
 20
0.0
 30
0.0
  9
$PUCSORGLEFT
 10
0.0
 20
0.0
 30
0.0
  9
$PUCSORGRIGHT
 10
0.0
 20
0.0
 30
0.0
  9
$PUCSORGFRONT
 10
0.0
 20
0.0
 30
0.0
  9
$PUCSORGBACK
 10
0.0
 20
0.0
 30
0.0
  9
$USERI1
 70
     0
  9
$USERI2
 70
     0
  9
$USERI3
 70
     0
  9
$USERI4
 70
     0
  9
$USERI5
 70
     0
  9
$USERR1
 40
0.0
  9
$USERR2
 40
0.0
  9
$USERR3
 40
0.0
  9
$USERR4
 40
0.0
  9
$USERR5
 40
0.0
  9
$WORLDVIEW
 70
     1
  9
$SHADEDGE
 70
     3
  9
$SHADEDIF
 70
    70
  9
$TILEMODE
 70
     1
  9
$MAXACTVP
 70
    16
  9
$PINSBASE
 10
0.0
 20
0.0
 30
0.0
  9
$PLIMCHECK
 70
     0
  9
$PEXTMIN
 10
1.000000E+20
 20
1.000000E+20
 30
1.000000E+20
  9
$PEXTMAX
 10
-1.000000E+20
 20
-1.000000E+20
 30
-1.000000E+20
  9
$PLIMMIN
 10
0.0
 20
0.0
  9
$PLIMMAX
 10
12.0
 20
9.0
  9
$UNITMODE
 70
     0
  9
$VISRETAIN
 70
     0
  9
$PLINEGEN
 70
     1
  9
$PSLTSCALE
 70
     0
  9
$TREEDEPTH
 70
  3020
  9
$CMLSTYLE
  2
Standard
  9
$CMLJUST
 70
     0
  9
$CMLSCALE
 40
1.0
  9
$PROXYGRAPHICS
 70
     0
  9
$MEASUREMENT
 70
     0
  9
$CELWEIGHT
370
     0
  9
$ENDCAPS
280
     0
  9
$JOINSTYLE
280
     0
  9
$LWDISPLAY
290
     0
  9
$INSUNITS
 70
     0
  9
$HYPERLINKBASE
  1

  9
$STYLESHEET
  1

  9
$XEDIT
290
     1
  9
$CEPSNTYPE
380
     0
  9
$PSTYLEMODE
290
     1
  9
$FINGERPRINTGUID
  2

  9
$VERSIONGUID
  2

  9
$EXTNAMES
290
     1
  9
$PSVPSCALE
 40
0.0
  0
ENDSEC
  0
SECTION
  2
CLASSES
  0
CLASS
  1
LWPOLYLINE
  2
AcDbPolyline
  3
AutoCAD 2000
 90
    32768
280
     0
281
     1
  0
CLASS
  1
IMAGE
  2
AcDbRasterImage
  3
ISM
 90
    32895
280
     0
281
     1
  0
CLASS
  1
OLE2FRAME
  2
AcDbOle2Frame
  3
AutoCAD 2000
 90
    32768
280
     0
281
     1
  0
CLASS
  1
HATCH
  2
AcDbHatch
  3
AutoCAD 2000
 90
    32768
280
     0
281
     1
  0
CLASS
  1
DICTIONARYVAR
  2
AcDbDictionaryVar
  3
AutoCAD 2000
 90
    32768
280
     0
281
     0
  0
CLASS
  1
RASTERVARIABLES
  2
AcDbRasterVariables
  3
ISM
 90
    32768
280
     0
281
     0
  0
CLASS
  1
IMAGEDEF
  2
AcDbRasterImageDef
  3
ISM
 90
    32768
280
     0
281
     0
  0
CLASS
  1
IMAGEDEF_REACTOR
  2
AcDbRasterImageDefReactor
  3
ISM
 90
    32769
280
     0
281
     0
  0
CLASS
  1
IDBUFFER
  2
AcDbIdBuffer
  3
AutoCAD 2000
 90
    32768
280
     0
281
     0
  0
CLASS
  1
SPATIAL_FILTER
  2
AcDbSpatialFilter
  3
AutoCAD 2000
 90
    32768
280
     0
281
     0
  0
CLASS
  1
XRECORD
  2
AcDbXrecord
  3
AutoCAD 2000
 90
        0
280
     0
281
     0
  0
CLASS
  1
SORTENTSTABLE
  2
AcDbSortentsTable
  3
AutoCAD 2000
 90
    32768
280
     0
281
     0
  0
CLASS
  1
LAYER_INDEX
  2
AcDbLayerIndex
  3
AutoCAD 2000
 90
    32768
280
     0
281
     0
  0
CLASS
  1
SPATIAL_INDEX
  2
AcDbSpatialIndex
  3
AutoCAD 2000
 90
    32768
280
     0
281
     0
  0
CLASS
  1
OBJECT_PTR
  2
CAseDLPNTableRecord
  3
"ASE-LPNTableRecord"
 90
    32769
280
     0
281
     0
  0
CLASS
  1
LAYOUT
  2
AcDbLayout
  3
AutoCAD 2000
 90
        0
280
     0
281
     0
  0
CLASS
  1
PLOTSETTINGS
  2
AcDbPlotSettings
  3
AutoCAD 2000
 90
    32768
280
     0
281
     0
  0
CLASS
  1
ACDBDICTIONARYWDFLT
  2
AcDbDictionaryWithDefault
  3
AutoCAD 2000
 90
        0
280
     0
281
     0
  0
CLASS
  1
ACDBPLACEHOLDER
  2
AcDbPlaceHolder
  3
AutoCAD 2000
 90
        0
280
     0
281
     0
  0
CLASS
  1
VBA_PROJECT
  2
AcDbVbaProject
  3
acadvba
 90
    32768
280
     0
281
     0
  0
CLASS
  1
WIPEOUT
  2
AcDbWipeout
  3
WipeOut|AutoCAD Express Tool|expresstools@autodesk.com
 90
    32895
280
     0
281
     1
  0
CLASS
  1
WIPEOUTVARIABLES
  2
AcDbWipeoutVariables
  3
WipeOut|AutoCAD Express Tool|expresstools@autodesk.com
 90
        0
280
     0
281
     0
  0
CLASS
  1
RTEXT
  2
RText
  3
RText|AutoCAD Express Tool|expresstools@autodesk.com
 90
    32768
280
     0
281
     1
  0
CLASS
  1
ARCALIGNEDTEXT
  2
AcDbArcAlignedText
  3
ATEXT|AutoCAD Express Tool|expresstools@autodesk.com
 90
    32768
280
     0
281
     1
  0
ENDSEC
  0
SECTION
  2
TABLES
  0
TABLE
  2
VPORT
  5
7
100
AcDbSymbolTable
 70
     1
  0
VPORT
  5
15
100
AcDbSymbolTableRecord
100
AcDbViewportTableRecord
  2
*ACTIVE
 70
     0
 10
0.0
 20
0.0
 11
1.0
 21
1.0
 12
0.0
 22
0.0
 13
0.0
 23
0.0
 14
1.0
 24
1.0
 15
0.0
 25
0.0
 16
0.0
 26
0.0
 36
1.0
 17
0.0
 27
0.0
 37
0.0
 40
100.0
 41
1.0
 42
50.0
 43
0.0
 44
0.0
 50
0.0
 51
0.0
 71
     0
 72
   100
 73
     1
 74
     1
 75
     0
 76
     0
 77
     0
 78
     0
281
     0
 65
     0
110
0.0
120
0.0
130
0.0
111
1.0
121
0.0
131
0.0
112
0.0
122
1.0
132
0.0
345
0
346
0
 79
     0
146
0.0
  0
ENDTAB
  0
TABLE
  2
LTYPE
  5
4
100
AcDbSymbolTable
 70
     7
  0
LTYPE
  5
11
100
AcDbSymbolTableRecord
100
AcDbLinetypeTableRecord
  2
ByBlock
 70
    64
  3

 72
    65
 73
     0
 40
0.0
  0
LTYPE
  5
12
100
AcDbSymbolTableRecord
100
AcDbLinetypeTableRecord
  2
ByLayer
 70
    64
  3

 72
    65
 73
     0
 40
0.0
  0
LTYPE
  5
13
100
AcDbSymbolTableRecord
100
AcDbLinetypeTableRecord
  2
Continuous
 70
    64
  3
Solid line
 72
    65
 73
     0
 40
0.0
  0
LTYPE
  5
24
100
AcDbSymbolTableRecord
100
AcDbLinetypeTableRecord
  2
DASHED
 70
    64
  3
Dashed __ __ __ __ __ __ __ __ __ __ __ __ __ _
 72
    65
 73
     2
 40
0.75
 49
0.5
 74
     0
 49
-0.25
 74
     0
  0
LTYPE
  5
25
100
AcDbSymbolTableRecord
100
AcDbLinetypeTableRecord
  2
CENTER
 70
    64
  3
Center ____ _ ____ _ ____ _ ____ _ ____ _ ____
 72
    65
 73
     4
 40
1.0
 49
0.5
 74
     0
 49
-0.25
 74
     0
 49
0.0
 74
     0
 49
-0.25
 74
     0
  0
LTYPE
  5
26
100
AcDbSymbolTableRecord
100
AcDbLinetypeTableRecord
  2
DIVIDE
 70
    64
  3
Divide ____ . . ____ . . ____ . . ____ . . ____
 72
    65
 73
     6
 40
1.25
 49
0.5
 74
     0
 49
-0.25
 74
     0
 49
0.0
 74
     0
 49
-0.25
 74
     0
 49
0.0
 74
     0
 49
-0.25
 74
     0
  0
LTYPE
  5
27
100
AcDbSymbolTableRecord
100
AcDbLinetypeTableRecord
  2
PHANTOM
 70
    64
  3
Phantom ______  __  __  ______  __  __  ______
 72
    65
 73
     6
 40
9.0
 49
4.3
 74
     0
 49
-0.7
 74
     0
 49
1.3
 74
     0
 49
-0.7
 74
     0
 49
1.3
 74
     0
 49
-0.7
 74
     0
  0
ENDTAB
  0
TABLE
  2
LAYER
  5
2
100
AcDbSymbolTable
 70
     4
  0
LAYER
  5
14
100
AcDbSymbolTableRecord
100
AcDbLayerTableRecord
  2
0
 70
    64
 62
    53
  6
Continuous
290
     1
370
    -3
390
1D
  0
LAYER
  5
28
100
AcDbSymbolTableRecord
100
AcDbLayerTableRecord
  2
3
 70
    64
 62
     4
  6
Continuous
290
     1
370
    -3
390
1D
  0
LAYER
  5
29
100
AcDbSymbolTableRecord
100
AcDbLayerTableRecord
  2
5
 70
    64
 62
   191
  6
Continuous
290
     1
370
    -3
390
1D
  0
LAYER
  5
2A
100
AcDbSymbolTableRecord
100
AcDbLayerTableRecord
  2
6
 70
    64
 62
   150
  6
Continuous
290
     1
370
    -3
390
1D
  0
ENDTAB
  0
TABLE
  2
STYLE
  5
3
100
AcDbSymbolTable
 70
     2
  0
STYLE
  5
17
100
AcDbSymbolTableRecord
100
AcDbTextStyleTableRecord
  2
Standard
 70
     0
 40
0.0
 41
1.0
 50
0.0
 71
     0
 42
0.0
  3
txt
  4

  0
STYLE
  5
2D9
100
AcDbSymbolTableRecord
100
AcDbTextStyleTableRecord
  2
ZU_SHPTB00001
 70
     0
 40
0.0
 41
1.0
 50
0.0
 71
     0
 42
0.0
  3
monotxt
  4
bigfont
  0
ENDTAB
  0
TABLE
  2
VIEW
  5
5
100
AcDbSymbolTable
 70
     0
  0
ENDTAB
  0
TABLE
  2
UCS
  5
6
100
AcDbSymbolTable
 70
     0
  0
ENDTAB
  0
TABLE
  2
APPID
  5
8
100
AcDbSymbolTable
 70
     1
  0
APPID
  5
16
100
AcDbSymbolTableRecord
100
AcDbRegAppTableRecord
  2
ACAD
 70
     0
  0
ENDTAB
  0
TABLE
  2
DIMSTYLE
  5
9
100
AcDbSymbolTable
 70
     1
100
AcDbDimStyleTable
 71
     0
  0
DIMSTYLE
105
18
100
AcDbSymbolTableRecord
100
AcDbDimStyleTableRecord
  2
Standard
 70
     0
  3

  4

 40
1.0
 41
0.18
 42
0.0625
 43
0.38
 44
0.18
 45
0.0
 46
0.0
 47
0.0
 48
0.0
 71
     0
 72
     0
 73
     1
 74
     1
 75
     0
 76
     0
 77
     0
 78
     0
 79
     0
140
0.18
141
0.09
142
0.0
143
25.4
144
1.0
145
0.0
146
1.0
147
0.09
148
0.0
170
     0
171
     2
172
     0
173
     0
174
     0
175
     0
176
     0
177
     0
178
     0
179
     0
271
     4
272
     4
273
     2
274
     2
275
     0
276
     0
277
     2
278
    46
279
     0
280
     0
281
     0
282
     0
283
     1
284
     0
285
     0
286
     0
288
     0
340
17
341
0
342
0
343
0
344
0
371
    -2
372
    -2
  0
ENDTAB
  0
TABLE
  2
BLOCK_RECORD
  5
1
100
AcDbSymbolTable
 70
     0
  0
BLOCK_RECORD
  5
A
100
AcDbSymbolTableRecord
100
AcDbBlockTableRecord
  2
*MODEL_SPACE
340
20
  0
BLOCK_RECORD
  5
B
100
AcDbSymbolTableRecord
100
AcDbBlockTableRecord
  2
*PAPER_SPACE
340
21
  0
ENDTAB
  0
ENDSEC
  0
SECTION
  2
BLOCKS
  0
BLOCK
  5
D
100
AcDbEntity
  8
0
100
AcDbBlockBegin
  2
*MODEL_SPACE
 70
     0
 10
0.0
 20
0.0
 30
0.0
  3
*MODEL_SPACE
  1

  0
ENDBLK
  5
E
100
AcDbEntity
  8
0
100
AcDbBlockEnd
  0
BLOCK
  5
F
100
AcDbEntity
 67
     1
  8
0
100
AcDbBlockBegin
  2
*PAPER_SPACE
 70
     0
 10
0.0
 20
0.0
 30
0.0
  3
*PAPER_SPACE
  1

  0
ENDBLK
  5
10
100
AcDbEntity
 67
     1
  8
0
100
AcDbBlockEnd
  0
ENDSEC
  0
SECTION
  2
ENTITIES
  0
LINE
  5
2B
100
AcDbEntity
  8
0
370
    -3
  6
CENTER
100
AcDbLine
 10
-78.582077
 20
-107.217516
 30
0.0
 11
-78.582077
 21
-65.485925
 31
0.0
  0
LINE
  5
2C
100
AcDbEntity
  8
0
370
    -3
  6
CENTER
100
AcDbLine
 10
-97.785007
 20
-86.169193
 30
0.0
 11
-56.053416
 21
-86.169193
 31
0.0
  0
CIRCLE
  5
2D
100
AcDbEntity
  8
0
370
    -3
  6
Continuous
100
AcDbCircle
 10
-78.582077
 20
-86.169193
 30
0.0
 40
4.0
  0
CIRCLE
  5
2E
100
AcDbEntity
  8
0
370
    -3
  6
Continuous
100
AcDbCircle
 10
-78.582077
 20
-86.169193
 30
0.0
 40
3.5
  0
LINE
  5
2F
100
AcDbEntity
  8
0
370
    -3
  6
Continuous
100
AcDbLine
 10
-82.582077
 20
-69.169193
 30
0.0
 11
-74.582077
 21
-69.169193
 31
0.0
  0
LINE
  5
30
100
AcDbEntity
  8
0
370
    -3
  6
Continuous
100
AcDbLine
 10
-82.582077
 20
-69.169193
 30
0.0
 11
-82.582077
 21
-76.169193
 31
0.0
  0
LINE
  5
31
100
AcDbEntity
  8
0
370
    -3
  6
Continuous
100
AcDbLine
 10
-82.582077
 20
-76.169193
 30
0.0
 11
-74.582077
 21
-76.169193
 31
0.0
  0
LINE
  5
32
100
AcDbEntity
  8
0
370
    -3
  6
Continuous
100
AcDbLine
 10
-74.582077
 20
-69.169193
 30
0.0
 11
-74.582077
 21
-76.169193
 31
0.0
  0
ARC
  5
33
100
AcDbEntity
  8
0
370
    -3
  6
Continuous
100
AcDbCircle
 10
-78.582077
 20
-86.169193
 30
0.0
 40
14.0
100
AcDbArc
 50
106.60155
 51
73.39845
  0
LINE
  5
34
100
AcDbEntity
  8
0
370
    -3
  6
Continuous
100
AcDbLine
 10
173.917923
 20
-154.669193
 30
0.0
 11
173.917923
 21
-101.169193
 31
0.0
  0
LINE
  5
35
100
AcDbEntity
  8
0
370
    -3
  6
Continuous
100
AcDbLine
 10
173.917923
 20
-47.669193
 30
0.0
 11
173.917923
 21
-101.169193
 31
0.0
  0
LINE
  5
36
100
AcDbEntity
  8
0
370
    -3
  6
Continuous
100
AcDbLine
 10
173.917923
 20
-47.669193
 30
0.0
 11
173.917923
 21
-101.169193
 31
0.0
  0
LINE
  5
37
100
AcDbEntity
  8
0
370
    -3
  6
Continuous
100
AcDbLine
 10
173.917923
 20
-154.669193
 30
0.0
 11
173.917923
 21
-101.169193
 31
0.0
  0
LINE
  5
38
100
AcDbEntity
  8
0
370
    -3
  6
Continuous
100
AcDbLine
 10
165.917923
 20
-145.669193
 30
0.0
 11
158.917923
 21
-145.669193
 31
0.0
  0
LINE
  5
39
100
AcDbEntity
  8
0
370
    -3
  6
Continuous
100
AcDbLine
 10
166.917923
 20
-142.598844
 30
0.0
 11
158.917923
 21
-142.598844
 31
0.0
  0
LINE
  5
3A
100
AcDbEntity
  8
0
370
    -3
  6
Continuous
100
AcDbLine
 10
166.917923
 20
-59.739541
 30
0.0
 11
158.917923
 21
-59.739541
 31
0.0
  0
LINE
  5
3B
100
AcDbEntity
  8
0
370
    -3
  6
Continuous
100
AcDbLine
 10
165.917923
 20
-56.669193
 30
0.0
 11
158.917923
 21
-56.669193
 31
0.0
  0
LINE
  5
3C
100
AcDbEntity
  8
0
370
    -3
  6
Continuous
100
AcDbLine
 10
173.917923
 20
-154.686651
 30
0.0
 11
148.365566
 21
-155.080303
 31
0.0
  0
LINE
  5
3D
100
AcDbEntity
  8
0
370
    -3
  6
Continuous
100
AcDbLine
 10
168.917923
 20
-148.669193
 30
0.0
 11
168.917923
 21
-152.721253
 31
0.0
  0
LINE
  5
3E
100
AcDbEntity
  8
0
370
    -3
  6
Continuous
100
AcDbLine
 10
160.613242
 20
-135.061359
 30
0.0
 11
165.917923
 21
-135.061359
 31
0.0
  0
LINE
  5
3F
100
AcDbEntity
  8
0
370
    -3
  6
Continuous
100
AcDbLine
 10
168.917923
 20
-101.169193
 30
0.0
 11
168.917923
 21
-140.598844
 31
0.0
  0
LINE
  5
40
100
AcDbEntity
  8
0
370
    -3
  6
Continuous
100
AcDbLine
 10
168.917923
 20
-121.169193
 30
0.0
 11
173.917923
 21
-121.169193
 31
0.0
  0
LINE
  5
41
100
AcDbEntity
  8
0
370
    -3
  6
Continuous
100
AcDbLine
 10
168.917923
 20
-81.169193
 30
0.0
 11
173.917923
 21
-81.169193
 31
0.0
  0
LINE
  5
42
100
AcDbEntity
  8
0
370
    -3
  6
Continuous
100
AcDbLine
 10
160.852912
 20
-67.277027
 30
0.0
 11
165.917923
 21
-67.277027
 31
0.0
  0
LINE
  5
43
100
AcDbEntity
  8
0
370
    -3
  6
Continuous
100
AcDbLine
 10
168.917923
 20
-101.169193
 30
0.0
 11
168.917923
 21
-61.739541
 31
0.0
  0
LINE
  5
44
100
AcDbEntity
  8
0
370
    -3
  6
Continuous
100
AcDbLine
 10
173.917923
 20
-47.651735
 30
0.0
 11
148.365566
 21
-47.258082
 31
0.0
  0
LINE
  5
45
100
AcDbEntity
  8
0
370
    -3
  6
Continuous
100
AcDbLine
 10
168.917923
 20
-53.669193
 30
0.0
 11
168.917923
 21
-49.617132
 31
0.0
  0
ARC
  5
46
100
AcDbEntity
  8
0
370
    -3
  6
Continuous
100
AcDbCircle
 10
166.917923
 20
-61.739541
 30
0.0
 40
2.0
100
AcDbArc
 50
0.0
 51
90.0
  0
ARC
  5
47
100
AcDbEntity
  8
0
370
    -3
  6
Continuous
100
AcDbCircle
 10
165.917923
 20
-53.669193
 30
0.0
 40
3.0
100
AcDbArc
 50
270.0
 51
0.0
  0
ARC
  5
48
100
AcDbEntity
  8
0
370
    -3
  6
Continuous
100
AcDbCircle
 10
170.917923
 20
-49.617132
 30
0.0
 40
2.0
100
AcDbArc
 50
89.0
 51
180.0
  0
ARC
  5
49
100
AcDbEntity
  8
0
370
    -3
  6
Continuous
100
AcDbCircle
 10
165.917923
 20
-70.277027
 30
0.0
 40
3.0
100
AcDbArc
 50
0.0
 51
90.0
  0
ARC
  5
4A
100
AcDbEntity
  8
0
370
    -3
  6
Continuous
100
AcDbCircle
 10
170.917923
 20
-152.721253
 30
0.0
 40
2.0
100
AcDbArc
 50
180.0
 51
271.0
  0
ARC
  5
4B
100
AcDbEntity
  8
0
370
    -3
  6
Continuous
100
AcDbCircle
 10
165.917923
 20
-132.061359
 30
0.0
 40
3.0
100
AcDbArc
 50
270.0
 51
0.0
  0
ARC
  5
4C
100
AcDbEntity
  8
0
370
    -3
  6
Continuous
100
AcDbCircle
 10
166.917923
 20
-140.598844
 30
0.0
 40
2.0
100
AcDbArc
 50
270.0
 51
0.0
  0
ARC
  5
4D
100
AcDbEntity
  8
0
370
    -3
  6
Continuous
100
AcDbCircle
 10
165.917923
 20
-148.669193
 30
0.0
 40
3.0
100
AcDbArc
 50
0.0
 51
90.0
  0
LINE
  5
4E
100
AcDbEntity
  8
0
370
    -3
  6
Continuous
100
AcDbLine
 10
155.917923
 20
-50.442731
 30
0.0
 11
155.917923
 21
-151.895654
 31
0.0
  0
ARC
  5
4F
100
AcDbEntity
  8
0
370
    -3
  6
Continuous
100
AcDbCircle
 10
158.917923
 20
-50.442731
 30
0.0
 40
3.0
100
AcDbArc
 50
89.0
 51
180.0
  0
ARC
  5
50
100
AcDbEntity
  8
0
370
    -3
  6
Continuous
100
AcDbCircle
 10
158.917923
 20
-151.895654
 30
0.0
 40
3.0
100
AcDbArc
 50
180.0
 51
271.0
  0
ARC
  5
51
100
AcDbEntity
  8
0
370
    -3
  6
Continuous
100
AcDbCircle
 10
158.917923
 20
-139.598844
 30
0.0
 40
3.0
100
AcDbArc
 50
180.0
 51
270.0
  0
ARC
  5
52
100
AcDbEntity
  8
0
370
    -3
  6
Continuous
100
AcDbCircle
 10
158.917923
 20
-142.669193
 30
0.0
 40
3.0
100
AcDbArc
 50
180.0
 51
270.0
  0
ARC
  5
53
100
AcDbEntity
  8
0
370
    -3
  6
Continuous
100
AcDbCircle
 10
158.917923
 20
-62.739541
 30
0.0
 40
3.0
100
AcDbArc
 50
90.0
 51
180.0
  0
ARC
  5
54
100
AcDbEntity
  8
0
370
    -3
  6
Continuous
100
AcDbCircle
 10
158.917923
 20
-59.669193
 30
0.0
 40
3.0
100
AcDbArc
 50
90.0
 51
180.0
  0
LINE
  5
55
100
AcDbEntity
  8
0
370
    -3
  6
Continuous
100
AcDbLine
 10
173.917923
 20
-48.669193
 30
0.0
 11
173.917923
 21
-153.669193
 31
0.0
  0
LINE
  5
56
100
AcDbEntity
  8
0
370
    -3
  6
Continuous
100
AcDbLine
 10
173.917923
 20
-47.669193
 30
0.0
 11
173.917923
 21
-101.169193
 31
0.0
  0
LINE
  5
57
100
AcDbEntity
  8
0
370
    -3
  6
Continuous
100
AcDbLine
 10
173.917923
 20
-101.169193
 30
0.0
 11
173.917923
 21
-154.669193
 31
0.0
  0
LINE
  5
58
100
AcDbEntity
  8
0
370
    -3
  6
Continuous
100
AcDbLine
 10
173.917923
 20
-101.169193
 30
0.0
 11
173.917923
 21
-48.669193
 31
0.0
  0
LINE
  5
59
100
AcDbEntity
  8
0
370
    -3
  6
Continuous
100
AcDbLine
 10
42.417923
 20
111.909674
 30
0.0
 11
50.417923
 21
111.909674
 31
0.0
  0
LINE
  5
5A
100
AcDbEntity
  8
0
370
    -3
  6
Continuous
100
AcDbLine
 10
42.417923
 20
111.909674
 30
0.0
 11
42.417923
 21
75.909674
 31
0.0
  0
LINE
  5
5B
100
AcDbEntity
  8
0
370
    -3
  6
Continuous
100
AcDbLine
 10
50.417923
 20
111.909674
 30
0.0
 11
50.417923
 21
75.909674
 31
0.0
  0
ARC
  5
5C
100
AcDbEntity
  8
0
370
    -3
  6
Continuous
100
AcDbCircle
 10
152.917923
 20
133.409674
 30
0.0
 40
3.0
100
AcDbArc
 50
0.0
 51
90.0
  0
LINE
  5
5D
100
AcDbEntity
  8
0
370
    -3
  6
Continuous
100
AcDbLine
 10
152.917923
 20
210.909674
 30
0.0
 11
147.610233
 21
210.909674
 31
0.0
  0
ARC
  5
5E
100
AcDbEntity
  8
0
370
    -3
  6
Continuous
100
AcDbCircle
 10
152.917923
 20
213.909674
 30
0.0
 40
3.0
100
AcDbArc
 50
270.0
 51
0.0
  0
ARC
  5
5F
100
AcDbEntity
  8
0
370
    -3
  6
Continuous
100
AcDbCircle
 10
158.917923
 20
214.356781
 30
0.0
 40
3.0
100
AcDbArc
 50
90.0
 51
180.0
  0
ARC
  5
60
100
AcDbEntity
  8
0
370
    -3
  6
Continuous
100
AcDbCircle
 10
158.917923
 20
217.427129
 30
0.0
 40
3.0
100
AcDbArc
 50
90.0
 51
180.0
  0
LINE
  5
61
100
AcDbEntity
  8
0
370
    -3
  6
Continuous
100
AcDbLine
 10
165.917923
 20
220.427129
 30
0.0
 11
158.917923
 21
220.427129
 31
0.0
  0
LINE
  5
62
100
AcDbEntity
  8
0
370
    -3
  6
Continuous
100
AcDbLine
 10
166.917923
 20
217.356781
 30
0.0
 11
158.917923
 21
217.356781
 31
0.0
  0
ARC
  5
63
100
AcDbEntity
  8
0
370
    -3
  6
Continuous
100
AcDbCircle
 10
170.917923
 20
227.47919
 30
0.0
 40
2.0
100
AcDbArc
 50
89.0
 51
180.0
  0
LINE
  5
64
100
AcDbEntity
  8
0
370
    -3
  6
Continuous
100
AcDbLine
 10
168.917923
 20
223.427129
 30
0.0
 11
168.917923
 21
227.47919
 31
0.0
  0
ARC
  5
65
100
AcDbEntity
  8
0
370
    -3
  6
Continuous
100
AcDbCircle
 10
165.917923
 20
206.819295
 30
0.0
 40
3.0
100
AcDbArc
 50
0.0
 51
90.0
  0
ARC
  5
66
100
AcDbEntity
  8
0
370
    -3
  6
Continuous
100
AcDbCircle
 10
166.917923
 20
215.356781
 30
0.0
 40
2.0
100
AcDbArc
 50
0.0
 51
90.0
  0
LINE
  5
67
100
AcDbEntity
  8
0
370
    -3
  6
Continuous
100
AcDbLine
 10
160.613241
 20
209.819295
 30
0.0
 11
165.917923
 21
209.819295
 31
0.0
  0
ARC
  5
68
100
AcDbEntity
  8
0
370
    -3
  6
Continuous
100
AcDbCircle
 10
165.917923
 20
223.427129
 30
0.0
 40
3.0
100
AcDbArc
 50
270.0
 51
0.0
  0
LINE
  5
69
100
AcDbEntity
  8
0
370
    -3
  6
Continuous
100
AcDbLine
 10
168.917923
 20
195.927129
 30
0.0
 11
173.917923
 21
195.927129
 31
0.0
  0
LINE
  5
6A
100
AcDbEntity
  8
0
370
    -3
  6
Continuous
100
AcDbLine
 10
168.917923
 20
175.927129
 30
0.0
 11
168.917923
 21
215.356781
 31
0.0
  0
LINE
  5
6B
100
AcDbEntity
  8
0
370
    -3
  6
Continuous
100
AcDbLine
 10
155.917923
 20
125.148302
 30
0.0
 11
155.917923
 21
226.705956
 31
0.0
  0
ARC
  5
6C
100
AcDbEntity
  8
0
370
    -3
  6
Continuous
100
AcDbCircle
 10
158.917923
 20
137.497478
 30
0.0
 40
3.0
100
AcDbArc
 50
180.0
 51
270.0
  0
ARC
  5
6D
100
AcDbEntity
  8
0
370
    -3
  6
Continuous
100
AcDbCircle
 10
158.917923
 20
134.427129
 30
0.0
 40
3.0
100
AcDbArc
 50
180.0
 51
270.0
  0
LINE
  5
6E
100
AcDbEntity
  8
0
370
    -3
  6
Continuous
100
AcDbLine
 10
166.917923
 20
134.497478
 30
0.0
 11
158.917923
 21
134.497478
 31
0.0
  0
LINE
  5
6F
100
AcDbEntity
  8
0
370
    -3
  6
Continuous
100
AcDbLine
 10
165.917923
 20
131.427129
 30
0.0
 11
158.917923
 21
131.427129
 31
0.0
  0
LINE
  5
70
100
AcDbEntity
  8
0
370
    -3
  6
Continuous
100
AcDbLine
 10
160.852912
 20
142.034963
 30
0.0
 11
165.917923
 21
142.034963
 31
0.0
  0
ARC
  5
71
100
AcDbEntity
  8
0
370
    -3
  6
Continuous
100
AcDbCircle
 10
165.917923
 20
145.034963
 30
0.0
 40
3.0
100
AcDbArc
 50
270.0
 51
0.0
  0
ARC
  5
72
100
AcDbEntity
  8
0
370
    -3
  6
Continuous
100
AcDbCircle
 10
166.917923
 20
136.497478
 30
0.0
 40
2.0
100
AcDbArc
 50
270.0
 51
0.0
  0
LINE
  5
73
100
AcDbEntity
  8
0
370
    -3
  6
Continuous
100
AcDbLine
 10
168.917923
 20
175.927129
 30
0.0
 11
168.917923
 21
136.497478
 31
0.0
  0
ARC
  5
74
100
AcDbEntity
  8
0
370
    -3
  6
Continuous
100
AcDbCircle
 10
165.917923
 20
128.427129
 30
0.0
 40
3.0
100
AcDbArc
 50
0.0
 51
90.0
  0
ARC
  5
75
100
AcDbEntity
  8
0
370
    -3
  6
Continuous
100
AcDbCircle
 10
170.917923
 20
124.375069
 30
0.0
 40
2.0
100
AcDbArc
 50
180.0
 51
271.0
  0
LINE
  5
76
100
AcDbEntity
  8
0
370
    -3
  6
Continuous
100
AcDbLine
 10
168.917923
 20
128.427129
 30
0.0
 11
168.917923
 21
124.375069
 31
0.0
  0
LINE
  5
77
100
AcDbEntity
  8
0
370
    -3
  6
Continuous
100
AcDbLine
 10
145.627384
 20
212.909674
 30
0.0
 11
145.417923
 21
224.909674
 31
0.0
  0
LINE
  5
78
100
AcDbEntity
  8
0
370
    -3
  6
Continuous
100
AcDbLine
 10
-14.372616
 20
212.909674
 30
0.0
 11
-13.028576
 21
136.909674
 31
0.0
  0
LINE
  5
79
100
AcDbEntity
  8
0
370
    -3
  6
Continuous
100
AcDbLine
 10
-14.136973
 20
224.909674
 30
0.0
 11
-14.346434
 21
212.909674
 31
0.0
  0
LINE
  5
7A
100
AcDbEntity
  8
0
370
    -3
  6
Continuous
100
AcDbLine
 10
-13.028576
 20
136.909674
 30
0.0
 11
-13.028576
 21
126.909674
 31
0.0
  0
LINE
  5
7B
100
AcDbEntity
  8
0
370
    -3
  6
Continuous
100
AcDbLine
 10
144.274616
 20
136.909674
 30
0.0
 11
144.274616
 21
126.909674
 31
0.0
  0
LINE
  5
7C
100
AcDbEntity
  8
0
370
    -3
  6
Continuous
100
AcDbLine
 10
145.618656
 20
212.909674
 30
0.0
 11
144.274616
 21
136.909674
 31
0.0
  0
LINE
  5
7D
100
AcDbEntity
  8
0
370
    -3
  6
Continuous
100
AcDbLine
 10
144.274616
 20
126.909674
 30
0.0
 11
101.010453
 21
126.909674
 31
0.0
  0
LINE
  5
7E
100
AcDbEntity
  8
0
370
    -3
  6
Continuous
100
AcDbLine
 10
3.917923
 20
228.909674
 30
0.0
 11
88.917923
 21
228.909674
 31
0.0
  0
LINE
  5
7F
100
AcDbEntity
  8
0
370
    -3
  6
Continuous
100
AcDbLine
 10
145.417923
 20
224.909674
 30
0.0
 11
101.010453
 21
224.909674
 31
0.0
  0
LINE
  5
80
100
AcDbEntity
  8
0
370
    -3
  6
Continuous
100
AcDbLine
 10
101.010453
 20
126.909674
 30
0.0
 11
-13.028576
 21
126.909674
 31
0.0
  0
LINE
  5
81
100
AcDbEntity
  8
0
370
    -3
  6
Continuous
100
AcDbLine
 10
101.010453
 20
224.909674
 30
0.0
 11
-14.136973
 21
224.909674
 31
0.0
  0
LINE
  5
82
100
AcDbEntity
  8
0
370
    -3
  6
Continuous
100
AcDbLine
 10
88.917923
 20
228.909674
 30
0.0
 11
88.917923
 21
224.909674
 31
0.0
  0
LINE
  5
83
100
AcDbEntity
  8
0
370
    -3
  6
Continuous
100
AcDbLine
 10
-14.372616
 20
212.909674
 30
0.0
 11
145.618656
 21
212.909674
 31
0.0
  0
LINE
  5
84
100
AcDbEntity
  8
0
370
    -3
  6
Continuous
100
AcDbLine
 10
3.917923
 20
126.909674
 30
0.0
 11
3.917923
 21
122.909674
 31
0.0
  0
LINE
  5
85
100
AcDbEntity
  8
0
370
    -3
  6
Continuous
100
AcDbLine
 10
3.917923
 20
228.909674
 30
0.0
 11
3.917923
 21
224.909674
 31
0.0
  0
LINE
  5
86
100
AcDbEntity
  8
0
370
    -3
  6
Continuous
100
AcDbLine
 10
88.917923
 20
126.909674
 30
0.0
 11
88.917923
 21
122.909674
 31
0.0
  0
LINE
  5
87
100
AcDbEntity
  8
0
370
    -3
  6
Continuous
100
AcDbLine
 10
88.917923
 20
122.909674
 30
0.0
 11
3.917923
 21
122.909674
 31
0.0
  0
ARC
  5
88
100
AcDbEntity
  8
0
370
    -3
  6
Continuous
100
AcDbCircle
 10
147.610233
 20
212.909674
 30
0.0
 40
2.0
100
AcDbArc
 50
179.0
 51
270.0
  0
ARC
  5
89
100
AcDbEntity
  8
0
370
    -3
  6
Continuous
100
AcDbCircle
 10
146.274616
 20
134.409674
 30
0.0
 40
2.0
100
AcDbArc
 50
90.0
 51
180.0
  0
ARC
  5
8A
100
AcDbEntity
  8
0
370
    -3
  6
Continuous
100
AcDbCircle
 10
158.917923
 20
125.148302
 30
0.0
 40
3.0
100
AcDbArc
 50
180.0
 51
271.0
  0
ARC
  5
8B
100
AcDbEntity
  8
0
370
    -3
  6
Continuous
100
AcDbCircle
 10
158.917923
 20
226.705956
 30
0.0
 40
3.0
100
AcDbArc
 50
89.0
 51
180.0
  0
LINE
  5
8C
100
AcDbEntity
  8
0
370
    -3
  6
Continuous
100
AcDbLine
 10
146.274616
 20
136.409674
 30
0.0
 11
152.917923
 21
136.409674
 31
0.0
  0
LINE
  5
8D
100
AcDbEntity
  8
0
370
    -3
  6
Continuous
100
AcDbLine
 10
173.917923
 20
229.444587
 30
0.0
 11
158.97028
 21
229.705499
 31
0.0
  0
LINE
  5
8E
100
AcDbEntity
  8
0
370
    -3
  6
Continuous
100
AcDbLine
 10
173.917923
 20
122.409671
 30
0.0
 11
158.97028
 21
122.148759
 31
0.0
  0
LINE
  5
8F
100
AcDbEntity
  8
0
370
    -3
  6
CENTER
100
AcDbLine
 10
46.417923
 20
67.63147
 30
0.0
 11
46.417923
 21
238.082568
 31
0.0
  0
ARC
  5
90
100
AcDbEntity
  8
0
370
    -3
  6
Continuous
100
AcDbCircle
 10
46.417923
 20
111.909674
 30
0.0
 40
4.0
100
AcDbArc
 50
0.0
 51
180.0
  0
LINE
  5
91
100
AcDbEntity
  8
0
370
    -3
  6
Continuous
100
AcDbLine
 10
60.417923
 20
120.909674
 30
0.0
 11
60.417923
 21
75.909674
 31
0.0
  0
LINE
  5
92
100
AcDbEntity
  8
0
370
    -3
  6
Continuous
100
AcDbLine
 10
32.417923
 20
120.909674
 30
0.0
 11
32.417923
 21
75.909674
 31
0.0
  0
LINE
  5
93
100
AcDbEntity
  8
0
370
    -3
  6
Continuous
100
AcDbLine
 10
46.417923
 20
120.909674
 30
0.0
 11
31.917923
 21
120.909674
 31
0.0
  0
LINE
  5
94
100
AcDbEntity
  8
0
370
    -3
  6
Continuous
100
AcDbLine
 10
46.417923
 20
120.909674
 30
0.0
 11
31.917923
 21
120.909674
 31
0.0
  0
LINE
  5
95
100
AcDbEntity
  8
0
370
    -3
  6
Continuous
100
AcDbLine
 10
31.917923
 20
120.909674
 30
0.0
 11
31.917923
 21
122.909674
 31
0.0
  0
LINE
  5
96
100
AcDbEntity
  8
0
370
    -3
  6
Continuous
100
AcDbLine
 10
46.417923
 20
120.909674
 30
0.0
 11
60.917923
 21
120.909674
 31
0.0
  0
LINE
  5
97
100
AcDbEntity
  8
0
370
    -3
  6
Continuous
100
AcDbLine
 10
46.417923
 20
120.909674
 30
0.0
 11
60.917923
 21
120.909674
 31
0.0
  0
LINE
  5
98
100
AcDbEntity
  8
0
370
    -3
  6
Continuous
100
AcDbLine
 10
60.917923
 20
120.909674
 30
0.0
 11
60.917923
 21
122.909674
 31
0.0
  0
LINE
  5
99
100
AcDbEntity
  8
0
370
    -3
  6
CENTER
100
AcDbLine
 10
-22.463398
 20
175.909674
 30
0.0
 11
363.791599
 21
175.909674
 31
0.0
  0
LINE
  5
9A
100
AcDbEntity
  8
0
370
    -3
  6
Continuous
100
AcDbLine
 10
168.917923
 20
155.892219
 30
0.0
 11
173.917923
 21
155.892219
 31
0.0
  0
LINE
  5
9B
100
AcDbEntity
  8
0
370
    -3
  6
Continuous
100
AcDbLine
 10
60.417923
 20
75.909674
 30
0.0
 11
32.417923
 21
75.909674
 31
0.0
  0
LINE
  5
9C
100
AcDbEntity
  8
0
370
    -3
  6
Continuous
100
AcDbLine
 10
173.917923
 20
175.927129
 30
0.0
 11
173.917923
 21
229.427129
 31
0.0
  0
LINE
  5
9D
100
AcDbEntity
  8
0
370
    -3
  6
Continuous
100
AcDbLine
 10
173.917923
 20
175.927129
 30
0.0
 11
173.917923
 21
122.427129
 31
0.0
  0
LINE
  5
9E
100
AcDbEntity
  8
0
370
    -3
  6
Continuous
100
AcDbLine
 10
173.917923
 20
175.909674
 30
0.0
 11
173.917923
 21
123.409674
 31
0.0
  0
LINE
  5
9F
100
AcDbEntity
  8
0
370
    -3
  6
Continuous
100
AcDbLine
 10
173.917923
 20
175.909674
 30
0.0
 11
173.917923
 21
122.409674
 31
0.0
  0
LINE
  5
A0
100
AcDbEntity
  8
0
370
    -3
  6
Continuous
100
AcDbLine
 10
173.917923
 20
175.909674
 30
0.0
 11
173.917923
 21
228.409674
 31
0.0
  0
LINE
  5
A1
100
AcDbEntity
  8
0
370
    -3
  6
Continuous
100
AcDbLine
 10
173.917923
 20
175.909674
 30
0.0
 11
173.917923
 21
229.409674
 31
0.0
  0
LINE
  5
A2
100
AcDbEntity
  8
0
370
    -3
  6
Continuous
100
AcDbLine
 10
173.917923
 20
123.409674
 30
0.0
 11
173.917923
 21
175.909674
 31
0.0
  0
LINE
  5
A3
100
AcDbEntity
  8
0
370
    -3
  6
Continuous
100
AcDbLine
 10
173.917923
 20
228.409674
 30
0.0
 11
173.917923
 21
175.909674
 31
0.0
  0
LINE
  5
A4
100
AcDbEntity
  8
0
370
    -3
  6
Continuous
100
AcDbLine
 10
227.749444
 20
-47.669193
 30
0.0
 11
266.086385
 21
-47.669193
 31
0.0
  0
LINE
  5
A5
100
AcDbEntity
  8
0
370
    -3
  6
Continuous
100
AcDbLine
 10
272.917915
 20
-133.069398
 30
0.0
 11
173.917923
 21
-133.069398
 31
0.0
  0
LINE
  5
A6
100
AcDbEntity
  8
0
370
    -3
  6
Continuous
100
AcDbLine
 10
272.917915
 20
-134.268987
 30
0.0
 11
173.917923
 21
-134.268987
 31
0.0
  0
LINE
  5
A7
100
AcDbEntity
  8
0
370
    -3
  6
Continuous
100
AcDbLine
 10
272.917915
 20
-151.669193
 30
0.0
 11
173.917923
 21
-151.669193
 31
0.0
  0
LINE
  5
A8
100
AcDbEntity
  8
0
370
    -3
  6
Continuous
100
AcDbLine
 10
272.917915
 20
-152.169193
 30
0.0
 11
173.917923
 21
-152.169193
 31
0.0
  0
LINE
  5
A9
100
AcDbEntity
  8
0
370
    -3
  6
Continuous
100
AcDbLine
 10
272.917915
 20
-69.268987
 30
0.0
 11
173.917923
 21
-69.268987
 31
0.0
  0
LINE
  5
AA
100
AcDbEntity
  8
0
370
    -3
  6
Continuous
100
AcDbLine
 10
272.917915
 20
-68.069398
 30
0.0
 11
173.917923
 21
-68.069398
 31
0.0
  0
LINE
  5
AB
100
AcDbEntity
  8
0
370
    -3
  6
Continuous
100
AcDbLine
 10
272.917915
 20
-50.669193
 30
0.0
 11
173.917923
 21
-50.669193
 31
0.0
  0
LINE
  5
AC
100
AcDbEntity
  8
0
370
    -3
  6
Continuous
100
AcDbLine
 10
272.917915
 20
-50.169193
 30
0.0
 11
173.917923
 21
-50.169193
 31
0.0
  0
LINE
  5
AD
100
AcDbEntity
  8
0
370
    -3
  6
Continuous
100
AcDbLine
 10
272.917915
 20
-53.842596
 30
0.0
 11
173.917923
 21
-53.842596
 31
0.0
  0
LINE
  5
AE
100
AcDbEntity
  8
0
370
    -3
  6
Continuous
100
AcDbLine
 10
272.917915
 20
-60.736745
 30
0.0
 11
173.917923
 21
-60.736745
 31
0.0
  0
LINE
  5
AF
100
AcDbEntity
  8
0
370
    -3
  6
Continuous
100
AcDbLine
 10
272.917915
 20
-78.268987
 30
0.0
 11
173.917923
 21
-78.268987
 31
0.0
  0
LINE
  5
B0
100
AcDbEntity
  8
0
370
    -3
  6
Continuous
100
AcDbLine
 10
272.917915
 20
-77.069398
 30
0.0
 11
173.917923
 21
-77.069398
 31
0.0
  0
LINE
  5
B1
100
AcDbEntity
  8
0
370
    -3
  6
Continuous
100
AcDbLine
 10
272.917915
 20
-73.768987
 30
0.0
 11
173.917923
 21
-73.768987
 31
0.0
  0
LINE
  5
B2
100
AcDbEntity
  8
0
370
    -3
  6
Continuous
100
AcDbLine
 10
272.917915
 20
-72.569398
 30
0.0
 11
173.917923
 21
-72.569398
 31
0.0
  0
LINE
  5
B3
100
AcDbEntity
  8
0
370
    -3
  6
Continuous
100
AcDbLine
 10
272.917915
 20
-124.069398
 30
0.0
 11
173.917923
 21
-124.069398
 31
0.0
  0
LINE
  5
B4
100
AcDbEntity
  8
0
370
    -3
  6
Continuous
100
AcDbLine
 10
272.917915
 20
-125.268987
 30
0.0
 11
173.917923
 21
-125.268987
 31
0.0
  0
LINE
  5
B5
100
AcDbEntity
  8
0
370
    -3
  6
Continuous
100
AcDbLine
 10
272.917915
 20
-128.569398
 30
0.0
 11
173.917923
 21
-128.569398
 31
0.0
  0
LINE
  5
B6
100
AcDbEntity
  8
0
370
    -3
  6
Continuous
100
AcDbLine
 10
272.917915
 20
-129.768987
 30
0.0
 11
173.917923
 21
-129.768987
 31
0.0
  0
LINE
  5
B7
100
AcDbEntity
  8
0
370
    -3
  6
Continuous
100
AcDbLine
 10
272.917915
 20
-82.768987
 30
0.0
 11
173.917923
 21
-82.768987
 31
0.0
  0
LINE
  5
B8
100
AcDbEntity
  8
0
370
    -3
  6
Continuous
100
AcDbLine
 10
272.917915
 20
-81.555278
 30
0.0
 11
173.917923
 21
-81.555278
 31
0.0
  0
LINE
  5
B9
100
AcDbEntity
  8
0
370
    -3
  6
Continuous
100
AcDbLine
 10
173.917923
 20
-154.669193
 30
0.0
 11
272.917915
 21
-154.669193
 31
0.0
  0
LINE
  5
BA
100
AcDbEntity
  8
0
370
    -3
  6
Continuous
100
AcDbLine
 10
272.917915
 20
-141.60164
 30
0.0
 11
173.917923
 21
-141.60164
 31
0.0
  0
LINE
  5
BB
100
AcDbEntity
  8
0
370
    -3
  6
Continuous
100
AcDbLine
 10
272.917915
 20
-148.495789
 30
0.0
 11
173.917923
 21
-148.495789
 31
0.0
  0
LINE
  5
BC
100
AcDbEntity
  8
0
370
    -3
  6
Continuous
100
AcDbLine
 10
272.917915
 20
-119.562353
 30
0.0
 11
173.917923
 21
-119.562353
 31
0.0
  0
LINE
  5
BD
100
AcDbEntity
  8
0
370
    -3
  6
Continuous
100
AcDbLine
 10
272.917915
 20
-115.169193
 30
0.0
 11
173.917923
 21
-115.169193
 31
0.0
  0
LINE
  5
BE
100
AcDbEntity
  8
0
370
    -3
  6
Continuous
100
AcDbLine
 10
272.917915
 20
-120.783107
 30
0.0
 11
173.917923
 21
-120.783107
 31
0.0
  0
LINE
  5
BF
100
AcDbEntity
  8
0
370
    -3
  6
Continuous
100
AcDbLine
 10
272.917915
 20
-87.169193
 30
0.0
 11
173.917923
 21
-87.169193
 31
0.0
  0
LINE
  5
C0
100
AcDbEntity
  8
0
370
    -3
  6
Continuous
100
AcDbLine
 10
173.917923
 20
-47.669193
 30
0.0
 11
220.124444
 21
-47.669193
 31
0.0
  0
LINE
  5
C1
100
AcDbEntity
  8
0
370
    -3
  6
Continuous
100
AcDbLine
 10
272.917915
 20
-160.169141
 30
0.0
 11
272.917915
 21
-101.169141
 31
0.0
  0
LINE
  5
C2
100
AcDbEntity
  8
0
370
    -3
  6
Continuous
100
AcDbLine
 10
272.917915
 20
-49.829444
 30
0.0
 11
272.917915
 21
-101.169141
 31
0.0
  0
ARC
  5
C3
100
AcDbEntity
  8
0
370
    -3
  6
Continuous
100
AcDbCircle
 10
275.917915
 20
-49.829444
 30
0.0
 40
3.0
100
AcDbArc
 50
90.0
 51
180.0
  0
LINE
  5
C4
100
AcDbEntity
  8
0
370
    -3
  6
Continuous
100
AcDbLine
 10
279.917915
 20
-46.829444
 30
0.0
 11
275.917915
 21
-46.829444
 31
0.0
  0
ARC
  5
C5
100
AcDbEntity
  8
0
370
    -3
  6
Continuous
100
AcDbCircle
 10
279.917915
 20
-43.829444
 30
0.0
 40
3.0
100
AcDbArc
 50
270.0
 51
0.0
  0
LINE
  5
C6
100
AcDbEntity
  8
0
370
    -3
  6
Continuous
100
AcDbLine
 10
282.917915
 20
-42.169141
 30
0.0
 11
282.917915
 21
-43.829444
 31
0.0
  0
LINE
  5
C7
100
AcDbEntity
  8
0
370
    -3
  6
Continuous
100
AcDbLine
 10
282.917915
 20
-42.169141
 30
0.0
 11
328.422759
 21
-42.169141
 31
0.0
  0
ARC
  5
C8
100
AcDbEntity
  8
0
370
    -3
  6
Continuous
100
AcDbCircle
 10
328.422759
 20
-62.769141
 30
0.0
 40
20.6
100
AcDbArc
 50
55.0
 51
90.0
  0
LINE
  5
C9
100
AcDbEntity
  8
0
370
    -3
  6
Continuous
100
AcDbLine
 10
340.238434
 20
-45.894609
 30
0.0
 11
347.809213
 21
-51.195725
 31
0.0
  0
ARC
  5
CA
100
AcDbEntity
  8
0
370
    -3
  6
Continuous
100
AcDbCircle
 10
346.317915
 20
-53.32552
 30
0.0
 40
2.6
100
AcDbArc
 50
0.0
 51
55.0
  0
LINE
  5
CB
100
AcDbEntity
  8
0
370
    -3
  6
Continuous
100
AcDbLine
 10
348.917915
 20
-53.32552
 30
0.0
 11
348.917915
 21
-101.169141
 31
0.0
  0
LINE
  5
CC
100
AcDbEntity
  8
0
370
    -3
  6
Continuous
100
AcDbLine
 10
348.917915
 20
-149.012761
 30
0.0
 11
348.917915
 21
-101.169141
 31
0.0
  0
ARC
  5
CD
100
AcDbEntity
  8
0
370
    -3
  6
Continuous
100
AcDbCircle
 10
346.317915
 20
-149.012761
 30
0.0
 40
2.6
100
AcDbArc
 50
305.0
 51
0.0
  0
LINE
  5
CE
100
AcDbEntity
  8
0
370
    -3
  6
Continuous
100
AcDbLine
 10
340.238434
 20
-156.443673
 30
0.0
 11
347.809213
 21
-151.142556
 31
0.0
  0
ARC
  5
CF
100
AcDbEntity
  8
0
370
    -3
  6
Continuous
100
AcDbCircle
 10
328.422759
 20
-139.569141
 30
0.0
 40
20.6
100
AcDbArc
 50
270.0
 51
305.0
  0
LINE
  5
D0
100
AcDbEntity
  8
0
370
    -3
  6
Continuous
100
AcDbLine
 10
272.917915
 20
-160.169141
 30
0.0
 11
328.422759
 21
-160.169141
 31
0.0
  0
LINE
  5
D1
100
AcDbEntity
  8
0
370
    -3
  6
Continuous
100
AcDbLine
 10
283.917915
 20
-52.02522
 30
0.0
 11
285.917915
 21
-53.677861
 31
0.0
  0
LINE
  5
D2
100
AcDbEntity
  8
0
370
    -3
  6
Continuous
100
AcDbLine
 10
281.917915
 20
-50.849434
 30
0.0
 11
283.917915
 21
-52.02522
 31
0.0
  0
LINE
  5
D3
100
AcDbEntity
  8
0
370
    -3
  6
Continuous
100
AcDbLine
 10
283.917915
 20
-52.02522
 30
0.0
 11
281.917915
 21
-53.677861
 31
0.0
  0
LINE
  5
D4
100
AcDbEntity
  8
0
370
    -3
  6
Continuous
100
AcDbLine
 10
285.917915
 20
-50.849434
 30
0.0
 11
283.917915
 21
-52.02522
 31
0.0
  0
ELLIPSE
  5
D5
100
AcDbEntity
  8
0
370
    -3
  6
Continuous
100
AcDbEllipse
 10
283.917915
 20
-53.84181
 30
0.0
 11
4.6999999999999886
 21
0.0000000000000071
 31
0.0
210
0.0
220
0.0
230
1.0
 40
0.766646
 41
0.0
 42
6.2831853071795862
  0
LINE
  5
D6
100
AcDbEntity
  8
0
370
    -3
  6
Continuous
100
AcDbLine
 10
283.917915
 20
-150.313062
 30
0.0
 11
285.917915
 21
-148.66042
 31
0.0
  0
LINE
  5
D7
100
AcDbEntity
  8
0
370
    -3
  6
Continuous
100
AcDbLine
 10
281.917915
 20
-151.488847
 30
0.0
 11
283.917915
 21
-150.313062
 31
0.0
  0
LINE
  5
D8
100
AcDbEntity
  8
0
370
    -3
  6
Continuous
100
AcDbLine
 10
283.917915
 20
-150.313062
 30
0.0
 11
281.917915
 21
-148.66042
 31
0.0
  0
LINE
  5
D9
100
AcDbEntity
  8
0
370
    -3
  6
Continuous
100
AcDbLine
 10
285.917915
 20
-151.488847
 30
0.0
 11
283.917915
 21
-150.313062
 31
0.0
  0
ELLIPSE
  5
DA
100
AcDbEntity
  8
0
370
    -3
  6
Continuous
100
AcDbEllipse
 10
283.917915
 20
-148.496472
 30
0.0
 11
4.6999999999999886
 21
0.0
 31
0.0
210
0.0
220
0.0
230
1.0
 40
0.766646
 41
0.0
 42
6.2831853071795862
  0
LINE
  5
DB
100
AcDbEntity
  8
0
370
    -3
  6
Continuous
100
AcDbLine
 10
-203.582077
 20
-26.48705
 30
0.0
 11
-193.582077
 21
-26.48705
 31
0.0
  0
LINE
  5
DC
100
AcDbEntity
  8
0
370
    -3
  6
Continuous
100
AcDbLine
 10
-291.582077
 20
-25.378654
 30
0.0
 11
-279.582077
 21
-25.169193
 31
0.0
  0
LINE
  5
DD
100
AcDbEntity
  8
0
370
    -3
  6
Continuous
100
AcDbLine
 10
-279.582077
 20
-25.14301
 30
0.0
 11
-203.582077
 21
-26.48705
 31
0.0
  0
LINE
  5
DE
100
AcDbEntity
  8
0
370
    -3
  6
Continuous
100
AcDbLine
 10
-142.582077
 20
-86.169193
 30
0.0
 11
-142.582077
 21
-69.169193
 31
0.0
  0
LINE
  5
DF
100
AcDbEntity
  8
0
370
    -3
  6
Continuous
100
AcDbLine
 10
-142.582077
 20
-86.169193
 30
0.0
 11
-142.582077
 21
-100.169193
 31
0.0
  0
LINE
  5
E0
100
AcDbEntity
  8
0
370
    -3
  6
Continuous
100
AcDbLine
 10
-178.582077
 20
-72.169193
 30
0.0
 11
-178.582077
 21
-69.169193
 31
0.0
  0
LINE
  5
E1
100
AcDbEntity
  8
0
370
    -3
  6
Continuous
100
AcDbLine
 10
-178.582077
 20
-69.169193
 30
0.0
 11
-142.582077
 21
-69.169193
 31
0.0
  0
LINE
  5
E2
100
AcDbEntity
  8
0
370
    -3
  6
CENTER
100
AcDbLine
 10
498.917915
 20
-175.580883
 30
0.0
 11
498.917915
 21
16.217757
 31
0.0
  0
LINE
  5
E3
100
AcDbEntity
  8
0
370
    -3
  6
CENTER
100
AcDbLine
 10
489.920065
 20
-101.151738
 30
0.0
 11
509.908005
 21
-101.151738
 31
0.0
  0
LINE
  5
E4
100
AcDbEntity
  8
0
370
    -3
  6
Continuous
100
AcDbLine
 10
535.917915
 20
-37.413669
 30
0.0
 11
535.917915
 21
-48.43851
 31
0.0
  0
LINE
  5
E5
100
AcDbEntity
  8
0
370
    -3
  6
Continuous
100
AcDbLine
 10
547.917915
 20
-55.296636
 30
0.0
 11
547.917915
 21
-25.378654
 31
0.0
  0
LINE
  5
E6
100
AcDbEntity
  8
0
370
    -3
  6
Continuous
100
AcDbLine
 10
449.917915
 20
-55.296636
 30
0.0
 11
449.917915
 21
-26.48705
 31
0.0
  0
LINE
  5
E7
100
AcDbEntity
  8
0
370
    -3
  6
Continuous
100
AcDbLine
 10
547.917915
 20
-172.959732
 30
0.0
 11
547.917915
 21
-147.041749
 31
0.0
  0
LINE
  5
E8
100
AcDbEntity
  8
0
370
    -3
  6
Continuous
100
AcDbLine
 10
551.917915
 20
-43.669193
 30
0.0
 11
551.917915
 21
-72.881386
 31
0.0
  0
LINE
  5
E9
100
AcDbEntity
  8
0
370
    -3
  6
Continuous
100
AcDbLine
 10
449.917915
 20
-171.816425
 30
0.0
 11
449.917915
 21
-147.041749
 31
0.0
  0
LINE
  5
EA
100
AcDbEntity
  8
0
370
    -3
  6
Continuous
100
AcDbLine
 10
551.917915
 20
-43.669193
 30
0.0
 11
547.917915
 21
-43.669193
 31
0.0
  0
LINE
  5
EB
100
AcDbEntity
  8
0
370
    -3
  6
Continuous
100
AcDbLine
 10
445.917915
 20
-72.881386
 30
0.0
 11
445.917915
 21
-43.669193
 31
0.0
  0
LINE
  5
EC
100
AcDbEntity
  8
0
370
    -3
  6
Continuous
100
AcDbLine
 10
449.917915
 20
-43.669193
 30
0.0
 11
445.917915
 21
-43.669193
 31
0.0
  0
LINE
  5
ED
100
AcDbEntity
  8
0
370
    -3
  6
Continuous
100
AcDbLine
 10
434.917915
 20
-72.169193
 30
0.0
 11
434.917915
 21
-69.169193
 31
0.0
  0
LINE
  5
EE
100
AcDbEntity
  8
0
370
    -3
  6
Continuous
100
AcDbLine
 10
434.917915
 20
-69.169193
 30
0.0
 11
398.917915
 21
-69.169193
 31
0.0
  0
LINE
  5
EF
100
AcDbEntity
  8
0
370
    -3
  6
Continuous
100
AcDbLine
 10
443.917915
 20
-100.669193
 30
0.0
 11
444.918227
 21
-100.669193
 31
0.0
  0
LINE
  5
F0
100
AcDbEntity
  8
0
370
    -3
  6
Continuous
100
AcDbLine
 10
443.917915
 20
-71.669193
 30
0.0
 11
445.917915
 21
-71.669193
 31
0.0
  0
LINE
  5
F1
100
AcDbEntity
  8
0
370
    -3
  6
Continuous
100
AcDbLine
 10
443.917915
 20
-86.169193
 30
0.0
 11
443.917915
 21
-71.669193
 31
0.0
  0
LINE
  5
F2
100
AcDbEntity
  8
0
370
    -3
  6
Continuous
100
AcDbLine
 10
443.917915
 20
-86.169193
 30
0.0
 11
443.917915
 21
-71.669193
 31
0.0
  0
LINE
  5
F3
100
AcDbEntity
  8
0
370
    -3
  6
Continuous
100
AcDbLine
 10
443.917915
 20
-72.169193
 30
0.0
 11
398.917915
 21
-72.169193
 31
0.0
  0
LINE
  5
F4
100
AcDbEntity
  8
0
370
    -3
  6
Continuous
100
AcDbLine
 10
443.917915
 20
-86.169193
 30
0.0
 11
443.917915
 21
-100.669193
 31
0.0
  0
LINE
  5
F5
100
AcDbEntity
  8
0
370
    -3
  6
Continuous
100
AcDbLine
 10
443.917915
 20
-86.169193
 30
0.0
 11
443.917915
 21
-100.669193
 31
0.0
  0
LINE
  5
F6
100
AcDbEntity
  8
0
370
    -3
  6
Continuous
100
AcDbLine
 10
443.917915
 20
-100.169193
 30
0.0
 11
398.917915
 21
-100.169193
 31
0.0
  0
LINE
  5
F7
100
AcDbEntity
  8
0
370
    -3
  6
CENTER
100
AcDbLine
 10
560.996648
 20
-86.169193
 30
0.0
 11
394.831365
 21
-86.169193
 31
0.0
  0
LINE
  5
F8
100
AcDbEntity
  8
0
370
    -3
  6
Continuous
100
AcDbLine
 10
535.917915
 20
-173.160465
 30
0.0
 11
459.917915
 21
-171.816425
 31
0.0
  0
LINE
  5
F9
100
AcDbEntity
  8
0
370
    -3
  6
Continuous
100
AcDbLine
 10
459.917915
 20
-171.816425
 30
0.0
 11
449.917915
 21
-171.816425
 31
0.0
  0
LINE
  5
FA
100
AcDbEntity
  8
0
370
    -3
  6
Continuous
100
AcDbLine
 10
535.917915
 20
-173.169193
 30
0.0
 11
547.917915
 21
-172.959732
 31
0.0
  0
LINE
  5
FB
100
AcDbEntity
  8
0
370
    -3
  6
Continuous
100
AcDbLine
 10
452.117915
 20
-26.48705
 30
0.0
 11
449.917915
 21
-26.48705
 31
0.0
  0
LINE
  5
FC
100
AcDbEntity
  8
0
370
    -3
  6
Continuous
100
AcDbLine
 10
547.917915
 20
-25.378654
 30
0.0
 11
545.717915
 21
-25.340252
 31
0.0
  0
LINE
  5
FD
100
AcDbEntity
  8
0
370
    -3
  6
Continuous
100
AcDbLine
 10
398.917915
 20
-86.169193
 30
0.0
 11
398.917915
 21
-69.169193
 31
0.0
  0
LINE
  5
FE
100
AcDbEntity
  8
0
370
    -3
  6
Continuous
100
AcDbLine
 10
398.917915
 20
-86.169193
 30
0.0
 11
398.917915
 21
-100.169193
 31
0.0
  0
ARC
  5
FF
100
AcDbEntity
  8
0
370
    -3
  6
Continuous
100
AcDbCircle
 10
498.917915
 20
-442.769193
 30
0.0
 40
390.797
100
AcDbArc
 50
87.470639
 51
90.0
  0
ARC
  5
100
100
AcDbEntity
  8
0
370
    -3
  6
Continuous
100
AcDbCircle
 10
498.917915
 20
-442.769193
 30
0.0
 40
400.6
100
AcDbArc
 50
87.470639
 51
90.0
  0
ARC
  5
101
100
AcDbEntity
  8
0
370
    -3
  6
Continuous
100
AcDbCircle
 10
498.917915
 20
-442.769193
 30
0.0
 40
390.797
100
AcDbArc
 50
90.0
 51
92.529361
  0
ARC
  5
102
100
AcDbEntity
  8
0
370
    -3
  6
Continuous
100
AcDbCircle
 10
498.917915
 20
-442.769193
 30
0.0
 40
400.6
100
AcDbArc
 50
90.0
 51
92.529361
  0
LINE
  5
103
100
AcDbEntity
  8
0
370
    -3
  6
Continuous
100
AcDbLine
 10
456.562218
 20
-52.166693
 30
0.0
 11
456.075415
 21
-51.67989
 31
0.0
  0
LINE
  5
104
100
AcDbEntity
  8
0
370
    -3
  6
Continuous
100
AcDbLine
 10
449.915415
 20
-58.813496
 30
0.0
 11
449.428611
 21
-58.326693
 31
0.0
  0
LINE
  5
105
100
AcDbEntity
  8
0
370
    -3
  6
Continuous
100
AcDbLine
 10
456.309671
 20
-51.853554
 30
0.0
 11
449.632572
 21
-58.530654
 31
0.0
  0
LINE
  5
106
100
AcDbEntity
  8
0
370
    -3
  6
Continuous
100
AcDbLine
 10
456.562218
 20
-52.166693
 30
0.0
 11
449.915415
 21
-58.813496
 31
0.0
  0
ARC
  5
107
100
AcDbEntity
  8
0
370
    -3
  6
Continuous
100
AcDbCircle
 10
455.501558
 20
-57.752836
 30
0.0
 40
6.099999
100
AcDbArc
 50
84.601911
 51
185.398072
  0
LINE
  5
108
100
AcDbEntity
  8
0
370
    -3
  6
Continuous
100
AcDbLine
 10
454.317308
 20
-54.411603
 30
0.0
 11
452.138562
 21
-56.590349
 31
0.0
  0
ARC
  5
109
100
AcDbEntity
  8
0
370
    -3
  6
Continuous
100
AcDbCircle
 10
483.025843
 20
-83.120139
 30
0.0
 40
40.6
100
AcDbArc
 50
92.530124
 51
135.0
  0
LINE
  5
10A
100
AcDbEntity
  8
0
370
    -3
  6
Continuous
100
AcDbLine
 10
541.273611
 20
-52.166693
 30
0.0
 11
541.760414
 21
-51.67989
 31
0.0
  0
LINE
  5
10B
100
AcDbEntity
  8
0
370
    -3
  6
Continuous
100
AcDbLine
 10
547.920414
 20
-58.813496
 30
0.0
 11
548.407218
 21
-58.326693
 31
0.0
  0
LINE
  5
10C
100
AcDbEntity
  8
0
370
    -3
  6
Continuous
100
AcDbLine
 10
541.526158
 20
-51.853554
 30
0.0
 11
548.203257
 21
-58.530654
 31
0.0
  0
LINE
  5
10D
100
AcDbEntity
  8
0
370
    -3
  6
Continuous
100
AcDbLine
 10
541.273611
 20
-52.166693
 30
0.0
 11
547.920414
 21
-58.813496
 31
0.0
  0
ARC
  5
10E
100
AcDbEntity
  8
0
370
    -3
  6
Continuous
100
AcDbCircle
 10
542.334271
 20
-57.752836
 30
0.0
 40
6.099999
100
AcDbArc
 50
354.601928
 51
95.398089
  0
LINE
  5
10F
100
AcDbEntity
  8
0
370
    -3
  6
Continuous
100
AcDbLine
 10
543.518521
 20
-54.411603
 30
0.0
 11
545.697267
 21
-56.590349
 31
0.0
  0
ARC
  5
110
100
AcDbEntity
  8
0
370
    -3
  6
Continuous
100
AcDbCircle
 10
514.809986
 20
-83.120139
 30
0.0
 40
40.6
100
AcDbArc
 50
45.0
 51
87.469876
  0
ARC
  5
111
100
AcDbEntity
  8
0
370
    -3
  6
Continuous
100
AcDbCircle
 10
498.917915
 20
240.430807
 30
0.0
 40
400.6
100
AcDbArc
 50
267.470639
 51
270.0
  0
ARC
  5
112
100
AcDbEntity
  8
0
370
    -3
  6
Continuous
100
AcDbCircle
 10
498.917915
 20
240.430807
 30
0.0
 40
400.6
100
AcDbArc
 50
270.0
 51
272.529361
  0
LINE
  5
113
100
AcDbEntity
  8
0
370
    -3
  6
CENTER
100
AcDbLine
 10
437.22112
 20
-101.169193
 30
0.0
 11
560.331095
 21
-101.169193
 31
0.0
  0
LINE
  5
114
100
AcDbEntity
  8
0
370
    -3
  6
Continuous
100
AcDbLine
 10
449.915415
 20
-143.524889
 30
0.0
 11
449.428611
 21
-144.011693
 31
0.0
  0
LINE
  5
115
100
AcDbEntity
  8
0
370
    -3
  6
Continuous
100
AcDbLine
 10
456.562218
 20
-150.171693
 30
0.0
 11
449.915415
 21
-143.524889
 31
0.0
  0
LINE
  5
116
100
AcDbEntity
  8
0
370
    -3
  6
Continuous
100
AcDbLine
 10
456.562218
 20
-150.171693
 30
0.0
 11
456.075415
 21
-150.658496
 31
0.0
  0
LINE
  5
117
100
AcDbEntity
  8
0
370
    -3
  6
Continuous
100
AcDbLine
 10
456.309671
 20
-150.484831
 30
0.0
 11
449.632572
 21
-143.807732
 31
0.0
  0
ARC
  5
118
100
AcDbEntity
  8
0
370
    -3
  6
Continuous
100
AcDbCircle
 10
455.501558
 20
-144.585549
 30
0.0
 40
6.099999
100
AcDbArc
 50
174.601928
 51
275.398089
  0
LINE
  5
119
100
AcDbEntity
  8
0
370
    -3
  6
Continuous
100
AcDbLine
 10
541.273611
 20
-150.171693
 30
0.0
 11
547.920414
 21
-143.524889
 31
0.0
  0
LINE
  5
11A
100
AcDbEntity
  8
0
370
    -3
  6
Continuous
100
AcDbLine
 10
543.518521
 20
-147.926782
 30
0.0
 11
545.697267
 21
-145.748036
 31
0.0
  0
LINE
  5
11B
100
AcDbEntity
  8
0
370
    -3
  6
Continuous
100
AcDbLine
 10
547.920414
 20
-143.524889
 30
0.0
 11
548.407218
 21
-144.011693
 31
0.0
  0
LINE
  5
11C
100
AcDbEntity
  8
0
370
    -3
  6
Continuous
100
AcDbLine
 10
541.273611
 20
-150.171693
 30
0.0
 11
541.760414
 21
-150.658496
 31
0.0
  0
LINE
  5
11D
100
AcDbEntity
  8
0
370
    -3
  6
Continuous
100
AcDbLine
 10
541.526158
 20
-150.484831
 30
0.0
 11
548.203257
 21
-143.807732
 31
0.0
  0
POINT
  5
11E
100
AcDbEntity
  8
0
370
    -3
  6
Continuous
100
AcDbPoint
 10
544.597013
 20
-146.848291
 30
0.0
  0
ARC
  5
11F
100
AcDbEntity
  8
0
370
    -3
  6
Continuous
100
AcDbCircle
 10
542.334271
 20
-144.585549
 30
0.0
 40
6.099999
100
AcDbArc
 50
264.601911
 51
5.398072
  0
ARC
  5
120
100
AcDbEntity
  8
0
370
    -3
  6
Continuous
100
AcDbCircle
 10
152.317915
 20
-101.169193
 30
0.0
 40
390.797
100
AcDbArc
 50
0.0
 51
4.529193
  0
ARC
  5
121
100
AcDbEntity
  8
0
370
    -3
  6
Continuous
100
AcDbCircle
 10
531.130867
 20
-71.156749
 30
0.0
 40
10.797
100
AcDbArc
 50
4.529945
 51
45.0
  0
LINE
  5
122
100
AcDbEntity
  8
0
370
    -3
  6
Continuous
100
AcDbLine
 10
536.586754
 20
-61.343371
 30
0.0
 11
538.765499
 21
-63.522117
 31
0.0
  0
ARC
  5
123
100
AcDbEntity
  8
0
370
    -3
  6
Continuous
100
AcDbCircle
 10
514.809986
 20
-83.120139
 30
0.0
 40
30.797
100
AcDbArc
 50
45.0
 51
87.469876
  0
ARC
  5
124
100
AcDbEntity
  8
0
370
    -3
  6
Continuous
100
AcDbCircle
 10
483.025843
 20
-83.120139
 30
0.0
 40
30.797
100
AcDbArc
 50
92.530124
 51
135.0
  0
LINE
  5
125
100
AcDbEntity
  8
0
370
    -3
  6
Continuous
100
AcDbLine
 10
461.249076
 20
-61.343371
 30
0.0
 11
459.07033
 21
-63.522117
 31
0.0
  0
ARC
  5
126
100
AcDbEntity
  8
0
370
    -3
  6
Continuous
100
AcDbCircle
 10
466.704962
 20
-71.156749
 30
0.0
 40
10.797
100
AcDbArc
 50
135.0
 51
175.470055
  0
ARC
  5
127
100
AcDbEntity
  8
0
370
    -3
  6
Continuous
100
AcDbCircle
 10
845.517915
 20
-101.169193
 30
0.0
 40
390.797
100
AcDbArc
 50
175.470807
 51
180.0
  0
ARC
  5
128
100
AcDbEntity
  8
0
370
    -3
  6
Continuous
100
AcDbCircle
 10
516.574358
 20
-97.669193
 30
0.0
 40
1.0
100
AcDbArc
 50
191.212271
 51
270.0
  0
LINE
  5
129
100
AcDbEntity
  8
0
370
    -3
  6
Continuous
100
AcDbLine
 10
519.624194
 20
-98.669193
 30
0.0
 11
516.574358
 21
-98.669193
 31
0.0
  0
ARC
  5
12A
100
AcDbEntity
  8
0
370
    -3
  6
Continuous
100
AcDbCircle
 10
519.624194
 20
-97.669193
 30
0.0
 40
1.0
100
AcDbArc
 50
270.0
 51
9.594068
  0
ARC
  5
12B
100
AcDbEntity
  8
0
370
    -3
  6
Continuous
100
AcDbCircle
 10
525.185766
 20
-97.669193
 30
0.0
 40
1.0
100
AcDbArc
 50
187.589542
 51
270.0
  0
LINE
  5
12C
100
AcDbEntity
  8
0
370
    -3
  6
Continuous
100
AcDbLine
 10
528.209552
 20
-98.669193
 30
0.0
 11
525.185766
 21
-98.669193
 31
0.0
  0
ARC
  5
12D
100
AcDbEntity
  8
0
370
    -3
  6
Continuous
100
AcDbCircle
 10
528.209552
 20
-97.669193
 30
0.0
 40
1.0
100
AcDbArc
 50
270.0
 51
6.813854
  0
ARC
  5
12E
100
AcDbEntity
  8
0
370
    -3
  6
Continuous
100
AcDbCircle
 10
533.742475
 20
-97.669193
 30
0.0
 40
1.0
100
AcDbArc
 50
185.73917
 51
270.0
  0
LINE
  5
12F
100
AcDbEntity
  8
0
370
    -3
  6
Continuous
100
AcDbLine
 10
536.756387
 20
-98.669193
 30
0.0
 11
533.742475
 21
-98.669193
 31
0.0
  0
ARC
  5
130
100
AcDbEntity
  8
0
370
    -3
  6
Continuous
100
AcDbCircle
 10
536.756387
 20
-97.669193
 30
0.0
 40
1.0
100
AcDbArc
 50
270.0
 51
5.284733
  0
ARC
  5
131
100
AcDbEntity
  8
0
370
    -3
  6
Continuous
100
AcDbCircle
 10
516.594822
 20
-77.551891
 30
0.0
 40
1.0
100
AcDbArc
 50
53.186146
 51
150.0
  0
LINE
  5
132
100
AcDbEntity
  8
0
370
    -3
  6
Continuous
100
AcDbLine
 10
515.728797
 20
-77.051891
 30
0.0
 11
514.216904
 21
-79.670566
 31
0.0
  0
ARC
  5
133
100
AcDbEntity
  8
0
370
    -3
  6
Continuous
100
AcDbCircle
 10
515.082929
 20
-80.170566
 30
0.0
 40
1.0
100
AcDbArc
 50
150.0
 51
232.410458
  0
ARC
  5
134
100
AcDbEntity
  8
0
370
    -3
  6
Continuous
100
AcDbCircle
 10
520.86824
 20
-70.150114
 30
0.0
 40
1.0
100
AcDbArc
 50
54.715267
 51
150.0
  0
LINE
  5
135
100
AcDbEntity
  8
0
370
    -3
  6
Continuous
100
AcDbLine
 10
520.002214
 20
-69.650114
 30
0.0
 11
518.495258
 21
-72.260239
 31
0.0
  0
ARC
  5
136
100
AcDbEntity
  8
0
370
    -3
  6
Continuous
100
AcDbCircle
 10
519.361284
 20
-72.760239
 30
0.0
 40
1.0
100
AcDbArc
 50
150.0
 51
234.26083
  0
ARC
  5
137
100
AcDbEntity
  8
0
370
    -3
  6
Continuous
100
AcDbCircle
 10
506.364884
 20
-95.270664
 30
0.0
 40
1.0
100
AcDbArc
 50
150.0
 51
218.381728
  0
LINE
  5
138
100
AcDbEntity
  8
0
370
    -3
  6
Continuous
100
AcDbLine
 10
507.082978
 20
-92.026888
 30
0.0
 11
505.498858
 21
-94.770664
 31
0.0
  0
ARC
  5
139
100
AcDbEntity
  8
0
370
    -3
  6
Continuous
100
AcDbCircle
 10
510.777225
 20
-87.628264
 30
0.0
 40
1.0
100
AcDbArc
 50
150.0
 51
228.787729
  0
LINE
  5
13A
100
AcDbEntity
  8
0
370
    -3
  6
Continuous
100
AcDbLine
 10
511.436118
 20
-84.487029
 30
0.0
 11
509.9112
 21
-87.128264
 31
0.0
  0
ARC
  5
13B
100
AcDbEntity
  8
0
370
    -3
  6
Continuous
100
AcDbCircle
 10
512.302143
 20
-84.987029
 30
0.0
 40
1.0
100
AcDbArc
 50
50.405932
 51
150.0
  0
ARC
  5
13C
100
AcDbEntity
  8
0
370
    -3
  6
Continuous
100
AcDbCircle
 10
507.749675
 20
-97.669193
 30
0.0
 40
1.0
100
AcDbArc
 50
201.618272
 51
270.0
  0
ARC
  5
13D
100
AcDbEntity
  8
0
370
    -3
  6
Continuous
100
AcDbCircle
 10
498.917915
 20
-101.169193
 30
0.0
 40
8.5
100
AcDbArc
 50
21.618272
 51
38.381728
  0
ARC
  5
13E
100
AcDbEntity
  8
0
370
    -3
  6
Continuous
100
AcDbCircle
 10
507.949003
 20
-92.526888
 30
0.0
 40
1.0
100
AcDbArc
 50
43.739795
 51
150.0
  0
LINE
  5
13F
100
AcDbEntity
  8
0
370
    -3
  6
Continuous
100
AcDbLine
 10
510.917915
 20
-98.669193
 30
0.0
 11
507.749675
 21
-98.669193
 31
0.0
  0
ARC
  5
140
100
AcDbEntity
  8
0
370
    -3
  6
Continuous
100
AcDbCircle
 10
510.917915
 20
-97.669193
 30
0.0
 40
1.0
100
AcDbArc
 50
270.0
 51
16.260205
  0
ARC
  5
141
100
AcDbEntity
  8
0
370
    -3
  6
Continuous
100
AcDbCircle
 10
498.917915
 20
-101.169193
 30
0.0
 40
13.5
100
AcDbArc
 50
16.260205
 51
43.739795
  0
ARC
  5
142
100
AcDbEntity
  8
0
370
    -3
  6
Continuous
100
AcDbCircle
 10
498.917915
 20
-101.169193
 30
0.0
 40
17.0
100
AcDbArc
 50
11.212271
 51
48.787729
  0
ARC
  5
143
100
AcDbEntity
  8
0
370
    -3
  6
Continuous
100
AcDbCircle
 10
498.917915
 20
-101.169193
 30
0.0
 40
22.0
100
AcDbArc
 50
9.594068
 51
50.405932
  0
ARC
  5
144
100
AcDbEntity
  8
0
370
    -3
  6
Continuous
100
AcDbCircle
 10
498.917915
 20
-101.169193
 30
0.0
 40
30.5
100
AcDbArc
 50
6.813854
 51
53.186146
  0
ARC
  5
145
100
AcDbEntity
  8
0
370
    -3
  6
Continuous
100
AcDbCircle
 10
498.917915
 20
-101.169193
 30
0.0
 40
25.5
100
AcDbArc
 50
7.589542
 51
52.410458
  0
ARC
  5
146
100
AcDbEntity
  8
0
370
    -3
  6
Continuous
100
AcDbCircle
 10
498.917915
 20
-101.169193
 30
0.0
 40
34.0
100
AcDbArc
 50
5.73917
 51
54.26083
  0
ARC
  5
147
100
AcDbEntity
  8
0
370
    -3
  6
Continuous
100
AcDbCircle
 10
498.917915
 20
-101.169193
 30
0.0
 40
39.0
100
AcDbArc
 50
5.284733
 51
54.715267
  0
ARC
  5
148
100
AcDbEntity
  8
0
370
    -3
  6
Continuous
100
AcDbCircle
 10
510.532644
 20
-74.051891
 30
0.0
 40
1.0
100
AcDbArc
 50
330.0
 51
66.813854
  0
LINE
  5
149
100
AcDbEntity
  8
0
370
    -3
  6
Continuous
100
AcDbLine
 10
511.39867
 20
-74.551891
 30
0.0
 11
509.886777
 21
-77.170566
 31
0.0
  0
ARC
  5
14A
100
AcDbEntity
  8
0
370
    -3
  6
Continuous
100
AcDbCircle
 10
509.020751
 20
-76.670566
 30
0.0
 40
1.0
100
AcDbArc
 50
247.589542
 51
330.0
  0
ARC
  5
14B
100
AcDbEntity
  8
0
370
    -3
  6
Continuous
100
AcDbCircle
 10
514.806062
 20
-66.650114
 30
0.0
 40
1.0
100
AcDbArc
 50
330.0
 51
65.284733
  0
LINE
  5
14C
100
AcDbEntity
  8
0
370
    -3
  6
Continuous
100
AcDbLine
 10
515.672087
 20
-67.150114
 30
0.0
 11
514.165131
 21
-69.760239
 31
0.0
  0
ARC
  5
14D
100
AcDbEntity
  8
0
370
    -3
  6
Continuous
100
AcDbCircle
 10
513.299106
 20
-69.260239
 30
0.0
 40
1.0
100
AcDbArc
 50
245.73917
 51
330.0
  0
ARC
  5
14E
100
AcDbEntity
  8
0
370
    -3
  6
Continuous
100
AcDbCircle
 10
500.302706
 20
-91.770664
 30
0.0
 40
1.0
100
AcDbArc
 50
261.618272
 51
330.0
  0
LINE
  5
14F
100
AcDbEntity
  8
0
370
    -3
  6
Continuous
100
AcDbLine
 10
502.752851
 20
-89.526888
 30
0.0
 11
501.168731
 21
-92.270664
 31
0.0
  0
ARC
  5
150
100
AcDbEntity
  8
0
370
    -3
  6
Continuous
100
AcDbCircle
 10
504.715047
 20
-84.128264
 30
0.0
 40
1.0
100
AcDbArc
 50
251.212271
 51
330.0
  0
LINE
  5
151
100
AcDbEntity
  8
0
370
    -3
  6
Continuous
100
AcDbLine
 10
507.105991
 20
-81.987029
 30
0.0
 11
505.581073
 21
-84.628264
 31
0.0
  0
ARC
  5
152
100
AcDbEntity
  8
0
370
    -3
  6
Continuous
100
AcDbCircle
 10
506.239965
 20
-81.487029
 30
0.0
 40
1.0
100
AcDbArc
 50
330.0
 51
69.594068
  0
ARC
  5
153
100
AcDbEntity
  8
0
370
    -3
  6
Continuous
100
AcDbCircle
 10
497.533123
 20
-91.770664
 30
0.0
 40
1.0
100
AcDbArc
 50
210.0
 51
278.381728
  0
ARC
  5
154
100
AcDbEntity
  8
0
370
    -3
  6
Continuous
100
AcDbCircle
 10
498.917915
 20
-101.169193
 30
0.0
 40
8.5
100
AcDbArc
 50
81.618272
 51
98.381728
  0
ARC
  5
155
100
AcDbEntity
  8
0
370
    -3
  6
Continuous
100
AcDbCircle
 10
501.886826
 20
-89.026888
 30
0.0
 40
1.0
100
AcDbArc
 50
330.0
 51
76.260205
  0
LINE
  5
156
100
AcDbEntity
  8
0
370
    -3
  6
Continuous
100
AcDbLine
 10
495.082978
 20
-89.526888
 30
0.0
 11
496.667098
 21
-92.270664
 31
0.0
  0
ARC
  5
157
100
AcDbEntity
  8
0
370
    -3
  6
Continuous
100
AcDbCircle
 10
495.949003
 20
-89.026888
 30
0.0
 40
1.0
100
AcDbArc
 50
103.739795
 51
210.0
  0
ARC
  5
158
100
AcDbEntity
  8
0
370
    -3
  6
Continuous
100
AcDbCircle
 10
498.917915
 20
-101.169193
 30
0.0
 40
13.5
100
AcDbArc
 50
76.260205
 51
103.739795
  0
ARC
  5
159
100
AcDbEntity
  8
0
370
    -3
  6
Continuous
100
AcDbCircle
 10
493.120782
 20
-84.128264
 30
0.0
 40
1.0
100
AcDbArc
 50
210.0
 51
288.787729
  0
LINE
  5
15A
100
AcDbEntity
  8
0
370
    -3
  6
Continuous
100
AcDbLine
 10
490.729838
 20
-81.987029
 30
0.0
 11
492.254756
 21
-84.628264
 31
0.0
  0
ARC
  5
15B
100
AcDbEntity
  8
0
370
    -3
  6
Continuous
100
AcDbCircle
 10
498.917915
 20
-101.169193
 30
0.0
 40
17.0
100
AcDbArc
 50
71.212271
 51
108.787729
  0
ARC
  5
15C
100
AcDbEntity
  8
0
370
    -3
  6
Continuous
100
AcDbCircle
 10
491.595864
 20
-81.487029
 30
0.0
 40
1.0
100
AcDbArc
 50
110.405932
 51
210.0
  0
ARC
  5
15D
100
AcDbEntity
  8
0
370
    -3
  6
Continuous
100
AcDbCircle
 10
488.815078
 20
-76.670566
 30
0.0
 40
1.0
100
AcDbArc
 50
210.0
 51
292.410458
  0
ARC
  5
15E
100
AcDbEntity
  8
0
370
    -3
  6
Continuous
100
AcDbCircle
 10
484.536723
 20
-69.260239
 30
0.0
 40
1.0
100
AcDbArc
 50
210.0
 51
294.26083
  0
ARC
  5
15F
100
AcDbEntity
  8
0
370
    -3
  6
Continuous
100
AcDbCircle
 10
498.917915
 20
-101.169193
 30
0.0
 40
22.0
100
AcDbArc
 50
69.594068
 51
110.405932
  0
LINE
  5
160
100
AcDbEntity
  8
0
370
    -3
  6
Continuous
100
AcDbLine
 10
486.43716
 20
-74.551891
 30
0.0
 11
487.949052
 21
-77.170566
 31
0.0
  0
ARC
  5
161
100
AcDbEntity
  8
0
370
    -3
  6
Continuous
100
AcDbCircle
 10
487.303185
 20
-74.051891
 30
0.0
 40
1.0
100
AcDbArc
 50
113.186146
 51
210.0
  0
ARC
  5
162
100
AcDbEntity
  8
0
370
    -3
  6
Continuous
100
AcDbCircle
 10
498.917915
 20
-101.169193
 30
0.0
 40
30.5
100
AcDbArc
 50
66.813854
 51
113.186146
  0
ARC
  5
163
100
AcDbEntity
  8
0
370
    -3
  6
Continuous
100
AcDbCircle
 10
498.917915
 20
-101.169193
 30
0.0
 40
25.5
100
AcDbArc
 50
67.589542
 51
112.410458
  0
ARC
  5
164
100
AcDbEntity
  8
0
370
    -3
  6
Continuous
100
AcDbCircle
 10
498.917915
 20
-101.169193
 30
0.0
 40
34.0
100
AcDbArc
 50
65.73917
 51
114.26083
  0
ARC
  5
165
100
AcDbEntity
  8
0
370
    -3
  6
Continuous
100
AcDbCircle
 10
498.917915
 20
-101.169193
 30
0.0
 40
39.0
100
AcDbArc
 50
65.284733
 51
114.715267
  0
LINE
  5
166
100
AcDbEntity
  8
0
370
    -3
  6
Continuous
100
AcDbLine
 10
482.163742
 20
-67.150114
 30
0.0
 11
483.670698
 21
-69.760239
 31
0.0
  0
ARC
  5
167
100
AcDbEntity
  8
0
370
    -3
  6
Continuous
100
AcDbCircle
 10
483.029767
 20
-66.650114
 30
0.0
 40
1.0
100
AcDbArc
 50
114.715267
 51
210.0
  0
CIRCLE
  5
168
100
AcDbEntity
  8
0
370
    -3
  6
Continuous
100
AcDbCircle
 10
498.917915
 20
-101.169193
 30
0.0
 40
5.0
  0
ARC
  5
169
100
AcDbEntity
  8
0
370
    -3
  6
Continuous
100
AcDbCircle
 10
476.967589
 20
-70.150114
 30
0.0
 40
1.0
100
AcDbArc
 50
30.0
 51
125.284733
  0
ARC
  5
16A
100
AcDbEntity
  8
0
370
    -3
  6
Continuous
100
AcDbCircle
 10
478.474545
 20
-72.760239
 30
0.0
 40
1.0
100
AcDbArc
 50
305.73917
 51
30.0
  0
ARC
  5
16B
100
AcDbEntity
  8
0
370
    -3
  6
Continuous
100
AcDbCircle
 10
464.093354
 20
-97.669193
 30
0.0
 40
1.0
100
AcDbArc
 50
270.0
 51
354.26083
  0
ARC
  5
16C
100
AcDbEntity
  8
0
370
    -3
  6
Continuous
100
AcDbCircle
 10
461.079442
 20
-97.669193
 30
0.0
 40
1.0
100
AcDbArc
 50
174.715267
 51
270.0
  0
ARC
  5
16D
100
AcDbEntity
  8
0
370
    -3
  6
Continuous
100
AcDbCircle
 10
472.650063
 20
-97.669193
 30
0.0
 40
1.0
100
AcDbArc
 50
270.0
 51
352.410458
  0
ARC
  5
16E
100
AcDbEntity
  8
0
370
    -3
  6
Continuous
100
AcDbCircle
 10
481.241007
 20
-77.551891
 30
0.0
 40
1.0
100
AcDbArc
 50
30.0
 51
126.813854
  0
ARC
  5
16F
100
AcDbEntity
  8
0
370
    -3
  6
Continuous
100
AcDbCircle
 10
482.7529
 20
-80.170566
 30
0.0
 40
1.0
100
AcDbArc
 50
307.589542
 51
30.0
  0
ARC
  5
170
100
AcDbEntity
  8
0
370
    -3
  6
Continuous
100
AcDbCircle
 10
469.626277
 20
-97.669193
 30
0.0
 40
1.0
100
AcDbArc
 50
173.186146
 51
270.0
  0
ARC
  5
171
100
AcDbEntity
  8
0
370
    -3
  6
Continuous
100
AcDbCircle
 10
478.211635
 20
-97.669193
 30
0.0
 40
1.0
100
AcDbArc
 50
170.405932
 51
270.0
  0
ARC
  5
172
100
AcDbEntity
  8
0
370
    -3
  6
Continuous
100
AcDbCircle
 10
481.261471
 20
-97.669193
 30
0.0
 40
1.0
100
AcDbArc
 50
270.0
 51
348.787729
  0
ARC
  5
173
100
AcDbEntity
  8
0
370
    -3
  6
Continuous
100
AcDbCircle
 10
485.533686
 20
-84.987029
 30
0.0
 40
1.0
100
AcDbArc
 50
30.0
 51
129.594068
  0
ARC
  5
174
100
AcDbEntity
  8
0
370
    -3
  6
Continuous
100
AcDbCircle
 10
487.058604
 20
-87.628264
 30
0.0
 40
1.0
100
AcDbArc
 50
311.212271
 51
30.0
  0
ARC
  5
175
100
AcDbEntity
  8
0
370
    -3
  6
Continuous
100
AcDbCircle
 10
489.886826
 20
-92.526888
 30
0.0
 40
1.0
100
AcDbArc
 50
30.0
 51
136.260205
  0
ARC
  5
176
100
AcDbEntity
  8
0
370
    -3
  6
Continuous
100
AcDbCircle
 10
486.917915
 20
-97.669193
 30
0.0
 40
1.0
100
AcDbArc
 50
163.739795
 51
270.0
  0
ARC
  5
177
100
AcDbEntity
  8
0
370
    -3
  6
Continuous
100
AcDbCircle
 10
490.086154
 20
-97.669193
 30
0.0
 40
1.0
100
AcDbArc
 50
270.0
 51
338.381728
  0
ARC
  5
178
100
AcDbEntity
  8
0
370
    -3
  6
Continuous
100
AcDbCircle
 10
491.470945
 20
-95.270664
 30
0.0
 40
1.0
100
AcDbArc
 50
321.618272
 51
30.0
  0
ARC
  5
179
100
AcDbEntity
  8
0
370
    -3
  6
Continuous
100
AcDbCircle
 10
498.917915
 20
-101.169193
 30
0.0
 40
39.0
100
AcDbArc
 50
125.284733
 51
174.715267
  0
ARC
  5
17A
100
AcDbEntity
  8
0
370
    -3
  6
Continuous
100
AcDbCircle
 10
498.917915
 20
-101.169193
 30
0.0
 40
30.5
100
AcDbArc
 50
126.813854
 51
173.186146
  0
ARC
  5
17B
100
AcDbEntity
  8
0
370
    -3
  6
Continuous
100
AcDbCircle
 10
498.917915
 20
-101.169193
 30
0.0
 40
34.0
100
AcDbArc
 50
125.73917
 51
174.26083
  0
ARC
  5
17C
100
AcDbEntity
  8
0
370
    -3
  6
Continuous
100
AcDbCircle
 10
498.917915
 20
-101.169193
 30
0.0
 40
25.5
100
AcDbArc
 50
127.589542
 51
172.410458
  0
ARC
  5
17D
100
AcDbEntity
  8
0
370
    -3
  6
Continuous
100
AcDbCircle
 10
498.917915
 20
-101.169193
 30
0.0
 40
22.0
100
AcDbArc
 50
129.594068
 51
170.405932
  0
ARC
  5
17E
100
AcDbEntity
  8
0
370
    -3
  6
Continuous
100
AcDbCircle
 10
498.917915
 20
-101.169193
 30
0.0
 40
17.0
100
AcDbArc
 50
131.212271
 51
168.787729
  0
ARC
  5
17F
100
AcDbEntity
  8
0
370
    -3
  6
Continuous
100
AcDbCircle
 10
498.917915
 20
-101.169193
 30
0.0
 40
13.5
100
AcDbArc
 50
136.260205
 51
163.739795
  0
ARC
  5
180
100
AcDbEntity
  8
0
370
    -3
  6
Continuous
100
AcDbCircle
 10
498.917915
 20
-101.169193
 30
0.0
 40
8.5
100
AcDbArc
 50
141.618272
 51
158.381728
  0
LINE
  5
181
100
AcDbEntity
  8
0
370
    -3
  6
Continuous
100
AcDbLine
 10
482.107032
 20
-77.051891
 30
0.0
 11
483.618925
 21
-79.670566
 31
0.0
  0
LINE
  5
182
100
AcDbEntity
  8
0
370
    -3
  6
Continuous
100
AcDbLine
 10
461.079442
 20
-98.669193
 30
0.0
 11
464.093354
 21
-98.669193
 31
0.0
  0
ARC
  5
183
100
AcDbEntity
  8
0
370
    -3
  6
Continuous
100
AcDbCircle
 10
152.317915
 20
-101.169193
 30
0.0
 40
400.6
100
AcDbArc
 50
0.0
 51
4.529193
  0
ARC
  5
184
100
AcDbEntity
  8
0
370
    -3
  6
Continuous
100
AcDbCircle
 10
531.130867
 20
-71.156749
 30
0.0
 40
20.6
100
AcDbArc
 50
4.529945
 51
45.0
  0
ARC
  5
185
100
AcDbEntity
  8
0
370
    -3
  6
Continuous
100
AcDbCircle
 10
845.517915
 20
-101.169193
 30
0.0
 40
400.6
100
AcDbArc
 50
175.470807
 51
180.0
  0
ARC
  5
186
100
AcDbEntity
  8
0
370
    -3
  6
Continuous
100
AcDbCircle
 10
466.704962
 20
-71.156749
 30
0.0
 40
20.6
100
AcDbArc
 50
135.0
 51
175.470055
  0
ARC
  5
187
100
AcDbEntity
  8
0
370
    -3
  6
Continuous
100
AcDbCircle
 10
845.517915
 20
-101.169193
 30
0.0
 40
400.6
100
AcDbArc
 50
180.0
 51
184.529193
  0
ARC
  5
188
100
AcDbEntity
  8
0
370
    -3
  6
Continuous
100
AcDbCircle
 10
466.704962
 20
-131.181637
 30
0.0
 40
20.6
100
AcDbArc
 50
184.529945
 51
225.0
  0
LINE
  5
189
100
AcDbEntity
  8
0
370
    -3
  6
Continuous
100
AcDbLine
 10
454.317308
 20
-147.926782
 30
0.0
 11
452.138562
 21
-145.748036
 31
0.0
  0
ARC
  5
18A
100
AcDbEntity
  8
0
370
    -3
  6
Continuous
100
AcDbCircle
 10
483.025843
 20
-119.218247
 30
0.0
 40
40.6
100
AcDbArc
 50
225.0
 51
267.469876
  0
ARC
  5
18B
100
AcDbEntity
  8
0
370
    -3
  6
Continuous
100
AcDbCircle
 10
152.317915
 20
-101.169193
 30
0.0
 40
400.6
100
AcDbArc
 50
355.470807
 51
0.0
  0
ARC
  5
18C
100
AcDbEntity
  8
0
370
    -3
  6
Continuous
100
AcDbCircle
 10
531.130867
 20
-131.181637
 30
0.0
 40
20.6
100
AcDbArc
 50
315.0
 51
355.470055
  0
LINE
  5
18D
100
AcDbEntity
  8
0
370
    -3
  6
Continuous
100
AcDbLine
 10
543.518521
 20
-147.926782
 30
0.0
 11
545.697267
 21
-145.748036
 31
0.0
  0
ARC
  5
18E
100
AcDbEntity
  8
0
370
    -3
  6
Continuous
100
AcDbCircle
 10
514.809986
 20
-119.218247
 30
0.0
 40
40.6
100
AcDbArc
 50
272.530124
 51
315.0
  0
LINE
  5
18F
100
AcDbEntity
  8
0
370
    -3
  6
Continuous
100
AcDbLine
 10
477.833615
 20
-69.650114
 30
0.0
 11
479.340571
 21
-72.260239
 31
0.0
  0
LINE
  5
190
100
AcDbEntity
  8
0
370
    -3
  6
Continuous
100
AcDbLine
 10
486.399711
 20
-84.487029
 30
0.0
 11
487.924629
 21
-87.128264
 31
0.0
  0
LINE
  5
191
100
AcDbEntity
  8
0
370
    -3
  6
Continuous
100
AcDbLine
 10
490.752851
 20
-92.026888
 30
0.0
 11
492.336971
 21
-94.770664
 31
0.0
  0
LINE
  5
192
100
AcDbEntity
  8
0
370
    -3
  6
Continuous
100
AcDbLine
 10
486.917915
 20
-98.669193
 30
0.0
 11
490.086154
 21
-98.669193
 31
0.0
  0
LINE
  5
193
100
AcDbEntity
  8
0
370
    -3
  6
Continuous
100
AcDbLine
 10
478.211635
 20
-98.669193
 30
0.0
 11
481.261471
 21
-98.669193
 31
0.0
  0
LINE
  5
194
100
AcDbEntity
  8
0
370
    -3
  6
Continuous
100
AcDbLine
 10
469.626277
 20
-98.669193
 30
0.0
 11
472.650063
 21
-98.669193
 31
0.0
  0
ARC
  5
195
100
AcDbEntity
  8
0
370
    -3
  6
Continuous
100
AcDbCircle
 10
498.917915
 20
-101.169193
 30
0.0
 40
39.0
100
AcDbArc
 50
245.284733
 51
294.715267
  0
ARC
  5
196
100
AcDbEntity
  8
0
370
    -3
  6
Continuous
100
AcDbCircle
 10
498.917915
 20
-101.169193
 30
0.0
 40
34.0
100
AcDbArc
 50
245.73917
 51
294.26083
  0
ARC
  5
197
100
AcDbEntity
  8
0
370
    -3
  6
Continuous
100
AcDbCircle
 10
498.917915
 20
-101.169193
 30
0.0
 40
25.5
100
AcDbArc
 50
247.589542
 51
292.410458
  0
ARC
  5
198
100
AcDbEntity
  8
0
370
    -3
  6
Continuous
100
AcDbCircle
 10
498.917915
 20
-101.169193
 30
0.0
 40
30.5
100
AcDbArc
 50
246.813854
 51
293.186146
  0
ARC
  5
199
100
AcDbEntity
  8
0
370
    -3
  6
Continuous
100
AcDbCircle
 10
498.917915
 20
-101.169193
 30
0.0
 40
22.0
100
AcDbArc
 50
249.594068
 51
290.405932
  0
ARC
  5
19A
100
AcDbEntity
  8
0
370
    -3
  6
Continuous
100
AcDbCircle
 10
498.917915
 20
-101.169193
 30
0.0
 40
17.0
100
AcDbArc
 50
251.212271
 51
288.787729
  0
ARC
  5
19B
100
AcDbEntity
  8
0
370
    -3
  6
Continuous
100
AcDbCircle
 10
498.917915
 20
-101.169193
 30
0.0
 40
13.5
100
AcDbArc
 50
256.260205
 51
283.739795
  0
ARC
  5
19C
100
AcDbEntity
  8
0
370
    -3
  6
Continuous
100
AcDbCircle
 10
501.886826
 20
-113.311498
 30
0.0
 40
1.0
100
AcDbArc
 50
283.739795
 51
30.0
  0
ARC
  5
19D
100
AcDbEntity
  8
0
370
    -3
  6
Continuous
100
AcDbCircle
 10
506.239965
 20
-120.851357
 30
0.0
 40
1.0
100
AcDbArc
 50
290.405932
 51
30.0
  0
LINE
  5
19E
100
AcDbEntity
  8
0
370
    -3
  6
Continuous
100
AcDbLine
 10
507.105991
 20
-120.351357
 30
0.0
 11
505.581073
 21
-117.710121
 31
0.0
  0
ARC
  5
19F
100
AcDbEntity
  8
0
370
    -3
  6
Continuous
100
AcDbCircle
 10
504.715047
 20
-118.210121
 30
0.0
 40
1.0
100
AcDbArc
 50
30.0
 51
108.787729
  0
LINE
  5
1A0
100
AcDbEntity
  8
0
370
    -3
  6
Continuous
100
AcDbLine
 10
502.752851
 20
-112.811498
 30
0.0
 11
501.168731
 21
-110.067722
 31
0.0
  0
ARC
  5
1A1
100
AcDbEntity
  8
0
370
    -3
  6
Continuous
100
AcDbCircle
 10
500.302706
 20
-110.567722
 30
0.0
 40
1.0
100
AcDbArc
 50
30.0
 51
98.381728
  0
ARC
  5
1A2
100
AcDbEntity
  8
0
370
    -3
  6
Continuous
100
AcDbCircle
 10
513.299106
 20
-133.078147
 30
0.0
 40
1.0
100
AcDbArc
 50
30.0
 51
114.26083
  0
LINE
  5
1A3
100
AcDbEntity
  8
0
370
    -3
  6
Continuous
100
AcDbLine
 10
515.672087
 20
-135.188271
 30
0.0
 11
514.165131
 21
-132.578147
 31
0.0
  0
ARC
  5
1A4
100
AcDbEntity
  8
0
370
    -3
  6
Continuous
100
AcDbCircle
 10
514.806062
 20
-135.688271
 30
0.0
 40
1.0
100
AcDbArc
 50
294.715267
 51
30.0
  0
ARC
  5
1A5
100
AcDbEntity
  8
0
370
    -3
  6
Continuous
100
AcDbCircle
 10
509.020751
 20
-125.667819
 30
0.0
 40
1.0
100
AcDbArc
 50
30.0
 51
112.410458
  0
LINE
  5
1A6
100
AcDbEntity
  8
0
370
    -3
  6
Continuous
100
AcDbLine
 10
511.39867
 20
-127.786495
 30
0.0
 11
509.886777
 21
-125.167819
 31
0.0
  0
ARC
  5
1A7
100
AcDbEntity
  8
0
370
    -3
  6
Continuous
100
AcDbCircle
 10
510.532644
 20
-128.286495
 30
0.0
 40
1.0
100
AcDbArc
 50
293.186146
 51
30.0
  0
ARC
  5
1A8
100
AcDbEntity
  8
0
370
    -3
  6
Continuous
100
AcDbCircle
 10
498.917915
 20
-101.169193
 30
0.0
 40
39.0
100
AcDbArc
 50
305.284733
 51
354.715267
  0
ARC
  5
1A9
100
AcDbEntity
  8
0
370
    -3
  6
Continuous
100
AcDbCircle
 10
498.917915
 20
-101.169193
 30
0.0
 40
34.0
100
AcDbArc
 50
305.73917
 51
354.26083
  0
ARC
  5
1AA
100
AcDbEntity
  8
0
370
    -3
  6
Continuous
100
AcDbCircle
 10
498.917915
 20
-101.169193
 30
0.0
 40
25.5
100
AcDbArc
 50
307.589542
 51
352.410458
  0
ARC
  5
1AB
100
AcDbEntity
  8
0
370
    -3
  6
Continuous
100
AcDbCircle
 10
498.917915
 20
-101.169193
 30
0.0
 40
30.5
100
AcDbArc
 50
306.813854
 51
353.186146
  0
ARC
  5
1AC
100
AcDbEntity
  8
0
370
    -3
  6
Continuous
100
AcDbCircle
 10
498.917915
 20
-101.169193
 30
0.0
 40
22.0
100
AcDbArc
 50
309.594068
 51
350.405932
  0
ARC
  5
1AD
100
AcDbEntity
  8
0
370
    -3
  6
Continuous
100
AcDbCircle
 10
498.917915
 20
-101.169193
 30
0.0
 40
17.0
100
AcDbArc
 50
311.212271
 51
348.787729
  0
ARC
  5
1AE
100
AcDbEntity
  8
0
370
    -3
  6
Continuous
100
AcDbCircle
 10
498.917915
 20
-101.169193
 30
0.0
 40
13.5
100
AcDbArc
 50
316.260205
 51
343.739795
  0
ARC
  5
1AF
100
AcDbEntity
  8
0
370
    -3
  6
Continuous
100
AcDbCircle
 10
510.917915
 20
-104.669193
 30
0.0
 40
1.0
100
AcDbArc
 50
343.739795
 51
90.0
  0
LINE
  5
1B0
100
AcDbEntity
  8
0
370
    -3
  6
Continuous
100
AcDbLine
 10
510.917915
 20
-103.669193
 30
0.0
 11
507.749675
 21
-103.669193
 31
0.0
  0
ARC
  5
1B1
100
AcDbEntity
  8
0
370
    -3
  6
Continuous
100
AcDbCircle
 10
507.949003
 20
-109.811498
 30
0.0
 40
1.0
100
AcDbArc
 50
210.0
 51
316.260205
  0
ARC
  5
1B2
100
AcDbEntity
  8
0
370
    -3
  6
Continuous
100
AcDbCircle
 10
498.917915
 20
-101.169193
 30
0.0
 40
8.5
100
AcDbArc
 50
321.618272
 51
338.381728
  0
ARC
  5
1B3
100
AcDbEntity
  8
0
370
    -3
  6
Continuous
100
AcDbCircle
 10
507.749675
 20
-104.669193
 30
0.0
 40
1.0
100
AcDbArc
 50
90.0
 51
158.381728
  0
ARC
  5
1B4
100
AcDbEntity
  8
0
370
    -3
  6
Continuous
100
AcDbCircle
 10
512.302143
 20
-117.351357
 30
0.0
 40
1.0
100
AcDbArc
 50
210.0
 51
309.594068
  0
LINE
  5
1B5
100
AcDbEntity
  8
0
370
    -3
  6
Continuous
100
AcDbLine
 10
511.436118
 20
-117.851357
 30
0.0
 11
509.9112
 21
-115.210121
 31
0.0
  0
ARC
  5
1B6
100
AcDbEntity
  8
0
370
    -3
  6
Continuous
100
AcDbCircle
 10
510.777225
 20
-114.710121
 30
0.0
 40
1.0
100
AcDbArc
 50
131.212271
 51
210.0
  0
LINE
  5
1B7
100
AcDbEntity
  8
0
370
    -3
  6
Continuous
100
AcDbLine
 10
507.082978
 20
-110.311498
 30
0.0
 11
505.498858
 21
-107.567722
 31
0.0
  0
ARC
  5
1B8
100
AcDbEntity
  8
0
370
    -3
  6
Continuous
100
AcDbCircle
 10
506.364884
 20
-107.067722
 30
0.0
 40
1.0
100
AcDbArc
 50
141.618272
 51
210.0
  0
ARC
  5
1B9
100
AcDbEntity
  8
0
370
    -3
  6
Continuous
100
AcDbCircle
 10
519.361284
 20
-129.578147
 30
0.0
 40
1.0
100
AcDbArc
 50
125.73917
 51
210.0
  0
LINE
  5
1BA
100
AcDbEntity
  8
0
370
    -3
  6
Continuous
100
AcDbLine
 10
520.002214
 20
-132.688271
 30
0.0
 11
518.495258
 21
-130.078147
 31
0.0
  0
ARC
  5
1BB
100
AcDbEntity
  8
0
370
    -3
  6
Continuous
100
AcDbCircle
 10
520.86824
 20
-132.188271
 30
0.0
 40
1.0
100
AcDbArc
 50
210.0
 51
305.284733
  0
ARC
  5
1BC
100
AcDbEntity
  8
0
370
    -3
  6
Continuous
100
AcDbCircle
 10
515.082929
 20
-122.167819
 30
0.0
 40
1.0
100
AcDbArc
 50
127.589542
 51
210.0
  0
LINE
  5
1BD
100
AcDbEntity
  8
0
370
    -3
  6
Continuous
100
AcDbLine
 10
515.728797
 20
-125.286495
 30
0.0
 11
514.216904
 21
-122.667819
 31
0.0
  0
ARC
  5
1BE
100
AcDbEntity
  8
0
370
    -3
  6
Continuous
100
AcDbCircle
 10
516.594822
 20
-124.786495
 30
0.0
 40
1.0
100
AcDbArc
 50
210.0
 51
306.813854
  0
ARC
  5
1BF
100
AcDbEntity
  8
0
370
    -3
  6
Continuous
100
AcDbCircle
 10
536.756387
 20
-104.669193
 30
0.0
 40
1.0
100
AcDbArc
 50
354.715267
 51
90.0
  0
LINE
  5
1C0
100
AcDbEntity
  8
0
370
    -3
  6
Continuous
100
AcDbLine
 10
536.756387
 20
-103.669193
 30
0.0
 11
533.742475
 21
-103.669193
 31
0.0
  0
ARC
  5
1C1
100
AcDbEntity
  8
0
370
    -3
  6
Continuous
100
AcDbCircle
 10
533.742475
 20
-104.669193
 30
0.0
 40
1.0
100
AcDbArc
 50
90.0
 51
174.26083
  0
ARC
  5
1C2
100
AcDbEntity
  8
0
370
    -3
  6
Continuous
100
AcDbCircle
 10
528.209552
 20
-104.669193
 30
0.0
 40
1.0
100
AcDbArc
 50
353.186146
 51
90.0
  0
LINE
  5
1C3
100
AcDbEntity
  8
0
370
    -3
  6
Continuous
100
AcDbLine
 10
528.209552
 20
-103.669193
 30
0.0
 11
525.185766
 21
-103.669193
 31
0.0
  0
ARC
  5
1C4
100
AcDbEntity
  8
0
370
    -3
  6
Continuous
100
AcDbCircle
 10
525.185766
 20
-104.669193
 30
0.0
 40
1.0
100
AcDbArc
 50
90.0
 51
172.410458
  0
ARC
  5
1C5
100
AcDbEntity
  8
0
370
    -3
  6
Continuous
100
AcDbCircle
 10
519.624194
 20
-104.669193
 30
0.0
 40
1.0
100
AcDbArc
 50
350.405932
 51
90.0
  0
LINE
  5
1C6
100
AcDbEntity
  8
0
370
    -3
  6
Continuous
100
AcDbLine
 10
519.624194
 20
-103.669193
 30
0.0
 11
516.574358
 21
-103.669193
 31
0.0
  0
ARC
  5
1C7
100
AcDbEntity
  8
0
370
    -3
  6
Continuous
100
AcDbCircle
 10
516.574358
 20
-104.669193
 30
0.0
 40
1.0
100
AcDbArc
 50
90.0
 51
168.787729
  0
LINE
  5
1C8
100
AcDbEntity
  8
0
370
    -3
  6
Continuous
100
AcDbLine
 10
536.586754
 20
-140.995014
 30
0.0
 11
538.765499
 21
-138.816269
 31
0.0
  0
ARC
  5
1C9
100
AcDbEntity
  8
0
370
    -3
  6
Continuous
100
AcDbCircle
 10
531.130867
 20
-131.181637
 30
0.0
 40
10.797
100
AcDbArc
 50
315.0
 51
355.470055
  0
ARC
  5
1CA
100
AcDbEntity
  8
0
370
    -3
  6
Continuous
100
AcDbCircle
 10
152.317915
 20
-101.169193
 30
0.0
 40
390.797
100
AcDbArc
 50
355.470807
 51
0.0
  0
ARC
  5
1CB
100
AcDbEntity
  8
0
370
    -3
  6
Continuous
100
AcDbCircle
 10
495.949003
 20
-113.311498
 30
0.0
 40
1.0
100
AcDbArc
 50
150.0
 51
256.260205
  0
LINE
  5
1CC
100
AcDbEntity
  8
0
370
    -3
  6
Continuous
100
AcDbLine
 10
495.082978
 20
-112.811498
 30
0.0
 11
496.667098
 21
-110.067722
 31
0.0
  0
ARC
  5
1CD
100
AcDbEntity
  8
0
370
    -3
  6
Continuous
100
AcDbCircle
 10
498.917915
 20
-101.169193
 30
0.0
 40
8.5
100
AcDbArc
 50
261.618272
 51
278.381728
  0
ARC
  5
1CE
100
AcDbEntity
  8
0
370
    -3
  6
Continuous
100
AcDbCircle
 10
497.533123
 20
-110.567722
 30
0.0
 40
1.0
100
AcDbArc
 50
81.618272
 51
150.0
  0
ARC
  5
1CF
100
AcDbEntity
  8
0
370
    -3
  6
Continuous
100
AcDbCircle
 10
498.917915
 20
240.430807
 30
0.0
 40
390.797
100
AcDbArc
 50
267.470639
 51
270.0
  0
ARC
  5
1D0
100
AcDbEntity
  8
0
370
    -3
  6
Continuous
100
AcDbCircle
 10
498.917915
 20
240.430807
 30
0.0
 40
390.797
100
AcDbArc
 50
270.0
 51
272.529361
  0
ARC
  5
1D1
100
AcDbEntity
  8
0
370
    -3
  6
Continuous
100
AcDbCircle
 10
514.809986
 20
-119.218247
 30
0.0
 40
30.797
100
AcDbArc
 50
272.530124
 51
315.0
  0
LINE
  5
1D2
100
AcDbEntity
  8
0
370
    -3
  6
Continuous
100
AcDbLine
 10
469.626277
 20
-103.669193
 30
0.0
 11
472.650063
 21
-103.669193
 31
0.0
  0
LINE
  5
1D3
100
AcDbEntity
  8
0
370
    -3
  6
Continuous
100
AcDbLine
 10
478.211635
 20
-103.669193
 30
0.0
 11
481.261471
 21
-103.669193
 31
0.0
  0
LINE
  5
1D4
100
AcDbEntity
  8
0
370
    -3
  6
Continuous
100
AcDbLine
 10
486.917915
 20
-103.669193
 30
0.0
 11
490.086154
 21
-103.669193
 31
0.0
  0
LINE
  5
1D5
100
AcDbEntity
  8
0
370
    -3
  6
Continuous
100
AcDbLine
 10
490.752851
 20
-110.311498
 30
0.0
 11
492.336971
 21
-107.567722
 31
0.0
  0
LINE
  5
1D6
100
AcDbEntity
  8
0
370
    -3
  6
Continuous
100
AcDbLine
 10
486.399711
 20
-117.851357
 30
0.0
 11
487.924629
 21
-115.210121
 31
0.0
  0
LINE
  5
1D7
100
AcDbEntity
  8
0
370
    -3
  6
Continuous
100
AcDbLine
 10
477.833615
 20
-132.688271
 30
0.0
 11
479.340571
 21
-130.078147
 31
0.0
  0
LINE
  5
1D8
100
AcDbEntity
  8
0
370
    -3
  6
Continuous
100
AcDbLine
 10
482.107032
 20
-125.286495
 30
0.0
 11
483.618925
 21
-122.667819
 31
0.0
  0
ARC
  5
1D9
100
AcDbEntity
  8
0
370
    -3
  6
Continuous
100
AcDbCircle
 10
498.917915
 20
-101.169193
 30
0.0
 40
8.5
100
AcDbArc
 50
201.618272
 51
218.381728
  0
ARC
  5
1DA
100
AcDbEntity
  8
0
370
    -3
  6
Continuous
100
AcDbCircle
 10
498.917915
 20
-101.169193
 30
0.0
 40
13.5
100
AcDbArc
 50
196.260205
 51
223.739795
  0
ARC
  5
1DB
100
AcDbEntity
  8
0
370
    -3
  6
Continuous
100
AcDbCircle
 10
498.917915
 20
-101.169193
 30
0.0
 40
17.0
100
AcDbArc
 50
191.212271
 51
228.787729
  0
ARC
  5
1DC
100
AcDbEntity
  8
0
370
    -3
  6
Continuous
100
AcDbCircle
 10
498.917915
 20
-101.169193
 30
0.0
 40
22.0
100
AcDbArc
 50
189.594068
 51
230.405932
  0
ARC
  5
1DD
100
AcDbEntity
  8
0
370
    -3
  6
Continuous
100
AcDbCircle
 10
498.917915
 20
-101.169193
 30
0.0
 40
25.5
100
AcDbArc
 50
187.589542
 51
232.410458
  0
ARC
  5
1DE
100
AcDbEntity
  8
0
370
    -3
  6
Continuous
100
AcDbCircle
 10
498.917915
 20
-101.169193
 30
0.0
 40
34.0
100
AcDbArc
 50
185.73917
 51
234.26083
  0
ARC
  5
1DF
100
AcDbEntity
  8
0
370
    -3
  6
Continuous
100
AcDbCircle
 10
498.917915
 20
-101.169193
 30
0.0
 40
30.5
100
AcDbArc
 50
186.813854
 51
233.186146
  0
ARC
  5
1E0
100
AcDbEntity
  8
0
370
    -3
  6
Continuous
100
AcDbCircle
 10
498.917915
 20
-101.169193
 30
0.0
 40
39.0
100
AcDbArc
 50
185.284733
 51
234.715267
  0
ARC
  5
1E1
100
AcDbEntity
  8
0
370
    -3
  6
Continuous
100
AcDbCircle
 10
491.470945
 20
-107.067722
 30
0.0
 40
1.0
100
AcDbArc
 50
330.0
 51
38.381728
  0
ARC
  5
1E2
100
AcDbEntity
  8
0
370
    -3
  6
Continuous
100
AcDbCircle
 10
490.086154
 20
-104.669193
 30
0.0
 40
1.0
100
AcDbArc
 50
21.618272
 51
90.0
  0
ARC
  5
1E3
100
AcDbEntity
  8
0
370
    -3
  6
Continuous
100
AcDbCircle
 10
486.917915
 20
-104.669193
 30
0.0
 40
1.0
100
AcDbArc
 50
90.0
 51
196.260205
  0
ARC
  5
1E4
100
AcDbEntity
  8
0
370
    -3
  6
Continuous
100
AcDbCircle
 10
489.886826
 20
-109.811498
 30
0.0
 40
1.0
100
AcDbArc
 50
223.739795
 51
330.0
  0
ARC
  5
1E5
100
AcDbEntity
  8
0
370
    -3
  6
Continuous
100
AcDbCircle
 10
487.058604
 20
-114.710121
 30
0.0
 40
1.0
100
AcDbArc
 50
330.0
 51
48.787729
  0
ARC
  5
1E6
100
AcDbEntity
  8
0
370
    -3
  6
Continuous
100
AcDbCircle
 10
485.533686
 20
-117.351357
 30
0.0
 40
1.0
100
AcDbArc
 50
230.405932
 51
330.0
  0
ARC
  5
1E7
100
AcDbEntity
  8
0
370
    -3
  6
Continuous
100
AcDbCircle
 10
481.261471
 20
-104.669193
 30
0.0
 40
1.0
100
AcDbArc
 50
11.212271
 51
90.0
  0
ARC
  5
1E8
100
AcDbEntity
  8
0
370
    -3
  6
Continuous
100
AcDbCircle
 10
478.211635
 20
-104.669193
 30
0.0
 40
1.0
100
AcDbArc
 50
90.0
 51
189.594068
  0
ARC
  5
1E9
100
AcDbEntity
  8
0
370
    -3
  6
Continuous
100
AcDbCircle
 10
482.7529
 20
-122.167819
 30
0.0
 40
1.0
100
AcDbArc
 50
330.0
 51
52.410458
  0
ARC
  5
1EA
100
AcDbEntity
  8
0
370
    -3
  6
Continuous
100
AcDbCircle
 10
481.241007
 20
-124.786495
 30
0.0
 40
1.0
100
AcDbArc
 50
233.186146
 51
330.0
  0
ARC
  5
1EB
100
AcDbEntity
  8
0
370
    -3
  6
Continuous
100
AcDbCircle
 10
472.650063
 20
-104.669193
 30
0.0
 40
1.0
100
AcDbArc
 50
7.589542
 51
90.0
  0
ARC
  5
1EC
100
AcDbEntity
  8
0
370
    -3
  6
Continuous
100
AcDbCircle
 10
478.474545
 20
-129.578147
 30
0.0
 40
1.0
100
AcDbArc
 50
330.0
 51
54.26083
  0
ARC
  5
1ED
100
AcDbEntity
  8
0
370
    -3
  6
Continuous
100
AcDbCircle
 10
476.967589
 20
-132.188271
 30
0.0
 40
1.0
100
AcDbArc
 50
234.715267
 51
330.0
  0
ARC
  5
1EE
100
AcDbEntity
  8
0
370
    -3
  6
Continuous
100
AcDbCircle
 10
483.029767
 20
-135.688271
 30
0.0
 40
1.0
100
AcDbArc
 50
150.0
 51
245.284733
  0
LINE
  5
1EF
100
AcDbEntity
  8
0
370
    -3
  6
Continuous
100
AcDbLine
 10
482.163742
 20
-135.188271
 30
0.0
 11
483.670698
 21
-132.578147
 31
0.0
  0
ARC
  5
1F0
100
AcDbEntity
  8
0
370
    -3
  6
Continuous
100
AcDbCircle
 10
487.303185
 20
-128.286495
 30
0.0
 40
1.0
100
AcDbArc
 50
150.0
 51
246.813854
  0
LINE
  5
1F1
100
AcDbEntity
  8
0
370
    -3
  6
Continuous
100
AcDbLine
 10
486.43716
 20
-127.786495
 30
0.0
 11
487.949052
 21
-125.167819
 31
0.0
  0
ARC
  5
1F2
100
AcDbEntity
  8
0
370
    -3
  6
Continuous
100
AcDbCircle
 10
484.536723
 20
-133.078147
 30
0.0
 40
1.0
100
AcDbArc
 50
65.73917
 51
150.0
  0
ARC
  5
1F3
100
AcDbEntity
  8
0
370
    -3
  6
Continuous
100
AcDbCircle
 10
488.815078
 20
-125.667819
 30
0.0
 40
1.0
100
AcDbArc
 50
67.589542
 51
150.0
  0
ARC
  5
1F4
100
AcDbEntity
  8
0
370
    -3
  6
Continuous
100
AcDbCircle
 10
491.595864
 20
-120.851357
 30
0.0
 40
1.0
100
AcDbArc
 50
150.0
 51
249.594068
  0
LINE
  5
1F5
100
AcDbEntity
  8
0
370
    -3
  6
Continuous
100
AcDbLine
 10
490.729838
 20
-120.351357
 30
0.0
 11
492.254756
 21
-117.710121
 31
0.0
  0
ARC
  5
1F6
100
AcDbEntity
  8
0
370
    -3
  6
Continuous
100
AcDbCircle
 10
493.120782
 20
-118.210121
 30
0.0
 40
1.0
100
AcDbArc
 50
71.212271
 51
150.0
  0
ARC
  5
1F7
100
AcDbEntity
  8
0
370
    -3
  6
Continuous
100
AcDbCircle
 10
483.025843
 20
-119.218247
 30
0.0
 40
30.797
100
AcDbArc
 50
225.0
 51
267.469876
  0
LINE
  5
1F8
100
AcDbEntity
  8
0
370
    -3
  6
Continuous
100
AcDbLine
 10
461.079442
 20
-103.669193
 30
0.0
 11
464.093354
 21
-103.669193
 31
0.0
  0
ARC
  5
1F9
100
AcDbEntity
  8
0
370
    -3
  6
Continuous
100
AcDbCircle
 10
469.626277
 20
-104.669193
 30
0.0
 40
1.0
100
AcDbArc
 50
90.0
 51
186.813854
  0
ARC
  5
1FA
100
AcDbEntity
  8
0
370
    -3
  6
Continuous
100
AcDbCircle
 10
461.079442
 20
-104.669193
 30
0.0
 40
1.0
100
AcDbArc
 50
90.0
 51
185.284733
  0
ARC
  5
1FB
100
AcDbEntity
  8
0
370
    -3
  6
Continuous
100
AcDbCircle
 10
464.093354
 20
-104.669193
 30
0.0
 40
1.0
100
AcDbArc
 50
5.73917
 51
90.0
  0
ARC
  5
1FC
100
AcDbEntity
  8
0
370
    -3
  6
Continuous
100
AcDbCircle
 10
845.517915
 20
-101.169193
 30
0.0
 40
390.797
100
AcDbArc
 50
180.0
 51
184.529193
  0
ARC
  5
1FD
100
AcDbEntity
  8
0
370
    -3
  6
Continuous
100
AcDbCircle
 10
466.704962
 20
-131.181637
 30
0.0
 40
10.797
100
AcDbArc
 50
184.529945
 51
225.0
  0
LINE
  5
1FE
100
AcDbEntity
  8
0
370
    -3
  6
Continuous
100
AcDbLine
 10
461.249076
 20
-140.995014
 30
0.0
 11
459.07033
 21
-138.816269
 31
0.0
  0
LINE
  5
1FF
100
AcDbEntity
  8
0
370
    -3
  6
Continuous
100
AcDbLine
 10
285.917923
 20
127.031234
 30
0.0
 11
283.917923
 21
128.207019
 31
0.0
  0
LINE
  5
200
100
AcDbEntity
  8
0
370
    -3
  6
Continuous
100
AcDbLine
 10
281.917923
 20
127.031234
 30
0.0
 11
283.917923
 21
128.207019
 31
0.0
  0
LINE
  5
201
100
AcDbEntity
  8
0
370
    -3
  6
Continuous
100
AcDbLine
 10
285.917923
 20
127.031234
 30
0.0
 11
283.917923
 21
128.207019
 31
0.0
  0
LINE
  5
202
100
AcDbEntity
  8
0
370
    -3
  6
Continuous
100
AcDbLine
 10
281.917923
 20
127.031234
 30
0.0
 11
283.917923
 21
128.207019
 31
0.0
  0
LINE
  5
203
100
AcDbEntity
  8
0
370
    -3
  6
Continuous
100
AcDbLine
 10
283.917923
 20
128.207019
 30
0.0
 11
282.825545
 21
129.109674
 31
0.0
  0
LINE
  5
204
100
AcDbEntity
  8
0
370
    -3
  6
Continuous
100
AcDbLine
 10
283.917923
 20
128.207019
 30
0.0
 11
285.010301
 21
129.109674
 31
0.0
  0
ELLIPSE
  5
205
100
AcDbEntity
  8
0
370
    -3
  6
Continuous
100
AcDbEllipse
 10
283.917923
 20
130.023609
 30
0.0
 11
4.6999999999999886
 21
0.0
 31
0.0
210
0.0
220
0.0
230
1.0
 40
0.766646
 41
3.3980369563346051
 42
6.0267410044347134
  0
LINE
  5
206
100
AcDbEntity
  8
0
370
    -3
  6
Continuous
100
AcDbLine
 10
285.917923
 20
224.788114
 30
0.0
 11
283.917923
 21
223.612329
 31
0.0
  0
LINE
  5
207
100
AcDbEntity
  8
0
370
    -3
  6
Continuous
100
AcDbLine
 10
281.917923
 20
224.788114
 30
0.0
 11
283.917923
 21
223.612329
 31
0.0
  0
LINE
  5
208
100
AcDbEntity
  8
0
370
    -3
  6
Continuous
100
AcDbLine
 10
285.917923
 20
224.788114
 30
0.0
 11
283.917923
 21
223.612329
 31
0.0
  0
LINE
  5
209
100
AcDbEntity
  8
0
370
    -3
  6
Continuous
100
AcDbLine
 10
281.917923
 20
224.788114
 30
0.0
 11
283.917923
 21
223.612329
 31
0.0
  0
LINE
  5
20A
100
AcDbEntity
  8
0
370
    -3
  6
Continuous
100
AcDbLine
 10
283.917923
 20
223.612329
 30
0.0
 11
282.825545
 21
222.709674
 31
0.0
  0
LINE
  5
20B
100
AcDbEntity
  8
0
370
    -3
  6
Continuous
100
AcDbLine
 10
283.917923
 20
223.612329
 30
0.0
 11
285.010301
 21
222.709674
 31
0.0
  0
ELLIPSE
  5
20C
100
AcDbEntity
  8
0
370
    -3
  6
Continuous
100
AcDbEllipse
 10
283.917923
 20
221.795738
 30
0.0
 11
4.6999999999999886
 21
0.0
 31
0.0
210
0.0
220
0.0
230
1.0
 40
0.766646
 41
0.256444302744812
 42
2.8851483508449811
  0
LINE
  5
20D
100
AcDbEntity
  8
0
370
    -3
  6
Continuous
100
AcDbLine
 10
202.020454
 20
157.159674
 30
0.0
 11
173.917923
 21
157.159674
 31
0.0
  0
LINE
  5
20E
100
AcDbEntity
  8
0
370
    -3
  6
Continuous
100
AcDbLine
 10
202.020454
 20
194.659674
 30
0.0
 11
173.917923
 21
194.659674
 31
0.0
  0
LINE
  5
20F
100
AcDbEntity
  8
0
370
    -3
  6
Continuous
100
AcDbLine
 10
202.020454
 20
147.309879
 30
0.0
 11
173.917923
 21
147.309879
 31
0.0
  0
LINE
  5
210
100
AcDbEntity
  8
0
370
    -3
  6
Continuous
100
AcDbLine
 10
202.020454
 20
148.509468
 30
0.0
 11
173.917923
 21
148.509468
 31
0.0
  0
LINE
  5
211
100
AcDbEntity
  8
0
370
    -3
  6
Continuous
100
AcDbLine
 10
202.020454
 20
151.809879
 30
0.0
 11
173.917923
 21
151.809879
 31
0.0
  0
LINE
  5
212
100
AcDbEntity
  8
0
370
    -3
  6
Continuous
100
AcDbLine
 10
202.020454
 20
153.009468
 30
0.0
 11
173.917923
 21
153.009468
 31
0.0
  0
LINE
  5
213
100
AcDbEntity
  8
0
370
    -3
  6
Continuous
100
AcDbLine
 10
202.153115
 20
135.477226
 30
0.0
 11
173.917923
 21
135.477226
 31
0.0
  0
LINE
  5
214
100
AcDbEntity
  8
0
370
    -3
  6
Continuous
100
AcDbLine
 10
272.917915
 20
128.583077
 30
0.0
 11
173.917923
 21
128.583077
 31
0.0
  0
LINE
  5
215
100
AcDbEntity
  8
0
370
    -3
  6
Continuous
100
AcDbLine
 10
202.020454
 20
142.809879
 30
0.0
 11
173.917923
 21
142.809879
 31
0.0
  0
LINE
  5
216
100
AcDbEntity
  8
0
370
    -3
  6
Continuous
100
AcDbLine
 10
202.020454
 20
144.009468
 30
0.0
 11
173.917923
 21
144.009468
 31
0.0
  0
LINE
  5
217
100
AcDbEntity
  8
0
370
    -3
  6
Continuous
100
AcDbLine
 10
272.917915
 20
223.23627
 30
0.0
 11
173.917923
 21
223.23627
 31
0.0
  0
LINE
  5
218
100
AcDbEntity
  8
0
370
    -3
  6
Continuous
100
AcDbLine
 10
202.153115
 20
216.342121
 30
0.0
 11
173.917923
 21
216.342121
 31
0.0
  0
LINE
  5
219
100
AcDbEntity
  8
0
370
    -3
  6
Continuous
100
AcDbLine
 10
202.020454
 20
204.509468
 30
0.0
 11
173.917923
 21
204.509468
 31
0.0
  0
LINE
  5
21A
100
AcDbEntity
  8
0
370
    -3
  6
Continuous
100
AcDbLine
 10
202.020454
 20
203.309879
 30
0.0
 11
173.917923
 21
203.309879
 31
0.0
  0
LINE
  5
21B
100
AcDbEntity
  8
0
370
    -3
  6
Continuous
100
AcDbLine
 10
202.020454
 20
200.009468
 30
0.0
 11
173.917923
 21
200.009468
 31
0.0
  0
LINE
  5
21C
100
AcDbEntity
  8
0
370
    -3
  6
Continuous
100
AcDbLine
 10
202.020454
 20
198.809879
 30
0.0
 11
173.917923
 21
198.809879
 31
0.0
  0
LINE
  5
21D
100
AcDbEntity
  8
0
370
    -3
  6
Continuous
100
AcDbLine
 10
202.020454
 20
209.009468
 30
0.0
 11
173.917923
 21
209.009468
 31
0.0
  0
LINE
  5
21E
100
AcDbEntity
  8
0
370
    -3
  6
Continuous
100
AcDbLine
 10
202.020454
 20
207.809879
 30
0.0
 11
173.917923
 21
207.809879
 31
0.0
  0
LINE
  5
21F
100
AcDbEntity
  8
0
370
    -3
  6
Continuous
100
AcDbLine
 10
173.917923
 20
123.409674
 30
0.0
 11
272.917923
 21
123.409674
 31
0.0
  0
LINE
  5
220
100
AcDbEntity
  8
0
370
    -3
  6
Continuous
100
AcDbLine
 10
272.917923
 20
124.909674
 30
0.0
 11
173.917923
 21
124.909674
 31
0.0
  0
LINE
  5
221
100
AcDbEntity
  8
0
370
    -3
  6
Continuous
100
AcDbLine
 10
272.917923
 20
125.409674
 30
0.0
 11
173.917923
 21
125.409674
 31
0.0
  0
LINE
  5
222
100
AcDbEntity
  8
0
370
    -3
  6
Continuous
100
AcDbLine
 10
272.917923
 20
226.409674
 30
0.0
 11
173.917923
 21
226.409674
 31
0.0
  0
LINE
  5
223
100
AcDbEntity
  8
0
370
    -3
  6
Continuous
100
AcDbLine
 10
272.917923
 20
226.909674
 30
0.0
 11
173.917923
 21
226.909674
 31
0.0
  0
LINE
  5
224
100
AcDbEntity
  8
0
370
    -3
  6
Continuous
100
AcDbLine
 10
173.917923
 20
228.409674
 30
0.0
 11
272.917923
 21
228.409674
 31
0.0
  0
LINE
  5
225
100
AcDbEntity
  8
0
370
    -3
  6
Continuous
100
AcDbLine
 10
272.917923
 20
229.909674
 30
0.0
 11
328.422768
 21
229.909674
 31
0.0
  0
LINE
  5
226
100
AcDbEntity
  8
0
370
    -3
  6
Continuous
100
AcDbLine
 10
272.917923
 20
229.909674
 30
0.0
 11
272.917923
 21
222.709674
 31
0.0
  0
ARC
  5
227
100
AcDbEntity
  8
0
370
    -3
  6
Continuous
100
AcDbCircle
 10
328.422768
 20
209.309674
 30
0.0
 40
20.6
100
AcDbArc
 50
55.0
 51
90.0
  0
ARC
  5
228
100
AcDbEntity
  8
0
370
    -3
  6
Continuous
100
AcDbCircle
 10
346.317923
 20
218.753294
 30
0.0
 40
2.6
100
AcDbArc
 50
0.0
 51
55.0
  0
LINE
  5
229
100
AcDbEntity
  8
0
370
    -3
  6
Continuous
100
AcDbLine
 10
348.917923
 20
218.753294
 30
0.0
 11
348.917923
 21
175.909674
 31
0.0
  0
LINE
  5
22A
100
AcDbEntity
  8
0
370
    -3
  6
Continuous
100
AcDbLine
 10
340.238443
 20
226.184206
 30
0.0
 11
347.809222
 21
220.883089
 31
0.0
  0
ARC
  5
22B
100
AcDbEntity
  8
0
370
    -3
  6
Continuous
100
AcDbCircle
 10
328.422768
 20
142.509674
 30
0.0
 40
20.6
100
AcDbArc
 50
270.0
 51
305.0
  0
ARC
  5
22C
100
AcDbEntity
  8
0
370
    -3
  6
Continuous
100
AcDbCircle
 10
346.317923
 20
133.066054
 30
0.0
 40
2.6
100
AcDbArc
 50
305.0
 51
0.0
  0
LINE
  5
22D
100
AcDbEntity
  8
0
370
    -3
  6
Continuous
100
AcDbLine
 10
348.917923
 20
133.066054
 30
0.0
 11
348.917923
 21
175.909674
 31
0.0
  0
LINE
  5
22E
100
AcDbEntity
  8
0
370
    -3
  6
Continuous
100
AcDbLine
 10
340.238443
 20
125.635142
 30
0.0
 11
347.809222
 21
130.936258
 31
0.0
  0
LINE
  5
22F
100
AcDbEntity
  8
0
370
    -3
  6
Continuous
100
AcDbLine
 10
272.917923
 20
121.909674
 30
0.0
 11
328.422768
 21
121.909674
 31
0.0
  0
LINE
  5
230
100
AcDbEntity
  8
0
370
    -3
  6
Continuous
100
AcDbLine
 10
272.917923
 20
121.909674
 30
0.0
 11
272.917923
 21
129.109674
 31
0.0
  0
LINE
  5
231
100
AcDbEntity
  8
0
370
    -3
  6
Continuous
100
AcDbLine
 10
272.917923
 20
229.909674
 30
0.0
 11
328.422768
 21
229.909674
 31
0.0
  0
LINE
  5
232
100
AcDbEntity
  8
0
370
    -3
  6
Continuous
100
AcDbLine
 10
272.917923
 20
229.909674
 30
0.0
 11
272.917923
 21
222.709674
 31
0.0
  0
ARC
  5
233
100
AcDbEntity
  8
0
370
    -3
  6
Continuous
100
AcDbCircle
 10
328.422768
 20
209.309674
 30
0.0
 40
20.6
100
AcDbArc
 50
55.0
 51
90.0
  0
ARC
  5
234
100
AcDbEntity
  8
0
370
    -3
  6
Continuous
100
AcDbCircle
 10
346.317923
 20
218.753294
 30
0.0
 40
2.6
100
AcDbArc
 50
0.0
 51
55.0
  0
LINE
  5
235
100
AcDbEntity
  8
0
370
    -3
  6
Continuous
100
AcDbLine
 10
348.917923
 20
218.753294
 30
0.0
 11
348.917923
 21
175.909674
 31
0.0
  0
LINE
  5
236
100
AcDbEntity
  8
0
370
    -3
  6
Continuous
100
AcDbLine
 10
340.238443
 20
226.184206
 30
0.0
 11
347.809222
 21
220.883089
 31
0.0
  0
ARC
  5
237
100
AcDbEntity
  8
0
370
    -3
  6
Continuous
100
AcDbCircle
 10
328.422768
 20
142.509674
 30
0.0
 40
20.6
100
AcDbArc
 50
270.0
 51
305.0
  0
ARC
  5
238
100
AcDbEntity
  8
0
370
    -3
  6
Continuous
100
AcDbCircle
 10
346.317923
 20
133.066054
 30
0.0
 40
2.6
100
AcDbArc
 50
305.0
 51
0.0
  0
LINE
  5
239
100
AcDbEntity
  8
0
370
    -3
  6
Continuous
100
AcDbLine
 10
348.917923
 20
133.066054
 30
0.0
 11
348.917923
 21
175.909674
 31
0.0
  0
LINE
  5
23A
100
AcDbEntity
  8
0
370
    -3
  6
Continuous
100
AcDbLine
 10
340.238443
 20
125.635142
 30
0.0
 11
347.809222
 21
130.936258
 31
0.0
  0
LINE
  5
23B
100
AcDbEntity
  8
0
370
    -3
  6
Continuous
100
AcDbLine
 10
272.917923
 20
121.909674
 30
0.0
 11
328.422768
 21
121.909674
 31
0.0
  0
LINE
  5
23C
100
AcDbEntity
  8
0
370
    -3
  6
Continuous
100
AcDbLine
 10
272.917923
 20
121.909674
 30
0.0
 11
272.917923
 21
129.109674
 31
0.0
  0
LINE
  5
23D
100
AcDbEntity
  8
0
370
    -3
  6
Continuous
100
AcDbLine
 10
173.917923
 20
123.409674
 30
0.0
 11
173.917923
 21
175.909674
 31
0.0
  0
LINE
  5
23E
100
AcDbEntity
  8
0
370
    -3
  6
Continuous
100
AcDbLine
 10
173.917923
 20
228.409674
 30
0.0
 11
173.917923
 21
175.909674
 31
0.0
  0
LINE
  5
23F
100
AcDbEntity
  8
0
370
    -3
  6
Continuous
100
AcDbLine
 10
535.917915
 20
-153.899875
 30
0.0
 11
535.917915
 21
-173.160465
 31
0.0
  0
LINE
  5
240
100
AcDbEntity
  8
0
370
    -3
  6
DASHED
100
AcDbLine
 10
-278.582077
 20
-165.669193
 30
0.0
 11
-206.582077
 21
-165.669193
 31
0.0
  0
LINE
  5
241
100
AcDbEntity
  8
0
370
    -3
  6
DASHED
100
AcDbLine
 10
-278.582077
 20
-154.669193
 30
0.0
 11
-206.582077
 21
-154.669193
 31
0.0
  0
LINE
  5
242
100
AcDbEntity
  8
0
370
    -3
  6
DASHED
100
AcDbLine
 10
-291.582077
 20
-151.669193
 30
0.0
 11
-278.582077
 21
-151.669193
 31
0.0
  0
LINE
  5
243
100
AcDbEntity
  8
0
370
    -3
  6
DASHED
100
AcDbLine
 10
-291.582077
 20
-168.669193
 30
0.0
 11
-278.582077
 21
-168.669193
 31
0.0
  0
LINE
  5
244
100
AcDbEntity
  8
0
370
    -3
  6
DASHED
100
AcDbLine
 10
-278.582077
 20
-151.669193
 30
0.0
 11
-278.582077
 21
-168.669193
 31
0.0
  0
LINE
  5
245
100
AcDbEntity
  8
0
370
    -3
  6
DASHED
100
AcDbLine
 10
-206.582077
 20
-168.669193
 30
0.0
 11
-193.582077
 21
-168.669193
 31
0.0
  0
LINE
  5
246
100
AcDbEntity
  8
0
370
    -3
  6
DASHED
100
AcDbLine
 10
-206.582077
 20
-151.669193
 30
0.0
 11
-193.582077
 21
-151.669193
 31
0.0
  0
LINE
  5
247
100
AcDbEntity
  8
0
370
    -3
  6
DASHED
100
AcDbLine
 10
-206.582077
 20
-151.669193
 30
0.0
 11
-206.582077
 21
-168.669193
 31
0.0
  0
LINE
  5
248
100
AcDbEntity
  8
0
370
    -3
  6
DASHED
100
AcDbLine
 10
-278.582077
 20
-43.669193
 30
0.0
 11
-206.582077
 21
-43.669193
 31
0.0
  0
LINE
  5
249
100
AcDbEntity
  8
0
370
    -3
  6
DASHED
100
AcDbLine
 10
-278.582077
 20
-32.669193
 30
0.0
 11
-206.582077
 21
-32.669193
 31
0.0
  0
LINE
  5
24A
100
AcDbEntity
  8
0
370
    -3
  6
DASHED
100
AcDbLine
 10
-291.582077
 20
-46.669193
 30
0.0
 11
-278.582077
 21
-46.669193
 31
0.0
  0
LINE
  5
24B
100
AcDbEntity
  8
0
370
    -3
  6
DASHED
100
AcDbLine
 10
-278.582077
 20
-29.669193
 30
0.0
 11
-278.582077
 21
-46.669193
 31
0.0
  0
LINE
  5
24C
100
AcDbEntity
  8
0
370
    -3
  6
DASHED
100
AcDbLine
 10
-206.582077
 20
-46.669193
 30
0.0
 11
-193.582077
 21
-46.669193
 31
0.0
  0
LINE
  5
24D
100
AcDbEntity
  8
0
370
    -3
  6
DASHED
100
AcDbLine
 10
-206.582077
 20
-29.669193
 30
0.0
 11
-206.582077
 21
-46.669193
 31
0.0
  0
LINE
  5
24E
100
AcDbEntity
  8
0
370
    -3
  6
Continuous
100
AcDbLine
 10
-279.582077
 20
-173.169193
 30
0.0
 11
-291.582077
 21
-172.959732
 31
0.0
  0
LINE
  5
24F
100
AcDbEntity
  8
0
370
    -3
  6
Continuous
100
AcDbLine
 10
-203.582077
 20
-171.816425
 30
0.0
 11
-193.582077
 21
-171.816425
 31
0.0
  0
LINE
  5
250
100
AcDbEntity
  8
0
370
    -3
  6
Continuous
100
AcDbLine
 10
-279.582077
 20
-173.160465
 30
0.0
 11
-203.582077
 21
-171.816425
 31
0.0
  0
LINE
  5
251
100
AcDbEntity
  8
0
370
    -3
  6
DASHED
100
AcDbLine
 10
-197.98147
 20
-54.394148
 30
0.0
 11
-195.802724
 21
-56.572894
 31
0.0
  0
ARC
  5
252
100
AcDbEntity
  8
0
370
    -3
  6
DASHED
100
AcDbCircle
 10
-226.690005
 20
-83.102684
 30
0.0
 40
40.6
100
AcDbArc
 50
45.0
 51
87.469876
  0
ARC
  5
253
100
AcDbEntity
  8
0
370
    -3
  6
DASHED
100
AcDbCircle
 10
-242.582077
 20
-442.751738
 30
0.0
 40
400.6
100
AcDbArc
 50
87.470639
 51
90.0
  0
ARC
  5
254
100
AcDbEntity
  8
0
370
    -3
  6
DASHED
100
AcDbCircle
 10
-242.582077
 20
-442.751738
 30
0.0
 40
400.6
100
AcDbArc
 50
90.0
 51
92.529361
  0
LINE
  5
255
100
AcDbEntity
  8
0
370
    -3
  6
DASHED
100
AcDbLine
 10
-287.182683
 20
-54.394148
 30
0.0
 11
-289.361429
 21
-56.572894
 31
0.0
  0
ARC
  5
256
100
AcDbEntity
  8
0
370
    -3
  6
DASHED
100
AcDbCircle
 10
-258.474148
 20
-83.102684
 30
0.0
 40
40.6
100
AcDbArc
 50
92.530124
 51
135.0
  0
ARC
  5
257
100
AcDbEntity
  8
0
370
    -3
  6
DASHED
100
AcDbCircle
 10
-274.795029
 20
-71.139294
 30
0.0
 40
20.6
100
AcDbArc
 50
135.0
 51
175.470055
  0
LINE
  5
258
100
AcDbEntity
  8
0
370
    -3
  6
DASHED
100
AcDbLine
 10
-287.182683
 20
-147.909327
 30
0.0
 11
-289.361429
 21
-145.730581
 31
0.0
  0
ARC
  5
259
100
AcDbEntity
  8
0
370
    -3
  6
Continuous
100
AcDbCircle
 10
-274.795029
 20
-131.164182
 30
0.0
 40
20.6
100
AcDbArc
 50
184.529945
 51
215.42201
  0
ARC
  5
25A
100
AcDbEntity
  8
0
370
    -3
  6
DASHED
100
AcDbCircle
 10
-258.474148
 20
-119.200792
 30
0.0
 40
40.6
100
AcDbArc
 50
225.0
 51
267.469876
  0
LINE
  5
25B
100
AcDbEntity
  8
0
370
    -3
  6
DASHED
100
AcDbLine
 10
-197.98147
 20
-147.909327
 30
0.0
 11
-195.802724
 21
-145.730581
 31
0.0
  0
ARC
  5
25C
100
AcDbEntity
  8
0
370
    -3
  6
DASHED
100
AcDbCircle
 10
-226.690005
 20
-119.200792
 30
0.0
 40
40.6
100
AcDbArc
 50
272.530124
 51
315.0
  0
ARC
  5
25D
100
AcDbEntity
  8
0
370
    -3
  6
DASHED
100
AcDbCircle
 10
-210.369124
 20
-131.164182
 30
0.0
 40
20.6
100
AcDbArc
 50
315.0
 51
324.57799
  0
ARC
  5
25E
100
AcDbEntity
  8
0
370
    -3
  6
DASHED
100
AcDbCircle
 10
104.017923
 20
-101.151738
 30
0.0
 40
400.6
100
AcDbArc
 50
175.470807
 51
175.950769
  0
ARC
  5
25F
100
AcDbEntity
  8
0
370
    -3
  6
Continuous
100
AcDbCircle
 10
104.017923
 20
-101.151738
 30
0.0
 40
400.6
100
AcDbArc
 50
180.0
 51
184.529193
  0
ARC
  5
260
100
AcDbEntity
  8
0
370
    -3
  6
DASHED
100
AcDbCircle
 10
-242.582077
 20
240.448262
 30
0.0
 40
400.6
100
AcDbArc
 50
267.470639
 51
270.0
  0
ARC
  5
261
100
AcDbEntity
  8
0
370
    -3
  6
Continuous
100
AcDbCircle
 10
-589.182077
 20
-101.151738
 30
0.0
 40
400.6
100
AcDbArc
 50
355.470807
 51
0.0
  0
ARC
  5
262
100
AcDbEntity
  8
0
370
    -3
  6
DASHED
100
AcDbCircle
 10
-242.582077
 20
240.448262
 30
0.0
 40
400.6
100
AcDbArc
 50
270.0
 51
272.529361
  0
ARC
  5
263
100
AcDbEntity
  8
0
370
    -3
  6
DASHED
100
AcDbCircle
 10
-589.182077
 20
-101.151738
 30
0.0
 40
400.6
100
AcDbArc
 50
0.0
 51
0.069016
  0
ARC
  5
264
100
AcDbEntity
  8
0
370
    -3
  6
DASHED
100
AcDbCircle
 10
-210.369124
 20
-71.139294
 30
0.0
 40
20.6
100
AcDbArc
 50
4.529945
 51
45.0
  0
ARC
  5
265
100
AcDbEntity
  8
0
370
    -3
  6
DASHED
100
AcDbCircle
 10
-589.182077
 20
-101.151738
 30
0.0
 40
400.6
100
AcDbArc
 50
0.069016
 51
4.529193
  0
ARC
  5
266
100
AcDbEntity
  8
0
370
    -3
  6
Continuous
100
AcDbCircle
 10
-210.369124
 20
-131.164182
 30
0.0
 40
20.6
100
AcDbArc
 50
324.57799
 51
355.470055
  0
ARC
  5
267
100
AcDbEntity
  8
0
370
    -3
  6
DASHED
100
AcDbCircle
 10
-274.795029
 20
-131.164182
 30
0.0
 40
20.6
100
AcDbArc
 50
215.42201
 51
225.0
  0
ARC
  5
268
100
AcDbEntity
  8
0
370
    -3
  6
Continuous
100
AcDbCircle
 10
104.017923
 20
-101.151738
 30
0.0
 40
400.6
100
AcDbArc
 50
175.950769
 51
180.0
  0
LINE
  5
269
100
AcDbEntity
  8
0
370
    -3
  6
CENTER
100
AcDbLine
 10
-293.028161
 20
-160.169193
 30
0.0
 11
-191.944947
 21
-160.169193
 31
0.0
  0
LINE
  5
26A
100
AcDbEntity
  8
0
370
    -3
  6
CENTER
100
AcDbLine
 10
-304.66081
 20
-86.169193
 30
0.0
 11
-138.495527
 21
-86.169193
 31
0.0
  0
LINE
  5
26B
100
AcDbEntity
  8
0
370
    -3
  6
Continuous
100
AcDbLine
 10
-187.582077
 20
-100.169193
 30
0.0
 11
-142.582077
 21
-100.169193
 31
0.0
  0
LINE
  5
26C
100
AcDbEntity
  8
0
370
    -3
  6
Continuous
100
AcDbLine
 10
-187.582077
 20
-86.169193
 30
0.0
 11
-187.582077
 21
-100.669193
 31
0.0
  0
LINE
  5
26D
100
AcDbEntity
  8
0
370
    -3
  6
Continuous
100
AcDbLine
 10
-187.582077
 20
-86.169193
 30
0.0
 11
-187.582077
 21
-100.669193
 31
0.0
  0
LINE
  5
26E
100
AcDbEntity
  8
0
370
    -3
  6
Continuous
100
AcDbLine
 10
-187.582077
 20
-72.169193
 30
0.0
 11
-142.582077
 21
-72.169193
 31
0.0
  0
LINE
  5
26F
100
AcDbEntity
  8
0
370
    -3
  6
Continuous
100
AcDbLine
 10
-187.582077
 20
-86.169193
 30
0.0
 11
-187.582077
 21
-71.669193
 31
0.0
  0
LINE
  5
270
100
AcDbEntity
  8
0
370
    -3
  6
Continuous
100
AcDbLine
 10
-187.582077
 20
-86.169193
 30
0.0
 11
-187.582077
 21
-71.669193
 31
0.0
  0
LINE
  5
271
100
AcDbEntity
  8
0
370
    -3
  6
Continuous
100
AcDbLine
 10
-187.582077
 20
-71.669193
 30
0.0
 11
-189.582077
 21
-71.669193
 31
0.0
  0
LINE
  5
272
100
AcDbEntity
  8
0
370
    -3
  6
Continuous
100
AcDbLine
 10
-187.582077
 20
-100.669193
 30
0.0
 11
-189.582077
 21
-100.669193
 31
0.0
  0
ARC
  5
273
100
AcDbEntity
  8
0
370
    -3
  6
Continuous
100
AcDbCircle
 10
104.017923
 20
-101.151738
 30
0.0
 40
400.6
100
AcDbArc
 50
175.950769
 51
180.0
  0
ARC
  5
274
100
AcDbEntity
  8
0
370
    -3
  6
Continuous
100
AcDbCircle
 10
-589.182077
 20
-101.151738
 30
0.0
 40
400.6
100
AcDbArc
 50
0.0
 51
0.069016
  0
LINE
  5
275
100
AcDbEntity
  8
0
370
    -3
  6
Continuous
100
AcDbLine
 10
-193.582077
 20
-128.669193
 30
0.0
 11
-189.582077
 21
-128.669193
 31
0.0
  0
LINE
  5
276
100
AcDbEntity
  8
0
370
    -3
  6
Continuous
100
AcDbLine
 10
-193.582077
 20
-43.669193
 30
0.0
 11
-189.582077
 21
-43.669193
 31
0.0
  0
LINE
  5
277
100
AcDbEntity
  8
0
370
    -3
  6
Continuous
100
AcDbLine
 10
-189.582077
 20
-128.669193
 30
0.0
 11
-189.582077
 21
-43.669193
 31
0.0
  0
LINE
  5
278
100
AcDbEntity
  8
0
370
    -3
  6
Continuous
100
AcDbLine
 10
-295.582077
 20
-43.669193
 30
0.0
 11
-291.582077
 21
-43.669193
 31
0.0
  0
LINE
  5
279
100
AcDbEntity
  8
0
370
    -3
  6
Continuous
100
AcDbLine
 10
-193.582077
 20
-171.816425
 30
0.0
 11
-193.582077
 21
-140.52608
 31
0.0
  0
LINE
  5
27A
100
AcDbEntity
  8
0
370
    -3
  6
Continuous
100
AcDbLine
 10
-295.582077
 20
-43.669193
 30
0.0
 11
-295.582077
 21
-128.669193
 31
0.0
  0
LINE
  5
27B
100
AcDbEntity
  8
0
370
    -3
  6
Continuous
100
AcDbLine
 10
-291.582077
 20
-172.959732
 30
0.0
 11
-291.582077
 21
-140.52608
 31
0.0
  0
LINE
  5
27C
100
AcDbEntity
  8
0
370
    -3
  6
Continuous
100
AcDbLine
 10
-193.582077
 20
-140.52608
 30
0.0
 11
-193.582077
 21
-26.48705
 31
0.0
  0
LINE
  5
27D
100
AcDbEntity
  8
0
370
    -3
  6
Continuous
100
AcDbLine
 10
-291.582077
 20
-140.52608
 30
0.0
 11
-291.582077
 21
-25.378654
 31
0.0
  0
LINE
  5
27E
100
AcDbEntity
  8
0
370
    -3
  6
Continuous
100
AcDbLine
 10
-295.582077
 20
-128.669193
 30
0.0
 11
-291.582077
 21
-128.669193
 31
0.0
  0
LINE
  5
27F
100
AcDbEntity
  8
0
370
    -3
  6
Continuous
100
AcDbLine
 10
-279.582077
 20
-25.14301
 30
0.0
 11
-279.582077
 21
-173.160465
 31
0.0
  0
LINE
  5
280
100
AcDbEntity
  8
0
370
    -3
  6
CENTER
100
AcDbLine
 10
-233.584227
 20
-101.151738
 30
0.0
 11
-253.572168
 21
-101.151738
 31
0.0
  0
LINE
  5
281
100
AcDbEntity
  8
0
370
    -3
  6
CENTER
100
AcDbLine
 10
-242.582077
 20
-175.580883
 30
0.0
 11
-242.582077
 21
16.217757
 31
0.0
  0
LINE
  5
282
100
AcDbEntity
  8
0
370
    -3
  6
Continuous
100
AcDbLine
 10
-189.582077
 20
-120.651738
 30
0.0
 11
-189.582077
 21
-81.651738
 31
0.0
  0
LINE
  5
283
100
AcDbEntity
  8
0
370
    -3
  6
Continuous
100
AcDbLine
 10
-295.582077
 20
-81.651738
 30
0.0
 11
-295.582077
 21
-120.651738
 31
0.0
  0
ARC
  5
284
100
AcDbEntity
  8
0
370
    -3
  6
Continuous
100
AcDbCircle
 10
-215.582077
 20
-128.651738
 30
0.0
 40
25.0
100
AcDbArc
 50
331.642363
 51
354.269825
  0
ARC
  5
285
100
AcDbEntity
  8
0
370
    -3
  6
Continuous
100
AcDbCircle
 10
-590.582077
 20
-121.151738
 30
0.0
 40
400.0
100
AcDbArc
 50
358.568016
 51
358.92314
  0
ARC
  5
286
100
AcDbEntity
  8
0
370
    -3
  6
Continuous
100
AcDbCircle
 10
-269.582077
 20
-128.651738
 30
0.0
 40
25.0
100
AcDbArc
 50
185.730175
 51
208.357637
  0
ARC
  5
287
100
AcDbEntity
  8
0
370
    -3
  6
Continuous
100
AcDbCircle
 10
105.417923
 20
-121.151738
 30
0.0
 40
400.0
100
AcDbArc
 50
181.07686
 51
181.431984
  0
LINE
  5
288
100
AcDbEntity
  8
0
370
    -3
  6
CENTER
100
AcDbLine
 10
-293.028161
 20
-38.169193
 30
0.0
 11
-191.944947
 21
-38.169193
 31
0.0
  0
LINE
  5
289
100
AcDbEntity
  8
0
370
    -3
  6
DASHED
100
AcDbLine
 10
-291.582077
 20
-29.669193
 30
0.0
 11
-278.582077
 21
-29.669193
 31
0.0
  0
LINE
  5
28A
100
AcDbEntity
  8
0
370
    -3
  6
DASHED
100
AcDbLine
 10
-206.582077
 20
-29.669193
 30
0.0
 11
-193.582077
 21
-29.669193
 31
0.0
  0
CIRCLE
  5
28B
100
AcDbEntity
  8
0
370
    -3
  6
Continuous
100
AcDbCircle
 10
-1.582077
 20
-160.169193
 30
0.0
 40
5.5
  0
CIRCLE
  5
28C
100
AcDbEntity
  8
0
370
    -3
  6
Continuous
100
AcDbCircle
 10
-1.582077
 20
-160.169193
 30
0.0
 40
8.5
  0
CIRCLE
  5
28D
100
AcDbEntity
  8
0
370
    -3
  6
Continuous
100
AcDbCircle
 10
132.417923
 20
-160.169193
 30
0.0
 40
5.5
  0
CIRCLE
  5
28E
100
AcDbEntity
  8
0
370
    -3
  6
Continuous
100
AcDbCircle
 10
132.417923
 20
-160.169193
 30
0.0
 40
8.5
  0
CIRCLE
  5
28F
100
AcDbEntity
  8
0
370
    -3
  6
Continuous
100
AcDbCircle
 10
132.417923
 20
-38.169193
 30
0.0
 40
5.5
  0
CIRCLE
  5
290
100
AcDbEntity
  8
0
370
    -3
  6
Continuous
100
AcDbCircle
 10
132.417923
 20
-38.169193
 30
0.0
 40
8.5
  0
CIRCLE
  5
291
100
AcDbEntity
  8
0
370
    -3
  6
Continuous
100
AcDbCircle
 10
-1.582077
 20
-38.169193
 30
0.0
 40
5.5
  0
CIRCLE
  5
292
100
AcDbEntity
  8
0
370
    -3
  6
Continuous
100
AcDbCircle
 10
-1.582077
 20
-38.169193
 30
0.0
 40
8.5
  0
LINE
  5
293
100
AcDbEntity
  8
0
370
    -3
  6
CENTER
100
AcDbLine
 10
9.417923
 20
-160.169193
 30
0.0
 11
-12.582077
 21
-160.169193
 31
0.0
  0
LINE
  5
294
100
AcDbEntity
  8
0
370
    -3
  6
CENTER
100
AcDbLine
 10
-1.582077
 20
-149.169193
 30
0.0
 11
-1.582077
 21
-171.169193
 31
0.0
  0
LINE
  5
295
100
AcDbEntity
  8
0
370
    -3
  6
CENTER
100
AcDbLine
 10
143.417923
 20
-160.169193
 30
0.0
 11
121.417923
 21
-160.169193
 31
0.0
  0
LINE
  5
296
100
AcDbEntity
  8
0
370
    -3
  6
CENTER
100
AcDbLine
 10
132.417923
 20
-149.169193
 30
0.0
 11
132.417923
 21
-171.169193
 31
0.0
  0
LINE
  5
297
100
AcDbEntity
  8
0
370
    -3
  6
CENTER
100
AcDbLine
 10
143.417923
 20
-38.169193
 30
0.0
 11
121.417923
 21
-38.169193
 31
0.0
  0
LINE
  5
298
100
AcDbEntity
  8
0
370
    -3
  6
CENTER
100
AcDbLine
 10
132.417923
 20
-27.169193
 30
0.0
 11
132.417923
 21
-49.169193
 31
0.0
  0
LINE
  5
299
100
AcDbEntity
  8
0
370
    -3
  6
CENTER
100
AcDbLine
 10
9.417923
 20
-38.169193
 30
0.0
 11
-12.582077
 21
-38.169193
 31
0.0
  0
LINE
  5
29A
100
AcDbEntity
  8
0
370
    -3
  6
CENTER
100
AcDbLine
 10
-1.582077
 20
-27.169193
 30
0.0
 11
-1.582077
 21
-49.169193
 31
0.0
  0
CIRCLE
  5
29B
100
AcDbEntity
  8
0
370
    -3
  6
Continuous
100
AcDbCircle
 10
46.417923
 20
-86.169193
 30
0.0
 40
4.0
  0
CIRCLE
  5
29C
100
AcDbEntity
  8
0
370
    -3
  6
Continuous
100
AcDbCircle
 10
46.417923
 20
-86.169193
 30
0.0
 40
3.5
  0
ARC
  5
29D
100
AcDbEntity
  8
0
370
    -3
  6
Continuous
100
AcDbCircle
 10
46.417923
 20
-86.169193
 30
0.0
 40
14.0
100
AcDbArc
 50
106.60155
 51
73.39845
  0
LINE
  5
29E
100
AcDbEntity
  8
0
370
    -3
  6
Continuous
100
AcDbLine
 10
42.417923
 20
-69.169193
 30
0.0
 11
50.417923
 21
-69.169193
 31
0.0
  0
LINE
  5
29F
100
AcDbEntity
  8
0
370
    -3
  6
Continuous
100
AcDbLine
 10
42.417923
 20
-76.169193
 30
0.0
 11
50.417923
 21
-76.169193
 31
0.0
  0
LINE
  5
2A0
100
AcDbEntity
  8
0
370
    -3
  6
Continuous
100
AcDbLine
 10
42.417923
 20
-69.169193
 30
0.0
 11
42.417923
 21
-76.169193
 31
0.0
  0
LINE
  5
2A1
100
AcDbEntity
  8
0
370
    -3
  6
Continuous
100
AcDbLine
 10
50.417923
 20
-69.169193
 30
0.0
 11
50.417923
 21
-76.169193
 31
0.0
  0
LINE
  5
2A2
100
AcDbEntity
  8
0
370
    -3
  6
Continuous
100
AcDbLine
 10
110.085212
 20
-164.669193
 30
0.0
 11
20.750635
 21
-164.669193
 31
0.0
  0
LINE
  5
2A3
100
AcDbEntity
  8
0
370
    -3
  6
Continuous
100
AcDbLine
 10
-6.082077
 20
-137.836481
 30
0.0
 11
-6.082077
 21
-60.501904
 31
0.0
  0
LINE
  5
2A4
100
AcDbEntity
  8
0
370
    -3
  6
Continuous
100
AcDbLine
 10
20.750635
 20
-33.669193
 30
0.0
 11
110.085212
 21
-33.669193
 31
0.0
  0
LINE
  5
2A5
100
AcDbEntity
  8
0
370
    -3
  6
Continuous
100
AcDbLine
 10
20.750635
 20
-162.169193
 30
0.0
 11
110.085212
 21
-162.169193
 31
0.0
  0
LINE
  5
2A6
100
AcDbEntity
  8
0
370
    -3
  6
Continuous
100
AcDbLine
 10
110.085212
 20
-36.169193
 30
0.0
 11
20.750635
 21
-36.169193
 31
0.0
  0
LINE
  5
2A7
100
AcDbEntity
  8
0
370
    -3
  6
Continuous
100
AcDbLine
 10
-3.582077
 20
-60.501904
 30
0.0
 11
-3.582077
 21
-137.836481
 31
0.0
  0
LINE
  5
2A8
100
AcDbEntity
  8
0
370
    -3
  6
CENTER
100
AcDbLine
 10
-18.040735
 20
-86.169193
 30
0.0
 11
105.107917
 21
-86.169193
 31
0.0
  0
LINE
  5
2A9
100
AcDbEntity
  8
0
370
    -3
  6
Continuous
100
AcDbLine
 10
136.417923
 20
-173.169193
 30
0.0
 11
-5.582077
 21
-173.169193
 31
0.0
  0
LINE
  5
2AA
100
AcDbEntity
  8
0
370
    -3
  6
Continuous
100
AcDbLine
 10
-14.582077
 20
-164.169193
 30
0.0
 11
-14.582077
 21
-34.169193
 31
0.0
  0
LINE
  5
2AB
100
AcDbEntity
  8
0
370
    -3
  6
Continuous
100
AcDbLine
 10
-5.582077
 20
-25.169193
 30
0.0
 11
136.417923
 21
-25.169193
 31
0.0
  0
LINE
  5
2AC
100
AcDbEntity
  8
0
370
    -3
  6
Continuous
100
AcDbLine
 10
136.917923
 20
-60.501904
 30
0.0
 11
136.917923
 21
-137.836481
 31
0.0
  0
ARC
  5
2AD
100
AcDbEntity
  8
0
370
    -3
  6
Continuous
100
AcDbCircle
 10
136.417923
 20
-34.169193
 30
0.0
 40
9.0
100
AcDbArc
 50
0.0
 51
90.0
  0
ARC
  5
2AE
100
AcDbEntity
  8
0
370
    -3
  6
Continuous
100
AcDbCircle
 10
126.917923
 20
-60.501904
 30
0.0
 40
10.0
100
AcDbArc
 50
0.0
 51
76.164776
  0
ARC
  5
2AF
100
AcDbEntity
  8
0
370
    -3
  6
Continuous
100
AcDbCircle
 10
126.917923
 20
-137.836481
 30
0.0
 40
10.0
100
AcDbArc
 50
283.835224
 51
0.0
  0
ARC
  5
2B0
100
AcDbEntity
  8
0
370
    -3
  6
Continuous
100
AcDbCircle
 10
126.917923
 20
-137.836481
 30
0.0
 40
7.5
100
AcDbArc
 50
283.835224
 51
0.0
  0
ARC
  5
2B1
100
AcDbEntity
  8
0
370
    -3
  6
Continuous
100
AcDbCircle
 10
126.917923
 20
-60.501904
 30
0.0
 40
7.5
100
AcDbArc
 50
0.0
 51
76.164776
  0
ARC
  5
2B2
100
AcDbEntity
  8
0
370
    -3
  6
Continuous
100
AcDbCircle
 10
136.417923
 20
-164.169193
 30
0.0
 40
9.0
100
AcDbArc
 50
270.0
 51
0.0
  0
ARC
  5
2B3
100
AcDbEntity
  8
0
370
    -3
  6
Continuous
100
AcDbCircle
 10
110.085212
 20
-43.669193
 30
0.0
 40
10.0
100
AcDbArc
 50
13.835224
 51
90.0
  0
ARC
  5
2B4
100
AcDbEntity
  8
0
370
    -3
  6
Continuous
100
AcDbCircle
 10
132.417923
 20
-38.169193
 30
0.0
 40
13.0
100
AcDbArc
 50
193.835224
 51
256.164776
  0
ARC
  5
2B5
100
AcDbEntity
  8
0
370
    -3
  6
Continuous
100
AcDbCircle
 10
132.417923
 20
-160.169193
 30
0.0
 40
13.0
100
AcDbArc
 50
103.835224
 51
166.164776
  0
ARC
  5
2B6
100
AcDbEntity
  8
0
370
    -3
  6
Continuous
100
AcDbCircle
 10
110.085212
 20
-154.669193
 30
0.0
 40
10.0
100
AcDbArc
 50
270.0
 51
346.164776
  0
ARC
  5
2B7
100
AcDbEntity
  8
0
370
    -3
  6
Continuous
100
AcDbCircle
 10
132.417923
 20
-160.169193
 30
0.0
 40
15.5
100
AcDbArc
 50
103.835224
 51
166.164776
  0
ARC
  5
2B8
100
AcDbEntity
  8
0
370
    -3
  6
Continuous
100
AcDbCircle
 10
132.417923
 20
-38.169193
 30
0.0
 40
15.5
100
AcDbArc
 50
193.835224
 51
256.164776
  0
ARC
  5
2B9
100
AcDbEntity
  8
0
370
    -3
  6
Continuous
100
AcDbCircle
 10
-5.582077
 20
-34.169193
 30
0.0
 40
9.0
100
AcDbArc
 50
90.0
 51
180.0
  0
ARC
  5
2BA
100
AcDbEntity
  8
0
370
    -3
  6
Continuous
100
AcDbCircle
 10
-5.582077
 20
-164.169193
 30
0.0
 40
9.0
100
AcDbArc
 50
180.0
 51
270.0
  0
CIRCLE
  5
2BB
100
AcDbEntity
  8
0
370
    -3
  6
Continuous
100
AcDbCircle
 10
46.417923
 20
-86.169193
 30
0.0
 40
30.0
  0
CIRCLE
  5
2BC
100
AcDbEntity
  8
0
370
    -3
  6
Continuous
100
AcDbCircle
 10
46.417923
 20
-86.169193
 30
0.0
 40
49.5
  0
ARC
  5
2BD
100
AcDbEntity
  8
0
370
    -3
  6
Continuous
100
AcDbCircle
 10
20.750635
 20
-154.669193
 30
0.0
 40
7.5
100
AcDbArc
 50
193.835224
 51
270.0
  0
ARC
  5
2BE
100
AcDbEntity
  8
0
370
    -3
  6
Continuous
100
AcDbCircle
 10
-1.582077
 20
-160.169193
 30
0.0
 40
15.5
100
AcDbArc
 50
13.835224
 51
76.164776
  0
ARC
  5
2BF
100
AcDbEntity
  8
0
370
    -3
  6
Continuous
100
AcDbCircle
 10
3.917923
 20
-137.836481
 30
0.0
 40
7.5
100
AcDbArc
 50
180.0
 51
256.164776
  0
ARC
  5
2C0
100
AcDbEntity
  8
0
370
    -3
  6
Continuous
100
AcDbCircle
 10
3.917923
 20
-60.501904
 30
0.0
 40
7.5
100
AcDbArc
 50
103.835224
 51
180.0
  0
ARC
  5
2C1
100
AcDbEntity
  8
0
370
    -3
  6
Continuous
100
AcDbCircle
 10
-1.582077
 20
-38.169193
 30
0.0
 40
15.5
100
AcDbArc
 50
283.835224
 51
346.164776
  0
ARC
  5
2C2
100
AcDbEntity
  8
0
370
    -3
  6
Continuous
100
AcDbCircle
 10
20.750635
 20
-43.669193
 30
0.0
 40
7.5
100
AcDbArc
 50
90.0
 51
166.164776
  0
ARC
  5
2C3
100
AcDbEntity
  8
0
370
    -3
  6
Continuous
100
AcDbCircle
 10
110.085212
 20
-43.669193
 30
0.0
 40
7.5
100
AcDbArc
 50
13.835224
 51
90.0
  0
ARC
  5
2C4
100
AcDbEntity
  8
0
370
    -3
  6
Continuous
100
AcDbCircle
 10
110.085212
 20
-154.669193
 30
0.0
 40
7.5
100
AcDbArc
 50
270.0
 51
346.164776
  0
ARC
  5
2C5
100
AcDbEntity
  8
0
370
    -3
  6
Continuous
100
AcDbCircle
 10
20.750635
 20
-43.669193
 30
0.0
 40
10.0
100
AcDbArc
 50
90.0
 51
166.164776
  0
ARC
  5
2C6
100
AcDbEntity
  8
0
370
    -3
  6
Continuous
100
AcDbCircle
 10
-1.582077
 20
-38.169193
 30
0.0
 40
13.0
100
AcDbArc
 50
283.835224
 51
346.164776
  0
ARC
  5
2C7
100
AcDbEntity
  8
0
370
    -3
  6
Continuous
100
AcDbCircle
 10
3.917923
 20
-60.501904
 30
0.0
 40
10.0
100
AcDbArc
 50
103.835224
 51
180.0
  0
ARC
  5
2C8
100
AcDbEntity
  8
0
370
    -3
  6
Continuous
100
AcDbCircle
 10
3.917923
 20
-137.836481
 30
0.0
 40
10.0
100
AcDbArc
 50
180.0
 51
256.164776
  0
ARC
  5
2C9
100
AcDbEntity
  8
0
370
    -3
  6
Continuous
100
AcDbCircle
 10
-1.582077
 20
-160.169193
 30
0.0
 40
13.0
100
AcDbArc
 50
13.835224
 51
76.164776
  0
ARC
  5
2CA
100
AcDbEntity
  8
0
370
    -3
  6
Continuous
100
AcDbCircle
 10
20.750635
 20
-154.669193
 30
0.0
 40
10.0
100
AcDbArc
 50
193.835224
 51
270.0
  0
CIRCLE
  5
2CB
100
AcDbEntity
  8
0
370
    -3
  6
Continuous
100
AcDbCircle
 10
46.417923
 20
-86.169193
 30
0.0
 40
47.0
  0
ARC
  5
2CC
100
AcDbEntity
  8
0
370
    -3
  6
Continuous
100
AcDbCircle
 10
136.417923
 20
-34.169193
 30
0.0
 40
7.4
100
AcDbArc
 50
0.0
 51
90.0
  0
ARC
  5
2CD
100
AcDbEntity
  8
0
370
    -3
  6
Continuous
100
AcDbCircle
 10
136.417923
 20
-164.169193
 30
0.0
 40
7.4
100
AcDbArc
 50
270.0
 51
0.0
  0
LINE
  5
2CE
100
AcDbEntity
  8
0
370
    -3
  6
Continuous
100
AcDbLine
 10
136.417923
 20
-171.569193
 30
0.0
 11
-5.582077
 21
-171.569193
 31
0.0
  0
ARC
  5
2CF
100
AcDbEntity
  8
0
370
    -3
  6
Continuous
100
AcDbCircle
 10
-5.582077
 20
-164.169193
 30
0.0
 40
7.4
100
AcDbArc
 50
180.0
 51
270.0
  0
LINE
  5
2D0
100
AcDbEntity
  8
0
370
    -3
  6
Continuous
100
AcDbLine
 10
-5.582077
 20
-26.769193
 30
0.0
 11
136.417923
 21
-26.769193
 31
0.0
  0
ARC
  5
2D1
100
AcDbEntity
  8
0
370
    -3
  6
Continuous
100
AcDbCircle
 10
-5.582077
 20
-34.169193
 30
0.0
 40
7.4
100
AcDbArc
 50
90.0
 51
180.0
  0
LINE
  5
2D2
100
AcDbEntity
  8
0
370
    -3
  6
Continuous
100
AcDbLine
 10
-12.982077
 20
-164.169193
 30
0.0
 11
-12.982077
 21
-34.169193
 31
0.0
  0
LINE
  5
2D3
100
AcDbEntity
  8
0
370
    -3
  6
CENTER
100
AcDbLine
 10
126.338724
 20
-101.169193
 30
0.0
 11
368.232744
 21
-101.169193
 31
0.0
  0
LINE
  5
2D4
100
AcDbEntity
  8
0
370
    -3
  6
Continuous
100
AcDbLine
 10
134.417923
 20
-137.836481
 30
0.0
 11
134.417923
 21
-60.501904
 31
0.0
  0
LINE
  5
2D5
100
AcDbEntity
  8
0
370
    -3
  6
Continuous
100
AcDbLine
 10
143.817923
 20
-34.169193
 30
0.0
 11
143.817923
 21
-164.169193
 31
0.0
  0
ARC
  5
2D6
100
AcDbEntity
  8
0
370
    -3
  6
Continuous
100
AcDbCircle
 10
148.417923
 20
-44.258539
 30
0.0
 40
3.0
100
AcDbArc
 50
180.0
 51
269.0
  0
ARC
  5
2D7
100
AcDbEntity
  8
0
370
    -3
  6
Continuous
100
AcDbCircle
 10
148.417923
 20
-158.079846
 30
0.0
 40
3.0
100
AcDbArc
 50
91.0
 51
180.0
  0
LINE
  5
2D8
100
AcDbEntity
  8
0
370
    -3
  6
Continuous
100
AcDbLine
 10
145.417923
 20
-34.169193
 30
0.0
 11
145.417923
 21
-164.169193
 31
0.0
  0
MTEXT
  5
2DA
100
AcDbEntity
  8
0
370
    -3
  6
Continuous
100
AcDbMText
 10
-284.390106
 20
205.292664
 30
0.0
 40
15.0
 41
0.0
 71
     7
 72
     1
  1
\W0.48;GV-SHYFB-RL
  7
ZU_SHPTB00001
 11
1.0
 21
0.0
 31
0.0
 73
     1
 44
1.0
  0
MTEXT
  5
2DB
100
AcDbEntity
  8
0
370
    -3
  6
Continuous
100
AcDbMText
 10
-284.390106
 20
154.442642
 30
0.0
 40
15.0
 41
0.0
 71
     7
 72
     1
  1
\W0.42;GEAR\W0.70; \W0.42;RATIO\W0.70;  \W0.42;1/80-1/240
  7
ZU_SHPTB00001
 11
1.0
 21
0.0
 31
0.0
 73
     1
 44
1.0
  0
MTEXT
  5
2DC
100
AcDbEntity
  8
0
370
    -3
  6
Continuous
100
AcDbMText
 10
-284.390106
 20
171.392654
 30
0.0
 40
15.0
 41
0.0
 71
     7
 72
     1
  1
\W0.43;37.5-12.5r/min\W0.53;　
  7
ZU_SHPTB00001
 11
1.0
 21
0.0
 31
0.0
 73
     1
 44
1.0
  0
MTEXT
  5
2DD
100
AcDbEntity
  8
0
370
    -3
  6
Continuous
100
AcDbMText
 10
-284.390106
 20
137.492645
 30
0.0
 40
15.0
 41
0.0
 71
     7
 72
     1
  1
\W0.43;SCALE\W0.72;  \W0.43;1/1
  7
ZU_SHPTB00001
 11
1.0
 21
0.0
 31
0.0
 73
     1
 44
1.0
  0
MTEXT
  5
2DE
100
AcDbEntity
  8
0
370
    -3
  6
Continuous
100
AcDbMText
 10
-284.390106
 20
188.342636
 30
0.0
 40
15.0
 41
0.0
 71
     7
 72
     1
  1
\W0.43;0.4kW
  7
ZU_SHPTB00001
 11
1.0
 21
0.0
 31
0.0
 73
     1
 44
1.0
  0
MTEXT
  5
2DF
100
AcDbEntity
  8
0
370
    -3
  6
Continuous
100
AcDbMText
 10
-284.390106
 20
222.242676
 30
0.0
 40
15.0
 41
0.0
 71
     7
 72
     1
  1
\W0.63;三菱ギヤードモータ  
  7
ZU_SHPTB00001
 11
1.0
 21
0.0
 31
0.0
 73
     1
 44
1.0
  0
MTEXT
  5
2E0
100
AcDbEntity
  8
0
370
    -3
  6
Continuous
100
AcDbMText
 10
-284.390106
 20
222.242676
 30
0.0
 40
15.0
 41
0.0
 71
     7
 72
     1
  1
\W0.63;三菱ギヤードモータ  
  7
ZU_SHPTB00001
 11
1.0
 21
0.0
 31
0.0
 73
     1
 44
1.0
  0
MTEXT
  5
2E1
100
AcDbEntity
  8
0
370
    -3
  6
Continuous
100
AcDbMText
 10
-284.390106
 20
120.492645
 30
0.0
 40
15.0
 41
0.0
 71
     7
 72
     1
  1
\W0.43;DATE\W0.72; \W0.43;2012.01.15
  7
ZU_SHPTB00001
 11
1.0
 21
0.0
 31
0.0
 73
     1
 44
1.0
  0
LINE
  5
2E2
100
AcDbEntity
  8
0
370
    -3
  6
Continuous
100
AcDbLine
 10
220.878335
 20
-50.169193
 30
0.0
 11
226.989423
 21
-50.169193
 31
0.0
  0
ARC
  5
2E3
100
AcDbEntity
  8
0
370
    -3
  6
Continuous
100
AcDbCircle
 10
226.995553
 20
-49.669193
 30
0.0
 40
0.5
100
AcDbArc
 50
270.0
 51
352.874984
  0
LINE
  5
2E4
100
AcDbEntity
  8
0
370
    -3
  6
Continuous
100
AcDbLine
 10
227.491692
 20
-49.73121
 30
0.0
 11
227.882196
 21
-46.607175
 31
0.0
  0
ARC
  5
2E5
100
AcDbEntity
  8
0
370
    -3
  6
Continuous
100
AcDbCircle
 10
220.878335
 20
-49.669193
 30
0.0
 40
0.5
100
AcDbArc
 50
187.125016
 51
270.0
  0
LINE
  5
2E6
100
AcDbEntity
  8
0
370
    -3
  6
Continuous
100
AcDbLine
 10
220.382196
 20
-49.73121
 30
0.0
 11
219.991692
 21
-46.607175
 31
0.0
  0
LINE
  5
2E7
100
AcDbEntity
  8
0
370
    -3
  6
Continuous
100
AcDbLine
 10
218.936944
 20
-45.669193
 30
0.0
 11
218.936944
 21
-44.669193
 31
0.0
  0
ARC
  5
2E8
100
AcDbEntity
  8
0
370
    -3
  6
Continuous
100
AcDbCircle
 10
218.436944
 20
-44.669193
 30
0.0
 40
0.5
100
AcDbArc
 50
0.0
 51
90.0
  0
LINE
  5
2E9
100
AcDbEntity
  8
0
370
    -3
  6
Continuous
100
AcDbLine
 10
210.167915
 20
-47.674605
 30
0.0
 11
210.167915
 21
-46.169193
 31
0.0
  0
ARC
  5
2EA
100
AcDbEntity
  8
0
370
    -3
  6
Continuous
100
AcDbCircle
 10
219.495553
 20
-46.669193
 30
0.0
 40
0.5
100
AcDbArc
 50
7.125016
 51
90.0
  0
ARC
  5
2EB
100
AcDbEntity
  8
0
370
    -3
  6
Continuous
100
AcDbCircle
 10
219.436944
 20
-45.669193
 30
0.0
 40
0.5
100
AcDbArc
 50
180.0
 51
270.0
  0
LINE
  5
2EC
100
AcDbEntity
  8
0
370
    -3
  6
Continuous
100
AcDbLine
 10
214.313171
 20
-44.169193
 30
0.0
 11
214.392414
 21
-41.143016
 31
0.0
  0
ARC
  5
2ED
100
AcDbEntity
  8
0
370
    -3
  6
Continuous
100
AcDbCircle
 10
229.436944
 20
-44.669193
 30
0.0
 40
0.5
100
AcDbArc
 50
90.0
 51
180.0
  0
LINE
  5
2EE
100
AcDbEntity
  8
0
370
    -3
  6
Continuous
100
AcDbLine
 10
228.936944
 20
-45.669193
 30
0.0
 11
228.936944
 21
-44.669193
 31
0.0
  0
LINE
  5
2EF
100
AcDbEntity
  8
0
370
    -3
  6
Continuous
100
AcDbLine
 10
228.400759
 20
-46.169193
 30
0.0
 11
219.436944
 21
-46.169193
 31
0.0
  0
LINE
  5
2F0
100
AcDbEntity
  8
0
370
    -3
  6
Continuous
100
AcDbLine
 10
227.365229
 20
-44.169193
 30
0.0
 11
214.313171
 21
-44.169193
 31
0.0
  0
ARC
  5
2F1
100
AcDbEntity
  8
0
370
    -3
  6
Continuous
100
AcDbCircle
 10
228.378335
 20
-46.669193
 30
0.0
 40
0.5
100
AcDbArc
 50
90.0
 51
172.874984
  0
ARC
  5
2F2
100
AcDbEntity
  8
0
370
    -3
  6
Continuous
100
AcDbCircle
 10
228.436944
 20
-45.669193
 30
0.0
 40
0.5
100
AcDbArc
 50
270.0
 51
0.0
  0
LINE
  5
2F3
100
AcDbEntity
  8
0
370
    -3
  6
Continuous
100
AcDbLine
 10
227.365229
 20
-44.169193
 30
0.0
 11
266.4706
 21
-44.169193
 31
0.0
  0
LINE
  5
2F4
100
AcDbEntity
  8
0
370
    -3
  6
Continuous
100
AcDbLine
 10
278.667923
 20
-46.169193
 30
0.0
 11
210.167915
 21
-46.169193
 31
0.0
  0
LINE
  5
2F5
100
AcDbEntity
  8
0
370
    -3
  6
Continuous
100
AcDbLine
 10
272.937215
 20
-50.169193
 30
0.0
 11
266.846406
 21
-50.169193
 31
0.0
  0
ARC
  5
2F6
100
AcDbEntity
  8
0
370
    -3
  6
Continuous
100
AcDbCircle
 10
266.840276
 20
-49.669193
 30
0.0
 40
0.5
100
AcDbArc
 50
187.125016
 51
270.0
  0
LINE
  5
2F7
100
AcDbEntity
  8
0
370
    -3
  6
Continuous
100
AcDbLine
 10
273.692888
 20
-47.817168
 30
0.0
 11
273.844137
 21
-46.607175
 31
0.0
  0
LINE
  5
2F8
100
AcDbEntity
  8
0
370
    -3
  6
Continuous
100
AcDbLine
 10
266.344137
 20
-49.73121
 30
0.0
 11
265.953633
 21
-46.607175
 31
0.0
  0
LINE
  5
2F9
100
AcDbEntity
  8
0
370
    -3
  6
Continuous
100
AcDbLine
 10
266.4706
 20
-44.169193
 30
0.0
 11
279.522658
 21
-44.169193
 31
0.0
  0
ARC
  5
2FA
100
AcDbEntity
  8
0
370
    -3
  6
Continuous
100
AcDbCircle
 10
265.457494
 20
-46.669193
 30
0.0
 40
0.5
100
AcDbArc
 50
7.125016
 51
90.0
  0
ARC
  5
2FB
100
AcDbEntity
  8
0
370
    -3
  6
Continuous
100
AcDbCircle
 10
265.398885
 20
-45.669193
 30
0.0
 40
0.5
100
AcDbArc
 50
180.0
 51
270.0
  0
LINE
  5
2FC
100
AcDbEntity
  8
0
370
    -3
  6
Continuous
100
AcDbLine
 10
265.398885
 20
-46.169193
 30
0.0
 11
274.092568
 21
-46.169193
 31
0.0
  0
LINE
  5
2FD
100
AcDbEntity
  8
0
370
    -3
  6
Continuous
100
AcDbLine
 10
264.898885
 20
-45.669193
 30
0.0
 11
264.898885
 21
-44.669193
 31
0.0
  0
ARC
  5
2FE
100
AcDbEntity
  8
0
370
    -3
  6
Continuous
100
AcDbCircle
 10
264.398885
 20
-44.669193
 30
0.0
 40
0.5
100
AcDbArc
 50
0.0
 51
90.0
  0
LINE
  5
2FF
100
AcDbEntity
  8
0
370
    -3
  6
Continuous
100
AcDbLine
 10
265.43507
 20
-46.169193
 30
0.0
 11
274.092568
 21
-46.169193
 31
0.0
  0
LINE
  5
300
100
AcDbEntity
  8
0
370
    -3
  6
Continuous
100
AcDbLine
 10
279.522658
 20
-44.169193
 30
0.0
 11
279.443415
 21
-41.143016
 31
0.0
  0
ARC
  5
301
100
AcDbEntity
  8
0
370
    -3
  6
Continuous
100
AcDbCircle
 10
274.340276
 20
-46.669193
 30
0.0
 40
0.5
100
AcDbArc
 50
90.0
 51
172.874984
  0
ARC
  5
302
100
AcDbEntity
  8
0
370
    -3
  6
Continuous
100
AcDbCircle
 10
274.398885
 20
-45.669193
 30
0.0
 40
0.5
100
AcDbArc
 50
270.0
 51
0.0
  0
ARC
  5
303
100
AcDbEntity
  8
0
370
    -3
  6
Continuous
100
AcDbCircle
 10
275.398885
 20
-44.669193
 30
0.0
 40
0.5
100
AcDbArc
 50
90.0
 51
180.0
  0
LINE
  5
304
100
AcDbEntity
  8
0
370
    -3
  6
Continuous
100
AcDbLine
 10
274.898885
 20
-45.669193
 30
0.0
 11
274.898885
 21
-44.669193
 31
0.0
  0
LINE
  5
305
100
AcDbEntity
  8
0
370
    -3
  6
Continuous
100
AcDbLine
 10
278.667923
 20
-46.169193
 30
0.0
 11
278.667923
 21
-46.829444
 31
0.0
  0
LINE
  5
306
100
AcDbEntity
  8
0
370
    -3
  6
CENTER
100
AcDbLine
 10
246.917915
 20
-50.94661
 30
0.0
 11
246.917915
 21
-28.036633
 31
0.0
  0
ARC
  5
307
100
AcDbEntity
  8
0
370
    -3
  6
Continuous
100
AcDbCircle
 10
278.443758
 20
-41.169193
 30
0.0
 40
1.0
100
AcDbArc
 50
1.5
 51
90.0
  0
LINE
  5
308
100
AcDbEntity
  8
0
370
    -3
  6
Continuous
100
AcDbLine
 10
278.443758
 20
-40.169193
 30
0.0
 11
215.392071
 21
-40.169193
 31
0.0
  0
ARC
  5
309
100
AcDbEntity
  8
0
370
    -3
  6
Continuous
100
AcDbCircle
 10
277.242221
 20
-35.169193
 30
0.0
 40
3.0
100
AcDbArc
 50
270.0
 51
0.0
  0
LINE
  5
30A
100
AcDbEntity
  8
0
370
    -3
  6
CENTER
100
AcDbLine
 10
246.917915
 20
-50.94661
 30
0.0
 11
246.917915
 21
-28.036633
 31
0.0
  0
ARC
  5
30B
100
AcDbEntity
  8
0
370
    -3
  6
Continuous
100
AcDbCircle
 10
274.917915
 20
-38.169193
 30
0.0
 40
1.0
100
AcDbArc
 50
270.0
 51
346.657636
  0
LINE
  5
30C
100
AcDbEntity
  8
0
370
    -3
  6
Continuous
100
AcDbLine
 10
285.117915
 20
-38.169193
 30
0.0
 11
215.479761
 21
-38.169193
 31
0.0
  0
LINE
  5
30D
100
AcDbEntity
  8
0
370
    -3
  6
Continuous
100
AcDbLine
 10
277.917915
 20
-40.169193
 30
0.0
 11
215.917915
 21
-40.169193
 31
0.0
  0
LINE
  5
30E
100
AcDbEntity
  8
0
370
    -3
  6
Continuous
100
AcDbLine
 10
277.917915
 20
-39.169193
 30
0.0
 11
215.917915
 21
-39.169193
 31
0.0
  0
LINE
  5
30F
100
AcDbEntity
  8
0
370
    -3
  6
Continuous
100
AcDbLine
 10
277.917915
 20
-40.169193
 30
0.0
 11
277.917915
 21
-39.169193
 31
0.0
  0
ARC
  5
310
100
AcDbEntity
  8
0
370
    -3
  6
Continuous
100
AcDbCircle
 10
276.182826
 20
-38.469193
 30
0.0
 40
0.3
100
AcDbArc
 50
90.0
 51
166.657636
  0
ARC
  5
311
100
AcDbEntity
  8
0
370
    -3
  6
Continuous
100
AcDbCircle
 10
215.392071
 20
-41.169193
 30
0.0
 40
1.0
100
AcDbArc
 50
90.0
 51
178.5
  0
ARC
  5
312
100
AcDbEntity
  8
0
370
    -3
  6
Continuous
100
AcDbCircle
 10
503.743554
 20
-88.85459
 30
0.0
 40
300.8
100
AcDbArc
 50
162.341575
 51
167.89975
  0
ARC
  5
313
100
AcDbEntity
  8
0
370
    -3
  6
Continuous
100
AcDbCircle
 10
227.407819
 20
-0.885495
 30
0.0
 40
10.8
100
AcDbArc
 50
92.437505
 51
162.341575
  0
LINE
  5
314
100
AcDbEntity
  8
0
370
    -3
  6
Continuous
100
AcDbLine
 10
203.879564
 20
-37.413669
 30
0.0
 11
292.32863
 21
3.830807
 31
0.0
  0
LINE
  5
315
100
AcDbEntity
  8
0
370
    -3
  6
Continuous
100
AcDbLine
 10
203.059732
 20
-31.396371
 30
0.0
 11
296.409434
 21
12.133309
 31
0.0
  0
LINE
  5
316
100
AcDbEntity
  8
0
370
    -3
  6
Continuous
100
AcDbLine
 10
211.130027
 20
-34.032723
 30
0.0
 11
212.035791
 21
-35.975142
 31
0.0
  0
LINE
  5
317
100
AcDbEntity
  8
0
370
    -3
  6
Continuous
100
AcDbLine
 10
222.730766
 20
-28.62321
 30
0.0
 11
226.159029
 21
-35.975142
 31
0.0
  0
ARC
  5
318
100
AcDbEntity
  8
0
370
    -3
  6
Continuous
100
AcDbCircle
 10
229.602998
 20
-34.369193
 30
0.0
 40
3.8
100
AcDbArc
 50
205.0
 51
270.0
  0
ARC
  5
319
100
AcDbEntity
  8
0
370
    -3
  6
Continuous
100
AcDbCircle
 10
216.518098
 20
-9.447178
 30
0.0
 40
2.8
100
AcDbArc
 50
164.545811
 51
205.0
  0
LINE
  5
31A
100
AcDbEntity
  8
0
370
    -3
  6
Continuous
100
AcDbLine
 10
213.980436
 20
-10.630509
 30
0.0
 11
218.715862
 21
-20.785664
 31
0.0
  0
ARC
  5
31B
100
AcDbEntity
  8
0
370
    -3
  6
Continuous
100
AcDbCircle
 10
215.996939
 20
-22.053519
 30
0.0
 40
3.0
100
AcDbArc
 50
295.0
 51
25.0
  0
ARC
  5
31C
100
AcDbEntity
  8
0
370
    -3
  6
Continuous
100
AcDbCircle
 10
210.077703
 20
-27.043603
 30
0.0
 40
1.299999
100
AcDbArc
 50
24.999999
 51
98.398469
  0
LINE
  5
31D
100
AcDbEntity
  8
0
370
    -3
  6
Continuous
100
AcDbLine
 10
211.669656
 20
-27.381498
 30
0.0
 11
211.255902
 21
-26.4942
 31
0.0
  0
ARC
  5
31E
100
AcDbEntity
  8
0
370
    -3
  6
Continuous
100
AcDbCircle
 10
211.202336
 20
-34.661031
 30
0.0
 40
9.0
100
AcDbArc
 50
98.398469
 51
131.601548
  0
ARC
  5
31F
100
AcDbEntity
  8
0
370
    -3
  6
Continuous
100
AcDbCircle
 10
206.089947
 20
-28.903124
 30
0.0
 40
1.299999
100
AcDbArc
 50
131.601548
 51
205.000018
  0
LINE
  5
320
100
AcDbEntity
  8
0
370
    -3
  6
CENTER
100
AcDbLine
 10
209.755253
 20
-31.557753
 30
0.0
 11
206.885332
 21
-25.403188
 31
0.0
  0
LINE
  5
321
100
AcDbEntity
  8
0
370
    -3
  6
Continuous
100
AcDbLine
 10
205.325502
 20
-30.339826
 30
0.0
 11
204.911748
 21
-29.452528
 31
0.0
  0
POINT
  5
322
100
AcDbEntity
  8
0
370
    -3
  6
Continuous
100
AcDbPoint
 10
208.521289
 20
-28.849606
 30
0.0
  0
LINE
  5
323
100
AcDbEntity
  8
0
370
    -3
  6
CENTER
100
AcDbLine
 10
209.755253
 20
-31.557753
 30
0.0
 11
206.885332
 21
-25.403188
 31
0.0
  0
ARC
  5
324
100
AcDbEntity
  8
0
370
    -3
  6
Continuous
100
AcDbCircle
 10
203.820445
 20
-33.027725
 30
0.0
 40
1.8
100
AcDbArc
 50
115.0
 51
205.0
  0
LINE
  5
325
100
AcDbEntity
  8
0
370
    -3
  6
Continuous
100
AcDbLine
 10
202.189091
 20
-33.788438
 30
0.0
 11
203.879564
 21
-37.413669
 31
0.0
  0
ARC
  5
326
100
AcDbEntity
  8
0
370
    -3
  6
Continuous
100
AcDbCircle
 10
215.479761
 20
-34.369193
 30
0.0
 40
3.8
100
AcDbArc
 50
205.0
 51
270.0
  0
LINE
  5
327
100
AcDbEntity
  8
0
370
    -3
  6
Continuous
100
AcDbLine
 10
280.242221
 20
-1.805178
 30
0.0
 11
280.242221
 21
-35.169193
 31
0.0
  0
LINE
  5
328
100
AcDbEntity
  8
0
370
    -3
  6
Continuous
100
AcDbLine
 10
291.917915
 20
3.639287
 30
0.0
 11
291.917915
 21
-31.369193
 31
0.0
  0
LINE
  5
329
100
AcDbEntity
  8
0
370
    -3
  6
Continuous
100
AcDbLine
 10
293.917915
 20
-13.169193
 30
0.0
 11
293.917915
 21
0.830807
 31
0.0
  0
LINE
  5
32A
100
AcDbEntity
  8
0
370
    -3
  6
Continuous
100
AcDbLine
 10
292.32863
 20
3.830807
 30
0.0
 11
300.491974
 21
7.637437
 31
0.0
  0
ARC
  5
32B
100
AcDbEntity
  8
0
370
    -3
  6
Continuous
100
AcDbCircle
 10
280.936518
 20
8.228304
 30
0.0
 40
3.0
100
AcDbArc
 50
205.0
 51
295.0
  0
LINE
  5
32C
100
AcDbEntity
  8
0
370
    -3
  6
Continuous
100
AcDbLine
 10
315.917915
 20
0.830807
 30
0.0
 11
291.917915
 21
0.830807
 31
0.0
  0
POINT
  5
32D
100
AcDbEntity
  8
0
370
    -3
  6
CENTER
100
AcDbPoint
 10
317.917915
 20
-2.691693
 30
0.0
  0
POINT
  5
32E
100
AcDbEntity
  8
0
370
    -3
  6
CENTER
100
AcDbPoint
 10
317.917915
 20
-23.646693
 30
0.0
  0
ARC
  5
32F
100
AcDbEntity
  8
0
370
    -3
  6
Continuous
100
AcDbCircle
 10
218.917915
 20
-38.169193
 30
0.0
 40
1.0
100
AcDbArc
 50
193.342364
 51
270.0
  0
LINE
  5
330
100
AcDbEntity
  8
0
370
    -3
  6
Continuous
100
AcDbLine
 10
293.917915
 20
-27.169193
 30
0.0
 11
293.917915
 21
-13.169193
 31
0.0
  0
LINE
  5
331
100
AcDbEntity
  8
0
370
    -3
  6
CENTER
100
AcDbLine
 10
323.396538
 20
-13.169193
 30
0.0
 11
283.090052
 21
-13.169193
 31
0.0
  0
LINE
  5
332
100
AcDbEntity
  8
0
370
    -3
  6
Continuous
100
AcDbLine
 10
317.917915
 20
-1.169193
 30
0.0
 11
317.917915
 21
-13.169193
 31
0.0
  0
LINE
  5
333
100
AcDbEntity
  8
0
370
    -3
  6
Continuous
100
AcDbLine
 10
317.917915
 20
-25.169193
 30
0.0
 11
317.917915
 21
-13.169193
 31
0.0
  0
ARC
  5
334
100
AcDbEntity
  8
0
370
    -3
  6
Continuous
100
AcDbCircle
 10
315.917915
 20
-1.169193
 30
0.0
 40
2.0
100
AcDbArc
 50
0.0
 51
90.0
  0
ARC
  5
335
100
AcDbEntity
  8
0
370
    -3
  6
Continuous
100
AcDbCircle
 10
315.917915
 20
-25.169193
 30
0.0
 40
2.0
100
AcDbArc
 50
270.0
 51
0.0
  0
LINE
  5
336
100
AcDbEntity
  8
0
370
    -3
  6
Continuous
100
AcDbLine
 10
315.917915
 20
-27.169193
 30
0.0
 11
293.917915
 21
-27.169193
 31
0.0
  0
LINE
  5
337
100
AcDbEntity
  8
0
370
    -3
  6
Continuous
100
AcDbLine
 10
293.917915
 20
-27.169193
 30
0.0
 11
291.917915
 21
-27.169193
 31
0.0
  0
LINE
  5
338
100
AcDbEntity
  8
0
370
    -3
  6
Continuous
100
AcDbLine
 10
215.917915
 20
-40.169193
 30
0.0
 11
215.917915
 21
-39.169193
 31
0.0
  0
ARC
  5
339
100
AcDbEntity
  8
0
370
    -3
  6
Continuous
100
AcDbCircle
 10
285.117915
 20
-31.369193
 30
0.0
 40
6.8
100
AcDbArc
 50
270.0
 51
0.0
  0
ARC
  5
33A
100
AcDbEntity
  8
0
370
    -3
  6
Continuous
100
AcDbCircle
 10
217.653003
 20
-38.469193
 30
0.0
 40
0.3
100
AcDbArc
 50
13.342364
 51
90.0
  0
ARC
  5
33B
100
AcDbEntity
  8
0
370
    -3
  6
Continuous
100
AcDbCircle
 10
252.500313
 20
-590.351666
 30
0.0
 40
600.8
100
AcDbArc
 50
86.682408
 51
92.437505
  0
LINE
  5
33C
100
AcDbEntity
  8
0
370
    -3
  6
Continuous
100
AcDbLine
 10
278.217595
 20
6.960449
 30
0.0
 11
277.542564
 21
8.408056
 31
0.0
  0
ARC
  5
33D
100
AcDbEntity
  8
0
370
    -3
  6
Continuous
100
AcDbCircle
 10
275.004903
 20
7.224725
 30
0.0
 40
2.8
100
AcDbArc
 50
25.0
 51
87.843273
  0
ARC
  5
33E
100
AcDbEntity
  8
0
370
    -3
  6
Continuous
100
AcDbCircle
 10
292.551712
 20
11.414659
 30
0.0
 40
1.299999
100
AcDbArc
 50
24.999999
 51
98.398469
  0
ARC
  5
33F
100
AcDbEntity
  8
0
370
    -3
  6
Continuous
100
AcDbCircle
 10
288.563956
 20
9.555138
 30
0.0
 40
1.299999
100
AcDbArc
 50
131.601548
 51
205.000018
  0
LINE
  5
340
100
AcDbEntity
  8
0
370
    -3
  6
Continuous
100
AcDbLine
 10
294.143665
 20
11.076764
 30
0.0
 11
293.729911
 21
11.964062
 31
0.0
  0
LINE
  5
341
100
AcDbEntity
  8
0
370
    -3
  6
Continuous
100
AcDbLine
 10
287.79951
 20
8.118436
 30
0.0
 11
287.385756
 21
9.005734
 31
0.0
  0
POINT
  5
342
100
AcDbEntity
  8
0
370
    -3
  6
Continuous
100
AcDbPoint
 10
290.971588
 20
9.5976
 30
0.0
  0
ARC
  5
343
100
AcDbEntity
  8
0
370
    -3
  6
Continuous
100
AcDbCircle
 10
293.676344
 20
3.79723
 30
0.0
 40
9.0
100
AcDbArc
 50
98.398469
 51
131.601548
  0
LINE
  5
344
100
AcDbEntity
  8
0
370
    -3
  6
CENTER
100
AcDbLine
 10
292.229262
 20
6.900509
 30
0.0
 11
289.359341
 21
13.055074
 31
0.0
  0
ARC
  5
345
100
AcDbEntity
  8
0
370
    -3
  6
Continuous
100
AcDbCircle
 10
297.170147
 20
10.501955
 30
0.0
 40
1.8
100
AcDbArc
 50
25.0
 51
115.0
  0
LINE
  5
346
100
AcDbEntity
  8
0
370
    -3
  6
Continuous
100
AcDbLine
 10
298.801501
 20
11.262668
 30
0.0
 11
300.491974
 21
7.637437
 31
0.0
  0
POINT
  5
347
100
AcDbEntity
  8
0
370
    -3
  6
Continuous
100
AcDbPoint
 10
317.917915
 20
-23.646693
 30
0.0
  0
ELLIPSE
  5
348
100
AcDbEntity
  8
0
370
    -3
  6
Continuous
100
AcDbEllipse
 10
-203.082077
 20
-28.02426
 30
0.0
 11
3.5
 21
0.0
 31
0.0
210
0.0
220
0.0
230
1.0
 40
0.656603
 41
0.7327298810600447
 42
2.4088627725297487
  0
ARC
  5
349
100
AcDbEntity
  8
0
370
    -3
  6
DASHED
100
AcDbCircle
 10
-242.582077
 20
-13.169193
 30
0.0
 40
14.0
100
AcDbArc
 50
294.58189
 51
243.391799
  0
LINE
  5
34A
100
AcDbEntity
  8
0
370
    -3
  6
Continuous
100
AcDbLine
 10
-210.832077
 20
10.448334
 30
0.0
 11
-274.332077
 21
10.448334
 31
0.0
  0
ARC
  5
34B
100
AcDbEntity
  8
0
370
    -3
  6
Continuous
100
AcDbCircle
 10
-210.832077
 20
3.648334
 30
0.0
 40
6.8
100
AcDbArc
 50
0.0
 51
90.0
  0
ARC
  5
34C
100
AcDbEntity
  8
0
370
    -3
  6
Continuous
100
AcDbCircle
 10
-203.582077
 20
-24.357084
 30
0.0
 40
7.8
100
AcDbArc
 50
344.152817
 51
0.0
  0
LINE
  5
34D
100
AcDbEntity
  8
0
370
    -3
  6
Continuous
100
AcDbLine
 10
-195.782077
 20
4.501955
 30
0.0
 11
-195.782077
 21
-26.48705
 31
0.0
  0
LINE
  5
34E
100
AcDbEntity
  8
0
370
    -3
  6
Continuous
100
AcDbLine
 10
-206.333411
 20
-24.354293
 30
0.0
 11
-210.997318
 21
-26.355914
 31
0.0
  0
LINE
  5
34F
100
AcDbEntity
  8
0
370
    -3
  6
Continuous
100
AcDbLine
 10
-204.032077
 20
-20.862303
 30
0.0
 11
-204.032077
 21
3.648334
 31
0.0
  0
ARC
  5
350
100
AcDbEntity
  8
0
370
    -3
  6
Continuous
100
AcDbCircle
 10
-207.832077
 20
-20.862303
 30
0.0
 40
3.8
100
AcDbArc
 50
293.227672
 51
0.0
  0
LINE
  5
351
100
AcDbEntity
  8
0
370
    -3
  6
Continuous
100
AcDbLine
 10
-204.672093
 20
-25.994434
 30
0.0
 11
-203.135754
 21
-26.48705
 31
0.0
  0
LINE
  5
352
100
AcDbEntity
  8
0
370
    -3
  6
Continuous
100
AcDbLine
 10
-201.49206
 20
-25.994434
 30
0.0
 11
-203.0284
 21
-26.48705
 31
0.0
  0
LINE
  5
353
100
AcDbEntity
  8
0
370
    -3
  6
Continuous
100
AcDbLine
 10
-204.672093
 20
12.463827
 30
0.0
 11
-203.082077
 21
11.954001
 31
0.0
  0
LINE
  5
354
100
AcDbEntity
  8
0
370
    -3
  6
Continuous
100
AcDbLine
 10
-203.082077
 20
11.954001
 30
0.0
 11
-205.082077
 21
10.904812
 31
0.0
  0
LINE
  5
355
100
AcDbEntity
  8
0
370
    -3
  6
Continuous
100
AcDbLine
 10
-203.082077
 20
11.954001
 30
0.0
 11
-201.082077
 21
10.904812
 31
0.0
  0
LINE
  5
356
100
AcDbEntity
  8
0
370
    -3
  6
Continuous
100
AcDbLine
 10
-201.49206
 20
12.463827
 30
0.0
 11
-203.082077
 21
11.954001
 31
0.0
  0
ELLIPSE
  5
357
100
AcDbEntity
  8
0
370
    -3
  6
Continuous
100
AcDbEllipse
 10
-203.082077
 20
10.416547
 30
0.0
 11
3.5
 21
0.0
 31
0.0
210
0.0
220
0.0
230
1.0
 40
0.656603
 41
0.0
 42
6.2831853071795862
  0
ARC
  5
358
100
AcDbEntity
  8
0
370
    -3
  6
Continuous
100
AcDbCircle
 10
-203.582077
 20
4.501955
 30
0.0
 40
7.8
100
AcDbArc
 50
0.0
 51
61.87484
  0
LINE
  5
359
100
AcDbEntity
  8
0
370
    -3
  6
Continuous
100
AcDbLine
 10
-205.083258
 20
12.301955
 30
0.0
 11
-280.080895
 21
12.301955
 31
0.0
  0
LINE
  5
35A
100
AcDbEntity
  8
0
370
    -3
  6
CENTER
100
AcDbLine
 10
-223.937144
 20
-13.169193
 30
0.0
 11
-263.882534
 21
-13.169193
 31
0.0
  0
ARC
  5
35B
100
AcDbEntity
  8
0
370
    -3
  6
Continuous
100
AcDbCircle
 10
-274.332077
 20
3.648334
 30
0.0
 40
6.8
100
AcDbArc
 50
90.0
 51
180.0
  0
ARC
  5
35C
100
AcDbEntity
  8
0
370
    -3
  6
Continuous
100
AcDbCircle
 10
-281.582077
 20
-24.357084
 30
0.0
 40
7.8
100
AcDbArc
 50
180.0
 51
187.233211
  0
LINE
  5
35D
100
AcDbEntity
  8
0
370
    -3
  6
Continuous
100
AcDbLine
 10
-281.132077
 20
-20.862303
 30
0.0
 11
-281.132077
 21
3.648334
 31
0.0
  0
ARC
  5
35E
100
AcDbEntity
  8
0
370
    -3
  6
Continuous
100
AcDbCircle
 10
-277.332077
 20
-20.862303
 30
0.0
 40
3.8
100
AcDbArc
 50
180.0
 51
246.772328
  0
LINE
  5
35F
100
AcDbEntity
  8
0
370
    -3
  6
Continuous
100
AcDbLine
 10
-278.830743
 20
-24.354293
 30
0.0
 11
-276.881707
 21
-25.190766
 31
0.0
  0
LINE
  5
360
100
AcDbEntity
  8
0
370
    -3
  6
Continuous
100
AcDbLine
 10
-280.49206
 20
12.463827
 30
0.0
 11
-282.082077
 21
11.954001
 31
0.0
  0
LINE
  5
361
100
AcDbEntity
  8
0
370
    -3
  6
Continuous
100
AcDbLine
 10
-282.082077
 20
11.954001
 30
0.0
 11
-280.082077
 21
10.904812
 31
0.0
  0
LINE
  5
362
100
AcDbEntity
  8
0
370
    -3
  6
Continuous
100
AcDbLine
 10
-282.082077
 20
11.954001
 30
0.0
 11
-284.082077
 21
10.904812
 31
0.0
  0
LINE
  5
363
100
AcDbEntity
  8
0
370
    -3
  6
Continuous
100
AcDbLine
 10
-283.672093
 20
12.463827
 30
0.0
 11
-282.082077
 21
11.954001
 31
0.0
  0
ELLIPSE
  5
364
100
AcDbEntity
  8
0
370
    -3
  6
Continuous
100
AcDbEllipse
 10
-282.082077
 20
10.416547
 30
0.0
 11
3.5
 21
0.0
 31
0.0
210
0.0
220
0.0
230
1.0
 40
0.656603
 41
0.0
 42
6.2831853071795862
  0
ARC
  5
365
100
AcDbEntity
  8
0
370
    -3
  6
Continuous
100
AcDbCircle
 10
-281.582077
 20
4.501955
 30
0.0
 40
7.8
100
AcDbArc
 50
118.12516
 51
180.0
  0
LINE
  5
366
100
AcDbEntity
  8
0
370
    -3
  6
Continuous
100
AcDbLine
 10
-289.382077
 20
4.501955
 30
0.0
 11
-289.382077
 21
-25.340252
 31
0.0
  0
ARC
  5
367
100
AcDbEntity
  8
0
370
    -3
  6
Continuous
100
AcDbCircle
 10
498.917915
 20
-13.169193
 30
0.0
 40
10.4775
100
AcDbArc
 50
90.0
 51
270.0
  0
ARC
  5
368
100
AcDbEntity
  8
0
370
    -3
  6
Continuous
100
AcDbCircle
 10
498.917915
 20
-13.169193
 30
0.0
 40
9.3155
100
AcDbArc
 50
90.0
 51
270.0
  0
ARC
  5
369
100
AcDbEntity
  8
0
370
    -3
  6
Continuous
100
AcDbCircle
 10
498.917915
 20
-13.169193
 30
0.0
 40
14.0
100
AcDbArc
 50
90.0
 51
270.0
  0
LINE
  5
36A
100
AcDbEntity
  8
0
370
    -3
  6
Continuous
100
AcDbLine
 10
531.522658
 20
-44.169193
 30
0.0
 11
531.443415
 21
-41.143016
 31
0.0
  0
ARC
  5
36B
100
AcDbEntity
  8
0
370
    -3
  6
Continuous
100
AcDbCircle
 10
530.443758
 20
-41.169193
 30
0.0
 40
1.0
100
AcDbArc
 50
1.5
 51
90.0
  0
LINE
  5
36C
100
AcDbEntity
  8
0
370
    -3
  6
Continuous
100
AcDbLine
 10
467.392071
 20
-40.169193
 30
0.0
 11
530.443758
 21
-40.169193
 31
0.0
  0
LINE
  5
36D
100
AcDbEntity
  8
0
370
    -3
  6
Continuous
100
AcDbLine
 10
466.313171
 20
-44.169193
 30
0.0
 11
466.392414
 21
-41.143016
 31
0.0
  0
ARC
  5
36E
100
AcDbEntity
  8
0
370
    -3
  6
Continuous
100
AcDbCircle
 10
467.392071
 20
-41.169193
 30
0.0
 40
1.0
100
AcDbArc
 50
90.0
 51
178.5
  0
LINE
  5
36F
100
AcDbEntity
  8
0
370
    -3
  6
Continuous
100
AcDbLine
 10
529.917915
 20
-40.169193
 30
0.0
 11
467.917915
 21
-40.169193
 31
0.0
  0
LINE
  5
370
100
AcDbEntity
  8
0
370
    -3
  6
Continuous
100
AcDbLine
 10
525.749285
 20
-31.369193
 30
0.0
 11
525.749285
 21
5.987404
 31
0.0
  0
ARC
  5
371
100
AcDbEntity
  8
0
370
    -3
  6
Continuous
100
AcDbCircle
 10
518.949285
 20
-31.369193
 30
0.0
 40
6.8
100
AcDbArc
 50
270.0
 51
0.0
  0
ARC
  5
372
100
AcDbEntity
  8
0
370
    -3
  6
Continuous
100
AcDbCircle
 10
478.886544
 20
-31.369193
 30
0.0
 40
6.8
100
AcDbArc
 50
180.0
 51
270.0
  0
LINE
  5
373
100
AcDbEntity
  8
0
370
    -3
  6
Continuous
100
AcDbLine
 10
472.086544
 20
-31.369193
 30
0.0
 11
472.086544
 21
5.987404
 31
0.0
  0
ARC
  5
374
100
AcDbEntity
  8
0
370
    -3
  6
Continuous
100
AcDbCircle
 10
498.917915
 20
-13.169193
 30
0.0
 40
10.4775
100
AcDbArc
 50
270.0
 51
90.0
  0
ARC
  5
375
100
AcDbEntity
  8
0
370
    -3
  6
Continuous
100
AcDbCircle
 10
498.917915
 20
-13.169193
 30
0.0
 40
9.3155
100
AcDbArc
 50
270.0
 51
90.0
  0
ARC
  5
376
100
AcDbEntity
  8
0
370
    -3
  6
Continuous
100
AcDbCircle
 10
498.917915
 20
-13.169193
 30
0.0
 40
14.0
100
AcDbArc
 50
270.0
 51
90.0
  0
LINE
  5
377
100
AcDbEntity
  8
0
370
    -3
  6
Continuous
100
AcDbLine
 10
498.917915
 20
7.637437
 30
0.0
 11
537.917915
 21
7.637437
 31
0.0
  0
LINE
  5
378
100
AcDbEntity
  8
0
370
    -3
  6
Continuous
100
AcDbLine
 10
544.417915
 20
-28.659079
 30
0.0
 11
544.417915
 21
2.897419
 31
0.0
  0
LINE
  5
379
100
AcDbEntity
  8
0
370
    -3
  6
Continuous
100
AcDbLine
 10
537.917915
 20
-37.413669
 30
0.0
 11
534.533087
 21
-37.413669
 31
0.0
  0
LINE
  5
37A
100
AcDbEntity
  8
0
370
    -3
  6
Continuous
100
AcDbLine
 10
535.116185
 20
-37.075575
 30
0.0
 11
537.917915
 21
-37.075575
 31
0.0
  0
ARC
  5
37B
100
AcDbEntity
  8
0
370
    -3
  6
Continuous
100
AcDbCircle
 10
526.917915
 20
-38.169193
 30
0.0
 40
1.0
100
AcDbArc
 50
270.0
 51
346.657636
  0
ARC
  5
37C
100
AcDbEntity
  8
0
370
    -3
  6
Continuous
100
AcDbCircle
 10
528.182826
 20
-38.469193
 30
0.0
 40
0.3
100
AcDbArc
 50
90.0
 51
166.657636
  0
ARC
  5
37D
100
AcDbEntity
  8
0
370
    -3
  6
Continuous
100
AcDbCircle
 10
538.417915
 20
-28.659079
 30
0.0
 40
6.0
100
AcDbArc
 50
270.0
 51
0.0
  0
LINE
  5
37E
100
AcDbEntity
  8
0
370
    -3
  6
Continuous
100
AcDbLine
 10
537.369103
 20
-34.659079
 30
0.0
 11
538.417915
 21
-34.659079
 31
0.0
  0
ARC
  5
37F
100
AcDbEntity
  8
0
370
    -3
  6
Continuous
100
AcDbCircle
 10
531.417915
 20
-31.369193
 30
0.0
 40
6.8
100
AcDbArc
 50
270.0
 51
0.0
  0
LINE
  5
380
100
AcDbEntity
  8
0
370
    -3
  6
Continuous
100
AcDbLine
 10
498.917915
 20
-38.169193
 30
0.0
 11
531.417915
 21
-38.169193
 31
0.0
  0
ARC
  5
381
100
AcDbEntity
  8
0
370
    -3
  6
Continuous
100
AcDbCircle
 10
534.417915
 20
-1.736335
 30
0.0
 40
3.8
100
AcDbArc
 50
0.0
 51
67.022625
  0
ARC
  5
382
100
AcDbEntity
  8
0
370
    -3
  6
Continuous
100
AcDbCircle
 10
524.976948
 20
2.266719
 30
0.0
 40
3.8
100
AcDbArc
 50
67.022625
 51
90.0
  0
LINE
  5
383
100
AcDbEntity
  8
0
370
    -3
  6
Continuous
100
AcDbLine
 10
526.460345
 20
5.765223
 30
0.0
 11
535.901311
 21
1.76217
 31
0.0
  0
LINE
  5
384
100
AcDbEntity
  8
0
370
    -3
  6
Continuous
100
AcDbLine
 10
538.217915
 20
-31.369193
 30
0.0
 11
538.217915
 21
-1.736335
 31
0.0
  0
LINE
  5
385
100
AcDbEntity
  8
0
370
    -3
  6
Continuous
100
AcDbLine
 10
498.917915
 20
6.066719
 30
0.0
 11
524.976948
 21
6.066719
 31
0.0
  0
LINE
  5
386
100
AcDbEntity
  8
0
370
    -3
  6
Continuous
100
AcDbLine
 10
498.917915
 20
-39.169193
 30
0.0
 11
526.917915
 21
-39.169193
 31
0.0
  0
ARC
  5
387
100
AcDbEntity
  8
0
370
    -3
  6
Continuous
100
AcDbCircle
 10
537.917915
 20
-30.075575
 30
0.0
 40
7.0
100
AcDbArc
 50
270.0
 51
0.0
  0
LINE
  5
388
100
AcDbEntity
  8
0
370
    -3
  6
Continuous
100
AcDbLine
 10
529.917915
 20
-40.169193
 30
0.0
 11
529.917915
 21
-39.169193
 31
0.0
  0
LINE
  5
389
100
AcDbEntity
  8
0
370
    -3
  6
Continuous
100
AcDbLine
 10
529.917915
 20
-39.169193
 30
0.0
 11
498.917915
 21
-39.169193
 31
0.0
  0
LINE
  5
38A
100
AcDbEntity
  8
0
370
    -3
  6
Continuous
100
AcDbLine
 10
498.917915
 20
-40.169193
 30
0.0
 11
529.917915
 21
-40.169193
 31
0.0
  0
LINE
  5
38B
100
AcDbEntity
  8
0
370
    -3
  6
Continuous
100
AcDbLine
 10
537.917915
 20
12.301955
 30
0.0
 11
498.917915
 21
12.301955
 31
0.0
  0
LINE
  5
38C
100
AcDbEntity
  8
0
370
    -3
  6
Continuous
100
AcDbLine
 10
498.917915
 20
7.299343
 30
0.0
 11
537.917915
 21
7.299343
 31
0.0
  0
LINE
  5
38D
100
AcDbEntity
  8
0
370
    -3
  6
Continuous
100
AcDbLine
 10
545.717915
 20
4.501955
 30
0.0
 11
545.717915
 21
-29.613669
 31
0.0
  0
ELLIPSE
  5
38E
100
AcDbEntity
  8
0
370
    -3
  6
Continuous
100
AcDbEllipse
 10
538.417915
 20
10.416547
 30
0.0
 11
3.5
 21
0.0
 31
0.0
210
0.0
220
0.0
230
1.0
 40
0.656603
 41
0.4330509754536023
 42
2.1794532890793059
  0
ARC
  5
38F
100
AcDbEntity
  8
0
370
    -3
  6
Continuous
100
AcDbCircle
 10
537.917915
 20
4.501955
 30
0.0
 40
7.8
100
AcDbArc
 50
0.0
 51
90.0
  0
ARC
  5
390
100
AcDbEntity
  8
0
370
    -3
  6
Continuous
100
AcDbCircle
 10
537.917915
 20
-0.162563
 30
0.0
 40
7.8
100
AcDbArc
 50
0.0
 51
90.0
  0
ARC
  5
391
100
AcDbEntity
  8
0
370
    -3
  6
Continuous
100
AcDbCircle
 10
537.917915
 20
0.299343
 30
0.0
 40
7.0
100
AcDbArc
 50
0.0
 51
90.0
  0
LINE
  5
392
100
AcDbEntity
  8
0
370
    -3
  6
Continuous
100
AcDbLine
 10
544.917915
 20
0.299343
 30
0.0
 11
544.917915
 21
-30.075575
 31
0.0
  0
ARC
  5
393
100
AcDbEntity
  8
0
370
    -3
  6
Continuous
100
AcDbCircle
 10
537.917915
 20
-29.613669
 30
0.0
 40
7.8
100
AcDbArc
 50
270.0
 51
0.0
  0
LINE
  5
394
100
AcDbEntity
  8
0
370
    -3
  6
CENTER
100
AcDbLine
 10
517.562847
 20
-13.169193
 30
0.0
 11
477.617458
 21
-13.169193
 31
0.0
  0
LINE
  5
395
100
AcDbEntity
  8
0
370
    -3
  6
Continuous
100
AcDbLine
 10
498.917915
 20
7.637437
 30
0.0
 11
459.917915
 21
7.637437
 31
0.0
  0
LINE
  5
396
100
AcDbEntity
  8
0
370
    -3
  6
Continuous
100
AcDbLine
 10
453.417915
 20
-28.659079
 30
0.0
 11
453.417915
 21
2.897419
 31
0.0
  0
LINE
  5
397
100
AcDbEntity
  8
0
370
    -3
  6
Continuous
100
AcDbLine
 10
459.917915
 20
-37.413669
 30
0.0
 11
463.302742
 21
-37.413669
 31
0.0
  0
LINE
  5
398
100
AcDbEntity
  8
0
370
    -3
  6
Continuous
100
AcDbLine
 10
462.719644
 20
-37.075575
 30
0.0
 11
459.917915
 21
-37.075575
 31
0.0
  0
ARC
  5
399
100
AcDbEntity
  8
0
370
    -3
  6
Continuous
100
AcDbCircle
 10
470.917915
 20
-38.169193
 30
0.0
 40
1.0
100
AcDbArc
 50
193.342364
 51
270.0
  0
ARC
  5
39A
100
AcDbEntity
  8
0
370
    -3
  6
Continuous
100
AcDbCircle
 10
469.653003
 20
-38.469193
 30
0.0
 40
0.3
100
AcDbArc
 50
13.342364
 51
90.0
  0
ARC
  5
39B
100
AcDbEntity
  8
0
370
    -3
  6
Continuous
100
AcDbCircle
 10
459.417915
 20
-28.659079
 30
0.0
 40
6.0
100
AcDbArc
 50
180.0
 51
270.0
  0
LINE
  5
39C
100
AcDbEntity
  8
0
370
    -3
  6
Continuous
100
AcDbLine
 10
460.466726
 20
-34.659079
 30
0.0
 11
459.417915
 21
-34.659079
 31
0.0
  0
ARC
  5
39D
100
AcDbEntity
  8
0
370
    -3
  6
Continuous
100
AcDbCircle
 10
466.417915
 20
-31.369193
 30
0.0
 40
6.8
100
AcDbArc
 50
180.0
 51
270.0
  0
LINE
  5
39E
100
AcDbEntity
  8
0
370
    -3
  6
Continuous
100
AcDbLine
 10
498.917915
 20
-38.169193
 30
0.0
 11
466.417915
 21
-38.169193
 31
0.0
  0
ARC
  5
39F
100
AcDbEntity
  8
0
370
    -3
  6
Continuous
100
AcDbCircle
 10
463.417915
 20
-1.736335
 30
0.0
 40
3.8
100
AcDbArc
 50
112.977375
 51
180.0
  0
ARC
  5
3A0
100
AcDbEntity
  8
0
370
    -3
  6
Continuous
100
AcDbCircle
 10
472.858881
 20
2.266719
 30
0.0
 40
3.8
100
AcDbArc
 50
90.0
 51
112.977375
  0
LINE
  5
3A1
100
AcDbEntity
  8
0
370
    -3
  6
Continuous
100
AcDbLine
 10
471.375484
 20
5.765223
 30
0.0
 11
461.934518
 21
1.76217
 31
0.0
  0
LINE
  5
3A2
100
AcDbEntity
  8
0
370
    -3
  6
Continuous
100
AcDbLine
 10
459.617915
 20
-31.369193
 30
0.0
 11
459.617915
 21
-1.736335
 31
0.0
  0
LINE
  5
3A3
100
AcDbEntity
  8
0
370
    -3
  6
Continuous
100
AcDbLine
 10
498.917915
 20
6.066719
 30
0.0
 11
472.858881
 21
6.066719
 31
0.0
  0
LINE
  5
3A4
100
AcDbEntity
  8
0
370
    -3
  6
Continuous
100
AcDbLine
 10
498.917915
 20
-39.169193
 30
0.0
 11
470.917915
 21
-39.169193
 31
0.0
  0
ARC
  5
3A5
100
AcDbEntity
  8
0
370
    -3
  6
Continuous
100
AcDbCircle
 10
459.917915
 20
-30.075575
 30
0.0
 40
7.0
100
AcDbArc
 50
180.0
 51
270.0
  0
LINE
  5
3A6
100
AcDbEntity
  8
0
370
    -3
  6
Continuous
100
AcDbLine
 10
467.917915
 20
-40.169193
 30
0.0
 11
467.917915
 21
-39.169193
 31
0.0
  0
LINE
  5
3A7
100
AcDbEntity
  8
0
370
    -3
  6
Continuous
100
AcDbLine
 10
467.917915
 20
-39.169193
 30
0.0
 11
498.917915
 21
-39.169193
 31
0.0
  0
LINE
  5
3A8
100
AcDbEntity
  8
0
370
    -3
  6
Continuous
100
AcDbLine
 10
498.917915
 20
-40.169193
 30
0.0
 11
467.917915
 21
-40.169193
 31
0.0
  0
LINE
  5
3A9
100
AcDbEntity
  8
0
370
    -3
  6
Continuous
100
AcDbLine
 10
459.917915
 20
12.301955
 30
0.0
 11
498.917915
 21
12.301955
 31
0.0
  0
LINE
  5
3AA
100
AcDbEntity
  8
0
370
    -3
  6
Continuous
100
AcDbLine
 10
498.917915
 20
7.299343
 30
0.0
 11
459.917915
 21
7.299343
 31
0.0
  0
LINE
  5
3AB
100
AcDbEntity
  8
0
370
    -3
  6
Continuous
100
AcDbLine
 10
452.117915
 20
4.501955
 30
0.0
 11
452.117915
 21
-29.613669
 31
0.0
  0
ELLIPSE
  5
3AC
100
AcDbEntity
  8
0
370
    -3
  6
Continuous
100
AcDbEllipse
 10
459.417915
 20
10.416547
 30
0.0
 11
3.5
 21
0.0
 31
0.0
210
0.0
220
0.0
230
1.0
 40
0.656603
 41
0.9621393645105941
 42
2.708541678136605
  0
ARC
  5
3AD
100
AcDbEntity
  8
0
370
    -3
  6
Continuous
100
AcDbCircle
 10
459.917915
 20
4.501955
 30
0.0
 40
7.8
100
AcDbArc
 50
90.0
 51
180.0
  0
ARC
  5
3AE
100
AcDbEntity
  8
0
370
    -3
  6
Continuous
100
AcDbCircle
 10
459.917915
 20
-0.162563
 30
0.0
 40
7.8
100
AcDbArc
 50
90.0
 51
180.0
  0
ARC
  5
3AF
100
AcDbEntity
  8
0
370
    -3
  6
Continuous
100
AcDbCircle
 10
459.917915
 20
0.299343
 30
0.0
 40
7.0
100
AcDbArc
 50
90.0
 51
180.0
  0
LINE
  5
3B0
100
AcDbEntity
  8
0
370
    -3
  6
Continuous
100
AcDbLine
 10
452.917915
 20
0.299343
 30
0.0
 11
452.917915
 21
-30.075575
 31
0.0
  0
ARC
  5
3B1
100
AcDbEntity
  8
0
370
    -3
  6
Continuous
100
AcDbCircle
 10
459.917915
 20
-29.613669
 30
0.0
 40
7.8
100
AcDbArc
 50
180.0
 51
270.0
  0
LINE
  5
3B2
100
AcDbEntity
  8
0
370
    -3
  6
Continuous
100
AcDbLine
 10
526.263536
 20
-44.169193
 30
0.0
 11
531.522658
 21
-44.169193
 31
0.0
  0
LINE
  5
3B3
100
AcDbEntity
  8
0
370
    -3
  6
Continuous
100
AcDbLine
 10
471.572293
 20
-44.169193
 30
0.0
 11
466.313171
 21
-44.169193
 31
0.0
  0
ARC
  5
3B4
100
AcDbEntity
  8
0
370
    -3
  6
Continuous
100
AcDbCircle
 10
527.398885
 20
-44.669193
 30
0.0
 40
0.5
100
AcDbArc
 50
90.0
 51
145.868113
  0
ARC
  5
3B5
100
AcDbEntity
  8
0
370
    -3
  6
Continuous
100
AcDbCircle
 10
470.436944
 20
-44.669193
 30
0.0
 40
0.5
100
AcDbArc
 50
34.131887
 51
90.0
  0
LINE
  5
3B6
100
AcDbEntity
  8
0
370
    -3
  6
Continuous
100
AcDbLine
 10
289.872789
 20
215.409674
 30
0.0
 11
288.155277
 21
213.409674
 31
0.0
  0
LINE
  5
3B7
100
AcDbEntity
  8
0
370
    -3
  6
Continuous
100
AcDbLine
 10
288.155277
 20
217.409674
 30
0.0
 11
289.872789
 21
215.409674
 31
0.0
  0
ARC
  5
3B8
100
AcDbEntity
  8
0
370
    -3
  6
Continuous
100
AcDbCircle
 10
286.450183
 20
200.474136
 30
0.0
 40
3.8
100
AcDbArc
 50
0.0
 51
41.390427
  0
LINE
  5
3B9
100
AcDbEntity
  8
0
370
    -3
  6
Continuous
100
AcDbLine
 10
280.324289
 20
213.172183
 30
0.0
 11
289.301024
 21
202.986645
 31
0.0
  0
ELLIPSE
  5
3BA
100
AcDbEntity
  8
0
370
    -3
  6
Continuous
100
AcDbEllipse
 10
290.70382
 20
215.409674
 30
0.0
 11
0.0
 21
3.5
 31
0.0
210
0.0
220
0.0
230
1.0
 40
0.982815
 41
0.0
 42
6.2831853071795862
  0
LINE
  5
3BB
100
AcDbEntity
  8
0
370
    -3
  6
Continuous
100
AcDbLine
 10
291.780509
 20
217.409674
 30
0.0
 11
289.872789
 21
215.409674
 31
0.0
  0
LINE
  5
3BC
100
AcDbEntity
  8
0
370
    -3
  6
Continuous
100
AcDbLine
 10
289.872789
 20
215.409674
 30
0.0
 11
291.780509
 21
213.409674
 31
0.0
  0
ARC
  5
3BD
100
AcDbEntity
  8
0
370
    -3
  6
Continuous
100
AcDbCircle
 10
292.691983
 20
136.909674
 30
0.0
 40
7.8
100
AcDbArc
 50
270.0
 51
0.0
  0
ARC
  5
3BE
100
AcDbEntity
  8
0
370
    -3
  6
Continuous
100
AcDbCircle
 10
290.240797
 20
136.909674
 30
0.0
 40
7.8
100
AcDbArc
 50
270.0
 51
0.0
  0
ELLIPSE
  5
3BF
100
AcDbEntity
  8
0
370
    -3
  6
Continuous
100
AcDbEllipse
 10
290.70382
 20
136.409674
 30
0.0
 11
-0.0000000000002274
 21
3.5
 31
0.0
210
0.0
220
0.0
230
1.0
 40
0.982815
 41
0.0
 42
6.2831853071795862
  0
LINE
  5
3C0
100
AcDbEntity
  8
0
370
    -3
  6
Continuous
100
AcDbLine
 10
288.155277
 20
134.409674
 30
0.0
 11
289.872789
 21
136.409674
 31
0.0
  0
LINE
  5
3C1
100
AcDbEntity
  8
0
370
    -3
  6
Continuous
100
AcDbLine
 10
289.872789
 20
136.409674
 30
0.0
 11
288.155277
 21
138.409674
 31
0.0
  0
ARC
  5
3C2
100
AcDbEntity
  8
0
370
    -3
  6
Continuous
100
AcDbCircle
 10
277.473447
 20
141.159674
 30
0.0
 40
3.8
100
AcDbArc
 50
270.0
 51
318.609573
  0
LINE
  5
3C3
100
AcDbEntity
  8
0
370
    -3
  6
Continuous
100
AcDbLine
 10
291.780509
 20
134.409674
 30
0.0
 11
289.872789
 21
136.409674
 31
0.0
  0
LINE
  5
3C4
100
AcDbEntity
  8
0
370
    -3
  6
Continuous
100
AcDbLine
 10
289.872789
 20
136.409674
 30
0.0
 11
291.780509
 21
138.409674
 31
0.0
  0
LINE
  5
3C5
100
AcDbEntity
  8
0
370
    -3
  6
Continuous
100
AcDbLine
 10
280.324289
 20
138.647165
 30
0.0
 11
289.301024
 21
148.832703
 31
0.0
  0
LINE
  5
3C6
100
AcDbEntity
  8
0
370
    -3
  6
Continuous
100
AcDbLine
 10
277.473447
 20
137.359674
 30
0.0
 11
221.977391
 21
137.359674
 31
0.0
  0
ARC
  5
3C7
100
AcDbEntity
  8
0
370
    -3
  6
Continuous
100
AcDbCircle
 10
221.977391
 20
141.159674
 30
0.0
 40
3.8
100
AcDbArc
 50
221.85078
 51
270.0
  0
LINE
  5
3C8
100
AcDbEntity
  8
0
370
    -3
  6
Continuous
100
AcDbLine
 10
209.820454
 20
129.109674
 30
0.0
 11
292.691983
 21
129.109674
 31
0.0
  0
LINE
  5
3C9
100
AcDbEntity
  8
0
370
    -3
  6
Continuous
100
AcDbLine
 10
219.146828
 20
138.624341
 30
0.0
 11
210.008001
 21
148.827349
 31
0.0
  0
ARC
  5
3CA
100
AcDbEntity
  8
0
370
    -3
  6
Continuous
100
AcDbCircle
 10
209.820454
 20
136.909674
 30
0.0
 40
7.8
100
AcDbArc
 50
180.0
 51
270.0
  0
LINE
  5
3CB
100
AcDbEntity
  8
0
370
    -3
  6
Continuous
100
AcDbLine
 10
207.39878
 20
136.409674
 30
0.0
 11
205.681269
 21
138.409674
 31
0.0
  0
LINE
  5
3CC
100
AcDbEntity
  8
0
370
    -3
  6
Continuous
100
AcDbLine
 10
205.681269
 20
134.409674
 30
0.0
 11
207.39878
 21
136.409674
 31
0.0
  0
ELLIPSE
  5
3CD
100
AcDbEntity
  8
0
370
    -3
  6
Continuous
100
AcDbEllipse
 10
208.229811
 20
136.409674
 30
0.0
 11
-0.000000000000199
 21
3.5
 31
0.0
210
0.0
220
0.0
230
1.0
 40
0.982815
 41
0.0
 42
6.2831853071795862
  0
LINE
  5
3CE
100
AcDbEntity
  8
0
370
    -3
  6
Continuous
100
AcDbLine
 10
209.3065
 20
134.409674
 30
0.0
 11
207.39878
 21
136.409674
 31
0.0
  0
LINE
  5
3CF
100
AcDbEntity
  8
0
370
    -3
  6
Continuous
100
AcDbLine
 10
207.39878
 20
136.409674
 30
0.0
 11
209.3065
 21
138.409674
 31
0.0
  0
ARC
  5
3D0
100
AcDbEntity
  8
0
370
    -3
  6
Continuous
100
AcDbCircle
 10
209.820454
 20
214.909674
 30
0.0
 40
7.8
100
AcDbArc
 50
90.0
 51
180.0
  0
LINE
  5
3D1
100
AcDbEntity
  8
0
370
    -3
  6
Continuous
100
AcDbLine
 10
205.681269
 20
217.409674
 30
0.0
 11
207.39878
 21
215.409674
 31
0.0
  0
LINE
  5
3D2
100
AcDbEntity
  8
0
370
    -3
  6
Continuous
100
AcDbLine
 10
209.3065
 20
217.409674
 30
0.0
 11
207.39878
 21
215.409674
 31
0.0
  0
ELLIPSE
  5
3D3
100
AcDbEntity
  8
0
370
    -3
  6
Continuous
100
AcDbEllipse
 10
208.229811
 20
215.409674
 30
0.0
 11
0.0
 21
3.5
 31
0.0
210
0.0
220
0.0
230
1.0
 40
0.982815
 41
0.0
 42
6.2831853071795862
  0
ARC
  5
3D4
100
AcDbEntity
  8
0
370
    -3
  6
Continuous
100
AcDbCircle
 10
212.838564
 20
200.456665
 30
0.0
 40
3.8
100
AcDbArc
 50
138.14922
 51
180.0
  0
LINE
  5
3D5
100
AcDbEntity
  8
0
370
    -3
  6
Continuous
100
AcDbLine
 10
219.146828
 20
213.195007
 30
0.0
 11
210.008001
 21
202.991998
 31
0.0
  0
LINE
  5
3D6
100
AcDbEntity
  8
0
370
    -3
  6
Continuous
100
AcDbLine
 10
207.39878
 20
215.409674
 30
0.0
 11
205.681269
 21
213.409674
 31
0.0
  0
LINE
  5
3D7
100
AcDbEntity
  8
0
370
    -3
  6
Continuous
100
AcDbLine
 10
207.39878
 20
215.409674
 30
0.0
 11
209.3065
 21
213.409674
 31
0.0
  0
ARC
  5
3D8
100
AcDbEntity
  8
0
370
    -3
  6
Continuous
100
AcDbCircle
 10
221.977391
 20
210.659674
 30
0.0
 40
3.8
100
AcDbArc
 50
90.0
 51
138.14922
  0
ARC
  5
3D9
100
AcDbEntity
  8
0
370
    -3
  6
Continuous
100
AcDbCircle
 10
229.49197
 20
204.459674
 30
0.0
 40
10.0
100
AcDbArc
 50
90.0
 51
180.0
  0
ARC
  5
3DA
100
AcDbEntity
  8
0
370
    -3
  6
Continuous
100
AcDbCircle
 10
277.473447
 20
210.659674
 30
0.0
 40
3.8
100
AcDbArc
 50
41.390427
 51
90.0
  0
LINE
  5
3DB
100
AcDbEntity
  8
0
370
    -3
  6
Continuous
100
AcDbLine
 10
277.473447
 20
214.459674
 30
0.0
 11
221.977391
 21
214.459674
 31
0.0
  0
LINE
  5
3DC
100
AcDbEntity
  8
0
370
    -3
  6
Continuous
100
AcDbLine
 10
209.820454
 20
222.709674
 30
0.0
 11
292.691983
 21
222.709674
 31
0.0
  0
ARC
  5
3DD
100
AcDbEntity
  8
0
370
    -3
  6
Continuous
100
AcDbCircle
 10
292.691983
 20
214.909674
 30
0.0
 40
7.8
100
AcDbArc
 50
0.0
 51
90.0
  0
ARC
  5
3DE
100
AcDbEntity
  8
0
370
    -3
  6
Continuous
100
AcDbCircle
 10
290.240797
 20
214.909674
 30
0.0
 40
7.8
100
AcDbArc
 50
0.0
 51
90.0
  0
LINE
  5
3DF
100
AcDbEntity
  8
0
370
    -3
  6
Continuous
100
AcDbLine
 10
300.491983
 20
175.909674
 30
0.0
 11
300.491983
 21
214.909674
 31
0.0
  0
LINE
  5
3E0
100
AcDbEntity
  8
0
370
    -3
  6
Continuous
100
AcDbLine
 10
298.040797
 20
175.909674
 30
0.0
 11
298.040797
 21
214.909674
 31
0.0
  0
POINT
  5
3E1
100
AcDbEntity
  8
0
370
    -3
  6
CENTER
100
AcDbPoint
 10
317.917923
 20
186.387174
 30
0.0
  0
POINT
  5
3E2
100
AcDbEntity
  8
0
370
    -3
  6
CENTER
100
AcDbPoint
 10
317.917923
 20
186.387174
 30
0.0
  0
LINE
  5
3E3
100
AcDbEntity
  8
0
370
    -3
  6
Continuous
100
AcDbLine
 10
315.917923
 20
189.909674
 30
0.0
 11
300.491983
 21
189.909674
 31
0.0
  0
ARC
  5
3E4
100
AcDbEntity
  8
0
370
    -3
  6
Continuous
100
AcDbCircle
 10
315.917923
 20
187.909674
 30
0.0
 40
2.0
100
AcDbArc
 50
0.0
 51
90.0
  0
LINE
  5
3E5
100
AcDbEntity
  8
0
370
    -3
  6
Continuous
100
AcDbLine
 10
317.917923
 20
187.909674
 30
0.0
 11
317.917923
 21
175.909674
 31
0.0
  0
LINE
  5
3E6
100
AcDbEntity
  8
0
370
    -3
  6
Continuous
100
AcDbLine
 10
290.250183
 20
175.909674
 30
0.0
 11
290.250183
 21
200.474136
 31
0.0
  0
LINE
  5
3E7
100
AcDbEntity
  8
0
370
    -3
  6
Continuous
100
AcDbLine
 10
209.038564
 20
175.909674
 30
0.0
 11
209.038564
 21
200.456665
 31
0.0
  0
LINE
  5
3E8
100
AcDbEntity
  8
0
370
    -3
  6
Continuous
100
AcDbLine
 10
202.020454
 20
175.909674
 30
0.0
 11
202.020454
 21
214.909674
 31
0.0
  0
LINE
  5
3E9
100
AcDbEntity
  8
0
370
    -3
  6
Continuous
100
AcDbLine
 10
219.49197
 20
175.909674
 30
0.0
 11
219.49197
 21
204.459674
 31
0.0
  0
LINE
  5
3EA
100
AcDbEntity
  8
0
370
    -3
  6
Continuous
100
AcDbLine
 10
202.020454
 20
175.909674
 30
0.0
 11
202.020454
 21
136.909674
 31
0.0
  0
POINT
  5
3EB
100
AcDbEntity
  8
0
370
    -3
  6
CENTER
100
AcDbPoint
 10
317.917923
 20
165.432174
 30
0.0
  0
POINT
  5
3EC
100
AcDbEntity
  8
0
370
    -3
  6
CENTER
100
AcDbPoint
 10
317.917923
 20
165.432174
 30
0.0
  0
ARC
  5
3ED
100
AcDbEntity
  8
0
370
    -3
  6
Continuous
100
AcDbCircle
 10
315.917923
 20
163.909674
 30
0.0
 40
2.0
100
AcDbArc
 50
270.0
 51
0.0
  0
LINE
  5
3EE
100
AcDbEntity
  8
0
370
    -3
  6
Continuous
100
AcDbLine
 10
317.917923
 20
163.909674
 30
0.0
 11
317.917923
 21
175.909674
 31
0.0
  0
ARC
  5
3EF
100
AcDbEntity
  8
0
370
    -3
  6
Continuous
100
AcDbCircle
 10
286.450183
 20
151.345211
 30
0.0
 40
3.8
100
AcDbArc
 50
318.609573
 51
0.0
  0
LINE
  5
3F0
100
AcDbEntity
  8
0
370
    -3
  6
Continuous
100
AcDbLine
 10
315.917923
 20
161.909674
 30
0.0
 11
300.491983
 21
161.909674
 31
0.0
  0
LINE
  5
3F1
100
AcDbEntity
  8
0
370
    -3
  6
Continuous
100
AcDbLine
 10
300.491983
 20
175.909674
 30
0.0
 11
300.491983
 21
136.909674
 31
0.0
  0
LINE
  5
3F2
100
AcDbEntity
  8
0
370
    -3
  6
Continuous
100
AcDbLine
 10
298.040797
 20
175.909674
 30
0.0
 11
298.040797
 21
136.909674
 31
0.0
  0
LINE
  5
3F3
100
AcDbEntity
  8
0
370
    -3
  6
Continuous
100
AcDbLine
 10
290.250183
 20
175.909674
 30
0.0
 11
290.250183
 21
151.345211
 31
0.0
  0
LINE
  5
3F4
100
AcDbEntity
  8
0
370
    -3
  6
Continuous
100
AcDbLine
 10
209.038564
 20
175.909674
 30
0.0
 11
209.038564
 21
151.362682
 31
0.0
  0
ARC
  5
3F5
100
AcDbEntity
  8
0
370
    -3
  6
Continuous
100
AcDbCircle
 10
212.838564
 20
151.362682
 30
0.0
 40
3.8
100
AcDbArc
 50
180.0
 51
221.85078
  0
LINE
  5
3F6
100
AcDbEntity
  8
0
370
    -3
  6
Continuous
100
AcDbLine
 10
219.49197
 20
175.909674
 30
0.0
 11
219.49197
 21
147.359674
 31
0.0
  0
ARC
  5
3F7
100
AcDbEntity
  8
0
370
    -3
  6
Continuous
100
AcDbCircle
 10
229.49197
 20
147.359674
 30
0.0
 40
10.0
100
AcDbArc
 50
180.0
 51
270.0
  0
LINE
  5
3F8
100
AcDbEntity
  8
0
370
    -3
  6
CENTER
100
AcDbLine
 10
246.917923
 20
126.21791
 30
0.0
 11
246.917923
 21
226.602313
 31
0.0
  0
CIRCLE
  5
3F9
100
AcDbEntity
  8
0
370
    -3
  6
Continuous
100
AcDbCircle
 10
46.417923
 20
-86.169193
 30
0.0
 40
42.5
  0
LINE
  5
3FA
100
AcDbEntity
  8
0
370
    -3
  6
CENTER
100
AcDbLine
 10
46.417923
 20
-22.256413
 30
0.0
 11
46.417923
 21
-146.051096
 31
0.0
  0
ENDSEC
  0
SECTION
  2
OBJECTS
  0
DICTIONARY
  5
19
100
AcDbDictionary
280
     0
281
     1
  3
ACAD_GROUP
350
1A
  3
ACAD_MLINESTYLE
350
1B
  3
ACAD_LAYOUT
350
1E
  3
ACAD_PLOTSETTINGS
350
22
  3
ACAD_PLOTSTYLENAME
350
1F
  3
ACAD_WIPEOUT_VARS
350
23
  3
DWGPROPS
350
3FB
  0
DICTIONARY
  5
1A
102
{ACAD_REACTORS
330
19
102
}
100
AcDbDictionary
280
     0
281
     1
  0
DICTIONARY
  5
1B
102
{ACAD_REACTORS
330
19
102
}
100
AcDbDictionary
280
     0
281
     1
  3
Standard
350
1C
  0
MLINESTYLE
  5
1C
102
{ACAD_REACTORS
330
1B
102
}
100
AcDbMlineStyle
  2
Standard
 70
     0
  3

 62
     0
 51
90.0
 52
90.0
 71
     2
 49
0.5
 62
   256
  6
ByLayer
 49
-0.5
 62
   256
  6
ByLayer
  0
ACDBDICTIONARYWDFLT
  5
1F
102
{ACAD_REACTORS
330
19
102
}
100
AcDbDictionary
281
     1
  3
Normal
350
1D
100
AcDbDictionaryWithDefault
340
1D
  0
ACDBPLACEHOLDER
  5
1D
102
{ACAD_REACTORS
330
1F
102
}
  0
LAYOUT
  5
20
102
{ACAD_REACTORS
330
1E
102
}
100
AcDbPlotSettings
  1

  2

  4

  6

 40
0.0
 41
0.0
 42
0.0
 43
0.0
 44
0.0
 45
0.0
 46
0.0
 47
0.0
 48
0.0
 49
0.0
140
0.0
141
0.0
142
1.0
143
1.0
 70
  1024
 72
     0
 73
     0
 74
     0
  7

 75
     0
147
1.0
148
0.0
149
0.0
100
AcDbLayout
  1
Model
 70
     0
 71
     0
 10
0.0
 20
0.0
 11
0.0
 21
0.0
 12
0.0
 22
0.0
 32
0.0
 14
0.0
 24
0.0
 34
0.0
 15
0.0
 25
0.0
 35
0.0
146
0.0
 13
0.0
 23
0.0
 33
0.0
 16
0.0
 26
0.0
 36
0.0
 17
0.0
 27
0.0
 37
0.0
 76
     0
330
A
331
0
345
0
346
0
  0
LAYOUT
  5
21
102
{ACAD_REACTORS
330
1E
102
}
100
AcDbPlotSettings
  1

  2

  4

  6

 40
0.0
 41
0.0
 42
0.0
 43
0.0
 44
0.0
 45
0.0
 46
0.0
 47
0.0
 48
0.0
 49
0.0
140
0.0
141
0.0
142
1.0
143
1.0
 70
     0
 72
     0
 73
     0
 74
     0
  7

 75
     0
147
1.0
148
0.0
149
0.0
100
AcDbLayout
  1
Layout1
 70
     0
 71
     0
 10
0.0
 20
0.0
 11
0.0
 21
0.0
 12
0.0
 22
0.0
 32
0.0
 14
0.0
 24
0.0
 34
0.0
 15
0.0
 25
0.0
 35
0.0
146
0.0
 13
0.0
 23
0.0
 33
0.0
 16
0.0
 26
0.0
 36
0.0
 17
0.0
 27
0.0
 37
0.0
 76
     0
330
B
331
0
345
0
346
0
  0
DICTIONARY
  5
1E
102
{ACAD_REACTORS
330
19
102
}
100
AcDbDictionary
280
     0
281
     1
  3
Layout1
350
21
  3
Model
350
20
  0
DICTIONARY
  5
22
102
{ACAD_REACTORS
330
19
102
}
100
AcDbDictionary
280
     0
281
     1
  0
WIPEOUTVARIABLES
  5
23
100
AcDbWipeoutVariables
 70
     1
  0
XRECORD
  5
3FB
100
AcDbXrecord
280
     1
  1
DWGPROPS COOKIE
  2

  3

  4

  6

  7

  8
HK96464
  9

300
=
301
=
302
=
303
=
304
=
305
=
306
=
307
=
308
=
309
=
 40
0.0
 41
2455943.931076
 42
2455943.931076
  1

 90
        0
  0
ENDSEC
  0
EOF
