  0
SECTION
  2
HEADER
  9
$ACADVER
  1
AC1015
  9
$ACADMAINTVER
 70
     6
  9
$DWGCODEPAGE
  3
ANSI_932
  9
$INSBASE
 10
0.0
 20
0.0
 30
0.0
  9
$EXTMIN
 10
1.000000E+20
 20
1.000000E+20
 30
1.000000E+20
  9
$EXTMAX
 10
-1.000000E+20
 20
-1.000000E+20
 30
-1.000000E+20
  9
$LIMMIN
 10
0.0
 20
0.0
  9
$LIMMAX
 10
0.0
 20
0.0
  9
$ORTHOMODE
 70
     0
  9
$REGENMODE
 70
     1
  9
$FILLMODE
 70
     1
  9
$QTEXTMODE
 70
     0
  9
$MIRRTEXT
 70
     1
  9
$LTSCALE
 40
1.0
  9
$ATTMODE
 70
     1
  9
$TEXTSIZE
 40
7.0
  9
$TRACEWID
 40
0.05
  9
$TEXTSTYLE
  7
Standard
  9
$CLAYER
  8
0
  9
$CELTYPE
  6
Continuous
  9
$CECOLOR
 62
   256
  9
$CELTSCALE
 40
1.0
  9
$DISPSILH
 70
     0
  9
$DIMSCALE
 40
1.0
  9
$DIMASZ
 40
1.931852
  9
$DIMEXO
 40
1.0
  9
$DIMDLI
 40
0.38
  9
$DIMRND
 40
0.0
  9
$DIMDLE
 40
0.0
  9
$DIMEXE
 40
2.0
  9
$DIMTP
 40
0.0
  9
$DIMTM
 40
0.0
  9
$DIMTXT
 40
10.0
  9
$DIMCEN
 40
0.09
  9
$DIMTSZ
 40
0.0
  9
$DIMTOL
 70
     0
  9
$DIMLIM
 70
     0
  9
$DIMTIH
 70
     1
  9
$DIMTOH
 70
     1
  9
$DIMSE1
 70
     0
  9
$DIMSE2
 70
     0
  9
$DIMTAD
 70
     1
  9
$DIMZIN
 70
     0
  9
$DIMBLK
  1

  9
$DIMASO
 70
     1
  9
$DIMSHO
 70
     1
  9
$DIMPOST
  1

  9
$DIMAPOST
  1

  9
$DIMALT
 70
     0
  9
$DIMALTD
 70
     2
  9
$DIMALTF
 40
25.4
  9
$DIMLFAC
 40
1.0
  9
$DIMTOFL
 70
     0
  9
$DIMTVP
 40
0.0
  9
$DIMTIX
 70
     0
  9
$DIMSOXD
 70
     0
  9
$DIMSAH
 70
     0
  9
$DIMBLK1
  1

  9
$DIMBLK2
  1

  9
$DIMSTYLE
  2
Standard
  9
$DIMCLRD
 70
     0
  9
$DIMCLRE
 70
     0
  9
$DIMCLRT
 70
     0
  9
$DIMTFAC
 40
0.714286
  9
$DIMGAP
 40
0.09
  9
$DIMJUST
 70
     0
  9
$DIMSD1
 70
     0
  9
$DIMSD2
 70
     0
  9
$DIMTOLJ
 70
     1
  9
$DIMTZIN
 70
     0
  9
$DIMALTZ
 70
     0
  9
$DIMALTTZ
 70
     0
  9
$DIMUPT
 70
     0
  9
$DIMDEC
 70
     4
  9
$DIMTDEC
 70
     4
  9
$DIMALTU
 70
     2
  9
$DIMALTTD
 70
     2
  9
$DIMTXSTY
  7
Standard
  9
$DIMAUNIT
 70
     0
  9
$DIMADEC
 70
     0
  9
$DIMALTRND
 40
0.0
  9
$DIMAZIN
 70
     0
  9
$DIMDSEP
 70
     0
  9
$DIMATFIT
 70
     3
  9
$DIMFRAC
 70
     0
  9
$DIMLDRBLK
  1

  9
$DIMLUNIT
 70
     2
  9
$DIMLWD
 70
     0
  9
$DIMLWE
 70
     0
  9
$DIMTMOVE
 70
     0
  9
$LUNITS
 70
     2
  9
$LUPREC
 70
     3
  9
$SKETCHINC
 40
0.1
  9
$FILLETRAD
 40
0.0
  9
$AUNITS
 70
     0
  9
$AUPREC
 70
     0
  9
$MENU
  1
acad
  9
$ELEVATION
 40
0.0
  9
$PELEVATION
 40
0.0
  9
$THICKNESS
 40
0.0
  9
$LIMCHECK
 70
     0
  9
$CHAMFERA
 40
0.0
  9
$CHAMFERB
 40
0.0
  9
$CHAMFERC
 40
0.0
  9
$CHAMFERD
 40
0.0
  9
$SKPOLY
 70
     0
  9
$TDCREATE
 40
0.000000000
  9
$TDUCREATE
 40
0.000000000
  9
$TDUPDATE
 40
0.000000000
  9
$TDUUPDATE
 40
0.000000000
  9
$TDINDWG
 40
0.0000000000
  9
$TDUSRTIMER
 40
0.0000000000
  9
$USRTIMER
 70
     1
  9
$ANGBASE
 50
0.0
  9
$ANGDIR
 70
     0
  9
$PDMODE
 70
     0
  9
$PDSIZE
 40
0.0
  9
$PLINEWID
 40
0.0
  9
$SPLFRAME
 70
     0
  9
$SPLINETYPE
 70
     6
  9
$SPLINESEGS
 70
     8
  9
$HANDSEED
  5
41A
  9
$SURFTAB1
 70
     6
  9
$SURFTAB2
 70
     6
  9
$SURFTYPE
 70
     6
  9
$SURFU
 70
     6
  9
$SURFV
 70
     6
  9
$UCSBASE
  2

  9
$UCSNAME
  2

  9
$UCSORG
 10
0.0
 20
0.0
 30
0.0
  9
$UCSXDIR
 10
1.0
 20
0.0
 30
0.0
  9
$UCSYDIR
 10
0.0
 20
1.0
 30
0.0
  9
$UCSORTHOREF
  2

  9
$UCSORTHOVIEW
 70
     0
  9
$UCSORGTOP
 10
0.0
 20
0.0
 30
0.0
  9
$UCSORGBOTTOM
 10
0.0
 20
0.0
 30
0.0
  9
$UCSORGLEFT
 10
0.0
 20
0.0
 30
0.0
  9
$UCSORGRIGHT
 10
0.0
 20
0.0
 30
0.0
  9
$UCSORGFRONT
 10
0.0
 20
0.0
 30
0.0
  9
$UCSORGBACK
 10
0.0
 20
0.0
 30
0.0
  9
$PUCSBASE
  2

  9
$PUCSNAME
  2

  9
$PUCSORG
 10
0.0
 20
0.0
 30
0.0
  9
$PUCSXDIR
 10
1.0
 20
0.0
 30
0.0
  9
$PUCSYDIR
 10
0.0
 20
1.0
 30
0.0
  9
$PUCSORTHOREF
  2

  9
$PUCSORTHOVIEW
 70
     0
  9
$PUCSORGTOP
 10
0.0
 20
0.0
 30
0.0
  9
$PUCSORGBOTTOM
 10
0.0
 20
0.0
 30
0.0
  9
$PUCSORGLEFT
 10
0.0
 20
0.0
 30
0.0
  9
$PUCSORGRIGHT
 10
0.0
 20
0.0
 30
0.0
  9
$PUCSORGFRONT
 10
0.0
 20
0.0
 30
0.0
  9
$PUCSORGBACK
 10
0.0
 20
0.0
 30
0.0
  9
$USERI1
 70
     0
  9
$USERI2
 70
     0
  9
$USERI3
 70
     0
  9
$USERI4
 70
     0
  9
$USERI5
 70
     0
  9
$USERR1
 40
0.0
  9
$USERR2
 40
0.0
  9
$USERR3
 40
0.0
  9
$USERR4
 40
0.0
  9
$USERR5
 40
0.0
  9
$WORLDVIEW
 70
     1
  9
$SHADEDGE
 70
     3
  9
$SHADEDIF
 70
    70
  9
$TILEMODE
 70
     1
  9
$MAXACTVP
 70
    16
  9
$PINSBASE
 10
0.0
 20
0.0
 30
0.0
  9
$PLIMCHECK
 70
     0
  9
$PEXTMIN
 10
1.000000E+20
 20
1.000000E+20
 30
1.000000E+20
  9
$PEXTMAX
 10
-1.000000E+20
 20
-1.000000E+20
 30
-1.000000E+20
  9
$PLIMMIN
 10
0.0
 20
0.0
  9
$PLIMMAX
 10
12.0
 20
9.0
  9
$UNITMODE
 70
     0
  9
$VISRETAIN
 70
     0
  9
$PLINEGEN
 70
     1
  9
$PSLTSCALE
 70
     0
  9
$TREEDEPTH
 70
  3020
  9
$CMLSTYLE
  2
Standard
  9
$CMLJUST
 70
     0
  9
$CMLSCALE
 40
1.0
  9
$PROXYGRAPHICS
 70
     0
  9
$MEASUREMENT
 70
     0
  9
$CELWEIGHT
370
     0
  9
$ENDCAPS
280
     0
  9
$JOINSTYLE
280
     0
  9
$LWDISPLAY
290
     0
  9
$INSUNITS
 70
     0
  9
$HYPERLINKBASE
  1

  9
$STYLESHEET
  1

  9
$XEDIT
290
     1
  9
$CEPSNTYPE
380
     0
  9
$PSTYLEMODE
290
     1
  9
$FINGERPRINTGUID
  2

  9
$VERSIONGUID
  2

  9
$EXTNAMES
290
     1
  9
$PSVPSCALE
 40
0.0
  0
ENDSEC
  0
SECTION
  2
CLASSES
  0
CLASS
  1
LWPOLYLINE
  2
AcDbPolyline
  3
AutoCAD 2000
 90
    32768
280
     0
281
     1
  0
CLASS
  1
IMAGE
  2
AcDbRasterImage
  3
ISM
 90
    32895
280
     0
281
     1
  0
CLASS
  1
OLE2FRAME
  2
AcDbOle2Frame
  3
AutoCAD 2000
 90
    32768
280
     0
281
     1
  0
CLASS
  1
HATCH
  2
AcDbHatch
  3
AutoCAD 2000
 90
    32768
280
     0
281
     1
  0
CLASS
  1
DICTIONARYVAR
  2
AcDbDictionaryVar
  3
AutoCAD 2000
 90
    32768
280
     0
281
     0
  0
CLASS
  1
RASTERVARIABLES
  2
AcDbRasterVariables
  3
ISM
 90
    32768
280
     0
281
     0
  0
CLASS
  1
IMAGEDEF
  2
AcDbRasterImageDef
  3
ISM
 90
    32768
280
     0
281
     0
  0
CLASS
  1
IMAGEDEF_REACTOR
  2
AcDbRasterImageDefReactor
  3
ISM
 90
    32769
280
     0
281
     0
  0
CLASS
  1
IDBUFFER
  2
AcDbIdBuffer
  3
AutoCAD 2000
 90
    32768
280
     0
281
     0
  0
CLASS
  1
SPATIAL_FILTER
  2
AcDbSpatialFilter
  3
AutoCAD 2000
 90
    32768
280
     0
281
     0
  0
CLASS
  1
XRECORD
  2
AcDbXrecord
  3
AutoCAD 2000
 90
        0
280
     0
281
     0
  0
CLASS
  1
SORTENTSTABLE
  2
AcDbSortentsTable
  3
AutoCAD 2000
 90
    32768
280
     0
281
     0
  0
CLASS
  1
LAYER_INDEX
  2
AcDbLayerIndex
  3
AutoCAD 2000
 90
    32768
280
     0
281
     0
  0
CLASS
  1
SPATIAL_INDEX
  2
AcDbSpatialIndex
  3
AutoCAD 2000
 90
    32768
280
     0
281
     0
  0
CLASS
  1
OBJECT_PTR
  2
CAseDLPNTableRecord
  3
"ASE-LPNTableRecord"
 90
    32769
280
     0
281
     0
  0
CLASS
  1
LAYOUT
  2
AcDbLayout
  3
AutoCAD 2000
 90
        0
280
     0
281
     0
  0
CLASS
  1
PLOTSETTINGS
  2
AcDbPlotSettings
  3
AutoCAD 2000
 90
    32768
280
     0
281
     0
  0
CLASS
  1
ACDBDICTIONARYWDFLT
  2
AcDbDictionaryWithDefault
  3
AutoCAD 2000
 90
        0
280
     0
281
     0
  0
CLASS
  1
ACDBPLACEHOLDER
  2
AcDbPlaceHolder
  3
AutoCAD 2000
 90
        0
280
     0
281
     0
  0
CLASS
  1
VBA_PROJECT
  2
AcDbVbaProject
  3
acadvba
 90
    32768
280
     0
281
     0
  0
CLASS
  1
WIPEOUT
  2
AcDbWipeout
  3
WipeOut|AutoCAD Express Tool|expresstools@autodesk.com
 90
    32895
280
     0
281
     1
  0
CLASS
  1
WIPEOUTVARIABLES
  2
AcDbWipeoutVariables
  3
WipeOut|AutoCAD Express Tool|expresstools@autodesk.com
 90
        0
280
     0
281
     0
  0
CLASS
  1
RTEXT
  2
RText
  3
RText|AutoCAD Express Tool|expresstools@autodesk.com
 90
    32768
280
     0
281
     1
  0
CLASS
  1
ARCALIGNEDTEXT
  2
AcDbArcAlignedText
  3
ATEXT|AutoCAD Express Tool|expresstools@autodesk.com
 90
    32768
280
     0
281
     1
  0
ENDSEC
  0
SECTION
  2
TABLES
  0
TABLE
  2
VPORT
  5
7
100
AcDbSymbolTable
 70
     1
  0
VPORT
  5
15
100
AcDbSymbolTableRecord
100
AcDbViewportTableRecord
  2
*ACTIVE
 70
     0
 10
0.0
 20
0.0
 11
1.0
 21
1.0
 12
0.0
 22
0.0
 13
0.0
 23
0.0
 14
1.0
 24
1.0
 15
0.0
 25
0.0
 16
0.0
 26
0.0
 36
1.0
 17
0.0
 27
0.0
 37
0.0
 40
100.0
 41
1.0
 42
50.0
 43
0.0
 44
0.0
 50
0.0
 51
0.0
 71
     0
 72
   100
 73
     1
 74
     1
 75
     0
 76
     0
 77
     0
 78
     0
281
     0
 65
     0
110
0.0
120
0.0
130
0.0
111
1.0
121
0.0
131
0.0
112
0.0
122
1.0
132
0.0
345
0
346
0
 79
     0
146
0.0
  0
ENDTAB
  0
TABLE
  2
LTYPE
  5
4
100
AcDbSymbolTable
 70
     7
  0
LTYPE
  5
11
100
AcDbSymbolTableRecord
100
AcDbLinetypeTableRecord
  2
ByBlock
 70
    64
  3

 72
    65
 73
     0
 40
0.0
  0
LTYPE
  5
12
100
AcDbSymbolTableRecord
100
AcDbLinetypeTableRecord
  2
ByLayer
 70
    64
  3

 72
    65
 73
     0
 40
0.0
  0
LTYPE
  5
13
100
AcDbSymbolTableRecord
100
AcDbLinetypeTableRecord
  2
Continuous
 70
    64
  3
Solid line
 72
    65
 73
     0
 40
0.0
  0
LTYPE
  5
24
100
AcDbSymbolTableRecord
100
AcDbLinetypeTableRecord
  2
DASHED
 70
    64
  3
Dashed __ __ __ __ __ __ __ __ __ __ __ __ __ _
 72
    65
 73
     2
 40
0.75
 49
0.5
 74
     0
 49
-0.25
 74
     0
  0
LTYPE
  5
25
100
AcDbSymbolTableRecord
100
AcDbLinetypeTableRecord
  2
CENTER
 70
    64
  3
Center ____ _ ____ _ ____ _ ____ _ ____ _ ____
 72
    65
 73
     4
 40
1.0
 49
0.5
 74
     0
 49
-0.25
 74
     0
 49
0.0
 74
     0
 49
-0.25
 74
     0
  0
LTYPE
  5
26
100
AcDbSymbolTableRecord
100
AcDbLinetypeTableRecord
  2
DIVIDE
 70
    64
  3
Divide ____ . . ____ . . ____ . . ____ . . ____
 72
    65
 73
     6
 40
1.25
 49
0.5
 74
     0
 49
-0.25
 74
     0
 49
0.0
 74
     0
 49
-0.25
 74
     0
 49
0.0
 74
     0
 49
-0.25
 74
     0
  0
LTYPE
  5
27
100
AcDbSymbolTableRecord
100
AcDbLinetypeTableRecord
  2
PHANTOM
 70
    64
  3
Phantom ______  __  __  ______  __  __  ______
 72
    65
 73
     6
 40
9.0
 49
4.3
 74
     0
 49
-0.7
 74
     0
 49
1.3
 74
     0
 49
-0.7
 74
     0
 49
1.3
 74
     0
 49
-0.7
 74
     0
  0
ENDTAB
  0
TABLE
  2
LAYER
  5
2
100
AcDbSymbolTable
 70
     3
  0
LAYER
  5
14
100
AcDbSymbolTableRecord
100
AcDbLayerTableRecord
  2
0
 70
    64
 62
    53
  6
Continuous
290
     1
370
    -3
390
1D
  0
LAYER
  5
28
100
AcDbSymbolTableRecord
100
AcDbLayerTableRecord
  2
3
 70
    64
 62
     4
  6
Continuous
290
     1
370
    -3
390
1D
  0
LAYER
  5
29
100
AcDbSymbolTableRecord
100
AcDbLayerTableRecord
  2
5
 70
    64
 62
   191
  6
Continuous
290
     1
370
    -3
390
1D
  0
ENDTAB
  0
TABLE
  2
STYLE
  5
3
100
AcDbSymbolTable
 70
     2
  0
STYLE
  5
17
100
AcDbSymbolTableRecord
100
AcDbTextStyleTableRecord
  2
Standard
 70
     0
 40
0.0
 41
1.0
 50
0.0
 71
     0
 42
0.0
  3
txt
  4

  0
STYLE
  5
2F1
100
AcDbSymbolTableRecord
100
AcDbTextStyleTableRecord
  2
ZU_SHPTB00001
 70
     0
 40
0.0
 41
1.0
 50
0.0
 71
     0
 42
0.0
  3
monotxt
  4
bigfont
  0
ENDTAB
  0
TABLE
  2
VIEW
  5
5
100
AcDbSymbolTable
 70
     0
  0
ENDTAB
  0
TABLE
  2
UCS
  5
6
100
AcDbSymbolTable
 70
     0
  0
ENDTAB
  0
TABLE
  2
APPID
  5
8
100
AcDbSymbolTable
 70
     1
  0
APPID
  5
16
100
AcDbSymbolTableRecord
100
AcDbRegAppTableRecord
  2
ACAD
 70
     0
  0
ENDTAB
  0
TABLE
  2
DIMSTYLE
  5
9
100
AcDbSymbolTable
 70
     1
100
AcDbDimStyleTable
 71
     0
  0
DIMSTYLE
105
18
100
AcDbSymbolTableRecord
100
AcDbDimStyleTableRecord
  2
Standard
 70
     0
  3

  4

 40
1.0
 41
0.18
 42
0.0625
 43
0.38
 44
0.18
 45
0.0
 46
0.0
 47
0.0
 48
0.0
 71
     0
 72
     0
 73
     1
 74
     1
 75
     0
 76
     0
 77
     0
 78
     0
 79
     0
140
0.18
141
0.09
142
0.0
143
25.4
144
1.0
145
0.0
146
1.0
147
0.09
148
0.0
170
     0
171
     2
172
     0
173
     0
174
     0
175
     0
176
     0
177
     0
178
     0
179
     0
271
     4
272
     4
273
     2
274
     2
275
     0
276
     0
277
     2
278
    46
279
     0
280
     0
281
     0
282
     0
283
     1
284
     0
285
     0
286
     0
288
     0
340
17
341
0
342
0
343
0
344
0
371
    -2
372
    -2
  0
ENDTAB
  0
TABLE
  2
BLOCK_RECORD
  5
1
100
AcDbSymbolTable
 70
     0
  0
BLOCK_RECORD
  5
A
100
AcDbSymbolTableRecord
100
AcDbBlockTableRecord
  2
*MODEL_SPACE
340
20
  0
BLOCK_RECORD
  5
B
100
AcDbSymbolTableRecord
100
AcDbBlockTableRecord
  2
*PAPER_SPACE
340
21
  0
ENDTAB
  0
ENDSEC
  0
SECTION
  2
BLOCKS
  0
BLOCK
  5
D
100
AcDbEntity
  8
0
100
AcDbBlockBegin
  2
*MODEL_SPACE
 70
     0
 10
0.0
 20
0.0
 30
0.0
  3
*MODEL_SPACE
  1

  0
ENDBLK
  5
E
100
AcDbEntity
  8
0
100
AcDbBlockEnd
  0
BLOCK
  5
F
100
AcDbEntity
 67
     1
  8
0
100
AcDbBlockBegin
  2
*PAPER_SPACE
 70
     0
 10
0.0
 20
0.0
 30
0.0
  3
*PAPER_SPACE
  1

  0
ENDBLK
  5
10
100
AcDbEntity
 67
     1
  8
0
100
AcDbBlockEnd
  0
ENDSEC
  0
SECTION
  2
ENTITIES
  0
LINE
  5
2A
100
AcDbEntity
  8
0
370
    -3
  6
Continuous
100
AcDbLine
 10
269.469839
 20
-70.90231
 30
0.0
 11
231.131545
 21
-70.90231
 31
0.0
  0
LINE
  5
2B
100
AcDbEntity
  8
0
370
    -3
  6
Continuous
100
AcDbLine
 10
223.507898
 20
-70.90231
 30
0.0
 11
151.800692
 21
-70.90231
 31
0.0
  0
LINE
  5
2C
100
AcDbEntity
  8
0
370
    -3
  6
Continuous
100
AcDbLine
 10
275.800692
 20
-115.40231
 30
0.0
 11
151.800692
 21
-115.40231
 31
0.0
  0
LINE
  5
2D
100
AcDbEntity
  8
0
370
    -3
  6
Continuous
100
AcDbLine
 10
275.800692
 20
-75.40231
 30
0.0
 11
151.800692
 21
-75.40231
 31
0.0
  0
LINE
  5
2E
100
AcDbEntity
  8
0
370
    -3
  6
Continuous
100
AcDbLine
 10
275.800692
 20
-74.40231
 30
0.0
 11
151.800692
 21
-74.40231
 31
0.0
  0
LINE
  5
2F
100
AcDbEntity
  8
0
370
    -3
  6
Continuous
100
AcDbLine
 10
275.800692
 20
-73.40231
 30
0.0
 11
151.800692
 21
-73.40231
 31
0.0
  0
LINE
  5
30
100
AcDbEntity
  8
0
370
    -3
  6
Continuous
100
AcDbLine
 10
275.800692
 20
-187.40231
 30
0.0
 11
151.800692
 21
-187.40231
 31
0.0
  0
LINE
  5
31
100
AcDbEntity
  8
0
370
    -3
  6
Continuous
100
AcDbLine
 10
275.800692
 20
-186.40231
 30
0.0
 11
151.800692
 21
-186.40231
 31
0.0
  0
LINE
  5
32
100
AcDbEntity
  8
0
370
    -3
  6
Continuous
100
AcDbLine
 10
275.800692
 20
-185.40231
 30
0.0
 11
151.800692
 21
-185.40231
 31
0.0
  0
LINE
  5
33
100
AcDbEntity
  8
0
370
    -3
  6
Continuous
100
AcDbLine
 10
275.800692
 20
-180.717845
 30
0.0
 11
151.800692
 21
-180.717845
 31
0.0
  0
LINE
  5
34
100
AcDbEntity
  8
0
370
    -3
  6
Continuous
100
AcDbLine
 10
275.800692
 20
-175.768097
 30
0.0
 11
151.800692
 21
-175.768097
 31
0.0
  0
LINE
  5
35
100
AcDbEntity
  8
0
370
    -3
  6
Continuous
100
AcDbLine
 10
275.800692
 20
-145.40231
 30
0.0
 11
151.800692
 21
-145.40231
 31
0.0
  0
LINE
  5
36
100
AcDbEntity
  8
0
370
    -3
  6
Continuous
100
AcDbLine
 10
151.800692
 20
-189.90231
 30
0.0
 11
151.800692
 21
-70.90231
 31
0.0
  0
LINE
  5
37
100
AcDbEntity
  8
0
370
    -3
  6
Continuous
100
AcDbLine
 10
275.800692
 20
-189.90231
 30
0.0
 11
151.800692
 21
-189.90231
 31
0.0
  0
LINE
  5
38
100
AcDbEntity
  8
0
370
    -3
  6
Continuous
100
AcDbLine
 10
208.800692
 20
-189.90231
 30
0.0
 11
151.800692
 21
-189.90231
 31
0.0
  0
LINE
  5
39
100
AcDbEntity
  8
0
370
    -3
  6
Continuous
100
AcDbLine
 10
275.800692
 20
-85.025699
 30
0.0
 11
151.800692
 21
-85.025699
 31
0.0
  0
LINE
  5
3A
100
AcDbEntity
  8
0
370
    -3
  6
Continuous
100
AcDbLine
 10
275.800692
 20
-80.075952
 30
0.0
 11
151.800692
 21
-80.075952
 31
0.0
  0
LINE
  5
3B
100
AcDbEntity
  8
0
370
    -3
  6
Continuous
100
AcDbLine
 10
275.800692
 20
-111.39686
 30
0.0
 11
151.800692
 21
-111.39686
 31
0.0
  0
LINE
  5
3C
100
AcDbEntity
  8
0
370
    -3
  6
Continuous
100
AcDbLine
 10
275.800692
 20
-109.368348
 30
0.0
 11
151.800692
 21
-109.368348
 31
0.0
  0
LINE
  5
3D
100
AcDbEntity
  8
0
370
    -3
  6
Continuous
100
AcDbLine
 10
275.800692
 20
-105.937927
 30
0.0
 11
151.800692
 21
-105.937927
 31
0.0
  0
LINE
  5
3E
100
AcDbEntity
  8
0
370
    -3
  6
Continuous
100
AcDbLine
 10
275.800692
 20
-103.813702
 30
0.0
 11
151.800692
 21
-103.813702
 31
0.0
  0
LINE
  5
3F
100
AcDbEntity
  8
0
370
    -3
  6
Continuous
100
AcDbLine
 10
275.800692
 20
-100.481192
 30
0.0
 11
151.800692
 21
-100.481192
 31
0.0
  0
LINE
  5
40
100
AcDbEntity
  8
0
370
    -3
  6
Continuous
100
AcDbLine
 10
275.800692
 20
-98.251789
 30
0.0
 11
151.800692
 21
-98.251789
 31
0.0
  0
LINE
  5
41
100
AcDbEntity
  8
0
370
    -3
  6
Continuous
100
AcDbLine
 10
275.800692
 20
-95.04319
 30
0.0
 11
151.800692
 21
-95.04319
 31
0.0
  0
LINE
  5
42
100
AcDbEntity
  8
0
370
    -3
  6
Continuous
100
AcDbLine
 10
275.800692
 20
-92.706491
 30
0.0
 11
151.800692
 21
-92.706491
 31
0.0
  0
LINE
  5
43
100
AcDbEntity
  8
0
370
    -3
  6
Continuous
100
AcDbLine
 10
275.800692
 20
-149.407761
 30
0.0
 11
151.800692
 21
-149.407761
 31
0.0
  0
LINE
  5
44
100
AcDbEntity
  8
0
370
    -3
  6
Continuous
100
AcDbLine
 10
275.800692
 20
-151.436273
 30
0.0
 11
151.800692
 21
-151.436273
 31
0.0
  0
LINE
  5
45
100
AcDbEntity
  8
0
370
    -3
  6
Continuous
100
AcDbLine
 10
275.800692
 20
-154.866694
 30
0.0
 11
151.800692
 21
-154.866694
 31
0.0
  0
LINE
  5
46
100
AcDbEntity
  8
0
370
    -3
  6
Continuous
100
AcDbLine
 10
275.800692
 20
-156.990919
 30
0.0
 11
151.800692
 21
-156.990919
 31
0.0
  0
LINE
  5
47
100
AcDbEntity
  8
0
370
    -3
  6
Continuous
100
AcDbLine
 10
275.800692
 20
-160.323428
 30
0.0
 11
151.800692
 21
-160.323428
 31
0.0
  0
LINE
  5
48
100
AcDbEntity
  8
0
370
    -3
  6
Continuous
100
AcDbLine
 10
275.800692
 20
-162.552832
 30
0.0
 11
151.800692
 21
-162.552832
 31
0.0
  0
LINE
  5
49
100
AcDbEntity
  8
0
370
    -3
  6
Continuous
100
AcDbLine
 10
275.800692
 20
-165.761431
 30
0.0
 11
151.800692
 21
-165.761431
 31
0.0
  0
LINE
  5
4A
100
AcDbEntity
  8
0
370
    -3
  6
Continuous
100
AcDbLine
 10
275.800692
 20
-168.09813
 30
0.0
 11
151.800692
 21
-168.09813
 31
0.0
  0
LINE
  5
4B
100
AcDbEntity
  8
0
370
    -3
  6
Continuous
100
AcDbLine
 10
378.800692
 20
-130.40231
 30
0.0
 11
378.800692
 21
-77.959105
 31
0.0
  0
LINE
  5
4C
100
AcDbEntity
  8
0
370
    -3
  6
Continuous
100
AcDbLine
 10
275.800692
 20
-130.40231
 30
0.0
 11
275.800692
 21
-195.40231
 31
0.0
  0
LINE
  5
4D
100
AcDbEntity
  8
0
370
    -3
  6
Continuous
100
AcDbLine
 10
275.800692
 20
-130.40231
 30
0.0
 11
275.800692
 21
-71.783089
 31
0.0
  0
ARC
  5
4E
100
AcDbEntity
  8
0
370
    -3
  6
Continuous
100
AcDbCircle
 10
356.494716
 20
-85.40231
 30
0.0
 40
20.0
100
AcDbArc
 50
55.0
 51
90.0
  0
LINE
  5
4F
100
AcDbEntity
  8
0
370
    -3
  6
Continuous
100
AcDbLine
 10
367.966245
 20
-69.019269
 30
0.0
 11
377.691991
 21
-75.82931
 31
0.0
  0
ARC
  5
50
100
AcDbEntity
  8
0
370
    -3
  6
Continuous
100
AcDbCircle
 10
376.200692
 20
-77.959105
 30
0.0
 40
2.6
100
AcDbArc
 50
0.0
 51
55.0
  0
ELLIPSE
  5
51
100
AcDbEntity
  8
0
370
    -3
  6
Continuous
100
AcDbEllipse
 10
286.800692
 20
-78.478785
 30
0.0
 11
4.6999999999999886
 21
0.0
 31
0.0
210
0.0
220
0.0
230
1.0
 40
0.766646
 41
0.0
 42
6.2831853071795862
  0
LINE
  5
52
100
AcDbEntity
  8
0
370
    -3
  6
Continuous
100
AcDbLine
 10
286.800692
 20
-76.662195
 30
0.0
 11
288.800692
 21
-78.314837
 31
0.0
  0
LINE
  5
53
100
AcDbEntity
  8
0
370
    -3
  6
Continuous
100
AcDbLine
 10
284.800692
 20
-75.48641
 30
0.0
 11
286.800692
 21
-76.662195
 31
0.0
  0
LINE
  5
54
100
AcDbEntity
  8
0
370
    -3
  6
Continuous
100
AcDbLine
 10
286.800692
 20
-76.662195
 30
0.0
 11
284.800692
 21
-78.314837
 31
0.0
  0
LINE
  5
55
100
AcDbEntity
  8
0
370
    -3
  6
Continuous
100
AcDbLine
 10
288.800692
 20
-75.48641
 30
0.0
 11
286.800692
 21
-76.662195
 31
0.0
  0
LINE
  5
56
100
AcDbEntity
  8
0
370
    -3
  6
Continuous
100
AcDbLine
 10
282.800692
 20
-68.783089
 30
0.0
 11
278.800692
 21
-68.783089
 31
0.0
  0
ARC
  5
57
100
AcDbEntity
  8
0
370
    -3
  6
Continuous
100
AcDbCircle
 10
278.800692
 20
-71.783089
 30
0.0
 40
3.0
100
AcDbArc
 50
90.0
 51
180.0
  0
LINE
  5
58
100
AcDbEntity
  8
0
370
    -3
  6
Continuous
100
AcDbLine
 10
286.800692
 20
-184.142425
 30
0.0
 11
288.800692
 21
-182.489784
 31
0.0
  0
LINE
  5
59
100
AcDbEntity
  8
0
370
    -3
  6
Continuous
100
AcDbLine
 10
284.800692
 20
-185.318211
 30
0.0
 11
286.800692
 21
-184.142425
 31
0.0
  0
LINE
  5
5A
100
AcDbEntity
  8
0
370
    -3
  6
Continuous
100
AcDbLine
 10
286.800692
 20
-184.142425
 30
0.0
 11
284.800692
 21
-182.489784
 31
0.0
  0
LINE
  5
5B
100
AcDbEntity
  8
0
370
    -3
  6
Continuous
100
AcDbLine
 10
288.800692
 20
-185.318211
 30
0.0
 11
286.800692
 21
-184.142425
 31
0.0
  0
ELLIPSE
  5
5C
100
AcDbEntity
  8
0
370
    -3
  6
Continuous
100
AcDbEllipse
 10
286.800692
 20
-182.325835
 30
0.0
 11
4.6999999999999886
 21
0.0
 31
0.0
210
0.0
220
0.0
230
1.0
 40
0.766646
 41
0.0
 42
6.2831853071795862
  0
LINE
  5
5D
100
AcDbEntity
  8
0
370
    -3
  6
Continuous
100
AcDbLine
 10
275.800692
 20
-195.40231
 30
0.0
 11
356.494716
 21
-195.40231
 31
0.0
  0
LINE
  5
5E
100
AcDbEntity
  8
0
370
    -3
  6
Continuous
100
AcDbLine
 10
378.800692
 20
-130.40231
 30
0.0
 11
378.800692
 21
-182.845515
 31
0.0
  0
LINE
  5
5F
100
AcDbEntity
  8
0
370
    -3
  6
Continuous
100
AcDbLine
 10
367.966245
 20
-191.785351
 30
0.0
 11
377.691991
 21
-184.975311
 31
0.0
  0
ARC
  5
60
100
AcDbEntity
  8
0
370
    -3
  6
Continuous
100
AcDbCircle
 10
376.200692
 20
-182.845515
 30
0.0
 40
2.6
100
AcDbArc
 50
305.0
 51
0.0
  0
ARC
  5
61
100
AcDbEntity
  8
0
370
    -3
  6
Continuous
100
AcDbCircle
 10
356.494716
 20
-175.40231
 30
0.0
 40
20.0
100
AcDbArc
 50
270.0
 51
305.0
  0
LINE
  5
62
100
AcDbEntity
  8
0
370
    -3
  6
CENTER
100
AcDbLine
 10
-105.199308
 20
-128.445221
 30
0.0
 11
-105.199308
 21
-86.71363
 31
0.0
  0
LINE
  5
63
100
AcDbEntity
  8
0
370
    -3
  6
CENTER
100
AcDbLine
 10
-124.402238
 20
-107.396898
 30
0.0
 11
-82.670647
 21
-107.396898
 31
0.0
  0
ARC
  5
64
100
AcDbEntity
  8
0
370
    -3
  6
Continuous
100
AcDbCircle
 10
19.800692
 20
-107.396898
 30
0.0
 40
14.0
100
AcDbArc
 50
106.60155
 51
73.39845
  0
LINE
  5
65
100
AcDbEntity
  8
0
370
    -3
  6
Continuous
100
AcDbLine
 10
15.800692
 20
-90.396898
 30
0.0
 11
15.800692
 21
-97.396898
 31
0.0
  0
LINE
  5
66
100
AcDbEntity
  8
0
370
    -3
  6
Continuous
100
AcDbLine
 10
23.800692
 20
-90.396898
 30
0.0
 11
23.800692
 21
-97.396898
 31
0.0
  0
LINE
  5
67
100
AcDbEntity
  8
0
370
    -3
  6
Continuous
100
AcDbLine
 10
15.800692
 20
-97.396898
 30
0.0
 11
23.800692
 21
-97.396898
 31
0.0
  0
LINE
  5
68
100
AcDbEntity
  8
0
370
    -3
  6
Continuous
100
AcDbLine
 10
15.800692
 20
-90.396898
 30
0.0
 11
23.800692
 21
-90.396898
 31
0.0
  0
CIRCLE
  5
69
100
AcDbEntity
  8
0
370
    -3
  6
Continuous
100
AcDbCircle
 10
19.800692
 20
-107.396898
 30
0.0
 40
3.5
  0
CIRCLE
  5
6A
100
AcDbEntity
  8
0
370
    -3
  6
Continuous
100
AcDbCircle
 10
19.800692
 20
-107.396898
 30
0.0
 40
4.0
  0
LINE
  5
6B
100
AcDbEntity
  8
0
370
    -3
  6
Continuous
100
AcDbLine
 10
-32.199308
 20
-193.396898
 30
0.0
 11
109.800692
 21
-193.396898
 31
0.0
  0
LINE
  5
6C
100
AcDbEntity
  8
0
370
    -3
  6
Continuous
100
AcDbLine
 10
109.800692
 20
-47.396898
 30
0.0
 11
-32.199308
 21
-47.396898
 31
0.0
  0
LINE
  5
6D
100
AcDbEntity
  8
0
370
    -3
  6
Continuous
100
AcDbLine
 10
117.800692
 20
-185.396898
 30
0.0
 11
117.800692
 21
-55.396898
 31
0.0
  0
LINE
  5
6E
100
AcDbEntity
  8
0
370
    -3
  6
Continuous
100
AcDbLine
 10
110.300692
 20
-81.729609
 30
0.0
 11
110.300692
 21
-159.064187
 31
0.0
  0
LINE
  5
6F
100
AcDbEntity
  8
0
370
    -3
  6
Continuous
100
AcDbLine
 10
83.467981
 20
-185.896898
 30
0.0
 11
-5.866597
 21
-185.896898
 31
0.0
  0
LINE
  5
70
100
AcDbEntity
  8
0
370
    -3
  6
Continuous
100
AcDbLine
 10
-32.699308
 20
-159.064187
 30
0.0
 11
-32.699308
 21
-81.729609
 31
0.0
  0
LINE
  5
71
100
AcDbEntity
  8
0
370
    -3
  6
Continuous
100
AcDbLine
 10
-5.866597
 20
-54.896898
 30
0.0
 11
83.467981
 21
-54.896898
 31
0.0
  0
LINE
  5
72
100
AcDbEntity
  8
0
370
    -3
  6
Continuous
100
AcDbLine
 10
-5.866597
 20
-183.396898
 30
0.0
 11
83.467981
 21
-183.396898
 31
0.0
  0
LINE
  5
73
100
AcDbEntity
  8
0
370
    -3
  6
Continuous
100
AcDbLine
 10
107.800692
 20
-159.064187
 30
0.0
 11
107.800692
 21
-81.729609
 31
0.0
  0
LINE
  5
74
100
AcDbEntity
  8
0
370
    -3
  6
Continuous
100
AcDbLine
 10
83.467981
 20
-57.396898
 30
0.0
 11
-5.866597
 21
-57.396898
 31
0.0
  0
LINE
  5
75
100
AcDbEntity
  8
0
370
    -3
  6
Continuous
100
AcDbLine
 10
-30.199308
 20
-81.729609
 30
0.0
 11
-30.199308
 21
-159.064187
 31
0.0
  0
LINE
  5
76
100
AcDbEntity
  8
0
370
    -3
  6
DASHED
100
AcDbLine
 10
118.800692
 20
-137.896898
 30
0.0
 11
118.800692
 21
-138.896898
 31
0.0
  0
LINE
  5
77
100
AcDbEntity
  8
0
370
    -3
  6
DASHED
100
AcDbLine
 10
118.800692
 20
-118.896898
 30
0.0
 11
118.800692
 21
-119.896898
 31
0.0
  0
LINE
  5
78
100
AcDbEntity
  8
0
370
    -3
  6
DASHED
100
AcDbLine
 10
118.800692
 20
-119.896898
 30
0.0
 11
118.800692
 21
-137.896898
 31
0.0
  0
LINE
  5
79
100
AcDbEntity
  8
0
370
    -3
  6
Continuous
100
AcDbLine
 10
118.800692
 20
-55.396898
 30
0.0
 11
118.800692
 21
-185.396898
 31
0.0
  0
LINE
  5
7A
100
AcDbEntity
  8
0
370
    -3
  6
Continuous
100
AcDbLine
 10
109.800692
 20
-194.396898
 30
0.0
 11
-32.199308
 21
-194.396898
 31
0.0
  0
LINE
  5
7B
100
AcDbEntity
  8
0
370
    -3
  6
Continuous
100
AcDbLine
 10
-32.199308
 20
-46.396898
 30
0.0
 11
109.800692
 21
-46.396898
 31
0.0
  0
LINE
  5
7C
100
AcDbEntity
  8
0
370
    -3
  6
Continuous
100
AcDbLine
 10
128.300692
 20
-186.896898
 30
0.0
 11
128.300692
 21
-73.896898
 31
0.0
  0
LINE
  5
7D
100
AcDbEntity
  8
0
370
    -3
  6
Continuous
100
AcDbLine
 10
119.168189
 20
-189.896898
 30
0.0
 11
151.800692
 21
-189.896898
 31
0.0
  0
LINE
  5
7E
100
AcDbEntity
  8
0
370
    -3
  6
Continuous
100
AcDbLine
 10
121.800692
 20
-70.896898
 30
0.0
 11
151.800692
 21
-70.896898
 31
0.0
  0
ARC
  5
7F
100
AcDbEntity
  8
0
370
    -3
  6
Continuous
100
AcDbCircle
 10
-32.199308
 20
-185.396898
 30
0.0
 40
8.0
100
AcDbArc
 50
180.0
 51
270.0
  0
ARC
  5
80
100
AcDbEntity
  8
0
370
    -3
  6
Continuous
100
AcDbCircle
 10
-32.199308
 20
-55.396898
 30
0.0
 40
8.0
100
AcDbArc
 50
90.0
 51
180.0
  0
ARC
  5
81
100
AcDbEntity
  8
0
370
    -3
  6
Continuous
100
AcDbCircle
 10
109.800692
 20
-55.396898
 30
0.0
 40
8.0
100
AcDbArc
 50
0.0
 51
90.0
  0
ARC
  5
82
100
AcDbEntity
  8
0
370
    -3
  6
Continuous
100
AcDbCircle
 10
109.800692
 20
-185.396898
 30
0.0
 40
8.0
100
AcDbArc
 50
270.0
 51
0.0
  0
ARC
  5
83
100
AcDbEntity
  8
0
370
    -3
  6
Continuous
100
AcDbCircle
 10
119.168189
 20
-192.896898
 30
0.0
 40
3.0
100
AcDbArc
 50
90.0
 51
141.317813
  0
ARC
  5
84
100
AcDbEntity
  8
0
370
    -3
  6
Continuous
100
AcDbCircle
 10
121.800692
 20
-67.896898
 30
0.0
 40
3.0
100
AcDbArc
 50
180.0
 51
270.0
  0
ARC
  5
85
100
AcDbEntity
  8
0
370
    -3
  6
Continuous
100
AcDbCircle
 10
83.467981
 20
-64.896898
 30
0.0
 40
10.0
100
AcDbArc
 50
13.835224
 51
90.0
  0
ARC
  5
86
100
AcDbEntity
  8
0
370
    -3
  6
Continuous
100
AcDbCircle
 10
100.300692
 20
-81.729609
 30
0.0
 40
10.0
100
AcDbArc
 50
0.0
 51
76.164776
  0
ARC
  5
87
100
AcDbEntity
  8
0
370
    -3
  6
Continuous
100
AcDbCircle
 10
100.300692
 20
-159.064187
 30
0.0
 40
10.0
100
AcDbArc
 50
283.835224
 51
0.0
  0
ARC
  5
88
100
AcDbEntity
  8
0
370
    -3
  6
Continuous
100
AcDbCircle
 10
83.467981
 20
-175.896898
 30
0.0
 40
10.0
100
AcDbArc
 50
270.0
 51
346.164776
  0
ARC
  5
89
100
AcDbEntity
  8
0
370
    -3
  6
Continuous
100
AcDbCircle
 10
-22.699308
 20
-159.064187
 30
0.0
 40
10.0
100
AcDbArc
 50
180.0
 51
256.164776
  0
ARC
  5
8A
100
AcDbEntity
  8
0
370
    -3
  6
Continuous
100
AcDbCircle
 10
-22.699308
 20
-81.729609
 30
0.0
 40
10.0
100
AcDbArc
 50
103.835224
 51
180.0
  0
ARC
  5
8B
100
AcDbEntity
  8
0
370
    -3
  6
Continuous
100
AcDbCircle
 10
-28.199308
 20
-59.396898
 30
0.0
 40
13.0
100
AcDbArc
 50
283.835224
 51
346.164776
  0
ARC
  5
8C
100
AcDbEntity
  8
0
370
    -3
  6
Continuous
100
AcDbCircle
 10
-5.866597
 20
-64.896898
 30
0.0
 40
10.0
100
AcDbArc
 50
90.0
 51
166.164776
  0
ARC
  5
8D
100
AcDbEntity
  8
0
370
    -3
  6
Continuous
100
AcDbCircle
 10
100.300692
 20
-81.729609
 30
0.0
 40
7.5
100
AcDbArc
 50
0.0
 51
76.164776
  0
ARC
  5
8E
100
AcDbEntity
  8
0
370
    -3
  6
Continuous
100
AcDbCircle
 10
83.467981
 20
-64.896898
 30
0.0
 40
7.5
100
AcDbArc
 50
13.835224
 51
90.0
  0
ARC
  5
8F
100
AcDbEntity
  8
0
370
    -3
  6
Continuous
100
AcDbCircle
 10
-5.866597
 20
-64.896898
 30
0.0
 40
7.5
100
AcDbArc
 50
90.0
 51
166.164776
  0
ARC
  5
90
100
AcDbEntity
  8
0
370
    -3
  6
Continuous
100
AcDbCircle
 10
-28.199308
 20
-59.396898
 30
0.0
 40
15.5
100
AcDbArc
 50
283.835224
 51
346.164776
  0
ARC
  5
91
100
AcDbEntity
  8
0
370
    -3
  6
Continuous
100
AcDbCircle
 10
-22.699308
 20
-81.729609
 30
0.0
 40
7.5
100
AcDbArc
 50
103.835224
 51
180.0
  0
ARC
  5
92
100
AcDbEntity
  8
0
370
    -3
  6
Continuous
100
AcDbCircle
 10
-5.866597
 20
-175.896898
 30
0.0
 40
7.5
100
AcDbArc
 50
193.835224
 51
270.0
  0
ARC
  5
93
100
AcDbEntity
  8
0
370
    -3
  6
Continuous
100
AcDbCircle
 10
-32.199308
 20
-185.396898
 30
0.0
 40
9.0
100
AcDbArc
 50
180.0
 51
270.0
  0
ARC
  5
94
100
AcDbEntity
  8
0
370
    -3
  6
Continuous
100
AcDbCircle
 10
109.800692
 20
-185.396898
 30
0.0
 40
9.0
100
AcDbArc
 50
270.0
 51
0.0
  0
ARC
  5
95
100
AcDbEntity
  8
0
370
    -3
  6
Continuous
100
AcDbCircle
 10
-32.199308
 20
-55.396898
 30
0.0
 40
9.0
100
AcDbArc
 50
90.0
 51
180.0
  0
ARC
  5
96
100
AcDbEntity
  8
0
370
    -3
  6
Continuous
100
AcDbCircle
 10
109.800692
 20
-55.396898
 30
0.0
 40
9.0
100
AcDbArc
 50
0.0
 51
90.0
  0
ARC
  5
97
100
AcDbEntity
  8
0
370
    -3
  6
Continuous
100
AcDbCircle
 10
131.300692
 20
-186.896898
 30
0.0
 40
3.0
100
AcDbArc
 50
180.0
 51
270.0
  0
ARC
  5
98
100
AcDbEntity
  8
0
370
    -3
  6
Continuous
100
AcDbCircle
 10
131.300692
 20
-73.896898
 30
0.0
 40
3.0
100
AcDbArc
 50
90.0
 51
180.0
  0
ARC
  5
99
100
AcDbEntity
  8
0
370
    -3
  6
Continuous
100
AcDbCircle
 10
126.800692
 20
-83.300591
 30
0.0
 40
5.0
100
AcDbArc
 50
287.457603
 51
360.0
  0
ARC
  5
9A
100
AcDbEntity
  8
0
370
    -3
  6
Continuous
100
AcDbCircle
 10
126.800692
 20
-89.848111
 30
0.0
 40
5.0
100
AcDbArc
 50
287.457603
 51
360.0
  0
ARC
  5
9B
100
AcDbEntity
  8
0
370
    -3
  6
Continuous
100
AcDbCircle
 10
126.800692
 20
-170.945685
 30
0.0
 40
5.0
100
AcDbArc
 50
0.0
 51
72.542397
  0
ARC
  5
9C
100
AcDbEntity
  8
0
370
    -3
  6
Continuous
100
AcDbCircle
 10
126.800692
 20
-177.493205
 30
0.0
 40
5.0
100
AcDbArc
 50
0.0
 51
72.542397
  0
LINE
  5
9D
100
AcDbEntity
  8
0
370
    -3
  6
CENTER
100
AcDbLine
 10
-37.699308
 20
-181.396898
 30
0.0
 11
-16.986625
 21
-181.396898
 31
0.0
  0
LINE
  5
9E
100
AcDbEntity
  8
0
370
    -3
  6
CENTER
100
AcDbLine
 10
105.800692
 20
-169.665203
 30
0.0
 11
105.800692
 21
-190.896898
 31
0.0
  0
LINE
  5
9F
100
AcDbEntity
  8
0
370
    -3
  6
CENTER
100
AcDbLine
 10
93.968561
 20
-181.396898
 30
0.0
 11
115.300692
 21
-181.396898
 31
0.0
  0
LINE
  5
A0
100
AcDbEntity
  8
0
370
    -3
  6
CENTER
100
AcDbLine
 10
105.800692
 20
-49.896898
 30
0.0
 11
105.800692
 21
-70.628074
 31
0.0
  0
LINE
  5
A1
100
AcDbEntity
  8
0
370
    -3
  6
CENTER
100
AcDbLine
 10
94.847478
 20
-59.396898
 30
0.0
 11
115.300692
 21
-59.396898
 31
0.0
  0
LINE
  5
A2
100
AcDbEntity
  8
0
370
    -3
  6
CENTER
100
AcDbLine
 10
-37.699308
 20
-59.396898
 30
0.0
 11
-16.897188
 21
-59.396898
 31
0.0
  0
LINE
  5
A3
100
AcDbEntity
  8
0
370
    -3
  6
CENTER
100
AcDbLine
 10
-28.199308
 20
-49.896898
 30
0.0
 11
-28.199308
 21
-70.272199
 31
0.0
  0
LINE
  5
A4
100
AcDbEntity
  8
0
370
    -3
  6
CENTER
100
AcDbLine
 10
-28.199308
 20
-169.56125
 30
0.0
 11
-28.199308
 21
-190.896898
 31
0.0
  0
LINE
  5
A5
100
AcDbEntity
  8
0
370
    -3
  6
CENTER
100
AcDbLine
 10
-44.657967
 20
-107.396898
 30
0.0
 11
78.490685
 21
-107.396898
 31
0.0
  0
LINE
  5
A6
100
AcDbEntity
  8
0
370
    -3
  6
CENTER
100
AcDbLine
 10
19.800692
 20
-44.001414
 30
0.0
 11
19.800692
 21
-198.866277
 31
0.0
  0
ARC
  5
A7
100
AcDbEntity
  8
0
370
    -3
  6
Continuous
100
AcDbCircle
 10
136.800692
 20
-90.212167
 30
0.0
 40
5.0
100
AcDbArc
 50
90.0
 51
180.0
  0
ARC
  5
A8
100
AcDbEntity
  8
0
370
    -3
  6
Continuous
100
AcDbCircle
 10
136.800692
 20
-83.300591
 30
0.0
 40
5.0
100
AcDbArc
 50
90.0
 51
180.0
  0
ARC
  5
A9
100
AcDbEntity
  8
0
370
    -3
  6
Continuous
100
AcDbCircle
 10
147.800692
 20
-73.896898
 30
0.0
 40
3.0
100
AcDbArc
 50
90.0
 51
180.0
  0
ARC
  5
AA
100
AcDbEntity
  8
0
370
    -3
  6
Continuous
100
AcDbCircle
 10
141.800692
 20
-75.300591
 30
0.0
 40
3.0
100
AcDbArc
 50
270.0
 51
360.0
  0
ARC
  5
AB
100
AcDbEntity
  8
0
370
    -3
  6
Continuous
100
AcDbCircle
 10
141.800692
 20
-88.212167
 30
0.0
 40
3.0
100
AcDbArc
 50
360.0
 51
90.0
  0
ARC
  5
AC
100
AcDbEntity
  8
0
370
    -3
  6
Continuous
100
AcDbCircle
 10
141.800692
 20
-94.395631
 30
0.0
 40
3.0
100
AcDbArc
 50
360.0
 51
90.0
  0
ARC
  5
AD
100
AcDbEntity
  8
0
370
    -3
  6
Continuous
100
AcDbCircle
 10
136.800692
 20
-177.493205
 30
0.0
 40
5.0
100
AcDbArc
 50
180.0
 51
270.0
  0
ARC
  5
AE
100
AcDbEntity
  8
0
370
    -3
  6
Continuous
100
AcDbCircle
 10
136.800692
 20
-170.581629
 30
0.0
 40
5.0
100
AcDbArc
 50
180.0
 51
270.0
  0
ARC
  5
AF
100
AcDbEntity
  8
0
370
    -3
  6
Continuous
100
AcDbCircle
 10
147.800692
 20
-186.896898
 30
0.0
 40
3.0
100
AcDbArc
 50
180.0
 51
270.0
  0
ARC
  5
B0
100
AcDbEntity
  8
0
370
    -3
  6
Continuous
100
AcDbCircle
 10
141.800692
 20
-172.581629
 30
0.0
 40
3.0
100
AcDbArc
 50
270.0
 51
0.0
  0
ARC
  5
B1
100
AcDbEntity
  8
0
370
    -3
  6
Continuous
100
AcDbCircle
 10
141.800692
 20
-185.493205
 30
0.0
 40
3.0
100
AcDbArc
 50
0.0
 51
90.0
  0
ARC
  5
B2
100
AcDbEntity
  8
0
370
    -3
  6
Continuous
100
AcDbCircle
 10
141.800692
 20
-166.398165
 30
0.0
 40
3.0
100
AcDbArc
 50
270.0
 51
0.0
  0
LINE
  5
B3
100
AcDbEntity
  8
0
370
    -3
  6
Continuous
100
AcDbLine
 10
144.800692
 20
-74.896898
 30
0.0
 11
144.800692
 21
-73.896898
 31
0.0
  0
LINE
  5
B4
100
AcDbEntity
  8
0
370
    -3
  6
Continuous
100
AcDbLine
 10
141.800692
 20
-91.395631
 30
0.0
 11
136.800692
 21
-91.395631
 31
0.0
  0
LINE
  5
B5
100
AcDbEntity
  8
0
370
    -3
  6
Continuous
100
AcDbLine
 10
144.800692
 20
-88.212167
 30
0.0
 11
144.800692
 21
-130.396898
 31
0.0
  0
LINE
  5
B6
100
AcDbEntity
  8
0
370
    -3
  6
Continuous
100
AcDbLine
 10
141.800692
 20
-78.300591
 30
0.0
 11
136.800692
 21
-78.300591
 31
0.0
  0
LINE
  5
B7
100
AcDbEntity
  8
0
370
    -3
  6
Continuous
100
AcDbLine
 10
144.800692
 20
-74.896898
 30
0.0
 11
144.800692
 21
-75.300591
 31
0.0
  0
LINE
  5
B8
100
AcDbEntity
  8
0
370
    -3
  6
Continuous
100
AcDbLine
 10
141.800692
 20
-85.212167
 30
0.0
 11
136.800692
 21
-85.212167
 31
0.0
  0
LINE
  5
B9
100
AcDbEntity
  8
0
370
    -3
  6
Continuous
100
AcDbLine
 10
144.800692
 20
-185.896898
 30
0.0
 11
144.800692
 21
-186.896898
 31
0.0
  0
LINE
  5
BA
100
AcDbEntity
  8
0
370
    -3
  6
Continuous
100
AcDbLine
 10
144.800692
 20
-185.896898
 30
0.0
 11
144.800692
 21
-185.493205
 31
0.0
  0
LINE
  5
BB
100
AcDbEntity
  8
0
370
    -3
  6
Continuous
100
AcDbLine
 10
144.800692
 20
-185.896898
 30
0.0
 11
144.800692
 21
-185.493205
 31
0.0
  0
LINE
  5
BC
100
AcDbEntity
  8
0
370
    -3
  6
Continuous
100
AcDbLine
 10
141.800692
 20
-182.493205
 30
0.0
 11
136.800692
 21
-182.493205
 31
0.0
  0
LINE
  5
BD
100
AcDbEntity
  8
0
370
    -3
  6
Continuous
100
AcDbLine
 10
141.800692
 20
-175.581629
 30
0.0
 11
136.800692
 21
-175.581629
 31
0.0
  0
LINE
  5
BE
100
AcDbEntity
  8
0
370
    -3
  6
Continuous
100
AcDbLine
 10
141.800692
 20
-169.398165
 30
0.0
 11
136.800692
 21
-169.398165
 31
0.0
  0
LINE
  5
BF
100
AcDbEntity
  8
0
370
    -3
  6
Continuous
100
AcDbLine
 10
144.800692
 20
-172.581629
 30
0.0
 11
144.800692
 21
-130.396898
 31
0.0
  0
LINE
  5
C0
100
AcDbEntity
  8
0
370
    -3
  6
Continuous
100
AcDbLine
 10
-41.199308
 20
-185.396898
 30
0.0
 11
-41.199308
 21
-55.396898
 31
0.0
  0
LINE
  5
C1
100
AcDbEntity
  8
0
370
    -3
  6
Continuous
100
AcDbLine
 10
-40.199308
 20
-55.396898
 30
0.0
 11
-40.199308
 21
-185.396898
 31
0.0
  0
LINE
  5
C2
100
AcDbEntity
  8
0
370
    -3
  6
Continuous
100
AcDbLine
 10
151.800692
 20
-110.396898
 30
0.0
 11
144.800692
 21
-110.396898
 31
0.0
  0
LINE
  5
C3
100
AcDbEntity
  8
0
370
    -3
  6
Continuous
100
AcDbLine
 10
151.800692
 20
-150.396898
 30
0.0
 11
144.800692
 21
-150.396898
 31
0.0
  0
LINE
  5
C4
100
AcDbEntity
  8
0
370
    -3
  6
CENTER
100
AcDbLine
 10
-164.700466
 20
-107.396898
 30
0.0
 11
-332.943729
 21
-107.396898
 31
0.0
  0
LINE
  5
C5
100
AcDbEntity
  8
0
370
    -3
  6
DASHED
100
AcDbLine
 10
-219.936547
 20
-171.674378
 30
0.0
 11
-220.199308
 21
-171.411617
 31
0.0
  0
LINE
  5
C6
100
AcDbEntity
  8
0
370
    -3
  6
CENTER
100
AcDbLine
 10
-280.11854
 20
-130.396898
 30
0.0
 11
-260.184507
 21
-130.396898
 31
0.0
  0
LINE
  5
C7
100
AcDbEntity
  8
0
370
    -3
  6
Continuous
100
AcDbLine
 10
-210.199308
 20
-130.396898
 30
0.0
 11
-210.199308
 21
-121.396898
 31
0.0
  0
LINE
  5
C8
100
AcDbEntity
  8
0
370
    -3
  6
Continuous
100
AcDbLine
 10
-210.199308
 20
-130.396898
 30
0.0
 11
-210.199308
 21
-149.896898
 31
0.0
  0
LINE
  5
C9
100
AcDbEntity
  8
0
370
    -3
  6
Continuous
100
AcDbLine
 10
-210.699308
 20
-150.396898
 30
0.0
 11
-212.224309
 21
-150.396898
 31
0.0
  0
LINE
  5
CA
100
AcDbEntity
  8
0
370
    -3
  6
Continuous
100
AcDbLine
 10
-328.199308
 20
-130.396898
 30
0.0
 11
-328.199308
 21
-149.896898
 31
0.0
  0
LINE
  5
CB
100
AcDbEntity
  8
0
370
    -3
  6
Continuous
100
AcDbLine
 10
-327.699308
 20
-150.396898
 30
0.0
 11
-326.174307
 21
-150.396898
 31
0.0
  0
LINE
  5
CC
100
AcDbEntity
  8
0
370
    -3
  6
Continuous
100
AcDbLine
 10
-328.199308
 20
-130.396898
 30
0.0
 11
-328.199308
 21
-110.896898
 31
0.0
  0
LINE
  5
CD
100
AcDbEntity
  8
0
370
    -3
  6
Continuous
100
AcDbLine
 10
-327.699308
 20
-110.396898
 30
0.0
 11
-326.174307
 21
-110.396898
 31
0.0
  0
LINE
  5
CE
100
AcDbEntity
  8
0
370
    -3
  6
CENTER
100
AcDbLine
 10
-269.199308
 20
-43.88886
 30
0.0
 11
-269.199308
 21
-198.606313
 31
0.0
  0
LINE
  5
CF
100
AcDbEntity
  8
0
370
    -3
  6
DASHED
100
AcDbLine
 10
-318.462069
 20
-171.674378
 30
0.0
 11
-318.199308
 21
-171.411617
 31
0.0
  0
ARC
  5
D0
100
AcDbEntity
  8
0
370
    -3
  6
Continuous
100
AcDbCircle
 10
-210.699308
 20
-149.896898
 30
0.0
 40
0.5
100
AcDbArc
 50
270.0
 51
0.0
  0
ARC
  5
D1
100
AcDbEntity
  8
0
370
    -3
  6
Continuous
100
AcDbCircle
 10
-612.199308
 20
-130.396898
 30
0.0
 40
400.0
100
AcDbArc
 50
355.885655
 51
357.065975
  0
ARC
  5
D2
100
AcDbEntity
  8
0
370
    -3
  6
Continuous
100
AcDbCircle
 10
-212.224309
 20
-150.896898
 30
0.0
 40
0.5
100
AcDbArc
 50
90.0
 51
177.065975
  0
ARC
  5
D3
100
AcDbEntity
  8
0
370
    -3
  6
Continuous
100
AcDbCircle
 10
-243.152853
 20
-156.943353
 30
0.0
 40
30.0
100
AcDbArc
 50
319.917507
 51
355.885655
  0
ARC
  5
D4
100
AcDbEntity
  8
0
370
    -3
  6
Continuous
100
AcDbCircle
 10
-295.245763
 20
-156.943353
 30
0.0
 40
30.0
100
AcDbArc
 50
184.114345
 51
220.082493
  0
ARC
  5
D5
100
AcDbEntity
  8
0
370
    -3
  6
Continuous
100
AcDbCircle
 10
73.800692
 20
-130.396898
 30
0.0
 40
400.0
100
AcDbArc
 50
182.934025
 51
184.114345
  0
ARC
  5
D6
100
AcDbEntity
  8
0
370
    -3
  6
Continuous
100
AcDbCircle
 10
-327.699308
 20
-149.896898
 30
0.0
 40
0.5
100
AcDbArc
 50
180.0
 51
270.0
  0
ARC
  5
D7
100
AcDbEntity
  8
0
370
    -3
  6
Continuous
100
AcDbCircle
 10
-326.174307
 20
-150.896898
 30
0.0
 40
0.5
100
AcDbArc
 50
2.934025
 51
90.0
  0
ARC
  5
D8
100
AcDbEntity
  8
0
370
    -3
  6
Continuous
100
AcDbCircle
 10
-326.174307
 20
-150.896898
 30
0.0
 40
0.5
100
AcDbArc
 50
2.934025
 51
90.0
  0
ARC
  5
D9
100
AcDbEntity
  8
0
370
    -3
  6
Continuous
100
AcDbCircle
 10
-327.699308
 20
-110.896898
 30
0.0
 40
0.5
100
AcDbArc
 50
90.0
 51
180.0
  0
ARC
  5
DA
100
AcDbEntity
  8
0
370
    -3
  6
Continuous
100
AcDbCircle
 10
-327.699308
 20
-110.896898
 30
0.0
 40
0.5
100
AcDbArc
 50
90.0
 51
180.0
  0
ARC
  5
DB
100
AcDbEntity
  8
0
370
    -3
  6
Continuous
100
AcDbCircle
 10
-316.340749
 20
-173.795698
 30
0.0
 40
3.0
100
AcDbArc
 50
135.0
 51
218.62063
  0
ARC
  5
DC
100
AcDbEntity
  8
0
370
    -3
  6
Continuous
100
AcDbCircle
 10
-222.057867
 20
-173.795698
 30
0.0
 40
3.0
100
AcDbArc
 50
321.37937
 51
45.0
  0
LINE
  5
DD
100
AcDbEntity
  8
0
370
    -3
  6
Continuous
100
AcDbLine
 10
-318.199308
 20
-176.260049
 30
0.0
 11
-318.199308
 21
-46.606359
 31
0.0
  0
LINE
  5
DE
100
AcDbEntity
  8
0
370
    -3
  6
Continuous
100
AcDbLine
 10
-318.199308
 20
-194.187437
 30
0.0
 11
-318.199308
 21
-176.260049
 31
0.0
  0
LINE
  5
DF
100
AcDbEntity
  8
0
370
    -3
  6
Continuous
100
AcDbLine
 10
-322.199308
 20
-64.896898
 30
0.0
 11
-322.199308
 21
-130.396898
 31
0.0
  0
LINE
  5
E0
100
AcDbEntity
  8
0
370
    -3
  6
Continuous
100
AcDbLine
 10
-322.199308
 20
-64.896898
 30
0.0
 11
-318.199308
 21
-64.896898
 31
0.0
  0
LINE
  5
E1
100
AcDbEntity
  8
0
370
    -3
  6
Continuous
100
AcDbLine
 10
-318.199308
 20
-46.606359
 30
0.0
 11
-306.199308
 21
-46.396898
 31
0.0
  0
LINE
  5
E2
100
AcDbEntity
  8
0
370
    -3
  6
Continuous
100
AcDbLine
 10
-322.199308
 20
-149.896898
 30
0.0
 11
-318.199308
 21
-149.896898
 31
0.0
  0
LINE
  5
E3
100
AcDbEntity
  8
0
370
    -3
  6
Continuous
100
AcDbLine
 10
-216.199308
 20
-130.396898
 30
0.0
 11
-216.199308
 21
-149.896898
 31
0.0
  0
LINE
  5
E4
100
AcDbEntity
  8
0
370
    -3
  6
Continuous
100
AcDbLine
 10
-322.199308
 20
-149.896898
 30
0.0
 11
-322.199308
 21
-130.396898
 31
0.0
  0
LINE
  5
E5
100
AcDbEntity
  8
0
370
    -3
  6
Continuous
100
AcDbLine
 10
-220.199308
 20
-149.896898
 30
0.0
 11
-216.199308
 21
-149.896898
 31
0.0
  0
LINE
  5
E6
100
AcDbEntity
  8
0
370
    -3
  6
Continuous
100
AcDbLine
 10
-306.199308
 20
-46.38817
 30
0.0
 11
-230.199308
 21
-47.73221
 31
0.0
  0
LINE
  5
E7
100
AcDbEntity
  8
0
370
    -3
  6
Continuous
100
AcDbLine
 10
-220.199308
 20
-176.260049
 30
0.0
 11
-220.199308
 21
-47.73221
 31
0.0
  0
LINE
  5
E8
100
AcDbEntity
  8
0
370
    -3
  6
Continuous
100
AcDbLine
 10
-216.199308
 20
-130.396898
 30
0.0
 11
-216.199308
 21
-64.896898
 31
0.0
  0
LINE
  5
E9
100
AcDbEntity
  8
0
370
    -3
  6
Continuous
100
AcDbLine
 10
-220.199308
 20
-64.896898
 30
0.0
 11
-216.199308
 21
-64.896898
 31
0.0
  0
LINE
  5
EA
100
AcDbEntity
  8
0
370
    -3
  6
Continuous
100
AcDbLine
 10
-230.199308
 20
-47.73221
 30
0.0
 11
-220.199308
 21
-47.73221
 31
0.0
  0
LINE
  5
EB
100
AcDbEntity
  8
0
370
    -3
  6
Continuous
100
AcDbLine
 10
-306.199308
 20
-194.405626
 30
0.0
 11
-230.199308
 21
-193.061586
 31
0.0
  0
LINE
  5
EC
100
AcDbEntity
  8
0
370
    -3
  6
Continuous
100
AcDbLine
 10
-230.199308
 20
-193.061586
 30
0.0
 11
-220.199308
 21
-193.061586
 31
0.0
  0
LINE
  5
ED
100
AcDbEntity
  8
0
370
    -3
  6
Continuous
100
AcDbLine
 10
-220.199308
 20
-193.061586
 30
0.0
 11
-220.199308
 21
-176.260049
 31
0.0
  0
LINE
  5
EE
100
AcDbEntity
  8
0
370
    -3
  6
Continuous
100
AcDbLine
 10
-306.199308
 20
-194.396898
 30
0.0
 11
-318.199308
 21
-194.187437
 31
0.0
  0
ARC
  5
EF
100
AcDbEntity
  8
0
370
    -3
  6
Continuous
100
AcDbCircle
 10
-269.699308
 20
-130.396898
 30
0.0
 40
58.5
100
AcDbArc
 50
327.795772
 51
8.849883
  0
ARC
  5
F0
100
AcDbEntity
  8
0
370
    -3
  6
Continuous
100
AcDbCircle
 10
-268.699308
 20
-130.396898
 30
0.0
 40
58.5
100
AcDbArc
 50
156.139057
 51
212.204228
  0
ARC
  5
F1
100
AcDbEntity
  8
0
370
    -3
  6
Continuous
100
AcDbCircle
 10
-509.799308
 20
-130.396898
 30
0.0
 40
300.6
100
AcDbArc
 50
0.0
 51
1.715699
  0
ARC
  5
F2
100
AcDbEntity
  8
0
370
    -3
  6
Continuous
100
AcDbCircle
 10
-219.102693
 20
-86.448311
 30
0.0
 40
6.6
100
AcDbArc
 50
8.597082
 51
45.0
  0
ARC
  5
F3
100
AcDbEntity
  8
0
370
    -3
  6
Continuous
100
AcDbCircle
 10
-509.799308
 20
-130.396898
 30
0.0
 40
300.6
100
AcDbArc
 50
351.402918
 51
0.0
  0
ARC
  5
F4
100
AcDbEntity
  8
0
370
    -3
  6
Continuous
100
AcDbCircle
 10
-219.102693
 20
-174.345485
 30
0.0
 40
6.6
100
AcDbArc
 50
315.0
 51
351.402918
  0
LINE
  5
F5
100
AcDbEntity
  8
0
370
    -3
  6
Continuous
100
AcDbLine
 10
-214.435789
 20
-179.01239
 30
0.0
 11
-220.199308
 21
-184.775909
 31
0.0
  0
LINE
  5
F6
100
AcDbEntity
  8
0
370
    -3
  6
Continuous
100
AcDbLine
 10
-214.435789
 20
-81.781406
 30
0.0
 11
-216.199308
 21
-80.017887
 31
0.0
  0
ARC
  5
F7
100
AcDbEntity
  8
0
370
    -3
  6
Continuous
100
AcDbCircle
 10
-269.199308
 20
105.203102
 30
0.0
 40
300.6
100
AcDbArc
 50
264.930522
 51
276.051985
  0
ARC
  5
F8
100
AcDbEntity
  8
0
370
    -3
  6
Continuous
100
AcDbCircle
 10
-240.311278
 20
-167.269799
 30
0.0
 40
26.6
100
AcDbArc
 50
276.051985
 51
283.54218
  0
ARC
  5
F9
100
AcDbEntity
  8
0
370
    -3
  6
Continuous
100
AcDbCircle
 10
-319.295922
 20
-174.345485
 30
0.0
 40
6.6
100
AcDbArc
 50
188.597082
 51
225.0
  0
ARC
  5
FA
100
AcDbEntity
  8
0
370
    -3
  6
Continuous
100
AcDbCircle
 10
-28.599308
 20
-130.396898
 30
0.0
 40
300.6
100
AcDbArc
 50
180.0
 51
188.597082
  0
ARC
  5
FB
100
AcDbEntity
  8
0
370
    -3
  6
Continuous
100
AcDbCircle
 10
-319.295922
 20
-86.448311
 30
0.0
 40
6.6
100
AcDbArc
 50
135.0
 51
171.402918
  0
ARC
  5
FC
100
AcDbEntity
  8
0
370
    -3
  6
Continuous
100
AcDbCircle
 10
-28.599308
 20
-130.396898
 30
0.0
 40
300.6
100
AcDbArc
 50
171.402918
 51
180.0
  0
LINE
  5
FD
100
AcDbEntity
  8
0
370
    -3
  6
Continuous
100
AcDbLine
 10
-323.962827
 20
-81.781406
 30
0.0
 11
-322.199308
 21
-80.017887
 31
0.0
  0
LINE
  5
FE
100
AcDbEntity
  8
0
370
    -3
  6
Continuous
100
AcDbLine
 10
-323.962827
 20
-179.01239
 30
0.0
 11
-318.199308
 21
-184.775909
 31
0.0
  0
ARC
  5
FF
100
AcDbEntity
  8
0
370
    -3
  6
Continuous
100
AcDbCircle
 10
73.800692
 20
-130.396898
 30
0.0
 40
400.0
100
AcDbArc
 50
175.885655
 51
177.065975
  0
ARC
  5
100
100
AcDbEntity
  8
0
370
    -3
  6
Continuous
100
AcDbCircle
 10
-326.174307
 20
-109.896898
 30
0.0
 40
0.5
100
AcDbArc
 50
270.0
 51
357.065975
  0
ARC
  5
101
100
AcDbEntity
  8
0
370
    -3
  6
Continuous
100
AcDbCircle
 10
-326.174307
 20
-109.896898
 30
0.0
 40
0.5
100
AcDbArc
 50
270.0
 51
357.065975
  0
ARC
  5
102
100
AcDbEntity
  8
0
370
    -3
  6
Continuous
100
AcDbCircle
 10
-295.245763
 20
-103.850443
 30
0.0
 40
30.0
100
AcDbArc
 50
153.955266
 51
175.885655
  0
LINE
  5
103
100
AcDbEntity
  8
0
370
    -3
  6
Continuous
100
AcDbLine
 10
-205.199308
 20
-93.396898
 30
0.0
 11
-205.199308
 21
-90.396898
 31
0.0
  0
LINE
  5
104
100
AcDbEntity
  8
0
370
    -3
  6
Continuous
100
AcDbLine
 10
-169.199308
 20
-107.396898
 30
0.0
 11
-169.199308
 21
-90.396898
 31
0.0
  0
LINE
  5
105
100
AcDbEntity
  8
0
370
    -3
  6
Continuous
100
AcDbLine
 10
-214.199308
 20
-93.396898
 30
0.0
 11
-169.199308
 21
-93.396898
 31
0.0
  0
LINE
  5
106
100
AcDbEntity
  8
0
370
    -3
  6
Continuous
100
AcDbLine
 10
-205.199308
 20
-90.396898
 30
0.0
 11
-169.199308
 21
-90.396898
 31
0.0
  0
LINE
  5
107
100
AcDbEntity
  8
0
370
    -3
  6
Continuous
100
AcDbLine
 10
-214.199308
 20
-121.396898
 30
0.0
 11
-169.199308
 21
-121.396898
 31
0.0
  0
LINE
  5
108
100
AcDbEntity
  8
0
370
    -3
  6
Continuous
100
AcDbLine
 10
-169.199308
 20
-107.396898
 30
0.0
 11
-169.199308
 21
-121.396898
 31
0.0
  0
LINE
  5
109
100
AcDbEntity
  8
0
370
    -3
  6
Continuous
100
AcDbLine
 10
-214.199308
 20
-92.896898
 30
0.0
 11
-216.199308
 21
-92.896898
 31
0.0
  0
LINE
  5
10A
100
AcDbEntity
  8
0
370
    -3
  6
Continuous
100
AcDbLine
 10
-214.199308
 20
-107.396898
 30
0.0
 11
-214.199308
 21
-92.896898
 31
0.0
  0
LINE
  5
10B
100
AcDbEntity
  8
0
370
    -3
  6
Continuous
100
AcDbLine
 10
-214.199308
 20
-107.396898
 30
0.0
 11
-214.199308
 21
-92.896898
 31
0.0
  0
LINE
  5
10C
100
AcDbEntity
  8
0
370
    -3
  6
Continuous
100
AcDbLine
 10
-214.199308
 20
-107.396898
 30
0.0
 11
-214.199308
 21
-121.896898
 31
0.0
  0
LINE
  5
10D
100
AcDbEntity
  8
0
370
    -3
  6
Continuous
100
AcDbLine
 10
-214.199308
 20
-107.396898
 30
0.0
 11
-214.199308
 21
-121.896898
 31
0.0
  0
LINE
  5
10E
100
AcDbEntity
  8
0
370
    -3
  6
Continuous
100
AcDbLine
 10
-214.199308
 20
-121.896898
 30
0.0
 11
-216.199308
 21
-121.896898
 31
0.0
  0
ARC
  5
10F
100
AcDbEntity
  8
0
370
    -3
  6
Continuous
100
AcDbCircle
 10
-509.799308
 20
-130.396898
 30
0.0
 40
300.6
100
AcDbArc
 50
7.070305
 51
8.597082
  0
LINE
  5
110
100
AcDbEntity
  8
0
370
    -3
  6
Continuous
100
AcDbLine
 10
151.900692
 20
-71.896898
 30
0.0
 11
151.900692
 21
-71.896898
 31
0.0
  0
LINE
  5
111
100
AcDbEntity
  8
0
370
    -3
  6
Continuous
100
AcDbLine
 10
151.800692
 20
-71.899336
 30
0.0
 11
151.800692
 21
-188.896898
 31
0.0
  0
LINE
  5
112
100
AcDbEntity
  8
0
370
    -3
  6
Continuous
100
AcDbLine
 10
151.800692
 20
-188.896902
 30
0.0
 11
151.800692
 21
-186.646901
 31
0.0
  0
LINE
  5
113
100
AcDbEntity
  8
0
370
    -3
  6
Continuous
100
AcDbLine
 10
151.800692
 20
-71.905626
 30
0.0
 11
151.800692
 21
-130.396898
 31
0.0
  0
LINE
  5
114
100
AcDbEntity
  8
0
370
    -3
  6
Continuous
100
AcDbLine
 10
151.800692
 20
-188.88817
 30
0.0
 11
151.800692
 21
-130.396898
 31
0.0
  0
LINE
  5
115
100
AcDbEntity
  8
0
370
    -3
  6
Continuous
100
AcDbLine
 10
151.801198
 20
-186.646898
 30
0.0
 11
151.801198
 21
-188.814859
 31
0.0
  0
LINE
  5
116
100
AcDbEntity
  8
0
370
    -3
  6
Continuous
100
AcDbLine
 10
151.801198
 20
-188.896898
 30
0.0
 11
151.801198
 21
-186.646898
 31
0.0
  0
LINE
  5
117
100
AcDbEntity
  8
0
370
    -3
  6
Continuous
100
AcDbLine
 10
151.801198
 20
-71.896898
 30
0.0
 11
151.801198
 21
-74.146898
 31
0.0
  0
LINE
  5
118
100
AcDbEntity
  8
0
370
    -3
  6
Continuous
100
AcDbLine
 10
151.800692
 20
-130.396898
 30
0.0
 11
151.800692
 21
-189.870712
 31
0.0
  0
LINE
  5
119
100
AcDbEntity
  8
0
370
    -3
  6
Continuous
100
AcDbLine
 10
151.800692
 20
-130.396898
 30
0.0
 11
151.800692
 21
-70.923084
 31
0.0
  0
LINE
  5
11A
100
AcDbEntity
  8
0
370
    -3
  6
Continuous
100
AcDbLine
 10
151.800692
 20
-70.896898
 30
0.0
 11
151.800692
 21
-130.396898
 31
0.0
  0
LINE
  5
11B
100
AcDbEntity
  8
0
370
    -3
  6
Continuous
100
AcDbLine
 10
151.800692
 20
-189.896898
 30
0.0
 11
151.800692
 21
-130.396898
 31
0.0
  0
CIRCLE
  5
11C
100
AcDbEntity
  8
0
370
    -3
  6
Continuous
100
AcDbCircle
 10
-105.199308
 20
-107.396898
 30
0.0
 40
4.0
  0
CIRCLE
  5
11D
100
AcDbEntity
  8
0
370
    -3
  6
Continuous
100
AcDbCircle
 10
-105.199308
 20
-107.396898
 30
0.0
 40
3.5
  0
LINE
  5
11E
100
AcDbEntity
  8
0
370
    -3
  6
Continuous
100
AcDbLine
 10
-109.199308
 20
-90.396898
 30
0.0
 11
-101.199308
 21
-90.396898
 31
0.0
  0
LINE
  5
11F
100
AcDbEntity
  8
0
370
    -3
  6
Continuous
100
AcDbLine
 10
-109.199308
 20
-90.396898
 30
0.0
 11
-109.199308
 21
-97.396898
 31
0.0
  0
LINE
  5
120
100
AcDbEntity
  8
0
370
    -3
  6
Continuous
100
AcDbLine
 10
-109.199308
 20
-97.396898
 30
0.0
 11
-101.199308
 21
-97.396898
 31
0.0
  0
LINE
  5
121
100
AcDbEntity
  8
0
370
    -3
  6
Continuous
100
AcDbLine
 10
-101.199308
 20
-90.396898
 30
0.0
 11
-101.199308
 21
-97.396898
 31
0.0
  0
ARC
  5
122
100
AcDbEntity
  8
0
370
    -3
  6
Continuous
100
AcDbCircle
 10
-105.199308
 20
-107.396898
 30
0.0
 40
14.0
100
AcDbArc
 50
106.60155
 51
73.39845
  0
LINE
  5
123
100
AcDbEntity
  8
0
370
    -3
  6
CENTER
100
AcDbLine
 10
60.155135
 20
-130.396898
 30
0.0
 11
391.279203
 21
-130.396898
 31
0.0
  0
LINE
  5
124
100
AcDbEntity
  8
0
370
    -3
  6
Continuous
100
AcDbLine
 10
285.800692
 20
-65.40231
 30
0.0
 11
285.800692
 21
-65.783089
 31
0.0
  0
LINE
  5
125
100
AcDbEntity
  8
0
370
    -3
  6
Continuous
100
AcDbLine
 10
285.800692
 20
-65.40231
 30
0.0
 11
356.494716
 21
-65.40231
 31
0.0
  0
ARC
  5
126
100
AcDbEntity
  8
0
370
    -3
  6
Continuous
100
AcDbCircle
 10
282.800692
 20
-65.783089
 30
0.0
 40
3.0
100
AcDbArc
 50
270.0
 51
0.0
  0
ARC
  5
127
100
AcDbEntity
  8
0
370
    -3
  6
Continuous
100
AcDbCircle
 10
19.800692
 20
86.0
 30
0.0
 40
4.0
100
AcDbArc
 50
0.0
 51
180.0
  0
LINE
  5
128
100
AcDbEntity
  8
0
370
    -3
  6
Continuous
100
AcDbLine
 10
23.800692
 20
86.0
 30
0.0
 11
23.800692
 21
50.0
 31
0.0
  0
LINE
  5
129
100
AcDbEntity
  8
0
370
    -3
  6
Continuous
100
AcDbLine
 10
15.800692
 20
86.0
 30
0.0
 11
15.800692
 21
50.0
 31
0.0
  0
LINE
  5
12A
100
AcDbEntity
  8
0
370
    -3
  6
Continuous
100
AcDbLine
 10
34.300692
 20
95.0
 30
0.0
 11
34.300692
 21
97.0
 31
0.0
  0
LINE
  5
12B
100
AcDbEntity
  8
0
370
    -3
  6
Continuous
100
AcDbLine
 10
19.800692
 20
95.0
 30
0.0
 11
34.300692
 21
95.0
 31
0.0
  0
LINE
  5
12C
100
AcDbEntity
  8
0
370
    -3
  6
Continuous
100
AcDbLine
 10
19.800692
 20
95.0
 30
0.0
 11
34.300692
 21
95.0
 31
0.0
  0
LINE
  5
12D
100
AcDbEntity
  8
0
370
    -3
  6
Continuous
100
AcDbLine
 10
33.800692
 20
95.0
 30
0.0
 11
33.800692
 21
50.0
 31
0.0
  0
LINE
  5
12E
100
AcDbEntity
  8
0
370
    -3
  6
Continuous
100
AcDbLine
 10
5.300692
 20
95.0
 30
0.0
 11
5.300692
 21
97.0
 31
0.0
  0
LINE
  5
12F
100
AcDbEntity
  8
0
370
    -3
  6
Continuous
100
AcDbLine
 10
19.800692
 20
95.0
 30
0.0
 11
5.300692
 21
95.0
 31
0.0
  0
LINE
  5
130
100
AcDbEntity
  8
0
370
    -3
  6
Continuous
100
AcDbLine
 10
19.800692
 20
95.0
 30
0.0
 11
5.300692
 21
95.0
 31
0.0
  0
LINE
  5
131
100
AcDbEntity
  8
0
370
    -3
  6
Continuous
100
AcDbLine
 10
5.800692
 20
95.0
 30
0.0
 11
5.800692
 21
50.0
 31
0.0
  0
LINE
  5
132
100
AcDbEntity
  8
0
370
    -3
  6
Continuous
100
AcDbLine
 10
15.800692
 20
86.0
 30
0.0
 11
23.800692
 21
86.0
 31
0.0
  0
LINE
  5
133
100
AcDbEntity
  8
0
370
    -3
  6
Continuous
100
AcDbLine
 10
33.800692
 20
50.0
 30
0.0
 11
5.800692
 21
50.0
 31
0.0
  0
ARC
  5
134
100
AcDbEntity
  8
0
370
    -3
  6
Continuous
100
AcDbCircle
 10
136.800692
 20
190.184731
 30
0.0
 40
5.0
100
AcDbArc
 50
90.0
 51
180.0
  0
ARC
  5
135
100
AcDbEntity
  8
0
370
    -3
  6
Continuous
100
AcDbCircle
 10
136.800692
 20
197.096307
 30
0.0
 40
5.0
100
AcDbArc
 50
90.0
 51
180.0
  0
ARC
  5
136
100
AcDbEntity
  8
0
370
    -3
  6
Continuous
100
AcDbCircle
 10
126.800692
 20
190.548787
 30
0.0
 40
5.0
100
AcDbArc
 50
287.457603
 51
0.0
  0
ARC
  5
137
100
AcDbEntity
  8
0
370
    -3
  6
Continuous
100
AcDbCircle
 10
126.800692
 20
197.096307
 30
0.0
 40
5.0
100
AcDbArc
 50
287.457603
 51
0.0
  0
LINE
  5
138
100
AcDbEntity
  8
0
370
    -3
  6
Continuous
100
AcDbLine
 10
141.800692
 20
195.184731
 30
0.0
 11
136.800692
 21
195.184731
 31
0.0
  0
LINE
  5
139
100
AcDbEntity
  8
0
370
    -3
  6
Continuous
100
AcDbLine
 10
141.800692
 20
202.096307
 30
0.0
 11
136.800692
 21
202.096307
 31
0.0
  0
LINE
  5
13A
100
AcDbEntity
  8
0
370
    -3
  6
Continuous
100
AcDbLine
 10
144.800692
 20
192.184731
 30
0.0
 11
144.800692
 21
150.0
 31
0.0
  0
LINE
  5
13B
100
AcDbEntity
  8
0
370
    -3
  6
Continuous
100
AcDbLine
 10
141.800692
 20
189.001267
 30
0.0
 11
136.800692
 21
189.001267
 31
0.0
  0
LINE
  5
13C
100
AcDbEntity
  8
0
370
    -3
  6
Continuous
100
AcDbLine
 10
144.800692
 20
205.5
 30
0.0
 11
144.800692
 21
205.096307
 31
0.0
  0
LINE
  5
13D
100
AcDbEntity
  8
0
370
    -3
  6
Continuous
100
AcDbLine
 10
144.800692
 20
205.5
 30
0.0
 11
144.800692
 21
205.096307
 31
0.0
  0
LINE
  5
13E
100
AcDbEntity
  8
0
370
    -3
  6
Continuous
100
AcDbLine
 10
144.800692
 20
205.5
 30
0.0
 11
144.800692
 21
206.5
 31
0.0
  0
ARC
  5
13F
100
AcDbEntity
  8
0
370
    -3
  6
Continuous
100
AcDbCircle
 10
141.800692
 20
186.001267
 30
0.0
 40
3.0
100
AcDbArc
 50
0.0
 51
90.0
  0
ARC
  5
140
100
AcDbEntity
  8
0
370
    -3
  6
Continuous
100
AcDbCircle
 10
141.800692
 20
205.096307
 30
0.0
 40
3.0
100
AcDbArc
 50
270.0
 51
0.0
  0
ARC
  5
141
100
AcDbEntity
  8
0
370
    -3
  6
Continuous
100
AcDbCircle
 10
141.800692
 20
192.184731
 30
0.0
 40
3.0
100
AcDbArc
 50
0.0
 51
90.0
  0
ARC
  5
142
100
AcDbEntity
  8
0
370
    -3
  6
Continuous
100
AcDbCircle
 10
147.800692
 20
206.5
 30
0.0
 40
3.0
100
AcDbArc
 50
90.0
 51
180.0
  0
ARC
  5
143
100
AcDbEntity
  8
0
370
    -3
  6
Continuous
100
AcDbCircle
 10
136.800692
 20
102.903693
 30
0.0
 40
5.0
100
AcDbArc
 50
180.0
 51
270.0
  0
ARC
  5
144
100
AcDbEntity
  8
0
370
    -3
  6
Continuous
100
AcDbCircle
 10
136.800692
 20
109.815269
 30
0.0
 40
5.0
100
AcDbArc
 50
180.0
 51
270.0
  0
ARC
  5
145
100
AcDbEntity
  8
0
370
    -3
  6
Continuous
100
AcDbCircle
 10
126.800692
 20
102.903693
 30
0.0
 40
5.0
100
AcDbArc
 50
0.0
 51
72.542397
  0
ARC
  5
146
100
AcDbEntity
  8
0
370
    -3
  6
Continuous
100
AcDbCircle
 10
126.800692
 20
109.451213
 30
0.0
 40
5.0
100
AcDbArc
 50
0.0
 51
72.542397
  0
LINE
  5
147
100
AcDbEntity
  8
0
370
    -3
  6
Continuous
100
AcDbLine
 10
141.800692
 20
104.815269
 30
0.0
 11
136.800692
 21
104.815269
 31
0.0
  0
LINE
  5
148
100
AcDbEntity
  8
0
370
    -3
  6
Continuous
100
AcDbLine
 10
141.800692
 20
97.903693
 30
0.0
 11
136.800692
 21
97.903693
 31
0.0
  0
LINE
  5
149
100
AcDbEntity
  8
0
370
    -3
  6
Continuous
100
AcDbLine
 10
144.800692
 20
94.5
 30
0.0
 11
144.800692
 21
94.903693
 31
0.0
  0
LINE
  5
14A
100
AcDbEntity
  8
0
370
    -3
  6
Continuous
100
AcDbLine
 10
144.800692
 20
107.815269
 30
0.0
 11
144.800692
 21
150.0
 31
0.0
  0
LINE
  5
14B
100
AcDbEntity
  8
0
370
    -3
  6
Continuous
100
AcDbLine
 10
141.800692
 20
110.998733
 30
0.0
 11
136.800692
 21
110.998733
 31
0.0
  0
LINE
  5
14C
100
AcDbEntity
  8
0
370
    -3
  6
Continuous
100
AcDbLine
 10
144.800692
 20
94.5
 30
0.0
 11
144.800692
 21
93.5
 31
0.0
  0
ARC
  5
14D
100
AcDbEntity
  8
0
370
    -3
  6
Continuous
100
AcDbCircle
 10
141.800692
 20
113.998733
 30
0.0
 40
3.0
100
AcDbArc
 50
270.0
 51
0.0
  0
ARC
  5
14E
100
AcDbEntity
  8
0
370
    -3
  6
Continuous
100
AcDbCircle
 10
141.800692
 20
107.815269
 30
0.0
 40
3.0
100
AcDbArc
 50
270.0
 51
0.0
  0
ARC
  5
14F
100
AcDbEntity
  8
0
370
    -3
  6
Continuous
100
AcDbCircle
 10
147.800692
 20
93.5
 30
0.0
 40
3.0
100
AcDbArc
 50
180.0
 51
270.0
  0
LINE
  5
150
100
AcDbEntity
  8
0
370
    -3
  6
Continuous
100
AcDbLine
 10
118.800692
 20
199.0
 30
0.0
 11
119.010153
 21
187.0
 31
0.0
  0
LINE
  5
151
100
AcDbEntity
  8
0
370
    -3
  6
Continuous
100
AcDbLine
 10
62.300692
 20
203.0
 30
0.0
 11
62.300692
 21
199.0
 31
0.0
  0
LINE
  5
152
100
AcDbEntity
  8
0
370
    -3
  6
Continuous
100
AcDbLine
 10
-41.199308
 20
199.0
 30
0.0
 11
-23.27192
 21
199.0
 31
0.0
  0
LINE
  5
153
100
AcDbEntity
  8
0
370
    -3
  6
Continuous
100
AcDbLine
 10
-22.699308
 20
203.0
 30
0.0
 11
-22.699308
 21
199.0
 31
0.0
  0
LINE
  5
154
100
AcDbEntity
  8
0
370
    -3
  6
Continuous
100
AcDbLine
 10
62.300692
 20
203.0
 30
0.0
 11
-3.199308
 21
203.0
 31
0.0
  0
LINE
  5
155
100
AcDbEntity
  8
0
370
    -3
  6
Continuous
100
AcDbLine
 10
-22.699308
 20
203.0
 30
0.0
 11
-3.199308
 21
203.0
 31
0.0
  0
LINE
  5
156
100
AcDbEntity
  8
0
370
    -3
  6
Continuous
100
AcDbLine
 10
-3.199308
 20
97.0
 30
0.0
 11
-22.699308
 21
97.0
 31
0.0
  0
LINE
  5
157
100
AcDbEntity
  8
0
370
    -3
  6
Continuous
100
AcDbLine
 10
-22.699308
 20
101.0
 30
0.0
 11
-22.699308
 21
97.0
 31
0.0
  0
LINE
  5
158
100
AcDbEntity
  8
0
370
    -3
  6
Continuous
100
AcDbLine
 10
119.01888
 20
187.0
 30
0.0
 11
117.67484
 21
111.0
 31
0.0
  0
LINE
  5
159
100
AcDbEntity
  8
0
370
    -3
  6
Continuous
100
AcDbLine
 10
117.67484
 20
111.0
 30
0.0
 11
117.67484
 21
101.0
 31
0.0
  0
LINE
  5
15A
100
AcDbEntity
  8
0
370
    -3
  6
Continuous
100
AcDbLine
 10
62.300692
 20
101.0
 30
0.0
 11
62.300692
 21
97.0
 31
0.0
  0
LINE
  5
15B
100
AcDbEntity
  8
0
370
    -3
  6
Continuous
100
AcDbLine
 10
-3.199308
 20
97.0
 30
0.0
 11
62.300692
 21
97.0
 31
0.0
  0
LINE
  5
15C
100
AcDbEntity
  8
0
370
    -3
  6
Continuous
100
AcDbLine
 10
-41.408769
 20
187.0
 30
0.0
 11
-41.199308
 21
199.0
 31
0.0
  0
LINE
  5
15D
100
AcDbEntity
  8
0
370
    -3
  6
Continuous
100
AcDbLine
 10
-40.073456
 20
101.0
 30
0.0
 11
-23.27192
 21
101.0
 31
0.0
  0
LINE
  5
15E
100
AcDbEntity
  8
0
370
    -3
  6
Continuous
100
AcDbLine
 10
-40.073456
 20
111.0
 30
0.0
 11
-40.073456
 21
101.0
 31
0.0
  0
LINE
  5
15F
100
AcDbEntity
  8
0
370
    -3
  6
Continuous
100
AcDbLine
 10
-41.417496
 20
187.0
 30
0.0
 11
-40.073456
 21
111.0
 31
0.0
  0
LINE
  5
160
100
AcDbEntity
  8
0
370
    -3
  6
Continuous
100
AcDbLine
 10
-23.27192
 20
199.0
 30
0.0
 11
118.800692
 21
199.0
 31
0.0
  0
LINE
  5
161
100
AcDbEntity
  8
0
370
    -3
  6
Continuous
100
AcDbLine
 10
-23.27192
 20
101.0
 30
0.0
 11
117.67484
 21
101.0
 31
0.0
  0
LINE
  5
162
100
AcDbEntity
  8
0
370
    -3
  6
Continuous
100
AcDbLine
 10
119.010153
 20
187.0
 30
0.0
 11
22.591231
 21
187.0
 31
0.0
  0
LINE
  5
163
100
AcDbEntity
  8
0
370
    -3
  6
Continuous
100
AcDbLine
 10
22.591231
 20
187.0
 30
0.0
 11
-41.417496
 21
187.0
 31
0.0
  0
ARC
  5
164
100
AcDbEntity
  8
0
370
    -3
  6
Continuous
100
AcDbCircle
 10
119.67484
 20
110.0
 30
0.0
 40
2.0
100
AcDbArc
 50
90.0
 51
180.0
  0
ARC
  5
165
100
AcDbEntity
  8
0
370
    -3
  6
Continuous
100
AcDbCircle
 10
121.800692
 20
188.0
 30
0.0
 40
3.0
100
AcDbArc
 50
199.471221
 51
270.0
  0
ARC
  5
166
100
AcDbEntity
  8
0
370
    -3
  6
Continuous
100
AcDbCircle
 10
125.300692
 20
109.0
 30
0.0
 40
3.0
100
AcDbArc
 50
0.0
 51
90.0
  0
LINE
  5
167
100
AcDbEntity
  8
0
370
    -3
  6
Continuous
100
AcDbLine
 10
119.67484
 20
112.0
 30
0.0
 11
125.300692
 21
112.0
 31
0.0
  0
ARC
  5
168
100
AcDbEntity
  8
0
370
    -3
  6
Continuous
100
AcDbCircle
 10
125.300692
 20
188.0
 30
0.0
 40
3.0
100
AcDbArc
 50
270.0
 51
0.0
  0
LINE
  5
169
100
AcDbEntity
  8
0
370
    -3
  6
Continuous
100
AcDbLine
 10
125.300692
 20
185.0
 30
0.0
 11
121.800692
 21
185.0
 31
0.0
  0
LINE
  5
16A
100
AcDbEntity
  8
0
370
    -3
  6
Continuous
100
AcDbLine
 10
128.300692
 20
93.5
 30
0.0
 11
128.300692
 21
206.5
 31
0.0
  0
LINE
  5
16B
100
AcDbEntity
  8
0
370
    -3
  6
DASHED
100
AcDbLine
 10
128.300692
 20
130.53945
 30
0.0
 11
128.300692
 21
150.0
 31
0.0
  0
LINE
  5
16C
100
AcDbEntity
  8
0
370
    -3
  6
DASHED
100
AcDbLine
 10
128.300692
 20
130.53945
 30
0.0
 11
128.300692
 21
150.0
 31
0.0
  0
LINE
  5
16D
100
AcDbEntity
  8
0
370
    -3
  6
Continuous
100
AcDbLine
 10
131.300692
 20
209.5
 30
0.0
 11
151.800692
 21
209.5
 31
0.0
  0
ARC
  5
16E
100
AcDbEntity
  8
0
370
    -3
  6
Continuous
100
AcDbCircle
 10
131.300692
 20
206.5
 30
0.0
 40
3.0
100
AcDbArc
 50
90.0
 51
180.0
  0
LINE
  5
16F
100
AcDbEntity
  8
0
370
    -3
  6
Continuous
100
AcDbLine
 10
144.800692
 20
170.0
 30
0.0
 11
151.800692
 21
170.0
 31
0.0
  0
ARC
  5
170
100
AcDbEntity
  8
0
370
    -3
  6
Continuous
100
AcDbCircle
 10
131.300692
 20
93.5
 30
0.0
 40
3.0
100
AcDbArc
 50
180.0
 51
270.0
  0
LINE
  5
171
100
AcDbEntity
  8
0
370
    -3
  6
Continuous
100
AcDbLine
 10
131.300692
 20
90.5
 30
0.0
 11
151.800692
 21
90.5
 31
0.0
  0
ARC
  5
172
100
AcDbEntity
  8
0
370
    -3
  6
Continuous
100
AcDbCircle
 10
141.800692
 20
94.903693
 30
0.0
 40
3.0
100
AcDbArc
 50
0.0
 51
90.0
  0
LINE
  5
173
100
AcDbEntity
  8
0
370
    -3
  6
CENTER
100
AcDbLine
 10
19.800692
 20
46.857356
 30
0.0
 11
19.800692
 21
213.520307
 31
0.0
  0
LINE
  5
174
100
AcDbEntity
  8
0
370
    -3
  6
Continuous
100
AcDbLine
 10
151.800692
 20
91.5
 30
0.0
 11
151.800692
 21
150.0
 31
0.0
  0
LINE
  5
175
100
AcDbEntity
  8
0
370
    -3
  6
Continuous
100
AcDbLine
 10
151.800692
 20
208.5
 30
0.0
 11
151.800692
 21
150.0
 31
0.0
  0
LINE
  5
176
100
AcDbEntity
  8
0
370
    -3
  6
Continuous
100
AcDbLine
 10
151.800692
 20
150.0
 30
0.0
 11
151.800692
 21
209.5
 31
0.0
  0
LINE
  5
177
100
AcDbEntity
  8
0
370
    -3
  6
Continuous
100
AcDbLine
 10
151.800692
 20
150.0
 30
0.0
 11
151.800692
 21
90.5
 31
0.0
  0
ARC
  5
178
100
AcDbEntity
  8
0
370
    -3
  6
Continuous
100
AcDbCircle
 10
356.494716
 20
190.0
 30
0.0
 40
20.0
100
AcDbArc
 50
55.0
 51
90.0
  0
LINE
  5
179
100
AcDbEntity
  8
0
370
    -3
  6
Continuous
100
AcDbLine
 10
378.800692
 20
150.0
 30
0.0
 11
378.800692
 21
197.443205
 31
0.0
  0
ARC
  5
17A
100
AcDbEntity
  8
0
370
    -3
  6
Continuous
100
AcDbCircle
 10
376.200692
 20
197.443205
 30
0.0
 40
2.6
100
AcDbArc
 50
0.0
 51
55.0
  0
LINE
  5
17B
100
AcDbEntity
  8
0
370
    -3
  6
Continuous
100
AcDbLine
 10
367.966245
 20
93.616959
 30
0.0
 11
377.691991
 21
100.427
 31
0.0
  0
ARC
  5
17C
100
AcDbEntity
  8
0
370
    -3
  6
Continuous
100
AcDbCircle
 10
376.200692
 20
102.556795
 30
0.0
 40
2.6
100
AcDbArc
 50
305.0
 51
0.0
  0
LINE
  5
17D
100
AcDbEntity
  8
0
370
    -3
  6
Continuous
100
AcDbLine
 10
378.800692
 20
150.0
 30
0.0
 11
378.800692
 21
102.556795
 31
0.0
  0
LINE
  5
17E
100
AcDbEntity
  8
0
370
    -3
  6
Continuous
100
AcDbLine
 10
275.800692
 20
90.0
 30
0.0
 11
356.494716
 21
90.0
 31
0.0
  0
ARC
  5
17F
100
AcDbEntity
  8
0
370
    -3
  6
Continuous
100
AcDbCircle
 10
356.494716
 20
110.0
 30
0.0
 40
20.0
100
AcDbArc
 50
270.0
 51
305.0
  0
LINE
  5
180
100
AcDbEntity
  8
0
370
    -3
  6
Continuous
100
AcDbLine
 10
275.800692
 20
103.2
 30
0.0
 11
275.800692
 21
90.0
 31
0.0
  0
LINE
  5
181
100
AcDbEntity
  8
0
370
    -3
  6
Continuous
100
AcDbLine
 10
286.800692
 20
96.259885
 30
0.0
 11
288.800692
 21
97.912527
 31
0.0
  0
LINE
  5
182
100
AcDbEntity
  8
0
370
    -3
  6
Continuous
100
AcDbLine
 10
284.800692
 20
95.084099
 30
0.0
 11
286.800692
 21
96.259885
 31
0.0
  0
LINE
  5
183
100
AcDbEntity
  8
0
370
    -3
  6
Continuous
100
AcDbLine
 10
286.800692
 20
96.259885
 30
0.0
 11
284.800692
 21
97.912527
 31
0.0
  0
LINE
  5
184
100
AcDbEntity
  8
0
370
    -3
  6
Continuous
100
AcDbLine
 10
151.800692
 20
208.5
 30
0.0
 11
275.800692
 21
208.5
 31
0.0
  0
LINE
  5
185
100
AcDbEntity
  8
0
370
    -3
  6
Continuous
100
AcDbLine
 10
288.800692
 20
95.084099
 30
0.0
 11
286.800692
 21
96.259885
 31
0.0
  0
ELLIPSE
  5
186
100
AcDbEntity
  8
0
370
    -3
  6
Continuous
100
AcDbEllipse
 10
286.800692
 20
98.076475
 30
0.0
 11
4.6999999999999886
 21
0.0
 31
0.0
210
0.0
220
0.0
230
1.0
 40
0.766646
 41
0.0
 42
6.2831853071795862
  0
LINE
  5
187
100
AcDbEntity
  8
0
370
    -3
  6
Continuous
100
AcDbLine
 10
208.195811
 20
195.365787
 30
0.0
 11
151.800692
 21
195.365787
 31
0.0
  0
LINE
  5
188
100
AcDbEntity
  8
0
370
    -3
  6
Continuous
100
AcDbLine
 10
286.800692
 20
203.740115
 30
0.0
 11
288.800692
 21
202.087473
 31
0.0
  0
LINE
  5
189
100
AcDbEntity
  8
0
370
    -3
  6
Continuous
100
AcDbLine
 10
275.800692
 20
200.315534
 30
0.0
 11
151.800692
 21
200.315534
 31
0.0
  0
LINE
  5
18A
100
AcDbEntity
  8
0
370
    -3
  6
Continuous
100
AcDbLine
 10
284.800692
 20
204.915901
 30
0.0
 11
286.800692
 21
203.740115
 31
0.0
  0
LINE
  5
18B
100
AcDbEntity
  8
0
370
    -3
  6
Continuous
100
AcDbLine
 10
275.800692
 20
205.0
 30
0.0
 11
151.800692
 21
205.0
 31
0.0
  0
LINE
  5
18C
100
AcDbEntity
  8
0
370
    -3
  6
Continuous
100
AcDbLine
 10
286.800692
 20
203.740115
 30
0.0
 11
284.800692
 21
202.087473
 31
0.0
  0
LINE
  5
18D
100
AcDbEntity
  8
0
370
    -3
  6
Continuous
100
AcDbLine
 10
275.800692
 20
206.0
 30
0.0
 11
151.800692
 21
206.0
 31
0.0
  0
LINE
  5
18E
100
AcDbEntity
  8
0
370
    -3
  6
Continuous
100
AcDbLine
 10
288.800692
 20
204.915901
 30
0.0
 11
286.800692
 21
203.740115
 31
0.0
  0
LINE
  5
18F
100
AcDbEntity
  8
0
370
    -3
  6
Continuous
100
AcDbLine
 10
275.800692
 20
207.5
 30
0.0
 11
151.800692
 21
207.5
 31
0.0
  0
ELLIPSE
  5
190
100
AcDbEntity
  8
0
370
    -3
  6
Continuous
100
AcDbEllipse
 10
286.800692
 20
201.923525
 30
0.0
 11
4.6999999999999886
 21
0.0
 31
0.0
210
0.0
220
0.0
230
1.0
 40
0.766646
 41
0.0
 42
6.2831853071795862
  0
LINE
  5
191
100
AcDbEntity
  8
0
370
    -3
  6
Continuous
100
AcDbLine
 10
275.800692
 20
207.0
 30
0.0
 11
151.800692
 21
207.0
 31
0.0
  0
LINE
  5
192
100
AcDbEntity
  8
0
370
    -3
  6
Continuous
100
AcDbLine
 10
151.800692
 20
91.5
 30
0.0
 11
275.800692
 21
91.5
 31
0.0
  0
LINE
  5
193
100
AcDbEntity
  8
0
370
    -3
  6
Continuous
100
AcDbLine
 10
208.195811
 20
104.634213
 30
0.0
 11
151.800692
 21
104.634213
 31
0.0
  0
LINE
  5
194
100
AcDbEntity
  8
0
370
    -3
  6
Continuous
100
AcDbLine
 10
275.800692
 20
99.684466
 30
0.0
 11
151.800692
 21
99.684466
 31
0.0
  0
LINE
  5
195
100
AcDbEntity
  8
0
370
    -3
  6
Continuous
100
AcDbLine
 10
275.800692
 20
95.0
 30
0.0
 11
151.800692
 21
95.0
 31
0.0
  0
LINE
  5
196
100
AcDbEntity
  8
0
370
    -3
  6
Continuous
100
AcDbLine
 10
275.800692
 20
94.0
 30
0.0
 11
151.800692
 21
94.0
 31
0.0
  0
LINE
  5
197
100
AcDbEntity
  8
0
370
    -3
  6
Continuous
100
AcDbLine
 10
275.800692
 20
92.5
 30
0.0
 11
151.800692
 21
92.5
 31
0.0
  0
LINE
  5
198
100
AcDbEntity
  8
0
370
    -3
  6
Continuous
100
AcDbLine
 10
275.800692
 20
93.0
 30
0.0
 11
151.800692
 21
93.0
 31
0.0
  0
LINE
  5
199
100
AcDbEntity
  8
0
370
    -3
  6
Continuous
100
AcDbLine
 10
204.903223
 20
131.25
 30
0.0
 11
151.800692
 21
131.25
 31
0.0
  0
LINE
  5
19A
100
AcDbEntity
  8
0
370
    -3
  6
Continuous
100
AcDbLine
 10
204.903223
 20
182.150522
 30
0.0
 11
151.800692
 21
182.150522
 31
0.0
  0
LINE
  5
19B
100
AcDbEntity
  8
0
370
    -3
  6
Continuous
100
AcDbLine
 10
204.903223
 20
185.359121
 30
0.0
 11
151.800692
 21
185.359121
 31
0.0
  0
LINE
  5
19C
100
AcDbEntity
  8
0
370
    -3
  6
Continuous
100
AcDbLine
 10
204.956433
 20
187.69582
 30
0.0
 11
151.800692
 21
187.69582
 31
0.0
  0
LINE
  5
19D
100
AcDbEntity
  8
0
370
    -3
  6
Continuous
100
AcDbLine
 10
204.903223
 20
168.75
 30
0.0
 11
151.800692
 21
168.75
 31
0.0
  0
LINE
  5
19E
100
AcDbEntity
  8
0
370
    -3
  6
Continuous
100
AcDbLine
 10
204.903223
 20
176.588608
 30
0.0
 11
151.800692
 21
176.588608
 31
0.0
  0
LINE
  5
19F
100
AcDbEntity
  8
0
370
    -3
  6
Continuous
100
AcDbLine
 10
204.903223
 20
174.464384
 30
0.0
 11
151.800692
 21
174.464384
 31
0.0
  0
LINE
  5
1A0
100
AcDbEntity
  8
0
370
    -3
  6
Continuous
100
AcDbLine
 10
204.903223
 20
179.921118
 30
0.0
 11
151.800692
 21
179.921118
 31
0.0
  0
LINE
  5
1A1
100
AcDbEntity
  8
0
370
    -3
  6
Continuous
100
AcDbLine
 10
151.800692
 20
91.5
 30
0.0
 11
151.800692
 21
150.0
 31
0.0
  0
LINE
  5
1A2
100
AcDbEntity
  8
0
370
    -3
  6
Continuous
100
AcDbLine
 10
151.800692
 20
208.5
 30
0.0
 11
151.800692
 21
150.0
 31
0.0
  0
LINE
  5
1A3
100
AcDbEntity
  8
0
370
    -3
  6
Continuous
100
AcDbLine
 10
275.800692
 20
210.0
 30
0.0
 11
356.494716
 21
210.0
 31
0.0
  0
LINE
  5
1A4
100
AcDbEntity
  8
0
370
    -3
  6
Continuous
100
AcDbLine
 10
204.903223
 20
112.30418
 30
0.0
 11
151.800692
 21
112.30418
 31
0.0
  0
LINE
  5
1A5
100
AcDbEntity
  8
0
370
    -3
  6
Continuous
100
AcDbLine
 10
204.903223
 20
114.640879
 30
0.0
 11
151.800692
 21
114.640879
 31
0.0
  0
LINE
  5
1A6
100
AcDbEntity
  8
0
370
    -3
  6
Continuous
100
AcDbLine
 10
204.903223
 20
117.849478
 30
0.0
 11
151.800692
 21
117.849478
 31
0.0
  0
LINE
  5
1A7
100
AcDbEntity
  8
0
370
    -3
  6
Continuous
100
AcDbLine
 10
204.903223
 20
120.078882
 30
0.0
 11
151.800692
 21
120.078882
 31
0.0
  0
LINE
  5
1A8
100
AcDbEntity
  8
0
370
    -3
  6
Continuous
100
AcDbLine
 10
204.903223
 20
123.411392
 30
0.0
 11
151.800692
 21
123.411392
 31
0.0
  0
LINE
  5
1A9
100
AcDbEntity
  8
0
370
    -3
  6
Continuous
100
AcDbLine
 10
204.903223
 20
125.535616
 30
0.0
 11
151.800692
 21
125.535616
 31
0.0
  0
LINE
  5
1AA
100
AcDbEntity
  8
0
370
    -3
  6
Continuous
100
AcDbLine
 10
210.281549
 20
110.5
 30
0.0
 11
208.564038
 21
112.5
 31
0.0
  0
LINE
  5
1AB
100
AcDbEntity
  8
0
370
    -3
  6
Continuous
100
AcDbLine
 10
208.564038
 20
108.5
 30
0.0
 11
210.281549
 21
110.5
 31
0.0
  0
LINE
  5
1AC
100
AcDbEntity
  8
0
370
    -3
  6
Continuous
100
AcDbLine
 10
275.800692
 20
196.8
 30
0.0
 11
275.800692
 21
210.0
 31
0.0
  0
LINE
  5
1AD
100
AcDbEntity
  8
0
370
    -3
  6
Continuous
100
AcDbLine
 10
367.966245
 20
206.383041
 30
0.0
 11
377.691991
 21
199.573
 31
0.0
  0
LINE
  5
1AE
100
AcDbEntity
  8
0
370
    -3
  6
CENTER
100
AcDbLine
 10
-52.5
 20
150.0
 30
0.0
 11
389.914283
 21
150.0
 31
0.0
  0
LINE
  5
1AF
100
AcDbEntity
  8
0
370
    -3
  6
Continuous
100
AcDbLine
 10
144.800692
 20
130.0
 30
0.0
 11
151.800692
 21
130.0
 31
0.0
  0
ARC
  5
1B0
100
AcDbEntity
  8
0
370
    -3
  6
Continuous
100
AcDbCircle
 10
528.800692
 20
-465.996898
 30
0.0
 40
400.6
100
AcDbArc
 50
90.0
 51
92.946011
  0
ARC
  5
1B1
100
AcDbEntity
  8
0
370
    -3
  6
Continuous
100
AcDbCircle
 10
528.800692
 20
-465.996898
 30
0.0
 40
400.6
100
AcDbArc
 50
87.053989
 51
90.0
  0
ARC
  5
1B2
100
AcDbEntity
  8
0
370
    -3
  6
Continuous
100
AcDbCircle
 10
527.682218
 20
-140.334152
 30
0.0
 40
1.5
100
AcDbArc
 50
83.578178
 51
150.0
  0
ARC
  5
1B3
100
AcDbEntity
  8
0
370
    -3
  6
Continuous
100
AcDbCircle
 10
528.800692
 20
-130.396898
 30
0.0
 40
8.5
100
AcDbArc
 50
263.578178
 51
276.421822
  0
ARC
  5
1B4
100
AcDbEntity
  8
0
370
    -3
  6
Continuous
100
AcDbCircle
 10
529.919166
 20
-140.334152
 30
0.0
 40
1.5
100
AcDbArc
 50
30.0
 51
96.421822
  0
LINE
  5
1B5
100
AcDbEntity
  8
0
370
    -3
  6
Continuous
100
AcDbLine
 10
531.218204
 20
-139.584152
 30
0.0
 11
532.820287
 21
-142.359041
 31
0.0
  0
ARC
  5
1B6
100
AcDbEntity
  8
0
370
    -3
  6
Continuous
100
AcDbCircle
 10
531.521249
 20
-143.109041
 30
0.0
 40
1.5
100
AcDbArc
 50
282.079787
 51
30.0
  0
ARC
  5
1B7
100
AcDbEntity
  8
0
370
    -3
  6
Continuous
100
AcDbCircle
 10
528.800692
 20
-130.396898
 30
0.0
 40
14.5
100
AcDbArc
 50
257.920213
 51
282.079787
  0
ARC
  5
1B8
100
AcDbEntity
  8
0
370
    -3
  6
Continuous
100
AcDbCircle
 10
521.193999
 20
-151.572077
 30
0.0
 40
1.5
100
AcDbArc
 50
150.0
 51
250.240348
  0
LINE
  5
1B9
100
AcDbEntity
  8
0
370
    -3
  6
Continuous
100
AcDbLine
 10
519.894961
 20
-150.822077
 30
0.0
 11
521.423088
 21
-148.175283
 31
0.0
  0
ARC
  5
1BA
100
AcDbEntity
  8
0
370
    -3
  6
Continuous
100
AcDbCircle
 10
522.722126
 20
-148.925283
 30
0.0
 40
1.5
100
AcDbArc
 50
71.837004
 51
150.0
  0
ARC
  5
1BB
100
AcDbEntity
  8
0
370
    -3
  6
Continuous
100
AcDbCircle
 10
528.800692
 20
-130.396898
 30
0.0
 40
18.0
100
AcDbArc
 50
251.837004
 51
288.162996
  0
ARC
  5
1BC
100
AcDbEntity
  8
0
370
    -3
  6
Continuous
100
AcDbCircle
 10
534.879258
 20
-148.925283
 30
0.0
 40
1.5
100
AcDbArc
 50
30.0
 51
108.162996
  0
LINE
  5
1BD
100
AcDbEntity
  8
0
370
    -3
  6
Continuous
100
AcDbLine
 10
536.178296
 20
-148.175283
 30
0.0
 11
537.706423
 21
-150.822077
 31
0.0
  0
ARC
  5
1BE
100
AcDbEntity
  8
0
370
    -3
  6
Continuous
100
AcDbCircle
 10
536.407385
 20
-151.572077
 30
0.0
 40
1.5
100
AcDbArc
 50
289.759652
 51
30.0
  0
ARC
  5
1BF
100
AcDbEntity
  8
0
370
    -3
  6
Continuous
100
AcDbCircle
 10
528.800692
 20
-130.396898
 30
0.0
 40
24.0
100
AcDbArc
 50
250.240348
 51
289.759652
  0
ARC
  5
1C0
100
AcDbEntity
  8
0
370
    -3
  6
Continuous
100
AcDbCircle
 10
519.151932
 20
-139.109041
 30
0.0
 40
1.5
100
AcDbArc
 50
222.079787
 51
330.0
  0
LINE
  5
1C1
100
AcDbEntity
  8
0
370
    -3
  6
Continuous
100
AcDbLine
 10
520.45097
 20
-139.859041
 30
0.0
 11
522.053053
 21
-137.084152
 31
0.0
  0
ARC
  5
1C2
100
AcDbEntity
  8
0
370
    -3
  6
Continuous
100
AcDbCircle
 10
520.754015
 20
-136.334152
 30
0.0
 40
1.5
100
AcDbArc
 50
330.0
 51
36.421822
  0
ARC
  5
1C3
100
AcDbEntity
  8
0
370
    -3
  6
Continuous
100
AcDbCircle
 10
528.800692
 20
-130.396898
 30
0.0
 40
8.5
100
AcDbArc
 50
203.578178
 51
216.421822
  0
ARC
  5
1C4
100
AcDbEntity
  8
0
370
    -3
  6
Continuous
100
AcDbCircle
 10
519.635541
 20
-134.396898
 30
0.0
 40
1.5
100
AcDbArc
 50
23.578178
 51
90.0
  0
LINE
  5
1C5
100
AcDbEntity
  8
0
370
    -3
  6
Continuous
100
AcDbLine
 10
519.635541
 20
-132.896898
 30
0.0
 11
516.431375
 21
-132.896898
 31
0.0
  0
ARC
  5
1C6
100
AcDbEntity
  8
0
370
    -3
  6
Continuous
100
AcDbCircle
 10
516.431375
 20
-134.396898
 30
0.0
 40
1.5
100
AcDbArc
 50
90.0
 51
197.920213
  0
ARC
  5
1C7
100
AcDbEntity
  8
0
370
    -3
  6
Continuous
100
AcDbCircle
 10
528.800692
 20
-130.396898
 30
0.0
 40
14.5
100
AcDbArc
 50
197.920213
 51
222.079787
  0
ARC
  5
1C8
100
AcDbEntity
  8
0
370
    -3
  6
Continuous
100
AcDbCircle
 10
514.265796
 20
-147.572077
 30
0.0
 40
1.5
100
AcDbArc
 50
229.759652
 51
330.0
  0
LINE
  5
1C9
100
AcDbEntity
  8
0
370
    -3
  6
Continuous
100
AcDbLine
 10
515.564834
 20
-148.322077
 30
0.0
 11
517.092961
 21
-145.675283
 31
0.0
  0
ARC
  5
1CA
100
AcDbEntity
  8
0
370
    -3
  6
Continuous
100
AcDbCircle
 10
515.793923
 20
-144.925283
 30
0.0
 40
1.5
100
AcDbArc
 50
330.0
 51
48.162996
  0
ARC
  5
1CB
100
AcDbEntity
  8
0
370
    -3
  6
Continuous
100
AcDbCircle
 10
528.800692
 20
-130.396898
 30
0.0
 40
18.0
100
AcDbArc
 50
191.837004
 51
228.162996
  0
ARC
  5
1CC
100
AcDbEntity
  8
0
370
    -3
  6
Continuous
100
AcDbCircle
 10
509.715357
 20
-134.396898
 30
0.0
 40
1.5
100
AcDbArc
 50
11.837004
 51
90.0
  0
LINE
  5
1CD
100
AcDbEntity
  8
0
370
    -3
  6
Continuous
100
AcDbLine
 10
509.715357
 20
-132.896898
 30
0.0
 11
506.659102
 21
-132.896898
 31
0.0
  0
ARC
  5
1CE
100
AcDbEntity
  8
0
370
    -3
  6
Continuous
100
AcDbCircle
 10
506.659102
 20
-134.396898
 30
0.0
 40
1.5
100
AcDbArc
 50
90.0
 51
190.240348
  0
ARC
  5
1CF
100
AcDbEntity
  8
0
370
    -3
  6
Continuous
100
AcDbCircle
 10
528.800692
 20
-130.396898
 30
0.0
 40
24.0
100
AcDbArc
 50
190.240348
 51
229.759652
  0
ARC
  5
1D0
100
AcDbEntity
  8
0
370
    -3
  6
Continuous
100
AcDbCircle
 10
519.151932
 20
-121.684755
 30
0.0
 40
1.5
100
AcDbArc
 50
30.0
 51
137.920213
  0
LINE
  5
1D1
100
AcDbEntity
  8
0
370
    -3
  6
Continuous
100
AcDbLine
 10
520.45097
 20
-120.934755
 30
0.0
 11
522.053053
 21
-123.709644
 31
0.0
  0
ARC
  5
1D2
100
AcDbEntity
  8
0
370
    -3
  6
Continuous
100
AcDbCircle
 10
520.754015
 20
-124.459644
 30
0.0
 40
1.5
100
AcDbArc
 50
323.578178
 51
30.0
  0
ARC
  5
1D3
100
AcDbEntity
  8
0
370
    -3
  6
Continuous
100
AcDbCircle
 10
528.800692
 20
-130.396898
 30
0.0
 40
8.5
100
AcDbArc
 50
143.578178
 51
156.421822
  0
ARC
  5
1D4
100
AcDbEntity
  8
0
370
    -3
  6
Continuous
100
AcDbCircle
 10
519.635541
 20
-126.396898
 30
0.0
 40
1.5
100
AcDbArc
 50
270.0
 51
336.421822
  0
LINE
  5
1D5
100
AcDbEntity
  8
0
370
    -3
  6
Continuous
100
AcDbLine
 10
519.635541
 20
-127.896898
 30
0.0
 11
516.431375
 21
-127.896898
 31
0.0
  0
ARC
  5
1D6
100
AcDbEntity
  8
0
370
    -3
  6
Continuous
100
AcDbCircle
 10
516.431375
 20
-126.396898
 30
0.0
 40
1.5
100
AcDbArc
 50
162.079787
 51
270.0
  0
ARC
  5
1D7
100
AcDbEntity
  8
0
370
    -3
  6
Continuous
100
AcDbCircle
 10
528.800692
 20
-130.396898
 30
0.0
 40
14.5
100
AcDbArc
 50
137.920213
 51
162.079787
  0
ARC
  5
1D8
100
AcDbEntity
  8
0
370
    -3
  6
Continuous
100
AcDbCircle
 10
514.265796
 20
-113.221719
 30
0.0
 40
1.5
100
AcDbArc
 50
30.0
 51
130.240348
  0
LINE
  5
1D9
100
AcDbEntity
  8
0
370
    -3
  6
Continuous
100
AcDbLine
 10
515.564834
 20
-112.471719
 30
0.0
 11
517.092961
 21
-115.118513
 31
0.0
  0
ARC
  5
1DA
100
AcDbEntity
  8
0
370
    -3
  6
Continuous
100
AcDbCircle
 10
515.793923
 20
-115.868513
 30
0.0
 40
1.5
100
AcDbArc
 50
311.837004
 51
30.0
  0
ARC
  5
1DB
100
AcDbEntity
  8
0
370
    -3
  6
Continuous
100
AcDbCircle
 10
528.800692
 20
-130.396898
 30
0.0
 40
18.0
100
AcDbArc
 50
131.837004
 51
168.162996
  0
ARC
  5
1DC
100
AcDbEntity
  8
0
370
    -3
  6
Continuous
100
AcDbCircle
 10
509.715357
 20
-126.396898
 30
0.0
 40
1.5
100
AcDbArc
 50
270.0
 51
348.162996
  0
LINE
  5
1DD
100
AcDbEntity
  8
0
370
    -3
  6
Continuous
100
AcDbLine
 10
509.715357
 20
-127.896898
 30
0.0
 11
506.659102
 21
-127.896898
 31
0.0
  0
ARC
  5
1DE
100
AcDbEntity
  8
0
370
    -3
  6
Continuous
100
AcDbCircle
 10
506.659102
 20
-126.396898
 30
0.0
 40
1.5
100
AcDbArc
 50
169.759652
 51
270.0
  0
ARC
  5
1DF
100
AcDbEntity
  8
0
370
    -3
  6
Continuous
100
AcDbCircle
 10
528.800692
 20
-130.396898
 30
0.0
 40
24.0
100
AcDbArc
 50
130.240348
 51
169.759652
  0
ARC
  5
1E0
100
AcDbEntity
  8
0
370
    -3
  6
Continuous
100
AcDbCircle
 10
541.170009
 20
-134.396898
 30
0.0
 40
1.5
100
AcDbArc
 50
342.079787
 51
90.0
  0
LINE
  5
1E1
100
AcDbEntity
  8
0
370
    -3
  6
Continuous
100
AcDbLine
 10
541.170009
 20
-132.896898
 30
0.0
 11
537.965843
 21
-132.896898
 31
0.0
  0
ARC
  5
1E2
100
AcDbEntity
  8
0
370
    -3
  6
Continuous
100
AcDbCircle
 10
537.965843
 20
-134.396898
 30
0.0
 40
1.5
100
AcDbArc
 50
90.0
 51
156.421822
  0
ARC
  5
1E3
100
AcDbEntity
  8
0
370
    -3
  6
Continuous
100
AcDbCircle
 10
528.800692
 20
-130.396898
 30
0.0
 40
8.5
100
AcDbArc
 50
323.578178
 51
336.421822
  0
ARC
  5
1E4
100
AcDbEntity
  8
0
370
    -3
  6
Continuous
100
AcDbCircle
 10
536.847369
 20
-136.334152
 30
0.0
 40
1.5
100
AcDbArc
 50
143.578178
 51
210.0
  0
LINE
  5
1E5
100
AcDbEntity
  8
0
370
    -3
  6
Continuous
100
AcDbLine
 10
535.548331
 20
-137.084152
 30
0.0
 11
537.150414
 21
-139.859041
 31
0.0
  0
ARC
  5
1E6
100
AcDbEntity
  8
0
370
    -3
  6
Continuous
100
AcDbCircle
 10
538.449452
 20
-139.109041
 30
0.0
 40
1.5
100
AcDbArc
 50
210.0
 51
317.920213
  0
ARC
  5
1E7
100
AcDbEntity
  8
0
370
    -3
  6
Continuous
100
AcDbCircle
 10
528.800692
 20
-130.396898
 30
0.0
 40
14.5
100
AcDbArc
 50
317.920213
 51
342.079787
  0
ARC
  5
1E8
100
AcDbEntity
  8
0
370
    -3
  6
Continuous
100
AcDbCircle
 10
550.942282
 20
-134.396898
 30
0.0
 40
1.5
100
AcDbArc
 50
349.759652
 51
90.0
  0
LINE
  5
1E9
100
AcDbEntity
  8
0
370
    -3
  6
Continuous
100
AcDbLine
 10
550.942282
 20
-132.896898
 30
0.0
 11
547.886027
 21
-132.896898
 31
0.0
  0
ARC
  5
1EA
100
AcDbEntity
  8
0
370
    -3
  6
Continuous
100
AcDbCircle
 10
547.886027
 20
-134.396898
 30
0.0
 40
1.5
100
AcDbArc
 50
90.0
 51
168.162996
  0
ARC
  5
1EB
100
AcDbEntity
  8
0
370
    -3
  6
Continuous
100
AcDbCircle
 10
528.800692
 20
-130.396898
 30
0.0
 40
18.0
100
AcDbArc
 50
311.837004
 51
348.162996
  0
ARC
  5
1EC
100
AcDbEntity
  8
0
370
    -3
  6
Continuous
100
AcDbCircle
 10
541.807461
 20
-144.925283
 30
0.0
 40
1.5
100
AcDbArc
 50
131.837004
 51
210.0
  0
LINE
  5
1ED
100
AcDbEntity
  8
0
370
    -3
  6
Continuous
100
AcDbLine
 10
540.508423
 20
-145.675283
 30
0.0
 11
542.03655
 21
-148.322077
 31
0.0
  0
ARC
  5
1EE
100
AcDbEntity
  8
0
370
    -3
  6
Continuous
100
AcDbCircle
 10
543.335589
 20
-147.572077
 30
0.0
 40
1.5
100
AcDbArc
 50
210.0
 51
310.240348
  0
ARC
  5
1EF
100
AcDbEntity
  8
0
370
    -3
  6
Continuous
100
AcDbCircle
 10
528.800692
 20
-130.396898
 30
0.0
 40
24.0
100
AcDbArc
 50
310.240348
 51
349.759652
  0
LINE
  5
1F0
100
AcDbEntity
  8
0
370
    -3
  6
Continuous
100
AcDbLine
 10
568.233233
 20
-175.251485
 30
0.0
 11
572.283658
 21
-171.20106
 31
0.0
  0
ARC
  5
1F1
100
AcDbEntity
  8
0
370
    -3
  6
Continuous
100
AcDbCircle
 10
561.959899
 20
-160.877301
 30
0.0
 40
14.6
100
AcDbArc
 50
315.0
 51
355.337794
  0
ARC
  5
1F2
100
AcDbEntity
  8
0
370
    -3
  6
Continuous
100
AcDbCircle
 10
188.200692
 20
-130.396898
 30
0.0
 40
389.6
100
AcDbArc
 50
355.337794
 51
0.0
  0
ARC
  5
1F3
100
AcDbEntity
  8
0
370
    -3
  6
Continuous
100
AcDbCircle
 10
528.800692
 20
-465.996898
 30
0.0
 40
389.6
100
AcDbArc
 50
87.053989
 51
90.0
  0
ARC
  5
1F4
100
AcDbEntity
  8
0
370
    -3
  6
Continuous
100
AcDbCircle
 10
547.302873
 20
-106.472672
 30
0.0
 40
29.6
100
AcDbArc
 50
45.0
 51
87.053989
  0
LINE
  5
1F5
100
AcDbEntity
  8
0
370
    -3
  6
Continuous
100
AcDbLine
 10
568.233233
 20
-85.542311
 30
0.0
 11
572.283658
 21
-89.592736
 31
0.0
  0
ARC
  5
1F6
100
AcDbEntity
  8
0
370
    -3
  6
Continuous
100
AcDbCircle
 10
561.959899
 20
-99.916495
 30
0.0
 40
14.6
100
AcDbArc
 50
4.662206
 51
45.0
  0
ARC
  5
1F7
100
AcDbEntity
  8
0
370
    -3
  6
Continuous
100
AcDbCircle
 10
188.200692
 20
-130.396898
 30
0.0
 40
389.6
100
AcDbArc
 50
0.0
 51
4.662206
  0
ARC
  5
1F8
100
AcDbEntity
  8
0
370
    -3
  6
Continuous
100
AcDbCircle
 10
528.800692
 20
-465.996898
 30
0.0
 40
389.6
100
AcDbArc
 50
90.0
 51
92.946011
  0
LINE
  5
1F9
100
AcDbEntity
  8
0
370
    -3
  6
Continuous
100
AcDbLine
 10
489.368151
 20
-85.542311
 30
0.0
 11
485.317726
 21
-89.592736
 31
0.0
  0
ARC
  5
1FA
100
AcDbEntity
  8
0
370
    -3
  6
Continuous
100
AcDbCircle
 10
510.298512
 20
-106.472672
 30
0.0
 40
29.6
100
AcDbArc
 50
92.946011
 51
135.0
  0
ARC
  5
1FB
100
AcDbEntity
  8
0
370
    -3
  6
Continuous
100
AcDbCircle
 10
495.641485
 20
-99.916495
 30
0.0
 40
14.6
100
AcDbArc
 50
135.0
 51
175.337794
  0
ARC
  5
1FC
100
AcDbEntity
  8
0
370
    -3
  6
Continuous
100
AcDbCircle
 10
560.549708
 20
-134.396898
 30
0.0
 40
1.5
100
AcDbArc
 50
352.819244
 51
90.0
  0
LINE
  5
1FD
100
AcDbEntity
  8
0
370
    -3
  6
Continuous
100
AcDbLine
 10
560.549708
 20
-132.896898
 30
0.0
 11
557.523505
 21
-132.896898
 31
0.0
  0
ARC
  5
1FE
100
AcDbEntity
  8
0
370
    -3
  6
Continuous
100
AcDbCircle
 10
567.092336
 20
-134.396898
 30
0.0
 40
1.5
100
AcDbArc
 50
90.0
 51
174.03643
  0
LINE
  5
1FF
100
AcDbEntity
  8
0
370
    -3
  6
Continuous
100
AcDbLine
 10
570.107471
 20
-132.896898
 30
0.0
 11
567.092336
 21
-132.896898
 31
0.0
  0
ARC
  5
200
100
AcDbEntity
  8
0
370
    -3
  6
Continuous
100
AcDbCircle
 10
570.107471
 20
-134.396898
 30
0.0
 40
1.5
100
AcDbArc
 50
354.468928
 51
90.0
  0
LINE
  5
201
100
AcDbEntity
  8
0
370
    -3
  6
Continuous
100
AcDbLine
 10
505.982239
 20
-95.874178
 30
0.0
 11
507.489807
 21
-98.485362
 31
0.0
  0
ARC
  5
202
100
AcDbEntity
  8
0
370
    -3
  6
Continuous
100
AcDbCircle
 10
504.683201
 20
-96.624178
 30
0.0
 40
1.5
100
AcDbArc
 50
30.0
 51
125.531072
  0
ARC
  5
203
100
AcDbEntity
  8
0
370
    -3
  6
Continuous
100
AcDbCircle
 10
513.118972
 20
-95.235362
 30
0.0
 40
1.5
100
AcDbArc
 50
210.0
 51
294.03643
  0
LINE
  5
204
100
AcDbEntity
  8
0
370
    -3
  6
Continuous
100
AcDbLine
 10
510.312366
 20
-93.374178
 30
0.0
 11
511.819934
 21
-95.985362
 31
0.0
  0
ARC
  5
205
100
AcDbEntity
  8
0
370
    -3
  6
Continuous
100
AcDbCircle
 10
511.611404
 20
-92.624178
 30
0.0
 40
1.5
100
AcDbArc
 50
114.468928
 51
210.0
  0
ARC
  5
206
100
AcDbEntity
  8
0
370
    -3
  6
Continuous
100
AcDbCircle
 10
528.800692
 20
-130.396898
 30
0.0
 40
43.0
100
AcDbArc
 50
65.531072
 51
114.468928
  0
ARC
  5
207
100
AcDbEntity
  8
0
370
    -3
  6
Continuous
100
AcDbCircle
 10
528.800692
 20
-130.396898
 30
0.0
 40
37.0
100
AcDbArc
 50
65.96357
 51
114.03643
  0
ARC
  5
208
100
AcDbEntity
  8
0
370
    -3
  6
Continuous
100
AcDbCircle
 10
544.482412
 20
-95.235362
 30
0.0
 40
1.5
100
AcDbArc
 50
245.96357
 51
330.0
  0
LINE
  5
209
100
AcDbEntity
  8
0
370
    -3
  6
Continuous
100
AcDbLine
 10
545.781451
 20
-95.985362
 30
0.0
 11
547.289018
 21
-93.374178
 31
0.0
  0
ARC
  5
20A
100
AcDbEntity
  8
0
370
    -3
  6
Continuous
100
AcDbCircle
 10
545.98998
 20
-92.624178
 30
0.0
 40
1.5
100
AcDbArc
 50
330.0
 51
65.531072
  0
ARC
  5
20B
100
AcDbEntity
  8
0
370
    -3
  6
Continuous
100
AcDbCircle
 10
528.800692
 20
-130.396898
 30
0.0
 40
43.0
100
AcDbArc
 50
5.531072
 51
54.468928
  0
ARC
  5
20C
100
AcDbEntity
  8
0
370
    -3
  6
Continuous
100
AcDbCircle
 10
552.918183
 20
-96.624178
 30
0.0
 40
1.5
100
AcDbArc
 50
54.468928
 51
150.0
  0
ARC
  5
20D
100
AcDbEntity
  8
0
370
    -3
  6
Continuous
100
AcDbCircle
 10
570.107471
 20
-126.396898
 30
0.0
 40
1.5
100
AcDbArc
 50
270.0
 51
5.531072
  0
ARC
  5
20E
100
AcDbEntity
  8
0
370
    -3
  6
Continuous
100
AcDbCircle
 10
567.092336
 20
-126.396898
 30
0.0
 40
1.5
100
AcDbArc
 50
185.96357
 51
270.0
  0
ARC
  5
20F
100
AcDbEntity
  8
0
370
    -3
  6
Continuous
100
AcDbCircle
 10
560.549708
 20
-126.396898
 30
0.0
 40
1.5
100
AcDbArc
 50
270.0
 51
7.180756
  0
LINE
  5
210
100
AcDbEntity
  8
0
370
    -3
  6
Continuous
100
AcDbLine
 10
560.549708
 20
-127.896898
 30
0.0
 11
557.523505
 21
-127.896898
 31
0.0
  0
LINE
  5
211
100
AcDbEntity
  8
0
370
    -3
  6
Continuous
100
AcDbLine
 10
550.111578
 20
-98.485362
 30
0.0
 11
551.619145
 21
-95.874178
 31
0.0
  0
LINE
  5
212
100
AcDbEntity
  8
0
370
    -3
  6
Continuous
100
AcDbLine
 10
570.107471
 20
-127.896898
 30
0.0
 11
567.092336
 21
-127.896898
 31
0.0
  0
ARC
  5
213
100
AcDbEntity
  8
0
370
    -3
  6
Continuous
100
AcDbCircle
 10
561.959899
 20
-99.916495
 30
0.0
 40
25.6
100
AcDbArc
 50
4.662206
 51
45.0
  0
LINE
  5
214
100
AcDbEntity
  8
0
370
    -3
  6
Continuous
100
AcDbLine
 10
576.011408
 20
-77.764136
 30
0.0
 11
580.061833
 21
-81.814561
 31
0.0
  0
ARC
  5
215
100
AcDbEntity
  8
0
370
    -3
  6
Continuous
100
AcDbCircle
 10
547.302873
 20
-106.472672
 30
0.0
 40
40.6
100
AcDbArc
 50
45.0
 51
87.053989
  0
LINE
  5
216
100
AcDbEntity
  8
0
370
    -3
  6
Continuous
100
AcDbLine
 10
576.011408
 20
-183.02966
 30
0.0
 11
580.061833
 21
-178.979235
 31
0.0
  0
ARC
  5
217
100
AcDbEntity
  8
0
370
    -3
  6
Continuous
100
AcDbCircle
 10
561.959899
 20
-160.877301
 30
0.0
 40
25.6
100
AcDbArc
 50
315.0
 51
355.337794
  0
ARC
  5
218
100
AcDbEntity
  8
0
370
    -3
  6
Continuous
100
AcDbCircle
 10
188.200692
 20
-130.396898
 30
0.0
 40
400.6
100
AcDbArc
 50
355.337794
 51
0.0
  0
ARC
  5
219
100
AcDbEntity
  8
0
370
    -3
  6
Continuous
100
AcDbCircle
 10
869.400692
 20
-130.396898
 30
0.0
 40
400.6
100
AcDbArc
 50
175.337794
 51
180.0
  0
ARC
  5
21A
100
AcDbEntity
  8
0
370
    -3
  6
Continuous
100
AcDbCircle
 10
528.800692
 20
205.203102
 30
0.0
 40
400.6
100
AcDbArc
 50
270.0
 51
272.946011
  0
ARC
  5
21B
100
AcDbEntity
  8
0
370
    -3
  6
Continuous
100
AcDbCircle
 10
547.302873
 20
-154.321124
 30
0.0
 40
40.6
100
AcDbArc
 50
272.946011
 51
315.0
  0
ARC
  5
21C
100
AcDbEntity
  8
0
370
    -3
  6
Continuous
100
AcDbCircle
 10
510.298512
 20
-154.321124
 30
0.0
 40
40.6
100
AcDbArc
 50
225.0
 51
267.053989
  0
ARC
  5
21D
100
AcDbEntity
  8
0
370
    -3
  6
Continuous
100
AcDbCircle
 10
869.400692
 20
-130.396898
 30
0.0
 40
400.6
100
AcDbArc
 50
180.0
 51
184.662206
  0
ARC
  5
21E
100
AcDbEntity
  8
0
370
    -3
  6
Continuous
100
AcDbCircle
 10
495.641485
 20
-160.877301
 30
0.0
 40
25.6
100
AcDbArc
 50
184.662206
 51
225.0
  0
LINE
  5
21F
100
AcDbEntity
  8
0
370
    -3
  6
Continuous
100
AcDbLine
 10
481.589976
 20
-183.02966
 30
0.0
 11
477.539551
 21
-178.979235
 31
0.0
  0
ARC
  5
220
100
AcDbEntity
  8
0
370
    -3
  6
Continuous
100
AcDbCircle
 10
528.800692
 20
205.203102
 30
0.0
 40
400.6
100
AcDbArc
 50
267.053989
 51
270.0
  0
ARC
  5
221
100
AcDbEntity
  8
0
370
    -3
  6
Continuous
100
AcDbCircle
 10
495.641485
 20
-99.916495
 30
0.0
 40
25.6
100
AcDbArc
 50
135.0
 51
175.337794
  0
LINE
  5
222
100
AcDbEntity
  8
0
370
    -3
  6
Continuous
100
AcDbLine
 10
481.589976
 20
-77.764136
 30
0.0
 11
477.539551
 21
-81.814561
 31
0.0
  0
ARC
  5
223
100
AcDbEntity
  8
0
370
    -3
  6
Continuous
100
AcDbCircle
 10
510.298512
 20
-106.472672
 30
0.0
 40
40.6
100
AcDbArc
 50
92.946011
 51
135.0
  0
ARC
  5
224
100
AcDbEntity
  8
0
370
    -3
  6
Continuous
100
AcDbCircle
 10
188.200692
 20
-130.396898
 30
0.0
 40
400.6
100
AcDbArc
 50
0.0
 51
4.662206
  0
ARC
  5
225
100
AcDbEntity
  8
0
370
    -3
  6
Continuous
100
AcDbCircle
 10
481.141695
 20
-178.055895
 30
0.0
 40
6.099999
100
AcDbArc
 50
174.601928
 51
275.398089
  0
POINT
  5
226
100
AcDbEntity
  8
0
370
    -3
  6
Continuous
100
AcDbPoint
 10
478.878953
 20
-180.318637
 30
0.0
  0
LINE
  5
227
100
AcDbEntity
  8
0
370
    -3
  6
Continuous
100
AcDbLine
 10
482.202355
 20
-183.642039
 30
0.0
 11
475.555552
 21
-176.995235
 31
0.0
  0
LINE
  5
228
100
AcDbEntity
  8
0
370
    -3
  6
Continuous
100
AcDbLine
 10
481.949808
 20
-183.955177
 30
0.0
 11
475.272709
 21
-177.278078
 31
0.0
  0
LINE
  5
229
100
AcDbEntity
  8
0
370
    -3
  6
Continuous
100
AcDbLine
 10
475.555552
 20
-176.995235
 30
0.0
 11
475.068748
 21
-177.482038
 31
0.0
  0
LINE
  5
22A
100
AcDbEntity
  8
0
370
    -3
  6
Continuous
100
AcDbLine
 10
482.202355
 20
-183.642039
 30
0.0
 11
481.715552
 21
-184.128842
 31
0.0
  0
ARC
  5
22B
100
AcDbEntity
  8
0
370
    -3
  6
Continuous
100
AcDbCircle
 10
869.400692
 20
-130.396898
 30
0.0
 40
389.6
100
AcDbArc
 50
175.337794
 51
180.0
  0
ARC
  5
22C
100
AcDbEntity
  8
0
370
    -3
  6
Continuous
100
AcDbCircle
 10
481.141695
 20
-82.737901
 30
0.0
 40
6.099999
100
AcDbArc
 50
84.601911
 51
185.398072
  0
ARC
  5
22D
100
AcDbEntity
  8
0
370
    -3
  6
Continuous
100
AcDbCircle
 10
869.400692
 20
-130.396898
 30
0.0
 40
389.6
100
AcDbArc
 50
180.0
 51
184.662206
  0
POINT
  5
22E
100
AcDbEntity
  8
0
370
    -3
  6
Continuous
100
AcDbPoint
 10
478.878953
 20
-80.475159
 30
0.0
  0
ARC
  5
22F
100
AcDbEntity
  8
0
370
    -3
  6
Continuous
100
AcDbCircle
 10
495.641485
 20
-160.877301
 30
0.0
 40
14.6
100
AcDbArc
 50
184.662206
 51
225.0
  0
LINE
  5
230
100
AcDbEntity
  8
0
370
    -3
  6
Continuous
100
AcDbLine
 10
482.202355
 20
-77.151758
 30
0.0
 11
475.555552
 21
-83.798561
 31
0.0
  0
ARC
  5
231
100
AcDbEntity
  8
0
370
    -3
  6
Continuous
100
AcDbCircle
 10
510.298512
 20
-154.321124
 30
0.0
 40
29.6
100
AcDbArc
 50
225.0
 51
267.053989
  0
LINE
  5
232
100
AcDbEntity
  8
0
370
    -3
  6
Continuous
100
AcDbLine
 10
481.949808
 20
-76.838619
 30
0.0
 11
475.272709
 21
-83.515718
 31
0.0
  0
ARC
  5
233
100
AcDbEntity
  8
0
370
    -3
  6
Continuous
100
AcDbCircle
 10
528.800692
 20
205.203102
 30
0.0
 40
389.6
100
AcDbArc
 50
270.0
 51
272.946011
  0
LINE
  5
234
100
AcDbEntity
  8
0
370
    -3
  6
Continuous
100
AcDbLine
 10
475.555552
 20
-83.798561
 30
0.0
 11
475.068748
 21
-83.311758
 31
0.0
  0
ARC
  5
235
100
AcDbEntity
  8
0
370
    -3
  6
Continuous
100
AcDbCircle
 10
528.800692
 20
205.203102
 30
0.0
 40
389.6
100
AcDbArc
 50
267.053989
 51
270.0
  0
LINE
  5
236
100
AcDbEntity
  8
0
370
    -3
  6
Continuous
100
AcDbLine
 10
482.202355
 20
-77.151758
 30
0.0
 11
481.715552
 21
-76.664954
 31
0.0
  0
ARC
  5
237
100
AcDbEntity
  8
0
370
    -3
  6
Continuous
100
AcDbCircle
 10
547.302873
 20
-154.321124
 30
0.0
 40
29.6
100
AcDbArc
 50
272.946011
 51
315.0
  0
ARC
  5
238
100
AcDbEntity
  8
0
370
    -3
  6
Continuous
100
AcDbCircle
 10
576.459689
 20
-82.737901
 30
0.0
 40
6.099999
100
AcDbArc
 50
354.601928
 51
95.398089
  0
LINE
  5
239
100
AcDbEntity
  8
0
370
    -3
  6
Continuous
100
AcDbLine
 10
489.368151
 20
-175.251485
 30
0.0
 11
485.317726
 21
-171.20106
 31
0.0
  0
POINT
  5
23A
100
AcDbEntity
  8
0
370
    -3
  6
Continuous
100
AcDbPoint
 10
578.722431
 20
-80.475159
 30
0.0
  0
LINE
  5
23B
100
AcDbEntity
  8
0
370
    -3
  6
DASHED
100
AcDbLine
 10
491.73207
 20
-176.943312
 30
0.0
 11
491.748713
 21
-176.943312
 31
0.0
  0
LINE
  5
23C
100
AcDbEntity
  8
0
370
    -3
  6
Continuous
100
AcDbLine
 10
575.399029
 20
-77.151758
 30
0.0
 11
582.045833
 21
-83.798561
 31
0.0
  0
ARC
  5
23D
100
AcDbEntity
  8
0
370
    -3
  6
Continuous
100
AcDbCircle
 10
557.523505
 20
-134.396898
 30
0.0
 40
1.5
100
AcDbArc
 50
90.0
 51
172.071858
  0
LINE
  5
23E
100
AcDbEntity
  8
0
370
    -3
  6
Continuous
100
AcDbLine
 10
575.651576
 20
-76.838619
 30
0.0
 11
582.328675
 21
-83.515718
 31
0.0
  0
ARC
  5
23F
100
AcDbEntity
  8
0
370
    -3
  6
Continuous
100
AcDbCircle
 10
528.800692
 20
-130.396898
 30
0.0
 40
33.5
100
AcDbArc
 50
307.180756
 51
352.819244
  0
LINE
  5
240
100
AcDbEntity
  8
0
370
    -3
  6
Continuous
100
AcDbLine
 10
582.045833
 20
-83.798561
 30
0.0
 11
582.532636
 21
-83.311758
 31
0.0
  0
ARC
  5
241
100
AcDbEntity
  8
0
370
    -3
  6
Continuous
100
AcDbCircle
 10
528.800692
 20
-130.396898
 30
0.0
 40
43.0
100
AcDbArc
 50
305.531072
 51
354.468928
  0
LINE
  5
242
100
AcDbEntity
  8
0
370
    -3
  6
Continuous
100
AcDbLine
 10
575.399029
 20
-77.151758
 30
0.0
 11
575.885832
 21
-76.664954
 31
0.0
  0
ARC
  5
243
100
AcDbEntity
  8
0
370
    -3
  6
Continuous
100
AcDbCircle
 10
528.800692
 20
-130.396898
 30
0.0
 40
37.0
100
AcDbArc
 50
305.96357
 51
354.03643
  0
ARC
  5
244
100
AcDbEntity
  8
0
370
    -3
  6
Continuous
100
AcDbCircle
 10
576.459689
 20
-178.055895
 30
0.0
 40
6.099999
100
AcDbArc
 50
264.601911
 51
5.398072
  0
ARC
  5
245
100
AcDbEntity
  8
0
370
    -3
  6
Continuous
100
AcDbCircle
 10
528.800692
 20
-130.396898
 30
0.0
 40
27.5
100
AcDbArc
 50
307.928142
 51
352.071858
  0
POINT
  5
246
100
AcDbEntity
  8
0
370
    -3
  6
Continuous
100
AcDbPoint
 10
578.722431
 20
-180.318637
 30
0.0
  0
ARC
  5
247
100
AcDbEntity
  8
0
370
    -3
  6
Continuous
100
AcDbCircle
 10
546.6262
 20
-153.271584
 30
0.0
 40
1.5
100
AcDbArc
 50
127.928142
 51
210.0
  0
LINE
  5
248
100
AcDbEntity
  8
0
370
    -3
  6
Continuous
100
AcDbLine
 10
575.399029
 20
-183.642039
 30
0.0
 11
582.045833
 21
-176.995235
 31
0.0
  0
ARC
  5
249
100
AcDbEntity
  8
0
370
    -3
  6
Continuous
100
AcDbCircle
 10
548.139302
 20
-155.892352
 30
0.0
 40
1.5
100
AcDbArc
 50
210.0
 51
307.180756
  0
LINE
  5
24A
100
AcDbEntity
  8
0
370
    -3
  6
Continuous
100
AcDbLine
 10
575.651576
 20
-183.955177
 30
0.0
 11
582.328675
 21
-177.278078
 31
0.0
  0
ARC
  5
24B
100
AcDbEntity
  8
0
370
    -3
  6
Continuous
100
AcDbCircle
 10
551.410616
 20
-161.558434
 30
0.0
 40
1.5
100
AcDbArc
 50
125.96357
 51
210.0
  0
LINE
  5
24C
100
AcDbEntity
  8
0
370
    -3
  6
Continuous
100
AcDbLine
 10
582.045833
 20
-176.995235
 30
0.0
 11
582.532636
 21
-177.482038
 31
0.0
  0
LINE
  5
24D
100
AcDbEntity
  8
0
370
    -3
  6
Continuous
100
AcDbLine
 10
545.327162
 20
-154.021584
 30
0.0
 11
546.840263
 21
-156.642352
 31
0.0
  0
LINE
  5
24E
100
AcDbEntity
  8
0
370
    -3
  6
Continuous
100
AcDbLine
 10
575.399029
 20
-183.642039
 30
0.0
 11
575.885832
 21
-184.128842
 31
0.0
  0
LINE
  5
24F
100
AcDbEntity
  8
0
370
    -3
  6
Continuous
100
AcDbLine
 10
550.111578
 20
-162.308434
 30
0.0
 11
551.619145
 21
-164.919618
 31
0.0
  0
ARC
  5
250
100
AcDbEntity
  8
0
370
    -3
  6
Continuous
100
AcDbCircle
 10
552.918183
 20
-164.169618
 30
0.0
 40
1.5
100
AcDbArc
 50
210.0
 51
305.531072
  0
ARC
  5
251
100
AcDbEntity
  8
0
370
    -3
  6
Continuous
100
AcDbCircle
 10
516.390286
 20
-159.892352
 30
0.0
 40
1.5
100
AcDbArc
 50
150.0
 51
247.180756
  0
LINE
  5
252
100
AcDbEntity
  8
0
370
    -3
  6
Continuous
100
AcDbLine
 10
515.091248
 20
-159.142352
 30
0.0
 11
516.604349
 21
-156.521584
 31
0.0
  0
ARC
  5
253
100
AcDbEntity
  8
0
370
    -3
  6
Continuous
100
AcDbCircle
 10
513.118972
 20
-165.558434
 30
0.0
 40
1.5
100
AcDbArc
 50
65.96357
 51
150.0
  0
LINE
  5
254
100
AcDbEntity
  8
0
370
    -3
  6
Continuous
100
AcDbLine
 10
510.312366
 20
-167.419618
 30
0.0
 11
511.819934
 21
-164.808434
 31
0.0
  0
ARC
  5
255
100
AcDbEntity
  8
0
370
    -3
  6
Continuous
100
AcDbCircle
 10
511.611404
 20
-168.169618
 30
0.0
 40
1.5
100
AcDbArc
 50
150.0
 51
245.531072
  0
ARC
  5
256
100
AcDbEntity
  8
0
370
    -3
  6
Continuous
100
AcDbCircle
 10
517.903387
 20
-157.271584
 30
0.0
 40
1.5
100
AcDbArc
 50
67.928142
 51
150.0
  0
ARC
  5
257
100
AcDbEntity
  8
0
370
    -3
  6
Continuous
100
AcDbCircle
 10
528.800692
 20
-130.396898
 30
0.0
 40
33.5
100
AcDbArc
 50
247.180756
 51
292.819244
  0
ARC
  5
258
100
AcDbEntity
  8
0
370
    -3
  6
Continuous
100
AcDbCircle
 10
528.800692
 20
-130.396898
 30
0.0
 40
43.0
100
AcDbArc
 50
245.531072
 51
294.468928
  0
ARC
  5
259
100
AcDbEntity
  8
0
370
    -3
  6
Continuous
100
AcDbCircle
 10
528.800692
 20
-130.396898
 30
0.0
 40
37.0
100
AcDbArc
 50
245.96357
 51
294.03643
  0
ARC
  5
25A
100
AcDbEntity
  8
0
370
    -3
  6
Continuous
100
AcDbCircle
 10
528.800692
 20
-130.396898
 30
0.0
 40
27.5
100
AcDbArc
 50
247.928142
 51
292.071858
  0
ARC
  5
25B
100
AcDbEntity
  8
0
370
    -3
  6
Continuous
100
AcDbCircle
 10
539.697997
 20
-157.271584
 30
0.0
 40
1.5
100
AcDbArc
 50
30.0
 51
112.071858
  0
ARC
  5
25C
100
AcDbEntity
  8
0
370
    -3
  6
Continuous
100
AcDbCircle
 10
541.211098
 20
-159.892352
 30
0.0
 40
1.5
100
AcDbArc
 50
292.819244
 51
30.0
  0
ARC
  5
25D
100
AcDbEntity
  8
0
370
    -3
  6
Continuous
100
AcDbCircle
 10
544.482412
 20
-165.558434
 30
0.0
 40
1.5
100
AcDbArc
 50
30.0
 51
114.03643
  0
LINE
  5
25E
100
AcDbEntity
  8
0
370
    -3
  6
Continuous
100
AcDbLine
 10
540.997035
 20
-156.521584
 30
0.0
 11
542.510136
 21
-159.142352
 31
0.0
  0
LINE
  5
25F
100
AcDbEntity
  8
0
370
    -3
  6
Continuous
100
AcDbLine
 10
545.781451
 20
-164.808434
 30
0.0
 11
547.289018
 21
-167.419618
 31
0.0
  0
ARC
  5
260
100
AcDbEntity
  8
0
370
    -3
  6
Continuous
100
AcDbCircle
 10
545.98998
 20
-168.169618
 30
0.0
 40
1.5
100
AcDbArc
 50
294.468928
 51
30.0
  0
ARC
  5
261
100
AcDbEntity
  8
0
370
    -3
  6
Continuous
100
AcDbCircle
 10
509.462083
 20
-155.892352
 30
0.0
 40
1.5
100
AcDbArc
 50
232.819244
 51
330.0
  0
LINE
  5
262
100
AcDbEntity
  8
0
370
    -3
  6
Continuous
100
AcDbLine
 10
510.761121
 20
-156.642352
 30
0.0
 11
512.274222
 21
-154.021584
 31
0.0
  0
ARC
  5
263
100
AcDbEntity
  8
0
370
    -3
  6
Continuous
100
AcDbCircle
 10
506.190768
 20
-161.558434
 30
0.0
 40
1.5
100
AcDbArc
 50
330.0
 51
54.03643
  0
LINE
  5
264
100
AcDbEntity
  8
0
370
    -3
  6
Continuous
100
AcDbLine
 10
505.982239
 20
-164.919618
 30
0.0
 11
507.489807
 21
-162.308434
 31
0.0
  0
ARC
  5
265
100
AcDbEntity
  8
0
370
    -3
  6
Continuous
100
AcDbCircle
 10
504.683201
 20
-164.169618
 30
0.0
 40
1.5
100
AcDbArc
 50
234.468928
 51
330.0
  0
ARC
  5
266
100
AcDbEntity
  8
0
370
    -3
  6
Continuous
100
AcDbCircle
 10
510.975184
 20
-153.271584
 30
0.0
 40
1.5
100
AcDbArc
 50
330.0
 51
52.071858
  0
ARC
  5
267
100
AcDbEntity
  8
0
370
    -3
  6
Continuous
100
AcDbCircle
 10
528.800692
 20
-130.396898
 30
0.0
 40
33.5
100
AcDbArc
 50
187.180756
 51
232.819244
  0
ARC
  5
268
100
AcDbEntity
  8
0
370
    -3
  6
Continuous
100
AcDbCircle
 10
528.800692
 20
-130.396898
 30
0.0
 40
43.0
100
AcDbArc
 50
185.531072
 51
234.468928
  0
ARC
  5
269
100
AcDbEntity
  8
0
370
    -3
  6
Continuous
100
AcDbCircle
 10
528.800692
 20
-130.396898
 30
0.0
 40
37.0
100
AcDbArc
 50
185.96357
 51
234.03643
  0
ARC
  5
26A
100
AcDbEntity
  8
0
370
    -3
  6
Continuous
100
AcDbCircle
 10
528.800692
 20
-130.396898
 30
0.0
 40
27.5
100
AcDbArc
 50
187.928142
 51
232.071858
  0
ARC
  5
26B
100
AcDbEntity
  8
0
370
    -3
  6
Continuous
100
AcDbCircle
 10
500.077879
 20
-134.396898
 30
0.0
 40
1.5
100
AcDbArc
 50
7.928142
 51
90.0
  0
ARC
  5
26C
100
AcDbEntity
  8
0
370
    -3
  6
Continuous
100
AcDbCircle
 10
497.051676
 20
-134.396898
 30
0.0
 40
1.5
100
AcDbArc
 50
90.0
 51
187.180756
  0
ARC
  5
26D
100
AcDbEntity
  8
0
370
    -3
  6
Continuous
100
AcDbCircle
 10
490.509048
 20
-134.396898
 30
0.0
 40
1.5
100
AcDbArc
 50
5.96357
 51
90.0
  0
LINE
  5
26E
100
AcDbEntity
  8
0
370
    -3
  6
Continuous
100
AcDbLine
 10
500.077879
 20
-132.896898
 30
0.0
 11
497.051676
 21
-132.896898
 31
0.0
  0
LINE
  5
26F
100
AcDbEntity
  8
0
370
    -3
  6
Continuous
100
AcDbLine
 10
490.509048
 20
-132.896898
 30
0.0
 11
487.493913
 21
-132.896898
 31
0.0
  0
ARC
  5
270
100
AcDbEntity
  8
0
370
    -3
  6
Continuous
100
AcDbCircle
 10
487.493913
 20
-134.396898
 30
0.0
 40
1.5
100
AcDbArc
 50
90.0
 51
185.531072
  0
ARC
  5
271
100
AcDbEntity
  8
0
370
    -3
  6
Continuous
100
AcDbCircle
 10
509.462083
 20
-104.901444
 30
0.0
 40
1.5
100
AcDbArc
 50
30.0
 51
127.180756
  0
LINE
  5
272
100
AcDbEntity
  8
0
370
    -3
  6
Continuous
100
AcDbLine
 10
510.761121
 20
-104.151444
 30
0.0
 11
512.274222
 21
-106.772212
 31
0.0
  0
ARC
  5
273
100
AcDbEntity
  8
0
370
    -3
  6
Continuous
100
AcDbCircle
 10
506.190768
 20
-99.235362
 30
0.0
 40
1.5
100
AcDbArc
 50
305.96357
 51
30.0
  0
ARC
  5
274
100
AcDbEntity
  8
0
370
    -3
  6
Continuous
100
AcDbCircle
 10
510.975184
 20
-107.522212
 30
0.0
 40
1.5
100
AcDbArc
 50
307.928142
 51
30.0
  0
ARC
  5
275
100
AcDbEntity
  8
0
370
    -3
  6
Continuous
100
AcDbCircle
 10
528.800692
 20
-130.396898
 30
0.0
 40
33.5
100
AcDbArc
 50
127.180756
 51
172.819244
  0
ARC
  5
276
100
AcDbEntity
  8
0
370
    -3
  6
Continuous
100
AcDbCircle
 10
528.800692
 20
-130.396898
 30
0.0
 40
43.0
100
AcDbArc
 50
125.531072
 51
174.468928
  0
ARC
  5
277
100
AcDbEntity
  8
0
370
    -3
  6
Continuous
100
AcDbCircle
 10
528.800692
 20
-130.396898
 30
0.0
 40
37.0
100
AcDbArc
 50
125.96357
 51
174.03643
  0
ARC
  5
278
100
AcDbEntity
  8
0
370
    -3
  6
Continuous
100
AcDbCircle
 10
528.800692
 20
-130.396898
 30
0.0
 40
27.5
100
AcDbArc
 50
127.928142
 51
172.071858
  0
ARC
  5
279
100
AcDbEntity
  8
0
370
    -3
  6
Continuous
100
AcDbCircle
 10
500.077879
 20
-126.396898
 30
0.0
 40
1.5
100
AcDbArc
 50
270.0
 51
352.071858
  0
ARC
  5
27A
100
AcDbEntity
  8
0
370
    -3
  6
Continuous
100
AcDbCircle
 10
497.051676
 20
-126.396898
 30
0.0
 40
1.5
100
AcDbArc
 50
172.819244
 51
270.0
  0
ARC
  5
27B
100
AcDbEntity
  8
0
370
    -3
  6
Continuous
100
AcDbCircle
 10
490.509048
 20
-126.396898
 30
0.0
 40
1.5
100
AcDbArc
 50
270.0
 51
354.03643
  0
LINE
  5
27C
100
AcDbEntity
  8
0
370
    -3
  6
Continuous
100
AcDbLine
 10
500.077879
 20
-127.896898
 30
0.0
 11
497.051676
 21
-127.896898
 31
0.0
  0
LINE
  5
27D
100
AcDbEntity
  8
0
370
    -3
  6
Continuous
100
AcDbLine
 10
490.509048
 20
-127.896898
 30
0.0
 11
487.493913
 21
-127.896898
 31
0.0
  0
ARC
  5
27E
100
AcDbEntity
  8
0
370
    -3
  6
Continuous
100
AcDbCircle
 10
487.493913
 20
-126.396898
 30
0.0
 40
1.5
100
AcDbArc
 50
174.468928
 51
270.0
  0
ARC
  5
27F
100
AcDbEntity
  8
0
370
    -3
  6
Continuous
100
AcDbCircle
 10
516.390286
 20
-100.901444
 30
0.0
 40
1.5
100
AcDbArc
 50
112.819244
 51
210.0
  0
LINE
  5
280
100
AcDbEntity
  8
0
370
    -3
  6
Continuous
100
AcDbLine
 10
515.091248
 20
-101.651444
 30
0.0
 11
516.604349
 21
-104.272212
 31
0.0
  0
ARC
  5
281
100
AcDbEntity
  8
0
370
    -3
  6
Continuous
100
AcDbCircle
 10
517.903387
 20
-103.522212
 30
0.0
 40
1.5
100
AcDbArc
 50
210.0
 51
292.071858
  0
ARC
  5
282
100
AcDbEntity
  8
0
370
    -3
  6
Continuous
100
AcDbCircle
 10
528.800692
 20
-130.396898
 30
0.0
 40
33.5
100
AcDbArc
 50
67.180756
 51
112.819244
  0
ARC
  5
283
100
AcDbEntity
  8
0
370
    -3
  6
Continuous
100
AcDbCircle
 10
528.800692
 20
-130.396898
 30
0.0
 40
27.5
100
AcDbArc
 50
67.928142
 51
112.071858
  0
ARC
  5
284
100
AcDbEntity
  8
0
370
    -3
  6
Continuous
100
AcDbCircle
 10
539.697997
 20
-103.522212
 30
0.0
 40
1.5
100
AcDbArc
 50
247.928142
 51
330.0
  0
ARC
  5
285
100
AcDbEntity
  8
0
370
    -3
  6
Continuous
100
AcDbCircle
 10
541.211098
 20
-100.901444
 30
0.0
 40
1.5
100
AcDbArc
 50
330.0
 51
67.180756
  0
LINE
  5
286
100
AcDbEntity
  8
0
370
    -3
  6
Continuous
100
AcDbLine
 10
540.997035
 20
-104.272212
 30
0.0
 11
542.510136
 21
-101.651444
 31
0.0
  0
ARC
  5
287
100
AcDbEntity
  8
0
370
    -3
  6
Continuous
100
AcDbCircle
 10
528.800692
 20
-130.396898
 30
0.0
 40
33.5
100
AcDbArc
 50
7.180756
 51
52.819244
  0
ARC
  5
288
100
AcDbEntity
  8
0
370
    -3
  6
Continuous
100
AcDbCircle
 10
528.800692
 20
-130.396898
 30
0.0
 40
37.0
100
AcDbArc
 50
5.96357
 51
54.03643
  0
ARC
  5
289
100
AcDbEntity
  8
0
370
    -3
  6
Continuous
100
AcDbCircle
 10
551.410616
 20
-99.235362
 30
0.0
 40
1.5
100
AcDbArc
 50
150.0
 51
234.03643
  0
ARC
  5
28A
100
AcDbEntity
  8
0
370
    -3
  6
Continuous
100
AcDbCircle
 10
548.139302
 20
-104.901444
 30
0.0
 40
1.5
100
AcDbArc
 50
52.819244
 51
150.0
  0
ARC
  5
28B
100
AcDbEntity
  8
0
370
    -3
  6
Continuous
100
AcDbCircle
 10
528.800692
 20
-130.396898
 30
0.0
 40
27.5
100
AcDbArc
 50
7.928142
 51
52.071858
  0
ARC
  5
28C
100
AcDbEntity
  8
0
370
    -3
  6
Continuous
100
AcDbCircle
 10
557.523505
 20
-126.396898
 30
0.0
 40
1.5
100
AcDbArc
 50
187.928142
 51
270.0
  0
LINE
  5
28D
100
AcDbEntity
  8
0
370
    -3
  6
Continuous
100
AcDbLine
 10
545.327162
 20
-106.772212
 30
0.0
 11
546.840263
 21
-104.151444
 31
0.0
  0
ARC
  5
28E
100
AcDbEntity
  8
0
370
    -3
  6
Continuous
100
AcDbCircle
 10
546.6262
 20
-107.522212
 30
0.0
 40
1.5
100
AcDbArc
 50
150.0
 51
232.071858
  0
CIRCLE
  5
28F
100
AcDbEntity
  8
0
370
    -3
  6
Continuous
100
AcDbCircle
 10
528.800692
 20
-130.396898
 30
0.0
 40
5.0
  0
ARC
  5
290
100
AcDbEntity
  8
0
370
    -3
  6
Continuous
100
AcDbCircle
 10
536.847369
 20
-124.459644
 30
0.0
 40
1.5
100
AcDbArc
 50
150.0
 51
216.421822
  0
ARC
  5
291
100
AcDbEntity
  8
0
370
    -3
  6
Continuous
100
AcDbCircle
 10
537.965843
 20
-126.396898
 30
0.0
 40
1.5
100
AcDbArc
 50
203.578178
 51
270.0
  0
ARC
  5
292
100
AcDbEntity
  8
0
370
    -3
  6
Continuous
100
AcDbCircle
 10
543.335589
 20
-113.221719
 30
0.0
 40
1.5
100
AcDbArc
 50
49.759652
 51
150.0
  0
ARC
  5
293
100
AcDbEntity
  8
0
370
    -3
  6
Continuous
100
AcDbCircle
 10
541.170009
 20
-126.396898
 30
0.0
 40
1.5
100
AcDbArc
 50
270.0
 51
17.920213
  0
ARC
  5
294
100
AcDbEntity
  8
0
370
    -3
  6
Continuous
100
AcDbCircle
 10
547.886027
 20
-126.396898
 30
0.0
 40
1.5
100
AcDbArc
 50
191.837004
 51
270.0
  0
ARC
  5
295
100
AcDbEntity
  8
0
370
    -3
  6
Continuous
100
AcDbCircle
 10
541.807461
 20
-115.868513
 30
0.0
 40
1.5
100
AcDbArc
 50
150.0
 51
228.162996
  0
ARC
  5
296
100
AcDbEntity
  8
0
370
    -3
  6
Continuous
100
AcDbCircle
 10
550.942282
 20
-126.396898
 30
0.0
 40
1.5
100
AcDbArc
 50
270.0
 51
10.240348
  0
ARC
  5
297
100
AcDbEntity
  8
0
370
    -3
  6
Continuous
100
AcDbCircle
 10
538.449452
 20
-121.684755
 30
0.0
 40
1.5
100
AcDbArc
 50
42.079787
 51
150.0
  0
LINE
  5
298
100
AcDbEntity
  8
0
370
    -3
  6
Continuous
100
AcDbLine
 10
540.508423
 20
-115.118513
 30
0.0
 11
542.03655
 21
-112.471719
 31
0.0
  0
ARC
  5
299
100
AcDbEntity
  8
0
370
    -3
  6
Continuous
100
AcDbCircle
 10
528.800692
 20
-130.396898
 30
0.0
 40
18.0
100
AcDbArc
 50
11.837004
 51
48.162996
  0
ARC
  5
29A
100
AcDbEntity
  8
0
370
    -3
  6
Continuous
100
AcDbCircle
 10
528.800692
 20
-130.396898
 30
0.0
 40
14.5
100
AcDbArc
 50
17.920213
 51
42.079787
  0
LINE
  5
29B
100
AcDbEntity
  8
0
370
    -3
  6
Continuous
100
AcDbLine
 10
541.170009
 20
-127.896898
 30
0.0
 11
537.965843
 21
-127.896898
 31
0.0
  0
LINE
  5
29C
100
AcDbEntity
  8
0
370
    -3
  6
Continuous
100
AcDbLine
 10
550.942282
 20
-127.896898
 30
0.0
 11
547.886027
 21
-127.896898
 31
0.0
  0
LINE
  5
29D
100
AcDbEntity
  8
0
370
    -3
  6
Continuous
100
AcDbLine
 10
535.548331
 20
-123.709644
 30
0.0
 11
537.150414
 21
-120.934755
 31
0.0
  0
ARC
  5
29E
100
AcDbEntity
  8
0
370
    -3
  6
Continuous
100
AcDbCircle
 10
528.800692
 20
-130.396898
 30
0.0
 40
24.0
100
AcDbArc
 50
10.240348
 51
49.759652
  0
ARC
  5
29F
100
AcDbEntity
  8
0
370
    -3
  6
Continuous
100
AcDbCircle
 10
528.800692
 20
-130.396898
 30
0.0
 40
8.5
100
AcDbArc
 50
23.578178
 51
36.421822
  0
ARC
  5
2A0
100
AcDbEntity
  8
0
370
    -3
  6
Continuous
100
AcDbCircle
 10
526.080135
 20
-117.684755
 30
0.0
 40
1.5
100
AcDbArc
 50
102.079787
 51
210.0
  0
LINE
  5
2A1
100
AcDbEntity
  8
0
370
    -3
  6
Continuous
100
AcDbLine
 10
524.781097
 20
-118.434755
 30
0.0
 11
526.38318
 21
-121.209644
 31
0.0
  0
ARC
  5
2A2
100
AcDbEntity
  8
0
370
    -3
  6
Continuous
100
AcDbCircle
 10
527.682218
 20
-120.459644
 30
0.0
 40
1.5
100
AcDbArc
 50
210.0
 51
276.421822
  0
ARC
  5
2A3
100
AcDbEntity
  8
0
370
    -3
  6
Continuous
100
AcDbCircle
 10
528.800692
 20
-130.396898
 30
0.0
 40
8.5
100
AcDbArc
 50
83.578178
 51
96.421822
  0
ARC
  5
2A4
100
AcDbEntity
  8
0
370
    -3
  6
Continuous
100
AcDbCircle
 10
529.919166
 20
-120.459644
 30
0.0
 40
1.5
100
AcDbArc
 50
263.578178
 51
330.0
  0
LINE
  5
2A5
100
AcDbEntity
  8
0
370
    -3
  6
Continuous
100
AcDbLine
 10
531.218204
 20
-121.209644
 30
0.0
 11
532.820287
 21
-118.434755
 31
0.0
  0
ARC
  5
2A6
100
AcDbEntity
  8
0
370
    -3
  6
Continuous
100
AcDbCircle
 10
531.521249
 20
-117.684755
 30
0.0
 40
1.5
100
AcDbArc
 50
330.0
 51
77.920213
  0
ARC
  5
2A7
100
AcDbEntity
  8
0
370
    -3
  6
Continuous
100
AcDbCircle
 10
528.800692
 20
-130.396898
 30
0.0
 40
14.5
100
AcDbArc
 50
77.920213
 51
102.079787
  0
ARC
  5
2A8
100
AcDbEntity
  8
0
370
    -3
  6
Continuous
100
AcDbCircle
 10
521.193999
 20
-109.221719
 30
0.0
 40
1.5
100
AcDbArc
 50
109.759652
 51
210.0
  0
LINE
  5
2A9
100
AcDbEntity
  8
0
370
    -3
  6
Continuous
100
AcDbLine
 10
519.894961
 20
-109.971719
 30
0.0
 11
521.423088
 21
-112.618513
 31
0.0
  0
ARC
  5
2AA
100
AcDbEntity
  8
0
370
    -3
  6
Continuous
100
AcDbCircle
 10
522.722126
 20
-111.868513
 30
0.0
 40
1.5
100
AcDbArc
 50
210.0
 51
288.162996
  0
ARC
  5
2AB
100
AcDbEntity
  8
0
370
    -3
  6
Continuous
100
AcDbCircle
 10
528.800692
 20
-130.396898
 30
0.0
 40
18.0
100
AcDbArc
 50
71.837004
 51
108.162996
  0
ARC
  5
2AC
100
AcDbEntity
  8
0
370
    -3
  6
Continuous
100
AcDbCircle
 10
534.879258
 20
-111.868513
 30
0.0
 40
1.5
100
AcDbArc
 50
251.837004
 51
330.0
  0
LINE
  5
2AD
100
AcDbEntity
  8
0
370
    -3
  6
Continuous
100
AcDbLine
 10
536.178296
 20
-112.618513
 30
0.0
 11
537.706423
 21
-109.971719
 31
0.0
  0
ARC
  5
2AE
100
AcDbEntity
  8
0
370
    -3
  6
Continuous
100
AcDbCircle
 10
536.407385
 20
-109.221719
 30
0.0
 40
1.5
100
AcDbArc
 50
330.0
 51
70.240348
  0
ARC
  5
2AF
100
AcDbEntity
  8
0
370
    -3
  6
Continuous
100
AcDbCircle
 10
528.800692
 20
-130.396898
 30
0.0
 40
24.0
100
AcDbArc
 50
70.240348
 51
109.759652
  0
ARC
  5
2B0
100
AcDbEntity
  8
0
370
    -3
  6
Continuous
100
AcDbCircle
 10
526.080135
 20
-143.109041
 30
0.0
 40
1.5
100
AcDbArc
 50
150.0
 51
257.920213
  0
LINE
  5
2B1
100
AcDbEntity
  8
0
370
    -3
  6
Continuous
100
AcDbLine
 10
524.781097
 20
-142.359041
 30
0.0
 11
526.38318
 21
-139.584152
 31
0.0
  0
LINE
  5
2B2
100
AcDbEntity
  8
0
370
    -3
  6
CENTER
100
AcDbLine
 10
528.800692
 20
-7.5
 30
0.0
 11
528.800692
 21
-198.606313
 31
0.0
  0
LINE
  5
2B3
100
AcDbEntity
  8
0
370
    -3
  6
Continuous
100
AcDbLine
 10
577.800692
 20
-76.787127
 30
0.0
 11
577.800692
 21
-46.606359
 31
0.0
  0
LINE
  5
2B4
100
AcDbEntity
  8
0
370
    -3
  6
Continuous
100
AcDbLine
 10
577.800692
 20
-46.606359
 30
0.0
 11
575.600692
 21
-46.567958
 31
0.0
  0
LINE
  5
2B5
100
AcDbEntity
  8
0
370
    -3
  6
Continuous
100
AcDbLine
 10
565.800692
 20
-60.525225
 30
0.0
 11
565.800692
 21
-70.331412
 31
0.0
  0
LINE
  5
2B6
100
AcDbEntity
  8
0
370
    -3
  6
Continuous
100
AcDbLine
 10
479.800692
 20
-76.787127
 30
0.0
 11
479.800692
 21
-47.73221
 31
0.0
  0
LINE
  5
2B7
100
AcDbEntity
  8
0
370
    -3
  6
Continuous
100
AcDbLine
 10
482.000692
 20
-47.73221
 30
0.0
 11
479.800692
 21
-47.73221
 31
0.0
  0
LINE
  5
2B8
100
AcDbEntity
  8
0
370
    -3
  6
Continuous
100
AcDbLine
 10
577.800692
 20
-194.187437
 30
0.0
 11
577.800692
 21
-184.006669
 31
0.0
  0
LINE
  5
2B9
100
AcDbEntity
  8
0
370
    -3
  6
Continuous
100
AcDbLine
 10
565.800692
 20
-194.405626
 30
0.0
 11
554.857368
 21
-194.212096
 31
0.0
  0
LINE
  5
2BA
100
AcDbEntity
  8
0
370
    -3
  6
Continuous
100
AcDbLine
 10
489.800692
 20
-193.061586
 30
0.0
 11
479.800692
 21
-193.061586
 31
0.0
  0
LINE
  5
2BB
100
AcDbEntity
  8
0
370
    -3
  6
Continuous
100
AcDbLine
 10
479.800692
 20
-193.061586
 30
0.0
 11
479.800692
 21
-184.006669
 31
0.0
  0
LINE
  5
2BC
100
AcDbEntity
  8
0
370
    -3
  6
Continuous
100
AcDbLine
 10
565.800692
 20
-194.396898
 30
0.0
 11
577.800692
 21
-194.187437
 31
0.0
  0
LINE
  5
2BD
100
AcDbEntity
  8
0
370
    -3
  6
Continuous
100
AcDbLine
 10
565.800692
 20
-190.462384
 30
0.0
 11
565.800692
 21
-194.405626
 31
0.0
  0
LINE
  5
2BE
100
AcDbEntity
  8
0
370
    -3
  6
Continuous
100
AcDbLine
 10
581.800692
 20
-64.896898
 30
0.0
 11
581.800692
 21
-79.791092
 31
0.0
  0
LINE
  5
2BF
100
AcDbEntity
  8
0
370
    -3
  6
Continuous
100
AcDbLine
 10
581.800692
 20
-64.896898
 30
0.0
 11
577.800692
 21
-64.896898
 31
0.0
  0
LINE
  5
2C0
100
AcDbEntity
  8
0
370
    -3
  6
Continuous
100
AcDbLine
 10
475.800692
 20
-79.791092
 30
0.0
 11
475.800692
 21
-64.896898
 31
0.0
  0
LINE
  5
2C1
100
AcDbEntity
  8
0
370
    -3
  6
Continuous
100
AcDbLine
 10
479.800692
 20
-64.896898
 30
0.0
 11
475.800692
 21
-64.896898
 31
0.0
  0
LINE
  5
2C2
100
AcDbEntity
  8
0
370
    -3
  6
CENTER
100
AcDbLine
 10
424.30185
 20
-107.396898
 30
0.0
 11
592.545113
 21
-107.396898
 31
0.0
  0
LINE
  5
2C3
100
AcDbEntity
  8
0
370
    -3
  6
Continuous
100
AcDbLine
 10
464.800692
 20
-93.396898
 30
0.0
 11
464.800692
 21
-90.396898
 31
0.0
  0
LINE
  5
2C4
100
AcDbEntity
  8
0
370
    -3
  6
Continuous
100
AcDbLine
 10
428.800692
 20
-107.396898
 30
0.0
 11
428.800692
 21
-90.396898
 31
0.0
  0
LINE
  5
2C5
100
AcDbEntity
  8
0
370
    -3
  6
Continuous
100
AcDbLine
 10
470.513039
 20
-93.396898
 30
0.0
 11
428.800692
 21
-93.396898
 31
0.0
  0
LINE
  5
2C6
100
AcDbEntity
  8
0
370
    -3
  6
Continuous
100
AcDbLine
 10
464.800692
 20
-90.396898
 30
0.0
 11
428.800692
 21
-90.396898
 31
0.0
  0
LINE
  5
2C7
100
AcDbEntity
  8
0
370
    -3
  6
Continuous
100
AcDbLine
 10
468.901803
 20
-121.396898
 30
0.0
 11
428.800692
 21
-121.396898
 31
0.0
  0
LINE
  5
2C8
100
AcDbEntity
  8
0
370
    -3
  6
Continuous
100
AcDbLine
 10
428.800692
 20
-107.396898
 30
0.0
 11
428.800692
 21
-121.396898
 31
0.0
  0
LINE
  5
2C9
100
AcDbEntity
  8
0
370
    -3
  6
Continuous
100
AcDbLine
 10
565.800692
 20
-118.179864
 30
0.0
 11
565.800692
 21
-130.396898
 31
0.0
  0
LINE
  5
2CA
100
AcDbEntity
  8
0
370
    -3
  6
Continuous
100
AcDbLine
 10
498.66375
 20
-193.218326
 30
0.0
 11
489.800692
 21
-193.061586
 31
0.0
  0
CIRCLE
  5
2CB
100
AcDbEntity
  8
0
370
    -3
  6
Continuous
100
AcDbCircle
 10
-28.199308
 20
-59.396898
 30
0.0
 40
5.5
  0
CIRCLE
  5
2CC
100
AcDbEntity
  8
0
370
    -3
  6
Continuous
100
AcDbCircle
 10
-28.199308
 20
-59.396898
 30
0.0
 40
8.5
  0
CIRCLE
  5
2CD
100
AcDbEntity
  8
0
370
    -3
  6
Continuous
100
AcDbCircle
 10
-28.199308
 20
-181.396898
 30
0.0
 40
5.5
  0
CIRCLE
  5
2CE
100
AcDbEntity
  8
0
370
    -3
  6
Continuous
100
AcDbCircle
 10
-28.199308
 20
-181.396898
 30
0.0
 40
8.5
  0
ARC
  5
2CF
100
AcDbEntity
  8
0
370
    -3
  6
Continuous
100
AcDbCircle
 10
-28.199308
 20
-181.396898
 30
0.0
 40
15.5
100
AcDbArc
 50
13.835224
 51
76.164776
  0
ARC
  5
2D0
100
AcDbEntity
  8
0
370
    -3
  6
Continuous
100
AcDbCircle
 10
-22.699308
 20
-159.064187
 30
0.0
 40
7.5
100
AcDbArc
 50
180.0
 51
256.164776
  0
ARC
  5
2D1
100
AcDbEntity
  8
0
370
    -3
  6
Continuous
100
AcDbCircle
 10
-28.199308
 20
-181.396898
 30
0.0
 40
13.0
100
AcDbArc
 50
13.835224
 51
76.164776
  0
ARC
  5
2D2
100
AcDbEntity
  8
0
370
    -3
  6
Continuous
100
AcDbCircle
 10
-5.866597
 20
-175.896898
 30
0.0
 40
10.0
100
AcDbArc
 50
193.835224
 51
270.0
  0
CIRCLE
  5
2D3
100
AcDbEntity
  8
0
370
    -3
  6
Continuous
100
AcDbCircle
 10
105.800692
 20
-181.396898
 30
0.0
 40
5.5
  0
CIRCLE
  5
2D4
100
AcDbEntity
  8
0
370
    -3
  6
Continuous
100
AcDbCircle
 10
105.800692
 20
-181.396898
 30
0.0
 40
8.5
  0
ARC
  5
2D5
100
AcDbEntity
  8
0
370
    -3
  6
Continuous
100
AcDbCircle
 10
100.300692
 20
-159.064187
 30
0.0
 40
7.5
100
AcDbArc
 50
283.835224
 51
0.0
  0
ARC
  5
2D6
100
AcDbEntity
  8
0
370
    -3
  6
Continuous
100
AcDbCircle
 10
105.800692
 20
-181.396898
 30
0.0
 40
15.5
100
AcDbArc
 50
103.835224
 51
166.164776
  0
ARC
  5
2D7
100
AcDbEntity
  8
0
370
    -3
  6
Continuous
100
AcDbCircle
 10
83.467981
 20
-175.896898
 30
0.0
 40
7.5
100
AcDbArc
 50
270.0
 51
346.164776
  0
ARC
  5
2D8
100
AcDbEntity
  8
0
370
    -3
  6
Continuous
100
AcDbCircle
 10
105.800692
 20
-181.396898
 30
0.0
 40
13.0
100
AcDbArc
 50
103.835224
 51
166.164776
  0
CIRCLE
  5
2D9
100
AcDbEntity
  8
0
370
    -3
  6
Continuous
100
AcDbCircle
 10
105.800692
 20
-59.396898
 30
0.0
 40
8.5
  0
ARC
  5
2DA
100
AcDbEntity
  8
0
370
    -3
  6
Continuous
100
AcDbCircle
 10
105.800692
 20
-59.396898
 30
0.0
 40
15.5
100
AcDbArc
 50
193.835224
 51
256.164776
  0
ARC
  5
2DB
100
AcDbEntity
  8
0
370
    -3
  6
Continuous
100
AcDbCircle
 10
105.800692
 20
-59.396898
 30
0.0
 40
13.0
100
AcDbArc
 50
193.835224
 51
256.164776
  0
CIRCLE
  5
2DC
100
AcDbEntity
  8
0
370
    -3
  6
Continuous
100
AcDbCircle
 10
105.800692
 20
-59.396898
 30
0.0
 40
5.5
  0
LINE
  5
2DD
100
AcDbEntity
  8
0
370
    -3
  6
DASHED
100
AcDbLine
 10
-305.199308
 20
-186.896898
 30
0.0
 11
-233.199308
 21
-186.896898
 31
0.0
  0
LINE
  5
2DE
100
AcDbEntity
  8
0
370
    -3
  6
DASHED
100
AcDbLine
 10
-305.199308
 20
-175.896898
 30
0.0
 11
-233.199308
 21
-175.896898
 31
0.0
  0
LINE
  5
2DF
100
AcDbEntity
  8
0
370
    -3
  6
DASHED
100
AcDbLine
 10
-233.199308
 20
-189.896898
 30
0.0
 11
-220.199308
 21
-189.896898
 31
0.0
  0
LINE
  5
2E0
100
AcDbEntity
  8
0
370
    -3
  6
DASHED
100
AcDbLine
 10
-233.199308
 20
-172.896898
 30
0.0
 11
-220.199308
 21
-172.896898
 31
0.0
  0
LINE
  5
2E1
100
AcDbEntity
  8
0
370
    -3
  6
DASHED
100
AcDbLine
 10
-233.199308
 20
-172.896898
 30
0.0
 11
-233.199308
 21
-189.896898
 31
0.0
  0
LINE
  5
2E2
100
AcDbEntity
  8
0
370
    -3
  6
CENTER
100
AcDbLine
 10
-319.645392
 20
-181.396898
 30
0.0
 11
-218.562178
 21
-181.396898
 31
0.0
  0
LINE
  5
2E3
100
AcDbEntity
  8
0
370
    -3
  6
DASHED
100
AcDbLine
 10
-318.199308
 20
-172.896898
 30
0.0
 11
-305.199308
 21
-172.896898
 31
0.0
  0
LINE
  5
2E4
100
AcDbEntity
  8
0
370
    -3
  6
DASHED
100
AcDbLine
 10
-318.199308
 20
-189.896898
 30
0.0
 11
-305.199308
 21
-189.896898
 31
0.0
  0
LINE
  5
2E5
100
AcDbEntity
  8
0
370
    -3
  6
DASHED
100
AcDbLine
 10
-305.199308
 20
-172.896898
 30
0.0
 11
-305.199308
 21
-189.896898
 31
0.0
  0
LINE
  5
2E6
100
AcDbEntity
  8
0
370
    -3
  6
Continuous
100
AcDbLine
 10
-306.199308
 20
-130.396898
 30
0.0
 11
-306.199308
 21
-194.405626
 31
0.0
  0
LINE
  5
2E7
100
AcDbEntity
  8
0
370
    -3
  6
DASHED
100
AcDbLine
 10
-305.199308
 20
-64.896898
 30
0.0
 11
-233.199308
 21
-64.896898
 31
0.0
  0
LINE
  5
2E8
100
AcDbEntity
  8
0
370
    -3
  6
DASHED
100
AcDbLine
 10
-305.199308
 20
-53.896898
 30
0.0
 11
-233.199308
 21
-53.896898
 31
0.0
  0
LINE
  5
2E9
100
AcDbEntity
  8
0
370
    -3
  6
DASHED
100
AcDbLine
 10
-233.199308
 20
-67.896898
 30
0.0
 11
-220.199308
 21
-67.896898
 31
0.0
  0
LINE
  5
2EA
100
AcDbEntity
  8
0
370
    -3
  6
DASHED
100
AcDbLine
 10
-233.199308
 20
-50.896898
 30
0.0
 11
-220.199308
 21
-50.896898
 31
0.0
  0
LINE
  5
2EB
100
AcDbEntity
  8
0
370
    -3
  6
DASHED
100
AcDbLine
 10
-233.199308
 20
-50.896898
 30
0.0
 11
-233.199308
 21
-67.896898
 31
0.0
  0
LINE
  5
2EC
100
AcDbEntity
  8
0
370
    -3
  6
CENTER
100
AcDbLine
 10
-319.645392
 20
-59.396898
 30
0.0
 11
-218.562178
 21
-59.396898
 31
0.0
  0
LINE
  5
2ED
100
AcDbEntity
  8
0
370
    -3
  6
DASHED
100
AcDbLine
 10
-318.199308
 20
-50.896898
 30
0.0
 11
-305.199308
 21
-50.896898
 31
0.0
  0
LINE
  5
2EE
100
AcDbEntity
  8
0
370
    -3
  6
DASHED
100
AcDbLine
 10
-318.199308
 20
-67.896898
 30
0.0
 11
-305.199308
 21
-67.896898
 31
0.0
  0
LINE
  5
2EF
100
AcDbEntity
  8
0
370
    -3
  6
DASHED
100
AcDbLine
 10
-305.199308
 20
-50.896898
 30
0.0
 11
-305.199308
 21
-67.896898
 31
0.0
  0
LINE
  5
2F0
100
AcDbEntity
  8
0
370
    -3
  6
Continuous
100
AcDbLine
 10
-306.199308
 20
-46.38817
 30
0.0
 11
-306.199308
 21
-130.396898
 31
0.0
  0
MTEXT
  5
2F2
100
AcDbEntity
  8
0
370
    -3
  6
Continuous
100
AcDbMText
 10
-313.462585
 20
177.923569
 30
0.0
 40
15.0
 41
0.0
 71
     7
 72
     1
  1
\W0.48;GV-SHYFB-RL
  7
ZU_SHPTB00001
 11
1.0
 21
0.0
 31
0.0
 73
     1
 44
1.0
  0
MTEXT
  5
2F3
100
AcDbEntity
  8
0
370
    -3
  6
Continuous
100
AcDbMText
 10
-313.462585
 20
127.073547
 30
0.0
 40
15.0
 41
0.0
 71
     7
 72
     1
  1
\W0.42;GEAR\W0.70; \W0.42;RATIO\W0.70;  \W0.42;1/5-1/60
  7
ZU_SHPTB00001
 11
1.0
 21
0.0
 31
0.0
 73
     1
 44
1.0
  0
MTEXT
  5
2F4
100
AcDbEntity
  8
0
370
    -3
  6
Continuous
100
AcDbMText
 10
-313.462585
 20
144.02356
 30
0.0
 40
15.0
 41
0.0
 71
     7
 72
     1
  1
\W0.43;600-50r/min\W0.53;　
  7
ZU_SHPTB00001
 11
1.0
 21
0.0
 31
0.0
 73
     1
 44
1.0
  0
MTEXT
  5
2F5
100
AcDbEntity
  8
0
370
    -3
  6
Continuous
100
AcDbMText
 10
-313.462585
 20
110.12355
 30
0.0
 40
15.0
 41
0.0
 71
     7
 72
     1
  1
\W0.43;SCALE\W0.72;  \W0.43;1/1
  7
ZU_SHPTB00001
 11
1.0
 21
0.0
 31
0.0
 73
     1
 44
1.0
  0
MTEXT
  5
2F6
100
AcDbEntity
  8
0
370
    -3
  6
Continuous
100
AcDbMText
 10
-313.462585
 20
160.973557
 30
0.0
 40
15.0
 41
0.0
 71
     7
 72
     1
  1
\W0.43;0.75kW
  7
ZU_SHPTB00001
 11
1.0
 21
0.0
 31
0.0
 73
     1
 44
1.0
  0
MTEXT
  5
2F7
100
AcDbEntity
  8
0
370
    -3
  6
Continuous
100
AcDbMText
 10
-313.462585
 20
194.873581
 30
0.0
 40
15.0
 41
0.0
 71
     7
 72
     1
  1
\W0.63;三菱ギヤードモータ  
  7
ZU_SHPTB00001
 11
1.0
 21
0.0
 31
0.0
 73
     1
 44
1.0
  0
MTEXT
  5
2F8
100
AcDbEntity
  8
0
370
    -3
  6
Continuous
100
AcDbMText
 10
-313.462585
 20
194.873581
 30
0.0
 40
15.0
 41
0.0
 71
     7
 72
     1
  1
\W0.63;三菱ギヤードモータ  
  7
ZU_SHPTB00001
 11
1.0
 21
0.0
 31
0.0
 73
     1
 44
1.0
  0
CIRCLE
  5
2F9
100
AcDbEntity
  8
0
370
    -3
  6
Continuous
100
AcDbCircle
 10
19.800692
 20
-107.396898
 30
0.0
 40
29.7
  0
CIRCLE
  5
2FA
100
AcDbEntity
  8
0
370
    -3
  6
Continuous
100
AcDbCircle
 10
19.800692
 20
-107.396898
 30
0.0
 40
49.5
  0
CIRCLE
  5
2FB
100
AcDbEntity
  8
0
370
    -3
  6
Continuous
100
AcDbCircle
 10
19.800692
 20
-107.396898
 30
0.0
 40
47.0
  0
MTEXT
  5
2FC
100
AcDbEntity
  8
0
370
    -3
  6
Continuous
100
AcDbMText
 10
-313.462585
 20
93.12355
 30
0.0
 40
15.0
 41
0.0
 71
     7
 72
     1
  1
\W0.43;DATE\W0.72; \W0.43;2012.01.15
  7
ZU_SHPTB00001
 11
1.0
 21
0.0
 31
0.0
 73
     1
 44
1.0
  0
LINE
  5
2FD
100
AcDbEntity
  8
0
370
    -3
  6
CENTER
100
AcDbLine
 10
-247.898851
 20
-36.396898
 30
0.0
 11
-290.499765
 21
-36.396898
 31
0.0
  0
LINE
  5
2FE
100
AcDbEntity
  8
0
370
    -3
  6
CENTER
100
AcDbLine
 10
-269.199308
 20
-15.096441
 30
0.0
 11
-269.199308
 21
-57.697355
 31
0.0
  0
ARC
  5
2FF
100
AcDbEntity
  8
0
370
    -3
  6
DASHED
100
AcDbCircle
 10
-269.199308
 20
-36.396898
 30
0.0
 40
17.0
100
AcDbArc
 50
320.222823
 51
217.750867
  0
LINE
  5
300
100
AcDbEntity
  8
0
370
    -3
  6
Continuous
100
AcDbLine
 10
-307.749308
 20
-44.090008
 30
0.0
 11
-307.749308
 21
-19.579371
 31
0.0
  0
ARC
  5
301
100
AcDbEntity
  8
0
370
    -3
  6
Continuous
100
AcDbCircle
 10
-303.949308
 20
-44.090008
 30
0.0
 40
3.8
100
AcDbArc
 50
180.0
 51
217.630364
  0
LINE
  5
302
100
AcDbEntity
  8
0
370
    -3
  6
Continuous
100
AcDbLine
 10
-307.109291
 20
-10.763878
 30
0.0
 11
-308.699308
 21
-11.273705
 31
0.0
  0
LINE
  5
303
100
AcDbEntity
  8
0
370
    -3
  6
Continuous
100
AcDbLine
 10
-308.699308
 20
-11.273705
 30
0.0
 11
-306.699308
 21
-12.322893
 31
0.0
  0
LINE
  5
304
100
AcDbEntity
  8
0
370
    -3
  6
Continuous
100
AcDbLine
 10
-308.699308
 20
-11.273705
 30
0.0
 11
-310.699308
 21
-12.322893
 31
0.0
  0
LINE
  5
305
100
AcDbEntity
  8
0
370
    -3
  6
Continuous
100
AcDbLine
 10
-310.289325
 20
-10.763878
 30
0.0
 11
-308.699308
 21
-11.273705
 31
0.0
  0
ELLIPSE
  5
306
100
AcDbEntity
  8
0
370
    -3
  6
Continuous
100
AcDbEllipse
 10
-308.699308
 20
-12.811158
 30
0.0
 11
3.5
 21
0.0
 31
0.0
210
0.0
220
0.0
230
1.0
 40
0.656603
 41
0.0
 42
6.2831853071795862
  0
ARC
  5
307
100
AcDbEntity
  8
0
370
    -3
  6
Continuous
100
AcDbCircle
 10
-308.199308
 20
-18.72575
 30
0.0
 40
7.8
100
AcDbArc
 50
118.12516
 51
180.0
  0
LINE
  5
308
100
AcDbEntity
  8
0
370
    -3
  6
Continuous
100
AcDbLine
 10
-315.999308
 20
-18.72575
 30
0.0
 11
-315.999308
 21
-46.567958
 31
0.0
  0
ARC
  5
309
100
AcDbEntity
  8
0
370
    -3
  6
Continuous
100
AcDbCircle
 10
-300.949308
 20
-19.579371
 30
0.0
 40
6.8
100
AcDbArc
 50
90.0
 51
180.0
  0
LINE
  5
30A
100
AcDbEntity
  8
0
370
    -3
  6
Continuous
100
AcDbLine
 10
-237.449308
 20
-12.779371
 30
0.0
 11
-300.949308
 21
-12.779371
 31
0.0
  0
ARC
  5
30B
100
AcDbEntity
  8
0
370
    -3
  6
Continuous
100
AcDbCircle
 10
-237.449308
 20
-19.579371
 30
0.0
 40
6.8
100
AcDbArc
 50
0.0
 51
90.0
  0
ARC
  5
30C
100
AcDbEntity
  8
0
370
    -3
  6
Continuous
100
AcDbCircle
 10
-230.199308
 20
-47.58479
 30
0.0
 40
7.8
100
AcDbArc
 50
358.917039
 51
0.0
  0
LINE
  5
30D
100
AcDbEntity
  8
0
370
    -3
  6
Continuous
100
AcDbLine
 10
-222.399308
 20
-18.72575
 30
0.0
 11
-222.399308
 21
-47.73221
 31
0.0
  0
LINE
  5
30E
100
AcDbEntity
  8
0
370
    -3
  6
Continuous
100
AcDbLine
 10
-232.950642
 20
-47.581999
 30
0.0
 11
-233.177907
 21
-47.679535
 31
0.0
  0
LINE
  5
30F
100
AcDbEntity
  8
0
370
    -3
  6
Continuous
100
AcDbLine
 10
-230.649308
 20
-44.090008
 30
0.0
 11
-230.649308
 21
-19.579371
 31
0.0
  0
ARC
  5
310
100
AcDbEntity
  8
0
370
    -3
  6
Continuous
100
AcDbCircle
 10
-234.449308
 20
-44.090008
 30
0.0
 40
3.8
100
AcDbArc
 50
293.227672
 51
0.0
  0
LINE
  5
311
100
AcDbEntity
  8
0
370
    -3
  6
Continuous
100
AcDbLine
 10
-231.289325
 20
-10.763878
 30
0.0
 11
-229.699308
 21
-11.273705
 31
0.0
  0
LINE
  5
312
100
AcDbEntity
  8
0
370
    -3
  6
Continuous
100
AcDbLine
 10
-229.699308
 20
-11.273705
 30
0.0
 11
-231.699308
 21
-12.322893
 31
0.0
  0
LINE
  5
313
100
AcDbEntity
  8
0
370
    -3
  6
Continuous
100
AcDbLine
 10
-229.699308
 20
-11.273705
 30
0.0
 11
-227.699308
 21
-12.322893
 31
0.0
  0
LINE
  5
314
100
AcDbEntity
  8
0
370
    -3
  6
Continuous
100
AcDbLine
 10
-228.109291
 20
-10.763878
 30
0.0
 11
-229.699308
 21
-11.273705
 31
0.0
  0
ELLIPSE
  5
315
100
AcDbEntity
  8
0
370
    -3
  6
Continuous
100
AcDbEllipse
 10
-229.699308
 20
-12.811158
 30
0.0
 11
3.5
 21
0.0
 31
0.0
210
0.0
220
0.0
230
1.0
 40
0.656603
 41
0.0
 42
6.2831853071795862
  0
ARC
  5
316
100
AcDbEntity
  8
0
370
    -3
  6
Continuous
100
AcDbCircle
 10
-230.199308
 20
-18.72575
 30
0.0
 40
7.8
100
AcDbArc
 50
0.0
 51
61.87484
  0
LINE
  5
317
100
AcDbEntity
  8
0
370
    -3
  6
Continuous
100
AcDbLine
 10
-231.700489
 20
-10.92575
 30
0.0
 11
-306.698127
 21
-10.92575
 31
0.0
  0
LINE
  5
318
100
AcDbEntity
  8
0
370
    -3
  6
Continuous
100
AcDbLine
 10
230.874469
 20
-72.958915
 30
0.0
 11
231.264974
 21
-69.834881
 31
0.0
  0
ARC
  5
319
100
AcDbEntity
  8
0
370
    -3
  6
Continuous
100
AcDbCircle
 10
224.261113
 20
-72.896898
 30
0.0
 40
0.5
100
AcDbArc
 50
187.125016
 51
270.0
  0
LINE
  5
31A
100
AcDbEntity
  8
0
370
    -3
  6
Continuous
100
AcDbLine
 10
223.764974
 20
-72.958915
 30
0.0
 11
223.374469
 21
-69.834881
 31
0.0
  0
POINT
  5
31B
100
AcDbEntity
  8
0
370
    -3
  6
CENTER
100
AcDbPoint
 10
323.300692
 20
-23.176398
 30
0.0
  0
POINT
  5
31C
100
AcDbEntity
  8
0
370
    -3
  6
CENTER
100
AcDbPoint
 10
323.300692
 20
-49.617398
 30
0.0
  0
LINE
  5
31D
100
AcDbEntity
  8
0
370
    -3
  6
CENTER
100
AcDbLine
 10
249.800692
 20
-74.174315
 30
0.0
 11
249.800692
 21
-51.264339
 31
0.0
  0
LINE
  5
31E
100
AcDbEntity
  8
0
370
    -3
  6
CENTER
100
AcDbLine
 10
249.800692
 20
-74.174315
 30
0.0
 11
249.800692
 21
-51.264339
 31
0.0
  0
ARC
  5
31F
100
AcDbEntity
  8
0
370
    -3
  6
Continuous
100
AcDbCircle
 10
280.124999
 20
-58.396898
 30
0.0
 40
3.0
100
AcDbArc
 50
270.0
 51
0.0
  0
LINE
  5
320
100
AcDbEntity
  8
0
370
    -3
  6
Continuous
100
AcDbLine
 10
283.124999
 20
-25.032883
 30
0.0
 11
283.124999
 21
-58.396898
 31
0.0
  0
ARC
  5
321
100
AcDbEntity
  8
0
370
    -3
  6
Continuous
100
AcDbCircle
 10
277.800692
 20
-61.396898
 30
0.0
 40
1.0
100
AcDbArc
 50
270.0
 51
346.657636
  0
LINE
  5
322
100
AcDbEntity
  8
0
370
    -3
  6
Continuous
100
AcDbLine
 10
288.000692
 20
-61.396898
 30
0.0
 11
218.362538
 21
-61.396898
 31
0.0
  0
ARC
  5
323
100
AcDbEntity
  8
0
370
    -3
  6
Continuous
100
AcDbCircle
 10
221.800692
 20
-61.396898
 30
0.0
 40
1.0
100
AcDbArc
 50
193.342364
 51
270.0
  0
LINE
  5
324
100
AcDbEntity
  8
0
370
    -3
  6
Continuous
100
AcDbLine
 10
214.012804
 20
-57.260429
 30
0.0
 11
214.918569
 21
-59.202847
 31
0.0
  0
LINE
  5
325
100
AcDbEntity
  8
0
370
    -3
  6
Continuous
100
AcDbLine
 10
294.800692
 20
-19.588418
 30
0.0
 11
294.800692
 21
-54.596898
 31
0.0
  0
LINE
  5
326
100
AcDbEntity
  8
0
370
    -3
  6
Continuous
100
AcDbLine
 10
295.211408
 20
-19.396898
 30
0.0
 11
303.374752
 21
-15.590268
 31
0.0
  0
LINE
  5
327
100
AcDbEntity
  8
0
370
    -3
  6
Continuous
100
AcDbLine
 10
206.762342
 20
-60.641375
 30
0.0
 11
295.211408
 21
-19.396898
 31
0.0
  0
LINE
  5
328
100
AcDbEntity
  8
0
370
    -3
  6
Continuous
100
AcDbLine
 10
225.613544
 20
-51.850915
 30
0.0
 11
229.041806
 21
-59.202847
 31
0.0
  0
ARC
  5
329
100
AcDbEntity
  8
0
370
    -3
  6
Continuous
100
AcDbCircle
 10
232.485776
 20
-57.596898
 30
0.0
 40
3.8
100
AcDbArc
 50
205.0
 51
270.0
  0
ARC
  5
32A
100
AcDbEntity
  8
0
370
    -3
  6
Continuous
100
AcDbCircle
 10
506.626332
 20
-112.082295
 30
0.0
 40
300.8
100
AcDbArc
 50
162.341575
 51
167.89975
  0
ARC
  5
32B
100
AcDbEntity
  8
0
370
    -3
  6
Continuous
100
AcDbCircle
 10
255.38309
 20
-613.579371
 30
0.0
 40
600.8
100
AcDbArc
 50
86.682408
 51
92.437505
  0
ARC
  5
32C
100
AcDbEntity
  8
0
370
    -3
  6
Continuous
100
AcDbCircle
 10
219.400875
 20
-32.674883
 30
0.0
 40
2.8
100
AcDbArc
 50
164.545811
 51
205.0
  0
ARC
  5
32D
100
AcDbEntity
  8
0
370
    -3
  6
Continuous
100
AcDbCircle
 10
283.819296
 20
-14.999401
 30
0.0
 40
3.0
100
AcDbArc
 50
205.0
 51
295.0
  0
LINE
  5
32E
100
AcDbEntity
  8
0
370
    -3
  6
Continuous
100
AcDbLine
 10
281.100372
 20
-16.267256
 30
0.0
 11
280.425342
 21
-14.819649
 31
0.0
  0
ARC
  5
32F
100
AcDbEntity
  8
0
370
    -3
  6
Continuous
100
AcDbCircle
 10
277.88768
 20
-16.00298
 30
0.0
 40
2.8
100
AcDbArc
 50
25.0
 51
87.843273
  0
LINE
  5
330
100
AcDbEntity
  8
0
370
    -3
  6
Continuous
100
AcDbLine
 10
216.863213
 20
-33.858214
 30
0.0
 11
221.59864
 21
-44.01337
 31
0.0
  0
ARC
  5
331
100
AcDbEntity
  8
0
370
    -3
  6
Continuous
100
AcDbCircle
 10
218.879717
 20
-45.281224
 30
0.0
 40
3.0
100
AcDbArc
 50
295.0
 51
25.0
  0
LINE
  5
332
100
AcDbEntity
  8
0
370
    -3
  6
Continuous
100
AcDbLine
 10
205.94251
 20
-54.624077
 30
0.0
 11
299.292212
 21
-11.094396
 31
0.0
  0
LINE
  5
333
100
AcDbEntity
  8
0
370
    -3
  6
CENTER
100
AcDbLine
 10
326.279315
 20
-36.396898
 30
0.0
 11
285.972829
 21
-36.396898
 31
0.0
  0
LINE
  5
334
100
AcDbEntity
  8
0
370
    -3
  6
Continuous
100
AcDbLine
 10
280.800692
 20
-62.396898
 30
0.0
 11
218.800692
 21
-62.396898
 31
0.0
  0
LINE
  5
335
100
AcDbEntity
  8
0
370
    -3
  6
Continuous
100
AcDbLine
 10
280.800692
 20
-63.396898
 30
0.0
 11
280.800692
 21
-62.396898
 31
0.0
  0
LINE
  5
336
100
AcDbEntity
  8
0
370
    -3
  6
Continuous
100
AcDbLine
 10
218.800692
 20
-63.396898
 30
0.0
 11
218.800692
 21
-62.396898
 31
0.0
  0
ARC
  5
337
100
AcDbEntity
  8
0
370
    -3
  6
Continuous
100
AcDbCircle
 10
212.96048
 20
-50.271308
 30
0.0
 40
1.299999
100
AcDbArc
 50
24.999999
 51
98.398469
  0
LINE
  5
338
100
AcDbEntity
  8
0
370
    -3
  6
Continuous
100
AcDbLine
 10
214.552434
 20
-50.609203
 30
0.0
 11
214.13868
 21
-49.721905
 31
0.0
  0
ARC
  5
339
100
AcDbEntity
  8
0
370
    -3
  6
Continuous
100
AcDbCircle
 10
214.085113
 20
-57.888737
 30
0.0
 40
9.0
100
AcDbArc
 50
98.398469
 51
131.601548
  0
ARC
  5
33A
100
AcDbEntity
  8
0
370
    -3
  6
Continuous
100
AcDbCircle
 10
208.972725
 20
-52.130829
 30
0.0
 40
1.299999
100
AcDbArc
 50
131.601548
 51
205.000018
  0
LINE
  5
33B
100
AcDbEntity
  8
0
370
    -3
  6
CENTER
100
AcDbLine
 10
212.638031
 20
-54.785458
 30
0.0
 11
209.76811
 21
-48.630893
 31
0.0
  0
LINE
  5
33C
100
AcDbEntity
  8
0
370
    -3
  6
Continuous
100
AcDbLine
 10
208.208279
 20
-53.567531
 30
0.0
 11
207.794525
 21
-52.680233
 31
0.0
  0
ARC
  5
33D
100
AcDbEntity
  8
0
370
    -3
  6
Continuous
100
AcDbCircle
 10
295.434489
 20
-11.813047
 30
0.0
 40
1.299999
100
AcDbArc
 50
24.999999
 51
98.398469
  0
ARC
  5
33E
100
AcDbEntity
  8
0
370
    -3
  6
Continuous
100
AcDbCircle
 10
291.446733
 20
-13.672568
 30
0.0
 40
1.299999
100
AcDbArc
 50
131.601548
 51
205.000018
  0
LINE
  5
33F
100
AcDbEntity
  8
0
370
    -3
  6
Continuous
100
AcDbLine
 10
297.026442
 20
-12.150941
 30
0.0
 11
296.612689
 21
-11.263643
 31
0.0
  0
LINE
  5
340
100
AcDbEntity
  8
0
370
    -3
  6
Continuous
100
AcDbLine
 10
290.682288
 20
-15.109269
 30
0.0
 11
290.268534
 21
-14.221971
 31
0.0
  0
POINT
  5
341
100
AcDbEntity
  8
0
370
    -3
  6
Continuous
100
AcDbPoint
 10
293.854365
 20
-13.630105
 30
0.0
  0
ARC
  5
342
100
AcDbEntity
  8
0
370
    -3
  6
Continuous
100
AcDbCircle
 10
296.559122
 20
-19.430475
 30
0.0
 40
9.0
100
AcDbArc
 50
98.398469
 51
131.601548
  0
ARC
  5
343
100
AcDbEntity
  8
0
370
    -3
  6
Continuous
100
AcDbCircle
 10
230.290597
 20
-24.1132
 30
0.0
 40
10.8
100
AcDbArc
 50
92.437505
 51
162.341575
  0
LINE
  5
344
100
AcDbEntity
  8
0
370
    -3
  6
CENTER
100
AcDbLine
 10
295.112039
 20
-16.327196
 30
0.0
 11
292.242119
 21
-10.172631
 31
0.0
  0
POINT
  5
345
100
AcDbEntity
  8
0
370
    -3
  6
Continuous
100
AcDbPoint
 10
211.404067
 20
-52.077311
 30
0.0
  0
LINE
  5
346
100
AcDbEntity
  8
0
370
    -3
  6
CENTER
100
AcDbLine
 10
212.638031
 20
-54.785458
 30
0.0
 11
209.76811
 21
-48.630893
 31
0.0
  0
ARC
  5
347
100
AcDbEntity
  8
0
370
    -3
  6
Continuous
100
AcDbCircle
 10
206.703223
 20
-56.255431
 30
0.0
 40
1.8
100
AcDbArc
 50
115.0
 51
205.0
  0
LINE
  5
348
100
AcDbEntity
  8
0
370
    -3
  6
Continuous
100
AcDbLine
 10
205.071869
 20
-57.016144
 30
0.0
 11
206.762342
 21
-60.641375
 31
0.0
  0
ARC
  5
349
100
AcDbEntity
  8
0
370
    -3
  6
Continuous
100
AcDbCircle
 10
300.052925
 20
-12.72575
 30
0.0
 40
1.8
100
AcDbArc
 50
25.0
 51
115.0
  0
LINE
  5
34A
100
AcDbEntity
  8
0
370
    -3
  6
Continuous
100
AcDbLine
 10
301.684279
 20
-11.965037
 30
0.0
 11
303.374752
 21
-15.590268
 31
0.0
  0
ARC
  5
34B
100
AcDbEntity
  8
0
370
    -3
  6
Continuous
100
AcDbCircle
 10
218.362538
 20
-57.596898
 30
0.0
 40
3.8
100
AcDbArc
 50
205.0
 51
270.0
  0
ARC
  5
34C
100
AcDbEntity
  8
0
370
    -3
  6
Continuous
100
AcDbCircle
 10
288.000692
 20
-54.596898
 30
0.0
 40
6.8
100
AcDbArc
 50
270.0
 51
0.0
  0
ARC
  5
34D
100
AcDbEntity
  8
0
370
    -3
  6
Continuous
100
AcDbCircle
 10
220.535781
 20
-61.696898
 30
0.0
 40
0.3
100
AcDbArc
 50
13.342364
 51
90.0
  0
ARC
  5
34E
100
AcDbEntity
  8
0
370
    -3
  6
Continuous
100
AcDbCircle
 10
279.065603
 20
-61.696898
 30
0.0
 40
0.3
100
AcDbArc
 50
90.0
 51
166.657636
  0
LINE
  5
34F
100
AcDbEntity
  8
0
370
    -3
  6
Continuous
100
AcDbLine
 10
280.800692
 20
-63.396898
 30
0.0
 11
218.800692
 21
-63.396898
 31
0.0
  0
LINE
  5
350
100
AcDbEntity
  8
0
370
    -3
  6
Continuous
100
AcDbLine
 10
249.800692
 20
-63.396898
 30
0.0
 11
280.800692
 21
-63.396898
 31
0.0
  0
LINE
  5
351
100
AcDbEntity
  8
0
370
    -3
  6
Continuous
100
AcDbLine
 10
249.800692
 20
-63.396898
 30
0.0
 11
218.800692
 21
-63.396898
 31
0.0
  0
LINE
  5
352
100
AcDbEntity
  8
0
370
    -3
  6
Continuous
100
AcDbLine
 10
323.800692
 20
-36.396898
 30
0.0
 11
323.800692
 21
-21.396898
 31
0.0
  0
ARC
  5
353
100
AcDbEntity
  8
0
370
    -3
  6
Continuous
100
AcDbCircle
 10
321.800692
 20
-21.396898
 30
0.0
 40
2.0
100
AcDbArc
 50
0.0
 51
90.0
  0
LINE
  5
354
100
AcDbEntity
  8
0
370
    -3
  6
Continuous
100
AcDbLine
 10
321.800692
 20
-19.396898
 30
0.0
 11
295.211408
 21
-19.396898
 31
0.0
  0
LINE
  5
355
100
AcDbEntity
  8
0
370
    -3
  6
Continuous
100
AcDbLine
 10
323.800692
 20
-36.396898
 30
0.0
 11
323.800692
 21
-51.396898
 31
0.0
  0
ARC
  5
356
100
AcDbEntity
  8
0
370
    -3
  6
Continuous
100
AcDbCircle
 10
321.800692
 20
-51.396898
 30
0.0
 40
2.0
100
AcDbArc
 50
270.0
 51
0.0
  0
LINE
  5
357
100
AcDbEntity
  8
0
370
    -3
  6
Continuous
100
AcDbLine
 10
321.800692
 20
-53.396898
 30
0.0
 11
294.800692
 21
-53.396898
 31
0.0
  0
LINE
  5
358
100
AcDbEntity
  8
0
370
    -3
  6
Continuous
100
AcDbLine
 10
296.800692
 20
-36.396898
 30
0.0
 11
296.800692
 21
-53.396898
 31
0.0
  0
LINE
  5
359
100
AcDbEntity
  8
0
370
    -3
  6
Continuous
100
AcDbLine
 10
296.800692
 20
-36.396898
 30
0.0
 11
296.800692
 21
-19.396898
 31
0.0
  0
LINE
  5
35A
100
AcDbEntity
  8
0
370
    -3
  6
Continuous
100
AcDbLine
 10
217.695948
 20
-67.396898
 30
0.0
 11
217.775192
 21
-64.370721
 31
0.0
  0
LINE
  5
35B
100
AcDbEntity
  8
0
370
    -3
  6
Continuous
100
AcDbLine
 10
282.905436
 20
-67.396898
 30
0.0
 11
282.826193
 21
-64.370721
 31
0.0
  0
ARC
  5
35C
100
AcDbEntity
  8
0
370
    -3
  6
Continuous
100
AcDbCircle
 10
281.826535
 20
-64.396898
 30
0.0
 40
1.0
100
AcDbArc
 50
1.5
 51
90.0
  0
ARC
  5
35D
100
AcDbEntity
  8
0
370
    -3
  6
Continuous
100
AcDbCircle
 10
218.774849
 20
-64.396898
 30
0.0
 40
1.0
100
AcDbArc
 50
90.0
 51
178.5
  0
LINE
  5
35E
100
AcDbEntity
  8
0
370
    -3
  6
CENTER
100
AcDbLine
 10
273.281662
 20
-76.285757
 30
0.0
 11
273.281662
 21
-61.372259
 31
0.0
  0
LINE
  5
35F
100
AcDbEntity
  8
0
370
    -3
  6
Continuous
100
AcDbLine
 10
281.826535
 20
-63.396898
 30
0.0
 11
218.774849
 21
-63.396898
 31
0.0
  0
LINE
  5
360
100
AcDbEntity
  8
0
370
    -3
  6
CENTER
100
AcDbLine
 10
227.319722
 20
-76.706785
 30
0.0
 11
227.319722
 21
-61.372259
 31
0.0
  0
LINE
  5
361
100
AcDbEntity
  8
0
370
    -3
  6
Continuous
100
AcDbLine
 10
213.550692
 20
-70.90231
 30
0.0
 11
213.550692
 21
-69.396898
 31
0.0
  0
LINE
  5
362
100
AcDbEntity
  8
0
370
    -3
  6
Continuous
100
AcDbLine
 10
269.853378
 20
-67.396898
 30
0.0
 11
282.905436
 21
-67.396898
 31
0.0
  0
ARC
  5
363
100
AcDbEntity
  8
0
370
    -3
  6
Continuous
100
AcDbCircle
 10
278.781662
 20
-67.896898
 30
0.0
 40
0.5
100
AcDbArc
 50
90.0
 51
180.0
  0
LINE
  5
364
100
AcDbEntity
  8
0
370
    -3
  6
Continuous
100
AcDbLine
 10
278.281662
 20
-68.783089
 30
0.0
 11
278.281662
 21
-67.896898
 31
0.0
  0
LINE
  5
365
100
AcDbEntity
  8
0
370
    -3
  6
Continuous
100
AcDbLine
 10
267.817848
 20
-69.396898
 30
0.0
 11
276.475345
 21
-69.396898
 31
0.0
  0
ARC
  5
366
100
AcDbEntity
  8
0
370
    -3
  6
Continuous
100
AcDbCircle
 10
267.781662
 20
-67.896898
 30
0.0
 40
0.5
100
AcDbArc
 50
0.0
 51
90.0
  0
LINE
  5
367
100
AcDbEntity
  8
0
370
    -3
  6
Continuous
100
AcDbLine
 10
268.281662
 20
-68.896898
 30
0.0
 11
268.281662
 21
-67.896898
 31
0.0
  0
ARC
  5
368
100
AcDbEntity
  8
0
370
    -3
  6
Continuous
100
AcDbCircle
 10
268.781662
 20
-68.896898
 30
0.0
 40
0.5
100
AcDbArc
 50
180.0
 51
270.0
  0
ARC
  5
369
100
AcDbEntity
  8
0
370
    -3
  6
Continuous
100
AcDbCircle
 10
268.840271
 20
-69.896898
 30
0.0
 40
0.5
100
AcDbArc
 50
7.125016
 51
90.0
  0
LINE
  5
36A
100
AcDbEntity
  8
0
370
    -3
  6
Continuous
100
AcDbLine
 10
268.781662
 20
-69.396898
 30
0.0
 11
276.982426
 21
-69.396898
 31
0.0
  0
ARC
  5
36B
100
AcDbEntity
  8
0
370
    -3
  6
Continuous
100
AcDbCircle
 10
270.223054
 20
-72.896898
 30
0.0
 40
0.5
100
AcDbArc
 50
187.125016
 51
270.0
  0
LINE
  5
36C
100
AcDbEntity
  8
0
370
    -3
  6
Continuous
100
AcDbLine
 10
269.726915
 20
-72.958915
 30
0.0
 11
269.33641
 21
-69.834881
 31
0.0
  0
LINE
  5
36D
100
AcDbEntity
  8
0
370
    -3
  6
Continuous
100
AcDbLine
 10
275.800692
 20
-73.396898
 30
0.0
 11
270.229184
 21
-73.396898
 31
0.0
  0
ARC
  5
36E
100
AcDbEntity
  8
0
370
    -3
  6
Continuous
100
AcDbCircle
 10
232.819722
 20
-67.896898
 30
0.0
 40
0.5
100
AcDbArc
 50
90.0
 51
180.0
  0
LINE
  5
36F
100
AcDbEntity
  8
0
370
    -3
  6
Continuous
100
AcDbLine
 10
232.319722
 20
-68.896898
 30
0.0
 11
232.319722
 21
-67.896898
 31
0.0
  0
ARC
  5
370
100
AcDbEntity
  8
0
370
    -3
  6
Continuous
100
AcDbCircle
 10
231.819722
 20
-68.896898
 30
0.0
 40
0.5
100
AcDbArc
 50
270.0
 51
0.0
  0
ARC
  5
371
100
AcDbEntity
  8
0
370
    -3
  6
Continuous
100
AcDbCircle
 10
231.761113
 20
-69.896898
 30
0.0
 40
0.5
100
AcDbArc
 50
90.0
 51
172.874984
  0
LINE
  5
372
100
AcDbEntity
  8
0
370
    -3
  6
Continuous
100
AcDbLine
 10
230.748006
 20
-67.396898
 30
0.0
 11
269.853378
 21
-67.396898
 31
0.0
  0
ARC
  5
373
100
AcDbEntity
  8
0
370
    -3
  6
Continuous
100
AcDbCircle
 10
221.819722
 20
-67.896898
 30
0.0
 40
0.5
100
AcDbArc
 50
0.0
 51
90.0
  0
LINE
  5
374
100
AcDbEntity
  8
0
370
    -3
  6
Continuous
100
AcDbLine
 10
222.319722
 20
-68.896898
 30
0.0
 11
222.319722
 21
-67.896898
 31
0.0
  0
ARC
  5
375
100
AcDbEntity
  8
0
370
    -3
  6
Continuous
100
AcDbCircle
 10
222.819722
 20
-68.896898
 30
0.0
 40
0.5
100
AcDbArc
 50
180.0
 51
270.0
  0
ARC
  5
376
100
AcDbEntity
  8
0
370
    -3
  6
Continuous
100
AcDbCircle
 10
222.878331
 20
-69.896898
 30
0.0
 40
0.5
100
AcDbArc
 50
7.125016
 51
90.0
  0
LINE
  5
377
100
AcDbEntity
  8
0
370
    -3
  6
Continuous
100
AcDbLine
 10
230.748006
 20
-67.396898
 30
0.0
 11
217.695948
 21
-67.396898
 31
0.0
  0
LINE
  5
378
100
AcDbEntity
  8
0
370
    -3
  6
Continuous
100
AcDbLine
 10
231.783536
 20
-69.396898
 30
0.0
 11
222.819722
 21
-69.396898
 31
0.0
  0
LINE
  5
379
100
AcDbEntity
  8
0
370
    -3
  6
Continuous
100
AcDbLine
 10
276.982426
 20
-69.396898
 30
0.0
 11
213.550692
 21
-69.396898
 31
0.0
  0
LINE
  5
37A
100
AcDbEntity
  8
0
370
    -3
  6
Continuous
100
AcDbLine
 10
224.261113
 20
-73.396898
 30
0.0
 11
230.3722
 21
-73.396898
 31
0.0
  0
ARC
  5
37B
100
AcDbEntity
  8
0
370
    -3
  6
Continuous
100
AcDbCircle
 10
230.378331
 20
-72.896898
 30
0.0
 40
0.5
100
AcDbArc
 50
270.0
 51
352.874984
  0
LINE
  5
37C
100
AcDbEntity
  8
0
370
    -3
  6
CENTER
100
AcDbLine
 10
249.800692
 20
202.782219
 30
0.0
 11
249.800692
 21
95.854522
 31
0.0
  0
LINE
  5
37D
100
AcDbEntity
  8
0
370
    -3
  6
Continuous
100
AcDbLine
 10
210.281549
 20
110.5
 30
0.0
 11
208.564038
 21
112.5
 31
0.0
  0
LINE
  5
37E
100
AcDbEntity
  8
0
370
    -3
  6
Continuous
100
AcDbLine
 10
208.564038
 20
108.5
 30
0.0
 11
210.281549
 21
110.5
 31
0.0
  0
LINE
  5
37F
100
AcDbEntity
  8
0
370
    -3
  6
Continuous
100
AcDbLine
 10
292.755558
 20
189.5
 30
0.0
 11
294.663277
 21
187.5
 31
0.0
  0
LINE
  5
380
100
AcDbEntity
  8
0
370
    -3
  6
Continuous
100
AcDbLine
 10
291.038046
 20
191.5
 30
0.0
 11
292.755558
 21
189.5
 31
0.0
  0
LINE
  5
381
100
AcDbEntity
  8
0
370
    -3
  6
Continuous
100
AcDbLine
 10
292.755558
 20
189.5
 30
0.0
 11
291.038046
 21
187.5
 31
0.0
  0
LINE
  5
382
100
AcDbEntity
  8
0
370
    -3
  6
Continuous
100
AcDbLine
 10
294.663277
 20
191.5
 30
0.0
 11
292.755558
 21
189.5
 31
0.0
  0
ELLIPSE
  5
383
100
AcDbEntity
  8
0
370
    -3
  6
Continuous
100
AcDbEllipse
 10
293.586588
 20
189.5
 30
0.0
 11
0.0
 21
3.5
 31
0.0
210
0.0
220
0.0
230
1.0
 40
0.982815
 41
0.0
 42
6.2831853071795862
  0
ARC
  5
384
100
AcDbEntity
  8
0
370
    -3
  6
Continuous
100
AcDbCircle
 10
289.332951
 20
174.564462
 30
0.0
 40
3.8
100
AcDbArc
 50
0.0
 51
41.390427
  0
ARC
  5
385
100
AcDbEntity
  8
0
370
    -3
  6
Continuous
100
AcDbCircle
 10
293.123566
 20
189.0
 30
0.0
 40
7.8
100
AcDbArc
 50
0.0
 51
90.0
  0
ARC
  5
386
100
AcDbEntity
  8
0
370
    -3
  6
Continuous
100
AcDbCircle
 10
295.574752
 20
189.0
 30
0.0
 40
7.8
100
AcDbArc
 50
0.0
 51
90.0
  0
LINE
  5
387
100
AcDbEntity
  8
0
370
    -3
  6
Continuous
100
AcDbLine
 10
210.281549
 20
189.5
 30
0.0
 11
212.189269
 21
187.5
 31
0.0
  0
LINE
  5
388
100
AcDbEntity
  8
0
370
    -3
  6
Continuous
100
AcDbLine
 10
208.564038
 20
191.5
 30
0.0
 11
210.281549
 21
189.5
 31
0.0
  0
LINE
  5
389
100
AcDbEntity
  8
0
370
    -3
  6
Continuous
100
AcDbLine
 10
210.281549
 20
189.5
 30
0.0
 11
208.564038
 21
187.5
 31
0.0
  0
LINE
  5
38A
100
AcDbEntity
  8
0
370
    -3
  6
Continuous
100
AcDbLine
 10
212.189269
 20
191.5
 30
0.0
 11
210.281549
 21
189.5
 31
0.0
  0
ELLIPSE
  5
38B
100
AcDbEntity
  8
0
370
    -3
  6
Continuous
100
AcDbEllipse
 10
211.11258
 20
189.5
 30
0.0
 11
0.0
 21
3.5
 31
0.0
210
0.0
220
0.0
230
1.0
 40
0.982815
 41
0.0
 42
6.2831853071795862
  0
ARC
  5
38C
100
AcDbEntity
  8
0
370
    -3
  6
Continuous
100
AcDbCircle
 10
232.374739
 20
178.55
 30
0.0
 40
10.0
100
AcDbArc
 50
90.0
 51
180.0
  0
ARC
  5
38D
100
AcDbEntity
  8
0
370
    -3
  6
Continuous
100
AcDbCircle
 10
215.721332
 20
174.546991
 30
0.0
 40
3.8
100
AcDbArc
 50
138.14922
 51
180.0
  0
LINE
  5
38E
100
AcDbEntity
  8
0
370
    -3
  6
Continuous
100
AcDbLine
 10
222.029597
 20
187.285333
 30
0.0
 11
212.890769
 21
177.082324
 31
0.0
  0
ARC
  5
38F
100
AcDbEntity
  8
0
370
    -3
  6
Continuous
100
AcDbCircle
 10
224.86016
 20
184.75
 30
0.0
 40
3.8
100
AcDbArc
 50
90.0
 51
138.14922
  0
LINE
  5
390
100
AcDbEntity
  8
0
370
    -3
  6
Continuous
100
AcDbLine
 10
212.703223
 20
196.8
 30
0.0
 11
295.574752
 21
196.8
 31
0.0
  0
ARC
  5
391
100
AcDbEntity
  8
0
370
    -3
  6
Continuous
100
AcDbCircle
 10
212.703223
 20
189.0
 30
0.0
 40
7.8
100
AcDbArc
 50
90.0
 51
180.0
  0
LINE
  5
392
100
AcDbEntity
  8
0
370
    -3
  6
Continuous
100
AcDbLine
 10
210.281549
 20
110.5
 30
0.0
 11
212.189269
 21
112.5
 31
0.0
  0
LINE
  5
393
100
AcDbEntity
  8
0
370
    -3
  6
Continuous
100
AcDbLine
 10
212.189269
 20
108.5
 30
0.0
 11
210.281549
 21
110.5
 31
0.0
  0
ELLIPSE
  5
394
100
AcDbEntity
  8
0
370
    -3
  6
Continuous
100
AcDbEllipse
 10
211.11258
 20
110.5
 30
0.0
 11
-0.000000000000199
 21
3.5
 31
0.0
210
0.0
220
0.0
230
1.0
 40
0.982815
 41
0.0
 42
6.2831853071795862
  0
ARC
  5
395
100
AcDbEntity
  8
0
370
    -3
  6
Continuous
100
AcDbCircle
 10
232.374739
 20
121.45
 30
0.0
 40
10.0
100
AcDbArc
 50
180.0
 51
270.0
  0
ARC
  5
396
100
AcDbEntity
  8
0
370
    -3
  6
Continuous
100
AcDbCircle
 10
215.721332
 20
125.453009
 30
0.0
 40
3.8
100
AcDbArc
 50
180.0
 51
221.85078
  0
LINE
  5
397
100
AcDbEntity
  8
0
370
    -3
  6
Continuous
100
AcDbLine
 10
222.029597
 20
112.714667
 30
0.0
 11
212.890769
 21
122.917676
 31
0.0
  0
ARC
  5
398
100
AcDbEntity
  8
0
370
    -3
  6
Continuous
100
AcDbCircle
 10
224.86016
 20
115.25
 30
0.0
 40
3.8
100
AcDbArc
 50
221.85078
 51
270.0
  0
ARC
  5
399
100
AcDbEntity
  8
0
370
    -3
  6
Continuous
100
AcDbCircle
 10
212.703223
 20
111.0
 30
0.0
 40
7.8
100
AcDbArc
 50
180.0
 51
270.0
  0
LINE
  5
39A
100
AcDbEntity
  8
0
370
    -3
  6
Continuous
100
AcDbLine
 10
212.703223
 20
103.2
 30
0.0
 11
295.574752
 21
103.2
 31
0.0
  0
LINE
  5
39B
100
AcDbEntity
  8
0
370
    -3
  6
Continuous
100
AcDbLine
 10
280.356216
 20
111.45
 30
0.0
 11
224.86016
 21
111.45
 31
0.0
  0
LINE
  5
39C
100
AcDbEntity
  8
0
370
    -3
  6
Continuous
100
AcDbLine
 10
292.755558
 20
110.5
 30
0.0
 11
294.663277
 21
112.5
 31
0.0
  0
LINE
  5
39D
100
AcDbEntity
  8
0
370
    -3
  6
Continuous
100
AcDbLine
 10
291.038046
 20
108.5
 30
0.0
 11
292.755558
 21
110.5
 31
0.0
  0
LINE
  5
39E
100
AcDbEntity
  8
0
370
    -3
  6
Continuous
100
AcDbLine
 10
292.755558
 20
110.5
 30
0.0
 11
291.038046
 21
112.5
 31
0.0
  0
LINE
  5
39F
100
AcDbEntity
  8
0
370
    -3
  6
Continuous
100
AcDbLine
 10
294.663277
 20
108.5
 30
0.0
 11
292.755558
 21
110.5
 31
0.0
  0
ELLIPSE
  5
3A0
100
AcDbEntity
  8
0
370
    -3
  6
Continuous
100
AcDbEllipse
 10
293.586588
 20
110.5
 30
0.0
 11
-0.0000000000002274
 21
3.5
 31
0.0
210
0.0
220
0.0
230
1.0
 40
0.982815
 41
0.0
 42
6.2831853071795862
  0
LINE
  5
3A1
100
AcDbEntity
  8
0
370
    -3
  6
Continuous
100
AcDbLine
 10
283.207058
 20
112.737491
 30
0.0
 11
292.183793
 21
122.923029
 31
0.0
  0
ARC
  5
3A2
100
AcDbEntity
  8
0
370
    -3
  6
Continuous
100
AcDbCircle
 10
280.356216
 20
115.25
 30
0.0
 40
3.8
100
AcDbArc
 50
270.0
 51
318.609573
  0
ARC
  5
3A3
100
AcDbEntity
  8
0
370
    -3
  6
Continuous
100
AcDbCircle
 10
293.123566
 20
111.0
 30
0.0
 40
7.8
100
AcDbArc
 50
270.0
 51
0.0
  0
ARC
  5
3A4
100
AcDbEntity
  8
0
370
    -3
  6
Continuous
100
AcDbCircle
 10
295.574752
 20
111.0
 30
0.0
 40
7.8
100
AcDbArc
 50
270.0
 51
0.0
  0
LINE
  5
3A5
100
AcDbEntity
  8
0
370
    -3
  6
Continuous
100
AcDbLine
 10
323.800692
 20
150.0
 30
0.0
 11
323.800692
 21
135.0
 31
0.0
  0
ARC
  5
3A6
100
AcDbEntity
  8
0
370
    -3
  6
Continuous
100
AcDbCircle
 10
321.800692
 20
135.0
 30
0.0
 40
2.0
100
AcDbArc
 50
270.0
 51
0.0
  0
LINE
  5
3A7
100
AcDbEntity
  8
0
370
    -3
  6
Continuous
100
AcDbLine
 10
321.800692
 20
133.0
 30
0.0
 11
303.374752
 21
133.0
 31
0.0
  0
LINE
  5
3A8
100
AcDbEntity
  8
0
370
    -3
  6
Continuous
100
AcDbLine
 10
293.132951
 20
150.0
 30
0.0
 11
293.132951
 21
125.435538
 31
0.0
  0
ARC
  5
3A9
100
AcDbEntity
  8
0
370
    -3
  6
Continuous
100
AcDbCircle
 10
289.332951
 20
125.435538
 30
0.0
 40
3.8
100
AcDbArc
 50
318.609573
 51
0.0
  0
LINE
  5
3AA
100
AcDbEntity
  8
0
370
    -3
  6
Continuous
100
AcDbLine
 10
300.923566
 20
150.0
 30
0.0
 11
300.923566
 21
111.0
 31
0.0
  0
LINE
  5
3AB
100
AcDbEntity
  8
0
370
    -3
  6
Continuous
100
AcDbLine
 10
303.374752
 20
150.0
 30
0.0
 11
303.374752
 21
111.0
 31
0.0
  0
POINT
  5
3AC
100
AcDbEntity
  8
0
370
    -3
  6
CENTER
100
AcDbPoint
 10
323.800692
 20
136.7795
 30
0.0
  0
LINE
  5
3AD
100
AcDbEntity
  8
0
370
    -3
  6
Continuous
100
AcDbLine
 10
323.800692
 20
150.0
 30
0.0
 11
323.800692
 21
165.0
 31
0.0
  0
ARC
  5
3AE
100
AcDbEntity
  8
0
370
    -3
  6
Continuous
100
AcDbCircle
 10
321.800692
 20
165.0
 30
0.0
 40
2.0
100
AcDbArc
 50
0.0
 51
90.0
  0
LINE
  5
3AF
100
AcDbEntity
  8
0
370
    -3
  6
Continuous
100
AcDbLine
 10
321.800692
 20
167.0
 30
0.0
 11
303.374752
 21
167.0
 31
0.0
  0
LINE
  5
3B0
100
AcDbEntity
  8
0
370
    -3
  6
Continuous
100
AcDbLine
 10
293.132951
 20
150.0
 30
0.0
 11
293.132951
 21
174.564462
 31
0.0
  0
LINE
  5
3B1
100
AcDbEntity
  8
0
370
    -3
  6
Continuous
100
AcDbLine
 10
300.923566
 20
150.0
 30
0.0
 11
300.923566
 21
189.0
 31
0.0
  0
LINE
  5
3B2
100
AcDbEntity
  8
0
370
    -3
  6
Continuous
100
AcDbLine
 10
303.374752
 20
150.0
 30
0.0
 11
303.374752
 21
189.0
 31
0.0
  0
POINT
  5
3B3
100
AcDbEntity
  8
0
370
    -3
  6
CENTER
100
AcDbPoint
 10
323.800692
 20
163.2205
 30
0.0
  0
LINE
  5
3B4
100
AcDbEntity
  8
0
370
    -3
  6
Continuous
100
AcDbLine
 10
222.374739
 20
150.0
 30
0.0
 11
222.374739
 21
121.45
 31
0.0
  0
LINE
  5
3B5
100
AcDbEntity
  8
0
370
    -3
  6
Continuous
100
AcDbLine
 10
211.921332
 20
150.0
 30
0.0
 11
211.921332
 21
125.453009
 31
0.0
  0
LINE
  5
3B6
100
AcDbEntity
  8
0
370
    -3
  6
Continuous
100
AcDbLine
 10
204.903223
 20
150.0
 30
0.0
 11
204.903223
 21
111.0
 31
0.0
  0
LINE
  5
3B7
100
AcDbEntity
  8
0
370
    -3
  6
Continuous
100
AcDbLine
 10
222.374739
 20
150.0
 30
0.0
 11
222.374739
 21
178.55
 31
0.0
  0
LINE
  5
3B8
100
AcDbEntity
  8
0
370
    -3
  6
Continuous
100
AcDbLine
 10
211.921332
 20
150.0
 30
0.0
 11
211.921332
 21
174.546991
 31
0.0
  0
LINE
  5
3B9
100
AcDbEntity
  8
0
370
    -3
  6
Continuous
100
AcDbLine
 10
204.903223
 20
150.0
 30
0.0
 11
204.903223
 21
189.0
 31
0.0
  0
ARC
  5
3BA
100
AcDbEntity
  8
0
370
    -3
  6
Continuous
100
AcDbCircle
 10
280.356216
 20
184.75
 30
0.0
 40
3.8
100
AcDbArc
 50
41.390427
 51
90.0
  0
LINE
  5
3BB
100
AcDbEntity
  8
0
370
    -3
  6
Continuous
100
AcDbLine
 10
283.207058
 20
187.262509
 30
0.0
 11
292.183793
 21
177.076971
 31
0.0
  0
LINE
  5
3BC
100
AcDbEntity
  8
0
370
    -3
  6
Continuous
100
AcDbLine
 10
280.356216
 20
188.55
 30
0.0
 11
224.86016
 21
188.55
 31
0.0
  0
LINE
  5
3BD
100
AcDbEntity
  8
0
370
    -3
  6
Continuous
100
AcDbLine
 10
555.632063
 20
-54.480749
 30
0.0
 11
555.632063
 21
-17.124152
 31
0.0
  0
ARC
  5
3BE
100
AcDbEntity
  8
0
370
    -3
  6
Continuous
100
AcDbCircle
 10
548.832063
 20
-54.480749
 30
0.0
 40
6.8
100
AcDbArc
 50
270.0
 51
0.0
  0
ARC
  5
3BF
100
AcDbEntity
  8
0
370
    -3
  6
Continuous
100
AcDbCircle
 10
508.769321
 20
-54.480749
 30
0.0
 40
6.8
100
AcDbArc
 50
180.0
 51
270.0
  0
LINE
  5
3C0
100
AcDbEntity
  8
0
370
    -3
  6
Continuous
100
AcDbLine
 10
501.969321
 20
-54.480749
 30
0.0
 11
501.969321
 21
-17.124152
 31
0.0
  0
LINE
  5
3C1
100
AcDbEntity
  8
0
370
    -3
  6
Continuous
100
AcDbLine
 10
528.800692
 20
-15.474119
 30
0.0
 11
567.800692
 21
-15.474119
 31
0.0
  0
LINE
  5
3C2
100
AcDbEntity
  8
0
370
    -3
  6
Continuous
100
AcDbLine
 10
574.300692
 20
-51.770635
 30
0.0
 11
574.300692
 21
-20.214137
 31
0.0
  0
LINE
  5
3C3
100
AcDbEntity
  8
0
370
    -3
  6
Continuous
100
AcDbLine
 10
567.800692
 20
-60.525225
 30
0.0
 11
564.415865
 21
-60.525225
 31
0.0
  0
LINE
  5
3C4
100
AcDbEntity
  8
0
370
    -3
  6
Continuous
100
AcDbLine
 10
564.998962
 20
-60.187131
 30
0.0
 11
567.800692
 21
-60.187131
 31
0.0
  0
ELLIPSE
  5
3C5
100
AcDbEntity
  8
0
370
    -3
  6
Continuous
100
AcDbEllipse
 10
568.300692
 20
-16.776664
 30
0.0
 11
2.0
 21
0.0000000000000107
 31
0.0
210
0.0
220
0.0
230
1.0
 40
0.422618
 41
0.0
 42
6.2831853071795862
  0
ELLIPSE
  5
3C6
100
AcDbEntity
  8
0
370
    -3
  6
Continuous
100
AcDbEllipse
 10
568.300692
 20
-16.776664
 30
0.0
 11
1.6499999999999773
 21
0.0000000000000071
 31
0.0
210
0.0
220
0.0
230
1.0
 40
0.422618
 41
0.0
 42
6.2831853071795862
  0
LINE
  5
3C7
100
AcDbEntity
  8
0
370
    -3
  6
CENTER
100
AcDbLine
 10
571.165551
 20
-16.776664
 30
0.0
 11
565.554161
 21
-16.776664
 31
0.0
  0
LINE
  5
3C8
100
AcDbEntity
  8
0
370
    -3
  6
CENTER
100
AcDbLine
 10
568.300692
 20
-19.169485
 30
0.0
 11
568.300692
 21
-14.724727
 31
0.0
  0
ARC
  5
3C9
100
AcDbEntity
  8
0
370
    -3
  6
Continuous
100
AcDbCircle
 10
556.800692
 20
-61.280749
 30
0.0
 40
1.0
100
AcDbArc
 50
270.0
 51
346.657636
  0
ARC
  5
3CA
100
AcDbEntity
  8
0
370
    -3
  6
Continuous
100
AcDbCircle
 10
558.065603
 20
-61.580749
 30
0.0
 40
0.3
100
AcDbArc
 50
90.0
 51
166.657636
  0
ARC
  5
3CB
100
AcDbEntity
  8
0
370
    -3
  6
Continuous
100
AcDbCircle
 10
568.300692
 20
-51.770635
 30
0.0
 40
6.0
100
AcDbArc
 50
270.0
 51
0.0
  0
LINE
  5
3CC
100
AcDbEntity
  8
0
370
    -3
  6
Continuous
100
AcDbLine
 10
567.251881
 20
-57.770635
 30
0.0
 11
568.300692
 21
-57.770635
 31
0.0
  0
ARC
  5
3CD
100
AcDbEntity
  8
0
370
    -3
  6
Continuous
100
AcDbCircle
 10
561.300692
 20
-54.480749
 30
0.0
 40
6.8
100
AcDbArc
 50
270.0
 51
0.0
  0
LINE
  5
3CE
100
AcDbEntity
  8
0
370
    -3
  6
Continuous
100
AcDbLine
 10
528.800692
 20
-61.280749
 30
0.0
 11
561.300692
 21
-61.280749
 31
0.0
  0
ARC
  5
3CF
100
AcDbEntity
  8
0
370
    -3
  6
Continuous
100
AcDbCircle
 10
564.300692
 20
-24.847891
 30
0.0
 40
3.8
100
AcDbArc
 50
0.0
 51
67.022625
  0
ARC
  5
3D0
100
AcDbEntity
  8
0
370
    -3
  6
Continuous
100
AcDbCircle
 10
554.859725
 20
-20.844837
 30
0.0
 40
3.8
100
AcDbArc
 50
67.022625
 51
90.0
  0
LINE
  5
3D1
100
AcDbEntity
  8
0
370
    -3
  6
Continuous
100
AcDbLine
 10
556.343122
 20
-17.346333
 30
0.0
 11
565.784089
 21
-21.349386
 31
0.0
  0
LINE
  5
3D2
100
AcDbEntity
  8
0
370
    -3
  6
Continuous
100
AcDbLine
 10
568.100692
 20
-54.480749
 30
0.0
 11
568.100692
 21
-24.847891
 31
0.0
  0
LINE
  5
3D3
100
AcDbEntity
  8
0
370
    -3
  6
Continuous
100
AcDbLine
 10
528.800692
 20
-17.044837
 30
0.0
 11
554.859725
 21
-17.044837
 31
0.0
  0
LINE
  5
3D4
100
AcDbEntity
  8
0
370
    -3
  6
Continuous
100
AcDbLine
 10
528.800692
 20
-62.280749
 30
0.0
 11
556.800692
 21
-62.280749
 31
0.0
  0
ARC
  5
3D5
100
AcDbEntity
  8
0
370
    -3
  6
Continuous
100
AcDbCircle
 10
567.800692
 20
-53.187131
 30
0.0
 40
7.0
100
AcDbArc
 50
270.0
 51
0.0
  0
LINE
  5
3D6
100
AcDbEntity
  8
0
370
    -3
  6
Continuous
100
AcDbLine
 10
559.800692
 20
-63.280749
 30
0.0
 11
559.800692
 21
-62.280749
 31
0.0
  0
LINE
  5
3D7
100
AcDbEntity
  8
0
370
    -3
  6
Continuous
100
AcDbLine
 10
559.800692
 20
-62.280749
 30
0.0
 11
528.800692
 21
-62.280749
 31
0.0
  0
LINE
  5
3D8
100
AcDbEntity
  8
0
370
    -3
  6
Continuous
100
AcDbLine
 10
528.800692
 20
-63.280749
 30
0.0
 11
559.800692
 21
-63.280749
 31
0.0
  0
LINE
  5
3D9
100
AcDbEntity
  8
0
370
    -3
  6
Continuous
100
AcDbLine
 10
567.800692
 20
-10.8096
 30
0.0
 11
528.800692
 21
-10.8096
 31
0.0
  0
LINE
  5
3DA
100
AcDbEntity
  8
0
370
    -3
  6
Continuous
100
AcDbLine
 10
528.800692
 20
-15.812213
 30
0.0
 11
567.800692
 21
-15.812213
 31
0.0
  0
LINE
  5
3DB
100
AcDbEntity
  8
0
370
    -3
  6
Continuous
100
AcDbLine
 10
575.600692
 20
-18.6096
 30
0.0
 11
575.600692
 21
-52.725225
 31
0.0
  0
ELLIPSE
  5
3DC
100
AcDbEntity
  8
0
370
    -3
  6
Continuous
100
AcDbEllipse
 10
568.300692
 20
-12.695009
 30
0.0
 11
3.5
 21
0.0
 31
0.0
210
0.0
220
0.0
230
1.0
 40
0.656603
 41
0.4330509754535478
 42
2.1794532890791989
  0
ARC
  5
3DD
100
AcDbEntity
  8
0
370
    -3
  6
Continuous
100
AcDbCircle
 10
567.800692
 20
-18.6096
 30
0.0
 40
7.8
100
AcDbArc
 50
0.0
 51
90.0
  0
ARC
  5
3DE
100
AcDbEntity
  8
0
370
    -3
  6
Continuous
100
AcDbCircle
 10
567.800692
 20
-23.274119
 30
0.0
 40
7.8
100
AcDbArc
 50
0.0
 51
90.0
  0
ARC
  5
3DF
100
AcDbEntity
  8
0
370
    -3
  6
Continuous
100
AcDbCircle
 10
567.800692
 20
-22.812213
 30
0.0
 40
7.0
100
AcDbArc
 50
0.0
 51
90.0
  0
LINE
  5
3E0
100
AcDbEntity
  8
0
370
    -3
  6
Continuous
100
AcDbLine
 10
574.800692
 20
-22.812213
 30
0.0
 11
574.800692
 21
-53.187131
 31
0.0
  0
ARC
  5
3E1
100
AcDbEntity
  8
0
370
    -3
  6
Continuous
100
AcDbCircle
 10
567.800692
 20
-52.725225
 30
0.0
 40
7.8
100
AcDbArc
 50
270.0
 51
0.0
  0
LINE
  5
3E2
100
AcDbEntity
  8
0
370
    -3
  6
CENTER
100
AcDbLine
 10
547.445624
 20
-36.280749
 30
0.0
 11
507.500235
 21
-36.280749
 31
0.0
  0
LINE
  5
3E3
100
AcDbEntity
  8
0
370
    -3
  6
Continuous
100
AcDbLine
 10
528.800692
 20
-15.474119
 30
0.0
 11
489.800692
 21
-15.474119
 31
0.0
  0
LINE
  5
3E4
100
AcDbEntity
  8
0
370
    -3
  6
Continuous
100
AcDbLine
 10
483.300692
 20
-51.770635
 30
0.0
 11
483.300692
 21
-20.214137
 31
0.0
  0
LINE
  5
3E5
100
AcDbEntity
  8
0
370
    -3
  6
Continuous
100
AcDbLine
 10
489.800692
 20
-60.525225
 30
0.0
 11
493.185519
 21
-60.525225
 31
0.0
  0
LINE
  5
3E6
100
AcDbEntity
  8
0
370
    -3
  6
Continuous
100
AcDbLine
 10
492.602422
 20
-60.187131
 30
0.0
 11
489.800692
 21
-60.187131
 31
0.0
  0
ELLIPSE
  5
3E7
100
AcDbEntity
  8
0
370
    -3
  6
Continuous
100
AcDbEllipse
 10
489.300692
 20
-16.776664
 30
0.0
 11
-2.0
 21
0.0000000000000107
 31
0.0
210
0.0
220
0.0
230
1.0
 40
0.422618
 41
0.0
 42
6.2831853071795862
  0
ELLIPSE
  5
3E8
100
AcDbEntity
  8
0
370
    -3
  6
Continuous
100
AcDbEllipse
 10
489.300692
 20
-16.776664
 30
0.0
 11
-1.6500000000000341
 21
0.0000000000000107
 31
0.0
210
0.0
220
0.0
230
1.0
 40
0.422618
 41
0.0
 42
6.2831853071795862
  0
LINE
  5
3E9
100
AcDbEntity
  8
0
370
    -3
  6
CENTER
100
AcDbLine
 10
486.435833
 20
-16.776664
 30
0.0
 11
492.047223
 21
-16.776664
 31
0.0
  0
LINE
  5
3EA
100
AcDbEntity
  8
0
370
    -3
  6
CENTER
100
AcDbLine
 10
489.300692
 20
-19.169485
 30
0.0
 11
489.300692
 21
-14.724727
 31
0.0
  0
ARC
  5
3EB
100
AcDbEntity
  8
0
370
    -3
  6
Continuous
100
AcDbCircle
 10
500.800692
 20
-61.280749
 30
0.0
 40
1.0
100
AcDbArc
 50
193.342364
 51
270.0
  0
ARC
  5
3EC
100
AcDbEntity
  8
0
370
    -3
  6
Continuous
100
AcDbCircle
 10
499.535781
 20
-61.580749
 30
0.0
 40
0.3
100
AcDbArc
 50
13.342364
 51
90.0
  0
ARC
  5
3ED
100
AcDbEntity
  8
0
370
    -3
  6
Continuous
100
AcDbCircle
 10
489.300692
 20
-51.770635
 30
0.0
 40
6.0
100
AcDbArc
 50
180.0
 51
270.0
  0
LINE
  5
3EE
100
AcDbEntity
  8
0
370
    -3
  6
Continuous
100
AcDbLine
 10
490.349503
 20
-57.770635
 30
0.0
 11
489.300692
 21
-57.770635
 31
0.0
  0
ARC
  5
3EF
100
AcDbEntity
  8
0
370
    -3
  6
Continuous
100
AcDbCircle
 10
496.300692
 20
-54.480749
 30
0.0
 40
6.8
100
AcDbArc
 50
180.0
 51
270.0
  0
LINE
  5
3F0
100
AcDbEntity
  8
0
370
    -3
  6
Continuous
100
AcDbLine
 10
528.800692
 20
-61.280749
 30
0.0
 11
496.300692
 21
-61.280749
 31
0.0
  0
ARC
  5
3F1
100
AcDbEntity
  8
0
370
    -3
  6
Continuous
100
AcDbCircle
 10
493.300692
 20
-24.847891
 30
0.0
 40
3.8
100
AcDbArc
 50
112.977375
 51
180.0
  0
ARC
  5
3F2
100
AcDbEntity
  8
0
370
    -3
  6
Continuous
100
AcDbCircle
 10
502.741659
 20
-20.844837
 30
0.0
 40
3.8
100
AcDbArc
 50
90.0
 51
112.977375
  0
LINE
  5
3F3
100
AcDbEntity
  8
0
370
    -3
  6
Continuous
100
AcDbLine
 10
501.258262
 20
-17.346333
 30
0.0
 11
491.817295
 21
-21.349386
 31
0.0
  0
LINE
  5
3F4
100
AcDbEntity
  8
0
370
    -3
  6
Continuous
100
AcDbLine
 10
489.500692
 20
-54.480749
 30
0.0
 11
489.500692
 21
-24.847891
 31
0.0
  0
LINE
  5
3F5
100
AcDbEntity
  8
0
370
    -3
  6
Continuous
100
AcDbLine
 10
528.800692
 20
-17.044837
 30
0.0
 11
502.741659
 21
-17.044837
 31
0.0
  0
LINE
  5
3F6
100
AcDbEntity
  8
0
370
    -3
  6
Continuous
100
AcDbLine
 10
528.800692
 20
-62.280749
 30
0.0
 11
500.800692
 21
-62.280749
 31
0.0
  0
ARC
  5
3F7
100
AcDbEntity
  8
0
370
    -3
  6
Continuous
100
AcDbCircle
 10
489.800692
 20
-53.187131
 30
0.0
 40
7.0
100
AcDbArc
 50
180.0
 51
270.0
  0
LINE
  5
3F8
100
AcDbEntity
  8
0
370
    -3
  6
Continuous
100
AcDbLine
 10
497.800692
 20
-63.280749
 30
0.0
 11
497.800692
 21
-62.280749
 31
0.0
  0
LINE
  5
3F9
100
AcDbEntity
  8
0
370
    -3
  6
Continuous
100
AcDbLine
 10
497.800692
 20
-62.280749
 30
0.0
 11
528.800692
 21
-62.280749
 31
0.0
  0
LINE
  5
3FA
100
AcDbEntity
  8
0
370
    -3
  6
Continuous
100
AcDbLine
 10
528.800692
 20
-63.280749
 30
0.0
 11
497.800692
 21
-63.280749
 31
0.0
  0
LINE
  5
3FB
100
AcDbEntity
  8
0
370
    -3
  6
Continuous
100
AcDbLine
 10
489.800692
 20
-10.8096
 30
0.0
 11
528.800692
 21
-10.8096
 31
0.0
  0
LINE
  5
3FC
100
AcDbEntity
  8
0
370
    -3
  6
Continuous
100
AcDbLine
 10
528.800692
 20
-15.812213
 30
0.0
 11
489.800692
 21
-15.812213
 31
0.0
  0
LINE
  5
3FD
100
AcDbEntity
  8
0
370
    -3
  6
Continuous
100
AcDbLine
 10
482.000692
 20
-18.6096
 30
0.0
 11
482.000692
 21
-52.725225
 31
0.0
  0
ELLIPSE
  5
3FE
100
AcDbEntity
  8
0
370
    -3
  6
Continuous
100
AcDbEllipse
 10
489.300692
 20
-12.695009
 30
0.0
 11
3.5
 21
0.0
 31
0.0
210
0.0
220
0.0
230
1.0
 40
0.656603
 41
0.9621393645107007
 42
2.7085416781362999
  0
ARC
  5
3FF
100
AcDbEntity
  8
0
370
    -3
  6
Continuous
100
AcDbCircle
 10
489.800692
 20
-18.6096
 30
0.0
 40
7.8
100
AcDbArc
 50
90.0
 51
180.0
  0
ARC
  5
400
100
AcDbEntity
  8
0
370
    -3
  6
Continuous
100
AcDbCircle
 10
489.800692
 20
-23.274119
 30
0.0
 40
7.8
100
AcDbArc
 50
90.0
 51
180.0
  0
ARC
  5
401
100
AcDbEntity
  8
0
370
    -3
  6
Continuous
100
AcDbCircle
 10
489.800692
 20
-22.812213
 30
0.0
 40
7.0
100
AcDbArc
 50
90.0
 51
180.0
  0
LINE
  5
402
100
AcDbEntity
  8
0
370
    -3
  6
Continuous
100
AcDbLine
 10
482.800692
 20
-22.812213
 30
0.0
 11
482.800692
 21
-53.187131
 31
0.0
  0
ARC
  5
403
100
AcDbEntity
  8
0
370
    -3
  6
Continuous
100
AcDbCircle
 10
489.800692
 20
-52.725225
 30
0.0
 40
7.8
100
AcDbArc
 50
180.0
 51
270.0
  0
LINE
  5
404
100
AcDbEntity
  8
0
370
    -3
  6
CENTER
100
AcDbLine
 10
547.445624
 20
-36.280749
 30
0.0
 11
507.500235
 21
-36.280749
 31
0.0
  0
LINE
  5
405
100
AcDbEntity
  8
0
370
    -3
  6
Continuous
100
AcDbLine
 10
557.902551
 20
-67.280749
 30
0.0
 11
561.405436
 21
-67.280749
 31
0.0
  0
LINE
  5
406
100
AcDbEntity
  8
0
370
    -3
  6
Continuous
100
AcDbLine
 10
497.274849
 20
-63.280749
 30
0.0
 11
560.326535
 21
-63.280749
 31
0.0
  0
ARC
  5
407
100
AcDbEntity
  8
0
370
    -3
  6
Continuous
100
AcDbCircle
 10
560.326535
 20
-64.280749
 30
0.0
 40
1.0
100
AcDbArc
 50
1.5
 51
90.0
  0
LINE
  5
408
100
AcDbEntity
  8
0
370
    -3
  6
Continuous
100
AcDbLine
 10
561.405436
 20
-67.280749
 30
0.0
 11
561.326193
 21
-64.254572
 31
0.0
  0
LINE
  5
409
100
AcDbEntity
  8
0
370
    -3
  6
Continuous
100
AcDbLine
 10
499.698833
 20
-67.280749
 30
0.0
 11
496.195948
 21
-67.280749
 31
0.0
  0
LINE
  5
40A
100
AcDbEntity
  8
0
370
    -3
  6
Continuous
100
AcDbLine
 10
496.195948
 20
-67.280749
 30
0.0
 11
496.275192
 21
-64.254572
 31
0.0
  0
ARC
  5
40B
100
AcDbEntity
  8
0
370
    -3
  6
Continuous
100
AcDbCircle
 10
497.274849
 20
-64.280749
 30
0.0
 40
1.0
100
AcDbArc
 50
90.0
 51
178.5
  0
ARC
  5
40C
100
AcDbEntity
  8
0
370
    -3
  6
Continuous
100
AcDbCircle
 10
528.800539
 20
-36.280764
 30
0.0
 40
17.0
100
AcDbArc
 50
270.0
 51
90.0
  0
ARC
  5
40D
100
AcDbEntity
  8
0
370
    -3
  6
Continuous
100
AcDbCircle
 10
528.800539
 20
-36.280764
 30
0.0
 40
13.2205
100
AcDbArc
 50
270.0
 51
90.0
  0
ARC
  5
40E
100
AcDbEntity
  8
0
370
    -3
  6
Continuous
100
AcDbCircle
 10
528.800539
 20
-36.280764
 30
0.0
 40
12.0585
100
AcDbArc
 50
270.0
 51
90.0
  0
ARC
  5
40F
100
AcDbEntity
  8
0
370
    -3
  6
Continuous
100
AcDbCircle
 10
528.800539
 20
-36.280764
 30
0.0
 40
13.2205
100
AcDbArc
 50
90.0
 51
270.0
  0
ARC
  5
410
100
AcDbEntity
  8
0
370
    -3
  6
Continuous
100
AcDbCircle
 10
528.800539
 20
-36.280764
 30
0.0
 40
12.0585
100
AcDbArc
 50
90.0
 51
270.0
  0
ARC
  5
411
100
AcDbEntity
  8
0
370
    -3
  6
Continuous
100
AcDbCircle
 10
528.800539
 20
-36.280764
 30
0.0
 40
17.0
100
AcDbArc
 50
90.0
 51
270.0
  0
CIRCLE
  5
412
100
AcDbEntity
  8
0
370
    -3
  6
Continuous
100
AcDbCircle
 10
19.800692
 20
-107.396898
 30
0.0
 40
42.5
  0
ARC
  5
413
100
AcDbEntity
  8
5
370
    -3
  6
Continuous
100
AcDbCircle
 10
501.969321
 20
-22044393.375254
 30
0.0
 40
17.0
100
AcDbArc
 50
90.0
 51
270.0
  0
ARC
  5
414
100
AcDbEntity
  8
5
370
    -3
  6
Continuous
100
AcDbCircle
 10
501.969321
 20
-22044393.375254
 30
0.0
 40
12.0585
100
AcDbArc
 50
90.0
 51
270.0
  0
ARC
  5
415
100
AcDbEntity
  8
5
370
    -3
  6
Continuous
100
AcDbCircle
 10
501.969321
 20
-22044393.375254
 30
0.0
 40
13.2205
100
AcDbArc
 50
90.0
 51
270.0
  0
ARC
  5
416
100
AcDbEntity
  8
5
370
    -3
  6
Continuous
100
AcDbCircle
 10
501.969321
 20
-22044393.375254
 30
0.0
 40
12.0585
100
AcDbArc
 50
270.0
 51
90.0
  0
ARC
  5
417
100
AcDbEntity
  8
5
370
    -3
  6
Continuous
100
AcDbCircle
 10
501.969321
 20
-22044393.375254
 30
0.0
 40
13.2205
100
AcDbArc
 50
270.0
 51
90.0
  0
ARC
  5
418
100
AcDbEntity
  8
5
370
    -3
  6
Continuous
100
AcDbCircle
 10
501.969321
 20
-22044393.375254
 30
0.0
 40
17.0
100
AcDbArc
 50
270.0
 51
90.0
  0
ENDSEC
  0
SECTION
  2
OBJECTS
  0
DICTIONARY
  5
19
100
AcDbDictionary
280
     0
281
     1
  3
ACAD_GROUP
350
1A
  3
ACAD_MLINESTYLE
350
1B
  3
ACAD_LAYOUT
350
1E
  3
ACAD_PLOTSETTINGS
350
22
  3
ACAD_PLOTSTYLENAME
350
1F
  3
ACAD_WIPEOUT_VARS
350
23
  3
DWGPROPS
350
419
  0
DICTIONARY
  5
1A
102
{ACAD_REACTORS
330
19
102
}
100
AcDbDictionary
280
     0
281
     1
  0
DICTIONARY
  5
1B
102
{ACAD_REACTORS
330
19
102
}
100
AcDbDictionary
280
     0
281
     1
  3
Standard
350
1C
  0
MLINESTYLE
  5
1C
102
{ACAD_REACTORS
330
1B
102
}
100
AcDbMlineStyle
  2
Standard
 70
     0
  3

 62
     0
 51
90.0
 52
90.0
 71
     2
 49
0.5
 62
   256
  6
ByLayer
 49
-0.5
 62
   256
  6
ByLayer
  0
ACDBDICTIONARYWDFLT
  5
1F
102
{ACAD_REACTORS
330
19
102
}
100
AcDbDictionary
281
     1
  3
Normal
350
1D
100
AcDbDictionaryWithDefault
340
1D
  0
ACDBPLACEHOLDER
  5
1D
102
{ACAD_REACTORS
330
1F
102
}
  0
LAYOUT
  5
20
102
{ACAD_REACTORS
330
1E
102
}
100
AcDbPlotSettings
  1

  2

  4

  6

 40
0.0
 41
0.0
 42
0.0
 43
0.0
 44
0.0
 45
0.0
 46
0.0
 47
0.0
 48
0.0
 49
0.0
140
0.0
141
0.0
142
1.0
143
1.0
 70
  1024
 72
     0
 73
     0
 74
     0
  7

 75
     0
147
1.0
148
0.0
149
0.0
100
AcDbLayout
  1
Model
 70
     0
 71
     0
 10
0.0
 20
0.0
 11
0.0
 21
0.0
 12
0.0
 22
0.0
 32
0.0
 14
0.0
 24
0.0
 34
0.0
 15
0.0
 25
0.0
 35
0.0
146
0.0
 13
0.0
 23
0.0
 33
0.0
 16
0.0
 26
0.0
 36
0.0
 17
0.0
 27
0.0
 37
0.0
 76
     0
330
A
331
0
345
0
346
0
  0
LAYOUT
  5
21
102
{ACAD_REACTORS
330
1E
102
}
100
AcDbPlotSettings
  1

  2

  4

  6

 40
0.0
 41
0.0
 42
0.0
 43
0.0
 44
0.0
 45
0.0
 46
0.0
 47
0.0
 48
0.0
 49
0.0
140
0.0
141
0.0
142
1.0
143
1.0
 70
     0
 72
     0
 73
     0
 74
     0
  7

 75
     0
147
1.0
148
0.0
149
0.0
100
AcDbLayout
  1
Layout1
 70
     0
 71
     0
 10
0.0
 20
0.0
 11
0.0
 21
0.0
 12
0.0
 22
0.0
 32
0.0
 14
0.0
 24
0.0
 34
0.0
 15
0.0
 25
0.0
 35
0.0
146
0.0
 13
0.0
 23
0.0
 33
0.0
 16
0.0
 26
0.0
 36
0.0
 17
0.0
 27
0.0
 37
0.0
 76
     0
330
B
331
0
345
0
346
0
  0
DICTIONARY
  5
1E
102
{ACAD_REACTORS
330
19
102
}
100
AcDbDictionary
280
     0
281
     1
  3
Layout1
350
21
  3
Model
350
20
  0
DICTIONARY
  5
22
102
{ACAD_REACTORS
330
19
102
}
100
AcDbDictionary
280
     0
281
     1
  0
WIPEOUTVARIABLES
  5
23
100
AcDbWipeoutVariables
 70
     1
  0
XRECORD
  5
419
100
AcDbXrecord
280
     1
  1
DWGPROPS COOKIE
  2

  3

  4

  6

  7

  8
HK96464
  9

300
=
301
=
302
=
303
=
304
=
305
=
306
=
307
=
308
=
309
=
 40
0.0
 41
2455943.941771
 42
2455943.941771
  1

 90
        0
  0
ENDSEC
  0
EOF
