  0
SECTION
  2
HEADER
  9
$ACADVER
  1
AC1015
  9
$ACADMAINTVER
 70
     6
  9
$DWGCODEPAGE
  3
ANSI_932
  9
$INSBASE
 10
0.0
 20
0.0
 30
0.0
  9
$EXTMIN
 10
1.000000E+20
 20
1.000000E+20
 30
1.000000E+20
  9
$EXTMAX
 10
-1.000000E+20
 20
-1.000000E+20
 30
-1.000000E+20
  9
$LIMMIN
 10
0.0
 20
0.0
  9
$LIMMAX
 10
0.0
 20
0.0
  9
$ORTHOMODE
 70
     0
  9
$REGENMODE
 70
     1
  9
$FILLMODE
 70
     1
  9
$QTEXTMODE
 70
     0
  9
$MIRRTEXT
 70
     1
  9
$LTSCALE
 40
1.0
  9
$ATTMODE
 70
     1
  9
$TEXTSIZE
 40
7.0
  9
$TRACEWID
 40
0.05
  9
$TEXTSTYLE
  7
Standard
  9
$CLAYER
  8
0
  9
$CELTYPE
  6
Continuous
  9
$CECOLOR
 62
   256
  9
$CELTSCALE
 40
1.0
  9
$DISPSILH
 70
     0
  9
$DIMSCALE
 40
1.0
  9
$DIMASZ
 40
1.931852
  9
$DIMEXO
 40
1.0
  9
$DIMDLI
 40
0.38
  9
$DIMRND
 40
0.0
  9
$DIMDLE
 40
0.0
  9
$DIMEXE
 40
2.0
  9
$DIMTP
 40
0.0
  9
$DIMTM
 40
0.0
  9
$DIMTXT
 40
2.8
  9
$DIMCEN
 40
0.09
  9
$DIMTSZ
 40
0.0
  9
$DIMTOL
 70
     0
  9
$DIMLIM
 70
     0
  9
$DIMTIH
 70
     1
  9
$DIMTOH
 70
     1
  9
$DIMSE1
 70
     0
  9
$DIMSE2
 70
     0
  9
$DIMTAD
 70
     1
  9
$DIMZIN
 70
     0
  9
$DIMBLK
  1

  9
$DIMASO
 70
     1
  9
$DIMSHO
 70
     1
  9
$DIMPOST
  1

  9
$DIMAPOST
  1

  9
$DIMALT
 70
     0
  9
$DIMALTD
 70
     2
  9
$DIMALTF
 40
25.4
  9
$DIMLFAC
 40
1.0
  9
$DIMTOFL
 70
     0
  9
$DIMTVP
 40
0.0
  9
$DIMTIX
 70
     0
  9
$DIMSOXD
 70
     0
  9
$DIMSAH
 70
     0
  9
$DIMBLK1
  1

  9
$DIMBLK2
  1

  9
$DIMSTYLE
  2
Standard
  9
$DIMCLRD
 70
     0
  9
$DIMCLRE
 70
     0
  9
$DIMCLRT
 70
     0
  9
$DIMTFAC
 40
0.714286
  9
$DIMGAP
 40
0.09
  9
$DIMJUST
 70
     0
  9
$DIMSD1
 70
     0
  9
$DIMSD2
 70
     0
  9
$DIMTOLJ
 70
     1
  9
$DIMTZIN
 70
     0
  9
$DIMALTZ
 70
     0
  9
$DIMALTTZ
 70
     0
  9
$DIMUPT
 70
     0
  9
$DIMDEC
 70
     4
  9
$DIMTDEC
 70
     4
  9
$DIMALTU
 70
     2
  9
$DIMALTTD
 70
     2
  9
$DIMTXSTY
  7
Standard
  9
$DIMAUNIT
 70
     0
  9
$DIMADEC
 70
     0
  9
$DIMALTRND
 40
0.0
  9
$DIMAZIN
 70
     0
  9
$DIMDSEP
 70
     0
  9
$DIMATFIT
 70
     3
  9
$DIMFRAC
 70
     0
  9
$DIMLDRBLK
  1

  9
$DIMLUNIT
 70
     2
  9
$DIMLWD
 70
     0
  9
$DIMLWE
 70
     0
  9
$DIMTMOVE
 70
     0
  9
$LUNITS
 70
     2
  9
$LUPREC
 70
     3
  9
$SKETCHINC
 40
0.1
  9
$FILLETRAD
 40
0.0
  9
$AUNITS
 70
     0
  9
$AUPREC
 70
     0
  9
$MENU
  1
acad
  9
$ELEVATION
 40
0.0
  9
$PELEVATION
 40
0.0
  9
$THICKNESS
 40
0.0
  9
$LIMCHECK
 70
     0
  9
$CHAMFERA
 40
0.0
  9
$CHAMFERB
 40
0.0
  9
$CHAMFERC
 40
0.0
  9
$CHAMFERD
 40
0.0
  9
$SKPOLY
 70
     0
  9
$TDCREATE
 40
0.000000000
  9
$TDUCREATE
 40
0.000000000
  9
$TDUPDATE
 40
0.000000000
  9
$TDUUPDATE
 40
0.000000000
  9
$TDINDWG
 40
0.0000000000
  9
$TDUSRTIMER
 40
0.0000000000
  9
$USRTIMER
 70
     1
  9
$ANGBASE
 50
0.0
  9
$ANGDIR
 70
     0
  9
$PDMODE
 70
     0
  9
$PDSIZE
 40
0.0
  9
$PLINEWID
 40
0.0
  9
$SPLFRAME
 70
     0
  9
$SPLINETYPE
 70
     6
  9
$SPLINESEGS
 70
     8
  9
$HANDSEED
  5
613
  9
$SURFTAB1
 70
     6
  9
$SURFTAB2
 70
     6
  9
$SURFTYPE
 70
     6
  9
$SURFU
 70
     6
  9
$SURFV
 70
     6
  9
$UCSBASE
  2

  9
$UCSNAME
  2

  9
$UCSORG
 10
0.0
 20
0.0
 30
0.0
  9
$UCSXDIR
 10
1.0
 20
0.0
 30
0.0
  9
$UCSYDIR
 10
0.0
 20
1.0
 30
0.0
  9
$UCSORTHOREF
  2

  9
$UCSORTHOVIEW
 70
     0
  9
$UCSORGTOP
 10
0.0
 20
0.0
 30
0.0
  9
$UCSORGBOTTOM
 10
0.0
 20
0.0
 30
0.0
  9
$UCSORGLEFT
 10
0.0
 20
0.0
 30
0.0
  9
$UCSORGRIGHT
 10
0.0
 20
0.0
 30
0.0
  9
$UCSORGFRONT
 10
0.0
 20
0.0
 30
0.0
  9
$UCSORGBACK
 10
0.0
 20
0.0
 30
0.0
  9
$PUCSBASE
  2

  9
$PUCSNAME
  2

  9
$PUCSORG
 10
0.0
 20
0.0
 30
0.0
  9
$PUCSXDIR
 10
1.0
 20
0.0
 30
0.0
  9
$PUCSYDIR
 10
0.0
 20
1.0
 30
0.0
  9
$PUCSORTHOREF
  2

  9
$PUCSORTHOVIEW
 70
     0
  9
$PUCSORGTOP
 10
0.0
 20
0.0
 30
0.0
  9
$PUCSORGBOTTOM
 10
0.0
 20
0.0
 30
0.0
  9
$PUCSORGLEFT
 10
0.0
 20
0.0
 30
0.0
  9
$PUCSORGRIGHT
 10
0.0
 20
0.0
 30
0.0
  9
$PUCSORGFRONT
 10
0.0
 20
0.0
 30
0.0
  9
$PUCSORGBACK
 10
0.0
 20
0.0
 30
0.0
  9
$USERI1
 70
     0
  9
$USERI2
 70
     0
  9
$USERI3
 70
     0
  9
$USERI4
 70
     0
  9
$USERI5
 70
     0
  9
$USERR1
 40
0.0
  9
$USERR2
 40
0.0
  9
$USERR3
 40
0.0
  9
$USERR4
 40
0.0
  9
$USERR5
 40
0.0
  9
$WORLDVIEW
 70
     1
  9
$SHADEDGE
 70
     3
  9
$SHADEDIF
 70
    70
  9
$TILEMODE
 70
     1
  9
$MAXACTVP
 70
    16
  9
$PINSBASE
 10
0.0
 20
0.0
 30
0.0
  9
$PLIMCHECK
 70
     0
  9
$PEXTMIN
 10
1.000000E+20
 20
1.000000E+20
 30
1.000000E+20
  9
$PEXTMAX
 10
-1.000000E+20
 20
-1.000000E+20
 30
-1.000000E+20
  9
$PLIMMIN
 10
0.0
 20
0.0
  9
$PLIMMAX
 10
12.0
 20
9.0
  9
$UNITMODE
 70
     0
  9
$VISRETAIN
 70
     0
  9
$PLINEGEN
 70
     1
  9
$PSLTSCALE
 70
     0
  9
$TREEDEPTH
 70
  3020
  9
$CMLSTYLE
  2
Standard
  9
$CMLJUST
 70
     0
  9
$CMLSCALE
 40
1.0
  9
$PROXYGRAPHICS
 70
     0
  9
$MEASUREMENT
 70
     0
  9
$CELWEIGHT
370
     0
  9
$ENDCAPS
280
     0
  9
$JOINSTYLE
280
     0
  9
$LWDISPLAY
290
     0
  9
$INSUNITS
 70
     0
  9
$HYPERLINKBASE
  1

  9
$STYLESHEET
  1

  9
$XEDIT
290
     1
  9
$CEPSNTYPE
380
     0
  9
$PSTYLEMODE
290
     1
  9
$FINGERPRINTGUID
  2

  9
$VERSIONGUID
  2

  9
$EXTNAMES
290
     1
  9
$PSVPSCALE
 40
0.0
  0
ENDSEC
  0
SECTION
  2
CLASSES
  0
CLASS
  1
LWPOLYLINE
  2
AcDbPolyline
  3
AutoCAD 2000
 90
    32768
280
     0
281
     1
  0
CLASS
  1
IMAGE
  2
AcDbRasterImage
  3
ISM
 90
    32895
280
     0
281
     1
  0
CLASS
  1
OLE2FRAME
  2
AcDbOle2Frame
  3
AutoCAD 2000
 90
    32768
280
     0
281
     1
  0
CLASS
  1
HATCH
  2
AcDbHatch
  3
AutoCAD 2000
 90
    32768
280
     0
281
     1
  0
CLASS
  1
DICTIONARYVAR
  2
AcDbDictionaryVar
  3
AutoCAD 2000
 90
    32768
280
     0
281
     0
  0
CLASS
  1
RASTERVARIABLES
  2
AcDbRasterVariables
  3
ISM
 90
    32768
280
     0
281
     0
  0
CLASS
  1
IMAGEDEF
  2
AcDbRasterImageDef
  3
ISM
 90
    32768
280
     0
281
     0
  0
CLASS
  1
IMAGEDEF_REACTOR
  2
AcDbRasterImageDefReactor
  3
ISM
 90
    32769
280
     0
281
     0
  0
CLASS
  1
IDBUFFER
  2
AcDbIdBuffer
  3
AutoCAD 2000
 90
    32768
280
     0
281
     0
  0
CLASS
  1
SPATIAL_FILTER
  2
AcDbSpatialFilter
  3
AutoCAD 2000
 90
    32768
280
     0
281
     0
  0
CLASS
  1
XRECORD
  2
AcDbXrecord
  3
AutoCAD 2000
 90
        0
280
     0
281
     0
  0
CLASS
  1
SORTENTSTABLE
  2
AcDbSortentsTable
  3
AutoCAD 2000
 90
    32768
280
     0
281
     0
  0
CLASS
  1
LAYER_INDEX
  2
AcDbLayerIndex
  3
AutoCAD 2000
 90
    32768
280
     0
281
     0
  0
CLASS
  1
SPATIAL_INDEX
  2
AcDbSpatialIndex
  3
AutoCAD 2000
 90
    32768
280
     0
281
     0
  0
CLASS
  1
OBJECT_PTR
  2
CAseDLPNTableRecord
  3
"ASE-LPNTableRecord"
 90
    32769
280
     0
281
     0
  0
CLASS
  1
LAYOUT
  2
AcDbLayout
  3
AutoCAD 2000
 90
        0
280
     0
281
     0
  0
CLASS
  1
PLOTSETTINGS
  2
AcDbPlotSettings
  3
AutoCAD 2000
 90
    32768
280
     0
281
     0
  0
CLASS
  1
ACDBDICTIONARYWDFLT
  2
AcDbDictionaryWithDefault
  3
AutoCAD 2000
 90
        0
280
     0
281
     0
  0
CLASS
  1
ACDBPLACEHOLDER
  2
AcDbPlaceHolder
  3
AutoCAD 2000
 90
        0
280
     0
281
     0
  0
CLASS
  1
VBA_PROJECT
  2
AcDbVbaProject
  3
acadvba
 90
    32768
280
     0
281
     0
  0
CLASS
  1
WIPEOUT
  2
AcDbWipeout
  3
WipeOut|AutoCAD Express Tool|expresstools@autodesk.com
 90
    32895
280
     0
281
     1
  0
CLASS
  1
WIPEOUTVARIABLES
  2
AcDbWipeoutVariables
  3
WipeOut|AutoCAD Express Tool|expresstools@autodesk.com
 90
        0
280
     0
281
     0
  0
CLASS
  1
RTEXT
  2
RText
  3
RText|AutoCAD Express Tool|expresstools@autodesk.com
 90
    32768
280
     0
281
     1
  0
CLASS
  1
ARCALIGNEDTEXT
  2
AcDbArcAlignedText
  3
ATEXT|AutoCAD Express Tool|expresstools@autodesk.com
 90
    32768
280
     0
281
     1
  0
ENDSEC
  0
SECTION
  2
TABLES
  0
TABLE
  2
VPORT
  5
7
100
AcDbSymbolTable
 70
     1
  0
VPORT
  5
15
100
AcDbSymbolTableRecord
100
AcDbViewportTableRecord
  2
*ACTIVE
 70
     0
 10
0.0
 20
0.0
 11
1.0
 21
1.0
 12
0.0
 22
0.0
 13
0.0
 23
0.0
 14
1.0
 24
1.0
 15
0.0
 25
0.0
 16
0.0
 26
0.0
 36
1.0
 17
0.0
 27
0.0
 37
0.0
 40
100.0
 41
1.0
 42
50.0
 43
0.0
 44
0.0
 50
0.0
 51
0.0
 71
     0
 72
   100
 73
     1
 74
     1
 75
     0
 76
     0
 77
     0
 78
     0
281
     0
 65
     0
110
0.0
120
0.0
130
0.0
111
1.0
121
0.0
131
0.0
112
0.0
122
1.0
132
0.0
345
0
346
0
 79
     0
146
0.0
  0
ENDTAB
  0
TABLE
  2
LTYPE
  5
4
100
AcDbSymbolTable
 70
     7
  0
LTYPE
  5
11
100
AcDbSymbolTableRecord
100
AcDbLinetypeTableRecord
  2
ByBlock
 70
    64
  3

 72
    65
 73
     0
 40
0.0
  0
LTYPE
  5
12
100
AcDbSymbolTableRecord
100
AcDbLinetypeTableRecord
  2
ByLayer
 70
    64
  3

 72
    65
 73
     0
 40
0.0
  0
LTYPE
  5
13
100
AcDbSymbolTableRecord
100
AcDbLinetypeTableRecord
  2
Continuous
 70
    64
  3
Solid line
 72
    65
 73
     0
 40
0.0
  0
LTYPE
  5
24
100
AcDbSymbolTableRecord
100
AcDbLinetypeTableRecord
  2
DASHED
 70
    64
  3
Dashed __ __ __ __ __ __ __ __ __ __ __ __ __ _
 72
    65
 73
     2
 40
0.75
 49
0.5
 74
     0
 49
-0.25
 74
     0
  0
LTYPE
  5
25
100
AcDbSymbolTableRecord
100
AcDbLinetypeTableRecord
  2
CENTER
 70
    64
  3
Center ____ _ ____ _ ____ _ ____ _ ____ _ ____
 72
    65
 73
     4
 40
1.0
 49
0.5
 74
     0
 49
-0.25
 74
     0
 49
0.0
 74
     0
 49
-0.25
 74
     0
  0
LTYPE
  5
26
100
AcDbSymbolTableRecord
100
AcDbLinetypeTableRecord
  2
DIVIDE
 70
    64
  3
Divide ____ . . ____ . . ____ . . ____ . . ____
 72
    65
 73
     6
 40
1.25
 49
0.5
 74
     0
 49
-0.25
 74
     0
 49
0.0
 74
     0
 49
-0.25
 74
     0
 49
0.0
 74
     0
 49
-0.25
 74
     0
  0
LTYPE
  5
27
100
AcDbSymbolTableRecord
100
AcDbLinetypeTableRecord
  2
PHANTOM
 70
    64
  3
Phantom ______  __  __  ______  __  __  ______
 72
    65
 73
     6
 40
9.0
 49
4.3
 74
     0
 49
-0.7
 74
     0
 49
1.3
 74
     0
 49
-0.7
 74
     0
 49
1.3
 74
     0
 49
-0.7
 74
     0
  0
ENDTAB
  0
TABLE
  2
LAYER
  5
2
100
AcDbSymbolTable
 70
     4
  0
LAYER
  5
14
100
AcDbSymbolTableRecord
100
AcDbLayerTableRecord
  2
0
 70
    64
 62
    53
  6
Continuous
290
     1
370
    -3
390
1D
  0
LAYER
  5
28
100
AcDbSymbolTableRecord
100
AcDbLayerTableRecord
  2
3
 70
    64
 62
     4
  6
Continuous
290
     1
370
    -3
390
1D
  0
LAYER
  5
29
100
AcDbSymbolTableRecord
100
AcDbLayerTableRecord
  2
5
 70
    64
 62
   191
  6
Continuous
290
     1
370
    -3
390
1D
  0
LAYER
  5
2A
100
AcDbSymbolTableRecord
100
AcDbLayerTableRecord
  2
55
 70
    64
 62
     3
  6
Continuous
290
     1
370
    -3
390
1D
  0
ENDTAB
  0
TABLE
  2
STYLE
  5
3
100
AcDbSymbolTable
 70
     2
  0
STYLE
  5
17
100
AcDbSymbolTableRecord
100
AcDbTextStyleTableRecord
  2
Standard
 70
     0
 40
0.0
 41
1.0
 50
0.0
 71
     0
 42
0.0
  3
txt
  4

  0
STYLE
  5
49A
100
AcDbSymbolTableRecord
100
AcDbTextStyleTableRecord
  2
ZU_SHPTB00001
 70
     0
 40
0.0
 41
1.0
 50
0.0
 71
     0
 42
0.0
  3
monotxt
  4
bigfont
  0
ENDTAB
  0
TABLE
  2
VIEW
  5
5
100
AcDbSymbolTable
 70
     0
  0
ENDTAB
  0
TABLE
  2
UCS
  5
6
100
AcDbSymbolTable
 70
     0
  0
ENDTAB
  0
TABLE
  2
APPID
  5
8
100
AcDbSymbolTable
 70
     1
  0
APPID
  5
16
100
AcDbSymbolTableRecord
100
AcDbRegAppTableRecord
  2
ACAD
 70
     0
  0
ENDTAB
  0
TABLE
  2
DIMSTYLE
  5
9
100
AcDbSymbolTable
 70
     1
100
AcDbDimStyleTable
 71
     0
  0
DIMSTYLE
105
18
100
AcDbSymbolTableRecord
100
AcDbDimStyleTableRecord
  2
Standard
 70
     0
  3

  4

 40
1.0
 41
0.18
 42
0.0625
 43
0.38
 44
0.18
 45
0.0
 46
0.0
 47
0.0
 48
0.0
 71
     0
 72
     0
 73
     1
 74
     1
 75
     0
 76
     0
 77
     0
 78
     0
 79
     0
140
0.18
141
0.09
142
0.0
143
25.4
144
1.0
145
0.0
146
1.0
147
0.09
148
0.0
170
     0
171
     2
172
     0
173
     0
174
     0
175
     0
176
     0
177
     0
178
     0
179
     0
271
     4
272
     4
273
     2
274
     2
275
     0
276
     0
277
     2
278
    46
279
     0
280
     0
281
     0
282
     0
283
     1
284
     0
285
     0
286
     0
288
     0
340
17
341
0
342
0
343
0
344
0
371
    -2
372
    -2
  0
ENDTAB
  0
TABLE
  2
BLOCK_RECORD
  5
1
100
AcDbSymbolTable
 70
    18
  0
BLOCK_RECORD
  5
A
100
AcDbSymbolTableRecord
100
AcDbBlockTableRecord
  2
*MODEL_SPACE
340
20
  0
BLOCK_RECORD
  5
B
100
AcDbSymbolTableRecord
100
AcDbBlockTableRecord
  2
*PAPER_SPACE
340
21
  0
BLOCK_RECORD
  5
47
100
AcDbSymbolTableRecord
100
AcDbBlockTableRecord
  2
ZU_SYM__USERS_HOME_SYMBOL_STD_SYM_B01_-1
340
0
102
{BLKREFS
331
59
102
}
  0
BLOCK_RECORD
  5
5A
100
AcDbSymbolTableRecord
100
AcDbBlockTableRecord
  2
ZU_SYM__USERS_HOME_SYMBOL_STD_SYM_B01_00001-1
340
0
102
{BLKREFS
331
6C
102
}
  0
BLOCK_RECORD
  5
11C
100
AcDbSymbolTableRecord
100
AcDbBlockTableRecord
  2
ZU_SYM__USERS_HOME_SYMBOL_STD_SYM_B01_00002-1
340
0
102
{BLKREFS
331
127
102
}
  0
BLOCK_RECORD
  5
128
100
AcDbSymbolTableRecord
100
AcDbBlockTableRecord
  2
ZU_SYM__USERS_HOME_SYMBOL_STD_SYM_B01_00003-1
340
0
102
{BLKREFS
331
133
102
}
  0
BLOCK_RECORD
  5
134
100
AcDbSymbolTableRecord
100
AcDbBlockTableRecord
  2
ZU_SYM__USERS_HOME_SYMBOL_STD_SYM_B01_00004-1
340
0
102
{BLKREFS
331
13F
102
}
  0
BLOCK_RECORD
  5
140
100
AcDbSymbolTableRecord
100
AcDbBlockTableRecord
  2
ZU_SYM__USERS_HOME_SYMBOL_STD_SYM_B01_00005-1
340
0
102
{BLKREFS
331
14B
102
}
  0
BLOCK_RECORD
  5
28C
100
AcDbSymbolTableRecord
100
AcDbBlockTableRecord
  2
ZU_SYM__USERS_HOME_SYMBOL_STD_SYM_B01_00006-1
340
0
102
{BLKREFS
331
29B
102
}
  0
BLOCK_RECORD
  5
2AF
100
AcDbSymbolTableRecord
100
AcDbBlockTableRecord
  2
ZU_SYM__USERS_HOME_SYMBOL_STD_SYM_B01_00007-1
340
0
102
{BLKREFS
331
2BE
102
}
  0
BLOCK_RECORD
  5
343
100
AcDbSymbolTableRecord
100
AcDbBlockTableRecord
  2
ZU_SYM__USERS_HOME_SYMBOL_STD_SYM_B01_00008-1
340
0
102
{BLKREFS
331
352
102
}
  0
BLOCK_RECORD
  5
353
100
AcDbSymbolTableRecord
100
AcDbBlockTableRecord
  2
ZU_SYM__USERS_HOME_SYMBOL_STD_SYM_B01_00009-1
340
0
102
{BLKREFS
331
362
102
}
  0
BLOCK_RECORD
  5
3D5
100
AcDbSymbolTableRecord
100
AcDbBlockTableRecord
  2
ZU_SYM__USERS_HOME_SYMBOL_POO_SYM_B20_-1
340
0
102
{BLKREFS
331
3E0
102
}
  0
BLOCK_RECORD
  5
3E1
100
AcDbSymbolTableRecord
100
AcDbBlockTableRecord
  2
ZU_SYM__USERS_HOME_SYMBOL_POO_SYM_B20_00010-1
340
0
102
{BLKREFS
331
3EC
102
}
  0
BLOCK_RECORD
  5
3ED
100
AcDbSymbolTableRecord
100
AcDbBlockTableRecord
  2
ZU_SYM__USERS_HOME_SYMBOL_POO_SYM_B20_00011-1
340
0
102
{BLKREFS
331
3F8
102
}
  0
BLOCK_RECORD
  5
3F9
100
AcDbSymbolTableRecord
100
AcDbBlockTableRecord
  2
ZU_SYM__USERS_HOME_SYMBOL_POO_SYM_B20_00012-1
340
0
102
{BLKREFS
331
404
102
}
  0
BLOCK_RECORD
  5
4A5
100
AcDbSymbolTableRecord
100
AcDbBlockTableRecord
  2
ZU_SYM__USERS_HOME_SYMBOL_STD_SYM_B01_00013-1
340
0
102
{BLKREFS
331
4B7
102
}
  0
BLOCK_RECORD
  5
4B9
100
AcDbSymbolTableRecord
100
AcDbBlockTableRecord
  2
ZU_SYM__USERS_HOME_SYMBOL_STD_SYM_B01_00014-1
340
0
102
{BLKREFS
331
4CB
102
}
  0
BLOCK_RECORD
  5
4CC
100
AcDbSymbolTableRecord
100
AcDbBlockTableRecord
  2
ZU_SYM__USERS_HOME_SYMBOL_STD_SYM_B01_00015-1
340
0
102
{BLKREFS
331
4DE
102
}
  0
BLOCK_RECORD
  5
4DF
100
AcDbSymbolTableRecord
100
AcDbBlockTableRecord
  2
ZU_SYM__USERS_HOME_SYMBOL_STD_SYM_B01_00016-1
340
0
102
{BLKREFS
331
4F1
102
}
  0
ENDTAB
  0
ENDSEC
  0
SECTION
  2
BLOCKS
  0
BLOCK
  5
D
100
AcDbEntity
  8
0
100
AcDbBlockBegin
  2
*MODEL_SPACE
 70
     0
 10
0.0
 20
0.0
 30
0.0
  3
*MODEL_SPACE
  1

  0
ENDBLK
  5
E
100
AcDbEntity
  8
0
100
AcDbBlockEnd
  0
BLOCK
  5
F
100
AcDbEntity
 67
     1
  8
0
100
AcDbBlockBegin
  2
*PAPER_SPACE
 70
     0
 10
0.0
 20
0.0
 30
0.0
  3
*PAPER_SPACE
  1

  0
ENDBLK
  5
10
100
AcDbEntity
 67
     1
  8
0
100
AcDbBlockEnd
  0
BLOCK
  5
48
100
AcDbEntity
  8
0
100
AcDbBlockBegin
  2
ZU_SYM__USERS_HOME_SYMBOL_STD_SYM_B01_-1
 70
    64
 10
0.0
 20
0.0
 30
0.0
  3
ZU_SYM__USERS_HOME_SYMBOL_STD_SYM_B01_-1
  1

  0
POINT
  5
49
100
AcDbEntity
  8
0
370
    -3
  6
Continuous
100
AcDbPoint
 10
0.0
 20
0.0
 30
0.0
  0
LINE
  5
4A
100
AcDbEntity
  8
0
370
    -3
  6
Continuous
100
AcDbLine
 10
-0.000025
 20
-4.599994
 30
0.0
 11
-4.300015
 21
-4.599977
 31
0.0
  0
LINE
  5
4B
100
AcDbEntity
  8
0
370
    -3
  6
Continuous
100
AcDbLine
 10
-4.299996
 20
-4.599962
 30
0.0
 11
-4.79999
 21
-3.899959
 31
0.0
  0
LINE
  5
4C
100
AcDbEntity
  8
0
370
    -3
  6
Continuous
100
AcDbLine
 10
-4.80001
 20
-3.899973
 30
0.0
 11
-4.799979
 21
3.900012
 31
0.0
  0
LINE
  5
4D
100
AcDbEntity
  8
0
370
    -3
  6
Continuous
100
AcDbLine
 10
-4.799962
 20
3.900001
 30
0.0
 11
-4.299962
 21
4.599999
 31
0.0
  0
LINE
  5
4E
100
AcDbEntity
  8
0
370
    -3
  6
Continuous
100
AcDbLine
 10
-4.299978
 20
4.600015
 30
0.0
 11
0.000013
 21
4.599998
 31
0.0
  0
LINE
  5
4F
100
AcDbEntity
  8
0
370
    -3
  6
Continuous
100
AcDbLine
 10
0.000016
 20
4.599992
 30
0.0
 11
-0.000021
 21
-4.599992
 31
0.0
  0
LINE
  5
50
100
AcDbEntity
  8
0
370
    -3
  6
Continuous
100
AcDbLine
 10
-4.300006
 20
-2.29998
 30
0.0
 11
-1.300007
 21
-2.299992
 31
0.0
  0
LINE
  5
51
100
AcDbEntity
  8
0
370
    -3
  6
Continuous
100
AcDbLine
 10
-4.299987
 20
2.300014
 30
0.0
 11
-1.29999
 21
2.300004
 31
0.0
  0
ARC
  5
52
100
AcDbEntity
  8
0
370
    -3
  6
Continuous
100
AcDbCircle
 10
-3.230014
 20
-3.449986
 30
0.0
 40
1.57
100
AcDbArc
 50
132.899744
 51
179.999745
  0
ARC
  5
53
100
AcDbEntity
  8
0
370
    -3
  6
Continuous
100
AcDbCircle
 10
-3.229986
 20
3.450012
 30
0.0
 40
1.57
100
AcDbArc
 50
179.999745
 51
227.099746
  0
ARC
  5
54
100
AcDbEntity
  8
0
370
    -3
  6
Continuous
100
AcDbCircle
 10
0.740001
 20
-0.000003
 30
0.0
 40
5.539999
100
AcDbArc
 50
155.470187
 51
204.52925
  0
LINE
  5
55
100
AcDbEntity
  8
0
370
    -3
  6
Continuous
100
AcDbLine
 10
-1.300018
 20
-4.599993
 30
0.0
 11
-1.299981
 21
4.600004
 31
0.0
  0
LINE
  5
56
100
AcDbEntity
  8
0
370
    -3
  6
Continuous
100
AcDbLine
 10
-1.3
 20
-0.299995
 30
0.0
 11
-0.000004
 21
-0.000001
 31
0.0
  0
LINE
  5
57
100
AcDbEntity
  8
0
370
    -3
  6
Continuous
100
AcDbLine
 10
-1.299999
 20
0.300007
 30
0.0
 11
-0.000001
 21
0.600002
 31
0.0
  0
ENDBLK
  5
58
100
AcDbEntity
  8
0
100
AcDbBlockEnd
  0
BLOCK
  5
5B
100
AcDbEntity
  8
0
100
AcDbBlockBegin
  2
ZU_SYM__USERS_HOME_SYMBOL_STD_SYM_B01_00001-1
 70
    64
 10
0.0
 20
0.0
 30
0.0
  3
ZU_SYM__USERS_HOME_SYMBOL_STD_SYM_B01_00001-1
  1

  0
POINT
  5
5C
100
AcDbEntity
  8
0
370
    -3
  6
Continuous
100
AcDbPoint
 10
0.0
 20
0.0
 30
0.0
  0
LINE
  5
5D
100
AcDbEntity
  8
0
370
    -3
  6
Continuous
100
AcDbLine
 10
-0.000025
 20
-4.599994
 30
0.0
 11
-4.300015
 21
-4.599977
 31
0.0
  0
LINE
  5
5E
100
AcDbEntity
  8
0
370
    -3
  6
Continuous
100
AcDbLine
 10
-4.299996
 20
-4.599962
 30
0.0
 11
-4.79999
 21
-3.899959
 31
0.0
  0
LINE
  5
5F
100
AcDbEntity
  8
0
370
    -3
  6
Continuous
100
AcDbLine
 10
-4.80001
 20
-3.899973
 30
0.0
 11
-4.799979
 21
3.900012
 31
0.0
  0
LINE
  5
60
100
AcDbEntity
  8
0
370
    -3
  6
Continuous
100
AcDbLine
 10
-4.799962
 20
3.900001
 30
0.0
 11
-4.299962
 21
4.599999
 31
0.0
  0
LINE
  5
61
100
AcDbEntity
  8
0
370
    -3
  6
Continuous
100
AcDbLine
 10
-4.299978
 20
4.600015
 30
0.0
 11
0.000013
 21
4.599998
 31
0.0
  0
LINE
  5
62
100
AcDbEntity
  8
0
370
    -3
  6
Continuous
100
AcDbLine
 10
0.000016
 20
4.599992
 30
0.0
 11
-0.000021
 21
-4.599992
 31
0.0
  0
LINE
  5
63
100
AcDbEntity
  8
0
370
    -3
  6
Continuous
100
AcDbLine
 10
-4.300006
 20
-2.29998
 30
0.0
 11
-1.300007
 21
-2.299992
 31
0.0
  0
LINE
  5
64
100
AcDbEntity
  8
0
370
    -3
  6
Continuous
100
AcDbLine
 10
-4.299987
 20
2.300014
 30
0.0
 11
-1.29999
 21
2.300004
 31
0.0
  0
ARC
  5
65
100
AcDbEntity
  8
0
370
    -3
  6
Continuous
100
AcDbCircle
 10
-3.230014
 20
-3.449986
 30
0.0
 40
1.57
100
AcDbArc
 50
132.899744
 51
179.999745
  0
ARC
  5
66
100
AcDbEntity
  8
0
370
    -3
  6
Continuous
100
AcDbCircle
 10
-3.229986
 20
3.450012
 30
0.0
 40
1.57
100
AcDbArc
 50
179.999745
 51
227.099746
  0
ARC
  5
67
100
AcDbEntity
  8
0
370
    -3
  6
Continuous
100
AcDbCircle
 10
0.740001
 20
-0.000003
 30
0.0
 40
5.539999
100
AcDbArc
 50
155.470187
 51
204.52925
  0
LINE
  5
68
100
AcDbEntity
  8
0
370
    -3
  6
Continuous
100
AcDbLine
 10
-1.300018
 20
-4.599993
 30
0.0
 11
-1.299981
 21
4.600004
 31
0.0
  0
LINE
  5
69
100
AcDbEntity
  8
0
370
    -3
  6
Continuous
100
AcDbLine
 10
-1.3
 20
-0.299995
 30
0.0
 11
-0.000004
 21
-0.000001
 31
0.0
  0
LINE
  5
6A
100
AcDbEntity
  8
0
370
    -3
  6
Continuous
100
AcDbLine
 10
-1.299999
 20
0.300007
 30
0.0
 11
-0.000001
 21
0.600002
 31
0.0
  0
ENDBLK
  5
6B
100
AcDbEntity
  8
0
100
AcDbBlockEnd
  0
BLOCK
  5
11D
100
AcDbEntity
  8
0
100
AcDbBlockBegin
  2
ZU_SYM__USERS_HOME_SYMBOL_STD_SYM_B01_00002-1
 70
    64
 10
0.0
 20
0.0
 30
0.0
  3
ZU_SYM__USERS_HOME_SYMBOL_STD_SYM_B01_00002-1
  1

  0
CIRCLE
  5
11E
100
AcDbEntity
  8
0
370
    -3
  6
Continuous
100
AcDbCircle
 10
0.0
 20
0.0
 30
0.0
 40
4.0
  0
LINE
  5
11F
100
AcDbEntity
  8
0
370
    -3
  6
Continuous
100
AcDbLine
 10
2.299999
 20
-4.0
 30
0.0
 11
-2.299999
 21
-4.0
 31
0.0
  0
LINE
  5
120
100
AcDbEntity
  8
0
370
    -3
  6
Continuous
100
AcDbLine
 10
4.6
 20
-0.000001
 30
0.0
 11
2.300001
 21
-4.0
 31
0.0
  0
LINE
  5
121
100
AcDbEntity
  8
0
370
    -3
  6
Continuous
100
AcDbLine
 10
2.300001
 20
4.0
 30
0.0
 11
4.6
 21
0.000001
 31
0.0
  0
LINE
  5
122
100
AcDbEntity
  8
0
370
    -3
  6
Continuous
100
AcDbLine
 10
-2.299999
 20
4.0
 30
0.0
 11
2.299999
 21
4.0
 31
0.0
  0
LINE
  5
123
100
AcDbEntity
  8
0
370
    -3
  6
Continuous
100
AcDbLine
 10
-4.6
 20
0.000001
 30
0.0
 11
-2.300001
 21
4.0
 31
0.0
  0
LINE
  5
124
100
AcDbEntity
  8
0
370
    -3
  6
Continuous
100
AcDbLine
 10
-2.300001
 20
-4.0
 30
0.0
 11
-4.6
 21
-0.000001
 31
0.0
  0
POINT
  5
125
100
AcDbEntity
  8
0
370
    -3
  6
Continuous
100
AcDbPoint
 10
0.0
 20
0.0
 30
0.0
  0
ENDBLK
  5
126
100
AcDbEntity
  8
0
100
AcDbBlockEnd
  0
BLOCK
  5
129
100
AcDbEntity
  8
0
100
AcDbBlockBegin
  2
ZU_SYM__USERS_HOME_SYMBOL_STD_SYM_B01_00003-1
 70
    64
 10
0.0
 20
0.0
 30
0.0
  3
ZU_SYM__USERS_HOME_SYMBOL_STD_SYM_B01_00003-1
  1

  0
CIRCLE
  5
12A
100
AcDbEntity
  8
0
370
    -3
  6
Continuous
100
AcDbCircle
 10
0.0
 20
0.0
 30
0.0
 40
4.0
  0
LINE
  5
12B
100
AcDbEntity
  8
0
370
    -3
  6
Continuous
100
AcDbLine
 10
2.299999
 20
-4.0
 30
0.0
 11
-2.299999
 21
-4.0
 31
0.0
  0
LINE
  5
12C
100
AcDbEntity
  8
0
370
    -3
  6
Continuous
100
AcDbLine
 10
4.6
 20
-0.000001
 30
0.0
 11
2.300001
 21
-4.0
 31
0.0
  0
LINE
  5
12D
100
AcDbEntity
  8
0
370
    -3
  6
Continuous
100
AcDbLine
 10
2.300001
 20
4.0
 30
0.0
 11
4.6
 21
0.000001
 31
0.0
  0
LINE
  5
12E
100
AcDbEntity
  8
0
370
    -3
  6
Continuous
100
AcDbLine
 10
-2.299999
 20
4.0
 30
0.0
 11
2.299999
 21
4.0
 31
0.0
  0
LINE
  5
12F
100
AcDbEntity
  8
0
370
    -3
  6
Continuous
100
AcDbLine
 10
-4.6
 20
0.000001
 30
0.0
 11
-2.300001
 21
4.0
 31
0.0
  0
LINE
  5
130
100
AcDbEntity
  8
0
370
    -3
  6
Continuous
100
AcDbLine
 10
-2.300001
 20
-4.0
 30
0.0
 11
-4.6
 21
-0.000001
 31
0.0
  0
POINT
  5
131
100
AcDbEntity
  8
0
370
    -3
  6
Continuous
100
AcDbPoint
 10
0.0
 20
0.0
 30
0.0
  0
ENDBLK
  5
132
100
AcDbEntity
  8
0
100
AcDbBlockEnd
  0
BLOCK
  5
135
100
AcDbEntity
  8
0
100
AcDbBlockBegin
  2
ZU_SYM__USERS_HOME_SYMBOL_STD_SYM_B01_00004-1
 70
    64
 10
0.0
 20
0.0
 30
0.0
  3
ZU_SYM__USERS_HOME_SYMBOL_STD_SYM_B01_00004-1
  1

  0
CIRCLE
  5
136
100
AcDbEntity
  8
0
370
    -3
  6
Continuous
100
AcDbCircle
 10
0.0
 20
0.0
 30
0.0
 40
4.0
  0
LINE
  5
137
100
AcDbEntity
  8
0
370
    -3
  6
Continuous
100
AcDbLine
 10
2.299999
 20
-4.0
 30
0.0
 11
-2.299999
 21
-4.0
 31
0.0
  0
LINE
  5
138
100
AcDbEntity
  8
0
370
    -3
  6
Continuous
100
AcDbLine
 10
4.6
 20
-0.000001
 30
0.0
 11
2.300001
 21
-4.0
 31
0.0
  0
LINE
  5
139
100
AcDbEntity
  8
0
370
    -3
  6
Continuous
100
AcDbLine
 10
2.300001
 20
4.0
 30
0.0
 11
4.6
 21
0.000001
 31
0.0
  0
LINE
  5
13A
100
AcDbEntity
  8
0
370
    -3
  6
Continuous
100
AcDbLine
 10
-2.299999
 20
4.0
 30
0.0
 11
2.299999
 21
4.0
 31
0.0
  0
LINE
  5
13B
100
AcDbEntity
  8
0
370
    -3
  6
Continuous
100
AcDbLine
 10
-4.6
 20
0.000001
 30
0.0
 11
-2.300001
 21
4.0
 31
0.0
  0
LINE
  5
13C
100
AcDbEntity
  8
0
370
    -3
  6
Continuous
100
AcDbLine
 10
-2.300001
 20
-4.0
 30
0.0
 11
-4.6
 21
-0.000001
 31
0.0
  0
POINT
  5
13D
100
AcDbEntity
  8
0
370
    -3
  6
Continuous
100
AcDbPoint
 10
0.0
 20
0.0
 30
0.0
  0
ENDBLK
  5
13E
100
AcDbEntity
  8
0
100
AcDbBlockEnd
  0
BLOCK
  5
141
100
AcDbEntity
  8
0
100
AcDbBlockBegin
  2
ZU_SYM__USERS_HOME_SYMBOL_STD_SYM_B01_00005-1
 70
    64
 10
0.0
 20
0.0
 30
0.0
  3
ZU_SYM__USERS_HOME_SYMBOL_STD_SYM_B01_00005-1
  1

  0
CIRCLE
  5
142
100
AcDbEntity
  8
0
370
    -3
  6
Continuous
100
AcDbCircle
 10
0.0
 20
0.0
 30
0.0
 40
4.0
  0
LINE
  5
143
100
AcDbEntity
  8
0
370
    -3
  6
Continuous
100
AcDbLine
 10
2.299999
 20
-4.0
 30
0.0
 11
-2.299999
 21
-4.0
 31
0.0
  0
LINE
  5
144
100
AcDbEntity
  8
0
370
    -3
  6
Continuous
100
AcDbLine
 10
4.6
 20
-0.000001
 30
0.0
 11
2.300001
 21
-4.0
 31
0.0
  0
LINE
  5
145
100
AcDbEntity
  8
0
370
    -3
  6
Continuous
100
AcDbLine
 10
2.300001
 20
4.0
 30
0.0
 11
4.6
 21
0.000001
 31
0.0
  0
LINE
  5
146
100
AcDbEntity
  8
0
370
    -3
  6
Continuous
100
AcDbLine
 10
-2.299999
 20
4.0
 30
0.0
 11
2.299999
 21
4.0
 31
0.0
  0
LINE
  5
147
100
AcDbEntity
  8
0
370
    -3
  6
Continuous
100
AcDbLine
 10
-4.6
 20
0.000001
 30
0.0
 11
-2.300001
 21
4.0
 31
0.0
  0
LINE
  5
148
100
AcDbEntity
  8
0
370
    -3
  6
Continuous
100
AcDbLine
 10
-2.300001
 20
-4.0
 30
0.0
 11
-4.6
 21
-0.000001
 31
0.0
  0
POINT
  5
149
100
AcDbEntity
  8
0
370
    -3
  6
Continuous
100
AcDbPoint
 10
0.0
 20
0.0
 30
0.0
  0
ENDBLK
  5
14A
100
AcDbEntity
  8
0
100
AcDbBlockEnd
  0
BLOCK
  5
28D
100
AcDbEntity
  8
0
100
AcDbBlockBegin
  2
ZU_SYM__USERS_HOME_SYMBOL_STD_SYM_B01_00006-1
 70
    64
 10
0.0
 20
0.0
 30
0.0
  3
ZU_SYM__USERS_HOME_SYMBOL_STD_SYM_B01_00006-1
  1

  0
ARC
  5
28E
100
AcDbEntity
  8
0
370
    -3
  6
Continuous
100
AcDbCircle
 10
2.040001
 20
-0.000008
 30
0.0
 40
5.539999
100
AcDbArc
 50
155.470187
 51
204.52925
  0
ARC
  5
28F
100
AcDbEntity
  8
0
370
    -3
  6
Continuous
100
AcDbCircle
 10
-1.929986
 20
3.450007
 30
0.0
 40
1.57
100
AcDbArc
 50
179.999745
 51
227.099746
  0
ARC
  5
290
100
AcDbEntity
  8
0
370
    -3
  6
Continuous
100
AcDbCircle
 10
-1.930014
 20
-3.449991
 30
0.0
 40
1.57
100
AcDbArc
 50
132.899744
 51
179.999745
  0
LINE
  5
291
100
AcDbEntity
  8
0
370
    -3
  6
Continuous
100
AcDbLine
 10
-2.999989
 20
2.300011
 30
0.0
 11
0.000009
 21
2.3
 31
0.0
  0
LINE
  5
292
100
AcDbEntity
  8
0
370
    -3
  6
Continuous
100
AcDbLine
 10
-3.000008
 20
-2.299986
 30
0.0
 11
-0.000008
 21
-2.299998
 31
0.0
  0
LINE
  5
293
100
AcDbEntity
  8
0
370
    -3
  6
Continuous
100
AcDbLine
 10
0.000019
 20
4.6
 30
0.0
 11
-0.000019
 21
-4.6
 31
0.0
  0
LINE
  5
294
100
AcDbEntity
  8
0
370
    -3
  6
Continuous
100
AcDbLine
 10
-2.999979
 20
4.600012
 30
0.0
 11
0.000019
 21
4.600001
 31
0.0
  0
LINE
  5
295
100
AcDbEntity
  8
0
370
    -3
  6
Continuous
100
AcDbLine
 10
-3.499965
 20
3.9
 30
0.0
 11
-2.999964
 21
4.599998
 31
0.0
  0
LINE
  5
296
100
AcDbEntity
  8
0
370
    -3
  6
Continuous
100
AcDbLine
 10
-3.500012
 20
-3.89998
 30
0.0
 11
-3.49998
 21
3.90001
 31
0.0
  0
LINE
  5
297
100
AcDbEntity
  8
0
370
    -3
  6
Continuous
100
AcDbLine
 10
-2.999996
 20
-4.59997
 30
0.0
 11
-3.499991
 21
-3.899967
 31
0.0
  0
LINE
  5
298
100
AcDbEntity
  8
0
370
    -3
  6
Continuous
100
AcDbLine
 10
-0.000018
 20
-4.599998
 30
0.0
 11
-3.000017
 21
-4.599986
 31
0.0
  0
POINT
  5
299
100
AcDbEntity
  8
0
370
    -3
  6
Continuous
100
AcDbPoint
 10
0.0
 20
0.0
 30
0.0
  0
ENDBLK
  5
29A
100
AcDbEntity
  8
0
100
AcDbBlockEnd
  0
BLOCK
  5
2B0
100
AcDbEntity
  8
0
100
AcDbBlockBegin
  2
ZU_SYM__USERS_HOME_SYMBOL_STD_SYM_B01_00007-1
 70
    64
 10
0.0
 20
0.0
 30
0.0
  3
ZU_SYM__USERS_HOME_SYMBOL_STD_SYM_B01_00007-1
  1

  0
ARC
  5
2B1
100
AcDbEntity
  8
0
370
    -3
  6
Continuous
100
AcDbCircle
 10
2.040001
 20
-0.000008
 30
0.0
 40
5.539999
100
AcDbArc
 50
155.470187
 51
204.52925
  0
ARC
  5
2B2
100
AcDbEntity
  8
0
370
    -3
  6
Continuous
100
AcDbCircle
 10
-1.929986
 20
3.450007
 30
0.0
 40
1.57
100
AcDbArc
 50
179.999745
 51
227.099746
  0
ARC
  5
2B3
100
AcDbEntity
  8
0
370
    -3
  6
Continuous
100
AcDbCircle
 10
-1.930014
 20
-3.449991
 30
0.0
 40
1.57
100
AcDbArc
 50
132.899744
 51
179.999745
  0
LINE
  5
2B4
100
AcDbEntity
  8
0
370
    -3
  6
Continuous
100
AcDbLine
 10
-2.999989
 20
2.300011
 30
0.0
 11
0.000009
 21
2.3
 31
0.0
  0
LINE
  5
2B5
100
AcDbEntity
  8
0
370
    -3
  6
Continuous
100
AcDbLine
 10
-3.000008
 20
-2.299986
 30
0.0
 11
-0.000008
 21
-2.299998
 31
0.0
  0
LINE
  5
2B6
100
AcDbEntity
  8
0
370
    -3
  6
Continuous
100
AcDbLine
 10
0.000019
 20
4.6
 30
0.0
 11
-0.000019
 21
-4.6
 31
0.0
  0
LINE
  5
2B7
100
AcDbEntity
  8
0
370
    -3
  6
Continuous
100
AcDbLine
 10
-2.999979
 20
4.600012
 30
0.0
 11
0.000019
 21
4.600001
 31
0.0
  0
LINE
  5
2B8
100
AcDbEntity
  8
0
370
    -3
  6
Continuous
100
AcDbLine
 10
-3.499965
 20
3.9
 30
0.0
 11
-2.999964
 21
4.599998
 31
0.0
  0
LINE
  5
2B9
100
AcDbEntity
  8
0
370
    -3
  6
Continuous
100
AcDbLine
 10
-3.500012
 20
-3.89998
 30
0.0
 11
-3.49998
 21
3.90001
 31
0.0
  0
LINE
  5
2BA
100
AcDbEntity
  8
0
370
    -3
  6
Continuous
100
AcDbLine
 10
-2.999996
 20
-4.59997
 30
0.0
 11
-3.499991
 21
-3.899967
 31
0.0
  0
LINE
  5
2BB
100
AcDbEntity
  8
0
370
    -3
  6
Continuous
100
AcDbLine
 10
-0.000018
 20
-4.599998
 30
0.0
 11
-3.000017
 21
-4.599986
 31
0.0
  0
POINT
  5
2BC
100
AcDbEntity
  8
0
370
    -3
  6
Continuous
100
AcDbPoint
 10
0.0
 20
0.0
 30
0.0
  0
ENDBLK
  5
2BD
100
AcDbEntity
  8
0
100
AcDbBlockEnd
  0
BLOCK
  5
344
100
AcDbEntity
  8
0
100
AcDbBlockBegin
  2
ZU_SYM__USERS_HOME_SYMBOL_STD_SYM_B01_00008-1
 70
    64
 10
0.0
 20
0.0
 30
0.0
  3
ZU_SYM__USERS_HOME_SYMBOL_STD_SYM_B01_00008-1
  1

  0
POINT
  5
345
100
AcDbEntity
  8
0
370
    -3
  6
Continuous
100
AcDbPoint
 10
0.0
 20
0.0
 30
0.0
  0
LINE
  5
346
100
AcDbEntity
  8
0
370
    -3
  6
Continuous
100
AcDbLine
 10
-0.000018
 20
-4.599998
 30
0.0
 11
-3.000017
 21
-4.599986
 31
0.0
  0
LINE
  5
347
100
AcDbEntity
  8
0
370
    -3
  6
Continuous
100
AcDbLine
 10
-2.999996
 20
-4.59997
 30
0.0
 11
-3.499991
 21
-3.899967
 31
0.0
  0
LINE
  5
348
100
AcDbEntity
  8
0
370
    -3
  6
Continuous
100
AcDbLine
 10
-3.500012
 20
-3.89998
 30
0.0
 11
-3.49998
 21
3.90001
 31
0.0
  0
LINE
  5
349
100
AcDbEntity
  8
0
370
    -3
  6
Continuous
100
AcDbLine
 10
-3.499965
 20
3.9
 30
0.0
 11
-2.999964
 21
4.599998
 31
0.0
  0
LINE
  5
34A
100
AcDbEntity
  8
0
370
    -3
  6
Continuous
100
AcDbLine
 10
-2.999979
 20
4.600012
 30
0.0
 11
0.000019
 21
4.600001
 31
0.0
  0
LINE
  5
34B
100
AcDbEntity
  8
0
370
    -3
  6
Continuous
100
AcDbLine
 10
0.000019
 20
4.6
 30
0.0
 11
-0.000019
 21
-4.6
 31
0.0
  0
LINE
  5
34C
100
AcDbEntity
  8
0
370
    -3
  6
Continuous
100
AcDbLine
 10
-3.000008
 20
-2.299986
 30
0.0
 11
-0.000008
 21
-2.299998
 31
0.0
  0
LINE
  5
34D
100
AcDbEntity
  8
0
370
    -3
  6
Continuous
100
AcDbLine
 10
-2.999989
 20
2.300011
 30
0.0
 11
0.000009
 21
2.3
 31
0.0
  0
ARC
  5
34E
100
AcDbEntity
  8
0
370
    -3
  6
Continuous
100
AcDbCircle
 10
-1.930014
 20
-3.449991
 30
0.0
 40
1.57
100
AcDbArc
 50
132.899744
 51
179.999745
  0
ARC
  5
34F
100
AcDbEntity
  8
0
370
    -3
  6
Continuous
100
AcDbCircle
 10
-1.929986
 20
3.450007
 30
0.0
 40
1.57
100
AcDbArc
 50
179.999745
 51
227.099746
  0
ARC
  5
350
100
AcDbEntity
  8
0
370
    -3
  6
Continuous
100
AcDbCircle
 10
2.040001
 20
-0.000008
 30
0.0
 40
5.539999
100
AcDbArc
 50
155.470187
 51
204.52925
  0
ENDBLK
  5
351
100
AcDbEntity
  8
0
100
AcDbBlockEnd
  0
BLOCK
  5
354
100
AcDbEntity
  8
0
100
AcDbBlockBegin
  2
ZU_SYM__USERS_HOME_SYMBOL_STD_SYM_B01_00009-1
 70
    64
 10
0.0
 20
0.0
 30
0.0
  3
ZU_SYM__USERS_HOME_SYMBOL_STD_SYM_B01_00009-1
  1

  0
POINT
  5
355
100
AcDbEntity
  8
0
370
    -3
  6
Continuous
100
AcDbPoint
 10
0.0
 20
0.0
 30
0.0
  0
LINE
  5
356
100
AcDbEntity
  8
0
370
    -3
  6
Continuous
100
AcDbLine
 10
-0.000018
 20
-4.599998
 30
0.0
 11
-3.000017
 21
-4.599986
 31
0.0
  0
LINE
  5
357
100
AcDbEntity
  8
0
370
    -3
  6
Continuous
100
AcDbLine
 10
-2.999996
 20
-4.59997
 30
0.0
 11
-3.499991
 21
-3.899967
 31
0.0
  0
LINE
  5
358
100
AcDbEntity
  8
0
370
    -3
  6
Continuous
100
AcDbLine
 10
-3.500012
 20
-3.89998
 30
0.0
 11
-3.49998
 21
3.90001
 31
0.0
  0
LINE
  5
359
100
AcDbEntity
  8
0
370
    -3
  6
Continuous
100
AcDbLine
 10
-3.499965
 20
3.9
 30
0.0
 11
-2.999964
 21
4.599998
 31
0.0
  0
LINE
  5
35A
100
AcDbEntity
  8
0
370
    -3
  6
Continuous
100
AcDbLine
 10
-2.999979
 20
4.600012
 30
0.0
 11
0.000019
 21
4.600001
 31
0.0
  0
LINE
  5
35B
100
AcDbEntity
  8
0
370
    -3
  6
Continuous
100
AcDbLine
 10
0.000019
 20
4.6
 30
0.0
 11
-0.000019
 21
-4.6
 31
0.0
  0
LINE
  5
35C
100
AcDbEntity
  8
0
370
    -3
  6
Continuous
100
AcDbLine
 10
-3.000008
 20
-2.299986
 30
0.0
 11
-0.000008
 21
-2.299998
 31
0.0
  0
LINE
  5
35D
100
AcDbEntity
  8
0
370
    -3
  6
Continuous
100
AcDbLine
 10
-2.999989
 20
2.300011
 30
0.0
 11
0.000009
 21
2.3
 31
0.0
  0
ARC
  5
35E
100
AcDbEntity
  8
0
370
    -3
  6
Continuous
100
AcDbCircle
 10
-1.930014
 20
-3.449991
 30
0.0
 40
1.57
100
AcDbArc
 50
132.899744
 51
179.999745
  0
ARC
  5
35F
100
AcDbEntity
  8
0
370
    -3
  6
Continuous
100
AcDbCircle
 10
-1.929986
 20
3.450007
 30
0.0
 40
1.57
100
AcDbArc
 50
179.999745
 51
227.099746
  0
ARC
  5
360
100
AcDbEntity
  8
0
370
    -3
  6
Continuous
100
AcDbCircle
 10
2.040001
 20
-0.000008
 30
0.0
 40
5.539999
100
AcDbArc
 50
155.470187
 51
204.52925
  0
ENDBLK
  5
361
100
AcDbEntity
  8
0
100
AcDbBlockEnd
  0
BLOCK
  5
3D6
100
AcDbEntity
  8
0
100
AcDbBlockBegin
  2
ZU_SYM__USERS_HOME_SYMBOL_POO_SYM_B20_-1
 70
    64
 10
0.0
 20
0.0
 30
0.0
  3
ZU_SYM__USERS_HOME_SYMBOL_POO_SYM_B20_-1
  1

  0
LINE
  5
3D7
100
AcDbEntity
  8
0
370
    -3
  6
Continuous
100
AcDbLine
 10
2.499999
 20
-1.443374
 30
0.0
 11
-0.000005
 21
-2.886748
 31
0.0
  0
LINE
  5
3D8
100
AcDbEntity
  8
0
370
    -3
  6
Continuous
100
AcDbLine
 10
0.000005
 20
2.886748
 30
0.0
 11
-2.5
 21
1.443377
 31
0.0
  0
LINE
  5
3D9
100
AcDbEntity
  8
0
370
    -3
  6
Continuous
100
AcDbLine
 10
-0.000006
 20
-2.886747
 30
0.0
 11
-2.499998
 21
-1.443372
 31
0.0
  0
LINE
  5
3DA
100
AcDbEntity
  8
0
370
    -3
  6
Continuous
100
AcDbLine
 10
0.000005
 20
2.886749
 30
0.0
 11
2.499999
 21
1.443372
 31
0.0
  0
LINE
  5
3DB
100
AcDbEntity
  8
0
370
    -3
  6
Continuous
100
AcDbLine
 10
2.499998
 20
1.443372
 30
0.0
 11
2.499999
 21
-1.443374
 31
0.0
  0
LINE
  5
3DC
100
AcDbEntity
  8
0
370
    -3
  6
Continuous
100
AcDbLine
 10
-2.499998
 20
-1.443372
 30
0.0
 11
-2.499999
 21
1.443378
 31
0.0
  0
POINT
  5
3DD
100
AcDbEntity
  8
0
370
    -3
  6
Continuous
100
AcDbPoint
 10
0.0
 20
0.0
 30
0.0
  0
CIRCLE
  5
3DE
100
AcDbEntity
  8
0
370
    -3
  6
Continuous
100
AcDbCircle
 10
0.0
 20
0.0
 30
0.0
 40
5.0
  0
ENDBLK
  5
3DF
100
AcDbEntity
  8
0
100
AcDbBlockEnd
  0
BLOCK
  5
3E2
100
AcDbEntity
  8
0
100
AcDbBlockBegin
  2
ZU_SYM__USERS_HOME_SYMBOL_POO_SYM_B20_00010-1
 70
    64
 10
0.0
 20
0.0
 30
0.0
  3
ZU_SYM__USERS_HOME_SYMBOL_POO_SYM_B20_00010-1
  1

  0
LINE
  5
3E3
100
AcDbEntity
  8
0
370
    -3
  6
Continuous
100
AcDbLine
 10
2.499999
 20
-1.443374
 30
0.0
 11
-0.000005
 21
-2.886748
 31
0.0
  0
LINE
  5
3E4
100
AcDbEntity
  8
0
370
    -3
  6
Continuous
100
AcDbLine
 10
0.000005
 20
2.886748
 30
0.0
 11
-2.5
 21
1.443377
 31
0.0
  0
LINE
  5
3E5
100
AcDbEntity
  8
0
370
    -3
  6
Continuous
100
AcDbLine
 10
-0.000006
 20
-2.886747
 30
0.0
 11
-2.499998
 21
-1.443372
 31
0.0
  0
LINE
  5
3E6
100
AcDbEntity
  8
0
370
    -3
  6
Continuous
100
AcDbLine
 10
0.000005
 20
2.886749
 30
0.0
 11
2.499999
 21
1.443372
 31
0.0
  0
LINE
  5
3E7
100
AcDbEntity
  8
0
370
    -3
  6
Continuous
100
AcDbLine
 10
2.499998
 20
1.443372
 30
0.0
 11
2.499999
 21
-1.443374
 31
0.0
  0
LINE
  5
3E8
100
AcDbEntity
  8
0
370
    -3
  6
Continuous
100
AcDbLine
 10
-2.499998
 20
-1.443372
 30
0.0
 11
-2.499999
 21
1.443378
 31
0.0
  0
POINT
  5
3E9
100
AcDbEntity
  8
0
370
    -3
  6
Continuous
100
AcDbPoint
 10
0.0
 20
0.0
 30
0.0
  0
CIRCLE
  5
3EA
100
AcDbEntity
  8
0
370
    -3
  6
Continuous
100
AcDbCircle
 10
0.0
 20
0.0
 30
0.0
 40
5.0
  0
ENDBLK
  5
3EB
100
AcDbEntity
  8
0
100
AcDbBlockEnd
  0
BLOCK
  5
3EE
100
AcDbEntity
  8
0
100
AcDbBlockBegin
  2
ZU_SYM__USERS_HOME_SYMBOL_POO_SYM_B20_00011-1
 70
    64
 10
0.0
 20
0.0
 30
0.0
  3
ZU_SYM__USERS_HOME_SYMBOL_POO_SYM_B20_00011-1
  1

  0
LINE
  5
3EF
100
AcDbEntity
  8
0
370
    -3
  6
Continuous
100
AcDbLine
 10
2.499999
 20
-1.443374
 30
0.0
 11
-0.000005
 21
-2.886748
 31
0.0
  0
LINE
  5
3F0
100
AcDbEntity
  8
0
370
    -3
  6
Continuous
100
AcDbLine
 10
0.000005
 20
2.886748
 30
0.0
 11
-2.5
 21
1.443377
 31
0.0
  0
LINE
  5
3F1
100
AcDbEntity
  8
0
370
    -3
  6
Continuous
100
AcDbLine
 10
-0.000006
 20
-2.886747
 30
0.0
 11
-2.499998
 21
-1.443372
 31
0.0
  0
LINE
  5
3F2
100
AcDbEntity
  8
0
370
    -3
  6
Continuous
100
AcDbLine
 10
0.000005
 20
2.886749
 30
0.0
 11
2.499999
 21
1.443372
 31
0.0
  0
LINE
  5
3F3
100
AcDbEntity
  8
0
370
    -3
  6
Continuous
100
AcDbLine
 10
2.499998
 20
1.443372
 30
0.0
 11
2.499999
 21
-1.443374
 31
0.0
  0
LINE
  5
3F4
100
AcDbEntity
  8
0
370
    -3
  6
Continuous
100
AcDbLine
 10
-2.499998
 20
-1.443372
 30
0.0
 11
-2.499999
 21
1.443378
 31
0.0
  0
POINT
  5
3F5
100
AcDbEntity
  8
0
370
    -3
  6
Continuous
100
AcDbPoint
 10
0.0
 20
0.0
 30
0.0
  0
CIRCLE
  5
3F6
100
AcDbEntity
  8
0
370
    -3
  6
Continuous
100
AcDbCircle
 10
0.0
 20
0.0
 30
0.0
 40
5.0
  0
ENDBLK
  5
3F7
100
AcDbEntity
  8
0
100
AcDbBlockEnd
  0
BLOCK
  5
3FA
100
AcDbEntity
  8
0
100
AcDbBlockBegin
  2
ZU_SYM__USERS_HOME_SYMBOL_POO_SYM_B20_00012-1
 70
    64
 10
0.0
 20
0.0
 30
0.0
  3
ZU_SYM__USERS_HOME_SYMBOL_POO_SYM_B20_00012-1
  1

  0
LINE
  5
3FB
100
AcDbEntity
  8
0
370
    -3
  6
Continuous
100
AcDbLine
 10
2.499999
 20
-1.443374
 30
0.0
 11
-0.000005
 21
-2.886748
 31
0.0
  0
LINE
  5
3FC
100
AcDbEntity
  8
0
370
    -3
  6
Continuous
100
AcDbLine
 10
0.000005
 20
2.886748
 30
0.0
 11
-2.5
 21
1.443377
 31
0.0
  0
LINE
  5
3FD
100
AcDbEntity
  8
0
370
    -3
  6
Continuous
100
AcDbLine
 10
-0.000006
 20
-2.886747
 30
0.0
 11
-2.499998
 21
-1.443372
 31
0.0
  0
LINE
  5
3FE
100
AcDbEntity
  8
0
370
    -3
  6
Continuous
100
AcDbLine
 10
0.000005
 20
2.886749
 30
0.0
 11
2.499999
 21
1.443372
 31
0.0
  0
LINE
  5
3FF
100
AcDbEntity
  8
0
370
    -3
  6
Continuous
100
AcDbLine
 10
2.499998
 20
1.443372
 30
0.0
 11
2.499999
 21
-1.443374
 31
0.0
  0
LINE
  5
400
100
AcDbEntity
  8
0
370
    -3
  6
Continuous
100
AcDbLine
 10
-2.499998
 20
-1.443372
 30
0.0
 11
-2.499999
 21
1.443378
 31
0.0
  0
POINT
  5
401
100
AcDbEntity
  8
0
370
    -3
  6
Continuous
100
AcDbPoint
 10
0.0
 20
0.0
 30
0.0
  0
CIRCLE
  5
402
100
AcDbEntity
  8
0
370
    -3
  6
Continuous
100
AcDbCircle
 10
0.0
 20
0.0
 30
0.0
 40
5.0
  0
ENDBLK
  5
403
100
AcDbEntity
  8
0
100
AcDbBlockEnd
  0
BLOCK
  5
4A6
100
AcDbEntity
  8
0
100
AcDbBlockBegin
  2
ZU_SYM__USERS_HOME_SYMBOL_STD_SYM_B01_00013-1
 70
    64
 10
0.0
 20
0.0
 30
0.0
  3
ZU_SYM__USERS_HOME_SYMBOL_STD_SYM_B01_00013-1
  1

  0
LINE
  5
4A7
100
AcDbEntity
  8
0
370
    -3
  6
Continuous
100
AcDbLine
 10
-1.299999
 20
0.300007
 30
0.0
 11
-0.000001
 21
0.600002
 31
0.0
  0
LINE
  5
4A8
100
AcDbEntity
  8
0
370
    -3
  6
Continuous
100
AcDbLine
 10
-1.3
 20
-0.299995
 30
0.0
 11
-0.000004
 21
-0.000001
 31
0.0
  0
LINE
  5
4A9
100
AcDbEntity
  8
0
370
    -3
  6
Continuous
100
AcDbLine
 10
-1.300018
 20
-4.599993
 30
0.0
 11
-1.299981
 21
4.600004
 31
0.0
  0
ARC
  5
4AA
100
AcDbEntity
  8
0
370
    -3
  6
Continuous
100
AcDbCircle
 10
0.740001
 20
-0.000003
 30
0.0
 40
5.539999
100
AcDbArc
 50
155.470187
 51
204.52925
  0
ARC
  5
4AB
100
AcDbEntity
  8
0
370
    -3
  6
Continuous
100
AcDbCircle
 10
-3.229986
 20
3.450012
 30
0.0
 40
1.57
100
AcDbArc
 50
179.999745
 51
227.099746
  0
ARC
  5
4AC
100
AcDbEntity
  8
0
370
    -3
  6
Continuous
100
AcDbCircle
 10
-3.230014
 20
-3.449986
 30
0.0
 40
1.57
100
AcDbArc
 50
132.899744
 51
179.999745
  0
LINE
  5
4AD
100
AcDbEntity
  8
0
370
    -3
  6
Continuous
100
AcDbLine
 10
-4.299987
 20
2.300014
 30
0.0
 11
-1.29999
 21
2.300004
 31
0.0
  0
LINE
  5
4AE
100
AcDbEntity
  8
0
370
    -3
  6
Continuous
100
AcDbLine
 10
-4.300006
 20
-2.29998
 30
0.0
 11
-1.300007
 21
-2.299992
 31
0.0
  0
LINE
  5
4AF
100
AcDbEntity
  8
0
370
    -3
  6
Continuous
100
AcDbLine
 10
0.000016
 20
4.599992
 30
0.0
 11
-0.000021
 21
-4.599992
 31
0.0
  0
LINE
  5
4B0
100
AcDbEntity
  8
0
370
    -3
  6
Continuous
100
AcDbLine
 10
-4.299978
 20
4.600015
 30
0.0
 11
0.000013
 21
4.599998
 31
0.0
  0
LINE
  5
4B1
100
AcDbEntity
  8
0
370
    -3
  6
Continuous
100
AcDbLine
 10
-4.799962
 20
3.900001
 30
0.0
 11
-4.299962
 21
4.599999
 31
0.0
  0
LINE
  5
4B2
100
AcDbEntity
  8
0
370
    -3
  6
Continuous
100
AcDbLine
 10
-4.80001
 20
-3.899973
 30
0.0
 11
-4.799979
 21
3.900012
 31
0.0
  0
LINE
  5
4B3
100
AcDbEntity
  8
0
370
    -3
  6
Continuous
100
AcDbLine
 10
-4.299996
 20
-4.599962
 30
0.0
 11
-4.79999
 21
-3.899959
 31
0.0
  0
LINE
  5
4B4
100
AcDbEntity
  8
0
370
    -3
  6
Continuous
100
AcDbLine
 10
-0.000025
 20
-4.599994
 30
0.0
 11
-4.300015
 21
-4.599977
 31
0.0
  0
POINT
  5
4B5
100
AcDbEntity
  8
0
370
    -3
  6
Continuous
100
AcDbPoint
 10
0.0
 20
0.0
 30
0.0
  0
ENDBLK
  5
4B6
100
AcDbEntity
  8
0
100
AcDbBlockEnd
  0
BLOCK
  5
4BA
100
AcDbEntity
  8
0
100
AcDbBlockBegin
  2
ZU_SYM__USERS_HOME_SYMBOL_STD_SYM_B01_00014-1
 70
    64
 10
0.0
 20
0.0
 30
0.0
  3
ZU_SYM__USERS_HOME_SYMBOL_STD_SYM_B01_00014-1
  1

  0
LINE
  5
4BB
100
AcDbEntity
  8
0
370
    -3
  6
Continuous
100
AcDbLine
 10
-1.299999
 20
0.300007
 30
0.0
 11
-0.000001
 21
0.600002
 31
0.0
  0
LINE
  5
4BC
100
AcDbEntity
  8
0
370
    -3
  6
Continuous
100
AcDbLine
 10
-1.3
 20
-0.299995
 30
0.0
 11
-0.000004
 21
-0.000001
 31
0.0
  0
LINE
  5
4BD
100
AcDbEntity
  8
0
370
    -3
  6
Continuous
100
AcDbLine
 10
-1.300018
 20
-4.599993
 30
0.0
 11
-1.299981
 21
4.600004
 31
0.0
  0
ARC
  5
4BE
100
AcDbEntity
  8
0
370
    -3
  6
Continuous
100
AcDbCircle
 10
0.740001
 20
-0.000003
 30
0.0
 40
5.539999
100
AcDbArc
 50
155.470187
 51
204.52925
  0
ARC
  5
4BF
100
AcDbEntity
  8
0
370
    -3
  6
Continuous
100
AcDbCircle
 10
-3.229986
 20
3.450012
 30
0.0
 40
1.57
100
AcDbArc
 50
179.999745
 51
227.099746
  0
ARC
  5
4C0
100
AcDbEntity
  8
0
370
    -3
  6
Continuous
100
AcDbCircle
 10
-3.230014
 20
-3.449986
 30
0.0
 40
1.57
100
AcDbArc
 50
132.899744
 51
179.999745
  0
LINE
  5
4C1
100
AcDbEntity
  8
0
370
    -3
  6
Continuous
100
AcDbLine
 10
-4.299987
 20
2.300014
 30
0.0
 11
-1.29999
 21
2.300004
 31
0.0
  0
LINE
  5
4C2
100
AcDbEntity
  8
0
370
    -3
  6
Continuous
100
AcDbLine
 10
-4.300006
 20
-2.29998
 30
0.0
 11
-1.300007
 21
-2.299992
 31
0.0
  0
LINE
  5
4C3
100
AcDbEntity
  8
0
370
    -3
  6
Continuous
100
AcDbLine
 10
0.000016
 20
4.599992
 30
0.0
 11
-0.000021
 21
-4.599992
 31
0.0
  0
LINE
  5
4C4
100
AcDbEntity
  8
0
370
    -3
  6
Continuous
100
AcDbLine
 10
-4.299978
 20
4.600015
 30
0.0
 11
0.000013
 21
4.599998
 31
0.0
  0
LINE
  5
4C5
100
AcDbEntity
  8
0
370
    -3
  6
Continuous
100
AcDbLine
 10
-4.799962
 20
3.900001
 30
0.0
 11
-4.299962
 21
4.599999
 31
0.0
  0
LINE
  5
4C6
100
AcDbEntity
  8
0
370
    -3
  6
Continuous
100
AcDbLine
 10
-4.80001
 20
-3.899973
 30
0.0
 11
-4.799979
 21
3.900012
 31
0.0
  0
LINE
  5
4C7
100
AcDbEntity
  8
0
370
    -3
  6
Continuous
100
AcDbLine
 10
-4.299996
 20
-4.599962
 30
0.0
 11
-4.79999
 21
-3.899959
 31
0.0
  0
LINE
  5
4C8
100
AcDbEntity
  8
0
370
    -3
  6
Continuous
100
AcDbLine
 10
-0.000025
 20
-4.599994
 30
0.0
 11
-4.300015
 21
-4.599977
 31
0.0
  0
POINT
  5
4C9
100
AcDbEntity
  8
0
370
    -3
  6
Continuous
100
AcDbPoint
 10
0.0
 20
0.0
 30
0.0
  0
ENDBLK
  5
4CA
100
AcDbEntity
  8
0
100
AcDbBlockEnd
  0
BLOCK
  5
4CD
100
AcDbEntity
  8
0
100
AcDbBlockBegin
  2
ZU_SYM__USERS_HOME_SYMBOL_STD_SYM_B01_00015-1
 70
    64
 10
0.0
 20
0.0
 30
0.0
  3
ZU_SYM__USERS_HOME_SYMBOL_STD_SYM_B01_00015-1
  1

  0
LINE
  5
4CE
100
AcDbEntity
  8
0
370
    -3
  6
Continuous
100
AcDbLine
 10
-1.299999
 20
0.300007
 30
0.0
 11
-0.000001
 21
0.600002
 31
0.0
  0
LINE
  5
4CF
100
AcDbEntity
  8
0
370
    -3
  6
Continuous
100
AcDbLine
 10
-1.3
 20
-0.299995
 30
0.0
 11
-0.000004
 21
-0.000001
 31
0.0
  0
LINE
  5
4D0
100
AcDbEntity
  8
0
370
    -3
  6
Continuous
100
AcDbLine
 10
-1.300018
 20
-4.599993
 30
0.0
 11
-1.299981
 21
4.600004
 31
0.0
  0
ARC
  5
4D1
100
AcDbEntity
  8
0
370
    -3
  6
Continuous
100
AcDbCircle
 10
0.740001
 20
-0.000003
 30
0.0
 40
5.539999
100
AcDbArc
 50
155.470187
 51
204.52925
  0
ARC
  5
4D2
100
AcDbEntity
  8
0
370
    -3
  6
Continuous
100
AcDbCircle
 10
-3.229986
 20
3.450012
 30
0.0
 40
1.57
100
AcDbArc
 50
179.999745
 51
227.099746
  0
ARC
  5
4D3
100
AcDbEntity
  8
0
370
    -3
  6
Continuous
100
AcDbCircle
 10
-3.230014
 20
-3.449986
 30
0.0
 40
1.57
100
AcDbArc
 50
132.899744
 51
179.999745
  0
LINE
  5
4D4
100
AcDbEntity
  8
0
370
    -3
  6
Continuous
100
AcDbLine
 10
-4.299987
 20
2.300014
 30
0.0
 11
-1.29999
 21
2.300004
 31
0.0
  0
LINE
  5
4D5
100
AcDbEntity
  8
0
370
    -3
  6
Continuous
100
AcDbLine
 10
-4.300006
 20
-2.29998
 30
0.0
 11
-1.300007
 21
-2.299992
 31
0.0
  0
LINE
  5
4D6
100
AcDbEntity
  8
0
370
    -3
  6
Continuous
100
AcDbLine
 10
0.000016
 20
4.599992
 30
0.0
 11
-0.000021
 21
-4.599992
 31
0.0
  0
LINE
  5
4D7
100
AcDbEntity
  8
0
370
    -3
  6
Continuous
100
AcDbLine
 10
-4.299978
 20
4.600015
 30
0.0
 11
0.000013
 21
4.599998
 31
0.0
  0
LINE
  5
4D8
100
AcDbEntity
  8
0
370
    -3
  6
Continuous
100
AcDbLine
 10
-4.799962
 20
3.900001
 30
0.0
 11
-4.299962
 21
4.599999
 31
0.0
  0
LINE
  5
4D9
100
AcDbEntity
  8
0
370
    -3
  6
Continuous
100
AcDbLine
 10
-4.80001
 20
-3.899973
 30
0.0
 11
-4.799979
 21
3.900012
 31
0.0
  0
LINE
  5
4DA
100
AcDbEntity
  8
0
370
    -3
  6
Continuous
100
AcDbLine
 10
-4.299996
 20
-4.599962
 30
0.0
 11
-4.79999
 21
-3.899959
 31
0.0
  0
LINE
  5
4DB
100
AcDbEntity
  8
0
370
    -3
  6
Continuous
100
AcDbLine
 10
-0.000025
 20
-4.599994
 30
0.0
 11
-4.300015
 21
-4.599977
 31
0.0
  0
POINT
  5
4DC
100
AcDbEntity
  8
0
370
    -3
  6
Continuous
100
AcDbPoint
 10
0.0
 20
0.0
 30
0.0
  0
ENDBLK
  5
4DD
100
AcDbEntity
  8
0
100
AcDbBlockEnd
  0
BLOCK
  5
4E0
100
AcDbEntity
  8
0
100
AcDbBlockBegin
  2
ZU_SYM__USERS_HOME_SYMBOL_STD_SYM_B01_00016-1
 70
    64
 10
0.0
 20
0.0
 30
0.0
  3
ZU_SYM__USERS_HOME_SYMBOL_STD_SYM_B01_00016-1
  1

  0
LINE
  5
4E1
100
AcDbEntity
  8
0
370
    -3
  6
Continuous
100
AcDbLine
 10
-1.299999
 20
0.300007
 30
0.0
 11
-0.000001
 21
0.600002
 31
0.0
  0
LINE
  5
4E2
100
AcDbEntity
  8
0
370
    -3
  6
Continuous
100
AcDbLine
 10
-1.3
 20
-0.299995
 30
0.0
 11
-0.000004
 21
-0.000001
 31
0.0
  0
LINE
  5
4E3
100
AcDbEntity
  8
0
370
    -3
  6
Continuous
100
AcDbLine
 10
-1.300018
 20
-4.599993
 30
0.0
 11
-1.299981
 21
4.600004
 31
0.0
  0
ARC
  5
4E4
100
AcDbEntity
  8
0
370
    -3
  6
Continuous
100
AcDbCircle
 10
0.740001
 20
-0.000003
 30
0.0
 40
5.539999
100
AcDbArc
 50
155.470187
 51
204.52925
  0
ARC
  5
4E5
100
AcDbEntity
  8
0
370
    -3
  6
Continuous
100
AcDbCircle
 10
-3.229986
 20
3.450012
 30
0.0
 40
1.57
100
AcDbArc
 50
179.999745
 51
227.099746
  0
ARC
  5
4E6
100
AcDbEntity
  8
0
370
    -3
  6
Continuous
100
AcDbCircle
 10
-3.230014
 20
-3.449986
 30
0.0
 40
1.57
100
AcDbArc
 50
132.899744
 51
179.999745
  0
LINE
  5
4E7
100
AcDbEntity
  8
0
370
    -3
  6
Continuous
100
AcDbLine
 10
-4.299987
 20
2.300014
 30
0.0
 11
-1.29999
 21
2.300004
 31
0.0
  0
LINE
  5
4E8
100
AcDbEntity
  8
0
370
    -3
  6
Continuous
100
AcDbLine
 10
-4.300006
 20
-2.29998
 30
0.0
 11
-1.300007
 21
-2.299992
 31
0.0
  0
LINE
  5
4E9
100
AcDbEntity
  8
0
370
    -3
  6
Continuous
100
AcDbLine
 10
0.000016
 20
4.599992
 30
0.0
 11
-0.000021
 21
-4.599992
 31
0.0
  0
LINE
  5
4EA
100
AcDbEntity
  8
0
370
    -3
  6
Continuous
100
AcDbLine
 10
-4.299978
 20
4.600015
 30
0.0
 11
0.000013
 21
4.599998
 31
0.0
  0
LINE
  5
4EB
100
AcDbEntity
  8
0
370
    -3
  6
Continuous
100
AcDbLine
 10
-4.799962
 20
3.900001
 30
0.0
 11
-4.299962
 21
4.599999
 31
0.0
  0
LINE
  5
4EC
100
AcDbEntity
  8
0
370
    -3
  6
Continuous
100
AcDbLine
 10
-4.80001
 20
-3.899973
 30
0.0
 11
-4.799979
 21
3.900012
 31
0.0
  0
LINE
  5
4ED
100
AcDbEntity
  8
0
370
    -3
  6
Continuous
100
AcDbLine
 10
-4.299996
 20
-4.599962
 30
0.0
 11
-4.79999
 21
-3.899959
 31
0.0
  0
LINE
  5
4EE
100
AcDbEntity
  8
0
370
    -3
  6
Continuous
100
AcDbLine
 10
-0.000025
 20
-4.599994
 30
0.0
 11
-4.300015
 21
-4.599977
 31
0.0
  0
POINT
  5
4EF
100
AcDbEntity
  8
0
370
    -3
  6
Continuous
100
AcDbPoint
 10
0.0
 20
0.0
 30
0.0
  0
ENDBLK
  5
4F0
100
AcDbEntity
  8
0
100
AcDbBlockEnd
  0
ENDSEC
  0
SECTION
  2
ENTITIES
  0
LINE
  5
2B
100
AcDbEntity
  8
0
370
    -3
  6
Continuous
100
AcDbLine
 10
-253.788337
 20
202.109277
 30
0.0
 11
-253.788337
 21
255.609277
 31
0.0
  0
LINE
  5
2C
100
AcDbEntity
  8
0
370
    -3
  6
CENTER
100
AcDbLine
 10
-371.327659
 20
202.109277
 30
0.0
 11
45.0
 21
202.109277
 31
0.0
  0
LINE
  5
2D
100
AcDbEntity
  8
0
370
    -3
  6
Continuous
100
AcDbLine
 10
-253.788337
 20
202.109277
 30
0.0
 11
-253.788337
 21
148.609277
 31
0.0
  0
LINE
  5
2E
100
AcDbEntity
  8
0
370
    -3
  6
Continuous
100
AcDbLine
 10
-332.788337
 20
253.109277
 30
0.0
 11
-253.788337
 21
253.109277
 31
0.0
  0
LINE
  5
2F
100
AcDbEntity
  8
0
370
    -3
  6
Continuous
100
AcDbLine
 10
-332.788337
 20
252.609277
 30
0.0
 11
-253.788337
 21
252.609277
 31
0.0
  0
LINE
  5
30
100
AcDbEntity
  8
0
370
    -3
  6
Continuous
100
AcDbLine
 10
-253.788337
 20
254.609277
 30
0.0
 11
-332.788337
 21
254.609277
 31
0.0
  0
LINE
  5
31
100
AcDbEntity
  8
0
370
    -3
  6
Continuous
100
AcDbLine
 10
-332.788337
 20
151.109277
 30
0.0
 11
-253.788337
 21
151.109277
 31
0.0
  0
LINE
  5
32
100
AcDbEntity
  8
0
370
    -3
  6
Continuous
100
AcDbLine
 10
-332.788337
 20
151.609277
 30
0.0
 11
-253.788337
 21
151.609277
 31
0.0
  0
LINE
  5
33
100
AcDbEntity
  8
0
370
    -3
  6
Continuous
100
AcDbLine
 10
-253.788337
 20
149.609277
 30
0.0
 11
-332.788337
 21
149.609277
 31
0.0
  0
LINE
  5
34
100
AcDbEntity
  8
0
370
    -3
  6
Continuous
100
AcDbLine
 10
-332.788337
 20
242.541724
 30
0.0
 11
-253.788337
 21
242.541724
 31
0.0
  0
LINE
  5
35
100
AcDbEntity
  8
0
370
    -3
  6
Continuous
100
AcDbLine
 10
-332.788337
 20
235.209071
 30
0.0
 11
-253.788337
 21
235.209071
 31
0.0
  0
LINE
  5
36
100
AcDbEntity
  8
0
370
    -3
  6
Continuous
100
AcDbLine
 10
-332.788337
 20
234.009482
 30
0.0
 11
-253.788337
 21
234.009482
 31
0.0
  0
LINE
  5
37
100
AcDbEntity
  8
0
370
    -3
  6
Continuous
100
AcDbLine
 10
-332.788337
 20
230.709071
 30
0.0
 11
-253.788337
 21
230.709071
 31
0.0
  0
LINE
  5
38
100
AcDbEntity
  8
0
370
    -3
  6
Continuous
100
AcDbLine
 10
-332.788337
 20
229.509482
 30
0.0
 11
-265.645727
 21
229.509482
 31
0.0
  0
LINE
  5
39
100
AcDbEntity
  8
0
370
    -3
  6
Continuous
100
AcDbLine
 10
-332.788337
 20
226.209071
 30
0.0
 11
-253.788337
 21
226.209071
 31
0.0
  0
LINE
  5
3A
100
AcDbEntity
  8
0
370
    -3
  6
Continuous
100
AcDbLine
 10
-332.788337
 20
249.435873
 30
0.0
 11
-253.788337
 21
249.435873
 31
0.0
  0
LINE
  5
3B
100
AcDbEntity
  8
0
370
    -3
  6
Continuous
100
AcDbLine
 10
-332.788337
 20
225.009482
 30
0.0
 11
-253.788337
 21
225.009482
 31
0.0
  0
LINE
  5
3C
100
AcDbEntity
  8
0
370
    -3
  6
Continuous
100
AcDbLine
 10
-270.788337
 20
229.509482
 30
0.0
 11
-253.788337
 21
229.509482
 31
0.0
  0
LINE
  5
3D
100
AcDbEntity
  8
0
370
    -3
  6
Continuous
100
AcDbLine
 10
-332.788337
 20
179.209071
 30
0.0
 11
-253.788337
 21
179.209071
 31
0.0
  0
LINE
  5
3E
100
AcDbEntity
  8
0
370
    -3
  6
Continuous
100
AcDbLine
 10
-332.788337
 20
178.009482
 30
0.0
 11
-253.788337
 21
178.009482
 31
0.0
  0
LINE
  5
3F
100
AcDbEntity
  8
0
370
    -3
  6
Continuous
100
AcDbLine
 10
-332.788337
 20
174.709071
 30
0.0
 11
-253.788337
 21
174.709071
 31
0.0
  0
LINE
  5
40
100
AcDbEntity
  8
0
370
    -3
  6
Continuous
100
AcDbLine
 10
-332.788337
 20
173.509482
 30
0.0
 11
-253.788337
 21
173.509482
 31
0.0
  0
LINE
  5
41
100
AcDbEntity
  8
0
370
    -3
  6
Continuous
100
AcDbLine
 10
-332.788337
 20
170.209071
 30
0.0
 11
-253.788337
 21
170.209071
 31
0.0
  0
LINE
  5
42
100
AcDbEntity
  8
0
370
    -3
  6
Continuous
100
AcDbLine
 10
-332.788337
 20
169.009482
 30
0.0
 11
-253.788337
 21
169.009482
 31
0.0
  0
LINE
  5
43
100
AcDbEntity
  8
0
370
    -3
  6
Continuous
100
AcDbLine
 10
-332.788337
 20
161.676829
 30
0.0
 11
-253.788337
 21
161.676829
 31
0.0
  0
LINE
  5
44
100
AcDbEntity
  8
0
370
    -3
  6
Continuous
100
AcDbLine
 10
-332.788337
 20
154.78268
 30
0.0
 11
-253.788337
 21
154.78268
 31
0.0
  0
LINE
  5
45
100
AcDbEntity
  8
0
370
    -3
  6
Continuous
100
AcDbLine
 10
-332.788337
 20
220.859277
 30
0.0
 11
-253.788337
 21
220.859277
 31
0.0
  0
LINE
  5
46
100
AcDbEntity
  8
0
370
    -3
  6
Continuous
100
AcDbLine
 10
-332.788337
 20
183.359277
 30
0.0
 11
-253.788337
 21
183.359277
 31
0.0
  0
INSERT
  5
59
100
AcDbEntity
  8
0
100
AcDbBlockReference
  2
ZU_SYM__USERS_HOME_SYMBOL_STD_SYM_B01_-1
 10
-337.788334
 20
241.707256
 30
0.0
 50
360.0
  0
INSERT
  5
6C
100
AcDbEntity
  8
0
100
AcDbBlockReference
  2
ZU_SYM__USERS_HOME_SYMBOL_STD_SYM_B01_00001-1
 10
-337.788334
 20
162.511297
 30
0.0
 41
-1.0
 50
180.0
  0
LINE
  5
6D
100
AcDbEntity
  8
0
370
    -3
  6
Continuous
100
AcDbLine
 10
-332.788337
 20
182.109277
 30
0.0
 11
-337.088337
 21
182.109277
 31
0.0
  0
ARC
  5
6E
100
AcDbEntity
  8
0
370
    -3
  6
Continuous
100
AcDbCircle
 10
-337.088337
 20
182.809277
 30
0.0
 40
0.7
100
AcDbArc
 50
180.0
 51
270.0
  0
LINE
  5
6F
100
AcDbEntity
  8
0
370
    -3
  6
Continuous
100
AcDbLine
 10
-332.788337
 20
149.609277
 30
0.0
 11
-332.788337
 21
254.609277
 31
0.0
  0
ARC
  5
70
100
AcDbEntity
  8
0
370
    -3
  6
Continuous
100
AcDbCircle
 10
360.711663
 20
202.109277
 30
0.0
 40
700.0
100
AcDbArc
 50
175.85105
 51
176.379938
  0
ARC
  5
71
100
AcDbEntity
  8
0
370
    -3
  6
Continuous
100
AcDbCircle
 10
360.711663
 20
202.109277
 30
0.0
 40
700.0
100
AcDbArc
 50
177.134181
 51
178.347093
  0
LINE
  5
72
100
AcDbEntity
  8
0
370
    -3
  6
CENTER
100
AcDbLine
 10
-329.730935
 20
241.707256
 30
0.0
 11
-344.3621
 21
241.707256
 31
0.0
  0
LINE
  5
73
100
AcDbEntity
  8
0
370
    -3
  6
Continuous
100
AcDbLine
 10
-339.288337
 20
202.109277
 30
0.0
 11
-339.288337
 21
221.609277
 31
0.0
  0
LINE
  5
74
100
AcDbEntity
  8
0
370
    -3
  6
Continuous
100
AcDbLine
 10
-337.788337
 20
221.409277
 30
0.0
 11
-337.788337
 21
202.109277
 31
0.0
  0
ARC
  5
75
100
AcDbEntity
  8
0
370
    -3
  6
Continuous
100
AcDbCircle
 10
-339.496863
 20
222.314961
 30
0.0
 40
0.5
100
AcDbArc
 50
315.115138
 51
358.347093
  0
ARC
  5
76
100
AcDbEntity
  8
0
370
    -3
  6
Continuous
100
AcDbCircle
 10
-338.788337
 20
221.609277
 30
0.0
 40
0.5
100
AcDbArc
 50
135.115138
 51
180.0
  0
LINE
  5
77
100
AcDbEntity
  8
0
370
    -3
  6
Continuous
100
AcDbLine
 10
-332.788337
 20
233.454874
 30
0.0
 11
-335.760673
 21
233.610647
 31
0.0
  0
LINE
  5
78
100
AcDbEntity
  8
0
370
    -3
  6
Continuous
100
AcDbLine
 10
-332.788337
 20
235.76368
 30
0.0
 11
-335.760673
 21
235.607906
 31
0.0
  0
ARC
  5
79
100
AcDbEntity
  8
0
370
    -3
  6
Continuous
100
AcDbCircle
 10
-335.708337
 20
234.609277
 30
0.0
 40
1.0
100
AcDbArc
 50
93.0
 51
267.0
  0
ARC
  5
7A
100
AcDbEntity
  8
0
370
    -3
  6
Continuous
100
AcDbCircle
 10
-335.708337
 20
230.109277
 30
0.0
 40
1.0
100
AcDbArc
 50
93.0
 51
267.0
  0
LINE
  5
7B
100
AcDbEntity
  8
0
370
    -3
  6
Continuous
100
AcDbLine
 10
-332.788337
 20
231.26368
 30
0.0
 11
-335.760673
 21
231.107906
 31
0.0
  0
LINE
  5
7C
100
AcDbEntity
  8
0
370
    -3
  6
Continuous
100
AcDbLine
 10
-332.788337
 20
228.954874
 30
0.0
 11
-335.760673
 21
229.110647
 31
0.0
  0
ARC
  5
7D
100
AcDbEntity
  8
0
370
    -3
  6
Continuous
100
AcDbCircle
 10
-335.708337
 20
225.609277
 30
0.0
 40
1.0
100
AcDbArc
 50
93.0
 51
267.0
  0
LINE
  5
7E
100
AcDbEntity
  8
0
370
    -3
  6
Continuous
100
AcDbLine
 10
-332.788337
 20
226.76368
 30
0.0
 11
-335.760673
 21
226.607906
 31
0.0
  0
LINE
  5
7F
100
AcDbEntity
  8
0
370
    -3
  6
Continuous
100
AcDbLine
 10
-332.788337
 20
224.454874
 30
0.0
 11
-335.760673
 21
224.610647
 31
0.0
  0
LINE
  5
80
100
AcDbEntity
  8
0
370
    -3
  6
Continuous
100
AcDbLine
 10
-337.788337
 20
247.742359
 30
0.0
 11
-337.788337
 21
231.765825
 31
0.0
  0
ARC
  5
81
100
AcDbEntity
  8
0
370
    -3
  6
Continuous
100
AcDbCircle
 10
-337.728905
 20
230.069474
 30
0.0
 40
1.0
100
AcDbArc
 50
121.986261
 51
177.707541
  0
ARC
  5
82
100
AcDbEntity
  8
0
370
    -3
  6
Continuous
100
AcDbCircle
 10
-338.788337
 20
231.765825
 30
0.0
 40
1.0
100
AcDbArc
 50
301.986261
 51
0.0
  0
ARC
  5
83
100
AcDbEntity
  8
0
370
    -3
  6
Continuous
100
AcDbCircle
 10
-337.288337
 20
247.742359
 30
0.0
 40
0.5
100
AcDbArc
 50
90.0
 51
180.0
  0
LINE
  5
84
100
AcDbEntity
  8
0
370
    -3
  6
Continuous
100
AcDbLine
 10
-338.533465
 20
234.626579
 30
0.0
 11
-338.533465
 21
234.591974
 31
0.0
  0
LINE
  5
85
100
AcDbEntity
  8
0
370
    -3
  6
Continuous
100
AcDbLine
 10
-333.288337
 20
248.242359
 30
0.0
 11
-337.288337
 21
248.242359
 31
0.0
  0
LINE
  5
86
100
AcDbEntity
  8
0
370
    -3
  6
Continuous
100
AcDbLine
 10
-332.788337
 20
238.80154
 30
0.0
 11
-333.288337
 21
238.80154
 31
0.0
  0
LINE
  5
87
100
AcDbEntity
  8
0
370
    -3
  6
Continuous
100
AcDbLine
 10
-333.288337
 20
248.242359
 30
0.0
 11
-333.288337
 21
238.80154
 31
0.0
  0
ARC
  5
88
100
AcDbEntity
  8
0
370
    -3
  6
Continuous
100
AcDbCircle
 10
-335.459113
 20
252.609277
 30
0.0
 40
2.0
100
AcDbArc
 50
90.0
 51
175.85105
  0
LINE
  5
89
100
AcDbEntity
  8
0
370
    -3
  6
Continuous
100
AcDbLine
 10
-332.788337
 20
254.609277
 30
0.0
 11
-335.459113
 21
254.609277
 31
0.0
  0
LINE
  5
8A
100
AcDbEntity
  8
0
370
    -3
  6
Continuous
100
AcDbLine
 10
-332.788337
 20
222.109277
 30
0.0
 11
-337.088337
 21
222.109277
 31
0.0
  0
ARC
  5
8B
100
AcDbEntity
  8
0
370
    -3
  6
Continuous
100
AcDbCircle
 10
-337.088337
 20
221.409277
 30
0.0
 40
0.7
100
AcDbArc
 50
90.0
 51
180.0
  0
ARC
  5
8C
100
AcDbEntity
  8
0
370
    -3
  6
Continuous
100
AcDbCircle
 10
360.711663
 20
202.109277
 30
0.0
 40
700.0
100
AcDbArc
 50
183.620062
 51
184.14895
  0
ARC
  5
8D
100
AcDbEntity
  8
0
370
    -3
  6
Continuous
100
AcDbCircle
 10
360.711663
 20
202.109277
 30
0.0
 40
700.0
100
AcDbArc
 50
181.652907
 51
182.865819
  0
LINE
  5
8E
100
AcDbEntity
  8
0
370
    -3
  6
CENTER
100
AcDbLine
 10
-329.730935
 20
162.511297
 30
0.0
 11
-344.3621
 21
162.511297
 31
0.0
  0
LINE
  5
8F
100
AcDbEntity
  8
0
370
    -3
  6
Continuous
100
AcDbLine
 10
-339.288337
 20
202.109277
 30
0.0
 11
-339.288337
 21
182.609277
 31
0.0
  0
LINE
  5
90
100
AcDbEntity
  8
0
370
    -3
  6
Continuous
100
AcDbLine
 10
-337.788337
 20
182.809277
 30
0.0
 11
-337.788337
 21
202.109277
 31
0.0
  0
ARC
  5
91
100
AcDbEntity
  8
0
370
    -3
  6
Continuous
100
AcDbCircle
 10
-339.496863
 20
181.903592
 30
0.0
 40
0.5
100
AcDbArc
 50
1.652907
 51
44.884862
  0
ARC
  5
92
100
AcDbEntity
  8
0
370
    -3
  6
Continuous
100
AcDbCircle
 10
-338.788337
 20
182.609277
 30
0.0
 40
0.5
100
AcDbArc
 50
180.0
 51
224.884862
  0
LINE
  5
93
100
AcDbEntity
  8
0
370
    -3
  6
Continuous
100
AcDbLine
 10
-332.788337
 20
170.76368
 30
0.0
 11
-335.760673
 21
170.607906
 31
0.0
  0
LINE
  5
94
100
AcDbEntity
  8
0
370
    -3
  6
Continuous
100
AcDbLine
 10
-332.788337
 20
168.454874
 30
0.0
 11
-335.760673
 21
168.610647
 31
0.0
  0
ARC
  5
95
100
AcDbEntity
  8
0
370
    -3
  6
Continuous
100
AcDbCircle
 10
-335.708337
 20
169.609277
 30
0.0
 40
1.0
100
AcDbArc
 50
93.0
 51
267.0
  0
ARC
  5
96
100
AcDbEntity
  8
0
370
    -3
  6
Continuous
100
AcDbCircle
 10
-335.708337
 20
174.109277
 30
0.0
 40
1.0
100
AcDbArc
 50
93.0
 51
267.0
  0
LINE
  5
97
100
AcDbEntity
  8
0
370
    -3
  6
Continuous
100
AcDbLine
 10
-332.788337
 20
172.954874
 30
0.0
 11
-335.760673
 21
173.110647
 31
0.0
  0
LINE
  5
98
100
AcDbEntity
  8
0
370
    -3
  6
Continuous
100
AcDbLine
 10
-332.788337
 20
175.26368
 30
0.0
 11
-335.760673
 21
175.107906
 31
0.0
  0
ARC
  5
99
100
AcDbEntity
  8
0
370
    -3
  6
Continuous
100
AcDbCircle
 10
-335.708337
 20
178.609277
 30
0.0
 40
1.0
100
AcDbArc
 50
93.0
 51
267.0
  0
LINE
  5
9A
100
AcDbEntity
  8
0
370
    -3
  6
Continuous
100
AcDbLine
 10
-332.788337
 20
177.454874
 30
0.0
 11
-335.760673
 21
177.610647
 31
0.0
  0
LINE
  5
9B
100
AcDbEntity
  8
0
370
    -3
  6
Continuous
100
AcDbLine
 10
-332.788337
 20
179.76368
 30
0.0
 11
-335.760673
 21
179.607906
 31
0.0
  0
LINE
  5
9C
100
AcDbEntity
  8
0
370
    -3
  6
Continuous
100
AcDbLine
 10
-337.788337
 20
156.476194
 30
0.0
 11
-337.788337
 21
172.452728
 31
0.0
  0
ARC
  5
9D
100
AcDbEntity
  8
0
370
    -3
  6
Continuous
100
AcDbCircle
 10
-337.728905
 20
174.149079
 30
0.0
 40
1.0
100
AcDbArc
 50
182.292459
 51
238.013739
  0
ARC
  5
9E
100
AcDbEntity
  8
0
370
    -3
  6
Continuous
100
AcDbCircle
 10
-338.788337
 20
172.452728
 30
0.0
 40
1.0
100
AcDbArc
 50
0.0
 51
58.013739
  0
ARC
  5
9F
100
AcDbEntity
  8
0
370
    -3
  6
Continuous
100
AcDbCircle
 10
-337.288337
 20
156.476194
 30
0.0
 40
0.5
100
AcDbArc
 50
180.0
 51
270.0
  0
LINE
  5
A0
100
AcDbEntity
  8
0
370
    -3
  6
Continuous
100
AcDbLine
 10
-338.533465
 20
169.591974
 30
0.0
 11
-338.533465
 21
169.626579
 31
0.0
  0
LINE
  5
A1
100
AcDbEntity
  8
0
370
    -3
  6
Continuous
100
AcDbLine
 10
-333.288337
 20
155.976194
 30
0.0
 11
-337.288337
 21
155.976194
 31
0.0
  0
LINE
  5
A2
100
AcDbEntity
  8
0
370
    -3
  6
Continuous
100
AcDbLine
 10
-332.788337
 20
165.417013
 30
0.0
 11
-333.288337
 21
165.417013
 31
0.0
  0
LINE
  5
A3
100
AcDbEntity
  8
0
370
    -3
  6
Continuous
100
AcDbLine
 10
-333.288337
 20
155.976194
 30
0.0
 11
-333.288337
 21
165.417013
 31
0.0
  0
LINE
  5
A4
100
AcDbEntity
  8
0
370
    -3
  6
Continuous
100
AcDbLine
 10
-332.788337
 20
150.359277
 30
0.0
 11
-332.788337
 21
149.609277
 31
0.0
  0
ARC
  5
A5
100
AcDbEntity
  8
0
370
    -3
  6
Continuous
100
AcDbCircle
 10
-335.459113
 20
151.609277
 30
0.0
 40
2.0
100
AcDbArc
 50
184.14895
 51
270.0
  0
LINE
  5
A6
100
AcDbEntity
  8
0
370
    -3
  6
Continuous
100
AcDbLine
 10
-332.788337
 20
149.609277
 30
0.0
 11
-335.459113
 21
149.609277
 31
0.0
  0
LINE
  5
A7
100
AcDbEntity
  8
0
370
    -3
  6
Continuous
100
AcDbLine
 10
-332.788337
 20
149.609277
 30
0.0
 11
-332.788337
 21
151.859277
 31
0.0
  0
LINE
  5
A8
100
AcDbEntity
  8
0
370
    -3
  6
Continuous
100
AcDbLine
 10
-253.788337
 20
149.609277
 30
0.0
 11
-253.788337
 21
202.109277
 31
0.0
  0
LINE
  5
A9
100
AcDbEntity
  8
0
370
    -3
  6
Continuous
100
AcDbLine
 10
-253.788337
 20
254.609277
 30
0.0
 11
-253.788337
 21
202.109277
 31
0.0
  0
CIRCLE
  5
AA
100
AcDbEntity
  8
0
370
    -3
  6
Continuous
100
AcDbCircle
 10
240.712033
 20
-81.837859
 30
0.0
 40
24.0
  0
ARC
  5
AB
100
AcDbEntity
  8
0
370
    -3
  6
Continuous
100
AcDbCircle
 10
240.712033
 20
-81.837859
 30
0.0
 40
17.5
100
AcDbArc
 50
106.60155
 51
73.39845
  0
LINE
  5
AC
100
AcDbEntity
  8
0
370
    -3
  6
CENTER
100
AcDbLine
 10
272.149895
 20
-81.837859
 30
0.0
 11
210.503637
 21
-81.837859
 31
0.0
  0
LINE
  5
AD
100
AcDbEntity
  8
0
370
    -3
  6
Continuous
100
AcDbLine
 10
245.712033
 20
-61.037859
 30
0.0
 11
235.712033
 21
-61.037859
 31
0.0
  0
LINE
  5
AE
100
AcDbEntity
  8
0
370
    -3
  6
Continuous
100
AcDbLine
 10
235.712033
 20
-65.067349
 30
0.0
 11
235.712033
 21
-61.037859
 31
0.0
  0
LINE
  5
AF
100
AcDbEntity
  8
0
370
    -3
  6
Continuous
100
AcDbLine
 10
245.712033
 20
-65.067349
 30
0.0
 11
245.712033
 21
-61.037859
 31
0.0
  0
LINE
  5
B0
100
AcDbEntity
  8
0
370
    -3
  6
CENTER
100
AcDbLine
 10
240.712033
 20
-113.576539
 30
0.0
 11
240.712033
 21
-51.480308
 31
0.0
  0
LINE
  5
B1
100
AcDbEntity
  8
0
370
    -3
  6
Continuous
100
AcDbLine
 10
166.462033
 20
-99.337859
 30
0.0
 11
188.212033
 21
-99.337859
 31
0.0
  0
LINE
  5
B2
100
AcDbEntity
  8
0
370
    -3
  6
Continuous
100
AcDbLine
 10
75.211927
 20
-106.837859
 30
0.0
 11
89.211926
 21
-106.837859
 31
0.0
  0
LINE
  5
B3
100
AcDbEntity
  8
0
370
    -3
  6
Continuous
100
AcDbLine
 10
89.211926
 20
-106.837859
 30
0.0
 11
89.211928
 21
-108.837859
 31
0.0
  0
LINE
  5
B4
100
AcDbEntity
  8
0
370
    -3
  6
Continuous
100
AcDbLine
 10
89.211926
 20
-106.837859
 30
0.0
 11
89.211928
 21
-108.837859
 31
0.0
  0
LINE
  5
B5
100
AcDbEntity
  8
0
370
    -3
  6
Continuous
100
AcDbLine
 10
135.212033
 20
-108.837859
 30
0.0
 11
135.212033
 21
-106.837859
 31
0.0
  0
LINE
  5
B6
100
AcDbEntity
  8
0
370
    -3
  6
Continuous
100
AcDbLine
 10
89.211928
 20
-108.837859
 30
0.0
 11
135.212033
 21
-108.837859
 31
0.0
  0
LINE
  5
B7
100
AcDbEntity
  8
0
370
    -3
  6
Continuous
100
AcDbLine
 10
172.212003
 20
-106.837859
 30
0.0
 11
135.212033
 21
-106.837859
 31
0.0
  0
LINE
  5
B8
100
AcDbEntity
  8
0
370
    -3
  6
Continuous
100
AcDbLine
 10
75.711927
 20
-56.837859
 30
0.0
 11
89.211926
 21
-56.837859
 31
0.0
  0
LINE
  5
B9
100
AcDbEntity
  8
0
370
    -3
  6
Continuous
100
AcDbLine
 10
75.211927
 20
-56.837873
 30
0.0
 11
75.211926
 21
-57.837859
 31
0.0
  0
LINE
  5
BA
100
AcDbEntity
  8
0
370
    -3
  6
Continuous
100
AcDbLine
 10
89.211926
 20
-56.837859
 30
0.0
 11
89.211928
 21
-54.837859
 31
0.0
  0
LINE
  5
BB
100
AcDbEntity
  8
0
370
    -3
  6
Continuous
100
AcDbLine
 10
75.211927
 20
-56.837859
 30
0.0
 11
89.211926
 21
-56.837859
 31
0.0
  0
LINE
  5
BC
100
AcDbEntity
  8
0
370
    -3
  6
Continuous
100
AcDbLine
 10
135.212033
 20
-54.837859
 30
0.0
 11
135.212033
 21
-56.837859
 31
0.0
  0
LINE
  5
BD
100
AcDbEntity
  8
0
370
    -3
  6
Continuous
100
AcDbLine
 10
89.211862
 20
-54.837859
 30
0.0
 11
135.212033
 21
-54.837859
 31
0.0
  0
LINE
  5
BE
100
AcDbEntity
  8
0
370
    -3
  6
Continuous
100
AcDbLine
 10
171.712003
 20
-56.837859
 30
0.0
 11
157.712033
 21
-56.837859
 31
0.0
  0
LINE
  5
BF
100
AcDbEntity
  8
0
370
    -3
  6
Continuous
100
AcDbLine
 10
172.212003
 20
-56.837859
 30
0.0
 11
135.212033
 21
-56.837859
 31
0.0
  0
LINE
  5
C0
100
AcDbEntity
  8
0
370
    -3
  6
Continuous
100
AcDbLine
 10
172.212003
 20
-56.837873
 30
0.0
 11
172.212004
 21
-57.837859
 31
0.0
  0
LINE
  5
C1
100
AcDbEntity
  8
0
370
    -3
  6
Continuous
100
AcDbLine
 10
190.712033
 20
-81.837859
 30
0.0
 11
190.712033
 21
-105.437859
 31
0.0
  0
LINE
  5
C2
100
AcDbEntity
  8
0
370
    -3
  6
Continuous
100
AcDbLine
 10
56.711897
 20
-81.837859
 30
0.0
 11
56.711897
 21
-105.437859
 31
0.0
  0
LINE
  5
C3
100
AcDbEntity
  8
0
370
    -3
  6
CENTER
100
AcDbLine
 10
53.708406
 20
-81.837859
 30
0.0
 11
193.86497
 21
-81.837859
 31
0.0
  0
LINE
  5
C4
100
AcDbEntity
  8
0
370
    -3
  6
Continuous
100
AcDbLine
 10
172.212003
 20
-56.837857
 30
0.0
 11
172.212004
 21
-57.837859
 31
0.0
  0
LINE
  5
C5
100
AcDbEntity
  8
0
370
    -3
  6
Continuous
100
AcDbLine
 10
190.312033
 20
-105.837859
 30
0.0
 11
172.612004
 21
-105.837859
 31
0.0
  0
LINE
  5
C6
100
AcDbEntity
  8
0
370
    -3
  6
Continuous
100
AcDbLine
 10
190.312033
 20
-57.837859
 30
0.0
 11
172.212004
 21
-57.837859
 31
0.0
  0
LINE
  5
C7
100
AcDbEntity
  8
0
370
    -3
  6
Continuous
100
AcDbLine
 10
172.212003
 20
-106.837859
 30
0.0
 11
158.212002
 21
-106.837859
 31
0.0
  0
LINE
  5
C8
100
AcDbEntity
  8
0
370
    -3
  6
Continuous
100
AcDbLine
 10
190.712033
 20
-58.237859
 30
0.0
 11
190.712033
 21
-81.837859
 31
0.0
  0
LINE
  5
C9
100
AcDbEntity
  8
0
370
    -3
  6
Continuous
100
AcDbLine
 10
75.211927
 20
-56.837857
 30
0.0
 11
75.211926
 21
-57.837859
 31
0.0
  0
LINE
  5
CA
100
AcDbEntity
  8
0
370
    -3
  6
Continuous
100
AcDbLine
 10
57.111897
 20
-57.837859
 30
0.0
 11
75.211926
 21
-57.837859
 31
0.0
  0
LINE
  5
CB
100
AcDbEntity
  8
0
370
    -3
  6
Continuous
100
AcDbLine
 10
57.111897
 20
-105.837859
 30
0.0
 11
75.211926
 21
-105.837859
 31
0.0
  0
LINE
  5
CC
100
AcDbEntity
  8
0
370
    -3
  6
Continuous
100
AcDbLine
 10
75.211927
 20
-56.837859
 30
0.0
 11
89.211926
 21
-56.837859
 31
0.0
  0
LINE
  5
CD
100
AcDbEntity
  8
0
370
    -3
  6
Continuous
100
AcDbLine
 10
89.211926
 20
-56.837859
 30
0.0
 11
89.211928
 21
-54.837859
 31
0.0
  0
LINE
  5
CE
100
AcDbEntity
  8
0
370
    -3
  6
Continuous
100
AcDbLine
 10
56.711897
 20
-58.237859
 30
0.0
 11
56.711897
 21
-81.837859
 31
0.0
  0
LINE
  5
CF
100
AcDbEntity
  8
0
370
    -3
  6
Continuous
100
AcDbLine
 10
75.211927
 20
-106.837859
 30
0.0
 11
75.211926
 21
-105.837859
 31
0.0
  0
LINE
  5
D0
100
AcDbEntity
  8
0
370
    -3
  6
Continuous
100
AcDbLine
 10
75.711927
 20
-106.837859
 30
0.0
 11
89.211926
 21
-106.837859
 31
0.0
  0
LINE
  5
D1
100
AcDbEntity
  8
0
370
    -3
  6
Continuous
100
AcDbLine
 10
172.212003
 20
-106.837841
 30
0.0
 11
172.212004
 21
-106.237859
 31
0.0
  0
LINE
  5
D2
100
AcDbEntity
  8
0
370
    -3
  6
Continuous
100
AcDbLine
 10
172.212003
 20
-56.837857
 30
0.0
 11
159.712061
 21
-56.837842
 31
0.0
  0
LINE
  5
D3
100
AcDbEntity
  8
0
370
    -3
  6
Continuous
100
AcDbLine
 10
75.211927
 20
-106.837859
 30
0.0
 11
89.211926
 21
-106.837859
 31
0.0
  0
LINE
  5
D4
100
AcDbEntity
  8
0
370
    -3
  6
Continuous
100
AcDbLine
 10
89.211862
 20
-54.837859
 30
0.0
 11
89.211865
 21
-56.837859
 31
0.0
  0
LINE
  5
D5
100
AcDbEntity
  8
0
370
    -3
  6
Continuous
100
AcDbLine
 10
75.211927
 20
-56.837857
 30
0.0
 11
89.211865
 21
-56.83784
 31
0.0
  0
ARC
  5
D6
100
AcDbEntity
  8
0
370
    -3
  6
Continuous
100
AcDbCircle
 10
87.711864
 20
-55.337844
 30
0.0
 40
1.5
100
AcDbArc
 50
269.999945
 51
359.999982
  0
ARC
  5
D7
100
AcDbEntity
  8
0
370
    -3
  6
Continuous
100
AcDbCircle
 10
188.212033
 20
-101.837859
 30
0.0
 40
2.5
100
AcDbArc
 50
0.0
 51
90.0
  0
ARC
  5
D8
100
AcDbEntity
  8
0
370
    -3
  6
Continuous
100
AcDbCircle
 10
59.211897
 20
-101.837859
 30
0.0
 40
2.5
100
AcDbArc
 50
90.0
 51
180.0
  0
ARC
  5
D9
100
AcDbEntity
  8
0
370
    -3
  6
Continuous
100
AcDbCircle
 10
190.312033
 20
-105.437859
 30
0.0
 40
0.4
100
AcDbArc
 50
270.0
 51
0.0
  0
ARC
  5
DA
100
AcDbEntity
  8
0
370
    -3
  6
Continuous
100
AcDbCircle
 10
190.312033
 20
-58.237859
 30
0.0
 40
0.4
100
AcDbArc
 50
0.0
 51
90.0
  0
ARC
  5
DB
100
AcDbEntity
  8
0
370
    -3
  6
Continuous
100
AcDbCircle
 10
172.612004
 20
-106.237859
 30
0.0
 40
0.4
100
AcDbArc
 50
90.0
 51
179.99993
  0
ARC
  5
DC
100
AcDbEntity
  8
0
370
    -3
  6
Continuous
100
AcDbCircle
 10
57.111897
 20
-105.437859
 30
0.0
 40
0.4
100
AcDbArc
 50
180.0
 51
270.0
  0
ARC
  5
DD
100
AcDbEntity
  8
0
370
    -3
  6
Continuous
100
AcDbCircle
 10
57.111897
 20
-58.237859
 30
0.0
 40
0.4
100
AcDbArc
 50
90.0
 51
180.0
  0
ARC
  5
DE
100
AcDbEntity
  8
0
370
    -3
  6
Continuous
100
AcDbCircle
 10
188.212033
 20
-61.837859
 30
0.0
 40
2.5
100
AcDbArc
 50
270.0
 51
0.0
  0
ARC
  5
DF
100
AcDbEntity
  8
0
370
    -3
  6
Continuous
100
AcDbCircle
 10
59.211897
 20
-61.837859
 30
0.0
 40
2.5
100
AcDbArc
 50
180.0
 51
270.0
  0
LINE
  5
E0
100
AcDbEntity
  8
0
370
    -3
  6
Continuous
100
AcDbLine
 10
56.711897
 20
-61.037859
 30
0.0
 11
190.712033
 21
-61.037859
 31
0.0
  0
LINE
  5
E1
100
AcDbEntity
  8
0
370
    -3
  6
Continuous
100
AcDbLine
 10
59.211897
 20
-64.337859
 30
0.0
 11
80.961897
 21
-64.337859
 31
0.0
  0
LINE
  5
E2
100
AcDbEntity
  8
0
370
    -3
  6
Continuous
100
AcDbLine
 10
80.961897
 20
-63.337859
 30
0.0
 11
82.711897
 21
-63.337859
 31
0.0
  0
LINE
  5
E3
100
AcDbEntity
  8
0
370
    -3
  6
Continuous
100
AcDbLine
 10
80.961897
 20
-81.837859
 30
0.0
 11
80.961897
 21
-63.337859
 31
0.0
  0
LINE
  5
E4
100
AcDbEntity
  8
0
370
    -3
  6
Continuous
100
AcDbLine
 10
82.711897
 20
-81.837859
 30
0.0
 11
82.711897
 21
-63.337859
 31
0.0
  0
LINE
  5
E5
100
AcDbEntity
  8
0
370
    -3
  6
Continuous
100
AcDbLine
 10
82.711897
 20
-64.337859
 30
0.0
 11
108.711897
 21
-64.337859
 31
0.0
  0
LINE
  5
E6
100
AcDbEntity
  8
0
370
    -3
  6
Continuous
100
AcDbLine
 10
108.711897
 20
-81.837859
 30
0.0
 11
108.711897
 21
-64.037859
 31
0.0
  0
LINE
  5
E7
100
AcDbEntity
  8
0
370
    -3
  6
Continuous
100
AcDbLine
 10
138.712033
 20
-81.837859
 30
0.0
 11
138.712033
 21
-64.037859
 31
0.0
  0
LINE
  5
E8
100
AcDbEntity
  8
0
370
    -3
  6
Continuous
100
AcDbLine
 10
138.712033
 20
-64.337859
 30
0.0
 11
164.712033
 21
-64.337859
 31
0.0
  0
LINE
  5
E9
100
AcDbEntity
  8
0
370
    -3
  6
Continuous
100
AcDbLine
 10
164.712033
 20
-63.337859
 30
0.0
 11
166.462033
 21
-63.337859
 31
0.0
  0
LINE
  5
EA
100
AcDbEntity
  8
0
370
    -3
  6
Continuous
100
AcDbLine
 10
164.712033
 20
-81.837859
 30
0.0
 11
164.712033
 21
-63.337859
 31
0.0
  0
LINE
  5
EB
100
AcDbEntity
  8
0
370
    -3
  6
Continuous
100
AcDbLine
 10
166.462033
 20
-81.837859
 30
0.0
 11
166.462033
 21
-63.337859
 31
0.0
  0
LINE
  5
EC
100
AcDbEntity
  8
0
370
    -3
  6
Continuous
100
AcDbLine
 10
166.462033
 20
-64.337859
 30
0.0
 11
188.212033
 21
-64.337859
 31
0.0
  0
LINE
  5
ED
100
AcDbEntity
  8
0
370
    -3
  6
Continuous
100
AcDbLine
 10
59.211897
 20
-99.337859
 30
0.0
 11
80.961897
 21
-99.337859
 31
0.0
  0
LINE
  5
EE
100
AcDbEntity
  8
0
370
    -3
  6
Continuous
100
AcDbLine
 10
80.961897
 20
-100.337859
 30
0.0
 11
82.711897
 21
-100.337859
 31
0.0
  0
LINE
  5
EF
100
AcDbEntity
  8
0
370
    -3
  6
Continuous
100
AcDbLine
 10
80.961897
 20
-81.837859
 30
0.0
 11
80.961897
 21
-100.337859
 31
0.0
  0
LINE
  5
F0
100
AcDbEntity
  8
0
370
    -3
  6
Continuous
100
AcDbLine
 10
82.711897
 20
-81.837859
 30
0.0
 11
82.711897
 21
-100.337859
 31
0.0
  0
LINE
  5
F1
100
AcDbEntity
  8
0
370
    -3
  6
Continuous
100
AcDbLine
 10
82.711897
 20
-99.337859
 30
0.0
 11
108.711897
 21
-99.337859
 31
0.0
  0
LINE
  5
F2
100
AcDbEntity
  8
0
370
    -3
  6
Continuous
100
AcDbLine
 10
108.711897
 20
-81.837859
 30
0.0
 11
108.711897
 21
-99.337859
 31
0.0
  0
LINE
  5
F3
100
AcDbEntity
  8
0
370
    -3
  6
Continuous
100
AcDbLine
 10
138.712033
 20
-81.837859
 30
0.0
 11
138.712033
 21
-99.637859
 31
0.0
  0
LINE
  5
F4
100
AcDbEntity
  8
0
370
    -3
  6
Continuous
100
AcDbLine
 10
138.712033
 20
-99.337859
 30
0.0
 11
164.712033
 21
-99.337859
 31
0.0
  0
LINE
  5
F5
100
AcDbEntity
  8
0
370
    -3
  6
Continuous
100
AcDbLine
 10
164.712033
 20
-100.337859
 30
0.0
 11
166.462033
 21
-100.337859
 31
0.0
  0
LINE
  5
F6
100
AcDbEntity
  8
0
370
    -3
  6
Continuous
100
AcDbLine
 10
164.712033
 20
-81.837859
 30
0.0
 11
164.712033
 21
-100.337859
 31
0.0
  0
LINE
  5
F7
100
AcDbEntity
  8
0
370
    -3
  6
Continuous
100
AcDbLine
 10
166.462033
 20
-81.837859
 30
0.0
 11
166.462033
 21
-100.337859
 31
0.0
  0
LINE
  5
F8
100
AcDbEntity
  8
0
370
    -3
  6
CENTER
100
AcDbLine
 10
-65.288103
 20
125.393534
 30
0.0
 11
-65.288103
 21
282.774685
 31
0.0
  0
ARC
  5
F9
100
AcDbEntity
  8
0
370
    -3
  6
Continuous
100
AcDbCircle
 10
-42.288103
 20
268.109277
 30
0.0
 40
1.0
100
AcDbArc
 50
0.0
 51
90.0
  0
LINE
  5
FA
100
AcDbEntity
  8
0
370
    -3
  6
Continuous
100
AcDbLine
 10
-42.288103
 20
269.109277
 30
0.0
 11
-65.288103
 21
269.109277
 31
0.0
  0
LINE
  5
FB
100
AcDbEntity
  8
0
370
    -3
  6
Continuous
100
AcDbLine
 10
-41.288103
 20
268.109277
 30
0.0
 11
-41.288103
 21
265.109277
 31
0.0
  0
ARC
  5
FC
100
AcDbEntity
  8
0
370
    -3
  6
Continuous
100
AcDbCircle
 10
-88.288103
 20
268.109277
 30
0.0
 40
1.0
100
AcDbArc
 50
90.0
 51
180.0
  0
LINE
  5
FD
100
AcDbEntity
  8
0
370
    -3
  6
Continuous
100
AcDbLine
 10
-88.288103
 20
269.109277
 30
0.0
 11
-65.288103
 21
269.109277
 31
0.0
  0
LINE
  5
FE
100
AcDbEntity
  8
0
370
    -3
  6
Continuous
100
AcDbLine
 10
-89.288103
 20
268.109277
 30
0.0
 11
-89.288103
 21
265.109277
 31
0.0
  0
ARC
  5
FF
100
AcDbEntity
  8
0
370
    -3
  6
Continuous
100
AcDbCircle
 10
-88.288103
 20
136.109277
 30
0.0
 40
1.0
100
AcDbArc
 50
180.0
 51
270.0
  0
LINE
  5
100
100
AcDbEntity
  8
0
370
    -3
  6
Continuous
100
AcDbLine
 10
-88.288103
 20
135.109277
 30
0.0
 11
-65.288103
 21
135.109277
 31
0.0
  0
LINE
  5
101
100
AcDbEntity
  8
0
370
    -3
  6
Continuous
100
AcDbLine
 10
-89.288103
 20
136.109277
 30
0.0
 11
-89.288103
 21
139.109277
 31
0.0
  0
ARC
  5
102
100
AcDbEntity
  8
0
370
    -3
  6
Continuous
100
AcDbCircle
 10
-42.288103
 20
136.109277
 30
0.0
 40
1.0
100
AcDbArc
 50
270.0
 51
0.0
  0
LINE
  5
103
100
AcDbEntity
  8
0
370
    -3
  6
Continuous
100
AcDbLine
 10
-42.288103
 20
135.109277
 30
0.0
 11
-65.288103
 21
135.109277
 31
0.0
  0
LINE
  5
104
100
AcDbEntity
  8
0
370
    -3
  6
Continuous
100
AcDbLine
 10
-41.288103
 20
136.109277
 30
0.0
 11
-41.288103
 21
139.109277
 31
0.0
  0
LINE
  5
105
100
AcDbEntity
  8
0
370
    -3
  6
Continuous
100
AcDbLine
 10
5.793038
 20
144.10888
 30
0.0
 11
6.301687
 21
144.608727
 31
0.0
  0
LINE
  5
106
100
AcDbEntity
  8
0
370
    -3
  6
Continuous
100
AcDbLine
 10
-65.05943
 20
139.10888
 30
0.0
 11
-112.55943
 21
139.10888
 31
0.0
  0
LINE
  5
107
100
AcDbEntity
  8
0
370
    -3
  6
Continuous
100
AcDbLine
 10
6.301687
 20
144.608727
 30
0.0
 11
6.502429
 21
156.109277
 31
0.0
  0
LINE
  5
108
100
AcDbEntity
  8
0
370
    -3
  6
Continuous
100
AcDbLine
 10
4.852926
 20
250.609277
 30
0.0
 11
4.852926
 21
260.109277
 31
0.0
  0
LINE
  5
109
100
AcDbEntity
  8
0
370
    -3
  6
Continuous
100
AcDbLine
 10
6.502429
 20
156.109277
 30
0.0
 11
4.852926
 21
250.609277
 31
0.0
  0
LINE
  5
10A
100
AcDbEntity
  8
0
370
    -3
  6
Continuous
100
AcDbLine
 10
-180.848067
 20
260.109277
 30
0.0
 11
-81.489
 21
260.109277
 31
0.0
  0
LINE
  5
10B
100
AcDbEntity
  8
0
370
    -3
  6
Continuous
100
AcDbLine
 10
-182.497571
 20
156.109277
 30
0.0
 11
-81.489
 21
156.109277
 31
0.0
  0
LINE
  5
10C
100
AcDbEntity
  8
0
370
    -3
  6
Continuous
100
AcDbLine
 10
-81.489
 20
144.10888
 30
0.0
 11
-182.288103
 21
144.10888
 31
0.0
  0
LINE
  5
10D
100
AcDbEntity
  8
0
370
    -3
  6
Continuous
100
AcDbLine
 10
-81.489
 20
144.10888
 30
0.0
 11
5.793038
 21
144.10888
 31
0.0
  0
LINE
  5
10E
100
AcDbEntity
  8
0
370
    -3
  6
Continuous
100
AcDbLine
 10
-81.489
 20
156.109277
 30
0.0
 11
6.502429
 21
156.109277
 31
0.0
  0
LINE
  5
10F
100
AcDbEntity
  8
0
370
    -3
  6
Continuous
100
AcDbLine
 10
-81.489
 20
260.109277
 30
0.0
 11
4.852926
 21
260.109277
 31
0.0
  0
LINE
  5
110
100
AcDbEntity
  8
0
370
    -3
  6
Continuous
100
AcDbLine
 10
-17.55943
 20
265.109675
 30
0.0
 11
-17.55943
 21
260.109277
 31
0.0
  0
LINE
  5
111
100
AcDbEntity
  8
0
370
    -3
  6
Continuous
100
AcDbLine
 10
-64.830757
 20
265.109675
 30
0.0
 11
-17.55943
 21
265.109675
 31
0.0
  0
LINE
  5
112
100
AcDbEntity
  8
0
370
    -3
  6
Continuous
100
AcDbLine
 10
-112.55943
 20
265.109675
 30
0.0
 11
-112.55943
 21
260.109277
 31
0.0
  0
LINE
  5
113
100
AcDbEntity
  8
0
370
    -3
  6
Continuous
100
AcDbLine
 10
-64.830757
 20
265.109675
 30
0.0
 11
-112.55943
 21
265.109675
 31
0.0
  0
LINE
  5
114
100
AcDbEntity
  8
0
370
    -3
  6
Continuous
100
AcDbLine
 10
-17.55943
 20
139.109277
 30
0.0
 11
-112.55943
 21
139.109277
 31
0.0
  0
LINE
  5
115
100
AcDbEntity
  8
0
370
    -3
  6
Continuous
100
AcDbLine
 10
-17.55943
 20
139.109277
 30
0.0
 11
-17.55943
 21
144.109277
 31
0.0
  0
LINE
  5
116
100
AcDbEntity
  8
0
370
    -3
  6
Continuous
100
AcDbLine
 10
-112.55943
 20
139.109277
 30
0.0
 11
-112.55943
 21
144.109277
 31
0.0
  0
LINE
  5
117
100
AcDbEntity
  8
0
370
    -3
  6
Continuous
100
AcDbLine
 10
-182.497571
 20
156.109277
 30
0.0
 11
-180.848067
 21
250.609277
 31
0.0
  0
LINE
  5
118
100
AcDbEntity
  8
0
370
    -3
  6
Continuous
100
AcDbLine
 10
-180.848067
 20
250.609277
 30
0.0
 11
-180.848067
 21
260.109277
 31
0.0
  0
LINE
  5
119
100
AcDbEntity
  8
0
370
    -3
  6
Continuous
100
AcDbLine
 10
-182.288103
 20
144.10888
 30
0.0
 11
-182.497571
 21
156.109277
 31
0.0
  0
LINE
  5
11A
100
AcDbEntity
  8
0
370
    -3
  6
CENTER
100
AcDbLine
 10
-536.583996
 20
-73.337703
 30
0.0
 11
-423.472352
 21
-73.337703
 31
0.0
  0
LINE
  5
11B
100
AcDbEntity
  8
0
370
    -3
  6
CENTER
100
AcDbLine
 10
-479.788328
 20
-201.946508
 30
0.0
 11
-479.788328
 21
4.917328
 31
0.0
  0
INSERT
  5
127
100
AcDbEntity
  8
0
100
AcDbBlockReference
  2
ZU_SYM__USERS_HOME_SYMBOL_STD_SYM_B01_00002-1
 10
-440.190348
 20
-112.935682
 30
0.0
 50
270.0
  0
INSERT
  5
133
100
AcDbEntity
  8
0
100
AcDbBlockReference
  2
ZU_SYM__USERS_HOME_SYMBOL_STD_SYM_B01_00003-1
 10
-440.190348
 20
-33.739723
 30
0.0
 41
-1.0
 50
270.0
  0
INSERT
  5
13F
100
AcDbEntity
  8
0
100
AcDbBlockReference
  2
ZU_SYM__USERS_HOME_SYMBOL_STD_SYM_B01_00004-1
 10
-519.386307
 20
-112.935682
 30
0.0
 41
-1.0
 50
90.0
  0
INSERT
  5
14B
100
AcDbEntity
  8
0
100
AcDbBlockReference
  2
ZU_SYM__USERS_HOME_SYMBOL_STD_SYM_B01_00005-1
 10
-519.386307
 20
-33.739723
 30
0.0
 50
90.0
  0
ARC
  5
14C
100
AcDbEntity
  8
0
370
    -3
  6
Continuous
100
AcDbCircle
 10
-526.731519
 20
-47.674757
 30
0.0
 40
1.0
100
AcDbArc
 50
273.0
 51
331.335416
  0
LINE
  5
14D
100
AcDbEntity
  8
0
370
    -3
  6
Continuous
100
AcDbLine
 10
-451.589686
 20
-37.246338
 30
0.0
 11
-440.447214
 21
-27.213611
 31
0.0
  0
LINE
  5
14E
100
AcDbEntity
  8
0
370
    -3
  6
Continuous
100
AcDbLine
 10
-443.696963
 20
-45.139061
 30
0.0
 11
-433.664236
 21
-33.996589
 31
0.0
  0
ARC
  5
14F
100
AcDbEntity
  8
0
370
    -3
  6
Continuous
100
AcDbCircle
 10
-479.788328
 20
-73.337703
 30
0.0
 40
52.5
100
AcDbArc
 50
23.136889
 51
23.663705
  0
ARC
  5
150
100
AcDbEntity
  8
0
370
    -3
  6
Continuous
100
AcDbCircle
 10
-435.704495
 20
-43.024905
 30
0.0
 40
1.0
100
AcDbArc
 50
217.785803
 51
267.0
  0
ARC
  5
151
100
AcDbEntity
  8
0
370
    -3
  6
Continuous
100
AcDbCircle
 10
-435.638677
 20
-43.120847
 30
0.0
 40
1.0
100
AcDbArc
 50
93.0
 51
211.115753
  0
ARC
  5
152
100
AcDbEntity
  8
0
370
    -3
  6
Continuous
100
AcDbCircle
 10
-428.810391
 20
-58.837703
 30
0.0
 40
0.5
100
AcDbArc
 50
195.877702
 51
270.0
  0
LINE
  5
153
100
AcDbEntity
  8
0
370
    -3
  6
Continuous
100
AcDbLine
 10
-428.708411
 20
-59.337703
 30
0.0
 11
-428.810391
 21
-59.337703
 31
0.0
  0
ARC
  5
154
100
AcDbEntity
  8
0
370
    -3
  6
Continuous
100
AcDbCircle
 10
-428.708411
 20
-59.837703
 30
0.0
 40
0.5
100
AcDbArc
 50
7.79785
 51
90.0
  0
ARC
  5
155
100
AcDbEntity
  8
0
370
    -3
  6
Continuous
100
AcDbCircle
 10
-527.288328
 20
-73.337703
 30
0.0
 40
100.0
100
AcDbArc
 50
0.0
 51
7.79785
  0
ARC
  5
156
100
AcDbEntity
  8
0
370
    -3
  6
Continuous
100
AcDbCircle
 10
-479.788328
 20
-73.337703
 30
0.0
 40
52.5
100
AcDbArc
 50
15.877702
 51
18.664571
  0
ARC
  5
157
100
AcDbEntity
  8
0
370
    -3
  6
Continuous
100
AcDbCircle
 10
-479.788328
 20
-73.337703
 30
0.0
 40
52.5
100
AcDbArc
 50
28.562834
 51
28.973449
  0
ARC
  5
158
100
AcDbEntity
  8
0
370
    -3
  6
Continuous
100
AcDbCircle
 10
-429.788328
 20
-49.837703
 30
0.0
 40
1.0
100
AcDbArc
 50
273.0
 51
87.0
  0
ARC
  5
159
100
AcDbEntity
  8
0
370
    -3
  6
Continuous
100
AcDbCircle
 10
-432.938053
 20
-47.505517
 30
0.0
 40
1.0
100
AcDbArc
 50
93.0
 51
208.871352
  0
LINE
  5
15A
100
AcDbEntity
  8
0
370
    -3
  6
Continuous
100
AcDbLine
 10
-432.897472
 20
-48.673387
 30
0.0
 11
-429.735992
 21
-48.839073
 31
0.0
  0
ARC
  5
15B
100
AcDbEntity
  8
0
370
    -3
  6
Continuous
100
AcDbCircle
 10
-432.845136
 20
-47.674757
 30
0.0
 40
1.0
100
AcDbArc
 50
208.664584
 51
267.0
  0
ARC
  5
15C
100
AcDbEntity
  8
0
370
    -3
  6
Continuous
100
AcDbCircle
 10
-430.774678
 20
-51.89214
 30
0.0
 40
1.0
100
AcDbArc
 50
93.0
 51
203.63143
  0
ARC
  5
15D
100
AcDbEntity
  8
0
370
    -3
  6
Continuous
100
AcDbCircle
 10
-429.101981
 20
-56.216247
 30
0.0
 40
1.0
100
AcDbArc
 50
110.070332
 51
198.664571
  0
ARC
  5
15E
100
AcDbEntity
  8
0
370
    -3
  6
Continuous
100
AcDbCircle
 10
-430.601513
 20
-52.292341
 30
0.0
 40
1.0
100
AcDbArc
 50
203.164432
 51
267.0
  0
LINE
  5
15F
100
AcDbEntity
  8
0
370
    -3
  6
Continuous
100
AcDbLine
 10
-430.653849
 20
-53.29097
 30
0.0
 11
-429.735992
 21
-53.339073
 31
0.0
  0
ARC
  5
160
100
AcDbEntity
  8
0
370
    -3
  6
Continuous
100
AcDbCircle
 10
-429.788328
 20
-54.337703
 30
0.0
 40
1.0
100
AcDbArc
 50
290.070332
 51
87.0
  0
LINE
  5
161
100
AcDbEntity
  8
0
370
    -3
  6
Continuous
100
AcDbLine
 10
-430.827014
 20
-50.89351
 30
0.0
 11
-429.735992
 21
-50.836332
 31
0.0
  0
ARC
  5
162
100
AcDbEntity
  8
0
370
    -3
  6
Continuous
100
AcDbCircle
 10
-429.788328
 20
-45.337703
 30
0.0
 40
1.0
100
AcDbArc
 50
273.0
 51
87.0
  0
LINE
  5
163
100
AcDbEntity
  8
0
370
    -3
  6
Continuous
100
AcDbLine
 10
-432.990389
 20
-46.506888
 30
0.0
 11
-429.735992
 21
-46.336332
 31
0.0
  0
ARC
  5
164
100
AcDbEntity
  8
0
370
    -3
  6
Continuous
100
AcDbCircle
 10
-430.288328
 20
-40.837703
 30
0.0
 40
1.0
100
AcDbArc
 50
273.0
 51
87.0
  0
LINE
  5
165
100
AcDbEntity
  8
0
370
    -3
  6
Continuous
100
AcDbLine
 10
-435.691013
 20
-42.122218
 30
0.0
 11
-430.235992
 21
-41.836332
 31
0.0
  0
LINE
  5
166
100
AcDbEntity
  8
0
370
    -3
  6
Continuous
100
AcDbLine
 10
-435.756831
 20
-44.023534
 30
0.0
 11
-429.735992
 21
-44.339073
 31
0.0
  0
LINE
  5
167
100
AcDbEntity
  8
0
370
    -3
  6
Continuous
100
AcDbLine
 10
-460.488328
 20
-19.837703
 30
0.0
 11
-479.788328
 21
-19.837703
 31
0.0
  0
ARC
  5
168
100
AcDbEntity
  8
0
370
    -3
  6
Continuous
100
AcDbCircle
 10
-460.488328
 20
-20.537703
 30
0.0
 40
0.7
100
AcDbArc
 50
0.0
 51
90.0
  0
LINE
  5
169
100
AcDbEntity
  8
0
370
    -3
  6
Continuous
100
AcDbLine
 10
-459.788328
 20
-20.537703
 30
0.0
 11
-459.788328
 21
-24.131504
 31
0.0
  0
ARC
  5
16A
100
AcDbEntity
  8
0
370
    -3
  6
Continuous
100
AcDbCircle
 10
-479.788328
 20
-73.337703
 30
0.0
 40
52.5
100
AcDbArc
 50
66.304919
 51
66.888398
  0
ARC
  5
16B
100
AcDbEntity
  8
0
370
    -3
  6
Continuous
100
AcDbCircle
 10
-458.788328
 20
-24.131504
 30
0.0
 40
1.0
100
AcDbArc
 50
180.0
 51
246.888398
  0
ARC
  5
16C
100
AcDbEntity
  8
0
370
    -3
  6
Continuous
100
AcDbCircle
 10
-479.788328
 20
-73.337703
 30
0.0
 40
52.5
100
AcDbArc
 50
66.336295
 51
66.888398
  0
ARC
  5
16D
100
AcDbEntity
  8
0
370
    -3
  6
Continuous
100
AcDbCircle
 10
-479.788328
 20
-73.337703
 30
0.0
 40
52.5
100
AcDbArc
 50
61.026551
 51
61.437166
  0
ARC
  5
16E
100
AcDbEntity
  8
0
370
    -3
  6
Continuous
100
AcDbCircle
 10
-479.788328
 20
-73.337703
 30
0.0
 40
52.5
100
AcDbArc
 50
61.026551
 51
61.437166
  0
ARC
  5
16F
100
AcDbEntity
  8
0
370
    -3
  6
Continuous
100
AcDbCircle
 10
-447.288328
 20
-23.837703
 30
0.0
 40
1.0
100
AcDbArc
 50
3.0
 51
177.0
  0
ARC
  5
170
100
AcDbEntity
  8
0
370
    -3
  6
Continuous
100
AcDbCircle
 10
-451.788328
 20
-23.337703
 30
0.0
 40
1.0
100
AcDbArc
 50
3.0
 51
177.0
  0
LINE
  5
171
100
AcDbEntity
  8
0
370
    -3
  6
Continuous
100
AcDbLine
 10
-448.572843
 20
-29.240388
 30
0.0
 11
-448.286957
 21
-23.785367
 31
0.0
  0
LINE
  5
172
100
AcDbEntity
  8
0
370
    -3
  6
Continuous
100
AcDbLine
 10
-450.474159
 20
-29.306206
 30
0.0
 11
-450.789698
 21
-23.285367
 31
0.0
  0
LINE
  5
173
100
AcDbEntity
  8
0
370
    -3
  6
Continuous
100
AcDbLine
 10
-452.957513
 20
-26.539764
 30
0.0
 11
-452.786957
 21
-23.285367
 31
0.0
  0
ARC
  5
174
100
AcDbEntity
  8
0
370
    -3
  6
Continuous
100
AcDbCircle
 10
-453.956143
 20
-26.487428
 30
0.0
 40
1.0
100
AcDbArc
 50
241.128648
 51
357.0
  0
LINE
  5
175
100
AcDbEntity
  8
0
370
    -3
  6
Continuous
100
AcDbLine
 10
-455.124012
 20
-26.446847
 30
0.0
 11
-455.289698
 21
-23.285367
 31
0.0
  0
ARC
  5
176
100
AcDbEntity
  8
0
370
    -3
  6
Continuous
100
AcDbCircle
 10
-454.125383
 20
-26.394511
 30
0.0
 40
1.0
100
AcDbArc
 50
183.0
 51
241.335416
  0
ARC
  5
177
100
AcDbEntity
  8
0
370
    -3
  6
Continuous
100
AcDbCircle
 10
-456.288328
 20
-23.337703
 30
0.0
 40
1.0
100
AcDbArc
 50
3.0
 51
177.0
  0
ARC
  5
178
100
AcDbEntity
  8
0
370
    -3
  6
Continuous
100
AcDbCircle
 10
-458.342765
 20
-24.324053
 30
0.0
 40
1.0
100
AcDbArc
 50
246.36857
 51
357.0
  0
LINE
  5
179
100
AcDbEntity
  8
0
370
    -3
  6
Continuous
100
AcDbLine
 10
-457.344135
 20
-24.376389
 30
0.0
 11
-457.286957
 21
-23.285367
 31
0.0
  0
ARC
  5
17A
100
AcDbEntity
  8
0
370
    -3
  6
Continuous
100
AcDbCircle
 10
-449.571472
 20
-29.188052
 30
0.0
 40
1.0
100
AcDbArc
 50
235.611524
 51
357.0
  0
ARC
  5
17B
100
AcDbEntity
  8
0
370
    -3
  6
Continuous
100
AcDbCircle
 10
-449.47553
 20
-29.25387
 30
0.0
 40
1.0
100
AcDbArc
 50
183.0
 51
235.486921
  0
ARC
  5
17C
100
AcDbEntity
  8
0
370
    -3
  6
Continuous
100
AcDbCircle
 10
-434.407381
 20
-33.327458
 30
0.0
 40
1.0
100
AcDbArc
 50
318.0
 51
41.401106
  0
LINE
  5
17D
100
AcDbEntity
  8
0
370
    -3
  6
Continuous
100
AcDbLine
 10
-436.439627
 20
-39.513954
 30
0.0
 11
-430.235992
 21
-39.839073
 31
0.0
  0
ARC
  5
17E
100
AcDbEntity
  8
0
370
    -3
  6
Continuous
100
AcDbCircle
 10
-436.387291
 20
-38.515325
 30
0.0
 40
1.0
100
AcDbArc
 50
138.0
 51
267.0
  0
ARC
  5
17F
100
AcDbEntity
  8
0
370
    -3
  6
Continuous
100
AcDbCircle
 10
-439.778084
 20
-27.956755
 30
0.0
 40
1.0
100
AcDbArc
 50
48.598894
 51
132.0
  0
ARC
  5
180
100
AcDbEntity
  8
0
370
    -3
  6
Continuous
100
AcDbCircle
 10
-479.788328
 20
-73.337703
 30
0.0
 40
61.5
100
AcDbArc
 50
41.401106
 51
48.598894
  0
LINE
  5
181
100
AcDbEntity
  8
0
370
    -3
  6
Continuous
100
AcDbLine
 10
-445.964579
 20
-29.989002
 30
0.0
 11
-446.289698
 21
-23.785367
 31
0.0
  0
ARC
  5
182
100
AcDbEntity
  8
0
370
    -3
  6
Continuous
100
AcDbCircle
 10
-444.96595
 20
-29.936666
 30
0.0
 40
1.0
100
AcDbArc
 50
183.0
 51
312.0
  0
LINE
  5
183
100
AcDbEntity
  8
0
370
    -3
  6
Continuous
100
AcDbLine
 10
-507.986969
 20
-37.246338
 30
0.0
 11
-519.129441
 21
-27.213611
 31
0.0
  0
LINE
  5
184
100
AcDbEntity
  8
0
370
    -3
  6
Continuous
100
AcDbLine
 10
-515.879693
 20
-45.139061
 30
0.0
 11
-525.91242
 21
-33.996589
 31
0.0
  0
ARC
  5
185
100
AcDbEntity
  8
0
370
    -3
  6
Continuous
100
AcDbCircle
 10
-479.788328
 20
-73.337703
 30
0.0
 40
52.5
100
AcDbArc
 50
156.336295
 51
156.863111
  0
ARC
  5
186
100
AcDbEntity
  8
0
370
    -3
  6
Continuous
100
AcDbCircle
 10
-523.87216
 20
-43.024905
 30
0.0
 40
1.0
100
AcDbArc
 50
273.0
 51
322.214197
  0
ARC
  5
187
100
AcDbEntity
  8
0
370
    -3
  6
Continuous
100
AcDbCircle
 10
-523.937978
 20
-43.120847
 30
0.0
 40
1.0
100
AcDbArc
 50
328.884247
 51
87.0
  0
ARC
  5
188
100
AcDbEntity
  8
0
370
    -3
  6
Continuous
100
AcDbCircle
 10
-530.766264
 20
-58.837703
 30
0.0
 40
0.5
100
AcDbArc
 50
270.0
 51
344.122298
  0
LINE
  5
189
100
AcDbEntity
  8
0
370
    -3
  6
Continuous
100
AcDbLine
 10
-530.868245
 20
-59.337703
 30
0.0
 11
-530.766264
 21
-59.337703
 31
0.0
  0
ARC
  5
18A
100
AcDbEntity
  8
0
370
    -3
  6
Continuous
100
AcDbCircle
 10
-530.868245
 20
-59.837703
 30
0.0
 40
0.5
100
AcDbArc
 50
90.0
 51
172.20215
  0
ARC
  5
18B
100
AcDbEntity
  8
0
370
    -3
  6
Continuous
100
AcDbCircle
 10
-432.288328
 20
-73.337703
 30
0.0
 40
100.0
100
AcDbArc
 50
172.20215
 51
180.0
  0
ARC
  5
18C
100
AcDbEntity
  8
0
370
    -3
  6
Continuous
100
AcDbCircle
 10
-479.788328
 20
-73.337703
 30
0.0
 40
52.5
100
AcDbArc
 50
161.335429
 51
164.122298
  0
ARC
  5
18D
100
AcDbEntity
  8
0
370
    -3
  6
Continuous
100
AcDbCircle
 10
-479.788328
 20
-73.337703
 30
0.0
 40
52.5
100
AcDbArc
 50
151.026551
 51
151.437166
  0
ARC
  5
18E
100
AcDbEntity
  8
0
370
    -3
  6
Continuous
100
AcDbCircle
 10
-529.788328
 20
-49.837703
 30
0.0
 40
1.0
100
AcDbArc
 50
93.0
 51
267.0
  0
ARC
  5
18F
100
AcDbEntity
  8
0
370
    -3
  6
Continuous
100
AcDbCircle
 10
-526.638602
 20
-47.505517
 30
0.0
 40
1.0
100
AcDbArc
 50
331.128648
 51
87.0
  0
LINE
  5
190
100
AcDbEntity
  8
0
370
    -3
  6
Continuous
100
AcDbLine
 10
-526.679183
 20
-48.673387
 30
0.0
 11
-529.840664
 21
-48.839073
 31
0.0
  0
ARC
  5
191
100
AcDbEntity
  8
0
370
    -3
  6
Continuous
100
AcDbCircle
 10
-526.731519
 20
-99.000648
 30
0.0
 40
1.0
100
AcDbArc
 50
28.664584
 51
87.0
  0
ARC
  5
192
100
AcDbEntity
  8
0
370
    -3
  6
Continuous
100
AcDbCircle
 10
-528.801977
 20
-51.89214
 30
0.0
 40
1.0
100
AcDbArc
 50
336.36857
 51
87.0
  0
ARC
  5
193
100
AcDbEntity
  8
0
370
    -3
  6
Continuous
100
AcDbCircle
 10
-530.474675
 20
-56.216247
 30
0.0
 40
1.0
100
AcDbArc
 50
341.335429
 51
69.929668
  0
ARC
  5
194
100
AcDbEntity
  8
0
370
    -3
  6
Continuous
100
AcDbCircle
 10
-528.975142
 20
-52.292341
 30
0.0
 40
1.0
100
AcDbArc
 50
273.0
 51
336.835568
  0
LINE
  5
195
100
AcDbEntity
  8
0
370
    -3
  6
Continuous
100
AcDbLine
 10
-528.922807
 20
-53.29097
 30
0.0
 11
-529.840664
 21
-53.339073
 31
0.0
  0
ARC
  5
196
100
AcDbEntity
  8
0
370
    -3
  6
Continuous
100
AcDbCircle
 10
-529.788328
 20
-54.337703
 30
0.0
 40
1.0
100
AcDbArc
 50
93.0
 51
249.929668
  0
LINE
  5
197
100
AcDbEntity
  8
0
370
    -3
  6
Continuous
100
AcDbLine
 10
-528.749641
 20
-50.89351
 30
0.0
 11
-529.840664
 21
-50.836332
 31
0.0
  0
ARC
  5
198
100
AcDbEntity
  8
0
370
    -3
  6
Continuous
100
AcDbCircle
 10
-529.788328
 20
-45.337703
 30
0.0
 40
1.0
100
AcDbArc
 50
93.0
 51
267.0
  0
LINE
  5
199
100
AcDbEntity
  8
0
370
    -3
  6
Continuous
100
AcDbLine
 10
-526.586266
 20
-46.506888
 30
0.0
 11
-529.840664
 21
-46.336332
 31
0.0
  0
ARC
  5
19A
100
AcDbEntity
  8
0
370
    -3
  6
Continuous
100
AcDbCircle
 10
-529.288328
 20
-40.837703
 30
0.0
 40
1.0
100
AcDbArc
 50
93.0
 51
267.0
  0
LINE
  5
19B
100
AcDbEntity
  8
0
370
    -3
  6
Continuous
100
AcDbLine
 10
-523.885642
 20
-42.122218
 30
0.0
 11
-529.340664
 21
-41.836332
 31
0.0
  0
LINE
  5
19C
100
AcDbEntity
  8
0
370
    -3
  6
Continuous
100
AcDbLine
 10
-523.819824
 20
-44.023534
 30
0.0
 11
-529.840664
 21
-44.339073
 31
0.0
  0
LINE
  5
19D
100
AcDbEntity
  8
0
370
    -3
  6
Continuous
100
AcDbLine
 10
-499.088328
 20
-19.837703
 30
0.0
 11
-479.788328
 21
-19.837703
 31
0.0
  0
ARC
  5
19E
100
AcDbEntity
  8
0
370
    -3
  6
Continuous
100
AcDbCircle
 10
-499.088328
 20
-20.537703
 30
0.0
 40
0.7
100
AcDbArc
 50
90.0
 51
180.0
  0
LINE
  5
19F
100
AcDbEntity
  8
0
370
    -3
  6
Continuous
100
AcDbLine
 10
-499.788328
 20
-20.537703
 30
0.0
 11
-499.788328
 21
-24.131504
 31
0.0
  0
ARC
  5
1A0
100
AcDbEntity
  8
0
370
    -3
  6
Continuous
100
AcDbCircle
 10
-479.788328
 20
-73.337703
 30
0.0
 40
52.5
100
AcDbArc
 50
113.111602
 51
113.695081
  0
ARC
  5
1A1
100
AcDbEntity
  8
0
370
    -3
  6
Continuous
100
AcDbCircle
 10
-500.788328
 20
-24.131504
 30
0.0
 40
1.0
100
AcDbArc
 50
293.111602
 51
0.0
  0
ARC
  5
1A2
100
AcDbEntity
  8
0
370
    -3
  6
Continuous
100
AcDbCircle
 10
-479.788328
 20
-73.337703
 30
0.0
 40
52.5
100
AcDbArc
 50
113.111602
 51
113.663705
  0
ARC
  5
1A3
100
AcDbEntity
  8
0
370
    -3
  6
Continuous
100
AcDbCircle
 10
-479.788328
 20
-73.337703
 30
0.0
 40
52.5
100
AcDbArc
 50
118.562834
 51
118.973449
  0
ARC
  5
1A4
100
AcDbEntity
  8
0
370
    -3
  6
Continuous
100
AcDbCircle
 10
-479.788328
 20
-73.337703
 30
0.0
 40
52.5
100
AcDbArc
 50
118.562834
 51
118.973449
  0
ARC
  5
1A5
100
AcDbEntity
  8
0
370
    -3
  6
Continuous
100
AcDbCircle
 10
-512.288328
 20
-23.837703
 30
0.0
 40
1.0
100
AcDbArc
 50
3.0
 51
177.0
  0
ARC
  5
1A6
100
AcDbEntity
  8
0
370
    -3
  6
Continuous
100
AcDbCircle
 10
-507.788328
 20
-23.337703
 30
0.0
 40
1.0
100
AcDbArc
 50
3.0
 51
177.0
  0
LINE
  5
1A7
100
AcDbEntity
  8
0
370
    -3
  6
Continuous
100
AcDbLine
 10
-511.003813
 20
-29.240388
 30
0.0
 11
-511.289698
 21
-23.785367
 31
0.0
  0
LINE
  5
1A8
100
AcDbEntity
  8
0
370
    -3
  6
Continuous
100
AcDbLine
 10
-509.102496
 20
-29.306206
 30
0.0
 11
-508.786957
 21
-23.285367
 31
0.0
  0
LINE
  5
1A9
100
AcDbEntity
  8
0
370
    -3
  6
Continuous
100
AcDbLine
 10
-506.619142
 20
-26.539764
 30
0.0
 11
-506.789698
 21
-23.285367
 31
0.0
  0
ARC
  5
1AA
100
AcDbEntity
  8
0
370
    -3
  6
Continuous
100
AcDbCircle
 10
-505.620513
 20
-26.487428
 30
0.0
 40
1.0
100
AcDbArc
 50
183.0
 51
298.871352
  0
LINE
  5
1AB
100
AcDbEntity
  8
0
370
    -3
  6
Continuous
100
AcDbLine
 10
-504.452643
 20
-26.446847
 30
0.0
 11
-504.286957
 21
-23.285367
 31
0.0
  0
ARC
  5
1AC
100
AcDbEntity
  8
0
370
    -3
  6
Continuous
100
AcDbCircle
 10
-505.451273
 20
-26.394511
 30
0.0
 40
1.0
100
AcDbArc
 50
298.664584
 51
357.0
  0
ARC
  5
1AD
100
AcDbEntity
  8
0
370
    -3
  6
Continuous
100
AcDbCircle
 10
-503.288328
 20
-23.337703
 30
0.0
 40
1.0
100
AcDbArc
 50
3.0
 51
177.0
  0
ARC
  5
1AE
100
AcDbEntity
  8
0
370
    -3
  6
Continuous
100
AcDbCircle
 10
-501.233891
 20
-24.324053
 30
0.0
 40
1.0
100
AcDbArc
 50
183.0
 51
293.63143
  0
LINE
  5
1AF
100
AcDbEntity
  8
0
370
    -3
  6
Continuous
100
AcDbLine
 10
-502.23252
 20
-24.376389
 30
0.0
 11
-502.289698
 21
-23.285367
 31
0.0
  0
ARC
  5
1B0
100
AcDbEntity
  8
0
370
    -3
  6
Continuous
100
AcDbCircle
 10
-510.005183
 20
-29.188052
 30
0.0
 40
1.0
100
AcDbArc
 50
183.0
 51
304.388476
  0
ARC
  5
1B1
100
AcDbEntity
  8
0
370
    -3
  6
Continuous
100
AcDbCircle
 10
-510.101126
 20
-29.25387
 30
0.0
 40
1.0
100
AcDbArc
 50
304.513079
 51
357.0
  0
ARC
  5
1B2
100
AcDbEntity
  8
0
370
    -3
  6
Continuous
100
AcDbCircle
 10
-525.169275
 20
-33.327458
 30
0.0
 40
1.0
100
AcDbArc
 50
138.598894
 51
222.0
  0
LINE
  5
1B3
100
AcDbEntity
  8
0
370
    -3
  6
Continuous
100
AcDbLine
 10
-523.137028
 20
-39.513954
 30
0.0
 11
-529.340664
 21
-39.839073
 31
0.0
  0
ARC
  5
1B4
100
AcDbEntity
  8
0
370
    -3
  6
Continuous
100
AcDbCircle
 10
-523.189364
 20
-38.515325
 30
0.0
 40
1.0
100
AcDbArc
 50
273.0
 51
42.0
  0
ARC
  5
1B5
100
AcDbEntity
  8
0
370
    -3
  6
Continuous
100
AcDbCircle
 10
-519.798572
 20
-27.956755
 30
0.0
 40
1.0
100
AcDbArc
 50
48.0
 51
131.401106
  0
ARC
  5
1B6
100
AcDbEntity
  8
0
370
    -3
  6
Continuous
100
AcDbCircle
 10
-479.788328
 20
-73.337703
 30
0.0
 40
61.5
100
AcDbArc
 50
131.401106
 51
138.598894
  0
LINE
  5
1B7
100
AcDbEntity
  8
0
370
    -3
  6
Continuous
100
AcDbLine
 10
-513.612076
 20
-29.989002
 30
0.0
 11
-513.286957
 21
-23.785367
 31
0.0
  0
ARC
  5
1B8
100
AcDbEntity
  8
0
370
    -3
  6
Continuous
100
AcDbCircle
 10
-514.610706
 20
-29.936666
 30
0.0
 40
1.0
100
AcDbArc
 50
228.0
 51
357.0
  0
ARC
  5
1B9
100
AcDbEntity
  8
0
370
    -3
  6
Continuous
100
AcDbCircle
 10
-432.288328
 20
-73.337703
 30
0.0
 40
100.0
100
AcDbArc
 50
180.0
 51
187.79785
  0
ARC
  5
1BA
100
AcDbEntity
  8
0
370
    -3
  6
Continuous
100
AcDbCircle
 10
-527.288328
 20
-73.337703
 30
0.0
 40
100.0
100
AcDbArc
 50
352.20215
 51
0.0
  0
LINE
  5
1BB
100
AcDbEntity
  8
0
370
    -3
  6
Continuous
100
AcDbLine
 10
-507.986969
 20
-109.429067
 30
0.0
 11
-519.129441
 21
-119.461794
 31
0.0
  0
LINE
  5
1BC
100
AcDbEntity
  8
0
370
    -3
  6
Continuous
100
AcDbLine
 10
-515.879693
 20
-101.536344
 30
0.0
 11
-525.91242
 21
-112.678816
 31
0.0
  0
ARC
  5
1BD
100
AcDbEntity
  8
0
370
    -3
  6
Continuous
100
AcDbCircle
 10
-479.788328
 20
-73.337703
 30
0.0
 40
52.5
100
AcDbArc
 50
203.136889
 51
203.663705
  0
ARC
  5
1BE
100
AcDbEntity
  8
0
370
    -3
  6
Continuous
100
AcDbCircle
 10
-523.87216
 20
-103.6505
 30
0.0
 40
1.0
100
AcDbArc
 50
37.785803
 51
87.0
  0
ARC
  5
1BF
100
AcDbEntity
  8
0
370
    -3
  6
Continuous
100
AcDbCircle
 10
-523.937978
 20
-103.554558
 30
0.0
 40
1.0
100
AcDbArc
 50
273.0
 51
31.115753
  0
ARC
  5
1C0
100
AcDbEntity
  8
0
370
    -3
  6
Continuous
100
AcDbCircle
 10
-530.766264
 20
-87.837703
 30
0.0
 40
0.5
100
AcDbArc
 50
15.877702
 51
90.0
  0
LINE
  5
1C1
100
AcDbEntity
  8
0
370
    -3
  6
Continuous
100
AcDbLine
 10
-530.868245
 20
-87.337703
 30
0.0
 11
-530.766264
 21
-87.337703
 31
0.0
  0
ARC
  5
1C2
100
AcDbEntity
  8
0
370
    -3
  6
Continuous
100
AcDbCircle
 10
-530.868245
 20
-86.837703
 30
0.0
 40
0.5
100
AcDbArc
 50
187.79785
 51
270.0
  0
ARC
  5
1C3
100
AcDbEntity
  8
0
370
    -3
  6
Continuous
100
AcDbCircle
 10
-479.788328
 20
-73.337703
 30
0.0
 40
52.5
100
AcDbArc
 50
195.877702
 51
198.664571
  0
ARC
  5
1C4
100
AcDbEntity
  8
0
370
    -3
  6
Continuous
100
AcDbCircle
 10
-479.788328
 20
-73.337703
 30
0.0
 40
52.5
100
AcDbArc
 50
208.562834
 51
208.973449
  0
ARC
  5
1C5
100
AcDbEntity
  8
0
370
    -3
  6
Continuous
100
AcDbCircle
 10
-529.788328
 20
-96.837703
 30
0.0
 40
1.0
100
AcDbArc
 50
93.0
 51
267.0
  0
ARC
  5
1C6
100
AcDbEntity
  8
0
370
    -3
  6
Continuous
100
AcDbCircle
 10
-526.638602
 20
-99.169888
 30
0.0
 40
1.0
100
AcDbArc
 50
273.0
 51
28.871352
  0
LINE
  5
1C7
100
AcDbEntity
  8
0
370
    -3
  6
Continuous
100
AcDbLine
 10
-526.679183
 20
-98.002018
 30
0.0
 11
-529.840664
 21
-97.836332
 31
0.0
  0
ARC
  5
1C8
100
AcDbEntity
  8
0
370
    -3
  6
Continuous
100
AcDbCircle
 10
-528.801977
 20
-94.783265
 30
0.0
 40
1.0
100
AcDbArc
 50
273.0
 51
23.63143
  0
ARC
  5
1C9
100
AcDbEntity
  8
0
370
    -3
  6
Continuous
100
AcDbCircle
 10
-530.474675
 20
-90.459158
 30
0.0
 40
1.0
100
AcDbArc
 50
290.070332
 51
18.664571
  0
ARC
  5
1CA
100
AcDbEntity
  8
0
370
    -3
  6
Continuous
100
AcDbCircle
 10
-528.975142
 20
-94.383064
 30
0.0
 40
1.0
100
AcDbArc
 50
23.164432
 51
87.0
  0
LINE
  5
1CB
100
AcDbEntity
  8
0
370
    -3
  6
Continuous
100
AcDbLine
 10
-528.922807
 20
-93.384435
 30
0.0
 11
-529.840664
 21
-93.336332
 31
0.0
  0
ARC
  5
1CC
100
AcDbEntity
  8
0
370
    -3
  6
Continuous
100
AcDbCircle
 10
-529.788328
 20
-92.337703
 30
0.0
 40
1.0
100
AcDbArc
 50
110.070332
 51
267.0
  0
LINE
  5
1CD
100
AcDbEntity
  8
0
370
    -3
  6
Continuous
100
AcDbLine
 10
-528.749641
 20
-95.781895
 30
0.0
 11
-529.840664
 21
-95.839073
 31
0.0
  0
ARC
  5
1CE
100
AcDbEntity
  8
0
370
    -3
  6
Continuous
100
AcDbCircle
 10
-529.788328
 20
-101.337703
 30
0.0
 40
1.0
100
AcDbArc
 50
93.0
 51
267.0
  0
LINE
  5
1CF
100
AcDbEntity
  8
0
370
    -3
  6
Continuous
100
AcDbLine
 10
-526.586266
 20
-100.168517
 30
0.0
 11
-529.840664
 21
-100.339073
 31
0.0
  0
ARC
  5
1D0
100
AcDbEntity
  8
0
370
    -3
  6
Continuous
100
AcDbCircle
 10
-529.288328
 20
-105.837703
 30
0.0
 40
1.0
100
AcDbArc
 50
93.0
 51
267.0
  0
LINE
  5
1D1
100
AcDbEntity
  8
0
370
    -3
  6
Continuous
100
AcDbLine
 10
-523.885642
 20
-104.553187
 30
0.0
 11
-529.340664
 21
-104.839073
 31
0.0
  0
LINE
  5
1D2
100
AcDbEntity
  8
0
370
    -3
  6
Continuous
100
AcDbLine
 10
-523.819824
 20
-102.651871
 30
0.0
 11
-529.840664
 21
-102.336332
 31
0.0
  0
ARC
  5
1D3
100
AcDbEntity
  8
0
370
    -3
  6
Continuous
100
AcDbCircle
 10
-479.788328
 20
-73.337703
 30
0.0
 40
52.5
100
AcDbArc
 50
241.026551
 51
241.437166
  0
ARC
  5
1D4
100
AcDbEntity
  8
0
370
    -3
  6
Continuous
100
AcDbCircle
 10
-479.788328
 20
-73.337703
 30
0.0
 40
52.5
100
AcDbArc
 50
241.026551
 51
241.437166
  0
LINE
  5
1D5
100
AcDbEntity
  8
0
370
    -3
  6
Continuous
100
AcDbLine
 10
-511.003813
 20
-117.435017
 30
0.0
 11
-511.289698
 21
-122.890038
 31
0.0
  0
LINE
  5
1D6
100
AcDbEntity
  8
0
370
    -3
  6
Continuous
100
AcDbLine
 10
-509.102496
 20
-117.369199
 30
0.0
 11
-508.786957
 21
-123.390038
 31
0.0
  0
ARC
  5
1D7
100
AcDbEntity
  8
0
370
    -3
  6
Continuous
100
AcDbCircle
 10
-505.620513
 20
-120.187977
 30
0.0
 40
1.0
100
AcDbArc
 50
61.128648
 51
177.0
  0
ARC
  5
1D8
100
AcDbEntity
  8
0
370
    -3
  6
Continuous
100
AcDbCircle
 10
-505.451273
 20
-120.280894
 30
0.0
 40
1.0
100
AcDbArc
 50
3.0
 51
61.335416
  0
ARC
  5
1D9
100
AcDbEntity
  8
0
370
    -3
  6
Continuous
100
AcDbCircle
 10
-510.005183
 20
-117.487353
 30
0.0
 40
1.0
100
AcDbArc
 50
55.611524
 51
177.0
  0
ARC
  5
1DA
100
AcDbEntity
  8
0
370
    -3
  6
Continuous
100
AcDbCircle
 10
-510.101126
 20
-117.421535
 30
0.0
 40
1.0
100
AcDbArc
 50
3.0
 51
55.486921
  0
ARC
  5
1DB
100
AcDbEntity
  8
0
370
    -3
  6
Continuous
100
AcDbCircle
 10
-525.169275
 20
-113.347947
 30
0.0
 40
1.0
100
AcDbArc
 50
138.0
 51
221.401106
  0
LINE
  5
1DC
100
AcDbEntity
  8
0
370
    -3
  6
Continuous
100
AcDbLine
 10
-523.137028
 20
-107.161451
 30
0.0
 11
-529.340664
 21
-106.836332
 31
0.0
  0
ARC
  5
1DD
100
AcDbEntity
  8
0
370
    -3
  6
Continuous
100
AcDbCircle
 10
-523.189364
 20
-108.16008
 30
0.0
 40
1.0
100
AcDbArc
 50
318.0
 51
87.0
  0
ARC
  5
1DE
100
AcDbEntity
  8
0
370
    -3
  6
Continuous
100
AcDbCircle
 10
-519.798572
 20
-118.71865
 30
0.0
 40
1.0
100
AcDbArc
 50
228.598894
 51
312.0
  0
ARC
  5
1DF
100
AcDbEntity
  8
0
370
    -3
  6
Continuous
100
AcDbCircle
 10
-479.788328
 20
-73.337703
 30
0.0
 40
61.5
100
AcDbArc
 50
221.401106
 51
228.598894
  0
LINE
  5
1E0
100
AcDbEntity
  8
0
370
    -3
  6
Continuous
100
AcDbLine
 10
-513.612076
 20
-116.686403
 30
0.0
 11
-513.286957
 21
-122.890038
 31
0.0
  0
ARC
  5
1E1
100
AcDbEntity
  8
0
370
    -3
  6
Continuous
100
AcDbCircle
 10
-514.610706
 20
-116.738739
 30
0.0
 40
1.0
100
AcDbArc
 50
3.0
 51
132.0
  0
LINE
  5
1E2
100
AcDbEntity
  8
0
370
    -3
  6
Continuous
100
AcDbLine
 10
-451.589686
 20
-109.429067
 30
0.0
 11
-440.447214
 21
-119.461794
 31
0.0
  0
LINE
  5
1E3
100
AcDbEntity
  8
0
370
    -3
  6
Continuous
100
AcDbLine
 10
-443.696963
 20
-101.536344
 30
0.0
 11
-433.664236
 21
-112.678816
 31
0.0
  0
ARC
  5
1E4
100
AcDbEntity
  8
0
370
    -3
  6
Continuous
100
AcDbCircle
 10
-479.788328
 20
-73.337703
 30
0.0
 40
52.5
100
AcDbArc
 50
336.336295
 51
336.863111
  0
ARC
  5
1E5
100
AcDbEntity
  8
0
370
    -3
  6
Continuous
100
AcDbCircle
 10
-435.704495
 20
-103.6505
 30
0.0
 40
1.0
100
AcDbArc
 50
93.0
 51
142.214197
  0
ARC
  5
1E6
100
AcDbEntity
  8
0
370
    -3
  6
Continuous
100
AcDbCircle
 10
-435.638677
 20
-103.554558
 30
0.0
 40
1.0
100
AcDbArc
 50
148.884247
 51
267.0
  0
ARC
  5
1E7
100
AcDbEntity
  8
0
370
    -3
  6
Continuous
100
AcDbCircle
 10
-428.810391
 20
-87.837703
 30
0.0
 40
0.5
100
AcDbArc
 50
90.0
 51
164.122298
  0
LINE
  5
1E8
100
AcDbEntity
  8
0
370
    -3
  6
Continuous
100
AcDbLine
 10
-428.708411
 20
-87.337703
 30
0.0
 11
-428.810391
 21
-87.337703
 31
0.0
  0
ARC
  5
1E9
100
AcDbEntity
  8
0
370
    -3
  6
Continuous
100
AcDbCircle
 10
-428.708411
 20
-86.837703
 30
0.0
 40
0.5
100
AcDbArc
 50
270.0
 51
352.20215
  0
ARC
  5
1EA
100
AcDbEntity
  8
0
370
    -3
  6
Continuous
100
AcDbCircle
 10
-479.788328
 20
-73.337703
 30
0.0
 40
52.5
100
AcDbArc
 50
341.335429
 51
344.122298
  0
ARC
  5
1EB
100
AcDbEntity
  8
0
370
    -3
  6
Continuous
100
AcDbCircle
 10
-479.788328
 20
-73.337703
 30
0.0
 40
52.5
100
AcDbArc
 50
331.026551
 51
331.437166
  0
ARC
  5
1EC
100
AcDbEntity
  8
0
370
    -3
  6
Continuous
100
AcDbCircle
 10
-429.788328
 20
-96.837703
 30
0.0
 40
1.0
100
AcDbArc
 50
273.0
 51
87.0
  0
ARC
  5
1ED
100
AcDbEntity
  8
0
370
    -3
  6
Continuous
100
AcDbCircle
 10
-432.938053
 20
-99.169888
 30
0.0
 40
1.0
100
AcDbArc
 50
151.128648
 51
267.0
  0
LINE
  5
1EE
100
AcDbEntity
  8
0
370
    -3
  6
Continuous
100
AcDbLine
 10
-432.897472
 20
-98.002018
 30
0.0
 11
-429.735992
 21
-97.836332
 31
0.0
  0
ARC
  5
1EF
100
AcDbEntity
  8
0
370
    -3
  6
Continuous
100
AcDbCircle
 10
-432.845136
 20
-99.000648
 30
0.0
 40
1.0
100
AcDbArc
 50
93.0
 51
151.335416
  0
ARC
  5
1F0
100
AcDbEntity
  8
0
370
    -3
  6
Continuous
100
AcDbCircle
 10
-430.774678
 20
-94.783265
 30
0.0
 40
1.0
100
AcDbArc
 50
156.36857
 51
267.0
  0
ARC
  5
1F1
100
AcDbEntity
  8
0
370
    -3
  6
Continuous
100
AcDbCircle
 10
-429.101981
 20
-90.459158
 30
0.0
 40
1.0
100
AcDbArc
 50
161.335429
 51
249.929668
  0
ARC
  5
1F2
100
AcDbEntity
  8
0
370
    -3
  6
Continuous
100
AcDbCircle
 10
-430.601513
 20
-94.383064
 30
0.0
 40
1.0
100
AcDbArc
 50
93.0
 51
156.835568
  0
LINE
  5
1F3
100
AcDbEntity
  8
0
370
    -3
  6
Continuous
100
AcDbLine
 10
-430.653849
 20
-93.384435
 30
0.0
 11
-429.735992
 21
-93.336332
 31
0.0
  0
ARC
  5
1F4
100
AcDbEntity
  8
0
370
    -3
  6
Continuous
100
AcDbCircle
 10
-429.788328
 20
-92.337703
 30
0.0
 40
1.0
100
AcDbArc
 50
273.0
 51
69.929668
  0
LINE
  5
1F5
100
AcDbEntity
  8
0
370
    -3
  6
Continuous
100
AcDbLine
 10
-430.827014
 20
-95.781895
 30
0.0
 11
-429.735992
 21
-95.839073
 31
0.0
  0
ARC
  5
1F6
100
AcDbEntity
  8
0
370
    -3
  6
Continuous
100
AcDbCircle
 10
-429.788328
 20
-101.337703
 30
0.0
 40
1.0
100
AcDbArc
 50
273.0
 51
87.0
  0
LINE
  5
1F7
100
AcDbEntity
  8
0
370
    -3
  6
Continuous
100
AcDbLine
 10
-432.990389
 20
-100.168517
 30
0.0
 11
-429.735992
 21
-100.339073
 31
0.0
  0
ARC
  5
1F8
100
AcDbEntity
  8
0
370
    -3
  6
Continuous
100
AcDbCircle
 10
-430.288328
 20
-105.837703
 30
0.0
 40
1.0
100
AcDbArc
 50
273.0
 51
87.0
  0
LINE
  5
1F9
100
AcDbEntity
  8
0
370
    -3
  6
Continuous
100
AcDbLine
 10
-435.691013
 20
-104.553187
 30
0.0
 11
-430.235992
 21
-104.839073
 31
0.0
  0
LINE
  5
1FA
100
AcDbEntity
  8
0
370
    -3
  6
Continuous
100
AcDbLine
 10
-435.756831
 20
-102.651871
 30
0.0
 11
-429.735992
 21
-102.336332
 31
0.0
  0
ARC
  5
1FB
100
AcDbEntity
  8
0
370
    -3
  6
Continuous
100
AcDbCircle
 10
-479.788328
 20
-73.337703
 30
0.0
 40
52.5
100
AcDbArc
 50
298.562834
 51
298.973449
  0
ARC
  5
1FC
100
AcDbEntity
  8
0
370
    -3
  6
Continuous
100
AcDbCircle
 10
-479.788328
 20
-73.337703
 30
0.0
 40
52.5
100
AcDbArc
 50
298.562834
 51
298.973449
  0
LINE
  5
1FD
100
AcDbEntity
  8
0
370
    -3
  6
Continuous
100
AcDbLine
 10
-448.572843
 20
-117.435017
 30
0.0
 11
-448.286957
 21
-122.890038
 31
0.0
  0
LINE
  5
1FE
100
AcDbEntity
  8
0
370
    -3
  6
Continuous
100
AcDbLine
 10
-450.474159
 20
-117.369199
 30
0.0
 11
-450.789698
 21
-123.390038
 31
0.0
  0
ARC
  5
1FF
100
AcDbEntity
  8
0
370
    -3
  6
Continuous
100
AcDbCircle
 10
-453.956143
 20
-120.187977
 30
0.0
 40
1.0
100
AcDbArc
 50
3.0
 51
118.871352
  0
ARC
  5
200
100
AcDbEntity
  8
0
370
    -3
  6
Continuous
100
AcDbCircle
 10
-454.125383
 20
-120.280894
 30
0.0
 40
1.0
100
AcDbArc
 50
118.664584
 51
177.0
  0
ARC
  5
201
100
AcDbEntity
  8
0
370
    -3
  6
Continuous
100
AcDbCircle
 10
-449.571472
 20
-117.487353
 30
0.0
 40
1.0
100
AcDbArc
 50
3.0
 51
124.388476
  0
ARC
  5
202
100
AcDbEntity
  8
0
370
    -3
  6
Continuous
100
AcDbCircle
 10
-449.47553
 20
-117.421535
 30
0.0
 40
1.0
100
AcDbArc
 50
124.513079
 51
177.0
  0
ARC
  5
203
100
AcDbEntity
  8
0
370
    -3
  6
Continuous
100
AcDbCircle
 10
-434.407381
 20
-113.347947
 30
0.0
 40
1.0
100
AcDbArc
 50
318.598894
 51
42.0
  0
LINE
  5
204
100
AcDbEntity
  8
0
370
    -3
  6
Continuous
100
AcDbLine
 10
-436.439627
 20
-107.161451
 30
0.0
 11
-430.235992
 21
-106.836332
 31
0.0
  0
ARC
  5
205
100
AcDbEntity
  8
0
370
    -3
  6
Continuous
100
AcDbCircle
 10
-436.387291
 20
-108.16008
 30
0.0
 40
1.0
100
AcDbArc
 50
93.0
 51
222.0
  0
ARC
  5
206
100
AcDbEntity
  8
0
370
    -3
  6
Continuous
100
AcDbCircle
 10
-439.778084
 20
-118.71865
 30
0.0
 40
1.0
100
AcDbArc
 50
228.0
 51
311.401106
  0
ARC
  5
207
100
AcDbEntity
  8
0
370
    -3
  6
Continuous
100
AcDbCircle
 10
-479.788328
 20
-73.337703
 30
0.0
 40
61.5
100
AcDbArc
 50
311.401106
 51
318.598894
  0
LINE
  5
208
100
AcDbEntity
  8
0
370
    -3
  6
Continuous
100
AcDbLine
 10
-445.964579
 20
-116.686403
 30
0.0
 11
-446.289698
 21
-122.890038
 31
0.0
  0
ARC
  5
209
100
AcDbEntity
  8
0
370
    -3
  6
Continuous
100
AcDbCircle
 10
-444.96595
 20
-116.738739
 30
0.0
 40
1.0
100
AcDbArc
 50
48.0
 51
177.0
  0
LINE
  5
20A
100
AcDbEntity
  8
0
370
    -3
  6
Continuous
100
AcDbLine
 10
-499.088328
 20
-126.837703
 30
0.0
 11
-479.788328
 21
-126.837703
 31
0.0
  0
ARC
  5
20B
100
AcDbEntity
  8
0
370
    -3
  6
Continuous
100
AcDbCircle
 10
-499.088328
 20
-126.137703
 30
0.0
 40
0.7
100
AcDbArc
 50
180.0
 51
270.0
  0
LINE
  5
20C
100
AcDbEntity
  8
0
370
    -3
  6
Continuous
100
AcDbLine
 10
-499.788328
 20
-126.137703
 30
0.0
 11
-499.788328
 21
-122.543901
 31
0.0
  0
ARC
  5
20D
100
AcDbEntity
  8
0
370
    -3
  6
Continuous
100
AcDbCircle
 10
-479.788328
 20
-73.337703
 30
0.0
 40
52.5
100
AcDbArc
 50
246.304919
 51
246.888398
  0
ARC
  5
20E
100
AcDbEntity
  8
0
370
    -3
  6
Continuous
100
AcDbCircle
 10
-500.788328
 20
-122.543901
 30
0.0
 40
1.0
100
AcDbArc
 50
0.0
 51
66.888398
  0
ARC
  5
20F
100
AcDbEntity
  8
0
370
    -3
  6
Continuous
100
AcDbCircle
 10
-479.788328
 20
-73.337703
 30
0.0
 40
52.5
100
AcDbArc
 50
246.336295
 51
246.888398
  0
ARC
  5
210
100
AcDbEntity
  8
0
370
    -3
  6
Continuous
100
AcDbCircle
 10
-512.288328
 20
-122.837703
 30
0.0
 40
1.0
100
AcDbArc
 50
183.0
 51
357.0
  0
ARC
  5
211
100
AcDbEntity
  8
0
370
    -3
  6
Continuous
100
AcDbCircle
 10
-507.788328
 20
-123.337703
 30
0.0
 40
1.0
100
AcDbArc
 50
183.0
 51
357.0
  0
LINE
  5
212
100
AcDbEntity
  8
0
370
    -3
  6
Continuous
100
AcDbLine
 10
-506.619142
 20
-120.135641
 30
0.0
 11
-506.789698
 21
-123.390038
 31
0.0
  0
LINE
  5
213
100
AcDbEntity
  8
0
370
    -3
  6
Continuous
100
AcDbLine
 10
-504.452643
 20
-120.228558
 30
0.0
 11
-504.286957
 21
-123.390038
 31
0.0
  0
ARC
  5
214
100
AcDbEntity
  8
0
370
    -3
  6
Continuous
100
AcDbCircle
 10
-503.288328
 20
-123.337703
 30
0.0
 40
1.0
100
AcDbArc
 50
183.0
 51
357.0
  0
ARC
  5
215
100
AcDbEntity
  8
0
370
    -3
  6
Continuous
100
AcDbCircle
 10
-501.233891
 20
-122.351352
 30
0.0
 40
1.0
100
AcDbArc
 50
66.36857
 51
177.0
  0
LINE
  5
216
100
AcDbEntity
  8
0
370
    -3
  6
Continuous
100
AcDbLine
 10
-502.23252
 20
-122.299016
 30
0.0
 11
-502.289698
 21
-123.390038
 31
0.0
  0
LINE
  5
217
100
AcDbEntity
  8
0
370
    -3
  6
Continuous
100
AcDbLine
 10
-460.488328
 20
-126.837703
 30
0.0
 11
-479.788328
 21
-126.837703
 31
0.0
  0
ARC
  5
218
100
AcDbEntity
  8
0
370
    -3
  6
Continuous
100
AcDbCircle
 10
-460.488328
 20
-126.137703
 30
0.0
 40
0.7
100
AcDbArc
 50
270.0
 51
0.0
  0
LINE
  5
219
100
AcDbEntity
  8
0
370
    -3
  6
Continuous
100
AcDbLine
 10
-459.788328
 20
-126.137703
 30
0.0
 11
-459.788328
 21
-122.543901
 31
0.0
  0
ARC
  5
21A
100
AcDbEntity
  8
0
370
    -3
  6
Continuous
100
AcDbCircle
 10
-479.788328
 20
-73.337703
 30
0.0
 40
52.5
100
AcDbArc
 50
293.111602
 51
293.695081
  0
ARC
  5
21B
100
AcDbEntity
  8
0
370
    -3
  6
Continuous
100
AcDbCircle
 10
-458.788328
 20
-122.543901
 30
0.0
 40
1.0
100
AcDbArc
 50
113.111602
 51
180.0
  0
ARC
  5
21C
100
AcDbEntity
  8
0
370
    -3
  6
Continuous
100
AcDbCircle
 10
-479.788328
 20
-73.337703
 30
0.0
 40
52.5
100
AcDbArc
 50
293.111602
 51
293.663705
  0
ARC
  5
21D
100
AcDbEntity
  8
0
370
    -3
  6
Continuous
100
AcDbCircle
 10
-447.288328
 20
-122.837703
 30
0.0
 40
1.0
100
AcDbArc
 50
183.0
 51
357.0
  0
ARC
  5
21E
100
AcDbEntity
  8
0
370
    -3
  6
Continuous
100
AcDbCircle
 10
-451.788328
 20
-123.337703
 30
0.0
 40
1.0
100
AcDbArc
 50
183.0
 51
357.0
  0
LINE
  5
21F
100
AcDbEntity
  8
0
370
    -3
  6
Continuous
100
AcDbLine
 10
-452.957513
 20
-120.135641
 30
0.0
 11
-452.786957
 21
-123.390038
 31
0.0
  0
LINE
  5
220
100
AcDbEntity
  8
0
370
    -3
  6
Continuous
100
AcDbLine
 10
-455.124012
 20
-120.228558
 30
0.0
 11
-455.289698
 21
-123.390038
 31
0.0
  0
ARC
  5
221
100
AcDbEntity
  8
0
370
    -3
  6
Continuous
100
AcDbCircle
 10
-456.288328
 20
-123.337703
 30
0.0
 40
1.0
100
AcDbArc
 50
183.0
 51
357.0
  0
ARC
  5
222
100
AcDbEntity
  8
0
370
    -3
  6
Continuous
100
AcDbCircle
 10
-458.342765
 20
-122.351352
 30
0.0
 40
1.0
100
AcDbArc
 50
3.0
 51
113.63143
  0
LINE
  5
223
100
AcDbEntity
  8
0
370
    -3
  6
Continuous
100
AcDbLine
 10
-457.344135
 20
-122.299016
 30
0.0
 11
-457.286957
 21
-123.390038
 31
0.0
  0
LINE
  5
224
100
AcDbEntity
  8
0
370
    -3
  6
Continuous
100
AcDbLine
 10
-498.538328
 20
-19.837703
 30
0.0
 11
-461.038328
 21
-19.837703
 31
0.0
  0
ARC
  5
225
100
AcDbEntity
  8
0
370
    -3
  6
Continuous
100
AcDbCircle
 10
-532.788328
 20
-53.837703
 30
0.0
 40
0.5
100
AcDbArc
 50
90.0
 51
180.0
  0
ARC
  5
226
100
AcDbEntity
  8
0
370
    -3
  6
Continuous
100
AcDbCircle
 10
-532.788328
 20
-52.837703
 30
0.0
 40
0.5
100
AcDbArc
 50
270.0
 51
0.0
  0
ARC
  5
227
100
AcDbEntity
  8
0
370
    -3
  6
Continuous
100
AcDbCircle
 10
-132.288328
 20
-53.337703
 30
0.0
 40
400.0
100
AcDbArc
 50
178.568016
 51
179.947
  0
ARC
  5
228
100
AcDbEntity
  8
0
370
    -3
  6
Continuous
100
AcDbCircle
 10
-532.788328
 20
-92.837703
 30
0.0
 40
0.5
100
AcDbArc
 50
180.0
 51
270.0
  0
ARC
  5
229
100
AcDbEntity
  8
0
370
    -3
  6
Continuous
100
AcDbCircle
 10
-532.788328
 20
-93.837703
 30
0.0
 40
0.5
100
AcDbArc
 50
0.0
 51
90.0
  0
LINE
  5
22A
100
AcDbEntity
  8
0
370
    -3
  6
Continuous
100
AcDbLine
 10
-533.288328
 20
-92.837703
 30
0.0
 11
-533.288328
 21
-53.837703
 31
0.0
  0
ARC
  5
22B
100
AcDbEntity
  8
0
370
    -3
  6
Continuous
100
AcDbCircle
 10
-132.288328
 20
-93.337703
 30
0.0
 40
400.0
100
AcDbArc
 50
180.07153
 51
181.431984
  0
ARC
  5
22C
100
AcDbEntity
  8
0
370
    -3
  6
Continuous
100
AcDbCircle
 10
-507.288328
 20
-100.837703
 30
0.0
 40
25.0
100
AcDbArc
 50
185.730175
 51
273.43865
  0
ARC
  5
22D
100
AcDbEntity
  8
0
370
    -3
  6
Continuous
100
AcDbCircle
 10
-500.288328
 20
-126.337703
 30
0.0
 40
0.5
100
AcDbArc
 50
0.0
 51
90.0
  0
ARC
  5
22E
100
AcDbEntity
  8
0
370
    -3
  6
Continuous
100
AcDbCircle
 10
-499.288328
 20
-126.337703
 30
0.0
 40
0.5
100
AcDbArc
 50
180.0
 51
270.0
  0
ARC
  5
22F
100
AcDbEntity
  8
0
370
    -3
  6
Continuous
100
AcDbCircle
 10
-499.788328
 20
274.162297
 30
0.0
 40
400.0
100
AcDbArc
 50
269.140459
 51
269.92847
  0
ARC
  5
230
100
AcDbEntity
  8
0
370
    -3
  6
Continuous
100
AcDbCircle
 10
-459.788328
 20
274.162297
 30
0.0
 40
400.0
100
AcDbArc
 50
270.07153
 51
271.431984
  0
ARC
  5
231
100
AcDbEntity
  8
0
370
    -3
  6
Continuous
100
AcDbCircle
 10
-459.288328
 20
-126.337703
 30
0.0
 40
0.5
100
AcDbArc
 50
90.0
 51
180.0
  0
ARC
  5
232
100
AcDbEntity
  8
0
370
    -3
  6
Continuous
100
AcDbCircle
 10
-460.288328
 20
-126.337703
 30
0.0
 40
0.5
100
AcDbArc
 50
270.0
 51
0.0
  0
LINE
  5
233
100
AcDbEntity
  8
0
370
    -3
  6
Continuous
100
AcDbLine
 10
-460.288328
 20
-126.837703
 30
0.0
 11
-499.288328
 21
-126.837703
 31
0.0
  0
ARC
  5
234
100
AcDbEntity
  8
0
370
    -3
  6
Continuous
100
AcDbCircle
 10
-452.288328
 20
-100.837703
 30
0.0
 40
25.0
100
AcDbArc
 50
275.730175
 51
3.43865
  0
ARC
  5
235
100
AcDbEntity
  8
0
370
    -3
  6
Continuous
100
AcDbCircle
 10
-426.788328
 20
-92.837703
 30
0.0
 40
0.5
100
AcDbArc
 50
270.0
 51
0.0
  0
ARC
  5
236
100
AcDbEntity
  8
0
370
    -3
  6
Continuous
100
AcDbCircle
 10
-426.788328
 20
-93.837703
 30
0.0
 40
0.5
100
AcDbArc
 50
90.0
 51
180.0
  0
ARC
  5
237
100
AcDbEntity
  8
0
370
    -3
  6
Continuous
100
AcDbCircle
 10
-827.288328
 20
-93.337703
 30
0.0
 40
400.0
100
AcDbArc
 50
359.140459
 51
359.92847
  0
ARC
  5
238
100
AcDbEntity
  8
0
370
    -3
  6
Continuous
100
AcDbCircle
 10
-827.288328
 20
-53.337703
 30
0.0
 40
400.0
100
AcDbArc
 50
0.07153
 51
1.431984
  0
LINE
  5
239
100
AcDbEntity
  8
0
370
    -3
  6
Continuous
100
AcDbLine
 10
-426.288328
 20
-53.837703
 30
0.0
 11
-426.288328
 21
-92.837703
 31
0.0
  0
ARC
  5
23A
100
AcDbEntity
  8
0
370
    -3
  6
Continuous
100
AcDbCircle
 10
-426.788328
 20
-53.837703
 30
0.0
 40
0.5
100
AcDbArc
 50
0.0
 51
90.0
  0
ARC
  5
23B
100
AcDbEntity
  8
0
370
    -3
  6
Continuous
100
AcDbCircle
 10
-426.788328
 20
-52.837703
 30
0.0
 40
0.5
100
AcDbArc
 50
180.0
 51
270.0
  0
ARC
  5
23C
100
AcDbEntity
  8
0
370
    -3
  6
Continuous
100
AcDbCircle
 10
-452.288328
 20
-45.837703
 30
0.0
 40
25.0
100
AcDbArc
 50
5.730175
 51
84.269825
  0
ARC
  5
23D
100
AcDbEntity
  8
0
370
    -3
  6
Continuous
100
AcDbCircle
 10
-459.288328
 20
-20.337703
 30
0.0
 40
0.5
100
AcDbArc
 50
180.0
 51
270.0
  0
ARC
  5
23E
100
AcDbEntity
  8
0
370
    -3
  6
Continuous
100
AcDbCircle
 10
-460.288328
 20
-20.337703
 30
0.0
 40
0.5
100
AcDbArc
 50
0.0
 51
90.0
  0
ARC
  5
23F
100
AcDbEntity
  8
0
370
    -3
  6
Continuous
100
AcDbCircle
 10
-459.788328
 20
-420.837703
 30
0.0
 40
400.0
100
AcDbArc
 50
88.568016
 51
89.92847
  0
ARC
  5
240
100
AcDbEntity
  8
0
370
    -3
  6
Continuous
100
AcDbCircle
 10
-499.288328
 20
-20.337703
 30
0.0
 40
0.5
100
AcDbArc
 50
90.0
 51
180.0
  0
ARC
  5
241
100
AcDbEntity
  8
0
370
    -3
  6
Continuous
100
AcDbCircle
 10
-500.288328
 20
-20.337703
 30
0.0
 40
0.5
100
AcDbArc
 50
270.0
 51
0.0
  0
ARC
  5
242
100
AcDbEntity
  8
0
370
    -3
  6
Continuous
100
AcDbCircle
 10
-499.788328
 20
-420.837703
 30
0.0
 40
400.0
100
AcDbArc
 50
90.07153
 51
91.431984
  0
ARC
  5
243
100
AcDbEntity
  8
0
370
    -3
  6
Continuous
100
AcDbCircle
 10
-507.288328
 20
-45.837703
 30
0.0
 40
25.0
100
AcDbArc
 50
95.730175
 51
174.269825
  0
LINE
  5
244
100
AcDbEntity
  8
0
370
    -3
  6
Continuous
100
AcDbLine
 10
-499.288328
 20
-19.837703
 30
0.0
 11
-460.288328
 21
-19.837703
 31
0.0
  0
LINE
  5
245
100
AcDbEntity
  8
0
370
    -3
  6
Continuous
100
AcDbLine
 10
-421.78793
 20
-77.403965
 30
0.0
 11
-421.78793
 21
-9.827381
 31
0.0
  0
LINE
  5
246
100
AcDbEntity
  8
0
370
    -3
  6
Continuous
100
AcDbLine
 10
-421.78793
 20
-9.827381
 30
0.0
 11
-433.788328
 21
-9.617914
 31
0.0
  0
LINE
  5
247
100
AcDbEntity
  8
0
370
    -3
  6
Continuous
100
AcDbLine
 10
-433.788328
 20
-9.617914
 30
0.0
 11
-433.788328
 21
-29.022531
 31
0.0
  0
LINE
  5
248
100
AcDbEntity
  8
0
370
    -3
  6
Continuous
100
AcDbLine
 10
-433.788328
 20
-9.617914
 30
0.0
 11
-528.288328
 21
-11.267417
 31
0.0
  0
LINE
  5
249
100
AcDbEntity
  8
0
370
    -3
  6
Continuous
100
AcDbLine
 10
-537.788328
 20
-11.267417
 30
0.0
 11
-537.788328
 21
-77.403339
 31
0.0
  0
LINE
  5
24A
100
AcDbEntity
  8
0
370
    -3
  6
Continuous
100
AcDbLine
 10
-528.288328
 20
-11.267417
 30
0.0
 11
-537.788328
 21
-11.267417
 31
0.0
  0
LINE
  5
24B
100
AcDbEntity
  8
0
370
    -3
  6
Continuous
100
AcDbLine
 10
-421.78793
 20
-118.27144
 30
0.0
 11
-421.78793
 21
-184.891067
 31
0.0
  0
LINE
  5
24C
100
AcDbEntity
  8
0
370
    -3
  6
Continuous
100
AcDbLine
 10
-537.788328
 20
-118.272066
 30
0.0
 11
-537.788328
 21
-183.950955
 31
0.0
  0
LINE
  5
24D
100
AcDbEntity
  8
0
370
    -3
  6
Continuous
100
AcDbLine
 10
-526.516255
 20
-183.950955
 30
0.0
 11
-537.788328
 21
-183.950955
 31
0.0
  0
LINE
  5
24E
100
AcDbEntity
  8
0
370
    -3
  6
Continuous
100
AcDbLine
 10
-421.78793
 20
-184.891067
 30
0.0
 11
-422.287778
 21
-185.399716
 31
0.0
  0
LINE
  5
24F
100
AcDbEntity
  8
0
370
    -3
  6
Continuous
100
AcDbLine
 10
-422.287778
 20
-185.399716
 30
0.0
 11
-433.009774
 21
-185.586869
 31
0.0
  0
LINE
  5
250
100
AcDbEntity
  8
0
370
    -3
  6
Continuous
100
AcDbLine
 10
-542.788328
 20
-34.337859
 30
0.0
 11
-542.788328
 21
-129.337859
 31
0.0
  0
LINE
  5
251
100
AcDbEntity
  8
0
370
    -3
  6
Continuous
100
AcDbLine
 10
-545.788328
 20
-57.837859
 30
0.0
 11
-542.788328
 21
-57.837859
 31
0.0
  0
LINE
  5
252
100
AcDbEntity
  8
0
370
    -3
  6
Continuous
100
AcDbLine
 10
-546.788328
 20
-58.837859
 30
0.0
 11
-546.788328
 21
-81.837859
 31
0.0
  0
ARC
  5
253
100
AcDbEntity
  8
0
370
    -3
  6
Continuous
100
AcDbCircle
 10
-545.788328
 20
-58.837859
 30
0.0
 40
1.0
100
AcDbArc
 50
90.0
 51
180.0
  0
LINE
  5
254
100
AcDbEntity
  8
0
370
    -3
  6
Continuous
100
AcDbLine
 10
-542.788328
 20
-34.337859
 30
0.0
 11
-537.788328
 21
-34.337859
 31
0.0
  0
LINE
  5
255
100
AcDbEntity
  8
0
370
    -3
  6
Continuous
100
AcDbLine
 10
-545.788328
 20
-105.837859
 30
0.0
 11
-542.788328
 21
-105.837859
 31
0.0
  0
LINE
  5
256
100
AcDbEntity
  8
0
370
    -3
  6
Continuous
100
AcDbLine
 10
-546.788328
 20
-104.837859
 30
0.0
 11
-546.788328
 21
-81.837859
 31
0.0
  0
ARC
  5
257
100
AcDbEntity
  8
0
370
    -3
  6
Continuous
100
AcDbCircle
 10
-545.788328
 20
-104.837859
 30
0.0
 40
1.0
100
AcDbArc
 50
180.0
 51
270.0
  0
LINE
  5
258
100
AcDbEntity
  8
0
370
    -3
  6
Continuous
100
AcDbLine
 10
-542.788328
 20
-129.337859
 30
0.0
 11
-537.788328
 21
-129.337859
 31
0.0
  0
LINE
  5
259
100
AcDbEntity
  8
0
370
    -3
  6
Continuous
100
AcDbLine
 10
-416.78793
 20
-81.609186
 30
0.0
 11
-416.78793
 21
-34.337859
 31
0.0
  0
LINE
  5
25A
100
AcDbEntity
  8
0
370
    -3
  6
Continuous
100
AcDbLine
 10
-413.788328
 20
-57.837859
 30
0.0
 11
-416.788328
 21
-57.837859
 31
0.0
  0
LINE
  5
25B
100
AcDbEntity
  8
0
370
    -3
  6
Continuous
100
AcDbLine
 10
-412.788328
 20
-58.837859
 30
0.0
 11
-412.788328
 21
-81.837859
 31
0.0
  0
ARC
  5
25C
100
AcDbEntity
  8
0
370
    -3
  6
Continuous
100
AcDbCircle
 10
-413.788328
 20
-58.837859
 30
0.0
 40
1.0
100
AcDbArc
 50
0.0
 51
90.0
  0
LINE
  5
25D
100
AcDbEntity
  8
0
370
    -3
  6
Continuous
100
AcDbLine
 10
-416.788328
 20
-34.337859
 30
0.0
 11
-421.788328
 21
-34.337859
 31
0.0
  0
LINE
  5
25E
100
AcDbEntity
  8
0
370
    -3
  6
Continuous
100
AcDbLine
 10
-416.78793
 20
-81.609186
 30
0.0
 11
-416.78793
 21
-129.337859
 31
0.0
  0
LINE
  5
25F
100
AcDbEntity
  8
0
370
    -3
  6
Continuous
100
AcDbLine
 10
-413.788328
 20
-105.837859
 30
0.0
 11
-416.788328
 21
-105.837859
 31
0.0
  0
LINE
  5
260
100
AcDbEntity
  8
0
370
    -3
  6
Continuous
100
AcDbLine
 10
-412.788328
 20
-104.837859
 30
0.0
 11
-412.788328
 21
-81.837859
 31
0.0
  0
ARC
  5
261
100
AcDbEntity
  8
0
370
    -3
  6
Continuous
100
AcDbCircle
 10
-413.788328
 20
-104.837859
 30
0.0
 40
1.0
100
AcDbArc
 50
270.0
 51
0.0
  0
LINE
  5
262
100
AcDbEntity
  8
0
370
    -3
  6
Continuous
100
AcDbLine
 10
-416.788328
 20
-129.337859
 30
0.0
 11
-421.788328
 21
-129.337859
 31
0.0
  0
LINE
  5
263
100
AcDbEntity
  8
0
370
    -3
  6
Continuous
100
AcDbLine
 10
-182.288103
 20
144.10888
 30
0.0
 11
-182.497571
 21
156.109277
 31
0.0
  0
LINE
  5
264
100
AcDbEntity
  8
0
370
    -3
  6
Continuous
100
AcDbLine
 10
-182.497571
 20
156.109277
 30
0.0
 11
-180.848067
 21
250.609277
 31
0.0
  0
LINE
  5
265
100
AcDbEntity
  8
0
370
    -3
  6
Continuous
100
AcDbLine
 10
-193.788103
 20
145.370277
 30
0.0
 11
-193.788103
 21
258.848278
 31
0.0
  0
ARC
  5
266
100
AcDbEntity
  8
0
370
    -3
  6
Continuous
100
AcDbCircle
 10
-190.788103
 20
249.109277
 30
0.0
 40
3.0
100
AcDbArc
 50
180.0
 51
270.0
  0
LINE
  5
267
100
AcDbEntity
  8
0
370
    -3
  6
Continuous
100
AcDbLine
 10
-182.892009
 20
246.109277
 30
0.0
 11
-190.788103
 21
246.109277
 31
0.0
  0
ARC
  5
268
100
AcDbEntity
  8
0
370
    -3
  6
Continuous
100
AcDbCircle
 10
-190.788103
 20
155.109675
 30
0.0
 40
3.0
100
AcDbArc
 50
90.0
 51
180.0
  0
ARC
  5
269
100
AcDbEntity
  8
0
370
    -3
  6
Continuous
100
AcDbCircle
 10
-196.788103
 20
244.294009
 30
0.0
 40
3.0
100
AcDbArc
 50
0.0
 51
90.0
  0
ARC
  5
26A
100
AcDbEntity
  8
0
370
    -3
  6
Continuous
100
AcDbCircle
 10
-196.788103
 20
251.205585
 30
0.0
 40
3.0
100
AcDbArc
 50
0.0
 51
90.0
  0
ARC
  5
26B
100
AcDbEntity
  8
0
370
    -3
  6
Continuous
100
AcDbCircle
 10
-196.788103
 20
159.924546
 30
0.0
 40
3.0
100
AcDbArc
 50
270.0
 51
0.0
  0
ARC
  5
26C
100
AcDbEntity
  8
0
370
    -3
  6
Continuous
100
AcDbCircle
 10
-196.788103
 20
153.01297
 30
0.0
 40
3.0
100
AcDbArc
 50
270.0
 51
0.0
  0
ARC
  5
26D
100
AcDbEntity
  8
0
370
    -3
  6
Continuous
100
AcDbCircle
 10
-196.788103
 20
145.370277
 30
0.0
 40
3.0
100
AcDbArc
 50
269.018827
 51
0.0
  0
ARC
  5
26E
100
AcDbEntity
  8
0
370
    -3
  6
Continuous
100
AcDbCircle
 10
-196.788103
 20
258.848278
 30
0.0
 40
3.0
100
AcDbArc
 50
0.0
 51
90.981173
  0
ARC
  5
26F
100
AcDbEntity
  8
0
370
    -3
  6
Continuous
100
AcDbCircle
 10
-201.788103
 20
166.10801
 30
0.0
 40
3.0
100
AcDbArc
 50
180.0
 51
270.0
  0
ARC
  5
270
100
AcDbEntity
  8
0
370
    -3
  6
Continuous
100
AcDbCircle
 10
-201.788103
 20
147.01297
 30
0.0
 40
3.0
100
AcDbArc
 50
90.0
 51
180.0
  0
ARC
  5
271
100
AcDbEntity
  8
0
370
    -3
  6
Continuous
100
AcDbCircle
 10
-201.788103
 20
159.924546
 30
0.0
 40
3.0
100
AcDbArc
 50
180.0
 51
270.0
  0
ARC
  5
272
100
AcDbEntity
  8
0
370
    -3
  6
Continuous
100
AcDbCircle
 10
-207.788103
 20
145.609277
 30
0.0
 40
3.0
100
AcDbArc
 50
270.0
 51
0.0
  0
ARC
  5
273
100
AcDbEntity
  8
0
370
    -3
  6
Continuous
100
AcDbCircle
 10
-207.788103
 20
258.609277
 30
0.0
 40
3.0
100
AcDbArc
 50
0.0
 51
90.0
  0
ARC
  5
274
100
AcDbEntity
  8
0
370
    -3
  6
Continuous
100
AcDbCircle
 10
-201.788103
 20
238.110544
 30
0.0
 40
3.0
100
AcDbArc
 50
90.0
 51
180.0
  0
ARC
  5
275
100
AcDbEntity
  8
0
370
    -3
  6
Continuous
100
AcDbCircle
 10
-201.788103
 20
244.294009
 30
0.0
 40
3.0
100
AcDbArc
 50
90.0
 51
180.0
  0
ARC
  5
276
100
AcDbEntity
  8
0
370
    -3
  6
Continuous
100
AcDbCircle
 10
-201.788103
 20
257.205585
 30
0.0
 40
3.0
100
AcDbArc
 50
180.0
 51
270.0
  0
LINE
  5
277
100
AcDbEntity
  8
0
370
    -3
  6
Continuous
100
AcDbLine
 10
-204.788103
 20
159.924546
 30
0.0
 11
-204.788103
 21
202.109277
 31
0.0
  0
LINE
  5
278
100
AcDbEntity
  8
0
370
    -3
  6
Continuous
100
AcDbLine
 10
-201.788103
 20
163.10801
 30
0.0
 11
-196.788103
 21
163.10801
 31
0.0
  0
LINE
  5
279
100
AcDbEntity
  8
0
370
    -3
  6
Continuous
100
AcDbLine
 10
-204.788103
 20
146.609277
 30
0.0
 11
-204.788103
 21
147.01297
 31
0.0
  0
LINE
  5
27A
100
AcDbEntity
  8
0
370
    -3
  6
Continuous
100
AcDbLine
 10
-204.788103
 20
146.609277
 30
0.0
 11
-204.788103
 21
147.01297
 31
0.0
  0
LINE
  5
27B
100
AcDbEntity
  8
0
370
    -3
  6
Continuous
100
AcDbLine
 10
-204.788103
 20
146.609277
 30
0.0
 11
-204.788103
 21
145.609277
 31
0.0
  0
LINE
  5
27C
100
AcDbEntity
  8
0
370
    -3
  6
Continuous
100
AcDbLine
 10
-204.788103
 20
257.609277
 30
0.0
 11
-204.788103
 21
257.205585
 31
0.0
  0
LINE
  5
27D
100
AcDbEntity
  8
0
370
    -3
  6
Continuous
100
AcDbLine
 10
-204.788103
 20
244.294009
 30
0.0
 11
-204.788103
 21
202.109277
 31
0.0
  0
LINE
  5
27E
100
AcDbEntity
  8
0
370
    -3
  6
Continuous
100
AcDbLine
 10
-201.788103
 20
241.110544
 30
0.0
 11
-196.788103
 21
241.110544
 31
0.0
  0
LINE
  5
27F
100
AcDbEntity
  8
0
370
    -3
  6
Continuous
100
AcDbLine
 10
-204.788103
 20
257.609277
 30
0.0
 11
-204.788103
 21
258.609277
 31
0.0
  0
LINE
  5
280
100
AcDbEntity
  8
0
370
    -3
  6
Continuous
100
AcDbLine
 10
-201.788103
 20
254.205585
 30
0.0
 11
-196.788103
 21
254.205585
 31
0.0
  0
LINE
  5
281
100
AcDbEntity
  8
0
370
    -3
  6
Continuous
100
AcDbLine
 10
-201.788103
 20
247.294009
 30
0.0
 11
-196.788103
 21
247.294009
 31
0.0
  0
LINE
  5
282
100
AcDbEntity
  8
0
370
    -3
  6
Continuous
100
AcDbLine
 10
-201.788103
 20
156.924546
 30
0.0
 11
-196.788103
 21
156.924546
 31
0.0
  0
LINE
  5
283
100
AcDbEntity
  8
0
370
    -3
  6
Continuous
100
AcDbLine
 10
-201.788103
 20
150.01297
 30
0.0
 11
-196.788103
 21
150.01297
 31
0.0
  0
LINE
  5
284
100
AcDbEntity
  8
0
370
    -3
  6
Continuous
100
AcDbLine
 10
-211.788337
 20
222.109277
 30
0.0
 11
-204.788103
 21
222.109277
 31
0.0
  0
LINE
  5
285
100
AcDbEntity
  8
0
370
    -3
  6
Continuous
100
AcDbLine
 10
-211.788337
 20
182.109277
 30
0.0
 11
-204.788103
 21
182.109277
 31
0.0
  0
ARC
  5
286
100
AcDbEntity
  8
0
370
    -3
  6
Continuous
100
AcDbCircle
 10
-184.497868
 20
156.109675
 30
0.0
 40
2.0
100
AcDbArc
 50
359.0
 51
90.0
  0
ARC
  5
287
100
AcDbEntity
  8
0
370
    -3
  6
Continuous
100
AcDbCircle
 10
-182.892009
 20
248.109277
 30
0.0
 40
2.0
100
AcDbArc
 50
270.0
 51
359.0
  0
LINE
  5
288
100
AcDbEntity
  8
0
370
    -3
  6
Continuous
100
AcDbLine
 10
-211.788337
 20
261.573463
 30
0.0
 11
-196.839474
 21
261.847838
 31
0.0
  0
LINE
  5
289
100
AcDbEntity
  8
0
370
    -3
  6
Continuous
100
AcDbLine
 10
-211.788337
 20
142.64509
 30
0.0
 11
-196.839474
 21
142.370717
 31
0.0
  0
LINE
  5
28A
100
AcDbEntity
  8
0
370
    -3
  6
Continuous
100
AcDbLine
 10
-190.788103
 20
158.109675
 30
0.0
 11
-184.497868
 21
158.109675
 31
0.0
  0
LINE
  5
28B
100
AcDbEntity
  8
0
370
    -3
  6
Continuous
100
AcDbLine
 10
-180.848067
 20
250.609277
 30
0.0
 11
-180.848067
 21
260.109277
 31
0.0
  0
INSERT
  5
29B
100
AcDbEntity
  8
0
100
AcDbBlockReference
  2
ZU_SYM__USERS_HOME_SYMBOL_STD_SYM_B01_00006-1
 10
-217.788344
 20
157.915103
 30
0.0
  0
LINE
  5
29C
100
AcDbEntity
  8
0
370
    -3
  6
Continuous
100
AcDbLine
 10
-238.788337
 20
153.609277
 30
0.0
 11
-238.788337
 21
186.109277
 31
0.0
  0
ARC
  5
29D
100
AcDbEntity
  8
0
370
    -3
  6
Continuous
100
AcDbCircle
 10
-215.788337
 20
144.821652
 30
0.0
 40
2.0
100
AcDbArc
 50
180.0
 51
267.0
  0
LINE
  5
29E
100
AcDbEntity
  8
0
370
    -3
  6
Continuous
100
AcDbLine
 10
-217.788337
 20
144.821652
 30
0.0
 11
-217.788337
 21
169.6787
 31
0.0
  0
LINE
  5
29F
100
AcDbEntity
  8
0
370
    -3
  6
CENTER
100
AcDbLine
 10
-227.788337
 20
192.408497
 30
0.0
 11
-227.788337
 21
213.268767
 31
0.0
  0
LINE
  5
2A0
100
AcDbEntity
  8
0
370
    -3
  6
Continuous
100
AcDbLine
 10
-211.788337
 20
142.609277
 30
0.0
 11
-218.945344
 21
142.98436
 31
0.0
  0
ARC
  5
2A1
100
AcDbEntity
  8
0
370
    -3
  6
Continuous
100
AcDbCircle
 10
-218.788337
 20
145.980248
 30
0.0
 40
3.0
100
AcDbArc
 50
180.0
 51
267.0
  0
ARC
  5
2A2
100
AcDbEntity
  8
0
370
    -3
  6
Continuous
100
AcDbCircle
 10
-219.788337
 20
169.6787
 30
0.0
 40
2.0
100
AcDbArc
 50
0.0
 51
90.0
  0
ARC
  5
2A3
100
AcDbEntity
  8
0
370
    -3
  6
Continuous
100
AcDbCircle
 10
-219.788337
 20
173.6787
 30
0.0
 40
2.0
100
AcDbArc
 50
180.0
 51
270.0
  0
LINE
  5
2A4
100
AcDbEntity
  8
0
370
    -3
  6
Continuous
100
AcDbLine
 10
-253.788337
 20
148.609277
 30
0.0
 11
-224.788337
 21
148.609277
 31
0.0
  0
ARC
  5
2A5
100
AcDbEntity
  8
0
370
    -3
  6
Continuous
100
AcDbCircle
 10
-243.788337
 20
153.609277
 30
0.0
 40
5.0
100
AcDbArc
 50
270.0
 51
0.0
  0
LINE
  5
2A6
100
AcDbEntity
  8
0
370
    -3
  6
Continuous
100
AcDbLine
 10
-253.788337
 20
151.109277
 30
0.0
 11
-243.788337
 21
151.109277
 31
0.0
  0
ARC
  5
2A7
100
AcDbEntity
  8
0
370
    -3
  6
Continuous
100
AcDbCircle
 10
-243.788337
 20
156.109277
 30
0.0
 40
5.0
100
AcDbArc
 50
270.0
 51
0.0
  0
ARC
  5
2A8
100
AcDbEntity
  8
0
370
    -3
  6
Continuous
100
AcDbCircle
 10
-224.788337
 20
145.609277
 30
0.0
 40
3.0
100
AcDbArc
 50
0.0
 51
90.0
  0
LINE
  5
2A9
100
AcDbEntity
  8
0
370
    -3
  6
Continuous
100
AcDbLine
 10
-253.788337
 20
189.109277
 30
0.0
 11
-216.788337
 21
189.109277
 31
0.0
  0
ARC
  5
2AA
100
AcDbEntity
  8
0
370
    -3
  6
Continuous
100
AcDbCircle
 10
-235.788337
 20
186.109277
 30
0.0
 40
3.0
100
AcDbArc
 50
90.0
 51
180.0
  0
CIRCLE
  5
2AB
100
AcDbEntity
  8
0
370
    -3
  6
Continuous
100
AcDbCircle
 10
-227.788337
 20
202.109277
 30
0.0
 40
8.35
  0
ARC
  5
2AC
100
AcDbEntity
  8
0
370
    -3
  6
Continuous
100
AcDbCircle
 10
-235.788337
 20
168.6787
 30
0.0
 40
3.0
100
AcDbArc
 50
90.0
 51
180.0
  0
LINE
  5
2AD
100
AcDbEntity
  8
0
370
    -3
  6
Continuous
100
AcDbLine
 10
-221.788337
 20
171.6787
 30
0.0
 11
-235.788337
 21
171.6787
 31
0.0
  0
LINE
  5
2AE
100
AcDbEntity
  8
0
370
    -3
  6
Continuous
100
AcDbLine
 10
-221.788337
 20
145.609277
 30
0.0
 11
-221.788337
 21
189.109277
 31
0.0
  0
INSERT
  5
2BE
100
AcDbEntity
  8
0
100
AcDbBlockReference
  2
ZU_SYM__USERS_HOME_SYMBOL_STD_SYM_B01_00007-1
 10
-217.788344
 20
246.30345
 30
0.0
 41
-1.0
 50
180.0
  0
LINE
  5
2BF
100
AcDbEntity
  8
0
370
    -3
  6
Continuous
100
AcDbLine
 10
-238.788337
 20
250.609277
 30
0.0
 11
-238.788337
 21
218.109277
 31
0.0
  0
ARC
  5
2C0
100
AcDbEntity
  8
0
370
    -3
  6
Continuous
100
AcDbCircle
 10
-215.788337
 20
259.396901
 30
0.0
 40
2.0
100
AcDbArc
 50
93.0
 51
180.0
  0
LINE
  5
2C1
100
AcDbEntity
  8
0
370
    -3
  6
Continuous
100
AcDbLine
 10
-217.788337
 20
259.396901
 30
0.0
 11
-217.788337
 21
234.539854
 31
0.0
  0
LINE
  5
2C2
100
AcDbEntity
  8
0
370
    -3
  6
Continuous
100
AcDbLine
 10
-211.788337
 20
261.609277
 30
0.0
 11
-218.945344
 21
261.234194
 31
0.0
  0
ARC
  5
2C3
100
AcDbEntity
  8
0
370
    -3
  6
Continuous
100
AcDbCircle
 10
-218.788337
 20
258.238305
 30
0.0
 40
3.0
100
AcDbArc
 50
93.0
 51
180.0
  0
ARC
  5
2C4
100
AcDbEntity
  8
0
370
    -3
  6
Continuous
100
AcDbCircle
 10
-219.788337
 20
234.539854
 30
0.0
 40
2.0
100
AcDbArc
 50
270.0
 51
0.0
  0
ARC
  5
2C5
100
AcDbEntity
  8
0
370
    -3
  6
Continuous
100
AcDbCircle
 10
-219.788337
 20
230.539854
 30
0.0
 40
2.0
100
AcDbArc
 50
90.0
 51
180.0
  0
LINE
  5
2C6
100
AcDbEntity
  8
0
370
    -3
  6
Continuous
100
AcDbLine
 10
-253.788337
 20
255.609277
 30
0.0
 11
-224.788337
 21
255.609277
 31
0.0
  0
ARC
  5
2C7
100
AcDbEntity
  8
0
370
    -3
  6
Continuous
100
AcDbCircle
 10
-243.788337
 20
250.609277
 30
0.0
 40
5.0
100
AcDbArc
 50
0.0
 51
90.0
  0
LINE
  5
2C8
100
AcDbEntity
  8
0
370
    -3
  6
Continuous
100
AcDbLine
 10
-253.788337
 20
253.109277
 30
0.0
 11
-243.788337
 21
253.109277
 31
0.0
  0
ARC
  5
2C9
100
AcDbEntity
  8
0
370
    -3
  6
Continuous
100
AcDbCircle
 10
-243.788337
 20
248.109277
 30
0.0
 40
5.0
100
AcDbArc
 50
0.0
 51
90.0
  0
ARC
  5
2CA
100
AcDbEntity
  8
0
370
    -3
  6
Continuous
100
AcDbCircle
 10
-224.788337
 20
258.609277
 30
0.0
 40
3.0
100
AcDbArc
 50
270.0
 51
0.0
  0
LINE
  5
2CB
100
AcDbEntity
  8
0
370
    -3
  6
Continuous
100
AcDbLine
 10
-253.788337
 20
215.109277
 30
0.0
 11
-216.788337
 21
215.109277
 31
0.0
  0
ARC
  5
2CC
100
AcDbEntity
  8
0
370
    -3
  6
Continuous
100
AcDbCircle
 10
-235.788337
 20
218.109277
 30
0.0
 40
3.0
100
AcDbArc
 50
180.0
 51
270.0
  0
ARC
  5
2CD
100
AcDbEntity
  8
0
370
    -3
  6
Continuous
100
AcDbCircle
 10
-235.788337
 20
235.539854
 30
0.0
 40
3.0
100
AcDbArc
 50
180.0
 51
270.0
  0
LINE
  5
2CE
100
AcDbEntity
  8
0
370
    -3
  6
Continuous
100
AcDbLine
 10
-221.788337
 20
232.539854
 30
0.0
 11
-235.788337
 21
232.539854
 31
0.0
  0
LINE
  5
2CF
100
AcDbEntity
  8
0
370
    -3
  6
Continuous
100
AcDbLine
 10
-221.788337
 20
258.609277
 30
0.0
 11
-221.788337
 21
215.109277
 31
0.0
  0
ARC
  5
2D0
100
AcDbEntity
  8
0
370
    -3
  6
Continuous
100
AcDbCircle
 10
-216.788337
 20
212.109277
 30
0.0
 40
3.0
100
AcDbArc
 50
0.0
 51
90.0
  0
ARC
  5
2D1
100
AcDbEntity
  8
0
370
    -3
  6
Continuous
100
AcDbCircle
 10
-216.788337
 20
192.109277
 30
0.0
 40
3.0
100
AcDbArc
 50
270.0
 51
0.0
  0
LINE
  5
2D2
100
AcDbEntity
  8
0
370
    -3
  6
Continuous
100
AcDbLine
 10
-213.788337
 20
212.109277
 30
0.0
 11
-213.788337
 21
192.109277
 31
0.0
  0
LINE
  5
2D3
100
AcDbEntity
  8
0
370
    -3
  6
Continuous
100
AcDbLine
 10
-253.788337
 20
148.609277
 30
0.0
 11
-253.788337
 21
202.109277
 31
0.0
  0
LINE
  5
2D4
100
AcDbEntity
  8
0
370
    -3
  6
Continuous
100
AcDbLine
 10
-253.788337
 20
255.609277
 30
0.0
 11
-253.788337
 21
202.109277
 31
0.0
  0
LINE
  5
2D5
100
AcDbEntity
  8
0
370
    -3
  6
Continuous
100
AcDbLine
 10
-211.788337
 20
142.609277
 30
0.0
 11
-211.788337
 21
261.609277
 31
0.0
  0
LINE
  5
2D6
100
AcDbEntity
  8
0
370
    -3
  6
Continuous
100
AcDbLine
 10
-332.788337
 20
-41.437497
 30
0.0
 11
-253.788337
 21
-41.437497
 31
0.0
  0
LINE
  5
2D7
100
AcDbEntity
  8
0
370
    -3
  6
Continuous
100
AcDbLine
 10
-332.788337
 20
-40.237908
 30
0.0
 11
-253.788337
 21
-40.237908
 31
0.0
  0
LINE
  5
2D8
100
AcDbEntity
  8
0
370
    -3
  6
Continuous
100
AcDbLine
 10
-332.788337
 20
-22.837703
 30
0.0
 11
-253.788337
 21
-22.837703
 31
0.0
  0
LINE
  5
2D9
100
AcDbEntity
  8
0
370
    -3
  6
Continuous
100
AcDbLine
 10
-332.788337
 20
-22.337703
 30
0.0
 11
-253.788337
 21
-22.337703
 31
0.0
  0
LINE
  5
2DA
100
AcDbEntity
  8
0
370
    -3
  6
Continuous
100
AcDbLine
 10
-332.788337
 20
-20.837703
 30
0.0
 11
-332.788337
 21
-73.337703
 31
0.0
  0
LINE
  5
2DB
100
AcDbEntity
  8
0
370
    -3
  6
Continuous
100
AcDbLine
 10
-332.788337
 20
-105.237908
 30
0.0
 11
-253.788337
 21
-105.237908
 31
0.0
  0
LINE
  5
2DC
100
AcDbEntity
  8
0
370
    -3
  6
Continuous
100
AcDbLine
 10
-332.788337
 20
-106.437497
 30
0.0
 11
-253.788337
 21
-106.437497
 31
0.0
  0
LINE
  5
2DD
100
AcDbEntity
  8
0
370
    -3
  6
Continuous
100
AcDbLine
 10
-332.788337
 20
-123.837703
 30
0.0
 11
-253.788337
 21
-123.837703
 31
0.0
  0
LINE
  5
2DE
100
AcDbEntity
  8
0
370
    -3
  6
Continuous
100
AcDbLine
 10
-332.788337
 20
-124.337703
 30
0.0
 11
-253.788337
 21
-124.337703
 31
0.0
  0
LINE
  5
2DF
100
AcDbEntity
  8
0
370
    -3
  6
Continuous
100
AcDbLine
 10
-332.788337
 20
-120.664299
 30
0.0
 11
-253.788337
 21
-120.664299
 31
0.0
  0
LINE
  5
2E0
100
AcDbEntity
  8
0
370
    -3
  6
Continuous
100
AcDbLine
 10
-332.788337
 20
-113.77015
 30
0.0
 11
-253.788337
 21
-113.77015
 31
0.0
  0
LINE
  5
2E1
100
AcDbEntity
  8
0
370
    -3
  6
Continuous
100
AcDbLine
 10
-332.788337
 20
-101.937497
 30
0.0
 11
-325.788337
 21
-101.937497
 31
0.0
  0
LINE
  5
2E2
100
AcDbEntity
  8
0
370
    -3
  6
Continuous
100
AcDbLine
 10
-332.788337
 20
-97.437497
 30
0.0
 11
-325.788337
 21
-97.437497
 31
0.0
  0
LINE
  5
2E3
100
AcDbEntity
  8
0
370
    -3
  6
Continuous
100
AcDbLine
 10
-332.788337
 20
-49.237908
 30
0.0
 11
-325.788337
 21
-49.237908
 31
0.0
  0
LINE
  5
2E4
100
AcDbEntity
  8
0
370
    -3
  6
Continuous
100
AcDbLine
 10
-332.788337
 20
-44.737908
 30
0.0
 11
-325.788337
 21
-44.737908
 31
0.0
  0
LINE
  5
2E5
100
AcDbEntity
  8
0
370
    -3
  6
Continuous
100
AcDbLine
 10
-270.788337
 20
-45.937497
 30
0.0
 11
-253.788337
 21
-45.937497
 31
0.0
  0
LINE
  5
2E6
100
AcDbEntity
  8
0
370
    -3
  6
Continuous
100
AcDbLine
 10
-270.788337
 20
-96.237908
 30
0.0
 11
-253.788337
 21
-96.237908
 31
0.0
  0
LINE
  5
2E7
100
AcDbEntity
  8
0
370
    -3
  6
Continuous
100
AcDbLine
 10
-270.788337
 20
-100.737908
 30
0.0
 11
-253.788337
 21
-100.737908
 31
0.0
  0
LINE
  5
2E8
100
AcDbEntity
  8
0
370
    -3
  6
Continuous
100
AcDbLine
 10
-332.788337
 20
-20.837703
 30
0.0
 11
-332.788337
 21
-23.087703
 31
0.0
  0
LINE
  5
2E9
100
AcDbEntity
  8
0
370
    -3
  6
Continuous
100
AcDbLine
 10
-332.788337
 20
-21.587703
 30
0.0
 11
-332.788337
 21
-20.837703
 31
0.0
  0
LINE
  5
2EA
100
AcDbEntity
  8
0
370
    -3
  6
Continuous
100
AcDbLine
 10
-332.788337
 20
-96.237908
 30
0.0
 11
-270.788337
 21
-96.237908
 31
0.0
  0
LINE
  5
2EB
100
AcDbEntity
  8
0
370
    -3
  6
Continuous
100
AcDbLine
 10
-325.788337
 20
-97.437497
 30
0.0
 11
-253.788337
 21
-97.437497
 31
0.0
  0
LINE
  5
2EC
100
AcDbEntity
  8
0
370
    -3
  6
Continuous
100
AcDbLine
 10
-332.788337
 20
-100.737908
 30
0.0
 11
-265.645727
 21
-100.737908
 31
0.0
  0
LINE
  5
2ED
100
AcDbEntity
  8
0
370
    -3
  6
Continuous
100
AcDbLine
 10
-325.788337
 20
-101.937497
 30
0.0
 11
-253.788337
 21
-101.937497
 31
0.0
  0
LINE
  5
2EE
100
AcDbEntity
  8
0
370
    -3
  6
Continuous
100
AcDbLine
 10
-332.788337
 20
-50.437497
 30
0.0
 11
-270.788337
 21
-50.437497
 31
0.0
  0
LINE
  5
2EF
100
AcDbEntity
  8
0
370
    -3
  6
Continuous
100
AcDbLine
 10
-329.288337
 20
-49.237908
 30
0.0
 11
-253.788337
 21
-49.237908
 31
0.0
  0
LINE
  5
2F0
100
AcDbEntity
  8
0
370
    -3
  6
Continuous
100
AcDbLine
 10
-332.788337
 20
-45.937497
 30
0.0
 11
-262.288337
 21
-45.937497
 31
0.0
  0
LINE
  5
2F1
100
AcDbEntity
  8
0
370
    -3
  6
Continuous
100
AcDbLine
 10
-325.788337
 20
-44.737908
 30
0.0
 11
-253.788337
 21
-44.737908
 31
0.0
  0
LINE
  5
2F2
100
AcDbEntity
  8
0
370
    -3
  6
Continuous
100
AcDbLine
 10
-253.788337
 20
-126.837703
 30
0.0
 11
-253.788337
 21
-73.337703
 31
0.0
  0
LINE
  5
2F3
100
AcDbEntity
  8
0
370
    -3
  6
Continuous
100
AcDbLine
 10
-332.788337
 20
-126.837703
 30
0.0
 11
-332.788337
 21
-73.337703
 31
0.0
  0
LINE
  5
2F4
100
AcDbEntity
  8
0
370
    -3
  6
Continuous
100
AcDbLine
 10
-332.788337
 20
-91.737908
 30
0.0
 11
-253.788337
 21
-91.737908
 31
0.0
  0
LINE
  5
2F5
100
AcDbEntity
  8
0
370
    -3
  6
Continuous
100
AcDbLine
 10
-332.788337
 20
-92.951617
 30
0.0
 11
-253.788337
 21
-92.951617
 31
0.0
  0
LINE
  5
2F6
100
AcDbEntity
  8
0
370
    -3
  6
Continuous
100
AcDbLine
 10
-253.788337
 20
-19.837703
 30
0.0
 11
-253.788337
 21
-73.337703
 31
0.0
  0
LINE
  5
2F7
100
AcDbEntity
  8
0
370
    -3
  6
Continuous
100
AcDbLine
 10
-253.788337
 20
-19.837703
 30
0.0
 11
-332.788337
 21
-19.837703
 31
0.0
  0
LINE
  5
2F8
100
AcDbEntity
  8
0
370
    -3
  6
Continuous
100
AcDbLine
 10
-332.788337
 20
-32.905255
 30
0.0
 11
-253.788337
 21
-32.905255
 31
0.0
  0
LINE
  5
2F9
100
AcDbEntity
  8
0
370
    -3
  6
Continuous
100
AcDbLine
 10
-332.788337
 20
-26.011106
 30
0.0
 11
-253.788337
 21
-26.011106
 31
0.0
  0
LINE
  5
2FA
100
AcDbEntity
  8
0
370
    -3
  6
Continuous
100
AcDbLine
 10
-332.788337
 20
-19.837703
 30
0.0
 11
-332.788337
 21
-73.337703
 31
0.0
  0
LINE
  5
2FB
100
AcDbEntity
  8
0
370
    -3
  6
Continuous
100
AcDbLine
 10
-270.788337
 20
-50.437497
 30
0.0
 11
-253.788337
 21
-50.437497
 31
0.0
  0
LINE
  5
2FC
100
AcDbEntity
  8
0
370
    -3
  6
Continuous
100
AcDbLine
 10
-332.788337
 20
-54.944542
 30
0.0
 11
-253.788337
 21
-54.944542
 31
0.0
  0
LINE
  5
2FD
100
AcDbEntity
  8
0
370
    -3
  6
Continuous
100
AcDbLine
 10
-332.788337
 20
-59.337703
 30
0.0
 11
-253.788337
 21
-59.337703
 31
0.0
  0
LINE
  5
2FE
100
AcDbEntity
  8
0
370
    -3
  6
Continuous
100
AcDbLine
 10
-332.788337
 20
-53.723788
 30
0.0
 11
-253.788337
 21
-53.723788
 31
0.0
  0
LINE
  5
2FF
100
AcDbEntity
  8
0
370
    -3
  6
Continuous
100
AcDbLine
 10
-332.788337
 20
-87.337703
 30
0.0
 11
-253.788337
 21
-87.337703
 31
0.0
  0
LINE
  5
300
100
AcDbEntity
  8
0
370
    -3
  6
Continuous
100
AcDbLine
 10
-253.788337
 20
-126.837703
 30
0.0
 11
-291.788328
 21
-126.837703
 31
0.0
  0
LINE
  5
301
100
AcDbEntity
  8
0
370
    -3
  6
Continuous
100
AcDbLine
 10
-291.788328
 20
-126.837703
 30
0.0
 11
-332.788337
 21
-126.837703
 31
0.0
  0
LINE
  5
302
100
AcDbEntity
  8
0
370
    -3
  6
Continuous
100
AcDbLine
 10
-253.788337
 20
-19.837703
 30
0.0
 11
-253.788337
 21
-73.337703
 31
0.0
  0
LINE
  5
303
100
AcDbEntity
  8
0
370
    -3
  6
Continuous
100
AcDbLine
 10
-253.788337
 20
-126.837703
 30
0.0
 11
-253.788337
 21
-73.337703
 31
0.0
  0
LINE
  5
304
100
AcDbEntity
  8
0
370
    -3
  6
Continuous
100
AcDbLine
 10
-211.788337
 20
-97.837703
 30
0.0
 11
-211.788337
 21
-38.337703
 31
0.0
  0
LINE
  5
305
100
AcDbEntity
  8
0
370
    -3
  6
Continuous
100
AcDbLine
 10
-211.788337
 20
-97.837703
 30
0.0
 11
-211.788337
 21
-157.337703
 31
0.0
  0
LINE
  5
306
100
AcDbEntity
  8
0
370
    -3
  6
Continuous
100
AcDbLine
 10
-211.788337
 20
-117.837703
 30
0.0
 11
-204.788337
 21
-117.837703
 31
0.0
  0
LINE
  5
307
100
AcDbEntity
  8
0
370
    -3
  6
Continuous
100
AcDbLine
 10
-211.788337
 20
-77.837703
 30
0.0
 11
-204.788337
 21
-77.837703
 31
0.0
  0
LINE
  5
308
100
AcDbEntity
  8
0
370
    -3
  6
Continuous
100
AcDbLine
 10
-204.788337
 20
-42.337703
 30
0.0
 11
-204.788337
 21
-41.337703
 31
0.0
  0
LINE
  5
309
100
AcDbEntity
  8
0
370
    -3
  6
Continuous
100
AcDbLine
 10
-204.788337
 20
-55.652971
 30
0.0
 11
-204.788337
 21
-97.837703
 31
0.0
  0
LINE
  5
30A
100
AcDbEntity
  8
0
370
    -3
  6
Continuous
100
AcDbLine
 10
-204.788337
 20
-42.337703
 30
0.0
 11
-204.788337
 21
-42.741395
 31
0.0
  0
LINE
  5
30B
100
AcDbEntity
  8
0
370
    -3
  6
Continuous
100
AcDbLine
 10
-204.788337
 20
-153.337703
 30
0.0
 11
-204.788337
 21
-154.337703
 31
0.0
  0
LINE
  5
30C
100
AcDbEntity
  8
0
370
    -3
  6
Continuous
100
AcDbLine
 10
-204.788337
 20
-153.337703
 30
0.0
 11
-204.788337
 21
-152.93401
 31
0.0
  0
LINE
  5
30D
100
AcDbEntity
  8
0
370
    -3
  6
Continuous
100
AcDbLine
 10
-204.788337
 20
-153.337703
 30
0.0
 11
-204.788337
 21
-152.93401
 31
0.0
  0
LINE
  5
30E
100
AcDbEntity
  8
0
370
    -3
  6
Continuous
100
AcDbLine
 10
-204.788337
 20
-140.022434
 30
0.0
 11
-204.788337
 21
-97.837703
 31
0.0
  0
ARC
  5
30F
100
AcDbEntity
  8
0
370
    -3
  6
Continuous
100
AcDbCircle
 10
-207.788337
 20
-41.337703
 30
0.0
 40
3.0
100
AcDbArc
 50
0.0
 51
90.0
  0
ARC
  5
310
100
AcDbEntity
  8
0
370
    -3
  6
Continuous
100
AcDbCircle
 10
-207.788337
 20
-154.337703
 30
0.0
 40
3.0
100
AcDbArc
 50
270.0
 51
0.0
  0
LINE
  5
311
100
AcDbEntity
  8
0
370
    -3
  6
Continuous
100
AcDbLine
 10
-211.788337
 20
-157.337703
 30
0.0
 11
-211.788337
 21
-97.837703
 31
0.0
  0
LINE
  5
312
100
AcDbEntity
  8
0
370
    -3
  6
Continuous
100
AcDbLine
 10
-211.788337
 20
-38.337703
 30
0.0
 11
-211.788337
 21
-97.837703
 31
0.0
  0
LINE
  5
313
100
AcDbEntity
  8
0
370
    -3
  6
Continuous
100
AcDbLine
 10
-253.788337
 20
-73.337703
 30
0.0
 11
-253.788337
 21
-20.837703
 31
0.0
  0
LINE
  5
314
100
AcDbEntity
  8
0
370
    -3
  6
Continuous
100
AcDbLine
 10
-253.788337
 20
-73.337703
 30
0.0
 11
-253.788337
 21
-125.837703
 31
0.0
  0
LINE
  5
315
100
AcDbEntity
  8
0
370
    -3
  6
Continuous
100
AcDbLine
 10
-221.788337
 20
-63.779741
 30
0.0
 11
-221.788337
 21
-41.974965
 31
0.0
  0
ARC
  5
316
100
AcDbEntity
  8
0
370
    -3
  6
Continuous
100
AcDbCircle
 10
-219.788337
 20
-68.67872
 30
0.0
 40
2.0
100
AcDbArc
 50
101.536959
 51
180.0
  0
LINE
  5
317
100
AcDbEntity
  8
0
370
    -3
  6
Continuous
100
AcDbLine
 10
-221.788337
 20
-152.966731
 30
0.0
 11
-221.788337
 21
-68.67872
 31
0.0
  0
LINE
  5
318
100
AcDbEntity
  8
0
370
    -3
  6
Continuous
100
AcDbLine
 10
-217.788337
 20
-63.779741
 30
0.0
 11
-217.788337
 21
-41.130816
 31
0.0
  0
ARC
  5
319
100
AcDbEntity
  8
0
370
    -3
  6
Continuous
100
AcDbCircle
 10
-220.788337
 20
-63.779741
 30
0.0
 40
3.0
100
AcDbArc
 50
270.0
 51
0.0
  0
LINE
  5
31A
100
AcDbEntity
  8
0
370
    -3
  6
Continuous
100
AcDbLine
 10
-220.788337
 20
-66.779741
 30
0.0
 11
-235.788337
 21
-66.779741
 31
0.0
  0
ARC
  5
31B
100
AcDbEntity
  8
0
370
    -3
  6
Continuous
100
AcDbCircle
 10
-224.788337
 20
-63.779741
 30
0.0
 40
3.0
100
AcDbArc
 50
270.0
 51
0.0
  0
ARC
  5
31C
100
AcDbEntity
  8
0
370
    -3
  6
Continuous
100
AcDbCircle
 10
-235.788337
 20
-63.779741
 30
0.0
 40
3.0
100
AcDbArc
 50
180.0
 51
270.0
  0
LINE
  5
31D
100
AcDbEntity
  8
0
370
    -3
  6
Continuous
100
AcDbLine
 10
-238.788337
 20
-63.779741
 30
0.0
 11
-238.788337
 21
-61.37558
 31
0.0
  0
LINE
  5
31E
100
AcDbEntity
  8
0
370
    -3
  6
Continuous
100
AcDbLine
 10
-224.788337
 20
-93.337703
 30
0.0
 11
-253.788337
 21
-93.337703
 31
0.0
  0
LINE
  5
31F
100
AcDbEntity
  8
0
370
    -3
  6
Continuous
100
AcDbLine
 10
-239.788337
 20
-53.337703
 30
0.0
 11
-253.788337
 21
-53.337703
 31
0.0
  0
LINE
  5
320
100
AcDbEntity
  8
0
370
    -3
  6
Continuous
100
AcDbLine
 10
-221.788337
 20
-77.837703
 30
0.0
 11
-211.788337
 21
-77.837703
 31
0.0
  0
LINE
  5
321
100
AcDbEntity
  8
0
370
    -3
  6
Continuous
100
AcDbLine
 10
-211.788337
 20
-156.337703
 30
0.0
 11
-211.788337
 21
-39.337703
 31
0.0
  0
LINE
  5
322
100
AcDbEntity
  8
0
370
    -3
  6
Continuous
100
AcDbLine
 10
-221.788337
 20
-117.837703
 30
0.0
 11
-211.788337
 21
-117.837703
 31
0.0
  0
ARC
  5
323
100
AcDbEntity
  8
0
370
    -3
  6
Continuous
100
AcDbCircle
 10
-238.788337
 20
-59.643529
 30
0.0
 40
1.0
100
AcDbArc
 50
180.0
 51
240.0
  0
LINE
  5
324
100
AcDbEntity
  8
0
370
    -3
  6
Continuous
100
AcDbLine
 10
-239.788337
 20
-59.643529
 30
0.0
 11
-239.788337
 21
-38.137955
 31
0.0
  0
ARC
  5
325
100
AcDbEntity
  8
0
370
    -3
  6
Continuous
100
AcDbCircle
 10
-239.788337
 20
-36.405904
 30
0.0
 40
1.0
100
AcDbArc
 50
300.0
 51
0.0
  0
LINE
  5
326
100
AcDbEntity
  8
0
370
    -3
  6
Continuous
100
AcDbLine
 10
-238.788337
 20
-36.405904
 30
0.0
 11
-238.788337
 21
-26.242339
 31
0.0
  0
ARC
  5
327
100
AcDbEntity
  8
0
370
    -3
  6
Continuous
100
AcDbCircle
 10
-238.788337
 20
-38.137955
 30
0.0
 40
1.0
100
AcDbArc
 50
120.0
 51
180.0
  0
ARC
  5
328
100
AcDbEntity
  8
0
370
    -3
  6
Continuous
100
AcDbCircle
 10
-233.788337
 20
-33.17787
 30
0.0
 40
5.0
100
AcDbArc
 50
180.0
 51
267.0
  0
ARC
  5
329
100
AcDbEntity
  8
0
370
    -3
  6
Continuous
100
AcDbCircle
 10
-239.788337
 20
-61.37558
 30
0.0
 40
1.0
100
AcDbArc
 50
0.0
 51
60.0
  0
ARC
  5
32A
100
AcDbEntity
  8
0
370
    -3
  6
Continuous
100
AcDbCircle
 10
-215.788337
 20
-41.130816
 30
0.0
 40
2.0
100
AcDbArc
 50
87.0
 51
180.0
  0
ARC
  5
32B
100
AcDbEntity
  8
0
370
    -3
  6
Continuous
100
AcDbCircle
 10
-215.788337
 20
-154.125327
 30
0.0
 40
2.0
100
AcDbArc
 50
180.0
 51
267.0
  0
LINE
  5
32C
100
AcDbEntity
  8
0
370
    -3
  6
Continuous
100
AcDbLine
 10
-217.788337
 20
-154.125327
 30
0.0
 11
-217.788337
 21
-137.031876
 31
0.0
  0
ARC
  5
32D
100
AcDbEntity
  8
0
370
    -3
  6
Continuous
100
AcDbCircle
 10
-219.788337
 20
-133.031876
 30
0.0
 40
2.0
100
AcDbArc
 50
180.0
 51
270.0
  0
ARC
  5
32E
100
AcDbEntity
  8
0
370
    -3
  6
Continuous
100
AcDbCircle
 10
-219.788337
 20
-137.031876
 30
0.0
 40
2.0
100
AcDbArc
 50
0.0
 51
90.0
  0
ARC
  5
32F
100
AcDbEntity
  8
0
370
    -3
  6
Continuous
100
AcDbCircle
 10
-218.788337
 20
-41.974965
 30
0.0
 40
3.0
100
AcDbArc
 50
87.0
 51
180.0
  0
LINE
  5
330
100
AcDbEntity
  8
0
370
    -3
  6
Continuous
100
AcDbLine
 10
-211.788337
 20
-39.337703
 30
0.0
 11
-234.050016
 21
-38.171017
 31
0.0
  0
ARC
  5
331
100
AcDbEntity
  8
0
370
    -3
  6
Continuous
100
AcDbCircle
 10
-243.788321
 20
-26.242339
 30
0.0
 40
5.0
100
AcDbArc
 50
0.0
 51
88.0
  0
LINE
  5
332
100
AcDbEntity
  8
0
370
    -3
  6
Continuous
100
AcDbLine
 10
-211.788337
 20
-154.137703
 30
0.0
 11
-211.788337
 21
-156.337703
 31
0.0
  0
LINE
  5
333
100
AcDbEntity
  8
0
370
    -3
  6
Continuous
100
AcDbLine
 10
-216.683638
 20
-22.133428
 30
0.0
 11
-253.788352
 21
-20.837703
 31
0.0
  0
LINE
  5
334
100
AcDbEntity
  8
0
370
    -3
  6
Continuous
100
AcDbLine
 10
-224.735964
 20
-126.353541
 30
0.0
 11
-253.788321
 21
-125.84643
 31
0.0
  0
LINE
  5
335
100
AcDbEntity
  8
0
370
    -3
  6
CENTER
100
AcDbLine
 10
-227.788337
 20
-42.905053
 30
0.0
 11
-227.788337
 21
-18.441912
 31
0.0
  0
LINE
  5
336
100
AcDbEntity
  8
0
370
    -3
  6
Continuous
100
AcDbLine
 10
-213.788337
 20
-37.337703
 30
0.0
 11
-213.788337
 21
-25.1316
 31
0.0
  0
LINE
  5
337
100
AcDbEntity
  8
0
370
    -3
  6
Continuous
100
AcDbLine
 10
-245.909531
 20
-127.015935
 30
0.0
 11
-222.581901
 21
-154.816722
 31
0.0
  0
LINE
  5
338
100
AcDbEntity
  8
0
370
    -3
  6
Continuous
100
AcDbLine
 10
-211.788337
 20
-156.337703
 30
0.0
 11
-220.440776
 21
-155.884247
 31
0.0
  0
ARC
  5
339
100
AcDbEntity
  8
0
370
    -3
  6
Continuous
100
AcDbCircle
 10
-211.788337
 20
-37.337703
 30
0.0
 40
2.0
100
AcDbArc
 50
180.0
 51
270.0
  0
ARC
  5
33A
100
AcDbEntity
  8
0
370
    -3
  6
Continuous
100
AcDbCircle
 10
-248.207664
 20
-128.944298
 30
0.0
 40
3.0
100
AcDbArc
 50
40.0
 51
89.0
  0
ARC
  5
33B
100
AcDbEntity
  8
0
370
    -3
  6
Continuous
100
AcDbCircle
 10
-220.283768
 20
-152.888359
 30
0.0
 40
3.0
100
AcDbArc
 50
220.0
 51
267.0
  0
ARC
  5
33C
100
AcDbEntity
  8
0
370
    -3
  6
Continuous
100
AcDbCircle
 10
-216.788337
 20
-25.1316
 30
0.0
 40
3.0
100
AcDbArc
 50
0.0
 51
88.0
  0
ARC
  5
33D
100
AcDbEntity
  8
0
370
    -3
  6
Continuous
100
AcDbCircle
 10
-224.788337
 20
-129.353084
 30
0.0
 40
3.0
100
AcDbArc
 50
0.0
 51
89.0
  0
ARC
  5
33E
100
AcDbEntity
  8
0
370
    -3
  6
Continuous
100
AcDbCircle
 10
-218.788337
 20
-152.966731
 30
0.0
 40
3.0
100
AcDbArc
 50
180.0
 51
267.0
  0
LINE
  5
33F
100
AcDbEntity
  8
0
370
    -3
  6
Continuous
100
AcDbLine
 10
-211.788337
 20
-97.837703
 30
0.0
 11
-211.788337
 21
-39.337703
 31
0.0
  0
ARC
  5
340
100
AcDbEntity
  8
0
370
    -3
  6
Continuous
100
AcDbCircle
 10
-224.788337
 20
-96.337703
 30
0.0
 40
3.0
100
AcDbArc
 50
0.0
 51
90.0
  0
LINE
  5
341
100
AcDbEntity
  8
0
370
    -3
  6
Continuous
100
AcDbLine
 10
-253.788337
 20
-19.837703
 30
0.0
 11
-253.788337
 21
-73.337703
 31
0.0
  0
LINE
  5
342
100
AcDbEntity
  8
0
370
    -3
  6
Continuous
100
AcDbLine
 10
-253.788337
 20
-126.837703
 30
0.0
 11
-253.788337
 21
-73.337703
 31
0.0
  0
INSERT
  5
352
100
AcDbEntity
  8
0
100
AcDbBlockReference
  2
ZU_SYM__USERS_HOME_SYMBOL_STD_SYM_B01_00008-1
 10
-217.788337
 20
-142.031876
 30
0.0
  0
INSERT
  5
362
100
AcDbEntity
  8
0
100
AcDbBlockReference
  2
ZU_SYM__USERS_HOME_SYMBOL_STD_SYM_B01_00009-1
 10
-217.788337
 20
-53.643529
 30
0.0
  0
LINE
  5
363
100
AcDbEntity
  8
0
370
    -3
  6
Continuous
100
AcDbLine
 10
335.712036
 20
-185.600146
 30
0.0
 11
430.212036
 21
-183.950642
 31
0.0
  0
LINE
  5
364
100
AcDbEntity
  8
0
370
    -3
  6
Continuous
100
AcDbLine
 10
323.711638
 20
-184.891067
 30
0.0
 11
324.211486
 21
-185.399716
 31
0.0
  0
LINE
  5
365
100
AcDbEntity
  8
0
370
    -3
  6
Continuous
100
AcDbLine
 10
430.212036
 20
-183.950955
 30
0.0
 11
439.712036
 21
-183.950955
 31
0.0
  0
LINE
  5
366
100
AcDbEntity
  8
0
370
    -3
  6
Continuous
100
AcDbLine
 10
324.211486
 20
-185.399716
 30
0.0
 11
335.712036
 21
-185.600459
 31
0.0
  0
CIRCLE
  5
367
100
AcDbEntity
  8
0
370
    -3
  6
Continuous
100
AcDbCircle
 10
-65.288103
 20
-81.837859
 30
0.0
 40
52.5
  0
LINE
  5
368
100
AcDbEntity
  8
0
370
    -3
  6
CENTER
100
AcDbLine
 10
4.211897
 20
-170.837859
 30
0.0
 11
-20.788103
 21
-170.837859
 31
0.0
  0
LINE
  5
369
100
AcDbEntity
  8
0
370
    -3
  6
CENTER
100
AcDbLine
 10
-8.288103
 20
-158.337859
 30
0.0
 11
-8.288103
 21
-183.337859
 31
0.0
  0
LINE
  5
36A
100
AcDbEntity
  8
0
370
    -3
  6
CENTER
100
AcDbLine
 10
-154.788103
 20
-170.837859
 30
0.0
 11
-179.788103
 21
-170.837859
 31
0.0
  0
LINE
  5
36B
100
AcDbEntity
  8
0
370
    -3
  6
CENTER
100
AcDbLine
 10
-167.288103
 20
-158.337859
 30
0.0
 11
-167.288103
 21
-183.337859
 31
0.0
  0
LINE
  5
36C
100
AcDbEntity
  8
0
370
    -3
  6
CENTER
100
AcDbLine
 10
-154.788103
 20
-24.837859
 30
0.0
 11
-179.788103
 21
-24.837859
 31
0.0
  0
LINE
  5
36D
100
AcDbEntity
  8
0
370
    -3
  6
CENTER
100
AcDbLine
 10
-167.288103
 20
-12.337859
 30
0.0
 11
-167.288103
 21
-37.337859
 31
0.0
  0
LINE
  5
36E
100
AcDbEntity
  8
0
370
    -3
  6
CENTER
100
AcDbLine
 10
4.211897
 20
-24.837859
 30
0.0
 11
-20.788103
 21
-24.837859
 31
0.0
  0
LINE
  5
36F
100
AcDbEntity
  8
0
370
    -3
  6
CENTER
100
AcDbLine
 10
-8.288103
 20
-12.337859
 30
0.0
 11
-8.288103
 21
-37.337859
 31
0.0
  0
ARC
  5
370
100
AcDbEntity
  8
0
370
    -3
  6
Continuous
100
AcDbCircle
 10
-167.288103
 20
-170.837859
 30
0.0
 40
15.5
100
AcDbArc
 50
31.58598
 51
80.793104
  0
LINE
  5
371
100
AcDbEntity
  8
0
370
    -3
  6
CENTER
100
AcDbLine
 10
11.222591
 20
-81.837859
 30
0.0
 11
-137.647414
 21
-81.837859
 31
0.0
  0
ARC
  5
372
100
AcDbEntity
  8
0
370
    -3
  6
Continuous
100
AcDbCircle
 10
-65.288103
 20
-81.837859
 30
0.0
 40
17.5
100
AcDbArc
 50
106.60155
 51
73.39845
  0
LINE
  5
373
100
AcDbEntity
  8
0
370
    -3
  6
Continuous
100
AcDbLine
 10
-70.288103
 20
-65.067349
 30
0.0
 11
-70.288103
 21
-61.037859
 31
0.0
  0
LINE
  5
374
100
AcDbEntity
  8
0
370
    -3
  6
Continuous
100
AcDbLine
 10
-70.288103
 20
-61.037859
 30
0.0
 11
-60.288103
 21
-61.037859
 31
0.0
  0
LINE
  5
375
100
AcDbEntity
  8
0
370
    -3
  6
Continuous
100
AcDbLine
 10
-60.288103
 20
-65.067349
 30
0.0
 11
-60.288103
 21
-61.037859
 31
0.0
  0
LINE
  5
376
100
AcDbEntity
  8
0
370
    -3
  6
CENTER
100
AcDbLine
 10
-65.288103
 20
-6.877295
 30
0.0
 11
-65.288103
 21
-158.458699
 31
0.0
  0
POINT
  5
377
100
AcDbEntity
  8
0
370
    -3
  6
Continuous
100
AcDbPoint
 10
-65.288103
 20
-81.837859
 30
0.0
  0
CIRCLE
  5
378
100
AcDbEntity
  8
0
370
    -3
  6
Continuous
100
AcDbCircle
 10
-65.288103
 20
-81.837859
 30
0.0
 40
47.5
  0
CIRCLE
  5
379
100
AcDbEntity
  8
0
370
    -3
  6
Continuous
100
AcDbCircle
 10
-65.288103
 20
-81.837859
 30
0.0
 40
24.0
  0
ARC
  5
37A
100
AcDbEntity
  8
0
370
    -3
  6
Continuous
100
AcDbCircle
 10
-185.288103
 20
-34.900865
 30
0.0
 40
3.0
100
AcDbArc
 50
271.0
 51
0.0
  0
ARC
  5
37B
100
AcDbEntity
  8
0
370
    -3
  6
Continuous
100
AcDbCircle
 10
-185.288103
 20
-160.77454
 30
0.0
 40
3.0
100
AcDbArc
 50
0.0
 51
89.0
  0
LINE
  5
37C
100
AcDbEntity
  8
0
370
    -3
  6
Continuous
100
AcDbLine
 10
-211.788337
 20
-157.320247
 30
0.0
 11
-185.235746
 21
-157.774997
 31
0.0
  0
LINE
  5
37D
100
AcDbEntity
  8
0
370
    -3
  6
Continuous
100
AcDbLine
 10
-182.598337
 20
-25.924045
 30
0.0
 11
-182.598408
 21
-25.924045
 31
0.0
  0
LINE
  5
37E
100
AcDbEntity
  8
0
370
    -3
  6
Continuous
100
AcDbLine
 10
-182.598337
 20
-25.925638
 30
0.0
 11
-182.598408
 21
-25.925638
 31
0.0
  0
LINE
  5
37F
100
AcDbEntity
  8
0
370
    -3
  6
Continuous
100
AcDbLine
 10
-211.788337
 20
-38.355158
 30
0.0
 11
-185.235746
 21
-37.900408
 31
0.0
  0
LINE
  5
380
100
AcDbEntity
  8
0
370
    -3
  6
Continuous
100
AcDbLine
 10
-182.288103
 20
-21.837859
 30
0.0
 11
-182.288103
 21
-173.837859
 31
0.0
  0
LINE
  5
381
100
AcDbEntity
  8
0
370
    -3
  6
Continuous
100
AcDbLine
 10
-5.288103
 20
-9.837859
 30
0.0
 11
-170.288103
 21
-9.837859
 31
0.0
  0
LINE
  5
382
100
AcDbEntity
  8
0
370
    -3
  6
Continuous
100
AcDbLine
 10
6.711897
 20
-173.837859
 30
0.0
 11
6.711897
 21
-21.837859
 31
0.0
  0
LINE
  5
383
100
AcDbEntity
  8
0
370
    -3
  6
Continuous
100
AcDbLine
 10
-170.288103
 20
-185.837859
 30
0.0
 11
-5.288103
 21
-185.837859
 31
0.0
  0
LINE
  5
384
100
AcDbEntity
  8
0
370
    -3
  6
CENTER
100
AcDbLine
 10
-17.740998
 20
-176.83817
 30
0.0
 11
-33.491681
 21
-176.83817
 31
0.0
  0
LINE
  5
385
100
AcDbEntity
  8
0
370
    -3
  6
CENTER
100
AcDbLine
 10
-16.700413
 20
-18.83817
 30
0.0
 11
-33.491681
 21
-18.83817
 31
0.0
  0
LINE
  5
386
100
AcDbEntity
  8
0
370
    -3
  6
CENTER
100
AcDbLine
 10
-25.28823
 20
-10.882514
 30
0.0
 11
-25.28823
 21
-27.090534
 31
0.0
  0
LINE
  5
387
100
AcDbEntity
  8
0
370
    -3
  6
CENTER
100
AcDbLine
 10
-149.28823
 20
-11.99613
 30
0.0
 11
-149.28823
 21
-26.871774
 31
0.0
  0
LINE
  5
388
100
AcDbEntity
  8
0
370
    -3
  6
CENTER
100
AcDbLine
 10
-149.28823
 20
-169.284198
 30
0.0
 11
-149.28823
 21
-183.722324
 31
0.0
  0
LINE
  5
389
100
AcDbEntity
  8
0
370
    -3
  6
CENTER
100
AcDbLine
 10
-25.28823
 20
-168.62792
 30
0.0
 11
-25.28823
 21
-183.503565
 31
0.0
  0
LINE
  5
38A
100
AcDbEntity
  8
0
370
    -3
  6
CENTER
100
AcDbLine
 10
-142.433904
 20
-18.83817
 30
0.0
 11
-156.65327
 21
-18.83817
 31
0.0
  0
LINE
  5
38B
100
AcDbEntity
  8
0
370
    -3
  6
CENTER
100
AcDbLine
 10
-141.996385
 20
-176.83817
 30
0.0
 11
-157.121739
 21
-176.83817
 31
0.0
  0
CIRCLE
  5
38C
100
AcDbEntity
  8
0
370
    -3
  6
Continuous
100
AcDbCircle
 10
-25.28823
 20
-176.83817
 30
0.0
 40
5.5
  0
CIRCLE
  5
38D
100
AcDbEntity
  8
0
370
    -3
  6
Continuous
100
AcDbCircle
 10
-25.28823
 20
-18.83817
 30
0.0
 40
5.5
  0
CIRCLE
  5
38E
100
AcDbEntity
  8
0
370
    -3
  6
Continuous
100
AcDbCircle
 10
-149.28823
 20
-18.83817
 30
0.0
 40
5.5
  0
CIRCLE
  5
38F
100
AcDbEntity
  8
0
370
    -3
  6
Continuous
100
AcDbCircle
 10
-149.28823
 20
-176.83817
 30
0.0
 40
5.5
  0
LINE
  5
390
100
AcDbEntity
  8
0
370
    -3
  6
Continuous
100
AcDbLine
 10
-193.788337
 20
-154.576703
 30
0.0
 11
-193.788337
 21
-41.098702
 31
0.0
  0
ARC
  5
391
100
AcDbEntity
  8
0
370
    -3
  6
Continuous
100
AcDbCircle
 10
-196.788337
 20
-41.098702
 30
0.0
 40
3.0
100
AcDbArc
 50
0.0
 51
90.981173
  0
ARC
  5
392
100
AcDbEntity
  8
0
370
    -3
  6
Continuous
100
AcDbCircle
 10
-196.788337
 20
-154.576703
 30
0.0
 40
3.0
100
AcDbArc
 50
269.018827
 51
0.0
  0
ARC
  5
393
100
AcDbEntity
  8
0
370
    -3
  6
Continuous
100
AcDbCircle
 10
-196.788337
 20
-146.93401
 30
0.0
 40
3.0
100
AcDbArc
 50
270.0
 51
0.0
  0
ARC
  5
394
100
AcDbEntity
  8
0
370
    -3
  6
Continuous
100
AcDbCircle
 10
-196.788337
 20
-140.022434
 30
0.0
 40
3.0
100
AcDbArc
 50
270.0
 51
0.0
  0
ARC
  5
395
100
AcDbEntity
  8
0
370
    -3
  6
Continuous
100
AcDbCircle
 10
-196.788337
 20
-48.741395
 30
0.0
 40
3.0
100
AcDbArc
 50
0.0
 51
90.0
  0
ARC
  5
396
100
AcDbEntity
  8
0
370
    -3
  6
Continuous
100
AcDbCircle
 10
-196.788337
 20
-55.652971
 30
0.0
 40
3.0
100
AcDbArc
 50
0.0
 51
90.0
  0
LINE
  5
397
100
AcDbEntity
  8
0
370
    -3
  6
DASHED
100
AcDbLine
 10
-182.288103
 20
-62.391507
 30
0.0
 11
-182.288103
 21
-48.611216
 31
0.0
  0
LINE
  5
398
100
AcDbEntity
  8
0
370
    -3
  6
DASHED
100
AcDbLine
 10
-182.288103
 20
-133.283898
 30
0.0
 11
-182.288103
 21
-147.064189
 31
0.0
  0
ARC
  5
399
100
AcDbEntity
  8
0
370
    -3
  6
Continuous
100
AcDbCircle
 10
-163.288103
 20
-146.159934
 30
0.0
 40
9.5
100
AcDbArc
 50
180.0
 51
260.793104
  0
ARC
  5
39A
100
AcDbEntity
  8
0
370
    -3
  6
Continuous
100
AcDbCircle
 10
-149.399146
 20
-159.838532
 30
0.0
 40
5.5
100
AcDbArc
 50
211.58598
 51
270.373825
  0
ARC
  5
39B
100
AcDbEntity
  8
0
370
    -3
  6
Continuous
100
AcDbCircle
 10
-149.28823
 20
-176.83817
 30
0.0
 40
11.5
100
AcDbArc
 50
20.668437
 51
90.373825
  0
ARC
  5
39C
100
AcDbEntity
  8
0
370
    -3
  6
Continuous
100
AcDbCircle
 10
-133.382374
 20
-170.837859
 30
0.0
 40
5.5
100
AcDbArc
 50
200.668437
 51
270.0
  0
LINE
  5
39D
100
AcDbEntity
  8
0
370
    -3
  6
Continuous
100
AcDbLine
 10
-41.194087
 20
-176.337859
 30
0.0
 11
-133.382374
 21
-176.337859
 31
0.0
  0
ARC
  5
39E
100
AcDbEntity
  8
0
370
    -3
  6
Continuous
100
AcDbCircle
 10
-41.194087
 20
-170.837859
 30
0.0
 40
5.5
100
AcDbArc
 50
270.0
 51
339.331563
  0
ARC
  5
39F
100
AcDbEntity
  8
0
370
    -3
  6
Continuous
100
AcDbCircle
 10
-25.28823
 20
-176.83817
 30
0.0
 40
11.5
100
AcDbArc
 50
93.046047
 51
159.331563
  0
ARC
  5
3A0
100
AcDbEntity
  8
0
370
    -3
  6
Continuous
100
AcDbCircle
 10
-26.191585
 20
-159.862189
 30
0.0
 40
5.5
100
AcDbArc
 50
273.046047
 51
328.489758
  0
ARC
  5
3A1
100
AcDbEntity
  8
0
370
    -3
  6
Continuous
100
AcDbCircle
 10
-8.288103
 20
-170.837859
 30
0.0
 40
15.5
100
AcDbArc
 50
99.206896
 51
148.489758
  0
ARC
  5
3A2
100
AcDbEntity
  8
0
370
    -3
  6
Continuous
100
AcDbCircle
 10
-12.288103
 20
-146.159934
 30
0.0
 40
9.5
100
AcDbArc
 50
279.206896
 51
0.0
  0
LINE
  5
3A3
100
AcDbEntity
  8
0
370
    -3
  6
Continuous
100
AcDbLine
 10
-2.788103
 20
-49.515784
 30
0.0
 11
-2.788103
 21
-146.159934
 31
0.0
  0
ARC
  5
3A4
100
AcDbEntity
  8
0
370
    -3
  6
Continuous
100
AcDbCircle
 10
-12.288103
 20
-49.515784
 30
0.0
 40
9.5
100
AcDbArc
 50
0.0
 51
80.793104
  0
ARC
  5
3A5
100
AcDbEntity
  8
0
370
    -3
  6
Continuous
100
AcDbCircle
 10
-8.288103
 20
-24.837859
 30
0.0
 40
15.5
100
AcDbArc
 50
211.5123
 51
260.793104
  0
ARC
  5
3A6
100
AcDbEntity
  8
0
370
    -3
  6
Continuous
100
AcDbCircle
 10
-26.191191
 20
-35.814173
 30
0.0
 40
5.5
100
AcDbArc
 50
31.5123
 51
86.955283
  0
ARC
  5
3A7
100
AcDbEntity
  8
0
370
    -3
  6
Continuous
100
AcDbCircle
 10
-25.28823
 20
-18.83817
 30
0.0
 40
11.5
100
AcDbArc
 50
200.666196
 51
266.955283
  0
ARC
  5
3A8
100
AcDbEntity
  8
0
370
    -3
  6
Continuous
100
AcDbCircle
 10
-41.194321
 20
-24.837859
 30
0.0
 40
5.5
100
AcDbArc
 50
20.666196
 51
90.0
  0
LINE
  5
3A9
100
AcDbEntity
  8
0
370
    -3
  6
Continuous
100
AcDbLine
 10
-133.382139
 20
-19.337859
 30
0.0
 11
-41.194321
 21
-19.337859
 31
0.0
  0
ARC
  5
3AA
100
AcDbEntity
  8
0
370
    -3
  6
Continuous
100
AcDbCircle
 10
-133.382139
 20
-24.837859
 30
0.0
 40
5.5
100
AcDbArc
 50
90.0
 51
159.333804
  0
ARC
  5
3AB
100
AcDbEntity
  8
0
370
    -3
  6
Continuous
100
AcDbCircle
 10
-149.28823
 20
-18.83817
 30
0.0
 40
11.5
100
AcDbArc
 50
269.624891
 51
339.333804
  0
ARC
  5
3AC
100
AcDbEntity
  8
0
370
    -3
  6
Continuous
100
AcDbCircle
 10
-149.399527
 20
-35.837806
 30
0.0
 40
5.5
100
AcDbArc
 50
89.624891
 51
148.412035
  0
ARC
  5
3AD
100
AcDbEntity
  8
0
370
    -3
  6
Continuous
100
AcDbCircle
 10
-167.288103
 20
-24.837859
 30
0.0
 40
15.5
100
AcDbArc
 50
279.206896
 51
328.412035
  0
ARC
  5
3AE
100
AcDbEntity
  8
0
370
    -3
  6
Continuous
100
AcDbCircle
 10
-163.288103
 20
-49.515784
 30
0.0
 40
9.5
100
AcDbArc
 50
99.206896
 51
180.0
  0
LINE
  5
3AF
100
AcDbEntity
  8
0
370
    -3
  6
Continuous
100
AcDbLine
 10
-172.788103
 20
-146.159934
 30
0.0
 11
-172.788103
 21
-49.515784
 31
0.0
  0
ARC
  5
3B0
100
AcDbEntity
  8
0
370
    -3
  6
Continuous
100
AcDbCircle
 10
-170.288103
 20
-173.837859
 30
0.0
 40
11.0
100
AcDbArc
 50
180.0
 51
270.0
  0
ARC
  5
3B1
100
AcDbEntity
  8
0
370
    -3
  6
Continuous
100
AcDbCircle
 10
-5.288103
 20
-173.837859
 30
0.0
 40
11.0
100
AcDbArc
 50
270.0
 51
0.0
  0
ARC
  5
3B2
100
AcDbEntity
  8
0
370
    -3
  6
Continuous
100
AcDbCircle
 10
-5.288103
 20
-173.837859
 30
0.0
 40
12.0
100
AcDbArc
 50
270.0
 51
0.0
  0
ARC
  5
3B3
100
AcDbEntity
  8
0
370
    -3
  6
Continuous
100
AcDbCircle
 10
-170.288103
 20
-173.837859
 30
0.0
 40
12.0
100
AcDbArc
 50
180.0
 51
270.0
  0
ARC
  5
3B4
100
AcDbEntity
  8
0
370
    -3
  6
Continuous
100
AcDbCircle
 10
-5.288103
 20
-21.837859
 30
0.0
 40
12.0
100
AcDbArc
 50
0.0
 51
90.0
  0
ARC
  5
3B5
100
AcDbEntity
  8
0
370
    -3
  6
Continuous
100
AcDbCircle
 10
-5.288103
 20
-21.837859
 30
0.0
 40
11.0
100
AcDbArc
 50
0.0
 51
90.0
  0
ARC
  5
3B6
100
AcDbEntity
  8
0
370
    -3
  6
Continuous
100
AcDbCircle
 10
-170.288103
 20
-21.837859
 30
0.0
 40
11.0
100
AcDbArc
 50
90.0
 51
180.0
  0
ARC
  5
3B7
100
AcDbEntity
  8
0
370
    -3
  6
Continuous
100
AcDbCircle
 10
-170.288103
 20
-21.837859
 30
0.0
 40
12.0
100
AcDbArc
 50
90.0
 51
180.0
  0
ARC
  5
3B8
100
AcDbEntity
  8
0
370
    -3
  6
Continuous
100
AcDbCircle
 10
-8.288103
 20
-170.837859
 30
0.0
 40
17.5
100
AcDbArc
 50
99.206896
 51
148.489758
  0
ARC
  5
3B9
100
AcDbEntity
  8
0
370
    -3
  6
Continuous
100
AcDbCircle
 10
-26.191585
 20
-159.862189
 30
0.0
 40
3.5
100
AcDbArc
 50
273.046047
 51
328.489758
  0
ARC
  5
3BA
100
AcDbEntity
  8
0
370
    -3
  6
Continuous
100
AcDbCircle
 10
-25.28823
 20
-176.83817
 30
0.0
 40
13.5
100
AcDbArc
 50
93.046047
 51
159.331563
  0
ARC
  5
3BB
100
AcDbEntity
  8
0
370
    -3
  6
Continuous
100
AcDbCircle
 10
-41.194087
 20
-170.837859
 30
0.0
 40
3.5
100
AcDbArc
 50
270.0
 51
339.331563
  0
LINE
  5
3BC
100
AcDbEntity
  8
0
370
    -3
  6
Continuous
100
AcDbLine
 10
-133.382374
 20
-174.337859
 30
0.0
 11
-41.194087
 21
-174.337859
 31
0.0
  0
ARC
  5
3BD
100
AcDbEntity
  8
0
370
    -3
  6
Continuous
100
AcDbCircle
 10
-133.382374
 20
-170.837859
 30
0.0
 40
3.5
100
AcDbArc
 50
200.668437
 51
270.0
  0
ARC
  5
3BE
100
AcDbEntity
  8
0
370
    -3
  6
Continuous
100
AcDbCircle
 10
-149.28823
 20
-176.83817
 30
0.0
 40
13.5
100
AcDbArc
 50
20.668437
 51
90.373825
  0
ARC
  5
3BF
100
AcDbEntity
  8
0
370
    -3
  6
Continuous
100
AcDbCircle
 10
-149.399146
 20
-159.838532
 30
0.0
 40
3.5
100
AcDbArc
 50
211.58598
 51
270.373825
  0
ARC
  5
3C0
100
AcDbEntity
  8
0
370
    -3
  6
Continuous
100
AcDbCircle
 10
-167.288103
 20
-170.837859
 30
0.0
 40
17.5
100
AcDbArc
 50
31.58598
 51
80.793104
  0
ARC
  5
3C1
100
AcDbEntity
  8
0
370
    -3
  6
Continuous
100
AcDbCircle
 10
-163.288103
 20
-146.159934
 30
0.0
 40
7.5
100
AcDbArc
 50
180.0
 51
260.793104
  0
LINE
  5
3C2
100
AcDbEntity
  8
0
370
    -3
  6
Continuous
100
AcDbLine
 10
-170.788103
 20
-49.515784
 30
0.0
 11
-170.788103
 21
-146.159934
 31
0.0
  0
ARC
  5
3C3
100
AcDbEntity
  8
0
370
    -3
  6
Continuous
100
AcDbCircle
 10
-163.288103
 20
-49.515784
 30
0.0
 40
7.5
100
AcDbArc
 50
99.206896
 51
180.0
  0
ARC
  5
3C4
100
AcDbEntity
  8
0
370
    -3
  6
Continuous
100
AcDbCircle
 10
-167.288103
 20
-24.837859
 30
0.0
 40
17.5
100
AcDbArc
 50
279.206896
 51
328.412035
  0
ARC
  5
3C5
100
AcDbEntity
  8
0
370
    -3
  6
Continuous
100
AcDbCircle
 10
-149.399527
 20
-35.837806
 30
0.0
 40
3.5
100
AcDbArc
 50
89.624891
 51
148.412035
  0
ARC
  5
3C6
100
AcDbEntity
  8
0
370
    -3
  6
Continuous
100
AcDbCircle
 10
-149.28823
 20
-18.83817
 30
0.0
 40
13.5
100
AcDbArc
 50
269.624891
 51
339.333804
  0
ARC
  5
3C7
100
AcDbEntity
  8
0
370
    -3
  6
Continuous
100
AcDbCircle
 10
-133.382139
 20
-24.837859
 30
0.0
 40
3.5
100
AcDbArc
 50
90.0
 51
159.333804
  0
LINE
  5
3C8
100
AcDbEntity
  8
0
370
    -3
  6
Continuous
100
AcDbLine
 10
-41.194321
 20
-21.337859
 30
0.0
 11
-133.382139
 21
-21.337859
 31
0.0
  0
ARC
  5
3C9
100
AcDbEntity
  8
0
370
    -3
  6
Continuous
100
AcDbCircle
 10
-41.194321
 20
-24.837859
 30
0.0
 40
3.5
100
AcDbArc
 50
20.666196
 51
90.0
  0
ARC
  5
3CA
100
AcDbEntity
  8
0
370
    -3
  6
Continuous
100
AcDbCircle
 10
-25.28823
 20
-18.83817
 30
0.0
 40
13.5
100
AcDbArc
 50
200.666196
 51
266.955283
  0
ARC
  5
3CB
100
AcDbEntity
  8
0
370
    -3
  6
Continuous
100
AcDbCircle
 10
-26.191191
 20
-35.814173
 30
0.0
 40
3.5
100
AcDbArc
 50
31.5123
 51
86.955283
  0
ARC
  5
3CC
100
AcDbEntity
  8
0
370
    -3
  6
Continuous
100
AcDbCircle
 10
-8.288103
 20
-24.837859
 30
0.0
 40
17.5
100
AcDbArc
 50
211.5123
 51
260.793104
  0
ARC
  5
3CD
100
AcDbEntity
  8
0
370
    -3
  6
Continuous
100
AcDbCircle
 10
-12.288103
 20
-49.515784
 30
0.0
 40
7.5
100
AcDbArc
 50
0.0
 51
80.793104
  0
LINE
  5
3CE
100
AcDbEntity
  8
0
370
    -3
  6
Continuous
100
AcDbLine
 10
-4.788103
 20
-146.159934
 30
0.0
 11
-4.788103
 21
-49.515784
 31
0.0
  0
ARC
  5
3CF
100
AcDbEntity
  8
0
370
    -3
  6
Continuous
100
AcDbCircle
 10
-12.288103
 20
-146.159934
 30
0.0
 40
7.5
100
AcDbArc
 50
279.206896
 51
0.0
  0
LINE
  5
3D0
100
AcDbEntity
  8
0
370
    -3
  6
Continuous
100
AcDbLine
 10
5.711897
 20
-173.837859
 30
0.0
 11
5.711897
 21
-21.837859
 31
0.0
  0
LINE
  5
3D1
100
AcDbEntity
  8
0
370
    -3
  6
Continuous
100
AcDbLine
 10
-170.288103
 20
-184.837859
 30
0.0
 11
-5.288103
 21
-184.837859
 31
0.0
  0
LINE
  5
3D2
100
AcDbEntity
  8
0
370
    -3
  6
Continuous
100
AcDbLine
 10
-181.288103
 20
-21.837859
 30
0.0
 11
-181.288103
 21
-173.837859
 31
0.0
  0
LINE
  5
3D3
100
AcDbEntity
  8
0
370
    -3
  6
Continuous
100
AcDbLine
 10
-5.288103
 20
-10.837859
 30
0.0
 11
-170.288103
 21
-10.837859
 31
0.0
  0
LINE
  5
3D4
100
AcDbEntity
  8
0
370
    -3
  6
CENTER
100
AcDbLine
 10
-241.952812
 20
-97.837703
 30
0.0
 11
-157.484257
 21
-97.837703
 31
0.0
  0
INSERT
  5
3E0
100
AcDbEntity
  8
0
100
AcDbBlockReference
  2
ZU_SYM__USERS_HOME_SYMBOL_POO_SYM_B20_-1
 10
-149.28823
 20
-18.83817
 30
0.0
  0
INSERT
  5
3EC
100
AcDbEntity
  8
0
100
AcDbBlockReference
  2
ZU_SYM__USERS_HOME_SYMBOL_POO_SYM_B20_00010-1
 10
-25.28823
 20
-18.83817
 30
0.0
  0
INSERT
  5
3F8
100
AcDbEntity
  8
0
100
AcDbBlockReference
  2
ZU_SYM__USERS_HOME_SYMBOL_POO_SYM_B20_00011-1
 10
-25.28823
 20
-176.83817
 30
0.0
  0
INSERT
  5
404
100
AcDbEntity
  8
0
100
AcDbBlockReference
  2
ZU_SYM__USERS_HOME_SYMBOL_POO_SYM_B20_00012-1
 10
-149.28823
 20
-176.83817
 30
0.0
  0
CIRCLE
  5
405
100
AcDbEntity
  8
0
370
    -3
  6
Continuous
100
AcDbCircle
 10
-8.288103
 20
-170.837859
 30
0.0
 40
10.0
  0
CIRCLE
  5
406
100
AcDbEntity
  8
0
370
    -3
  6
Continuous
100
AcDbCircle
 10
-8.288103
 20
-170.837859
 30
0.0
 40
7.0
  0
CIRCLE
  5
407
100
AcDbEntity
  8
0
370
    -3
  6
Continuous
100
AcDbCircle
 10
-167.288103
 20
-170.837859
 30
0.0
 40
10.0
  0
CIRCLE
  5
408
100
AcDbEntity
  8
0
370
    -3
  6
Continuous
100
AcDbCircle
 10
-167.288103
 20
-170.837859
 30
0.0
 40
7.0
  0
CIRCLE
  5
409
100
AcDbEntity
  8
0
370
    -3
  6
Continuous
100
AcDbCircle
 10
-167.288103
 20
-24.837859
 30
0.0
 40
10.0
  0
CIRCLE
  5
40A
100
AcDbEntity
  8
0
370
    -3
  6
Continuous
100
AcDbCircle
 10
-167.288103
 20
-24.837859
 30
0.0
 40
7.0
  0
CIRCLE
  5
40B
100
AcDbEntity
  8
0
370
    -3
  6
Continuous
100
AcDbCircle
 10
-8.288103
 20
-24.837859
 30
0.0
 40
10.0
  0
CIRCLE
  5
40C
100
AcDbEntity
  8
0
370
    -3
  6
Continuous
100
AcDbCircle
 10
-8.288103
 20
-24.837859
 30
0.0
 40
7.0
  0
LINE
  5
40D
100
AcDbEntity
  8
0
370
    -3
  6
Continuous
100
AcDbLine
 10
-201.788337
 20
-149.93401
 30
0.0
 11
-196.788337
 21
-149.93401
 31
0.0
  0
LINE
  5
40E
100
AcDbEntity
  8
0
370
    -3
  6
Continuous
100
AcDbLine
 10
-201.788337
 20
-143.022434
 30
0.0
 11
-196.788337
 21
-143.022434
 31
0.0
  0
LINE
  5
40F
100
AcDbEntity
  8
0
370
    -3
  6
Continuous
100
AcDbLine
 10
-201.788337
 20
-52.652971
 30
0.0
 11
-196.788337
 21
-52.652971
 31
0.0
  0
LINE
  5
410
100
AcDbEntity
  8
0
370
    -3
  6
Continuous
100
AcDbLine
 10
-201.788337
 20
-45.741395
 30
0.0
 11
-196.788337
 21
-45.741395
 31
0.0
  0
LINE
  5
411
100
AcDbEntity
  8
0
370
    -3
  6
Continuous
100
AcDbLine
 10
-201.788337
 20
-58.836436
 30
0.0
 11
-196.788337
 21
-58.836436
 31
0.0
  0
LINE
  5
412
100
AcDbEntity
  8
0
370
    -3
  6
Continuous
100
AcDbLine
 10
-201.788337
 20
-136.838969
 30
0.0
 11
-196.788337
 21
-136.838969
 31
0.0
  0
ARC
  5
413
100
AcDbEntity
  8
0
370
    -3
  6
Continuous
100
AcDbCircle
 10
-201.788337
 20
-42.741395
 30
0.0
 40
3.0
100
AcDbArc
 50
180.0
 51
270.0
  0
ARC
  5
414
100
AcDbEntity
  8
0
370
    -3
  6
Continuous
100
AcDbCircle
 10
-201.788337
 20
-55.652971
 30
0.0
 40
3.0
100
AcDbArc
 50
90.0
 51
180.0
  0
ARC
  5
415
100
AcDbEntity
  8
0
370
    -3
  6
Continuous
100
AcDbCircle
 10
-201.788337
 20
-61.836436
 30
0.0
 40
3.0
100
AcDbArc
 50
90.0
 51
180.0
  0
ARC
  5
416
100
AcDbEntity
  8
0
370
    -3
  6
Continuous
100
AcDbCircle
 10
-201.788337
 20
-140.022434
 30
0.0
 40
3.0
100
AcDbArc
 50
180.0
 51
270.0
  0
ARC
  5
417
100
AcDbEntity
  8
0
370
    -3
  6
Continuous
100
AcDbCircle
 10
-201.788337
 20
-152.93401
 30
0.0
 40
3.0
100
AcDbArc
 50
90.0
 51
180.0
  0
ARC
  5
418
100
AcDbEntity
  8
0
370
    -3
  6
Continuous
100
AcDbCircle
 10
-201.788337
 20
-133.838969
 30
0.0
 40
3.0
100
AcDbArc
 50
180.0
 51
270.0
  0
LINE
  5
419
100
AcDbEntity
  8
0
370
    -3
  6
DASHED
100
AcDbLine
 10
362.212036
 20
-19.837859
 30
0.0
 11
401.212036
 21
-19.837859
 31
0.0
  0
ARC
  5
41A
100
AcDbEntity
  8
0
370
    -3
  6
DASHED
100
AcDbCircle
 10
361.712036
 20
-420.837859
 30
0.0
 40
400.0
100
AcDbArc
 50
90.07153
 51
91.431984
  0
ARC
  5
41B
100
AcDbEntity
  8
0
370
    -3
  6
DASHED
100
AcDbCircle
 10
361.212036
 20
-20.337859
 30
0.0
 40
0.5
100
AcDbArc
 50
270.0
 51
0.0
  0
ARC
  5
41C
100
AcDbEntity
  8
0
370
    -3
  6
DASHED
100
AcDbCircle
 10
362.212036
 20
-20.337859
 30
0.0
 40
0.5
100
AcDbArc
 50
90.0
 51
180.0
  0
ARC
  5
41D
100
AcDbEntity
  8
0
370
    -3
  6
DASHED
100
AcDbCircle
 10
401.712036
 20
-420.837859
 30
0.0
 40
400.0
100
AcDbArc
 50
88.568016
 51
89.92847
  0
ARC
  5
41E
100
AcDbEntity
  8
0
370
    -3
  6
DASHED
100
AcDbCircle
 10
401.212036
 20
-20.337859
 30
0.0
 40
0.5
100
AcDbArc
 50
0.0
 51
90.0
  0
ARC
  5
41F
100
AcDbEntity
  8
0
370
    -3
  6
DASHED
100
AcDbCircle
 10
402.212036
 20
-20.337859
 30
0.0
 40
0.5
100
AcDbArc
 50
180.0
 51
270.0
  0
LINE
  5
420
100
AcDbEntity
  8
0
370
    -3
  6
DASHED
100
AcDbLine
 10
423.712036
 20
-17.837859
 30
0.0
 11
339.712036
 21
-17.837859
 31
0.0
  0
LINE
  5
421
100
AcDbEntity
  8
0
370
    -3
  6
DASHED
100
AcDbLine
 10
339.712036
 20
-14.837859
 30
0.0
 11
323.712036
 21
-14.837859
 31
0.0
  0
LINE
  5
422
100
AcDbEntity
  8
0
370
    -3
  6
DASHED
100
AcDbLine
 10
439.712036
 20
-14.837859
 30
0.0
 11
423.712036
 21
-14.837859
 31
0.0
  0
LINE
  5
423
100
AcDbEntity
  8
0
370
    -3
  6
Continuous
100
AcDbLine
 10
323.711638
 20
-9.827381
 30
0.0
 11
335.712036
 21
-9.617914
 31
0.0
  0
LINE
  5
424
100
AcDbEntity
  8
0
370
    -3
  6
Continuous
100
AcDbLine
 10
335.712036
 20
-9.617914
 30
0.0
 11
430.212036
 21
-11.267417
 31
0.0
  0
LINE
  5
425
100
AcDbEntity
  8
0
370
    -3
  6
Continuous
100
AcDbLine
 10
430.212036
 20
-11.267417
 30
0.0
 11
439.712036
 21
-11.267417
 31
0.0
  0
LINE
  5
426
100
AcDbEntity
  8
0
370
    -3
  6
DASHED
100
AcDbLine
 10
423.712036
 20
-177.837859
 30
0.0
 11
339.712036
 21
-177.837859
 31
0.0
  0
LINE
  5
427
100
AcDbEntity
  8
0
370
    -3
  6
DASHED
100
AcDbLine
 10
339.712036
 20
-180.837859
 30
0.0
 11
323.712036
 21
-180.837859
 31
0.0
  0
LINE
  5
428
100
AcDbEntity
  8
0
370
    -3
  6
DASHED
100
AcDbLine
 10
339.712036
 20
-170.837859
 30
0.0
 11
339.712036
 21
-180.837859
 31
0.0
  0
LINE
  5
429
100
AcDbEntity
  8
0
370
    -3
  6
DASHED
100
AcDbLine
 10
423.712036
 20
-163.837859
 30
0.0
 11
339.712036
 21
-163.837859
 31
0.0
  0
LINE
  5
42A
100
AcDbEntity
  8
0
370
    -3
  6
DASHED
100
AcDbLine
 10
339.712036
 20
-160.837859
 30
0.0
 11
323.712036
 21
-160.837859
 31
0.0
  0
LINE
  5
42B
100
AcDbEntity
  8
0
370
    -3
  6
DASHED
100
AcDbLine
 10
339.712036
 20
-170.837859
 30
0.0
 11
339.712036
 21
-160.837859
 31
0.0
  0
LINE
  5
42C
100
AcDbEntity
  8
0
370
    -3
  6
DASHED
100
AcDbLine
 10
423.712036
 20
-170.837859
 30
0.0
 11
423.712036
 21
-180.837859
 31
0.0
  0
LINE
  5
42D
100
AcDbEntity
  8
0
370
    -3
  6
DASHED
100
AcDbLine
 10
439.712036
 20
-180.837859
 30
0.0
 11
423.712036
 21
-180.837859
 31
0.0
  0
LINE
  5
42E
100
AcDbEntity
  8
0
370
    -3
  6
DASHED
100
AcDbLine
 10
439.712036
 20
-160.837859
 30
0.0
 11
423.712036
 21
-160.837859
 31
0.0
  0
LINE
  5
42F
100
AcDbEntity
  8
0
370
    -3
  6
DASHED
100
AcDbLine
 10
423.712036
 20
-170.837859
 30
0.0
 11
423.712036
 21
-160.837859
 31
0.0
  0
LINE
  5
430
100
AcDbEntity
  8
0
370
    -3
  6
CENTER
100
AcDbLine
 10
321.168436
 20
-170.837859
 30
0.0
 11
442.4688
 21
-170.837859
 31
0.0
  0
ARC
  5
431
100
AcDbEntity
  8
0
370
    -3
  6
DASHED
100
AcDbCircle
 10
328.712036
 20
-53.837859
 30
0.0
 40
0.5
100
AcDbArc
 50
90.0
 51
180.0
  0
ARC
  5
432
100
AcDbEntity
  8
0
370
    -3
  6
DASHED
100
AcDbCircle
 10
328.712036
 20
-52.837859
 30
0.0
 40
0.5
100
AcDbArc
 50
270.0
 51
0.0
  0
ARC
  5
433
100
AcDbEntity
  8
0
370
    -3
  6
DASHED
100
AcDbCircle
 10
729.212036
 20
-53.337859
 30
0.0
 40
400.0
100
AcDbArc
 50
178.568016
 51
179.947
  0
ARC
  5
434
100
AcDbEntity
  8
0
370
    -3
  6
DASHED
100
AcDbCircle
 10
328.712036
 20
-92.837859
 30
0.0
 40
0.5
100
AcDbArc
 50
180.0
 51
270.0
  0
ARC
  5
435
100
AcDbEntity
  8
0
370
    -3
  6
DASHED
100
AcDbCircle
 10
328.712036
 20
-93.837859
 30
0.0
 40
0.5
100
AcDbArc
 50
0.0
 51
90.0
  0
LINE
  5
436
100
AcDbEntity
  8
0
370
    -3
  6
DASHED
100
AcDbLine
 10
328.212036
 20
-92.837859
 30
0.0
 11
328.212036
 21
-53.837859
 31
0.0
  0
ARC
  5
437
100
AcDbEntity
  8
0
370
    -3
  6
DASHED
100
AcDbCircle
 10
729.212036
 20
-93.337859
 30
0.0
 40
400.0
100
AcDbArc
 50
180.07153
 51
181.431984
  0
ARC
  5
438
100
AcDbEntity
  8
0
370
    -3
  6
DASHED
100
AcDbCircle
 10
354.212036
 20
-100.837859
 30
0.0
 40
25.0
100
AcDbArc
 50
185.730175
 51
273.43865
  0
ARC
  5
439
100
AcDbEntity
  8
0
370
    -3
  6
DASHED
100
AcDbCircle
 10
361.212036
 20
-126.337859
 30
0.0
 40
0.5
100
AcDbArc
 50
0.0
 51
90.0
  0
ARC
  5
43A
100
AcDbEntity
  8
0
370
    -3
  6
DASHED
100
AcDbCircle
 10
362.212036
 20
-126.337859
 30
0.0
 40
0.5
100
AcDbArc
 50
180.0
 51
270.0
  0
ARC
  5
43B
100
AcDbEntity
  8
0
370
    -3
  6
DASHED
100
AcDbCircle
 10
361.712036
 20
274.162141
 30
0.0
 40
400.0
100
AcDbArc
 50
269.140459
 51
269.92847
  0
ARC
  5
43C
100
AcDbEntity
  8
0
370
    -3
  6
DASHED
100
AcDbCircle
 10
401.712036
 20
274.162141
 30
0.0
 40
400.0
100
AcDbArc
 50
270.07153
 51
271.431984
  0
ARC
  5
43D
100
AcDbEntity
  8
0
370
    -3
  6
DASHED
100
AcDbCircle
 10
402.212036
 20
-126.337859
 30
0.0
 40
0.5
100
AcDbArc
 50
90.0
 51
180.0
  0
ARC
  5
43E
100
AcDbEntity
  8
0
370
    -3
  6
DASHED
100
AcDbCircle
 10
401.212036
 20
-126.337859
 30
0.0
 40
0.5
100
AcDbArc
 50
270.0
 51
0.0
  0
LINE
  5
43F
100
AcDbEntity
  8
0
370
    -3
  6
DASHED
100
AcDbLine
 10
401.212036
 20
-126.837859
 30
0.0
 11
362.212036
 21
-126.837859
 31
0.0
  0
ARC
  5
440
100
AcDbEntity
  8
0
370
    -3
  6
DASHED
100
AcDbCircle
 10
409.212036
 20
-100.837859
 30
0.0
 40
25.0
100
AcDbArc
 50
275.730175
 51
3.43865
  0
ARC
  5
441
100
AcDbEntity
  8
0
370
    -3
  6
DASHED
100
AcDbCircle
 10
434.712036
 20
-92.837859
 30
0.0
 40
0.5
100
AcDbArc
 50
270.0
 51
0.0
  0
ARC
  5
442
100
AcDbEntity
  8
0
370
    -3
  6
DASHED
100
AcDbCircle
 10
434.712036
 20
-93.837859
 30
0.0
 40
0.5
100
AcDbArc
 50
90.0
 51
180.0
  0
ARC
  5
443
100
AcDbEntity
  8
0
370
    -3
  6
DASHED
100
AcDbCircle
 10
34.212036
 20
-93.337859
 30
0.0
 40
400.0
100
AcDbArc
 50
359.140459
 51
359.92847
  0
ARC
  5
444
100
AcDbEntity
  8
0
370
    -3
  6
DASHED
100
AcDbCircle
 10
34.212036
 20
-53.337859
 30
0.0
 40
400.0
100
AcDbArc
 50
0.07153
 51
1.431984
  0
LINE
  5
445
100
AcDbEntity
  8
0
370
    -3
  6
DASHED
100
AcDbLine
 10
435.212036
 20
-53.837859
 30
0.0
 11
435.212036
 21
-92.837859
 31
0.0
  0
ARC
  5
446
100
AcDbEntity
  8
0
370
    -3
  6
DASHED
100
AcDbCircle
 10
434.712036
 20
-53.837859
 30
0.0
 40
0.5
100
AcDbArc
 50
0.0
 51
90.0
  0
ARC
  5
447
100
AcDbEntity
  8
0
370
    -3
  6
DASHED
100
AcDbCircle
 10
434.712036
 20
-52.837859
 30
0.0
 40
0.5
100
AcDbArc
 50
180.0
 51
270.0
  0
LINE
  5
448
100
AcDbEntity
  8
0
370
    -3
  6
Continuous
100
AcDbLine
 10
335.712036
 20
-97.60903
 30
0.0
 11
335.712036
 21
-185.600459
 31
0.0
  0
LINE
  5
449
100
AcDbEntity
  8
0
370
    -3
  6
Continuous
100
AcDbLine
 10
439.712036
 20
-97.60903
 30
0.0
 11
439.712036
 21
-183.950955
 31
0.0
  0
LINE
  5
44A
100
AcDbEntity
  8
0
370
    -3
  6
Continuous
100
AcDbLine
 10
323.711638
 20
-97.60903
 30
0.0
 11
323.711638
 21
-184.891067
 31
0.0
  0
LINE
  5
44B
100
AcDbEntity
  8
0
370
    -3
  6
CENTER
100
AcDbLine
 10
381.712036
 20
-6.827145
 30
0.0
 11
381.712036
 21
-195.282221
 31
0.0
  0
LINE
  5
44C
100
AcDbEntity
  8
0
370
    -3
  6
Continuous
100
AcDbLine
 10
318.712036
 20
-34.337859
 30
0.0
 11
323.712036
 21
-34.337859
 31
0.0
  0
LINE
  5
44D
100
AcDbEntity
  8
0
370
    -3
  6
Continuous
100
AcDbLine
 10
444.712036
 20
-34.337859
 30
0.0
 11
439.712036
 21
-34.337859
 31
0.0
  0
LINE
  5
44E
100
AcDbEntity
  8
0
370
    -3
  6
CENTER
100
AcDbLine
 10
321.168436
 20
-24.837859
 30
0.0
 11
442.4688
 21
-24.837859
 31
0.0
  0
LINE
  5
44F
100
AcDbEntity
  8
0
370
    -3
  6
Continuous
100
AcDbLine
 10
444.712036
 20
-34.337859
 30
0.0
 11
444.712036
 21
-129.337859
 31
0.0
  0
LINE
  5
450
100
AcDbEntity
  8
0
370
    -3
  6
Continuous
100
AcDbLine
 10
439.712036
 20
-11.267417
 30
0.0
 11
439.712036
 21
-97.60903
 31
0.0
  0
LINE
  5
451
100
AcDbEntity
  8
0
370
    -3
  6
Continuous
100
AcDbLine
 10
335.712036
 20
-9.617914
 30
0.0
 11
335.712036
 21
-97.60903
 31
0.0
  0
LINE
  5
452
100
AcDbEntity
  8
0
370
    -3
  6
Continuous
100
AcDbLine
 10
318.711638
 20
-81.609186
 30
0.0
 11
318.711638
 21
-34.337859
 31
0.0
  0
LINE
  5
453
100
AcDbEntity
  8
0
370
    -3
  6
Continuous
100
AcDbLine
 10
323.711638
 20
-97.60903
 30
0.0
 11
323.711638
 21
-9.827381
 31
0.0
  0
LINE
  5
454
100
AcDbEntity
  8
0
370
    -3
  6
DASHED
100
AcDbLine
 10
423.712036
 20
-24.837859
 30
0.0
 11
423.712036
 21
-14.837859
 31
0.0
  0
LINE
  5
455
100
AcDbEntity
  8
0
370
    -3
  6
DASHED
100
AcDbLine
 10
439.712036
 20
-34.837859
 30
0.0
 11
423.712036
 21
-34.837859
 31
0.0
  0
LINE
  5
456
100
AcDbEntity
  8
0
370
    -3
  6
DASHED
100
AcDbLine
 10
423.712036
 20
-24.837859
 30
0.0
 11
423.712036
 21
-34.837859
 31
0.0
  0
LINE
  5
457
100
AcDbEntity
  8
0
370
    -3
  6
DASHED
100
AcDbLine
 10
339.712036
 20
-24.837859
 30
0.0
 11
339.712036
 21
-14.837859
 31
0.0
  0
LINE
  5
458
100
AcDbEntity
  8
0
370
    -3
  6
DASHED
100
AcDbLine
 10
339.712036
 20
-24.837859
 30
0.0
 11
339.712036
 21
-34.837859
 31
0.0
  0
LINE
  5
459
100
AcDbEntity
  8
0
370
    -3
  6
DASHED
100
AcDbLine
 10
339.712036
 20
-34.837859
 30
0.0
 11
323.712036
 21
-34.837859
 31
0.0
  0
LINE
  5
45A
100
AcDbEntity
  8
0
370
    -3
  6
DASHED
100
AcDbLine
 10
423.712036
 20
-31.837859
 30
0.0
 11
339.712036
 21
-31.837859
 31
0.0
  0
ARC
  5
45B
100
AcDbEntity
  8
0
370
    -3
  6
DASHED
100
AcDbCircle
 10
409.212036
 20
-45.837859
 30
0.0
 40
25.0
100
AcDbArc
 50
5.730175
 51
84.269825
  0
ARC
  5
45C
100
AcDbEntity
  8
0
370
    -3
  6
DASHED
100
AcDbCircle
 10
354.212036
 20
-45.837859
 30
0.0
 40
25.0
100
AcDbArc
 50
95.730175
 51
174.269825
  0
LINE
  5
45D
100
AcDbEntity
  8
0
370
    -3
  6
CENTER
100
AcDbLine
 10
394.520548
 20
-73.337859
 30
0.0
 11
369.34641
 21
-73.337859
 31
0.0
  0
LINE
  5
45E
100
AcDbEntity
  8
0
370
    -3
  6
Continuous
100
AcDbLine
 10
318.712036
 20
-129.337859
 30
0.0
 11
323.712036
 21
-129.337859
 31
0.0
  0
LINE
  5
45F
100
AcDbEntity
  8
0
370
    -3
  6
Continuous
100
AcDbLine
 10
444.712036
 20
-129.337859
 30
0.0
 11
439.712036
 21
-129.337859
 31
0.0
  0
ARC
  5
460
100
AcDbEntity
  8
0
370
    -3
  6
Continuous
100
AcDbCircle
 10
622.312036
 20
-97.60903
 30
0.0
 40
300.6
100
AcDbArc
 50
186.058951
 51
186.612353
  0
ARC
  5
461
100
AcDbEntity
  8
0
370
    -3
  6
Continuous
100
AcDbCircle
 10
141.112036
 20
-97.60903
 30
0.0
 40
300.6
100
AcDbArc
 50
353.386989
 51
353.941049
  0
ARC
  5
462
100
AcDbEntity
  8
0
370
    -3
  6
Continuous
100
AcDbCircle
 10
315.712036
 20
-58.837859
 30
0.0
 40
1.0
100
AcDbArc
 50
90.0
 51
180.0
  0
LINE
  5
463
100
AcDbEntity
  8
0
370
    -3
  6
Continuous
100
AcDbLine
 10
314.712036
 20
-58.837859
 30
0.0
 11
314.712036
 21
-81.837859
 31
0.0
  0
LINE
  5
464
100
AcDbEntity
  8
0
370
    -3
  6
Continuous
100
AcDbLine
 10
315.712036
 20
-57.837859
 30
0.0
 11
318.712036
 21
-57.837859
 31
0.0
  0
ARC
  5
465
100
AcDbEntity
  8
0
370
    -3
  6
Continuous
100
AcDbCircle
 10
315.712036
 20
-104.837859
 30
0.0
 40
1.0
100
AcDbArc
 50
180.0
 51
270.0
  0
LINE
  5
466
100
AcDbEntity
  8
0
370
    -3
  6
Continuous
100
AcDbLine
 10
314.712036
 20
-104.837859
 30
0.0
 11
314.712036
 21
-81.837859
 31
0.0
  0
LINE
  5
467
100
AcDbEntity
  8
0
370
    -3
  6
Continuous
100
AcDbLine
 10
315.712036
 20
-105.837859
 30
0.0
 11
318.712036
 21
-105.837859
 31
0.0
  0
ARC
  5
468
100
AcDbEntity
  8
0
370
    -3
  6
Continuous
100
AcDbCircle
 10
447.712036
 20
-104.837859
 30
0.0
 40
1.0
100
AcDbArc
 50
270.0
 51
0.0
  0
LINE
  5
469
100
AcDbEntity
  8
0
370
    -3
  6
Continuous
100
AcDbLine
 10
448.712036
 20
-104.837859
 30
0.0
 11
448.712036
 21
-81.837859
 31
0.0
  0
LINE
  5
46A
100
AcDbEntity
  8
0
370
    -3
  6
Continuous
100
AcDbLine
 10
447.712036
 20
-105.837859
 30
0.0
 11
444.712036
 21
-105.837859
 31
0.0
  0
ARC
  5
46B
100
AcDbEntity
  8
0
370
    -3
  6
Continuous
100
AcDbCircle
 10
447.712036
 20
-58.837859
 30
0.0
 40
1.0
100
AcDbArc
 50
0.0
 51
90.0
  0
LINE
  5
46C
100
AcDbEntity
  8
0
370
    -3
  6
Continuous
100
AcDbLine
 10
448.712036
 20
-58.837859
 30
0.0
 11
448.712036
 21
-81.837859
 31
0.0
  0
LINE
  5
46D
100
AcDbEntity
  8
0
370
    -3
  6
Continuous
100
AcDbLine
 10
447.712036
 20
-57.837859
 30
0.0
 11
444.712036
 21
-57.837859
 31
0.0
  0
LINE
  5
46E
100
AcDbEntity
  8
0
370
    -3
  6
Continuous
100
AcDbLine
 10
318.711638
 20
-81.609186
 30
0.0
 11
318.711638
 21
-129.337859
 31
0.0
  0
LINE
  5
46F
100
AcDbEntity
  8
0
370
    -3
  6
CENTER
100
AcDbLine
 10
451.190845
 20
-81.837859
 30
0.0
 11
310.342621
 21
-81.837859
 31
0.0
  0
ARC
  5
470
100
AcDbEntity
  8
0
370
    -3
  6
Continuous
100
AcDbCircle
 10
-454.288328
 20
-127.337703
 30
0.0
 40
3.0
100
AcDbArc
 50
149.766598
 51
180.0
  0
LINE
  5
471
100
AcDbEntity
  8
0
370
    -3
  6
Continuous
100
AcDbLine
 10
-533.288328
 20
-73.337703
 30
0.0
 11
-533.288328
 21
-56.757084
 31
0.0
  0
LINE
  5
472
100
AcDbEntity
  8
0
370
    -3
  6
Continuous
100
AcDbLine
 10
-426.288328
 20
-56.757084
 30
0.0
 11
-426.288328
 21
-54.337703
 31
0.0
  0
LINE
  5
473
100
AcDbEntity
  8
0
370
    -3
  6
Continuous
100
AcDbLine
 10
-426.288328
 20
-73.337703
 30
0.0
 11
-426.288328
 21
-56.757084
 31
0.0
  0
LINE
  5
474
100
AcDbEntity
  8
0
370
    -3
  6
Continuous
100
AcDbLine
 10
-533.288328
 20
-73.337703
 30
0.0
 11
-533.288328
 21
-92.379663
 31
0.0
  0
ARC
  5
475
100
AcDbEntity
  8
0
370
    -3
  6
Continuous
100
AcDbCircle
 10
-439.476785
 20
-63.903033
 30
0.0
 40
15.0
100
AcDbArc
 50
10.0
 51
28.450323
  0
LINE
  5
476
100
AcDbEntity
  8
0
370
    -3
  6
Continuous
100
AcDbLine
 10
-420.288328
 20
-97.837703
 30
0.0
 11
-420.288328
 21
-78.837703
 31
0.0
  0
LINE
  5
477
100
AcDbEntity
  8
0
370
    -3
  6
Continuous
100
AcDbLine
 10
-421.928769
 20
-77.041221
 30
0.0
 11
-424.704669
 21
-61.29831
 31
0.0
  0
ARC
  5
478
100
AcDbEntity
  8
0
370
    -3
  6
Continuous
100
AcDbCircle
 10
-421.288328
 20
-78.837703
 30
0.0
 40
1.0
100
AcDbArc
 50
0.0
 51
80.085217
  0
ARC
  5
479
100
AcDbEntity
  8
0
370
    -3
  6
Continuous
100
AcDbCircle
 10
-420.943961
 20
-76.867573
 30
0.0
 40
1.0
100
AcDbArc
 50
190.0
 51
260.085217
  0
LINE
  5
47A
100
AcDbEntity
  8
0
370
    -3
  6
Continuous
100
AcDbLine
 10
-428.870183
 20
-142.378974
 30
0.0
 11
-433.840109
 21
-147.348899
 31
0.0
  0
ARC
  5
47B
100
AcDbEntity
  8
0
370
    -3
  6
Continuous
100
AcDbCircle
 10
-439.476785
 20
-131.772372
 30
0.0
 40
15.0
100
AcDbArc
 50
315.0
 51
350.0
  0
LINE
  5
47C
100
AcDbEntity
  8
0
370
    -3
  6
Continuous
100
AcDbLine
 10
-420.288328
 20
-97.837703
 30
0.0
 11
-420.288328
 21
-116.837703
 31
0.0
  0
LINE
  5
47D
100
AcDbEntity
  8
0
370
    -3
  6
Continuous
100
AcDbLine
 10
-421.928769
 20
-118.634184
 30
0.0
 11
-424.704669
 21
-134.377095
 31
0.0
  0
ARC
  5
47E
100
AcDbEntity
  8
0
370
    -3
  6
Continuous
100
AcDbCircle
 10
-421.288328
 20
-116.837703
 30
0.0
 40
1.0
100
AcDbArc
 50
279.914783
 51
0.0
  0
ARC
  5
47F
100
AcDbEntity
  8
0
370
    -3
  6
Continuous
100
AcDbCircle
 10
-420.943961
 20
-118.807832
 30
0.0
 40
1.0
100
AcDbArc
 50
99.914783
 51
170.0
  0
LINE
  5
480
100
AcDbEntity
  8
0
370
    -3
  6
Continuous
100
AcDbLine
 10
-530.706472
 20
-142.378974
 30
0.0
 11
-525.736547
 21
-147.348899
 31
0.0
  0
ARC
  5
481
100
AcDbEntity
  8
0
370
    -3
  6
Continuous
100
AcDbCircle
 10
-520.09987
 20
-131.772372
 30
0.0
 40
15.0
100
AcDbArc
 50
190.0
 51
225.0
  0
LINE
  5
482
100
AcDbEntity
  8
0
370
    -3
  6
Continuous
100
AcDbLine
 10
-539.288328
 20
-97.837703
 30
0.0
 11
-539.288328
 21
-116.837703
 31
0.0
  0
LINE
  5
483
100
AcDbEntity
  8
0
370
    -3
  6
Continuous
100
AcDbLine
 10
-537.647887
 20
-118.634184
 30
0.0
 11
-534.871987
 21
-134.377095
 31
0.0
  0
ARC
  5
484
100
AcDbEntity
  8
0
370
    -3
  6
Continuous
100
AcDbCircle
 10
-538.288328
 20
-116.837703
 30
0.0
 40
1.0
100
AcDbArc
 50
180.0
 51
260.085217
  0
ARC
  5
485
100
AcDbEntity
  8
0
370
    -3
  6
Continuous
100
AcDbCircle
 10
-538.632694
 20
-118.807832
 30
0.0
 40
1.0
100
AcDbArc
 50
10.0
 51
80.085217
  0
LINE
  5
486
100
AcDbEntity
  8
0
370
    -3
  6
Continuous
100
AcDbLine
 10
-539.288328
 20
-97.837703
 30
0.0
 11
-539.288328
 21
-78.837703
 31
0.0
  0
LINE
  5
487
100
AcDbEntity
  8
0
370
    -3
  6
Continuous
100
AcDbLine
 10
-537.647887
 20
-77.041221
 30
0.0
 11
-534.871987
 21
-61.29831
 31
0.0
  0
ARC
  5
488
100
AcDbEntity
  8
0
370
    -3
  6
Continuous
100
AcDbCircle
 10
-538.288328
 20
-78.837703
 30
0.0
 40
1.0
100
AcDbArc
 50
99.914783
 51
180.0
  0
ARC
  5
489
100
AcDbEntity
  8
0
370
    -3
  6
Continuous
100
AcDbCircle
 10
-538.632694
 20
-76.867573
 30
0.0
 40
1.0
100
AcDbArc
 50
279.914783
 51
350.0
  0
ARC
  5
48A
100
AcDbEntity
  8
0
370
    -3
  6
Continuous
100
AcDbCircle
 10
-520.09987
 20
-63.903033
 30
0.0
 40
15.0
100
AcDbArc
 50
151.549677
 51
170.0
  0
ARC
  5
48B
100
AcDbEntity
  8
0
370
    -3
  6
Continuous
100
AcDbCircle
 10
-435.594154
 20
-142.031876
 30
0.0
 40
2.75
100
AcDbArc
 50
262.036064
 51
217.209633
  0
ARC
  5
48C
100
AcDbEntity
  8
0
370
    -3
  6
Continuous
100
AcDbCircle
 10
-523.982502
 20
-142.031876
 30
0.0
 40
2.75
100
AcDbArc
 50
322.790367
 51
277.963936
  0
LINE
  5
48D
100
AcDbEntity
  8
0
370
    -3
  6
Continuous
100
AcDbLine
 10
-457.288328
 20
-127.337703
 30
0.0
 11
-457.288328
 21
-128.337703
 31
0.0
  0
LINE
  5
48E
100
AcDbEntity
  8
0
370
    -3
  6
Continuous
100
AcDbLine
 10
-502.288328
 20
-127.337703
 30
0.0
 11
-502.288328
 21
-128.337703
 31
0.0
  0
ARC
  5
48F
100
AcDbEntity
  8
0
370
    -3
  6
Continuous
100
AcDbCircle
 10
-428.628731
 20
-127.837703
 30
0.0
 40
5.0
100
AcDbArc
 50
270.0
 51
350.0
  0
LINE
  5
490
100
AcDbEntity
  8
0
370
    -3
  6
Continuous
100
AcDbLine
 10
-428.628731
 20
-132.837703
 30
0.0
 11
-433.403389
 21
-132.837703
 31
0.0
  0
ARC
  5
491
100
AcDbEntity
  8
0
370
    -3
  6
Continuous
100
AcDbCircle
 10
-433.403389
 20
-137.837703
 30
0.0
 40
5.0
100
AcDbArc
 50
90.0
 51
139.227195
  0
ARC
  5
492
100
AcDbEntity
  8
0
370
    -3
  6
Continuous
100
AcDbCircle
 10
-479.788328
 20
-97.837703
 30
0.0
 40
56.25
100
AcDbArc
 50
307.3733
 51
319.227195
  0
ARC
  5
493
100
AcDbEntity
  8
0
370
    -3
  6
Continuous
100
AcDbCircle
 10
-530.947925
 20
-127.837703
 30
0.0
 40
5.0
100
AcDbArc
 50
190.0
 51
270.0
  0
LINE
  5
494
100
AcDbEntity
  8
0
370
    -3
  6
Continuous
100
AcDbLine
 10
-530.947925
 20
-132.837703
 30
0.0
 11
-526.173266
 21
-132.837703
 31
0.0
  0
ARC
  5
495
100
AcDbEntity
  8
0
370
    -3
  6
Continuous
100
AcDbCircle
 10
-526.173266
 20
-137.837703
 30
0.0
 40
5.0
100
AcDbArc
 50
40.772805
 51
90.0
  0
ARC
  5
496
100
AcDbEntity
  8
0
370
    -3
  6
Continuous
100
AcDbCircle
 10
-479.788328
 20
-97.837703
 30
0.0
 40
56.25
100
AcDbArc
 50
220.772805
 51
232.6267
  0
ARC
  5
497
100
AcDbEntity
  8
0
370
    -3
  6
Continuous
100
AcDbCircle
 10
-505.288328
 20
-127.337703
 30
0.0
 40
3.0
100
AcDbArc
 50
0.0
 51
30.233402
  0
ARC
  5
498
100
AcDbEntity
  8
0
370
    -3
  6
Continuous
100
AcDbCircle
 10
-426.950531
 20
-65.837703
 30
0.0
 40
3.0
100
AcDbArc
 50
10.0
 51
77.247821
  0
ARC
  5
499
100
AcDbEntity
  8
0
370
    -3
  6
Continuous
100
AcDbCircle
 10
-532.591886
 20
-65.643529
 30
0.0
 40
3.0
100
AcDbArc
 50
103.423521
 51
170.0
  0
MTEXT
  5
49B
100
AcDbEntity
  8
0
370
    -3
  6
Continuous
100
AcDbMText
 10
-554.885132
 20
209.990463
 30
0.0
 40
15.0
 41
0.0
 71
     7
 72
     1
  1
\W0.48;GV-SHYF-RH
  7
ZU_SHPTB00001
 11
1.0
 21
0.0
 31
0.0
 73
     1
 44
1.0
  0
MTEXT
  5
49C
100
AcDbEntity
  8
0
370
    -3
  6
Continuous
100
AcDbMText
 10
-554.885132
 20
226.940475
 30
0.0
 40
15.0
 41
0.0
 71
     7
 72
     1
  1
\W0.63;三菱ギヤードモータ  
  7
ZU_SHPTB00001
 11
1.0
 21
0.0
 31
0.0
 73
     1
 44
1.0
  0
MTEXT
  5
49D
100
AcDbEntity
  8
0
370
    -3
  6
Continuous
100
AcDbMText
 10
-554.885132
 20
226.940475
 30
0.0
 40
15.0
 41
0.0
 71
     7
 72
     1
  1
\W0.63;三菱ギヤードモータ  
  7
ZU_SHPTB00001
 11
1.0
 21
0.0
 31
0.0
 73
     1
 44
1.0
  0
MTEXT
  5
49E
100
AcDbEntity
  8
0
370
    -3
  6
Continuous
100
AcDbMText
 10
-554.885132
 20
142.190445
 30
0.0
 40
15.0
 41
0.0
 71
     7
 72
     1
  1
\W0.43;SCALE\W0.72;  \W0.43;1/1
  7
ZU_SHPTB00001
 11
1.0
 21
0.0
 31
0.0
 73
     1
 44
1.0
  0
MTEXT
  5
49F
100
AcDbEntity
  8
0
370
    -3
  6
Continuous
100
AcDbMText
 10
-554.885132
 20
176.090469
 30
0.0
 40
15.0
 41
0.0
 71
     7
 72
     1
  1
\W0.43;10-3.3r/min\W0.53;　
  7
ZU_SHPTB00001
 11
1.0
 21
0.0
 31
0.0
 73
     1
 44
1.0
  0
MTEXT
  5
4A0
100
AcDbEntity
  8
0
370
    -3
  6
Continuous
100
AcDbMText
 10
-554.885132
 20
159.140457
 30
0.0
 40
15.0
 41
0.0
 71
     7
 72
     1
  1
\W0.42;GEAR\W0.70; \W0.42;RATIO\W0.70;  \W0.42;1/300-1/900
  7
ZU_SHPTB00001
 11
1.0
 21
0.0
 31
0.0
 73
     1
 44
1.0
  0
MTEXT
  5
4A1
100
AcDbEntity
  8
0
370
    -3
  6
Continuous
100
AcDbMText
 10
-554.885132
 20
193.040451
 30
0.0
 40
15.0
 41
0.0
 71
     7
 72
     1
  1
\W0.43;0.2kW
  7
ZU_SHPTB00001
 11
1.0
 21
0.0
 31
0.0
 73
     1
 44
1.0
  0
LINE
  5
4A2
100
AcDbEntity
  8
0
370
    -3
  6
Continuous
100
AcDbLine
 10
138.712033
 20
-64.137859
 30
0.0
 11
108.711897
 21
-64.137859
 31
0.0
  0
LINE
  5
4A3
100
AcDbEntity
  8
0
370
    -3
  6
Continuous
100
AcDbLine
 10
138.712033
 20
-99.537859
 30
0.0
 11
108.711897
 21
-99.537859
 31
0.0
  0
LINE
  5
4A4
100
AcDbEntity
  8
0
370
    -3
  6
CENTER
100
AcDbLine
 10
-329.730935
 20
-112.935682
 30
0.0
 11
-344.3621
 21
-112.935682
 31
0.0
  0
INSERT
  5
4B7
100
AcDbEntity
  8
0
100
AcDbBlockReference
  2
ZU_SYM__USERS_HOME_SYMBOL_STD_SYM_B01_00013-1
 10
-337.788334
 20
-112.935682
 30
0.0
 41
-1.0
 50
180.0
  0
LINE
  5
4B8
100
AcDbEntity
  8
0
370
    -3
  6
CENTER
100
AcDbLine
 10
-329.730935
 20
-33.739723
 30
0.0
 11
-344.3621
 21
-33.739723
 31
0.0
  0
INSERT
  5
4CB
100
AcDbEntity
  8
0
100
AcDbBlockReference
  2
ZU_SYM__USERS_HOME_SYMBOL_STD_SYM_B01_00014-1
 10
-337.788334
 20
-33.739723
 30
0.0
 50
360.0
  0
INSERT
  5
4DE
100
AcDbEntity
  8
0
100
AcDbBlockReference
  2
ZU_SYM__USERS_HOME_SYMBOL_STD_SYM_B01_00015-1
 10
-337.788334
 20
-33.739723
 30
0.0
 50
360.0
  0
INSERT
  5
4F1
100
AcDbEntity
  8
0
100
AcDbBlockReference
  2
ZU_SYM__USERS_HOME_SYMBOL_STD_SYM_B01_00016-1
 10
-337.788334
 20
-33.739723
 30
0.0
 50
360.0
  0
ARC
  5
4F2
100
AcDbEntity
  8
0
370
    -3
  6
Continuous
100
AcDbCircle
 10
360.711663
 20
-73.337703
 30
0.0
 40
700.0
100
AcDbArc
 50
183.620062
 51
184.231256
  0
ARC
  5
4F3
100
AcDbEntity
  8
0
370
    -3
  6
Continuous
100
AcDbCircle
 10
360.711663
 20
-73.337703
 30
0.0
 40
700.0
100
AcDbArc
 50
177.134181
 51
180.0
  0
ARC
  5
4F4
100
AcDbEntity
  8
0
370
    -3
  6
Continuous
100
AcDbCircle
 10
-339.496863
 20
-93.543387
 30
0.0
 40
0.5
100
AcDbArc
 50
1.652907
 51
44.884862
  0
ARC
  5
4F5
100
AcDbEntity
  8
0
370
    -3
  6
Continuous
100
AcDbCircle
 10
-339.496863
 20
-53.132018
 30
0.0
 40
0.5
100
AcDbArc
 50
315.115138
 51
358.347093
  0
ARC
  5
4F6
100
AcDbEntity
  8
0
370
    -3
  6
Continuous
100
AcDbCircle
 10
-338.788337
 20
-53.837703
 30
0.0
 40
0.5
100
AcDbArc
 50
135.115138
 51
180.0
  0
ARC
  5
4F7
100
AcDbEntity
  8
0
370
    -3
  6
Continuous
100
AcDbCircle
 10
-338.788337
 20
-92.837703
 30
0.0
 40
0.5
100
AcDbArc
 50
180.0
 51
224.884862
  0
LINE
  5
4F8
100
AcDbEntity
  8
0
370
    -3
  6
Continuous
100
AcDbLine
 10
-339.288337
 20
-53.837703
 30
0.0
 11
-339.288337
 21
-92.837703
 31
0.0
  0
ARC
  5
4F9
100
AcDbEntity
  8
0
370
    -3
  6
Continuous
100
AcDbCircle
 10
-335.708337
 20
-45.337703
 30
0.0
 40
1.0
100
AcDbArc
 50
93.0
 51
267.0
  0
ARC
  5
4FA
100
AcDbEntity
  8
0
370
    -3
  6
Continuous
100
AcDbCircle
 10
-335.708337
 20
-40.837703
 30
0.0
 40
1.0
100
AcDbArc
 50
93.0
 51
267.0
  0
ARC
  5
4FB
100
AcDbEntity
  8
0
370
    -3
  6
Continuous
100
AcDbCircle
 10
-335.708337
 20
-54.337703
 30
0.0
 40
1.0
100
AcDbArc
 50
93.0
 51
267.0
  0
ARC
  5
4FC
100
AcDbEntity
  8
0
370
    -3
  6
Continuous
100
AcDbCircle
 10
-335.708337
 20
-49.837703
 30
0.0
 40
1.0
100
AcDbArc
 50
93.0
 51
267.0
  0
ARC
  5
4FD
100
AcDbEntity
  8
0
370
    -3
  6
Continuous
100
AcDbCircle
 10
-337.288337
 20
-119.057164
 30
0.0
 40
0.5
100
AcDbArc
 50
180.0
 51
270.0
  0
ARC
  5
4FE
100
AcDbEntity
  8
0
370
    -3
  6
Continuous
100
AcDbCircle
 10
-335.385851
 20
-124.837703
 30
0.0
 40
2.0
100
AcDbArc
 50
184.231256
 51
270.0
  0
LINE
  5
4FF
100
AcDbEntity
  8
0
370
    -3
  6
Continuous
100
AcDbLine
 10
-338.533465
 20
-105.855005
 30
0.0
 11
-338.533465
 21
-105.8204
 31
0.0
  0
LINE
  5
500
100
AcDbEntity
  8
0
370
    -3
  6
Continuous
100
AcDbLine
 10
-338.533465
 20
-40.8204
 30
0.0
 11
-338.533465
 21
-40.855005
 31
0.0
  0
ARC
  5
501
100
AcDbEntity
  8
0
370
    -3
  6
Continuous
100
AcDbCircle
 10
-335.385851
 20
-21.837703
 30
0.0
 40
2.0
100
AcDbArc
 50
90.0
 51
175.768744
  0
ARC
  5
502
100
AcDbEntity
  8
0
370
    -3
  6
Continuous
100
AcDbCircle
 10
-337.288337
 20
-27.618241
 30
0.0
 40
0.5
100
AcDbArc
 50
90.0
 51
180.0
  0
LINE
  5
503
100
AcDbEntity
  8
0
370
    -3
  6
Continuous
100
AcDbLine
 10
-337.288337
 20
-86.637703
 30
0.0
 11
-337.288337
 21
-73.337703
 31
0.0
  0
ARC
  5
504
100
AcDbEntity
  8
0
370
    -3
  6
Continuous
100
AcDbCircle
 10
-336.588337
 20
-86.637703
 30
0.0
 40
0.7
100
AcDbArc
 50
180.0
 51
270.0
  0
ARC
  5
505
100
AcDbEntity
  8
0
370
    -3
  6
Continuous
100
AcDbCircle
 10
-336.588337
 20
-60.037703
 30
0.0
 40
0.7
100
AcDbArc
 50
90.0
 51
180.0
  0
LINE
  5
506
100
AcDbEntity
  8
0
370
    -3
  6
Continuous
100
AcDbLine
 10
-337.288337
 20
-60.037703
 30
0.0
 11
-337.288337
 21
-73.337703
 31
0.0
  0
ARC
  5
507
100
AcDbEntity
  8
0
370
    -3
  6
Continuous
100
AcDbCircle
 10
-335.708337
 20
-105.837703
 30
0.0
 40
1.0
100
AcDbArc
 50
93.0
 51
267.0
  0
ARC
  5
508
100
AcDbEntity
  8
0
370
    -3
  6
Continuous
100
AcDbCircle
 10
-335.708337
 20
-101.337703
 30
0.0
 40
1.0
100
AcDbArc
 50
93.0
 51
267.0
  0
ARC
  5
509
100
AcDbEntity
  8
0
370
    -3
  6
Continuous
100
AcDbCircle
 10
-335.708337
 20
-96.837703
 30
0.0
 40
1.0
100
AcDbArc
 50
93.0
 51
267.0
  0
ARC
  5
50A
100
AcDbEntity
  8
0
370
    -3
  6
Continuous
100
AcDbCircle
 10
-335.708337
 20
-92.337703
 30
0.0
 40
1.0
100
AcDbArc
 50
93.0
 51
267.0
  0
LINE
  5
50B
100
AcDbEntity
  8
0
370
    -3
  6
Continuous
100
AcDbLine
 10
-337.788337
 20
-119.057164
 30
0.0
 11
-337.788337
 21
-102.994251
 31
0.0
  0
ARC
  5
50C
100
AcDbEntity
  8
0
370
    -3
  6
Continuous
100
AcDbCircle
 10
360.711663
 20
-73.337703
 30
0.0
 40
700.0
100
AcDbArc
 50
180.0
 51
182.865819
  0
ARC
  5
50D
100
AcDbEntity
  8
0
370
    -3
  6
Continuous
100
AcDbCircle
 10
-338.788337
 20
-102.994251
 30
0.0
 40
1.0
100
AcDbArc
 50
0.0
 51
58.013739
  0
ARC
  5
50E
100
AcDbEntity
  8
0
370
    -3
  6
Continuous
100
AcDbCircle
 10
-337.728905
 20
-101.2979
 30
0.0
 40
1.0
100
AcDbArc
 50
182.292459
 51
238.013739
  0
LINE
  5
50F
100
AcDbEntity
  8
0
370
    -3
  6
Continuous
100
AcDbLine
 10
-337.788337
 20
-27.618241
 30
0.0
 11
-337.788337
 21
-43.681154
 31
0.0
  0
ARC
  5
510
100
AcDbEntity
  8
0
370
    -3
  6
Continuous
100
AcDbCircle
 10
360.711663
 20
-73.337703
 30
0.0
 40
700.0
100
AcDbArc
 50
175.768744
 51
176.379938
  0
ARC
  5
511
100
AcDbEntity
  8
0
370
    -3
  6
Continuous
100
AcDbCircle
 10
-337.728905
 20
-45.377505
 30
0.0
 40
1.0
100
AcDbArc
 50
121.986261
 51
177.707541
  0
ARC
  5
512
100
AcDbEntity
  8
0
370
    -3
  6
Continuous
100
AcDbCircle
 10
-338.788337
 20
-43.681154
 30
0.0
 40
1.0
100
AcDbArc
 50
301.986261
 51
0.0
  0
LINE
  5
513
100
AcDbEntity
  8
0
370
    -3
  6
Continuous
100
AcDbLine
 10
-332.788337
 20
-19.837703
 30
0.0
 11
-335.385851
 21
-19.837703
 31
0.0
  0
LINE
  5
514
100
AcDbEntity
  8
0
370
    -3
  6
Continuous
100
AcDbLine
 10
-332.788337
 20
-27.118241
 30
0.0
 11
-337.288337
 21
-27.118241
 31
0.0
  0
LINE
  5
515
100
AcDbEntity
  8
0
370
    -3
  6
Continuous
100
AcDbLine
 10
-332.788337
 20
-39.683299
 30
0.0
 11
-335.760673
 21
-39.839073
 31
0.0
  0
LINE
  5
516
100
AcDbEntity
  8
0
370
    -3
  6
Continuous
100
AcDbLine
 10
-332.788337
 20
-41.992106
 30
0.0
 11
-335.760673
 21
-41.836332
 31
0.0
  0
LINE
  5
517
100
AcDbEntity
  8
0
370
    -3
  6
Continuous
100
AcDbLine
 10
-332.788337
 20
-44.183299
 30
0.0
 11
-335.760673
 21
-44.339073
 31
0.0
  0
LINE
  5
518
100
AcDbEntity
  8
0
370
    -3
  6
Continuous
100
AcDbLine
 10
-332.788337
 20
-46.492106
 30
0.0
 11
-335.760673
 21
-46.336332
 31
0.0
  0
LINE
  5
519
100
AcDbEntity
  8
0
370
    -3
  6
Continuous
100
AcDbLine
 10
-332.788337
 20
-48.683299
 30
0.0
 11
-335.760673
 21
-48.839073
 31
0.0
  0
LINE
  5
51A
100
AcDbEntity
  8
0
370
    -3
  6
Continuous
100
AcDbLine
 10
-332.788337
 20
-50.992106
 30
0.0
 11
-335.760673
 21
-50.836332
 31
0.0
  0
LINE
  5
51B
100
AcDbEntity
  8
0
370
    -3
  6
Continuous
100
AcDbLine
 10
-332.788337
 20
-53.183299
 30
0.0
 11
-335.760673
 21
-53.339073
 31
0.0
  0
LINE
  5
51C
100
AcDbEntity
  8
0
370
    -3
  6
Continuous
100
AcDbLine
 10
-332.788337
 20
-55.492106
 30
0.0
 11
-335.760673
 21
-55.336332
 31
0.0
  0
LINE
  5
51D
100
AcDbEntity
  8
0
370
    -3
  6
Continuous
100
AcDbLine
 10
-336.588337
 20
-59.337703
 30
0.0
 11
-332.788337
 21
-59.337703
 31
0.0
  0
LINE
  5
51E
100
AcDbEntity
  8
0
370
    -3
  6
Continuous
100
AcDbLine
 10
-336.588337
 20
-87.337703
 30
0.0
 11
-332.788337
 21
-87.337703
 31
0.0
  0
LINE
  5
51F
100
AcDbEntity
  8
0
370
    -3
  6
Continuous
100
AcDbLine
 10
-332.788337
 20
-91.183299
 30
0.0
 11
-335.760673
 21
-91.339073
 31
0.0
  0
LINE
  5
520
100
AcDbEntity
  8
0
370
    -3
  6
Continuous
100
AcDbLine
 10
-332.788337
 20
-93.492106
 30
0.0
 11
-335.760673
 21
-93.336332
 31
0.0
  0
LINE
  5
521
100
AcDbEntity
  8
0
370
    -3
  6
Continuous
100
AcDbLine
 10
-332.788337
 20
-95.683299
 30
0.0
 11
-335.760673
 21
-95.839073
 31
0.0
  0
LINE
  5
522
100
AcDbEntity
  8
0
370
    -3
  6
Continuous
100
AcDbLine
 10
-332.788337
 20
-97.992106
 30
0.0
 11
-335.760673
 21
-97.836332
 31
0.0
  0
LINE
  5
523
100
AcDbEntity
  8
0
370
    -3
  6
Continuous
100
AcDbLine
 10
-332.788337
 20
-100.183299
 30
0.0
 11
-335.760673
 21
-100.339073
 31
0.0
  0
LINE
  5
524
100
AcDbEntity
  8
0
370
    -3
  6
Continuous
100
AcDbLine
 10
-332.788337
 20
-102.492106
 30
0.0
 11
-335.760673
 21
-102.336332
 31
0.0
  0
LINE
  5
525
100
AcDbEntity
  8
0
370
    -3
  6
Continuous
100
AcDbLine
 10
-332.788337
 20
-104.683299
 30
0.0
 11
-335.760673
 21
-104.839073
 31
0.0
  0
LINE
  5
526
100
AcDbEntity
  8
0
370
    -3
  6
Continuous
100
AcDbLine
 10
-332.788337
 20
-106.992106
 30
0.0
 11
-335.760673
 21
-106.836332
 31
0.0
  0
LINE
  5
527
100
AcDbEntity
  8
0
370
    -3
  6
Continuous
100
AcDbLine
 10
-332.788337
 20
-119.557164
 30
0.0
 11
-337.288337
 21
-119.557164
 31
0.0
  0
LINE
  5
528
100
AcDbEntity
  8
0
370
    -3
  6
Continuous
100
AcDbLine
 10
-332.788337
 20
-126.837703
 30
0.0
 11
-335.385851
 21
-126.837703
 31
0.0
  0
LINE
  5
529
100
AcDbEntity
  8
0
370
    -3
  6
CENTER
100
AcDbLine
 10
-229.968313
 20
-73.337703
 30
0.0
 11
-349.465038
 21
-73.337703
 31
0.0
  0
MTEXT
  5
52A
100
AcDbEntity
  8
0
370
    -3
  6
Continuous
100
AcDbMText
 10
-554.885132
 20
125.190445
 30
0.0
 40
15.0
 41
0.0
 71
     7
 72
     1
  1
\W0.43;DATE\W0.72; \W0.43;2012.01.15
  7
ZU_SHPTB00001
 11
1.0
 21
0.0
 31
0.0
 73
     1
 44
1.0
  0
LINE
  5
52B
100
AcDbEntity
  8
0
370
    -3
  6
Continuous
100
AcDbLine
 10
-345.362396
 20
216.109277
 30
0.0
 11
-345.362396
 21
241.109277
 31
0.0
  0
ARC
  5
52C
100
AcDbEntity
  8
0
370
    -3
  6
Continuous
100
AcDbCircle
 10
-360.788337
 20
214.109277
 30
0.0
 40
2.0
100
AcDbArc
 50
90.0
 51
180.0
  0
LINE
  5
52D
100
AcDbEntity
  8
0
370
    -3
  6
Continuous
100
AcDbLine
 10
-360.788337
 20
216.109277
 30
0.0
 11
-339.288337
 21
216.109277
 31
0.0
  0
ARC
  5
52E
100
AcDbEntity
  8
0
370
    -3
  6
Continuous
100
AcDbCircle
 10
-337.562396
 20
241.109277
 30
0.0
 40
7.8
100
AcDbArc
 50
91.17421
 51
180.0
  0
LINE
  5
52F
100
AcDbEntity
  8
0
370
    -3
  6
Continuous
100
AcDbLine
 10
-345.362396
 20
188.109277
 30
0.0
 11
-345.362396
 21
163.109277
 31
0.0
  0
LINE
  5
530
100
AcDbEntity
  8
0
370
    -3
  6
Continuous
100
AcDbLine
 10
-360.788337
 20
188.109277
 30
0.0
 11
-339.288337
 21
188.109277
 31
0.0
  0
ARC
  5
531
100
AcDbEntity
  8
0
370
    -3
  6
Continuous
100
AcDbCircle
 10
-337.562396
 20
163.109277
 30
0.0
 40
7.8
100
AcDbArc
 50
180.0
 51
268.82579
  0
LINE
  5
532
100
AcDbEntity
  8
0
370
    -3
  6
Continuous
100
AcDbLine
 10
-362.788337
 20
190.109277
 30
0.0
 11
-362.788337
 21
202.109277
 31
0.0
  0
ARC
  5
533
100
AcDbEntity
  8
0
370
    -3
  6
Continuous
100
AcDbCircle
 10
-360.788337
 20
190.109277
 30
0.0
 40
2.0
100
AcDbArc
 50
180.0
 51
270.0
  0
POINT
  5
534
100
AcDbEntity
  8
0
370
    -3
  6
CENTER
100
AcDbPoint
 10
-362.788337
 20
191.631777
 30
0.0
  0
POINT
  5
535
100
AcDbEntity
  8
0
370
    -3
  6
CENTER
100
AcDbPoint
 10
-362.788337
 20
191.631777
 30
0.0
  0
LINE
  5
536
100
AcDbEntity
  8
0
370
    -3
  6
Continuous
100
AcDbLine
 10
-362.788337
 20
214.109277
 30
0.0
 11
-362.788337
 21
202.109277
 31
0.0
  0
POINT
  5
537
100
AcDbEntity
  8
0
370
    -3
  6
CENTER
100
AcDbPoint
 10
-362.788337
 20
212.586777
 30
0.0
  0
POINT
  5
538
100
AcDbEntity
  8
0
370
    -3
  6
CENTER
100
AcDbPoint
 10
-362.788337
 20
212.586777
 30
0.0
  0
LINE
  5
539
100
AcDbEntity
  8
0
370
    -3
  6
Continuous
100
AcDbLine
 10
-448.788328
 20
-140.337703
 30
0.0
 11
-510.788328
 21
-140.337703
 31
0.0
  0
LINE
  5
53A
100
AcDbEntity
  8
0
370
    -3
  6
Continuous
100
AcDbLine
 10
-510.788328
 20
-141.337703
 30
0.0
 11
-448.788328
 21
-141.337703
 31
0.0
  0
LINE
  5
53B
100
AcDbEntity
  8
0
370
    -3
  6
Continuous
100
AcDbLine
 10
-448.788328
 20
-140.337703
 30
0.0
 11
-448.788328
 21
-141.337703
 31
0.0
  0
LINE
  5
53C
100
AcDbEntity
  8
0
370
    -3
  6
Continuous
100
AcDbLine
 10
-510.788328
 20
-140.337703
 30
0.0
 11
-448.788328
 21
-140.337703
 31
0.0
  0
LINE
  5
53D
100
AcDbEntity
  8
0
370
    -3
  6
Continuous
100
AcDbLine
 10
-510.788328
 20
-140.337703
 30
0.0
 11
-510.788328
 21
-141.337703
 31
0.0
  0
LINE
  5
53E
100
AcDbEntity
  8
0
370
    -3
  6
Continuous
100
AcDbLine
 10
-451.788328
 20
-141.337703
 30
0.0
 11
-507.788328
 21
-141.337703
 31
0.0
  0
ARC
  5
53F
100
AcDbEntity
  8
0
370
    -3
  6
Continuous
100
AcDbCircle
 10
-511.288632
 20
-139.337703
 30
0.0
 40
1.0
100
AcDbArc
 50
182.0
 51
270.0
  0
LINE
  5
540
100
AcDbEntity
  8
0
370
    -3
  6
Continuous
100
AcDbLine
 10
-512.603529
 20
-130.337703
 30
0.0
 11
-512.288023
 21
-139.372602
 31
0.0
  0
LINE
  5
541
100
AcDbEntity
  8
0
370
    -3
  6
Continuous
100
AcDbLine
 10
-511.288632
 20
-140.337703
 30
0.0
 11
-479.788328
 21
-140.337703
 31
0.0
  0
ARC
  5
542
100
AcDbEntity
  8
0
370
    -3
  6
Continuous
100
AcDbCircle
 10
-498.305483
 20
-128.837703
 30
0.0
 40
0.5
100
AcDbArc
 50
90.0
 51
178.0
  0
LINE
  5
543
100
AcDbEntity
  8
0
370
    -3
  6
Continuous
100
AcDbLine
 10
-498.805179
 20
-128.820253
 30
0.0
 11
-498.841318
 21
-129.855152
 31
0.0
  0
ARC
  5
544
100
AcDbEntity
  8
0
370
    -3
  6
Continuous
100
AcDbCircle
 10
-499.341014
 20
-129.837703
 30
0.0
 40
0.5
100
AcDbArc
 50
270.0
 51
358.0
  0
LINE
  5
545
100
AcDbEntity
  8
0
370
    -3
  6
Continuous
100
AcDbLine
 10
-492.788328
 20
-130.337703
 30
0.0
 11
-512.603529
 21
-130.337703
 31
0.0
  0
LINE
  5
546
100
AcDbEntity
  8
0
370
    -3
  6
Continuous
100
AcDbLine
 10
-479.788328
 20
-128.337703
 30
0.0
 11
-498.305483
 21
-128.337703
 31
0.0
  0
ARC
  5
547
100
AcDbEntity
  8
0
370
    -3
  6
Continuous
100
AcDbCircle
 10
-508.269298
 20
-129.837703
 30
0.0
 40
0.5
100
AcDbArc
 50
270.0
 51
0.0
  0
LINE
  5
548
100
AcDbEntity
  8
0
370
    -3
  6
Continuous
100
AcDbLine
 10
-507.769298
 20
-128.837703
 30
0.0
 11
-507.769298
 21
-129.837703
 31
0.0
  0
ARC
  5
549
100
AcDbEntity
  8
0
370
    -3
  6
Continuous
100
AcDbCircle
 10
-507.269298
 20
-128.837703
 30
0.0
 40
0.5
100
AcDbArc
 50
90.0
 51
180.0
  0
LINE
  5
54A
100
AcDbEntity
  8
0
370
    -3
  6
Continuous
100
AcDbLine
 10
-498.305483
 20
-128.337703
 30
0.0
 11
-507.269298
 21
-128.337703
 31
0.0
  0
ARC
  5
54B
100
AcDbEntity
  8
0
370
    -3
  6
Continuous
100
AcDbCircle
 10
-448.288023
 20
-139.337703
 30
0.0
 40
1.0
100
AcDbArc
 50
270.0
 51
358.0
  0
LINE
  5
54C
100
AcDbEntity
  8
0
370
    -3
  6
Continuous
100
AcDbLine
 10
-446.973127
 20
-130.337703
 30
0.0
 11
-447.288632
 21
-139.372602
 31
0.0
  0
LINE
  5
54D
100
AcDbEntity
  8
0
370
    -3
  6
Continuous
100
AcDbLine
 10
-448.288023
 20
-140.337703
 30
0.0
 11
-479.788328
 21
-140.337703
 31
0.0
  0
ARC
  5
54E
100
AcDbEntity
  8
0
370
    -3
  6
Continuous
100
AcDbCircle
 10
-461.271172
 20
-128.837703
 30
0.0
 40
0.5
100
AcDbArc
 50
2.0
 51
90.0
  0
LINE
  5
54F
100
AcDbEntity
  8
0
370
    -3
  6
Continuous
100
AcDbLine
 10
-460.771477
 20
-128.820253
 30
0.0
 11
-460.735337
 21
-129.855152
 31
0.0
  0
ARC
  5
550
100
AcDbEntity
  8
0
370
    -3
  6
Continuous
100
AcDbCircle
 10
-460.235642
 20
-129.837703
 30
0.0
 40
0.5
100
AcDbArc
 50
182.0
 51
270.0
  0
LINE
  5
551
100
AcDbEntity
  8
0
370
    -3
  6
Continuous
100
AcDbLine
 10
-466.788328
 20
-130.337703
 30
0.0
 11
-446.973127
 21
-130.337703
 31
0.0
  0
LINE
  5
552
100
AcDbEntity
  8
0
370
    -3
  6
Continuous
100
AcDbLine
 10
-479.788328
 20
-128.337703
 30
0.0
 11
-461.271172
 21
-128.337703
 31
0.0
  0
ARC
  5
553
100
AcDbEntity
  8
0
370
    -3
  6
Continuous
100
AcDbCircle
 10
-451.307357
 20
-129.837703
 30
0.0
 40
0.5
100
AcDbArc
 50
180.0
 51
270.0
  0
LINE
  5
554
100
AcDbEntity
  8
0
370
    -3
  6
Continuous
100
AcDbLine
 10
-451.807357
 20
-128.837703
 30
0.0
 11
-451.807357
 21
-129.837703
 31
0.0
  0
ARC
  5
555
100
AcDbEntity
  8
0
370
    -3
  6
Continuous
100
AcDbCircle
 10
-452.307357
 20
-128.837703
 30
0.0
 40
0.5
100
AcDbArc
 50
0.0
 51
90.0
  0
LINE
  5
556
100
AcDbEntity
  8
0
370
    -3
  6
Continuous
100
AcDbLine
 10
-461.271172
 20
-128.337703
 30
0.0
 11
-452.307357
 21
-128.337703
 31
0.0
  0
LINE
  5
557
100
AcDbEntity
  8
0
370
    -3
  6
Continuous
100
AcDbLine
 10
-452.956957
 20
-149.137703
 30
0.0
 11
-452.956957
 21
-186.494299
 31
0.0
  0
ARC
  5
558
100
AcDbEntity
  8
0
370
    -3
  6
Continuous
100
AcDbCircle
 10
-459.756957
 20
-149.137703
 30
0.0
 40
6.8
100
AcDbArc
 50
0.0
 51
90.0
  0
ARC
  5
559
100
AcDbEntity
  8
0
370
    -3
  6
Continuous
100
AcDbCircle
 10
-499.819699
 20
-149.137703
 30
0.0
 40
6.8
100
AcDbArc
 50
90.0
 51
180.0
  0
LINE
  5
55A
100
AcDbEntity
  8
0
370
    -3
  6
Continuous
100
AcDbLine
 10
-506.619699
 20
-149.137703
 30
0.0
 11
-506.619699
 21
-186.494299
 31
0.0
  0
ARC
  5
55B
100
AcDbEntity
  8
0
370
    -3
  6
Continuous
100
AcDbCircle
 10
-479.788328
 20
-167.337703
 30
0.0
 40
10.4775
100
AcDbArc
 50
270.0
 51
90.0
  0
ARC
  5
55C
100
AcDbEntity
  8
0
370
    -3
  6
Continuous
100
AcDbCircle
 10
-479.788328
 20
-167.337703
 30
0.0
 40
9.3155
100
AcDbArc
 50
270.0
 51
90.0
  0
ARC
  5
55D
100
AcDbEntity
  8
0
370
    -3
  6
Continuous
100
AcDbCircle
 10
-479.788328
 20
-167.337703
 30
0.0
 40
14.0
100
AcDbArc
 50
270.0
 51
90.0
  0
LINE
  5
55E
100
AcDbEntity
  8
0
370
    -3
  6
Continuous
100
AcDbLine
 10
-479.788328
 20
-188.144333
 30
0.0
 11
-440.788328
 21
-188.144333
 31
0.0
  0
LINE
  5
55F
100
AcDbEntity
  8
0
370
    -3
  6
Continuous
100
AcDbLine
 10
-434.288328
 20
-151.847816
 30
0.0
 11
-434.288328
 21
-183.404314
 31
0.0
  0
LINE
  5
560
100
AcDbEntity
  8
0
370
    -3
  6
Continuous
100
AcDbLine
 10
-440.788328
 20
-143.093226
 30
0.0
 11
-444.173155
 21
-143.093226
 31
0.0
  0
LINE
  5
561
100
AcDbEntity
  8
0
370
    -3
  6
Continuous
100
AcDbLine
 10
-443.590057
 20
-143.43132
 30
0.0
 11
-440.788328
 21
-143.43132
 31
0.0
  0
ARC
  5
562
100
AcDbEntity
  8
0
370
    -3
  6
Continuous
100
AcDbCircle
 10
-451.788328
 20
-142.337703
 30
0.0
 40
1.0
100
AcDbArc
 50
13.342364
 51
90.0
  0
ARC
  5
563
100
AcDbEntity
  8
0
370
    -3
  6
Continuous
100
AcDbCircle
 10
-450.523417
 20
-142.037703
 30
0.0
 40
0.3
100
AcDbArc
 50
193.342364
 51
270.0
  0
ARC
  5
564
100
AcDbEntity
  8
0
370
    -3
  6
Continuous
100
AcDbCircle
 10
-440.288328
 20
-151.847816
 30
0.0
 40
6.0
100
AcDbArc
 50
0.0
 51
90.0
  0
LINE
  5
565
100
AcDbEntity
  8
0
370
    -3
  6
Continuous
100
AcDbLine
 10
-441.337139
 20
-145.847816
 30
0.0
 11
-440.288328
 21
-145.847816
 31
0.0
  0
ARC
  5
566
100
AcDbEntity
  8
0
370
    -3
  6
Continuous
100
AcDbCircle
 10
-447.288328
 20
-149.137703
 30
0.0
 40
6.8
100
AcDbArc
 50
0.0
 51
90.0
  0
LINE
  5
567
100
AcDbEntity
  8
0
370
    -3
  6
Continuous
100
AcDbLine
 10
-479.788328
 20
-142.337703
 30
0.0
 11
-447.288328
 21
-142.337703
 31
0.0
  0
ARC
  5
568
100
AcDbEntity
  8
0
370
    -3
  6
Continuous
100
AcDbCircle
 10
-444.288328
 20
-178.770561
 30
0.0
 40
3.8
100
AcDbArc
 50
292.977375
 51
0.0
  0
ARC
  5
569
100
AcDbEntity
  8
0
370
    -3
  6
Continuous
100
AcDbCircle
 10
-453.729294
 20
-182.773614
 30
0.0
 40
3.8
100
AcDbArc
 50
270.0
 51
292.977375
  0
LINE
  5
56A
100
AcDbEntity
  8
0
370
    -3
  6
Continuous
100
AcDbLine
 10
-452.245897
 20
-186.272119
 30
0.0
 11
-442.804931
 21
-182.269065
 31
0.0
  0
LINE
  5
56B
100
AcDbEntity
  8
0
370
    -3
  6
Continuous
100
AcDbLine
 10
-440.488328
 20
-149.137703
 30
0.0
 11
-440.488328
 21
-178.770561
 31
0.0
  0
LINE
  5
56C
100
AcDbEntity
  8
0
370
    -3
  6
Continuous
100
AcDbLine
 10
-479.788328
 20
-186.573614
 30
0.0
 11
-453.729294
 21
-186.573614
 31
0.0
  0
LINE
  5
56D
100
AcDbEntity
  8
0
370
    -3
  6
Continuous
100
AcDbLine
 10
-479.788328
 20
-141.337703
 30
0.0
 11
-451.788328
 21
-141.337703
 31
0.0
  0
ARC
  5
56E
100
AcDbEntity
  8
0
370
    -3
  6
Continuous
100
AcDbCircle
 10
-440.788328
 20
-150.43132
 30
0.0
 40
7.0
100
AcDbArc
 50
0.0
 51
90.0
  0
LINE
  5
56F
100
AcDbEntity
  8
0
370
    -3
  6
Continuous
100
AcDbLine
 10
-448.788328
 20
-140.337703
 30
0.0
 11
-448.788328
 21
-141.337703
 31
0.0
  0
LINE
  5
570
100
AcDbEntity
  8
0
370
    -3
  6
Continuous
100
AcDbLine
 10
-448.788328
 20
-141.337703
 30
0.0
 11
-479.788328
 21
-141.337703
 31
0.0
  0
LINE
  5
571
100
AcDbEntity
  8
0
370
    -3
  6
Continuous
100
AcDbLine
 10
-440.788328
 20
-192.808851
 30
0.0
 11
-479.788328
 21
-192.808851
 31
0.0
  0
LINE
  5
572
100
AcDbEntity
  8
0
370
    -3
  6
Continuous
100
AcDbLine
 10
-479.788328
 20
-187.806238
 30
0.0
 11
-440.788328
 21
-187.806238
 31
0.0
  0
LINE
  5
573
100
AcDbEntity
  8
0
370
    -3
  6
Continuous
100
AcDbLine
 10
-432.988328
 20
-185.008851
 30
0.0
 11
-432.988328
 21
-150.893226
 31
0.0
  0
ELLIPSE
  5
574
100
AcDbEntity
  8
0
370
    -3
  6
Continuous
100
AcDbEllipse
 10
-440.288328
 20
-190.923442
 30
0.0
 11
3.5
 21
0.0
 31
0.0
210
0.0
220
0.0
230
1.0
 40
0.656603
 41
4.103732018100442
 42
5.8501343317261298
  0
ARC
  5
575
100
AcDbEntity
  8
0
370
    -3
  6
Continuous
100
AcDbCircle
 10
-440.788328
 20
-185.008851
 30
0.0
 40
7.8
100
AcDbArc
 50
270.0
 51
0.0
  0
ARC
  5
576
100
AcDbEntity
  8
0
370
    -3
  6
Continuous
100
AcDbCircle
 10
-440.788328
 20
-180.344333
 30
0.0
 40
7.8
100
AcDbArc
 50
270.0
 51
0.0
  0
ARC
  5
577
100
AcDbEntity
  8
0
370
    -3
  6
Continuous
100
AcDbCircle
 10
-440.788328
 20
-180.806238
 30
0.0
 40
7.0
100
AcDbArc
 50
270.0
 51
0.0
  0
LINE
  5
578
100
AcDbEntity
  8
0
370
    -3
  6
Continuous
100
AcDbLine
 10
-433.788328
 20
-180.806238
 30
0.0
 11
-433.788328
 21
-150.43132
 31
0.0
  0
ARC
  5
579
100
AcDbEntity
  8
0
370
    -3
  6
Continuous
100
AcDbCircle
 10
-440.788328
 20
-150.893226
 30
0.0
 40
7.8
100
AcDbArc
 50
0.0
 51
90.0
  0
LINE
  5
57A
100
AcDbEntity
  8
0
370
    -3
  6
CENTER
100
AcDbLine
 10
-461.143395
 20
-167.337703
 30
0.0
 11
-501.088785
 21
-167.337703
 31
0.0
  0
LINE
  5
57B
100
AcDbEntity
  8
0
370
    -3
  6
Continuous
100
AcDbLine
 10
-479.788328
 20
-188.144333
 30
0.0
 11
-518.788328
 21
-188.144333
 31
0.0
  0
LINE
  5
57C
100
AcDbEntity
  8
0
370
    -3
  6
Continuous
100
AcDbLine
 10
-525.288328
 20
-151.847816
 30
0.0
 11
-525.288328
 21
-183.404314
 31
0.0
  0
LINE
  5
57D
100
AcDbEntity
  8
0
370
    -3
  6
Continuous
100
AcDbLine
 10
-518.788328
 20
-143.093226
 30
0.0
 11
-515.4035
 21
-143.093226
 31
0.0
  0
LINE
  5
57E
100
AcDbEntity
  8
0
370
    -3
  6
Continuous
100
AcDbLine
 10
-515.986598
 20
-143.43132
 30
0.0
 11
-518.788328
 21
-143.43132
 31
0.0
  0
ARC
  5
57F
100
AcDbEntity
  8
0
370
    -3
  6
Continuous
100
AcDbCircle
 10
-507.788328
 20
-142.337703
 30
0.0
 40
1.0
100
AcDbArc
 50
90.0
 51
166.657636
  0
ARC
  5
580
100
AcDbEntity
  8
0
370
    -3
  6
Continuous
100
AcDbCircle
 10
-509.053239
 20
-142.037703
 30
0.0
 40
0.3
100
AcDbArc
 50
270.0
 51
346.657636
  0
ARC
  5
581
100
AcDbEntity
  8
0
370
    -3
  6
Continuous
100
AcDbCircle
 10
-519.288328
 20
-151.847816
 30
0.0
 40
6.0
100
AcDbArc
 50
90.0
 51
180.0
  0
LINE
  5
582
100
AcDbEntity
  8
0
370
    -3
  6
Continuous
100
AcDbLine
 10
-518.239516
 20
-145.847816
 30
0.0
 11
-519.288328
 21
-145.847816
 31
0.0
  0
ARC
  5
583
100
AcDbEntity
  8
0
370
    -3
  6
Continuous
100
AcDbCircle
 10
-512.288328
 20
-149.137703
 30
0.0
 40
6.8
100
AcDbArc
 50
90.0
 51
180.0
  0
LINE
  5
584
100
AcDbEntity
  8
0
370
    -3
  6
Continuous
100
AcDbLine
 10
-479.788328
 20
-142.337703
 30
0.0
 11
-512.288328
 21
-142.337703
 31
0.0
  0
ARC
  5
585
100
AcDbEntity
  8
0
370
    -3
  6
Continuous
100
AcDbCircle
 10
-515.288328
 20
-178.770561
 30
0.0
 40
3.8
100
AcDbArc
 50
180.0
 51
247.022625
  0
ARC
  5
586
100
AcDbEntity
  8
0
370
    -3
  6
Continuous
100
AcDbCircle
 10
-505.847361
 20
-182.773614
 30
0.0
 40
3.8
100
AcDbArc
 50
247.022625
 51
270.0
  0
LINE
  5
587
100
AcDbEntity
  8
0
370
    -3
  6
Continuous
100
AcDbLine
 10
-507.330758
 20
-186.272119
 30
0.0
 11
-516.771725
 21
-182.269065
 31
0.0
  0
LINE
  5
588
100
AcDbEntity
  8
0
370
    -3
  6
Continuous
100
AcDbLine
 10
-519.088328
 20
-149.137703
 30
0.0
 11
-519.088328
 21
-178.770561
 31
0.0
  0
LINE
  5
589
100
AcDbEntity
  8
0
370
    -3
  6
Continuous
100
AcDbLine
 10
-479.788328
 20
-186.573614
 30
0.0
 11
-505.847361
 21
-186.573614
 31
0.0
  0
LINE
  5
58A
100
AcDbEntity
  8
0
370
    -3
  6
Continuous
100
AcDbLine
 10
-479.788328
 20
-141.337703
 30
0.0
 11
-507.788328
 21
-141.337703
 31
0.0
  0
ARC
  5
58B
100
AcDbEntity
  8
0
370
    -3
  6
Continuous
100
AcDbCircle
 10
-518.788328
 20
-150.43132
 30
0.0
 40
7.0
100
AcDbArc
 50
90.0
 51
180.0
  0
LINE
  5
58C
100
AcDbEntity
  8
0
370
    -3
  6
Continuous
100
AcDbLine
 10
-510.788328
 20
-140.337703
 30
0.0
 11
-510.788328
 21
-141.337703
 31
0.0
  0
LINE
  5
58D
100
AcDbEntity
  8
0
370
    -3
  6
Continuous
100
AcDbLine
 10
-510.788328
 20
-141.337703
 30
0.0
 11
-479.788328
 21
-141.337703
 31
0.0
  0
LINE
  5
58E
100
AcDbEntity
  8
0
370
    -3
  6
Continuous
100
AcDbLine
 10
-518.788328
 20
-192.808851
 30
0.0
 11
-479.788328
 21
-192.808851
 31
0.0
  0
LINE
  5
58F
100
AcDbEntity
  8
0
370
    -3
  6
Continuous
100
AcDbLine
 10
-479.788328
 20
-187.806238
 30
0.0
 11
-518.788328
 21
-187.806238
 31
0.0
  0
LINE
  5
590
100
AcDbEntity
  8
0
370
    -3
  6
Continuous
100
AcDbLine
 10
-526.588328
 20
-185.008851
 30
0.0
 11
-526.588328
 21
-150.893226
 31
0.0
  0
ELLIPSE
  5
591
100
AcDbEntity
  8
0
370
    -3
  6
Continuous
100
AcDbEllipse
 10
-519.288328
 20
-190.923442
 30
0.0
 11
3.5
 21
0.0
 31
0.0
210
0.0
220
0.0
230
1.0
 40
0.656603
 41
3.5746436290431323
 42
5.32104594266894
  0
ARC
  5
592
100
AcDbEntity
  8
0
370
    -3
  6
Continuous
100
AcDbCircle
 10
-518.788328
 20
-185.008851
 30
0.0
 40
7.8
100
AcDbArc
 50
180.0
 51
270.0
  0
ARC
  5
593
100
AcDbEntity
  8
0
370
    -3
  6
Continuous
100
AcDbCircle
 10
-518.788328
 20
-180.344333
 30
0.0
 40
7.8
100
AcDbArc
 50
180.0
 51
270.0
  0
ARC
  5
594
100
AcDbEntity
  8
0
370
    -3
  6
Continuous
100
AcDbCircle
 10
-518.788328
 20
-180.806238
 30
0.0
 40
7.0
100
AcDbArc
 50
180.0
 51
270.0
  0
LINE
  5
595
100
AcDbEntity
  8
0
370
    -3
  6
Continuous
100
AcDbLine
 10
-525.788328
 20
-180.806238
 30
0.0
 11
-525.788328
 21
-150.43132
 31
0.0
  0
ARC
  5
596
100
AcDbEntity
  8
0
370
    -3
  6
Continuous
100
AcDbCircle
 10
-518.788328
 20
-150.893226
 30
0.0
 40
7.8
100
AcDbArc
 50
90.0
 51
180.0
  0
ARC
  5
597
100
AcDbEntity
  8
0
370
    -3
  6
Continuous
100
AcDbCircle
 10
-479.788328
 20
-167.337703
 30
0.0
 40
10.4775
100
AcDbArc
 50
90.0
 51
270.0
  0
ARC
  5
598
100
AcDbEntity
  8
0
370
    -3
  6
Continuous
100
AcDbCircle
 10
-479.788328
 20
-167.337703
 30
0.0
 40
9.3155
100
AcDbArc
 50
90.0
 51
270.0
  0
ARC
  5
599
100
AcDbEntity
  8
0
370
    -3
  6
Continuous
100
AcDbCircle
 10
-479.788328
 20
-167.337703
 30
0.0
 40
14.0
100
AcDbArc
 50
90.0
 51
270.0
  0
LINE
  5
59A
100
AcDbEntity
  8
0
370
    -3
  6
Continuous
100
AcDbLine
 10
-498.538328
 20
-126.837703
 30
0.0
 11
-498.538328
 21
-128.337703
 31
0.0
  0
LINE
  5
59B
100
AcDbEntity
  8
0
370
    -3
  6
Continuous
100
AcDbLine
 10
-461.038328
 20
-126.837703
 30
0.0
 11
-461.038328
 21
-128.337703
 31
0.0
  0
POINT
  5
59C
100
AcDbEntity
  8
0
370
    -3
  6
Continuous
100
AcDbPoint
 10
-362.788328
 20
-177.815203
 30
0.0
  0
LINE
  5
59D
100
AcDbEntity
  8
0
370
    -3
  6
CENTER
100
AcDbLine
 10
-291.788328
 20
-123.560285
 30
0.0
 11
-291.788328
 21
-146.470262
 31
0.0
  0
LINE
  5
59E
100
AcDbEntity
  8
0
370
    -3
  6
Continuous
100
AcDbLine
 10
-323.538337
 20
-128.337703
 30
0.0
 11
-255.038328
 21
-128.337703
 31
0.0
  0
LINE
  5
59F
100
AcDbEntity
  8
0
370
    -3
  6
Continuous
100
AcDbLine
 10
-323.538337
 20
-128.337703
 30
0.0
 11
-323.538337
 21
-126.837703
 31
0.0
  0
LINE
  5
5A0
100
AcDbEntity
  8
0
370
    -3
  6
Continuous
100
AcDbLine
 10
-255.038328
 20
-126.83229
 30
0.0
 11
-255.038328
 21
-128.337703
 31
0.0
  0
LINE
  5
5A1
100
AcDbEntity
  8
0
370
    -3
  6
CENTER
100
AcDbLine
 10
-291.788328
 20
-123.560285
 30
0.0
 11
-291.788328
 21
-152.470262
 31
0.0
  0
POINT
  5
5A2
100
AcDbEntity
  8
0
370
    -3
  6
Continuous
100
AcDbPoint
 10
-362.788328
 20
-177.815203
 30
0.0
  0
LINE
  5
5A3
100
AcDbEntity
  8
0
370
    -3
  6
Continuous
100
AcDbLine
 10
-343.671915
 20
-191.769564
 30
0.0
 11
-345.362388
 21
-188.144333
 31
0.0
  0
ARC
  5
5A4
100
AcDbEntity
  8
0
370
    -3
  6
Continuous
100
AcDbCircle
 10
-342.040561
 20
-191.008851
 30
0.0
 40
1.8
100
AcDbArc
 50
205.0
 51
295.0
  0
LINE
  5
5A5
100
AcDbEntity
  8
0
370
    -3
  6
CENTER
100
AcDbLine
 10
-337.099675
 20
-187.407405
 30
0.0
 11
-334.229754
 21
-193.561969
 31
0.0
  0
ARC
  5
5A6
100
AcDbEntity
  8
0
370
    -3
  6
Continuous
100
AcDbCircle
 10
-338.546758
 20
-184.304126
 30
0.0
 40
9.0
100
AcDbArc
 50
278.398469
 51
311.601548
  0
POINT
  5
5A7
100
AcDbEntity
  8
0
370
    -3
  6
Continuous
100
AcDbPoint
 10
-335.842001
 20
-190.104495
 30
0.0
  0
LINE
  5
5A8
100
AcDbEntity
  8
0
370
    -3
  6
Continuous
100
AcDbLine
 10
-332.669924
 20
-188.625331
 30
0.0
 11
-332.25617
 21
-189.51263
 31
0.0
  0
LINE
  5
5A9
100
AcDbEntity
  8
0
370
    -3
  6
Continuous
100
AcDbLine
 10
-339.014078
 20
-191.583659
 30
0.0
 11
-338.600324
 21
-192.470957
 31
0.0
  0
ARC
  5
5AA
100
AcDbEntity
  8
0
370
    -3
  6
Continuous
100
AcDbCircle
 10
-333.434369
 20
-190.062033
 30
0.0
 40
1.299999
100
AcDbArc
 50
311.601548
 51
25.000018
  0
ARC
  5
5AB
100
AcDbEntity
  8
0
370
    -3
  6
Continuous
100
AcDbCircle
 10
-337.422125
 20
-191.921554
 30
0.0
 40
1.299999
100
AcDbArc
 50
204.999999
 51
278.398469
  0
ARC
  5
5AC
100
AcDbEntity
  8
0
370
    -3
  6
Continuous
100
AcDbCircle
 10
-319.875316
 20
-187.731621
 30
0.0
 40
2.8
100
AcDbArc
 50
205.0
 51
267.843273
  0
LINE
  5
5AD
100
AcDbEntity
  8
0
370
    -3
  6
Continuous
100
AcDbLine
 10
-323.088008
 20
-187.467344
 30
0.0
 11
-322.412978
 21
-188.914952
 31
0.0
  0
ARC
  5
5AE
100
AcDbEntity
  8
0
370
    -3
  6
Continuous
100
AcDbCircle
 10
-297.370726
 20
409.844771
 30
0.0
 40
600.8
100
AcDbArc
 50
266.682408
 51
272.437505
  0
ARC
  5
5AF
100
AcDbEntity
  8
0
370
    -3
  6
Continuous
100
AcDbCircle
 10
-321.053239
 20
-142.037703
 30
0.0
 40
0.3
100
AcDbArc
 50
270.0
 51
346.657636
  0
ARC
  5
5B0
100
AcDbEntity
  8
0
370
    -3
  6
Continuous
100
AcDbCircle
 10
-262.523417
 20
-142.037703
 30
0.0
 40
0.3
100
AcDbArc
 50
193.342364
 51
270.0
  0
ARC
  5
5B1
100
AcDbEntity
  8
0
370
    -3
  6
Continuous
100
AcDbCircle
 10
-329.988328
 20
-149.137703
 30
0.0
 40
6.8
100
AcDbArc
 50
90.0
 51
180.0
  0
LINE
  5
5B2
100
AcDbEntity
  8
0
370
    -3
  6
Continuous
100
AcDbLine
 10
-260.788328
 20
-140.337703
 30
0.0
 11
-260.788328
 21
-141.337703
 31
0.0
  0
LINE
  5
5B3
100
AcDbEntity
  8
0
370
    -3
  6
Continuous
100
AcDbLine
 10
-322.788328
 20
-140.337703
 30
0.0
 11
-322.788328
 21
-141.337703
 31
0.0
  0
LINE
  5
5B4
100
AcDbEntity
  8
0
370
    -3
  6
Continuous
100
AcDbLine
 10
-322.788328
 20
-141.337703
 30
0.0
 11
-260.788328
 21
-141.337703
 31
0.0
  0
LINE
  5
5B5
100
AcDbEntity
  8
0
370
    -3
  6
Continuous
100
AcDbLine
 10
-322.788328
 20
-140.337703
 30
0.0
 11
-260.788328
 21
-140.337703
 31
0.0
  0
LINE
  5
5B6
100
AcDbEntity
  8
0
370
    -3
  6
Continuous
100
AcDbLine
 10
-338.788328
 20
-153.337703
 30
0.0
 11
-336.788328
 21
-153.337703
 31
0.0
  0
LINE
  5
5B7
100
AcDbEntity
  8
0
370
    -3
  6
Continuous
100
AcDbLine
 10
-360.788328
 20
-153.337703
 30
0.0
 11
-338.788328
 21
-153.337703
 31
0.0
  0
ARC
  5
5B8
100
AcDbEntity
  8
0
370
    -3
  6
Continuous
100
AcDbCircle
 10
-360.788328
 20
-155.337703
 30
0.0
 40
2.0
100
AcDbArc
 50
90.0
 51
180.0
  0
ARC
  5
5B9
100
AcDbEntity
  8
0
370
    -3
  6
Continuous
100
AcDbCircle
 10
-360.788328
 20
-179.337703
 30
0.0
 40
2.0
100
AcDbArc
 50
180.0
 51
270.0
  0
LINE
  5
5BA
100
AcDbEntity
  8
0
370
    -3
  6
Continuous
100
AcDbLine
 10
-362.788328
 20
-155.337703
 30
0.0
 11
-362.788328
 21
-167.337703
 31
0.0
  0
LINE
  5
5BB
100
AcDbEntity
  8
0
370
    -3
  6
Continuous
100
AcDbLine
 10
-362.788328
 20
-179.337703
 30
0.0
 11
-362.788328
 21
-167.337703
 31
0.0
  0
LINE
  5
5BC
100
AcDbEntity
  8
0
370
    -3
  6
CENTER
100
AcDbLine
 10
-368.266951
 20
-167.337703
 30
0.0
 11
-327.960465
 21
-167.337703
 31
0.0
  0
LINE
  5
5BD
100
AcDbEntity
  8
0
370
    -3
  6
Continuous
100
AcDbLine
 10
-338.788328
 20
-153.337703
 30
0.0
 11
-338.788328
 21
-167.337703
 31
0.0
  0
ARC
  5
5BE
100
AcDbEntity
  8
0
370
    -3
  6
Continuous
100
AcDbCircle
 10
-263.788328
 20
-142.337703
 30
0.0
 40
1.0
100
AcDbArc
 50
13.342364
 51
90.0
  0
LINE
  5
5BF
100
AcDbEntity
  8
0
370
    -3
  6
Continuous
100
AcDbLine
 10
-329.988328
 20
-142.337703
 30
0.0
 11
-260.350174
 21
-142.337703
 31
0.0
  0
ARC
  5
5C0
100
AcDbEntity
  8
0
370
    -3
  6
Continuous
100
AcDbCircle
 10
-319.788328
 20
-142.337703
 30
0.0
 40
1.0
100
AcDbArc
 50
90.0
 51
166.657636
  0
ARC
  5
5C1
100
AcDbEntity
  8
0
370
    -3
  6
Continuous
100
AcDbCircle
 10
-322.112634
 20
-145.337703
 30
0.0
 40
3.0
100
AcDbArc
 50
90.0
 51
180.0
  0
POINT
  5
5C2
100
AcDbEntity
  8
0
370
    -3
  6
CENTER
100
AcDbPoint
 10
-362.788328
 20
-156.860203
 30
0.0
  0
POINT
  5
5C3
100
AcDbEntity
  8
0
370
    -3
  6
CENTER
100
AcDbPoint
 10
-362.788328
 20
-177.815203
 30
0.0
  0
LINE
  5
5C4
100
AcDbEntity
  8
0
370
    -3
  6
Continuous
100
AcDbLine
 10
-360.788328
 20
-181.337703
 30
0.0
 11
-336.788328
 21
-181.337703
 31
0.0
  0
ARC
  5
5C5
100
AcDbEntity
  8
0
370
    -3
  6
Continuous
100
AcDbCircle
 10
-325.806931
 20
-188.735199
 30
0.0
 40
3.0
100
AcDbArc
 50
25.0
 51
115.0
  0
LINE
  5
5C6
100
AcDbEntity
  8
0
370
    -3
  6
Continuous
100
AcDbLine
 10
-337.199043
 20
-184.337703
 30
0.0
 11
-345.362388
 21
-188.144333
 31
0.0
  0
LINE
  5
5C7
100
AcDbEntity
  8
0
370
    -3
  6
Continuous
100
AcDbLine
 10
-338.788328
 20
-167.337703
 30
0.0
 11
-338.788328
 21
-181.337703
 31
0.0
  0
LINE
  5
5C8
100
AcDbEntity
  8
0
370
    -3
  6
Continuous
100
AcDbLine
 10
-336.788328
 20
-184.146183
 30
0.0
 11
-336.788328
 21
-149.137703
 31
0.0
  0
LINE
  5
5C9
100
AcDbEntity
  8
0
370
    -3
  6
Continuous
100
AcDbLine
 10
-325.112634
 20
-178.701718
 30
0.0
 11
-325.112634
 21
-145.337703
 31
0.0
  0
ARC
  5
5CA
100
AcDbEntity
  8
0
370
    -3
  6
Continuous
100
AcDbCircle
 10
-260.350174
 20
-146.137703
 30
0.0
 40
3.8
100
AcDbArc
 50
25.0
 51
90.0
  0
LINE
  5
5CB
100
AcDbEntity
  8
0
370
    -3
  6
Continuous
100
AcDbLine
 10
-247.059504
 20
-146.718457
 30
0.0
 11
-248.749977
 21
-143.093226
 31
0.0
  0
ARC
  5
5CC
100
AcDbEntity
  8
0
370
    -3
  6
Continuous
100
AcDbCircle
 10
-248.690858
 20
-147.47917
 30
0.0
 40
1.8
100
AcDbArc
 50
295.0
 51
25.0
  0
LINE
  5
5CD
100
AcDbEntity
  8
0
370
    -3
  6
CENTER
100
AcDbLine
 10
-254.625666
 20
-148.949143
 30
0.0
 11
-251.755746
 21
-155.103708
 31
0.0
  0
POINT
  5
5CE
100
AcDbEntity
  8
0
370
    -3
  6
Continuous
100
AcDbPoint
 10
-253.391703
 20
-151.65729
 30
0.0
  0
LINE
  5
5CF
100
AcDbEntity
  8
0
370
    -3
  6
Continuous
100
AcDbLine
 10
-250.195915
 20
-150.16707
 30
0.0
 11
-249.782161
 21
-151.054368
 31
0.0
  0
LINE
  5
5D0
100
AcDbEntity
  8
0
370
    -3
  6
CENTER
100
AcDbLine
 10
-254.625666
 20
-148.949143
 30
0.0
 11
-251.755746
 21
-155.103708
 31
0.0
  0
ARC
  5
5D1
100
AcDbEntity
  8
0
370
    -3
  6
Continuous
100
AcDbCircle
 10
-250.960361
 20
-151.603771
 30
0.0
 40
1.299999
100
AcDbArc
 50
311.601548
 51
25.000018
  0
ARC
  5
5D2
100
AcDbEntity
  8
0
370
    -3
  6
Continuous
100
AcDbCircle
 10
-256.072749
 20
-145.845864
 30
0.0
 40
9.0
100
AcDbArc
 50
278.398469
 51
311.601548
  0
LINE
  5
5D3
100
AcDbEntity
  8
0
370
    -3
  6
Continuous
100
AcDbLine
 10
-256.54007
 20
-153.125397
 30
0.0
 11
-256.126316
 21
-154.012696
 31
0.0
  0
ARC
  5
5D4
100
AcDbEntity
  8
0
370
    -3
  6
Continuous
100
AcDbCircle
 10
-254.948116
 20
-153.463292
 30
0.0
 40
1.299999
100
AcDbArc
 50
204.999999
 51
278.398469
  0
ARC
  5
5D5
100
AcDbEntity
  8
0
370
    -3
  6
Continuous
100
AcDbCircle
 10
-260.867352
 20
-158.453376
 30
0.0
 40
3.0
100
AcDbArc
 50
115.0
 51
205.0
  0
LINE
  5
5D6
100
AcDbEntity
  8
0
370
    -3
  6
Continuous
100
AcDbLine
 10
-258.850849
 20
-169.876386
 30
0.0
 11
-263.586276
 21
-159.721231
 31
0.0
  0
ARC
  5
5D7
100
AcDbEntity
  8
0
370
    -3
  6
Continuous
100
AcDbCircle
 10
-261.388511
 20
-171.059717
 30
0.0
 40
2.8
100
AcDbArc
 50
344.545811
 51
25.0
  0
ARC
  5
5D8
100
AcDbEntity
  8
0
370
    -3
  6
Continuous
100
AcDbCircle
 10
-274.473411
 20
-146.137703
 30
0.0
 40
3.8
100
AcDbArc
 50
25.0
 51
90.0
  0
LINE
  5
5D9
100
AcDbEntity
  8
0
370
    -3
  6
Continuous
100
AcDbLine
 10
-267.601179
 20
-151.883686
 30
0.0
 11
-271.029442
 21
-144.531753
 31
0.0
  0
LINE
  5
5DA
100
AcDbEntity
  8
0
370
    -3
  6
Continuous
100
AcDbLine
 10
-256.00044
 20
-146.474172
 30
0.0
 11
-256.906205
 21
-144.531753
 31
0.0
  0
LINE
  5
5DB
100
AcDbEntity
  8
0
370
    -3
  6
Continuous
100
AcDbLine
 10
-247.930146
 20
-149.110524
 30
0.0
 11
-341.279848
 21
-192.640205
 31
0.0
  0
LINE
  5
5DC
100
AcDbEntity
  8
0
370
    -3
  6
Continuous
100
AcDbLine
 10
-248.749977
 20
-143.093226
 30
0.0
 11
-337.199043
 21
-184.337703
 31
0.0
  0
ARC
  5
5DD
100
AcDbEntity
  8
0
370
    -3
  6
Continuous
100
AcDbCircle
 10
-272.278233
 20
-179.6214
 30
0.0
 40
10.8
100
AcDbArc
 50
272.437505
 51
342.341575
  0
ARC
  5
5DE
100
AcDbEntity
  8
0
370
    -3
  6
Continuous
100
AcDbCircle
 10
-548.613968
 20
-91.652306
 30
0.0
 40
300.8
100
AcDbArc
 50
342.341575
 51
347.89975
  0
LINE
  5
5DF
100
AcDbEntity
  8
0
370
    -3
  6
Continuous
100
AcDbLine
 10
-323.288632
 20
-140.337703
 30
0.0
 11
-260.262485
 21
-140.337703
 31
0.0
  0
ARC
  5
5E0
100
AcDbEntity
  8
0
370
    -3
  6
Continuous
100
AcDbCircle
 10
-323.288632
 20
-139.337703
 30
0.0
 40
1.0
100
AcDbArc
 50
182.0
 51
270.0
  0
ARC
  5
5E1
100
AcDbEntity
  8
0
370
    -3
  6
Continuous
100
AcDbCircle
 10
-260.288023
 20
-139.337703
 30
0.0
 40
1.0
100
AcDbArc
 50
270.0
 51
358.0
  0
LINE
  5
5E2
100
AcDbEntity
  8
0
370
    -3
  6
Continuous
100
AcDbLine
 10
-258.973127
 20
-130.337703
 30
0.0
 11
-259.288632
 21
-139.372602
 31
0.0
  0
LINE
  5
5E3
100
AcDbEntity
  8
0
370
    -3
  6
CENTER
100
AcDbLine
 10
-291.788328
 20
-125.918467
 30
0.0
 11
-291.788328
 21
-145.842439
 31
0.0
  0
ARC
  5
5E4
100
AcDbEntity
  8
0
370
    -3
  6
Continuous
100
AcDbCircle
 10
-320.269298
 20
-129.837703
 30
0.0
 40
0.5
100
AcDbArc
 50
270.0
 51
0.0
  0
LINE
  5
5E5
100
AcDbEntity
  8
0
370
    -3
  6
Continuous
100
AcDbLine
 10
-319.769298
 20
-128.837703
 30
0.0
 11
-319.769298
 21
-129.837703
 31
0.0
  0
ARC
  5
5E6
100
AcDbEntity
  8
0
370
    -3
  6
Continuous
100
AcDbCircle
 10
-319.269298
 20
-128.837703
 30
0.0
 40
0.5
100
AcDbArc
 50
90.0
 51
180.0
  0
LINE
  5
5E7
100
AcDbEntity
  8
0
370
    -3
  6
Continuous
100
AcDbLine
 10
-310.305483
 20
-128.337703
 30
0.0
 11
-319.269298
 21
-128.337703
 31
0.0
  0
LINE
  5
5E8
100
AcDbEntity
  8
0
370
    -3
  6
Continuous
100
AcDbLine
 10
-273.271172
 20
-128.337703
 30
0.0
 11
-264.307357
 21
-128.337703
 31
0.0
  0
LINE
  5
5E9
100
AcDbEntity
  8
0
370
    -3
  6
Continuous
100
AcDbLine
 10
-263.807357
 20
-128.837703
 30
0.0
 11
-263.807357
 21
-129.837703
 31
0.0
  0
ARC
  5
5EA
100
AcDbEntity
  8
0
370
    -3
  6
Continuous
100
AcDbCircle
 10
-263.307357
 20
-129.837703
 30
0.0
 40
0.5
100
AcDbArc
 50
180.0
 51
270.0
  0
ARC
  5
5EB
100
AcDbEntity
  8
0
370
    -3
  6
Continuous
100
AcDbCircle
 10
-264.307357
 20
-128.837703
 30
0.0
 40
0.5
100
AcDbArc
 50
0.0
 51
90.0
  0
LINE
  5
5EC
100
AcDbEntity
  8
0
370
    -3
  6
Continuous
100
AcDbLine
 10
-291.788328
 20
-130.337703
 30
0.0
 11
-258.973127
 21
-130.337703
 31
0.0
  0
LINE
  5
5ED
100
AcDbEntity
  8
0
370
    -3
  6
Continuous
100
AcDbLine
 10
-291.788328
 20
-130.337703
 30
0.0
 11
-324.603529
 21
-130.337703
 31
0.0
  0
ARC
  5
5EE
100
AcDbEntity
  8
0
370
    -3
  6
Continuous
100
AcDbCircle
 10
-263.307357
 20
-129.837703
 30
0.0
 40
0.5
100
AcDbArc
 50
180.0
 51
270.0
  0
ARC
  5
5EF
100
AcDbEntity
  8
0
370
    -3
  6
Continuous
100
AcDbCircle
 10
-264.307357
 20
-128.837703
 30
0.0
 40
0.5
100
AcDbArc
 50
0.0
 51
90.0
  0
LINE
  5
5F0
100
AcDbEntity
  8
0
370
    -3
  6
Continuous
100
AcDbLine
 10
-263.807357
 20
-128.837703
 30
0.0
 11
-263.807357
 21
-129.837703
 31
0.0
  0
ARC
  5
5F1
100
AcDbEntity
  8
0
370
    -3
  6
Continuous
100
AcDbCircle
 10
-274.307357
 20
-129.837703
 30
0.0
 40
0.5
100
AcDbArc
 50
270.0
 51
0.0
  0
LINE
  5
5F2
100
AcDbEntity
  8
0
370
    -3
  6
Continuous
100
AcDbLine
 10
-273.271172
 20
-128.337703
 30
0.0
 11
-264.613675
 21
-128.337703
 31
0.0
  0
LINE
  5
5F3
100
AcDbEntity
  8
0
370
    -3
  6
Continuous
100
AcDbLine
 10
-273.307357
 20
-128.337703
 30
0.0
 11
-264.613675
 21
-128.337703
 31
0.0
  0
ARC
  5
5F4
100
AcDbEntity
  8
0
370
    -3
  6
Continuous
100
AcDbCircle
 10
-273.307357
 20
-128.837703
 30
0.0
 40
0.5
100
AcDbArc
 50
90.0
 51
180.0
  0
LINE
  5
5F5
100
AcDbEntity
  8
0
370
    -3
  6
Continuous
100
AcDbLine
 10
-273.807357
 20
-128.837703
 30
0.0
 11
-273.807357
 21
-129.837703
 31
0.0
  0
ARC
  5
5F6
100
AcDbEntity
  8
0
370
    -3
  6
Continuous
100
AcDbCircle
 10
-310.269298
 20
-128.837703
 30
0.0
 40
0.5
100
AcDbArc
 50
0.0
 51
90.0
  0
LINE
  5
5F7
100
AcDbEntity
  8
0
370
    -3
  6
Continuous
100
AcDbLine
 10
-309.769298
 20
-128.837703
 30
0.0
 11
-309.769298
 21
-129.837703
 31
0.0
  0
ARC
  5
5F8
100
AcDbEntity
  8
0
370
    -3
  6
Continuous
100
AcDbCircle
 10
-309.269298
 20
-129.837703
 30
0.0
 40
0.5
100
AcDbArc
 50
180.0
 51
270.0
  0
ARC
  5
5F9
100
AcDbEntity
  8
0
370
    -3
  6
Continuous
100
AcDbCircle
 10
-320.269298
 20
-129.837703
 30
0.0
 40
0.5
100
AcDbArc
 50
270.0
 51
0.0
  0
LINE
  5
5FA
100
AcDbEntity
  8
0
370
    -3
  6
Continuous
100
AcDbLine
 10
-310.305483
 20
-128.337703
 30
0.0
 11
-319.269298
 21
-128.337703
 31
0.0
  0
ARC
  5
5FB
100
AcDbEntity
  8
0
370
    -3
  6
Continuous
100
AcDbCircle
 10
-319.269298
 20
-128.837703
 30
0.0
 40
0.5
100
AcDbArc
 50
90.0
 51
180.0
  0
LINE
  5
5FC
100
AcDbEntity
  8
0
370
    -3
  6
Continuous
100
AcDbLine
 10
-319.769298
 20
-128.837703
 30
0.0
 11
-319.769298
 21
-129.837703
 31
0.0
  0
LINE
  5
5FD
100
AcDbEntity
  8
0
370
    -3
  6
Continuous
100
AcDbLine
 10
-324.603529
 20
-130.337703
 30
0.0
 11
-324.288023
 21
-139.372602
 31
0.0
  0
LINE
  5
5FE
100
AcDbEntity
  8
0
370
    -3
  6
Continuous
100
AcDbLine
 10
-324.603529
 20
-130.337703
 30
0.0
 11
-324.603529
 21
-128.337703
 31
0.0
  0
LINE
  5
5FF
100
AcDbEntity
  8
0
370
    -3
  6
Continuous
100
AcDbLine
 10
-258.973127
 20
-130.337703
 30
0.0
 11
-258.973127
 21
-128.337703
 31
0.0
  0
LINE
  5
600
100
AcDbEntity
  8
0
370
    -3
  6
Continuous
100
AcDbLine
 10
-324.603529
 20
-128.337703
 30
0.0
 11
-258.973127
 21
-128.337703
 31
0.0
  0
ARC
  5
601
100
AcDbEntity
  8
0
370
    -3
  6
Continuous
100
AcDbCircle
 10
413.462036
 20
-184.155229
 30
0.0
 40
6.8
100
AcDbArc
 50
270.0
 51
0.260429
  0
LINE
  5
602
100
AcDbEntity
  8
0
370
    -3
  6
Continuous
100
AcDbLine
 10
349.962036
 20
-190.955229
 30
0.0
 11
413.462036
 21
-190.955229
 31
0.0
  0
ARC
  5
603
100
AcDbEntity
  8
0
370
    -3
  6
Continuous
100
AcDbCircle
 10
349.962036
 20
-184.155229
 30
0.0
 40
6.8
100
AcDbArc
 50
191.130004
 51
270.0
  0
LINE
  5
604
100
AcDbEntity
  8
0
370
    -3
  6
Continuous
100
AcDbLine
 10
419.622019
 20
-192.970723
 30
0.0
 11
421.212036
 21
-192.460896
 31
0.0
  0
LINE
  5
605
100
AcDbEntity
  8
0
370
    -3
  6
Continuous
100
AcDbLine
 10
421.212036
 20
-192.460896
 30
0.0
 11
419.212036
 21
-191.411708
 31
0.0
  0
LINE
  5
606
100
AcDbEntity
  8
0
370
    -3
  6
Continuous
100
AcDbLine
 10
421.212036
 20
-192.460896
 30
0.0
 11
423.212036
 21
-191.411708
 31
0.0
  0
LINE
  5
607
100
AcDbEntity
  8
0
370
    -3
  6
Continuous
100
AcDbLine
 10
422.802053
 20
-192.970723
 30
0.0
 11
421.212036
 21
-192.460896
 31
0.0
  0
ELLIPSE
  5
608
100
AcDbEntity
  8
0
370
    -3
  6
Continuous
100
AcDbEllipse
 10
421.212036
 20
-190.923442
 30
0.0
 11
3.5
 21
0.0
 31
0.0
210
0.0
220
0.0
230
1.0
 40
0.656603
 41
0.0
 42
6.2831853071795862
  0
ARC
  5
609
100
AcDbEntity
  8
0
370
    -3
  6
Continuous
100
AcDbCircle
 10
420.712036
 20
-185.008851
 30
0.0
 40
7.8
100
AcDbArc
 50
298.12516
 51
0.0
  0
LINE
  5
60A
100
AcDbEntity
  8
0
370
    -3
  6
Continuous
100
AcDbLine
 10
343.802053
 20
-192.970723
 30
0.0
 11
342.212036
 21
-192.460896
 31
0.0
  0
LINE
  5
60B
100
AcDbEntity
  8
0
370
    -3
  6
Continuous
100
AcDbLine
 10
342.212036
 20
-192.460896
 30
0.0
 11
344.212036
 21
-191.411708
 31
0.0
  0
LINE
  5
60C
100
AcDbEntity
  8
0
370
    -3
  6
Continuous
100
AcDbLine
 10
342.212036
 20
-192.460896
 30
0.0
 11
340.212036
 21
-191.411708
 31
0.0
  0
LINE
  5
60D
100
AcDbEntity
  8
0
370
    -3
  6
Continuous
100
AcDbLine
 10
340.622019
 20
-192.970723
 30
0.0
 11
342.212036
 21
-192.460896
 31
0.0
  0
ELLIPSE
  5
60E
100
AcDbEntity
  8
0
370
    -3
  6
Continuous
100
AcDbEllipse
 10
342.212036
 20
-190.923442
 30
0.0
 11
3.5
 21
0.0
 31
0.0
210
0.0
220
0.0
230
1.0
 40
0.656603
 41
0.0
 42
6.2831853071795862
  0
ARC
  5
60F
100
AcDbEntity
  8
0
370
    -3
  6
Continuous
100
AcDbCircle
 10
342.712036
 20
-185.008851
 30
0.0
 40
7.8
100
AcDbArc
 50
184.249793
 51
241.87484
  0
LINE
  5
610
100
AcDbEntity
  8
0
370
    -3
  6
Continuous
100
AcDbLine
 10
344.213218
 20
-192.808851
 30
0.0
 11
419.210855
 21
-192.808851
 31
0.0
  0
LINE
  5
611
100
AcDbEntity
  8
0
370
    -3
  6
Continuous
100
AcDbLine
 10
428.512036
 20
-185.008851
 30
0.0
 11
428.512036
 21
-183.980316
 31
0.0
  0
ENDSEC
  0
SECTION
  2
OBJECTS
  0
DICTIONARY
  5
19
100
AcDbDictionary
280
     0
281
     1
  3
ACAD_GROUP
350
1A
  3
ACAD_MLINESTYLE
350
1B
  3
ACAD_LAYOUT
350
1E
  3
ACAD_PLOTSETTINGS
350
22
  3
ACAD_PLOTSTYLENAME
350
1F
  3
ACAD_WIPEOUT_VARS
350
23
  3
DWGPROPS
350
612
  0
DICTIONARY
  5
1A
102
{ACAD_REACTORS
330
19
102
}
100
AcDbDictionary
280
     0
281
     1
  0
DICTIONARY
  5
1B
102
{ACAD_REACTORS
330
19
102
}
100
AcDbDictionary
280
     0
281
     1
  3
Standard
350
1C
  0
MLINESTYLE
  5
1C
102
{ACAD_REACTORS
330
1B
102
}
100
AcDbMlineStyle
  2
Standard
 70
     0
  3

 62
     0
 51
90.0
 52
90.0
 71
     2
 49
0.5
 62
   256
  6
ByLayer
 49
-0.5
 62
   256
  6
ByLayer
  0
ACDBDICTIONARYWDFLT
  5
1F
102
{ACAD_REACTORS
330
19
102
}
100
AcDbDictionary
281
     1
  3
Normal
350
1D
100
AcDbDictionaryWithDefault
340
1D
  0
ACDBPLACEHOLDER
  5
1D
102
{ACAD_REACTORS
330
1F
102
}
  0
LAYOUT
  5
20
102
{ACAD_REACTORS
330
1E
102
}
100
AcDbPlotSettings
  1

  2

  4

  6

 40
0.0
 41
0.0
 42
0.0
 43
0.0
 44
0.0
 45
0.0
 46
0.0
 47
0.0
 48
0.0
 49
0.0
140
0.0
141
0.0
142
1.0
143
1.0
 70
  1024
 72
     0
 73
     0
 74
     0
  7

 75
     0
147
1.0
148
0.0
149
0.0
100
AcDbLayout
  1
Model
 70
     0
 71
     0
 10
0.0
 20
0.0
 11
0.0
 21
0.0
 12
0.0
 22
0.0
 32
0.0
 14
0.0
 24
0.0
 34
0.0
 15
0.0
 25
0.0
 35
0.0
146
0.0
 13
0.0
 23
0.0
 33
0.0
 16
0.0
 26
0.0
 36
0.0
 17
0.0
 27
0.0
 37
0.0
 76
     0
330
A
331
0
345
0
346
0
  0
LAYOUT
  5
21
102
{ACAD_REACTORS
330
1E
102
}
100
AcDbPlotSettings
  1

  2

  4

  6

 40
0.0
 41
0.0
 42
0.0
 43
0.0
 44
0.0
 45
0.0
 46
0.0
 47
0.0
 48
0.0
 49
0.0
140
0.0
141
0.0
142
1.0
143
1.0
 70
     0
 72
     0
 73
     0
 74
     0
  7

 75
     0
147
1.0
148
0.0
149
0.0
100
AcDbLayout
  1
Layout1
 70
     0
 71
     0
 10
0.0
 20
0.0
 11
0.0
 21
0.0
 12
0.0
 22
0.0
 32
0.0
 14
0.0
 24
0.0
 34
0.0
 15
0.0
 25
0.0
 35
0.0
146
0.0
 13
0.0
 23
0.0
 33
0.0
 16
0.0
 26
0.0
 36
0.0
 17
0.0
 27
0.0
 37
0.0
 76
     0
330
B
331
0
345
0
346
0
  0
DICTIONARY
  5
1E
102
{ACAD_REACTORS
330
19
102
}
100
AcDbDictionary
280
     0
281
     1
  3
Layout1
350
21
  3
Model
350
20
  0
DICTIONARY
  5
22
102
{ACAD_REACTORS
330
19
102
}
100
AcDbDictionary
280
     0
281
     1
  0
WIPEOUTVARIABLES
  5
23
100
AcDbWipeoutVariables
 70
     1
  0
XRECORD
  5
612
100
AcDbXrecord
280
     1
  1
DWGPROPS COOKIE
  2

  3

  4

  6

  7

  8
HK96464
  9

300
=
301
=
302
=
303
=
304
=
305
=
306
=
307
=
308
=
309
=
 40
0.0
 41
2455943.337581
 42
2455943.337581
  1

 90
        0
  0
ENDSEC
  0
EOF
