  0
SECTION
  2
HEADER
  9
$ACADVER
  1
AC1015
  9
$ACADMAINTVER
 70
     6
  9
$DWGCODEPAGE
  3
ANSI_932
  9
$INSBASE
 10
0.0
 20
0.0
 30
0.0
  9
$EXTMIN
 10
1.000000E+20
 20
1.000000E+20
 30
1.000000E+20
  9
$EXTMAX
 10
-1.000000E+20
 20
-1.000000E+20
 30
-1.000000E+20
  9
$LIMMIN
 10
0.0
 20
0.0
  9
$LIMMAX
 10
0.0
 20
0.0
  9
$ORTHOMODE
 70
     0
  9
$REGENMODE
 70
     1
  9
$FILLMODE
 70
     1
  9
$QTEXTMODE
 70
     0
  9
$MIRRTEXT
 70
     1
  9
$LTSCALE
 40
1.0
  9
$ATTMODE
 70
     1
  9
$TEXTSIZE
 40
7.0
  9
$TRACEWID
 40
0.05
  9
$TEXTSTYLE
  7
Standard
  9
$CLAYER
  8
0
  9
$CELTYPE
  6
Continuous
  9
$CECOLOR
 62
   256
  9
$CELTSCALE
 40
1.0
  9
$DISPSILH
 70
     0
  9
$DIMSCALE
 40
1.0
  9
$DIMASZ
 40
1.931852
  9
$DIMEXO
 40
1.0
  9
$DIMDLI
 40
0.38
  9
$DIMRND
 40
0.0
  9
$DIMDLE
 40
0.0
  9
$DIMEXE
 40
2.0
  9
$DIMTP
 40
0.0
  9
$DIMTM
 40
0.0
  9
$DIMTXT
 40
2.8
  9
$DIMCEN
 40
0.09
  9
$DIMTSZ
 40
0.0
  9
$DIMTOL
 70
     0
  9
$DIMLIM
 70
     0
  9
$DIMTIH
 70
     1
  9
$DIMTOH
 70
     1
  9
$DIMSE1
 70
     0
  9
$DIMSE2
 70
     0
  9
$DIMTAD
 70
     1
  9
$DIMZIN
 70
     0
  9
$DIMBLK
  1

  9
$DIMASO
 70
     1
  9
$DIMSHO
 70
     1
  9
$DIMPOST
  1

  9
$DIMAPOST
  1

  9
$DIMALT
 70
     0
  9
$DIMALTD
 70
     2
  9
$DIMALTF
 40
25.4
  9
$DIMLFAC
 40
1.0
  9
$DIMTOFL
 70
     0
  9
$DIMTVP
 40
0.0
  9
$DIMTIX
 70
     0
  9
$DIMSOXD
 70
     0
  9
$DIMSAH
 70
     0
  9
$DIMBLK1
  1

  9
$DIMBLK2
  1

  9
$DIMSTYLE
  2
Standard
  9
$DIMCLRD
 70
     0
  9
$DIMCLRE
 70
     0
  9
$DIMCLRT
 70
     0
  9
$DIMTFAC
 40
0.714286
  9
$DIMGAP
 40
0.09
  9
$DIMJUST
 70
     0
  9
$DIMSD1
 70
     0
  9
$DIMSD2
 70
     0
  9
$DIMTOLJ
 70
     1
  9
$DIMTZIN
 70
     0
  9
$DIMALTZ
 70
     0
  9
$DIMALTTZ
 70
     0
  9
$DIMUPT
 70
     0
  9
$DIMDEC
 70
     4
  9
$DIMTDEC
 70
     4
  9
$DIMALTU
 70
     2
  9
$DIMALTTD
 70
     2
  9
$DIMTXSTY
  7
Standard
  9
$DIMAUNIT
 70
     0
  9
$DIMADEC
 70
     0
  9
$DIMALTRND
 40
0.0
  9
$DIMAZIN
 70
     0
  9
$DIMDSEP
 70
     0
  9
$DIMATFIT
 70
     3
  9
$DIMFRAC
 70
     0
  9
$DIMLDRBLK
  1

  9
$DIMLUNIT
 70
     2
  9
$DIMLWD
 70
     0
  9
$DIMLWE
 70
     0
  9
$DIMTMOVE
 70
     0
  9
$LUNITS
 70
     2
  9
$LUPREC
 70
     3
  9
$SKETCHINC
 40
0.1
  9
$FILLETRAD
 40
0.0
  9
$AUNITS
 70
     0
  9
$AUPREC
 70
     0
  9
$MENU
  1
acad
  9
$ELEVATION
 40
0.0
  9
$PELEVATION
 40
0.0
  9
$THICKNESS
 40
0.0
  9
$LIMCHECK
 70
     0
  9
$CHAMFERA
 40
0.0
  9
$CHAMFERB
 40
0.0
  9
$CHAMFERC
 40
0.0
  9
$CHAMFERD
 40
0.0
  9
$SKPOLY
 70
     0
  9
$TDCREATE
 40
0.000000000
  9
$TDUCREATE
 40
0.000000000
  9
$TDUPDATE
 40
0.000000000
  9
$TDUUPDATE
 40
0.000000000
  9
$TDINDWG
 40
0.0000000000
  9
$TDUSRTIMER
 40
0.0000000000
  9
$USRTIMER
 70
     1
  9
$ANGBASE
 50
0.0
  9
$ANGDIR
 70
     0
  9
$PDMODE
 70
     0
  9
$PDSIZE
 40
0.0
  9
$PLINEWID
 40
0.0
  9
$SPLFRAME
 70
     0
  9
$SPLINETYPE
 70
     6
  9
$SPLINESEGS
 70
     8
  9
$HANDSEED
  5
502
  9
$SURFTAB1
 70
     6
  9
$SURFTAB2
 70
     6
  9
$SURFTYPE
 70
     6
  9
$SURFU
 70
     6
  9
$SURFV
 70
     6
  9
$UCSBASE
  2

  9
$UCSNAME
  2

  9
$UCSORG
 10
0.0
 20
0.0
 30
0.0
  9
$UCSXDIR
 10
1.0
 20
0.0
 30
0.0
  9
$UCSYDIR
 10
0.0
 20
1.0
 30
0.0
  9
$UCSORTHOREF
  2

  9
$UCSORTHOVIEW
 70
     0
  9
$UCSORGTOP
 10
0.0
 20
0.0
 30
0.0
  9
$UCSORGBOTTOM
 10
0.0
 20
0.0
 30
0.0
  9
$UCSORGLEFT
 10
0.0
 20
0.0
 30
0.0
  9
$UCSORGRIGHT
 10
0.0
 20
0.0
 30
0.0
  9
$UCSORGFRONT
 10
0.0
 20
0.0
 30
0.0
  9
$UCSORGBACK
 10
0.0
 20
0.0
 30
0.0
  9
$PUCSBASE
  2

  9
$PUCSNAME
  2

  9
$PUCSORG
 10
0.0
 20
0.0
 30
0.0
  9
$PUCSXDIR
 10
1.0
 20
0.0
 30
0.0
  9
$PUCSYDIR
 10
0.0
 20
1.0
 30
0.0
  9
$PUCSORTHOREF
  2

  9
$PUCSORTHOVIEW
 70
     0
  9
$PUCSORGTOP
 10
0.0
 20
0.0
 30
0.0
  9
$PUCSORGBOTTOM
 10
0.0
 20
0.0
 30
0.0
  9
$PUCSORGLEFT
 10
0.0
 20
0.0
 30
0.0
  9
$PUCSORGRIGHT
 10
0.0
 20
0.0
 30
0.0
  9
$PUCSORGFRONT
 10
0.0
 20
0.0
 30
0.0
  9
$PUCSORGBACK
 10
0.0
 20
0.0
 30
0.0
  9
$USERI1
 70
     0
  9
$USERI2
 70
     0
  9
$USERI3
 70
     0
  9
$USERI4
 70
     0
  9
$USERI5
 70
     0
  9
$USERR1
 40
0.0
  9
$USERR2
 40
0.0
  9
$USERR3
 40
0.0
  9
$USERR4
 40
0.0
  9
$USERR5
 40
0.0
  9
$WORLDVIEW
 70
     1
  9
$SHADEDGE
 70
     3
  9
$SHADEDIF
 70
    70
  9
$TILEMODE
 70
     1
  9
$MAXACTVP
 70
    16
  9
$PINSBASE
 10
0.0
 20
0.0
 30
0.0
  9
$PLIMCHECK
 70
     0
  9
$PEXTMIN
 10
1.000000E+20
 20
1.000000E+20
 30
1.000000E+20
  9
$PEXTMAX
 10
-1.000000E+20
 20
-1.000000E+20
 30
-1.000000E+20
  9
$PLIMMIN
 10
0.0
 20
0.0
  9
$PLIMMAX
 10
12.0
 20
9.0
  9
$UNITMODE
 70
     0
  9
$VISRETAIN
 70
     0
  9
$PLINEGEN
 70
     1
  9
$PSLTSCALE
 70
     0
  9
$TREEDEPTH
 70
  3020
  9
$CMLSTYLE
  2
Standard
  9
$CMLJUST
 70
     0
  9
$CMLSCALE
 40
1.0
  9
$PROXYGRAPHICS
 70
     0
  9
$MEASUREMENT
 70
     0
  9
$CELWEIGHT
370
     0
  9
$ENDCAPS
280
     0
  9
$JOINSTYLE
280
     0
  9
$LWDISPLAY
290
     0
  9
$INSUNITS
 70
     0
  9
$HYPERLINKBASE
  1

  9
$STYLESHEET
  1

  9
$XEDIT
290
     1
  9
$CEPSNTYPE
380
     0
  9
$PSTYLEMODE
290
     1
  9
$FINGERPRINTGUID
  2

  9
$VERSIONGUID
  2

  9
$EXTNAMES
290
     1
  9
$PSVPSCALE
 40
0.0
  0
ENDSEC
  0
SECTION
  2
CLASSES
  0
CLASS
  1
LWPOLYLINE
  2
AcDbPolyline
  3
AutoCAD 2000
 90
    32768
280
     0
281
     1
  0
CLASS
  1
IMAGE
  2
AcDbRasterImage
  3
ISM
 90
    32895
280
     0
281
     1
  0
CLASS
  1
OLE2FRAME
  2
AcDbOle2Frame
  3
AutoCAD 2000
 90
    32768
280
     0
281
     1
  0
CLASS
  1
HATCH
  2
AcDbHatch
  3
AutoCAD 2000
 90
    32768
280
     0
281
     1
  0
CLASS
  1
DICTIONARYVAR
  2
AcDbDictionaryVar
  3
AutoCAD 2000
 90
    32768
280
     0
281
     0
  0
CLASS
  1
RASTERVARIABLES
  2
AcDbRasterVariables
  3
ISM
 90
    32768
280
     0
281
     0
  0
CLASS
  1
IMAGEDEF
  2
AcDbRasterImageDef
  3
ISM
 90
    32768
280
     0
281
     0
  0
CLASS
  1
IMAGEDEF_REACTOR
  2
AcDbRasterImageDefReactor
  3
ISM
 90
    32769
280
     0
281
     0
  0
CLASS
  1
IDBUFFER
  2
AcDbIdBuffer
  3
AutoCAD 2000
 90
    32768
280
     0
281
     0
  0
CLASS
  1
SPATIAL_FILTER
  2
AcDbSpatialFilter
  3
AutoCAD 2000
 90
    32768
280
     0
281
     0
  0
CLASS
  1
XRECORD
  2
AcDbXrecord
  3
AutoCAD 2000
 90
        0
280
     0
281
     0
  0
CLASS
  1
SORTENTSTABLE
  2
AcDbSortentsTable
  3
AutoCAD 2000
 90
    32768
280
     0
281
     0
  0
CLASS
  1
LAYER_INDEX
  2
AcDbLayerIndex
  3
AutoCAD 2000
 90
    32768
280
     0
281
     0
  0
CLASS
  1
SPATIAL_INDEX
  2
AcDbSpatialIndex
  3
AutoCAD 2000
 90
    32768
280
     0
281
     0
  0
CLASS
  1
OBJECT_PTR
  2
CAseDLPNTableRecord
  3
"ASE-LPNTableRecord"
 90
    32769
280
     0
281
     0
  0
CLASS
  1
LAYOUT
  2
AcDbLayout
  3
AutoCAD 2000
 90
        0
280
     0
281
     0
  0
CLASS
  1
PLOTSETTINGS
  2
AcDbPlotSettings
  3
AutoCAD 2000
 90
    32768
280
     0
281
     0
  0
CLASS
  1
ACDBDICTIONARYWDFLT
  2
AcDbDictionaryWithDefault
  3
AutoCAD 2000
 90
        0
280
     0
281
     0
  0
CLASS
  1
ACDBPLACEHOLDER
  2
AcDbPlaceHolder
  3
AutoCAD 2000
 90
        0
280
     0
281
     0
  0
CLASS
  1
VBA_PROJECT
  2
AcDbVbaProject
  3
acadvba
 90
    32768
280
     0
281
     0
  0
CLASS
  1
WIPEOUT
  2
AcDbWipeout
  3
WipeOut|AutoCAD Express Tool|expresstools@autodesk.com
 90
    32895
280
     0
281
     1
  0
CLASS
  1
WIPEOUTVARIABLES
  2
AcDbWipeoutVariables
  3
WipeOut|AutoCAD Express Tool|expresstools@autodesk.com
 90
        0
280
     0
281
     0
  0
CLASS
  1
RTEXT
  2
RText
  3
RText|AutoCAD Express Tool|expresstools@autodesk.com
 90
    32768
280
     0
281
     1
  0
CLASS
  1
ARCALIGNEDTEXT
  2
AcDbArcAlignedText
  3
ATEXT|AutoCAD Express Tool|expresstools@autodesk.com
 90
    32768
280
     0
281
     1
  0
ENDSEC
  0
SECTION
  2
TABLES
  0
TABLE
  2
VPORT
  5
7
100
AcDbSymbolTable
 70
     1
  0
VPORT
  5
15
100
AcDbSymbolTableRecord
100
AcDbViewportTableRecord
  2
*ACTIVE
 70
     0
 10
0.0
 20
0.0
 11
1.0
 21
1.0
 12
0.0
 22
0.0
 13
0.0
 23
0.0
 14
1.0
 24
1.0
 15
0.0
 25
0.0
 16
0.0
 26
0.0
 36
1.0
 17
0.0
 27
0.0
 37
0.0
 40
100.0
 41
1.0
 42
50.0
 43
0.0
 44
0.0
 50
0.0
 51
0.0
 71
     0
 72
   100
 73
     1
 74
     1
 75
     0
 76
     0
 77
     0
 78
     0
281
     0
 65
     0
110
0.0
120
0.0
130
0.0
111
1.0
121
0.0
131
0.0
112
0.0
122
1.0
132
0.0
345
0
346
0
 79
     0
146
0.0
  0
ENDTAB
  0
TABLE
  2
LTYPE
  5
4
100
AcDbSymbolTable
 70
     7
  0
LTYPE
  5
11
100
AcDbSymbolTableRecord
100
AcDbLinetypeTableRecord
  2
ByBlock
 70
    64
  3

 72
    65
 73
     0
 40
0.0
  0
LTYPE
  5
12
100
AcDbSymbolTableRecord
100
AcDbLinetypeTableRecord
  2
ByLayer
 70
    64
  3

 72
    65
 73
     0
 40
0.0
  0
LTYPE
  5
13
100
AcDbSymbolTableRecord
100
AcDbLinetypeTableRecord
  2
Continuous
 70
    64
  3
Solid line
 72
    65
 73
     0
 40
0.0
  0
LTYPE
  5
24
100
AcDbSymbolTableRecord
100
AcDbLinetypeTableRecord
  2
DASHED
 70
    64
  3
Dashed __ __ __ __ __ __ __ __ __ __ __ __ __ _
 72
    65
 73
     2
 40
0.75
 49
0.5
 74
     0
 49
-0.25
 74
     0
  0
LTYPE
  5
25
100
AcDbSymbolTableRecord
100
AcDbLinetypeTableRecord
  2
CENTER
 70
    64
  3
Center ____ _ ____ _ ____ _ ____ _ ____ _ ____
 72
    65
 73
     4
 40
1.0
 49
0.5
 74
     0
 49
-0.25
 74
     0
 49
0.0
 74
     0
 49
-0.25
 74
     0
  0
LTYPE
  5
26
100
AcDbSymbolTableRecord
100
AcDbLinetypeTableRecord
  2
DIVIDE
 70
    64
  3
Divide ____ . . ____ . . ____ . . ____ . . ____
 72
    65
 73
     6
 40
1.25
 49
0.5
 74
     0
 49
-0.25
 74
     0
 49
0.0
 74
     0
 49
-0.25
 74
     0
 49
0.0
 74
     0
 49
-0.25
 74
     0
  0
LTYPE
  5
27
100
AcDbSymbolTableRecord
100
AcDbLinetypeTableRecord
  2
PHANTOM
 70
    64
  3
Phantom ______  __  __  ______  __  __  ______
 72
    65
 73
     6
 40
9.0
 49
4.3
 74
     0
 49
-0.7
 74
     0
 49
1.3
 74
     0
 49
-0.7
 74
     0
 49
1.3
 74
     0
 49
-0.7
 74
     0
  0
ENDTAB
  0
TABLE
  2
LAYER
  5
2
100
AcDbSymbolTable
 70
     3
  0
LAYER
  5
14
100
AcDbSymbolTableRecord
100
AcDbLayerTableRecord
  2
0
 70
    64
 62
    53
  6
Continuous
290
     1
370
    -3
390
1D
  0
LAYER
  5
28
100
AcDbSymbolTableRecord
100
AcDbLayerTableRecord
  2
3
 70
    64
 62
     4
  6
Continuous
290
     1
370
    -3
390
1D
  0
LAYER
  5
29
100
AcDbSymbolTableRecord
100
AcDbLayerTableRecord
  2
5
 70
    64
 62
   191
  6
Continuous
290
     1
370
    -3
390
1D
  0
ENDTAB
  0
TABLE
  2
STYLE
  5
3
100
AcDbSymbolTable
 70
     2
  0
STYLE
  5
17
100
AcDbSymbolTableRecord
100
AcDbTextStyleTableRecord
  2
Standard
 70
     0
 40
0.0
 41
1.0
 50
0.0
 71
     0
 42
0.0
  3
txt
  4

  0
STYLE
  5
43C
100
AcDbSymbolTableRecord
100
AcDbTextStyleTableRecord
  2
ZU_SHPTB00001
 70
     0
 40
0.0
 41
1.0
 50
0.0
 71
     0
 42
0.0
  3
monotxt
  4
bigfont
  0
ENDTAB
  0
TABLE
  2
VIEW
  5
5
100
AcDbSymbolTable
 70
     0
  0
ENDTAB
  0
TABLE
  2
UCS
  5
6
100
AcDbSymbolTable
 70
     0
  0
ENDTAB
  0
TABLE
  2
APPID
  5
8
100
AcDbSymbolTable
 70
     1
  0
APPID
  5
16
100
AcDbSymbolTableRecord
100
AcDbRegAppTableRecord
  2
ACAD
 70
     0
  0
ENDTAB
  0
TABLE
  2
DIMSTYLE
  5
9
100
AcDbSymbolTable
 70
     1
100
AcDbDimStyleTable
 71
     0
  0
DIMSTYLE
105
18
100
AcDbSymbolTableRecord
100
AcDbDimStyleTableRecord
  2
Standard
 70
     0
  3

  4

 40
1.0
 41
0.18
 42
0.0625
 43
0.38
 44
0.18
 45
0.0
 46
0.0
 47
0.0
 48
0.0
 71
     0
 72
     0
 73
     1
 74
     1
 75
     0
 76
     0
 77
     0
 78
     0
 79
     0
140
0.18
141
0.09
142
0.0
143
25.4
144
1.0
145
0.0
146
1.0
147
0.09
148
0.0
170
     0
171
     2
172
     0
173
     0
174
     0
175
     0
176
     0
177
     0
178
     0
179
     0
271
     4
272
     4
273
     2
274
     2
275
     0
276
     0
277
     2
278
    46
279
     0
280
     0
281
     0
282
     0
283
     1
284
     0
285
     0
286
     0
288
     0
340
17
341
0
342
0
343
0
344
0
371
    -2
372
    -2
  0
ENDTAB
  0
TABLE
  2
BLOCK_RECORD
  5
1
100
AcDbSymbolTable
 70
     9
  0
BLOCK_RECORD
  5
A
100
AcDbSymbolTableRecord
100
AcDbBlockTableRecord
  2
*MODEL_SPACE
340
20
  0
BLOCK_RECORD
  5
B
100
AcDbSymbolTableRecord
100
AcDbBlockTableRecord
  2
*PAPER_SPACE
340
21
  0
BLOCK_RECORD
  5
BE
100
AcDbSymbolTableRecord
100
AcDbBlockTableRecord
  2
ZU_SYM_C__ZUOU_AC_BLOCK_ZU_SYM__USR_MELCAD_MD_SYM_SYM_SYM1_00002-1_-1
340
0
102
{BLKREFS
331
C9
102
}
  0
BLOCK_RECORD
  5
CC
100
AcDbSymbolTableRecord
100
AcDbBlockTableRecord
  2
ZU_SYM_C__ZUOU_AC_BLOCK_ZU_SYM__USR_MELCAD_MD_SYM_SYM_SYM1_-1_-1
340
0
102
{BLKREFS
331
D7
102
}
  0
BLOCK_RECORD
  5
14A
100
AcDbSymbolTableRecord
100
AcDbBlockTableRecord
  2
ZU_SYM__USERS_HOME_SYMBOL_POO_SYM_S07_-1
340
0
102
{BLKREFS
331
155
102
}
  0
BLOCK_RECORD
  5
164
100
AcDbSymbolTableRecord
100
AcDbBlockTableRecord
  2
ZU_SYM__USERS_HOME_SYMBOL_POO_SYM_S07_00001-1
340
0
102
{BLKREFS
331
16F
102
}
  0
BLOCK_RECORD
  5
17F
100
AcDbSymbolTableRecord
100
AcDbBlockTableRecord
  2
ZU_SYM__USERS_HOME_SYMBOL_POO_SYM_S07_00002-1
340
0
102
{BLKREFS
331
18A
102
}
  0
BLOCK_RECORD
  5
19D
100
AcDbSymbolTableRecord
100
AcDbBlockTableRecord
  2
ZU_SYM__USERS_HOME_SYMBOL_POO_SYM_S07_00003-1
340
0
102
{BLKREFS
331
1A8
102
}
  0
BLOCK_RECORD
  5
310
100
AcDbSymbolTableRecord
100
AcDbBlockTableRecord
  2
ZU_SYM__USERS_HOME_SYMBOL_POO_SYM_B20_-1
340
0
102
{BLKREFS
331
31B
102
}
  0
BLOCK_RECORD
  5
3D9
100
AcDbSymbolTableRecord
100
AcDbBlockTableRecord
  2
ZU_SYM_K__CAD_SYM_POO_SYM_B20_-1
340
0
102
{BLKREFS
331
3E5
102
}
  0
BLOCK_RECORD
  5
3FE
100
AcDbSymbolTableRecord
100
AcDbBlockTableRecord
  2
ZU_SYM_K__CAD_SYM_POO_SYM_B20_00004-1
340
0
102
{BLKREFS
331
40A
102
}
  0
ENDTAB
  0
ENDSEC
  0
SECTION
  2
BLOCKS
  0
BLOCK
  5
D
100
AcDbEntity
  8
0
100
AcDbBlockBegin
  2
*MODEL_SPACE
 70
     0
 10
0.0
 20
0.0
 30
0.0
  3
*MODEL_SPACE
  1

  0
ENDBLK
  5
E
100
AcDbEntity
  8
0
100
AcDbBlockEnd
  0
BLOCK
  5
F
100
AcDbEntity
 67
     1
  8
0
100
AcDbBlockBegin
  2
*PAPER_SPACE
 70
     0
 10
0.0
 20
0.0
 30
0.0
  3
*PAPER_SPACE
  1

  0
ENDBLK
  5
10
100
AcDbEntity
 67
     1
  8
0
100
AcDbBlockEnd
  0
BLOCK
  5
BF
100
AcDbEntity
  8
0
100
AcDbBlockBegin
  2
ZU_SYM_C__ZUOU_AC_BLOCK_ZU_SYM__USR_MELCAD_MD_SYM_SYM_SYM1_00002-1_-1
 70
    64
 10
0.0
 20
0.0
 30
0.0
  3
ZU_SYM_C__ZUOU_AC_BLOCK_ZU_SYM__USR_MELCAD_MD_SYM_SYM_SYM1_00002-1_-1
  1

  0
LINE
  5
C0
100
AcDbEntity
  8
0
370
    -3
  6
Continuous
100
AcDbLine
 10
-7.499999
 20
6.5
 30
0.0
 11
-7.499999
 21
-6.5
 31
0.0
  0
LINE
  5
C1
100
AcDbEntity
  8
0
370
    -3
  6
Continuous
100
AcDbLine
 10
-7.499998
 20
-6.499999
 30
0.0
 11
-7.999999
 21
-5.63407
 31
0.0
  0
LINE
  5
C2
100
AcDbEntity
  8
0
370
    -3
  6
Continuous
100
AcDbLine
 10
-7.499999
 20
6.5
 30
0.0
 11
-7.999999
 21
5.633876
 31
0.0
  0
LINE
  5
C3
100
AcDbEntity
  8
0
370
    -3
  6
Continuous
100
AcDbLine
 10
0.0
 20
-6.5
 30
0.0
 11
-7.499998
 21
-6.5
 31
0.0
  0
LINE
  5
C4
100
AcDbEntity
  8
0
370
    -3
  6
Continuous
100
AcDbLine
 10
0.0
 20
6.5
 30
0.0
 11
-7.499999
 21
6.5
 31
0.0
  0
LINE
  5
C5
100
AcDbEntity
  8
0
370
    -3
  6
Continuous
100
AcDbLine
 10
-7.999999
 20
5.633876
 30
0.0
 11
-7.999999
 21
-5.63407
 31
0.0
  0
LINE
  5
C6
100
AcDbEntity
  8
0
370
    -3
  6
Continuous
100
AcDbLine
 10
0.0
 20
-6.5
 30
0.0
 11
0.0
 21
6.5
 31
0.0
  0
POINT
  5
C7
100
AcDbEntity
  8
0
370
    -3
  6
Continuous
100
AcDbPoint
 10
0.0
 20
0.0
 30
0.0
  0
ENDBLK
  5
C8
100
AcDbEntity
  8
0
100
AcDbBlockEnd
  0
BLOCK
  5
CD
100
AcDbEntity
  8
0
100
AcDbBlockBegin
  2
ZU_SYM_C__ZUOU_AC_BLOCK_ZU_SYM__USR_MELCAD_MD_SYM_SYM_SYM1_-1_-1
 70
    64
 10
0.0
 20
0.0
 30
0.0
  3
ZU_SYM_C__ZUOU_AC_BLOCK_ZU_SYM__USR_MELCAD_MD_SYM_SYM_SYM1_-1_-1
  1

  0
LINE
  5
CE
100
AcDbEntity
  8
0
370
    -3
  6
Continuous
100
AcDbLine
 10
-7.499999
 20
6.5
 30
0.0
 11
-7.499999
 21
-6.5
 31
0.0
  0
LINE
  5
CF
100
AcDbEntity
  8
0
370
    -3
  6
Continuous
100
AcDbLine
 10
-7.499998
 20
-6.499999
 30
0.0
 11
-7.999999
 21
-5.63407
 31
0.0
  0
LINE
  5
D0
100
AcDbEntity
  8
0
370
    -3
  6
Continuous
100
AcDbLine
 10
-7.499999
 20
6.5
 30
0.0
 11
-7.999999
 21
5.633876
 31
0.0
  0
LINE
  5
D1
100
AcDbEntity
  8
0
370
    -3
  6
Continuous
100
AcDbLine
 10
0.0
 20
-6.5
 30
0.0
 11
-7.499998
 21
-6.5
 31
0.0
  0
LINE
  5
D2
100
AcDbEntity
  8
0
370
    -3
  6
Continuous
100
AcDbLine
 10
0.0
 20
6.5
 30
0.0
 11
-7.499999
 21
6.5
 31
0.0
  0
LINE
  5
D3
100
AcDbEntity
  8
0
370
    -3
  6
Continuous
100
AcDbLine
 10
-7.999999
 20
5.633876
 30
0.0
 11
-7.999999
 21
-5.63407
 31
0.0
  0
LINE
  5
D4
100
AcDbEntity
  8
0
370
    -3
  6
Continuous
100
AcDbLine
 10
0.0
 20
-6.5
 30
0.0
 11
0.0
 21
6.5
 31
0.0
  0
POINT
  5
D5
100
AcDbEntity
  8
0
370
    -3
  6
Continuous
100
AcDbPoint
 10
0.0
 20
0.0
 30
0.0
  0
ENDBLK
  5
D6
100
AcDbEntity
  8
0
100
AcDbBlockEnd
  0
BLOCK
  5
14B
100
AcDbEntity
  8
0
100
AcDbBlockBegin
  2
ZU_SYM__USERS_HOME_SYMBOL_POO_SYM_S07_-1
 70
    64
 10
0.0
 20
0.0
 30
0.0
  3
ZU_SYM__USERS_HOME_SYMBOL_POO_SYM_S07_-1
  1

  0
ARC
  5
14C
100
AcDbEntity
  8
0
370
    -3
  6
Continuous
100
AcDbCircle
 10
-0.979025
 20
-2.200001
 30
0.0
 40
1.299999
100
AcDbArc
 50
196.601531
 51
270.0
  0
ARC
  5
14D
100
AcDbEntity
  8
0
370
    -3
  6
Continuous
100
AcDbCircle
 10
-0.979025
 20
2.200001
 30
0.0
 40
1.299999
100
AcDbArc
 50
90.0
 51
163.398452
  0
LINE
  5
14E
100
AcDbEntity
  8
0
370
    -3
  6
Continuous
100
AcDbLine
 10
0.0
 20
-3.5
 30
0.0
 11
-0.979025
 21
-3.5
 31
0.0
  0
LINE
  5
14F
100
AcDbEntity
  8
0
370
    -3
  6
Continuous
100
AcDbLine
 10
0.0
 20
3.5
 30
0.0
 11
-0.979025
 21
3.5
 31
0.0
  0
LINE
  5
150
100
AcDbEntity
  8
0
370
    -3
  6
Continuous
100
AcDbLine
 10
0.0
 20
-3.5
 30
0.0
 11
0.0
 21
3.5
 31
0.0
  0
LINE
  5
151
100
AcDbEntity
  8
0
370
    -3
  6
Continuous
100
AcDbLine
 10
0.0
 20
-3.5
 30
0.0
 11
0.0
 21
3.5
 31
0.0
  0
POINT
  5
152
100
AcDbEntity
  8
0
370
    -3
  6
Continuous
100
AcDbPoint
 10
0.0
 20
0.0
 30
0.0
  0
ARC
  5
153
100
AcDbEntity
  8
0
370
    -3
  6
Continuous
100
AcDbCircle
 10
6.4
 20
0.0
 30
0.0
 40
9.0
100
AcDbArc
 50
163.398452
 51
196.601531
  0
ENDBLK
  5
154
100
AcDbEntity
  8
0
100
AcDbBlockEnd
  0
BLOCK
  5
165
100
AcDbEntity
  8
0
100
AcDbBlockBegin
  2
ZU_SYM__USERS_HOME_SYMBOL_POO_SYM_S07_00001-1
 70
    64
 10
0.0
 20
0.0
 30
0.0
  3
ZU_SYM__USERS_HOME_SYMBOL_POO_SYM_S07_00001-1
  1

  0
ARC
  5
166
100
AcDbEntity
  8
0
370
    -3
  6
Continuous
100
AcDbCircle
 10
-0.979025
 20
-2.200001
 30
0.0
 40
1.299999
100
AcDbArc
 50
196.601531
 51
270.0
  0
ARC
  5
167
100
AcDbEntity
  8
0
370
    -3
  6
Continuous
100
AcDbCircle
 10
-0.979025
 20
2.200001
 30
0.0
 40
1.299999
100
AcDbArc
 50
90.0
 51
163.398452
  0
LINE
  5
168
100
AcDbEntity
  8
0
370
    -3
  6
Continuous
100
AcDbLine
 10
0.0
 20
-3.5
 30
0.0
 11
-0.979025
 21
-3.5
 31
0.0
  0
LINE
  5
169
100
AcDbEntity
  8
0
370
    -3
  6
Continuous
100
AcDbLine
 10
0.0
 20
3.5
 30
0.0
 11
-0.979025
 21
3.5
 31
0.0
  0
LINE
  5
16A
100
AcDbEntity
  8
0
370
    -3
  6
Continuous
100
AcDbLine
 10
0.0
 20
-3.5
 30
0.0
 11
0.0
 21
3.5
 31
0.0
  0
LINE
  5
16B
100
AcDbEntity
  8
0
370
    -3
  6
Continuous
100
AcDbLine
 10
0.0
 20
-3.5
 30
0.0
 11
0.0
 21
3.5
 31
0.0
  0
POINT
  5
16C
100
AcDbEntity
  8
0
370
    -3
  6
Continuous
100
AcDbPoint
 10
0.0
 20
0.0
 30
0.0
  0
ARC
  5
16D
100
AcDbEntity
  8
0
370
    -3
  6
Continuous
100
AcDbCircle
 10
6.4
 20
0.0
 30
0.0
 40
9.0
100
AcDbArc
 50
163.398452
 51
196.601531
  0
ENDBLK
  5
16E
100
AcDbEntity
  8
0
100
AcDbBlockEnd
  0
BLOCK
  5
180
100
AcDbEntity
  8
0
100
AcDbBlockBegin
  2
ZU_SYM__USERS_HOME_SYMBOL_POO_SYM_S07_00002-1
 70
    64
 10
0.0
 20
0.0
 30
0.0
  3
ZU_SYM__USERS_HOME_SYMBOL_POO_SYM_S07_00002-1
  1

  0
ARC
  5
181
100
AcDbEntity
  8
0
370
    -3
  6
Continuous
100
AcDbCircle
 10
-0.979025
 20
-2.200001
 30
0.0
 40
1.299999
100
AcDbArc
 50
196.601531
 51
270.0
  0
ARC
  5
182
100
AcDbEntity
  8
0
370
    -3
  6
Continuous
100
AcDbCircle
 10
-0.979025
 20
2.200001
 30
0.0
 40
1.299999
100
AcDbArc
 50
90.0
 51
163.398452
  0
LINE
  5
183
100
AcDbEntity
  8
0
370
    -3
  6
Continuous
100
AcDbLine
 10
0.0
 20
-3.5
 30
0.0
 11
-0.979025
 21
-3.5
 31
0.0
  0
LINE
  5
184
100
AcDbEntity
  8
0
370
    -3
  6
Continuous
100
AcDbLine
 10
0.0
 20
3.5
 30
0.0
 11
-0.979025
 21
3.5
 31
0.0
  0
LINE
  5
185
100
AcDbEntity
  8
0
370
    -3
  6
Continuous
100
AcDbLine
 10
0.0
 20
-3.5
 30
0.0
 11
0.0
 21
3.5
 31
0.0
  0
LINE
  5
186
100
AcDbEntity
  8
0
370
    -3
  6
Continuous
100
AcDbLine
 10
0.0
 20
-3.5
 30
0.0
 11
0.0
 21
3.5
 31
0.0
  0
POINT
  5
187
100
AcDbEntity
  8
0
370
    -3
  6
Continuous
100
AcDbPoint
 10
0.0
 20
0.0
 30
0.0
  0
ARC
  5
188
100
AcDbEntity
  8
0
370
    -3
  6
Continuous
100
AcDbCircle
 10
6.4
 20
0.0
 30
0.0
 40
9.0
100
AcDbArc
 50
163.398452
 51
196.601531
  0
ENDBLK
  5
189
100
AcDbEntity
  8
0
100
AcDbBlockEnd
  0
BLOCK
  5
19E
100
AcDbEntity
  8
0
100
AcDbBlockBegin
  2
ZU_SYM__USERS_HOME_SYMBOL_POO_SYM_S07_00003-1
 70
    64
 10
0.0
 20
0.0
 30
0.0
  3
ZU_SYM__USERS_HOME_SYMBOL_POO_SYM_S07_00003-1
  1

  0
ARC
  5
19F
100
AcDbEntity
  8
0
370
    -3
  6
Continuous
100
AcDbCircle
 10
-0.979025
 20
-2.200001
 30
0.0
 40
1.299999
100
AcDbArc
 50
196.601531
 51
270.0
  0
ARC
  5
1A0
100
AcDbEntity
  8
0
370
    -3
  6
Continuous
100
AcDbCircle
 10
-0.979025
 20
2.200001
 30
0.0
 40
1.299999
100
AcDbArc
 50
90.0
 51
163.398452
  0
LINE
  5
1A1
100
AcDbEntity
  8
0
370
    -3
  6
Continuous
100
AcDbLine
 10
0.0
 20
-3.5
 30
0.0
 11
-0.979025
 21
-3.5
 31
0.0
  0
LINE
  5
1A2
100
AcDbEntity
  8
0
370
    -3
  6
Continuous
100
AcDbLine
 10
0.0
 20
3.5
 30
0.0
 11
-0.979025
 21
3.5
 31
0.0
  0
LINE
  5
1A3
100
AcDbEntity
  8
0
370
    -3
  6
Continuous
100
AcDbLine
 10
0.0
 20
-3.5
 30
0.0
 11
0.0
 21
3.5
 31
0.0
  0
LINE
  5
1A4
100
AcDbEntity
  8
0
370
    -3
  6
Continuous
100
AcDbLine
 10
0.0
 20
-3.5
 30
0.0
 11
0.0
 21
3.5
 31
0.0
  0
POINT
  5
1A5
100
AcDbEntity
  8
0
370
    -3
  6
Continuous
100
AcDbPoint
 10
0.0
 20
0.0
 30
0.0
  0
ARC
  5
1A6
100
AcDbEntity
  8
0
370
    -3
  6
Continuous
100
AcDbCircle
 10
6.4
 20
0.0
 30
0.0
 40
9.0
100
AcDbArc
 50
163.398452
 51
196.601531
  0
ENDBLK
  5
1A7
100
AcDbEntity
  8
0
100
AcDbBlockEnd
  0
BLOCK
  5
311
100
AcDbEntity
  8
0
100
AcDbBlockBegin
  2
ZU_SYM__USERS_HOME_SYMBOL_POO_SYM_B20_-1
 70
    64
 10
0.0
 20
0.0
 30
0.0
  3
ZU_SYM__USERS_HOME_SYMBOL_POO_SYM_B20_-1
  1

  0
LINE
  5
312
100
AcDbEntity
  8
0
370
    -3
  6
Continuous
100
AcDbLine
 10
-7.499999
 20
6.5
 30
0.0
 11
-7.499999
 21
-6.5
 31
0.0
  0
LINE
  5
313
100
AcDbEntity
  8
0
370
    -3
  6
Continuous
100
AcDbLine
 10
-7.499998
 20
-6.499999
 30
0.0
 11
-7.999999
 21
-5.63407
 31
0.0
  0
LINE
  5
314
100
AcDbEntity
  8
0
370
    -3
  6
Continuous
100
AcDbLine
 10
-7.499999
 20
6.5
 30
0.0
 11
-7.999999
 21
5.633876
 31
0.0
  0
LINE
  5
315
100
AcDbEntity
  8
0
370
    -3
  6
Continuous
100
AcDbLine
 10
0.0
 20
-6.5
 30
0.0
 11
-7.499998
 21
-6.5
 31
0.0
  0
LINE
  5
316
100
AcDbEntity
  8
0
370
    -3
  6
Continuous
100
AcDbLine
 10
0.0
 20
6.5
 30
0.0
 11
-7.499999
 21
6.5
 31
0.0
  0
LINE
  5
317
100
AcDbEntity
  8
0
370
    -3
  6
Continuous
100
AcDbLine
 10
-7.999999
 20
5.633876
 30
0.0
 11
-7.999999
 21
-5.63407
 31
0.0
  0
LINE
  5
318
100
AcDbEntity
  8
0
370
    -3
  6
Continuous
100
AcDbLine
 10
0.0
 20
-6.5
 30
0.0
 11
0.0
 21
6.5
 31
0.0
  0
POINT
  5
319
100
AcDbEntity
  8
0
370
    -3
  6
Continuous
100
AcDbPoint
 10
0.0
 20
0.0
 30
0.0
  0
ENDBLK
  5
31A
100
AcDbEntity
  8
0
100
AcDbBlockEnd
  0
BLOCK
  5
3DA
100
AcDbEntity
  8
0
100
AcDbBlockBegin
  2
ZU_SYM_K__CAD_SYM_POO_SYM_B20_-1
 70
    64
 10
0.0
 20
0.0
 30
0.0
  3
ZU_SYM_K__CAD_SYM_POO_SYM_B20_-1
  1

  0
CIRCLE
  5
3DB
100
AcDbEntity
  8
0
370
    -3
  6
Continuous
100
AcDbCircle
 10
0.0
 20
0.0
 30
0.0
 40
5.633955
  0
CIRCLE
  5
3DC
100
AcDbEntity
  8
0
370
    -3
  6
Continuous
100
AcDbCircle
 10
0.0
 20
0.0
 30
0.0
 40
6.5
  0
POINT
  5
3DD
100
AcDbEntity
  8
0
370
    -3
  6
Continuous
100
AcDbPoint
 10
0.0
 20
0.0
 30
0.0
  0
LINE
  5
3DE
100
AcDbEntity
  8
0
370
    -3
  6
Continuous
100
AcDbLine
 10
-2.999997
 20
-1.732046
 30
0.0
 11
-2.999998
 21
1.732052
 31
0.0
  0
LINE
  5
3DF
100
AcDbEntity
  8
0
370
    -3
  6
Continuous
100
AcDbLine
 10
2.999997
 20
1.732047
 30
0.0
 11
2.999998
 21
-1.732051
 31
0.0
  0
LINE
  5
3E0
100
AcDbEntity
  8
0
370
    -3
  6
Continuous
100
AcDbLine
 10
0.000007
 20
3.464097
 30
0.0
 11
-2.999998
 21
1.732052
 31
0.0
  0
LINE
  5
3E1
100
AcDbEntity
  8
0
370
    -3
  6
Continuous
100
AcDbLine
 10
2.999998
 20
-1.732051
 30
0.0
 11
-0.000004
 21
-3.464098
 31
0.0
  0
LINE
  5
3E2
100
AcDbEntity
  8
0
370
    -3
  6
Continuous
100
AcDbLine
 10
0.000007
 20
3.464097
 30
0.0
 11
2.999997
 21
1.732047
 31
0.0
  0
LINE
  5
3E3
100
AcDbEntity
  8
0
370
    -3
  6
Continuous
100
AcDbLine
 10
-0.000005
 20
-3.464098
 30
0.0
 11
-2.999998
 21
-1.732046
 31
0.0
  0
ENDBLK
  5
3E4
100
AcDbEntity
  8
0
100
AcDbBlockEnd
  0
BLOCK
  5
3FF
100
AcDbEntity
  8
0
100
AcDbBlockBegin
  2
ZU_SYM_K__CAD_SYM_POO_SYM_B20_00004-1
 70
    64
 10
0.0
 20
0.0
 30
0.0
  3
ZU_SYM_K__CAD_SYM_POO_SYM_B20_00004-1
  1

  0
CIRCLE
  5
400
100
AcDbEntity
  8
0
370
    -3
  6
Continuous
100
AcDbCircle
 10
0.0
 20
0.0
 30
0.0
 40
5.633955
  0
CIRCLE
  5
401
100
AcDbEntity
  8
0
370
    -3
  6
Continuous
100
AcDbCircle
 10
0.0
 20
0.0
 30
0.0
 40
6.5
  0
POINT
  5
402
100
AcDbEntity
  8
0
370
    -3
  6
Continuous
100
AcDbPoint
 10
0.0
 20
0.0
 30
0.0
  0
LINE
  5
403
100
AcDbEntity
  8
0
370
    -3
  6
Continuous
100
AcDbLine
 10
-2.999997
 20
-1.732046
 30
0.0
 11
-2.999998
 21
1.732052
 31
0.0
  0
LINE
  5
404
100
AcDbEntity
  8
0
370
    -3
  6
Continuous
100
AcDbLine
 10
2.999997
 20
1.732047
 30
0.0
 11
2.999998
 21
-1.732051
 31
0.0
  0
LINE
  5
405
100
AcDbEntity
  8
0
370
    -3
  6
Continuous
100
AcDbLine
 10
0.000007
 20
3.464097
 30
0.0
 11
-2.999998
 21
1.732052
 31
0.0
  0
LINE
  5
406
100
AcDbEntity
  8
0
370
    -3
  6
Continuous
100
AcDbLine
 10
2.999998
 20
-1.732051
 30
0.0
 11
-0.000004
 21
-3.464098
 31
0.0
  0
LINE
  5
407
100
AcDbEntity
  8
0
370
    -3
  6
Continuous
100
AcDbLine
 10
0.000007
 20
3.464097
 30
0.0
 11
2.999997
 21
1.732047
 31
0.0
  0
LINE
  5
408
100
AcDbEntity
  8
0
370
    -3
  6
Continuous
100
AcDbLine
 10
-0.000005
 20
-3.464098
 30
0.0
 11
-2.999998
 21
-1.732046
 31
0.0
  0
ENDBLK
  5
409
100
AcDbEntity
  8
0
100
AcDbBlockEnd
  0
ENDSEC
  0
SECTION
  2
ENTITIES
  0
ARC
  5
2A
100
AcDbEntity
  8
0
370
    -3
  6
Continuous
100
AcDbCircle
 10
242.958589
 20
-112.61808
 30
0.0
 40
2.5
100
AcDbArc
 50
0.0
 51
90.0
  0
ARC
  5
2B
100
AcDbEntity
  8
0
370
    -3
  6
Continuous
100
AcDbCircle
 10
113.958452
 20
-112.61808
 30
0.0
 40
2.5
100
AcDbArc
 50
90.0
 51
180.0
  0
ARC
  5
2C
100
AcDbEntity
  8
0
370
    -3
  6
Continuous
100
AcDbCircle
 10
245.058589
 20
-116.21808
 30
0.0
 40
0.4
100
AcDbArc
 50
270.0
 51
0.0
  0
ARC
  5
2D
100
AcDbEntity
  8
0
370
    -3
  6
Continuous
100
AcDbCircle
 10
245.058589
 20
-69.01808
 30
0.0
 40
0.4
100
AcDbArc
 50
0.0
 51
90.0
  0
ARC
  5
2E
100
AcDbEntity
  8
0
370
    -3
  6
Continuous
100
AcDbCircle
 10
227.358559
 20
-117.01808
 30
0.0
 40
0.4
100
AcDbArc
 50
90.0
 51
179.99993
  0
ARC
  5
2F
100
AcDbEntity
  8
0
370
    -3
  6
Continuous
100
AcDbCircle
 10
111.858452
 20
-116.21808
 30
0.0
 40
0.4
100
AcDbArc
 50
180.0
 51
270.0
  0
ARC
  5
30
100
AcDbEntity
  8
0
370
    -3
  6
Continuous
100
AcDbCircle
 10
111.858452
 20
-69.01808
 30
0.0
 40
0.4
100
AcDbArc
 50
90.0
 51
180.0
  0
ARC
  5
31
100
AcDbEntity
  8
0
370
    -3
  6
Continuous
100
AcDbCircle
 10
242.958589
 20
-72.61808
 30
0.0
 40
2.5
100
AcDbArc
 50
270.0
 51
0.0
  0
ARC
  5
32
100
AcDbEntity
  8
0
370
    -3
  6
Continuous
100
AcDbCircle
 10
113.958452
 20
-72.61808
 30
0.0
 40
2.5
100
AcDbArc
 50
180.0
 51
270.0
  0
LINE
  5
33
100
AcDbEntity
  8
0
370
    -3
  6
Continuous
100
AcDbLine
 10
111.458452
 20
-71.81808
 30
0.0
 11
245.458589
 21
-71.81808
 31
0.0
  0
LINE
  5
34
100
AcDbEntity
  8
0
370
    -3
  6
Continuous
100
AcDbLine
 10
113.958452
 20
-75.11808
 30
0.0
 11
135.708452
 21
-75.11808
 31
0.0
  0
LINE
  5
35
100
AcDbEntity
  8
0
370
    -3
  6
Continuous
100
AcDbLine
 10
135.708452
 20
-74.11808
 30
0.0
 11
137.458452
 21
-74.11808
 31
0.0
  0
LINE
  5
36
100
AcDbEntity
  8
0
370
    -3
  6
Continuous
100
AcDbLine
 10
135.708452
 20
-92.61808
 30
0.0
 11
135.708452
 21
-74.11808
 31
0.0
  0
LINE
  5
37
100
AcDbEntity
  8
0
370
    -3
  6
Continuous
100
AcDbLine
 10
137.458452
 20
-92.61808
 30
0.0
 11
137.458452
 21
-74.11808
 31
0.0
  0
LINE
  5
38
100
AcDbEntity
  8
0
370
    -3
  6
Continuous
100
AcDbLine
 10
137.458452
 20
-75.11808
 30
0.0
 11
163.458452
 21
-75.11808
 31
0.0
  0
LINE
  5
39
100
AcDbEntity
  8
0
370
    -3
  6
Continuous
100
AcDbLine
 10
163.458452
 20
-92.61808
 30
0.0
 11
163.458452
 21
-74.81808
 31
0.0
  0
LINE
  5
3A
100
AcDbEntity
  8
0
370
    -3
  6
Continuous
100
AcDbLine
 10
193.458589
 20
-92.61808
 30
0.0
 11
193.458589
 21
-74.81808
 31
0.0
  0
LINE
  5
3B
100
AcDbEntity
  8
0
370
    -3
  6
Continuous
100
AcDbLine
 10
193.458589
 20
-75.11808
 30
0.0
 11
219.458589
 21
-75.11808
 31
0.0
  0
LINE
  5
3C
100
AcDbEntity
  8
0
370
    -3
  6
Continuous
100
AcDbLine
 10
219.458589
 20
-74.11808
 30
0.0
 11
221.208589
 21
-74.11808
 31
0.0
  0
LINE
  5
3D
100
AcDbEntity
  8
0
370
    -3
  6
Continuous
100
AcDbLine
 10
219.458589
 20
-92.61808
 30
0.0
 11
219.458589
 21
-74.11808
 31
0.0
  0
LINE
  5
3E
100
AcDbEntity
  8
0
370
    -3
  6
Continuous
100
AcDbLine
 10
221.208589
 20
-92.61808
 30
0.0
 11
221.208589
 21
-74.11808
 31
0.0
  0
LINE
  5
3F
100
AcDbEntity
  8
0
370
    -3
  6
Continuous
100
AcDbLine
 10
221.208589
 20
-75.11808
 30
0.0
 11
242.958589
 21
-75.11808
 31
0.0
  0
LINE
  5
40
100
AcDbEntity
  8
0
370
    -3
  6
Continuous
100
AcDbLine
 10
113.958452
 20
-110.11808
 30
0.0
 11
135.708452
 21
-110.11808
 31
0.0
  0
LINE
  5
41
100
AcDbEntity
  8
0
370
    -3
  6
Continuous
100
AcDbLine
 10
135.708452
 20
-111.11808
 30
0.0
 11
137.458452
 21
-111.11808
 31
0.0
  0
LINE
  5
42
100
AcDbEntity
  8
0
370
    -3
  6
Continuous
100
AcDbLine
 10
135.708452
 20
-92.61808
 30
0.0
 11
135.708452
 21
-111.11808
 31
0.0
  0
LINE
  5
43
100
AcDbEntity
  8
0
370
    -3
  6
Continuous
100
AcDbLine
 10
137.458452
 20
-92.61808
 30
0.0
 11
137.458452
 21
-111.11808
 31
0.0
  0
LINE
  5
44
100
AcDbEntity
  8
0
370
    -3
  6
Continuous
100
AcDbLine
 10
137.458452
 20
-110.11808
 30
0.0
 11
163.458452
 21
-110.11808
 31
0.0
  0
LINE
  5
45
100
AcDbEntity
  8
0
370
    -3
  6
Continuous
100
AcDbLine
 10
163.458452
 20
-92.61808
 30
0.0
 11
163.458452
 21
-110.11808
 31
0.0
  0
LINE
  5
46
100
AcDbEntity
  8
0
370
    -3
  6
Continuous
100
AcDbLine
 10
193.458589
 20
-92.61808
 30
0.0
 11
193.458589
 21
-110.41808
 31
0.0
  0
LINE
  5
47
100
AcDbEntity
  8
0
370
    -3
  6
Continuous
100
AcDbLine
 10
193.458589
 20
-110.11808
 30
0.0
 11
219.458589
 21
-110.11808
 31
0.0
  0
LINE
  5
48
100
AcDbEntity
  8
0
370
    -3
  6
Continuous
100
AcDbLine
 10
219.458589
 20
-111.11808
 30
0.0
 11
221.208589
 21
-111.11808
 31
0.0
  0
LINE
  5
49
100
AcDbEntity
  8
0
370
    -3
  6
Continuous
100
AcDbLine
 10
219.458589
 20
-92.61808
 30
0.0
 11
219.458589
 21
-111.11808
 31
0.0
  0
LINE
  5
4A
100
AcDbEntity
  8
0
370
    -3
  6
Continuous
100
AcDbLine
 10
221.208589
 20
-92.61808
 30
0.0
 11
221.208589
 21
-111.11808
 31
0.0
  0
LINE
  5
4B
100
AcDbEntity
  8
0
370
    -3
  6
Continuous
100
AcDbLine
 10
221.208589
 20
-110.11808
 30
0.0
 11
242.958589
 21
-110.11808
 31
0.0
  0
LINE
  5
4C
100
AcDbEntity
  8
0
370
    -3
  6
Continuous
100
AcDbLine
 10
129.958483
 20
-117.61808
 30
0.0
 11
143.958481
 21
-117.61808
 31
0.0
  0
LINE
  5
4D
100
AcDbEntity
  8
0
370
    -3
  6
Continuous
100
AcDbLine
 10
143.958481
 20
-117.61808
 30
0.0
 11
143.958484
 21
-119.61808
 31
0.0
  0
LINE
  5
4E
100
AcDbEntity
  8
0
370
    -3
  6
Continuous
100
AcDbLine
 10
143.958481
 20
-117.61808
 30
0.0
 11
143.958484
 21
-119.61808
 31
0.0
  0
LINE
  5
4F
100
AcDbEntity
  8
0
370
    -3
  6
Continuous
100
AcDbLine
 10
189.958589
 20
-119.61808
 30
0.0
 11
189.958589
 21
-117.61808
 31
0.0
  0
LINE
  5
50
100
AcDbEntity
  8
0
370
    -3
  6
Continuous
100
AcDbLine
 10
143.958484
 20
-119.61808
 30
0.0
 11
189.958589
 21
-119.61808
 31
0.0
  0
LINE
  5
51
100
AcDbEntity
  8
0
370
    -3
  6
Continuous
100
AcDbLine
 10
226.958559
 20
-117.61808
 30
0.0
 11
189.958589
 21
-117.61808
 31
0.0
  0
LINE
  5
52
100
AcDbEntity
  8
0
370
    -3
  6
Continuous
100
AcDbLine
 10
130.458483
 20
-67.61808
 30
0.0
 11
143.958481
 21
-67.61808
 31
0.0
  0
LINE
  5
53
100
AcDbEntity
  8
0
370
    -3
  6
Continuous
100
AcDbLine
 10
129.958483
 20
-67.618095
 30
0.0
 11
129.958482
 21
-68.61808
 31
0.0
  0
LINE
  5
54
100
AcDbEntity
  8
0
370
    -3
  6
Continuous
100
AcDbLine
 10
143.958481
 20
-67.61808
 30
0.0
 11
143.958484
 21
-65.61808
 31
0.0
  0
LINE
  5
55
100
AcDbEntity
  8
0
370
    -3
  6
Continuous
100
AcDbLine
 10
129.958483
 20
-67.61808
 30
0.0
 11
143.958481
 21
-67.61808
 31
0.0
  0
LINE
  5
56
100
AcDbEntity
  8
0
370
    -3
  6
Continuous
100
AcDbLine
 10
189.958589
 20
-65.61808
 30
0.0
 11
189.958589
 21
-67.61808
 31
0.0
  0
LINE
  5
57
100
AcDbEntity
  8
0
370
    -3
  6
Continuous
100
AcDbLine
 10
143.958418
 20
-65.61808
 30
0.0
 11
189.958589
 21
-65.61808
 31
0.0
  0
LINE
  5
58
100
AcDbEntity
  8
0
370
    -3
  6
Continuous
100
AcDbLine
 10
226.458559
 20
-67.61808
 30
0.0
 11
212.458589
 21
-67.61808
 31
0.0
  0
LINE
  5
59
100
AcDbEntity
  8
0
370
    -3
  6
Continuous
100
AcDbLine
 10
226.958559
 20
-67.61808
 30
0.0
 11
189.958589
 21
-67.61808
 31
0.0
  0
LINE
  5
5A
100
AcDbEntity
  8
0
370
    -3
  6
Continuous
100
AcDbLine
 10
226.958559
 20
-67.618095
 30
0.0
 11
226.95856
 21
-68.61808
 31
0.0
  0
LINE
  5
5B
100
AcDbEntity
  8
0
370
    -3
  6
Continuous
100
AcDbLine
 10
245.458589
 20
-92.61808
 30
0.0
 11
245.458589
 21
-116.21808
 31
0.0
  0
LINE
  5
5C
100
AcDbEntity
  8
0
370
    -3
  6
Continuous
100
AcDbLine
 10
111.458452
 20
-92.61808
 30
0.0
 11
111.458452
 21
-116.21808
 31
0.0
  0
LINE
  5
5D
100
AcDbEntity
  8
0
370
    -3
  6
CENTER
100
AcDbLine
 10
108.454961
 20
-92.61808
 30
0.0
 11
248.611526
 21
-92.61808
 31
0.0
  0
LINE
  5
5E
100
AcDbEntity
  8
0
370
    -3
  6
Continuous
100
AcDbLine
 10
226.958559
 20
-67.618078
 30
0.0
 11
226.95856
 21
-68.61808
 31
0.0
  0
LINE
  5
5F
100
AcDbEntity
  8
0
370
    -3
  6
Continuous
100
AcDbLine
 10
245.058589
 20
-116.61808
 30
0.0
 11
227.358559
 21
-116.61808
 31
0.0
  0
LINE
  5
60
100
AcDbEntity
  8
0
370
    -3
  6
Continuous
100
AcDbLine
 10
245.058589
 20
-68.61808
 30
0.0
 11
226.95856
 21
-68.61808
 31
0.0
  0
LINE
  5
61
100
AcDbEntity
  8
0
370
    -3
  6
Continuous
100
AcDbLine
 10
226.958559
 20
-117.61808
 30
0.0
 11
212.958557
 21
-117.61808
 31
0.0
  0
LINE
  5
62
100
AcDbEntity
  8
0
370
    -3
  6
Continuous
100
AcDbLine
 10
245.458589
 20
-69.01808
 30
0.0
 11
245.458589
 21
-92.61808
 31
0.0
  0
LINE
  5
63
100
AcDbEntity
  8
0
370
    -3
  6
Continuous
100
AcDbLine
 10
129.958483
 20
-67.618078
 30
0.0
 11
129.958482
 21
-68.61808
 31
0.0
  0
LINE
  5
64
100
AcDbEntity
  8
0
370
    -3
  6
Continuous
100
AcDbLine
 10
111.858452
 20
-68.61808
 30
0.0
 11
129.958482
 21
-68.61808
 31
0.0
  0
LINE
  5
65
100
AcDbEntity
  8
0
370
    -3
  6
Continuous
100
AcDbLine
 10
111.858452
 20
-116.61808
 30
0.0
 11
129.958482
 21
-116.61808
 31
0.0
  0
LINE
  5
66
100
AcDbEntity
  8
0
370
    -3
  6
Continuous
100
AcDbLine
 10
129.958483
 20
-67.61808
 30
0.0
 11
143.958481
 21
-67.61808
 31
0.0
  0
LINE
  5
67
100
AcDbEntity
  8
0
370
    -3
  6
Continuous
100
AcDbLine
 10
143.958481
 20
-67.61808
 30
0.0
 11
143.958484
 21
-65.61808
 31
0.0
  0
LINE
  5
68
100
AcDbEntity
  8
0
370
    -3
  6
Continuous
100
AcDbLine
 10
111.458452
 20
-69.01808
 30
0.0
 11
111.458452
 21
-92.61808
 31
0.0
  0
LINE
  5
69
100
AcDbEntity
  8
0
370
    -3
  6
Continuous
100
AcDbLine
 10
129.958483
 20
-117.61808
 30
0.0
 11
129.958482
 21
-116.61808
 31
0.0
  0
LINE
  5
6A
100
AcDbEntity
  8
0
370
    -3
  6
Continuous
100
AcDbLine
 10
130.458483
 20
-117.61808
 30
0.0
 11
143.958481
 21
-117.61808
 31
0.0
  0
LINE
  5
6B
100
AcDbEntity
  8
0
370
    -3
  6
Continuous
100
AcDbLine
 10
226.958559
 20
-117.618063
 30
0.0
 11
226.958559
 21
-117.01808
 31
0.0
  0
LINE
  5
6C
100
AcDbEntity
  8
0
370
    -3
  6
Continuous
100
AcDbLine
 10
226.958559
 20
-67.618078
 30
0.0
 11
214.458617
 21
-67.618063
 31
0.0
  0
LINE
  5
6D
100
AcDbEntity
  8
0
370
    -3
  6
Continuous
100
AcDbLine
 10
129.958483
 20
-117.61808
 30
0.0
 11
143.958481
 21
-117.61808
 31
0.0
  0
LINE
  5
6E
100
AcDbEntity
  8
0
370
    -3
  6
Continuous
100
AcDbLine
 10
143.958418
 20
-65.61808
 30
0.0
 11
143.958421
 21
-67.61808
 31
0.0
  0
LINE
  5
6F
100
AcDbEntity
  8
0
370
    -3
  6
Continuous
100
AcDbLine
 10
129.958483
 20
-67.618078
 30
0.0
 11
143.958421
 21
-67.618062
 31
0.0
  0
LINE
  5
70
100
AcDbEntity
  8
0
370
    -3
  6
CENTER
100
AcDbLine
 10
295.458589
 20
-124.35676
 30
0.0
 11
295.458589
 21
-62.260529
 31
0.0
  0
LINE
  5
71
100
AcDbEntity
  8
0
370
    -3
  6
Continuous
100
AcDbLine
 10
300.458589
 20
-75.847571
 30
0.0
 11
300.458589
 21
-71.81808
 31
0.0
  0
LINE
  5
72
100
AcDbEntity
  8
0
370
    -3
  6
Continuous
100
AcDbLine
 10
290.458589
 20
-75.847571
 30
0.0
 11
290.458589
 21
-71.81808
 31
0.0
  0
LINE
  5
73
100
AcDbEntity
  8
0
370
    -3
  6
Continuous
100
AcDbLine
 10
300.458589
 20
-71.81808
 30
0.0
 11
290.458589
 21
-71.81808
 31
0.0
  0
LINE
  5
74
100
AcDbEntity
  8
0
370
    -3
  6
CENTER
100
AcDbLine
 10
326.89645
 20
-92.61808
 30
0.0
 11
265.250192
 21
-92.61808
 31
0.0
  0
ARC
  5
75
100
AcDbEntity
  8
0
370
    -3
  6
Continuous
100
AcDbCircle
 10
295.458589
 20
-92.61808
 30
0.0
 40
17.5
100
AcDbArc
 50
106.60155
 51
73.39845
  0
CIRCLE
  5
76
100
AcDbEntity
  8
0
370
    -3
  6
Continuous
100
AcDbCircle
 10
295.458589
 20
-92.61808
 30
0.0
 40
24.0
  0
LINE
  5
77
100
AcDbEntity
  8
0
370
    -3
  6
Continuous
100
AcDbLine
 10
-58.041575
 20
247.923125
 30
0.0
 11
-58.041575
 21
245.823125
 31
0.0
  0
LINE
  5
78
100
AcDbEntity
  8
0
370
    -3
  6
Continuous
100
AcDbLine
 10
-57.891575
 20
245.823125
 30
0.0
 11
-57.891575
 21
244.323125
 31
0.0
  0
LINE
  5
79
100
AcDbEntity
  8
0
370
    -3
  6
CENTER
100
AcDbLine
 10
-10.541575
 20
262.79645
 30
0.0
 11
-10.541575
 21
103.034383
 31
0.0
  0
LINE
  5
7A
100
AcDbEntity
  8
0
370
    -3
  6
Continuous
100
AcDbLine
 10
6.958425
 20
248.323125
 30
0.0
 11
-28.041575
 21
248.323125
 31
0.0
  0
LINE
  5
7B
100
AcDbEntity
  8
0
370
    -3
  6
Continuous
100
AcDbLine
 10
-53.034575
 20
127.323125
 30
0.0
 11
-126.044404
 21
127.323125
 31
0.0
  0
LINE
  5
7C
100
AcDbEntity
  8
0
370
    -3
  6
Continuous
100
AcDbLine
 10
-126.584704
 20
127.820273
 30
0.0
 11
-127.543275
 21
139.323125
 31
0.0
  0
LINE
  5
7D
100
AcDbEntity
  8
0
370
    -3
  6
Continuous
100
AcDbLine
 10
-126.584704
 20
127.820273
 30
0.0
 11
-126.045059
 21
127.323727
 31
0.0
  0
LINE
  5
7E
100
AcDbEntity
  8
0
370
    -3
  6
Continuous
100
AcDbLine
 10
60.458104
 20
127.819671
 30
0.0
 11
61.416675
 21
139.322522
 31
0.0
  0
LINE
  5
7F
100
AcDbEntity
  8
0
370
    -3
  6
Continuous
100
AcDbLine
 10
60.458104
 20
127.819671
 30
0.0
 11
59.918458
 21
127.323125
 31
0.0
  0
LINE
  5
80
100
AcDbEntity
  8
0
370
    -3
  6
Continuous
100
AcDbLine
 10
36.955877
 20
127.323125
 30
0.0
 11
59.918458
 21
127.323125
 31
0.0
  0
LINE
  5
81
100
AcDbEntity
  8
0
370
    -3
  6
Continuous
100
AcDbLine
 10
36.955877
 20
127.323125
 30
0.0
 11
59.375058
 21
127.323125
 31
0.0
  0
LINE
  5
82
100
AcDbEntity
  8
0
370
    -3
  6
Continuous
100
AcDbLine
 10
-62.284166
 20
127.323125
 30
0.0
 11
59.143181
 21
127.323125
 31
0.0
  0
LINE
  5
83
100
AcDbEntity
  8
0
370
    -3
  6
Continuous
100
AcDbLine
 10
36.808425
 20
124.823125
 30
0.0
 11
36.958425
 21
124.823125
 31
0.0
  0
LINE
  5
84
100
AcDbEntity
  8
0
370
    -3
  6
Continuous
100
AcDbLine
 10
36.808425
 20
126.323125
 30
0.0
 11
36.958425
 21
126.323125
 31
0.0
  0
LINE
  5
85
100
AcDbEntity
  8
0
370
    -3
  6
Continuous
100
AcDbLine
 10
36.958425
 20
126.323125
 30
0.0
 11
36.958425
 21
127.323125
 31
0.0
  0
LINE
  5
86
100
AcDbEntity
  8
0
370
    -3
  6
Continuous
100
AcDbLine
 10
36.958425
 20
122.723125
 30
0.0
 11
36.958425
 21
124.823125
 31
0.0
  0
LINE
  5
87
100
AcDbEntity
  8
0
370
    -3
  6
Continuous
100
AcDbLine
 10
36.808425
 20
124.823125
 30
0.0
 11
36.808425
 21
126.323125
 31
0.0
  0
LINE
  5
88
100
AcDbEntity
  8
0
370
    -3
  6
Continuous
100
AcDbLine
 10
36.958425
 20
122.723125
 30
0.0
 11
36.558425
 21
122.323125
 31
0.0
  0
LINE
  5
89
100
AcDbEntity
  8
0
370
    -3
  6
Continuous
100
AcDbLine
 10
-10.541575
 20
122.323125
 30
0.0
 11
36.558425
 21
122.323125
 31
0.0
  0
LINE
  5
8A
100
AcDbEntity
  8
0
370
    -3
  6
Continuous
100
AcDbLine
 10
-10.541575
 20
122.323125
 30
0.0
 11
-57.641575
 21
122.323125
 31
0.0
  0
LINE
  5
8B
100
AcDbEntity
  8
0
370
    -3
  6
Continuous
100
AcDbLine
 10
-58.041575
 20
122.723125
 30
0.0
 11
-58.041575
 21
124.823125
 31
0.0
  0
LINE
  5
8C
100
AcDbEntity
  8
0
370
    -3
  6
Continuous
100
AcDbLine
 10
-58.041575
 20
122.723125
 30
0.0
 11
-57.641575
 21
122.323125
 31
0.0
  0
LINE
  5
8D
100
AcDbEntity
  8
0
370
    -3
  6
Continuous
100
AcDbLine
 10
-57.891575
 20
124.823125
 30
0.0
 11
-57.891575
 21
126.323125
 31
0.0
  0
LINE
  5
8E
100
AcDbEntity
  8
0
370
    -3
  6
Continuous
100
AcDbLine
 10
-57.891575
 20
126.323125
 30
0.0
 11
-58.041575
 21
126.323125
 31
0.0
  0
LINE
  5
8F
100
AcDbEntity
  8
0
370
    -3
  6
Continuous
100
AcDbLine
 10
-57.891575
 20
124.823125
 30
0.0
 11
-58.041575
 21
124.823125
 31
0.0
  0
LINE
  5
90
100
AcDbEntity
  8
0
370
    -3
  6
Continuous
100
AcDbLine
 10
-58.041575
 20
126.323125
 30
0.0
 11
-58.041575
 21
127.323125
 31
0.0
  0
LINE
  5
91
100
AcDbEntity
  8
0
370
    -3
  6
Continuous
100
AcDbLine
 10
-133.041108
 20
231.823125
 30
0.0
 11
-133.041108
 21
124.323125
 31
0.0
  0
LINE
  5
92
100
AcDbEntity
  8
0
370
    -3
  6
Continuous
100
AcDbLine
 10
-149.541108
 20
116.323125
 30
0.0
 11
-149.541108
 21
254.323125
 31
0.0
  0
LINE
  5
93
100
AcDbEntity
  8
0
370
    -3
  6
Continuous
100
AcDbLine
 10
-130.041108
 20
228.823125
 30
0.0
 11
-128.920411
 21
228.823125
 31
0.0
  0
LINE
  5
94
100
AcDbEntity
  8
0
370
    -3
  6
Continuous
100
AcDbLine
 10
-130.041108
 20
141.323125
 30
0.0
 11
-129.534852
 21
141.323125
 31
0.0
  0
LINE
  5
95
100
AcDbEntity
  8
0
370
    -3
  6
CENTER
100
AcDbLine
 10
-358.719769
 20
185.323125
 30
0.0
 11
90.586958
 21
185.323125
 31
0.0
  0
LINE
  5
96
100
AcDbEntity
  8
0
370
    -3
  6
Continuous
100
AcDbLine
 10
-146.541108
 20
119.323125
 30
0.0
 11
-138.041108
 21
119.323125
 31
0.0
  0
LINE
  5
97
100
AcDbEntity
  8
0
370
    -3
  6
Continuous
100
AcDbLine
 10
-149.541108
 20
116.323125
 30
0.0
 11
-149.541108
 21
115.823125
 31
0.0
  0
ARC
  5
98
100
AcDbEntity
  8
0
370
    -3
  6
Continuous
100
AcDbCircle
 10
-151.541108
 20
115.823125
 30
0.0
 40
2.0
100
AcDbArc
 50
270.0
 51
0.0
  0
ARC
  5
99
100
AcDbEntity
  8
0
370
    -3
  6
Continuous
100
AcDbCircle
 10
-146.541108
 20
116.323125
 30
0.0
 40
3.0
100
AcDbArc
 50
90.0
 51
180.0
  0
LINE
  5
9A
100
AcDbEntity
  8
0
370
    -3
  6
Continuous
100
AcDbLine
 10
-151.541108
 20
113.823125
 30
0.0
 11
-156.041108
 21
113.823125
 31
0.0
  0
LINE
  5
9B
100
AcDbEntity
  8
0
370
    -3
  6
Continuous
100
AcDbLine
 10
-146.541108
 20
251.323125
 30
0.0
 11
-138.041108
 21
251.323125
 31
0.0
  0
LINE
  5
9C
100
AcDbEntity
  8
0
370
    -3
  6
Continuous
100
AcDbLine
 10
-149.541108
 20
254.323125
 30
0.0
 11
-149.541108
 21
254.823125
 31
0.0
  0
ARC
  5
9D
100
AcDbEntity
  8
0
370
    -3
  6
Continuous
100
AcDbCircle
 10
-151.541108
 20
254.823125
 30
0.0
 40
2.0
100
AcDbArc
 50
0.0
 51
90.0
  0
ARC
  5
9E
100
AcDbEntity
  8
0
370
    -3
  6
Continuous
100
AcDbCircle
 10
-146.541108
 20
254.323125
 30
0.0
 40
3.0
100
AcDbArc
 50
180.0
 51
270.0
  0
LINE
  5
9F
100
AcDbEntity
  8
0
370
    -3
  6
Continuous
100
AcDbLine
 10
-151.541108
 20
256.823125
 30
0.0
 11
-156.041108
 21
256.823125
 31
0.0
  0
ARC
  5
A0
100
AcDbEntity
  8
0
370
    -3
  6
Continuous
100
AcDbCircle
 10
-130.041108
 20
138.323125
 30
0.0
 40
3.0
100
AcDbArc
 50
90.0
 51
180.0
  0
ARC
  5
A1
100
AcDbEntity
  8
0
370
    -3
  6
Continuous
100
AcDbCircle
 10
-138.041108
 20
124.323125
 30
0.0
 40
5.0
100
AcDbArc
 50
270.0
 51
0.0
  0
LINE
  5
A2
100
AcDbEntity
  8
0
370
    -3
  6
Continuous
100
AcDbLine
 10
-133.041108
 20
231.823125
 30
0.0
 11
-133.041108
 21
246.323125
 31
0.0
  0
ARC
  5
A3
100
AcDbEntity
  8
0
370
    -3
  6
Continuous
100
AcDbCircle
 10
-130.041108
 20
231.823125
 30
0.0
 40
3.0
100
AcDbArc
 50
180.0
 51
270.0
  0
ARC
  5
A4
100
AcDbEntity
  8
0
370
    -3
  6
Continuous
100
AcDbCircle
 10
-138.041108
 20
246.323125
 30
0.0
 40
5.0
100
AcDbArc
 50
0.0
 51
90.0
  0
LINE
  5
A5
100
AcDbEntity
  8
0
370
    -3
  6
Continuous
100
AcDbLine
 10
-53.034575
 20
243.323125
 30
0.0
 11
-125.219221
 21
243.323125
 31
0.0
  0
LINE
  5
A6
100
AcDbEntity
  8
0
370
    -3
  6
Continuous
100
AcDbLine
 10
-58.041575
 20
247.923125
 30
0.0
 11
-57.641575
 21
248.323125
 31
0.0
  0
LINE
  5
A7
100
AcDbEntity
  8
0
370
    -3
  6
Continuous
100
AcDbLine
 10
-57.891575
 20
244.323125
 30
0.0
 11
-58.041575
 21
244.323125
 31
0.0
  0
LINE
  5
A8
100
AcDbEntity
  8
0
370
    -3
  6
Continuous
100
AcDbLine
 10
-57.891575
 20
245.823125
 30
0.0
 11
-58.041575
 21
245.823125
 31
0.0
  0
LINE
  5
A9
100
AcDbEntity
  8
0
370
    -3
  6
Continuous
100
AcDbLine
 10
-58.041575
 20
244.323125
 30
0.0
 11
-58.041575
 21
243.323125
 31
0.0
  0
LINE
  5
AA
100
AcDbEntity
  8
0
370
    -3
  6
Continuous
100
AcDbLine
 10
-62.284166
 20
243.323125
 30
0.0
 11
59.143181
 21
243.323125
 31
0.0
  0
LINE
  5
AB
100
AcDbEntity
  8
0
370
    -3
  6
Continuous
100
AcDbLine
 10
36.808425
 20
245.823125
 30
0.0
 11
36.958425
 21
245.823125
 31
0.0
  0
LINE
  5
AC
100
AcDbEntity
  8
0
370
    -3
  6
Continuous
100
AcDbLine
 10
36.808425
 20
244.323125
 30
0.0
 11
36.958425
 21
244.323125
 31
0.0
  0
LINE
  5
AD
100
AcDbEntity
  8
0
370
    -3
  6
Continuous
100
AcDbLine
 10
36.958425
 20
244.323125
 30
0.0
 11
36.958425
 21
243.323125
 31
0.0
  0
LINE
  5
AE
100
AcDbEntity
  8
0
370
    -3
  6
Continuous
100
AcDbLine
 10
36.958425
 20
247.923125
 30
0.0
 11
36.958425
 21
245.823125
 31
0.0
  0
LINE
  5
AF
100
AcDbEntity
  8
0
370
    -3
  6
Continuous
100
AcDbLine
 10
36.808425
 20
245.823125
 30
0.0
 11
36.808425
 21
244.323125
 31
0.0
  0
LINE
  5
B0
100
AcDbEntity
  8
0
370
    -3
  6
Continuous
100
AcDbLine
 10
36.958425
 20
247.923125
 30
0.0
 11
36.558425
 21
248.323125
 31
0.0
  0
LINE
  5
B1
100
AcDbEntity
  8
0
370
    -3
  6
Continuous
100
AcDbLine
 10
61.458432
 20
139.323125
 30
0.0
 11
-127.543275
 21
139.323125
 31
0.0
  0
LINE
  5
B2
100
AcDbEntity
  8
0
370
    -3
  6
Continuous
100
AcDbLine
 10
-127.543275
 20
139.323125
 30
0.0
 11
-127.034341
 21
168.323125
 31
0.0
  0
LINE
  5
B3
100
AcDbEntity
  8
0
370
    -3
  6
Continuous
100
AcDbLine
 10
61.458432
 20
139.323125
 30
0.0
 11
59.65183
 21
242.823277
 31
0.0
  0
LINE
  5
B4
100
AcDbEntity
  8
0
370
    -3
  6
Continuous
100
AcDbLine
 10
59.143181
 20
243.323125
 30
0.0
 11
59.65183
 21
242.823277
 31
0.0
  0
LINE
  5
B5
100
AcDbEntity
  8
0
370
    -3
  6
Continuous
100
AcDbLine
 10
-125.920868
 20
231.770768
 30
0.0
 11
-125.727946
 21
242.823277
 31
0.0
  0
ARC
  5
B6
100
AcDbEntity
  8
0
370
    -3
  6
Continuous
100
AcDbCircle
 10
-129.534852
 20
139.323125
 30
0.0
 40
2.0
100
AcDbArc
 50
0.0
 51
90.0
  0
ARC
  5
B7
100
AcDbEntity
  8
0
370
    -3
  6
Continuous
100
AcDbCircle
 10
-128.920411
 20
231.823125
 30
0.0
 40
3.0
100
AcDbArc
 50
270.0
 51
359.0
  0
LINE
  5
B8
100
AcDbEntity
  8
0
370
    -3
  6
Continuous
100
AcDbLine
 10
-125.219221
 20
243.323125
 30
0.0
 11
-125.727947
 21
242.823201
 31
0.0
  0
LINE
  5
B9
100
AcDbEntity
  8
0
370
    -3
  6
Continuous
100
AcDbLine
 10
-133.041108
 20
164.823125
 30
0.0
 11
-133.041108
 21
205.823125
 31
0.0
  0
ARC
  5
BA
100
AcDbEntity
  8
0
370
    -3
  6
Continuous
100
AcDbCircle
 10
-136.041108
 20
203.823125
 30
0.0
 40
3.0
100
AcDbArc
 50
0.0
 51
90.0
  0
LINE
  5
BB
100
AcDbEntity
  8
0
370
    -3
  6
Continuous
100
AcDbLine
 10
-136.041108
 20
206.823125
 30
0.0
 11
-149.541108
 21
206.823125
 31
0.0
  0
ARC
  5
BC
100
AcDbEntity
  8
0
370
    -3
  6
Continuous
100
AcDbCircle
 10
-136.041108
 20
166.823125
 30
0.0
 40
3.0
100
AcDbArc
 50
270.0
 51
0.0
  0
LINE
  5
BD
100
AcDbEntity
  8
0
370
    -3
  6
Continuous
100
AcDbLine
 10
-136.041108
 20
163.823125
 30
0.0
 11
-149.541108
 21
163.823125
 31
0.0
  0
INSERT
  5
C9
100
AcDbEntity
  8
0
100
AcDbBlockReference
  2
ZU_SYM_C__ZUOU_AC_BLOCK_ZU_SYM__USR_MELCAD_MD_SYM_SYM_SYM1_00002-1_-1
 10
-128.541108
 20
195.823125
 30
0.0
 41
-1.0
  0
LINE
  5
CA
100
AcDbEntity
  8
0
370
    -3
  6
CENTER
100
AcDbLine
 10
-119.627067
 20
195.823125
 30
0.0
 11
-151.636677
 21
195.823125
 31
0.0
  0
LINE
  5
CB
100
AcDbEntity
  8
0
370
    -3
  6
Continuous
100
AcDbLine
 10
-128.541108
 20
205.823125
 30
0.0
 11
-133.041108
 21
205.823125
 31
0.0
  0
INSERT
  5
D7
100
AcDbEntity
  8
0
100
AcDbBlockReference
  2
ZU_SYM_C__ZUOU_AC_BLOCK_ZU_SYM__USR_MELCAD_MD_SYM_SYM_SYM1_-1_-1
 10
-128.541108
 20
174.823125
 30
0.0
 50
180.0
  0
LINE
  5
D8
100
AcDbEntity
  8
0
370
    -3
  6
Continuous
100
AcDbLine
 10
-128.541108
 20
164.823125
 30
0.0
 11
-133.041108
 21
164.823125
 31
0.0
  0
LINE
  5
D9
100
AcDbEntity
  8
0
370
    -3
  6
Continuous
100
AcDbLine
 10
-128.541108
 20
164.823125
 30
0.0
 11
-128.541108
 21
205.823125
 31
0.0
  0
LINE
  5
DA
100
AcDbEntity
  8
0
370
    -3
  6
CENTER
100
AcDbLine
 10
-119.614057
 20
174.823125
 30
0.0
 11
-151.636677
 21
174.823125
 31
0.0
  0
LINE
  5
DB
100
AcDbEntity
  8
0
370
    -3
  6
Continuous
100
AcDbLine
 10
-126.437659
 20
202.323125
 30
0.0
 11
-125.920868
 21
231.770768
 31
0.0
  0
LINE
  5
DC
100
AcDbEntity
  8
0
370
    -3
  6
Continuous
100
AcDbLine
 10
-126.806198
 20
181.323125
 30
0.0
 11
-126.665802
 21
189.323125
 31
0.0
  0
LINE
  5
DD
100
AcDbEntity
  8
0
370
    -3
  6
Continuous
100
AcDbLine
 10
36.558425
 20
248.323125
 30
0.0
 11
-10.541575
 21
248.323125
 31
0.0
  0
LINE
  5
DE
100
AcDbEntity
  8
0
370
    -3
  6
Continuous
100
AcDbLine
 10
36.558425
 20
122.323125
 30
0.0
 11
-10.541575
 21
122.323125
 31
0.0
  0
LINE
  5
DF
100
AcDbEntity
  8
0
370
    -3
  6
Continuous
100
AcDbLine
 10
-57.641575
 20
122.323125
 30
0.0
 11
-10.541575
 21
122.323125
 31
0.0
  0
LINE
  5
E0
100
AcDbEntity
  8
0
370
    -3
  6
Continuous
100
AcDbLine
 10
-57.641575
 20
248.323125
 30
0.0
 11
-10.541575
 21
248.323125
 31
0.0
  0
LINE
  5
E1
100
AcDbEntity
  8
0
370
    -3
  6
Continuous
100
AcDbLine
 10
-34.541575
 20
251.323125
 30
0.0
 11
-34.541575
 21
248.322522
 31
0.0
  0
LINE
  5
E2
100
AcDbEntity
  8
0
370
    -3
  6
Continuous
100
AcDbLine
 10
-10.541575
 20
252.323125
 30
0.0
 11
-33.541575
 21
252.323125
 31
0.0
  0
ARC
  5
E3
100
AcDbEntity
  8
0
370
    -3
  6
Continuous
100
AcDbCircle
 10
-33.541575
 20
251.323125
 30
0.0
 40
1.0
100
AcDbArc
 50
90.0
 51
180.0
  0
LINE
  5
E4
100
AcDbEntity
  8
0
370
    -3
  6
Continuous
100
AcDbLine
 10
12.458425
 20
252.323125
 30
0.0
 11
-10.541575
 21
252.323125
 31
0.0
  0
ARC
  5
E5
100
AcDbEntity
  8
0
370
    -3
  6
Continuous
100
AcDbCircle
 10
12.458425
 20
251.323125
 30
0.0
 40
1.0
100
AcDbArc
 50
0.0
 51
90.0
  0
LINE
  5
E6
100
AcDbEntity
  8
0
370
    -3
  6
Continuous
100
AcDbLine
 10
13.458425
 20
251.323125
 30
0.0
 11
13.458425
 21
248.322522
 31
0.0
  0
LINE
  5
E7
100
AcDbEntity
  8
0
370
    -3
  6
Continuous
100
AcDbLine
 10
-34.541575
 20
119.322988
 30
0.0
 11
-34.541575
 21
122.323125
 31
0.0
  0
LINE
  5
E8
100
AcDbEntity
  8
0
370
    -3
  6
Continuous
100
AcDbLine
 10
-10.541575
 20
118.322988
 30
0.0
 11
-33.541575
 21
118.322988
 31
0.0
  0
ARC
  5
E9
100
AcDbEntity
  8
0
370
    -3
  6
Continuous
100
AcDbCircle
 10
-33.541575
 20
119.322988
 30
0.0
 40
1.0
100
AcDbArc
 50
180.0
 51
270.0
  0
LINE
  5
EA
100
AcDbEntity
  8
0
370
    -3
  6
Continuous
100
AcDbLine
 10
13.458425
 20
119.322988
 30
0.0
 11
13.458425
 21
122.323125
 31
0.0
  0
ARC
  5
EB
100
AcDbEntity
  8
0
370
    -3
  6
Continuous
100
AcDbCircle
 10
12.458425
 20
119.322988
 30
0.0
 40
1.0
100
AcDbArc
 50
270.0
 51
0.0
  0
LINE
  5
EC
100
AcDbEntity
  8
0
370
    -3
  6
Continuous
100
AcDbLine
 10
12.458425
 20
118.322988
 30
0.0
 11
-10.541575
 21
118.322988
 31
0.0
  0
ARC
  5
ED
100
AcDbEntity
  8
0
370
    -3
  6
Continuous
100
AcDbCircle
 10
-146.541108
 20
228.310278
 30
0.0
 40
3.0
100
AcDbArc
 50
90.0
 51
180.0
  0
ARC
  5
EE
100
AcDbEntity
  8
0
370
    -3
  6
Continuous
100
AcDbCircle
 10
-146.541108
 20
243.323125
 30
0.0
 40
3.0
100
AcDbArc
 50
180.0
 51
270.0
  0
LINE
  5
EF
100
AcDbEntity
  8
0
370
    -3
  6
Continuous
100
AcDbLine
 10
-146.541108
 20
231.310278
 30
0.0
 11
-138.041108
 21
231.310278
 31
0.0
  0
LINE
  5
F0
100
AcDbEntity
  8
0
370
    -3
  6
Continuous
100
AcDbLine
 10
-146.541108
 20
240.323125
 30
0.0
 11
-138.041108
 21
240.323125
 31
0.0
  0
ARC
  5
F1
100
AcDbEntity
  8
0
370
    -3
  6
Continuous
100
AcDbCircle
 10
-146.541108
 20
254.323125
 30
0.0
 40
3.0
100
AcDbArc
 50
180.0
 51
270.0
  0
LINE
  5
F2
100
AcDbEntity
  8
0
370
    -3
  6
Continuous
100
AcDbLine
 10
-146.541108
 20
251.323125
 30
0.0
 11
-138.041108
 21
251.323125
 31
0.0
  0
ARC
  5
F3
100
AcDbEntity
  8
0
370
    -3
  6
Continuous
100
AcDbCircle
 10
-138.041108
 20
246.323125
 30
0.0
 40
5.0
100
AcDbArc
 50
0.0
 51
90.0
  0
ARC
  5
F4
100
AcDbEntity
  8
0
370
    -3
  6
Continuous
100
AcDbCircle
 10
-138.041108
 20
226.310278
 30
0.0
 40
5.0
100
AcDbArc
 50
0.0
 51
90.0
  0
ARC
  5
F5
100
AcDbEntity
  8
0
370
    -3
  6
Continuous
100
AcDbCircle
 10
-138.041108
 20
235.323125
 30
0.0
 40
5.0
100
AcDbArc
 50
0.0
 51
90.0
  0
ARC
  5
F6
100
AcDbEntity
  8
0
370
    -3
  6
Continuous
100
AcDbCircle
 10
-146.541108
 20
142.335972
 30
0.0
 40
3.0
100
AcDbArc
 50
180.0
 51
270.0
  0
ARC
  5
F7
100
AcDbEntity
  8
0
370
    -3
  6
Continuous
100
AcDbCircle
 10
-146.541108
 20
127.323125
 30
0.0
 40
3.0
100
AcDbArc
 50
90.0
 51
180.0
  0
LINE
  5
F8
100
AcDbEntity
  8
0
370
    -3
  6
Continuous
100
AcDbLine
 10
-146.541108
 20
139.335972
 30
0.0
 11
-138.041108
 21
139.335972
 31
0.0
  0
LINE
  5
F9
100
AcDbEntity
  8
0
370
    -3
  6
Continuous
100
AcDbLine
 10
-146.541108
 20
130.323125
 30
0.0
 11
-138.041108
 21
130.323125
 31
0.0
  0
ARC
  5
FA
100
AcDbEntity
  8
0
370
    -3
  6
Continuous
100
AcDbCircle
 10
-138.041108
 20
144.335972
 30
0.0
 40
5.0
100
AcDbArc
 50
270.0
 51
0.0
  0
ARC
  5
FB
100
AcDbEntity
  8
0
370
    -3
  6
Continuous
100
AcDbCircle
 10
-138.041108
 20
135.323125
 30
0.0
 40
5.0
100
AcDbArc
 50
270.0
 51
0.0
  0
LINE
  5
FC
100
AcDbEntity
  8
0
370
    -3
  6
Continuous
100
AcDbLine
 10
-156.041108
 20
122.573125
 30
0.0
 11
-156.041108
 21
256.823125
 31
0.0
  0
ARC
  5
FD
100
AcDbEntity
  8
0
370
    -3
  6
Continuous
100
AcDbCircle
 10
-532.242816
 20
21.381901
 30
0.0
 40
10.0
100
AcDbArc
 50
90.0
 51
180.0
  0
ARC
  5
FE
100
AcDbEntity
  8
0
370
    -3
  6
Continuous
100
AcDbCircle
 10
-511.242816
 20
21.381901
 30
0.0
 40
10.0
100
AcDbArc
 50
0.0
 51
90.0
  0
LINE
  5
FF
100
AcDbEntity
  8
0
370
    -3
  6
Continuous
100
AcDbLine
 10
-532.242816
 20
31.381901
 30
0.0
 11
-511.242816
 21
31.381901
 31
0.0
  0
CIRCLE
  5
100
100
AcDbEntity
  8
0
370
    -3
  6
Continuous
100
AcDbCircle
 10
-521.742816
 20
11.381901
 30
0.0
 40
10.0
  0
LINE
  5
101
100
AcDbEntity
  8
0
370
    -3
  6
Continuous
100
AcDbLine
 10
-542.242816
 20
-6.881736
 30
0.0
 11
-542.242816
 21
21.381901
 31
0.0
  0
LINE
  5
102
100
AcDbEntity
  8
0
370
    -3
  6
Continuous
100
AcDbLine
 10
-501.242816
 20
-6.881736
 30
0.0
 11
-501.242816
 21
21.381901
 31
0.0
  0
LINE
  5
103
100
AcDbEntity
  8
0
370
    -3
  6
CENTER
100
AcDbLine
 10
-536.68187
 20
11.381901
 30
0.0
 11
-507.265518
 21
11.381901
 31
0.0
  0
LINE
  5
104
100
AcDbEntity
  8
0
370
    -3
  6
Continuous
100
AcDbLine
 10
-276.041108
 20
110.523125
 30
0.0
 11
-307.788273
 21
110.523125
 31
0.0
  0
LINE
  5
105
100
AcDbEntity
  8
0
370
    -3
  6
Continuous
100
AcDbLine
 10
-338.141108
 20
123.282566
 30
0.0
 11
-323.188273
 21
114.649543
 31
0.0
  0
ARC
  5
106
100
AcDbEntity
  8
0
370
    -3
  6
Continuous
100
AcDbCircle
 10
-307.788273
 20
141.323125
 30
0.0
 40
30.8
100
AcDbArc
 50
240.0
 51
270.0
  0
LINE
  5
107
100
AcDbEntity
  8
0
370
    -3
  6
Continuous
100
AcDbLine
 10
-276.041108
 20
118.823125
 30
0.0
 11
-156.041108
 21
118.823125
 31
0.0
  0
LINE
  5
108
100
AcDbEntity
  8
0
370
    -3
  6
Continuous
100
AcDbLine
 10
-276.041108
 20
114.323125
 30
0.0
 11
-156.041108
 21
114.323125
 31
0.0
  0
LINE
  5
109
100
AcDbEntity
  8
0
370
    -3
  6
Continuous
100
AcDbLine
 10
-276.041108
 20
115.823125
 30
0.0
 11
-156.041108
 21
115.823125
 31
0.0
  0
LINE
  5
10A
100
AcDbEntity
  8
0
370
    -3
  6
Continuous
100
AcDbLine
 10
-276.041108
 20
113.823125
 30
0.0
 11
-156.041108
 21
113.823125
 31
0.0
  0
LINE
  5
10B
100
AcDbEntity
  8
0
370
    -3
  6
Continuous
100
AcDbLine
 10
-276.041108
 20
123.323125
 30
0.0
 11
-156.041108
 21
123.323125
 31
0.0
  0
LINE
  5
10C
100
AcDbEntity
  8
0
370
    -3
  6
Continuous
100
AcDbLine
 10
-156.041108
 20
185.323125
 30
0.0
 11
-156.041108
 21
256.823125
 31
0.0
  0
LINE
  5
10D
100
AcDbEntity
  8
0
370
    -3
  6
Continuous
100
AcDbLine
 10
-156.041108
 20
185.323125
 30
0.0
 11
-156.041108
 21
113.823125
 31
0.0
  0
LINE
  5
10E
100
AcDbEntity
  8
0
370
    -3
  6
Continuous
100
AcDbLine
 10
-156.041108
 20
224.723331
 30
0.0
 11
-276.041108
 21
224.723331
 31
0.0
  0
LINE
  5
10F
100
AcDbEntity
  8
0
370
    -3
  6
Continuous
100
AcDbLine
 10
-156.041108
 20
225.92292
 30
0.0
 11
-276.041108
 21
225.92292
 31
0.0
  0
LINE
  5
110
100
AcDbEntity
  8
0
370
    -3
  6
Continuous
100
AcDbLine
 10
-340.041108
 20
185.323125
 30
0.0
 11
-340.041108
 21
126.573463
 31
0.0
  0
ARC
  5
111
100
AcDbEntity
  8
0
370
    -3
  6
Continuous
100
AcDbCircle
 10
-336.241108
 20
126.573463
 30
0.0
 40
3.8
100
AcDbArc
 50
180.0
 51
240.0
  0
ELLIPSE
  5
112
100
AcDbEntity
  8
0
370
    -3
  6
Continuous
100
AcDbEllipse
 10
-293.041108
 20
242.347857
 30
0.0
 11
5.0
 21
0.0
 31
0.0
210
0.0
220
0.0
230
1.0
 40
0.707107
 41
3.1415926535897931
 42
0.0
  0
LINE
  5
113
100
AcDbEntity
  8
0
370
    -3
  6
Continuous
100
AcDbLine
 10
-298.041108
 20
243.16446
 30
0.0
 11
-298.041108
 21
242.347857
 31
0.0
  0
LINE
  5
114
100
AcDbEntity
  8
0
370
    -3
  6
Continuous
100
AcDbLine
 10
-288.041108
 20
243.16446
 30
0.0
 11
-288.041108
 21
242.347857
 31
0.0
  0
ELLIPSE
  5
115
100
AcDbEntity
  8
0
370
    -3
  6
Continuous
100
AcDbEllipse
 10
-293.041108
 20
243.16446
 30
0.0
 11
4.5
 21
0.0
 31
0.0
210
0.0
220
0.0
230
1.0
 40
0.707107
 41
3.1415926535897931
 42
0.0
  0
LINE
  5
116
100
AcDbEntity
  8
0
370
    -3
  6
Continuous
100
AcDbLine
 10
-297.541108
 20
243.730146
 30
0.0
 11
-297.541108
 21
243.16446
 31
0.0
  0
LINE
  5
117
100
AcDbEntity
  8
0
370
    -3
  6
Continuous
100
AcDbLine
 10
-288.541108
 20
243.730146
 30
0.0
 11
-288.541108
 21
243.16446
 31
0.0
  0
ELLIPSE
  5
118
100
AcDbEntity
  8
0
370
    -3
  6
Continuous
100
AcDbEllipse
 10
-293.041108
 20
243.16446
 30
0.0
 11
5.0
 21
0.0
 31
0.0
210
0.0
220
0.0
230
1.0
 40
0.707107
 41
0.0
 42
0.7392718269404981
  0
ELLIPSE
  5
119
100
AcDbEntity
  8
0
370
    -3
  6
Continuous
100
AcDbEllipse
 10
-293.041108
 20
243.16446
 30
0.0
 11
5.0
 21
0.0
 31
0.0
210
0.0
220
0.0
230
1.0
 40
0.707107
 41
2.4023208266490501
 42
3.1415926535897931
  0
ELLIPSE
  5
11A
100
AcDbEntity
  8
0
370
    -3
  6
Continuous
100
AcDbEllipse
 10
-293.041108
 20
244.266664
 30
0.0
 11
3.5
 21
0.0
 31
0.0
210
0.0
220
0.0
230
1.0
 40
0.860398
 41
0.0
 42
6.2831853071795862
  0
ELLIPSE
  5
11B
100
AcDbEntity
  8
0
370
    -3
  6
Continuous
100
AcDbEllipse
 10
-293.041108
 20
243.730146
 30
0.0
 11
4.5
 21
0.0
 31
0.0
210
0.0
220
0.0
230
1.0
 40
0.707107
 41
2.1587066623460007
 42
0.9828859912434559
  0
LINE
  5
11C
100
AcDbEntity
  8
0
370
    -3
  6
Continuous
100
AcDbLine
 10
-293.041108
 20
245.568623
 30
0.0
 11
-291.041108
 21
243.995286
 31
0.0
  0
LINE
  5
11D
100
AcDbEntity
  8
0
370
    -3
  6
Continuous
100
AcDbLine
 10
-293.041108
 20
245.568623
 30
0.0
 11
-291.111903
 21
246.779286
 31
0.0
  0
LINE
  5
11E
100
AcDbEntity
  8
0
370
    -3
  6
Continuous
100
AcDbLine
 10
-293.041108
 20
245.568623
 30
0.0
 11
-295.041108
 21
243.995286
 31
0.0
  0
LINE
  5
11F
100
AcDbEntity
  8
0
370
    -3
  6
Continuous
100
AcDbLine
 10
-293.041108
 20
245.568623
 30
0.0
 11
-294.970313
 21
246.779286
 31
0.0
  0
ARC
  5
120
100
AcDbEntity
  8
0
370
    -3
  6
Continuous
100
AcDbCircle
 10
-307.788273
 20
229.323125
 30
0.0
 40
30.8
100
AcDbArc
 50
90.0
 51
120.0
  0
ARC
  5
121
100
AcDbEntity
  8
0
370
    -3
  6
Continuous
100
AcDbCircle
 10
-336.241108
 20
244.072788
 30
0.0
 40
3.8
100
AcDbArc
 50
120.0
 51
180.0
  0
LINE
  5
122
100
AcDbEntity
  8
0
370
    -3
  6
Continuous
100
AcDbLine
 10
-340.041108
 20
185.323125
 30
0.0
 11
-340.041108
 21
244.072788
 31
0.0
  0
LINE
  5
123
100
AcDbEntity
  8
0
370
    -3
  6
Continuous
100
AcDbLine
 10
-338.141108
 20
247.363684
 30
0.0
 11
-323.188273
 21
255.996708
 31
0.0
  0
LINE
  5
124
100
AcDbEntity
  8
0
370
    -3
  6
Continuous
100
AcDbLine
 10
-276.041108
 20
251.823125
 30
0.0
 11
-156.041108
 21
251.823125
 31
0.0
  0
LINE
  5
125
100
AcDbEntity
  8
0
370
    -3
  6
Continuous
100
AcDbLine
 10
-276.041108
 20
256.323125
 30
0.0
 11
-156.041108
 21
256.323125
 31
0.0
  0
LINE
  5
126
100
AcDbEntity
  8
0
370
    -3
  6
Continuous
100
AcDbLine
 10
-276.041108
 20
254.823125
 30
0.0
 11
-156.041108
 21
254.823125
 31
0.0
  0
LINE
  5
127
100
AcDbEntity
  8
0
370
    -3
  6
Continuous
100
AcDbLine
 10
-276.041108
 20
256.823125
 30
0.0
 11
-156.041108
 21
256.823125
 31
0.0
  0
LINE
  5
128
100
AcDbEntity
  8
0
370
    -3
  6
Continuous
100
AcDbLine
 10
-276.041108
 20
247.323125
 30
0.0
 11
-156.041108
 21
247.323125
 31
0.0
  0
LINE
  5
129
100
AcDbEntity
  8
0
370
    -3
  6
Continuous
100
AcDbLine
 10
-276.041108
 20
217.92292
 30
0.0
 11
-156.041108
 21
217.92292
 31
0.0
  0
LINE
  5
12A
100
AcDbEntity
  8
0
370
    -3
  6
Continuous
100
AcDbLine
 10
-276.041108
 20
216.723331
 30
0.0
 11
-156.041108
 21
216.723331
 31
0.0
  0
LINE
  5
12B
100
AcDbEntity
  8
0
370
    -3
  6
Continuous
100
AcDbLine
 10
-276.041108
 20
209.323125
 30
0.0
 11
-156.041108
 21
209.323125
 31
0.0
  0
LINE
  5
12C
100
AcDbEntity
  8
0
370
    -3
  6
Continuous
100
AcDbLine
 10
-276.041108
 20
161.323125
 30
0.0
 11
-156.041108
 21
161.323125
 31
0.0
  0
LINE
  5
12D
100
AcDbEntity
  8
0
370
    -3
  6
Continuous
100
AcDbLine
 10
-276.041108
 20
260.123125
 30
0.0
 11
-307.788273
 21
260.123125
 31
0.0
  0
LINE
  5
12E
100
AcDbEntity
  8
0
370
    -3
  6
Continuous
100
AcDbLine
 10
-276.041108
 20
260.123125
 30
0.0
 11
-276.041108
 21
110.523125
 31
0.0
  0
LINE
  5
12F
100
AcDbEntity
  8
0
370
    -3
  6
Continuous
100
AcDbLine
 10
-276.041108
 20
241.174747
 30
0.0
 11
-156.041108
 21
241.174747
 31
0.0
  0
LINE
  5
130
100
AcDbEntity
  8
0
370
    -3
  6
Continuous
100
AcDbLine
 10
-276.041108
 20
234.2451
 30
0.0
 11
-156.041108
 21
234.2451
 31
0.0
  0
LINE
  5
131
100
AcDbEntity
  8
0
370
    -3
  6
Continuous
100
AcDbLine
 10
-276.041108
 20
136.401151
 30
0.0
 11
-156.041108
 21
136.401151
 31
0.0
  0
LINE
  5
132
100
AcDbEntity
  8
0
370
    -3
  6
Continuous
100
AcDbLine
 10
-276.041108
 20
129.471504
 30
0.0
 11
-156.041108
 21
129.471504
 31
0.0
  0
LINE
  5
133
100
AcDbEntity
  8
0
370
    -3
  6
Continuous
100
AcDbLine
 10
-156.041108
 20
145.92292
 30
0.0
 11
-276.041108
 21
145.92292
 31
0.0
  0
LINE
  5
134
100
AcDbEntity
  8
0
370
    -3
  6
Continuous
100
AcDbLine
 10
-156.041108
 20
144.723331
 30
0.0
 11
-276.041108
 21
144.723331
 31
0.0
  0
LINE
  5
135
100
AcDbEntity
  8
0
370
    -3
  6
Continuous
100
AcDbLine
 10
-276.041108
 20
152.723331
 30
0.0
 11
-156.041108
 21
152.723331
 31
0.0
  0
LINE
  5
136
100
AcDbEntity
  8
0
370
    -3
  6
Continuous
100
AcDbLine
 10
-276.041108
 20
153.92292
 30
0.0
 11
-156.041108
 21
153.92292
 31
0.0
  0
LINE
  5
137
100
AcDbEntity
  8
0
370
    -3
  6
Continuous
100
AcDbLine
 10
-293.041108
 20
125.077627
 30
0.0
 11
-294.970313
 21
123.866965
 31
0.0
  0
LINE
  5
138
100
AcDbEntity
  8
0
370
    -3
  6
Continuous
100
AcDbLine
 10
-293.041108
 20
125.077627
 30
0.0
 11
-295.041108
 21
126.650965
 31
0.0
  0
LINE
  5
139
100
AcDbEntity
  8
0
370
    -3
  6
Continuous
100
AcDbLine
 10
-293.041108
 20
125.077627
 30
0.0
 11
-291.111903
 21
123.866965
 31
0.0
  0
LINE
  5
13A
100
AcDbEntity
  8
0
370
    -3
  6
Continuous
100
AcDbLine
 10
-293.041108
 20
125.077627
 30
0.0
 11
-291.041108
 21
126.650965
 31
0.0
  0
ELLIPSE
  5
13B
100
AcDbEntity
  8
0
370
    -3
  6
Continuous
100
AcDbEllipse
 10
-293.041108
 20
126.916105
 30
0.0
 11
4.5
 21
0.0
 31
0.0
210
0.0
220
0.0
230
1.0
 40
0.707107
 41
5.3002993159361305
 42
4.1244786448335855
  0
ELLIPSE
  5
13C
100
AcDbEntity
  8
0
370
    -3
  6
Continuous
100
AcDbEllipse
 10
-293.041108
 20
126.379587
 30
0.0
 11
3.5
 21
0.0
 31
0.0
210
0.0
220
0.0
230
1.0
 40
0.860398
 41
0.0
 42
6.2831853071795862
  0
ELLIPSE
  5
13D
100
AcDbEntity
  8
0
370
    -3
  6
Continuous
100
AcDbEllipse
 10
-293.041108
 20
127.481791
 30
0.0
 11
5.0
 21
0.0
 31
0.0
210
0.0
220
0.0
230
1.0
 40
0.707107
 41
3.1415926535897931
 42
3.8808644805305361
  0
ELLIPSE
  5
13E
100
AcDbEntity
  8
0
370
    -3
  6
Continuous
100
AcDbEllipse
 10
-293.041108
 20
127.481791
 30
0.0
 11
5.0
 21
0.0
 31
0.0
210
0.0
220
0.0
230
1.0
 40
0.707107
 41
5.5439134802390884
 42
0.0
  0
LINE
  5
13F
100
AcDbEntity
  8
0
370
    -3
  6
Continuous
100
AcDbLine
 10
-288.541108
 20
126.916105
 30
0.0
 11
-288.541108
 21
127.481791
 31
0.0
  0
LINE
  5
140
100
AcDbEntity
  8
0
370
    -3
  6
Continuous
100
AcDbLine
 10
-297.541108
 20
126.916105
 30
0.0
 11
-297.541108
 21
127.481791
 31
0.0
  0
ELLIPSE
  5
141
100
AcDbEntity
  8
0
370
    -3
  6
Continuous
100
AcDbEllipse
 10
-293.041108
 20
127.481791
 30
0.0
 11
4.5
 21
0.0
 31
0.0
210
0.0
220
0.0
230
1.0
 40
0.707107
 41
0.0
 42
3.1415926535897931
  0
LINE
  5
142
100
AcDbEntity
  8
0
370
    -3
  6
Continuous
100
AcDbLine
 10
-288.041108
 20
127.481791
 30
0.0
 11
-288.041108
 21
128.298394
 31
0.0
  0
LINE
  5
143
100
AcDbEntity
  8
0
370
    -3
  6
Continuous
100
AcDbLine
 10
-298.041108
 20
127.481791
 30
0.0
 11
-298.041108
 21
128.298394
 31
0.0
  0
ELLIPSE
  5
144
100
AcDbEntity
  8
0
370
    -3
  6
Continuous
100
AcDbEllipse
 10
-293.041108
 20
128.298394
 30
0.0
 11
5.0
 21
0.0
 31
0.0
210
0.0
220
0.0
230
1.0
 40
0.707107
 41
0.0
 42
3.1415926535897931
  0
ARC
  5
145
100
AcDbEntity
  8
0
370
    -3
  6
Continuous
100
AcDbCircle
 10
-545.026002
 20
-100.536166
 30
0.0
 40
50.8
100
AcDbArc
 50
184.33985
 51
219.094568
  0
ARC
  5
146
100
AcDbEntity
  8
0
370
    -3
  6
Continuous
100
AcDbCircle
 10
-521.742816
 20
-81.618099
 30
0.0
 40
80.8
100
AcDbArc
 50
219.094568
 51
230.905432
  0
ARC
  5
147
100
AcDbEntity
  8
0
370
    -3
  6
Continuous
100
AcDbCircle
 10
-540.660883
 20
-104.901285
 30
0.0
 40
50.8
100
AcDbArc
 50
230.905432
 51
265.66015
  0
ARC
  5
148
100
AcDbEntity
  8
0
370
    -3
  6
Continuous
100
AcDbCircle
 10
-545.026002
 20
-100.536166
 30
0.0
 40
36.944
100
AcDbArc
 50
184.33985
 51
219.094568
  0
ARC
  5
149
100
AcDbEntity
  8
0
370
    -3
  6
Continuous
100
AcDbCircle
 10
-521.742816
 20
-81.618099
 30
0.0
 40
66.944
100
AcDbArc
 50
219.094568
 51
230.905432
  0
INSERT
  5
155
100
AcDbEntity
  8
0
100
AcDbBlockReference
  2
ZU_SYM__USERS_HOME_SYMBOL_POO_SYM_S07_-1
 10
-580.149836
 20
-140.025119
 30
0.0
 41
-1.0
 42
1.0
 50
225.0
  0
LINE
  5
156
100
AcDbEntity
  8
0
370
    -3
  6
Continuous
100
AcDbLine
 10
-575.836485
 20
-142.782835
 30
0.0
 11
-575.232014
 21
-142.178364
 31
0.0
  0
LINE
  5
157
100
AcDbEntity
  8
0
370
    -3
  6
Continuous
100
AcDbLine
 10
-576.260749
 20
-142.782835
 30
0.0
 11
-582.907553
 21
-136.136032
 31
0.0
  0
ARC
  5
158
100
AcDbEntity
  8
0
370
    -3
  6
Continuous
100
AcDbCircle
 10
-582.695421
 20
-135.9239
 30
0.0
 40
0.3
100
AcDbArc
 50
135.0
 51
225.0
  0
LINE
  5
159
100
AcDbEntity
  8
0
370
    -3
  6
Continuous
100
AcDbLine
 10
-582.907553
 20
-135.711768
 30
0.0
 11
-582.303081
 21
-135.107296
 31
0.0
  0
LINE
  5
15A
100
AcDbEntity
  8
0
370
    -3
  6
Continuous
100
AcDbLine
 10
-576.967856
 20
-143.207099
 30
0.0
 11
-576.40217
 21
-142.641414
 31
0.0
  0
LINE
  5
15B
100
AcDbEntity
  8
0
370
    -3
  6
Continuous
100
AcDbLine
 10
-578.629557
 20
-141.545399
 30
0.0
 11
-576.967856
 21
-143.207099
 31
0.0
  0
LINE
  5
15C
100
AcDbEntity
  8
0
370
    -3
  6
Continuous
100
AcDbLine
 10
-583.331817
 20
-136.843138
 30
0.0
 11
-582.766131
 21
-136.277453
 31
0.0
  0
LINE
  5
15D
100
AcDbEntity
  8
0
370
    -3
  6
Continuous
100
AcDbLine
 10
-581.670116
 20
-138.504839
 30
0.0
 11
-583.331817
 21
-136.843138
 31
0.0
  0
ARC
  5
15E
100
AcDbEntity
  8
0
370
    -3
  6
Continuous
100
AcDbCircle
 10
-576.048617
 20
-142.570703
 30
0.0
 40
0.3
100
AcDbArc
 50
225.0
 51
315.0
  0
ARC
  5
15F
100
AcDbEntity
  8
0
370
    -3
  6
Continuous
100
AcDbCircle
 10
-502.824749
 20
-104.901285
 30
0.0
 40
36.944
100
AcDbArc
 50
274.33985
 51
309.094568
  0
ARC
  5
160
100
AcDbEntity
  8
0
370
    -3
  6
Continuous
100
AcDbCircle
 10
-521.742816
 20
-81.618099
 30
0.0
 40
66.944
100
AcDbArc
 50
309.094568
 51
320.905432
  0
ARC
  5
161
100
AcDbEntity
  8
0
370
    -3
  6
Continuous
100
AcDbCircle
 10
-498.45963
 20
-100.536166
 30
0.0
 40
50.8
100
AcDbArc
 50
320.905432
 51
355.66015
  0
ARC
  5
162
100
AcDbEntity
  8
0
370
    -3
  6
Continuous
100
AcDbCircle
 10
-521.742816
 20
-81.618099
 30
0.0
 40
80.8
100
AcDbArc
 50
309.094568
 51
320.905432
  0
ARC
  5
163
100
AcDbEntity
  8
0
370
    -3
  6
Continuous
100
AcDbCircle
 10
-502.824749
 20
-104.901285
 30
0.0
 40
50.8
100
AcDbArc
 50
274.33985
 51
309.094568
  0
INSERT
  5
16F
100
AcDbEntity
  8
0
100
AcDbBlockReference
  2
ZU_SYM__USERS_HOME_SYMBOL_POO_SYM_S07_00001-1
 10
-463.335796
 20
-140.025119
 30
0.0
 41
1.0
 42
1.0
 50
135.0
  0
LINE
  5
170
100
AcDbEntity
  8
0
370
    -3
  6
Continuous
100
AcDbLine
 10
-467.224883
 20
-142.782835
 30
0.0
 11
-460.57808
 21
-136.136032
 31
0.0
  0
ARC
  5
171
100
AcDbEntity
  8
0
370
    -3
  6
Continuous
100
AcDbCircle
 10
-460.790212
 20
-135.9239
 30
0.0
 40
0.3
100
AcDbArc
 50
315.0
 51
45.0
  0
LINE
  5
172
100
AcDbEntity
  8
0
370
    -3
  6
Continuous
100
AcDbLine
 10
-460.57808
 20
-135.711768
 30
0.0
 11
-461.182551
 21
-135.107296
 31
0.0
  0
LINE
  5
173
100
AcDbEntity
  8
0
370
    -3
  6
Continuous
100
AcDbLine
 10
-466.517776
 20
-143.207099
 30
0.0
 11
-467.083462
 21
-142.641414
 31
0.0
  0
LINE
  5
174
100
AcDbEntity
  8
0
370
    -3
  6
Continuous
100
AcDbLine
 10
-464.856076
 20
-141.545399
 30
0.0
 11
-466.517776
 21
-143.207099
 31
0.0
  0
LINE
  5
175
100
AcDbEntity
  8
0
370
    -3
  6
Continuous
100
AcDbLine
 10
-460.153815
 20
-136.843138
 30
0.0
 11
-460.719501
 21
-136.277453
 31
0.0
  0
LINE
  5
176
100
AcDbEntity
  8
0
370
    -3
  6
Continuous
100
AcDbLine
 10
-461.815516
 20
-138.504839
 30
0.0
 11
-460.153815
 21
-136.843138
 31
0.0
  0
ARC
  5
177
100
AcDbEntity
  8
0
370
    -3
  6
Continuous
100
AcDbCircle
 10
-467.437015
 20
-142.570703
 30
0.0
 40
0.3
100
AcDbArc
 50
225.0
 51
315.0
  0
LINE
  5
178
100
AcDbEntity
  8
0
370
    -3
  6
Continuous
100
AcDbLine
 10
-467.649147
 20
-142.782835
 30
0.0
 11
-468.253619
 21
-142.178364
 31
0.0
  0
ARC
  5
179
100
AcDbEntity
  8
0
370
    -3
  6
Continuous
100
AcDbCircle
 10
-498.45963
 20
-62.700032
 30
0.0
 40
50.8
100
AcDbArc
 50
4.33985
 51
39.094568
  0
ARC
  5
17A
100
AcDbEntity
  8
0
370
    -3
  6
Continuous
100
AcDbCircle
 10
-521.742816
 20
-81.618099
 30
0.0
 40
80.8
100
AcDbArc
 50
39.094568
 51
50.905432
  0
ARC
  5
17B
100
AcDbEntity
  8
0
370
    -3
  6
Continuous
100
AcDbCircle
 10
-502.824749
 20
-58.334913
 30
0.0
 40
50.8
100
AcDbArc
 50
50.905432
 51
85.66015
  0
ARC
  5
17C
100
AcDbEntity
  8
0
370
    -3
  6
Continuous
100
AcDbCircle
 10
-498.45963
 20
-62.700032
 30
0.0
 40
36.944
100
AcDbArc
 50
4.33985
 51
39.094568
  0
ARC
  5
17D
100
AcDbEntity
  8
0
370
    -3
  6
Continuous
100
AcDbCircle
 10
-521.742816
 20
-81.618099
 30
0.0
 40
66.944
100
AcDbArc
 50
39.094568
 51
50.905432
  0
ARC
  5
17E
100
AcDbEntity
  8
0
370
    -3
  6
Continuous
100
AcDbCircle
 10
-502.824749
 20
-58.334913
 30
0.0
 40
36.944
100
AcDbArc
 50
50.905432
 51
85.66015
  0
INSERT
  5
18A
100
AcDbEntity
  8
0
100
AcDbBlockReference
  2
ZU_SYM__USERS_HOME_SYMBOL_POO_SYM_S07_00002-1
 10
-463.335796
 20
-23.211079
 30
0.0
 41
-1.0
 42
1.0
 50
45.0
  0
ARC
  5
18B
100
AcDbEntity
  8
0
370
    -3
  6
Continuous
100
AcDbCircle
 10
-460.790212
 20
-27.312298
 30
0.0
 40
0.3
100
AcDbArc
 50
315.0
 51
45.0
  0
LINE
  5
18C
100
AcDbEntity
  8
0
370
    -3
  6
Continuous
100
AcDbLine
 10
-460.57808
 20
-27.52443
 30
0.0
 11
-461.182551
 21
-28.128901
 31
0.0
  0
LINE
  5
18D
100
AcDbEntity
  8
0
370
    -3
  6
Continuous
100
AcDbLine
 10
-460.153815
 20
-26.393059
 30
0.0
 11
-460.719501
 21
-26.958745
 31
0.0
  0
LINE
  5
18E
100
AcDbEntity
  8
0
370
    -3
  6
Continuous
100
AcDbLine
 10
-467.224883
 20
-20.453362
 30
0.0
 11
-460.57808
 21
-27.100166
 31
0.0
  0
LINE
  5
18F
100
AcDbEntity
  8
0
370
    -3
  6
Continuous
100
AcDbLine
 10
-466.517776
 20
-20.029098
 30
0.0
 11
-467.083462
 21
-20.594784
 31
0.0
  0
LINE
  5
190
100
AcDbEntity
  8
0
370
    -3
  6
Continuous
100
AcDbLine
 10
-464.856076
 20
-21.690799
 30
0.0
 11
-466.517776
 21
-20.029098
 31
0.0
  0
LINE
  5
191
100
AcDbEntity
  8
0
370
    -3
  6
Continuous
100
AcDbLine
 10
-461.815516
 20
-24.731358
 30
0.0
 11
-460.153815
 21
-26.393059
 31
0.0
  0
ARC
  5
192
100
AcDbEntity
  8
0
370
    -3
  6
Continuous
100
AcDbCircle
 10
-467.437015
 20
-20.665494
 30
0.0
 40
0.3
100
AcDbArc
 50
45.0
 51
135.0
  0
LINE
  5
193
100
AcDbEntity
  8
0
370
    -3
  6
Continuous
100
AcDbLine
 10
-467.649147
 20
-20.453362
 30
0.0
 11
-468.253619
 21
-21.057833
 31
0.0
  0
ARC
  5
194
100
AcDbEntity
  8
0
370
    -3
  6
Continuous
100
AcDbCircle
 10
-582.695421
 20
-27.312298
 30
0.0
 40
0.3
100
AcDbArc
 50
135.0
 51
225.0
  0
LINE
  5
195
100
AcDbEntity
  8
0
370
    -3
  6
Continuous
100
AcDbLine
 10
-582.907553
 20
-27.52443
 30
0.0
 11
-582.303081
 21
-28.128901
 31
0.0
  0
LINE
  5
196
100
AcDbEntity
  8
0
370
    -3
  6
Continuous
100
AcDbLine
 10
-583.331817
 20
-26.393059
 30
0.0
 11
-582.766131
 21
-26.958745
 31
0.0
  0
LINE
  5
197
100
AcDbEntity
  8
0
370
    -3
  6
Continuous
100
AcDbLine
 10
-581.670116
 20
-24.731358
 30
0.0
 11
-583.331817
 21
-26.393059
 31
0.0
  0
LINE
  5
198
100
AcDbEntity
  8
0
370
    -3
  6
Continuous
100
AcDbLine
 10
-575.836485
 20
-20.453362
 30
0.0
 11
-575.232014
 21
-21.057833
 31
0.0
  0
ARC
  5
199
100
AcDbEntity
  8
0
370
    -3
  6
Continuous
100
AcDbCircle
 10
-576.048617
 20
-20.665494
 30
0.0
 40
0.3
100
AcDbArc
 50
45.0
 51
135.0
  0
LINE
  5
19A
100
AcDbEntity
  8
0
370
    -3
  6
Continuous
100
AcDbLine
 10
-576.967856
 20
-20.029098
 30
0.0
 11
-576.40217
 21
-20.594784
 31
0.0
  0
LINE
  5
19B
100
AcDbEntity
  8
0
370
    -3
  6
Continuous
100
AcDbLine
 10
-578.629557
 20
-21.690799
 30
0.0
 11
-576.967856
 21
-20.029098
 31
0.0
  0
ARC
  5
19C
100
AcDbEntity
  8
0
370
    -3
  6
Continuous
100
AcDbCircle
 10
-521.742816
 20
-81.618099
 30
0.0
 40
80.8
100
AcDbArc
 50
129.094568
 51
140.905432
  0
INSERT
  5
1A8
100
AcDbEntity
  8
0
100
AcDbBlockReference
  2
ZU_SYM__USERS_HOME_SYMBOL_POO_SYM_S07_00003-1
 10
-580.149836
 20
-23.211079
 30
0.0
 41
1.0
 42
1.0
 50
315.0
  0
LINE
  5
1A9
100
AcDbEntity
  8
0
370
    -3
  6
Continuous
100
AcDbLine
 10
-576.260749
 20
-20.453362
 30
0.0
 11
-582.907553
 21
-27.100166
 31
0.0
  0
LINE
  5
1AA
100
AcDbEntity
  8
0
370
    -3
  6
Continuous
100
AcDbLine
 10
-535.185623
 20
-99.901724
 30
0.0
 11
-534.163975
 21
-98.132178
 31
0.0
  0
LINE
  5
1AB
100
AcDbEntity
  8
0
370
    -3
  6
Continuous
100
AcDbLine
 10
-533.522035
 20
-85.118099
 30
0.0
 11
-531.269096
 21
-85.118099
 31
0.0
  0
ARC
  5
1AC
100
AcDbEntity
  8
0
370
    -3
  6
Continuous
100
AcDbCircle
 10
-521.742816
 20
-81.618099
 30
0.0
 40
15.0
100
AcDbArc
 50
205.028999
 51
219.747753
  0
ARC
  5
1AD
100
AcDbEntity
  8
0
370
    -3
  6
Continuous
100
AcDbCircle
 10
-521.742816
 20
-81.618099
 30
0.0
 40
9.0
100
AcDbArc
 50
210.0
 51
215.85226
  0
LINE
  5
1AE
100
AcDbEntity
  8
0
370
    -3
  6
Continuous
100
AcDbLine
 10
-530.006035
 20
-90.930414
 30
0.0
 11
-528.926595
 21
-89.060768
 31
0.0
  0
ARC
  5
1AF
100
AcDbEntity
  8
0
370
    -3
  6
Continuous
100
AcDbCircle
 10
-521.742816
 20
-81.618099
 30
0.0
 40
35.0
100
AcDbArc
 50
127.83748
 51
170.405932
  0
LINE
  5
1B0
100
AcDbEntity
  8
0
370
    -3
  6
Continuous
100
AcDbLine
 10
-554.281255
 20
-78.118099
 30
0.0
 11
-552.251012
 21
-78.118099
 31
0.0
  0
LINE
  5
1B1
100
AcDbEntity
  8
0
370
    -3
  6
Continuous
100
AcDbLine
 10
-564.389621
 20
-78.118099
 30
0.0
 11
-562.372239
 21
-78.118099
 31
0.0
  0
ARC
  5
1B2
100
AcDbEntity
  8
0
370
    -3
  6
Continuous
100
AcDbCircle
 10
-521.742816
 20
-81.618099
 30
0.0
 40
39.0
100
AcDbArc
 50
126.301256
 51
172.29074
  0
ARC
  5
1B3
100
AcDbEntity
  8
0
370
    -3
  6
Continuous
100
AcDbCircle
 10
-521.742816
 20
-81.618099
 30
0.0
 40
45.0
100
AcDbArc
 50
126.007069
 51
172.651339
  0
ARC
  5
1B4
100
AcDbEntity
  8
0
370
    -3
  6
Continuous
100
AcDbCircle
 10
-521.742816
 20
-81.618099
 30
0.0
 40
55.0
100
AcDbArc
 50
124.8706
 51
174.043488
  0
LINE
  5
1B5
100
AcDbEntity
  8
0
370
    -3
  6
Continuous
100
AcDbLine
 10
-574.456666
 20
-78.118099
 30
0.0
 11
-572.44538
 21
-78.118099
 31
0.0
  0
ARC
  5
1B6
100
AcDbEntity
  8
0
370
    -3
  6
Continuous
100
AcDbCircle
 10
-521.742816
 20
-81.618099
 30
0.0
 40
49.0
100
AcDbArc
 50
125.062093
 51
173.809003
  0
LINE
  5
1B7
100
AcDbEntity
  8
0
370
    -3
  6
Continuous
100
AcDbLine
 10
-550.312188
 20
-37.134495
 30
0.0
 11
-549.308421
 21
-38.873071
 31
0.0
  0
LINE
  5
1B8
100
AcDbEntity
  8
0
370
    -3
  6
Continuous
100
AcDbLine
 10
-545.289823
 20
-45.833487
 30
0.0
 11
-544.28403
 21
-47.575571
 31
0.0
  0
ARC
  5
1B9
100
AcDbEntity
  8
0
370
    -3
  6
Continuous
100
AcDbCircle
 10
-552.251012
 20
-87.118099
 30
0.0
 40
2.0
100
AcDbArc
 50
10.21948
 51
90.0
  0
ARC
  5
1BA
100
AcDbEntity
  8
0
370
    -3
  6
Continuous
100
AcDbCircle
 10
-521.742816
 20
-81.618099
 30
0.0
 40
29.0
100
AcDbArc
 50
128.346619
 51
169.78052
  0
ARC
  5
1BB
100
AcDbEntity
  8
0
370
    -3
  6
Continuous
100
AcDbCircle
 10
-544.075528
 20
-87.118099
 30
0.0
 40
2.0
100
AcDbArc
 50
90.0
 51
193.835224
  0
LINE
  5
1BC
100
AcDbEntity
  8
0
370
    -3
  6
Continuous
100
AcDbLine
 10
-540.253751
 20
-54.55622
 30
0.0
 11
-539.243704
 21
-56.305672
 31
0.0
  0
ARC
  5
1BD
100
AcDbEntity
  8
0
370
    -3
  6
Continuous
100
AcDbCircle
 10
-542.009784
 20
-87.118099
 30
0.0
 40
2.0
100
AcDbArc
 50
15.183114
 51
90.0
  0
LINE
  5
1BE
100
AcDbEntity
  8
0
370
    -3
  6
Continuous
100
AcDbLine
 10
-544.075528
 20
-78.118099
 30
0.0
 11
-542.009784
 21
-78.118099
 31
0.0
  0
ARC
  5
1BF
100
AcDbEntity
  8
0
370
    -3
  6
Continuous
100
AcDbCircle
 10
-533.522035
 20
-87.118099
 30
0.0
 40
2.0
100
AcDbArc
 50
90.0
 51
205.028999
  0
ARC
  5
1C0
100
AcDbEntity
  8
0
370
    -3
  6
Continuous
100
AcDbCircle
 10
-521.742816
 20
-81.618099
 30
0.0
 40
25.0
100
AcDbArc
 50
131.282824
 51
166.164776
  0
ARC
  5
1C1
100
AcDbEntity
  8
0
370
    -3
  6
Continuous
100
AcDbCircle
 10
-531.269096
 20
-87.118099
 30
0.0
 40
2.0
100
AcDbArc
 50
30.0
 51
90.0
  0
ARC
  5
1C2
100
AcDbEntity
  8
0
370
    -3
  6
Continuous
100
AcDbCircle
 10
-521.742816
 20
-81.618099
 30
0.0
 40
19.0
100
AcDbArc
 50
132.373625
 51
164.816886
  0
ARC
  5
1C3
100
AcDbEntity
  8
0
370
    -3
  6
Continuous
100
AcDbCircle
 10
-531.269096
 20
-76.118099
 30
0.0
 40
2.0
100
AcDbArc
 50
270.0
 51
330.0
  0
LINE
  5
1C4
100
AcDbEntity
  8
0
370
    -3
  6
Continuous
100
AcDbLine
 10
-535.185623
 20
-63.334474
 30
0.0
 11
-534.163975
 21
-65.10402
 31
0.0
  0
ARC
  5
1C5
100
AcDbEntity
  8
0
370
    -3
  6
Continuous
100
AcDbCircle
 10
-533.522035
 20
-76.118099
 30
0.0
 40
2.0
100
AcDbArc
 50
154.971001
 51
270.0
  0
LINE
  5
1C6
100
AcDbEntity
  8
0
370
    -3
  6
Continuous
100
AcDbLine
 10
-533.522035
 20
-78.118099
 30
0.0
 11
-531.269096
 21
-78.118099
 31
0.0
  0
ARC
  5
1C7
100
AcDbEntity
  8
0
370
    -3
  6
Continuous
100
AcDbCircle
 10
-542.009784
 20
-76.118099
 30
0.0
 40
2.0
100
AcDbArc
 50
270.0
 51
344.816886
  0
ARC
  5
1C8
100
AcDbEntity
  8
0
370
    -3
  6
Continuous
100
AcDbCircle
 10
-521.742816
 20
-81.618099
 30
0.0
 40
15.0
100
AcDbArc
 50
140.252247
 51
154.971001
  0
ARC
  5
1C9
100
AcDbEntity
  8
0
370
    -3
  6
Continuous
100
AcDbCircle
 10
-544.075528
 20
-76.118099
 30
0.0
 40
2.0
100
AcDbArc
 50
166.164776
 51
270.0
  0
ARC
  5
1CA
100
AcDbEntity
  8
0
370
    -3
  6
Continuous
100
AcDbCircle
 10
-521.742816
 20
-81.618099
 30
0.0
 40
9.0
100
AcDbArc
 50
144.14774
 51
150.0
  0
ARC
  5
1CB
100
AcDbEntity
  8
0
370
    -3
  6
Continuous
100
AcDbCircle
 10
-552.251012
 20
-76.118099
 30
0.0
 40
2.0
100
AcDbArc
 50
270.0
 51
349.78052
  0
LINE
  5
1CC
100
AcDbEntity
  8
0
370
    -3
  6
Continuous
100
AcDbLine
 10
-530.006035
 20
-72.305784
 30
0.0
 11
-528.926595
 21
-74.175429
 31
0.0
  0
ARC
  5
1CD
100
AcDbEntity
  8
0
370
    -3
  6
Continuous
100
AcDbCircle
 10
-554.281255
 20
-76.118099
 30
0.0
 40
2.0
100
AcDbArc
 50
170.405932
 51
270.0
  0
ARC
  5
1CE
100
AcDbEntity
  8
0
370
    -3
  6
Continuous
100
AcDbCircle
 10
-521.742816
 20
-81.618099
 30
0.0
 40
35.0
100
AcDbArc
 50
247.83748
 51
290.405932
  0
ARC
  5
1CF
100
AcDbEntity
  8
0
370
    -3
  6
Continuous
100
AcDbCircle
 10
-562.372239
 20
-76.118099
 30
0.0
 40
2.0
100
AcDbArc
 50
270.0
 51
352.29074
  0
LINE
  5
1D0
100
AcDbEntity
  8
0
370
    -3
  6
Continuous
100
AcDbLine
 10
-508.504686
 20
-111.547213
 30
0.0
 11
-509.519807
 21
-109.788971
 31
0.0
  0
ARC
  5
1D1
100
AcDbEntity
  8
0
370
    -3
  6
Continuous
100
AcDbCircle
 10
-564.389621
 20
-76.118099
 30
0.0
 40
2.0
100
AcDbArc
 50
172.651339
 51
270.0
  0
LINE
  5
1D2
100
AcDbEntity
  8
0
370
    -3
  6
Continuous
100
AcDbLine
 10
-503.450502
 20
-120.301316
 30
0.0
 11
-504.459194
 21
-118.554211
 31
0.0
  0
ARC
  5
1D3
100
AcDbEntity
  8
0
370
    -3
  6
Continuous
100
AcDbCircle
 10
-572.44538
 20
-76.118099
 30
0.0
 40
2.0
100
AcDbArc
 50
270.0
 51
353.809003
  0
ARC
  5
1D4
100
AcDbEntity
  8
0
370
    -3
  6
Continuous
100
AcDbCircle
 10
-521.742816
 20
-81.618099
 30
0.0
 40
39.0
100
AcDbArc
 50
246.301256
 51
292.29074
  0
ARC
  5
1D5
100
AcDbEntity
  8
0
370
    -3
  6
Continuous
100
AcDbCircle
 10
-574.456666
 20
-76.118099
 30
0.0
 40
2.0
100
AcDbArc
 50
174.043488
 51
270.0
  0
ARC
  5
1D6
100
AcDbEntity
  8
0
370
    -3
  6
Continuous
100
AcDbCircle
 10
-521.742816
 20
-81.618099
 30
0.0
 40
45.0
100
AcDbArc
 50
246.007069
 51
292.651339
  0
ARC
  5
1D7
100
AcDbEntity
  8
0
370
    -3
  6
Continuous
100
AcDbCircle
 10
-552.044239
 20
-38.134495
 30
0.0
 40
2.0
100
AcDbArc
 50
30.0
 51
124.8706
  0
ARC
  5
1D8
100
AcDbEntity
  8
0
370
    -3
  6
Continuous
100
AcDbCircle
 10
-521.742816
 20
-81.618099
 30
0.0
 40
55.0
100
AcDbArc
 50
244.8706
 51
294.043488
  0
ARC
  5
1D9
100
AcDbEntity
  8
0
370
    -3
  6
Continuous
100
AcDbCircle
 10
-551.040472
 20
-39.873071
 30
0.0
 40
2.0
100
AcDbArc
 50
305.062093
 51
30.0
  0
LINE
  5
1DA
100
AcDbEntity
  8
0
370
    -3
  6
Continuous
100
AcDbLine
 10
-498.41698
 20
-129.019632
 30
0.0
 11
-499.422623
 21
-127.277807
 31
0.0
  0
ARC
  5
1DB
100
AcDbEntity
  8
0
370
    -3
  6
Continuous
100
AcDbCircle
 10
-547.021874
 20
-46.833487
 30
0.0
 40
2.0
100
AcDbArc
 50
30.0
 51
126.007069
  0
ARC
  5
1DC
100
AcDbEntity
  8
0
370
    -3
  6
Continuous
100
AcDbCircle
 10
-521.742816
 20
-81.618099
 30
0.0
 40
49.0
100
AcDbArc
 50
245.062093
 51
293.809003
  0
ARC
  5
1DD
100
AcDbEntity
  8
0
370
    -3
  6
Continuous
100
AcDbCircle
 10
-546.016081
 20
-48.575571
 30
0.0
 40
2.0
100
AcDbArc
 50
306.301256
 51
30.0
  0
ARC
  5
1DE
100
AcDbEntity
  8
0
370
    -3
  6
Continuous
100
AcDbCircle
 10
-521.742816
 20
-81.618099
 30
0.0
 40
29.0
100
AcDbArc
 50
248.346619
 51
289.78052
  0
ARC
  5
1DF
100
AcDbEntity
  8
0
370
    -3
  6
Continuous
100
AcDbCircle
 10
-541.985801
 20
-55.55622
 30
0.0
 40
2.0
100
AcDbArc
 50
30.0
 51
127.83748
  0
LINE
  5
1E0
100
AcDbEntity
  8
0
370
    -3
  6
Continuous
100
AcDbLine
 10
-513.607549
 20
-102.708794
 30
0.0
 11
-514.640421
 21
-100.919808
 31
0.0
  0
ARC
  5
1E1
100
AcDbEntity
  8
0
370
    -3
  6
Continuous
100
AcDbCircle
 10
-540.975754
 20
-57.305672
 30
0.0
 40
2.0
100
AcDbArc
 50
308.346619
 51
30.0
  0
ARC
  5
1E2
100
AcDbEntity
  8
0
370
    -3
  6
Continuous
100
AcDbCircle
 10
-521.742816
 20
-81.618099
 30
0.0
 40
25.0
100
AcDbArc
 50
251.282824
 51
286.164776
  0
ARC
  5
1E3
100
AcDbEntity
  8
0
370
    -3
  6
Continuous
100
AcDbCircle
 10
-536.917674
 20
-64.334474
 30
0.0
 40
2.0
100
AcDbArc
 50
30.0
 51
131.282824
  0
ARC
  5
1E4
100
AcDbEntity
  8
0
370
    -3
  6
Continuous
100
AcDbCircle
 10
-521.742816
 20
-81.618099
 30
0.0
 40
19.0
100
AcDbArc
 50
252.373625
 51
284.816886
  0
ARC
  5
1E5
100
AcDbEntity
  8
0
370
    -3
  6
Continuous
100
AcDbCircle
 10
-535.896026
 20
-66.10402
 30
0.0
 40
2.0
100
AcDbArc
 50
312.373625
 51
30.0
  0
LINE
  5
1E6
100
AcDbEntity
  8
0
370
    -3
  6
Continuous
100
AcDbLine
 10
-518.884296
 20
-93.569202
 30
0.0
 11
-520.010765
 21
-91.618099
 31
0.0
  0
ARC
  5
1E7
100
AcDbEntity
  8
0
370
    -3
  6
Continuous
100
AcDbCircle
 10
-531.738086
 20
-73.305784
 30
0.0
 40
2.0
100
AcDbArc
 50
30.0
 51
140.252247
  0
ARC
  5
1E8
100
AcDbEntity
  8
0
370
    -3
  6
Continuous
100
AcDbCircle
 10
-521.742816
 20
-81.618099
 30
0.0
 40
15.0
100
AcDbArc
 50
260.252247
 51
274.971001
  0
ARC
  5
1E9
100
AcDbEntity
  8
0
370
    -3
  6
Continuous
100
AcDbCircle
 10
-521.742816
 20
-81.618099
 30
0.0
 40
9.0
100
AcDbArc
 50
264.14774
 51
270.0
  0
ARC
  5
1EA
100
AcDbEntity
  8
0
370
    -3
  6
Continuous
100
AcDbCircle
 10
-530.658645
 20
-75.175429
 30
0.0
 40
2.0
100
AcDbArc
 50
324.14774
 51
30.0
  0
LINE
  5
1EB
100
AcDbEntity
  8
0
370
    -3
  6
Continuous
100
AcDbLine
 10
-525.675908
 20
-93.430414
 30
0.0
 11
-524.596468
 21
-91.560768
 31
0.0
  0
ARC
  5
1EC
100
AcDbEntity
  8
0
370
    -3
  6
Continuous
100
AcDbCircle
 10
-522.864417
 20
-70.675429
 30
0.0
 40
2.0
100
AcDbArc
 50
210.0
 51
275.85226
  0
LINE
  5
1ED
100
AcDbEntity
  8
0
370
    -3
  6
Continuous
100
AcDbLine
 10
-530.855496
 20
-102.401724
 30
0.0
 11
-529.833848
 21
-100.632178
 31
0.0
  0
ARC
  5
1EE
100
AcDbEntity
  8
0
370
    -3
  6
Continuous
100
AcDbCircle
 10
-523.943857
 20
-68.805784
 30
0.0
 40
2.0
100
AcDbArc
 50
99.747753
 51
210.0
  0
LINE
  5
1EF
100
AcDbEntity
  8
0
370
    -3
  6
Continuous
100
AcDbLine
 10
-535.923624
 20
-111.179978
 30
0.0
 11
-534.913577
 21
-109.430525
 31
0.0
  0
ARC
  5
1F0
100
AcDbEntity
  8
0
370
    -3
  6
Continuous
100
AcDbCircle
 10
-528.101798
 20
-61.60402
 30
0.0
 40
2.0
100
AcDbArc
 50
210.0
 51
287.626375
  0
LINE
  5
1F1
100
AcDbEntity
  8
0
370
    -3
  6
Continuous
100
AcDbLine
 10
-540.959696
 20
-119.902711
 30
0.0
 11
-539.953903
 21
-118.160626
 31
0.0
  0
LINE
  5
1F2
100
AcDbEntity
  8
0
370
    -3
  6
Continuous
100
AcDbLine
 10
-545.982061
 20
-128.601702
 30
0.0
 11
-544.978294
 21
-126.863127
 31
0.0
  0
ARC
  5
1F3
100
AcDbEntity
  8
0
370
    -3
  6
Continuous
100
AcDbCircle
 10
-521.742816
 20
-81.618099
 30
0.0
 40
35.0
100
AcDbArc
 50
69.594068
 51
112.16252
  0
LINE
  5
1F4
100
AcDbEntity
  8
0
370
    -3
  6
Continuous
100
AcDbLine
 10
-508.504686
 20
-51.688984
 30
0.0
 11
-509.519807
 21
-53.447226
 31
0.0
  0
LINE
  5
1F5
100
AcDbEntity
  8
0
370
    -3
  6
Continuous
100
AcDbLine
 10
-503.450502
 20
-42.934882
 30
0.0
 11
-504.459194
 21
-44.681987
 31
0.0
  0
ARC
  5
1F6
100
AcDbEntity
  8
0
370
    -3
  6
Continuous
100
AcDbCircle
 10
-521.742816
 20
-81.618099
 30
0.0
 40
39.0
100
AcDbArc
 50
67.70926
 51
113.698744
  0
ARC
  5
1F7
100
AcDbEntity
  8
0
370
    -3
  6
Continuous
100
AcDbCircle
 10
-521.742816
 20
-81.618099
 30
0.0
 40
45.0
100
AcDbArc
 50
67.348661
 51
113.992931
  0
ARC
  5
1F8
100
AcDbEntity
  8
0
370
    -3
  6
Continuous
100
AcDbCircle
 10
-521.742816
 20
-81.618099
 30
0.0
 40
55.0
100
AcDbArc
 50
65.956512
 51
115.1294
  0
LINE
  5
1F9
100
AcDbEntity
  8
0
370
    -3
  6
Continuous
100
AcDbLine
 10
-498.41698
 20
-34.216565
 30
0.0
 11
-499.422623
 21
-35.95839
 31
0.0
  0
ARC
  5
1FA
100
AcDbEntity
  8
0
370
    -3
  6
Continuous
100
AcDbCircle
 10
-521.742816
 20
-81.618099
 30
0.0
 40
49.0
100
AcDbArc
 50
66.190997
 51
114.937907
  0
ARC
  5
1FB
100
AcDbEntity
  8
0
370
    -3
  6
Continuous
100
AcDbCircle
 10
-521.742816
 20
-81.618099
 30
0.0
 40
29.0
100
AcDbArc
 50
70.21948
 51
111.653381
  0
LINE
  5
1FC
100
AcDbEntity
  8
0
370
    -3
  6
Continuous
100
AcDbLine
 10
-513.607549
 20
-60.527403
 30
0.0
 11
-514.640421
 21
-62.31639
 31
0.0
  0
ARC
  5
1FD
100
AcDbEntity
  8
0
370
    -3
  6
Continuous
100
AcDbCircle
 10
-521.742816
 20
-81.618099
 30
0.0
 40
25.0
100
AcDbArc
 50
73.835224
 51
108.717176
  0
ARC
  5
1FE
100
AcDbEntity
  8
0
370
    -3
  6
Continuous
100
AcDbCircle
 10
-521.742816
 20
-81.618099
 30
0.0
 40
19.0
100
AcDbArc
 50
75.183114
 51
107.626375
  0
LINE
  5
1FF
100
AcDbEntity
  8
0
370
    -3
  6
Continuous
100
AcDbLine
 10
-518.884296
 20
-69.666996
 30
0.0
 11
-520.010765
 21
-71.618099
 31
0.0
  0
ARC
  5
200
100
AcDbEntity
  8
0
370
    -3
  6
Continuous
100
AcDbCircle
 10
-521.742816
 20
-81.618099
 30
0.0
 40
15.0
100
AcDbArc
 50
85.028999
 51
99.747753
  0
ARC
  5
201
100
AcDbEntity
  8
0
370
    -3
  6
Continuous
100
AcDbCircle
 10
-521.742816
 20
-81.618099
 30
0.0
 40
9.0
100
AcDbArc
 50
90.0
 51
95.85226
  0
LINE
  5
202
100
AcDbEntity
  8
0
370
    -3
  6
Continuous
100
AcDbLine
 10
-525.675908
 20
-69.805784
 30
0.0
 11
-524.596468
 21
-71.675429
 31
0.0
  0
LINE
  5
203
100
AcDbEntity
  8
0
370
    -3
  6
Continuous
100
AcDbLine
 10
-530.855496
 20
-60.834474
 30
0.0
 11
-529.833848
 21
-62.60402
 31
0.0
  0
LINE
  5
204
100
AcDbEntity
  8
0
370
    -3
  6
Continuous
100
AcDbLine
 10
-535.923624
 20
-52.05622
 30
0.0
 11
-534.913577
 21
-53.805672
 31
0.0
  0
LINE
  5
205
100
AcDbEntity
  8
0
370
    -3
  6
Continuous
100
AcDbLine
 10
-540.959696
 20
-43.333487
 30
0.0
 11
-539.953903
 21
-45.075571
 31
0.0
  0
LINE
  5
206
100
AcDbEntity
  8
0
370
    -3
  6
Continuous
100
AcDbLine
 10
-545.982061
 20
-34.634495
 30
0.0
 11
-544.978294
 21
-36.373071
 31
0.0
  0
ARC
  5
207
100
AcDbEntity
  8
0
370
    -3
  6
Continuous
100
AcDbCircle
 10
-545.026002
 20
-62.700032
 30
0.0
 40
50.8
100
AcDbArc
 50
140.905432
 51
175.66015
  0
ARC
  5
208
100
AcDbEntity
  8
0
370
    -3
  6
Continuous
100
AcDbCircle
 10
-540.660883
 20
-58.334913
 30
0.0
 40
50.8
100
AcDbArc
 50
94.33985
 51
129.094568
  0
ARC
  5
209
100
AcDbEntity
  8
0
370
    -3
  6
Continuous
100
AcDbCircle
 10
-521.742816
 20
-307.618099
 30
0.0
 40
300.8
100
AcDbArc
 50
85.66015
 51
94.33985
  0
ARC
  5
20A
100
AcDbEntity
  8
0
370
    -3
  6
Continuous
100
AcDbCircle
 10
-295.742816
 20
-81.618099
 30
0.0
 40
300.8
100
AcDbArc
 50
175.66015
 51
184.33985
  0
ARC
  5
20B
100
AcDbEntity
  8
0
370
    -3
  6
Continuous
100
AcDbCircle
 10
-295.742816
 20
-81.618099
 30
0.0
 40
286.944
100
AcDbArc
 50
175.66015
 51
184.33985
  0
ARC
  5
20C
100
AcDbEntity
  8
0
370
    -3
  6
Continuous
100
AcDbCircle
 10
-540.660883
 20
-104.901285
 30
0.0
 40
36.944
100
AcDbArc
 50
230.905432
 51
265.66015
  0
ARC
  5
20D
100
AcDbEntity
  8
0
370
    -3
  6
Continuous
100
AcDbCircle
 10
-529.123445
 20
-59.834474
 30
0.0
 40
2.0
100
AcDbArc
 50
108.717176
 51
210.0
  0
ARC
  5
20E
100
AcDbEntity
  8
0
370
    -3
  6
Continuous
100
AcDbCircle
 10
-521.742816
 20
144.381901
 30
0.0
 40
286.944
100
AcDbArc
 50
265.66015
 51
274.33985
  0
ARC
  5
20F
100
AcDbEntity
  8
0
370
    -3
  6
Continuous
100
AcDbCircle
 10
-533.181526
 20
-52.805672
 30
0.0
 40
2.0
100
AcDbArc
 50
210.0
 51
291.653381
  0
ARC
  5
210
100
AcDbEntity
  8
0
370
    -3
  6
Continuous
100
AcDbCircle
 10
-534.191573
 20
-51.05622
 30
0.0
 40
2.0
100
AcDbArc
 50
112.16252
 51
210.0
  0
ARC
  5
211
100
AcDbEntity
  8
0
370
    -3
  6
Continuous
100
AcDbCircle
 10
-498.45963
 20
-100.536166
 30
0.0
 40
36.944
100
AcDbArc
 50
320.905432
 51
355.66015
  0
ARC
  5
212
100
AcDbEntity
  8
0
370
    -3
  6
Continuous
100
AcDbCircle
 10
-538.221852
 20
-44.075571
 30
0.0
 40
2.0
100
AcDbArc
 50
210.0
 51
293.698744
  0
LINE
  5
213
100
AcDbEntity
  8
0
370
    -3
  6
CENTER
100
AcDbLine
 10
-438.162103
 20
-81.618099
 30
0.0
 11
-601.800368
 21
-81.618099
 31
0.0
  0
ARC
  5
214
100
AcDbEntity
  8
0
370
    -3
  6
Continuous
100
AcDbCircle
 10
-747.742816
 20
-81.618099
 30
0.0
 40
286.944
100
AcDbArc
 50
355.66015
 51
4.33985
  0
ARC
  5
215
100
AcDbEntity
  8
0
370
    -3
  6
Continuous
100
AcDbCircle
 10
-539.227645
 20
-42.333487
 30
0.0
 40
2.0
100
AcDbArc
 50
113.992931
 51
210.0
  0
LINE
  5
216
100
AcDbEntity
  8
0
370
    -3
  6
CENTER
100
AcDbLine
 10
-521.742816
 20
35.934735
 30
0.0
 11
-521.742816
 21
-166.140251
 31
0.0
  0
ARC
  5
217
100
AcDbEntity
  8
0
370
    -3
  6
Continuous
100
AcDbCircle
 10
-543.246243
 20
-35.373071
 30
0.0
 40
2.0
100
AcDbArc
 50
210.0
 51
294.937907
  0
ARC
  5
218
100
AcDbEntity
  8
0
370
    -3
  6
Continuous
100
AcDbCircle
 10
-544.25001
 20
-33.634495
 30
0.0
 40
2.0
100
AcDbArc
 50
115.1294
 51
210.0
  0
ARC
  5
219
100
AcDbEntity
  8
0
370
    -3
  6
Continuous
100
AcDbCircle
 10
-500.149031
 20
-33.216565
 30
0.0
 40
2.0
100
AcDbArc
 50
330.0
 51
65.956512
  0
ARC
  5
21A
100
AcDbEntity
  8
0
370
    -3
  6
Continuous
100
AcDbCircle
 10
-521.742816
 20
-307.618099
 30
0.0
 40
286.944
100
AcDbArc
 50
85.66015
 51
94.33985
  0
ARC
  5
21B
100
AcDbEntity
  8
0
370
    -3
  6
Continuous
100
AcDbCircle
 10
-501.154674
 20
-34.95839
 30
0.0
 40
2.0
100
AcDbArc
 50
246.190997
 51
330.0
  0
ARC
  5
21C
100
AcDbEntity
  8
0
370
    -3
  6
Continuous
100
AcDbCircle
 10
-540.660883
 20
-58.334913
 30
0.0
 40
36.944
100
AcDbArc
 50
94.33985
 51
129.094568
  0
ARC
  5
21D
100
AcDbEntity
  8
0
370
    -3
  6
Continuous
100
AcDbCircle
 10
-505.182553
 20
-41.934882
 30
0.0
 40
2.0
100
AcDbArc
 50
330.0
 51
67.348661
  0
ARC
  5
21E
100
AcDbEntity
  8
0
370
    -3
  6
Continuous
100
AcDbCircle
 10
-521.742816
 20
-81.618099
 30
0.0
 40
66.944
100
AcDbArc
 50
129.094568
 51
140.905432
  0
ARC
  5
21F
100
AcDbEntity
  8
0
370
    -3
  6
Continuous
100
AcDbCircle
 10
-506.191244
 20
-43.681987
 30
0.0
 40
2.0
100
AcDbArc
 50
247.70926
 51
330.0
  0
ARC
  5
220
100
AcDbEntity
  8
0
370
    -3
  6
Continuous
100
AcDbCircle
 10
-545.026002
 20
-62.700032
 30
0.0
 40
36.944
100
AcDbArc
 50
140.905432
 51
175.66015
  0
ARC
  5
221
100
AcDbEntity
  8
0
370
    -3
  6
Continuous
100
AcDbCircle
 10
-510.236736
 20
-50.688984
 30
0.0
 40
2.0
100
AcDbArc
 50
330.0
 51
69.594068
  0
ARC
  5
222
100
AcDbEntity
  8
0
370
    -3
  6
Continuous
100
AcDbCircle
 10
-511.251858
 20
-52.447226
 30
0.0
 40
2.0
100
AcDbArc
 50
250.21948
 51
330.0
  0
ARC
  5
223
100
AcDbEntity
  8
0
370
    -3
  6
Continuous
100
AcDbCircle
 10
-515.3396
 20
-59.527403
 30
0.0
 40
2.0
100
AcDbArc
 50
330.0
 51
73.835224
  0
ARC
  5
224
100
AcDbEntity
  8
0
370
    -3
  6
Continuous
100
AcDbCircle
 10
-516.372472
 20
-61.31639
 30
0.0
 40
2.0
100
AcDbArc
 50
255.183114
 51
330.0
  0
ARC
  5
225
100
AcDbEntity
  8
0
370
    -3
  6
Continuous
100
AcDbCircle
 10
-520.616346
 20
-68.666996
 30
0.0
 40
2.0
100
AcDbArc
 50
330.0
 51
85.028999
  0
ARC
  5
226
100
AcDbEntity
  8
0
370
    -3
  6
Continuous
100
AcDbCircle
 10
-469.028966
 20
-87.118099
 30
0.0
 40
2.0
100
AcDbArc
 50
354.043488
 51
90.0
  0
ARC
  5
227
100
AcDbEntity
  8
0
370
    -3
  6
Continuous
100
AcDbCircle
 10
-521.742816
 20
-70.618099
 30
0.0
 40
2.0
100
AcDbArc
 50
270.0
 51
330.0
  0
ARC
  5
228
100
AcDbEntity
  8
0
370
    -3
  6
Continuous
100
AcDbCircle
 10
-471.040252
 20
-87.118099
 30
0.0
 40
2.0
100
AcDbArc
 50
90.0
 51
173.809003
  0
ARC
  5
229
100
AcDbEntity
  8
0
370
    -3
  6
Continuous
100
AcDbCircle
 10
-512.826987
 20
-75.175429
 30
0.0
 40
2.0
100
AcDbArc
 50
150.0
 51
215.85226
  0
ARC
  5
22A
100
AcDbEntity
  8
0
370
    -3
  6
Continuous
100
AcDbCircle
 10
-479.096011
 20
-87.118099
 30
0.0
 40
2.0
100
AcDbArc
 50
352.651339
 51
90.0
  0
ARC
  5
22B
100
AcDbEntity
  8
0
370
    -3
  6
Continuous
100
AcDbCircle
 10
-511.747546
 20
-73.305784
 30
0.0
 40
2.0
100
AcDbArc
 50
39.747753
 51
150.0
  0
ARC
  5
22C
100
AcDbEntity
  8
0
370
    -3
  6
Continuous
100
AcDbCircle
 10
-481.113393
 20
-87.118099
 30
0.0
 40
2.0
100
AcDbArc
 50
90.0
 51
172.29074
  0
ARC
  5
22D
100
AcDbEntity
  8
0
370
    -3
  6
Continuous
100
AcDbCircle
 10
-507.589606
 20
-66.10402
 30
0.0
 40
2.0
100
AcDbArc
 50
150.0
 51
227.626375
  0
ARC
  5
22E
100
AcDbEntity
  8
0
370
    -3
  6
Continuous
100
AcDbCircle
 10
-489.204377
 20
-87.118099
 30
0.0
 40
2.0
100
AcDbArc
 50
350.405932
 51
90.0
  0
ARC
  5
22F
100
AcDbEntity
  8
0
370
    -3
  6
Continuous
100
AcDbCircle
 10
-506.567958
 20
-64.334474
 30
0.0
 40
2.0
100
AcDbArc
 50
48.717176
 51
150.0
  0
ARC
  5
230
100
AcDbEntity
  8
0
370
    -3
  6
Continuous
100
AcDbCircle
 10
-491.23462
 20
-87.118099
 30
0.0
 40
2.0
100
AcDbArc
 50
90.0
 51
169.78052
  0
ARC
  5
231
100
AcDbEntity
  8
0
370
    -3
  6
Continuous
100
AcDbCircle
 10
-502.509878
 20
-57.305672
 30
0.0
 40
2.0
100
AcDbArc
 50
150.0
 51
231.653381
  0
ARC
  5
232
100
AcDbEntity
  8
0
370
    -3
  6
Continuous
100
AcDbCircle
 10
-499.410105
 20
-87.118099
 30
0.0
 40
2.0
100
AcDbArc
 50
346.164776
 51
90.0
  0
ARC
  5
233
100
AcDbEntity
  8
0
370
    -3
  6
Continuous
100
AcDbCircle
 10
-501.499831
 20
-55.55622
 30
0.0
 40
2.0
100
AcDbArc
 50
52.16252
 51
150.0
  0
ARC
  5
234
100
AcDbEntity
  8
0
370
    -3
  6
Continuous
100
AcDbCircle
 10
-501.475848
 20
-87.118099
 30
0.0
 40
2.0
100
AcDbArc
 50
90.0
 51
164.816886
  0
ARC
  5
235
100
AcDbEntity
  8
0
370
    -3
  6
Continuous
100
AcDbCircle
 10
-497.469551
 20
-48.575571
 30
0.0
 40
2.0
100
AcDbArc
 50
150.0
 51
233.698744
  0
ARC
  5
236
100
AcDbEntity
  8
0
370
    -3
  6
Continuous
100
AcDbCircle
 10
-509.963597
 20
-87.118099
 30
0.0
 40
2.0
100
AcDbArc
 50
334.971001
 51
90.0
  0
ARC
  5
237
100
AcDbEntity
  8
0
370
    -3
  6
Continuous
100
AcDbCircle
 10
-496.463758
 20
-46.833487
 30
0.0
 40
2.0
100
AcDbArc
 50
53.992931
 51
150.0
  0
ARC
  5
238
100
AcDbEntity
  8
0
370
    -3
  6
Continuous
100
AcDbCircle
 10
-512.216537
 20
-87.118099
 30
0.0
 40
2.0
100
AcDbArc
 50
90.0
 51
150.0
  0
ARC
  5
239
100
AcDbEntity
  8
0
370
    -3
  6
Continuous
100
AcDbCircle
 10
-492.44516
 20
-39.873071
 30
0.0
 40
2.0
100
AcDbArc
 50
150.0
 51
234.937907
  0
ARC
  5
23A
100
AcDbEntity
  8
0
370
    -3
  6
Continuous
100
AcDbCircle
 10
-512.826987
 20
-88.060768
 30
0.0
 40
2.0
100
AcDbArc
 50
144.14774
 51
210.0
  0
ARC
  5
23B
100
AcDbEntity
  8
0
370
    -3
  6
Continuous
100
AcDbCircle
 10
-491.441393
 20
-38.134495
 30
0.0
 40
2.0
100
AcDbArc
 50
55.1294
 51
150.0
  0
ARC
  5
23C
100
AcDbEntity
  8
0
370
    -3
  6
Continuous
100
AcDbCircle
 10
-511.747546
 20
-89.930414
 30
0.0
 40
2.0
100
AcDbArc
 50
210.0
 51
320.252247
  0
ARC
  5
23D
100
AcDbEntity
  8
0
370
    -3
  6
Continuous
100
AcDbCircle
 10
-512.216537
 20
-76.118099
 30
0.0
 40
2.0
100
AcDbArc
 50
210.0
 51
270.0
  0
ARC
  5
23E
100
AcDbEntity
  8
0
370
    -3
  6
Continuous
100
AcDbCircle
 10
-507.589606
 20
-97.132178
 30
0.0
 40
2.0
100
AcDbArc
 50
132.373625
 51
210.0
  0
ARC
  5
23F
100
AcDbEntity
  8
0
370
    -3
  6
Continuous
100
AcDbCircle
 10
-509.963597
 20
-76.118099
 30
0.0
 40
2.0
100
AcDbArc
 50
270.0
 51
25.028999
  0
ARC
  5
240
100
AcDbEntity
  8
0
370
    -3
  6
Continuous
100
AcDbCircle
 10
-506.567958
 20
-98.901724
 30
0.0
 40
2.0
100
AcDbArc
 50
210.0
 51
311.282824
  0
ARC
  5
241
100
AcDbEntity
  8
0
370
    -3
  6
Continuous
100
AcDbCircle
 10
-501.475848
 20
-76.118099
 30
0.0
 40
2.0
100
AcDbArc
 50
195.183114
 51
270.0
  0
ARC
  5
242
100
AcDbEntity
  8
0
370
    -3
  6
Continuous
100
AcDbCircle
 10
-502.509878
 20
-105.930525
 30
0.0
 40
2.0
100
AcDbArc
 50
128.346619
 51
210.0
  0
ARC
  5
243
100
AcDbEntity
  8
0
370
    -3
  6
Continuous
100
AcDbCircle
 10
-499.410105
 20
-76.118099
 30
0.0
 40
2.0
100
AcDbArc
 50
270.0
 51
13.835224
  0
ARC
  5
244
100
AcDbEntity
  8
0
370
    -3
  6
Continuous
100
AcDbCircle
 10
-501.499831
 20
-107.679978
 30
0.0
 40
2.0
100
AcDbArc
 50
210.0
 51
307.83748
  0
ARC
  5
245
100
AcDbEntity
  8
0
370
    -3
  6
Continuous
100
AcDbCircle
 10
-491.23462
 20
-76.118099
 30
0.0
 40
2.0
100
AcDbArc
 50
190.21948
 51
270.0
  0
ARC
  5
246
100
AcDbEntity
  8
0
370
    -3
  6
Continuous
100
AcDbCircle
 10
-497.469551
 20
-114.660626
 30
0.0
 40
2.0
100
AcDbArc
 50
126.301256
 51
210.0
  0
ARC
  5
247
100
AcDbEntity
  8
0
370
    -3
  6
Continuous
100
AcDbCircle
 10
-489.204377
 20
-76.118099
 30
0.0
 40
2.0
100
AcDbArc
 50
270.0
 51
9.594068
  0
ARC
  5
248
100
AcDbEntity
  8
0
370
    -3
  6
Continuous
100
AcDbCircle
 10
-496.463758
 20
-116.402711
 30
0.0
 40
2.0
100
AcDbArc
 50
210.0
 51
306.007069
  0
ARC
  5
249
100
AcDbEntity
  8
0
370
    -3
  6
Continuous
100
AcDbCircle
 10
-481.113393
 20
-76.118099
 30
0.0
 40
2.0
100
AcDbArc
 50
187.70926
 51
270.0
  0
ARC
  5
24A
100
AcDbEntity
  8
0
370
    -3
  6
Continuous
100
AcDbCircle
 10
-492.44516
 20
-123.363127
 30
0.0
 40
2.0
100
AcDbArc
 50
125.062093
 51
210.0
  0
ARC
  5
24B
100
AcDbEntity
  8
0
370
    -3
  6
Continuous
100
AcDbCircle
 10
-479.096011
 20
-76.118099
 30
0.0
 40
2.0
100
AcDbArc
 50
270.0
 51
7.348661
  0
ARC
  5
24C
100
AcDbEntity
  8
0
370
    -3
  6
Continuous
100
AcDbCircle
 10
-491.441393
 20
-125.101702
 30
0.0
 40
2.0
100
AcDbArc
 50
210.0
 51
304.8706
  0
ARC
  5
24D
100
AcDbEntity
  8
0
370
    -3
  6
Continuous
100
AcDbCircle
 10
-471.040252
 20
-76.118099
 30
0.0
 40
2.0
100
AcDbArc
 50
186.190997
 51
270.0
  0
ARC
  5
24E
100
AcDbEntity
  8
0
370
    -3
  6
Continuous
100
AcDbCircle
 10
-500.149031
 20
-130.019632
 30
0.0
 40
2.0
100
AcDbArc
 50
294.043488
 51
30.0
  0
ARC
  5
24F
100
AcDbEntity
  8
0
370
    -3
  6
Continuous
100
AcDbCircle
 10
-501.154674
 20
-128.277807
 30
0.0
 40
2.0
100
AcDbArc
 50
30.0
 51
113.809003
  0
ARC
  5
250
100
AcDbEntity
  8
0
370
    -3
  6
Continuous
100
AcDbCircle
 10
-505.182553
 20
-121.301316
 30
0.0
 40
2.0
100
AcDbArc
 50
292.651339
 51
30.0
  0
ARC
  5
251
100
AcDbEntity
  8
0
370
    -3
  6
Continuous
100
AcDbCircle
 10
-506.191244
 20
-119.554211
 30
0.0
 40
2.0
100
AcDbArc
 50
30.0
 51
112.29074
  0
ARC
  5
252
100
AcDbEntity
  8
0
370
    -3
  6
Continuous
100
AcDbCircle
 10
-510.236736
 20
-112.547213
 30
0.0
 40
2.0
100
AcDbArc
 50
290.405932
 51
30.0
  0
ARC
  5
253
100
AcDbEntity
  8
0
370
    -3
  6
Continuous
100
AcDbCircle
 10
-511.251858
 20
-110.788971
 30
0.0
 40
2.0
100
AcDbArc
 50
30.0
 51
109.78052
  0
ARC
  5
254
100
AcDbEntity
  8
0
370
    -3
  6
Continuous
100
AcDbCircle
 10
-515.3396
 20
-103.708794
 30
0.0
 40
2.0
100
AcDbArc
 50
286.164776
 51
30.0
  0
ARC
  5
255
100
AcDbEntity
  8
0
370
    -3
  6
Continuous
100
AcDbCircle
 10
-516.372472
 20
-101.919808
 30
0.0
 40
2.0
100
AcDbArc
 50
30.0
 51
104.816886
  0
ARC
  5
256
100
AcDbEntity
  8
0
370
    -3
  6
Continuous
100
AcDbCircle
 10
-520.616346
 20
-94.569202
 30
0.0
 40
2.0
100
AcDbArc
 50
274.971001
 51
30.0
  0
ARC
  5
257
100
AcDbEntity
  8
0
370
    -3
  6
Continuous
100
AcDbCircle
 10
-521.742816
 20
-92.618099
 30
0.0
 40
2.0
100
AcDbArc
 50
30.0
 51
90.0
  0
ARC
  5
258
100
AcDbEntity
  8
0
370
    -3
  6
Continuous
100
AcDbCircle
 10
-522.864417
 20
-92.560768
 30
0.0
 40
2.0
100
AcDbArc
 50
84.14774
 51
150.0
  0
ARC
  5
259
100
AcDbEntity
  8
0
370
    -3
  6
Continuous
100
AcDbCircle
 10
-523.943857
 20
-94.430414
 30
0.0
 40
2.0
100
AcDbArc
 50
150.0
 51
260.252247
  0
ARC
  5
25A
100
AcDbEntity
  8
0
370
    -3
  6
Continuous
100
AcDbCircle
 10
-528.101798
 20
-101.632178
 30
0.0
 40
2.0
100
AcDbArc
 50
72.373625
 51
150.0
  0
ARC
  5
25B
100
AcDbEntity
  8
0
370
    -3
  6
Continuous
100
AcDbCircle
 10
-529.123445
 20
-103.401724
 30
0.0
 40
2.0
100
AcDbArc
 50
150.0
 51
251.282824
  0
ARC
  5
25C
100
AcDbEntity
  8
0
370
    -3
  6
Continuous
100
AcDbCircle
 10
-533.181526
 20
-110.430525
 30
0.0
 40
2.0
100
AcDbArc
 50
68.346619
 51
150.0
  0
ARC
  5
25D
100
AcDbEntity
  8
0
370
    -3
  6
Continuous
100
AcDbCircle
 10
-534.191573
 20
-112.179978
 30
0.0
 40
2.0
100
AcDbArc
 50
150.0
 51
247.83748
  0
ARC
  5
25E
100
AcDbEntity
  8
0
370
    -3
  6
Continuous
100
AcDbCircle
 10
-538.221852
 20
-119.160626
 30
0.0
 40
2.0
100
AcDbArc
 50
66.301256
 51
150.0
  0
ARC
  5
25F
100
AcDbEntity
  8
0
370
    -3
  6
Continuous
100
AcDbCircle
 10
-539.227645
 20
-120.902711
 30
0.0
 40
2.0
100
AcDbArc
 50
150.0
 51
246.007069
  0
ARC
  5
260
100
AcDbEntity
  8
0
370
    -3
  6
Continuous
100
AcDbCircle
 10
-543.246243
 20
-127.863127
 30
0.0
 40
2.0
100
AcDbArc
 50
65.062093
 51
150.0
  0
ARC
  5
261
100
AcDbEntity
  8
0
370
    -3
  6
Continuous
100
AcDbCircle
 10
-544.25001
 20
-129.601702
 30
0.0
 40
2.0
100
AcDbArc
 50
150.0
 51
244.8706
  0
ARC
  5
262
100
AcDbEntity
  8
0
370
    -3
  6
Continuous
100
AcDbCircle
 10
-530.658645
 20
-88.060768
 30
0.0
 40
2.0
100
AcDbArc
 50
330.0
 51
35.85226
  0
ARC
  5
263
100
AcDbEntity
  8
0
370
    -3
  6
Continuous
100
AcDbCircle
 10
-531.738086
 20
-89.930414
 30
0.0
 40
2.0
100
AcDbArc
 50
219.747753
 51
330.0
  0
ARC
  5
264
100
AcDbEntity
  8
0
370
    -3
  6
Continuous
100
AcDbCircle
 10
-535.896026
 20
-97.132178
 30
0.0
 40
2.0
100
AcDbArc
 50
330.0
 51
47.626375
  0
ARC
  5
265
100
AcDbEntity
  8
0
370
    -3
  6
Continuous
100
AcDbCircle
 10
-536.917674
 20
-98.901724
 30
0.0
 40
2.0
100
AcDbArc
 50
228.717176
 51
330.0
  0
ARC
  5
266
100
AcDbEntity
  8
0
370
    -3
  6
Continuous
100
AcDbCircle
 10
-540.975754
 20
-105.930525
 30
0.0
 40
2.0
100
AcDbArc
 50
330.0
 51
51.653381
  0
ARC
  5
267
100
AcDbEntity
  8
0
370
    -3
  6
Continuous
100
AcDbCircle
 10
-541.985801
 20
-107.679978
 30
0.0
 40
2.0
100
AcDbArc
 50
232.16252
 51
330.0
  0
ARC
  5
268
100
AcDbEntity
  8
0
370
    -3
  6
Continuous
100
AcDbCircle
 10
-546.016081
 20
-114.660626
 30
0.0
 40
2.0
100
AcDbArc
 50
330.0
 51
53.698744
  0
ARC
  5
269
100
AcDbEntity
  8
0
370
    -3
  6
Continuous
100
AcDbCircle
 10
-547.021874
 20
-116.402711
 30
0.0
 40
2.0
100
AcDbArc
 50
233.992931
 51
330.0
  0
ARC
  5
26A
100
AcDbEntity
  8
0
370
    -3
  6
Continuous
100
AcDbCircle
 10
-551.040472
 20
-123.363127
 30
0.0
 40
2.0
100
AcDbArc
 50
330.0
 51
54.937907
  0
ARC
  5
26B
100
AcDbEntity
  8
0
370
    -3
  6
Continuous
100
AcDbCircle
 10
-552.044239
 20
-125.101702
 30
0.0
 40
2.0
100
AcDbArc
 50
235.1294
 51
330.0
  0
ARC
  5
26C
100
AcDbEntity
  8
0
370
    -3
  6
Continuous
100
AcDbCircle
 10
-574.456666
 20
-87.118099
 30
0.0
 40
2.0
100
AcDbArc
 50
90.0
 51
185.956512
  0
ARC
  5
26D
100
AcDbEntity
  8
0
370
    -3
  6
Continuous
100
AcDbCircle
 10
-572.44538
 20
-87.118099
 30
0.0
 40
2.0
100
AcDbArc
 50
6.190997
 51
90.0
  0
ARC
  5
26E
100
AcDbEntity
  8
0
370
    -3
  6
Continuous
100
AcDbCircle
 10
-564.389621
 20
-87.118099
 30
0.0
 40
2.0
100
AcDbArc
 50
90.0
 51
187.348661
  0
ARC
  5
26F
100
AcDbEntity
  8
0
370
    -3
  6
Continuous
100
AcDbCircle
 10
-562.372239
 20
-87.118099
 30
0.0
 40
2.0
100
AcDbArc
 50
7.70926
 51
90.0
  0
ARC
  5
270
100
AcDbEntity
  8
0
370
    -3
  6
Continuous
100
AcDbCircle
 10
-747.742816
 20
-81.618099
 30
0.0
 40
300.8
100
AcDbArc
 50
355.66015
 51
4.33985
  0
ARC
  5
271
100
AcDbEntity
  8
0
370
    -3
  6
Continuous
100
AcDbCircle
 10
-469.028966
 20
-76.118099
 30
0.0
 40
2.0
100
AcDbArc
 50
270.0
 51
5.956512
  0
CIRCLE
  5
272
100
AcDbEntity
  8
0
370
    -3
  6
Continuous
100
AcDbCircle
 10
-521.742816
 20
-81.618099
 30
0.0
 40
5.0
  0
LINE
  5
273
100
AcDbEntity
  8
0
370
    -3
  6
Continuous
100
AcDbLine
 10
-469.028966
 20
-78.118099
 30
0.0
 11
-471.040252
 21
-78.118099
 31
0.0
  0
LINE
  5
274
100
AcDbEntity
  8
0
370
    -3
  6
Continuous
100
AcDbLine
 10
-493.173444
 20
-37.134495
 30
0.0
 11
-494.177211
 21
-38.873071
 31
0.0
  0
ARC
  5
275
100
AcDbEntity
  8
0
370
    -3
  6
Continuous
100
AcDbCircle
 10
-521.742816
 20
-81.618099
 30
0.0
 40
55.0
100
AcDbArc
 50
5.956512
 51
55.1294
  0
ARC
  5
276
100
AcDbEntity
  8
0
370
    -3
  6
Continuous
100
AcDbCircle
 10
-521.742816
 20
-81.618099
 30
0.0
 40
49.0
100
AcDbArc
 50
6.190997
 51
54.937907
  0
ARC
  5
277
100
AcDbEntity
  8
0
370
    -3
  6
Continuous
100
AcDbCircle
 10
-521.742816
 20
-81.618099
 30
0.0
 40
45.0
100
AcDbArc
 50
7.348661
 51
53.992931
  0
ARC
  5
278
100
AcDbEntity
  8
0
370
    -3
  6
Continuous
100
AcDbCircle
 10
-521.742816
 20
-81.618099
 30
0.0
 40
39.0
100
AcDbArc
 50
7.70926
 51
53.698744
  0
ARC
  5
279
100
AcDbEntity
  8
0
370
    -3
  6
Continuous
100
AcDbCircle
 10
-521.742816
 20
-81.618099
 30
0.0
 40
35.0
100
AcDbArc
 50
9.594068
 51
52.16252
  0
ARC
  5
27A
100
AcDbEntity
  8
0
370
    -3
  6
Continuous
100
AcDbCircle
 10
-521.742816
 20
-81.618099
 30
0.0
 40
29.0
100
AcDbArc
 50
10.21948
 51
51.653381
  0
ARC
  5
27B
100
AcDbEntity
  8
0
370
    -3
  6
Continuous
100
AcDbCircle
 10
-521.742816
 20
-81.618099
 30
0.0
 40
25.0
100
AcDbArc
 50
13.835224
 51
48.717176
  0
ARC
  5
27C
100
AcDbEntity
  8
0
370
    -3
  6
Continuous
100
AcDbCircle
 10
-521.742816
 20
-81.618099
 30
0.0
 40
19.0
100
AcDbArc
 50
15.183114
 51
47.626375
  0
ARC
  5
27D
100
AcDbEntity
  8
0
370
    -3
  6
Continuous
100
AcDbCircle
 10
-521.742816
 20
-81.618099
 30
0.0
 40
15.0
100
AcDbArc
 50
25.028999
 51
39.747753
  0
ARC
  5
27E
100
AcDbEntity
  8
0
370
    -3
  6
Continuous
100
AcDbCircle
 10
-521.742816
 20
-81.618099
 30
0.0
 40
9.0
100
AcDbArc
 50
30.0
 51
35.85226
  0
LINE
  5
27F
100
AcDbEntity
  8
0
370
    -3
  6
Continuous
100
AcDbLine
 10
-479.096011
 20
-78.118099
 30
0.0
 11
-481.113393
 21
-78.118099
 31
0.0
  0
LINE
  5
280
100
AcDbEntity
  8
0
370
    -3
  6
Continuous
100
AcDbLine
 10
-489.204377
 20
-78.118099
 30
0.0
 11
-491.23462
 21
-78.118099
 31
0.0
  0
LINE
  5
281
100
AcDbEntity
  8
0
370
    -3
  6
Continuous
100
AcDbLine
 10
-499.410105
 20
-78.118099
 30
0.0
 11
-501.475848
 21
-78.118099
 31
0.0
  0
LINE
  5
282
100
AcDbEntity
  8
0
370
    -3
  6
Continuous
100
AcDbLine
 10
-509.963597
 20
-78.118099
 30
0.0
 11
-512.216537
 21
-78.118099
 31
0.0
  0
LINE
  5
283
100
AcDbEntity
  8
0
370
    -3
  6
Continuous
100
AcDbLine
 10
-513.479597
 20
-72.305784
 30
0.0
 11
-514.559038
 21
-74.175429
 31
0.0
  0
LINE
  5
284
100
AcDbEntity
  8
0
370
    -3
  6
Continuous
100
AcDbLine
 10
-508.300009
 20
-63.334474
 30
0.0
 11
-509.321657
 21
-65.10402
 31
0.0
  0
LINE
  5
285
100
AcDbEntity
  8
0
370
    -3
  6
Continuous
100
AcDbLine
 10
-503.231882
 20
-54.55622
 30
0.0
 11
-504.241929
 21
-56.305672
 31
0.0
  0
LINE
  5
286
100
AcDbEntity
  8
0
370
    -3
  6
Continuous
100
AcDbLine
 10
-498.195809
 20
-45.833487
 30
0.0
 11
-499.201602
 21
-47.575571
 31
0.0
  0
ARC
  5
287
100
AcDbEntity
  8
0
370
    -3
  6
Continuous
100
AcDbCircle
 10
-521.742816
 20
-81.618099
 30
0.0
 40
35.0
100
AcDbArc
 50
307.83748
 51
350.405932
  0
LINE
  5
288
100
AcDbEntity
  8
0
370
    -3
  6
Continuous
100
AcDbLine
 10
-489.204377
 20
-85.118099
 30
0.0
 11
-491.23462
 21
-85.118099
 31
0.0
  0
LINE
  5
289
100
AcDbEntity
  8
0
370
    -3
  6
Continuous
100
AcDbLine
 10
-479.096011
 20
-85.118099
 30
0.0
 11
-481.113393
 21
-85.118099
 31
0.0
  0
ARC
  5
28A
100
AcDbEntity
  8
0
370
    -3
  6
Continuous
100
AcDbCircle
 10
-521.742816
 20
-81.618099
 30
0.0
 40
39.0
100
AcDbArc
 50
306.301256
 51
352.29074
  0
ARC
  5
28B
100
AcDbEntity
  8
0
370
    -3
  6
Continuous
100
AcDbCircle
 10
-521.742816
 20
-81.618099
 30
0.0
 40
45.0
100
AcDbArc
 50
306.007069
 51
352.651339
  0
ARC
  5
28C
100
AcDbEntity
  8
0
370
    -3
  6
Continuous
100
AcDbCircle
 10
-521.742816
 20
-81.618099
 30
0.0
 40
55.0
100
AcDbArc
 50
304.8706
 51
354.043488
  0
LINE
  5
28D
100
AcDbEntity
  8
0
370
    -3
  6
Continuous
100
AcDbLine
 10
-469.028966
 20
-85.118099
 30
0.0
 11
-471.040252
 21
-85.118099
 31
0.0
  0
ARC
  5
28E
100
AcDbEntity
  8
0
370
    -3
  6
Continuous
100
AcDbCircle
 10
-521.742816
 20
-81.618099
 30
0.0
 40
49.0
100
AcDbArc
 50
305.062093
 51
353.809003
  0
LINE
  5
28F
100
AcDbEntity
  8
0
370
    -3
  6
Continuous
100
AcDbLine
 10
-493.173444
 20
-126.101702
 30
0.0
 11
-494.177211
 21
-124.363127
 31
0.0
  0
LINE
  5
290
100
AcDbEntity
  8
0
370
    -3
  6
Continuous
100
AcDbLine
 10
-498.195809
 20
-117.402711
 30
0.0
 11
-499.201602
 21
-115.660626
 31
0.0
  0
ARC
  5
291
100
AcDbEntity
  8
0
370
    -3
  6
Continuous
100
AcDbCircle
 10
-521.742816
 20
-81.618099
 30
0.0
 40
29.0
100
AcDbArc
 50
308.346619
 51
349.78052
  0
LINE
  5
292
100
AcDbEntity
  8
0
370
    -3
  6
Continuous
100
AcDbLine
 10
-503.231882
 20
-108.679978
 30
0.0
 11
-504.241929
 21
-106.930525
 31
0.0
  0
LINE
  5
293
100
AcDbEntity
  8
0
370
    -3
  6
Continuous
100
AcDbLine
 10
-499.410105
 20
-85.118099
 30
0.0
 11
-501.475848
 21
-85.118099
 31
0.0
  0
ARC
  5
294
100
AcDbEntity
  8
0
370
    -3
  6
Continuous
100
AcDbCircle
 10
-521.742816
 20
-81.618099
 30
0.0
 40
25.0
100
AcDbArc
 50
311.282824
 51
346.164776
  0
ARC
  5
295
100
AcDbEntity
  8
0
370
    -3
  6
Continuous
100
AcDbCircle
 10
-521.742816
 20
-81.618099
 30
0.0
 40
19.0
100
AcDbArc
 50
312.373625
 51
344.816886
  0
LINE
  5
296
100
AcDbEntity
  8
0
370
    -3
  6
Continuous
100
AcDbLine
 10
-508.300009
 20
-99.901724
 30
0.0
 11
-509.321657
 21
-98.132178
 31
0.0
  0
LINE
  5
297
100
AcDbEntity
  8
0
370
    -3
  6
Continuous
100
AcDbLine
 10
-509.963597
 20
-85.118099
 30
0.0
 11
-512.216537
 21
-85.118099
 31
0.0
  0
ARC
  5
298
100
AcDbEntity
  8
0
370
    -3
  6
Continuous
100
AcDbCircle
 10
-521.742816
 20
-81.618099
 30
0.0
 40
15.0
100
AcDbArc
 50
320.252247
 51
334.971001
  0
ARC
  5
299
100
AcDbEntity
  8
0
370
    -3
  6
Continuous
100
AcDbCircle
 10
-521.742816
 20
-81.618099
 30
0.0
 40
9.0
100
AcDbArc
 50
324.14774
 51
330.0
  0
LINE
  5
29A
100
AcDbEntity
  8
0
370
    -3
  6
Continuous
100
AcDbLine
 10
-513.479597
 20
-90.930414
 30
0.0
 11
-514.559038
 21
-89.060768
 31
0.0
  0
ARC
  5
29B
100
AcDbEntity
  8
0
370
    -3
  6
Continuous
100
AcDbCircle
 10
-521.742816
 20
-81.618099
 30
0.0
 40
35.0
100
AcDbArc
 50
189.594068
 51
232.16252
  0
LINE
  5
29C
100
AcDbEntity
  8
0
370
    -3
  6
Continuous
100
AcDbLine
 10
-554.281255
 20
-85.118099
 30
0.0
 11
-552.251012
 21
-85.118099
 31
0.0
  0
LINE
  5
29D
100
AcDbEntity
  8
0
370
    -3
  6
Continuous
100
AcDbLine
 10
-564.389621
 20
-85.118099
 30
0.0
 11
-562.372239
 21
-85.118099
 31
0.0
  0
ARC
  5
29E
100
AcDbEntity
  8
0
370
    -3
  6
Continuous
100
AcDbCircle
 10
-521.742816
 20
-81.618099
 30
0.0
 40
39.0
100
AcDbArc
 50
187.70926
 51
233.698744
  0
ARC
  5
29F
100
AcDbEntity
  8
0
370
    -3
  6
Continuous
100
AcDbCircle
 10
-521.742816
 20
-81.618099
 30
0.0
 40
45.0
100
AcDbArc
 50
187.348661
 51
233.992931
  0
ARC
  5
2A0
100
AcDbEntity
  8
0
370
    -3
  6
Continuous
100
AcDbCircle
 10
-521.742816
 20
-81.618099
 30
0.0
 40
55.0
100
AcDbArc
 50
185.956512
 51
235.1294
  0
ARC
  5
2A1
100
AcDbEntity
  8
0
370
    -3
  6
Continuous
100
AcDbCircle
 10
-554.281255
 20
-87.118099
 30
0.0
 40
2.0
100
AcDbArc
 50
90.0
 51
189.594068
  0
LINE
  5
2A2
100
AcDbEntity
  8
0
370
    -3
  6
Continuous
100
AcDbLine
 10
-574.456666
 20
-85.118099
 30
0.0
 11
-572.44538
 21
-85.118099
 31
0.0
  0
ARC
  5
2A3
100
AcDbEntity
  8
0
370
    -3
  6
Continuous
100
AcDbCircle
 10
-521.742816
 20
-81.618099
 30
0.0
 40
49.0
100
AcDbArc
 50
186.190997
 51
234.937907
  0
LINE
  5
2A4
100
AcDbEntity
  8
0
370
    -3
  6
Continuous
100
AcDbLine
 10
-550.312188
 20
-126.101702
 30
0.0
 11
-549.308421
 21
-124.363127
 31
0.0
  0
LINE
  5
2A5
100
AcDbEntity
  8
0
370
    -3
  6
Continuous
100
AcDbLine
 10
-545.289823
 20
-117.402711
 30
0.0
 11
-544.28403
 21
-115.660626
 31
0.0
  0
ARC
  5
2A6
100
AcDbEntity
  8
0
370
    -3
  6
Continuous
100
AcDbCircle
 10
-521.742816
 20
-81.618099
 30
0.0
 40
29.0
100
AcDbArc
 50
190.21948
 51
231.653381
  0
LINE
  5
2A7
100
AcDbEntity
  8
0
370
    -3
  6
Continuous
100
AcDbLine
 10
-540.253751
 20
-108.679978
 30
0.0
 11
-539.243704
 21
-106.930525
 31
0.0
  0
LINE
  5
2A8
100
AcDbEntity
  8
0
370
    -3
  6
Continuous
100
AcDbLine
 10
-544.075528
 20
-85.118099
 30
0.0
 11
-542.009784
 21
-85.118099
 31
0.0
  0
ARC
  5
2A9
100
AcDbEntity
  8
0
370
    -3
  6
Continuous
100
AcDbCircle
 10
-521.742816
 20
-81.618099
 30
0.0
 40
25.0
100
AcDbArc
 50
193.835224
 51
228.717176
  0
ARC
  5
2AA
100
AcDbEntity
  8
0
370
    -3
  6
Continuous
100
AcDbCircle
 10
-521.742816
 20
-81.618099
 30
0.0
 40
19.0
100
AcDbArc
 50
195.183114
 51
227.626375
  0
ARC
  5
2AB
100
AcDbEntity
  8
0
370
    -3
  6
Continuous
100
AcDbCircle
 10
-521.742816
 20
144.381901
 30
0.0
 40
300.8
100
AcDbArc
 50
265.66015
 51
274.33985
  0
LINE
  5
2AC
100
AcDbEntity
  8
0
370
    -3
  6
Continuous
100
AcDbLine
 10
-464.239964
 20
-195.617778
 30
0.0
 11
-474.942816
 21
-196.509682
 31
0.0
  0
LINE
  5
2AD
100
AcDbEntity
  8
0
370
    -3
  6
Continuous
100
AcDbLine
 10
-464.239964
 20
-195.617778
 30
0.0
 11
-463.743418
 21
-195.078132
 31
0.0
  0
LINE
  5
2AE
100
AcDbEntity
  8
0
370
    -3
  6
Continuous
100
AcDbLine
 10
-475.742816
 20
-174.732692
 30
0.0
 11
-475.742816
 21
-147.880453
 31
0.0
  0
LINE
  5
2AF
100
AcDbEntity
  8
0
370
    -3
  6
Continuous
100
AcDbLine
 10
-463.743418
 20
-195.078132
 30
0.0
 11
-463.743418
 21
-143.502337
 31
0.0
  0
LINE
  5
2B0
100
AcDbEntity
  8
0
370
    -3
  6
Continuous
100
AcDbLine
 10
-579.242816
 20
-194.876162
 30
0.0
 11
-579.742816
 21
-194.376162
 31
0.0
  0
LINE
  5
2B1
100
AcDbEntity
  8
0
370
    -3
  6
Continuous
100
AcDbLine
 10
-570.242816
 20
-194.876162
 30
0.0
 11
-579.242816
 21
-194.876162
 31
0.0
  0
LINE
  5
2B2
100
AcDbEntity
  8
0
370
    -3
  6
Continuous
100
AcDbLine
 10
-579.742816
 20
-194.376162
 30
0.0
 11
-579.742816
 21
-143.502027
 31
0.0
  0
LINE
  5
2B3
100
AcDbEntity
  8
0
370
    -3
  6
Continuous
100
AcDbLine
 10
-568.542816
 20
-194.905993
 30
0.0
 11
-570.242816
 21
-194.876162
 31
0.0
  0
LINE
  5
2B4
100
AcDbEntity
  8
0
370
    -3
  6
Continuous
100
AcDbLine
 10
-156.041108
 20
-10.618099
 30
0.0
 11
-276.041108
 21
-10.618099
 31
0.0
  0
LINE
  5
2B5
100
AcDbEntity
  8
0
370
    -3
  6
Continuous
100
AcDbLine
 10
-156.041108
 20
-32.696124
 30
0.0
 11
-276.041108
 21
-32.696124
 31
0.0
  0
LINE
  5
2B6
100
AcDbEntity
  8
0
370
    -3
  6
Continuous
100
AcDbLine
 10
-156.041108
 20
-25.766478
 30
0.0
 11
-276.041108
 21
-25.766478
 31
0.0
  0
LINE
  5
2B7
100
AcDbEntity
  8
0
370
    -3
  6
Continuous
100
AcDbLine
 10
-156.041108
 20
-81.618099
 30
0.0
 11
-156.041108
 21
-10.118099
 31
0.0
  0
LINE
  5
2B8
100
AcDbEntity
  8
0
370
    -3
  6
Continuous
100
AcDbLine
 10
-156.041108
 20
-151.618099
 30
0.0
 11
-156.041108
 21
-81.618099
 31
0.0
  0
LINE
  5
2B9
100
AcDbEntity
  8
0
370
    -3
  6
Continuous
100
AcDbLine
 10
-156.041108
 20
-137.46972
 30
0.0
 11
-276.041108
 21
-137.46972
 31
0.0
  0
LINE
  5
2BA
100
AcDbEntity
  8
0
370
    -3
  6
Continuous
100
AcDbLine
 10
-156.041108
 20
-130.540074
 30
0.0
 11
-276.041108
 21
-130.540074
 31
0.0
  0
ARC
  5
2BB
100
AcDbEntity
  8
0
370
    -3
  6
Continuous
100
AcDbCircle
 10
-295.041108
 20
-156.335897
 30
0.0
 40
1.0
100
AcDbArc
 50
90.0
 51
180.0
  0
LINE
  5
2BC
100
AcDbEntity
  8
0
370
    -3
  6
Continuous
100
AcDbLine
 10
-295.041108
 20
-155.335897
 30
0.0
 11
-279.041108
 21
-155.335897
 31
0.0
  0
LINE
  5
2BD
100
AcDbEntity
  8
0
370
    -3
  6
Continuous
100
AcDbLine
 10
-296.041108
 20
-156.418099
 30
0.0
 11
-296.041108
 21
-156.335897
 31
0.0
  0
LINE
  5
2BE
100
AcDbEntity
  8
0
370
    -3
  6
Continuous
100
AcDbLine
 10
-296.041108
 20
-156.418099
 30
0.0
 11
-307.788273
 21
-156.418099
 31
0.0
  0
ARC
  5
2BF
100
AcDbEntity
  8
0
370
    -3
  6
Continuous
100
AcDbCircle
 10
-279.041108
 20
-152.335897
 30
0.0
 40
3.0
100
AcDbArc
 50
270.0
 51
0.0
  0
LINE
  5
2C0
100
AcDbEntity
  8
0
370
    -3
  6
Continuous
100
AcDbLine
 10
-276.041108
 20
-152.335897
 30
0.0
 11
-276.041108
 21
-81.618099
 31
0.0
  0
LINE
  5
2C1
100
AcDbEntity
  8
0
370
    -3
  6
Continuous
100
AcDbLine
 10
-293.041108
 20
-141.863597
 30
0.0
 11
-294.970313
 21
-143.074259
 31
0.0
  0
LINE
  5
2C2
100
AcDbEntity
  8
0
370
    -3
  6
Continuous
100
AcDbLine
 10
-293.041108
 20
-141.863597
 30
0.0
 11
-295.041108
 21
-140.290259
 31
0.0
  0
LINE
  5
2C3
100
AcDbEntity
  8
0
370
    -3
  6
Continuous
100
AcDbLine
 10
-293.041108
 20
-141.863597
 30
0.0
 11
-291.111903
 21
-143.074259
 31
0.0
  0
LINE
  5
2C4
100
AcDbEntity
  8
0
370
    -3
  6
Continuous
100
AcDbLine
 10
-293.041108
 20
-141.863597
 30
0.0
 11
-291.041108
 21
-140.290259
 31
0.0
  0
ELLIPSE
  5
2C5
100
AcDbEntity
  8
0
370
    -3
  6
Continuous
100
AcDbEllipse
 10
-293.041108
 20
-140.025119
 30
0.0
 11
4.5
 21
0.0
 31
0.0
210
0.0
220
0.0
230
1.0
 40
0.707107
 41
5.3002993159361305
 42
4.1244786448332489
  0
ELLIPSE
  5
2C6
100
AcDbEntity
  8
0
370
    -3
  6
Continuous
100
AcDbEllipse
 10
-293.041108
 20
-140.561637
 30
0.0
 11
3.5
 21
0.0
 31
0.0
210
0.0
220
0.0
230
1.0
 40
0.860398
 41
0.0
 42
6.2831853071795862
  0
ELLIPSE
  5
2C7
100
AcDbEntity
  8
0
370
    -3
  6
Continuous
100
AcDbEllipse
 10
-293.041108
 20
-139.459434
 30
0.0
 11
5.0
 21
0.0
 31
0.0
210
0.0
220
0.0
230
1.0
 40
0.707107
 41
3.1415926535897931
 42
3.880864480530291
  0
ELLIPSE
  5
2C8
100
AcDbEntity
  8
0
370
    -3
  6
Continuous
100
AcDbEllipse
 10
-293.041108
 20
-139.459434
 30
0.0
 11
5.0
 21
0.0
 31
0.0
210
0.0
220
0.0
230
1.0
 40
0.707107
 41
5.5439134802390884
 42
0.0
  0
LINE
  5
2C9
100
AcDbEntity
  8
0
370
    -3
  6
Continuous
100
AcDbLine
 10
-288.541108
 20
-140.025119
 30
0.0
 11
-288.541108
 21
-139.459434
 31
0.0
  0
LINE
  5
2CA
100
AcDbEntity
  8
0
370
    -3
  6
Continuous
100
AcDbLine
 10
-297.541108
 20
-140.025119
 30
0.0
 11
-297.541108
 21
-139.459434
 31
0.0
  0
ELLIPSE
  5
2CB
100
AcDbEntity
  8
0
370
    -3
  6
Continuous
100
AcDbEllipse
 10
-293.041108
 20
-139.459434
 30
0.0
 11
4.5
 21
0.0
 31
0.0
210
0.0
220
0.0
230
1.0
 40
0.707107
 41
0.0
 42
3.1415926535897931
  0
LINE
  5
2CC
100
AcDbEntity
  8
0
370
    -3
  6
Continuous
100
AcDbLine
 10
-288.041108
 20
-139.459434
 30
0.0
 11
-288.041108
 21
-138.64283
 31
0.0
  0
LINE
  5
2CD
100
AcDbEntity
  8
0
370
    -3
  6
Continuous
100
AcDbLine
 10
-298.041108
 20
-139.459434
 30
0.0
 11
-298.041108
 21
-138.64283
 31
0.0
  0
ELLIPSE
  5
2CE
100
AcDbEntity
  8
0
370
    -3
  6
Continuous
100
AcDbEllipse
 10
-293.041108
 20
-138.64283
 30
0.0
 11
5.0
 21
0.0
 31
0.0
210
0.0
220
0.0
230
1.0
 40
0.707107
 41
0.0
 42
3.1415926535897931
  0
LINE
  5
2CF
100
AcDbEntity
  8
0
370
    -3
  6
Continuous
100
AcDbLine
 10
-156.041108
 20
-104.840354
 30
0.0
 11
-276.041108
 21
-104.840354
 31
0.0
  0
LINE
  5
2D0
100
AcDbEntity
  8
0
370
    -3
  6
Continuous
100
AcDbLine
 10
-156.041108
 20
-96.861263
 30
0.0
 11
-276.041108
 21
-96.861263
 31
0.0
  0
LINE
  5
2D1
100
AcDbEntity
  8
0
370
    -3
  6
Continuous
100
AcDbLine
 10
-156.041108
 20
-98.3981
 30
0.0
 11
-276.041108
 21
-98.3981
 31
0.0
  0
LINE
  5
2D2
100
AcDbEntity
  8
0
370
    -3
  6
Continuous
100
AcDbLine
 10
-156.041108
 20
-88.881097
 30
0.0
 11
-276.041108
 21
-88.881097
 31
0.0
  0
LINE
  5
2D3
100
AcDbEntity
  8
0
370
    -3
  6
Continuous
100
AcDbLine
 10
-156.041108
 20
-90.366255
 30
0.0
 11
-276.041108
 21
-90.366255
 31
0.0
  0
LINE
  5
2D4
100
AcDbEntity
  8
0
370
    -3
  6
Continuous
100
AcDbLine
 10
-156.041108
 20
-82.347894
 30
0.0
 11
-276.041108
 21
-82.347894
 31
0.0
  0
LINE
  5
2D5
100
AcDbEntity
  8
0
370
    -3
  6
Continuous
100
AcDbLine
 10
-156.041108
 20
-106.432606
 30
0.0
 11
-276.041108
 21
-106.432606
 31
0.0
  0
LINE
  5
2D6
100
AcDbEntity
  8
0
370
    -3
  6
Continuous
100
AcDbLine
 10
-156.041108
 20
-112.828143
 30
0.0
 11
-276.041108
 21
-112.828143
 31
0.0
  0
LINE
  5
2D7
100
AcDbEntity
  8
0
370
    -3
  6
Continuous
100
AcDbLine
 10
-156.041108
 20
-114.460871
 30
0.0
 11
-276.041108
 21
-114.460871
 31
0.0
  0
LINE
  5
2D8
100
AcDbEntity
  8
0
370
    -3
  6
Continuous
100
AcDbLine
 10
-156.041108
 20
-120.818741
 30
0.0
 11
-276.041108
 21
-120.818741
 31
0.0
  0
LINE
  5
2D9
100
AcDbEntity
  8
0
370
    -3
  6
Continuous
100
AcDbLine
 10
-156.041108
 20
-122.467368
 30
0.0
 11
-276.041108
 21
-122.467368
 31
0.0
  0
LINE
  5
2DA
100
AcDbEntity
  8
0
370
    -3
  6
Continuous
100
AcDbLine
 10
-156.041108
 20
-143.618099
 30
0.0
 11
-276.041108
 21
-143.618099
 31
0.0
  0
LINE
  5
2DB
100
AcDbEntity
  8
0
370
    -3
  6
Continuous
100
AcDbLine
 10
-156.041108
 20
-148.118099
 30
0.0
 11
-276.041108
 21
-148.118099
 31
0.0
  0
LINE
  5
2DC
100
AcDbEntity
  8
0
370
    -3
  6
Continuous
100
AcDbLine
 10
-156.041108
 20
-58.395843
 30
0.0
 11
-276.041108
 21
-58.395843
 31
0.0
  0
LINE
  5
2DD
100
AcDbEntity
  8
0
370
    -3
  6
Continuous
100
AcDbLine
 10
-156.041108
 20
-66.374934
 30
0.0
 11
-276.041108
 21
-66.374934
 31
0.0
  0
LINE
  5
2DE
100
AcDbEntity
  8
0
370
    -3
  6
Continuous
100
AcDbLine
 10
-156.041108
 20
-64.838098
 30
0.0
 11
-276.041108
 21
-64.838098
 31
0.0
  0
LINE
  5
2DF
100
AcDbEntity
  8
0
370
    -3
  6
Continuous
100
AcDbLine
 10
-156.041108
 20
-74.355101
 30
0.0
 11
-276.041108
 21
-74.355101
 31
0.0
  0
LINE
  5
2E0
100
AcDbEntity
  8
0
370
    -3
  6
Continuous
100
AcDbLine
 10
-156.041108
 20
-72.869943
 30
0.0
 11
-276.041108
 21
-72.869943
 31
0.0
  0
LINE
  5
2E1
100
AcDbEntity
  8
0
370
    -3
  6
Continuous
100
AcDbLine
 10
-156.041108
 20
-80.888303
 30
0.0
 11
-276.041108
 21
-80.888303
 31
0.0
  0
LINE
  5
2E2
100
AcDbEntity
  8
0
370
    -3
  6
Continuous
100
AcDbLine
 10
-156.041108
 20
-56.803591
 30
0.0
 11
-276.041108
 21
-56.803591
 31
0.0
  0
LINE
  5
2E3
100
AcDbEntity
  8
0
370
    -3
  6
Continuous
100
AcDbLine
 10
-156.041108
 20
-50.408055
 30
0.0
 11
-276.041108
 21
-50.408055
 31
0.0
  0
LINE
  5
2E4
100
AcDbEntity
  8
0
370
    -3
  6
Continuous
100
AcDbLine
 10
-156.041108
 20
-48.775327
 30
0.0
 11
-276.041108
 21
-48.775327
 31
0.0
  0
LINE
  5
2E5
100
AcDbEntity
  8
0
370
    -3
  6
Continuous
100
AcDbLine
 10
-156.041108
 20
-42.417457
 30
0.0
 11
-276.041108
 21
-42.417457
 31
0.0
  0
LINE
  5
2E6
100
AcDbEntity
  8
0
370
    -3
  6
Continuous
100
AcDbLine
 10
-156.041108
 20
-40.76883
 30
0.0
 11
-276.041108
 21
-40.76883
 31
0.0
  0
LINE
  5
2E7
100
AcDbEntity
  8
0
370
    -3
  6
Continuous
100
AcDbLine
 10
-156.041108
 20
-19.618099
 30
0.0
 11
-276.041108
 21
-19.618099
 31
0.0
  0
LINE
  5
2E8
100
AcDbEntity
  8
0
370
    -3
  6
Continuous
100
AcDbLine
 10
-156.041108
 20
-15.118099
 30
0.0
 11
-276.041108
 21
-15.118099
 31
0.0
  0
LINE
  5
2E9
100
AcDbEntity
  8
0
370
    -3
  6
Continuous
100
AcDbLine
 10
-156.041108
 20
-12.118099
 30
0.0
 11
-276.041108
 21
-12.118099
 31
0.0
  0
LINE
  5
2EA
100
AcDbEntity
  8
0
370
    -3
  6
Continuous
100
AcDbLine
 10
-156.041108
 20
-10.118099
 30
0.0
 11
-276.041108
 21
-10.118099
 31
0.0
  0
LINE
  5
2EB
100
AcDbEntity
  8
0
370
    -3
  6
Continuous
100
AcDbLine
 10
-276.041108
 20
-6.818099
 30
0.0
 11
-276.041108
 21
-81.618099
 31
0.0
  0
LINE
  5
2EC
100
AcDbEntity
  8
0
370
    -3
  6
Continuous
100
AcDbLine
 10
-276.041108
 20
-6.818099
 30
0.0
 11
-307.788273
 21
-6.818099
 31
0.0
  0
LINE
  5
2ED
100
AcDbEntity
  8
0
370
    -3
  6
Continuous
100
AcDbLine
 10
-338.141108
 20
-19.57754
 30
0.0
 11
-323.188273
 21
-10.944516
 31
0.0
  0
LINE
  5
2EE
100
AcDbEntity
  8
0
370
    -3
  6
Continuous
100
AcDbLine
 10
-340.041108
 20
-81.618099
 30
0.0
 11
-340.041108
 21
-22.868436
 31
0.0
  0
ARC
  5
2EF
100
AcDbEntity
  8
0
370
    -3
  6
Continuous
100
AcDbCircle
 10
-336.241108
 20
-22.868436
 30
0.0
 40
3.8
100
AcDbArc
 50
120.0
 51
180.0
  0
ARC
  5
2F0
100
AcDbEntity
  8
0
370
    -3
  6
Continuous
100
AcDbCircle
 10
-307.788273
 20
-37.618099
 30
0.0
 40
30.8
100
AcDbArc
 50
90.0
 51
120.0
  0
LINE
  5
2F1
100
AcDbEntity
  8
0
370
    -3
  6
Continuous
100
AcDbLine
 10
-338.141108
 20
-143.658658
 30
0.0
 11
-323.188273
 21
-152.291681
 31
0.0
  0
LINE
  5
2F2
100
AcDbEntity
  8
0
370
    -3
  6
Continuous
100
AcDbLine
 10
-340.041108
 20
-81.618099
 30
0.0
 11
-340.041108
 21
-140.367761
 31
0.0
  0
ARC
  5
2F3
100
AcDbEntity
  8
0
370
    -3
  6
Continuous
100
AcDbCircle
 10
-336.241108
 20
-140.367761
 30
0.0
 40
3.8
100
AcDbArc
 50
180.0
 51
240.0
  0
LINE
  5
2F4
100
AcDbEntity
  8
0
370
    -3
  6
Continuous
100
AcDbLine
 10
-293.041108
 20
-21.372601
 30
0.0
 11
-294.970313
 21
-20.161939
 31
0.0
  0
LINE
  5
2F5
100
AcDbEntity
  8
0
370
    -3
  6
Continuous
100
AcDbLine
 10
-293.041108
 20
-21.372601
 30
0.0
 11
-295.041108
 21
-22.945939
 31
0.0
  0
LINE
  5
2F6
100
AcDbEntity
  8
0
370
    -3
  6
Continuous
100
AcDbLine
 10
-293.041108
 20
-21.372601
 30
0.0
 11
-291.111903
 21
-20.161939
 31
0.0
  0
LINE
  5
2F7
100
AcDbEntity
  8
0
370
    -3
  6
Continuous
100
AcDbLine
 10
-293.041108
 20
-21.372601
 30
0.0
 11
-291.041108
 21
-22.945939
 31
0.0
  0
ELLIPSE
  5
2F8
100
AcDbEntity
  8
0
370
    -3
  6
Continuous
100
AcDbEllipse
 10
-293.041108
 20
-23.211079
 30
0.0
 11
4.5
 21
0.0
 31
0.0
210
0.0
220
0.0
230
1.0
 40
0.707107
 41
2.1587066623463373
 42
0.9828859912434559
  0
ELLIPSE
  5
2F9
100
AcDbEntity
  8
0
370
    -3
  6
Continuous
100
AcDbEllipse
 10
-293.041108
 20
-22.674561
 30
0.0
 11
3.5
 21
0.0
 31
0.0
210
0.0
220
0.0
230
1.0
 40
0.860398
 41
0.0
 42
6.2831853071795862
  0
ELLIPSE
  5
2FA
100
AcDbEntity
  8
0
370
    -3
  6
Continuous
100
AcDbEllipse
 10
-293.041108
 20
-23.776764
 30
0.0
 11
5.0
 21
0.0
 31
0.0
210
0.0
220
0.0
230
1.0
 40
0.707107
 41
2.4023208266492952
 42
3.1415926535897931
  0
ELLIPSE
  5
2FB
100
AcDbEntity
  8
0
370
    -3
  6
Continuous
100
AcDbEllipse
 10
-293.041108
 20
-23.776764
 30
0.0
 11
5.0
 21
0.0
 31
0.0
210
0.0
220
0.0
230
1.0
 40
0.707107
 41
0.0
 42
0.7392718269404981
  0
LINE
  5
2FC
100
AcDbEntity
  8
0
370
    -3
  6
Continuous
100
AcDbLine
 10
-288.541108
 20
-23.211079
 30
0.0
 11
-288.541108
 21
-23.776764
 31
0.0
  0
LINE
  5
2FD
100
AcDbEntity
  8
0
370
    -3
  6
Continuous
100
AcDbLine
 10
-297.541108
 20
-23.211079
 30
0.0
 11
-297.541108
 21
-23.776764
 31
0.0
  0
ELLIPSE
  5
2FE
100
AcDbEntity
  8
0
370
    -3
  6
Continuous
100
AcDbEllipse
 10
-293.041108
 20
-23.776764
 30
0.0
 11
4.5
 21
0.0
 31
0.0
210
0.0
220
0.0
230
1.0
 40
0.707107
 41
3.1415926535897931
 42
0.0
  0
LINE
  5
2FF
100
AcDbEntity
  8
0
370
    -3
  6
Continuous
100
AcDbLine
 10
-288.041108
 20
-23.776764
 30
0.0
 11
-288.041108
 21
-24.593367
 31
0.0
  0
LINE
  5
300
100
AcDbEntity
  8
0
370
    -3
  6
Continuous
100
AcDbLine
 10
-298.041108
 20
-23.776764
 30
0.0
 11
-298.041108
 21
-24.593367
 31
0.0
  0
ELLIPSE
  5
301
100
AcDbEntity
  8
0
370
    -3
  6
Continuous
100
AcDbEllipse
 10
-293.041108
 20
-24.593367
 30
0.0
 11
5.0
 21
0.0
 31
0.0
210
0.0
220
0.0
230
1.0
 40
0.707107
 41
3.1415926535897931
 42
0.0
  0
ARC
  5
302
100
AcDbEntity
  8
0
370
    -3
  6
Continuous
100
AcDbCircle
 10
-307.788273
 20
-125.618099
 30
0.0
 40
30.8
100
AcDbArc
 50
240.0
 51
270.0
  0
LINE
  5
303
100
AcDbEntity
  8
0
370
    -3
  6
Continuous
100
AcDbLine
 10
-156.041108
 20
-151.618099
 30
0.0
 11
-276.041108
 21
-151.618099
 31
0.0
  0
CIRCLE
  5
304
100
AcDbEntity
  8
0
370
    -3
  6
Continuous
100
AcDbCircle
 10
-112.541548
 20
-181.618099
 30
0.0
 40
7.0
  0
CIRCLE
  5
305
100
AcDbEntity
  8
0
370
    -3
  6
Continuous
100
AcDbCircle
 10
-112.541548
 20
-181.618099
 30
0.0
 40
10.0
  0
CIRCLE
  5
306
100
AcDbEntity
  8
0
370
    -3
  6
Continuous
100
AcDbCircle
 10
46.458452
 20
-181.618099
 30
0.0
 40
7.0
  0
CIRCLE
  5
307
100
AcDbEntity
  8
0
370
    -3
  6
Continuous
100
AcDbCircle
 10
46.458452
 20
-181.618099
 30
0.0
 40
10.0
  0
CIRCLE
  5
308
100
AcDbEntity
  8
0
370
    -3
  6
Continuous
100
AcDbCircle
 10
46.458452
 20
-35.618099
 30
0.0
 40
7.0
  0
CIRCLE
  5
309
100
AcDbEntity
  8
0
370
    -3
  6
Continuous
100
AcDbCircle
 10
46.458452
 20
-35.618099
 30
0.0
 40
10.0
  0
CIRCLE
  5
30A
100
AcDbEntity
  8
0
370
    -3
  6
Continuous
100
AcDbCircle
 10
-112.541548
 20
-35.618099
 30
0.0
 40
7.0
  0
CIRCLE
  5
30B
100
AcDbEntity
  8
0
370
    -3
  6
Continuous
100
AcDbCircle
 10
-112.541548
 20
-35.618099
 30
0.0
 40
10.0
  0
LINE
  5
30C
100
AcDbEntity
  8
0
370
    -3
  6
Continuous
100
AcDbLine
 10
-156.041108
 20
-81.618099
 30
0.0
 11
-156.041108
 21
-10.118099
 31
0.0
  0
LINE
  5
30D
100
AcDbEntity
  8
0
370
    -3
  6
Continuous
100
AcDbLine
 10
-156.041108
 20
-151.618099
 30
0.0
 11
-156.041108
 21
-81.618099
 31
0.0
  0
LINE
  5
30E
100
AcDbEntity
  8
0
370
    -3
  6
Continuous
100
AcDbLine
 10
-156.041108
 20
-81.618099
 30
0.0
 11
-156.041108
 21
-151.618099
 31
0.0
  0
LINE
  5
30F
100
AcDbEntity
  8
0
370
    -3
  6
Continuous
100
AcDbLine
 10
-156.041108
 20
-81.618099
 30
0.0
 11
-156.041108
 21
-10.118099
 31
0.0
  0
INSERT
  5
31B
100
AcDbEntity
  8
0
100
AcDbBlockReference
  2
ZU_SYM__USERS_HOME_SYMBOL_POO_SYM_B20_-1
 10
-128.541108
 20
-13.618099
 30
0.0
 41
-1.0
  0
LINE
  5
31C
100
AcDbEntity
  8
0
370
    -3
  6
Continuous
100
AcDbLine
 10
-128.541108
 20
-23.618099
 30
0.0
 11
-133.041108
 21
-23.618099
 31
0.0
  0
LINE
  5
31D
100
AcDbEntity
  8
0
370
    -3
  6
CENTER
100
AcDbLine
 10
-118.832432
 20
-13.618099
 30
0.0
 11
-139.132154
 21
-13.618099
 31
0.0
  0
LINE
  5
31E
100
AcDbEntity
  8
0
370
    -3
  6
Continuous
100
AcDbLine
 10
-133.041108
 20
31.381901
 30
0.0
 11
-133.041108
 21
-23.618099
 31
0.0
  0
LINE
  5
31F
100
AcDbEntity
  8
0
370
    -3
  6
Continuous
100
AcDbLine
 10
-128.541108
 20
31.381901
 30
0.0
 11
-128.541108
 21
-23.618099
 31
0.0
  0
LINE
  5
320
100
AcDbEntity
  8
0
370
    -3
  6
DASHED
100
AcDbLine
 10
-128.541108
 20
1.381901
 30
0.0
 11
-133.041108
 21
1.381901
 31
0.0
  0
LINE
  5
321
100
AcDbEntity
  8
0
370
    -3
  6
DASHED
100
AcDbLine
 10
-128.541108
 20
21.381901
 30
0.0
 11
-133.041108
 21
21.381901
 31
0.0
  0
LINE
  5
322
100
AcDbEntity
  8
0
370
    -3
  6
CENTER
100
AcDbLine
 10
-124.760085
 20
11.381901
 30
0.0
 11
-137.561739
 21
11.381901
 31
0.0
  0
LINE
  5
323
100
AcDbEntity
  8
0
370
    -3
  6
Continuous
100
AcDbLine
 10
-128.541108
 20
31.381901
 30
0.0
 11
-133.041108
 21
31.381901
 31
0.0
  0
LINE
  5
324
100
AcDbEntity
  8
0
370
    -3
  6
CENTER
100
AcDbLine
 10
-133.041108
 20
-18.118099
 30
0.0
 11
-134.041108
 21
-17.540749
 31
0.0
  0
LINE
  5
325
100
AcDbEntity
  8
0
370
    -3
  6
Continuous
100
AcDbLine
 10
-156.041108
 20
-153.118099
 30
0.0
 11
-156.041108
 21
-10.118099
 31
0.0
  0
ARC
  5
326
100
AcDbEntity
  8
0
370
    -3
  6
Continuous
100
AcDbCircle
 10
-151.541108
 20
-12.118099
 30
0.0
 40
2.0
100
AcDbArc
 50
0.0
 51
90.0
  0
LINE
  5
327
100
AcDbEntity
  8
0
370
    -3
  6
Continuous
100
AcDbLine
 10
-149.541108
 20
-81.618099
 30
0.0
 11
-149.541108
 21
-8.118099
 31
0.0
  0
LINE
  5
328
100
AcDbEntity
  8
0
370
    -3
  6
Continuous
100
AcDbLine
 10
-151.541108
 20
-10.118099
 30
0.0
 11
-156.041108
 21
-10.118099
 31
0.0
  0
LINE
  5
329
100
AcDbEntity
  8
0
370
    -3
  6
Continuous
100
AcDbLine
 10
-133.041108
 20
-81.618099
 30
0.0
 11
-133.041108
 21
-8.118099
 31
0.0
  0
LINE
  5
32A
100
AcDbEntity
  8
0
370
    -3
  6
Continuous
100
AcDbLine
 10
-146.541108
 20
-15.618099
 30
0.0
 11
-138.041108
 21
-15.618099
 31
0.0
  0
ARC
  5
32B
100
AcDbEntity
  8
0
370
    -3
  6
Continuous
100
AcDbCircle
 10
-146.541108
 20
-12.618099
 30
0.0
 40
3.0
100
AcDbArc
 50
180.0
 51
270.0
  0
LINE
  5
32C
100
AcDbEntity
  8
0
370
    -3
  6
Continuous
100
AcDbLine
 10
-146.541108
 20
-26.618099
 30
0.0
 11
-138.041108
 21
-26.618099
 31
0.0
  0
LINE
  5
32D
100
AcDbEntity
  8
0
370
    -3
  6
Continuous
100
AcDbLine
 10
-146.541108
 20
-35.630946
 30
0.0
 11
-138.041108
 21
-35.630946
 31
0.0
  0
ARC
  5
32E
100
AcDbEntity
  8
0
370
    -3
  6
Continuous
100
AcDbCircle
 10
-138.041108
 20
-31.618099
 30
0.0
 40
5.0
100
AcDbArc
 50
360.0
 51
90.0
  0
ARC
  5
32F
100
AcDbEntity
  8
0
370
    -3
  6
Continuous
100
AcDbCircle
 10
-138.041108
 20
-40.630946
 30
0.0
 40
5.0
100
AcDbArc
 50
360.0
 51
90.0
  0
ARC
  5
330
100
AcDbEntity
  8
0
370
    -3
  6
Continuous
100
AcDbCircle
 10
-146.541108
 20
-23.618099
 30
0.0
 40
3.0
100
AcDbArc
 50
180.0
 51
270.0
  0
ARC
  5
331
100
AcDbEntity
  8
0
370
    -3
  6
Continuous
100
AcDbCircle
 10
-146.541108
 20
-38.630946
 30
0.0
 40
3.0
100
AcDbArc
 50
90.0
 51
180.0
  0
LINE
  5
332
100
AcDbEntity
  8
0
370
    -3
  6
Continuous
100
AcDbLine
 10
-131.041108
 20
-32.424603
 30
0.0
 11
-129.369692
 21
-32.424603
 31
0.0
  0
ARC
  5
333
100
AcDbEntity
  8
0
370
    -3
  6
Continuous
100
AcDbCircle
 10
-129.369692
 20
-30.424603
 30
0.0
 40
2.0
100
AcDbArc
 50
270.0
 51
350.985858
  0
ARC
  5
334
100
AcDbEntity
  8
0
370
    -3
  6
Continuous
100
AcDbCircle
 10
-131.041108
 20
-30.424603
 30
0.0
 40
2.0
100
AcDbArc
 50
180.0
 51
270.0
  0
ARC
  5
335
100
AcDbEntity
  8
0
370
    -3
  6
Continuous
100
AcDbCircle
 10
-138.041108
 20
-20.618099
 30
0.0
 40
5.0
100
AcDbArc
 50
360.0
 51
90.0
  0
ARC
  5
336
100
AcDbEntity
  8
0
370
    -3
  6
Continuous
100
AcDbCircle
 10
-135.041108
 20
-8.118099
 30
0.0
 40
2.0
100
AcDbArc
 50
360.0
 51
90.0
  0
ARC
  5
337
100
AcDbEntity
  8
0
370
    -3
  6
Continuous
100
AcDbCircle
 10
-147.541108
 20
-8.118099
 30
0.0
 40
2.0
100
AcDbArc
 50
90.0
 51
180.0
  0
ARC
  5
338
100
AcDbEntity
  8
0
370
    -3
  6
Continuous
100
AcDbCircle
 10
-151.541108
 20
-8.118099
 30
0.0
 40
2.0
100
AcDbArc
 50
270.0
 51
0.0
  0
LINE
  5
339
100
AcDbEntity
  8
0
370
    -3
  6
Continuous
100
AcDbLine
 10
-135.041108
 20
-6.118099
 30
0.0
 11
-147.541108
 21
-6.118099
 31
0.0
  0
LINE
  5
33A
100
AcDbEntity
  8
0
370
    -3
  6
Continuous
100
AcDbLine
 10
-149.541108
 20
-81.618099
 30
0.0
 11
-149.541108
 21
-151.118099
 31
0.0
  0
LINE
  5
33B
100
AcDbEntity
  8
0
370
    -3
  6
Continuous
100
AcDbLine
 10
-133.041108
 20
-81.618099
 30
0.0
 11
-133.041108
 21
-142.618099
 31
0.0
  0
ARC
  5
33C
100
AcDbEntity
  8
0
370
    -3
  6
Continuous
100
AcDbCircle
 10
-138.041108
 20
-142.618099
 30
0.0
 40
5.0
100
AcDbArc
 50
270.0
 51
0.0
  0
LINE
  5
33D
100
AcDbEntity
  8
0
370
    -3
  6
Continuous
100
AcDbLine
 10
-146.541108
 20
-147.618099
 30
0.0
 11
-130.542596
 21
-147.618099
 31
0.0
  0
LINE
  5
33E
100
AcDbEntity
  8
0
370
    -3
  6
Continuous
100
AcDbLine
 10
-151.541108
 20
-153.118099
 30
0.0
 11
-156.041108
 21
-153.118099
 31
0.0
  0
ARC
  5
33F
100
AcDbEntity
  8
0
370
    -3
  6
Continuous
100
AcDbCircle
 10
-146.541108
 20
-150.618099
 30
0.0
 40
3.0
100
AcDbArc
 50
90.0
 51
180.0
  0
ARC
  5
340
100
AcDbEntity
  8
0
370
    -3
  6
Continuous
100
AcDbCircle
 10
-151.541108
 20
-151.118099
 30
0.0
 40
2.0
100
AcDbArc
 50
270.0
 51
0.0
  0
ARC
  5
341
100
AcDbEntity
  8
0
370
    -3
  6
Continuous
100
AcDbCircle
 10
-130.542596
 20
-150.618099
 30
0.0
 40
3.0
100
AcDbArc
 50
0.0
 51
90.0
  0
LINE
  5
342
100
AcDbEntity
  8
0
370
    -3
  6
CENTER
100
AcDbLine
 10
-99.052578
 20
-35.618099
 30
0.0
 11
-125.272807
 21
-35.618099
 31
0.0
  0
LINE
  5
343
100
AcDbEntity
  8
0
370
    -3
  6
CENTER
100
AcDbLine
 10
-94.541674
 20
-22.662381
 30
0.0
 11
-94.541674
 21
-38.114085
 31
0.0
  0
LINE
  5
344
100
AcDbEntity
  8
0
370
    -3
  6
CENTER
100
AcDbLine
 10
-86.623088
 20
-29.61841
 30
0.0
 11
-102.33844
 21
-29.61841
 31
0.0
  0
LINE
  5
345
100
AcDbEntity
  8
0
370
    -3
  6
CENTER
100
AcDbLine
 10
36.873172
 20
-187.61841
 30
0.0
 11
20.914597
 21
-187.61841
 31
0.0
  0
LINE
  5
346
100
AcDbEntity
  8
0
370
    -3
  6
CENTER
100
AcDbLine
 10
-94.541674
 20
-179.206314
 30
0.0
 11
-94.541674
 21
-194.388133
 31
0.0
  0
LINE
  5
347
100
AcDbEntity
  8
0
370
    -3
  6
CENTER
100
AcDbLine
 10
-87.660444
 20
-187.61841
 30
0.0
 11
-103.375183
 21
-187.61841
 31
0.0
  0
ARC
  5
348
100
AcDbEntity
  8
0
370
    -3
  6
Continuous
100
AcDbCircle
 10
-94.65259
 20
-170.618772
 30
0.0
 40
6.0
100
AcDbArc
 50
211.58598
 51
270.373825
  0
ARC
  5
349
100
AcDbEntity
  8
0
370
    -3
  6
Continuous
100
AcDbCircle
 10
-78.635818
 20
-181.618099
 30
0.0
 40
6.0
100
AcDbArc
 50
200.668437
 51
270.0
  0
ARC
  5
34A
100
AcDbEntity
  8
0
370
    -3
  6
Continuous
100
AcDbCircle
 10
-94.541674
 20
-187.61841
 30
0.0
 40
11.0
100
AcDbArc
 50
20.668437
 51
90.373825
  0
ARC
  5
34B
100
AcDbEntity
  8
0
370
    -3
  6
Continuous
100
AcDbCircle
 10
13.552469
 20
-181.618099
 30
0.0
 40
6.0
100
AcDbArc
 50
270.0
 51
339.331563
  0
ARC
  5
34C
100
AcDbEntity
  8
0
370
    -3
  6
Continuous
100
AcDbCircle
 10
28.554971
 20
-170.642428
 30
0.0
 40
6.0
100
AcDbArc
 50
273.046047
 51
328.489758
  0
ARC
  5
34D
100
AcDbEntity
  8
0
370
    -3
  6
Continuous
100
AcDbCircle
 10
29.458326
 20
-187.61841
 30
0.0
 40
11.0
100
AcDbArc
 50
93.046047
 51
159.331563
  0
ARC
  5
34E
100
AcDbEntity
  8
0
370
    -3
  6
Continuous
100
AcDbCircle
 10
-94.652971
 20
-46.618046
 30
0.0
 40
6.0
100
AcDbArc
 50
89.624891
 51
148.412035
  0
ARC
  5
34F
100
AcDbEntity
  8
0
370
    -3
  6
Continuous
100
AcDbCircle
 10
-78.635583
 20
-35.618099
 30
0.0
 40
6.0
100
AcDbArc
 50
90.0
 51
159.333804
  0
ARC
  5
350
100
AcDbEntity
  8
0
370
    -3
  6
Continuous
100
AcDbCircle
 10
28.555365
 20
-46.594412
 30
0.0
 40
6.0
100
AcDbArc
 50
31.5123
 51
86.955283
  0
ARC
  5
351
100
AcDbEntity
  8
0
370
    -3
  6
Continuous
100
AcDbCircle
 10
13.552234
 20
-35.618099
 30
0.0
 40
6.0
100
AcDbArc
 50
20.666196
 51
90.0
  0
ARC
  5
352
100
AcDbEntity
  8
0
370
    -3
  6
Continuous
100
AcDbCircle
 10
29.458326
 20
-29.61841
 30
0.0
 40
11.0
100
AcDbArc
 50
200.666196
 51
266.955283
  0
LINE
  5
353
100
AcDbEntity
  8
0
370
    -3
  6
CENTER
100
AcDbLine
 10
-43.074889
 20
-187.618099
 30
0.0
 11
-58.041548
 21
-187.618099
 31
0.0
  0
LINE
  5
354
100
AcDbEntity
  8
0
370
    -3
  6
CENTER
100
AcDbLine
 10
-43.074889
 20
-29.618099
 30
0.0
 11
-58.041548
 21
-29.618099
 31
0.0
  0
POINT
  5
355
100
AcDbEntity
  8
0
370
    -3
  6
Continuous
100
AcDbPoint
 10
-10.541548
 20
-92.618099
 30
0.0
  0
LINE
  5
356
100
AcDbEntity
  8
0
370
    -3
  6
Continuous
100
AcDbLine
 10
-115.541548
 20
-196.618099
 30
0.0
 11
49.458452
 21
-196.618099
 31
0.0
  0
LINE
  5
357
100
AcDbEntity
  8
0
370
    -3
  6
Continuous
100
AcDbLine
 10
61.458452
 20
-184.618099
 30
0.0
 11
61.458452
 21
-32.618099
 31
0.0
  0
LINE
  5
358
100
AcDbEntity
  8
0
370
    -3
  6
Continuous
100
AcDbLine
 10
49.458452
 20
-20.618099
 30
0.0
 11
-115.541548
 21
-20.618099
 31
0.0
  0
LINE
  5
359
100
AcDbEntity
  8
0
370
    -3
  6
Continuous
100
AcDbLine
 10
-127.541548
 20
-32.618099
 30
0.0
 11
-127.541548
 21
-184.618099
 31
0.0
  0
LINE
  5
35A
100
AcDbEntity
  8
0
370
    -3
  6
Continuous
100
AcDbLine
 10
13.552469
 20
-187.618099
 30
0.0
 11
-78.635818
 21
-187.618099
 31
0.0
  0
LINE
  5
35B
100
AcDbEntity
  8
0
370
    -3
  6
Continuous
100
AcDbLine
 10
13.552234
 20
-29.618099
 30
0.0
 11
-78.635583
 21
-29.618099
 31
0.0
  0
LINE
  5
35C
100
AcDbEntity
  8
0
370
    -3
  6
Continuous
100
AcDbLine
 10
-118.541548
 20
-60.296024
 30
0.0
 11
-118.541548
 21
-156.940173
 31
0.0
  0
LINE
  5
35D
100
AcDbEntity
  8
0
370
    -3
  6
Continuous
100
AcDbLine
 10
52.458452
 20
-60.296024
 30
0.0
 11
52.458452
 21
-156.940173
 31
0.0
  0
ARC
  5
35E
100
AcDbEntity
  8
0
370
    -3
  6
Continuous
100
AcDbCircle
 10
-112.541548
 20
-35.618099
 30
0.0
 40
15.0
100
AcDbArc
 50
279.206896
 51
328.412035
  0
ARC
  5
35F
100
AcDbEntity
  8
0
370
    -3
  6
Continuous
100
AcDbCircle
 10
-112.541548
 20
-181.618099
 30
0.0
 40
15.0
100
AcDbArc
 50
31.58598
 51
80.793104
  0
ARC
  5
360
100
AcDbEntity
  8
0
370
    -3
  6
Continuous
100
AcDbCircle
 10
46.458452
 20
-181.618099
 30
0.0
 40
15.0
100
AcDbArc
 50
99.206896
 51
148.489758
  0
ARC
  5
361
100
AcDbEntity
  8
0
370
    -3
  6
Continuous
100
AcDbCircle
 10
46.458452
 20
-35.618099
 30
0.0
 40
15.0
100
AcDbArc
 50
211.5123
 51
260.793104
  0
ARC
  5
362
100
AcDbEntity
  8
0
370
    -3
  6
Continuous
100
AcDbCircle
 10
-108.541548
 20
-60.296024
 30
0.0
 40
10.0
100
AcDbArc
 50
99.206896
 51
180.0
  0
ARC
  5
363
100
AcDbEntity
  8
0
370
    -3
  6
Continuous
100
AcDbCircle
 10
-108.541548
 20
-156.940173
 30
0.0
 40
10.0
100
AcDbArc
 50
180.0
 51
260.793104
  0
ARC
  5
364
100
AcDbEntity
  8
0
370
    -3
  6
Continuous
100
AcDbCircle
 10
42.458452
 20
-156.940173
 30
0.0
 40
10.0
100
AcDbArc
 50
279.206896
 51
0.0
  0
ARC
  5
365
100
AcDbEntity
  8
0
370
    -3
  6
Continuous
100
AcDbCircle
 10
42.458452
 20
-60.296024
 30
0.0
 40
10.0
100
AcDbArc
 50
0.0
 51
80.793104
  0
ARC
  5
366
100
AcDbEntity
  8
0
370
    -3
  6
Continuous
100
AcDbCircle
 10
-94.541674
 20
-29.61841
 30
0.0
 40
11.0
100
AcDbArc
 50
269.624891
 51
339.333804
  0
CIRCLE
  5
367
100
AcDbEntity
  8
0
370
    -3
  6
Continuous
100
AcDbCircle
 10
-94.541674
 20
-187.61841
 30
0.0
 40
5.5
  0
CIRCLE
  5
368
100
AcDbEntity
  8
0
370
    -3
  6
Continuous
100
AcDbCircle
 10
-94.541674
 20
-29.61841
 30
0.0
 40
5.5
  0
CIRCLE
  5
369
100
AcDbEntity
  8
0
370
    -3
  6
Continuous
100
AcDbCircle
 10
29.458326
 20
-29.61841
 30
0.0
 40
5.5
  0
CIRCLE
  5
36A
100
AcDbEntity
  8
0
370
    -3
  6
Continuous
100
AcDbCircle
 10
29.458326
 20
-187.61841
 30
0.0
 40
5.5
  0
CIRCLE
  5
36B
100
AcDbEntity
  8
0
370
    -3
  6
Continuous
100
AcDbCircle
 10
-94.541674
 20
-187.61841
 30
0.0
 40
3.3
  0
CIRCLE
  5
36C
100
AcDbEntity
  8
0
370
    -3
  6
Continuous
100
AcDbCircle
 10
29.458326
 20
-187.61841
 30
0.0
 40
3.3
  0
CIRCLE
  5
36D
100
AcDbEntity
  8
0
370
    -3
  6
Continuous
100
AcDbCircle
 10
29.458326
 20
-29.61841
 30
0.0
 40
3.3
  0
CIRCLE
  5
36E
100
AcDbEntity
  8
0
370
    -3
  6
Continuous
100
AcDbCircle
 10
-94.541674
 20
-29.61841
 30
0.0
 40
3.3
  0
CIRCLE
  5
36F
100
AcDbEntity
  8
0
370
    -3
  6
Continuous
100
AcDbCircle
 10
-10.541548
 20
-92.618099
 30
0.0
 40
53.5
  0
ARC
  5
370
100
AcDbEntity
  8
0
370
    -3
  6
Continuous
100
AcDbCircle
 10
42.458452
 20
-60.296024
 30
0.0
 40
8.5
100
AcDbArc
 50
0.0
 51
80.793104
  0
LINE
  5
371
100
AcDbEntity
  8
0
370
    -3
  6
Continuous
100
AcDbLine
 10
50.958452
 20
-60.296024
 30
0.0
 11
50.958452
 21
-156.940173
 31
0.0
  0
ARC
  5
372
100
AcDbEntity
  8
0
370
    -3
  6
Continuous
100
AcDbCircle
 10
42.458452
 20
-156.940173
 30
0.0
 40
8.5
100
AcDbArc
 50
279.206896
 51
0.0
  0
ARC
  5
373
100
AcDbEntity
  8
0
370
    -3
  6
Continuous
100
AcDbCircle
 10
46.458452
 20
-181.618099
 30
0.0
 40
16.5
100
AcDbArc
 50
99.206896
 51
148.489758
  0
ARC
  5
374
100
AcDbEntity
  8
0
370
    -3
  6
Continuous
100
AcDbCircle
 10
28.554971
 20
-170.642428
 30
0.0
 40
4.5
100
AcDbArc
 50
273.046047
 51
328.489758
  0
ARC
  5
375
100
AcDbEntity
  8
0
370
    -3
  6
Continuous
100
AcDbCircle
 10
29.458326
 20
-187.61841
 30
0.0
 40
12.5
100
AcDbArc
 50
93.046047
 51
159.331563
  0
ARC
  5
376
100
AcDbEntity
  8
0
370
    -3
  6
Continuous
100
AcDbCircle
 10
13.552469
 20
-181.618099
 30
0.0
 40
4.5
100
AcDbArc
 50
270.0
 51
339.331563
  0
LINE
  5
377
100
AcDbEntity
  8
0
370
    -3
  6
Continuous
100
AcDbLine
 10
13.552469
 20
-186.118099
 30
0.0
 11
-78.635818
 21
-186.118099
 31
0.0
  0
ARC
  5
378
100
AcDbEntity
  8
0
370
    -3
  6
Continuous
100
AcDbCircle
 10
-78.635818
 20
-181.618099
 30
0.0
 40
4.5
100
AcDbArc
 50
200.668437
 51
270.0
  0
ARC
  5
379
100
AcDbEntity
  8
0
370
    -3
  6
Continuous
100
AcDbCircle
 10
-94.541674
 20
-187.61841
 30
0.0
 40
12.5
100
AcDbArc
 50
20.668437
 51
90.373825
  0
ARC
  5
37A
100
AcDbEntity
  8
0
370
    -3
  6
Continuous
100
AcDbCircle
 10
-94.65259
 20
-170.618772
 30
0.0
 40
4.5
100
AcDbArc
 50
211.58598
 51
270.373825
  0
ARC
  5
37B
100
AcDbEntity
  8
0
370
    -3
  6
Continuous
100
AcDbCircle
 10
-112.541548
 20
-181.618099
 30
0.0
 40
16.5
100
AcDbArc
 50
31.58598
 51
80.793104
  0
ARC
  5
37C
100
AcDbEntity
  8
0
370
    -3
  6
Continuous
100
AcDbCircle
 10
-108.541548
 20
-156.940173
 30
0.0
 40
8.5
100
AcDbArc
 50
180.0
 51
260.793104
  0
LINE
  5
37D
100
AcDbEntity
  8
0
370
    -3
  6
Continuous
100
AcDbLine
 10
-117.041548
 20
-156.940173
 30
0.0
 11
-117.041548
 21
-60.296024
 31
0.0
  0
ARC
  5
37E
100
AcDbEntity
  8
0
370
    -3
  6
Continuous
100
AcDbCircle
 10
-108.541548
 20
-60.296024
 30
0.0
 40
8.5
100
AcDbArc
 50
99.206896
 51
180.0
  0
ARC
  5
37F
100
AcDbEntity
  8
0
370
    -3
  6
Continuous
100
AcDbCircle
 10
-112.541548
 20
-35.618099
 30
0.0
 40
16.5
100
AcDbArc
 50
279.206896
 51
328.412035
  0
ARC
  5
380
100
AcDbEntity
  8
0
370
    -3
  6
Continuous
100
AcDbCircle
 10
-94.652971
 20
-46.618046
 30
0.0
 40
4.5
100
AcDbArc
 50
89.624891
 51
148.412035
  0
ARC
  5
381
100
AcDbEntity
  8
0
370
    -3
  6
Continuous
100
AcDbCircle
 10
-94.541674
 20
-29.61841
 30
0.0
 40
12.5
100
AcDbArc
 50
269.624891
 51
339.333804
  0
ARC
  5
382
100
AcDbEntity
  8
0
370
    -3
  6
Continuous
100
AcDbCircle
 10
-78.635583
 20
-35.618099
 30
0.0
 40
4.5
100
AcDbArc
 50
90.0
 51
159.333804
  0
LINE
  5
383
100
AcDbEntity
  8
0
370
    -3
  6
Continuous
100
AcDbLine
 10
-78.635583
 20
-31.118099
 30
0.0
 11
13.552234
 21
-31.118099
 31
0.0
  0
ARC
  5
384
100
AcDbEntity
  8
0
370
    -3
  6
Continuous
100
AcDbCircle
 10
13.552234
 20
-35.618099
 30
0.0
 40
4.5
100
AcDbArc
 50
20.666196
 51
90.0
  0
ARC
  5
385
100
AcDbEntity
  8
0
370
    -3
  6
Continuous
100
AcDbCircle
 10
29.458326
 20
-29.61841
 30
0.0
 40
12.5
100
AcDbArc
 50
200.666196
 51
266.955283
  0
ARC
  5
386
100
AcDbEntity
  8
0
370
    -3
  6
Continuous
100
AcDbCircle
 10
28.555365
 20
-46.594412
 30
0.0
 40
4.5
100
AcDbArc
 50
31.5123
 51
86.955283
  0
ARC
  5
387
100
AcDbEntity
  8
0
370
    -3
  6
Continuous
100
AcDbCircle
 10
46.458452
 20
-35.618099
 30
0.0
 40
16.5
100
AcDbArc
 50
211.5123
 51
260.793104
  0
CIRCLE
  5
388
100
AcDbEntity
  8
0
370
    -3
  6
Continuous
100
AcDbCircle
 10
-10.541548
 20
-92.618099
 30
0.0
 40
52.0
  0
LINE
  5
389
100
AcDbEntity
  8
0
370
    -3
  6
Continuous
100
AcDbLine
 10
49.458452
 20
-21.618099
 30
0.0
 11
-115.541548
 21
-21.618099
 31
0.0
  0
LINE
  5
38A
100
AcDbEntity
  8
0
370
    -3
  6
Continuous
100
AcDbLine
 10
-126.541548
 20
-32.618099
 30
0.0
 11
-126.541548
 21
-184.618099
 31
0.0
  0
LINE
  5
38B
100
AcDbEntity
  8
0
370
    -3
  6
Continuous
100
AcDbLine
 10
-115.541548
 20
-195.618099
 30
0.0
 11
49.458452
 21
-195.618099
 31
0.0
  0
LINE
  5
38C
100
AcDbEntity
  8
0
370
    -3
  6
Continuous
100
AcDbLine
 10
60.458452
 20
-184.618099
 30
0.0
 11
60.458452
 21
-32.618099
 31
0.0
  0
ARC
  5
38D
100
AcDbEntity
  8
0
370
    -3
  6
Continuous
100
AcDbCircle
 10
-115.541548
 20
-32.618099
 30
0.0
 40
12.0
100
AcDbArc
 50
90.0
 51
180.0
  0
ARC
  5
38E
100
AcDbEntity
  8
0
370
    -3
  6
Continuous
100
AcDbCircle
 10
-115.541548
 20
-32.618099
 30
0.0
 40
11.0
100
AcDbArc
 50
90.0
 51
180.0
  0
ARC
  5
38F
100
AcDbEntity
  8
0
370
    -3
  6
Continuous
100
AcDbCircle
 10
49.458452
 20
-32.618099
 30
0.0
 40
11.0
100
AcDbArc
 50
0.0
 51
90.0
  0
ARC
  5
390
100
AcDbEntity
  8
0
370
    -3
  6
Continuous
100
AcDbCircle
 10
49.458452
 20
-32.618099
 30
0.0
 40
12.0
100
AcDbArc
 50
0.0
 51
90.0
  0
ARC
  5
391
100
AcDbEntity
  8
0
370
    -3
  6
Continuous
100
AcDbCircle
 10
-115.541548
 20
-184.618099
 30
0.0
 40
12.0
100
AcDbArc
 50
180.0
 51
270.0
  0
ARC
  5
392
100
AcDbEntity
  8
0
370
    -3
  6
Continuous
100
AcDbCircle
 10
49.458452
 20
-184.618099
 30
0.0
 40
12.0
100
AcDbArc
 50
270.0
 51
0.0
  0
ARC
  5
393
100
AcDbEntity
  8
0
370
    -3
  6
Continuous
100
AcDbCircle
 10
49.458452
 20
-184.618099
 30
0.0
 40
11.0
100
AcDbArc
 50
270.0
 51
0.0
  0
ARC
  5
394
100
AcDbEntity
  8
0
370
    -3
  6
Continuous
100
AcDbCircle
 10
-115.541548
 20
-184.618099
 30
0.0
 40
11.0
100
AcDbArc
 50
180.0
 51
270.0
  0
LINE
  5
395
100
AcDbEntity
  8
0
370
    -3
  6
CENTER
100
AcDbLine
 10
-112.541548
 20
-169.278896
 30
0.0
 11
-112.541548
 21
-194.35557
 31
0.0
  0
LINE
  5
396
100
AcDbEntity
  8
0
370
    -3
  6
CENTER
100
AcDbLine
 10
-99.781543
 20
-181.618099
 30
0.0
 11
-126.541548
 21
-181.618099
 31
0.0
  0
LINE
  5
397
100
AcDbEntity
  8
0
370
    -3
  6
CENTER
100
AcDbLine
 10
46.458452
 20
-168.34145
 30
0.0
 11
46.458452
 21
-193.74193
 31
0.0
  0
LINE
  5
398
100
AcDbEntity
  8
0
370
    -3
  6
CENTER
100
AcDbLine
 10
29.458326
 20
-178.653353
 30
0.0
 11
29.458326
 21
-195.618099
 31
0.0
  0
LINE
  5
399
100
AcDbEntity
  8
0
370
    -3
  6
CENTER
100
AcDbLine
 10
46.458452
 20
-23.618099
 30
0.0
 11
46.458452
 21
-49.145224
 31
0.0
  0
LINE
  5
39A
100
AcDbEntity
  8
0
370
    -3
  6
CENTER
100
AcDbLine
 10
58.458452
 20
-35.618099
 30
0.0
 11
33.48348
 21
-35.618099
 31
0.0
  0
LINE
  5
39B
100
AcDbEntity
  8
0
370
    -3
  6
CENTER
100
AcDbLine
 10
58.458452
 20
-181.618099
 30
0.0
 11
33.335753
 21
-181.618099
 31
0.0
  0
LINE
  5
39C
100
AcDbEntity
  8
0
370
    -3
  6
CENTER
100
AcDbLine
 10
-112.541548
 20
-23.618099
 30
0.0
 11
-112.541548
 21
-50.106997
 31
0.0
  0
LINE
  5
39D
100
AcDbEntity
  8
0
370
    -3
  6
CENTER
100
AcDbLine
 10
37.046143
 20
-29.61841
 30
0.0
 11
19.198156
 21
-29.61841
 31
0.0
  0
LINE
  5
39E
100
AcDbEntity
  8
0
370
    -3
  6
CENTER
100
AcDbLine
 10
29.458326
 20
-23.365466
 30
0.0
 11
29.458326
 21
-39.067682
 31
0.0
  0
CIRCLE
  5
39F
100
AcDbEntity
  8
0
370
    -3
  6
Continuous
100
AcDbCircle
 10
-10.541548
 20
-92.618099
 30
0.0
 40
24.0
  0
ARC
  5
3A0
100
AcDbEntity
  8
0
370
    -3
  6
Continuous
100
AcDbCircle
 10
-10.541548
 20
-92.618099
 30
0.0
 40
17.5
100
AcDbArc
 50
106.60155
 51
73.39845
  0
LINE
  5
3A1
100
AcDbEntity
  8
0
370
    -3
  6
Continuous
100
AcDbLine
 10
-5.541548
 20
-71.818099
 30
0.0
 11
-5.541548
 21
-75.847589
 31
0.0
  0
LINE
  5
3A2
100
AcDbEntity
  8
0
370
    -3
  6
Continuous
100
AcDbLine
 10
-15.541548
 20
-71.818099
 30
0.0
 11
-15.541548
 21
-75.847589
 31
0.0
  0
LINE
  5
3A3
100
AcDbEntity
  8
0
370
    -3
  6
Continuous
100
AcDbLine
 10
-15.541548
 20
-71.818099
 30
0.0
 11
-5.541548
 21
-71.818099
 31
0.0
  0
LINE
  5
3A4
100
AcDbEntity
  8
0
370
    -3
  6
Continuous
100
AcDbLine
 10
-156.041108
 20
-81.618099
 30
0.0
 11
-156.041108
 21
-10.118099
 31
0.0
  0
LINE
  5
3A5
100
AcDbEntity
  8
0
370
    -3
  6
Continuous
100
AcDbLine
 10
-156.041108
 20
-81.618099
 30
0.0
 11
-156.041108
 21
-151.618099
 31
0.0
  0
LINE
  5
3A6
100
AcDbEntity
  8
0
370
    -3
  6
Continuous
100
AcDbLine
 10
-156.041108
 20
-81.618099
 30
0.0
 11
-156.041108
 21
-151.618099
 31
0.0
  0
LINE
  5
3A7
100
AcDbEntity
  8
0
370
    -3
  6
Continuous
100
AcDbLine
 10
-156.041108
 20
-81.618099
 30
0.0
 11
-156.041108
 21
-10.118099
 31
0.0
  0
LINE
  5
3A8
100
AcDbEntity
  8
0
370
    -3
  6
CENTER
100
AcDbLine
 10
-113.236574
 20
-81.618099
 30
0.0
 11
-355.527763
 21
-81.618099
 31
0.0
  0
LINE
  5
3A9
100
AcDbEntity
  8
0
370
    -3
  6
CENTER
100
AcDbLine
 10
-10.541548
 20
-202.697858
 30
0.0
 11
-10.541548
 21
-13.567395
 31
0.0
  0
LINE
  5
3AA
100
AcDbEntity
  8
0
370
    -3
  6
CENTER
100
AcDbLine
 10
65.460397
 20
-92.618099
 30
0.0
 11
-96.626864
 21
-92.618099
 31
0.0
  0
LINE
  5
3AB
100
AcDbEntity
  8
0
370
    -3
  6
DASHED
100
AcDbLine
 10
402.258589
 20
-191.618099
 30
0.0
 11
386.258589
 21
-191.618099
 31
0.0
  0
LINE
  5
3AC
100
AcDbEntity
  8
0
370
    -3
  6
DASHED
100
AcDbLine
 10
402.259192
 20
-191.618099
 30
0.0
 11
402.259192
 21
-171.618099
 31
0.0
  0
LINE
  5
3AD
100
AcDbEntity
  8
0
370
    -3
  6
DASHED
100
AcDbLine
 10
402.258589
 20
-171.618099
 30
0.0
 11
386.258589
 21
-171.618099
 31
0.0
  0
LINE
  5
3AE
100
AcDbEntity
  8
0
370
    -3
  6
DASHED
100
AcDbLine
 10
486.258589
 20
-174.618099
 30
0.0
 11
402.258589
 21
-174.618099
 31
0.0
  0
LINE
  5
3AF
100
AcDbEntity
  8
0
370
    -3
  6
DASHED
100
AcDbLine
 10
486.258589
 20
-188.618099
 30
0.0
 11
402.258589
 21
-188.618099
 31
0.0
  0
LINE
  5
3B0
100
AcDbEntity
  8
0
370
    -3
  6
DASHED
100
AcDbLine
 10
486.258589
 20
-181.618099
 30
0.0
 11
486.258589
 21
-171.618099
 31
0.0
  0
LINE
  5
3B1
100
AcDbEntity
  8
0
370
    -3
  6
DASHED
100
AcDbLine
 10
502.258589
 20
-171.618099
 30
0.0
 11
486.258589
 21
-171.618099
 31
0.0
  0
LINE
  5
3B2
100
AcDbEntity
  8
0
370
    -3
  6
DASHED
100
AcDbLine
 10
502.258589
 20
-191.618099
 30
0.0
 11
486.258589
 21
-191.618099
 31
0.0
  0
LINE
  5
3B3
100
AcDbEntity
  8
0
370
    -3
  6
DASHED
100
AcDbLine
 10
486.258589
 20
-181.618099
 30
0.0
 11
486.258589
 21
-191.618099
 31
0.0
  0
LINE
  5
3B4
100
AcDbEntity
  8
0
370
    -3
  6
DASHED
100
AcDbLine
 10
486.258589
 20
-35.618099
 30
0.0
 11
486.258589
 21
-25.618099
 31
0.0
  0
LINE
  5
3B5
100
AcDbEntity
  8
0
370
    -3
  6
DASHED
100
AcDbLine
 10
502.258589
 20
-25.618099
 30
0.0
 11
486.258589
 21
-25.618099
 31
0.0
  0
LINE
  5
3B6
100
AcDbEntity
  8
0
370
    -3
  6
DASHED
100
AcDbLine
 10
502.258589
 20
-45.618099
 30
0.0
 11
486.258589
 21
-45.618099
 31
0.0
  0
LINE
  5
3B7
100
AcDbEntity
  8
0
370
    -3
  6
DASHED
100
AcDbLine
 10
486.258589
 20
-35.618099
 30
0.0
 11
486.258589
 21
-45.618099
 31
0.0
  0
LINE
  5
3B8
100
AcDbEntity
  8
0
370
    -3
  6
DASHED
100
AcDbLine
 10
402.259192
 20
-45.618099
 30
0.0
 11
402.259192
 21
-25.618099
 31
0.0
  0
LINE
  5
3B9
100
AcDbEntity
  8
0
370
    -3
  6
DASHED
100
AcDbLine
 10
486.258589
 20
-28.618099
 30
0.0
 11
402.258589
 21
-28.618099
 31
0.0
  0
LINE
  5
3BA
100
AcDbEntity
  8
0
370
    -3
  6
DASHED
100
AcDbLine
 10
402.258589
 20
-25.618099
 30
0.0
 11
386.258589
 21
-25.618099
 31
0.0
  0
LINE
  5
3BB
100
AcDbEntity
  8
0
370
    -3
  6
DASHED
100
AcDbLine
 10
486.258589
 20
-42.618099
 30
0.0
 11
402.258589
 21
-42.618099
 31
0.0
  0
LINE
  5
3BC
100
AcDbEntity
  8
0
370
    -3
  6
DASHED
100
AcDbLine
 10
402.258589
 20
-45.618099
 30
0.0
 11
386.258589
 21
-45.618099
 31
0.0
  0
ARC
  5
3BD
100
AcDbEntity
  8
0
370
    -3
  6
Continuous
100
AcDbCircle
 10
444.258589
 20
-307.618099
 30
0.0
 40
300.8
100
AcDbArc
 50
85.66015
 51
86.092172
  0
ARC
  5
3BE
100
AcDbEntity
  8
0
370
    -3
  6
Continuous
100
AcDbCircle
 10
444.258589
 20
-81.618099
 30
0.0
 40
74.0
100
AcDbArc
 50
17.502524
 51
38.391667
  0
ARC
  5
3BF
100
AcDbEntity
  8
0
370
    -3
  6
Continuous
100
AcDbCircle
 10
495.758589
 20
-65.377717
 30
0.0
 40
20.0
100
AcDbArc
 50
0.0
 51
17.502524
  0
ARC
  5
3C0
100
AcDbEntity
  8
0
370
    -3
  6
Continuous
100
AcDbCircle
 10
428.018207
 20
-30.118099
 30
0.0
 40
20.0
100
AcDbArc
 50
102.297099
 51
107.502524
  0
LINE
  5
3C1
100
AcDbEntity
  8
0
370
    -3
  6
Continuous
100
AcDbLine
 10
423.758589
 20
-8.118099
 30
0.0
 11
423.758589
 21
-18.618099
 31
0.0
  0
ARC
  5
3C2
100
AcDbEntity
  8
0
370
    -3
  6
Continuous
100
AcDbCircle
 10
460.498971
 20
-30.118099
 30
0.0
 40
20.0
100
AcDbArc
 50
72.497476
 51
77.702901
  0
LINE
  5
3C3
100
AcDbEntity
  8
0
370
    -3
  6
Continuous
100
AcDbLine
 10
464.758589
 20
-8.118099
 30
0.0
 11
464.758589
 21
-18.618099
 31
0.0
  0
ARC
  5
3C4
100
AcDbEntity
  8
0
370
    -3
  6
Continuous
100
AcDbCircle
 10
467.758589
 20
-16.743219
 30
0.0
 40
3.0
100
AcDbArc
 50
180.0
 51
250.087803
  0
ARC
  5
3C5
100
AcDbEntity
  8
0
370
    -3
  6
Continuous
100
AcDbCircle
 10
420.758589
 20
-16.743219
 30
0.0
 40
3.0
100
AcDbArc
 50
289.912197
 51
0.0
  0
ARC
  5
3C6
100
AcDbEntity
  8
0
370
    -3
  6
Continuous
100
AcDbCircle
 10
444.258589
 20
-81.618099
 30
0.0
 40
66.0
100
AcDbArc
 50
109.912197
 51
113.051168
  0
ARC
  5
3C7
100
AcDbEntity
  8
0
370
    -3
  6
Continuous
100
AcDbCircle
 10
444.258589
 20
-81.618099
 30
0.0
 40
66.0
100
AcDbArc
 50
64.937122
 51
70.087803
  0
ARC
  5
3C8
100
AcDbEntity
  8
0
370
    -3
  6
Continuous
100
AcDbCircle
 10
444.258589
 20
-81.618099
 30
0.0
 40
74.0
100
AcDbArc
 50
141.607582
 51
162.497476
  0
ARC
  5
3C9
100
AcDbEntity
  8
0
370
    -3
  6
Continuous
100
AcDbCircle
 10
444.258589
 20
-81.618099
 30
0.0
 40
74.0
100
AcDbArc
 50
53.52443
 51
72.497476
  0
ARC
  5
3CA
100
AcDbEntity
  8
0
370
    -3
  6
Continuous
100
AcDbCircle
 10
444.258589
 20
-81.618099
 30
0.0
 40
74.0
100
AcDbArc
 50
334.878189
 51
342.497476
  0
ARC
  5
3CB
100
AcDbEntity
  8
0
370
    -3
  6
Continuous
100
AcDbCircle
 10
444.258589
 20
-81.618099
 30
0.0
 40
74.0
100
AcDbArc
 50
208.227452
 51
211.641045
  0
LINE
  5
3CC
100
AcDbEntity
  8
0
370
    -3
  6
Continuous
100
AcDbLine
 10
378.258589
 20
-116.618099
 30
0.0
 11
381.259192
 21
-116.618099
 31
0.0
  0
LINE
  5
3CD
100
AcDbEntity
  8
0
370
    -3
  6
Continuous
100
AcDbLine
 10
377.258589
 20
-92.618099
 30
0.0
 11
377.258589
 21
-115.618099
 31
0.0
  0
ARC
  5
3CE
100
AcDbEntity
  8
0
370
    -3
  6
Continuous
100
AcDbCircle
 10
378.258589
 20
-115.618099
 30
0.0
 40
1.0
100
AcDbArc
 50
180.0
 51
270.0
  0
LINE
  5
3CF
100
AcDbEntity
  8
0
370
    -3
  6
Continuous
100
AcDbLine
 10
377.258589
 20
-69.618099
 30
0.0
 11
377.258589
 21
-92.618099
 31
0.0
  0
ARC
  5
3D0
100
AcDbEntity
  8
0
370
    -3
  6
Continuous
100
AcDbCircle
 10
378.258589
 20
-69.618099
 30
0.0
 40
1.0
100
AcDbArc
 50
90.0
 51
180.0
  0
LINE
  5
3D1
100
AcDbEntity
  8
0
370
    -3
  6
Continuous
100
AcDbLine
 10
378.258589
 20
-68.618099
 30
0.0
 11
381.259192
 21
-68.618099
 31
0.0
  0
LINE
  5
3D2
100
AcDbEntity
  8
0
370
    -3
  6
Continuous
100
AcDbLine
 10
510.258726
 20
-116.618099
 30
0.0
 11
507.258589
 21
-116.618099
 31
0.0
  0
LINE
  5
3D3
100
AcDbEntity
  8
0
370
    -3
  6
Continuous
100
AcDbLine
 10
511.258726
 20
-92.618099
 30
0.0
 11
511.258726
 21
-115.618099
 31
0.0
  0
ARC
  5
3D4
100
AcDbEntity
  8
0
370
    -3
  6
Continuous
100
AcDbCircle
 10
510.258726
 20
-115.618099
 30
0.0
 40
1.0
100
AcDbArc
 50
270.0
 51
0.0
  0
LINE
  5
3D5
100
AcDbEntity
  8
0
370
    -3
  6
Continuous
100
AcDbLine
 10
510.258726
 20
-68.618099
 30
0.0
 11
507.258589
 21
-68.618099
 31
0.0
  0
ARC
  5
3D6
100
AcDbEntity
  8
0
370
    -3
  6
Continuous
100
AcDbCircle
 10
510.258726
 20
-69.618099
 30
0.0
 40
1.0
100
AcDbArc
 50
0.0
 51
90.0
  0
LINE
  5
3D7
100
AcDbEntity
  8
0
370
    -3
  6
Continuous
100
AcDbLine
 10
511.258726
 20
-69.618099
 30
0.0
 11
511.258726
 21
-92.618099
 31
0.0
  0
ARC
  5
3D8
100
AcDbEntity
  8
0
370
    -3
  6
Continuous
100
AcDbCircle
 10
444.258589
 20
-81.618099
 30
0.0
 40
80.8
100
AcDbArc
 50
47.34642
 51
50.905432
  0
INSERT
  5
3E5
100
AcDbEntity
  8
0
100
AcDbBlockReference
  2
ZU_SYM_K__CAD_SYM_POO_SYM_B20_-1
 10
433.758589
 20
-13.618099
 30
0.0
  0
ARC
  5
3E6
100
AcDbEntity
  8
0
370
    -3
  6
Continuous
100
AcDbCircle
 10
467.541775
 20
-100.536166
 30
0.0
 40
50.8
100
AcDbArc
 50
321.428164
 51
355.66015
  0
LINE
  5
3E7
100
AcDbEntity
  8
0
370
    -3
  6
Continuous
100
AcDbLine
 10
502.258589
 20
-22.692624
 30
0.0
 11
502.258589
 21
-35.661598
 31
0.0
  0
LINE
  5
3E8
100
AcDbEntity
  8
0
370
    -3
  6
Continuous
100
AcDbLine
 10
492.758589
 20
-22.192624
 30
0.0
 11
501.758589
 21
-22.192624
 31
0.0
  0
LINE
  5
3E9
100
AcDbEntity
  8
0
370
    -3
  6
Continuous
100
AcDbLine
 10
501.758589
 20
-22.192624
 30
0.0
 11
502.258589
 21
-22.692624
 31
0.0
  0
LINE
  5
3EA
100
AcDbEntity
  8
0
370
    -3
  6
Continuous
100
AcDbLine
 10
402.870534
 20
-20.614895
 30
0.0
 11
488.250108
 21
-22.113929
 31
0.0
  0
LINE
  5
3EB
100
AcDbEntity
  8
0
370
    -3
  6
Continuous
100
AcDbLine
 10
488.250108
 20
-22.113929
 30
0.0
 11
492.758589
 21
-22.192624
 31
0.0
  0
LINE
  5
3EC
100
AcDbEntity
  8
0
370
    -3
  6
Continuous
100
AcDbLine
 10
398.258589
 20
-20.534393
 30
0.0
 11
402.870534
 21
-20.614895
 31
0.0
  0
LINE
  5
3ED
100
AcDbEntity
  8
0
370
    -3
  6
Continuous
100
AcDbLine
 10
398.258589
 20
-20.534393
 30
0.0
 11
398.258589
 21
-24.052918
 31
0.0
  0
LINE
  5
3EE
100
AcDbEntity
  8
0
370
    -3
  6
Continuous
100
AcDbLine
 10
398.258589
 20
-24.052918
 30
0.0
 11
398.258589
 21
-139.183279
 31
0.0
  0
LINE
  5
3EF
100
AcDbEntity
  8
0
370
    -3
  6
Continuous
100
AcDbLine
 10
398.258589
 20
-196.534393
 30
0.0
 11
492.758589
 21
-194.876162
 31
0.0
  0
LINE
  5
3F0
100
AcDbEntity
  8
0
370
    -3
  6
Continuous
100
AcDbLine
 10
398.258589
 20
-139.183279
 30
0.0
 11
398.258589
 21
-196.534393
 31
0.0
  0
LINE
  5
3F1
100
AcDbEntity
  8
0
370
    -3
  6
Continuous
100
AcDbLine
 10
502.258589
 20
-194.376162
 30
0.0
 11
502.258589
 21
-127.5746
 31
0.0
  0
LINE
  5
3F2
100
AcDbEntity
  8
0
370
    -3
  6
Continuous
100
AcDbLine
 10
492.758589
 20
-194.876162
 30
0.0
 11
501.758589
 21
-194.876162
 31
0.0
  0
LINE
  5
3F3
100
AcDbEntity
  8
0
370
    -3
  6
Continuous
100
AcDbLine
 10
501.758589
 20
-194.876162
 30
0.0
 11
502.258589
 21
-194.376162
 31
0.0
  0
LINE
  5
3F4
100
AcDbEntity
  8
0
370
    -3
  6
Continuous
100
AcDbLine
 10
502.258589
 20
-35.661598
 30
0.0
 11
502.258589
 21
-127.5746
 31
0.0
  0
LINE
  5
3F5
100
AcDbEntity
  8
0
370
    -3
  6
Continuous
100
AcDbLine
 10
386.259192
 20
-195.078132
 30
0.0
 11
386.259192
 21
-45.118099
 31
0.0
  0
LINE
  5
3F6
100
AcDbEntity
  8
0
370
    -3
  6
Continuous
100
AcDbLine
 10
398.258589
 20
-196.576349
 30
0.0
 11
398.258589
 21
-20.618099
 31
0.0
  0
LINE
  5
3F7
100
AcDbEntity
  8
0
370
    -3
  6
Continuous
100
AcDbLine
 10
386.755737
 20
-195.617778
 30
0.0
 11
386.259192
 21
-195.078132
 31
0.0
  0
LINE
  5
3F8
100
AcDbEntity
  8
0
370
    -3
  6
Continuous
100
AcDbLine
 10
386.755737
 20
-195.617778
 30
0.0
 11
398.258589
 21
-196.576349
 31
0.0
  0
LINE
  5
3F9
100
AcDbEntity
  8
0
370
    -3
  6
Continuous
100
AcDbLine
 10
386.755737
 20
-21.61842
 30
0.0
 11
398.258589
 21
-20.659849
 31
0.0
  0
LINE
  5
3FA
100
AcDbEntity
  8
0
370
    -3
  6
Continuous
100
AcDbLine
 10
386.755737
 20
-21.61842
 30
0.0
 11
386.259192
 21
-22.158066
 31
0.0
  0
LINE
  5
3FB
100
AcDbEntity
  8
0
370
    -3
  6
Continuous
100
AcDbLine
 10
386.259192
 20
-45.120646
 30
0.0
 11
386.259192
 21
-22.158066
 31
0.0
  0
LINE
  5
3FC
100
AcDbEntity
  8
0
370
    -3
  6
Continuous
100
AcDbLine
 10
386.259192
 20
-45.120646
 30
0.0
 11
386.259192
 21
-22.701465
 31
0.0
  0
LINE
  5
3FD
100
AcDbEntity
  8
0
370
    -3
  6
CENTER
100
AcDbLine
 10
425.346557
 20
-81.618099
 30
0.0
 11
464.858122
 21
-81.618099
 31
0.0
  0
INSERT
  5
40A
100
AcDbEntity
  8
0
100
AcDbBlockReference
  2
ZU_SYM_K__CAD_SYM_POO_SYM_B20_00004-1
 10
454.758589
 20
-13.618099
 30
0.0
  0
ARC
  5
40B
100
AcDbEntity
  8
0
370
    -3
  6
Continuous
100
AcDbCircle
 10
459.758589
 20
-18.618099
 30
0.0
 40
5.0
100
AcDbArc
 50
322.193909
 51
0.0
  0
ARC
  5
40C
100
AcDbEntity
  8
0
370
    -3
  6
Continuous
100
AcDbCircle
 10
428.758589
 20
-18.618099
 30
0.0
 40
5.0
100
AcDbArc
 50
180.0
 51
208.347117
  0
LINE
  5
40D
100
AcDbEntity
  8
0
370
    -3
  6
CENTER
100
AcDbLine
 10
433.758589
 20
-23.302282
 30
0.0
 11
433.758589
 21
-5.9257
 31
0.0
  0
LINE
  5
40E
100
AcDbEntity
  8
0
370
    -3
  6
CENTER
100
AcDbLine
 10
421.687104
 20
-13.618099
 30
0.0
 11
467.427481
 21
-13.618099
 31
0.0
  0
LINE
  5
40F
100
AcDbEntity
  8
0
370
    -3
  6
CENTER
100
AcDbLine
 10
454.758589
 20
-23.576176
 30
0.0
 11
454.758589
 21
-5.499141
 31
0.0
  0
LINE
  5
410
100
AcDbEntity
  8
0
370
    -3
  6
CENTER
100
AcDbLine
 10
429.319535
 20
11.381901
 30
0.0
 11
458.735888
 21
11.381901
 31
0.0
  0
LINE
  5
411
100
AcDbEntity
  8
0
370
    -3
  6
Continuous
100
AcDbLine
 10
464.758589
 20
-8.118099
 30
0.0
 11
464.758589
 21
21.381901
 31
0.0
  0
LINE
  5
412
100
AcDbEntity
  8
0
370
    -3
  6
Continuous
100
AcDbLine
 10
423.758589
 20
-8.118099
 30
0.0
 11
423.758589
 21
21.381901
 31
0.0
  0
CIRCLE
  5
413
100
AcDbEntity
  8
0
370
    -3
  6
Continuous
100
AcDbCircle
 10
444.258589
 20
11.381901
 30
0.0
 40
10.0
  0
LINE
  5
414
100
AcDbEntity
  8
0
370
    -3
  6
Continuous
100
AcDbLine
 10
433.758589
 20
31.381901
 30
0.0
 11
454.758589
 21
31.381901
 31
0.0
  0
ARC
  5
415
100
AcDbEntity
  8
0
370
    -3
  6
Continuous
100
AcDbCircle
 10
454.758589
 20
21.381901
 30
0.0
 40
10.0
100
AcDbArc
 50
0.0
 51
90.0
  0
ARC
  5
416
100
AcDbEntity
  8
0
370
    -3
  6
Continuous
100
AcDbCircle
 10
433.758589
 20
21.381901
 30
0.0
 40
10.0
100
AcDbArc
 50
90.0
 51
180.0
  0
ARC
  5
417
100
AcDbEntity
  8
0
370
    -3
  6
Continuous
100
AcDbCircle
 10
444.258589
 20
-81.618099
 30
0.0
 40
80.8
100
AcDbArc
 50
135.874321
 51
140.905432
  0
LINE
  5
418
100
AcDbEntity
  8
0
370
    -3
  6
CENTER
100
AcDbLine
 10
382.680869
 20
-181.618099
 30
0.0
 11
505.842089
 21
-181.618099
 31
0.0
  0
ARC
  5
419
100
AcDbEntity
  8
0
370
    -3
  6
Continuous
100
AcDbCircle
 10
444.258589
 20
-81.618099
 30
0.0
 40
80.8
100
AcDbArc
 50
129.094568
 51
131.71881
  0
LINE
  5
41A
100
AcDbEntity
  8
0
370
    -3
  6
Continuous
100
AcDbLine
 10
381.258589
 20
-45.518099
 30
0.0
 11
381.258589
 21
-92.618099
 31
0.0
  0
LINE
  5
41B
100
AcDbEntity
  8
0
370
    -3
  6
Continuous
100
AcDbLine
 10
386.258589
 20
-45.118099
 30
0.0
 11
381.658589
 21
-45.118099
 31
0.0
  0
LINE
  5
41C
100
AcDbEntity
  8
0
370
    -3
  6
CENTER
100
AcDbLine
 10
382.039405
 20
-35.618099
 30
0.0
 11
507.125018
 21
-35.618099
 31
0.0
  0
LINE
  5
41D
100
AcDbEntity
  8
0
370
    -3
  6
Continuous
100
AcDbLine
 10
381.258589
 20
-45.518099
 30
0.0
 11
381.658589
 21
-45.118099
 31
0.0
  0
ARC
  5
41E
100
AcDbEntity
  8
0
370
    -3
  6
Continuous
100
AcDbCircle
 10
425.340522
 20
-58.334913
 30
0.0
 40
50.8
100
AcDbArc
 50
94.33985
 51
129.094568
  0
LINE
  5
41F
100
AcDbEntity
  8
0
370
    -3
  6
Continuous
100
AcDbLine
 10
507.258589
 20
-45.518099
 30
0.0
 11
507.258589
 21
-92.618099
 31
0.0
  0
ARC
  5
420
100
AcDbEntity
  8
0
370
    -3
  6
Continuous
100
AcDbCircle
 10
420.975403
 20
-62.700032
 30
0.0
 40
50.8
100
AcDbArc
 50
140.905432
 51
175.66015
  0
ARC
  5
421
100
AcDbEntity
  8
0
370
    -3
  6
Continuous
100
AcDbCircle
 10
444.258589
 20
-307.618099
 30
0.0
 40
300.8
100
AcDbArc
 50
93.907828
 51
94.33985
  0
ARC
  5
422
100
AcDbEntity
  8
0
370
    -3
  6
Continuous
100
AcDbCircle
 10
670.258589
 20
-81.618099
 30
0.0
 40
300.8
100
AcDbArc
 50
175.66015
 51
180.0
  0
LINE
  5
423
100
AcDbEntity
  8
0
370
    -3
  6
Continuous
100
AcDbLine
 10
502.258589
 20
-45.118099
 30
0.0
 11
506.858589
 21
-45.118099
 31
0.0
  0
LINE
  5
424
100
AcDbEntity
  8
0
370
    -3
  6
Continuous
100
AcDbLine
 10
507.258589
 20
-45.518099
 30
0.0
 11
506.858589
 21
-45.118099
 31
0.0
  0
LINE
  5
425
100
AcDbEntity
  8
0
370
    -3
  6
Continuous
100
AcDbLine
 10
507.258589
 20
-139.718099
 30
0.0
 11
507.258589
 21
-92.618099
 31
0.0
  0
LINE
  5
426
100
AcDbEntity
  8
0
370
    -3
  6
Continuous
100
AcDbLine
 10
502.258589
 20
-140.118099
 30
0.0
 11
506.858589
 21
-140.118099
 31
0.0
  0
LINE
  5
427
100
AcDbEntity
  8
0
370
    -3
  6
Continuous
100
AcDbLine
 10
507.258589
 20
-139.718099
 30
0.0
 11
506.858589
 21
-140.118099
 31
0.0
  0
LINE
  5
428
100
AcDbEntity
  8
0
370
    -3
  6
Continuous
100
AcDbLine
 10
381.258589
 20
-139.718099
 30
0.0
 11
381.258589
 21
-92.618099
 31
0.0
  0
ARC
  5
429
100
AcDbEntity
  8
0
370
    -3
  6
Continuous
100
AcDbCircle
 10
670.258589
 20
-81.618099
 30
0.0
 40
300.8
100
AcDbArc
 50
180.0
 51
184.33985
  0
ARC
  5
42A
100
AcDbEntity
  8
0
370
    -3
  6
Continuous
100
AcDbCircle
 10
420.975403
 20
-100.536166
 30
0.0
 40
50.8
100
AcDbArc
 50
184.33985
 51
218.571836
  0
LINE
  5
42B
100
AcDbEntity
  8
0
370
    -3
  6
Continuous
100
AcDbLine
 10
386.258589
 20
-140.118099
 30
0.0
 11
381.658589
 21
-140.118099
 31
0.0
  0
LINE
  5
42C
100
AcDbEntity
  8
0
370
    -3
  6
Continuous
100
AcDbLine
 10
381.258589
 20
-139.718099
 30
0.0
 11
381.658589
 21
-140.118099
 31
0.0
  0
ARC
  5
42D
100
AcDbEntity
  8
0
370
    -3
  6
Continuous
100
AcDbCircle
 10
444.258589
 20
-81.618099
 30
0.0
 40
74.0
100
AcDbArc
 50
197.502524
 51
205.12206
  0
ARC
  5
42E
100
AcDbEntity
  8
0
370
    -3
  6
Continuous
100
AcDbCircle
 10
392.758589
 20
-97.858481
 30
0.0
 40
20.0
100
AcDbArc
 50
180.0
 51
197.502524
  0
LINE
  5
42F
100
AcDbEntity
  8
0
370
    -3
  6
Continuous
100
AcDbLine
 10
372.758589
 20
-65.377717
 30
0.0
 11
372.758589
 21
-97.858481
 31
0.0
  0
ARC
  5
430
100
AcDbEntity
  8
0
370
    -3
  6
Continuous
100
AcDbCircle
 10
444.258589
 20
-81.618099
 30
0.0
 40
74.0
100
AcDbArc
 50
107.502524
 51
124.46386
  0
ARC
  5
431
100
AcDbEntity
  8
0
370
    -3
  6
Continuous
100
AcDbCircle
 10
392.758589
 20
-65.377717
 30
0.0
 40
20.0
100
AcDbArc
 50
162.497476
 51
180.0
  0
ARC
  5
432
100
AcDbEntity
  8
0
370
    -3
  6
Continuous
100
AcDbCircle
 10
444.258589
 20
-81.618099
 30
0.0
 40
74.0
100
AcDbArc
 50
328.358955
 51
331.772548
  0
LINE
  5
433
100
AcDbEntity
  8
0
370
    -3
  6
Continuous
100
AcDbLine
 10
515.758589
 20
-65.377717
 30
0.0
 11
515.758589
 21
-97.858481
 31
0.0
  0
ARC
  5
434
100
AcDbEntity
  8
0
370
    -3
  6
Continuous
100
AcDbCircle
 10
495.758589
 20
-97.858481
 30
0.0
 40
20.0
100
AcDbArc
 50
342.497476
 51
0.0
  0
ARC
  5
435
100
AcDbEntity
  8
0
370
    -3
  6
Continuous
100
AcDbCircle
 10
218.258589
 20
-81.618099
 30
0.0
 40
300.8
100
AcDbArc
 50
355.66015
 51
360.0
  0
ARC
  5
436
100
AcDbEntity
  8
0
370
    -3
  6
Continuous
100
AcDbCircle
 10
218.258589
 20
-81.618099
 30
0.0
 40
300.8
100
AcDbArc
 50
0.0
 51
4.33985
  0
ARC
  5
437
100
AcDbEntity
  8
0
370
    -3
  6
Continuous
100
AcDbCircle
 10
444.258589
 20
-81.618099
 30
0.0
 40
80.8
100
AcDbArc
 50
39.094568
 51
44.125066
  0
ARC
  5
438
100
AcDbEntity
  8
0
370
    -3
  6
Continuous
100
AcDbCircle
 10
467.541775
 20
-62.700032
 30
0.0
 40
50.8
100
AcDbArc
 50
4.33985
 51
39.094568
  0
ARC
  5
439
100
AcDbEntity
  8
0
370
    -3
  6
Continuous
100
AcDbCircle
 10
463.176656
 20
-58.334913
 30
0.0
 40
50.8
100
AcDbArc
 50
50.905432
 51
85.66015
  0
LINE
  5
43A
100
AcDbEntity
  8
0
370
    -3
  6
CENTER
100
AcDbLine
 10
529.291495
 20
-92.618099
 30
0.0
 11
359.088532
 21
-92.618099
 31
0.0
  0
LINE
  5
43B
100
AcDbEntity
  8
0
370
    -3
  6
CENTER
100
AcDbLine
 10
444.258589
 20
-227.604052
 30
0.0
 11
444.258589
 21
37.373195
 31
0.0
  0
MTEXT
  5
43D
100
AcDbEntity
  8
0
370
    -3
  6
Continuous
100
AcDbMText
 10
-555.102356
 20
206.00676
 30
0.0
 40
15.0
 41
0.0
 71
     7
 72
     1
  1
\W0.48;GV-SHYF-RH
  7
ZU_SHPTB00001
 11
1.0
 21
0.0
 31
0.0
 73
     1
 44
1.0
  0
MTEXT
  5
43E
100
AcDbEntity
  8
0
370
    -3
  6
Continuous
100
AcDbMText
 10
-555.102356
 20
222.956772
 30
0.0
 40
15.0
 41
0.0
 71
     7
 72
     1
  1
\W0.63;三菱ギヤードモータ  
  7
ZU_SHPTB00001
 11
1.0
 21
0.0
 31
0.0
 73
     1
 44
1.0
  0
MTEXT
  5
43F
100
AcDbEntity
  8
0
370
    -3
  6
Continuous
100
AcDbMText
 10
-555.102356
 20
222.956772
 30
0.0
 40
15.0
 41
0.0
 71
     7
 72
     1
  1
\W0.63;三菱ギヤードモータ  
  7
ZU_SHPTB00001
 11
1.0
 21
0.0
 31
0.0
 73
     1
 44
1.0
  0
MTEXT
  5
440
100
AcDbEntity
  8
0
370
    -3
  6
Continuous
100
AcDbMText
 10
-555.102356
 20
138.206741
 30
0.0
 40
15.0
 41
0.0
 71
     7
 72
     1
  1
\W0.43;SCALE\W0.72;  \W0.43;1/1
  7
ZU_SHPTB00001
 11
1.0
 21
0.0
 31
0.0
 73
     1
 44
1.0
  0
MTEXT
  5
441
100
AcDbEntity
  8
0
370
    -3
  6
Continuous
100
AcDbMText
 10
-555.102356
 20
172.106766
 30
0.0
 40
15.0
 41
0.0
 71
     7
 72
     1
  1
\W0.43;600-50r/min\W0.53;　
  7
ZU_SHPTB00001
 11
1.0
 21
0.0
 31
0.0
 73
     1
 44
1.0
  0
MTEXT
  5
442
100
AcDbEntity
  8
0
370
    -3
  6
Continuous
100
AcDbMText
 10
-555.102356
 20
155.156754
 30
0.0
 40
15.0
 41
0.0
 71
     7
 72
     1
  1
\W0.42;GEAR\W0.70; \W0.42;RATIO\W0.70;  \W0.42;1/5-1/60
  7
ZU_SHPTB00001
 11
1.0
 21
0.0
 31
0.0
 73
     1
 44
1.0
  0
MTEXT
  5
443
100
AcDbEntity
  8
0
370
    -3
  6
Continuous
100
AcDbMText
 10
-555.102356
 20
189.056747
 30
0.0
 40
15.0
 41
0.0
 71
     7
 72
     1
  1
\W0.43;1.5kW
  7
ZU_SHPTB00001
 11
1.0
 21
0.0
 31
0.0
 73
     1
 44
1.0
  0
LINE
  5
444
100
AcDbEntity
  8
0
370
    -3
  6
Continuous
100
AcDbLine
 10
193.458589
 20
-74.918099
 30
0.0
 11
163.458452
 21
-74.918099
 31
0.0
  0
LINE
  5
445
100
AcDbEntity
  8
0
370
    -3
  6
Continuous
100
AcDbLine
 10
193.458589
 20
-110.318099
 30
0.0
 11
163.458452
 21
-110.318099
 31
0.0
  0
MTEXT
  5
446
100
AcDbEntity
  8
0
370
    -3
  6
Continuous
100
AcDbMText
 10
-555.102356
 20
121.206741
 30
0.0
 40
15.0
 41
0.0
 71
     7
 72
     1
  1
\W0.43;DATE\W0.72; \W0.43;2012.01.15
  7
ZU_SHPTB00001
 11
1.0
 21
0.0
 31
0.0
 73
     1
 44
1.0
  0
ARC
  5
447
100
AcDbEntity
  8
0
370
    -3
  6
Continuous
100
AcDbCircle
 10
-548.342816
 20
-164.018099
 30
0.0
 40
2.0
100
AcDbArc
 50
270.0
 51
0.0
  0
LINE
  5
448
100
AcDbEntity
  8
0
370
    -3
  6
Continuous
100
AcDbLine
 10
-521.742816
 20
-167.618099
 30
0.0
 11
-552.742816
 21
-167.618099
 31
0.0
  0
LINE
  5
449
100
AcDbEntity
  8
0
370
    -3
  6
Continuous
100
AcDbLine
 10
-552.742816
 20
-167.618099
 30
0.0
 11
-552.742816
 21
-166.018099
 31
0.0
  0
LINE
  5
44A
100
AcDbEntity
  8
0
370
    -3
  6
Continuous
100
AcDbLine
 10
-552.742816
 20
-166.018099
 30
0.0
 11
-548.342816
 21
-166.018099
 31
0.0
  0
LINE
  5
44B
100
AcDbEntity
  8
0
370
    -3
  6
Continuous
100
AcDbLine
 10
-552.742816
 20
-167.618099
 30
0.0
 11
-552.742816
 21
-168.618099
 31
0.0
  0
ARC
  5
44C
100
AcDbEntity
  8
0
370
    -3
  6
Continuous
100
AcDbCircle
 10
-495.142816
 20
-164.018099
 30
0.0
 40
2.0
100
AcDbArc
 50
180.0
 51
270.0
  0
LINE
  5
44D
100
AcDbEntity
  8
0
370
    -3
  6
Continuous
100
AcDbLine
 10
-521.742816
 20
-167.618099
 30
0.0
 11
-490.742816
 21
-167.618099
 31
0.0
  0
LINE
  5
44E
100
AcDbEntity
  8
0
370
    -3
  6
Continuous
100
AcDbLine
 10
-521.742816
 20
-167.618099
 30
0.0
 11
-490.742816
 21
-167.618099
 31
0.0
  0
LINE
  5
44F
100
AcDbEntity
  8
0
370
    -3
  6
Continuous
100
AcDbLine
 10
-490.742816
 20
-167.618099
 30
0.0
 11
-490.742816
 21
-166.018099
 31
0.0
  0
LINE
  5
450
100
AcDbEntity
  8
0
370
    -3
  6
Continuous
100
AcDbLine
 10
-490.742816
 20
-166.018099
 30
0.0
 11
-495.142816
 21
-166.018099
 31
0.0
  0
LINE
  5
451
100
AcDbEntity
  8
0
370
    -3
  6
Continuous
100
AcDbLine
 10
-490.742816
 20
-167.618099
 30
0.0
 11
-490.742816
 21
-168.618099
 31
0.0
  0
ARC
  5
452
100
AcDbEntity
  8
0
370
    -3
  6
Continuous
100
AcDbCircle
 10
-521.742816
 20
-194.618099
 30
0.0
 40
17.0
100
AcDbArc
 50
270.0
 51
90.0
  0
ARC
  5
453
100
AcDbEntity
  8
0
370
    -3
  6
Continuous
100
AcDbCircle
 10
-521.742816
 20
-194.618099
 30
0.0
 40
12.0585
100
AcDbArc
 50
270.0
 51
90.0
  0
ARC
  5
454
100
AcDbEntity
  8
0
370
    -3
  6
Continuous
100
AcDbCircle
 10
-521.742816
 20
-194.618099
 30
0.0
 40
13.2205
100
AcDbArc
 50
270.0
 51
90.0
  0
ARC
  5
455
100
AcDbEntity
  8
0
370
    -3
  6
Continuous
100
AcDbCircle
 10
-560.742816
 20
-178.173622
 30
0.0
 40
7.8
100
AcDbArc
 50
90.0
 51
180.0
  0
LINE
  5
456
100
AcDbEntity
  8
0
370
    -3
  6
Continuous
100
AcDbLine
 10
-567.742816
 20
-208.086634
 30
0.0
 11
-567.742816
 21
-177.711717
 31
0.0
  0
ARC
  5
457
100
AcDbEntity
  8
0
370
    -3
  6
Continuous
100
AcDbCircle
 10
-560.742816
 20
-208.086634
 30
0.0
 40
7.0
100
AcDbArc
 50
180.0
 51
270.0
  0
ARC
  5
458
100
AcDbEntity
  8
0
370
    -3
  6
Continuous
100
AcDbCircle
 10
-560.742816
 20
-207.624729
 30
0.0
 40
7.8
100
AcDbArc
 50
180.0
 51
270.0
  0
ARC
  5
459
100
AcDbEntity
  8
0
370
    -3
  6
Continuous
100
AcDbCircle
 10
-560.742816
 20
-212.289247
 30
0.0
 40
7.8
100
AcDbArc
 50
180.0
 51
270.0
  0
ELLIPSE
  5
45A
100
AcDbEntity
  8
0
370
    -3
  6
Continuous
100
AcDbEllipse
 10
-561.242816
 20
-218.203839
 30
0.0
 11
3.5
 21
0.0
 31
0.0
210
0.0
220
0.0
230
1.0
 40
0.656603
 41
3.5746436290433126
 42
5.32104594266894
  0
LINE
  5
45B
100
AcDbEntity
  8
0
370
    -3
  6
Continuous
100
AcDbLine
 10
-568.542816
 20
-212.289247
 30
0.0
 11
-568.542816
 21
-178.173622
 31
0.0
  0
LINE
  5
45C
100
AcDbEntity
  8
0
370
    -3
  6
Continuous
100
AcDbLine
 10
-521.742816
 20
-215.086634
 30
0.0
 11
-560.742816
 21
-215.086634
 31
0.0
  0
LINE
  5
45D
100
AcDbEntity
  8
0
370
    -3
  6
Continuous
100
AcDbLine
 10
-560.742816
 20
-220.089247
 30
0.0
 11
-521.742816
 21
-220.089247
 31
0.0
  0
LINE
  5
45E
100
AcDbEntity
  8
0
370
    -3
  6
Continuous
100
AcDbLine
 10
-552.742816
 20
-168.618099
 30
0.0
 11
-521.742816
 21
-168.618099
 31
0.0
  0
ARC
  5
45F
100
AcDbEntity
  8
0
370
    -3
  6
Continuous
100
AcDbCircle
 10
-560.742816
 20
-177.711717
 30
0.0
 40
7.0
100
AcDbArc
 50
90.0
 51
180.0
  0
LINE
  5
460
100
AcDbEntity
  8
0
370
    -3
  6
Continuous
100
AcDbLine
 10
-521.742816
 20
-168.618099
 30
0.0
 11
-549.742816
 21
-168.618099
 31
0.0
  0
LINE
  5
461
100
AcDbEntity
  8
0
370
    -3
  6
Continuous
100
AcDbLine
 10
-521.742816
 20
-213.85401
 30
0.0
 11
-547.80185
 21
-213.85401
 31
0.0
  0
LINE
  5
462
100
AcDbEntity
  8
0
370
    -3
  6
Continuous
100
AcDbLine
 10
-561.042816
 20
-176.418099
 30
0.0
 11
-561.042816
 21
-206.050957
 31
0.0
  0
LINE
  5
463
100
AcDbEntity
  8
0
370
    -3
  6
Continuous
100
AcDbLine
 10
-549.285246
 20
-213.552515
 30
0.0
 11
-558.726213
 21
-209.549462
 31
0.0
  0
ARC
  5
464
100
AcDbEntity
  8
0
370
    -3
  6
Continuous
100
AcDbCircle
 10
-547.80185
 20
-210.05401
 30
0.0
 40
3.8
100
AcDbArc
 50
247.022625
 51
270.0
  0
ARC
  5
465
100
AcDbEntity
  8
0
370
    -3
  6
Continuous
100
AcDbCircle
 10
-557.242816
 20
-206.050957
 30
0.0
 40
3.8
100
AcDbArc
 50
180.0
 51
247.022625
  0
LINE
  5
466
100
AcDbEntity
  8
0
370
    -3
  6
Continuous
100
AcDbLine
 10
-521.742816
 20
-169.618099
 30
0.0
 11
-554.242816
 21
-169.618099
 31
0.0
  0
ARC
  5
467
100
AcDbEntity
  8
0
370
    -3
  6
Continuous
100
AcDbCircle
 10
-554.242816
 20
-176.418099
 30
0.0
 40
6.8
100
AcDbArc
 50
90.0
 51
180.0
  0
LINE
  5
468
100
AcDbEntity
  8
0
370
    -3
  6
Continuous
100
AcDbLine
 10
-560.194005
 20
-173.128212
 30
0.0
 11
-561.242816
 21
-173.128212
 31
0.0
  0
ARC
  5
469
100
AcDbEntity
  8
0
370
    -3
  6
Continuous
100
AcDbCircle
 10
-561.242816
 20
-179.128212
 30
0.0
 40
6.0
100
AcDbArc
 50
90.0
 51
180.0
  0
ARC
  5
46A
100
AcDbEntity
  8
0
370
    -3
  6
Continuous
100
AcDbCircle
 10
-551.007727
 20
-169.318099
 30
0.0
 40
0.3
100
AcDbArc
 50
270.0
 51
346.657636
  0
ARC
  5
46B
100
AcDbEntity
  8
0
370
    -3
  6
Continuous
100
AcDbCircle
 10
-549.742816
 20
-169.618099
 30
0.0
 40
1.0
100
AcDbArc
 50
90.0
 51
166.657636
  0
LINE
  5
46C
100
AcDbEntity
  8
0
370
    -3
  6
CENTER
100
AcDbLine
 10
-561.242816
 20
-211.729363
 30
0.0
 11
-561.242816
 21
-216.174121
 31
0.0
  0
LINE
  5
46D
100
AcDbEntity
  8
0
370
    -3
  6
CENTER
100
AcDbLine
 10
-564.107675
 20
-214.122184
 30
0.0
 11
-558.496285
 21
-214.122184
 31
0.0
  0
ELLIPSE
  5
46E
100
AcDbEntity
  8
0
370
    -3
  6
Continuous
100
AcDbEllipse
 10
-561.242816
 20
-214.122184
 30
0.0
 11
1.6499999999999773
 21
0.0
 31
0.0
210
0.0
220
0.0
230
1.0
 40
0.422618
 41
0.0
 42
6.2831853071795862
  0
ELLIPSE
  5
46F
100
AcDbEntity
  8
0
370
    -3
  6
Continuous
100
AcDbEllipse
 10
-561.242816
 20
-214.122184
 30
0.0
 11
2.0
 21
0.0
 31
0.0
210
0.0
220
0.0
230
1.0
 40
0.422618
 41
0.0
 42
6.2831853071795862
  0
LINE
  5
470
100
AcDbEntity
  8
0
370
    -3
  6
Continuous
100
AcDbLine
 10
-557.941086
 20
-170.711717
 30
0.0
 11
-560.742816
 21
-170.711717
 31
0.0
  0
LINE
  5
471
100
AcDbEntity
  8
0
370
    -3
  6
Continuous
100
AcDbLine
 10
-560.742816
 20
-170.373622
 30
0.0
 11
-557.357989
 21
-170.373622
 31
0.0
  0
LINE
  5
472
100
AcDbEntity
  8
0
370
    -3
  6
Continuous
100
AcDbLine
 10
-567.242816
 20
-179.128212
 30
0.0
 11
-567.242816
 21
-210.68471
 31
0.0
  0
LINE
  5
473
100
AcDbEntity
  8
0
370
    -3
  6
Continuous
100
AcDbLine
 10
-521.742816
 20
-215.424729
 30
0.0
 11
-560.742816
 21
-215.424729
 31
0.0
  0
LINE
  5
474
100
AcDbEntity
  8
0
370
    -3
  6
CENTER
100
AcDbLine
 10
-503.097884
 20
-194.618099
 30
0.0
 11
-543.043273
 21
-194.618099
 31
0.0
  0
ARC
  5
475
100
AcDbEntity
  8
0
370
    -3
  6
Continuous
100
AcDbCircle
 10
-482.742816
 20
-178.173622
 30
0.0
 40
7.8
100
AcDbArc
 50
0.0
 51
90.0
  0
LINE
  5
476
100
AcDbEntity
  8
0
370
    -3
  6
Continuous
100
AcDbLine
 10
-475.742816
 20
-208.086634
 30
0.0
 11
-475.742816
 21
-177.711717
 31
0.0
  0
ARC
  5
477
100
AcDbEntity
  8
0
370
    -3
  6
Continuous
100
AcDbCircle
 10
-482.742816
 20
-208.086634
 30
0.0
 40
7.0
100
AcDbArc
 50
270.0
 51
0.0
  0
ARC
  5
478
100
AcDbEntity
  8
0
370
    -3
  6
Continuous
100
AcDbCircle
 10
-482.742816
 20
-207.624729
 30
0.0
 40
7.8
100
AcDbArc
 50
270.0
 51
0.0
  0
ARC
  5
479
100
AcDbEntity
  8
0
370
    -3
  6
Continuous
100
AcDbCircle
 10
-482.742816
 20
-212.289247
 30
0.0
 40
7.8
100
AcDbArc
 50
270.0
 51
0.0
  0
ELLIPSE
  5
47A
100
AcDbEntity
  8
0
370
    -3
  6
Continuous
100
AcDbEllipse
 10
-482.242816
 20
-218.203839
 30
0.0
 11
3.5
 21
0.0
 31
0.0
210
0.0
220
0.0
230
1.0
 40
0.656603
 41
4.103732018100386
 42
5.8501343317260392
  0
LINE
  5
47B
100
AcDbEntity
  8
0
370
    -3
  6
Continuous
100
AcDbLine
 10
-474.942816
 20
-212.289247
 30
0.0
 11
-474.942816
 21
-178.173622
 31
0.0
  0
LINE
  5
47C
100
AcDbEntity
  8
0
370
    -3
  6
Continuous
100
AcDbLine
 10
-521.742816
 20
-215.086634
 30
0.0
 11
-482.742816
 21
-215.086634
 31
0.0
  0
LINE
  5
47D
100
AcDbEntity
  8
0
370
    -3
  6
Continuous
100
AcDbLine
 10
-482.742816
 20
-220.089247
 30
0.0
 11
-521.742816
 21
-220.089247
 31
0.0
  0
LINE
  5
47E
100
AcDbEntity
  8
0
370
    -3
  6
Continuous
100
AcDbLine
 10
-490.742816
 20
-168.618099
 30
0.0
 11
-521.742816
 21
-168.618099
 31
0.0
  0
ARC
  5
47F
100
AcDbEntity
  8
0
370
    -3
  6
Continuous
100
AcDbCircle
 10
-482.742816
 20
-177.711717
 30
0.0
 40
7.0
100
AcDbArc
 50
0.0
 51
90.0
  0
LINE
  5
480
100
AcDbEntity
  8
0
370
    -3
  6
Continuous
100
AcDbLine
 10
-521.742816
 20
-168.618099
 30
0.0
 11
-493.742816
 21
-168.618099
 31
0.0
  0
LINE
  5
481
100
AcDbEntity
  8
0
370
    -3
  6
Continuous
100
AcDbLine
 10
-521.742816
 20
-213.85401
 30
0.0
 11
-495.683783
 21
-213.85401
 31
0.0
  0
LINE
  5
482
100
AcDbEntity
  8
0
370
    -3
  6
Continuous
100
AcDbLine
 10
-482.442816
 20
-176.418099
 30
0.0
 11
-482.442816
 21
-206.050957
 31
0.0
  0
LINE
  5
483
100
AcDbEntity
  8
0
370
    -3
  6
Continuous
100
AcDbLine
 10
-494.200386
 20
-213.552515
 30
0.0
 11
-484.759419
 21
-209.549462
 31
0.0
  0
ARC
  5
484
100
AcDbEntity
  8
0
370
    -3
  6
Continuous
100
AcDbCircle
 10
-495.683783
 20
-210.05401
 30
0.0
 40
3.8
100
AcDbArc
 50
270.0
 51
292.977375
  0
ARC
  5
485
100
AcDbEntity
  8
0
370
    -3
  6
Continuous
100
AcDbCircle
 10
-486.242816
 20
-206.050957
 30
0.0
 40
3.8
100
AcDbArc
 50
292.977375
 51
0.0
  0
LINE
  5
486
100
AcDbEntity
  8
0
370
    -3
  6
Continuous
100
AcDbLine
 10
-521.742816
 20
-169.618099
 30
0.0
 11
-489.242816
 21
-169.618099
 31
0.0
  0
ARC
  5
487
100
AcDbEntity
  8
0
370
    -3
  6
Continuous
100
AcDbCircle
 10
-489.242816
 20
-176.418099
 30
0.0
 40
6.8
100
AcDbArc
 50
0.0
 51
90.0
  0
LINE
  5
488
100
AcDbEntity
  8
0
370
    -3
  6
Continuous
100
AcDbLine
 10
-483.291628
 20
-173.128212
 30
0.0
 11
-482.242816
 21
-173.128212
 31
0.0
  0
ARC
  5
489
100
AcDbEntity
  8
0
370
    -3
  6
Continuous
100
AcDbCircle
 10
-482.242816
 20
-179.128212
 30
0.0
 40
6.0
100
AcDbArc
 50
0.0
 51
90.0
  0
ARC
  5
48A
100
AcDbEntity
  8
0
370
    -3
  6
Continuous
100
AcDbCircle
 10
-492.477905
 20
-169.318099
 30
0.0
 40
0.3
100
AcDbArc
 50
193.342364
 51
270.0
  0
ARC
  5
48B
100
AcDbEntity
  8
0
370
    -3
  6
Continuous
100
AcDbCircle
 10
-493.742816
 20
-169.618099
 30
0.0
 40
1.0
100
AcDbArc
 50
13.342364
 51
90.0
  0
LINE
  5
48C
100
AcDbEntity
  8
0
370
    -3
  6
CENTER
100
AcDbLine
 10
-482.242816
 20
-211.729363
 30
0.0
 11
-482.242816
 21
-216.174121
 31
0.0
  0
LINE
  5
48D
100
AcDbEntity
  8
0
370
    -3
  6
CENTER
100
AcDbLine
 10
-479.377957
 20
-214.122184
 30
0.0
 11
-484.989347
 21
-214.122184
 31
0.0
  0
ELLIPSE
  5
48E
100
AcDbEntity
  8
0
370
    -3
  6
Continuous
100
AcDbEllipse
 10
-482.242816
 20
-214.122184
 30
0.0
 11
-1.6500000000000341
 21
0.0
 31
0.0
210
0.0
220
0.0
230
1.0
 40
0.422618
 41
0.0
 42
6.2831853071795862
  0
ELLIPSE
  5
48F
100
AcDbEntity
  8
0
370
    -3
  6
Continuous
100
AcDbEllipse
 10
-482.242816
 20
-214.122184
 30
0.0
 11
-2.0
 21
0.0
 31
0.0
210
0.0
220
0.0
230
1.0
 40
0.422618
 41
0.0
 42
6.2831853071795862
  0
LINE
  5
490
100
AcDbEntity
  8
0
370
    -3
  6
Continuous
100
AcDbLine
 10
-485.544546
 20
-170.711717
 30
0.0
 11
-482.742816
 21
-170.711717
 31
0.0
  0
LINE
  5
491
100
AcDbEntity
  8
0
370
    -3
  6
Continuous
100
AcDbLine
 10
-482.742816
 20
-170.373622
 30
0.0
 11
-486.127643
 21
-170.373622
 31
0.0
  0
LINE
  5
492
100
AcDbEntity
  8
0
370
    -3
  6
Continuous
100
AcDbLine
 10
-476.242816
 20
-179.128212
 30
0.0
 11
-476.242816
 21
-210.68471
 31
0.0
  0
LINE
  5
493
100
AcDbEntity
  8
0
370
    -3
  6
Continuous
100
AcDbLine
 10
-521.742816
 20
-215.424729
 30
0.0
 11
-482.742816
 21
-215.424729
 31
0.0
  0
ARC
  5
494
100
AcDbEntity
  8
0
370
    -3
  6
Continuous
100
AcDbCircle
 10
-521.742816
 20
-194.618099
 30
0.0
 40
17.0
100
AcDbArc
 50
90.0
 51
270.0
  0
ARC
  5
495
100
AcDbEntity
  8
0
370
    -3
  6
Continuous
100
AcDbCircle
 10
-521.742816
 20
-194.618099
 30
0.0
 40
12.0585
100
AcDbArc
 50
90.0
 51
270.0
  0
ARC
  5
496
100
AcDbEntity
  8
0
370
    -3
  6
Continuous
100
AcDbCircle
 10
-521.742816
 20
-194.618099
 30
0.0
 40
13.2205
100
AcDbArc
 50
90.0
 51
270.0
  0
LINE
  5
497
100
AcDbEntity
  8
0
370
    -3
  6
Continuous
100
AcDbLine
 10
-548.574187
 20
-176.418099
 30
0.0
 11
-548.574187
 21
-213.774695
 31
0.0
  0
ARC
  5
498
100
AcDbEntity
  8
0
370
    -3
  6
Continuous
100
AcDbCircle
 10
-541.774187
 20
-176.418099
 30
0.0
 40
6.8
100
AcDbArc
 50
90.0
 51
180.0
  0
ARC
  5
499
100
AcDbEntity
  8
0
370
    -3
  6
Continuous
100
AcDbCircle
 10
-501.711445
 20
-176.418099
 30
0.0
 40
6.8
100
AcDbArc
 50
0.0
 51
90.0
  0
LINE
  5
49A
100
AcDbEntity
  8
0
370
    -3
  6
Continuous
100
AcDbLine
 10
-494.911445
 20
-176.418099
 30
0.0
 11
-494.911445
 21
-213.774695
 31
0.0
  0
LINE
  5
49B
100
AcDbEntity
  8
0
370
    -3
  6
Continuous
100
AcDbLine
 10
-497.142816
 20
-164.018099
 30
0.0
 11
-497.142816
 21
-155.818099
 31
0.0
  0
ARC
  5
49C
100
AcDbEntity
  8
0
370
    -3
  6
Continuous
100
AcDbCircle
 10
-500.342816
 20
-155.934248
 30
0.0
 40
3.2
100
AcDbArc
 50
0.0
 51
9.832422
  0
LINE
  5
49D
100
AcDbEntity
  8
0
370
    -3
  6
Continuous
100
AcDbLine
 10
-546.342816
 20
-164.018099
 30
0.0
 11
-546.342816
 21
-155.818099
 31
0.0
  0
ARC
  5
49E
100
AcDbEntity
  8
0
370
    -3
  6
Continuous
100
AcDbCircle
 10
-543.142816
 20
-155.934248
 30
0.0
 40
3.2
100
AcDbArc
 50
170.167578
 51
180.0
  0
LINE
  5
49F
100
AcDbEntity
  8
0
370
    -3
  6
CENTER
100
AcDbLine
 10
-521.742816
 20
-223.717285
 30
0.0
 11
-521.742816
 21
-161.932946
 31
0.0
  0
POINT
  5
4A0
100
AcDbEntity
  8
0
370
    -3
  6
CENTER
100
AcDbPoint
 10
-340.041108
 20
-181.397599
 30
0.0
  0
POINT
  5
4A1
100
AcDbEntity
  8
0
370
    -3
  6
CENTER
100
AcDbPoint
 10
-340.041108
 20
-207.838599
 30
0.0
  0
LINE
  5
4A2
100
AcDbEntity
  8
0
370
    -3
  6
Continuous
100
AcDbLine
 10
-313.041108
 20
-194.618099
 30
0.0
 11
-313.041108
 21
-211.618099
 31
0.0
  0
LINE
  5
4A3
100
AcDbEntity
  8
0
370
    -3
  6
Continuous
100
AcDbLine
 10
-313.041108
 20
-194.618099
 30
0.0
 11
-313.041108
 21
-177.618099
 31
0.0
  0
LINE
  5
4A4
100
AcDbEntity
  8
0
370
    -3
  6
Continuous
100
AcDbLine
 10
-340.041108
 20
-194.618099
 30
0.0
 11
-340.041108
 21
-179.618099
 31
0.0
  0
ARC
  5
4A5
100
AcDbEntity
  8
0
370
    -3
  6
Continuous
100
AcDbCircle
 10
-338.041108
 20
-179.618099
 30
0.0
 40
2.0
100
AcDbArc
 50
90.0
 51
180.0
  0
LINE
  5
4A6
100
AcDbEntity
  8
0
370
    -3
  6
Continuous
100
AcDbLine
 10
-338.041108
 20
-177.618099
 30
0.0
 11
-311.041108
 21
-177.618099
 31
0.0
  0
LINE
  5
4A7
100
AcDbEntity
  8
0
370
    -3
  6
Continuous
100
AcDbLine
 10
-340.041108
 20
-194.618099
 30
0.0
 11
-340.041108
 21
-209.618099
 31
0.0
  0
ARC
  5
4A8
100
AcDbEntity
  8
0
370
    -3
  6
Continuous
100
AcDbCircle
 10
-338.041108
 20
-209.618099
 30
0.0
 40
2.0
100
AcDbArc
 50
180.0
 51
270.0
  0
LINE
  5
4A9
100
AcDbEntity
  8
0
370
    -3
  6
Continuous
100
AcDbLine
 10
-338.041108
 20
-211.618099
 30
0.0
 11
-311.451823
 21
-211.618099
 31
0.0
  0
LINE
  5
4AA
100
AcDbEntity
  8
0
370
    -3
  6
CENTER
100
AcDbLine
 10
-266.041108
 20
-156.840682
 30
0.0
 11
-266.041108
 21
-179.750658
 31
0.0
  0
ARC
  5
4AB
100
AcDbEntity
  8
0
370
    -3
  6
Continuous
100
AcDbCircle
 10
-295.306019
 20
-169.318099
 30
0.0
 40
0.3
100
AcDbArc
 50
270.0
 51
346.657636
  0
LINE
  5
4AC
100
AcDbEntity
  8
0
370
    -3
  6
Continuous
100
AcDbLine
 10
-297.041108
 20
-167.618099
 30
0.0
 11
-297.041108
 21
-168.618099
 31
0.0
  0
ARC
  5
4AD
100
AcDbEntity
  8
0
370
    -3
  6
Continuous
100
AcDbCircle
 10
-294.041108
 20
-169.618099
 30
0.0
 40
1.0
100
AcDbArc
 50
90.0
 51
166.657636
  0
ARC
  5
4AE
100
AcDbEntity
  8
0
370
    -3
  6
Continuous
100
AcDbCircle
 10
-236.776197
 20
-169.318099
 30
0.0
 40
0.3
100
AcDbArc
 50
193.342364
 51
270.0
  0
LINE
  5
4AF
100
AcDbEntity
  8
0
370
    -3
  6
Continuous
100
AcDbLine
 10
-235.041108
 20
-167.618099
 30
0.0
 11
-235.041108
 21
-168.618099
 31
0.0
  0
LINE
  5
4B0
100
AcDbEntity
  8
0
370
    -3
  6
Continuous
100
AcDbLine
 10
-297.041108
 20
-168.618099
 30
0.0
 11
-235.041108
 21
-168.618099
 31
0.0
  0
ARC
  5
4B1
100
AcDbEntity
  8
0
370
    -3
  6
Continuous
100
AcDbCircle
 10
-238.041108
 20
-169.618099
 30
0.0
 40
1.0
100
AcDbArc
 50
13.342364
 51
90.0
  0
LINE
  5
4B2
100
AcDbEntity
  8
0
370
    -3
  6
Continuous
100
AcDbLine
 10
-304.241108
 20
-169.618099
 30
0.0
 11
-234.602954
 21
-169.618099
 31
0.0
  0
ARC
  5
4B3
100
AcDbEntity
  8
0
370
    -3
  6
Continuous
100
AcDbCircle
 10
-304.241108
 20
-176.418099
 30
0.0
 40
6.8
100
AcDbArc
 50
90.0
 51
180.0
  0
ARC
  5
4B4
100
AcDbEntity
  8
0
370
    -3
  6
Continuous
100
AcDbCircle
 10
-234.602954
 20
-173.418099
 30
0.0
 40
3.8
100
AcDbArc
 50
25.0
 51
90.0
  0
LINE
  5
4B5
100
AcDbEntity
  8
0
370
    -3
  6
Continuous
100
AcDbLine
 10
-317.924695
 20
-219.04996
 30
0.0
 11
-319.615168
 21
-215.424729
 31
0.0
  0
ARC
  5
4B6
100
AcDbEntity
  8
0
370
    -3
  6
Continuous
100
AcDbCircle
 10
-316.293341
 20
-218.289247
 30
0.0
 40
1.8
100
AcDbArc
 50
205.0
 51
295.0
  0
LINE
  5
4B7
100
AcDbEntity
  8
0
370
    -3
  6
Continuous
100
AcDbLine
 10
-221.312284
 20
-173.998853
 30
0.0
 11
-223.002758
 21
-170.373622
 31
0.0
  0
ARC
  5
4B8
100
AcDbEntity
  8
0
370
    -3
  6
Continuous
100
AcDbCircle
 10
-222.943638
 20
-174.759566
 30
0.0
 40
1.8
100
AcDbArc
 50
295.0
 51
25.0
  0
LINE
  5
4B9
100
AcDbEntity
  8
0
370
    -3
  6
CENTER
100
AcDbLine
 10
-228.878446
 20
-176.229539
 30
0.0
 11
-226.008526
 21
-182.384104
 31
0.0
  0
POINT
  5
4BA
100
AcDbEntity
  8
0
370
    -3
  6
Continuous
100
AcDbPoint
 10
-227.644483
 20
-178.937686
 30
0.0
  0
LINE
  5
4BB
100
AcDbEntity
  8
0
370
    -3
  6
CENTER
100
AcDbLine
 10
-311.352455
 20
-214.687801
 30
0.0
 11
-308.482534
 21
-220.842366
 31
0.0
  0
ARC
  5
4BC
100
AcDbEntity
  8
0
370
    -3
  6
Continuous
100
AcDbCircle
 10
-246.531013
 20
-206.901797
 30
0.0
 40
10.8
100
AcDbArc
 50
272.437505
 51
342.341575
  0
ARC
  5
4BD
100
AcDbEntity
  8
0
370
    -3
  6
Continuous
100
AcDbCircle
 10
-312.799538
 20
-211.584522
 30
0.0
 40
9.0
100
AcDbArc
 50
278.398469
 51
311.601548
  0
POINT
  5
4BE
100
AcDbEntity
  8
0
370
    -3
  6
Continuous
100
AcDbPoint
 10
-310.094781
 20
-217.384892
 30
0.0
  0
LINE
  5
4BF
100
AcDbEntity
  8
0
370
    -3
  6
Continuous
100
AcDbLine
 10
-306.922704
 20
-215.905728
 30
0.0
 11
-306.50895
 21
-216.793026
 31
0.0
  0
LINE
  5
4C0
100
AcDbEntity
  8
0
370
    -3
  6
Continuous
100
AcDbLine
 10
-313.266858
 20
-218.864055
 30
0.0
 11
-312.853104
 21
-219.751354
 31
0.0
  0
ARC
  5
4C1
100
AcDbEntity
  8
0
370
    -3
  6
Continuous
100
AcDbCircle
 10
-307.687149
 20
-217.342429
 30
0.0
 40
1.299999
100
AcDbArc
 50
311.601548
 51
25.000018
  0
ARC
  5
4C2
100
AcDbEntity
  8
0
370
    -3
  6
Continuous
100
AcDbCircle
 10
-311.674905
 20
-219.20195
 30
0.0
 40
1.299999
100
AcDbArc
 50
204.999999
 51
278.398469
  0
LINE
  5
4C3
100
AcDbEntity
  8
0
370
    -3
  6
Continuous
100
AcDbLine
 10
-224.448695
 20
-177.447466
 30
0.0
 11
-224.034941
 21
-178.334764
 31
0.0
  0
LINE
  5
4C4
100
AcDbEntity
  8
0
370
    -3
  6
CENTER
100
AcDbLine
 10
-228.878446
 20
-176.229539
 30
0.0
 11
-226.008526
 21
-182.384104
 31
0.0
  0
ARC
  5
4C5
100
AcDbEntity
  8
0
370
    -3
  6
Continuous
100
AcDbCircle
 10
-225.213141
 20
-178.884167
 30
0.0
 40
1.299999
100
AcDbArc
 50
311.601548
 51
25.000018
  0
ARC
  5
4C6
100
AcDbEntity
  8
0
370
    -3
  6
Continuous
100
AcDbCircle
 10
-230.325529
 20
-173.12626
 30
0.0
 40
9.0
100
AcDbArc
 50
278.398469
 51
311.601548
  0
LINE
  5
4C7
100
AcDbEntity
  8
0
370
    -3
  6
Continuous
100
AcDbLine
 10
-230.79285
 20
-180.405794
 30
0.0
 11
-230.379096
 21
-181.293092
 31
0.0
  0
ARC
  5
4C8
100
AcDbEntity
  8
0
370
    -3
  6
Continuous
100
AcDbCircle
 10
-229.200896
 20
-180.743688
 30
0.0
 40
1.299999
100
AcDbArc
 50
204.999999
 51
278.398469
  0
LINE
  5
4C9
100
AcDbEntity
  8
0
370
    -3
  6
CENTER
100
AcDbLine
 10
-342.519731
 20
-194.618099
 30
0.0
 11
-302.213245
 21
-194.618099
 31
0.0
  0
LINE
  5
4CA
100
AcDbEntity
  8
0
370
    -3
  6
Continuous
100
AcDbLine
 10
-222.182926
 20
-176.39092
 30
0.0
 11
-315.532628
 21
-219.920601
 31
0.0
  0
ARC
  5
4CB
100
AcDbEntity
  8
0
370
    -3
  6
Continuous
100
AcDbCircle
 10
-235.120132
 20
-185.733772
 30
0.0
 40
3.0
100
AcDbArc
 50
115.0
 51
205.0
  0
LINE
  5
4CC
100
AcDbEntity
  8
0
370
    -3
  6
Continuous
100
AcDbLine
 10
-233.103629
 20
-197.156782
 30
0.0
 11
-237.839056
 21
-187.001627
 31
0.0
  0
ARC
  5
4CD
100
AcDbEntity
  8
0
370
    -3
  6
Continuous
100
AcDbCircle
 10
-294.128096
 20
-215.012017
 30
0.0
 40
2.8
100
AcDbArc
 50
205.0
 51
267.843273
  0
LINE
  5
4CE
100
AcDbEntity
  8
0
370
    -3
  6
Continuous
100
AcDbLine
 10
-297.340788
 20
-214.747741
 30
0.0
 11
-296.665758
 21
-216.195348
 31
0.0
  0
ARC
  5
4CF
100
AcDbEntity
  8
0
370
    -3
  6
Continuous
100
AcDbCircle
 10
-300.059711
 20
-216.015595
 30
0.0
 40
3.0
100
AcDbArc
 50
25.0
 51
115.0
  0
ARC
  5
4D0
100
AcDbEntity
  8
0
370
    -3
  6
Continuous
100
AcDbCircle
 10
-235.641291
 20
-198.340114
 30
0.0
 40
2.8
100
AcDbArc
 50
344.545811
 51
25.0
  0
ARC
  5
4D1
100
AcDbEntity
  8
0
370
    -3
  6
Continuous
100
AcDbCircle
 10
-271.623506
 20
382.564374
 30
0.0
 40
600.8
100
AcDbArc
 50
266.682408
 51
272.437505
  0
ARC
  5
4D2
100
AcDbEntity
  8
0
370
    -3
  6
Continuous
100
AcDbCircle
 10
-522.866748
 20
-118.932702
 30
0.0
 40
300.8
100
AcDbArc
 50
342.341575
 51
347.89975
  0
ARC
  5
4D3
100
AcDbEntity
  8
0
370
    -3
  6
Continuous
100
AcDbCircle
 10
-248.726192
 20
-173.418099
 30
0.0
 40
3.8
100
AcDbArc
 50
25.0
 51
90.0
  0
LINE
  5
4D4
100
AcDbEntity
  8
0
370
    -3
  6
Continuous
100
AcDbLine
 10
-241.853959
 20
-179.164082
 30
0.0
 11
-245.282222
 21
-171.812149
 31
0.0
  0
LINE
  5
4D5
100
AcDbEntity
  8
0
370
    -3
  6
Continuous
100
AcDbLine
 10
-223.002758
 20
-170.373622
 30
0.0
 11
-311.451823
 21
-211.618099
 31
0.0
  0
LINE
  5
4D6
100
AcDbEntity
  8
0
370
    -3
  6
Continuous
100
AcDbLine
 10
-311.451823
 20
-211.618099
 30
0.0
 11
-319.615168
 21
-215.424729
 31
0.0
  0
LINE
  5
4D7
100
AcDbEntity
  8
0
370
    -3
  6
Continuous
100
AcDbLine
 10
-311.041108
 20
-211.426579
 30
0.0
 11
-311.041108
 21
-176.418099
 31
0.0
  0
LINE
  5
4D8
100
AcDbEntity
  8
0
370
    -3
  6
Continuous
100
AcDbLine
 10
-230.25322
 20
-173.754568
 30
0.0
 11
-231.158985
 21
-171.812149
 31
0.0
  0
LINE
  5
4D9
100
AcDbEntity
  8
0
370
    -3
  6
Continuous
100
AcDbLine
 10
-299.365414
 20
-205.982114
 30
0.0
 11
-299.365414
 21
-172.618099
 31
0.0
  0
ARC
  5
4DA
100
AcDbEntity
  8
0
370
    -3
  6
Continuous
100
AcDbCircle
 10
-296.365414
 20
-172.618099
 30
0.0
 40
3.0
100
AcDbArc
 50
90.0
 51
180.0
  0
LINE
  5
4DB
100
AcDbEntity
  8
0
370
    -3
  6
Continuous
100
AcDbLine
 10
-291.641108
 20
-155.818099
 30
0.0
 11
-291.641108
 21
-164.418099
 31
0.0
  0
LINE
  5
4DC
100
AcDbEntity
  8
0
370
    -3
  6
Continuous
100
AcDbLine
 10
-297.041108
 20
-166.018099
 30
0.0
 11
-266.041108
 21
-166.018099
 31
0.0
  0
LINE
  5
4DD
100
AcDbEntity
  8
0
370
    -3
  6
Continuous
100
AcDbLine
 10
-297.041108
 20
-167.618099
 30
0.0
 11
-297.041108
 21
-166.018099
 31
0.0
  0
ARC
  5
4DE
100
AcDbEntity
  8
0
370
    -3
  6
Continuous
100
AcDbCircle
 10
-293.241108
 20
-164.418099
 30
0.0
 40
1.6
100
AcDbArc
 50
270.0
 51
0.0
  0
LINE
  5
4DF
100
AcDbEntity
  8
0
370
    -3
  6
Continuous
100
AcDbLine
 10
-297.041108
 20
-167.618099
 30
0.0
 11
-235.041108
 21
-167.618099
 31
0.0
  0
LINE
  5
4E0
100
AcDbEntity
  8
0
370
    -3
  6
Continuous
100
AcDbLine
 10
-266.041108
 20
-167.618099
 30
0.0
 11
-297.041108
 21
-167.618099
 31
0.0
  0
LINE
  5
4E1
100
AcDbEntity
  8
0
370
    -3
  6
Continuous
100
AcDbLine
 10
-240.441108
 20
-155.818099
 30
0.0
 11
-240.441108
 21
-164.418099
 31
0.0
  0
LINE
  5
4E2
100
AcDbEntity
  8
0
370
    -3
  6
Continuous
100
AcDbLine
 10
-235.041108
 20
-166.018099
 30
0.0
 11
-266.041108
 21
-166.018099
 31
0.0
  0
LINE
  5
4E3
100
AcDbEntity
  8
0
370
    -3
  6
Continuous
100
AcDbLine
 10
-235.041108
 20
-167.618099
 30
0.0
 11
-235.041108
 21
-166.018099
 31
0.0
  0
ARC
  5
4E4
100
AcDbEntity
  8
0
370
    -3
  6
Continuous
100
AcDbCircle
 10
-238.841108
 20
-164.418099
 30
0.0
 40
1.6
100
AcDbArc
 50
180.0
 51
270.0
  0
LINE
  5
4E5
100
AcDbEntity
  8
0
370
    -3
  6
Continuous
100
AcDbLine
 10
-266.041108
 20
-167.618099
 30
0.0
 11
-235.041108
 21
-167.618099
 31
0.0
  0
LINE
  5
4E6
100
AcDbEntity
  8
0
370
    -3
  6
Continuous
100
AcDbLine
 10
-242.041108
 20
-151.618099
 30
0.0
 11
-242.041108
 21
-152.618099
 31
0.0
  0
LINE
  5
4E7
100
AcDbEntity
  8
0
370
    -3
  6
Continuous
100
AcDbLine
 10
-276.041108
 20
-152.618099
 30
0.0
 11
-242.041108
 21
-152.618099
 31
0.0
  0
ARC
  5
4E8
100
AcDbEntity
  8
0
370
    -3
  6
Continuous
100
AcDbCircle
 10
-243.641108
 20
-155.818099
 30
0.0
 40
3.2
100
AcDbArc
 50
0.0
 51
90.0
  0
ARC
  5
4E9
100
AcDbEntity
  8
0
370
    -3
  6
Continuous
100
AcDbCircle
 10
-288.441108
 20
-155.818099
 30
0.0
 40
3.2
100
AcDbArc
 50
171.333191
 51
180.0
  0
ARC
  5
4EA
100
AcDbEntity
  8
0
370
    -3
  6
DASHED
100
AcDbCircle
 10
444.258589
 20
-194.618099
 30
0.0
 40
17.0
100
AcDbArc
 50
184.745459
 51
357.265121
  0
ARC
  5
4EB
100
AcDbEntity
  8
0
370
    -3
  6
Continuous
100
AcDbCircle
 10
476.008589
 20
-211.435626
 30
0.0
 40
6.8
100
AcDbArc
 50
270.0
 51
0.0
  0
LINE
  5
4EC
100
AcDbEntity
  8
0
370
    -3
  6
Continuous
100
AcDbLine
 10
412.508589
 20
-218.235626
 30
0.0
 11
476.008589
 21
-218.235626
 31
0.0
  0
ARC
  5
4ED
100
AcDbEntity
  8
0
370
    -3
  6
Continuous
100
AcDbCircle
 10
412.508589
 20
-211.435626
 30
0.0
 40
6.8
100
AcDbArc
 50
180.0
 51
270.0
  0
LINE
  5
4EE
100
AcDbEntity
  8
0
370
    -3
  6
Continuous
100
AcDbLine
 10
397.458589
 20
-212.289247
 30
0.0
 11
397.458589
 21
-196.509682
 31
0.0
  0
LINE
  5
4EF
100
AcDbEntity
  8
0
370
    -3
  6
Continuous
100
AcDbLine
 10
482.808589
 20
-195.050759
 30
0.0
 11
482.808589
 21
-211.435626
 31
0.0
  0
LINE
  5
4F0
100
AcDbEntity
  8
0
370
    -3
  6
Continuous
100
AcDbLine
 10
405.708589
 20
-196.403665
 30
0.0
 11
405.708589
 21
-211.435626
 31
0.0
  0
LINE
  5
4F1
100
AcDbEntity
  8
0
370
    -3
  6
Continuous
100
AcDbLine
 10
482.168573
 20
-220.251119
 30
0.0
 11
483.758589
 21
-219.741292
 31
0.0
  0
LINE
  5
4F2
100
AcDbEntity
  8
0
370
    -3
  6
Continuous
100
AcDbLine
 10
483.758589
 20
-219.741292
 30
0.0
 11
481.758589
 21
-218.692104
 31
0.0
  0
LINE
  5
4F3
100
AcDbEntity
  8
0
370
    -3
  6
Continuous
100
AcDbLine
 10
483.758589
 20
-219.741292
 30
0.0
 11
485.758589
 21
-218.692104
 31
0.0
  0
LINE
  5
4F4
100
AcDbEntity
  8
0
370
    -3
  6
Continuous
100
AcDbLine
 10
485.348606
 20
-220.251119
 30
0.0
 11
483.758589
 21
-219.741292
 31
0.0
  0
ELLIPSE
  5
4F5
100
AcDbEntity
  8
0
370
    -3
  6
Continuous
100
AcDbEllipse
 10
483.758589
 20
-218.203839
 30
0.0
 11
3.5
 21
0.0
 31
0.0
210
0.0
220
0.0
230
1.0
 40
0.656603
 41
0.0
 42
6.2831853071795862
  0
ARC
  5
4F6
100
AcDbEntity
  8
0
370
    -3
  6
Continuous
100
AcDbCircle
 10
483.258589
 20
-212.289247
 30
0.0
 40
7.8
100
AcDbArc
 50
298.12516
 51
0.0
  0
LINE
  5
4F7
100
AcDbEntity
  8
0
370
    -3
  6
Continuous
100
AcDbLine
 10
406.348606
 20
-220.251119
 30
0.0
 11
404.758589
 21
-219.741292
 31
0.0
  0
LINE
  5
4F8
100
AcDbEntity
  8
0
370
    -3
  6
Continuous
100
AcDbLine
 10
404.758589
 20
-219.741292
 30
0.0
 11
406.758589
 21
-218.692104
 31
0.0
  0
LINE
  5
4F9
100
AcDbEntity
  8
0
370
    -3
  6
Continuous
100
AcDbLine
 10
404.758589
 20
-219.741292
 30
0.0
 11
402.758589
 21
-218.692104
 31
0.0
  0
LINE
  5
4FA
100
AcDbEntity
  8
0
370
    -3
  6
Continuous
100
AcDbLine
 10
403.168573
 20
-220.251119
 30
0.0
 11
404.758589
 21
-219.741292
 31
0.0
  0
ELLIPSE
  5
4FB
100
AcDbEntity
  8
0
370
    -3
  6
Continuous
100
AcDbEllipse
 10
404.758589
 20
-218.203839
 30
0.0
 11
3.5
 21
0.0
 31
0.0
210
0.0
220
0.0
230
1.0
 40
0.656603
 41
0.0
 42
6.2831853071795862
  0
ARC
  5
4FC
100
AcDbEntity
  8
0
370
    -3
  6
Continuous
100
AcDbCircle
 10
405.258589
 20
-212.289247
 30
0.0
 40
7.8
100
AcDbArc
 50
180.0
 51
241.87484
  0
LINE
  5
4FD
100
AcDbEntity
  8
0
370
    -3
  6
Continuous
100
AcDbLine
 10
406.759771
 20
-220.089247
 30
0.0
 11
481.757408
 21
-220.089247
 31
0.0
  0
LINE
  5
4FE
100
AcDbEntity
  8
0
370
    -3
  6
CENTER
100
AcDbLine
 10
425.270698
 20
-194.618099
 30
0.0
 11
463.246481
 21
-194.618099
 31
0.0
  0
LINE
  5
4FF
100
AcDbEntity
  8
0
370
    -3
  6
Continuous
100
AcDbLine
 10
491.058589
 20
-212.289247
 30
0.0
 11
491.058589
 21
-194.905993
 31
0.0
  0
CIRCLE
  5
500
100
AcDbEntity
  8
0
370
    -3
  6
Continuous
100
AcDbCircle
 10
-10.541548
 20
-92.618099
 30
0.0
 40
47.5
  0
ENDSEC
  0
SECTION
  2
OBJECTS
  0
DICTIONARY
  5
19
100
AcDbDictionary
280
     0
281
     1
  3
ACAD_GROUP
350
1A
  3
ACAD_MLINESTYLE
350
1B
  3
ACAD_LAYOUT
350
1E
  3
ACAD_PLOTSETTINGS
350
22
  3
ACAD_PLOTSTYLENAME
350
1F
  3
ACAD_WIPEOUT_VARS
350
23
  3
DWGPROPS
350
501
  0
DICTIONARY
  5
1A
102
{ACAD_REACTORS
330
19
102
}
100
AcDbDictionary
280
     0
281
     1
  0
DICTIONARY
  5
1B
102
{ACAD_REACTORS
330
19
102
}
100
AcDbDictionary
280
     0
281
     1
  3
Standard
350
1C
  0
MLINESTYLE
  5
1C
102
{ACAD_REACTORS
330
1B
102
}
100
AcDbMlineStyle
  2
Standard
 70
     0
  3

 62
     0
 51
90.0
 52
90.0
 71
     2
 49
0.5
 62
   256
  6
ByLayer
 49
-0.5
 62
   256
  6
ByLayer
  0
ACDBDICTIONARYWDFLT
  5
1F
102
{ACAD_REACTORS
330
19
102
}
100
AcDbDictionary
281
     1
  3
Normal
350
1D
100
AcDbDictionaryWithDefault
340
1D
  0
ACDBPLACEHOLDER
  5
1D
102
{ACAD_REACTORS
330
1F
102
}
  0
LAYOUT
  5
20
102
{ACAD_REACTORS
330
1E
102
}
100
AcDbPlotSettings
  1

  2

  4

  6

 40
0.0
 41
0.0
 42
0.0
 43
0.0
 44
0.0
 45
0.0
 46
0.0
 47
0.0
 48
0.0
 49
0.0
140
0.0
141
0.0
142
1.0
143
1.0
 70
  1024
 72
     0
 73
     0
 74
     0
  7

 75
     0
147
1.0
148
0.0
149
0.0
100
AcDbLayout
  1
Model
 70
     0
 71
     0
 10
0.0
 20
0.0
 11
0.0
 21
0.0
 12
0.0
 22
0.0
 32
0.0
 14
0.0
 24
0.0
 34
0.0
 15
0.0
 25
0.0
 35
0.0
146
0.0
 13
0.0
 23
0.0
 33
0.0
 16
0.0
 26
0.0
 36
0.0
 17
0.0
 27
0.0
 37
0.0
 76
     0
330
A
331
0
345
0
346
0
  0
LAYOUT
  5
21
102
{ACAD_REACTORS
330
1E
102
}
100
AcDbPlotSettings
  1

  2

  4

  6

 40
0.0
 41
0.0
 42
0.0
 43
0.0
 44
0.0
 45
0.0
 46
0.0
 47
0.0
 48
0.0
 49
0.0
140
0.0
141
0.0
142
1.0
143
1.0
 70
     0
 72
     0
 73
     0
 74
     0
  7

 75
     0
147
1.0
148
0.0
149
0.0
100
AcDbLayout
  1
Layout1
 70
     0
 71
     0
 10
0.0
 20
0.0
 11
0.0
 21
0.0
 12
0.0
 22
0.0
 32
0.0
 14
0.0
 24
0.0
 34
0.0
 15
0.0
 25
0.0
 35
0.0
146
0.0
 13
0.0
 23
0.0
 33
0.0
 16
0.0
 26
0.0
 36
0.0
 17
0.0
 27
0.0
 37
0.0
 76
     0
330
B
331
0
345
0
346
0
  0
DICTIONARY
  5
1E
102
{ACAD_REACTORS
330
19
102
}
100
AcDbDictionary
280
     0
281
     1
  3
Layout1
350
21
  3
Model
350
20
  0
DICTIONARY
  5
22
102
{ACAD_REACTORS
330
19
102
}
100
AcDbDictionary
280
     0
281
     1
  0
WIPEOUTVARIABLES
  5
23
100
AcDbWipeoutVariables
 70
     1
  0
XRECORD
  5
501
100
AcDbXrecord
280
     1
  1
DWGPROPS COOKIE
  2

  3

  4

  6

  7

  8
HK96464
  9

300
=
301
=
302
=
303
=
304
=
305
=
306
=
307
=
308
=
309
=
 40
0.0
 41
2455943.355301
 42
2455943.355301
  1

 90
        0
  0
ENDSEC
  0
EOF
