  0
SECTION
  2
HEADER
  9
$ACADVER
  1
AC1015
  9
$ACADMAINTVER
 70
     6
  9
$DWGCODEPAGE
  3
ANSI_932
  9
$INSBASE
 10
0.0
 20
0.0
 30
0.0
  9
$EXTMIN
 10
1.000000E+20
 20
1.000000E+20
 30
1.000000E+20
  9
$EXTMAX
 10
-1.000000E+20
 20
-1.000000E+20
 30
-1.000000E+20
  9
$LIMMIN
 10
0.0
 20
0.0
  9
$LIMMAX
 10
0.0
 20
0.0
  9
$ORTHOMODE
 70
     0
  9
$REGENMODE
 70
     1
  9
$FILLMODE
 70
     1
  9
$QTEXTMODE
 70
     0
  9
$MIRRTEXT
 70
     1
  9
$LTSCALE
 40
1.0
  9
$ATTMODE
 70
     1
  9
$TEXTSIZE
 40
7.0
  9
$TRACEWID
 40
0.05
  9
$TEXTSTYLE
  7
Standard
  9
$CLAYER
  8
0
  9
$CELTYPE
  6
Continuous
  9
$CECOLOR
 62
   256
  9
$CELTSCALE
 40
1.0
  9
$DISPSILH
 70
     0
  9
$DIMSCALE
 40
1.0
  9
$DIMASZ
 40
1.931852
  9
$DIMEXO
 40
1.0
  9
$DIMDLI
 40
0.38
  9
$DIMRND
 40
0.0
  9
$DIMDLE
 40
0.0
  9
$DIMEXE
 40
2.0
  9
$DIMTP
 40
0.0
  9
$DIMTM
 40
0.0
  9
$DIMTXT
 40
2.8
  9
$DIMCEN
 40
0.09
  9
$DIMTSZ
 40
0.0
  9
$DIMTOL
 70
     0
  9
$DIMLIM
 70
     0
  9
$DIMTIH
 70
     1
  9
$DIMTOH
 70
     1
  9
$DIMSE1
 70
     0
  9
$DIMSE2
 70
     0
  9
$DIMTAD
 70
     1
  9
$DIMZIN
 70
     0
  9
$DIMBLK
  1

  9
$DIMASO
 70
     1
  9
$DIMSHO
 70
     1
  9
$DIMPOST
  1

  9
$DIMAPOST
  1

  9
$DIMALT
 70
     0
  9
$DIMALTD
 70
     2
  9
$DIMALTF
 40
25.4
  9
$DIMLFAC
 40
1.0
  9
$DIMTOFL
 70
     0
  9
$DIMTVP
 40
0.0
  9
$DIMTIX
 70
     0
  9
$DIMSOXD
 70
     0
  9
$DIMSAH
 70
     0
  9
$DIMBLK1
  1

  9
$DIMBLK2
  1

  9
$DIMSTYLE
  2
Standard
  9
$DIMCLRD
 70
     0
  9
$DIMCLRE
 70
     0
  9
$DIMCLRT
 70
     0
  9
$DIMTFAC
 40
0.714286
  9
$DIMGAP
 40
0.09
  9
$DIMJUST
 70
     0
  9
$DIMSD1
 70
     0
  9
$DIMSD2
 70
     0
  9
$DIMTOLJ
 70
     1
  9
$DIMTZIN
 70
     0
  9
$DIMALTZ
 70
     0
  9
$DIMALTTZ
 70
     0
  9
$DIMUPT
 70
     0
  9
$DIMDEC
 70
     4
  9
$DIMTDEC
 70
     4
  9
$DIMALTU
 70
     2
  9
$DIMALTTD
 70
     2
  9
$DIMTXSTY
  7
Standard
  9
$DIMAUNIT
 70
     0
  9
$DIMADEC
 70
     0
  9
$DIMALTRND
 40
0.0
  9
$DIMAZIN
 70
     0
  9
$DIMDSEP
 70
     0
  9
$DIMATFIT
 70
     3
  9
$DIMFRAC
 70
     0
  9
$DIMLDRBLK
  1

  9
$DIMLUNIT
 70
     2
  9
$DIMLWD
 70
     0
  9
$DIMLWE
 70
     0
  9
$DIMTMOVE
 70
     0
  9
$LUNITS
 70
     2
  9
$LUPREC
 70
     3
  9
$SKETCHINC
 40
0.1
  9
$FILLETRAD
 40
0.0
  9
$AUNITS
 70
     0
  9
$AUPREC
 70
     0
  9
$MENU
  1
acad
  9
$ELEVATION
 40
0.0
  9
$PELEVATION
 40
0.0
  9
$THICKNESS
 40
0.0
  9
$LIMCHECK
 70
     0
  9
$CHAMFERA
 40
0.0
  9
$CHAMFERB
 40
0.0
  9
$CHAMFERC
 40
0.0
  9
$CHAMFERD
 40
0.0
  9
$SKPOLY
 70
     0
  9
$TDCREATE
 40
0.000000000
  9
$TDUCREATE
 40
0.000000000
  9
$TDUPDATE
 40
0.000000000
  9
$TDUUPDATE
 40
0.000000000
  9
$TDINDWG
 40
0.0000000000
  9
$TDUSRTIMER
 40
0.0000000000
  9
$USRTIMER
 70
     1
  9
$ANGBASE
 50
0.0
  9
$ANGDIR
 70
     0
  9
$PDMODE
 70
     0
  9
$PDSIZE
 40
0.0
  9
$PLINEWID
 40
0.0
  9
$SPLFRAME
 70
     0
  9
$SPLINETYPE
 70
     6
  9
$SPLINESEGS
 70
     8
  9
$HANDSEED
  5
554
  9
$SURFTAB1
 70
     6
  9
$SURFTAB2
 70
     6
  9
$SURFTYPE
 70
     6
  9
$SURFU
 70
     6
  9
$SURFV
 70
     6
  9
$UCSBASE
  2

  9
$UCSNAME
  2

  9
$UCSORG
 10
0.0
 20
0.0
 30
0.0
  9
$UCSXDIR
 10
1.0
 20
0.0
 30
0.0
  9
$UCSYDIR
 10
0.0
 20
1.0
 30
0.0
  9
$UCSORTHOREF
  2

  9
$UCSORTHOVIEW
 70
     0
  9
$UCSORGTOP
 10
0.0
 20
0.0
 30
0.0
  9
$UCSORGBOTTOM
 10
0.0
 20
0.0
 30
0.0
  9
$UCSORGLEFT
 10
0.0
 20
0.0
 30
0.0
  9
$UCSORGRIGHT
 10
0.0
 20
0.0
 30
0.0
  9
$UCSORGFRONT
 10
0.0
 20
0.0
 30
0.0
  9
$UCSORGBACK
 10
0.0
 20
0.0
 30
0.0
  9
$PUCSBASE
  2

  9
$PUCSNAME
  2

  9
$PUCSORG
 10
0.0
 20
0.0
 30
0.0
  9
$PUCSXDIR
 10
1.0
 20
0.0
 30
0.0
  9
$PUCSYDIR
 10
0.0
 20
1.0
 30
0.0
  9
$PUCSORTHOREF
  2

  9
$PUCSORTHOVIEW
 70
     0
  9
$PUCSORGTOP
 10
0.0
 20
0.0
 30
0.0
  9
$PUCSORGBOTTOM
 10
0.0
 20
0.0
 30
0.0
  9
$PUCSORGLEFT
 10
0.0
 20
0.0
 30
0.0
  9
$PUCSORGRIGHT
 10
0.0
 20
0.0
 30
0.0
  9
$PUCSORGFRONT
 10
0.0
 20
0.0
 30
0.0
  9
$PUCSORGBACK
 10
0.0
 20
0.0
 30
0.0
  9
$USERI1
 70
     0
  9
$USERI2
 70
     0
  9
$USERI3
 70
     0
  9
$USERI4
 70
     0
  9
$USERI5
 70
     0
  9
$USERR1
 40
0.0
  9
$USERR2
 40
0.0
  9
$USERR3
 40
0.0
  9
$USERR4
 40
0.0
  9
$USERR5
 40
0.0
  9
$WORLDVIEW
 70
     1
  9
$SHADEDGE
 70
     3
  9
$SHADEDIF
 70
    70
  9
$TILEMODE
 70
     1
  9
$MAXACTVP
 70
    16
  9
$PINSBASE
 10
0.0
 20
0.0
 30
0.0
  9
$PLIMCHECK
 70
     0
  9
$PEXTMIN
 10
1.000000E+20
 20
1.000000E+20
 30
1.000000E+20
  9
$PEXTMAX
 10
-1.000000E+20
 20
-1.000000E+20
 30
-1.000000E+20
  9
$PLIMMIN
 10
0.0
 20
0.0
  9
$PLIMMAX
 10
12.0
 20
9.0
  9
$UNITMODE
 70
     0
  9
$VISRETAIN
 70
     0
  9
$PLINEGEN
 70
     1
  9
$PSLTSCALE
 70
     0
  9
$TREEDEPTH
 70
  3020
  9
$CMLSTYLE
  2
Standard
  9
$CMLJUST
 70
     0
  9
$CMLSCALE
 40
1.0
  9
$PROXYGRAPHICS
 70
     0
  9
$MEASUREMENT
 70
     0
  9
$CELWEIGHT
370
     0
  9
$ENDCAPS
280
     0
  9
$JOINSTYLE
280
     0
  9
$LWDISPLAY
290
     0
  9
$INSUNITS
 70
     0
  9
$HYPERLINKBASE
  1

  9
$STYLESHEET
  1

  9
$XEDIT
290
     1
  9
$CEPSNTYPE
380
     0
  9
$PSTYLEMODE
290
     1
  9
$FINGERPRINTGUID
  2

  9
$VERSIONGUID
  2

  9
$EXTNAMES
290
     1
  9
$PSVPSCALE
 40
0.0
  0
ENDSEC
  0
SECTION
  2
CLASSES
  0
CLASS
  1
LWPOLYLINE
  2
AcDbPolyline
  3
AutoCAD 2000
 90
    32768
280
     0
281
     1
  0
CLASS
  1
IMAGE
  2
AcDbRasterImage
  3
ISM
 90
    32895
280
     0
281
     1
  0
CLASS
  1
OLE2FRAME
  2
AcDbOle2Frame
  3
AutoCAD 2000
 90
    32768
280
     0
281
     1
  0
CLASS
  1
HATCH
  2
AcDbHatch
  3
AutoCAD 2000
 90
    32768
280
     0
281
     1
  0
CLASS
  1
DICTIONARYVAR
  2
AcDbDictionaryVar
  3
AutoCAD 2000
 90
    32768
280
     0
281
     0
  0
CLASS
  1
RASTERVARIABLES
  2
AcDbRasterVariables
  3
ISM
 90
    32768
280
     0
281
     0
  0
CLASS
  1
IMAGEDEF
  2
AcDbRasterImageDef
  3
ISM
 90
    32768
280
     0
281
     0
  0
CLASS
  1
IMAGEDEF_REACTOR
  2
AcDbRasterImageDefReactor
  3
ISM
 90
    32769
280
     0
281
     0
  0
CLASS
  1
IDBUFFER
  2
AcDbIdBuffer
  3
AutoCAD 2000
 90
    32768
280
     0
281
     0
  0
CLASS
  1
SPATIAL_FILTER
  2
AcDbSpatialFilter
  3
AutoCAD 2000
 90
    32768
280
     0
281
     0
  0
CLASS
  1
XRECORD
  2
AcDbXrecord
  3
AutoCAD 2000
 90
        0
280
     0
281
     0
  0
CLASS
  1
SORTENTSTABLE
  2
AcDbSortentsTable
  3
AutoCAD 2000
 90
    32768
280
     0
281
     0
  0
CLASS
  1
LAYER_INDEX
  2
AcDbLayerIndex
  3
AutoCAD 2000
 90
    32768
280
     0
281
     0
  0
CLASS
  1
SPATIAL_INDEX
  2
AcDbSpatialIndex
  3
AutoCAD 2000
 90
    32768
280
     0
281
     0
  0
CLASS
  1
OBJECT_PTR
  2
CAseDLPNTableRecord
  3
"ASE-LPNTableRecord"
 90
    32769
280
     0
281
     0
  0
CLASS
  1
LAYOUT
  2
AcDbLayout
  3
AutoCAD 2000
 90
        0
280
     0
281
     0
  0
CLASS
  1
PLOTSETTINGS
  2
AcDbPlotSettings
  3
AutoCAD 2000
 90
    32768
280
     0
281
     0
  0
CLASS
  1
ACDBDICTIONARYWDFLT
  2
AcDbDictionaryWithDefault
  3
AutoCAD 2000
 90
        0
280
     0
281
     0
  0
CLASS
  1
ACDBPLACEHOLDER
  2
AcDbPlaceHolder
  3
AutoCAD 2000
 90
        0
280
     0
281
     0
  0
CLASS
  1
VBA_PROJECT
  2
AcDbVbaProject
  3
acadvba
 90
    32768
280
     0
281
     0
  0
CLASS
  1
WIPEOUT
  2
AcDbWipeout
  3
WipeOut|AutoCAD Express Tool|expresstools@autodesk.com
 90
    32895
280
     0
281
     1
  0
CLASS
  1
WIPEOUTVARIABLES
  2
AcDbWipeoutVariables
  3
WipeOut|AutoCAD Express Tool|expresstools@autodesk.com
 90
        0
280
     0
281
     0
  0
CLASS
  1
RTEXT
  2
RText
  3
RText|AutoCAD Express Tool|expresstools@autodesk.com
 90
    32768
280
     0
281
     1
  0
CLASS
  1
ARCALIGNEDTEXT
  2
AcDbArcAlignedText
  3
ATEXT|AutoCAD Express Tool|expresstools@autodesk.com
 90
    32768
280
     0
281
     1
  0
ENDSEC
  0
SECTION
  2
TABLES
  0
TABLE
  2
VPORT
  5
7
100
AcDbSymbolTable
 70
     1
  0
VPORT
  5
15
100
AcDbSymbolTableRecord
100
AcDbViewportTableRecord
  2
*ACTIVE
 70
     0
 10
0.0
 20
0.0
 11
1.0
 21
1.0
 12
0.0
 22
0.0
 13
0.0
 23
0.0
 14
1.0
 24
1.0
 15
0.0
 25
0.0
 16
0.0
 26
0.0
 36
1.0
 17
0.0
 27
0.0
 37
0.0
 40
100.0
 41
1.0
 42
50.0
 43
0.0
 44
0.0
 50
0.0
 51
0.0
 71
     0
 72
   100
 73
     1
 74
     1
 75
     0
 76
     0
 77
     0
 78
     0
281
     0
 65
     0
110
0.0
120
0.0
130
0.0
111
1.0
121
0.0
131
0.0
112
0.0
122
1.0
132
0.0
345
0
346
0
 79
     0
146
0.0
  0
ENDTAB
  0
TABLE
  2
LTYPE
  5
4
100
AcDbSymbolTable
 70
     7
  0
LTYPE
  5
11
100
AcDbSymbolTableRecord
100
AcDbLinetypeTableRecord
  2
ByBlock
 70
    64
  3

 72
    65
 73
     0
 40
0.0
  0
LTYPE
  5
12
100
AcDbSymbolTableRecord
100
AcDbLinetypeTableRecord
  2
ByLayer
 70
    64
  3

 72
    65
 73
     0
 40
0.0
  0
LTYPE
  5
13
100
AcDbSymbolTableRecord
100
AcDbLinetypeTableRecord
  2
Continuous
 70
    64
  3
Solid line
 72
    65
 73
     0
 40
0.0
  0
LTYPE
  5
24
100
AcDbSymbolTableRecord
100
AcDbLinetypeTableRecord
  2
DASHED
 70
    64
  3
Dashed __ __ __ __ __ __ __ __ __ __ __ __ __ _
 72
    65
 73
     2
 40
0.75
 49
0.5
 74
     0
 49
-0.25
 74
     0
  0
LTYPE
  5
25
100
AcDbSymbolTableRecord
100
AcDbLinetypeTableRecord
  2
CENTER
 70
    64
  3
Center ____ _ ____ _ ____ _ ____ _ ____ _ ____
 72
    65
 73
     4
 40
1.0
 49
0.5
 74
     0
 49
-0.25
 74
     0
 49
0.0
 74
     0
 49
-0.25
 74
     0
  0
LTYPE
  5
26
100
AcDbSymbolTableRecord
100
AcDbLinetypeTableRecord
  2
DIVIDE
 70
    64
  3
Divide ____ . . ____ . . ____ . . ____ . . ____
 72
    65
 73
     6
 40
1.25
 49
0.5
 74
     0
 49
-0.25
 74
     0
 49
0.0
 74
     0
 49
-0.25
 74
     0
 49
0.0
 74
     0
 49
-0.25
 74
     0
  0
LTYPE
  5
27
100
AcDbSymbolTableRecord
100
AcDbLinetypeTableRecord
  2
PHANTOM
 70
    64
  3
Phantom ______  __  __  ______  __  __  ______
 72
    65
 73
     6
 40
9.0
 49
4.3
 74
     0
 49
-0.7
 74
     0
 49
1.3
 74
     0
 49
-0.7
 74
     0
 49
1.3
 74
     0
 49
-0.7
 74
     0
  0
ENDTAB
  0
TABLE
  2
LAYER
  5
2
100
AcDbSymbolTable
 70
     3
  0
LAYER
  5
14
100
AcDbSymbolTableRecord
100
AcDbLayerTableRecord
  2
0
 70
    64
 62
    53
  6
Continuous
290
     1
370
    -3
390
1D
  0
LAYER
  5
28
100
AcDbSymbolTableRecord
100
AcDbLayerTableRecord
  2
3
 70
    64
 62
     4
  6
Continuous
290
     1
370
    -3
390
1D
  0
LAYER
  5
29
100
AcDbSymbolTableRecord
100
AcDbLayerTableRecord
  2
5
 70
    64
 62
   191
  6
Continuous
290
     1
370
    -3
390
1D
  0
ENDTAB
  0
TABLE
  2
STYLE
  5
3
100
AcDbSymbolTable
 70
     2
  0
STYLE
  5
17
100
AcDbSymbolTableRecord
100
AcDbTextStyleTableRecord
  2
Standard
 70
     0
 40
0.0
 41
1.0
 50
0.0
 71
     0
 42
0.0
  3
txt
  4

  0
STYLE
  5
465
100
AcDbSymbolTableRecord
100
AcDbTextStyleTableRecord
  2
ZU_SHPTB00001
 70
     0
 40
0.0
 41
1.0
 50
0.0
 71
     0
 42
0.0
  3
monotxt
  4
bigfont
  0
ENDTAB
  0
TABLE
  2
VIEW
  5
5
100
AcDbSymbolTable
 70
     0
  0
ENDTAB
  0
TABLE
  2
UCS
  5
6
100
AcDbSymbolTable
 70
     0
  0
ENDTAB
  0
TABLE
  2
APPID
  5
8
100
AcDbSymbolTable
 70
     1
  0
APPID
  5
16
100
AcDbSymbolTableRecord
100
AcDbRegAppTableRecord
  2
ACAD
 70
     0
  0
ENDTAB
  0
TABLE
  2
DIMSTYLE
  5
9
100
AcDbSymbolTable
 70
     1
100
AcDbDimStyleTable
 71
     0
  0
DIMSTYLE
105
18
100
AcDbSymbolTableRecord
100
AcDbDimStyleTableRecord
  2
Standard
 70
     0
  3

  4

 40
1.0
 41
0.18
 42
0.0625
 43
0.38
 44
0.18
 45
0.0
 46
0.0
 47
0.0
 48
0.0
 71
     0
 72
     0
 73
     1
 74
     1
 75
     0
 76
     0
 77
     0
 78
     0
 79
     0
140
0.18
141
0.09
142
0.0
143
25.4
144
1.0
145
0.0
146
1.0
147
0.09
148
0.0
170
     0
171
     2
172
     0
173
     0
174
     0
175
     0
176
     0
177
     0
178
     0
179
     0
271
     4
272
     4
273
     2
274
     2
275
     0
276
     0
277
     2
278
    46
279
     0
280
     0
281
     0
282
     0
283
     1
284
     0
285
     0
286
     0
288
     0
340
17
341
0
342
0
343
0
344
0
371
    -2
372
    -2
  0
ENDTAB
  0
TABLE
  2
BLOCK_RECORD
  5
1
100
AcDbSymbolTable
 70
     7
  0
BLOCK_RECORD
  5
A
100
AcDbSymbolTableRecord
100
AcDbBlockTableRecord
  2
*MODEL_SPACE
340
20
  0
BLOCK_RECORD
  5
B
100
AcDbSymbolTableRecord
100
AcDbBlockTableRecord
  2
*PAPER_SPACE
340
21
  0
BLOCK_RECORD
  5
107
100
AcDbSymbolTableRecord
100
AcDbBlockTableRecord
  2
ZU_SYM__USR_MELCAD_MD_SYM_SYM_ZU_SYM_2_-1
340
0
102
{BLKREFS
331
112
102
}
  0
BLOCK_RECORD
  5
113
100
AcDbSymbolTableRecord
100
AcDbBlockTableRecord
  2
ZU_SYM__USR_MELCAD_MD_SYM_SYM_ZU_SYM_1_-1
340
0
102
{BLKREFS
331
11E
102
}
  0
BLOCK_RECORD
  5
1A9
100
AcDbSymbolTableRecord
100
AcDbBlockTableRecord
  2
ZU_SYM__USERS_HOME_SYMBOL_POO_SYM_S07_-1
340
0
102
{BLKREFS
331
1B4
102
}
  0
BLOCK_RECORD
  5
1C3
100
AcDbSymbolTableRecord
100
AcDbBlockTableRecord
  2
ZU_SYM__USERS_HOME_SYMBOL_POO_SYM_S07_00001-1
340
0
102
{BLKREFS
331
1CE
102
}
  0
BLOCK_RECORD
  5
1DE
100
AcDbSymbolTableRecord
100
AcDbBlockTableRecord
  2
ZU_SYM__USERS_HOME_SYMBOL_POO_SYM_S07_00002-1
340
0
102
{BLKREFS
331
1E9
102
}
  0
BLOCK_RECORD
  5
1FC
100
AcDbSymbolTableRecord
100
AcDbBlockTableRecord
  2
ZU_SYM__USERS_HOME_SYMBOL_POO_SYM_S07_00003-1
340
0
102
{BLKREFS
331
207
102
}
  0
BLOCK_RECORD
  5
401
100
AcDbSymbolTableRecord
100
AcDbBlockTableRecord
  2
ZU_SYM__USERS_HOME_SYMBOL_POO_SYM_B20_-1
340
0
102
{BLKREFS
331
40C
102
}
  0
ENDTAB
  0
ENDSEC
  0
SECTION
  2
BLOCKS
  0
BLOCK
  5
D
100
AcDbEntity
  8
0
100
AcDbBlockBegin
  2
*MODEL_SPACE
 70
     0
 10
0.0
 20
0.0
 30
0.0
  3
*MODEL_SPACE
  1

  0
ENDBLK
  5
E
100
AcDbEntity
  8
0
100
AcDbBlockEnd
  0
BLOCK
  5
F
100
AcDbEntity
 67
     1
  8
0
100
AcDbBlockBegin
  2
*PAPER_SPACE
 70
     0
 10
0.0
 20
0.0
 30
0.0
  3
*PAPER_SPACE
  1

  0
ENDBLK
  5
10
100
AcDbEntity
 67
     1
  8
0
100
AcDbBlockEnd
  0
BLOCK
  5
108
100
AcDbEntity
  8
0
100
AcDbBlockBegin
  2
ZU_SYM__USR_MELCAD_MD_SYM_SYM_ZU_SYM_2_-1
 70
    64
 10
0.0
 20
0.0
 30
0.0
  3
ZU_SYM__USR_MELCAD_MD_SYM_SYM_ZU_SYM_2_-1
  1

  0
LINE
  5
109
100
AcDbEntity
  8
0
370
    -3
  6
Continuous
100
AcDbLine
 10
-7.499999
 20
6.5
 30
0.0
 11
-7.499999
 21
-6.5
 31
0.0
  0
LINE
  5
10A
100
AcDbEntity
  8
0
370
    -3
  6
Continuous
100
AcDbLine
 10
-7.499998
 20
-6.499999
 30
0.0
 11
-7.999999
 21
-5.63407
 31
0.0
  0
LINE
  5
10B
100
AcDbEntity
  8
0
370
    -3
  6
Continuous
100
AcDbLine
 10
-7.499999
 20
6.5
 30
0.0
 11
-7.999999
 21
5.633876
 31
0.0
  0
LINE
  5
10C
100
AcDbEntity
  8
0
370
    -3
  6
Continuous
100
AcDbLine
 10
0.0
 20
-6.5
 30
0.0
 11
-7.499998
 21
-6.5
 31
0.0
  0
LINE
  5
10D
100
AcDbEntity
  8
0
370
    -3
  6
Continuous
100
AcDbLine
 10
0.0
 20
6.5
 30
0.0
 11
-7.499999
 21
6.5
 31
0.0
  0
LINE
  5
10E
100
AcDbEntity
  8
0
370
    -3
  6
Continuous
100
AcDbLine
 10
-7.999999
 20
5.633876
 30
0.0
 11
-7.999999
 21
-5.63407
 31
0.0
  0
LINE
  5
10F
100
AcDbEntity
  8
0
370
    -3
  6
Continuous
100
AcDbLine
 10
0.0
 20
-6.5
 30
0.0
 11
0.0
 21
6.5
 31
0.0
  0
POINT
  5
110
100
AcDbEntity
  8
0
370
    -3
  6
Continuous
100
AcDbPoint
 10
0.0
 20
0.0
 30
0.0
  0
ENDBLK
  5
111
100
AcDbEntity
  8
0
100
AcDbBlockEnd
  0
BLOCK
  5
114
100
AcDbEntity
  8
0
100
AcDbBlockBegin
  2
ZU_SYM__USR_MELCAD_MD_SYM_SYM_ZU_SYM_1_-1
 70
    64
 10
0.0
 20
0.0
 30
0.0
  3
ZU_SYM__USR_MELCAD_MD_SYM_SYM_ZU_SYM_1_-1
  1

  0
LINE
  5
115
100
AcDbEntity
  8
0
370
    -3
  6
Continuous
100
AcDbLine
 10
-7.499999
 20
6.5
 30
0.0
 11
-7.499999
 21
-6.5
 31
0.0
  0
LINE
  5
116
100
AcDbEntity
  8
0
370
    -3
  6
Continuous
100
AcDbLine
 10
-7.499998
 20
-6.499999
 30
0.0
 11
-7.999999
 21
-5.63407
 31
0.0
  0
LINE
  5
117
100
AcDbEntity
  8
0
370
    -3
  6
Continuous
100
AcDbLine
 10
-7.499999
 20
6.5
 30
0.0
 11
-7.999999
 21
5.633876
 31
0.0
  0
LINE
  5
118
100
AcDbEntity
  8
0
370
    -3
  6
Continuous
100
AcDbLine
 10
0.0
 20
-6.5
 30
0.0
 11
-7.499998
 21
-6.5
 31
0.0
  0
LINE
  5
119
100
AcDbEntity
  8
0
370
    -3
  6
Continuous
100
AcDbLine
 10
0.0
 20
6.5
 30
0.0
 11
-7.499999
 21
6.5
 31
0.0
  0
LINE
  5
11A
100
AcDbEntity
  8
0
370
    -3
  6
Continuous
100
AcDbLine
 10
-7.999999
 20
5.633876
 30
0.0
 11
-7.999999
 21
-5.63407
 31
0.0
  0
LINE
  5
11B
100
AcDbEntity
  8
0
370
    -3
  6
Continuous
100
AcDbLine
 10
0.0
 20
-6.5
 30
0.0
 11
0.0
 21
6.5
 31
0.0
  0
POINT
  5
11C
100
AcDbEntity
  8
0
370
    -3
  6
Continuous
100
AcDbPoint
 10
0.0
 20
0.0
 30
0.0
  0
ENDBLK
  5
11D
100
AcDbEntity
  8
0
100
AcDbBlockEnd
  0
BLOCK
  5
1AA
100
AcDbEntity
  8
0
100
AcDbBlockBegin
  2
ZU_SYM__USERS_HOME_SYMBOL_POO_SYM_S07_-1
 70
    64
 10
0.0
 20
0.0
 30
0.0
  3
ZU_SYM__USERS_HOME_SYMBOL_POO_SYM_S07_-1
  1

  0
ARC
  5
1AB
100
AcDbEntity
  8
0
370
    -3
  6
Continuous
100
AcDbCircle
 10
-0.979025
 20
-2.200001
 30
0.0
 40
1.299999
100
AcDbArc
 50
196.601531
 51
270.0
  0
ARC
  5
1AC
100
AcDbEntity
  8
0
370
    -3
  6
Continuous
100
AcDbCircle
 10
-0.979025
 20
2.200001
 30
0.0
 40
1.299999
100
AcDbArc
 50
90.0
 51
163.398452
  0
LINE
  5
1AD
100
AcDbEntity
  8
0
370
    -3
  6
Continuous
100
AcDbLine
 10
0.0
 20
-3.5
 30
0.0
 11
-0.979025
 21
-3.5
 31
0.0
  0
LINE
  5
1AE
100
AcDbEntity
  8
0
370
    -3
  6
Continuous
100
AcDbLine
 10
0.0
 20
3.5
 30
0.0
 11
-0.979025
 21
3.5
 31
0.0
  0
LINE
  5
1AF
100
AcDbEntity
  8
0
370
    -3
  6
Continuous
100
AcDbLine
 10
0.0
 20
-3.5
 30
0.0
 11
0.0
 21
3.5
 31
0.0
  0
LINE
  5
1B0
100
AcDbEntity
  8
0
370
    -3
  6
Continuous
100
AcDbLine
 10
0.0
 20
-3.5
 30
0.0
 11
0.0
 21
3.5
 31
0.0
  0
POINT
  5
1B1
100
AcDbEntity
  8
0
370
    -3
  6
Continuous
100
AcDbPoint
 10
0.0
 20
0.0
 30
0.0
  0
ARC
  5
1B2
100
AcDbEntity
  8
0
370
    -3
  6
Continuous
100
AcDbCircle
 10
6.4
 20
0.0
 30
0.0
 40
9.0
100
AcDbArc
 50
163.398452
 51
196.601531
  0
ENDBLK
  5
1B3
100
AcDbEntity
  8
0
100
AcDbBlockEnd
  0
BLOCK
  5
1C4
100
AcDbEntity
  8
0
100
AcDbBlockBegin
  2
ZU_SYM__USERS_HOME_SYMBOL_POO_SYM_S07_00001-1
 70
    64
 10
0.0
 20
0.0
 30
0.0
  3
ZU_SYM__USERS_HOME_SYMBOL_POO_SYM_S07_00001-1
  1

  0
ARC
  5
1C5
100
AcDbEntity
  8
0
370
    -3
  6
Continuous
100
AcDbCircle
 10
-0.979025
 20
-2.200001
 30
0.0
 40
1.299999
100
AcDbArc
 50
196.601531
 51
270.0
  0
ARC
  5
1C6
100
AcDbEntity
  8
0
370
    -3
  6
Continuous
100
AcDbCircle
 10
-0.979025
 20
2.200001
 30
0.0
 40
1.299999
100
AcDbArc
 50
90.0
 51
163.398452
  0
LINE
  5
1C7
100
AcDbEntity
  8
0
370
    -3
  6
Continuous
100
AcDbLine
 10
0.0
 20
-3.5
 30
0.0
 11
-0.979025
 21
-3.5
 31
0.0
  0
LINE
  5
1C8
100
AcDbEntity
  8
0
370
    -3
  6
Continuous
100
AcDbLine
 10
0.0
 20
3.5
 30
0.0
 11
-0.979025
 21
3.5
 31
0.0
  0
LINE
  5
1C9
100
AcDbEntity
  8
0
370
    -3
  6
Continuous
100
AcDbLine
 10
0.0
 20
-3.5
 30
0.0
 11
0.0
 21
3.5
 31
0.0
  0
LINE
  5
1CA
100
AcDbEntity
  8
0
370
    -3
  6
Continuous
100
AcDbLine
 10
0.0
 20
-3.5
 30
0.0
 11
0.0
 21
3.5
 31
0.0
  0
POINT
  5
1CB
100
AcDbEntity
  8
0
370
    -3
  6
Continuous
100
AcDbPoint
 10
0.0
 20
0.0
 30
0.0
  0
ARC
  5
1CC
100
AcDbEntity
  8
0
370
    -3
  6
Continuous
100
AcDbCircle
 10
6.4
 20
0.0
 30
0.0
 40
9.0
100
AcDbArc
 50
163.398452
 51
196.601531
  0
ENDBLK
  5
1CD
100
AcDbEntity
  8
0
100
AcDbBlockEnd
  0
BLOCK
  5
1DF
100
AcDbEntity
  8
0
100
AcDbBlockBegin
  2
ZU_SYM__USERS_HOME_SYMBOL_POO_SYM_S07_00002-1
 70
    64
 10
0.0
 20
0.0
 30
0.0
  3
ZU_SYM__USERS_HOME_SYMBOL_POO_SYM_S07_00002-1
  1

  0
ARC
  5
1E0
100
AcDbEntity
  8
0
370
    -3
  6
Continuous
100
AcDbCircle
 10
-0.979025
 20
-2.200001
 30
0.0
 40
1.299999
100
AcDbArc
 50
196.601531
 51
270.0
  0
ARC
  5
1E1
100
AcDbEntity
  8
0
370
    -3
  6
Continuous
100
AcDbCircle
 10
-0.979025
 20
2.200001
 30
0.0
 40
1.299999
100
AcDbArc
 50
90.0
 51
163.398452
  0
LINE
  5
1E2
100
AcDbEntity
  8
0
370
    -3
  6
Continuous
100
AcDbLine
 10
0.0
 20
-3.5
 30
0.0
 11
-0.979025
 21
-3.5
 31
0.0
  0
LINE
  5
1E3
100
AcDbEntity
  8
0
370
    -3
  6
Continuous
100
AcDbLine
 10
0.0
 20
3.5
 30
0.0
 11
-0.979025
 21
3.5
 31
0.0
  0
LINE
  5
1E4
100
AcDbEntity
  8
0
370
    -3
  6
Continuous
100
AcDbLine
 10
0.0
 20
-3.5
 30
0.0
 11
0.0
 21
3.5
 31
0.0
  0
LINE
  5
1E5
100
AcDbEntity
  8
0
370
    -3
  6
Continuous
100
AcDbLine
 10
0.0
 20
-3.5
 30
0.0
 11
0.0
 21
3.5
 31
0.0
  0
POINT
  5
1E6
100
AcDbEntity
  8
0
370
    -3
  6
Continuous
100
AcDbPoint
 10
0.0
 20
0.0
 30
0.0
  0
ARC
  5
1E7
100
AcDbEntity
  8
0
370
    -3
  6
Continuous
100
AcDbCircle
 10
6.4
 20
0.0
 30
0.0
 40
9.0
100
AcDbArc
 50
163.398452
 51
196.601531
  0
ENDBLK
  5
1E8
100
AcDbEntity
  8
0
100
AcDbBlockEnd
  0
BLOCK
  5
1FD
100
AcDbEntity
  8
0
100
AcDbBlockBegin
  2
ZU_SYM__USERS_HOME_SYMBOL_POO_SYM_S07_00003-1
 70
    64
 10
0.0
 20
0.0
 30
0.0
  3
ZU_SYM__USERS_HOME_SYMBOL_POO_SYM_S07_00003-1
  1

  0
ARC
  5
1FE
100
AcDbEntity
  8
0
370
    -3
  6
Continuous
100
AcDbCircle
 10
-0.979025
 20
-2.200001
 30
0.0
 40
1.299999
100
AcDbArc
 50
196.601531
 51
270.0
  0
ARC
  5
1FF
100
AcDbEntity
  8
0
370
    -3
  6
Continuous
100
AcDbCircle
 10
-0.979025
 20
2.200001
 30
0.0
 40
1.299999
100
AcDbArc
 50
90.0
 51
163.398452
  0
LINE
  5
200
100
AcDbEntity
  8
0
370
    -3
  6
Continuous
100
AcDbLine
 10
0.0
 20
-3.5
 30
0.0
 11
-0.979025
 21
-3.5
 31
0.0
  0
LINE
  5
201
100
AcDbEntity
  8
0
370
    -3
  6
Continuous
100
AcDbLine
 10
0.0
 20
3.5
 30
0.0
 11
-0.979025
 21
3.5
 31
0.0
  0
LINE
  5
202
100
AcDbEntity
  8
0
370
    -3
  6
Continuous
100
AcDbLine
 10
0.0
 20
-3.5
 30
0.0
 11
0.0
 21
3.5
 31
0.0
  0
LINE
  5
203
100
AcDbEntity
  8
0
370
    -3
  6
Continuous
100
AcDbLine
 10
0.0
 20
-3.5
 30
0.0
 11
0.0
 21
3.5
 31
0.0
  0
POINT
  5
204
100
AcDbEntity
  8
0
370
    -3
  6
Continuous
100
AcDbPoint
 10
0.0
 20
0.0
 30
0.0
  0
ARC
  5
205
100
AcDbEntity
  8
0
370
    -3
  6
Continuous
100
AcDbCircle
 10
6.4
 20
0.0
 30
0.0
 40
9.0
100
AcDbArc
 50
163.398452
 51
196.601531
  0
ENDBLK
  5
206
100
AcDbEntity
  8
0
100
AcDbBlockEnd
  0
BLOCK
  5
402
100
AcDbEntity
  8
0
100
AcDbBlockBegin
  2
ZU_SYM__USERS_HOME_SYMBOL_POO_SYM_B20_-1
 70
    64
 10
0.0
 20
0.0
 30
0.0
  3
ZU_SYM__USERS_HOME_SYMBOL_POO_SYM_B20_-1
  1

  0
POINT
  5
403
100
AcDbEntity
  8
0
370
    -3
  6
Continuous
100
AcDbPoint
 10
0.0
 20
0.0
 30
0.0
  0
LINE
  5
404
100
AcDbEntity
  8
0
370
    -3
  6
Continuous
100
AcDbLine
 10
0.0
 20
-6.5
 30
0.0
 11
0.0
 21
6.5
 31
0.0
  0
LINE
  5
405
100
AcDbEntity
  8
0
370
    -3
  6
Continuous
100
AcDbLine
 10
-7.999999
 20
5.633876
 30
0.0
 11
-7.999999
 21
-5.63407
 31
0.0
  0
LINE
  5
406
100
AcDbEntity
  8
0
370
    -3
  6
Continuous
100
AcDbLine
 10
0.0
 20
6.5
 30
0.0
 11
-7.499999
 21
6.5
 31
0.0
  0
LINE
  5
407
100
AcDbEntity
  8
0
370
    -3
  6
Continuous
100
AcDbLine
 10
0.0
 20
-6.5
 30
0.0
 11
-7.499998
 21
-6.5
 31
0.0
  0
LINE
  5
408
100
AcDbEntity
  8
0
370
    -3
  6
Continuous
100
AcDbLine
 10
-7.499999
 20
6.5
 30
0.0
 11
-7.999999
 21
5.633876
 31
0.0
  0
LINE
  5
409
100
AcDbEntity
  8
0
370
    -3
  6
Continuous
100
AcDbLine
 10
-7.499998
 20
-6.499999
 30
0.0
 11
-7.999999
 21
-5.63407
 31
0.0
  0
LINE
  5
40A
100
AcDbEntity
  8
0
370
    -3
  6
Continuous
100
AcDbLine
 10
-7.499999
 20
6.5
 30
0.0
 11
-7.499999
 21
-6.5
 31
0.0
  0
ENDBLK
  5
40B
100
AcDbEntity
  8
0
100
AcDbBlockEnd
  0
ENDSEC
  0
SECTION
  2
ENTITIES
  0
LINE
  5
2A
100
AcDbEntity
  8
0
370
    -3
  6
Continuous
100
AcDbLine
 10
101.166024
 20
-97.332778
 30
0.0
 11
99.216024
 21
-97.332778
 31
0.0
  0
LINE
  5
2B
100
AcDbEntity
  8
0
370
    -3
  6
Continuous
100
AcDbLine
 10
101.166024
 20
-49.832778
 30
0.0
 11
99.216024
 21
-49.832778
 31
0.0
  0
LINE
  5
2C
100
AcDbEntity
  8
0
370
    -3
  6
Continuous
100
AcDbLine
 10
201.116024
 20
-97.332778
 30
0.0
 11
199.166024
 21
-97.332778
 31
0.0
  0
LINE
  5
2D
100
AcDbEntity
  8
0
370
    -3
  6
Continuous
100
AcDbLine
 10
201.116024
 20
-49.832778
 30
0.0
 11
199.166024
 21
-49.832778
 31
0.0
  0
LINE
  5
2E
100
AcDbEntity
  8
0
370
    -3
  6
Continuous
100
AcDbLine
 10
99.216024
 20
-97.332778
 30
0.0
 11
99.216024
 21
-49.832778
 31
0.0
  0
LINE
  5
2F
100
AcDbEntity
  8
0
370
    -3
  6
Continuous
100
AcDbLine
 10
201.116024
 20
-97.332778
 30
0.0
 11
201.116024
 21
-49.832778
 31
0.0
  0
LINE
  5
30
100
AcDbEntity
  8
0
370
    -3
  6
Continuous
100
AcDbLine
 10
136.166024
 20
-106.132778
 30
0.0
 11
136.166024
 21
-108.082778
 31
0.0
  0
LINE
  5
31
100
AcDbEntity
  8
0
370
    -3
  6
Continuous
100
AcDbLine
 10
136.166024
 20
-39.082778
 30
0.0
 11
136.166024
 21
-41.032778
 31
0.0
  0
LINE
  5
32
100
AcDbEntity
  8
0
370
    -3
  6
Continuous
100
AcDbLine
 10
228.766024
 20
-105.082778
 30
0.0
 11
208.566024
 21
-105.082778
 31
0.0
  0
LINE
  5
33
100
AcDbEntity
  8
0
370
    -3
  6
Continuous
100
AcDbLine
 10
71.166024
 20
-105.082778
 30
0.0
 11
92.166024
 21
-105.082778
 31
0.0
  0
LINE
  5
34
100
AcDbEntity
  8
0
370
    -3
  6
Continuous
100
AcDbLine
 10
229.166024
 20
-105.082778
 30
0.0
 11
208.166024
 21
-105.082778
 31
0.0
  0
LINE
  5
35
100
AcDbEntity
  8
0
370
    -3
  6
Continuous
100
AcDbLine
 10
228.766024
 20
-42.082778
 30
0.0
 11
208.566024
 21
-42.082778
 31
0.0
  0
LINE
  5
36
100
AcDbEntity
  8
0
370
    -3
  6
Continuous
100
AcDbLine
 10
71.166024
 20
-42.082778
 30
0.0
 11
92.166024
 21
-42.082778
 31
0.0
  0
LINE
  5
37
100
AcDbEntity
  8
0
370
    -3
  6
Continuous
100
AcDbLine
 10
229.166024
 20
-42.082778
 30
0.0
 11
208.166024
 21
-42.082778
 31
0.0
  0
LINE
  5
38
100
AcDbEntity
  8
0
370
    -3
  6
Continuous
100
AcDbLine
 10
229.166024
 20
-105.082778
 30
0.0
 11
208.166024
 21
-105.082778
 31
0.0
  0
LINE
  5
39
100
AcDbEntity
  8
0
370
    -3
  6
Continuous
100
AcDbLine
 10
92.166024
 20
-105.082778
 30
0.0
 11
92.166024
 21
-106.082778
 31
0.0
  0
LINE
  5
3A
100
AcDbEntity
  8
0
370
    -3
  6
Continuous
100
AcDbLine
 10
71.166024
 20
-105.082778
 30
0.0
 11
92.166024
 21
-105.082778
 31
0.0
  0
LINE
  5
3B
100
AcDbEntity
  8
0
370
    -3
  6
Continuous
100
AcDbLine
 10
107.266024
 20
-106.082778
 30
0.0
 11
92.166024
 21
-106.082778
 31
0.0
  0
LINE
  5
3C
100
AcDbEntity
  8
0
370
    -3
  6
Continuous
100
AcDbLine
 10
208.166024
 20
-106.082778
 30
0.0
 11
192.666024
 21
-106.082778
 31
0.0
  0
LINE
  5
3D
100
AcDbEntity
  8
0
370
    -3
  6
Continuous
100
AcDbLine
 10
194.666024
 20
-106.082778
 30
0.0
 11
208.166024
 21
-106.082778
 31
0.0
  0
LINE
  5
3E
100
AcDbEntity
  8
0
370
    -3
  6
Continuous
100
AcDbLine
 10
208.166024
 20
-105.082778
 30
0.0
 11
208.166024
 21
-106.082778
 31
0.0
  0
LINE
  5
3F
100
AcDbEntity
  8
0
370
    -3
  6
Continuous
100
AcDbLine
 10
229.166024
 20
-42.082778
 30
0.0
 11
208.166024
 21
-42.082778
 31
0.0
  0
LINE
  5
40
100
AcDbEntity
  8
0
370
    -3
  6
Continuous
100
AcDbLine
 10
92.166024
 20
-42.082778
 30
0.0
 11
92.166024
 21
-41.082778
 31
0.0
  0
LINE
  5
41
100
AcDbEntity
  8
0
370
    -3
  6
Continuous
100
AcDbLine
 10
71.166024
 20
-42.082778
 30
0.0
 11
92.166024
 21
-42.082778
 31
0.0
  0
LINE
  5
42
100
AcDbEntity
  8
0
370
    -3
  6
Continuous
100
AcDbLine
 10
107.266024
 20
-41.082778
 30
0.0
 11
92.166024
 21
-41.082778
 31
0.0
  0
LINE
  5
43
100
AcDbEntity
  8
0
370
    -3
  6
Continuous
100
AcDbLine
 10
208.166024
 20
-41.082778
 30
0.0
 11
192.666024
 21
-41.082778
 31
0.0
  0
LINE
  5
44
100
AcDbEntity
  8
0
370
    -3
  6
Continuous
100
AcDbLine
 10
194.666024
 20
-41.082778
 30
0.0
 11
208.166024
 21
-41.082778
 31
0.0
  0
LINE
  5
45
100
AcDbEntity
  8
0
370
    -3
  6
Continuous
100
AcDbLine
 10
208.166024
 20
-42.082778
 30
0.0
 11
208.166024
 21
-41.082778
 31
0.0
  0
LINE
  5
46
100
AcDbEntity
  8
0
370
    -3
  6
Continuous
100
AcDbLine
 10
107.266024
 20
-106.082778
 30
0.0
 11
92.566024
 21
-106.082778
 31
0.0
  0
LINE
  5
47
100
AcDbEntity
  8
0
370
    -3
  6
Continuous
100
AcDbLine
 10
229.166024
 20
-73.582778
 30
0.0
 11
229.166024
 21
-105.082778
 31
0.0
  0
LINE
  5
48
100
AcDbEntity
  8
0
370
    -3
  6
Continuous
100
AcDbLine
 10
92.166024
 20
-105.082778
 30
0.0
 11
92.166024
 21
-106.082778
 31
0.0
  0
LINE
  5
49
100
AcDbEntity
  8
0
370
    -3
  6
Continuous
100
AcDbLine
 10
208.166024
 20
-105.082778
 30
0.0
 11
208.166024
 21
-106.082778
 31
0.0
  0
LINE
  5
4A
100
AcDbEntity
  8
0
370
    -3
  6
Continuous
100
AcDbLine
 10
226.666024
 20
-96.082778
 30
0.0
 11
201.116024
 21
-96.082778
 31
0.0
  0
LINE
  5
4B
100
AcDbEntity
  8
0
370
    -3
  6
Continuous
100
AcDbLine
 10
107.266024
 20
-106.082778
 30
0.0
 11
92.166024
 21
-106.082778
 31
0.0
  0
LINE
  5
4C
100
AcDbEntity
  8
0
370
    -3
  6
Continuous
100
AcDbLine
 10
194.666024
 20
-106.082778
 30
0.0
 11
208.166024
 21
-106.082778
 31
0.0
  0
LINE
  5
4D
100
AcDbEntity
  8
0
370
    -3
  6
Continuous
100
AcDbLine
 10
71.166024
 20
-73.582778
 30
0.0
 11
71.166024
 21
-105.082778
 31
0.0
  0
LINE
  5
4E
100
AcDbEntity
  8
0
370
    -3
  6
Continuous
100
AcDbLine
 10
99.216024
 20
-96.082778
 30
0.0
 11
73.666024
 21
-96.082778
 31
0.0
  0
LINE
  5
4F
100
AcDbEntity
  8
0
370
    -3
  6
Continuous
100
AcDbLine
 10
199.166024
 20
-96.082778
 30
0.0
 11
162.166024
 21
-96.082778
 31
0.0
  0
LINE
  5
50
100
AcDbEntity
  8
0
370
    -3
  6
Continuous
100
AcDbLine
 10
138.166024
 20
-96.082778
 30
0.0
 11
101.166024
 21
-96.082778
 31
0.0
  0
LINE
  5
51
100
AcDbEntity
  8
0
370
    -3
  6
Continuous
100
AcDbLine
 10
107.266024
 20
-41.082778
 30
0.0
 11
92.566024
 21
-41.082778
 31
0.0
  0
LINE
  5
52
100
AcDbEntity
  8
0
370
    -3
  6
Continuous
100
AcDbLine
 10
229.166024
 20
-73.582778
 30
0.0
 11
229.166024
 21
-42.082778
 31
0.0
  0
LINE
  5
53
100
AcDbEntity
  8
0
370
    -3
  6
Continuous
100
AcDbLine
 10
92.166024
 20
-42.082778
 30
0.0
 11
92.166024
 21
-41.082778
 31
0.0
  0
LINE
  5
54
100
AcDbEntity
  8
0
370
    -3
  6
Continuous
100
AcDbLine
 10
208.166024
 20
-42.082778
 30
0.0
 11
208.166024
 21
-41.082778
 31
0.0
  0
LINE
  5
55
100
AcDbEntity
  8
0
370
    -3
  6
Continuous
100
AcDbLine
 10
226.666024
 20
-51.082778
 30
0.0
 11
201.116024
 21
-51.082778
 31
0.0
  0
LINE
  5
56
100
AcDbEntity
  8
0
370
    -3
  6
Continuous
100
AcDbLine
 10
107.266024
 20
-41.082778
 30
0.0
 11
92.166024
 21
-41.082778
 31
0.0
  0
LINE
  5
57
100
AcDbEntity
  8
0
370
    -3
  6
Continuous
100
AcDbLine
 10
194.666024
 20
-41.082778
 30
0.0
 11
208.166024
 21
-41.082778
 31
0.0
  0
LINE
  5
58
100
AcDbEntity
  8
0
370
    -3
  6
Continuous
100
AcDbLine
 10
71.166024
 20
-73.582778
 30
0.0
 11
71.166024
 21
-42.082778
 31
0.0
  0
LINE
  5
59
100
AcDbEntity
  8
0
370
    -3
  6
Continuous
100
AcDbLine
 10
99.216024
 20
-51.082778
 30
0.0
 11
73.666024
 21
-51.082778
 31
0.0
  0
LINE
  5
5A
100
AcDbEntity
  8
0
370
    -3
  6
Continuous
100
AcDbLine
 10
199.166024
 20
-51.082778
 30
0.0
 11
162.166024
 21
-51.082778
 31
0.0
  0
LINE
  5
5B
100
AcDbEntity
  8
0
370
    -3
  6
Continuous
100
AcDbLine
 10
138.166024
 20
-51.082778
 30
0.0
 11
101.166024
 21
-51.082778
 31
0.0
  0
LINE
  5
5C
100
AcDbEntity
  8
0
370
    -3
  6
Continuous
100
AcDbLine
 10
92.166024
 20
-105.082778
 30
0.0
 11
92.166024
 21
-106.082778
 31
0.0
  0
LINE
  5
5D
100
AcDbEntity
  8
0
370
    -3
  6
Continuous
100
AcDbLine
 10
71.166024
 20
-105.082778
 30
0.0
 11
92.166024
 21
-105.082778
 31
0.0
  0
LINE
  5
5E
100
AcDbEntity
  8
0
370
    -3
  6
Continuous
100
AcDbLine
 10
71.166024
 20
-105.082778
 30
0.0
 11
92.166024
 21
-105.082778
 31
0.0
  0
LINE
  5
5F
100
AcDbEntity
  8
0
370
    -3
  6
Continuous
100
AcDbLine
 10
92.166024
 20
-105.082778
 30
0.0
 11
92.166024
 21
-106.082778
 31
0.0
  0
LINE
  5
60
100
AcDbEntity
  8
0
370
    -3
  6
Continuous
100
AcDbLine
 10
107.266024
 20
-106.082778
 30
0.0
 11
92.166024
 21
-106.082778
 31
0.0
  0
LINE
  5
61
100
AcDbEntity
  8
0
370
    -3
  6
Continuous
100
AcDbLine
 10
208.166024
 20
-106.082778
 30
0.0
 11
192.666024
 21
-106.082778
 31
0.0
  0
LINE
  5
62
100
AcDbEntity
  8
0
370
    -3
  6
Continuous
100
AcDbLine
 10
208.166024
 20
-106.082778
 30
0.0
 11
192.666024
 21
-106.082778
 31
0.0
  0
LINE
  5
63
100
AcDbEntity
  8
0
370
    -3
  6
Continuous
100
AcDbLine
 10
194.666024
 20
-106.082778
 30
0.0
 11
208.166024
 21
-106.082778
 31
0.0
  0
LINE
  5
64
100
AcDbEntity
  8
0
370
    -3
  6
Continuous
100
AcDbLine
 10
208.166024
 20
-105.082778
 30
0.0
 11
208.166024
 21
-106.082778
 31
0.0
  0
LINE
  5
65
100
AcDbEntity
  8
0
370
    -3
  6
Continuous
100
AcDbLine
 10
229.166024
 20
-105.082778
 30
0.0
 11
208.166024
 21
-105.082778
 31
0.0
  0
LINE
  5
66
100
AcDbEntity
  8
0
370
    -3
  6
Continuous
100
AcDbLine
 10
208.166024
 20
-105.082778
 30
0.0
 11
208.166024
 21
-106.082778
 31
0.0
  0
LINE
  5
67
100
AcDbEntity
  8
0
370
    -3
  6
Continuous
100
AcDbLine
 10
194.666024
 20
-106.082778
 30
0.0
 11
208.166024
 21
-106.082778
 31
0.0
  0
LINE
  5
68
100
AcDbEntity
  8
0
370
    -3
  6
Continuous
100
AcDbLine
 10
229.166024
 20
-105.082778
 30
0.0
 11
208.166024
 21
-105.082778
 31
0.0
  0
LINE
  5
69
100
AcDbEntity
  8
0
370
    -3
  6
Continuous
100
AcDbLine
 10
92.166024
 20
-42.082778
 30
0.0
 11
92.166024
 21
-41.082778
 31
0.0
  0
LINE
  5
6A
100
AcDbEntity
  8
0
370
    -3
  6
Continuous
100
AcDbLine
 10
71.166024
 20
-42.082778
 30
0.0
 11
92.166024
 21
-42.082778
 31
0.0
  0
LINE
  5
6B
100
AcDbEntity
  8
0
370
    -3
  6
Continuous
100
AcDbLine
 10
71.166024
 20
-42.082778
 30
0.0
 11
92.166024
 21
-42.082778
 31
0.0
  0
LINE
  5
6C
100
AcDbEntity
  8
0
370
    -3
  6
Continuous
100
AcDbLine
 10
92.166024
 20
-42.082778
 30
0.0
 11
92.166024
 21
-41.082778
 31
0.0
  0
LINE
  5
6D
100
AcDbEntity
  8
0
370
    -3
  6
Continuous
100
AcDbLine
 10
107.266024
 20
-41.082778
 30
0.0
 11
92.166024
 21
-41.082778
 31
0.0
  0
LINE
  5
6E
100
AcDbEntity
  8
0
370
    -3
  6
Continuous
100
AcDbLine
 10
208.166024
 20
-41.082778
 30
0.0
 11
192.666024
 21
-41.082778
 31
0.0
  0
LINE
  5
6F
100
AcDbEntity
  8
0
370
    -3
  6
Continuous
100
AcDbLine
 10
208.166024
 20
-41.082778
 30
0.0
 11
192.666024
 21
-41.082778
 31
0.0
  0
LINE
  5
70
100
AcDbEntity
  8
0
370
    -3
  6
Continuous
100
AcDbLine
 10
194.666024
 20
-41.082778
 30
0.0
 11
208.166024
 21
-41.082778
 31
0.0
  0
LINE
  5
71
100
AcDbEntity
  8
0
370
    -3
  6
Continuous
100
AcDbLine
 10
208.166024
 20
-42.082778
 30
0.0
 11
208.166024
 21
-41.082778
 31
0.0
  0
LINE
  5
72
100
AcDbEntity
  8
0
370
    -3
  6
Continuous
100
AcDbLine
 10
229.166024
 20
-42.082778
 30
0.0
 11
208.166024
 21
-42.082778
 31
0.0
  0
LINE
  5
73
100
AcDbEntity
  8
0
370
    -3
  6
Continuous
100
AcDbLine
 10
208.166024
 20
-42.082778
 30
0.0
 11
208.166024
 21
-41.082778
 31
0.0
  0
LINE
  5
74
100
AcDbEntity
  8
0
370
    -3
  6
Continuous
100
AcDbLine
 10
194.666024
 20
-41.082778
 30
0.0
 11
208.166024
 21
-41.082778
 31
0.0
  0
LINE
  5
75
100
AcDbEntity
  8
0
370
    -3
  6
Continuous
100
AcDbLine
 10
229.166024
 20
-42.082778
 30
0.0
 11
208.166024
 21
-42.082778
 31
0.0
  0
LINE
  5
76
100
AcDbEntity
  8
0
370
    -3
  6
Continuous
100
AcDbLine
 10
207.766024
 20
-106.082778
 30
0.0
 11
192.666023
 21
-106.082778
 31
0.0
  0
LINE
  5
77
100
AcDbEntity
  8
0
370
    -3
  6
Continuous
100
AcDbLine
 10
162.166024
 20
-73.582778
 30
0.0
 11
162.166024
 21
-96.282778
 31
0.0
  0
LINE
  5
78
100
AcDbEntity
  8
0
370
    -3
  6
Continuous
100
AcDbLine
 10
101.166024
 20
-73.582778
 30
0.0
 11
101.166024
 21
-97.332778
 31
0.0
  0
LINE
  5
79
100
AcDbEntity
  8
0
370
    -3
  6
Continuous
100
AcDbLine
 10
199.166024
 20
-73.582778
 30
0.0
 11
199.166024
 21
-97.332778
 31
0.0
  0
LINE
  5
7A
100
AcDbEntity
  8
0
370
    -3
  6
Continuous
100
AcDbLine
 10
138.166024
 20
-73.582778
 30
0.0
 11
138.166024
 21
-96.282778
 31
0.0
  0
LINE
  5
7B
100
AcDbEntity
  8
0
370
    -3
  6
Continuous
100
AcDbLine
 10
162.166024
 20
-96.282778
 30
0.0
 11
138.166024
 21
-96.282778
 31
0.0
  0
LINE
  5
7C
100
AcDbEntity
  8
0
370
    -3
  6
Continuous
100
AcDbLine
 10
207.766024
 20
-41.082778
 30
0.0
 11
192.666023
 21
-41.082778
 31
0.0
  0
LINE
  5
7D
100
AcDbEntity
  8
0
370
    -3
  6
Continuous
100
AcDbLine
 10
162.166024
 20
-73.582778
 30
0.0
 11
162.166024
 21
-50.882778
 31
0.0
  0
LINE
  5
7E
100
AcDbEntity
  8
0
370
    -3
  6
Continuous
100
AcDbLine
 10
101.166024
 20
-73.582778
 30
0.0
 11
101.166024
 21
-49.832778
 31
0.0
  0
LINE
  5
7F
100
AcDbEntity
  8
0
370
    -3
  6
Continuous
100
AcDbLine
 10
199.166024
 20
-73.582778
 30
0.0
 11
199.166024
 21
-49.832778
 31
0.0
  0
LINE
  5
80
100
AcDbEntity
  8
0
370
    -3
  6
Continuous
100
AcDbLine
 10
138.166024
 20
-73.582778
 30
0.0
 11
138.166024
 21
-50.882778
 31
0.0
  0
LINE
  5
81
100
AcDbEntity
  8
0
370
    -3
  6
Continuous
100
AcDbLine
 10
162.166024
 20
-50.882778
 30
0.0
 11
138.166024
 21
-50.882778
 31
0.0
  0
LINE
  5
82
100
AcDbEntity
  8
0
370
    -3
  6
Continuous
100
AcDbLine
 10
194.666024
 20
-106.082778
 30
0.0
 11
208.166024
 21
-106.082778
 31
0.0
  0
LINE
  5
83
100
AcDbEntity
  8
0
370
    -3
  6
Continuous
100
AcDbLine
 10
192.666024
 20
-38.582778
 30
0.0
 11
155.166024
 21
-38.582778
 31
0.0
  0
LINE
  5
84
100
AcDbEntity
  8
0
370
    -3
  6
Continuous
100
AcDbLine
 10
155.166024
 20
-38.582778
 30
0.0
 11
155.166024
 21
-39.082778
 31
0.0
  0
LINE
  5
85
100
AcDbEntity
  8
0
370
    -3
  6
Continuous
100
AcDbLine
 10
192.666024
 20
-38.582778
 30
0.0
 11
192.666024
 21
-41.082778
 31
0.0
  0
LINE
  5
86
100
AcDbEntity
  8
0
370
    -3
  6
Continuous
100
AcDbLine
 10
155.166024
 20
-39.082778
 30
0.0
 11
136.166024
 21
-39.082778
 31
0.0
  0
LINE
  5
87
100
AcDbEntity
  8
0
370
    -3
  6
Continuous
100
AcDbLine
 10
136.166024
 20
-41.032778
 30
0.0
 11
107.459673
 21
-41.032778
 31
0.0
  0
LINE
  5
88
100
AcDbEntity
  8
0
370
    -3
  6
Continuous
100
AcDbLine
 10
192.666024
 20
-108.582778
 30
0.0
 11
192.666024
 21
-106.082778
 31
0.0
  0
LINE
  5
89
100
AcDbEntity
  8
0
370
    -3
  6
Continuous
100
AcDbLine
 10
192.666024
 20
-108.582778
 30
0.0
 11
155.166024
 21
-108.582778
 31
0.0
  0
LINE
  5
8A
100
AcDbEntity
  8
0
370
    -3
  6
Continuous
100
AcDbLine
 10
155.166024
 20
-108.582778
 30
0.0
 11
155.166024
 21
-108.082778
 31
0.0
  0
LINE
  5
8B
100
AcDbEntity
  8
0
370
    -3
  6
Continuous
100
AcDbLine
 10
155.166024
 20
-108.082778
 30
0.0
 11
136.166024
 21
-108.082778
 31
0.0
  0
LINE
  5
8C
100
AcDbEntity
  8
0
370
    -3
  6
Continuous
100
AcDbLine
 10
136.166024
 20
-106.132778
 30
0.0
 11
107.459673
 21
-106.132778
 31
0.0
  0
LINE
  5
8D
100
AcDbEntity
  8
0
370
    -3
  6
CENTER
100
AcDbLine
 10
233.938906
 20
-73.582778
 30
0.0
 11
63.68762
 21
-73.582778
 31
0.0
  0
ARC
  5
8E
100
AcDbEntity
  8
0
370
    -3
  6
Continuous
100
AcDbCircle
 10
107.266024
 20
-106.482778
 30
0.0
 40
0.4
100
AcDbArc
 50
61.044976
 51
90.0
  0
ARC
  5
8F
100
AcDbEntity
  8
0
370
    -3
  6
Continuous
100
AcDbCircle
 10
107.266024
 20
-40.682778
 30
0.0
 40
0.4
100
AcDbArc
 50
270.0
 51
298.955024
  0
ARC
  5
90
100
AcDbEntity
  8
0
370
    -3
  6
Continuous
100
AcDbCircle
 10
226.666024
 20
-98.582778
 30
0.0
 40
2.5
100
AcDbArc
 50
0.0
 51
90.0
  0
ARC
  5
91
100
AcDbEntity
  8
0
370
    -3
  6
Continuous
100
AcDbCircle
 10
73.666024
 20
-98.582778
 30
0.0
 40
2.5
100
AcDbArc
 50
90.0
 51
180.0
  0
ARC
  5
92
100
AcDbEntity
  8
0
370
    -3
  6
Continuous
100
AcDbCircle
 10
226.666024
 20
-48.582778
 30
0.0
 40
2.5
100
AcDbArc
 50
270.0
 51
0.0
  0
ARC
  5
93
100
AcDbEntity
  8
0
370
    -3
  6
Continuous
100
AcDbCircle
 10
73.666024
 20
-48.582778
 30
0.0
 40
2.5
100
AcDbArc
 50
180.0
 51
270.0
  0
LINE
  5
94
100
AcDbEntity
  8
0
370
    -3
  6
Continuous
100
AcDbLine
 10
336.166024
 20
-47.282778
 30
0.0
 11
336.166024
 21
-52.199373
 31
0.0
  0
LINE
  5
95
100
AcDbEntity
  8
0
370
    -3
  6
Continuous
100
AcDbLine
 10
322.166024
 20
-47.282778
 30
0.0
 11
322.166024
 21
-52.199373
 31
0.0
  0
LINE
  5
96
100
AcDbEntity
  8
0
370
    -3
  6
Continuous
100
AcDbLine
 10
336.166024
 20
-47.282778
 30
0.0
 11
322.166024
 21
-47.282778
 31
0.0
  0
LINE
  5
97
100
AcDbEntity
  8
0
370
    -3
  6
CENTER
100
AcDbLine
 10
329.166024
 20
-31.925
 30
0.0
 11
329.166024
 21
-111.925
 31
0.0
  0
ARC
  5
98
100
AcDbEntity
  8
0
370
    -3
  6
Continuous
100
AcDbCircle
 10
329.166024
 20
-73.582778
 30
0.0
 40
22.5
100
AcDbArc
 50
108.126204
 51
71.873796
  0
CIRCLE
  5
99
100
AcDbEntity
  8
0
370
    -3
  6
Continuous
100
AcDbCircle
 10
329.166024
 20
-73.582778
 30
0.0
 40
31.5
  0
LINE
  5
9A
100
AcDbEntity
  8
0
370
    -3
  6
CENTER
100
AcDbLine
 10
365.204542
 20
-73.582778
 30
0.0
 11
293.774435
 21
-73.582778
 31
0.0
  0
LINE
  5
9B
100
AcDbEntity
  8
0
370
    -3
  6
Continuous
100
AcDbLine
 10
71.166024
 20
-47.282778
 30
0.0
 11
229.166024
 21
-47.282778
 31
0.0
  0
LINE
  5
9C
100
AcDbEntity
  8
0
370
    -3
  6
Continuous
100
AcDbLine
 10
-245.33434
 20
183.956723
 30
0.0
 11
-245.33434
 21
136.456723
 31
0.0
  0
LINE
  5
9D
100
AcDbEntity
  8
0
370
    -3
  6
Continuous
100
AcDbLine
 10
18.175344
 20
275.456723
 30
0.0
 11
18.684936
 21
274.95691
 31
0.0
  0
LINE
  5
9E
100
AcDbEntity
  8
0
370
    -3
  6
Continuous
100
AcDbLine
 10
-219.857483
 20
147.456723
 30
0.0
 11
21.16556
 21
147.456723
 31
0.0
  0
LINE
  5
9F
100
AcDbEntity
  8
0
370
    -3
  6
Continuous
100
AcDbLine
 10
-247.33434
 20
133.956723
 30
0.0
 11
-251.83434
 21
133.956723
 31
0.0
  0
ARC
  5
A0
100
AcDbEntity
  8
0
370
    -3
  6
Continuous
100
AcDbCircle
 10
-242.33434
 20
136.456723
 30
0.0
 40
3.0
100
AcDbArc
 50
90.0
 51
180.0
  0
ARC
  5
A1
100
AcDbEntity
  8
0
370
    -3
  6
Continuous
100
AcDbCircle
 10
-247.33434
 20
135.956723
 30
0.0
 40
2.0
100
AcDbArc
 50
270.0
 51
0.0
  0
LINE
  5
A2
100
AcDbEntity
  8
0
370
    -3
  6
Continuous
100
AcDbLine
 10
-245.33434
 20
136.456723
 30
0.0
 11
-245.33434
 21
135.956723
 31
0.0
  0
LINE
  5
A3
100
AcDbEntity
  8
0
370
    -3
  6
Continuous
100
AcDbLine
 10
-242.33434
 20
271.456723
 30
0.0
 11
-217.363973
 21
271.456723
 31
0.0
  0
ARC
  5
A4
100
AcDbEntity
  8
0
370
    -3
  6
Continuous
100
AcDbCircle
 10
-233.83434
 20
144.456723
 30
0.0
 40
5.0
100
AcDbArc
 50
270.0
 51
0.0
  0
LINE
  5
A5
100
AcDbEntity
  8
0
370
    -3
  6
Continuous
100
AcDbLine
 10
-247.33434
 20
276.956723
 30
0.0
 11
-251.83434
 21
276.956723
 31
0.0
  0
ARC
  5
A6
100
AcDbEntity
  8
0
370
    -3
  6
Continuous
100
AcDbCircle
 10
-242.33434
 20
274.456723
 30
0.0
 40
3.0
100
AcDbArc
 50
180.0
 51
270.0
  0
LINE
  5
A7
100
AcDbEntity
  8
0
370
    -3
  6
CENTER
100
AcDbLine
 10
34.533661
 20
205.456723
 30
0.0
 11
-451.988436
 21
205.456723
 31
0.0
  0
ARC
  5
A8
100
AcDbEntity
  8
0
370
    -3
  6
Continuous
100
AcDbCircle
 10
-247.33434
 20
274.956723
 30
0.0
 40
2.0
100
AcDbArc
 50
0.0
 51
90.0
  0
LINE
  5
A9
100
AcDbEntity
  8
0
370
    -3
  6
Continuous
100
AcDbLine
 10
-245.33434
 20
274.456723
 30
0.0
 11
-245.33434
 21
274.956723
 31
0.0
  0
ARC
  5
AA
100
AcDbEntity
  8
0
370
    -3
  6
Continuous
100
AcDbCircle
 10
-247.833976
 20
223.956723
 30
0.0
 40
3.0
100
AcDbArc
 50
90.0
 51
180.0
  0
LINE
  5
AB
100
AcDbEntity
  8
0
370
    -3
  6
Continuous
100
AcDbLine
 10
-242.33434
 20
139.456723
 30
0.0
 11
-233.83434
 21
139.456723
 31
0.0
  0
LINE
  5
AC
100
AcDbEntity
  8
0
370
    -3
  6
Continuous
100
AcDbLine
 10
-247.833976
 20
226.956723
 30
0.0
 11
-238.833976
 21
226.956723
 31
0.0
  0
ARC
  5
AD
100
AcDbEntity
  8
0
370
    -3
  6
Continuous
100
AcDbCircle
 10
-247.833976
 20
186.956723
 30
0.0
 40
3.0
100
AcDbArc
 50
180.0
 51
270.0
  0
LINE
  5
AE
100
AcDbEntity
  8
0
370
    -3
  6
Continuous
100
AcDbLine
 10
-247.833976
 20
183.956723
 30
0.0
 11
-238.833976
 21
183.956723
 31
0.0
  0
LINE
  5
AF
100
AcDbEntity
  8
0
370
    -3
  6
Continuous
100
AcDbLine
 10
-228.83434
 20
147.956723
 30
0.0
 11
-228.83434
 21
144.456723
 31
0.0
  0
LINE
  5
B0
100
AcDbEntity
  8
0
370
    -3
  6
Continuous
100
AcDbLine
 10
-214.364536
 20
274.398594
 30
0.0
 11
-214.353716
 21
274.95691
 31
0.0
  0
LINE
  5
B1
100
AcDbEntity
  8
0
370
    -3
  6
Continuous
100
AcDbLine
 10
-219.82465
 20
147.456723
 30
0.0
 11
-219.816086
 21
147.898594
 31
0.0
  0
ARC
  5
B2
100
AcDbEntity
  8
0
370
    -3
  6
Continuous
100
AcDbCircle
 10
-217.363973
 20
274.456723
 30
0.0
 40
3.0
100
AcDbArc
 50
270.0
 51
358.889756
  0
LINE
  5
B3
100
AcDbEntity
  8
0
370
    -3
  6
Continuous
100
AcDbLine
 10
-225.83434
 20
150.956723
 30
0.0
 11
-222.815523
 21
150.956723
 31
0.0
  0
ARC
  5
B4
100
AcDbEntity
  8
0
370
    -3
  6
Continuous
100
AcDbCircle
 10
-225.83434
 20
147.956723
 30
0.0
 40
3.0
100
AcDbArc
 50
90.0
 51
180.0
  0
ARC
  5
B5
100
AcDbEntity
  8
0
370
    -3
  6
Continuous
100
AcDbCircle
 10
-222.815523
 20
147.956723
 30
0.0
 40
3.0
100
AcDbArc
 50
358.889756
 51
90.0
  0
LINE
  5
B6
100
AcDbEntity
  8
0
370
    -3
  6
CENTER
100
AcDbLine
 10
-264.248016
 20
215.956723
 30
0.0
 11
-232.238407
 21
215.956723
 31
0.0
  0
LINE
  5
B7
100
AcDbEntity
  8
0
370
    -3
  6
Continuous
100
AcDbLine
 10
-122.93444
 20
280.456723
 30
0.0
 11
-8.73444
 21
280.456723
 31
0.0
  0
LINE
  5
B8
100
AcDbEntity
  8
0
370
    -3
  6
Continuous
100
AcDbLine
 10
-213.844124
 20
275.456723
 30
0.0
 11
1.828139
 21
275.456723
 31
0.0
  0
LINE
  5
B9
100
AcDbEntity
  8
0
370
    -3
  6
Continuous
100
AcDbLine
 10
-123.33444
 20
276.456723
 30
0.0
 11
-123.33444
 21
275.456723
 31
0.0
  0
LINE
  5
BA
100
AcDbEntity
  8
0
370
    -3
  6
Continuous
100
AcDbLine
 10
21.16556
 20
147.456723
 30
0.0
 11
18.684936
 21
274.95691
 31
0.0
  0
LINE
  5
BB
100
AcDbEntity
  8
0
370
    -3
  6
Continuous
100
AcDbLine
 10
-123.18444
 20
277.956723
 30
0.0
 11
-123.33444
 21
277.956723
 31
0.0
  0
LINE
  5
BC
100
AcDbEntity
  8
0
370
    -3
  6
Continuous
100
AcDbLine
 10
-123.18444
 20
276.456723
 30
0.0
 11
-123.33444
 21
276.456723
 31
0.0
  0
LINE
  5
BD
100
AcDbEntity
  8
0
370
    -3
  6
Continuous
100
AcDbLine
 10
-123.18444
 20
277.956723
 30
0.0
 11
-123.18444
 21
276.456723
 31
0.0
  0
LINE
  5
BE
100
AcDbEntity
  8
0
370
    -3
  6
Continuous
100
AcDbLine
 10
-123.33444
 20
280.056723
 30
0.0
 11
-123.33444
 21
277.956723
 31
0.0
  0
LINE
  5
BF
100
AcDbEntity
  8
0
370
    -3
  6
Continuous
100
AcDbLine
 10
-123.33444
 20
280.056723
 30
0.0
 11
-122.93444
 21
280.456723
 31
0.0
  0
LINE
  5
C0
100
AcDbEntity
  8
0
370
    -3
  6
Continuous
100
AcDbLine
 10
-8.33444
 20
275.456723
 30
0.0
 11
18.175344
 21
275.456723
 31
0.0
  0
LINE
  5
C1
100
AcDbEntity
  8
0
370
    -3
  6
Continuous
100
AcDbLine
 10
-8.33444
 20
280.056723
 30
0.0
 11
-8.73444
 21
280.456723
 31
0.0
  0
LINE
  5
C2
100
AcDbEntity
  8
0
370
    -3
  6
Continuous
100
AcDbLine
 10
-8.33444
 20
276.456723
 30
0.0
 11
-8.33444
 21
275.456723
 31
0.0
  0
LINE
  5
C3
100
AcDbEntity
  8
0
370
    -3
  6
Continuous
100
AcDbLine
 10
-228.83434
 20
144.456723
 30
0.0
 11
-228.83434
 21
271.456723
 31
0.0
  0
LINE
  5
C4
100
AcDbEntity
  8
0
370
    -3
  6
Continuous
100
AcDbLine
 10
-8.48444
 20
277.956723
 30
0.0
 11
-8.33444
 21
277.956723
 31
0.0
  0
LINE
  5
C5
100
AcDbEntity
  8
0
370
    -3
  6
Continuous
100
AcDbLine
 10
-8.48444
 20
276.456723
 30
0.0
 11
-8.33444
 21
276.456723
 31
0.0
  0
LINE
  5
C6
100
AcDbEntity
  8
0
370
    -3
  6
Continuous
100
AcDbLine
 10
-245.33434
 20
274.956723
 30
0.0
 11
-245.33434
 21
226.956723
 31
0.0
  0
LINE
  5
C7
100
AcDbEntity
  8
0
370
    -3
  6
Continuous
100
AcDbLine
 10
-8.48444
 20
277.956723
 30
0.0
 11
-8.48444
 21
276.456723
 31
0.0
  0
LINE
  5
C8
100
AcDbEntity
  8
0
370
    -3
  6
Continuous
100
AcDbLine
 10
18.175344
 20
135.456723
 30
0.0
 11
21.16556
 21
147.456723
 31
0.0
  0
LINE
  5
C9
100
AcDbEntity
  8
0
370
    -3
  6
Continuous
100
AcDbLine
 10
-8.33444
 20
280.056723
 30
0.0
 11
-8.33444
 21
277.956723
 31
0.0
  0
LINE
  5
CA
100
AcDbEntity
  8
0
370
    -3
  6
Continuous
100
AcDbLine
 10
-123.33444
 20
134.456723
 30
0.0
 11
-123.33444
 21
135.456723
 31
0.0
  0
LINE
  5
CB
100
AcDbEntity
  8
0
370
    -3
  6
Continuous
100
AcDbLine
 10
-123.18444
 20
132.956723
 30
0.0
 11
-123.33444
 21
132.956723
 31
0.0
  0
LINE
  5
CC
100
AcDbEntity
  8
0
370
    -3
  6
Continuous
100
AcDbLine
 10
-123.18444
 20
134.456723
 30
0.0
 11
-123.33444
 21
134.456723
 31
0.0
  0
LINE
  5
CD
100
AcDbEntity
  8
0
370
    -3
  6
Continuous
100
AcDbLine
 10
-123.18444
 20
132.956723
 30
0.0
 11
-123.18444
 21
134.456723
 31
0.0
  0
LINE
  5
CE
100
AcDbEntity
  8
0
370
    -3
  6
Continuous
100
AcDbLine
 10
-123.33444
 20
130.856723
 30
0.0
 11
-123.33444
 21
132.956723
 31
0.0
  0
LINE
  5
CF
100
AcDbEntity
  8
0
370
    -3
  6
Continuous
100
AcDbLine
 10
-123.33444
 20
130.856723
 30
0.0
 11
-122.93444
 21
130.456723
 31
0.0
  0
LINE
  5
D0
100
AcDbEntity
  8
0
370
    -3
  6
Continuous
100
AcDbLine
 10
-122.93444
 20
130.456723
 30
0.0
 11
-8.73444
 21
130.456723
 31
0.0
  0
LINE
  5
D1
100
AcDbEntity
  8
0
370
    -3
  6
Continuous
100
AcDbLine
 10
-8.33444
 20
135.456723
 30
0.0
 11
18.175344
 21
135.456723
 31
0.0
  0
LINE
  5
D2
100
AcDbEntity
  8
0
370
    -3
  6
Continuous
100
AcDbLine
 10
-8.33444
 20
130.856723
 30
0.0
 11
-8.73444
 21
130.456723
 31
0.0
  0
LINE
  5
D3
100
AcDbEntity
  8
0
370
    -3
  6
Continuous
100
AcDbLine
 10
-8.33444
 20
134.456723
 30
0.0
 11
-8.33444
 21
135.456723
 31
0.0
  0
LINE
  5
D4
100
AcDbEntity
  8
0
370
    -3
  6
Continuous
100
AcDbLine
 10
-8.48444
 20
132.956723
 30
0.0
 11
-8.33444
 21
132.956723
 31
0.0
  0
LINE
  5
D5
100
AcDbEntity
  8
0
370
    -3
  6
CENTER
100
AcDbLine
 10
-264.261027
 20
194.956723
 30
0.0
 11
-232.238407
 21
194.956723
 31
0.0
  0
LINE
  5
D6
100
AcDbEntity
  8
0
370
    -3
  6
Continuous
100
AcDbLine
 10
-8.48444
 20
134.456723
 30
0.0
 11
-8.33444
 21
134.456723
 31
0.0
  0
LINE
  5
D7
100
AcDbEntity
  8
0
370
    -3
  6
Continuous
100
AcDbLine
 10
-8.48444
 20
132.956723
 30
0.0
 11
-8.48444
 21
134.456723
 31
0.0
  0
LINE
  5
D8
100
AcDbEntity
  8
0
370
    -3
  6
Continuous
100
AcDbLine
 10
-8.33444
 20
130.856723
 30
0.0
 11
-8.33444
 21
132.956723
 31
0.0
  0
LINE
  5
D9
100
AcDbEntity
  8
0
370
    -3
  6
Continuous
100
AcDbLine
 10
-213.844124
 20
135.456723
 30
0.0
 11
1.828139
 21
135.456723
 31
0.0
  0
LINE
  5
DA
100
AcDbEntity
  8
0
370
    -3
  6
Continuous
100
AcDbLine
 10
-122.93444
 20
130.456723
 30
0.0
 11
-8.73444
 21
130.456723
 31
0.0
  0
LINE
  5
DB
100
AcDbEntity
  8
0
370
    -3
  6
Continuous
100
AcDbLine
 10
-123.33444
 20
134.456723
 30
0.0
 11
-123.33444
 21
135.456723
 31
0.0
  0
LINE
  5
DC
100
AcDbEntity
  8
0
370
    -3
  6
Continuous
100
AcDbLine
 10
-123.18444
 20
132.956723
 30
0.0
 11
-123.33444
 21
132.956723
 31
0.0
  0
LINE
  5
DD
100
AcDbEntity
  8
0
370
    -3
  6
Continuous
100
AcDbLine
 10
-123.18444
 20
134.456723
 30
0.0
 11
-123.33444
 21
134.456723
 31
0.0
  0
LINE
  5
DE
100
AcDbEntity
  8
0
370
    -3
  6
Continuous
100
AcDbLine
 10
-123.18444
 20
132.956723
 30
0.0
 11
-123.18444
 21
134.456723
 31
0.0
  0
LINE
  5
DF
100
AcDbEntity
  8
0
370
    -3
  6
Continuous
100
AcDbLine
 10
-123.33444
 20
130.856723
 30
0.0
 11
-123.33444
 21
132.956723
 31
0.0
  0
LINE
  5
E0
100
AcDbEntity
  8
0
370
    -3
  6
Continuous
100
AcDbLine
 10
-123.33444
 20
130.856723
 30
0.0
 11
-122.93444
 21
130.456723
 31
0.0
  0
LINE
  5
E1
100
AcDbEntity
  8
0
370
    -3
  6
Continuous
100
AcDbLine
 10
-8.33444
 20
135.456723
 30
0.0
 11
18.175344
 21
135.456723
 31
0.0
  0
LINE
  5
E2
100
AcDbEntity
  8
0
370
    -3
  6
Continuous
100
AcDbLine
 10
-8.33444
 20
130.856723
 30
0.0
 11
-8.73444
 21
130.456723
 31
0.0
  0
LINE
  5
E3
100
AcDbEntity
  8
0
370
    -3
  6
Continuous
100
AcDbLine
 10
-8.33444
 20
134.456723
 30
0.0
 11
-8.33444
 21
135.456723
 31
0.0
  0
LINE
  5
E4
100
AcDbEntity
  8
0
370
    -3
  6
Continuous
100
AcDbLine
 10
-8.48444
 20
132.956723
 30
0.0
 11
-8.33444
 21
132.956723
 31
0.0
  0
LINE
  5
E5
100
AcDbEntity
  8
0
370
    -3
  6
Continuous
100
AcDbLine
 10
-8.48444
 20
134.456723
 30
0.0
 11
-8.33444
 21
134.456723
 31
0.0
  0
LINE
  5
E6
100
AcDbEntity
  8
0
370
    -3
  6
Continuous
100
AcDbLine
 10
-8.48444
 20
132.956723
 30
0.0
 11
-8.48444
 21
134.456723
 31
0.0
  0
LINE
  5
E7
100
AcDbEntity
  8
0
370
    -3
  6
Continuous
100
AcDbLine
 10
-8.33444
 20
130.856723
 30
0.0
 11
-8.33444
 21
132.956723
 31
0.0
  0
LINE
  5
E8
100
AcDbEntity
  8
0
370
    -3
  6
Continuous
100
AcDbLine
 10
-213.844124
 20
275.456723
 30
0.0
 11
-214.353716
 21
274.95691
 31
0.0
  0
LINE
  5
E9
100
AcDbEntity
  8
0
370
    -3
  6
Continuous
100
AcDbLine
 10
-213.844124
 20
135.456723
 30
0.0
 11
-216.83434
 21
147.456723
 31
0.0
  0
LINE
  5
EA
100
AcDbEntity
  8
0
370
    -3
  6
Continuous
100
AcDbLine
 10
-238.833976
 20
226.956723
 30
0.0
 11
-238.833976
 21
183.956723
 31
0.0
  0
LINE
  5
EB
100
AcDbEntity
  8
0
370
    -3
  6
CENTER
100
AcDbLine
 10
-65.83444
 20
315.306219
 30
0.0
 11
-65.83444
 21
91.13331
 31
0.0
  0
LINE
  5
EC
100
AcDbEntity
  8
0
370
    -3
  6
Continuous
100
AcDbLine
 10
-34.33444
 20
284.456723
 30
0.0
 11
-34.33444
 21
280.456723
 31
0.0
  0
LINE
  5
ED
100
AcDbEntity
  8
0
370
    -3
  6
Continuous
100
AcDbLine
 10
-97.33444
 20
284.456723
 30
0.0
 11
-97.33444
 21
280.456723
 31
0.0
  0
LINE
  5
EE
100
AcDbEntity
  8
0
370
    -3
  6
Continuous
100
AcDbLine
 10
-34.33444
 20
284.456723
 30
0.0
 11
-97.33444
 21
284.456723
 31
0.0
  0
LINE
  5
EF
100
AcDbEntity
  8
0
370
    -3
  6
Continuous
100
AcDbLine
 10
-34.33444
 20
126.456723
 30
0.0
 11
-34.33444
 21
130.456723
 31
0.0
  0
LINE
  5
F0
100
AcDbEntity
  8
0
370
    -3
  6
Continuous
100
AcDbLine
 10
-34.33444
 20
126.456723
 30
0.0
 11
-97.33444
 21
126.456723
 31
0.0
  0
LINE
  5
F1
100
AcDbEntity
  8
0
370
    -3
  6
Continuous
100
AcDbLine
 10
-97.33444
 20
126.456723
 30
0.0
 11
-97.33444
 21
130.456723
 31
0.0
  0
LINE
  5
F2
100
AcDbEntity
  8
0
370
    -3
  6
Continuous
100
AcDbLine
 10
-242.333976
 20
247.204509
 30
0.0
 11
-231.928326
 21
247.204509
 31
0.0
  0
ARC
  5
F3
100
AcDbEntity
  8
0
370
    -3
  6
Continuous
100
AcDbCircle
 10
-242.333976
 20
244.204509
 30
0.0
 40
3.0
100
AcDbArc
 50
90.0
 51
180.0
  0
ARC
  5
F4
100
AcDbEntity
  8
0
370
    -3
  6
Continuous
100
AcDbCircle
 10
-242.333976
 20
248.443876
 30
0.0
 40
3.0
100
AcDbArc
 50
90.0
 51
180.0
  0
LINE
  5
F5
100
AcDbEntity
  8
0
370
    -3
  6
Continuous
100
AcDbLine
 10
-242.333976
 20
251.443876
 30
0.0
 11
-233.833976
 21
251.443876
 31
0.0
  0
ARC
  5
F6
100
AcDbEntity
  8
0
370
    -3
  6
Continuous
100
AcDbCircle
 10
-242.333976
 20
263.456723
 30
0.0
 40
3.0
100
AcDbArc
 50
180.0
 51
270.0
  0
LINE
  5
F7
100
AcDbEntity
  8
0
370
    -3
  6
Continuous
100
AcDbLine
 10
-242.333976
 20
260.456723
 30
0.0
 11
-233.833976
 21
260.456723
 31
0.0
  0
ARC
  5
F8
100
AcDbEntity
  8
0
370
    -3
  6
Continuous
100
AcDbCircle
 10
-233.833976
 20
246.443876
 30
0.0
 40
5.0
100
AcDbArc
 50
8.085995
 51
90.0
  0
ARC
  5
F9
100
AcDbEntity
  8
0
370
    -3
  6
Continuous
100
AcDbCircle
 10
-233.833976
 20
255.456723
 30
0.0
 40
5.0
100
AcDbArc
 50
9.614777
 51
90.0
  0
LINE
  5
FA
100
AcDbEntity
  8
0
370
    -3
  6
Continuous
100
AcDbLine
 10
-245.333976
 20
263.456723
 30
0.0
 11
-245.333976
 21
274.956723
 31
0.0
  0
ARC
  5
FB
100
AcDbEntity
  8
0
370
    -3
  6
Continuous
100
AcDbCircle
 10
-242.333976
 20
162.469569
 30
0.0
 40
3.0
100
AcDbArc
 50
180.0
 51
270.0
  0
LINE
  5
FC
100
AcDbEntity
  8
0
370
    -3
  6
Continuous
100
AcDbLine
 10
-242.333976
 20
159.469569
 30
0.0
 11
-233.833976
 21
159.469569
 31
0.0
  0
ARC
  5
FD
100
AcDbEntity
  8
0
370
    -3
  6
Continuous
100
AcDbCircle
 10
-242.333976
 20
147.456723
 30
0.0
 40
3.0
100
AcDbArc
 50
90.0
 51
180.0
  0
LINE
  5
FE
100
AcDbEntity
  8
0
370
    -3
  6
Continuous
100
AcDbLine
 10
-242.333976
 20
150.456723
 30
0.0
 11
-233.833976
 21
150.456723
 31
0.0
  0
ARC
  5
FF
100
AcDbEntity
  8
0
370
    -3
  6
Continuous
100
AcDbCircle
 10
-233.833976
 20
164.469569
 30
0.0
 40
5.0
100
AcDbArc
 50
270.0
 51
351.914005
  0
ARC
  5
100
100
AcDbEntity
  8
0
370
    -3
  6
Continuous
100
AcDbCircle
 10
-233.833976
 20
155.456723
 30
0.0
 40
5.0
100
AcDbArc
 50
270.0
 51
350.385223
  0
LINE
  5
101
100
AcDbEntity
  8
0
370
    -3
  6
Continuous
100
AcDbLine
 10
-245.333976
 20
147.456723
 30
0.0
 11
-245.333976
 21
135.956723
 31
0.0
  0
LINE
  5
102
100
AcDbEntity
  8
0
370
    -3
  6
Continuous
100
AcDbLine
 10
-242.333976
 20
164.190692
 30
0.0
 11
-231.401254
 21
164.190692
 31
0.0
  0
ARC
  5
103
100
AcDbEntity
  8
0
370
    -3
  6
Continuous
100
AcDbCircle
 10
-242.333976
 20
167.190692
 30
0.0
 40
3.0
100
AcDbArc
 50
180.0
 51
270.0
  0
LINE
  5
104
100
AcDbEntity
  8
0
370
    -3
  6
Continuous
100
AcDbLine
 10
-245.333976
 20
226.956723
 30
0.0
 11
-245.333976
 21
248.443876
 31
0.0
  0
LINE
  5
105
100
AcDbEntity
  8
0
370
    -3
  6
Continuous
100
AcDbLine
 10
-245.333976
 20
183.956723
 30
0.0
 11
-245.333976
 21
162.469569
 31
0.0
  0
LINE
  5
106
100
AcDbEntity
  8
0
370
    -3
  6
Continuous
100
AcDbLine
 10
-250.833976
 20
184.956723
 30
0.0
 11
-250.833976
 21
225.956723
 31
0.0
  0
INSERT
  5
112
100
AcDbEntity
  8
0
100
AcDbBlockReference
  2
ZU_SYM__USR_MELCAD_MD_SYM_SYM_ZU_SYM_2_-1
 10
-255.333976
 20
215.956723
 30
0.0
  0
INSERT
  5
11E
100
AcDbEntity
  8
0
100
AcDbBlockReference
  2
ZU_SYM__USR_MELCAD_MD_SYM_SYM_ZU_SYM_1_-1
 10
-255.333976
 20
194.956723
 30
0.0
 41
-1.0
 50
180.0
  0
LINE
  5
11F
100
AcDbEntity
  8
0
370
    -3
  6
Continuous
100
AcDbLine
 10
-255.333976
 20
184.956723
 30
0.0
 11
-255.333976
 21
225.956723
 31
0.0
  0
LINE
  5
120
100
AcDbEntity
  8
0
370
    -3
  6
Continuous
100
AcDbLine
 10
-251.833976
 20
133.956723
 30
0.0
 11
-251.833976
 21
184.956723
 31
0.0
  0
LINE
  5
121
100
AcDbEntity
  8
0
370
    -3
  6
Continuous
100
AcDbLine
 10
-255.333976
 20
184.956723
 30
0.0
 11
-250.833976
 21
184.956723
 31
0.0
  0
LINE
  5
122
100
AcDbEntity
  8
0
370
    -3
  6
Continuous
100
AcDbLine
 10
-251.833976
 20
225.956723
 30
0.0
 11
-251.833976
 21
276.956723
 31
0.0
  0
LINE
  5
123
100
AcDbEntity
  8
0
370
    -3
  6
Continuous
100
AcDbLine
 10
-255.333976
 20
225.956723
 30
0.0
 11
-250.833976
 21
225.956723
 31
0.0
  0
LINE
  5
124
100
AcDbEntity
  8
0
370
    -3
  6
Continuous
100
AcDbLine
 10
-585.333927
 20
-38.846415
 30
0.0
 11
-585.333927
 21
-10.582778
 31
0.0
  0
LINE
  5
125
100
AcDbEntity
  8
0
370
    -3
  6
Continuous
100
AcDbLine
 10
-544.333927
 20
-38.846415
 30
0.0
 11
-544.333927
 21
-10.582778
 31
0.0
  0
LINE
  5
126
100
AcDbEntity
  8
0
370
    -3
  6
Continuous
100
AcDbLine
 10
-494.833963
 20
-78.710185
 30
0.0
 11
-494.834184
 21
11.957331
 31
0.0
  0
LINE
  5
127
100
AcDbEntity
  8
0
370
    -3
  6
Continuous
100
AcDbLine
 10
-506.834187
 20
13.378902
 30
0.0
 11
-495.33124
 21
12.494088
 31
0.0
  0
LINE
  5
128
100
AcDbEntity
  8
0
370
    -3
  6
Continuous
100
AcDbLine
 10
-495.33124
 20
12.494088
 30
0.0
 11
-494.834184
 21
11.957331
 31
0.0
  0
LINE
  5
129
100
AcDbEntity
  8
0
370
    -3
  6
Continuous
100
AcDbLine
 10
-495.33124
 20
12.494088
 30
0.0
 11
-494.834184
 21
11.957331
 31
0.0
  0
LINE
  5
12A
100
AcDbEntity
  8
0
370
    -3
  6
Continuous
100
AcDbLine
 10
-634.83418
 20
10.417052
 30
0.0
 11
-634.334181
 21
10.917053
 31
0.0
  0
LINE
  5
12B
100
AcDbEntity
  8
0
370
    -3
  6
Continuous
100
AcDbLine
 10
-634.83418
 20
10.417052
 30
0.0
 11
-634.833963
 21
-78.710377
 31
0.0
  0
LINE
  5
12C
100
AcDbEntity
  8
0
370
    -3
  6
Continuous
100
AcDbLine
 10
-625.834181
 20
10.917074
 30
0.0
 11
-578.471947
 21
11.912194
 31
0.0
  0
LINE
  5
12D
100
AcDbEntity
  8
0
370
    -3
  6
Continuous
100
AcDbLine
 10
-634.334181
 20
10.917053
 30
0.0
 11
-625.834181
 21
10.917074
 31
0.0
  0
LINE
  5
12E
100
AcDbEntity
  8
0
370
    -3
  6
Continuous
100
AcDbLine
 10
-634.834116
 20
-16.082948
 30
0.0
 11
-639.434116
 21
-16.082959
 31
0.0
  0
LINE
  5
12F
100
AcDbEntity
  8
0
370
    -3
  6
Continuous
100
AcDbLine
 10
-639.834115
 20
-16.48296
 30
0.0
 11
-639.434116
 21
-16.082959
 31
0.0
  0
LINE
  5
130
100
AcDbEntity
  8
0
370
    -3
  6
Continuous
100
AcDbLine
 10
-639.834115
 20
-16.48296
 30
0.0
 11
-639.833976
 21
-73.58296
 31
0.0
  0
LINE
  5
131
100
AcDbEntity
  8
0
370
    -3
  6
Continuous
100
AcDbLine
 10
-494.834116
 20
-16.082607
 30
0.0
 11
-490.234116
 21
-16.082596
 31
0.0
  0
LINE
  5
132
100
AcDbEntity
  8
0
370
    -3
  6
Continuous
100
AcDbLine
 10
-489.834115
 20
-16.482595
 30
0.0
 11
-490.234116
 21
-16.082596
 31
0.0
  0
LINE
  5
133
100
AcDbEntity
  8
0
370
    -3
  6
Continuous
100
AcDbLine
 10
-489.834115
 20
-16.482595
 30
0.0
 11
-489.833976
 21
-73.582595
 31
0.0
  0
ARC
  5
134
100
AcDbEntity
  8
0
370
    -3
  6
Continuous
100
AcDbCircle
 10
-575.334056
 20
2.417197
 30
0.0
 40
10.0
100
AcDbArc
 50
90.000139
 51
108.286358
  0
LINE
  5
135
100
AcDbEntity
  8
0
370
    -3
  6
Continuous
100
AcDbLine
 10
-575.33408
 20
12.417197
 30
0.0
 11
-554.434185
 21
12.417248
 31
0.0
  0
LINE
  5
136
100
AcDbEntity
  8
0
370
    -3
  6
Continuous
100
AcDbLine
 10
-506.834019
 20
-55.6988
 30
0.0
 11
-506.834188
 21
13.417363
 31
0.0
  0
ARC
  5
137
100
AcDbEntity
  8
0
370
    -3
  6
Continuous
100
AcDbCircle
 10
-554.334192
 20
2.417222
 30
0.0
 40
10.0
100
AcDbArc
 50
0.00007
 51
90.973393
  0
LINE
  5
138
100
AcDbEntity
  8
0
370
    -3
  6
Continuous
100
AcDbLine
 10
-544.334192
 20
2.417234
 30
0.0
 11
-544.334136
 21
-43.48213
 31
0.0
  0
LINE
  5
139
100
AcDbEntity
  8
0
370
    -3
  6
CENTER
100
AcDbLine
 10
-577.339085
 20
-7.582778
 30
0.0
 11
-552.17658
 21
-7.582778
 31
0.0
  0
CIRCLE
  5
13A
100
AcDbEntity
  8
0
370
    -3
  6
Continuous
100
AcDbCircle
 10
-564.83418
 20
-7.582778
 30
0.0
 40
10.0
  0
ARC
  5
13B
100
AcDbEntity
  8
0
370
    -3
  6
Continuous
100
AcDbCircle
 10
-575.334192
 20
2.417222
 30
0.0
 40
10.0
100
AcDbArc
 50
108.286912
 51
180.00007
  0
LINE
  5
13C
100
AcDbEntity
  8
0
370
    -3
  6
Continuous
100
AcDbLine
 10
-585.334192
 20
2.41721
 30
0.0
 11
-585.334136
 21
-43.482159
 31
0.0
  0
LINE
  5
13D
100
AcDbEntity
  8
0
370
    -3
  6
CENTER
100
AcDbLine
 10
-554.334157
 20
-24.222684
 30
0.0
 11
-554.334137
 21
-40.828933
 31
0.0
  0
LINE
  5
13E
100
AcDbEntity
  8
0
370
    -3
  6
CENTER
100
AcDbLine
 10
-575.333898
 20
-24.222684
 30
0.0
 11
-575.333917
 21
-39.883609
 31
0.0
  0
LINE
  5
13F
100
AcDbEntity
  8
0
370
    -3
  6
Continuous
100
AcDbLine
 10
-550.870049
 20
-32.582782
 30
0.0
 11
-552.6021
 21
-35.582775
 31
0.0
  0
LINE
  5
140
100
AcDbEntity
  8
0
370
    -3
  6
Continuous
100
AcDbLine
 10
-557.798244
 20
-32.582771
 30
0.0
 11
-556.066193
 21
-29.58278
 31
0.0
  0
LINE
  5
141
100
AcDbEntity
  8
0
370
    -3
  6
Continuous
100
AcDbLine
 10
-552.602095
 20
-29.58278
 30
0.0
 11
-550.870048
 21
-32.582782
 31
0.0
  0
LINE
  5
142
100
AcDbEntity
  8
0
370
    -3
  6
Continuous
100
AcDbLine
 10
-557.798244
 20
-32.582771
 30
0.0
 11
-556.066199
 21
-35.582776
 31
0.0
  0
LINE
  5
143
100
AcDbEntity
  8
0
370
    -3
  6
Continuous
100
AcDbLine
 10
-556.066194
 20
-29.582781
 30
0.0
 11
-552.602096
 21
-29.58278
 31
0.0
  0
LINE
  5
144
100
AcDbEntity
  8
0
370
    -3
  6
Continuous
100
AcDbLine
 10
-552.602101
 20
-35.582774
 30
0.0
 11
-556.066199
 21
-35.582775
 31
0.0
  0
POINT
  5
145
100
AcDbEntity
  8
0
370
    -3
  6
Continuous
100
AcDbPoint
 10
-554.334147
 20
-32.582778
 30
0.0
  0
CIRCLE
  5
146
100
AcDbEntity
  8
0
370
    -3
  6
Continuous
100
AcDbCircle
 10
-554.334147
 20
-32.582778
 30
0.0
 40
6.5
  0
CIRCLE
  5
147
100
AcDbEntity
  8
0
370
    -3
  6
Continuous
100
AcDbCircle
 10
-554.334147
 20
-32.582778
 30
0.0
 40
5.633955
  0
LINE
  5
148
100
AcDbEntity
  8
0
370
    -3
  6
Continuous
100
AcDbLine
 10
-571.870049
 20
-32.582782
 30
0.0
 11
-573.6021
 21
-35.582775
 31
0.0
  0
LINE
  5
149
100
AcDbEntity
  8
0
370
    -3
  6
Continuous
100
AcDbLine
 10
-578.798244
 20
-32.582771
 30
0.0
 11
-577.066193
 21
-29.58278
 31
0.0
  0
LINE
  5
14A
100
AcDbEntity
  8
0
370
    -3
  6
Continuous
100
AcDbLine
 10
-573.602095
 20
-29.58278
 30
0.0
 11
-571.870048
 21
-32.582782
 31
0.0
  0
LINE
  5
14B
100
AcDbEntity
  8
0
370
    -3
  6
Continuous
100
AcDbLine
 10
-578.798244
 20
-32.582771
 30
0.0
 11
-577.066199
 21
-35.582776
 31
0.0
  0
LINE
  5
14C
100
AcDbEntity
  8
0
370
    -3
  6
Continuous
100
AcDbLine
 10
-577.066194
 20
-29.582781
 30
0.0
 11
-573.602096
 21
-29.58278
 31
0.0
  0
LINE
  5
14D
100
AcDbEntity
  8
0
370
    -3
  6
Continuous
100
AcDbLine
 10
-573.602101
 20
-35.582774
 30
0.0
 11
-577.066199
 21
-35.582775
 31
0.0
  0
POINT
  5
14E
100
AcDbEntity
  8
0
370
    -3
  6
Continuous
100
AcDbPoint
 10
-575.334147
 20
-32.582778
 30
0.0
  0
CIRCLE
  5
14F
100
AcDbEntity
  8
0
370
    -3
  6
Continuous
100
AcDbCircle
 10
-575.334147
 20
-32.582778
 30
0.0
 40
6.5
  0
CIRCLE
  5
150
100
AcDbEntity
  8
0
370
    -3
  6
Continuous
100
AcDbCircle
 10
-575.334147
 20
-32.582778
 30
0.0
 40
5.633955
  0
LINE
  5
151
100
AcDbEntity
  8
0
370
    -3
  6
CENTER
100
AcDbLine
 10
-545.663122
 20
-32.582778
 30
0.0
 11
-583.649816
 21
-32.582778
 31
0.0
  0
LINE
  5
152
100
AcDbEntity
  8
0
370
    -3
  6
Continuous
100
AcDbLine
 10
-554.504073
 20
12.415779
 30
0.0
 11
-506.834188
 21
13.417363
 31
0.0
  0
LINE
  5
153
100
AcDbEntity
  8
0
370
    -3
  6
Continuous
100
AcDbLine
 10
-485.834052
 20
-42.082585
 30
0.0
 11
-489.834052
 21
-42.082595
 31
0.0
  0
LINE
  5
154
100
AcDbEntity
  8
0
370
    -3
  6
Continuous
100
AcDbLine
 10
-485.834052
 20
-42.082585
 30
0.0
 11
-485.833899
 21
-105.082585
 31
0.0
  0
LINE
  5
155
100
AcDbEntity
  8
0
370
    -3
  6
Continuous
100
AcDbLine
 10
-643.834052
 20
-42.08297
 30
0.0
 11
-639.834052
 21
-42.08296
 31
0.0
  0
LINE
  5
156
100
AcDbEntity
  8
0
370
    -3
  6
Continuous
100
AcDbLine
 10
-643.834052
 20
-42.08297
 30
0.0
 11
-643.833899
 21
-105.08297
 31
0.0
  0
LINE
  5
157
100
AcDbEntity
  8
0
370
    -3
  6
Continuous
100
AcDbLine
 10
-506.833718
 20
-179.466601
 30
0.0
 11
-506.833674
 21
-197.582637
 31
0.0
  0
LINE
  5
158
100
AcDbEntity
  8
0
370
    -3
  6
Continuous
100
AcDbLine
 10
-494.833677
 20
-196.122546
 30
0.0
 11
-495.330731
 21
-196.659305
 31
0.0
  0
LINE
  5
159
100
AcDbEntity
  8
0
370
    -3
  6
Continuous
100
AcDbLine
 10
-506.833674
 20
-197.544175
 30
0.0
 11
-495.330731
 21
-196.659305
 31
0.0
  0
LINE
  5
15A
100
AcDbEntity
  8
0
370
    -3
  6
Continuous
100
AcDbLine
 10
-494.833677
 20
-196.122546
 30
0.0
 11
-495.330731
 21
-196.659305
 31
0.0
  0
LINE
  5
15B
100
AcDbEntity
  8
0
370
    -3
  6
Continuous
100
AcDbLine
 10
-494.833774
 20
-156.454928
 30
0.0
 11
-494.833677
 21
-196.122546
 31
0.0
  0
LINE
  5
15C
100
AcDbEntity
  8
0
370
    -3
  6
Continuous
100
AcDbLine
 10
-634.833774
 20
-156.455622
 30
0.0
 11
-634.833681
 21
-194.582948
 31
0.0
  0
LINE
  5
15D
100
AcDbEntity
  8
0
370
    -3
  6
Continuous
100
AcDbLine
 10
-634.833681
 20
-194.582948
 30
0.0
 11
-634.33368
 21
-195.082947
 31
0.0
  0
LINE
  5
15E
100
AcDbEntity
  8
0
370
    -3
  6
Continuous
100
AcDbLine
 10
-634.33368
 20
-195.082947
 30
0.0
 11
-625.83368
 21
-195.082926
 31
0.0
  0
LINE
  5
15F
100
AcDbEntity
  8
0
370
    -3
  6
Continuous
100
AcDbLine
 10
-489.833837
 20
-130.682595
 30
0.0
 11
-489.833976
 21
-73.582595
 31
0.0
  0
LINE
  5
160
100
AcDbEntity
  8
0
370
    -3
  6
Continuous
100
AcDbLine
 10
-485.833899
 20
-105.082585
 30
0.0
 11
-489.833899
 21
-105.082595
 31
0.0
  0
LINE
  5
161
100
AcDbEntity
  8
0
370
    -3
  6
Continuous
100
AcDbLine
 10
-643.833899
 20
-105.08297
 30
0.0
 11
-639.833899
 21
-105.08296
 31
0.0
  0
LINE
  5
162
100
AcDbEntity
  8
0
370
    -3
  6
Continuous
100
AcDbLine
 10
-639.833837
 20
-130.68296
 30
0.0
 11
-639.833976
 21
-73.58296
 31
0.0
  0
LINE
  5
163
100
AcDbEntity
  8
0
370
    -3
  6
Continuous
100
AcDbLine
 10
-371.833976
 20
130.656723
 30
0.0
 11
-403.581141
 21
130.656723
 31
0.0
  0
LINE
  5
164
100
AcDbEntity
  8
0
370
    -3
  6
Continuous
100
AcDbLine
 10
-433.933976
 20
143.416163
 30
0.0
 11
-418.981141
 21
134.78314
 31
0.0
  0
ARC
  5
165
100
AcDbEntity
  8
0
370
    -3
  6
Continuous
100
AcDbCircle
 10
-403.581141
 20
161.456723
 30
0.0
 40
30.8
100
AcDbArc
 50
240.0
 51
270.0
  0
LINE
  5
166
100
AcDbEntity
  8
0
370
    -3
  6
Continuous
100
AcDbLine
 10
-371.833976
 20
138.956723
 30
0.0
 11
-251.833976
 21
138.956723
 31
0.0
  0
LINE
  5
167
100
AcDbEntity
  8
0
370
    -3
  6
Continuous
100
AcDbLine
 10
-371.833976
 20
134.456723
 30
0.0
 11
-251.833976
 21
134.456723
 31
0.0
  0
LINE
  5
168
100
AcDbEntity
  8
0
370
    -3
  6
Continuous
100
AcDbLine
 10
-371.833976
 20
135.956723
 30
0.0
 11
-251.833976
 21
135.956723
 31
0.0
  0
LINE
  5
169
100
AcDbEntity
  8
0
370
    -3
  6
Continuous
100
AcDbLine
 10
-371.833976
 20
133.956723
 30
0.0
 11
-251.833976
 21
133.956723
 31
0.0
  0
LINE
  5
16A
100
AcDbEntity
  8
0
370
    -3
  6
Continuous
100
AcDbLine
 10
-371.833976
 20
143.456723
 30
0.0
 11
-251.833976
 21
143.456723
 31
0.0
  0
LINE
  5
16B
100
AcDbEntity
  8
0
370
    -3
  6
Continuous
100
AcDbLine
 10
-251.833976
 20
205.456723
 30
0.0
 11
-251.833976
 21
133.956723
 31
0.0
  0
LINE
  5
16C
100
AcDbEntity
  8
0
370
    -3
  6
Continuous
100
AcDbLine
 10
-251.833976
 20
244.856928
 30
0.0
 11
-371.833976
 21
244.856928
 31
0.0
  0
LINE
  5
16D
100
AcDbEntity
  8
0
370
    -3
  6
Continuous
100
AcDbLine
 10
-251.833976
 20
246.056517
 30
0.0
 11
-371.833976
 21
246.056517
 31
0.0
  0
LINE
  5
16E
100
AcDbEntity
  8
0
370
    -3
  6
Continuous
100
AcDbLine
 10
-435.833976
 20
205.456723
 30
0.0
 11
-435.833976
 21
146.70706
 31
0.0
  0
ARC
  5
16F
100
AcDbEntity
  8
0
370
    -3
  6
Continuous
100
AcDbCircle
 10
-432.033976
 20
146.70706
 30
0.0
 40
3.8
100
AcDbArc
 50
180.0
 51
240.0
  0
ELLIPSE
  5
170
100
AcDbEntity
  8
0
370
    -3
  6
Continuous
100
AcDbEllipse
 10
-388.833976
 20
262.481454
 30
0.0
 11
5.0
 21
0.0
 31
0.0
210
0.0
220
0.0
230
1.0
 40
0.707107
 41
3.1415926535897931
 42
0.0
  0
LINE
  5
171
100
AcDbEntity
  8
0
370
    -3
  6
Continuous
100
AcDbLine
 10
-393.833976
 20
263.298057
 30
0.0
 11
-393.833976
 21
262.481454
 31
0.0
  0
LINE
  5
172
100
AcDbEntity
  8
0
370
    -3
  6
Continuous
100
AcDbLine
 10
-383.833976
 20
263.298057
 30
0.0
 11
-383.833976
 21
262.481454
 31
0.0
  0
ELLIPSE
  5
173
100
AcDbEntity
  8
0
370
    -3
  6
Continuous
100
AcDbEllipse
 10
-388.833976
 20
263.298057
 30
0.0
 11
4.5
 21
0.0
 31
0.0
210
0.0
220
0.0
230
1.0
 40
0.707107
 41
3.1415926535897931
 42
0.0
  0
LINE
  5
174
100
AcDbEntity
  8
0
370
    -3
  6
Continuous
100
AcDbLine
 10
-393.333976
 20
263.863743
 30
0.0
 11
-393.333976
 21
263.298057
 31
0.0
  0
LINE
  5
175
100
AcDbEntity
  8
0
370
    -3
  6
Continuous
100
AcDbLine
 10
-384.333976
 20
263.863743
 30
0.0
 11
-384.333976
 21
263.298057
 31
0.0
  0
ELLIPSE
  5
176
100
AcDbEntity
  8
0
370
    -3
  6
Continuous
100
AcDbEllipse
 10
-388.833976
 20
263.298057
 30
0.0
 11
5.0
 21
0.0
 31
0.0
210
0.0
220
0.0
230
1.0
 40
0.707107
 41
0.0
 42
0.7392718269404981
  0
ELLIPSE
  5
177
100
AcDbEntity
  8
0
370
    -3
  6
Continuous
100
AcDbEllipse
 10
-388.833976
 20
263.298057
 30
0.0
 11
5.0
 21
0.0
 31
0.0
210
0.0
220
0.0
230
1.0
 40
0.707107
 41
2.4023208266490501
 42
3.1415926535897931
  0
ELLIPSE
  5
178
100
AcDbEntity
  8
0
370
    -3
  6
Continuous
100
AcDbEllipse
 10
-388.833976
 20
264.400261
 30
0.0
 11
3.5
 21
0.0
 31
0.0
210
0.0
220
0.0
230
1.0
 40
0.860398
 41
0.0
 42
6.2831853071795862
  0
ELLIPSE
  5
179
100
AcDbEntity
  8
0
370
    -3
  6
Continuous
100
AcDbEllipse
 10
-388.833976
 20
263.863743
 30
0.0
 11
4.5
 21
0.0
 31
0.0
210
0.0
220
0.0
230
1.0
 40
0.707107
 41
2.1587066623460007
 42
0.9828859912434559
  0
LINE
  5
17A
100
AcDbEntity
  8
0
370
    -3
  6
Continuous
100
AcDbLine
 10
-388.833976
 20
265.702221
 30
0.0
 11
-386.833976
 21
264.128883
 31
0.0
  0
LINE
  5
17B
100
AcDbEntity
  8
0
370
    -3
  6
Continuous
100
AcDbLine
 10
-388.833976
 20
265.702221
 30
0.0
 11
-386.904771
 21
266.912883
 31
0.0
  0
LINE
  5
17C
100
AcDbEntity
  8
0
370
    -3
  6
Continuous
100
AcDbLine
 10
-388.833976
 20
265.702221
 30
0.0
 11
-390.833976
 21
264.128883
 31
0.0
  0
LINE
  5
17D
100
AcDbEntity
  8
0
370
    -3
  6
Continuous
100
AcDbLine
 10
-388.833976
 20
265.702221
 30
0.0
 11
-390.76318
 21
266.912883
 31
0.0
  0
ARC
  5
17E
100
AcDbEntity
  8
0
370
    -3
  6
Continuous
100
AcDbCircle
 10
-403.581141
 20
249.456723
 30
0.0
 40
30.8
100
AcDbArc
 50
90.0
 51
120.0
  0
ARC
  5
17F
100
AcDbEntity
  8
0
370
    -3
  6
Continuous
100
AcDbCircle
 10
-432.033976
 20
264.206385
 30
0.0
 40
3.8
100
AcDbArc
 50
120.0
 51
180.0
  0
LINE
  5
180
100
AcDbEntity
  8
0
370
    -3
  6
Continuous
100
AcDbLine
 10
-435.833976
 20
205.456723
 30
0.0
 11
-435.833976
 21
264.206385
 31
0.0
  0
LINE
  5
181
100
AcDbEntity
  8
0
370
    -3
  6
Continuous
100
AcDbLine
 10
-433.933976
 20
267.497282
 30
0.0
 11
-418.981141
 21
276.130305
 31
0.0
  0
LINE
  5
182
100
AcDbEntity
  8
0
370
    -3
  6
Continuous
100
AcDbLine
 10
-371.833976
 20
271.956723
 30
0.0
 11
-251.833976
 21
271.956723
 31
0.0
  0
LINE
  5
183
100
AcDbEntity
  8
0
370
    -3
  6
Continuous
100
AcDbLine
 10
-371.833976
 20
276.456723
 30
0.0
 11
-251.833976
 21
276.456723
 31
0.0
  0
LINE
  5
184
100
AcDbEntity
  8
0
370
    -3
  6
Continuous
100
AcDbLine
 10
-371.833976
 20
274.956723
 30
0.0
 11
-251.833976
 21
274.956723
 31
0.0
  0
LINE
  5
185
100
AcDbEntity
  8
0
370
    -3
  6
Continuous
100
AcDbLine
 10
-371.833976
 20
276.956723
 30
0.0
 11
-251.833976
 21
276.956723
 31
0.0
  0
LINE
  5
186
100
AcDbEntity
  8
0
370
    -3
  6
Continuous
100
AcDbLine
 10
-371.833976
 20
267.456723
 30
0.0
 11
-251.833976
 21
267.456723
 31
0.0
  0
LINE
  5
187
100
AcDbEntity
  8
0
370
    -3
  6
Continuous
100
AcDbLine
 10
-371.833976
 20
238.056517
 30
0.0
 11
-251.833976
 21
238.056517
 31
0.0
  0
LINE
  5
188
100
AcDbEntity
  8
0
370
    -3
  6
Continuous
100
AcDbLine
 10
-371.833976
 20
236.856928
 30
0.0
 11
-251.833976
 21
236.856928
 31
0.0
  0
LINE
  5
189
100
AcDbEntity
  8
0
370
    -3
  6
Continuous
100
AcDbLine
 10
-371.833976
 20
229.456723
 30
0.0
 11
-251.833976
 21
229.456723
 31
0.0
  0
LINE
  5
18A
100
AcDbEntity
  8
0
370
    -3
  6
Continuous
100
AcDbLine
 10
-371.833976
 20
181.456723
 30
0.0
 11
-251.833976
 21
181.456723
 31
0.0
  0
LINE
  5
18B
100
AcDbEntity
  8
0
370
    -3
  6
Continuous
100
AcDbLine
 10
-371.833976
 20
280.256723
 30
0.0
 11
-403.581141
 21
280.256723
 31
0.0
  0
LINE
  5
18C
100
AcDbEntity
  8
0
370
    -3
  6
Continuous
100
AcDbLine
 10
-371.833976
 20
280.256723
 30
0.0
 11
-371.833976
 21
130.656723
 31
0.0
  0
LINE
  5
18D
100
AcDbEntity
  8
0
370
    -3
  6
Continuous
100
AcDbLine
 10
-371.833976
 20
261.308344
 30
0.0
 11
-251.833976
 21
261.308344
 31
0.0
  0
LINE
  5
18E
100
AcDbEntity
  8
0
370
    -3
  6
Continuous
100
AcDbLine
 10
-371.833976
 20
254.378697
 30
0.0
 11
-251.833976
 21
254.378697
 31
0.0
  0
LINE
  5
18F
100
AcDbEntity
  8
0
370
    -3
  6
Continuous
100
AcDbLine
 10
-371.833976
 20
156.534748
 30
0.0
 11
-251.833976
 21
156.534748
 31
0.0
  0
LINE
  5
190
100
AcDbEntity
  8
0
370
    -3
  6
Continuous
100
AcDbLine
 10
-371.833976
 20
149.605101
 30
0.0
 11
-251.833976
 21
149.605101
 31
0.0
  0
LINE
  5
191
100
AcDbEntity
  8
0
370
    -3
  6
Continuous
100
AcDbLine
 10
-251.833976
 20
166.056517
 30
0.0
 11
-371.833976
 21
166.056517
 31
0.0
  0
LINE
  5
192
100
AcDbEntity
  8
0
370
    -3
  6
Continuous
100
AcDbLine
 10
-251.833976
 20
164.856928
 30
0.0
 11
-371.833976
 21
164.856928
 31
0.0
  0
LINE
  5
193
100
AcDbEntity
  8
0
370
    -3
  6
Continuous
100
AcDbLine
 10
-371.833976
 20
172.856928
 30
0.0
 11
-251.833976
 21
172.856928
 31
0.0
  0
LINE
  5
194
100
AcDbEntity
  8
0
370
    -3
  6
Continuous
100
AcDbLine
 10
-371.833976
 20
174.056517
 30
0.0
 11
-251.833976
 21
174.056517
 31
0.0
  0
LINE
  5
195
100
AcDbEntity
  8
0
370
    -3
  6
Continuous
100
AcDbLine
 10
-388.833976
 20
145.211224
 30
0.0
 11
-390.76318
 21
144.000562
 31
0.0
  0
LINE
  5
196
100
AcDbEntity
  8
0
370
    -3
  6
Continuous
100
AcDbLine
 10
-388.833976
 20
145.211224
 30
0.0
 11
-390.833976
 21
146.784562
 31
0.0
  0
LINE
  5
197
100
AcDbEntity
  8
0
370
    -3
  6
Continuous
100
AcDbLine
 10
-388.833976
 20
145.211224
 30
0.0
 11
-386.904771
 21
144.000562
 31
0.0
  0
LINE
  5
198
100
AcDbEntity
  8
0
370
    -3
  6
Continuous
100
AcDbLine
 10
-388.833976
 20
145.211224
 30
0.0
 11
-386.833976
 21
146.784562
 31
0.0
  0
ELLIPSE
  5
199
100
AcDbEntity
  8
0
370
    -3
  6
Continuous
100
AcDbEllipse
 10
-388.833976
 20
147.049702
 30
0.0
 11
4.5
 21
0.0
 31
0.0
210
0.0
220
0.0
230
1.0
 40
0.707107
 41
5.3002993159361305
 42
4.1244786448335855
  0
ELLIPSE
  5
19A
100
AcDbEntity
  8
0
370
    -3
  6
Continuous
100
AcDbEllipse
 10
-388.833976
 20
146.513184
 30
0.0
 11
3.5
 21
0.0
 31
0.0
210
0.0
220
0.0
230
1.0
 40
0.860398
 41
0.0
 42
6.2831853071795862
  0
ELLIPSE
  5
19B
100
AcDbEntity
  8
0
370
    -3
  6
Continuous
100
AcDbEllipse
 10
-388.833976
 20
147.615388
 30
0.0
 11
5.0
 21
0.0
 31
0.0
210
0.0
220
0.0
230
1.0
 40
0.707107
 41
3.1415926535897931
 42
3.8808644805305361
  0
ELLIPSE
  5
19C
100
AcDbEntity
  8
0
370
    -3
  6
Continuous
100
AcDbEllipse
 10
-388.833976
 20
147.615388
 30
0.0
 11
5.0
 21
0.0
 31
0.0
210
0.0
220
0.0
230
1.0
 40
0.707107
 41
5.5439134802390884
 42
0.0
  0
LINE
  5
19D
100
AcDbEntity
  8
0
370
    -3
  6
Continuous
100
AcDbLine
 10
-384.333976
 20
147.049702
 30
0.0
 11
-384.333976
 21
147.615388
 31
0.0
  0
LINE
  5
19E
100
AcDbEntity
  8
0
370
    -3
  6
Continuous
100
AcDbLine
 10
-393.333976
 20
147.049702
 30
0.0
 11
-393.333976
 21
147.615388
 31
0.0
  0
ELLIPSE
  5
19F
100
AcDbEntity
  8
0
370
    -3
  6
Continuous
100
AcDbEllipse
 10
-388.833976
 20
147.615388
 30
0.0
 11
4.5
 21
0.0
 31
0.0
210
0.0
220
0.0
230
1.0
 40
0.707107
 41
0.0
 42
3.1415926535897931
  0
LINE
  5
1A0
100
AcDbEntity
  8
0
370
    -3
  6
Continuous
100
AcDbLine
 10
-383.833976
 20
147.615388
 30
0.0
 11
-383.833976
 21
148.431991
 31
0.0
  0
LINE
  5
1A1
100
AcDbEntity
  8
0
370
    -3
  6
Continuous
100
AcDbLine
 10
-393.833976
 20
147.615388
 30
0.0
 11
-393.833976
 21
148.431991
 31
0.0
  0
ELLIPSE
  5
1A2
100
AcDbEntity
  8
0
370
    -3
  6
Continuous
100
AcDbEllipse
 10
-388.833976
 20
148.431991
 30
0.0
 11
5.0
 21
0.0
 31
0.0
210
0.0
220
0.0
230
1.0
 40
0.707107
 41
0.0
 42
3.1415926535897931
  0
LINE
  5
1A3
100
AcDbEntity
  8
0
370
    -3
  6
Continuous
100
AcDbLine
 10
-251.833976
 20
205.456723
 30
0.0
 11
-251.833976
 21
276.956723
 31
0.0
  0
ARC
  5
1A4
100
AcDbEntity
  8
0
370
    -3
  6
Continuous
100
AcDbCircle
 10
-588.117108
 20
-136.500845
 30
0.0
 40
50.8
100
AcDbArc
 50
184.33985
 51
219.094568
  0
ARC
  5
1A5
100
AcDbEntity
  8
0
370
    -3
  6
Continuous
100
AcDbCircle
 10
-564.833922
 20
-117.582778
 30
0.0
 40
80.8
100
AcDbArc
 50
219.094568
 51
230.905432
  0
ARC
  5
1A6
100
AcDbEntity
  8
0
370
    -3
  6
Continuous
100
AcDbCircle
 10
-583.751989
 20
-140.865964
 30
0.0
 40
50.8
100
AcDbArc
 50
230.905432
 51
265.66015
  0
ARC
  5
1A7
100
AcDbEntity
  8
0
370
    -3
  6
Continuous
100
AcDbCircle
 10
-588.117108
 20
-136.500845
 30
0.0
 40
36.944
100
AcDbArc
 50
184.33985
 51
219.094568
  0
ARC
  5
1A8
100
AcDbEntity
  8
0
370
    -3
  6
Continuous
100
AcDbCircle
 10
-564.833922
 20
-117.582778
 30
0.0
 40
66.944
100
AcDbArc
 50
219.094568
 51
230.905432
  0
INSERT
  5
1B4
100
AcDbEntity
  8
0
100
AcDbBlockReference
  2
ZU_SYM__USERS_HOME_SYMBOL_POO_SYM_S07_-1
 10
-623.240942
 20
-175.989798
 30
0.0
 41
-1.0
 42
1.0
 50
225.0
  0
LINE
  5
1B5
100
AcDbEntity
  8
0
370
    -3
  6
Continuous
100
AcDbLine
 10
-618.927591
 20
-178.747514
 30
0.0
 11
-618.32312
 21
-178.143043
 31
0.0
  0
LINE
  5
1B6
100
AcDbEntity
  8
0
370
    -3
  6
Continuous
100
AcDbLine
 10
-619.351855
 20
-178.747514
 30
0.0
 11
-625.998659
 21
-172.100711
 31
0.0
  0
ARC
  5
1B7
100
AcDbEntity
  8
0
370
    -3
  6
Continuous
100
AcDbCircle
 10
-625.786527
 20
-171.888579
 30
0.0
 40
0.3
100
AcDbArc
 50
135.0
 51
225.0
  0
LINE
  5
1B8
100
AcDbEntity
  8
0
370
    -3
  6
Continuous
100
AcDbLine
 10
-625.998659
 20
-171.676446
 30
0.0
 11
-625.394188
 21
-171.071975
 31
0.0
  0
LINE
  5
1B9
100
AcDbEntity
  8
0
370
    -3
  6
Continuous
100
AcDbLine
 10
-620.058962
 20
-179.171778
 30
0.0
 11
-619.493276
 21
-178.606093
 31
0.0
  0
LINE
  5
1BA
100
AcDbEntity
  8
0
370
    -3
  6
Continuous
100
AcDbLine
 10
-621.720663
 20
-177.510077
 30
0.0
 11
-620.058962
 21
-179.171778
 31
0.0
  0
LINE
  5
1BB
100
AcDbEntity
  8
0
370
    -3
  6
Continuous
100
AcDbLine
 10
-626.422923
 20
-172.807817
 30
0.0
 11
-625.857237
 21
-172.242132
 31
0.0
  0
LINE
  5
1BC
100
AcDbEntity
  8
0
370
    -3
  6
Continuous
100
AcDbLine
 10
-624.761222
 20
-174.469518
 30
0.0
 11
-626.422923
 21
-172.807817
 31
0.0
  0
ARC
  5
1BD
100
AcDbEntity
  8
0
370
    -3
  6
Continuous
100
AcDbCircle
 10
-619.139723
 20
-178.535382
 30
0.0
 40
0.3
100
AcDbArc
 50
225.0
 51
315.0
  0
ARC
  5
1BE
100
AcDbEntity
  8
0
370
    -3
  6
Continuous
100
AcDbCircle
 10
-545.915855
 20
-140.865964
 30
0.0
 40
36.944
100
AcDbArc
 50
274.33985
 51
309.094568
  0
ARC
  5
1BF
100
AcDbEntity
  8
0
370
    -3
  6
Continuous
100
AcDbCircle
 10
-564.833922
 20
-117.582778
 30
0.0
 40
66.944
100
AcDbArc
 50
309.094568
 51
320.905432
  0
ARC
  5
1C0
100
AcDbEntity
  8
0
370
    -3
  6
Continuous
100
AcDbCircle
 10
-541.550736
 20
-136.500845
 30
0.0
 40
50.8
100
AcDbArc
 50
320.905432
 51
355.66015
  0
ARC
  5
1C1
100
AcDbEntity
  8
0
370
    -3
  6
Continuous
100
AcDbCircle
 10
-564.833922
 20
-117.582778
 30
0.0
 40
80.8
100
AcDbArc
 50
309.094568
 51
320.905432
  0
ARC
  5
1C2
100
AcDbEntity
  8
0
370
    -3
  6
Continuous
100
AcDbCircle
 10
-545.915855
 20
-140.865964
 30
0.0
 40
50.8
100
AcDbArc
 50
274.33985
 51
309.094568
  0
INSERT
  5
1CE
100
AcDbEntity
  8
0
100
AcDbBlockReference
  2
ZU_SYM__USERS_HOME_SYMBOL_POO_SYM_S07_00001-1
 10
-506.426902
 20
-175.989798
 30
0.0
 41
1.0
 42
1.0
 50
135.0
  0
LINE
  5
1CF
100
AcDbEntity
  8
0
370
    -3
  6
Continuous
100
AcDbLine
 10
-510.315989
 20
-178.747514
 30
0.0
 11
-503.669186
 21
-172.100711
 31
0.0
  0
ARC
  5
1D0
100
AcDbEntity
  8
0
370
    -3
  6
Continuous
100
AcDbCircle
 10
-503.881318
 20
-171.888579
 30
0.0
 40
0.3
100
AcDbArc
 50
315.0
 51
45.0
  0
LINE
  5
1D1
100
AcDbEntity
  8
0
370
    -3
  6
Continuous
100
AcDbLine
 10
-503.669186
 20
-171.676446
 30
0.0
 11
-504.273657
 21
-171.071975
 31
0.0
  0
LINE
  5
1D2
100
AcDbEntity
  8
0
370
    -3
  6
Continuous
100
AcDbLine
 10
-509.608883
 20
-179.171778
 30
0.0
 11
-510.174568
 21
-178.606093
 31
0.0
  0
LINE
  5
1D3
100
AcDbEntity
  8
0
370
    -3
  6
Continuous
100
AcDbLine
 10
-507.947182
 20
-177.510077
 30
0.0
 11
-509.608883
 21
-179.171778
 31
0.0
  0
LINE
  5
1D4
100
AcDbEntity
  8
0
370
    -3
  6
Continuous
100
AcDbLine
 10
-503.244922
 20
-172.807817
 30
0.0
 11
-503.810607
 21
-172.242132
 31
0.0
  0
LINE
  5
1D5
100
AcDbEntity
  8
0
370
    -3
  6
Continuous
100
AcDbLine
 10
-504.906622
 20
-174.469518
 30
0.0
 11
-503.244922
 21
-172.807817
 31
0.0
  0
ARC
  5
1D6
100
AcDbEntity
  8
0
370
    -3
  6
Continuous
100
AcDbCircle
 10
-510.528121
 20
-178.535382
 30
0.0
 40
0.3
100
AcDbArc
 50
225.0
 51
315.0
  0
LINE
  5
1D7
100
AcDbEntity
  8
0
370
    -3
  6
Continuous
100
AcDbLine
 10
-510.740253
 20
-178.747514
 30
0.0
 11
-511.344725
 21
-178.143043
 31
0.0
  0
ARC
  5
1D8
100
AcDbEntity
  8
0
370
    -3
  6
Continuous
100
AcDbCircle
 10
-541.550736
 20
-98.664711
 30
0.0
 40
50.8
100
AcDbArc
 50
4.33985
 51
39.094568
  0
ARC
  5
1D9
100
AcDbEntity
  8
0
370
    -3
  6
Continuous
100
AcDbCircle
 10
-564.833922
 20
-117.582778
 30
0.0
 40
80.8
100
AcDbArc
 50
39.094568
 51
50.905432
  0
ARC
  5
1DA
100
AcDbEntity
  8
0
370
    -3
  6
Continuous
100
AcDbCircle
 10
-545.915855
 20
-94.299592
 30
0.0
 40
50.8
100
AcDbArc
 50
50.905432
 51
85.66015
  0
ARC
  5
1DB
100
AcDbEntity
  8
0
370
    -3
  6
Continuous
100
AcDbCircle
 10
-541.550736
 20
-98.664711
 30
0.0
 40
36.944
100
AcDbArc
 50
4.33985
 51
39.094568
  0
ARC
  5
1DC
100
AcDbEntity
  8
0
370
    -3
  6
Continuous
100
AcDbCircle
 10
-564.833922
 20
-117.582778
 30
0.0
 40
66.944
100
AcDbArc
 50
39.094568
 51
50.905432
  0
ARC
  5
1DD
100
AcDbEntity
  8
0
370
    -3
  6
Continuous
100
AcDbCircle
 10
-545.915855
 20
-94.299592
 30
0.0
 40
36.944
100
AcDbArc
 50
50.905432
 51
85.66015
  0
INSERT
  5
1E9
100
AcDbEntity
  8
0
100
AcDbBlockReference
  2
ZU_SYM__USERS_HOME_SYMBOL_POO_SYM_S07_00002-1
 10
-506.426902
 20
-59.175758
 30
0.0
 41
-1.0
 42
1.0
 50
45.0
  0
ARC
  5
1EA
100
AcDbEntity
  8
0
370
    -3
  6
Continuous
100
AcDbCircle
 10
-503.881318
 20
-63.276977
 30
0.0
 40
0.3
100
AcDbArc
 50
315.0
 51
45.0
  0
LINE
  5
1EB
100
AcDbEntity
  8
0
370
    -3
  6
Continuous
100
AcDbLine
 10
-503.669186
 20
-63.489109
 30
0.0
 11
-504.273657
 21
-64.09358
 31
0.0
  0
LINE
  5
1EC
100
AcDbEntity
  8
0
370
    -3
  6
Continuous
100
AcDbLine
 10
-503.244922
 20
-62.357738
 30
0.0
 11
-503.810607
 21
-62.923424
 31
0.0
  0
LINE
  5
1ED
100
AcDbEntity
  8
0
370
    -3
  6
Continuous
100
AcDbLine
 10
-510.315989
 20
-56.418041
 30
0.0
 11
-503.669186
 21
-63.064845
 31
0.0
  0
LINE
  5
1EE
100
AcDbEntity
  8
0
370
    -3
  6
Continuous
100
AcDbLine
 10
-509.608883
 20
-55.993777
 30
0.0
 11
-510.174568
 21
-56.559463
 31
0.0
  0
LINE
  5
1EF
100
AcDbEntity
  8
0
370
    -3
  6
Continuous
100
AcDbLine
 10
-507.947182
 20
-57.655478
 30
0.0
 11
-509.608883
 21
-55.993777
 31
0.0
  0
LINE
  5
1F0
100
AcDbEntity
  8
0
370
    -3
  6
Continuous
100
AcDbLine
 10
-504.906622
 20
-60.696037
 30
0.0
 11
-503.244922
 21
-62.357738
 31
0.0
  0
ARC
  5
1F1
100
AcDbEntity
  8
0
370
    -3
  6
Continuous
100
AcDbCircle
 10
-510.528121
 20
-56.630173
 30
0.0
 40
0.3
100
AcDbArc
 50
45.0
 51
135.0
  0
LINE
  5
1F2
100
AcDbEntity
  8
0
370
    -3
  6
Continuous
100
AcDbLine
 10
-510.740253
 20
-56.418041
 30
0.0
 11
-511.344725
 21
-57.022512
 31
0.0
  0
ARC
  5
1F3
100
AcDbEntity
  8
0
370
    -3
  6
Continuous
100
AcDbCircle
 10
-625.786527
 20
-63.276977
 30
0.0
 40
0.3
100
AcDbArc
 50
135.0
 51
225.0
  0
LINE
  5
1F4
100
AcDbEntity
  8
0
370
    -3
  6
Continuous
100
AcDbLine
 10
-625.998659
 20
-63.489109
 30
0.0
 11
-625.394188
 21
-64.09358
 31
0.0
  0
LINE
  5
1F5
100
AcDbEntity
  8
0
370
    -3
  6
Continuous
100
AcDbLine
 10
-626.422923
 20
-62.357738
 30
0.0
 11
-625.857237
 21
-62.923424
 31
0.0
  0
LINE
  5
1F6
100
AcDbEntity
  8
0
370
    -3
  6
Continuous
100
AcDbLine
 10
-624.761222
 20
-60.696037
 30
0.0
 11
-626.422923
 21
-62.357738
 31
0.0
  0
LINE
  5
1F7
100
AcDbEntity
  8
0
370
    -3
  6
Continuous
100
AcDbLine
 10
-618.927591
 20
-56.418041
 30
0.0
 11
-618.32312
 21
-57.022512
 31
0.0
  0
ARC
  5
1F8
100
AcDbEntity
  8
0
370
    -3
  6
Continuous
100
AcDbCircle
 10
-619.139723
 20
-56.630173
 30
0.0
 40
0.3
100
AcDbArc
 50
45.0
 51
135.0
  0
LINE
  5
1F9
100
AcDbEntity
  8
0
370
    -3
  6
Continuous
100
AcDbLine
 10
-620.058962
 20
-55.993777
 30
0.0
 11
-619.493276
 21
-56.559463
 31
0.0
  0
LINE
  5
1FA
100
AcDbEntity
  8
0
370
    -3
  6
Continuous
100
AcDbLine
 10
-621.720663
 20
-57.655478
 30
0.0
 11
-620.058962
 21
-55.993777
 31
0.0
  0
ARC
  5
1FB
100
AcDbEntity
  8
0
370
    -3
  6
Continuous
100
AcDbCircle
 10
-564.833922
 20
-117.582778
 30
0.0
 40
80.8
100
AcDbArc
 50
129.094568
 51
140.905432
  0
INSERT
  5
207
100
AcDbEntity
  8
0
100
AcDbBlockReference
  2
ZU_SYM__USERS_HOME_SYMBOL_POO_SYM_S07_00003-1
 10
-623.240942
 20
-59.175758
 30
0.0
 41
1.0
 42
1.0
 50
315.0
  0
LINE
  5
208
100
AcDbEntity
  8
0
370
    -3
  6
Continuous
100
AcDbLine
 10
-619.351855
 20
-56.418041
 30
0.0
 11
-625.998659
 21
-63.064845
 31
0.0
  0
LINE
  5
209
100
AcDbEntity
  8
0
370
    -3
  6
Continuous
100
AcDbLine
 10
-578.276729
 20
-135.866403
 30
0.0
 11
-577.255081
 21
-134.096857
 31
0.0
  0
LINE
  5
20A
100
AcDbEntity
  8
0
370
    -3
  6
Continuous
100
AcDbLine
 10
-576.613141
 20
-121.082778
 30
0.0
 11
-574.360202
 21
-121.082778
 31
0.0
  0
ARC
  5
20B
100
AcDbEntity
  8
0
370
    -3
  6
Continuous
100
AcDbCircle
 10
-564.833922
 20
-117.582778
 30
0.0
 40
15.0
100
AcDbArc
 50
205.028999
 51
219.747753
  0
ARC
  5
20C
100
AcDbEntity
  8
0
370
    -3
  6
Continuous
100
AcDbCircle
 10
-564.833922
 20
-117.582778
 30
0.0
 40
9.0
100
AcDbArc
 50
210.0
 51
215.85226
  0
LINE
  5
20D
100
AcDbEntity
  8
0
370
    -3
  6
Continuous
100
AcDbLine
 10
-573.097141
 20
-126.895093
 30
0.0
 11
-572.017701
 21
-125.025447
 31
0.0
  0
ARC
  5
20E
100
AcDbEntity
  8
0
370
    -3
  6
Continuous
100
AcDbCircle
 10
-564.833922
 20
-117.582778
 30
0.0
 40
35.0
100
AcDbArc
 50
127.83748
 51
170.405932
  0
LINE
  5
20F
100
AcDbEntity
  8
0
370
    -3
  6
Continuous
100
AcDbLine
 10
-597.372361
 20
-114.082778
 30
0.0
 11
-595.342118
 21
-114.082778
 31
0.0
  0
LINE
  5
210
100
AcDbEntity
  8
0
370
    -3
  6
Continuous
100
AcDbLine
 10
-607.480727
 20
-114.082778
 30
0.0
 11
-605.463345
 21
-114.082778
 31
0.0
  0
ARC
  5
211
100
AcDbEntity
  8
0
370
    -3
  6
Continuous
100
AcDbCircle
 10
-564.833922
 20
-117.582778
 30
0.0
 40
39.0
100
AcDbArc
 50
126.301256
 51
172.29074
  0
ARC
  5
212
100
AcDbEntity
  8
0
370
    -3
  6
Continuous
100
AcDbCircle
 10
-564.833922
 20
-117.582778
 30
0.0
 40
45.0
100
AcDbArc
 50
126.007069
 51
172.651339
  0
ARC
  5
213
100
AcDbEntity
  8
0
370
    -3
  6
Continuous
100
AcDbCircle
 10
-564.833922
 20
-117.582778
 30
0.0
 40
55.0
100
AcDbArc
 50
124.8706
 51
174.043488
  0
LINE
  5
214
100
AcDbEntity
  8
0
370
    -3
  6
Continuous
100
AcDbLine
 10
-617.547772
 20
-114.082778
 30
0.0
 11
-615.536486
 21
-114.082778
 31
0.0
  0
ARC
  5
215
100
AcDbEntity
  8
0
370
    -3
  6
Continuous
100
AcDbCircle
 10
-564.833922
 20
-117.582778
 30
0.0
 40
49.0
100
AcDbArc
 50
125.062093
 51
173.809003
  0
LINE
  5
216
100
AcDbEntity
  8
0
370
    -3
  6
Continuous
100
AcDbLine
 10
-593.403294
 20
-73.099174
 30
0.0
 11
-592.399527
 21
-74.83775
 31
0.0
  0
LINE
  5
217
100
AcDbEntity
  8
0
370
    -3
  6
Continuous
100
AcDbLine
 10
-588.380929
 20
-81.798166
 30
0.0
 11
-587.375136
 21
-83.54025
 31
0.0
  0
ARC
  5
218
100
AcDbEntity
  8
0
370
    -3
  6
Continuous
100
AcDbCircle
 10
-595.342118
 20
-123.082778
 30
0.0
 40
2.0
100
AcDbArc
 50
10.21948
 51
90.0
  0
ARC
  5
219
100
AcDbEntity
  8
0
370
    -3
  6
Continuous
100
AcDbCircle
 10
-564.833922
 20
-117.582778
 30
0.0
 40
29.0
100
AcDbArc
 50
128.346619
 51
169.78052
  0
ARC
  5
21A
100
AcDbEntity
  8
0
370
    -3
  6
Continuous
100
AcDbCircle
 10
-587.166634
 20
-123.082778
 30
0.0
 40
2.0
100
AcDbArc
 50
90.0
 51
193.835224
  0
LINE
  5
21B
100
AcDbEntity
  8
0
370
    -3
  6
Continuous
100
AcDbLine
 10
-583.344857
 20
-90.520899
 30
0.0
 11
-582.33481
 21
-92.270351
 31
0.0
  0
ARC
  5
21C
100
AcDbEntity
  8
0
370
    -3
  6
Continuous
100
AcDbCircle
 10
-585.10089
 20
-123.082778
 30
0.0
 40
2.0
100
AcDbArc
 50
15.183114
 51
90.0
  0
LINE
  5
21D
100
AcDbEntity
  8
0
370
    -3
  6
Continuous
100
AcDbLine
 10
-587.166634
 20
-114.082778
 30
0.0
 11
-585.10089
 21
-114.082778
 31
0.0
  0
ARC
  5
21E
100
AcDbEntity
  8
0
370
    -3
  6
Continuous
100
AcDbCircle
 10
-576.613141
 20
-123.082778
 30
0.0
 40
2.0
100
AcDbArc
 50
90.0
 51
205.028999
  0
ARC
  5
21F
100
AcDbEntity
  8
0
370
    -3
  6
Continuous
100
AcDbCircle
 10
-564.833922
 20
-117.582778
 30
0.0
 40
25.0
100
AcDbArc
 50
131.282824
 51
166.164776
  0
ARC
  5
220
100
AcDbEntity
  8
0
370
    -3
  6
Continuous
100
AcDbCircle
 10
-574.360202
 20
-123.082778
 30
0.0
 40
2.0
100
AcDbArc
 50
30.0
 51
90.0
  0
ARC
  5
221
100
AcDbEntity
  8
0
370
    -3
  6
Continuous
100
AcDbCircle
 10
-564.833922
 20
-117.582778
 30
0.0
 40
19.0
100
AcDbArc
 50
132.373625
 51
164.816886
  0
ARC
  5
222
100
AcDbEntity
  8
0
370
    -3
  6
Continuous
100
AcDbCircle
 10
-574.360202
 20
-112.082778
 30
0.0
 40
2.0
100
AcDbArc
 50
270.0
 51
330.0
  0
LINE
  5
223
100
AcDbEntity
  8
0
370
    -3
  6
Continuous
100
AcDbLine
 10
-578.276729
 20
-99.299153
 30
0.0
 11
-577.255081
 21
-101.068699
 31
0.0
  0
ARC
  5
224
100
AcDbEntity
  8
0
370
    -3
  6
Continuous
100
AcDbCircle
 10
-576.613141
 20
-112.082778
 30
0.0
 40
2.0
100
AcDbArc
 50
154.971001
 51
270.0
  0
LINE
  5
225
100
AcDbEntity
  8
0
370
    -3
  6
Continuous
100
AcDbLine
 10
-576.613141
 20
-114.082778
 30
0.0
 11
-574.360202
 21
-114.082778
 31
0.0
  0
ARC
  5
226
100
AcDbEntity
  8
0
370
    -3
  6
Continuous
100
AcDbCircle
 10
-585.10089
 20
-112.082778
 30
0.0
 40
2.0
100
AcDbArc
 50
270.0
 51
344.816886
  0
ARC
  5
227
100
AcDbEntity
  8
0
370
    -3
  6
Continuous
100
AcDbCircle
 10
-564.833922
 20
-117.582778
 30
0.0
 40
15.0
100
AcDbArc
 50
140.252247
 51
154.971001
  0
ARC
  5
228
100
AcDbEntity
  8
0
370
    -3
  6
Continuous
100
AcDbCircle
 10
-587.166634
 20
-112.082778
 30
0.0
 40
2.0
100
AcDbArc
 50
166.164776
 51
270.0
  0
ARC
  5
229
100
AcDbEntity
  8
0
370
    -3
  6
Continuous
100
AcDbCircle
 10
-564.833922
 20
-117.582778
 30
0.0
 40
9.0
100
AcDbArc
 50
144.14774
 51
150.0
  0
ARC
  5
22A
100
AcDbEntity
  8
0
370
    -3
  6
Continuous
100
AcDbCircle
 10
-595.342118
 20
-112.082778
 30
0.0
 40
2.0
100
AcDbArc
 50
270.0
 51
349.78052
  0
LINE
  5
22B
100
AcDbEntity
  8
0
370
    -3
  6
Continuous
100
AcDbLine
 10
-573.097141
 20
-108.270463
 30
0.0
 11
-572.017701
 21
-110.140108
 31
0.0
  0
ARC
  5
22C
100
AcDbEntity
  8
0
370
    -3
  6
Continuous
100
AcDbCircle
 10
-597.372361
 20
-112.082778
 30
0.0
 40
2.0
100
AcDbArc
 50
170.405932
 51
270.0
  0
ARC
  5
22D
100
AcDbEntity
  8
0
370
    -3
  6
Continuous
100
AcDbCircle
 10
-564.833922
 20
-117.582778
 30
0.0
 40
35.0
100
AcDbArc
 50
247.83748
 51
290.405932
  0
ARC
  5
22E
100
AcDbEntity
  8
0
370
    -3
  6
Continuous
100
AcDbCircle
 10
-605.463345
 20
-112.082778
 30
0.0
 40
2.0
100
AcDbArc
 50
270.0
 51
352.29074
  0
LINE
  5
22F
100
AcDbEntity
  8
0
370
    -3
  6
Continuous
100
AcDbLine
 10
-551.595792
 20
-147.511892
 30
0.0
 11
-552.610913
 21
-145.75365
 31
0.0
  0
ARC
  5
230
100
AcDbEntity
  8
0
370
    -3
  6
Continuous
100
AcDbCircle
 10
-607.480727
 20
-112.082778
 30
0.0
 40
2.0
100
AcDbArc
 50
172.651339
 51
270.0
  0
LINE
  5
231
100
AcDbEntity
  8
0
370
    -3
  6
Continuous
100
AcDbLine
 10
-546.541608
 20
-156.265994
 30
0.0
 11
-547.5503
 21
-154.51889
 31
0.0
  0
ARC
  5
232
100
AcDbEntity
  8
0
370
    -3
  6
Continuous
100
AcDbCircle
 10
-615.536486
 20
-112.082778
 30
0.0
 40
2.0
100
AcDbArc
 50
270.0
 51
353.809003
  0
ARC
  5
233
100
AcDbEntity
  8
0
370
    -3
  6
Continuous
100
AcDbCircle
 10
-564.833922
 20
-117.582778
 30
0.0
 40
39.0
100
AcDbArc
 50
246.301256
 51
292.29074
  0
ARC
  5
234
100
AcDbEntity
  8
0
370
    -3
  6
Continuous
100
AcDbCircle
 10
-617.547772
 20
-112.082778
 30
0.0
 40
2.0
100
AcDbArc
 50
174.043488
 51
270.0
  0
ARC
  5
235
100
AcDbEntity
  8
0
370
    -3
  6
Continuous
100
AcDbCircle
 10
-564.833922
 20
-117.582778
 30
0.0
 40
45.0
100
AcDbArc
 50
246.007069
 51
292.651339
  0
ARC
  5
236
100
AcDbEntity
  8
0
370
    -3
  6
Continuous
100
AcDbCircle
 10
-595.135345
 20
-74.099174
 30
0.0
 40
2.0
100
AcDbArc
 50
30.0
 51
124.8706
  0
ARC
  5
237
100
AcDbEntity
  8
0
370
    -3
  6
Continuous
100
AcDbCircle
 10
-564.833922
 20
-117.582778
 30
0.0
 40
55.0
100
AcDbArc
 50
244.8706
 51
294.043488
  0
ARC
  5
238
100
AcDbEntity
  8
0
370
    -3
  6
Continuous
100
AcDbCircle
 10
-594.131578
 20
-75.83775
 30
0.0
 40
2.0
100
AcDbArc
 50
305.062093
 51
30.0
  0
LINE
  5
239
100
AcDbEntity
  8
0
370
    -3
  6
Continuous
100
AcDbLine
 10
-541.508086
 20
-164.984311
 30
0.0
 11
-542.513729
 21
-163.242486
 31
0.0
  0
ARC
  5
23A
100
AcDbEntity
  8
0
370
    -3
  6
Continuous
100
AcDbCircle
 10
-590.11298
 20
-82.798166
 30
0.0
 40
2.0
100
AcDbArc
 50
30.0
 51
126.007069
  0
ARC
  5
23B
100
AcDbEntity
  8
0
370
    -3
  6
Continuous
100
AcDbCircle
 10
-564.833922
 20
-117.582778
 30
0.0
 40
49.0
100
AcDbArc
 50
245.062093
 51
293.809003
  0
ARC
  5
23C
100
AcDbEntity
  8
0
370
    -3
  6
Continuous
100
AcDbCircle
 10
-589.107187
 20
-84.54025
 30
0.0
 40
2.0
100
AcDbArc
 50
306.301256
 51
30.0
  0
ARC
  5
23D
100
AcDbEntity
  8
0
370
    -3
  6
Continuous
100
AcDbCircle
 10
-564.833922
 20
-117.582778
 30
0.0
 40
29.0
100
AcDbArc
 50
248.346619
 51
289.78052
  0
ARC
  5
23E
100
AcDbEntity
  8
0
370
    -3
  6
Continuous
100
AcDbCircle
 10
-585.076908
 20
-91.520899
 30
0.0
 40
2.0
100
AcDbArc
 50
30.0
 51
127.83748
  0
LINE
  5
23F
100
AcDbEntity
  8
0
370
    -3
  6
Continuous
100
AcDbLine
 10
-556.698655
 20
-138.673473
 30
0.0
 11
-557.731527
 21
-136.884487
 31
0.0
  0
ARC
  5
240
100
AcDbEntity
  8
0
370
    -3
  6
Continuous
100
AcDbCircle
 10
-584.066861
 20
-93.270351
 30
0.0
 40
2.0
100
AcDbArc
 50
308.346619
 51
30.0
  0
ARC
  5
241
100
AcDbEntity
  8
0
370
    -3
  6
Continuous
100
AcDbCircle
 10
-564.833922
 20
-117.582778
 30
0.0
 40
25.0
100
AcDbArc
 50
251.282824
 51
286.164776
  0
ARC
  5
242
100
AcDbEntity
  8
0
370
    -3
  6
Continuous
100
AcDbCircle
 10
-580.00878
 20
-100.299153
 30
0.0
 40
2.0
100
AcDbArc
 50
30.0
 51
131.282824
  0
ARC
  5
243
100
AcDbEntity
  8
0
370
    -3
  6
Continuous
100
AcDbCircle
 10
-564.833922
 20
-117.582778
 30
0.0
 40
19.0
100
AcDbArc
 50
252.373625
 51
284.816886
  0
ARC
  5
244
100
AcDbEntity
  8
0
370
    -3
  6
Continuous
100
AcDbCircle
 10
-578.987132
 20
-102.068699
 30
0.0
 40
2.0
100
AcDbArc
 50
312.373625
 51
30.0
  0
LINE
  5
245
100
AcDbEntity
  8
0
370
    -3
  6
Continuous
100
AcDbLine
 10
-561.975402
 20
-129.533881
 30
0.0
 11
-563.101871
 21
-127.582778
 31
0.0
  0
ARC
  5
246
100
AcDbEntity
  8
0
370
    -3
  6
Continuous
100
AcDbCircle
 10
-574.829192
 20
-109.270463
 30
0.0
 40
2.0
100
AcDbArc
 50
30.0
 51
140.252247
  0
ARC
  5
247
100
AcDbEntity
  8
0
370
    -3
  6
Continuous
100
AcDbCircle
 10
-564.833922
 20
-117.582778
 30
0.0
 40
15.0
100
AcDbArc
 50
260.252247
 51
274.971001
  0
ARC
  5
248
100
AcDbEntity
  8
0
370
    -3
  6
Continuous
100
AcDbCircle
 10
-564.833922
 20
-117.582778
 30
0.0
 40
9.0
100
AcDbArc
 50
264.14774
 51
270.0
  0
ARC
  5
249
100
AcDbEntity
  8
0
370
    -3
  6
Continuous
100
AcDbCircle
 10
-573.749751
 20
-111.140108
 30
0.0
 40
2.0
100
AcDbArc
 50
324.14774
 51
30.0
  0
LINE
  5
24A
100
AcDbEntity
  8
0
370
    -3
  6
Continuous
100
AcDbLine
 10
-568.767014
 20
-129.395093
 30
0.0
 11
-567.687574
 21
-127.525447
 31
0.0
  0
ARC
  5
24B
100
AcDbEntity
  8
0
370
    -3
  6
Continuous
100
AcDbCircle
 10
-565.955523
 20
-106.640108
 30
0.0
 40
2.0
100
AcDbArc
 50
210.0
 51
275.85226
  0
LINE
  5
24C
100
AcDbEntity
  8
0
370
    -3
  6
Continuous
100
AcDbLine
 10
-573.946602
 20
-138.366403
 30
0.0
 11
-572.924954
 21
-136.596857
 31
0.0
  0
ARC
  5
24D
100
AcDbEntity
  8
0
370
    -3
  6
Continuous
100
AcDbCircle
 10
-567.034963
 20
-104.770463
 30
0.0
 40
2.0
100
AcDbArc
 50
99.747753
 51
210.0
  0
LINE
  5
24E
100
AcDbEntity
  8
0
370
    -3
  6
Continuous
100
AcDbLine
 10
-579.01473
 20
-147.144657
 30
0.0
 11
-578.004683
 21
-145.395204
 31
0.0
  0
ARC
  5
24F
100
AcDbEntity
  8
0
370
    -3
  6
Continuous
100
AcDbCircle
 10
-571.192904
 20
-97.568699
 30
0.0
 40
2.0
100
AcDbArc
 50
210.0
 51
287.626375
  0
LINE
  5
250
100
AcDbEntity
  8
0
370
    -3
  6
Continuous
100
AcDbLine
 10
-584.050802
 20
-155.86739
 30
0.0
 11
-583.045009
 21
-154.125305
 31
0.0
  0
LINE
  5
251
100
AcDbEntity
  8
0
370
    -3
  6
Continuous
100
AcDbLine
 10
-589.073167
 20
-164.566381
 30
0.0
 11
-588.0694
 21
-162.827806
 31
0.0
  0
ARC
  5
252
100
AcDbEntity
  8
0
370
    -3
  6
Continuous
100
AcDbCircle
 10
-564.833922
 20
-117.582778
 30
0.0
 40
35.0
100
AcDbArc
 50
69.594068
 51
112.16252
  0
LINE
  5
253
100
AcDbEntity
  8
0
370
    -3
  6
Continuous
100
AcDbLine
 10
-551.595792
 20
-87.653663
 30
0.0
 11
-552.610913
 21
-89.411905
 31
0.0
  0
LINE
  5
254
100
AcDbEntity
  8
0
370
    -3
  6
Continuous
100
AcDbLine
 10
-546.541608
 20
-78.899561
 30
0.0
 11
-547.5503
 21
-80.646665
 31
0.0
  0
ARC
  5
255
100
AcDbEntity
  8
0
370
    -3
  6
Continuous
100
AcDbCircle
 10
-564.833922
 20
-117.582778
 30
0.0
 40
39.0
100
AcDbArc
 50
67.70926
 51
113.698744
  0
ARC
  5
256
100
AcDbEntity
  8
0
370
    -3
  6
Continuous
100
AcDbCircle
 10
-564.833922
 20
-117.582778
 30
0.0
 40
45.0
100
AcDbArc
 50
67.348661
 51
113.992931
  0
ARC
  5
257
100
AcDbEntity
  8
0
370
    -3
  6
Continuous
100
AcDbCircle
 10
-564.833922
 20
-117.582778
 30
0.0
 40
55.0
100
AcDbArc
 50
65.956512
 51
115.1294
  0
LINE
  5
258
100
AcDbEntity
  8
0
370
    -3
  6
Continuous
100
AcDbLine
 10
-541.508086
 20
-70.181244
 30
0.0
 11
-542.513729
 21
-71.923069
 31
0.0
  0
ARC
  5
259
100
AcDbEntity
  8
0
370
    -3
  6
Continuous
100
AcDbCircle
 10
-564.833922
 20
-117.582778
 30
0.0
 40
49.0
100
AcDbArc
 50
66.190997
 51
114.937907
  0
ARC
  5
25A
100
AcDbEntity
  8
0
370
    -3
  6
Continuous
100
AcDbCircle
 10
-564.833922
 20
-117.582778
 30
0.0
 40
29.0
100
AcDbArc
 50
70.21948
 51
111.653381
  0
LINE
  5
25B
100
AcDbEntity
  8
0
370
    -3
  6
Continuous
100
AcDbLine
 10
-556.698655
 20
-96.492082
 30
0.0
 11
-557.731527
 21
-98.281068
 31
0.0
  0
ARC
  5
25C
100
AcDbEntity
  8
0
370
    -3
  6
Continuous
100
AcDbCircle
 10
-564.833922
 20
-117.582778
 30
0.0
 40
25.0
100
AcDbArc
 50
73.835224
 51
108.717176
  0
ARC
  5
25D
100
AcDbEntity
  8
0
370
    -3
  6
Continuous
100
AcDbCircle
 10
-564.833922
 20
-117.582778
 30
0.0
 40
19.0
100
AcDbArc
 50
75.183114
 51
107.626375
  0
LINE
  5
25E
100
AcDbEntity
  8
0
370
    -3
  6
Continuous
100
AcDbLine
 10
-561.975402
 20
-105.631675
 30
0.0
 11
-563.101871
 21
-107.582778
 31
0.0
  0
ARC
  5
25F
100
AcDbEntity
  8
0
370
    -3
  6
Continuous
100
AcDbCircle
 10
-564.833922
 20
-117.582778
 30
0.0
 40
15.0
100
AcDbArc
 50
85.028999
 51
99.747753
  0
ARC
  5
260
100
AcDbEntity
  8
0
370
    -3
  6
Continuous
100
AcDbCircle
 10
-564.833922
 20
-117.582778
 30
0.0
 40
9.0
100
AcDbArc
 50
90.0
 51
95.85226
  0
LINE
  5
261
100
AcDbEntity
  8
0
370
    -3
  6
Continuous
100
AcDbLine
 10
-568.767014
 20
-105.770463
 30
0.0
 11
-567.687574
 21
-107.640108
 31
0.0
  0
LINE
  5
262
100
AcDbEntity
  8
0
370
    -3
  6
Continuous
100
AcDbLine
 10
-573.946602
 20
-96.799153
 30
0.0
 11
-572.924954
 21
-98.568699
 31
0.0
  0
LINE
  5
263
100
AcDbEntity
  8
0
370
    -3
  6
Continuous
100
AcDbLine
 10
-579.01473
 20
-88.020899
 30
0.0
 11
-578.004683
 21
-89.770351
 31
0.0
  0
LINE
  5
264
100
AcDbEntity
  8
0
370
    -3
  6
Continuous
100
AcDbLine
 10
-584.050802
 20
-79.298166
 30
0.0
 11
-583.045009
 21
-81.04025
 31
0.0
  0
LINE
  5
265
100
AcDbEntity
  8
0
370
    -3
  6
Continuous
100
AcDbLine
 10
-589.073167
 20
-70.599174
 30
0.0
 11
-588.0694
 21
-72.33775
 31
0.0
  0
ARC
  5
266
100
AcDbEntity
  8
0
370
    -3
  6
Continuous
100
AcDbCircle
 10
-588.117108
 20
-98.664711
 30
0.0
 40
50.8
100
AcDbArc
 50
140.905432
 51
175.66015
  0
ARC
  5
267
100
AcDbEntity
  8
0
370
    -3
  6
Continuous
100
AcDbCircle
 10
-583.751989
 20
-94.299592
 30
0.0
 40
50.8
100
AcDbArc
 50
94.33985
 51
129.094568
  0
ARC
  5
268
100
AcDbEntity
  8
0
370
    -3
  6
Continuous
100
AcDbCircle
 10
-564.833922
 20
-343.582778
 30
0.0
 40
300.8
100
AcDbArc
 50
85.66015
 51
94.33985
  0
ARC
  5
269
100
AcDbEntity
  8
0
370
    -3
  6
Continuous
100
AcDbCircle
 10
-338.833922
 20
-117.582778
 30
0.0
 40
300.8
100
AcDbArc
 50
175.66015
 51
184.33985
  0
ARC
  5
26A
100
AcDbEntity
  8
0
370
    -3
  6
Continuous
100
AcDbCircle
 10
-338.833922
 20
-117.582778
 30
0.0
 40
286.944
100
AcDbArc
 50
175.66015
 51
184.33985
  0
ARC
  5
26B
100
AcDbEntity
  8
0
370
    -3
  6
Continuous
100
AcDbCircle
 10
-583.751989
 20
-140.865964
 30
0.0
 40
36.944
100
AcDbArc
 50
230.905432
 51
265.66015
  0
ARC
  5
26C
100
AcDbEntity
  8
0
370
    -3
  6
Continuous
100
AcDbCircle
 10
-572.214551
 20
-95.799153
 30
0.0
 40
2.0
100
AcDbArc
 50
108.717176
 51
210.0
  0
ARC
  5
26D
100
AcDbEntity
  8
0
370
    -3
  6
Continuous
100
AcDbCircle
 10
-564.833922
 20
108.417222
 30
0.0
 40
286.944
100
AcDbArc
 50
265.66015
 51
274.33985
  0
ARC
  5
26E
100
AcDbEntity
  8
0
370
    -3
  6
Continuous
100
AcDbCircle
 10
-576.272632
 20
-88.770351
 30
0.0
 40
2.0
100
AcDbArc
 50
210.0
 51
291.653381
  0
ARC
  5
26F
100
AcDbEntity
  8
0
370
    -3
  6
Continuous
100
AcDbCircle
 10
-577.282679
 20
-87.020899
 30
0.0
 40
2.0
100
AcDbArc
 50
112.16252
 51
210.0
  0
ARC
  5
270
100
AcDbEntity
  8
0
370
    -3
  6
Continuous
100
AcDbCircle
 10
-541.550736
 20
-136.500845
 30
0.0
 40
36.944
100
AcDbArc
 50
320.905432
 51
355.66015
  0
ARC
  5
271
100
AcDbEntity
  8
0
370
    -3
  6
Continuous
100
AcDbCircle
 10
-581.312958
 20
-80.04025
 30
0.0
 40
2.0
100
AcDbArc
 50
210.0
 51
293.698744
  0
LINE
  5
272
100
AcDbEntity
  8
0
370
    -3
  6
CENTER
100
AcDbLine
 10
-481.253209
 20
-117.582778
 30
0.0
 11
-644.891474
 21
-117.582778
 31
0.0
  0
ARC
  5
273
100
AcDbEntity
  8
0
370
    -3
  6
Continuous
100
AcDbCircle
 10
-790.833922
 20
-117.582778
 30
0.0
 40
286.944
100
AcDbArc
 50
355.66015
 51
4.33985
  0
ARC
  5
274
100
AcDbEntity
  8
0
370
    -3
  6
Continuous
100
AcDbCircle
 10
-582.318751
 20
-78.298166
 30
0.0
 40
2.0
100
AcDbArc
 50
113.992931
 51
210.0
  0
LINE
  5
275
100
AcDbEntity
  8
0
370
    -3
  6
CENTER
100
AcDbLine
 10
-564.833922
 20
22.57809
 30
0.0
 11
-564.833922
 21
-202.10493
 31
0.0
  0
ARC
  5
276
100
AcDbEntity
  8
0
370
    -3
  6
Continuous
100
AcDbCircle
 10
-586.337349
 20
-71.33775
 30
0.0
 40
2.0
100
AcDbArc
 50
210.0
 51
294.937907
  0
ARC
  5
277
100
AcDbEntity
  8
0
370
    -3
  6
Continuous
100
AcDbCircle
 10
-587.341116
 20
-69.599174
 30
0.0
 40
2.0
100
AcDbArc
 50
115.1294
 51
210.0
  0
ARC
  5
278
100
AcDbEntity
  8
0
370
    -3
  6
Continuous
100
AcDbCircle
 10
-543.240137
 20
-69.181244
 30
0.0
 40
2.0
100
AcDbArc
 50
330.0
 51
65.956512
  0
ARC
  5
279
100
AcDbEntity
  8
0
370
    -3
  6
Continuous
100
AcDbCircle
 10
-564.833922
 20
-343.582778
 30
0.0
 40
286.944
100
AcDbArc
 50
85.66015
 51
94.33985
  0
ARC
  5
27A
100
AcDbEntity
  8
0
370
    -3
  6
Continuous
100
AcDbCircle
 10
-544.24578
 20
-70.923069
 30
0.0
 40
2.0
100
AcDbArc
 50
246.190997
 51
330.0
  0
ARC
  5
27B
100
AcDbEntity
  8
0
370
    -3
  6
Continuous
100
AcDbCircle
 10
-583.751989
 20
-94.299592
 30
0.0
 40
36.944
100
AcDbArc
 50
94.33985
 51
129.094568
  0
ARC
  5
27C
100
AcDbEntity
  8
0
370
    -3
  6
Continuous
100
AcDbCircle
 10
-548.273659
 20
-77.899561
 30
0.0
 40
2.0
100
AcDbArc
 50
330.0
 51
67.348661
  0
ARC
  5
27D
100
AcDbEntity
  8
0
370
    -3
  6
Continuous
100
AcDbCircle
 10
-564.833922
 20
-117.582778
 30
0.0
 40
66.944
100
AcDbArc
 50
129.094568
 51
140.905432
  0
ARC
  5
27E
100
AcDbEntity
  8
0
370
    -3
  6
Continuous
100
AcDbCircle
 10
-549.28235
 20
-79.646665
 30
0.0
 40
2.0
100
AcDbArc
 50
247.70926
 51
330.0
  0
ARC
  5
27F
100
AcDbEntity
  8
0
370
    -3
  6
Continuous
100
AcDbCircle
 10
-588.117108
 20
-98.664711
 30
0.0
 40
36.944
100
AcDbArc
 50
140.905432
 51
175.66015
  0
ARC
  5
280
100
AcDbEntity
  8
0
370
    -3
  6
Continuous
100
AcDbCircle
 10
-553.327842
 20
-86.653663
 30
0.0
 40
2.0
100
AcDbArc
 50
330.0
 51
69.594068
  0
ARC
  5
281
100
AcDbEntity
  8
0
370
    -3
  6
Continuous
100
AcDbCircle
 10
-554.342964
 20
-88.411905
 30
0.0
 40
2.0
100
AcDbArc
 50
250.21948
 51
330.0
  0
ARC
  5
282
100
AcDbEntity
  8
0
370
    -3
  6
Continuous
100
AcDbCircle
 10
-558.430706
 20
-95.492082
 30
0.0
 40
2.0
100
AcDbArc
 50
330.0
 51
73.835224
  0
ARC
  5
283
100
AcDbEntity
  8
0
370
    -3
  6
Continuous
100
AcDbCircle
 10
-559.463578
 20
-97.281068
 30
0.0
 40
2.0
100
AcDbArc
 50
255.183114
 51
330.0
  0
ARC
  5
284
100
AcDbEntity
  8
0
370
    -3
  6
Continuous
100
AcDbCircle
 10
-563.707452
 20
-104.631675
 30
0.0
 40
2.0
100
AcDbArc
 50
330.0
 51
85.028999
  0
ARC
  5
285
100
AcDbEntity
  8
0
370
    -3
  6
Continuous
100
AcDbCircle
 10
-512.120072
 20
-123.082778
 30
0.0
 40
2.0
100
AcDbArc
 50
354.043488
 51
90.0
  0
ARC
  5
286
100
AcDbEntity
  8
0
370
    -3
  6
Continuous
100
AcDbCircle
 10
-564.833922
 20
-106.582778
 30
0.0
 40
2.0
100
AcDbArc
 50
270.0
 51
330.0
  0
ARC
  5
287
100
AcDbEntity
  8
0
370
    -3
  6
Continuous
100
AcDbCircle
 10
-514.131358
 20
-123.082778
 30
0.0
 40
2.0
100
AcDbArc
 50
90.0
 51
173.809003
  0
ARC
  5
288
100
AcDbEntity
  8
0
370
    -3
  6
Continuous
100
AcDbCircle
 10
-555.918093
 20
-111.140108
 30
0.0
 40
2.0
100
AcDbArc
 50
150.0
 51
215.85226
  0
ARC
  5
289
100
AcDbEntity
  8
0
370
    -3
  6
Continuous
100
AcDbCircle
 10
-522.187117
 20
-123.082778
 30
0.0
 40
2.0
100
AcDbArc
 50
352.651339
 51
90.0
  0
ARC
  5
28A
100
AcDbEntity
  8
0
370
    -3
  6
Continuous
100
AcDbCircle
 10
-554.838652
 20
-109.270463
 30
0.0
 40
2.0
100
AcDbArc
 50
39.747753
 51
150.0
  0
ARC
  5
28B
100
AcDbEntity
  8
0
370
    -3
  6
Continuous
100
AcDbCircle
 10
-524.204499
 20
-123.082778
 30
0.0
 40
2.0
100
AcDbArc
 50
90.0
 51
172.29074
  0
ARC
  5
28C
100
AcDbEntity
  8
0
370
    -3
  6
Continuous
100
AcDbCircle
 10
-550.680712
 20
-102.068699
 30
0.0
 40
2.0
100
AcDbArc
 50
150.0
 51
227.626375
  0
ARC
  5
28D
100
AcDbEntity
  8
0
370
    -3
  6
Continuous
100
AcDbCircle
 10
-532.295483
 20
-123.082778
 30
0.0
 40
2.0
100
AcDbArc
 50
350.405932
 51
90.0
  0
ARC
  5
28E
100
AcDbEntity
  8
0
370
    -3
  6
Continuous
100
AcDbCircle
 10
-549.659064
 20
-100.299153
 30
0.0
 40
2.0
100
AcDbArc
 50
48.717176
 51
150.0
  0
ARC
  5
28F
100
AcDbEntity
  8
0
370
    -3
  6
Continuous
100
AcDbCircle
 10
-534.325727
 20
-123.082778
 30
0.0
 40
2.0
100
AcDbArc
 50
90.0
 51
169.78052
  0
ARC
  5
290
100
AcDbEntity
  8
0
370
    -3
  6
Continuous
100
AcDbCircle
 10
-545.600984
 20
-93.270351
 30
0.0
 40
2.0
100
AcDbArc
 50
150.0
 51
231.653381
  0
ARC
  5
291
100
AcDbEntity
  8
0
370
    -3
  6
Continuous
100
AcDbCircle
 10
-542.501211
 20
-123.082778
 30
0.0
 40
2.0
100
AcDbArc
 50
346.164776
 51
90.0
  0
ARC
  5
292
100
AcDbEntity
  8
0
370
    -3
  6
Continuous
100
AcDbCircle
 10
-544.590937
 20
-91.520899
 30
0.0
 40
2.0
100
AcDbArc
 50
52.16252
 51
150.0
  0
ARC
  5
293
100
AcDbEntity
  8
0
370
    -3
  6
Continuous
100
AcDbCircle
 10
-544.566954
 20
-123.082778
 30
0.0
 40
2.0
100
AcDbArc
 50
90.0
 51
164.816886
  0
ARC
  5
294
100
AcDbEntity
  8
0
370
    -3
  6
Continuous
100
AcDbCircle
 10
-540.560658
 20
-84.54025
 30
0.0
 40
2.0
100
AcDbArc
 50
150.0
 51
233.698744
  0
ARC
  5
295
100
AcDbEntity
  8
0
370
    -3
  6
Continuous
100
AcDbCircle
 10
-553.054703
 20
-123.082778
 30
0.0
 40
2.0
100
AcDbArc
 50
334.971001
 51
90.0
  0
ARC
  5
296
100
AcDbEntity
  8
0
370
    -3
  6
Continuous
100
AcDbCircle
 10
-539.554865
 20
-82.798166
 30
0.0
 40
2.0
100
AcDbArc
 50
53.992931
 51
150.0
  0
ARC
  5
297
100
AcDbEntity
  8
0
370
    -3
  6
Continuous
100
AcDbCircle
 10
-555.307643
 20
-123.082778
 30
0.0
 40
2.0
100
AcDbArc
 50
90.0
 51
150.0
  0
ARC
  5
298
100
AcDbEntity
  8
0
370
    -3
  6
Continuous
100
AcDbCircle
 10
-535.536267
 20
-75.83775
 30
0.0
 40
2.0
100
AcDbArc
 50
150.0
 51
234.937907
  0
ARC
  5
299
100
AcDbEntity
  8
0
370
    -3
  6
Continuous
100
AcDbCircle
 10
-555.918093
 20
-124.025447
 30
0.0
 40
2.0
100
AcDbArc
 50
144.14774
 51
210.0
  0
ARC
  5
29A
100
AcDbEntity
  8
0
370
    -3
  6
Continuous
100
AcDbCircle
 10
-534.532499
 20
-74.099174
 30
0.0
 40
2.0
100
AcDbArc
 50
55.1294
 51
150.0
  0
ARC
  5
29B
100
AcDbEntity
  8
0
370
    -3
  6
Continuous
100
AcDbCircle
 10
-554.838652
 20
-125.895093
 30
0.0
 40
2.0
100
AcDbArc
 50
210.0
 51
320.252247
  0
ARC
  5
29C
100
AcDbEntity
  8
0
370
    -3
  6
Continuous
100
AcDbCircle
 10
-555.307643
 20
-112.082778
 30
0.0
 40
2.0
100
AcDbArc
 50
210.0
 51
270.0
  0
ARC
  5
29D
100
AcDbEntity
  8
0
370
    -3
  6
Continuous
100
AcDbCircle
 10
-550.680712
 20
-133.096857
 30
0.0
 40
2.0
100
AcDbArc
 50
132.373625
 51
210.0
  0
ARC
  5
29E
100
AcDbEntity
  8
0
370
    -3
  6
Continuous
100
AcDbCircle
 10
-553.054703
 20
-112.082778
 30
0.0
 40
2.0
100
AcDbArc
 50
270.0
 51
25.028999
  0
ARC
  5
29F
100
AcDbEntity
  8
0
370
    -3
  6
Continuous
100
AcDbCircle
 10
-549.659064
 20
-134.866403
 30
0.0
 40
2.0
100
AcDbArc
 50
210.0
 51
311.282824
  0
ARC
  5
2A0
100
AcDbEntity
  8
0
370
    -3
  6
Continuous
100
AcDbCircle
 10
-544.566954
 20
-112.082778
 30
0.0
 40
2.0
100
AcDbArc
 50
195.183114
 51
270.0
  0
ARC
  5
2A1
100
AcDbEntity
  8
0
370
    -3
  6
Continuous
100
AcDbCircle
 10
-545.600984
 20
-141.895204
 30
0.0
 40
2.0
100
AcDbArc
 50
128.346619
 51
210.0
  0
ARC
  5
2A2
100
AcDbEntity
  8
0
370
    -3
  6
Continuous
100
AcDbCircle
 10
-542.501211
 20
-112.082778
 30
0.0
 40
2.0
100
AcDbArc
 50
270.0
 51
13.835224
  0
ARC
  5
2A3
100
AcDbEntity
  8
0
370
    -3
  6
Continuous
100
AcDbCircle
 10
-544.590937
 20
-143.644657
 30
0.0
 40
2.0
100
AcDbArc
 50
210.0
 51
307.83748
  0
ARC
  5
2A4
100
AcDbEntity
  8
0
370
    -3
  6
Continuous
100
AcDbCircle
 10
-534.325727
 20
-112.082778
 30
0.0
 40
2.0
100
AcDbArc
 50
190.21948
 51
270.0
  0
ARC
  5
2A5
100
AcDbEntity
  8
0
370
    -3
  6
Continuous
100
AcDbCircle
 10
-540.560658
 20
-150.625305
 30
0.0
 40
2.0
100
AcDbArc
 50
126.301256
 51
210.0
  0
ARC
  5
2A6
100
AcDbEntity
  8
0
370
    -3
  6
Continuous
100
AcDbCircle
 10
-532.295483
 20
-112.082778
 30
0.0
 40
2.0
100
AcDbArc
 50
270.0
 51
9.594068
  0
ARC
  5
2A7
100
AcDbEntity
  8
0
370
    -3
  6
Continuous
100
AcDbCircle
 10
-539.554865
 20
-152.36739
 30
0.0
 40
2.0
100
AcDbArc
 50
210.0
 51
306.007069
  0
ARC
  5
2A8
100
AcDbEntity
  8
0
370
    -3
  6
Continuous
100
AcDbCircle
 10
-524.204499
 20
-112.082778
 30
0.0
 40
2.0
100
AcDbArc
 50
187.70926
 51
270.0
  0
ARC
  5
2A9
100
AcDbEntity
  8
0
370
    -3
  6
Continuous
100
AcDbCircle
 10
-535.536267
 20
-159.327806
 30
0.0
 40
2.0
100
AcDbArc
 50
125.062093
 51
210.0
  0
ARC
  5
2AA
100
AcDbEntity
  8
0
370
    -3
  6
Continuous
100
AcDbCircle
 10
-522.187117
 20
-112.082778
 30
0.0
 40
2.0
100
AcDbArc
 50
270.0
 51
7.348661
  0
ARC
  5
2AB
100
AcDbEntity
  8
0
370
    -3
  6
Continuous
100
AcDbCircle
 10
-534.532499
 20
-161.066381
 30
0.0
 40
2.0
100
AcDbArc
 50
210.0
 51
304.8706
  0
ARC
  5
2AC
100
AcDbEntity
  8
0
370
    -3
  6
Continuous
100
AcDbCircle
 10
-514.131358
 20
-112.082778
 30
0.0
 40
2.0
100
AcDbArc
 50
186.190997
 51
270.0
  0
ARC
  5
2AD
100
AcDbEntity
  8
0
370
    -3
  6
Continuous
100
AcDbCircle
 10
-543.240137
 20
-165.984311
 30
0.0
 40
2.0
100
AcDbArc
 50
294.043488
 51
30.0
  0
ARC
  5
2AE
100
AcDbEntity
  8
0
370
    -3
  6
Continuous
100
AcDbCircle
 10
-544.24578
 20
-164.242486
 30
0.0
 40
2.0
100
AcDbArc
 50
30.0
 51
113.809003
  0
ARC
  5
2AF
100
AcDbEntity
  8
0
370
    -3
  6
Continuous
100
AcDbCircle
 10
-548.273659
 20
-157.265994
 30
0.0
 40
2.0
100
AcDbArc
 50
292.651339
 51
30.0
  0
ARC
  5
2B0
100
AcDbEntity
  8
0
370
    -3
  6
Continuous
100
AcDbCircle
 10
-549.28235
 20
-155.51889
 30
0.0
 40
2.0
100
AcDbArc
 50
30.0
 51
112.29074
  0
ARC
  5
2B1
100
AcDbEntity
  8
0
370
    -3
  6
Continuous
100
AcDbCircle
 10
-553.327842
 20
-148.511892
 30
0.0
 40
2.0
100
AcDbArc
 50
290.405932
 51
30.0
  0
ARC
  5
2B2
100
AcDbEntity
  8
0
370
    -3
  6
Continuous
100
AcDbCircle
 10
-554.342964
 20
-146.75365
 30
0.0
 40
2.0
100
AcDbArc
 50
30.0
 51
109.78052
  0
ARC
  5
2B3
100
AcDbEntity
  8
0
370
    -3
  6
Continuous
100
AcDbCircle
 10
-558.430706
 20
-139.673473
 30
0.0
 40
2.0
100
AcDbArc
 50
286.164776
 51
30.0
  0
ARC
  5
2B4
100
AcDbEntity
  8
0
370
    -3
  6
Continuous
100
AcDbCircle
 10
-559.463578
 20
-137.884487
 30
0.0
 40
2.0
100
AcDbArc
 50
30.0
 51
104.816886
  0
ARC
  5
2B5
100
AcDbEntity
  8
0
370
    -3
  6
Continuous
100
AcDbCircle
 10
-563.707452
 20
-130.533881
 30
0.0
 40
2.0
100
AcDbArc
 50
274.971001
 51
30.0
  0
ARC
  5
2B6
100
AcDbEntity
  8
0
370
    -3
  6
Continuous
100
AcDbCircle
 10
-564.833922
 20
-128.582778
 30
0.0
 40
2.0
100
AcDbArc
 50
30.0
 51
90.0
  0
ARC
  5
2B7
100
AcDbEntity
  8
0
370
    -3
  6
Continuous
100
AcDbCircle
 10
-565.955523
 20
-128.525447
 30
0.0
 40
2.0
100
AcDbArc
 50
84.14774
 51
150.0
  0
ARC
  5
2B8
100
AcDbEntity
  8
0
370
    -3
  6
Continuous
100
AcDbCircle
 10
-567.034963
 20
-130.395093
 30
0.0
 40
2.0
100
AcDbArc
 50
150.0
 51
260.252247
  0
ARC
  5
2B9
100
AcDbEntity
  8
0
370
    -3
  6
Continuous
100
AcDbCircle
 10
-571.192904
 20
-137.596857
 30
0.0
 40
2.0
100
AcDbArc
 50
72.373625
 51
150.0
  0
ARC
  5
2BA
100
AcDbEntity
  8
0
370
    -3
  6
Continuous
100
AcDbCircle
 10
-572.214551
 20
-139.366403
 30
0.0
 40
2.0
100
AcDbArc
 50
150.0
 51
251.282824
  0
ARC
  5
2BB
100
AcDbEntity
  8
0
370
    -3
  6
Continuous
100
AcDbCircle
 10
-576.272632
 20
-146.395204
 30
0.0
 40
2.0
100
AcDbArc
 50
68.346619
 51
150.0
  0
ARC
  5
2BC
100
AcDbEntity
  8
0
370
    -3
  6
Continuous
100
AcDbCircle
 10
-577.282679
 20
-148.144657
 30
0.0
 40
2.0
100
AcDbArc
 50
150.0
 51
247.83748
  0
ARC
  5
2BD
100
AcDbEntity
  8
0
370
    -3
  6
Continuous
100
AcDbCircle
 10
-581.312958
 20
-155.125305
 30
0.0
 40
2.0
100
AcDbArc
 50
66.301256
 51
150.0
  0
ARC
  5
2BE
100
AcDbEntity
  8
0
370
    -3
  6
Continuous
100
AcDbCircle
 10
-582.318751
 20
-156.86739
 30
0.0
 40
2.0
100
AcDbArc
 50
150.0
 51
246.007069
  0
ARC
  5
2BF
100
AcDbEntity
  8
0
370
    -3
  6
Continuous
100
AcDbCircle
 10
-586.337349
 20
-163.827806
 30
0.0
 40
2.0
100
AcDbArc
 50
65.062093
 51
150.0
  0
ARC
  5
2C0
100
AcDbEntity
  8
0
370
    -3
  6
Continuous
100
AcDbCircle
 10
-587.341116
 20
-165.566381
 30
0.0
 40
2.0
100
AcDbArc
 50
150.0
 51
244.8706
  0
ARC
  5
2C1
100
AcDbEntity
  8
0
370
    -3
  6
Continuous
100
AcDbCircle
 10
-573.749751
 20
-124.025447
 30
0.0
 40
2.0
100
AcDbArc
 50
330.0
 51
35.85226
  0
ARC
  5
2C2
100
AcDbEntity
  8
0
370
    -3
  6
Continuous
100
AcDbCircle
 10
-574.829192
 20
-125.895093
 30
0.0
 40
2.0
100
AcDbArc
 50
219.747753
 51
330.0
  0
ARC
  5
2C3
100
AcDbEntity
  8
0
370
    -3
  6
Continuous
100
AcDbCircle
 10
-578.987132
 20
-133.096857
 30
0.0
 40
2.0
100
AcDbArc
 50
330.0
 51
47.626375
  0
ARC
  5
2C4
100
AcDbEntity
  8
0
370
    -3
  6
Continuous
100
AcDbCircle
 10
-580.00878
 20
-134.866403
 30
0.0
 40
2.0
100
AcDbArc
 50
228.717176
 51
330.0
  0
ARC
  5
2C5
100
AcDbEntity
  8
0
370
    -3
  6
Continuous
100
AcDbCircle
 10
-584.066861
 20
-141.895204
 30
0.0
 40
2.0
100
AcDbArc
 50
330.0
 51
51.653381
  0
ARC
  5
2C6
100
AcDbEntity
  8
0
370
    -3
  6
Continuous
100
AcDbCircle
 10
-585.076908
 20
-143.644657
 30
0.0
 40
2.0
100
AcDbArc
 50
232.16252
 51
330.0
  0
ARC
  5
2C7
100
AcDbEntity
  8
0
370
    -3
  6
Continuous
100
AcDbCircle
 10
-589.107187
 20
-150.625305
 30
0.0
 40
2.0
100
AcDbArc
 50
330.0
 51
53.698744
  0
ARC
  5
2C8
100
AcDbEntity
  8
0
370
    -3
  6
Continuous
100
AcDbCircle
 10
-590.11298
 20
-152.36739
 30
0.0
 40
2.0
100
AcDbArc
 50
233.992931
 51
330.0
  0
ARC
  5
2C9
100
AcDbEntity
  8
0
370
    -3
  6
Continuous
100
AcDbCircle
 10
-594.131578
 20
-159.327806
 30
0.0
 40
2.0
100
AcDbArc
 50
330.0
 51
54.937907
  0
ARC
  5
2CA
100
AcDbEntity
  8
0
370
    -3
  6
Continuous
100
AcDbCircle
 10
-595.135345
 20
-161.066381
 30
0.0
 40
2.0
100
AcDbArc
 50
235.1294
 51
330.0
  0
ARC
  5
2CB
100
AcDbEntity
  8
0
370
    -3
  6
Continuous
100
AcDbCircle
 10
-617.547772
 20
-123.082778
 30
0.0
 40
2.0
100
AcDbArc
 50
90.0
 51
185.956512
  0
ARC
  5
2CC
100
AcDbEntity
  8
0
370
    -3
  6
Continuous
100
AcDbCircle
 10
-615.536486
 20
-123.082778
 30
0.0
 40
2.0
100
AcDbArc
 50
6.190997
 51
90.0
  0
ARC
  5
2CD
100
AcDbEntity
  8
0
370
    -3
  6
Continuous
100
AcDbCircle
 10
-607.480727
 20
-123.082778
 30
0.0
 40
2.0
100
AcDbArc
 50
90.0
 51
187.348661
  0
ARC
  5
2CE
100
AcDbEntity
  8
0
370
    -3
  6
Continuous
100
AcDbCircle
 10
-605.463345
 20
-123.082778
 30
0.0
 40
2.0
100
AcDbArc
 50
7.70926
 51
90.0
  0
ARC
  5
2CF
100
AcDbEntity
  8
0
370
    -3
  6
Continuous
100
AcDbCircle
 10
-790.833922
 20
-117.582778
 30
0.0
 40
300.8
100
AcDbArc
 50
355.66015
 51
4.33985
  0
ARC
  5
2D0
100
AcDbEntity
  8
0
370
    -3
  6
Continuous
100
AcDbCircle
 10
-512.120072
 20
-112.082778
 30
0.0
 40
2.0
100
AcDbArc
 50
270.0
 51
5.956512
  0
CIRCLE
  5
2D1
100
AcDbEntity
  8
0
370
    -3
  6
Continuous
100
AcDbCircle
 10
-564.833922
 20
-117.582778
 30
0.0
 40
5.0
  0
LINE
  5
2D2
100
AcDbEntity
  8
0
370
    -3
  6
Continuous
100
AcDbLine
 10
-512.120072
 20
-114.082778
 30
0.0
 11
-514.131358
 21
-114.082778
 31
0.0
  0
LINE
  5
2D3
100
AcDbEntity
  8
0
370
    -3
  6
Continuous
100
AcDbLine
 10
-536.26455
 20
-73.099174
 30
0.0
 11
-537.268317
 21
-74.83775
 31
0.0
  0
ARC
  5
2D4
100
AcDbEntity
  8
0
370
    -3
  6
Continuous
100
AcDbCircle
 10
-564.833922
 20
-117.582778
 30
0.0
 40
55.0
100
AcDbArc
 50
5.956512
 51
55.1294
  0
ARC
  5
2D5
100
AcDbEntity
  8
0
370
    -3
  6
Continuous
100
AcDbCircle
 10
-564.833922
 20
-117.582778
 30
0.0
 40
49.0
100
AcDbArc
 50
6.190997
 51
54.937907
  0
ARC
  5
2D6
100
AcDbEntity
  8
0
370
    -3
  6
Continuous
100
AcDbCircle
 10
-564.833922
 20
-117.582778
 30
0.0
 40
45.0
100
AcDbArc
 50
7.348661
 51
53.992931
  0
ARC
  5
2D7
100
AcDbEntity
  8
0
370
    -3
  6
Continuous
100
AcDbCircle
 10
-564.833922
 20
-117.582778
 30
0.0
 40
39.0
100
AcDbArc
 50
7.70926
 51
53.698744
  0
ARC
  5
2D8
100
AcDbEntity
  8
0
370
    -3
  6
Continuous
100
AcDbCircle
 10
-564.833922
 20
-117.582778
 30
0.0
 40
35.0
100
AcDbArc
 50
9.594068
 51
52.16252
  0
ARC
  5
2D9
100
AcDbEntity
  8
0
370
    -3
  6
Continuous
100
AcDbCircle
 10
-564.833922
 20
-117.582778
 30
0.0
 40
29.0
100
AcDbArc
 50
10.21948
 51
51.653381
  0
ARC
  5
2DA
100
AcDbEntity
  8
0
370
    -3
  6
Continuous
100
AcDbCircle
 10
-564.833922
 20
-117.582778
 30
0.0
 40
25.0
100
AcDbArc
 50
13.835224
 51
48.717176
  0
ARC
  5
2DB
100
AcDbEntity
  8
0
370
    -3
  6
Continuous
100
AcDbCircle
 10
-564.833922
 20
-117.582778
 30
0.0
 40
19.0
100
AcDbArc
 50
15.183114
 51
47.626375
  0
ARC
  5
2DC
100
AcDbEntity
  8
0
370
    -3
  6
Continuous
100
AcDbCircle
 10
-564.833922
 20
-117.582778
 30
0.0
 40
15.0
100
AcDbArc
 50
25.028999
 51
39.747753
  0
ARC
  5
2DD
100
AcDbEntity
  8
0
370
    -3
  6
Continuous
100
AcDbCircle
 10
-564.833922
 20
-117.582778
 30
0.0
 40
9.0
100
AcDbArc
 50
30.0
 51
35.85226
  0
LINE
  5
2DE
100
AcDbEntity
  8
0
370
    -3
  6
Continuous
100
AcDbLine
 10
-522.187117
 20
-114.082778
 30
0.0
 11
-524.204499
 21
-114.082778
 31
0.0
  0
LINE
  5
2DF
100
AcDbEntity
  8
0
370
    -3
  6
Continuous
100
AcDbLine
 10
-532.295483
 20
-114.082778
 30
0.0
 11
-534.325727
 21
-114.082778
 31
0.0
  0
LINE
  5
2E0
100
AcDbEntity
  8
0
370
    -3
  6
Continuous
100
AcDbLine
 10
-542.501211
 20
-114.082778
 30
0.0
 11
-544.566954
 21
-114.082778
 31
0.0
  0
LINE
  5
2E1
100
AcDbEntity
  8
0
370
    -3
  6
Continuous
100
AcDbLine
 10
-553.054703
 20
-114.082778
 30
0.0
 11
-555.307643
 21
-114.082778
 31
0.0
  0
LINE
  5
2E2
100
AcDbEntity
  8
0
370
    -3
  6
Continuous
100
AcDbLine
 10
-556.570703
 20
-108.270463
 30
0.0
 11
-557.650144
 21
-110.140108
 31
0.0
  0
LINE
  5
2E3
100
AcDbEntity
  8
0
370
    -3
  6
Continuous
100
AcDbLine
 10
-551.391115
 20
-99.299153
 30
0.0
 11
-552.412763
 21
-101.068699
 31
0.0
  0
LINE
  5
2E4
100
AcDbEntity
  8
0
370
    -3
  6
Continuous
100
AcDbLine
 10
-546.322988
 20
-90.520899
 30
0.0
 11
-547.333035
 21
-92.270351
 31
0.0
  0
LINE
  5
2E5
100
AcDbEntity
  8
0
370
    -3
  6
Continuous
100
AcDbLine
 10
-541.286915
 20
-81.798166
 30
0.0
 11
-542.292708
 21
-83.54025
 31
0.0
  0
ARC
  5
2E6
100
AcDbEntity
  8
0
370
    -3
  6
Continuous
100
AcDbCircle
 10
-564.833922
 20
-117.582778
 30
0.0
 40
35.0
100
AcDbArc
 50
307.83748
 51
350.405932
  0
LINE
  5
2E7
100
AcDbEntity
  8
0
370
    -3
  6
Continuous
100
AcDbLine
 10
-532.295483
 20
-121.082778
 30
0.0
 11
-534.325727
 21
-121.082778
 31
0.0
  0
LINE
  5
2E8
100
AcDbEntity
  8
0
370
    -3
  6
Continuous
100
AcDbLine
 10
-522.187117
 20
-121.082778
 30
0.0
 11
-524.204499
 21
-121.082778
 31
0.0
  0
ARC
  5
2E9
100
AcDbEntity
  8
0
370
    -3
  6
Continuous
100
AcDbCircle
 10
-564.833922
 20
-117.582778
 30
0.0
 40
39.0
100
AcDbArc
 50
306.301256
 51
352.29074
  0
ARC
  5
2EA
100
AcDbEntity
  8
0
370
    -3
  6
Continuous
100
AcDbCircle
 10
-564.833922
 20
-117.582778
 30
0.0
 40
45.0
100
AcDbArc
 50
306.007069
 51
352.651339
  0
ARC
  5
2EB
100
AcDbEntity
  8
0
370
    -3
  6
Continuous
100
AcDbCircle
 10
-564.833922
 20
-117.582778
 30
0.0
 40
55.0
100
AcDbArc
 50
304.8706
 51
354.043488
  0
LINE
  5
2EC
100
AcDbEntity
  8
0
370
    -3
  6
Continuous
100
AcDbLine
 10
-512.120072
 20
-121.082778
 30
0.0
 11
-514.131358
 21
-121.082778
 31
0.0
  0
ARC
  5
2ED
100
AcDbEntity
  8
0
370
    -3
  6
Continuous
100
AcDbCircle
 10
-564.833922
 20
-117.582778
 30
0.0
 40
49.0
100
AcDbArc
 50
305.062093
 51
353.809003
  0
LINE
  5
2EE
100
AcDbEntity
  8
0
370
    -3
  6
Continuous
100
AcDbLine
 10
-536.26455
 20
-162.066381
 30
0.0
 11
-537.268317
 21
-160.327806
 31
0.0
  0
LINE
  5
2EF
100
AcDbEntity
  8
0
370
    -3
  6
Continuous
100
AcDbLine
 10
-541.286915
 20
-153.36739
 30
0.0
 11
-542.292708
 21
-151.625305
 31
0.0
  0
ARC
  5
2F0
100
AcDbEntity
  8
0
370
    -3
  6
Continuous
100
AcDbCircle
 10
-564.833922
 20
-117.582778
 30
0.0
 40
29.0
100
AcDbArc
 50
308.346619
 51
349.78052
  0
LINE
  5
2F1
100
AcDbEntity
  8
0
370
    -3
  6
Continuous
100
AcDbLine
 10
-546.322988
 20
-144.644657
 30
0.0
 11
-547.333035
 21
-142.895204
 31
0.0
  0
LINE
  5
2F2
100
AcDbEntity
  8
0
370
    -3
  6
Continuous
100
AcDbLine
 10
-542.501211
 20
-121.082778
 30
0.0
 11
-544.566954
 21
-121.082778
 31
0.0
  0
ARC
  5
2F3
100
AcDbEntity
  8
0
370
    -3
  6
Continuous
100
AcDbCircle
 10
-564.833922
 20
-117.582778
 30
0.0
 40
25.0
100
AcDbArc
 50
311.282824
 51
346.164776
  0
ARC
  5
2F4
100
AcDbEntity
  8
0
370
    -3
  6
Continuous
100
AcDbCircle
 10
-564.833922
 20
-117.582778
 30
0.0
 40
19.0
100
AcDbArc
 50
312.373625
 51
344.816886
  0
LINE
  5
2F5
100
AcDbEntity
  8
0
370
    -3
  6
Continuous
100
AcDbLine
 10
-551.391115
 20
-135.866403
 30
0.0
 11
-552.412763
 21
-134.096857
 31
0.0
  0
LINE
  5
2F6
100
AcDbEntity
  8
0
370
    -3
  6
Continuous
100
AcDbLine
 10
-553.054703
 20
-121.082778
 30
0.0
 11
-555.307643
 21
-121.082778
 31
0.0
  0
ARC
  5
2F7
100
AcDbEntity
  8
0
370
    -3
  6
Continuous
100
AcDbCircle
 10
-564.833922
 20
-117.582778
 30
0.0
 40
15.0
100
AcDbArc
 50
320.252247
 51
334.971001
  0
ARC
  5
2F8
100
AcDbEntity
  8
0
370
    -3
  6
Continuous
100
AcDbCircle
 10
-564.833922
 20
-117.582778
 30
0.0
 40
9.0
100
AcDbArc
 50
324.14774
 51
330.0
  0
LINE
  5
2F9
100
AcDbEntity
  8
0
370
    -3
  6
Continuous
100
AcDbLine
 10
-556.570703
 20
-126.895093
 30
0.0
 11
-557.650144
 21
-125.025447
 31
0.0
  0
ARC
  5
2FA
100
AcDbEntity
  8
0
370
    -3
  6
Continuous
100
AcDbCircle
 10
-564.833922
 20
-117.582778
 30
0.0
 40
35.0
100
AcDbArc
 50
189.594068
 51
232.16252
  0
LINE
  5
2FB
100
AcDbEntity
  8
0
370
    -3
  6
Continuous
100
AcDbLine
 10
-597.372361
 20
-121.082778
 30
0.0
 11
-595.342118
 21
-121.082778
 31
0.0
  0
LINE
  5
2FC
100
AcDbEntity
  8
0
370
    -3
  6
Continuous
100
AcDbLine
 10
-607.480727
 20
-121.082778
 30
0.0
 11
-605.463345
 21
-121.082778
 31
0.0
  0
ARC
  5
2FD
100
AcDbEntity
  8
0
370
    -3
  6
Continuous
100
AcDbCircle
 10
-564.833922
 20
-117.582778
 30
0.0
 40
39.0
100
AcDbArc
 50
187.70926
 51
233.698744
  0
ARC
  5
2FE
100
AcDbEntity
  8
0
370
    -3
  6
Continuous
100
AcDbCircle
 10
-564.833922
 20
-117.582778
 30
0.0
 40
45.0
100
AcDbArc
 50
187.348661
 51
233.992931
  0
ARC
  5
2FF
100
AcDbEntity
  8
0
370
    -3
  6
Continuous
100
AcDbCircle
 10
-564.833922
 20
-117.582778
 30
0.0
 40
55.0
100
AcDbArc
 50
185.956512
 51
235.1294
  0
ARC
  5
300
100
AcDbEntity
  8
0
370
    -3
  6
Continuous
100
AcDbCircle
 10
-597.372361
 20
-123.082778
 30
0.0
 40
2.0
100
AcDbArc
 50
90.0
 51
189.594068
  0
LINE
  5
301
100
AcDbEntity
  8
0
370
    -3
  6
Continuous
100
AcDbLine
 10
-617.547772
 20
-121.082778
 30
0.0
 11
-615.536486
 21
-121.082778
 31
0.0
  0
ARC
  5
302
100
AcDbEntity
  8
0
370
    -3
  6
Continuous
100
AcDbCircle
 10
-564.833922
 20
-117.582778
 30
0.0
 40
49.0
100
AcDbArc
 50
186.190997
 51
234.937907
  0
LINE
  5
303
100
AcDbEntity
  8
0
370
    -3
  6
Continuous
100
AcDbLine
 10
-593.403294
 20
-162.066381
 30
0.0
 11
-592.399527
 21
-160.327806
 31
0.0
  0
LINE
  5
304
100
AcDbEntity
  8
0
370
    -3
  6
Continuous
100
AcDbLine
 10
-588.380929
 20
-153.36739
 30
0.0
 11
-587.375136
 21
-151.625305
 31
0.0
  0
ARC
  5
305
100
AcDbEntity
  8
0
370
    -3
  6
Continuous
100
AcDbCircle
 10
-564.833922
 20
-117.582778
 30
0.0
 40
29.0
100
AcDbArc
 50
190.21948
 51
231.653381
  0
LINE
  5
306
100
AcDbEntity
  8
0
370
    -3
  6
Continuous
100
AcDbLine
 10
-583.344857
 20
-144.644657
 30
0.0
 11
-582.33481
 21
-142.895204
 31
0.0
  0
LINE
  5
307
100
AcDbEntity
  8
0
370
    -3
  6
Continuous
100
AcDbLine
 10
-587.166634
 20
-121.082778
 30
0.0
 11
-585.10089
 21
-121.082778
 31
0.0
  0
ARC
  5
308
100
AcDbEntity
  8
0
370
    -3
  6
Continuous
100
AcDbCircle
 10
-564.833922
 20
-117.582778
 30
0.0
 40
25.0
100
AcDbArc
 50
193.835224
 51
228.717176
  0
ARC
  5
309
100
AcDbEntity
  8
0
370
    -3
  6
Continuous
100
AcDbCircle
 10
-564.833922
 20
-117.582778
 30
0.0
 40
19.0
100
AcDbArc
 50
195.183114
 51
227.626375
  0
ARC
  5
30A
100
AcDbEntity
  8
0
370
    -3
  6
Continuous
100
AcDbCircle
 10
-564.833922
 20
108.417222
 30
0.0
 40
300.8
100
AcDbArc
 50
265.66015
 51
274.33985
  0
LINE
  5
30B
100
AcDbEntity
  8
0
370
    -3
  6
Continuous
100
AcDbLine
 10
-251.833976
 20
-46.582778
 30
0.0
 11
-371.833976
 21
-46.582778
 31
0.0
  0
LINE
  5
30C
100
AcDbEntity
  8
0
370
    -3
  6
Continuous
100
AcDbLine
 10
-251.833976
 20
-68.660803
 30
0.0
 11
-371.833976
 21
-68.660803
 31
0.0
  0
LINE
  5
30D
100
AcDbEntity
  8
0
370
    -3
  6
Continuous
100
AcDbLine
 10
-251.833976
 20
-61.731157
 30
0.0
 11
-371.833976
 21
-61.731157
 31
0.0
  0
LINE
  5
30E
100
AcDbEntity
  8
0
370
    -3
  6
Continuous
100
AcDbLine
 10
-251.833976
 20
-117.582778
 30
0.0
 11
-251.833976
 21
-46.082778
 31
0.0
  0
LINE
  5
30F
100
AcDbEntity
  8
0
370
    -3
  6
Continuous
100
AcDbLine
 10
-251.833976
 20
-187.582778
 30
0.0
 11
-251.833976
 21
-117.582778
 31
0.0
  0
LINE
  5
310
100
AcDbEntity
  8
0
370
    -3
  6
Continuous
100
AcDbLine
 10
-251.833976
 20
-173.434399
 30
0.0
 11
-371.833976
 21
-173.434399
 31
0.0
  0
LINE
  5
311
100
AcDbEntity
  8
0
370
    -3
  6
Continuous
100
AcDbLine
 10
-251.833976
 20
-166.504752
 30
0.0
 11
-371.833976
 21
-166.504752
 31
0.0
  0
ARC
  5
312
100
AcDbEntity
  8
0
370
    -3
  6
Continuous
100
AcDbCircle
 10
-390.833976
 20
-192.300576
 30
0.0
 40
1.0
100
AcDbArc
 50
90.0
 51
180.0
  0
LINE
  5
313
100
AcDbEntity
  8
0
370
    -3
  6
Continuous
100
AcDbLine
 10
-390.833976
 20
-191.300576
 30
0.0
 11
-374.833976
 21
-191.300576
 31
0.0
  0
LINE
  5
314
100
AcDbEntity
  8
0
370
    -3
  6
Continuous
100
AcDbLine
 10
-391.833976
 20
-192.382778
 30
0.0
 11
-391.833976
 21
-192.300576
 31
0.0
  0
LINE
  5
315
100
AcDbEntity
  8
0
370
    -3
  6
Continuous
100
AcDbLine
 10
-391.833976
 20
-192.382778
 30
0.0
 11
-403.581141
 21
-192.382778
 31
0.0
  0
ARC
  5
316
100
AcDbEntity
  8
0
370
    -3
  6
Continuous
100
AcDbCircle
 10
-374.833976
 20
-188.300576
 30
0.0
 40
3.0
100
AcDbArc
 50
270.0
 51
0.0
  0
LINE
  5
317
100
AcDbEntity
  8
0
370
    -3
  6
Continuous
100
AcDbLine
 10
-371.833976
 20
-188.300576
 30
0.0
 11
-371.833976
 21
-117.582778
 31
0.0
  0
LINE
  5
318
100
AcDbEntity
  8
0
370
    -3
  6
Continuous
100
AcDbLine
 10
-388.833976
 20
-177.828276
 30
0.0
 11
-390.76318
 21
-179.038938
 31
0.0
  0
LINE
  5
319
100
AcDbEntity
  8
0
370
    -3
  6
Continuous
100
AcDbLine
 10
-388.833976
 20
-177.828276
 30
0.0
 11
-390.833976
 21
-176.254938
 31
0.0
  0
LINE
  5
31A
100
AcDbEntity
  8
0
370
    -3
  6
Continuous
100
AcDbLine
 10
-388.833976
 20
-177.828276
 30
0.0
 11
-386.904771
 21
-179.038938
 31
0.0
  0
LINE
  5
31B
100
AcDbEntity
  8
0
370
    -3
  6
Continuous
100
AcDbLine
 10
-388.833976
 20
-177.828276
 30
0.0
 11
-386.833976
 21
-176.254938
 31
0.0
  0
ELLIPSE
  5
31C
100
AcDbEntity
  8
0
370
    -3
  6
Continuous
100
AcDbEllipse
 10
-388.833976
 20
-175.989798
 30
0.0
 11
4.5
 21
0.0
 31
0.0
210
0.0
220
0.0
230
1.0
 40
0.707107
 41
5.3002993159361305
 42
4.1244786448332489
  0
ELLIPSE
  5
31D
100
AcDbEntity
  8
0
370
    -3
  6
Continuous
100
AcDbEllipse
 10
-388.833976
 20
-176.526316
 30
0.0
 11
3.5
 21
0.0
 31
0.0
210
0.0
220
0.0
230
1.0
 40
0.860398
 41
0.0
 42
6.2831853071795862
  0
ELLIPSE
  5
31E
100
AcDbEntity
  8
0
370
    -3
  6
Continuous
100
AcDbEllipse
 10
-388.833976
 20
-175.424112
 30
0.0
 11
5.0
 21
0.0
 31
0.0
210
0.0
220
0.0
230
1.0
 40
0.707107
 41
3.1415926535897931
 42
3.880864480530291
  0
ELLIPSE
  5
31F
100
AcDbEntity
  8
0
370
    -3
  6
Continuous
100
AcDbEllipse
 10
-388.833976
 20
-175.424112
 30
0.0
 11
5.0
 21
0.0
 31
0.0
210
0.0
220
0.0
230
1.0
 40
0.707107
 41
5.5439134802390884
 42
0.0
  0
LINE
  5
320
100
AcDbEntity
  8
0
370
    -3
  6
Continuous
100
AcDbLine
 10
-384.333976
 20
-175.989798
 30
0.0
 11
-384.333976
 21
-175.424112
 31
0.0
  0
LINE
  5
321
100
AcDbEntity
  8
0
370
    -3
  6
Continuous
100
AcDbLine
 10
-393.333976
 20
-175.989798
 30
0.0
 11
-393.333976
 21
-175.424112
 31
0.0
  0
ELLIPSE
  5
322
100
AcDbEntity
  8
0
370
    -3
  6
Continuous
100
AcDbEllipse
 10
-388.833976
 20
-175.424112
 30
0.0
 11
4.5
 21
0.0
 31
0.0
210
0.0
220
0.0
230
1.0
 40
0.707107
 41
0.0
 42
3.1415926535897931
  0
LINE
  5
323
100
AcDbEntity
  8
0
370
    -3
  6
Continuous
100
AcDbLine
 10
-383.833976
 20
-175.424112
 30
0.0
 11
-383.833976
 21
-174.607509
 31
0.0
  0
LINE
  5
324
100
AcDbEntity
  8
0
370
    -3
  6
Continuous
100
AcDbLine
 10
-393.833976
 20
-175.424112
 30
0.0
 11
-393.833976
 21
-174.607509
 31
0.0
  0
ELLIPSE
  5
325
100
AcDbEntity
  8
0
370
    -3
  6
Continuous
100
AcDbEllipse
 10
-388.833976
 20
-174.607509
 30
0.0
 11
5.0
 21
0.0
 31
0.0
210
0.0
220
0.0
230
1.0
 40
0.707107
 41
0.0
 42
3.1415926535897931
  0
LINE
  5
326
100
AcDbEntity
  8
0
370
    -3
  6
Continuous
100
AcDbLine
 10
-251.833976
 20
-140.805033
 30
0.0
 11
-371.833976
 21
-140.805033
 31
0.0
  0
LINE
  5
327
100
AcDbEntity
  8
0
370
    -3
  6
Continuous
100
AcDbLine
 10
-251.833976
 20
-132.825942
 30
0.0
 11
-371.833976
 21
-132.825942
 31
0.0
  0
LINE
  5
328
100
AcDbEntity
  8
0
370
    -3
  6
Continuous
100
AcDbLine
 10
-251.833976
 20
-134.362778
 30
0.0
 11
-371.833976
 21
-134.362778
 31
0.0
  0
LINE
  5
329
100
AcDbEntity
  8
0
370
    -3
  6
Continuous
100
AcDbLine
 10
-251.833976
 20
-124.845776
 30
0.0
 11
-371.833976
 21
-124.845776
 31
0.0
  0
LINE
  5
32A
100
AcDbEntity
  8
0
370
    -3
  6
Continuous
100
AcDbLine
 10
-251.833976
 20
-126.330934
 30
0.0
 11
-371.833976
 21
-126.330934
 31
0.0
  0
LINE
  5
32B
100
AcDbEntity
  8
0
370
    -3
  6
Continuous
100
AcDbLine
 10
-251.833976
 20
-118.312573
 30
0.0
 11
-371.833976
 21
-118.312573
 31
0.0
  0
LINE
  5
32C
100
AcDbEntity
  8
0
370
    -3
  6
Continuous
100
AcDbLine
 10
-251.833976
 20
-142.397285
 30
0.0
 11
-371.833976
 21
-142.397285
 31
0.0
  0
LINE
  5
32D
100
AcDbEntity
  8
0
370
    -3
  6
Continuous
100
AcDbLine
 10
-251.833976
 20
-148.792822
 30
0.0
 11
-371.833976
 21
-148.792822
 31
0.0
  0
LINE
  5
32E
100
AcDbEntity
  8
0
370
    -3
  6
Continuous
100
AcDbLine
 10
-251.833976
 20
-150.42555
 30
0.0
 11
-371.833976
 21
-150.42555
 31
0.0
  0
LINE
  5
32F
100
AcDbEntity
  8
0
370
    -3
  6
Continuous
100
AcDbLine
 10
-251.833976
 20
-156.78342
 30
0.0
 11
-371.833976
 21
-156.78342
 31
0.0
  0
LINE
  5
330
100
AcDbEntity
  8
0
370
    -3
  6
Continuous
100
AcDbLine
 10
-251.833976
 20
-158.432047
 30
0.0
 11
-371.833976
 21
-158.432047
 31
0.0
  0
LINE
  5
331
100
AcDbEntity
  8
0
370
    -3
  6
Continuous
100
AcDbLine
 10
-251.833976
 20
-179.582778
 30
0.0
 11
-371.833976
 21
-179.582778
 31
0.0
  0
LINE
  5
332
100
AcDbEntity
  8
0
370
    -3
  6
Continuous
100
AcDbLine
 10
-251.833976
 20
-184.082778
 30
0.0
 11
-371.833976
 21
-184.082778
 31
0.0
  0
LINE
  5
333
100
AcDbEntity
  8
0
370
    -3
  6
Continuous
100
AcDbLine
 10
-251.833976
 20
-94.360522
 30
0.0
 11
-371.833976
 21
-94.360522
 31
0.0
  0
LINE
  5
334
100
AcDbEntity
  8
0
370
    -3
  6
Continuous
100
AcDbLine
 10
-251.833976
 20
-102.339613
 30
0.0
 11
-371.833976
 21
-102.339613
 31
0.0
  0
LINE
  5
335
100
AcDbEntity
  8
0
370
    -3
  6
Continuous
100
AcDbLine
 10
-251.833976
 20
-100.802777
 30
0.0
 11
-371.833976
 21
-100.802777
 31
0.0
  0
LINE
  5
336
100
AcDbEntity
  8
0
370
    -3
  6
Continuous
100
AcDbLine
 10
-251.833976
 20
-110.31978
 30
0.0
 11
-371.833976
 21
-110.31978
 31
0.0
  0
LINE
  5
337
100
AcDbEntity
  8
0
370
    -3
  6
Continuous
100
AcDbLine
 10
-251.833976
 20
-108.834622
 30
0.0
 11
-371.833976
 21
-108.834622
 31
0.0
  0
LINE
  5
338
100
AcDbEntity
  8
0
370
    -3
  6
Continuous
100
AcDbLine
 10
-251.833976
 20
-116.852982
 30
0.0
 11
-371.833976
 21
-116.852982
 31
0.0
  0
LINE
  5
339
100
AcDbEntity
  8
0
370
    -3
  6
Continuous
100
AcDbLine
 10
-251.833976
 20
-92.76827
 30
0.0
 11
-371.833976
 21
-92.76827
 31
0.0
  0
LINE
  5
33A
100
AcDbEntity
  8
0
370
    -3
  6
Continuous
100
AcDbLine
 10
-251.833976
 20
-86.372733
 30
0.0
 11
-371.833976
 21
-86.372733
 31
0.0
  0
LINE
  5
33B
100
AcDbEntity
  8
0
370
    -3
  6
Continuous
100
AcDbLine
 10
-251.833976
 20
-84.740006
 30
0.0
 11
-371.833976
 21
-84.740006
 31
0.0
  0
LINE
  5
33C
100
AcDbEntity
  8
0
370
    -3
  6
Continuous
100
AcDbLine
 10
-251.833976
 20
-78.382136
 30
0.0
 11
-371.833976
 21
-78.382136
 31
0.0
  0
LINE
  5
33D
100
AcDbEntity
  8
0
370
    -3
  6
Continuous
100
AcDbLine
 10
-251.833976
 20
-76.733509
 30
0.0
 11
-371.833976
 21
-76.733509
 31
0.0
  0
LINE
  5
33E
100
AcDbEntity
  8
0
370
    -3
  6
Continuous
100
AcDbLine
 10
-251.833976
 20
-55.582778
 30
0.0
 11
-371.833976
 21
-55.582778
 31
0.0
  0
LINE
  5
33F
100
AcDbEntity
  8
0
370
    -3
  6
Continuous
100
AcDbLine
 10
-251.833976
 20
-51.082778
 30
0.0
 11
-371.833976
 21
-51.082778
 31
0.0
  0
LINE
  5
340
100
AcDbEntity
  8
0
370
    -3
  6
Continuous
100
AcDbLine
 10
-251.833976
 20
-48.082778
 30
0.0
 11
-371.833976
 21
-48.082778
 31
0.0
  0
LINE
  5
341
100
AcDbEntity
  8
0
370
    -3
  6
Continuous
100
AcDbLine
 10
-251.833976
 20
-46.082778
 30
0.0
 11
-371.833976
 21
-46.082778
 31
0.0
  0
LINE
  5
342
100
AcDbEntity
  8
0
370
    -3
  6
Continuous
100
AcDbLine
 10
-371.833976
 20
-42.782778
 30
0.0
 11
-371.833976
 21
-117.582778
 31
0.0
  0
LINE
  5
343
100
AcDbEntity
  8
0
370
    -3
  6
Continuous
100
AcDbLine
 10
-371.833976
 20
-42.782778
 30
0.0
 11
-403.581141
 21
-42.782778
 31
0.0
  0
LINE
  5
344
100
AcDbEntity
  8
0
370
    -3
  6
Continuous
100
AcDbLine
 10
-433.933976
 20
-55.542219
 30
0.0
 11
-418.981141
 21
-46.909195
 31
0.0
  0
LINE
  5
345
100
AcDbEntity
  8
0
370
    -3
  6
Continuous
100
AcDbLine
 10
-435.833976
 20
-117.582778
 30
0.0
 11
-435.833976
 21
-58.833115
 31
0.0
  0
ARC
  5
346
100
AcDbEntity
  8
0
370
    -3
  6
Continuous
100
AcDbCircle
 10
-432.033976
 20
-58.833115
 30
0.0
 40
3.8
100
AcDbArc
 50
120.0
 51
180.0
  0
LINE
  5
347
100
AcDbEntity
  8
0
370
    -3
  6
Continuous
100
AcDbLine
 10
-433.933976
 20
-179.623337
 30
0.0
 11
-418.981141
 21
-188.25636
 31
0.0
  0
LINE
  5
348
100
AcDbEntity
  8
0
370
    -3
  6
Continuous
100
AcDbLine
 10
-435.833976
 20
-117.582778
 30
0.0
 11
-435.833976
 21
-176.33244
 31
0.0
  0
ARC
  5
349
100
AcDbEntity
  8
0
370
    -3
  6
Continuous
100
AcDbCircle
 10
-432.033976
 20
-176.33244
 30
0.0
 40
3.8
100
AcDbArc
 50
180.0
 51
240.0
  0
LINE
  5
34A
100
AcDbEntity
  8
0
370
    -3
  6
Continuous
100
AcDbLine
 10
-388.833976
 20
-57.33728
 30
0.0
 11
-390.76318
 21
-56.126618
 31
0.0
  0
LINE
  5
34B
100
AcDbEntity
  8
0
370
    -3
  6
Continuous
100
AcDbLine
 10
-388.833976
 20
-57.33728
 30
0.0
 11
-390.833976
 21
-58.910617
 31
0.0
  0
LINE
  5
34C
100
AcDbEntity
  8
0
370
    -3
  6
Continuous
100
AcDbLine
 10
-388.833976
 20
-57.33728
 30
0.0
 11
-386.904771
 21
-56.126618
 31
0.0
  0
LINE
  5
34D
100
AcDbEntity
  8
0
370
    -3
  6
Continuous
100
AcDbLine
 10
-388.833976
 20
-57.33728
 30
0.0
 11
-386.833976
 21
-58.910617
 31
0.0
  0
ELLIPSE
  5
34E
100
AcDbEntity
  8
0
370
    -3
  6
Continuous
100
AcDbEllipse
 10
-388.833976
 20
-59.175758
 30
0.0
 11
4.5
 21
0.0
 31
0.0
210
0.0
220
0.0
230
1.0
 40
0.707107
 41
2.1587066623463373
 42
0.9828859912434559
  0
ELLIPSE
  5
34F
100
AcDbEntity
  8
0
370
    -3
  6
Continuous
100
AcDbEllipse
 10
-388.833976
 20
-58.639239
 30
0.0
 11
3.5
 21
0.0
 31
0.0
210
0.0
220
0.0
230
1.0
 40
0.860398
 41
0.0
 42
6.2831853071795862
  0
ELLIPSE
  5
350
100
AcDbEntity
  8
0
370
    -3
  6
Continuous
100
AcDbEllipse
 10
-388.833976
 20
-59.741443
 30
0.0
 11
5.0
 21
0.0
 31
0.0
210
0.0
220
0.0
230
1.0
 40
0.707107
 41
2.4023208266492952
 42
3.1415926535897931
  0
ELLIPSE
  5
351
100
AcDbEntity
  8
0
370
    -3
  6
Continuous
100
AcDbEllipse
 10
-388.833976
 20
-59.741443
 30
0.0
 11
5.0
 21
0.0
 31
0.0
210
0.0
220
0.0
230
1.0
 40
0.707107
 41
0.0
 42
0.7392718269404981
  0
LINE
  5
352
100
AcDbEntity
  8
0
370
    -3
  6
Continuous
100
AcDbLine
 10
-384.333976
 20
-59.175758
 30
0.0
 11
-384.333976
 21
-59.741443
 31
0.0
  0
LINE
  5
353
100
AcDbEntity
  8
0
370
    -3
  6
Continuous
100
AcDbLine
 10
-393.333976
 20
-59.175758
 30
0.0
 11
-393.333976
 21
-59.741443
 31
0.0
  0
ELLIPSE
  5
354
100
AcDbEntity
  8
0
370
    -3
  6
Continuous
100
AcDbEllipse
 10
-388.833976
 20
-59.741443
 30
0.0
 11
4.5
 21
0.0
 31
0.0
210
0.0
220
0.0
230
1.0
 40
0.707107
 41
3.1415926535897931
 42
0.0
  0
LINE
  5
355
100
AcDbEntity
  8
0
370
    -3
  6
Continuous
100
AcDbLine
 10
-383.833976
 20
-59.741443
 30
0.0
 11
-383.833976
 21
-60.558046
 31
0.0
  0
LINE
  5
356
100
AcDbEntity
  8
0
370
    -3
  6
Continuous
100
AcDbLine
 10
-393.833976
 20
-59.741443
 30
0.0
 11
-393.833976
 21
-60.558046
 31
0.0
  0
ELLIPSE
  5
357
100
AcDbEntity
  8
0
370
    -3
  6
Continuous
100
AcDbEllipse
 10
-388.833976
 20
-60.558046
 30
0.0
 11
5.0
 21
0.0
 31
0.0
210
0.0
220
0.0
230
1.0
 40
0.707107
 41
3.1415926535897931
 42
0.0
  0
ARC
  5
358
100
AcDbEntity
  8
0
370
    -3
  6
Continuous
100
AcDbCircle
 10
-403.581141
 20
-161.582778
 30
0.0
 40
30.8
100
AcDbArc
 50
240.0
 51
270.0
  0
LINE
  5
359
100
AcDbEntity
  8
0
370
    -3
  6
Continuous
100
AcDbLine
 10
-251.833976
 20
-187.582778
 30
0.0
 11
-371.833976
 21
-187.582778
 31
0.0
  0
ARC
  5
35A
100
AcDbEntity
  8
0
370
    -3
  6
Continuous
100
AcDbCircle
 10
-403.581141
 20
-73.582778
 30
0.0
 40
30.8
100
AcDbArc
 50
90.0
 51
120.0
  0
CIRCLE
  5
35B
100
AcDbEntity
  8
0
370
    -3
  6
Continuous
100
AcDbCircle
 10
-196.833976
 20
-4.582778
 30
0.0
 40
9.0
  0
CIRCLE
  5
35C
100
AcDbEntity
  8
0
370
    -3
  6
Continuous
100
AcDbCircle
 10
-196.833976
 20
-179.582778
 30
0.0
 40
9.0
  0
CIRCLE
  5
35D
100
AcDbEntity
  8
0
370
    -3
  6
Continuous
100
AcDbCircle
 10
3.166024
 20
-179.582778
 30
0.0
 40
9.0
  0
CIRCLE
  5
35E
100
AcDbEntity
  8
0
370
    -3
  6
Continuous
100
AcDbCircle
 10
3.166024
 20
-4.582778
 30
0.0
 40
9.0
  0
CIRCLE
  5
35F
100
AcDbEntity
  8
0
370
    -3
  6
Continuous
100
AcDbCircle
 10
-196.833976
 20
-4.582778
 30
0.0
 40
13.0
  0
CIRCLE
  5
360
100
AcDbEntity
  8
0
370
    -3
  6
Continuous
100
AcDbCircle
 10
-196.833976
 20
-179.582778
 30
0.0
 40
13.0
  0
CIRCLE
  5
361
100
AcDbEntity
  8
0
370
    -3
  6
Continuous
100
AcDbCircle
 10
3.166024
 20
-179.582778
 30
0.0
 40
13.0
  0
CIRCLE
  5
362
100
AcDbEntity
  8
0
370
    -3
  6
Continuous
100
AcDbCircle
 10
3.166024
 20
-4.582778
 30
0.0
 40
13.0
  0
LINE
  5
363
100
AcDbEntity
  8
0
370
    -3
  6
Continuous
100
AcDbLine
 10
-251.833976
 20
-117.582778
 30
0.0
 11
-251.833976
 21
-46.082778
 31
0.0
  0
LINE
  5
364
100
AcDbEntity
  8
0
370
    -3
  6
Continuous
100
AcDbLine
 10
-251.833976
 20
-187.582778
 30
0.0
 11
-251.833976
 21
-117.582778
 31
0.0
  0
LINE
  5
365
100
AcDbEntity
  8
0
370
    -3
  6
CENTER
100
AcDbLine
 10
-65.833976
 20
20.736464
 30
0.0
 11
-65.833976
 21
-204.967552
 31
0.0
  0
LINE
  5
366
100
AcDbEntity
  8
0
370
    -3
  6
CENTER
100
AcDbLine
 10
30.340392
 20
-73.582778
 30
0.0
 11
-209.275668
 21
-73.582778
 31
0.0
  0
LINE
  5
367
100
AcDbEntity
  8
0
370
    -3
  6
Continuous
100
AcDbLine
 10
-251.833976
 20
-117.582778
 30
0.0
 11
-251.833976
 21
-46.082778
 31
0.0
  0
LINE
  5
368
100
AcDbEntity
  8
0
370
    -3
  6
Continuous
100
AcDbLine
 10
-251.833976
 20
-117.582778
 30
0.0
 11
-251.833976
 21
-187.582778
 31
0.0
  0
LINE
  5
369
100
AcDbEntity
  8
0
370
    -3
  6
CENTER
100
AcDbLine
 10
-136.622888
 20
-117.582778
 30
0.0
 11
-442.96492
 21
-117.582778
 31
0.0
  0
LINE
  5
36A
100
AcDbEntity
  8
0
370
    -3
  6
Continuous
100
AcDbLine
 10
-251.833976
 20
-117.582778
 30
0.0
 11
-251.833976
 21
-187.582778
 31
0.0
  0
LINE
  5
36B
100
AcDbEntity
  8
0
370
    -3
  6
Continuous
100
AcDbLine
 10
-251.833976
 20
-117.582778
 30
0.0
 11
-251.833976
 21
-46.082778
 31
0.0
  0
LINE
  5
36C
100
AcDbEntity
  8
0
370
    -3
  6
Continuous
100
AcDbLine
 10
-72.833976
 20
-47.282778
 30
0.0
 11
-58.833976
 21
-47.282778
 31
0.0
  0
LINE
  5
36D
100
AcDbEntity
  8
0
370
    -3
  6
Continuous
100
AcDbLine
 10
-72.833976
 20
-47.282778
 30
0.0
 11
-72.833976
 21
-52.199373
 31
0.0
  0
LINE
  5
36E
100
AcDbEntity
  8
0
370
    -3
  6
Continuous
100
AcDbLine
 10
-58.833976
 20
-47.282778
 30
0.0
 11
-58.833976
 21
-52.199373
 31
0.0
  0
ARC
  5
36F
100
AcDbEntity
  8
0
370
    -3
  6
Continuous
100
AcDbCircle
 10
-65.833976
 20
-73.582778
 30
0.0
 40
22.5
100
AcDbArc
 50
108.126204
 51
71.873796
  0
CIRCLE
  5
370
100
AcDbEntity
  8
0
370
    -3
  6
Continuous
100
AcDbCircle
 10
-65.833976
 20
-73.582778
 30
0.0
 40
31.5
  0
CIRCLE
  5
371
100
AcDbEntity
  8
0
370
    -3
  6
Continuous
100
AcDbCircle
 10
-65.833976
 20
-73.582778
 30
0.0
 40
64.5
  0
CIRCLE
  5
372
100
AcDbEntity
  8
0
370
    -3
  6
Continuous
100
AcDbCircle
 10
-65.833976
 20
-73.582778
 30
0.0
 40
66.0
  0
CIRCLE
  5
373
100
AcDbEntity
  8
0
370
    -3
  6
Continuous
100
AcDbCircle
 10
-174.833976
 20
3.417222
 30
0.0
 40
4.5
  0
CIRCLE
  5
374
100
AcDbEntity
  8
0
370
    -3
  6
Continuous
100
AcDbCircle
 10
-174.833976
 20
3.417222
 30
0.0
 40
7.0
  0
CIRCLE
  5
375
100
AcDbEntity
  8
0
370
    -3
  6
Continuous
100
AcDbCircle
 10
-18.833976
 20
3.417222
 30
0.0
 40
7.0
  0
CIRCLE
  5
376
100
AcDbEntity
  8
0
370
    -3
  6
Continuous
100
AcDbCircle
 10
-18.833976
 20
3.417222
 30
0.0
 40
4.5
  0
LINE
  5
377
100
AcDbEntity
  8
0
370
    -3
  6
Continuous
100
AcDbLine
 10
-216.833976
 20
-26.582778
 30
0.0
 11
-219.833976
 21
-36.582778
 31
0.0
  0
LINE
  5
378
100
AcDbEntity
  8
0
370
    -3
  6
Continuous
100
AcDbLine
 10
-216.833976
 20
3.417222
 30
0.0
 11
-216.833976
 21
-26.582778
 31
0.0
  0
ARC
  5
379
100
AcDbEntity
  8
0
370
    -3
  6
Continuous
100
AcDbCircle
 10
-206.833976
 20
3.417222
 30
0.0
 40
10.0
100
AcDbArc
 50
90.0
 51
180.0
  0
ARC
  5
37A
100
AcDbEntity
  8
0
370
    -3
  6
Continuous
100
AcDbCircle
 10
-206.833976
 20
3.417222
 30
0.0
 40
9.0
100
AcDbArc
 50
90.0
 51
180.0
  0
LINE
  5
37B
100
AcDbEntity
  8
0
370
    -3
  6
Continuous
100
AcDbLine
 10
-219.833976
 20
-36.582778
 30
0.0
 11
-219.833976
 21
-147.582778
 31
0.0
  0
LINE
  5
37C
100
AcDbEntity
  8
0
370
    -3
  6
Continuous
100
AcDbLine
 10
21.166024
 20
3.417222
 30
0.0
 11
21.166024
 21
-187.582778
 31
0.0
  0
LINE
  5
37D
100
AcDbEntity
  8
0
370
    -3
  6
Continuous
100
AcDbLine
 10
20.166024
 20
3.417222
 30
0.0
 11
20.166024
 21
-187.582778
 31
0.0
  0
ARC
  5
37E
100
AcDbEntity
  8
0
370
    -3
  6
Continuous
100
AcDbCircle
 10
11.166024
 20
3.417222
 30
0.0
 40
10.0
100
AcDbArc
 50
0.0
 51
90.0
  0
ARC
  5
37F
100
AcDbEntity
  8
0
370
    -3
  6
Continuous
100
AcDbCircle
 10
11.166024
 20
3.417222
 30
0.0
 40
9.0
100
AcDbArc
 50
0.0
 51
90.0
  0
LINE
  5
380
100
AcDbEntity
  8
0
370
    -3
  6
Continuous
100
AcDbLine
 10
11.166024
 20
13.417222
 30
0.0
 11
-206.833976
 21
13.417222
 31
0.0
  0
LINE
  5
381
100
AcDbEntity
  8
0
370
    -3
  6
Continuous
100
AcDbLine
 10
-206.833976
 20
12.417222
 30
0.0
 11
11.166024
 21
12.417222
 31
0.0
  0
ARC
  5
382
100
AcDbEntity
  8
0
370
    -3
  6
Continuous
100
AcDbCircle
 10
-156.078976
 20
-8.082778
 30
0.0
 40
10.0
100
AcDbArc
 50
90.0
 51
148.48463
  0
ARC
  5
383
100
AcDbEntity
  8
0
370
    -3
  6
Continuous
100
AcDbCircle
 10
-195.333976
 20
-34.545254
 30
0.0
 40
10.0
100
AcDbArc
 50
92.865984
 51
180.0
  0
ARC
  5
384
100
AcDbEntity
  8
0
370
    -3
  6
Continuous
100
AcDbCircle
 10
-170.027257
 20
-18.051254
 30
0.0
 40
10.0
100
AcDbArc
 50
102.620195
 51
153.323715
  0
ARC
  5
385
100
AcDbEntity
  8
0
370
    -3
  6
Continuous
100
AcDbCircle
 10
-196.833976
 20
-4.582778
 30
0.0
 40
20.0
100
AcDbArc
 50
272.865984
 51
333.323715
  0
ARC
  5
386
100
AcDbEntity
  8
0
370
    -3
  6
Continuous
100
AcDbCircle
 10
-174.833976
 20
3.417222
 30
0.0
 40
12.0
100
AcDbArc
 50
282.620195
 51
328.48463
  0
ARC
  5
387
100
AcDbEntity
  8
0
370
    -3
  6
Continuous
100
AcDbCircle
 10
-156.078976
 20
-8.082778
 30
0.0
 40
8.5
100
AcDbArc
 50
90.0
 51
148.48463
  0
ARC
  5
388
100
AcDbEntity
  8
0
370
    -3
  6
Continuous
100
AcDbCircle
 10
-174.833976
 20
3.417222
 30
0.0
 40
13.5
100
AcDbArc
 50
282.620195
 51
328.48463
  0
ARC
  5
389
100
AcDbEntity
  8
0
370
    -3
  6
Continuous
100
AcDbCircle
 10
-170.027257
 20
-18.051254
 30
0.0
 40
8.5
100
AcDbArc
 50
102.620195
 51
153.323715
  0
ARC
  5
38A
100
AcDbEntity
  8
0
370
    -3
  6
Continuous
100
AcDbCircle
 10
-196.833976
 20
-4.582778
 30
0.0
 40
21.5
100
AcDbArc
 50
272.865984
 51
333.323715
  0
ARC
  5
38B
100
AcDbEntity
  8
0
370
    -3
  6
Continuous
100
AcDbCircle
 10
-195.333976
 20
-34.545254
 30
0.0
 40
8.5
100
AcDbArc
 50
92.865984
 51
180.0
  0
ARC
  5
38C
100
AcDbEntity
  8
0
370
    -3
  6
Continuous
100
AcDbCircle
 10
-23.640694
 20
-18.051254
 30
0.0
 40
10.0
100
AcDbArc
 50
26.676285
 51
77.379805
  0
ARC
  5
38D
100
AcDbEntity
  8
0
370
    -3
  6
Continuous
100
AcDbCircle
 10
-23.640694
 20
-18.051254
 30
0.0
 40
8.5
100
AcDbArc
 50
26.676285
 51
77.379805
  0
ARC
  5
38E
100
AcDbEntity
  8
0
370
    -3
  6
Continuous
100
AcDbCircle
 10
-18.833976
 20
3.417222
 30
0.0
 40
12.0
100
AcDbArc
 50
211.51537
 51
257.379805
  0
ARC
  5
38F
100
AcDbEntity
  8
0
370
    -3
  6
Continuous
100
AcDbCircle
 10
-18.833976
 20
3.417222
 30
0.0
 40
13.5
100
AcDbArc
 50
211.51537
 51
257.379805
  0
ARC
  5
390
100
AcDbEntity
  8
0
370
    -3
  6
Continuous
100
AcDbCircle
 10
-37.588975
 20
-8.082778
 30
0.0
 40
10.0
100
AcDbArc
 50
31.51537
 51
90.0
  0
ARC
  5
391
100
AcDbEntity
  8
0
370
    -3
  6
Continuous
100
AcDbCircle
 10
-37.588975
 20
-8.082778
 30
0.0
 40
8.5
100
AcDbArc
 50
31.51537
 51
90.0
  0
LINE
  5
392
100
AcDbEntity
  8
0
370
    -3
  6
Continuous
100
AcDbLine
 10
-156.078976
 20
0.417222
 30
0.0
 11
-37.588975
 21
0.417222
 31
0.0
  0
LINE
  5
393
100
AcDbEntity
  8
0
370
    -3
  6
Continuous
100
AcDbLine
 10
-156.078976
 20
1.917222
 30
0.0
 11
-37.588975
 21
1.917222
 31
0.0
  0
ARC
  5
394
100
AcDbEntity
  8
0
370
    -3
  6
Continuous
100
AcDbCircle
 10
3.166024
 20
-4.582778
 30
0.0
 40
20.0
100
AcDbArc
 50
206.676285
 51
263.300235
  0
ARC
  5
395
100
AcDbEntity
  8
0
370
    -3
  6
Continuous
100
AcDbCircle
 10
-0.333976
 20
-34.377912
 30
0.0
 40
10.0
100
AcDbArc
 50
0.0
 51
83.300235
  0
ARC
  5
396
100
AcDbEntity
  8
0
370
    -3
  6
Continuous
100
AcDbCircle
 10
-0.333976
 20
-34.377912
 30
0.0
 40
8.5
100
AcDbArc
 50
0.0
 51
83.300235
  0
ARC
  5
397
100
AcDbEntity
  8
0
370
    -3
  6
Continuous
100
AcDbCircle
 10
3.166024
 20
-4.582778
 30
0.0
 40
21.5
100
AcDbArc
 50
206.676285
 51
263.300235
  0
LINE
  5
398
100
AcDbEntity
  8
0
370
    -3
  6
Continuous
100
AcDbLine
 10
9.666024
 20
-34.377912
 30
0.0
 11
9.666024
 21
-149.787644
 31
0.0
  0
LINE
  5
399
100
AcDbEntity
  8
0
370
    -3
  6
Continuous
100
AcDbLine
 10
8.166024
 20
-34.377912
 30
0.0
 11
8.166024
 21
-149.787644
 31
0.0
  0
LINE
  5
39A
100
AcDbEntity
  8
0
370
    -3
  6
Continuous
100
AcDbLine
 10
-203.833976
 20
-34.545254
 30
0.0
 11
-203.833976
 21
-149.620301
 31
0.0
  0
LINE
  5
39B
100
AcDbEntity
  8
0
370
    -3
  6
Continuous
100
AcDbLine
 10
-205.333976
 20
-34.545254
 30
0.0
 11
-205.333976
 21
-149.620301
 31
0.0
  0
LINE
  5
39C
100
AcDbEntity
  8
0
370
    -3
  6
Continuous
100
AcDbLine
 10
-215.833976
 20
-187.582778
 30
0.0
 11
-215.833976
 21
3.417222
 31
0.0
  0
CIRCLE
  5
39D
100
AcDbEntity
  8
0
370
    -3
  6
Continuous
100
AcDbCircle
 10
-174.833976
 20
-187.582778
 30
0.0
 40
7.0
  0
CIRCLE
  5
39E
100
AcDbEntity
  8
0
370
    -3
  6
Continuous
100
AcDbCircle
 10
-18.833976
 20
-187.582778
 30
0.0
 40
4.5
  0
LINE
  5
39F
100
AcDbEntity
  8
0
370
    -3
  6
Continuous
100
AcDbLine
 10
-216.833976
 20
-157.582778
 30
0.0
 11
-219.833976
 21
-147.582778
 31
0.0
  0
LINE
  5
3A0
100
AcDbEntity
  8
0
370
    -3
  6
Continuous
100
AcDbLine
 10
-216.833976
 20
-157.582778
 30
0.0
 11
-216.833976
 21
-187.582778
 31
0.0
  0
ARC
  5
3A1
100
AcDbEntity
  8
0
370
    -3
  6
Continuous
100
AcDbCircle
 10
-206.833976
 20
-187.582778
 30
0.0
 40
10.0
100
AcDbArc
 50
180.0
 51
270.0
  0
ARC
  5
3A2
100
AcDbEntity
  8
0
370
    -3
  6
Continuous
100
AcDbCircle
 10
-206.833976
 20
-187.582778
 30
0.0
 40
9.0
100
AcDbArc
 50
180.0
 51
270.0
  0
LINE
  5
3A3
100
AcDbEntity
  8
0
370
    -3
  6
Continuous
100
AcDbLine
 10
11.166024
 20
-197.582778
 30
0.0
 11
-206.833976
 21
-197.582778
 31
0.0
  0
LINE
  5
3A4
100
AcDbEntity
  8
0
370
    -3
  6
Continuous
100
AcDbLine
 10
11.166024
 20
-196.582778
 30
0.0
 11
-206.833976
 21
-196.582778
 31
0.0
  0
ARC
  5
3A5
100
AcDbEntity
  8
0
370
    -3
  6
Continuous
100
AcDbCircle
 10
11.166024
 20
-187.582778
 30
0.0
 40
10.0
100
AcDbArc
 50
270.0
 51
0.0
  0
ARC
  5
3A6
100
AcDbEntity
  8
0
370
    -3
  6
Continuous
100
AcDbCircle
 10
11.166024
 20
-187.582778
 30
0.0
 40
9.0
100
AcDbArc
 50
270.0
 51
0.0
  0
CIRCLE
  5
3A7
100
AcDbEntity
  8
0
370
    -3
  6
Continuous
100
AcDbCircle
 10
-174.833976
 20
-187.582778
 30
0.0
 40
4.4
  0
ARC
  5
3A8
100
AcDbEntity
  8
0
370
    -3
  6
Continuous
100
AcDbCircle
 10
-37.588975
 20
-176.082778
 30
0.0
 40
10.0
100
AcDbArc
 50
270.0
 51
328.48463
  0
ARC
  5
3A9
100
AcDbEntity
  8
0
370
    -3
  6
Continuous
100
AcDbCircle
 10
-37.588975
 20
-176.082778
 30
0.0
 40
8.5
100
AcDbArc
 50
270.0
 51
328.48463
  0
ARC
  5
3AA
100
AcDbEntity
  8
0
370
    -3
  6
Continuous
100
AcDbCircle
 10
-18.833976
 20
-187.582778
 30
0.0
 40
12.0
100
AcDbArc
 50
102.620195
 51
148.48463
  0
ARC
  5
3AB
100
AcDbEntity
  8
0
370
    -3
  6
Continuous
100
AcDbCircle
 10
-18.833976
 20
-187.582778
 30
0.0
 40
13.5
100
AcDbArc
 50
102.620195
 51
148.48463
  0
ARC
  5
3AC
100
AcDbEntity
  8
0
370
    -3
  6
Continuous
100
AcDbCircle
 10
-23.640694
 20
-166.114302
 30
0.0
 40
8.5
100
AcDbArc
 50
282.620195
 51
333.323715
  0
ARC
  5
3AD
100
AcDbEntity
  8
0
370
    -3
  6
Continuous
100
AcDbCircle
 10
-23.640694
 20
-166.114302
 30
0.0
 40
10.0
100
AcDbArc
 50
282.620195
 51
333.323715
  0
ARC
  5
3AE
100
AcDbEntity
  8
0
370
    -3
  6
Continuous
100
AcDbCircle
 10
3.166024
 20
-179.582778
 30
0.0
 40
20.0
100
AcDbArc
 50
96.699765
 51
153.323715
  0
ARC
  5
3AF
100
AcDbEntity
  8
0
370
    -3
  6
Continuous
100
AcDbCircle
 10
3.166024
 20
-179.582778
 30
0.0
 40
21.5
100
AcDbArc
 50
96.699765
 51
153.323715
  0
ARC
  5
3B0
100
AcDbEntity
  8
0
370
    -3
  6
Continuous
100
AcDbCircle
 10
-0.333976
 20
-149.787644
 30
0.0
 40
10.0
100
AcDbArc
 50
276.699765
 51
0.0
  0
ARC
  5
3B1
100
AcDbEntity
  8
0
370
    -3
  6
Continuous
100
AcDbCircle
 10
-0.333976
 20
-149.787644
 30
0.0
 40
8.5
100
AcDbArc
 50
276.699765
 51
0.0
  0
CIRCLE
  5
3B2
100
AcDbEntity
  8
0
370
    -3
  6
Continuous
100
AcDbCircle
 10
-18.833976
 20
-187.582778
 30
0.0
 40
7.0
  0
ARC
  5
3B3
100
AcDbEntity
  8
0
370
    -3
  6
Continuous
100
AcDbCircle
 10
-195.333976
 20
-149.620301
 30
0.0
 40
8.5
100
AcDbArc
 50
180.0
 51
267.134016
  0
ARC
  5
3B4
100
AcDbEntity
  8
0
370
    -3
  6
Continuous
100
AcDbCircle
 10
-195.333976
 20
-149.620301
 30
0.0
 40
10.0
100
AcDbArc
 50
180.0
 51
267.134016
  0
ARC
  5
3B5
100
AcDbEntity
  8
0
370
    -3
  6
Continuous
100
AcDbCircle
 10
-196.833976
 20
-179.582778
 30
0.0
 40
21.5
100
AcDbArc
 50
26.676285
 51
87.134016
  0
ARC
  5
3B6
100
AcDbEntity
  8
0
370
    -3
  6
Continuous
100
AcDbCircle
 10
-196.833976
 20
-179.582778
 30
0.0
 40
20.0
100
AcDbArc
 50
26.676285
 51
87.134016
  0
ARC
  5
3B7
100
AcDbEntity
  8
0
370
    -3
  6
Continuous
100
AcDbCircle
 10
-170.027257
 20
-166.114302
 30
0.0
 40
8.5
100
AcDbArc
 50
206.676285
 51
257.379805
  0
ARC
  5
3B8
100
AcDbEntity
  8
0
370
    -3
  6
Continuous
100
AcDbCircle
 10
-170.027257
 20
-166.114302
 30
0.0
 40
10.0
100
AcDbArc
 50
206.676285
 51
257.379805
  0
ARC
  5
3B9
100
AcDbEntity
  8
0
370
    -3
  6
Continuous
100
AcDbCircle
 10
-174.833976
 20
-187.582778
 30
0.0
 40
12.0
100
AcDbArc
 50
31.51537
 51
77.379805
  0
ARC
  5
3BA
100
AcDbEntity
  8
0
370
    -3
  6
Continuous
100
AcDbCircle
 10
-174.833976
 20
-187.582778
 30
0.0
 40
13.5
100
AcDbArc
 50
31.51537
 51
77.379805
  0
ARC
  5
3BB
100
AcDbEntity
  8
0
370
    -3
  6
Continuous
100
AcDbCircle
 10
-156.078976
 20
-176.082778
 30
0.0
 40
10.0
100
AcDbArc
 50
211.51537
 51
270.0
  0
ARC
  5
3BC
100
AcDbEntity
  8
0
370
    -3
  6
Continuous
100
AcDbCircle
 10
-156.078976
 20
-176.082778
 30
0.0
 40
8.5
100
AcDbArc
 50
211.51537
 51
270.0
  0
LINE
  5
3BD
100
AcDbEntity
  8
0
370
    -3
  6
Continuous
100
AcDbLine
 10
-37.588975
 20
-184.582778
 30
0.0
 11
-156.078976
 21
-184.582778
 31
0.0
  0
LINE
  5
3BE
100
AcDbEntity
  8
0
370
    -3
  6
Continuous
100
AcDbLine
 10
-37.588975
 20
-186.082778
 30
0.0
 11
-156.078976
 21
-186.082778
 31
0.0
  0
ARC
  5
3BF
100
AcDbEntity
  8
0
370
    -3
  6
Continuous
100
AcDbCircle
 10
-242.333976
 20
-48.582778
 30
0.0
 40
3.0
100
AcDbArc
 50
180.0
 51
270.0
  0
ARC
  5
3C0
100
AcDbEntity
  8
0
370
    -3
  6
Continuous
100
AcDbCircle
 10
-247.333976
 20
-48.082778
 30
0.0
 40
2.0
100
AcDbArc
 50
360.0
 51
90.0
  0
LINE
  5
3C1
100
AcDbEntity
  8
0
370
    -3
  6
Continuous
100
AcDbLine
 10
-242.333976
 20
-183.582778
 30
0.0
 11
-219.833976
 21
-183.582778
 31
0.0
  0
LINE
  5
3C2
100
AcDbEntity
  8
0
370
    -3
  6
Continuous
100
AcDbLine
 10
-245.333976
 20
-117.582778
 30
0.0
 11
-245.333976
 21
-160.569931
 31
0.0
  0
LINE
  5
3C3
100
AcDbEntity
  8
0
370
    -3
  6
Continuous
100
AcDbLine
 10
-247.333976
 20
-189.082778
 30
0.0
 11
-251.833976
 21
-189.082778
 31
0.0
  0
ARC
  5
3C4
100
AcDbEntity
  8
0
370
    -3
  6
Continuous
100
AcDbCircle
 10
-242.333976
 20
-160.569931
 30
0.0
 40
3.0
100
AcDbArc
 50
180.0
 51
270.0
  0
LINE
  5
3C5
100
AcDbEntity
  8
0
370
    -3
  6
Continuous
100
AcDbLine
 10
-242.333976
 20
-163.569931
 30
0.0
 11
-233.833976
 21
-163.569931
 31
0.0
  0
ARC
  5
3C6
100
AcDbEntity
  8
0
370
    -3
  6
Continuous
100
AcDbCircle
 10
-242.333976
 20
-175.582778
 30
0.0
 40
3.0
100
AcDbArc
 50
90.0
 51
180.0
  0
LINE
  5
3C7
100
AcDbEntity
  8
0
370
    -3
  6
Continuous
100
AcDbLine
 10
-242.333976
 20
-172.582778
 30
0.0
 11
-233.833976
 21
-172.582778
 31
0.0
  0
ARC
  5
3C8
100
AcDbEntity
  8
0
370
    -3
  6
Continuous
100
AcDbCircle
 10
-233.833976
 20
-158.569931
 30
0.0
 40
5.0
100
AcDbArc
 50
270.0
 51
351.914005
  0
ARC
  5
3C9
100
AcDbEntity
  8
0
370
    -3
  6
Continuous
100
AcDbCircle
 10
-233.833976
 20
-167.582778
 30
0.0
 40
5.0
100
AcDbArc
 50
270.0
 51
350.385223
  0
ARC
  5
3CA
100
AcDbEntity
  8
0
370
    -3
  6
Continuous
100
AcDbCircle
 10
-242.333976
 20
-186.582778
 30
0.0
 40
3.0
100
AcDbArc
 50
90.0
 51
180.0
  0
ARC
  5
3CB
100
AcDbEntity
  8
0
370
    -3
  6
Continuous
100
AcDbCircle
 10
-247.333976
 20
-187.082778
 30
0.0
 40
2.0
100
AcDbArc
 50
270.0
 51
0.0
  0
ARC
  5
3CC
100
AcDbEntity
  8
0
370
    -3
  6
Continuous
100
AcDbCircle
 10
-236.833976
 20
-49.582778
 30
0.0
 40
2.0
100
AcDbArc
 50
180.0
 51
270.0
  0
ARC
  5
3CD
100
AcDbEntity
  8
0
370
    -3
  6
Continuous
100
AcDbCircle
 10
-239.833976
 20
-23.582778
 30
0.0
 40
1.0
100
AcDbArc
 50
0.0
 51
90.0
  0
ARC
  5
3CE
100
AcDbEntity
  8
0
370
    -3
  6
Continuous
100
AcDbCircle
 10
-249.833976
 20
-23.582778
 30
0.0
 40
1.0
100
AcDbArc
 50
90.0
 51
180.0
  0
LINE
  5
3CF
100
AcDbEntity
  8
0
370
    -3
  6
Continuous
100
AcDbLine
 10
-239.833976
 20
-22.582778
 30
0.0
 11
-249.833976
 21
-22.582778
 31
0.0
  0
LINE
  5
3D0
100
AcDbEntity
  8
0
370
    -3
  6
Continuous
100
AcDbLine
 10
-238.833976
 20
-49.582778
 30
0.0
 11
-238.833976
 21
-23.582778
 31
0.0
  0
LINE
  5
3D1
100
AcDbEntity
  8
0
370
    -3
  6
Continuous
100
AcDbLine
 10
-245.333976
 20
-59.582778
 30
0.0
 11
-245.333976
 21
-48.082778
 31
0.0
  0
LINE
  5
3D2
100
AcDbEntity
  8
0
370
    -3
  6
Continuous
100
AcDbLine
 10
-245.333976
 20
-175.582778
 30
0.0
 11
-245.333976
 21
-187.082778
 31
0.0
  0
LINE
  5
3D3
100
AcDbEntity
  8
0
370
    -3
  6
Continuous
100
AcDbLine
 10
-242.333976
 20
-75.834991
 30
0.0
 11
-231.928326
 21
-75.834991
 31
0.0
  0
LINE
  5
3D4
100
AcDbEntity
  8
0
370
    -3
  6
Continuous
100
AcDbLine
 10
-242.333976
 20
-158.848808
 30
0.0
 11
-231.401254
 21
-158.848808
 31
0.0
  0
ARC
  5
3D5
100
AcDbEntity
  8
0
370
    -3
  6
Continuous
100
AcDbCircle
 10
-242.333976
 20
-78.834991
 30
0.0
 40
3.0
100
AcDbArc
 50
90.0
 51
180.0
  0
ARC
  5
3D6
100
AcDbEntity
  8
0
370
    -3
  6
Continuous
100
AcDbCircle
 10
-242.333976
 20
-155.848808
 30
0.0
 40
3.0
100
AcDbArc
 50
180.0
 51
270.0
  0
ARC
  5
3D7
100
AcDbEntity
  8
0
370
    -3
  6
Continuous
100
AcDbCircle
 10
-225.946352
 20
-66.246593
 30
0.0
 40
3.0
100
AcDbArc
 50
189.614777
 51
270.0
  0
ARC
  5
3D8
100
AcDbEntity
  8
0
370
    -3
  6
Continuous
100
AcDbCircle
 10
-225.913511
 20
-75.470351
 30
0.0
 40
3.0
100
AcDbArc
 50
188.085995
 51
270.0
  0
ARC
  5
3D9
100
AcDbEntity
  8
0
370
    -3
  6
Continuous
100
AcDbCircle
 10
-225.913511
 20
-159.695205
 30
0.0
 40
3.0
100
AcDbArc
 50
90.0
 51
171.914005
  0
ARC
  5
3DA
100
AcDbEntity
  8
0
370
    -3
  6
Continuous
100
AcDbCircle
 10
-225.946352
 20
-168.918962
 30
0.0
 40
3.0
100
AcDbArc
 50
90.0
 51
170.385223
  0
LINE
  5
3DB
100
AcDbEntity
  8
0
370
    -3
  6
Continuous
100
AcDbLine
 10
-251.833976
 20
-117.582778
 30
0.0
 11
-251.833976
 21
-46.082778
 31
0.0
  0
LINE
  5
3DC
100
AcDbEntity
  8
0
370
    -3
  6
Continuous
100
AcDbLine
 10
-251.833976
 20
-117.582778
 30
0.0
 11
-251.833976
 21
-189.082778
 31
0.0
  0
ARC
  5
3DD
100
AcDbEntity
  8
0
370
    -3
  6
Continuous
100
AcDbCircle
 10
-219.833976
 20
-186.582778
 30
0.0
 40
3.0
100
AcDbArc
 50
0.0
 51
90.0
  0
ARC
  5
3DE
100
AcDbEntity
  8
0
370
    -3
  6
Continuous
100
AcDbCircle
 10
-251.833976
 20
-45.082778
 30
0.0
 40
1.0
100
AcDbArc
 50
270.0
 51
360.0
  0
LINE
  5
3DF
100
AcDbEntity
  8
0
370
    -3
  6
Continuous
100
AcDbLine
 10
-247.333976
 20
-46.082778
 30
0.0
 11
-251.833976
 21
-46.082778
 31
0.0
  0
LINE
  5
3E0
100
AcDbEntity
  8
0
370
    -3
  6
Continuous
100
AcDbLine
 10
-250.833976
 20
-45.082778
 30
0.0
 11
-250.833976
 21
-23.582778
 31
0.0
  0
LINE
  5
3E1
100
AcDbEntity
  8
0
370
    -3
  6
Continuous
100
AcDbLine
 10
-242.333976
 20
-51.582778
 30
0.0
 11
-219.833976
 21
-51.582778
 31
0.0
  0
LINE
  5
3E2
100
AcDbEntity
  8
0
370
    -3
  6
Continuous
100
AcDbLine
 10
-245.333976
 20
-117.582778
 30
0.0
 11
-245.333976
 21
-74.595625
 31
0.0
  0
ARC
  5
3E3
100
AcDbEntity
  8
0
370
    -3
  6
Continuous
100
AcDbCircle
 10
-242.333976
 20
-74.595625
 30
0.0
 40
3.0
100
AcDbArc
 50
90.0
 51
180.0
  0
LINE
  5
3E4
100
AcDbEntity
  8
0
370
    -3
  6
Continuous
100
AcDbLine
 10
-242.333976
 20
-71.595625
 30
0.0
 11
-233.833976
 21
-71.595625
 31
0.0
  0
ARC
  5
3E5
100
AcDbEntity
  8
0
370
    -3
  6
Continuous
100
AcDbCircle
 10
-242.333976
 20
-59.582778
 30
0.0
 40
3.0
100
AcDbArc
 50
180.0
 51
270.0
  0
LINE
  5
3E6
100
AcDbEntity
  8
0
370
    -3
  6
Continuous
100
AcDbLine
 10
-242.333976
 20
-62.582778
 30
0.0
 11
-233.833976
 21
-62.582778
 31
0.0
  0
ARC
  5
3E7
100
AcDbEntity
  8
0
370
    -3
  6
Continuous
100
AcDbCircle
 10
-233.833976
 20
-76.595625
 30
0.0
 40
5.0
100
AcDbArc
 50
8.085995
 51
90.0
  0
ARC
  5
3E8
100
AcDbEntity
  8
0
370
    -3
  6
Continuous
100
AcDbCircle
 10
-233.833976
 20
-67.582778
 30
0.0
 40
5.0
100
AcDbArc
 50
9.614777
 51
90.0
  0
LINE
  5
3E9
100
AcDbEntity
  8
0
370
    -3
  6
CENTER
100
AcDbLine
 10
3.166024
 20
-22.804309
 30
0.0
 11
3.166024
 21
11.48655
 31
0.0
  0
LINE
  5
3EA
100
AcDbEntity
  8
0
370
    -3
  6
CENTER
100
AcDbLine
 10
19.549954
 20
-4.582778
 30
0.0
 11
-14.084489
 21
-4.582778
 31
0.0
  0
LINE
  5
3EB
100
AcDbEntity
  8
0
370
    -3
  6
CENTER
100
AcDbLine
 10
-18.833976
 20
11.895748
 30
0.0
 11
-18.833976
 21
-6.845556
 31
0.0
  0
LINE
  5
3EC
100
AcDbEntity
  8
0
370
    -3
  6
CENTER
100
AcDbLine
 10
-9.833976
 20
3.417222
 30
0.0
 11
-28.897486
 21
3.417222
 31
0.0
  0
LINE
  5
3ED
100
AcDbEntity
  8
0
370
    -3
  6
CENTER
100
AcDbLine
 10
3.166024
 20
-197.804309
 30
0.0
 11
3.166024
 21
-163.51345
 31
0.0
  0
LINE
  5
3EE
100
AcDbEntity
  8
0
370
    -3
  6
CENTER
100
AcDbLine
 10
-18.833976
 20
-179.104252
 30
0.0
 11
-18.833976
 21
-197.845556
 31
0.0
  0
LINE
  5
3EF
100
AcDbEntity
  8
0
370
    -3
  6
CENTER
100
AcDbLine
 10
-180.450046
 20
-4.582778
 30
0.0
 11
-214.084489
 21
-4.582778
 31
0.0
  0
LINE
  5
3F0
100
AcDbEntity
  8
0
370
    -3
  6
CENTER
100
AcDbLine
 10
-165.833976
 20
3.417222
 30
0.0
 11
-184.897486
 21
3.417222
 31
0.0
  0
LINE
  5
3F1
100
AcDbEntity
  8
0
370
    -3
  6
CENTER
100
AcDbLine
 10
-196.833976
 20
-21.935163
 30
0.0
 11
-196.833976
 21
15.001467
 31
0.0
  0
LINE
  5
3F2
100
AcDbEntity
  8
0
370
    -3
  6
CENTER
100
AcDbLine
 10
-174.833976
 20
12.417222
 30
0.0
 11
-174.833976
 21
-7.467196
 31
0.0
  0
LINE
  5
3F3
100
AcDbEntity
  8
0
370
    -3
  6
CENTER
100
AcDbLine
 10
-179.686497
 20
-179.582778
 30
0.0
 11
-214.442885
 21
-179.582778
 31
0.0
  0
LINE
  5
3F4
100
AcDbEntity
  8
0
370
    -3
  6
CENTER
100
AcDbLine
 10
-164.602872
 20
-187.582778
 30
0.0
 11
-183.329564
 21
-187.582778
 31
0.0
  0
LINE
  5
3F5
100
AcDbEntity
  8
0
370
    -3
  6
CENTER
100
AcDbLine
 10
-174.833976
 20
-179.104252
 30
0.0
 11
-174.833976
 21
-195.943826
 31
0.0
  0
LINE
  5
3F6
100
AcDbEntity
  8
0
370
    -3
  6
CENTER
100
AcDbLine
 10
-196.833976
 20
-195.858172
 30
0.0
 11
-196.833976
 21
-163.51345
 31
0.0
  0
LINE
  5
3F7
100
AcDbEntity
  8
0
370
    -3
  6
CENTER
100
AcDbLine
 10
20.313503
 20
-179.582778
 30
0.0
 11
-14.442885
 21
-179.582778
 31
0.0
  0
LINE
  5
3F8
100
AcDbEntity
  8
0
370
    -3
  6
CENTER
100
AcDbLine
 10
-8.602872
 20
-187.582778
 30
0.0
 11
-27.329564
 21
-187.582778
 31
0.0
  0
LINE
  5
3F9
100
AcDbEntity
  8
0
370
    -3
  6
Continuous
100
AcDbLine
 10
-255.333976
 20
12.417222
 30
0.0
 11
-250.833976
 21
12.417222
 31
0.0
  0
LINE
  5
3FA
100
AcDbEntity
  8
0
370
    -3
  6
CENTER
100
AcDbLine
 10
-259.114999
 20
-7.582778
 30
0.0
 11
-246.313345
 21
-7.582778
 31
0.0
  0
LINE
  5
3FB
100
AcDbEntity
  8
0
370
    -3
  6
DASHED
100
AcDbLine
 10
-255.333976
 20
2.417222
 30
0.0
 11
-250.833976
 21
2.417222
 31
0.0
  0
LINE
  5
3FC
100
AcDbEntity
  8
0
370
    -3
  6
DASHED
100
AcDbLine
 10
-255.333976
 20
-17.582778
 30
0.0
 11
-250.833976
 21
-17.582778
 31
0.0
  0
LINE
  5
3FD
100
AcDbEntity
  8
0
370
    -3
  6
Continuous
100
AcDbLine
 10
-255.333976
 20
12.417222
 30
0.0
 11
-255.333976
 21
-42.582778
 31
0.0
  0
LINE
  5
3FE
100
AcDbEntity
  8
0
370
    -3
  6
Continuous
100
AcDbLine
 10
-250.833976
 20
12.417222
 30
0.0
 11
-250.833976
 21
-42.582778
 31
0.0
  0
LINE
  5
3FF
100
AcDbEntity
  8
0
370
    -3
  6
CENTER
100
AcDbLine
 10
-265.042652
 20
-32.582778
 30
0.0
 11
-244.74293
 21
-32.582778
 31
0.0
  0
LINE
  5
400
100
AcDbEntity
  8
0
370
    -3
  6
Continuous
100
AcDbLine
 10
-255.333976
 20
-42.582778
 30
0.0
 11
-250.833976
 21
-42.582778
 31
0.0
  0
INSERT
  5
40C
100
AcDbEntity
  8
0
100
AcDbBlockReference
  2
ZU_SYM__USERS_HOME_SYMBOL_POO_SYM_B20_-1
 10
-255.333976
 20
-32.582778
 30
0.0
  0
LINE
  5
40D
100
AcDbEntity
  8
0
370
    -3
  6
Continuous
100
AcDbLine
 10
-251.833976
 20
-117.582778
 30
0.0
 11
-251.833976
 21
-46.082778
 31
0.0
  0
LINE
  5
40E
100
AcDbEntity
  8
0
370
    -3
  6
Continuous
100
AcDbLine
 10
-251.833976
 20
-117.582778
 30
0.0
 11
-251.833976
 21
-187.582778
 31
0.0
  0
LINE
  5
40F
100
AcDbEntity
  8
0
370
    -3
  6
Continuous
100
AcDbLine
 10
500.165911
 20
12.417222
 30
0.0
 11
479.266016
 21
12.417222
 31
0.0
  0
ARC
  5
410
100
AcDbEntity
  8
0
370
    -3
  6
Continuous
100
AcDbCircle
 10
500.165911
 20
2.417222
 30
0.0
 40
10.0
100
AcDbArc
 50
71.713781
 51
90.0
  0
LINE
  5
411
100
AcDbEntity
  8
0
370
    -3
  6
DASHED
100
AcDbLine
 10
419.666069
 20
-192.582778
 30
0.0
 11
440.666069
 21
-192.582778
 31
0.0
  0
LINE
  5
412
100
AcDbEntity
  8
0
370
    -3
  6
DASHED
100
AcDbLine
 10
440.666069
 20
-166.582778
 30
0.0
 11
419.666069
 21
-166.582778
 31
0.0
  0
LINE
  5
413
100
AcDbEntity
  8
0
370
    -3
  6
DASHED
100
AcDbLine
 10
440.666069
 20
-166.582778
 30
0.0
 11
440.666069
 21
-192.582778
 31
0.0
  0
LINE
  5
414
100
AcDbEntity
  8
0
370
    -3
  6
DASHED
100
AcDbLine
 10
538.666069
 20
-188.582778
 30
0.0
 11
440.666069
 21
-188.582778
 31
0.0
  0
LINE
  5
415
100
AcDbEntity
  8
0
370
    -3
  6
DASHED
100
AcDbLine
 10
559.666069
 20
-192.582778
 30
0.0
 11
538.666069
 21
-192.582778
 31
0.0
  0
LINE
  5
416
100
AcDbEntity
  8
0
370
    -3
  6
DASHED
100
AcDbLine
 10
538.666069
 20
-166.582778
 30
0.0
 11
559.666069
 21
-166.582778
 31
0.0
  0
LINE
  5
417
100
AcDbEntity
  8
0
370
    -3
  6
DASHED
100
AcDbLine
 10
538.666069
 20
-170.582778
 30
0.0
 11
440.666069
 21
-170.582778
 31
0.0
  0
LINE
  5
418
100
AcDbEntity
  8
0
370
    -3
  6
DASHED
100
AcDbLine
 10
538.666069
 20
-166.582778
 30
0.0
 11
538.666069
 21
-192.582778
 31
0.0
  0
LINE
  5
419
100
AcDbEntity
  8
0
370
    -3
  6
DASHED
100
AcDbLine
 10
538.666069
 20
8.417222
 30
0.0
 11
538.666069
 21
-17.582778
 31
0.0
  0
LINE
  5
41A
100
AcDbEntity
  8
0
370
    -3
  6
DASHED
100
AcDbLine
 10
559.666069
 20
-17.582778
 30
0.0
 11
538.666069
 21
-17.582778
 31
0.0
  0
LINE
  5
41B
100
AcDbEntity
  8
0
370
    -3
  6
DASHED
100
AcDbLine
 10
538.666069
 20
8.417222
 30
0.0
 11
559.666069
 21
8.417222
 31
0.0
  0
LINE
  5
41C
100
AcDbEntity
  8
0
370
    -3
  6
DASHED
100
AcDbLine
 10
440.666069
 20
8.417222
 30
0.0
 11
440.666069
 21
-17.582778
 31
0.0
  0
LINE
  5
41D
100
AcDbEntity
  8
0
370
    -3
  6
DASHED
100
AcDbLine
 10
419.666069
 20
-17.582778
 30
0.0
 11
440.666069
 21
-17.582778
 31
0.0
  0
LINE
  5
41E
100
AcDbEntity
  8
0
370
    -3
  6
DASHED
100
AcDbLine
 10
538.666069
 20
-13.582778
 30
0.0
 11
440.666069
 21
-13.582778
 31
0.0
  0
LINE
  5
41F
100
AcDbEntity
  8
0
370
    -3
  6
DASHED
100
AcDbLine
 10
538.666069
 20
4.417222
 30
0.0
 11
440.666069
 21
4.417222
 31
0.0
  0
LINE
  5
420
100
AcDbEntity
  8
0
370
    -3
  6
DASHED
100
AcDbLine
 10
440.666069
 20
8.417222
 30
0.0
 11
419.666069
 21
8.417222
 31
0.0
  0
LINE
  5
421
100
AcDbEntity
  8
0
370
    -3
  6
CENTER
100
AcDbLine
 10
575.5159
 20
-73.582778
 30
0.0
 11
400.795516
 21
-73.582778
 31
0.0
  0
LINE
  5
422
100
AcDbEntity
  8
0
370
    -3
  6
CENTER
100
AcDbLine
 10
489.665897
 20
23.478432
 30
0.0
 11
489.666249
 21
-265.000006
 31
0.0
  0
LINE
  5
423
100
AcDbEntity
  8
0
370
    -3
  6
CENTER
100
AcDbLine
 10
415.213132
 20
-179.582778
 30
0.0
 11
562.711073
 21
-179.582778
 31
0.0
  0
LINE
  5
424
100
AcDbEntity
  8
0
370
    -3
  6
CENTER
100
AcDbLine
 10
415.950622
 20
-4.582778
 30
0.0
 11
562.711073
 21
-4.582778
 31
0.0
  0
LINE
  5
425
100
AcDbEntity
  8
0
370
    -3
  6
Continuous
100
AcDbLine
 10
568.666016
 20
-105.082778
 30
0.0
 11
564.666016
 21
-105.082778
 31
0.0
  0
LINE
  5
426
100
AcDbEntity
  8
0
370
    -3
  6
Continuous
100
AcDbLine
 10
568.666016
 20
-42.082778
 30
0.0
 11
568.666016
 21
-105.082778
 31
0.0
  0
LINE
  5
427
100
AcDbEntity
  8
0
370
    -3
  6
Continuous
100
AcDbLine
 10
568.666016
 20
-42.082778
 30
0.0
 11
564.666016
 21
-42.082778
 31
0.0
  0
LINE
  5
428
100
AcDbEntity
  8
0
370
    -3
  6
Continuous
100
AcDbLine
 10
410.666016
 20
-42.082778
 30
0.0
 11
410.666016
 21
-105.082778
 31
0.0
  0
LINE
  5
429
100
AcDbEntity
  8
0
370
    -3
  6
Continuous
100
AcDbLine
 10
410.666016
 20
-105.082778
 30
0.0
 11
414.666016
 21
-105.082778
 31
0.0
  0
LINE
  5
42A
100
AcDbEntity
  8
0
370
    -3
  6
Continuous
100
AcDbLine
 10
410.666016
 20
-42.082778
 30
0.0
 11
414.666016
 21
-42.082778
 31
0.0
  0
ARC
  5
42B
100
AcDbEntity
  8
0
370
    -3
  6
DASHED
100
AcDbCircle
 10
263.666016
 20
-117.582778
 30
0.0
 40
300.8
100
AcDbArc
 50
360.0
 51
4.33985
  0
ARC
  5
42C
100
AcDbEntity
  8
0
370
    -3
  6
DASHED
100
AcDbCircle
 10
263.666016
 20
-117.582778
 30
0.0
 40
300.8
100
AcDbArc
 50
357.427683
 51
0.0
  0
ARC
  5
42D
100
AcDbEntity
  8
0
370
    -3
  6
DASHED
100
AcDbCircle
 10
512.949201
 20
-98.664711
 30
0.0
 40
50.8
100
AcDbArc
 50
4.33985
 51
39.094568
  0
ARC
  5
42E
100
AcDbEntity
  8
0
370
    -3
  6
DASHED
100
AcDbCircle
 10
489.666016
 20
-117.582778
 30
0.0
 40
80.8
100
AcDbArc
 50
39.094568
 51
50.905432
  0
ARC
  5
42F
100
AcDbEntity
  8
0
370
    -3
  6
DASHED
100
AcDbCircle
 10
489.666016
 20
-343.582778
 30
0.0
 40
300.8
100
AcDbArc
 50
90.0
 51
94.33985
  0
ARC
  5
430
100
AcDbEntity
  8
0
370
    -3
  6
DASHED
100
AcDbCircle
 10
508.584083
 20
-94.299592
 30
0.0
 40
50.8
100
AcDbArc
 50
50.905432
 51
85.66015
  0
ARC
  5
431
100
AcDbEntity
  8
0
370
    -3
  6
DASHED
100
AcDbCircle
 10
489.666016
 20
-343.582778
 30
0.0
 40
300.8
100
AcDbArc
 50
85.66015
 51
90.0
  0
ARC
  5
432
100
AcDbEntity
  8
0
370
    -3
  6
DASHED
100
AcDbCircle
 10
470.747949
 20
-94.299592
 30
0.0
 40
50.8
100
AcDbArc
 50
94.33985
 51
129.094568
  0
ARC
  5
433
100
AcDbEntity
  8
0
370
    -3
  6
DASHED
100
AcDbCircle
 10
466.38283
 20
-98.664711
 30
0.0
 40
50.8
100
AcDbArc
 50
140.905432
 51
175.66015
  0
ARC
  5
434
100
AcDbEntity
  8
0
370
    -3
  6
DASHED
100
AcDbCircle
 10
489.666016
 20
-117.582778
 30
0.0
 40
80.8
100
AcDbArc
 50
129.094568
 51
140.905432
  0
ARC
  5
435
100
AcDbEntity
  8
0
370
    -3
  6
DASHED
100
AcDbCircle
 10
715.666016
 20
-117.582778
 30
0.0
 40
300.8
100
AcDbArc
 50
180.0
 51
182.572317
  0
ARC
  5
436
100
AcDbEntity
  8
0
370
    -3
  6
DASHED
100
AcDbCircle
 10
715.666016
 20
-117.582778
 30
0.0
 40
300.8
100
AcDbArc
 50
175.66015
 51
180.0
  0
ARC
  5
437
100
AcDbEntity
  8
0
370
    -3
  6
DASHED
100
AcDbCircle
 10
466.38283
 20
-136.500845
 30
0.0
 40
50.8
100
AcDbArc
 50
203.129069
 51
219.094568
  0
ARC
  5
438
100
AcDbEntity
  8
0
370
    -3
  6
DASHED
100
AcDbCircle
 10
489.666016
 20
-117.582778
 30
0.0
 40
80.8
100
AcDbArc
 50
219.094568
 51
230.905432
  0
ARC
  5
439
100
AcDbEntity
  8
0
370
    -3
  6
DASHED
100
AcDbCircle
 10
489.666016
 20
108.417222
 30
0.0
 40
300.8
100
AcDbArc
 50
265.66015
 51
270.0
  0
ARC
  5
43A
100
AcDbEntity
  8
0
370
    -3
  6
DASHED
100
AcDbCircle
 10
470.747949
 20
-140.865964
 30
0.0
 40
50.8
100
AcDbArc
 50
230.905432
 51
265.66015
  0
ARC
  5
43B
100
AcDbEntity
  8
0
370
    -3
  6
DASHED
100
AcDbCircle
 10
508.584083
 20
-140.865964
 30
0.0
 40
50.8
100
AcDbArc
 50
274.33985
 51
309.094568
  0
ARC
  5
43C
100
AcDbEntity
  8
0
370
    -3
  6
DASHED
100
AcDbCircle
 10
489.666016
 20
108.417222
 30
0.0
 40
300.8
100
AcDbArc
 50
270.0
 51
274.33985
  0
ARC
  5
43D
100
AcDbEntity
  8
0
370
    -3
  6
DASHED
100
AcDbCircle
 10
489.666016
 20
-117.582778
 30
0.0
 40
80.8
100
AcDbArc
 50
309.094568
 51
320.905432
  0
ARC
  5
43E
100
AcDbEntity
  8
0
370
    -3
  6
DASHED
100
AcDbCircle
 10
512.949201
 20
-136.500845
 30
0.0
 40
50.8
100
AcDbArc
 50
320.905432
 51
336.870931
  0
ARC
  5
43F
100
AcDbEntity
  8
0
370
    -3
  6
Continuous
100
AcDbCircle
 10
512.949201
 20
-136.500845
 30
0.0
 40
50.8
100
AcDbArc
 50
336.870931
 51
355.66015
  0
ARC
  5
440
100
AcDbEntity
  8
0
370
    -3
  6
Continuous
100
AcDbCircle
 10
263.666016
 20
-117.582778
 30
0.0
 40
300.8
100
AcDbArc
 50
355.66015
 51
357.427683
  0
ARC
  5
441
100
AcDbEntity
  8
0
370
    -3
  6
Continuous
100
AcDbCircle
 10
466.38283
 20
-136.500845
 30
0.0
 40
50.8
100
AcDbArc
 50
184.33985
 51
203.129069
  0
ARC
  5
442
100
AcDbEntity
  8
0
370
    -3
  6
Continuous
100
AcDbCircle
 10
715.666016
 20
-117.582778
 30
0.0
 40
300.8
100
AcDbArc
 50
182.572317
 51
184.33985
  0
LINE
  5
443
100
AcDbEntity
  8
0
370
    -3
  6
Continuous
100
AcDbLine
 10
414.666016
 20
-130.682778
 30
0.0
 11
414.666016
 21
-73.582778
 31
0.0
  0
LINE
  5
444
100
AcDbEntity
  8
0
370
    -3
  6
Continuous
100
AcDbLine
 10
414.666016
 20
-130.682778
 30
0.0
 11
415.066016
 21
-131.082778
 31
0.0
  0
LINE
  5
445
100
AcDbEntity
  8
0
370
    -3
  6
Continuous
100
AcDbLine
 10
419.666016
 20
-131.082778
 30
0.0
 11
415.066016
 21
-131.082778
 31
0.0
  0
LINE
  5
446
100
AcDbEntity
  8
0
370
    -3
  6
Continuous
100
AcDbLine
 10
564.666016
 20
-130.682778
 30
0.0
 11
564.666016
 21
-73.582778
 31
0.0
  0
LINE
  5
447
100
AcDbEntity
  8
0
370
    -3
  6
Continuous
100
AcDbLine
 10
564.666016
 20
-130.682778
 30
0.0
 11
564.266016
 21
-131.082778
 31
0.0
  0
LINE
  5
448
100
AcDbEntity
  8
0
370
    -3
  6
Continuous
100
AcDbLine
 10
559.666016
 20
-131.082778
 30
0.0
 11
564.266016
 21
-131.082778
 31
0.0
  0
LINE
  5
449
100
AcDbEntity
  8
0
370
    -3
  6
Continuous
100
AcDbLine
 10
414.666016
 20
-16.482778
 30
0.0
 11
414.666016
 21
-73.582778
 31
0.0
  0
LINE
  5
44A
100
AcDbEntity
  8
0
370
    -3
  6
Continuous
100
AcDbLine
 10
414.666016
 20
-16.482778
 30
0.0
 11
415.066016
 21
-16.082778
 31
0.0
  0
LINE
  5
44B
100
AcDbEntity
  8
0
370
    -3
  6
Continuous
100
AcDbLine
 10
419.666016
 20
-16.082778
 30
0.0
 11
415.066016
 21
-16.082778
 31
0.0
  0
LINE
  5
44C
100
AcDbEntity
  8
0
370
    -3
  6
Continuous
100
AcDbLine
 10
564.666016
 20
-16.482778
 30
0.0
 11
564.666016
 21
-73.582778
 31
0.0
  0
LINE
  5
44D
100
AcDbEntity
  8
0
370
    -3
  6
Continuous
100
AcDbLine
 10
564.666016
 20
-16.482778
 30
0.0
 11
564.266016
 21
-16.082778
 31
0.0
  0
LINE
  5
44E
100
AcDbEntity
  8
0
370
    -3
  6
Continuous
100
AcDbLine
 10
559.666016
 20
-16.082778
 30
0.0
 11
564.266016
 21
-16.082778
 31
0.0
  0
LINE
  5
44F
100
AcDbEntity
  8
0
370
    -3
  6
CENTER
100
AcDbLine
 10
514.846331
 20
-117.582778
 30
0.0
 11
462.549954
 21
-117.582778
 31
0.0
  0
LINE
  5
450
100
AcDbEntity
  8
0
370
    -3
  6
Continuous
100
AcDbLine
 10
559.166016
 20
-195.082778
 30
0.0
 11
550.666016
 21
-195.082778
 31
0.0
  0
LINE
  5
451
100
AcDbEntity
  8
0
370
    -3
  6
Continuous
100
AcDbLine
 10
550.666016
 20
-195.082778
 30
0.0
 11
431.666016
 21
-197.582778
 31
0.0
  0
LINE
  5
452
100
AcDbEntity
  8
0
370
    -3
  6
Continuous
100
AcDbLine
 10
431.666016
 20
13.417222
 30
0.0
 11
431.666016
 21
-197.582778
 31
0.0
  0
LINE
  5
453
100
AcDbEntity
  8
0
370
    -3
  6
Continuous
100
AcDbLine
 10
559.166016
 20
10.917222
 30
0.0
 11
550.666016
 21
10.917222
 31
0.0
  0
LINE
  5
454
100
AcDbEntity
  8
0
370
    -3
  6
Continuous
100
AcDbLine
 10
559.666016
 20
-194.582778
 30
0.0
 11
559.166016
 21
-195.082778
 31
0.0
  0
LINE
  5
455
100
AcDbEntity
  8
0
370
    -3
  6
Continuous
100
AcDbLine
 10
559.666016
 20
-141.582777
 30
0.0
 11
559.666016
 21
-194.582778
 31
0.0
  0
LINE
  5
456
100
AcDbEntity
  8
0
370
    -3
  6
Continuous
100
AcDbLine
 10
559.666016
 20
10.417222
 30
0.0
 11
559.666016
 21
-93.582777
 31
0.0
  0
LINE
  5
457
100
AcDbEntity
  8
0
370
    -3
  6
Continuous
100
AcDbLine
 10
559.666016
 20
10.417222
 30
0.0
 11
559.166016
 21
10.917222
 31
0.0
  0
LINE
  5
458
100
AcDbEntity
  8
0
370
    -3
  6
Continuous
100
AcDbLine
 10
559.666016
 20
-93.582777
 30
0.0
 11
559.666016
 21
-141.582777
 31
0.0
  0
LINE
  5
459
100
AcDbEntity
  8
0
370
    -3
  6
Continuous
100
AcDbLine
 10
420.16307
 20
12.493919
 30
0.0
 11
419.666016
 21
11.957161
 31
0.0
  0
LINE
  5
45A
100
AcDbEntity
  8
0
370
    -3
  6
Continuous
100
AcDbLine
 10
419.666016
 20
-196.122716
 30
0.0
 11
420.16307
 21
-196.659474
 31
0.0
  0
LINE
  5
45B
100
AcDbEntity
  8
0
370
    -3
  6
Continuous
100
AcDbLine
 10
431.666016
 20
-197.544316
 30
0.0
 11
420.16307
 21
-196.659474
 31
0.0
  0
LINE
  5
45C
100
AcDbEntity
  8
0
370
    -3
  6
Continuous
100
AcDbLine
 10
419.666016
 20
-196.122716
 30
0.0
 11
420.16307
 21
-196.659474
 31
0.0
  0
LINE
  5
45D
100
AcDbEntity
  8
0
370
    -3
  6
Continuous
100
AcDbLine
 10
420.16307
 20
12.493919
 30
0.0
 11
419.666016
 21
11.957161
 31
0.0
  0
LINE
  5
45E
100
AcDbEntity
  8
0
370
    -3
  6
Continuous
100
AcDbLine
 10
431.666016
 20
13.378761
 30
0.0
 11
420.16307
 21
12.493919
 31
0.0
  0
LINE
  5
45F
100
AcDbEntity
  8
0
370
    -3
  6
Continuous
100
AcDbLine
 10
431.666016
 20
-73.582778
 30
0.0
 11
431.666016
 21
13.417222
 31
0.0
  0
LINE
  5
460
100
AcDbEntity
  8
0
370
    -3
  6
Continuous
100
AcDbLine
 10
431.666016
 20
-73.582778
 30
0.0
 11
431.666016
 21
-197.582778
 31
0.0
  0
LINE
  5
461
100
AcDbEntity
  8
0
370
    -3
  6
Continuous
100
AcDbLine
 10
419.666016
 20
-73.582778
 30
0.0
 11
419.666016
 21
11.957161
 31
0.0
  0
LINE
  5
462
100
AcDbEntity
  8
0
370
    -3
  6
Continuous
100
AcDbLine
 10
419.666016
 20
-73.582778
 30
0.0
 11
419.666016
 21
-196.122716
 31
0.0
  0
ARC
  5
463
100
AcDbEntity
  8
0
370
    -3
  6
Continuous
100
AcDbCircle
 10
490.166016
 20
-117.582777
 30
0.0
 40
74.0
100
AcDbArc
 50
197.502524
 51
197.69223
  0
LINE
  5
464
100
AcDbEntity
  8
0
370
    -3
  6
Continuous
100
AcDbLine
 10
550.666016
 20
10.917222
 30
0.0
 11
431.666016
 21
13.417222
 31
0.0
  0
MTEXT
  5
466
100
AcDbEntity
  8
0
370
    -3
  6
Continuous
100
AcDbMText
 10
-660.383484
 20
226.734314
 30
0.0
 40
15.0
 41
0.0
 71
     7
 72
     1
  1
\W0.48;GV-SHYF-RH
  7
ZU_SHPTB00001
 11
1.0
 21
0.0
 31
0.0
 73
     1
 44
1.0
  0
MTEXT
  5
467
100
AcDbEntity
  8
0
370
    -3
  6
Continuous
100
AcDbMText
 10
-660.383484
 20
243.684326
 30
0.0
 40
15.0
 41
0.0
 71
     7
 72
     1
  1
\W0.63;三菱ギヤードモータ  
  7
ZU_SHPTB00001
 11
1.0
 21
0.0
 31
0.0
 73
     1
 44
1.0
  0
MTEXT
  5
468
100
AcDbEntity
  8
0
370
    -3
  6
Continuous
100
AcDbMText
 10
-660.383484
 20
243.684326
 30
0.0
 40
15.0
 41
0.0
 71
     7
 72
     1
  1
\W0.63;三菱ギヤードモータ  
  7
ZU_SHPTB00001
 11
1.0
 21
0.0
 31
0.0
 73
     1
 44
1.0
  0
MTEXT
  5
469
100
AcDbEntity
  8
0
370
    -3
  6
Continuous
100
AcDbMText
 10
-660.383484
 20
158.934296
 30
0.0
 40
15.0
 41
0.0
 71
     7
 72
     1
  1
\W0.43;SCALE\W0.72;  \W0.43;1/1
  7
ZU_SHPTB00001
 11
1.0
 21
0.0
 31
0.0
 73
     1
 44
1.0
  0
MTEXT
  5
46A
100
AcDbEntity
  8
0
370
    -3
  6
Continuous
100
AcDbMText
 10
-660.383484
 20
192.83432
 30
0.0
 40
15.0
 41
0.0
 71
     7
 72
     1
  1
\W0.43;37.5-12.5r/min\W0.53;　
  7
ZU_SHPTB00001
 11
1.0
 21
0.0
 31
0.0
 73
     1
 44
1.0
  0
MTEXT
  5
46B
100
AcDbEntity
  8
0
370
    -3
  6
Continuous
100
AcDbMText
 10
-660.383484
 20
175.884308
 30
0.0
 40
15.0
 41
0.0
 71
     7
 72
     1
  1
\W0.42;GEAR\W0.70; \W0.42;RATIO\W0.70;  \W0.42;1/80-1/240
  7
ZU_SHPTB00001
 11
1.0
 21
0.0
 31
0.0
 73
     1
 44
1.0
  0
MTEXT
  5
46C
100
AcDbEntity
  8
0
370
    -3
  6
Continuous
100
AcDbMText
 10
-660.383484
 20
209.784302
 30
0.0
 40
15.0
 41
0.0
 71
     7
 72
     1
  1
\W0.43;1.5kW
  7
ZU_SHPTB00001
 11
1.0
 21
0.0
 31
0.0
 73
     1
 44
1.0
  0
MTEXT
  5
46D
100
AcDbEntity
  8
0
370
    -3
  6
Continuous
100
AcDbMText
 10
-660.383484
 20
141.934296
 30
0.0
 40
15.0
 41
0.0
 71
     7
 72
     1
  1
\W0.43;DATE\W0.72; \W0.43;2012.01.15
  7
ZU_SHPTB00001
 11
1.0
 21
0.0
 31
0.0
 73
     1
 44
1.0
  0
LINE
  5
46E
100
AcDbEntity
  8
0
370
    -3
  6
Continuous
100
AcDbLine
 10
-564.833922
 20
-203.582778
 30
0.0
 11
-595.833922
 21
-203.582778
 31
0.0
  0
LINE
  5
46F
100
AcDbEntity
  8
0
370
    -3
  6
Continuous
100
AcDbLine
 10
-595.833922
 20
-203.582778
 30
0.0
 11
-595.833922
 21
-201.982778
 31
0.0
  0
LINE
  5
470
100
AcDbEntity
  8
0
370
    -3
  6
Continuous
100
AcDbLine
 10
-595.833922
 20
-203.582778
 30
0.0
 11
-595.833922
 21
-204.582778
 31
0.0
  0
LINE
  5
471
100
AcDbEntity
  8
0
370
    -3
  6
Continuous
100
AcDbLine
 10
-564.833922
 20
-203.582778
 30
0.0
 11
-533.833922
 21
-203.582778
 31
0.0
  0
LINE
  5
472
100
AcDbEntity
  8
0
370
    -3
  6
Continuous
100
AcDbLine
 10
-564.833922
 20
-203.582778
 30
0.0
 11
-533.833922
 21
-203.582778
 31
0.0
  0
LINE
  5
473
100
AcDbEntity
  8
0
370
    -3
  6
Continuous
100
AcDbLine
 10
-533.833922
 20
-203.582778
 30
0.0
 11
-533.833922
 21
-201.982778
 31
0.0
  0
LINE
  5
474
100
AcDbEntity
  8
0
370
    -3
  6
Continuous
100
AcDbLine
 10
-533.833922
 20
-203.582778
 30
0.0
 11
-533.833922
 21
-204.582778
 31
0.0
  0
ARC
  5
475
100
AcDbEntity
  8
0
370
    -3
  6
Continuous
100
AcDbCircle
 10
-564.833922
 20
-230.582778
 30
0.0
 40
17.0
100
AcDbArc
 50
270.0
 51
90.0
  0
ARC
  5
476
100
AcDbEntity
  8
0
370
    -3
  6
Continuous
100
AcDbCircle
 10
-564.833922
 20
-230.582778
 30
0.0
 40
12.0585
100
AcDbArc
 50
270.0
 51
90.0
  0
ARC
  5
477
100
AcDbEntity
  8
0
370
    -3
  6
Continuous
100
AcDbCircle
 10
-564.833922
 20
-230.582778
 30
0.0
 40
13.2205
100
AcDbArc
 50
270.0
 51
90.0
  0
ARC
  5
478
100
AcDbEntity
  8
0
370
    -3
  6
Continuous
100
AcDbCircle
 10
-603.833922
 20
-214.138301
 30
0.0
 40
7.8
100
AcDbArc
 50
90.0
 51
180.0
  0
LINE
  5
479
100
AcDbEntity
  8
0
370
    -3
  6
Continuous
100
AcDbLine
 10
-610.833922
 20
-244.051313
 30
0.0
 11
-610.833922
 21
-213.676396
 31
0.0
  0
ARC
  5
47A
100
AcDbEntity
  8
0
370
    -3
  6
Continuous
100
AcDbCircle
 10
-603.833922
 20
-244.051313
 30
0.0
 40
7.0
100
AcDbArc
 50
180.0
 51
270.0
  0
ARC
  5
47B
100
AcDbEntity
  8
0
370
    -3
  6
Continuous
100
AcDbCircle
 10
-603.833922
 20
-243.589408
 30
0.0
 40
7.8
100
AcDbArc
 50
180.0
 51
270.0
  0
ARC
  5
47C
100
AcDbEntity
  8
0
370
    -3
  6
Continuous
100
AcDbCircle
 10
-603.833922
 20
-248.253926
 30
0.0
 40
7.8
100
AcDbArc
 50
180.0
 51
270.0
  0
ELLIPSE
  5
47D
100
AcDbEntity
  8
0
370
    -3
  6
Continuous
100
AcDbEllipse
 10
-604.333922
 20
-254.168517
 30
0.0
 11
3.5
 21
0.0
 31
0.0
210
0.0
220
0.0
230
1.0
 40
0.656603
 41
3.5746436290433126
 42
5.32104594266894
  0
LINE
  5
47E
100
AcDbEntity
  8
0
370
    -3
  6
Continuous
100
AcDbLine
 10
-611.633922
 20
-248.253926
 30
0.0
 11
-611.633922
 21
-214.138301
 31
0.0
  0
LINE
  5
47F
100
AcDbEntity
  8
0
370
    -3
  6
Continuous
100
AcDbLine
 10
-564.833922
 20
-251.051313
 30
0.0
 11
-603.833922
 21
-251.051313
 31
0.0
  0
LINE
  5
480
100
AcDbEntity
  8
0
370
    -3
  6
Continuous
100
AcDbLine
 10
-603.833922
 20
-256.053926
 30
0.0
 11
-564.833922
 21
-256.053926
 31
0.0
  0
LINE
  5
481
100
AcDbEntity
  8
0
370
    -3
  6
Continuous
100
AcDbLine
 10
-595.833922
 20
-204.582778
 30
0.0
 11
-564.833922
 21
-204.582778
 31
0.0
  0
ARC
  5
482
100
AcDbEntity
  8
0
370
    -3
  6
Continuous
100
AcDbCircle
 10
-603.833922
 20
-213.676396
 30
0.0
 40
7.0
100
AcDbArc
 50
90.0
 51
180.0
  0
LINE
  5
483
100
AcDbEntity
  8
0
370
    -3
  6
Continuous
100
AcDbLine
 10
-564.833922
 20
-204.582778
 30
0.0
 11
-592.833922
 21
-204.582778
 31
0.0
  0
LINE
  5
484
100
AcDbEntity
  8
0
370
    -3
  6
Continuous
100
AcDbLine
 10
-564.833922
 20
-249.818689
 30
0.0
 11
-590.892956
 21
-249.818689
 31
0.0
  0
LINE
  5
485
100
AcDbEntity
  8
0
370
    -3
  6
Continuous
100
AcDbLine
 10
-604.133922
 20
-212.382778
 30
0.0
 11
-604.133922
 21
-242.015636
 31
0.0
  0
LINE
  5
486
100
AcDbEntity
  8
0
370
    -3
  6
Continuous
100
AcDbLine
 10
-592.376352
 20
-249.517194
 30
0.0
 11
-601.817319
 21
-245.51414
 31
0.0
  0
ARC
  5
487
100
AcDbEntity
  8
0
370
    -3
  6
Continuous
100
AcDbCircle
 10
-590.892956
 20
-246.018689
 30
0.0
 40
3.8
100
AcDbArc
 50
247.022625
 51
270.0
  0
ARC
  5
488
100
AcDbEntity
  8
0
370
    -3
  6
Continuous
100
AcDbCircle
 10
-600.333922
 20
-242.015636
 30
0.0
 40
3.8
100
AcDbArc
 50
180.0
 51
247.022625
  0
LINE
  5
489
100
AcDbEntity
  8
0
370
    -3
  6
Continuous
100
AcDbLine
 10
-564.833922
 20
-205.582778
 30
0.0
 11
-597.333922
 21
-205.582778
 31
0.0
  0
ARC
  5
48A
100
AcDbEntity
  8
0
370
    -3
  6
Continuous
100
AcDbCircle
 10
-597.333922
 20
-212.382778
 30
0.0
 40
6.8
100
AcDbArc
 50
90.0
 51
180.0
  0
LINE
  5
48B
100
AcDbEntity
  8
0
370
    -3
  6
Continuous
100
AcDbLine
 10
-603.285111
 20
-209.092891
 30
0.0
 11
-604.333922
 21
-209.092891
 31
0.0
  0
ARC
  5
48C
100
AcDbEntity
  8
0
370
    -3
  6
Continuous
100
AcDbCircle
 10
-604.333922
 20
-215.092891
 30
0.0
 40
6.0
100
AcDbArc
 50
90.0
 51
180.0
  0
ARC
  5
48D
100
AcDbEntity
  8
0
370
    -3
  6
Continuous
100
AcDbCircle
 10
-594.098833
 20
-205.282778
 30
0.0
 40
0.3
100
AcDbArc
 50
270.0
 51
346.657636
  0
ARC
  5
48E
100
AcDbEntity
  8
0
370
    -3
  6
Continuous
100
AcDbCircle
 10
-592.833922
 20
-205.582778
 30
0.0
 40
1.0
100
AcDbArc
 50
90.0
 51
166.657636
  0
LINE
  5
48F
100
AcDbEntity
  8
0
370
    -3
  6
CENTER
100
AcDbLine
 10
-604.333922
 20
-247.694041
 30
0.0
 11
-604.333922
 21
-252.1388
 31
0.0
  0
LINE
  5
490
100
AcDbEntity
  8
0
370
    -3
  6
CENTER
100
AcDbLine
 10
-607.198781
 20
-250.086862
 30
0.0
 11
-601.587391
 21
-250.086862
 31
0.0
  0
ELLIPSE
  5
491
100
AcDbEntity
  8
0
370
    -3
  6
Continuous
100
AcDbEllipse
 10
-604.333922
 20
-250.086862
 30
0.0
 11
1.6499999999999773
 21
0.0
 31
0.0
210
0.0
220
0.0
230
1.0
 40
0.422618
 41
0.0
 42
6.2831853071795862
  0
ELLIPSE
  5
492
100
AcDbEntity
  8
0
370
    -3
  6
Continuous
100
AcDbEllipse
 10
-604.333922
 20
-250.086862
 30
0.0
 11
2.0
 21
0.0
 31
0.0
210
0.0
220
0.0
230
1.0
 40
0.422618
 41
0.0
 42
6.2831853071795862
  0
LINE
  5
493
100
AcDbEntity
  8
0
370
    -3
  6
Continuous
100
AcDbLine
 10
-601.032192
 20
-206.676396
 30
0.0
 11
-603.833922
 21
-206.676396
 31
0.0
  0
LINE
  5
494
100
AcDbEntity
  8
0
370
    -3
  6
Continuous
100
AcDbLine
 10
-603.833922
 20
-206.338301
 30
0.0
 11
-600.449095
 21
-206.338301
 31
0.0
  0
LINE
  5
495
100
AcDbEntity
  8
0
370
    -3
  6
Continuous
100
AcDbLine
 10
-610.333922
 20
-215.092891
 30
0.0
 11
-610.333922
 21
-246.649389
 31
0.0
  0
LINE
  5
496
100
AcDbEntity
  8
0
370
    -3
  6
Continuous
100
AcDbLine
 10
-564.833922
 20
-251.389408
 30
0.0
 11
-603.833922
 21
-251.389408
 31
0.0
  0
LINE
  5
497
100
AcDbEntity
  8
0
370
    -3
  6
CENTER
100
AcDbLine
 10
-546.18899
 20
-230.582778
 30
0.0
 11
-586.134379
 21
-230.582778
 31
0.0
  0
ARC
  5
498
100
AcDbEntity
  8
0
370
    -3
  6
Continuous
100
AcDbCircle
 10
-525.833922
 20
-214.138301
 30
0.0
 40
7.8
100
AcDbArc
 50
0.0
 51
90.0
  0
LINE
  5
499
100
AcDbEntity
  8
0
370
    -3
  6
Continuous
100
AcDbLine
 10
-518.833922
 20
-244.051313
 30
0.0
 11
-518.833922
 21
-213.676396
 31
0.0
  0
ARC
  5
49A
100
AcDbEntity
  8
0
370
    -3
  6
Continuous
100
AcDbCircle
 10
-525.833922
 20
-244.051313
 30
0.0
 40
7.0
100
AcDbArc
 50
270.0
 51
0.0
  0
ARC
  5
49B
100
AcDbEntity
  8
0
370
    -3
  6
Continuous
100
AcDbCircle
 10
-525.833922
 20
-243.589408
 30
0.0
 40
7.8
100
AcDbArc
 50
270.0
 51
0.0
  0
ARC
  5
49C
100
AcDbEntity
  8
0
370
    -3
  6
Continuous
100
AcDbCircle
 10
-525.833922
 20
-248.253926
 30
0.0
 40
7.8
100
AcDbArc
 50
270.0
 51
0.0
  0
ELLIPSE
  5
49D
100
AcDbEntity
  8
0
370
    -3
  6
Continuous
100
AcDbEllipse
 10
-525.333922
 20
-254.168517
 30
0.0
 11
3.5
 21
0.0
 31
0.0
210
0.0
220
0.0
230
1.0
 40
0.656603
 41
4.103732018100386
 42
5.8501343317260392
  0
LINE
  5
49E
100
AcDbEntity
  8
0
370
    -3
  6
Continuous
100
AcDbLine
 10
-518.033922
 20
-248.253926
 30
0.0
 11
-518.033922
 21
-214.138301
 31
0.0
  0
LINE
  5
49F
100
AcDbEntity
  8
0
370
    -3
  6
Continuous
100
AcDbLine
 10
-564.833922
 20
-251.051313
 30
0.0
 11
-525.833922
 21
-251.051313
 31
0.0
  0
LINE
  5
4A0
100
AcDbEntity
  8
0
370
    -3
  6
Continuous
100
AcDbLine
 10
-525.833922
 20
-256.053926
 30
0.0
 11
-564.833922
 21
-256.053926
 31
0.0
  0
LINE
  5
4A1
100
AcDbEntity
  8
0
370
    -3
  6
Continuous
100
AcDbLine
 10
-533.833922
 20
-204.582778
 30
0.0
 11
-564.833922
 21
-204.582778
 31
0.0
  0
ARC
  5
4A2
100
AcDbEntity
  8
0
370
    -3
  6
Continuous
100
AcDbCircle
 10
-525.833922
 20
-213.676396
 30
0.0
 40
7.0
100
AcDbArc
 50
0.0
 51
90.0
  0
LINE
  5
4A3
100
AcDbEntity
  8
0
370
    -3
  6
Continuous
100
AcDbLine
 10
-564.833922
 20
-204.582778
 30
0.0
 11
-536.833922
 21
-204.582778
 31
0.0
  0
LINE
  5
4A4
100
AcDbEntity
  8
0
370
    -3
  6
Continuous
100
AcDbLine
 10
-564.833922
 20
-249.818689
 30
0.0
 11
-538.774889
 21
-249.818689
 31
0.0
  0
LINE
  5
4A5
100
AcDbEntity
  8
0
370
    -3
  6
Continuous
100
AcDbLine
 10
-525.533922
 20
-212.382778
 30
0.0
 11
-525.533922
 21
-242.015636
 31
0.0
  0
LINE
  5
4A6
100
AcDbEntity
  8
0
370
    -3
  6
Continuous
100
AcDbLine
 10
-537.291492
 20
-249.517194
 30
0.0
 11
-527.850525
 21
-245.51414
 31
0.0
  0
ARC
  5
4A7
100
AcDbEntity
  8
0
370
    -3
  6
Continuous
100
AcDbCircle
 10
-538.774889
 20
-246.018689
 30
0.0
 40
3.8
100
AcDbArc
 50
270.0
 51
292.977375
  0
ARC
  5
4A8
100
AcDbEntity
  8
0
370
    -3
  6
Continuous
100
AcDbCircle
 10
-529.333922
 20
-242.015636
 30
0.0
 40
3.8
100
AcDbArc
 50
292.977375
 51
0.0
  0
LINE
  5
4A9
100
AcDbEntity
  8
0
370
    -3
  6
Continuous
100
AcDbLine
 10
-564.833922
 20
-205.582778
 30
0.0
 11
-532.333922
 21
-205.582778
 31
0.0
  0
ARC
  5
4AA
100
AcDbEntity
  8
0
370
    -3
  6
Continuous
100
AcDbCircle
 10
-532.333922
 20
-212.382778
 30
0.0
 40
6.8
100
AcDbArc
 50
0.0
 51
90.0
  0
LINE
  5
4AB
100
AcDbEntity
  8
0
370
    -3
  6
Continuous
100
AcDbLine
 10
-526.382734
 20
-209.092891
 30
0.0
 11
-525.333922
 21
-209.092891
 31
0.0
  0
ARC
  5
4AC
100
AcDbEntity
  8
0
370
    -3
  6
Continuous
100
AcDbCircle
 10
-525.333922
 20
-215.092891
 30
0.0
 40
6.0
100
AcDbArc
 50
0.0
 51
90.0
  0
ARC
  5
4AD
100
AcDbEntity
  8
0
370
    -3
  6
Continuous
100
AcDbCircle
 10
-535.569011
 20
-205.282778
 30
0.0
 40
0.3
100
AcDbArc
 50
193.342364
 51
270.0
  0
ARC
  5
4AE
100
AcDbEntity
  8
0
370
    -3
  6
Continuous
100
AcDbCircle
 10
-536.833922
 20
-205.582778
 30
0.0
 40
1.0
100
AcDbArc
 50
13.342364
 51
90.0
  0
LINE
  5
4AF
100
AcDbEntity
  8
0
370
    -3
  6
CENTER
100
AcDbLine
 10
-525.333922
 20
-247.694041
 30
0.0
 11
-525.333922
 21
-252.1388
 31
0.0
  0
LINE
  5
4B0
100
AcDbEntity
  8
0
370
    -3
  6
CENTER
100
AcDbLine
 10
-522.469063
 20
-250.086862
 30
0.0
 11
-528.080453
 21
-250.086862
 31
0.0
  0
ELLIPSE
  5
4B1
100
AcDbEntity
  8
0
370
    -3
  6
Continuous
100
AcDbEllipse
 10
-525.333922
 20
-250.086862
 30
0.0
 11
-1.6499999999999773
 21
0.0
 31
0.0
210
0.0
220
0.0
230
1.0
 40
0.422618
 41
0.0
 42
6.2831853071795862
  0
ELLIPSE
  5
4B2
100
AcDbEntity
  8
0
370
    -3
  6
Continuous
100
AcDbEllipse
 10
-525.333922
 20
-250.086862
 30
0.0
 11
-2.0
 21
0.0
 31
0.0
210
0.0
220
0.0
230
1.0
 40
0.422618
 41
0.0
 42
6.2831853071795862
  0
LINE
  5
4B3
100
AcDbEntity
  8
0
370
    -3
  6
Continuous
100
AcDbLine
 10
-528.635652
 20
-206.676396
 30
0.0
 11
-525.833922
 21
-206.676396
 31
0.0
  0
LINE
  5
4B4
100
AcDbEntity
  8
0
370
    -3
  6
Continuous
100
AcDbLine
 10
-525.833922
 20
-206.338301
 30
0.0
 11
-529.218749
 21
-206.338301
 31
0.0
  0
LINE
  5
4B5
100
AcDbEntity
  8
0
370
    -3
  6
Continuous
100
AcDbLine
 10
-519.333922
 20
-215.092891
 30
0.0
 11
-519.333922
 21
-246.649389
 31
0.0
  0
LINE
  5
4B6
100
AcDbEntity
  8
0
370
    -3
  6
Continuous
100
AcDbLine
 10
-564.833922
 20
-251.389408
 30
0.0
 11
-525.833922
 21
-251.389408
 31
0.0
  0
ARC
  5
4B7
100
AcDbEntity
  8
0
370
    -3
  6
Continuous
100
AcDbCircle
 10
-564.833922
 20
-230.582778
 30
0.0
 40
17.0
100
AcDbArc
 50
90.0
 51
270.0
  0
ARC
  5
4B8
100
AcDbEntity
  8
0
370
    -3
  6
Continuous
100
AcDbCircle
 10
-564.833922
 20
-230.582778
 30
0.0
 40
12.0585
100
AcDbArc
 50
90.0
 51
270.0
  0
ARC
  5
4B9
100
AcDbEntity
  8
0
370
    -3
  6
Continuous
100
AcDbCircle
 10
-564.833922
 20
-230.582778
 30
0.0
 40
13.2205
100
AcDbArc
 50
90.0
 51
270.0
  0
LINE
  5
4BA
100
AcDbEntity
  8
0
370
    -3
  6
Continuous
100
AcDbLine
 10
-591.665293
 20
-212.382778
 30
0.0
 11
-591.665293
 21
-249.739374
 31
0.0
  0
ARC
  5
4BB
100
AcDbEntity
  8
0
370
    -3
  6
Continuous
100
AcDbCircle
 10
-584.865293
 20
-212.382778
 30
0.0
 40
6.8
100
AcDbArc
 50
90.0
 51
180.0
  0
ARC
  5
4BC
100
AcDbEntity
  8
0
370
    -3
  6
Continuous
100
AcDbCircle
 10
-544.802551
 20
-212.382778
 30
0.0
 40
6.8
100
AcDbArc
 50
0.0
 51
90.0
  0
LINE
  5
4BD
100
AcDbEntity
  8
0
370
    -3
  6
Continuous
100
AcDbLine
 10
-538.002551
 20
-212.382778
 30
0.0
 11
-538.002551
 21
-249.739374
 31
0.0
  0
ARC
  5
4BE
100
AcDbEntity
  8
0
370
    -3
  6
Continuous
100
AcDbCircle
 10
-591.433922
 20
-199.982778
 30
0.0
 40
2.0
100
AcDbArc
 50
270.0
 51
0.0
  0
LINE
  5
4BF
100
AcDbEntity
  8
0
370
    -3
  6
Continuous
100
AcDbLine
 10
-595.833922
 20
-201.982778
 30
0.0
 11
-591.433922
 21
-201.982778
 31
0.0
  0
ARC
  5
4C0
100
AcDbEntity
  8
0
370
    -3
  6
Continuous
100
AcDbCircle
 10
-538.233922
 20
-199.982778
 30
0.0
 40
2.0
100
AcDbArc
 50
180.0
 51
270.0
  0
LINE
  5
4C1
100
AcDbEntity
  8
0
370
    -3
  6
Continuous
100
AcDbLine
 10
-533.833922
 20
-201.982778
 30
0.0
 11
-538.233922
 21
-201.982778
 31
0.0
  0
LINE
  5
4C2
100
AcDbEntity
  8
0
370
    -3
  6
Continuous
100
AcDbLine
 10
-540.233922
 20
-199.982778
 30
0.0
 11
-540.233922
 21
-191.782778
 31
0.0
  0
LINE
  5
4C3
100
AcDbEntity
  8
0
370
    -3
  6
Continuous
100
AcDbLine
 10
-589.433922
 20
-199.982778
 30
0.0
 11
-589.433922
 21
-191.782778
 31
0.0
  0
LINE
  5
4C4
100
AcDbEntity
  8
0
370
    -3
  6
CENTER
100
AcDbLine
 10
-564.833922
 20
-259.681964
 30
0.0
 11
-564.833922
 21
-197.897625
 31
0.0
  0
ARC
  5
4C5
100
AcDbEntity
  8
0
370
    -3
  6
Continuous
100
AcDbCircle
 10
-543.433922
 20
-191.898927
 30
0.0
 40
3.2
100
AcDbArc
 50
0.0
 51
9.832422
  0
ARC
  5
4C6
100
AcDbEntity
  8
0
370
    -3
  6
Continuous
100
AcDbCircle
 10
-586.233922
 20
-191.898927
 30
0.0
 40
3.2
100
AcDbArc
 50
170.167578
 51
180.0
  0
POINT
  5
4C7
100
AcDbEntity
  8
0
370
    -3
  6
CENTER
100
AcDbPoint
 10
-435.833976
 20
-217.362278
 30
0.0
  0
POINT
  5
4C8
100
AcDbEntity
  8
0
370
    -3
  6
CENTER
100
AcDbPoint
 10
-435.833976
 20
-243.803278
 30
0.0
  0
LINE
  5
4C9
100
AcDbEntity
  8
0
370
    -3
  6
Continuous
100
AcDbLine
 10
-408.833976
 20
-230.582778
 30
0.0
 11
-408.833976
 21
-247.582778
 31
0.0
  0
LINE
  5
4CA
100
AcDbEntity
  8
0
370
    -3
  6
Continuous
100
AcDbLine
 10
-408.833976
 20
-230.582778
 30
0.0
 11
-408.833976
 21
-213.582778
 31
0.0
  0
LINE
  5
4CB
100
AcDbEntity
  8
0
370
    -3
  6
Continuous
100
AcDbLine
 10
-435.833976
 20
-230.582778
 30
0.0
 11
-435.833976
 21
-215.582778
 31
0.0
  0
ARC
  5
4CC
100
AcDbEntity
  8
0
370
    -3
  6
Continuous
100
AcDbCircle
 10
-433.833976
 20
-215.582778
 30
0.0
 40
2.0
100
AcDbArc
 50
90.0
 51
180.0
  0
LINE
  5
4CD
100
AcDbEntity
  8
0
370
    -3
  6
Continuous
100
AcDbLine
 10
-433.833976
 20
-213.582778
 30
0.0
 11
-406.833976
 21
-213.582778
 31
0.0
  0
LINE
  5
4CE
100
AcDbEntity
  8
0
370
    -3
  6
Continuous
100
AcDbLine
 10
-435.833976
 20
-230.582778
 30
0.0
 11
-435.833976
 21
-245.582778
 31
0.0
  0
ARC
  5
4CF
100
AcDbEntity
  8
0
370
    -3
  6
Continuous
100
AcDbCircle
 10
-433.833976
 20
-245.582778
 30
0.0
 40
2.0
100
AcDbArc
 50
180.0
 51
270.0
  0
LINE
  5
4D0
100
AcDbEntity
  8
0
370
    -3
  6
Continuous
100
AcDbLine
 10
-433.833976
 20
-247.582778
 30
0.0
 11
-407.244691
 21
-247.582778
 31
0.0
  0
LINE
  5
4D1
100
AcDbEntity
  8
0
370
    -3
  6
CENTER
100
AcDbLine
 10
-361.833976
 20
-192.805361
 30
0.0
 11
-361.833976
 21
-215.715337
 31
0.0
  0
ARC
  5
4D2
100
AcDbEntity
  8
0
370
    -3
  6
Continuous
100
AcDbCircle
 10
-391.098887
 20
-205.282778
 30
0.0
 40
0.3
100
AcDbArc
 50
270.0
 51
346.657636
  0
LINE
  5
4D3
100
AcDbEntity
  8
0
370
    -3
  6
Continuous
100
AcDbLine
 10
-392.833976
 20
-203.582778
 30
0.0
 11
-392.833976
 21
-204.582778
 31
0.0
  0
ARC
  5
4D4
100
AcDbEntity
  8
0
370
    -3
  6
Continuous
100
AcDbCircle
 10
-389.833976
 20
-205.582778
 30
0.0
 40
1.0
100
AcDbArc
 50
90.0
 51
166.657636
  0
ARC
  5
4D5
100
AcDbEntity
  8
0
370
    -3
  6
Continuous
100
AcDbCircle
 10
-332.569065
 20
-205.282778
 30
0.0
 40
0.3
100
AcDbArc
 50
193.342364
 51
270.0
  0
LINE
  5
4D6
100
AcDbEntity
  8
0
370
    -3
  6
Continuous
100
AcDbLine
 10
-330.833976
 20
-203.582778
 30
0.0
 11
-330.833976
 21
-204.582778
 31
0.0
  0
LINE
  5
4D7
100
AcDbEntity
  8
0
370
    -3
  6
Continuous
100
AcDbLine
 10
-392.833976
 20
-204.582778
 30
0.0
 11
-330.833976
 21
-204.582778
 31
0.0
  0
ARC
  5
4D8
100
AcDbEntity
  8
0
370
    -3
  6
Continuous
100
AcDbCircle
 10
-333.833976
 20
-205.582778
 30
0.0
 40
1.0
100
AcDbArc
 50
13.342364
 51
90.0
  0
LINE
  5
4D9
100
AcDbEntity
  8
0
370
    -3
  6
Continuous
100
AcDbLine
 10
-400.033976
 20
-205.582778
 30
0.0
 11
-330.395822
 21
-205.582778
 31
0.0
  0
ARC
  5
4DA
100
AcDbEntity
  8
0
370
    -3
  6
Continuous
100
AcDbCircle
 10
-400.033976
 20
-212.382778
 30
0.0
 40
6.8
100
AcDbArc
 50
90.0
 51
180.0
  0
ARC
  5
4DB
100
AcDbEntity
  8
0
370
    -3
  6
Continuous
100
AcDbCircle
 10
-330.395822
 20
-209.382778
 30
0.0
 40
3.8
100
AcDbArc
 50
25.0
 51
90.0
  0
LINE
  5
4DC
100
AcDbEntity
  8
0
370
    -3
  6
Continuous
100
AcDbLine
 10
-413.717563
 20
-255.014639
 30
0.0
 11
-415.408036
 21
-251.389408
 31
0.0
  0
ARC
  5
4DD
100
AcDbEntity
  8
0
370
    -3
  6
Continuous
100
AcDbCircle
 10
-412.086208
 20
-254.253926
 30
0.0
 40
1.8
100
AcDbArc
 50
205.0
 51
295.0
  0
LINE
  5
4DE
100
AcDbEntity
  8
0
370
    -3
  6
Continuous
100
AcDbLine
 10
-317.105152
 20
-209.963532
 30
0.0
 11
-318.795625
 21
-206.338301
 31
0.0
  0
ARC
  5
4DF
100
AcDbEntity
  8
0
370
    -3
  6
Continuous
100
AcDbCircle
 10
-318.736506
 20
-210.724245
 30
0.0
 40
1.8
100
AcDbArc
 50
295.0
 51
25.0
  0
LINE
  5
4E0
100
AcDbEntity
  8
0
370
    -3
  6
CENTER
100
AcDbLine
 10
-324.671314
 20
-212.194218
 30
0.0
 11
-321.801394
 21
-218.348783
 31
0.0
  0
POINT
  5
4E1
100
AcDbEntity
  8
0
370
    -3
  6
Continuous
100
AcDbPoint
 10
-323.437351
 20
-214.902365
 30
0.0
  0
LINE
  5
4E2
100
AcDbEntity
  8
0
370
    -3
  6
CENTER
100
AcDbLine
 10
-407.145323
 20
-250.65248
 30
0.0
 11
-404.275402
 21
-256.807045
 31
0.0
  0
ARC
  5
4E3
100
AcDbEntity
  8
0
370
    -3
  6
Continuous
100
AcDbCircle
 10
-342.323881
 20
-242.866476
 30
0.0
 40
10.8
100
AcDbArc
 50
272.437505
 51
342.341575
  0
ARC
  5
4E4
100
AcDbEntity
  8
0
370
    -3
  6
Continuous
100
AcDbCircle
 10
-408.592406
 20
-247.549201
 30
0.0
 40
9.0
100
AcDbArc
 50
278.398469
 51
311.601548
  0
POINT
  5
4E5
100
AcDbEntity
  8
0
370
    -3
  6
Continuous
100
AcDbPoint
 10
-405.887649
 20
-253.34957
 30
0.0
  0
LINE
  5
4E6
100
AcDbEntity
  8
0
370
    -3
  6
Continuous
100
AcDbLine
 10
-402.715572
 20
-251.870407
 30
0.0
 11
-402.301818
 21
-252.757705
 31
0.0
  0
LINE
  5
4E7
100
AcDbEntity
  8
0
370
    -3
  6
Continuous
100
AcDbLine
 10
-409.059726
 20
-254.828734
 30
0.0
 11
-408.645972
 21
-255.716033
 31
0.0
  0
ARC
  5
4E8
100
AcDbEntity
  8
0
370
    -3
  6
Continuous
100
AcDbCircle
 10
-403.480017
 20
-253.307108
 30
0.0
 40
1.299999
100
AcDbArc
 50
311.601548
 51
25.000018
  0
ARC
  5
4E9
100
AcDbEntity
  8
0
370
    -3
  6
Continuous
100
AcDbCircle
 10
-407.467773
 20
-255.166629
 30
0.0
 40
1.299999
100
AcDbArc
 50
204.999999
 51
278.398469
  0
LINE
  5
4EA
100
AcDbEntity
  8
0
370
    -3
  6
Continuous
100
AcDbLine
 10
-320.241563
 20
-213.412145
 30
0.0
 11
-319.827809
 21
-214.299443
 31
0.0
  0
LINE
  5
4EB
100
AcDbEntity
  8
0
370
    -3
  6
CENTER
100
AcDbLine
 10
-324.671314
 20
-212.194218
 30
0.0
 11
-321.801394
 21
-218.348783
 31
0.0
  0
ARC
  5
4EC
100
AcDbEntity
  8
0
370
    -3
  6
Continuous
100
AcDbCircle
 10
-321.006008
 20
-214.848846
 30
0.0
 40
1.299999
100
AcDbArc
 50
311.601548
 51
25.000018
  0
ARC
  5
4ED
100
AcDbEntity
  8
0
370
    -3
  6
Continuous
100
AcDbCircle
 10
-326.118397
 20
-209.090939
 30
0.0
 40
9.0
100
AcDbArc
 50
278.398469
 51
311.601548
  0
LINE
  5
4EE
100
AcDbEntity
  8
0
370
    -3
  6
Continuous
100
AcDbLine
 10
-326.585718
 20
-216.370473
 30
0.0
 11
-326.171964
 21
-217.257771
 31
0.0
  0
ARC
  5
4EF
100
AcDbEntity
  8
0
370
    -3
  6
Continuous
100
AcDbCircle
 10
-324.993764
 20
-216.708367
 30
0.0
 40
1.299999
100
AcDbArc
 50
204.999999
 51
278.398469
  0
LINE
  5
4F0
100
AcDbEntity
  8
0
370
    -3
  6
CENTER
100
AcDbLine
 10
-438.312599
 20
-230.582778
 30
0.0
 11
-398.006113
 21
-230.582778
 31
0.0
  0
LINE
  5
4F1
100
AcDbEntity
  8
0
370
    -3
  6
Continuous
100
AcDbLine
 10
-317.975794
 20
-212.355599
 30
0.0
 11
-411.325496
 21
-255.88528
 31
0.0
  0
ARC
  5
4F2
100
AcDbEntity
  8
0
370
    -3
  6
Continuous
100
AcDbCircle
 10
-330.913
 20
-221.698451
 30
0.0
 40
3.0
100
AcDbArc
 50
115.0
 51
205.0
  0
LINE
  5
4F3
100
AcDbEntity
  8
0
370
    -3
  6
Continuous
100
AcDbLine
 10
-328.896497
 20
-233.121461
 30
0.0
 11
-333.631924
 21
-222.966306
 31
0.0
  0
ARC
  5
4F4
100
AcDbEntity
  8
0
370
    -3
  6
Continuous
100
AcDbCircle
 10
-389.920964
 20
-250.976696
 30
0.0
 40
2.8
100
AcDbArc
 50
205.0
 51
267.843273
  0
LINE
  5
4F5
100
AcDbEntity
  8
0
370
    -3
  6
Continuous
100
AcDbLine
 10
-393.133656
 20
-250.71242
 30
0.0
 11
-392.458626
 21
-252.160027
 31
0.0
  0
ARC
  5
4F6
100
AcDbEntity
  8
0
370
    -3
  6
Continuous
100
AcDbCircle
 10
-395.852579
 20
-251.980274
 30
0.0
 40
3.0
100
AcDbArc
 50
25.0
 51
115.0
  0
ARC
  5
4F7
100
AcDbEntity
  8
0
370
    -3
  6
Continuous
100
AcDbCircle
 10
-331.434159
 20
-234.304792
 30
0.0
 40
2.8
100
AcDbArc
 50
344.545811
 51
25.0
  0
ARC
  5
4F8
100
AcDbEntity
  8
0
370
    -3
  6
Continuous
100
AcDbCircle
 10
-367.416374
 20
346.599696
 30
0.0
 40
600.8
100
AcDbArc
 50
266.682408
 51
272.437505
  0
ARC
  5
4F9
100
AcDbEntity
  8
0
370
    -3
  6
Continuous
100
AcDbCircle
 10
-618.659616
 20
-154.897381
 30
0.0
 40
300.8
100
AcDbArc
 50
342.341575
 51
347.89975
  0
ARC
  5
4FA
100
AcDbEntity
  8
0
370
    -3
  6
Continuous
100
AcDbCircle
 10
-344.519059
 20
-209.382778
 30
0.0
 40
3.8
100
AcDbArc
 50
25.0
 51
90.0
  0
LINE
  5
4FB
100
AcDbEntity
  8
0
370
    -3
  6
Continuous
100
AcDbLine
 10
-337.646827
 20
-215.128761
 30
0.0
 11
-341.07509
 21
-207.776828
 31
0.0
  0
LINE
  5
4FC
100
AcDbEntity
  8
0
370
    -3
  6
Continuous
100
AcDbLine
 10
-318.795625
 20
-206.338301
 30
0.0
 11
-407.244691
 21
-247.582778
 31
0.0
  0
LINE
  5
4FD
100
AcDbEntity
  8
0
370
    -3
  6
Continuous
100
AcDbLine
 10
-407.244691
 20
-247.582778
 30
0.0
 11
-415.408036
 21
-251.389408
 31
0.0
  0
LINE
  5
4FE
100
AcDbEntity
  8
0
370
    -3
  6
Continuous
100
AcDbLine
 10
-406.833976
 20
-247.391258
 30
0.0
 11
-406.833976
 21
-212.382778
 31
0.0
  0
LINE
  5
4FF
100
AcDbEntity
  8
0
370
    -3
  6
Continuous
100
AcDbLine
 10
-326.046088
 20
-209.719247
 30
0.0
 11
-326.951853
 21
-207.776828
 31
0.0
  0
LINE
  5
500
100
AcDbEntity
  8
0
370
    -3
  6
Continuous
100
AcDbLine
 10
-395.158282
 20
-241.946793
 30
0.0
 11
-395.158282
 21
-208.582778
 31
0.0
  0
ARC
  5
501
100
AcDbEntity
  8
0
370
    -3
  6
Continuous
100
AcDbCircle
 10
-392.158282
 20
-208.582778
 30
0.0
 40
3.0
100
AcDbArc
 50
90.0
 51
180.0
  0
LINE
  5
502
100
AcDbEntity
  8
0
370
    -3
  6
Continuous
100
AcDbLine
 10
-387.433976
 20
-191.782778
 30
0.0
 11
-387.433976
 21
-200.382778
 31
0.0
  0
LINE
  5
503
100
AcDbEntity
  8
0
370
    -3
  6
Continuous
100
AcDbLine
 10
-392.833976
 20
-201.982778
 30
0.0
 11
-361.833976
 21
-201.982778
 31
0.0
  0
LINE
  5
504
100
AcDbEntity
  8
0
370
    -3
  6
Continuous
100
AcDbLine
 10
-392.833976
 20
-203.582778
 30
0.0
 11
-392.833976
 21
-201.982778
 31
0.0
  0
ARC
  5
505
100
AcDbEntity
  8
0
370
    -3
  6
Continuous
100
AcDbCircle
 10
-389.033976
 20
-200.382778
 30
0.0
 40
1.6
100
AcDbArc
 50
270.0
 51
0.0
  0
LINE
  5
506
100
AcDbEntity
  8
0
370
    -3
  6
Continuous
100
AcDbLine
 10
-392.833976
 20
-203.582778
 30
0.0
 11
-330.833976
 21
-203.582778
 31
0.0
  0
LINE
  5
507
100
AcDbEntity
  8
0
370
    -3
  6
Continuous
100
AcDbLine
 10
-361.833976
 20
-203.582778
 30
0.0
 11
-392.833976
 21
-203.582778
 31
0.0
  0
LINE
  5
508
100
AcDbEntity
  8
0
370
    -3
  6
Continuous
100
AcDbLine
 10
-336.233976
 20
-191.782778
 30
0.0
 11
-336.233976
 21
-200.382778
 31
0.0
  0
LINE
  5
509
100
AcDbEntity
  8
0
370
    -3
  6
Continuous
100
AcDbLine
 10
-330.833976
 20
-201.982778
 30
0.0
 11
-361.833976
 21
-201.982778
 31
0.0
  0
LINE
  5
50A
100
AcDbEntity
  8
0
370
    -3
  6
Continuous
100
AcDbLine
 10
-330.833976
 20
-203.582778
 30
0.0
 11
-330.833976
 21
-201.982778
 31
0.0
  0
ARC
  5
50B
100
AcDbEntity
  8
0
370
    -3
  6
Continuous
100
AcDbCircle
 10
-334.633976
 20
-200.382778
 30
0.0
 40
1.6
100
AcDbArc
 50
180.0
 51
270.0
  0
LINE
  5
50C
100
AcDbEntity
  8
0
370
    -3
  6
Continuous
100
AcDbLine
 10
-361.833976
 20
-203.582778
 30
0.0
 11
-330.833976
 21
-203.582778
 31
0.0
  0
LINE
  5
50D
100
AcDbEntity
  8
0
370
    -3
  6
Continuous
100
AcDbLine
 10
-337.833976
 20
-187.582778
 30
0.0
 11
-337.833976
 21
-188.582778
 31
0.0
  0
LINE
  5
50E
100
AcDbEntity
  8
0
370
    -3
  6
Continuous
100
AcDbLine
 10
-371.833976
 20
-188.582778
 30
0.0
 11
-337.833976
 21
-188.582778
 31
0.0
  0
ARC
  5
50F
100
AcDbEntity
  8
0
370
    -3
  6
Continuous
100
AcDbCircle
 10
-339.433976
 20
-191.782778
 30
0.0
 40
3.2
100
AcDbArc
 50
0.0
 51
90.0
  0
ARC
  5
510
100
AcDbEntity
  8
0
370
    -3
  6
Continuous
100
AcDbCircle
 10
-384.233976
 20
-191.782778
 30
0.0
 40
3.2
100
AcDbArc
 50
171.333191
 51
180.0
  0
LINE
  5
511
100
AcDbEntity
  8
0
370
    -3
  6
Continuous
100
AcDbLine
 10
489.666069
 20
-203.582778
 30
0.0
 11
458.666069
 21
-203.582778
 31
0.0
  0
LINE
  5
512
100
AcDbEntity
  8
0
370
    -3
  6
Continuous
100
AcDbLine
 10
489.666069
 20
-203.582778
 30
0.0
 11
520.666069
 21
-203.582778
 31
0.0
  0
ARC
  5
513
100
AcDbEntity
  8
0
370
    -3
  6
Continuous
100
AcDbCircle
 10
516.266069
 20
-199.982778
 30
0.0
 40
2.0
100
AcDbArc
 50
180.0
 51
270.0
  0
LINE
  5
514
100
AcDbEntity
  8
0
370
    -3
  6
Continuous
100
AcDbLine
 10
514.266069
 20
-199.982778
 30
0.0
 11
514.266069
 21
-195.847482
 31
0.0
  0
LINE
  5
515
100
AcDbEntity
  8
0
370
    -3
  6
Continuous
100
AcDbLine
 10
520.666069
 20
-203.582778
 30
0.0
 11
520.666069
 21
-201.982778
 31
0.0
  0
LINE
  5
516
100
AcDbEntity
  8
0
370
    -3
  6
Continuous
100
AcDbLine
 10
520.666069
 20
-201.982778
 30
0.0
 11
516.266069
 21
-201.982778
 31
0.0
  0
LINE
  5
517
100
AcDbEntity
  8
0
370
    -3
  6
Continuous
100
AcDbLine
 10
520.666069
 20
-203.582778
 30
0.0
 11
520.666069
 21
-204.582778
 31
0.0
  0
LINE
  5
518
100
AcDbEntity
  8
0
370
    -3
  6
Continuous
100
AcDbLine
 10
458.666069
 20
-203.582778
 30
0.0
 11
458.666069
 21
-204.582778
 31
0.0
  0
LINE
  5
519
100
AcDbEntity
  8
0
370
    -3
  6
Continuous
100
AcDbLine
 10
520.666069
 20
-204.582778
 30
0.0
 11
458.666069
 21
-204.582778
 31
0.0
  0
LINE
  5
51A
100
AcDbEntity
  8
0
370
    -3
  6
Continuous
100
AcDbLine
 10
465.066069
 20
-199.982778
 30
0.0
 11
465.066069
 21
-196.881096
 31
0.0
  0
LINE
  5
51B
100
AcDbEntity
  8
0
370
    -3
  6
Continuous
100
AcDbLine
 10
458.666069
 20
-203.582778
 30
0.0
 11
458.666069
 21
-201.982778
 31
0.0
  0
ARC
  5
51C
100
AcDbEntity
  8
0
370
    -3
  6
Continuous
100
AcDbCircle
 10
463.066069
 20
-199.982778
 30
0.0
 40
2.0
100
AcDbArc
 50
270.0
 51
0.0
  0
LINE
  5
51D
100
AcDbEntity
  8
0
370
    -3
  6
Continuous
100
AcDbLine
 10
458.666069
 20
-201.982778
 30
0.0
 11
463.066069
 21
-201.982778
 31
0.0
  0
ARC
  5
51E
100
AcDbEntity
  8
0
370
    -3
  6
Continuous
100
AcDbCircle
 10
521.416069
 20
-247.400304
 30
0.0
 40
6.8
100
AcDbArc
 50
270.0
 51
0.0
  0
LINE
  5
51F
100
AcDbEntity
  8
0
370
    -3
  6
Continuous
100
AcDbLine
 10
457.916069
 20
-254.200304
 30
0.0
 11
521.416069
 21
-254.200304
 31
0.0
  0
ARC
  5
520
100
AcDbEntity
  8
0
370
    -3
  6
Continuous
100
AcDbCircle
 10
457.916069
 20
-247.400304
 30
0.0
 40
6.8
100
AcDbArc
 50
180.0
 51
270.0
  0
ARC
  5
521
100
AcDbEntity
  8
0
370
    -3
  6
Continuous
100
AcDbCircle
 10
450.666069
 20
-219.394886
 30
0.0
 40
7.8
100
AcDbArc
 50
90.0
 51
180.0
  0
LINE
  5
522
100
AcDbEntity
  8
0
370
    -3
  6
Continuous
100
AcDbLine
 10
528.666069
 20
-211.594886
 30
0.0
 11
450.666069
 21
-211.594886
 31
0.0
  0
ARC
  5
523
100
AcDbEntity
  8
0
370
    -3
  6
Continuous
100
AcDbCircle
 10
528.666069
 20
-219.394886
 30
0.0
 40
7.8
100
AcDbArc
 50
0.0
 51
90.0
  0
ARC
  5
524
100
AcDbEntity
  8
0
370
    -3
  6
Continuous
100
AcDbCircle
 10
528.666069
 20
-214.138301
 30
0.0
 40
7.8
100
AcDbArc
 50
0.0
 51
90.0
  0
LINE
  5
525
100
AcDbEntity
  8
0
370
    -3
  6
Continuous
100
AcDbLine
 10
442.866069
 20
-248.253926
 30
0.0
 11
442.866069
 21
-214.138301
 31
0.0
  0
LINE
  5
526
100
AcDbEntity
  8
0
370
    -3
  6
Continuous
100
AcDbLine
 10
450.666069
 20
-206.338301
 30
0.0
 11
528.666069
 21
-206.338301
 31
0.0
  0
ARC
  5
527
100
AcDbEntity
  8
0
370
    -3
  6
Continuous
100
AcDbCircle
 10
450.666069
 20
-214.138301
 30
0.0
 40
7.8
100
AcDbArc
 50
90.0
 51
180.0
  0
LINE
  5
528
100
AcDbEntity
  8
0
370
    -3
  6
Continuous
100
AcDbLine
 10
528.216069
 20
-222.889668
 30
0.0
 11
528.216069
 21
-247.400304
 31
0.0
  0
ARC
  5
529
100
AcDbEntity
  8
0
370
    -3
  6
Continuous
100
AcDbCircle
 10
524.416069
 20
-222.889668
 30
0.0
 40
3.8
100
AcDbArc
 50
0.0
 51
66.772328
  0
LINE
  5
52A
100
AcDbEntity
  8
0
370
    -3
  6
Continuous
100
AcDbLine
 10
525.914735
 20
-219.397677
 30
0.0
 11
516.720065
 21
-215.451579
 31
0.0
  0
ARC
  5
52B
100
AcDbEntity
  8
0
370
    -3
  6
Continuous
100
AcDbCircle
 10
515.221399
 20
-218.94357
 30
0.0
 40
3.8
100
AcDbArc
 50
66.772328
 51
90.0
  0
LINE
  5
52C
100
AcDbEntity
  8
0
370
    -3
  6
Continuous
100
AcDbLine
 10
453.417403
 20
-219.397677
 30
0.0
 11
462.612073
 21
-215.451579
 31
0.0
  0
LINE
  5
52D
100
AcDbEntity
  8
0
370
    -3
  6
Continuous
100
AcDbLine
 10
464.110739
 20
-215.14357
 30
0.0
 11
515.221399
 21
-215.14357
 31
0.0
  0
ARC
  5
52E
100
AcDbEntity
  8
0
370
    -3
  6
Continuous
100
AcDbCircle
 10
464.110739
 20
-218.94357
 30
0.0
 40
3.8
100
AcDbArc
 50
90.0
 51
113.227672
  0
LINE
  5
52F
100
AcDbEntity
  8
0
370
    -3
  6
Continuous
100
AcDbLine
 10
451.116069
 20
-222.889668
 30
0.0
 11
451.116069
 21
-247.400304
 31
0.0
  0
ARC
  5
530
100
AcDbEntity
  8
0
370
    -3
  6
Continuous
100
AcDbCircle
 10
454.916069
 20
-222.889668
 30
0.0
 40
3.8
100
AcDbArc
 50
113.227672
 51
180.0
  0
ELLIPSE
  5
531
100
AcDbEntity
  8
0
370
    -3
  6
Continuous
100
AcDbEllipse
 10
529.166069
 20
-215.710256
 30
0.0
 11
3.5
 21
0.0
 31
0.0
210
0.0
220
0.0
230
1.0
 40
0.656603
 41
0.0
 42
6.2831853071795862
  0
LINE
  5
532
100
AcDbEntity
  8
0
370
    -3
  6
Continuous
100
AcDbLine
 10
529.166069
 20
-217.247709
 30
0.0
 11
531.166069
 21
-216.198521
 31
0.0
  0
LINE
  5
533
100
AcDbEntity
  8
0
370
    -3
  6
Continuous
100
AcDbLine
 10
529.166069
 20
-217.247709
 30
0.0
 11
527.166069
 21
-216.198521
 31
0.0
  0
LINE
  5
534
100
AcDbEntity
  8
0
370
    -3
  6
Continuous
100
AcDbLine
 10
527.576053
 20
-217.757536
 30
0.0
 11
529.166069
 21
-217.247709
 31
0.0
  0
LINE
  5
535
100
AcDbEntity
  8
0
370
    -3
  6
Continuous
100
AcDbLine
 10
530.756086
 20
-217.757536
 30
0.0
 11
529.166069
 21
-217.247709
 31
0.0
  0
LINE
  5
536
100
AcDbEntity
  8
0
370
    -3
  6
Continuous
100
AcDbLine
 10
527.576053
 20
-256.215798
 30
0.0
 11
529.166069
 21
-255.705971
 31
0.0
  0
LINE
  5
537
100
AcDbEntity
  8
0
370
    -3
  6
Continuous
100
AcDbLine
 10
529.166069
 20
-255.705971
 30
0.0
 11
527.166069
 21
-254.656783
 31
0.0
  0
LINE
  5
538
100
AcDbEntity
  8
0
370
    -3
  6
Continuous
100
AcDbLine
 10
529.166069
 20
-255.705971
 30
0.0
 11
531.166069
 21
-254.656783
 31
0.0
  0
LINE
  5
539
100
AcDbEntity
  8
0
370
    -3
  6
Continuous
100
AcDbLine
 10
530.756086
 20
-256.215798
 30
0.0
 11
529.166069
 21
-255.705971
 31
0.0
  0
ELLIPSE
  5
53A
100
AcDbEntity
  8
0
370
    -3
  6
Continuous
100
AcDbEllipse
 10
529.166069
 20
-254.168517
 30
0.0
 11
3.5
 21
0.0
 31
0.0
210
0.0
220
0.0
230
1.0
 40
0.656603
 41
0.0
 42
6.2831853071795862
  0
ARC
  5
53B
100
AcDbEntity
  8
0
370
    -3
  6
Continuous
100
AcDbCircle
 10
528.666069
 20
-248.253926
 30
0.0
 40
7.8
100
AcDbArc
 50
298.12516
 51
0.0
  0
ELLIPSE
  5
53C
100
AcDbEntity
  8
0
370
    -3
  6
Continuous
100
AcDbEllipse
 10
450.166069
 20
-215.710256
 30
0.0
 11
3.5
 21
0.0
 31
0.0
210
0.0
220
0.0
230
1.0
 40
0.656603
 41
0.0
 42
6.2831853071795862
  0
LINE
  5
53D
100
AcDbEntity
  8
0
370
    -3
  6
Continuous
100
AcDbLine
 10
450.166069
 20
-217.247709
 30
0.0
 11
448.166069
 21
-216.198521
 31
0.0
  0
LINE
  5
53E
100
AcDbEntity
  8
0
370
    -3
  6
Continuous
100
AcDbLine
 10
450.166069
 20
-217.247709
 30
0.0
 11
452.166069
 21
-216.198521
 31
0.0
  0
LINE
  5
53F
100
AcDbEntity
  8
0
370
    -3
  6
Continuous
100
AcDbLine
 10
451.756086
 20
-217.757536
 30
0.0
 11
450.166069
 21
-217.247709
 31
0.0
  0
LINE
  5
540
100
AcDbEntity
  8
0
370
    -3
  6
Continuous
100
AcDbLine
 10
448.576053
 20
-217.757536
 30
0.0
 11
450.166069
 21
-217.247709
 31
0.0
  0
LINE
  5
541
100
AcDbEntity
  8
0
370
    -3
  6
Continuous
100
AcDbLine
 10
451.756086
 20
-256.215798
 30
0.0
 11
450.166069
 21
-255.705971
 31
0.0
  0
LINE
  5
542
100
AcDbEntity
  8
0
370
    -3
  6
Continuous
100
AcDbLine
 10
450.166069
 20
-255.705971
 30
0.0
 11
452.166069
 21
-254.656783
 31
0.0
  0
LINE
  5
543
100
AcDbEntity
  8
0
370
    -3
  6
Continuous
100
AcDbLine
 10
450.166069
 20
-255.705971
 30
0.0
 11
448.166069
 21
-254.656783
 31
0.0
  0
LINE
  5
544
100
AcDbEntity
  8
0
370
    -3
  6
Continuous
100
AcDbLine
 10
448.576053
 20
-256.215798
 30
0.0
 11
450.166069
 21
-255.705971
 31
0.0
  0
ELLIPSE
  5
545
100
AcDbEntity
  8
0
370
    -3
  6
Continuous
100
AcDbEllipse
 10
450.166069
 20
-254.168517
 30
0.0
 11
3.5
 21
0.0
 31
0.0
210
0.0
220
0.0
230
1.0
 40
0.656603
 41
0.0
 42
6.2831853071795862
  0
ARC
  5
546
100
AcDbEntity
  8
0
370
    -3
  6
Continuous
100
AcDbCircle
 10
450.666069
 20
-248.253926
 30
0.0
 40
7.8
100
AcDbArc
 50
180.0
 51
241.87484
  0
LINE
  5
547
100
AcDbEntity
  8
0
370
    -3
  6
Continuous
100
AcDbLine
 10
452.167251
 20
-256.053926
 30
0.0
 11
527.164888
 21
-256.053926
 31
0.0
  0
ARC
  5
548
100
AcDbEntity
  8
0
370
    -3
  6
Continuous
100
AcDbCircle
 10
454.166069
 20
-209.382778
 30
0.0
 40
3.8
100
AcDbArc
 50
90.0
 51
126.757251
  0
ARC
  5
549
100
AcDbEntity
  8
0
370
    -3
  6
Continuous
100
AcDbCircle
 10
525.166069
 20
-209.382778
 30
0.0
 40
3.8
100
AcDbArc
 50
51.247352
 51
90.0
  0
ARC
  5
54A
100
AcDbEntity
  8
0
370
    -3
  6
Continuous
100
AcDbCircle
 10
517.666069
 20
-205.582778
 30
0.0
 40
1.0
100
AcDbArc
 50
0.0
 51
90.0
  0
ARC
  5
54B
100
AcDbEntity
  8
0
370
    -3
  6
Continuous
100
AcDbCircle
 10
461.666069
 20
-205.582778
 30
0.0
 40
1.0
100
AcDbArc
 50
90.0
 51
180.0
  0
LINE
  5
54C
100
AcDbEntity
  8
0
370
    -3
  6
Continuous
100
AcDbLine
 10
454.166069
 20
-205.582778
 30
0.0
 11
525.166069
 21
-205.582778
 31
0.0
  0
LINE
  5
54D
100
AcDbEntity
  8
0
370
    -3
  6
CENTER
100
AcDbLine
 10
470.678178
 20
-230.582778
 30
0.0
 11
508.653961
 21
-230.582778
 31
0.0
  0
LINE
  5
54E
100
AcDbEntity
  8
0
370
    -3
  6
Continuous
100
AcDbLine
 10
536.466069
 20
-248.253926
 30
0.0
 11
536.466069
 21
-214.138301
 31
0.0
  0
CIRCLE
  5
54F
100
AcDbEntity
  8
0
370
    -3
  6
DASHED
100
AcDbCircle
 10
489.666069
 20
-230.582778
 30
0.0
 40
17.0
  0
CIRCLE
  5
550
100
AcDbEntity
  8
0
370
    -3
  6
Continuous
100
AcDbCircle
 10
-65.833976
 20
-73.582778
 30
0.0
 40
57.5
  0
LINE
  5
551
100
AcDbEntity
  8
0
370
    -3
  6
Continuous
100
AcDbLine
 10
-540.233922
 20
-196.881032
 30
0.0
 11
-506.833674
 21
-197.582637
 31
0.0
  0
LINE
  5
552
100
AcDbEntity
  8
0
370
    -3
  6
Continuous
100
AcDbLine
 10
-625.83368
 20
-195.082926
 30
0.0
 11
-589.433922
 21
-195.847538
 31
0.0
  0
ENDSEC
  0
SECTION
  2
OBJECTS
  0
DICTIONARY
  5
19
100
AcDbDictionary
280
     0
281
     1
  3
ACAD_GROUP
350
1A
  3
ACAD_MLINESTYLE
350
1B
  3
ACAD_LAYOUT
350
1E
  3
ACAD_PLOTSETTINGS
350
22
  3
ACAD_PLOTSTYLENAME
350
1F
  3
ACAD_WIPEOUT_VARS
350
23
  3
DWGPROPS
350
553
  0
DICTIONARY
  5
1A
102
{ACAD_REACTORS
330
19
102
}
100
AcDbDictionary
280
     0
281
     1
  0
DICTIONARY
  5
1B
102
{ACAD_REACTORS
330
19
102
}
100
AcDbDictionary
280
     0
281
     1
  3
Standard
350
1C
  0
MLINESTYLE
  5
1C
102
{ACAD_REACTORS
330
1B
102
}
100
AcDbMlineStyle
  2
Standard
 70
     0
  3

 62
     0
 51
90.0
 52
90.0
 71
     2
 49
0.5
 62
   256
  6
ByLayer
 49
-0.5
 62
   256
  6
ByLayer
  0
ACDBDICTIONARYWDFLT
  5
1F
102
{ACAD_REACTORS
330
19
102
}
100
AcDbDictionary
281
     1
  3
Normal
350
1D
100
AcDbDictionaryWithDefault
340
1D
  0
ACDBPLACEHOLDER
  5
1D
102
{ACAD_REACTORS
330
1F
102
}
  0
LAYOUT
  5
20
102
{ACAD_REACTORS
330
1E
102
}
100
AcDbPlotSettings
  1

  2

  4

  6

 40
0.0
 41
0.0
 42
0.0
 43
0.0
 44
0.0
 45
0.0
 46
0.0
 47
0.0
 48
0.0
 49
0.0
140
0.0
141
0.0
142
1.0
143
1.0
 70
  1024
 72
     0
 73
     0
 74
     0
  7

 75
     0
147
1.0
148
0.0
149
0.0
100
AcDbLayout
  1
Model
 70
     0
 71
     0
 10
0.0
 20
0.0
 11
0.0
 21
0.0
 12
0.0
 22
0.0
 32
0.0
 14
0.0
 24
0.0
 34
0.0
 15
0.0
 25
0.0
 35
0.0
146
0.0
 13
0.0
 23
0.0
 33
0.0
 16
0.0
 26
0.0
 36
0.0
 17
0.0
 27
0.0
 37
0.0
 76
     0
330
A
331
0
345
0
346
0
  0
LAYOUT
  5
21
102
{ACAD_REACTORS
330
1E
102
}
100
AcDbPlotSettings
  1

  2

  4

  6

 40
0.0
 41
0.0
 42
0.0
 43
0.0
 44
0.0
 45
0.0
 46
0.0
 47
0.0
 48
0.0
 49
0.0
140
0.0
141
0.0
142
1.0
143
1.0
 70
     0
 72
     0
 73
     0
 74
     0
  7

 75
     0
147
1.0
148
0.0
149
0.0
100
AcDbLayout
  1
Layout1
 70
     0
 71
     0
 10
0.0
 20
0.0
 11
0.0
 21
0.0
 12
0.0
 22
0.0
 32
0.0
 14
0.0
 24
0.0
 34
0.0
 15
0.0
 25
0.0
 35
0.0
146
0.0
 13
0.0
 23
0.0
 33
0.0
 16
0.0
 26
0.0
 36
0.0
 17
0.0
 27
0.0
 37
0.0
 76
     0
330
B
331
0
345
0
346
0
  0
DICTIONARY
  5
1E
102
{ACAD_REACTORS
330
19
102
}
100
AcDbDictionary
280
     0
281
     1
  3
Layout1
350
21
  3
Model
350
20
  0
DICTIONARY
  5
22
102
{ACAD_REACTORS
330
19
102
}
100
AcDbDictionary
280
     0
281
     1
  0
WIPEOUTVARIABLES
  5
23
100
AcDbWipeoutVariables
 70
     1
  0
XRECORD
  5
553
100
AcDbXrecord
280
     1
  1
DWGPROPS COOKIE
  2

  3

  4

  6

  7

  8
HK96464
  9

300
=
301
=
302
=
303
=
304
=
305
=
306
=
307
=
308
=
309
=
 40
0.0
 41
2455943.355301
 42
2455943.355301
  1

 90
        0
  0
ENDSEC
  0
EOF
