  0
SECTION
  2
HEADER
  9
$ACADVER
  1
AC1015
  9
$ACADMAINTVER
 70
     6
  9
$DWGCODEPAGE
  3
ANSI_932
  9
$INSBASE
 10
0.0
 20
0.0
 30
0.0
  9
$EXTMIN
 10
1.000000E+20
 20
1.000000E+20
 30
1.000000E+20
  9
$EXTMAX
 10
-1.000000E+20
 20
-1.000000E+20
 30
-1.000000E+20
  9
$LIMMIN
 10
0.0
 20
0.0
  9
$LIMMAX
 10
0.0
 20
0.0
  9
$ORTHOMODE
 70
     0
  9
$REGENMODE
 70
     1
  9
$FILLMODE
 70
     1
  9
$QTEXTMODE
 70
     0
  9
$MIRRTEXT
 70
     1
  9
$LTSCALE
 40
1.0
  9
$ATTMODE
 70
     1
  9
$TEXTSIZE
 40
7.0
  9
$TRACEWID
 40
0.05
  9
$TEXTSTYLE
  7
Standard
  9
$CLAYER
  8
0
  9
$CELTYPE
  6
Continuous
  9
$CECOLOR
 62
   256
  9
$CELTSCALE
 40
1.0
  9
$DISPSILH
 70
     0
  9
$DIMSCALE
 40
1.0
  9
$DIMASZ
 40
1.931852
  9
$DIMEXO
 40
1.0
  9
$DIMDLI
 40
0.38
  9
$DIMRND
 40
0.0
  9
$DIMDLE
 40
0.0
  9
$DIMEXE
 40
2.0
  9
$DIMTP
 40
0.0
  9
$DIMTM
 40
0.0
  9
$DIMTXT
 40
2.8
  9
$DIMCEN
 40
0.09
  9
$DIMTSZ
 40
0.0
  9
$DIMTOL
 70
     0
  9
$DIMLIM
 70
     0
  9
$DIMTIH
 70
     1
  9
$DIMTOH
 70
     1
  9
$DIMSE1
 70
     0
  9
$DIMSE2
 70
     0
  9
$DIMTAD
 70
     1
  9
$DIMZIN
 70
     0
  9
$DIMBLK
  1

  9
$DIMASO
 70
     1
  9
$DIMSHO
 70
     1
  9
$DIMPOST
  1

  9
$DIMAPOST
  1

  9
$DIMALT
 70
     0
  9
$DIMALTD
 70
     2
  9
$DIMALTF
 40
25.4
  9
$DIMLFAC
 40
1.0
  9
$DIMTOFL
 70
     0
  9
$DIMTVP
 40
0.0
  9
$DIMTIX
 70
     0
  9
$DIMSOXD
 70
     0
  9
$DIMSAH
 70
     0
  9
$DIMBLK1
  1

  9
$DIMBLK2
  1

  9
$DIMSTYLE
  2
Standard
  9
$DIMCLRD
 70
     0
  9
$DIMCLRE
 70
     0
  9
$DIMCLRT
 70
     0
  9
$DIMTFAC
 40
0.714286
  9
$DIMGAP
 40
0.09
  9
$DIMJUST
 70
     0
  9
$DIMSD1
 70
     0
  9
$DIMSD2
 70
     0
  9
$DIMTOLJ
 70
     1
  9
$DIMTZIN
 70
     0
  9
$DIMALTZ
 70
     0
  9
$DIMALTTZ
 70
     0
  9
$DIMUPT
 70
     0
  9
$DIMDEC
 70
     4
  9
$DIMTDEC
 70
     4
  9
$DIMALTU
 70
     2
  9
$DIMALTTD
 70
     2
  9
$DIMTXSTY
  7
Standard
  9
$DIMAUNIT
 70
     0
  9
$DIMADEC
 70
     0
  9
$DIMALTRND
 40
0.0
  9
$DIMAZIN
 70
     0
  9
$DIMDSEP
 70
     0
  9
$DIMATFIT
 70
     3
  9
$DIMFRAC
 70
     0
  9
$DIMLDRBLK
  1

  9
$DIMLUNIT
 70
     2
  9
$DIMLWD
 70
     0
  9
$DIMLWE
 70
     0
  9
$DIMTMOVE
 70
     0
  9
$LUNITS
 70
     2
  9
$LUPREC
 70
     3
  9
$SKETCHINC
 40
0.1
  9
$FILLETRAD
 40
0.0
  9
$AUNITS
 70
     0
  9
$AUPREC
 70
     0
  9
$MENU
  1
acad
  9
$ELEVATION
 40
0.0
  9
$PELEVATION
 40
0.0
  9
$THICKNESS
 40
0.0
  9
$LIMCHECK
 70
     0
  9
$CHAMFERA
 40
0.0
  9
$CHAMFERB
 40
0.0
  9
$CHAMFERC
 40
0.0
  9
$CHAMFERD
 40
0.0
  9
$SKPOLY
 70
     0
  9
$TDCREATE
 40
0.000000000
  9
$TDUCREATE
 40
0.000000000
  9
$TDUPDATE
 40
0.000000000
  9
$TDUUPDATE
 40
0.000000000
  9
$TDINDWG
 40
0.0000000000
  9
$TDUSRTIMER
 40
0.0000000000
  9
$USRTIMER
 70
     1
  9
$ANGBASE
 50
0.0
  9
$ANGDIR
 70
     0
  9
$PDMODE
 70
     0
  9
$PDSIZE
 40
0.0
  9
$PLINEWID
 40
0.0
  9
$SPLFRAME
 70
     0
  9
$SPLINETYPE
 70
     6
  9
$SPLINESEGS
 70
     8
  9
$HANDSEED
  5
4A2
  9
$SURFTAB1
 70
     6
  9
$SURFTAB2
 70
     6
  9
$SURFTYPE
 70
     6
  9
$SURFU
 70
     6
  9
$SURFV
 70
     6
  9
$UCSBASE
  2

  9
$UCSNAME
  2

  9
$UCSORG
 10
0.0
 20
0.0
 30
0.0
  9
$UCSXDIR
 10
1.0
 20
0.0
 30
0.0
  9
$UCSYDIR
 10
0.0
 20
1.0
 30
0.0
  9
$UCSORTHOREF
  2

  9
$UCSORTHOVIEW
 70
     0
  9
$UCSORGTOP
 10
0.0
 20
0.0
 30
0.0
  9
$UCSORGBOTTOM
 10
0.0
 20
0.0
 30
0.0
  9
$UCSORGLEFT
 10
0.0
 20
0.0
 30
0.0
  9
$UCSORGRIGHT
 10
0.0
 20
0.0
 30
0.0
  9
$UCSORGFRONT
 10
0.0
 20
0.0
 30
0.0
  9
$UCSORGBACK
 10
0.0
 20
0.0
 30
0.0
  9
$PUCSBASE
  2

  9
$PUCSNAME
  2

  9
$PUCSORG
 10
0.0
 20
0.0
 30
0.0
  9
$PUCSXDIR
 10
1.0
 20
0.0
 30
0.0
  9
$PUCSYDIR
 10
0.0
 20
1.0
 30
0.0
  9
$PUCSORTHOREF
  2

  9
$PUCSORTHOVIEW
 70
     0
  9
$PUCSORGTOP
 10
0.0
 20
0.0
 30
0.0
  9
$PUCSORGBOTTOM
 10
0.0
 20
0.0
 30
0.0
  9
$PUCSORGLEFT
 10
0.0
 20
0.0
 30
0.0
  9
$PUCSORGRIGHT
 10
0.0
 20
0.0
 30
0.0
  9
$PUCSORGFRONT
 10
0.0
 20
0.0
 30
0.0
  9
$PUCSORGBACK
 10
0.0
 20
0.0
 30
0.0
  9
$USERI1
 70
     0
  9
$USERI2
 70
     0
  9
$USERI3
 70
     0
  9
$USERI4
 70
     0
  9
$USERI5
 70
     0
  9
$USERR1
 40
0.0
  9
$USERR2
 40
0.0
  9
$USERR3
 40
0.0
  9
$USERR4
 40
0.0
  9
$USERR5
 40
0.0
  9
$WORLDVIEW
 70
     1
  9
$SHADEDGE
 70
     3
  9
$SHADEDIF
 70
    70
  9
$TILEMODE
 70
     1
  9
$MAXACTVP
 70
    16
  9
$PINSBASE
 10
0.0
 20
0.0
 30
0.0
  9
$PLIMCHECK
 70
     0
  9
$PEXTMIN
 10
1.000000E+20
 20
1.000000E+20
 30
1.000000E+20
  9
$PEXTMAX
 10
-1.000000E+20
 20
-1.000000E+20
 30
-1.000000E+20
  9
$PLIMMIN
 10
0.0
 20
0.0
  9
$PLIMMAX
 10
12.0
 20
9.0
  9
$UNITMODE
 70
     0
  9
$VISRETAIN
 70
     0
  9
$PLINEGEN
 70
     1
  9
$PSLTSCALE
 70
     0
  9
$TREEDEPTH
 70
  3020
  9
$CMLSTYLE
  2
Standard
  9
$CMLJUST
 70
     0
  9
$CMLSCALE
 40
1.0
  9
$PROXYGRAPHICS
 70
     0
  9
$MEASUREMENT
 70
     0
  9
$CELWEIGHT
370
     0
  9
$ENDCAPS
280
     0
  9
$JOINSTYLE
280
     0
  9
$LWDISPLAY
290
     0
  9
$INSUNITS
 70
     0
  9
$HYPERLINKBASE
  1

  9
$STYLESHEET
  1

  9
$XEDIT
290
     1
  9
$CEPSNTYPE
380
     0
  9
$PSTYLEMODE
290
     1
  9
$FINGERPRINTGUID
  2

  9
$VERSIONGUID
  2

  9
$EXTNAMES
290
     1
  9
$PSVPSCALE
 40
0.0
  0
ENDSEC
  0
SECTION
  2
CLASSES
  0
CLASS
  1
LWPOLYLINE
  2
AcDbPolyline
  3
AutoCAD 2000
 90
    32768
280
     0
281
     1
  0
CLASS
  1
IMAGE
  2
AcDbRasterImage
  3
ISM
 90
    32895
280
     0
281
     1
  0
CLASS
  1
OLE2FRAME
  2
AcDbOle2Frame
  3
AutoCAD 2000
 90
    32768
280
     0
281
     1
  0
CLASS
  1
HATCH
  2
AcDbHatch
  3
AutoCAD 2000
 90
    32768
280
     0
281
     1
  0
CLASS
  1
DICTIONARYVAR
  2
AcDbDictionaryVar
  3
AutoCAD 2000
 90
    32768
280
     0
281
     0
  0
CLASS
  1
RASTERVARIABLES
  2
AcDbRasterVariables
  3
ISM
 90
    32768
280
     0
281
     0
  0
CLASS
  1
IMAGEDEF
  2
AcDbRasterImageDef
  3
ISM
 90
    32768
280
     0
281
     0
  0
CLASS
  1
IMAGEDEF_REACTOR
  2
AcDbRasterImageDefReactor
  3
ISM
 90
    32769
280
     0
281
     0
  0
CLASS
  1
IDBUFFER
  2
AcDbIdBuffer
  3
AutoCAD 2000
 90
    32768
280
     0
281
     0
  0
CLASS
  1
SPATIAL_FILTER
  2
AcDbSpatialFilter
  3
AutoCAD 2000
 90
    32768
280
     0
281
     0
  0
CLASS
  1
XRECORD
  2
AcDbXrecord
  3
AutoCAD 2000
 90
        0
280
     0
281
     0
  0
CLASS
  1
SORTENTSTABLE
  2
AcDbSortentsTable
  3
AutoCAD 2000
 90
    32768
280
     0
281
     0
  0
CLASS
  1
LAYER_INDEX
  2
AcDbLayerIndex
  3
AutoCAD 2000
 90
    32768
280
     0
281
     0
  0
CLASS
  1
SPATIAL_INDEX
  2
AcDbSpatialIndex
  3
AutoCAD 2000
 90
    32768
280
     0
281
     0
  0
CLASS
  1
OBJECT_PTR
  2
CAseDLPNTableRecord
  3
"ASE-LPNTableRecord"
 90
    32769
280
     0
281
     0
  0
CLASS
  1
LAYOUT
  2
AcDbLayout
  3
AutoCAD 2000
 90
        0
280
     0
281
     0
  0
CLASS
  1
PLOTSETTINGS
  2
AcDbPlotSettings
  3
AutoCAD 2000
 90
    32768
280
     0
281
     0
  0
CLASS
  1
ACDBDICTIONARYWDFLT
  2
AcDbDictionaryWithDefault
  3
AutoCAD 2000
 90
        0
280
     0
281
     0
  0
CLASS
  1
ACDBPLACEHOLDER
  2
AcDbPlaceHolder
  3
AutoCAD 2000
 90
        0
280
     0
281
     0
  0
CLASS
  1
VBA_PROJECT
  2
AcDbVbaProject
  3
acadvba
 90
    32768
280
     0
281
     0
  0
CLASS
  1
WIPEOUT
  2
AcDbWipeout
  3
WipeOut|AutoCAD Express Tool|expresstools@autodesk.com
 90
    32895
280
     0
281
     1
  0
CLASS
  1
WIPEOUTVARIABLES
  2
AcDbWipeoutVariables
  3
WipeOut|AutoCAD Express Tool|expresstools@autodesk.com
 90
        0
280
     0
281
     0
  0
CLASS
  1
RTEXT
  2
RText
  3
RText|AutoCAD Express Tool|expresstools@autodesk.com
 90
    32768
280
     0
281
     1
  0
CLASS
  1
ARCALIGNEDTEXT
  2
AcDbArcAlignedText
  3
ATEXT|AutoCAD Express Tool|expresstools@autodesk.com
 90
    32768
280
     0
281
     1
  0
ENDSEC
  0
SECTION
  2
TABLES
  0
TABLE
  2
VPORT
  5
7
100
AcDbSymbolTable
 70
     1
  0
VPORT
  5
15
100
AcDbSymbolTableRecord
100
AcDbViewportTableRecord
  2
*ACTIVE
 70
     0
 10
0.0
 20
0.0
 11
1.0
 21
1.0
 12
0.0
 22
0.0
 13
0.0
 23
0.0
 14
1.0
 24
1.0
 15
0.0
 25
0.0
 16
0.0
 26
0.0
 36
1.0
 17
0.0
 27
0.0
 37
0.0
 40
100.0
 41
1.0
 42
50.0
 43
0.0
 44
0.0
 50
0.0
 51
0.0
 71
     0
 72
   100
 73
     1
 74
     1
 75
     0
 76
     0
 77
     0
 78
     0
281
     0
 65
     0
110
0.0
120
0.0
130
0.0
111
1.0
121
0.0
131
0.0
112
0.0
122
1.0
132
0.0
345
0
346
0
 79
     0
146
0.0
  0
ENDTAB
  0
TABLE
  2
LTYPE
  5
4
100
AcDbSymbolTable
 70
     7
  0
LTYPE
  5
11
100
AcDbSymbolTableRecord
100
AcDbLinetypeTableRecord
  2
ByBlock
 70
    64
  3

 72
    65
 73
     0
 40
0.0
  0
LTYPE
  5
12
100
AcDbSymbolTableRecord
100
AcDbLinetypeTableRecord
  2
ByLayer
 70
    64
  3

 72
    65
 73
     0
 40
0.0
  0
LTYPE
  5
13
100
AcDbSymbolTableRecord
100
AcDbLinetypeTableRecord
  2
Continuous
 70
    64
  3
Solid line
 72
    65
 73
     0
 40
0.0
  0
LTYPE
  5
24
100
AcDbSymbolTableRecord
100
AcDbLinetypeTableRecord
  2
DASHED
 70
    64
  3
Dashed __ __ __ __ __ __ __ __ __ __ __ __ __ _
 72
    65
 73
     2
 40
0.75
 49
0.5
 74
     0
 49
-0.25
 74
     0
  0
LTYPE
  5
25
100
AcDbSymbolTableRecord
100
AcDbLinetypeTableRecord
  2
CENTER
 70
    64
  3
Center ____ _ ____ _ ____ _ ____ _ ____ _ ____
 72
    65
 73
     4
 40
1.0
 49
0.5
 74
     0
 49
-0.25
 74
     0
 49
0.0
 74
     0
 49
-0.25
 74
     0
  0
LTYPE
  5
26
100
AcDbSymbolTableRecord
100
AcDbLinetypeTableRecord
  2
DIVIDE
 70
    64
  3
Divide ____ . . ____ . . ____ . . ____ . . ____
 72
    65
 73
     6
 40
1.25
 49
0.5
 74
     0
 49
-0.25
 74
     0
 49
0.0
 74
     0
 49
-0.25
 74
     0
 49
0.0
 74
     0
 49
-0.25
 74
     0
  0
LTYPE
  5
27
100
AcDbSymbolTableRecord
100
AcDbLinetypeTableRecord
  2
PHANTOM
 70
    64
  3
Phantom ______  __  __  ______  __  __  ______
 72
    65
 73
     6
 40
9.0
 49
4.3
 74
     0
 49
-0.7
 74
     0
 49
1.3
 74
     0
 49
-0.7
 74
     0
 49
1.3
 74
     0
 49
-0.7
 74
     0
  0
ENDTAB
  0
TABLE
  2
LAYER
  5
2
100
AcDbSymbolTable
 70
     3
  0
LAYER
  5
14
100
AcDbSymbolTableRecord
100
AcDbLayerTableRecord
  2
0
 70
    64
 62
    53
  6
Continuous
290
     1
370
    -3
390
1D
  0
LAYER
  5
28
100
AcDbSymbolTableRecord
100
AcDbLayerTableRecord
  2
3
 70
    64
 62
     4
  6
Continuous
290
     1
370
    -3
390
1D
  0
LAYER
  5
29
100
AcDbSymbolTableRecord
100
AcDbLayerTableRecord
  2
5
 70
    64
 62
   191
  6
Continuous
290
     1
370
    -3
390
1D
  0
ENDTAB
  0
TABLE
  2
STYLE
  5
3
100
AcDbSymbolTable
 70
     2
  0
STYLE
  5
17
100
AcDbSymbolTableRecord
100
AcDbTextStyleTableRecord
  2
Standard
 70
     0
 40
0.0
 41
1.0
 50
0.0
 71
     0
 42
0.0
  3
txt
  4

  0
STYLE
  5
339
100
AcDbSymbolTableRecord
100
AcDbTextStyleTableRecord
  2
ZU_SHPTB00001
 70
     0
 40
0.0
 41
1.0
 50
0.0
 71
     0
 42
0.0
  3
monotxt
  4
bigfont
  0
ENDTAB
  0
TABLE
  2
VIEW
  5
5
100
AcDbSymbolTable
 70
     0
  0
ENDTAB
  0
TABLE
  2
UCS
  5
6
100
AcDbSymbolTable
 70
     0
  0
ENDTAB
  0
TABLE
  2
APPID
  5
8
100
AcDbSymbolTable
 70
     1
  0
APPID
  5
16
100
AcDbSymbolTableRecord
100
AcDbRegAppTableRecord
  2
ACAD
 70
     0
  0
ENDTAB
  0
TABLE
  2
DIMSTYLE
  5
9
100
AcDbSymbolTable
 70
     1
100
AcDbDimStyleTable
 71
     0
  0
DIMSTYLE
105
18
100
AcDbSymbolTableRecord
100
AcDbDimStyleTableRecord
  2
Standard
 70
     0
  3

  4

 40
1.0
 41
0.18
 42
0.0625
 43
0.38
 44
0.18
 45
0.0
 46
0.0
 47
0.0
 48
0.0
 71
     0
 72
     0
 73
     1
 74
     1
 75
     0
 76
     0
 77
     0
 78
     0
 79
     0
140
0.18
141
0.09
142
0.0
143
25.4
144
1.0
145
0.0
146
1.0
147
0.09
148
0.0
170
     0
171
     2
172
     0
173
     0
174
     0
175
     0
176
     0
177
     0
178
     0
179
     0
271
     4
272
     4
273
     2
274
     2
275
     0
276
     0
277
     2
278
    46
279
     0
280
     0
281
     0
282
     0
283
     1
284
     0
285
     0
286
     0
288
     0
340
17
341
0
342
0
343
0
344
0
371
    -2
372
    -2
  0
ENDTAB
  0
TABLE
  2
BLOCK_RECORD
  5
1
100
AcDbSymbolTable
 70
     7
  0
BLOCK_RECORD
  5
A
100
AcDbSymbolTableRecord
100
AcDbBlockTableRecord
  2
*MODEL_SPACE
340
20
  0
BLOCK_RECORD
  5
B
100
AcDbSymbolTableRecord
100
AcDbBlockTableRecord
  2
*PAPER_SPACE
340
21
  0
BLOCK_RECORD
  5
D1
100
AcDbSymbolTableRecord
100
AcDbBlockTableRecord
  2
ZU_SYM__USERS_HOME_SYMBOL_POO_SYM_B20_-1
340
0
102
{BLKREFS
331
DC
102
}
  0
BLOCK_RECORD
  5
104
100
AcDbSymbolTableRecord
100
AcDbBlockTableRecord
  2
ZU_SYM__USERS_HOME_SYMBOL_POO_SYM_S07_-1
340
0
102
{BLKREFS
331
10F
102
}
  0
BLOCK_RECORD
  5
110
100
AcDbSymbolTableRecord
100
AcDbBlockTableRecord
  2
ZU_SYM__USERS_HOME_SYMBOL_POO_SYM_S07_00001-1
340
0
102
{BLKREFS
331
11B
102
}
  0
BLOCK_RECORD
  5
11C
100
AcDbSymbolTableRecord
100
AcDbBlockTableRecord
  2
ZU_SYM__USERS_HOME_SYMBOL_POO_SYM_S07_00002-1
340
0
102
{BLKREFS
331
127
102
}
  0
BLOCK_RECORD
  5
128
100
AcDbSymbolTableRecord
100
AcDbBlockTableRecord
  2
ZU_SYM__USERS_HOME_SYMBOL_POO_SYM_S07_00003-1
340
0
102
{BLKREFS
331
133
102
}
  0
BLOCK_RECORD
  5
2BE
100
AcDbSymbolTableRecord
100
AcDbBlockTableRecord
  2
ZU_SYM__USERS_HOME_SYMBOL_POO_SYM_B20_00004-1
340
0
102
{BLKREFS
331
2C9
102
}
  0
BLOCK_RECORD
  5
2CA
100
AcDbSymbolTableRecord
100
AcDbBlockTableRecord
  2
ZU_SYM__USERS_HOME_SYMBOL_POO_SYM_B20_00005-1
340
0
102
{BLKREFS
331
2D5
102
}
  0
ENDTAB
  0
ENDSEC
  0
SECTION
  2
BLOCKS
  0
BLOCK
  5
D
100
AcDbEntity
  8
0
100
AcDbBlockBegin
  2
*MODEL_SPACE
 70
     0
 10
0.0
 20
0.0
 30
0.0
  3
*MODEL_SPACE
  1

  0
ENDBLK
  5
E
100
AcDbEntity
  8
0
100
AcDbBlockEnd
  0
BLOCK
  5
F
100
AcDbEntity
 67
     1
  8
0
100
AcDbBlockBegin
  2
*PAPER_SPACE
 70
     0
 10
0.0
 20
0.0
 30
0.0
  3
*PAPER_SPACE
  1

  0
ENDBLK
  5
10
100
AcDbEntity
 67
     1
  8
0
100
AcDbBlockEnd
  0
BLOCK
  5
D2
100
AcDbEntity
  8
0
100
AcDbBlockBegin
  2
ZU_SYM__USERS_HOME_SYMBOL_POO_SYM_B20_-1
 70
    64
 10
0.0
 20
0.0
 30
0.0
  3
ZU_SYM__USERS_HOME_SYMBOL_POO_SYM_B20_-1
  1

  0
POINT
  5
D3
100
AcDbEntity
  8
0
370
    -3
  6
Continuous
100
AcDbPoint
 10
0.0
 20
0.0
 30
0.0
  0
LINE
  5
D4
100
AcDbEntity
  8
0
370
    -3
  6
Continuous
100
AcDbLine
 10
0.0
 20
-6.5
 30
0.0
 11
0.0
 21
6.5
 31
0.0
  0
LINE
  5
D5
100
AcDbEntity
  8
0
370
    -3
  6
Continuous
100
AcDbLine
 10
-7.999999
 20
5.633876
 30
0.0
 11
-7.999999
 21
-5.63407
 31
0.0
  0
LINE
  5
D6
100
AcDbEntity
  8
0
370
    -3
  6
Continuous
100
AcDbLine
 10
0.0
 20
6.5
 30
0.0
 11
-7.499999
 21
6.5
 31
0.0
  0
LINE
  5
D7
100
AcDbEntity
  8
0
370
    -3
  6
Continuous
100
AcDbLine
 10
0.0
 20
-6.5
 30
0.0
 11
-7.499998
 21
-6.5
 31
0.0
  0
LINE
  5
D8
100
AcDbEntity
  8
0
370
    -3
  6
Continuous
100
AcDbLine
 10
-7.499999
 20
6.5
 30
0.0
 11
-7.999999
 21
5.633876
 31
0.0
  0
LINE
  5
D9
100
AcDbEntity
  8
0
370
    -3
  6
Continuous
100
AcDbLine
 10
-7.499998
 20
-6.499999
 30
0.0
 11
-7.999999
 21
-5.63407
 31
0.0
  0
LINE
  5
DA
100
AcDbEntity
  8
0
370
    -3
  6
Continuous
100
AcDbLine
 10
-7.499999
 20
6.5
 30
0.0
 11
-7.499999
 21
-6.5
 31
0.0
  0
ENDBLK
  5
DB
100
AcDbEntity
  8
0
100
AcDbBlockEnd
  0
BLOCK
  5
105
100
AcDbEntity
  8
0
100
AcDbBlockBegin
  2
ZU_SYM__USERS_HOME_SYMBOL_POO_SYM_S07_-1
 70
    64
 10
0.0
 20
0.0
 30
0.0
  3
ZU_SYM__USERS_HOME_SYMBOL_POO_SYM_S07_-1
  1

  0
ARC
  5
106
100
AcDbEntity
  8
0
370
    -3
  6
Continuous
100
AcDbCircle
 10
-0.979025
 20
-2.200001
 30
0.0
 40
1.299999
100
AcDbArc
 50
196.601531
 51
270.0
  0
ARC
  5
107
100
AcDbEntity
  8
0
370
    -3
  6
Continuous
100
AcDbCircle
 10
-0.979025
 20
2.200001
 30
0.0
 40
1.299999
100
AcDbArc
 50
90.0
 51
163.398452
  0
LINE
  5
108
100
AcDbEntity
  8
0
370
    -3
  6
Continuous
100
AcDbLine
 10
0.0
 20
-3.5
 30
0.0
 11
-0.979025
 21
-3.5
 31
0.0
  0
LINE
  5
109
100
AcDbEntity
  8
0
370
    -3
  6
Continuous
100
AcDbLine
 10
0.0
 20
3.5
 30
0.0
 11
-0.979025
 21
3.5
 31
0.0
  0
LINE
  5
10A
100
AcDbEntity
  8
0
370
    -3
  6
Continuous
100
AcDbLine
 10
0.0
 20
-3.5
 30
0.0
 11
0.0
 21
3.5
 31
0.0
  0
LINE
  5
10B
100
AcDbEntity
  8
0
370
    -3
  6
Continuous
100
AcDbLine
 10
0.0
 20
-3.5
 30
0.0
 11
0.0
 21
3.5
 31
0.0
  0
POINT
  5
10C
100
AcDbEntity
  8
0
370
    -3
  6
Continuous
100
AcDbPoint
 10
0.0
 20
0.0
 30
0.0
  0
ARC
  5
10D
100
AcDbEntity
  8
0
370
    -3
  6
Continuous
100
AcDbCircle
 10
6.4
 20
0.0
 30
0.0
 40
9.0
100
AcDbArc
 50
163.398452
 51
196.601531
  0
ENDBLK
  5
10E
100
AcDbEntity
  8
0
100
AcDbBlockEnd
  0
BLOCK
  5
111
100
AcDbEntity
  8
0
100
AcDbBlockBegin
  2
ZU_SYM__USERS_HOME_SYMBOL_POO_SYM_S07_00001-1
 70
    64
 10
0.0
 20
0.0
 30
0.0
  3
ZU_SYM__USERS_HOME_SYMBOL_POO_SYM_S07_00001-1
  1

  0
ARC
  5
112
100
AcDbEntity
  8
0
370
    -3
  6
Continuous
100
AcDbCircle
 10
-0.979025
 20
-2.200001
 30
0.0
 40
1.299999
100
AcDbArc
 50
196.601531
 51
270.0
  0
ARC
  5
113
100
AcDbEntity
  8
0
370
    -3
  6
Continuous
100
AcDbCircle
 10
-0.979025
 20
2.200001
 30
0.0
 40
1.299999
100
AcDbArc
 50
90.0
 51
163.398452
  0
LINE
  5
114
100
AcDbEntity
  8
0
370
    -3
  6
Continuous
100
AcDbLine
 10
0.0
 20
-3.5
 30
0.0
 11
-0.979025
 21
-3.5
 31
0.0
  0
LINE
  5
115
100
AcDbEntity
  8
0
370
    -3
  6
Continuous
100
AcDbLine
 10
0.0
 20
3.5
 30
0.0
 11
-0.979025
 21
3.5
 31
0.0
  0
LINE
  5
116
100
AcDbEntity
  8
0
370
    -3
  6
Continuous
100
AcDbLine
 10
0.0
 20
-3.5
 30
0.0
 11
0.0
 21
3.5
 31
0.0
  0
LINE
  5
117
100
AcDbEntity
  8
0
370
    -3
  6
Continuous
100
AcDbLine
 10
0.0
 20
-3.5
 30
0.0
 11
0.0
 21
3.5
 31
0.0
  0
POINT
  5
118
100
AcDbEntity
  8
0
370
    -3
  6
Continuous
100
AcDbPoint
 10
0.0
 20
0.0
 30
0.0
  0
ARC
  5
119
100
AcDbEntity
  8
0
370
    -3
  6
Continuous
100
AcDbCircle
 10
6.4
 20
0.0
 30
0.0
 40
9.0
100
AcDbArc
 50
163.398452
 51
196.601531
  0
ENDBLK
  5
11A
100
AcDbEntity
  8
0
100
AcDbBlockEnd
  0
BLOCK
  5
11D
100
AcDbEntity
  8
0
100
AcDbBlockBegin
  2
ZU_SYM__USERS_HOME_SYMBOL_POO_SYM_S07_00002-1
 70
    64
 10
0.0
 20
0.0
 30
0.0
  3
ZU_SYM__USERS_HOME_SYMBOL_POO_SYM_S07_00002-1
  1

  0
ARC
  5
11E
100
AcDbEntity
  8
0
370
    -3
  6
Continuous
100
AcDbCircle
 10
-0.979025
 20
-2.200001
 30
0.0
 40
1.299999
100
AcDbArc
 50
196.601531
 51
270.0
  0
ARC
  5
11F
100
AcDbEntity
  8
0
370
    -3
  6
Continuous
100
AcDbCircle
 10
-0.979025
 20
2.200001
 30
0.0
 40
1.299999
100
AcDbArc
 50
90.0
 51
163.398452
  0
LINE
  5
120
100
AcDbEntity
  8
0
370
    -3
  6
Continuous
100
AcDbLine
 10
0.0
 20
-3.5
 30
0.0
 11
-0.979025
 21
-3.5
 31
0.0
  0
LINE
  5
121
100
AcDbEntity
  8
0
370
    -3
  6
Continuous
100
AcDbLine
 10
0.0
 20
3.5
 30
0.0
 11
-0.979025
 21
3.5
 31
0.0
  0
LINE
  5
122
100
AcDbEntity
  8
0
370
    -3
  6
Continuous
100
AcDbLine
 10
0.0
 20
-3.5
 30
0.0
 11
0.0
 21
3.5
 31
0.0
  0
LINE
  5
123
100
AcDbEntity
  8
0
370
    -3
  6
Continuous
100
AcDbLine
 10
0.0
 20
-3.5
 30
0.0
 11
0.0
 21
3.5
 31
0.0
  0
POINT
  5
124
100
AcDbEntity
  8
0
370
    -3
  6
Continuous
100
AcDbPoint
 10
0.0
 20
0.0
 30
0.0
  0
ARC
  5
125
100
AcDbEntity
  8
0
370
    -3
  6
Continuous
100
AcDbCircle
 10
6.4
 20
0.0
 30
0.0
 40
9.0
100
AcDbArc
 50
163.398452
 51
196.601531
  0
ENDBLK
  5
126
100
AcDbEntity
  8
0
100
AcDbBlockEnd
  0
BLOCK
  5
129
100
AcDbEntity
  8
0
100
AcDbBlockBegin
  2
ZU_SYM__USERS_HOME_SYMBOL_POO_SYM_S07_00003-1
 70
    64
 10
0.0
 20
0.0
 30
0.0
  3
ZU_SYM__USERS_HOME_SYMBOL_POO_SYM_S07_00003-1
  1

  0
ARC
  5
12A
100
AcDbEntity
  8
0
370
    -3
  6
Continuous
100
AcDbCircle
 10
-0.979025
 20
-2.200001
 30
0.0
 40
1.299999
100
AcDbArc
 50
196.601531
 51
270.0
  0
ARC
  5
12B
100
AcDbEntity
  8
0
370
    -3
  6
Continuous
100
AcDbCircle
 10
-0.979025
 20
2.200001
 30
0.0
 40
1.299999
100
AcDbArc
 50
90.0
 51
163.398452
  0
LINE
  5
12C
100
AcDbEntity
  8
0
370
    -3
  6
Continuous
100
AcDbLine
 10
0.0
 20
-3.5
 30
0.0
 11
-0.979025
 21
-3.5
 31
0.0
  0
LINE
  5
12D
100
AcDbEntity
  8
0
370
    -3
  6
Continuous
100
AcDbLine
 10
0.0
 20
3.5
 30
0.0
 11
-0.979025
 21
3.5
 31
0.0
  0
LINE
  5
12E
100
AcDbEntity
  8
0
370
    -3
  6
Continuous
100
AcDbLine
 10
0.0
 20
-3.5
 30
0.0
 11
0.0
 21
3.5
 31
0.0
  0
LINE
  5
12F
100
AcDbEntity
  8
0
370
    -3
  6
Continuous
100
AcDbLine
 10
0.0
 20
-3.5
 30
0.0
 11
0.0
 21
3.5
 31
0.0
  0
POINT
  5
130
100
AcDbEntity
  8
0
370
    -3
  6
Continuous
100
AcDbPoint
 10
0.0
 20
0.0
 30
0.0
  0
ARC
  5
131
100
AcDbEntity
  8
0
370
    -3
  6
Continuous
100
AcDbCircle
 10
6.4
 20
0.0
 30
0.0
 40
9.0
100
AcDbArc
 50
163.398452
 51
196.601531
  0
ENDBLK
  5
132
100
AcDbEntity
  8
0
100
AcDbBlockEnd
  0
BLOCK
  5
2BF
100
AcDbEntity
  8
0
100
AcDbBlockBegin
  2
ZU_SYM__USERS_HOME_SYMBOL_POO_SYM_B20_00004-1
 70
    64
 10
0.0
 20
0.0
 30
0.0
  3
ZU_SYM__USERS_HOME_SYMBOL_POO_SYM_B20_00004-1
  1

  0
LINE
  5
2C0
100
AcDbEntity
  8
0
370
    -3
  6
Continuous
100
AcDbLine
 10
-7.499999
 20
6.5
 30
0.0
 11
-7.499999
 21
-6.5
 31
0.0
  0
LINE
  5
2C1
100
AcDbEntity
  8
0
370
    -3
  6
Continuous
100
AcDbLine
 10
-7.499998
 20
-6.499999
 30
0.0
 11
-7.999999
 21
-5.63407
 31
0.0
  0
LINE
  5
2C2
100
AcDbEntity
  8
0
370
    -3
  6
Continuous
100
AcDbLine
 10
-7.499999
 20
6.5
 30
0.0
 11
-7.999999
 21
5.633876
 31
0.0
  0
LINE
  5
2C3
100
AcDbEntity
  8
0
370
    -3
  6
Continuous
100
AcDbLine
 10
0.0
 20
-6.5
 30
0.0
 11
-7.499998
 21
-6.5
 31
0.0
  0
LINE
  5
2C4
100
AcDbEntity
  8
0
370
    -3
  6
Continuous
100
AcDbLine
 10
0.0
 20
6.5
 30
0.0
 11
-7.499999
 21
6.5
 31
0.0
  0
LINE
  5
2C5
100
AcDbEntity
  8
0
370
    -3
  6
Continuous
100
AcDbLine
 10
-7.999999
 20
5.633876
 30
0.0
 11
-7.999999
 21
-5.63407
 31
0.0
  0
LINE
  5
2C6
100
AcDbEntity
  8
0
370
    -3
  6
Continuous
100
AcDbLine
 10
0.0
 20
-6.5
 30
0.0
 11
0.0
 21
6.5
 31
0.0
  0
POINT
  5
2C7
100
AcDbEntity
  8
0
370
    -3
  6
Continuous
100
AcDbPoint
 10
0.0
 20
0.0
 30
0.0
  0
ENDBLK
  5
2C8
100
AcDbEntity
  8
0
100
AcDbBlockEnd
  0
BLOCK
  5
2CB
100
AcDbEntity
  8
0
100
AcDbBlockBegin
  2
ZU_SYM__USERS_HOME_SYMBOL_POO_SYM_B20_00005-1
 70
    64
 10
0.0
 20
0.0
 30
0.0
  3
ZU_SYM__USERS_HOME_SYMBOL_POO_SYM_B20_00005-1
  1

  0
LINE
  5
2CC
100
AcDbEntity
  8
0
370
    -3
  6
Continuous
100
AcDbLine
 10
-7.499999
 20
6.5
 30
0.0
 11
-7.499999
 21
-6.5
 31
0.0
  0
LINE
  5
2CD
100
AcDbEntity
  8
0
370
    -3
  6
Continuous
100
AcDbLine
 10
-7.499998
 20
-6.499999
 30
0.0
 11
-7.999999
 21
-5.63407
 31
0.0
  0
LINE
  5
2CE
100
AcDbEntity
  8
0
370
    -3
  6
Continuous
100
AcDbLine
 10
-7.499999
 20
6.5
 30
0.0
 11
-7.999999
 21
5.633876
 31
0.0
  0
LINE
  5
2CF
100
AcDbEntity
  8
0
370
    -3
  6
Continuous
100
AcDbLine
 10
0.0
 20
-6.5
 30
0.0
 11
-7.499998
 21
-6.5
 31
0.0
  0
LINE
  5
2D0
100
AcDbEntity
  8
0
370
    -3
  6
Continuous
100
AcDbLine
 10
0.0
 20
6.5
 30
0.0
 11
-7.499999
 21
6.5
 31
0.0
  0
LINE
  5
2D1
100
AcDbEntity
  8
0
370
    -3
  6
Continuous
100
AcDbLine
 10
-7.999999
 20
5.633876
 30
0.0
 11
-7.999999
 21
-5.63407
 31
0.0
  0
LINE
  5
2D2
100
AcDbEntity
  8
0
370
    -3
  6
Continuous
100
AcDbLine
 10
0.0
 20
-6.5
 30
0.0
 11
0.0
 21
6.5
 31
0.0
  0
POINT
  5
2D3
100
AcDbEntity
  8
0
370
    -3
  6
Continuous
100
AcDbPoint
 10
0.0
 20
0.0
 30
0.0
  0
ENDBLK
  5
2D4
100
AcDbEntity
  8
0
100
AcDbBlockEnd
  0
ENDSEC
  0
SECTION
  2
ENTITIES
  0
ARC
  5
2A
100
AcDbEntity
  8
0
370
    -3
  6
Continuous
100
AcDbCircle
 10
-127.910158
 20
-113.458289
 30
0.0
 40
25.0
100
AcDbArc
 50
106.260205
 51
73.739795
  0
LINE
  5
2B
100
AcDbEntity
  8
0
370
    -3
  6
Continuous
100
AcDbLine
 10
-134.910158
 20
-84.958289
 30
0.0
 11
-134.910158
 21
-93.958289
 31
0.0
  0
LINE
  5
2C
100
AcDbEntity
  8
0
370
    -3
  6
Continuous
100
AcDbLine
 10
-134.910158
 20
-93.958289
 30
0.0
 11
-120.910158
 21
-93.958289
 31
0.0
  0
LINE
  5
2D
100
AcDbEntity
  8
0
370
    -3
  6
Continuous
100
AcDbLine
 10
-134.910158
 20
-84.958289
 30
0.0
 11
-120.910158
 21
-84.958289
 31
0.0
  0
LINE
  5
2E
100
AcDbEntity
  8
0
370
    -3
  6
Continuous
100
AcDbLine
 10
-120.910158
 20
-84.958289
 30
0.0
 11
-120.910158
 21
-93.958289
 31
0.0
  0
LINE
  5
2F
100
AcDbEntity
  8
0
370
    -3
  6
CENTER
100
AcDbLine
 10
-127.910158
 20
-74.226701
 30
0.0
 11
-127.910158
 21
-147.237453
 31
0.0
  0
CIRCLE
  5
30
100
AcDbEntity
  8
0
370
    -3
  6
Continuous
100
AcDbCircle
 10
-127.910158
 20
-113.458289
 30
0.0
 40
3.5
  0
CIRCLE
  5
31
100
AcDbEntity
  8
0
370
    -3
  6
Continuous
100
AcDbCircle
 10
-127.910158
 20
-113.458289
 30
0.0
 40
4.0
  0
ARC
  5
32
100
AcDbEntity
  8
0
370
    -3
  6
Continuous
100
AcDbCircle
 10
-61.410165
 20
-133.458289
 30
0.0
 40
390.8
100
AcDbArc
 50
177.020093
 51
182.979907
  0
ARC
  5
33
100
AcDbEntity
  8
0
370
    -3
  6
Continuous
100
AcDbCircle
 10
-668.410165
 20
-133.458289
 30
0.0
 40
390.8
100
AcDbArc
 50
357.020093
 51
2.979907
  0
ARC
  5
34
100
AcDbEntity
  8
0
370
    -3
  6
Continuous
100
AcDbCircle
 10
-343.849622
 20
-116.56292
 30
0.0
 40
65.8
100
AcDbArc
 50
2.979907
 51
13.657552
  0
ARC
  5
35
100
AcDbEntity
  8
0
370
    -3
  6
Continuous
100
AcDbCircle
 10
-343.849622
 20
-150.353658
 30
0.0
 40
65.8
100
AcDbArc
 50
346.342448
 51
357.020093
  0
ARC
  5
36
100
AcDbEntity
  8
0
370
    -3
  6
Continuous
100
AcDbCircle
 10
-385.970709
 20
-150.353658
 30
0.0
 40
65.8
100
AcDbArc
 50
182.979907
 51
193.657579
  0
ARC
  5
37
100
AcDbEntity
  8
0
370
    -3
  6
Continuous
100
AcDbCircle
 10
-385.970709
 20
-116.56292
 30
0.0
 40
65.8
100
AcDbArc
 50
166.342421
 51
177.020093
  0
ARC
  5
38
100
AcDbEntity
  8
0
370
    -3
  6
DASHED
100
AcDbCircle
 10
-364.910165
 20
-133.458289
 30
0.0
 40
92.8
100
AcDbArc
 50
128.737581
 51
141.262419
  0
ARC
  5
39
100
AcDbEntity
  8
0
370
    -3
  6
DASHED
100
AcDbCircle
 10
-364.910165
 20
-133.458289
 30
0.0
 40
92.8
100
AcDbArc
 50
38.737581
 51
51.262419
  0
ARC
  5
3A
100
AcDbEntity
  8
0
370
    -3
  6
DASHED
100
AcDbCircle
 10
-343.849622
 20
-116.56292
 30
0.0
 40
65.8
100
AcDbArc
 50
13.657552
 51
38.737581
  0
ARC
  5
3B
100
AcDbEntity
  8
0
370
    -3
  6
DASHED
100
AcDbCircle
 10
-385.970709
 20
-116.56292
 30
0.0
 40
65.8
100
AcDbArc
 50
141.262419
 51
166.342421
  0
ARC
  5
3C
100
AcDbEntity
  8
0
370
    -3
  6
DASHED
100
AcDbCircle
 10
-364.910165
 20
-133.458289
 30
0.0
 40
92.8
100
AcDbArc
 50
218.737581
 51
231.262419
  0
ARC
  5
3D
100
AcDbEntity
  8
0
370
    -3
  6
DASHED
100
AcDbCircle
 10
-381.805534
 20
-154.518833
 30
0.0
 40
65.8
100
AcDbArc
 50
231.262419
 51
267.020093
  0
ARC
  5
3E
100
AcDbEntity
  8
0
370
    -3
  6
DASHED
100
AcDbCircle
 10
-364.910165
 20
170.041711
 30
0.0
 40
390.8
100
AcDbArc
 50
267.020093
 51
272.979907
  0
ARC
  5
3F
100
AcDbEntity
  8
0
370
    -3
  6
DASHED
100
AcDbCircle
 10
-348.014796
 20
-154.518833
 30
0.0
 40
65.8
100
AcDbArc
 50
272.979907
 51
308.737581
  0
ARC
  5
40
100
AcDbEntity
  8
0
370
    -3
  6
DASHED
100
AcDbCircle
 10
-364.910165
 20
-133.458289
 30
0.0
 40
92.8
100
AcDbArc
 50
308.737581
 51
321.262419
  0
ARC
  5
41
100
AcDbEntity
  8
0
370
    -3
  6
DASHED
100
AcDbCircle
 10
-343.849622
 20
-150.353658
 30
0.0
 40
65.8
100
AcDbArc
 50
321.262419
 51
346.342448
  0
ARC
  5
42
100
AcDbEntity
  8
0
370
    -3
  6
DASHED
100
AcDbCircle
 10
-385.970709
 20
-150.353658
 30
0.0
 40
65.8
100
AcDbArc
 50
193.657579
 51
218.737581
  0
LINE
  5
43
100
AcDbEntity
  8
0
370
    -3
  6
CENTER
100
AcDbLine
 10
-189.984256
 20
-113.458289
 30
0.0
 11
-465.580047
 21
-113.458289
 31
0.0
  0
LINE
  5
44
100
AcDbEntity
  8
0
370
    -3
  6
CENTER
100
AcDbLine
 10
-342.60257
 20
-133.458289
 30
0.0
 11
-381.575095
 21
-133.458289
 31
0.0
  0
LINE
  5
45
100
AcDbEntity
  8
0
370
    -3
  6
Continuous
100
AcDbLine
 10
-277.910158
 20
-87.458289
 30
0.0
 11
-277.910158
 21
-139.458289
 31
0.0
  0
LINE
  5
46
100
AcDbEntity
  8
0
370
    -3
  6
Continuous
100
AcDbLine
 10
-279.910158
 20
-139.458289
 30
0.0
 11
-277.910158
 21
-139.458289
 31
0.0
  0
LINE
  5
47
100
AcDbEntity
  8
0
370
    -3
  6
Continuous
100
AcDbLine
 10
-277.910158
 20
-138.458289
 30
0.0
 11
-202.910158
 21
-138.458289
 31
0.0
  0
LINE
  5
48
100
AcDbEntity
  8
0
370
    -3
  6
Continuous
100
AcDbLine
 10
-202.910158
 20
-84.958289
 30
0.0
 11
-202.910158
 21
-138.458289
 31
0.0
  0
LINE
  5
49
100
AcDbEntity
  8
0
370
    -3
  6
Continuous
100
AcDbLine
 10
-277.910158
 20
-88.458289
 30
0.0
 11
-202.910158
 21
-88.458289
 31
0.0
  0
LINE
  5
4A
100
AcDbEntity
  8
0
370
    -3
  6
Continuous
100
AcDbLine
 10
-279.910158
 20
-87.458289
 30
0.0
 11
-277.910158
 21
-87.458289
 31
0.0
  0
LINE
  5
4B
100
AcDbEntity
  8
0
370
    -3
  6
Continuous
100
AcDbLine
 10
-265.910158
 20
-88.458289
 30
0.0
 11
-265.910158
 21
-84.958289
 31
0.0
  0
LINE
  5
4C
100
AcDbEntity
  8
0
370
    -3
  6
Continuous
100
AcDbLine
 10
-265.910158
 20
-84.958289
 30
0.0
 11
-202.910158
 21
-84.958289
 31
0.0
  0
ARC
  5
4D
100
AcDbEntity
  8
0
370
    -3
  6
Continuous
100
AcDbCircle
 10
-364.910472
 20
-8.458028
 30
0.0
 40
10.0
100
AcDbArc
 50
3.733167
 51
176.26696
  0
LINE
  5
4E
100
AcDbEntity
  8
0
370
    -3
  6
Continuous
100
AcDbLine
 10
-344.410484
 20
1.542009
 30
0.0
 11
-344.410472
 21
-8.174338
 31
0.0
  0
ARC
  5
4F
100
AcDbEntity
  8
0
370
    -3
  6
Continuous
100
AcDbCircle
 10
-354.410484
 20
1.541997
 30
0.0
 40
10.0
100
AcDbArc
 50
0.00007
 51
90.000139
  0
LINE
  5
50
100
AcDbEntity
  8
0
370
    -3
  6
Continuous
100
AcDbLine
 10
-385.410484
 20
1.541934
 30
0.0
 11
-385.410472
 21
-8.17436
 31
0.0
  0
LINE
  5
51
100
AcDbEntity
  8
0
370
    -3
  6
Continuous
100
AcDbLine
 10
-375.410508
 20
11.541946
 30
0.0
 11
-354.410508
 21
11.541997
 31
0.0
  0
ARC
  5
52
100
AcDbEntity
  8
0
370
    -3
  6
Continuous
100
AcDbCircle
 10
-375.410484
 20
1.541946
 30
0.0
 40
10.0
100
AcDbArc
 50
90.000139
 51
180.00007
  0
LINE
  5
53
100
AcDbEntity
  8
0
370
    -3
  6
Continuous
100
AcDbLine
 10
-443.910843
 20
-11.785815
 30
0.0
 11
-444.910158
 21
-12.81164
 31
0.0
  0
LINE
  5
54
100
AcDbEntity
  8
0
370
    -3
  6
Continuous
100
AcDbLine
 10
-385.410327
 20
-8.174355
 30
0.0
 11
-385.410327
 21
-7.958289
 31
0.0
  0
LINE
  5
55
100
AcDbEntity
  8
0
370
    -3
  6
Continuous
100
AcDbLine
 10
-344.410327
 20
-8.174343
 30
0.0
 11
-344.410327
 21
-7.958289
 31
0.0
  0
LINE
  5
56
100
AcDbEntity
  8
0
370
    -3
  6
Continuous
100
AcDbLine
 10
-364.910158
 20
-7.458473
 30
0.0
 11
-431.410158
 21
-9.780704
 31
0.0
  0
LINE
  5
57
100
AcDbEntity
  8
0
370
    -3
  6
Continuous
100
AcDbLine
 10
-431.410158
 20
-11.458473
 30
0.0
 11
-443.910843
 21
-11.785815
 31
0.0
  0
LINE
  5
58
100
AcDbEntity
  8
0
370
    -3
  6
Continuous
100
AcDbLine
 10
-443.910843
 20
-11.785815
 30
0.0
 11
-444.910158
 21
-12.81164
 31
0.0
  0
LINE
  5
59
100
AcDbEntity
  8
0
370
    -3
  6
Continuous
100
AcDbLine
 10
-284.910158
 20
-188.458473
 30
0.0
 11
-279.910158
 21
-188.458473
 31
0.0
  0
LINE
  5
5A
100
AcDbEntity
  8
0
370
    -3
  6
Continuous
100
AcDbLine
 10
-361.910158
 20
-7.563235
 30
0.0
 11
-298.410158
 21
-9.780704
 31
0.0
  0
LINE
  5
5B
100
AcDbEntity
  8
0
370
    -3
  6
Continuous
100
AcDbLine
 10
-361.914269
 20
-9.301465
 30
0.0
 11
-364.910158
 21
-9.458473
 31
0.0
  0
LINE
  5
5C
100
AcDbEntity
  8
0
370
    -3
  6
Continuous
100
AcDbLine
 10
-285.909473
 20
-11.785815
 30
0.0
 11
-284.910158
 21
-12.81164
 31
0.0
  0
LINE
  5
5D
100
AcDbEntity
  8
0
370
    -3
  6
Continuous
100
AcDbLine
 10
-298.410158
 20
-11.458473
 30
0.0
 11
-285.909473
 21
-11.785815
 31
0.0
  0
LINE
  5
5E
100
AcDbEntity
  8
0
370
    -3
  6
Continuous
100
AcDbLine
 10
-444.910158
 20
-188.458289
 30
0.0
 11
-449.910158
 21
-188.458289
 31
0.0
  0
ARC
  5
5F
100
AcDbEntity
  8
0
370
    -3
  6
Continuous
100
AcDbCircle
 10
253.089842
 20
-58.458384
 30
0.0
 40
1.0
100
AcDbArc
 50
180.0
 51
270.0
  0
ARC
  5
60
100
AcDbEntity
  8
0
370
    -3
  6
Continuous
100
AcDbCircle
 10
250.089842
 20
-214.958289
 30
0.0
 40
2.0
100
AcDbArc
 50
270.0
 51
0.0
  0
ARC
  5
61
100
AcDbEntity
  8
0
370
    -3
  6
Continuous
100
AcDbCircle
 10
238.418269
 20
-214.958289
 30
0.0
 40
2.0
100
AcDbArc
 50
225.0
 51
270.0
  0
LINE
  5
62
100
AcDbEntity
  8
0
370
    -3
  6
Continuous
100
AcDbLine
 10
250.089842
 20
-216.958289
 30
0.0
 11
238.418269
 21
-216.958289
 31
0.0
  0
LINE
  5
63
100
AcDbEntity
  8
0
370
    -3
  6
Continuous
100
AcDbLine
 10
237.089842
 20
-50.458289
 30
0.0
 11
235.089842
 21
-52.458289
 31
0.0
  0
LINE
  5
64
100
AcDbEntity
  8
0
370
    -3
  6
Continuous
100
AcDbLine
 10
235.089842
 20
-52.458289
 30
0.0
 11
235.089842
 21
-214.458289
 31
0.0
  0
LINE
  5
65
100
AcDbEntity
  8
0
370
    -3
  6
Continuous
100
AcDbLine
 10
237.089842
 20
-216.458289
 30
0.0
 11
235.089842
 21
-214.458289
 31
0.0
  0
LINE
  5
66
100
AcDbEntity
  8
0
370
    -3
  6
Continuous
100
AcDbLine
 10
253.089842
 20
-207.458194
 30
0.0
 11
253.089842
 21
-59.458384
 31
0.0
  0
ARC
  5
67
100
AcDbEntity
  8
0
370
    -3
  6
Continuous
100
AcDbCircle
 10
253.089842
 20
-208.458194
 30
0.0
 40
1.0
100
AcDbArc
 50
90.0
 51
180.0
  0
LINE
  5
68
100
AcDbEntity
  8
0
370
    -3
  6
Continuous
100
AcDbLine
 10
252.089842
 20
-214.958289
 30
0.0
 11
252.089842
 21
-133.458289
 31
0.0
  0
ARC
  5
69
100
AcDbEntity
  8
0
370
    -3
  6
Continuous
100
AcDbCircle
 10
250.089842
 20
-51.958289
 30
0.0
 40
2.0
100
AcDbArc
 50
0.0
 51
90.0
  0
ARC
  5
6A
100
AcDbEntity
  8
0
370
    -3
  6
Continuous
100
AcDbCircle
 10
238.418269
 20
-51.958289
 30
0.0
 40
2.0
100
AcDbArc
 50
90.0
 51
135.0
  0
LINE
  5
6B
100
AcDbEntity
  8
0
370
    -3
  6
Continuous
100
AcDbLine
 10
250.089842
 20
-49.958289
 30
0.0
 11
238.418269
 21
-49.958289
 31
0.0
  0
LINE
  5
6C
100
AcDbEntity
  8
0
370
    -3
  6
Continuous
100
AcDbLine
 10
252.089842
 20
-51.958289
 30
0.0
 11
252.089842
 21
-133.458289
 31
0.0
  0
LINE
  5
6D
100
AcDbEntity
  8
0
370
    -3
  6
Continuous
100
AcDbLine
 10
237.589842
 20
-216.778648
 30
0.0
 11
237.589842
 21
-50.13793
 31
0.0
  0
LINE
  5
6E
100
AcDbEntity
  8
0
370
    -3
  6
Continuous
100
AcDbLine
 10
237.589842
 20
-114.958289
 30
0.0
 11
252.089842
 21
-114.958289
 31
0.0
  0
LINE
  5
6F
100
AcDbEntity
  8
0
370
    -3
  6
Continuous
100
AcDbLine
 10
237.589842
 20
-151.958289
 30
0.0
 11
252.089842
 21
-151.958289
 31
0.0
  0
LINE
  5
70
100
AcDbEntity
  8
0
370
    -3
  6
Continuous
100
AcDbLine
 10
249.089842
 20
-23.458289
 30
0.0
 11
240.089842
 21
-23.458289
 31
0.0
  0
LINE
  5
71
100
AcDbEntity
  8
0
370
    -3
  6
Continuous
100
AcDbLine
 10
256.589842
 20
11.541763
 30
0.0
 11
256.589842
 21
-43.458237
 31
0.0
  0
ARC
  5
72
100
AcDbEntity
  8
0
370
    -3
  6
Continuous
100
AcDbCircle
 10
249.089842
 20
-26.458289
 30
0.0
 40
3.0
100
AcDbArc
 50
0.0
 51
90.0
  0
LINE
  5
73
100
AcDbEntity
  8
0
370
    -3
  6
Continuous
100
AcDbLine
 10
252.089842
 20
-26.458289
 30
0.0
 11
252.089842
 21
-58.458384
 31
0.0
  0
LINE
  5
74
100
AcDbEntity
  8
0
370
    -3
  6
Continuous
100
AcDbLine
 10
256.589842
 20
11.541763
 30
0.0
 11
252.089842
 21
11.541763
 31
0.0
  0
ARC
  5
75
100
AcDbEntity
  8
0
370
    -3
  6
Continuous
100
AcDbCircle
 10
240.089842
 20
-26.458289
 30
0.0
 40
3.0
100
AcDbArc
 50
90.0
 51
180.0
  0
LINE
  5
76
100
AcDbEntity
  8
0
370
    -3
  6
Continuous
100
AcDbLine
 10
256.589842
 20
-43.458237
 30
0.0
 11
252.089842
 21
-43.458237
 31
0.0
  0
LINE
  5
77
100
AcDbEntity
  8
0
370
    -3
  6
Continuous
100
AcDbLine
 10
237.089842
 20
-26.458289
 30
0.0
 11
237.089842
 21
-50.458289
 31
0.0
  0
LINE
  5
78
100
AcDbEntity
  8
0
370
    -3
  6
Continuous
100
AcDbLine
 10
253.089842
 20
-216.458274
 30
0.0
 11
408.089843
 21
-216.458274
 31
0.0
  0
LINE
  5
79
100
AcDbEntity
  8
0
370
    -3
  6
Continuous
100
AcDbLine
 10
253.089842
 20
-215.958274
 30
0.0
 11
408.089843
 21
-215.958274
 31
0.0
  0
LINE
  5
7A
100
AcDbEntity
  8
0
370
    -3
  6
Continuous
100
AcDbLine
 10
253.089842
 20
-213.458274
 30
0.0
 11
408.089843
 21
-213.458274
 31
0.0
  0
LINE
  5
7B
100
AcDbEntity
  8
0
370
    -3
  6
Continuous
100
AcDbLine
 10
411.089843
 20
-47.098764
 30
0.0
 11
427.089843
 21
-47.098764
 31
0.0
  0
ARC
  5
7C
100
AcDbEntity
  8
0
370
    -3
  6
Continuous
100
AcDbCircle
 10
427.089843
 20
-46.098764
 30
0.0
 40
1.0
100
AcDbArc
 50
270.0
 51
356.588332
  0
LINE
  5
7D
100
AcDbEntity
  8
0
370
    -3
  6
Continuous
100
AcDbLine
 10
442.157875
 20
-46.158274
 30
0.0
 11
428.088071
 21
-46.158274
 31
0.0
  0
LINE
  5
7E
100
AcDbEntity
  8
0
370
    -3
  6
Continuous
100
AcDbLine
 10
253.089842
 20
-133.458274
 30
0.0
 11
253.089842
 21
-216.958274
 31
0.0
  0
LINE
  5
7F
100
AcDbEntity
  8
0
370
    -3
  6
Continuous
100
AcDbLine
 10
253.089842
 20
-133.458274
 30
0.0
 11
253.089842
 21
-53.458274
 31
0.0
  0
LINE
  5
80
100
AcDbEntity
  8
0
370
    -3
  6
Continuous
100
AcDbLine
 10
408.089843
 20
-220.758274
 30
0.0
 11
408.089843
 21
-133.458274
 31
0.0
  0
LINE
  5
81
100
AcDbEntity
  8
0
370
    -3
  6
Continuous
100
AcDbLine
 10
442.157875
 20
-220.758274
 30
0.0
 11
408.089843
 21
-220.758274
 31
0.0
  0
LINE
  5
82
100
AcDbEntity
  8
0
370
    -3
  6
Continuous
100
AcDbLine
 10
433.589842
 20
-202.330474
 30
0.0
 11
435.519047
 21
-203.541137
 31
0.0
  0
LINE
  5
83
100
AcDbEntity
  8
0
370
    -3
  6
Continuous
100
AcDbLine
 10
433.589842
 20
-202.330474
 30
0.0
 11
435.589842
 21
-200.757137
 31
0.0
  0
LINE
  5
84
100
AcDbEntity
  8
0
370
    -3
  6
Continuous
100
AcDbLine
 10
433.589842
 20
-202.330474
 30
0.0
 11
431.660637
 21
-203.541137
 31
0.0
  0
LINE
  5
85
100
AcDbEntity
  8
0
370
    -3
  6
Continuous
100
AcDbLine
 10
433.589842
 20
-202.330474
 30
0.0
 11
431.589842
 21
-200.757137
 31
0.0
  0
ELLIPSE
  5
86
100
AcDbEntity
  8
0
370
    -3
  6
Continuous
100
AcDbEllipse
 10
433.589842
 20
-200.491996
 30
0.0
 11
4.5
 21
0.0
 31
0.0
210
0.0
220
0.0
230
1.0
 40
0.707107
 41
5.3002993159359626
 42
4.1244786448334168
  0
ELLIPSE
  5
87
100
AcDbEntity
  8
0
370
    -3
  6
Continuous
100
AcDbEllipse
 10
433.589842
 20
-201.028515
 30
0.0
 11
3.5
 21
0.0
 31
0.0
210
0.0
220
0.0
230
1.0
 40
0.860398
 41
0.0
 42
6.2831853071795862
  0
ELLIPSE
  5
88
100
AcDbEntity
  8
0
370
    -3
  6
Continuous
100
AcDbEllipse
 10
433.589842
 20
-199.926311
 30
0.0
 11
5.0
 21
0.0
 31
0.0
210
0.0
220
0.0
230
1.0
 40
0.707107
 41
5.5439134802389658
 42
0.0
  0
ELLIPSE
  5
89
100
AcDbEntity
  8
0
370
    -3
  6
Continuous
100
AcDbEllipse
 10
433.589842
 20
-199.926311
 30
0.0
 11
5.0
 21
0.0
 31
0.0
210
0.0
220
0.0
230
1.0
 40
0.707107
 41
3.1415926535897931
 42
3.880864480530414
  0
LINE
  5
8A
100
AcDbEntity
  8
0
370
    -3
  6
Continuous
100
AcDbLine
 10
429.089842
 20
-200.491996
 30
0.0
 11
429.089842
 21
-199.926311
 31
0.0
  0
LINE
  5
8B
100
AcDbEntity
  8
0
370
    -3
  6
Continuous
100
AcDbLine
 10
438.089842
 20
-200.491996
 30
0.0
 11
438.089842
 21
-199.926311
 31
0.0
  0
ELLIPSE
  5
8C
100
AcDbEntity
  8
0
370
    -3
  6
Continuous
100
AcDbEllipse
 10
433.589842
 20
-199.926311
 30
0.0
 11
4.5
 21
0.0
 31
0.0
210
0.0
220
0.0
230
1.0
 40
0.707107
 41
0.0
 42
3.1415926535897931
  0
LINE
  5
8D
100
AcDbEntity
  8
0
370
    -3
  6
Continuous
100
AcDbLine
 10
428.589842
 20
-199.926311
 30
0.0
 11
428.589842
 21
-199.109708
 31
0.0
  0
LINE
  5
8E
100
AcDbEntity
  8
0
370
    -3
  6
Continuous
100
AcDbLine
 10
438.589842
 20
-199.926311
 30
0.0
 11
438.589842
 21
-199.109708
 31
0.0
  0
ELLIPSE
  5
8F
100
AcDbEntity
  8
0
370
    -3
  6
Continuous
100
AcDbEllipse
 10
433.589842
 20
-199.109708
 30
0.0
 11
5.0
 21
0.0
 31
0.0
210
0.0
220
0.0
230
1.0
 40
0.707107
 41
0.0
 42
3.1415926535897931
  0
ARC
  5
90
100
AcDbEntity
  8
0
370
    -3
  6
Continuous
100
AcDbCircle
 10
477.289843
 20
-202.398742
 30
0.0
 40
3.8
100
AcDbArc
 50
300.0
 51
0.0
  0
ARC
  5
91
100
AcDbEntity
  8
0
370
    -3
  6
Continuous
100
AcDbCircle
 10
442.157875
 20
-179.958274
 30
0.0
 40
40.8
100
AcDbArc
 50
270.0
 51
300.0
  0
LINE
  5
92
100
AcDbEntity
  8
0
370
    -3
  6
Continuous
100
AcDbLine
 10
479.189843
 20
-205.689639
 30
0.0
 11
462.557875
 21
-215.29211
 31
0.0
  0
LINE
  5
93
100
AcDbEntity
  8
0
370
    -3
  6
Continuous
100
AcDbLine
 10
481.089843
 20
-202.398742
 30
0.0
 11
481.089843
 21
-133.458274
 31
0.0
  0
LINE
  5
94
100
AcDbEntity
  8
0
370
    -3
  6
Continuous
100
AcDbLine
 10
408.089843
 20
-216.958274
 30
0.0
 11
253.089842
 21
-216.958274
 31
0.0
  0
LINE
  5
95
100
AcDbEntity
  8
0
370
    -3
  6
Continuous
100
AcDbLine
 10
253.089842
 20
-87.320549
 30
0.0
 11
408.089843
 21
-87.320549
 31
0.0
  0
LINE
  5
96
100
AcDbEntity
  8
0
370
    -3
  6
Continuous
100
AcDbLine
 10
253.089842
 20
-89.542876
 30
0.0
 11
408.089843
 21
-89.542876
 31
0.0
  0
LINE
  5
97
100
AcDbEntity
  8
0
370
    -3
  6
Continuous
100
AcDbLine
 10
253.089842
 20
-97.353335
 30
0.0
 11
408.089843
 21
-97.353335
 31
0.0
  0
LINE
  5
98
100
AcDbEntity
  8
0
370
    -3
  6
Continuous
100
AcDbLine
 10
253.089842
 20
-99.520046
 30
0.0
 11
408.089843
 21
-99.520046
 31
0.0
  0
LINE
  5
99
100
AcDbEntity
  8
0
370
    -3
  6
Continuous
100
AcDbLine
 10
253.089842
 20
-107.415653
 30
0.0
 11
408.089843
 21
-107.415653
 31
0.0
  0
LINE
  5
9A
100
AcDbEntity
  8
0
370
    -3
  6
Continuous
100
AcDbLine
 10
253.089842
 20
-109.480416
 30
0.0
 11
408.089843
 21
-109.480416
 31
0.0
  0
LINE
  5
9B
100
AcDbEntity
  8
0
370
    -3
  6
Continuous
100
AcDbLine
 10
253.089842
 20
-117.486545
 30
0.0
 11
408.089843
 21
-117.486545
 31
0.0
  0
LINE
  5
9C
100
AcDbEntity
  8
0
370
    -3
  6
Continuous
100
AcDbLine
 10
253.089842
 20
-119.428929
 30
0.0
 11
408.089843
 21
-119.428929
 31
0.0
  0
LINE
  5
9D
100
AcDbEntity
  8
0
370
    -3
  6
Continuous
100
AcDbLine
 10
253.089842
 20
-127.519004
 30
0.0
 11
408.089843
 21
-127.519004
 31
0.0
  0
LINE
  5
9E
100
AcDbEntity
  8
0
370
    -3
  6
Continuous
100
AcDbLine
 10
253.089842
 20
-129.413776
 30
0.0
 11
408.089843
 21
-129.413776
 31
0.0
  0
LINE
  5
9F
100
AcDbEntity
  8
0
370
    -3
  6
Continuous
100
AcDbLine
 10
253.089842
 20
-137.502771
 30
0.0
 11
408.089843
 21
-137.502771
 31
0.0
  0
LINE
  5
A0
100
AcDbEntity
  8
0
370
    -3
  6
Continuous
100
AcDbLine
 10
253.089842
 20
-139.397543
 30
0.0
 11
408.089843
 21
-139.397543
 31
0.0
  0
LINE
  5
A1
100
AcDbEntity
  8
0
370
    -3
  6
Continuous
100
AcDbLine
 10
253.089842
 20
-147.487618
 30
0.0
 11
408.089843
 21
-147.487618
 31
0.0
  0
LINE
  5
A2
100
AcDbEntity
  8
0
370
    -3
  6
Continuous
100
AcDbLine
 10
253.089842
 20
-149.430002
 30
0.0
 11
408.089843
 21
-149.430002
 31
0.0
  0
LINE
  5
A3
100
AcDbEntity
  8
0
370
    -3
  6
Continuous
100
AcDbLine
 10
253.089842
 20
-157.436131
 30
0.0
 11
408.089843
 21
-157.436131
 31
0.0
  0
LINE
  5
A4
100
AcDbEntity
  8
0
370
    -3
  6
Continuous
100
AcDbLine
 10
253.089842
 20
-159.500894
 30
0.0
 11
408.089843
 21
-159.500894
 31
0.0
  0
LINE
  5
A5
100
AcDbEntity
  8
0
370
    -3
  6
Continuous
100
AcDbLine
 10
253.089842
 20
-167.396501
 30
0.0
 11
408.089843
 21
-167.396501
 31
0.0
  0
LINE
  5
A6
100
AcDbEntity
  8
0
370
    -3
  6
Continuous
100
AcDbLine
 10
253.089842
 20
-169.563212
 30
0.0
 11
408.089843
 21
-169.563212
 31
0.0
  0
LINE
  5
A7
100
AcDbEntity
  8
0
370
    -3
  6
Continuous
100
AcDbLine
 10
253.089842
 20
-177.373671
 30
0.0
 11
408.089843
 21
-177.373671
 31
0.0
  0
LINE
  5
A8
100
AcDbEntity
  8
0
370
    -3
  6
Continuous
100
AcDbLine
 10
253.089842
 20
-179.595998
 30
0.0
 11
408.089843
 21
-179.595998
 31
0.0
  0
LINE
  5
A9
100
AcDbEntity
  8
0
370
    -3
  6
Continuous
100
AcDbLine
 10
253.089842
 20
-192.266418
 30
0.0
 11
408.089843
 21
-192.266418
 31
0.0
  0
LINE
  5
AA
100
AcDbEntity
  8
0
370
    -3
  6
Continuous
100
AcDbLine
 10
253.089842
 20
-199.337486
 30
0.0
 11
408.089843
 21
-199.337486
 31
0.0
  0
LINE
  5
AB
100
AcDbEntity
  8
0
370
    -3
  6
Continuous
100
AcDbLine
 10
253.089842
 20
-208.458274
 30
0.0
 11
408.089843
 21
-208.458274
 31
0.0
  0
LINE
  5
AC
100
AcDbEntity
  8
0
370
    -3
  6
Continuous
100
AcDbLine
 10
408.089843
 20
-50.098764
 30
0.0
 11
408.089843
 21
-133.458274
 31
0.0
  0
ARC
  5
AD
100
AcDbEntity
  8
0
370
    -3
  6
Continuous
100
AcDbCircle
 10
477.289843
 20
-64.517805
 30
0.0
 40
3.8
100
AcDbArc
 50
0.0
 51
60.0
  0
LINE
  5
AE
100
AcDbEntity
  8
0
370
    -3
  6
Continuous
100
AcDbLine
 10
479.189843
 20
-61.226908
 30
0.0
 11
462.557875
 21
-51.624437
 31
0.0
  0
LINE
  5
AF
100
AcDbEntity
  8
0
370
    -3
  6
Continuous
100
AcDbLine
 10
481.089843
 20
-64.517805
 30
0.0
 11
481.089843
 21
-133.458274
 31
0.0
  0
ARC
  5
B0
100
AcDbEntity
  8
0
370
    -3
  6
Continuous
100
AcDbCircle
 10
442.157875
 20
-86.958274
 30
0.0
 40
40.8
100
AcDbArc
 50
60.0
 51
90.0
  0
LINE
  5
B1
100
AcDbEntity
  8
0
370
    -3
  6
Continuous
100
AcDbLine
 10
433.589842
 20
-64.586073
 30
0.0
 11
435.519047
 21
-63.375411
 31
0.0
  0
LINE
  5
B2
100
AcDbEntity
  8
0
370
    -3
  6
Continuous
100
AcDbLine
 10
433.589842
 20
-64.586073
 30
0.0
 11
435.589842
 21
-66.159411
 31
0.0
  0
LINE
  5
B3
100
AcDbEntity
  8
0
370
    -3
  6
Continuous
100
AcDbLine
 10
433.589842
 20
-64.586073
 30
0.0
 11
431.660637
 21
-63.375411
 31
0.0
  0
LINE
  5
B4
100
AcDbEntity
  8
0
370
    -3
  6
Continuous
100
AcDbLine
 10
433.589842
 20
-64.586073
 30
0.0
 11
431.589842
 21
-66.159411
 31
0.0
  0
ELLIPSE
  5
B5
100
AcDbEntity
  8
0
370
    -3
  6
Continuous
100
AcDbEllipse
 10
433.589842
 20
-66.424551
 30
0.0
 11
4.5
 21
0.0
 31
0.0
210
0.0
220
0.0
230
1.0
 40
0.707107
 41
2.158706662346169
 42
0.9828859912436241
  0
ELLIPSE
  5
B6
100
AcDbEntity
  8
0
370
    -3
  6
Continuous
100
AcDbEllipse
 10
433.589842
 20
-65.888033
 30
0.0
 11
3.5
 21
0.0
 31
0.0
210
0.0
220
0.0
230
1.0
 40
0.860398
 41
0.0
 42
6.2831853071795862
  0
ELLIPSE
  5
B7
100
AcDbEntity
  8
0
370
    -3
  6
Continuous
100
AcDbEllipse
 10
433.589842
 20
-66.990236
 30
0.0
 11
5.0
 21
0.0
 31
0.0
210
0.0
220
0.0
230
1.0
 40
0.707107
 41
0.0
 42
0.7392718269406207
  0
ELLIPSE
  5
B8
100
AcDbEntity
  8
0
370
    -3
  6
Continuous
100
AcDbEllipse
 10
433.589842
 20
-66.990236
 30
0.0
 11
5.0
 21
0.0
 31
0.0
210
0.0
220
0.0
230
1.0
 40
0.707107
 41
2.4023208266491722
 42
3.1415926535897931
  0
LINE
  5
B9
100
AcDbEntity
  8
0
370
    -3
  6
Continuous
100
AcDbLine
 10
429.089842
 20
-66.424551
 30
0.0
 11
429.089842
 21
-66.990236
 31
0.0
  0
LINE
  5
BA
100
AcDbEntity
  8
0
370
    -3
  6
Continuous
100
AcDbLine
 10
438.089842
 20
-66.424551
 30
0.0
 11
438.089842
 21
-66.990236
 31
0.0
  0
ELLIPSE
  5
BB
100
AcDbEntity
  8
0
370
    -3
  6
Continuous
100
AcDbEllipse
 10
433.589842
 20
-66.990236
 30
0.0
 11
4.5
 21
0.0
 31
0.0
210
0.0
220
0.0
230
1.0
 40
0.707107
 41
3.1415926535897931
 42
0.0
  0
LINE
  5
BC
100
AcDbEntity
  8
0
370
    -3
  6
Continuous
100
AcDbLine
 10
428.589842
 20
-66.990236
 30
0.0
 11
428.589842
 21
-67.806839
 31
0.0
  0
LINE
  5
BD
100
AcDbEntity
  8
0
370
    -3
  6
Continuous
100
AcDbLine
 10
438.589842
 20
-66.990236
 30
0.0
 11
438.589842
 21
-67.806839
 31
0.0
  0
ELLIPSE
  5
BE
100
AcDbEntity
  8
0
370
    -3
  6
Continuous
100
AcDbEllipse
 10
433.589842
 20
-67.806839
 30
0.0
 11
5.0
 21
0.0
 31
0.0
210
0.0
220
0.0
230
1.0
 40
0.707107
 41
3.1415926535897931
 42
0.0
  0
ARC
  5
BF
100
AcDbEntity
  8
0
370
    -3
  6
Continuous
100
AcDbCircle
 10
411.089843
 20
-50.098764
 30
0.0
 40
3.0
100
AcDbArc
 50
90.0
 51
180.0
  0
LINE
  5
C0
100
AcDbEntity
  8
0
370
    -3
  6
Continuous
100
AcDbLine
 10
253.089842
 20
-53.458274
 30
0.0
 11
408.089843
 21
-53.458274
 31
0.0
  0
LINE
  5
C1
100
AcDbEntity
  8
0
370
    -3
  6
Continuous
100
AcDbLine
 10
253.089842
 20
-58.458274
 30
0.0
 11
408.089843
 21
-58.458274
 31
0.0
  0
LINE
  5
C2
100
AcDbEntity
  8
0
370
    -3
  6
Continuous
100
AcDbLine
 10
253.089842
 20
-67.579061
 30
0.0
 11
408.089843
 21
-67.579061
 31
0.0
  0
LINE
  5
C3
100
AcDbEntity
  8
0
370
    -3
  6
Continuous
100
AcDbLine
 10
253.089842
 20
-74.650129
 30
0.0
 11
408.089843
 21
-74.650129
 31
0.0
  0
LINE
  5
C4
100
AcDbEntity
  8
0
370
    -3
  6
Continuous
100
AcDbLine
 10
253.089842
 20
-133.458274
 30
0.0
 11
253.089842
 21
-53.458274
 31
0.0
  0
LINE
  5
C5
100
AcDbEntity
  8
0
370
    -3
  6
Continuous
100
AcDbLine
 10
253.089842
 20
-133.458274
 30
0.0
 11
253.089842
 21
-216.958274
 31
0.0
  0
LINE
  5
C6
100
AcDbEntity
  8
0
370
    -3
  6
Continuous
100
AcDbLine
 10
235.089842
 20
-212.658289
 30
0.0
 11
235.089842
 21
-132.458289
 31
0.0
  0
LINE
  5
C7
100
AcDbEntity
  8
0
370
    -3
  6
Continuous
100
AcDbLine
 10
235.089842
 20
-55.258289
 30
0.0
 11
235.089842
 21
-135.458289
 31
0.0
  0
LINE
  5
C8
100
AcDbEntity
  8
0
370
    -3
  6
Continuous
100
AcDbLine
 10
235.089842
 20
-52.458289
 30
0.0
 11
235.089842
 21
-212.458161
 31
0.0
  0
ARC
  5
C9
100
AcDbEntity
  8
0
370
    -3
  6
Continuous
100
AcDbCircle
 10
233.089842
 20
-219.458289
 30
0.0
 40
5.0
100
AcDbArc
 50
90.0
 51
180.0
  0
LINE
  5
CA
100
AcDbEntity
  8
0
370
    -3
  6
Continuous
100
AcDbLine
 10
235.089842
 20
-212.458161
 30
0.0
 11
233.089714
 21
-214.458289
 31
0.0
  0
LINE
  5
CB
100
AcDbEntity
  8
0
370
    -3
  6
Continuous
100
AcDbLine
 10
233.089842
 20
-50.458289
 30
0.0
 11
235.089842
 21
-52.458289
 31
0.0
  0
ARC
  5
CC
100
AcDbEntity
  8
0
370
    -3
  6
Continuous
100
AcDbCircle
 10
233.089842
 20
-45.458289
 30
0.0
 40
5.0
100
AcDbArc
 50
180.0
 51
270.0
  0
LINE
  5
CD
100
AcDbEntity
  8
0
370
    -3
  6
Continuous
100
AcDbLine
 10
235.089842
 20
-54.294289
 30
0.0
 11
235.089842
 21
-134.494289
 31
0.0
  0
LINE
  5
CE
100
AcDbEntity
  8
0
370
    -3
  6
Continuous
100
AcDbLine
 10
232.850749
 20
-172.458567
 30
0.0
 11
232.850749
 21
-172.458556
 31
0.0
  0
LINE
  5
CF
100
AcDbEntity
  8
0
370
    -3
  6
CENTER
100
AcDbLine
 10
263.50494
 20
-8.458237
 30
0.0
 11
249.041591
 21
-8.458237
 31
0.0
  0
LINE
  5
D0
100
AcDbEntity
  8
0
370
    -3
  6
CENTER
100
AcDbLine
 10
270.523918
 20
-33.458237
 30
0.0
 11
247.552717
 21
-33.458237
 31
0.0
  0
INSERT
  5
DC
100
AcDbEntity
  8
0
100
AcDbBlockReference
  2
ZU_SYM__USERS_HOME_SYMBOL_POO_SYM_B20_-1
 10
256.589842
 20
-33.458237
 30
0.0
 41
-1.0
  0
LINE
  5
DD
100
AcDbEntity
  8
0
370
    -3
  6
Continuous
100
AcDbLine
 10
252.089842
 20
11.541763
 30
0.0
 11
252.089842
 21
-43.458237
 31
0.0
  0
LINE
  5
DE
100
AcDbEntity
  8
0
370
    -3
  6
Continuous
100
AcDbLine
 10
253.089842
 20
-133.458394
 30
0.0
 11
253.089842
 21
-216.958394
 31
0.0
  0
LINE
  5
DF
100
AcDbEntity
  8
0
370
    -3
  6
Continuous
100
AcDbLine
 10
253.089842
 20
-133.458394
 30
0.0
 11
253.089842
 21
-53.458394
 31
0.0
  0
LINE
  5
E0
100
AcDbEntity
  8
0
370
    -3
  6
CENTER
100
AcDbLine
 10
518.163941
 20
-113.458289
 30
0.0
 11
793.759732
 21
-113.458289
 31
0.0
  0
LINE
  5
E1
100
AcDbEntity
  8
0
370
    -3
  6
CENTER
100
AcDbLine
 10
670.782255
 20
-133.458289
 30
0.0
 11
709.754781
 21
-133.458289
 31
0.0
  0
LINE
  5
E2
100
AcDbEntity
  8
0
370
    -3
  6
Continuous
100
AcDbLine
 10
606.089843
 20
-87.458289
 30
0.0
 11
606.089843
 21
-118.148581
 31
0.0
  0
LINE
  5
E3
100
AcDbEntity
  8
0
370
    -3
  6
Continuous
100
AcDbLine
 10
605.789856
 20
-138.458289
 30
0.0
 11
531.089843
 21
-138.458289
 31
0.0
  0
LINE
  5
E4
100
AcDbEntity
  8
0
370
    -3
  6
Continuous
100
AcDbLine
 10
531.089843
 20
-84.958289
 30
0.0
 11
531.089843
 21
-138.458289
 31
0.0
  0
LINE
  5
E5
100
AcDbEntity
  8
0
370
    -3
  6
Continuous
100
AcDbLine
 10
606.089843
 20
-88.458289
 30
0.0
 11
531.089843
 21
-88.458289
 31
0.0
  0
LINE
  5
E6
100
AcDbEntity
  8
0
370
    -3
  6
Continuous
100
AcDbLine
 10
608.089843
 20
-87.458289
 30
0.0
 11
606.089843
 21
-87.458289
 31
0.0
  0
LINE
  5
E7
100
AcDbEntity
  8
0
370
    -3
  6
Continuous
100
AcDbLine
 10
594.089843
 20
-88.458289
 30
0.0
 11
594.089843
 21
-84.958289
 31
0.0
  0
LINE
  5
E8
100
AcDbEntity
  8
0
370
    -3
  6
Continuous
100
AcDbLine
 10
594.089843
 20
-84.958289
 30
0.0
 11
531.089843
 21
-84.958289
 31
0.0
  0
LINE
  5
E9
100
AcDbEntity
  8
0
370
    -3
  6
CENTER
100
AcDbLine
 10
693.090037
 20
23.108632
 30
0.0
 11
693.089656
 21
-289.968806
 31
0.0
  0
LINE
  5
EA
100
AcDbEntity
  8
0
370
    -3
  6
Continuous
100
AcDbLine
 10
773.089843
 20
-12.81164
 30
0.0
 11
773.089843
 21
-87.309186
 31
0.0
  0
LINE
  5
EB
100
AcDbEntity
  8
0
370
    -3
  6
Continuous
100
AcDbLine
 10
772.090528
 20
-11.785815
 30
0.0
 11
773.089843
 21
-12.81164
 31
0.0
  0
LINE
  5
EC
100
AcDbEntity
  8
0
370
    -3
  6
Continuous
100
AcDbLine
 10
772.090528
 20
-261.144224
 30
0.0
 11
759.589843
 21
-261.471566
 31
0.0
  0
LINE
  5
ED
100
AcDbEntity
  8
0
370
    -3
  6
Continuous
100
AcDbLine
 10
614.089158
 20
-261.144224
 30
0.0
 11
626.589843
 21
-261.471566
 31
0.0
  0
LINE
  5
EE
100
AcDbEntity
  8
0
370
    -3
  6
Continuous
100
AcDbLine
 10
690.089843
 20
-220.746774
 30
0.0
 11
690.089843
 21
-265.353711
 31
0.0
  0
LINE
  5
EF
100
AcDbEntity
  8
0
370
    -3
  6
Continuous
100
AcDbLine
 10
693.089843
 20
-265.458473
 30
0.0
 11
759.589843
 21
-263.136242
 31
0.0
  0
LINE
  5
F0
100
AcDbEntity
  8
0
370
    -3
  6
Continuous
100
AcDbLine
 10
759.589843
 20
-9.780704
 30
0.0
 11
759.589843
 21
-62.883707
 31
0.0
  0
LINE
  5
F1
100
AcDbEntity
  8
0
370
    -3
  6
Continuous
100
AcDbLine
 10
690.089843
 20
-265.353711
 30
0.0
 11
626.589843
 21
-263.136242
 31
0.0
  0
LINE
  5
F2
100
AcDbEntity
  8
0
370
    -3
  6
Continuous
100
AcDbLine
 10
626.589843
 20
-9.780704
 30
0.0
 11
626.589843
 21
-62.883711
 31
0.0
  0
LINE
  5
F3
100
AcDbEntity
  8
0
370
    -3
  6
Continuous
100
AcDbLine
 10
778.089843
 20
-38.458289
 30
0.0
 11
778.089843
 21
-101.026305
 31
0.0
  0
LINE
  5
F4
100
AcDbEntity
  8
0
370
    -3
  6
Continuous
100
AcDbLine
 10
739.889847
 20
-9.092765
 30
0.0
 11
759.589843
 21
-9.780704
 31
0.0
  0
LINE
  5
F5
100
AcDbEntity
  8
0
370
    -3
  6
Continuous
100
AcDbLine
 10
772.090528
 20
-261.144224
 30
0.0
 11
773.089843
 21
-260.118399
 31
0.0
  0
LINE
  5
F6
100
AcDbEntity
  8
0
370
    -3
  6
Continuous
100
AcDbLine
 10
759.589843
 20
-11.458473
 30
0.0
 11
772.090528
 21
-11.785815
 31
0.0
  0
LINE
  5
F7
100
AcDbEntity
  8
0
370
    -3
  6
Continuous
100
AcDbLine
 10
772.090528
 20
-11.785815
 30
0.0
 11
773.089843
 21
-12.81164
 31
0.0
  0
LINE
  5
F8
100
AcDbEntity
  8
0
370
    -3
  6
Continuous
100
AcDbLine
 10
693.089843
 20
-220.758289
 30
0.0
 11
693.089843
 21
-263.458473
 31
0.0
  0
LINE
  5
F9
100
AcDbEntity
  8
0
370
    -3
  6
Continuous
100
AcDbLine
 10
608.089843
 20
-38.458473
 30
0.0
 11
608.089843
 21
-101.026335
 31
0.0
  0
LINE
  5
FA
100
AcDbEntity
  8
0
370
    -3
  6
Continuous
100
AcDbLine
 10
613.089843
 20
-12.81164
 30
0.0
 11
613.089843
 21
-87.309201
 31
0.0
  0
LINE
  5
FB
100
AcDbEntity
  8
0
370
    -3
  6
Continuous
100
AcDbLine
 10
613.089843
 20
-38.458473
 30
0.0
 11
608.089843
 21
-38.458473
 31
0.0
  0
LINE
  5
FC
100
AcDbEntity
  8
0
370
    -3
  6
Continuous
100
AcDbLine
 10
613.089843
 20
-188.458473
 30
0.0
 11
608.089843
 21
-188.458473
 31
0.0
  0
LINE
  5
FD
100
AcDbEntity
  8
0
370
    -3
  6
Continuous
100
AcDbLine
 10
690.093954
 20
-263.615481
 30
0.0
 11
693.089843
 21
-263.458473
 31
0.0
  0
LINE
  5
FE
100
AcDbEntity
  8
0
370
    -3
  6
Continuous
100
AcDbLine
 10
646.289847
 20
-9.092765
 30
0.0
 11
626.589843
 21
-9.780704
 31
0.0
  0
LINE
  5
FF
100
AcDbEntity
  8
0
370
    -3
  6
Continuous
100
AcDbLine
 10
614.089158
 20
-261.144224
 30
0.0
 11
613.089843
 21
-260.118399
 31
0.0
  0
LINE
  5
100
100
AcDbEntity
  8
0
370
    -3
  6
Continuous
100
AcDbLine
 10
614.089158
 20
-11.785815
 30
0.0
 11
613.089843
 21
-12.81164
 31
0.0
  0
LINE
  5
101
100
AcDbEntity
  8
0
370
    -3
  6
Continuous
100
AcDbLine
 10
626.589843
 20
-11.458473
 30
0.0
 11
614.089158
 21
-11.785815
 31
0.0
  0
LINE
  5
102
100
AcDbEntity
  8
0
370
    -3
  6
Continuous
100
AcDbLine
 10
773.089843
 20
-38.458289
 30
0.0
 11
778.089843
 21
-38.458289
 31
0.0
  0
LINE
  5
103
100
AcDbEntity
  8
0
370
    -3
  6
Continuous
100
AcDbLine
 10
773.089843
 20
-188.458289
 30
0.0
 11
778.089843
 21
-188.458289
 31
0.0
  0
INSERT
  5
10F
100
AcDbEntity
  8
0
100
AcDbBlockReference
  2
ZU_SYM__USERS_HOME_SYMBOL_POO_SYM_S07_-1
 10
626.056124
 20
-200.492012
 30
0.0
 41
1.0
 42
1.0
 50
45.0
  0
INSERT
  5
11B
100
AcDbEntity
  8
0
100
AcDbBlockReference
  2
ZU_SYM__USERS_HOME_SYMBOL_POO_SYM_S07_00001-1
 10
626.056124
 20
-66.424566
 30
0.0
 41
-1.0
 42
1.0
 50
135.0
  0
INSERT
  5
127
100
AcDbEntity
  8
0
100
AcDbBlockReference
  2
ZU_SYM__USERS_HOME_SYMBOL_POO_SYM_S07_00002-1
 10
760.12357
 20
-66.424566
 30
0.0
 41
1.0
 42
1.0
 50
225.0
  0
INSERT
  5
133
100
AcDbEntity
  8
0
100
AcDbBlockReference
  2
ZU_SYM__USERS_HOME_SYMBOL_POO_SYM_S07_00003-1
 10
760.12357
 20
-200.492012
 30
0.0
 41
-1.0
 42
1.0
 50
315.0
  0
ARC
  5
134
100
AcDbEntity
  8
0
370
    -3
  6
Continuous
100
AcDbCircle
 10
693.089847
 20
-133.458289
 30
0.0
 40
76.8
100
AcDbArc
 50
218.737581
 51
231.262419
  0
ARC
  5
135
100
AcDbEntity
  8
0
370
    -3
  6
Continuous
100
AcDbCircle
 10
693.089847
 20
-133.458289
 30
0.0
 40
92.8
100
AcDbArc
 50
218.737581
 51
231.262419
  0
ARC
  5
136
100
AcDbEntity
  8
0
370
    -3
  6
Continuous
100
AcDbCircle
 10
672.029303
 20
-150.353658
 30
0.0
 40
65.8
100
AcDbArc
 50
182.979907
 51
218.737581
  0
ARC
  5
137
100
AcDbEntity
  8
0
370
    -3
  6
Continuous
100
AcDbCircle
 10
676.194477
 20
-154.518833
 30
0.0
 40
65.8
100
AcDbArc
 50
231.262419
 51
267.020093
  0
LINE
  5
138
100
AcDbEntity
  8
0
370
    -3
  6
Continuous
100
AcDbLine
 10
623.298407
 20
-196.17866
 30
0.0
 11
624.030119
 21
-195.446949
 31
0.0
  0
LINE
  5
139
100
AcDbEntity
  8
0
370
    -3
  6
Continuous
100
AcDbLine
 10
626.621809
 20
-199.926326
 30
0.0
 11
623.298407
 21
-196.602925
 31
0.0
  0
LINE
  5
13A
100
AcDbEntity
  8
0
370
    -3
  6
Continuous
100
AcDbLine
 10
626.056124
 20
-200.492012
 30
0.0
 11
622.874143
 21
-197.310031
 31
0.0
  0
LINE
  5
13B
100
AcDbEntity
  8
0
370
    -3
  6
Continuous
100
AcDbLine
 10
625.10153
 20
-198.406047
 30
0.0
 11
623.298407
 21
-196.602925
 31
0.0
  0
LINE
  5
13C
100
AcDbEntity
  8
0
370
    -3
  6
Continuous
100
AcDbLine
 10
622.874143
 20
-197.310031
 30
0.0
 11
623.439829
 21
-196.744346
 31
0.0
  0
ARC
  5
13D
100
AcDbEntity
  8
0
370
    -3
  6
Continuous
100
AcDbCircle
 10
623.510539
 20
-196.390793
 30
0.0
 40
0.3
100
AcDbArc
 50
135.0
 51
225.0
  0
LINE
  5
13E
100
AcDbEntity
  8
0
370
    -3
  6
Continuous
100
AcDbLine
 10
626.621809
 20
-199.926326
 30
0.0
 11
629.945211
 21
-203.249728
 31
0.0
  0
LINE
  5
13F
100
AcDbEntity
  8
0
370
    -3
  6
Continuous
100
AcDbLine
 10
626.056124
 20
-200.492012
 30
0.0
 11
629.238104
 21
-203.673992
 31
0.0
  0
LINE
  5
140
100
AcDbEntity
  8
0
370
    -3
  6
Continuous
100
AcDbLine
 10
630.369475
 20
-203.249728
 30
0.0
 11
631.101187
 21
-202.518017
 31
0.0
  0
LINE
  5
141
100
AcDbEntity
  8
0
370
    -3
  6
Continuous
100
AcDbLine
 10
625.10153
 20
-198.406047
 30
0.0
 11
623.439829
 21
-196.744346
 31
0.0
  0
LINE
  5
142
100
AcDbEntity
  8
0
370
    -3
  6
Continuous
100
AcDbLine
 10
628.142089
 20
-201.446606
 30
0.0
 11
629.945211
 21
-203.249728
 31
0.0
  0
LINE
  5
143
100
AcDbEntity
  8
0
370
    -3
  6
Continuous
100
AcDbLine
 10
629.238104
 20
-203.673992
 30
0.0
 11
629.80379
 21
-203.108307
 31
0.0
  0
ARC
  5
144
100
AcDbEntity
  8
0
370
    -3
  6
Continuous
100
AcDbCircle
 10
630.157343
 20
-203.037596
 30
0.0
 40
0.3
100
AcDbArc
 50
225.0
 51
315.0
  0
ARC
  5
145
100
AcDbEntity
  8
0
370
    -3
  6
Continuous
100
AcDbCircle
 10
693.089847
 20
-133.458289
 30
0.0
 40
92.8
100
AcDbArc
 50
128.737581
 51
141.262419
  0
ARC
  5
146
100
AcDbEntity
  8
0
370
    -3
  6
Continuous
100
AcDbCircle
 10
672.029303
 20
-116.56292
 30
0.0
 40
65.8
100
AcDbArc
 50
141.262419
 51
177.020093
  0
LINE
  5
147
100
AcDbEntity
  8
0
370
    -3
  6
Continuous
100
AcDbLine
 10
626.621809
 20
-66.990252
 30
0.0
 11
623.298407
 21
-70.313653
 31
0.0
  0
LINE
  5
148
100
AcDbEntity
  8
0
370
    -3
  6
Continuous
100
AcDbLine
 10
626.056124
 20
-66.424566
 30
0.0
 11
622.874143
 21
-69.606547
 31
0.0
  0
LINE
  5
149
100
AcDbEntity
  8
0
370
    -3
  6
Continuous
100
AcDbLine
 10
623.298407
 20
-70.737918
 30
0.0
 11
624.030119
 21
-71.469629
 31
0.0
  0
LINE
  5
14A
100
AcDbEntity
  8
0
370
    -3
  6
Continuous
100
AcDbLine
 10
625.10153
 20
-68.510531
 30
0.0
 11
623.298407
 21
-70.313653
 31
0.0
  0
LINE
  5
14B
100
AcDbEntity
  8
0
370
    -3
  6
Continuous
100
AcDbLine
 10
622.874143
 20
-69.606547
 30
0.0
 11
623.439829
 21
-70.172232
 31
0.0
  0
ARC
  5
14C
100
AcDbEntity
  8
0
370
    -3
  6
Continuous
100
AcDbCircle
 10
623.510539
 20
-70.525785
 30
0.0
 40
0.3
100
AcDbArc
 50
135.0
 51
225.0
  0
LINE
  5
14D
100
AcDbEntity
  8
0
370
    -3
  6
Continuous
100
AcDbLine
 10
626.621809
 20
-66.990252
 30
0.0
 11
629.945211
 21
-63.66685
 31
0.0
  0
LINE
  5
14E
100
AcDbEntity
  8
0
370
    -3
  6
Continuous
100
AcDbLine
 10
626.056124
 20
-66.424566
 30
0.0
 11
629.238104
 21
-63.242586
 31
0.0
  0
LINE
  5
14F
100
AcDbEntity
  8
0
370
    -3
  6
Continuous
100
AcDbLine
 10
630.369475
 20
-63.66685
 30
0.0
 11
631.101187
 21
-64.398561
 31
0.0
  0
LINE
  5
150
100
AcDbEntity
  8
0
370
    -3
  6
Continuous
100
AcDbLine
 10
625.10153
 20
-68.510531
 30
0.0
 11
623.439829
 21
-70.172232
 31
0.0
  0
LINE
  5
151
100
AcDbEntity
  8
0
370
    -3
  6
Continuous
100
AcDbLine
 10
628.142089
 20
-65.469972
 30
0.0
 11
629.945211
 21
-63.66685
 31
0.0
  0
LINE
  5
152
100
AcDbEntity
  8
0
370
    -3
  6
Continuous
100
AcDbLine
 10
629.238104
 20
-63.242586
 30
0.0
 11
629.80379
 21
-63.808271
 31
0.0
  0
ARC
  5
153
100
AcDbEntity
  8
0
370
    -3
  6
Continuous
100
AcDbCircle
 10
630.157343
 20
-63.878982
 30
0.0
 40
0.3
100
AcDbArc
 50
45.0
 51
135.0
  0
ARC
  5
154
100
AcDbEntity
  8
0
370
    -3
  6
Continuous
100
AcDbCircle
 10
693.089847
 20
-133.458289
 30
0.0
 40
76.8
100
AcDbArc
 50
38.737581
 51
51.262419
  0
ARC
  5
155
100
AcDbEntity
  8
0
370
    -3
  6
Continuous
100
AcDbCircle
 10
693.089847
 20
-133.458289
 30
0.0
 40
92.8
100
AcDbArc
 50
38.737581
 51
51.262419
  0
ARC
  5
156
100
AcDbEntity
  8
0
370
    -3
  6
Continuous
100
AcDbCircle
 10
714.15039
 20
-116.56292
 30
0.0
 40
65.8
100
AcDbArc
 50
2.979907
 51
38.737581
  0
ARC
  5
157
100
AcDbEntity
  8
0
370
    -3
  6
Continuous
100
AcDbCircle
 10
709.985216
 20
-112.397745
 30
0.0
 40
65.8
100
AcDbArc
 50
51.262419
 51
87.020093
  0
LINE
  5
158
100
AcDbEntity
  8
0
370
    -3
  6
Continuous
100
AcDbLine
 10
759.557884
 20
-66.990252
 30
0.0
 11
762.881286
 21
-70.313653
 31
0.0
  0
LINE
  5
159
100
AcDbEntity
  8
0
370
    -3
  6
Continuous
100
AcDbLine
 10
760.12357
 20
-66.424566
 30
0.0
 11
763.30555
 21
-69.606547
 31
0.0
  0
LINE
  5
15A
100
AcDbEntity
  8
0
370
    -3
  6
Continuous
100
AcDbLine
 10
762.881286
 20
-70.737918
 30
0.0
 11
762.149575
 21
-71.469629
 31
0.0
  0
LINE
  5
15B
100
AcDbEntity
  8
0
370
    -3
  6
Continuous
100
AcDbLine
 10
761.078164
 20
-68.510531
 30
0.0
 11
762.881286
 21
-70.313653
 31
0.0
  0
LINE
  5
15C
100
AcDbEntity
  8
0
370
    -3
  6
Continuous
100
AcDbLine
 10
763.30555
 20
-69.606547
 30
0.0
 11
762.739865
 21
-70.172232
 31
0.0
  0
ARC
  5
15D
100
AcDbEntity
  8
0
370
    -3
  6
Continuous
100
AcDbCircle
 10
762.669154
 20
-70.525785
 30
0.0
 40
0.3
100
AcDbArc
 50
315.0
 51
45.0
  0
LINE
  5
15E
100
AcDbEntity
  8
0
370
    -3
  6
Continuous
100
AcDbLine
 10
759.557884
 20
-66.990252
 30
0.0
 11
756.234482
 21
-63.66685
 31
0.0
  0
LINE
  5
15F
100
AcDbEntity
  8
0
370
    -3
  6
Continuous
100
AcDbLine
 10
760.12357
 20
-66.424566
 30
0.0
 11
756.941589
 21
-63.242586
 31
0.0
  0
LINE
  5
160
100
AcDbEntity
  8
0
370
    -3
  6
Continuous
100
AcDbLine
 10
755.810218
 20
-63.66685
 30
0.0
 11
755.078507
 21
-64.398561
 31
0.0
  0
LINE
  5
161
100
AcDbEntity
  8
0
370
    -3
  6
Continuous
100
AcDbLine
 10
761.078164
 20
-68.510531
 30
0.0
 11
762.739865
 21
-70.172232
 31
0.0
  0
LINE
  5
162
100
AcDbEntity
  8
0
370
    -3
  6
Continuous
100
AcDbLine
 10
758.037605
 20
-65.469972
 30
0.0
 11
756.234482
 21
-63.66685
 31
0.0
  0
LINE
  5
163
100
AcDbEntity
  8
0
370
    -3
  6
Continuous
100
AcDbLine
 10
756.941589
 20
-63.242586
 30
0.0
 11
756.375904
 21
-63.808271
 31
0.0
  0
ARC
  5
164
100
AcDbEntity
  8
0
370
    -3
  6
Continuous
100
AcDbCircle
 10
756.02235
 20
-63.878982
 30
0.0
 40
0.3
100
AcDbArc
 50
45.0
 51
135.0
  0
ARC
  5
165
100
AcDbEntity
  8
0
370
    -3
  6
Continuous
100
AcDbCircle
 10
693.089847
 20
-133.458289
 30
0.0
 40
92.8
100
AcDbArc
 50
308.737581
 51
321.262419
  0
ARC
  5
166
100
AcDbEntity
  8
0
370
    -3
  6
Continuous
100
AcDbCircle
 10
709.985216
 20
-154.518833
 30
0.0
 40
65.8
100
AcDbArc
 50
272.979907
 51
308.737581
  0
LINE
  5
167
100
AcDbEntity
  8
0
370
    -3
  6
Continuous
100
AcDbLine
 10
759.557884
 20
-199.926326
 30
0.0
 11
762.881286
 21
-196.602925
 31
0.0
  0
LINE
  5
168
100
AcDbEntity
  8
0
370
    -3
  6
Continuous
100
AcDbLine
 10
760.12357
 20
-200.492012
 30
0.0
 11
763.30555
 21
-197.310031
 31
0.0
  0
LINE
  5
169
100
AcDbEntity
  8
0
370
    -3
  6
Continuous
100
AcDbLine
 10
762.881286
 20
-196.17866
 30
0.0
 11
762.149575
 21
-195.446949
 31
0.0
  0
LINE
  5
16A
100
AcDbEntity
  8
0
370
    -3
  6
Continuous
100
AcDbLine
 10
761.078164
 20
-198.406047
 30
0.0
 11
762.881286
 21
-196.602925
 31
0.0
  0
LINE
  5
16B
100
AcDbEntity
  8
0
370
    -3
  6
Continuous
100
AcDbLine
 10
763.30555
 20
-197.310031
 30
0.0
 11
762.739865
 21
-196.744346
 31
0.0
  0
ARC
  5
16C
100
AcDbEntity
  8
0
370
    -3
  6
Continuous
100
AcDbCircle
 10
762.669154
 20
-196.390793
 30
0.0
 40
0.3
100
AcDbArc
 50
315.0
 51
45.0
  0
LINE
  5
16D
100
AcDbEntity
  8
0
370
    -3
  6
Continuous
100
AcDbLine
 10
759.557884
 20
-199.926326
 30
0.0
 11
756.234482
 21
-203.249728
 31
0.0
  0
LINE
  5
16E
100
AcDbEntity
  8
0
370
    -3
  6
Continuous
100
AcDbLine
 10
760.12357
 20
-200.492012
 30
0.0
 11
756.941589
 21
-203.673992
 31
0.0
  0
LINE
  5
16F
100
AcDbEntity
  8
0
370
    -3
  6
Continuous
100
AcDbLine
 10
755.810218
 20
-203.249728
 30
0.0
 11
755.078507
 21
-202.518017
 31
0.0
  0
LINE
  5
170
100
AcDbEntity
  8
0
370
    -3
  6
Continuous
100
AcDbLine
 10
761.078164
 20
-198.406047
 30
0.0
 11
762.739865
 21
-196.744346
 31
0.0
  0
LINE
  5
171
100
AcDbEntity
  8
0
370
    -3
  6
Continuous
100
AcDbLine
 10
758.037605
 20
-201.446606
 30
0.0
 11
756.234482
 21
-203.249728
 31
0.0
  0
LINE
  5
172
100
AcDbEntity
  8
0
370
    -3
  6
Continuous
100
AcDbLine
 10
756.941589
 20
-203.673992
 30
0.0
 11
756.375904
 21
-203.108307
 31
0.0
  0
ARC
  5
173
100
AcDbEntity
  8
0
370
    -3
  6
Continuous
100
AcDbCircle
 10
756.02235
 20
-203.037596
 30
0.0
 40
0.3
100
AcDbArc
 50
225.0
 51
315.0
  0
ARC
  5
174
100
AcDbEntity
  8
0
370
    -3
  6
Continuous
100
AcDbCircle
 10
656.536877
 20
-184.76989
 30
0.0
 40
2.0
100
AcDbArc
 50
234.534976
 51
330.0
  0
ARC
  5
175
100
AcDbEntity
  8
0
370
    -3
  6
Continuous
100
AcDbCircle
 10
656.536877
 20
-82.146688
 30
0.0
 40
2.0
100
AcDbArc
 50
30.0
 51
125.465024
  0
ARC
  5
176
100
AcDbEntity
  8
0
370
    -3
  6
Continuous
100
AcDbCircle
 10
657.039197
 20
-83.016732
 30
0.0
 40
2.0
100
AcDbArc
 50
305.553444
 51
30.0
  0
ARC
  5
177
100
AcDbEntity
  8
0
370
    -3
  6
Continuous
100
AcDbCircle
 10
661.564053
 20
-90.854013
 30
0.0
 40
2.0
100
AcDbArc
 50
30.0
 51
126.50025
  0
ARC
  5
178
100
AcDbEntity
  8
0
370
    -3
  6
Continuous
100
AcDbCircle
 10
663.326185
 20
-93.906115
 30
0.0
 40
2.0
100
AcDbArc
 50
306.962063
 51
30.0
  0
ARC
  5
179
100
AcDbEntity
  8
0
370
    -3
  6
Continuous
100
AcDbCircle
 10
667.867149
 20
-101.771296
 30
0.0
 40
2.0
100
AcDbArc
 50
30.0
 51
128.519624
  0
ARC
  5
17A
100
AcDbEntity
  8
0
370
    -3
  6
Continuous
100
AcDbCircle
 10
669.638558
 20
-104.839465
 30
0.0
 40
2.0
100
AcDbArc
 50
309.332418
 51
30.0
  0
ARC
  5
17B
100
AcDbEntity
  8
0
370
    -3
  6
Continuous
100
AcDbCircle
 10
674.2189
 20
-112.77285
 30
0.0
 40
2.0
100
AcDbArc
 50
30.0
 51
132.373625
  0
ARC
  5
17C
100
AcDbEntity
  8
0
370
    -3
  6
Continuous
100
AcDbCircle
 10
676.016721
 20
-115.886767
 30
0.0
 40
2.0
100
AcDbArc
 50
314.175804
 51
30.0
  0
ARC
  5
17D
100
AcDbEntity
  8
0
370
    -3
  6
Continuous
100
AcDbCircle
 10
680.747891
 20
-124.081395
 30
0.0
 40
2.0
100
AcDbArc
 50
30.0
 51
142.773972
  0
ARC
  5
17E
100
AcDbEntity
  8
0
370
    -3
  6
Continuous
100
AcDbCircle
 10
682.697542
 20
-127.458289
 30
0.0
 40
2.0
100
AcDbArc
 50
330.0
 51
30.0
  0
ARC
  5
17F
100
AcDbEntity
  8
0
370
    -3
  6
Continuous
100
AcDbCircle
 10
693.089847
 20
-121.458289
 30
0.0
 40
2.0
100
AcDbArc
 50
210.0
 51
270.0
  0
ARC
  5
180
100
AcDbEntity
  8
0
370
    -3
  6
Continuous
100
AcDbCircle
 10
691.140196
 20
-118.081395
 30
0.0
 40
2.0
100
AcDbArc
 50
97.226028
 51
210.0
  0
ARC
  5
181
100
AcDbEntity
  8
0
370
    -3
  6
Continuous
100
AcDbCircle
 10
686.409026
 20
-109.886767
 30
0.0
 40
2.0
100
AcDbArc
 50
210.0
 51
285.824196
  0
ARC
  5
182
100
AcDbEntity
  8
0
370
    -3
  6
Continuous
100
AcDbCircle
 10
684.611205
 20
-106.77285
 30
0.0
 40
2.0
100
AcDbArc
 50
107.626375
 51
210.0
  0
ARC
  5
183
100
AcDbEntity
  8
0
370
    -3
  6
Continuous
100
AcDbCircle
 10
680.030863
 20
-98.839465
 30
0.0
 40
2.0
100
AcDbArc
 50
210.0
 51
290.667582
  0
ARC
  5
184
100
AcDbEntity
  8
0
370
    -3
  6
Continuous
100
AcDbCircle
 10
678.259454
 20
-95.771296
 30
0.0
 40
2.0
100
AcDbArc
 50
111.480376
 51
210.0
  0
ARC
  5
185
100
AcDbEntity
  8
0
370
    -3
  6
Continuous
100
AcDbCircle
 10
673.71849
 20
-87.906115
 30
0.0
 40
2.0
100
AcDbArc
 50
210.0
 51
293.037937
  0
ARC
  5
186
100
AcDbEntity
  8
0
370
    -3
  6
Continuous
100
AcDbCircle
 10
671.956358
 20
-84.854013
 30
0.0
 40
2.0
100
AcDbArc
 50
113.49975
 51
210.0
  0
ARC
  5
187
100
AcDbEntity
  8
0
370
    -3
  6
Continuous
100
AcDbCircle
 10
667.431502
 20
-77.016732
 30
0.0
 40
2.0
100
AcDbArc
 50
210.0
 51
294.446556
  0
ARC
  5
188
100
AcDbEntity
  8
0
370
    -3
  6
Continuous
100
AcDbCircle
 10
666.929182
 20
-76.146688
 30
0.0
 40
2.0
100
AcDbArc
 50
114.534976
 51
210.0
  0
LINE
  5
189
100
AcDbEntity
  8
0
370
    -3
  6
Continuous
100
AcDbLine
 10
658.771248
 20
-82.016732
 30
0.0
 11
658.268928
 21
-81.146688
 31
0.0
  0
LINE
  5
18A
100
AcDbEntity
  8
0
370
    -3
  6
Continuous
100
AcDbLine
 10
665.058236
 20
-92.906115
 30
0.0
 11
663.296104
 21
-89.854013
 31
0.0
  0
LINE
  5
18B
100
AcDbEntity
  8
0
370
    -3
  6
Continuous
100
AcDbLine
 10
671.370609
 20
-103.839465
 30
0.0
 11
669.5992
 21
-100.771296
 31
0.0
  0
LINE
  5
18C
100
AcDbEntity
  8
0
370
    -3
  6
Continuous
100
AcDbLine
 10
677.748772
 20
-114.886767
 30
0.0
 11
675.950951
 21
-111.77285
 31
0.0
  0
LINE
  5
18D
100
AcDbEntity
  8
0
370
    -3
  6
Continuous
100
AcDbLine
 10
684.676975
 20
-110.886767
 30
0.0
 11
682.879154
 21
-107.77285
 31
0.0
  0
LINE
  5
18E
100
AcDbEntity
  8
0
370
    -3
  6
Continuous
100
AcDbLine
 10
678.298812
 20
-99.839465
 30
0.0
 11
676.527403
 21
-96.771296
 31
0.0
  0
LINE
  5
18F
100
AcDbEntity
  8
0
370
    -3
  6
Continuous
100
AcDbLine
 10
671.986439
 20
-88.906115
 30
0.0
 11
670.224307
 21
-85.854013
 31
0.0
  0
LINE
  5
190
100
AcDbEntity
  8
0
370
    -3
  6
Continuous
100
AcDbLine
 10
665.699451
 20
-78.016732
 30
0.0
 11
665.197131
 21
-77.146688
 31
0.0
  0
LINE
  5
191
100
AcDbEntity
  8
0
370
    -3
  6
Continuous
100
AcDbLine
 10
684.429593
 20
-126.458289
 30
0.0
 11
682.479942
 21
-123.081395
 31
0.0
  0
LINE
  5
192
100
AcDbEntity
  8
0
370
    -3
  6
Continuous
100
AcDbLine
 10
691.357796
 20
-122.458289
 30
0.0
 11
689.408145
 21
-119.081395
 31
0.0
  0
ARC
  5
193
100
AcDbEntity
  8
0
370
    -3
  6
Continuous
100
AcDbCircle
 10
674.2189
 20
-154.143728
 30
0.0
 40
2.0
100
AcDbArc
 50
227.626375
 51
330.0
  0
ARC
  5
194
100
AcDbEntity
  8
0
370
    -3
  6
Continuous
100
AcDbCircle
 10
676.016721
 20
-151.029811
 30
0.0
 40
2.0
100
AcDbArc
 50
330.0
 51
45.824196
  0
LINE
  5
195
100
AcDbEntity
  8
0
370
    -3
  6
Continuous
100
AcDbLine
 10
677.748772
 20
-152.029811
 30
0.0
 11
675.950951
 21
-155.143728
 31
0.0
  0
ARC
  5
196
100
AcDbEntity
  8
0
370
    -3
  6
Continuous
100
AcDbCircle
 10
673.71849
 20
-179.010463
 30
0.0
 40
2.0
100
AcDbArc
 50
66.962063
 51
150.0
  0
ARC
  5
197
100
AcDbEntity
  8
0
370
    -3
  6
Continuous
100
AcDbCircle
 10
702.534697
 20
-159.81725
 30
0.0
 40
2.0
100
AcDbArc
 50
289.713439
 51
30.0
  0
ARC
  5
198
100
AcDbEntity
  8
0
370
    -3
  6
Continuous
100
AcDbCircle
 10
700.751905
 20
-156.729363
 30
0.0
 40
2.0
100
AcDbArc
 50
30.0
 51
108.224256
  0
ARC
  5
199
100
AcDbEntity
  8
0
370
    -3
  6
Continuous
100
AcDbCircle
 10
686.409026
 20
-157.029811
 30
0.0
 40
2.0
100
AcDbArc
 50
74.175804
 51
150.0
  0
ARC
  5
19A
100
AcDbEntity
  8
0
370
    -3
  6
Continuous
100
AcDbCircle
 10
684.611205
 20
-160.143728
 30
0.0
 40
2.0
100
AcDbArc
 50
150.0
 51
252.373625
  0
ARC
  5
19B
100
AcDbEntity
  8
0
370
    -3
  6
Continuous
100
AcDbCircle
 10
678.259454
 20
-171.145282
 30
0.0
 40
2.0
100
AcDbArc
 50
150.0
 51
248.519624
  0
ARC
  5
19C
100
AcDbEntity
  8
0
370
    -3
  6
Continuous
100
AcDbCircle
 10
680.030863
 20
-168.077113
 30
0.0
 40
2.0
100
AcDbArc
 50
69.332418
 51
150.0
  0
ARC
  5
19D
100
AcDbEntity
  8
0
370
    -3
  6
Continuous
100
AcDbCircle
 10
669.638558
 20
-162.077113
 30
0.0
 40
2.0
100
AcDbArc
 50
330.0
 51
50.667582
  0
ARC
  5
19E
100
AcDbEntity
  8
0
370
    -3
  6
Continuous
100
AcDbCircle
 10
667.867149
 20
-165.145282
 30
0.0
 40
2.0
100
AcDbArc
 50
231.480376
 51
330.0
  0
ARC
  5
19F
100
AcDbEntity
  8
0
370
    -3
  6
Continuous
100
AcDbCircle
 10
669.105477
 20
-138.458289
 30
0.0
 40
2.0
100
AcDbArc
 50
11.775744
 51
90.0
  0
ARC
  5
1A0
100
AcDbEntity
  8
0
370
    -3
  6
Continuous
100
AcDbCircle
 10
665.539892
 20
-138.458289
 30
0.0
 40
2.0
100
AcDbArc
 50
90.0
 51
190.286561
  0
ARC
  5
1A1
100
AcDbEntity
  8
0
370
    -3
  6
Continuous
100
AcDbCircle
 10
656.429241
 20
-138.458289
 30
0.0
 40
2.0
100
AcDbArc
 50
7.766434
 51
90.0
  0
ARC
  5
1A2
100
AcDbEntity
  8
0
370
    -3
  6
Continuous
100
AcDbCircle
 10
652.899674
 20
-138.458289
 30
0.0
 40
2.0
100
AcDbArc
 50
90.0
 51
187.091646
  0
ARC
  5
1A3
100
AcDbEntity
  8
0
370
    -3
  6
Continuous
100
AcDbCircle
 10
652.899674
 20
-128.458289
 30
0.0
 40
2.0
100
AcDbArc
 50
172.908354
 51
270.0
  0
ARC
  5
1A4
100
AcDbEntity
  8
0
370
    -3
  6
Continuous
100
AcDbCircle
 10
656.429241
 20
-128.458289
 30
0.0
 40
2.0
100
AcDbArc
 50
270.0
 51
352.233566
  0
ARC
  5
1A5
100
AcDbEntity
  8
0
370
    -3
  6
Continuous
100
AcDbCircle
 10
665.539892
 20
-128.458289
 30
0.0
 40
2.0
100
AcDbArc
 50
169.713439
 51
270.0
  0
ARC
  5
1A6
100
AcDbEntity
  8
0
370
    -3
  6
Continuous
100
AcDbCircle
 10
669.105477
 20
-128.458289
 30
0.0
 40
2.0
100
AcDbArc
 50
270.0
 51
348.224256
  0
ARC
  5
1A7
100
AcDbEntity
  8
0
370
    -3
  6
Continuous
100
AcDbCircle
 10
708.854806
 20
-96.152578
 30
0.0
 40
2.0
100
AcDbArc
 50
330.0
 51
67.091646
  0
ARC
  5
1A8
100
AcDbEntity
  8
0
370
    -3
  6
Continuous
100
AcDbCircle
 10
707.090022
 20
-99.209273
 30
0.0
 40
2.0
100
AcDbArc
 50
247.766434
 51
330.0
  0
ARC
  5
1A9
100
AcDbEntity
  8
0
370
    -3
  6
Continuous
100
AcDbCircle
 10
702.534697
 20
-107.099328
 30
0.0
 40
2.0
100
AcDbArc
 50
330.0
 51
70.286561
  0
ARC
  5
1AA
100
AcDbEntity
  8
0
370
    -3
  6
Continuous
100
AcDbCircle
 10
700.751905
 20
-110.187215
 30
0.0
 40
2.0
100
AcDbArc
 50
251.775744
 51
330.0
  0
ARC
  5
1AB
100
AcDbEntity
  8
0
370
    -3
  6
Continuous
100
AcDbCircle
 10
696.09542
 20
-118.252483
 30
0.0
 40
2.0
100
AcDbArc
 50
330.0
 51
78.819063
  0
ARC
  5
1AC
100
AcDbEntity
  8
0
370
    -3
  6
Continuous
100
AcDbCircle
 10
694.214076
 20
-121.511067
 30
0.0
 40
2.0
100
AcDbArc
 50
264.624318
 51
330.0
  0
ARC
  5
1AD
100
AcDbEntity
  8
0
370
    -3
  6
Continuous
100
AcDbCircle
 10
682.181135
 20
-128.458289
 30
0.0
 40
2.0
100
AcDbArc
 50
270.0
 51
335.375682
  0
ARC
  5
1AE
100
AcDbEntity
  8
0
370
    -3
  6
Continuous
100
AcDbCircle
 10
678.418446
 20
-128.458289
 30
0.0
 40
2.0
100
AcDbArc
 50
161.180937
 51
270.0
  0
ARC
  5
1AF
100
AcDbEntity
  8
0
370
    -3
  6
Continuous
100
AcDbCircle
 10
678.418446
 20
-138.458289
 30
0.0
 40
2.0
100
AcDbArc
 50
90.0
 51
198.819063
  0
ARC
  5
1B0
100
AcDbEntity
  8
0
370
    -3
  6
Continuous
100
AcDbCircle
 10
680.747891
 20
-142.835183
 30
0.0
 40
2.0
100
AcDbArc
 50
217.226028
 51
330.0
  0
ARC
  5
1B1
100
AcDbEntity
  8
0
370
    -3
  6
Continuous
100
AcDbCircle
 10
682.181135
 20
-138.458289
 30
0.0
 40
2.0
100
AcDbArc
 50
24.624318
 51
90.0
  0
ARC
  5
1B2
100
AcDbEntity
  8
0
370
    -3
  6
Continuous
100
AcDbCircle
 10
682.697542
 20
-139.458289
 30
0.0
 40
2.0
100
AcDbArc
 50
330.0
 51
30.0
  0
ARC
  5
1B3
100
AcDbEntity
  8
0
370
    -3
  6
Continuous
100
AcDbCircle
 10
693.089847
 20
-145.458289
 30
0.0
 40
2.0
100
AcDbArc
 50
90.0
 51
150.0
  0
ARC
  5
1B4
100
AcDbEntity
  8
0
370
    -3
  6
Continuous
100
AcDbCircle
 10
691.140196
 20
-148.835183
 30
0.0
 40
2.0
100
AcDbArc
 50
150.0
 51
262.773972
  0
ARC
  5
1B5
100
AcDbEntity
  8
0
370
    -3
  6
Continuous
100
AcDbCircle
 10
696.09542
 20
-148.664095
 30
0.0
 40
2.0
100
AcDbArc
 50
281.180937
 51
30.0
  0
ARC
  5
1B6
100
AcDbEntity
  8
0
370
    -3
  6
Continuous
100
AcDbCircle
 10
694.214076
 20
-145.405511
 30
0.0
 40
2.0
100
AcDbArc
 50
30.0
 51
95.375682
  0
ARC
  5
1B7
100
AcDbEntity
  8
0
370
    -3
  6
Continuous
100
AcDbCircle
 10
702.87433
 20
-140.405511
 30
0.0
 40
2.0
100
AcDbArc
 50
144.624318
 51
210.0
  0
ARC
  5
1B8
100
AcDbEntity
  8
0
370
    -3
  6
Continuous
100
AcDbCircle
 10
703.482152
 20
-139.458289
 30
0.0
 40
2.0
100
AcDbArc
 50
90.0
 51
150.0
  0
ARC
  5
1B9
100
AcDbEntity
  8
0
370
    -3
  6
Continuous
100
AcDbCircle
 10
704.755674
 20
-143.664095
 30
0.0
 40
2.0
100
AcDbArc
 50
210.0
 51
318.819063
  0
ARC
  5
1BA
100
AcDbEntity
  8
0
370
    -3
  6
Continuous
100
AcDbCircle
 10
707.381453
 20
-139.458289
 30
0.0
 40
2.0
100
AcDbArc
 50
337.226028
 51
90.0
  0
ARC
  5
1BB
100
AcDbEntity
  8
0
370
    -3
  6
Continuous
100
AcDbCircle
 10
716.843794
 20
-139.458289
 30
0.0
 40
2.0
100
AcDbArc
 50
90.0
 51
165.824196
  0
ARC
  5
1BC
100
AcDbEntity
  8
0
370
    -3
  6
Continuous
100
AcDbCircle
 10
709.412159
 20
-151.729363
 30
0.0
 40
2.0
100
AcDbArc
 50
131.775744
 51
210.0
  0
ARC
  5
1BD
100
AcDbEntity
  8
0
370
    -3
  6
Continuous
100
AcDbCircle
 10
711.194951
 20
-154.81725
 30
0.0
 40
2.0
100
AcDbArc
 50
210.0
 51
310.286561
  0
ARC
  5
1BE
100
AcDbEntity
  8
0
370
    -3
  6
Continuous
100
AcDbCircle
 10
720.439435
 20
-139.458289
 30
0.0
 40
2.0
100
AcDbArc
 50
347.626375
 51
90.0
  0
ARC
  5
1BF
100
AcDbEntity
  8
0
370
    -3
  6
Continuous
100
AcDbCircle
 10
713.383133
 20
-178.607293
 30
0.0
 40
2.0
100
AcDbArc
 50
30.0
 51
114.20266
  0
ARC
  5
1C0
100
AcDbEntity
  8
0
370
    -3
  6
Continuous
100
AcDbCircle
 10
708.854806
 20
-170.764
 30
0.0
 40
2.0
100
AcDbArc
 50
292.908354
 51
30.0
  0
ARC
  5
1C1
100
AcDbEntity
  8
0
370
    -3
  6
Continuous
100
AcDbCircle
 10
707.090022
 20
-167.707305
 30
0.0
 40
2.0
100
AcDbArc
 50
30.0
 51
112.233566
  0
ARC
  5
1C2
100
AcDbEntity
  8
0
370
    -3
  6
Continuous
100
AcDbCircle
 10
717.51506
 20
-165.764
 30
0.0
 40
2.0
100
AcDbArc
 50
210.0
 51
307.091646
  0
ARC
  5
1C3
100
AcDbEntity
  8
0
370
    -3
  6
Continuous
100
AcDbCircle
 10
715.750276
 20
-162.707305
 30
0.0
 40
2.0
100
AcDbArc
 50
127.766434
 51
210.0
  0
ARC
  5
1C4
100
AcDbEntity
  8
0
370
    -3
  6
Continuous
100
AcDbCircle
 10
729.600119
 20
-139.458289
 30
0.0
 40
2.0
100
AcDbArc
 50
90.0
 51
170.667582
  0
ARC
  5
1C5
100
AcDbEntity
  8
0
370
    -3
  6
Continuous
100
AcDbCircle
 10
733.142936
 20
-139.458289
 30
0.0
 40
2.0
100
AcDbArc
 50
351.480376
 51
90.0
  0
ARC
  5
1C6
100
AcDbEntity
  8
0
370
    -3
  6
Continuous
100
AcDbCircle
 10
722.043387
 20
-173.607293
 30
0.0
 40
2.0
100
AcDbArc
 50
125.79734
 51
210.0
  0
ARC
  5
1C7
100
AcDbEntity
  8
0
370
    -3
  6
Continuous
100
AcDbCircle
 10
742.224865
 20
-139.458289
 30
0.0
 40
2.0
100
AcDbArc
 50
90.0
 51
173.037937
  0
ARC
  5
1C8
100
AcDbEntity
  8
0
370
    -3
  6
Continuous
100
AcDbCircle
 10
745.749129
 20
-139.458289
 30
0.0
 40
2.0
100
AcDbArc
 50
353.49975
 51
90.0
  0
ARC
  5
1C9
100
AcDbEntity
  8
0
370
    -3
  6
Continuous
100
AcDbCircle
 10
723.801786
 20
-176.652928
 30
0.0
 40
2.0
100
AcDbArc
 50
210.0
 51
305.413312
  0
ARC
  5
1CA
100
AcDbEntity
  8
0
370
    -3
  6
Continuous
100
AcDbCircle
 10
715.141532
 20
-181.652928
 30
0.0
 40
2.0
100
AcDbArc
 50
294.586688
 51
30.0
  0
ARC
  5
1CB
100
AcDbEntity
  8
0
370
    -3
  6
Continuous
100
AcDbCircle
 10
671.956358
 20
-182.062565
 30
0.0
 40
2.0
100
AcDbArc
 50
150.0
 51
246.50025
  0
ARC
  5
1CC
100
AcDbEntity
  8
0
370
    -3
  6
Continuous
100
AcDbCircle
 10
661.564053
 20
-176.062565
 30
0.0
 40
2.0
100
AcDbArc
 50
233.49975
 51
330.0
  0
ARC
  5
1CD
100
AcDbEntity
  8
0
370
    -3
  6
Continuous
100
AcDbCircle
 10
663.326185
 20
-173.010463
 30
0.0
 40
2.0
100
AcDbArc
 50
330.0
 51
53.037937
  0
ARC
  5
1CE
100
AcDbEntity
  8
0
370
    -3
  6
Continuous
100
AcDbCircle
 10
643.843019
 20
-138.458289
 30
0.0
 40
2.0
100
AcDbArc
 50
5.79734
 51
90.0
  0
ARC
  5
1CF
100
AcDbEntity
  8
0
370
    -3
  6
Continuous
100
AcDbCircle
 10
640.326223
 20
-138.458289
 30
0.0
 40
2.0
100
AcDbArc
 50
90.0
 51
185.413312
  0
ARC
  5
1D0
100
AcDbEntity
  8
0
370
    -3
  6
Continuous
100
AcDbCircle
 10
640.326223
 20
-128.458289
 30
0.0
 40
2.0
100
AcDbArc
 50
174.586688
 51
270.0
  0
ARC
  5
1D1
100
AcDbEntity
  8
0
370
    -3
  6
Continuous
100
AcDbCircle
 10
643.843019
 20
-128.458289
 30
0.0
 40
2.0
100
AcDbArc
 50
270.0
 51
354.20266
  0
ARC
  5
1D2
100
AcDbEntity
  8
0
370
    -3
  6
Continuous
100
AcDbCircle
 10
713.383133
 20
-88.309285
 30
0.0
 40
2.0
100
AcDbArc
 50
245.79734
 51
330.0
  0
ARC
  5
1D3
100
AcDbEntity
  8
0
370
    -3
  6
Continuous
100
AcDbCircle
 10
715.141532
 20
-85.26365
 30
0.0
 40
2.0
100
AcDbArc
 50
330.0
 51
65.413312
  0
ARC
  5
1D4
100
AcDbEntity
  8
0
370
    -3
  6
Continuous
100
AcDbCircle
 10
693.089847
 20
-133.458289
 30
0.0
 40
10.0
100
AcDbArc
 50
270.0
 51
275.375682
  0
ARC
  5
1D5
100
AcDbEntity
  8
0
370
    -3
  6
Continuous
100
AcDbCircle
 10
693.089847
 20
-133.458289
 30
0.0
 40
17.5
100
AcDbArc
 50
262.773972
 51
281.180937
  0
ARC
  5
1D6
100
AcDbEntity
  8
0
370
    -3
  6
Continuous
100
AcDbCircle
 10
693.089847
 20
-133.458289
 30
0.0
 40
22.5
100
AcDbArc
 50
254.175804
 51
288.224256
  0
ARC
  5
1D7
100
AcDbEntity
  8
0
370
    -3
  6
Continuous
100
AcDbCircle
 10
693.089847
 20
-133.458289
 30
0.0
 40
30.0
100
AcDbArc
 50
252.373625
 51
289.713439
  0
ARC
  5
1D8
100
AcDbEntity
  8
0
370
    -3
  6
Continuous
100
AcDbCircle
 10
693.089847
 20
-133.458289
 30
0.0
 40
35.0
100
AcDbArc
 50
249.332418
 51
292.233566
  0
ARC
  5
1D9
100
AcDbEntity
  8
0
370
    -3
  6
Continuous
100
AcDbCircle
 10
693.089847
 20
-133.458289
 30
0.0
 40
42.5
100
AcDbArc
 50
248.519624
 51
292.908354
  0
ARC
  5
1DA
100
AcDbEntity
  8
0
370
    -3
  6
Continuous
100
AcDbCircle
 10
693.089847
 20
-133.458289
 30
0.0
 40
47.5
100
AcDbArc
 50
246.962063
 51
294.20266
  0
ARC
  5
1DB
100
AcDbEntity
  8
0
370
    -3
  6
Continuous
100
AcDbCircle
 10
693.089847
 20
-133.458289
 30
0.0
 40
55.0
100
AcDbArc
 50
246.50025
 51
294.586688
  0
ARC
  5
1DC
100
AcDbEntity
  8
0
370
    -3
  6
Continuous
100
AcDbCircle
 10
693.089847
 20
-133.458289
 30
0.0
 40
10.0
100
AcDbArc
 50
204.624318
 51
210.0
  0
ARC
  5
1DD
100
AcDbEntity
  8
0
370
    -3
  6
Continuous
100
AcDbCircle
 10
693.089847
 20
-133.458289
 30
0.0
 40
17.5
100
AcDbArc
 50
198.819063
 51
217.226028
  0
ARC
  5
1DE
100
AcDbEntity
  8
0
370
    -3
  6
Continuous
100
AcDbCircle
 10
693.089847
 20
-133.458289
 30
0.0
 40
22.5
100
AcDbArc
 50
191.775744
 51
225.824196
  0
ARC
  5
1DF
100
AcDbEntity
  8
0
370
    -3
  6
Continuous
100
AcDbCircle
 10
693.089847
 20
-133.458289
 30
0.0
 40
30.0
100
AcDbArc
 50
190.286561
 51
227.626375
  0
ARC
  5
1E0
100
AcDbEntity
  8
0
370
    -3
  6
Continuous
100
AcDbCircle
 10
693.089847
 20
-133.458289
 30
0.0
 40
35.0
100
AcDbArc
 50
187.766434
 51
230.667582
  0
ARC
  5
1E1
100
AcDbEntity
  8
0
370
    -3
  6
Continuous
100
AcDbCircle
 10
693.089847
 20
-133.458289
 30
0.0
 40
42.5
100
AcDbArc
 50
187.091646
 51
231.480376
  0
ARC
  5
1E2
100
AcDbEntity
  8
0
370
    -3
  6
Continuous
100
AcDbCircle
 10
693.089847
 20
-133.458289
 30
0.0
 40
47.5
100
AcDbArc
 50
185.79734
 51
233.037937
  0
ARC
  5
1E3
100
AcDbEntity
  8
0
370
    -3
  6
Continuous
100
AcDbCircle
 10
693.089847
 20
-133.458289
 30
0.0
 40
55.0
100
AcDbArc
 50
185.413312
 51
233.49975
  0
ARC
  5
1E4
100
AcDbEntity
  8
0
370
    -3
  6
Continuous
100
AcDbCircle
 10
693.089847
 20
-133.458289
 30
0.0
 40
55.0
100
AcDbArc
 50
126.50025
 51
174.586688
  0
ARC
  5
1E5
100
AcDbEntity
  8
0
370
    -3
  6
Continuous
100
AcDbCircle
 10
693.089847
 20
-133.458289
 30
0.0
 40
47.5
100
AcDbArc
 50
126.962063
 51
174.20266
  0
ARC
  5
1E6
100
AcDbEntity
  8
0
370
    -3
  6
Continuous
100
AcDbCircle
 10
693.089847
 20
-133.458289
 30
0.0
 40
42.5
100
AcDbArc
 50
128.519624
 51
172.908354
  0
ARC
  5
1E7
100
AcDbEntity
  8
0
370
    -3
  6
Continuous
100
AcDbCircle
 10
693.089847
 20
-133.458289
 30
0.0
 40
35.0
100
AcDbArc
 50
129.332418
 51
172.233566
  0
ARC
  5
1E8
100
AcDbEntity
  8
0
370
    -3
  6
Continuous
100
AcDbCircle
 10
693.089847
 20
-133.458289
 30
0.0
 40
30.0
100
AcDbArc
 50
132.373625
 51
169.713439
  0
ARC
  5
1E9
100
AcDbEntity
  8
0
370
    -3
  6
Continuous
100
AcDbCircle
 10
693.089847
 20
-133.458289
 30
0.0
 40
22.5
100
AcDbArc
 50
134.175804
 51
168.224256
  0
ARC
  5
1EA
100
AcDbEntity
  8
0
370
    -3
  6
Continuous
100
AcDbCircle
 10
693.089847
 20
-133.458289
 30
0.0
 40
17.5
100
AcDbArc
 50
142.773972
 51
161.180937
  0
ARC
  5
1EB
100
AcDbEntity
  8
0
370
    -3
  6
Continuous
100
AcDbCircle
 10
693.089847
 20
-133.458289
 30
0.0
 40
10.0
100
AcDbArc
 50
84.624318
 51
90.0
  0
ARC
  5
1EC
100
AcDbEntity
  8
0
370
    -3
  6
Continuous
100
AcDbCircle
 10
693.089847
 20
-133.458289
 30
0.0
 40
17.5
100
AcDbArc
 50
78.819063
 51
97.226028
  0
ARC
  5
1ED
100
AcDbEntity
  8
0
370
    -3
  6
Continuous
100
AcDbCircle
 10
693.089847
 20
-133.458289
 30
0.0
 40
22.5
100
AcDbArc
 50
71.775744
 51
105.824196
  0
ARC
  5
1EE
100
AcDbEntity
  8
0
370
    -3
  6
Continuous
100
AcDbCircle
 10
693.089847
 20
-133.458289
 30
0.0
 40
30.0
100
AcDbArc
 50
70.286561
 51
107.626375
  0
ARC
  5
1EF
100
AcDbEntity
  8
0
370
    -3
  6
Continuous
100
AcDbCircle
 10
693.089847
 20
-133.458289
 30
0.0
 40
35.0
100
AcDbArc
 50
67.766434
 51
110.667582
  0
ARC
  5
1F0
100
AcDbEntity
  8
0
370
    -3
  6
Continuous
100
AcDbCircle
 10
693.089847
 20
-133.458289
 30
0.0
 40
42.5
100
AcDbArc
 50
67.091646
 51
111.480376
  0
ARC
  5
1F1
100
AcDbEntity
  8
0
370
    -3
  6
Continuous
100
AcDbCircle
 10
693.089847
 20
-133.458289
 30
0.0
 40
47.5
100
AcDbArc
 50
65.79734
 51
113.037937
  0
ARC
  5
1F2
100
AcDbEntity
  8
0
370
    -3
  6
Continuous
100
AcDbCircle
 10
693.089847
 20
-133.458289
 30
0.0
 40
55.0
100
AcDbArc
 50
65.413312
 51
113.49975
  0
ARC
  5
1F3
100
AcDbEntity
  8
0
370
    -3
  6
Continuous
100
AcDbCircle
 10
702.87433
 20
-126.511067
 30
0.0
 40
2.0
100
AcDbArc
 50
150.0
 51
215.375682
  0
ARC
  5
1F4
100
AcDbEntity
  8
0
370
    -3
  6
Continuous
100
AcDbCircle
 10
703.482152
 20
-127.458289
 30
0.0
 40
2.0
100
AcDbArc
 50
210.0
 51
270.0
  0
ARC
  5
1F5
100
AcDbEntity
  8
0
370
    -3
  6
Continuous
100
AcDbCircle
 10
693.089847
 20
-133.458289
 30
0.0
 40
10.0
100
AcDbArc
 50
30.0
 51
35.375682
  0
ARC
  5
1F6
100
AcDbEntity
  8
0
370
    -3
  6
Continuous
100
AcDbCircle
 10
693.089847
 20
-133.458289
 30
0.0
 40
10.0
100
AcDbArc
 50
150.0
 51
155.375682
  0
ARC
  5
1F7
100
AcDbEntity
  8
0
370
    -3
  6
Continuous
100
AcDbCircle
 10
707.381453
 20
-127.458289
 30
0.0
 40
2.0
100
AcDbArc
 50
270.0
 51
22.773972
  0
ARC
  5
1F8
100
AcDbEntity
  8
0
370
    -3
  6
Continuous
100
AcDbCircle
 10
704.755674
 20
-123.252483
 30
0.0
 40
2.0
100
AcDbArc
 50
41.180937
 51
150.0
  0
ARC
  5
1F9
100
AcDbEntity
  8
0
370
    -3
  6
Continuous
100
AcDbCircle
 10
709.412159
 20
-115.187215
 30
0.0
 40
2.0
100
AcDbArc
 50
150.0
 51
228.224256
  0
ARC
  5
1FA
100
AcDbEntity
  8
0
370
    -3
  6
Continuous
100
AcDbCircle
 10
716.843794
 20
-127.458289
 30
0.0
 40
2.0
100
AcDbArc
 50
194.175804
 51
270.0
  0
ARC
  5
1FB
100
AcDbEntity
  8
0
370
    -3
  6
Continuous
100
AcDbCircle
 10
720.439435
 20
-127.458289
 30
0.0
 40
2.0
100
AcDbArc
 50
270.0
 51
12.373625
  0
ARC
  5
1FC
100
AcDbEntity
  8
0
370
    -3
  6
Continuous
100
AcDbCircle
 10
711.194951
 20
-112.099328
 30
0.0
 40
2.0
100
AcDbArc
 50
49.713439
 51
150.0
  0
ARC
  5
1FD
100
AcDbEntity
  8
0
370
    -3
  6
Continuous
100
AcDbCircle
 10
715.750276
 20
-104.209273
 30
0.0
 40
2.0
100
AcDbArc
 50
150.0
 51
232.233566
  0
ARC
  5
1FE
100
AcDbEntity
  8
0
370
    -3
  6
Continuous
100
AcDbCircle
 10
729.600119
 20
-127.458289
 30
0.0
 40
2.0
100
AcDbArc
 50
189.332418
 51
270.0
  0
ARC
  5
1FF
100
AcDbEntity
  8
0
370
    -3
  6
Continuous
100
AcDbCircle
 10
733.142936
 20
-127.458289
 30
0.0
 40
2.0
100
AcDbArc
 50
270.0
 51
8.519624
  0
ARC
  5
200
100
AcDbEntity
  8
0
370
    -3
  6
Continuous
100
AcDbCircle
 10
717.51506
 20
-101.152578
 30
0.0
 40
2.0
100
AcDbArc
 50
52.908354
 51
150.0
  0
ARC
  5
201
100
AcDbEntity
  8
0
370
    -3
  6
Continuous
100
AcDbCircle
 10
722.043387
 20
-93.309285
 30
0.0
 40
2.0
100
AcDbArc
 50
150.0
 51
234.20266
  0
ARC
  5
202
100
AcDbEntity
  8
0
370
    -3
  6
Continuous
100
AcDbCircle
 10
723.801786
 20
-90.26365
 30
0.0
 40
2.0
100
AcDbArc
 50
54.586688
 51
150.0
  0
ARC
  5
203
100
AcDbEntity
  8
0
370
    -3
  6
Continuous
100
AcDbCircle
 10
742.224865
 20
-127.458289
 30
0.0
 40
2.0
100
AcDbArc
 50
186.962063
 51
270.0
  0
ARC
  5
204
100
AcDbEntity
  8
0
370
    -3
  6
Continuous
100
AcDbCircle
 10
745.749129
 20
-127.458289
 30
0.0
 40
2.0
100
AcDbArc
 50
270.0
 51
6.50025
  0
ARC
  5
205
100
AcDbEntity
  8
0
370
    -3
  6
Continuous
100
AcDbCircle
 10
693.089847
 20
-133.458289
 30
0.0
 40
17.5
100
AcDbArc
 50
22.773972
 51
41.180937
  0
ARC
  5
206
100
AcDbEntity
  8
0
370
    -3
  6
Continuous
100
AcDbCircle
 10
693.089847
 20
-133.458289
 30
0.0
 40
22.5
100
AcDbArc
 50
14.175804
 51
48.224256
  0
ARC
  5
207
100
AcDbEntity
  8
0
370
    -3
  6
Continuous
100
AcDbCircle
 10
693.089847
 20
-133.458289
 30
0.0
 40
30.0
100
AcDbArc
 50
12.373625
 51
49.713439
  0
ARC
  5
208
100
AcDbEntity
  8
0
370
    -3
  6
Continuous
100
AcDbCircle
 10
693.089847
 20
-133.458289
 30
0.0
 40
35.0
100
AcDbArc
 50
9.332418
 51
52.233566
  0
ARC
  5
209
100
AcDbEntity
  8
0
370
    -3
  6
Continuous
100
AcDbCircle
 10
693.089847
 20
-133.458289
 30
0.0
 40
42.5
100
AcDbArc
 50
8.519624
 51
52.908354
  0
ARC
  5
20A
100
AcDbEntity
  8
0
370
    -3
  6
Continuous
100
AcDbCircle
 10
693.089847
 20
-133.458289
 30
0.0
 40
47.5
100
AcDbArc
 50
6.962063
 51
54.20266
  0
ARC
  5
20B
100
AcDbEntity
  8
0
370
    -3
  6
Continuous
100
AcDbCircle
 10
693.089847
 20
-133.458289
 30
0.0
 40
55.0
100
AcDbArc
 50
6.50025
 51
54.586688
  0
ARC
  5
20C
100
AcDbEntity
  8
0
370
    -3
  6
Continuous
100
AcDbCircle
 10
693.089847
 20
-133.458289
 30
0.0
 40
10.0
100
AcDbArc
 50
324.624318
 51
330.0
  0
ARC
  5
20D
100
AcDbEntity
  8
0
370
    -3
  6
Continuous
100
AcDbCircle
 10
693.089847
 20
-133.458289
 30
0.0
 40
17.5
100
AcDbArc
 50
318.819063
 51
337.226028
  0
ARC
  5
20E
100
AcDbEntity
  8
0
370
    -3
  6
Continuous
100
AcDbCircle
 10
693.089847
 20
-133.458289
 30
0.0
 40
22.5
100
AcDbArc
 50
311.775744
 51
345.824196
  0
ARC
  5
20F
100
AcDbEntity
  8
0
370
    -3
  6
Continuous
100
AcDbCircle
 10
693.089847
 20
-133.458289
 30
0.0
 40
30.0
100
AcDbArc
 50
310.286561
 51
347.626375
  0
ARC
  5
210
100
AcDbEntity
  8
0
370
    -3
  6
Continuous
100
AcDbCircle
 10
693.089847
 20
-133.458289
 30
0.0
 40
35.0
100
AcDbArc
 50
307.766434
 51
350.667582
  0
ARC
  5
211
100
AcDbEntity
  8
0
370
    -3
  6
Continuous
100
AcDbCircle
 10
693.089847
 20
-133.458289
 30
0.0
 40
42.5
100
AcDbArc
 50
307.091646
 51
351.480376
  0
ARC
  5
212
100
AcDbEntity
  8
0
370
    -3
  6
Continuous
100
AcDbCircle
 10
693.089847
 20
-133.458289
 30
0.0
 40
47.5
100
AcDbArc
 50
305.79734
 51
353.037937
  0
ARC
  5
213
100
AcDbEntity
  8
0
370
    -3
  6
Continuous
100
AcDbCircle
 10
693.089847
 20
-133.458289
 30
0.0
 40
55.0
100
AcDbArc
 50
305.413312
 51
353.49975
  0
LINE
  5
214
100
AcDbEntity
  8
0
370
    -3
  6
CENTER
100
AcDbLine
 10
720.089847
 20
-86.692917
 30
0.0
 11
725.589847
 21
-77.166638
 31
0.0
  0
ARC
  5
215
100
AcDbEntity
  8
0
370
    -3
  6
Continuous
100
AcDbCircle
 10
754.798841
 20
-139.458289
 30
0.0
 40
2.0
100
AcDbArc
 50
90.0
 51
174.446556
  0
ARC
  5
216
100
AcDbEntity
  8
0
370
    -3
  6
Continuous
100
AcDbCircle
 10
728.319003
 20
-184.476977
 30
0.0
 40
2.0
100
AcDbArc
 50
124.625651
 51
210.0
  0
ARC
  5
217
100
AcDbEntity
  8
0
370
    -3
  6
Continuous
100
AcDbCircle
 10
719.658749
 20
-189.476977
 30
0.0
 40
2.0
100
AcDbArc
 50
30.0
 51
115.374349
  0
ARC
  5
218
100
AcDbEntity
  8
0
370
    -3
  6
Continuous
100
AcDbCircle
 10
667.431502
 20
-189.899846
 30
0.0
 40
2.0
100
AcDbArc
 50
65.553444
 51
150.0
  0
ARC
  5
219
100
AcDbEntity
  8
0
370
    -3
  6
Continuous
100
AcDbCircle
 10
657.039197
 20
-183.899846
 30
0.0
 40
2.0
100
AcDbArc
 50
330.0
 51
54.446556
  0
ARC
  5
21A
100
AcDbEntity
  8
0
370
    -3
  6
Continuous
100
AcDbCircle
 10
631.291788
 20
-138.458289
 30
0.0
 40
2.0
100
AcDbArc
 50
4.625651
 51
90.0
  0
ARC
  5
21B
100
AcDbEntity
  8
0
370
    -3
  6
Continuous
100
AcDbCircle
 10
631.291788
 20
-128.458289
 30
0.0
 40
2.0
100
AcDbArc
 50
270.0
 51
355.374349
  0
ARC
  5
21C
100
AcDbEntity
  8
0
370
    -3
  6
Continuous
100
AcDbCircle
 10
719.658749
 20
-77.439601
 30
0.0
 40
2.0
100
AcDbArc
 50
244.625651
 51
330.0
  0
ARC
  5
21D
100
AcDbEntity
  8
0
370
    -3
  6
Continuous
100
AcDbCircle
 10
728.319003
 20
-82.439601
 30
0.0
 40
2.0
100
AcDbArc
 50
150.0
 51
235.374349
  0
ARC
  5
21E
100
AcDbEntity
  8
0
370
    -3
  6
Continuous
100
AcDbCircle
 10
754.798841
 20
-127.458289
 30
0.0
 40
2.0
100
AcDbArc
 50
185.553444
 51
270.0
  0
ARC
  5
21F
100
AcDbEntity
  8
0
370
    -3
  6
Continuous
100
AcDbCircle
 10
693.089847
 20
-133.458289
 30
0.0
 40
60.0
100
AcDbArc
 50
5.553444
 51
55.374349
  0
ARC
  5
220
100
AcDbEntity
  8
0
370
    -3
  6
Continuous
100
AcDbCircle
 10
693.089847
 20
-133.458289
 30
0.0
 40
60.0
100
AcDbArc
 50
64.625651
 51
114.446556
  0
ARC
  5
221
100
AcDbEntity
  8
0
370
    -3
  6
Continuous
100
AcDbCircle
 10
693.089847
 20
-133.458289
 30
0.0
 40
60.0
100
AcDbArc
 50
125.553444
 51
175.374349
  0
ARC
  5
222
100
AcDbEntity
  8
0
370
    -3
  6
Continuous
100
AcDbCircle
 10
693.089847
 20
-133.458289
 30
0.0
 40
60.0
100
AcDbArc
 50
184.625651
 51
234.446556
  0
ARC
  5
223
100
AcDbEntity
  8
0
370
    -3
  6
Continuous
100
AcDbCircle
 10
693.089847
 20
-133.458289
 30
0.0
 40
60.0
100
AcDbArc
 50
245.553444
 51
295.374349
  0
ARC
  5
224
100
AcDbEntity
  8
0
370
    -3
  6
Continuous
100
AcDbCircle
 10
693.089847
 20
-133.458289
 30
0.0
 40
60.0
100
AcDbArc
 50
304.625651
 51
354.446556
  0
ARC
  5
225
100
AcDbEntity
  8
0
370
    -3
  6
Continuous
100
AcDbCircle
 10
996.589847
 20
-133.458289
 30
0.0
 40
390.8
100
AcDbArc
 50
177.020093
 51
182.979907
  0
ARC
  5
226
100
AcDbEntity
  8
0
370
    -3
  6
Continuous
100
AcDbCircle
 10
693.089847
 20
170.041711
 30
0.0
 40
390.8
100
AcDbArc
 50
267.020093
 51
272.979907
  0
ARC
  5
227
100
AcDbEntity
  8
0
370
    -3
  6
Continuous
100
AcDbCircle
 10
389.589847
 20
-133.458289
 30
0.0
 40
390.8
100
AcDbArc
 50
357.020093
 51
2.979907
  0
ARC
  5
228
100
AcDbEntity
  8
0
370
    -3
  6
Continuous
100
AcDbCircle
 10
693.089847
 20
170.041711
 30
0.0
 40
374.8
100
AcDbArc
 50
270.0
 51
272.979907
  0
LINE
  5
229
100
AcDbEntity
  8
0
370
    -3
  6
Continuous
100
AcDbLine
 10
682.181135
 20
-130.458289
 30
0.0
 11
678.418446
 21
-130.458289
 31
0.0
  0
LINE
  5
22A
100
AcDbEntity
  8
0
370
    -3
  6
Continuous
100
AcDbLine
 10
669.105477
 20
-130.458289
 30
0.0
 11
665.539892
 21
-130.458289
 31
0.0
  0
LINE
  5
22B
100
AcDbEntity
  8
0
370
    -3
  6
Continuous
100
AcDbLine
 10
656.429241
 20
-130.458289
 30
0.0
 11
652.899674
 21
-130.458289
 31
0.0
  0
LINE
  5
22C
100
AcDbEntity
  8
0
370
    -3
  6
Continuous
100
AcDbLine
 10
643.843019
 20
-130.458289
 30
0.0
 11
640.326223
 21
-130.458289
 31
0.0
  0
ARC
  5
22D
100
AcDbEntity
  8
0
370
    -3
  6
Continuous
100
AcDbCircle
 10
630.288573
 20
-128.458289
 30
0.0
 40
2.0
100
AcDbArc
 50
175.447929
 51
270.0
  0
LINE
  5
22E
100
AcDbEntity
  8
0
370
    -3
  6
Continuous
100
AcDbLine
 10
631.291788
 20
-130.458289
 30
0.0
 11
630.288573
 21
-130.458289
 31
0.0
  0
ARC
  5
22F
100
AcDbEntity
  8
0
370
    -3
  6
Continuous
100
AcDbCircle
 10
693.089847
 20
-133.458289
 30
0.0
 40
65.0
100
AcDbArc
 50
125.465024
 51
175.447929
  0
LINE
  5
230
100
AcDbEntity
  8
0
370
    -3
  6
Continuous
100
AcDbLine
 10
669.105477
 20
-136.458289
 30
0.0
 11
665.539892
 21
-136.458289
 31
0.0
  0
LINE
  5
231
100
AcDbEntity
  8
0
370
    -3
  6
Continuous
100
AcDbLine
 10
656.429241
 20
-136.458289
 30
0.0
 11
652.899674
 21
-136.458289
 31
0.0
  0
LINE
  5
232
100
AcDbEntity
  8
0
370
    -3
  6
Continuous
100
AcDbLine
 10
643.843019
 20
-136.458289
 30
0.0
 11
640.326223
 21
-136.458289
 31
0.0
  0
ARC
  5
233
100
AcDbEntity
  8
0
370
    -3
  6
Continuous
100
AcDbCircle
 10
630.288573
 20
-138.458289
 30
0.0
 40
2.0
100
AcDbArc
 50
90.0
 51
184.552071
  0
LINE
  5
234
100
AcDbEntity
  8
0
370
    -3
  6
Continuous
100
AcDbLine
 10
631.291788
 20
-136.458289
 30
0.0
 11
630.288573
 21
-136.458289
 31
0.0
  0
LINE
  5
235
100
AcDbEntity
  8
0
370
    -3
  6
Continuous
100
AcDbLine
 10
658.771248
 20
-184.899846
 30
0.0
 11
658.268928
 21
-185.76989
 31
0.0
  0
LINE
  5
236
100
AcDbEntity
  8
0
370
    -3
  6
Continuous
100
AcDbLine
 10
665.058236
 20
-174.010463
 30
0.0
 11
663.296104
 21
-177.062565
 31
0.0
  0
LINE
  5
237
100
AcDbEntity
  8
0
370
    -3
  6
Continuous
100
AcDbLine
 10
671.370609
 20
-163.077113
 30
0.0
 11
669.5992
 21
-166.145282
 31
0.0
  0
LINE
  5
238
100
AcDbEntity
  8
0
370
    -3
  6
Continuous
100
AcDbLine
 10
684.429593
 20
-140.458289
 30
0.0
 11
682.479942
 21
-143.835183
 31
0.0
  0
LINE
  5
239
100
AcDbEntity
  8
0
370
    -3
  6
Continuous
100
AcDbLine
 10
682.181135
 20
-136.458289
 30
0.0
 11
678.418446
 21
-136.458289
 31
0.0
  0
ARC
  5
23A
100
AcDbEntity
  8
0
370
    -3
  6
Continuous
100
AcDbCircle
 10
693.089847
 20
-133.458289
 30
0.0
 40
65.0
100
AcDbArc
 50
184.552071
 51
234.534976
  0
LINE
  5
23B
100
AcDbEntity
  8
0
370
    -3
  6
Continuous
100
AcDbLine
 10
702.483955
 20
-155.729363
 30
0.0
 11
704.266748
 21
-158.81725
 31
0.0
  0
LINE
  5
23C
100
AcDbEntity
  8
0
370
    -3
  6
Continuous
100
AcDbLine
 10
678.298812
 20
-167.077113
 30
0.0
 11
676.527403
 21
-170.145282
 31
0.0
  0
LINE
  5
23D
100
AcDbEntity
  8
0
370
    -3
  6
Continuous
100
AcDbLine
 10
684.676975
 20
-156.029811
 30
0.0
 11
682.879154
 21
-159.143728
 31
0.0
  0
LINE
  5
23E
100
AcDbEntity
  8
0
370
    -3
  6
Continuous
100
AcDbLine
 10
691.357796
 20
-144.458289
 30
0.0
 11
689.408145
 21
-147.835183
 31
0.0
  0
LINE
  5
23F
100
AcDbEntity
  8
0
370
    -3
  6
Continuous
100
AcDbLine
 10
695.946127
 20
-144.405511
 30
0.0
 11
697.827471
 21
-147.664095
 31
0.0
  0
LINE
  5
240
100
AcDbEntity
  8
0
370
    -3
  6
Continuous
100
AcDbLine
 10
708.822073
 20
-166.707305
 30
0.0
 11
710.586857
 21
-169.764
 31
0.0
  0
LINE
  5
241
100
AcDbEntity
  8
0
370
    -3
  6
Continuous
100
AcDbLine
 10
715.115184
 20
-177.607293
 30
0.0
 11
716.873582
 21
-180.652928
 31
0.0
  0
LINE
  5
242
100
AcDbEntity
  8
0
370
    -3
  6
Continuous
100
AcDbLine
 10
671.986439
 20
-178.010463
 30
0.0
 11
670.224307
 21
-181.062565
 31
0.0
  0
ARC
  5
243
100
AcDbEntity
  8
0
370
    -3
  6
Continuous
100
AcDbCircle
 10
666.929182
 20
-190.76989
 30
0.0
 40
2.0
100
AcDbArc
 50
150.0
 51
245.465024
  0
LINE
  5
244
100
AcDbEntity
  8
0
370
    -3
  6
Continuous
100
AcDbLine
 10
665.699451
 20
-188.899846
 30
0.0
 11
665.197131
 21
-189.76989
 31
0.0
  0
ARC
  5
245
100
AcDbEntity
  8
0
370
    -3
  6
Continuous
100
AcDbCircle
 10
720.160357
 20
-190.345788
 30
0.0
 40
2.0
100
AcDbArc
 50
295.447929
 51
30.0
  0
LINE
  5
246
100
AcDbEntity
  8
0
370
    -3
  6
Continuous
100
AcDbLine
 10
721.3908
 20
-188.476977
 30
0.0
 11
721.892407
 21
-189.345788
 31
0.0
  0
ARC
  5
247
100
AcDbEntity
  8
0
370
    -3
  6
Continuous
100
AcDbCircle
 10
693.089847
 20
-133.458289
 30
0.0
 40
65.0
100
AcDbArc
 50
245.465024
 51
295.447929
  0
ARC
  5
248
100
AcDbEntity
  8
0
370
    -3
  6
Continuous
100
AcDbCircle
 10
693.089847
 20
-133.458289
 30
0.0
 40
65.0
100
AcDbArc
 50
5.465024
 51
55.447929
  0
LINE
  5
249
100
AcDbEntity
  8
0
370
    -3
  6
Continuous
100
AcDbLine
 10
702.483955
 20
-111.187215
 30
0.0
 11
704.266748
 21
-108.099328
 31
0.0
  0
LINE
  5
24A
100
AcDbEntity
  8
0
370
    -3
  6
Continuous
100
AcDbLine
 10
708.822073
 20
-100.209273
 30
0.0
 11
710.586857
 21
-97.152578
 31
0.0
  0
LINE
  5
24B
100
AcDbEntity
  8
0
370
    -3
  6
Continuous
100
AcDbLine
 10
715.115184
 20
-89.309285
 30
0.0
 11
716.873582
 21
-86.26365
 31
0.0
  0
LINE
  5
24C
100
AcDbEntity
  8
0
370
    -3
  6
Continuous
100
AcDbLine
 10
721.3908
 20
-78.439601
 30
0.0
 11
721.892407
 21
-77.57079
 31
0.0
  0
LINE
  5
24D
100
AcDbEntity
  8
0
370
    -3
  6
Continuous
100
AcDbLine
 10
707.680108
 20
-114.187215
 30
0.0
 11
709.4629
 21
-111.099328
 31
0.0
  0
LINE
  5
24E
100
AcDbEntity
  8
0
370
    -3
  6
Continuous
100
AcDbLine
 10
714.018226
 20
-103.209273
 30
0.0
 11
715.783009
 21
-100.152578
 31
0.0
  0
LINE
  5
24F
100
AcDbEntity
  8
0
370
    -3
  6
Continuous
100
AcDbLine
 10
720.311337
 20
-92.309285
 30
0.0
 11
722.069735
 21
-89.26365
 31
0.0
  0
LINE
  5
250
100
AcDbEntity
  8
0
370
    -3
  6
Continuous
100
AcDbLine
 10
726.586952
 20
-81.439601
 30
0.0
 11
727.08856
 21
-80.57079
 31
0.0
  0
LINE
  5
251
100
AcDbEntity
  8
0
370
    -3
  6
Continuous
100
AcDbLine
 10
707.680108
 20
-152.729363
 30
0.0
 11
709.4629
 21
-155.81725
 31
0.0
  0
LINE
  5
252
100
AcDbEntity
  8
0
370
    -3
  6
Continuous
100
AcDbLine
 10
714.018226
 20
-163.707305
 30
0.0
 11
715.783009
 21
-166.764
 31
0.0
  0
LINE
  5
253
100
AcDbEntity
  8
0
370
    -3
  6
Continuous
100
AcDbLine
 10
720.311337
 20
-174.607293
 30
0.0
 11
722.069735
 21
-177.652928
 31
0.0
  0
LINE
  5
254
100
AcDbEntity
  8
0
370
    -3
  6
Continuous
100
AcDbLine
 10
726.586952
 20
-185.476977
 30
0.0
 11
727.08856
 21
-186.345788
 31
0.0
  0
LINE
  5
255
100
AcDbEntity
  8
0
370
    -3
  6
Continuous
100
AcDbLine
 10
716.843794
 20
-129.458289
 30
0.0
 11
720.439435
 21
-129.458289
 31
0.0
  0
LINE
  5
256
100
AcDbEntity
  8
0
370
    -3
  6
Continuous
100
AcDbLine
 10
729.600119
 20
-129.458289
 30
0.0
 11
733.142936
 21
-129.458289
 31
0.0
  0
LINE
  5
257
100
AcDbEntity
  8
0
370
    -3
  6
Continuous
100
AcDbLine
 10
742.224865
 20
-129.458289
 30
0.0
 11
745.749129
 21
-129.458289
 31
0.0
  0
LINE
  5
258
100
AcDbEntity
  8
0
370
    -3
  6
Continuous
100
AcDbLine
 10
754.798841
 20
-129.458289
 30
0.0
 11
755.803482
 21
-129.458289
 31
0.0
  0
LINE
  5
259
100
AcDbEntity
  8
0
370
    -3
  6
Continuous
100
AcDbLine
 10
716.843794
 20
-137.458289
 30
0.0
 11
720.439435
 21
-137.458289
 31
0.0
  0
LINE
  5
25A
100
AcDbEntity
  8
0
370
    -3
  6
Continuous
100
AcDbLine
 10
729.600119
 20
-137.458289
 30
0.0
 11
733.142936
 21
-137.458289
 31
0.0
  0
LINE
  5
25B
100
AcDbEntity
  8
0
370
    -3
  6
Continuous
100
AcDbLine
 10
742.224865
 20
-137.458289
 30
0.0
 11
745.749129
 21
-137.458289
 31
0.0
  0
LINE
  5
25C
100
AcDbEntity
  8
0
370
    -3
  6
Continuous
100
AcDbLine
 10
754.798841
 20
-137.458289
 30
0.0
 11
755.803482
 21
-137.458289
 31
0.0
  0
ARC
  5
25D
100
AcDbEntity
  8
0
370
    -3
  6
Continuous
100
AcDbCircle
 10
693.089847
 20
-133.458289
 30
0.0
 40
65.0
100
AcDbArc
 50
304.552071
 51
354.534976
  0
ARC
  5
25E
100
AcDbEntity
  8
0
370
    -3
  6
Continuous
100
AcDbCircle
 10
728.820611
 20
-185.345788
 30
0.0
 40
2.0
100
AcDbArc
 50
210.0
 51
304.552071
  0
LINE
  5
25F
100
AcDbEntity
  8
0
370
    -3
  6
Continuous
100
AcDbLine
 10
701.142279
 20
-141.405511
 30
0.0
 11
703.023623
 21
-144.664095
 31
0.0
  0
ARC
  5
260
100
AcDbEntity
  8
0
370
    -3
  6
Continuous
100
AcDbCircle
 10
720.160357
 20
-76.57079
 30
0.0
 40
2.0
100
AcDbArc
 50
330.0
 51
64.552071
  0
ARC
  5
261
100
AcDbEntity
  8
0
370
    -3
  6
Continuous
100
AcDbCircle
 10
755.803482
 20
-139.458289
 30
0.0
 40
2.0
100
AcDbArc
 50
354.534976
 51
90.0
  0
ARC
  5
262
100
AcDbEntity
  8
0
370
    -3
  6
Continuous
100
AcDbCircle
 10
755.803482
 20
-127.458289
 30
0.0
 40
2.0
100
AcDbArc
 50
270.0
 51
5.465024
  0
ARC
  5
263
100
AcDbEntity
  8
0
370
    -3
  6
Continuous
100
AcDbCircle
 10
728.820611
 20
-81.57079
 30
0.0
 40
2.0
100
AcDbArc
 50
55.447929
 51
150.0
  0
ARC
  5
264
100
AcDbEntity
  8
0
370
    -3
  6
Continuous
100
AcDbCircle
 10
693.089847
 20
-133.458289
 30
0.0
 40
65.0
100
AcDbArc
 50
64.552071
 51
114.534976
  0
LINE
  5
265
100
AcDbEntity
  8
0
370
    -3
  6
Continuous
100
AcDbLine
 10
695.946127
 20
-122.511067
 30
0.0
 11
697.827471
 21
-119.252483
 31
0.0
  0
LINE
  5
266
100
AcDbEntity
  8
0
370
    -3
  6
Continuous
100
AcDbLine
 10
703.482152
 20
-137.458289
 30
0.0
 11
707.381453
 21
-137.458289
 31
0.0
  0
LINE
  5
267
100
AcDbEntity
  8
0
370
    -3
  6
Continuous
100
AcDbLine
 10
703.482152
 20
-129.458289
 30
0.0
 11
707.381453
 21
-129.458289
 31
0.0
  0
LINE
  5
268
100
AcDbEntity
  8
0
370
    -3
  6
Continuous
100
AcDbLine
 10
701.142279
 20
-125.511067
 30
0.0
 11
703.023623
 21
-122.252483
 31
0.0
  0
CIRCLE
  5
269
100
AcDbEntity
  8
0
370
    -3
  6
Continuous
100
AcDbCircle
 10
693.089847
 20
-133.458289
 30
0.0
 40
5.0
  0
ARC
  5
26A
100
AcDbEntity
  8
0
370
    -3
  6
Continuous
100
AcDbCircle
 10
676.194477
 20
-112.397745
 30
0.0
 40
65.8
100
AcDbArc
 50
92.979907
 51
128.737581
  0
ARC
  5
26B
100
AcDbEntity
  8
0
370
    -3
  6
Continuous
100
AcDbCircle
 10
714.15039
 20
-150.353658
 30
0.0
 40
65.8
100
AcDbArc
 50
321.262419
 51
357.020093
  0
ARC
  5
26C
100
AcDbEntity
  8
0
370
    -3
  6
Continuous
100
AcDbCircle
 10
709.985216
 20
-112.397745
 30
0.0
 40
49.8
100
AcDbArc
 50
51.262419
 51
87.020093
  0
ARC
  5
26D
100
AcDbEntity
  8
0
370
    -3
  6
Continuous
100
AcDbCircle
 10
714.15039
 20
-116.56292
 30
0.0
 40
49.8
100
AcDbArc
 50
2.979907
 51
38.737581
  0
ARC
  5
26E
100
AcDbEntity
  8
0
370
    -3
  6
Continuous
100
AcDbCircle
 10
389.589847
 20
-133.458289
 30
0.0
 40
374.8
100
AcDbArc
 50
0.0
 51
2.979907
  0
ARC
  5
26F
100
AcDbEntity
  8
0
370
    -3
  6
Continuous
100
AcDbCircle
 10
389.589847
 20
-133.458289
 30
0.0
 40
374.8
100
AcDbArc
 50
357.020093
 51
0.0
  0
ARC
  5
270
100
AcDbEntity
  8
0
370
    -3
  6
Continuous
100
AcDbCircle
 10
714.15039
 20
-150.353658
 30
0.0
 40
49.8
100
AcDbArc
 50
321.262419
 51
357.020093
  0
ARC
  5
271
100
AcDbEntity
  8
0
370
    -3
  6
Continuous
100
AcDbCircle
 10
693.089847
 20
-133.458289
 30
0.0
 40
76.8
100
AcDbArc
 50
308.737581
 51
321.262419
  0
ARC
  5
272
100
AcDbEntity
  8
0
370
    -3
  6
Continuous
100
AcDbCircle
 10
709.985216
 20
-154.518833
 30
0.0
 40
49.8
100
AcDbArc
 50
272.979907
 51
308.737581
  0
ARC
  5
273
100
AcDbEntity
  8
0
370
    -3
  6
Continuous
100
AcDbCircle
 10
693.089847
 20
170.041711
 30
0.0
 40
374.8
100
AcDbArc
 50
267.020093
 51
270.0
  0
ARC
  5
274
100
AcDbEntity
  8
0
370
    -3
  6
Continuous
100
AcDbCircle
 10
676.194477
 20
-154.518833
 30
0.0
 40
49.8
100
AcDbArc
 50
231.262419
 51
267.020093
  0
ARC
  5
275
100
AcDbEntity
  8
0
370
    -3
  6
Continuous
100
AcDbCircle
 10
672.029303
 20
-150.353658
 30
0.0
 40
49.8
100
AcDbArc
 50
182.979907
 51
218.737581
  0
ARC
  5
276
100
AcDbEntity
  8
0
370
    -3
  6
Continuous
100
AcDbCircle
 10
996.589847
 20
-133.458289
 30
0.0
 40
374.8
100
AcDbArc
 50
180.0
 51
182.979907
  0
ARC
  5
277
100
AcDbEntity
  8
0
370
    -3
  6
Continuous
100
AcDbCircle
 10
672.029303
 20
-116.56292
 30
0.0
 40
49.8
100
AcDbArc
 50
141.262419
 51
177.020093
  0
ARC
  5
278
100
AcDbEntity
  8
0
370
    -3
  6
Continuous
100
AcDbCircle
 10
693.089847
 20
-133.458289
 30
0.0
 40
76.8
100
AcDbArc
 50
128.737581
 51
141.262419
  0
ARC
  5
279
100
AcDbEntity
  8
0
370
    -3
  6
Continuous
100
AcDbCircle
 10
676.194477
 20
-112.397745
 30
0.0
 40
49.8
100
AcDbArc
 50
92.979907
 51
128.737581
  0
ARC
  5
27A
100
AcDbEntity
  8
0
370
    -3
  6
Continuous
100
AcDbCircle
 10
693.089847
 20
-436.958289
 30
0.0
 40
374.8
100
AcDbArc
 50
90.0
 51
92.979907
  0
ARC
  5
27B
100
AcDbEntity
  8
0
370
    -3
  6
Continuous
100
AcDbCircle
 10
693.089847
 20
-436.958289
 30
0.0
 40
374.8
100
AcDbArc
 50
87.020093
 51
90.0
  0
ARC
  5
27C
100
AcDbEntity
  8
0
370
    -3
  6
Continuous
100
AcDbCircle
 10
996.589847
 20
-133.458289
 30
0.0
 40
374.8
100
AcDbArc
 50
177.020093
 51
180.0
  0
ARC
  5
27D
100
AcDbEntity
  8
0
370
    -3
  6
Continuous
100
AcDbCircle
 10
693.089847
 20
-436.958289
 30
0.0
 40
390.8
100
AcDbArc
 50
87.020093
 51
92.979907
  0
LINE
  5
27E
100
AcDbEntity
  8
0
370
    -3
  6
CENTER
100
AcDbLine
 10
274.269387
 20
244.045293
 30
0.0
 11
241.529598
 21
244.045293
 31
0.0
  0
LINE
  5
27F
100
AcDbEntity
  8
0
370
    -3
  6
CENTER
100
AcDbLine
 10
274.269387
 20
265.045293
 30
0.0
 11
241.529598
 21
265.045293
 31
0.0
  0
ARC
  5
280
100
AcDbEntity
  8
0
370
    -3
  6
Continuous
100
AcDbCircle
 10
249.089842
 20
235.045293
 30
0.0
 40
3.0
100
AcDbArc
 50
270.0
 51
0.0
  0
ARC
  5
281
100
AcDbEntity
  8
0
370
    -3
  6
Continuous
100
AcDbCircle
 10
249.089842
 20
274.045293
 30
0.0
 40
3.0
100
AcDbArc
 50
0.0
 51
90.0
  0
LINE
  5
282
100
AcDbEntity
  8
0
370
    -3
  6
Continuous
100
AcDbLine
 10
249.089842
 20
232.045293
 30
0.0
 11
237.089842
 21
232.045293
 31
0.0
  0
LINE
  5
283
100
AcDbEntity
  8
0
370
    -3
  6
Continuous
100
AcDbLine
 10
249.089842
 20
277.045293
 30
0.0
 11
237.089842
 21
277.045293
 31
0.0
  0
LINE
  5
284
100
AcDbEntity
  8
0
370
    -3
  6
Continuous
100
AcDbLine
 10
237.178404
 20
172.456731
 30
0.0
 11
235.089842
 21
174.545293
 31
0.0
  0
ARC
  5
285
100
AcDbEntity
  8
0
370
    -3
  6
Continuous
100
AcDbCircle
 10
239.089842
 20
173.045293
 30
0.0
 40
2.0
100
AcDbArc
 50
180.0
 51
270.0
  0
LINE
  5
286
100
AcDbEntity
  8
0
370
    -3
  6
Continuous
100
AcDbLine
 10
250.089842
 20
171.045293
 30
0.0
 11
239.089842
 21
171.045293
 31
0.0
  0
LINE
  5
287
100
AcDbEntity
  8
0
370
    -3
  6
Continuous
100
AcDbLine
 10
237.089842
 20
254.545293
 30
0.0
 11
237.089842
 21
173.045293
 31
0.0
  0
ARC
  5
288
100
AcDbEntity
  8
0
370
    -3
  6
Continuous
100
AcDbCircle
 10
250.089842
 20
173.045293
 30
0.0
 40
2.0
100
AcDbArc
 50
270.0
 51
0.0
  0
LINE
  5
289
100
AcDbEntity
  8
0
370
    -3
  6
Continuous
100
AcDbLine
 10
237.089842
 20
254.545293
 30
0.0
 11
237.089842
 21
336.045293
 31
0.0
  0
ARC
  5
28A
100
AcDbEntity
  8
0
370
    -3
  6
Continuous
100
AcDbCircle
 10
250.089842
 20
336.045293
 30
0.0
 40
2.0
100
AcDbArc
 50
0.0
 51
90.0
  0
LINE
  5
28B
100
AcDbEntity
  8
0
370
    -3
  6
Continuous
100
AcDbLine
 10
250.089842
 20
338.045293
 30
0.0
 11
239.089842
 21
338.045293
 31
0.0
  0
LINE
  5
28C
100
AcDbEntity
  8
0
370
    -3
  6
Continuous
100
AcDbLine
 10
237.178404
 20
336.633855
 30
0.0
 11
235.089842
 21
334.545293
 31
0.0
  0
ARC
  5
28D
100
AcDbEntity
  8
0
370
    -3
  6
Continuous
100
AcDbCircle
 10
239.089842
 20
336.045293
 30
0.0
 40
2.0
100
AcDbArc
 50
90.0
 51
180.0
  0
ARC
  5
28E
100
AcDbEntity
  8
0
370
    -3
  6
Continuous
100
AcDbCircle
 10
53.089842
 20
155.545293
 30
0.0
 40
7.0
100
AcDbArc
 50
0.0
 51
180.0
  0
LINE
  5
28F
100
AcDbEntity
  8
0
370
    -3
  6
Continuous
100
AcDbLine
 10
60.089842
 20
92.545293
 30
0.0
 11
60.089842
 21
155.545293
 31
0.0
  0
LINE
  5
290
100
AcDbEntity
  8
0
370
    -3
  6
Continuous
100
AcDbLine
 10
46.089842
 20
92.545293
 30
0.0
 11
46.089842
 21
155.545293
 31
0.0
  0
LINE
  5
291
100
AcDbEntity
  8
0
370
    -3
  6
Continuous
100
AcDbLine
 10
79.089842
 20
167.545293
 30
0.0
 11
27.089842
 21
167.545293
 31
0.0
  0
LINE
  5
292
100
AcDbEntity
  8
0
370
    -3
  6
Continuous
100
AcDbLine
 10
27.089842
 20
169.545293
 30
0.0
 11
27.089842
 21
167.545293
 31
0.0
  0
LINE
  5
293
100
AcDbEntity
  8
0
370
    -3
  6
Continuous
100
AcDbLine
 10
28.089842
 20
167.545293
 30
0.0
 11
28.089842
 21
92.545293
 31
0.0
  0
LINE
  5
294
100
AcDbEntity
  8
0
370
    -3
  6
Continuous
100
AcDbLine
 10
46.089842
 20
155.545293
 30
0.0
 11
60.089842
 21
155.545293
 31
0.0
  0
LINE
  5
295
100
AcDbEntity
  8
0
370
    -3
  6
Continuous
100
AcDbLine
 10
79.089842
 20
169.545293
 30
0.0
 11
79.089842
 21
167.545293
 31
0.0
  0
LINE
  5
296
100
AcDbEntity
  8
0
370
    -3
  6
Continuous
100
AcDbLine
 10
78.089842
 20
167.545293
 30
0.0
 11
78.089842
 21
92.545293
 31
0.0
  0
LINE
  5
297
100
AcDbEntity
  8
0
370
    -3
  6
Continuous
100
AcDbLine
 10
78.089842
 20
92.545293
 30
0.0
 11
28.089842
 21
92.545293
 31
0.0
  0
LINE
  5
298
100
AcDbEntity
  8
0
370
    -3
  6
CENTER
100
AcDbLine
 10
-84.333655
 20
254.545293
 30
0.0
 11
512.823151
 21
254.545293
 31
0.0
  0
LINE
  5
299
100
AcDbEntity
  8
0
370
    -3
  6
Continuous
100
AcDbLine
 10
-52.910158
 20
254.545293
 30
0.0
 11
-51.168794
 21
321.045293
 31
0.0
  0
LINE
  5
29A
100
AcDbEntity
  8
0
370
    -3
  6
Continuous
100
AcDbLine
 10
228.089842
 20
254.545293
 30
0.0
 11
226.348478
 21
321.045293
 31
0.0
  0
LINE
  5
29B
100
AcDbEntity
  8
0
370
    -3
  6
Continuous
100
AcDbLine
 10
-20.910158
 20
339.545293
 30
0.0
 11
127.089842
 21
339.545293
 31
0.0
  0
LINE
  5
29C
100
AcDbEntity
  8
0
370
    -3
  6
CENTER
100
AcDbLine
 10
53.089842
 20
79.652461
 30
0.0
 11
53.089842
 21
359.701256
 31
0.0
  0
LINE
  5
29D
100
AcDbEntity
  8
0
370
    -3
  6
Continuous
100
AcDbLine
 10
128.089842
 20
334.545293
 30
0.0
 11
128.089842
 21
338.545293
 31
0.0
  0
LINE
  5
29E
100
AcDbEntity
  8
0
370
    -3
  6
Continuous
100
AcDbLine
 10
-21.910158
 20
334.545293
 30
0.0
 11
-21.910158
 21
338.545293
 31
0.0
  0
LINE
  5
29F
100
AcDbEntity
  8
0
370
    -3
  6
Continuous
100
AcDbLine
 10
127.089842
 20
339.545293
 30
0.0
 11
128.089842
 21
338.545293
 31
0.0
  0
LINE
  5
2A0
100
AcDbEntity
  8
0
370
    -3
  6
Continuous
100
AcDbLine
 10
-21.910158
 20
338.545293
 30
0.0
 11
-20.910158
 21
339.545293
 31
0.0
  0
LINE
  5
2A1
100
AcDbEntity
  8
0
370
    -3
  6
Continuous
100
AcDbLine
 10
-47.556648
 20
334.545293
 30
0.0
 11
233.089842
 21
334.545293
 31
0.0
  0
LINE
  5
2A2
100
AcDbEntity
  8
0
370
    -3
  6
Continuous
100
AcDbLine
 10
-48.910158
 20
321.045293
 30
0.0
 11
-48.582825
 21
333.545636
 31
0.0
  0
LINE
  5
2A3
100
AcDbEntity
  8
0
370
    -3
  6
Continuous
100
AcDbLine
 10
223.762509
 20
333.545636
 30
0.0
 11
224.089842
 21
321.045293
 31
0.0
  0
LINE
  5
2A4
100
AcDbEntity
  8
0
370
    -3
  6
Continuous
100
AcDbLine
 10
-51.168794
 20
321.045293
 30
0.0
 11
226.348478
 21
321.045293
 31
0.0
  0
LINE
  5
2A5
100
AcDbEntity
  8
0
370
    -3
  6
Continuous
100
AcDbLine
 10
222.736332
 20
334.545293
 30
0.0
 11
223.762509
 21
333.545636
 31
0.0
  0
LINE
  5
2A6
100
AcDbEntity
  8
0
370
    -3
  6
Continuous
100
AcDbLine
 10
-47.556648
 20
334.545293
 30
0.0
 11
-48.582825
 21
333.545636
 31
0.0
  0
LINE
  5
2A7
100
AcDbEntity
  8
0
370
    -3
  6
Continuous
100
AcDbLine
 10
-47.556648
 20
174.545293
 30
0.0
 11
233.089842
 21
174.545293
 31
0.0
  0
LINE
  5
2A8
100
AcDbEntity
  8
0
370
    -3
  6
Continuous
100
AcDbLine
 10
222.736332
 20
174.545293
 30
0.0
 11
223.762509
 21
175.54495
 31
0.0
  0
LINE
  5
2A9
100
AcDbEntity
  8
0
370
    -3
  6
Continuous
100
AcDbLine
 10
223.762509
 20
175.54495
 30
0.0
 11
224.089842
 21
188.045293
 31
0.0
  0
LINE
  5
2AA
100
AcDbEntity
  8
0
370
    -3
  6
Continuous
100
AcDbLine
 10
128.089842
 20
174.545293
 30
0.0
 11
128.089842
 21
170.545293
 31
0.0
  0
LINE
  5
2AB
100
AcDbEntity
  8
0
370
    -3
  6
Continuous
100
AcDbLine
 10
228.011284
 20
251.545293
 30
0.0
 11
226.348478
 21
188.045293
 31
0.0
  0
LINE
  5
2AC
100
AcDbEntity
  8
0
370
    -3
  6
Continuous
100
AcDbLine
 10
-51.168794
 20
188.045293
 30
0.0
 11
226.348478
 21
188.045293
 31
0.0
  0
LINE
  5
2AD
100
AcDbEntity
  8
0
370
    -3
  6
Continuous
100
AcDbLine
 10
-20.910158
 20
169.545293
 30
0.0
 11
127.089842
 21
169.545293
 31
0.0
  0
LINE
  5
2AE
100
AcDbEntity
  8
0
370
    -3
  6
Continuous
100
AcDbLine
 10
127.089842
 20
169.545293
 30
0.0
 11
128.089842
 21
170.545293
 31
0.0
  0
LINE
  5
2AF
100
AcDbEntity
  8
0
370
    -3
  6
Continuous
100
AcDbLine
 10
-47.556648
 20
174.545293
 30
0.0
 11
-48.582825
 21
175.54495
 31
0.0
  0
LINE
  5
2B0
100
AcDbEntity
  8
0
370
    -3
  6
Continuous
100
AcDbLine
 10
-48.910158
 20
188.045293
 30
0.0
 11
-48.582825
 21
175.54495
 31
0.0
  0
LINE
  5
2B1
100
AcDbEntity
  8
0
370
    -3
  6
Continuous
100
AcDbLine
 10
-21.910158
 20
174.545293
 30
0.0
 11
-21.910158
 21
170.545293
 31
0.0
  0
LINE
  5
2B2
100
AcDbEntity
  8
0
370
    -3
  6
Continuous
100
AcDbLine
 10
-52.8316
 20
251.545293
 30
0.0
 11
-51.168794
 21
188.045293
 31
0.0
  0
LINE
  5
2B3
100
AcDbEntity
  8
0
370
    -3
  6
Continuous
100
AcDbLine
 10
-21.910158
 20
170.545293
 30
0.0
 11
-20.910158
 21
169.545293
 31
0.0
  0
LINE
  5
2B4
100
AcDbEntity
  8
0
370
    -3
  6
Continuous
100
AcDbLine
 10
-52.8316
 20
251.545293
 30
0.0
 11
228.011284
 21
251.545293
 31
0.0
  0
LINE
  5
2B5
100
AcDbEntity
  8
0
370
    -3
  6
Continuous
100
AcDbLine
 10
-50.910843
 20
254.597647
 30
0.0
 11
-50.830915
 21
251.545293
 31
0.0
  0
LINE
  5
2B6
100
AcDbEntity
  8
0
370
    -3
  6
Continuous
100
AcDbLine
 10
226.090527
 20
254.597647
 30
0.0
 11
226.010599
 21
251.545293
 31
0.0
  0
LINE
  5
2B7
100
AcDbEntity
  8
0
370
    -3
  6
Continuous
100
AcDbLine
 10
-52.910158
 20
254.545293
 30
0.0
 11
228.089842
 21
254.545293
 31
0.0
  0
LINE
  5
2B8
100
AcDbEntity
  8
0
370
    -3
  6
Continuous
100
AcDbLine
 10
235.089842
 20
176.545293
 30
0.0
 11
235.089842
 21
332.545293
 31
0.0
  0
LINE
  5
2B9
100
AcDbEntity
  8
0
370
    -3
  6
Continuous
100
AcDbLine
 10
233.089842
 20
174.545293
 30
0.0
 11
235.089842
 21
176.545293
 31
0.0
  0
LINE
  5
2BA
100
AcDbEntity
  8
0
370
    -3
  6
Continuous
100
AcDbLine
 10
235.089842
 20
332.545293
 30
0.0
 11
233.089842
 21
334.545293
 31
0.0
  0
LINE
  5
2BB
100
AcDbEntity
  8
0
370
    -3
  6
Continuous
100
AcDbLine
 10
235.089842
 20
174.545293
 30
0.0
 11
235.089842
 21
334.545293
 31
0.0
  0
LINE
  5
2BC
100
AcDbEntity
  8
0
370
    -3
  6
Continuous
100
AcDbLine
 10
253.089842
 20
338.045293
 30
0.0
 11
253.089842
 21
277.045293
 31
0.0
  0
LINE
  5
2BD
100
AcDbEntity
  8
0
370
    -3
  6
Continuous
100
AcDbLine
 10
253.089842
 20
232.045293
 30
0.0
 11
253.089842
 21
171.045293
 31
0.0
  0
INSERT
  5
2C9
100
AcDbEntity
  8
0
100
AcDbBlockReference
  2
ZU_SYM__USERS_HOME_SYMBOL_POO_SYM_B20_00004-1
 10
261.089842
 20
244.045293
 30
0.0
 50
180.0
  0
INSERT
  5
2D5
100
AcDbEntity
  8
0
100
AcDbBlockReference
  2
ZU_SYM__USERS_HOME_SYMBOL_POO_SYM_B20_00005-1
 10
261.089842
 20
265.045293
 30
0.0
 41
-1.0
  0
LINE
  5
2D6
100
AcDbEntity
  8
0
370
    -3
  6
Continuous
100
AcDbLine
 10
253.089842
 20
232.045293
 30
0.0
 11
253.089842
 21
183.545388
 31
0.0
  0
LINE
  5
2D7
100
AcDbEntity
  8
0
370
    -3
  6
Continuous
100
AcDbLine
 10
261.089842
 20
232.045293
 30
0.0
 11
252.089842
 21
232.045293
 31
0.0
  0
LINE
  5
2D8
100
AcDbEntity
  8
0
370
    -3
  6
Continuous
100
AcDbLine
 10
261.089842
 20
277.045293
 30
0.0
 11
252.089842
 21
277.045293
 31
0.0
  0
LINE
  5
2D9
100
AcDbEntity
  8
0
370
    -3
  6
Continuous
100
AcDbLine
 10
261.089842
 20
277.045293
 30
0.0
 11
261.089842
 21
232.045293
 31
0.0
  0
LINE
  5
2DA
100
AcDbEntity
  8
0
370
    -3
  6
Continuous
100
AcDbLine
 10
252.089842
 20
277.045293
 30
0.0
 11
252.089842
 21
232.045293
 31
0.0
  0
LINE
  5
2DB
100
AcDbEntity
  8
0
370
    -3
  6
Continuous
100
AcDbLine
 10
252.089842
 20
232.045293
 30
0.0
 11
252.089842
 21
173.045293
 31
0.0
  0
LINE
  5
2DC
100
AcDbEntity
  8
0
370
    -3
  6
Continuous
100
AcDbLine
 10
253.089842
 20
277.045293
 30
0.0
 11
253.089842
 21
325.545198
 31
0.0
  0
LINE
  5
2DD
100
AcDbEntity
  8
0
370
    -3
  6
Continuous
100
AcDbLine
 10
252.089842
 20
277.045293
 30
0.0
 11
252.089842
 21
336.045293
 31
0.0
  0
ARC
  5
2DE
100
AcDbEntity
  8
0
370
    -3
  6
Continuous
100
AcDbCircle
 10
253.089842
 20
182.545388
 30
0.0
 40
1.0
100
AcDbArc
 50
90.0
 51
180.0
  0
ARC
  5
2DF
100
AcDbEntity
  8
0
370
    -3
  6
Continuous
100
AcDbCircle
 10
253.089842
 20
326.545198
 30
0.0
 40
1.0
100
AcDbArc
 50
180.0
 51
270.0
  0
LINE
  5
2E0
100
AcDbEntity
  8
0
370
    -3
  6
Continuous
100
AcDbLine
 10
481.089843
 20
185.604824
 30
0.0
 11
481.089843
 21
254.545293
 31
0.0
  0
LINE
  5
2E1
100
AcDbEntity
  8
0
370
    -3
  6
Continuous
100
AcDbLine
 10
479.189843
 20
182.313928
 30
0.0
 11
462.557875
 21
172.711457
 31
0.0
  0
ARC
  5
2E2
100
AcDbEntity
  8
0
370
    -3
  6
Continuous
100
AcDbCircle
 10
442.157875
 20
208.045293
 30
0.0
 40
40.8
100
AcDbArc
 50
270.0
 51
300.0
  0
ARC
  5
2E3
100
AcDbEntity
  8
0
370
    -3
  6
Continuous
100
AcDbCircle
 10
477.289843
 20
185.604824
 30
0.0
 40
3.8
100
AcDbArc
 50
300.0
 51
0.0
  0
ELLIPSE
  5
2E4
100
AcDbEntity
  8
0
370
    -3
  6
Continuous
100
AcDbEllipse
 10
433.589842
 20
320.196727
 30
0.0
 11
5.0
 21
0.0
 31
0.0
210
0.0
220
0.0
230
1.0
 40
0.707107
 41
3.1415926535897931
 42
0.0
  0
LINE
  5
2E5
100
AcDbEntity
  8
0
370
    -3
  6
Continuous
100
AcDbLine
 10
438.589842
 20
321.013331
 30
0.0
 11
438.589842
 21
320.196727
 31
0.0
  0
LINE
  5
2E6
100
AcDbEntity
  8
0
370
    -3
  6
Continuous
100
AcDbLine
 10
428.589842
 20
321.013331
 30
0.0
 11
428.589842
 21
320.196727
 31
0.0
  0
ELLIPSE
  5
2E7
100
AcDbEntity
  8
0
370
    -3
  6
Continuous
100
AcDbEllipse
 10
433.589842
 20
321.013331
 30
0.0
 11
4.5
 21
0.0
 31
0.0
210
0.0
220
0.0
230
1.0
 40
0.707107
 41
3.1415926535897931
 42
0.0
  0
LINE
  5
2E8
100
AcDbEntity
  8
0
370
    -3
  6
Continuous
100
AcDbLine
 10
438.089842
 20
321.579016
 30
0.0
 11
438.089842
 21
321.013331
 31
0.0
  0
LINE
  5
2E9
100
AcDbEntity
  8
0
370
    -3
  6
Continuous
100
AcDbLine
 10
429.089842
 20
321.579016
 30
0.0
 11
429.089842
 21
321.013331
 31
0.0
  0
ELLIPSE
  5
2EA
100
AcDbEntity
  8
0
370
    -3
  6
Continuous
100
AcDbEllipse
 10
433.589842
 20
321.013331
 30
0.0
 11
5.0
 21
0.0
 31
0.0
210
0.0
220
0.0
230
1.0
 40
0.707107
 41
2.4023208266491722
 42
3.1415926535897931
  0
ELLIPSE
  5
2EB
100
AcDbEntity
  8
0
370
    -3
  6
Continuous
100
AcDbEllipse
 10
433.589842
 20
321.013331
 30
0.0
 11
5.0
 21
0.0
 31
0.0
210
0.0
220
0.0
230
1.0
 40
0.707107
 41
0.0
 42
0.7392718269406207
  0
ELLIPSE
  5
2EC
100
AcDbEntity
  8
0
370
    -3
  6
Continuous
100
AcDbEllipse
 10
433.589842
 20
322.115534
 30
0.0
 11
3.5
 21
0.0
 31
0.0
210
0.0
220
0.0
230
1.0
 40
0.860398
 41
0.0
 42
6.2831853071795862
  0
ELLIPSE
  5
2ED
100
AcDbEntity
  8
0
370
    -3
  6
Continuous
100
AcDbEllipse
 10
433.589842
 20
321.579016
 30
0.0
 11
4.5
 21
0.0
 31
0.0
210
0.0
220
0.0
230
1.0
 40
0.707107
 41
2.158706662346169
 42
0.9828859912436241
  0
LINE
  5
2EE
100
AcDbEntity
  8
0
370
    -3
  6
Continuous
100
AcDbLine
 10
433.589842
 20
323.417494
 30
0.0
 11
431.589842
 21
321.844156
 31
0.0
  0
LINE
  5
2EF
100
AcDbEntity
  8
0
370
    -3
  6
Continuous
100
AcDbLine
 10
433.589842
 20
323.417494
 30
0.0
 11
431.660637
 21
324.628156
 31
0.0
  0
LINE
  5
2F0
100
AcDbEntity
  8
0
370
    -3
  6
Continuous
100
AcDbLine
 10
433.589842
 20
323.417494
 30
0.0
 11
435.589842
 21
321.844156
 31
0.0
  0
LINE
  5
2F1
100
AcDbEntity
  8
0
370
    -3
  6
Continuous
100
AcDbLine
 10
433.589842
 20
323.417494
 30
0.0
 11
435.519047
 21
324.628156
 31
0.0
  0
ELLIPSE
  5
2F2
100
AcDbEntity
  8
0
370
    -3
  6
Continuous
100
AcDbEllipse
 10
433.589842
 20
188.893859
 30
0.0
 11
5.0
 21
0.0
 31
0.0
210
0.0
220
0.0
230
1.0
 40
0.707107
 41
0.0
 42
3.1415926535897931
  0
LINE
  5
2F3
100
AcDbEntity
  8
0
370
    -3
  6
Continuous
100
AcDbLine
 10
438.589842
 20
188.077256
 30
0.0
 11
438.589842
 21
188.893859
 31
0.0
  0
LINE
  5
2F4
100
AcDbEntity
  8
0
370
    -3
  6
Continuous
100
AcDbLine
 10
428.589842
 20
188.077256
 30
0.0
 11
428.589842
 21
188.893859
 31
0.0
  0
ELLIPSE
  5
2F5
100
AcDbEntity
  8
0
370
    -3
  6
Continuous
100
AcDbEllipse
 10
433.589842
 20
188.077256
 30
0.0
 11
4.5
 21
0.0
 31
0.0
210
0.0
220
0.0
230
1.0
 40
0.707107
 41
0.0
 42
3.1415926535897931
  0
LINE
  5
2F6
100
AcDbEntity
  8
0
370
    -3
  6
Continuous
100
AcDbLine
 10
438.089842
 20
187.51157
 30
0.0
 11
438.089842
 21
188.077256
 31
0.0
  0
LINE
  5
2F7
100
AcDbEntity
  8
0
370
    -3
  6
Continuous
100
AcDbLine
 10
429.089842
 20
187.51157
 30
0.0
 11
429.089842
 21
188.077256
 31
0.0
  0
ELLIPSE
  5
2F8
100
AcDbEntity
  8
0
370
    -3
  6
Continuous
100
AcDbEllipse
 10
433.589842
 20
188.077256
 30
0.0
 11
5.0
 21
0.0
 31
0.0
210
0.0
220
0.0
230
1.0
 40
0.707107
 41
3.1415926535897931
 42
3.880864480530414
  0
ELLIPSE
  5
2F9
100
AcDbEntity
  8
0
370
    -3
  6
Continuous
100
AcDbEllipse
 10
433.589842
 20
188.077256
 30
0.0
 11
5.0
 21
0.0
 31
0.0
210
0.0
220
0.0
230
1.0
 40
0.707107
 41
5.5439134802389658
 42
0.0
  0
ELLIPSE
  5
2FA
100
AcDbEntity
  8
0
370
    -3
  6
Continuous
100
AcDbEllipse
 10
433.589842
 20
186.975052
 30
0.0
 11
3.5
 21
0.0
 31
0.0
210
0.0
220
0.0
230
1.0
 40
0.860398
 41
0.0
 42
6.2831853071795862
  0
ELLIPSE
  5
2FB
100
AcDbEntity
  8
0
370
    -3
  6
Continuous
100
AcDbEllipse
 10
433.589842
 20
187.51157
 30
0.0
 11
4.5
 21
0.0
 31
0.0
210
0.0
220
0.0
230
1.0
 40
0.707107
 41
5.3002993159359626
 42
4.1244786448334168
  0
LINE
  5
2FC
100
AcDbEntity
  8
0
370
    -3
  6
Continuous
100
AcDbLine
 10
433.589842
 20
185.673092
 30
0.0
 11
431.589842
 21
187.24643
 31
0.0
  0
LINE
  5
2FD
100
AcDbEntity
  8
0
370
    -3
  6
Continuous
100
AcDbLine
 10
433.589842
 20
185.673092
 30
0.0
 11
431.660637
 21
184.46243
 31
0.0
  0
LINE
  5
2FE
100
AcDbEntity
  8
0
370
    -3
  6
Continuous
100
AcDbLine
 10
433.589842
 20
185.673092
 30
0.0
 11
435.589842
 21
187.24643
 31
0.0
  0
LINE
  5
2FF
100
AcDbEntity
  8
0
370
    -3
  6
Continuous
100
AcDbLine
 10
433.589842
 20
185.673092
 30
0.0
 11
435.519047
 21
184.46243
 31
0.0
  0
ARC
  5
300
100
AcDbEntity
  8
0
370
    -3
  6
Continuous
100
AcDbCircle
 10
442.157875
 20
301.045293
 30
0.0
 40
40.8
100
AcDbArc
 50
60.0
 51
90.0
  0
LINE
  5
301
100
AcDbEntity
  8
0
370
    -3
  6
Continuous
100
AcDbLine
 10
481.089843
 20
323.485762
 30
0.0
 11
481.089843
 21
254.545293
 31
0.0
  0
LINE
  5
302
100
AcDbEntity
  8
0
370
    -3
  6
Continuous
100
AcDbLine
 10
479.189843
 20
326.776659
 30
0.0
 11
462.557875
 21
336.37913
 31
0.0
  0
ARC
  5
303
100
AcDbEntity
  8
0
370
    -3
  6
Continuous
100
AcDbCircle
 10
477.289843
 20
323.485762
 30
0.0
 40
3.8
100
AcDbArc
 50
0.0
 51
60.0
  0
LINE
  5
304
100
AcDbEntity
  8
0
370
    -3
  6
Continuous
100
AcDbLine
 10
442.157875
 20
167.245293
 30
0.0
 11
408.089843
 21
167.245293
 31
0.0
  0
LINE
  5
305
100
AcDbEntity
  8
0
370
    -3
  6
Continuous
100
AcDbLine
 10
442.157875
 20
341.845293
 30
0.0
 11
408.089843
 21
341.845293
 31
0.0
  0
LINE
  5
306
100
AcDbEntity
  8
0
370
    -3
  6
Continuous
100
AcDbLine
 10
253.089842
 20
338.045293
 30
0.0
 11
408.089843
 21
338.045293
 31
0.0
  0
LINE
  5
307
100
AcDbEntity
  8
0
370
    -3
  6
Continuous
100
AcDbLine
 10
253.089842
 20
337.545293
 30
0.0
 11
408.089843
 21
337.545293
 31
0.0
  0
LINE
  5
308
100
AcDbEntity
  8
0
370
    -3
  6
Continuous
100
AcDbLine
 10
253.089842
 20
337.045293
 30
0.0
 11
408.089843
 21
337.045293
 31
0.0
  0
LINE
  5
309
100
AcDbEntity
  8
0
370
    -3
  6
Continuous
100
AcDbLine
 10
253.089842
 20
334.545293
 30
0.0
 11
408.089843
 21
334.545293
 31
0.0
  0
LINE
  5
30A
100
AcDbEntity
  8
0
370
    -3
  6
Continuous
100
AcDbLine
 10
253.089842
 20
329.545293
 30
0.0
 11
408.089843
 21
329.545293
 31
0.0
  0
LINE
  5
30B
100
AcDbEntity
  8
0
370
    -3
  6
Continuous
100
AcDbLine
 10
253.089842
 20
320.424506
 30
0.0
 11
408.089843
 21
320.424506
 31
0.0
  0
LINE
  5
30C
100
AcDbEntity
  8
0
370
    -3
  6
Continuous
100
AcDbLine
 10
253.089842
 20
313.353438
 30
0.0
 11
408.089843
 21
313.353438
 31
0.0
  0
LINE
  5
30D
100
AcDbEntity
  8
0
370
    -3
  6
Continuous
100
AcDbLine
 10
253.089842
 20
171.545293
 30
0.0
 11
408.089843
 21
171.545293
 31
0.0
  0
LINE
  5
30E
100
AcDbEntity
  8
0
370
    -3
  6
Continuous
100
AcDbLine
 10
253.089842
 20
172.045293
 30
0.0
 11
408.089843
 21
172.045293
 31
0.0
  0
LINE
  5
30F
100
AcDbEntity
  8
0
370
    -3
  6
Continuous
100
AcDbLine
 10
253.089842
 20
174.545293
 30
0.0
 11
408.089843
 21
174.545293
 31
0.0
  0
LINE
  5
310
100
AcDbEntity
  8
0
370
    -3
  6
Continuous
100
AcDbLine
 10
253.089842
 20
179.545293
 30
0.0
 11
408.089843
 21
179.545293
 31
0.0
  0
LINE
  5
311
100
AcDbEntity
  8
0
370
    -3
  6
Continuous
100
AcDbLine
 10
253.089842
 20
188.666081
 30
0.0
 11
408.089843
 21
188.666081
 31
0.0
  0
LINE
  5
312
100
AcDbEntity
  8
0
370
    -3
  6
Continuous
100
AcDbLine
 10
253.089842
 20
171.045293
 30
0.0
 11
408.089843
 21
171.045293
 31
0.0
  0
LINE
  5
313
100
AcDbEntity
  8
0
370
    -3
  6
Continuous
100
AcDbLine
 10
253.089842
 20
277.045293
 30
0.0
 11
253.089842
 21
338.045293
 31
0.0
  0
LINE
  5
314
100
AcDbEntity
  8
0
370
    -3
  6
Continuous
100
AcDbLine
 10
253.089842
 20
232.045293
 30
0.0
 11
253.089842
 21
171.045293
 31
0.0
  0
LINE
  5
315
100
AcDbEntity
  8
0
370
    -3
  6
Continuous
100
AcDbLine
 10
408.089843
 20
167.245293
 30
0.0
 11
408.089843
 21
207.745293
 31
0.0
  0
LINE
  5
316
100
AcDbEntity
  8
0
370
    -3
  6
Continuous
100
AcDbLine
 10
253.089842
 20
195.737148
 30
0.0
 11
408.089843
 21
195.737148
 31
0.0
  0
LINE
  5
317
100
AcDbEntity
  8
0
370
    -3
  6
Continuous
100
AcDbLine
 10
253.089842
 20
208.407569
 30
0.0
 11
357.847076
 21
208.407569
 31
0.0
  0
LINE
  5
318
100
AcDbEntity
  8
0
370
    -3
  6
Continuous
100
AcDbLine
 10
253.089842
 20
210.629896
 30
0.0
 11
354.936065
 21
210.629896
 31
0.0
  0
LINE
  5
319
100
AcDbEntity
  8
0
370
    -3
  6
Continuous
100
AcDbLine
 10
253.089842
 20
298.460691
 30
0.0
 11
354.936065
 21
298.460691
 31
0.0
  0
LINE
  5
31A
100
AcDbEntity
  8
0
370
    -3
  6
Continuous
100
AcDbLine
 10
253.089842
 20
300.683017
 30
0.0
 11
357.847076
 21
300.683017
 31
0.0
  0
LINE
  5
31B
100
AcDbEntity
  8
0
370
    -3
  6
Continuous
100
AcDbLine
 10
408.089843
 20
341.845293
 30
0.0
 11
408.089843
 21
301.345293
 31
0.0
  0
LINE
  5
31C
100
AcDbEntity
  8
0
370
    -3
  6
Continuous
100
AcDbLine
 10
253.089842
 20
278.545293
 30
0.0
 11
353.192373
 21
278.545293
 31
0.0
  0
LINE
  5
31D
100
AcDbEntity
  8
0
370
    -3
  6
Continuous
100
AcDbLine
 10
253.089842
 20
290.650231
 30
0.0
 11
353.192373
 21
290.650231
 31
0.0
  0
LINE
  5
31E
100
AcDbEntity
  8
0
370
    -3
  6
Continuous
100
AcDbLine
 10
253.089842
 20
288.483521
 30
0.0
 11
353.192373
 21
288.483521
 31
0.0
  0
LINE
  5
31F
100
AcDbEntity
  8
0
370
    -3
  6
Continuous
100
AcDbLine
 10
253.089842
 20
218.440355
 30
0.0
 11
353.192373
 21
218.440355
 31
0.0
  0
LINE
  5
320
100
AcDbEntity
  8
0
370
    -3
  6
Continuous
100
AcDbLine
 10
253.089842
 20
230.545293
 30
0.0
 11
353.192373
 21
230.545293
 31
0.0
  0
LINE
  5
321
100
AcDbEntity
  8
0
370
    -3
  6
Continuous
100
AcDbLine
 10
253.089842
 20
220.607065
 30
0.0
 11
353.192373
 21
220.607065
 31
0.0
  0
LINE
  5
322
100
AcDbEntity
  8
0
370
    -3
  6
Continuous
100
AcDbLine
 10
759.589843
 20
-204.032871
 30
0.0
 11
759.589843
 21
-263.136242
 31
0.0
  0
LINE
  5
323
100
AcDbEntity
  8
0
370
    -3
  6
Continuous
100
AcDbLine
 10
773.089843
 20
-179.607392
 30
0.0
 11
773.089843
 21
-260.118399
 31
0.0
  0
LINE
  5
324
100
AcDbEntity
  8
0
370
    -3
  6
Continuous
100
AcDbLine
 10
778.089843
 20
-165.890273
 30
0.0
 11
778.089843
 21
-188.458289
 31
0.0
  0
LINE
  5
325
100
AcDbEntity
  8
0
370
    -3
  6
Continuous
100
AcDbLine
 10
626.589843
 20
-204.032867
 30
0.0
 11
626.589843
 21
-263.136242
 31
0.0
  0
LINE
  5
326
100
AcDbEntity
  8
0
370
    -3
  6
Continuous
100
AcDbLine
 10
613.089843
 20
-179.607377
 30
0.0
 11
613.089843
 21
-260.118399
 31
0.0
  0
LINE
  5
327
100
AcDbEntity
  8
0
370
    -3
  6
Continuous
100
AcDbLine
 10
608.089843
 20
-165.890243
 30
0.0
 11
608.089843
 21
-188.458473
 31
0.0
  0
CIRCLE
  5
328
100
AcDbEntity
  8
0
370
    -3
  6
Continuous
100
AcDbCircle
 10
205.089842
 20
-242.45841
 30
0.0
 40
16.0
  0
CIRCLE
  5
329
100
AcDbEntity
  8
0
370
    -3
  6
Continuous
100
AcDbCircle
 10
-29.910158
 20
-242.45841
 30
0.0
 40
11.0
  0
CIRCLE
  5
32A
100
AcDbEntity
  8
0
370
    -3
  6
Continuous
100
AcDbCircle
 10
-29.910158
 20
-242.45841
 30
0.0
 40
16.0
  0
CIRCLE
  5
32B
100
AcDbEntity
  8
0
370
    -3
  6
Continuous
100
AcDbCircle
 10
-29.910158
 20
-30.45841
 30
0.0
 40
11.0
  0
CIRCLE
  5
32C
100
AcDbEntity
  8
0
370
    -3
  6
Continuous
100
AcDbCircle
 10
-29.910158
 20
-30.45841
 30
0.0
 40
16.0
  0
CIRCLE
  5
32D
100
AcDbEntity
  8
0
370
    -3
  6
Continuous
100
AcDbCircle
 10
205.089842
 20
-30.45841
 30
0.0
 40
11.0
  0
CIRCLE
  5
32E
100
AcDbEntity
  8
0
370
    -3
  6
Continuous
100
AcDbCircle
 10
205.089842
 20
-30.45841
 30
0.0
 40
16.0
  0
POINT
  5
32F
100
AcDbEntity
  8
0
370
    -3
  6
Continuous
100
AcDbPoint
 10
220.589842
 20
-133.45841
 30
0.0
  0
LINE
  5
330
100
AcDbEntity
  8
0
370
    -3
  6
CENTER
100
AcDbLine
 10
191.875552
 20
-133.458515
 30
0.0
 11
500.000027
 21
-133.457908
 31
0.0
  0
LINE
  5
331
100
AcDbEntity
  8
0
370
    -3
  6
CENTER
100
AcDbLine
 10
226.089842
 20
-242.45841
 30
0.0
 11
184.089842
 21
-242.45841
 31
0.0
  0
LINE
  5
332
100
AcDbEntity
  8
0
370
    -3
  6
CENTER
100
AcDbLine
 10
205.089842
 20
-221.45841
 30
0.0
 11
205.089842
 21
-263.45841
 31
0.0
  0
LINE
  5
333
100
AcDbEntity
  8
0
370
    -3
  6
CENTER
100
AcDbLine
 10
-8.910158
 20
-242.45841
 30
0.0
 11
-50.910158
 21
-242.45841
 31
0.0
  0
LINE
  5
334
100
AcDbEntity
  8
0
370
    -3
  6
CENTER
100
AcDbLine
 10
-29.910158
 20
-221.45841
 30
0.0
 11
-29.910158
 21
-263.45841
 31
0.0
  0
LINE
  5
335
100
AcDbEntity
  8
0
370
    -3
  6
CENTER
100
AcDbLine
 10
-8.910158
 20
-30.45841
 30
0.0
 11
-50.910158
 21
-30.45841
 31
0.0
  0
LINE
  5
336
100
AcDbEntity
  8
0
370
    -3
  6
CENTER
100
AcDbLine
 10
-29.910158
 20
-9.45841
 30
0.0
 11
-29.910158
 21
-51.45841
 31
0.0
  0
LINE
  5
337
100
AcDbEntity
  8
0
370
    -3
  6
CENTER
100
AcDbLine
 10
226.089842
 20
-30.45841
 30
0.0
 11
184.089842
 21
-30.45841
 31
0.0
  0
LINE
  5
338
100
AcDbEntity
  8
0
370
    -3
  6
CENTER
100
AcDbLine
 10
205.089842
 20
-9.45841
 30
0.0
 11
205.089842
 21
-51.45841
 31
0.0
  0
MTEXT
  5
33A
100
AcDbEntity
  8
0
370
    -3
  6
Continuous
100
AcDbMText
 10
-90.375488
 20
6.843629
 30
0.0
 40
2.8
 41
0.0
 71
     7
 72
     1
  1
\W0.83;　
  7
ZU_SHPTB00001
 11
1.0
 21
0.0
 31
0.0
 73
     1
 44
1.0
  0
MTEXT
  5
33B
100
AcDbEntity
  8
0
370
    -3
  6
Continuous
100
AcDbMText
 10
-18.375488
 20
-233.406372
 30
0.0
 40
2.8
 41
0.0
 71
     7
 72
     1
  1
\W0.83;　
  7
ZU_SHPTB00001
 11
1.0
 21
0.0
 31
0.0
 73
     1
 44
1.0
  0
LINE
  5
33C
100
AcDbEntity
  8
0
370
    -3
  6
Continuous
100
AcDbLine
 10
60.089842
 20
-84.95841
 30
0.0
 11
60.089842
 21
-93.95841
 31
0.0
  0
LINE
  5
33D
100
AcDbEntity
  8
0
370
    -3
  6
Continuous
100
AcDbLine
 10
46.089842
 20
-84.95841
 30
0.0
 11
46.089842
 21
-93.95841
 31
0.0
  0
LINE
  5
33E
100
AcDbEntity
  8
0
370
    -3
  6
Continuous
100
AcDbLine
 10
46.089842
 20
-93.95841
 30
0.0
 11
60.089842
 21
-93.95841
 31
0.0
  0
LINE
  5
33F
100
AcDbEntity
  8
0
370
    -3
  6
Continuous
100
AcDbLine
 10
46.089842
 20
-84.95841
 30
0.0
 11
60.089842
 21
-84.95841
 31
0.0
  0
ARC
  5
340
100
AcDbEntity
  8
0
370
    -3
  6
Continuous
100
AcDbCircle
 10
53.089842
 20
-113.45841
 30
0.0
 40
25.0
100
AcDbArc
 50
106.260205
 51
73.739795
  0
CIRCLE
  5
341
100
AcDbEntity
  8
0
370
    -3
  6
Continuous
100
AcDbCircle
 10
53.089842
 20
-113.45841
 30
0.0
 40
3.5
  0
CIRCLE
  5
342
100
AcDbEntity
  8
0
370
    -3
  6
Continuous
100
AcDbCircle
 10
53.089842
 20
-113.45841
 30
0.0
 40
4.0
  0
LINE
  5
343
100
AcDbEntity
  8
0
370
    -3
  6
Continuous
100
AcDbLine
 10
-37.910158
 20
-79.969046
 30
0.0
 11
-37.910158
 21
-192.947774
 31
0.0
  0
ARC
  5
344
100
AcDbEntity
  8
0
370
    -3
  6
Continuous
100
AcDbCircle
 10
-28.910158
 20
-79.969046
 30
0.0
 40
9.0
100
AcDbArc
 50
109.876874
 51
180.0
  0
ARC
  5
345
100
AcDbEntity
  8
0
370
    -3
  6
Continuous
100
AcDbCircle
 10
-37.410158
 20
-56.45841
 30
0.0
 40
16.0
100
AcDbArc
 50
289.876874
 51
349.518535
  0
ARC
  5
346
100
AcDbEntity
  8
0
370
    -3
  6
Continuous
100
AcDbCircle
 10
-12.827313
 20
-61.006346
 30
0.0
 40
9.0
100
AcDbArc
 50
119.214548
 51
169.518535
  0
ARC
  5
347
100
AcDbEntity
  8
0
370
    -3
  6
Continuous
100
AcDbCircle
 10
-29.910158
 20
-30.45841
 30
0.0
 40
26.0
100
AcDbArc
 50
299.214548
 51
358.362755
  0
ARC
  5
348
100
AcDbEntity
  8
0
370
    -3
  6
Continuous
100
AcDbCircle
 10
5.075553
 20
-31.45841
 30
0.0
 40
9.0
100
AcDbArc
 50
90.0
 51
178.362755
  0
LINE
  5
349
100
AcDbEntity
  8
0
370
    -3
  6
Continuous
100
AcDbLine
 10
5.075553
 20
-22.45841
 30
0.0
 11
96.579206
 21
-22.45841
 31
0.0
  0
ARC
  5
34A
100
AcDbEntity
  8
0
370
    -3
  6
Continuous
100
AcDbCircle
 10
96.579206
 20
-31.45841
 30
0.0
 40
9.0
100
AcDbArc
 50
19.876874
 51
90.0
  0
ARC
  5
34B
100
AcDbEntity
  8
0
370
    -3
  6
Continuous
100
AcDbCircle
 10
120.089842
 20
-22.95841
 30
0.0
 40
16.0
100
AcDbArc
 50
199.876874
 51
340.123126
  0
ARC
  5
34C
100
AcDbEntity
  8
0
370
    -3
  6
Continuous
100
AcDbCircle
 10
143.600478
 20
-31.45841
 30
0.0
 40
9.0
100
AcDbArc
 50
90.0
 51
160.123126
  0
LINE
  5
34D
100
AcDbEntity
  8
0
370
    -3
  6
Continuous
100
AcDbLine
 10
143.600478
 20
-22.45841
 30
0.0
 11
170.104131
 21
-22.45841
 31
0.0
  0
ARC
  5
34E
100
AcDbEntity
  8
0
370
    -3
  6
Continuous
100
AcDbCircle
 10
170.104131
 20
-31.45841
 30
0.0
 40
9.0
100
AcDbArc
 50
1.637245
 51
90.0
  0
ARC
  5
34F
100
AcDbEntity
  8
0
370
    -3
  6
Continuous
100
AcDbCircle
 10
205.089842
 20
-30.45841
 30
0.0
 40
26.0
100
AcDbArc
 50
181.637245
 51
240.785452
  0
ARC
  5
350
100
AcDbEntity
  8
0
370
    -3
  6
Continuous
100
AcDbCircle
 10
188.006997
 20
-61.006346
 30
0.0
 40
9.0
100
AcDbArc
 50
10.481465
 51
60.785452
  0
ARC
  5
351
100
AcDbEntity
  8
0
370
    -3
  6
Continuous
100
AcDbCircle
 10
212.589842
 20
-56.45841
 30
0.0
 40
16.0
100
AcDbArc
 50
190.481465
 51
250.123126
  0
ARC
  5
352
100
AcDbEntity
  8
0
370
    -3
  6
Continuous
100
AcDbCircle
 10
204.089842
 20
-79.969046
 30
0.0
 40
9.0
100
AcDbArc
 50
0.0
 51
70.123126
  0
LINE
  5
353
100
AcDbEntity
  8
0
370
    -3
  6
Continuous
100
AcDbLine
 10
213.089842
 20
-192.947774
 30
0.0
 11
213.089842
 21
-79.969046
 31
0.0
  0
ARC
  5
354
100
AcDbEntity
  8
0
370
    -3
  6
Continuous
100
AcDbCircle
 10
204.089842
 20
-192.947774
 30
0.0
 40
9.0
100
AcDbArc
 50
289.876874
 51
0.0
  0
ARC
  5
355
100
AcDbEntity
  8
0
370
    -3
  6
Continuous
100
AcDbCircle
 10
212.589842
 20
-216.45841
 30
0.0
 40
16.0
100
AcDbArc
 50
109.876874
 51
169.518535
  0
ARC
  5
356
100
AcDbEntity
  8
0
370
    -3
  6
Continuous
100
AcDbCircle
 10
188.006997
 20
-211.910474
 30
0.0
 40
9.0
100
AcDbArc
 50
299.214548
 51
349.518535
  0
ARC
  5
357
100
AcDbEntity
  8
0
370
    -3
  6
Continuous
100
AcDbCircle
 10
205.089842
 20
-242.45841
 30
0.0
 40
26.0
100
AcDbArc
 50
119.214548
 51
178.362755
  0
ARC
  5
358
100
AcDbEntity
  8
0
370
    -3
  6
Continuous
100
AcDbCircle
 10
170.104131
 20
-241.45841
 30
0.0
 40
9.0
100
AcDbArc
 50
270.0
 51
358.362755
  0
LINE
  5
359
100
AcDbEntity
  8
0
370
    -3
  6
Continuous
100
AcDbLine
 10
96.558645
 20
-250.45841
 30
0.0
 11
170.104131
 21
-250.45841
 31
0.0
  0
ARC
  5
35A
100
AcDbEntity
  8
0
370
    -3
  6
Continuous
100
AcDbCircle
 10
96.558645
 20
-241.45841
 30
0.0
 40
9.0
100
AcDbArc
 50
200.156963
 51
270.0
  0
ARC
  5
35B
100
AcDbEntity
  8
0
370
    -3
  6
Continuous
100
AcDbCircle
 10
73.089842
 20
-250.073239
 30
0.0
 40
16.0
100
AcDbArc
 50
20.156963
 51
159.843037
  0
ARC
  5
35C
100
AcDbEntity
  8
0
370
    -3
  6
Continuous
100
AcDbCircle
 10
49.621039
 20
-241.45841
 30
0.0
 40
9.0
100
AcDbArc
 50
270.0
 51
339.843037
  0
LINE
  5
35D
100
AcDbEntity
  8
0
370
    -3
  6
Continuous
100
AcDbLine
 10
5.075553
 20
-250.45841
 30
0.0
 11
49.621039
 21
-250.45841
 31
0.0
  0
ARC
  5
35E
100
AcDbEntity
  8
0
370
    -3
  6
Continuous
100
AcDbCircle
 10
5.075553
 20
-241.45841
 30
0.0
 40
9.0
100
AcDbArc
 50
181.637245
 51
270.0
  0
ARC
  5
35F
100
AcDbEntity
  8
0
370
    -3
  6
Continuous
100
AcDbCircle
 10
-29.910158
 20
-242.45841
 30
0.0
 40
26.0
100
AcDbArc
 50
1.637245
 51
60.785452
  0
ARC
  5
360
100
AcDbEntity
  8
0
370
    -3
  6
Continuous
100
AcDbCircle
 10
-12.827313
 20
-211.910474
 30
0.0
 40
9.0
100
AcDbArc
 50
190.481465
 51
240.785452
  0
ARC
  5
361
100
AcDbEntity
  8
0
370
    -3
  6
Continuous
100
AcDbCircle
 10
-37.410158
 20
-216.45841
 30
0.0
 40
16.0
100
AcDbArc
 50
10.481465
 51
70.123126
  0
ARC
  5
362
100
AcDbEntity
  8
0
370
    -3
  6
Continuous
100
AcDbCircle
 10
-28.910158
 20
-192.947774
 30
0.0
 40
9.0
100
AcDbArc
 50
180.0
 51
250.123126
  0
LINE
  5
363
100
AcDbEntity
  8
0
370
    -3
  6
CENTER
100
AcDbLine
 10
53.089842
 20
-2.827556
 30
0.0
 11
53.089842
 21
-273.118372
 31
0.0
  0
LINE
  5
364
100
AcDbEntity
  8
0
370
    -3
  6
CENTER
100
AcDbLine
 10
-58.664218
 20
-113.45841
 30
0.0
 11
203.264529
 21
-113.45841
 31
0.0
  0
LINE
  5
365
100
AcDbEntity
  8
0
370
    -3
  6
Continuous
100
AcDbLine
 10
224.089842
 20
-110.483608
 30
0.0
 11
228.089842
 21
-84.481848
 31
0.0
  0
LINE
  5
366
100
AcDbEntity
  8
0
370
    -3
  6
Continuous
100
AcDbLine
 10
224.089842
 20
-154.433202
 30
0.0
 11
228.089842
 21
-179.982387
 31
0.0
  0
ARC
  5
367
100
AcDbEntity
  8
0
370
    -3
  6
Continuous
100
AcDbCircle
 10
-37.910158
 20
-250.45841
 30
0.0
 40
11.0
100
AcDbArc
 50
180.0
 51
270.0
  0
ARC
  5
368
100
AcDbEntity
  8
0
370
    -3
  6
Continuous
100
AcDbCircle
 10
-37.910158
 20
-22.45841
 30
0.0
 40
15.0
100
AcDbArc
 50
90.0
 51
180.0
  0
ARC
  5
369
100
AcDbEntity
  8
0
370
    -3
  6
Continuous
100
AcDbCircle
 10
-37.910158
 20
-22.45841
 30
0.0
 40
11.0
100
AcDbArc
 50
90.0
 51
180.0
  0
ARC
  5
36A
100
AcDbEntity
  8
0
370
    -3
  6
Continuous
100
AcDbCircle
 10
213.089842
 20
-22.45841
 30
0.0
 40
15.0
100
AcDbArc
 50
0.0
 51
90.0
  0
ARC
  5
36B
100
AcDbEntity
  8
0
370
    -3
  6
Continuous
100
AcDbCircle
 10
213.089842
 20
-22.45841
 30
0.0
 40
11.0
100
AcDbArc
 50
0.0
 51
90.0
  0
ARC
  5
36C
100
AcDbEntity
  8
0
370
    -3
  6
Continuous
100
AcDbCircle
 10
213.089842
 20
-250.45841
 30
0.0
 40
11.0
100
AcDbArc
 50
270.0
 51
0.0
  0
LINE
  5
36D
100
AcDbEntity
  8
0
370
    -3
  6
Continuous
100
AcDbLine
 10
224.089842
 20
-250.45841
 30
0.0
 11
224.089842
 21
-154.433202
 31
0.0
  0
LINE
  5
36E
100
AcDbEntity
  8
0
370
    -3
  6
Continuous
100
AcDbLine
 10
224.089842
 20
-110.483608
 30
0.0
 11
224.089842
 21
-22.45841
 31
0.0
  0
LINE
  5
36F
100
AcDbEntity
  8
0
370
    -3
  6
Continuous
100
AcDbLine
 10
-48.910158
 20
-22.45841
 30
0.0
 11
-48.910158
 21
-250.45841
 31
0.0
  0
LINE
  5
370
100
AcDbEntity
  8
0
370
    -3
  6
Continuous
100
AcDbLine
 10
213.089842
 20
-11.45841
 30
0.0
 11
-37.910158
 21
-11.45841
 31
0.0
  0
LINE
  5
371
100
AcDbEntity
  8
0
370
    -3
  6
Continuous
100
AcDbLine
 10
-37.910158
 20
-261.45841
 30
0.0
 11
213.089842
 21
-261.45841
 31
0.0
  0
ARC
  5
372
100
AcDbEntity
  8
0
370
    -3
  6
Continuous
100
AcDbCircle
 10
213.089842
 20
-250.45841
 30
0.0
 40
15.0
100
AcDbArc
 50
270.0
 51
0.0
  0
ARC
  5
373
100
AcDbEntity
  8
0
370
    -3
  6
Continuous
100
AcDbCircle
 10
-37.910158
 20
-250.45841
 30
0.0
 40
15.0
100
AcDbArc
 50
180.0
 51
270.0
  0
LINE
  5
374
100
AcDbEntity
  8
0
370
    -3
  6
Continuous
100
AcDbLine
 10
-37.910158
 20
-265.45841
 30
0.0
 11
213.089842
 21
-265.45841
 31
0.0
  0
LINE
  5
375
100
AcDbEntity
  8
0
370
    -3
  6
Continuous
100
AcDbLine
 10
-37.910158
 20
-7.45841
 30
0.0
 11
213.089842
 21
-7.45841
 31
0.0
  0
LINE
  5
376
100
AcDbEntity
  8
0
370
    -3
  6
Continuous
100
AcDbLine
 10
-52.910158
 20
-22.45841
 30
0.0
 11
-52.910158
 21
-250.45841
 31
0.0
  0
ARC
  5
377
100
AcDbEntity
  8
0
370
    -3
  6
Continuous
100
AcDbCircle
 10
161.089842
 20
-113.45841
 30
0.0
 40
43.0
100
AcDbArc
 50
359.944778
 51
0.0
  0
CIRCLE
  5
378
100
AcDbEntity
  8
0
370
    -3
  6
Continuous
100
AcDbCircle
 10
53.089842
 20
-113.45841
 30
0.0
 40
50.0
  0
CIRCLE
  5
379
100
AcDbEntity
  8
0
370
    -3
  6
Continuous
100
AcDbCircle
 10
53.089842
 20
-113.45841
 30
0.0
 40
75.0
  0
CIRCLE
  5
37A
100
AcDbEntity
  8
0
370
    -3
  6
Continuous
100
AcDbCircle
 10
53.089842
 20
-113.45841
 30
0.0
 40
82.5
  0
CIRCLE
  5
37B
100
AcDbEntity
  8
0
370
    -3
  6
Continuous
100
AcDbCircle
 10
53.089842
 20
-113.45841
 30
0.0
 40
85.5
  0
LINE
  5
37C
100
AcDbEntity
  8
0
370
    -3
  6
Continuous
100
AcDbLine
 10
228.089842
 20
-250.45841
 30
0.0
 11
228.089842
 21
-179.982387
 31
0.0
  0
CIRCLE
  5
37D
100
AcDbEntity
  8
0
370
    -3
  6
Continuous
100
AcDbCircle
 10
205.089842
 20
-242.45841
 30
0.0
 40
11.0
  0
LINE
  5
37E
100
AcDbEntity
  8
0
370
    -3
  6
Continuous
100
AcDbLine
 10
228.089842
 20
-22.45841
 30
0.0
 11
228.089842
 21
-84.481848
 31
0.0
  0
LINE
  5
37F
100
AcDbEntity
  8
0
370
    -3
  6
DASHED
100
AcDbLine
 10
-418.910157
 20
-14.45901
 30
0.0
 11
-444.910157
 21
-14.45901
 31
0.0
  0
LINE
  5
380
100
AcDbEntity
  8
0
370
    -3
  6
DASHED
100
AcDbLine
 10
-310.910157
 20
-19.45901
 30
0.0
 11
-418.910157
 21
-19.45901
 31
0.0
  0
LINE
  5
381
100
AcDbEntity
  8
0
370
    -3
  6
DASHED
100
AcDbLine
 10
-418.910157
 20
-14.45901
 30
0.0
 11
-418.910157
 21
-46.45901
 31
0.0
  0
LINE
  5
382
100
AcDbEntity
  8
0
370
    -3
  6
DASHED
100
AcDbLine
 10
-418.910157
 20
-46.45901
 30
0.0
 11
-444.910157
 21
-46.45901
 31
0.0
  0
LINE
  5
383
100
AcDbEntity
  8
0
370
    -3
  6
DASHED
100
AcDbLine
 10
-310.910157
 20
-41.45901
 30
0.0
 11
-418.910157
 21
-41.45901
 31
0.0
  0
LINE
  5
384
100
AcDbEntity
  8
0
370
    -3
  6
DASHED
100
AcDbLine
 10
-284.910157
 20
-46.45901
 30
0.0
 11
-310.910157
 21
-46.45901
 31
0.0
  0
LINE
  5
385
100
AcDbEntity
  8
0
370
    -3
  6
DASHED
100
AcDbLine
 10
-310.910157
 20
-14.45901
 30
0.0
 11
-310.910157
 21
-46.45901
 31
0.0
  0
LINE
  5
386
100
AcDbEntity
  8
0
370
    -3
  6
DASHED
100
AcDbLine
 10
-284.910157
 20
-14.45901
 30
0.0
 11
-310.910157
 21
-14.45901
 31
0.0
  0
LINE
  5
387
100
AcDbEntity
  8
0
370
    -3
  6
Continuous
100
AcDbLine
 10
-444.910158
 20
-38.458289
 30
0.0
 11
-449.910158
 21
-38.458289
 31
0.0
  0
LINE
  5
388
100
AcDbEntity
  8
0
370
    -3
  6
Continuous
100
AcDbLine
 10
-284.910158
 20
-38.458473
 30
0.0
 11
-279.910158
 21
-38.458473
 31
0.0
  0
LINE
  5
389
100
AcDbEntity
  8
0
370
    -3
  6
Continuous
100
AcDbLine
 10
-284.910158
 20
-12.81164
 30
0.0
 11
-284.910158
 21
-260.118399
 31
0.0
  0
LINE
  5
38A
100
AcDbEntity
  8
0
370
    -3
  6
Continuous
100
AcDbLine
 10
-279.910158
 20
-38.458473
 30
0.0
 11
-279.910158
 21
-188.458473
 31
0.0
  0
LINE
  5
38B
100
AcDbEntity
  8
0
370
    -3
  6
Continuous
100
AcDbLine
 10
-364.910158
 20
-9.458473
 30
0.0
 11
-364.910158
 21
-263.458473
 31
0.0
  0
LINE
  5
38C
100
AcDbEntity
  8
0
370
    -3
  6
Continuous
100
AcDbLine
 10
-364.910158
 20
-7.458473
 30
0.0
 11
-364.910158
 21
-265.493394
 31
0.0
  0
LINE
  5
38D
100
AcDbEntity
  8
0
370
    -3
  6
Continuous
100
AcDbLine
 10
-449.910158
 20
-38.458289
 30
0.0
 11
-449.910158
 21
-188.458289
 31
0.0
  0
LINE
  5
38E
100
AcDbEntity
  8
0
370
    -3
  6
Continuous
100
AcDbLine
 10
-298.410158
 20
-9.780704
 30
0.0
 11
-298.410158
 21
-263.136242
 31
0.0
  0
LINE
  5
38F
100
AcDbEntity
  8
0
370
    -3
  6
Continuous
100
AcDbLine
 10
-431.410158
 20
-9.780704
 30
0.0
 11
-431.410158
 21
-263.136242
 31
0.0
  0
LINE
  5
390
100
AcDbEntity
  8
0
370
    -3
  6
Continuous
100
AcDbLine
 10
-361.910158
 20
-7.563235
 30
0.0
 11
-361.910158
 21
-113.458473
 31
0.0
  0
LINE
  5
391
100
AcDbEntity
  8
0
370
    -3
  6
Continuous
100
AcDbLine
 10
-444.910158
 20
-12.81164
 30
0.0
 11
-444.910158
 21
-260.118399
 31
0.0
  0
LINE
  5
392
100
AcDbEntity
  8
0
370
    -3
  6
CENTER
100
AcDbLine
 10
-281.347431
 20
-30.45754
 30
0.0
 11
-448.283182
 21
-30.457947
 31
0.0
  0
LINE
  5
393
100
AcDbEntity
  8
0
370
    -3
  6
CENTER
100
AcDbLine
 10
-364.910352
 20
23.108632
 30
0.0
 11
-364.909971
 21
-289.968806
 31
0.0
  0
ARC
  5
394
100
AcDbEntity
  8
0
370
    -3
  6
DASHED
100
AcDbCircle
 10
-364.910165
 20
-436.958289
 30
0.0
 40
390.8
100
AcDbArc
 50
87.020093
 51
92.979907
  0
ARC
  5
395
100
AcDbEntity
  8
0
370
    -3
  6
DASHED
100
AcDbCircle
 10
-348.014796
 20
-112.397745
 30
0.0
 40
65.8
100
AcDbArc
 50
51.262419
 51
87.020093
  0
ARC
  5
396
100
AcDbEntity
  8
0
370
    -3
  6
DASHED
100
AcDbCircle
 10
-381.805534
 20
-112.397745
 30
0.0
 40
65.8
100
AcDbArc
 50
92.979907
 51
128.737581
  0
LINE
  5
397
100
AcDbEntity
  8
0
370
    -3
  6
DASHED
100
AcDbLine
 10
-418.909899
 20
-226.45901
 30
0.0
 11
-444.909899
 21
-226.45901
 31
0.0
  0
LINE
  5
398
100
AcDbEntity
  8
0
370
    -3
  6
DASHED
100
AcDbLine
 10
-310.909899
 20
-231.45901
 30
0.0
 11
-418.909899
 21
-231.45901
 31
0.0
  0
LINE
  5
399
100
AcDbEntity
  8
0
370
    -3
  6
DASHED
100
AcDbLine
 10
-418.909899
 20
-226.45901
 30
0.0
 11
-418.909899
 21
-258.45901
 31
0.0
  0
LINE
  5
39A
100
AcDbEntity
  8
0
370
    -3
  6
DASHED
100
AcDbLine
 10
-418.909899
 20
-258.45901
 30
0.0
 11
-444.909899
 21
-258.45901
 31
0.0
  0
LINE
  5
39B
100
AcDbEntity
  8
0
370
    -3
  6
DASHED
100
AcDbLine
 10
-310.909899
 20
-253.45901
 30
0.0
 11
-418.909899
 21
-253.45901
 31
0.0
  0
LINE
  5
39C
100
AcDbEntity
  8
0
370
    -3
  6
DASHED
100
AcDbLine
 10
-284.909899
 20
-258.45901
 30
0.0
 11
-310.909899
 21
-258.45901
 31
0.0
  0
LINE
  5
39D
100
AcDbEntity
  8
0
370
    -3
  6
DASHED
100
AcDbLine
 10
-310.909899
 20
-226.45901
 30
0.0
 11
-310.909899
 21
-258.45901
 31
0.0
  0
LINE
  5
39E
100
AcDbEntity
  8
0
370
    -3
  6
DASHED
100
AcDbLine
 10
-284.909899
 20
-226.45901
 30
0.0
 11
-310.909899
 21
-226.45901
 31
0.0
  0
LINE
  5
39F
100
AcDbEntity
  8
0
370
    -3
  6
Continuous
100
AcDbLine
 10
-285.909473
 20
-261.144224
 30
0.0
 11
-284.910158
 21
-260.118399
 31
0.0
  0
LINE
  5
3A0
100
AcDbEntity
  8
0
370
    -3
  6
Continuous
100
AcDbLine
 10
-361.914269
 20
-263.615481
 30
0.0
 11
-364.910158
 21
-263.458473
 31
0.0
  0
LINE
  5
3A1
100
AcDbEntity
  8
0
370
    -3
  6
Continuous
100
AcDbLine
 10
-443.910843
 20
-261.144224
 30
0.0
 11
-444.910158
 21
-260.118399
 31
0.0
  0
LINE
  5
3A2
100
AcDbEntity
  8
0
370
    -3
  6
Continuous
100
AcDbLine
 10
-361.910158
 20
-265.353711
 30
0.0
 11
-298.410158
 21
-263.136242
 31
0.0
  0
LINE
  5
3A3
100
AcDbEntity
  8
0
370
    -3
  6
Continuous
100
AcDbLine
 10
-364.910158
 20
-265.458473
 30
0.0
 11
-431.410158
 21
-263.136242
 31
0.0
  0
LINE
  5
3A4
100
AcDbEntity
  8
0
370
    -3
  6
Continuous
100
AcDbLine
 10
-361.910158
 20
-113.458473
 30
0.0
 11
-361.910158
 21
-265.353711
 31
0.0
  0
LINE
  5
3A5
100
AcDbEntity
  8
0
370
    -3
  6
Continuous
100
AcDbLine
 10
-285.909473
 20
-261.144224
 30
0.0
 11
-298.410158
 21
-261.471566
 31
0.0
  0
LINE
  5
3A6
100
AcDbEntity
  8
0
370
    -3
  6
Continuous
100
AcDbLine
 10
-443.910843
 20
-261.144224
 30
0.0
 11
-431.410158
 21
-261.471566
 31
0.0
  0
LINE
  5
3A7
100
AcDbEntity
  8
0
370
    -3
  6
CENTER
100
AcDbLine
 10
-281.346915
 20
-242.45754
 30
0.0
 11
-448.282666
 21
-242.457947
 31
0.0
  0
MTEXT
  5
3A8
100
AcDbEntity
  8
0
370
    -3
  6
Continuous
100
AcDbMText
 10
-440.69278
 20
286.726196
 30
0.0
 40
15.0
 41
0.0
 71
     7
 72
     1
  1
\W0.48;GV-SHYF-RL
  7
ZU_SHPTB00001
 11
1.0
 21
0.0
 31
0.0
 73
     1
 44
1.0
  0
MTEXT
  5
3A9
100
AcDbEntity
  8
0
370
    -3
  6
Continuous
100
AcDbMText
 10
-440.69278
 20
303.676208
 30
0.0
 40
15.0
 41
0.0
 71
     7
 72
     1
  1
\W0.63;三菱ギヤードモータ  
  7
ZU_SHPTB00001
 11
1.0
 21
0.0
 31
0.0
 73
     1
 44
1.0
  0
MTEXT
  5
3AA
100
AcDbEntity
  8
0
370
    -3
  6
Continuous
100
AcDbMText
 10
-440.69278
 20
303.676208
 30
0.0
 40
15.0
 41
0.0
 71
     7
 72
     1
  1
\W0.63;三菱ギヤードモータ  
  7
ZU_SHPTB00001
 11
1.0
 21
0.0
 31
0.0
 73
     1
 44
1.0
  0
MTEXT
  5
3AB
100
AcDbEntity
  8
0
370
    -3
  6
Continuous
100
AcDbMText
 10
-440.69278
 20
218.926193
 30
0.0
 40
15.0
 41
0.0
 71
     7
 72
     1
  1
\W0.43;SCALE\W0.72;  \W0.43;1/1
  7
ZU_SHPTB00001
 11
1.0
 21
0.0
 31
0.0
 73
     1
 44
1.0
  0
MTEXT
  5
3AC
100
AcDbEntity
  8
0
370
    -3
  6
Continuous
100
AcDbMText
 10
-440.69278
 20
252.826218
 30
0.0
 40
15.0
 41
0.0
 71
     7
 72
     1
  1
\W0.43;37.5-12.5r/min\W0.53;　
  7
ZU_SHPTB00001
 11
1.0
 21
0.0
 31
0.0
 73
     1
 44
1.0
  0
MTEXT
  5
3AD
100
AcDbEntity
  8
0
370
    -3
  6
Continuous
100
AcDbMText
 10
-440.69278
 20
235.876205
 30
0.0
 40
15.0
 41
0.0
 71
     7
 72
     1
  1
\W0.42;GEAR\W0.70; \W0.42;RATIO\W0.70;  \W0.42;1/80-1/240
  7
ZU_SHPTB00001
 11
1.0
 21
0.0
 31
0.0
 73
     1
 44
1.0
  0
MTEXT
  5
3AE
100
AcDbEntity
  8
0
370
    -3
  6
Continuous
100
AcDbMText
 10
-440.69278
 20
269.776184
 30
0.0
 40
15.0
 41
0.0
 71
     7
 72
     1
  1
\W0.43;2.2kW
  7
ZU_SHPTB00001
 11
1.0
 21
0.0
 31
0.0
 73
     1
 44
1.0
  0
MTEXT
  5
3AF
100
AcDbEntity
  8
0
370
    -3
  6
Continuous
100
AcDbMText
 10
-440.69278
 20
201.926193
 30
0.0
 40
15.0
 41
0.0
 71
     7
 72
     1
  1
\W0.43;DATE\W0.72; \W0.43;2012.01.15
  7
ZU_SHPTB00001
 11
1.0
 21
0.0
 31
0.0
 73
     1
 44
1.0
  0
ARC
  5
3B0
100
AcDbEntity
  8
0
370
    -3
  6
Continuous
100
AcDbCircle
 10
375.689842
 20
-49.258274
 30
0.0
 40
3.2
100
AcDbArc
 50
180.0
 51
270.0
  0
LINE
  5
3B1
100
AcDbEntity
  8
0
370
    -3
  6
Continuous
100
AcDbLine
 10
408.089842
 20
-52.458274
 30
0.0
 11
374.089842
 21
-52.458274
 31
0.0
  0
LINE
  5
3B2
100
AcDbEntity
  8
0
370
    -3
  6
Continuous
100
AcDbLine
 10
374.089842
 20
-53.458274
 30
0.0
 11
374.089842
 21
-52.458274
 31
0.0
  0
LINE
  5
3B3
100
AcDbEntity
  8
0
370
    -3
  6
Continuous
100
AcDbLine
 10
372.489842
 20
-49.258274
 30
0.0
 11
372.489842
 21
-40.658274
 31
0.0
  0
LINE
  5
3B4
100
AcDbEntity
  8
0
370
    -3
  6
Continuous
100
AcDbLine
 10
398.089842
 20
-37.458274
 30
0.0
 11
367.089842
 21
-37.458274
 31
0.0
  0
ARC
  5
3B5
100
AcDbEntity
  8
0
370
    -3
  6
Continuous
100
AcDbCircle
 10
370.889842
 20
-40.658274
 30
0.0
 40
1.6
100
AcDbArc
 50
0.0
 51
90.0
  0
LINE
  5
3B6
100
AcDbEntity
  8
0
370
    -3
  6
Continuous
100
AcDbLine
 10
367.089842
 20
-37.458274
 30
0.0
 11
367.089842
 21
-39.058274
 31
0.0
  0
LINE
  5
3B7
100
AcDbEntity
  8
0
370
    -3
  6
Continuous
100
AcDbLine
 10
367.089842
 20
-39.058274
 30
0.0
 11
398.089842
 21
-39.058274
 31
0.0
  0
LINE
  5
3B8
100
AcDbEntity
  8
0
370
    -3
  6
Continuous
100
AcDbLine
 10
398.089842
 20
-37.458274
 30
0.0
 11
429.089842
 21
-37.458274
 31
0.0
  0
LINE
  5
3B9
100
AcDbEntity
  8
0
370
    -3
  6
Continuous
100
AcDbLine
 10
429.089842
 20
-37.458274
 30
0.0
 11
367.089842
 21
-37.458274
 31
0.0
  0
ARC
  5
3BA
100
AcDbEntity
  8
0
370
    -3
  6
Continuous
100
AcDbCircle
 10
425.289842
 20
-40.658274
 30
0.0
 40
1.6
100
AcDbArc
 50
90.0
 51
180.0
  0
LINE
  5
3BB
100
AcDbEntity
  8
0
370
    -3
  6
Continuous
100
AcDbLine
 10
429.089842
 20
-37.458274
 30
0.0
 11
429.089842
 21
-39.058274
 31
0.0
  0
LINE
  5
3BC
100
AcDbEntity
  8
0
370
    -3
  6
Continuous
100
AcDbLine
 10
429.089842
 20
-39.058274
 30
0.0
 11
398.089842
 21
-39.058274
 31
0.0
  0
LINE
  5
3BD
100
AcDbEntity
  8
0
370
    -3
  6
Continuous
100
AcDbLine
 10
423.689842
 20
-47.098764
 30
0.0
 11
423.689842
 21
-40.658274
 31
0.0
  0
LINE
  5
3BE
100
AcDbEntity
  8
0
370
    -3
  6
Continuous
100
AcDbLine
 10
470.089842
 20
-27.458274
 30
0.0
 11
443.089842
 21
-27.458274
 31
0.0
  0
LINE
  5
3BF
100
AcDbEntity
  8
0
370
    -3
  6
Continuous
100
AcDbLine
 10
470.089842
 20
6.541726
 30
0.0
 11
443.500558
 21
6.541726
 31
0.0
  0
ARC
  5
3C0
100
AcDbEntity
  8
0
370
    -3
  6
Continuous
100
AcDbCircle
 10
470.089842
 20
4.541726
 30
0.0
 40
2.0
100
AcDbArc
 50
0.0
 51
90.0
  0
LINE
  5
3C1
100
AcDbEntity
  8
0
370
    -3
  6
Continuous
100
AcDbLine
 10
472.089842
 20
-10.458274
 30
0.0
 11
472.089842
 21
4.541726
 31
0.0
  0
ARC
  5
3C2
100
AcDbEntity
  8
0
370
    -3
  6
Continuous
100
AcDbCircle
 10
470.089842
 20
-25.458274
 30
0.0
 40
2.0
100
AcDbArc
 50
270.0
 51
0.0
  0
LINE
  5
3C3
100
AcDbEntity
  8
0
370
    -3
  6
Continuous
100
AcDbLine
 10
472.089842
 20
-10.458274
 30
0.0
 11
472.089842
 21
-25.458274
 31
0.0
  0
LINE
  5
3C4
100
AcDbEntity
  8
0
370
    -3
  6
Continuous
100
AcDbLine
 10
445.089842
 20
-10.458274
 30
0.0
 11
445.089842
 21
-27.458274
 31
0.0
  0
LINE
  5
3C5
100
AcDbEntity
  8
0
370
    -3
  6
Continuous
100
AcDbLine
 10
445.089842
 20
-10.458274
 30
0.0
 11
445.089842
 21
6.541726
 31
0.0
  0
ARC
  5
3C6
100
AcDbEntity
  8
0
370
    -3
  6
Continuous
100
AcDbCircle
 10
428.414149
 20
-32.458274
 30
0.0
 40
3.0
100
AcDbArc
 50
270.0
 51
0.0
  0
LINE
  5
3C7
100
AcDbEntity
  8
0
370
    -3
  6
Continuous
100
AcDbLine
 10
431.414149
 20
0.905741
 30
0.0
 11
431.414149
 21
-32.458274
 31
0.0
  0
LINE
  5
3C8
100
AcDbEntity
  8
0
370
    -3
  6
Continuous
100
AcDbLine
 10
362.301954
 20
-31.321804
 30
0.0
 11
363.207719
 21
-33.264223
 31
0.0
  0
LINE
  5
3C9
100
AcDbEntity
  8
0
370
    -3
  6
Continuous
100
AcDbLine
 10
443.089842
 20
6.350207
 30
0.0
 11
443.089842
 21
-28.658274
 31
0.0
  0
LINE
  5
3CA
100
AcDbEntity
  8
0
370
    -3
  6
Continuous
100
AcDbLine
 10
443.500558
 20
6.541726
 30
0.0
 11
451.663902
 21
10.348356
 31
0.0
  0
LINE
  5
3CB
100
AcDbEntity
  8
0
370
    -3
  6
Continuous
100
AcDbLine
 10
355.051492
 20
-34.70275
 30
0.0
 11
443.500558
 21
6.541726
 31
0.0
  0
LINE
  5
3CC
100
AcDbEntity
  8
0
370
    -3
  6
Continuous
100
AcDbLine
 10
373.902694
 20
-25.91229
 30
0.0
 11
377.330956
 21
-33.264223
 31
0.0
  0
ARC
  5
3CD
100
AcDbEntity
  8
0
370
    -3
  6
Continuous
100
AcDbCircle
 10
380.774926
 20
-31.658274
 30
0.0
 40
3.8
100
AcDbArc
 50
205.0
 51
270.0
  0
ARC
  5
3CE
100
AcDbEntity
  8
0
370
    -3
  6
Continuous
100
AcDbCircle
 10
654.915482
 20
-86.143671
 30
0.0
 40
300.8
100
AcDbArc
 50
162.341575
 51
167.89975
  0
ARC
  5
3CF
100
AcDbEntity
  8
0
370
    -3
  6
Continuous
100
AcDbCircle
 10
403.67224
 20
-587.640747
 30
0.0
 40
600.8
100
AcDbArc
 50
86.682408
 51
92.437505
  0
ARC
  5
3D0
100
AcDbEntity
  8
0
370
    -3
  6
Continuous
100
AcDbCircle
 10
367.690025
 20
-6.736259
 30
0.0
 40
2.8
100
AcDbArc
 50
164.545811
 51
205.0
  0
ARC
  5
3D1
100
AcDbEntity
  8
0
370
    -3
  6
Continuous
100
AcDbCircle
 10
432.108446
 20
10.939223
 30
0.0
 40
3.0
100
AcDbArc
 50
205.0
 51
295.0
  0
LINE
  5
3D2
100
AcDbEntity
  8
0
370
    -3
  6
Continuous
100
AcDbLine
 10
429.389522
 20
9.671368
 30
0.0
 11
428.714492
 21
11.118976
 31
0.0
  0
ARC
  5
3D3
100
AcDbEntity
  8
0
370
    -3
  6
Continuous
100
AcDbCircle
 10
426.17683
 20
9.935644
 30
0.0
 40
2.8
100
AcDbArc
 50
25.0
 51
87.843273
  0
LINE
  5
3D4
100
AcDbEntity
  8
0
370
    -3
  6
Continuous
100
AcDbLine
 10
365.152363
 20
-7.91959
 30
0.0
 11
369.88779
 21
-18.074745
 31
0.0
  0
ARC
  5
3D5
100
AcDbEntity
  8
0
370
    -3
  6
Continuous
100
AcDbCircle
 10
367.168867
 20
-19.3426
 30
0.0
 40
3.0
100
AcDbArc
 50
295.0
 51
25.0
  0
LINE
  5
3D6
100
AcDbEntity
  8
0
370
    -3
  6
Continuous
100
AcDbLine
 10
354.23166
 20
-28.685452
 30
0.0
 11
447.581362
 21
14.844229
 31
0.0
  0
LINE
  5
3D7
100
AcDbEntity
  8
0
370
    -3
  6
CENTER
100
AcDbLine
 10
474.568465
 20
-10.458274
 30
0.0
 11
434.261979
 21
-10.458274
 31
0.0
  0
ARC
  5
3D8
100
AcDbEntity
  8
0
370
    -3
  6
Continuous
100
AcDbCircle
 10
361.24963
 20
-24.332684
 30
0.0
 40
1.299999
100
AcDbArc
 50
24.999999
 51
98.398469
  0
LINE
  5
3D9
100
AcDbEntity
  8
0
370
    -3
  6
Continuous
100
AcDbLine
 10
362.841584
 20
-24.670579
 30
0.0
 11
362.42783
 21
-23.78328
 31
0.0
  0
ARC
  5
3DA
100
AcDbEntity
  8
0
370
    -3
  6
Continuous
100
AcDbCircle
 10
362.374263
 20
-31.950112
 30
0.0
 40
9.0
100
AcDbArc
 50
98.398469
 51
131.601548
  0
ARC
  5
3DB
100
AcDbEntity
  8
0
370
    -3
  6
Continuous
100
AcDbCircle
 10
357.261875
 20
-26.192205
 30
0.0
 40
1.299999
100
AcDbArc
 50
131.601548
 51
205.000018
  0
LINE
  5
3DC
100
AcDbEntity
  8
0
370
    -3
  6
CENTER
100
AcDbLine
 10
360.927181
 20
-28.846833
 30
0.0
 11
358.05726
 21
-22.692269
 31
0.0
  0
LINE
  5
3DD
100
AcDbEntity
  8
0
370
    -3
  6
Continuous
100
AcDbLine
 10
356.497429
 20
-27.628907
 30
0.0
 11
356.083675
 21
-26.741608
 31
0.0
  0
ARC
  5
3DE
100
AcDbEntity
  8
0
370
    -3
  6
Continuous
100
AcDbCircle
 10
443.723639
 20
14.125578
 30
0.0
 40
1.299999
100
AcDbArc
 50
24.999999
 51
98.398469
  0
ARC
  5
3DF
100
AcDbEntity
  8
0
370
    -3
  6
Continuous
100
AcDbCircle
 10
439.735883
 20
12.266057
 30
0.0
 40
1.299999
100
AcDbArc
 50
131.601548
 51
205.000018
  0
LINE
  5
3E0
100
AcDbEntity
  8
0
370
    -3
  6
Continuous
100
AcDbLine
 10
445.315592
 20
13.787683
 30
0.0
 11
444.901839
 21
14.674981
 31
0.0
  0
LINE
  5
3E1
100
AcDbEntity
  8
0
370
    -3
  6
Continuous
100
AcDbLine
 10
438.971438
 20
10.829355
 30
0.0
 11
438.557684
 21
11.716653
 31
0.0
  0
POINT
  5
3E2
100
AcDbEntity
  8
0
370
    -3
  6
Continuous
100
AcDbPoint
 10
442.143515
 20
12.308519
 30
0.0
  0
ARC
  5
3E3
100
AcDbEntity
  8
0
370
    -3
  6
Continuous
100
AcDbCircle
 10
444.848272
 20
6.50815
 30
0.0
 40
9.0
100
AcDbArc
 50
98.398469
 51
131.601548
  0
ARC
  5
3E4
100
AcDbEntity
  8
0
370
    -3
  6
Continuous
100
AcDbCircle
 10
378.579747
 20
1.825424
 30
0.0
 40
10.8
100
AcDbArc
 50
92.437505
 51
162.341575
  0
LINE
  5
3E5
100
AcDbEntity
  8
0
370
    -3
  6
CENTER
100
AcDbLine
 10
443.401189
 20
9.611428
 30
0.0
 11
440.531269
 21
15.765993
 31
0.0
  0
POINT
  5
3E6
100
AcDbEntity
  8
0
370
    -3
  6
Continuous
100
AcDbPoint
 10
359.693217
 20
-26.138686
 30
0.0
  0
LINE
  5
3E7
100
AcDbEntity
  8
0
370
    -3
  6
CENTER
100
AcDbLine
 10
360.927181
 20
-28.846833
 30
0.0
 11
358.05726
 21
-22.692269
 31
0.0
  0
ARC
  5
3E8
100
AcDbEntity
  8
0
370
    -3
  6
Continuous
100
AcDbCircle
 10
354.992373
 20
-30.316806
 30
0.0
 40
1.8
100
AcDbArc
 50
115.0
 51
205.0
  0
LINE
  5
3E9
100
AcDbEntity
  8
0
370
    -3
  6
Continuous
100
AcDbLine
 10
353.361019
 20
-31.077519
 30
0.0
 11
355.051492
 21
-34.70275
 31
0.0
  0
ARC
  5
3EA
100
AcDbEntity
  8
0
370
    -3
  6
Continuous
100
AcDbCircle
 10
448.342075
 20
13.212875
 30
0.0
 40
1.8
100
AcDbArc
 50
25.0
 51
115.0
  0
LINE
  5
3EB
100
AcDbEntity
  8
0
370
    -3
  6
Continuous
100
AcDbLine
 10
449.973429
 20
13.973588
 30
0.0
 11
451.663902
 21
10.348356
 31
0.0
  0
ARC
  5
3EC
100
AcDbEntity
  8
0
370
    -3
  6
Continuous
100
AcDbCircle
 10
366.651688
 20
-31.658274
 30
0.0
 40
3.8
100
AcDbArc
 50
205.0
 51
270.0
  0
ARC
  5
3ED
100
AcDbEntity
  8
0
370
    -3
  6
Continuous
100
AcDbCircle
 10
436.289842
 20
-28.658274
 30
0.0
 40
6.8
100
AcDbArc
 50
270.0
 51
0.0
  0
LINE
  5
3EE
100
AcDbEntity
  8
0
370
    -3
  6
Continuous
100
AcDbLine
 10
436.289842
 20
-35.458274
 30
0.0
 11
366.651688
 21
-35.458274
 31
0.0
  0
ARC
  5
3EF
100
AcDbEntity
  8
0
370
    -3
  6
Continuous
100
AcDbCircle
 10
370.089842
 20
-35.458274
 30
0.0
 40
1.0
100
AcDbArc
 50
193.342364
 51
270.0
  0
LINE
  5
3F0
100
AcDbEntity
  8
0
370
    -3
  6
Continuous
100
AcDbLine
 10
429.089842
 20
-36.458274
 30
0.0
 11
367.089842
 21
-36.458274
 31
0.0
  0
LINE
  5
3F1
100
AcDbEntity
  8
0
370
    -3
  6
Continuous
100
AcDbLine
 10
367.089842
 20
-37.458274
 30
0.0
 11
367.089842
 21
-36.458274
 31
0.0
  0
ARC
  5
3F2
100
AcDbEntity
  8
0
370
    -3
  6
Continuous
100
AcDbCircle
 10
368.824931
 20
-35.758274
 30
0.0
 40
0.3
100
AcDbArc
 50
13.342364
 51
90.0
  0
ARC
  5
3F3
100
AcDbEntity
  8
0
370
    -3
  6
Continuous
100
AcDbCircle
 10
426.089842
 20
-35.458274
 30
0.0
 40
1.0
100
AcDbArc
 50
270.0
 51
346.657636
  0
LINE
  5
3F4
100
AcDbEntity
  8
0
370
    -3
  6
Continuous
100
AcDbLine
 10
429.089842
 20
-37.458274
 30
0.0
 11
429.089842
 21
-36.458274
 31
0.0
  0
ARC
  5
3F5
100
AcDbEntity
  8
0
370
    -3
  6
Continuous
100
AcDbCircle
 10
427.354753
 20
-35.758274
 30
0.0
 40
0.3
100
AcDbArc
 50
90.0
 51
166.657636
  0
LINE
  5
3F6
100
AcDbEntity
  8
0
370
    -3
  6
CENTER
100
AcDbLine
 10
398.089842
 20
-48.235691
 30
0.0
 11
398.089842
 21
-25.325714
 31
0.0
  0
POINT
  5
3F7
100
AcDbEntity
  8
0
370
    -3
  6
CENTER
100
AcDbPoint
 10
472.255821
 20
3.313675
 30
0.0
  0
POINT
  5
3F8
100
AcDbEntity
  8
0
370
    -3
  6
CENTER
100
AcDbPoint
 10
472.255821
 20
-23.127325
 30
0.0
  0
LINE
  5
3F9
100
AcDbEntity
  8
0
370
    -3
  6
Continuous
100
AcDbLine
 10
-318.110162
 20
7.212859
 30
0.0
 11
-318.110162
 21
-9.092765
 31
0.0
  0
LINE
  5
3FA
100
AcDbEntity
  8
0
370
    -3
  6
Continuous
100
AcDbLine
 10
-411.710162
 20
7.212859
 30
0.0
 11
-411.710162
 21
-9.092765
 31
0.0
  0
LINE
  5
3FB
100
AcDbEntity
  8
0
370
    -3
  6
Continuous
100
AcDbLine
 10
-327.411343
 20
15.012859
 30
0.0
 11
-402.40898
 21
15.012859
 31
0.0
  0
ARC
  5
3FC
100
AcDbEntity
  8
0
370
    -3
  6
Continuous
100
AcDbCircle
 10
-325.910162
 20
7.212859
 30
0.0
 40
7.8
100
AcDbArc
 50
0.0
 51
61.87484
  0
ELLIPSE
  5
3FD
100
AcDbEntity
  8
0
370
    -3
  6
Continuous
100
AcDbEllipse
 10
-325.410162
 20
13.127451
 30
0.0
 11
3.5
 21
0.0
 31
0.0
210
0.0
220
0.0
230
1.0
 40
0.656603
 41
0.0
 42
6.2831853071795862
  0
LINE
  5
3FE
100
AcDbEntity
  8
0
370
    -3
  6
Continuous
100
AcDbLine
 10
-323.820145
 20
15.174731
 30
0.0
 11
-325.410162
 21
14.664904
 31
0.0
  0
LINE
  5
3FF
100
AcDbEntity
  8
0
370
    -3
  6
Continuous
100
AcDbLine
 10
-325.410162
 20
14.664904
 30
0.0
 11
-323.410162
 21
13.615716
 31
0.0
  0
LINE
  5
400
100
AcDbEntity
  8
0
370
    -3
  6
Continuous
100
AcDbLine
 10
-325.410162
 20
14.664904
 30
0.0
 11
-327.410162
 21
13.615716
 31
0.0
  0
LINE
  5
401
100
AcDbEntity
  8
0
370
    -3
  6
Continuous
100
AcDbLine
 10
-327.000178
 20
15.174731
 30
0.0
 11
-325.410162
 21
14.664904
 31
0.0
  0
ARC
  5
402
100
AcDbEntity
  8
0
370
    -3
  6
Continuous
100
AcDbCircle
 10
-403.910162
 20
7.212859
 30
0.0
 40
7.8
100
AcDbArc
 50
118.12516
 51
180.0
  0
ELLIPSE
  5
403
100
AcDbEntity
  8
0
370
    -3
  6
Continuous
100
AcDbEllipse
 10
-404.410162
 20
13.127451
 30
0.0
 11
3.5
 21
0.0
 31
0.0
210
0.0
220
0.0
230
1.0
 40
0.656603
 41
0.0
 42
6.2831853071795862
  0
LINE
  5
404
100
AcDbEntity
  8
0
370
    -3
  6
Continuous
100
AcDbLine
 10
-406.000178
 20
15.174731
 30
0.0
 11
-404.410162
 21
14.664904
 31
0.0
  0
LINE
  5
405
100
AcDbEntity
  8
0
370
    -3
  6
Continuous
100
AcDbLine
 10
-404.410162
 20
14.664904
 30
0.0
 11
-406.410162
 21
13.615716
 31
0.0
  0
LINE
  5
406
100
AcDbEntity
  8
0
370
    -3
  6
Continuous
100
AcDbLine
 10
-404.410162
 20
14.664904
 30
0.0
 11
-402.410162
 21
13.615716
 31
0.0
  0
LINE
  5
407
100
AcDbEntity
  8
0
370
    -3
  6
Continuous
100
AcDbLine
 10
-402.820145
 20
15.174731
 30
0.0
 11
-404.410162
 21
14.664904
 31
0.0
  0
LINE
  5
408
100
AcDbEntity
  8
0
370
    -3
  6
Continuous
100
AcDbLine
 10
-326.360162
 20
-8.804669
 30
0.0
 11
-326.360162
 21
6.359238
 31
0.0
  0
LINE
  5
409
100
AcDbEntity
  8
0
370
    -3
  6
Continuous
100
AcDbLine
 10
-403.460162
 20
-8.804669
 30
0.0
 11
-403.460162
 21
6.359238
 31
0.0
  0
ARC
  5
40A
100
AcDbEntity
  8
0
370
    -3
  6
Continuous
100
AcDbCircle
 10
-333.160162
 20
6.359238
 30
0.0
 40
6.8
100
AcDbArc
 50
0.0
 51
90.0
  0
LINE
  5
40B
100
AcDbEntity
  8
0
370
    -3
  6
Continuous
100
AcDbLine
 10
-333.160162
 20
13.159238
 30
0.0
 11
-396.660162
 21
13.159238
 31
0.0
  0
ARC
  5
40C
100
AcDbEntity
  8
0
370
    -3
  6
Continuous
100
AcDbCircle
 10
-396.660162
 20
6.359238
 30
0.0
 40
6.8
100
AcDbArc
 50
90.0
 51
180.0
  0
ARC
  5
40D
100
AcDbEntity
  8
0
370
    -3
  6
Continuous
100
AcDbCircle
 10
360.992373
 20
215.545293
 30
0.0
 40
7.8
100
AcDbArc
 50
180.0
 51
270.0
  0
LINE
  5
40E
100
AcDbEntity
  8
0
370
    -3
  6
Continuous
100
AcDbLine
 10
358.570699
 20
215.045293
 30
0.0
 11
360.478419
 21
217.045293
 31
0.0
  0
LINE
  5
40F
100
AcDbEntity
  8
0
370
    -3
  6
Continuous
100
AcDbLine
 10
356.853188
 20
213.045293
 30
0.0
 11
358.570699
 21
215.045293
 31
0.0
  0
LINE
  5
410
100
AcDbEntity
  8
0
370
    -3
  6
Continuous
100
AcDbLine
 10
358.570699
 20
215.045293
 30
0.0
 11
356.853188
 21
217.045293
 31
0.0
  0
LINE
  5
411
100
AcDbEntity
  8
0
370
    -3
  6
Continuous
100
AcDbLine
 10
360.478419
 20
213.045293
 30
0.0
 11
358.570699
 21
215.045293
 31
0.0
  0
ELLIPSE
  5
412
100
AcDbEntity
  8
0
370
    -3
  6
Continuous
100
AcDbEllipse
 10
359.40173
 20
215.045293
 30
0.0
 11
-0.0000000000002274
 21
3.5
 31
0.0
210
0.0
220
0.0
230
1.0
 40
0.982815
 41
0.0
 42
6.2831853071795862
  0
ARC
  5
413
100
AcDbEntity
  8
0
370
    -3
  6
Continuous
100
AcDbCircle
 10
360.992373
 20
293.545293
 30
0.0
 40
7.8
100
AcDbArc
 50
90.0
 51
180.0
  0
LINE
  5
414
100
AcDbEntity
  8
0
370
    -3
  6
Continuous
100
AcDbLine
 10
360.992373
 20
301.345293
 30
0.0
 11
443.863902
 21
301.345293
 31
0.0
  0
ELLIPSE
  5
415
100
AcDbEntity
  8
0
370
    -3
  6
Continuous
100
AcDbEllipse
 10
359.40173
 20
294.045293
 30
0.0
 11
0.0
 21
3.5
 31
0.0
210
0.0
220
0.0
230
1.0
 40
0.982815
 41
0.0
 42
6.2831853071795862
  0
ARC
  5
416
100
AcDbEntity
  8
0
370
    -3
  6
Continuous
100
AcDbCircle
 10
470.089842
 20
269.545293
 30
0.0
 40
2.0
100
AcDbArc
 50
0.0
 51
90.0
  0
LINE
  5
417
100
AcDbEntity
  8
0
370
    -3
  6
Continuous
100
AcDbLine
 10
472.089842
 20
254.545293
 30
0.0
 11
472.089842
 21
269.545293
 31
0.0
  0
LINE
  5
418
100
AcDbEntity
  8
0
370
    -3
  6
Continuous
100
AcDbLine
 10
470.089842
 20
271.545293
 30
0.0
 11
451.663902
 21
271.545293
 31
0.0
  0
ARC
  5
419
100
AcDbEntity
  8
0
370
    -3
  6
Continuous
100
AcDbCircle
 10
470.089842
 20
239.545293
 30
0.0
 40
2.0
100
AcDbArc
 50
270.0
 51
0.0
  0
POINT
  5
41A
100
AcDbEntity
  8
0
370
    -3
  6
CENTER
100
AcDbPoint
 10
471.923863
 20
241.876242
 30
0.0
  0
LINE
  5
41B
100
AcDbEntity
  8
0
370
    -3
  6
Continuous
100
AcDbLine
 10
470.089842
 20
237.545293
 30
0.0
 11
451.663902
 21
237.545293
 31
0.0
  0
LINE
  5
41C
100
AcDbEntity
  8
0
370
    -3
  6
Continuous
100
AcDbLine
 10
472.089842
 20
254.545293
 30
0.0
 11
472.089842
 21
239.545293
 31
0.0
  0
LINE
  5
41D
100
AcDbEntity
  8
0
370
    -3
  6
Continuous
100
AcDbLine
 10
358.570699
 20
294.045293
 30
0.0
 11
360.478419
 21
292.045293
 31
0.0
  0
LINE
  5
41E
100
AcDbEntity
  8
0
370
    -3
  6
Continuous
100
AcDbLine
 10
356.853188
 20
296.045293
 30
0.0
 11
358.570699
 21
294.045293
 31
0.0
  0
LINE
  5
41F
100
AcDbEntity
  8
0
370
    -3
  6
Continuous
100
AcDbLine
 10
358.570699
 20
294.045293
 30
0.0
 11
356.853188
 21
292.045293
 31
0.0
  0
LINE
  5
420
100
AcDbEntity
  8
0
370
    -3
  6
Continuous
100
AcDbLine
 10
360.478419
 20
296.045293
 30
0.0
 11
358.570699
 21
294.045293
 31
0.0
  0
ARC
  5
421
100
AcDbEntity
  8
0
370
    -3
  6
Continuous
100
AcDbCircle
 10
380.663889
 20
283.095293
 30
0.0
 40
10.0
100
AcDbArc
 50
90.0
 51
180.0
  0
ARC
  5
422
100
AcDbEntity
  8
0
370
    -3
  6
Continuous
100
AcDbCircle
 10
364.010482
 20
279.092284
 30
0.0
 40
3.8
100
AcDbArc
 50
138.14922
 51
180.0
  0
LINE
  5
423
100
AcDbEntity
  8
0
370
    -3
  6
Continuous
100
AcDbLine
 10
370.318747
 20
291.830626
 30
0.0
 11
361.179919
 21
281.627617
 31
0.0
  0
ARC
  5
424
100
AcDbEntity
  8
0
370
    -3
  6
Continuous
100
AcDbCircle
 10
373.14931
 20
289.295293
 30
0.0
 40
3.8
100
AcDbArc
 50
90.0
 51
138.14922
  0
ARC
  5
425
100
AcDbEntity
  8
0
370
    -3
  6
Continuous
100
AcDbCircle
 10
380.663889
 20
225.995293
 30
0.0
 40
10.0
100
AcDbArc
 50
180.0
 51
270.0
  0
ARC
  5
426
100
AcDbEntity
  8
0
370
    -3
  6
Continuous
100
AcDbCircle
 10
364.010482
 20
229.998302
 30
0.0
 40
3.8
100
AcDbArc
 50
180.0
 51
221.85078
  0
LINE
  5
427
100
AcDbEntity
  8
0
370
    -3
  6
Continuous
100
AcDbLine
 10
370.318747
 20
217.25996
 30
0.0
 11
361.179919
 21
227.462969
 31
0.0
  0
ARC
  5
428
100
AcDbEntity
  8
0
370
    -3
  6
Continuous
100
AcDbCircle
 10
373.14931
 20
219.795293
 30
0.0
 40
3.8
100
AcDbArc
 50
221.85078
 51
270.0
  0
LINE
  5
429
100
AcDbEntity
  8
0
370
    -3
  6
Continuous
100
AcDbLine
 10
428.645366
 20
215.995293
 30
0.0
 11
373.14931
 21
215.995293
 31
0.0
  0
LINE
  5
42A
100
AcDbEntity
  8
0
370
    -3
  6
Continuous
100
AcDbLine
 10
441.044708
 20
215.045293
 30
0.0
 11
442.952427
 21
217.045293
 31
0.0
  0
LINE
  5
42B
100
AcDbEntity
  8
0
370
    -3
  6
Continuous
100
AcDbLine
 10
439.327196
 20
213.045293
 30
0.0
 11
441.044708
 21
215.045293
 31
0.0
  0
LINE
  5
42C
100
AcDbEntity
  8
0
370
    -3
  6
Continuous
100
AcDbLine
 10
441.044708
 20
215.045293
 30
0.0
 11
439.327196
 21
217.045293
 31
0.0
  0
LINE
  5
42D
100
AcDbEntity
  8
0
370
    -3
  6
Continuous
100
AcDbLine
 10
442.952427
 20
213.045293
 30
0.0
 11
441.044708
 21
215.045293
 31
0.0
  0
ELLIPSE
  5
42E
100
AcDbEntity
  8
0
370
    -3
  6
Continuous
100
AcDbEllipse
 10
441.875738
 20
215.045293
 30
0.0
 11
-0.0000000000002274
 21
3.5
 31
0.0
210
0.0
220
0.0
230
1.0
 40
0.982815
 41
0.0
 42
6.2831853071795862
  0
ARC
  5
42F
100
AcDbEntity
  8
0
370
    -3
  6
Continuous
100
AcDbCircle
 10
437.622101
 20
229.980831
 30
0.0
 40
3.8
100
AcDbArc
 50
318.609573
 51
0.0
  0
LINE
  5
430
100
AcDbEntity
  8
0
370
    -3
  6
Continuous
100
AcDbLine
 10
431.496208
 20
217.282784
 30
0.0
 11
440.472943
 21
227.468322
 31
0.0
  0
ARC
  5
431
100
AcDbEntity
  8
0
370
    -3
  6
Continuous
100
AcDbCircle
 10
428.645366
 20
219.795293
 30
0.0
 40
3.8
100
AcDbArc
 50
270.0
 51
318.609573
  0
LINE
  5
432
100
AcDbEntity
  8
0
370
    -3
  6
Continuous
100
AcDbLine
 10
449.212716
 20
254.545293
 30
0.0
 11
449.212716
 21
215.545293
 31
0.0
  0
LINE
  5
433
100
AcDbEntity
  8
0
370
    -3
  6
Continuous
100
AcDbLine
 10
451.663902
 20
254.545293
 30
0.0
 11
451.663902
 21
215.545293
 31
0.0
  0
ARC
  5
434
100
AcDbEntity
  8
0
370
    -3
  6
Continuous
100
AcDbCircle
 10
441.412716
 20
215.545293
 30
0.0
 40
7.8
100
AcDbArc
 50
270.0
 51
0.0
  0
ARC
  5
435
100
AcDbEntity
  8
0
370
    -3
  6
Continuous
100
AcDbCircle
 10
443.863902
 20
215.545293
 30
0.0
 40
7.8
100
AcDbArc
 50
270.0
 51
0.0
  0
LINE
  5
436
100
AcDbEntity
  8
0
370
    -3
  6
Continuous
100
AcDbLine
 10
360.992373
 20
207.745293
 30
0.0
 11
443.863902
 21
207.745293
 31
0.0
  0
LINE
  5
437
100
AcDbEntity
  8
0
370
    -3
  6
Continuous
100
AcDbLine
 10
370.663889
 20
254.545293
 30
0.0
 11
370.663889
 21
225.995293
 31
0.0
  0
LINE
  5
438
100
AcDbEntity
  8
0
370
    -3
  6
Continuous
100
AcDbLine
 10
360.210482
 20
254.545293
 30
0.0
 11
360.210482
 21
229.998302
 31
0.0
  0
LINE
  5
439
100
AcDbEntity
  8
0
370
    -3
  6
Continuous
100
AcDbLine
 10
353.192373
 20
254.545293
 30
0.0
 11
353.192373
 21
215.545293
 31
0.0
  0
LINE
  5
43A
100
AcDbEntity
  8
0
370
    -3
  6
Continuous
100
AcDbLine
 10
370.663889
 20
254.545293
 30
0.0
 11
370.663889
 21
283.095293
 31
0.0
  0
LINE
  5
43B
100
AcDbEntity
  8
0
370
    -3
  6
Continuous
100
AcDbLine
 10
360.210482
 20
254.545293
 30
0.0
 11
360.210482
 21
279.092284
 31
0.0
  0
LINE
  5
43C
100
AcDbEntity
  8
0
370
    -3
  6
Continuous
100
AcDbLine
 10
353.192373
 20
254.545293
 30
0.0
 11
353.192373
 21
293.545293
 31
0.0
  0
LINE
  5
43D
100
AcDbEntity
  8
0
370
    -3
  6
CENTER
100
AcDbLine
 10
398.089842
 20
310.910881
 30
0.0
 11
398.089842
 21
197.503284
 31
0.0
  0
LINE
  5
43E
100
AcDbEntity
  8
0
370
    -3
  6
Continuous
100
AcDbLine
 10
441.044708
 20
294.045293
 30
0.0
 11
442.952427
 21
292.045293
 31
0.0
  0
LINE
  5
43F
100
AcDbEntity
  8
0
370
    -3
  6
Continuous
100
AcDbLine
 10
439.327196
 20
296.045293
 30
0.0
 11
441.044708
 21
294.045293
 31
0.0
  0
LINE
  5
440
100
AcDbEntity
  8
0
370
    -3
  6
Continuous
100
AcDbLine
 10
441.044708
 20
294.045293
 30
0.0
 11
439.327196
 21
292.045293
 31
0.0
  0
LINE
  5
441
100
AcDbEntity
  8
0
370
    -3
  6
Continuous
100
AcDbLine
 10
442.952427
 20
296.045293
 30
0.0
 11
441.044708
 21
294.045293
 31
0.0
  0
ELLIPSE
  5
442
100
AcDbEntity
  8
0
370
    -3
  6
Continuous
100
AcDbEllipse
 10
441.875738
 20
294.045293
 30
0.0
 11
0.0
 21
3.5
 31
0.0
210
0.0
220
0.0
230
1.0
 40
0.982815
 41
0.0
 42
6.2831853071795862
  0
ARC
  5
443
100
AcDbEntity
  8
0
370
    -3
  6
Continuous
100
AcDbCircle
 10
437.622101
 20
279.109756
 30
0.0
 40
3.8
100
AcDbArc
 50
0.0
 51
41.390427
  0
LINE
  5
444
100
AcDbEntity
  8
0
370
    -3
  6
Continuous
100
AcDbLine
 10
431.496208
 20
291.807802
 30
0.0
 11
440.472943
 21
281.622264
 31
0.0
  0
ARC
  5
445
100
AcDbEntity
  8
0
370
    -3
  6
Continuous
100
AcDbCircle
 10
428.645366
 20
289.295293
 30
0.0
 40
3.8
100
AcDbArc
 50
41.390427
 51
90.0
  0
LINE
  5
446
100
AcDbEntity
  8
0
370
    -3
  6
Continuous
100
AcDbLine
 10
428.645366
 20
293.095293
 30
0.0
 11
373.14931
 21
293.095293
 31
0.0
  0
LINE
  5
447
100
AcDbEntity
  8
0
370
    -3
  6
Continuous
100
AcDbLine
 10
449.212716
 20
254.545293
 30
0.0
 11
449.212716
 21
293.545293
 31
0.0
  0
LINE
  5
448
100
AcDbEntity
  8
0
370
    -3
  6
Continuous
100
AcDbLine
 10
451.663902
 20
254.545293
 30
0.0
 11
451.663902
 21
293.545293
 31
0.0
  0
ARC
  5
449
100
AcDbEntity
  8
0
370
    -3
  6
Continuous
100
AcDbCircle
 10
441.412716
 20
293.545293
 30
0.0
 40
7.8
100
AcDbArc
 50
0.0
 51
90.0
  0
ARC
  5
44A
100
AcDbEntity
  8
0
370
    -3
  6
Continuous
100
AcDbCircle
 10
443.863902
 20
293.545293
 30
0.0
 40
7.8
100
AcDbArc
 50
0.0
 51
90.0
  0
LINE
  5
44B
100
AcDbEntity
  8
0
370
    -3
  6
Continuous
100
AcDbLine
 10
441.422101
 20
279.109756
 30
0.0
 11
441.422101
 21
229.980831
 31
0.0
  0
ARC
  5
44C
100
AcDbEntity
  8
0
370
    -3
  6
Continuous
100
AcDbCircle
 10
693.089843
 20
-10.458289
 30
0.0
 40
12.0585
100
AcDbArc
 50
270.0
 51
90.0
  0
ARC
  5
44D
100
AcDbEntity
  8
0
370
    -3
  6
Continuous
100
AcDbCircle
 10
693.089843
 20
-10.458289
 30
0.0
 40
13.2205
100
AcDbArc
 50
270.0
 51
90.0
  0
ARC
  5
44E
100
AcDbEntity
  8
0
370
    -3
  6
Continuous
100
AcDbCircle
 10
693.089843
 20
-10.458289
 30
0.0
 40
17.0
100
AcDbArc
 50
270.0
 51
90.0
  0
ARC
  5
44F
100
AcDbEntity
  8
0
370
    -3
  6
Continuous
100
AcDbCircle
 10
654.089843
 20
-26.902766
 30
0.0
 40
7.8
100
AcDbArc
 50
180.0
 51
270.0
  0
LINE
  5
450
100
AcDbEntity
  8
0
370
    -3
  6
Continuous
100
AcDbLine
 10
647.089843
 20
3.010246
 30
0.0
 11
647.089843
 21
-27.364671
 31
0.0
  0
ARC
  5
451
100
AcDbEntity
  8
0
370
    -3
  6
Continuous
100
AcDbCircle
 10
654.089843
 20
3.010246
 30
0.0
 40
7.0
100
AcDbArc
 50
90.0
 51
180.0
  0
ARC
  5
452
100
AcDbEntity
  8
0
370
    -3
  6
Continuous
100
AcDbCircle
 10
654.089843
 20
2.548341
 30
0.0
 40
7.8
100
AcDbArc
 50
90.0
 51
180.0
  0
ARC
  5
453
100
AcDbEntity
  8
0
370
    -3
  6
Continuous
100
AcDbCircle
 10
654.089843
 20
7.212859
 30
0.0
 40
7.8
100
AcDbArc
 50
90.0
 51
180.0
  0
ELLIPSE
  5
454
100
AcDbEntity
  8
0
370
    -3
  6
Continuous
100
AcDbEllipse
 10
653.589843
 20
13.127451
 30
0.0
 11
3.5
 21
0.0
 31
0.0
210
0.0
220
0.0
230
1.0
 40
0.656603
 41
0.9621393645107007
 42
2.7085416781366591
  0
LINE
  5
455
100
AcDbEntity
  8
0
370
    -3
  6
Continuous
100
AcDbLine
 10
646.289843
 20
7.212859
 30
0.0
 11
646.289843
 21
-26.902766
 31
0.0
  0
LINE
  5
456
100
AcDbEntity
  8
0
370
    -3
  6
Continuous
100
AcDbLine
 10
693.089843
 20
10.010246
 30
0.0
 11
654.089843
 21
10.010246
 31
0.0
  0
LINE
  5
457
100
AcDbEntity
  8
0
370
    -3
  6
Continuous
100
AcDbLine
 10
654.089843
 20
15.012859
 30
0.0
 11
693.089843
 21
15.012859
 31
0.0
  0
LINE
  5
458
100
AcDbEntity
  8
0
370
    -3
  6
Continuous
100
AcDbLine
 10
693.089843
 20
-37.458289
 30
0.0
 11
662.089843
 21
-37.458289
 31
0.0
  0
LINE
  5
459
100
AcDbEntity
  8
0
370
    -3
  6
Continuous
100
AcDbLine
 10
662.089843
 20
-36.458289
 30
0.0
 11
693.089843
 21
-36.458289
 31
0.0
  0
LINE
  5
45A
100
AcDbEntity
  8
0
370
    -3
  6
Continuous
100
AcDbLine
 10
662.089843
 20
-37.458289
 30
0.0
 11
662.089843
 21
-36.458289
 31
0.0
  0
ARC
  5
45B
100
AcDbEntity
  8
0
370
    -3
  6
Continuous
100
AcDbCircle
 10
654.089843
 20
-27.364671
 30
0.0
 40
7.0
100
AcDbArc
 50
180.0
 51
270.0
  0
LINE
  5
45C
100
AcDbEntity
  8
0
370
    -3
  6
Continuous
100
AcDbLine
 10
693.089843
 20
-36.458289
 30
0.0
 11
665.089843
 21
-36.458289
 31
0.0
  0
LINE
  5
45D
100
AcDbEntity
  8
0
370
    -3
  6
Continuous
100
AcDbLine
 10
693.089843
 20
8.777623
 30
0.0
 11
667.03081
 21
8.777623
 31
0.0
  0
LINE
  5
45E
100
AcDbEntity
  8
0
370
    -3
  6
Continuous
100
AcDbLine
 10
653.789843
 20
-28.658289
 30
0.0
 11
653.789843
 21
0.974569
 31
0.0
  0
LINE
  5
45F
100
AcDbEntity
  8
0
370
    -3
  6
Continuous
100
AcDbLine
 10
665.547413
 20
8.476127
 30
0.0
 11
656.106446
 21
4.473074
 31
0.0
  0
ARC
  5
460
100
AcDbEntity
  8
0
370
    -3
  6
Continuous
100
AcDbCircle
 10
667.03081
 20
4.977623
 30
0.0
 40
3.8
100
AcDbArc
 50
90.0
 51
112.977375
  0
ARC
  5
461
100
AcDbEntity
  8
0
370
    -3
  6
Continuous
100
AcDbCircle
 10
657.589843
 20
0.974569
 30
0.0
 40
3.8
100
AcDbArc
 50
112.977375
 51
180.0
  0
LINE
  5
462
100
AcDbEntity
  8
0
370
    -3
  6
Continuous
100
AcDbLine
 10
693.089843
 20
-35.458289
 30
0.0
 11
660.589843
 21
-35.458289
 31
0.0
  0
ARC
  5
463
100
AcDbEntity
  8
0
370
    -3
  6
Continuous
100
AcDbCircle
 10
660.589843
 20
-28.658289
 30
0.0
 40
6.8
100
AcDbArc
 50
180.0
 51
270.0
  0
LINE
  5
464
100
AcDbEntity
  8
0
370
    -3
  6
Continuous
100
AcDbLine
 10
654.638654
 20
-31.948176
 30
0.0
 11
653.589843
 21
-31.948176
 31
0.0
  0
ARC
  5
465
100
AcDbEntity
  8
0
370
    -3
  6
Continuous
100
AcDbCircle
 10
653.589843
 20
-25.948176
 30
0.0
 40
6.0
100
AcDbArc
 50
180.0
 51
270.0
  0
ARC
  5
466
100
AcDbEntity
  8
0
370
    -3
  6
Continuous
100
AcDbCircle
 10
663.824932
 20
-35.758289
 30
0.0
 40
0.3
100
AcDbArc
 50
13.342364
 51
90.0
  0
ARC
  5
467
100
AcDbEntity
  8
0
370
    -3
  6
Continuous
100
AcDbCircle
 10
665.089843
 20
-35.458289
 30
0.0
 40
1.0
100
AcDbArc
 50
193.342364
 51
270.0
  0
LINE
  5
468
100
AcDbEntity
  8
0
370
    -3
  6
CENTER
100
AcDbLine
 10
653.589843
 20
6.652975
 30
0.0
 11
653.589843
 21
11.097733
 31
0.0
  0
LINE
  5
469
100
AcDbEntity
  8
0
370
    -3
  6
CENTER
100
AcDbLine
 10
650.724984
 20
9.045796
 30
0.0
 11
656.336374
 21
9.045796
 31
0.0
  0
ELLIPSE
  5
46A
100
AcDbEntity
  8
0
370
    -3
  6
Continuous
100
AcDbEllipse
 10
653.589843
 20
9.045796
 30
0.0
 11
-1.6499999999999773
 21
0.0000000000000089
 31
0.0
210
0.0
220
0.0
230
1.0
 40
0.422618
 41
0.0
 42
6.2831853071795862
  0
ELLIPSE
  5
46B
100
AcDbEntity
  8
0
370
    -3
  6
Continuous
100
AcDbEllipse
 10
653.589843
 20
9.045796
 30
0.0
 11
-2.0
 21
0.0000000000000107
 31
0.0
210
0.0
220
0.0
230
1.0
 40
0.422618
 41
0.0
 42
6.2831853071795862
  0
LINE
  5
46C
100
AcDbEntity
  8
0
370
    -3
  6
Continuous
100
AcDbLine
 10
656.891573
 20
-34.364671
 30
0.0
 11
654.089843
 21
-34.364671
 31
0.0
  0
LINE
  5
46D
100
AcDbEntity
  8
0
370
    -3
  6
Continuous
100
AcDbLine
 10
654.089843
 20
-34.702766
 30
0.0
 11
657.47467
 21
-34.702766
 31
0.0
  0
LINE
  5
46E
100
AcDbEntity
  8
0
370
    -3
  6
Continuous
100
AcDbLine
 10
647.589843
 20
-25.948176
 30
0.0
 11
647.589843
 21
5.608323
 31
0.0
  0
LINE
  5
46F
100
AcDbEntity
  8
0
370
    -3
  6
Continuous
100
AcDbLine
 10
693.089843
 20
10.348341
 30
0.0
 11
654.089843
 21
10.348341
 31
0.0
  0
LINE
  5
470
100
AcDbEntity
  8
0
370
    -3
  6
CENTER
100
AcDbLine
 10
711.734775
 20
-10.458289
 30
0.0
 11
671.789386
 21
-10.458289
 31
0.0
  0
ARC
  5
471
100
AcDbEntity
  8
0
370
    -3
  6
Continuous
100
AcDbCircle
 10
732.089843
 20
-26.902766
 30
0.0
 40
7.8
100
AcDbArc
 50
270.0
 51
0.0
  0
LINE
  5
472
100
AcDbEntity
  8
0
370
    -3
  6
Continuous
100
AcDbLine
 10
739.089843
 20
3.010246
 30
0.0
 11
739.089843
 21
-27.364671
 31
0.0
  0
ARC
  5
473
100
AcDbEntity
  8
0
370
    -3
  6
Continuous
100
AcDbCircle
 10
732.089843
 20
3.010246
 30
0.0
 40
7.0
100
AcDbArc
 50
0.0
 51
90.0
  0
ARC
  5
474
100
AcDbEntity
  8
0
370
    -3
  6
Continuous
100
AcDbCircle
 10
732.089843
 20
2.548341
 30
0.0
 40
7.8
100
AcDbArc
 50
0.0
 51
90.0
  0
ARC
  5
475
100
AcDbEntity
  8
0
370
    -3
  6
Continuous
100
AcDbCircle
 10
732.089843
 20
7.212859
 30
0.0
 40
7.8
100
AcDbArc
 50
0.0
 51
90.0
  0
ELLIPSE
  5
476
100
AcDbEntity
  8
0
370
    -3
  6
Continuous
100
AcDbEllipse
 10
732.589843
 20
13.127451
 30
0.0
 11
3.5
 21
0.0
 31
0.0
210
0.0
220
0.0
230
1.0
 40
0.656603
 41
0.4330509754534933
 42
2.1794532890790927
  0
LINE
  5
477
100
AcDbEntity
  8
0
370
    -3
  6
Continuous
100
AcDbLine
 10
739.889843
 20
7.212859
 30
0.0
 11
739.889843
 21
-26.902766
 31
0.0
  0
LINE
  5
478
100
AcDbEntity
  8
0
370
    -3
  6
Continuous
100
AcDbLine
 10
693.089843
 20
10.010246
 30
0.0
 11
732.089843
 21
10.010246
 31
0.0
  0
LINE
  5
479
100
AcDbEntity
  8
0
370
    -3
  6
Continuous
100
AcDbLine
 10
732.089843
 20
15.012859
 30
0.0
 11
693.089843
 21
15.012859
 31
0.0
  0
LINE
  5
47A
100
AcDbEntity
  8
0
370
    -3
  6
Continuous
100
AcDbLine
 10
693.089843
 20
-37.458289
 30
0.0
 11
724.089843
 21
-37.458289
 31
0.0
  0
LINE
  5
47B
100
AcDbEntity
  8
0
370
    -3
  6
Continuous
100
AcDbLine
 10
724.089843
 20
-36.458289
 30
0.0
 11
693.089843
 21
-36.458289
 31
0.0
  0
LINE
  5
47C
100
AcDbEntity
  8
0
370
    -3
  6
Continuous
100
AcDbLine
 10
724.089843
 20
-37.458289
 30
0.0
 11
724.089843
 21
-36.458289
 31
0.0
  0
ARC
  5
47D
100
AcDbEntity
  8
0
370
    -3
  6
Continuous
100
AcDbCircle
 10
732.089843
 20
-27.364671
 30
0.0
 40
7.0
100
AcDbArc
 50
270.0
 51
0.0
  0
LINE
  5
47E
100
AcDbEntity
  8
0
370
    -3
  6
Continuous
100
AcDbLine
 10
693.089843
 20
-36.458289
 30
0.0
 11
721.089843
 21
-36.458289
 31
0.0
  0
LINE
  5
47F
100
AcDbEntity
  8
0
370
    -3
  6
Continuous
100
AcDbLine
 10
693.089843
 20
8.777623
 30
0.0
 11
719.148876
 21
8.777623
 31
0.0
  0
LINE
  5
480
100
AcDbEntity
  8
0
370
    -3
  6
Continuous
100
AcDbLine
 10
732.389843
 20
-28.658289
 30
0.0
 11
732.389843
 21
0.974569
 31
0.0
  0
LINE
  5
481
100
AcDbEntity
  8
0
370
    -3
  6
Continuous
100
AcDbLine
 10
720.632273
 20
8.476127
 30
0.0
 11
730.07324
 21
4.473074
 31
0.0
  0
ARC
  5
482
100
AcDbEntity
  8
0
370
    -3
  6
Continuous
100
AcDbCircle
 10
719.148876
 20
4.977623
 30
0.0
 40
3.8
100
AcDbArc
 50
67.022625
 51
90.0
  0
ARC
  5
483
100
AcDbEntity
  8
0
370
    -3
  6
Continuous
100
AcDbCircle
 10
728.589843
 20
0.974569
 30
0.0
 40
3.8
100
AcDbArc
 50
0.0
 51
67.022625
  0
LINE
  5
484
100
AcDbEntity
  8
0
370
    -3
  6
Continuous
100
AcDbLine
 10
693.089843
 20
-35.458289
 30
0.0
 11
725.589843
 21
-35.458289
 31
0.0
  0
ARC
  5
485
100
AcDbEntity
  8
0
370
    -3
  6
Continuous
100
AcDbCircle
 10
725.589843
 20
-28.658289
 30
0.0
 40
6.8
100
AcDbArc
 50
270.0
 51
0.0
  0
LINE
  5
486
100
AcDbEntity
  8
0
370
    -3
  6
Continuous
100
AcDbLine
 10
731.541032
 20
-31.948176
 30
0.0
 11
732.589843
 21
-31.948176
 31
0.0
  0
ARC
  5
487
100
AcDbEntity
  8
0
370
    -3
  6
Continuous
100
AcDbCircle
 10
732.589843
 20
-25.948176
 30
0.0
 40
6.0
100
AcDbArc
 50
270.0
 51
0.0
  0
ARC
  5
488
100
AcDbEntity
  8
0
370
    -3
  6
Continuous
100
AcDbCircle
 10
722.354754
 20
-35.758289
 30
0.0
 40
0.3
100
AcDbArc
 50
90.0
 51
166.657636
  0
ARC
  5
489
100
AcDbEntity
  8
0
370
    -3
  6
Continuous
100
AcDbCircle
 10
721.089843
 20
-35.458289
 30
0.0
 40
1.0
100
AcDbArc
 50
270.0
 51
346.657636
  0
LINE
  5
48A
100
AcDbEntity
  8
0
370
    -3
  6
CENTER
100
AcDbLine
 10
732.589843
 20
6.652975
 30
0.0
 11
732.589843
 21
11.097733
 31
0.0
  0
LINE
  5
48B
100
AcDbEntity
  8
0
370
    -3
  6
CENTER
100
AcDbLine
 10
735.454702
 20
9.045796
 30
0.0
 11
729.843312
 21
9.045796
 31
0.0
  0
ELLIPSE
  5
48C
100
AcDbEntity
  8
0
370
    -3
  6
Continuous
100
AcDbEllipse
 10
732.589843
 20
9.045796
 30
0.0
 11
1.6499999999999773
 21
0.0000000000000089
 31
0.0
210
0.0
220
0.0
230
1.0
 40
0.422618
 41
0.0
 42
6.2831853071795862
  0
ELLIPSE
  5
48D
100
AcDbEntity
  8
0
370
    -3
  6
Continuous
100
AcDbEllipse
 10
732.589843
 20
9.045796
 30
0.0
 11
2.0
 21
0.0000000000000107
 31
0.0
210
0.0
220
0.0
230
1.0
 40
0.422618
 41
0.0
 42
6.2831853071795862
  0
LINE
  5
48E
100
AcDbEntity
  8
0
370
    -3
  6
Continuous
100
AcDbLine
 10
729.288113
 20
-34.364671
 30
0.0
 11
732.089843
 21
-34.364671
 31
0.0
  0
LINE
  5
48F
100
AcDbEntity
  8
0
370
    -3
  6
Continuous
100
AcDbLine
 10
732.089843
 20
-34.702766
 30
0.0
 11
728.705016
 21
-34.702766
 31
0.0
  0
LINE
  5
490
100
AcDbEntity
  8
0
370
    -3
  6
Continuous
100
AcDbLine
 10
738.589843
 20
-25.948176
 30
0.0
 11
738.589843
 21
5.608323
 31
0.0
  0
LINE
  5
491
100
AcDbEntity
  8
0
370
    -3
  6
Continuous
100
AcDbLine
 10
693.089843
 20
10.348341
 30
0.0
 11
732.089843
 21
10.348341
 31
0.0
  0
ARC
  5
492
100
AcDbEntity
  8
0
370
    -3
  6
Continuous
100
AcDbCircle
 10
693.089843
 20
-10.458289
 30
0.0
 40
17.0
100
AcDbArc
 50
90.0
 51
270.0
  0
ARC
  5
493
100
AcDbEntity
  8
0
370
    -3
  6
Continuous
100
AcDbCircle
 10
693.089843
 20
-10.458289
 30
0.0
 40
12.0585
100
AcDbArc
 50
90.0
 51
270.0
  0
ARC
  5
494
100
AcDbEntity
  8
0
370
    -3
  6
Continuous
100
AcDbCircle
 10
693.089843
 20
-10.458289
 30
0.0
 40
13.2205
100
AcDbArc
 50
90.0
 51
270.0
  0
LINE
  5
495
100
AcDbEntity
  8
0
370
    -3
  6
Continuous
100
AcDbLine
 10
666.258472
 20
-28.658289
 30
0.0
 11
666.258472
 21
8.698307
 31
0.0
  0
ARC
  5
496
100
AcDbEntity
  8
0
370
    -3
  6
Continuous
100
AcDbCircle
 10
673.058472
 20
-28.658289
 30
0.0
 40
6.8
100
AcDbArc
 50
180.0
 51
270.0
  0
ARC
  5
497
100
AcDbEntity
  8
0
370
    -3
  6
Continuous
100
AcDbCircle
 10
713.121214
 20
-28.658289
 30
0.0
 40
6.8
100
AcDbArc
 50
270.0
 51
0.0
  0
LINE
  5
498
100
AcDbEntity
  8
0
370
    -3
  6
Continuous
100
AcDbLine
 10
719.921214
 20
-28.658289
 30
0.0
 11
719.921214
 21
8.698307
 31
0.0
  0
LINE
  5
499
100
AcDbEntity
  8
0
370
    -3
  6
Continuous
100
AcDbLine
 10
662.089843
 20
-37.458289
 30
0.0
 11
662.089843
 21
-39.058289
 31
0.0
  0
ARC
  5
49A
100
AcDbEntity
  8
0
370
    -3
  6
Continuous
100
AcDbCircle
 10
666.489843
 20
-41.058289
 30
0.0
 40
2.0
100
AcDbArc
 50
0.0
 51
90.0
  0
LINE
  5
49B
100
AcDbEntity
  8
0
370
    -3
  6
Continuous
100
AcDbLine
 10
662.089843
 20
-39.058289
 30
0.0
 11
666.489843
 21
-39.058289
 31
0.0
  0
LINE
  5
49C
100
AcDbEntity
  8
0
370
    -3
  6
Continuous
100
AcDbLine
 10
668.489843
 20
-41.058289
 30
0.0
 11
668.489843
 21
-47.166525
 31
0.0
  0
LINE
  5
49D
100
AcDbEntity
  8
0
370
    -3
  6
Continuous
100
AcDbLine
 10
724.089843
 20
-37.458289
 30
0.0
 11
724.089843
 21
-39.058289
 31
0.0
  0
LINE
  5
49E
100
AcDbEntity
  8
0
370
    -3
  6
Continuous
100
AcDbLine
 10
719.689843
 20
-39.058289
 30
0.0
 11
724.089843
 21
-39.058289
 31
0.0
  0
ARC
  5
49F
100
AcDbEntity
  8
0
370
    -3
  6
Continuous
100
AcDbCircle
 10
719.689843
 20
-41.058289
 30
0.0
 40
2.0
100
AcDbArc
 50
90.0
 51
180.0
  0
LINE
  5
4A0
100
AcDbEntity
  8
0
370
    -3
  6
Continuous
100
AcDbLine
 10
717.689843
 20
-41.058289
 30
0.0
 11
717.689843
 21
-47.166525
 31
0.0
  0
ENDSEC
  0
SECTION
  2
OBJECTS
  0
DICTIONARY
  5
19
100
AcDbDictionary
280
     0
281
     1
  3
ACAD_GROUP
350
1A
  3
ACAD_MLINESTYLE
350
1B
  3
ACAD_LAYOUT
350
1E
  3
ACAD_PLOTSETTINGS
350
22
  3
ACAD_PLOTSTYLENAME
350
1F
  3
ACAD_WIPEOUT_VARS
350
23
  3
DWGPROPS
350
4A1
  0
DICTIONARY
  5
1A
102
{ACAD_REACTORS
330
19
102
}
100
AcDbDictionary
280
     0
281
     1
  0
DICTIONARY
  5
1B
102
{ACAD_REACTORS
330
19
102
}
100
AcDbDictionary
280
     0
281
     1
  3
Standard
350
1C
  0
MLINESTYLE
  5
1C
102
{ACAD_REACTORS
330
1B
102
}
100
AcDbMlineStyle
  2
Standard
 70
     0
  3

 62
     0
 51
90.0
 52
90.0
 71
     2
 49
0.5
 62
   256
  6
ByLayer
 49
-0.5
 62
   256
  6
ByLayer
  0
ACDBDICTIONARYWDFLT
  5
1F
102
{ACAD_REACTORS
330
19
102
}
100
AcDbDictionary
281
     1
  3
Normal
350
1D
100
AcDbDictionaryWithDefault
340
1D
  0
ACDBPLACEHOLDER
  5
1D
102
{ACAD_REACTORS
330
1F
102
}
  0
LAYOUT
  5
20
102
{ACAD_REACTORS
330
1E
102
}
100
AcDbPlotSettings
  1

  2

  4

  6

 40
0.0
 41
0.0
 42
0.0
 43
0.0
 44
0.0
 45
0.0
 46
0.0
 47
0.0
 48
0.0
 49
0.0
140
0.0
141
0.0
142
1.0
143
1.0
 70
  1024
 72
     0
 73
     0
 74
     0
  7

 75
     0
147
1.0
148
0.0
149
0.0
100
AcDbLayout
  1
Model
 70
     0
 71
     0
 10
0.0
 20
0.0
 11
0.0
 21
0.0
 12
0.0
 22
0.0
 32
0.0
 14
0.0
 24
0.0
 34
0.0
 15
0.0
 25
0.0
 35
0.0
146
0.0
 13
0.0
 23
0.0
 33
0.0
 16
0.0
 26
0.0
 36
0.0
 17
0.0
 27
0.0
 37
0.0
 76
     0
330
A
331
0
345
0
346
0
  0
LAYOUT
  5
21
102
{ACAD_REACTORS
330
1E
102
}
100
AcDbPlotSettings
  1

  2

  4

  6

 40
0.0
 41
0.0
 42
0.0
 43
0.0
 44
0.0
 45
0.0
 46
0.0
 47
0.0
 48
0.0
 49
0.0
140
0.0
141
0.0
142
1.0
143
1.0
 70
     0
 72
     0
 73
     0
 74
     0
  7

 75
     0
147
1.0
148
0.0
149
0.0
100
AcDbLayout
  1
Layout1
 70
     0
 71
     0
 10
0.0
 20
0.0
 11
0.0
 21
0.0
 12
0.0
 22
0.0
 32
0.0
 14
0.0
 24
0.0
 34
0.0
 15
0.0
 25
0.0
 35
0.0
146
0.0
 13
0.0
 23
0.0
 33
0.0
 16
0.0
 26
0.0
 36
0.0
 17
0.0
 27
0.0
 37
0.0
 76
     0
330
B
331
0
345
0
346
0
  0
DICTIONARY
  5
1E
102
{ACAD_REACTORS
330
19
102
}
100
AcDbDictionary
280
     0
281
     1
  3
Layout1
350
21
  3
Model
350
20
  0
DICTIONARY
  5
22
102
{ACAD_REACTORS
330
19
102
}
100
AcDbDictionary
280
     0
281
     1
  0
WIPEOUTVARIABLES
  5
23
100
AcDbWipeoutVariables
 70
     1
  0
XRECORD
  5
4A1
100
AcDbXrecord
280
     1
  1
DWGPROPS COOKIE
  2

  3

  4

  6

  7

  8
HK96464
  9

300
=
301
=
302
=
303
=
304
=
305
=
306
=
307
=
308
=
309
=
 40
0.0
 41
2455943.895127
 42
2455943.895127
  1

 90
        0
  0
ENDSEC
  0
EOF
