  0
SECTION
  2
HEADER
  9
$ACADVER
  1
AC1015
  9
$ACADMAINTVER
 70
     6
  9
$DWGCODEPAGE
  3
ANSI_932
  9
$INSBASE
 10
0.0
 20
0.0
 30
0.0
  9
$EXTMIN
 10
1.000000E+20
 20
1.000000E+20
 30
1.000000E+20
  9
$EXTMAX
 10
-1.000000E+20
 20
-1.000000E+20
 30
-1.000000E+20
  9
$LIMMIN
 10
0.0
 20
0.0
  9
$LIMMAX
 10
0.0
 20
0.0
  9
$ORTHOMODE
 70
     0
  9
$REGENMODE
 70
     1
  9
$FILLMODE
 70
     1
  9
$QTEXTMODE
 70
     0
  9
$MIRRTEXT
 70
     1
  9
$LTSCALE
 40
1.0
  9
$ATTMODE
 70
     1
  9
$TEXTSIZE
 40
7.0
  9
$TRACEWID
 40
0.05
  9
$TEXTSTYLE
  7
Standard
  9
$CLAYER
  8
0
  9
$CELTYPE
  6
Continuous
  9
$CECOLOR
 62
   256
  9
$CELTSCALE
 40
1.0
  9
$DISPSILH
 70
     0
  9
$DIMSCALE
 40
1.0
  9
$DIMASZ
 40
1.931852
  9
$DIMEXO
 40
1.0
  9
$DIMDLI
 40
0.38
  9
$DIMRND
 40
0.0
  9
$DIMDLE
 40
0.0
  9
$DIMEXE
 40
2.0
  9
$DIMTP
 40
0.0
  9
$DIMTM
 40
0.0
  9
$DIMTXT
 40
2.8
  9
$DIMCEN
 40
0.09
  9
$DIMTSZ
 40
0.0
  9
$DIMTOL
 70
     0
  9
$DIMLIM
 70
     0
  9
$DIMTIH
 70
     1
  9
$DIMTOH
 70
     1
  9
$DIMSE1
 70
     0
  9
$DIMSE2
 70
     0
  9
$DIMTAD
 70
     1
  9
$DIMZIN
 70
     0
  9
$DIMBLK
  1

  9
$DIMASO
 70
     1
  9
$DIMSHO
 70
     1
  9
$DIMPOST
  1

  9
$DIMAPOST
  1

  9
$DIMALT
 70
     0
  9
$DIMALTD
 70
     2
  9
$DIMALTF
 40
25.4
  9
$DIMLFAC
 40
1.0
  9
$DIMTOFL
 70
     0
  9
$DIMTVP
 40
0.0
  9
$DIMTIX
 70
     0
  9
$DIMSOXD
 70
     0
  9
$DIMSAH
 70
     0
  9
$DIMBLK1
  1

  9
$DIMBLK2
  1

  9
$DIMSTYLE
  2
Standard
  9
$DIMCLRD
 70
     0
  9
$DIMCLRE
 70
     0
  9
$DIMCLRT
 70
     0
  9
$DIMTFAC
 40
0.714286
  9
$DIMGAP
 40
0.09
  9
$DIMJUST
 70
     0
  9
$DIMSD1
 70
     0
  9
$DIMSD2
 70
     0
  9
$DIMTOLJ
 70
     1
  9
$DIMTZIN
 70
     0
  9
$DIMALTZ
 70
     0
  9
$DIMALTTZ
 70
     0
  9
$DIMUPT
 70
     0
  9
$DIMDEC
 70
     4
  9
$DIMTDEC
 70
     4
  9
$DIMALTU
 70
     2
  9
$DIMALTTD
 70
     2
  9
$DIMTXSTY
  7
Standard
  9
$DIMAUNIT
 70
     0
  9
$DIMADEC
 70
     0
  9
$DIMALTRND
 40
0.0
  9
$DIMAZIN
 70
     0
  9
$DIMDSEP
 70
     0
  9
$DIMATFIT
 70
     3
  9
$DIMFRAC
 70
     0
  9
$DIMLDRBLK
  1

  9
$DIMLUNIT
 70
     2
  9
$DIMLWD
 70
     0
  9
$DIMLWE
 70
     0
  9
$DIMTMOVE
 70
     0
  9
$LUNITS
 70
     2
  9
$LUPREC
 70
     3
  9
$SKETCHINC
 40
0.1
  9
$FILLETRAD
 40
0.0
  9
$AUNITS
 70
     0
  9
$AUPREC
 70
     0
  9
$MENU
  1
acad
  9
$ELEVATION
 40
0.0
  9
$PELEVATION
 40
0.0
  9
$THICKNESS
 40
0.0
  9
$LIMCHECK
 70
     0
  9
$CHAMFERA
 40
0.0
  9
$CHAMFERB
 40
0.0
  9
$CHAMFERC
 40
0.0
  9
$CHAMFERD
 40
0.0
  9
$SKPOLY
 70
     0
  9
$TDCREATE
 40
0.000000000
  9
$TDUCREATE
 40
0.000000000
  9
$TDUPDATE
 40
0.000000000
  9
$TDUUPDATE
 40
0.000000000
  9
$TDINDWG
 40
0.0000000000
  9
$TDUSRTIMER
 40
0.0000000000
  9
$USRTIMER
 70
     1
  9
$ANGBASE
 50
0.0
  9
$ANGDIR
 70
     0
  9
$PDMODE
 70
     0
  9
$PDSIZE
 40
0.0
  9
$PLINEWID
 40
0.0
  9
$SPLFRAME
 70
     0
  9
$SPLINETYPE
 70
     6
  9
$SPLINESEGS
 70
     8
  9
$HANDSEED
  5
489
  9
$SURFTAB1
 70
     6
  9
$SURFTAB2
 70
     6
  9
$SURFTYPE
 70
     6
  9
$SURFU
 70
     6
  9
$SURFV
 70
     6
  9
$UCSBASE
  2

  9
$UCSNAME
  2

  9
$UCSORG
 10
0.0
 20
0.0
 30
0.0
  9
$UCSXDIR
 10
1.0
 20
0.0
 30
0.0
  9
$UCSYDIR
 10
0.0
 20
1.0
 30
0.0
  9
$UCSORTHOREF
  2

  9
$UCSORTHOVIEW
 70
     0
  9
$UCSORGTOP
 10
0.0
 20
0.0
 30
0.0
  9
$UCSORGBOTTOM
 10
0.0
 20
0.0
 30
0.0
  9
$UCSORGLEFT
 10
0.0
 20
0.0
 30
0.0
  9
$UCSORGRIGHT
 10
0.0
 20
0.0
 30
0.0
  9
$UCSORGFRONT
 10
0.0
 20
0.0
 30
0.0
  9
$UCSORGBACK
 10
0.0
 20
0.0
 30
0.0
  9
$PUCSBASE
  2

  9
$PUCSNAME
  2

  9
$PUCSORG
 10
0.0
 20
0.0
 30
0.0
  9
$PUCSXDIR
 10
1.0
 20
0.0
 30
0.0
  9
$PUCSYDIR
 10
0.0
 20
1.0
 30
0.0
  9
$PUCSORTHOREF
  2

  9
$PUCSORTHOVIEW
 70
     0
  9
$PUCSORGTOP
 10
0.0
 20
0.0
 30
0.0
  9
$PUCSORGBOTTOM
 10
0.0
 20
0.0
 30
0.0
  9
$PUCSORGLEFT
 10
0.0
 20
0.0
 30
0.0
  9
$PUCSORGRIGHT
 10
0.0
 20
0.0
 30
0.0
  9
$PUCSORGFRONT
 10
0.0
 20
0.0
 30
0.0
  9
$PUCSORGBACK
 10
0.0
 20
0.0
 30
0.0
  9
$USERI1
 70
     0
  9
$USERI2
 70
     0
  9
$USERI3
 70
     0
  9
$USERI4
 70
     0
  9
$USERI5
 70
     0
  9
$USERR1
 40
0.0
  9
$USERR2
 40
0.0
  9
$USERR3
 40
0.0
  9
$USERR4
 40
0.0
  9
$USERR5
 40
0.0
  9
$WORLDVIEW
 70
     1
  9
$SHADEDGE
 70
     3
  9
$SHADEDIF
 70
    70
  9
$TILEMODE
 70
     1
  9
$MAXACTVP
 70
    16
  9
$PINSBASE
 10
0.0
 20
0.0
 30
0.0
  9
$PLIMCHECK
 70
     0
  9
$PEXTMIN
 10
1.000000E+20
 20
1.000000E+20
 30
1.000000E+20
  9
$PEXTMAX
 10
-1.000000E+20
 20
-1.000000E+20
 30
-1.000000E+20
  9
$PLIMMIN
 10
0.0
 20
0.0
  9
$PLIMMAX
 10
12.0
 20
9.0
  9
$UNITMODE
 70
     0
  9
$VISRETAIN
 70
     0
  9
$PLINEGEN
 70
     1
  9
$PSLTSCALE
 70
     0
  9
$TREEDEPTH
 70
  3020
  9
$CMLSTYLE
  2
Standard
  9
$CMLJUST
 70
     0
  9
$CMLSCALE
 40
1.0
  9
$PROXYGRAPHICS
 70
     0
  9
$MEASUREMENT
 70
     0
  9
$CELWEIGHT
370
     0
  9
$ENDCAPS
280
     0
  9
$JOINSTYLE
280
     0
  9
$LWDISPLAY
290
     0
  9
$INSUNITS
 70
     0
  9
$HYPERLINKBASE
  1

  9
$STYLESHEET
  1

  9
$XEDIT
290
     1
  9
$CEPSNTYPE
380
     0
  9
$PSTYLEMODE
290
     1
  9
$FINGERPRINTGUID
  2

  9
$VERSIONGUID
  2

  9
$EXTNAMES
290
     1
  9
$PSVPSCALE
 40
0.0
  0
ENDSEC
  0
SECTION
  2
CLASSES
  0
CLASS
  1
LWPOLYLINE
  2
AcDbPolyline
  3
AutoCAD 2000
 90
    32768
280
     0
281
     1
  0
CLASS
  1
IMAGE
  2
AcDbRasterImage
  3
ISM
 90
    32895
280
     0
281
     1
  0
CLASS
  1
OLE2FRAME
  2
AcDbOle2Frame
  3
AutoCAD 2000
 90
    32768
280
     0
281
     1
  0
CLASS
  1
HATCH
  2
AcDbHatch
  3
AutoCAD 2000
 90
    32768
280
     0
281
     1
  0
CLASS
  1
DICTIONARYVAR
  2
AcDbDictionaryVar
  3
AutoCAD 2000
 90
    32768
280
     0
281
     0
  0
CLASS
  1
RASTERVARIABLES
  2
AcDbRasterVariables
  3
ISM
 90
    32768
280
     0
281
     0
  0
CLASS
  1
IMAGEDEF
  2
AcDbRasterImageDef
  3
ISM
 90
    32768
280
     0
281
     0
  0
CLASS
  1
IMAGEDEF_REACTOR
  2
AcDbRasterImageDefReactor
  3
ISM
 90
    32769
280
     0
281
     0
  0
CLASS
  1
IDBUFFER
  2
AcDbIdBuffer
  3
AutoCAD 2000
 90
    32768
280
     0
281
     0
  0
CLASS
  1
SPATIAL_FILTER
  2
AcDbSpatialFilter
  3
AutoCAD 2000
 90
    32768
280
     0
281
     0
  0
CLASS
  1
XRECORD
  2
AcDbXrecord
  3
AutoCAD 2000
 90
        0
280
     0
281
     0
  0
CLASS
  1
SORTENTSTABLE
  2
AcDbSortentsTable
  3
AutoCAD 2000
 90
    32768
280
     0
281
     0
  0
CLASS
  1
LAYER_INDEX
  2
AcDbLayerIndex
  3
AutoCAD 2000
 90
    32768
280
     0
281
     0
  0
CLASS
  1
SPATIAL_INDEX
  2
AcDbSpatialIndex
  3
AutoCAD 2000
 90
    32768
280
     0
281
     0
  0
CLASS
  1
OBJECT_PTR
  2
CAseDLPNTableRecord
  3
"ASE-LPNTableRecord"
 90
    32769
280
     0
281
     0
  0
CLASS
  1
LAYOUT
  2
AcDbLayout
  3
AutoCAD 2000
 90
        0
280
     0
281
     0
  0
CLASS
  1
PLOTSETTINGS
  2
AcDbPlotSettings
  3
AutoCAD 2000
 90
    32768
280
     0
281
     0
  0
CLASS
  1
ACDBDICTIONARYWDFLT
  2
AcDbDictionaryWithDefault
  3
AutoCAD 2000
 90
        0
280
     0
281
     0
  0
CLASS
  1
ACDBPLACEHOLDER
  2
AcDbPlaceHolder
  3
AutoCAD 2000
 90
        0
280
     0
281
     0
  0
CLASS
  1
VBA_PROJECT
  2
AcDbVbaProject
  3
acadvba
 90
    32768
280
     0
281
     0
  0
CLASS
  1
WIPEOUT
  2
AcDbWipeout
  3
WipeOut|AutoCAD Express Tool|expresstools@autodesk.com
 90
    32895
280
     0
281
     1
  0
CLASS
  1
WIPEOUTVARIABLES
  2
AcDbWipeoutVariables
  3
WipeOut|AutoCAD Express Tool|expresstools@autodesk.com
 90
        0
280
     0
281
     0
  0
CLASS
  1
RTEXT
  2
RText
  3
RText|AutoCAD Express Tool|expresstools@autodesk.com
 90
    32768
280
     0
281
     1
  0
CLASS
  1
ARCALIGNEDTEXT
  2
AcDbArcAlignedText
  3
ATEXT|AutoCAD Express Tool|expresstools@autodesk.com
 90
    32768
280
     0
281
     1
  0
ENDSEC
  0
SECTION
  2
TABLES
  0
TABLE
  2
VPORT
  5
7
100
AcDbSymbolTable
 70
     1
  0
VPORT
  5
15
100
AcDbSymbolTableRecord
100
AcDbViewportTableRecord
  2
*ACTIVE
 70
     0
 10
0.0
 20
0.0
 11
1.0
 21
1.0
 12
0.0
 22
0.0
 13
0.0
 23
0.0
 14
1.0
 24
1.0
 15
0.0
 25
0.0
 16
0.0
 26
0.0
 36
1.0
 17
0.0
 27
0.0
 37
0.0
 40
100.0
 41
1.0
 42
50.0
 43
0.0
 44
0.0
 50
0.0
 51
0.0
 71
     0
 72
   100
 73
     1
 74
     1
 75
     0
 76
     0
 77
     0
 78
     0
281
     0
 65
     0
110
0.0
120
0.0
130
0.0
111
1.0
121
0.0
131
0.0
112
0.0
122
1.0
132
0.0
345
0
346
0
 79
     0
146
0.0
  0
ENDTAB
  0
TABLE
  2
LTYPE
  5
4
100
AcDbSymbolTable
 70
     7
  0
LTYPE
  5
11
100
AcDbSymbolTableRecord
100
AcDbLinetypeTableRecord
  2
ByBlock
 70
    64
  3

 72
    65
 73
     0
 40
0.0
  0
LTYPE
  5
12
100
AcDbSymbolTableRecord
100
AcDbLinetypeTableRecord
  2
ByLayer
 70
    64
  3

 72
    65
 73
     0
 40
0.0
  0
LTYPE
  5
13
100
AcDbSymbolTableRecord
100
AcDbLinetypeTableRecord
  2
Continuous
 70
    64
  3
Solid line
 72
    65
 73
     0
 40
0.0
  0
LTYPE
  5
24
100
AcDbSymbolTableRecord
100
AcDbLinetypeTableRecord
  2
DASHED
 70
    64
  3
Dashed __ __ __ __ __ __ __ __ __ __ __ __ __ _
 72
    65
 73
     2
 40
0.75
 49
0.5
 74
     0
 49
-0.25
 74
     0
  0
LTYPE
  5
25
100
AcDbSymbolTableRecord
100
AcDbLinetypeTableRecord
  2
CENTER
 70
    64
  3
Center ____ _ ____ _ ____ _ ____ _ ____ _ ____
 72
    65
 73
     4
 40
1.0
 49
0.5
 74
     0
 49
-0.25
 74
     0
 49
0.0
 74
     0
 49
-0.25
 74
     0
  0
LTYPE
  5
26
100
AcDbSymbolTableRecord
100
AcDbLinetypeTableRecord
  2
DIVIDE
 70
    64
  3
Divide ____ . . ____ . . ____ . . ____ . . ____
 72
    65
 73
     6
 40
1.25
 49
0.5
 74
     0
 49
-0.25
 74
     0
 49
0.0
 74
     0
 49
-0.25
 74
     0
 49
0.0
 74
     0
 49
-0.25
 74
     0
  0
LTYPE
  5
27
100
AcDbSymbolTableRecord
100
AcDbLinetypeTableRecord
  2
PHANTOM
 70
    64
  3
Phantom ______  __  __  ______  __  __  ______
 72
    65
 73
     6
 40
9.0
 49
4.3
 74
     0
 49
-0.7
 74
     0
 49
1.3
 74
     0
 49
-0.7
 74
     0
 49
1.3
 74
     0
 49
-0.7
 74
     0
  0
ENDTAB
  0
TABLE
  2
LAYER
  5
2
100
AcDbSymbolTable
 70
     3
  0
LAYER
  5
14
100
AcDbSymbolTableRecord
100
AcDbLayerTableRecord
  2
0
 70
    64
 62
    53
  6
Continuous
290
     1
370
    -3
390
1D
  0
LAYER
  5
28
100
AcDbSymbolTableRecord
100
AcDbLayerTableRecord
  2
3
 70
    64
 62
     4
  6
Continuous
290
     1
370
    -3
390
1D
  0
LAYER
  5
29
100
AcDbSymbolTableRecord
100
AcDbLayerTableRecord
  2
5
 70
    64
 62
   191
  6
Continuous
290
     1
370
    -3
390
1D
  0
ENDTAB
  0
TABLE
  2
STYLE
  5
3
100
AcDbSymbolTable
 70
     2
  0
STYLE
  5
17
100
AcDbSymbolTableRecord
100
AcDbTextStyleTableRecord
  2
Standard
 70
     0
 40
0.0
 41
1.0
 50
0.0
 71
     0
 42
0.0
  3
txt
  4

  0
STYLE
  5
2C
100
AcDbSymbolTableRecord
100
AcDbTextStyleTableRecord
  2
ZU_SHPTB00001
 70
     0
 40
0.0
 41
1.0
 50
0.0
 71
     0
 42
0.0
  3
monotxt
  4
bigfont
  0
ENDTAB
  0
TABLE
  2
VIEW
  5
5
100
AcDbSymbolTable
 70
     0
  0
ENDTAB
  0
TABLE
  2
UCS
  5
6
100
AcDbSymbolTable
 70
     0
  0
ENDTAB
  0
TABLE
  2
APPID
  5
8
100
AcDbSymbolTable
 70
     1
  0
APPID
  5
16
100
AcDbSymbolTableRecord
100
AcDbRegAppTableRecord
  2
ACAD
 70
     0
  0
ENDTAB
  0
TABLE
  2
DIMSTYLE
  5
9
100
AcDbSymbolTable
 70
     1
100
AcDbDimStyleTable
 71
     0
  0
DIMSTYLE
105
18
100
AcDbSymbolTableRecord
100
AcDbDimStyleTableRecord
  2
Standard
 70
     0
  3

  4

 40
1.0
 41
0.18
 42
0.0625
 43
0.38
 44
0.18
 45
0.0
 46
0.0
 47
0.0
 48
0.0
 71
     0
 72
     0
 73
     1
 74
     1
 75
     0
 76
     0
 77
     0
 78
     0
 79
     0
140
0.18
141
0.09
142
0.0
143
25.4
144
1.0
145
0.0
146
1.0
147
0.09
148
0.0
170
     0
171
     2
172
     0
173
     0
174
     0
175
     0
176
     0
177
     0
178
     0
179
     0
271
     4
272
     4
273
     2
274
     2
275
     0
276
     0
277
     2
278
    46
279
     0
280
     0
281
     0
282
     0
283
     1
284
     0
285
     0
286
     0
288
     0
340
17
341
0
342
0
343
0
344
0
371
    -2
372
    -2
  0
ENDTAB
  0
TABLE
  2
BLOCK_RECORD
  5
1
100
AcDbSymbolTable
 70
     4
  0
BLOCK_RECORD
  5
A
100
AcDbSymbolTableRecord
100
AcDbBlockTableRecord
  2
*MODEL_SPACE
340
20
  0
BLOCK_RECORD
  5
B
100
AcDbSymbolTableRecord
100
AcDbBlockTableRecord
  2
*PAPER_SPACE
340
21
  0
BLOCK_RECORD
  5
BB
100
AcDbSymbolTableRecord
100
AcDbBlockTableRecord
  2
ZU_SYM__USERS_HOME_SYMBOL_POO_SYM_B20_-1
340
0
102
{BLKREFS
331
C6
102
}
  0
BLOCK_RECORD
  5
C7
100
AcDbSymbolTableRecord
100
AcDbBlockTableRecord
  2
ZU_SYM__USERS_HOME_SYMBOL_POO_SYM_B20_00001-1
340
0
102
{BLKREFS
331
D2
102
}
  0
BLOCK_RECORD
  5
D3
100
AcDbSymbolTableRecord
100
AcDbBlockTableRecord
  2
ZU_SYM__USERS_HOME_SYMBOL_POO_SYM_B20_00002-1
340
0
102
{BLKREFS
331
DE
102
}
  0
BLOCK_RECORD
  5
DF
100
AcDbSymbolTableRecord
100
AcDbBlockTableRecord
  2
ZU_SYM__USERS_HOME_SYMBOL_POO_SYM_B20_00003-1
340
0
102
{BLKREFS
331
EA
102
}
  0
ENDTAB
  0
ENDSEC
  0
SECTION
  2
BLOCKS
  0
BLOCK
  5
D
100
AcDbEntity
  8
0
100
AcDbBlockBegin
  2
*MODEL_SPACE
 70
     0
 10
0.0
 20
0.0
 30
0.0
  3
*MODEL_SPACE
  1

  0
ENDBLK
  5
E
100
AcDbEntity
  8
0
100
AcDbBlockEnd
  0
BLOCK
  5
F
100
AcDbEntity
 67
     1
  8
0
100
AcDbBlockBegin
  2
*PAPER_SPACE
 70
     0
 10
0.0
 20
0.0
 30
0.0
  3
*PAPER_SPACE
  1

  0
ENDBLK
  5
10
100
AcDbEntity
 67
     1
  8
0
100
AcDbBlockEnd
  0
BLOCK
  5
BC
100
AcDbEntity
  8
0
100
AcDbBlockBegin
  2
ZU_SYM__USERS_HOME_SYMBOL_POO_SYM_B20_-1
 70
    64
 10
0.0
 20
0.0
 30
0.0
  3
ZU_SYM__USERS_HOME_SYMBOL_POO_SYM_B20_-1
  1

  0
LINE
  5
BD
100
AcDbEntity
  8
0
370
    -3
  6
Continuous
100
AcDbLine
 10
2.499999
 20
-1.443374
 30
0.0
 11
-0.000005
 21
-2.886748
 31
0.0
  0
LINE
  5
BE
100
AcDbEntity
  8
0
370
    -3
  6
Continuous
100
AcDbLine
 10
0.000005
 20
2.886748
 30
0.0
 11
-2.5
 21
1.443377
 31
0.0
  0
LINE
  5
BF
100
AcDbEntity
  8
0
370
    -3
  6
Continuous
100
AcDbLine
 10
-0.000006
 20
-2.886747
 30
0.0
 11
-2.499998
 21
-1.443372
 31
0.0
  0
LINE
  5
C0
100
AcDbEntity
  8
0
370
    -3
  6
Continuous
100
AcDbLine
 10
0.000005
 20
2.886749
 30
0.0
 11
2.499999
 21
1.443372
 31
0.0
  0
LINE
  5
C1
100
AcDbEntity
  8
0
370
    -3
  6
Continuous
100
AcDbLine
 10
2.499998
 20
1.443372
 30
0.0
 11
2.499999
 21
-1.443374
 31
0.0
  0
LINE
  5
C2
100
AcDbEntity
  8
0
370
    -3
  6
Continuous
100
AcDbLine
 10
-2.499998
 20
-1.443372
 30
0.0
 11
-2.499999
 21
1.443378
 31
0.0
  0
POINT
  5
C3
100
AcDbEntity
  8
0
370
    -3
  6
Continuous
100
AcDbPoint
 10
0.0
 20
0.0
 30
0.0
  0
CIRCLE
  5
C4
100
AcDbEntity
  8
0
370
    -3
  6
Continuous
100
AcDbCircle
 10
0.0
 20
0.0
 30
0.0
 40
5.0
  0
ENDBLK
  5
C5
100
AcDbEntity
  8
0
100
AcDbBlockEnd
  0
BLOCK
  5
C8
100
AcDbEntity
  8
0
100
AcDbBlockBegin
  2
ZU_SYM__USERS_HOME_SYMBOL_POO_SYM_B20_00001-1
 70
    64
 10
0.0
 20
0.0
 30
0.0
  3
ZU_SYM__USERS_HOME_SYMBOL_POO_SYM_B20_00001-1
  1

  0
LINE
  5
C9
100
AcDbEntity
  8
0
370
    -3
  6
Continuous
100
AcDbLine
 10
2.499999
 20
-1.443374
 30
0.0
 11
-0.000005
 21
-2.886748
 31
0.0
  0
LINE
  5
CA
100
AcDbEntity
  8
0
370
    -3
  6
Continuous
100
AcDbLine
 10
0.000005
 20
2.886748
 30
0.0
 11
-2.5
 21
1.443377
 31
0.0
  0
LINE
  5
CB
100
AcDbEntity
  8
0
370
    -3
  6
Continuous
100
AcDbLine
 10
-0.000006
 20
-2.886747
 30
0.0
 11
-2.499998
 21
-1.443372
 31
0.0
  0
LINE
  5
CC
100
AcDbEntity
  8
0
370
    -3
  6
Continuous
100
AcDbLine
 10
0.000005
 20
2.886749
 30
0.0
 11
2.499999
 21
1.443372
 31
0.0
  0
LINE
  5
CD
100
AcDbEntity
  8
0
370
    -3
  6
Continuous
100
AcDbLine
 10
2.499998
 20
1.443372
 30
0.0
 11
2.499999
 21
-1.443374
 31
0.0
  0
LINE
  5
CE
100
AcDbEntity
  8
0
370
    -3
  6
Continuous
100
AcDbLine
 10
-2.499998
 20
-1.443372
 30
0.0
 11
-2.499999
 21
1.443378
 31
0.0
  0
POINT
  5
CF
100
AcDbEntity
  8
0
370
    -3
  6
Continuous
100
AcDbPoint
 10
0.0
 20
0.0
 30
0.0
  0
CIRCLE
  5
D0
100
AcDbEntity
  8
0
370
    -3
  6
Continuous
100
AcDbCircle
 10
0.0
 20
0.0
 30
0.0
 40
5.0
  0
ENDBLK
  5
D1
100
AcDbEntity
  8
0
100
AcDbBlockEnd
  0
BLOCK
  5
D4
100
AcDbEntity
  8
0
100
AcDbBlockBegin
  2
ZU_SYM__USERS_HOME_SYMBOL_POO_SYM_B20_00002-1
 70
    64
 10
0.0
 20
0.0
 30
0.0
  3
ZU_SYM__USERS_HOME_SYMBOL_POO_SYM_B20_00002-1
  1

  0
LINE
  5
D5
100
AcDbEntity
  8
0
370
    -3
  6
Continuous
100
AcDbLine
 10
2.499999
 20
-1.443374
 30
0.0
 11
-0.000005
 21
-2.886748
 31
0.0
  0
LINE
  5
D6
100
AcDbEntity
  8
0
370
    -3
  6
Continuous
100
AcDbLine
 10
0.000005
 20
2.886748
 30
0.0
 11
-2.5
 21
1.443377
 31
0.0
  0
LINE
  5
D7
100
AcDbEntity
  8
0
370
    -3
  6
Continuous
100
AcDbLine
 10
-0.000006
 20
-2.886747
 30
0.0
 11
-2.499998
 21
-1.443372
 31
0.0
  0
LINE
  5
D8
100
AcDbEntity
  8
0
370
    -3
  6
Continuous
100
AcDbLine
 10
0.000005
 20
2.886749
 30
0.0
 11
2.499999
 21
1.443372
 31
0.0
  0
LINE
  5
D9
100
AcDbEntity
  8
0
370
    -3
  6
Continuous
100
AcDbLine
 10
2.499998
 20
1.443372
 30
0.0
 11
2.499999
 21
-1.443374
 31
0.0
  0
LINE
  5
DA
100
AcDbEntity
  8
0
370
    -3
  6
Continuous
100
AcDbLine
 10
-2.499998
 20
-1.443372
 30
0.0
 11
-2.499999
 21
1.443378
 31
0.0
  0
POINT
  5
DB
100
AcDbEntity
  8
0
370
    -3
  6
Continuous
100
AcDbPoint
 10
0.0
 20
0.0
 30
0.0
  0
CIRCLE
  5
DC
100
AcDbEntity
  8
0
370
    -3
  6
Continuous
100
AcDbCircle
 10
0.0
 20
0.0
 30
0.0
 40
5.0
  0
ENDBLK
  5
DD
100
AcDbEntity
  8
0
100
AcDbBlockEnd
  0
BLOCK
  5
E0
100
AcDbEntity
  8
0
100
AcDbBlockBegin
  2
ZU_SYM__USERS_HOME_SYMBOL_POO_SYM_B20_00003-1
 70
    64
 10
0.0
 20
0.0
 30
0.0
  3
ZU_SYM__USERS_HOME_SYMBOL_POO_SYM_B20_00003-1
  1

  0
LINE
  5
E1
100
AcDbEntity
  8
0
370
    -3
  6
Continuous
100
AcDbLine
 10
2.499999
 20
-1.443374
 30
0.0
 11
-0.000005
 21
-2.886748
 31
0.0
  0
LINE
  5
E2
100
AcDbEntity
  8
0
370
    -3
  6
Continuous
100
AcDbLine
 10
0.000005
 20
2.886748
 30
0.0
 11
-2.5
 21
1.443377
 31
0.0
  0
LINE
  5
E3
100
AcDbEntity
  8
0
370
    -3
  6
Continuous
100
AcDbLine
 10
-0.000006
 20
-2.886747
 30
0.0
 11
-2.499998
 21
-1.443372
 31
0.0
  0
LINE
  5
E4
100
AcDbEntity
  8
0
370
    -3
  6
Continuous
100
AcDbLine
 10
0.000005
 20
2.886749
 30
0.0
 11
2.499999
 21
1.443372
 31
0.0
  0
LINE
  5
E5
100
AcDbEntity
  8
0
370
    -3
  6
Continuous
100
AcDbLine
 10
2.499998
 20
1.443372
 30
0.0
 11
2.499999
 21
-1.443374
 31
0.0
  0
LINE
  5
E6
100
AcDbEntity
  8
0
370
    -3
  6
Continuous
100
AcDbLine
 10
-2.499998
 20
-1.443372
 30
0.0
 11
-2.499999
 21
1.443378
 31
0.0
  0
POINT
  5
E7
100
AcDbEntity
  8
0
370
    -3
  6
Continuous
100
AcDbPoint
 10
0.0
 20
0.0
 30
0.0
  0
CIRCLE
  5
E8
100
AcDbEntity
  8
0
370
    -3
  6
Continuous
100
AcDbCircle
 10
0.0
 20
0.0
 30
0.0
 40
5.0
  0
ENDBLK
  5
E9
100
AcDbEntity
  8
0
100
AcDbBlockEnd
  0
ENDSEC
  0
SECTION
  2
ENTITIES
  0
LINE
  5
2A
100
AcDbEntity
  8
0
370
    -3
  6
Continuous
100
AcDbLine
 10
-183.986018
 20
-40.434547
 30
0.0
 11
-183.986018
 21
-159.434547
 31
0.0
  0
LINE
  5
2B
100
AcDbEntity
  8
0
370
    -3
  6
Continuous
100
AcDbLine
 10
-183.986018
 20
-40.434547
 30
0.0
 11
-183.986018
 21
-159.434547
 31
0.0
  0
MTEXT
  5
2D
100
AcDbEntity
  8
0
370
    -3
  6
Continuous
100
AcDbMText
 10
66.706329
 20
-13.15625
 30
0.0
 40
2.8
 41
0.0
 71
     7
 72
     1
  1
\W0.83;　
  7
ZU_SHPTB00001
 11
1.0
 21
0.0
 31
0.0
 73
     1
 44
1.0
  0
MTEXT
  5
2E
100
AcDbEntity
  8
0
370
    -3
  6
Continuous
100
AcDbMText
 10
118.706329
 20
-253.40625
 30
0.0
 40
2.8
 41
0.0
 71
     7
 72
     1
  1
\W0.83;　
  7
ZU_SHPTB00001
 11
1.0
 21
0.0
 31
0.0
 73
     1
 44
1.0
  0
LINE
  5
2F
100
AcDbEntity
  8
0
370
    -3
  6
CENTER
100
AcDbLine
 10
270.299834
 20
-76.93996
 30
0.0
 11
219.232591
 21
-76.93996
 31
0.0
  0
LINE
  5
30
100
AcDbEntity
  8
0
370
    -3
  6
CENTER
100
AcDbLine
 10
245.013982
 20
-49.486605
 30
0.0
 11
245.013982
 21
-103.762261
 31
0.0
  0
LINE
  5
31
100
AcDbEntity
  8
0
370
    -3
  6
Continuous
100
AcDbLine
 10
-176.986018
 20
-155.43996
 30
0.0
 11
-176.986018
 21
-156.43996
 31
0.0
  0
ARC
  5
32
100
AcDbEntity
  8
0
370
    -3
  6
Continuous
100
AcDbCircle
 10
-179.986018
 20
-156.43996
 30
0.0
 40
3.0
100
AcDbArc
 50
270.0
 51
0.0
  0
LINE
  5
33
100
AcDbEntity
  8
0
370
    -3
  6
Continuous
100
AcDbLine
 10
-176.986018
 20
-119.93996
 30
0.0
 11
-183.986018
 21
-119.93996
 31
0.0
  0
LINE
  5
34
100
AcDbEntity
  8
0
370
    -3
  6
Continuous
100
AcDbLine
 10
-176.986018
 20
-79.93996
 30
0.0
 11
-183.986018
 21
-79.93996
 31
0.0
  0
ARC
  5
35
100
AcDbEntity
  8
0
370
    -3
  6
Continuous
100
AcDbCircle
 10
-179.986018
 20
-43.43996
 30
0.0
 40
3.0
100
AcDbArc
 50
0.0
 51
90.0
  0
LINE
  5
36
100
AcDbEntity
  8
0
370
    -3
  6
Continuous
100
AcDbLine
 10
-176.986018
 20
-44.43996
 30
0.0
 11
-176.986018
 21
-43.43996
 31
0.0
  0
LINE
  5
37
100
AcDbEntity
  8
0
370
    -3
  6
Continuous
100
AcDbLine
 10
-176.986018
 20
-57.755228
 30
0.0
 11
-176.986018
 21
-99.93996
 31
0.0
  0
LINE
  5
38
100
AcDbEntity
  8
0
370
    -3
  6
Continuous
100
AcDbLine
 10
-176.986018
 20
-44.43996
 30
0.0
 11
-176.986018
 21
-44.843652
 31
0.0
  0
LINE
  5
39
100
AcDbEntity
  8
0
370
    -3
  6
Continuous
100
AcDbLine
 10
-176.986018
 20
-155.43996
 30
0.0
 11
-176.986018
 21
-156.43996
 31
0.0
  0
LINE
  5
3A
100
AcDbEntity
  8
0
370
    -3
  6
Continuous
100
AcDbLine
 10
-176.986018
 20
-155.43996
 30
0.0
 11
-176.986018
 21
-155.036267
 31
0.0
  0
LINE
  5
3B
100
AcDbEntity
  8
0
370
    -3
  6
Continuous
100
AcDbLine
 10
-176.986018
 20
-155.43996
 30
0.0
 11
-176.986018
 21
-155.036267
 31
0.0
  0
LINE
  5
3C
100
AcDbEntity
  8
0
370
    -3
  6
Continuous
100
AcDbLine
 10
-176.986018
 20
-142.124691
 30
0.0
 11
-176.986018
 21
-99.93996
 31
0.0
  0
LINE
  5
3D
100
AcDbEntity
  8
0
370
    -3
  6
CENTER
100
AcDbLine
 10
12.758207
 20
-76.93996
 30
0.0
 11
-108.740217
 21
-76.93996
 31
0.0
  0
CIRCLE
  5
3E
100
AcDbEntity
  8
0
370
    -3
  6
Continuous
100
AcDbCircle
 10
-51.986018
 20
-76.93996
 30
0.0
 40
22.0
  0
CIRCLE
  5
3F
100
AcDbEntity
  8
0
370
    -3
  6
Continuous
100
AcDbCircle
 10
-51.986018
 20
-76.93996
 30
0.0
 40
47.0
  0
CIRCLE
  5
40
100
AcDbEntity
  8
0
370
    -3
  6
Continuous
100
AcDbCircle
 10
-51.986018
 20
-76.93996
 30
0.0
 40
42.5
  0
LINE
  5
41
100
AcDbEntity
  8
0
370
    -3
  6
CENTER
100
AcDbLine
 10
-51.986018
 20
-9.851755
 30
0.0
 11
-51.986018
 21
-138.36461
 31
0.0
  0
LINE
  5
42
100
AcDbEntity
  8
0
370
    -3
  6
Continuous
100
AcDbLine
 10
-141.986018
 20
-15.93996
 30
0.0
 11
0.013982
 21
-15.93996
 31
0.0
  0
LINE
  5
43
100
AcDbEntity
  8
0
370
    -3
  6
Continuous
100
AcDbLine
 10
-23.986018
 20
-16.93996
 30
0.0
 11
-117.986018
 21
-16.93996
 31
0.0
  0
LINE
  5
44
100
AcDbEntity
  8
0
370
    -3
  6
Continuous
100
AcDbLine
 10
-32.315334
 20
-24.43996
 30
0.0
 11
-109.656701
 21
-24.43996
 31
0.0
  0
LINE
  5
45
100
AcDbEntity
  8
0
370
    -3
  6
Continuous
100
AcDbLine
 10
-32.315334
 20
-27.43996
 30
0.0
 11
-109.656701
 21
-27.43996
 31
0.0
  0
ARC
  5
46
100
AcDbEntity
  8
0
370
    -3
  6
Continuous
100
AcDbCircle
 10
-32.315334
 20
-30.43996
 30
0.0
 40
3.0
100
AcDbArc
 50
26.847213
 51
90.0
  0
ARC
  5
47
100
AcDbEntity
  8
0
370
    -3
  6
Continuous
100
AcDbCircle
 10
-18.486018
 20
-23.43996
 30
0.0
 40
12.5
100
AcDbArc
 50
206.847213
 51
263.651415
  0
ARC
  5
48
100
AcDbEntity
  8
0
370
    -3
  6
Continuous
100
AcDbCircle
 10
-32.315334
 20
-30.43996
 30
0.0
 40
6.0
100
AcDbArc
 50
26.847213
 51
90.0
  0
LINE
  5
49
100
AcDbEntity
  8
0
370
    -3
  6
Continuous
100
AcDbLine
 10
-47.986018
 20
-62.483127
 30
0.0
 11
-47.986018
 21
-58.63996
 31
0.0
  0
LINE
  5
4A
100
AcDbEntity
  8
0
370
    -3
  6
Continuous
100
AcDbLine
 10
-55.986018
 20
-58.63996
 30
0.0
 11
-47.986018
 21
-58.63996
 31
0.0
  0
LINE
  5
4B
100
AcDbEntity
  8
0
370
    -3
  6
Continuous
100
AcDbLine
 10
-55.986018
 20
-62.483127
 30
0.0
 11
-55.986018
 21
-58.63996
 31
0.0
  0
ARC
  5
4C
100
AcDbEntity
  8
0
370
    -3
  6
Continuous
100
AcDbCircle
 10
-51.986018
 20
-76.93996
 30
0.0
 40
15.0
100
AcDbArc
 50
105.46601
 51
74.53399
  0
ARC
  5
4D
100
AcDbEntity
  8
0
370
    -3
  6
Continuous
100
AcDbCircle
 10
-163.486018
 20
-156.43996
 30
0.0
 40
3.0
100
AcDbArc
 50
270.0
 51
0.0
  0
LINE
  5
4E
100
AcDbEntity
  8
0
370
    -3
  6
DASHED
100
AcDbLine
 10
-160.486018
 20
-119.400509
 30
0.0
 11
-160.486018
 21
-99.93996
 31
0.0
  0
LINE
  5
4F
100
AcDbEntity
  8
0
370
    -3
  6
DASHED
100
AcDbLine
 10
-150.986018
 20
-110.874323
 30
0.0
 11
-150.986018
 21
-99.93996
 31
0.0
  0
LINE
  5
50
100
AcDbEntity
  8
0
370
    -3
  6
DASHED
100
AcDbLine
 10
-150.986018
 20
-89.005596
 30
0.0
 11
-150.986018
 21
-99.93996
 31
0.0
  0
LINE
  5
51
100
AcDbEntity
  8
0
370
    -3
  6
DASHED
100
AcDbLine
 10
-160.486018
 20
-80.47941
 30
0.0
 11
-160.486018
 21
-99.93996
 31
0.0
  0
LINE
  5
52
100
AcDbEntity
  8
0
370
    -3
  6
Continuous
100
AcDbLine
 10
-153.986018
 20
-40.43996
 30
0.0
 11
-183.986018
 21
-40.43996
 31
0.0
  0
LINE
  5
53
100
AcDbEntity
  8
0
370
    -3
  6
Continuous
100
AcDbLine
 10
-151.353515
 20
-159.43996
 30
0.0
 11
-183.986018
 21
-159.43996
 31
0.0
  0
LINE
  5
54
100
AcDbEntity
  8
0
370
    -3
  6
DASHED
100
AcDbLine
 10
-160.486018
 20
-80.47941
 30
0.0
 11
-160.486018
 21
-99.93996
 31
0.0
  0
LINE
  5
55
100
AcDbEntity
  8
0
370
    -3
  6
DASHED
100
AcDbLine
 10
-160.486018
 20
-119.400509
 30
0.0
 11
-160.486018
 21
-99.93996
 31
0.0
  0
LINE
  5
56
100
AcDbEntity
  8
0
370
    -3
  6
Continuous
100
AcDbLine
 10
-160.486018
 20
-43.43996
 30
0.0
 11
-160.486018
 21
-156.43996
 31
0.0
  0
ARC
  5
57
100
AcDbEntity
  8
0
370
    -3
  6
Continuous
100
AcDbCircle
 10
-151.353515
 20
-162.43996
 30
0.0
 40
3.0
100
AcDbArc
 50
38.682187
 51
90.0
  0
ARC
  5
58
100
AcDbEntity
  8
0
370
    -3
  6
Continuous
100
AcDbCircle
 10
-153.986018
 20
-37.43996
 30
0.0
 40
3.0
100
AcDbArc
 50
270.0
 51
0.0
  0
ARC
  5
59
100
AcDbEntity
  8
0
370
    -3
  6
Continuous
100
AcDbCircle
 10
-163.486018
 20
-43.43996
 30
0.0
 40
3.0
100
AcDbArc
 50
0.0
 51
90.0
  0
LINE
  5
5A
100
AcDbEntity
  8
0
370
    -3
  6
CENTER
100
AcDbLine
 10
-9.986018
 20
-156.43996
 30
0.0
 11
-26.033715
 21
-156.43996
 31
0.0
  0
LINE
  5
5B
100
AcDbEntity
  8
0
370
    -3
  6
CENTER
100
AcDbLine
 10
-137.986018
 20
-15.43996
 30
0.0
 11
-137.986018
 21
-39.707837
 31
0.0
  0
LINE
  5
5C
100
AcDbEntity
  8
0
370
    -3
  6
CENTER
100
AcDbLine
 10
-123.486018
 20
-14.93996
 30
0.0
 11
-123.486018
 21
-31.161812
 31
0.0
  0
LINE
  5
5D
100
AcDbEntity
  8
0
370
    -3
  6
CENTER
100
AcDbLine
 10
-18.486018
 20
-14.93996
 30
0.0
 11
-18.486018
 21
-31.405985
 31
0.0
  0
LINE
  5
5E
100
AcDbEntity
  8
0
370
    -3
  6
CENTER
100
AcDbLine
 10
-11.871731
 20
-23.43996
 30
0.0
 11
-25.54537
 21
-23.43996
 31
0.0
  0
LINE
  5
5F
100
AcDbEntity
  8
0
370
    -3
  6
CENTER
100
AcDbLine
 10
-3.986018
 20
-15.43996
 30
0.0
 11
-3.986018
 21
-40.928697
 31
0.0
  0
LINE
  5
60
100
AcDbEntity
  8
0
370
    -3
  6
CENTER
100
AcDbLine
 10
9.513982
 20
-28.93996
 30
0.0
 11
-14.557625
 21
-28.93996
 31
0.0
  0
LINE
  5
61
100
AcDbEntity
  8
0
370
    -3
  6
CENTER
100
AcDbLine
 10
9.513982
 20
-150.93996
 30
0.0
 11
-14.557625
 21
-150.93996
 31
0.0
  0
CIRCLE
  5
62
100
AcDbEntity
  8
0
370
    -3
  6
Continuous
100
AcDbCircle
 10
-123.486018
 20
-23.43996
 30
0.0
 40
5.5
  0
CIRCLE
  5
63
100
AcDbEntity
  8
0
370
    -3
  6
Continuous
100
AcDbCircle
 10
-123.486018
 20
-156.43996
 30
0.0
 40
5.5
  0
CIRCLE
  5
64
100
AcDbEntity
  8
0
370
    -3
  6
Continuous
100
AcDbCircle
 10
-18.486018
 20
-23.43996
 30
0.0
 40
5.5
  0
LINE
  5
65
100
AcDbEntity
  8
0
370
    -3
  6
Continuous
100
AcDbLine
 10
-2.486018
 20
-128.607248
 30
0.0
 11
-2.486018
 21
-51.272671
 31
0.0
  0
ARC
  5
66
100
AcDbEntity
  8
0
370
    -3
  6
Continuous
100
AcDbCircle
 10
-9.486018
 20
-51.272671
 30
0.0
 40
7.0
100
AcDbArc
 50
0.0
 51
76.164776
  0
ARC
  5
67
100
AcDbEntity
  8
0
370
    -3
  6
Continuous
100
AcDbCircle
 10
-3.986018
 20
-28.93996
 30
0.0
 40
16.0
100
AcDbArc
 50
211.420366
 51
256.164776
  0
ARC
  5
68
100
AcDbEntity
  8
0
370
    -3
  6
Continuous
100
AcDbCircle
 10
-20.199963
 20
-38.844907
 30
0.0
 40
3.0
100
AcDbArc
 50
31.420366
 51
83.651415
  0
ARC
  5
69
100
AcDbEntity
  8
0
370
    -3
  6
Continuous
100
AcDbCircle
 10
-9.486018
 20
-51.272671
 30
0.0
 40
10.0
100
AcDbArc
 50
0.0
 51
76.164776
  0
ARC
  5
6A
100
AcDbEntity
  8
0
370
    -3
  6
Continuous
100
AcDbCircle
 10
-9.486018
 20
-128.607248
 30
0.0
 40
10.0
100
AcDbArc
 50
283.835224
 51
0.0
  0
ARC
  5
6B
100
AcDbEntity
  8
0
370
    -3
  6
Continuous
100
AcDbCircle
 10
-109.656701
 20
-30.43996
 30
0.0
 40
3.0
100
AcDbArc
 50
90.0
 51
153.152787
  0
CIRCLE
  5
6C
100
AcDbEntity
  8
0
370
    -3
  6
Continuous
100
AcDbCircle
 10
-18.486018
 20
-156.43996
 30
0.0
 40
5.5
  0
ARC
  5
6D
100
AcDbEntity
  8
0
370
    -3
  6
Continuous
100
AcDbCircle
 10
-123.486018
 20
-23.43996
 30
0.0
 40
12.5
100
AcDbArc
 50
276.348585
 51
333.152787
  0
ARC
  5
6E
100
AcDbEntity
  8
0
370
    -3
  6
Continuous
100
AcDbCircle
 10
-32.315334
 20
-149.43996
 30
0.0
 40
6.0
100
AcDbArc
 50
270.0
 51
333.152787
  0
ARC
  5
6F
100
AcDbEntity
  8
0
370
    -3
  6
Continuous
100
AcDbCircle
 10
-121.772072
 20
-38.844907
 30
0.0
 40
3.0
100
AcDbArc
 50
96.348585
 51
148.579634
  0
ARC
  5
70
100
AcDbEntity
  8
0
370
    -3
  6
Continuous
100
AcDbCircle
 10
-137.986018
 20
-28.93996
 30
0.0
 40
16.0
100
AcDbArc
 50
283.835224
 51
328.579634
  0
ARC
  5
71
100
AcDbEntity
  8
0
370
    -3
  6
Continuous
100
AcDbCircle
 10
-109.656701
 20
-149.43996
 30
0.0
 40
6.0
100
AcDbArc
 50
206.847213
 51
270.0
  0
LINE
  5
72
100
AcDbEntity
  8
0
370
    -3
  6
Continuous
100
AcDbLine
 10
0.513982
 20
-128.607248
 30
0.0
 11
0.513982
 21
-51.272671
 31
0.0
  0
ARC
  5
73
100
AcDbEntity
  8
0
370
    -3
  6
Continuous
100
AcDbCircle
 10
0.013982
 20
-154.93996
 30
0.0
 40
8.0
100
AcDbArc
 50
270.0
 51
0.0
  0
LINE
  5
74
100
AcDbEntity
  8
0
370
    -3
  6
Continuous
100
AcDbLine
 10
8.013982
 20
-154.93996
 30
0.0
 11
8.013982
 21
-24.93996
 31
0.0
  0
LINE
  5
75
100
AcDbEntity
  8
0
370
    -3
  6
Continuous
100
AcDbLine
 10
-109.656701
 20
-155.43996
 30
0.0
 11
-32.315334
 21
-155.43996
 31
0.0
  0
LINE
  5
76
100
AcDbEntity
  8
0
370
    -3
  6
Continuous
100
AcDbLine
 10
-142.486018
 20
-51.272671
 30
0.0
 11
-142.486018
 21
-128.607248
 31
0.0
  0
ARC
  5
77
100
AcDbEntity
  8
0
370
    -3
  6
Continuous
100
AcDbCircle
 10
-132.486018
 20
-51.272671
 30
0.0
 40
7.0
100
AcDbArc
 50
103.835224
 51
180.0
  0
LINE
  5
78
100
AcDbEntity
  8
0
370
    -3
  6
Continuous
100
AcDbLine
 10
-139.486018
 20
-51.272671
 30
0.0
 11
-139.486018
 21
-128.607248
 31
0.0
  0
ARC
  5
79
100
AcDbEntity
  8
0
370
    -3
  6
Continuous
100
AcDbCircle
 10
0.013982
 20
-24.93996
 30
0.0
 40
8.0
100
AcDbArc
 50
0.0
 51
90.0
  0
ARC
  5
7A
100
AcDbEntity
  8
0
370
    -3
  6
Continuous
100
AcDbCircle
 10
-109.656701
 20
-30.43996
 30
0.0
 40
6.0
100
AcDbArc
 50
90.0
 51
153.152787
  0
LINE
  5
7B
100
AcDbEntity
  8
0
370
    -3
  6
Continuous
100
AcDbLine
 10
0.013982
 20
-16.93996
 30
0.0
 11
-12.986018
 21
-16.93996
 31
0.0
  0
ARC
  5
7C
100
AcDbEntity
  8
0
370
    -3
  6
Continuous
100
AcDbCircle
 10
-141.986018
 20
-24.93996
 30
0.0
 40
8.0
100
AcDbArc
 50
90.0
 51
180.0
  0
LINE
  5
7D
100
AcDbEntity
  8
0
370
    -3
  6
Continuous
100
AcDbLine
 10
-149.986018
 20
-24.93996
 30
0.0
 11
-149.986018
 21
-154.93996
 31
0.0
  0
ARC
  5
7E
100
AcDbEntity
  8
0
370
    -3
  6
Continuous
100
AcDbCircle
 10
-132.486018
 20
-128.607248
 30
0.0
 40
10.0
100
AcDbArc
 50
180.0
 51
256.164776
  0
ARC
  5
7F
100
AcDbEntity
  8
0
370
    -3
  6
Continuous
100
AcDbCircle
 10
-132.486018
 20
-128.607248
 30
0.0
 40
7.0
100
AcDbArc
 50
180.0
 51
256.164776
  0
ARC
  5
80
100
AcDbEntity
  8
0
370
    -3
  6
Continuous
100
AcDbCircle
 10
-141.986018
 20
-154.93996
 30
0.0
 40
8.0
100
AcDbArc
 50
180.0
 51
270.0
  0
LINE
  5
81
100
AcDbEntity
  8
0
370
    -3
  6
Continuous
100
AcDbLine
 10
-141.986018
 20
-162.93996
 30
0.0
 11
-128.986018
 21
-162.93996
 31
0.0
  0
ARC
  5
82
100
AcDbEntity
  8
0
370
    -3
  6
Continuous
100
AcDbCircle
 10
-132.486018
 20
-51.272671
 30
0.0
 40
10.0
100
AcDbArc
 50
103.835224
 51
180.0
  0
ARC
  5
83
100
AcDbEntity
  8
0
370
    -3
  6
Continuous
100
AcDbCircle
 10
-137.986018
 20
-150.93996
 30
0.0
 40
16.0
100
AcDbArc
 50
31.420366
 51
76.164776
  0
ARC
  5
84
100
AcDbEntity
  8
0
370
    -3
  6
Continuous
100
AcDbCircle
 10
-121.772072
 20
-141.035013
 30
0.0
 40
3.0
100
AcDbArc
 50
211.420366
 51
263.651415
  0
ARC
  5
85
100
AcDbEntity
  8
0
370
    -3
  6
Continuous
100
AcDbCircle
 10
-123.486018
 20
-156.43996
 30
0.0
 40
12.5
100
AcDbArc
 50
26.847213
 51
83.651415
  0
ARC
  5
86
100
AcDbEntity
  8
0
370
    -3
  6
Continuous
100
AcDbCircle
 10
-109.656701
 20
-149.43996
 30
0.0
 40
3.0
100
AcDbArc
 50
206.847213
 51
270.0
  0
LINE
  5
87
100
AcDbEntity
  8
0
370
    -3
  6
Continuous
100
AcDbLine
 10
-109.656701
 20
-152.43996
 30
0.0
 11
-32.315334
 21
-152.43996
 31
0.0
  0
ARC
  5
88
100
AcDbEntity
  8
0
370
    -3
  6
Continuous
100
AcDbCircle
 10
-32.315334
 20
-149.43996
 30
0.0
 40
3.0
100
AcDbArc
 50
270.0
 51
333.152787
  0
ARC
  5
89
100
AcDbEntity
  8
0
370
    -3
  6
Continuous
100
AcDbCircle
 10
-18.486018
 20
-156.43996
 30
0.0
 40
12.5
100
AcDbArc
 50
96.348585
 51
153.152787
  0
ARC
  5
8A
100
AcDbEntity
  8
0
370
    -3
  6
Continuous
100
AcDbCircle
 10
-20.199963
 20
-141.035013
 30
0.0
 40
3.0
100
AcDbArc
 50
276.348585
 51
328.579634
  0
ARC
  5
8B
100
AcDbEntity
  8
0
370
    -3
  6
Continuous
100
AcDbCircle
 10
-3.986018
 20
-150.93996
 30
0.0
 40
16.0
100
AcDbArc
 50
103.835224
 51
148.579634
  0
ARC
  5
8C
100
AcDbEntity
  8
0
370
    -3
  6
Continuous
100
AcDbCircle
 10
-9.486018
 20
-128.607248
 30
0.0
 40
7.0
100
AcDbArc
 50
283.835224
 51
0.0
  0
LINE
  5
8D
100
AcDbEntity
  8
0
370
    -3
  6
Continuous
100
AcDbLine
 10
-128.986018
 20
-16.93996
 30
0.0
 11
-141.986018
 21
-16.93996
 31
0.0
  0
LINE
  5
8E
100
AcDbEntity
  8
0
370
    -3
  6
Continuous
100
AcDbLine
 10
-117.986018
 20
-162.93996
 30
0.0
 11
-23.986018
 21
-162.93996
 31
0.0
  0
LINE
  5
8F
100
AcDbEntity
  8
0
370
    -3
  6
Continuous
100
AcDbLine
 10
-12.986018
 20
-162.93996
 30
0.0
 11
0.013982
 21
-162.93996
 31
0.0
  0
ARC
  5
90
100
AcDbEntity
  8
0
370
    -3
  6
Continuous
100
AcDbCircle
 10
-123.486018
 20
-156.43996
 30
0.0
 40
9.5
100
AcDbArc
 50
26.847213
 51
83.651415
  0
ARC
  5
91
100
AcDbEntity
  8
0
370
    -3
  6
Continuous
100
AcDbCircle
 10
-121.772072
 20
-141.035013
 30
0.0
 40
6.0
100
AcDbArc
 50
211.420366
 51
263.651415
  0
ARC
  5
92
100
AcDbEntity
  8
0
370
    -3
  6
Continuous
100
AcDbCircle
 10
-18.486018
 20
-156.43996
 30
0.0
 40
9.5
100
AcDbArc
 50
96.348585
 51
153.152787
  0
ARC
  5
93
100
AcDbEntity
  8
0
370
    -3
  6
Continuous
100
AcDbCircle
 10
-3.986018
 20
-150.93996
 30
0.0
 40
13.0
100
AcDbArc
 50
103.835224
 51
148.579634
  0
ARC
  5
94
100
AcDbEntity
  8
0
370
    -3
  6
Continuous
100
AcDbCircle
 10
-20.199963
 20
-141.035013
 30
0.0
 40
6.0
100
AcDbArc
 50
276.348585
 51
328.579634
  0
ARC
  5
95
100
AcDbEntity
  8
0
370
    -3
  6
Continuous
100
AcDbCircle
 10
-18.486018
 20
-23.43996
 30
0.0
 40
9.5
100
AcDbArc
 50
206.847213
 51
263.651415
  0
ARC
  5
96
100
AcDbEntity
  8
0
370
    -3
  6
Continuous
100
AcDbCircle
 10
-20.199963
 20
-38.844907
 30
0.0
 40
6.0
100
AcDbArc
 50
31.420366
 51
83.651415
  0
ARC
  5
97
100
AcDbEntity
  8
0
370
    -3
  6
Continuous
100
AcDbCircle
 10
-3.986018
 20
-28.93996
 30
0.0
 40
13.0
100
AcDbArc
 50
211.420366
 51
256.164776
  0
ARC
  5
98
100
AcDbEntity
  8
0
370
    -3
  6
Continuous
100
AcDbCircle
 10
-137.986018
 20
-28.93996
 30
0.0
 40
13.0
100
AcDbArc
 50
283.835224
 51
328.579634
  0
ARC
  5
99
100
AcDbEntity
  8
0
370
    -3
  6
Continuous
100
AcDbCircle
 10
-121.772072
 20
-38.844907
 30
0.0
 40
6.0
100
AcDbArc
 50
96.348585
 51
148.579634
  0
ARC
  5
9A
100
AcDbEntity
  8
0
370
    -3
  6
Continuous
100
AcDbCircle
 10
-123.486018
 20
-23.43996
 30
0.0
 40
9.5
100
AcDbArc
 50
276.348585
 51
333.152787
  0
ARC
  5
9B
100
AcDbEntity
  8
0
370
    -3
  6
Continuous
100
AcDbCircle
 10
-137.986018
 20
-150.93996
 30
0.0
 40
13.0
100
AcDbArc
 50
31.420366
 51
76.164776
  0
ARC
  5
9C
100
AcDbEntity
  8
0
370
    -3
  6
Continuous
100
AcDbCircle
 10
0.013982
 20
-24.93996
 30
0.0
 40
9.0
100
AcDbArc
 50
0.0
 51
90.0
  0
ARC
  5
9D
100
AcDbEntity
  8
0
370
    -3
  6
Continuous
100
AcDbCircle
 10
0.013982
 20
-154.93996
 30
0.0
 40
9.0
100
AcDbArc
 50
270.0
 51
0.0
  0
ARC
  5
9E
100
AcDbEntity
  8
0
370
    -3
  6
Continuous
100
AcDbCircle
 10
-141.986018
 20
-154.93996
 30
0.0
 40
9.0
100
AcDbArc
 50
180.0
 51
270.0
  0
ARC
  5
9F
100
AcDbEntity
  8
0
370
    -3
  6
Continuous
100
AcDbCircle
 10
-141.986018
 20
-24.93996
 30
0.0
 40
9.0
100
AcDbArc
 50
90.0
 51
180.0
  0
LINE
  5
A0
100
AcDbEntity
  8
0
370
    -3
  6
Continuous
100
AcDbLine
 10
9.013982
 20
-24.93996
 30
0.0
 11
9.013982
 21
-154.93996
 31
0.0
  0
LINE
  5
A1
100
AcDbEntity
  8
0
370
    -3
  6
Continuous
100
AcDbLine
 10
0.013982
 20
-163.93996
 30
0.0
 11
-141.986018
 21
-163.93996
 31
0.0
  0
LINE
  5
A2
100
AcDbEntity
  8
0
370
    -3
  6
Continuous
100
AcDbLine
 10
-150.986018
 20
-154.93996
 30
0.0
 11
-150.986018
 21
-24.93996
 31
0.0
  0
LINE
  5
A3
100
AcDbEntity
  8
0
370
    -3
  6
CENTER
100
AcDbLine
 10
-137.986018
 20
-139.574235
 30
0.0
 11
-137.986018
 21
-165.181345
 31
0.0
  0
LINE
  5
A4
100
AcDbEntity
  8
0
370
    -3
  6
CENTER
100
AcDbLine
 10
-3.986018
 20
-140.306752
 30
0.0
 11
-3.986018
 21
-165.181345
 31
0.0
  0
LINE
  5
A5
100
AcDbEntity
  8
0
370
    -3
  6
CENTER
100
AcDbLine
 10
-126.632629
 20
-150.93996
 30
0.0
 11
-152.022052
 21
-150.93996
 31
0.0
  0
LINE
  5
A6
100
AcDbEntity
  8
0
370
    -3
  6
CENTER
100
AcDbLine
 10
-127.120974
 20
-28.93996
 30
0.0
 11
-152.022052
 21
-28.93996
 31
0.0
  0
LINE
  5
A7
100
AcDbEntity
  8
0
370
    -3
  6
CENTER
100
AcDbLine
 10
-18.486018
 20
-149.096948
 30
0.0
 11
-18.486018
 21
-165.7242
 31
0.0
  0
LINE
  5
A8
100
AcDbEntity
  8
0
370
    -3
  6
CENTER
100
AcDbLine
 10
-123.486018
 20
-149.34112
 30
0.0
 11
-123.486018
 21
-165.181345
 31
0.0
  0
LINE
  5
A9
100
AcDbEntity
  8
0
370
    -3
  6
CENTER
100
AcDbLine
 10
-117.109917
 20
-23.43996
 30
0.0
 11
-131.212613
 21
-23.43996
 31
0.0
  0
LINE
  5
AA
100
AcDbEntity
  8
0
370
    -3
  6
CENTER
100
AcDbLine
 10
-116.133228
 20
-156.43996
 30
0.0
 11
-129.945952
 21
-156.43996
 31
0.0
  0
ARC
  5
AB
100
AcDbEntity
  8
0
370
    -3
  6
Continuous
100
AcDbCircle
 10
-128.986018
 20
-16.43996
 30
0.0
 40
0.5
100
AcDbArc
 50
270.0
 51
0.0
  0
ARC
  5
AC
100
AcDbEntity
  8
0
370
    -3
  6
Continuous
100
AcDbCircle
 10
-117.986018
 20
-16.43996
 30
0.0
 40
0.5
100
AcDbArc
 50
180.0
 51
270.0
  0
LINE
  5
AD
100
AcDbEntity
  8
0
370
    -3
  6
Continuous
100
AcDbLine
 10
-118.486018
 20
-16.43996
 30
0.0
 11
-118.486018
 21
-15.93996
 31
0.0
  0
LINE
  5
AE
100
AcDbEntity
  8
0
370
    -3
  6
Continuous
100
AcDbLine
 10
-128.486018
 20
-16.43996
 30
0.0
 11
-128.486018
 21
-15.93996
 31
0.0
  0
ARC
  5
AF
100
AcDbEntity
  8
0
370
    -3
  6
Continuous
100
AcDbCircle
 10
-23.986018
 20
-16.43996
 30
0.0
 40
0.5
100
AcDbArc
 50
270.0
 51
0.0
  0
LINE
  5
B0
100
AcDbEntity
  8
0
370
    -3
  6
Continuous
100
AcDbLine
 10
-23.486018
 20
-16.43996
 30
0.0
 11
-23.486018
 21
-15.93996
 31
0.0
  0
ARC
  5
B1
100
AcDbEntity
  8
0
370
    -3
  6
Continuous
100
AcDbCircle
 10
-12.986018
 20
-16.43996
 30
0.0
 40
0.5
100
AcDbArc
 50
180.0
 51
270.0
  0
LINE
  5
B2
100
AcDbEntity
  8
0
370
    -3
  6
Continuous
100
AcDbLine
 10
-13.486018
 20
-16.43996
 30
0.0
 11
-13.486018
 21
-15.93996
 31
0.0
  0
LINE
  5
B3
100
AcDbEntity
  8
0
370
    -3
  6
Continuous
100
AcDbLine
 10
-13.486018
 20
-163.43996
 30
0.0
 11
-13.486018
 21
-163.93996
 31
0.0
  0
ARC
  5
B4
100
AcDbEntity
  8
0
370
    -3
  6
Continuous
100
AcDbCircle
 10
-12.986018
 20
-163.43996
 30
0.0
 40
0.5
100
AcDbArc
 50
90.0
 51
180.0
  0
ARC
  5
B5
100
AcDbEntity
  8
0
370
    -3
  6
Continuous
100
AcDbCircle
 10
-23.986018
 20
-163.43996
 30
0.0
 40
0.5
100
AcDbArc
 50
0.0
 51
90.0
  0
LINE
  5
B6
100
AcDbEntity
  8
0
370
    -3
  6
Continuous
100
AcDbLine
 10
-23.486018
 20
-163.43996
 30
0.0
 11
-23.486018
 21
-163.93996
 31
0.0
  0
ARC
  5
B7
100
AcDbEntity
  8
0
370
    -3
  6
Continuous
100
AcDbCircle
 10
-117.986018
 20
-163.43996
 30
0.0
 40
0.5
100
AcDbArc
 50
90.0
 51
180.0
  0
LINE
  5
B8
100
AcDbEntity
  8
0
370
    -3
  6
Continuous
100
AcDbLine
 10
-118.486018
 20
-163.43996
 30
0.0
 11
-118.486018
 21
-163.93996
 31
0.0
  0
ARC
  5
B9
100
AcDbEntity
  8
0
370
    -3
  6
Continuous
100
AcDbCircle
 10
-128.986018
 20
-163.43996
 30
0.0
 40
0.5
100
AcDbArc
 50
0.0
 51
90.0
  0
LINE
  5
BA
100
AcDbEntity
  8
0
370
    -3
  6
Continuous
100
AcDbLine
 10
-128.486018
 20
-163.43996
 30
0.0
 11
-128.486018
 21
-163.93996
 31
0.0
  0
INSERT
  5
C6
100
AcDbEntity
  8
0
100
AcDbBlockReference
  2
ZU_SYM__USERS_HOME_SYMBOL_POO_SYM_B20_-1
 10
-123.486018
 20
-156.43996
 30
0.0
  0
INSERT
  5
D2
100
AcDbEntity
  8
0
100
AcDbBlockReference
  2
ZU_SYM__USERS_HOME_SYMBOL_POO_SYM_B20_00001-1
 10
-18.486018
 20
-156.43996
 30
0.0
  0
INSERT
  5
DE
100
AcDbEntity
  8
0
100
AcDbBlockReference
  2
ZU_SYM__USERS_HOME_SYMBOL_POO_SYM_B20_00002-1
 10
-18.486018
 20
-23.43996
 30
0.0
  0
INSERT
  5
EA
100
AcDbEntity
  8
0
100
AcDbBlockReference
  2
ZU_SYM__USERS_HOME_SYMBOL_POO_SYM_B20_00003-1
 10
-123.486018
 20
-23.43996
 30
0.0
  0
ARC
  5
EB
100
AcDbEntity
  8
0
370
    -3
  6
Continuous
100
AcDbCircle
 10
-173.986018
 20
-44.843652
 30
0.0
 40
3.0
100
AcDbArc
 50
180.0
 51
270.0
  0
ARC
  5
EC
100
AcDbEntity
  8
0
370
    -3
  6
Continuous
100
AcDbCircle
 10
-173.986018
 20
-57.755228
 30
0.0
 40
3.0
100
AcDbArc
 50
90.0
 51
180.0
  0
ARC
  5
ED
100
AcDbEntity
  8
0
370
    -3
  6
Continuous
100
AcDbCircle
 10
-173.986018
 20
-63.938693
 30
0.0
 40
3.0
100
AcDbArc
 50
90.0
 51
180.0
  0
ARC
  5
EE
100
AcDbEntity
  8
0
370
    -3
  6
Continuous
100
AcDbCircle
 10
-173.986018
 20
-142.124691
 30
0.0
 40
3.0
100
AcDbArc
 50
180.0
 51
270.0
  0
ARC
  5
EF
100
AcDbEntity
  8
0
370
    -3
  6
Continuous
100
AcDbCircle
 10
-173.986018
 20
-155.036267
 30
0.0
 40
3.0
100
AcDbArc
 50
90.0
 51
180.0
  0
ARC
  5
F0
100
AcDbEntity
  8
0
370
    -3
  6
Continuous
100
AcDbCircle
 10
-173.986018
 20
-135.941227
 30
0.0
 40
3.0
100
AcDbArc
 50
180.0
 51
270.0
  0
LINE
  5
F1
100
AcDbEntity
  8
0
370
    -3
  6
Continuous
100
AcDbLine
 10
-173.986018
 20
-60.938693
 30
0.0
 11
-168.986018
 21
-60.938693
 31
0.0
  0
LINE
  5
F2
100
AcDbEntity
  8
0
370
    -3
  6
Continuous
100
AcDbLine
 10
-173.986018
 20
-138.941227
 30
0.0
 11
-168.986018
 21
-138.941227
 31
0.0
  0
LINE
  5
F3
100
AcDbEntity
  8
0
370
    -3
  6
Continuous
100
AcDbLine
 10
-173.986018
 20
-152.036267
 30
0.0
 11
-168.986018
 21
-152.036267
 31
0.0
  0
LINE
  5
F4
100
AcDbEntity
  8
0
370
    -3
  6
Continuous
100
AcDbLine
 10
-173.986018
 20
-145.124691
 30
0.0
 11
-168.986018
 21
-145.124691
 31
0.0
  0
LINE
  5
F5
100
AcDbEntity
  8
0
370
    -3
  6
Continuous
100
AcDbLine
 10
-173.986018
 20
-47.843652
 30
0.0
 11
-168.986018
 21
-47.843652
 31
0.0
  0
LINE
  5
F6
100
AcDbEntity
  8
0
370
    -3
  6
Continuous
100
AcDbLine
 10
-173.986018
 20
-54.755228
 30
0.0
 11
-168.986018
 21
-54.755228
 31
0.0
  0
ARC
  5
F7
100
AcDbEntity
  8
0
370
    -3
  6
Continuous
100
AcDbCircle
 10
-158.986018
 20
-147.036267
 30
0.0
 40
5.0
100
AcDbArc
 50
107.457603
 51
180.0
  0
ARC
  5
F8
100
AcDbEntity
  8
0
370
    -3
  6
Continuous
100
AcDbCircle
 10
-158.986018
 20
-140.488747
 30
0.0
 40
5.0
100
AcDbArc
 50
107.457603
 51
180.0
  0
ARC
  5
F9
100
AcDbEntity
  8
0
370
    -3
  6
Continuous
100
AcDbCircle
 10
-158.986018
 20
-59.391172
 30
0.0
 40
5.0
100
AcDbArc
 50
180.0
 51
252.542397
  0
ARC
  5
FA
100
AcDbEntity
  8
0
370
    -3
  6
Continuous
100
AcDbCircle
 10
-158.986018
 20
-52.843652
 30
0.0
 40
5.0
100
AcDbArc
 50
180.0
 51
252.542397
  0
ARC
  5
FB
100
AcDbEntity
  8
0
370
    -3
  6
Continuous
100
AcDbCircle
 10
-168.986018
 20
-147.036267
 30
0.0
 40
5.0
100
AcDbArc
 50
270.0
 51
0.0
  0
ARC
  5
FC
100
AcDbEntity
  8
0
370
    -3
  6
Continuous
100
AcDbCircle
 10
-168.986018
 20
-140.124691
 30
0.0
 40
5.0
100
AcDbArc
 50
270.0
 51
0.0
  0
ARC
  5
FD
100
AcDbEntity
  8
0
370
    -3
  6
Continuous
100
AcDbCircle
 10
-168.986018
 20
-59.755228
 30
0.0
 40
5.0
100
AcDbArc
 50
0.0
 51
90.0
  0
ARC
  5
FE
100
AcDbEntity
  8
0
370
    -3
  6
Continuous
100
AcDbCircle
 10
-168.986018
 20
-52.843652
 30
0.0
 40
5.0
100
AcDbArc
 50
0.0
 51
90.0
  0
LINE
  5
FF
100
AcDbEntity
  8
0
370
    -3
  6
Continuous
100
AcDbLine
 10
-183.986524
 20
-158.43996
 30
0.0
 11
-183.986524
 21
-156.18996
 31
0.0
  0
LINE
  5
100
100
AcDbEntity
  8
0
370
    -3
  6
Continuous
100
AcDbLine
 10
-183.986524
 20
-41.43996
 30
0.0
 11
-183.986524
 21
-43.68996
 31
0.0
  0
LINE
  5
101
100
AcDbEntity
  8
0
370
    -3
  6
Continuous
100
AcDbLine
 10
-183.986524
 20
-43.68996
 30
0.0
 11
-183.986524
 21
-41.521998
 31
0.0
  0
LINE
  5
102
100
AcDbEntity
  8
0
370
    -3
  6
Continuous
100
AcDbLine
 10
-183.986018
 20
-41.439956
 30
0.0
 11
-183.986018
 21
-43.689956
 31
0.0
  0
LINE
  5
103
100
AcDbEntity
  8
0
370
    -3
  6
Continuous
100
AcDbLine
 10
-184.086018
 20
-158.43996
 30
0.0
 11
-184.086018
 21
-158.43996
 31
0.0
  0
LINE
  5
104
100
AcDbEntity
  8
0
370
    -3
  6
Continuous
100
AcDbLine
 10
-183.986018
 20
-158.437522
 30
0.0
 11
-183.986018
 21
-41.43996
 31
0.0
  0
LINE
  5
105
100
AcDbEntity
  8
0
370
    -3
  6
Continuous
100
AcDbLine
 10
-183.986018
 20
-158.431232
 30
0.0
 11
-183.986018
 21
-99.93996
 31
0.0
  0
LINE
  5
106
100
AcDbEntity
  8
0
370
    -3
  6
Continuous
100
AcDbLine
 10
-183.986018
 20
-41.448687
 30
0.0
 11
-183.986018
 21
-99.93996
 31
0.0
  0
ARC
  5
107
100
AcDbEntity
  8
0
370
    -3
  6
Continuous
100
AcDbCircle
 10
61.013982
 20
-93.9399
 30
0.0
 40
2.0
100
AcDbArc
 50
90.0
 51
180.0
  0
ARC
  5
108
100
AcDbEntity
  8
0
370
    -3
  6
Continuous
100
AcDbCircle
 10
59.413982
 20
-98.5399
 30
0.0
 40
0.4
100
AcDbArc
 50
180.0
 51
270.0
  0
LINE
  5
109
100
AcDbEntity
  8
0
370
    -3
  6
Continuous
100
AcDbLine
 10
59.013982
 20
-98.5399
 30
0.0
 11
59.013982
 21
-55.3399
 31
0.0
  0
LINE
  5
10A
100
AcDbEntity
  8
0
370
    -3
  6
Continuous
100
AcDbLine
 10
79.663982
 20
-61.9399
 30
0.0
 11
61.013982
 21
-61.9399
 31
0.0
  0
ARC
  5
10B
100
AcDbEntity
  8
0
370
    -3
  6
Continuous
100
AcDbCircle
 10
74.614253
 20
-54.5399
 30
0.0
 40
0.4
100
AcDbArc
 50
270.0
 51
350.405932
  0
LINE
  5
10C
100
AcDbEntity
  8
0
370
    -3
  6
Continuous
100
AcDbLine
 10
74.614253
 20
-54.9399
 30
0.0
 11
59.413982
 21
-54.9399
 31
0.0
  0
ARC
  5
10D
100
AcDbEntity
  8
0
370
    -3
  6
Continuous
100
AcDbCircle
 10
59.413982
 20
-55.3399
 30
0.0
 40
0.4
100
AcDbArc
 50
90.0
 51
180.0
  0
ARC
  5
10E
100
AcDbEntity
  8
0
370
    -3
  6
Continuous
100
AcDbCircle
 10
61.013982
 20
-59.9399
 30
0.0
 40
2.0
100
AcDbArc
 50
180.0
 51
270.0
  0
LINE
  5
10F
100
AcDbEntity
  8
0
370
    -3
  6
Continuous
100
AcDbLine
 10
88.514255
 20
-54.439917
 30
0.0
 11
75.514255
 21
-54.439932
 31
0.0
  0
ARC
  5
110
100
AcDbEntity
  8
0
370
    -3
  6
Continuous
100
AcDbCircle
 10
75.205861
 20
-54.6399
 30
0.0
 40
0.2
100
AcDbArc
 50
90.0
 51
170.405932
  0
LINE
  5
111
100
AcDbEntity
  8
0
370
    -3
  6
Continuous
100
AcDbLine
 10
88.514308
 20
-99.439902
 30
0.0
 11
75.514308
 21
-99.439917
 31
0.0
  0
LINE
  5
112
100
AcDbEntity
  8
0
370
    -3
  6
Continuous
100
AcDbLine
 10
75.205861
 20
-99.4399
 30
0.0
 11
105.614266
 21
-99.4399
 31
0.0
  0
ARC
  5
113
100
AcDbEntity
  8
0
370
    -3
  6
Continuous
100
AcDbCircle
 10
75.205861
 20
-99.2399
 30
0.0
 40
0.2
100
AcDbArc
 50
189.594068
 51
270.0
  0
ARC
  5
114
100
AcDbEntity
  8
0
370
    -3
  6
Continuous
100
AcDbCircle
 10
74.614253
 20
-99.3399
 30
0.0
 40
0.4
100
AcDbArc
 50
9.594068
 51
90.0
  0
LINE
  5
115
100
AcDbEntity
  8
0
370
    -3
  6
Continuous
100
AcDbLine
 10
79.663982
 20
-91.9399
 30
0.0
 11
61.013982
 21
-91.9399
 31
0.0
  0
LINE
  5
116
100
AcDbEntity
  8
0
370
    -3
  6
Continuous
100
AcDbLine
 10
74.614253
 20
-98.9399
 30
0.0
 11
59.413982
 21
-98.9399
 31
0.0
  0
LINE
  5
117
100
AcDbEntity
  8
0
370
    -3
  6
Continuous
100
AcDbLine
 10
105.013982
 20
-91.9399
 30
0.0
 11
81.013982
 21
-91.9399
 31
0.0
  0
LINE
  5
118
100
AcDbEntity
  8
0
370
    -3
  6
Continuous
100
AcDbLine
 10
106.014266
 20
-101.43996
 30
0.0
 11
106.014266
 21
-99.8399
 31
0.0
  0
ARC
  5
119
100
AcDbEntity
  8
0
370
    -3
  6
Continuous
100
AcDbCircle
 10
105.614266
 20
-99.8399
 30
0.0
 40
0.4
100
AcDbArc
 50
0.0
 51
90.0
  0
LINE
  5
11A
100
AcDbEntity
  8
0
370
    -3
  6
Continuous
100
AcDbLine
 10
105.013982
 20
-92.1399
 30
0.0
 11
105.013982
 21
-76.9399
 31
0.0
  0
LINE
  5
11B
100
AcDbEntity
  8
0
370
    -3
  6
Continuous
100
AcDbLine
 10
75.205861
 20
-54.4399
 30
0.0
 11
105.614266
 21
-54.4399
 31
0.0
  0
LINE
  5
11C
100
AcDbEntity
  8
0
370
    -3
  6
Continuous
100
AcDbLine
 10
105.013982
 20
-61.9399
 30
0.0
 11
81.013982
 21
-61.9399
 31
0.0
  0
LINE
  5
11D
100
AcDbEntity
  8
0
370
    -3
  6
Continuous
100
AcDbLine
 10
105.013982
 20
-61.7399
 30
0.0
 11
105.013982
 21
-76.9399
 31
0.0
  0
LINE
  5
11E
100
AcDbEntity
  8
0
370
    -3
  6
Continuous
100
AcDbLine
 10
106.014266
 20
-53.08996
 30
0.0
 11
106.014266
 21
-54.0399
 31
0.0
  0
ARC
  5
11F
100
AcDbEntity
  8
0
370
    -3
  6
Continuous
100
AcDbCircle
 10
106.414266
 20
-53.08996
 30
0.0
 40
0.4
100
AcDbArc
 50
90.0
 51
180.0
  0
ARC
  5
120
100
AcDbEntity
  8
0
370
    -3
  6
Continuous
100
AcDbCircle
 10
105.614266
 20
-54.0399
 30
0.0
 40
0.4
100
AcDbArc
 50
270.0
 51
0.0
  0
LINE
  5
121
100
AcDbEntity
  8
0
370
    -3
  6
Continuous
100
AcDbLine
 10
59.013982
 20
-58.63996
 30
0.0
 11
173.013982
 21
-58.63996
 31
0.0
  0
LINE
  5
122
100
AcDbEntity
  8
0
370
    -3
  6
Continuous
100
AcDbLine
 10
106.414266
 20
-52.68996
 30
0.0
 11
120.013714
 21
-52.68996
 31
0.0
  0
LINE
  5
123
100
AcDbEntity
  8
0
370
    -3
  6
Continuous
100
AcDbLine
 10
105.013982
 20
-61.7399
 30
0.0
 11
127.013982
 21
-61.7399
 31
0.0
  0
LINE
  5
124
100
AcDbEntity
  8
0
370
    -3
  6
Continuous
100
AcDbLine
 10
142.013713
 20
-54.0399
 30
0.0
 11
142.013715
 21
-51.93996
 31
0.0
  0
ARC
  5
125
100
AcDbEntity
  8
0
370
    -3
  6
Continuous
100
AcDbCircle
 10
142.413713
 20
-54.0399
 30
0.0
 40
0.4
100
AcDbArc
 50
179.999927
 51
270.0
  0
ARC
  5
126
100
AcDbEntity
  8
0
370
    -3
  6
Continuous
100
AcDbCircle
 10
142.413713
 20
-54.03996
 30
0.0
 40
0.4
100
AcDbArc
 50
179.999927
 51
270.0
  0
LINE
  5
127
100
AcDbEntity
  8
0
370
    -3
  6
Continuous
100
AcDbLine
 10
142.013713
 20
-54.039959
 30
0.0
 11
142.013715
 21
-51.93996
 31
0.0
  0
ARC
  5
128
100
AcDbEntity
  8
0
370
    -3
  6
Continuous
100
AcDbCircle
 10
141.613715
 20
-51.93996
 30
0.0
 40
0.4
100
AcDbArc
 50
359.999927
 51
90.0
  0
LINE
  5
129
100
AcDbEntity
  8
0
370
    -3
  6
Continuous
100
AcDbLine
 10
120.013716
 20
-51.53996
 30
0.0
 11
141.613715
 21
-51.53996
 31
0.0
  0
LINE
  5
12A
100
AcDbEntity
  8
0
370
    -3
  6
Continuous
100
AcDbLine
 10
120.013714
 20
-52.68996
 30
0.0
 11
120.013716
 21
-51.53996
 31
0.0
  0
LINE
  5
12B
100
AcDbEntity
  8
0
370
    -3
  6
Continuous
100
AcDbLine
 10
127.013982
 20
-61.7399
 30
0.0
 11
127.013982
 21
-76.9399
 31
0.0
  0
LINE
  5
12C
100
AcDbEntity
  8
0
370
    -3
  6
Continuous
100
AcDbLine
 10
105.013982
 20
-92.1399
 30
0.0
 11
127.013982
 21
-92.1399
 31
0.0
  0
LINE
  5
12D
100
AcDbEntity
  8
0
370
    -3
  6
Continuous
100
AcDbLine
 10
127.013982
 20
-92.1399
 30
0.0
 11
127.013982
 21
-76.9399
 31
0.0
  0
LINE
  5
12E
100
AcDbEntity
  8
0
370
    -3
  6
Continuous
100
AcDbLine
 10
142.013713
 20
-99.839901
 30
0.0
 11
142.013716
 21
-102.33996
 31
0.0
  0
ARC
  5
12F
100
AcDbEntity
  8
0
370
    -3
  6
Continuous
100
AcDbCircle
 10
142.413713
 20
-99.8399
 30
0.0
 40
0.4
100
AcDbArc
 50
90.0
 51
180.000073
  0
LINE
  5
130
100
AcDbEntity
  8
0
370
    -3
  6
Continuous
100
AcDbLine
 10
124.514266
 20
-102.33996
 30
0.0
 11
142.01373
 21
-102.33996
 31
0.0
  0
LINE
  5
131
100
AcDbEntity
  8
0
370
    -3
  6
Continuous
100
AcDbLine
 10
106.014266
 20
-101.43996
 30
0.0
 11
124.514266
 21
-101.43996
 31
0.0
  0
LINE
  5
132
100
AcDbEntity
  8
0
370
    -3
  6
Continuous
100
AcDbLine
 10
124.514266
 20
-102.33996
 30
0.0
 11
124.514266
 21
-101.43996
 31
0.0
  0
LINE
  5
133
100
AcDbEntity
  8
0
370
    -3
  6
Continuous
100
AcDbLine
 10
142.413713
 20
-99.4399
 30
0.0
 11
156.813712
 21
-99.4399
 31
0.0
  0
LINE
  5
134
100
AcDbEntity
  8
0
370
    -3
  6
Continuous
100
AcDbLine
 10
171.013982
 20
-91.9399
 30
0.0
 11
152.363982
 21
-91.9399
 31
0.0
  0
LINE
  5
135
100
AcDbEntity
  8
0
370
    -3
  6
Continuous
100
AcDbLine
 10
151.013982
 20
-91.9399
 30
0.0
 11
127.013982
 21
-91.9399
 31
0.0
  0
ARC
  5
136
100
AcDbEntity
  8
0
370
    -3
  6
Continuous
100
AcDbCircle
 10
157.40532
 20
-99.3399
 30
0.0
 40
0.4
100
AcDbArc
 50
90.0
 51
170.405932
  0
ARC
  5
137
100
AcDbEntity
  8
0
370
    -3
  6
Continuous
100
AcDbCircle
 10
156.813712
 20
-99.2399
 30
0.0
 40
0.2
100
AcDbArc
 50
270.0
 51
350.405932
  0
LINE
  5
138
100
AcDbEntity
  8
0
370
    -3
  6
Continuous
100
AcDbLine
 10
157.40532
 20
-98.9399
 30
0.0
 11
172.613982
 21
-98.9399
 31
0.0
  0
ARC
  5
139
100
AcDbEntity
  8
0
370
    -3
  6
Continuous
100
AcDbCircle
 10
172.613982
 20
-98.5399
 30
0.0
 40
0.4
100
AcDbArc
 50
270.0
 51
0.0
  0
LINE
  5
13A
100
AcDbEntity
  8
0
370
    -3
  6
Continuous
100
AcDbLine
 10
173.013982
 20
-98.5399
 30
0.0
 11
173.013982
 21
-54.9399
 31
0.0
  0
ARC
  5
13B
100
AcDbEntity
  8
0
370
    -3
  6
Continuous
100
AcDbCircle
 10
171.013982
 20
-93.9399
 30
0.0
 40
2.0
100
AcDbArc
 50
0.0
 51
90.0
  0
LINE
  5
13C
100
AcDbEntity
  8
0
370
    -3
  6
Continuous
100
AcDbLine
 10
151.013982
 20
-61.9399
 30
0.0
 11
127.013982
 21
-61.9399
 31
0.0
  0
LINE
  5
13D
100
AcDbEntity
  8
0
370
    -3
  6
Continuous
100
AcDbLine
 10
171.013982
 20
-61.9399
 30
0.0
 11
152.363982
 21
-61.9399
 31
0.0
  0
LINE
  5
13E
100
AcDbEntity
  8
0
370
    -3
  6
CENTER
100
AcDbLine
 10
176.57952
 20
-76.93996
 30
0.0
 11
55.111705
 21
-76.93996
 31
0.0
  0
ARC
  5
13F
100
AcDbEntity
  8
0
370
    -3
  6
Continuous
100
AcDbCircle
 10
157.40532
 20
-54.5399
 30
0.0
 40
0.4
100
AcDbArc
 50
189.594068
 51
270.0
  0
LINE
  5
140
100
AcDbEntity
  8
0
370
    -3
  6
Continuous
100
AcDbLine
 10
157.40532
 20
-54.9399
 30
0.0
 11
173.013982
 21
-54.9399
 31
0.0
  0
LINE
  5
141
100
AcDbEntity
  8
0
370
    -3
  6
Continuous
100
AcDbLine
 10
142.413713
 20
-54.4399
 30
0.0
 11
156.813712
 21
-54.4399
 31
0.0
  0
ARC
  5
142
100
AcDbEntity
  8
0
370
    -3
  6
Continuous
100
AcDbCircle
 10
156.813712
 20
-54.6399
 30
0.0
 40
0.2
100
AcDbArc
 50
9.594068
 51
90.0
  0
CIRCLE
  5
143
100
AcDbEntity
  8
0
370
    -3
  6
Continuous
100
AcDbCircle
 10
245.013982
 20
-76.93996
 30
0.0
 40
22.0
  0
ARC
  5
144
100
AcDbEntity
  8
0
370
    -3
  6
Continuous
100
AcDbCircle
 10
245.013982
 20
-76.93996
 30
0.0
 40
15.0
100
AcDbArc
 50
105.46601
 51
74.53399
  0
LINE
  5
145
100
AcDbEntity
  8
0
370
    -3
  6
Continuous
100
AcDbLine
 10
249.013982
 20
-58.63996
 30
0.0
 11
241.013982
 21
-58.63996
 31
0.0
  0
LINE
  5
146
100
AcDbEntity
  8
0
370
    -3
  6
Continuous
100
AcDbLine
 10
249.013982
 20
-58.63996
 30
0.0
 11
249.013982
 21
-62.483127
 31
0.0
  0
LINE
  5
147
100
AcDbEntity
  8
0
370
    -3
  6
Continuous
100
AcDbLine
 10
241.013982
 20
-58.63996
 30
0.0
 11
241.013982
 21
-62.483127
 31
0.0
  0
LINE
  5
148
100
AcDbEntity
  8
0
370
    -3
  6
Continuous
100
AcDbLine
 10
-183.986018
 20
-40.43996
 30
0.0
 11
-183.986018
 21
-99.93996
 31
0.0
  0
LINE
  5
149
100
AcDbEntity
  8
0
370
    -3
  6
Continuous
100
AcDbLine
 10
-183.986018
 20
-159.43996
 30
0.0
 11
-183.986018
 21
-99.93996
 31
0.0
  0
LINE
  5
14A
100
AcDbEntity
  8
0
370
    -3
  6
Continuous
100
AcDbLine
 10
-183.986018
 20
-99.93996
 30
0.0
 11
-183.986018
 21
-159.413774
 31
0.0
  0
LINE
  5
14B
100
AcDbEntity
  8
0
370
    -3
  6
Continuous
100
AcDbLine
 10
-183.986018
 20
-99.93996
 30
0.0
 11
-183.986018
 21
-40.466146
 31
0.0
  0
CIRCLE
  5
14C
100
AcDbEntity
  8
0
370
    -3
  6
Continuous
100
AcDbCircle
 10
-3.986018
 20
-28.93996
 30
0.0
 40
4.188
  0
CIRCLE
  5
14D
100
AcDbEntity
  8
0
370
    -3
  6
Continuous
100
AcDbCircle
 10
-3.986018
 20
-28.93996
 30
0.0
 40
5.0
  0
CIRCLE
  5
14E
100
AcDbEntity
  8
0
370
    -3
  6
Continuous
100
AcDbCircle
 10
-3.986018
 20
-150.93996
 30
0.0
 40
5.0
  0
CIRCLE
  5
14F
100
AcDbEntity
  8
0
370
    -3
  6
Continuous
100
AcDbCircle
 10
-3.986018
 20
-150.93996
 30
0.0
 40
4.188
  0
CIRCLE
  5
150
100
AcDbEntity
  8
0
370
    -3
  6
Continuous
100
AcDbCircle
 10
-137.986018
 20
-150.93996
 30
0.0
 40
5.0
  0
CIRCLE
  5
151
100
AcDbEntity
  8
0
370
    -3
  6
Continuous
100
AcDbCircle
 10
-137.986018
 20
-150.93996
 30
0.0
 40
4.188
  0
CIRCLE
  5
152
100
AcDbEntity
  8
0
370
    -3
  6
Continuous
100
AcDbCircle
 10
-137.986018
 20
-28.93996
 30
0.0
 40
5.0
  0
CIRCLE
  5
153
100
AcDbEntity
  8
0
370
    -3
  6
Continuous
100
AcDbCircle
 10
-137.986018
 20
-28.93996
 30
0.0
 40
4.188
  0
LINE
  5
154
100
AcDbEntity
  8
0
370
    -3
  6
CENTER
100
AcDbLine
 10
-51.986018
 20
198.217389
 30
0.0
 11
-51.986018
 21
59.840381
 31
0.0
  0
LINE
  5
155
100
AcDbEntity
  8
0
370
    -3
  6
CENTER
100
AcDbLine
 10
-420.740534
 20
132.78225
 30
0.0
 11
12.009368
 21
132.78225
 31
0.0
  0
LINE
  5
156
100
AcDbEntity
  8
0
370
    -3
  6
Continuous
100
AcDbLine
 10
-72.986018
 20
189.78225
 30
0.0
 11
-51.986018
 21
189.78225
 31
0.0
  0
ARC
  5
157
100
AcDbEntity
  8
0
370
    -3
  6
Continuous
100
AcDbCircle
 10
-72.986018
 20
188.78225
 30
0.0
 40
1.0
100
AcDbArc
 50
90.0
 51
180.0
  0
LINE
  5
158
100
AcDbEntity
  8
0
370
    -3
  6
Continuous
100
AcDbLine
 10
-73.986018
 20
185.78225
 30
0.0
 11
-73.986018
 21
188.78225
 31
0.0
  0
LINE
  5
159
100
AcDbEntity
  8
0
370
    -3
  6
Continuous
100
AcDbLine
 10
-30.986018
 20
189.78225
 30
0.0
 11
-51.986018
 21
189.78225
 31
0.0
  0
ARC
  5
15A
100
AcDbEntity
  8
0
370
    -3
  6
Continuous
100
AcDbCircle
 10
-30.986018
 20
188.78225
 30
0.0
 40
1.0
100
AcDbArc
 50
0.0
 51
90.0
  0
LINE
  5
15B
100
AcDbEntity
  8
0
370
    -3
  6
Continuous
100
AcDbLine
 10
-29.986018
 20
185.78225
 30
0.0
 11
-29.986018
 21
188.78225
 31
0.0
  0
LINE
  5
15C
100
AcDbEntity
  8
0
370
    -3
  6
Continuous
100
AcDbLine
 10
-72.986018
 20
75.78225
 30
0.0
 11
-51.986018
 21
75.78225
 31
0.0
  0
ARC
  5
15D
100
AcDbEntity
  8
0
370
    -3
  6
Continuous
100
AcDbCircle
 10
-72.986018
 20
76.78225
 30
0.0
 40
1.0
100
AcDbArc
 50
180.0
 51
270.0
  0
LINE
  5
15E
100
AcDbEntity
  8
0
370
    -3
  6
Continuous
100
AcDbLine
 10
-73.986018
 20
79.78225
 30
0.0
 11
-73.986018
 21
76.78225
 31
0.0
  0
LINE
  5
15F
100
AcDbEntity
  8
0
370
    -3
  6
Continuous
100
AcDbLine
 10
-30.986018
 20
75.78225
 30
0.0
 11
-51.986018
 21
75.78225
 31
0.0
  0
ARC
  5
160
100
AcDbEntity
  8
0
370
    -3
  6
Continuous
100
AcDbCircle
 10
-30.986018
 20
76.78225
 30
0.0
 40
1.0
100
AcDbArc
 50
270.0
 51
0.0
  0
LINE
  5
161
100
AcDbEntity
  8
0
370
    -3
  6
Continuous
100
AcDbLine
 10
-29.986018
 20
79.78225
 30
0.0
 11
-29.986018
 21
76.78225
 31
0.0
  0
ARC
  5
162
100
AcDbEntity
  8
0
370
    -3
  6
Continuous
100
AcDbCircle
 10
-168.986018
 20
92.597519
 30
0.0
 40
5.0
100
AcDbArc
 50
270.0
 51
0.0
  0
ARC
  5
163
100
AcDbEntity
  8
0
370
    -3
  6
Continuous
100
AcDbCircle
 10
-168.986018
 20
85.685942
 30
0.0
 40
5.0
100
AcDbArc
 50
270.0
 51
0.0
  0
ARC
  5
164
100
AcDbEntity
  8
0
370
    -3
  6
Continuous
100
AcDbCircle
 10
-158.986018
 20
92.233463
 30
0.0
 40
5.0
100
AcDbArc
 50
107.457603
 51
180.0
  0
ARC
  5
165
100
AcDbEntity
  8
0
370
    -3
  6
Continuous
100
AcDbCircle
 10
-158.986018
 20
85.685942
 30
0.0
 40
5.0
100
AcDbArc
 50
107.457603
 51
180.0
  0
LINE
  5
166
100
AcDbEntity
  8
0
370
    -3
  6
Continuous
100
AcDbLine
 10
-173.986018
 20
87.597519
 30
0.0
 11
-168.986018
 21
87.597519
 31
0.0
  0
LINE
  5
167
100
AcDbEntity
  8
0
370
    -3
  6
Continuous
100
AcDbLine
 10
-173.986018
 20
80.685942
 30
0.0
 11
-168.986018
 21
80.685942
 31
0.0
  0
LINE
  5
168
100
AcDbEntity
  8
0
370
    -3
  6
Continuous
100
AcDbLine
 10
-176.986018
 20
90.597519
 30
0.0
 11
-176.986018
 21
132.78225
 31
0.0
  0
LINE
  5
169
100
AcDbEntity
  8
0
370
    -3
  6
Continuous
100
AcDbLine
 10
-173.986018
 20
93.780983
 30
0.0
 11
-168.986018
 21
93.780983
 31
0.0
  0
LINE
  5
16A
100
AcDbEntity
  8
0
370
    -3
  6
Continuous
100
AcDbLine
 10
-176.986018
 20
77.28225
 30
0.0
 11
-176.986018
 21
77.685942
 31
0.0
  0
LINE
  5
16B
100
AcDbEntity
  8
0
370
    -3
  6
Continuous
100
AcDbLine
 10
-176.986018
 20
77.28225
 30
0.0
 11
-176.986018
 21
77.685942
 31
0.0
  0
LINE
  5
16C
100
AcDbEntity
  8
0
370
    -3
  6
Continuous
100
AcDbLine
 10
-176.986018
 20
77.28225
 30
0.0
 11
-176.986018
 21
76.28225
 31
0.0
  0
ARC
  5
16D
100
AcDbEntity
  8
0
370
    -3
  6
Continuous
100
AcDbCircle
 10
-173.986018
 20
96.780983
 30
0.0
 40
3.0
100
AcDbArc
 50
180.0
 51
270.0
  0
ARC
  5
16E
100
AcDbEntity
  8
0
370
    -3
  6
Continuous
100
AcDbCircle
 10
-173.986018
 20
77.685942
 30
0.0
 40
3.0
100
AcDbArc
 50
90.0
 51
180.0
  0
ARC
  5
16F
100
AcDbEntity
  8
0
370
    -3
  6
Continuous
100
AcDbCircle
 10
-173.986018
 20
90.597519
 30
0.0
 40
3.0
100
AcDbArc
 50
180.0
 51
270.0
  0
ARC
  5
170
100
AcDbEntity
  8
0
370
    -3
  6
Continuous
100
AcDbCircle
 10
-179.986018
 20
76.28225
 30
0.0
 40
3.0
100
AcDbArc
 50
270.0
 51
0.0
  0
ARC
  5
171
100
AcDbEntity
  8
0
370
    -3
  6
Continuous
100
AcDbCircle
 10
-168.986018
 20
179.878557
 30
0.0
 40
5.0
100
AcDbArc
 50
0.0
 51
90.0
  0
ARC
  5
172
100
AcDbEntity
  8
0
370
    -3
  6
Continuous
100
AcDbCircle
 10
-168.986018
 20
172.966981
 30
0.0
 40
5.0
100
AcDbArc
 50
0.0
 51
90.0
  0
ARC
  5
173
100
AcDbEntity
  8
0
370
    -3
  6
Continuous
100
AcDbCircle
 10
-158.986018
 20
179.878557
 30
0.0
 40
5.0
100
AcDbArc
 50
180.0
 51
252.542397
  0
ARC
  5
174
100
AcDbEntity
  8
0
370
    -3
  6
Continuous
100
AcDbCircle
 10
-158.986018
 20
173.331037
 30
0.0
 40
5.0
100
AcDbArc
 50
180.0
 51
252.542397
  0
LINE
  5
175
100
AcDbEntity
  8
0
370
    -3
  6
Continuous
100
AcDbLine
 10
-173.986018
 20
177.966981
 30
0.0
 11
-168.986018
 21
177.966981
 31
0.0
  0
LINE
  5
176
100
AcDbEntity
  8
0
370
    -3
  6
Continuous
100
AcDbLine
 10
-173.986018
 20
184.878557
 30
0.0
 11
-168.986018
 21
184.878557
 31
0.0
  0
LINE
  5
177
100
AcDbEntity
  8
0
370
    -3
  6
Continuous
100
AcDbLine
 10
-176.986018
 20
188.28225
 30
0.0
 11
-176.986018
 21
187.878557
 31
0.0
  0
LINE
  5
178
100
AcDbEntity
  8
0
370
    -3
  6
Continuous
100
AcDbLine
 10
-176.986018
 20
174.966981
 30
0.0
 11
-176.986018
 21
132.78225
 31
0.0
  0
LINE
  5
179
100
AcDbEntity
  8
0
370
    -3
  6
Continuous
100
AcDbLine
 10
-173.986018
 20
171.783517
 30
0.0
 11
-168.986018
 21
171.783517
 31
0.0
  0
LINE
  5
17A
100
AcDbEntity
  8
0
370
    -3
  6
Continuous
100
AcDbLine
 10
-176.986018
 20
188.28225
 30
0.0
 11
-176.986018
 21
189.28225
 31
0.0
  0
ARC
  5
17B
100
AcDbEntity
  8
0
370
    -3
  6
Continuous
100
AcDbCircle
 10
-173.986018
 20
168.783517
 30
0.0
 40
3.0
100
AcDbArc
 50
90.0
 51
180.0
  0
ARC
  5
17C
100
AcDbEntity
  8
0
370
    -3
  6
Continuous
100
AcDbCircle
 10
-173.986018
 20
174.966981
 30
0.0
 40
3.0
100
AcDbArc
 50
90.0
 51
180.0
  0
ARC
  5
17D
100
AcDbEntity
  8
0
370
    -3
  6
Continuous
100
AcDbCircle
 10
-179.986018
 20
189.28225
 30
0.0
 40
3.0
100
AcDbArc
 50
0.0
 51
90.0
  0
LINE
  5
17E
100
AcDbEntity
  8
0
370
    -3
  6
Continuous
100
AcDbLine
 10
-150.986018
 20
83.78225
 30
0.0
 11
-151.195479
 21
95.78225
 31
0.0
  0
LINE
  5
17F
100
AcDbEntity
  8
0
370
    -3
  6
Continuous
100
AcDbLine
 10
-94.486018
 20
79.78225
 30
0.0
 11
-94.486018
 21
83.78225
 31
0.0
  0
LINE
  5
180
100
AcDbEntity
  8
0
370
    -3
  6
Continuous
100
AcDbLine
 10
9.013982
 20
83.78225
 30
0.0
 11
-8.913406
 21
83.78225
 31
0.0
  0
LINE
  5
181
100
AcDbEntity
  8
0
370
    -3
  6
Continuous
100
AcDbLine
 10
-9.486018
 20
79.78225
 30
0.0
 11
-9.486018
 21
83.78225
 31
0.0
  0
LINE
  5
182
100
AcDbEntity
  8
0
370
    -3
  6
Continuous
100
AcDbLine
 10
-94.486018
 20
79.78225
 30
0.0
 11
-28.986018
 21
79.78225
 31
0.0
  0
LINE
  5
183
100
AcDbEntity
  8
0
370
    -3
  6
Continuous
100
AcDbLine
 10
-9.486018
 20
79.78225
 30
0.0
 11
-28.986018
 21
79.78225
 31
0.0
  0
LINE
  5
184
100
AcDbEntity
  8
0
370
    -3
  6
Continuous
100
AcDbLine
 10
-28.986018
 20
185.78225
 30
0.0
 11
-9.486018
 21
185.78225
 31
0.0
  0
LINE
  5
185
100
AcDbEntity
  8
0
370
    -3
  6
Continuous
100
AcDbLine
 10
-9.486018
 20
181.78225
 30
0.0
 11
-9.486018
 21
185.78225
 31
0.0
  0
LINE
  5
186
100
AcDbEntity
  8
0
370
    -3
  6
Continuous
100
AcDbLine
 10
-151.204206
 20
95.78225
 30
0.0
 11
-149.860166
 21
171.78225
 31
0.0
  0
LINE
  5
187
100
AcDbEntity
  8
0
370
    -3
  6
Continuous
100
AcDbLine
 10
-149.860166
 20
171.78225
 30
0.0
 11
-149.860166
 21
181.78225
 31
0.0
  0
LINE
  5
188
100
AcDbEntity
  8
0
370
    -3
  6
Continuous
100
AcDbLine
 10
-94.486018
 20
181.78225
 30
0.0
 11
-94.486018
 21
185.78225
 31
0.0
  0
LINE
  5
189
100
AcDbEntity
  8
0
370
    -3
  6
Continuous
100
AcDbLine
 10
-28.986018
 20
185.78225
 30
0.0
 11
-94.486018
 21
185.78225
 31
0.0
  0
LINE
  5
18A
100
AcDbEntity
  8
0
370
    -3
  6
Continuous
100
AcDbLine
 10
9.223443
 20
95.78225
 30
0.0
 11
9.013982
 21
83.78225
 31
0.0
  0
LINE
  5
18B
100
AcDbEntity
  8
0
370
    -3
  6
Continuous
100
AcDbLine
 10
7.88813
 20
181.78225
 30
0.0
 11
-8.913406
 21
181.78225
 31
0.0
  0
LINE
  5
18C
100
AcDbEntity
  8
0
370
    -3
  6
Continuous
100
AcDbLine
 10
7.88813
 20
171.78225
 30
0.0
 11
7.88813
 21
181.78225
 31
0.0
  0
LINE
  5
18D
100
AcDbEntity
  8
0
370
    -3
  6
Continuous
100
AcDbLine
 10
9.23217
 20
95.78225
 30
0.0
 11
7.88813
 21
171.78225
 31
0.0
  0
LINE
  5
18E
100
AcDbEntity
  8
0
370
    -3
  6
Continuous
100
AcDbLine
 10
-8.913406
 20
83.78225
 30
0.0
 11
-150.986018
 21
83.78225
 31
0.0
  0
LINE
  5
18F
100
AcDbEntity
  8
0
370
    -3
  6
Continuous
100
AcDbLine
 10
-8.913406
 20
181.78225
 30
0.0
 11
-149.860166
 21
181.78225
 31
0.0
  0
LINE
  5
190
100
AcDbEntity
  8
0
370
    -3
  6
Continuous
100
AcDbLine
 10
-151.195479
 20
95.78225
 30
0.0
 11
-54.776557
 21
95.78225
 31
0.0
  0
LINE
  5
191
100
AcDbEntity
  8
0
370
    -3
  6
Continuous
100
AcDbLine
 10
-54.776557
 20
95.78225
 30
0.0
 11
9.23217
 21
95.78225
 31
0.0
  0
ARC
  5
192
100
AcDbEntity
  8
0
370
    -3
  6
Continuous
100
AcDbCircle
 10
-151.860166
 20
172.78225
 30
0.0
 40
2.0
100
AcDbArc
 50
270.0
 51
0.0
  0
ARC
  5
193
100
AcDbEntity
  8
0
370
    -3
  6
Continuous
100
AcDbCircle
 10
-153.986018
 20
94.78225
 30
0.0
 40
3.0
100
AcDbArc
 50
19.471221
 51
90.0
  0
ARC
  5
194
100
AcDbEntity
  8
0
370
    -3
  6
Continuous
100
AcDbCircle
 10
-157.486018
 20
173.78225
 30
0.0
 40
3.0
100
AcDbArc
 50
180.0
 51
270.0
  0
LINE
  5
195
100
AcDbEntity
  8
0
370
    -3
  6
Continuous
100
AcDbLine
 10
-151.860166
 20
170.78225
 30
0.0
 11
-157.486018
 21
170.78225
 31
0.0
  0
ARC
  5
196
100
AcDbEntity
  8
0
370
    -3
  6
Continuous
100
AcDbCircle
 10
-157.486018
 20
94.78225
 30
0.0
 40
3.0
100
AcDbArc
 50
90.0
 51
180.0
  0
LINE
  5
197
100
AcDbEntity
  8
0
370
    -3
  6
Continuous
100
AcDbLine
 10
-157.486018
 20
97.78225
 30
0.0
 11
-153.986018
 21
97.78225
 31
0.0
  0
LINE
  5
198
100
AcDbEntity
  8
0
370
    -3
  6
Continuous
100
AcDbLine
 10
-160.486018
 20
189.28225
 30
0.0
 11
-160.486018
 21
76.28225
 31
0.0
  0
LINE
  5
199
100
AcDbEntity
  8
0
370
    -3
  6
DASHED
100
AcDbLine
 10
-160.486018
 20
152.242799
 30
0.0
 11
-160.486018
 21
132.78225
 31
0.0
  0
LINE
  5
19A
100
AcDbEntity
  8
0
370
    -3
  6
DASHED
100
AcDbLine
 10
-160.486018
 20
152.242799
 30
0.0
 11
-160.486018
 21
132.78225
 31
0.0
  0
LINE
  5
19B
100
AcDbEntity
  8
0
370
    -3
  6
Continuous
100
AcDbLine
 10
-163.486018
 20
73.28225
 30
0.0
 11
-183.986018
 21
73.28225
 31
0.0
  0
ARC
  5
19C
100
AcDbEntity
  8
0
370
    -3
  6
Continuous
100
AcDbCircle
 10
-163.486018
 20
76.28225
 30
0.0
 40
3.0
100
AcDbArc
 50
270.0
 51
0.0
  0
LINE
  5
19D
100
AcDbEntity
  8
0
370
    -3
  6
Continuous
100
AcDbLine
 10
-176.986018
 20
112.78225
 30
0.0
 11
-183.986018
 21
112.78225
 31
0.0
  0
ARC
  5
19E
100
AcDbEntity
  8
0
370
    -3
  6
Continuous
100
AcDbCircle
 10
-163.486018
 20
189.28225
 30
0.0
 40
3.0
100
AcDbArc
 50
0.0
 51
90.0
  0
LINE
  5
19F
100
AcDbEntity
  8
0
370
    -3
  6
Continuous
100
AcDbLine
 10
-163.486018
 20
192.28225
 30
0.0
 11
-183.986018
 21
192.28225
 31
0.0
  0
ARC
  5
1A0
100
AcDbEntity
  8
0
370
    -3
  6
Continuous
100
AcDbCircle
 10
-173.986018
 20
187.878557
 30
0.0
 40
3.0
100
AcDbArc
 50
180.0
 51
270.0
  0
LINE
  5
1A1
100
AcDbEntity
  8
0
370
    -3
  6
Continuous
100
AcDbLine
 10
-176.986018
 20
152.78225
 30
0.0
 11
-183.986018
 21
152.78225
 31
0.0
  0
LINE
  5
1A2
100
AcDbEntity
  8
0
370
    -3
  6
Continuous
100
AcDbLine
 10
-183.986018
 20
132.78225
 30
0.0
 11
-183.986018
 21
73.28225
 31
0.0
  0
LINE
  5
1A3
100
AcDbEntity
  8
0
370
    -3
  6
Continuous
100
AcDbLine
 10
-183.986018
 20
132.78225
 30
0.0
 11
-183.986018
 21
192.28225
 31
0.0
  0
LINE
  5
1A4
100
AcDbEntity
  8
0
370
    -3
  6
Continuous
100
AcDbLine
 10
-183.986018
 20
74.28225
 30
0.0
 11
-183.986018
 21
132.78225
 31
0.0
  0
LINE
  5
1A5
100
AcDbEntity
  8
0
370
    -3
  6
Continuous
100
AcDbLine
 10
-183.986018
 20
191.28225
 30
0.0
 11
-183.986018
 21
132.78225
 31
0.0
  0
LINE
  5
1A6
100
AcDbEntity
  8
0
370
    -3
  6
Continuous
100
AcDbLine
 10
-317.986018
 20
-164.934547
 30
0.0
 11
-317.986018
 21
-164.553768
 31
0.0
  0
LINE
  5
1A7
100
AcDbEntity
  8
0
370
    -3
  6
Continuous
100
AcDbLine
 10
-317.986018
 20
-164.934547
 30
0.0
 11
-388.680042
 21
-164.934547
 31
0.0
  0
ARC
  5
1A8
100
AcDbEntity
  8
0
370
    -3
  6
Continuous
100
AcDbCircle
 10
-314.986018
 20
-164.553768
 30
0.0
 40
3.0
100
AcDbArc
 50
90.0
 51
180.0
  0
LINE
  5
1A9
100
AcDbEntity
  8
0
370
    -3
  6
Continuous
100
AcDbLine
 10
-314.986018
 20
-161.553768
 30
0.0
 11
-310.986018
 21
-161.553768
 31
0.0
  0
ARC
  5
1AA
100
AcDbEntity
  8
0
370
    -3
  6
Continuous
100
AcDbCircle
 10
-310.986018
 20
-158.553768
 30
0.0
 40
3.0
100
AcDbArc
 50
270.0
 51
0.0
  0
LINE
  5
1AB
100
AcDbEntity
  8
0
370
    -3
  6
Continuous
100
AcDbLine
 10
-307.986018
 20
-99.934547
 30
0.0
 11
-307.986018
 21
-158.553768
 31
0.0
  0
LINE
  5
1AC
100
AcDbEntity
  8
0
370
    -3
  6
Continuous
100
AcDbLine
 10
-307.986018
 20
-99.934547
 30
0.0
 11
-307.986018
 21
-34.934547
 31
0.0
  0
LINE
  5
1AD
100
AcDbEntity
  8
0
370
    -3
  6
Continuous
100
AcDbLine
 10
-320.986018
 20
-154.850448
 30
0.0
 11
-318.986018
 21
-153.674662
 31
0.0
  0
LINE
  5
1AE
100
AcDbEntity
  8
0
370
    -3
  6
Continuous
100
AcDbLine
 10
-318.986018
 20
-153.674662
 30
0.0
 11
-316.986018
 21
-152.022021
 31
0.0
  0
LINE
  5
1AF
100
AcDbEntity
  8
0
370
    -3
  6
Continuous
100
AcDbLine
 10
-316.986018
 20
-154.850448
 30
0.0
 11
-318.986018
 21
-153.674662
 31
0.0
  0
LINE
  5
1B0
100
AcDbEntity
  8
0
370
    -3
  6
Continuous
100
AcDbLine
 10
-318.986018
 20
-153.674662
 30
0.0
 11
-320.986018
 21
-152.022021
 31
0.0
  0
ELLIPSE
  5
1B1
100
AcDbEntity
  8
0
370
    -3
  6
Continuous
100
AcDbEllipse
 10
-318.986018
 20
-151.858072
 30
0.0
 11
4.6999999999999886
 21
0.0
 31
0.0
210
0.0
220
0.0
230
1.0
 40
0.766646
 41
0.0
 42
6.2831853071795862
  0
ELLIPSE
  5
1B2
100
AcDbEntity
  8
0
370
    -3
  6
Continuous
100
AcDbEllipse
 10
-318.986018
 20
-48.011022
 30
0.0
 11
4.6999999999999886
 21
0.0
 31
0.0
210
0.0
220
0.0
230
1.0
 40
0.766646
 41
0.0
 42
6.2831853071795862
  0
LINE
  5
1B3
100
AcDbEntity
  8
0
370
    -3
  6
Continuous
100
AcDbLine
 10
-320.986018
 20
-45.018647
 30
0.0
 11
-318.986018
 21
-46.194432
 31
0.0
  0
LINE
  5
1B4
100
AcDbEntity
  8
0
370
    -3
  6
Continuous
100
AcDbLine
 10
-318.986018
 20
-46.194432
 30
0.0
 11
-316.986018
 21
-47.847074
 31
0.0
  0
LINE
  5
1B5
100
AcDbEntity
  8
0
370
    -3
  6
Continuous
100
AcDbLine
 10
-316.986018
 20
-45.018647
 30
0.0
 11
-318.986018
 21
-46.194432
 31
0.0
  0
LINE
  5
1B6
100
AcDbEntity
  8
0
370
    -3
  6
Continuous
100
AcDbLine
 10
-318.986018
 20
-46.194432
 30
0.0
 11
-320.986018
 21
-47.847074
 31
0.0
  0
ARC
  5
1B7
100
AcDbEntity
  8
0
370
    -3
  6
Continuous
100
AcDbCircle
 10
-388.680042
 20
-144.934547
 30
0.0
 40
20.0
100
AcDbArc
 50
235.0
 51
270.0
  0
ARC
  5
1B8
100
AcDbEntity
  8
0
370
    -3
  6
Continuous
100
AcDbCircle
 10
-408.386018
 20
-152.377752
 30
0.0
 40
2.6
100
AcDbArc
 50
180.0
 51
235.0
  0
LINE
  5
1B9
100
AcDbEntity
  8
0
370
    -3
  6
Continuous
100
AcDbLine
 10
-400.151571
 20
-161.317588
 30
0.0
 11
-409.877316
 21
-154.507548
 31
0.0
  0
LINE
  5
1BA
100
AcDbEntity
  8
0
370
    -3
  6
Continuous
100
AcDbLine
 10
-410.986018
 20
-99.934547
 30
0.0
 11
-410.986018
 21
-152.377752
 31
0.0
  0
LINE
  5
1BB
100
AcDbEntity
  8
0
370
    -3
  6
Continuous
100
AcDbLine
 10
-307.986018
 20
-34.934547
 30
0.0
 11
-388.680042
 21
-34.934547
 31
0.0
  0
ARC
  5
1BC
100
AcDbEntity
  8
0
370
    -3
  6
Continuous
100
AcDbCircle
 10
-408.386018
 20
-47.491342
 30
0.0
 40
2.6
100
AcDbArc
 50
125.0
 51
180.0
  0
LINE
  5
1BD
100
AcDbEntity
  8
0
370
    -3
  6
Continuous
100
AcDbLine
 10
-400.151571
 20
-38.551506
 30
0.0
 11
-409.877316
 21
-45.361547
 31
0.0
  0
ARC
  5
1BE
100
AcDbEntity
  8
0
370
    -3
  6
Continuous
100
AcDbCircle
 10
-388.680042
 20
-54.934547
 30
0.0
 40
20.0
100
AcDbArc
 50
90.0
 51
125.0
  0
LINE
  5
1BF
100
AcDbEntity
  8
0
370
    -3
  6
Continuous
100
AcDbLine
 10
-410.986018
 20
-99.934547
 30
0.0
 11
-410.986018
 21
-47.491342
 31
0.0
  0
LINE
  5
1C0
100
AcDbEntity
  8
0
370
    -3
  6
Continuous
100
AcDbLine
 10
-307.986018
 20
-62.238727
 30
0.0
 11
-183.986018
 21
-62.238727
 31
0.0
  0
LINE
  5
1C1
100
AcDbEntity
  8
0
370
    -3
  6
Continuous
100
AcDbLine
 10
-307.986018
 20
-64.575427
 30
0.0
 11
-183.986018
 21
-64.575427
 31
0.0
  0
LINE
  5
1C2
100
AcDbEntity
  8
0
370
    -3
  6
Continuous
100
AcDbLine
 10
-307.986018
 20
-67.784025
 30
0.0
 11
-183.986018
 21
-67.784025
 31
0.0
  0
LINE
  5
1C3
100
AcDbEntity
  8
0
370
    -3
  6
Continuous
100
AcDbLine
 10
-307.986018
 20
-70.013429
 30
0.0
 11
-183.986018
 21
-70.013429
 31
0.0
  0
LINE
  5
1C4
100
AcDbEntity
  8
0
370
    -3
  6
Continuous
100
AcDbLine
 10
-307.986018
 20
-73.345939
 30
0.0
 11
-183.986018
 21
-73.345939
 31
0.0
  0
LINE
  5
1C5
100
AcDbEntity
  8
0
370
    -3
  6
Continuous
100
AcDbLine
 10
-307.986018
 20
-75.470164
 30
0.0
 11
-183.986018
 21
-75.470164
 31
0.0
  0
LINE
  5
1C6
100
AcDbEntity
  8
0
370
    -3
  6
Continuous
100
AcDbLine
 10
-307.986018
 20
-78.900585
 30
0.0
 11
-183.986018
 21
-78.900585
 31
0.0
  0
LINE
  5
1C7
100
AcDbEntity
  8
0
370
    -3
  6
Continuous
100
AcDbLine
 10
-307.986018
 20
-80.929097
 30
0.0
 11
-183.986018
 21
-80.929097
 31
0.0
  0
LINE
  5
1C8
100
AcDbEntity
  8
0
370
    -3
  6
Continuous
100
AcDbLine
 10
-307.986018
 20
-137.630367
 30
0.0
 11
-183.986018
 21
-137.630367
 31
0.0
  0
LINE
  5
1C9
100
AcDbEntity
  8
0
370
    -3
  6
Continuous
100
AcDbLine
 10
-307.986018
 20
-135.293668
 30
0.0
 11
-183.986018
 21
-135.293668
 31
0.0
  0
LINE
  5
1CA
100
AcDbEntity
  8
0
370
    -3
  6
Continuous
100
AcDbLine
 10
-307.986018
 20
-132.085069
 30
0.0
 11
-183.986018
 21
-132.085069
 31
0.0
  0
LINE
  5
1CB
100
AcDbEntity
  8
0
370
    -3
  6
Continuous
100
AcDbLine
 10
-307.986018
 20
-129.855665
 30
0.0
 11
-183.986018
 21
-129.855665
 31
0.0
  0
LINE
  5
1CC
100
AcDbEntity
  8
0
370
    -3
  6
Continuous
100
AcDbLine
 10
-307.986018
 20
-126.523155
 30
0.0
 11
-183.986018
 21
-126.523155
 31
0.0
  0
LINE
  5
1CD
100
AcDbEntity
  8
0
370
    -3
  6
Continuous
100
AcDbLine
 10
-307.986018
 20
-124.398931
 30
0.0
 11
-183.986018
 21
-124.398931
 31
0.0
  0
LINE
  5
1CE
100
AcDbEntity
  8
0
370
    -3
  6
Continuous
100
AcDbLine
 10
-307.986018
 20
-120.96851
 30
0.0
 11
-183.986018
 21
-120.96851
 31
0.0
  0
LINE
  5
1CF
100
AcDbEntity
  8
0
370
    -3
  6
Continuous
100
AcDbLine
 10
-307.986018
 20
-118.939998
 30
0.0
 11
-183.986018
 21
-118.939998
 31
0.0
  0
LINE
  5
1D0
100
AcDbEntity
  8
0
370
    -3
  6
Continuous
100
AcDbLine
 10
-307.986018
 20
-150.260906
 30
0.0
 11
-183.986018
 21
-150.260906
 31
0.0
  0
LINE
  5
1D1
100
AcDbEntity
  8
0
370
    -3
  6
Continuous
100
AcDbLine
 10
-307.986018
 20
-145.311159
 30
0.0
 11
-183.986018
 21
-145.311159
 31
0.0
  0
LINE
  5
1D2
100
AcDbEntity
  8
0
370
    -3
  6
Continuous
100
AcDbLine
 10
-240.986018
 20
-40.434547
 30
0.0
 11
-183.986018
 21
-40.434547
 31
0.0
  0
LINE
  5
1D3
100
AcDbEntity
  8
0
370
    -3
  6
Continuous
100
AcDbLine
 10
-307.986018
 20
-40.434547
 30
0.0
 11
-183.986018
 21
-40.434547
 31
0.0
  0
LINE
  5
1D4
100
AcDbEntity
  8
0
370
    -3
  6
Continuous
100
AcDbLine
 10
-307.986018
 20
-84.934547
 30
0.0
 11
-183.986018
 21
-84.934547
 31
0.0
  0
LINE
  5
1D5
100
AcDbEntity
  8
0
370
    -3
  6
Continuous
100
AcDbLine
 10
-307.986018
 20
-54.568761
 30
0.0
 11
-183.986018
 21
-54.568761
 31
0.0
  0
LINE
  5
1D6
100
AcDbEntity
  8
0
370
    -3
  6
Continuous
100
AcDbLine
 10
-307.986018
 20
-49.619013
 30
0.0
 11
-183.986018
 21
-49.619013
 31
0.0
  0
LINE
  5
1D7
100
AcDbEntity
  8
0
370
    -3
  6
Continuous
100
AcDbLine
 10
-307.986018
 20
-44.934547
 30
0.0
 11
-183.986018
 21
-44.934547
 31
0.0
  0
LINE
  5
1D8
100
AcDbEntity
  8
0
370
    -3
  6
Continuous
100
AcDbLine
 10
-307.986018
 20
-43.934547
 30
0.0
 11
-183.986018
 21
-43.934547
 31
0.0
  0
LINE
  5
1D9
100
AcDbEntity
  8
0
370
    -3
  6
Continuous
100
AcDbLine
 10
-307.986018
 20
-42.934547
 30
0.0
 11
-183.986018
 21
-42.934547
 31
0.0
  0
LINE
  5
1DA
100
AcDbEntity
  8
0
370
    -3
  6
Continuous
100
AcDbLine
 10
-307.986018
 20
-156.934547
 30
0.0
 11
-183.986018
 21
-156.934547
 31
0.0
  0
LINE
  5
1DB
100
AcDbEntity
  8
0
370
    -3
  6
Continuous
100
AcDbLine
 10
-307.986018
 20
-155.934547
 30
0.0
 11
-183.986018
 21
-155.934547
 31
0.0
  0
LINE
  5
1DC
100
AcDbEntity
  8
0
370
    -3
  6
Continuous
100
AcDbLine
 10
-307.986018
 20
-154.934547
 30
0.0
 11
-183.986018
 21
-154.934547
 31
0.0
  0
LINE
  5
1DD
100
AcDbEntity
  8
0
370
    -3
  6
Continuous
100
AcDbLine
 10
-307.986018
 20
-114.934547
 30
0.0
 11
-183.986018
 21
-114.934547
 31
0.0
  0
LINE
  5
1DE
100
AcDbEntity
  8
0
370
    -3
  6
Continuous
100
AcDbLine
 10
-255.693224
 20
-159.434547
 30
0.0
 11
-183.986018
 21
-159.434547
 31
0.0
  0
LINE
  5
1DF
100
AcDbEntity
  8
0
370
    -3
  6
Continuous
100
AcDbLine
 10
-301.655165
 20
-159.434547
 30
0.0
 11
-263.316871
 21
-159.434547
 31
0.0
  0
LINE
  5
1E0
100
AcDbEntity
  8
0
370
    -3
  6
CENTER
100
AcDbLine
 10
-104.44706
 20
-99.93996
 30
0.0
 11
-417.848128
 21
-99.93996
 31
0.0
  0
LINE
  5
1E1
100
AcDbEntity
  8
0
370
    -3
  6
CENTER
100
AcDbLine
 10
376.013982
 20
-13.165514
 30
0.0
 11
376.013982
 21
-175.952053
 31
0.0
  0
LINE
  5
1E2
100
AcDbEntity
  8
0
370
    -3
  6
CENTER
100
AcDbLine
 10
376.013982
 20
-226.160374
 30
0.0
 11
376.013982
 21
-175.93996
 31
0.0
  0
LINE
  5
1E3
100
AcDbEntity
  8
0
370
    -3
  6
CENTER
100
AcDbLine
 10
439.847375
 20
-76.93996
 30
0.0
 11
312.269562
 21
-76.93996
 31
0.0
  0
LINE
  5
1E4
100
AcDbEntity
  8
0
370
    -3
  6
DASHED
100
AcDbLine
 10
425.276744
 20
-141.21744
 30
0.0
 11
425.013982
 21
-140.954678
 31
0.0
  0
LINE
  5
1E5
100
AcDbEntity
  8
0
370
    -3
  6
CENTER
100
AcDbLine
 10
365.09475
 20
-99.93996
 30
0.0
 11
385.028783
 21
-99.93996
 31
0.0
  0
LINE
  5
1E6
100
AcDbEntity
  8
0
370
    -3
  6
Continuous
100
AcDbLine
 10
435.013982
 20
-99.93996
 30
0.0
 11
435.013982
 21
-80.43996
 31
0.0
  0
LINE
  5
1E7
100
AcDbEntity
  8
0
370
    -3
  6
Continuous
100
AcDbLine
 10
435.013982
 20
-99.93996
 30
0.0
 11
435.013982
 21
-119.43996
 31
0.0
  0
LINE
  5
1E8
100
AcDbEntity
  8
0
370
    -3
  6
Continuous
100
AcDbLine
 10
434.513982
 20
-119.93996
 30
0.0
 11
432.988981
 21
-119.93996
 31
0.0
  0
LINE
  5
1E9
100
AcDbEntity
  8
0
370
    -3
  6
Continuous
100
AcDbLine
 10
317.013982
 20
-99.93996
 30
0.0
 11
317.013982
 21
-119.43996
 31
0.0
  0
LINE
  5
1EA
100
AcDbEntity
  8
0
370
    -3
  6
Continuous
100
AcDbLine
 10
317.513982
 20
-119.93996
 30
0.0
 11
319.038983
 21
-119.93996
 31
0.0
  0
LINE
  5
1EB
100
AcDbEntity
  8
0
370
    -3
  6
Continuous
100
AcDbLine
 10
317.013982
 20
-99.93996
 30
0.0
 11
317.013982
 21
-80.43996
 31
0.0
  0
LINE
  5
1EC
100
AcDbEntity
  8
0
370
    -3
  6
Continuous
100
AcDbLine
 10
317.513982
 20
-79.93996
 30
0.0
 11
319.038983
 21
-79.93996
 31
0.0
  0
LINE
  5
1ED
100
AcDbEntity
  8
0
370
    -3
  6
DASHED
100
AcDbLine
 10
326.751221
 20
-141.21744
 30
0.0
 11
327.013982
 21
-140.954678
 31
0.0
  0
ARC
  5
1EE
100
AcDbEntity
  8
0
370
    -3
  6
Continuous
100
AcDbCircle
 10
434.513982
 20
-80.43996
 30
0.0
 40
0.5
100
AcDbArc
 50
0.0
 51
90.0
  0
ARC
  5
1EF
100
AcDbEntity
  8
0
370
    -3
  6
Continuous
100
AcDbCircle
 10
434.513982
 20
-119.43996
 30
0.0
 40
0.5
100
AcDbArc
 50
270.0
 51
0.0
  0
ARC
  5
1F0
100
AcDbEntity
  8
0
370
    -3
  6
Continuous
100
AcDbCircle
 10
33.013982
 20
-99.93996
 30
0.0
 40
400.0
100
AcDbArc
 50
355.885655
 51
357.065975
  0
ARC
  5
1F1
100
AcDbEntity
  8
0
370
    -3
  6
Continuous
100
AcDbCircle
 10
432.988981
 20
-120.43996
 30
0.0
 40
0.5
100
AcDbArc
 50
90.0
 51
177.065975
  0
ARC
  5
1F2
100
AcDbEntity
  8
0
370
    -3
  6
Continuous
100
AcDbCircle
 10
402.060437
 20
-126.486414
 30
0.0
 40
30.0
100
AcDbArc
 50
319.917507
 51
355.885655
  0
ARC
  5
1F3
100
AcDbEntity
  8
0
370
    -3
  6
Continuous
100
AcDbCircle
 10
349.967528
 20
-126.486414
 30
0.0
 40
30.0
100
AcDbArc
 50
184.114345
 51
220.082493
  0
ARC
  5
1F4
100
AcDbEntity
  8
0
370
    -3
  6
Continuous
100
AcDbCircle
 10
719.013982
 20
-99.93996
 30
0.0
 40
400.0
100
AcDbArc
 50
182.934025
 51
184.114345
  0
ARC
  5
1F5
100
AcDbEntity
  8
0
370
    -3
  6
Continuous
100
AcDbCircle
 10
317.513982
 20
-119.43996
 30
0.0
 40
0.5
100
AcDbArc
 50
180.0
 51
270.0
  0
ARC
  5
1F6
100
AcDbEntity
  8
0
370
    -3
  6
Continuous
100
AcDbCircle
 10
319.038983
 20
-120.43996
 30
0.0
 40
0.5
100
AcDbArc
 50
2.934025
 51
90.0
  0
ARC
  5
1F7
100
AcDbEntity
  8
0
370
    -3
  6
Continuous
100
AcDbCircle
 10
319.038983
 20
-120.43996
 30
0.0
 40
0.5
100
AcDbArc
 50
2.934025
 51
90.0
  0
ARC
  5
1F8
100
AcDbEntity
  8
0
370
    -3
  6
Continuous
100
AcDbCircle
 10
317.513982
 20
-80.43996
 30
0.0
 40
0.5
100
AcDbArc
 50
90.0
 51
180.0
  0
ARC
  5
1F9
100
AcDbEntity
  8
0
370
    -3
  6
Continuous
100
AcDbCircle
 10
317.513982
 20
-80.43996
 30
0.0
 40
0.5
100
AcDbArc
 50
90.0
 51
180.0
  0
ARC
  5
1FA
100
AcDbEntity
  8
0
370
    -3
  6
Continuous
100
AcDbCircle
 10
328.872541
 20
-143.33876
 30
0.0
 40
3.0
100
AcDbArc
 50
135.0
 51
218.62063
  0
ARC
  5
1FB
100
AcDbEntity
  8
0
370
    -3
  6
Continuous
100
AcDbCircle
 10
423.155423
 20
-143.33876
 30
0.0
 40
3.0
100
AcDbArc
 50
321.37937
 51
45.0
  0
LINE
  5
1FC
100
AcDbEntity
  8
0
370
    -3
  6
Continuous
100
AcDbLine
 10
327.013982
 20
-145.803111
 30
0.0
 11
327.013982
 21
-16.14942
 31
0.0
  0
LINE
  5
1FD
100
AcDbEntity
  8
0
370
    -3
  6
Continuous
100
AcDbLine
 10
327.013982
 20
-163.730499
 30
0.0
 11
327.013982
 21
-145.803111
 31
0.0
  0
LINE
  5
1FE
100
AcDbEntity
  8
0
370
    -3
  6
Continuous
100
AcDbLine
 10
323.013982
 20
-34.43996
 30
0.0
 11
323.013982
 21
-99.93996
 31
0.0
  0
LINE
  5
1FF
100
AcDbEntity
  8
0
370
    -3
  6
Continuous
100
AcDbLine
 10
323.013982
 20
-34.43996
 30
0.0
 11
327.013982
 21
-34.43996
 31
0.0
  0
LINE
  5
200
100
AcDbEntity
  8
0
370
    -3
  6
Continuous
100
AcDbLine
 10
327.013982
 20
-16.14942
 30
0.0
 11
339.013982
 21
-15.93996
 31
0.0
  0
LINE
  5
201
100
AcDbEntity
  8
0
370
    -3
  6
Continuous
100
AcDbLine
 10
323.013982
 20
-119.43996
 30
0.0
 11
327.013982
 21
-119.43996
 31
0.0
  0
LINE
  5
202
100
AcDbEntity
  8
0
370
    -3
  6
Continuous
100
AcDbLine
 10
429.013982
 20
-99.93996
 30
0.0
 11
429.013982
 21
-119.43996
 31
0.0
  0
LINE
  5
203
100
AcDbEntity
  8
0
370
    -3
  6
Continuous
100
AcDbLine
 10
323.013982
 20
-119.43996
 30
0.0
 11
323.013982
 21
-99.93996
 31
0.0
  0
LINE
  5
204
100
AcDbEntity
  8
0
370
    -3
  6
Continuous
100
AcDbLine
 10
425.013982
 20
-119.43996
 30
0.0
 11
429.013982
 21
-119.43996
 31
0.0
  0
LINE
  5
205
100
AcDbEntity
  8
0
370
    -3
  6
Continuous
100
AcDbLine
 10
339.013982
 20
-15.931232
 30
0.0
 11
415.013982
 21
-17.275272
 31
0.0
  0
LINE
  5
206
100
AcDbEntity
  8
0
370
    -3
  6
Continuous
100
AcDbLine
 10
339.013982
 20
-15.931232
 30
0.0
 11
339.013982
 21
-99.93996
 31
0.0
  0
LINE
  5
207
100
AcDbEntity
  8
0
370
    -3
  6
Continuous
100
AcDbLine
 10
425.013982
 20
-145.803111
 30
0.0
 11
425.013982
 21
-17.275272
 31
0.0
  0
LINE
  5
208
100
AcDbEntity
  8
0
370
    -3
  6
Continuous
100
AcDbLine
 10
429.013982
 20
-99.93996
 30
0.0
 11
429.013982
 21
-34.43996
 31
0.0
  0
LINE
  5
209
100
AcDbEntity
  8
0
370
    -3
  6
Continuous
100
AcDbLine
 10
425.013982
 20
-34.43996
 30
0.0
 11
429.013982
 21
-34.43996
 31
0.0
  0
LINE
  5
20A
100
AcDbEntity
  8
0
370
    -3
  6
Continuous
100
AcDbLine
 10
415.013982
 20
-17.275272
 30
0.0
 11
425.013982
 21
-17.275272
 31
0.0
  0
LINE
  5
20B
100
AcDbEntity
  8
0
370
    -3
  6
Continuous
100
AcDbLine
 10
339.013982
 20
-163.948687
 30
0.0
 11
415.013982
 21
-162.604647
 31
0.0
  0
LINE
  5
20C
100
AcDbEntity
  8
0
370
    -3
  6
Continuous
100
AcDbLine
 10
415.013982
 20
-162.604647
 30
0.0
 11
425.013982
 21
-162.604647
 31
0.0
  0
LINE
  5
20D
100
AcDbEntity
  8
0
370
    -3
  6
Continuous
100
AcDbLine
 10
425.013982
 20
-162.604647
 30
0.0
 11
425.013982
 21
-145.803111
 31
0.0
  0
LINE
  5
20E
100
AcDbEntity
  8
0
370
    -3
  6
Continuous
100
AcDbLine
 10
339.013982
 20
-163.93996
 30
0.0
 11
327.013982
 21
-163.730499
 31
0.0
  0
LINE
  5
20F
100
AcDbEntity
  8
0
370
    -3
  6
Continuous
100
AcDbLine
 10
339.013982
 20
-99.93996
 30
0.0
 11
339.013982
 21
-163.948687
 31
0.0
  0
LINE
  5
210
100
AcDbEntity
  8
0
370
    -3
  6
Continuous
100
AcDbLine
 10
323.013982
 20
-98.93996
 30
0.0
 11
320.013982
 21
-98.93996
 31
0.0
  0
ARC
  5
211
100
AcDbEntity
  8
0
370
    -3
  6
Continuous
100
AcDbCircle
 10
320.013982
 20
-97.93996
 30
0.0
 40
1.0
100
AcDbArc
 50
180.0
 51
270.0
  0
LINE
  5
212
100
AcDbEntity
  8
0
370
    -3
  6
Continuous
100
AcDbLine
 10
319.013982
 20
-97.93996
 30
0.0
 11
319.013982
 21
-76.93996
 31
0.0
  0
LINE
  5
213
100
AcDbEntity
  8
0
370
    -3
  6
Continuous
100
AcDbLine
 10
323.013982
 20
-54.93996
 30
0.0
 11
320.013982
 21
-54.93996
 31
0.0
  0
ARC
  5
214
100
AcDbEntity
  8
0
370
    -3
  6
Continuous
100
AcDbCircle
 10
320.013982
 20
-55.93996
 30
0.0
 40
1.0
100
AcDbArc
 50
90.0
 51
180.0
  0
LINE
  5
215
100
AcDbEntity
  8
0
370
    -3
  6
Continuous
100
AcDbLine
 10
319.013982
 20
-55.93996
 30
0.0
 11
319.013982
 21
-76.93996
 31
0.0
  0
LINE
  5
216
100
AcDbEntity
  8
0
370
    -3
  6
Continuous
100
AcDbLine
 10
429.013982
 20
-98.93996
 30
0.0
 11
432.013982
 21
-98.93996
 31
0.0
  0
ARC
  5
217
100
AcDbEntity
  8
0
370
    -3
  6
Continuous
100
AcDbCircle
 10
432.013982
 20
-97.93996
 30
0.0
 40
1.0
100
AcDbArc
 50
270.0
 51
0.0
  0
LINE
  5
218
100
AcDbEntity
  8
0
370
    -3
  6
Continuous
100
AcDbLine
 10
433.013982
 20
-97.93996
 30
0.0
 11
433.013982
 21
-76.93996
 31
0.0
  0
LINE
  5
219
100
AcDbEntity
  8
0
370
    -3
  6
Continuous
100
AcDbLine
 10
429.013982
 20
-54.93996
 30
0.0
 11
432.013982
 21
-54.93996
 31
0.0
  0
ARC
  5
21A
100
AcDbEntity
  8
0
370
    -3
  6
Continuous
100
AcDbCircle
 10
432.013982
 20
-55.93996
 30
0.0
 40
1.0
100
AcDbArc
 50
0.0
 51
90.0
  0
LINE
  5
21B
100
AcDbEntity
  8
0
370
    -3
  6
Continuous
100
AcDbLine
 10
433.013982
 20
-55.93996
 30
0.0
 11
433.013982
 21
-76.93996
 31
0.0
  0
LINE
  5
21C
100
AcDbEntity
  8
0
370
    -3
  6
Continuous
100
AcDbLine
 10
434.513982
 20
-79.93996
 30
0.0
 11
433.013982
 21
-79.93996
 31
0.0
  0
ARC
  5
21D
100
AcDbEntity
  8
0
370
    -3
  6
Continuous
100
AcDbCircle
 10
375.513982
 20
-99.93996
 30
0.0
 40
58.5
100
AcDbArc
 50
327.795772
 51
10.609143
  0
ARC
  5
21E
100
AcDbEntity
  8
0
370
    -3
  6
Continuous
100
AcDbCircle
 10
376.513982
 20
-99.93996
 30
0.0
 40
58.5
100
AcDbArc
 50
169.390857
 51
212.204228
  0
ARC
  5
21F
100
AcDbEntity
  8
0
370
    -3
  6
Continuous
100
AcDbCircle
 10
426.110597
 20
-55.991372
 30
0.0
 40
6.6
100
AcDbArc
 50
8.597082
 51
45.0
  0
ARC
  5
220
100
AcDbEntity
  8
0
370
    -3
  6
Continuous
100
AcDbCircle
 10
135.413982
 20
-99.93996
 30
0.0
 40
300.6
100
AcDbArc
 50
0.0
 51
8.597082
  0
ARC
  5
221
100
AcDbEntity
  8
0
370
    -3
  6
Continuous
100
AcDbCircle
 10
426.110597
 20
-143.888547
 30
0.0
 40
6.6
100
AcDbArc
 50
315.0
 51
351.402918
  0
ARC
  5
222
100
AcDbEntity
  8
0
370
    -3
  6
Continuous
100
AcDbCircle
 10
135.413982
 20
-99.93996
 30
0.0
 40
300.6
100
AcDbArc
 50
351.402918
 51
0.0
  0
LINE
  5
223
100
AcDbEntity
  8
0
370
    -3
  6
Continuous
100
AcDbLine
 10
430.777501
 20
-148.555452
 30
0.0
 11
425.013982
 21
-154.318971
 31
0.0
  0
LINE
  5
224
100
AcDbEntity
  8
0
370
    -3
  6
Continuous
100
AcDbLine
 10
430.777501
 20
-51.324467
 30
0.0
 11
429.013982
 21
-49.560948
 31
0.0
  0
ARC
  5
225
100
AcDbEntity
  8
0
370
    -3
  6
Continuous
100
AcDbCircle
 10
616.613982
 20
-99.93996
 30
0.0
 40
300.6
100
AcDbArc
 50
180.0
 51
188.597082
  0
ARC
  5
226
100
AcDbEntity
  8
0
370
    -3
  6
Continuous
100
AcDbCircle
 10
325.917368
 20
-143.888547
 30
0.0
 40
6.6
100
AcDbArc
 50
188.597082
 51
225.0
  0
ARC
  5
227
100
AcDbEntity
  8
0
370
    -3
  6
Continuous
100
AcDbCircle
 10
616.613982
 20
-99.93996
 30
0.0
 40
300.6
100
AcDbArc
 50
171.402918
 51
180.0
  0
ARC
  5
228
100
AcDbEntity
  8
0
370
    -3
  6
Continuous
100
AcDbCircle
 10
325.917368
 20
-55.991372
 30
0.0
 40
6.6
100
AcDbArc
 50
135.0
 51
171.402918
  0
LINE
  5
229
100
AcDbEntity
  8
0
370
    -3
  6
Continuous
100
AcDbLine
 10
321.250463
 20
-51.324467
 30
0.0
 11
323.013982
 21
-49.560948
 31
0.0
  0
LINE
  5
22A
100
AcDbEntity
  8
0
370
    -3
  6
Continuous
100
AcDbLine
 10
321.250463
 20
-148.555452
 30
0.0
 11
327.013982
 21
-154.318971
 31
0.0
  0
LINE
  5
22B
100
AcDbEntity
  8
0
370
    -3
  6
CENTER
100
AcDbLine
 10
426.460067
 20
-28.93996
 30
0.0
 11
325.376853
 21
-28.93996
 31
0.0
  0
LINE
  5
22C
100
AcDbEntity
  8
0
370
    -3
  6
CENTER
100
AcDbLine
 10
426.460067
 20
-150.93996
 30
0.0
 11
325.376853
 21
-150.93996
 31
0.0
  0
LINE
  5
22D
100
AcDbEntity
  8
0
370
    -3
  6
CENTER
100
AcDbLine
 10
-519.986018
 20
-13.165514
 30
0.0
 11
-519.986018
 21
-175.952053
 31
0.0
  0
LINE
  5
22E
100
AcDbEntity
  8
0
370
    -3
  6
CENTER
100
AcDbLine
 10
-519.986018
 20
-226.160374
 30
0.0
 11
-519.986018
 21
-175.93996
 31
0.0
  0
LINE
  5
22F
100
AcDbEntity
  8
0
370
    -3
  6
CENTER
100
AcDbLine
 10
-456.152625
 20
-76.93996
 30
0.0
 11
-583.730438
 21
-76.93996
 31
0.0
  0
LINE
  5
230
100
AcDbEntity
  8
0
370
    -3
  6
CENTER
100
AcDbLine
 10
-530.90525
 20
-99.93996
 30
0.0
 11
-510.971217
 21
-99.93996
 31
0.0
  0
LINE
  5
231
100
AcDbEntity
  8
0
370
    -3
  6
Continuous
100
AcDbLine
 10
-470.986018
 20
-46.330189
 30
0.0
 11
-470.986018
 21
-16.14942
 31
0.0
  0
LINE
  5
232
100
AcDbEntity
  8
0
370
    -3
  6
Continuous
100
AcDbLine
 10
-470.986018
 20
-163.730499
 30
0.0
 11
-470.986018
 21
-153.54973
 31
0.0
  0
LINE
  5
233
100
AcDbEntity
  8
0
370
    -3
  6
Continuous
100
AcDbLine
 10
-572.986018
 20
-34.43996
 30
0.0
 11
-572.986018
 21
-49.334154
 31
0.0
  0
LINE
  5
234
100
AcDbEntity
  8
0
370
    -3
  6
Continuous
100
AcDbLine
 10
-572.986018
 20
-34.43996
 30
0.0
 11
-568.986018
 21
-34.43996
 31
0.0
  0
LINE
  5
235
100
AcDbEntity
  8
0
370
    -3
  6
Continuous
100
AcDbLine
 10
-470.986018
 20
-16.14942
 30
0.0
 11
-482.986018
 21
-15.93996
 31
0.0
  0
LINE
  5
236
100
AcDbEntity
  8
0
370
    -3
  6
Continuous
100
AcDbLine
 10
-482.986018
 20
-15.931232
 30
0.0
 11
-558.986018
 21
-17.275272
 31
0.0
  0
LINE
  5
237
100
AcDbEntity
  8
0
370
    -3
  6
Continuous
100
AcDbLine
 10
-482.986018
 20
-15.931232
 30
0.0
 11
-482.986018
 21
-39.874473
 31
0.0
  0
LINE
  5
238
100
AcDbEntity
  8
0
370
    -3
  6
Continuous
100
AcDbLine
 10
-568.986018
 20
-46.330189
 30
0.0
 11
-568.986018
 21
-17.275272
 31
0.0
  0
LINE
  5
239
100
AcDbEntity
  8
0
370
    -3
  6
Continuous
100
AcDbLine
 10
-466.986018
 20
-49.334154
 30
0.0
 11
-466.986018
 21
-34.43996
 31
0.0
  0
LINE
  5
23A
100
AcDbEntity
  8
0
370
    -3
  6
Continuous
100
AcDbLine
 10
-470.986018
 20
-34.43996
 30
0.0
 11
-466.986018
 21
-34.43996
 31
0.0
  0
LINE
  5
23B
100
AcDbEntity
  8
0
370
    -3
  6
Continuous
100
AcDbLine
 10
-558.986018
 20
-17.275272
 30
0.0
 11
-568.986018
 21
-17.275272
 31
0.0
  0
LINE
  5
23C
100
AcDbEntity
  8
0
370
    -3
  6
Continuous
100
AcDbLine
 10
-482.986018
 20
-163.948687
 30
0.0
 11
-487.405642
 21
-163.870527
 31
0.0
  0
LINE
  5
23D
100
AcDbEntity
  8
0
370
    -3
  6
Continuous
100
AcDbLine
 10
-558.986018
 20
-162.604647
 30
0.0
 11
-568.986018
 21
-162.604647
 31
0.0
  0
LINE
  5
23E
100
AcDbEntity
  8
0
370
    -3
  6
Continuous
100
AcDbLine
 10
-568.986018
 20
-162.604647
 30
0.0
 11
-568.986018
 21
-153.54973
 31
0.0
  0
LINE
  5
23F
100
AcDbEntity
  8
0
370
    -3
  6
Continuous
100
AcDbLine
 10
-482.986018
 20
-163.93996
 30
0.0
 11
-470.986018
 21
-163.730499
 31
0.0
  0
LINE
  5
240
100
AcDbEntity
  8
0
370
    -3
  6
Continuous
100
AcDbLine
 10
-482.986018
 20
-160.005446
 30
0.0
 11
-482.986018
 21
-163.948687
 31
0.0
  0
LINE
  5
241
100
AcDbEntity
  8
0
370
    -3
  6
Continuous
100
AcDbLine
 10
-574.229373
 20
-54.93996
 30
0.0
 11
-575.986018
 21
-54.93996
 31
0.0
  0
ARC
  5
242
100
AcDbEntity
  8
0
370
    -3
  6
Continuous
100
AcDbCircle
 10
-575.986018
 20
-55.93996
 30
0.0
 40
1.0
100
AcDbArc
 50
90.0
 51
180.0
  0
LINE
  5
243
100
AcDbEntity
  8
0
370
    -3
  6
Continuous
100
AcDbLine
 10
-576.986018
 20
-55.93996
 30
0.0
 11
-576.986018
 21
-60.133432
 31
0.0
  0
LINE
  5
244
100
AcDbEntity
  8
0
370
    -3
  6
Continuous
100
AcDbLine
 10
-465.742662
 20
-54.93996
 30
0.0
 11
-463.986018
 21
-54.93996
 31
0.0
  0
ARC
  5
245
100
AcDbEntity
  8
0
370
    -3
  6
Continuous
100
AcDbCircle
 10
-463.986018
 20
-55.93996
 30
0.0
 40
1.0
100
AcDbArc
 50
0.0
 51
90.0
  0
LINE
  5
246
100
AcDbEntity
  8
0
370
    -3
  6
Continuous
100
AcDbLine
 10
-462.986018
 20
-55.93996
 30
0.0
 11
-462.986018
 21
-60.133432
 31
0.0
  0
LINE
  5
247
100
AcDbEntity
  8
0
370
    -3
  6
Continuous
100
AcDbLine
 10
-318.986018
 20
80.836946
 30
0.0
 11
-320.986018
 21
82.489588
 31
0.0
  0
LINE
  5
248
100
AcDbEntity
  8
0
370
    -3
  6
Continuous
100
AcDbLine
 10
-316.986018
 20
79.661161
 30
0.0
 11
-318.986018
 21
80.836946
 31
0.0
  0
LINE
  5
249
100
AcDbEntity
  8
0
370
    -3
  6
Continuous
100
AcDbLine
 10
-318.986018
 20
80.836946
 30
0.0
 11
-316.986018
 21
82.489588
 31
0.0
  0
LINE
  5
24A
100
AcDbEntity
  8
0
370
    -3
  6
Continuous
100
AcDbLine
 10
-320.986018
 20
79.661161
 30
0.0
 11
-318.986018
 21
80.836946
 31
0.0
  0
ELLIPSE
  5
24B
100
AcDbEntity
  8
0
370
    -3
  6
Continuous
100
AcDbEllipse
 10
-318.986018
 20
82.653536
 30
0.0
 11
4.6999999999999886
 21
0.0
 31
0.0
210
0.0
220
0.0
230
1.0
 40
0.766646
 41
0.0
 42
6.2831853071795862
  0
LINE
  5
24C
100
AcDbEntity
  8
0
370
    -3
  6
Continuous
100
AcDbLine
 10
-318.986018
 20
184.727553
 30
0.0
 11
-320.986018
 21
183.074911
 31
0.0
  0
LINE
  5
24D
100
AcDbEntity
  8
0
370
    -3
  6
Continuous
100
AcDbLine
 10
-316.986018
 20
185.903338
 30
0.0
 11
-318.986018
 21
184.727553
 31
0.0
  0
LINE
  5
24E
100
AcDbEntity
  8
0
370
    -3
  6
Continuous
100
AcDbLine
 10
-318.986018
 20
184.727553
 30
0.0
 11
-316.986018
 21
183.074911
 31
0.0
  0
LINE
  5
24F
100
AcDbEntity
  8
0
370
    -3
  6
Continuous
100
AcDbLine
 10
-320.986018
 20
185.903338
 30
0.0
 11
-318.986018
 21
184.727553
 31
0.0
  0
ELLIPSE
  5
250
100
AcDbEntity
  8
0
370
    -3
  6
Continuous
100
AcDbEllipse
 10
-318.986018
 20
182.910963
 30
0.0
 11
4.6999999999999886
 21
0.0
 31
0.0
210
0.0
220
0.0
230
1.0
 40
0.766646
 41
0.0
 42
6.2831853071795862
  0
ARC
  5
251
100
AcDbEntity
  8
0
370
    -3
  6
Continuous
100
AcDbCircle
 10
-388.680042
 20
92.78225
 30
0.0
 40
20.0
100
AcDbArc
 50
235.0
 51
270.0
  0
LINE
  5
252
100
AcDbEntity
  8
0
370
    -3
  6
Continuous
100
AcDbLine
 10
-307.986018
 20
72.78225
 30
0.0
 11
-388.680042
 21
72.78225
 31
0.0
  0
LINE
  5
253
100
AcDbEntity
  8
0
370
    -3
  6
Continuous
100
AcDbLine
 10
-410.986018
 20
132.78225
 30
0.0
 11
-410.986018
 21
85.339044
 31
0.0
  0
ARC
  5
254
100
AcDbEntity
  8
0
370
    -3
  6
Continuous
100
AcDbCircle
 10
-408.386018
 20
85.339044
 30
0.0
 40
2.6
100
AcDbArc
 50
180.0
 51
235.0
  0
LINE
  5
255
100
AcDbEntity
  8
0
370
    -3
  6
Continuous
100
AcDbLine
 10
-400.151571
 20
76.399209
 30
0.0
 11
-409.877316
 21
83.209249
 31
0.0
  0
ARC
  5
256
100
AcDbEntity
  8
0
370
    -3
  6
Continuous
100
AcDbCircle
 10
-408.386018
 20
180.225455
 30
0.0
 40
2.6
100
AcDbArc
 50
125.0
 51
180.0
  0
LINE
  5
257
100
AcDbEntity
  8
0
370
    -3
  6
Continuous
100
AcDbLine
 10
-410.986018
 20
132.78225
 30
0.0
 11
-410.986018
 21
180.225455
 31
0.0
  0
ARC
  5
258
100
AcDbEntity
  8
0
370
    -3
  6
Continuous
100
AcDbCircle
 10
-388.680042
 20
172.78225
 30
0.0
 40
20.0
100
AcDbArc
 50
90.0
 51
125.0
  0
LINE
  5
259
100
AcDbEntity
  8
0
370
    -3
  6
Continuous
100
AcDbLine
 10
-400.151571
 20
189.16529
 30
0.0
 11
-409.877316
 21
182.35525
 31
0.0
  0
LINE
  5
25A
100
AcDbEntity
  8
0
370
    -3
  6
Continuous
100
AcDbLine
 10
-307.986018
 20
72.78225
 30
0.0
 11
-307.986018
 21
192.78225
 31
0.0
  0
LINE
  5
25B
100
AcDbEntity
  8
0
370
    -3
  6
Continuous
100
AcDbLine
 10
-307.986018
 20
192.78225
 30
0.0
 11
-388.680042
 21
192.78225
 31
0.0
  0
LINE
  5
25C
100
AcDbEntity
  8
0
370
    -3
  6
Continuous
100
AcDbLine
 10
-307.986018
 20
108.317866
 30
0.0
 11
-183.986018
 21
108.317866
 31
0.0
  0
LINE
  5
25D
100
AcDbEntity
  8
0
370
    -3
  6
Continuous
100
AcDbLine
 10
-307.986018
 20
106.193641
 30
0.0
 11
-183.986018
 21
106.193641
 31
0.0
  0
LINE
  5
25E
100
AcDbEntity
  8
0
370
    -3
  6
Continuous
100
AcDbLine
 10
-307.986018
 20
102.861132
 30
0.0
 11
-183.986018
 21
102.861132
 31
0.0
  0
LINE
  5
25F
100
AcDbEntity
  8
0
370
    -3
  6
Continuous
100
AcDbLine
 10
-307.986018
 20
100.631728
 30
0.0
 11
-183.986018
 21
100.631728
 31
0.0
  0
LINE
  5
260
100
AcDbEntity
  8
0
370
    -3
  6
Continuous
100
AcDbLine
 10
-307.986018
 20
97.423129
 30
0.0
 11
-183.986018
 21
97.423129
 31
0.0
  0
LINE
  5
261
100
AcDbEntity
  8
0
370
    -3
  6
Continuous
100
AcDbLine
 10
-307.986018
 20
95.08643
 30
0.0
 11
-183.986018
 21
95.08643
 31
0.0
  0
LINE
  5
262
100
AcDbEntity
  8
0
370
    -3
  6
Continuous
100
AcDbLine
 10
-183.986018
 20
74.28225
 30
0.0
 11
-183.986018
 21
132.78225
 31
0.0
  0
LINE
  5
263
100
AcDbEntity
  8
0
370
    -3
  6
Continuous
100
AcDbLine
 10
-307.986018
 20
162.703367
 30
0.0
 11
-183.986018
 21
162.703367
 31
0.0
  0
LINE
  5
264
100
AcDbEntity
  8
0
370
    -3
  6
Continuous
100
AcDbLine
 10
-307.986018
 20
157.246633
 30
0.0
 11
-183.986018
 21
157.246633
 31
0.0
  0
LINE
  5
265
100
AcDbEntity
  8
0
370
    -3
  6
Continuous
100
AcDbLine
 10
-307.986018
 20
159.370858
 30
0.0
 11
-183.986018
 21
159.370858
 31
0.0
  0
LINE
  5
266
100
AcDbEntity
  8
0
370
    -3
  6
Continuous
100
AcDbLine
 10
-307.986018
 20
151.53225
 30
0.0
 11
-183.986018
 21
151.53225
 31
0.0
  0
LINE
  5
267
100
AcDbEntity
  8
0
370
    -3
  6
Continuous
100
AcDbLine
 10
-307.986018
 20
170.478069
 30
0.0
 11
-183.986018
 21
170.478069
 31
0.0
  0
LINE
  5
268
100
AcDbEntity
  8
0
370
    -3
  6
Continuous
100
AcDbLine
 10
-307.986018
 20
168.14137
 30
0.0
 11
-183.986018
 21
168.14137
 31
0.0
  0
LINE
  5
269
100
AcDbEntity
  8
0
370
    -3
  6
Continuous
100
AcDbLine
 10
-307.986018
 20
164.932771
 30
0.0
 11
-183.986018
 21
164.932771
 31
0.0
  0
LINE
  5
26A
100
AcDbEntity
  8
0
370
    -3
  6
Continuous
100
AcDbLine
 10
-307.986018
 20
114.03225
 30
0.0
 11
-183.986018
 21
114.03225
 31
0.0
  0
LINE
  5
26B
100
AcDbEntity
  8
0
370
    -3
  6
Continuous
100
AcDbLine
 10
-307.986018
 20
75.78225
 30
0.0
 11
-183.986018
 21
75.78225
 31
0.0
  0
LINE
  5
26C
100
AcDbEntity
  8
0
370
    -3
  6
Continuous
100
AcDbLine
 10
-307.986018
 20
75.28225
 30
0.0
 11
-183.986018
 21
75.28225
 31
0.0
  0
LINE
  5
26D
100
AcDbEntity
  8
0
370
    -3
  6
Continuous
100
AcDbLine
 10
-307.986018
 20
76.78225
 30
0.0
 11
-183.986018
 21
76.78225
 31
0.0
  0
LINE
  5
26E
100
AcDbEntity
  8
0
370
    -3
  6
Continuous
100
AcDbLine
 10
-307.986018
 20
77.78225
 30
0.0
 11
-183.986018
 21
77.78225
 31
0.0
  0
LINE
  5
26F
100
AcDbEntity
  8
0
370
    -3
  6
Continuous
100
AcDbLine
 10
-307.986018
 20
82.466715
 30
0.0
 11
-183.986018
 21
82.466715
 31
0.0
  0
LINE
  5
270
100
AcDbEntity
  8
0
370
    -3
  6
Continuous
100
AcDbLine
 10
-307.986018
 20
87.416463
 30
0.0
 11
-183.986018
 21
87.416463
 31
0.0
  0
LINE
  5
271
100
AcDbEntity
  8
0
370
    -3
  6
Continuous
100
AcDbLine
 10
-183.986018
 20
74.28225
 30
0.0
 11
-307.986018
 21
74.28225
 31
0.0
  0
LINE
  5
272
100
AcDbEntity
  8
0
370
    -3
  6
Continuous
100
AcDbLine
 10
-307.986018
 20
189.78225
 30
0.0
 11
-183.986018
 21
189.78225
 31
0.0
  0
LINE
  5
273
100
AcDbEntity
  8
0
370
    -3
  6
Continuous
100
AcDbLine
 10
-307.986018
 20
190.28225
 30
0.0
 11
-183.986018
 21
190.28225
 31
0.0
  0
LINE
  5
274
100
AcDbEntity
  8
0
370
    -3
  6
Continuous
100
AcDbLine
 10
-307.986018
 20
188.78225
 30
0.0
 11
-183.986018
 21
188.78225
 31
0.0
  0
LINE
  5
275
100
AcDbEntity
  8
0
370
    -3
  6
Continuous
100
AcDbLine
 10
-307.986018
 20
187.78225
 30
0.0
 11
-183.986018
 21
187.78225
 31
0.0
  0
LINE
  5
276
100
AcDbEntity
  8
0
370
    -3
  6
Continuous
100
AcDbLine
 10
-307.986018
 20
183.097784
 30
0.0
 11
-183.986018
 21
183.097784
 31
0.0
  0
LINE
  5
277
100
AcDbEntity
  8
0
370
    -3
  6
Continuous
100
AcDbLine
 10
-307.986018
 20
178.148036
 30
0.0
 11
-183.986018
 21
178.148036
 31
0.0
  0
LINE
  5
278
100
AcDbEntity
  8
0
370
    -3
  6
Continuous
100
AcDbLine
 10
-183.986018
 20
191.28225
 30
0.0
 11
-307.986018
 21
191.28225
 31
0.0
  0
LINE
  5
279
100
AcDbEntity
  8
0
370
    -3
  6
Continuous
100
AcDbLine
 10
-183.986018
 20
191.28225
 30
0.0
 11
-183.986018
 21
132.78225
 31
0.0
  0
ARC
  5
27A
100
AcDbEntity
  8
0
370
    -3
  6
Continuous
100
AcDbCircle
 10
-519.986018
 20
235.66004
 30
0.0
 40
400.6
100
AcDbArc
 50
267.053989
 51
270.0
  0
ARC
  5
27B
100
AcDbEntity
  8
0
370
    -3
  6
Continuous
100
AcDbCircle
 10
-519.986018
 20
235.66004
 30
0.0
 40
400.6
100
AcDbArc
 50
270.0
 51
272.946011
  0
ARC
  5
27C
100
AcDbEntity
  8
0
370
    -3
  6
Continuous
100
AcDbCircle
 10
-521.104492
 20
-90.002706
 30
0.0
 40
1.5
100
AcDbArc
 50
210.0
 51
276.421822
  0
ARC
  5
27D
100
AcDbEntity
  8
0
370
    -3
  6
Continuous
100
AcDbCircle
 10
-519.986018
 20
-99.93996
 30
0.0
 40
8.5
100
AcDbArc
 50
83.578178
 51
96.421822
  0
ARC
  5
27E
100
AcDbEntity
  8
0
370
    -3
  6
Continuous
100
AcDbCircle
 10
-518.867544
 20
-90.002706
 30
0.0
 40
1.5
100
AcDbArc
 50
263.578178
 51
330.0
  0
LINE
  5
27F
100
AcDbEntity
  8
0
370
    -3
  6
Continuous
100
AcDbLine
 10
-517.568506
 20
-90.752706
 30
0.0
 11
-515.966423
 21
-87.977817
 31
0.0
  0
ARC
  5
280
100
AcDbEntity
  8
0
370
    -3
  6
Continuous
100
AcDbCircle
 10
-517.265461
 20
-87.227817
 30
0.0
 40
1.5
100
AcDbArc
 50
330.0
 51
77.920213
  0
ARC
  5
281
100
AcDbEntity
  8
0
370
    -3
  6
Continuous
100
AcDbCircle
 10
-519.986018
 20
-99.93996
 30
0.0
 40
14.5
100
AcDbArc
 50
77.920213
 51
102.079787
  0
ARC
  5
282
100
AcDbEntity
  8
0
370
    -3
  6
Continuous
100
AcDbCircle
 10
-527.592711
 20
-78.76478
 30
0.0
 40
1.5
100
AcDbArc
 50
109.759652
 51
210.0
  0
LINE
  5
283
100
AcDbEntity
  8
0
370
    -3
  6
Continuous
100
AcDbLine
 10
-528.891749
 20
-79.51478
 30
0.0
 11
-527.363622
 21
-82.161575
 31
0.0
  0
ARC
  5
284
100
AcDbEntity
  8
0
370
    -3
  6
Continuous
100
AcDbCircle
 10
-526.064583
 20
-81.411575
 30
0.0
 40
1.5
100
AcDbArc
 50
210.0
 51
288.162996
  0
ARC
  5
285
100
AcDbEntity
  8
0
370
    -3
  6
Continuous
100
AcDbCircle
 10
-519.986018
 20
-99.93996
 30
0.0
 40
18.0
100
AcDbArc
 50
71.837004
 51
108.162996
  0
ARC
  5
286
100
AcDbEntity
  8
0
370
    -3
  6
Continuous
100
AcDbCircle
 10
-513.907452
 20
-81.411575
 30
0.0
 40
1.5
100
AcDbArc
 50
251.837004
 51
330.0
  0
LINE
  5
287
100
AcDbEntity
  8
0
370
    -3
  6
Continuous
100
AcDbLine
 10
-512.608414
 20
-82.161575
 30
0.0
 11
-511.080286
 21
-79.51478
 31
0.0
  0
ARC
  5
288
100
AcDbEntity
  8
0
370
    -3
  6
Continuous
100
AcDbCircle
 10
-512.379324
 20
-78.76478
 30
0.0
 40
1.5
100
AcDbArc
 50
330.0
 51
70.240348
  0
ARC
  5
289
100
AcDbEntity
  8
0
370
    -3
  6
Continuous
100
AcDbCircle
 10
-519.986018
 20
-99.93996
 30
0.0
 40
24.0
100
AcDbArc
 50
70.240348
 51
109.759652
  0
ARC
  5
28A
100
AcDbEntity
  8
0
370
    -3
  6
Continuous
100
AcDbCircle
 10
-529.634778
 20
-91.227817
 30
0.0
 40
1.5
100
AcDbArc
 50
30.0
 51
137.920213
  0
LINE
  5
28B
100
AcDbEntity
  8
0
370
    -3
  6
Continuous
100
AcDbLine
 10
-528.33574
 20
-90.477817
 30
0.0
 11
-526.733657
 21
-93.252706
 31
0.0
  0
ARC
  5
28C
100
AcDbEntity
  8
0
370
    -3
  6
Continuous
100
AcDbCircle
 10
-528.032695
 20
-94.002706
 30
0.0
 40
1.5
100
AcDbArc
 50
323.578178
 51
30.0
  0
ARC
  5
28D
100
AcDbEntity
  8
0
370
    -3
  6
Continuous
100
AcDbCircle
 10
-519.986018
 20
-99.93996
 30
0.0
 40
8.5
100
AcDbArc
 50
143.578178
 51
156.421822
  0
ARC
  5
28E
100
AcDbEntity
  8
0
370
    -3
  6
Continuous
100
AcDbCircle
 10
-529.151169
 20
-95.93996
 30
0.0
 40
1.5
100
AcDbArc
 50
270.0
 51
336.421822
  0
LINE
  5
28F
100
AcDbEntity
  8
0
370
    -3
  6
Continuous
100
AcDbLine
 10
-529.151169
 20
-97.43996
 30
0.0
 11
-532.355335
 21
-97.43996
 31
0.0
  0
ARC
  5
290
100
AcDbEntity
  8
0
370
    -3
  6
Continuous
100
AcDbCircle
 10
-532.355335
 20
-95.93996
 30
0.0
 40
1.5
100
AcDbArc
 50
162.079787
 51
270.0
  0
ARC
  5
291
100
AcDbEntity
  8
0
370
    -3
  6
Continuous
100
AcDbCircle
 10
-519.986018
 20
-99.93996
 30
0.0
 40
14.5
100
AcDbArc
 50
137.920213
 51
162.079787
  0
ARC
  5
292
100
AcDbEntity
  8
0
370
    -3
  6
Continuous
100
AcDbCircle
 10
-534.520914
 20
-82.76478
 30
0.0
 40
1.5
100
AcDbArc
 50
30.0
 51
130.240348
  0
LINE
  5
293
100
AcDbEntity
  8
0
370
    -3
  6
Continuous
100
AcDbLine
 10
-533.221876
 20
-82.01478
 30
0.0
 11
-531.693749
 21
-84.661575
 31
0.0
  0
ARC
  5
294
100
AcDbEntity
  8
0
370
    -3
  6
Continuous
100
AcDbCircle
 10
-532.992787
 20
-85.411575
 30
0.0
 40
1.5
100
AcDbArc
 50
311.837004
 51
30.0
  0
ARC
  5
295
100
AcDbEntity
  8
0
370
    -3
  6
Continuous
100
AcDbCircle
 10
-519.986018
 20
-99.93996
 30
0.0
 40
18.0
100
AcDbArc
 50
131.837004
 51
168.162996
  0
ARC
  5
296
100
AcDbEntity
  8
0
370
    -3
  6
Continuous
100
AcDbCircle
 10
-539.071352
 20
-95.93996
 30
0.0
 40
1.5
100
AcDbArc
 50
270.0
 51
348.162996
  0
LINE
  5
297
100
AcDbEntity
  8
0
370
    -3
  6
Continuous
100
AcDbLine
 10
-539.071352
 20
-97.43996
 30
0.0
 11
-542.127608
 21
-97.43996
 31
0.0
  0
ARC
  5
298
100
AcDbEntity
  8
0
370
    -3
  6
Continuous
100
AcDbCircle
 10
-542.127608
 20
-95.93996
 30
0.0
 40
1.5
100
AcDbArc
 50
169.759652
 51
270.0
  0
ARC
  5
299
100
AcDbEntity
  8
0
370
    -3
  6
Continuous
100
AcDbCircle
 10
-519.986018
 20
-99.93996
 30
0.0
 40
24.0
100
AcDbArc
 50
130.240348
 51
169.759652
  0
ARC
  5
29A
100
AcDbEntity
  8
0
370
    -3
  6
Continuous
100
AcDbCircle
 10
-529.634778
 20
-108.652102
 30
0.0
 40
1.5
100
AcDbArc
 50
222.079787
 51
330.0
  0
LINE
  5
29B
100
AcDbEntity
  8
0
370
    -3
  6
Continuous
100
AcDbLine
 10
-528.33574
 20
-109.402102
 30
0.0
 11
-526.733657
 21
-106.627214
 31
0.0
  0
ARC
  5
29C
100
AcDbEntity
  8
0
370
    -3
  6
Continuous
100
AcDbCircle
 10
-528.032695
 20
-105.877214
 30
0.0
 40
1.5
100
AcDbArc
 50
330.0
 51
36.421822
  0
ARC
  5
29D
100
AcDbEntity
  8
0
370
    -3
  6
Continuous
100
AcDbCircle
 10
-519.986018
 20
-99.93996
 30
0.0
 40
8.5
100
AcDbArc
 50
203.578178
 51
216.421822
  0
ARC
  5
29E
100
AcDbEntity
  8
0
370
    -3
  6
Continuous
100
AcDbCircle
 10
-529.151169
 20
-103.93996
 30
0.0
 40
1.5
100
AcDbArc
 50
23.578178
 51
90.0
  0
LINE
  5
29F
100
AcDbEntity
  8
0
370
    -3
  6
Continuous
100
AcDbLine
 10
-529.151169
 20
-102.43996
 30
0.0
 11
-532.355335
 21
-102.43996
 31
0.0
  0
ARC
  5
2A0
100
AcDbEntity
  8
0
370
    -3
  6
Continuous
100
AcDbCircle
 10
-532.355335
 20
-103.93996
 30
0.0
 40
1.5
100
AcDbArc
 50
90.0
 51
197.920213
  0
ARC
  5
2A1
100
AcDbEntity
  8
0
370
    -3
  6
Continuous
100
AcDbCircle
 10
-519.986018
 20
-99.93996
 30
0.0
 40
14.5
100
AcDbArc
 50
197.920213
 51
222.079787
  0
ARC
  5
2A2
100
AcDbEntity
  8
0
370
    -3
  6
Continuous
100
AcDbCircle
 10
-534.520914
 20
-117.115139
 30
0.0
 40
1.5
100
AcDbArc
 50
229.759652
 51
330.0
  0
LINE
  5
2A3
100
AcDbEntity
  8
0
370
    -3
  6
Continuous
100
AcDbLine
 10
-533.221876
 20
-117.865139
 30
0.0
 11
-531.693749
 21
-115.218344
 31
0.0
  0
ARC
  5
2A4
100
AcDbEntity
  8
0
370
    -3
  6
Continuous
100
AcDbCircle
 10
-532.992787
 20
-114.468344
 30
0.0
 40
1.5
100
AcDbArc
 50
330.0
 51
48.162996
  0
ARC
  5
2A5
100
AcDbEntity
  8
0
370
    -3
  6
Continuous
100
AcDbCircle
 10
-519.986018
 20
-99.93996
 30
0.0
 40
18.0
100
AcDbArc
 50
191.837004
 51
228.162996
  0
ARC
  5
2A6
100
AcDbEntity
  8
0
370
    -3
  6
Continuous
100
AcDbCircle
 10
-539.071352
 20
-103.93996
 30
0.0
 40
1.5
100
AcDbArc
 50
11.837004
 51
90.0
  0
LINE
  5
2A7
100
AcDbEntity
  8
0
370
    -3
  6
Continuous
100
AcDbLine
 10
-539.071352
 20
-102.43996
 30
0.0
 11
-542.127608
 21
-102.43996
 31
0.0
  0
ARC
  5
2A8
100
AcDbEntity
  8
0
370
    -3
  6
Continuous
100
AcDbCircle
 10
-542.127608
 20
-103.93996
 30
0.0
 40
1.5
100
AcDbArc
 50
90.0
 51
190.240348
  0
ARC
  5
2A9
100
AcDbEntity
  8
0
370
    -3
  6
Continuous
100
AcDbCircle
 10
-519.986018
 20
-99.93996
 30
0.0
 40
24.0
100
AcDbArc
 50
190.240348
 51
229.759652
  0
ARC
  5
2AA
100
AcDbEntity
  8
0
370
    -3
  6
Continuous
100
AcDbCircle
 10
-507.616701
 20
-95.93996
 30
0.0
 40
1.5
100
AcDbArc
 50
270.0
 51
17.920213
  0
LINE
  5
2AB
100
AcDbEntity
  8
0
370
    -3
  6
Continuous
100
AcDbLine
 10
-507.616701
 20
-97.43996
 30
0.0
 11
-510.820866
 21
-97.43996
 31
0.0
  0
ARC
  5
2AC
100
AcDbEntity
  8
0
370
    -3
  6
Continuous
100
AcDbCircle
 10
-510.820866
 20
-95.93996
 30
0.0
 40
1.5
100
AcDbArc
 50
203.578178
 51
270.0
  0
ARC
  5
2AD
100
AcDbEntity
  8
0
370
    -3
  6
Continuous
100
AcDbCircle
 10
-519.986018
 20
-99.93996
 30
0.0
 40
8.5
100
AcDbArc
 50
23.578178
 51
36.421822
  0
ARC
  5
2AE
100
AcDbEntity
  8
0
370
    -3
  6
Continuous
100
AcDbCircle
 10
-511.93934
 20
-94.002706
 30
0.0
 40
1.5
100
AcDbArc
 50
150.0
 51
216.421822
  0
LINE
  5
2AF
100
AcDbEntity
  8
0
370
    -3
  6
Continuous
100
AcDbLine
 10
-513.238379
 20
-93.252706
 30
0.0
 11
-511.636296
 21
-90.477817
 31
0.0
  0
ARC
  5
2B0
100
AcDbEntity
  8
0
370
    -3
  6
Continuous
100
AcDbCircle
 10
-510.337258
 20
-91.227817
 30
0.0
 40
1.5
100
AcDbArc
 50
42.079787
 51
150.0
  0
ARC
  5
2B1
100
AcDbEntity
  8
0
370
    -3
  6
Continuous
100
AcDbCircle
 10
-519.986018
 20
-99.93996
 30
0.0
 40
14.5
100
AcDbArc
 50
17.920213
 51
42.079787
  0
ARC
  5
2B2
100
AcDbEntity
  8
0
370
    -3
  6
Continuous
100
AcDbCircle
 10
-497.844428
 20
-95.93996
 30
0.0
 40
1.5
100
AcDbArc
 50
270.0
 51
10.240348
  0
LINE
  5
2B3
100
AcDbEntity
  8
0
370
    -3
  6
Continuous
100
AcDbLine
 10
-497.844428
 20
-97.43996
 30
0.0
 11
-500.900683
 21
-97.43996
 31
0.0
  0
ARC
  5
2B4
100
AcDbEntity
  8
0
370
    -3
  6
Continuous
100
AcDbCircle
 10
-500.900683
 20
-95.93996
 30
0.0
 40
1.5
100
AcDbArc
 50
191.837004
 51
270.0
  0
ARC
  5
2B5
100
AcDbEntity
  8
0
370
    -3
  6
Continuous
100
AcDbCircle
 10
-519.986018
 20
-99.93996
 30
0.0
 40
18.0
100
AcDbArc
 50
11.837004
 51
48.162996
  0
ARC
  5
2B6
100
AcDbEntity
  8
0
370
    -3
  6
Continuous
100
AcDbCircle
 10
-506.979249
 20
-85.411575
 30
0.0
 40
1.5
100
AcDbArc
 50
150.0
 51
228.162996
  0
LINE
  5
2B7
100
AcDbEntity
  8
0
370
    -3
  6
Continuous
100
AcDbLine
 10
-508.278287
 20
-84.661575
 30
0.0
 11
-506.750159
 21
-82.01478
 31
0.0
  0
ARC
  5
2B8
100
AcDbEntity
  8
0
370
    -3
  6
Continuous
100
AcDbCircle
 10
-505.451121
 20
-82.76478
 30
0.0
 40
1.5
100
AcDbArc
 50
49.759652
 51
150.0
  0
ARC
  5
2B9
100
AcDbEntity
  8
0
370
    -3
  6
Continuous
100
AcDbCircle
 10
-519.986018
 20
-99.93996
 30
0.0
 40
24.0
100
AcDbArc
 50
10.240348
 51
49.759652
  0
LINE
  5
2BA
100
AcDbEntity
  8
0
370
    -3
  6
Continuous
100
AcDbLine
 10
-480.553476
 20
-55.085373
 30
0.0
 11
-476.503051
 21
-59.135798
 31
0.0
  0
ARC
  5
2BB
100
AcDbEntity
  8
0
370
    -3
  6
Continuous
100
AcDbCircle
 10
-486.82681
 20
-69.459557
 30
0.0
 40
14.6
100
AcDbArc
 50
4.662206
 51
45.0
  0
ARC
  5
2BC
100
AcDbEntity
  8
0
370
    -3
  6
Continuous
100
AcDbCircle
 10
-860.586018
 20
-99.93996
 30
0.0
 40
389.6
100
AcDbArc
 50
0.0
 51
4.662206
  0
ARC
  5
2BD
100
AcDbEntity
  8
0
370
    -3
  6
Continuous
100
AcDbCircle
 10
-519.986018
 20
235.66004
 30
0.0
 40
389.6
100
AcDbArc
 50
270.0
 51
272.946011
  0
ARC
  5
2BE
100
AcDbEntity
  8
0
370
    -3
  6
Continuous
100
AcDbCircle
 10
-501.483837
 20
-123.864186
 30
0.0
 40
29.6
100
AcDbArc
 50
272.946011
 51
315.0
  0
LINE
  5
2BF
100
AcDbEntity
  8
0
370
    -3
  6
Continuous
100
AcDbLine
 10
-480.553476
 20
-144.794547
 30
0.0
 11
-476.503051
 21
-140.744122
 31
0.0
  0
ARC
  5
2C0
100
AcDbEntity
  8
0
370
    -3
  6
Continuous
100
AcDbCircle
 10
-486.82681
 20
-130.420363
 30
0.0
 40
14.6
100
AcDbArc
 50
315.0
 51
355.337794
  0
ARC
  5
2C1
100
AcDbEntity
  8
0
370
    -3
  6
Continuous
100
AcDbCircle
 10
-860.586018
 20
-99.93996
 30
0.0
 40
389.6
100
AcDbArc
 50
355.337794
 51
0.0
  0
ARC
  5
2C2
100
AcDbEntity
  8
0
370
    -3
  6
Continuous
100
AcDbCircle
 10
-519.986018
 20
235.66004
 30
0.0
 40
389.6
100
AcDbArc
 50
267.053989
 51
270.0
  0
LINE
  5
2C3
100
AcDbEntity
  8
0
370
    -3
  6
Continuous
100
AcDbLine
 10
-559.418559
 20
-144.794547
 30
0.0
 11
-563.468984
 21
-140.744122
 31
0.0
  0
ARC
  5
2C4
100
AcDbEntity
  8
0
370
    -3
  6
Continuous
100
AcDbCircle
 10
-538.488198
 20
-123.864186
 30
0.0
 40
29.6
100
AcDbArc
 50
225.0
 51
267.053989
  0
ARC
  5
2C5
100
AcDbEntity
  8
0
370
    -3
  6
Continuous
100
AcDbCircle
 10
-553.145225
 20
-130.420363
 30
0.0
 40
14.6
100
AcDbArc
 50
184.662206
 51
225.0
  0
ARC
  5
2C6
100
AcDbEntity
  8
0
370
    -3
  6
Continuous
100
AcDbCircle
 10
-488.237002
 20
-95.93996
 30
0.0
 40
1.5
100
AcDbArc
 50
270.0
 51
7.180756
  0
LINE
  5
2C7
100
AcDbEntity
  8
0
370
    -3
  6
Continuous
100
AcDbLine
 10
-488.237002
 20
-97.43996
 30
0.0
 11
-491.263205
 21
-97.43996
 31
0.0
  0
ARC
  5
2C8
100
AcDbEntity
  8
0
370
    -3
  6
Continuous
100
AcDbCircle
 10
-481.694374
 20
-95.93996
 30
0.0
 40
1.5
100
AcDbArc
 50
185.96357
 51
270.0
  0
LINE
  5
2C9
100
AcDbEntity
  8
0
370
    -3
  6
Continuous
100
AcDbLine
 10
-478.679239
 20
-97.43996
 30
0.0
 11
-481.694374
 21
-97.43996
 31
0.0
  0
ARC
  5
2CA
100
AcDbEntity
  8
0
370
    -3
  6
Continuous
100
AcDbCircle
 10
-478.679239
 20
-95.93996
 30
0.0
 40
1.5
100
AcDbArc
 50
270.0
 51
5.531072
  0
LINE
  5
2CB
100
AcDbEntity
  8
0
370
    -3
  6
Continuous
100
AcDbLine
 10
-542.804471
 20
-134.46268
 30
0.0
 11
-541.296903
 21
-131.851496
 31
0.0
  0
ARC
  5
2CC
100
AcDbEntity
  8
0
370
    -3
  6
Continuous
100
AcDbCircle
 10
-544.103509
 20
-133.71268
 30
0.0
 40
1.5
100
AcDbArc
 50
234.468928
 51
330.0
  0
ARC
  5
2CD
100
AcDbEntity
  8
0
370
    -3
  6
Continuous
100
AcDbCircle
 10
-535.667738
 20
-135.101496
 30
0.0
 40
1.5
100
AcDbArc
 50
65.96357
 51
150.0
  0
LINE
  5
2CE
100
AcDbEntity
  8
0
370
    -3
  6
Continuous
100
AcDbLine
 10
-538.474344
 20
-136.96268
 30
0.0
 11
-536.966776
 21
-134.351496
 31
0.0
  0
ARC
  5
2CF
100
AcDbEntity
  8
0
370
    -3
  6
Continuous
100
AcDbCircle
 10
-537.175306
 20
-137.71268
 30
0.0
 40
1.5
100
AcDbArc
 50
150.0
 51
245.531072
  0
ARC
  5
2D0
100
AcDbEntity
  8
0
370
    -3
  6
Continuous
100
AcDbCircle
 10
-519.986018
 20
-99.93996
 30
0.0
 40
43.0
100
AcDbArc
 50
245.531072
 51
294.468928
  0
ARC
  5
2D1
100
AcDbEntity
  8
0
370
    -3
  6
Continuous
100
AcDbCircle
 10
-519.986018
 20
-99.93996
 30
0.0
 40
37.0
100
AcDbArc
 50
245.96357
 51
294.03643
  0
ARC
  5
2D2
100
AcDbEntity
  8
0
370
    -3
  6
Continuous
100
AcDbCircle
 10
-504.304297
 20
-135.101496
 30
0.0
 40
1.5
100
AcDbArc
 50
30.0
 51
114.03643
  0
LINE
  5
2D3
100
AcDbEntity
  8
0
370
    -3
  6
Continuous
100
AcDbLine
 10
-503.005259
 20
-134.351496
 30
0.0
 11
-501.497692
 21
-136.96268
 31
0.0
  0
ARC
  5
2D4
100
AcDbEntity
  8
0
370
    -3
  6
Continuous
100
AcDbCircle
 10
-502.79673
 20
-137.71268
 30
0.0
 40
1.5
100
AcDbArc
 50
294.468928
 51
30.0
  0
ARC
  5
2D5
100
AcDbEntity
  8
0
370
    -3
  6
Continuous
100
AcDbCircle
 10
-519.986018
 20
-99.93996
 30
0.0
 40
43.0
100
AcDbArc
 50
305.531072
 51
354.468928
  0
ARC
  5
2D6
100
AcDbEntity
  8
0
370
    -3
  6
Continuous
100
AcDbCircle
 10
-495.868527
 20
-133.71268
 30
0.0
 40
1.5
100
AcDbArc
 50
210.0
 51
305.531072
  0
ARC
  5
2D7
100
AcDbEntity
  8
0
370
    -3
  6
Continuous
100
AcDbCircle
 10
-478.679239
 20
-103.93996
 30
0.0
 40
1.5
100
AcDbArc
 50
354.468928
 51
90.0
  0
ARC
  5
2D8
100
AcDbEntity
  8
0
370
    -3
  6
Continuous
100
AcDbCircle
 10
-481.694374
 20
-103.93996
 30
0.0
 40
1.5
100
AcDbArc
 50
90.0
 51
174.03643
  0
ARC
  5
2D9
100
AcDbEntity
  8
0
370
    -3
  6
Continuous
100
AcDbCircle
 10
-488.237002
 20
-103.93996
 30
0.0
 40
1.5
100
AcDbArc
 50
352.819244
 51
90.0
  0
LINE
  5
2DA
100
AcDbEntity
  8
0
370
    -3
  6
Continuous
100
AcDbLine
 10
-488.237002
 20
-102.43996
 30
0.0
 11
-491.263205
 21
-102.43996
 31
0.0
  0
LINE
  5
2DB
100
AcDbEntity
  8
0
370
    -3
  6
Continuous
100
AcDbLine
 10
-498.675132
 20
-131.851496
 30
0.0
 11
-497.167565
 21
-134.46268
 31
0.0
  0
LINE
  5
2DC
100
AcDbEntity
  8
0
370
    -3
  6
Continuous
100
AcDbLine
 10
-478.679239
 20
-102.43996
 30
0.0
 11
-481.694374
 21
-102.43996
 31
0.0
  0
ARC
  5
2DD
100
AcDbEntity
  8
0
370
    -3
  6
Continuous
100
AcDbCircle
 10
-486.82681
 20
-130.420363
 30
0.0
 40
25.6
100
AcDbArc
 50
315.0
 51
355.337794
  0
LINE
  5
2DE
100
AcDbEntity
  8
0
370
    -3
  6
Continuous
100
AcDbLine
 10
-472.775302
 20
-152.572721
 30
0.0
 11
-468.724877
 21
-148.522296
 31
0.0
  0
ARC
  5
2DF
100
AcDbEntity
  8
0
370
    -3
  6
Continuous
100
AcDbCircle
 10
-501.483837
 20
-123.864186
 30
0.0
 40
40.6
100
AcDbArc
 50
272.946011
 51
315.0
  0
LINE
  5
2E0
100
AcDbEntity
  8
0
370
    -3
  6
Continuous
100
AcDbLine
 10
-472.775302
 20
-47.307198
 30
0.0
 11
-468.724877
 21
-51.357623
 31
0.0
  0
ARC
  5
2E1
100
AcDbEntity
  8
0
370
    -3
  6
Continuous
100
AcDbCircle
 10
-486.82681
 20
-69.459557
 30
0.0
 40
25.6
100
AcDbArc
 50
4.662206
 51
45.0
  0
ARC
  5
2E2
100
AcDbEntity
  8
0
370
    -3
  6
Continuous
100
AcDbCircle
 10
-860.586018
 20
-99.93996
 30
0.0
 40
400.6
100
AcDbArc
 50
0.0
 51
4.662206
  0
ARC
  5
2E3
100
AcDbEntity
  8
0
370
    -3
  6
Continuous
100
AcDbCircle
 10
-179.386018
 20
-99.93996
 30
0.0
 40
400.6
100
AcDbArc
 50
180.0
 51
184.662206
  0
ARC
  5
2E4
100
AcDbEntity
  8
0
370
    -3
  6
Continuous
100
AcDbCircle
 10
-519.986018
 20
-435.53996
 30
0.0
 40
400.6
100
AcDbArc
 50
87.053989
 51
90.0
  0
ARC
  5
2E5
100
AcDbEntity
  8
0
370
    -3
  6
Continuous
100
AcDbCircle
 10
-501.483837
 20
-76.015733
 30
0.0
 40
40.6
100
AcDbArc
 50
45.0
 51
87.053989
  0
ARC
  5
2E6
100
AcDbEntity
  8
0
370
    -3
  6
Continuous
100
AcDbCircle
 10
-538.488198
 20
-76.015733
 30
0.0
 40
40.6
100
AcDbArc
 50
92.946011
 51
135.0
  0
ARC
  5
2E7
100
AcDbEntity
  8
0
370
    -3
  6
Continuous
100
AcDbCircle
 10
-179.386018
 20
-99.93996
 30
0.0
 40
400.6
100
AcDbArc
 50
175.337794
 51
180.0
  0
ARC
  5
2E8
100
AcDbEntity
  8
0
370
    -3
  6
Continuous
100
AcDbCircle
 10
-553.145225
 20
-69.459557
 30
0.0
 40
25.6
100
AcDbArc
 50
135.0
 51
175.337794
  0
LINE
  5
2E9
100
AcDbEntity
  8
0
370
    -3
  6
Continuous
100
AcDbLine
 10
-567.196734
 20
-47.307198
 30
0.0
 11
-571.247159
 21
-51.357623
 31
0.0
  0
ARC
  5
2EA
100
AcDbEntity
  8
0
370
    -3
  6
Continuous
100
AcDbCircle
 10
-519.986018
 20
-435.53996
 30
0.0
 40
400.6
100
AcDbArc
 50
90.0
 51
92.946011
  0
ARC
  5
2EB
100
AcDbEntity
  8
0
370
    -3
  6
Continuous
100
AcDbCircle
 10
-553.145225
 20
-130.420363
 30
0.0
 40
25.6
100
AcDbArc
 50
184.662206
 51
225.0
  0
LINE
  5
2EC
100
AcDbEntity
  8
0
370
    -3
  6
Continuous
100
AcDbLine
 10
-567.196734
 20
-152.572721
 30
0.0
 11
-571.247159
 21
-148.522296
 31
0.0
  0
ARC
  5
2ED
100
AcDbEntity
  8
0
370
    -3
  6
Continuous
100
AcDbCircle
 10
-538.488198
 20
-123.864186
 30
0.0
 40
40.6
100
AcDbArc
 50
225.0
 51
267.053989
  0
ARC
  5
2EE
100
AcDbEntity
  8
0
370
    -3
  6
Continuous
100
AcDbCircle
 10
-860.586018
 20
-99.93996
 30
0.0
 40
400.6
100
AcDbArc
 50
355.337794
 51
0.0
  0
ARC
  5
2EF
100
AcDbEntity
  8
0
370
    -3
  6
Continuous
100
AcDbCircle
 10
-567.645015
 20
-52.280962
 30
0.0
 40
6.099999
100
AcDbArc
 50
84.601911
 51
185.398072
  0
POINT
  5
2F0
100
AcDbEntity
  8
0
370
    -3
  6
Continuous
100
AcDbPoint
 10
-569.907756
 20
-50.018221
 30
0.0
  0
LINE
  5
2F1
100
AcDbEntity
  8
0
370
    -3
  6
Continuous
100
AcDbLine
 10
-566.584355
 20
-46.694819
 30
0.0
 11
-573.231158
 21
-53.341623
 31
0.0
  0
LINE
  5
2F2
100
AcDbEntity
  8
0
370
    -3
  6
Continuous
100
AcDbLine
 10
-566.836902
 20
-46.381681
 30
0.0
 11
-573.514001
 21
-53.05878
 31
0.0
  0
LINE
  5
2F3
100
AcDbEntity
  8
0
370
    -3
  6
Continuous
100
AcDbLine
 10
-573.231158
 20
-53.341623
 30
0.0
 11
-573.717962
 21
-52.854819
 31
0.0
  0
LINE
  5
2F4
100
AcDbEntity
  8
0
370
    -3
  6
Continuous
100
AcDbLine
 10
-566.584355
 20
-46.694819
 30
0.0
 11
-567.071158
 21
-46.208016
 31
0.0
  0
ARC
  5
2F5
100
AcDbEntity
  8
0
370
    -3
  6
Continuous
100
AcDbCircle
 10
-179.386018
 20
-99.93996
 30
0.0
 40
389.6
100
AcDbArc
 50
180.0
 51
184.662206
  0
ARC
  5
2F6
100
AcDbEntity
  8
0
370
    -3
  6
Continuous
100
AcDbCircle
 10
-567.645015
 20
-147.598957
 30
0.0
 40
6.099999
100
AcDbArc
 50
174.601928
 51
275.398089
  0
ARC
  5
2F7
100
AcDbEntity
  8
0
370
    -3
  6
Continuous
100
AcDbCircle
 10
-179.386018
 20
-99.93996
 30
0.0
 40
389.6
100
AcDbArc
 50
175.337794
 51
180.0
  0
POINT
  5
2F8
100
AcDbEntity
  8
0
370
    -3
  6
Continuous
100
AcDbPoint
 10
-569.907756
 20
-149.861698
 30
0.0
  0
ARC
  5
2F9
100
AcDbEntity
  8
0
370
    -3
  6
Continuous
100
AcDbCircle
 10
-553.145225
 20
-69.459557
 30
0.0
 40
14.6
100
AcDbArc
 50
135.0
 51
175.337794
  0
LINE
  5
2FA
100
AcDbEntity
  8
0
370
    -3
  6
Continuous
100
AcDbLine
 10
-566.584355
 20
-153.1851
 30
0.0
 11
-573.231158
 21
-146.538297
 31
0.0
  0
ARC
  5
2FB
100
AcDbEntity
  8
0
370
    -3
  6
Continuous
100
AcDbCircle
 10
-538.488198
 20
-76.015733
 30
0.0
 40
29.6
100
AcDbArc
 50
92.946011
 51
135.0
  0
LINE
  5
2FC
100
AcDbEntity
  8
0
370
    -3
  6
Continuous
100
AcDbLine
 10
-566.836902
 20
-153.498239
 30
0.0
 11
-573.514001
 21
-146.821139
 31
0.0
  0
ARC
  5
2FD
100
AcDbEntity
  8
0
370
    -3
  6
Continuous
100
AcDbCircle
 10
-519.986018
 20
-435.53996
 30
0.0
 40
389.6
100
AcDbArc
 50
87.053989
 51
90.0
  0
LINE
  5
2FE
100
AcDbEntity
  8
0
370
    -3
  6
Continuous
100
AcDbLine
 10
-573.231158
 20
-146.538297
 30
0.0
 11
-573.717962
 21
-147.0251
 31
0.0
  0
ARC
  5
2FF
100
AcDbEntity
  8
0
370
    -3
  6
Continuous
100
AcDbCircle
 10
-519.986018
 20
-435.53996
 30
0.0
 40
389.6
100
AcDbArc
 50
90.0
 51
92.946011
  0
LINE
  5
300
100
AcDbEntity
  8
0
370
    -3
  6
Continuous
100
AcDbLine
 10
-566.584355
 20
-153.1851
 30
0.0
 11
-567.071158
 21
-153.671903
 31
0.0
  0
ARC
  5
301
100
AcDbEntity
  8
0
370
    -3
  6
Continuous
100
AcDbCircle
 10
-501.483837
 20
-76.015733
 30
0.0
 40
29.6
100
AcDbArc
 50
45.0
 51
87.053989
  0
ARC
  5
302
100
AcDbEntity
  8
0
370
    -3
  6
Continuous
100
AcDbCircle
 10
-472.327021
 20
-147.598957
 30
0.0
 40
6.099999
100
AcDbArc
 50
264.601911
 51
5.398072
  0
LINE
  5
303
100
AcDbEntity
  8
0
370
    -3
  6
Continuous
100
AcDbLine
 10
-559.418559
 20
-55.085373
 30
0.0
 11
-563.468984
 21
-59.135798
 31
0.0
  0
POINT
  5
304
100
AcDbEntity
  8
0
370
    -3
  6
Continuous
100
AcDbPoint
 10
-470.064279
 20
-149.861698
 30
0.0
  0
LINE
  5
305
100
AcDbEntity
  8
0
370
    -3
  6
DASHED
100
AcDbLine
 10
-557.05464
 20
-53.393546
 30
0.0
 11
-557.037997
 21
-53.393546
 31
0.0
  0
LINE
  5
306
100
AcDbEntity
  8
0
370
    -3
  6
Continuous
100
AcDbLine
 10
-473.387681
 20
-153.1851
 30
0.0
 11
-466.740877
 21
-146.538297
 31
0.0
  0
ARC
  5
307
100
AcDbEntity
  8
0
370
    -3
  6
Continuous
100
AcDbCircle
 10
-491.263205
 20
-95.93996
 30
0.0
 40
1.5
100
AcDbArc
 50
187.928142
 51
270.0
  0
LINE
  5
308
100
AcDbEntity
  8
0
370
    -3
  6
Continuous
100
AcDbLine
 10
-473.135134
 20
-153.498239
 30
0.0
 11
-466.458034
 21
-146.821139
 31
0.0
  0
ARC
  5
309
100
AcDbEntity
  8
0
370
    -3
  6
Continuous
100
AcDbCircle
 10
-519.986018
 20
-99.93996
 30
0.0
 40
33.5
100
AcDbArc
 50
7.180756
 51
52.819244
  0
LINE
  5
30A
100
AcDbEntity
  8
0
370
    -3
  6
Continuous
100
AcDbLine
 10
-466.740877
 20
-146.538297
 30
0.0
 11
-466.254074
 21
-147.0251
 31
0.0
  0
ARC
  5
30B
100
AcDbEntity
  8
0
370
    -3
  6
Continuous
100
AcDbCircle
 10
-519.986018
 20
-99.93996
 30
0.0
 40
43.0
100
AcDbArc
 50
5.531072
 51
54.468928
  0
LINE
  5
30C
100
AcDbEntity
  8
0
370
    -3
  6
Continuous
100
AcDbLine
 10
-473.387681
 20
-153.1851
 30
0.0
 11
-472.900877
 21
-153.671903
 31
0.0
  0
ARC
  5
30D
100
AcDbEntity
  8
0
370
    -3
  6
Continuous
100
AcDbCircle
 10
-519.986018
 20
-99.93996
 30
0.0
 40
37.0
100
AcDbArc
 50
5.96357
 51
54.03643
  0
ARC
  5
30E
100
AcDbEntity
  8
0
370
    -3
  6
Continuous
100
AcDbCircle
 10
-472.327021
 20
-52.280962
 30
0.0
 40
6.099999
100
AcDbArc
 50
354.601928
 51
95.398089
  0
ARC
  5
30F
100
AcDbEntity
  8
0
370
    -3
  6
Continuous
100
AcDbCircle
 10
-519.986018
 20
-99.93996
 30
0.0
 40
27.5
100
AcDbArc
 50
7.928142
 51
52.071858
  0
POINT
  5
310
100
AcDbEntity
  8
0
370
    -3
  6
Continuous
100
AcDbPoint
 10
-470.064279
 20
-50.018221
 30
0.0
  0
ARC
  5
311
100
AcDbEntity
  8
0
370
    -3
  6
Continuous
100
AcDbCircle
 10
-502.16051
 20
-77.065274
 30
0.0
 40
1.5
100
AcDbArc
 50
150.0
 51
232.071858
  0
LINE
  5
312
100
AcDbEntity
  8
0
370
    -3
  6
Continuous
100
AcDbLine
 10
-473.387681
 20
-46.694819
 30
0.0
 11
-466.740877
 21
-53.341623
 31
0.0
  0
ARC
  5
313
100
AcDbEntity
  8
0
370
    -3
  6
Continuous
100
AcDbCircle
 10
-500.647408
 20
-74.444505
 30
0.0
 40
1.5
100
AcDbArc
 50
52.819244
 51
150.0
  0
LINE
  5
314
100
AcDbEntity
  8
0
370
    -3
  6
Continuous
100
AcDbLine
 10
-473.135134
 20
-46.381681
 30
0.0
 11
-466.458034
 21
-53.05878
 31
0.0
  0
ARC
  5
315
100
AcDbEntity
  8
0
370
    -3
  6
Continuous
100
AcDbCircle
 10
-497.376094
 20
-68.778423
 30
0.0
 40
1.5
100
AcDbArc
 50
150.0
 51
234.03643
  0
LINE
  5
316
100
AcDbEntity
  8
0
370
    -3
  6
Continuous
100
AcDbLine
 10
-466.740877
 20
-53.341623
 30
0.0
 11
-466.254074
 21
-52.854819
 31
0.0
  0
LINE
  5
317
100
AcDbEntity
  8
0
370
    -3
  6
Continuous
100
AcDbLine
 10
-503.459548
 20
-76.315274
 30
0.0
 11
-501.946446
 21
-73.694505
 31
0.0
  0
LINE
  5
318
100
AcDbEntity
  8
0
370
    -3
  6
Continuous
100
AcDbLine
 10
-473.387681
 20
-46.694819
 30
0.0
 11
-472.900877
 21
-46.208016
 31
0.0
  0
LINE
  5
319
100
AcDbEntity
  8
0
370
    -3
  6
Continuous
100
AcDbLine
 10
-498.675132
 20
-68.028423
 30
0.0
 11
-497.167565
 21
-65.41724
 31
0.0
  0
ARC
  5
31A
100
AcDbEntity
  8
0
370
    -3
  6
Continuous
100
AcDbCircle
 10
-495.868527
 20
-66.16724
 30
0.0
 40
1.5
100
AcDbArc
 50
54.468928
 51
150.0
  0
ARC
  5
31B
100
AcDbEntity
  8
0
370
    -3
  6
Continuous
100
AcDbCircle
 10
-532.396424
 20
-70.444505
 30
0.0
 40
1.5
100
AcDbArc
 50
112.819244
 51
210.0
  0
LINE
  5
31C
100
AcDbEntity
  8
0
370
    -3
  6
Continuous
100
AcDbLine
 10
-533.695462
 20
-71.194505
 30
0.0
 11
-532.182361
 21
-73.815274
 31
0.0
  0
ARC
  5
31D
100
AcDbEntity
  8
0
370
    -3
  6
Continuous
100
AcDbCircle
 10
-535.667738
 20
-64.778423
 30
0.0
 40
1.5
100
AcDbArc
 50
210.0
 51
294.03643
  0
LINE
  5
31E
100
AcDbEntity
  8
0
370
    -3
  6
Continuous
100
AcDbLine
 10
-538.474344
 20
-62.91724
 30
0.0
 11
-536.966776
 21
-65.528423
 31
0.0
  0
ARC
  5
31F
100
AcDbEntity
  8
0
370
    -3
  6
Continuous
100
AcDbCircle
 10
-537.175306
 20
-62.16724
 30
0.0
 40
1.5
100
AcDbArc
 50
114.468928
 51
210.0
  0
ARC
  5
320
100
AcDbEntity
  8
0
370
    -3
  6
Continuous
100
AcDbCircle
 10
-530.883323
 20
-73.065274
 30
0.0
 40
1.5
100
AcDbArc
 50
210.0
 51
292.071858
  0
ARC
  5
321
100
AcDbEntity
  8
0
370
    -3
  6
Continuous
100
AcDbCircle
 10
-519.986018
 20
-99.93996
 30
0.0
 40
33.5
100
AcDbArc
 50
67.180756
 51
112.819244
  0
ARC
  5
322
100
AcDbEntity
  8
0
370
    -3
  6
Continuous
100
AcDbCircle
 10
-519.986018
 20
-99.93996
 30
0.0
 40
43.0
100
AcDbArc
 50
65.531072
 51
114.468928
  0
ARC
  5
323
100
AcDbEntity
  8
0
370
    -3
  6
Continuous
100
AcDbCircle
 10
-519.986018
 20
-99.93996
 30
0.0
 40
37.0
100
AcDbArc
 50
65.96357
 51
114.03643
  0
ARC
  5
324
100
AcDbEntity
  8
0
370
    -3
  6
Continuous
100
AcDbCircle
 10
-519.986018
 20
-99.93996
 30
0.0
 40
27.5
100
AcDbArc
 50
67.928142
 51
112.071858
  0
ARC
  5
325
100
AcDbEntity
  8
0
370
    -3
  6
Continuous
100
AcDbCircle
 10
-509.088713
 20
-73.065274
 30
0.0
 40
1.5
100
AcDbArc
 50
247.928142
 51
330.0
  0
ARC
  5
326
100
AcDbEntity
  8
0
370
    -3
  6
Continuous
100
AcDbCircle
 10
-507.575611
 20
-70.444505
 30
0.0
 40
1.5
100
AcDbArc
 50
330.0
 51
67.180756
  0
ARC
  5
327
100
AcDbEntity
  8
0
370
    -3
  6
Continuous
100
AcDbCircle
 10
-504.304297
 20
-64.778423
 30
0.0
 40
1.5
100
AcDbArc
 50
245.96357
 51
330.0
  0
LINE
  5
328
100
AcDbEntity
  8
0
370
    -3
  6
Continuous
100
AcDbLine
 10
-507.789675
 20
-73.815274
 30
0.0
 11
-506.276573
 21
-71.194505
 31
0.0
  0
LINE
  5
329
100
AcDbEntity
  8
0
370
    -3
  6
Continuous
100
AcDbLine
 10
-503.005259
 20
-65.528423
 30
0.0
 11
-501.497692
 21
-62.91724
 31
0.0
  0
ARC
  5
32A
100
AcDbEntity
  8
0
370
    -3
  6
Continuous
100
AcDbCircle
 10
-502.79673
 20
-62.16724
 30
0.0
 40
1.5
100
AcDbArc
 50
330.0
 51
65.531072
  0
ARC
  5
32B
100
AcDbEntity
  8
0
370
    -3
  6
Continuous
100
AcDbCircle
 10
-539.324627
 20
-74.444505
 30
0.0
 40
1.5
100
AcDbArc
 50
30.0
 51
127.180756
  0
LINE
  5
32C
100
AcDbEntity
  8
0
370
    -3
  6
Continuous
100
AcDbLine
 10
-538.025589
 20
-73.694505
 30
0.0
 11
-536.512488
 21
-76.315274
 31
0.0
  0
ARC
  5
32D
100
AcDbEntity
  8
0
370
    -3
  6
Continuous
100
AcDbCircle
 10
-542.595941
 20
-68.778423
 30
0.0
 40
1.5
100
AcDbArc
 50
305.96357
 51
30.0
  0
LINE
  5
32E
100
AcDbEntity
  8
0
370
    -3
  6
Continuous
100
AcDbLine
 10
-542.804471
 20
-65.41724
 30
0.0
 11
-541.296903
 21
-68.028423
 31
0.0
  0
ARC
  5
32F
100
AcDbEntity
  8
0
370
    -3
  6
Continuous
100
AcDbCircle
 10
-544.103509
 20
-66.16724
 30
0.0
 40
1.5
100
AcDbArc
 50
30.0
 51
125.531072
  0
ARC
  5
330
100
AcDbEntity
  8
0
370
    -3
  6
Continuous
100
AcDbCircle
 10
-537.811526
 20
-77.065274
 30
0.0
 40
1.5
100
AcDbArc
 50
307.928142
 51
30.0
  0
ARC
  5
331
100
AcDbEntity
  8
0
370
    -3
  6
Continuous
100
AcDbCircle
 10
-519.986018
 20
-99.93996
 30
0.0
 40
33.5
100
AcDbArc
 50
127.180756
 51
172.819244
  0
ARC
  5
332
100
AcDbEntity
  8
0
370
    -3
  6
Continuous
100
AcDbCircle
 10
-519.986018
 20
-99.93996
 30
0.0
 40
43.0
100
AcDbArc
 50
125.531072
 51
174.468928
  0
ARC
  5
333
100
AcDbEntity
  8
0
370
    -3
  6
Continuous
100
AcDbCircle
 10
-519.986018
 20
-99.93996
 30
0.0
 40
37.0
100
AcDbArc
 50
125.96357
 51
174.03643
  0
ARC
  5
334
100
AcDbEntity
  8
0
370
    -3
  6
Continuous
100
AcDbCircle
 10
-519.986018
 20
-99.93996
 30
0.0
 40
27.5
100
AcDbArc
 50
127.928142
 51
172.071858
  0
ARC
  5
335
100
AcDbEntity
  8
0
370
    -3
  6
Continuous
100
AcDbCircle
 10
-548.708831
 20
-95.93996
 30
0.0
 40
1.5
100
AcDbArc
 50
270.0
 51
352.071858
  0
ARC
  5
336
100
AcDbEntity
  8
0
370
    -3
  6
Continuous
100
AcDbCircle
 10
-551.735033
 20
-95.93996
 30
0.0
 40
1.5
100
AcDbArc
 50
172.819244
 51
270.0
  0
ARC
  5
337
100
AcDbEntity
  8
0
370
    -3
  6
Continuous
100
AcDbCircle
 10
-558.277662
 20
-95.93996
 30
0.0
 40
1.5
100
AcDbArc
 50
270.0
 51
354.03643
  0
LINE
  5
338
100
AcDbEntity
  8
0
370
    -3
  6
Continuous
100
AcDbLine
 10
-548.708831
 20
-97.43996
 30
0.0
 11
-551.735033
 21
-97.43996
 31
0.0
  0
LINE
  5
339
100
AcDbEntity
  8
0
370
    -3
  6
Continuous
100
AcDbLine
 10
-558.277662
 20
-97.43996
 30
0.0
 11
-561.292797
 21
-97.43996
 31
0.0
  0
ARC
  5
33A
100
AcDbEntity
  8
0
370
    -3
  6
Continuous
100
AcDbCircle
 10
-561.292797
 20
-95.93996
 30
0.0
 40
1.5
100
AcDbArc
 50
174.468928
 51
270.0
  0
ARC
  5
33B
100
AcDbEntity
  8
0
370
    -3
  6
Continuous
100
AcDbCircle
 10
-539.324627
 20
-125.435414
 30
0.0
 40
1.5
100
AcDbArc
 50
232.819244
 51
330.0
  0
LINE
  5
33C
100
AcDbEntity
  8
0
370
    -3
  6
Continuous
100
AcDbLine
 10
-538.025589
 20
-126.185414
 30
0.0
 11
-536.512488
 21
-123.564646
 31
0.0
  0
ARC
  5
33D
100
AcDbEntity
  8
0
370
    -3
  6
Continuous
100
AcDbCircle
 10
-542.595941
 20
-131.101496
 30
0.0
 40
1.5
100
AcDbArc
 50
330.0
 51
54.03643
  0
ARC
  5
33E
100
AcDbEntity
  8
0
370
    -3
  6
Continuous
100
AcDbCircle
 10
-537.811526
 20
-122.814646
 30
0.0
 40
1.5
100
AcDbArc
 50
330.0
 51
52.071858
  0
ARC
  5
33F
100
AcDbEntity
  8
0
370
    -3
  6
Continuous
100
AcDbCircle
 10
-519.986018
 20
-99.93996
 30
0.0
 40
33.5
100
AcDbArc
 50
187.180756
 51
232.819244
  0
ARC
  5
340
100
AcDbEntity
  8
0
370
    -3
  6
Continuous
100
AcDbCircle
 10
-519.986018
 20
-99.93996
 30
0.0
 40
43.0
100
AcDbArc
 50
185.531072
 51
234.468928
  0
ARC
  5
341
100
AcDbEntity
  8
0
370
    -3
  6
Continuous
100
AcDbCircle
 10
-519.986018
 20
-99.93996
 30
0.0
 40
37.0
100
AcDbArc
 50
185.96357
 51
234.03643
  0
ARC
  5
342
100
AcDbEntity
  8
0
370
    -3
  6
Continuous
100
AcDbCircle
 10
-519.986018
 20
-99.93996
 30
0.0
 40
27.5
100
AcDbArc
 50
187.928142
 51
232.071858
  0
ARC
  5
343
100
AcDbEntity
  8
0
370
    -3
  6
Continuous
100
AcDbCircle
 10
-548.708831
 20
-103.93996
 30
0.0
 40
1.5
100
AcDbArc
 50
7.928142
 51
90.0
  0
ARC
  5
344
100
AcDbEntity
  8
0
370
    -3
  6
Continuous
100
AcDbCircle
 10
-551.735033
 20
-103.93996
 30
0.0
 40
1.5
100
AcDbArc
 50
90.0
 51
187.180756
  0
ARC
  5
345
100
AcDbEntity
  8
0
370
    -3
  6
Continuous
100
AcDbCircle
 10
-558.277662
 20
-103.93996
 30
0.0
 40
1.5
100
AcDbArc
 50
5.96357
 51
90.0
  0
LINE
  5
346
100
AcDbEntity
  8
0
370
    -3
  6
Continuous
100
AcDbLine
 10
-548.708831
 20
-102.43996
 30
0.0
 11
-551.735033
 21
-102.43996
 31
0.0
  0
LINE
  5
347
100
AcDbEntity
  8
0
370
    -3
  6
Continuous
100
AcDbLine
 10
-558.277662
 20
-102.43996
 30
0.0
 11
-561.292797
 21
-102.43996
 31
0.0
  0
ARC
  5
348
100
AcDbEntity
  8
0
370
    -3
  6
Continuous
100
AcDbCircle
 10
-561.292797
 20
-103.93996
 30
0.0
 40
1.5
100
AcDbArc
 50
90.0
 51
185.531072
  0
ARC
  5
349
100
AcDbEntity
  8
0
370
    -3
  6
Continuous
100
AcDbCircle
 10
-532.396424
 20
-129.435414
 30
0.0
 40
1.5
100
AcDbArc
 50
150.0
 51
247.180756
  0
LINE
  5
34A
100
AcDbEntity
  8
0
370
    -3
  6
Continuous
100
AcDbLine
 10
-533.695462
 20
-128.685414
 30
0.0
 11
-532.182361
 21
-126.064646
 31
0.0
  0
ARC
  5
34B
100
AcDbEntity
  8
0
370
    -3
  6
Continuous
100
AcDbCircle
 10
-530.883323
 20
-126.814646
 30
0.0
 40
1.5
100
AcDbArc
 50
67.928142
 51
150.0
  0
ARC
  5
34C
100
AcDbEntity
  8
0
370
    -3
  6
Continuous
100
AcDbCircle
 10
-519.986018
 20
-99.93996
 30
0.0
 40
33.5
100
AcDbArc
 50
247.180756
 51
292.819244
  0
ARC
  5
34D
100
AcDbEntity
  8
0
370
    -3
  6
Continuous
100
AcDbCircle
 10
-519.986018
 20
-99.93996
 30
0.0
 40
27.5
100
AcDbArc
 50
247.928142
 51
292.071858
  0
ARC
  5
34E
100
AcDbEntity
  8
0
370
    -3
  6
Continuous
100
AcDbCircle
 10
-509.088713
 20
-126.814646
 30
0.0
 40
1.5
100
AcDbArc
 50
30.0
 51
112.071858
  0
ARC
  5
34F
100
AcDbEntity
  8
0
370
    -3
  6
Continuous
100
AcDbCircle
 10
-507.575611
 20
-129.435414
 30
0.0
 40
1.5
100
AcDbArc
 50
292.819244
 51
30.0
  0
LINE
  5
350
100
AcDbEntity
  8
0
370
    -3
  6
Continuous
100
AcDbLine
 10
-507.789675
 20
-126.064646
 30
0.0
 11
-506.276573
 21
-128.685414
 31
0.0
  0
ARC
  5
351
100
AcDbEntity
  8
0
370
    -3
  6
Continuous
100
AcDbCircle
 10
-519.986018
 20
-99.93996
 30
0.0
 40
33.5
100
AcDbArc
 50
307.180756
 51
352.819244
  0
ARC
  5
352
100
AcDbEntity
  8
0
370
    -3
  6
Continuous
100
AcDbCircle
 10
-519.986018
 20
-99.93996
 30
0.0
 40
37.0
100
AcDbArc
 50
305.96357
 51
354.03643
  0
ARC
  5
353
100
AcDbEntity
  8
0
370
    -3
  6
Continuous
100
AcDbCircle
 10
-497.376094
 20
-131.101496
 30
0.0
 40
1.5
100
AcDbArc
 50
125.96357
 51
210.0
  0
ARC
  5
354
100
AcDbEntity
  8
0
370
    -3
  6
Continuous
100
AcDbCircle
 10
-500.647408
 20
-125.435414
 30
0.0
 40
1.5
100
AcDbArc
 50
210.0
 51
307.180756
  0
ARC
  5
355
100
AcDbEntity
  8
0
370
    -3
  6
Continuous
100
AcDbCircle
 10
-519.986018
 20
-99.93996
 30
0.0
 40
27.5
100
AcDbArc
 50
307.928142
 51
352.071858
  0
ARC
  5
356
100
AcDbEntity
  8
0
370
    -3
  6
Continuous
100
AcDbCircle
 10
-491.263205
 20
-103.93996
 30
0.0
 40
1.5
100
AcDbArc
 50
90.0
 51
172.071858
  0
LINE
  5
357
100
AcDbEntity
  8
0
370
    -3
  6
Continuous
100
AcDbLine
 10
-503.459548
 20
-123.564646
 30
0.0
 11
-501.946446
 21
-126.185414
 31
0.0
  0
ARC
  5
358
100
AcDbEntity
  8
0
370
    -3
  6
Continuous
100
AcDbCircle
 10
-502.16051
 20
-122.814646
 30
0.0
 40
1.5
100
AcDbArc
 50
127.928142
 51
210.0
  0
CIRCLE
  5
359
100
AcDbEntity
  8
0
370
    -3
  6
Continuous
100
AcDbCircle
 10
-519.986018
 20
-99.93996
 30
0.0
 40
5.0
  0
ARC
  5
35A
100
AcDbEntity
  8
0
370
    -3
  6
Continuous
100
AcDbCircle
 10
-511.93934
 20
-105.877214
 30
0.0
 40
1.5
100
AcDbArc
 50
143.578178
 51
210.0
  0
ARC
  5
35B
100
AcDbEntity
  8
0
370
    -3
  6
Continuous
100
AcDbCircle
 10
-510.820866
 20
-103.93996
 30
0.0
 40
1.5
100
AcDbArc
 50
90.0
 51
156.421822
  0
ARC
  5
35C
100
AcDbEntity
  8
0
370
    -3
  6
Continuous
100
AcDbCircle
 10
-505.451121
 20
-117.115139
 30
0.0
 40
1.5
100
AcDbArc
 50
210.0
 51
310.240348
  0
ARC
  5
35D
100
AcDbEntity
  8
0
370
    -3
  6
Continuous
100
AcDbCircle
 10
-507.616701
 20
-103.93996
 30
0.0
 40
1.5
100
AcDbArc
 50
342.079787
 51
90.0
  0
ARC
  5
35E
100
AcDbEntity
  8
0
370
    -3
  6
Continuous
100
AcDbCircle
 10
-500.900683
 20
-103.93996
 30
0.0
 40
1.5
100
AcDbArc
 50
90.0
 51
168.162996
  0
ARC
  5
35F
100
AcDbEntity
  8
0
370
    -3
  6
Continuous
100
AcDbCircle
 10
-506.979249
 20
-114.468344
 30
0.0
 40
1.5
100
AcDbArc
 50
131.837004
 51
210.0
  0
ARC
  5
360
100
AcDbEntity
  8
0
370
    -3
  6
Continuous
100
AcDbCircle
 10
-497.844428
 20
-103.93996
 30
0.0
 40
1.5
100
AcDbArc
 50
349.759652
 51
90.0
  0
ARC
  5
361
100
AcDbEntity
  8
0
370
    -3
  6
Continuous
100
AcDbCircle
 10
-510.337258
 20
-108.652102
 30
0.0
 40
1.5
100
AcDbArc
 50
210.0
 51
317.920213
  0
LINE
  5
362
100
AcDbEntity
  8
0
370
    -3
  6
Continuous
100
AcDbLine
 10
-508.278287
 20
-115.218344
 30
0.0
 11
-506.750159
 21
-117.865139
 31
0.0
  0
ARC
  5
363
100
AcDbEntity
  8
0
370
    -3
  6
Continuous
100
AcDbCircle
 10
-519.986018
 20
-99.93996
 30
0.0
 40
18.0
100
AcDbArc
 50
311.837004
 51
348.162996
  0
ARC
  5
364
100
AcDbEntity
  8
0
370
    -3
  6
Continuous
100
AcDbCircle
 10
-519.986018
 20
-99.93996
 30
0.0
 40
14.5
100
AcDbArc
 50
317.920213
 51
342.079787
  0
LINE
  5
365
100
AcDbEntity
  8
0
370
    -3
  6
Continuous
100
AcDbLine
 10
-507.616701
 20
-102.43996
 30
0.0
 11
-510.820866
 21
-102.43996
 31
0.0
  0
LINE
  5
366
100
AcDbEntity
  8
0
370
    -3
  6
Continuous
100
AcDbLine
 10
-497.844428
 20
-102.43996
 30
0.0
 11
-500.900683
 21
-102.43996
 31
0.0
  0
LINE
  5
367
100
AcDbEntity
  8
0
370
    -3
  6
Continuous
100
AcDbLine
 10
-513.238379
 20
-106.627214
 30
0.0
 11
-511.636296
 21
-109.402102
 31
0.0
  0
ARC
  5
368
100
AcDbEntity
  8
0
370
    -3
  6
Continuous
100
AcDbCircle
 10
-519.986018
 20
-99.93996
 30
0.0
 40
24.0
100
AcDbArc
 50
310.240348
 51
349.759652
  0
ARC
  5
369
100
AcDbEntity
  8
0
370
    -3
  6
Continuous
100
AcDbCircle
 10
-519.986018
 20
-99.93996
 30
0.0
 40
8.5
100
AcDbArc
 50
323.578178
 51
336.421822
  0
ARC
  5
36A
100
AcDbEntity
  8
0
370
    -3
  6
Continuous
100
AcDbCircle
 10
-522.706575
 20
-112.652102
 30
0.0
 40
1.5
100
AcDbArc
 50
150.0
 51
257.920213
  0
LINE
  5
36B
100
AcDbEntity
  8
0
370
    -3
  6
Continuous
100
AcDbLine
 10
-524.005613
 20
-111.902102
 30
0.0
 11
-522.40353
 21
-109.127214
 31
0.0
  0
ARC
  5
36C
100
AcDbEntity
  8
0
370
    -3
  6
Continuous
100
AcDbCircle
 10
-521.104492
 20
-109.877214
 30
0.0
 40
1.5
100
AcDbArc
 50
83.578178
 51
150.0
  0
ARC
  5
36D
100
AcDbEntity
  8
0
370
    -3
  6
Continuous
100
AcDbCircle
 10
-519.986018
 20
-99.93996
 30
0.0
 40
8.5
100
AcDbArc
 50
263.578178
 51
276.421822
  0
ARC
  5
36E
100
AcDbEntity
  8
0
370
    -3
  6
Continuous
100
AcDbCircle
 10
-518.867544
 20
-109.877214
 30
0.0
 40
1.5
100
AcDbArc
 50
30.0
 51
96.421822
  0
LINE
  5
36F
100
AcDbEntity
  8
0
370
    -3
  6
Continuous
100
AcDbLine
 10
-517.568506
 20
-109.127214
 30
0.0
 11
-515.966423
 21
-111.902102
 31
0.0
  0
ARC
  5
370
100
AcDbEntity
  8
0
370
    -3
  6
Continuous
100
AcDbCircle
 10
-517.265461
 20
-112.652102
 30
0.0
 40
1.5
100
AcDbArc
 50
282.079787
 51
30.0
  0
ARC
  5
371
100
AcDbEntity
  8
0
370
    -3
  6
Continuous
100
AcDbCircle
 10
-519.986018
 20
-99.93996
 30
0.0
 40
14.5
100
AcDbArc
 50
257.920213
 51
282.079787
  0
ARC
  5
372
100
AcDbEntity
  8
0
370
    -3
  6
Continuous
100
AcDbCircle
 10
-527.592711
 20
-121.115139
 30
0.0
 40
1.5
100
AcDbArc
 50
150.0
 51
250.240348
  0
LINE
  5
373
100
AcDbEntity
  8
0
370
    -3
  6
Continuous
100
AcDbLine
 10
-528.891749
 20
-120.365139
 30
0.0
 11
-527.363622
 21
-117.718344
 31
0.0
  0
ARC
  5
374
100
AcDbEntity
  8
0
370
    -3
  6
Continuous
100
AcDbCircle
 10
-526.064583
 20
-118.468344
 30
0.0
 40
1.5
100
AcDbArc
 50
71.837004
 51
150.0
  0
ARC
  5
375
100
AcDbEntity
  8
0
370
    -3
  6
Continuous
100
AcDbCircle
 10
-519.986018
 20
-99.93996
 30
0.0
 40
18.0
100
AcDbArc
 50
251.837004
 51
288.162996
  0
ARC
  5
376
100
AcDbEntity
  8
0
370
    -3
  6
Continuous
100
AcDbCircle
 10
-513.907452
 20
-118.468344
 30
0.0
 40
1.5
100
AcDbArc
 50
30.0
 51
108.162996
  0
LINE
  5
377
100
AcDbEntity
  8
0
370
    -3
  6
Continuous
100
AcDbLine
 10
-512.608414
 20
-117.718344
 30
0.0
 11
-511.080286
 21
-120.365139
 31
0.0
  0
ARC
  5
378
100
AcDbEntity
  8
0
370
    -3
  6
Continuous
100
AcDbCircle
 10
-512.379324
 20
-121.115139
 30
0.0
 40
1.5
100
AcDbArc
 50
289.759652
 51
30.0
  0
ARC
  5
379
100
AcDbEntity
  8
0
370
    -3
  6
Continuous
100
AcDbCircle
 10
-519.986018
 20
-99.93996
 30
0.0
 40
24.0
100
AcDbArc
 50
250.240348
 51
289.759652
  0
ARC
  5
37A
100
AcDbEntity
  8
0
370
    -3
  6
Continuous
100
AcDbCircle
 10
-522.706575
 20
-87.227817
 30
0.0
 40
1.5
100
AcDbArc
 50
102.079787
 51
210.0
  0
LINE
  5
37B
100
AcDbEntity
  8
0
370
    -3
  6
Continuous
100
AcDbLine
 10
-524.005613
 20
-87.977817
 30
0.0
 11
-522.40353
 21
-90.752706
 31
0.0
  0
LINE
  5
37C
100
AcDbEntity
  8
0
370
    -3
  6
Continuous
100
AcDbLine
 10
-550.12296
 20
-162.761388
 30
0.0
 11
-558.986018
 21
-162.604647
 31
0.0
  0
MTEXT
  5
37D
100
AcDbEntity
  8
0
370
    -3
  6
Continuous
100
AcDbMText
 10
-620.801636
 20
138.916595
 30
0.0
 40
15.0
 41
0.0
 71
     7
 72
     1
  1
\W0.43;0.75kW
  7
ZU_SHPTB00001
 11
1.0
 21
0.0
 31
0.0
 73
     1
 44
1.0
  0
MTEXT
  5
37E
100
AcDbEntity
  8
0
370
    -3
  6
Continuous
100
AcDbMText
 10
-620.801636
 20
105.016609
 30
0.0
 40
15.0
 41
0.0
 71
     7
 72
     1
  1
\W0.42;GEAR\W0.70; \W0.42;RATIO\W0.70;  \W0.42;1/5-1/60
  7
ZU_SHPTB00001
 11
1.0
 21
0.0
 31
0.0
 73
     1
 44
1.0
  0
MTEXT
  5
37F
100
AcDbEntity
  8
0
370
    -3
  6
Continuous
100
AcDbMText
 10
-620.801636
 20
121.966621
 30
0.0
 40
15.0
 41
0.0
 71
     7
 72
     1
  1
\W0.43;600-50r/min\W0.53;　
  7
ZU_SHPTB00001
 11
1.0
 21
0.0
 31
0.0
 73
     1
 44
1.0
  0
MTEXT
  5
380
100
AcDbEntity
  8
0
370
    -3
  6
Continuous
100
AcDbMText
 10
-620.801636
 20
88.066582
 30
0.0
 40
15.0
 41
0.0
 71
     7
 72
     1
  1
\W0.43;SCALE\W0.72;  \W0.43;1/1
  7
ZU_SHPTB00001
 11
1.0
 21
0.0
 31
0.0
 73
     1
 44
1.0
  0
MTEXT
  5
381
100
AcDbEntity
  8
0
370
    -3
  6
Continuous
100
AcDbMText
 10
-620.801636
 20
172.81662
 30
0.0
 40
15.0
 41
0.0
 71
     7
 72
     1
  1
\W0.63;三菱ギヤードモータ  
  7
ZU_SHPTB00001
 11
1.0
 21
0.0
 31
0.0
 73
     1
 44
1.0
  0
MTEXT
  5
382
100
AcDbEntity
  8
0
370
    -3
  6
Continuous
100
AcDbMText
 10
-620.801636
 20
172.81662
 30
0.0
 40
15.0
 41
0.0
 71
     7
 72
     1
  1
\W0.63;三菱ギヤードモータ  
  7
ZU_SHPTB00001
 11
1.0
 21
0.0
 31
0.0
 73
     1
 44
1.0
  0
MTEXT
  5
383
100
AcDbEntity
  8
0
370
    -3
  6
Continuous
100
AcDbMText
 10
-620.801636
 20
155.866608
 30
0.0
 40
15.0
 41
0.0
 71
     7
 72
     1
  1
\W0.48;GV-SHYMB-RH
  7
ZU_SHPTB00001
 11
1.0
 21
0.0
 31
0.0
 73
     1
 44
1.0
  0
LINE
  5
384
100
AcDbEntity
  8
0
370
    -3
  6
Continuous
100
AcDbLine
 10
152.363982
 20
-76.93996
 30
0.0
 11
152.363982
 21
-61.239841
 31
0.0
  0
LINE
  5
385
100
AcDbEntity
  8
0
370
    -3
  6
Continuous
100
AcDbLine
 10
151.013982
 20
-76.93996
 30
0.0
 11
151.013982
 21
-61.239841
 31
0.0
  0
LINE
  5
386
100
AcDbEntity
  8
0
370
    -3
  6
Continuous
100
AcDbLine
 10
152.363982
 20
-76.93996
 30
0.0
 11
152.363982
 21
-92.640079
 31
0.0
  0
LINE
  5
387
100
AcDbEntity
  8
0
370
    -3
  6
Continuous
100
AcDbLine
 10
151.013982
 20
-76.93996
 30
0.0
 11
151.013982
 21
-92.640079
 31
0.0
  0
LINE
  5
388
100
AcDbEntity
  8
0
370
    -3
  6
Continuous
100
AcDbLine
 10
151.013982
 20
-61.239841
 30
0.0
 11
152.363982
 21
-61.239841
 31
0.0
  0
LINE
  5
389
100
AcDbEntity
  8
0
370
    -3
  6
Continuous
100
AcDbLine
 10
151.013982
 20
-92.640079
 30
0.0
 11
152.363982
 21
-92.640079
 31
0.0
  0
LINE
  5
38A
100
AcDbEntity
  8
0
370
    -3
  6
Continuous
100
AcDbLine
 10
79.663982
 20
-92.640079
 30
0.0
 11
81.013982
 21
-92.640079
 31
0.0
  0
LINE
  5
38B
100
AcDbEntity
  8
0
370
    -3
  6
Continuous
100
AcDbLine
 10
81.013982
 20
-76.93996
 30
0.0
 11
81.013982
 21
-92.640079
 31
0.0
  0
LINE
  5
38C
100
AcDbEntity
  8
0
370
    -3
  6
Continuous
100
AcDbLine
 10
79.663982
 20
-76.93996
 30
0.0
 11
79.663982
 21
-92.640079
 31
0.0
  0
LINE
  5
38D
100
AcDbEntity
  8
0
370
    -3
  6
Continuous
100
AcDbLine
 10
79.663982
 20
-61.239841
 30
0.0
 11
81.013982
 21
-61.239841
 31
0.0
  0
LINE
  5
38E
100
AcDbEntity
  8
0
370
    -3
  6
Continuous
100
AcDbLine
 10
79.663982
 20
-76.93996
 30
0.0
 11
79.663982
 21
-61.239841
 31
0.0
  0
LINE
  5
38F
100
AcDbEntity
  8
0
370
    -3
  6
Continuous
100
AcDbLine
 10
81.013982
 20
-76.93996
 30
0.0
 11
81.013982
 21
-61.239841
 31
0.0
  0
ARC
  5
390
100
AcDbEntity
  8
0
370
    -3
  6
Continuous
100
AcDbCircle
 10
171.013982
 20
-59.940019
 30
0.0
 40
2.0
100
AcDbArc
 50
270.0
 51
0.0
  0
MTEXT
  5
391
100
AcDbEntity
  8
0
370
    -3
  6
Continuous
100
AcDbMText
 10
-620.801636
 20
71.066582
 30
0.0
 40
15.0
 41
0.0
 71
     7
 72
     1
  1
\W0.43;DATE\W0.72; \W0.43;2012.01.15
  7
ZU_SHPTB00001
 11
1.0
 21
0.0
 31
0.0
 73
     1
 44
1.0
  0
ARC
  5
392
100
AcDbEntity
  8
0
370
    -3
  6
Continuous
100
AcDbCircle
 10
-320.186018
 20
-175.73996
 30
0.0
 40
6.8
100
AcDbArc
 50
90.0
 51
180.0
  0
ARC
  5
393
100
AcDbEntity
  8
0
370
    -3
  6
Continuous
100
AcDbCircle
 10
-250.547864
 20
-172.73996
 30
0.0
 40
3.8
100
AcDbArc
 50
25.0
 51
90.0
  0
LINE
  5
394
100
AcDbEntity
  8
0
370
    -3
  6
Continuous
100
AcDbLine
 10
-333.869605
 20
-218.371821
 30
0.0
 11
-335.560078
 21
-214.74659
 31
0.0
  0
ARC
  5
395
100
AcDbEntity
  8
0
370
    -3
  6
Continuous
100
AcDbCircle
 10
-332.238251
 20
-217.611108
 30
0.0
 40
1.8
100
AcDbArc
 50
205.0
 51
295.0
  0
LINE
  5
396
100
AcDbEntity
  8
0
370
    -3
  6
Continuous
100
AcDbLine
 10
-237.257194
 20
-173.320714
 30
0.0
 11
-238.947667
 21
-169.695483
 31
0.0
  0
ARC
  5
397
100
AcDbEntity
  8
0
370
    -3
  6
Continuous
100
AcDbCircle
 10
-238.888548
 20
-174.081427
 30
0.0
 40
1.8
100
AcDbArc
 50
295.0
 51
25.0
  0
LINE
  5
398
100
AcDbEntity
  8
0
370
    -3
  6
CENTER
100
AcDbLine
 10
-244.823356
 20
-175.5514
 30
0.0
 11
-241.953436
 21
-181.705965
 31
0.0
  0
POINT
  5
399
100
AcDbEntity
  8
0
370
    -3
  6
Continuous
100
AcDbPoint
 10
-243.589393
 20
-178.259547
 30
0.0
  0
LINE
  5
39A
100
AcDbEntity
  8
0
370
    -3
  6
CENTER
100
AcDbLine
 10
-327.297365
 20
-214.009662
 30
0.0
 11
-324.427444
 21
-220.164226
 31
0.0
  0
ARC
  5
39B
100
AcDbEntity
  8
0
370
    -3
  6
Continuous
100
AcDbCircle
 10
-262.475923
 20
-206.223657
 30
0.0
 40
10.8
100
AcDbArc
 50
272.437505
 51
342.341575
  0
ARC
  5
39C
100
AcDbEntity
  8
0
370
    -3
  6
Continuous
100
AcDbCircle
 10
-328.744448
 20
-210.906383
 30
0.0
 40
9.0
100
AcDbArc
 50
278.398469
 51
311.601548
  0
POINT
  5
39D
100
AcDbEntity
  8
0
370
    -3
  6
Continuous
100
AcDbPoint
 10
-326.039691
 20
-216.706752
 30
0.0
  0
LINE
  5
39E
100
AcDbEntity
  8
0
370
    -3
  6
Continuous
100
AcDbLine
 10
-322.867614
 20
-215.227588
 30
0.0
 11
-322.45386
 21
-216.114887
 31
0.0
  0
LINE
  5
39F
100
AcDbEntity
  8
0
370
    -3
  6
Continuous
100
AcDbLine
 10
-329.211768
 20
-218.185916
 30
0.0
 11
-328.798014
 21
-219.073214
 31
0.0
  0
ARC
  5
3A0
100
AcDbEntity
  8
0
370
    -3
  6
Continuous
100
AcDbCircle
 10
-323.632059
 20
-216.66429
 30
0.0
 40
1.299999
100
AcDbArc
 50
311.601548
 51
25.000018
  0
ARC
  5
3A1
100
AcDbEntity
  8
0
370
    -3
  6
Continuous
100
AcDbCircle
 10
-327.619815
 20
-218.523811
 30
0.0
 40
1.299999
100
AcDbArc
 50
204.999999
 51
278.398469
  0
LINE
  5
3A2
100
AcDbEntity
  8
0
370
    -3
  6
Continuous
100
AcDbLine
 10
-240.393605
 20
-176.769327
 30
0.0
 11
-239.979851
 21
-177.656625
 31
0.0
  0
LINE
  5
3A3
100
AcDbEntity
  8
0
370
    -3
  6
CENTER
100
AcDbLine
 10
-244.823356
 20
-175.5514
 30
0.0
 11
-241.953436
 21
-181.705965
 31
0.0
  0
ARC
  5
3A4
100
AcDbEntity
  8
0
370
    -3
  6
Continuous
100
AcDbCircle
 10
-241.158051
 20
-178.206028
 30
0.0
 40
1.299999
100
AcDbArc
 50
311.601548
 51
25.000018
  0
ARC
  5
3A5
100
AcDbEntity
  8
0
370
    -3
  6
Continuous
100
AcDbCircle
 10
-246.270439
 20
-172.448121
 30
0.0
 40
9.0
100
AcDbArc
 50
278.398469
 51
311.601548
  0
LINE
  5
3A6
100
AcDbEntity
  8
0
370
    -3
  6
Continuous
100
AcDbLine
 10
-246.73776
 20
-179.727654
 30
0.0
 11
-246.324006
 21
-180.614953
 31
0.0
  0
ARC
  5
3A7
100
AcDbEntity
  8
0
370
    -3
  6
Continuous
100
AcDbCircle
 10
-245.145806
 20
-180.065549
 30
0.0
 40
1.299999
100
AcDbArc
 50
204.999999
 51
278.398469
  0
LINE
  5
3A8
100
AcDbEntity
  8
0
370
    -3
  6
Continuous
100
AcDbLine
 10
-250.986018
 20
-166.93996
 30
0.0
 11
-250.986018
 21
-167.93996
 31
0.0
  0
LINE
  5
3A9
100
AcDbEntity
  8
0
370
    -3
  6
Continuous
100
AcDbLine
 10
-312.986018
 20
-166.93996
 30
0.0
 11
-312.986018
 21
-167.93996
 31
0.0
  0
LINE
  5
3AA
100
AcDbEntity
  8
0
370
    -3
  6
Continuous
100
AcDbLine
 10
-312.986018
 20
-167.93996
 30
0.0
 11
-250.986018
 21
-167.93996
 31
0.0
  0
LINE
  5
3AB
100
AcDbEntity
  8
0
370
    -3
  6
CENTER
100
AcDbLine
 10
-358.464641
 20
-193.93996
 30
0.0
 11
-318.158155
 21
-193.93996
 31
0.0
  0
LINE
  5
3AC
100
AcDbEntity
  8
0
370
    -3
  6
Continuous
100
AcDbLine
 10
-238.127836
 20
-175.712781
 30
0.0
 11
-331.477538
 21
-219.242462
 31
0.0
  0
ARC
  5
3AD
100
AcDbEntity
  8
0
370
    -3
  6
Continuous
100
AcDbCircle
 10
-251.065042
 20
-185.055633
 30
0.0
 40
3.0
100
AcDbArc
 50
115.0
 51
205.0
  0
LINE
  5
3AE
100
AcDbEntity
  8
0
370
    -3
  6
Continuous
100
AcDbLine
 10
-249.048539
 20
-196.478643
 30
0.0
 11
-253.783966
 21
-186.323488
 31
0.0
  0
ARC
  5
3AF
100
AcDbEntity
  8
0
370
    -3
  6
Continuous
100
AcDbCircle
 10
-310.073006
 20
-214.333878
 30
0.0
 40
2.8
100
AcDbArc
 50
205.0
 51
267.843273
  0
LINE
  5
3B0
100
AcDbEntity
  8
0
370
    -3
  6
Continuous
100
AcDbLine
 10
-313.285698
 20
-214.069601
 30
0.0
 11
-312.610668
 21
-215.517209
 31
0.0
  0
ARC
  5
3B1
100
AcDbEntity
  8
0
370
    -3
  6
Continuous
100
AcDbCircle
 10
-316.004621
 20
-215.337456
 30
0.0
 40
3.0
100
AcDbArc
 50
25.0
 51
115.0
  0
ARC
  5
3B2
100
AcDbEntity
  8
0
370
    -3
  6
Continuous
100
AcDbCircle
 10
-251.586201
 20
-197.661974
 30
0.0
 40
2.8
100
AcDbArc
 50
344.545811
 51
25.0
  0
LINE
  5
3B3
100
AcDbEntity
  8
0
370
    -3
  6
CENTER
100
AcDbLine
 10
-281.986018
 20
-156.162542
 30
0.0
 11
-281.986018
 21
-179.072519
 31
0.0
  0
ARC
  5
3B4
100
AcDbEntity
  8
0
370
    -3
  6
Continuous
100
AcDbCircle
 10
-287.568416
 20
383.242514
 30
0.0
 40
600.8
100
AcDbArc
 50
266.682408
 51
272.437505
  0
ARC
  5
3B5
100
AcDbEntity
  8
0
370
    -3
  6
Continuous
100
AcDbCircle
 10
-538.811658
 20
-118.254563
 30
0.0
 40
300.8
100
AcDbArc
 50
342.341575
 51
347.89975
  0
ARC
  5
3B6
100
AcDbEntity
  8
0
370
    -3
  6
Continuous
100
AcDbCircle
 10
-264.671101
 20
-172.73996
 30
0.0
 40
3.8
100
AcDbArc
 50
25.0
 51
90.0
  0
LINE
  5
3B7
100
AcDbEntity
  8
0
370
    -3
  6
Continuous
100
AcDbLine
 10
-257.798869
 20
-178.485943
 30
0.0
 11
-261.227132
 21
-171.13401
 31
0.0
  0
LINE
  5
3B8
100
AcDbEntity
  8
0
370
    -3
  6
Continuous
100
AcDbLine
 10
-238.947667
 20
-169.695483
 30
0.0
 11
-327.396733
 21
-210.93996
 31
0.0
  0
LINE
  5
3B9
100
AcDbEntity
  8
0
370
    -3
  6
Continuous
100
AcDbLine
 10
-327.396733
 20
-210.93996
 30
0.0
 11
-335.560078
 21
-214.74659
 31
0.0
  0
LINE
  5
3BA
100
AcDbEntity
  8
0
370
    -3
  6
Continuous
100
AcDbLine
 10
-326.986018
 20
-210.74844
 30
0.0
 11
-326.986018
 21
-175.73996
 31
0.0
  0
LINE
  5
3BB
100
AcDbEntity
  8
0
370
    -3
  6
Continuous
100
AcDbLine
 10
-246.19813
 20
-173.076429
 30
0.0
 11
-247.103895
 21
-171.13401
 31
0.0
  0
ARC
  5
3BC
100
AcDbEntity
  8
0
370
    -3
  6
Continuous
100
AcDbCircle
 10
-253.986018
 20
-168.93996
 30
0.0
 40
1.0
100
AcDbArc
 50
13.342364
 51
90.0
  0
LINE
  5
3BD
100
AcDbEntity
  8
0
370
    -3
  6
Continuous
100
AcDbLine
 10
-320.186018
 20
-168.93996
 30
0.0
 11
-250.547864
 21
-168.93996
 31
0.0
  0
ARC
  5
3BE
100
AcDbEntity
  8
0
370
    -3
  6
Continuous
100
AcDbCircle
 10
-309.986018
 20
-168.93996
 30
0.0
 40
1.0
100
AcDbArc
 50
90.0
 51
166.657636
  0
LINE
  5
3BF
100
AcDbEntity
  8
0
370
    -3
  6
Continuous
100
AcDbLine
 10
-315.310324
 20
-205.303975
 30
0.0
 11
-315.310324
 21
-171.93996
 31
0.0
  0
ARC
  5
3C0
100
AcDbEntity
  8
0
370
    -3
  6
Continuous
100
AcDbCircle
 10
-312.310324
 20
-171.93996
 30
0.0
 40
3.0
100
AcDbArc
 50
90.0
 51
180.0
  0
LINE
  5
3C1
100
AcDbEntity
  8
0
370
    -3
  6
CENTER
100
AcDbLine
 10
-281.986018
 20
-156.162542
 30
0.0
 11
-281.986018
 21
-179.072519
 31
0.0
  0
LINE
  5
3C2
100
AcDbEntity
  8
0
370
    -3
  6
Continuous
100
AcDbLine
 10
-245.736018
 20
-159.434547
 30
0.0
 11
-245.736018
 21
-160.93996
 31
0.0
  0
LINE
  5
3C3
100
AcDbEntity
  8
0
370
    -3
  6
Continuous
100
AcDbLine
 10
-309.167752
 20
-160.93996
 30
0.0
 11
-245.736018
 21
-160.93996
 31
0.0
  0
LINE
  5
3C4
100
AcDbEntity
  8
0
370
    -3
  6
CENTER
100
AcDbLine
 10
-259.505047
 20
-153.630073
 30
0.0
 11
-259.505047
 21
-168.964599
 31
0.0
  0
LINE
  5
3C5
100
AcDbEntity
  8
0
370
    -3
  6
Continuous
100
AcDbLine
 10
-302.038704
 20
-162.93996
 30
0.0
 11
-315.090761
 21
-162.93996
 31
0.0
  0
LINE
  5
3C6
100
AcDbEntity
  8
0
370
    -3
  6
Continuous
100
AcDbLine
 10
-262.933332
 20
-162.93996
 30
0.0
 11
-249.881274
 21
-162.93996
 31
0.0
  0
LINE
  5
3C7
100
AcDbEntity
  8
0
370
    -3
  6
Continuous
100
AcDbLine
 10
-314.011861
 20
-166.93996
 30
0.0
 11
-250.960175
 21
-166.93996
 31
0.0
  0
LINE
  5
3C8
100
AcDbEntity
  8
0
370
    -3
  6
CENTER
100
AcDbLine
 10
-305.466988
 20
-154.051101
 30
0.0
 11
-305.466988
 21
-168.964599
 31
0.0
  0
ARC
  5
3C9
100
AcDbEntity
  8
0
370
    -3
  6
Continuous
100
AcDbCircle
 10
-250.960175
 20
-165.93996
 30
0.0
 40
1.0
100
AcDbArc
 50
270.0
 51
358.5
  0
ARC
  5
3CA
100
AcDbEntity
  8
0
370
    -3
  6
Continuous
100
AcDbCircle
 10
-314.011861
 20
-165.93996
 30
0.0
 40
1.0
100
AcDbArc
 50
181.5
 51
270.0
  0
LINE
  5
3CB
100
AcDbEntity
  8
0
370
    -3
  6
Continuous
100
AcDbLine
 10
-315.090761
 20
-162.93996
 30
0.0
 11
-315.011518
 21
-165.966137
 31
0.0
  0
LINE
  5
3CC
100
AcDbEntity
  8
0
370
    -3
  6
Continuous
100
AcDbLine
 10
-249.881274
 20
-162.93996
 30
0.0
 11
-249.960517
 21
-165.966137
 31
0.0
  0
LINE
  5
3CD
100
AcDbEntity
  8
0
370
    -3
  6
Continuous
100
AcDbLine
 10
-262.933332
 20
-162.93996
 30
0.0
 11
-302.038704
 21
-162.93996
 31
0.0
  0
LINE
  5
3CE
100
AcDbEntity
  8
0
370
    -3
  6
Continuous
100
AcDbLine
 10
-307.986018
 20
-156.93996
 30
0.0
 11
-302.41451
 21
-156.93996
 31
0.0
  0
ARC
  5
3CF
100
AcDbEntity
  8
0
370
    -3
  6
Continuous
100
AcDbCircle
 10
-302.408379
 20
-157.43996
 30
0.0
 40
0.5
100
AcDbArc
 50
7.125016
 51
90.0
  0
LINE
  5
3D0
100
AcDbEntity
  8
0
370
    -3
  6
Continuous
100
AcDbLine
 10
-301.91224
 20
-157.377942
 30
0.0
 11
-301.521736
 21
-160.501977
 31
0.0
  0
ARC
  5
3D1
100
AcDbEntity
  8
0
370
    -3
  6
Continuous
100
AcDbCircle
 10
-301.025597
 20
-160.43996
 30
0.0
 40
0.5
100
AcDbArc
 50
187.125016
 51
270.0
  0
LINE
  5
3D2
100
AcDbEntity
  8
0
370
    -3
  6
Continuous
100
AcDbLine
 10
-256.446438
 20
-156.93996
 30
0.0
 11
-262.557526
 21
-156.93996
 31
0.0
  0
ARC
  5
3D3
100
AcDbEntity
  8
0
370
    -3
  6
Continuous
100
AcDbCircle
 10
-262.563656
 20
-157.43996
 30
0.0
 40
0.5
100
AcDbArc
 50
90.0
 51
172.874984
  0
ARC
  5
3D4
100
AcDbEntity
  8
0
370
    -3
  6
Continuous
100
AcDbCircle
 10
-256.446438
 20
-157.43996
 30
0.0
 40
0.5
100
AcDbArc
 50
7.125016
 51
90.0
  0
LINE
  5
3D5
100
AcDbEntity
  8
0
370
    -3
  6
Continuous
100
AcDbLine
 10
-255.9503
 20
-157.377942
 30
0.0
 11
-255.559795
 21
-160.501977
 31
0.0
  0
ARC
  5
3D6
100
AcDbEntity
  8
0
370
    -3
  6
Continuous
100
AcDbCircle
 10
-255.063656
 20
-160.43996
 30
0.0
 40
0.5
100
AcDbArc
 50
187.125016
 51
270.0
  0
LINE
  5
3D7
100
AcDbEntity
  8
0
370
    -3
  6
Continuous
100
AcDbLine
 10
-263.059795
 20
-157.377942
 30
0.0
 11
-263.4503
 21
-160.501977
 31
0.0
  0
ARC
  5
3D8
100
AcDbEntity
  8
0
370
    -3
  6
Continuous
100
AcDbCircle
 10
-263.946438
 20
-160.43996
 30
0.0
 40
0.5
100
AcDbArc
 50
270.0
 51
352.874984
  0
LINE
  5
3D9
100
AcDbEntity
  8
0
370
    -3
  6
Continuous
100
AcDbLine
 10
-263.968862
 20
-160.93996
 30
0.0
 11
-255.005047
 21
-160.93996
 31
0.0
  0
ARC
  5
3DA
100
AcDbEntity
  8
0
370
    -3
  6
Continuous
100
AcDbCircle
 10
-255.005047
 20
-161.43996
 30
0.0
 40
0.5
100
AcDbArc
 50
0.0
 51
90.0
  0
LINE
  5
3DB
100
AcDbEntity
  8
0
370
    -3
  6
Continuous
100
AcDbLine
 10
-254.505047
 20
-161.43996
 30
0.0
 11
-254.505047
 21
-162.43996
 31
0.0
  0
ARC
  5
3DC
100
AcDbEntity
  8
0
370
    -3
  6
Continuous
100
AcDbCircle
 10
-254.005047
 20
-162.43996
 30
0.0
 40
0.5
100
AcDbArc
 50
180.0
 51
270.0
  0
ARC
  5
3DD
100
AcDbEntity
  8
0
370
    -3
  6
Continuous
100
AcDbCircle
 10
-264.005047
 20
-161.43996
 30
0.0
 40
0.5
100
AcDbArc
 50
90.0
 51
180.0
  0
LINE
  5
3DE
100
AcDbEntity
  8
0
370
    -3
  6
Continuous
100
AcDbLine
 10
-264.505047
 20
-161.43996
 30
0.0
 11
-264.505047
 21
-162.43996
 31
0.0
  0
ARC
  5
3DF
100
AcDbEntity
  8
0
370
    -3
  6
Continuous
100
AcDbCircle
 10
-265.005047
 20
-162.43996
 30
0.0
 40
0.5
100
AcDbArc
 50
270.0
 51
0.0
  0
ARC
  5
3E0
100
AcDbEntity
  8
0
370
    -3
  6
Continuous
100
AcDbCircle
 10
-300.966988
 20
-161.43996
 30
0.0
 40
0.5
100
AcDbArc
 50
0.0
 51
90.0
  0
LINE
  5
3E1
100
AcDbEntity
  8
0
370
    -3
  6
Continuous
100
AcDbLine
 10
-300.966988
 20
-160.93996
 30
0.0
 11
-309.167752
 21
-160.93996
 31
0.0
  0
LINE
  5
3E2
100
AcDbEntity
  8
0
370
    -3
  6
Continuous
100
AcDbLine
 10
-300.466988
 20
-161.43996
 30
0.0
 11
-300.466988
 21
-162.43996
 31
0.0
  0
ARC
  5
3E3
100
AcDbEntity
  8
0
370
    -3
  6
Continuous
100
AcDbCircle
 10
-299.966988
 20
-162.43996
 30
0.0
 40
0.5
100
AcDbArc
 50
180.0
 51
270.0
  0
ARC
  5
3E4
100
AcDbEntity
  8
0
370
    -3
  6
Continuous
100
AcDbCircle
 10
-310.966988
 20
-162.43996
 30
0.0
 40
0.5
100
AcDbArc
 50
270.0
 51
0.0
  0
LINE
  5
3E5
100
AcDbEntity
  8
0
370
    -3
  6
Continuous
100
AcDbLine
 10
-310.466988
 20
-161.553768
 30
0.0
 11
-310.466988
 21
-162.43996
 31
0.0
  0
POINT
  5
3E6
100
AcDbEntity
  8
0
370
    -3
  6
CENTER
100
AcDbPoint
 10
-355.486018
 20
-180.71946
 30
0.0
  0
POINT
  5
3E7
100
AcDbEntity
  8
0
370
    -3
  6
CENTER
100
AcDbPoint
 10
-355.486018
 20
-207.16046
 30
0.0
  0
LINE
  5
3E8
100
AcDbEntity
  8
0
370
    -3
  6
Continuous
100
AcDbLine
 10
-328.986018
 20
-193.93996
 30
0.0
 11
-328.986018
 21
-210.93996
 31
0.0
  0
LINE
  5
3E9
100
AcDbEntity
  8
0
370
    -3
  6
Continuous
100
AcDbLine
 10
-328.986018
 20
-193.93996
 30
0.0
 11
-328.986018
 21
-176.93996
 31
0.0
  0
LINE
  5
3EA
100
AcDbEntity
  8
0
370
    -3
  6
Continuous
100
AcDbLine
 10
-353.986018
 20
-176.93996
 30
0.0
 11
-326.986018
 21
-176.93996
 31
0.0
  0
ARC
  5
3EB
100
AcDbEntity
  8
0
370
    -3
  6
Continuous
100
AcDbCircle
 10
-353.986018
 20
-178.93996
 30
0.0
 40
2.0
100
AcDbArc
 50
90.0
 51
180.0
  0
LINE
  5
3EC
100
AcDbEntity
  8
0
370
    -3
  6
Continuous
100
AcDbLine
 10
-353.986018
 20
-210.93996
 30
0.0
 11
-327.396733
 21
-210.93996
 31
0.0
  0
ARC
  5
3ED
100
AcDbEntity
  8
0
370
    -3
  6
Continuous
100
AcDbCircle
 10
-353.986018
 20
-208.93996
 30
0.0
 40
2.0
100
AcDbArc
 50
180.0
 51
270.0
  0
LINE
  5
3EE
100
AcDbEntity
  8
0
370
    -3
  6
Continuous
100
AcDbLine
 10
-281.986018
 20
-166.93996
 30
0.0
 11
-250.986018
 21
-166.93996
 31
0.0
  0
LINE
  5
3EF
100
AcDbEntity
  8
0
370
    -3
  6
Continuous
100
AcDbLine
 10
-281.986018
 20
-166.93996
 30
0.0
 11
-312.986018
 21
-166.93996
 31
0.0
  0
LINE
  5
3F0
100
AcDbEntity
  8
0
370
    -3
  6
Continuous
100
AcDbLine
 10
-312.986018
 20
-166.93996
 30
0.0
 11
-250.986018
 21
-166.93996
 31
0.0
  0
ARC
  5
3F1
100
AcDbEntity
  8
0
370
    -3
  6
Continuous
100
AcDbCircle
 10
-311.250929
 20
-168.63996
 30
0.0
 40
0.3
100
AcDbArc
 50
270.0
 51
346.657636
  0
LINE
  5
3F2
100
AcDbEntity
  8
0
370
    -3
  6
Continuous
100
AcDbLine
 10
-300.003173
 20
-160.93996
 30
0.0
 11
-308.660671
 21
-160.93996
 31
0.0
  0
ARC
  5
3F3
100
AcDbEntity
  8
0
370
    -3
  6
Continuous
100
AcDbCircle
 10
-252.721107
 20
-168.63996
 30
0.0
 40
0.3
100
AcDbArc
 50
193.342364
 51
270.0
  0
LINE
  5
3F4
100
AcDbEntity
  8
0
370
    -3
  6
Continuous
100
AcDbLine
 10
-355.986018
 20
-193.93996
 30
0.0
 11
-355.986018
 21
-178.93996
 31
0.0
  0
LINE
  5
3F5
100
AcDbEntity
  8
0
370
    -3
  6
Continuous
100
AcDbLine
 10
-355.986018
 20
-193.93996
 30
0.0
 11
-355.986018
 21
-208.93996
 31
0.0
  0
LINE
  5
3F6
100
AcDbEntity
  8
0
370
    -3
  6
CENTER
100
AcDbLine
 10
354.713525
 20
-193.93996
 30
0.0
 11
397.314439
 21
-193.93996
 31
0.0
  0
CIRCLE
  5
3F7
100
AcDbEntity
  8
0
370
    -3
  6
DASHED
100
AcDbCircle
 10
376.013982
 20
-193.93996
 30
0.0
 40
17.0
  0
LINE
  5
3F8
100
AcDbEntity
  8
0
370
    -3
  6
Continuous
100
AcDbLine
 10
408.624548
 20
-162.717643
 30
0.0
 11
408.539483
 21
-165.966137
 31
0.0
  0
ARC
  5
3F9
100
AcDbEntity
  8
0
370
    -3
  6
Continuous
100
AcDbCircle
 10
407.539825
 20
-165.93996
 30
0.0
 40
1.0
100
AcDbArc
 50
270.0
 51
358.5
  0
ARC
  5
3FA
100
AcDbEntity
  8
0
370
    -3
  6
Continuous
100
AcDbCircle
 10
344.488139
 20
-165.93996
 30
0.0
 40
1.0
100
AcDbArc
 50
181.5
 51
270.0
  0
LINE
  5
3FB
100
AcDbEntity
  8
0
370
    -3
  6
Continuous
100
AcDbLine
 10
407.539825
 20
-166.93996
 30
0.0
 11
344.488139
 21
-166.93996
 31
0.0
  0
LINE
  5
3FC
100
AcDbEntity
  8
0
370
    -3
  6
Continuous
100
AcDbLine
 10
343.433606
 20
-163.870527
 30
0.0
 11
343.488482
 21
-165.966137
 31
0.0
  0
ARC
  5
3FD
100
AcDbEntity
  8
0
370
    -3
  6
Continuous
100
AcDbCircle
 10
415.013982
 20
-182.752068
 30
0.0
 40
7.8
100
AcDbArc
 50
0.0
 51
90.0
  0
ARC
  5
3FE
100
AcDbEntity
  8
0
370
    -3
  6
Continuous
100
AcDbCircle
 10
415.013982
 20
-177.495483
 30
0.0
 40
7.8
100
AcDbArc
 50
0.0
 51
90.0
  0
LINE
  5
3FF
100
AcDbEntity
  8
0
370
    -3
  6
Continuous
100
AcDbLine
 10
414.563982
 20
-186.24685
 30
0.0
 11
414.563982
 21
-210.757486
 31
0.0
  0
ARC
  5
400
100
AcDbEntity
  8
0
370
    -3
  6
Continuous
100
AcDbCircle
 10
410.763982
 20
-186.24685
 30
0.0
 40
3.8
100
AcDbArc
 50
0.0
 51
66.772328
  0
ELLIPSE
  5
401
100
AcDbEntity
  8
0
370
    -3
  6
Continuous
100
AcDbEllipse
 10
415.513982
 20
-179.067438
 30
0.0
 11
3.5
 21
0.0
 31
0.0
210
0.0
220
0.0
230
1.0
 40
0.656603
 41
0.0
 42
6.2831853071795862
  0
LINE
  5
402
100
AcDbEntity
  8
0
370
    -3
  6
Continuous
100
AcDbLine
 10
415.513982
 20
-180.604891
 30
0.0
 11
417.513982
 21
-179.555703
 31
0.0
  0
LINE
  5
403
100
AcDbEntity
  8
0
370
    -3
  6
Continuous
100
AcDbLine
 10
415.513982
 20
-180.604891
 30
0.0
 11
413.513982
 21
-179.555703
 31
0.0
  0
LINE
  5
404
100
AcDbEntity
  8
0
370
    -3
  6
Continuous
100
AcDbLine
 10
413.923966
 20
-181.114718
 30
0.0
 11
415.513982
 21
-180.604891
 31
0.0
  0
LINE
  5
405
100
AcDbEntity
  8
0
370
    -3
  6
Continuous
100
AcDbLine
 10
417.103999
 20
-181.114718
 30
0.0
 11
415.513982
 21
-180.604891
 31
0.0
  0
LINE
  5
406
100
AcDbEntity
  8
0
370
    -3
  6
Continuous
100
AcDbLine
 10
413.923966
 20
-219.57298
 30
0.0
 11
415.513982
 21
-219.063153
 31
0.0
  0
LINE
  5
407
100
AcDbEntity
  8
0
370
    -3
  6
Continuous
100
AcDbLine
 10
415.513982
 20
-219.063153
 30
0.0
 11
413.513982
 21
-218.013965
 31
0.0
  0
LINE
  5
408
100
AcDbEntity
  8
0
370
    -3
  6
Continuous
100
AcDbLine
 10
415.513982
 20
-219.063153
 30
0.0
 11
417.513982
 21
-218.013965
 31
0.0
  0
LINE
  5
409
100
AcDbEntity
  8
0
370
    -3
  6
Continuous
100
AcDbLine
 10
417.103999
 20
-219.57298
 30
0.0
 11
415.513982
 21
-219.063153
 31
0.0
  0
ELLIPSE
  5
40A
100
AcDbEntity
  8
0
370
    -3
  6
Continuous
100
AcDbEllipse
 10
415.513982
 20
-217.525699
 30
0.0
 11
3.5
 21
0.0
 31
0.0
210
0.0
220
0.0
230
1.0
 40
0.656603
 41
0.0
 42
6.2831853071795862
  0
ARC
  5
40B
100
AcDbEntity
  8
0
370
    -3
  6
Continuous
100
AcDbCircle
 10
415.013982
 20
-211.611108
 30
0.0
 40
7.8
100
AcDbArc
 50
298.12516
 51
0.0
  0
LINE
  5
40C
100
AcDbEntity
  8
0
370
    -3
  6
Continuous
100
AcDbLine
 10
422.813982
 20
-211.611108
 30
0.0
 11
422.813982
 21
-177.495483
 31
0.0
  0
ARC
  5
40D
100
AcDbEntity
  8
0
370
    -3
  6
Continuous
100
AcDbCircle
 10
407.763982
 20
-210.757486
 30
0.0
 40
6.8
100
AcDbArc
 50
270.0
 51
0.0
  0
LINE
  5
40E
100
AcDbEntity
  8
0
370
    -3
  6
Continuous
100
AcDbLine
 10
344.263982
 20
-217.557486
 30
0.0
 11
407.763982
 21
-217.557486
 31
0.0
  0
ARC
  5
40F
100
AcDbEntity
  8
0
370
    -3
  6
Continuous
100
AcDbCircle
 10
344.263982
 20
-210.757486
 30
0.0
 40
6.8
100
AcDbArc
 50
180.0
 51
270.0
  0
ARC
  5
410
100
AcDbEntity
  8
0
370
    -3
  6
Continuous
100
AcDbCircle
 10
337.013982
 20
-182.752068
 30
0.0
 40
7.8
100
AcDbArc
 50
90.0
 51
180.0
  0
LINE
  5
411
100
AcDbEntity
  8
0
370
    -3
  6
Continuous
100
AcDbLine
 10
415.013982
 20
-174.952068
 30
0.0
 11
337.013982
 21
-174.952068
 31
0.0
  0
LINE
  5
412
100
AcDbEntity
  8
0
370
    -3
  6
Continuous
100
AcDbLine
 10
329.213982
 20
-211.611108
 30
0.0
 11
329.213982
 21
-177.495483
 31
0.0
  0
LINE
  5
413
100
AcDbEntity
  8
0
370
    -3
  6
Continuous
100
AcDbLine
 10
337.013982
 20
-169.695483
 30
0.0
 11
415.013982
 21
-169.695483
 31
0.0
  0
ARC
  5
414
100
AcDbEntity
  8
0
370
    -3
  6
Continuous
100
AcDbCircle
 10
337.013982
 20
-177.495483
 30
0.0
 40
7.8
100
AcDbArc
 50
90.0
 51
180.0
  0
LINE
  5
415
100
AcDbEntity
  8
0
370
    -3
  6
Continuous
100
AcDbLine
 10
412.262648
 20
-182.754859
 30
0.0
 11
403.067978
 21
-178.808761
 31
0.0
  0
ARC
  5
416
100
AcDbEntity
  8
0
370
    -3
  6
Continuous
100
AcDbCircle
 10
401.569312
 20
-182.300752
 30
0.0
 40
3.8
100
AcDbArc
 50
66.772328
 51
90.0
  0
LINE
  5
417
100
AcDbEntity
  8
0
370
    -3
  6
Continuous
100
AcDbLine
 10
339.765316
 20
-182.754859
 30
0.0
 11
348.959986
 21
-178.808761
 31
0.0
  0
LINE
  5
418
100
AcDbEntity
  8
0
370
    -3
  6
Continuous
100
AcDbLine
 10
350.458652
 20
-178.500752
 30
0.0
 11
401.569312
 21
-178.500752
 31
0.0
  0
ARC
  5
419
100
AcDbEntity
  8
0
370
    -3
  6
Continuous
100
AcDbCircle
 10
350.458652
 20
-182.300752
 30
0.0
 40
3.8
100
AcDbArc
 50
90.0
 51
113.227672
  0
LINE
  5
41A
100
AcDbEntity
  8
0
370
    -3
  6
Continuous
100
AcDbLine
 10
337.463982
 20
-186.24685
 30
0.0
 11
337.463982
 21
-210.757486
 31
0.0
  0
ARC
  5
41B
100
AcDbEntity
  8
0
370
    -3
  6
Continuous
100
AcDbCircle
 10
341.263982
 20
-186.24685
 30
0.0
 40
3.8
100
AcDbArc
 50
113.227672
 51
180.0
  0
ELLIPSE
  5
41C
100
AcDbEntity
  8
0
370
    -3
  6
Continuous
100
AcDbEllipse
 10
336.513982
 20
-179.067438
 30
0.0
 11
3.5
 21
0.0
 31
0.0
210
0.0
220
0.0
230
1.0
 40
0.656603
 41
0.0
 42
6.2831853071795862
  0
LINE
  5
41D
100
AcDbEntity
  8
0
370
    -3
  6
Continuous
100
AcDbLine
 10
336.513982
 20
-180.604891
 30
0.0
 11
334.513982
 21
-179.555703
 31
0.0
  0
LINE
  5
41E
100
AcDbEntity
  8
0
370
    -3
  6
Continuous
100
AcDbLine
 10
336.513982
 20
-180.604891
 30
0.0
 11
338.513982
 21
-179.555703
 31
0.0
  0
LINE
  5
41F
100
AcDbEntity
  8
0
370
    -3
  6
Continuous
100
AcDbLine
 10
338.103999
 20
-181.114718
 30
0.0
 11
336.513982
 21
-180.604891
 31
0.0
  0
LINE
  5
420
100
AcDbEntity
  8
0
370
    -3
  6
Continuous
100
AcDbLine
 10
334.923966
 20
-181.114718
 30
0.0
 11
336.513982
 21
-180.604891
 31
0.0
  0
LINE
  5
421
100
AcDbEntity
  8
0
370
    -3
  6
Continuous
100
AcDbLine
 10
338.103999
 20
-219.57298
 30
0.0
 11
336.513982
 21
-219.063153
 31
0.0
  0
LINE
  5
422
100
AcDbEntity
  8
0
370
    -3
  6
Continuous
100
AcDbLine
 10
336.513982
 20
-219.063153
 30
0.0
 11
338.513982
 21
-218.013965
 31
0.0
  0
LINE
  5
423
100
AcDbEntity
  8
0
370
    -3
  6
Continuous
100
AcDbLine
 10
336.513982
 20
-219.063153
 30
0.0
 11
334.513982
 21
-218.013965
 31
0.0
  0
LINE
  5
424
100
AcDbEntity
  8
0
370
    -3
  6
Continuous
100
AcDbLine
 10
334.923966
 20
-219.57298
 30
0.0
 11
336.513982
 21
-219.063153
 31
0.0
  0
ELLIPSE
  5
425
100
AcDbEntity
  8
0
370
    -3
  6
Continuous
100
AcDbEllipse
 10
336.513982
 20
-217.525699
 30
0.0
 11
3.5
 21
0.0
 31
0.0
210
0.0
220
0.0
230
1.0
 40
0.656603
 41
0.0
 42
6.2831853071795862
  0
ARC
  5
426
100
AcDbEntity
  8
0
370
    -3
  6
Continuous
100
AcDbCircle
 10
337.013982
 20
-211.611108
 30
0.0
 40
7.8
100
AcDbArc
 50
180.0
 51
241.87484
  0
LINE
  5
427
100
AcDbEntity
  8
0
370
    -3
  6
Continuous
100
AcDbLine
 10
338.515164
 20
-219.411108
 30
0.0
 11
413.512801
 21
-219.411108
 31
0.0
  0
ARC
  5
428
100
AcDbEntity
  8
0
370
    -3
  6
Continuous
100
AcDbCircle
 10
340.513982
 20
-172.73996
 30
0.0
 40
3.8
100
AcDbArc
 50
90.0
 51
126.757251
  0
ARC
  5
429
100
AcDbEntity
  8
0
370
    -3
  6
Continuous
100
AcDbCircle
 10
411.513982
 20
-172.73996
 30
0.0
 40
3.8
100
AcDbArc
 50
51.247352
 51
90.0
  0
ARC
  5
42A
100
AcDbEntity
  8
0
370
    -3
  6
Continuous
100
AcDbCircle
 10
404.013982
 20
-168.93996
 30
0.0
 40
1.0
100
AcDbArc
 50
0.0
 51
90.0
  0
LINE
  5
42B
100
AcDbEntity
  8
0
370
    -3
  6
Continuous
100
AcDbLine
 10
348.013982
 20
-167.93996
 30
0.0
 11
404.013982
 21
-167.93996
 31
0.0
  0
LINE
  5
42C
100
AcDbEntity
  8
0
370
    -3
  6
Continuous
100
AcDbLine
 10
407.013982
 20
-166.93996
 30
0.0
 11
407.013982
 21
-167.93996
 31
0.0
  0
LINE
  5
42D
100
AcDbEntity
  8
0
370
    -3
  6
Continuous
100
AcDbLine
 10
407.013982
 20
-166.93996
 30
0.0
 11
345.013982
 21
-166.93996
 31
0.0
  0
LINE
  5
42E
100
AcDbEntity
  8
0
370
    -3
  6
Continuous
100
AcDbLine
 10
345.013982
 20
-166.93996
 30
0.0
 11
345.013982
 21
-167.93996
 31
0.0
  0
LINE
  5
42F
100
AcDbEntity
  8
0
370
    -3
  6
Continuous
100
AcDbLine
 10
407.013982
 20
-167.93996
 30
0.0
 11
345.013982
 21
-167.93996
 31
0.0
  0
ARC
  5
430
100
AcDbEntity
  8
0
370
    -3
  6
Continuous
100
AcDbCircle
 10
348.013982
 20
-168.93996
 30
0.0
 40
1.0
100
AcDbArc
 50
90.0
 51
180.0
  0
LINE
  5
431
100
AcDbEntity
  8
0
370
    -3
  6
Continuous
100
AcDbLine
 10
340.513982
 20
-168.93996
 30
0.0
 11
411.513982
 21
-168.93996
 31
0.0
  0
LINE
  5
432
100
AcDbEntity
  8
0
370
    -3
  6
Continuous
100
AcDbLine
 10
336.35647
 20
-169.999389
 30
0.0
 11
337.357312
 21
-169.574556
 31
0.0
  0
LINE
  5
433
100
AcDbEntity
  8
0
370
    -3
  6
Continuous
100
AcDbLine
 10
-493.154647
 20
-175.73996
 30
0.0
 11
-493.154647
 21
-213.096556
 31
0.0
  0
ARC
  5
434
100
AcDbEntity
  8
0
370
    -3
  6
Continuous
100
AcDbCircle
 10
-499.954647
 20
-175.73996
 30
0.0
 40
6.8
100
AcDbArc
 50
0.0
 51
90.0
  0
ARC
  5
435
100
AcDbEntity
  8
0
370
    -3
  6
Continuous
100
AcDbCircle
 10
-540.017389
 20
-175.73996
 30
0.0
 40
6.8
100
AcDbArc
 50
90.0
 51
180.0
  0
LINE
  5
436
100
AcDbEntity
  8
0
370
    -3
  6
Continuous
100
AcDbLine
 10
-546.817389
 20
-175.73996
 30
0.0
 11
-546.817389
 21
-213.096556
 31
0.0
  0
LINE
  5
437
100
AcDbEntity
  8
0
370
    -3
  6
Continuous
100
AcDbLine
 10
-519.986018
 20
-214.74659
 30
0.0
 11
-480.986018
 21
-214.74659
 31
0.0
  0
LINE
  5
438
100
AcDbEntity
  8
0
370
    -3
  6
Continuous
100
AcDbLine
 10
-474.486018
 20
-178.450073
 30
0.0
 11
-474.486018
 21
-210.006571
 31
0.0
  0
LINE
  5
439
100
AcDbEntity
  8
0
370
    -3
  6
Continuous
100
AcDbLine
 10
-480.986018
 20
-169.695483
 30
0.0
 11
-484.370845
 21
-169.695483
 31
0.0
  0
LINE
  5
43A
100
AcDbEntity
  8
0
370
    -3
  6
Continuous
100
AcDbLine
 10
-483.787747
 20
-170.033578
 30
0.0
 11
-480.986018
 21
-170.033578
 31
0.0
  0
ELLIPSE
  5
43B
100
AcDbEntity
  8
0
370
    -3
  6
Continuous
100
AcDbEllipse
 10
-480.486018
 20
-213.444044
 30
0.0
 11
-2.0
 21
0.0
 31
0.0
210
0.0
220
0.0
230
1.0
 40
0.422618
 41
0.0
 42
6.2831853071795862
  0
ELLIPSE
  5
43C
100
AcDbEntity
  8
0
370
    -3
  6
Continuous
100
AcDbEllipse
 10
-480.486018
 20
-213.444044
 30
0.0
 11
-1.6500000000000341
 21
0.0
 31
0.0
210
0.0
220
0.0
230
1.0
 40
0.422618
 41
0.0
 42
6.2831853071795862
  0
LINE
  5
43D
100
AcDbEntity
  8
0
370
    -3
  6
CENTER
100
AcDbLine
 10
-477.621158
 20
-213.444044
 30
0.0
 11
-483.232549
 21
-213.444044
 31
0.0
  0
LINE
  5
43E
100
AcDbEntity
  8
0
370
    -3
  6
CENTER
100
AcDbLine
 10
-480.486018
 20
-211.051223
 30
0.0
 11
-480.486018
 21
-215.495982
 31
0.0
  0
ARC
  5
43F
100
AcDbEntity
  8
0
370
    -3
  6
Continuous
100
AcDbCircle
 10
-491.986018
 20
-168.93996
 30
0.0
 40
1.0
100
AcDbArc
 50
13.342364
 51
90.0
  0
ARC
  5
440
100
AcDbEntity
  8
0
370
    -3
  6
Continuous
100
AcDbCircle
 10
-490.721107
 20
-168.63996
 30
0.0
 40
0.3
100
AcDbArc
 50
193.342364
 51
270.0
  0
ARC
  5
441
100
AcDbEntity
  8
0
370
    -3
  6
Continuous
100
AcDbCircle
 10
-480.486018
 20
-178.450073
 30
0.0
 40
6.0
100
AcDbArc
 50
0.0
 51
90.0
  0
LINE
  5
442
100
AcDbEntity
  8
0
370
    -3
  6
Continuous
100
AcDbLine
 10
-481.534829
 20
-172.450073
 30
0.0
 11
-480.486018
 21
-172.450073
 31
0.0
  0
ARC
  5
443
100
AcDbEntity
  8
0
370
    -3
  6
Continuous
100
AcDbCircle
 10
-487.486018
 20
-175.73996
 30
0.0
 40
6.8
100
AcDbArc
 50
0.0
 51
90.0
  0
LINE
  5
444
100
AcDbEntity
  8
0
370
    -3
  6
Continuous
100
AcDbLine
 10
-519.986018
 20
-168.93996
 30
0.0
 11
-487.486018
 21
-168.93996
 31
0.0
  0
ARC
  5
445
100
AcDbEntity
  8
0
370
    -3
  6
Continuous
100
AcDbCircle
 10
-484.486018
 20
-205.372818
 30
0.0
 40
3.8
100
AcDbArc
 50
292.977375
 51
0.0
  0
ARC
  5
446
100
AcDbEntity
  8
0
370
    -3
  6
Continuous
100
AcDbCircle
 10
-493.926984
 20
-209.375871
 30
0.0
 40
3.8
100
AcDbArc
 50
270.0
 51
292.977375
  0
LINE
  5
447
100
AcDbEntity
  8
0
370
    -3
  6
Continuous
100
AcDbLine
 10
-492.443587
 20
-212.874376
 30
0.0
 11
-483.002621
 21
-208.871322
 31
0.0
  0
LINE
  5
448
100
AcDbEntity
  8
0
370
    -3
  6
Continuous
100
AcDbLine
 10
-480.686018
 20
-175.73996
 30
0.0
 11
-480.686018
 21
-205.372818
 31
0.0
  0
LINE
  5
449
100
AcDbEntity
  8
0
370
    -3
  6
Continuous
100
AcDbLine
 10
-519.986018
 20
-213.175871
 30
0.0
 11
-493.926984
 21
-213.175871
 31
0.0
  0
LINE
  5
44A
100
AcDbEntity
  8
0
370
    -3
  6
Continuous
100
AcDbLine
 10
-519.986018
 20
-167.93996
 30
0.0
 11
-491.986018
 21
-167.93996
 31
0.0
  0
ARC
  5
44B
100
AcDbEntity
  8
0
370
    -3
  6
Continuous
100
AcDbCircle
 10
-480.986018
 20
-177.033578
 30
0.0
 40
7.0
100
AcDbArc
 50
0.0
 51
90.0
  0
LINE
  5
44C
100
AcDbEntity
  8
0
370
    -3
  6
Continuous
100
AcDbLine
 10
-488.986018
 20
-166.93996
 30
0.0
 11
-488.986018
 21
-167.93996
 31
0.0
  0
LINE
  5
44D
100
AcDbEntity
  8
0
370
    -3
  6
Continuous
100
AcDbLine
 10
-488.986018
 20
-167.93996
 30
0.0
 11
-519.986018
 21
-167.93996
 31
0.0
  0
LINE
  5
44E
100
AcDbEntity
  8
0
370
    -3
  6
Continuous
100
AcDbLine
 10
-519.986018
 20
-166.93996
 30
0.0
 11
-488.986018
 21
-166.93996
 31
0.0
  0
LINE
  5
44F
100
AcDbEntity
  8
0
370
    -3
  6
Continuous
100
AcDbLine
 10
-480.986018
 20
-219.411108
 30
0.0
 11
-519.986018
 21
-219.411108
 31
0.0
  0
LINE
  5
450
100
AcDbEntity
  8
0
370
    -3
  6
Continuous
100
AcDbLine
 10
-519.986018
 20
-214.408495
 30
0.0
 11
-480.986018
 21
-214.408495
 31
0.0
  0
LINE
  5
451
100
AcDbEntity
  8
0
370
    -3
  6
Continuous
100
AcDbLine
 10
-473.186018
 20
-211.611108
 30
0.0
 11
-473.186018
 21
-177.495483
 31
0.0
  0
ELLIPSE
  5
452
100
AcDbEntity
  8
0
370
    -3
  6
Continuous
100
AcDbEllipse
 10
-480.486018
 20
-217.525699
 30
0.0
 11
3.5
 21
0.0
 31
0.0
210
0.0
220
0.0
230
1.0
 40
0.656603
 41
4.103732018100386
 42
5.8501343317260392
  0
ARC
  5
453
100
AcDbEntity
  8
0
370
    -3
  6
Continuous
100
AcDbCircle
 10
-480.986018
 20
-211.611108
 30
0.0
 40
7.8
100
AcDbArc
 50
270.0
 51
0.0
  0
ARC
  5
454
100
AcDbEntity
  8
0
370
    -3
  6
Continuous
100
AcDbCircle
 10
-480.986018
 20
-206.94659
 30
0.0
 40
7.8
100
AcDbArc
 50
270.0
 51
0.0
  0
ARC
  5
455
100
AcDbEntity
  8
0
370
    -3
  6
Continuous
100
AcDbCircle
 10
-480.986018
 20
-207.408495
 30
0.0
 40
7.0
100
AcDbArc
 50
270.0
 51
0.0
  0
LINE
  5
456
100
AcDbEntity
  8
0
370
    -3
  6
Continuous
100
AcDbLine
 10
-473.986018
 20
-207.408495
 30
0.0
 11
-473.986018
 21
-177.033578
 31
0.0
  0
ARC
  5
457
100
AcDbEntity
  8
0
370
    -3
  6
Continuous
100
AcDbCircle
 10
-480.986018
 20
-177.495483
 30
0.0
 40
7.8
100
AcDbArc
 50
0.0
 51
90.0
  0
LINE
  5
458
100
AcDbEntity
  8
0
370
    -3
  6
CENTER
100
AcDbLine
 10
-501.341085
 20
-193.93996
 30
0.0
 11
-541.286475
 21
-193.93996
 31
0.0
  0
LINE
  5
459
100
AcDbEntity
  8
0
370
    -3
  6
Continuous
100
AcDbLine
 10
-519.986018
 20
-214.74659
 30
0.0
 11
-558.986018
 21
-214.74659
 31
0.0
  0
LINE
  5
45A
100
AcDbEntity
  8
0
370
    -3
  6
Continuous
100
AcDbLine
 10
-565.486018
 20
-178.450073
 30
0.0
 11
-565.486018
 21
-210.006571
 31
0.0
  0
LINE
  5
45B
100
AcDbEntity
  8
0
370
    -3
  6
Continuous
100
AcDbLine
 10
-558.986018
 20
-169.695483
 30
0.0
 11
-555.60119
 21
-169.695483
 31
0.0
  0
LINE
  5
45C
100
AcDbEntity
  8
0
370
    -3
  6
Continuous
100
AcDbLine
 10
-556.184288
 20
-170.033578
 30
0.0
 11
-558.986018
 21
-170.033578
 31
0.0
  0
ELLIPSE
  5
45D
100
AcDbEntity
  8
0
370
    -3
  6
Continuous
100
AcDbEllipse
 10
-559.486018
 20
-213.444044
 30
0.0
 11
2.0
 21
0.0
 31
0.0
210
0.0
220
0.0
230
1.0
 40
0.422618
 41
0.0
 42
6.2831853071795862
  0
ELLIPSE
  5
45E
100
AcDbEntity
  8
0
370
    -3
  6
Continuous
100
AcDbEllipse
 10
-559.486018
 20
-213.444044
 30
0.0
 11
1.6499999999999773
 21
0.0
 31
0.0
210
0.0
220
0.0
230
1.0
 40
0.422618
 41
0.0
 42
6.2831853071795862
  0
LINE
  5
45F
100
AcDbEntity
  8
0
370
    -3
  6
CENTER
100
AcDbLine
 10
-562.350877
 20
-213.444044
 30
0.0
 11
-556.739487
 21
-213.444044
 31
0.0
  0
LINE
  5
460
100
AcDbEntity
  8
0
370
    -3
  6
CENTER
100
AcDbLine
 10
-559.486018
 20
-211.051223
 30
0.0
 11
-559.486018
 21
-215.495982
 31
0.0
  0
ARC
  5
461
100
AcDbEntity
  8
0
370
    -3
  6
Continuous
100
AcDbCircle
 10
-547.986018
 20
-168.93996
 30
0.0
 40
1.0
100
AcDbArc
 50
90.0
 51
166.657636
  0
ARC
  5
462
100
AcDbEntity
  8
0
370
    -3
  6
Continuous
100
AcDbCircle
 10
-549.250929
 20
-168.63996
 30
0.0
 40
0.3
100
AcDbArc
 50
270.0
 51
346.657636
  0
ARC
  5
463
100
AcDbEntity
  8
0
370
    -3
  6
Continuous
100
AcDbCircle
 10
-559.486018
 20
-178.450073
 30
0.0
 40
6.0
100
AcDbArc
 50
90.0
 51
180.0
  0
LINE
  5
464
100
AcDbEntity
  8
0
370
    -3
  6
Continuous
100
AcDbLine
 10
-558.437206
 20
-172.450073
 30
0.0
 11
-559.486018
 21
-172.450073
 31
0.0
  0
ARC
  5
465
100
AcDbEntity
  8
0
370
    -3
  6
Continuous
100
AcDbCircle
 10
-552.486018
 20
-175.73996
 30
0.0
 40
6.8
100
AcDbArc
 50
90.0
 51
180.0
  0
LINE
  5
466
100
AcDbEntity
  8
0
370
    -3
  6
Continuous
100
AcDbLine
 10
-519.986018
 20
-168.93996
 30
0.0
 11
-552.486018
 21
-168.93996
 31
0.0
  0
ARC
  5
467
100
AcDbEntity
  8
0
370
    -3
  6
Continuous
100
AcDbCircle
 10
-555.486018
 20
-205.372818
 30
0.0
 40
3.8
100
AcDbArc
 50
180.0
 51
247.022625
  0
ARC
  5
468
100
AcDbEntity
  8
0
370
    -3
  6
Continuous
100
AcDbCircle
 10
-546.045051
 20
-209.375871
 30
0.0
 40
3.8
100
AcDbArc
 50
247.022625
 51
270.0
  0
LINE
  5
469
100
AcDbEntity
  8
0
370
    -3
  6
Continuous
100
AcDbLine
 10
-547.528448
 20
-212.874376
 30
0.0
 11
-556.969415
 21
-208.871322
 31
0.0
  0
LINE
  5
46A
100
AcDbEntity
  8
0
370
    -3
  6
Continuous
100
AcDbLine
 10
-559.286018
 20
-175.73996
 30
0.0
 11
-559.286018
 21
-205.372818
 31
0.0
  0
LINE
  5
46B
100
AcDbEntity
  8
0
370
    -3
  6
Continuous
100
AcDbLine
 10
-519.986018
 20
-213.175871
 30
0.0
 11
-546.045051
 21
-213.175871
 31
0.0
  0
LINE
  5
46C
100
AcDbEntity
  8
0
370
    -3
  6
Continuous
100
AcDbLine
 10
-519.986018
 20
-167.93996
 30
0.0
 11
-547.986018
 21
-167.93996
 31
0.0
  0
ARC
  5
46D
100
AcDbEntity
  8
0
370
    -3
  6
Continuous
100
AcDbCircle
 10
-558.986018
 20
-177.033578
 30
0.0
 40
7.0
100
AcDbArc
 50
90.0
 51
180.0
  0
LINE
  5
46E
100
AcDbEntity
  8
0
370
    -3
  6
Continuous
100
AcDbLine
 10
-550.986018
 20
-166.93996
 30
0.0
 11
-550.986018
 21
-167.93996
 31
0.0
  0
LINE
  5
46F
100
AcDbEntity
  8
0
370
    -3
  6
Continuous
100
AcDbLine
 10
-550.986018
 20
-167.93996
 30
0.0
 11
-519.986018
 21
-167.93996
 31
0.0
  0
LINE
  5
470
100
AcDbEntity
  8
0
370
    -3
  6
Continuous
100
AcDbLine
 10
-519.986018
 20
-166.93996
 30
0.0
 11
-550.986018
 21
-166.93996
 31
0.0
  0
LINE
  5
471
100
AcDbEntity
  8
0
370
    -3
  6
Continuous
100
AcDbLine
 10
-558.986018
 20
-219.411108
 30
0.0
 11
-519.986018
 21
-219.411108
 31
0.0
  0
LINE
  5
472
100
AcDbEntity
  8
0
370
    -3
  6
Continuous
100
AcDbLine
 10
-519.986018
 20
-214.408495
 30
0.0
 11
-558.986018
 21
-214.408495
 31
0.0
  0
LINE
  5
473
100
AcDbEntity
  8
0
370
    -3
  6
Continuous
100
AcDbLine
 10
-566.786018
 20
-211.611108
 30
0.0
 11
-566.786018
 21
-177.495483
 31
0.0
  0
ELLIPSE
  5
474
100
AcDbEntity
  8
0
370
    -3
  6
Continuous
100
AcDbEllipse
 10
-559.486018
 20
-217.525699
 30
0.0
 11
3.5
 21
0.0
 31
0.0
210
0.0
220
0.0
230
1.0
 40
0.656603
 41
3.574643629043285
 42
5.3210459426688868
  0
ARC
  5
475
100
AcDbEntity
  8
0
370
    -3
  6
Continuous
100
AcDbCircle
 10
-558.986018
 20
-211.611108
 30
0.0
 40
7.8
100
AcDbArc
 50
180.0
 51
270.0
  0
ARC
  5
476
100
AcDbEntity
  8
0
370
    -3
  6
Continuous
100
AcDbCircle
 10
-558.986018
 20
-206.94659
 30
0.0
 40
7.8
100
AcDbArc
 50
180.0
 51
270.0
  0
ARC
  5
477
100
AcDbEntity
  8
0
370
    -3
  6
Continuous
100
AcDbCircle
 10
-558.986018
 20
-207.408495
 30
0.0
 40
7.0
100
AcDbArc
 50
180.0
 51
270.0
  0
LINE
  5
478
100
AcDbEntity
  8
0
370
    -3
  6
Continuous
100
AcDbLine
 10
-565.986018
 20
-207.408495
 30
0.0
 11
-565.986018
 21
-177.033578
 31
0.0
  0
ARC
  5
479
100
AcDbEntity
  8
0
370
    -3
  6
Continuous
100
AcDbCircle
 10
-558.986018
 20
-177.495483
 30
0.0
 40
7.8
100
AcDbArc
 50
90.0
 51
180.0
  0
LINE
  5
47A
100
AcDbEntity
  8
0
370
    -3
  6
CENTER
100
AcDbLine
 10
-501.341085
 20
-193.93996
 30
0.0
 11
-541.286475
 21
-193.93996
 31
0.0
  0
LINE
  5
47B
100
AcDbEntity
  8
0
370
    -3
  6
Continuous
100
AcDbLine
 10
-490.463678
 20
-162.93996
 30
0.0
 11
-487.381274
 21
-162.93996
 31
0.0
  0
LINE
  5
47C
100
AcDbEntity
  8
0
370
    -3
  6
Continuous
100
AcDbLine
 10
-551.511861
 20
-166.93996
 30
0.0
 11
-488.460175
 21
-166.93996
 31
0.0
  0
ARC
  5
47D
100
AcDbEntity
  8
0
370
    -3
  6
Continuous
100
AcDbCircle
 10
-488.460175
 20
-165.93996
 30
0.0
 40
1.0
100
AcDbArc
 50
270.0
 51
358.5
  0
LINE
  5
47E
100
AcDbEntity
  8
0
370
    -3
  6
Continuous
100
AcDbLine
 10
-487.381274
 20
-162.93996
 30
0.0
 11
-487.460517
 21
-165.966137
 31
0.0
  0
LINE
  5
47F
100
AcDbEntity
  8
0
370
    -3
  6
Continuous
100
AcDbLine
 10
-549.508358
 20
-162.93996
 30
0.0
 11
-552.590761
 21
-162.93996
 31
0.0
  0
LINE
  5
480
100
AcDbEntity
  8
0
370
    -3
  6
Continuous
100
AcDbLine
 10
-552.590761
 20
-162.93996
 30
0.0
 11
-552.511518
 21
-165.966137
 31
0.0
  0
ARC
  5
481
100
AcDbEntity
  8
0
370
    -3
  6
Continuous
100
AcDbCircle
 10
-551.511861
 20
-165.93996
 30
0.0
 40
1.0
100
AcDbArc
 50
181.5
 51
270.0
  0
ARC
  5
482
100
AcDbEntity
  8
0
370
    -3
  6
Continuous
100
AcDbCircle
 10
-519.986018
 20
-193.93996
 30
0.0
 40
13.2205
100
AcDbArc
 50
270.0
 51
90.0
  0
ARC
  5
483
100
AcDbEntity
  8
0
370
    -3
  6
Continuous
100
AcDbCircle
 10
-519.986018
 20
-193.93996
 30
0.0
 40
12.0585
100
AcDbArc
 50
270.0
 51
90.0
  0
ARC
  5
484
100
AcDbEntity
  8
0
370
    -3
  6
Continuous
100
AcDbCircle
 10
-519.986018
 20
-193.93996
 30
0.0
 40
17.0
100
AcDbArc
 50
270.0
 51
90.0
  0
ARC
  5
485
100
AcDbEntity
  8
0
370
    -3
  6
Continuous
100
AcDbCircle
 10
-519.986018
 20
-193.93996
 30
0.0
 40
13.2205
100
AcDbArc
 50
90.0
 51
270.0
  0
ARC
  5
486
100
AcDbEntity
  8
0
370
    -3
  6
Continuous
100
AcDbCircle
 10
-519.986018
 20
-193.93996
 30
0.0
 40
12.0585
100
AcDbArc
 50
90.0
 51
270.0
  0
ARC
  5
487
100
AcDbEntity
  8
0
370
    -3
  6
Continuous
100
AcDbCircle
 10
-519.986018
 20
-193.93996
 30
0.0
 40
17.0
100
AcDbArc
 50
90.0
 51
270.0
  0
ENDSEC
  0
SECTION
  2
OBJECTS
  0
DICTIONARY
  5
19
100
AcDbDictionary
280
     0
281
     1
  3
ACAD_GROUP
350
1A
  3
ACAD_MLINESTYLE
350
1B
  3
ACAD_LAYOUT
350
1E
  3
ACAD_PLOTSETTINGS
350
22
  3
ACAD_PLOTSTYLENAME
350
1F
  3
ACAD_WIPEOUT_VARS
350
23
  3
DWGPROPS
350
488
  0
DICTIONARY
  5
1A
102
{ACAD_REACTORS
330
19
102
}
100
AcDbDictionary
280
     0
281
     1
  0
DICTIONARY
  5
1B
102
{ACAD_REACTORS
330
19
102
}
100
AcDbDictionary
280
     0
281
     1
  3
Standard
350
1C
  0
MLINESTYLE
  5
1C
102
{ACAD_REACTORS
330
1B
102
}
100
AcDbMlineStyle
  2
Standard
 70
     0
  3

 62
     0
 51
90.0
 52
90.0
 71
     2
 49
0.5
 62
   256
  6
ByLayer
 49
-0.5
 62
   256
  6
ByLayer
  0
ACDBDICTIONARYWDFLT
  5
1F
102
{ACAD_REACTORS
330
19
102
}
100
AcDbDictionary
281
     1
  3
Normal
350
1D
100
AcDbDictionaryWithDefault
340
1D
  0
ACDBPLACEHOLDER
  5
1D
102
{ACAD_REACTORS
330
1F
102
}
  0
LAYOUT
  5
20
102
{ACAD_REACTORS
330
1E
102
}
100
AcDbPlotSettings
  1

  2

  4

  6

 40
0.0
 41
0.0
 42
0.0
 43
0.0
 44
0.0
 45
0.0
 46
0.0
 47
0.0
 48
0.0
 49
0.0
140
0.0
141
0.0
142
1.0
143
1.0
 70
  1024
 72
     0
 73
     0
 74
     0
  7

 75
     0
147
1.0
148
0.0
149
0.0
100
AcDbLayout
  1
Model
 70
     0
 71
     0
 10
0.0
 20
0.0
 11
0.0
 21
0.0
 12
0.0
 22
0.0
 32
0.0
 14
0.0
 24
0.0
 34
0.0
 15
0.0
 25
0.0
 35
0.0
146
0.0
 13
0.0
 23
0.0
 33
0.0
 16
0.0
 26
0.0
 36
0.0
 17
0.0
 27
0.0
 37
0.0
 76
     0
330
A
331
0
345
0
346
0
  0
LAYOUT
  5
21
102
{ACAD_REACTORS
330
1E
102
}
100
AcDbPlotSettings
  1

  2

  4

  6

 40
0.0
 41
0.0
 42
0.0
 43
0.0
 44
0.0
 45
0.0
 46
0.0
 47
0.0
 48
0.0
 49
0.0
140
0.0
141
0.0
142
1.0
143
1.0
 70
     0
 72
     0
 73
     0
 74
     0
  7

 75
     0
147
1.0
148
0.0
149
0.0
100
AcDbLayout
  1
Layout1
 70
     0
 71
     0
 10
0.0
 20
0.0
 11
0.0
 21
0.0
 12
0.0
 22
0.0
 32
0.0
 14
0.0
 24
0.0
 34
0.0
 15
0.0
 25
0.0
 35
0.0
146
0.0
 13
0.0
 23
0.0
 33
0.0
 16
0.0
 26
0.0
 36
0.0
 17
0.0
 27
0.0
 37
0.0
 76
     0
330
B
331
0
345
0
346
0
  0
DICTIONARY
  5
1E
102
{ACAD_REACTORS
330
19
102
}
100
AcDbDictionary
280
     0
281
     1
  3
Layout1
350
21
  3
Model
350
20
  0
DICTIONARY
  5
22
102
{ACAD_REACTORS
330
19
102
}
100
AcDbDictionary
280
     0
281
     1
  0
WIPEOUTVARIABLES
  5
23
100
AcDbWipeoutVariables
 70
     1
  0
XRECORD
  5
488
100
AcDbXrecord
280
     1
  1
DWGPROPS COOKIE
  2

  3

  4

  6

  7

  8
HK96464
  9

300
=
301
=
302
=
303
=
304
=
305
=
306
=
307
=
308
=
309
=
 40
0.0
 41
2455943.847431
 42
2455943.847431
  1

 90
        0
  0
ENDSEC
  0
EOF
