  0
SECTION
  2
HEADER
  9
$ACADVER
  1
AC1015
  9
$ACADMAINTVER
 70
     6
  9
$DWGCODEPAGE
  3
ANSI_932
  9
$INSBASE
 10
0.0
 20
0.0
 30
0.0
  9
$EXTMIN
 10
1.000000E+20
 20
1.000000E+20
 30
1.000000E+20
  9
$EXTMAX
 10
-1.000000E+20
 20
-1.000000E+20
 30
-1.000000E+20
  9
$LIMMIN
 10
0.0
 20
0.0
  9
$LIMMAX
 10
0.0
 20
0.0
  9
$ORTHOMODE
 70
     0
  9
$REGENMODE
 70
     1
  9
$FILLMODE
 70
     1
  9
$QTEXTMODE
 70
     0
  9
$MIRRTEXT
 70
     1
  9
$LTSCALE
 40
1.0
  9
$ATTMODE
 70
     1
  9
$TEXTSIZE
 40
7.0
  9
$TRACEWID
 40
0.05
  9
$TEXTSTYLE
  7
Standard
  9
$CLAYER
  8
0
  9
$CELTYPE
  6
Continuous
  9
$CECOLOR
 62
   256
  9
$CELTSCALE
 40
1.0
  9
$DISPSILH
 70
     0
  9
$DIMSCALE
 40
1.0
  9
$DIMASZ
 40
1.931852
  9
$DIMEXO
 40
1.0
  9
$DIMDLI
 40
0.38
  9
$DIMRND
 40
0.0
  9
$DIMDLE
 40
0.0
  9
$DIMEXE
 40
2.0
  9
$DIMTP
 40
0.0
  9
$DIMTM
 40
0.0
  9
$DIMTXT
 40
2.8
  9
$DIMCEN
 40
0.09
  9
$DIMTSZ
 40
0.0
  9
$DIMTOL
 70
     0
  9
$DIMLIM
 70
     0
  9
$DIMTIH
 70
     1
  9
$DIMTOH
 70
     1
  9
$DIMSE1
 70
     0
  9
$DIMSE2
 70
     0
  9
$DIMTAD
 70
     1
  9
$DIMZIN
 70
     0
  9
$DIMBLK
  1

  9
$DIMASO
 70
     1
  9
$DIMSHO
 70
     1
  9
$DIMPOST
  1

  9
$DIMAPOST
  1

  9
$DIMALT
 70
     0
  9
$DIMALTD
 70
     2
  9
$DIMALTF
 40
25.4
  9
$DIMLFAC
 40
1.0
  9
$DIMTOFL
 70
     0
  9
$DIMTVP
 40
0.0
  9
$DIMTIX
 70
     0
  9
$DIMSOXD
 70
     0
  9
$DIMSAH
 70
     0
  9
$DIMBLK1
  1

  9
$DIMBLK2
  1

  9
$DIMSTYLE
  2
Standard
  9
$DIMCLRD
 70
     0
  9
$DIMCLRE
 70
     0
  9
$DIMCLRT
 70
     0
  9
$DIMTFAC
 40
0.714286
  9
$DIMGAP
 40
0.09
  9
$DIMJUST
 70
     0
  9
$DIMSD1
 70
     0
  9
$DIMSD2
 70
     0
  9
$DIMTOLJ
 70
     1
  9
$DIMTZIN
 70
     0
  9
$DIMALTZ
 70
     0
  9
$DIMALTTZ
 70
     0
  9
$DIMUPT
 70
     0
  9
$DIMDEC
 70
     4
  9
$DIMTDEC
 70
     4
  9
$DIMALTU
 70
     2
  9
$DIMALTTD
 70
     2
  9
$DIMTXSTY
  7
Standard
  9
$DIMAUNIT
 70
     0
  9
$DIMADEC
 70
     0
  9
$DIMALTRND
 40
0.0
  9
$DIMAZIN
 70
     0
  9
$DIMDSEP
 70
     0
  9
$DIMATFIT
 70
     3
  9
$DIMFRAC
 70
     0
  9
$DIMLDRBLK
  1

  9
$DIMLUNIT
 70
     2
  9
$DIMLWD
 70
     0
  9
$DIMLWE
 70
     0
  9
$DIMTMOVE
 70
     0
  9
$LUNITS
 70
     2
  9
$LUPREC
 70
     3
  9
$SKETCHINC
 40
0.1
  9
$FILLETRAD
 40
0.0
  9
$AUNITS
 70
     0
  9
$AUPREC
 70
     0
  9
$MENU
  1
acad
  9
$ELEVATION
 40
0.0
  9
$PELEVATION
 40
0.0
  9
$THICKNESS
 40
0.0
  9
$LIMCHECK
 70
     0
  9
$CHAMFERA
 40
0.0
  9
$CHAMFERB
 40
0.0
  9
$CHAMFERC
 40
0.0
  9
$CHAMFERD
 40
0.0
  9
$SKPOLY
 70
     0
  9
$TDCREATE
 40
0.000000000
  9
$TDUCREATE
 40
0.000000000
  9
$TDUPDATE
 40
0.000000000
  9
$TDUUPDATE
 40
0.000000000
  9
$TDINDWG
 40
0.0000000000
  9
$TDUSRTIMER
 40
0.0000000000
  9
$USRTIMER
 70
     1
  9
$ANGBASE
 50
0.0
  9
$ANGDIR
 70
     0
  9
$PDMODE
 70
     0
  9
$PDSIZE
 40
0.0
  9
$PLINEWID
 40
0.0
  9
$SPLFRAME
 70
     0
  9
$SPLINETYPE
 70
     6
  9
$SPLINESEGS
 70
     8
  9
$HANDSEED
  5
4A4
  9
$SURFTAB1
 70
     6
  9
$SURFTAB2
 70
     6
  9
$SURFTYPE
 70
     6
  9
$SURFU
 70
     6
  9
$SURFV
 70
     6
  9
$UCSBASE
  2

  9
$UCSNAME
  2

  9
$UCSORG
 10
0.0
 20
0.0
 30
0.0
  9
$UCSXDIR
 10
1.0
 20
0.0
 30
0.0
  9
$UCSYDIR
 10
0.0
 20
1.0
 30
0.0
  9
$UCSORTHOREF
  2

  9
$UCSORTHOVIEW
 70
     0
  9
$UCSORGTOP
 10
0.0
 20
0.0
 30
0.0
  9
$UCSORGBOTTOM
 10
0.0
 20
0.0
 30
0.0
  9
$UCSORGLEFT
 10
0.0
 20
0.0
 30
0.0
  9
$UCSORGRIGHT
 10
0.0
 20
0.0
 30
0.0
  9
$UCSORGFRONT
 10
0.0
 20
0.0
 30
0.0
  9
$UCSORGBACK
 10
0.0
 20
0.0
 30
0.0
  9
$PUCSBASE
  2

  9
$PUCSNAME
  2

  9
$PUCSORG
 10
0.0
 20
0.0
 30
0.0
  9
$PUCSXDIR
 10
1.0
 20
0.0
 30
0.0
  9
$PUCSYDIR
 10
0.0
 20
1.0
 30
0.0
  9
$PUCSORTHOREF
  2

  9
$PUCSORTHOVIEW
 70
     0
  9
$PUCSORGTOP
 10
0.0
 20
0.0
 30
0.0
  9
$PUCSORGBOTTOM
 10
0.0
 20
0.0
 30
0.0
  9
$PUCSORGLEFT
 10
0.0
 20
0.0
 30
0.0
  9
$PUCSORGRIGHT
 10
0.0
 20
0.0
 30
0.0
  9
$PUCSORGFRONT
 10
0.0
 20
0.0
 30
0.0
  9
$PUCSORGBACK
 10
0.0
 20
0.0
 30
0.0
  9
$USERI1
 70
     0
  9
$USERI2
 70
     0
  9
$USERI3
 70
     0
  9
$USERI4
 70
     0
  9
$USERI5
 70
     0
  9
$USERR1
 40
0.0
  9
$USERR2
 40
0.0
  9
$USERR3
 40
0.0
  9
$USERR4
 40
0.0
  9
$USERR5
 40
0.0
  9
$WORLDVIEW
 70
     1
  9
$SHADEDGE
 70
     3
  9
$SHADEDIF
 70
    70
  9
$TILEMODE
 70
     1
  9
$MAXACTVP
 70
    16
  9
$PINSBASE
 10
0.0
 20
0.0
 30
0.0
  9
$PLIMCHECK
 70
     0
  9
$PEXTMIN
 10
1.000000E+20
 20
1.000000E+20
 30
1.000000E+20
  9
$PEXTMAX
 10
-1.000000E+20
 20
-1.000000E+20
 30
-1.000000E+20
  9
$PLIMMIN
 10
0.0
 20
0.0
  9
$PLIMMAX
 10
12.0
 20
9.0
  9
$UNITMODE
 70
     0
  9
$VISRETAIN
 70
     0
  9
$PLINEGEN
 70
     1
  9
$PSLTSCALE
 70
     0
  9
$TREEDEPTH
 70
  3020
  9
$CMLSTYLE
  2
Standard
  9
$CMLJUST
 70
     0
  9
$CMLSCALE
 40
1.0
  9
$PROXYGRAPHICS
 70
     0
  9
$MEASUREMENT
 70
     0
  9
$CELWEIGHT
370
     0
  9
$ENDCAPS
280
     0
  9
$JOINSTYLE
280
     0
  9
$LWDISPLAY
290
     0
  9
$INSUNITS
 70
     0
  9
$HYPERLINKBASE
  1

  9
$STYLESHEET
  1

  9
$XEDIT
290
     1
  9
$CEPSNTYPE
380
     0
  9
$PSTYLEMODE
290
     1
  9
$FINGERPRINTGUID
  2

  9
$VERSIONGUID
  2

  9
$EXTNAMES
290
     1
  9
$PSVPSCALE
 40
0.0
  0
ENDSEC
  0
SECTION
  2
CLASSES
  0
CLASS
  1
LWPOLYLINE
  2
AcDbPolyline
  3
AutoCAD 2000
 90
    32768
280
     0
281
     1
  0
CLASS
  1
IMAGE
  2
AcDbRasterImage
  3
ISM
 90
    32895
280
     0
281
     1
  0
CLASS
  1
OLE2FRAME
  2
AcDbOle2Frame
  3
AutoCAD 2000
 90
    32768
280
     0
281
     1
  0
CLASS
  1
HATCH
  2
AcDbHatch
  3
AutoCAD 2000
 90
    32768
280
     0
281
     1
  0
CLASS
  1
DICTIONARYVAR
  2
AcDbDictionaryVar
  3
AutoCAD 2000
 90
    32768
280
     0
281
     0
  0
CLASS
  1
RASTERVARIABLES
  2
AcDbRasterVariables
  3
ISM
 90
    32768
280
     0
281
     0
  0
CLASS
  1
IMAGEDEF
  2
AcDbRasterImageDef
  3
ISM
 90
    32768
280
     0
281
     0
  0
CLASS
  1
IMAGEDEF_REACTOR
  2
AcDbRasterImageDefReactor
  3
ISM
 90
    32769
280
     0
281
     0
  0
CLASS
  1
IDBUFFER
  2
AcDbIdBuffer
  3
AutoCAD 2000
 90
    32768
280
     0
281
     0
  0
CLASS
  1
SPATIAL_FILTER
  2
AcDbSpatialFilter
  3
AutoCAD 2000
 90
    32768
280
     0
281
     0
  0
CLASS
  1
XRECORD
  2
AcDbXrecord
  3
AutoCAD 2000
 90
        0
280
     0
281
     0
  0
CLASS
  1
SORTENTSTABLE
  2
AcDbSortentsTable
  3
AutoCAD 2000
 90
    32768
280
     0
281
     0
  0
CLASS
  1
LAYER_INDEX
  2
AcDbLayerIndex
  3
AutoCAD 2000
 90
    32768
280
     0
281
     0
  0
CLASS
  1
SPATIAL_INDEX
  2
AcDbSpatialIndex
  3
AutoCAD 2000
 90
    32768
280
     0
281
     0
  0
CLASS
  1
OBJECT_PTR
  2
CAseDLPNTableRecord
  3
"ASE-LPNTableRecord"
 90
    32769
280
     0
281
     0
  0
CLASS
  1
LAYOUT
  2
AcDbLayout
  3
AutoCAD 2000
 90
        0
280
     0
281
     0
  0
CLASS
  1
PLOTSETTINGS
  2
AcDbPlotSettings
  3
AutoCAD 2000
 90
    32768
280
     0
281
     0
  0
CLASS
  1
ACDBDICTIONARYWDFLT
  2
AcDbDictionaryWithDefault
  3
AutoCAD 2000
 90
        0
280
     0
281
     0
  0
CLASS
  1
ACDBPLACEHOLDER
  2
AcDbPlaceHolder
  3
AutoCAD 2000
 90
        0
280
     0
281
     0
  0
CLASS
  1
VBA_PROJECT
  2
AcDbVbaProject
  3
acadvba
 90
    32768
280
     0
281
     0
  0
CLASS
  1
WIPEOUT
  2
AcDbWipeout
  3
WipeOut|AutoCAD Express Tool|expresstools@autodesk.com
 90
    32895
280
     0
281
     1
  0
CLASS
  1
WIPEOUTVARIABLES
  2
AcDbWipeoutVariables
  3
WipeOut|AutoCAD Express Tool|expresstools@autodesk.com
 90
        0
280
     0
281
     0
  0
CLASS
  1
RTEXT
  2
RText
  3
RText|AutoCAD Express Tool|expresstools@autodesk.com
 90
    32768
280
     0
281
     1
  0
CLASS
  1
ARCALIGNEDTEXT
  2
AcDbArcAlignedText
  3
ATEXT|AutoCAD Express Tool|expresstools@autodesk.com
 90
    32768
280
     0
281
     1
  0
ENDSEC
  0
SECTION
  2
TABLES
  0
TABLE
  2
VPORT
  5
7
100
AcDbSymbolTable
 70
     1
  0
VPORT
  5
15
100
AcDbSymbolTableRecord
100
AcDbViewportTableRecord
  2
*ACTIVE
 70
     0
 10
0.0
 20
0.0
 11
1.0
 21
1.0
 12
0.0
 22
0.0
 13
0.0
 23
0.0
 14
1.0
 24
1.0
 15
0.0
 25
0.0
 16
0.0
 26
0.0
 36
1.0
 17
0.0
 27
0.0
 37
0.0
 40
100.0
 41
1.0
 42
50.0
 43
0.0
 44
0.0
 50
0.0
 51
0.0
 71
     0
 72
   100
 73
     1
 74
     1
 75
     0
 76
     0
 77
     0
 78
     0
281
     0
 65
     0
110
0.0
120
0.0
130
0.0
111
1.0
121
0.0
131
0.0
112
0.0
122
1.0
132
0.0
345
0
346
0
 79
     0
146
0.0
  0
ENDTAB
  0
TABLE
  2
LTYPE
  5
4
100
AcDbSymbolTable
 70
     7
  0
LTYPE
  5
11
100
AcDbSymbolTableRecord
100
AcDbLinetypeTableRecord
  2
ByBlock
 70
    64
  3

 72
    65
 73
     0
 40
0.0
  0
LTYPE
  5
12
100
AcDbSymbolTableRecord
100
AcDbLinetypeTableRecord
  2
ByLayer
 70
    64
  3

 72
    65
 73
     0
 40
0.0
  0
LTYPE
  5
13
100
AcDbSymbolTableRecord
100
AcDbLinetypeTableRecord
  2
Continuous
 70
    64
  3
Solid line
 72
    65
 73
     0
 40
0.0
  0
LTYPE
  5
24
100
AcDbSymbolTableRecord
100
AcDbLinetypeTableRecord
  2
DASHED
 70
    64
  3
Dashed __ __ __ __ __ __ __ __ __ __ __ __ __ _
 72
    65
 73
     2
 40
0.75
 49
0.5
 74
     0
 49
-0.25
 74
     0
  0
LTYPE
  5
25
100
AcDbSymbolTableRecord
100
AcDbLinetypeTableRecord
  2
CENTER
 70
    64
  3
Center ____ _ ____ _ ____ _ ____ _ ____ _ ____
 72
    65
 73
     4
 40
1.0
 49
0.5
 74
     0
 49
-0.25
 74
     0
 49
0.0
 74
     0
 49
-0.25
 74
     0
  0
LTYPE
  5
26
100
AcDbSymbolTableRecord
100
AcDbLinetypeTableRecord
  2
DIVIDE
 70
    64
  3
Divide ____ . . ____ . . ____ . . ____ . . ____
 72
    65
 73
     6
 40
1.25
 49
0.5
 74
     0
 49
-0.25
 74
     0
 49
0.0
 74
     0
 49
-0.25
 74
     0
 49
0.0
 74
     0
 49
-0.25
 74
     0
  0
LTYPE
  5
27
100
AcDbSymbolTableRecord
100
AcDbLinetypeTableRecord
  2
PHANTOM
 70
    64
  3
Phantom ______  __  __  ______  __  __  ______
 72
    65
 73
     6
 40
9.0
 49
4.3
 74
     0
 49
-0.7
 74
     0
 49
1.3
 74
     0
 49
-0.7
 74
     0
 49
1.3
 74
     0
 49
-0.7
 74
     0
  0
ENDTAB
  0
TABLE
  2
LAYER
  5
2
100
AcDbSymbolTable
 70
     3
  0
LAYER
  5
14
100
AcDbSymbolTableRecord
100
AcDbLayerTableRecord
  2
0
 70
    64
 62
    53
  6
Continuous
290
     1
370
    -3
390
1D
  0
LAYER
  5
28
100
AcDbSymbolTableRecord
100
AcDbLayerTableRecord
  2
3
 70
    64
 62
     4
  6
Continuous
290
     1
370
    -3
390
1D
  0
LAYER
  5
29
100
AcDbSymbolTableRecord
100
AcDbLayerTableRecord
  2
5
 70
    64
 62
   191
  6
Continuous
290
     1
370
    -3
390
1D
  0
ENDTAB
  0
TABLE
  2
STYLE
  5
3
100
AcDbSymbolTable
 70
     2
  0
STYLE
  5
17
100
AcDbSymbolTableRecord
100
AcDbTextStyleTableRecord
  2
Standard
 70
     0
 40
0.0
 41
1.0
 50
0.0
 71
     0
 42
0.0
  3
txt
  4

  0
STYLE
  5
99
100
AcDbSymbolTableRecord
100
AcDbTextStyleTableRecord
  2
ZU_SHPTB00001
 70
     0
 40
0.0
 41
1.0
 50
0.0
 71
     0
 42
0.0
  3
monotxt
  4
bigfont
  0
ENDTAB
  0
TABLE
  2
VIEW
  5
5
100
AcDbSymbolTable
 70
     0
  0
ENDTAB
  0
TABLE
  2
UCS
  5
6
100
AcDbSymbolTable
 70
     0
  0
ENDTAB
  0
TABLE
  2
APPID
  5
8
100
AcDbSymbolTable
 70
     1
  0
APPID
  5
16
100
AcDbSymbolTableRecord
100
AcDbRegAppTableRecord
  2
ACAD
 70
     0
  0
ENDTAB
  0
TABLE
  2
DIMSTYLE
  5
9
100
AcDbSymbolTable
 70
     1
100
AcDbDimStyleTable
 71
     0
  0
DIMSTYLE
105
18
100
AcDbSymbolTableRecord
100
AcDbDimStyleTableRecord
  2
Standard
 70
     0
  3

  4

 40
1.0
 41
0.18
 42
0.0625
 43
0.38
 44
0.18
 45
0.0
 46
0.0
 47
0.0
 48
0.0
 71
     0
 72
     0
 73
     1
 74
     1
 75
     0
 76
     0
 77
     0
 78
     0
 79
     0
140
0.18
141
0.09
142
0.0
143
25.4
144
1.0
145
0.0
146
1.0
147
0.09
148
0.0
170
     0
171
     2
172
     0
173
     0
174
     0
175
     0
176
     0
177
     0
178
     0
179
     0
271
     4
272
     4
273
     2
274
     2
275
     0
276
     0
277
     2
278
    46
279
     0
280
     0
281
     0
282
     0
283
     1
284
     0
285
     0
286
     0
288
     0
340
17
341
0
342
0
343
0
344
0
371
    -2
372
    -2
  0
ENDTAB
  0
TABLE
  2
BLOCK_RECORD
  5
1
100
AcDbSymbolTable
 70
     7
  0
BLOCK_RECORD
  5
A
100
AcDbSymbolTableRecord
100
AcDbBlockTableRecord
  2
*MODEL_SPACE
340
20
  0
BLOCK_RECORD
  5
B
100
AcDbSymbolTableRecord
100
AcDbBlockTableRecord
  2
*PAPER_SPACE
340
21
  0
BLOCK_RECORD
  5
D6
100
AcDbSymbolTableRecord
100
AcDbBlockTableRecord
  2
ZU_SYM__USERS_HOME_SYMBOL_POO_SYM_B20_-1
340
0
102
{BLKREFS
331
E1
102
}
  0
BLOCK_RECORD
  5
153
100
AcDbSymbolTableRecord
100
AcDbBlockTableRecord
  2
ZU_SYM__USERS_HOME_SYMBOL_POO_SYM_S07_-1
340
0
102
{BLKREFS
331
15E
102
}
  0
BLOCK_RECORD
  5
15F
100
AcDbSymbolTableRecord
100
AcDbBlockTableRecord
  2
ZU_SYM__USERS_HOME_SYMBOL_POO_SYM_S07_00001-1
340
0
102
{BLKREFS
331
16A
102
}
  0
BLOCK_RECORD
  5
16B
100
AcDbSymbolTableRecord
100
AcDbBlockTableRecord
  2
ZU_SYM__USERS_HOME_SYMBOL_POO_SYM_S07_00002-1
340
0
102
{BLKREFS
331
176
102
}
  0
BLOCK_RECORD
  5
177
100
AcDbSymbolTableRecord
100
AcDbBlockTableRecord
  2
ZU_SYM__USERS_HOME_SYMBOL_POO_SYM_S07_00003-1
340
0
102
{BLKREFS
331
182
102
}
  0
BLOCK_RECORD
  5
33D
100
AcDbSymbolTableRecord
100
AcDbBlockTableRecord
  2
ZU_SYM__USERS_HOME_SYMBOL_POO_SYM_B20_00004-1
340
0
102
{BLKREFS
331
348
102
}
  0
BLOCK_RECORD
  5
349
100
AcDbSymbolTableRecord
100
AcDbBlockTableRecord
  2
ZU_SYM__USERS_HOME_SYMBOL_POO_SYM_B20_00005-1
340
0
102
{BLKREFS
331
354
102
}
  0
ENDTAB
  0
ENDSEC
  0
SECTION
  2
BLOCKS
  0
BLOCK
  5
D
100
AcDbEntity
  8
0
100
AcDbBlockBegin
  2
*MODEL_SPACE
 70
     0
 10
0.0
 20
0.0
 30
0.0
  3
*MODEL_SPACE
  1

  0
ENDBLK
  5
E
100
AcDbEntity
  8
0
100
AcDbBlockEnd
  0
BLOCK
  5
F
100
AcDbEntity
 67
     1
  8
0
100
AcDbBlockBegin
  2
*PAPER_SPACE
 70
     0
 10
0.0
 20
0.0
 30
0.0
  3
*PAPER_SPACE
  1

  0
ENDBLK
  5
10
100
AcDbEntity
 67
     1
  8
0
100
AcDbBlockEnd
  0
BLOCK
  5
D7
100
AcDbEntity
  8
0
100
AcDbBlockBegin
  2
ZU_SYM__USERS_HOME_SYMBOL_POO_SYM_B20_-1
 70
    64
 10
0.0
 20
0.0
 30
0.0
  3
ZU_SYM__USERS_HOME_SYMBOL_POO_SYM_B20_-1
  1

  0
POINT
  5
D8
100
AcDbEntity
  8
0
370
    -3
  6
Continuous
100
AcDbPoint
 10
0.0
 20
0.0
 30
0.0
  0
LINE
  5
D9
100
AcDbEntity
  8
0
370
    -3
  6
Continuous
100
AcDbLine
 10
0.0
 20
-6.5
 30
0.0
 11
0.0
 21
6.5
 31
0.0
  0
LINE
  5
DA
100
AcDbEntity
  8
0
370
    -3
  6
Continuous
100
AcDbLine
 10
-7.999999
 20
5.633876
 30
0.0
 11
-7.999999
 21
-5.63407
 31
0.0
  0
LINE
  5
DB
100
AcDbEntity
  8
0
370
    -3
  6
Continuous
100
AcDbLine
 10
0.0
 20
6.5
 30
0.0
 11
-7.499999
 21
6.5
 31
0.0
  0
LINE
  5
DC
100
AcDbEntity
  8
0
370
    -3
  6
Continuous
100
AcDbLine
 10
0.0
 20
-6.5
 30
0.0
 11
-7.499998
 21
-6.5
 31
0.0
  0
LINE
  5
DD
100
AcDbEntity
  8
0
370
    -3
  6
Continuous
100
AcDbLine
 10
-7.499999
 20
6.5
 30
0.0
 11
-7.999999
 21
5.633876
 31
0.0
  0
LINE
  5
DE
100
AcDbEntity
  8
0
370
    -3
  6
Continuous
100
AcDbLine
 10
-7.499998
 20
-6.499999
 30
0.0
 11
-7.999999
 21
-5.63407
 31
0.0
  0
LINE
  5
DF
100
AcDbEntity
  8
0
370
    -3
  6
Continuous
100
AcDbLine
 10
-7.499999
 20
6.5
 30
0.0
 11
-7.499999
 21
-6.5
 31
0.0
  0
ENDBLK
  5
E0
100
AcDbEntity
  8
0
100
AcDbBlockEnd
  0
BLOCK
  5
154
100
AcDbEntity
  8
0
100
AcDbBlockBegin
  2
ZU_SYM__USERS_HOME_SYMBOL_POO_SYM_S07_-1
 70
    64
 10
0.0
 20
0.0
 30
0.0
  3
ZU_SYM__USERS_HOME_SYMBOL_POO_SYM_S07_-1
  1

  0
ARC
  5
155
100
AcDbEntity
  8
0
370
    -3
  6
Continuous
100
AcDbCircle
 10
-0.979025
 20
-2.200001
 30
0.0
 40
1.299999
100
AcDbArc
 50
196.601531
 51
270.0
  0
ARC
  5
156
100
AcDbEntity
  8
0
370
    -3
  6
Continuous
100
AcDbCircle
 10
-0.979025
 20
2.200001
 30
0.0
 40
1.299999
100
AcDbArc
 50
90.0
 51
163.398452
  0
LINE
  5
157
100
AcDbEntity
  8
0
370
    -3
  6
Continuous
100
AcDbLine
 10
0.0
 20
-3.5
 30
0.0
 11
-0.979025
 21
-3.5
 31
0.0
  0
LINE
  5
158
100
AcDbEntity
  8
0
370
    -3
  6
Continuous
100
AcDbLine
 10
0.0
 20
3.5
 30
0.0
 11
-0.979025
 21
3.5
 31
0.0
  0
LINE
  5
159
100
AcDbEntity
  8
0
370
    -3
  6
Continuous
100
AcDbLine
 10
0.0
 20
-3.5
 30
0.0
 11
0.0
 21
3.5
 31
0.0
  0
LINE
  5
15A
100
AcDbEntity
  8
0
370
    -3
  6
Continuous
100
AcDbLine
 10
0.0
 20
-3.5
 30
0.0
 11
0.0
 21
3.5
 31
0.0
  0
POINT
  5
15B
100
AcDbEntity
  8
0
370
    -3
  6
Continuous
100
AcDbPoint
 10
0.0
 20
0.0
 30
0.0
  0
ARC
  5
15C
100
AcDbEntity
  8
0
370
    -3
  6
Continuous
100
AcDbCircle
 10
6.4
 20
0.0
 30
0.0
 40
9.0
100
AcDbArc
 50
163.398452
 51
196.601531
  0
ENDBLK
  5
15D
100
AcDbEntity
  8
0
100
AcDbBlockEnd
  0
BLOCK
  5
160
100
AcDbEntity
  8
0
100
AcDbBlockBegin
  2
ZU_SYM__USERS_HOME_SYMBOL_POO_SYM_S07_00001-1
 70
    64
 10
0.0
 20
0.0
 30
0.0
  3
ZU_SYM__USERS_HOME_SYMBOL_POO_SYM_S07_00001-1
  1

  0
ARC
  5
161
100
AcDbEntity
  8
0
370
    -3
  6
Continuous
100
AcDbCircle
 10
-0.979025
 20
-2.200001
 30
0.0
 40
1.299999
100
AcDbArc
 50
196.601531
 51
270.0
  0
ARC
  5
162
100
AcDbEntity
  8
0
370
    -3
  6
Continuous
100
AcDbCircle
 10
-0.979025
 20
2.200001
 30
0.0
 40
1.299999
100
AcDbArc
 50
90.0
 51
163.398452
  0
LINE
  5
163
100
AcDbEntity
  8
0
370
    -3
  6
Continuous
100
AcDbLine
 10
0.0
 20
-3.5
 30
0.0
 11
-0.979025
 21
-3.5
 31
0.0
  0
LINE
  5
164
100
AcDbEntity
  8
0
370
    -3
  6
Continuous
100
AcDbLine
 10
0.0
 20
3.5
 30
0.0
 11
-0.979025
 21
3.5
 31
0.0
  0
LINE
  5
165
100
AcDbEntity
  8
0
370
    -3
  6
Continuous
100
AcDbLine
 10
0.0
 20
-3.5
 30
0.0
 11
0.0
 21
3.5
 31
0.0
  0
LINE
  5
166
100
AcDbEntity
  8
0
370
    -3
  6
Continuous
100
AcDbLine
 10
0.0
 20
-3.5
 30
0.0
 11
0.0
 21
3.5
 31
0.0
  0
POINT
  5
167
100
AcDbEntity
  8
0
370
    -3
  6
Continuous
100
AcDbPoint
 10
0.0
 20
0.0
 30
0.0
  0
ARC
  5
168
100
AcDbEntity
  8
0
370
    -3
  6
Continuous
100
AcDbCircle
 10
6.4
 20
0.0
 30
0.0
 40
9.0
100
AcDbArc
 50
163.398452
 51
196.601531
  0
ENDBLK
  5
169
100
AcDbEntity
  8
0
100
AcDbBlockEnd
  0
BLOCK
  5
16C
100
AcDbEntity
  8
0
100
AcDbBlockBegin
  2
ZU_SYM__USERS_HOME_SYMBOL_POO_SYM_S07_00002-1
 70
    64
 10
0.0
 20
0.0
 30
0.0
  3
ZU_SYM__USERS_HOME_SYMBOL_POO_SYM_S07_00002-1
  1

  0
ARC
  5
16D
100
AcDbEntity
  8
0
370
    -3
  6
Continuous
100
AcDbCircle
 10
-0.979025
 20
-2.200001
 30
0.0
 40
1.299999
100
AcDbArc
 50
196.601531
 51
270.0
  0
ARC
  5
16E
100
AcDbEntity
  8
0
370
    -3
  6
Continuous
100
AcDbCircle
 10
-0.979025
 20
2.200001
 30
0.0
 40
1.299999
100
AcDbArc
 50
90.0
 51
163.398452
  0
LINE
  5
16F
100
AcDbEntity
  8
0
370
    -3
  6
Continuous
100
AcDbLine
 10
0.0
 20
-3.5
 30
0.0
 11
-0.979025
 21
-3.5
 31
0.0
  0
LINE
  5
170
100
AcDbEntity
  8
0
370
    -3
  6
Continuous
100
AcDbLine
 10
0.0
 20
3.5
 30
0.0
 11
-0.979025
 21
3.5
 31
0.0
  0
LINE
  5
171
100
AcDbEntity
  8
0
370
    -3
  6
Continuous
100
AcDbLine
 10
0.0
 20
-3.5
 30
0.0
 11
0.0
 21
3.5
 31
0.0
  0
LINE
  5
172
100
AcDbEntity
  8
0
370
    -3
  6
Continuous
100
AcDbLine
 10
0.0
 20
-3.5
 30
0.0
 11
0.0
 21
3.5
 31
0.0
  0
POINT
  5
173
100
AcDbEntity
  8
0
370
    -3
  6
Continuous
100
AcDbPoint
 10
0.0
 20
0.0
 30
0.0
  0
ARC
  5
174
100
AcDbEntity
  8
0
370
    -3
  6
Continuous
100
AcDbCircle
 10
6.4
 20
0.0
 30
0.0
 40
9.0
100
AcDbArc
 50
163.398452
 51
196.601531
  0
ENDBLK
  5
175
100
AcDbEntity
  8
0
100
AcDbBlockEnd
  0
BLOCK
  5
178
100
AcDbEntity
  8
0
100
AcDbBlockBegin
  2
ZU_SYM__USERS_HOME_SYMBOL_POO_SYM_S07_00003-1
 70
    64
 10
0.0
 20
0.0
 30
0.0
  3
ZU_SYM__USERS_HOME_SYMBOL_POO_SYM_S07_00003-1
  1

  0
ARC
  5
179
100
AcDbEntity
  8
0
370
    -3
  6
Continuous
100
AcDbCircle
 10
-0.979025
 20
-2.200001
 30
0.0
 40
1.299999
100
AcDbArc
 50
196.601531
 51
270.0
  0
ARC
  5
17A
100
AcDbEntity
  8
0
370
    -3
  6
Continuous
100
AcDbCircle
 10
-0.979025
 20
2.200001
 30
0.0
 40
1.299999
100
AcDbArc
 50
90.0
 51
163.398452
  0
LINE
  5
17B
100
AcDbEntity
  8
0
370
    -3
  6
Continuous
100
AcDbLine
 10
0.0
 20
-3.5
 30
0.0
 11
-0.979025
 21
-3.5
 31
0.0
  0
LINE
  5
17C
100
AcDbEntity
  8
0
370
    -3
  6
Continuous
100
AcDbLine
 10
0.0
 20
3.5
 30
0.0
 11
-0.979025
 21
3.5
 31
0.0
  0
LINE
  5
17D
100
AcDbEntity
  8
0
370
    -3
  6
Continuous
100
AcDbLine
 10
0.0
 20
-3.5
 30
0.0
 11
0.0
 21
3.5
 31
0.0
  0
LINE
  5
17E
100
AcDbEntity
  8
0
370
    -3
  6
Continuous
100
AcDbLine
 10
0.0
 20
-3.5
 30
0.0
 11
0.0
 21
3.5
 31
0.0
  0
POINT
  5
17F
100
AcDbEntity
  8
0
370
    -3
  6
Continuous
100
AcDbPoint
 10
0.0
 20
0.0
 30
0.0
  0
ARC
  5
180
100
AcDbEntity
  8
0
370
    -3
  6
Continuous
100
AcDbCircle
 10
6.4
 20
0.0
 30
0.0
 40
9.0
100
AcDbArc
 50
163.398452
 51
196.601531
  0
ENDBLK
  5
181
100
AcDbEntity
  8
0
100
AcDbBlockEnd
  0
BLOCK
  5
33E
100
AcDbEntity
  8
0
100
AcDbBlockBegin
  2
ZU_SYM__USERS_HOME_SYMBOL_POO_SYM_B20_00004-1
 70
    64
 10
0.0
 20
0.0
 30
0.0
  3
ZU_SYM__USERS_HOME_SYMBOL_POO_SYM_B20_00004-1
  1

  0
POINT
  5
33F
100
AcDbEntity
  8
0
370
    -3
  6
Continuous
100
AcDbPoint
 10
0.0
 20
0.0
 30
0.0
  0
LINE
  5
340
100
AcDbEntity
  8
0
370
    -3
  6
Continuous
100
AcDbLine
 10
0.0
 20
-6.5
 30
0.0
 11
0.0
 21
6.5
 31
0.0
  0
LINE
  5
341
100
AcDbEntity
  8
0
370
    -3
  6
Continuous
100
AcDbLine
 10
-7.999999
 20
5.633876
 30
0.0
 11
-7.999999
 21
-5.63407
 31
0.0
  0
LINE
  5
342
100
AcDbEntity
  8
0
370
    -3
  6
Continuous
100
AcDbLine
 10
0.0
 20
6.5
 30
0.0
 11
-7.499999
 21
6.5
 31
0.0
  0
LINE
  5
343
100
AcDbEntity
  8
0
370
    -3
  6
Continuous
100
AcDbLine
 10
0.0
 20
-6.5
 30
0.0
 11
-7.499998
 21
-6.5
 31
0.0
  0
LINE
  5
344
100
AcDbEntity
  8
0
370
    -3
  6
Continuous
100
AcDbLine
 10
-7.499999
 20
6.5
 30
0.0
 11
-7.999999
 21
5.633876
 31
0.0
  0
LINE
  5
345
100
AcDbEntity
  8
0
370
    -3
  6
Continuous
100
AcDbLine
 10
-7.499998
 20
-6.499999
 30
0.0
 11
-7.999999
 21
-5.63407
 31
0.0
  0
LINE
  5
346
100
AcDbEntity
  8
0
370
    -3
  6
Continuous
100
AcDbLine
 10
-7.499999
 20
6.5
 30
0.0
 11
-7.499999
 21
-6.5
 31
0.0
  0
ENDBLK
  5
347
100
AcDbEntity
  8
0
100
AcDbBlockEnd
  0
BLOCK
  5
34A
100
AcDbEntity
  8
0
100
AcDbBlockBegin
  2
ZU_SYM__USERS_HOME_SYMBOL_POO_SYM_B20_00005-1
 70
    64
 10
0.0
 20
0.0
 30
0.0
  3
ZU_SYM__USERS_HOME_SYMBOL_POO_SYM_B20_00005-1
  1

  0
POINT
  5
34B
100
AcDbEntity
  8
0
370
    -3
  6
Continuous
100
AcDbPoint
 10
0.0
 20
0.0
 30
0.0
  0
LINE
  5
34C
100
AcDbEntity
  8
0
370
    -3
  6
Continuous
100
AcDbLine
 10
0.0
 20
-6.5
 30
0.0
 11
0.0
 21
6.5
 31
0.0
  0
LINE
  5
34D
100
AcDbEntity
  8
0
370
    -3
  6
Continuous
100
AcDbLine
 10
-7.999999
 20
5.633876
 30
0.0
 11
-7.999999
 21
-5.63407
 31
0.0
  0
LINE
  5
34E
100
AcDbEntity
  8
0
370
    -3
  6
Continuous
100
AcDbLine
 10
0.0
 20
6.5
 30
0.0
 11
-7.499999
 21
6.5
 31
0.0
  0
LINE
  5
34F
100
AcDbEntity
  8
0
370
    -3
  6
Continuous
100
AcDbLine
 10
0.0
 20
-6.5
 30
0.0
 11
-7.499998
 21
-6.5
 31
0.0
  0
LINE
  5
350
100
AcDbEntity
  8
0
370
    -3
  6
Continuous
100
AcDbLine
 10
-7.499999
 20
6.5
 30
0.0
 11
-7.999999
 21
5.633876
 31
0.0
  0
LINE
  5
351
100
AcDbEntity
  8
0
370
    -3
  6
Continuous
100
AcDbLine
 10
-7.499998
 20
-6.499999
 30
0.0
 11
-7.999999
 21
-5.63407
 31
0.0
  0
LINE
  5
352
100
AcDbEntity
  8
0
370
    -3
  6
Continuous
100
AcDbLine
 10
-7.499999
 20
6.5
 30
0.0
 11
-7.499999
 21
-6.5
 31
0.0
  0
ENDBLK
  5
353
100
AcDbEntity
  8
0
100
AcDbBlockEnd
  0
ENDSEC
  0
SECTION
  2
ENTITIES
  0
LINE
  5
2A
100
AcDbEntity
  8
0
370
    -3
  6
Continuous
100
AcDbLine
 10
-695.868501
 20
19.806963
 30
0.0
 11
-694.136456
 21
16.806958
 31
0.0
  0
LINE
  5
2B
100
AcDbEntity
  8
0
370
    -3
  6
Continuous
100
AcDbLine
 10
-690.672353
 20
22.806954
 30
0.0
 11
-688.940306
 21
19.806951
 31
0.0
  0
LINE
  5
2C
100
AcDbEntity
  8
0
370
    -3
  6
Continuous
100
AcDbLine
 10
-690.672358
 20
16.806959
 30
0.0
 11
-694.136456
 21
16.806958
 31
0.0
  0
LINE
  5
2D
100
AcDbEntity
  8
0
370
    -3
  6
Continuous
100
AcDbLine
 10
-688.940306
 20
19.806951
 30
0.0
 11
-690.672358
 21
16.806958
 31
0.0
  0
LINE
  5
2E
100
AcDbEntity
  8
0
370
    -3
  6
Continuous
100
AcDbLine
 10
-716.868501
 20
19.806963
 30
0.0
 11
-715.136456
 21
16.806958
 31
0.0
  0
LINE
  5
2F
100
AcDbEntity
  8
0
370
    -3
  6
Continuous
100
AcDbLine
 10
-711.672353
 20
22.806954
 30
0.0
 11
-709.940306
 21
19.806951
 31
0.0
  0
LINE
  5
30
100
AcDbEntity
  8
0
370
    -3
  6
Continuous
100
AcDbLine
 10
-711.672358
 20
16.806959
 30
0.0
 11
-715.136456
 21
16.806958
 31
0.0
  0
LINE
  5
31
100
AcDbEntity
  8
0
370
    -3
  6
Continuous
100
AcDbLine
 10
-709.940306
 20
19.806951
 30
0.0
 11
-711.672358
 21
16.806958
 31
0.0
  0
CIRCLE
  5
32
100
AcDbEntity
  8
0
370
    -3
  6
Continuous
100
AcDbCircle
 10
-692.404404
 20
19.806956
 30
0.0
 40
5.633955
  0
LINE
  5
33
100
AcDbEntity
  8
0
370
    -3
  6
Continuous
100
AcDbLine
 10
-694.136451
 20
22.806953
 30
0.0
 11
-690.672353
 21
22.806953
 31
0.0
  0
LINE
  5
34
100
AcDbEntity
  8
0
370
    -3
  6
Continuous
100
AcDbLine
 10
-695.868501
 20
19.806962
 30
0.0
 11
-694.136451
 21
22.806953
 31
0.0
  0
CIRCLE
  5
35
100
AcDbEntity
  8
0
370
    -3
  6
Continuous
100
AcDbCircle
 10
-692.404404
 20
19.806956
 30
0.0
 40
6.5
  0
CIRCLE
  5
36
100
AcDbEntity
  8
0
370
    -3
  6
Continuous
100
AcDbCircle
 10
-713.404404
 20
19.806956
 30
0.0
 40
5.633955
  0
CIRCLE
  5
37
100
AcDbEntity
  8
0
370
    -3
  6
Continuous
100
AcDbCircle
 10
-713.404404
 20
19.806956
 30
0.0
 40
6.5
  0
LINE
  5
38
100
AcDbEntity
  8
0
370
    -3
  6
Continuous
100
AcDbLine
 10
-715.136451
 20
22.806953
 30
0.0
 11
-711.672353
 21
22.806953
 31
0.0
  0
LINE
  5
39
100
AcDbEntity
  8
0
370
    -3
  6
Continuous
100
AcDbLine
 10
-716.868501
 20
19.806962
 30
0.0
 11
-715.136451
 21
22.806953
 31
0.0
  0
LINE
  5
3A
100
AcDbEntity
  8
0
370
    -3
  6
CENTER
100
AcDbLine
 10
-54.904155
 20
50.437757
 30
0.0
 11
-54.904155
 21
-219.853059
 31
0.0
  0
CIRCLE
  5
3B
100
AcDbEntity
  8
0
370
    -3
  6
Continuous
100
AcDbCircle
 10
28.095845
 20
-189.193096
 30
0.0
 40
8.647
  0
CIRCLE
  5
3C
100
AcDbEntity
  8
0
370
    -3
  6
Continuous
100
AcDbCircle
 10
28.095845
 20
-189.193096
 30
0.0
 40
10.0
  0
CIRCLE
  5
3D
100
AcDbEntity
  8
0
370
    -3
  6
Continuous
100
AcDbCircle
 10
28.095845
 20
22.806904
 30
0.0
 40
8.647
  0
CIRCLE
  5
3E
100
AcDbEntity
  8
0
370
    -3
  6
Continuous
100
AcDbCircle
 10
28.095845
 20
22.806904
 30
0.0
 40
10.0
  0
LINE
  5
3F
100
AcDbEntity
  8
0
370
    -3
  6
Continuous
100
AcDbLine
 10
51.095845
 20
30.806904
 30
0.0
 11
51.095845
 21
-197.193096
 31
0.0
  0
ARC
  5
40
100
AcDbEntity
  8
0
370
    -3
  6
Continuous
100
AcDbCircle
 10
36.095845
 20
-197.193096
 30
0.0
 40
15.0
100
AcDbArc
 50
270.0
 51
0.0
  0
LINE
  5
41
100
AcDbEntity
  8
0
370
    -3
  6
Continuous
100
AcDbLine
 10
47.095845
 20
30.806904
 30
0.0
 11
47.095845
 21
-197.193096
 31
0.0
  0
ARC
  5
42
100
AcDbEntity
  8
0
370
    -3
  6
Continuous
100
AcDbCircle
 10
36.095845
 20
30.806904
 30
0.0
 40
11.0
100
AcDbArc
 50
0.0
 51
90.0
  0
ARC
  5
43
100
AcDbEntity
  8
0
370
    -3
  6
Continuous
100
AcDbCircle
 10
36.095845
 20
30.806904
 30
0.0
 40
15.0
100
AcDbArc
 50
0.0
 51
90.0
  0
ARC
  5
44
100
AcDbEntity
  8
0
370
    -3
  6
Continuous
100
AcDbCircle
 10
36.095845
 20
-197.193096
 30
0.0
 40
11.0
100
AcDbArc
 50
270.0
 51
0.0
  0
LINE
  5
45
100
AcDbEntity
  8
0
370
    -3
  6
CENTER
100
AcDbLine
 10
28.095845
 20
-208.558289
 30
0.0
 11
28.095845
 21
-169.09883
 31
0.0
  0
LINE
  5
46
100
AcDbEntity
  8
0
370
    -3
  6
CENTER
100
AcDbLine
 10
48.193583
 20
-189.193096
 30
0.0
 11
9.004394
 21
-189.193096
 31
0.0
  0
LINE
  5
47
100
AcDbEntity
  8
0
370
    -3
  6
CENTER
100
AcDbLine
 10
28.095845
 20
42.172096
 30
0.0
 11
28.095845
 21
2.712637
 31
0.0
  0
LINE
  5
48
100
AcDbEntity
  8
0
370
    -3
  6
CENTER
100
AcDbLine
 10
48.193583
 20
22.806904
 30
0.0
 11
9.004394
 21
22.806904
 31
0.0
  0
ARC
  5
49
100
AcDbEntity
  8
0
370
    -3
  6
Continuous
100
AcDbCircle
 10
27.095845
 20
-139.682461
 30
0.0
 40
9.0
100
AcDbArc
 50
289.876874
 51
0.0
  0
ARC
  5
4A
100
AcDbEntity
  8
0
370
    -3
  6
Continuous
100
AcDbCircle
 10
35.595845
 20
-163.193096
 30
0.0
 40
16.0
100
AcDbArc
 50
109.876874
 51
169.518535
  0
ARC
  5
4B
100
AcDbEntity
  8
0
370
    -3
  6
Continuous
100
AcDbCircle
 10
11.013
 20
-158.64516
 30
0.0
 40
9.0
100
AcDbArc
 50
299.214548
 51
349.518535
  0
ARC
  5
4C
100
AcDbEntity
  8
0
370
    -3
  6
Continuous
100
AcDbCircle
 10
28.095845
 20
-189.193096
 30
0.0
 40
26.0
100
AcDbArc
 50
119.214548
 51
178.362755
  0
ARC
  5
4D
100
AcDbEntity
  8
0
370
    -3
  6
Continuous
100
AcDbCircle
 10
-6.889866
 20
-188.193096
 30
0.0
 40
9.0
100
AcDbArc
 50
270.0
 51
358.362755
  0
LINE
  5
4E
100
AcDbEntity
  8
0
370
    -3
  6
Continuous
100
AcDbLine
 10
-6.889866
 20
-197.193096
 30
0.0
 11
-51.435351
 21
-197.193096
 31
0.0
  0
ARC
  5
4F
100
AcDbEntity
  8
0
370
    -3
  6
Continuous
100
AcDbCircle
 10
-51.435351
 20
-188.193096
 30
0.0
 40
9.0
100
AcDbArc
 50
200.156963
 51
270.0
  0
ARC
  5
50
100
AcDbEntity
  8
0
370
    -3
  6
Continuous
100
AcDbCircle
 10
-74.904155
 20
-196.807926
 30
0.0
 40
16.0
100
AcDbArc
 50
20.156963
 51
159.843037
  0
ARC
  5
51
100
AcDbEntity
  8
0
370
    -3
  6
Continuous
100
AcDbCircle
 10
-98.372958
 20
-188.193096
 30
0.0
 40
9.0
100
AcDbArc
 50
270.0
 51
339.843037
  0
ARC
  5
52
100
AcDbEntity
  8
0
370
    -3
  6
Continuous
100
AcDbCircle
 10
-145.41479
 20
21.806904
 30
0.0
 40
9.0
100
AcDbArc
 50
19.876874
 51
90.0
  0
ARC
  5
53
100
AcDbEntity
  8
0
370
    -3
  6
Continuous
100
AcDbCircle
 10
-121.904155
 20
30.306904
 30
0.0
 40
16.0
100
AcDbArc
 50
199.876874
 51
340.123126
  0
ARC
  5
54
100
AcDbEntity
  8
0
370
    -3
  6
Continuous
100
AcDbCircle
 10
-98.393519
 20
21.806904
 30
0.0
 40
9.0
100
AcDbArc
 50
90.0
 51
160.123126
  0
LINE
  5
55
100
AcDbEntity
  8
0
370
    -3
  6
Continuous
100
AcDbLine
 10
-6.889866
 20
30.806904
 30
0.0
 11
-98.393519
 21
30.806904
 31
0.0
  0
ARC
  5
56
100
AcDbEntity
  8
0
370
    -3
  6
Continuous
100
AcDbCircle
 10
-6.889866
 20
21.806904
 30
0.0
 40
9.0
100
AcDbArc
 50
1.637245
 51
90.0
  0
ARC
  5
57
100
AcDbEntity
  8
0
370
    -3
  6
Continuous
100
AcDbCircle
 10
28.095845
 20
22.806904
 30
0.0
 40
26.0
100
AcDbArc
 50
181.637245
 51
240.785452
  0
ARC
  5
58
100
AcDbEntity
  8
0
370
    -3
  6
Continuous
100
AcDbCircle
 10
11.013
 20
-7.741033
 30
0.0
 40
9.0
100
AcDbArc
 50
10.481465
 51
60.785452
  0
ARC
  5
59
100
AcDbEntity
  8
0
370
    -3
  6
Continuous
100
AcDbCircle
 10
35.595845
 20
-3.193096
 30
0.0
 40
16.0
100
AcDbArc
 50
190.481465
 51
250.123126
  0
ARC
  5
5A
100
AcDbEntity
  8
0
370
    -3
  6
Continuous
100
AcDbCircle
 10
27.095845
 20
-26.703732
 30
0.0
 40
9.0
100
AcDbArc
 50
0.0
 51
70.123126
  0
LINE
  5
5B
100
AcDbEntity
  8
0
370
    -3
  6
Continuous
100
AcDbLine
 10
36.095845
 20
-26.703732
 30
0.0
 11
36.095845
 21
-139.682461
 31
0.0
  0
LINE
  5
5C
100
AcDbEntity
  8
0
370
    -3
  6
CENTER
100
AcDbLine
 10
428.196378
 20
-60.193098
 30
0.0
 11
315.395264
 21
-60.193098
 31
0.0
  0
LINE
  5
5D
100
AcDbEntity
  8
0
370
    -3
  6
CENTER
100
AcDbLine
 10
379.095845
 20
-11.52707
 30
0.0
 11
379.095845
 21
-106.52707
 31
0.0
  0
ARC
  5
5E
100
AcDbEntity
  8
0
370
    -3
  6
Continuous
100
AcDbCircle
 10
379.095845
 20
-60.193098
 30
0.0
 40
27.5
100
AcDbArc
 50
106.91239
 51
73.08761
  0
LINE
  5
5F
100
AcDbEntity
  8
0
370
    -3
  6
Continuous
100
AcDbLine
 10
371.095845
 20
-28.393098
 30
0.0
 11
387.095845
 21
-28.393098
 31
0.0
  0
LINE
  5
60
100
AcDbEntity
  8
0
370
    -3
  6
Continuous
100
AcDbLine
 10
387.095845
 20
-33.882454
 30
0.0
 11
387.095845
 21
-28.393098
 31
0.0
  0
LINE
  5
61
100
AcDbEntity
  8
0
370
    -3
  6
Continuous
100
AcDbLine
 10
371.095845
 20
-33.882454
 30
0.0
 11
371.095845
 21
-28.393098
 31
0.0
  0
CIRCLE
  5
62
100
AcDbEntity
  8
0
370
    -3
  6
Continuous
100
AcDbCircle
 10
379.095845
 20
-60.193098
 30
0.0
 40
40.0
  0
LINE
  5
63
100
AcDbEntity
  8
0
370
    -3
  6
Continuous
100
AcDbLine
 10
209.095845
 20
-60.193098
 30
0.0
 11
209.095845
 21
-32.493098
 31
0.0
  0
LINE
  5
64
100
AcDbEntity
  8
0
370
    -3
  6
Continuous
100
AcDbLine
 10
209.095845
 20
-32.693098
 30
0.0
 11
239.095845
 21
-32.693098
 31
0.0
  0
LINE
  5
65
100
AcDbEntity
  8
0
370
    -3
  6
Continuous
100
AcDbLine
 10
241.295845
 20
-32.693098
 30
0.0
 11
276.595845
 21
-32.693098
 31
0.0
  0
LINE
  5
66
100
AcDbEntity
  8
0
370
    -3
  6
Continuous
100
AcDbLine
 10
239.095845
 20
-60.193098
 30
0.0
 11
239.095845
 21
-31.193098
 31
0.0
  0
LINE
  5
67
100
AcDbEntity
  8
0
370
    -3
  6
Continuous
100
AcDbLine
 10
241.295845
 20
-87.693098
 30
0.0
 11
276.595845
 21
-87.693098
 31
0.0
  0
LINE
  5
68
100
AcDbEntity
  8
0
370
    -3
  6
Continuous
100
AcDbLine
 10
239.095845
 20
-60.193098
 30
0.0
 11
239.095845
 21
-89.193098
 31
0.0
  0
LINE
  5
69
100
AcDbEntity
  8
0
370
    -3
  6
Continuous
100
AcDbLine
 10
209.095845
 20
-87.693098
 30
0.0
 11
239.095845
 21
-87.693098
 31
0.0
  0
LINE
  5
6A
100
AcDbEntity
  8
0
370
    -3
  6
Continuous
100
AcDbLine
 10
209.095845
 20
-60.193098
 30
0.0
 11
209.095845
 21
-87.893098
 31
0.0
  0
LINE
  5
6B
100
AcDbEntity
  8
0
370
    -3
  6
Continuous
100
AcDbLine
 10
171.095845
 20
-60.193098
 30
0.0
 11
171.095845
 21
-32.493098
 31
0.0
  0
LINE
  5
6C
100
AcDbEntity
  8
0
370
    -3
  6
Continuous
100
AcDbLine
 10
171.095845
 20
-32.493098
 30
0.0
 11
209.095845
 21
-32.493098
 31
0.0
  0
LINE
  5
6D
100
AcDbEntity
  8
0
370
    -3
  6
Continuous
100
AcDbLine
 10
171.095845
 20
-60.193098
 30
0.0
 11
171.095845
 21
-87.893098
 31
0.0
  0
LINE
  5
6E
100
AcDbEntity
  8
0
370
    -3
  6
Continuous
100
AcDbLine
 10
171.095845
 20
-87.893098
 30
0.0
 11
209.095845
 21
-87.893098
 31
0.0
  0
LINE
  5
6F
100
AcDbEntity
  8
0
370
    -3
  6
Continuous
100
AcDbLine
 10
141.095845
 20
-87.693098
 30
0.0
 11
171.095845
 21
-87.693098
 31
0.0
  0
LINE
  5
70
100
AcDbEntity
  8
0
370
    -3
  6
Continuous
100
AcDbLine
 10
141.095845
 20
-60.193098
 30
0.0
 11
141.095845
 21
-89.193098
 31
0.0
  0
LINE
  5
71
100
AcDbEntity
  8
0
370
    -3
  6
Continuous
100
AcDbLine
 10
141.095845
 20
-32.693098
 30
0.0
 11
171.095845
 21
-32.693098
 31
0.0
  0
LINE
  5
72
100
AcDbEntity
  8
0
370
    -3
  6
Continuous
100
AcDbLine
 10
141.095845
 20
-60.193098
 30
0.0
 11
141.095845
 21
-31.193098
 31
0.0
  0
LINE
  5
73
100
AcDbEntity
  8
0
370
    -3
  6
Continuous
100
AcDbLine
 10
103.595845
 20
-32.693098
 30
0.0
 11
138.895845
 21
-32.693098
 31
0.0
  0
ARC
  5
74
100
AcDbEntity
  8
0
370
    -3
  6
Continuous
100
AcDbCircle
 10
103.595845
 20
-30.193098
 30
0.0
 40
2.5
100
AcDbArc
 50
180.0
 51
270.0
  0
LINE
  5
75
100
AcDbEntity
  8
0
370
    -3
  6
Continuous
100
AcDbLine
 10
101.095845
 20
-20.293098
 30
0.0
 11
101.095845
 21
-100.193098
 31
0.0
  0
LINE
  5
76
100
AcDbEntity
  8
0
370
    -3
  6
Continuous
100
AcDbLine
 10
103.595845
 20
-87.693098
 30
0.0
 11
138.895845
 21
-87.693098
 31
0.0
  0
ARC
  5
77
100
AcDbEntity
  8
0
370
    -3
  6
Continuous
100
AcDbCircle
 10
103.595845
 20
-90.193098
 30
0.0
 40
2.5
100
AcDbArc
 50
90.0
 51
180.0
  0
LINE
  5
78
100
AcDbEntity
  8
0
370
    -3
  6
CENTER
100
AcDbLine
 10
95.666864
 20
-60.193098
 30
0.0
 11
287.858777
 21
-60.193098
 31
0.0
  0
LINE
  5
79
100
AcDbEntity
  8
0
370
    -3
  6
Continuous
100
AcDbLine
 10
240.095845
 20
-100.093098
 30
0.0
 11
240.095845
 21
-107.693098
 31
0.0
  0
ARC
  5
7A
100
AcDbEntity
  8
0
370
    -3
  6
Continuous
100
AcDbCircle
 10
239.695845
 20
-13.093098
 30
0.0
 40
0.4
100
AcDbArc
 50
0.0
 51
90.0
  0
LINE
  5
7B
100
AcDbEntity
  8
0
370
    -3
  6
Continuous
100
AcDbLine
 10
240.095845
 20
-107.693098
 30
0.0
 11
198.595845
 21
-107.693098
 31
0.0
  0
ARC
  5
7C
100
AcDbEntity
  8
0
370
    -3
  6
Continuous
100
AcDbCircle
 10
276.595845
 20
-90.193098
 30
0.0
 40
2.5
100
AcDbArc
 50
0.0
 51
90.0
  0
LINE
  5
7D
100
AcDbEntity
  8
0
370
    -3
  6
Continuous
100
AcDbLine
 10
279.095845
 20
-20.293098
 30
0.0
 11
279.095845
 21
-100.193098
 31
0.0
  0
LINE
  5
7E
100
AcDbEntity
  8
0
370
    -3
  6
Continuous
100
AcDbLine
 10
240.095845
 20
-100.193098
 30
0.0
 11
240.095845
 21
-107.693098
 31
0.0
  0
LINE
  5
7F
100
AcDbEntity
  8
0
370
    -3
  6
Continuous
100
AcDbLine
 10
173.595845
 20
-101.443098
 30
0.0
 11
173.595845
 21
-100.093098
 31
0.0
  0
LINE
  5
80
100
AcDbEntity
  8
0
370
    -3
  6
Continuous
100
AcDbLine
 10
173.595845
 20
-101.443098
 30
0.0
 11
198.595845
 21
-101.443098
 31
0.0
  0
LINE
  5
81
100
AcDbEntity
  8
0
370
    -3
  6
Continuous
100
AcDbLine
 10
198.595845
 20
-101.443098
 30
0.0
 11
198.595845
 21
-107.693098
 31
0.0
  0
ARC
  5
82
100
AcDbEntity
  8
0
370
    -3
  6
Continuous
100
AcDbCircle
 10
276.595845
 20
-30.193098
 30
0.0
 40
2.5
100
AcDbArc
 50
270.0
 51
0.0
  0
LINE
  5
83
100
AcDbEntity
  8
0
370
    -3
  6
Continuous
100
AcDbLine
 10
240.095845
 20
-20.293098
 30
0.0
 11
240.095845
 21
-12.693098
 31
0.0
  0
LINE
  5
84
100
AcDbEntity
  8
0
370
    -3
  6
Continuous
100
AcDbLine
 10
173.595845
 20
-18.943098
 30
0.0
 11
173.595845
 21
-20.293098
 31
0.0
  0
LINE
  5
85
100
AcDbEntity
  8
0
370
    -3
  6
Continuous
100
AcDbLine
 10
173.595845
 20
-18.943098
 30
0.0
 11
198.595845
 21
-18.943098
 31
0.0
  0
LINE
  5
86
100
AcDbEntity
  8
0
370
    -3
  6
Continuous
100
AcDbLine
 10
198.595845
 20
-18.943098
 30
0.0
 11
198.595845
 21
-12.693098
 31
0.0
  0
LINE
  5
87
100
AcDbEntity
  8
0
370
    -3
  6
Continuous
100
AcDbLine
 10
240.095845
 20
-12.693098
 30
0.0
 11
198.595845
 21
-12.693098
 31
0.0
  0
LINE
  5
88
100
AcDbEntity
  8
0
370
    -3
  6
Continuous
100
AcDbLine
 10
173.595845
 20
-18.943098
 30
0.0
 11
173.595845
 21
-20.143098
 31
0.0
  0
LINE
  5
89
100
AcDbEntity
  8
0
370
    -3
  6
Continuous
100
AcDbLine
 10
173.595845
 20
-101.443098
 30
0.0
 11
173.595845
 21
-100.243098
 31
0.0
  0
LINE
  5
8A
100
AcDbEntity
  8
0
370
    -3
  6
Continuous
100
AcDbLine
 10
241.295845
 20
-89.193098
 30
0.0
 11
241.295845
 21
-31.193098
 31
0.0
  0
LINE
  5
8B
100
AcDbEntity
  8
0
370
    -3
  6
Continuous
100
AcDbLine
 10
138.895845
 20
-31.193098
 30
0.0
 11
141.095845
 21
-31.193098
 31
0.0
  0
LINE
  5
8C
100
AcDbEntity
  8
0
370
    -3
  6
Continuous
100
AcDbLine
 10
138.895845
 20
-89.193098
 30
0.0
 11
141.095845
 21
-89.193098
 31
0.0
  0
LINE
  5
8D
100
AcDbEntity
  8
0
370
    -3
  6
Continuous
100
AcDbLine
 10
138.895845
 20
-89.193098
 30
0.0
 11
138.895845
 21
-31.193098
 31
0.0
  0
LINE
  5
8E
100
AcDbEntity
  8
0
370
    -3
  6
Continuous
100
AcDbLine
 10
239.095845
 20
-31.193098
 30
0.0
 11
241.295845
 21
-31.193098
 31
0.0
  0
LINE
  5
8F
100
AcDbEntity
  8
0
370
    -3
  6
Continuous
100
AcDbLine
 10
239.095845
 20
-89.193098
 30
0.0
 11
241.295845
 21
-89.193098
 31
0.0
  0
LINE
  5
90
100
AcDbEntity
  8
0
370
    -3
  6
Continuous
100
AcDbLine
 10
101.095845
 20
-20.293098
 30
0.0
 11
173.595845
 21
-20.293098
 31
0.0
  0
LINE
  5
91
100
AcDbEntity
  8
0
370
    -3
  6
Continuous
100
AcDbLine
 10
240.095845
 20
-20.293098
 30
0.0
 11
279.095845
 21
-20.293098
 31
0.0
  0
LINE
  5
92
100
AcDbEntity
  8
0
370
    -3
  6
Continuous
100
AcDbLine
 10
240.095845
 20
-100.093098
 30
0.0
 11
279.095845
 21
-100.093098
 31
0.0
  0
LINE
  5
93
100
AcDbEntity
  8
0
370
    -3
  6
Continuous
100
AcDbLine
 10
101.095845
 20
-100.093098
 30
0.0
 11
173.595845
 21
-100.093098
 31
0.0
  0
CIRCLE
  5
94
100
AcDbEntity
  8
0
370
    -3
  6
Continuous
100
AcDbCircle
 10
-54.904155
 20
-60.193096
 30
0.0
 40
40.0
  0
LINE
  5
95
100
AcDbEntity
  8
0
370
    -3
  6
Continuous
100
AcDbLine
 10
-62.904155
 20
-33.882452
 30
0.0
 11
-62.904155
 21
-28.393096
 31
0.0
  0
LINE
  5
96
100
AcDbEntity
  8
0
370
    -3
  6
Continuous
100
AcDbLine
 10
-46.904155
 20
-33.882452
 30
0.0
 11
-46.904155
 21
-28.393096
 31
0.0
  0
LINE
  5
97
100
AcDbEntity
  8
0
370
    -3
  6
Continuous
100
AcDbLine
 10
-62.904155
 20
-28.393096
 30
0.0
 11
-46.904155
 21
-28.393096
 31
0.0
  0
ARC
  5
98
100
AcDbEntity
  8
0
370
    -3
  6
Continuous
100
AcDbCircle
 10
-54.904155
 20
-60.193096
 30
0.0
 40
27.5
100
AcDbArc
 50
106.91239
 51
73.08761
  0
MTEXT
  5
9A
100
AcDbEntity
  8
0
370
    -3
  6
Continuous
100
AcDbMText
 10
279.88269
 20
-203.40625
 30
0.0
 40
2.8
 41
0.0
 71
     7
 72
     1
  1
\W0.83;　
  7
ZU_SHPTB00001
 11
1.0
 21
0.0
 31
0.0
 73
     1
 44
1.0
  0
MTEXT
  5
9B
100
AcDbEntity
  8
0
370
    -3
  6
Continuous
100
AcDbMText
 10
-100.375488
 20
36.84375
 30
0.0
 40
2.8
 41
0.0
 71
     7
 72
     1
  1
\W0.83;　
  7
ZU_SHPTB00001
 11
1.0
 21
0.0
 31
0.0
 73
     1
 44
1.0
  0
CIRCLE
  5
9C
100
AcDbEntity
  8
0
370
    -3
  6
Continuous
100
AcDbCircle
 10
-54.904155
 20
-60.193096
 30
0.0
 40
75.0
  0
CIRCLE
  5
9D
100
AcDbEntity
  8
0
370
    -3
  6
Continuous
100
AcDbCircle
 10
-54.904155
 20
-60.193096
 30
0.0
 40
82.5
  0
CIRCLE
  5
9E
100
AcDbEntity
  8
0
370
    -3
  6
Continuous
100
AcDbCircle
 10
-54.904155
 20
-60.193096
 30
0.0
 40
85.5
  0
CIRCLE
  5
9F
100
AcDbEntity
  8
0
370
    -3
  6
Continuous
100
AcDbCircle
 10
-54.904155
 20
-60.193096
 30
0.0
 40
50.0
  0
LINE
  5
A0
100
AcDbEntity
  8
0
370
    -3
  6
Continuous
100
AcDbLine
 10
537.595705
 20
45.090654
 30
0.0
 11
537.595705
 21
45.30672
 31
0.0
  0
LINE
  5
A1
100
AcDbEntity
  8
0
370
    -3
  6
Continuous
100
AcDbLine
 10
578.595705
 20
45.090666
 30
0.0
 11
578.595705
 21
45.30672
 31
0.0
  0
LINE
  5
A2
100
AcDbEntity
  8
0
370
    -3
  6
CENTER
100
AcDbLine
 10
641.659116
 20
-189.192531
 30
0.0
 11
474.723365
 21
-189.192938
 31
0.0
  0
LINE
  5
A3
100
AcDbEntity
  8
0
370
    -3
  6
CENTER
100
AcDbLine
 10
641.6586
 20
22.807469
 30
0.0
 11
474.722849
 21
22.807062
 31
0.0
  0
LINE
  5
A4
100
AcDbEntity
  8
0
370
    -3
  6
Continuous
100
AcDbLine
 10
479.095188
 20
41.479194
 30
0.0
 11
478.095873
 21
40.453369
 31
0.0
  0
LINE
  5
A5
100
AcDbEntity
  8
0
370
    -3
  6
Continuous
100
AcDbLine
 10
479.095188
 20
-207.879215
 30
0.0
 11
491.595873
 21
-208.206557
 31
0.0
  0
LINE
  5
A6
100
AcDbEntity
  8
0
370
    -3
  6
Continuous
100
AcDbLine
 10
637.096559
 20
-207.879215
 30
0.0
 11
624.595873
 21
-208.206557
 31
0.0
  0
LINE
  5
A7
100
AcDbEntity
  8
0
370
    -3
  6
Continuous
100
AcDbLine
 10
558.095873
 20
-212.193464
 30
0.0
 11
491.595873
 21
-209.871233
 31
0.0
  0
LINE
  5
A8
100
AcDbEntity
  8
0
370
    -3
  6
Continuous
100
AcDbLine
 10
561.095873
 20
-212.088702
 30
0.0
 11
624.595873
 21
-209.871233
 31
0.0
  0
LINE
  5
A9
100
AcDbEntity
  8
0
370
    -3
  6
Continuous
100
AcDbLine
 10
558.095873
 20
45.806536
 30
0.0
 11
491.595873
 21
43.484305
 31
0.0
  0
LINE
  5
AA
100
AcDbEntity
  8
0
370
    -3
  6
Continuous
100
AcDbLine
 10
479.095188
 20
-207.879215
 30
0.0
 11
478.095873
 21
-206.85339
 31
0.0
  0
LINE
  5
AB
100
AcDbEntity
  8
0
370
    -3
  6
Continuous
100
AcDbLine
 10
491.595873
 20
41.806536
 30
0.0
 11
479.095188
 21
41.479194
 31
0.0
  0
LINE
  5
AC
100
AcDbEntity
  8
0
370
    -3
  6
Continuous
100
AcDbLine
 10
479.095188
 20
41.479194
 30
0.0
 11
478.095873
 21
40.453369
 31
0.0
  0
LINE
  5
AD
100
AcDbEntity
  8
0
370
    -3
  6
Continuous
100
AcDbLine
 10
638.095873
 20
14.806536
 30
0.0
 11
643.095873
 21
14.806536
 31
0.0
  0
LINE
  5
AE
100
AcDbEntity
  8
0
370
    -3
  6
Continuous
100
AcDbLine
 10
561.091762
 20
-210.350472
 30
0.0
 11
558.095873
 21
-210.193464
 31
0.0
  0
LINE
  5
AF
100
AcDbEntity
  8
0
370
    -3
  6
Continuous
100
AcDbLine
 10
561.095873
 20
45.701774
 30
0.0
 11
624.595873
 21
43.484305
 31
0.0
  0
LINE
  5
B0
100
AcDbEntity
  8
0
370
    -3
  6
Continuous
100
AcDbLine
 10
561.091762
 20
43.963544
 30
0.0
 11
558.095873
 21
43.806536
 31
0.0
  0
LINE
  5
B1
100
AcDbEntity
  8
0
370
    -3
  6
Continuous
100
AcDbLine
 10
637.096559
 20
-207.879215
 30
0.0
 11
638.095873
 21
-206.85339
 31
0.0
  0
LINE
  5
B2
100
AcDbEntity
  8
0
370
    -3
  6
Continuous
100
AcDbLine
 10
637.096559
 20
41.479194
 30
0.0
 11
638.095873
 21
40.453369
 31
0.0
  0
LINE
  5
B3
100
AcDbEntity
  8
0
370
    -3
  6
Continuous
100
AcDbLine
 10
624.595873
 20
41.806536
 30
0.0
 11
637.096559
 21
41.479194
 31
0.0
  0
LINE
  5
B4
100
AcDbEntity
  8
0
370
    -3
  6
Continuous
100
AcDbLine
 10
478.095873
 20
14.80672
 30
0.0
 11
473.095873
 21
14.80672
 31
0.0
  0
ARC
  5
B5
100
AcDbEntity
  8
0
370
    -3
  6
Continuous
100
AcDbCircle
 10
558.095559
 20
44.806981
 30
0.0
 40
10.0
100
AcDbArc
 50
3.733167
 51
176.26696
  0
LINE
  5
B6
100
AcDbEntity
  8
0
370
    -3
  6
Continuous
100
AcDbLine
 10
578.595547
 20
54.807018
 30
0.0
 11
578.595559
 21
45.090671
 31
0.0
  0
ARC
  5
B7
100
AcDbEntity
  8
0
370
    -3
  6
Continuous
100
AcDbCircle
 10
568.595547
 20
54.807006
 30
0.0
 40
10.0
100
AcDbArc
 50
0.00007
 51
90.000139
  0
LINE
  5
B8
100
AcDbEntity
  8
0
370
    -3
  6
Continuous
100
AcDbLine
 10
537.595547
 20
54.806943
 30
0.0
 11
537.595559
 21
45.090649
 31
0.0
  0
LINE
  5
B9
100
AcDbEntity
  8
0
370
    -3
  6
Continuous
100
AcDbLine
 10
547.595523
 20
64.806955
 30
0.0
 11
568.595523
 21
64.807006
 31
0.0
  0
ARC
  5
BA
100
AcDbEntity
  8
0
370
    -3
  6
Continuous
100
AcDbCircle
 10
547.595547
 20
54.806955
 30
0.0
 40
10.0
100
AcDbArc
 50
90.000139
 51
180.00007
  0
LINE
  5
BB
100
AcDbEntity
  8
0
370
    -3
  6
Continuous
100
AcDbLine
 10
-239.404155
 20
-98.693096
 30
0.0
 11
-253.904155
 21
-98.693096
 31
0.0
  0
LINE
  5
BC
100
AcDbEntity
  8
0
370
    -3
  6
Continuous
100
AcDbLine
 10
-239.404155
 20
-61.693096
 30
0.0
 11
-253.904155
 21
-61.693096
 31
0.0
  0
LINE
  5
BD
100
AcDbEntity
  8
0
370
    -3
  6
Continuous
100
AcDbLine
 10
-239.404155
 20
-163.513456
 30
0.0
 11
-239.404155
 21
3.127263
 31
0.0
  0
LINE
  5
BE
100
AcDbEntity
  8
0
370
    -3
  6
Continuous
100
AcDbLine
 10
-253.904155
 20
1.306904
 30
0.0
 11
-253.904155
 21
-80.193096
 31
0.0
  0
LINE
  5
BF
100
AcDbEntity
  8
0
370
    -3
  6
Continuous
100
AcDbLine
 10
-251.904155
 20
3.306904
 30
0.0
 11
-240.232582
 21
3.306904
 31
0.0
  0
ARC
  5
C0
100
AcDbEntity
  8
0
370
    -3
  6
Continuous
100
AcDbCircle
 10
-240.232582
 20
1.306904
 30
0.0
 40
2.0
100
AcDbArc
 50
45.0
 51
90.0
  0
ARC
  5
C1
100
AcDbEntity
  8
0
370
    -3
  6
Continuous
100
AcDbCircle
 10
-251.904155
 20
1.306904
 30
0.0
 40
2.0
100
AcDbArc
 50
90.0
 51
180.0
  0
LINE
  5
C2
100
AcDbEntity
  8
0
370
    -3
  6
Continuous
100
AcDbLine
 10
-253.904155
 20
-161.693096
 30
0.0
 11
-253.904155
 21
-80.193096
 31
0.0
  0
ARC
  5
C3
100
AcDbEntity
  8
0
370
    -3
  6
Continuous
100
AcDbCircle
 10
-254.904155
 20
-155.193001
 30
0.0
 40
1.0
100
AcDbArc
 50
0.0
 51
90.0
  0
LINE
  5
C4
100
AcDbEntity
  8
0
370
    -3
  6
Continuous
100
AcDbLine
 10
-254.904155
 20
-154.193001
 30
0.0
 11
-254.904155
 21
-6.193192
 31
0.0
  0
LINE
  5
C5
100
AcDbEntity
  8
0
370
    -3
  6
Continuous
100
AcDbLine
 10
-238.904155
 20
-163.193096
 30
0.0
 11
-236.904155
 21
-161.193096
 31
0.0
  0
LINE
  5
C6
100
AcDbEntity
  8
0
370
    -3
  6
Continuous
100
AcDbLine
 10
-236.904155
 20
0.806904
 30
0.0
 11
-236.904155
 21
-161.193096
 31
0.0
  0
LINE
  5
C7
100
AcDbEntity
  8
0
370
    -3
  6
Continuous
100
AcDbLine
 10
-238.904155
 20
2.806904
 30
0.0
 11
-236.904155
 21
0.806904
 31
0.0
  0
LINE
  5
C8
100
AcDbEntity
  8
0
370
    -3
  6
Continuous
100
AcDbLine
 10
-251.904155
 20
-163.693096
 30
0.0
 11
-240.232582
 21
-163.693096
 31
0.0
  0
ARC
  5
C9
100
AcDbEntity
  8
0
370
    -3
  6
Continuous
100
AcDbCircle
 10
-240.232582
 20
-161.693096
 30
0.0
 40
2.0
100
AcDbArc
 50
270.0
 51
315.0
  0
ARC
  5
CA
100
AcDbEntity
  8
0
370
    -3
  6
Continuous
100
AcDbCircle
 10
-251.904155
 20
-161.693096
 30
0.0
 40
2.0
100
AcDbArc
 50
180.0
 51
270.0
  0
ARC
  5
CB
100
AcDbEntity
  8
0
370
    -3
  6
Continuous
100
AcDbCircle
 10
-254.904155
 20
-5.193192
 30
0.0
 40
1.0
100
AcDbArc
 50
270.0
 51
0.0
  0
POINT
  5
CC
100
AcDbEntity
  8
0
370
    -3
  6
Continuous
100
AcDbPoint
 10
-222.404155
 20
-80.193096
 30
0.0
  0
ARC
  5
CD
100
AcDbEntity
  8
0
370
    -3
  6
Continuous
100
AcDbCircle
 10
-241.904155
 20
26.806904
 30
0.0
 40
3.0
100
AcDbArc
 50
0.0
 51
90.0
  0
LINE
  5
CE
100
AcDbEntity
  8
0
370
    -3
  6
Continuous
100
AcDbLine
 10
-238.904155
 20
26.806904
 30
0.0
 11
-238.904155
 21
2.806904
 31
0.0
  0
LINE
  5
CF
100
AcDbEntity
  8
0
370
    -3
  6
Continuous
100
AcDbLine
 10
-258.404155
 20
9.806956
 30
0.0
 11
-253.904155
 21
9.806956
 31
0.0
  0
LINE
  5
D0
100
AcDbEntity
  8
0
370
    -3
  6
Continuous
100
AcDbLine
 10
-258.404155
 20
64.806956
 30
0.0
 11
-253.904155
 21
64.806956
 31
0.0
  0
LINE
  5
D1
100
AcDbEntity
  8
0
370
    -3
  6
Continuous
100
AcDbLine
 10
-253.904155
 20
26.806904
 30
0.0
 11
-253.904155
 21
-5.193192
 31
0.0
  0
ARC
  5
D2
100
AcDbEntity
  8
0
370
    -3
  6
Continuous
100
AcDbCircle
 10
-250.904155
 20
26.806904
 30
0.0
 40
3.0
100
AcDbArc
 50
90.0
 51
180.0
  0
LINE
  5
D3
100
AcDbEntity
  8
0
370
    -3
  6
Continuous
100
AcDbLine
 10
-258.404155
 20
64.806956
 30
0.0
 11
-258.404155
 21
9.806956
 31
0.0
  0
LINE
  5
D4
100
AcDbEntity
  8
0
370
    -3
  6
Continuous
100
AcDbLine
 10
-250.904155
 20
29.806904
 30
0.0
 11
-241.904155
 21
29.806904
 31
0.0
  0
LINE
  5
D5
100
AcDbEntity
  8
0
370
    -3
  6
Continuous
100
AcDbLine
 10
-253.904155
 20
64.806956
 30
0.0
 11
-253.904155
 21
9.806956
 31
0.0
  0
INSERT
  5
E1
100
AcDbEntity
  8
0
100
AcDbBlockReference
  2
ZU_SYM__USERS_HOME_SYMBOL_POO_SYM_B20_-1
 10
-258.404155
 20
19.806956
 30
0.0
 50
360.0
  0
LINE
  5
E2
100
AcDbEntity
  8
0
370
    -3
  6
CENTER
100
AcDbLine
 10
-272.338231
 20
19.806956
 30
0.0
 11
-249.367029
 21
19.806956
 31
0.0
  0
LINE
  5
E3
100
AcDbEntity
  8
0
370
    -3
  6
CENTER
100
AcDbLine
 10
-265.319252
 20
44.806956
 30
0.0
 11
-250.855903
 21
44.806956
 31
0.0
  0
LINE
  5
E4
100
AcDbEntity
  8
0
370
    -3
  6
Continuous
100
AcDbLine
 10
-254.904155
 20
-80.193081
 30
0.0
 11
-254.904155
 21
3.306919
 31
0.0
  0
LINE
  5
E5
100
AcDbEntity
  8
0
370
    -3
  6
Continuous
100
AcDbLine
 10
-254.904155
 20
-80.193081
 30
0.0
 11
-254.904155
 21
-160.193081
 31
0.0
  0
LINE
  5
E6
100
AcDbEntity
  8
0
370
    -3
  6
Continuous
100
AcDbLine
 10
-254.904155
 20
-80.193081
 30
0.0
 11
-254.904155
 21
-160.193081
 31
0.0
  0
LINE
  5
E7
100
AcDbEntity
  8
0
370
    -3
  6
Continuous
100
AcDbLine
 10
-254.904155
 20
-80.193081
 30
0.0
 11
-254.904155
 21
3.306919
 31
0.0
  0
LINE
  5
E8
100
AcDbEntity
  8
0
370
    -3
  6
CENTER
100
AcDbLine
 10
56.849905
 20
-60.193096
 30
0.0
 11
-205.078842
 21
-60.193096
 31
0.0
  0
CIRCLE
  5
E9
100
AcDbEntity
  8
0
370
    -3
  6
Continuous
100
AcDbCircle
 10
-206.904155
 20
22.806904
 30
0.0
 40
8.647
  0
CIRCLE
  5
EA
100
AcDbEntity
  8
0
370
    -3
  6
Continuous
100
AcDbCircle
 10
-206.904155
 20
22.806904
 30
0.0
 40
10.0
  0
CIRCLE
  5
EB
100
AcDbEntity
  8
0
370
    -3
  6
Continuous
100
AcDbCircle
 10
-206.904155
 20
-189.193096
 30
0.0
 40
8.647
  0
CIRCLE
  5
EC
100
AcDbEntity
  8
0
370
    -3
  6
Continuous
100
AcDbCircle
 10
-206.904155
 20
-189.193096
 30
0.0
 40
10.0
  0
LINE
  5
ED
100
AcDbEntity
  8
0
370
    -3
  6
Continuous
100
AcDbLine
 10
-234.665062
 20
-119.193375
 30
0.0
 11
-234.665062
 21
-119.193363
 31
0.0
  0
LINE
  5
EE
100
AcDbEntity
  8
0
370
    -3
  6
Continuous
100
AcDbLine
 10
-236.904155
 20
-1.029096
 30
0.0
 11
-236.904155
 21
-81.229096
 31
0.0
  0
ARC
  5
EF
100
AcDbEntity
  8
0
370
    -3
  6
Continuous
100
AcDbCircle
 10
-162.904155
 20
-60.193096
 30
0.0
 40
43.0
100
AcDbArc
 50
180.0
 51
180.055222
  0
LINE
  5
F0
100
AcDbEntity
  8
0
370
    -3
  6
Continuous
100
AcDbLine
 10
-229.904155
 20
30.806904
 30
0.0
 11
-229.904155
 21
-31.216535
 31
0.0
  0
LINE
  5
F1
100
AcDbEntity
  8
0
370
    -3
  6
Continuous
100
AcDbLine
 10
36.095845
 20
45.806904
 30
0.0
 11
-214.904155
 21
45.806904
 31
0.0
  0
LINE
  5
F2
100
AcDbEntity
  8
0
370
    -3
  6
Continuous
100
AcDbLine
 10
36.095845
 20
-212.193096
 30
0.0
 11
-214.904155
 21
-212.193096
 31
0.0
  0
ARC
  5
F3
100
AcDbEntity
  8
0
370
    -3
  6
Continuous
100
AcDbCircle
 10
-214.904155
 20
-197.193096
 30
0.0
 40
15.0
100
AcDbArc
 50
180.0
 51
270.0
  0
LINE
  5
F4
100
AcDbEntity
  8
0
370
    -3
  6
Continuous
100
AcDbLine
 10
36.095845
 20
-208.193096
 30
0.0
 11
-214.904155
 21
-208.193096
 31
0.0
  0
LINE
  5
F5
100
AcDbEntity
  8
0
370
    -3
  6
Continuous
100
AcDbLine
 10
-214.904155
 20
41.806904
 30
0.0
 11
36.095845
 21
41.806904
 31
0.0
  0
LINE
  5
F6
100
AcDbEntity
  8
0
370
    -3
  6
Continuous
100
AcDbLine
 10
-225.904155
 20
-57.218295
 30
0.0
 11
-225.904155
 21
30.806904
 31
0.0
  0
LINE
  5
F7
100
AcDbEntity
  8
0
370
    -3
  6
Continuous
100
AcDbLine
 10
-225.904155
 20
-197.193096
 30
0.0
 11
-225.904155
 21
-101.167889
 31
0.0
  0
ARC
  5
F8
100
AcDbEntity
  8
0
370
    -3
  6
Continuous
100
AcDbCircle
 10
-234.904155
 20
7.806904
 30
0.0
 40
5.0
100
AcDbArc
 50
270.0
 51
0.0
  0
LINE
  5
F9
100
AcDbEntity
  8
0
370
    -3
  6
Continuous
100
AcDbLine
 10
-234.904155
 20
2.806904
 30
0.0
 11
-236.904155
 21
0.806904
 31
0.0
  0
LINE
  5
FA
100
AcDbEntity
  8
0
370
    -3
  6
Continuous
100
AcDbLine
 10
-236.904155
 20
-159.192969
 30
0.0
 11
-234.904027
 21
-161.193096
 31
0.0
  0
ARC
  5
FB
100
AcDbEntity
  8
0
370
    -3
  6
Continuous
100
AcDbCircle
 10
-234.904155
 20
-166.193096
 30
0.0
 40
5.0
100
AcDbArc
 50
0.0
 51
90.0
  0
LINE
  5
FC
100
AcDbEntity
  8
0
370
    -3
  6
Continuous
100
AcDbLine
 10
-229.904155
 20
-197.193096
 30
0.0
 11
-229.904155
 21
-126.717074
 31
0.0
  0
ARC
  5
FD
100
AcDbEntity
  8
0
370
    -3
  6
Continuous
100
AcDbCircle
 10
-214.904155
 20
-197.193096
 30
0.0
 40
11.0
100
AcDbArc
 50
180.0
 51
270.0
  0
ARC
  5
FE
100
AcDbEntity
  8
0
370
    -3
  6
Continuous
100
AcDbCircle
 10
-214.904155
 20
30.806904
 30
0.0
 40
11.0
100
AcDbArc
 50
90.0
 51
180.0
  0
ARC
  5
FF
100
AcDbEntity
  8
0
370
    -3
  6
Continuous
100
AcDbCircle
 10
-214.904155
 20
30.806904
 30
0.0
 40
15.0
100
AcDbArc
 50
90.0
 51
180.0
  0
LINE
  5
100
100
AcDbEntity
  8
0
370
    -3
  6
Continuous
100
AcDbLine
 10
-225.904155
 20
-101.167889
 30
0.0
 11
-229.904155
 21
-126.717074
 31
0.0
  0
LINE
  5
101
100
AcDbEntity
  8
0
370
    -3
  6
Continuous
100
AcDbLine
 10
-225.904155
 20
-57.218295
 30
0.0
 11
-229.904155
 21
-31.216535
 31
0.0
  0
LINE
  5
102
100
AcDbEntity
  8
0
370
    -3
  6
CENTER
100
AcDbLine
 10
-234.505511
 20
-189.193096
 30
0.0
 11
-187.812703
 21
-189.193096
 31
0.0
  0
LINE
  5
103
100
AcDbEntity
  8
0
370
    -3
  6
CENTER
100
AcDbLine
 10
-206.904155
 20
-208.558289
 30
0.0
 11
-206.904155
 21
-169.09883
 31
0.0
  0
LINE
  5
104
100
AcDbEntity
  8
0
370
    -3
  6
CENTER
100
AcDbLine
 10
-236.133933
 20
22.806904
 30
0.0
 11
-187.812703
 21
22.806904
 31
0.0
  0
LINE
  5
105
100
AcDbEntity
  8
0
370
    -3
  6
CENTER
100
AcDbLine
 10
-206.904155
 20
42.971947
 30
0.0
 11
-206.904155
 21
2.828313
 31
0.0
  0
LINE
  5
106
100
AcDbEntity
  8
0
370
    -3
  6
Continuous
100
AcDbLine
 10
-98.372958
 20
-197.193096
 30
0.0
 11
-171.918443
 21
-197.193096
 31
0.0
  0
ARC
  5
107
100
AcDbEntity
  8
0
370
    -3
  6
Continuous
100
AcDbCircle
 10
-171.918443
 20
-188.193096
 30
0.0
 40
9.0
100
AcDbArc
 50
181.637245
 51
270.0
  0
ARC
  5
108
100
AcDbEntity
  8
0
370
    -3
  6
Continuous
100
AcDbCircle
 10
-206.904155
 20
-189.193096
 30
0.0
 40
26.0
100
AcDbArc
 50
1.637245
 51
60.785452
  0
ARC
  5
109
100
AcDbEntity
  8
0
370
    -3
  6
Continuous
100
AcDbCircle
 10
-189.821309
 20
-158.64516
 30
0.0
 40
9.0
100
AcDbArc
 50
190.481465
 51
240.785452
  0
ARC
  5
10A
100
AcDbEntity
  8
0
370
    -3
  6
Continuous
100
AcDbCircle
 10
-214.404155
 20
-163.193096
 30
0.0
 40
16.0
100
AcDbArc
 50
10.481465
 51
70.123126
  0
ARC
  5
10B
100
AcDbEntity
  8
0
370
    -3
  6
Continuous
100
AcDbCircle
 10
-205.904155
 20
-139.682461
 30
0.0
 40
9.0
100
AcDbArc
 50
180.0
 51
250.123126
  0
LINE
  5
10C
100
AcDbEntity
  8
0
370
    -3
  6
Continuous
100
AcDbLine
 10
-214.904155
 20
-139.682461
 30
0.0
 11
-214.904155
 21
-26.703732
 31
0.0
  0
ARC
  5
10D
100
AcDbEntity
  8
0
370
    -3
  6
Continuous
100
AcDbCircle
 10
-205.904155
 20
-26.703732
 30
0.0
 40
9.0
100
AcDbArc
 50
109.876874
 51
180.0
  0
ARC
  5
10E
100
AcDbEntity
  8
0
370
    -3
  6
Continuous
100
AcDbCircle
 10
-214.404155
 20
-3.193096
 30
0.0
 40
16.0
100
AcDbArc
 50
289.876874
 51
349.518535
  0
ARC
  5
10F
100
AcDbEntity
  8
0
370
    -3
  6
Continuous
100
AcDbCircle
 10
-189.821309
 20
-7.741033
 30
0.0
 40
9.0
100
AcDbArc
 50
119.214548
 51
169.518535
  0
ARC
  5
110
100
AcDbEntity
  8
0
370
    -3
  6
Continuous
100
AcDbCircle
 10
-206.904155
 20
22.806904
 30
0.0
 40
26.0
100
AcDbArc
 50
299.214548
 51
358.362755
  0
ARC
  5
111
100
AcDbEntity
  8
0
370
    -3
  6
Continuous
100
AcDbCircle
 10
-171.918443
 20
21.806904
 30
0.0
 40
9.0
100
AcDbArc
 50
90.0
 51
178.362755
  0
LINE
  5
112
100
AcDbEntity
  8
0
370
    -3
  6
Continuous
100
AcDbLine
 10
-145.41479
 20
30.806904
 30
0.0
 11
-171.918443
 21
30.806904
 31
0.0
  0
LINE
  5
113
100
AcDbEntity
  8
0
370
    -3
  6
Continuous
100
AcDbLine
 10
-236.904155
 20
0.806904
 30
0.0
 11
-236.904155
 21
-159.192969
 31
0.0
  0
LINE
  5
114
100
AcDbEntity
  8
0
370
    -3
  6
Continuous
100
AcDbLine
 10
-236.904155
 20
-1.993096
 30
0.0
 11
-236.904155
 21
-82.193096
 31
0.0
  0
LINE
  5
115
100
AcDbEntity
  8
0
370
    -3
  6
Continuous
100
AcDbLine
 10
-236.904155
 20
-159.393096
 30
0.0
 11
-236.904155
 21
-79.193096
 31
0.0
  0
LINE
  5
116
100
AcDbEntity
  8
0
370
    -3
  6
Continuous
100
AcDbLine
 10
-254.904155
 20
-80.19328
 30
0.0
 11
-254.904155
 21
3.30672
 31
0.0
  0
LINE
  5
117
100
AcDbEntity
  8
0
370
    -3
  6
Continuous
100
AcDbLine
 10
-254.904155
 20
-80.19328
 30
0.0
 11
-254.904155
 21
-160.19328
 31
0.0
  0
ARC
  5
118
100
AcDbEntity
  8
0
370
    -3
  6
DASHED
100
AcDbCircle
 10
558.09587
 20
223.30685
 30
0.0
 40
390.8
100
AcDbArc
 50
267.020093
 51
270.0
  0
ARC
  5
119
100
AcDbEntity
  8
0
370
    -3
  6
DASHED
100
AcDbCircle
 10
541.200501
 20
-101.253694
 30
0.0
 40
65.8
100
AcDbArc
 50
231.262419
 51
267.020093
  0
ARC
  5
11A
100
AcDbEntity
  8
0
370
    -3
  6
DASHED
100
AcDbCircle
 10
558.09587
 20
223.30685
 30
0.0
 40
390.8
100
AcDbArc
 50
270.0
 51
272.979907
  0
ARC
  5
11B
100
AcDbEntity
  8
0
370
    -3
  6
DASHED
100
AcDbCircle
 10
574.991239
 20
-101.253694
 30
0.0
 40
65.8
100
AcDbArc
 50
272.979907
 51
308.737581
  0
ARC
  5
11C
100
AcDbEntity
  8
0
370
    -3
  6
DASHED
100
AcDbCircle
 10
579.156413
 20
-97.088519
 30
0.0
 40
65.8
100
AcDbArc
 50
321.262419
 51
357.020093
  0
ARC
  5
11D
100
AcDbEntity
  8
0
370
    -3
  6
DASHED
100
AcDbCircle
 10
558.09587
 20
-80.19315
 30
0.0
 40
92.8
100
AcDbArc
 50
308.737581
 51
315.0
  0
ARC
  5
11E
100
AcDbEntity
  8
0
370
    -3
  6
DASHED
100
AcDbCircle
 10
254.59587
 20
-80.19315
 30
0.0
 40
390.8
100
AcDbArc
 50
357.020093
 51
0.0
  0
ARC
  5
11F
100
AcDbEntity
  8
0
370
    -3
  6
DASHED
100
AcDbCircle
 10
537.035326
 20
-97.088519
 30
0.0
 40
65.8
100
AcDbArc
 50
182.979907
 51
218.737581
  0
ARC
  5
120
100
AcDbEntity
  8
0
370
    -3
  6
DASHED
100
AcDbCircle
 10
558.09587
 20
-80.19315
 30
0.0
 40
92.8
100
AcDbArc
 50
218.737581
 51
225.0
  0
ARC
  5
121
100
AcDbEntity
  8
0
370
    -3
  6
DASHED
100
AcDbCircle
 10
558.09587
 20
-80.19315
 30
0.0
 40
92.8
100
AcDbArc
 50
315.0
 51
321.262419
  0
ARC
  5
122
100
AcDbEntity
  8
0
370
    -3
  6
DASHED
100
AcDbCircle
 10
558.09587
 20
-80.19315
 30
0.0
 40
92.8
100
AcDbArc
 50
225.0
 51
231.262419
  0
ARC
  5
123
100
AcDbEntity
  8
0
370
    -3
  6
DASHED
100
AcDbCircle
 10
579.156413
 20
-63.297781
 30
0.0
 40
65.8
100
AcDbArc
 50
2.979907
 51
38.737581
  0
ARC
  5
124
100
AcDbEntity
  8
0
370
    -3
  6
DASHED
100
AcDbCircle
 10
558.09587
 20
-80.19315
 30
0.0
 40
92.8
100
AcDbArc
 50
45.0
 51
51.262419
  0
ARC
  5
125
100
AcDbEntity
  8
0
370
    -3
  6
DASHED
100
AcDbCircle
 10
254.59587
 20
-80.19315
 30
0.0
 40
390.8
100
AcDbArc
 50
0.0
 51
2.979907
  0
ARC
  5
126
100
AcDbEntity
  8
0
370
    -3
  6
DASHED
100
AcDbCircle
 10
537.035326
 20
-63.297781
 30
0.0
 40
65.8
100
AcDbArc
 50
141.262419
 51
177.020093
  0
ARC
  5
127
100
AcDbEntity
  8
0
370
    -3
  6
DASHED
100
AcDbCircle
 10
558.09587
 20
-80.19315
 30
0.0
 40
92.8
100
AcDbArc
 50
135.0
 51
141.262419
  0
ARC
  5
128
100
AcDbEntity
  8
0
370
    -3
  6
DASHED
100
AcDbCircle
 10
558.09587
 20
-80.19315
 30
0.0
 40
92.8
100
AcDbArc
 50
38.737581
 51
45.0
  0
ARC
  5
129
100
AcDbEntity
  8
0
370
    -3
  6
DASHED
100
AcDbCircle
 10
558.09587
 20
-80.19315
 30
0.0
 40
92.8
100
AcDbArc
 50
128.737581
 51
135.0
  0
ARC
  5
12A
100
AcDbEntity
  8
0
370
    -3
  6
DASHED
100
AcDbCircle
 10
861.59587
 20
-80.192411
 30
0.0
 40
390.8
100
AcDbArc
 50
177.020232
 51
180.000139
  0
ARC
  5
12B
100
AcDbEntity
  8
0
370
    -3
  6
DASHED
100
AcDbCircle
 10
861.59587
 20
-80.192411
 30
0.0
 40
390.8
100
AcDbArc
 50
180.000139
 51
182.980047
  0
ARC
  5
12C
100
AcDbEntity
  8
0
370
    -3
  6
DASHED
100
AcDbCircle
 10
558.095873
 20
-82.192736
 30
0.0
 40
105.5
100
AcDbArc
 50
32.477693
 51
32.541142
  0
LINE
  5
12D
100
AcDbEntity
  8
0
370
    -3
  6
CENTER
100
AcDbLine
 10
580.403461
 20
-80.19328
 30
0.0
 11
541.430936
 21
-80.19328
 31
0.0
  0
LINE
  5
12E
100
AcDbEntity
  8
0
370
    -3
  6
CENTER
100
AcDbLine
 10
654.910648
 20
-60.19328
 30
0.0
 11
462.085915
 21
-60.19328
 31
0.0
  0
LINE
  5
12F
100
AcDbEntity
  8
0
370
    -3
  6
Continuous
100
AcDbLine
 10
478.095873
 20
40.453369
 30
0.0
 11
478.095873
 21
-206.85339
 31
0.0
  0
LINE
  5
130
100
AcDbEntity
  8
0
370
    -3
  6
Continuous
100
AcDbLine
 10
561.095873
 20
-60.193464
 30
0.0
 11
561.095873
 21
-212.088702
 31
0.0
  0
LINE
  5
131
100
AcDbEntity
  8
0
370
    -3
  6
Continuous
100
AcDbLine
 10
491.595873
 20
43.484305
 30
0.0
 11
491.595873
 21
-209.871233
 31
0.0
  0
LINE
  5
132
100
AcDbEntity
  8
0
370
    -3
  6
Continuous
100
AcDbLine
 10
624.595873
 20
43.484305
 30
0.0
 11
624.595873
 21
-209.871233
 31
0.0
  0
LINE
  5
133
100
AcDbEntity
  8
0
370
    -3
  6
Continuous
100
AcDbLine
 10
473.095873
 20
14.80672
 30
0.0
 11
473.095873
 21
-135.19328
 31
0.0
  0
LINE
  5
134
100
AcDbEntity
  8
0
370
    -3
  6
Continuous
100
AcDbLine
 10
643.095873
 20
14.806536
 30
0.0
 11
643.095873
 21
-135.193464
 31
0.0
  0
LINE
  5
135
100
AcDbEntity
  8
0
370
    -3
  6
Continuous
100
AcDbLine
 10
638.095873
 20
40.453369
 30
0.0
 11
638.095873
 21
-206.85339
 31
0.0
  0
LINE
  5
136
100
AcDbEntity
  8
0
370
    -3
  6
Continuous
100
AcDbLine
 10
638.095873
 20
-135.193464
 30
0.0
 11
643.095873
 21
-135.193464
 31
0.0
  0
LINE
  5
137
100
AcDbEntity
  8
0
370
    -3
  6
Continuous
100
AcDbLine
 10
469.095797
 20
-20.192744
 30
0.0
 11
473.095873
 21
-20.192744
 31
0.0
  0
LINE
  5
138
100
AcDbEntity
  8
0
370
    -3
  6
Continuous
100
AcDbLine
 10
469.095894
 20
-100.192744
 30
0.0
 11
473.095873
 21
-100.192744
 31
0.0
  0
LINE
  5
139
100
AcDbEntity
  8
0
370
    -3
  6
Continuous
100
AcDbLine
 10
469.095797
 20
-20.192744
 30
0.0
 11
469.095894
 21
-100.192744
 31
0.0
  0
LINE
  5
13A
100
AcDbEntity
  8
0
370
    -3
  6
Continuous
100
AcDbLine
 10
647.095797
 20
-20.192744
 30
0.0
 11
647.095894
 21
-100.192744
 31
0.0
  0
LINE
  5
13B
100
AcDbEntity
  8
0
370
    -3
  6
Continuous
100
AcDbLine
 10
643.095873
 20
-20.192744
 30
0.0
 11
647.095797
 21
-20.192744
 31
0.0
  0
LINE
  5
13C
100
AcDbEntity
  8
0
370
    -3
  6
Continuous
100
AcDbLine
 10
643.095873
 20
-100.192744
 30
0.0
 11
647.095894
 21
-100.192744
 31
0.0
  0
LINE
  5
13D
100
AcDbEntity
  8
0
370
    -3
  6
Continuous
100
AcDbLine
 10
478.095873
 20
-135.19328
 30
0.0
 11
473.095873
 21
-135.19328
 31
0.0
  0
ARC
  5
13E
100
AcDbEntity
  8
0
370
    -3
  6
DASHED
100
AcDbCircle
 10
541.200501
 20
-59.132607
 30
0.0
 40
65.8
100
AcDbArc
 50
92.979907
 51
128.737581
  0
ARC
  5
13F
100
AcDbEntity
  8
0
370
    -3
  6
DASHED
100
AcDbCircle
 10
574.991239
 20
-59.132607
 30
0.0
 40
65.8
100
AcDbArc
 50
51.262419
 51
87.020093
  0
LINE
  5
140
100
AcDbEntity
  8
0
370
    -3
  6
CENTER
100
AcDbLine
 10
558.095679
 20
76.373641
 30
0.0
 11
558.096049
 21
-227.567392
 31
0.0
  0
LINE
  5
141
100
AcDbEntity
  8
0
370
    -3
  6
Continuous
100
AcDbLine
 10
561.095873
 20
45.701774
 30
0.0
 11
561.095873
 21
-60.193464
 31
0.0
  0
LINE
  5
142
100
AcDbEntity
  8
0
370
    -3
  6
Continuous
100
AcDbLine
 10
558.095873
 20
45.806536
 30
0.0
 11
558.095873
 21
-212.228385
 31
0.0
  0
LINE
  5
143
100
AcDbEntity
  8
0
370
    -3
  6
Continuous
100
AcDbLine
 10
558.095873
 20
43.806536
 30
0.0
 11
558.095873
 21
-210.193464
 31
0.0
  0
ARC
  5
144
100
AcDbEntity
  8
0
370
    -3
  6
DASHED
100
AcDbCircle
 10
558.09587
 20
-383.69315
 30
0.0
 40
390.8
100
AcDbArc
 50
87.020093
 51
90.0
  0
ARC
  5
145
100
AcDbEntity
  8
0
370
    -3
  6
DASHED
100
AcDbCircle
 10
558.09587
 20
-383.69315
 30
0.0
 40
390.8
100
AcDbArc
 50
90.0
 51
92.979907
  0
ARC
  5
146
100
AcDbEntity
  8
0
370
    -3
  6
Continuous
100
AcDbCircle
 10
-713.40418
 20
54.806956
 30
0.0
 40
10.0
100
AcDbArc
 50
90.0
 51
180.0
  0
ARC
  5
147
100
AcDbEntity
  8
0
370
    -3
  6
Continuous
100
AcDbCircle
 10
-692.40418
 20
54.806956
 30
0.0
 40
10.0
100
AcDbArc
 50
0.0
 51
90.0
  0
LINE
  5
148
100
AcDbEntity
  8
0
370
    -3
  6
Continuous
100
AcDbLine
 10
-713.40418
 20
64.806956
 30
0.0
 11
-692.40418
 21
64.806956
 31
0.0
  0
CIRCLE
  5
149
100
AcDbEntity
  8
0
370
    -3
  6
Continuous
100
AcDbCircle
 10
-702.90418
 20
44.806956
 30
0.0
 40
10.0
  0
LINE
  5
14A
100
AcDbEntity
  8
0
370
    -3
  6
CENTER
100
AcDbLine
 10
-717.843234
 20
44.806956
 30
0.0
 11
-691.102301
 21
44.806956
 31
0.0
  0
ARC
  5
14B
100
AcDbEntity
  8
0
370
    -3
  6
Continuous
100
AcDbCircle
 10
-718.40418
 20
14.806956
 30
0.0
 40
5.0
100
AcDbArc
 50
180.0
 51
270.0
  0
ARC
  5
14C
100
AcDbEntity
  8
0
370
    -3
  6
Continuous
100
AcDbCircle
 10
-687.40418
 20
14.806956
 30
0.0
 40
5.0
100
AcDbArc
 50
270.0
 51
0.0
  0
LINE
  5
14D
100
AcDbEntity
  8
0
370
    -3
  6
Continuous
100
AcDbLine
 10
-723.40418
 20
14.806956
 30
0.0
 11
-723.40418
 21
54.806956
 31
0.0
  0
LINE
  5
14E
100
AcDbEntity
  8
0
370
    -3
  6
Continuous
100
AcDbLine
 10
-682.40418
 20
14.806956
 30
0.0
 11
-682.40418
 21
54.806956
 31
0.0
  0
LINE
  5
14F
100
AcDbEntity
  8
0
370
    -3
  6
Continuous
100
AcDbLine
 10
-718.40418
 20
9.806956
 30
0.0
 11
-687.40418
 21
9.806956
 31
0.0
  0
LINE
  5
150
100
AcDbEntity
  8
0
370
    -3
  6
CENTER
100
AcDbLine
 10
-692.40418
 20
5.597608
 30
0.0
 11
-692.40418
 21
31.745469
 31
0.0
  0
LINE
  5
151
100
AcDbEntity
  8
0
370
    -3
  6
CENTER
100
AcDbLine
 10
-713.40418
 20
6.359201
 30
0.0
 11
-713.40418
 21
31.23774
 31
0.0
  0
LINE
  5
152
100
AcDbEntity
  8
0
370
    -3
  6
CENTER
100
AcDbLine
 10
-728.402378
 20
19.806956
 30
0.0
 11
-675.858035
 21
19.806956
 31
0.0
  0
INSERT
  5
15E
100
AcDbEntity
  8
0
100
AcDbBlockReference
  2
ZU_SYM__USERS_HOME_SYMBOL_POO_SYM_S07_-1
 10
-769.937903
 20
-13.158889
 30
0.0
 41
-1.0
 42
1.0
 50
135.0
  0
INSERT
  5
16A
100
AcDbEntity
  8
0
100
AcDbBlockReference
  2
ZU_SYM__USERS_HOME_SYMBOL_POO_SYM_S07_00001-1
 10
-769.937903
 20
-147.226334
 30
0.0
 41
1.0
 42
1.0
 50
45.0
  0
INSERT
  5
176
100
AcDbEntity
  8
0
100
AcDbBlockReference
  2
ZU_SYM__USERS_HOME_SYMBOL_POO_SYM_S07_00002-1
 10
-635.870457
 20
-147.226334
 30
0.0
 41
-1.0
 42
1.0
 50
315.0
  0
INSERT
  5
182
100
AcDbEntity
  8
0
100
AcDbBlockReference
  2
ZU_SYM__USERS_HOME_SYMBOL_POO_SYM_S07_00003-1
 10
-635.870457
 20
-13.158889
 30
0.0
 41
1.0
 42
1.0
 50
225.0
  0
ARC
  5
183
100
AcDbEntity
  8
0
370
    -3
  6
Continuous
100
AcDbCircle
 10
-702.90418
 20
-80.192612
 30
0.0
 40
76.8
100
AcDbArc
 50
128.737581
 51
141.262419
  0
ARC
  5
184
100
AcDbEntity
  8
0
370
    -3
  6
Continuous
100
AcDbCircle
 10
-702.90418
 20
-80.192612
 30
0.0
 40
92.8
100
AcDbArc
 50
128.737581
 51
141.262419
  0
ARC
  5
185
100
AcDbEntity
  8
0
370
    -3
  6
Continuous
100
AcDbCircle
 10
-723.964723
 20
-63.297242
 30
0.0
 40
65.8
100
AcDbArc
 50
141.262419
 51
177.020093
  0
ARC
  5
186
100
AcDbEntity
  8
0
370
    -3
  6
Continuous
100
AcDbCircle
 10
-719.799549
 20
-59.132068
 30
0.0
 40
65.8
100
AcDbArc
 50
92.979907
 51
128.737581
  0
LINE
  5
187
100
AcDbEntity
  8
0
370
    -3
  6
Continuous
100
AcDbLine
 10
-772.695619
 20
-17.47224
 30
0.0
 11
-771.963908
 21
-18.203951
 31
0.0
  0
LINE
  5
188
100
AcDbEntity
  8
0
370
    -3
  6
Continuous
100
AcDbLine
 10
-769.372217
 20
-13.724574
 30
0.0
 11
-772.695619
 21
-17.047976
 31
0.0
  0
LINE
  5
189
100
AcDbEntity
  8
0
370
    -3
  6
Continuous
100
AcDbLine
 10
-769.937903
 20
-13.158889
 30
0.0
 11
-773.119883
 21
-16.340869
 31
0.0
  0
LINE
  5
18A
100
AcDbEntity
  8
0
370
    -3
  6
Continuous
100
AcDbLine
 10
-770.892497
 20
-15.244854
 30
0.0
 11
-772.695619
 21
-17.047976
 31
0.0
  0
LINE
  5
18B
100
AcDbEntity
  8
0
370
    -3
  6
Continuous
100
AcDbLine
 10
-773.119883
 20
-16.340869
 30
0.0
 11
-772.554198
 21
-16.906555
 31
0.0
  0
ARC
  5
18C
100
AcDbEntity
  8
0
370
    -3
  6
Continuous
100
AcDbCircle
 10
-772.483487
 20
-17.260108
 30
0.0
 40
0.3
100
AcDbArc
 50
135.0
 51
225.0
  0
LINE
  5
18D
100
AcDbEntity
  8
0
370
    -3
  6
Continuous
100
AcDbLine
 10
-769.372217
 20
-13.724574
 30
0.0
 11
-766.048815
 21
-10.401172
 31
0.0
  0
LINE
  5
18E
100
AcDbEntity
  8
0
370
    -3
  6
Continuous
100
AcDbLine
 10
-769.937903
 20
-13.158889
 30
0.0
 11
-766.755922
 21
-9.976908
 31
0.0
  0
LINE
  5
18F
100
AcDbEntity
  8
0
370
    -3
  6
Continuous
100
AcDbLine
 10
-765.624551
 20
-10.401172
 30
0.0
 11
-764.89284
 21
-11.132884
 31
0.0
  0
LINE
  5
190
100
AcDbEntity
  8
0
370
    -3
  6
Continuous
100
AcDbLine
 10
-770.892497
 20
-15.244854
 30
0.0
 11
-772.554198
 21
-16.906555
 31
0.0
  0
LINE
  5
191
100
AcDbEntity
  8
0
370
    -3
  6
Continuous
100
AcDbLine
 10
-767.851938
 20
-12.204295
 30
0.0
 11
-766.048815
 21
-10.401172
 31
0.0
  0
LINE
  5
192
100
AcDbEntity
  8
0
370
    -3
  6
Continuous
100
AcDbLine
 10
-766.755922
 20
-9.976908
 30
0.0
 11
-766.190237
 21
-10.542594
 31
0.0
  0
ARC
  5
193
100
AcDbEntity
  8
0
370
    -3
  6
Continuous
100
AcDbCircle
 10
-765.836683
 20
-10.613304
 30
0.0
 40
0.3
100
AcDbArc
 50
45.0
 51
135.0
  0
ARC
  5
194
100
AcDbEntity
  8
0
370
    -3
  6
Continuous
100
AcDbCircle
 10
-702.90418
 20
-80.192612
 30
0.0
 40
92.8
100
AcDbArc
 50
218.737581
 51
231.262419
  0
ARC
  5
195
100
AcDbEntity
  8
0
370
    -3
  6
Continuous
100
AcDbCircle
 10
-723.964723
 20
-97.087981
 30
0.0
 40
65.8
100
AcDbArc
 50
182.979907
 51
218.737581
  0
LINE
  5
196
100
AcDbEntity
  8
0
370
    -3
  6
Continuous
100
AcDbLine
 10
-769.372217
 20
-146.660649
 30
0.0
 11
-772.695619
 21
-143.337247
 31
0.0
  0
LINE
  5
197
100
AcDbEntity
  8
0
370
    -3
  6
Continuous
100
AcDbLine
 10
-769.937903
 20
-147.226334
 30
0.0
 11
-773.119883
 21
-144.044354
 31
0.0
  0
LINE
  5
198
100
AcDbEntity
  8
0
370
    -3
  6
Continuous
100
AcDbLine
 10
-772.695619
 20
-142.912983
 30
0.0
 11
-771.963908
 21
-142.181272
 31
0.0
  0
LINE
  5
199
100
AcDbEntity
  8
0
370
    -3
  6
Continuous
100
AcDbLine
 10
-770.892497
 20
-145.140369
 30
0.0
 11
-772.695619
 21
-143.337247
 31
0.0
  0
LINE
  5
19A
100
AcDbEntity
  8
0
370
    -3
  6
Continuous
100
AcDbLine
 10
-773.119883
 20
-144.044354
 30
0.0
 11
-772.554198
 21
-143.478669
 31
0.0
  0
ARC
  5
19B
100
AcDbEntity
  8
0
370
    -3
  6
Continuous
100
AcDbCircle
 10
-772.483487
 20
-143.125115
 30
0.0
 40
0.3
100
AcDbArc
 50
135.0
 51
225.0
  0
LINE
  5
19C
100
AcDbEntity
  8
0
370
    -3
  6
Continuous
100
AcDbLine
 10
-769.372217
 20
-146.660649
 30
0.0
 11
-766.048815
 21
-149.984051
 31
0.0
  0
LINE
  5
19D
100
AcDbEntity
  8
0
370
    -3
  6
Continuous
100
AcDbLine
 10
-769.937903
 20
-147.226334
 30
0.0
 11
-766.755922
 21
-150.408315
 31
0.0
  0
LINE
  5
19E
100
AcDbEntity
  8
0
370
    -3
  6
Continuous
100
AcDbLine
 10
-765.624551
 20
-149.984051
 30
0.0
 11
-764.89284
 21
-149.252339
 31
0.0
  0
LINE
  5
19F
100
AcDbEntity
  8
0
370
    -3
  6
Continuous
100
AcDbLine
 10
-770.892497
 20
-145.140369
 30
0.0
 11
-772.554198
 21
-143.478669
 31
0.0
  0
LINE
  5
1A0
100
AcDbEntity
  8
0
370
    -3
  6
Continuous
100
AcDbLine
 10
-767.851938
 20
-148.180929
 30
0.0
 11
-766.048815
 21
-149.984051
 31
0.0
  0
LINE
  5
1A1
100
AcDbEntity
  8
0
370
    -3
  6
Continuous
100
AcDbLine
 10
-766.755922
 20
-150.408315
 30
0.0
 11
-766.190237
 21
-149.84263
 31
0.0
  0
ARC
  5
1A2
100
AcDbEntity
  8
0
370
    -3
  6
Continuous
100
AcDbCircle
 10
-765.836683
 20
-149.771919
 30
0.0
 40
0.3
100
AcDbArc
 50
225.0
 51
315.0
  0
ARC
  5
1A3
100
AcDbEntity
  8
0
370
    -3
  6
Continuous
100
AcDbCircle
 10
-702.90418
 20
-80.192612
 30
0.0
 40
76.8
100
AcDbArc
 50
308.737581
 51
321.262419
  0
ARC
  5
1A4
100
AcDbEntity
  8
0
370
    -3
  6
Continuous
100
AcDbCircle
 10
-702.90418
 20
-80.192612
 30
0.0
 40
92.8
100
AcDbArc
 50
308.737581
 51
321.262419
  0
ARC
  5
1A5
100
AcDbEntity
  8
0
370
    -3
  6
Continuous
100
AcDbCircle
 10
-681.843636
 20
-97.087981
 30
0.0
 40
65.8
100
AcDbArc
 50
321.262419
 51
357.020093
  0
ARC
  5
1A6
100
AcDbEntity
  8
0
370
    -3
  6
Continuous
100
AcDbCircle
 10
-686.008811
 20
-101.253155
 30
0.0
 40
65.8
100
AcDbArc
 50
272.979907
 51
308.737581
  0
LINE
  5
1A7
100
AcDbEntity
  8
0
370
    -3
  6
Continuous
100
AcDbLine
 10
-636.436142
 20
-146.660649
 30
0.0
 11
-633.11274
 21
-143.337247
 31
0.0
  0
LINE
  5
1A8
100
AcDbEntity
  8
0
370
    -3
  6
Continuous
100
AcDbLine
 10
-635.870457
 20
-147.226334
 30
0.0
 11
-632.688476
 21
-144.044354
 31
0.0
  0
LINE
  5
1A9
100
AcDbEntity
  8
0
370
    -3
  6
Continuous
100
AcDbLine
 10
-633.11274
 20
-142.912983
 30
0.0
 11
-633.844452
 21
-142.181272
 31
0.0
  0
LINE
  5
1AA
100
AcDbEntity
  8
0
370
    -3
  6
Continuous
100
AcDbLine
 10
-634.915863
 20
-145.140369
 30
0.0
 11
-633.11274
 21
-143.337247
 31
0.0
  0
LINE
  5
1AB
100
AcDbEntity
  8
0
370
    -3
  6
Continuous
100
AcDbLine
 10
-632.688476
 20
-144.044354
 30
0.0
 11
-633.254162
 21
-143.478669
 31
0.0
  0
ARC
  5
1AC
100
AcDbEntity
  8
0
370
    -3
  6
Continuous
100
AcDbCircle
 10
-633.324873
 20
-143.125115
 30
0.0
 40
0.3
100
AcDbArc
 50
315.0
 51
45.0
  0
LINE
  5
1AD
100
AcDbEntity
  8
0
370
    -3
  6
Continuous
100
AcDbLine
 10
-636.436142
 20
-146.660649
 30
0.0
 11
-639.759544
 21
-149.984051
 31
0.0
  0
LINE
  5
1AE
100
AcDbEntity
  8
0
370
    -3
  6
Continuous
100
AcDbLine
 10
-635.870457
 20
-147.226334
 30
0.0
 11
-639.052437
 21
-150.408315
 31
0.0
  0
LINE
  5
1AF
100
AcDbEntity
  8
0
370
    -3
  6
Continuous
100
AcDbLine
 10
-640.183808
 20
-149.984051
 30
0.0
 11
-640.91552
 21
-149.252339
 31
0.0
  0
LINE
  5
1B0
100
AcDbEntity
  8
0
370
    -3
  6
Continuous
100
AcDbLine
 10
-634.915863
 20
-145.140369
 30
0.0
 11
-633.254162
 21
-143.478669
 31
0.0
  0
LINE
  5
1B1
100
AcDbEntity
  8
0
370
    -3
  6
Continuous
100
AcDbLine
 10
-637.956422
 20
-148.180929
 30
0.0
 11
-639.759544
 21
-149.984051
 31
0.0
  0
LINE
  5
1B2
100
AcDbEntity
  8
0
370
    -3
  6
Continuous
100
AcDbLine
 10
-639.052437
 20
-150.408315
 30
0.0
 11
-639.618123
 21
-149.84263
 31
0.0
  0
ARC
  5
1B3
100
AcDbEntity
  8
0
370
    -3
  6
Continuous
100
AcDbCircle
 10
-639.971676
 20
-149.771919
 30
0.0
 40
0.3
100
AcDbArc
 50
225.0
 51
315.0
  0
ARC
  5
1B4
100
AcDbEntity
  8
0
370
    -3
  6
Continuous
100
AcDbCircle
 10
-702.90418
 20
-80.192612
 30
0.0
 40
92.8
100
AcDbArc
 50
38.737581
 51
51.262419
  0
ARC
  5
1B5
100
AcDbEntity
  8
0
370
    -3
  6
Continuous
100
AcDbCircle
 10
-686.008811
 20
-59.132068
 30
0.0
 40
65.8
100
AcDbArc
 50
51.262419
 51
87.020093
  0
LINE
  5
1B6
100
AcDbEntity
  8
0
370
    -3
  6
Continuous
100
AcDbLine
 10
-636.436142
 20
-13.724574
 30
0.0
 11
-633.11274
 21
-17.047976
 31
0.0
  0
LINE
  5
1B7
100
AcDbEntity
  8
0
370
    -3
  6
Continuous
100
AcDbLine
 10
-635.870457
 20
-13.158889
 30
0.0
 11
-632.688476
 21
-16.340869
 31
0.0
  0
LINE
  5
1B8
100
AcDbEntity
  8
0
370
    -3
  6
Continuous
100
AcDbLine
 10
-633.11274
 20
-17.47224
 30
0.0
 11
-633.844452
 21
-18.203951
 31
0.0
  0
LINE
  5
1B9
100
AcDbEntity
  8
0
370
    -3
  6
Continuous
100
AcDbLine
 10
-634.915863
 20
-15.244854
 30
0.0
 11
-633.11274
 21
-17.047976
 31
0.0
  0
LINE
  5
1BA
100
AcDbEntity
  8
0
370
    -3
  6
Continuous
100
AcDbLine
 10
-632.688476
 20
-16.340869
 30
0.0
 11
-633.254162
 21
-16.906555
 31
0.0
  0
ARC
  5
1BB
100
AcDbEntity
  8
0
370
    -3
  6
Continuous
100
AcDbCircle
 10
-633.324873
 20
-17.260108
 30
0.0
 40
0.3
100
AcDbArc
 50
315.0
 51
45.0
  0
LINE
  5
1BC
100
AcDbEntity
  8
0
370
    -3
  6
Continuous
100
AcDbLine
 10
-636.436142
 20
-13.724574
 30
0.0
 11
-639.759544
 21
-10.401172
 31
0.0
  0
LINE
  5
1BD
100
AcDbEntity
  8
0
370
    -3
  6
Continuous
100
AcDbLine
 10
-635.870457
 20
-13.158889
 30
0.0
 11
-639.052437
 21
-9.976908
 31
0.0
  0
LINE
  5
1BE
100
AcDbEntity
  8
0
370
    -3
  6
Continuous
100
AcDbLine
 10
-640.183808
 20
-10.401172
 30
0.0
 11
-640.91552
 21
-11.132884
 31
0.0
  0
LINE
  5
1BF
100
AcDbEntity
  8
0
370
    -3
  6
Continuous
100
AcDbLine
 10
-634.915863
 20
-15.244854
 30
0.0
 11
-633.254162
 21
-16.906555
 31
0.0
  0
LINE
  5
1C0
100
AcDbEntity
  8
0
370
    -3
  6
Continuous
100
AcDbLine
 10
-637.956422
 20
-12.204295
 30
0.0
 11
-639.759544
 21
-10.401172
 31
0.0
  0
LINE
  5
1C1
100
AcDbEntity
  8
0
370
    -3
  6
Continuous
100
AcDbLine
 10
-639.052437
 20
-9.976908
 30
0.0
 11
-639.618123
 21
-10.542594
 31
0.0
  0
ARC
  5
1C2
100
AcDbEntity
  8
0
370
    -3
  6
Continuous
100
AcDbCircle
 10
-639.971676
 20
-10.613304
 30
0.0
 40
0.3
100
AcDbArc
 50
45.0
 51
135.0
  0
ARC
  5
1C3
100
AcDbEntity
  8
0
370
    -3
  6
Continuous
100
AcDbCircle
 10
-739.45715
 20
-28.881011
 30
0.0
 40
2.0
100
AcDbArc
 50
30.0
 51
125.465024
  0
ARC
  5
1C4
100
AcDbEntity
  8
0
370
    -3
  6
Continuous
100
AcDbCircle
 10
-739.45715
 20
-131.504213
 30
0.0
 40
2.0
100
AcDbArc
 50
234.534976
 51
330.0
  0
ARC
  5
1C5
100
AcDbEntity
  8
0
370
    -3
  6
Continuous
100
AcDbCircle
 10
-738.954829
 20
-130.634168
 30
0.0
 40
2.0
100
AcDbArc
 50
330.0
 51
54.446556
  0
ARC
  5
1C6
100
AcDbEntity
  8
0
370
    -3
  6
Continuous
100
AcDbCircle
 10
-734.429973
 20
-122.796888
 30
0.0
 40
2.0
100
AcDbArc
 50
233.49975
 51
330.0
  0
ARC
  5
1C7
100
AcDbEntity
  8
0
370
    -3
  6
Continuous
100
AcDbCircle
 10
-732.667841
 20
-119.744785
 30
0.0
 40
2.0
100
AcDbArc
 50
330.0
 51
53.037937
  0
ARC
  5
1C8
100
AcDbEntity
  8
0
370
    -3
  6
Continuous
100
AcDbCircle
 10
-728.126877
 20
-111.879605
 30
0.0
 40
2.0
100
AcDbArc
 50
231.480376
 51
330.0
  0
ARC
  5
1C9
100
AcDbEntity
  8
0
370
    -3
  6
Continuous
100
AcDbCircle
 10
-726.355468
 20
-108.811435
 30
0.0
 40
2.0
100
AcDbArc
 50
330.0
 51
50.667582
  0
ARC
  5
1CA
100
AcDbEntity
  8
0
370
    -3
  6
Continuous
100
AcDbCircle
 10
-721.775127
 20
-100.87805
 30
0.0
 40
2.0
100
AcDbArc
 50
227.626375
 51
330.0
  0
ARC
  5
1CB
100
AcDbEntity
  8
0
370
    -3
  6
Continuous
100
AcDbCircle
 10
-719.977306
 20
-97.764133
 30
0.0
 40
2.0
100
AcDbArc
 50
330.0
 51
45.824196
  0
ARC
  5
1CC
100
AcDbEntity
  8
0
370
    -3
  6
Continuous
100
AcDbCircle
 10
-715.246135
 20
-89.569505
 30
0.0
 40
2.0
100
AcDbArc
 50
217.226028
 51
330.0
  0
ARC
  5
1CD
100
AcDbEntity
  8
0
370
    -3
  6
Continuous
100
AcDbCircle
 10
-713.296485
 20
-86.192612
 30
0.0
 40
2.0
100
AcDbArc
 50
330.0
 51
30.0
  0
ARC
  5
1CE
100
AcDbEntity
  8
0
370
    -3
  6
Continuous
100
AcDbCircle
 10
-702.90418
 20
-92.192612
 30
0.0
 40
2.0
100
AcDbArc
 50
90.0
 51
150.0
  0
ARC
  5
1CF
100
AcDbEntity
  8
0
370
    -3
  6
Continuous
100
AcDbCircle
 10
-704.85383
 20
-95.569505
 30
0.0
 40
2.0
100
AcDbArc
 50
150.0
 51
262.773972
  0
ARC
  5
1D0
100
AcDbEntity
  8
0
370
    -3
  6
Continuous
100
AcDbCircle
 10
-709.585001
 20
-103.764133
 30
0.0
 40
2.0
100
AcDbArc
 50
74.175804
 51
150.0
  0
ARC
  5
1D1
100
AcDbEntity
  8
0
370
    -3
  6
Continuous
100
AcDbCircle
 10
-711.382822
 20
-106.87805
 30
0.0
 40
2.0
100
AcDbArc
 50
150.0
 51
252.373625
  0
ARC
  5
1D2
100
AcDbEntity
  8
0
370
    -3
  6
Continuous
100
AcDbCircle
 10
-715.963164
 20
-114.811435
 30
0.0
 40
2.0
100
AcDbArc
 50
69.332418
 51
150.0
  0
ARC
  5
1D3
100
AcDbEntity
  8
0
370
    -3
  6
Continuous
100
AcDbCircle
 10
-717.734572
 20
-117.879605
 30
0.0
 40
2.0
100
AcDbArc
 50
150.0
 51
248.519624
  0
ARC
  5
1D4
100
AcDbEntity
  8
0
370
    -3
  6
Continuous
100
AcDbCircle
 10
-722.275536
 20
-125.744785
 30
0.0
 40
2.0
100
AcDbArc
 50
66.962063
 51
150.0
  0
ARC
  5
1D5
100
AcDbEntity
  8
0
370
    -3
  6
Continuous
100
AcDbCircle
 10
-724.037668
 20
-128.796888
 30
0.0
 40
2.0
100
AcDbArc
 50
150.0
 51
246.50025
  0
ARC
  5
1D6
100
AcDbEntity
  8
0
370
    -3
  6
Continuous
100
AcDbCircle
 10
-728.562525
 20
-136.634168
 30
0.0
 40
2.0
100
AcDbArc
 50
65.553444
 51
150.0
  0
ARC
  5
1D7
100
AcDbEntity
  8
0
370
    -3
  6
Continuous
100
AcDbCircle
 10
-729.064845
 20
-137.504213
 30
0.0
 40
2.0
100
AcDbArc
 50
150.0
 51
245.465024
  0
LINE
  5
1D8
100
AcDbEntity
  8
0
370
    -3
  6
Continuous
100
AcDbLine
 10
-737.222779
 20
-131.634168
 30
0.0
 11
-737.725099
 21
-132.504213
 31
0.0
  0
LINE
  5
1D9
100
AcDbEntity
  8
0
370
    -3
  6
Continuous
100
AcDbLine
 10
-730.93579
 20
-120.744785
 30
0.0
 11
-732.697923
 21
-123.796888
 31
0.0
  0
LINE
  5
1DA
100
AcDbEntity
  8
0
370
    -3
  6
Continuous
100
AcDbLine
 10
-724.623418
 20
-109.811435
 30
0.0
 11
-726.394826
 21
-112.879605
 31
0.0
  0
LINE
  5
1DB
100
AcDbEntity
  8
0
370
    -3
  6
Continuous
100
AcDbLine
 10
-718.245255
 20
-98.764133
 30
0.0
 11
-720.043076
 21
-101.87805
 31
0.0
  0
LINE
  5
1DC
100
AcDbEntity
  8
0
370
    -3
  6
Continuous
100
AcDbLine
 10
-711.317052
 20
-102.764133
 30
0.0
 11
-713.114873
 21
-105.87805
 31
0.0
  0
LINE
  5
1DD
100
AcDbEntity
  8
0
370
    -3
  6
Continuous
100
AcDbLine
 10
-717.695214
 20
-113.811435
 30
0.0
 11
-719.466623
 21
-116.879605
 31
0.0
  0
LINE
  5
1DE
100
AcDbEntity
  8
0
370
    -3
  6
Continuous
100
AcDbLine
 10
-724.007587
 20
-124.744785
 30
0.0
 11
-725.769719
 21
-127.796888
 31
0.0
  0
LINE
  5
1DF
100
AcDbEntity
  8
0
370
    -3
  6
Continuous
100
AcDbLine
 10
-730.294575
 20
-135.634168
 30
0.0
 11
-730.796896
 21
-136.504213
 31
0.0
  0
LINE
  5
1E0
100
AcDbEntity
  8
0
370
    -3
  6
Continuous
100
AcDbLine
 10
-711.564434
 20
-87.192612
 30
0.0
 11
-713.514084
 21
-90.569505
 31
0.0
  0
LINE
  5
1E1
100
AcDbEntity
  8
0
370
    -3
  6
Continuous
100
AcDbLine
 10
-704.636231
 20
-91.192612
 30
0.0
 11
-706.585881
 21
-94.569505
 31
0.0
  0
ARC
  5
1E2
100
AcDbEntity
  8
0
370
    -3
  6
Continuous
100
AcDbCircle
 10
-721.775127
 20
-59.507173
 30
0.0
 40
2.0
100
AcDbArc
 50
30.0
 51
132.373625
  0
ARC
  5
1E3
100
AcDbEntity
  8
0
370
    -3
  6
Continuous
100
AcDbCircle
 10
-719.977306
 20
-62.62109
 30
0.0
 40
2.0
100
AcDbArc
 50
314.175804
 51
30.0
  0
LINE
  5
1E4
100
AcDbEntity
  8
0
370
    -3
  6
Continuous
100
AcDbLine
 10
-718.245255
 20
-61.62109
 30
0.0
 11
-720.043076
 21
-58.507173
 31
0.0
  0
ARC
  5
1E5
100
AcDbEntity
  8
0
370
    -3
  6
Continuous
100
AcDbCircle
 10
-722.275536
 20
-34.640438
 30
0.0
 40
2.0
100
AcDbArc
 50
210.0
 51
293.037937
  0
ARC
  5
1E6
100
AcDbEntity
  8
0
370
    -3
  6
Continuous
100
AcDbCircle
 10
-693.45933
 20
-53.833651
 30
0.0
 40
2.0
100
AcDbArc
 50
330.0
 51
70.286561
  0
ARC
  5
1E7
100
AcDbEntity
  8
0
370
    -3
  6
Continuous
100
AcDbCircle
 10
-695.242122
 20
-56.921538
 30
0.0
 40
2.0
100
AcDbArc
 50
251.775744
 51
330.0
  0
ARC
  5
1E8
100
AcDbEntity
  8
0
370
    -3
  6
Continuous
100
AcDbCircle
 10
-709.585001
 20
-56.62109
 30
0.0
 40
2.0
100
AcDbArc
 50
210.0
 51
285.824196
  0
ARC
  5
1E9
100
AcDbEntity
  8
0
370
    -3
  6
Continuous
100
AcDbCircle
 10
-711.382822
 20
-53.507173
 30
0.0
 40
2.0
100
AcDbArc
 50
107.626375
 51
210.0
  0
ARC
  5
1EA
100
AcDbEntity
  8
0
370
    -3
  6
Continuous
100
AcDbCircle
 10
-717.734572
 20
-42.505618
 30
0.0
 40
2.0
100
AcDbArc
 50
111.480376
 51
210.0
  0
ARC
  5
1EB
100
AcDbEntity
  8
0
370
    -3
  6
Continuous
100
AcDbCircle
 10
-715.963164
 20
-45.573788
 30
0.0
 40
2.0
100
AcDbArc
 50
210.0
 51
290.667582
  0
ARC
  5
1EC
100
AcDbEntity
  8
0
370
    -3
  6
Continuous
100
AcDbCircle
 10
-726.355468
 20
-51.573788
 30
0.0
 40
2.0
100
AcDbArc
 50
309.332418
 51
30.0
  0
ARC
  5
1ED
100
AcDbEntity
  8
0
370
    -3
  6
Continuous
100
AcDbCircle
 10
-728.126877
 20
-48.505618
 30
0.0
 40
2.0
100
AcDbArc
 50
30.0
 51
128.519624
  0
ARC
  5
1EE
100
AcDbEntity
  8
0
370
    -3
  6
Continuous
100
AcDbCircle
 10
-726.88855
 20
-75.192612
 30
0.0
 40
2.0
100
AcDbArc
 50
270.0
 51
348.224256
  0
ARC
  5
1EF
100
AcDbEntity
  8
0
370
    -3
  6
Continuous
100
AcDbCircle
 10
-730.454134
 20
-75.192612
 30
0.0
 40
2.0
100
AcDbArc
 50
169.713439
 51
270.0
  0
ARC
  5
1F0
100
AcDbEntity
  8
0
370
    -3
  6
Continuous
100
AcDbCircle
 10
-739.564785
 20
-75.192612
 30
0.0
 40
2.0
100
AcDbArc
 50
270.0
 51
352.233566
  0
ARC
  5
1F1
100
AcDbEntity
  8
0
370
    -3
  6
Continuous
100
AcDbCircle
 10
-743.094353
 20
-75.192612
 30
0.0
 40
2.0
100
AcDbArc
 50
172.908354
 51
270.0
  0
ARC
  5
1F2
100
AcDbEntity
  8
0
370
    -3
  6
Continuous
100
AcDbCircle
 10
-743.094353
 20
-85.192612
 30
0.0
 40
2.0
100
AcDbArc
 50
90.0
 51
187.091646
  0
ARC
  5
1F3
100
AcDbEntity
  8
0
370
    -3
  6
Continuous
100
AcDbCircle
 10
-739.564785
 20
-85.192612
 30
0.0
 40
2.0
100
AcDbArc
 50
7.766434
 51
90.0
  0
ARC
  5
1F4
100
AcDbEntity
  8
0
370
    -3
  6
Continuous
100
AcDbCircle
 10
-730.454134
 20
-85.192612
 30
0.0
 40
2.0
100
AcDbArc
 50
90.0
 51
190.286561
  0
ARC
  5
1F5
100
AcDbEntity
  8
0
370
    -3
  6
Continuous
100
AcDbCircle
 10
-726.88855
 20
-85.192612
 30
0.0
 40
2.0
100
AcDbArc
 50
11.775744
 51
90.0
  0
ARC
  5
1F6
100
AcDbEntity
  8
0
370
    -3
  6
Continuous
100
AcDbCircle
 10
-687.13922
 20
-117.498322
 30
0.0
 40
2.0
100
AcDbArc
 50
292.908354
 51
30.0
  0
ARC
  5
1F7
100
AcDbEntity
  8
0
370
    -3
  6
Continuous
100
AcDbCircle
 10
-688.904004
 20
-114.441627
 30
0.0
 40
2.0
100
AcDbArc
 50
30.0
 51
112.233566
  0
ARC
  5
1F8
100
AcDbEntity
  8
0
370
    -3
  6
Continuous
100
AcDbCircle
 10
-693.45933
 20
-106.551572
 30
0.0
 40
2.0
100
AcDbArc
 50
289.713439
 51
30.0
  0
ARC
  5
1F9
100
AcDbEntity
  8
0
370
    -3
  6
Continuous
100
AcDbCircle
 10
-695.242122
 20
-103.463685
 30
0.0
 40
2.0
100
AcDbArc
 50
30.0
 51
108.224256
  0
ARC
  5
1FA
100
AcDbEntity
  8
0
370
    -3
  6
Continuous
100
AcDbCircle
 10
-699.898606
 20
-95.398417
 30
0.0
 40
2.0
100
AcDbArc
 50
281.180937
 51
30.0
  0
ARC
  5
1FB
100
AcDbEntity
  8
0
370
    -3
  6
Continuous
100
AcDbCircle
 10
-701.779951
 20
-92.139833
 30
0.0
 40
2.0
100
AcDbArc
 50
30.0
 51
95.375682
  0
ARC
  5
1FC
100
AcDbEntity
  8
0
370
    -3
  6
Continuous
100
AcDbCircle
 10
-713.812892
 20
-85.192612
 30
0.0
 40
2.0
100
AcDbArc
 50
24.624318
 51
90.0
  0
ARC
  5
1FD
100
AcDbEntity
  8
0
370
    -3
  6
Continuous
100
AcDbCircle
 10
-717.575581
 20
-85.192612
 30
0.0
 40
2.0
100
AcDbArc
 50
90.0
 51
198.819063
  0
ARC
  5
1FE
100
AcDbEntity
  8
0
370
    -3
  6
Continuous
100
AcDbCircle
 10
-717.575581
 20
-75.192612
 30
0.0
 40
2.0
100
AcDbArc
 50
161.180937
 51
270.0
  0
ARC
  5
1FF
100
AcDbEntity
  8
0
370
    -3
  6
Continuous
100
AcDbCircle
 10
-715.246135
 20
-70.815718
 30
0.0
 40
2.0
100
AcDbArc
 50
30.0
 51
142.773972
  0
ARC
  5
200
100
AcDbEntity
  8
0
370
    -3
  6
Continuous
100
AcDbCircle
 10
-713.812892
 20
-75.192612
 30
0.0
 40
2.0
100
AcDbArc
 50
270.0
 51
335.375682
  0
ARC
  5
201
100
AcDbEntity
  8
0
370
    -3
  6
Continuous
100
AcDbCircle
 10
-713.296485
 20
-74.192612
 30
0.0
 40
2.0
100
AcDbArc
 50
330.0
 51
30.0
  0
ARC
  5
202
100
AcDbEntity
  8
0
370
    -3
  6
Continuous
100
AcDbCircle
 10
-702.90418
 20
-68.192612
 30
0.0
 40
2.0
100
AcDbArc
 50
210.0
 51
270.0
  0
ARC
  5
203
100
AcDbEntity
  8
0
370
    -3
  6
Continuous
100
AcDbCircle
 10
-704.85383
 20
-64.815718
 30
0.0
 40
2.0
100
AcDbArc
 50
97.226028
 51
210.0
  0
ARC
  5
204
100
AcDbEntity
  8
0
370
    -3
  6
Continuous
100
AcDbCircle
 10
-699.898606
 20
-64.986806
 30
0.0
 40
2.0
100
AcDbArc
 50
330.0
 51
78.819063
  0
ARC
  5
205
100
AcDbEntity
  8
0
370
    -3
  6
Continuous
100
AcDbCircle
 10
-701.779951
 20
-68.24539
 30
0.0
 40
2.0
100
AcDbArc
 50
264.624318
 51
330.0
  0
ARC
  5
206
100
AcDbEntity
  8
0
370
    -3
  6
Continuous
100
AcDbCircle
 10
-693.119697
 20
-73.24539
 30
0.0
 40
2.0
100
AcDbArc
 50
150.0
 51
215.375682
  0
ARC
  5
207
100
AcDbEntity
  8
0
370
    -3
  6
Continuous
100
AcDbCircle
 10
-692.511875
 20
-74.192612
 30
0.0
 40
2.0
100
AcDbArc
 50
210.0
 51
270.0
  0
ARC
  5
208
100
AcDbEntity
  8
0
370
    -3
  6
Continuous
100
AcDbCircle
 10
-691.238352
 20
-69.986806
 30
0.0
 40
2.0
100
AcDbArc
 50
41.180937
 51
150.0
  0
ARC
  5
209
100
AcDbEntity
  8
0
370
    -3
  6
Continuous
100
AcDbCircle
 10
-688.612574
 20
-74.192612
 30
0.0
 40
2.0
100
AcDbArc
 50
270.0
 51
22.773972
  0
ARC
  5
20A
100
AcDbEntity
  8
0
370
    -3
  6
Continuous
100
AcDbCircle
 10
-679.150233
 20
-74.192612
 30
0.0
 40
2.0
100
AcDbArc
 50
194.175804
 51
270.0
  0
ARC
  5
20B
100
AcDbEntity
  8
0
370
    -3
  6
Continuous
100
AcDbCircle
 10
-686.581868
 20
-61.921538
 30
0.0
 40
2.0
100
AcDbArc
 50
150.0
 51
228.224256
  0
ARC
  5
20C
100
AcDbEntity
  8
0
370
    -3
  6
Continuous
100
AcDbCircle
 10
-684.799075
 20
-58.833651
 30
0.0
 40
2.0
100
AcDbArc
 50
49.713439
 51
150.0
  0
ARC
  5
20D
100
AcDbEntity
  8
0
370
    -3
  6
Continuous
100
AcDbCircle
 10
-675.554591
 20
-74.192612
 30
0.0
 40
2.0
100
AcDbArc
 50
270.0
 51
12.373625
  0
ARC
  5
20E
100
AcDbEntity
  8
0
370
    -3
  6
Continuous
100
AcDbCircle
 10
-682.610893
 20
-35.043608
 30
0.0
 40
2.0
100
AcDbArc
 50
245.79734
 51
330.0
  0
ARC
  5
20F
100
AcDbEntity
  8
0
370
    -3
  6
Continuous
100
AcDbCircle
 10
-687.13922
 20
-42.886901
 30
0.0
 40
2.0
100
AcDbArc
 50
330.0
 51
67.091646
  0
ARC
  5
210
100
AcDbEntity
  8
0
370
    -3
  6
Continuous
100
AcDbCircle
 10
-688.904004
 20
-45.943596
 30
0.0
 40
2.0
100
AcDbArc
 50
247.766434
 51
330.0
  0
ARC
  5
211
100
AcDbEntity
  8
0
370
    -3
  6
Continuous
100
AcDbCircle
 10
-678.478966
 20
-47.886901
 30
0.0
 40
2.0
100
AcDbArc
 50
52.908354
 51
150.0
  0
ARC
  5
212
100
AcDbEntity
  8
0
370
    -3
  6
Continuous
100
AcDbCircle
 10
-680.24375
 20
-50.943596
 30
0.0
 40
2.0
100
AcDbArc
 50
150.0
 51
232.233566
  0
ARC
  5
213
100
AcDbEntity
  8
0
370
    -3
  6
Continuous
100
AcDbCircle
 10
-666.393907
 20
-74.192612
 30
0.0
 40
2.0
100
AcDbArc
 50
189.332418
 51
270.0
  0
ARC
  5
214
100
AcDbEntity
  8
0
370
    -3
  6
Continuous
100
AcDbCircle
 10
-662.85109
 20
-74.192612
 30
0.0
 40
2.0
100
AcDbArc
 50
270.0
 51
8.519624
  0
ARC
  5
215
100
AcDbEntity
  8
0
370
    -3
  6
Continuous
100
AcDbCircle
 10
-673.950639
 20
-40.043608
 30
0.0
 40
2.0
100
AcDbArc
 50
150.0
 51
234.20266
  0
ARC
  5
216
100
AcDbEntity
  8
0
370
    -3
  6
Continuous
100
AcDbCircle
 10
-653.769162
 20
-74.192612
 30
0.0
 40
2.0
100
AcDbArc
 50
186.962063
 51
270.0
  0
ARC
  5
217
100
AcDbEntity
  8
0
370
    -3
  6
Continuous
100
AcDbCircle
 10
-650.244898
 20
-74.192612
 30
0.0
 40
2.0
100
AcDbArc
 50
270.0
 51
6.50025
  0
ARC
  5
218
100
AcDbEntity
  8
0
370
    -3
  6
Continuous
100
AcDbCircle
 10
-672.192241
 20
-36.997973
 30
0.0
 40
2.0
100
AcDbArc
 50
54.586688
 51
150.0
  0
ARC
  5
219
100
AcDbEntity
  8
0
370
    -3
  6
Continuous
100
AcDbCircle
 10
-680.852495
 20
-31.997973
 30
0.0
 40
2.0
100
AcDbArc
 50
330.0
 51
65.413312
  0
ARC
  5
21A
100
AcDbEntity
  8
0
370
    -3
  6
Continuous
100
AcDbCircle
 10
-724.037668
 20
-31.588335
 30
0.0
 40
2.0
100
AcDbArc
 50
113.49975
 51
210.0
  0
ARC
  5
21B
100
AcDbEntity
  8
0
370
    -3
  6
Continuous
100
AcDbCircle
 10
-734.429973
 20
-37.588335
 30
0.0
 40
2.0
100
AcDbArc
 50
30.0
 51
126.50025
  0
ARC
  5
21C
100
AcDbEntity
  8
0
370
    -3
  6
Continuous
100
AcDbCircle
 10
-732.667841
 20
-40.640438
 30
0.0
 40
2.0
100
AcDbArc
 50
306.962063
 51
30.0
  0
ARC
  5
21D
100
AcDbEntity
  8
0
370
    -3
  6
Continuous
100
AcDbCircle
 10
-752.151007
 20
-75.192612
 30
0.0
 40
2.0
100
AcDbArc
 50
270.0
 51
354.20266
  0
ARC
  5
21E
100
AcDbEntity
  8
0
370
    -3
  6
Continuous
100
AcDbCircle
 10
-755.667804
 20
-75.192612
 30
0.0
 40
2.0
100
AcDbArc
 50
174.586688
 51
270.0
  0
ARC
  5
21F
100
AcDbEntity
  8
0
370
    -3
  6
Continuous
100
AcDbCircle
 10
-755.667804
 20
-85.192612
 30
0.0
 40
2.0
100
AcDbArc
 50
90.0
 51
185.413312
  0
ARC
  5
220
100
AcDbEntity
  8
0
370
    -3
  6
Continuous
100
AcDbCircle
 10
-752.151007
 20
-85.192612
 30
0.0
 40
2.0
100
AcDbArc
 50
5.79734
 51
90.0
  0
ARC
  5
221
100
AcDbEntity
  8
0
370
    -3
  6
Continuous
100
AcDbCircle
 10
-682.610893
 20
-125.341615
 30
0.0
 40
2.0
100
AcDbArc
 50
30.0
 51
114.20266
  0
ARC
  5
222
100
AcDbEntity
  8
0
370
    -3
  6
Continuous
100
AcDbCircle
 10
-680.852495
 20
-128.38725
 30
0.0
 40
2.0
100
AcDbArc
 50
294.586688
 51
30.0
  0
ARC
  5
223
100
AcDbEntity
  8
0
370
    -3
  6
Continuous
100
AcDbCircle
 10
-702.90418
 20
-80.192612
 30
0.0
 40
10.0
100
AcDbArc
 50
84.624318
 51
90.0
  0
ARC
  5
224
100
AcDbEntity
  8
0
370
    -3
  6
Continuous
100
AcDbCircle
 10
-702.90418
 20
-80.192612
 30
0.0
 40
17.5
100
AcDbArc
 50
78.819063
 51
97.226028
  0
ARC
  5
225
100
AcDbEntity
  8
0
370
    -3
  6
Continuous
100
AcDbCircle
 10
-702.90418
 20
-80.192612
 30
0.0
 40
22.5
100
AcDbArc
 50
71.775744
 51
105.824196
  0
ARC
  5
226
100
AcDbEntity
  8
0
370
    -3
  6
Continuous
100
AcDbCircle
 10
-702.90418
 20
-80.192612
 30
0.0
 40
30.0
100
AcDbArc
 50
70.286561
 51
107.626375
  0
ARC
  5
227
100
AcDbEntity
  8
0
370
    -3
  6
Continuous
100
AcDbCircle
 10
-702.90418
 20
-80.192612
 30
0.0
 40
35.0
100
AcDbArc
 50
67.766434
 51
110.667582
  0
ARC
  5
228
100
AcDbEntity
  8
0
370
    -3
  6
Continuous
100
AcDbCircle
 10
-702.90418
 20
-80.192612
 30
0.0
 40
42.5
100
AcDbArc
 50
67.091646
 51
111.480376
  0
ARC
  5
229
100
AcDbEntity
  8
0
370
    -3
  6
Continuous
100
AcDbCircle
 10
-702.90418
 20
-80.192612
 30
0.0
 40
47.5
100
AcDbArc
 50
65.79734
 51
113.037937
  0
ARC
  5
22A
100
AcDbEntity
  8
0
370
    -3
  6
Continuous
100
AcDbCircle
 10
-702.90418
 20
-80.192612
 30
0.0
 40
55.0
100
AcDbArc
 50
65.413312
 51
113.49975
  0
ARC
  5
22B
100
AcDbEntity
  8
0
370
    -3
  6
Continuous
100
AcDbCircle
 10
-702.90418
 20
-80.192612
 30
0.0
 40
10.0
100
AcDbArc
 50
150.0
 51
155.375682
  0
ARC
  5
22C
100
AcDbEntity
  8
0
370
    -3
  6
Continuous
100
AcDbCircle
 10
-702.90418
 20
-80.192612
 30
0.0
 40
17.5
100
AcDbArc
 50
142.773972
 51
161.180937
  0
ARC
  5
22D
100
AcDbEntity
  8
0
370
    -3
  6
Continuous
100
AcDbCircle
 10
-702.90418
 20
-80.192612
 30
0.0
 40
22.5
100
AcDbArc
 50
134.175804
 51
168.224256
  0
ARC
  5
22E
100
AcDbEntity
  8
0
370
    -3
  6
Continuous
100
AcDbCircle
 10
-702.90418
 20
-80.192612
 30
0.0
 40
30.0
100
AcDbArc
 50
132.373625
 51
169.713439
  0
ARC
  5
22F
100
AcDbEntity
  8
0
370
    -3
  6
Continuous
100
AcDbCircle
 10
-702.90418
 20
-80.192612
 30
0.0
 40
35.0
100
AcDbArc
 50
129.332418
 51
172.233566
  0
ARC
  5
230
100
AcDbEntity
  8
0
370
    -3
  6
Continuous
100
AcDbCircle
 10
-702.90418
 20
-80.192612
 30
0.0
 40
42.5
100
AcDbArc
 50
128.519624
 51
172.908354
  0
ARC
  5
231
100
AcDbEntity
  8
0
370
    -3
  6
Continuous
100
AcDbCircle
 10
-702.90418
 20
-80.192612
 30
0.0
 40
47.5
100
AcDbArc
 50
126.962063
 51
174.20266
  0
ARC
  5
232
100
AcDbEntity
  8
0
370
    -3
  6
Continuous
100
AcDbCircle
 10
-702.90418
 20
-80.192612
 30
0.0
 40
55.0
100
AcDbArc
 50
126.50025
 51
174.586688
  0
ARC
  5
233
100
AcDbEntity
  8
0
370
    -3
  6
Continuous
100
AcDbCircle
 10
-702.90418
 20
-80.192612
 30
0.0
 40
55.0
100
AcDbArc
 50
185.413312
 51
233.49975
  0
ARC
  5
234
100
AcDbEntity
  8
0
370
    -3
  6
Continuous
100
AcDbCircle
 10
-702.90418
 20
-80.192612
 30
0.0
 40
47.5
100
AcDbArc
 50
185.79734
 51
233.037937
  0
ARC
  5
235
100
AcDbEntity
  8
0
370
    -3
  6
Continuous
100
AcDbCircle
 10
-702.90418
 20
-80.192612
 30
0.0
 40
42.5
100
AcDbArc
 50
187.091646
 51
231.480376
  0
ARC
  5
236
100
AcDbEntity
  8
0
370
    -3
  6
Continuous
100
AcDbCircle
 10
-702.90418
 20
-80.192612
 30
0.0
 40
35.0
100
AcDbArc
 50
187.766434
 51
230.667582
  0
ARC
  5
237
100
AcDbEntity
  8
0
370
    -3
  6
Continuous
100
AcDbCircle
 10
-702.90418
 20
-80.192612
 30
0.0
 40
30.0
100
AcDbArc
 50
190.286561
 51
227.626375
  0
ARC
  5
238
100
AcDbEntity
  8
0
370
    -3
  6
Continuous
100
AcDbCircle
 10
-702.90418
 20
-80.192612
 30
0.0
 40
22.5
100
AcDbArc
 50
191.775744
 51
225.824196
  0
ARC
  5
239
100
AcDbEntity
  8
0
370
    -3
  6
Continuous
100
AcDbCircle
 10
-702.90418
 20
-80.192612
 30
0.0
 40
17.5
100
AcDbArc
 50
198.819063
 51
217.226028
  0
ARC
  5
23A
100
AcDbEntity
  8
0
370
    -3
  6
Continuous
100
AcDbCircle
 10
-702.90418
 20
-80.192612
 30
0.0
 40
10.0
100
AcDbArc
 50
270.0
 51
275.375682
  0
ARC
  5
23B
100
AcDbEntity
  8
0
370
    -3
  6
Continuous
100
AcDbCircle
 10
-702.90418
 20
-80.192612
 30
0.0
 40
17.5
100
AcDbArc
 50
262.773972
 51
281.180937
  0
ARC
  5
23C
100
AcDbEntity
  8
0
370
    -3
  6
Continuous
100
AcDbCircle
 10
-702.90418
 20
-80.192612
 30
0.0
 40
22.5
100
AcDbArc
 50
254.175804
 51
288.224256
  0
ARC
  5
23D
100
AcDbEntity
  8
0
370
    -3
  6
Continuous
100
AcDbCircle
 10
-702.90418
 20
-80.192612
 30
0.0
 40
30.0
100
AcDbArc
 50
252.373625
 51
289.713439
  0
ARC
  5
23E
100
AcDbEntity
  8
0
370
    -3
  6
Continuous
100
AcDbCircle
 10
-702.90418
 20
-80.192612
 30
0.0
 40
35.0
100
AcDbArc
 50
249.332418
 51
292.233566
  0
ARC
  5
23F
100
AcDbEntity
  8
0
370
    -3
  6
Continuous
100
AcDbCircle
 10
-702.90418
 20
-80.192612
 30
0.0
 40
42.5
100
AcDbArc
 50
248.519624
 51
292.908354
  0
ARC
  5
240
100
AcDbEntity
  8
0
370
    -3
  6
Continuous
100
AcDbCircle
 10
-702.90418
 20
-80.192612
 30
0.0
 40
47.5
100
AcDbArc
 50
246.962063
 51
294.20266
  0
ARC
  5
241
100
AcDbEntity
  8
0
370
    -3
  6
Continuous
100
AcDbCircle
 10
-702.90418
 20
-80.192612
 30
0.0
 40
55.0
100
AcDbArc
 50
246.50025
 51
294.586688
  0
ARC
  5
242
100
AcDbEntity
  8
0
370
    -3
  6
Continuous
100
AcDbCircle
 10
-693.119697
 20
-87.139833
 30
0.0
 40
2.0
100
AcDbArc
 50
144.624318
 51
210.0
  0
ARC
  5
243
100
AcDbEntity
  8
0
370
    -3
  6
Continuous
100
AcDbCircle
 10
-692.511875
 20
-86.192612
 30
0.0
 40
2.0
100
AcDbArc
 50
90.0
 51
150.0
  0
ARC
  5
244
100
AcDbEntity
  8
0
370
    -3
  6
Continuous
100
AcDbCircle
 10
-702.90418
 20
-80.192612
 30
0.0
 40
10.0
100
AcDbArc
 50
324.624318
 51
330.0
  0
ARC
  5
245
100
AcDbEntity
  8
0
370
    -3
  6
Continuous
100
AcDbCircle
 10
-702.90418
 20
-80.192612
 30
0.0
 40
10.0
100
AcDbArc
 50
204.624318
 51
210.0
  0
ARC
  5
246
100
AcDbEntity
  8
0
370
    -3
  6
Continuous
100
AcDbCircle
 10
-688.612574
 20
-86.192612
 30
0.0
 40
2.0
100
AcDbArc
 50
337.226028
 51
90.0
  0
ARC
  5
247
100
AcDbEntity
  8
0
370
    -3
  6
Continuous
100
AcDbCircle
 10
-691.238352
 20
-90.398417
 30
0.0
 40
2.0
100
AcDbArc
 50
210.0
 51
318.819063
  0
ARC
  5
248
100
AcDbEntity
  8
0
370
    -3
  6
Continuous
100
AcDbCircle
 10
-686.581868
 20
-98.463685
 30
0.0
 40
2.0
100
AcDbArc
 50
131.775744
 51
210.0
  0
ARC
  5
249
100
AcDbEntity
  8
0
370
    -3
  6
Continuous
100
AcDbCircle
 10
-679.150233
 20
-86.192612
 30
0.0
 40
2.0
100
AcDbArc
 50
90.0
 51
165.824196
  0
ARC
  5
24A
100
AcDbEntity
  8
0
370
    -3
  6
Continuous
100
AcDbCircle
 10
-675.554591
 20
-86.192612
 30
0.0
 40
2.0
100
AcDbArc
 50
347.626375
 51
90.0
  0
ARC
  5
24B
100
AcDbEntity
  8
0
370
    -3
  6
Continuous
100
AcDbCircle
 10
-684.799075
 20
-101.551572
 30
0.0
 40
2.0
100
AcDbArc
 50
210.0
 51
310.286561
  0
ARC
  5
24C
100
AcDbEntity
  8
0
370
    -3
  6
Continuous
100
AcDbCircle
 10
-680.24375
 20
-109.441627
 30
0.0
 40
2.0
100
AcDbArc
 50
127.766434
 51
210.0
  0
ARC
  5
24D
100
AcDbEntity
  8
0
370
    -3
  6
Continuous
100
AcDbCircle
 10
-666.393907
 20
-86.192612
 30
0.0
 40
2.0
100
AcDbArc
 50
90.0
 51
170.667582
  0
ARC
  5
24E
100
AcDbEntity
  8
0
370
    -3
  6
Continuous
100
AcDbCircle
 10
-662.85109
 20
-86.192612
 30
0.0
 40
2.0
100
AcDbArc
 50
351.480376
 51
90.0
  0
ARC
  5
24F
100
AcDbEntity
  8
0
370
    -3
  6
Continuous
100
AcDbCircle
 10
-678.478966
 20
-112.498322
 30
0.0
 40
2.0
100
AcDbArc
 50
210.0
 51
307.091646
  0
ARC
  5
250
100
AcDbEntity
  8
0
370
    -3
  6
Continuous
100
AcDbCircle
 10
-673.950639
 20
-120.341615
 30
0.0
 40
2.0
100
AcDbArc
 50
125.79734
 51
210.0
  0
ARC
  5
251
100
AcDbEntity
  8
0
370
    -3
  6
Continuous
100
AcDbCircle
 10
-672.192241
 20
-123.38725
 30
0.0
 40
2.0
100
AcDbArc
 50
210.0
 51
305.413312
  0
ARC
  5
252
100
AcDbEntity
  8
0
370
    -3
  6
Continuous
100
AcDbCircle
 10
-653.769162
 20
-86.192612
 30
0.0
 40
2.0
100
AcDbArc
 50
90.0
 51
173.037937
  0
ARC
  5
253
100
AcDbEntity
  8
0
370
    -3
  6
Continuous
100
AcDbCircle
 10
-650.244898
 20
-86.192612
 30
0.0
 40
2.0
100
AcDbArc
 50
353.49975
 51
90.0
  0
ARC
  5
254
100
AcDbEntity
  8
0
370
    -3
  6
Continuous
100
AcDbCircle
 10
-702.90418
 20
-80.192612
 30
0.0
 40
17.5
100
AcDbArc
 50
318.819063
 51
337.226028
  0
ARC
  5
255
100
AcDbEntity
  8
0
370
    -3
  6
Continuous
100
AcDbCircle
 10
-702.90418
 20
-80.192612
 30
0.0
 40
22.5
100
AcDbArc
 50
311.775744
 51
345.824196
  0
ARC
  5
256
100
AcDbEntity
  8
0
370
    -3
  6
Continuous
100
AcDbCircle
 10
-702.90418
 20
-80.192612
 30
0.0
 40
30.0
100
AcDbArc
 50
310.286561
 51
347.626375
  0
ARC
  5
257
100
AcDbEntity
  8
0
370
    -3
  6
Continuous
100
AcDbCircle
 10
-702.90418
 20
-80.192612
 30
0.0
 40
35.0
100
AcDbArc
 50
307.766434
 51
350.667582
  0
ARC
  5
258
100
AcDbEntity
  8
0
370
    -3
  6
Continuous
100
AcDbCircle
 10
-702.90418
 20
-80.192612
 30
0.0
 40
42.5
100
AcDbArc
 50
307.091646
 51
351.480376
  0
ARC
  5
259
100
AcDbEntity
  8
0
370
    -3
  6
Continuous
100
AcDbCircle
 10
-702.90418
 20
-80.192612
 30
0.0
 40
47.5
100
AcDbArc
 50
305.79734
 51
353.037937
  0
ARC
  5
25A
100
AcDbEntity
  8
0
370
    -3
  6
Continuous
100
AcDbCircle
 10
-702.90418
 20
-80.192612
 30
0.0
 40
55.0
100
AcDbArc
 50
305.413312
 51
353.49975
  0
ARC
  5
25B
100
AcDbEntity
  8
0
370
    -3
  6
Continuous
100
AcDbCircle
 10
-702.90418
 20
-80.192612
 30
0.0
 40
10.0
100
AcDbArc
 50
30.0
 51
35.375682
  0
ARC
  5
25C
100
AcDbEntity
  8
0
370
    -3
  6
Continuous
100
AcDbCircle
 10
-702.90418
 20
-80.192612
 30
0.0
 40
17.5
100
AcDbArc
 50
22.773972
 51
41.180937
  0
ARC
  5
25D
100
AcDbEntity
  8
0
370
    -3
  6
Continuous
100
AcDbCircle
 10
-702.90418
 20
-80.192612
 30
0.0
 40
22.5
100
AcDbArc
 50
14.175804
 51
48.224256
  0
ARC
  5
25E
100
AcDbEntity
  8
0
370
    -3
  6
Continuous
100
AcDbCircle
 10
-702.90418
 20
-80.192612
 30
0.0
 40
30.0
100
AcDbArc
 50
12.373625
 51
49.713439
  0
ARC
  5
25F
100
AcDbEntity
  8
0
370
    -3
  6
Continuous
100
AcDbCircle
 10
-702.90418
 20
-80.192612
 30
0.0
 40
35.0
100
AcDbArc
 50
9.332418
 51
52.233566
  0
ARC
  5
260
100
AcDbEntity
  8
0
370
    -3
  6
Continuous
100
AcDbCircle
 10
-702.90418
 20
-80.192612
 30
0.0
 40
42.5
100
AcDbArc
 50
8.519624
 51
52.908354
  0
ARC
  5
261
100
AcDbEntity
  8
0
370
    -3
  6
Continuous
100
AcDbCircle
 10
-702.90418
 20
-80.192612
 30
0.0
 40
47.5
100
AcDbArc
 50
6.962063
 51
54.20266
  0
ARC
  5
262
100
AcDbEntity
  8
0
370
    -3
  6
Continuous
100
AcDbCircle
 10
-702.90418
 20
-80.192612
 30
0.0
 40
55.0
100
AcDbArc
 50
6.50025
 51
54.586688
  0
LINE
  5
263
100
AcDbEntity
  8
0
370
    -3
  6
CENTER
100
AcDbLine
 10
-675.90418
 20
-126.957983
 30
0.0
 11
-670.40418
 21
-136.484263
 31
0.0
  0
ARC
  5
264
100
AcDbEntity
  8
0
370
    -3
  6
Continuous
100
AcDbCircle
 10
-641.195185
 20
-74.192612
 30
0.0
 40
2.0
100
AcDbArc
 50
185.553444
 51
270.0
  0
ARC
  5
265
100
AcDbEntity
  8
0
370
    -3
  6
Continuous
100
AcDbCircle
 10
-667.675024
 20
-29.173923
 30
0.0
 40
2.0
100
AcDbArc
 50
150.0
 51
235.374349
  0
ARC
  5
266
100
AcDbEntity
  8
0
370
    -3
  6
Continuous
100
AcDbCircle
 10
-676.335278
 20
-24.173923
 30
0.0
 40
2.0
100
AcDbArc
 50
244.625651
 51
330.0
  0
ARC
  5
267
100
AcDbEntity
  8
0
370
    -3
  6
Continuous
100
AcDbCircle
 10
-728.562525
 20
-23.751055
 30
0.0
 40
2.0
100
AcDbArc
 50
210.0
 51
294.446556
  0
ARC
  5
268
100
AcDbEntity
  8
0
370
    -3
  6
Continuous
100
AcDbCircle
 10
-738.954829
 20
-29.751055
 30
0.0
 40
2.0
100
AcDbArc
 50
305.553444
 51
30.0
  0
ARC
  5
269
100
AcDbEntity
  8
0
370
    -3
  6
Continuous
100
AcDbCircle
 10
-764.702238
 20
-75.192612
 30
0.0
 40
2.0
100
AcDbArc
 50
270.0
 51
355.374349
  0
ARC
  5
26A
100
AcDbEntity
  8
0
370
    -3
  6
Continuous
100
AcDbCircle
 10
-764.702238
 20
-85.192612
 30
0.0
 40
2.0
100
AcDbArc
 50
4.625651
 51
90.0
  0
ARC
  5
26B
100
AcDbEntity
  8
0
370
    -3
  6
Continuous
100
AcDbCircle
 10
-676.335278
 20
-136.2113
 30
0.0
 40
2.0
100
AcDbArc
 50
30.0
 51
115.374349
  0
ARC
  5
26C
100
AcDbEntity
  8
0
370
    -3
  6
Continuous
100
AcDbCircle
 10
-667.675024
 20
-131.2113
 30
0.0
 40
2.0
100
AcDbArc
 50
124.625651
 51
210.0
  0
ARC
  5
26D
100
AcDbEntity
  8
0
370
    -3
  6
Continuous
100
AcDbCircle
 10
-641.195185
 20
-86.192612
 30
0.0
 40
2.0
100
AcDbArc
 50
90.0
 51
174.446556
  0
ARC
  5
26E
100
AcDbEntity
  8
0
370
    -3
  6
Continuous
100
AcDbCircle
 10
-702.90418
 20
-80.192612
 30
0.0
 40
60.0
100
AcDbArc
 50
304.625651
 51
354.446556
  0
ARC
  5
26F
100
AcDbEntity
  8
0
370
    -3
  6
Continuous
100
AcDbCircle
 10
-702.90418
 20
-80.192612
 30
0.0
 40
60.0
100
AcDbArc
 50
245.553444
 51
295.374349
  0
ARC
  5
270
100
AcDbEntity
  8
0
370
    -3
  6
Continuous
100
AcDbCircle
 10
-702.90418
 20
-80.192612
 30
0.0
 40
60.0
100
AcDbArc
 50
184.625651
 51
234.446556
  0
ARC
  5
271
100
AcDbEntity
  8
0
370
    -3
  6
Continuous
100
AcDbCircle
 10
-702.90418
 20
-80.192612
 30
0.0
 40
60.0
100
AcDbArc
 50
125.553444
 51
175.374349
  0
ARC
  5
272
100
AcDbEntity
  8
0
370
    -3
  6
Continuous
100
AcDbCircle
 10
-702.90418
 20
-80.192612
 30
0.0
 40
60.0
100
AcDbArc
 50
64.625651
 51
114.446556
  0
ARC
  5
273
100
AcDbEntity
  8
0
370
    -3
  6
Continuous
100
AcDbCircle
 10
-702.90418
 20
-80.192612
 30
0.0
 40
60.0
100
AcDbArc
 50
5.553444
 51
55.374349
  0
ARC
  5
274
100
AcDbEntity
  8
0
370
    -3
  6
Continuous
100
AcDbCircle
 10
-399.40418
 20
-80.192612
 30
0.0
 40
390.8
100
AcDbArc
 50
177.020093
 51
182.979907
  0
ARC
  5
275
100
AcDbEntity
  8
0
370
    -3
  6
Continuous
100
AcDbCircle
 10
-702.90418
 20
-383.692612
 30
0.0
 40
390.8
100
AcDbArc
 50
87.020093
 51
92.979907
  0
ARC
  5
276
100
AcDbEntity
  8
0
370
    -3
  6
Continuous
100
AcDbCircle
 10
-1006.40418
 20
-80.192612
 30
0.0
 40
390.8
100
AcDbArc
 50
357.020093
 51
2.979907
  0
ARC
  5
277
100
AcDbEntity
  8
0
370
    -3
  6
Continuous
100
AcDbCircle
 10
-702.90418
 20
-383.692612
 30
0.0
 40
374.8
100
AcDbArc
 50
87.020093
 51
90.0
  0
LINE
  5
278
100
AcDbEntity
  8
0
370
    -3
  6
Continuous
100
AcDbLine
 10
-713.812892
 20
-83.192612
 30
0.0
 11
-717.575581
 21
-83.192612
 31
0.0
  0
LINE
  5
279
100
AcDbEntity
  8
0
370
    -3
  6
Continuous
100
AcDbLine
 10
-726.88855
 20
-83.192612
 30
0.0
 11
-730.454134
 21
-83.192612
 31
0.0
  0
LINE
  5
27A
100
AcDbEntity
  8
0
370
    -3
  6
Continuous
100
AcDbLine
 10
-739.564785
 20
-83.192612
 30
0.0
 11
-743.094353
 21
-83.192612
 31
0.0
  0
LINE
  5
27B
100
AcDbEntity
  8
0
370
    -3
  6
Continuous
100
AcDbLine
 10
-752.151007
 20
-83.192612
 30
0.0
 11
-755.667804
 21
-83.192612
 31
0.0
  0
ARC
  5
27C
100
AcDbEntity
  8
0
370
    -3
  6
Continuous
100
AcDbCircle
 10
-765.705454
 20
-85.192612
 30
0.0
 40
2.0
100
AcDbArc
 50
90.0
 51
184.552071
  0
LINE
  5
27D
100
AcDbEntity
  8
0
370
    -3
  6
Continuous
100
AcDbLine
 10
-764.702238
 20
-83.192612
 30
0.0
 11
-765.705454
 21
-83.192612
 31
0.0
  0
ARC
  5
27E
100
AcDbEntity
  8
0
370
    -3
  6
Continuous
100
AcDbCircle
 10
-702.90418
 20
-80.192612
 30
0.0
 40
65.0
100
AcDbArc
 50
184.552071
 51
234.534976
  0
LINE
  5
27F
100
AcDbEntity
  8
0
370
    -3
  6
Continuous
100
AcDbLine
 10
-726.88855
 20
-77.192612
 30
0.0
 11
-730.454134
 21
-77.192612
 31
0.0
  0
LINE
  5
280
100
AcDbEntity
  8
0
370
    -3
  6
Continuous
100
AcDbLine
 10
-739.564785
 20
-77.192612
 30
0.0
 11
-743.094353
 21
-77.192612
 31
0.0
  0
LINE
  5
281
100
AcDbEntity
  8
0
370
    -3
  6
Continuous
100
AcDbLine
 10
-752.151007
 20
-77.192612
 30
0.0
 11
-755.667804
 21
-77.192612
 31
0.0
  0
ARC
  5
282
100
AcDbEntity
  8
0
370
    -3
  6
Continuous
100
AcDbCircle
 10
-765.705454
 20
-75.192612
 30
0.0
 40
2.0
100
AcDbArc
 50
175.447929
 51
270.0
  0
LINE
  5
283
100
AcDbEntity
  8
0
370
    -3
  6
Continuous
100
AcDbLine
 10
-764.702238
 20
-77.192612
 30
0.0
 11
-765.705454
 21
-77.192612
 31
0.0
  0
LINE
  5
284
100
AcDbEntity
  8
0
370
    -3
  6
Continuous
100
AcDbLine
 10
-737.222779
 20
-28.751055
 30
0.0
 11
-737.725099
 21
-27.881011
 31
0.0
  0
LINE
  5
285
100
AcDbEntity
  8
0
370
    -3
  6
Continuous
100
AcDbLine
 10
-730.93579
 20
-39.640438
 30
0.0
 11
-732.697923
 21
-36.588335
 31
0.0
  0
LINE
  5
286
100
AcDbEntity
  8
0
370
    -3
  6
Continuous
100
AcDbLine
 10
-724.623418
 20
-50.573788
 30
0.0
 11
-726.394826
 21
-47.505618
 31
0.0
  0
LINE
  5
287
100
AcDbEntity
  8
0
370
    -3
  6
Continuous
100
AcDbLine
 10
-711.564434
 20
-73.192612
 30
0.0
 11
-713.514084
 21
-69.815718
 31
0.0
  0
LINE
  5
288
100
AcDbEntity
  8
0
370
    -3
  6
Continuous
100
AcDbLine
 10
-713.812892
 20
-77.192612
 30
0.0
 11
-717.575581
 21
-77.192612
 31
0.0
  0
ARC
  5
289
100
AcDbEntity
  8
0
370
    -3
  6
Continuous
100
AcDbCircle
 10
-702.90418
 20
-80.192612
 30
0.0
 40
65.0
100
AcDbArc
 50
125.465024
 51
175.447929
  0
LINE
  5
28A
100
AcDbEntity
  8
0
370
    -3
  6
Continuous
100
AcDbLine
 10
-693.510071
 20
-57.921538
 30
0.0
 11
-691.727279
 21
-54.833651
 31
0.0
  0
LINE
  5
28B
100
AcDbEntity
  8
0
370
    -3
  6
Continuous
100
AcDbLine
 10
-717.695214
 20
-46.573788
 30
0.0
 11
-719.466623
 21
-43.505618
 31
0.0
  0
LINE
  5
28C
100
AcDbEntity
  8
0
370
    -3
  6
Continuous
100
AcDbLine
 10
-711.317052
 20
-57.62109
 30
0.0
 11
-713.114873
 21
-54.507173
 31
0.0
  0
LINE
  5
28D
100
AcDbEntity
  8
0
370
    -3
  6
Continuous
100
AcDbLine
 10
-704.636231
 20
-69.192612
 30
0.0
 11
-706.585881
 21
-65.815718
 31
0.0
  0
LINE
  5
28E
100
AcDbEntity
  8
0
370
    -3
  6
Continuous
100
AcDbLine
 10
-700.0479
 20
-69.24539
 30
0.0
 11
-698.166556
 21
-65.986806
 31
0.0
  0
LINE
  5
28F
100
AcDbEntity
  8
0
370
    -3
  6
Continuous
100
AcDbLine
 10
-687.171953
 20
-46.943596
 30
0.0
 11
-685.40717
 21
-43.886901
 31
0.0
  0
LINE
  5
290
100
AcDbEntity
  8
0
370
    -3
  6
Continuous
100
AcDbLine
 10
-680.878842
 20
-36.043608
 30
0.0
 11
-679.120444
 21
-32.997973
 31
0.0
  0
LINE
  5
291
100
AcDbEntity
  8
0
370
    -3
  6
Continuous
100
AcDbLine
 10
-724.007587
 20
-35.640438
 30
0.0
 11
-725.769719
 21
-32.588335
 31
0.0
  0
ARC
  5
292
100
AcDbEntity
  8
0
370
    -3
  6
Continuous
100
AcDbCircle
 10
-729.064845
 20
-22.881011
 30
0.0
 40
2.0
100
AcDbArc
 50
114.534976
 51
210.0
  0
LINE
  5
293
100
AcDbEntity
  8
0
370
    -3
  6
Continuous
100
AcDbLine
 10
-730.294575
 20
-24.751055
 30
0.0
 11
-730.796896
 21
-23.881011
 31
0.0
  0
ARC
  5
294
100
AcDbEntity
  8
0
370
    -3
  6
Continuous
100
AcDbCircle
 10
-675.83367
 20
-23.305113
 30
0.0
 40
2.0
100
AcDbArc
 50
330.0
 51
64.552071
  0
LINE
  5
295
100
AcDbEntity
  8
0
370
    -3
  6
Continuous
100
AcDbLine
 10
-674.603227
 20
-25.173923
 30
0.0
 11
-674.101619
 21
-24.305113
 31
0.0
  0
ARC
  5
296
100
AcDbEntity
  8
0
370
    -3
  6
Continuous
100
AcDbCircle
 10
-702.90418
 20
-80.192612
 30
0.0
 40
65.0
100
AcDbArc
 50
64.552071
 51
114.534976
  0
ARC
  5
297
100
AcDbEntity
  8
0
370
    -3
  6
Continuous
100
AcDbCircle
 10
-702.90418
 20
-80.192612
 30
0.0
 40
65.0
100
AcDbArc
 50
304.552071
 51
354.534976
  0
LINE
  5
298
100
AcDbEntity
  8
0
370
    -3
  6
Continuous
100
AcDbLine
 10
-693.510071
 20
-102.463685
 30
0.0
 11
-691.727279
 21
-105.551572
 31
0.0
  0
LINE
  5
299
100
AcDbEntity
  8
0
370
    -3
  6
Continuous
100
AcDbLine
 10
-687.171953
 20
-113.441627
 30
0.0
 11
-685.40717
 21
-116.498322
 31
0.0
  0
LINE
  5
29A
100
AcDbEntity
  8
0
370
    -3
  6
Continuous
100
AcDbLine
 10
-680.878842
 20
-124.341615
 30
0.0
 11
-679.120444
 21
-127.38725
 31
0.0
  0
LINE
  5
29B
100
AcDbEntity
  8
0
370
    -3
  6
Continuous
100
AcDbLine
 10
-674.603227
 20
-135.2113
 30
0.0
 11
-674.101619
 21
-136.08011
 31
0.0
  0
LINE
  5
29C
100
AcDbEntity
  8
0
370
    -3
  6
Continuous
100
AcDbLine
 10
-688.313919
 20
-99.463685
 30
0.0
 11
-686.531126
 21
-102.551572
 31
0.0
  0
LINE
  5
29D
100
AcDbEntity
  8
0
370
    -3
  6
Continuous
100
AcDbLine
 10
-681.975801
 20
-110.441627
 30
0.0
 11
-680.211017
 21
-113.498322
 31
0.0
  0
LINE
  5
29E
100
AcDbEntity
  8
0
370
    -3
  6
Continuous
100
AcDbLine
 10
-675.68269
 20
-121.341615
 30
0.0
 11
-673.924292
 21
-124.38725
 31
0.0
  0
LINE
  5
29F
100
AcDbEntity
  8
0
370
    -3
  6
Continuous
100
AcDbLine
 10
-669.407074
 20
-132.2113
 30
0.0
 11
-668.905467
 21
-133.08011
 31
0.0
  0
LINE
  5
2A0
100
AcDbEntity
  8
0
370
    -3
  6
Continuous
100
AcDbLine
 10
-688.313919
 20
-60.921538
 30
0.0
 11
-686.531126
 21
-57.833651
 31
0.0
  0
LINE
  5
2A1
100
AcDbEntity
  8
0
370
    -3
  6
Continuous
100
AcDbLine
 10
-681.975801
 20
-49.943596
 30
0.0
 11
-680.211017
 21
-46.886901
 31
0.0
  0
LINE
  5
2A2
100
AcDbEntity
  8
0
370
    -3
  6
Continuous
100
AcDbLine
 10
-675.68269
 20
-39.043608
 30
0.0
 11
-673.924292
 21
-35.997973
 31
0.0
  0
LINE
  5
2A3
100
AcDbEntity
  8
0
370
    -3
  6
Continuous
100
AcDbLine
 10
-669.407074
 20
-28.173923
 30
0.0
 11
-668.905467
 21
-27.305113
 31
0.0
  0
LINE
  5
2A4
100
AcDbEntity
  8
0
370
    -3
  6
Continuous
100
AcDbLine
 10
-679.150233
 20
-84.192612
 30
0.0
 11
-675.554591
 21
-84.192612
 31
0.0
  0
LINE
  5
2A5
100
AcDbEntity
  8
0
370
    -3
  6
Continuous
100
AcDbLine
 10
-666.393907
 20
-84.192612
 30
0.0
 11
-662.85109
 21
-84.192612
 31
0.0
  0
LINE
  5
2A6
100
AcDbEntity
  8
0
370
    -3
  6
Continuous
100
AcDbLine
 10
-653.769162
 20
-84.192612
 30
0.0
 11
-650.244898
 21
-84.192612
 31
0.0
  0
LINE
  5
2A7
100
AcDbEntity
  8
0
370
    -3
  6
Continuous
100
AcDbLine
 10
-641.195185
 20
-84.192612
 30
0.0
 11
-640.190545
 21
-84.192612
 31
0.0
  0
LINE
  5
2A8
100
AcDbEntity
  8
0
370
    -3
  6
Continuous
100
AcDbLine
 10
-679.150233
 20
-76.192612
 30
0.0
 11
-675.554591
 21
-76.192612
 31
0.0
  0
LINE
  5
2A9
100
AcDbEntity
  8
0
370
    -3
  6
Continuous
100
AcDbLine
 10
-666.393907
 20
-76.192612
 30
0.0
 11
-662.85109
 21
-76.192612
 31
0.0
  0
LINE
  5
2AA
100
AcDbEntity
  8
0
370
    -3
  6
Continuous
100
AcDbLine
 10
-653.769162
 20
-76.192612
 30
0.0
 11
-650.244898
 21
-76.192612
 31
0.0
  0
LINE
  5
2AB
100
AcDbEntity
  8
0
370
    -3
  6
Continuous
100
AcDbLine
 10
-641.195185
 20
-76.192612
 30
0.0
 11
-640.190545
 21
-76.192612
 31
0.0
  0
ARC
  5
2AC
100
AcDbEntity
  8
0
370
    -3
  6
Continuous
100
AcDbCircle
 10
-702.90418
 20
-80.192612
 30
0.0
 40
65.0
100
AcDbArc
 50
5.465024
 51
55.447929
  0
ARC
  5
2AD
100
AcDbEntity
  8
0
370
    -3
  6
Continuous
100
AcDbCircle
 10
-667.173416
 20
-28.305113
 30
0.0
 40
2.0
100
AcDbArc
 50
55.447929
 51
150.0
  0
LINE
  5
2AE
100
AcDbEntity
  8
0
370
    -3
  6
Continuous
100
AcDbLine
 10
-694.851748
 20
-72.24539
 30
0.0
 11
-692.970403
 21
-68.986806
 31
0.0
  0
ARC
  5
2AF
100
AcDbEntity
  8
0
370
    -3
  6
Continuous
100
AcDbCircle
 10
-675.83367
 20
-137.08011
 30
0.0
 40
2.0
100
AcDbArc
 50
295.447929
 51
30.0
  0
ARC
  5
2B0
100
AcDbEntity
  8
0
370
    -3
  6
Continuous
100
AcDbCircle
 10
-640.190545
 20
-74.192612
 30
0.0
 40
2.0
100
AcDbArc
 50
270.0
 51
5.465024
  0
ARC
  5
2B1
100
AcDbEntity
  8
0
370
    -3
  6
Continuous
100
AcDbCircle
 10
-640.190545
 20
-86.192612
 30
0.0
 40
2.0
100
AcDbArc
 50
354.534976
 51
90.0
  0
ARC
  5
2B2
100
AcDbEntity
  8
0
370
    -3
  6
Continuous
100
AcDbCircle
 10
-667.173416
 20
-132.08011
 30
0.0
 40
2.0
100
AcDbArc
 50
210.0
 51
304.552071
  0
ARC
  5
2B3
100
AcDbEntity
  8
0
370
    -3
  6
Continuous
100
AcDbCircle
 10
-702.90418
 20
-80.192612
 30
0.0
 40
65.0
100
AcDbArc
 50
245.465024
 51
295.447929
  0
LINE
  5
2B4
100
AcDbEntity
  8
0
370
    -3
  6
Continuous
100
AcDbLine
 10
-700.0479
 20
-91.139833
 30
0.0
 11
-698.166556
 21
-94.398417
 31
0.0
  0
LINE
  5
2B5
100
AcDbEntity
  8
0
370
    -3
  6
Continuous
100
AcDbLine
 10
-692.511875
 20
-76.192612
 30
0.0
 11
-688.612574
 21
-76.192612
 31
0.0
  0
LINE
  5
2B6
100
AcDbEntity
  8
0
370
    -3
  6
Continuous
100
AcDbLine
 10
-692.511875
 20
-84.192612
 30
0.0
 11
-688.612574
 21
-84.192612
 31
0.0
  0
LINE
  5
2B7
100
AcDbEntity
  8
0
370
    -3
  6
Continuous
100
AcDbLine
 10
-694.851748
 20
-88.139833
 30
0.0
 11
-692.970403
 21
-91.398417
 31
0.0
  0
CIRCLE
  5
2B8
100
AcDbEntity
  8
0
370
    -3
  6
Continuous
100
AcDbCircle
 10
-702.90418
 20
-80.192612
 30
0.0
 40
5.0
  0
ARC
  5
2B9
100
AcDbEntity
  8
0
370
    -3
  6
Continuous
100
AcDbCircle
 10
-719.799549
 20
-101.253155
 30
0.0
 40
65.8
100
AcDbArc
 50
231.262419
 51
267.020093
  0
ARC
  5
2BA
100
AcDbEntity
  8
0
370
    -3
  6
Continuous
100
AcDbCircle
 10
-681.843636
 20
-63.297242
 30
0.0
 40
65.8
100
AcDbArc
 50
2.979907
 51
38.737581
  0
ARC
  5
2BB
100
AcDbEntity
  8
0
370
    -3
  6
Continuous
100
AcDbCircle
 10
-686.008811
 20
-101.253155
 30
0.0
 40
49.8
100
AcDbArc
 50
272.979907
 51
308.737581
  0
ARC
  5
2BC
100
AcDbEntity
  8
0
370
    -3
  6
Continuous
100
AcDbCircle
 10
-681.843636
 20
-97.087981
 30
0.0
 40
49.8
100
AcDbArc
 50
321.262419
 51
357.020093
  0
ARC
  5
2BD
100
AcDbEntity
  8
0
370
    -3
  6
Continuous
100
AcDbCircle
 10
-1006.40418
 20
-80.192612
 30
0.0
 40
374.8
100
AcDbArc
 50
357.020093
 51
0.0
  0
ARC
  5
2BE
100
AcDbEntity
  8
0
370
    -3
  6
Continuous
100
AcDbCircle
 10
-1006.40418
 20
-80.192612
 30
0.0
 40
374.8
100
AcDbArc
 50
0.0
 51
2.979907
  0
ARC
  5
2BF
100
AcDbEntity
  8
0
370
    -3
  6
Continuous
100
AcDbCircle
 10
-681.843636
 20
-63.297242
 30
0.0
 40
49.8
100
AcDbArc
 50
2.979907
 51
38.737581
  0
ARC
  5
2C0
100
AcDbEntity
  8
0
370
    -3
  6
Continuous
100
AcDbCircle
 10
-702.90418
 20
-80.192612
 30
0.0
 40
76.8
100
AcDbArc
 50
38.737581
 51
51.262419
  0
ARC
  5
2C1
100
AcDbEntity
  8
0
370
    -3
  6
Continuous
100
AcDbCircle
 10
-686.008811
 20
-59.132068
 30
0.0
 40
49.8
100
AcDbArc
 50
51.262419
 51
87.020093
  0
ARC
  5
2C2
100
AcDbEntity
  8
0
370
    -3
  6
Continuous
100
AcDbCircle
 10
-702.90418
 20
-383.692612
 30
0.0
 40
374.8
100
AcDbArc
 50
90.0
 51
92.979907
  0
ARC
  5
2C3
100
AcDbEntity
  8
0
370
    -3
  6
Continuous
100
AcDbCircle
 10
-719.799549
 20
-59.132068
 30
0.0
 40
49.8
100
AcDbArc
 50
92.979907
 51
128.737581
  0
ARC
  5
2C4
100
AcDbEntity
  8
0
370
    -3
  6
Continuous
100
AcDbCircle
 10
-723.964723
 20
-63.297242
 30
0.0
 40
49.8
100
AcDbArc
 50
141.262419
 51
177.020093
  0
ARC
  5
2C5
100
AcDbEntity
  8
0
370
    -3
  6
Continuous
100
AcDbCircle
 10
-399.40418
 20
-80.192612
 30
0.0
 40
374.8
100
AcDbArc
 50
177.020093
 51
180.0
  0
ARC
  5
2C6
100
AcDbEntity
  8
0
370
    -3
  6
Continuous
100
AcDbCircle
 10
-723.964723
 20
-97.087981
 30
0.0
 40
49.8
100
AcDbArc
 50
182.979907
 51
218.737581
  0
ARC
  5
2C7
100
AcDbEntity
  8
0
370
    -3
  6
Continuous
100
AcDbCircle
 10
-702.90418
 20
-80.192612
 30
0.0
 40
76.8
100
AcDbArc
 50
218.737581
 51
231.262419
  0
ARC
  5
2C8
100
AcDbEntity
  8
0
370
    -3
  6
Continuous
100
AcDbCircle
 10
-719.799549
 20
-101.253155
 30
0.0
 40
49.8
100
AcDbArc
 50
231.262419
 51
267.020093
  0
ARC
  5
2C9
100
AcDbEntity
  8
0
370
    -3
  6
Continuous
100
AcDbCircle
 10
-702.90418
 20
223.307388
 30
0.0
 40
374.8
100
AcDbArc
 50
267.020093
 51
270.0
  0
ARC
  5
2CA
100
AcDbEntity
  8
0
370
    -3
  6
Continuous
100
AcDbCircle
 10
-702.90418
 20
223.307388
 30
0.0
 40
374.8
100
AcDbArc
 50
270.0
 51
272.979907
  0
ARC
  5
2CB
100
AcDbEntity
  8
0
370
    -3
  6
Continuous
100
AcDbCircle
 10
-399.40418
 20
-80.192612
 30
0.0
 40
374.8
100
AcDbArc
 50
180.0
 51
182.979907
  0
ARC
  5
2CC
100
AcDbEntity
  8
0
370
    -3
  6
Continuous
100
AcDbCircle
 10
-702.90418
 20
223.307388
 30
0.0
 40
390.8
100
AcDbArc
 50
267.020093
 51
272.979907
  0
LINE
  5
2CD
100
AcDbEntity
  8
0
370
    -3
  6
CENTER
100
AcDbLine
 10
-702.90418
 20
-238.370321
 30
0.0
 11
-702.90418
 21
67.5
 31
0.0
  0
LINE
  5
2CE
100
AcDbEntity
  8
0
370
    -3
  6
CENTER
100
AcDbLine
 10
-795.072011
 20
-80.192612
 30
0.0
 11
-605.5248
 21
-80.192612
 31
0.0
  0
LINE
  5
2CF
100
AcDbEntity
  8
0
370
    -3
  6
Continuous
100
AcDbLine
 10
-705.904378
 20
9.806956
 30
0.0
 11
-705.904372
 21
7.095872
 31
0.0
  0
LINE
  5
2D0
100
AcDbEntity
  8
0
370
    -3
  6
Continuous
100
AcDbLine
 10
-702.904378
 20
9.806956
 30
0.0
 11
-702.904372
 21
7.107388
 31
0.0
  0
ARC
  5
2D1
100
AcDbEntity
  8
0
370
    -3
  6
DASHED
100
AcDbCircle
 10
-702.904154
 20
-82.192552
 30
0.0
 40
105.5
100
AcDbArc
 50
147.458997
 51
147.522446
  0
LINE
  5
2D2
100
AcDbEntity
  8
0
370
    -3
  6
Continuous
100
AcDbLine
 10
-622.904453
 20
40.453747
 30
0.0
 11
-622.904271
 21
-34.043332
 31
0.0
  0
LINE
  5
2D3
100
AcDbEntity
  8
0
370
    -3
  6
Continuous
100
AcDbLine
 10
-636.40446
 20
43.48465
 30
0.0
 11
-636.404331
 21
-9.617957
 31
0.0
  0
LINE
  5
2D4
100
AcDbEntity
  8
0
370
    -3
  6
Continuous
100
AcDbLine
 10
-769.40446
 20
43.484326
 30
0.0
 11
-769.404331
 21
-9.618106
 31
0.0
  0
LINE
  5
2D5
100
AcDbEntity
  8
0
370
    -3
  6
Continuous
100
AcDbLine
 10
-617.90439
 20
14.80711
 30
0.0
 11
-617.904238
 21
-47.760403
 31
0.0
  0
LINE
  5
2D6
100
AcDbEntity
  8
0
370
    -3
  6
Continuous
100
AcDbLine
 10
-787.90439
 20
14.806513
 30
0.0
 11
-787.904238
 21
-47.760883
 31
0.0
  0
LINE
  5
2D7
100
AcDbEntity
  8
0
370
    -3
  6
Continuous
100
AcDbLine
 10
-782.904453
 20
40.453358
 30
0.0
 11
-782.904271
 21
-34.043701
 31
0.0
  0
LINE
  5
2D8
100
AcDbEntity
  8
0
370
    -3
  6
Continuous
100
AcDbLine
 10
-782.904025
 20
-135.193475
 30
0.0
 11
-787.904025
 21
-135.193487
 31
0.0
  0
LINE
  5
2D9
100
AcDbEntity
  8
0
370
    -3
  6
Continuous
100
AcDbLine
 10
-613.904228
 20
-20.192343
 30
0.0
 11
-617.904305
 21
-20.192353
 31
0.0
  0
LINE
  5
2DA
100
AcDbEntity
  8
0
370
    -3
  6
Continuous
100
AcDbLine
 10
-613.904131
 20
-100.192343
 30
0.0
 11
-616.116907
 21
-100.192349
 31
0.0
  0
LINE
  5
2DB
100
AcDbEntity
  8
0
370
    -3
  6
Continuous
100
AcDbLine
 10
-613.904228
 20
-20.192343
 30
0.0
 11
-613.904131
 21
-100.192343
 31
0.0
  0
LINE
  5
2DC
100
AcDbEntity
  8
0
370
    -3
  6
Continuous
100
AcDbLine
 10
-791.904228
 20
-20.192777
 30
0.0
 11
-791.904131
 21
-100.192777
 31
0.0
  0
LINE
  5
2DD
100
AcDbEntity
  8
0
370
    -3
  6
Continuous
100
AcDbLine
 10
-787.904305
 20
-20.192767
 30
0.0
 11
-791.904228
 21
-20.192777
 31
0.0
  0
LINE
  5
2DE
100
AcDbEntity
  8
0
370
    -3
  6
Continuous
100
AcDbLine
 10
-789.691432
 20
-100.192771
 30
0.0
 11
-791.904131
 21
-100.192777
 31
0.0
  0
LINE
  5
2DF
100
AcDbEntity
  8
0
370
    -3
  6
Continuous
100
AcDbLine
 10
-622.904025
 20
-135.192902
 30
0.0
 11
-617.904025
 21
-135.19289
 31
0.0
  0
LINE
  5
2E0
100
AcDbEntity
  8
0
370
    -3
  6
Continuous
100
AcDbLine
 10
-682.404296
 20
45.090888
 30
0.0
 11
-682.404296
 21
45.306953
 31
0.0
  0
LINE
  5
2E1
100
AcDbEntity
  8
0
370
    -3
  6
Continuous
100
AcDbLine
 10
-723.404296
 20
45.0908
 30
0.0
 11
-723.404296
 21
45.306854
 31
0.0
  0
LINE
  5
2E2
100
AcDbEntity
  8
0
370
    -3
  6
Continuous
100
AcDbLine
 10
-623.90377
 20
41.47957
 30
0.0
 11
-622.904453
 21
40.453747
 31
0.0
  0
LINE
  5
2E3
100
AcDbEntity
  8
0
370
    -3
  6
Continuous
100
AcDbLine
 10
-623.903163
 20
-207.878839
 30
0.0
 11
-636.403847
 21
-208.206212
 31
0.0
  0
LINE
  5
2E4
100
AcDbEntity
  8
0
370
    -3
  6
Continuous
100
AcDbLine
 10
-781.904534
 20
-207.879224
 30
0.0
 11
-769.403847
 21
-208.206535
 31
0.0
  0
LINE
  5
2E5
100
AcDbEntity
  8
0
370
    -3
  6
Continuous
100
AcDbLine
 10
-656.10418
 20
-210.558886
 30
0.0
 11
-636.403843
 21
-209.870887
 31
0.0
  0
LINE
  5
2E6
100
AcDbEntity
  8
0
370
    -3
  6
Continuous
100
AcDbLine
 10
-748.90418
 20
-210.587025
 30
0.0
 11
-769.403843
 21
-209.871211
 31
0.0
  0
LINE
  5
2E7
100
AcDbEntity
  8
0
370
    -3
  6
Continuous
100
AcDbLine
 10
-682.40418
 20
45.090884
 30
0.0
 11
-636.40446
 21
43.48465
 31
0.0
  0
LINE
  5
2E8
100
AcDbEntity
  8
0
370
    -3
  6
Continuous
100
AcDbLine
 10
-623.903163
 20
-207.878839
 30
0.0
 11
-622.903851
 21
-206.853012
 31
0.0
  0
LINE
  5
2E9
100
AcDbEntity
  8
0
370
    -3
  6
Continuous
100
AcDbLine
 10
-636.404456
 20
41.806881
 30
0.0
 11
-623.90377
 21
41.47957
 31
0.0
  0
LINE
  5
2EA
100
AcDbEntity
  8
0
370
    -3
  6
Continuous
100
AcDbLine
 10
-623.90377
 20
41.47957
 30
0.0
 11
-622.904453
 21
40.453747
 31
0.0
  0
LINE
  5
2EB
100
AcDbEntity
  8
0
370
    -3
  6
Continuous
100
AcDbLine
 10
-782.90439
 20
14.806525
 30
0.0
 11
-787.90439
 21
14.806513
 31
0.0
  0
LINE
  5
2EC
100
AcDbEntity
  8
0
370
    -3
  6
Continuous
100
AcDbLine
 10
-723.40418
 20
45.090804
 30
0.0
 11
-769.40446
 21
43.484326
 31
0.0
  0
LINE
  5
2ED
100
AcDbEntity
  8
0
370
    -3
  6
Continuous
100
AcDbLine
 10
-781.904534
 20
-207.879224
 30
0.0
 11
-782.903851
 21
-206.853401
 31
0.0
  0
LINE
  5
2EE
100
AcDbEntity
  8
0
370
    -3
  6
Continuous
100
AcDbLine
 10
-781.905141
 20
41.479185
 30
0.0
 11
-782.904453
 21
40.453358
 31
0.0
  0
LINE
  5
2EF
100
AcDbEntity
  8
0
370
    -3
  6
Continuous
100
AcDbLine
 10
-769.404456
 20
41.806558
 30
0.0
 11
-781.905141
 21
41.479185
 31
0.0
  0
LINE
  5
2F0
100
AcDbEntity
  8
0
370
    -3
  6
Continuous
100
AcDbLine
 10
-622.90439
 20
14.807098
 30
0.0
 11
-617.90439
 21
14.80711
 31
0.0
  0
LINE
  5
2F1
100
AcDbEntity
  8
0
370
    -3
  6
Continuous
100
AcDbLine
 10
-617.90408
 20
-112.62417
 30
0.0
 11
-617.904025
 21
-135.19289
 31
0.0
  0
LINE
  5
2F2
100
AcDbEntity
  8
0
370
    -3
  6
Continuous
100
AcDbLine
 10
-622.904047
 20
-126.341439
 30
0.0
 11
-622.903851
 21
-206.853012
 31
0.0
  0
LINE
  5
2F3
100
AcDbEntity
  8
0
370
    -3
  6
Continuous
100
AcDbLine
 10
-636.403987
 20
-150.767097
 30
0.0
 11
-636.403843
 21
-209.870887
 31
0.0
  0
LINE
  5
2F4
100
AcDbEntity
  8
0
370
    -3
  6
Continuous
100
AcDbLine
 10
-769.403987
 20
-150.731808
 30
0.0
 11
-769.403843
 21
-209.871211
 31
0.0
  0
LINE
  5
2F5
100
AcDbEntity
  8
0
370
    -3
  6
Continuous
100
AcDbLine
 10
-782.904047
 20
-126.341975
 30
0.0
 11
-782.903851
 21
-206.853401
 31
0.0
  0
LINE
  5
2F6
100
AcDbEntity
  8
0
370
    -3
  6
Continuous
100
AcDbLine
 10
-787.90408
 20
-112.62499
 30
0.0
 11
-787.904025
 21
-135.193487
 31
0.0
  0
ARC
  5
2F7
100
AcDbEntity
  8
0
370
    -3
  6
Continuous
100
AcDbCircle
 10
-683.40431
 20
26.807388
 30
0.0
 40
3.0
100
AcDbArc
 50
0.00007
 51
70.526141
  0
LINE
  5
2F8
100
AcDbEntity
  8
0
370
    -3
  6
Continuous
100
AcDbLine
 10
-725.40405
 20
26.807393
 30
0.0
 11
-725.404072
 21
6.428815
 31
0.0
  0
ARC
  5
2F9
100
AcDbEntity
  8
0
370
    -3
  6
Continuous
100
AcDbCircle
 10
-722.40431
 20
26.807341
 30
0.0
 40
3.0
100
AcDbArc
 50
109.468582
 51
180.00007
  0
LINE
  5
2FA
100
AcDbEntity
  8
0
370
    -3
  6
Continuous
100
AcDbLine
 10
-680.40431
 20
26.807393
 30
0.0
 11
-680.404287
 21
6.428815
 31
0.0
  0
LINE
  5
2FB
100
AcDbEntity
  8
0
370
    -3
  6
CENTER
100
AcDbLine
 10
-567.585792
 20
277.5
 30
0.0
 11
61.0
 21
277.5
 31
0.0
  0
ARC
  5
2FC
100
AcDbEntity
  8
0
370
    -3
  6
Continuous
100
AcDbCircle
 10
-240.904155
 20
196.0
 30
0.0
 40
2.0
100
AcDbArc
 50
270.0
 51
0.0
  0
LINE
  5
2FD
100
AcDbEntity
  8
0
370
    -3
  6
Continuous
100
AcDbLine
 10
-238.992717
 20
195.411438
 30
0.0
 11
-236.904155
 21
197.5
 31
0.0
  0
LINE
  5
2FE
100
AcDbEntity
  8
0
370
    -3
  6
Continuous
100
AcDbLine
 10
-251.904155
 20
194.0
 30
0.0
 11
-240.904155
 21
194.0
 31
0.0
  0
LINE
  5
2FF
100
AcDbEntity
  8
0
370
    -3
  6
Continuous
100
AcDbLine
 10
-238.904155
 20
277.5
 30
0.0
 11
-238.904155
 21
196.0
 31
0.0
  0
LINE
  5
300
100
AcDbEntity
  8
0
370
    -3
  6
Continuous
100
AcDbLine
 10
-238.904155
 20
277.5
 30
0.0
 11
-238.904155
 21
359.0
 31
0.0
  0
LINE
  5
301
100
AcDbEntity
  8
0
370
    -3
  6
Continuous
100
AcDbLine
 10
-251.904155
 20
361.0
 30
0.0
 11
-240.904155
 21
361.0
 31
0.0
  0
ARC
  5
302
100
AcDbEntity
  8
0
370
    -3
  6
Continuous
100
AcDbCircle
 10
-240.904155
 20
359.0
 30
0.0
 40
2.0
100
AcDbArc
 50
0.0
 51
90.0
  0
LINE
  5
303
100
AcDbEntity
  8
0
370
    -3
  6
Continuous
100
AcDbLine
 10
-238.992717
 20
359.588562
 30
0.0
 11
-236.904155
 21
357.5
 31
0.0
  0
LINE
  5
304
100
AcDbEntity
  8
0
370
    -3
  6
Continuous
100
AcDbLine
 10
-250.904155
 20
255.0
 30
0.0
 11
-238.904155
 21
255.0
 31
0.0
  0
LINE
  5
305
100
AcDbEntity
  8
0
370
    -3
  6
Continuous
100
AcDbLine
 10
-250.904155
 20
300.0
 30
0.0
 11
-238.904155
 21
300.0
 31
0.0
  0
LINE
  5
306
100
AcDbEntity
  8
0
370
    -3
  6
CENTER
100
AcDbLine
 10
-276.083699
 20
267.0
 30
0.0
 11
-243.34391
 21
267.0
 31
0.0
  0
LINE
  5
307
100
AcDbEntity
  8
0
370
    -3
  6
CENTER
100
AcDbLine
 10
-276.083699
 20
288.0
 30
0.0
 11
-243.34391
 21
288.0
 31
0.0
  0
LINE
  5
308
100
AcDbEntity
  8
0
370
    -3
  6
Continuous
100
AcDbLine
 10
-14.904155
 20
188.5
 30
0.0
 11
-14.904155
 21
192.5
 31
0.0
  0
LINE
  5
309
100
AcDbEntity
  8
0
370
    -3
  6
Continuous
100
AcDbLine
 10
-94.404155
 20
366.5
 30
0.0
 11
-14.904155
 21
366.5
 31
0.0
  0
LINE
  5
30A
100
AcDbEntity
  8
0
370
    -3
  6
Continuous
100
AcDbLine
 10
-14.904155
 20
366.5
 30
0.0
 11
-14.904155
 21
362.5
 31
0.0
  0
ARC
  5
30B
100
AcDbEntity
  8
0
370
    -3
  6
Continuous
100
AcDbCircle
 10
-94.404155
 20
366.1
 30
0.0
 40
0.4
100
AcDbArc
 50
90.0
 51
180.0
  0
LINE
  5
30C
100
AcDbEntity
  8
0
370
    -3
  6
Continuous
100
AcDbLine
 10
-94.404155
 20
188.5
 30
0.0
 11
-14.904155
 21
188.5
 31
0.0
  0
ARC
  5
30D
100
AcDbEntity
  8
0
370
    -3
  6
Continuous
100
AcDbCircle
 10
-94.404155
 20
188.9
 30
0.0
 40
0.4
100
AcDbArc
 50
180.0
 51
270.0
  0
LINE
  5
30E
100
AcDbEntity
  8
0
370
    -3
  6
Continuous
100
AcDbLine
 10
-94.904155
 20
188.5
 30
0.0
 11
-94.904155
 21
192.5
 31
0.0
  0
LINE
  5
30F
100
AcDbEntity
  8
0
370
    -3
  6
Continuous
100
AcDbLine
 10
-94.904155
 20
366.5
 30
0.0
 11
-94.904155
 21
362.5
 31
0.0
  0
LINE
  5
310
100
AcDbEntity
  8
0
370
    -3
  6
Continuous
100
AcDbLine
 10
-15.404155
 20
188.5
 30
0.0
 11
-94.904155
 21
188.5
 31
0.0
  0
LINE
  5
311
100
AcDbEntity
  8
0
370
    -3
  6
Continuous
100
AcDbLine
 10
-236.904155
 20
357.5
 30
0.0
 11
-236.904155
 21
197.5
 31
0.0
  0
LINE
  5
312
100
AcDbEntity
  8
0
370
    -3
  6
Continuous
100
AcDbLine
 10
-236.904155
 20
199.5
 30
0.0
 11
-234.904155
 21
197.5
 31
0.0
  0
LINE
  5
313
100
AcDbEntity
  8
0
370
    -3
  6
Continuous
100
AcDbLine
 10
-234.904155
 20
357.5
 30
0.0
 11
-236.904155
 21
355.5
 31
0.0
  0
LINE
  5
314
100
AcDbEntity
  8
0
370
    -3
  6
Continuous
100
AcDbLine
 10
-236.904155
 20
355.5
 30
0.0
 11
-236.904155
 21
199.5
 31
0.0
  0
LINE
  5
315
100
AcDbEntity
  8
0
370
    -3
  6
Continuous
100
AcDbLine
 10
51.095845
 20
277.5
 30
0.0
 11
-229.904155
 21
277.5
 31
0.0
  0
LINE
  5
316
100
AcDbEntity
  8
0
370
    -3
  6
Continuous
100
AcDbLine
 10
-227.90484
 20
277.447646
 30
0.0
 11
-227.824911
 21
280.5
 31
0.0
  0
LINE
  5
317
100
AcDbEntity
  8
0
370
    -3
  6
Continuous
100
AcDbLine
 10
49.096531
 20
277.447646
 30
0.0
 11
49.016602
 21
280.5
 31
0.0
  0
LINE
  5
318
100
AcDbEntity
  8
0
370
    -3
  6
Continuous
100
AcDbLine
 10
51.017288
 20
280.5
 30
0.0
 11
-229.825597
 21
280.5
 31
0.0
  0
LINE
  5
319
100
AcDbEntity
  8
0
370
    -3
  6
Continuous
100
AcDbLine
 10
20.095845
 20
361.5
 30
0.0
 11
19.095845
 21
362.5
 31
0.0
  0
LINE
  5
31A
100
AcDbEntity
  8
0
370
    -3
  6
Continuous
100
AcDbLine
 10
51.017288
 20
280.5
 30
0.0
 11
49.354482
 21
344.0
 31
0.0
  0
LINE
  5
31B
100
AcDbEntity
  8
0
370
    -3
  6
Continuous
100
AcDbLine
 10
20.095845
 20
357.5
 30
0.0
 11
20.095845
 21
361.5
 31
0.0
  0
LINE
  5
31C
100
AcDbEntity
  8
0
370
    -3
  6
Continuous
100
AcDbLine
 10
47.095845
 20
344.0
 30
0.0
 11
46.768513
 21
356.500343
 31
0.0
  0
LINE
  5
31D
100
AcDbEntity
  8
0
370
    -3
  6
Continuous
100
AcDbLine
 10
45.742336
 20
357.5
 30
0.0
 11
46.768513
 21
356.500343
 31
0.0
  0
LINE
  5
31E
100
AcDbEntity
  8
0
370
    -3
  6
Continuous
100
AcDbLine
 10
-128.904155
 20
362.5
 30
0.0
 11
-129.904155
 21
361.5
 31
0.0
  0
LINE
  5
31F
100
AcDbEntity
  8
0
370
    -3
  6
Continuous
100
AcDbLine
 10
19.095845
 20
362.5
 30
0.0
 11
-128.904155
 21
362.5
 31
0.0
  0
LINE
  5
320
100
AcDbEntity
  8
0
370
    -3
  6
Continuous
100
AcDbLine
 10
49.354482
 20
344.0
 30
0.0
 11
-228.162791
 21
344.0
 31
0.0
  0
LINE
  5
321
100
AcDbEntity
  8
0
370
    -3
  6
Continuous
100
AcDbLine
 10
-229.825597
 20
280.5
 30
0.0
 11
-228.162791
 21
344.0
 31
0.0
  0
LINE
  5
322
100
AcDbEntity
  8
0
370
    -3
  6
Continuous
100
AcDbLine
 10
-129.904155
 20
357.5
 30
0.0
 11
-129.904155
 21
361.5
 31
0.0
  0
LINE
  5
323
100
AcDbEntity
  8
0
370
    -3
  6
Continuous
100
AcDbLine
 10
-225.576822
 20
356.500343
 30
0.0
 11
-225.904155
 21
344.0
 31
0.0
  0
LINE
  5
324
100
AcDbEntity
  8
0
370
    -3
  6
Continuous
100
AcDbLine
 10
-224.550645
 20
357.5
 30
0.0
 11
-225.576822
 21
356.500343
 31
0.0
  0
LINE
  5
325
100
AcDbEntity
  8
0
370
    -3
  6
Continuous
100
AcDbLine
 10
45.742336
 20
357.5
 30
0.0
 11
-234.904155
 21
357.5
 31
0.0
  0
LINE
  5
326
100
AcDbEntity
  8
0
370
    -3
  6
Continuous
100
AcDbLine
 10
45.742336
 20
197.5
 30
0.0
 11
46.768513
 21
198.499657
 31
0.0
  0
LINE
  5
327
100
AcDbEntity
  8
0
370
    -3
  6
Continuous
100
AcDbLine
 10
-224.550645
 20
197.5
 30
0.0
 11
-225.576822
 21
198.499657
 31
0.0
  0
LINE
  5
328
100
AcDbEntity
  8
0
370
    -3
  6
Continuous
100
AcDbLine
 10
49.354482
 20
211.0
 30
0.0
 11
-228.162791
 21
211.0
 31
0.0
  0
LINE
  5
329
100
AcDbEntity
  8
0
370
    -3
  6
Continuous
100
AcDbLine
 10
-225.576822
 20
198.499657
 30
0.0
 11
-225.904155
 21
211.0
 31
0.0
  0
LINE
  5
32A
100
AcDbEntity
  8
0
370
    -3
  6
Continuous
100
AcDbLine
 10
47.095845
 20
211.0
 30
0.0
 11
46.768513
 21
198.499657
 31
0.0
  0
LINE
  5
32B
100
AcDbEntity
  8
0
370
    -3
  6
Continuous
100
AcDbLine
 10
45.742336
 20
197.5
 30
0.0
 11
-234.904155
 21
197.5
 31
0.0
  0
LINE
  5
32C
100
AcDbEntity
  8
0
370
    -3
  6
Continuous
100
AcDbLine
 10
20.095845
 20
193.5
 30
0.0
 11
19.095845
 21
192.5
 31
0.0
  0
LINE
  5
32D
100
AcDbEntity
  8
0
370
    -3
  6
Continuous
100
AcDbLine
 10
-128.904155
 20
192.5
 30
0.0
 11
-129.904155
 21
193.5
 31
0.0
  0
LINE
  5
32E
100
AcDbEntity
  8
0
370
    -3
  6
Continuous
100
AcDbLine
 10
20.095845
 20
197.5
 30
0.0
 11
20.095845
 21
193.5
 31
0.0
  0
LINE
  5
32F
100
AcDbEntity
  8
0
370
    -3
  6
Continuous
100
AcDbLine
 10
-129.904155
 20
197.5
 30
0.0
 11
-129.904155
 21
193.5
 31
0.0
  0
LINE
  5
330
100
AcDbEntity
  8
0
370
    -3
  6
CENTER
100
AcDbLine
 10
-54.904155
 20
376.101428
 30
0.0
 11
-54.904155
 21
172.344037
 31
0.0
  0
LINE
  5
331
100
AcDbEntity
  8
0
370
    -3
  6
Continuous
100
AcDbLine
 10
19.095845
 20
192.5
 30
0.0
 11
-128.904155
 21
192.5
 31
0.0
  0
LINE
  5
332
100
AcDbEntity
  8
0
370
    -3
  6
Continuous
100
AcDbLine
 10
-229.904155
 20
277.5
 30
0.0
 11
-228.162791
 21
211.0
 31
0.0
  0
LINE
  5
333
100
AcDbEntity
  8
0
370
    -3
  6
Continuous
100
AcDbLine
 10
51.095845
 20
277.5
 30
0.0
 11
49.354482
 21
211.0
 31
0.0
  0
ARC
  5
334
100
AcDbEntity
  8
0
370
    -3
  6
Continuous
100
AcDbCircle
 10
-254.904155
 20
205.500095
 30
0.0
 40
1.0
100
AcDbArc
 50
0.0
 51
90.0
  0
ARC
  5
335
100
AcDbEntity
  8
0
370
    -3
  6
Continuous
100
AcDbCircle
 10
-251.904155
 20
196.0
 30
0.0
 40
2.0
100
AcDbArc
 50
180.0
 51
270.0
  0
LINE
  5
336
100
AcDbEntity
  8
0
370
    -3
  6
Continuous
100
AcDbLine
 10
-253.904155
 20
255.0
 30
0.0
 11
-253.904155
 21
196.0
 31
0.0
  0
LINE
  5
337
100
AcDbEntity
  8
0
370
    -3
  6
Continuous
100
AcDbLine
 10
-254.904155
 20
255.0
 30
0.0
 11
-254.904155
 21
206.500095
 31
0.0
  0
LINE
  5
338
100
AcDbEntity
  8
0
370
    -3
  6
Continuous
100
AcDbLine
 10
-254.904155
 20
194.0
 30
0.0
 11
-254.904155
 21
255.0
 31
0.0
  0
LINE
  5
339
100
AcDbEntity
  8
0
370
    -3
  6
Continuous
100
AcDbLine
 10
-253.904155
 20
255.0
 30
0.0
 11
-253.904155
 21
300.0
 31
0.0
  0
ARC
  5
33A
100
AcDbEntity
  8
0
370
    -3
  6
Continuous
100
AcDbCircle
 10
-250.904155
 20
258.0
 30
0.0
 40
3.0
100
AcDbArc
 50
180.0
 51
270.0
  0
LINE
  5
33B
100
AcDbEntity
  8
0
370
    -3
  6
Continuous
100
AcDbLine
 10
-262.904155
 20
255.0
 30
0.0
 11
-262.904155
 21
300.0
 31
0.0
  0
LINE
  5
33C
100
AcDbEntity
  8
0
370
    -3
  6
Continuous
100
AcDbLine
 10
-262.904155
 20
255.0
 30
0.0
 11
-253.904155
 21
255.0
 31
0.0
  0
INSERT
  5
348
100
AcDbEntity
  8
0
100
AcDbBlockReference
  2
ZU_SYM__USERS_HOME_SYMBOL_POO_SYM_B20_00004-1
 10
-262.904155
 20
267.0
 30
0.0
 41
-1.0
 50
180.0
  0
INSERT
  5
354
100
AcDbEntity
  8
0
100
AcDbBlockReference
  2
ZU_SYM__USERS_HOME_SYMBOL_POO_SYM_B20_00005-1
 10
-262.904155
 20
288.0
 30
0.0
 50
360.0
  0
LINE
  5
355
100
AcDbEntity
  8
0
370
    -3
  6
Continuous
100
AcDbLine
 10
-253.904155
 20
300.0
 30
0.0
 11
-253.904155
 21
359.0
 31
0.0
  0
ARC
  5
356
100
AcDbEntity
  8
0
370
    -3
  6
Continuous
100
AcDbCircle
 10
-250.904155
 20
297.0
 30
0.0
 40
3.0
100
AcDbArc
 50
90.0
 51
180.0
  0
LINE
  5
357
100
AcDbEntity
  8
0
370
    -3
  6
Continuous
100
AcDbLine
 10
-262.904155
 20
300.0
 30
0.0
 11
-253.904155
 21
300.0
 31
0.0
  0
LINE
  5
358
100
AcDbEntity
  8
0
370
    -3
  6
Continuous
100
AcDbLine
 10
-254.904155
 20
300.0
 30
0.0
 11
-254.904155
 21
348.499905
 31
0.0
  0
LINE
  5
359
100
AcDbEntity
  8
0
370
    -3
  6
Continuous
100
AcDbLine
 10
-254.904155
 20
300.0
 30
0.0
 11
-254.904155
 21
361.0
 31
0.0
  0
ARC
  5
35A
100
AcDbEntity
  8
0
370
    -3
  6
Continuous
100
AcDbCircle
 10
-251.904155
 20
359.0
 30
0.0
 40
2.0
100
AcDbArc
 50
90.0
 51
180.0
  0
LINE
  5
35B
100
AcDbEntity
  8
0
370
    -3
  6
CENTER
100
AcDbLine
 10
-153.902777
 20
-80.192811
 30
0.0
 11
-571.714007
 21
-80.191987
 31
0.0
  0
ARC
  5
35C
100
AcDbEntity
  8
0
370
    -3
  6
Continuous
100
AcDbCircle
 10
-515.972188
 20
-126.692612
 30
0.0
 40
40.8
100
AcDbArc
 50
240.0
 51
270.0
  0
LINE
  5
35D
100
AcDbEntity
  8
0
370
    -3
  6
Continuous
100
AcDbLine
 10
-554.904155
 20
-149.13308
 30
0.0
 11
-554.904155
 21
-80.192612
 31
0.0
  0
LINE
  5
35E
100
AcDbEntity
  8
0
370
    -3
  6
Continuous
100
AcDbLine
 10
-553.004155
 20
-152.423977
 30
0.0
 11
-536.372188
 21
-162.026448
 31
0.0
  0
ARC
  5
35F
100
AcDbEntity
  8
0
370
    -3
  6
Continuous
100
AcDbCircle
 10
-551.104155
 20
-149.13308
 30
0.0
 40
3.8
100
AcDbArc
 50
180.0
 51
240.0
  0
LINE
  5
360
100
AcDbEntity
  8
0
370
    -3
  6
Continuous
100
AcDbLine
 10
-554.904155
 20
-11.252143
 30
0.0
 11
-554.904155
 21
-80.192612
 31
0.0
  0
LINE
  5
361
100
AcDbEntity
  8
0
370
    -3
  6
Continuous
100
AcDbLine
 10
-553.004155
 20
-7.961246
 30
0.0
 11
-536.372188
 21
1.641225
 31
0.0
  0
ARC
  5
362
100
AcDbEntity
  8
0
370
    -3
  6
Continuous
100
AcDbCircle
 10
-515.972188
 20
-33.692612
 30
0.0
 40
40.8
100
AcDbArc
 50
90.0
 51
120.0
  0
ARC
  5
363
100
AcDbEntity
  8
0
370
    -3
  6
Continuous
100
AcDbCircle
 10
-551.104155
 20
-11.252143
 30
0.0
 40
3.8
100
AcDbArc
 50
120.0
 51
180.0
  0
LINE
  5
364
100
AcDbEntity
  8
0
370
    -3
  6
Continuous
100
AcDbLine
 10
-515.972188
 20
7.107388
 30
0.0
 11
-409.904155
 21
7.107388
 31
0.0
  0
LINE
  5
365
100
AcDbEntity
  8
0
370
    -3
  6
Continuous
100
AcDbLine
 10
-515.972188
 20
-167.492612
 30
0.0
 11
-429.902383
 21
-167.492612
 31
0.0
  0
LINE
  5
366
100
AcDbEntity
  8
0
370
    -3
  6
Continuous
100
AcDbLine
 10
-254.904155
 20
-139.000756
 30
0.0
 11
-409.904155
 21
-139.000756
 31
0.0
  0
LINE
  5
367
100
AcDbEntity
  8
0
370
    -3
  6
Continuous
100
AcDbLine
 10
-254.904155
 20
-146.071824
 30
0.0
 11
-409.904155
 21
-146.071824
 31
0.0
  0
LINE
  5
368
100
AcDbEntity
  8
0
370
    -3
  6
Continuous
100
AcDbLine
 10
-254.904155
 20
-155.192612
 30
0.0
 11
-409.904155
 21
-155.192612
 31
0.0
  0
LINE
  5
369
100
AcDbEntity
  8
0
370
    -3
  6
Continuous
100
AcDbLine
 10
-254.904155
 20
-160.192612
 30
0.0
 11
-409.904155
 21
-160.192612
 31
0.0
  0
ARC
  5
36A
100
AcDbEntity
  8
0
370
    -3
  6
Continuous
100
AcDbCircle
 10
-412.904155
 20
-163.552121
 30
0.0
 40
3.0
100
AcDbArc
 50
270.0
 51
0.0
  0
ELLIPSE
  5
36B
100
AcDbEntity
  8
0
370
    -3
  6
Continuous
100
AcDbEllipse
 10
-435.404155
 20
-145.844046
 30
0.0
 11
5.0
 21
0.0
 31
0.0
210
0.0
220
0.0
230
1.0
 40
0.707107
 41
0.0
 42
3.1415926535897931
  0
LINE
  5
36C
100
AcDbEntity
  8
0
370
    -3
  6
Continuous
100
AcDbLine
 10
-440.404155
 20
-146.660649
 30
0.0
 11
-440.404155
 21
-145.844046
 31
0.0
  0
LINE
  5
36D
100
AcDbEntity
  8
0
370
    -3
  6
Continuous
100
AcDbLine
 10
-430.404155
 20
-146.660649
 30
0.0
 11
-430.404155
 21
-145.844046
 31
0.0
  0
ELLIPSE
  5
36E
100
AcDbEntity
  8
0
370
    -3
  6
Continuous
100
AcDbEllipse
 10
-435.404155
 20
-146.660649
 30
0.0
 11
4.5
 21
0.0
 31
0.0
210
0.0
220
0.0
230
1.0
 40
0.707107
 41
0.0
 42
3.1415926535897931
  0
LINE
  5
36F
100
AcDbEntity
  8
0
370
    -3
  6
Continuous
100
AcDbLine
 10
-439.904155
 20
-147.226334
 30
0.0
 11
-439.904155
 21
-146.660649
 31
0.0
  0
LINE
  5
370
100
AcDbEntity
  8
0
370
    -3
  6
Continuous
100
AcDbLine
 10
-430.904155
 20
-147.226334
 30
0.0
 11
-430.904155
 21
-146.660649
 31
0.0
  0
ELLIPSE
  5
371
100
AcDbEntity
  8
0
370
    -3
  6
Continuous
100
AcDbEllipse
 10
-435.404155
 20
-146.660649
 30
0.0
 11
5.0
 21
0.0
 31
0.0
210
0.0
220
0.0
230
1.0
 40
0.707107
 41
5.5439134802389658
 42
0.0
  0
ELLIPSE
  5
372
100
AcDbEntity
  8
0
370
    -3
  6
Continuous
100
AcDbEllipse
 10
-435.404155
 20
-146.660649
 30
0.0
 11
5.0
 21
0.0
 31
0.0
210
0.0
220
0.0
230
1.0
 40
0.707107
 41
3.1415926535897931
 42
3.880864480530414
  0
ELLIPSE
  5
373
100
AcDbEntity
  8
0
370
    -3
  6
Continuous
100
AcDbEllipse
 10
-435.404155
 20
-147.762853
 30
0.0
 11
3.5
 21
0.0
 31
0.0
210
0.0
220
0.0
230
1.0
 40
0.860398
 41
0.0
 42
6.2831853071795862
  0
ELLIPSE
  5
374
100
AcDbEntity
  8
0
370
    -3
  6
Continuous
100
AcDbEllipse
 10
-435.404155
 20
-147.226334
 30
0.0
 11
4.5
 21
0.0
 31
0.0
210
0.0
220
0.0
230
1.0
 40
0.707107
 41
5.3002993159359626
 42
4.1244786448334168
  0
LINE
  5
375
100
AcDbEntity
  8
0
370
    -3
  6
Continuous
100
AcDbLine
 10
-435.404155
 20
-149.064812
 30
0.0
 11
-433.404155
 21
-147.491475
 31
0.0
  0
LINE
  5
376
100
AcDbEntity
  8
0
370
    -3
  6
Continuous
100
AcDbLine
 10
-435.404155
 20
-149.064812
 30
0.0
 11
-433.47495
 21
-150.275475
 31
0.0
  0
LINE
  5
377
100
AcDbEntity
  8
0
370
    -3
  6
Continuous
100
AcDbLine
 10
-435.404155
 20
-149.064812
 30
0.0
 11
-437.404155
 21
-147.491475
 31
0.0
  0
LINE
  5
378
100
AcDbEntity
  8
0
370
    -3
  6
Continuous
100
AcDbLine
 10
-435.404155
 20
-149.064812
 30
0.0
 11
-437.333359
 21
-150.275475
 31
0.0
  0
LINE
  5
379
100
AcDbEntity
  8
0
370
    -3
  6
Continuous
100
AcDbLine
 10
-409.904155
 20
-163.552121
 30
0.0
 11
-409.904155
 21
-80.192612
 31
0.0
  0
LINE
  5
37A
100
AcDbEntity
  8
0
370
    -3
  6
Continuous
100
AcDbLine
 10
-254.904155
 20
-5.192612
 30
0.0
 11
-409.904155
 21
-5.192612
 31
0.0
  0
LINE
  5
37B
100
AcDbEntity
  8
0
370
    -3
  6
Continuous
100
AcDbLine
 10
-254.904155
 20
-14.313399
 30
0.0
 11
-409.904155
 21
-14.313399
 31
0.0
  0
LINE
  5
37C
100
AcDbEntity
  8
0
370
    -3
  6
Continuous
100
AcDbLine
 10
-254.904155
 20
-21.384467
 30
0.0
 11
-409.904155
 21
-21.384467
 31
0.0
  0
LINE
  5
37D
100
AcDbEntity
  8
0
370
    -3
  6
Continuous
100
AcDbLine
 10
-254.904155
 20
-34.054887
 30
0.0
 11
-409.904155
 21
-34.054887
 31
0.0
  0
LINE
  5
37E
100
AcDbEntity
  8
0
370
    -3
  6
Continuous
100
AcDbLine
 10
-254.904155
 20
-36.277214
 30
0.0
 11
-409.904155
 21
-36.277214
 31
0.0
  0
LINE
  5
37F
100
AcDbEntity
  8
0
370
    -3
  6
Continuous
100
AcDbLine
 10
-254.904155
 20
-44.087673
 30
0.0
 11
-409.904155
 21
-44.087673
 31
0.0
  0
LINE
  5
380
100
AcDbEntity
  8
0
370
    -3
  6
Continuous
100
AcDbLine
 10
-254.904155
 20
-46.254384
 30
0.0
 11
-409.904155
 21
-46.254384
 31
0.0
  0
LINE
  5
381
100
AcDbEntity
  8
0
370
    -3
  6
Continuous
100
AcDbLine
 10
-254.904155
 20
-54.149991
 30
0.0
 11
-409.904155
 21
-54.149991
 31
0.0
  0
LINE
  5
382
100
AcDbEntity
  8
0
370
    -3
  6
Continuous
100
AcDbLine
 10
-254.904155
 20
-56.214754
 30
0.0
 11
-409.904155
 21
-56.214754
 31
0.0
  0
LINE
  5
383
100
AcDbEntity
  8
0
370
    -3
  6
Continuous
100
AcDbLine
 10
-254.904155
 20
-64.220883
 30
0.0
 11
-409.904155
 21
-64.220883
 31
0.0
  0
LINE
  5
384
100
AcDbEntity
  8
0
370
    -3
  6
Continuous
100
AcDbLine
 10
-254.904155
 20
-66.163267
 30
0.0
 11
-409.904155
 21
-66.163267
 31
0.0
  0
LINE
  5
385
100
AcDbEntity
  8
0
370
    -3
  6
Continuous
100
AcDbLine
 10
-254.904155
 20
-74.253342
 30
0.0
 11
-409.904155
 21
-74.253342
 31
0.0
  0
LINE
  5
386
100
AcDbEntity
  8
0
370
    -3
  6
Continuous
100
AcDbLine
 10
-254.904155
 20
-76.148114
 30
0.0
 11
-409.904155
 21
-76.148114
 31
0.0
  0
LINE
  5
387
100
AcDbEntity
  8
0
370
    -3
  6
Continuous
100
AcDbLine
 10
-254.904155
 20
-84.237109
 30
0.0
 11
-409.904155
 21
-84.237109
 31
0.0
  0
LINE
  5
388
100
AcDbEntity
  8
0
370
    -3
  6
Continuous
100
AcDbLine
 10
-254.904155
 20
-86.131881
 30
0.0
 11
-409.904155
 21
-86.131881
 31
0.0
  0
LINE
  5
389
100
AcDbEntity
  8
0
370
    -3
  6
Continuous
100
AcDbLine
 10
-254.904155
 20
-94.221956
 30
0.0
 11
-409.904155
 21
-94.221956
 31
0.0
  0
LINE
  5
38A
100
AcDbEntity
  8
0
370
    -3
  6
Continuous
100
AcDbLine
 10
-254.904155
 20
-96.16434
 30
0.0
 11
-409.904155
 21
-96.16434
 31
0.0
  0
LINE
  5
38B
100
AcDbEntity
  8
0
370
    -3
  6
Continuous
100
AcDbLine
 10
-254.904155
 20
-104.170469
 30
0.0
 11
-409.904155
 21
-104.170469
 31
0.0
  0
LINE
  5
38C
100
AcDbEntity
  8
0
370
    -3
  6
Continuous
100
AcDbLine
 10
-254.904155
 20
-106.235232
 30
0.0
 11
-409.904155
 21
-106.235232
 31
0.0
  0
LINE
  5
38D
100
AcDbEntity
  8
0
370
    -3
  6
Continuous
100
AcDbLine
 10
-254.904155
 20
-114.130839
 30
0.0
 11
-409.904155
 21
-114.130839
 31
0.0
  0
LINE
  5
38E
100
AcDbEntity
  8
0
370
    -3
  6
Continuous
100
AcDbLine
 10
-254.904155
 20
-116.29755
 30
0.0
 11
-409.904155
 21
-116.29755
 31
0.0
  0
LINE
  5
38F
100
AcDbEntity
  8
0
370
    -3
  6
Continuous
100
AcDbLine
 10
-254.904155
 20
-124.108009
 30
0.0
 11
-409.904155
 21
-124.108009
 31
0.0
  0
LINE
  5
390
100
AcDbEntity
  8
0
370
    -3
  6
Continuous
100
AcDbLine
 10
-254.904155
 20
-126.330336
 30
0.0
 11
-409.904155
 21
-126.330336
 31
0.0
  0
LINE
  5
391
100
AcDbEntity
  8
0
370
    -3
  6
Continuous
100
AcDbLine
 10
-409.904155
 20
3.307388
 30
0.0
 11
-254.904155
 21
3.307388
 31
0.0
  0
ELLIPSE
  5
392
100
AcDbEntity
  8
0
370
    -3
  6
Continuous
100
AcDbEllipse
 10
-435.404155
 20
-14.541177
 30
0.0
 11
5.0
 21
0.0
 31
0.0
210
0.0
220
0.0
230
1.0
 40
0.707107
 41
3.1415926535897931
 42
0.0
  0
LINE
  5
393
100
AcDbEntity
  8
0
370
    -3
  6
Continuous
100
AcDbLine
 10
-440.404155
 20
-13.724574
 30
0.0
 11
-440.404155
 21
-14.541177
 31
0.0
  0
LINE
  5
394
100
AcDbEntity
  8
0
370
    -3
  6
Continuous
100
AcDbLine
 10
-430.404155
 20
-13.724574
 30
0.0
 11
-430.404155
 21
-14.541177
 31
0.0
  0
ELLIPSE
  5
395
100
AcDbEntity
  8
0
370
    -3
  6
Continuous
100
AcDbEllipse
 10
-435.404155
 20
-13.724574
 30
0.0
 11
4.5
 21
0.0
 31
0.0
210
0.0
220
0.0
230
1.0
 40
0.707107
 41
3.1415926535897931
 42
0.0
  0
LINE
  5
396
100
AcDbEntity
  8
0
370
    -3
  6
Continuous
100
AcDbLine
 10
-439.904155
 20
-13.158889
 30
0.0
 11
-439.904155
 21
-13.724574
 31
0.0
  0
LINE
  5
397
100
AcDbEntity
  8
0
370
    -3
  6
Continuous
100
AcDbLine
 10
-430.904155
 20
-13.158889
 30
0.0
 11
-430.904155
 21
-13.724574
 31
0.0
  0
ELLIPSE
  5
398
100
AcDbEntity
  8
0
370
    -3
  6
Continuous
100
AcDbEllipse
 10
-435.404155
 20
-13.724574
 30
0.0
 11
5.0
 21
0.0
 31
0.0
210
0.0
220
0.0
230
1.0
 40
0.707107
 41
0.0
 42
0.7392718269406207
  0
ELLIPSE
  5
399
100
AcDbEntity
  8
0
370
    -3
  6
Continuous
100
AcDbEllipse
 10
-435.404155
 20
-13.724574
 30
0.0
 11
5.0
 21
0.0
 31
0.0
210
0.0
220
0.0
230
1.0
 40
0.707107
 41
2.4023208266491722
 42
3.1415926535897931
  0
ELLIPSE
  5
39A
100
AcDbEntity
  8
0
370
    -3
  6
Continuous
100
AcDbEllipse
 10
-435.404155
 20
-12.622371
 30
0.0
 11
3.5
 21
0.0
 31
0.0
210
0.0
220
0.0
230
1.0
 40
0.860398
 41
0.0
 42
6.2831853071795862
  0
ELLIPSE
  5
39B
100
AcDbEntity
  8
0
370
    -3
  6
Continuous
100
AcDbEllipse
 10
-435.404155
 20
-13.158889
 30
0.0
 11
4.5
 21
0.0
 31
0.0
210
0.0
220
0.0
230
1.0
 40
0.707107
 41
2.158706662346169
 42
0.9828859912436241
  0
LINE
  5
39C
100
AcDbEntity
  8
0
370
    -3
  6
Continuous
100
AcDbLine
 10
-435.404155
 20
-11.320411
 30
0.0
 11
-433.404155
 21
-12.893749
 31
0.0
  0
LINE
  5
39D
100
AcDbEntity
  8
0
370
    -3
  6
Continuous
100
AcDbLine
 10
-435.404155
 20
-11.320411
 30
0.0
 11
-433.47495
 21
-10.109749
 31
0.0
  0
LINE
  5
39E
100
AcDbEntity
  8
0
370
    -3
  6
Continuous
100
AcDbLine
 10
-435.404155
 20
-11.320411
 30
0.0
 11
-437.404155
 21
-12.893749
 31
0.0
  0
LINE
  5
39F
100
AcDbEntity
  8
0
370
    -3
  6
Continuous
100
AcDbLine
 10
-435.404155
 20
-11.320411
 30
0.0
 11
-437.333359
 21
-10.109749
 31
0.0
  0
LINE
  5
3A0
100
AcDbEntity
  8
0
370
    -3
  6
Continuous
100
AcDbLine
 10
-409.904155
 20
7.107388
 30
0.0
 11
-409.904155
 21
-80.192612
 31
0.0
  0
ARC
  5
3A1
100
AcDbEntity
  8
0
370
    -3
  6
Continuous
100
AcDbCircle
 10
-428.904155
 20
-167.552121
 30
0.0
 40
1.0
100
AcDbArc
 50
90.0
 51
176.588332
  0
LINE
  5
3A2
100
AcDbEntity
  8
0
370
    -3
  6
Continuous
100
AcDbLine
 10
-412.904155
 20
-166.552121
 30
0.0
 11
-428.904155
 21
-166.552121
 31
0.0
  0
LINE
  5
3A3
100
AcDbEntity
  8
0
370
    -3
  6
Continuous
100
AcDbLine
 10
-254.904155
 20
-0.192612
 30
0.0
 11
-409.904155
 21
-0.192612
 31
0.0
  0
LINE
  5
3A4
100
AcDbEntity
  8
0
370
    -3
  6
Continuous
100
AcDbLine
 10
-254.904155
 20
2.307388
 30
0.0
 11
-409.904155
 21
2.307388
 31
0.0
  0
LINE
  5
3A5
100
AcDbEntity
  8
0
370
    -3
  6
Continuous
100
AcDbLine
 10
-254.904155
 20
2.807388
 30
0.0
 11
-409.904155
 21
2.807388
 31
0.0
  0
LINE
  5
3A6
100
AcDbEntity
  8
0
370
    -3
  6
Continuous
100
AcDbLine
 10
-254.904155
 20
255.0
 30
0.0
 11
-254.904155
 21
194.0
 31
0.0
  0
LINE
  5
3A7
100
AcDbEntity
  8
0
370
    -3
  6
Continuous
100
AcDbLine
 10
-254.904155
 20
300.0
 30
0.0
 11
-254.904155
 21
361.0
 31
0.0
  0
LINE
  5
3A8
100
AcDbEntity
  8
0
370
    -3
  6
Continuous
100
AcDbLine
 10
-254.904155
 20
218.691855
 30
0.0
 11
-409.904155
 21
218.691855
 31
0.0
  0
LINE
  5
3A9
100
AcDbEntity
  8
0
370
    -3
  6
Continuous
100
AcDbLine
 10
-254.904155
 20
231.362276
 30
0.0
 11
-409.904155
 21
231.362276
 31
0.0
  0
LINE
  5
3AA
100
AcDbEntity
  8
0
370
    -3
  6
Continuous
100
AcDbLine
 10
-254.904155
 20
233.584602
 30
0.0
 11
-409.904155
 21
233.584602
 31
0.0
  0
LINE
  5
3AB
100
AcDbEntity
  8
0
370
    -3
  6
Continuous
100
AcDbLine
 10
-254.904155
 20
241.395062
 30
0.0
 11
-409.904155
 21
241.395062
 31
0.0
  0
LINE
  5
3AC
100
AcDbEntity
  8
0
370
    -3
  6
Continuous
100
AcDbLine
 10
-254.904155
 20
194.0
 30
0.0
 11
-409.904155
 21
194.0
 31
0.0
  0
LINE
  5
3AD
100
AcDbEntity
  8
0
370
    -3
  6
Continuous
100
AcDbLine
 10
-254.904155
 20
253.5
 30
0.0
 11
-409.904155
 21
253.5
 31
0.0
  0
LINE
  5
3AE
100
AcDbEntity
  8
0
370
    -3
  6
Continuous
100
AcDbLine
 10
-254.904155
 20
243.561772
 30
0.0
 11
-409.904155
 21
243.561772
 31
0.0
  0
LINE
  5
3AF
100
AcDbEntity
  8
0
370
    -3
  6
Continuous
100
AcDbLine
 10
-254.904155
 20
211.620787
 30
0.0
 11
-409.904155
 21
211.620787
 31
0.0
  0
LINE
  5
3B0
100
AcDbEntity
  8
0
370
    -3
  6
Continuous
100
AcDbLine
 10
-254.904155
 20
202.5
 30
0.0
 11
-409.904155
 21
202.5
 31
0.0
  0
LINE
  5
3B1
100
AcDbEntity
  8
0
370
    -3
  6
Continuous
100
AcDbLine
 10
-254.904155
 20
197.5
 30
0.0
 11
-409.904155
 21
197.5
 31
0.0
  0
LINE
  5
3B2
100
AcDbEntity
  8
0
370
    -3
  6
Continuous
100
AcDbLine
 10
-254.904155
 20
195.0
 30
0.0
 11
-409.904155
 21
195.0
 31
0.0
  0
LINE
  5
3B3
100
AcDbEntity
  8
0
370
    -3
  6
Continuous
100
AcDbLine
 10
-254.904155
 20
194.5
 30
0.0
 11
-409.904155
 21
194.5
 31
0.0
  0
LINE
  5
3B4
100
AcDbEntity
  8
0
370
    -3
  6
Continuous
100
AcDbLine
 10
-254.904155
 20
301.5
 30
0.0
 11
-409.904155
 21
301.5
 31
0.0
  0
LINE
  5
3B5
100
AcDbEntity
  8
0
370
    -3
  6
Continuous
100
AcDbLine
 10
-254.904155
 20
336.308145
 30
0.0
 11
-409.904155
 21
336.308145
 31
0.0
  0
LINE
  5
3B6
100
AcDbEntity
  8
0
370
    -3
  6
Continuous
100
AcDbLine
 10
-254.904155
 20
321.415398
 30
0.0
 11
-409.904155
 21
321.415398
 31
0.0
  0
LINE
  5
3B7
100
AcDbEntity
  8
0
370
    -3
  6
Continuous
100
AcDbLine
 10
-254.904155
 20
323.637724
 30
0.0
 11
-409.904155
 21
323.637724
 31
0.0
  0
LINE
  5
3B8
100
AcDbEntity
  8
0
370
    -3
  6
Continuous
100
AcDbLine
 10
-254.904155
 20
313.604938
 30
0.0
 11
-409.904155
 21
313.604938
 31
0.0
  0
LINE
  5
3B9
100
AcDbEntity
  8
0
370
    -3
  6
Continuous
100
AcDbLine
 10
-254.904155
 20
311.438228
 30
0.0
 11
-409.904155
 21
311.438228
 31
0.0
  0
LINE
  5
3BA
100
AcDbEntity
  8
0
370
    -3
  6
Continuous
100
AcDbLine
 10
-254.904155
 20
343.379213
 30
0.0
 11
-409.904155
 21
343.379213
 31
0.0
  0
LINE
  5
3BB
100
AcDbEntity
  8
0
370
    -3
  6
Continuous
100
AcDbLine
 10
-254.904155
 20
352.5
 30
0.0
 11
-409.904155
 21
352.5
 31
0.0
  0
LINE
  5
3BC
100
AcDbEntity
  8
0
370
    -3
  6
Continuous
100
AcDbLine
 10
-254.904155
 20
357.5
 30
0.0
 11
-409.904155
 21
357.5
 31
0.0
  0
LINE
  5
3BD
100
AcDbEntity
  8
0
370
    -3
  6
Continuous
100
AcDbLine
 10
-254.904155
 20
360.0
 30
0.0
 11
-409.904155
 21
360.0
 31
0.0
  0
LINE
  5
3BE
100
AcDbEntity
  8
0
370
    -3
  6
Continuous
100
AcDbLine
 10
-254.904155
 20
360.5
 30
0.0
 11
-409.904155
 21
360.5
 31
0.0
  0
LINE
  5
3BF
100
AcDbEntity
  8
0
370
    -3
  6
Continuous
100
AcDbLine
 10
-254.904155
 20
361.0
 30
0.0
 11
-409.904155
 21
361.0
 31
0.0
  0
LINE
  5
3C0
100
AcDbEntity
  8
0
370
    -3
  6
Continuous
100
AcDbLine
 10
-409.904155
 20
364.8
 30
0.0
 11
-409.904155
 21
190.2
 31
0.0
  0
LINE
  5
3C1
100
AcDbEntity
  8
0
370
    -3
  6
Continuous
100
AcDbLine
 10
-515.972188
 20
364.8
 30
0.0
 11
-409.904155
 21
364.8
 31
0.0
  0
LINE
  5
3C2
100
AcDbEntity
  8
0
370
    -3
  6
Continuous
100
AcDbLine
 10
-515.972188
 20
190.2
 30
0.0
 11
-409.904155
 21
190.2
 31
0.0
  0
ARC
  5
3C3
100
AcDbEntity
  8
0
370
    -3
  6
Continuous
100
AcDbCircle
 10
-551.104155
 20
346.440469
 30
0.0
 40
3.8
100
AcDbArc
 50
120.0
 51
180.0
  0
LINE
  5
3C4
100
AcDbEntity
  8
0
370
    -3
  6
Continuous
100
AcDbLine
 10
-553.004155
 20
349.731365
 30
0.0
 11
-536.372188
 21
359.333836
 31
0.0
  0
LINE
  5
3C5
100
AcDbEntity
  8
0
370
    -3
  6
Continuous
100
AcDbLine
 10
-554.904155
 20
346.440469
 30
0.0
 11
-554.904155
 21
277.5
 31
0.0
  0
ARC
  5
3C6
100
AcDbEntity
  8
0
370
    -3
  6
Continuous
100
AcDbCircle
 10
-515.972188
 20
324.0
 30
0.0
 40
40.8
100
AcDbArc
 50
90.0
 51
120.0
  0
LINE
  5
3C7
100
AcDbEntity
  8
0
370
    -3
  6
Continuous
100
AcDbLine
 10
-435.404155
 20
208.627799
 30
0.0
 11
-437.333359
 21
207.417137
 31
0.0
  0
LINE
  5
3C8
100
AcDbEntity
  8
0
370
    -3
  6
Continuous
100
AcDbLine
 10
-435.404155
 20
208.627799
 30
0.0
 11
-437.404155
 21
210.201137
 31
0.0
  0
LINE
  5
3C9
100
AcDbEntity
  8
0
370
    -3
  6
Continuous
100
AcDbLine
 10
-435.404155
 20
208.627799
 30
0.0
 11
-433.47495
 21
207.417137
 31
0.0
  0
LINE
  5
3CA
100
AcDbEntity
  8
0
370
    -3
  6
Continuous
100
AcDbLine
 10
-435.404155
 20
208.627799
 30
0.0
 11
-433.404155
 21
210.201137
 31
0.0
  0
ELLIPSE
  5
3CB
100
AcDbEntity
  8
0
370
    -3
  6
Continuous
100
AcDbEllipse
 10
-435.404155
 20
210.466277
 30
0.0
 11
4.5
 21
0.0
 31
0.0
210
0.0
220
0.0
230
1.0
 40
0.707107
 41
5.3002993159359626
 42
4.1244786448334168
  0
ELLIPSE
  5
3CC
100
AcDbEntity
  8
0
370
    -3
  6
Continuous
100
AcDbEllipse
 10
-435.404155
 20
209.929759
 30
0.0
 11
3.5
 21
0.0
 31
0.0
210
0.0
220
0.0
230
1.0
 40
0.860398
 41
0.0
 42
6.2831853071795862
  0
ELLIPSE
  5
3CD
100
AcDbEntity
  8
0
370
    -3
  6
Continuous
100
AcDbEllipse
 10
-435.404155
 20
211.031963
 30
0.0
 11
5.0
 21
0.0
 31
0.0
210
0.0
220
0.0
230
1.0
 40
0.707107
 41
3.1415926535897931
 42
3.880864480530414
  0
ELLIPSE
  5
3CE
100
AcDbEntity
  8
0
370
    -3
  6
Continuous
100
AcDbEllipse
 10
-435.404155
 20
211.031963
 30
0.0
 11
5.0
 21
0.0
 31
0.0
210
0.0
220
0.0
230
1.0
 40
0.707107
 41
5.5439134802389658
 42
0.0
  0
LINE
  5
3CF
100
AcDbEntity
  8
0
370
    -3
  6
Continuous
100
AcDbLine
 10
-430.904155
 20
210.466277
 30
0.0
 11
-430.904155
 21
211.031963
 31
0.0
  0
LINE
  5
3D0
100
AcDbEntity
  8
0
370
    -3
  6
Continuous
100
AcDbLine
 10
-439.904155
 20
210.466277
 30
0.0
 11
-439.904155
 21
211.031963
 31
0.0
  0
ELLIPSE
  5
3D1
100
AcDbEntity
  8
0
370
    -3
  6
Continuous
100
AcDbEllipse
 10
-435.404155
 20
211.031963
 30
0.0
 11
4.5
 21
0.0
 31
0.0
210
0.0
220
0.0
230
1.0
 40
0.707107
 41
0.0
 42
3.1415926535897931
  0
LINE
  5
3D2
100
AcDbEntity
  8
0
370
    -3
  6
Continuous
100
AcDbLine
 10
-430.404155
 20
211.031963
 30
0.0
 11
-430.404155
 21
211.848566
 31
0.0
  0
LINE
  5
3D3
100
AcDbEntity
  8
0
370
    -3
  6
Continuous
100
AcDbLine
 10
-440.404155
 20
211.031963
 30
0.0
 11
-440.404155
 21
211.848566
 31
0.0
  0
ELLIPSE
  5
3D4
100
AcDbEntity
  8
0
370
    -3
  6
Continuous
100
AcDbEllipse
 10
-435.404155
 20
211.848566
 30
0.0
 11
5.0
 21
0.0
 31
0.0
210
0.0
220
0.0
230
1.0
 40
0.707107
 41
0.0
 42
3.1415926535897931
  0
LINE
  5
3D5
100
AcDbEntity
  8
0
370
    -3
  6
Continuous
100
AcDbLine
 10
-435.404155
 20
346.372201
 30
0.0
 11
-437.333359
 21
347.582863
 31
0.0
  0
LINE
  5
3D6
100
AcDbEntity
  8
0
370
    -3
  6
Continuous
100
AcDbLine
 10
-435.404155
 20
346.372201
 30
0.0
 11
-437.404155
 21
344.798863
 31
0.0
  0
LINE
  5
3D7
100
AcDbEntity
  8
0
370
    -3
  6
Continuous
100
AcDbLine
 10
-435.404155
 20
346.372201
 30
0.0
 11
-433.47495
 21
347.582863
 31
0.0
  0
LINE
  5
3D8
100
AcDbEntity
  8
0
370
    -3
  6
Continuous
100
AcDbLine
 10
-435.404155
 20
346.372201
 30
0.0
 11
-433.404155
 21
344.798863
 31
0.0
  0
ELLIPSE
  5
3D9
100
AcDbEntity
  8
0
370
    -3
  6
Continuous
100
AcDbEllipse
 10
-435.404155
 20
344.533723
 30
0.0
 11
4.5
 21
0.0
 31
0.0
210
0.0
220
0.0
230
1.0
 40
0.707107
 41
2.158706662346169
 42
0.9828859912436241
  0
ELLIPSE
  5
3DA
100
AcDbEntity
  8
0
370
    -3
  6
Continuous
100
AcDbEllipse
 10
-435.404155
 20
345.070241
 30
0.0
 11
3.5
 21
0.0
 31
0.0
210
0.0
220
0.0
230
1.0
 40
0.860398
 41
0.0
 42
6.2831853071795862
  0
ELLIPSE
  5
3DB
100
AcDbEntity
  8
0
370
    -3
  6
Continuous
100
AcDbEllipse
 10
-435.404155
 20
343.968037
 30
0.0
 11
5.0
 21
0.0
 31
0.0
210
0.0
220
0.0
230
1.0
 40
0.707107
 41
2.4023208266491722
 42
3.1415926535897931
  0
ELLIPSE
  5
3DC
100
AcDbEntity
  8
0
370
    -3
  6
Continuous
100
AcDbEllipse
 10
-435.404155
 20
343.968037
 30
0.0
 11
5.0
 21
0.0
 31
0.0
210
0.0
220
0.0
230
1.0
 40
0.707107
 41
0.0
 42
0.7392718269406207
  0
LINE
  5
3DD
100
AcDbEntity
  8
0
370
    -3
  6
Continuous
100
AcDbLine
 10
-430.904155
 20
344.533723
 30
0.0
 11
-430.904155
 21
343.968037
 31
0.0
  0
LINE
  5
3DE
100
AcDbEntity
  8
0
370
    -3
  6
Continuous
100
AcDbLine
 10
-439.904155
 20
344.533723
 30
0.0
 11
-439.904155
 21
343.968037
 31
0.0
  0
ELLIPSE
  5
3DF
100
AcDbEntity
  8
0
370
    -3
  6
Continuous
100
AcDbEllipse
 10
-435.404155
 20
343.968037
 30
0.0
 11
4.5
 21
0.0
 31
0.0
210
0.0
220
0.0
230
1.0
 40
0.707107
 41
3.1415926535897931
 42
0.0
  0
LINE
  5
3E0
100
AcDbEntity
  8
0
370
    -3
  6
Continuous
100
AcDbLine
 10
-430.404155
 20
343.968037
 30
0.0
 11
-430.404155
 21
343.151434
 31
0.0
  0
LINE
  5
3E1
100
AcDbEntity
  8
0
370
    -3
  6
Continuous
100
AcDbLine
 10
-440.404155
 20
343.968037
 30
0.0
 11
-440.404155
 21
343.151434
 31
0.0
  0
ELLIPSE
  5
3E2
100
AcDbEntity
  8
0
370
    -3
  6
Continuous
100
AcDbEllipse
 10
-435.404155
 20
343.151434
 30
0.0
 11
5.0
 21
0.0
 31
0.0
210
0.0
220
0.0
230
1.0
 40
0.707107
 41
3.1415926535897931
 42
0.0
  0
ARC
  5
3E3
100
AcDbEntity
  8
0
370
    -3
  6
Continuous
100
AcDbCircle
 10
-551.104155
 20
208.559531
 30
0.0
 40
3.8
100
AcDbArc
 50
180.0
 51
240.0
  0
ARC
  5
3E4
100
AcDbEntity
  8
0
370
    -3
  6
Continuous
100
AcDbCircle
 10
-515.972188
 20
231.0
 30
0.0
 40
40.8
100
AcDbArc
 50
240.0
 51
270.0
  0
LINE
  5
3E5
100
AcDbEntity
  8
0
370
    -3
  6
Continuous
100
AcDbLine
 10
-553.004155
 20
205.268635
 30
0.0
 11
-536.372188
 21
195.666164
 31
0.0
  0
LINE
  5
3E6
100
AcDbEntity
  8
0
370
    -3
  6
Continuous
100
AcDbLine
 10
-554.904155
 20
208.559531
 30
0.0
 11
-554.904155
 21
277.5
 31
0.0
  0
MTEXT
  5
3E7
100
AcDbEntity
  8
0
370
    -3
  6
Continuous
100
AcDbMText
 10
-786.720154
 20
304.581482
 30
0.0
 40
15.0
 41
0.0
 71
     7
 72
     1
  1
\W0.43;2.2kW
  7
ZU_SHPTB00001
 11
1.0
 21
0.0
 31
0.0
 73
     1
 44
1.0
  0
MTEXT
  5
3E8
100
AcDbEntity
  8
0
370
    -3
  6
Continuous
100
AcDbMText
 10
-786.720154
 20
270.681458
 30
0.0
 40
15.0
 41
0.0
 71
     7
 72
     1
  1
\W0.42;GEAR\W0.70; \W0.42;RATIO\W0.70;  \W0.42;1/80-1/240
  7
ZU_SHPTB00001
 11
1.0
 21
0.0
 31
0.0
 73
     1
 44
1.0
  0
MTEXT
  5
3E9
100
AcDbEntity
  8
0
370
    -3
  6
Continuous
100
AcDbMText
 10
-786.720154
 20
287.63147
 30
0.0
 40
15.0
 41
0.0
 71
     7
 72
     1
  1
\W0.43;37.5-12.5r/min\W0.53;　
  7
ZU_SHPTB00001
 11
1.0
 21
0.0
 31
0.0
 73
     1
 44
1.0
  0
MTEXT
  5
3EA
100
AcDbEntity
  8
0
370
    -3
  6
Continuous
100
AcDbMText
 10
-786.720154
 20
253.731461
 30
0.0
 40
15.0
 41
0.0
 71
     7
 72
     1
  1
\W0.43;SCALE\W0.72;  \W0.43;1/1
  7
ZU_SHPTB00001
 11
1.0
 21
0.0
 31
0.0
 73
     1
 44
1.0
  0
MTEXT
  5
3EB
100
AcDbEntity
  8
0
370
    -3
  6
Continuous
100
AcDbMText
 10
-786.720154
 20
338.481506
 30
0.0
 40
15.0
 41
0.0
 71
     7
 72
     1
  1
\W0.63;三菱ギヤードモータ  
  7
ZU_SHPTB00001
 11
1.0
 21
0.0
 31
0.0
 73
     1
 44
1.0
  0
MTEXT
  5
3EC
100
AcDbEntity
  8
0
370
    -3
  6
Continuous
100
AcDbMText
 10
-786.720154
 20
338.481506
 30
0.0
 40
15.0
 41
0.0
 71
     7
 72
     1
  1
\W0.63;三菱ギヤードモータ  
  7
ZU_SHPTB00001
 11
1.0
 21
0.0
 31
0.0
 73
     1
 44
1.0
  0
MTEXT
  5
3ED
100
AcDbEntity
  8
0
370
    -3
  6
Continuous
100
AcDbMText
 10
-786.720154
 20
321.531494
 30
0.0
 40
15.0
 41
0.0
 71
     7
 72
     1
  1
\W0.48;GV-SHYMB-RH
  7
ZU_SHPTB00001
 11
1.0
 21
0.0
 31
0.0
 73
     1
 44
1.0
  0
LINE
  5
3EE
100
AcDbEntity
  8
0
370
    -3
  6
Continuous
100
AcDbLine
 10
101.095845
 20
-28.393096
 30
0.0
 11
279.095845
 21
-28.393096
 31
0.0
  0
MTEXT
  5
3EF
100
AcDbEntity
  8
0
370
    -3
  6
Continuous
100
AcDbMText
 10
-786.720154
 20
236.731461
 30
0.0
 40
15.0
 41
0.0
 71
     7
 72
     1
  1
\W0.43;DATE\W0.72; \W0.43;2012.01.15
  7
ZU_SHPTB00001
 11
1.0
 21
0.0
 31
0.0
 73
     1
 44
1.0
  0
LINE
  5
3F0
100
AcDbEntity
  8
0
370
    -3
  6
Continuous
100
AcDbLine
 10
511.29587
 20
-220.864428
 30
0.0
 11
511.29587
 21
-210.559172
 31
0.0
  0
LINE
  5
3F1
100
AcDbEntity
  8
0
370
    -3
  6
Continuous
100
AcDbLine
 10
604.89587
 20
-220.864428
 30
0.0
 11
604.89587
 21
-210.559172
 31
0.0
  0
LINE
  5
3F2
100
AcDbEntity
  8
0
370
    -3
  6
Continuous
100
AcDbLine
 10
520.597051
 20
-228.664428
 30
0.0
 11
595.594688
 21
-228.664428
 31
0.0
  0
ARC
  5
3F3
100
AcDbEntity
  8
0
370
    -3
  6
Continuous
100
AcDbCircle
 10
519.09587
 20
-220.864428
 30
0.0
 40
7.8
100
AcDbArc
 50
180.0
 51
241.87484
  0
ELLIPSE
  5
3F4
100
AcDbEntity
  8
0
370
    -3
  6
Continuous
100
AcDbEllipse
 10
518.59587
 20
-226.77902
 30
0.0
 11
3.5
 21
0.0
 31
0.0
210
0.0
220
0.0
230
1.0
 40
0.656603
 41
0.0
 42
6.2831853071795862
  0
LINE
  5
3F5
100
AcDbEntity
  8
0
370
    -3
  6
Continuous
100
AcDbLine
 10
517.005853
 20
-228.8263
 30
0.0
 11
518.59587
 21
-228.316473
 31
0.0
  0
LINE
  5
3F6
100
AcDbEntity
  8
0
370
    -3
  6
Continuous
100
AcDbLine
 10
518.59587
 20
-228.316473
 30
0.0
 11
516.59587
 21
-227.267285
 31
0.0
  0
LINE
  5
3F7
100
AcDbEntity
  8
0
370
    -3
  6
Continuous
100
AcDbLine
 10
518.59587
 20
-228.316473
 30
0.0
 11
520.59587
 21
-227.267285
 31
0.0
  0
LINE
  5
3F8
100
AcDbEntity
  8
0
370
    -3
  6
Continuous
100
AcDbLine
 10
520.185886
 20
-228.8263
 30
0.0
 11
518.59587
 21
-228.316473
 31
0.0
  0
ARC
  5
3F9
100
AcDbEntity
  8
0
370
    -3
  6
Continuous
100
AcDbCircle
 10
597.09587
 20
-220.864428
 30
0.0
 40
7.8
100
AcDbArc
 50
298.12516
 51
0.0
  0
ELLIPSE
  5
3FA
100
AcDbEntity
  8
0
370
    -3
  6
Continuous
100
AcDbEllipse
 10
597.59587
 20
-226.77902
 30
0.0
 11
3.5
 21
0.0
 31
0.0
210
0.0
220
0.0
230
1.0
 40
0.656603
 41
0.0
 42
6.2831853071795862
  0
LINE
  5
3FB
100
AcDbEntity
  8
0
370
    -3
  6
Continuous
100
AcDbLine
 10
599.185886
 20
-228.8263
 30
0.0
 11
597.59587
 21
-228.316473
 31
0.0
  0
LINE
  5
3FC
100
AcDbEntity
  8
0
370
    -3
  6
Continuous
100
AcDbLine
 10
597.59587
 20
-228.316473
 30
0.0
 11
599.59587
 21
-227.267285
 31
0.0
  0
LINE
  5
3FD
100
AcDbEntity
  8
0
370
    -3
  6
Continuous
100
AcDbLine
 10
597.59587
 20
-228.316473
 30
0.0
 11
595.59587
 21
-227.267285
 31
0.0
  0
LINE
  5
3FE
100
AcDbEntity
  8
0
370
    -3
  6
Continuous
100
AcDbLine
 10
596.005853
 20
-228.8263
 30
0.0
 11
597.59587
 21
-228.316473
 31
0.0
  0
LINE
  5
3FF
100
AcDbEntity
  8
0
370
    -3
  6
Continuous
100
AcDbLine
 10
519.54587
 20
-210.847268
 30
0.0
 11
519.54587
 21
-220.010807
 31
0.0
  0
LINE
  5
400
100
AcDbEntity
  8
0
370
    -3
  6
Continuous
100
AcDbLine
 10
596.64587
 20
-210.847269
 30
0.0
 11
596.64587
 21
-220.010807
 31
0.0
  0
ARC
  5
401
100
AcDbEntity
  8
0
370
    -3
  6
Continuous
100
AcDbCircle
 10
526.34587
 20
-220.010807
 30
0.0
 40
6.8
100
AcDbArc
 50
180.0
 51
270.0
  0
LINE
  5
402
100
AcDbEntity
  8
0
370
    -3
  6
Continuous
100
AcDbLine
 10
526.34587
 20
-226.810807
 30
0.0
 11
589.84587
 21
-226.810807
 31
0.0
  0
ARC
  5
403
100
AcDbEntity
  8
0
370
    -3
  6
Continuous
100
AcDbCircle
 10
589.84587
 20
-220.010807
 30
0.0
 40
6.8
100
AcDbArc
 50
270.0
 51
0.0
  0
ARC
  5
404
100
AcDbEntity
  8
0
370
    -3
  6
DASHED
100
AcDbCircle
 10
558.09587
 20
-203.19328
 30
0.0
 40
17.0
100
AcDbArc
 50
209.944671
 51
330.055328
  0
ARC
  5
405
100
AcDbEntity
  8
0
370
    -3
  6
Continuous
100
AcDbCircle
 10
-702.90418
 20
-203.192612
 30
0.0
 40
12.0585
100
AcDbArc
 50
270.0
 51
90.0
  0
ARC
  5
406
100
AcDbEntity
  8
0
370
    -3
  6
Continuous
100
AcDbCircle
 10
-702.90418
 20
-203.192612
 30
0.0
 40
13.2205
100
AcDbArc
 50
270.0
 51
90.0
  0
ARC
  5
407
100
AcDbEntity
  8
0
370
    -3
  6
Continuous
100
AcDbCircle
 10
-702.90418
 20
-203.192612
 30
0.0
 40
17.0
100
AcDbArc
 50
270.0
 51
90.0
  0
ARC
  5
408
100
AcDbEntity
  8
0
370
    -3
  6
Continuous
100
AcDbCircle
 10
-741.90418
 20
-186.748135
 30
0.0
 40
7.8
100
AcDbArc
 50
90.0
 51
180.0
  0
LINE
  5
409
100
AcDbEntity
  8
0
370
    -3
  6
Continuous
100
AcDbLine
 10
-748.90418
 20
-216.661147
 30
0.0
 11
-748.90418
 21
-186.286229
 31
0.0
  0
ARC
  5
40A
100
AcDbEntity
  8
0
370
    -3
  6
Continuous
100
AcDbCircle
 10
-741.90418
 20
-216.661147
 30
0.0
 40
7.0
100
AcDbArc
 50
180.0
 51
270.0
  0
ARC
  5
40B
100
AcDbEntity
  8
0
370
    -3
  6
Continuous
100
AcDbCircle
 10
-741.90418
 20
-216.199242
 30
0.0
 40
7.8
100
AcDbArc
 50
180.0
 51
270.0
  0
ARC
  5
40C
100
AcDbEntity
  8
0
370
    -3
  6
Continuous
100
AcDbCircle
 10
-741.90418
 20
-220.86376
 30
0.0
 40
7.8
100
AcDbArc
 50
180.0
 51
270.0
  0
ELLIPSE
  5
40D
100
AcDbEntity
  8
0
370
    -3
  6
Continuous
100
AcDbEllipse
 10
-742.40418
 20
-226.778351
 30
0.0
 11
3.5
 21
0.0
 31
0.0
210
0.0
220
0.0
230
1.0
 40
0.656603
 41
3.5746436290429262
 42
5.3210459426688868
  0
LINE
  5
40E
100
AcDbEntity
  8
0
370
    -3
  6
Continuous
100
AcDbLine
 10
-749.70418
 20
-220.86376
 30
0.0
 11
-749.70418
 21
-186.748135
 31
0.0
  0
LINE
  5
40F
100
AcDbEntity
  8
0
370
    -3
  6
Continuous
100
AcDbLine
 10
-702.90418
 20
-223.661147
 30
0.0
 11
-741.90418
 21
-223.661147
 31
0.0
  0
LINE
  5
410
100
AcDbEntity
  8
0
370
    -3
  6
Continuous
100
AcDbLine
 10
-741.90418
 20
-228.66376
 30
0.0
 11
-702.90418
 21
-228.66376
 31
0.0
  0
LINE
  5
411
100
AcDbEntity
  8
0
370
    -3
  6
Continuous
100
AcDbLine
 10
-702.90418
 20
-176.192612
 30
0.0
 11
-733.90418
 21
-176.192612
 31
0.0
  0
LINE
  5
412
100
AcDbEntity
  8
0
370
    -3
  6
Continuous
100
AcDbLine
 10
-733.90418
 20
-177.192612
 30
0.0
 11
-702.90418
 21
-177.192612
 31
0.0
  0
LINE
  5
413
100
AcDbEntity
  8
0
370
    -3
  6
Continuous
100
AcDbLine
 10
-733.90418
 20
-176.192612
 30
0.0
 11
-733.90418
 21
-177.192612
 31
0.0
  0
ARC
  5
414
100
AcDbEntity
  8
0
370
    -3
  6
Continuous
100
AcDbCircle
 10
-741.90418
 20
-186.286229
 30
0.0
 40
7.0
100
AcDbArc
 50
90.0
 51
180.0
  0
LINE
  5
415
100
AcDbEntity
  8
0
370
    -3
  6
Continuous
100
AcDbLine
 10
-702.90418
 20
-177.192612
 30
0.0
 11
-730.90418
 21
-177.192612
 31
0.0
  0
LINE
  5
416
100
AcDbEntity
  8
0
370
    -3
  6
Continuous
100
AcDbLine
 10
-702.90418
 20
-222.428523
 30
0.0
 11
-728.963213
 21
-222.428523
 31
0.0
  0
LINE
  5
417
100
AcDbEntity
  8
0
370
    -3
  6
Continuous
100
AcDbLine
 10
-742.20418
 20
-184.992612
 30
0.0
 11
-742.20418
 21
-214.62547
 31
0.0
  0
LINE
  5
418
100
AcDbEntity
  8
0
370
    -3
  6
Continuous
100
AcDbLine
 10
-730.44661
 20
-222.127028
 30
0.0
 11
-739.887577
 21
-218.123974
 31
0.0
  0
ARC
  5
419
100
AcDbEntity
  8
0
370
    -3
  6
Continuous
100
AcDbCircle
 10
-728.963213
 20
-218.628523
 30
0.0
 40
3.8
100
AcDbArc
 50
247.022625
 51
270.0
  0
ARC
  5
41A
100
AcDbEntity
  8
0
370
    -3
  6
Continuous
100
AcDbCircle
 10
-738.40418
 20
-214.62547
 30
0.0
 40
3.8
100
AcDbArc
 50
180.0
 51
247.022625
  0
LINE
  5
41B
100
AcDbEntity
  8
0
370
    -3
  6
Continuous
100
AcDbLine
 10
-702.90418
 20
-178.192612
 30
0.0
 11
-735.40418
 21
-178.192612
 31
0.0
  0
ARC
  5
41C
100
AcDbEntity
  8
0
370
    -3
  6
Continuous
100
AcDbCircle
 10
-735.40418
 20
-184.992612
 30
0.0
 40
6.8
100
AcDbArc
 50
90.0
 51
180.0
  0
LINE
  5
41D
100
AcDbEntity
  8
0
370
    -3
  6
Continuous
100
AcDbLine
 10
-741.355368
 20
-181.702725
 30
0.0
 11
-742.40418
 21
-181.702725
 31
0.0
  0
ARC
  5
41E
100
AcDbEntity
  8
0
370
    -3
  6
Continuous
100
AcDbCircle
 10
-742.40418
 20
-187.702725
 30
0.0
 40
6.0
100
AcDbArc
 50
90.0
 51
180.0
  0
ARC
  5
41F
100
AcDbEntity
  8
0
370
    -3
  6
Continuous
100
AcDbCircle
 10
-732.169091
 20
-177.892612
 30
0.0
 40
0.3
100
AcDbArc
 50
270.0
 51
346.657636
  0
ARC
  5
420
100
AcDbEntity
  8
0
370
    -3
  6
Continuous
100
AcDbCircle
 10
-730.90418
 20
-178.192612
 30
0.0
 40
1.0
100
AcDbArc
 50
90.0
 51
166.657636
  0
LINE
  5
421
100
AcDbEntity
  8
0
370
    -3
  6
CENTER
100
AcDbLine
 10
-742.40418
 20
-220.303875
 30
0.0
 11
-742.40418
 21
-224.748634
 31
0.0
  0
LINE
  5
422
100
AcDbEntity
  8
0
370
    -3
  6
CENTER
100
AcDbLine
 10
-745.269039
 20
-222.696696
 30
0.0
 11
-739.657649
 21
-222.696696
 31
0.0
  0
ELLIPSE
  5
423
100
AcDbEntity
  8
0
370
    -3
  6
Continuous
100
AcDbEllipse
 10
-742.40418
 20
-222.696696
 30
0.0
 11
1.6499999999999773
 21
0.0
 31
0.0
210
0.0
220
0.0
230
1.0
 40
0.422618
 41
0.0
 42
6.2831853071795862
  0
ELLIPSE
  5
424
100
AcDbEntity
  8
0
370
    -3
  6
Continuous
100
AcDbEllipse
 10
-742.40418
 20
-222.696696
 30
0.0
 11
2.0
 21
0.0
 31
0.0
210
0.0
220
0.0
230
1.0
 40
0.422618
 41
0.0
 42
6.2831853071795862
  0
LINE
  5
425
100
AcDbEntity
  8
0
370
    -3
  6
Continuous
100
AcDbLine
 10
-739.10245
 20
-179.286229
 30
0.0
 11
-741.90418
 21
-179.286229
 31
0.0
  0
LINE
  5
426
100
AcDbEntity
  8
0
370
    -3
  6
Continuous
100
AcDbLine
 10
-741.90418
 20
-178.948135
 30
0.0
 11
-738.519353
 21
-178.948135
 31
0.0
  0
LINE
  5
427
100
AcDbEntity
  8
0
370
    -3
  6
Continuous
100
AcDbLine
 10
-748.40418
 20
-187.702725
 30
0.0
 11
-748.40418
 21
-219.259223
 31
0.0
  0
LINE
  5
428
100
AcDbEntity
  8
0
370
    -3
  6
Continuous
100
AcDbLine
 10
-702.90418
 20
-223.999242
 30
0.0
 11
-741.90418
 21
-223.999242
 31
0.0
  0
LINE
  5
429
100
AcDbEntity
  8
0
370
    -3
  6
CENTER
100
AcDbLine
 10
-684.259247
 20
-203.192612
 30
0.0
 11
-724.204637
 21
-203.192612
 31
0.0
  0
ARC
  5
42A
100
AcDbEntity
  8
0
370
    -3
  6
Continuous
100
AcDbCircle
 10
-663.90418
 20
-186.748135
 30
0.0
 40
7.8
100
AcDbArc
 50
0.0
 51
90.0
  0
LINE
  5
42B
100
AcDbEntity
  8
0
370
    -3
  6
Continuous
100
AcDbLine
 10
-656.90418
 20
-216.661147
 30
0.0
 11
-656.90418
 21
-186.286229
 31
0.0
  0
ARC
  5
42C
100
AcDbEntity
  8
0
370
    -3
  6
Continuous
100
AcDbCircle
 10
-663.90418
 20
-216.661147
 30
0.0
 40
7.0
100
AcDbArc
 50
270.0
 51
0.0
  0
ARC
  5
42D
100
AcDbEntity
  8
0
370
    -3
  6
Continuous
100
AcDbCircle
 10
-663.90418
 20
-216.199242
 30
0.0
 40
7.8
100
AcDbArc
 50
270.0
 51
0.0
  0
ARC
  5
42E
100
AcDbEntity
  8
0
370
    -3
  6
Continuous
100
AcDbCircle
 10
-663.90418
 20
-220.86376
 30
0.0
 40
7.8
100
AcDbArc
 50
270.0
 51
0.0
  0
ELLIPSE
  5
42F
100
AcDbEntity
  8
0
370
    -3
  6
Continuous
100
AcDbEllipse
 10
-663.40418
 20
-226.778351
 30
0.0
 11
3.5
 21
0.0
 31
0.0
210
0.0
220
0.0
230
1.0
 40
0.656603
 41
4.1037320181004926
 42
5.8501343317260943
  0
LINE
  5
430
100
AcDbEntity
  8
0
370
    -3
  6
Continuous
100
AcDbLine
 10
-656.10418
 20
-220.86376
 30
0.0
 11
-656.10418
 21
-186.748135
 31
0.0
  0
LINE
  5
431
100
AcDbEntity
  8
0
370
    -3
  6
Continuous
100
AcDbLine
 10
-702.90418
 20
-223.661147
 30
0.0
 11
-663.90418
 21
-223.661147
 31
0.0
  0
LINE
  5
432
100
AcDbEntity
  8
0
370
    -3
  6
Continuous
100
AcDbLine
 10
-663.90418
 20
-228.66376
 30
0.0
 11
-702.90418
 21
-228.66376
 31
0.0
  0
LINE
  5
433
100
AcDbEntity
  8
0
370
    -3
  6
Continuous
100
AcDbLine
 10
-702.90418
 20
-176.192612
 30
0.0
 11
-671.90418
 21
-176.192612
 31
0.0
  0
LINE
  5
434
100
AcDbEntity
  8
0
370
    -3
  6
Continuous
100
AcDbLine
 10
-671.90418
 20
-177.192612
 30
0.0
 11
-702.90418
 21
-177.192612
 31
0.0
  0
LINE
  5
435
100
AcDbEntity
  8
0
370
    -3
  6
Continuous
100
AcDbLine
 10
-671.90418
 20
-176.192612
 30
0.0
 11
-671.90418
 21
-177.192612
 31
0.0
  0
ARC
  5
436
100
AcDbEntity
  8
0
370
    -3
  6
Continuous
100
AcDbCircle
 10
-663.90418
 20
-186.286229
 30
0.0
 40
7.0
100
AcDbArc
 50
0.0
 51
90.0
  0
LINE
  5
437
100
AcDbEntity
  8
0
370
    -3
  6
Continuous
100
AcDbLine
 10
-702.90418
 20
-177.192612
 30
0.0
 11
-674.90418
 21
-177.192612
 31
0.0
  0
LINE
  5
438
100
AcDbEntity
  8
0
370
    -3
  6
Continuous
100
AcDbLine
 10
-702.90418
 20
-222.428523
 30
0.0
 11
-676.845146
 21
-222.428523
 31
0.0
  0
LINE
  5
439
100
AcDbEntity
  8
0
370
    -3
  6
Continuous
100
AcDbLine
 10
-663.60418
 20
-184.992612
 30
0.0
 11
-663.60418
 21
-214.62547
 31
0.0
  0
LINE
  5
43A
100
AcDbEntity
  8
0
370
    -3
  6
Continuous
100
AcDbLine
 10
-675.361749
 20
-222.127028
 30
0.0
 11
-665.920783
 21
-218.123974
 31
0.0
  0
ARC
  5
43B
100
AcDbEntity
  8
0
370
    -3
  6
Continuous
100
AcDbCircle
 10
-676.845146
 20
-218.628523
 30
0.0
 40
3.8
100
AcDbArc
 50
270.0
 51
292.977375
  0
ARC
  5
43C
100
AcDbEntity
  8
0
370
    -3
  6
Continuous
100
AcDbCircle
 10
-667.40418
 20
-214.62547
 30
0.0
 40
3.8
100
AcDbArc
 50
292.977375
 51
0.0
  0
LINE
  5
43D
100
AcDbEntity
  8
0
370
    -3
  6
Continuous
100
AcDbLine
 10
-702.90418
 20
-178.192612
 30
0.0
 11
-670.40418
 21
-178.192612
 31
0.0
  0
ARC
  5
43E
100
AcDbEntity
  8
0
370
    -3
  6
Continuous
100
AcDbCircle
 10
-670.40418
 20
-184.992612
 30
0.0
 40
6.8
100
AcDbArc
 50
0.0
 51
90.0
  0
LINE
  5
43F
100
AcDbEntity
  8
0
370
    -3
  6
Continuous
100
AcDbLine
 10
-664.452991
 20
-181.702725
 30
0.0
 11
-663.40418
 21
-181.702725
 31
0.0
  0
ARC
  5
440
100
AcDbEntity
  8
0
370
    -3
  6
Continuous
100
AcDbCircle
 10
-663.40418
 20
-187.702725
 30
0.0
 40
6.0
100
AcDbArc
 50
0.0
 51
90.0
  0
ARC
  5
441
100
AcDbEntity
  8
0
370
    -3
  6
Continuous
100
AcDbCircle
 10
-673.639269
 20
-177.892612
 30
0.0
 40
0.3
100
AcDbArc
 50
193.342364
 51
270.0
  0
ARC
  5
442
100
AcDbEntity
  8
0
370
    -3
  6
Continuous
100
AcDbCircle
 10
-674.90418
 20
-178.192612
 30
0.0
 40
1.0
100
AcDbArc
 50
13.342364
 51
90.0
  0
LINE
  5
443
100
AcDbEntity
  8
0
370
    -3
  6
CENTER
100
AcDbLine
 10
-663.40418
 20
-220.303875
 30
0.0
 11
-663.40418
 21
-224.748634
 31
0.0
  0
LINE
  5
444
100
AcDbEntity
  8
0
370
    -3
  6
CENTER
100
AcDbLine
 10
-660.539321
 20
-222.696696
 30
0.0
 11
-666.150711
 21
-222.696696
 31
0.0
  0
ELLIPSE
  5
445
100
AcDbEntity
  8
0
370
    -3
  6
Continuous
100
AcDbEllipse
 10
-663.40418
 20
-222.696696
 30
0.0
 11
-1.6499999999999773
 21
0.0
 31
0.0
210
0.0
220
0.0
230
1.0
 40
0.422618
 41
0.0
 42
6.2831853071795862
  0
ELLIPSE
  5
446
100
AcDbEntity
  8
0
370
    -3
  6
Continuous
100
AcDbEllipse
 10
-663.40418
 20
-222.696696
 30
0.0
 11
-2.0
 21
0.0
 31
0.0
210
0.0
220
0.0
230
1.0
 40
0.422618
 41
0.0
 42
6.2831853071795862
  0
LINE
  5
447
100
AcDbEntity
  8
0
370
    -3
  6
Continuous
100
AcDbLine
 10
-666.705909
 20
-179.286229
 30
0.0
 11
-663.90418
 21
-179.286229
 31
0.0
  0
LINE
  5
448
100
AcDbEntity
  8
0
370
    -3
  6
Continuous
100
AcDbLine
 10
-663.90418
 20
-178.948135
 30
0.0
 11
-667.289007
 21
-178.948135
 31
0.0
  0
LINE
  5
449
100
AcDbEntity
  8
0
370
    -3
  6
Continuous
100
AcDbLine
 10
-657.40418
 20
-187.702725
 30
0.0
 11
-657.40418
 21
-219.259223
 31
0.0
  0
LINE
  5
44A
100
AcDbEntity
  8
0
370
    -3
  6
Continuous
100
AcDbLine
 10
-702.90418
 20
-223.999242
 30
0.0
 11
-663.90418
 21
-223.999242
 31
0.0
  0
ARC
  5
44B
100
AcDbEntity
  8
0
370
    -3
  6
Continuous
100
AcDbCircle
 10
-702.90418
 20
-203.192612
 30
0.0
 40
17.0
100
AcDbArc
 50
90.0
 51
270.0
  0
ARC
  5
44C
100
AcDbEntity
  8
0
370
    -3
  6
Continuous
100
AcDbCircle
 10
-702.90418
 20
-203.192612
 30
0.0
 40
12.0585
100
AcDbArc
 50
90.0
 51
270.0
  0
ARC
  5
44D
100
AcDbEntity
  8
0
370
    -3
  6
Continuous
100
AcDbCircle
 10
-702.90418
 20
-203.192612
 30
0.0
 40
13.2205
100
AcDbArc
 50
90.0
 51
270.0
  0
LINE
  5
44E
100
AcDbEntity
  8
0
370
    -3
  6
Continuous
100
AcDbLine
 10
-729.735551
 20
-184.992612
 30
0.0
 11
-729.735551
 21
-222.349208
 31
0.0
  0
ARC
  5
44F
100
AcDbEntity
  8
0
370
    -3
  6
Continuous
100
AcDbCircle
 10
-722.935551
 20
-184.992612
 30
0.0
 40
6.8
100
AcDbArc
 50
90.0
 51
180.0
  0
ARC
  5
450
100
AcDbEntity
  8
0
370
    -3
  6
Continuous
100
AcDbCircle
 10
-682.872809
 20
-184.992612
 30
0.0
 40
6.8
100
AcDbArc
 50
0.0
 51
90.0
  0
LINE
  5
451
100
AcDbEntity
  8
0
370
    -3
  6
Continuous
100
AcDbLine
 10
-676.072809
 20
-184.992612
 30
0.0
 11
-676.072809
 21
-222.349208
 31
0.0
  0
LINE
  5
452
100
AcDbEntity
  8
0
370
    -3
  6
Continuous
100
AcDbLine
 10
-733.90418
 20
-176.192612
 30
0.0
 11
-733.90418
 21
-174.592612
 31
0.0
  0
ARC
  5
453
100
AcDbEntity
  8
0
370
    -3
  6
Continuous
100
AcDbCircle
 10
-729.50418
 20
-172.592612
 30
0.0
 40
2.0
100
AcDbArc
 50
270.0
 51
0.0
  0
LINE
  5
454
100
AcDbEntity
  8
0
370
    -3
  6
Continuous
100
AcDbLine
 10
-733.90418
 20
-174.592612
 30
0.0
 11
-729.50418
 21
-174.592612
 31
0.0
  0
LINE
  5
455
100
AcDbEntity
  8
0
370
    -3
  6
Continuous
100
AcDbLine
 10
-727.50418
 20
-172.592612
 30
0.0
 11
-727.50418
 21
-166.484375
 31
0.0
  0
LINE
  5
456
100
AcDbEntity
  8
0
370
    -3
  6
Continuous
100
AcDbLine
 10
-671.90418
 20
-176.192612
 30
0.0
 11
-671.90418
 21
-174.592612
 31
0.0
  0
LINE
  5
457
100
AcDbEntity
  8
0
370
    -3
  6
Continuous
100
AcDbLine
 10
-676.30418
 20
-174.592612
 30
0.0
 11
-671.90418
 21
-174.592612
 31
0.0
  0
ARC
  5
458
100
AcDbEntity
  8
0
370
    -3
  6
Continuous
100
AcDbCircle
 10
-676.30418
 20
-172.592612
 30
0.0
 40
2.0
100
AcDbArc
 50
180.0
 51
270.0
  0
LINE
  5
459
100
AcDbEntity
  8
0
370
    -3
  6
Continuous
100
AcDbLine
 10
-678.30418
 20
-172.592612
 30
0.0
 11
-678.30418
 21
-166.484375
 31
0.0
  0
POINT
  5
45A
100
AcDbEntity
  8
0
370
    -3
  6
CENTER
100
AcDbPoint
 10
-474.070134
 20
-190.523561
 30
0.0
  0
POINT
  5
45B
100
AcDbEntity
  8
0
370
    -3
  6
CENTER
100
AcDbPoint
 10
-474.070134
 20
-216.964561
 30
0.0
  0
LINE
  5
45C
100
AcDbEntity
  8
0
370
    -3
  6
CENTER
100
AcDbLine
 10
-399.904155
 20
-165.415194
 30
0.0
 11
-399.904155
 21
-188.325171
 31
0.0
  0
ARC
  5
45D
100
AcDbEntity
  8
0
370
    -3
  6
Continuous
100
AcDbCircle
 10
-429.169066
 20
-177.892612
 30
0.0
 40
0.3
100
AcDbArc
 50
270.0
 51
346.657636
  0
LINE
  5
45E
100
AcDbEntity
  8
0
370
    -3
  6
Continuous
100
AcDbLine
 10
-430.904155
 20
-176.192612
 30
0.0
 11
-430.904155
 21
-177.192612
 31
0.0
  0
ARC
  5
45F
100
AcDbEntity
  8
0
370
    -3
  6
Continuous
100
AcDbCircle
 10
-427.904155
 20
-178.192612
 30
0.0
 40
1.0
100
AcDbArc
 50
90.0
 51
166.657636
  0
ARC
  5
460
100
AcDbEntity
  8
0
370
    -3
  6
Continuous
100
AcDbCircle
 10
-370.639243
 20
-177.892612
 30
0.0
 40
0.3
100
AcDbArc
 50
193.342364
 51
270.0
  0
LINE
  5
461
100
AcDbEntity
  8
0
370
    -3
  6
Continuous
100
AcDbLine
 10
-368.904155
 20
-176.192612
 30
0.0
 11
-368.904155
 21
-177.192612
 31
0.0
  0
ARC
  5
462
100
AcDbEntity
  8
0
370
    -3
  6
Continuous
100
AcDbCircle
 10
-371.904155
 20
-178.192612
 30
0.0
 40
1.0
100
AcDbArc
 50
13.342364
 51
90.0
  0
ARC
  5
463
100
AcDbEntity
  8
0
370
    -3
  6
Continuous
100
AcDbCircle
 10
-438.104155
 20
-184.992612
 30
0.0
 40
6.8
100
AcDbArc
 50
90.0
 51
180.0
  0
ARC
  5
464
100
AcDbEntity
  8
0
370
    -3
  6
Continuous
100
AcDbCircle
 10
-368.466001
 20
-181.992612
 30
0.0
 40
3.8
100
AcDbArc
 50
25.0
 51
90.0
  0
LINE
  5
465
100
AcDbEntity
  8
0
370
    -3
  6
Continuous
100
AcDbLine
 10
-451.787741
 20
-227.624473
 30
0.0
 11
-453.478214
 21
-223.999242
 31
0.0
  0
ARC
  5
466
100
AcDbEntity
  8
0
370
    -3
  6
Continuous
100
AcDbCircle
 10
-450.156387
 20
-226.86376
 30
0.0
 40
1.8
100
AcDbArc
 50
205.0
 51
295.0
  0
LINE
  5
467
100
AcDbEntity
  8
0
370
    -3
  6
Continuous
100
AcDbLine
 10
-355.175331
 20
-182.573366
 30
0.0
 11
-356.865804
 21
-178.948135
 31
0.0
  0
ARC
  5
468
100
AcDbEntity
  8
0
370
    -3
  6
Continuous
100
AcDbCircle
 10
-356.806685
 20
-183.334079
 30
0.0
 40
1.8
100
AcDbArc
 50
295.0
 51
25.0
  0
LINE
  5
469
100
AcDbEntity
  8
0
370
    -3
  6
CENTER
100
AcDbLine
 10
-362.741493
 20
-184.804052
 30
0.0
 11
-359.871572
 21
-190.958617
 31
0.0
  0
POINT
  5
46A
100
AcDbEntity
  8
0
370
    -3
  6
Continuous
100
AcDbPoint
 10
-361.507529
 20
-187.512199
 30
0.0
  0
LINE
  5
46B
100
AcDbEntity
  8
0
370
    -3
  6
CENTER
100
AcDbLine
 10
-445.215502
 20
-223.262314
 30
0.0
 11
-442.345581
 21
-229.416878
 31
0.0
  0
ARC
  5
46C
100
AcDbEntity
  8
0
370
    -3
  6
Continuous
100
AcDbCircle
 10
-380.394059
 20
-215.476309
 30
0.0
 40
10.8
100
AcDbArc
 50
272.437505
 51
342.341575
  0
ARC
  5
46D
100
AcDbEntity
  8
0
370
    -3
  6
Continuous
100
AcDbCircle
 10
-446.662584
 20
-220.159035
 30
0.0
 40
9.0
100
AcDbArc
 50
278.398469
 51
311.601548
  0
POINT
  5
46E
100
AcDbEntity
  8
0
370
    -3
  6
Continuous
100
AcDbPoint
 10
-443.957828
 20
-225.959404
 30
0.0
  0
LINE
  5
46F
100
AcDbEntity
  8
0
370
    -3
  6
Continuous
100
AcDbLine
 10
-440.78575
 20
-224.48024
 30
0.0
 11
-440.371996
 21
-225.367539
 31
0.0
  0
LINE
  5
470
100
AcDbEntity
  8
0
370
    -3
  6
Continuous
100
AcDbLine
 10
-447.129905
 20
-227.438568
 30
0.0
 11
-446.716151
 21
-228.325866
 31
0.0
  0
ARC
  5
471
100
AcDbEntity
  8
0
370
    -3
  6
Continuous
100
AcDbCircle
 10
-441.550196
 20
-225.916942
 30
0.0
 40
1.299999
100
AcDbArc
 50
311.601548
 51
25.000018
  0
ARC
  5
472
100
AcDbEntity
  8
0
370
    -3
  6
Continuous
100
AcDbCircle
 10
-445.537952
 20
-227.776463
 30
0.0
 40
1.299999
100
AcDbArc
 50
204.999999
 51
278.398469
  0
LINE
  5
473
100
AcDbEntity
  8
0
370
    -3
  6
Continuous
100
AcDbLine
 10
-358.311742
 20
-186.021979
 30
0.0
 11
-357.897988
 21
-186.909277
 31
0.0
  0
LINE
  5
474
100
AcDbEntity
  8
0
370
    -3
  6
CENTER
100
AcDbLine
 10
-362.741493
 20
-184.804052
 30
0.0
 11
-359.871572
 21
-190.958617
 31
0.0
  0
ARC
  5
475
100
AcDbEntity
  8
0
370
    -3
  6
Continuous
100
AcDbCircle
 10
-359.076187
 20
-187.45868
 30
0.0
 40
1.299999
100
AcDbArc
 50
311.601548
 51
25.000018
  0
ARC
  5
476
100
AcDbEntity
  8
0
370
    -3
  6
Continuous
100
AcDbCircle
 10
-364.188576
 20
-181.700773
 30
0.0
 40
9.0
100
AcDbArc
 50
278.398469
 51
311.601548
  0
LINE
  5
477
100
AcDbEntity
  8
0
370
    -3
  6
Continuous
100
AcDbLine
 10
-364.655896
 20
-188.980306
 30
0.0
 11
-364.242142
 21
-189.867605
 31
0.0
  0
ARC
  5
478
100
AcDbEntity
  8
0
370
    -3
  6
Continuous
100
AcDbCircle
 10
-363.063943
 20
-189.318201
 30
0.0
 40
1.299999
100
AcDbArc
 50
204.999999
 51
278.398469
  0
LINE
  5
479
100
AcDbEntity
  8
0
370
    -3
  6
CENTER
100
AcDbLine
 10
-476.382778
 20
-203.192612
 30
0.0
 11
-436.076292
 21
-203.192612
 31
0.0
  0
LINE
  5
47A
100
AcDbEntity
  8
0
370
    -3
  6
Continuous
100
AcDbLine
 10
-356.045972
 20
-184.965433
 30
0.0
 11
-449.395674
 21
-228.495114
 31
0.0
  0
ARC
  5
47B
100
AcDbEntity
  8
0
370
    -3
  6
Continuous
100
AcDbCircle
 10
-368.983179
 20
-194.308285
 30
0.0
 40
3.0
100
AcDbArc
 50
115.0
 51
205.0
  0
LINE
  5
47C
100
AcDbEntity
  8
0
370
    -3
  6
Continuous
100
AcDbLine
 10
-366.966676
 20
-205.731295
 30
0.0
 11
-371.702102
 21
-195.57614
 31
0.0
  0
ARC
  5
47D
100
AcDbEntity
  8
0
370
    -3
  6
Continuous
100
AcDbCircle
 10
-427.991143
 20
-223.58653
 30
0.0
 40
2.8
100
AcDbArc
 50
205.0
 51
267.843273
  0
LINE
  5
47E
100
AcDbEntity
  8
0
370
    -3
  6
Continuous
100
AcDbLine
 10
-431.203835
 20
-223.322253
 30
0.0
 11
-430.528804
 21
-224.769861
 31
0.0
  0
ARC
  5
47F
100
AcDbEntity
  8
0
370
    -3
  6
Continuous
100
AcDbCircle
 10
-433.922758
 20
-224.590108
 30
0.0
 40
3.0
100
AcDbArc
 50
25.0
 51
115.0
  0
ARC
  5
480
100
AcDbEntity
  8
0
370
    -3
  6
Continuous
100
AcDbCircle
 10
-369.504338
 20
-206.914626
 30
0.0
 40
2.8
100
AcDbArc
 50
344.545811
 51
25.0
  0
ARC
  5
481
100
AcDbEntity
  8
0
370
    -3
  6
Continuous
100
AcDbCircle
 10
-405.486553
 20
373.989862
 30
0.0
 40
600.8
100
AcDbArc
 50
266.682408
 51
272.437505
  0
ARC
  5
482
100
AcDbEntity
  8
0
370
    -3
  6
Continuous
100
AcDbCircle
 10
-656.729794
 20
-127.507215
 30
0.0
 40
300.8
100
AcDbArc
 50
342.341575
 51
347.89975
  0
ARC
  5
483
100
AcDbEntity
  8
0
370
    -3
  6
Continuous
100
AcDbCircle
 10
-382.589238
 20
-181.992612
 30
0.0
 40
3.8
100
AcDbArc
 50
25.0
 51
90.0
  0
LINE
  5
484
100
AcDbEntity
  8
0
370
    -3
  6
Continuous
100
AcDbLine
 10
-375.717006
 20
-187.738595
 30
0.0
 11
-379.145269
 21
-180.386662
 31
0.0
  0
LINE
  5
485
100
AcDbEntity
  8
0
370
    -3
  6
Continuous
100
AcDbLine
 10
-356.865804
 20
-178.948135
 30
0.0
 11
-445.31487
 21
-220.192612
 31
0.0
  0
LINE
  5
486
100
AcDbEntity
  8
0
370
    -3
  6
Continuous
100
AcDbLine
 10
-445.31487
 20
-220.192612
 30
0.0
 11
-453.478214
 21
-223.999242
 31
0.0
  0
LINE
  5
487
100
AcDbEntity
  8
0
370
    -3
  6
Continuous
100
AcDbLine
 10
-444.904155
 20
-220.001092
 30
0.0
 11
-444.904155
 21
-184.992612
 31
0.0
  0
LINE
  5
488
100
AcDbEntity
  8
0
370
    -3
  6
Continuous
100
AcDbLine
 10
-364.116267
 20
-182.329081
 30
0.0
 11
-365.022031
 21
-180.386662
 31
0.0
  0
LINE
  5
489
100
AcDbEntity
  8
0
370
    -3
  6
Continuous
100
AcDbLine
 10
-433.228461
 20
-214.556627
 30
0.0
 11
-433.228461
 21
-181.192612
 31
0.0
  0
ARC
  5
48A
100
AcDbEntity
  8
0
370
    -3
  6
Continuous
100
AcDbCircle
 10
-430.228461
 20
-181.192612
 30
0.0
 40
3.0
100
AcDbArc
 50
90.0
 51
180.0
  0
LINE
  5
48B
100
AcDbEntity
  8
0
370
    -3
  6
Continuous
100
AcDbLine
 10
-446.904155
 20
-203.192612
 30
0.0
 11
-446.904155
 21
-220.192612
 31
0.0
  0
LINE
  5
48C
100
AcDbEntity
  8
0
370
    -3
  6
Continuous
100
AcDbLine
 10
-446.904155
 20
-203.192612
 30
0.0
 11
-446.904155
 21
-186.192612
 31
0.0
  0
LINE
  5
48D
100
AcDbEntity
  8
0
370
    -3
  6
Continuous
100
AcDbLine
 10
-473.904155
 20
-203.192612
 30
0.0
 11
-473.904155
 21
-188.192612
 31
0.0
  0
ARC
  5
48E
100
AcDbEntity
  8
0
370
    -3
  6
Continuous
100
AcDbCircle
 10
-471.904155
 20
-188.192612
 30
0.0
 40
2.0
100
AcDbArc
 50
90.0
 51
180.0
  0
LINE
  5
48F
100
AcDbEntity
  8
0
370
    -3
  6
Continuous
100
AcDbLine
 10
-473.904155
 20
-203.192612
 30
0.0
 11
-473.904155
 21
-218.192612
 31
0.0
  0
ARC
  5
490
100
AcDbEntity
  8
0
370
    -3
  6
Continuous
100
AcDbCircle
 10
-471.904155
 20
-218.192612
 30
0.0
 40
2.0
100
AcDbArc
 50
180.0
 51
270.0
  0
LINE
  5
491
100
AcDbEntity
  8
0
370
    -3
  6
Continuous
100
AcDbLine
 10
-471.904155
 20
-220.192612
 30
0.0
 11
-445.31487
 21
-220.192612
 31
0.0
  0
LINE
  5
492
100
AcDbEntity
  8
0
370
    -3
  6
Continuous
100
AcDbLine
 10
-471.904155
 20
-186.192612
 30
0.0
 11
-444.904155
 21
-186.192612
 31
0.0
  0
LINE
  5
493
100
AcDbEntity
  8
0
370
    -3
  6
Continuous
100
AcDbLine
 10
-430.904155
 20
-176.192612
 30
0.0
 11
-430.904155
 21
-174.592612
 31
0.0
  0
LINE
  5
494
100
AcDbEntity
  8
0
370
    -3
  6
Continuous
100
AcDbLine
 10
-368.904155
 20
-174.592612
 30
0.0
 11
-399.904155
 21
-174.592612
 31
0.0
  0
LINE
  5
495
100
AcDbEntity
  8
0
370
    -3
  6
Continuous
100
AcDbLine
 10
-368.904155
 20
-176.192612
 30
0.0
 11
-368.904155
 21
-174.592612
 31
0.0
  0
ARC
  5
496
100
AcDbEntity
  8
0
370
    -3
  6
Continuous
100
AcDbCircle
 10
-372.704155
 20
-172.992612
 30
0.0
 40
1.6
100
AcDbArc
 50
180.0
 51
270.0
  0
LINE
  5
497
100
AcDbEntity
  8
0
370
    -3
  6
Continuous
100
AcDbLine
 10
-399.904155
 20
-176.192612
 30
0.0
 11
-368.904155
 21
-176.192612
 31
0.0
  0
LINE
  5
498
100
AcDbEntity
  8
0
370
    -3
  6
Continuous
100
AcDbLine
 10
-375.904155
 20
-160.192612
 30
0.0
 11
-375.904155
 21
-161.192612
 31
0.0
  0
LINE
  5
499
100
AcDbEntity
  8
0
370
    -3
  6
Continuous
100
AcDbLine
 10
-409.904155
 20
-161.192612
 30
0.0
 11
-375.904155
 21
-161.192612
 31
0.0
  0
ARC
  5
49A
100
AcDbEntity
  8
0
370
    -3
  6
Continuous
100
AcDbCircle
 10
-377.504155
 20
-164.392612
 30
0.0
 40
3.2
100
AcDbArc
 50
0.0
 51
90.0
  0
LINE
  5
49B
100
AcDbEntity
  8
0
370
    -3
  6
Continuous
100
AcDbLine
 10
-374.304155
 20
-164.392612
 30
0.0
 11
-374.304155
 21
-172.992612
 31
0.0
  0
LINE
  5
49C
100
AcDbEntity
  8
0
370
    -3
  6
Continuous
100
AcDbLine
 10
-430.904155
 20
-177.192612
 30
0.0
 11
-368.904155
 21
-177.192612
 31
0.0
  0
LINE
  5
49D
100
AcDbEntity
  8
0
370
    -3
  6
Continuous
100
AcDbLine
 10
-438.104155
 20
-178.192612
 30
0.0
 11
-368.466001
 21
-178.192612
 31
0.0
  0
LINE
  5
49E
100
AcDbEntity
  8
0
370
    -3
  6
Continuous
100
AcDbLine
 10
-430.904155
 20
-174.592612
 30
0.0
 11
-399.904155
 21
-174.592612
 31
0.0
  0
ARC
  5
49F
100
AcDbEntity
  8
0
370
    -3
  6
Continuous
100
AcDbCircle
 10
-427.104155
 20
-172.992612
 30
0.0
 40
1.6
100
AcDbArc
 50
270.0
 51
0.0
  0
LINE
  5
4A0
100
AcDbEntity
  8
0
370
    -3
  6
Continuous
100
AcDbLine
 10
-430.904155
 20
-176.192612
 30
0.0
 11
-368.904155
 21
-176.192612
 31
0.0
  0
LINE
  5
4A1
100
AcDbEntity
  8
0
370
    -3
  6
Continuous
100
AcDbLine
 10
-399.904155
 20
-176.192612
 30
0.0
 11
-430.904155
 21
-176.192612
 31
0.0
  0
LINE
  5
4A2
100
AcDbEntity
  8
0
370
    -3
  6
Continuous
100
AcDbLine
 10
-425.504155
 20
-166.552121
 30
0.0
 11
-425.504155
 21
-172.992612
 31
0.0
  0
ENDSEC
  0
SECTION
  2
OBJECTS
  0
DICTIONARY
  5
19
100
AcDbDictionary
280
     0
281
     1
  3
ACAD_GROUP
350
1A
  3
ACAD_MLINESTYLE
350
1B
  3
ACAD_LAYOUT
350
1E
  3
ACAD_PLOTSETTINGS
350
22
  3
ACAD_PLOTSTYLENAME
350
1F
  3
ACAD_WIPEOUT_VARS
350
23
  3
DWGPROPS
350
4A3
  0
DICTIONARY
  5
1A
102
{ACAD_REACTORS
330
19
102
}
100
AcDbDictionary
280
     0
281
     1
  0
DICTIONARY
  5
1B
102
{ACAD_REACTORS
330
19
102
}
100
AcDbDictionary
280
     0
281
     1
  3
Standard
350
1C
  0
MLINESTYLE
  5
1C
102
{ACAD_REACTORS
330
1B
102
}
100
AcDbMlineStyle
  2
Standard
 70
     0
  3

 62
     0
 51
90.0
 52
90.0
 71
     2
 49
0.5
 62
   256
  6
ByLayer
 49
-0.5
 62
   256
  6
ByLayer
  0
ACDBDICTIONARYWDFLT
  5
1F
102
{ACAD_REACTORS
330
19
102
}
100
AcDbDictionary
281
     1
  3
Normal
350
1D
100
AcDbDictionaryWithDefault
340
1D
  0
ACDBPLACEHOLDER
  5
1D
102
{ACAD_REACTORS
330
1F
102
}
  0
LAYOUT
  5
20
102
{ACAD_REACTORS
330
1E
102
}
100
AcDbPlotSettings
  1

  2

  4

  6

 40
0.0
 41
0.0
 42
0.0
 43
0.0
 44
0.0
 45
0.0
 46
0.0
 47
0.0
 48
0.0
 49
0.0
140
0.0
141
0.0
142
1.0
143
1.0
 70
  1024
 72
     0
 73
     0
 74
     0
  7

 75
     0
147
1.0
148
0.0
149
0.0
100
AcDbLayout
  1
Model
 70
     0
 71
     0
 10
0.0
 20
0.0
 11
0.0
 21
0.0
 12
0.0
 22
0.0
 32
0.0
 14
0.0
 24
0.0
 34
0.0
 15
0.0
 25
0.0
 35
0.0
146
0.0
 13
0.0
 23
0.0
 33
0.0
 16
0.0
 26
0.0
 36
0.0
 17
0.0
 27
0.0
 37
0.0
 76
     0
330
A
331
0
345
0
346
0
  0
LAYOUT
  5
21
102
{ACAD_REACTORS
330
1E
102
}
100
AcDbPlotSettings
  1

  2

  4

  6

 40
0.0
 41
0.0
 42
0.0
 43
0.0
 44
0.0
 45
0.0
 46
0.0
 47
0.0
 48
0.0
 49
0.0
140
0.0
141
0.0
142
1.0
143
1.0
 70
     0
 72
     0
 73
     0
 74
     0
  7

 75
     0
147
1.0
148
0.0
149
0.0
100
AcDbLayout
  1
Layout1
 70
     0
 71
     0
 10
0.0
 20
0.0
 11
0.0
 21
0.0
 12
0.0
 22
0.0
 32
0.0
 14
0.0
 24
0.0
 34
0.0
 15
0.0
 25
0.0
 35
0.0
146
0.0
 13
0.0
 23
0.0
 33
0.0
 16
0.0
 26
0.0
 36
0.0
 17
0.0
 27
0.0
 37
0.0
 76
     0
330
B
331
0
345
0
346
0
  0
DICTIONARY
  5
1E
102
{ACAD_REACTORS
330
19
102
}
100
AcDbDictionary
280
     0
281
     1
  3
Layout1
350
21
  3
Model
350
20
  0
DICTIONARY
  5
22
102
{ACAD_REACTORS
330
19
102
}
100
AcDbDictionary
280
     0
281
     1
  0
WIPEOUTVARIABLES
  5
23
100
AcDbWipeoutVariables
 70
     1
  0
XRECORD
  5
4A3
100
AcDbXrecord
280
     1
  1
DWGPROPS COOKIE
  2

  3

  4

  6

  7

  8
HK96464
  9

300
=
301
=
302
=
303
=
304
=
305
=
306
=
307
=
308
=
309
=
 40
0.0
 41
2455943.847454
 42
2455943.847454
  1

 90
        0
  0
ENDSEC
  0
EOF
