  0
SECTION
  2
HEADER
  9
$ACADVER
  1
AC1015
  9
$ACADMAINTVER
 70
     6
  9
$DWGCODEPAGE
  3
ANSI_932
  9
$INSBASE
 10
0.0
 20
0.0
 30
0.0
  9
$EXTMIN
 10
1.000000E+20
 20
1.000000E+20
 30
1.000000E+20
  9
$EXTMAX
 10
-1.000000E+20
 20
-1.000000E+20
 30
-1.000000E+20
  9
$LIMMIN
 10
0.0
 20
0.0
  9
$LIMMAX
 10
0.0
 20
0.0
  9
$ORTHOMODE
 70
     0
  9
$REGENMODE
 70
     1
  9
$FILLMODE
 70
     1
  9
$QTEXTMODE
 70
     0
  9
$MIRRTEXT
 70
     1
  9
$LTSCALE
 40
1.0
  9
$ATTMODE
 70
     1
  9
$TEXTSIZE
 40
7.0
  9
$TRACEWID
 40
0.05
  9
$TEXTSTYLE
  7
Standard
  9
$CLAYER
  8
0
  9
$CELTYPE
  6
Continuous
  9
$CECOLOR
 62
   256
  9
$CELTSCALE
 40
1.0
  9
$DISPSILH
 70
     0
  9
$DIMSCALE
 40
1.0
  9
$DIMASZ
 40
1.931852
  9
$DIMEXO
 40
1.0
  9
$DIMDLI
 40
0.38
  9
$DIMRND
 40
0.0
  9
$DIMDLE
 40
0.0
  9
$DIMEXE
 40
2.0
  9
$DIMTP
 40
0.0
  9
$DIMTM
 40
0.0
  9
$DIMTXT
 40
10.0
  9
$DIMCEN
 40
0.09
  9
$DIMTSZ
 40
0.0
  9
$DIMTOL
 70
     0
  9
$DIMLIM
 70
     0
  9
$DIMTIH
 70
     1
  9
$DIMTOH
 70
     1
  9
$DIMSE1
 70
     0
  9
$DIMSE2
 70
     0
  9
$DIMTAD
 70
     1
  9
$DIMZIN
 70
     0
  9
$DIMBLK
  1

  9
$DIMASO
 70
     1
  9
$DIMSHO
 70
     1
  9
$DIMPOST
  1

  9
$DIMAPOST
  1

  9
$DIMALT
 70
     0
  9
$DIMALTD
 70
     2
  9
$DIMALTF
 40
25.4
  9
$DIMLFAC
 40
1.0
  9
$DIMTOFL
 70
     0
  9
$DIMTVP
 40
0.0
  9
$DIMTIX
 70
     0
  9
$DIMSOXD
 70
     0
  9
$DIMSAH
 70
     0
  9
$DIMBLK1
  1

  9
$DIMBLK2
  1

  9
$DIMSTYLE
  2
Standard
  9
$DIMCLRD
 70
     0
  9
$DIMCLRE
 70
     0
  9
$DIMCLRT
 70
     0
  9
$DIMTFAC
 40
0.714286
  9
$DIMGAP
 40
0.09
  9
$DIMJUST
 70
     0
  9
$DIMSD1
 70
     0
  9
$DIMSD2
 70
     0
  9
$DIMTOLJ
 70
     1
  9
$DIMTZIN
 70
     0
  9
$DIMALTZ
 70
     0
  9
$DIMALTTZ
 70
     0
  9
$DIMUPT
 70
     0
  9
$DIMDEC
 70
     4
  9
$DIMTDEC
 70
     4
  9
$DIMALTU
 70
     2
  9
$DIMALTTD
 70
     2
  9
$DIMTXSTY
  7
Standard
  9
$DIMAUNIT
 70
     0
  9
$DIMADEC
 70
     0
  9
$DIMALTRND
 40
0.0
  9
$DIMAZIN
 70
     0
  9
$DIMDSEP
 70
     0
  9
$DIMATFIT
 70
     3
  9
$DIMFRAC
 70
     0
  9
$DIMLDRBLK
  1

  9
$DIMLUNIT
 70
     2
  9
$DIMLWD
 70
     0
  9
$DIMLWE
 70
     0
  9
$DIMTMOVE
 70
     0
  9
$LUNITS
 70
     2
  9
$LUPREC
 70
     3
  9
$SKETCHINC
 40
0.1
  9
$FILLETRAD
 40
0.0
  9
$AUNITS
 70
     0
  9
$AUPREC
 70
     0
  9
$MENU
  1
acad
  9
$ELEVATION
 40
0.0
  9
$PELEVATION
 40
0.0
  9
$THICKNESS
 40
0.0
  9
$LIMCHECK
 70
     0
  9
$CHAMFERA
 40
0.0
  9
$CHAMFERB
 40
0.0
  9
$CHAMFERC
 40
0.0
  9
$CHAMFERD
 40
0.0
  9
$SKPOLY
 70
     0
  9
$TDCREATE
 40
0.000000000
  9
$TDUCREATE
 40
0.000000000
  9
$TDUPDATE
 40
0.000000000
  9
$TDUUPDATE
 40
0.000000000
  9
$TDINDWG
 40
0.0000000000
  9
$TDUSRTIMER
 40
0.0000000000
  9
$USRTIMER
 70
     1
  9
$ANGBASE
 50
0.0
  9
$ANGDIR
 70
     0
  9
$PDMODE
 70
     0
  9
$PDSIZE
 40
0.0
  9
$PLINEWID
 40
0.0
  9
$SPLFRAME
 70
     0
  9
$SPLINETYPE
 70
     6
  9
$SPLINESEGS
 70
     8
  9
$HANDSEED
  5
4F5
  9
$SURFTAB1
 70
     6
  9
$SURFTAB2
 70
     6
  9
$SURFTYPE
 70
     6
  9
$SURFU
 70
     6
  9
$SURFV
 70
     6
  9
$UCSBASE
  2

  9
$UCSNAME
  2

  9
$UCSORG
 10
0.0
 20
0.0
 30
0.0
  9
$UCSXDIR
 10
1.0
 20
0.0
 30
0.0
  9
$UCSYDIR
 10
0.0
 20
1.0
 30
0.0
  9
$UCSORTHOREF
  2

  9
$UCSORTHOVIEW
 70
     0
  9
$UCSORGTOP
 10
0.0
 20
0.0
 30
0.0
  9
$UCSORGBOTTOM
 10
0.0
 20
0.0
 30
0.0
  9
$UCSORGLEFT
 10
0.0
 20
0.0
 30
0.0
  9
$UCSORGRIGHT
 10
0.0
 20
0.0
 30
0.0
  9
$UCSORGFRONT
 10
0.0
 20
0.0
 30
0.0
  9
$UCSORGBACK
 10
0.0
 20
0.0
 30
0.0
  9
$PUCSBASE
  2

  9
$PUCSNAME
  2

  9
$PUCSORG
 10
0.0
 20
0.0
 30
0.0
  9
$PUCSXDIR
 10
1.0
 20
0.0
 30
0.0
  9
$PUCSYDIR
 10
0.0
 20
1.0
 30
0.0
  9
$PUCSORTHOREF
  2

  9
$PUCSORTHOVIEW
 70
     0
  9
$PUCSORGTOP
 10
0.0
 20
0.0
 30
0.0
  9
$PUCSORGBOTTOM
 10
0.0
 20
0.0
 30
0.0
  9
$PUCSORGLEFT
 10
0.0
 20
0.0
 30
0.0
  9
$PUCSORGRIGHT
 10
0.0
 20
0.0
 30
0.0
  9
$PUCSORGFRONT
 10
0.0
 20
0.0
 30
0.0
  9
$PUCSORGBACK
 10
0.0
 20
0.0
 30
0.0
  9
$USERI1
 70
     0
  9
$USERI2
 70
     0
  9
$USERI3
 70
     0
  9
$USERI4
 70
     0
  9
$USERI5
 70
     0
  9
$USERR1
 40
0.0
  9
$USERR2
 40
0.0
  9
$USERR3
 40
0.0
  9
$USERR4
 40
0.0
  9
$USERR5
 40
0.0
  9
$WORLDVIEW
 70
     1
  9
$SHADEDGE
 70
     3
  9
$SHADEDIF
 70
    70
  9
$TILEMODE
 70
     1
  9
$MAXACTVP
 70
    16
  9
$PINSBASE
 10
0.0
 20
0.0
 30
0.0
  9
$PLIMCHECK
 70
     0
  9
$PEXTMIN
 10
1.000000E+20
 20
1.000000E+20
 30
1.000000E+20
  9
$PEXTMAX
 10
-1.000000E+20
 20
-1.000000E+20
 30
-1.000000E+20
  9
$PLIMMIN
 10
0.0
 20
0.0
  9
$PLIMMAX
 10
12.0
 20
9.0
  9
$UNITMODE
 70
     0
  9
$VISRETAIN
 70
     0
  9
$PLINEGEN
 70
     1
  9
$PSLTSCALE
 70
     0
  9
$TREEDEPTH
 70
  3020
  9
$CMLSTYLE
  2
Standard
  9
$CMLJUST
 70
     0
  9
$CMLSCALE
 40
1.0
  9
$PROXYGRAPHICS
 70
     0
  9
$MEASUREMENT
 70
     0
  9
$CELWEIGHT
370
     0
  9
$ENDCAPS
280
     0
  9
$JOINSTYLE
280
     0
  9
$LWDISPLAY
290
     0
  9
$INSUNITS
 70
     0
  9
$HYPERLINKBASE
  1

  9
$STYLESHEET
  1

  9
$XEDIT
290
     1
  9
$CEPSNTYPE
380
     0
  9
$PSTYLEMODE
290
     1
  9
$FINGERPRINTGUID
  2

  9
$VERSIONGUID
  2

  9
$EXTNAMES
290
     1
  9
$PSVPSCALE
 40
0.0
  0
ENDSEC
  0
SECTION
  2
CLASSES
  0
CLASS
  1
LWPOLYLINE
  2
AcDbPolyline
  3
AutoCAD 2000
 90
    32768
280
     0
281
     1
  0
CLASS
  1
IMAGE
  2
AcDbRasterImage
  3
ISM
 90
    32895
280
     0
281
     1
  0
CLASS
  1
OLE2FRAME
  2
AcDbOle2Frame
  3
AutoCAD 2000
 90
    32768
280
     0
281
     1
  0
CLASS
  1
HATCH
  2
AcDbHatch
  3
AutoCAD 2000
 90
    32768
280
     0
281
     1
  0
CLASS
  1
DICTIONARYVAR
  2
AcDbDictionaryVar
  3
AutoCAD 2000
 90
    32768
280
     0
281
     0
  0
CLASS
  1
RASTERVARIABLES
  2
AcDbRasterVariables
  3
ISM
 90
    32768
280
     0
281
     0
  0
CLASS
  1
IMAGEDEF
  2
AcDbRasterImageDef
  3
ISM
 90
    32768
280
     0
281
     0
  0
CLASS
  1
IMAGEDEF_REACTOR
  2
AcDbRasterImageDefReactor
  3
ISM
 90
    32769
280
     0
281
     0
  0
CLASS
  1
IDBUFFER
  2
AcDbIdBuffer
  3
AutoCAD 2000
 90
    32768
280
     0
281
     0
  0
CLASS
  1
SPATIAL_FILTER
  2
AcDbSpatialFilter
  3
AutoCAD 2000
 90
    32768
280
     0
281
     0
  0
CLASS
  1
XRECORD
  2
AcDbXrecord
  3
AutoCAD 2000
 90
        0
280
     0
281
     0
  0
CLASS
  1
SORTENTSTABLE
  2
AcDbSortentsTable
  3
AutoCAD 2000
 90
    32768
280
     0
281
     0
  0
CLASS
  1
LAYER_INDEX
  2
AcDbLayerIndex
  3
AutoCAD 2000
 90
    32768
280
     0
281
     0
  0
CLASS
  1
SPATIAL_INDEX
  2
AcDbSpatialIndex
  3
AutoCAD 2000
 90
    32768
280
     0
281
     0
  0
CLASS
  1
OBJECT_PTR
  2
CAseDLPNTableRecord
  3
"ASE-LPNTableRecord"
 90
    32769
280
     0
281
     0
  0
CLASS
  1
LAYOUT
  2
AcDbLayout
  3
AutoCAD 2000
 90
        0
280
     0
281
     0
  0
CLASS
  1
PLOTSETTINGS
  2
AcDbPlotSettings
  3
AutoCAD 2000
 90
    32768
280
     0
281
     0
  0
CLASS
  1
ACDBDICTIONARYWDFLT
  2
AcDbDictionaryWithDefault
  3
AutoCAD 2000
 90
        0
280
     0
281
     0
  0
CLASS
  1
ACDBPLACEHOLDER
  2
AcDbPlaceHolder
  3
AutoCAD 2000
 90
        0
280
     0
281
     0
  0
CLASS
  1
VBA_PROJECT
  2
AcDbVbaProject
  3
acadvba
 90
    32768
280
     0
281
     0
  0
CLASS
  1
WIPEOUT
  2
AcDbWipeout
  3
WipeOut|AutoCAD Express Tool|expresstools@autodesk.com
 90
    32895
280
     0
281
     1
  0
CLASS
  1
WIPEOUTVARIABLES
  2
AcDbWipeoutVariables
  3
WipeOut|AutoCAD Express Tool|expresstools@autodesk.com
 90
        0
280
     0
281
     0
  0
CLASS
  1
RTEXT
  2
RText
  3
RText|AutoCAD Express Tool|expresstools@autodesk.com
 90
    32768
280
     0
281
     1
  0
CLASS
  1
ARCALIGNEDTEXT
  2
AcDbArcAlignedText
  3
ATEXT|AutoCAD Express Tool|expresstools@autodesk.com
 90
    32768
280
     0
281
     1
  0
ENDSEC
  0
SECTION
  2
TABLES
  0
TABLE
  2
VPORT
  5
7
100
AcDbSymbolTable
 70
     1
  0
VPORT
  5
15
100
AcDbSymbolTableRecord
100
AcDbViewportTableRecord
  2
*ACTIVE
 70
     0
 10
0.0
 20
0.0
 11
1.0
 21
1.0
 12
0.0
 22
0.0
 13
0.0
 23
0.0
 14
1.0
 24
1.0
 15
0.0
 25
0.0
 16
0.0
 26
0.0
 36
1.0
 17
0.0
 27
0.0
 37
0.0
 40
100.0
 41
1.0
 42
50.0
 43
0.0
 44
0.0
 50
0.0
 51
0.0
 71
     0
 72
   100
 73
     1
 74
     1
 75
     0
 76
     0
 77
     0
 78
     0
281
     0
 65
     0
110
0.0
120
0.0
130
0.0
111
1.0
121
0.0
131
0.0
112
0.0
122
1.0
132
0.0
345
0
346
0
 79
     0
146
0.0
  0
ENDTAB
  0
TABLE
  2
LTYPE
  5
4
100
AcDbSymbolTable
 70
     7
  0
LTYPE
  5
11
100
AcDbSymbolTableRecord
100
AcDbLinetypeTableRecord
  2
ByBlock
 70
    64
  3

 72
    65
 73
     0
 40
0.0
  0
LTYPE
  5
12
100
AcDbSymbolTableRecord
100
AcDbLinetypeTableRecord
  2
ByLayer
 70
    64
  3

 72
    65
 73
     0
 40
0.0
  0
LTYPE
  5
13
100
AcDbSymbolTableRecord
100
AcDbLinetypeTableRecord
  2
Continuous
 70
    64
  3
Solid line
 72
    65
 73
     0
 40
0.0
  0
LTYPE
  5
24
100
AcDbSymbolTableRecord
100
AcDbLinetypeTableRecord
  2
DASHED
 70
    64
  3
Dashed __ __ __ __ __ __ __ __ __ __ __ __ __ _
 72
    65
 73
     2
 40
0.75
 49
0.5
 74
     0
 49
-0.25
 74
     0
  0
LTYPE
  5
25
100
AcDbSymbolTableRecord
100
AcDbLinetypeTableRecord
  2
CENTER
 70
    64
  3
Center ____ _ ____ _ ____ _ ____ _ ____ _ ____
 72
    65
 73
     4
 40
1.0
 49
0.5
 74
     0
 49
-0.25
 74
     0
 49
0.0
 74
     0
 49
-0.25
 74
     0
  0
LTYPE
  5
26
100
AcDbSymbolTableRecord
100
AcDbLinetypeTableRecord
  2
DIVIDE
 70
    64
  3
Divide ____ . . ____ . . ____ . . ____ . . ____
 72
    65
 73
     6
 40
1.25
 49
0.5
 74
     0
 49
-0.25
 74
     0
 49
0.0
 74
     0
 49
-0.25
 74
     0
 49
0.0
 74
     0
 49
-0.25
 74
     0
  0
LTYPE
  5
27
100
AcDbSymbolTableRecord
100
AcDbLinetypeTableRecord
  2
PHANTOM
 70
    64
  3
Phantom ______  __  __  ______  __  __  ______
 72
    65
 73
     6
 40
9.0
 49
4.3
 74
     0
 49
-0.7
 74
     0
 49
1.3
 74
     0
 49
-0.7
 74
     0
 49
1.3
 74
     0
 49
-0.7
 74
     0
  0
ENDTAB
  0
TABLE
  2
LAYER
  5
2
100
AcDbSymbolTable
 70
     3
  0
LAYER
  5
14
100
AcDbSymbolTableRecord
100
AcDbLayerTableRecord
  2
0
 70
    64
 62
    53
  6
Continuous
290
     1
370
    -3
390
1D
  0
LAYER
  5
28
100
AcDbSymbolTableRecord
100
AcDbLayerTableRecord
  2
3
 70
    64
 62
     4
  6
Continuous
290
     1
370
    -3
390
1D
  0
LAYER
  5
29
100
AcDbSymbolTableRecord
100
AcDbLayerTableRecord
  2
5
 70
    64
 62
   191
  6
Continuous
290
     1
370
    -3
390
1D
  0
ENDTAB
  0
TABLE
  2
STYLE
  5
3
100
AcDbSymbolTable
 70
     2
  0
STYLE
  5
17
100
AcDbSymbolTableRecord
100
AcDbTextStyleTableRecord
  2
Standard
 70
     0
 40
0.0
 41
1.0
 50
0.0
 71
     0
 42
0.0
  3
txt
  4

  0
STYLE
  5
3EB
100
AcDbSymbolTableRecord
100
AcDbTextStyleTableRecord
  2
ZU_SHPTB00001
 70
     0
 40
0.0
 41
1.0
 50
0.0
 71
     0
 42
0.0
  3
monotxt
  4
bigfont
  0
ENDTAB
  0
TABLE
  2
VIEW
  5
5
100
AcDbSymbolTable
 70
     0
  0
ENDTAB
  0
TABLE
  2
UCS
  5
6
100
AcDbSymbolTable
 70
     0
  0
ENDTAB
  0
TABLE
  2
APPID
  5
8
100
AcDbSymbolTable
 70
     1
  0
APPID
  5
16
100
AcDbSymbolTableRecord
100
AcDbRegAppTableRecord
  2
ACAD
 70
     0
  0
ENDTAB
  0
TABLE
  2
DIMSTYLE
  5
9
100
AcDbSymbolTable
 70
     1
100
AcDbDimStyleTable
 71
     0
  0
DIMSTYLE
105
18
100
AcDbSymbolTableRecord
100
AcDbDimStyleTableRecord
  2
Standard
 70
     0
  3

  4

 40
1.0
 41
0.18
 42
0.0625
 43
0.38
 44
0.18
 45
0.0
 46
0.0
 47
0.0
 48
0.0
 71
     0
 72
     0
 73
     1
 74
     1
 75
     0
 76
     0
 77
     0
 78
     0
 79
     0
140
0.18
141
0.09
142
0.0
143
25.4
144
1.0
145
0.0
146
1.0
147
0.09
148
0.0
170
     0
171
     2
172
     0
173
     0
174
     0
175
     0
176
     0
177
     0
178
     0
179
     0
271
     4
272
     4
273
     2
274
     2
275
     0
276
     0
277
     2
278
    46
279
     0
280
     0
281
     0
282
     0
283
     1
284
     0
285
     0
286
     0
288
     0
340
17
341
0
342
0
343
0
344
0
371
    -2
372
    -2
  0
ENDTAB
  0
TABLE
  2
BLOCK_RECORD
  5
1
100
AcDbSymbolTable
 70
     7
  0
BLOCK_RECORD
  5
A
100
AcDbSymbolTableRecord
100
AcDbBlockTableRecord
  2
*MODEL_SPACE
340
20
  0
BLOCK_RECORD
  5
B
100
AcDbSymbolTableRecord
100
AcDbBlockTableRecord
  2
*PAPER_SPACE
340
21
  0
BLOCK_RECORD
  5
101
100
AcDbSymbolTableRecord
100
AcDbBlockTableRecord
  2
ZU_SYM__USERS_HOME_SYMBOL_POO_SYM_B20_-1
340
0
102
{BLKREFS
331
10C
102
}
  0
BLOCK_RECORD
  5
145
100
AcDbSymbolTableRecord
100
AcDbBlockTableRecord
  2
ZU_SYM__USERS_HOME_SYMBOL_POO_SYM_S07_-1
340
0
102
{BLKREFS
331
150
102
}
  0
BLOCK_RECORD
  5
15F
100
AcDbSymbolTableRecord
100
AcDbBlockTableRecord
  2
ZU_SYM__USERS_HOME_SYMBOL_POO_SYM_S07_00001-1
340
0
102
{BLKREFS
331
16A
102
}
  0
BLOCK_RECORD
  5
17A
100
AcDbSymbolTableRecord
100
AcDbBlockTableRecord
  2
ZU_SYM__USERS_HOME_SYMBOL_POO_SYM_S07_00002-1
340
0
102
{BLKREFS
331
185
102
}
  0
BLOCK_RECORD
  5
198
100
AcDbSymbolTableRecord
100
AcDbBlockTableRecord
  2
ZU_SYM__USERS_HOME_SYMBOL_POO_SYM_S07_00003-1
340
0
102
{BLKREFS
331
1A3
102
}
  0
BLOCK_RECORD
  5
318
100
AcDbSymbolTableRecord
100
AcDbBlockTableRecord
  2
ZU_SYM_C__ZUOU_AC_BLOCK_ZU_SYM__USR_MELCAD_MD_SYM_SYM_SYM1_00001-1_-1
340
0
102
{BLKREFS
331
323
102
}
  0
BLOCK_RECORD
  5
325
100
AcDbSymbolTableRecord
100
AcDbBlockTableRecord
  2
ZU_SYM_C__ZUOU_AC_BLOCK_ZU_SYM__USR_MELCAD_MD_SYM_SYM_SYM1_-1_-1
340
0
102
{BLKREFS
331
330
102
}
  0
ENDTAB
  0
ENDSEC
  0
SECTION
  2
BLOCKS
  0
BLOCK
  5
D
100
AcDbEntity
  8
0
100
AcDbBlockBegin
  2
*MODEL_SPACE
 70
     0
 10
0.0
 20
0.0
 30
0.0
  3
*MODEL_SPACE
  1

  0
ENDBLK
  5
E
100
AcDbEntity
  8
0
100
AcDbBlockEnd
  0
BLOCK
  5
F
100
AcDbEntity
 67
     1
  8
0
100
AcDbBlockBegin
  2
*PAPER_SPACE
 70
     0
 10
0.0
 20
0.0
 30
0.0
  3
*PAPER_SPACE
  1

  0
ENDBLK
  5
10
100
AcDbEntity
 67
     1
  8
0
100
AcDbBlockEnd
  0
BLOCK
  5
102
100
AcDbEntity
  8
0
100
AcDbBlockBegin
  2
ZU_SYM__USERS_HOME_SYMBOL_POO_SYM_B20_-1
 70
    64
 10
0.0
 20
0.0
 30
0.0
  3
ZU_SYM__USERS_HOME_SYMBOL_POO_SYM_B20_-1
  1

  0
POINT
  5
103
100
AcDbEntity
  8
0
370
    -3
  6
Continuous
100
AcDbPoint
 10
0.0
 20
0.0
 30
0.0
  0
LINE
  5
104
100
AcDbEntity
  8
0
370
    -3
  6
Continuous
100
AcDbLine
 10
0.0
 20
-6.5
 30
0.0
 11
0.0
 21
6.5
 31
0.0
  0
LINE
  5
105
100
AcDbEntity
  8
0
370
    -3
  6
Continuous
100
AcDbLine
 10
-7.999999
 20
5.633876
 30
0.0
 11
-7.999999
 21
-5.63407
 31
0.0
  0
LINE
  5
106
100
AcDbEntity
  8
0
370
    -3
  6
Continuous
100
AcDbLine
 10
0.0
 20
6.5
 30
0.0
 11
-7.499999
 21
6.5
 31
0.0
  0
LINE
  5
107
100
AcDbEntity
  8
0
370
    -3
  6
Continuous
100
AcDbLine
 10
0.0
 20
-6.5
 30
0.0
 11
-7.499998
 21
-6.5
 31
0.0
  0
LINE
  5
108
100
AcDbEntity
  8
0
370
    -3
  6
Continuous
100
AcDbLine
 10
-7.499999
 20
6.5
 30
0.0
 11
-7.999999
 21
5.633876
 31
0.0
  0
LINE
  5
109
100
AcDbEntity
  8
0
370
    -3
  6
Continuous
100
AcDbLine
 10
-7.499998
 20
-6.499999
 30
0.0
 11
-7.999999
 21
-5.63407
 31
0.0
  0
LINE
  5
10A
100
AcDbEntity
  8
0
370
    -3
  6
Continuous
100
AcDbLine
 10
-7.499999
 20
6.5
 30
0.0
 11
-7.499999
 21
-6.5
 31
0.0
  0
ENDBLK
  5
10B
100
AcDbEntity
  8
0
100
AcDbBlockEnd
  0
BLOCK
  5
146
100
AcDbEntity
  8
0
100
AcDbBlockBegin
  2
ZU_SYM__USERS_HOME_SYMBOL_POO_SYM_S07_-1
 70
    64
 10
0.0
 20
0.0
 30
0.0
  3
ZU_SYM__USERS_HOME_SYMBOL_POO_SYM_S07_-1
  1

  0
ARC
  5
147
100
AcDbEntity
  8
0
370
    -3
  6
Continuous
100
AcDbCircle
 10
-0.979025
 20
-2.200001
 30
0.0
 40
1.299999
100
AcDbArc
 50
196.601531
 51
270.0
  0
ARC
  5
148
100
AcDbEntity
  8
0
370
    -3
  6
Continuous
100
AcDbCircle
 10
-0.979025
 20
2.200001
 30
0.0
 40
1.299999
100
AcDbArc
 50
90.0
 51
163.398452
  0
LINE
  5
149
100
AcDbEntity
  8
0
370
    -3
  6
Continuous
100
AcDbLine
 10
0.0
 20
-3.5
 30
0.0
 11
-0.979025
 21
-3.5
 31
0.0
  0
LINE
  5
14A
100
AcDbEntity
  8
0
370
    -3
  6
Continuous
100
AcDbLine
 10
0.0
 20
3.5
 30
0.0
 11
-0.979025
 21
3.5
 31
0.0
  0
LINE
  5
14B
100
AcDbEntity
  8
0
370
    -3
  6
Continuous
100
AcDbLine
 10
0.0
 20
-3.5
 30
0.0
 11
0.0
 21
3.5
 31
0.0
  0
LINE
  5
14C
100
AcDbEntity
  8
0
370
    -3
  6
Continuous
100
AcDbLine
 10
0.0
 20
-3.5
 30
0.0
 11
0.0
 21
3.5
 31
0.0
  0
POINT
  5
14D
100
AcDbEntity
  8
0
370
    -3
  6
Continuous
100
AcDbPoint
 10
0.0
 20
0.0
 30
0.0
  0
ARC
  5
14E
100
AcDbEntity
  8
0
370
    -3
  6
Continuous
100
AcDbCircle
 10
6.4
 20
0.0
 30
0.0
 40
9.0
100
AcDbArc
 50
163.398452
 51
196.601531
  0
ENDBLK
  5
14F
100
AcDbEntity
  8
0
100
AcDbBlockEnd
  0
BLOCK
  5
160
100
AcDbEntity
  8
0
100
AcDbBlockBegin
  2
ZU_SYM__USERS_HOME_SYMBOL_POO_SYM_S07_00001-1
 70
    64
 10
0.0
 20
0.0
 30
0.0
  3
ZU_SYM__USERS_HOME_SYMBOL_POO_SYM_S07_00001-1
  1

  0
ARC
  5
161
100
AcDbEntity
  8
0
370
    -3
  6
Continuous
100
AcDbCircle
 10
-0.979025
 20
-2.200001
 30
0.0
 40
1.299999
100
AcDbArc
 50
196.601531
 51
270.0
  0
ARC
  5
162
100
AcDbEntity
  8
0
370
    -3
  6
Continuous
100
AcDbCircle
 10
-0.979025
 20
2.200001
 30
0.0
 40
1.299999
100
AcDbArc
 50
90.0
 51
163.398452
  0
LINE
  5
163
100
AcDbEntity
  8
0
370
    -3
  6
Continuous
100
AcDbLine
 10
0.0
 20
-3.5
 30
0.0
 11
-0.979025
 21
-3.5
 31
0.0
  0
LINE
  5
164
100
AcDbEntity
  8
0
370
    -3
  6
Continuous
100
AcDbLine
 10
0.0
 20
3.5
 30
0.0
 11
-0.979025
 21
3.5
 31
0.0
  0
LINE
  5
165
100
AcDbEntity
  8
0
370
    -3
  6
Continuous
100
AcDbLine
 10
0.0
 20
-3.5
 30
0.0
 11
0.0
 21
3.5
 31
0.0
  0
LINE
  5
166
100
AcDbEntity
  8
0
370
    -3
  6
Continuous
100
AcDbLine
 10
0.0
 20
-3.5
 30
0.0
 11
0.0
 21
3.5
 31
0.0
  0
POINT
  5
167
100
AcDbEntity
  8
0
370
    -3
  6
Continuous
100
AcDbPoint
 10
0.0
 20
0.0
 30
0.0
  0
ARC
  5
168
100
AcDbEntity
  8
0
370
    -3
  6
Continuous
100
AcDbCircle
 10
6.4
 20
0.0
 30
0.0
 40
9.0
100
AcDbArc
 50
163.398452
 51
196.601531
  0
ENDBLK
  5
169
100
AcDbEntity
  8
0
100
AcDbBlockEnd
  0
BLOCK
  5
17B
100
AcDbEntity
  8
0
100
AcDbBlockBegin
  2
ZU_SYM__USERS_HOME_SYMBOL_POO_SYM_S07_00002-1
 70
    64
 10
0.0
 20
0.0
 30
0.0
  3
ZU_SYM__USERS_HOME_SYMBOL_POO_SYM_S07_00002-1
  1

  0
ARC
  5
17C
100
AcDbEntity
  8
0
370
    -3
  6
Continuous
100
AcDbCircle
 10
-0.979025
 20
-2.200001
 30
0.0
 40
1.299999
100
AcDbArc
 50
196.601531
 51
270.0
  0
ARC
  5
17D
100
AcDbEntity
  8
0
370
    -3
  6
Continuous
100
AcDbCircle
 10
-0.979025
 20
2.200001
 30
0.0
 40
1.299999
100
AcDbArc
 50
90.0
 51
163.398452
  0
LINE
  5
17E
100
AcDbEntity
  8
0
370
    -3
  6
Continuous
100
AcDbLine
 10
0.0
 20
-3.5
 30
0.0
 11
-0.979025
 21
-3.5
 31
0.0
  0
LINE
  5
17F
100
AcDbEntity
  8
0
370
    -3
  6
Continuous
100
AcDbLine
 10
0.0
 20
3.5
 30
0.0
 11
-0.979025
 21
3.5
 31
0.0
  0
LINE
  5
180
100
AcDbEntity
  8
0
370
    -3
  6
Continuous
100
AcDbLine
 10
0.0
 20
-3.5
 30
0.0
 11
0.0
 21
3.5
 31
0.0
  0
LINE
  5
181
100
AcDbEntity
  8
0
370
    -3
  6
Continuous
100
AcDbLine
 10
0.0
 20
-3.5
 30
0.0
 11
0.0
 21
3.5
 31
0.0
  0
POINT
  5
182
100
AcDbEntity
  8
0
370
    -3
  6
Continuous
100
AcDbPoint
 10
0.0
 20
0.0
 30
0.0
  0
ARC
  5
183
100
AcDbEntity
  8
0
370
    -3
  6
Continuous
100
AcDbCircle
 10
6.4
 20
0.0
 30
0.0
 40
9.0
100
AcDbArc
 50
163.398452
 51
196.601531
  0
ENDBLK
  5
184
100
AcDbEntity
  8
0
100
AcDbBlockEnd
  0
BLOCK
  5
199
100
AcDbEntity
  8
0
100
AcDbBlockBegin
  2
ZU_SYM__USERS_HOME_SYMBOL_POO_SYM_S07_00003-1
 70
    64
 10
0.0
 20
0.0
 30
0.0
  3
ZU_SYM__USERS_HOME_SYMBOL_POO_SYM_S07_00003-1
  1

  0
ARC
  5
19A
100
AcDbEntity
  8
0
370
    -3
  6
Continuous
100
AcDbCircle
 10
-0.979025
 20
-2.200001
 30
0.0
 40
1.299999
100
AcDbArc
 50
196.601531
 51
270.0
  0
ARC
  5
19B
100
AcDbEntity
  8
0
370
    -3
  6
Continuous
100
AcDbCircle
 10
-0.979025
 20
2.200001
 30
0.0
 40
1.299999
100
AcDbArc
 50
90.0
 51
163.398452
  0
LINE
  5
19C
100
AcDbEntity
  8
0
370
    -3
  6
Continuous
100
AcDbLine
 10
0.0
 20
-3.5
 30
0.0
 11
-0.979025
 21
-3.5
 31
0.0
  0
LINE
  5
19D
100
AcDbEntity
  8
0
370
    -3
  6
Continuous
100
AcDbLine
 10
0.0
 20
3.5
 30
0.0
 11
-0.979025
 21
3.5
 31
0.0
  0
LINE
  5
19E
100
AcDbEntity
  8
0
370
    -3
  6
Continuous
100
AcDbLine
 10
0.0
 20
-3.5
 30
0.0
 11
0.0
 21
3.5
 31
0.0
  0
LINE
  5
19F
100
AcDbEntity
  8
0
370
    -3
  6
Continuous
100
AcDbLine
 10
0.0
 20
-3.5
 30
0.0
 11
0.0
 21
3.5
 31
0.0
  0
POINT
  5
1A0
100
AcDbEntity
  8
0
370
    -3
  6
Continuous
100
AcDbPoint
 10
0.0
 20
0.0
 30
0.0
  0
ARC
  5
1A1
100
AcDbEntity
  8
0
370
    -3
  6
Continuous
100
AcDbCircle
 10
6.4
 20
0.0
 30
0.0
 40
9.0
100
AcDbArc
 50
163.398452
 51
196.601531
  0
ENDBLK
  5
1A2
100
AcDbEntity
  8
0
100
AcDbBlockEnd
  0
BLOCK
  5
319
100
AcDbEntity
  8
0
100
AcDbBlockBegin
  2
ZU_SYM_C__ZUOU_AC_BLOCK_ZU_SYM__USR_MELCAD_MD_SYM_SYM_SYM1_00001-1_-1
 70
    64
 10
0.0
 20
0.0
 30
0.0
  3
ZU_SYM_C__ZUOU_AC_BLOCK_ZU_SYM__USR_MELCAD_MD_SYM_SYM_SYM1_00001-1_-1
  1

  0
POINT
  5
31A
100
AcDbEntity
  8
0
370
    -3
  6
Continuous
100
AcDbPoint
 10
0.0
 20
0.0
 30
0.0
  0
LINE
  5
31B
100
AcDbEntity
  8
0
370
    -3
  6
Continuous
100
AcDbLine
 10
0.0
 20
-6.5
 30
0.0
 11
0.0
 21
6.5
 31
0.0
  0
LINE
  5
31C
100
AcDbEntity
  8
0
370
    -3
  6
Continuous
100
AcDbLine
 10
-7.999999
 20
5.633876
 30
0.0
 11
-7.999999
 21
-5.63407
 31
0.0
  0
LINE
  5
31D
100
AcDbEntity
  8
0
370
    -3
  6
Continuous
100
AcDbLine
 10
0.0
 20
6.5
 30
0.0
 11
-7.499999
 21
6.5
 31
0.0
  0
LINE
  5
31E
100
AcDbEntity
  8
0
370
    -3
  6
Continuous
100
AcDbLine
 10
0.0
 20
-6.5
 30
0.0
 11
-7.499998
 21
-6.5
 31
0.0
  0
LINE
  5
31F
100
AcDbEntity
  8
0
370
    -3
  6
Continuous
100
AcDbLine
 10
-7.499999
 20
6.5
 30
0.0
 11
-7.999999
 21
5.633876
 31
0.0
  0
LINE
  5
320
100
AcDbEntity
  8
0
370
    -3
  6
Continuous
100
AcDbLine
 10
-7.499998
 20
-6.499999
 30
0.0
 11
-7.999999
 21
-5.63407
 31
0.0
  0
LINE
  5
321
100
AcDbEntity
  8
0
370
    -3
  6
Continuous
100
AcDbLine
 10
-7.499999
 20
6.5
 30
0.0
 11
-7.499999
 21
-6.5
 31
0.0
  0
ENDBLK
  5
322
100
AcDbEntity
  8
0
100
AcDbBlockEnd
  0
BLOCK
  5
326
100
AcDbEntity
  8
0
100
AcDbBlockBegin
  2
ZU_SYM_C__ZUOU_AC_BLOCK_ZU_SYM__USR_MELCAD_MD_SYM_SYM_SYM1_-1_-1
 70
    64
 10
0.0
 20
0.0
 30
0.0
  3
ZU_SYM_C__ZUOU_AC_BLOCK_ZU_SYM__USR_MELCAD_MD_SYM_SYM_SYM1_-1_-1
  1

  0
POINT
  5
327
100
AcDbEntity
  8
0
370
    -3
  6
Continuous
100
AcDbPoint
 10
0.0
 20
0.0
 30
0.0
  0
LINE
  5
328
100
AcDbEntity
  8
0
370
    -3
  6
Continuous
100
AcDbLine
 10
0.0
 20
-6.5
 30
0.0
 11
0.0
 21
6.5
 31
0.0
  0
LINE
  5
329
100
AcDbEntity
  8
0
370
    -3
  6
Continuous
100
AcDbLine
 10
-7.999999
 20
5.633876
 30
0.0
 11
-7.999999
 21
-5.63407
 31
0.0
  0
LINE
  5
32A
100
AcDbEntity
  8
0
370
    -3
  6
Continuous
100
AcDbLine
 10
0.0
 20
6.5
 30
0.0
 11
-7.499999
 21
6.5
 31
0.0
  0
LINE
  5
32B
100
AcDbEntity
  8
0
370
    -3
  6
Continuous
100
AcDbLine
 10
0.0
 20
-6.5
 30
0.0
 11
-7.499998
 21
-6.5
 31
0.0
  0
LINE
  5
32C
100
AcDbEntity
  8
0
370
    -3
  6
Continuous
100
AcDbLine
 10
-7.499999
 20
6.5
 30
0.0
 11
-7.999999
 21
5.633876
 31
0.0
  0
LINE
  5
32D
100
AcDbEntity
  8
0
370
    -3
  6
Continuous
100
AcDbLine
 10
-7.499998
 20
-6.499999
 30
0.0
 11
-7.999999
 21
-5.63407
 31
0.0
  0
LINE
  5
32E
100
AcDbEntity
  8
0
370
    -3
  6
Continuous
100
AcDbLine
 10
-7.499999
 20
6.5
 30
0.0
 11
-7.499999
 21
-6.5
 31
0.0
  0
ENDBLK
  5
32F
100
AcDbEntity
  8
0
100
AcDbBlockEnd
  0
ENDSEC
  0
SECTION
  2
ENTITIES
  0
LINE
  5
2A
100
AcDbEntity
  8
0
370
    -3
  6
Continuous
100
AcDbLine
 10
225.093423
 20
-177.19043
 30
0.0
 11
225.093423
 21
-248.69043
 31
0.0
  0
LINE
  5
2B
100
AcDbEntity
  8
0
370
    -3
  6
Continuous
100
AcDbLine
 10
225.093423
 20
-107.19043
 30
0.0
 11
225.093423
 21
-177.19043
 31
0.0
  0
LINE
  5
2C
100
AcDbEntity
  8
0
370
    -3
  6
Continuous
100
AcDbLine
 10
225.093423
 20
-107.19043
 30
0.0
 11
225.093423
 21
-177.19043
 31
0.0
  0
LINE
  5
2D
100
AcDbEntity
  8
0
370
    -3
  6
Continuous
100
AcDbLine
 10
225.093423
 20
-177.19043
 30
0.0
 11
225.093423
 21
-248.69043
 31
0.0
  0
LINE
  5
2E
100
AcDbEntity
  8
0
370
    -3
  6
CENTER
100
AcDbLine
 10
-329.905894
 20
-31.060522
 30
0.0
 11
-329.905894
 21
-266.867483
 31
0.0
  0
LINE
  5
2F
100
AcDbEntity
  8
0
370
    -3
  6
CENTER
100
AcDbLine
 10
-141.665349
 20
-133.19043
 30
0.0
 11
-93.915349
 21
-133.19043
 31
0.0
  0
LINE
  5
30
100
AcDbEntity
  8
0
370
    -3
  6
CENTER
100
AcDbLine
 10
-118.265993
 20
-106.66308
 30
0.0
 11
-118.265993
 21
-156.66308
 31
0.0
  0
CIRCLE
  5
31
100
AcDbEntity
  8
0
370
    -3
  6
Continuous
100
AcDbCircle
 10
-118.265993
 20
-133.19043
 30
0.0
 40
4.0
  0
CIRCLE
  5
32
100
AcDbEntity
  8
0
370
    -3
  6
Continuous
100
AcDbCircle
 10
-118.265993
 20
-133.19043
 30
0.0
 40
3.5
  0
LINE
  5
33
100
AcDbEntity
  8
0
370
    -3
  6
CENTER
100
AcDbLine
 10
39.093423
 20
-38.871189
 30
0.0
 11
39.093423
 21
-264.575205
 31
0.0
  0
LINE
  5
34
100
AcDbEntity
  8
0
370
    -3
  6
CENTER
100
AcDbLine
 10
-179.868354
 20
-133.19043
 30
0.0
 11
-416.036434
 21
-133.19043
 31
0.0
  0
LINE
  5
35
100
AcDbEntity
  8
0
370
    -3
  6
CENTER
100
AcDbLine
 10
-57.080945
 20
-133.19043
 30
0.0
 11
165.769138
 21
-133.19043
 31
0.0
  0
LINE
  5
36
100
AcDbEntity
  8
0
370
    -3
  6
Continuous
100
AcDbLine
 10
-376.705894
 20
-46.403133
 30
0.0
 11
-376.705894
 21
-46.425724
 31
0.0
  0
ARC
  5
37
100
AcDbEntity
  8
0
370
    -3
  6
DASHED
100
AcDbCircle
 10
-306.622708
 20
-196.108497
 30
0.0
 40
50.8
100
AcDbArc
 50
320.905432
 51
336.870931
  0
ARC
  5
38
100
AcDbEntity
  8
0
370
    -3
  6
DASHED
100
AcDbCircle
 10
-329.905894
 20
-177.19043
 30
0.0
 40
80.8
100
AcDbArc
 50
309.094568
 51
320.905432
  0
ARC
  5
39
100
AcDbEntity
  8
0
370
    -3
  6
DASHED
100
AcDbCircle
 10
-310.987827
 20
-200.473616
 30
0.0
 40
50.8
100
AcDbArc
 50
274.33985
 51
309.094568
  0
ARC
  5
3A
100
AcDbEntity
  8
0
370
    -3
  6
DASHED
100
AcDbCircle
 10
-329.905894
 20
48.80957
 30
0.0
 40
300.8
100
AcDbArc
 50
270.0
 51
274.33985
  0
ARC
  5
3B
100
AcDbEntity
  8
0
370
    -3
  6
DASHED
100
AcDbCircle
 10
-329.905894
 20
48.80957
 30
0.0
 40
300.8
100
AcDbArc
 50
265.66015
 51
270.0
  0
ARC
  5
3C
100
AcDbEntity
  8
0
370
    -3
  6
DASHED
100
AcDbCircle
 10
-348.82396
 20
-200.473616
 30
0.0
 40
50.8
100
AcDbArc
 50
230.905432
 51
265.66015
  0
ARC
  5
3D
100
AcDbEntity
  8
0
370
    -3
  6
DASHED
100
AcDbCircle
 10
-329.905894
 20
-177.19043
 30
0.0
 40
80.8
100
AcDbArc
 50
219.094568
 51
230.905432
  0
ARC
  5
3E
100
AcDbEntity
  8
0
370
    -3
  6
DASHED
100
AcDbCircle
 10
-353.189079
 20
-196.108497
 30
0.0
 40
50.8
100
AcDbArc
 50
203.129069
 51
219.094568
  0
ARC
  5
3F
100
AcDbEntity
  8
0
370
    -3
  6
DASHED
100
AcDbCircle
 10
-103.905894
 20
-177.19043
 30
0.0
 40
300.8
100
AcDbArc
 50
180.0
 51
182.572317
  0
ARC
  5
40
100
AcDbEntity
  8
0
370
    -3
  6
DASHED
100
AcDbCircle
 10
-103.905894
 20
-177.19043
 30
0.0
 40
300.8
100
AcDbArc
 50
175.66015
 51
180.0
  0
ARC
  5
41
100
AcDbEntity
  8
0
370
    -3
  6
DASHED
100
AcDbCircle
 10
-329.905894
 20
-177.19043
 30
0.0
 40
80.8
100
AcDbArc
 50
129.094568
 51
140.905432
  0
ARC
  5
42
100
AcDbEntity
  8
0
370
    -3
  6
DASHED
100
AcDbCircle
 10
-353.189079
 20
-158.272363
 30
0.0
 40
50.8
100
AcDbArc
 50
140.905432
 51
175.66015
  0
ARC
  5
43
100
AcDbEntity
  8
0
370
    -3
  6
DASHED
100
AcDbCircle
 10
-348.82396
 20
-153.907245
 30
0.0
 40
50.8
100
AcDbArc
 50
94.33985
 51
129.094568
  0
ARC
  5
44
100
AcDbEntity
  8
0
370
    -3
  6
DASHED
100
AcDbCircle
 10
-329.905894
 20
-403.19043
 30
0.0
 40
300.8
100
AcDbArc
 50
90.0
 51
94.33985
  0
ARC
  5
45
100
AcDbEntity
  8
0
370
    -3
  6
DASHED
100
AcDbCircle
 10
-310.987827
 20
-153.907245
 30
0.0
 40
50.8
100
AcDbArc
 50
50.905432
 51
85.66015
  0
ARC
  5
46
100
AcDbEntity
  8
0
370
    -3
  6
DASHED
100
AcDbCircle
 10
-329.905894
 20
-403.19043
 30
0.0
 40
300.8
100
AcDbArc
 50
85.66015
 51
90.0
  0
ARC
  5
47
100
AcDbEntity
  8
0
370
    -3
  6
DASHED
100
AcDbCircle
 10
-329.905894
 20
-177.19043
 30
0.0
 40
80.8
100
AcDbArc
 50
39.094568
 51
50.905432
  0
ARC
  5
48
100
AcDbEntity
  8
0
370
    -3
  6
DASHED
100
AcDbCircle
 10
-306.622708
 20
-158.272363
 30
0.0
 40
50.8
100
AcDbArc
 50
4.33985
 51
39.094568
  0
ARC
  5
49
100
AcDbEntity
  8
0
370
    -3
  6
DASHED
100
AcDbCircle
 10
-555.905894
 20
-177.19043
 30
0.0
 40
300.8
100
AcDbArc
 50
360.0
 51
4.33985
  0
ARC
  5
4A
100
AcDbEntity
  8
0
370
    -3
  6
DASHED
100
AcDbCircle
 10
-555.905894
 20
-177.19043
 30
0.0
 40
300.8
100
AcDbArc
 50
357.427683
 51
0.0
  0
ARC
  5
4B
100
AcDbEntity
  8
0
370
    -3
  6
Continuous
100
AcDbCircle
 10
-306.622708
 20
-196.108497
 30
0.0
 40
50.8
100
AcDbArc
 50
336.870931
 51
355.66015
  0
ARC
  5
4C
100
AcDbEntity
  8
0
370
    -3
  6
Continuous
100
AcDbCircle
 10
-555.905894
 20
-177.19043
 30
0.0
 40
300.8
100
AcDbArc
 50
355.66015
 51
357.427683
  0
ARC
  5
4D
100
AcDbEntity
  8
0
370
    -3
  6
Continuous
100
AcDbCircle
 10
-353.189079
 20
-196.108497
 30
0.0
 40
50.8
100
AcDbArc
 50
184.33985
 51
203.129069
  0
ARC
  5
4E
100
AcDbEntity
  8
0
370
    -3
  6
Continuous
100
AcDbCircle
 10
-103.905894
 20
-177.19043
 30
0.0
 40
300.8
100
AcDbArc
 50
182.572317
 51
184.33985
  0
LINE
  5
4F
100
AcDbEntity
  8
0
370
    -3
  6
CENTER
100
AcDbLine
 10
-404.358777
 20
-239.19043
 30
0.0
 11
-256.860836
 21
-239.19043
 31
0.0
  0
LINE
  5
50
100
AcDbEntity
  8
0
370
    -3
  6
CENTER
100
AcDbLine
 10
-403.621287
 20
-64.19043
 30
0.0
 11
-256.860836
 21
-64.19043
 31
0.0
  0
LINE
  5
51
100
AcDbEntity
  8
0
370
    -3
  6
Continuous
100
AcDbLine
 10
-254.905894
 20
-154.19043
 30
0.0
 11
-252.905894
 21
-154.19043
 31
0.0
  0
LINE
  5
52
100
AcDbEntity
  8
0
370
    -3
  6
Continuous
100
AcDbLine
 10
-254.905894
 20
-112.19043
 30
0.0
 11
-252.905894
 21
-112.19043
 31
0.0
  0
LINE
  5
53
100
AcDbEntity
  8
0
370
    -3
  6
Continuous
100
AcDbLine
 10
-252.905894
 20
-112.19043
 30
0.0
 11
-252.905894
 21
-154.19043
 31
0.0
  0
LINE
  5
54
100
AcDbEntity
  8
0
370
    -3
  6
Continuous
100
AcDbLine
 10
-242.905894
 20
-113.19043
 30
0.0
 11
-242.905894
 21
-110.19043
 31
0.0
  0
LINE
  5
55
100
AcDbEntity
  8
0
370
    -3
  6
Continuous
100
AcDbLine
 10
-252.905894
 20
-153.19043
 30
0.0
 11
-187.905894
 21
-153.19043
 31
0.0
  0
LINE
  5
56
100
AcDbEntity
  8
0
370
    -3
  6
Continuous
100
AcDbLine
 10
-187.905894
 20
-153.19043
 30
0.0
 11
-187.905894
 21
-110.19043
 31
0.0
  0
LINE
  5
57
100
AcDbEntity
  8
0
370
    -3
  6
Continuous
100
AcDbLine
 10
-252.905894
 20
-113.19043
 30
0.0
 11
-187.905894
 21
-113.19043
 31
0.0
  0
LINE
  5
58
100
AcDbEntity
  8
0
370
    -3
  6
Continuous
100
AcDbLine
 10
-242.905894
 20
-110.19043
 30
0.0
 11
-187.905894
 21
-110.19043
 31
0.0
  0
LINE
  5
59
100
AcDbEntity
  8
0
370
    -3
  6
Continuous
100
AcDbLine
 10
-404.905894
 20
-76.09043
 30
0.0
 11
-404.905894
 21
-133.19043
 31
0.0
  0
LINE
  5
5A
100
AcDbEntity
  8
0
370
    -3
  6
Continuous
100
AcDbLine
 10
-404.905894
 20
-76.09043
 30
0.0
 11
-404.505894
 21
-75.69043
 31
0.0
  0
LINE
  5
5B
100
AcDbEntity
  8
0
370
    -3
  6
Continuous
100
AcDbLine
 10
-399.905894
 20
-75.69043
 30
0.0
 11
-404.505894
 21
-75.69043
 31
0.0
  0
LINE
  5
5C
100
AcDbEntity
  8
0
370
    -3
  6
Continuous
100
AcDbLine
 10
-404.905894
 20
-190.29043
 30
0.0
 11
-404.905894
 21
-133.19043
 31
0.0
  0
LINE
  5
5D
100
AcDbEntity
  8
0
370
    -3
  6
Continuous
100
AcDbLine
 10
-404.905894
 20
-190.29043
 30
0.0
 11
-404.505894
 21
-190.69043
 31
0.0
  0
LINE
  5
5E
100
AcDbEntity
  8
0
370
    -3
  6
Continuous
100
AcDbLine
 10
-399.905894
 20
-190.69043
 30
0.0
 11
-404.505894
 21
-190.69043
 31
0.0
  0
LINE
  5
5F
100
AcDbEntity
  8
0
370
    -3
  6
CENTER
100
AcDbLine
 10
-304.725578
 20
-177.19043
 30
0.0
 11
-357.021955
 21
-177.19043
 31
0.0
  0
LINE
  5
60
100
AcDbEntity
  8
0
370
    -3
  6
Continuous
100
AcDbLine
 10
-399.408839
 20
-47.113734
 30
0.0
 11
-399.905894
 21
-47.650492
 31
0.0
  0
LINE
  5
61
100
AcDbEntity
  8
0
370
    -3
  6
Continuous
100
AcDbLine
 10
-399.905894
 20
-255.730369
 30
0.0
 11
-399.408839
 21
-256.267127
 31
0.0
  0
ARC
  5
62
100
AcDbEntity
  8
0
370
    -3
  6
Continuous
100
AcDbCircle
 10
-329.405894
 20
-177.190429
 30
0.0
 40
74.0
100
AcDbArc
 50
197.502524
 51
197.69223
  0
LINE
  5
63
100
AcDbEntity
  8
0
370
    -3
  6
Continuous
100
AcDbLine
 10
-268.905894
 20
-254.69043
 30
0.0
 11
-387.905894
 21
-257.19043
 31
0.0
  0
LINE
  5
64
100
AcDbEntity
  8
0
370
    -3
  6
Continuous
100
AcDbLine
 10
-387.905894
 20
-46.19043
 30
0.0
 11
-387.905894
 21
-257.19043
 31
0.0
  0
LINE
  5
65
100
AcDbEntity
  8
0
370
    -3
  6
Continuous
100
AcDbLine
 10
-268.905894
 20
-48.69043
 30
0.0
 11
-387.905894
 21
-46.19043
 31
0.0
  0
LINE
  5
66
100
AcDbEntity
  8
0
370
    -3
  6
Continuous
100
AcDbLine
 10
-387.905894
 20
-257.151969
 30
0.0
 11
-399.408839
 21
-256.267127
 31
0.0
  0
LINE
  5
67
100
AcDbEntity
  8
0
370
    -3
  6
Continuous
100
AcDbLine
 10
-387.905894
 20
-133.19043
 30
0.0
 11
-387.905894
 21
-257.19043
 31
0.0
  0
LINE
  5
68
100
AcDbEntity
  8
0
370
    -3
  6
Continuous
100
AcDbLine
 10
-399.905894
 20
-133.19043
 30
0.0
 11
-399.905894
 21
-255.730369
 31
0.0
  0
LINE
  5
69
100
AcDbEntity
  8
0
370
    -3
  6
Continuous
100
AcDbLine
 10
-399.905894
 20
-255.730369
 30
0.0
 11
-399.408839
 21
-256.267127
 31
0.0
  0
LINE
  5
6A
100
AcDbEntity
  8
0
370
    -3
  6
Continuous
100
AcDbLine
 10
-387.905894
 20
-133.19043
 30
0.0
 11
-387.905894
 21
-46.19043
 31
0.0
  0
LINE
  5
6B
100
AcDbEntity
  8
0
370
    -3
  6
Continuous
100
AcDbLine
 10
-399.408839
 20
-47.113734
 30
0.0
 11
-399.905894
 21
-47.650492
 31
0.0
  0
LINE
  5
6C
100
AcDbEntity
  8
0
370
    -3
  6
Continuous
100
AcDbLine
 10
-399.905894
 20
-133.19043
 30
0.0
 11
-399.905894
 21
-47.650492
 31
0.0
  0
LINE
  5
6D
100
AcDbEntity
  8
0
370
    -3
  6
Continuous
100
AcDbLine
 10
-387.905894
 20
-46.228892
 30
0.0
 11
-399.408839
 21
-47.113734
 31
0.0
  0
LINE
  5
6E
100
AcDbEntity
  8
0
370
    -3
  6
Continuous
100
AcDbLine
 10
-260.405894
 20
-254.69043
 30
0.0
 11
-268.905894
 21
-254.69043
 31
0.0
  0
LINE
  5
6F
100
AcDbEntity
  8
0
370
    -3
  6
Continuous
100
AcDbLine
 10
-260.405894
 20
-48.69043
 30
0.0
 11
-268.905894
 21
-48.69043
 31
0.0
  0
LINE
  5
70
100
AcDbEntity
  8
0
370
    -3
  6
Continuous
100
AcDbLine
 10
-259.905894
 20
-254.19043
 30
0.0
 11
-260.405894
 21
-254.69043
 31
0.0
  0
LINE
  5
71
100
AcDbEntity
  8
0
370
    -3
  6
Continuous
100
AcDbLine
 10
-259.905894
 20
-201.190429
 30
0.0
 11
-259.905894
 21
-254.19043
 31
0.0
  0
LINE
  5
72
100
AcDbEntity
  8
0
370
    -3
  6
Continuous
100
AcDbLine
 10
-259.905894
 20
-153.190429
 30
0.0
 11
-259.905894
 21
-201.190429
 31
0.0
  0
LINE
  5
73
100
AcDbEntity
  8
0
370
    -3
  6
Continuous
100
AcDbLine
 10
-254.905894
 20
-190.29043
 30
0.0
 11
-254.905894
 21
-133.19043
 31
0.0
  0
LINE
  5
74
100
AcDbEntity
  8
0
370
    -3
  6
Continuous
100
AcDbLine
 10
-259.905894
 20
-190.69043
 30
0.0
 11
-255.305894
 21
-190.69043
 31
0.0
  0
LINE
  5
75
100
AcDbEntity
  8
0
370
    -3
  6
Continuous
100
AcDbLine
 10
-254.905894
 20
-190.29043
 30
0.0
 11
-255.305894
 21
-190.69043
 31
0.0
  0
LINE
  5
76
100
AcDbEntity
  8
0
370
    -3
  6
Continuous
100
AcDbLine
 10
-259.905894
 20
-49.19043
 30
0.0
 11
-259.905894
 21
-153.190429
 31
0.0
  0
LINE
  5
77
100
AcDbEntity
  8
0
370
    -3
  6
Continuous
100
AcDbLine
 10
-254.905894
 20
-76.09043
 30
0.0
 11
-254.905894
 21
-133.19043
 31
0.0
  0
LINE
  5
78
100
AcDbEntity
  8
0
370
    -3
  6
Continuous
100
AcDbLine
 10
-254.905894
 20
-76.09043
 30
0.0
 11
-255.305894
 21
-75.69043
 31
0.0
  0
LINE
  5
79
100
AcDbEntity
  8
0
370
    -3
  6
Continuous
100
AcDbLine
 10
-259.905894
 20
-75.69043
 30
0.0
 11
-255.305894
 21
-75.69043
 31
0.0
  0
LINE
  5
7A
100
AcDbEntity
  8
0
370
    -3
  6
Continuous
100
AcDbLine
 10
-259.905894
 20
-49.19043
 30
0.0
 11
-260.405894
 21
-48.69043
 31
0.0
  0
LINE
  5
7B
100
AcDbEntity
  8
0
370
    -3
  6
Continuous
100
AcDbLine
 10
-401.405894
 20
-190.69043
 30
0.0
 11
-401.405894
 21
-193.430811
 31
0.0
  0
LINE
  5
7C
100
AcDbEntity
  8
0
370
    -3
  6
Continuous
100
AcDbLine
 10
-258.405894
 20
-190.69043
 30
0.0
 11
-258.405894
 21
-193.430811
 31
0.0
  0
ARC
  5
7D
100
AcDbEntity
  8
0
370
    -3
  6
Continuous
100
AcDbCircle
 10
-278.405894
 20
-193.430811
 30
0.0
 40
20.0
100
AcDbArc
 50
342.497476
 51
0.0
  0
ARC
  5
7E
100
AcDbEntity
  8
0
370
    -3
  6
Continuous
100
AcDbCircle
 10
-329.905894
 20
-177.190429
 30
0.0
 40
74.0
100
AcDbArc
 50
341.075356
 51
342.497476
  0
ARC
  5
7F
100
AcDbEntity
  8
0
370
    -3
  6
Continuous
100
AcDbCircle
 10
-381.405894
 20
-193.430811
 30
0.0
 40
20.0
100
AcDbArc
 50
180.0
 51
202.331645
  0
LINE
  5
80
100
AcDbEntity
  8
0
370
    -3
  6
Continuous
100
AcDbLine
 10
225.093423
 20
-177.19043
 30
0.0
 11
225.093423
 21
-248.69043
 31
0.0
  0
LINE
  5
81
100
AcDbEntity
  8
0
370
    -3
  6
Continuous
100
AcDbLine
 10
225.093423
 20
-177.19043
 30
0.0
 11
225.093423
 21
-107.19043
 31
0.0
  0
LINE
  5
82
100
AcDbEntity
  8
0
370
    -3
  6
Continuous
100
AcDbLine
 10
225.093423
 20
-177.19043
 30
0.0
 11
225.093423
 21
-248.69043
 31
0.0
  0
LINE
  5
83
100
AcDbEntity
  8
0
370
    -3
  6
Continuous
100
AcDbLine
 10
225.093423
 20
-177.19043
 30
0.0
 11
225.093423
 21
-107.19043
 31
0.0
  0
POINT
  5
84
100
AcDbEntity
  8
0
370
    -3
  6
DASHED
100
AcDbPoint
 10
39.093423
 20
-113.076734
 30
0.0
  0
CIRCLE
  5
85
100
AcDbEntity
  8
0
370
    -3
  6
Continuous
100
AcDbCircle
 10
39.093423
 20
-133.19043
 30
0.0
 40
3.5
  0
CIRCLE
  5
86
100
AcDbEntity
  8
0
370
    -3
  6
Continuous
100
AcDbCircle
 10
39.093423
 20
-133.19043
 30
0.0
 40
4.0
  0
LINE
  5
87
100
AcDbEntity
  8
0
370
    -3
  6
CENTER
100
AcDbLine
 10
153.170489
 20
-239.19043
 30
0.0
 11
185.271806
 21
-239.19043
 31
0.0
  0
LINE
  5
88
100
AcDbEntity
  8
0
370
    -3
  6
CENTER
100
AcDbLine
 10
153.170489
 20
-64.19043
 30
0.0
 11
185.271806
 21
-64.19043
 31
0.0
  0
LINE
  5
89
100
AcDbEntity
  8
0
370
    -3
  6
Continuous
100
AcDbLine
 10
190.093423
 20
-56.19043
 30
0.0
 11
190.093423
 21
-177.19043
 31
0.0
  0
LINE
  5
8A
100
AcDbEntity
  8
0
370
    -3
  6
Continuous
100
AcDbLine
 10
-47.906577
 20
-56.19043
 30
0.0
 11
-47.906577
 21
-247.19043
 31
0.0
  0
ARC
  5
8B
100
AcDbEntity
  8
0
370
    -3
  6
Continuous
100
AcDbCircle
 10
225.093423
 20
-104.69043
 30
0.0
 40
1.0
100
AcDbArc
 50
180.0
 51
270.0
  0
LINE
  5
8C
100
AcDbEntity
  8
0
370
    -3
  6
Continuous
100
AcDbLine
 10
220.593423
 20
-105.69043
 30
0.0
 11
225.093423
 21
-105.69043
 31
0.0
  0
LINE
  5
8D
100
AcDbEntity
  8
0
370
    -3
  6
Continuous
100
AcDbLine
 10
224.093423
 20
-104.69043
 30
0.0
 11
224.093423
 21
-83.19043
 31
0.0
  0
ARC
  5
8E
100
AcDbEntity
  8
0
370
    -3
  6
Continuous
100
AcDbCircle
 10
196.093423
 20
-108.19043
 30
0.0
 40
3.0
100
AcDbArc
 50
180.0
 51
270.0
  0
LINE
  5
8F
100
AcDbEntity
  8
0
370
    -3
  6
Continuous
100
AcDbLine
 10
215.593423
 20
-111.19043
 30
0.0
 11
193.093423
 21
-111.19043
 31
0.0
  0
LINE
  5
90
100
AcDbEntity
  8
0
370
    -3
  6
Continuous
100
AcDbLine
 10
218.593423
 20
-177.19043
 30
0.0
 11
218.593423
 21
-134.203277
 31
0.0
  0
ARC
  5
91
100
AcDbEntity
  8
0
370
    -3
  6
Continuous
100
AcDbCircle
 10
215.593423
 20
-134.203277
 30
0.0
 40
3.0
100
AcDbArc
 50
0.0
 51
90.0
  0
LINE
  5
92
100
AcDbEntity
  8
0
370
    -3
  6
Continuous
100
AcDbLine
 10
-37.906577
 20
-46.19043
 30
0.0
 11
180.093423
 21
-46.19043
 31
0.0
  0
LINE
  5
93
100
AcDbEntity
  8
0
370
    -3
  6
Continuous
100
AcDbLine
 10
-37.906577
 20
-257.19043
 30
0.0
 11
180.093423
 21
-257.19043
 31
0.0
  0
LINE
  5
94
100
AcDbEntity
  8
0
370
    -3
  6
Continuous
100
AcDbLine
 10
218.593423
 20
-119.19043
 30
0.0
 11
218.593423
 21
-107.69043
 31
0.0
  0
LINE
  5
95
100
AcDbEntity
  8
0
370
    -3
  6
CENTER
100
AcDbLine
 10
-46.651196
 20
-239.19043
 30
0.0
 11
-13.467812
 21
-239.19043
 31
0.0
  0
LINE
  5
96
100
AcDbEntity
  8
0
370
    -3
  6
Continuous
100
AcDbLine
 10
218.593423
 20
-235.19043
 30
0.0
 11
218.593423
 21
-246.69043
 31
0.0
  0
LINE
  5
97
100
AcDbEntity
  8
0
370
    -3
  6
CENTER
100
AcDbLine
 10
-46.290507
 20
-64.19043
 30
0.0
 11
-13.828501
 21
-64.19043
 31
0.0
  0
ARC
  5
98
100
AcDbEntity
  8
0
370
    -3
  6
Continuous
100
AcDbCircle
 10
140.298908
 20
-67.69043
 30
0.0
 40
8.5
100
AcDbArc
 50
6.181154
 51
90.0
  0
LINE
  5
99
100
AcDbEntity
  8
0
370
    -3
  6
CENTER
100
AcDbLine
 10
170.093423
 20
-225.049566
 30
0.0
 11
170.093423
 21
-254.265372
 31
0.0
  0
ARC
  5
9A
100
AcDbEntity
  8
0
370
    -3
  6
Continuous
100
AcDbCircle
 10
170.093423
 20
-64.19043
 30
0.0
 40
21.5
100
AcDbArc
 50
186.440531
 51
267.134016
  0
ARC
  5
9B
100
AcDbEntity
  8
0
370
    -3
  6
Continuous
100
AcDbCircle
 10
168.593423
 20
-94.152907
 30
0.0
 40
8.5
100
AcDbArc
 50
0.0
 51
87.134016
  0
LINE
  5
9C
100
AcDbEntity
  8
0
370
    -3
  6
CENTER
100
AcDbLine
 10
170.093423
 20
-77.88847
 30
0.0
 11
170.093423
 21
-44.638124
 31
0.0
  0
LINE
  5
9D
100
AcDbEntity
  8
0
370
    -3
  6
CENTER
100
AcDbLine
 10
-29.906577
 20
-223.60681
 30
0.0
 11
-29.906577
 21
-255.347439
 31
0.0
  0
LINE
  5
9E
100
AcDbEntity
  8
0
370
    -3
  6
Continuous
100
AcDbLine
 10
215.593423
 20
-131.203277
 30
0.0
 11
207.093423
 21
-131.203277
 31
0.0
  0
LINE
  5
9F
100
AcDbEntity
  8
0
370
    -3
  6
CENTER
100
AcDbLine
 10
-29.906577
 20
-83.298804
 30
0.0
 11
-29.906577
 21
-44.732419
 31
0.0
  0
ARC
  5
A0
100
AcDbEntity
  8
0
370
    -3
  6
Continuous
100
AcDbCircle
 10
215.593423
 20
-119.19043
 30
0.0
 40
3.0
100
AcDbArc
 50
270.0
 51
0.0
  0
LINE
  5
A1
100
AcDbEntity
  8
0
370
    -3
  6
Continuous
100
AcDbLine
 10
212.093423
 20
-109.19043
 30
0.0
 11
212.093423
 21
-83.19043
 31
0.0
  0
LINE
  5
A2
100
AcDbEntity
  8
0
370
    -3
  6
Continuous
100
AcDbLine
 10
215.593423
 20
-135.442644
 30
0.0
 11
205.187773
 21
-135.442644
 31
0.0
  0
LINE
  5
A3
100
AcDbEntity
  8
0
370
    -3
  6
Continuous
100
AcDbLine
 10
215.593423
 20
-122.19043
 30
0.0
 11
207.093423
 21
-122.19043
 31
0.0
  0
LINE
  5
A4
100
AcDbEntity
  8
0
370
    -3
  6
Continuous
100
AcDbLine
 10
187.593423
 20
-247.19043
 30
0.0
 11
187.593423
 21
-56.19043
 31
0.0
  0
LINE
  5
A5
100
AcDbEntity
  8
0
370
    -3
  6
Continuous
100
AcDbLine
 10
215.593423
 20
-218.45646
 30
0.0
 11
204.660701
 21
-218.45646
 31
0.0
  0
ARC
  5
A6
100
AcDbEntity
  8
0
370
    -3
  6
Continuous
100
AcDbCircle
 10
207.093423
 20
-136.203277
 30
0.0
 40
5.0
100
AcDbArc
 50
90.0
 51
171.914005
  0
ARC
  5
A7
100
AcDbEntity
  8
0
370
    -3
  6
Continuous
100
AcDbCircle
 10
180.093423
 20
-56.19043
 30
0.0
 40
7.5
100
AcDbArc
 50
0.0
 51
90.0
  0
ARC
  5
A8
100
AcDbEntity
  8
0
370
    -3
  6
Continuous
100
AcDbCircle
 10
215.593423
 20
-138.442644
 30
0.0
 40
3.0
100
AcDbArc
 50
0.0
 51
90.0
  0
ARC
  5
A9
100
AcDbEntity
  8
0
370
    -3
  6
Continuous
100
AcDbCircle
 10
207.093423
 20
-127.19043
 30
0.0
 40
5.0
100
AcDbArc
 50
90.0
 51
170.385223
  0
LINE
  5
AA
100
AcDbEntity
  8
0
370
    -3
  6
Continuous
100
AcDbLine
 10
180.093423
 20
-48.69043
 30
0.0
 11
-37.906577
 21
-48.69043
 31
0.0
  0
ARC
  5
AB
100
AcDbEntity
  8
0
370
    -3
  6
Continuous
100
AcDbCircle
 10
215.593423
 20
-215.45646
 30
0.0
 40
3.0
100
AcDbArc
 50
270.0
 51
0.0
  0
ARC
  5
AC
100
AcDbEntity
  8
0
370
    -3
  6
Continuous
100
AcDbCircle
 10
215.593423
 20
-108.19043
 30
0.0
 40
3.0
100
AcDbArc
 50
270.0
 51
0.0
  0
ARC
  5
AD
100
AcDbEntity
  8
0
370
    -3
  6
Continuous
100
AcDbCircle
 10
-37.906577
 20
-56.19043
 30
0.0
 40
7.5
100
AcDbArc
 50
90.0
 51
180.0
  0
ARC
  5
AE
100
AcDbEntity
  8
0
370
    -3
  6
Continuous
100
AcDbCircle
 10
199.205799
 20
-125.854246
 30
0.0
 40
3.0
100
AcDbArc
 50
270.0
 51
350.385223
  0
LINE
  5
AF
100
AcDbEntity
  8
0
370
    -3
  6
Continuous
100
AcDbLine
 10
-45.406577
 20
-56.19043
 30
0.0
 11
-45.406577
 21
-247.19043
 31
0.0
  0
ARC
  5
B0
100
AcDbEntity
  8
0
370
    -3
  6
Continuous
100
AcDbCircle
 10
199.172958
 20
-135.078003
 30
0.0
 40
3.0
100
AcDbArc
 50
270.0
 51
351.914005
  0
ARC
  5
B1
100
AcDbEntity
  8
0
370
    -3
  6
Continuous
100
AcDbCircle
 10
220.593423
 20
-107.69043
 30
0.0
 40
2.0
100
AcDbArc
 50
90.0
 51
180.0
  0
ARC
  5
B2
100
AcDbEntity
  8
0
370
    -3
  6
Continuous
100
AcDbCircle
 10
-37.906577
 20
-247.19043
 30
0.0
 40
7.5
100
AcDbArc
 50
180.0
 51
270.0
  0
ARC
  5
B3
100
AcDbEntity
  8
0
370
    -3
  6
Continuous
100
AcDbCircle
 10
199.172958
 20
-219.302857
 30
0.0
 40
3.0
100
AcDbArc
 50
8.085995
 51
90.0
  0
ARC
  5
B4
100
AcDbEntity
  8
0
370
    -3
  6
Continuous
100
AcDbCircle
 10
193.093423
 20
-246.19043
 30
0.0
 40
3.0
100
AcDbArc
 50
90.0
 51
180.0
  0
LINE
  5
B5
100
AcDbEntity
  8
0
370
    -3
  6
Continuous
100
AcDbLine
 10
-37.906577
 20
-254.69043
 30
0.0
 11
180.093423
 21
-254.69043
 31
0.0
  0
ARC
  5
B6
100
AcDbEntity
  8
0
370
    -3
  6
Continuous
100
AcDbCircle
 10
199.205799
 20
-228.526615
 30
0.0
 40
3.0
100
AcDbArc
 50
9.614777
 51
90.0
  0
LINE
  5
B7
100
AcDbEntity
  8
0
370
    -3
  6
Continuous
100
AcDbLine
 10
215.593423
 20
-243.19043
 30
0.0
 11
193.093423
 21
-243.19043
 31
0.0
  0
ARC
  5
B8
100
AcDbEntity
  8
0
370
    -3
  6
Continuous
100
AcDbCircle
 10
180.093423
 20
-247.19043
 30
0.0
 40
7.5
100
AcDbArc
 50
270.0
 51
0.0
  0
LINE
  5
B9
100
AcDbEntity
  8
0
370
    -3
  6
Continuous
100
AcDbLine
 10
218.593423
 20
-177.19043
 30
0.0
 11
218.593423
 21
-220.177584
 31
0.0
  0
LINE
  5
BA
100
AcDbEntity
  8
0
370
    -3
  6
Continuous
100
AcDbLine
 10
186.593423
 20
-56.19043
 30
0.0
 11
186.593423
 21
-247.19043
 31
0.0
  0
LINE
  5
BB
100
AcDbEntity
  8
0
370
    -3
  6
Continuous
100
AcDbLine
 10
220.593423
 20
-248.69043
 30
0.0
 11
225.093423
 21
-248.69043
 31
0.0
  0
ARC
  5
BC
100
AcDbEntity
  8
0
370
    -3
  6
Continuous
100
AcDbCircle
 10
180.093423
 20
-247.19043
 30
0.0
 40
6.5
100
AcDbArc
 50
270.0
 51
0.0
  0
ARC
  5
BD
100
AcDbEntity
  8
0
370
    -3
  6
Continuous
100
AcDbCircle
 10
215.593423
 20
-220.177584
 30
0.0
 40
3.0
100
AcDbArc
 50
270.0
 51
0.0
  0
LINE
  5
BE
100
AcDbEntity
  8
0
370
    -3
  6
Continuous
100
AcDbLine
 10
180.093423
 20
-253.69043
 30
0.0
 11
-37.906577
 21
-253.69043
 31
0.0
  0
LINE
  5
BF
100
AcDbEntity
  8
0
370
    -3
  6
Continuous
100
AcDbLine
 10
215.593423
 20
-223.177584
 30
0.0
 11
207.093423
 21
-223.177584
 31
0.0
  0
ARC
  5
C0
100
AcDbEntity
  8
0
370
    -3
  6
Continuous
100
AcDbCircle
 10
-37.906577
 20
-247.19043
 30
0.0
 40
6.5
100
AcDbArc
 50
180.0
 51
270.0
  0
LINE
  5
C1
100
AcDbEntity
  8
0
370
    -3
  6
Continuous
100
AcDbLine
 10
-44.406577
 20
-247.19043
 30
0.0
 11
-44.406577
 21
-56.19043
 31
0.0
  0
ARC
  5
C2
100
AcDbEntity
  8
0
370
    -3
  6
Continuous
100
AcDbCircle
 10
-37.906577
 20
-56.19043
 30
0.0
 40
6.5
100
AcDbArc
 50
90.0
 51
180.0
  0
LINE
  5
C3
100
AcDbEntity
  8
0
370
    -3
  6
Continuous
100
AcDbLine
 10
-37.906577
 20
-49.69043
 30
0.0
 11
180.093423
 21
-49.69043
 31
0.0
  0
ARC
  5
C4
100
AcDbEntity
  8
0
370
    -3
  6
Continuous
100
AcDbCircle
 10
180.093423
 20
-56.19043
 30
0.0
 40
6.5
100
AcDbArc
 50
0.0
 51
90.0
  0
CIRCLE
  5
C5
100
AcDbEntity
  8
0
370
    -3
  6
Continuous
100
AcDbCircle
 10
39.093423
 20
-133.19043
 30
0.0
 40
63.5
  0
ARC
  5
C6
100
AcDbEntity
  8
0
370
    -3
  6
Continuous
100
AcDbCircle
 10
140.298908
 20
-67.69043
 30
0.0
 40
9.5
100
AcDbArc
 50
6.181154
 51
90.0
  0
ARC
  5
C7
100
AcDbEntity
  8
0
370
    -3
  6
Continuous
100
AcDbCircle
 10
215.593423
 20
-235.19043
 30
0.0
 40
3.0
100
AcDbArc
 50
0.0
 51
90.0
  0
LINE
  5
C8
100
AcDbEntity
  8
0
370
    -3
  6
Continuous
100
AcDbLine
 10
140.298908
 20
-59.19043
 30
0.0
 11
0.391938
 21
-59.19043
 31
0.0
  0
ARC
  5
C9
100
AcDbEntity
  8
0
370
    -3
  6
Continuous
100
AcDbCircle
 10
170.093423
 20
-64.19043
 30
0.0
 40
20.5
100
AcDbArc
 50
186.440531
 51
267.134016
  0
LINE
  5
CA
100
AcDbEntity
  8
0
370
    -3
  6
Continuous
100
AcDbLine
 10
215.593423
 20
-232.19043
 30
0.0
 11
207.093423
 21
-232.19043
 31
0.0
  0
ARC
  5
CB
100
AcDbEntity
  8
0
370
    -3
  6
Continuous
100
AcDbCircle
 10
168.593423
 20
-94.152907
 30
0.0
 40
9.5
100
AcDbArc
 50
0.0
 51
87.134016
  0
ARC
  5
CC
100
AcDbEntity
  8
0
370
    -3
  6
Continuous
100
AcDbCircle
 10
207.093423
 20
-218.177584
 30
0.0
 40
5.0
100
AcDbArc
 50
188.085995
 51
270.0
  0
ARC
  5
CD
100
AcDbEntity
  8
0
370
    -3
  6
Continuous
100
AcDbCircle
 10
0.391938
 20
-67.69043
 30
0.0
 40
8.5
100
AcDbArc
 50
90.0
 51
173.410558
  0
LINE
  5
CE
100
AcDbEntity
  8
0
370
    -3
  6
Continuous
100
AcDbLine
 10
178.093423
 20
-208.727338
 30
0.0
 11
178.093423
 21
-94.152907
 31
0.0
  0
ARC
  5
CF
100
AcDbEntity
  8
0
370
    -3
  6
Continuous
100
AcDbCircle
 10
207.093423
 20
-227.19043
 30
0.0
 40
5.0
100
AcDbArc
 50
189.614777
 51
270.0
  0
ARC
  5
D0
100
AcDbEntity
  8
0
370
    -3
  6
Continuous
100
AcDbCircle
 10
-29.906577
 20
-64.19043
 30
0.0
 40
22.0
100
AcDbArc
 50
276.589442
 51
353.410558
  0
ARC
  5
D1
100
AcDbEntity
  8
0
370
    -3
  6
Continuous
100
AcDbCircle
 10
168.593423
 20
-208.727338
 30
0.0
 40
9.5
100
AcDbArc
 50
272.818962
 51
0.0
  0
ARC
  5
D2
100
AcDbEntity
  8
0
370
    -3
  6
Continuous
100
AcDbCircle
 10
-26.406577
 20
-94.488945
 30
0.0
 40
8.5
100
AcDbArc
 50
96.589442
 51
180.0
  0
ARC
  5
D3
100
AcDbEntity
  8
0
370
    -3
  6
Continuous
100
AcDbCircle
 10
170.093423
 20
-239.19043
 30
0.0
 40
21.0
100
AcDbArc
 50
92.818962
 51
173.410558
  0
LINE
  5
D4
100
AcDbEntity
  8
0
370
    -3
  6
Continuous
100
AcDbLine
 10
-34.906577
 20
-94.488945
 30
0.0
 11
-34.906577
 21
-208.891916
 31
0.0
  0
ARC
  5
D5
100
AcDbEntity
  8
0
370
    -3
  6
Continuous
100
AcDbCircle
 10
139.794908
 20
-235.69043
 30
0.0
 40
9.5
100
AcDbArc
 50
270.0
 51
353.410558
  0
ARC
  5
D6
100
AcDbEntity
  8
0
370
    -3
  6
Continuous
100
AcDbCircle
 10
-26.406577
 20
-208.891916
 30
0.0
 40
8.5
100
AcDbArc
 50
180.0
 51
263.410558
  0
LINE
  5
D7
100
AcDbEntity
  8
0
370
    -3
  6
Continuous
100
AcDbLine
 10
0.391938
 20
-245.19043
 30
0.0
 11
139.794908
 21
-245.19043
 31
0.0
  0
ARC
  5
D8
100
AcDbEntity
  8
0
370
    -3
  6
Continuous
100
AcDbCircle
 10
-29.906577
 20
-239.19043
 30
0.0
 40
22.0
100
AcDbArc
 50
6.589442
 51
83.410558
  0
ARC
  5
D9
100
AcDbEntity
  8
0
370
    -3
  6
Continuous
100
AcDbCircle
 10
0.391938
 20
-235.69043
 30
0.0
 40
9.5
100
AcDbArc
 50
186.589442
 51
270.0
  0
ARC
  5
DA
100
AcDbEntity
  8
0
370
    -3
  6
Continuous
100
AcDbCircle
 10
0.391938
 20
-235.69043
 30
0.0
 40
8.5
100
AcDbArc
 50
186.589442
 51
270.0
  0
ARC
  5
DB
100
AcDbEntity
  8
0
370
    -3
  6
Continuous
100
AcDbCircle
 10
-29.906577
 20
-239.19043
 30
0.0
 40
21.0
100
AcDbArc
 50
6.589442
 51
83.410558
  0
LINE
  5
DC
100
AcDbEntity
  8
0
370
    -3
  6
Continuous
100
AcDbLine
 10
0.391938
 20
-244.19043
 30
0.0
 11
139.794908
 21
-244.19043
 31
0.0
  0
ARC
  5
DD
100
AcDbEntity
  8
0
370
    -3
  6
Continuous
100
AcDbCircle
 10
-26.406577
 20
-208.891916
 30
0.0
 40
9.5
100
AcDbArc
 50
180.0
 51
263.410558
  0
ARC
  5
DE
100
AcDbEntity
  8
0
370
    -3
  6
Continuous
100
AcDbCircle
 10
139.794908
 20
-235.69043
 30
0.0
 40
8.5
100
AcDbArc
 50
270.0
 51
353.410558
  0
LINE
  5
DF
100
AcDbEntity
  8
0
370
    -3
  6
Continuous
100
AcDbLine
 10
-35.906577
 20
-94.488945
 30
0.0
 11
-35.906577
 21
-208.891916
 31
0.0
  0
ARC
  5
E0
100
AcDbEntity
  8
0
370
    -3
  6
Continuous
100
AcDbCircle
 10
170.093423
 20
-239.19043
 30
0.0
 40
22.0
100
AcDbArc
 50
92.818962
 51
173.410558
  0
ARC
  5
E1
100
AcDbEntity
  8
0
370
    -3
  6
Continuous
100
AcDbCircle
 10
-26.406577
 20
-94.488945
 30
0.0
 40
9.5
100
AcDbArc
 50
96.589442
 51
180.0
  0
ARC
  5
E2
100
AcDbEntity
  8
0
370
    -3
  6
Continuous
100
AcDbCircle
 10
-29.906577
 20
-64.19043
 30
0.0
 40
21.0
100
AcDbArc
 50
276.589442
 51
353.410558
  0
ARC
  5
E3
100
AcDbEntity
  8
0
370
    -3
  6
Continuous
100
AcDbCircle
 10
168.593423
 20
-208.727338
 30
0.0
 40
8.5
100
AcDbArc
 50
272.818962
 51
0.0
  0
ARC
  5
E4
100
AcDbEntity
  8
0
370
    -3
  6
Continuous
100
AcDbCircle
 10
0.391938
 20
-67.69043
 30
0.0
 40
9.5
100
AcDbArc
 50
90.0
 51
173.410558
  0
LINE
  5
E5
100
AcDbEntity
  8
0
370
    -3
  6
Continuous
100
AcDbLine
 10
177.093423
 20
-208.727338
 30
0.0
 11
177.093423
 21
-94.152907
 31
0.0
  0
LINE
  5
E6
100
AcDbEntity
  8
0
370
    -3
  6
Continuous
100
AcDbLine
 10
140.298908
 20
-58.19043
 30
0.0
 11
0.391938
 21
-58.19043
 31
0.0
  0
CIRCLE
  5
E7
100
AcDbEntity
  8
0
370
    -3
  6
Continuous
100
AcDbCircle
 10
39.093423
 20
-133.19043
 30
0.0
 40
64.5
  0
LINE
  5
E8
100
AcDbEntity
  8
0
370
    -3
  6
Continuous
100
AcDbLine
 10
225.093423
 20
-177.19043
 30
0.0
 11
225.093423
 21
-105.69043
 31
0.0
  0
ARC
  5
E9
100
AcDbEntity
  8
0
370
    -3
  6
Continuous
100
AcDbCircle
 10
193.093423
 20
-108.19043
 30
0.0
 40
3.0
100
AcDbArc
 50
180.0
 51
270.0
  0
LINE
  5
EA
100
AcDbEntity
  8
0
370
    -3
  6
Continuous
100
AcDbLine
 10
225.093423
 20
-177.19043
 30
0.0
 11
225.093423
 21
-248.69043
 31
0.0
  0
ARC
  5
EB
100
AcDbEntity
  8
0
370
    -3
  6
Continuous
100
AcDbCircle
 10
215.593423
 20
-246.19043
 30
0.0
 40
3.0
100
AcDbArc
 50
0.0
 51
90.0
  0
ARC
  5
EC
100
AcDbEntity
  8
0
370
    -3
  6
Continuous
100
AcDbCircle
 10
220.593423
 20
-246.69043
 30
0.0
 40
2.0
100
AcDbArc
 50
180.0
 51
270.0
  0
ARC
  5
ED
100
AcDbEntity
  8
0
370
    -3
  6
Continuous
100
AcDbCircle
 10
210.093423
 20
-109.19043
 30
0.0
 40
2.0
100
AcDbArc
 50
270.0
 51
360.0
  0
LINE
  5
EE
100
AcDbEntity
  8
0
370
    -3
  6
Continuous
100
AcDbLine
 10
190.093423
 20
-177.19043
 30
0.0
 11
190.093423
 21
-247.19043
 31
0.0
  0
LINE
  5
EF
100
AcDbEntity
  8
0
370
    -3
  6
Continuous
100
AcDbLine
 10
190.093423
 20
-86.19043
 30
0.0
 11
193.093423
 21
-96.19043
 31
0.0
  0
LINE
  5
F0
100
AcDbEntity
  8
0
370
    -3
  6
Continuous
100
AcDbLine
 10
193.093423
 20
-96.19043
 30
0.0
 11
193.093423
 21
-108.19043
 31
0.0
  0
ARC
  5
F1
100
AcDbEntity
  8
0
370
    -3
  6
Continuous
100
AcDbCircle
 10
213.093423
 20
-83.19043
 30
0.0
 40
1.0
100
AcDbArc
 50
90.0
 51
180.0
  0
ARC
  5
F2
100
AcDbEntity
  8
0
370
    -3
  6
Continuous
100
AcDbCircle
 10
223.093423
 20
-83.19043
 30
0.0
 40
1.0
100
AcDbArc
 50
0.0
 51
90.0
  0
LINE
  5
F3
100
AcDbEntity
  8
0
370
    -3
  6
Continuous
100
AcDbLine
 10
213.093423
 20
-82.19043
 30
0.0
 11
223.093423
 21
-82.19043
 31
0.0
  0
ARC
  5
F4
100
AcDbEntity
  8
0
370
    -3
  6
Continuous
100
AcDbCircle
 10
180.093423
 20
-56.19043
 30
0.0
 40
10.0
100
AcDbArc
 50
0.0
 51
90.0
  0
ARC
  5
F5
100
AcDbEntity
  8
0
370
    -3
  6
Continuous
100
AcDbCircle
 10
180.093423
 20
-247.19043
 30
0.0
 40
10.0
100
AcDbArc
 50
270.0
 51
0.0
  0
ARC
  5
F6
100
AcDbEntity
  8
0
370
    -3
  6
Continuous
100
AcDbCircle
 10
-37.906577
 20
-247.19043
 30
0.0
 40
10.0
100
AcDbArc
 50
180.0
 51
270.0
  0
ARC
  5
F7
100
AcDbEntity
  8
0
370
    -3
  6
Continuous
100
AcDbCircle
 10
-37.906577
 20
-56.19043
 30
0.0
 40
10.0
100
AcDbArc
 50
90.0
 51
180.0
  0
CIRCLE
  5
F8
100
AcDbEntity
  8
0
370
    -3
  6
Continuous
100
AcDbCircle
 10
39.093423
 20
-133.19043
 30
0.0
 40
40.0
  0
LINE
  5
F9
100
AcDbEntity
  8
0
370
    -3
  6
Continuous
100
AcDbLine
 10
228.593423
 20
-47.19043
 30
0.0
 11
224.093423
 21
-47.19043
 31
0.0
  0
LINE
  5
FA
100
AcDbEntity
  8
0
370
    -3
  6
DASHED
100
AcDbLine
 10
228.593423
 20
-57.19043
 30
0.0
 11
224.093423
 21
-57.19043
 31
0.0
  0
LINE
  5
FB
100
AcDbEntity
  8
0
370
    -3
  6
Continuous
100
AcDbLine
 10
228.593423
 20
-47.19043
 30
0.0
 11
228.593423
 21
-102.19043
 31
0.0
  0
LINE
  5
FC
100
AcDbEntity
  8
0
370
    -3
  6
Continuous
100
AcDbLine
 10
224.093423
 20
-47.19043
 30
0.0
 11
224.093423
 21
-102.19043
 31
0.0
  0
LINE
  5
FD
100
AcDbEntity
  8
0
370
    -3
  6
CENTER
100
AcDbLine
 10
232.374446
 20
-67.19043
 30
0.0
 11
219.572792
 21
-67.19043
 31
0.0
  0
LINE
  5
FE
100
AcDbEntity
  8
0
370
    -3
  6
DASHED
100
AcDbLine
 10
228.593423
 20
-77.19043
 30
0.0
 11
224.093423
 21
-77.19043
 31
0.0
  0
LINE
  5
FF
100
AcDbEntity
  8
0
370
    -3
  6
CENTER
100
AcDbLine
 10
238.302099
 20
-92.19043
 30
0.0
 11
218.002377
 21
-92.19043
 31
0.0
  0
LINE
  5
100
100
AcDbEntity
  8
0
370
    -3
  6
Continuous
100
AcDbLine
 10
228.593423
 20
-102.19043
 30
0.0
 11
224.093423
 21
-102.19043
 31
0.0
  0
INSERT
  5
10C
100
AcDbEntity
  8
0
100
AcDbBlockReference
  2
ZU_SYM__USERS_HOME_SYMBOL_POO_SYM_B20_-1
 10
228.593423
 20
-92.19043
 30
0.0
 41
-1.0
  0
LINE
  5
10D
100
AcDbEntity
  8
0
370
    -3
  6
Continuous
100
AcDbLine
 10
225.093423
 20
-177.19043
 30
0.0
 11
225.093423
 21
-248.69043
 31
0.0
  0
LINE
  5
10E
100
AcDbEntity
  8
0
370
    -3
  6
Continuous
100
AcDbLine
 10
225.093423
 20
-177.19043
 30
0.0
 11
225.093423
 21
-107.19043
 31
0.0
  0
CIRCLE
  5
10F
100
AcDbEntity
  8
0
370
    -3
  6
Continuous
100
AcDbCircle
 10
-29.906577
 20
-64.19043
 30
0.0
 40
8.0
  0
CIRCLE
  5
110
100
AcDbEntity
  8
0
370
    -3
  6
Continuous
100
AcDbCircle
 10
-29.906577
 20
-64.19043
 30
0.0
 40
6.9175
  0
CIRCLE
  5
111
100
AcDbEntity
  8
0
370
    -3
  6
Continuous
100
AcDbCircle
 10
170.093423
 20
-64.19043
 30
0.0
 40
8.0
  0
CIRCLE
  5
112
100
AcDbEntity
  8
0
370
    -3
  6
Continuous
100
AcDbCircle
 10
170.093423
 20
-64.19043
 30
0.0
 40
6.9175
  0
CIRCLE
  5
113
100
AcDbEntity
  8
0
370
    -3
  6
Continuous
100
AcDbCircle
 10
170.093423
 20
-239.19043
 30
0.0
 40
8.0
  0
CIRCLE
  5
114
100
AcDbEntity
  8
0
370
    -3
  6
Continuous
100
AcDbCircle
 10
170.093423
 20
-239.19043
 30
0.0
 40
6.9175
  0
CIRCLE
  5
115
100
AcDbEntity
  8
0
370
    -3
  6
Continuous
100
AcDbCircle
 10
-29.906577
 20
-239.19043
 30
0.0
 40
8.0
  0
CIRCLE
  5
116
100
AcDbEntity
  8
0
370
    -3
  6
Continuous
100
AcDbCircle
 10
-29.906577
 20
-239.19043
 30
0.0
 40
6.9175
  0
LINE
  5
117
100
AcDbEntity
  8
0
370
    -3
  6
CENTER
100
AcDbLine
 10
664.093423
 20
-31.060522
 30
0.0
 11
664.093423
 21
-266.867483
 31
0.0
  0
LINE
  5
118
100
AcDbEntity
  8
0
370
    -3
  6
CENTER
100
AcDbLine
 10
514.055883
 20
-133.19043
 30
0.0
 11
750.223963
 21
-133.19043
 31
0.0
  0
LINE
  5
119
100
AcDbEntity
  8
0
370
    -3
  6
Continuous
100
AcDbLine
 10
710.893423
 20
-46.403133
 30
0.0
 11
710.893423
 21
-46.425724
 31
0.0
  0
LINE
  5
11A
100
AcDbEntity
  8
0
370
    -3
  6
Continuous
100
AcDbLine
 10
589.093423
 20
-154.19043
 30
0.0
 11
587.093423
 21
-154.19043
 31
0.0
  0
LINE
  5
11B
100
AcDbEntity
  8
0
370
    -3
  6
Continuous
100
AcDbLine
 10
589.093423
 20
-112.19043
 30
0.0
 11
587.093423
 21
-112.19043
 31
0.0
  0
LINE
  5
11C
100
AcDbEntity
  8
0
370
    -3
  6
Continuous
100
AcDbLine
 10
587.093423
 20
-112.19043
 30
0.0
 11
587.093423
 21
-154.19043
 31
0.0
  0
LINE
  5
11D
100
AcDbEntity
  8
0
370
    -3
  6
Continuous
100
AcDbLine
 10
577.093423
 20
-113.19043
 30
0.0
 11
577.093423
 21
-110.19043
 31
0.0
  0
LINE
  5
11E
100
AcDbEntity
  8
0
370
    -3
  6
Continuous
100
AcDbLine
 10
587.093423
 20
-153.19043
 30
0.0
 11
522.093423
 21
-153.19043
 31
0.0
  0
LINE
  5
11F
100
AcDbEntity
  8
0
370
    -3
  6
Continuous
100
AcDbLine
 10
522.093423
 20
-153.19043
 30
0.0
 11
522.093423
 21
-110.19043
 31
0.0
  0
LINE
  5
120
100
AcDbEntity
  8
0
370
    -3
  6
Continuous
100
AcDbLine
 10
587.093423
 20
-113.19043
 30
0.0
 11
522.093423
 21
-113.19043
 31
0.0
  0
LINE
  5
121
100
AcDbEntity
  8
0
370
    -3
  6
Continuous
100
AcDbLine
 10
577.093423
 20
-110.19043
 30
0.0
 11
522.093423
 21
-110.19043
 31
0.0
  0
LINE
  5
122
100
AcDbEntity
  8
0
370
    -3
  6
Continuous
100
AcDbLine
 10
739.093423
 20
-76.09043
 30
0.0
 11
739.093423
 21
-133.19043
 31
0.0
  0
LINE
  5
123
100
AcDbEntity
  8
0
370
    -3
  6
Continuous
100
AcDbLine
 10
739.093423
 20
-76.09043
 30
0.0
 11
738.693423
 21
-75.69043
 31
0.0
  0
LINE
  5
124
100
AcDbEntity
  8
0
370
    -3
  6
Continuous
100
AcDbLine
 10
734.093423
 20
-75.69043
 30
0.0
 11
738.693423
 21
-75.69043
 31
0.0
  0
LINE
  5
125
100
AcDbEntity
  8
0
370
    -3
  6
Continuous
100
AcDbLine
 10
739.093423
 20
-190.29043
 30
0.0
 11
739.093423
 21
-133.19043
 31
0.0
  0
LINE
  5
126
100
AcDbEntity
  8
0
370
    -3
  6
Continuous
100
AcDbLine
 10
739.093423
 20
-190.29043
 30
0.0
 11
738.693423
 21
-190.69043
 31
0.0
  0
LINE
  5
127
100
AcDbEntity
  8
0
370
    -3
  6
Continuous
100
AcDbLine
 10
738.590328
 20
-190.69043
 30
0.0
 11
738.693423
 21
-190.69043
 31
0.0
  0
LINE
  5
128
100
AcDbEntity
  8
0
370
    -3
  6
CENTER
100
AcDbLine
 10
638.913107
 20
-177.19043
 30
0.0
 11
691.209484
 21
-177.19043
 31
0.0
  0
LINE
  5
129
100
AcDbEntity
  8
0
370
    -3
  6
Continuous
100
AcDbLine
 10
733.596368
 20
-47.113734
 30
0.0
 11
734.093423
 21
-47.650492
 31
0.0
  0
LINE
  5
12A
100
AcDbEntity
  8
0
370
    -3
  6
Continuous
100
AcDbLine
 10
734.093423
 20
-255.730369
 30
0.0
 11
733.596368
 21
-256.267127
 31
0.0
  0
LINE
  5
12B
100
AcDbEntity
  8
0
370
    -3
  6
Continuous
100
AcDbLine
 10
603.093423
 20
-254.69043
 30
0.0
 11
722.093423
 21
-257.19043
 31
0.0
  0
LINE
  5
12C
100
AcDbEntity
  8
0
370
    -3
  6
Continuous
100
AcDbLine
 10
722.093423
 20
-46.19043
 30
0.0
 11
722.093423
 21
-115.306502
 31
0.0
  0
LINE
  5
12D
100
AcDbEntity
  8
0
370
    -3
  6
Continuous
100
AcDbLine
 10
603.093423
 20
-48.69043
 30
0.0
 11
617.293423
 21
-48.392111
 31
0.0
  0
LINE
  5
12E
100
AcDbEntity
  8
0
370
    -3
  6
Continuous
100
AcDbLine
 10
722.093423
 20
-257.151969
 30
0.0
 11
733.596368
 21
-256.267127
 31
0.0
  0
LINE
  5
12F
100
AcDbEntity
  8
0
370
    -3
  6
Continuous
100
AcDbLine
 10
734.093423
 20
-133.19043
 30
0.0
 11
734.093423
 21
-138.317933
 31
0.0
  0
LINE
  5
130
100
AcDbEntity
  8
0
370
    -3
  6
Continuous
100
AcDbLine
 10
734.093423
 20
-255.730369
 30
0.0
 11
733.596368
 21
-256.267127
 31
0.0
  0
LINE
  5
131
100
AcDbEntity
  8
0
370
    -3
  6
Continuous
100
AcDbLine
 10
733.596368
 20
-47.113734
 30
0.0
 11
734.093423
 21
-47.650492
 31
0.0
  0
LINE
  5
132
100
AcDbEntity
  8
0
370
    -3
  6
Continuous
100
AcDbLine
 10
734.093423
 20
-133.19043
 30
0.0
 11
734.093423
 21
-47.650492
 31
0.0
  0
LINE
  5
133
100
AcDbEntity
  8
0
370
    -3
  6
Continuous
100
AcDbLine
 10
722.093423
 20
-46.228892
 30
0.0
 11
733.596368
 21
-47.113734
 31
0.0
  0
LINE
  5
134
100
AcDbEntity
  8
0
370
    -3
  6
Continuous
100
AcDbLine
 10
594.593423
 20
-254.69043
 30
0.0
 11
603.093423
 21
-254.69043
 31
0.0
  0
LINE
  5
135
100
AcDbEntity
  8
0
370
    -3
  6
Continuous
100
AcDbLine
 10
594.593423
 20
-48.69043
 30
0.0
 11
603.093423
 21
-48.69043
 31
0.0
  0
LINE
  5
136
100
AcDbEntity
  8
0
370
    -3
  6
Continuous
100
AcDbLine
 10
594.093423
 20
-254.19043
 30
0.0
 11
594.593423
 21
-254.69043
 31
0.0
  0
LINE
  5
137
100
AcDbEntity
  8
0
370
    -3
  6
Continuous
100
AcDbLine
 10
594.093423
 20
-216.062927
 30
0.0
 11
594.093423
 21
-254.19043
 31
0.0
  0
LINE
  5
138
100
AcDbEntity
  8
0
370
    -3
  6
Continuous
100
AcDbLine
 10
589.093423
 20
-190.29043
 30
0.0
 11
589.093423
 21
-133.19043
 31
0.0
  0
LINE
  5
139
100
AcDbEntity
  8
0
370
    -3
  6
Continuous
100
AcDbLine
 10
589.596518
 20
-190.69043
 30
0.0
 11
589.493423
 21
-190.69043
 31
0.0
  0
LINE
  5
13A
100
AcDbEntity
  8
0
370
    -3
  6
Continuous
100
AcDbLine
 10
589.093423
 20
-190.29043
 30
0.0
 11
589.493423
 21
-190.69043
 31
0.0
  0
LINE
  5
13B
100
AcDbEntity
  8
0
370
    -3
  6
Continuous
100
AcDbLine
 10
594.093423
 20
-49.19043
 30
0.0
 11
594.093423
 21
-138.317933
 31
0.0
  0
LINE
  5
13C
100
AcDbEntity
  8
0
370
    -3
  6
Continuous
100
AcDbLine
 10
589.093423
 20
-76.09043
 30
0.0
 11
589.093423
 21
-133.19043
 31
0.0
  0
LINE
  5
13D
100
AcDbEntity
  8
0
370
    -3
  6
Continuous
100
AcDbLine
 10
589.093423
 20
-76.09043
 30
0.0
 11
589.493423
 21
-75.69043
 31
0.0
  0
LINE
  5
13E
100
AcDbEntity
  8
0
370
    -3
  6
Continuous
100
AcDbLine
 10
594.093423
 20
-75.69043
 30
0.0
 11
589.493423
 21
-75.69043
 31
0.0
  0
LINE
  5
13F
100
AcDbEntity
  8
0
370
    -3
  6
Continuous
100
AcDbLine
 10
594.093423
 20
-49.19043
 30
0.0
 11
594.593423
 21
-48.69043
 31
0.0
  0
ARC
  5
140
100
AcDbEntity
  8
0
370
    -3
  6
Continuous
100
AcDbCircle
 10
640.810237
 20
-158.272363
 30
0.0
 40
50.8
100
AcDbArc
 50
140.905432
 51
175.66015
  0
ARC
  5
141
100
AcDbEntity
  8
0
370
    -3
  6
Continuous
100
AcDbCircle
 10
664.093423
 20
-177.19043
 30
0.0
 40
80.8
100
AcDbArc
 50
129.094568
 51
140.905432
  0
ARC
  5
142
100
AcDbEntity
  8
0
370
    -3
  6
Continuous
100
AcDbCircle
 10
645.175356
 20
-153.907245
 30
0.0
 40
50.8
100
AcDbArc
 50
94.33985
 51
129.094568
  0
ARC
  5
143
100
AcDbEntity
  8
0
370
    -3
  6
Continuous
100
AcDbCircle
 10
640.810237
 20
-158.272363
 30
0.0
 40
36.944
100
AcDbArc
 50
140.905432
 51
175.66015
  0
ARC
  5
144
100
AcDbEntity
  8
0
370
    -3
  6
Continuous
100
AcDbCircle
 10
664.093423
 20
-177.19043
 30
0.0
 40
66.944
100
AcDbArc
 50
129.094568
 51
140.905432
  0
INSERT
  5
150
100
AcDbEntity
  8
0
100
AcDbBlockReference
  2
ZU_SYM__USERS_HOME_SYMBOL_POO_SYM_S07_-1
 10
605.686403
 20
-118.78341
 30
0.0
 41
1.0
 42
1.0
 50
315.0
  0
LINE
  5
151
100
AcDbEntity
  8
0
370
    -3
  6
Continuous
100
AcDbLine
 10
609.999754
 20
-116.025694
 30
0.0
 11
610.604225
 21
-116.630165
 31
0.0
  0
LINE
  5
152
100
AcDbEntity
  8
0
370
    -3
  6
Continuous
100
AcDbLine
 10
609.57549
 20
-116.025694
 30
0.0
 11
602.928686
 21
-122.672498
 31
0.0
  0
ARC
  5
153
100
AcDbEntity
  8
0
370
    -3
  6
Continuous
100
AcDbCircle
 10
603.140818
 20
-122.88463
 30
0.0
 40
0.3
100
AcDbArc
 50
135.0
 51
225.0
  0
LINE
  5
154
100
AcDbEntity
  8
0
370
    -3
  6
Continuous
100
AcDbLine
 10
602.928686
 20
-123.096762
 30
0.0
 11
603.533157
 21
-123.701233
 31
0.0
  0
LINE
  5
155
100
AcDbEntity
  8
0
370
    -3
  6
Continuous
100
AcDbLine
 10
608.868383
 20
-115.60143
 30
0.0
 11
609.434069
 21
-116.167115
 31
0.0
  0
LINE
  5
156
100
AcDbEntity
  8
0
370
    -3
  6
Continuous
100
AcDbLine
 10
607.206682
 20
-117.263131
 30
0.0
 11
608.868383
 21
-115.60143
 31
0.0
  0
LINE
  5
157
100
AcDbEntity
  8
0
370
    -3
  6
Continuous
100
AcDbLine
 10
602.504422
 20
-121.965391
 30
0.0
 11
603.070108
 21
-122.531076
 31
0.0
  0
LINE
  5
158
100
AcDbEntity
  8
0
370
    -3
  6
Continuous
100
AcDbLine
 10
604.166123
 20
-120.30369
 30
0.0
 11
602.504422
 21
-121.965391
 31
0.0
  0
ARC
  5
159
100
AcDbEntity
  8
0
370
    -3
  6
Continuous
100
AcDbCircle
 10
609.787622
 20
-116.237826
 30
0.0
 40
0.3
100
AcDbArc
 50
45.0
 51
135.0
  0
ARC
  5
15A
100
AcDbEntity
  8
0
370
    -3
  6
Continuous
100
AcDbCircle
 10
683.01149
 20
-153.907245
 30
0.0
 40
36.944
100
AcDbArc
 50
50.905432
 51
85.66015
  0
ARC
  5
15B
100
AcDbEntity
  8
0
370
    -3
  6
Continuous
100
AcDbCircle
 10
664.093423
 20
-177.19043
 30
0.0
 40
66.944
100
AcDbArc
 50
39.094568
 51
50.905432
  0
ARC
  5
15C
100
AcDbEntity
  8
0
370
    -3
  6
Continuous
100
AcDbCircle
 10
687.376609
 20
-158.272363
 30
0.0
 40
50.8
100
AcDbArc
 50
4.33985
 51
39.094568
  0
ARC
  5
15D
100
AcDbEntity
  8
0
370
    -3
  6
Continuous
100
AcDbCircle
 10
664.093423
 20
-177.19043
 30
0.0
 40
80.8
100
AcDbArc
 50
39.094568
 51
50.905432
  0
ARC
  5
15E
100
AcDbEntity
  8
0
370
    -3
  6
Continuous
100
AcDbCircle
 10
683.01149
 20
-153.907245
 30
0.0
 40
50.8
100
AcDbArc
 50
50.905432
 51
85.66015
  0
INSERT
  5
16A
100
AcDbEntity
  8
0
100
AcDbBlockReference
  2
ZU_SYM__USERS_HOME_SYMBOL_POO_SYM_S07_00001-1
 10
722.500443
 20
-118.78341
 30
0.0
 41
-1.0
 42
1.0
 50
45.0
  0
LINE
  5
16B
100
AcDbEntity
  8
0
370
    -3
  6
Continuous
100
AcDbLine
 10
718.611356
 20
-116.025694
 30
0.0
 11
725.258159
 21
-122.672498
 31
0.0
  0
ARC
  5
16C
100
AcDbEntity
  8
0
370
    -3
  6
Continuous
100
AcDbCircle
 10
725.046027
 20
-122.88463
 30
0.0
 40
0.3
100
AcDbArc
 50
315.0
 51
45.0
  0
LINE
  5
16D
100
AcDbEntity
  8
0
370
    -3
  6
Continuous
100
AcDbLine
 10
725.258159
 20
-123.096762
 30
0.0
 11
724.653688
 21
-123.701233
 31
0.0
  0
LINE
  5
16E
100
AcDbEntity
  8
0
370
    -3
  6
Continuous
100
AcDbLine
 10
719.318462
 20
-115.60143
 30
0.0
 11
718.752777
 21
-116.167115
 31
0.0
  0
LINE
  5
16F
100
AcDbEntity
  8
0
370
    -3
  6
Continuous
100
AcDbLine
 10
720.980163
 20
-117.263131
 30
0.0
 11
719.318462
 21
-115.60143
 31
0.0
  0
LINE
  5
170
100
AcDbEntity
  8
0
370
    -3
  6
Continuous
100
AcDbLine
 10
725.682423
 20
-121.965391
 30
0.0
 11
725.116738
 21
-122.531076
 31
0.0
  0
LINE
  5
171
100
AcDbEntity
  8
0
370
    -3
  6
Continuous
100
AcDbLine
 10
724.020723
 20
-120.30369
 30
0.0
 11
725.682423
 21
-121.965391
 31
0.0
  0
ARC
  5
172
100
AcDbEntity
  8
0
370
    -3
  6
Continuous
100
AcDbCircle
 10
718.399224
 20
-116.237826
 30
0.0
 40
0.3
100
AcDbArc
 50
45.0
 51
135.0
  0
LINE
  5
173
100
AcDbEntity
  8
0
370
    -3
  6
Continuous
100
AcDbLine
 10
718.187092
 20
-116.025694
 30
0.0
 11
717.58262
 21
-116.630165
 31
0.0
  0
ARC
  5
174
100
AcDbEntity
  8
0
370
    -3
  6
Continuous
100
AcDbCircle
 10
687.376609
 20
-196.108497
 30
0.0
 40
50.8
100
AcDbArc
 50
320.905432
 51
355.66015
  0
ARC
  5
175
100
AcDbEntity
  8
0
370
    -3
  6
Continuous
100
AcDbCircle
 10
664.093423
 20
-177.19043
 30
0.0
 40
80.8
100
AcDbArc
 50
309.094568
 51
320.905432
  0
ARC
  5
176
100
AcDbEntity
  8
0
370
    -3
  6
Continuous
100
AcDbCircle
 10
683.01149
 20
-200.473616
 30
0.0
 40
50.8
100
AcDbArc
 50
274.33985
 51
309.094568
  0
ARC
  5
177
100
AcDbEntity
  8
0
370
    -3
  6
Continuous
100
AcDbCircle
 10
687.376609
 20
-196.108497
 30
0.0
 40
36.944
100
AcDbArc
 50
320.905432
 51
355.66015
  0
ARC
  5
178
100
AcDbEntity
  8
0
370
    -3
  6
Continuous
100
AcDbCircle
 10
664.093423
 20
-177.19043
 30
0.0
 40
66.944
100
AcDbArc
 50
309.094568
 51
320.905432
  0
ARC
  5
179
100
AcDbEntity
  8
0
370
    -3
  6
Continuous
100
AcDbCircle
 10
683.01149
 20
-200.473616
 30
0.0
 40
36.944
100
AcDbArc
 50
274.33985
 51
309.094568
  0
INSERT
  5
185
100
AcDbEntity
  8
0
100
AcDbBlockReference
  2
ZU_SYM__USERS_HOME_SYMBOL_POO_SYM_S07_00002-1
 10
722.500443
 20
-235.59745
 30
0.0
 41
1.0
 42
1.0
 50
135.0
  0
ARC
  5
186
100
AcDbEntity
  8
0
370
    -3
  6
Continuous
100
AcDbCircle
 10
725.046027
 20
-231.496231
 30
0.0
 40
0.3
100
AcDbArc
 50
315.0
 51
45.0
  0
LINE
  5
187
100
AcDbEntity
  8
0
370
    -3
  6
Continuous
100
AcDbLine
 10
725.258159
 20
-231.284099
 30
0.0
 11
724.653688
 21
-230.679628
 31
0.0
  0
LINE
  5
188
100
AcDbEntity
  8
0
370
    -3
  6
Continuous
100
AcDbLine
 10
725.682423
 20
-232.41547
 30
0.0
 11
725.116738
 21
-231.849785
 31
0.0
  0
LINE
  5
189
100
AcDbEntity
  8
0
370
    -3
  6
Continuous
100
AcDbLine
 10
718.611356
 20
-238.355167
 30
0.0
 11
725.258159
 21
-231.708363
 31
0.0
  0
LINE
  5
18A
100
AcDbEntity
  8
0
370
    -3
  6
Continuous
100
AcDbLine
 10
719.318462
 20
-238.779431
 30
0.0
 11
718.752777
 21
-238.213746
 31
0.0
  0
LINE
  5
18B
100
AcDbEntity
  8
0
370
    -3
  6
Continuous
100
AcDbLine
 10
720.980163
 20
-237.11773
 30
0.0
 11
719.318462
 21
-238.779431
 31
0.0
  0
LINE
  5
18C
100
AcDbEntity
  8
0
370
    -3
  6
Continuous
100
AcDbLine
 10
724.020723
 20
-234.077171
 30
0.0
 11
725.682423
 21
-232.41547
 31
0.0
  0
ARC
  5
18D
100
AcDbEntity
  8
0
370
    -3
  6
Continuous
100
AcDbCircle
 10
718.399224
 20
-238.143035
 30
0.0
 40
0.3
100
AcDbArc
 50
225.0
 51
315.0
  0
LINE
  5
18E
100
AcDbEntity
  8
0
370
    -3
  6
Continuous
100
AcDbLine
 10
718.187092
 20
-238.355167
 30
0.0
 11
717.58262
 21
-237.750696
 31
0.0
  0
ARC
  5
18F
100
AcDbEntity
  8
0
370
    -3
  6
Continuous
100
AcDbCircle
 10
603.140818
 20
-231.496231
 30
0.0
 40
0.3
100
AcDbArc
 50
135.0
 51
225.0
  0
LINE
  5
190
100
AcDbEntity
  8
0
370
    -3
  6
Continuous
100
AcDbLine
 10
602.928686
 20
-231.284099
 30
0.0
 11
603.533157
 21
-230.679628
 31
0.0
  0
LINE
  5
191
100
AcDbEntity
  8
0
370
    -3
  6
Continuous
100
AcDbLine
 10
602.504422
 20
-232.41547
 30
0.0
 11
603.070108
 21
-231.849785
 31
0.0
  0
LINE
  5
192
100
AcDbEntity
  8
0
370
    -3
  6
Continuous
100
AcDbLine
 10
604.166123
 20
-234.077171
 30
0.0
 11
602.504422
 21
-232.41547
 31
0.0
  0
LINE
  5
193
100
AcDbEntity
  8
0
370
    -3
  6
Continuous
100
AcDbLine
 10
609.999754
 20
-238.355167
 30
0.0
 11
610.604225
 21
-237.750696
 31
0.0
  0
ARC
  5
194
100
AcDbEntity
  8
0
370
    -3
  6
Continuous
100
AcDbCircle
 10
609.787622
 20
-238.143035
 30
0.0
 40
0.3
100
AcDbArc
 50
225.0
 51
315.0
  0
LINE
  5
195
100
AcDbEntity
  8
0
370
    -3
  6
Continuous
100
AcDbLine
 10
608.868383
 20
-238.779431
 30
0.0
 11
609.434069
 21
-238.213746
 31
0.0
  0
LINE
  5
196
100
AcDbEntity
  8
0
370
    -3
  6
Continuous
100
AcDbLine
 10
607.206682
 20
-237.11773
 30
0.0
 11
608.868383
 21
-238.779431
 31
0.0
  0
ARC
  5
197
100
AcDbEntity
  8
0
370
    -3
  6
Continuous
100
AcDbCircle
 10
664.093423
 20
-177.19043
 30
0.0
 40
80.8
100
AcDbArc
 50
219.094568
 51
230.905432
  0
INSERT
  5
1A3
100
AcDbEntity
  8
0
100
AcDbBlockReference
  2
ZU_SYM__USERS_HOME_SYMBOL_POO_SYM_S07_00003-1
 10
605.686403
 20
-235.59745
 30
0.0
 41
-1.0
 42
1.0
 50
225.0
  0
LINE
  5
1A4
100
AcDbEntity
  8
0
370
    -3
  6
Continuous
100
AcDbLine
 10
609.57549
 20
-238.355167
 30
0.0
 11
602.928686
 21
-231.708363
 31
0.0
  0
LINE
  5
1A5
100
AcDbEntity
  8
0
370
    -3
  6
Continuous
100
AcDbLine
 10
650.650616
 20
-158.906806
 30
0.0
 11
651.672264
 21
-160.676351
 31
0.0
  0
LINE
  5
1A6
100
AcDbEntity
  8
0
370
    -3
  6
Continuous
100
AcDbLine
 10
652.314204
 20
-173.69043
 30
0.0
 11
654.567143
 21
-173.69043
 31
0.0
  0
ARC
  5
1A7
100
AcDbEntity
  8
0
370
    -3
  6
Continuous
100
AcDbCircle
 10
664.093423
 20
-177.19043
 30
0.0
 40
15.0
100
AcDbArc
 50
140.252247
 51
154.971001
  0
ARC
  5
1A8
100
AcDbEntity
  8
0
370
    -3
  6
Continuous
100
AcDbCircle
 10
664.093423
 20
-177.19043
 30
0.0
 40
9.0
100
AcDbArc
 50
144.14774
 51
150.0
  0
LINE
  5
1A9
100
AcDbEntity
  8
0
370
    -3
  6
Continuous
100
AcDbLine
 10
655.830204
 20
-167.878115
 30
0.0
 11
656.909644
 21
-169.747761
 31
0.0
  0
ARC
  5
1AA
100
AcDbEntity
  8
0
370
    -3
  6
Continuous
100
AcDbCircle
 10
664.093423
 20
-177.19043
 30
0.0
 40
35.0
100
AcDbArc
 50
189.594068
 51
232.16252
  0
LINE
  5
1AB
100
AcDbEntity
  8
0
370
    -3
  6
Continuous
100
AcDbLine
 10
631.554984
 20
-180.69043
 30
0.0
 11
633.585227
 21
-180.69043
 31
0.0
  0
LINE
  5
1AC
100
AcDbEntity
  8
0
370
    -3
  6
Continuous
100
AcDbLine
 10
621.446618
 20
-180.69043
 30
0.0
 11
623.464
 21
-180.69043
 31
0.0
  0
ARC
  5
1AD
100
AcDbEntity
  8
0
370
    -3
  6
Continuous
100
AcDbCircle
 10
664.093423
 20
-177.19043
 30
0.0
 40
39.0
100
AcDbArc
 50
187.70926
 51
233.698744
  0
ARC
  5
1AE
100
AcDbEntity
  8
0
370
    -3
  6
Continuous
100
AcDbCircle
 10
664.093423
 20
-177.19043
 30
0.0
 40
45.0
100
AcDbArc
 50
187.348661
 51
233.992931
  0
ARC
  5
1AF
100
AcDbEntity
  8
0
370
    -3
  6
Continuous
100
AcDbCircle
 10
664.093423
 20
-177.19043
 30
0.0
 40
55.0
100
AcDbArc
 50
185.956512
 51
235.1294
  0
LINE
  5
1B0
100
AcDbEntity
  8
0
370
    -3
  6
Continuous
100
AcDbLine
 10
611.379573
 20
-180.69043
 30
0.0
 11
613.390859
 21
-180.69043
 31
0.0
  0
ARC
  5
1B1
100
AcDbEntity
  8
0
370
    -3
  6
Continuous
100
AcDbCircle
 10
664.093423
 20
-177.19043
 30
0.0
 40
49.0
100
AcDbArc
 50
186.190997
 51
234.937907
  0
LINE
  5
1B2
100
AcDbEntity
  8
0
370
    -3
  6
Continuous
100
AcDbLine
 10
635.524051
 20
-221.674034
 30
0.0
 11
636.527818
 21
-219.935458
 31
0.0
  0
LINE
  5
1B3
100
AcDbEntity
  8
0
370
    -3
  6
Continuous
100
AcDbLine
 10
640.546416
 20
-212.975043
 30
0.0
 11
641.552209
 21
-211.232958
 31
0.0
  0
ARC
  5
1B4
100
AcDbEntity
  8
0
370
    -3
  6
Continuous
100
AcDbCircle
 10
633.585227
 20
-171.69043
 30
0.0
 40
2.0
100
AcDbArc
 50
270.0
 51
349.78052
  0
ARC
  5
1B5
100
AcDbEntity
  8
0
370
    -3
  6
Continuous
100
AcDbCircle
 10
664.093423
 20
-177.19043
 30
0.0
 40
29.0
100
AcDbArc
 50
190.21948
 51
231.653381
  0
ARC
  5
1B6
100
AcDbEntity
  8
0
370
    -3
  6
Continuous
100
AcDbCircle
 10
641.760711
 20
-171.69043
 30
0.0
 40
2.0
100
AcDbArc
 50
166.164776
 51
270.0
  0
LINE
  5
1B7
100
AcDbEntity
  8
0
370
    -3
  6
Continuous
100
AcDbLine
 10
645.582488
 20
-204.252309
 30
0.0
 11
646.592535
 21
-202.502857
 31
0.0
  0
ARC
  5
1B8
100
AcDbEntity
  8
0
370
    -3
  6
Continuous
100
AcDbCircle
 10
643.826455
 20
-171.69043
 30
0.0
 40
2.0
100
AcDbArc
 50
270.0
 51
344.816886
  0
LINE
  5
1B9
100
AcDbEntity
  8
0
370
    -3
  6
Continuous
100
AcDbLine
 10
641.760711
 20
-180.69043
 30
0.0
 11
643.826455
 21
-180.69043
 31
0.0
  0
ARC
  5
1BA
100
AcDbEntity
  8
0
370
    -3
  6
Continuous
100
AcDbCircle
 10
652.314204
 20
-171.69043
 30
0.0
 40
2.0
100
AcDbArc
 50
154.971001
 51
270.0
  0
ARC
  5
1BB
100
AcDbEntity
  8
0
370
    -3
  6
Continuous
100
AcDbCircle
 10
664.093423
 20
-177.19043
 30
0.0
 40
25.0
100
AcDbArc
 50
193.835224
 51
228.717176
  0
ARC
  5
1BC
100
AcDbEntity
  8
0
370
    -3
  6
Continuous
100
AcDbCircle
 10
654.567143
 20
-171.69043
 30
0.0
 40
2.0
100
AcDbArc
 50
270.0
 51
330.0
  0
ARC
  5
1BD
100
AcDbEntity
  8
0
370
    -3
  6
Continuous
100
AcDbCircle
 10
664.093423
 20
-177.19043
 30
0.0
 40
19.0
100
AcDbArc
 50
195.183114
 51
227.626375
  0
ARC
  5
1BE
100
AcDbEntity
  8
0
370
    -3
  6
Continuous
100
AcDbCircle
 10
654.567143
 20
-182.69043
 30
0.0
 40
2.0
100
AcDbArc
 50
30.0
 51
90.0
  0
LINE
  5
1BF
100
AcDbEntity
  8
0
370
    -3
  6
Continuous
100
AcDbLine
 10
650.650616
 20
-195.474055
 30
0.0
 11
651.672264
 21
-193.704509
 31
0.0
  0
ARC
  5
1C0
100
AcDbEntity
  8
0
370
    -3
  6
Continuous
100
AcDbCircle
 10
652.314204
 20
-182.69043
 30
0.0
 40
2.0
100
AcDbArc
 50
90.0
 51
205.028999
  0
LINE
  5
1C1
100
AcDbEntity
  8
0
370
    -3
  6
Continuous
100
AcDbLine
 10
652.314204
 20
-180.69043
 30
0.0
 11
654.567143
 21
-180.69043
 31
0.0
  0
ARC
  5
1C2
100
AcDbEntity
  8
0
370
    -3
  6
Continuous
100
AcDbCircle
 10
643.826455
 20
-182.69043
 30
0.0
 40
2.0
100
AcDbArc
 50
15.183114
 51
90.0
  0
ARC
  5
1C3
100
AcDbEntity
  8
0
370
    -3
  6
Continuous
100
AcDbCircle
 10
664.093423
 20
-177.19043
 30
0.0
 40
15.0
100
AcDbArc
 50
205.028999
 51
219.747753
  0
ARC
  5
1C4
100
AcDbEntity
  8
0
370
    -3
  6
Continuous
100
AcDbCircle
 10
641.760711
 20
-182.69043
 30
0.0
 40
2.0
100
AcDbArc
 50
90.0
 51
193.835224
  0
ARC
  5
1C5
100
AcDbEntity
  8
0
370
    -3
  6
Continuous
100
AcDbCircle
 10
664.093423
 20
-177.19043
 30
0.0
 40
9.0
100
AcDbArc
 50
210.0
 51
215.85226
  0
ARC
  5
1C6
100
AcDbEntity
  8
0
370
    -3
  6
Continuous
100
AcDbCircle
 10
633.585227
 20
-182.69043
 30
0.0
 40
2.0
100
AcDbArc
 50
10.21948
 51
90.0
  0
LINE
  5
1C7
100
AcDbEntity
  8
0
370
    -3
  6
Continuous
100
AcDbLine
 10
655.830204
 20
-186.502745
 30
0.0
 11
656.909644
 21
-184.6331
 31
0.0
  0
ARC
  5
1C8
100
AcDbEntity
  8
0
370
    -3
  6
Continuous
100
AcDbCircle
 10
631.554984
 20
-182.69043
 30
0.0
 40
2.0
100
AcDbArc
 50
90.0
 51
189.594068
  0
ARC
  5
1C9
100
AcDbEntity
  8
0
370
    -3
  6
Continuous
100
AcDbCircle
 10
664.093423
 20
-177.19043
 30
0.0
 40
35.0
100
AcDbArc
 50
69.594068
 51
112.16252
  0
ARC
  5
1CA
100
AcDbEntity
  8
0
370
    -3
  6
Continuous
100
AcDbCircle
 10
623.464
 20
-182.69043
 30
0.0
 40
2.0
100
AcDbArc
 50
7.70926
 51
90.0
  0
LINE
  5
1CB
100
AcDbEntity
  8
0
370
    -3
  6
Continuous
100
AcDbLine
 10
677.331553
 20
-147.261316
 30
0.0
 11
676.316432
 21
-149.019558
 31
0.0
  0
ARC
  5
1CC
100
AcDbEntity
  8
0
370
    -3
  6
Continuous
100
AcDbCircle
 10
621.446618
 20
-182.69043
 30
0.0
 40
2.0
100
AcDbArc
 50
90.0
 51
187.348661
  0
LINE
  5
1CD
100
AcDbEntity
  8
0
370
    -3
  6
Continuous
100
AcDbLine
 10
682.385737
 20
-138.507214
 30
0.0
 11
681.377045
 21
-140.254318
 31
0.0
  0
ARC
  5
1CE
100
AcDbEntity
  8
0
370
    -3
  6
Continuous
100
AcDbCircle
 10
613.390859
 20
-182.69043
 30
0.0
 40
2.0
100
AcDbArc
 50
6.190997
 51
90.0
  0
ARC
  5
1CF
100
AcDbEntity
  8
0
370
    -3
  6
Continuous
100
AcDbCircle
 10
664.093423
 20
-177.19043
 30
0.0
 40
39.0
100
AcDbArc
 50
67.70926
 51
113.698744
  0
ARC
  5
1D0
100
AcDbEntity
  8
0
370
    -3
  6
Continuous
100
AcDbCircle
 10
611.379573
 20
-182.69043
 30
0.0
 40
2.0
100
AcDbArc
 50
90.0
 51
185.956512
  0
ARC
  5
1D1
100
AcDbEntity
  8
0
370
    -3
  6
Continuous
100
AcDbCircle
 10
664.093423
 20
-177.19043
 30
0.0
 40
45.0
100
AcDbArc
 50
67.348661
 51
113.992931
  0
ARC
  5
1D2
100
AcDbEntity
  8
0
370
    -3
  6
Continuous
100
AcDbCircle
 10
633.792
 20
-220.674034
 30
0.0
 40
2.0
100
AcDbArc
 50
235.1294
 51
330.0
  0
ARC
  5
1D3
100
AcDbEntity
  8
0
370
    -3
  6
Continuous
100
AcDbCircle
 10
664.093423
 20
-177.19043
 30
0.0
 40
55.0
100
AcDbArc
 50
65.956512
 51
115.1294
  0
ARC
  5
1D4
100
AcDbEntity
  8
0
370
    -3
  6
Continuous
100
AcDbCircle
 10
634.795767
 20
-218.935458
 30
0.0
 40
2.0
100
AcDbArc
 50
330.0
 51
54.937907
  0
LINE
  5
1D5
100
AcDbEntity
  8
0
370
    -3
  6
Continuous
100
AcDbLine
 10
687.419259
 20
-129.788897
 30
0.0
 11
686.413616
 21
-131.530722
 31
0.0
  0
ARC
  5
1D6
100
AcDbEntity
  8
0
370
    -3
  6
Continuous
100
AcDbCircle
 10
638.814365
 20
-211.975043
 30
0.0
 40
2.0
100
AcDbArc
 50
233.992931
 51
330.0
  0
ARC
  5
1D7
100
AcDbEntity
  8
0
370
    -3
  6
Continuous
100
AcDbCircle
 10
664.093423
 20
-177.19043
 30
0.0
 40
49.0
100
AcDbArc
 50
66.190997
 51
114.937907
  0
ARC
  5
1D8
100
AcDbEntity
  8
0
370
    -3
  6
Continuous
100
AcDbCircle
 10
639.820158
 20
-210.232958
 30
0.0
 40
2.0
100
AcDbArc
 50
330.0
 51
53.698744
  0
ARC
  5
1D9
100
AcDbEntity
  8
0
370
    -3
  6
Continuous
100
AcDbCircle
 10
664.093423
 20
-177.19043
 30
0.0
 40
29.0
100
AcDbArc
 50
70.21948
 51
111.653381
  0
ARC
  5
1DA
100
AcDbEntity
  8
0
370
    -3
  6
Continuous
100
AcDbCircle
 10
643.850437
 20
-203.252309
 30
0.0
 40
2.0
100
AcDbArc
 50
232.16252
 51
330.0
  0
LINE
  5
1DB
100
AcDbEntity
  8
0
370
    -3
  6
Continuous
100
AcDbLine
 10
672.22869
 20
-156.099735
 30
0.0
 11
671.195818
 21
-157.888721
 31
0.0
  0
ARC
  5
1DC
100
AcDbEntity
  8
0
370
    -3
  6
Continuous
100
AcDbCircle
 10
644.860484
 20
-201.502857
 30
0.0
 40
2.0
100
AcDbArc
 50
330.0
 51
51.653381
  0
ARC
  5
1DD
100
AcDbEntity
  8
0
370
    -3
  6
Continuous
100
AcDbCircle
 10
664.093423
 20
-177.19043
 30
0.0
 40
25.0
100
AcDbArc
 50
73.835224
 51
108.717176
  0
ARC
  5
1DE
100
AcDbEntity
  8
0
370
    -3
  6
Continuous
100
AcDbCircle
 10
648.918565
 20
-194.474055
 30
0.0
 40
2.0
100
AcDbArc
 50
228.717176
 51
330.0
  0
ARC
  5
1DF
100
AcDbEntity
  8
0
370
    -3
  6
Continuous
100
AcDbCircle
 10
664.093423
 20
-177.19043
 30
0.0
 40
19.0
100
AcDbArc
 50
75.183114
 51
107.626375
  0
ARC
  5
1E0
100
AcDbEntity
  8
0
370
    -3
  6
Continuous
100
AcDbCircle
 10
649.940213
 20
-192.704509
 30
0.0
 40
2.0
100
AcDbArc
 50
330.0
 51
47.626375
  0
LINE
  5
1E1
100
AcDbEntity
  8
0
370
    -3
  6
Continuous
100
AcDbLine
 10
666.951943
 20
-165.239327
 30
0.0
 11
665.825474
 21
-167.19043
 31
0.0
  0
ARC
  5
1E2
100
AcDbEntity
  8
0
370
    -3
  6
Continuous
100
AcDbCircle
 10
654.098153
 20
-185.502745
 30
0.0
 40
2.0
100
AcDbArc
 50
219.747753
 51
330.0
  0
ARC
  5
1E3
100
AcDbEntity
  8
0
370
    -3
  6
Continuous
100
AcDbCircle
 10
664.093423
 20
-177.19043
 30
0.0
 40
15.0
100
AcDbArc
 50
85.028999
 51
99.747753
  0
ARC
  5
1E4
100
AcDbEntity
  8
0
370
    -3
  6
Continuous
100
AcDbCircle
 10
664.093423
 20
-177.19043
 30
0.0
 40
9.0
100
AcDbArc
 50
90.0
 51
95.85226
  0
ARC
  5
1E5
100
AcDbEntity
  8
0
370
    -3
  6
Continuous
100
AcDbCircle
 10
655.177594
 20
-183.6331
 30
0.0
 40
2.0
100
AcDbArc
 50
330.0
 51
35.85226
  0
LINE
  5
1E6
100
AcDbEntity
  8
0
370
    -3
  6
Continuous
100
AcDbLine
 10
660.160331
 20
-165.378115
 30
0.0
 11
661.239771
 21
-167.247761
 31
0.0
  0
ARC
  5
1E7
100
AcDbEntity
  8
0
370
    -3
  6
Continuous
100
AcDbCircle
 10
662.971822
 20
-188.1331
 30
0.0
 40
2.0
100
AcDbArc
 50
84.14774
 51
150.0
  0
LINE
  5
1E8
100
AcDbEntity
  8
0
370
    -3
  6
Continuous
100
AcDbLine
 10
654.980743
 20
-156.406806
 30
0.0
 11
656.002391
 21
-158.176351
 31
0.0
  0
ARC
  5
1E9
100
AcDbEntity
  8
0
370
    -3
  6
Continuous
100
AcDbCircle
 10
661.892382
 20
-190.002745
 30
0.0
 40
2.0
100
AcDbArc
 50
150.0
 51
260.252247
  0
LINE
  5
1EA
100
AcDbEntity
  8
0
370
    -3
  6
Continuous
100
AcDbLine
 10
649.912615
 20
-147.628551
 30
0.0
 11
650.922662
 21
-149.378004
 31
0.0
  0
ARC
  5
1EB
100
AcDbEntity
  8
0
370
    -3
  6
Continuous
100
AcDbCircle
 10
657.734441
 20
-197.204509
 30
0.0
 40
2.0
100
AcDbArc
 50
72.373625
 51
150.0
  0
LINE
  5
1EC
100
AcDbEntity
  8
0
370
    -3
  6
Continuous
100
AcDbLine
 10
644.876543
 20
-138.905818
 30
0.0
 11
645.882336
 21
-140.647903
 31
0.0
  0
LINE
  5
1ED
100
AcDbEntity
  8
0
370
    -3
  6
Continuous
100
AcDbLine
 10
639.854178
 20
-130.206827
 30
0.0
 11
640.857945
 21
-131.945402
 31
0.0
  0
ARC
  5
1EE
100
AcDbEntity
  8
0
370
    -3
  6
Continuous
100
AcDbCircle
 10
664.093423
 20
-177.19043
 30
0.0
 40
35.0
100
AcDbArc
 50
247.83748
 51
290.405932
  0
LINE
  5
1EF
100
AcDbEntity
  8
0
370
    -3
  6
Continuous
100
AcDbLine
 10
677.331553
 20
-207.119545
 30
0.0
 11
676.316432
 21
-205.361303
 31
0.0
  0
LINE
  5
1F0
100
AcDbEntity
  8
0
370
    -3
  6
Continuous
100
AcDbLine
 10
682.385737
 20
-215.873647
 30
0.0
 11
681.377045
 21
-214.126543
 31
0.0
  0
ARC
  5
1F1
100
AcDbEntity
  8
0
370
    -3
  6
Continuous
100
AcDbCircle
 10
664.093423
 20
-177.19043
 30
0.0
 40
39.0
100
AcDbArc
 50
246.301256
 51
292.29074
  0
ARC
  5
1F2
100
AcDbEntity
  8
0
370
    -3
  6
Continuous
100
AcDbCircle
 10
664.093423
 20
-177.19043
 30
0.0
 40
45.0
100
AcDbArc
 50
246.007069
 51
292.651339
  0
ARC
  5
1F3
100
AcDbEntity
  8
0
370
    -3
  6
Continuous
100
AcDbCircle
 10
664.093423
 20
-177.19043
 30
0.0
 40
55.0
100
AcDbArc
 50
244.8706
 51
294.043488
  0
LINE
  5
1F4
100
AcDbEntity
  8
0
370
    -3
  6
Continuous
100
AcDbLine
 10
687.419259
 20
-224.591964
 30
0.0
 11
686.413616
 21
-222.850139
 31
0.0
  0
ARC
  5
1F5
100
AcDbEntity
  8
0
370
    -3
  6
Continuous
100
AcDbCircle
 10
664.093423
 20
-177.19043
 30
0.0
 40
49.0
100
AcDbArc
 50
245.062093
 51
293.809003
  0
ARC
  5
1F6
100
AcDbEntity
  8
0
370
    -3
  6
Continuous
100
AcDbCircle
 10
664.093423
 20
-177.19043
 30
0.0
 40
29.0
100
AcDbArc
 50
248.346619
 51
289.78052
  0
LINE
  5
1F7
100
AcDbEntity
  8
0
370
    -3
  6
Continuous
100
AcDbLine
 10
672.22869
 20
-198.281126
 30
0.0
 11
671.195818
 21
-196.49214
 31
0.0
  0
ARC
  5
1F8
100
AcDbEntity
  8
0
370
    -3
  6
Continuous
100
AcDbCircle
 10
664.093423
 20
-177.19043
 30
0.0
 40
25.0
100
AcDbArc
 50
251.282824
 51
286.164776
  0
ARC
  5
1F9
100
AcDbEntity
  8
0
370
    -3
  6
Continuous
100
AcDbCircle
 10
664.093423
 20
-177.19043
 30
0.0
 40
19.0
100
AcDbArc
 50
252.373625
 51
284.816886
  0
LINE
  5
1FA
100
AcDbEntity
  8
0
370
    -3
  6
Continuous
100
AcDbLine
 10
666.951943
 20
-189.141533
 30
0.0
 11
665.825474
 21
-187.19043
 31
0.0
  0
ARC
  5
1FB
100
AcDbEntity
  8
0
370
    -3
  6
Continuous
100
AcDbCircle
 10
664.093423
 20
-177.19043
 30
0.0
 40
15.0
100
AcDbArc
 50
260.252247
 51
274.971001
  0
ARC
  5
1FC
100
AcDbEntity
  8
0
370
    -3
  6
Continuous
100
AcDbCircle
 10
664.093423
 20
-177.19043
 30
0.0
 40
9.0
100
AcDbArc
 50
264.14774
 51
270.0
  0
LINE
  5
1FD
100
AcDbEntity
  8
0
370
    -3
  6
Continuous
100
AcDbLine
 10
660.160331
 20
-189.002745
 30
0.0
 11
661.239771
 21
-187.1331
 31
0.0
  0
LINE
  5
1FE
100
AcDbEntity
  8
0
370
    -3
  6
Continuous
100
AcDbLine
 10
654.980743
 20
-197.974055
 30
0.0
 11
656.002391
 21
-196.204509
 31
0.0
  0
LINE
  5
1FF
100
AcDbEntity
  8
0
370
    -3
  6
Continuous
100
AcDbLine
 10
649.912615
 20
-206.752309
 30
0.0
 11
650.922662
 21
-205.002857
 31
0.0
  0
LINE
  5
200
100
AcDbEntity
  8
0
370
    -3
  6
Continuous
100
AcDbLine
 10
644.876543
 20
-215.475043
 30
0.0
 11
645.882336
 21
-213.732958
 31
0.0
  0
LINE
  5
201
100
AcDbEntity
  8
0
370
    -3
  6
Continuous
100
AcDbLine
 10
639.854178
 20
-224.174034
 30
0.0
 11
640.857945
 21
-222.435458
 31
0.0
  0
ARC
  5
202
100
AcDbEntity
  8
0
370
    -3
  6
Continuous
100
AcDbCircle
 10
640.810237
 20
-196.108497
 30
0.0
 40
50.8
100
AcDbArc
 50
184.33985
 51
219.094568
  0
ARC
  5
203
100
AcDbEntity
  8
0
370
    -3
  6
Continuous
100
AcDbCircle
 10
645.175356
 20
-200.473616
 30
0.0
 40
50.8
100
AcDbArc
 50
230.905432
 51
265.66015
  0
ARC
  5
204
100
AcDbEntity
  8
0
370
    -3
  6
Continuous
100
AcDbCircle
 10
664.093423
 20
48.80957
 30
0.0
 40
300.8
100
AcDbArc
 50
265.66015
 51
274.33985
  0
ARC
  5
205
100
AcDbEntity
  8
0
370
    -3
  6
Continuous
100
AcDbCircle
 10
890.093423
 20
-177.19043
 30
0.0
 40
300.8
100
AcDbArc
 50
175.66015
 51
184.33985
  0
ARC
  5
206
100
AcDbEntity
  8
0
370
    -3
  6
Continuous
100
AcDbCircle
 10
890.093423
 20
-177.19043
 30
0.0
 40
286.944
100
AcDbArc
 50
175.66015
 51
184.33985
  0
ARC
  5
207
100
AcDbEntity
  8
0
370
    -3
  6
Continuous
100
AcDbCircle
 10
645.175356
 20
-153.907245
 30
0.0
 40
36.944
100
AcDbArc
 50
94.33985
 51
129.094568
  0
ARC
  5
208
100
AcDbEntity
  8
0
370
    -3
  6
Continuous
100
AcDbCircle
 10
656.712794
 20
-198.974055
 30
0.0
 40
2.0
100
AcDbArc
 50
150.0
 51
251.282824
  0
ARC
  5
209
100
AcDbEntity
  8
0
370
    -3
  6
Continuous
100
AcDbCircle
 10
664.093423
 20
-403.19043
 30
0.0
 40
286.944
100
AcDbArc
 50
85.66015
 51
94.33985
  0
ARC
  5
20A
100
AcDbEntity
  8
0
370
    -3
  6
Continuous
100
AcDbCircle
 10
652.654713
 20
-206.002857
 30
0.0
 40
2.0
100
AcDbArc
 50
68.346619
 51
150.0
  0
ARC
  5
20B
100
AcDbEntity
  8
0
370
    -3
  6
Continuous
100
AcDbCircle
 10
651.644666
 20
-207.752309
 30
0.0
 40
2.0
100
AcDbArc
 50
150.0
 51
247.83748
  0
ARC
  5
20C
100
AcDbEntity
  8
0
370
    -3
  6
Continuous
100
AcDbCircle
 10
687.376609
 20
-158.272363
 30
0.0
 40
36.944
100
AcDbArc
 50
4.33985
 51
39.094568
  0
ARC
  5
20D
100
AcDbEntity
  8
0
370
    -3
  6
Continuous
100
AcDbCircle
 10
647.614387
 20
-214.732958
 30
0.0
 40
2.0
100
AcDbArc
 50
66.301256
 51
150.0
  0
ARC
  5
20E
100
AcDbEntity
  8
0
370
    -3
  6
Continuous
100
AcDbCircle
 10
438.093423
 20
-177.19043
 30
0.0
 40
286.944
100
AcDbArc
 50
355.66015
 51
4.33985
  0
ARC
  5
20F
100
AcDbEntity
  8
0
370
    -3
  6
Continuous
100
AcDbCircle
 10
646.608594
 20
-216.475043
 30
0.0
 40
2.0
100
AcDbArc
 50
150.0
 51
246.007069
  0
ARC
  5
210
100
AcDbEntity
  8
0
370
    -3
  6
Continuous
100
AcDbCircle
 10
642.589996
 20
-223.435458
 30
0.0
 40
2.0
100
AcDbArc
 50
65.062093
 51
150.0
  0
ARC
  5
211
100
AcDbEntity
  8
0
370
    -3
  6
Continuous
100
AcDbCircle
 10
641.586229
 20
-225.174034
 30
0.0
 40
2.0
100
AcDbArc
 50
150.0
 51
244.8706
  0
ARC
  5
212
100
AcDbEntity
  8
0
370
    -3
  6
Continuous
100
AcDbCircle
 10
685.687208
 20
-225.591964
 30
0.0
 40
2.0
100
AcDbArc
 50
294.043488
 51
30.0
  0
ARC
  5
213
100
AcDbEntity
  8
0
370
    -3
  6
Continuous
100
AcDbCircle
 10
664.093423
 20
48.80957
 30
0.0
 40
286.944
100
AcDbArc
 50
265.66015
 51
274.33985
  0
ARC
  5
214
100
AcDbEntity
  8
0
370
    -3
  6
Continuous
100
AcDbCircle
 10
684.681565
 20
-223.850139
 30
0.0
 40
2.0
100
AcDbArc
 50
30.0
 51
113.809003
  0
ARC
  5
215
100
AcDbEntity
  8
0
370
    -3
  6
Continuous
100
AcDbCircle
 10
645.175356
 20
-200.473616
 30
0.0
 40
36.944
100
AcDbArc
 50
230.905432
 51
265.66015
  0
ARC
  5
216
100
AcDbEntity
  8
0
370
    -3
  6
Continuous
100
AcDbCircle
 10
680.653686
 20
-216.873647
 30
0.0
 40
2.0
100
AcDbArc
 50
292.651339
 51
30.0
  0
ARC
  5
217
100
AcDbEntity
  8
0
370
    -3
  6
Continuous
100
AcDbCircle
 10
664.093423
 20
-177.19043
 30
0.0
 40
66.944
100
AcDbArc
 50
219.094568
 51
230.905432
  0
ARC
  5
218
100
AcDbEntity
  8
0
370
    -3
  6
Continuous
100
AcDbCircle
 10
679.644995
 20
-215.126543
 30
0.0
 40
2.0
100
AcDbArc
 50
30.0
 51
112.29074
  0
ARC
  5
219
100
AcDbEntity
  8
0
370
    -3
  6
Continuous
100
AcDbCircle
 10
640.810237
 20
-196.108497
 30
0.0
 40
36.944
100
AcDbArc
 50
184.33985
 51
219.094568
  0
ARC
  5
21A
100
AcDbEntity
  8
0
370
    -3
  6
Continuous
100
AcDbCircle
 10
675.599502
 20
-208.119545
 30
0.0
 40
2.0
100
AcDbArc
 50
290.405932
 51
30.0
  0
ARC
  5
21B
100
AcDbEntity
  8
0
370
    -3
  6
Continuous
100
AcDbCircle
 10
674.584381
 20
-206.361303
 30
0.0
 40
2.0
100
AcDbArc
 50
30.0
 51
109.78052
  0
ARC
  5
21C
100
AcDbEntity
  8
0
370
    -3
  6
Continuous
100
AcDbCircle
 10
670.496639
 20
-199.281126
 30
0.0
 40
2.0
100
AcDbArc
 50
286.164776
 51
30.0
  0
ARC
  5
21D
100
AcDbEntity
  8
0
370
    -3
  6
Continuous
100
AcDbCircle
 10
669.463767
 20
-197.49214
 30
0.0
 40
2.0
100
AcDbArc
 50
30.0
 51
104.816886
  0
ARC
  5
21E
100
AcDbEntity
  8
0
370
    -3
  6
Continuous
100
AcDbCircle
 10
665.219893
 20
-190.141533
 30
0.0
 40
2.0
100
AcDbArc
 50
274.971001
 51
30.0
  0
ARC
  5
21F
100
AcDbEntity
  8
0
370
    -3
  6
Continuous
100
AcDbCircle
 10
716.807273
 20
-171.69043
 30
0.0
 40
2.0
100
AcDbArc
 50
270.0
 51
5.956512
  0
ARC
  5
220
100
AcDbEntity
  8
0
370
    -3
  6
Continuous
100
AcDbCircle
 10
664.093423
 20
-188.19043
 30
0.0
 40
2.0
100
AcDbArc
 50
30.0
 51
90.0
  0
ARC
  5
221
100
AcDbEntity
  8
0
370
    -3
  6
Continuous
100
AcDbCircle
 10
714.795987
 20
-171.69043
 30
0.0
 40
2.0
100
AcDbArc
 50
186.190997
 51
270.0
  0
ARC
  5
222
100
AcDbEntity
  8
0
370
    -3
  6
Continuous
100
AcDbCircle
 10
673.009252
 20
-183.6331
 30
0.0
 40
2.0
100
AcDbArc
 50
144.14774
 51
210.0
  0
ARC
  5
223
100
AcDbEntity
  8
0
370
    -3
  6
Continuous
100
AcDbCircle
 10
706.740228
 20
-171.69043
 30
0.0
 40
2.0
100
AcDbArc
 50
270.0
 51
7.348661
  0
ARC
  5
224
100
AcDbEntity
  8
0
370
    -3
  6
Continuous
100
AcDbCircle
 10
674.088693
 20
-185.502745
 30
0.0
 40
2.0
100
AcDbArc
 50
210.0
 51
320.252247
  0
ARC
  5
225
100
AcDbEntity
  8
0
370
    -3
  6
Continuous
100
AcDbCircle
 10
704.722846
 20
-171.69043
 30
0.0
 40
2.0
100
AcDbArc
 50
187.70926
 51
270.0
  0
ARC
  5
226
100
AcDbEntity
  8
0
370
    -3
  6
Continuous
100
AcDbCircle
 10
678.246633
 20
-192.704509
 30
0.0
 40
2.0
100
AcDbArc
 50
132.373625
 51
210.0
  0
ARC
  5
227
100
AcDbEntity
  8
0
370
    -3
  6
Continuous
100
AcDbCircle
 10
696.631862
 20
-171.69043
 30
0.0
 40
2.0
100
AcDbArc
 50
270.0
 51
9.594068
  0
ARC
  5
228
100
AcDbEntity
  8
0
370
    -3
  6
Continuous
100
AcDbCircle
 10
679.268281
 20
-194.474055
 30
0.0
 40
2.0
100
AcDbArc
 50
210.0
 51
311.282824
  0
ARC
  5
229
100
AcDbEntity
  8
0
370
    -3
  6
Continuous
100
AcDbCircle
 10
694.601618
 20
-171.69043
 30
0.0
 40
2.0
100
AcDbArc
 50
190.21948
 51
270.0
  0
ARC
  5
22A
100
AcDbEntity
  8
0
370
    -3
  6
Continuous
100
AcDbCircle
 10
683.326361
 20
-201.502857
 30
0.0
 40
2.0
100
AcDbArc
 50
128.346619
 51
210.0
  0
ARC
  5
22B
100
AcDbEntity
  8
0
370
    -3
  6
Continuous
100
AcDbCircle
 10
686.426134
 20
-171.69043
 30
0.0
 40
2.0
100
AcDbArc
 50
270.0
 51
13.835224
  0
ARC
  5
22C
100
AcDbEntity
  8
0
370
    -3
  6
Continuous
100
AcDbCircle
 10
684.336408
 20
-203.252309
 30
0.0
 40
2.0
100
AcDbArc
 50
210.0
 51
307.83748
  0
ARC
  5
22D
100
AcDbEntity
  8
0
370
    -3
  6
Continuous
100
AcDbCircle
 10
684.360391
 20
-171.69043
 30
0.0
 40
2.0
100
AcDbArc
 50
195.183114
 51
270.0
  0
ARC
  5
22E
100
AcDbEntity
  8
0
370
    -3
  6
Continuous
100
AcDbCircle
 10
688.366687
 20
-210.232958
 30
0.0
 40
2.0
100
AcDbArc
 50
126.301256
 51
210.0
  0
ARC
  5
22F
100
AcDbEntity
  8
0
370
    -3
  6
Continuous
100
AcDbCircle
 10
675.872642
 20
-171.69043
 30
0.0
 40
2.0
100
AcDbArc
 50
270.0
 51
25.028999
  0
ARC
  5
230
100
AcDbEntity
  8
0
370
    -3
  6
Continuous
100
AcDbCircle
 10
689.37248
 20
-211.975043
 30
0.0
 40
2.0
100
AcDbArc
 50
210.0
 51
306.007069
  0
ARC
  5
231
100
AcDbEntity
  8
0
370
    -3
  6
Continuous
100
AcDbCircle
 10
673.619702
 20
-171.69043
 30
0.0
 40
2.0
100
AcDbArc
 50
210.0
 51
270.0
  0
ARC
  5
232
100
AcDbEntity
  8
0
370
    -3
  6
Continuous
100
AcDbCircle
 10
693.391078
 20
-218.935458
 30
0.0
 40
2.0
100
AcDbArc
 50
125.062093
 51
210.0
  0
ARC
  5
233
100
AcDbEntity
  8
0
370
    -3
  6
Continuous
100
AcDbCircle
 10
673.009252
 20
-170.747761
 30
0.0
 40
2.0
100
AcDbArc
 50
150.0
 51
215.85226
  0
ARC
  5
234
100
AcDbEntity
  8
0
370
    -3
  6
Continuous
100
AcDbCircle
 10
694.394845
 20
-220.674034
 30
0.0
 40
2.0
100
AcDbArc
 50
210.0
 51
304.8706
  0
ARC
  5
235
100
AcDbEntity
  8
0
370
    -3
  6
Continuous
100
AcDbCircle
 10
674.088693
 20
-168.878115
 30
0.0
 40
2.0
100
AcDbArc
 50
39.747753
 51
150.0
  0
ARC
  5
236
100
AcDbEntity
  8
0
370
    -3
  6
Continuous
100
AcDbCircle
 10
673.619702
 20
-182.69043
 30
0.0
 40
2.0
100
AcDbArc
 50
90.0
 51
150.0
  0
ARC
  5
237
100
AcDbEntity
  8
0
370
    -3
  6
Continuous
100
AcDbCircle
 10
678.246633
 20
-161.676351
 30
0.0
 40
2.0
100
AcDbArc
 50
150.0
 51
227.626375
  0
ARC
  5
238
100
AcDbEntity
  8
0
370
    -3
  6
Continuous
100
AcDbCircle
 10
675.872642
 20
-182.69043
 30
0.0
 40
2.0
100
AcDbArc
 50
334.971001
 51
90.0
  0
ARC
  5
239
100
AcDbEntity
  8
0
370
    -3
  6
Continuous
100
AcDbCircle
 10
679.268281
 20
-159.906806
 30
0.0
 40
2.0
100
AcDbArc
 50
48.717176
 51
150.0
  0
ARC
  5
23A
100
AcDbEntity
  8
0
370
    -3
  6
Continuous
100
AcDbCircle
 10
684.360391
 20
-182.69043
 30
0.0
 40
2.0
100
AcDbArc
 50
90.0
 51
164.816886
  0
ARC
  5
23B
100
AcDbEntity
  8
0
370
    -3
  6
Continuous
100
AcDbCircle
 10
683.326361
 20
-152.878004
 30
0.0
 40
2.0
100
AcDbArc
 50
150.0
 51
231.653381
  0
ARC
  5
23C
100
AcDbEntity
  8
0
370
    -3
  6
Continuous
100
AcDbCircle
 10
686.426134
 20
-182.69043
 30
0.0
 40
2.0
100
AcDbArc
 50
346.164776
 51
90.0
  0
ARC
  5
23D
100
AcDbEntity
  8
0
370
    -3
  6
Continuous
100
AcDbCircle
 10
684.336408
 20
-151.128551
 30
0.0
 40
2.0
100
AcDbArc
 50
52.16252
 51
150.0
  0
ARC
  5
23E
100
AcDbEntity
  8
0
370
    -3
  6
Continuous
100
AcDbCircle
 10
694.601618
 20
-182.69043
 30
0.0
 40
2.0
100
AcDbArc
 50
90.0
 51
169.78052
  0
ARC
  5
23F
100
AcDbEntity
  8
0
370
    -3
  6
Continuous
100
AcDbCircle
 10
688.366687
 20
-144.147903
 30
0.0
 40
2.0
100
AcDbArc
 50
150.0
 51
233.698744
  0
ARC
  5
240
100
AcDbEntity
  8
0
370
    -3
  6
Continuous
100
AcDbCircle
 10
696.631862
 20
-182.69043
 30
0.0
 40
2.0
100
AcDbArc
 50
350.405932
 51
90.0
  0
ARC
  5
241
100
AcDbEntity
  8
0
370
    -3
  6
Continuous
100
AcDbCircle
 10
689.37248
 20
-142.405818
 30
0.0
 40
2.0
100
AcDbArc
 50
53.992931
 51
150.0
  0
ARC
  5
242
100
AcDbEntity
  8
0
370
    -3
  6
Continuous
100
AcDbCircle
 10
704.722846
 20
-182.69043
 30
0.0
 40
2.0
100
AcDbArc
 50
90.0
 51
172.29074
  0
ARC
  5
243
100
AcDbEntity
  8
0
370
    -3
  6
Continuous
100
AcDbCircle
 10
693.391078
 20
-135.445402
 30
0.0
 40
2.0
100
AcDbArc
 50
150.0
 51
234.937907
  0
ARC
  5
244
100
AcDbEntity
  8
0
370
    -3
  6
Continuous
100
AcDbCircle
 10
706.740228
 20
-182.69043
 30
0.0
 40
2.0
100
AcDbArc
 50
352.651339
 51
90.0
  0
ARC
  5
245
100
AcDbEntity
  8
0
370
    -3
  6
Continuous
100
AcDbCircle
 10
694.394845
 20
-133.706827
 30
0.0
 40
2.0
100
AcDbArc
 50
55.1294
 51
150.0
  0
ARC
  5
246
100
AcDbEntity
  8
0
370
    -3
  6
Continuous
100
AcDbCircle
 10
714.795987
 20
-182.69043
 30
0.0
 40
2.0
100
AcDbArc
 50
90.0
 51
173.809003
  0
ARC
  5
247
100
AcDbEntity
  8
0
370
    -3
  6
Continuous
100
AcDbCircle
 10
685.687208
 20
-128.788897
 30
0.0
 40
2.0
100
AcDbArc
 50
330.0
 51
65.956512
  0
ARC
  5
248
100
AcDbEntity
  8
0
370
    -3
  6
Continuous
100
AcDbCircle
 10
684.681565
 20
-130.530722
 30
0.0
 40
2.0
100
AcDbArc
 50
246.190997
 51
330.0
  0
ARC
  5
249
100
AcDbEntity
  8
0
370
    -3
  6
Continuous
100
AcDbCircle
 10
680.653686
 20
-137.507214
 30
0.0
 40
2.0
100
AcDbArc
 50
330.0
 51
67.348661
  0
ARC
  5
24A
100
AcDbEntity
  8
0
370
    -3
  6
Continuous
100
AcDbCircle
 10
679.644995
 20
-139.254318
 30
0.0
 40
2.0
100
AcDbArc
 50
247.70926
 51
330.0
  0
ARC
  5
24B
100
AcDbEntity
  8
0
370
    -3
  6
Continuous
100
AcDbCircle
 10
675.599502
 20
-146.261316
 30
0.0
 40
2.0
100
AcDbArc
 50
330.0
 51
69.594068
  0
ARC
  5
24C
100
AcDbEntity
  8
0
370
    -3
  6
Continuous
100
AcDbCircle
 10
674.584381
 20
-148.019558
 30
0.0
 40
2.0
100
AcDbArc
 50
250.21948
 51
330.0
  0
ARC
  5
24D
100
AcDbEntity
  8
0
370
    -3
  6
Continuous
100
AcDbCircle
 10
670.496639
 20
-155.099735
 30
0.0
 40
2.0
100
AcDbArc
 50
330.0
 51
73.835224
  0
ARC
  5
24E
100
AcDbEntity
  8
0
370
    -3
  6
Continuous
100
AcDbCircle
 10
669.463767
 20
-156.888721
 30
0.0
 40
2.0
100
AcDbArc
 50
255.183114
 51
330.0
  0
ARC
  5
24F
100
AcDbEntity
  8
0
370
    -3
  6
Continuous
100
AcDbCircle
 10
665.219893
 20
-164.239327
 30
0.0
 40
2.0
100
AcDbArc
 50
330.0
 51
85.028999
  0
ARC
  5
250
100
AcDbEntity
  8
0
370
    -3
  6
Continuous
100
AcDbCircle
 10
664.093423
 20
-166.19043
 30
0.0
 40
2.0
100
AcDbArc
 50
270.0
 51
330.0
  0
ARC
  5
251
100
AcDbEntity
  8
0
370
    -3
  6
Continuous
100
AcDbCircle
 10
662.971822
 20
-166.247761
 30
0.0
 40
2.0
100
AcDbArc
 50
210.0
 51
275.85226
  0
ARC
  5
252
100
AcDbEntity
  8
0
370
    -3
  6
Continuous
100
AcDbCircle
 10
661.892382
 20
-164.378115
 30
0.0
 40
2.0
100
AcDbArc
 50
99.747753
 51
210.0
  0
ARC
  5
253
100
AcDbEntity
  8
0
370
    -3
  6
Continuous
100
AcDbCircle
 10
657.734441
 20
-157.176351
 30
0.0
 40
2.0
100
AcDbArc
 50
210.0
 51
287.626375
  0
ARC
  5
254
100
AcDbEntity
  8
0
370
    -3
  6
Continuous
100
AcDbCircle
 10
656.712794
 20
-155.406806
 30
0.0
 40
2.0
100
AcDbArc
 50
108.717176
 51
210.0
  0
ARC
  5
255
100
AcDbEntity
  8
0
370
    -3
  6
Continuous
100
AcDbCircle
 10
652.654713
 20
-148.378004
 30
0.0
 40
2.0
100
AcDbArc
 50
210.0
 51
291.653381
  0
ARC
  5
256
100
AcDbEntity
  8
0
370
    -3
  6
Continuous
100
AcDbCircle
 10
651.644666
 20
-146.628551
 30
0.0
 40
2.0
100
AcDbArc
 50
112.16252
 51
210.0
  0
ARC
  5
257
100
AcDbEntity
  8
0
370
    -3
  6
Continuous
100
AcDbCircle
 10
647.614387
 20
-139.647903
 30
0.0
 40
2.0
100
AcDbArc
 50
210.0
 51
293.698744
  0
ARC
  5
258
100
AcDbEntity
  8
0
370
    -3
  6
Continuous
100
AcDbCircle
 10
646.608594
 20
-137.905818
 30
0.0
 40
2.0
100
AcDbArc
 50
113.992931
 51
210.0
  0
ARC
  5
259
100
AcDbEntity
  8
0
370
    -3
  6
Continuous
100
AcDbCircle
 10
642.589996
 20
-130.945402
 30
0.0
 40
2.0
100
AcDbArc
 50
210.0
 51
294.937907
  0
ARC
  5
25A
100
AcDbEntity
  8
0
370
    -3
  6
Continuous
100
AcDbCircle
 10
641.586229
 20
-129.206827
 30
0.0
 40
2.0
100
AcDbArc
 50
115.1294
 51
210.0
  0
ARC
  5
25B
100
AcDbEntity
  8
0
370
    -3
  6
Continuous
100
AcDbCircle
 10
655.177594
 20
-170.747761
 30
0.0
 40
2.0
100
AcDbArc
 50
324.14774
 51
30.0
  0
ARC
  5
25C
100
AcDbEntity
  8
0
370
    -3
  6
Continuous
100
AcDbCircle
 10
654.098153
 20
-168.878115
 30
0.0
 40
2.0
100
AcDbArc
 50
30.0
 51
140.252247
  0
ARC
  5
25D
100
AcDbEntity
  8
0
370
    -3
  6
Continuous
100
AcDbCircle
 10
649.940213
 20
-161.676351
 30
0.0
 40
2.0
100
AcDbArc
 50
312.373625
 51
30.0
  0
ARC
  5
25E
100
AcDbEntity
  8
0
370
    -3
  6
Continuous
100
AcDbCircle
 10
648.918565
 20
-159.906806
 30
0.0
 40
2.0
100
AcDbArc
 50
30.0
 51
131.282824
  0
ARC
  5
25F
100
AcDbEntity
  8
0
370
    -3
  6
Continuous
100
AcDbCircle
 10
644.860484
 20
-152.878004
 30
0.0
 40
2.0
100
AcDbArc
 50
308.346619
 51
30.0
  0
ARC
  5
260
100
AcDbEntity
  8
0
370
    -3
  6
Continuous
100
AcDbCircle
 10
643.850437
 20
-151.128551
 30
0.0
 40
2.0
100
AcDbArc
 50
30.0
 51
127.83748
  0
ARC
  5
261
100
AcDbEntity
  8
0
370
    -3
  6
Continuous
100
AcDbCircle
 10
639.820158
 20
-144.147903
 30
0.0
 40
2.0
100
AcDbArc
 50
306.301256
 51
30.0
  0
ARC
  5
262
100
AcDbEntity
  8
0
370
    -3
  6
Continuous
100
AcDbCircle
 10
638.814365
 20
-142.405818
 30
0.0
 40
2.0
100
AcDbArc
 50
30.0
 51
126.007069
  0
ARC
  5
263
100
AcDbEntity
  8
0
370
    -3
  6
Continuous
100
AcDbCircle
 10
634.795767
 20
-135.445402
 30
0.0
 40
2.0
100
AcDbArc
 50
305.062093
 51
30.0
  0
ARC
  5
264
100
AcDbEntity
  8
0
370
    -3
  6
Continuous
100
AcDbCircle
 10
633.792
 20
-133.706827
 30
0.0
 40
2.0
100
AcDbArc
 50
30.0
 51
124.8706
  0
ARC
  5
265
100
AcDbEntity
  8
0
370
    -3
  6
Continuous
100
AcDbCircle
 10
611.379573
 20
-171.69043
 30
0.0
 40
2.0
100
AcDbArc
 50
174.043488
 51
270.0
  0
ARC
  5
266
100
AcDbEntity
  8
0
370
    -3
  6
Continuous
100
AcDbCircle
 10
613.390859
 20
-171.69043
 30
0.0
 40
2.0
100
AcDbArc
 50
270.0
 51
353.809003
  0
ARC
  5
267
100
AcDbEntity
  8
0
370
    -3
  6
Continuous
100
AcDbCircle
 10
621.446618
 20
-171.69043
 30
0.0
 40
2.0
100
AcDbArc
 50
172.651339
 51
270.0
  0
ARC
  5
268
100
AcDbEntity
  8
0
370
    -3
  6
Continuous
100
AcDbCircle
 10
623.464
 20
-171.69043
 30
0.0
 40
2.0
100
AcDbArc
 50
270.0
 51
352.29074
  0
ARC
  5
269
100
AcDbEntity
  8
0
370
    -3
  6
Continuous
100
AcDbCircle
 10
438.093423
 20
-177.19043
 30
0.0
 40
300.8
100
AcDbArc
 50
355.66015
 51
4.33985
  0
ARC
  5
26A
100
AcDbEntity
  8
0
370
    -3
  6
Continuous
100
AcDbCircle
 10
716.807273
 20
-182.69043
 30
0.0
 40
2.0
100
AcDbArc
 50
354.043488
 51
90.0
  0
CIRCLE
  5
26B
100
AcDbEntity
  8
0
370
    -3
  6
Continuous
100
AcDbCircle
 10
664.093423
 20
-177.19043
 30
0.0
 40
5.0
  0
LINE
  5
26C
100
AcDbEntity
  8
0
370
    -3
  6
Continuous
100
AcDbLine
 10
716.807273
 20
-180.69043
 30
0.0
 11
714.795987
 21
-180.69043
 31
0.0
  0
LINE
  5
26D
100
AcDbEntity
  8
0
370
    -3
  6
Continuous
100
AcDbLine
 10
692.662795
 20
-221.674034
 30
0.0
 11
691.659028
 21
-219.935458
 31
0.0
  0
ARC
  5
26E
100
AcDbEntity
  8
0
370
    -3
  6
Continuous
100
AcDbCircle
 10
664.093423
 20
-177.19043
 30
0.0
 40
55.0
100
AcDbArc
 50
304.8706
 51
354.043488
  0
ARC
  5
26F
100
AcDbEntity
  8
0
370
    -3
  6
Continuous
100
AcDbCircle
 10
664.093423
 20
-177.19043
 30
0.0
 40
49.0
100
AcDbArc
 50
305.062093
 51
353.809003
  0
ARC
  5
270
100
AcDbEntity
  8
0
370
    -3
  6
Continuous
100
AcDbCircle
 10
664.093423
 20
-177.19043
 30
0.0
 40
45.0
100
AcDbArc
 50
306.007069
 51
352.651339
  0
ARC
  5
271
100
AcDbEntity
  8
0
370
    -3
  6
Continuous
100
AcDbCircle
 10
664.093423
 20
-177.19043
 30
0.0
 40
39.0
100
AcDbArc
 50
306.301256
 51
352.29074
  0
ARC
  5
272
100
AcDbEntity
  8
0
370
    -3
  6
Continuous
100
AcDbCircle
 10
664.093423
 20
-177.19043
 30
0.0
 40
35.0
100
AcDbArc
 50
307.83748
 51
350.405932
  0
ARC
  5
273
100
AcDbEntity
  8
0
370
    -3
  6
Continuous
100
AcDbCircle
 10
664.093423
 20
-177.19043
 30
0.0
 40
29.0
100
AcDbArc
 50
308.346619
 51
349.78052
  0
ARC
  5
274
100
AcDbEntity
  8
0
370
    -3
  6
Continuous
100
AcDbCircle
 10
664.093423
 20
-177.19043
 30
0.0
 40
25.0
100
AcDbArc
 50
311.282824
 51
346.164776
  0
ARC
  5
275
100
AcDbEntity
  8
0
370
    -3
  6
Continuous
100
AcDbCircle
 10
664.093423
 20
-177.19043
 30
0.0
 40
19.0
100
AcDbArc
 50
312.373625
 51
344.816886
  0
ARC
  5
276
100
AcDbEntity
  8
0
370
    -3
  6
Continuous
100
AcDbCircle
 10
664.093423
 20
-177.19043
 30
0.0
 40
15.0
100
AcDbArc
 50
320.252247
 51
334.971001
  0
ARC
  5
277
100
AcDbEntity
  8
0
370
    -3
  6
Continuous
100
AcDbCircle
 10
664.093423
 20
-177.19043
 30
0.0
 40
9.0
100
AcDbArc
 50
324.14774
 51
330.0
  0
LINE
  5
278
100
AcDbEntity
  8
0
370
    -3
  6
Continuous
100
AcDbLine
 10
706.740228
 20
-180.69043
 30
0.0
 11
704.722846
 21
-180.69043
 31
0.0
  0
LINE
  5
279
100
AcDbEntity
  8
0
370
    -3
  6
Continuous
100
AcDbLine
 10
696.631862
 20
-180.69043
 30
0.0
 11
694.601618
 21
-180.69043
 31
0.0
  0
LINE
  5
27A
100
AcDbEntity
  8
0
370
    -3
  6
Continuous
100
AcDbLine
 10
686.426134
 20
-180.69043
 30
0.0
 11
684.360391
 21
-180.69043
 31
0.0
  0
LINE
  5
27B
100
AcDbEntity
  8
0
370
    -3
  6
Continuous
100
AcDbLine
 10
675.872642
 20
-180.69043
 30
0.0
 11
673.619702
 21
-180.69043
 31
0.0
  0
LINE
  5
27C
100
AcDbEntity
  8
0
370
    -3
  6
Continuous
100
AcDbLine
 10
672.356642
 20
-186.502745
 30
0.0
 11
671.277201
 21
-184.6331
 31
0.0
  0
LINE
  5
27D
100
AcDbEntity
  8
0
370
    -3
  6
Continuous
100
AcDbLine
 10
677.53623
 20
-195.474055
 30
0.0
 11
676.514582
 21
-193.704509
 31
0.0
  0
LINE
  5
27E
100
AcDbEntity
  8
0
370
    -3
  6
Continuous
100
AcDbLine
 10
682.604357
 20
-204.252309
 30
0.0
 11
681.59431
 21
-202.502857
 31
0.0
  0
LINE
  5
27F
100
AcDbEntity
  8
0
370
    -3
  6
Continuous
100
AcDbLine
 10
687.64043
 20
-212.975043
 30
0.0
 11
686.634637
 21
-211.232958
 31
0.0
  0
ARC
  5
280
100
AcDbEntity
  8
0
370
    -3
  6
Continuous
100
AcDbCircle
 10
664.093423
 20
-177.19043
 30
0.0
 40
35.0
100
AcDbArc
 50
9.594068
 51
52.16252
  0
LINE
  5
281
100
AcDbEntity
  8
0
370
    -3
  6
Continuous
100
AcDbLine
 10
696.631862
 20
-173.69043
 30
0.0
 11
694.601618
 21
-173.69043
 31
0.0
  0
LINE
  5
282
100
AcDbEntity
  8
0
370
    -3
  6
Continuous
100
AcDbLine
 10
706.740228
 20
-173.69043
 30
0.0
 11
704.722846
 21
-173.69043
 31
0.0
  0
ARC
  5
283
100
AcDbEntity
  8
0
370
    -3
  6
Continuous
100
AcDbCircle
 10
664.093423
 20
-177.19043
 30
0.0
 40
39.0
100
AcDbArc
 50
7.70926
 51
53.698744
  0
ARC
  5
284
100
AcDbEntity
  8
0
370
    -3
  6
Continuous
100
AcDbCircle
 10
664.093423
 20
-177.19043
 30
0.0
 40
45.0
100
AcDbArc
 50
7.348661
 51
53.992931
  0
ARC
  5
285
100
AcDbEntity
  8
0
370
    -3
  6
Continuous
100
AcDbCircle
 10
664.093423
 20
-177.19043
 30
0.0
 40
55.0
100
AcDbArc
 50
5.956512
 51
55.1294
  0
LINE
  5
286
100
AcDbEntity
  8
0
370
    -3
  6
Continuous
100
AcDbLine
 10
716.807273
 20
-173.69043
 30
0.0
 11
714.795987
 21
-173.69043
 31
0.0
  0
ARC
  5
287
100
AcDbEntity
  8
0
370
    -3
  6
Continuous
100
AcDbCircle
 10
664.093423
 20
-177.19043
 30
0.0
 40
49.0
100
AcDbArc
 50
6.190997
 51
54.937907
  0
LINE
  5
288
100
AcDbEntity
  8
0
370
    -3
  6
Continuous
100
AcDbLine
 10
692.662795
 20
-132.706827
 30
0.0
 11
691.659028
 21
-134.445402
 31
0.0
  0
LINE
  5
289
100
AcDbEntity
  8
0
370
    -3
  6
Continuous
100
AcDbLine
 10
687.64043
 20
-141.405818
 30
0.0
 11
686.634637
 21
-143.147903
 31
0.0
  0
ARC
  5
28A
100
AcDbEntity
  8
0
370
    -3
  6
Continuous
100
AcDbCircle
 10
664.093423
 20
-177.19043
 30
0.0
 40
29.0
100
AcDbArc
 50
10.21948
 51
51.653381
  0
LINE
  5
28B
100
AcDbEntity
  8
0
370
    -3
  6
Continuous
100
AcDbLine
 10
682.604357
 20
-150.128551
 30
0.0
 11
681.59431
 21
-151.878004
 31
0.0
  0
LINE
  5
28C
100
AcDbEntity
  8
0
370
    -3
  6
Continuous
100
AcDbLine
 10
686.426134
 20
-173.69043
 30
0.0
 11
684.360391
 21
-173.69043
 31
0.0
  0
ARC
  5
28D
100
AcDbEntity
  8
0
370
    -3
  6
Continuous
100
AcDbCircle
 10
664.093423
 20
-177.19043
 30
0.0
 40
25.0
100
AcDbArc
 50
13.835224
 51
48.717176
  0
ARC
  5
28E
100
AcDbEntity
  8
0
370
    -3
  6
Continuous
100
AcDbCircle
 10
664.093423
 20
-177.19043
 30
0.0
 40
19.0
100
AcDbArc
 50
15.183114
 51
47.626375
  0
LINE
  5
28F
100
AcDbEntity
  8
0
370
    -3
  6
Continuous
100
AcDbLine
 10
677.53623
 20
-158.906806
 30
0.0
 11
676.514582
 21
-160.676351
 31
0.0
  0
LINE
  5
290
100
AcDbEntity
  8
0
370
    -3
  6
Continuous
100
AcDbLine
 10
675.872642
 20
-173.69043
 30
0.0
 11
673.619702
 21
-173.69043
 31
0.0
  0
ARC
  5
291
100
AcDbEntity
  8
0
370
    -3
  6
Continuous
100
AcDbCircle
 10
664.093423
 20
-177.19043
 30
0.0
 40
15.0
100
AcDbArc
 50
25.028999
 51
39.747753
  0
ARC
  5
292
100
AcDbEntity
  8
0
370
    -3
  6
Continuous
100
AcDbCircle
 10
664.093423
 20
-177.19043
 30
0.0
 40
9.0
100
AcDbArc
 50
30.0
 51
35.85226
  0
LINE
  5
293
100
AcDbEntity
  8
0
370
    -3
  6
Continuous
100
AcDbLine
 10
672.356642
 20
-167.878115
 30
0.0
 11
671.277201
 21
-169.747761
 31
0.0
  0
ARC
  5
294
100
AcDbEntity
  8
0
370
    -3
  6
Continuous
100
AcDbCircle
 10
664.093423
 20
-177.19043
 30
0.0
 40
35.0
100
AcDbArc
 50
127.83748
 51
170.405932
  0
LINE
  5
295
100
AcDbEntity
  8
0
370
    -3
  6
Continuous
100
AcDbLine
 10
631.554984
 20
-173.69043
 30
0.0
 11
633.585227
 21
-173.69043
 31
0.0
  0
LINE
  5
296
100
AcDbEntity
  8
0
370
    -3
  6
Continuous
100
AcDbLine
 10
621.446618
 20
-173.69043
 30
0.0
 11
623.464
 21
-173.69043
 31
0.0
  0
ARC
  5
297
100
AcDbEntity
  8
0
370
    -3
  6
Continuous
100
AcDbCircle
 10
664.093423
 20
-177.19043
 30
0.0
 40
39.0
100
AcDbArc
 50
126.301256
 51
172.29074
  0
ARC
  5
298
100
AcDbEntity
  8
0
370
    -3
  6
Continuous
100
AcDbCircle
 10
664.093423
 20
-177.19043
 30
0.0
 40
45.0
100
AcDbArc
 50
126.007069
 51
172.651339
  0
ARC
  5
299
100
AcDbEntity
  8
0
370
    -3
  6
Continuous
100
AcDbCircle
 10
664.093423
 20
-177.19043
 30
0.0
 40
55.0
100
AcDbArc
 50
124.8706
 51
174.043488
  0
ARC
  5
29A
100
AcDbEntity
  8
0
370
    -3
  6
Continuous
100
AcDbCircle
 10
631.554984
 20
-171.69043
 30
0.0
 40
2.0
100
AcDbArc
 50
170.405932
 51
270.0
  0
LINE
  5
29B
100
AcDbEntity
  8
0
370
    -3
  6
Continuous
100
AcDbLine
 10
611.379573
 20
-173.69043
 30
0.0
 11
613.390859
 21
-173.69043
 31
0.0
  0
ARC
  5
29C
100
AcDbEntity
  8
0
370
    -3
  6
Continuous
100
AcDbCircle
 10
664.093423
 20
-177.19043
 30
0.0
 40
49.0
100
AcDbArc
 50
125.062093
 51
173.809003
  0
LINE
  5
29D
100
AcDbEntity
  8
0
370
    -3
  6
Continuous
100
AcDbLine
 10
635.524051
 20
-132.706827
 30
0.0
 11
636.527818
 21
-134.445402
 31
0.0
  0
LINE
  5
29E
100
AcDbEntity
  8
0
370
    -3
  6
Continuous
100
AcDbLine
 10
640.546416
 20
-141.405818
 30
0.0
 11
641.552209
 21
-143.147903
 31
0.0
  0
ARC
  5
29F
100
AcDbEntity
  8
0
370
    -3
  6
Continuous
100
AcDbCircle
 10
664.093423
 20
-177.19043
 30
0.0
 40
29.0
100
AcDbArc
 50
128.346619
 51
169.78052
  0
LINE
  5
2A0
100
AcDbEntity
  8
0
370
    -3
  6
Continuous
100
AcDbLine
 10
645.582488
 20
-150.128551
 30
0.0
 11
646.592535
 21
-151.878004
 31
0.0
  0
LINE
  5
2A1
100
AcDbEntity
  8
0
370
    -3
  6
Continuous
100
AcDbLine
 10
641.760711
 20
-173.69043
 30
0.0
 11
643.826455
 21
-173.69043
 31
0.0
  0
ARC
  5
2A2
100
AcDbEntity
  8
0
370
    -3
  6
Continuous
100
AcDbCircle
 10
664.093423
 20
-177.19043
 30
0.0
 40
25.0
100
AcDbArc
 50
131.282824
 51
166.164776
  0
ARC
  5
2A3
100
AcDbEntity
  8
0
370
    -3
  6
Continuous
100
AcDbCircle
 10
664.093423
 20
-177.19043
 30
0.0
 40
19.0
100
AcDbArc
 50
132.373625
 51
164.816886
  0
ARC
  5
2A4
100
AcDbEntity
  8
0
370
    -3
  6
Continuous
100
AcDbCircle
 10
664.093423
 20
-403.19043
 30
0.0
 40
300.8
100
AcDbArc
 50
85.66015
 51
94.33985
  0
LINE
  5
2A5
100
AcDbEntity
  8
0
370
    -3
  6
Continuous
100
AcDbLine
 10
19.093887
 20
35.666041
 30
0.0
 11
59.093887
 21
35.666041
 31
0.0
  0
LINE
  5
2A6
100
AcDbEntity
  8
0
370
    -3
  6
Continuous
100
AcDbLine
 10
212.093423
 20
199.166041
 30
0.0
 11
212.093423
 21
156.166041
 31
0.0
  0
LINE
  5
2A7
100
AcDbEntity
  8
0
370
    -3
  6
Continuous
100
AcDbLine
 10
187.103571
 20
247.666041
 30
0.0
 11
190.093787
 21
235.666041
 31
0.0
  0
LINE
  5
2A8
100
AcDbEntity
  8
0
370
    -3
  6
Continuous
100
AcDbLine
 10
187.103571
 20
107.666041
 30
0.0
 11
187.613163
 21
108.165853
 31
0.0
  0
LINE
  5
2A9
100
AcDbEntity
  8
0
370
    -3
  6
Continuous
100
AcDbLine
 10
-18.406113
 20
252.266041
 30
0.0
 11
-18.406113
 21
250.166041
 31
0.0
  0
LINE
  5
2AA
100
AcDbEntity
  8
0
370
    -3
  6
Continuous
100
AcDbLine
 10
-18.256113
 20
250.166041
 30
0.0
 11
-18.256113
 21
248.666041
 31
0.0
  0
LINE
  5
2AB
100
AcDbEntity
  8
0
370
    -3
  6
Continuous
100
AcDbLine
 10
-18.256113
 20
248.666041
 30
0.0
 11
-18.406113
 21
248.666041
 31
0.0
  0
LINE
  5
2AC
100
AcDbEntity
  8
0
370
    -3
  6
Continuous
100
AcDbLine
 10
-18.256113
 20
250.166041
 30
0.0
 11
-18.406113
 21
250.166041
 31
0.0
  0
LINE
  5
2AD
100
AcDbEntity
  8
0
370
    -3
  6
Continuous
100
AcDbLine
 10
-18.406113
 20
248.666041
 30
0.0
 11
-18.406113
 21
247.666041
 31
0.0
  0
LINE
  5
2AE
100
AcDbEntity
  8
0
370
    -3
  6
Continuous
100
AcDbLine
 10
-18.406113
 20
252.266041
 30
0.0
 11
-18.006113
 21
252.666041
 31
0.0
  0
LINE
  5
2AF
100
AcDbEntity
  8
0
370
    -3
  6
Continuous
100
AcDbLine
 10
-18.406113
 20
247.666041
 30
0.0
 11
-44.915897
 21
247.666041
 31
0.0
  0
LINE
  5
2B0
100
AcDbEntity
  8
0
370
    -3
  6
Continuous
100
AcDbLine
 10
18.093887
 20
102.666041
 30
0.0
 11
60.093887
 21
102.666041
 31
0.0
  0
LINE
  5
2B1
100
AcDbEntity
  8
0
370
    -3
  6
Continuous
100
AcDbLine
 10
96.593887
 20
252.266041
 30
0.0
 11
96.193887
 21
252.666041
 31
0.0
  0
LINE
  5
2B2
100
AcDbEntity
  8
0
370
    -3
  6
Continuous
100
AcDbLine
 10
96.593887
 20
252.266041
 30
0.0
 11
96.593887
 21
250.166041
 31
0.0
  0
LINE
  5
2B3
100
AcDbEntity
  8
0
370
    -3
  6
Continuous
100
AcDbLine
 10
96.443887
 20
250.166041
 30
0.0
 11
96.443887
 21
248.666041
 31
0.0
  0
LINE
  5
2B4
100
AcDbEntity
  8
0
370
    -3
  6
Continuous
100
AcDbLine
 10
96.443887
 20
248.666041
 30
0.0
 11
96.593887
 21
248.666041
 31
0.0
  0
LINE
  5
2B5
100
AcDbEntity
  8
0
370
    -3
  6
Continuous
100
AcDbLine
 10
96.443887
 20
250.166041
 30
0.0
 11
96.593887
 21
250.166041
 31
0.0
  0
LINE
  5
2B6
100
AcDbEntity
  8
0
370
    -3
  6
Continuous
100
AcDbLine
 10
96.593887
 20
248.666041
 30
0.0
 11
96.593887
 21
247.666041
 31
0.0
  0
LINE
  5
2B7
100
AcDbEntity
  8
0
370
    -3
  6
Continuous
100
AcDbLine
 10
96.193887
 20
252.666041
 30
0.0
 11
-18.006113
 21
252.666041
 31
0.0
  0
LINE
  5
2B8
100
AcDbEntity
  8
0
370
    -3
  6
Continuous
100
AcDbLine
 10
187.103571
 20
247.666041
 30
0.0
 11
-28.568691
 21
247.666041
 31
0.0
  0
LINE
  5
2B9
100
AcDbEntity
  8
0
370
    -3
  6
Continuous
100
AcDbLine
 10
-18.406113
 20
252.266041
 30
0.0
 11
-18.406113
 21
250.166041
 31
0.0
  0
LINE
  5
2BA
100
AcDbEntity
  8
0
370
    -3
  6
Continuous
100
AcDbLine
 10
-18.256113
 20
250.166041
 30
0.0
 11
-18.256113
 21
248.666041
 31
0.0
  0
LINE
  5
2BB
100
AcDbEntity
  8
0
370
    -3
  6
Continuous
100
AcDbLine
 10
-18.256113
 20
248.666041
 30
0.0
 11
-18.406113
 21
248.666041
 31
0.0
  0
LINE
  5
2BC
100
AcDbEntity
  8
0
370
    -3
  6
CENTER
100
AcDbLine
 10
237.520474
 20
167.166041
 30
0.0
 11
205.497854
 21
167.166041
 31
0.0
  0
LINE
  5
2BD
100
AcDbEntity
  8
0
370
    -3
  6
Continuous
100
AcDbLine
 10
-18.256113
 20
250.166041
 30
0.0
 11
-18.406113
 21
250.166041
 31
0.0
  0
LINE
  5
2BE
100
AcDbEntity
  8
0
370
    -3
  6
Continuous
100
AcDbLine
 10
-18.406113
 20
248.666041
 30
0.0
 11
-18.406113
 21
247.666041
 31
0.0
  0
LINE
  5
2BF
100
AcDbEntity
  8
0
370
    -3
  6
Continuous
100
AcDbLine
 10
-18.406113
 20
252.266041
 30
0.0
 11
-18.006113
 21
252.666041
 31
0.0
  0
LINE
  5
2C0
100
AcDbEntity
  8
0
370
    -3
  6
Continuous
100
AcDbLine
 10
-18.406113
 20
247.666041
 30
0.0
 11
-44.915897
 21
247.666041
 31
0.0
  0
LINE
  5
2C1
100
AcDbEntity
  8
0
370
    -3
  6
Continuous
100
AcDbLine
 10
96.193887
 20
252.666041
 30
0.0
 11
-18.006113
 21
252.666041
 31
0.0
  0
LINE
  5
2C2
100
AcDbEntity
  8
0
370
    -3
  6
Continuous
100
AcDbLine
 10
96.593887
 20
252.266041
 30
0.0
 11
96.193887
 21
252.666041
 31
0.0
  0
LINE
  5
2C3
100
AcDbEntity
  8
0
370
    -3
  6
Continuous
100
AcDbLine
 10
96.593887
 20
252.266041
 30
0.0
 11
96.593887
 21
250.166041
 31
0.0
  0
LINE
  5
2C4
100
AcDbEntity
  8
0
370
    -3
  6
Continuous
100
AcDbLine
 10
96.443887
 20
250.166041
 30
0.0
 11
96.443887
 21
248.666041
 31
0.0
  0
LINE
  5
2C5
100
AcDbEntity
  8
0
370
    -3
  6
Continuous
100
AcDbLine
 10
96.443887
 20
248.666041
 30
0.0
 11
96.593887
 21
248.666041
 31
0.0
  0
LINE
  5
2C6
100
AcDbEntity
  8
0
370
    -3
  6
Continuous
100
AcDbLine
 10
96.443887
 20
250.166041
 30
0.0
 11
96.593887
 21
250.166041
 31
0.0
  0
LINE
  5
2C7
100
AcDbEntity
  8
0
370
    -3
  6
Continuous
100
AcDbLine
 10
96.593887
 20
248.666041
 30
0.0
 11
96.593887
 21
247.666041
 31
0.0
  0
LINE
  5
2C8
100
AcDbEntity
  8
0
370
    -3
  6
Continuous
100
AcDbLine
 10
-18.406113
 20
103.066041
 30
0.0
 11
-18.406113
 21
105.166041
 31
0.0
  0
LINE
  5
2C9
100
AcDbEntity
  8
0
370
    -3
  6
Continuous
100
AcDbLine
 10
-44.915897
 20
247.666041
 30
0.0
 11
-47.906113
 21
235.666041
 31
0.0
  0
LINE
  5
2CA
100
AcDbEntity
  8
0
370
    -3
  6
Continuous
100
AcDbLine
 10
-18.256113
 20
105.166041
 30
0.0
 11
-18.256113
 21
106.666041
 31
0.0
  0
LINE
  5
2CB
100
AcDbEntity
  8
0
370
    -3
  6
Continuous
100
AcDbLine
 10
218.593787
 20
247.166041
 30
0.0
 11
218.593787
 21
199.166041
 31
0.0
  0
LINE
  5
2CC
100
AcDbEntity
  8
0
370
    -3
  6
Continuous
100
AcDbLine
 10
-18.256113
 20
106.666041
 30
0.0
 11
-18.406113
 21
106.666041
 31
0.0
  0
LINE
  5
2CD
100
AcDbEntity
  8
0
370
    -3
  6
Continuous
100
AcDbLine
 10
190.093423
 20
235.666041
 30
0.0
 11
187.593423
 21
108.146492
 31
0.0
  0
LINE
  5
2CE
100
AcDbEntity
  8
0
370
    -3
  6
Continuous
100
AcDbLine
 10
-18.256113
 20
105.166041
 30
0.0
 11
-18.406113
 21
105.166041
 31
0.0
  0
LINE
  5
2CF
100
AcDbEntity
  8
0
370
    -3
  6
Continuous
100
AcDbLine
 10
202.093787
 20
238.666041
 30
0.0
 11
202.093787
 21
111.666041
 31
0.0
  0
LINE
  5
2D0
100
AcDbEntity
  8
0
370
    -3
  6
Continuous
100
AcDbLine
 10
-18.406113
 20
106.666041
 30
0.0
 11
-18.406113
 21
107.666041
 31
0.0
  0
LINE
  5
2D1
100
AcDbEntity
  8
0
370
    -3
  6
Continuous
100
AcDbLine
 10
-18.406113
 20
103.066041
 30
0.0
 11
-18.006113
 21
102.666041
 31
0.0
  0
LINE
  5
2D2
100
AcDbEntity
  8
0
370
    -3
  6
Continuous
100
AcDbLine
 10
-18.406113
 20
107.666041
 30
0.0
 11
-44.915897
 21
107.666041
 31
0.0
  0
LINE
  5
2D3
100
AcDbEntity
  8
0
370
    -3
  6
Continuous
100
AcDbLine
 10
96.593887
 20
103.066041
 30
0.0
 11
96.193887
 21
102.666041
 31
0.0
  0
LINE
  5
2D4
100
AcDbEntity
  8
0
370
    -3
  6
Continuous
100
AcDbLine
 10
96.593887
 20
103.066041
 30
0.0
 11
96.593887
 21
105.166041
 31
0.0
  0
LINE
  5
2D5
100
AcDbEntity
  8
0
370
    -3
  6
Continuous
100
AcDbLine
 10
96.443887
 20
105.166041
 30
0.0
 11
96.443887
 21
106.666041
 31
0.0
  0
LINE
  5
2D6
100
AcDbEntity
  8
0
370
    -3
  6
Continuous
100
AcDbLine
 10
96.443887
 20
106.666041
 30
0.0
 11
96.593887
 21
106.666041
 31
0.0
  0
LINE
  5
2D7
100
AcDbEntity
  8
0
370
    -3
  6
CENTER
100
AcDbLine
 10
39.093887
 20
287.515538
 30
0.0
 11
39.093887
 21
28.679828
 31
0.0
  0
LINE
  5
2D8
100
AcDbEntity
  8
0
370
    -3
  6
Continuous
100
AcDbLine
 10
96.443887
 20
105.166041
 30
0.0
 11
96.593887
 21
105.166041
 31
0.0
  0
LINE
  5
2D9
100
AcDbEntity
  8
0
370
    -3
  6
Continuous
100
AcDbLine
 10
-47.906113
 20
235.666041
 30
0.0
 11
-45.425489
 21
108.165853
 31
0.0
  0
LINE
  5
2DA
100
AcDbEntity
  8
0
370
    -3
  6
Continuous
100
AcDbLine
 10
96.593887
 20
106.666041
 30
0.0
 11
96.593887
 21
107.666041
 31
0.0
  0
LINE
  5
2DB
100
AcDbEntity
  8
0
370
    -3
  6
Continuous
100
AcDbLine
 10
187.103571
 20
107.666041
 30
0.0
 11
-28.568691
 21
107.666041
 31
0.0
  0
LINE
  5
2DC
100
AcDbEntity
  8
0
370
    -3
  6
Continuous
100
AcDbLine
 10
96.193887
 20
102.666041
 30
0.0
 11
-18.006113
 21
102.666041
 31
0.0
  0
LINE
  5
2DD
100
AcDbEntity
  8
0
370
    -3
  6
CENTER
100
AcDbLine
 10
237.507464
 20
188.166041
 30
0.0
 11
205.497854
 21
188.166041
 31
0.0
  0
ARC
  5
2DE
100
AcDbEntity
  8
0
370
    -3
  6
Continuous
100
AcDbCircle
 10
196.074971
 20
235.166041
 30
0.0
 40
3.0
100
AcDbArc
 50
178.889756
 51
270.0
  0
ARC
  5
2DF
100
AcDbEntity
  8
0
370
    -3
  6
Continuous
100
AcDbCircle
 10
199.093787
 20
235.166041
 30
0.0
 40
3.0
100
AcDbArc
 50
270.0
 51
0.0
  0
LINE
  5
2E0
100
AcDbEntity
  8
0
370
    -3
  6
Continuous
100
AcDbLine
 10
199.093787
 20
232.166041
 30
0.0
 11
196.074971
 21
232.166041
 31
0.0
  0
ARC
  5
2E1
100
AcDbEntity
  8
0
370
    -3
  6
Continuous
100
AcDbCircle
 10
190.62342
 20
108.666041
 30
0.0
 40
3.0
100
AcDbArc
 50
90.0
 51
178.889756
  0
LINE
  5
2E2
100
AcDbEntity
  8
0
370
    -3
  6
Continuous
100
AcDbLine
 10
193.084097
 20
235.666041
 30
0.0
 11
193.075534
 21
235.22417
 31
0.0
  0
LINE
  5
2E3
100
AcDbEntity
  8
0
370
    -3
  6
Continuous
100
AcDbLine
 10
187.623983
 20
108.72417
 30
0.0
 11
187.613163
 21
108.165853
 31
0.0
  0
LINE
  5
2E4
100
AcDbEntity
  8
0
370
    -3
  6
Continuous
100
AcDbLine
 10
202.093787
 20
235.166041
 30
0.0
 11
202.093787
 21
238.666041
 31
0.0
  0
LINE
  5
2E5
100
AcDbEntity
  8
0
370
    -3
  6
Continuous
100
AcDbLine
 10
221.093423
 20
156.166041
 30
0.0
 11
212.093423
 21
156.166041
 31
0.0
  0
ARC
  5
2E6
100
AcDbEntity
  8
0
370
    -3
  6
Continuous
100
AcDbCircle
 10
221.093423
 20
159.166041
 30
0.0
 40
3.0
100
AcDbArc
 50
270.0
 51
0.0
  0
LINE
  5
2E7
100
AcDbEntity
  8
0
370
    -3
  6
Continuous
100
AcDbLine
 10
221.093423
 20
199.166041
 30
0.0
 11
212.093423
 21
199.166041
 31
0.0
  0
LINE
  5
2E8
100
AcDbEntity
  8
0
370
    -3
  6
Continuous
100
AcDbLine
 10
215.593787
 20
243.666041
 30
0.0
 11
207.093787
 21
243.666041
 31
0.0
  0
ARC
  5
2E9
100
AcDbEntity
  8
0
370
    -3
  6
Continuous
100
AcDbCircle
 10
221.093423
 20
196.166041
 30
0.0
 40
3.0
100
AcDbArc
 50
0.0
 51
90.0
  0
LINE
  5
2EA
100
AcDbEntity
  8
0
370
    -3
  6
Continuous
100
AcDbLine
 10
218.593787
 20
246.666041
 30
0.0
 11
218.593787
 21
247.166041
 31
0.0
  0
ARC
  5
2EB
100
AcDbEntity
  8
0
370
    -3
  6
Continuous
100
AcDbCircle
 10
220.593787
 20
247.166041
 30
0.0
 40
2.0
100
AcDbArc
 50
90.0
 51
180.0
  0
LINE
  5
2EC
100
AcDbEntity
  8
0
370
    -3
  6
CENTER
100
AcDbLine
 10
-61.274214
 20
177.666041
 30
0.0
 11
502.503472
 21
177.666041
 31
0.0
  0
ARC
  5
2ED
100
AcDbEntity
  8
0
370
    -3
  6
Continuous
100
AcDbCircle
 10
215.593787
 20
246.666041
 30
0.0
 40
3.0
100
AcDbArc
 50
270.0
 51
0.0
  0
LINE
  5
2EE
100
AcDbEntity
  8
0
370
    -3
  6
Continuous
100
AcDbLine
 10
220.593787
 20
249.166041
 30
0.0
 11
225.093787
 21
249.166041
 31
0.0
  0
ARC
  5
2EF
100
AcDbEntity
  8
0
370
    -3
  6
Continuous
100
AcDbCircle
 10
207.093787
 20
238.666041
 30
0.0
 40
5.0
100
AcDbArc
 50
90.0
 51
180.0
  0
LINE
  5
2F0
100
AcDbEntity
  8
0
370
    -3
  6
Continuous
100
AcDbLine
 10
215.593787
 20
111.666041
 30
0.0
 11
190.62342
 21
111.666041
 31
0.0
  0
LINE
  5
2F1
100
AcDbEntity
  8
0
370
    -3
  6
Continuous
100
AcDbLine
 10
218.593787
 20
108.666041
 30
0.0
 11
218.593787
 21
108.166041
 31
0.0
  0
ARC
  5
2F2
100
AcDbEntity
  8
0
370
    -3
  6
Continuous
100
AcDbCircle
 10
220.593787
 20
108.166041
 30
0.0
 40
2.0
100
AcDbArc
 50
180.0
 51
270.0
  0
ARC
  5
2F3
100
AcDbEntity
  8
0
370
    -3
  6
Continuous
100
AcDbCircle
 10
215.593787
 20
108.666041
 30
0.0
 40
3.0
100
AcDbArc
 50
0.0
 51
90.0
  0
LINE
  5
2F4
100
AcDbEntity
  8
0
370
    -3
  6
Continuous
100
AcDbLine
 10
220.593787
 20
106.166041
 30
0.0
 11
225.093787
 21
106.166041
 31
0.0
  0
LINE
  5
2F5
100
AcDbEntity
  8
0
370
    -3
  6
Continuous
100
AcDbLine
 10
193.116931
 20
235.666041
 30
0.0
 11
-47.906113
 21
235.666041
 31
0.0
  0
LINE
  5
2F6
100
AcDbEntity
  8
0
370
    -3
  6
Continuous
100
AcDbLine
 10
59.093887
 20
100.666041
 30
0.0
 11
59.093887
 21
35.666041
 31
0.0
  0
LINE
  5
2F7
100
AcDbEntity
  8
0
370
    -3
  6
Continuous
100
AcDbLine
 10
19.093887
 20
100.666041
 30
0.0
 11
19.093887
 21
35.666041
 31
0.0
  0
LINE
  5
2F8
100
AcDbEntity
  8
0
370
    -3
  6
Continuous
100
AcDbLine
 10
60.093887
 20
102.666041
 30
0.0
 11
60.093887
 21
100.666041
 31
0.0
  0
LINE
  5
2F9
100
AcDbEntity
  8
0
370
    -3
  6
Continuous
100
AcDbLine
 10
60.093887
 20
100.666041
 30
0.0
 11
18.093887
 21
100.666041
 31
0.0
  0
LINE
  5
2FA
100
AcDbEntity
  8
0
370
    -3
  6
Continuous
100
AcDbLine
 10
18.093887
 20
102.666041
 30
0.0
 11
18.093887
 21
100.666041
 31
0.0
  0
LINE
  5
2FB
100
AcDbEntity
  8
0
370
    -3
  6
Continuous
100
AcDbLine
 10
33.093887
 20
90.666041
 30
0.0
 11
45.093887
 21
90.666041
 31
0.0
  0
LINE
  5
2FC
100
AcDbEntity
  8
0
370
    -3
  6
Continuous
100
AcDbLine
 10
33.093887
 20
35.666041
 30
0.0
 11
33.093887
 21
90.666041
 31
0.0
  0
LINE
  5
2FD
100
AcDbEntity
  8
0
370
    -3
  6
Continuous
100
AcDbLine
 10
-44.915897
 20
107.666041
 30
0.0
 11
-45.425489
 21
108.165853
 31
0.0
  0
LINE
  5
2FE
100
AcDbEntity
  8
0
370
    -3
  6
Continuous
100
AcDbLine
 10
45.093887
 20
35.666041
 30
0.0
 11
45.093887
 21
90.666041
 31
0.0
  0
ARC
  5
2FF
100
AcDbEntity
  8
0
370
    -3
  6
Continuous
100
AcDbCircle
 10
39.093887
 20
90.666041
 30
0.0
 40
6.0
100
AcDbArc
 50
0.0
 51
180.0
  0
LINE
  5
300
100
AcDbEntity
  8
0
370
    -3
  6
Continuous
100
AcDbLine
 10
218.593787
 20
156.166041
 30
0.0
 11
218.593787
 21
108.666041
 31
0.0
  0
ARC
  5
301
100
AcDbEntity
  8
0
370
    -3
  6
Continuous
100
AcDbCircle
 10
215.593423
 20
220.653194
 30
0.0
 40
3.0
100
AcDbArc
 50
0.0
 51
90.0
  0
LINE
  5
302
100
AcDbEntity
  8
0
370
    -3
  6
Continuous
100
AcDbLine
 10
218.593423
 20
235.666041
 30
0.0
 11
218.593423
 21
247.166041
 31
0.0
  0
LINE
  5
303
100
AcDbEntity
  8
0
370
    -3
  6
Continuous
100
AcDbLine
 10
215.593423
 20
223.653194
 30
0.0
 11
207.093423
 21
223.653194
 31
0.0
  0
ARC
  5
304
100
AcDbEntity
  8
0
370
    -3
  6
Continuous
100
AcDbCircle
 10
215.593423
 20
235.666041
 30
0.0
 40
3.0
100
AcDbArc
 50
270.0
 51
0.0
  0
LINE
  5
305
100
AcDbEntity
  8
0
370
    -3
  6
Continuous
100
AcDbLine
 10
215.593423
 20
219.413827
 30
0.0
 11
205.187773
 21
219.413827
 31
0.0
  0
LINE
  5
306
100
AcDbEntity
  8
0
370
    -3
  6
Continuous
100
AcDbLine
 10
215.593423
 20
232.666041
 30
0.0
 11
207.093423
 21
232.666041
 31
0.0
  0
ARC
  5
307
100
AcDbEntity
  8
0
370
    -3
  6
Continuous
100
AcDbCircle
 10
207.093423
 20
218.653194
 30
0.0
 40
5.0
100
AcDbArc
 50
90.0
 51
171.914005
  0
ARC
  5
308
100
AcDbEntity
  8
0
370
    -3
  6
Continuous
100
AcDbCircle
 10
215.593423
 20
216.413827
 30
0.0
 40
3.0
100
AcDbArc
 50
0.0
 51
90.0
  0
ARC
  5
309
100
AcDbEntity
  8
0
370
    -3
  6
Continuous
100
AcDbCircle
 10
207.093423
 20
227.666041
 30
0.0
 40
5.0
100
AcDbArc
 50
90.0
 51
170.385223
  0
LINE
  5
30A
100
AcDbEntity
  8
0
370
    -3
  6
Continuous
100
AcDbLine
 10
218.593423
 20
119.666041
 30
0.0
 11
218.593423
 21
108.166041
 31
0.0
  0
LINE
  5
30B
100
AcDbEntity
  8
0
370
    -3
  6
Continuous
100
AcDbLine
 10
215.593423
 20
136.400011
 30
0.0
 11
204.660701
 21
136.400011
 31
0.0
  0
ARC
  5
30C
100
AcDbEntity
  8
0
370
    -3
  6
Continuous
100
AcDbCircle
 10
215.593423
 20
139.400011
 30
0.0
 40
3.0
100
AcDbArc
 50
270.0
 51
0.0
  0
ARC
  5
30D
100
AcDbEntity
  8
0
370
    -3
  6
Continuous
100
AcDbCircle
 10
215.593423
 20
134.678888
 30
0.0
 40
3.0
100
AcDbArc
 50
270.0
 51
0.0
  0
LINE
  5
30E
100
AcDbEntity
  8
0
370
    -3
  6
Continuous
100
AcDbLine
 10
215.593423
 20
131.678888
 30
0.0
 11
207.093423
 21
131.678888
 31
0.0
  0
ARC
  5
30F
100
AcDbEntity
  8
0
370
    -3
  6
Continuous
100
AcDbCircle
 10
215.593423
 20
119.666041
 30
0.0
 40
3.0
100
AcDbArc
 50
0.0
 51
90.0
  0
LINE
  5
310
100
AcDbEntity
  8
0
370
    -3
  6
Continuous
100
AcDbLine
 10
215.593423
 20
122.666041
 30
0.0
 11
207.093423
 21
122.666041
 31
0.0
  0
ARC
  5
311
100
AcDbEntity
  8
0
370
    -3
  6
Continuous
100
AcDbCircle
 10
207.093423
 20
136.678888
 30
0.0
 40
5.0
100
AcDbArc
 50
188.085995
 51
270.0
  0
ARC
  5
312
100
AcDbEntity
  8
0
370
    -3
  6
Continuous
100
AcDbCircle
 10
207.093423
 20
127.666041
 30
0.0
 40
5.0
100
AcDbArc
 50
189.614777
 51
270.0
  0
LINE
  5
313
100
AcDbEntity
  8
0
370
    -3
  6
Continuous
100
AcDbLine
 10
218.593423
 20
199.166041
 30
0.0
 11
218.593423
 21
220.653194
 31
0.0
  0
LINE
  5
314
100
AcDbEntity
  8
0
370
    -3
  6
Continuous
100
AcDbLine
 10
218.593423
 20
156.166041
 30
0.0
 11
218.593423
 21
134.678888
 31
0.0
  0
LINE
  5
315
100
AcDbEntity
  8
0
370
    -3
  6
Continuous
100
AcDbLine
 10
228.593423
 20
157.166041
 30
0.0
 11
228.593423
 21
198.166041
 31
0.0
  0
LINE
  5
316
100
AcDbEntity
  8
0
370
    -3
  6
Continuous
100
AcDbLine
 10
228.593423
 20
157.166041
 30
0.0
 11
224.093423
 21
157.166041
 31
0.0
  0
LINE
  5
317
100
AcDbEntity
  8
0
370
    -3
  6
Continuous
100
AcDbLine
 10
225.093423
 20
106.166041
 30
0.0
 11
225.093423
 21
157.166041
 31
0.0
  0
INSERT
  5
323
100
AcDbEntity
  8
0
100
AcDbBlockReference
  2
ZU_SYM_C__ZUOU_AC_BLOCK_ZU_SYM__USR_MELCAD_MD_SYM_SYM_SYM1_00001-1_-1
 10
228.593423
 20
167.166041
 30
0.0
 50
180.0
  0
LINE
  5
324
100
AcDbEntity
  8
0
370
    -3
  6
Continuous
100
AcDbLine
 10
228.593423
 20
198.166041
 30
0.0
 11
224.093423
 21
198.166041
 31
0.0
  0
INSERT
  5
330
100
AcDbEntity
  8
0
100
AcDbBlockReference
  2
ZU_SYM_C__ZUOU_AC_BLOCK_ZU_SYM__USR_MELCAD_MD_SYM_SYM_SYM1_-1_-1
 10
228.593423
 20
188.166041
 30
0.0
 41
-1.0
  0
LINE
  5
331
100
AcDbEntity
  8
0
370
    -3
  6
Continuous
100
AcDbLine
 10
224.093423
 20
157.166041
 30
0.0
 11
224.093423
 21
198.166041
 31
0.0
  0
LINE
  5
332
100
AcDbEntity
  8
0
370
    -3
  6
Continuous
100
AcDbLine
 10
225.093423
 20
198.166041
 30
0.0
 11
225.093423
 21
249.166041
 31
0.0
  0
LINE
  5
333
100
AcDbEntity
  8
0
370
    -3
  6
Continuous
100
AcDbLine
 10
710.893423
 20
-46.425724
 30
0.0
 11
722.093423
 21
-46.19043
 31
0.0
  0
LINE
  5
334
100
AcDbEntity
  8
0
370
    -3
  6
Continuous
100
AcDbLine
 10
722.093423
 20
-239.074358
 30
0.0
 11
722.093423
 21
-257.19043
 31
0.0
  0
LINE
  5
335
100
AcDbEntity
  8
0
370
    -3
  6
Continuous
100
AcDbLine
 10
734.093423
 20
-216.062927
 30
0.0
 11
734.093423
 21
-255.730369
 31
0.0
  0
LINE
  5
336
100
AcDbEntity
  8
0
370
    -3
  6
Continuous
100
AcDbLine
 10
225.093423
 20
-107.19043
 30
0.0
 11
345.093423
 21
-107.19043
 31
0.0
  0
ELLIPSE
  5
337
100
AcDbEntity
  8
0
370
    -3
  6
Continuous
100
AcDbEllipse
 10
362.093423
 20
-234.215162
 30
0.0
 11
5.0
 21
0.0
 31
0.0
210
0.0
220
0.0
230
1.0
 40
0.707107
 41
0.0
 42
3.1415926535897931
  0
LINE
  5
338
100
AcDbEntity
  8
0
370
    -3
  6
Continuous
100
AcDbLine
 10
367.093423
 20
-235.031765
 30
0.0
 11
367.093423
 21
-234.215162
 31
0.0
  0
LINE
  5
339
100
AcDbEntity
  8
0
370
    -3
  6
Continuous
100
AcDbLine
 10
357.093423
 20
-235.031765
 30
0.0
 11
357.093423
 21
-234.215162
 31
0.0
  0
ELLIPSE
  5
33A
100
AcDbEntity
  8
0
370
    -3
  6
Continuous
100
AcDbEllipse
 10
362.093423
 20
-235.031765
 30
0.0
 11
4.5
 21
0.0
 31
0.0
210
0.0
220
0.0
230
1.0
 40
0.707107
 41
0.0
 42
3.1415926535897931
  0
LINE
  5
33B
100
AcDbEntity
  8
0
370
    -3
  6
Continuous
100
AcDbLine
 10
366.593423
 20
-235.59745
 30
0.0
 11
366.593423
 21
-235.031765
 31
0.0
  0
LINE
  5
33C
100
AcDbEntity
  8
0
370
    -3
  6
Continuous
100
AcDbLine
 10
357.593423
 20
-235.59745
 30
0.0
 11
357.593423
 21
-235.031765
 31
0.0
  0
ELLIPSE
  5
33D
100
AcDbEntity
  8
0
370
    -3
  6
Continuous
100
AcDbEllipse
 10
362.093423
 20
-235.031765
 30
0.0
 11
5.0
 21
0.0
 31
0.0
210
0.0
220
0.0
230
1.0
 40
0.707107
 41
3.1415926535897931
 42
3.880864480530291
  0
ELLIPSE
  5
33E
100
AcDbEntity
  8
0
370
    -3
  6
Continuous
100
AcDbEllipse
 10
362.093423
 20
-235.031765
 30
0.0
 11
5.0
 21
0.0
 31
0.0
210
0.0
220
0.0
230
1.0
 40
0.707107
 41
5.5439134802388432
 42
0.0
  0
ELLIPSE
  5
33F
100
AcDbEntity
  8
0
370
    -3
  6
Continuous
100
AcDbEllipse
 10
362.093423
 20
-236.133969
 30
0.0
 11
3.5
 21
0.0
 31
0.0
210
0.0
220
0.0
230
1.0
 40
0.860398
 41
0.0
 42
6.2831853071795862
  0
ELLIPSE
  5
340
100
AcDbEntity
  8
0
370
    -3
  6
Continuous
100
AcDbEllipse
 10
362.093423
 20
-235.59745
 30
0.0
 11
4.5
 21
0.0
 31
0.0
210
0.0
220
0.0
230
1.0
 40
0.707107
 41
5.3002993159357938
 42
4.1244786448332489
  0
LINE
  5
341
100
AcDbEntity
  8
0
370
    -3
  6
Continuous
100
AcDbLine
 10
362.093423
 20
-237.435928
 30
0.0
 11
360.093423
 21
-235.862591
 31
0.0
  0
LINE
  5
342
100
AcDbEntity
  8
0
370
    -3
  6
Continuous
100
AcDbLine
 10
362.093423
 20
-237.435928
 30
0.0
 11
360.164218
 21
-238.646591
 31
0.0
  0
LINE
  5
343
100
AcDbEntity
  8
0
370
    -3
  6
Continuous
100
AcDbLine
 10
362.093423
 20
-237.435928
 30
0.0
 11
364.093423
 21
-235.862591
 31
0.0
  0
LINE
  5
344
100
AcDbEntity
  8
0
370
    -3
  6
Continuous
100
AcDbLine
 10
362.093423
 20
-237.435928
 30
0.0
 11
364.022628
 21
-238.646591
 31
0.0
  0
LINE
  5
345
100
AcDbEntity
  8
0
370
    -3
  6
Continuous
100
AcDbLine
 10
345.093423
 20
-251.99043
 30
0.0
 11
345.093423
 21
-177.19043
 31
0.0
  0
LINE
  5
346
100
AcDbEntity
  8
0
370
    -3
  6
Continuous
100
AcDbLine
 10
225.093423
 20
-248.69043
 30
0.0
 11
345.093423
 21
-248.69043
 31
0.0
  0
LINE
  5
347
100
AcDbEntity
  8
0
370
    -3
  6
Continuous
100
AcDbLine
 10
225.093423
 20
-246.69043
 30
0.0
 11
345.093423
 21
-246.69043
 31
0.0
  0
LINE
  5
348
100
AcDbEntity
  8
0
370
    -3
  6
Continuous
100
AcDbLine
 10
225.093423
 20
-243.69043
 30
0.0
 11
345.093423
 21
-243.69043
 31
0.0
  0
LINE
  5
349
100
AcDbEntity
  8
0
370
    -3
  6
Continuous
100
AcDbLine
 10
225.093423
 20
-239.19043
 30
0.0
 11
345.093423
 21
-239.19043
 31
0.0
  0
LINE
  5
34A
100
AcDbEntity
  8
0
370
    -3
  6
Continuous
100
AcDbLine
 10
225.093423
 20
-218.039699
 30
0.0
 11
345.093423
 21
-218.039699
 31
0.0
  0
LINE
  5
34B
100
AcDbEntity
  8
0
370
    -3
  6
Continuous
100
AcDbLine
 10
225.093423
 20
-216.391072
 30
0.0
 11
345.093423
 21
-216.391072
 31
0.0
  0
LINE
  5
34C
100
AcDbEntity
  8
0
370
    -3
  6
Continuous
100
AcDbLine
 10
225.093423
 20
-210.033202
 30
0.0
 11
345.093423
 21
-210.033202
 31
0.0
  0
LINE
  5
34D
100
AcDbEntity
  8
0
370
    -3
  6
Continuous
100
AcDbLine
 10
225.093423
 20
-208.400475
 30
0.0
 11
345.093423
 21
-208.400475
 31
0.0
  0
LINE
  5
34E
100
AcDbEntity
  8
0
370
    -3
  6
Continuous
100
AcDbLine
 10
225.093423
 20
-202.004938
 30
0.0
 11
345.093423
 21
-202.004938
 31
0.0
  0
LINE
  5
34F
100
AcDbEntity
  8
0
370
    -3
  6
Continuous
100
AcDbLine
 10
225.093423
 20
-177.920226
 30
0.0
 11
345.093423
 21
-177.920226
 31
0.0
  0
LINE
  5
350
100
AcDbEntity
  8
0
370
    -3
  6
Continuous
100
AcDbLine
 10
225.093423
 20
-185.938586
 30
0.0
 11
345.093423
 21
-185.938586
 31
0.0
  0
LINE
  5
351
100
AcDbEntity
  8
0
370
    -3
  6
Continuous
100
AcDbLine
 10
225.093423
 20
-184.453428
 30
0.0
 11
345.093423
 21
-184.453428
 31
0.0
  0
LINE
  5
352
100
AcDbEntity
  8
0
370
    -3
  6
Continuous
100
AcDbLine
 10
225.093423
 20
-193.970431
 30
0.0
 11
345.093423
 21
-193.970431
 31
0.0
  0
LINE
  5
353
100
AcDbEntity
  8
0
370
    -3
  6
Continuous
100
AcDbLine
 10
225.093423
 20
-192.433595
 30
0.0
 11
345.093423
 21
-192.433595
 31
0.0
  0
LINE
  5
354
100
AcDbEntity
  8
0
370
    -3
  6
Continuous
100
AcDbLine
 10
225.093423
 20
-200.412686
 30
0.0
 11
345.093423
 21
-200.412686
 31
0.0
  0
LINE
  5
355
100
AcDbEntity
  8
0
370
    -3
  6
Continuous
100
AcDbLine
 10
225.093423
 20
-110.69043
 30
0.0
 11
345.093423
 21
-110.69043
 31
0.0
  0
LINE
  5
356
100
AcDbEntity
  8
0
370
    -3
  6
Continuous
100
AcDbLine
 10
225.093423
 20
-115.19043
 30
0.0
 11
345.093423
 21
-115.19043
 31
0.0
  0
LINE
  5
357
100
AcDbEntity
  8
0
370
    -3
  6
Continuous
100
AcDbLine
 10
225.093423
 20
-136.341161
 30
0.0
 11
345.093423
 21
-136.341161
 31
0.0
  0
LINE
  5
358
100
AcDbEntity
  8
0
370
    -3
  6
Continuous
100
AcDbLine
 10
225.093423
 20
-137.989788
 30
0.0
 11
345.093423
 21
-137.989788
 31
0.0
  0
LINE
  5
359
100
AcDbEntity
  8
0
370
    -3
  6
Continuous
100
AcDbLine
 10
225.093423
 20
-144.347659
 30
0.0
 11
345.093423
 21
-144.347659
 31
0.0
  0
LINE
  5
35A
100
AcDbEntity
  8
0
370
    -3
  6
Continuous
100
AcDbLine
 10
225.093423
 20
-145.980386
 30
0.0
 11
345.093423
 21
-145.980386
 31
0.0
  0
LINE
  5
35B
100
AcDbEntity
  8
0
370
    -3
  6
Continuous
100
AcDbLine
 10
225.093423
 20
-152.375923
 30
0.0
 11
345.093423
 21
-152.375923
 31
0.0
  0
LINE
  5
35C
100
AcDbEntity
  8
0
370
    -3
  6
Continuous
100
AcDbLine
 10
225.093423
 20
-176.460635
 30
0.0
 11
345.093423
 21
-176.460635
 31
0.0
  0
LINE
  5
35D
100
AcDbEntity
  8
0
370
    -3
  6
Continuous
100
AcDbLine
 10
225.093423
 20
-168.442274
 30
0.0
 11
345.093423
 21
-168.442274
 31
0.0
  0
LINE
  5
35E
100
AcDbEntity
  8
0
370
    -3
  6
Continuous
100
AcDbLine
 10
225.093423
 20
-169.927432
 30
0.0
 11
345.093423
 21
-169.927432
 31
0.0
  0
LINE
  5
35F
100
AcDbEntity
  8
0
370
    -3
  6
Continuous
100
AcDbLine
 10
225.093423
 20
-160.41043
 30
0.0
 11
345.093423
 21
-160.41043
 31
0.0
  0
LINE
  5
360
100
AcDbEntity
  8
0
370
    -3
  6
Continuous
100
AcDbLine
 10
225.093423
 20
-161.947266
 30
0.0
 11
345.093423
 21
-161.947266
 31
0.0
  0
LINE
  5
361
100
AcDbEntity
  8
0
370
    -3
  6
Continuous
100
AcDbLine
 10
225.093423
 20
-153.968175
 30
0.0
 11
345.093423
 21
-153.968175
 31
0.0
  0
ELLIPSE
  5
362
100
AcDbEntity
  8
0
370
    -3
  6
Continuous
100
AcDbEllipse
 10
362.093423
 20
-120.165699
 30
0.0
 11
5.0
 21
0.0
 31
0.0
210
0.0
220
0.0
230
1.0
 40
0.707107
 41
3.1415926535897931
 42
0.0
  0
LINE
  5
363
100
AcDbEntity
  8
0
370
    -3
  6
Continuous
100
AcDbLine
 10
367.093423
 20
-119.349096
 30
0.0
 11
367.093423
 21
-120.165699
 31
0.0
  0
LINE
  5
364
100
AcDbEntity
  8
0
370
    -3
  6
Continuous
100
AcDbLine
 10
357.093423
 20
-119.349096
 30
0.0
 11
357.093423
 21
-120.165699
 31
0.0
  0
ELLIPSE
  5
365
100
AcDbEntity
  8
0
370
    -3
  6
Continuous
100
AcDbEllipse
 10
362.093423
 20
-119.349096
 30
0.0
 11
4.5
 21
0.0
 31
0.0
210
0.0
220
0.0
230
1.0
 40
0.707107
 41
3.1415926535897931
 42
0.0
  0
LINE
  5
366
100
AcDbEntity
  8
0
370
    -3
  6
Continuous
100
AcDbLine
 10
366.593423
 20
-118.78341
 30
0.0
 11
366.593423
 21
-119.349096
 31
0.0
  0
LINE
  5
367
100
AcDbEntity
  8
0
370
    -3
  6
Continuous
100
AcDbLine
 10
357.593423
 20
-118.78341
 30
0.0
 11
357.593423
 21
-119.349096
 31
0.0
  0
ELLIPSE
  5
368
100
AcDbEntity
  8
0
370
    -3
  6
Continuous
100
AcDbEllipse
 10
362.093423
 20
-119.349096
 30
0.0
 11
5.0
 21
0.0
 31
0.0
210
0.0
220
0.0
230
1.0
 40
0.707107
 41
2.4023208266492952
 42
3.1415926535897931
  0
ELLIPSE
  5
369
100
AcDbEntity
  8
0
370
    -3
  6
Continuous
100
AcDbEllipse
 10
362.093423
 20
-119.349096
 30
0.0
 11
5.0
 21
0.0
 31
0.0
210
0.0
220
0.0
230
1.0
 40
0.707107
 41
0.0
 42
0.7392718269407433
  0
ELLIPSE
  5
36A
100
AcDbEntity
  8
0
370
    -3
  6
Continuous
100
AcDbEllipse
 10
362.093423
 20
-118.246892
 30
0.0
 11
3.5
 21
0.0
 31
0.0
210
0.0
220
0.0
230
1.0
 40
0.860398
 41
0.0
 42
6.2831853071795862
  0
ELLIPSE
  5
36B
100
AcDbEntity
  8
0
370
    -3
  6
Continuous
100
AcDbEllipse
 10
362.093423
 20
-118.78341
 30
0.0
 11
4.5
 21
0.0
 31
0.0
210
0.0
220
0.0
230
1.0
 40
0.707107
 41
2.1587066623463373
 42
0.9828859912437924
  0
LINE
  5
36C
100
AcDbEntity
  8
0
370
    -3
  6
Continuous
100
AcDbLine
 10
362.093423
 20
-116.944932
 30
0.0
 11
360.093423
 21
-118.51827
 31
0.0
  0
LINE
  5
36D
100
AcDbEntity
  8
0
370
    -3
  6
Continuous
100
AcDbLine
 10
362.093423
 20
-116.944932
 30
0.0
 11
360.164218
 21
-115.73427
 31
0.0
  0
LINE
  5
36E
100
AcDbEntity
  8
0
370
    -3
  6
Continuous
100
AcDbLine
 10
362.093423
 20
-116.944932
 30
0.0
 11
364.093423
 21
-118.51827
 31
0.0
  0
LINE
  5
36F
100
AcDbEntity
  8
0
370
    -3
  6
Continuous
100
AcDbLine
 10
362.093423
 20
-116.944932
 30
0.0
 11
364.022628
 21
-115.73427
 31
0.0
  0
LINE
  5
370
100
AcDbEntity
  8
0
370
    -3
  6
Continuous
100
AcDbLine
 10
345.093423
 20
-106.472632
 30
0.0
 11
345.093423
 21
-177.19043
 31
0.0
  0
ARC
  5
371
100
AcDbEntity
  8
0
370
    -3
  6
Continuous
100
AcDbCircle
 10
348.093423
 20
-106.472632
 30
0.0
 40
3.0
100
AcDbArc
 50
90.0
 51
180.0
  0
LINE
  5
372
100
AcDbEntity
  8
0
370
    -3
  6
Continuous
100
AcDbLine
 10
365.093423
 20
-102.39043
 30
0.0
 11
365.093423
 21
-102.472632
 31
0.0
  0
LINE
  5
373
100
AcDbEntity
  8
0
370
    -3
  6
Continuous
100
AcDbLine
 10
364.093423
 20
-103.472632
 30
0.0
 11
348.093423
 21
-103.472632
 31
0.0
  0
ARC
  5
374
100
AcDbEntity
  8
0
370
    -3
  6
Continuous
100
AcDbCircle
 10
364.093423
 20
-102.472632
 30
0.0
 40
1.0
100
AcDbArc
 50
270.0
 51
0.0
  0
LINE
  5
375
100
AcDbEntity
  8
0
370
    -3
  6
Continuous
100
AcDbLine
 10
225.093423
 20
-128.268456
 30
0.0
 11
345.093423
 21
-128.268456
 31
0.0
  0
LINE
  5
376
100
AcDbEntity
  8
0
370
    -3
  6
Continuous
100
AcDbLine
 10
225.093423
 20
-121.338809
 30
0.0
 11
345.093423
 21
-121.338809
 31
0.0
  0
LINE
  5
377
100
AcDbEntity
  8
0
370
    -3
  6
Continuous
100
AcDbLine
 10
225.093423
 20
-233.042052
 30
0.0
 11
345.093423
 21
-233.042052
 31
0.0
  0
LINE
  5
378
100
AcDbEntity
  8
0
370
    -3
  6
Continuous
100
AcDbLine
 10
225.093423
 20
-226.112405
 30
0.0
 11
345.093423
 21
-226.112405
 31
0.0
  0
LINE
  5
379
100
AcDbEntity
  8
0
370
    -3
  6
Continuous
100
AcDbLine
 10
225.093423
 20
-248.19043
 30
0.0
 11
345.093423
 21
-248.19043
 31
0.0
  0
LINE
  5
37A
100
AcDbEntity
  8
0
370
    -3
  6
Continuous
100
AcDbLine
 10
362.093423
 20
-116.944932
 30
0.0
 11
364.022628
 21
-115.73427
 31
0.0
  0
LINE
  5
37B
100
AcDbEntity
  8
0
370
    -3
  6
Continuous
100
AcDbLine
 10
362.093423
 20
-116.944932
 30
0.0
 11
364.093423
 21
-118.51827
 31
0.0
  0
LINE
  5
37C
100
AcDbEntity
  8
0
370
    -3
  6
Continuous
100
AcDbLine
 10
362.093423
 20
-116.944932
 30
0.0
 11
360.164218
 21
-115.73427
 31
0.0
  0
LINE
  5
37D
100
AcDbEntity
  8
0
370
    -3
  6
Continuous
100
AcDbLine
 10
362.093423
 20
-116.944932
 30
0.0
 11
360.093423
 21
-118.51827
 31
0.0
  0
ELLIPSE
  5
37E
100
AcDbEntity
  8
0
370
    -3
  6
Continuous
100
AcDbEllipse
 10
362.093423
 20
-118.78341
 30
0.0
 11
4.5
 21
0.0
 31
0.0
210
0.0
220
0.0
230
1.0
 40
0.707107
 41
2.1587066623463373
 42
0.9828859912437924
  0
ELLIPSE
  5
37F
100
AcDbEntity
  8
0
370
    -3
  6
Continuous
100
AcDbEllipse
 10
362.093423
 20
-118.246892
 30
0.0
 11
3.5
 21
0.0
 31
0.0
210
0.0
220
0.0
230
1.0
 40
0.860398
 41
0.0
 42
6.2831853071795862
  0
ELLIPSE
  5
380
100
AcDbEntity
  8
0
370
    -3
  6
Continuous
100
AcDbEllipse
 10
362.093423
 20
-119.349096
 30
0.0
 11
5.0
 21
0.0
 31
0.0
210
0.0
220
0.0
230
1.0
 40
0.707107
 41
0.0
 42
0.7392718269407433
  0
ELLIPSE
  5
381
100
AcDbEntity
  8
0
370
    -3
  6
Continuous
100
AcDbEllipse
 10
362.093423
 20
-119.349096
 30
0.0
 11
5.0
 21
0.0
 31
0.0
210
0.0
220
0.0
230
1.0
 40
0.707107
 41
2.4023208266492952
 42
3.1415926535897931
  0
LINE
  5
382
100
AcDbEntity
  8
0
370
    -3
  6
Continuous
100
AcDbLine
 10
357.593423
 20
-118.78341
 30
0.0
 11
357.593423
 21
-119.349096
 31
0.0
  0
LINE
  5
383
100
AcDbEntity
  8
0
370
    -3
  6
Continuous
100
AcDbLine
 10
366.593423
 20
-118.78341
 30
0.0
 11
366.593423
 21
-119.349096
 31
0.0
  0
ELLIPSE
  5
384
100
AcDbEntity
  8
0
370
    -3
  6
Continuous
100
AcDbEllipse
 10
362.093423
 20
-119.349096
 30
0.0
 11
4.5
 21
0.0
 31
0.0
210
0.0
220
0.0
230
1.0
 40
0.707107
 41
3.1415926535897931
 42
0.0
  0
LINE
  5
385
100
AcDbEntity
  8
0
370
    -3
  6
Continuous
100
AcDbLine
 10
357.093423
 20
-119.349096
 30
0.0
 11
357.093423
 21
-120.165699
 31
0.0
  0
LINE
  5
386
100
AcDbEntity
  8
0
370
    -3
  6
Continuous
100
AcDbLine
 10
367.093423
 20
-119.349096
 30
0.0
 11
367.093423
 21
-120.165699
 31
0.0
  0
ELLIPSE
  5
387
100
AcDbEntity
  8
0
370
    -3
  6
Continuous
100
AcDbEllipse
 10
362.093423
 20
-120.165699
 30
0.0
 11
5.0
 21
0.0
 31
0.0
210
0.0
220
0.0
230
1.0
 40
0.707107
 41
3.1415926535897931
 42
0.0
  0
LINE
  5
388
100
AcDbEntity
  8
0
370
    -3
  6
Continuous
100
AcDbLine
 10
362.093423
 20
-237.435928
 30
0.0
 11
364.022628
 21
-238.646591
 31
0.0
  0
LINE
  5
389
100
AcDbEntity
  8
0
370
    -3
  6
Continuous
100
AcDbLine
 10
362.093423
 20
-237.435928
 30
0.0
 11
364.093423
 21
-235.862591
 31
0.0
  0
LINE
  5
38A
100
AcDbEntity
  8
0
370
    -3
  6
Continuous
100
AcDbLine
 10
362.093423
 20
-237.435928
 30
0.0
 11
360.164218
 21
-238.646591
 31
0.0
  0
LINE
  5
38B
100
AcDbEntity
  8
0
370
    -3
  6
Continuous
100
AcDbLine
 10
362.093423
 20
-237.435928
 30
0.0
 11
360.093423
 21
-235.862591
 31
0.0
  0
ELLIPSE
  5
38C
100
AcDbEntity
  8
0
370
    -3
  6
Continuous
100
AcDbEllipse
 10
362.093423
 20
-235.59745
 30
0.0
 11
4.5
 21
0.0
 31
0.0
210
0.0
220
0.0
230
1.0
 40
0.707107
 41
5.3002993159357938
 42
4.1244786448332489
  0
ELLIPSE
  5
38D
100
AcDbEntity
  8
0
370
    -3
  6
Continuous
100
AcDbEllipse
 10
362.093423
 20
-236.133969
 30
0.0
 11
3.5
 21
0.0
 31
0.0
210
0.0
220
0.0
230
1.0
 40
0.860398
 41
0.0
 42
6.2831853071795862
  0
ELLIPSE
  5
38E
100
AcDbEntity
  8
0
370
    -3
  6
Continuous
100
AcDbEllipse
 10
362.093423
 20
-235.031765
 30
0.0
 11
5.0
 21
0.0
 31
0.0
210
0.0
220
0.0
230
1.0
 40
0.707107
 41
5.5439134802388432
 42
0.0
  0
ELLIPSE
  5
38F
100
AcDbEntity
  8
0
370
    -3
  6
Continuous
100
AcDbEllipse
 10
362.093423
 20
-235.031765
 30
0.0
 11
5.0
 21
0.0
 31
0.0
210
0.0
220
0.0
230
1.0
 40
0.707107
 41
3.1415926535897931
 42
3.880864480530291
  0
LINE
  5
390
100
AcDbEntity
  8
0
370
    -3
  6
Continuous
100
AcDbLine
 10
357.593423
 20
-235.59745
 30
0.0
 11
357.593423
 21
-235.031765
 31
0.0
  0
LINE
  5
391
100
AcDbEntity
  8
0
370
    -3
  6
Continuous
100
AcDbLine
 10
366.593423
 20
-235.59745
 30
0.0
 11
366.593423
 21
-235.031765
 31
0.0
  0
ELLIPSE
  5
392
100
AcDbEntity
  8
0
370
    -3
  6
Continuous
100
AcDbEllipse
 10
362.093423
 20
-235.031765
 30
0.0
 11
4.5
 21
0.0
 31
0.0
210
0.0
220
0.0
230
1.0
 40
0.707107
 41
0.0
 42
3.1415926535897931
  0
LINE
  5
393
100
AcDbEntity
  8
0
370
    -3
  6
Continuous
100
AcDbLine
 10
357.093423
 20
-235.031765
 30
0.0
 11
357.093423
 21
-234.215162
 31
0.0
  0
LINE
  5
394
100
AcDbEntity
  8
0
370
    -3
  6
Continuous
100
AcDbLine
 10
367.093423
 20
-235.031765
 30
0.0
 11
367.093423
 21
-234.215162
 31
0.0
  0
ELLIPSE
  5
395
100
AcDbEntity
  8
0
370
    -3
  6
Continuous
100
AcDbEllipse
 10
362.093423
 20
-234.215162
 30
0.0
 11
5.0
 21
0.0
 31
0.0
210
0.0
220
0.0
230
1.0
 40
0.707107
 41
0.0
 42
3.1415926535897931
  0
LINE
  5
396
100
AcDbEntity
  8
0
370
    -3
  6
Continuous
100
AcDbLine
 10
345.093423
 20
-251.99043
 30
0.0
 11
345.093423
 21
-177.19043
 31
0.0
  0
LINE
  5
397
100
AcDbEntity
  8
0
370
    -3
  6
Continuous
100
AcDbLine
 10
345.093423
 20
-106.472632
 30
0.0
 11
345.093423
 21
-177.19043
 31
0.0
  0
ARC
  5
398
100
AcDbEntity
  8
0
370
    -3
  6
Continuous
100
AcDbCircle
 10
348.093423
 20
-106.472632
 30
0.0
 40
3.0
100
AcDbArc
 50
90.0
 51
180.0
  0
LINE
  5
399
100
AcDbEntity
  8
0
370
    -3
  6
Continuous
100
AcDbLine
 10
364.093423
 20
-103.472632
 30
0.0
 11
348.093423
 21
-103.472632
 31
0.0
  0
ARC
  5
39A
100
AcDbEntity
  8
0
370
    -3
  6
Continuous
100
AcDbCircle
 10
364.093423
 20
-102.472632
 30
0.0
 40
1.0
100
AcDbArc
 50
270.0
 51
0.0
  0
LINE
  5
39B
100
AcDbEntity
  8
0
370
    -3
  6
Continuous
100
AcDbLine
 10
365.093423
 20
-102.39043
 30
0.0
 11
365.093423
 21
-102.472632
 31
0.0
  0
LINE
  5
39C
100
AcDbEntity
  8
0
370
    -3
  6
Continuous
100
AcDbLine
 10
365.093423
 20
-102.39043
 30
0.0
 11
439.840588
 21
-102.39043
 31
0.0
  0
ARC
  5
39D
100
AcDbEntity
  8
0
370
    -3
  6
Continuous
100
AcDbCircle
 10
439.840588
 20
-133.19043
 30
0.0
 40
30.8
100
AcDbArc
 50
60.0
 51
90.0
  0
ARC
  5
39E
100
AcDbEntity
  8
0
370
    -3
  6
Continuous
100
AcDbCircle
 10
439.840588
 20
-221.19043
 30
0.0
 40
30.8
100
AcDbArc
 50
270.0
 51
300.0
  0
LINE
  5
39F
100
AcDbEntity
  8
0
370
    -3
  6
Continuous
100
AcDbLine
 10
345.093423
 20
-251.99043
 30
0.0
 11
439.840588
 21
-251.99043
 31
0.0
  0
ARC
  5
3A0
100
AcDbEntity
  8
0
370
    -3
  6
Continuous
100
AcDbCircle
 10
468.293423
 20
-235.940093
 30
0.0
 40
3.8
100
AcDbArc
 50
300.0
 51
0.0
  0
LINE
  5
3A1
100
AcDbEntity
  8
0
370
    -3
  6
Continuous
100
AcDbLine
 10
470.193423
 20
-239.230989
 30
0.0
 11
455.240588
 21
-247.864013
 31
0.0
  0
LINE
  5
3A2
100
AcDbEntity
  8
0
370
    -3
  6
Continuous
100
AcDbLine
 10
472.093423
 20
-177.19043
 30
0.0
 11
472.093423
 21
-235.940093
 31
0.0
  0
ARC
  5
3A3
100
AcDbEntity
  8
0
370
    -3
  6
Continuous
100
AcDbCircle
 10
468.293423
 20
-118.440768
 30
0.0
 40
3.8
100
AcDbArc
 50
0.0
 51
60.0
  0
LINE
  5
3A4
100
AcDbEntity
  8
0
370
    -3
  6
Continuous
100
AcDbLine
 10
472.093423
 20
-177.19043
 30
0.0
 11
472.093423
 21
-118.440768
 31
0.0
  0
LINE
  5
3A5
100
AcDbEntity
  8
0
370
    -3
  6
Continuous
100
AcDbLine
 10
470.193423
 20
-115.149871
 30
0.0
 11
455.240588
 21
-106.516848
 31
0.0
  0
LINE
  5
3A6
100
AcDbEntity
  8
0
370
    -3
  6
CENTER
100
AcDbLine
 10
173.401234
 20
-177.19043
 30
0.0
 11
498.679296
 21
-177.19043
 31
0.0
  0
ARC
  5
3A7
100
AcDbEntity
  8
0
370
    -3
  6
Continuous
100
AcDbCircle
 10
140.298908
 20
-67.69043
 30
0.0
 40
8.5
100
AcDbArc
 50
6.181154
 51
90.0
  0
LINE
  5
3A8
100
AcDbEntity
  8
0
370
    -3
  6
Continuous
100
AcDbLine
 10
290.195954
 20
146.265835
 30
0.0
 11
225.093423
 21
146.265835
 31
0.0
  0
LINE
  5
3A9
100
AcDbEntity
  8
0
370
    -3
  6
Continuous
100
AcDbLine
 10
290.195954
 20
145.066246
 30
0.0
 11
225.093423
 21
145.066246
 31
0.0
  0
LINE
  5
3AA
100
AcDbEntity
  8
0
370
    -3
  6
Continuous
100
AcDbLine
 10
225.093423
 20
137.066246
 30
0.0
 11
290.195954
 21
137.066246
 31
0.0
  0
LINE
  5
3AB
100
AcDbEntity
  8
0
370
    -3
  6
Continuous
100
AcDbLine
 10
225.093423
 20
138.265835
 30
0.0
 11
290.195954
 21
138.265835
 31
0.0
  0
LINE
  5
3AC
100
AcDbEntity
  8
0
370
    -3
  6
Continuous
100
AcDbLine
 10
345.093423
 20
121.81442
 30
0.0
 11
225.093423
 21
121.81442
 31
0.0
  0
LINE
  5
3AD
100
AcDbEntity
  8
0
370
    -3
  6
Continuous
100
AcDbLine
 10
345.093423
 20
128.744066
 30
0.0
 11
225.093423
 21
128.744066
 31
0.0
  0
LINE
  5
3AE
100
AcDbEntity
  8
0
370
    -3
  6
Continuous
100
AcDbLine
 10
345.093423
 20
226.588015
 30
0.0
 11
225.093423
 21
226.588015
 31
0.0
  0
LINE
  5
3AF
100
AcDbEntity
  8
0
370
    -3
  6
Continuous
100
AcDbLine
 10
345.093423
 20
233.517662
 30
0.0
 11
225.093423
 21
233.517662
 31
0.0
  0
LINE
  5
3B0
100
AcDbEntity
  8
0
370
    -3
  6
Continuous
100
AcDbLine
 10
225.093423
 20
157.166041
 30
0.0
 11
225.093423
 21
106.166041
 31
0.0
  0
LINE
  5
3B1
100
AcDbEntity
  8
0
370
    -3
  6
Continuous
100
AcDbLine
 10
225.093423
 20
198.166041
 30
0.0
 11
225.093423
 21
249.166041
 31
0.0
  0
LINE
  5
3B2
100
AcDbEntity
  8
0
370
    -3
  6
Continuous
100
AcDbLine
 10
290.195954
 20
153.666041
 30
0.0
 11
225.093423
 21
153.666041
 31
0.0
  0
LINE
  5
3B3
100
AcDbEntity
  8
0
370
    -3
  6
Continuous
100
AcDbLine
 10
345.093423
 20
115.666041
 30
0.0
 11
225.093423
 21
115.666041
 31
0.0
  0
LINE
  5
3B4
100
AcDbEntity
  8
0
370
    -3
  6
Continuous
100
AcDbLine
 10
345.093423
 20
106.166041
 30
0.0
 11
225.093423
 21
106.166041
 31
0.0
  0
LINE
  5
3B5
100
AcDbEntity
  8
0
370
    -3
  6
Continuous
100
AcDbLine
 10
345.093423
 20
108.166041
 30
0.0
 11
225.093423
 21
108.166041
 31
0.0
  0
LINE
  5
3B6
100
AcDbEntity
  8
0
370
    -3
  6
Continuous
100
AcDbLine
 10
345.093423
 20
106.666041
 30
0.0
 11
225.093423
 21
106.666041
 31
0.0
  0
LINE
  5
3B7
100
AcDbEntity
  8
0
370
    -3
  6
Continuous
100
AcDbLine
 10
345.093423
 20
111.166041
 30
0.0
 11
225.093423
 21
111.166041
 31
0.0
  0
LINE
  5
3B8
100
AcDbEntity
  8
0
370
    -3
  6
Continuous
100
AcDbLine
 10
290.195954
 20
201.666041
 30
0.0
 11
225.093423
 21
201.666041
 31
0.0
  0
LINE
  5
3B9
100
AcDbEntity
  8
0
370
    -3
  6
Continuous
100
AcDbLine
 10
290.195954
 20
209.066246
 30
0.0
 11
225.093423
 21
209.066246
 31
0.0
  0
LINE
  5
3BA
100
AcDbEntity
  8
0
370
    -3
  6
Continuous
100
AcDbLine
 10
290.195954
 20
210.265835
 30
0.0
 11
225.093423
 21
210.265835
 31
0.0
  0
LINE
  5
3BB
100
AcDbEntity
  8
0
370
    -3
  6
Continuous
100
AcDbLine
 10
345.093423
 20
239.666041
 30
0.0
 11
225.093423
 21
239.666041
 31
0.0
  0
LINE
  5
3BC
100
AcDbEntity
  8
0
370
    -3
  6
Continuous
100
AcDbLine
 10
345.093423
 20
249.166041
 30
0.0
 11
225.093423
 21
249.166041
 31
0.0
  0
LINE
  5
3BD
100
AcDbEntity
  8
0
370
    -3
  6
Continuous
100
AcDbLine
 10
345.093423
 20
247.166041
 30
0.0
 11
225.093423
 21
247.166041
 31
0.0
  0
LINE
  5
3BE
100
AcDbEntity
  8
0
370
    -3
  6
Continuous
100
AcDbLine
 10
345.093423
 20
248.666041
 30
0.0
 11
225.093423
 21
248.666041
 31
0.0
  0
LINE
  5
3BF
100
AcDbEntity
  8
0
370
    -3
  6
Continuous
100
AcDbLine
 10
345.093423
 20
244.166041
 30
0.0
 11
225.093423
 21
244.166041
 31
0.0
  0
LINE
  5
3C0
100
AcDbEntity
  8
0
370
    -3
  6
Continuous
100
AcDbLine
 10
225.093423
 20
218.265835
 30
0.0
 11
290.361777
 21
218.265835
 31
0.0
  0
LINE
  5
3C1
100
AcDbEntity
  8
0
370
    -3
  6
Continuous
100
AcDbLine
 10
225.093423
 20
217.066246
 30
0.0
 11
290.195954
 21
217.066246
 31
0.0
  0
POINT
  5
3C2
100
AcDbEntity
  8
0
370
    -3
  6
CENTER
100
AcDbPoint
 10
409.093423
 20
190.886541
 30
0.0
  0
LINE
  5
3C3
100
AcDbEntity
  8
0
370
    -3
  6
Continuous
100
AcDbLine
 10
345.093423
 20
102.866041
 30
0.0
 11
345.093423
 21
130.866041
 31
0.0
  0
ELLIPSE
  5
3C4
100
AcDbEntity
  8
0
370
    -3
  6
Continuous
100
AcDbEllipse
 10
362.093423
 20
120.641309
 30
0.0
 11
5.0
 21
0.0
 31
0.0
210
0.0
220
0.0
230
1.0
 40
0.707107
 41
0.0
 42
3.1415926535897931
  0
LINE
  5
3C5
100
AcDbEntity
  8
0
370
    -3
  6
Continuous
100
AcDbLine
 10
367.093423
 20
119.824706
 30
0.0
 11
367.093423
 21
120.641309
 31
0.0
  0
LINE
  5
3C6
100
AcDbEntity
  8
0
370
    -3
  6
Continuous
100
AcDbLine
 10
357.093423
 20
119.824706
 30
0.0
 11
357.093423
 21
120.641309
 31
0.0
  0
ELLIPSE
  5
3C7
100
AcDbEntity
  8
0
370
    -3
  6
Continuous
100
AcDbEllipse
 10
362.093423
 20
119.824706
 30
0.0
 11
4.5
 21
0.0
 31
0.0
210
0.0
220
0.0
230
1.0
 40
0.707107
 41
0.0
 42
3.1415926535897931
  0
LINE
  5
3C8
100
AcDbEntity
  8
0
370
    -3
  6
Continuous
100
AcDbLine
 10
366.593423
 20
119.259021
 30
0.0
 11
366.593423
 21
119.824706
 31
0.0
  0
LINE
  5
3C9
100
AcDbEntity
  8
0
370
    -3
  6
Continuous
100
AcDbLine
 10
357.593423
 20
119.259021
 30
0.0
 11
357.593423
 21
119.824706
 31
0.0
  0
ELLIPSE
  5
3CA
100
AcDbEntity
  8
0
370
    -3
  6
Continuous
100
AcDbEllipse
 10
362.093423
 20
119.824706
 30
0.0
 11
5.0
 21
0.0
 31
0.0
210
0.0
220
0.0
230
1.0
 40
0.707107
 41
3.1415926535897931
 42
3.8808644805305361
  0
ELLIPSE
  5
3CB
100
AcDbEntity
  8
0
370
    -3
  6
Continuous
100
AcDbEllipse
 10
362.093423
 20
119.824706
 30
0.0
 11
5.0
 21
0.0
 31
0.0
210
0.0
220
0.0
230
1.0
 40
0.707107
 41
5.5439134802390884
 42
0.0
  0
ELLIPSE
  5
3CC
100
AcDbEntity
  8
0
370
    -3
  6
Continuous
100
AcDbEllipse
 10
362.093423
 20
118.722502
 30
0.0
 11
3.5
 21
0.0
 31
0.0
210
0.0
220
0.0
230
1.0
 40
0.860398
 41
0.0
 42
6.2831853071795862
  0
ELLIPSE
  5
3CD
100
AcDbEntity
  8
0
370
    -3
  6
Continuous
100
AcDbEllipse
 10
362.093423
 20
119.259021
 30
0.0
 11
4.5
 21
0.0
 31
0.0
210
0.0
220
0.0
230
1.0
 40
0.707107
 41
5.3002993159361305
 42
4.1244786448335855
  0
LINE
  5
3CE
100
AcDbEntity
  8
0
370
    -3
  6
Continuous
100
AcDbLine
 10
362.093423
 20
117.420543
 30
0.0
 11
360.093423
 21
118.99388
 31
0.0
  0
LINE
  5
3CF
100
AcDbEntity
  8
0
370
    -3
  6
Continuous
100
AcDbLine
 10
362.093423
 20
117.420543
 30
0.0
 11
364.093423
 21
118.99388
 31
0.0
  0
LINE
  5
3D0
100
AcDbEntity
  8
0
370
    -3
  6
Continuous
100
AcDbLine
 10
362.093423
 20
117.420543
 30
0.0
 11
364.022628
 21
116.209881
 31
0.0
  0
LINE
  5
3D1
100
AcDbEntity
  8
0
370
    -3
  6
Continuous
100
AcDbLine
 10
362.093423
 20
117.420543
 30
0.0
 11
360.164218
 21
116.209881
 31
0.0
  0
LINE
  5
3D2
100
AcDbEntity
  8
0
370
    -3
  6
Continuous
100
AcDbLine
 10
362.093423
 20
237.911539
 30
0.0
 11
364.022628
 21
239.122201
 31
0.0
  0
LINE
  5
3D3
100
AcDbEntity
  8
0
370
    -3
  6
Continuous
100
AcDbLine
 10
362.093423
 20
237.911539
 30
0.0
 11
364.093423
 21
236.338201
 31
0.0
  0
LINE
  5
3D4
100
AcDbEntity
  8
0
370
    -3
  6
Continuous
100
AcDbLine
 10
362.093423
 20
237.911539
 30
0.0
 11
360.164218
 21
239.122201
 31
0.0
  0
LINE
  5
3D5
100
AcDbEntity
  8
0
370
    -3
  6
Continuous
100
AcDbLine
 10
362.093423
 20
237.911539
 30
0.0
 11
360.093423
 21
236.338201
 31
0.0
  0
ELLIPSE
  5
3D6
100
AcDbEntity
  8
0
370
    -3
  6
Continuous
100
AcDbEllipse
 10
362.093423
 20
236.073061
 30
0.0
 11
4.5
 21
0.0
 31
0.0
210
0.0
220
0.0
230
1.0
 40
0.707107
 41
2.1587066623460007
 42
0.9828859912434559
  0
ELLIPSE
  5
3D7
100
AcDbEntity
  8
0
370
    -3
  6
Continuous
100
AcDbEllipse
 10
362.093423
 20
236.609579
 30
0.0
 11
3.5
 21
0.0
 31
0.0
210
0.0
220
0.0
230
1.0
 40
0.860398
 41
0.0
 42
6.2831853071795862
  0
ELLIPSE
  5
3D8
100
AcDbEntity
  8
0
370
    -3
  6
Continuous
100
AcDbEllipse
 10
362.093423
 20
235.507375
 30
0.0
 11
5.0
 21
0.0
 31
0.0
210
0.0
220
0.0
230
1.0
 40
0.707107
 41
0.0
 42
0.7392718269404981
  0
ELLIPSE
  5
3D9
100
AcDbEntity
  8
0
370
    -3
  6
Continuous
100
AcDbEllipse
 10
362.093423
 20
235.507375
 30
0.0
 11
5.0
 21
0.0
 31
0.0
210
0.0
220
0.0
230
1.0
 40
0.707107
 41
2.4023208266490501
 42
3.1415926535897931
  0
LINE
  5
3DA
100
AcDbEntity
  8
0
370
    -3
  6
Continuous
100
AcDbLine
 10
357.593423
 20
236.073061
 30
0.0
 11
357.593423
 21
235.507375
 31
0.0
  0
LINE
  5
3DB
100
AcDbEntity
  8
0
370
    -3
  6
Continuous
100
AcDbLine
 10
366.593423
 20
236.073061
 30
0.0
 11
366.593423
 21
235.507375
 31
0.0
  0
ELLIPSE
  5
3DC
100
AcDbEntity
  8
0
370
    -3
  6
Continuous
100
AcDbEllipse
 10
362.093423
 20
235.507375
 30
0.0
 11
4.5
 21
0.0
 31
0.0
210
0.0
220
0.0
230
1.0
 40
0.707107
 41
3.1415926535897931
 42
0.0
  0
LINE
  5
3DD
100
AcDbEntity
  8
0
370
    -3
  6
Continuous
100
AcDbLine
 10
357.093423
 20
235.507375
 30
0.0
 11
357.093423
 21
234.690772
 31
0.0
  0
LINE
  5
3DE
100
AcDbEntity
  8
0
370
    -3
  6
Continuous
100
AcDbLine
 10
367.093423
 20
235.507375
 30
0.0
 11
367.093423
 21
234.690772
 31
0.0
  0
ELLIPSE
  5
3DF
100
AcDbEntity
  8
0
370
    -3
  6
Continuous
100
AcDbEllipse
 10
362.093423
 20
234.690772
 30
0.0
 11
5.0
 21
0.0
 31
0.0
210
0.0
220
0.0
230
1.0
 40
0.707107
 41
3.1415926535897931
 42
0.0
  0
LINE
  5
3E0
100
AcDbEntity
  8
0
370
    -3
  6
Continuous
100
AcDbLine
 10
345.093423
 20
252.466041
 30
0.0
 11
345.093423
 21
224.466041
 31
0.0
  0
LINE
  5
3E1
100
AcDbEntity
  8
0
370
    -3
  6
Continuous
100
AcDbLine
 10
345.093423
 20
102.866041
 30
0.0
 11
439.840588
 21
102.866041
 31
0.0
  0
LINE
  5
3E2
100
AcDbEntity
  8
0
370
    -3
  6
Continuous
100
AcDbLine
 10
345.093423
 20
252.466041
 30
0.0
 11
439.840588
 21
252.466041
 31
0.0
  0
LINE
  5
3E3
100
AcDbEntity
  8
0
370
    -3
  6
Continuous
100
AcDbLine
 10
472.093423
 20
177.666041
 30
0.0
 11
472.093423
 21
118.916378
 31
0.0
  0
ARC
  5
3E4
100
AcDbEntity
  8
0
370
    -3
  6
Continuous
100
AcDbCircle
 10
468.293423
 20
118.916378
 30
0.0
 40
3.8
100
AcDbArc
 50
300.0
 51
0.0
  0
LINE
  5
3E5
100
AcDbEntity
  8
0
370
    -3
  6
Continuous
100
AcDbLine
 10
470.193423
 20
115.625482
 30
0.0
 11
455.240588
 21
106.992458
 31
0.0
  0
ARC
  5
3E6
100
AcDbEntity
  8
0
370
    -3
  6
Continuous
100
AcDbCircle
 10
439.840588
 20
133.666041
 30
0.0
 40
30.8
100
AcDbArc
 50
270.0
 51
300.0
  0
ARC
  5
3E7
100
AcDbEntity
  8
0
370
    -3
  6
Continuous
100
AcDbCircle
 10
439.840588
 20
221.666041
 30
0.0
 40
30.8
100
AcDbArc
 50
60.0
 51
90.0
  0
ARC
  5
3E8
100
AcDbEntity
  8
0
370
    -3
  6
Continuous
100
AcDbCircle
 10
468.293423
 20
236.415703
 30
0.0
 40
3.8
100
AcDbArc
 50
0.0
 51
60.0
  0
LINE
  5
3E9
100
AcDbEntity
  8
0
370
    -3
  6
Continuous
100
AcDbLine
 10
472.093423
 20
177.666041
 30
0.0
 11
472.093423
 21
236.415703
 31
0.0
  0
LINE
  5
3EA
100
AcDbEntity
  8
0
370
    -3
  6
Continuous
100
AcDbLine
 10
470.193423
 20
239.7066
 30
0.0
 11
455.240588
 21
248.339623
 31
0.0
  0
MTEXT
  5
3EC
100
AcDbEntity
  8
0
370
    -3
  6
Continuous
100
AcDbMText
 10
-382.485107
 20
169.395416
 30
0.0
 40
15.0
 41
0.0
 71
     7
 72
     1
  1
\W0.48;GV-SHYMB-RL
  7
ZU_SHPTB00001
 11
1.0
 21
0.0
 31
0.0
 73
     1
 44
1.0
  0
MTEXT
  5
3ED
100
AcDbEntity
  8
0
370
    -3
  6
Continuous
100
AcDbMText
 10
-382.485107
 20
152.445404
 30
0.0
 40
15.0
 41
0.0
 71
     7
 72
     1
  1
\W0.43;1.5kW
  7
ZU_SHPTB00001
 11
1.0
 21
0.0
 31
0.0
 73
     1
 44
1.0
  0
MTEXT
  5
3EE
100
AcDbEntity
  8
0
370
    -3
  6
Continuous
100
AcDbMText
 10
-382.485107
 20
118.54541
 30
0.0
 40
15.0
 41
0.0
 71
     7
 72
     1
  1
\W0.42;GEAR\W0.70; \W0.42;RATIO\W0.70;  \W0.42;1/80-1/240
  7
ZU_SHPTB00001
 11
1.0
 21
0.0
 31
0.0
 73
     1
 44
1.0
  0
MTEXT
  5
3EF
100
AcDbEntity
  8
0
370
    -3
  6
Continuous
100
AcDbMText
 10
-382.485107
 20
135.495422
 30
0.0
 40
15.0
 41
0.0
 71
     7
 72
     1
  1
\W0.43;37.5-12.5r/min\W0.53;　
  7
ZU_SHPTB00001
 11
1.0
 21
0.0
 31
0.0
 73
     1
 44
1.0
  0
MTEXT
  5
3F0
100
AcDbEntity
  8
0
370
    -3
  6
Continuous
100
AcDbMText
 10
-382.485107
 20
101.595367
 30
0.0
 40
15.0
 41
0.0
 71
     7
 72
     1
  1
\W0.43;SCALE\W0.72;  \W0.43;1/1
  7
ZU_SHPTB00001
 11
1.0
 21
0.0
 31
0.0
 73
     1
 44
1.0
  0
MTEXT
  5
3F1
100
AcDbEntity
  8
0
370
    -3
  6
Continuous
100
AcDbMText
 10
-382.485107
 20
186.345428
 30
0.0
 40
15.0
 41
0.0
 71
     7
 72
     1
  1
\W0.63;三菱ギヤードモータ  
  7
ZU_SHPTB00001
 11
1.0
 21
0.0
 31
0.0
 73
     1
 44
1.0
  0
MTEXT
  5
3F2
100
AcDbEntity
  8
0
370
    -3
  6
Continuous
100
AcDbMText
 10
-382.485107
 20
186.345428
 30
0.0
 40
15.0
 41
0.0
 71
     7
 72
     1
  1
\W0.63;三菱ギヤードモータ  
  7
ZU_SHPTB00001
 11
1.0
 21
0.0
 31
0.0
 73
     1
 44
1.0
  0
ARC
  5
3F3
100
AcDbEntity
  8
0
370
    -3
  6
Continuous
100
AcDbCircle
 10
-361.655894
 20
-47.372904
 30
0.0
 40
6.8
100
AcDbArc
 50
90.0
 51
173.473269
  0
LINE
  5
3F4
100
AcDbEntity
  8
0
370
    -3
  6
Continuous
100
AcDbLine
 10
-298.155894
 20
-40.572904
 30
0.0
 11
-361.655894
 21
-40.572904
 31
0.0
  0
ARC
  5
3F5
100
AcDbEntity
  8
0
370
    -3
  6
Continuous
100
AcDbCircle
 10
-298.155894
 20
-47.372904
 30
0.0
 40
6.8
100
AcDbArc
 50
0.0
 51
90.0
  0
LINE
  5
3F6
100
AcDbEntity
  8
0
370
    -3
  6
Continuous
100
AcDbLine
 10
-283.105894
 20
-46.519282
 30
0.0
 11
-283.105894
 21
-48.392111
 31
0.0
  0
LINE
  5
3F7
100
AcDbEntity
  8
0
370
    -3
  6
Continuous
100
AcDbLine
 10
-291.355894
 20
-48.218792
 30
0.0
 11
-291.355894
 21
-47.372904
 31
0.0
  0
ARC
  5
3F8
100
AcDbEntity
  8
0
370
    -3
  6
DASHED
100
AcDbCircle
 10
-329.905894
 20
-64.19043
 30
0.0
 40
17.0
100
AcDbArc
 50
79.52287
 51
98.070099
  0
LINE
  5
3F9
100
AcDbEntity
  8
0
370
    -3
  6
Continuous
100
AcDbLine
 10
-367.815877
 20
-38.55741
 30
0.0
 11
-369.405894
 21
-39.067237
 31
0.0
  0
LINE
  5
3FA
100
AcDbEntity
  8
0
370
    -3
  6
Continuous
100
AcDbLine
 10
-369.405894
 20
-39.067237
 30
0.0
 11
-367.405894
 21
-40.116425
 31
0.0
  0
LINE
  5
3FB
100
AcDbEntity
  8
0
370
    -3
  6
Continuous
100
AcDbLine
 10
-369.405894
 20
-39.067237
 30
0.0
 11
-371.405894
 21
-40.116425
 31
0.0
  0
LINE
  5
3FC
100
AcDbEntity
  8
0
370
    -3
  6
Continuous
100
AcDbLine
 10
-370.99591
 20
-38.55741
 30
0.0
 11
-369.405894
 21
-39.067237
 31
0.0
  0
ELLIPSE
  5
3FD
100
AcDbEntity
  8
0
370
    -3
  6
Continuous
100
AcDbEllipse
 10
-369.405894
 20
-40.604691
 30
0.0
 11
3.5
 21
0.0
 31
0.0
210
0.0
220
0.0
230
1.0
 40
0.656603
 41
0.0
 42
6.2831853071795862
  0
ARC
  5
3FE
100
AcDbEntity
  8
0
370
    -3
  6
Continuous
100
AcDbCircle
 10
-368.905894
 20
-46.519282
 30
0.0
 40
7.8
100
AcDbArc
 50
118.12516
 51
179.312832
  0
LINE
  5
3FF
100
AcDbEntity
  8
0
370
    -3
  6
Continuous
100
AcDbLine
 10
-291.99591
 20
-38.55741
 30
0.0
 11
-290.405894
 21
-39.067237
 31
0.0
  0
LINE
  5
400
100
AcDbEntity
  8
0
370
    -3
  6
Continuous
100
AcDbLine
 10
-290.405894
 20
-39.067237
 30
0.0
 11
-292.405894
 21
-40.116425
 31
0.0
  0
LINE
  5
401
100
AcDbEntity
  8
0
370
    -3
  6
Continuous
100
AcDbLine
 10
-290.405894
 20
-39.067237
 30
0.0
 11
-288.405894
 21
-40.116425
 31
0.0
  0
LINE
  5
402
100
AcDbEntity
  8
0
370
    -3
  6
Continuous
100
AcDbLine
 10
-288.815877
 20
-38.55741
 30
0.0
 11
-290.405894
 21
-39.067237
 31
0.0
  0
ELLIPSE
  5
403
100
AcDbEntity
  8
0
370
    -3
  6
Continuous
100
AcDbEllipse
 10
-290.405894
 20
-40.604691
 30
0.0
 11
3.5
 21
0.0
 31
0.0
210
0.0
220
0.0
230
1.0
 40
0.656603
 41
0.0
 42
6.2831853071795862
  0
ARC
  5
404
100
AcDbEntity
  8
0
370
    -3
  6
Continuous
100
AcDbCircle
 10
-290.905894
 20
-46.519282
 30
0.0
 40
7.8
100
AcDbArc
 50
0.0
 51
61.87484
  0
LINE
  5
405
100
AcDbEntity
  8
0
370
    -3
  6
Continuous
100
AcDbLine
 10
-292.407075
 20
-38.719282
 30
0.0
 11
-367.404712
 21
-38.719282
 31
0.0
  0
ARC
  5
406
100
AcDbEntity
  8
0
370
    -3
  6
Continuous
100
AcDbCircle
 10
637.493423
 20
-94.79043
 30
0.0
 40
2.0
100
AcDbArc
 50
0.0
 51
90.0
  0
LINE
  5
407
100
AcDbEntity
  8
0
370
    -3
  6
Continuous
100
AcDbLine
 10
664.093423
 20
-91.19043
 30
0.0
 11
633.093423
 21
-91.19043
 31
0.0
  0
LINE
  5
408
100
AcDbEntity
  8
0
370
    -3
  6
Continuous
100
AcDbLine
 10
633.093423
 20
-91.19043
 30
0.0
 11
633.093423
 21
-92.79043
 31
0.0
  0
LINE
  5
409
100
AcDbEntity
  8
0
370
    -3
  6
Continuous
100
AcDbLine
 10
633.093423
 20
-92.79043
 30
0.0
 11
637.493423
 21
-92.79043
 31
0.0
  0
LINE
  5
40A
100
AcDbEntity
  8
0
370
    -3
  6
Continuous
100
AcDbLine
 10
633.093423
 20
-91.19043
 30
0.0
 11
633.093423
 21
-90.19043
 31
0.0
  0
ARC
  5
40B
100
AcDbEntity
  8
0
370
    -3
  6
Continuous
100
AcDbCircle
 10
690.693423
 20
-94.79043
 30
0.0
 40
2.0
100
AcDbArc
 50
90.0
 51
180.0
  0
LINE
  5
40C
100
AcDbEntity
  8
0
370
    -3
  6
Continuous
100
AcDbLine
 10
664.093423
 20
-91.19043
 30
0.0
 11
695.093423
 21
-91.19043
 31
0.0
  0
LINE
  5
40D
100
AcDbEntity
  8
0
370
    -3
  6
Continuous
100
AcDbLine
 10
664.093423
 20
-91.19043
 30
0.0
 11
695.093423
 21
-91.19043
 31
0.0
  0
LINE
  5
40E
100
AcDbEntity
  8
0
370
    -3
  6
Continuous
100
AcDbLine
 10
695.093423
 20
-91.19043
 30
0.0
 11
695.093423
 21
-92.79043
 31
0.0
  0
LINE
  5
40F
100
AcDbEntity
  8
0
370
    -3
  6
Continuous
100
AcDbLine
 10
695.093423
 20
-92.79043
 30
0.0
 11
690.693423
 21
-92.79043
 31
0.0
  0
LINE
  5
410
100
AcDbEntity
  8
0
370
    -3
  6
Continuous
100
AcDbLine
 10
695.093423
 20
-91.19043
 30
0.0
 11
695.093423
 21
-90.19043
 31
0.0
  0
ARC
  5
411
100
AcDbEntity
  8
0
370
    -3
  6
Continuous
100
AcDbCircle
 10
664.093423
 20
-64.19043
 30
0.0
 40
17.0
100
AcDbArc
 50
270.0
 51
90.0
  0
ARC
  5
412
100
AcDbEntity
  8
0
370
    -3
  6
Continuous
100
AcDbCircle
 10
664.093423
 20
-64.19043
 30
0.0
 40
12.0585
100
AcDbArc
 50
270.0
 51
90.0
  0
ARC
  5
413
100
AcDbEntity
  8
0
370
    -3
  6
Continuous
100
AcDbCircle
 10
664.093423
 20
-64.19043
 30
0.0
 40
13.2205
100
AcDbArc
 50
270.0
 51
90.0
  0
ARC
  5
414
100
AcDbEntity
  8
0
370
    -3
  6
Continuous
100
AcDbCircle
 10
625.093423
 20
-80.634907
 30
0.0
 40
7.8
100
AcDbArc
 50
180.0
 51
270.0
  0
LINE
  5
415
100
AcDbEntity
  8
0
370
    -3
  6
Continuous
100
AcDbLine
 10
618.093423
 20
-50.721895
 30
0.0
 11
618.093423
 21
-81.096812
 31
0.0
  0
ARC
  5
416
100
AcDbEntity
  8
0
370
    -3
  6
Continuous
100
AcDbCircle
 10
625.093423
 20
-50.721895
 30
0.0
 40
7.0
100
AcDbArc
 50
90.0
 51
180.0
  0
ARC
  5
417
100
AcDbEntity
  8
0
370
    -3
  6
Continuous
100
AcDbCircle
 10
625.093423
 20
-51.1838
 30
0.0
 40
7.8
100
AcDbArc
 50
90.0
 51
180.0
  0
ARC
  5
418
100
AcDbEntity
  8
0
370
    -3
  6
Continuous
100
AcDbCircle
 10
625.093423
 20
-46.519282
 30
0.0
 40
7.8
100
AcDbArc
 50
90.0
 51
180.0
  0
ELLIPSE
  5
419
100
AcDbEntity
  8
0
370
    -3
  6
Continuous
100
AcDbEllipse
 10
624.593423
 20
-40.604691
 30
0.0
 11
3.5
 21
0.0
 31
0.0
210
0.0
220
0.0
230
1.0
 40
0.656603
 41
0.9621393645106474
 42
2.7085416781362723
  0
LINE
  5
41A
100
AcDbEntity
  8
0
370
    -3
  6
Continuous
100
AcDbLine
 10
617.293423
 20
-46.519282
 30
0.0
 11
617.293423
 21
-80.634907
 31
0.0
  0
LINE
  5
41B
100
AcDbEntity
  8
0
370
    -3
  6
Continuous
100
AcDbLine
 10
664.093423
 20
-43.721895
 30
0.0
 11
625.093423
 21
-43.721895
 31
0.0
  0
LINE
  5
41C
100
AcDbEntity
  8
0
370
    -3
  6
Continuous
100
AcDbLine
 10
625.093423
 20
-38.719282
 30
0.0
 11
664.093423
 21
-38.719282
 31
0.0
  0
LINE
  5
41D
100
AcDbEntity
  8
0
370
    -3
  6
Continuous
100
AcDbLine
 10
633.093423
 20
-90.19043
 30
0.0
 11
664.093423
 21
-90.19043
 31
0.0
  0
ARC
  5
41E
100
AcDbEntity
  8
0
370
    -3
  6
Continuous
100
AcDbCircle
 10
625.093423
 20
-81.096812
 30
0.0
 40
7.0
100
AcDbArc
 50
180.0
 51
270.0
  0
LINE
  5
41F
100
AcDbEntity
  8
0
370
    -3
  6
Continuous
100
AcDbLine
 10
664.093423
 20
-90.19043
 30
0.0
 11
636.093423
 21
-90.19043
 31
0.0
  0
LINE
  5
420
100
AcDbEntity
  8
0
370
    -3
  6
Continuous
100
AcDbLine
 10
664.093423
 20
-44.954519
 30
0.0
 11
638.034389
 21
-44.954519
 31
0.0
  0
LINE
  5
421
100
AcDbEntity
  8
0
370
    -3
  6
Continuous
100
AcDbLine
 10
624.793423
 20
-82.39043
 30
0.0
 11
624.793423
 21
-52.757572
 31
0.0
  0
LINE
  5
422
100
AcDbEntity
  8
0
370
    -3
  6
Continuous
100
AcDbLine
 10
636.550992
 20
-45.256014
 30
0.0
 11
627.110026
 21
-49.259068
 31
0.0
  0
ARC
  5
423
100
AcDbEntity
  8
0
370
    -3
  6
Continuous
100
AcDbCircle
 10
638.034389
 20
-48.754519
 30
0.0
 40
3.8
100
AcDbArc
 50
90.0
 51
112.977375
  0
ARC
  5
424
100
AcDbEntity
  8
0
370
    -3
  6
Continuous
100
AcDbCircle
 10
628.593423
 20
-52.757572
 30
0.0
 40
3.8
100
AcDbArc
 50
112.977375
 51
180.0
  0
LINE
  5
425
100
AcDbEntity
  8
0
370
    -3
  6
Continuous
100
AcDbLine
 10
664.093423
 20
-89.19043
 30
0.0
 11
631.593423
 21
-89.19043
 31
0.0
  0
ARC
  5
426
100
AcDbEntity
  8
0
370
    -3
  6
Continuous
100
AcDbCircle
 10
631.593423
 20
-82.39043
 30
0.0
 40
6.8
100
AcDbArc
 50
180.0
 51
270.0
  0
LINE
  5
427
100
AcDbEntity
  8
0
370
    -3
  6
Continuous
100
AcDbLine
 10
625.642234
 20
-85.680317
 30
0.0
 11
624.593423
 21
-85.680317
 31
0.0
  0
ARC
  5
428
100
AcDbEntity
  8
0
370
    -3
  6
Continuous
100
AcDbCircle
 10
624.593423
 20
-79.680317
 30
0.0
 40
6.0
100
AcDbArc
 50
180.0
 51
270.0
  0
ARC
  5
429
100
AcDbEntity
  8
0
370
    -3
  6
Continuous
100
AcDbCircle
 10
634.828512
 20
-89.49043
 30
0.0
 40
0.3
100
AcDbArc
 50
13.342364
 51
90.0
  0
ARC
  5
42A
100
AcDbEntity
  8
0
370
    -3
  6
Continuous
100
AcDbCircle
 10
636.093423
 20
-89.19043
 30
0.0
 40
1.0
100
AcDbArc
 50
193.342364
 51
270.0
  0
LINE
  5
42B
100
AcDbEntity
  8
0
370
    -3
  6
CENTER
100
AcDbLine
 10
624.593423
 20
-47.079167
 30
0.0
 11
624.593423
 21
-42.634408
 31
0.0
  0
LINE
  5
42C
100
AcDbEntity
  8
0
370
    -3
  6
CENTER
100
AcDbLine
 10
621.728564
 20
-44.686346
 30
0.0
 11
627.339954
 21
-44.686346
 31
0.0
  0
ELLIPSE
  5
42D
100
AcDbEntity
  8
0
370
    -3
  6
Continuous
100
AcDbEllipse
 10
624.593423
 20
-44.686346
 30
0.0
 11
-1.6499999999999773
 21
0.0000000000000071
 31
0.0
210
0.0
220
0.0
230
1.0
 40
0.422618
 41
0.0
 42
6.2831853071795862
  0
ELLIPSE
  5
42E
100
AcDbEntity
  8
0
370
    -3
  6
Continuous
100
AcDbEllipse
 10
624.593423
 20
-44.686346
 30
0.0
 11
-2.0
 21
0.0000000000000142
 31
0.0
210
0.0
220
0.0
230
1.0
 40
0.422618
 41
0.0
 42
6.2831853071795862
  0
LINE
  5
42F
100
AcDbEntity
  8
0
370
    -3
  6
Continuous
100
AcDbLine
 10
627.895152
 20
-88.096812
 30
0.0
 11
625.093423
 21
-88.096812
 31
0.0
  0
LINE
  5
430
100
AcDbEntity
  8
0
370
    -3
  6
Continuous
100
AcDbLine
 10
625.093423
 20
-88.434907
 30
0.0
 11
628.47825
 21
-88.434907
 31
0.0
  0
LINE
  5
431
100
AcDbEntity
  8
0
370
    -3
  6
Continuous
100
AcDbLine
 10
618.593423
 20
-79.680317
 30
0.0
 11
618.593423
 21
-48.123819
 31
0.0
  0
LINE
  5
432
100
AcDbEntity
  8
0
370
    -3
  6
Continuous
100
AcDbLine
 10
664.093423
 20
-43.3838
 30
0.0
 11
625.093423
 21
-43.3838
 31
0.0
  0
LINE
  5
433
100
AcDbEntity
  8
0
370
    -3
  6
CENTER
100
AcDbLine
 10
682.738355
 20
-64.19043
 30
0.0
 11
642.792966
 21
-64.19043
 31
0.0
  0
ARC
  5
434
100
AcDbEntity
  8
0
370
    -3
  6
Continuous
100
AcDbCircle
 10
703.093423
 20
-80.634907
 30
0.0
 40
7.8
100
AcDbArc
 50
270.0
 51
0.0
  0
LINE
  5
435
100
AcDbEntity
  8
0
370
    -3
  6
Continuous
100
AcDbLine
 10
710.093423
 20
-50.721895
 30
0.0
 11
710.093423
 21
-81.096812
 31
0.0
  0
ARC
  5
436
100
AcDbEntity
  8
0
370
    -3
  6
Continuous
100
AcDbCircle
 10
703.093423
 20
-50.721895
 30
0.0
 40
7.0
100
AcDbArc
 50
0.0
 51
90.0
  0
ARC
  5
437
100
AcDbEntity
  8
0
370
    -3
  6
Continuous
100
AcDbCircle
 10
703.093423
 20
-51.1838
 30
0.0
 40
7.8
100
AcDbArc
 50
0.0
 51
90.0
  0
ARC
  5
438
100
AcDbEntity
  8
0
370
    -3
  6
Continuous
100
AcDbCircle
 10
703.093423
 20
-46.519282
 30
0.0
 40
7.8
100
AcDbArc
 50
0.0
 51
90.0
  0
ELLIPSE
  5
439
100
AcDbEntity
  8
0
370
    -3
  6
Continuous
100
AcDbEllipse
 10
703.593423
 20
-40.604691
 30
0.0
 11
3.5
 21
0.0
 31
0.0
210
0.0
220
0.0
230
1.0
 40
0.656603
 41
0.4330509754535478
 42
2.1794532890791989
  0
LINE
  5
43A
100
AcDbEntity
  8
0
370
    -3
  6
Continuous
100
AcDbLine
 10
710.893423
 20
-46.519282
 30
0.0
 11
710.893423
 21
-80.634907
 31
0.0
  0
LINE
  5
43B
100
AcDbEntity
  8
0
370
    -3
  6
Continuous
100
AcDbLine
 10
664.093423
 20
-43.721895
 30
0.0
 11
703.093423
 21
-43.721895
 31
0.0
  0
LINE
  5
43C
100
AcDbEntity
  8
0
370
    -3
  6
Continuous
100
AcDbLine
 10
703.093423
 20
-38.719282
 30
0.0
 11
664.093423
 21
-38.719282
 31
0.0
  0
LINE
  5
43D
100
AcDbEntity
  8
0
370
    -3
  6
Continuous
100
AcDbLine
 10
695.093423
 20
-90.19043
 30
0.0
 11
664.093423
 21
-90.19043
 31
0.0
  0
ARC
  5
43E
100
AcDbEntity
  8
0
370
    -3
  6
Continuous
100
AcDbCircle
 10
703.093423
 20
-81.096812
 30
0.0
 40
7.0
100
AcDbArc
 50
270.0
 51
0.0
  0
LINE
  5
43F
100
AcDbEntity
  8
0
370
    -3
  6
Continuous
100
AcDbLine
 10
664.093423
 20
-90.19043
 30
0.0
 11
692.093423
 21
-90.19043
 31
0.0
  0
LINE
  5
440
100
AcDbEntity
  8
0
370
    -3
  6
Continuous
100
AcDbLine
 10
664.093423
 20
-44.954519
 30
0.0
 11
690.152456
 21
-44.954519
 31
0.0
  0
LINE
  5
441
100
AcDbEntity
  8
0
370
    -3
  6
Continuous
100
AcDbLine
 10
703.393423
 20
-82.39043
 30
0.0
 11
703.393423
 21
-52.757572
 31
0.0
  0
LINE
  5
442
100
AcDbEntity
  8
0
370
    -3
  6
Continuous
100
AcDbLine
 10
691.635853
 20
-45.256014
 30
0.0
 11
701.07682
 21
-49.259068
 31
0.0
  0
ARC
  5
443
100
AcDbEntity
  8
0
370
    -3
  6
Continuous
100
AcDbCircle
 10
690.152456
 20
-48.754519
 30
0.0
 40
3.8
100
AcDbArc
 50
67.022625
 51
90.0
  0
ARC
  5
444
100
AcDbEntity
  8
0
370
    -3
  6
Continuous
100
AcDbCircle
 10
699.593423
 20
-52.757572
 30
0.0
 40
3.8
100
AcDbArc
 50
0.0
 51
67.022625
  0
LINE
  5
445
100
AcDbEntity
  8
0
370
    -3
  6
Continuous
100
AcDbLine
 10
664.093423
 20
-89.19043
 30
0.0
 11
696.593423
 21
-89.19043
 31
0.0
  0
ARC
  5
446
100
AcDbEntity
  8
0
370
    -3
  6
Continuous
100
AcDbCircle
 10
696.593423
 20
-82.39043
 30
0.0
 40
6.8
100
AcDbArc
 50
270.0
 51
0.0
  0
LINE
  5
447
100
AcDbEntity
  8
0
370
    -3
  6
Continuous
100
AcDbLine
 10
702.544611
 20
-85.680317
 30
0.0
 11
703.593423
 21
-85.680317
 31
0.0
  0
ARC
  5
448
100
AcDbEntity
  8
0
370
    -3
  6
Continuous
100
AcDbCircle
 10
703.593423
 20
-79.680317
 30
0.0
 40
6.0
100
AcDbArc
 50
270.0
 51
0.0
  0
ARC
  5
449
100
AcDbEntity
  8
0
370
    -3
  6
Continuous
100
AcDbCircle
 10
693.358334
 20
-89.49043
 30
0.0
 40
0.3
100
AcDbArc
 50
90.0
 51
166.657636
  0
ARC
  5
44A
100
AcDbEntity
  8
0
370
    -3
  6
Continuous
100
AcDbCircle
 10
692.093423
 20
-89.19043
 30
0.0
 40
1.0
100
AcDbArc
 50
270.0
 51
346.657636
  0
LINE
  5
44B
100
AcDbEntity
  8
0
370
    -3
  6
CENTER
100
AcDbLine
 10
703.593423
 20
-47.079167
 30
0.0
 11
703.593423
 21
-42.634408
 31
0.0
  0
LINE
  5
44C
100
AcDbEntity
  8
0
370
    -3
  6
CENTER
100
AcDbLine
 10
706.458282
 20
-44.686346
 30
0.0
 11
700.846892
 21
-44.686346
 31
0.0
  0
ELLIPSE
  5
44D
100
AcDbEntity
  8
0
370
    -3
  6
Continuous
100
AcDbEllipse
 10
703.593423
 20
-44.686346
 30
0.0
 11
1.6499999999999773
 21
0.0000000000000071
 31
0.0
210
0.0
220
0.0
230
1.0
 40
0.422618
 41
0.0
 42
6.2831853071795862
  0
ELLIPSE
  5
44E
100
AcDbEntity
  8
0
370
    -3
  6
Continuous
100
AcDbEllipse
 10
703.593423
 20
-44.686346
 30
0.0
 11
2.0
 21
0.0000000000000142
 31
0.0
210
0.0
220
0.0
230
1.0
 40
0.422618
 41
0.0
 42
6.2831853071795862
  0
LINE
  5
44F
100
AcDbEntity
  8
0
370
    -3
  6
Continuous
100
AcDbLine
 10
700.291693
 20
-88.096812
 30
0.0
 11
703.093423
 21
-88.096812
 31
0.0
  0
LINE
  5
450
100
AcDbEntity
  8
0
370
    -3
  6
Continuous
100
AcDbLine
 10
703.093423
 20
-88.434907
 30
0.0
 11
699.708596
 21
-88.434907
 31
0.0
  0
LINE
  5
451
100
AcDbEntity
  8
0
370
    -3
  6
Continuous
100
AcDbLine
 10
709.593423
 20
-79.680317
 30
0.0
 11
709.593423
 21
-48.123819
 31
0.0
  0
LINE
  5
452
100
AcDbEntity
  8
0
370
    -3
  6
Continuous
100
AcDbLine
 10
664.093423
 20
-43.3838
 30
0.0
 11
703.093423
 21
-43.3838
 31
0.0
  0
ARC
  5
453
100
AcDbEntity
  8
0
370
    -3
  6
Continuous
100
AcDbCircle
 10
664.093423
 20
-64.19043
 30
0.0
 40
17.0
100
AcDbArc
 50
90.0
 51
270.0
  0
ARC
  5
454
100
AcDbEntity
  8
0
370
    -3
  6
Continuous
100
AcDbCircle
 10
664.093423
 20
-64.19043
 30
0.0
 40
12.0585
100
AcDbArc
 50
90.0
 51
270.0
  0
ARC
  5
455
100
AcDbEntity
  8
0
370
    -3
  6
Continuous
100
AcDbCircle
 10
664.093423
 20
-64.19043
 30
0.0
 40
13.2205
100
AcDbArc
 50
90.0
 51
270.0
  0
LINE
  5
456
100
AcDbEntity
  8
0
370
    -3
  6
Continuous
100
AcDbLine
 10
637.262052
 20
-82.39043
 30
0.0
 11
637.262052
 21
-45.033834
 31
0.0
  0
ARC
  5
457
100
AcDbEntity
  8
0
370
    -3
  6
Continuous
100
AcDbCircle
 10
644.062052
 20
-82.39043
 30
0.0
 40
6.8
100
AcDbArc
 50
180.0
 51
270.0
  0
ARC
  5
458
100
AcDbEntity
  8
0
370
    -3
  6
Continuous
100
AcDbCircle
 10
684.124794
 20
-82.39043
 30
0.0
 40
6.8
100
AcDbArc
 50
270.0
 51
0.0
  0
LINE
  5
459
100
AcDbEntity
  8
0
370
    -3
  6
Continuous
100
AcDbLine
 10
690.924794
 20
-82.39043
 30
0.0
 11
690.924794
 21
-45.033834
 31
0.0
  0
LINE
  5
45A
100
AcDbEntity
  8
0
370
    -3
  6
Continuous
100
AcDbLine
 10
688.693423
 20
-94.79043
 30
0.0
 11
688.693423
 21
-102.99043
 31
0.0
  0
ARC
  5
45B
100
AcDbEntity
  8
0
370
    -3
  6
Continuous
100
AcDbCircle
 10
685.493423
 20
-102.874281
 30
0.0
 40
3.2
100
AcDbArc
 50
350.167578
 51
0.0
  0
LINE
  5
45C
100
AcDbEntity
  8
0
370
    -3
  6
Continuous
100
AcDbLine
 10
639.493423
 20
-94.79043
 30
0.0
 11
639.493423
 21
-102.99043
 31
0.0
  0
ARC
  5
45D
100
AcDbEntity
  8
0
370
    -3
  6
Continuous
100
AcDbCircle
 10
642.693423
 20
-102.874281
 30
0.0
 40
3.2
100
AcDbArc
 50
180.0
 51
189.832422
  0
LINE
  5
45E
100
AcDbEntity
  8
0
370
    -3
  6
Continuous
100
AcDbLine
 10
335.093423
 20
-91.19043
 30
0.0
 11
304.093423
 21
-91.19043
 31
0.0
  0
ARC
  5
45F
100
AcDbEntity
  8
0
370
    -3
  6
Continuous
100
AcDbCircle
 10
307.893423
 20
-94.39043
 30
0.0
 40
1.6
100
AcDbArc
 50
0.0
 51
90.0
  0
LINE
  5
460
100
AcDbEntity
  8
0
370
    -3
  6
Continuous
100
AcDbLine
 10
304.093423
 20
-91.19043
 30
0.0
 11
304.093423
 21
-92.79043
 31
0.0
  0
LINE
  5
461
100
AcDbEntity
  8
0
370
    -3
  6
Continuous
100
AcDbLine
 10
304.093423
 20
-92.79043
 30
0.0
 11
335.093423
 21
-92.79043
 31
0.0
  0
LINE
  5
462
100
AcDbEntity
  8
0
370
    -3
  6
Continuous
100
AcDbLine
 10
309.493423
 20
-102.99043
 30
0.0
 11
309.493423
 21
-94.39043
 31
0.0
  0
ARC
  5
463
100
AcDbEntity
  8
0
370
    -3
  6
Continuous
100
AcDbCircle
 10
312.693423
 20
-102.99043
 30
0.0
 40
3.2
100
AcDbArc
 50
180.0
 51
270.0
  0
LINE
  5
464
100
AcDbEntity
  8
0
370
    -3
  6
Continuous
100
AcDbLine
 10
345.093423
 20
-106.19043
 30
0.0
 11
311.093423
 21
-106.19043
 31
0.0
  0
LINE
  5
465
100
AcDbEntity
  8
0
370
    -3
  6
Continuous
100
AcDbLine
 10
311.093423
 20
-107.19043
 30
0.0
 11
311.093423
 21
-106.19043
 31
0.0
  0
LINE
  5
466
100
AcDbEntity
  8
0
370
    -3
  6
Continuous
100
AcDbLine
 10
366.093423
 20
-91.19043
 30
0.0
 11
366.093423
 21
-92.79043
 31
0.0
  0
LINE
  5
467
100
AcDbEntity
  8
0
370
    -3
  6
Continuous
100
AcDbLine
 10
335.093423
 20
-91.19043
 30
0.0
 11
366.093423
 21
-91.19043
 31
0.0
  0
LINE
  5
468
100
AcDbEntity
  8
0
370
    -3
  6
Continuous
100
AcDbLine
 10
366.093423
 20
-91.19043
 30
0.0
 11
304.093423
 21
-91.19043
 31
0.0
  0
ARC
  5
469
100
AcDbEntity
  8
0
370
    -3
  6
Continuous
100
AcDbCircle
 10
362.293423
 20
-94.39043
 30
0.0
 40
1.6
100
AcDbArc
 50
90.0
 51
180.0
  0
LINE
  5
46A
100
AcDbEntity
  8
0
370
    -3
  6
Continuous
100
AcDbLine
 10
366.093423
 20
-92.79043
 30
0.0
 11
335.093423
 21
-92.79043
 31
0.0
  0
LINE
  5
46B
100
AcDbEntity
  8
0
370
    -3
  6
Continuous
100
AcDbLine
 10
360.693423
 20
-102.99043
 30
0.0
 11
360.693423
 21
-94.39043
 31
0.0
  0
ARC
  5
46C
100
AcDbEntity
  8
0
370
    -3
  6
Continuous
100
AcDbCircle
 10
357.493423
 20
-102.99043
 30
0.0
 40
3.2
100
AcDbArc
 50
351.333191
 51
0.0
  0
LINE
  5
46D
100
AcDbEntity
  8
0
370
    -3
  6
Continuous
100
AcDbLine
 10
373.293423
 20
-89.19043
 30
0.0
 11
303.655269
 21
-89.19043
 31
0.0
  0
ARC
  5
46E
100
AcDbEntity
  8
0
370
    -3
  6
Continuous
100
AcDbCircle
 10
365.417729
 20
-86.19043
 30
0.0
 40
3.0
100
AcDbArc
 50
270.0
 51
0.0
  0
LINE
  5
46F
100
AcDbEntity
  8
0
370
    -3
  6
Continuous
100
AcDbLine
 10
368.417729
 20
-52.826415
 30
0.0
 11
368.417729
 21
-86.19043
 31
0.0
  0
LINE
  5
470
100
AcDbEntity
  8
0
370
    -3
  6
Continuous
100
AcDbLine
 10
299.305535
 20
-85.053961
 30
0.0
 11
300.2113
 21
-86.99638
 31
0.0
  0
LINE
  5
471
100
AcDbEntity
  8
0
370
    -3
  6
Continuous
100
AcDbLine
 10
380.093423
 20
-47.38195
 30
0.0
 11
380.093423
 21
-82.39043
 31
0.0
  0
LINE
  5
472
100
AcDbEntity
  8
0
370
    -3
  6
Continuous
100
AcDbLine
 10
380.504138
 20
-47.19043
 30
0.0
 11
388.667483
 21
-43.3838
 31
0.0
  0
LINE
  5
473
100
AcDbEntity
  8
0
370
    -3
  6
Continuous
100
AcDbLine
 10
292.055073
 20
-88.434907
 30
0.0
 11
380.504138
 21
-47.19043
 31
0.0
  0
LINE
  5
474
100
AcDbEntity
  8
0
370
    -3
  6
Continuous
100
AcDbLine
 10
310.906275
 20
-79.644447
 30
0.0
 11
314.334537
 21
-86.99638
 31
0.0
  0
ARC
  5
475
100
AcDbEntity
  8
0
370
    -3
  6
Continuous
100
AcDbCircle
 10
317.778507
 20
-85.39043
 30
0.0
 40
3.8
100
AcDbArc
 50
205.0
 51
270.0
  0
ARC
  5
476
100
AcDbEntity
  8
0
370
    -3
  6
Continuous
100
AcDbCircle
 10
591.919063
 20
-139.875827
 30
0.0
 40
300.8
100
AcDbArc
 50
162.341575
 51
167.89975
  0
ARC
  5
477
100
AcDbEntity
  8
0
370
    -3
  6
Continuous
100
AcDbCircle
 10
340.675821
 20
-641.372904
 30
0.0
 40
600.8
100
AcDbArc
 50
86.682408
 51
92.437505
  0
ARC
  5
478
100
AcDbEntity
  8
0
370
    -3
  6
Continuous
100
AcDbCircle
 10
304.693606
 20
-60.468416
 30
0.0
 40
2.8
100
AcDbArc
 50
164.545811
 51
205.0
  0
ARC
  5
479
100
AcDbEntity
  8
0
370
    -3
  6
Continuous
100
AcDbCircle
 10
369.112026
 20
-42.792934
 30
0.0
 40
3.0
100
AcDbArc
 50
205.0
 51
295.0
  0
LINE
  5
47A
100
AcDbEntity
  8
0
370
    -3
  6
Continuous
100
AcDbLine
 10
366.393103
 20
-44.060788
 30
0.0
 11
365.718073
 21
-42.613181
 31
0.0
  0
ARC
  5
47B
100
AcDbEntity
  8
0
370
    -3
  6
Continuous
100
AcDbCircle
 10
363.180411
 20
-43.796512
 30
0.0
 40
2.8
100
AcDbArc
 50
25.0
 51
87.843273
  0
LINE
  5
47C
100
AcDbEntity
  8
0
370
    -3
  6
Continuous
100
AcDbLine
 10
302.155944
 20
-61.651747
 30
0.0
 11
306.891371
 21
-71.806902
 31
0.0
  0
ARC
  5
47D
100
AcDbEntity
  8
0
370
    -3
  6
Continuous
100
AcDbCircle
 10
304.172447
 20
-73.074757
 30
0.0
 40
3.0
100
AcDbArc
 50
295.0
 51
25.0
  0
LINE
  5
47E
100
AcDbEntity
  8
0
370
    -3
  6
Continuous
100
AcDbLine
 10
291.235241
 20
-82.417609
 30
0.0
 11
384.584943
 21
-38.887928
 31
0.0
  0
LINE
  5
47F
100
AcDbEntity
  8
0
370
    -3
  6
CENTER
100
AcDbLine
 10
411.572046
 20
-64.19043
 30
0.0
 11
371.26556
 21
-64.19043
 31
0.0
  0
ARC
  5
480
100
AcDbEntity
  8
0
370
    -3
  6
Continuous
100
AcDbCircle
 10
298.253211
 20
-78.064841
 30
0.0
 40
1.299999
100
AcDbArc
 50
24.999999
 51
98.398469
  0
LINE
  5
481
100
AcDbEntity
  8
0
370
    -3
  6
Continuous
100
AcDbLine
 10
299.845165
 20
-78.402736
 30
0.0
 11
299.431411
 21
-77.515437
 31
0.0
  0
ARC
  5
482
100
AcDbEntity
  8
0
370
    -3
  6
Continuous
100
AcDbCircle
 10
299.377844
 20
-85.682269
 30
0.0
 40
9.0
100
AcDbArc
 50
98.398469
 51
131.601548
  0
ARC
  5
483
100
AcDbEntity
  8
0
370
    -3
  6
Continuous
100
AcDbCircle
 10
294.265456
 20
-79.924362
 30
0.0
 40
1.299999
100
AcDbArc
 50
131.601548
 51
205.000018
  0
LINE
  5
484
100
AcDbEntity
  8
0
370
    -3
  6
CENTER
100
AcDbLine
 10
297.930761
 20
-82.57899
 30
0.0
 11
295.060841
 21
-76.424425
 31
0.0
  0
LINE
  5
485
100
AcDbEntity
  8
0
370
    -3
  6
Continuous
100
AcDbLine
 10
293.50101
 20
-81.361063
 30
0.0
 11
293.087256
 21
-80.473765
 31
0.0
  0
ARC
  5
486
100
AcDbEntity
  8
0
370
    -3
  6
Continuous
100
AcDbCircle
 10
380.72722
 20
-39.606579
 30
0.0
 40
1.299999
100
AcDbArc
 50
24.999999
 51
98.398469
  0
ARC
  5
487
100
AcDbEntity
  8
0
370
    -3
  6
Continuous
100
AcDbCircle
 10
376.739464
 20
-41.4661
 30
0.0
 40
1.299999
100
AcDbArc
 50
131.601548
 51
205.000018
  0
LINE
  5
488
100
AcDbEntity
  8
0
370
    -3
  6
Continuous
100
AcDbLine
 10
382.319173
 20
-39.944474
 30
0.0
 11
381.905419
 21
-39.057175
 31
0.0
  0
LINE
  5
489
100
AcDbEntity
  8
0
370
    -3
  6
Continuous
100
AcDbLine
 10
375.975019
 20
-42.902802
 30
0.0
 11
375.561265
 21
-42.015503
 31
0.0
  0
POINT
  5
48A
100
AcDbEntity
  8
0
370
    -3
  6
Continuous
100
AcDbPoint
 10
379.147096
 20
-41.423638
 30
0.0
  0
ARC
  5
48B
100
AcDbEntity
  8
0
370
    -3
  6
Continuous
100
AcDbCircle
 10
381.851853
 20
-47.224007
 30
0.0
 40
9.0
100
AcDbArc
 50
98.398469
 51
131.601548
  0
ARC
  5
48C
100
AcDbEntity
  8
0
370
    -3
  6
Continuous
100
AcDbCircle
 10
315.583328
 20
-51.906733
 30
0.0
 40
10.8
100
AcDbArc
 50
92.437505
 51
162.341575
  0
LINE
  5
48D
100
AcDbEntity
  8
0
370
    -3
  6
CENTER
100
AcDbLine
 10
380.40477
 20
-44.120728
 30
0.0
 11
377.534849
 21
-37.966164
 31
0.0
  0
POINT
  5
48E
100
AcDbEntity
  8
0
370
    -3
  6
Continuous
100
AcDbPoint
 10
296.696798
 20
-79.870843
 30
0.0
  0
LINE
  5
48F
100
AcDbEntity
  8
0
370
    -3
  6
CENTER
100
AcDbLine
 10
297.930761
 20
-82.57899
 30
0.0
 11
295.060841
 21
-76.424425
 31
0.0
  0
ARC
  5
490
100
AcDbEntity
  8
0
370
    -3
  6
Continuous
100
AcDbCircle
 10
291.995954
 20
-84.048963
 30
0.0
 40
1.8
100
AcDbArc
 50
115.0
 51
205.0
  0
LINE
  5
491
100
AcDbEntity
  8
0
370
    -3
  6
Continuous
100
AcDbLine
 10
290.364599
 20
-84.809676
 30
0.0
 11
292.055073
 21
-88.434907
 31
0.0
  0
ARC
  5
492
100
AcDbEntity
  8
0
370
    -3
  6
Continuous
100
AcDbCircle
 10
385.345656
 20
-40.519282
 30
0.0
 40
1.8
100
AcDbArc
 50
25.0
 51
115.0
  0
LINE
  5
493
100
AcDbEntity
  8
0
370
    -3
  6
Continuous
100
AcDbLine
 10
386.97701
 20
-39.758569
 30
0.0
 11
388.667483
 21
-43.3838
 31
0.0
  0
ARC
  5
494
100
AcDbEntity
  8
0
370
    -3
  6
Continuous
100
AcDbCircle
 10
303.655269
 20
-85.39043
 30
0.0
 40
3.8
100
AcDbArc
 50
205.0
 51
270.0
  0
ARC
  5
495
100
AcDbEntity
  8
0
370
    -3
  6
Continuous
100
AcDbCircle
 10
373.293423
 20
-82.39043
 30
0.0
 40
6.8
100
AcDbArc
 50
270.0
 51
0.0
  0
ARC
  5
496
100
AcDbEntity
  8
0
370
    -3
  6
Continuous
100
AcDbCircle
 10
307.093423
 20
-89.19043
 30
0.0
 40
1.0
100
AcDbArc
 50
193.342364
 51
270.0
  0
LINE
  5
497
100
AcDbEntity
  8
0
370
    -3
  6
Continuous
100
AcDbLine
 10
366.093423
 20
-90.19043
 30
0.0
 11
304.093423
 21
-90.19043
 31
0.0
  0
LINE
  5
498
100
AcDbEntity
  8
0
370
    -3
  6
Continuous
100
AcDbLine
 10
304.093423
 20
-91.19043
 30
0.0
 11
304.093423
 21
-90.19043
 31
0.0
  0
ARC
  5
499
100
AcDbEntity
  8
0
370
    -3
  6
Continuous
100
AcDbCircle
 10
305.828512
 20
-89.49043
 30
0.0
 40
0.3
100
AcDbArc
 50
13.342364
 51
90.0
  0
ARC
  5
49A
100
AcDbEntity
  8
0
370
    -3
  6
Continuous
100
AcDbCircle
 10
363.093423
 20
-89.19043
 30
0.0
 40
1.0
100
AcDbArc
 50
270.0
 51
346.657636
  0
LINE
  5
49B
100
AcDbEntity
  8
0
370
    -3
  6
Continuous
100
AcDbLine
 10
366.093423
 20
-91.19043
 30
0.0
 11
366.093423
 21
-90.19043
 31
0.0
  0
ARC
  5
49C
100
AcDbEntity
  8
0
370
    -3
  6
Continuous
100
AcDbCircle
 10
364.358334
 20
-89.49043
 30
0.0
 40
0.3
100
AcDbArc
 50
90.0
 51
166.657636
  0
LINE
  5
49D
100
AcDbEntity
  8
0
370
    -3
  6
CENTER
100
AcDbLine
 10
335.093423
 20
-101.967847
 30
0.0
 11
335.093423
 21
-79.057871
 31
0.0
  0
LINE
  5
49E
100
AcDbEntity
  8
0
370
    -3
  6
Continuous
100
AcDbLine
 10
407.093423
 20
-47.19043
 30
0.0
 11
380.504138
 21
-47.19043
 31
0.0
  0
ARC
  5
49F
100
AcDbEntity
  8
0
370
    -3
  6
Continuous
100
AcDbCircle
 10
407.093423
 20
-49.19043
 30
0.0
 40
2.0
100
AcDbArc
 50
0.0
 51
90.0
  0
LINE
  5
4A0
100
AcDbEntity
  8
0
370
    -3
  6
Continuous
100
AcDbLine
 10
409.093423
 20
-64.19043
 30
0.0
 11
409.093423
 21
-49.19043
 31
0.0
  0
LINE
  5
4A1
100
AcDbEntity
  8
0
370
    -3
  6
Continuous
100
AcDbLine
 10
407.093423
 20
-81.19043
 30
0.0
 11
380.093423
 21
-81.19043
 31
0.0
  0
ARC
  5
4A2
100
AcDbEntity
  8
0
370
    -3
  6
Continuous
100
AcDbCircle
 10
407.093423
 20
-79.19043
 30
0.0
 40
2.0
100
AcDbArc
 50
270.0
 51
0.0
  0
LINE
  5
4A3
100
AcDbEntity
  8
0
370
    -3
  6
Continuous
100
AcDbLine
 10
409.093423
 20
-64.19043
 30
0.0
 11
409.093423
 21
-79.19043
 31
0.0
  0
LINE
  5
4A4
100
AcDbEntity
  8
0
370
    -3
  6
Continuous
100
AcDbLine
 10
382.093423
 20
-64.19043
 30
0.0
 11
382.093423
 21
-81.19043
 31
0.0
  0
LINE
  5
4A5
100
AcDbEntity
  8
0
370
    -3
  6
Continuous
100
AcDbLine
 10
382.093423
 20
-64.19043
 30
0.0
 11
382.093423
 21
-47.19043
 31
0.0
  0
POINT
  5
4A6
100
AcDbEntity
  8
0
370
    -3
  6
CENTER
100
AcDbPoint
 10
409.093423
 20
-50.96993
 30
0.0
  0
POINT
  5
4A7
100
AcDbEntity
  8
0
370
    -3
  6
CENTER
100
AcDbPoint
 10
409.093423
 20
-77.41093
 30
0.0
  0
LINE
  5
4A8
100
AcDbEntity
  8
0
370
    -3
  6
CENTER
100
AcDbLine
 10
335.093423
 20
234.961429
 30
0.0
 11
335.093423
 21
119.975929
 31
0.0
  0
ARC
  5
4A9
100
AcDbEntity
  8
0
370
    -3
  6
Continuous
100
AcDbCircle
 10
380.867483
 20
138.666041
 30
0.0
 40
7.8
100
AcDbArc
 50
270.0
 51
0.0
  0
ARC
  5
4AA
100
AcDbEntity
  8
0
370
    -3
  6
Continuous
100
AcDbCircle
 10
378.416297
 20
138.666041
 30
0.0
 40
7.8
100
AcDbArc
 50
270.0
 51
0.0
  0
LINE
  5
4AB
100
AcDbEntity
  8
0
370
    -3
  6
Continuous
100
AcDbLine
 10
388.667483
 20
177.666041
 30
0.0
 11
388.667483
 21
138.666041
 31
0.0
  0
LINE
  5
4AC
100
AcDbEntity
  8
0
370
    -3
  6
Continuous
100
AcDbLine
 10
386.216297
 20
177.666041
 30
0.0
 11
386.216297
 21
138.666041
 31
0.0
  0
ARC
  5
4AD
100
AcDbEntity
  8
0
370
    -3
  6
Continuous
100
AcDbCircle
 10
365.648947
 20
142.916041
 30
0.0
 40
3.8
100
AcDbArc
 50
270.0
 51
318.609573
  0
LINE
  5
4AE
100
AcDbEntity
  8
0
370
    -3
  6
Continuous
100
AcDbLine
 10
368.499789
 20
140.403532
 30
0.0
 11
377.476524
 21
150.589069
 31
0.0
  0
ARC
  5
4AF
100
AcDbEntity
  8
0
370
    -3
  6
Continuous
100
AcDbCircle
 10
374.625682
 20
153.101578
 30
0.0
 40
3.8
100
AcDbArc
 50
318.609573
 51
0.0
  0
ELLIPSE
  5
4B0
100
AcDbEntity
  8
0
370
    -3
  6
Continuous
100
AcDbEllipse
 10
378.879319
 20
138.166041
 30
0.0
 11
-0.0000000000002274
 21
3.5
 31
0.0
210
0.0
220
0.0
230
1.0
 40
0.982815
 41
0.0
 42
6.2831853071795862
  0
LINE
  5
4B1
100
AcDbEntity
  8
0
370
    -3
  6
Continuous
100
AcDbLine
 10
379.956008
 20
136.166041
 30
0.0
 11
378.048288
 21
138.166041
 31
0.0
  0
LINE
  5
4B2
100
AcDbEntity
  8
0
370
    -3
  6
Continuous
100
AcDbLine
 10
378.048288
 20
138.166041
 30
0.0
 11
376.330777
 21
140.166041
 31
0.0
  0
LINE
  5
4B3
100
AcDbEntity
  8
0
370
    -3
  6
Continuous
100
AcDbLine
 10
376.330777
 20
136.166041
 30
0.0
 11
378.048288
 21
138.166041
 31
0.0
  0
LINE
  5
4B4
100
AcDbEntity
  8
0
370
    -3
  6
Continuous
100
AcDbLine
 10
378.048288
 20
138.166041
 30
0.0
 11
379.956008
 21
140.166041
 31
0.0
  0
LINE
  5
4B5
100
AcDbEntity
  8
0
370
    -3
  6
Continuous
100
AcDbLine
 10
378.425682
 20
177.666041
 30
0.0
 11
378.425682
 21
153.101578
 31
0.0
  0
LINE
  5
4B6
100
AcDbEntity
  8
0
370
    -3
  6
Continuous
100
AcDbLine
 10
409.093423
 20
177.666041
 30
0.0
 11
409.093423
 21
162.666041
 31
0.0
  0
ARC
  5
4B7
100
AcDbEntity
  8
0
370
    -3
  6
Continuous
100
AcDbCircle
 10
407.093423
 20
162.666041
 30
0.0
 40
2.0
100
AcDbArc
 50
270.0
 51
0.0
  0
LINE
  5
4B8
100
AcDbEntity
  8
0
370
    -3
  6
Continuous
100
AcDbLine
 10
407.093423
 20
160.666041
 30
0.0
 11
388.667483
 21
160.666041
 31
0.0
  0
POINT
  5
4B9
100
AcDbEntity
  8
0
370
    -3
  6
CENTER
100
AcDbPoint
 10
409.093423
 20
164.445541
 30
0.0
  0
LINE
  5
4BA
100
AcDbEntity
  8
0
370
    -3
  6
Continuous
100
AcDbLine
 10
297.995954
 20
224.466041
 30
0.0
 11
380.867483
 21
224.466041
 31
0.0
  0
ARC
  5
4BB
100
AcDbEntity
  8
0
370
    -3
  6
Continuous
100
AcDbCircle
 10
380.867483
 20
216.666041
 30
0.0
 40
7.8
100
AcDbArc
 50
0.0
 51
90.0
  0
ARC
  5
4BC
100
AcDbEntity
  8
0
370
    -3
  6
Continuous
100
AcDbCircle
 10
378.416297
 20
216.666041
 30
0.0
 40
7.8
100
AcDbArc
 50
0.0
 51
90.0
  0
LINE
  5
4BD
100
AcDbEntity
  8
0
370
    -3
  6
Continuous
100
AcDbLine
 10
388.667483
 20
177.666041
 30
0.0
 11
388.667483
 21
216.666041
 31
0.0
  0
LINE
  5
4BE
100
AcDbEntity
  8
0
370
    -3
  6
Continuous
100
AcDbLine
 10
386.216297
 20
177.666041
 30
0.0
 11
386.216297
 21
216.666041
 31
0.0
  0
ARC
  5
4BF
100
AcDbEntity
  8
0
370
    -3
  6
Continuous
100
AcDbCircle
 10
365.648947
 20
212.416041
 30
0.0
 40
3.8
100
AcDbArc
 50
41.390427
 51
90.0
  0
LINE
  5
4C0
100
AcDbEntity
  8
0
370
    -3
  6
Continuous
100
AcDbLine
 10
368.499789
 20
214.92855
 30
0.0
 11
377.476524
 21
204.743012
 31
0.0
  0
ARC
  5
4C1
100
AcDbEntity
  8
0
370
    -3
  6
Continuous
100
AcDbCircle
 10
374.625682
 20
202.230503
 30
0.0
 40
3.8
100
AcDbArc
 50
0.0
 51
41.390427
  0
LINE
  5
4C2
100
AcDbEntity
  8
0
370
    -3
  6
Continuous
100
AcDbLine
 10
378.425682
 20
177.666041
 30
0.0
 11
378.425682
 21
202.230503
 31
0.0
  0
ELLIPSE
  5
4C3
100
AcDbEntity
  8
0
370
    -3
  6
Continuous
100
AcDbEllipse
 10
378.879319
 20
217.166041
 30
0.0
 11
0.0
 21
3.5
 31
0.0
210
0.0
220
0.0
230
1.0
 40
0.982815
 41
0.0
 42
6.2831853071795862
  0
LINE
  5
4C4
100
AcDbEntity
  8
0
370
    -3
  6
Continuous
100
AcDbLine
 10
379.956008
 20
219.166041
 30
0.0
 11
378.048288
 21
217.166041
 31
0.0
  0
LINE
  5
4C5
100
AcDbEntity
  8
0
370
    -3
  6
Continuous
100
AcDbLine
 10
378.048288
 20
217.166041
 30
0.0
 11
376.330777
 21
215.166041
 31
0.0
  0
LINE
  5
4C6
100
AcDbEntity
  8
0
370
    -3
  6
Continuous
100
AcDbLine
 10
376.330777
 20
219.166041
 30
0.0
 11
378.048288
 21
217.166041
 31
0.0
  0
LINE
  5
4C7
100
AcDbEntity
  8
0
370
    -3
  6
Continuous
100
AcDbLine
 10
378.048288
 20
217.166041
 30
0.0
 11
379.956008
 21
215.166041
 31
0.0
  0
LINE
  5
4C8
100
AcDbEntity
  8
0
370
    -3
  6
Continuous
100
AcDbLine
 10
409.093423
 20
177.666041
 30
0.0
 11
409.093423
 21
192.666041
 31
0.0
  0
ARC
  5
4C9
100
AcDbEntity
  8
0
370
    -3
  6
Continuous
100
AcDbCircle
 10
407.093423
 20
192.666041
 30
0.0
 40
2.0
100
AcDbArc
 50
0.0
 51
90.0
  0
LINE
  5
4CA
100
AcDbEntity
  8
0
370
    -3
  6
Continuous
100
AcDbLine
 10
407.093423
 20
194.666041
 30
0.0
 11
388.667483
 21
194.666041
 31
0.0
  0
LINE
  5
4CB
100
AcDbEntity
  8
0
370
    -3
  6
Continuous
100
AcDbLine
 10
290.195954
 20
177.666041
 30
0.0
 11
290.195954
 21
216.666041
 31
0.0
  0
LINE
  5
4CC
100
AcDbEntity
  8
0
370
    -3
  6
Continuous
100
AcDbLine
 10
290.195954
 20
177.666041
 30
0.0
 11
290.195954
 21
138.666041
 31
0.0
  0
LINE
  5
4CD
100
AcDbEntity
  8
0
370
    -3
  6
Continuous
100
AcDbLine
 10
297.995954
 20
130.866041
 30
0.0
 11
380.867483
 21
130.866041
 31
0.0
  0
ARC
  5
4CE
100
AcDbEntity
  8
0
370
    -3
  6
Continuous
100
AcDbCircle
 10
297.995954
 20
138.666041
 30
0.0
 40
7.8
100
AcDbArc
 50
180.0
 51
270.0
  0
ARC
  5
4CF
100
AcDbEntity
  8
0
370
    -3
  6
Continuous
100
AcDbCircle
 10
310.15289
 20
142.916041
 30
0.0
 40
3.8
100
AcDbArc
 50
221.85078
 51
270.0
  0
LINE
  5
4D0
100
AcDbEntity
  8
0
370
    -3
  6
Continuous
100
AcDbLine
 10
307.322327
 20
140.380708
 30
0.0
 11
298.1835
 21
150.583716
 31
0.0
  0
ARC
  5
4D1
100
AcDbEntity
  8
0
370
    -3
  6
Continuous
100
AcDbCircle
 10
301.014063
 20
153.119049
 30
0.0
 40
3.8
100
AcDbArc
 50
180.0
 51
221.85078
  0
LINE
  5
4D2
100
AcDbEntity
  8
0
370
    -3
  6
Continuous
100
AcDbLine
 10
365.648947
 20
139.116041
 30
0.0
 11
310.15289
 21
139.116041
 31
0.0
  0
LINE
  5
4D3
100
AcDbEntity
  8
0
370
    -3
  6
Continuous
100
AcDbLine
 10
297.214063
 20
177.666041
 30
0.0
 11
297.214063
 21
153.119049
 31
0.0
  0
ARC
  5
4D4
100
AcDbEntity
  8
0
370
    -3
  6
Continuous
100
AcDbCircle
 10
317.66747
 20
149.116041
 30
0.0
 40
10.0
100
AcDbArc
 50
180.0
 51
270.0
  0
LINE
  5
4D5
100
AcDbEntity
  8
0
370
    -3
  6
Continuous
100
AcDbLine
 10
307.66747
 20
177.666041
 30
0.0
 11
307.66747
 21
149.116041
 31
0.0
  0
ELLIPSE
  5
4D6
100
AcDbEntity
  8
0
370
    -3
  6
Continuous
100
AcDbEllipse
 10
296.40531
 20
138.166041
 30
0.0
 11
-0.0000000000002274
 21
3.5
 31
0.0
210
0.0
220
0.0
230
1.0
 40
0.982815
 41
0.0
 42
6.2831853071795862
  0
LINE
  5
4D7
100
AcDbEntity
  8
0
370
    -3
  6
Continuous
100
AcDbLine
 10
297.481999
 20
136.166041
 30
0.0
 11
295.57428
 21
138.166041
 31
0.0
  0
LINE
  5
4D8
100
AcDbEntity
  8
0
370
    -3
  6
Continuous
100
AcDbLine
 10
295.57428
 20
138.166041
 30
0.0
 11
293.856768
 21
140.166041
 31
0.0
  0
LINE
  5
4D9
100
AcDbEntity
  8
0
370
    -3
  6
Continuous
100
AcDbLine
 10
293.856768
 20
136.166041
 30
0.0
 11
295.57428
 21
138.166041
 31
0.0
  0
LINE
  5
4DA
100
AcDbEntity
  8
0
370
    -3
  6
Continuous
100
AcDbLine
 10
295.57428
 20
138.166041
 30
0.0
 11
297.481999
 21
140.166041
 31
0.0
  0
ARC
  5
4DB
100
AcDbEntity
  8
0
370
    -3
  6
Continuous
100
AcDbCircle
 10
297.995954
 20
216.666041
 30
0.0
 40
7.8
100
AcDbArc
 50
90.0
 51
180.0
  0
ARC
  5
4DC
100
AcDbEntity
  8
0
370
    -3
  6
Continuous
100
AcDbCircle
 10
310.15289
 20
212.416041
 30
0.0
 40
3.8
100
AcDbArc
 50
90.0
 51
138.14922
  0
LINE
  5
4DD
100
AcDbEntity
  8
0
370
    -3
  6
Continuous
100
AcDbLine
 10
307.322327
 20
214.951374
 30
0.0
 11
298.1835
 21
204.748365
 31
0.0
  0
ARC
  5
4DE
100
AcDbEntity
  8
0
370
    -3
  6
Continuous
100
AcDbCircle
 10
301.014063
 20
202.213032
 30
0.0
 40
3.8
100
AcDbArc
 50
138.14922
 51
180.0
  0
LINE
  5
4DF
100
AcDbEntity
  8
0
370
    -3
  6
Continuous
100
AcDbLine
 10
365.648947
 20
216.216041
 30
0.0
 11
310.15289
 21
216.216041
 31
0.0
  0
LINE
  5
4E0
100
AcDbEntity
  8
0
370
    -3
  6
Continuous
100
AcDbLine
 10
297.214063
 20
177.666041
 30
0.0
 11
297.214063
 21
202.213032
 31
0.0
  0
ARC
  5
4E1
100
AcDbEntity
  8
0
370
    -3
  6
Continuous
100
AcDbCircle
 10
317.66747
 20
206.216041
 30
0.0
 40
10.0
100
AcDbArc
 50
90.0
 51
180.0
  0
LINE
  5
4E2
100
AcDbEntity
  8
0
370
    -3
  6
Continuous
100
AcDbLine
 10
307.66747
 20
177.666041
 30
0.0
 11
307.66747
 21
206.216041
 31
0.0
  0
ELLIPSE
  5
4E3
100
AcDbEntity
  8
0
370
    -3
  6
Continuous
100
AcDbEllipse
 10
296.40531
 20
217.166041
 30
0.0
 11
0.0
 21
3.5
 31
0.0
210
0.0
220
0.0
230
1.0
 40
0.982815
 41
0.0
 42
6.2831853071795862
  0
LINE
  5
4E4
100
AcDbEntity
  8
0
370
    -3
  6
Continuous
100
AcDbLine
 10
297.481999
 20
219.166041
 30
0.0
 11
295.57428
 21
217.166041
 31
0.0
  0
LINE
  5
4E5
100
AcDbEntity
  8
0
370
    -3
  6
Continuous
100
AcDbLine
 10
295.57428
 20
217.166041
 30
0.0
 11
293.856768
 21
215.166041
 31
0.0
  0
LINE
  5
4E6
100
AcDbEntity
  8
0
370
    -3
  6
Continuous
100
AcDbLine
 10
293.856768
 20
219.166041
 30
0.0
 11
295.57428
 21
217.166041
 31
0.0
  0
LINE
  5
4E7
100
AcDbEntity
  8
0
370
    -3
  6
Continuous
100
AcDbLine
 10
295.57428
 20
217.166041
 30
0.0
 11
297.481999
 21
215.166041
 31
0.0
  0
MTEXT
  5
4E8
100
AcDbEntity
  8
0
370
    -3
  6
Continuous
100
AcDbMText
 10
-382.485107
 20
84.595367
 30
0.0
 40
15.0
 41
0.0
 71
     7
 72
     1
  1
\W0.43;DATE\W0.72; \W0.43;2012.01.15
  7
ZU_SHPTB00001
 11
1.0
 21
0.0
 31
0.0
 73
     1
 44
1.0
  0
CIRCLE
  5
4E9
100
AcDbEntity
  8
0
370
    -3
  6
Continuous
100
AcDbCircle
 10
39.093423
 20
-133.19043
 30
0.0
 40
57.5
  0
LINE
  5
4EA
100
AcDbEntity
  8
0
370
    -3
  6
Continuous
100
AcDbLine
 10
45.093423
 20
-110.19043
 30
0.0
 11
45.093423
 21
-118.19043
 31
0.0
  0
LINE
  5
4EB
100
AcDbEntity
  8
0
370
    -3
  6
Continuous
100
AcDbLine
 10
45.093423
 20
-110.19043
 30
0.0
 11
33.093423
 21
-110.19043
 31
0.0
  0
LINE
  5
4EC
100
AcDbEntity
  8
0
370
    -3
  6
Continuous
100
AcDbLine
 10
33.093423
 20
-110.19043
 30
0.0
 11
33.093423
 21
-118.19043
 31
0.0
  0
LINE
  5
4ED
100
AcDbEntity
  8
0
370
    -3
  6
Continuous
100
AcDbLine
 10
45.093423
 20
-118.19043
 30
0.0
 11
33.093423
 21
-118.19043
 31
0.0
  0
ARC
  5
4EE
100
AcDbEntity
  8
0
370
    -3
  6
Continuous
100
AcDbCircle
 10
39.093423
 20
-133.19043
 30
0.0
 40
20.0
100
AcDbArc
 50
107.457603
 51
72.542397
  0
LINE
  5
4EF
100
AcDbEntity
  8
0
370
    -3
  6
Continuous
100
AcDbLine
 10
-112.265993
 20
-110.19043
 30
0.0
 11
-112.265993
 21
-118.19043
 31
0.0
  0
LINE
  5
4F0
100
AcDbEntity
  8
0
370
    -3
  6
Continuous
100
AcDbLine
 10
-124.265993
 20
-118.19043
 30
0.0
 11
-112.265993
 21
-118.19043
 31
0.0
  0
LINE
  5
4F1
100
AcDbEntity
  8
0
370
    -3
  6
Continuous
100
AcDbLine
 10
-124.265993
 20
-110.19043
 30
0.0
 11
-112.265993
 21
-110.19043
 31
0.0
  0
LINE
  5
4F2
100
AcDbEntity
  8
0
370
    -3
  6
Continuous
100
AcDbLine
 10
-124.265993
 20
-110.19043
 30
0.0
 11
-124.265993
 21
-118.19043
 31
0.0
  0
ARC
  5
4F3
100
AcDbEntity
  8
0
370
    -3
  6
Continuous
100
AcDbCircle
 10
-118.265993
 20
-133.19043
 30
0.0
 40
20.0
100
AcDbArc
 50
107.457603
 51
72.542397
  0
ENDSEC
  0
SECTION
  2
OBJECTS
  0
DICTIONARY
  5
19
100
AcDbDictionary
280
     0
281
     1
  3
ACAD_GROUP
350
1A
  3
ACAD_MLINESTYLE
350
1B
  3
ACAD_LAYOUT
350
1E
  3
ACAD_PLOTSETTINGS
350
22
  3
ACAD_PLOTSTYLENAME
350
1F
  3
ACAD_WIPEOUT_VARS
350
23
  3
DWGPROPS
350
4F4
  0
DICTIONARY
  5
1A
102
{ACAD_REACTORS
330
19
102
}
100
AcDbDictionary
280
     0
281
     1
  0
DICTIONARY
  5
1B
102
{ACAD_REACTORS
330
19
102
}
100
AcDbDictionary
280
     0
281
     1
  3
Standard
350
1C
  0
MLINESTYLE
  5
1C
102
{ACAD_REACTORS
330
1B
102
}
100
AcDbMlineStyle
  2
Standard
 70
     0
  3

 62
     0
 51
90.0
 52
90.0
 71
     2
 49
0.5
 62
   256
  6
ByLayer
 49
-0.5
 62
   256
  6
ByLayer
  0
ACDBDICTIONARYWDFLT
  5
1F
102
{ACAD_REACTORS
330
19
102
}
100
AcDbDictionary
281
     1
  3
Normal
350
1D
100
AcDbDictionaryWithDefault
340
1D
  0
ACDBPLACEHOLDER
  5
1D
102
{ACAD_REACTORS
330
1F
102
}
  0
LAYOUT
  5
20
102
{ACAD_REACTORS
330
1E
102
}
100
AcDbPlotSettings
  1

  2

  4

  6

 40
0.0
 41
0.0
 42
0.0
 43
0.0
 44
0.0
 45
0.0
 46
0.0
 47
0.0
 48
0.0
 49
0.0
140
0.0
141
0.0
142
1.0
143
1.0
 70
  1024
 72
     0
 73
     0
 74
     0
  7

 75
     0
147
1.0
148
0.0
149
0.0
100
AcDbLayout
  1
Model
 70
     0
 71
     0
 10
0.0
 20
0.0
 11
0.0
 21
0.0
 12
0.0
 22
0.0
 32
0.0
 14
0.0
 24
0.0
 34
0.0
 15
0.0
 25
0.0
 35
0.0
146
0.0
 13
0.0
 23
0.0
 33
0.0
 16
0.0
 26
0.0
 36
0.0
 17
0.0
 27
0.0
 37
0.0
 76
     0
330
A
331
0
345
0
346
0
  0
LAYOUT
  5
21
102
{ACAD_REACTORS
330
1E
102
}
100
AcDbPlotSettings
  1

  2

  4

  6

 40
0.0
 41
0.0
 42
0.0
 43
0.0
 44
0.0
 45
0.0
 46
0.0
 47
0.0
 48
0.0
 49
0.0
140
0.0
141
0.0
142
1.0
143
1.0
 70
     0
 72
     0
 73
     0
 74
     0
  7

 75
     0
147
1.0
148
0.0
149
0.0
100
AcDbLayout
  1
Layout1
 70
     0
 71
     0
 10
0.0
 20
0.0
 11
0.0
 21
0.0
 12
0.0
 22
0.0
 32
0.0
 14
0.0
 24
0.0
 34
0.0
 15
0.0
 25
0.0
 35
0.0
146
0.0
 13
0.0
 23
0.0
 33
0.0
 16
0.0
 26
0.0
 36
0.0
 17
0.0
 27
0.0
 37
0.0
 76
     0
330
B
331
0
345
0
346
0
  0
DICTIONARY
  5
1E
102
{ACAD_REACTORS
330
19
102
}
100
AcDbDictionary
280
     0
281
     1
  3
Layout1
350
21
  3
Model
350
20
  0
DICTIONARY
  5
22
102
{ACAD_REACTORS
330
19
102
}
100
AcDbDictionary
280
     0
281
     1
  0
WIPEOUTVARIABLES
  5
23
100
AcDbWipeoutVariables
 70
     1
  0
XRECORD
  5
4F4
100
AcDbXrecord
280
     1
  1
DWGPROPS COOKIE
  2

  3

  4

  6

  7

  8
HK96464
  9

300
=
301
=
302
=
303
=
304
=
305
=
306
=
307
=
308
=
309
=
 40
0.0
 41
2455942.644757
 42
2455942.644757
  1

 90
        0
  0
ENDSEC
  0
EOF
