  0
SECTION
  2
HEADER
  9
$ACADVER
  1
AC1015
  9
$ACADMAINTVER
 70
     6
  9
$DWGCODEPAGE
  3
ANSI_932
  9
$INSBASE
 10
0.0
 20
0.0
 30
0.0
  9
$EXTMIN
 10
1.000000E+20
 20
1.000000E+20
 30
1.000000E+20
  9
$EXTMAX
 10
-1.000000E+20
 20
-1.000000E+20
 30
-1.000000E+20
  9
$LIMMIN
 10
0.0
 20
0.0
  9
$LIMMAX
 10
0.0
 20
0.0
  9
$ORTHOMODE
 70
     0
  9
$REGENMODE
 70
     1
  9
$FILLMODE
 70
     1
  9
$QTEXTMODE
 70
     0
  9
$MIRRTEXT
 70
     1
  9
$LTSCALE
 40
1.0
  9
$ATTMODE
 70
     1
  9
$TEXTSIZE
 40
7.0
  9
$TRACEWID
 40
0.05
  9
$TEXTSTYLE
  7
Standard
  9
$CLAYER
  8
0
  9
$CELTYPE
  6
Continuous
  9
$CECOLOR
 62
   256
  9
$CELTSCALE
 40
1.0
  9
$DISPSILH
 70
     0
  9
$DIMSCALE
 40
1.0
  9
$DIMASZ
 40
1.931852
  9
$DIMEXO
 40
1.0
  9
$DIMDLI
 40
0.38
  9
$DIMRND
 40
0.0
  9
$DIMDLE
 40
0.0
  9
$DIMEXE
 40
2.0
  9
$DIMTP
 40
0.0
  9
$DIMTM
 40
0.0
  9
$DIMTXT
 40
2.8
  9
$DIMCEN
 40
0.09
  9
$DIMTSZ
 40
0.0
  9
$DIMTOL
 70
     0
  9
$DIMLIM
 70
     0
  9
$DIMTIH
 70
     1
  9
$DIMTOH
 70
     1
  9
$DIMSE1
 70
     0
  9
$DIMSE2
 70
     0
  9
$DIMTAD
 70
     1
  9
$DIMZIN
 70
     0
  9
$DIMBLK
  1

  9
$DIMASO
 70
     1
  9
$DIMSHO
 70
     1
  9
$DIMPOST
  1

  9
$DIMAPOST
  1

  9
$DIMALT
 70
     0
  9
$DIMALTD
 70
     2
  9
$DIMALTF
 40
25.4
  9
$DIMLFAC
 40
1.0
  9
$DIMTOFL
 70
     0
  9
$DIMTVP
 40
0.0
  9
$DIMTIX
 70
     0
  9
$DIMSOXD
 70
     0
  9
$DIMSAH
 70
     0
  9
$DIMBLK1
  1

  9
$DIMBLK2
  1

  9
$DIMSTYLE
  2
Standard
  9
$DIMCLRD
 70
     0
  9
$DIMCLRE
 70
     0
  9
$DIMCLRT
 70
     0
  9
$DIMTFAC
 40
0.714286
  9
$DIMGAP
 40
0.09
  9
$DIMJUST
 70
     0
  9
$DIMSD1
 70
     0
  9
$DIMSD2
 70
     0
  9
$DIMTOLJ
 70
     1
  9
$DIMTZIN
 70
     0
  9
$DIMALTZ
 70
     0
  9
$DIMALTTZ
 70
     0
  9
$DIMUPT
 70
     0
  9
$DIMDEC
 70
     4
  9
$DIMTDEC
 70
     4
  9
$DIMALTU
 70
     2
  9
$DIMALTTD
 70
     2
  9
$DIMTXSTY
  7
Standard
  9
$DIMAUNIT
 70
     0
  9
$DIMADEC
 70
     0
  9
$DIMALTRND
 40
0.0
  9
$DIMAZIN
 70
     0
  9
$DIMDSEP
 70
     0
  9
$DIMATFIT
 70
     3
  9
$DIMFRAC
 70
     0
  9
$DIMLDRBLK
  1

  9
$DIMLUNIT
 70
     2
  9
$DIMLWD
 70
     0
  9
$DIMLWE
 70
     0
  9
$DIMTMOVE
 70
     0
  9
$LUNITS
 70
     2
  9
$LUPREC
 70
     3
  9
$SKETCHINC
 40
0.1
  9
$FILLETRAD
 40
0.0
  9
$AUNITS
 70
     0
  9
$AUPREC
 70
     0
  9
$MENU
  1
acad
  9
$ELEVATION
 40
0.0
  9
$PELEVATION
 40
0.0
  9
$THICKNESS
 40
0.0
  9
$LIMCHECK
 70
     0
  9
$CHAMFERA
 40
0.0
  9
$CHAMFERB
 40
0.0
  9
$CHAMFERC
 40
0.0
  9
$CHAMFERD
 40
0.0
  9
$SKPOLY
 70
     0
  9
$TDCREATE
 40
0.000000000
  9
$TDUCREATE
 40
0.000000000
  9
$TDUPDATE
 40
0.000000000
  9
$TDUUPDATE
 40
0.000000000
  9
$TDINDWG
 40
0.0000000000
  9
$TDUSRTIMER
 40
0.0000000000
  9
$USRTIMER
 70
     1
  9
$ANGBASE
 50
0.0
  9
$ANGDIR
 70
     0
  9
$PDMODE
 70
     0
  9
$PDSIZE
 40
0.0
  9
$PLINEWID
 40
0.0
  9
$SPLFRAME
 70
     0
  9
$SPLINETYPE
 70
     6
  9
$SPLINESEGS
 70
     8
  9
$HANDSEED
  5
506
  9
$SURFTAB1
 70
     6
  9
$SURFTAB2
 70
     6
  9
$SURFTYPE
 70
     6
  9
$SURFU
 70
     6
  9
$SURFV
 70
     6
  9
$UCSBASE
  2

  9
$UCSNAME
  2

  9
$UCSORG
 10
0.0
 20
0.0
 30
0.0
  9
$UCSXDIR
 10
1.0
 20
0.0
 30
0.0
  9
$UCSYDIR
 10
0.0
 20
1.0
 30
0.0
  9
$UCSORTHOREF
  2

  9
$UCSORTHOVIEW
 70
     0
  9
$UCSORGTOP
 10
0.0
 20
0.0
 30
0.0
  9
$UCSORGBOTTOM
 10
0.0
 20
0.0
 30
0.0
  9
$UCSORGLEFT
 10
0.0
 20
0.0
 30
0.0
  9
$UCSORGRIGHT
 10
0.0
 20
0.0
 30
0.0
  9
$UCSORGFRONT
 10
0.0
 20
0.0
 30
0.0
  9
$UCSORGBACK
 10
0.0
 20
0.0
 30
0.0
  9
$PUCSBASE
  2

  9
$PUCSNAME
  2

  9
$PUCSORG
 10
0.0
 20
0.0
 30
0.0
  9
$PUCSXDIR
 10
1.0
 20
0.0
 30
0.0
  9
$PUCSYDIR
 10
0.0
 20
1.0
 30
0.0
  9
$PUCSORTHOREF
  2

  9
$PUCSORTHOVIEW
 70
     0
  9
$PUCSORGTOP
 10
0.0
 20
0.0
 30
0.0
  9
$PUCSORGBOTTOM
 10
0.0
 20
0.0
 30
0.0
  9
$PUCSORGLEFT
 10
0.0
 20
0.0
 30
0.0
  9
$PUCSORGRIGHT
 10
0.0
 20
0.0
 30
0.0
  9
$PUCSORGFRONT
 10
0.0
 20
0.0
 30
0.0
  9
$PUCSORGBACK
 10
0.0
 20
0.0
 30
0.0
  9
$USERI1
 70
     0
  9
$USERI2
 70
     0
  9
$USERI3
 70
     0
  9
$USERI4
 70
     0
  9
$USERI5
 70
     0
  9
$USERR1
 40
0.0
  9
$USERR2
 40
0.0
  9
$USERR3
 40
0.0
  9
$USERR4
 40
0.0
  9
$USERR5
 40
0.0
  9
$WORLDVIEW
 70
     1
  9
$SHADEDGE
 70
     3
  9
$SHADEDIF
 70
    70
  9
$TILEMODE
 70
     1
  9
$MAXACTVP
 70
    16
  9
$PINSBASE
 10
0.0
 20
0.0
 30
0.0
  9
$PLIMCHECK
 70
     0
  9
$PEXTMIN
 10
1.000000E+20
 20
1.000000E+20
 30
1.000000E+20
  9
$PEXTMAX
 10
-1.000000E+20
 20
-1.000000E+20
 30
-1.000000E+20
  9
$PLIMMIN
 10
0.0
 20
0.0
  9
$PLIMMAX
 10
12.0
 20
9.0
  9
$UNITMODE
 70
     0
  9
$VISRETAIN
 70
     0
  9
$PLINEGEN
 70
     1
  9
$PSLTSCALE
 70
     0
  9
$TREEDEPTH
 70
  3020
  9
$CMLSTYLE
  2
Standard
  9
$CMLJUST
 70
     0
  9
$CMLSCALE
 40
1.0
  9
$PROXYGRAPHICS
 70
     0
  9
$MEASUREMENT
 70
     0
  9
$CELWEIGHT
370
     0
  9
$ENDCAPS
280
     0
  9
$JOINSTYLE
280
     0
  9
$LWDISPLAY
290
     0
  9
$INSUNITS
 70
     0
  9
$HYPERLINKBASE
  1

  9
$STYLESHEET
  1

  9
$XEDIT
290
     1
  9
$CEPSNTYPE
380
     0
  9
$PSTYLEMODE
290
     1
  9
$FINGERPRINTGUID
  2

  9
$VERSIONGUID
  2

  9
$EXTNAMES
290
     1
  9
$PSVPSCALE
 40
0.0
  0
ENDSEC
  0
SECTION
  2
CLASSES
  0
CLASS
  1
LWPOLYLINE
  2
AcDbPolyline
  3
AutoCAD 2000
 90
    32768
280
     0
281
     1
  0
CLASS
  1
IMAGE
  2
AcDbRasterImage
  3
ISM
 90
    32895
280
     0
281
     1
  0
CLASS
  1
OLE2FRAME
  2
AcDbOle2Frame
  3
AutoCAD 2000
 90
    32768
280
     0
281
     1
  0
CLASS
  1
HATCH
  2
AcDbHatch
  3
AutoCAD 2000
 90
    32768
280
     0
281
     1
  0
CLASS
  1
DICTIONARYVAR
  2
AcDbDictionaryVar
  3
AutoCAD 2000
 90
    32768
280
     0
281
     0
  0
CLASS
  1
RASTERVARIABLES
  2
AcDbRasterVariables
  3
ISM
 90
    32768
280
     0
281
     0
  0
CLASS
  1
IMAGEDEF
  2
AcDbRasterImageDef
  3
ISM
 90
    32768
280
     0
281
     0
  0
CLASS
  1
IMAGEDEF_REACTOR
  2
AcDbRasterImageDefReactor
  3
ISM
 90
    32769
280
     0
281
     0
  0
CLASS
  1
IDBUFFER
  2
AcDbIdBuffer
  3
AutoCAD 2000
 90
    32768
280
     0
281
     0
  0
CLASS
  1
SPATIAL_FILTER
  2
AcDbSpatialFilter
  3
AutoCAD 2000
 90
    32768
280
     0
281
     0
  0
CLASS
  1
XRECORD
  2
AcDbXrecord
  3
AutoCAD 2000
 90
        0
280
     0
281
     0
  0
CLASS
  1
SORTENTSTABLE
  2
AcDbSortentsTable
  3
AutoCAD 2000
 90
    32768
280
     0
281
     0
  0
CLASS
  1
LAYER_INDEX
  2
AcDbLayerIndex
  3
AutoCAD 2000
 90
    32768
280
     0
281
     0
  0
CLASS
  1
SPATIAL_INDEX
  2
AcDbSpatialIndex
  3
AutoCAD 2000
 90
    32768
280
     0
281
     0
  0
CLASS
  1
OBJECT_PTR
  2
CAseDLPNTableRecord
  3
"ASE-LPNTableRecord"
 90
    32769
280
     0
281
     0
  0
CLASS
  1
LAYOUT
  2
AcDbLayout
  3
AutoCAD 2000
 90
        0
280
     0
281
     0
  0
CLASS
  1
PLOTSETTINGS
  2
AcDbPlotSettings
  3
AutoCAD 2000
 90
    32768
280
     0
281
     0
  0
CLASS
  1
ACDBDICTIONARYWDFLT
  2
AcDbDictionaryWithDefault
  3
AutoCAD 2000
 90
        0
280
     0
281
     0
  0
CLASS
  1
ACDBPLACEHOLDER
  2
AcDbPlaceHolder
  3
AutoCAD 2000
 90
        0
280
     0
281
     0
  0
CLASS
  1
VBA_PROJECT
  2
AcDbVbaProject
  3
acadvba
 90
    32768
280
     0
281
     0
  0
CLASS
  1
WIPEOUT
  2
AcDbWipeout
  3
WipeOut|AutoCAD Express Tool|expresstools@autodesk.com
 90
    32895
280
     0
281
     1
  0
CLASS
  1
WIPEOUTVARIABLES
  2
AcDbWipeoutVariables
  3
WipeOut|AutoCAD Express Tool|expresstools@autodesk.com
 90
        0
280
     0
281
     0
  0
CLASS
  1
RTEXT
  2
RText
  3
RText|AutoCAD Express Tool|expresstools@autodesk.com
 90
    32768
280
     0
281
     1
  0
CLASS
  1
ARCALIGNEDTEXT
  2
AcDbArcAlignedText
  3
ATEXT|AutoCAD Express Tool|expresstools@autodesk.com
 90
    32768
280
     0
281
     1
  0
ENDSEC
  0
SECTION
  2
TABLES
  0
TABLE
  2
VPORT
  5
7
100
AcDbSymbolTable
 70
     1
  0
VPORT
  5
15
100
AcDbSymbolTableRecord
100
AcDbViewportTableRecord
  2
*ACTIVE
 70
     0
 10
0.0
 20
0.0
 11
1.0
 21
1.0
 12
0.0
 22
0.0
 13
0.0
 23
0.0
 14
1.0
 24
1.0
 15
0.0
 25
0.0
 16
0.0
 26
0.0
 36
1.0
 17
0.0
 27
0.0
 37
0.0
 40
100.0
 41
1.0
 42
50.0
 43
0.0
 44
0.0
 50
0.0
 51
0.0
 71
     0
 72
   100
 73
     1
 74
     1
 75
     0
 76
     0
 77
     0
 78
     0
281
     0
 65
     0
110
0.0
120
0.0
130
0.0
111
1.0
121
0.0
131
0.0
112
0.0
122
1.0
132
0.0
345
0
346
0
 79
     0
146
0.0
  0
ENDTAB
  0
TABLE
  2
LTYPE
  5
4
100
AcDbSymbolTable
 70
     7
  0
LTYPE
  5
11
100
AcDbSymbolTableRecord
100
AcDbLinetypeTableRecord
  2
ByBlock
 70
    64
  3

 72
    65
 73
     0
 40
0.0
  0
LTYPE
  5
12
100
AcDbSymbolTableRecord
100
AcDbLinetypeTableRecord
  2
ByLayer
 70
    64
  3

 72
    65
 73
     0
 40
0.0
  0
LTYPE
  5
13
100
AcDbSymbolTableRecord
100
AcDbLinetypeTableRecord
  2
Continuous
 70
    64
  3
Solid line
 72
    65
 73
     0
 40
0.0
  0
LTYPE
  5
24
100
AcDbSymbolTableRecord
100
AcDbLinetypeTableRecord
  2
DASHED
 70
    64
  3
Dashed __ __ __ __ __ __ __ __ __ __ __ __ __ _
 72
    65
 73
     2
 40
0.75
 49
0.5
 74
     0
 49
-0.25
 74
     0
  0
LTYPE
  5
25
100
AcDbSymbolTableRecord
100
AcDbLinetypeTableRecord
  2
CENTER
 70
    64
  3
Center ____ _ ____ _ ____ _ ____ _ ____ _ ____
 72
    65
 73
     4
 40
1.0
 49
0.5
 74
     0
 49
-0.25
 74
     0
 49
0.0
 74
     0
 49
-0.25
 74
     0
  0
LTYPE
  5
26
100
AcDbSymbolTableRecord
100
AcDbLinetypeTableRecord
  2
DIVIDE
 70
    64
  3
Divide ____ . . ____ . . ____ . . ____ . . ____
 72
    65
 73
     6
 40
1.25
 49
0.5
 74
     0
 49
-0.25
 74
     0
 49
0.0
 74
     0
 49
-0.25
 74
     0
 49
0.0
 74
     0
 49
-0.25
 74
     0
  0
LTYPE
  5
27
100
AcDbSymbolTableRecord
100
AcDbLinetypeTableRecord
  2
PHANTOM
 70
    64
  3
Phantom ______  __  __  ______  __  __  ______
 72
    65
 73
     6
 40
9.0
 49
4.3
 74
     0
 49
-0.7
 74
     0
 49
1.3
 74
     0
 49
-0.7
 74
     0
 49
1.3
 74
     0
 49
-0.7
 74
     0
  0
ENDTAB
  0
TABLE
  2
LAYER
  5
2
100
AcDbSymbolTable
 70
     5
  0
LAYER
  5
14
100
AcDbSymbolTableRecord
100
AcDbLayerTableRecord
  2
0
 70
    64
 62
    53
  6
Continuous
290
     1
370
    -3
390
1D
  0
LAYER
  5
28
100
AcDbSymbolTableRecord
100
AcDbLayerTableRecord
  2
1
 70
    64
 62
    42
  6
Continuous
290
     1
370
    -3
390
1D
  0
LAYER
  5
29
100
AcDbSymbolTableRecord
100
AcDbLayerTableRecord
  2
3
 70
    64
 62
     4
  6
Continuous
290
     1
370
    -3
390
1D
  0
LAYER
  5
2A
100
AcDbSymbolTableRecord
100
AcDbLayerTableRecord
  2
5
 70
    64
 62
   191
  6
Continuous
290
     1
370
    -3
390
1D
  0
LAYER
  5
2B
100
AcDbSymbolTableRecord
100
AcDbLayerTableRecord
  2
14
 70
    64
 62
   191
  6
Continuous
290
     1
370
    -3
390
1D
  0
ENDTAB
  0
TABLE
  2
STYLE
  5
3
100
AcDbSymbolTable
 70
     2
  0
STYLE
  5
17
100
AcDbSymbolTableRecord
100
AcDbTextStyleTableRecord
  2
Standard
 70
     0
 40
0.0
 41
1.0
 50
0.0
 71
     0
 42
0.0
  3
txt
  4

  0
STYLE
  5
3E9
100
AcDbSymbolTableRecord
100
AcDbTextStyleTableRecord
  2
ZU_SHPTB00001
 70
     0
 40
0.0
 41
1.0
 50
0.0
 71
     0
 42
0.0
  3
monotxt
  4
bigfont
  0
ENDTAB
  0
TABLE
  2
VIEW
  5
5
100
AcDbSymbolTable
 70
     0
  0
ENDTAB
  0
TABLE
  2
UCS
  5
6
100
AcDbSymbolTable
 70
     0
  0
ENDTAB
  0
TABLE
  2
APPID
  5
8
100
AcDbSymbolTable
 70
     1
  0
APPID
  5
16
100
AcDbSymbolTableRecord
100
AcDbRegAppTableRecord
  2
ACAD
 70
     0
  0
ENDTAB
  0
TABLE
  2
DIMSTYLE
  5
9
100
AcDbSymbolTable
 70
     1
100
AcDbDimStyleTable
 71
     0
  0
DIMSTYLE
105
18
100
AcDbSymbolTableRecord
100
AcDbDimStyleTableRecord
  2
Standard
 70
     0
  3

  4

 40
1.0
 41
0.18
 42
0.0625
 43
0.38
 44
0.18
 45
0.0
 46
0.0
 47
0.0
 48
0.0
 71
     0
 72
     0
 73
     1
 74
     1
 75
     0
 76
     0
 77
     0
 78
     0
 79
     0
140
0.18
141
0.09
142
0.0
143
25.4
144
1.0
145
0.0
146
1.0
147
0.09
148
0.0
170
     0
171
     2
172
     0
173
     0
174
     0
175
     0
176
     0
177
     0
178
     0
179
     0
271
     4
272
     4
273
     2
274
     2
275
     0
276
     0
277
     2
278
    46
279
     0
280
     0
281
     0
282
     0
283
     1
284
     0
285
     0
286
     0
288
     0
340
17
341
0
342
0
343
0
344
0
371
    -2
372
    -2
  0
ENDTAB
  0
TABLE
  2
BLOCK_RECORD
  5
1
100
AcDbSymbolTable
 70
     7
  0
BLOCK_RECORD
  5
A
100
AcDbSymbolTableRecord
100
AcDbBlockTableRecord
  2
*MODEL_SPACE
340
20
  0
BLOCK_RECORD
  5
B
100
AcDbSymbolTableRecord
100
AcDbBlockTableRecord
  2
*PAPER_SPACE
340
21
  0
BLOCK_RECORD
  5
8C
100
AcDbSymbolTableRecord
100
AcDbBlockTableRecord
  2
ZU_SYM__USERS_HOME_SYMBOL_POO_SYM_B20_-1
340
0
102
{BLKREFS
331
97
102
}
  0
BLOCK_RECORD
  5
9A
100
AcDbSymbolTableRecord
100
AcDbBlockTableRecord
  2
ZU_SYM__USERS_HOME_SYMBOL_POO_SYM_B20_00001-1
340
0
102
{BLKREFS
331
A5
102
}
  0
BLOCK_RECORD
  5
D3
100
AcDbSymbolTableRecord
100
AcDbBlockTableRecord
  2
ZU_SYM__USERS_HOME_SYMBOL_POO_SYM_S07_-1
340
0
102
{BLKREFS
331
DE
102
}
  0
BLOCK_RECORD
  5
DF
100
AcDbSymbolTableRecord
100
AcDbBlockTableRecord
  2
ZU_SYM__USERS_HOME_SYMBOL_POO_SYM_S07_00002-1
340
0
102
{BLKREFS
331
EA
102
}
  0
BLOCK_RECORD
  5
EB
100
AcDbSymbolTableRecord
100
AcDbBlockTableRecord
  2
ZU_SYM__USERS_HOME_SYMBOL_POO_SYM_S07_00003-1
340
0
102
{BLKREFS
331
F6
102
}
  0
BLOCK_RECORD
  5
F7
100
AcDbSymbolTableRecord
100
AcDbBlockTableRecord
  2
ZU_SYM__USERS_HOME_SYMBOL_POO_SYM_S07_00004-1
340
0
102
{BLKREFS
331
102
102
}
  0
BLOCK_RECORD
  5
349
100
AcDbSymbolTableRecord
100
AcDbBlockTableRecord
  2
ZU_SYM__USERS_HOME_SYMBOL_POO_SYM_B20_00005-1
340
0
102
{BLKREFS
331
354
102
}
  0
ENDTAB
  0
ENDSEC
  0
SECTION
  2
BLOCKS
  0
BLOCK
  5
D
100
AcDbEntity
  8
0
100
AcDbBlockBegin
  2
*MODEL_SPACE
 70
     0
 10
0.0
 20
0.0
 30
0.0
  3
*MODEL_SPACE
  1

  0
ENDBLK
  5
E
100
AcDbEntity
  8
0
100
AcDbBlockEnd
  0
BLOCK
  5
F
100
AcDbEntity
 67
     1
  8
0
100
AcDbBlockBegin
  2
*PAPER_SPACE
 70
     0
 10
0.0
 20
0.0
 30
0.0
  3
*PAPER_SPACE
  1

  0
ENDBLK
  5
10
100
AcDbEntity
 67
     1
  8
0
100
AcDbBlockEnd
  0
BLOCK
  5
8D
100
AcDbEntity
  8
0
100
AcDbBlockBegin
  2
ZU_SYM__USERS_HOME_SYMBOL_POO_SYM_B20_-1
 70
    64
 10
0.0
 20
0.0
 30
0.0
  3
ZU_SYM__USERS_HOME_SYMBOL_POO_SYM_B20_-1
  1

  0
POINT
  5
8E
100
AcDbEntity
  8
0
370
    -3
  6
Continuous
100
AcDbPoint
 10
0.0
 20
0.0
 30
0.0
  0
LINE
  5
8F
100
AcDbEntity
  8
0
370
    -3
  6
Continuous
100
AcDbLine
 10
0.0
 20
-6.5
 30
0.0
 11
0.0
 21
6.5
 31
0.0
  0
LINE
  5
90
100
AcDbEntity
  8
0
370
    -3
  6
Continuous
100
AcDbLine
 10
-7.999999
 20
5.633876
 30
0.0
 11
-7.999999
 21
-5.63407
 31
0.0
  0
LINE
  5
91
100
AcDbEntity
  8
0
370
    -3
  6
Continuous
100
AcDbLine
 10
0.0
 20
6.5
 30
0.0
 11
-7.499999
 21
6.5
 31
0.0
  0
LINE
  5
92
100
AcDbEntity
  8
0
370
    -3
  6
Continuous
100
AcDbLine
 10
0.0
 20
-6.5
 30
0.0
 11
-7.499998
 21
-6.5
 31
0.0
  0
LINE
  5
93
100
AcDbEntity
  8
0
370
    -3
  6
Continuous
100
AcDbLine
 10
-7.499999
 20
6.5
 30
0.0
 11
-7.999999
 21
5.633876
 31
0.0
  0
LINE
  5
94
100
AcDbEntity
  8
0
370
    -3
  6
Continuous
100
AcDbLine
 10
-7.499998
 20
-6.499999
 30
0.0
 11
-7.999999
 21
-5.63407
 31
0.0
  0
LINE
  5
95
100
AcDbEntity
  8
0
370
    -3
  6
Continuous
100
AcDbLine
 10
-7.499999
 20
6.5
 30
0.0
 11
-7.499999
 21
-6.5
 31
0.0
  0
ENDBLK
  5
96
100
AcDbEntity
  8
0
100
AcDbBlockEnd
  0
BLOCK
  5
9B
100
AcDbEntity
  8
0
100
AcDbBlockBegin
  2
ZU_SYM__USERS_HOME_SYMBOL_POO_SYM_B20_00001-1
 70
    64
 10
0.0
 20
0.0
 30
0.0
  3
ZU_SYM__USERS_HOME_SYMBOL_POO_SYM_B20_00001-1
  1

  0
POINT
  5
9C
100
AcDbEntity
  8
0
370
    -3
  6
Continuous
100
AcDbPoint
 10
0.0
 20
0.0
 30
0.0
  0
LINE
  5
9D
100
AcDbEntity
  8
0
370
    -3
  6
Continuous
100
AcDbLine
 10
0.0
 20
-6.5
 30
0.0
 11
0.0
 21
6.5
 31
0.0
  0
LINE
  5
9E
100
AcDbEntity
  8
0
370
    -3
  6
Continuous
100
AcDbLine
 10
-7.999999
 20
5.633876
 30
0.0
 11
-7.999999
 21
-5.63407
 31
0.0
  0
LINE
  5
9F
100
AcDbEntity
  8
0
370
    -3
  6
Continuous
100
AcDbLine
 10
0.0
 20
6.5
 30
0.0
 11
-7.499999
 21
6.5
 31
0.0
  0
LINE
  5
A0
100
AcDbEntity
  8
0
370
    -3
  6
Continuous
100
AcDbLine
 10
0.0
 20
-6.5
 30
0.0
 11
-7.499998
 21
-6.5
 31
0.0
  0
LINE
  5
A1
100
AcDbEntity
  8
0
370
    -3
  6
Continuous
100
AcDbLine
 10
-7.499999
 20
6.5
 30
0.0
 11
-7.999999
 21
5.633876
 31
0.0
  0
LINE
  5
A2
100
AcDbEntity
  8
0
370
    -3
  6
Continuous
100
AcDbLine
 10
-7.499998
 20
-6.499999
 30
0.0
 11
-7.999999
 21
-5.63407
 31
0.0
  0
LINE
  5
A3
100
AcDbEntity
  8
0
370
    -3
  6
Continuous
100
AcDbLine
 10
-7.499999
 20
6.5
 30
0.0
 11
-7.499999
 21
-6.5
 31
0.0
  0
ENDBLK
  5
A4
100
AcDbEntity
  8
0
100
AcDbBlockEnd
  0
BLOCK
  5
D4
100
AcDbEntity
  8
0
100
AcDbBlockBegin
  2
ZU_SYM__USERS_HOME_SYMBOL_POO_SYM_S07_-1
 70
    64
 10
0.0
 20
0.0
 30
0.0
  3
ZU_SYM__USERS_HOME_SYMBOL_POO_SYM_S07_-1
  1

  0
ARC
  5
D5
100
AcDbEntity
  8
0
370
    -3
  6
Continuous
100
AcDbCircle
 10
-0.979025
 20
-2.200001
 30
0.0
 40
1.299999
100
AcDbArc
 50
196.601531
 51
270.0
  0
ARC
  5
D6
100
AcDbEntity
  8
0
370
    -3
  6
Continuous
100
AcDbCircle
 10
-0.979025
 20
2.200001
 30
0.0
 40
1.299999
100
AcDbArc
 50
90.0
 51
163.398452
  0
LINE
  5
D7
100
AcDbEntity
  8
0
370
    -3
  6
Continuous
100
AcDbLine
 10
0.0
 20
-3.5
 30
0.0
 11
-0.979025
 21
-3.5
 31
0.0
  0
LINE
  5
D8
100
AcDbEntity
  8
0
370
    -3
  6
Continuous
100
AcDbLine
 10
0.0
 20
3.5
 30
0.0
 11
-0.979025
 21
3.5
 31
0.0
  0
LINE
  5
D9
100
AcDbEntity
  8
0
370
    -3
  6
Continuous
100
AcDbLine
 10
0.0
 20
-3.5
 30
0.0
 11
0.0
 21
3.5
 31
0.0
  0
LINE
  5
DA
100
AcDbEntity
  8
0
370
    -3
  6
Continuous
100
AcDbLine
 10
0.0
 20
-3.5
 30
0.0
 11
0.0
 21
3.5
 31
0.0
  0
POINT
  5
DB
100
AcDbEntity
  8
0
370
    -3
  6
Continuous
100
AcDbPoint
 10
0.0
 20
0.0
 30
0.0
  0
ARC
  5
DC
100
AcDbEntity
  8
0
370
    -3
  6
Continuous
100
AcDbCircle
 10
6.4
 20
0.0
 30
0.0
 40
9.0
100
AcDbArc
 50
163.398452
 51
196.601531
  0
ENDBLK
  5
DD
100
AcDbEntity
  8
0
100
AcDbBlockEnd
  0
BLOCK
  5
E0
100
AcDbEntity
  8
0
100
AcDbBlockBegin
  2
ZU_SYM__USERS_HOME_SYMBOL_POO_SYM_S07_00002-1
 70
    64
 10
0.0
 20
0.0
 30
0.0
  3
ZU_SYM__USERS_HOME_SYMBOL_POO_SYM_S07_00002-1
  1

  0
ARC
  5
E1
100
AcDbEntity
  8
0
370
    -3
  6
Continuous
100
AcDbCircle
 10
-0.979025
 20
-2.200001
 30
0.0
 40
1.299999
100
AcDbArc
 50
196.601531
 51
270.0
  0
ARC
  5
E2
100
AcDbEntity
  8
0
370
    -3
  6
Continuous
100
AcDbCircle
 10
-0.979025
 20
2.200001
 30
0.0
 40
1.299999
100
AcDbArc
 50
90.0
 51
163.398452
  0
LINE
  5
E3
100
AcDbEntity
  8
0
370
    -3
  6
Continuous
100
AcDbLine
 10
0.0
 20
-3.5
 30
0.0
 11
-0.979025
 21
-3.5
 31
0.0
  0
LINE
  5
E4
100
AcDbEntity
  8
0
370
    -3
  6
Continuous
100
AcDbLine
 10
0.0
 20
3.5
 30
0.0
 11
-0.979025
 21
3.5
 31
0.0
  0
LINE
  5
E5
100
AcDbEntity
  8
0
370
    -3
  6
Continuous
100
AcDbLine
 10
0.0
 20
-3.5
 30
0.0
 11
0.0
 21
3.5
 31
0.0
  0
LINE
  5
E6
100
AcDbEntity
  8
0
370
    -3
  6
Continuous
100
AcDbLine
 10
0.0
 20
-3.5
 30
0.0
 11
0.0
 21
3.5
 31
0.0
  0
POINT
  5
E7
100
AcDbEntity
  8
0
370
    -3
  6
Continuous
100
AcDbPoint
 10
0.0
 20
0.0
 30
0.0
  0
ARC
  5
E8
100
AcDbEntity
  8
0
370
    -3
  6
Continuous
100
AcDbCircle
 10
6.4
 20
0.0
 30
0.0
 40
9.0
100
AcDbArc
 50
163.398452
 51
196.601531
  0
ENDBLK
  5
E9
100
AcDbEntity
  8
0
100
AcDbBlockEnd
  0
BLOCK
  5
EC
100
AcDbEntity
  8
0
100
AcDbBlockBegin
  2
ZU_SYM__USERS_HOME_SYMBOL_POO_SYM_S07_00003-1
 70
    64
 10
0.0
 20
0.0
 30
0.0
  3
ZU_SYM__USERS_HOME_SYMBOL_POO_SYM_S07_00003-1
  1

  0
ARC
  5
ED
100
AcDbEntity
  8
0
370
    -3
  6
Continuous
100
AcDbCircle
 10
-0.979025
 20
-2.200001
 30
0.0
 40
1.299999
100
AcDbArc
 50
196.601531
 51
270.0
  0
ARC
  5
EE
100
AcDbEntity
  8
0
370
    -3
  6
Continuous
100
AcDbCircle
 10
-0.979025
 20
2.200001
 30
0.0
 40
1.299999
100
AcDbArc
 50
90.0
 51
163.398452
  0
LINE
  5
EF
100
AcDbEntity
  8
0
370
    -3
  6
Continuous
100
AcDbLine
 10
0.0
 20
-3.5
 30
0.0
 11
-0.979025
 21
-3.5
 31
0.0
  0
LINE
  5
F0
100
AcDbEntity
  8
0
370
    -3
  6
Continuous
100
AcDbLine
 10
0.0
 20
3.5
 30
0.0
 11
-0.979025
 21
3.5
 31
0.0
  0
LINE
  5
F1
100
AcDbEntity
  8
0
370
    -3
  6
Continuous
100
AcDbLine
 10
0.0
 20
-3.5
 30
0.0
 11
0.0
 21
3.5
 31
0.0
  0
LINE
  5
F2
100
AcDbEntity
  8
0
370
    -3
  6
Continuous
100
AcDbLine
 10
0.0
 20
-3.5
 30
0.0
 11
0.0
 21
3.5
 31
0.0
  0
POINT
  5
F3
100
AcDbEntity
  8
0
370
    -3
  6
Continuous
100
AcDbPoint
 10
0.0
 20
0.0
 30
0.0
  0
ARC
  5
F4
100
AcDbEntity
  8
0
370
    -3
  6
Continuous
100
AcDbCircle
 10
6.4
 20
0.0
 30
0.0
 40
9.0
100
AcDbArc
 50
163.398452
 51
196.601531
  0
ENDBLK
  5
F5
100
AcDbEntity
  8
0
100
AcDbBlockEnd
  0
BLOCK
  5
F8
100
AcDbEntity
  8
0
100
AcDbBlockBegin
  2
ZU_SYM__USERS_HOME_SYMBOL_POO_SYM_S07_00004-1
 70
    64
 10
0.0
 20
0.0
 30
0.0
  3
ZU_SYM__USERS_HOME_SYMBOL_POO_SYM_S07_00004-1
  1

  0
ARC
  5
F9
100
AcDbEntity
  8
0
370
    -3
  6
Continuous
100
AcDbCircle
 10
-0.979025
 20
-2.200001
 30
0.0
 40
1.299999
100
AcDbArc
 50
196.601531
 51
270.0
  0
ARC
  5
FA
100
AcDbEntity
  8
0
370
    -3
  6
Continuous
100
AcDbCircle
 10
-0.979025
 20
2.200001
 30
0.0
 40
1.299999
100
AcDbArc
 50
90.0
 51
163.398452
  0
LINE
  5
FB
100
AcDbEntity
  8
0
370
    -3
  6
Continuous
100
AcDbLine
 10
0.0
 20
-3.5
 30
0.0
 11
-0.979025
 21
-3.5
 31
0.0
  0
LINE
  5
FC
100
AcDbEntity
  8
0
370
    -3
  6
Continuous
100
AcDbLine
 10
0.0
 20
3.5
 30
0.0
 11
-0.979025
 21
3.5
 31
0.0
  0
LINE
  5
FD
100
AcDbEntity
  8
0
370
    -3
  6
Continuous
100
AcDbLine
 10
0.0
 20
-3.5
 30
0.0
 11
0.0
 21
3.5
 31
0.0
  0
LINE
  5
FE
100
AcDbEntity
  8
0
370
    -3
  6
Continuous
100
AcDbLine
 10
0.0
 20
-3.5
 30
0.0
 11
0.0
 21
3.5
 31
0.0
  0
POINT
  5
FF
100
AcDbEntity
  8
0
370
    -3
  6
Continuous
100
AcDbPoint
 10
0.0
 20
0.0
 30
0.0
  0
ARC
  5
100
100
AcDbEntity
  8
0
370
    -3
  6
Continuous
100
AcDbCircle
 10
6.4
 20
0.0
 30
0.0
 40
9.0
100
AcDbArc
 50
163.398452
 51
196.601531
  0
ENDBLK
  5
101
100
AcDbEntity
  8
0
100
AcDbBlockEnd
  0
BLOCK
  5
34A
100
AcDbEntity
  8
0
100
AcDbBlockBegin
  2
ZU_SYM__USERS_HOME_SYMBOL_POO_SYM_B20_00005-1
 70
    64
 10
0.0
 20
0.0
 30
0.0
  3
ZU_SYM__USERS_HOME_SYMBOL_POO_SYM_B20_00005-1
  1

  0
LINE
  5
34B
100
AcDbEntity
  8
0
370
    -3
  6
Continuous
100
AcDbLine
 10
-7.499999
 20
6.5
 30
0.0
 11
-7.499999
 21
-6.5
 31
0.0
  0
LINE
  5
34C
100
AcDbEntity
  8
0
370
    -3
  6
Continuous
100
AcDbLine
 10
-7.499998
 20
-6.499999
 30
0.0
 11
-7.999999
 21
-5.63407
 31
0.0
  0
LINE
  5
34D
100
AcDbEntity
  8
0
370
    -3
  6
Continuous
100
AcDbLine
 10
-7.499999
 20
6.5
 30
0.0
 11
-7.999999
 21
5.633876
 31
0.0
  0
LINE
  5
34E
100
AcDbEntity
  8
0
370
    -3
  6
Continuous
100
AcDbLine
 10
0.0
 20
-6.5
 30
0.0
 11
-7.499998
 21
-6.5
 31
0.0
  0
LINE
  5
34F
100
AcDbEntity
  8
0
370
    -3
  6
Continuous
100
AcDbLine
 10
0.0
 20
6.5
 30
0.0
 11
-7.499999
 21
6.5
 31
0.0
  0
LINE
  5
350
100
AcDbEntity
  8
0
370
    -3
  6
Continuous
100
AcDbLine
 10
-7.999999
 20
5.633876
 30
0.0
 11
-7.999999
 21
-5.63407
 31
0.0
  0
LINE
  5
351
100
AcDbEntity
  8
0
370
    -3
  6
Continuous
100
AcDbLine
 10
0.0
 20
-6.5
 30
0.0
 11
0.0
 21
6.5
 31
0.0
  0
POINT
  5
352
100
AcDbEntity
  8
0
370
    -3
  6
Continuous
100
AcDbPoint
 10
0.0
 20
0.0
 30
0.0
  0
ENDBLK
  5
353
100
AcDbEntity
  8
0
100
AcDbBlockEnd
  0
ENDSEC
  0
SECTION
  2
ENTITIES
  0
ARC
  5
2C
100
AcDbEntity
  8
0
370
    -3
  6
Continuous
100
AcDbCircle
 10
171.98363
 20
114.951195
 30
0.0
 40
5.0
100
AcDbArc
 50
126.869898
 51
180.0
  0
LINE
  5
2D
100
AcDbEntity
  8
0
370
    -3
  6
Continuous
100
AcDbLine
 10
154.98363
 20
248.347811
 30
0.0
 11
146.483983
 21
248.347811
 31
0.0
  0
LINE
  5
2E
100
AcDbEntity
  8
0
370
    -3
  6
Continuous
100
AcDbLine
 10
154.98363
 20
256.816652
 30
0.0
 11
146.483983
 21
256.816652
 31
0.0
  0
LINE
  5
2F
100
AcDbEntity
  8
0
370
    -3
  6
Continuous
100
AcDbLine
 10
149.483983
 20
272.415204
 30
0.0
 11
158.656234
 21
272.415204
 31
0.0
  0
ARC
  5
30
100
AcDbEntity
  8
0
370
    -3
  6
Continuous
100
AcDbCircle
 10
149.483983
 20
269.415204
 30
0.0
 40
3.0
100
AcDbArc
 50
90.0
 51
180.0
  0
ARC
  5
31
100
AcDbEntity
  8
0
370
    -3
  6
Continuous
100
AcDbCircle
 10
154.98363
 20
245.347811
 30
0.0
 40
3.0
100
AcDbArc
 50
0.0
 51
90.0
  0
ARC
  5
32
100
AcDbEntity
  8
0
370
    -3
  6
Continuous
100
AcDbCircle
 10
154.98363
 20
259.816652
 30
0.0
 40
3.0
100
AcDbArc
 50
270.0
 51
0.0
  0
LINE
  5
33
100
AcDbEntity
  8
0
370
    -3
  6
Continuous
100
AcDbLine
 10
154.98363
 20
233.028071
 30
0.0
 11
147.483983
 21
233.028071
 31
0.0
  0
LINE
  5
34
100
AcDbEntity
  8
0
370
    -3
  6
Continuous
100
AcDbLine
 10
154.98363
 20
237.028071
 30
0.0
 11
147.483983
 21
237.028071
 31
0.0
  0
ARC
  5
35
100
AcDbEntity
  8
0
370
    -3
  6
Continuous
100
AcDbCircle
 10
154.98363
 20
240.028071
 30
0.0
 40
3.0
100
AcDbArc
 50
270.0
 51
0.0
  0
ARC
  5
36
100
AcDbEntity
  8
0
370
    -3
  6
Continuous
100
AcDbCircle
 10
154.98363
 20
230.028071
 30
0.0
 40
3.0
100
AcDbArc
 50
0.0
 51
90.0
  0
LINE
  5
37
100
AcDbEntity
  8
0
370
    -3
  6
Continuous
100
AcDbLine
 10
157.98363
 20
215.522153
 30
0.0
 11
157.98363
 21
270.522263
 31
0.0
  0
LINE
  5
38
100
AcDbEntity
  8
0
370
    -3
  6
CENTER
100
AcDbLine
 10
132.713467
 20
200.522263
 30
0.0
 11
165.029091
 21
200.522263
 31
0.0
  0
LINE
  5
39
100
AcDbEntity
  8
0
370
    -3
  6
Continuous
100
AcDbLine
 10
142.983406
 20
210.522263
 30
0.0
 11
151.98363
 21
210.522263
 31
0.0
  0
ARC
  5
3A
100
AcDbEntity
  8
0
370
    -3
  6
Continuous
100
AcDbCircle
 10
154.98363
 20
215.522153
 30
0.0
 40
3.0
100
AcDbArc
 50
270.0
 51
0.0
  0
LINE
  5
3B
100
AcDbEntity
  8
0
370
    -3
  6
Continuous
100
AcDbLine
 10
151.98363
 20
190.022263
 30
0.0
 11
151.98363
 21
210.522263
 31
0.0
  0
ARC
  5
3C
100
AcDbEntity
  8
0
370
    -3
  6
Continuous
100
AcDbCircle
 10
154.98363
 20
209.522153
 30
0.0
 40
3.0
100
AcDbArc
 50
90.0
 51
180.0
  0
LINE
  5
3D
100
AcDbEntity
  8
0
370
    -3
  6
Continuous
100
AcDbLine
 10
154.98363
 20
212.522153
 30
0.0
 11
165.98363
 21
212.522153
 31
0.0
  0
LINE
  5
3E
100
AcDbEntity
  8
0
370
    -3
  6
Continuous
100
AcDbLine
 10
166.98363
 20
270.522263
 30
0.0
 11
166.98363
 21
190.022263
 31
0.0
  0
ARC
  5
3F
100
AcDbEntity
  8
0
370
    -3
  6
Continuous
100
AcDbCircle
 10
165.98363
 20
211.522153
 30
0.0
 40
1.0
100
AcDbArc
 50
0.0
 51
90.0
  0
LINE
  5
40
100
AcDbEntity
  8
0
370
    -3
  6
Continuous
100
AcDbLine
 10
149.483983
 20
273.522263
 30
0.0
 11
163.98363
 21
273.522263
 31
0.0
  0
ARC
  5
41
100
AcDbEntity
  8
0
370
    -3
  6
Continuous
100
AcDbCircle
 10
160.98363
 20
270.522263
 30
0.0
 40
3.0
100
AcDbArc
 50
90.0
 51
180.0
  0
ARC
  5
42
100
AcDbEntity
  8
0
370
    -3
  6
Continuous
100
AcDbCircle
 10
149.483983
 20
270.522263
 30
0.0
 40
3.0
100
AcDbArc
 50
90.0
 51
180.0
  0
ARC
  5
43
100
AcDbEntity
  8
0
370
    -3
  6
Continuous
100
AcDbCircle
 10
163.98363
 20
270.522263
 30
0.0
 40
3.0
100
AcDbArc
 50
0.0
 51
90.0
  0
LINE
  5
44
100
AcDbEntity
  8
0
370
    -3
  6
Continuous
100
AcDbLine
 10
168.448096
 20
261.557797
 30
0.0
 11
168.98363
 21
261.022263
 31
0.0
  0
ARC
  5
45
100
AcDbEntity
  8
0
370
    -3
  6
Continuous
100
AcDbCircle
 10
171.98363
 20
265.093331
 30
0.0
 40
5.0
100
AcDbArc
 50
180.0
 51
225.0
  0
LINE
  5
46
100
AcDbEntity
  8
0
370
    -3
  6
Continuous
100
AcDbLine
 10
154.98363
 20
131.696715
 30
0.0
 11
146.483983
 21
131.696715
 31
0.0
  0
LINE
  5
47
100
AcDbEntity
  8
0
370
    -3
  6
Continuous
100
AcDbLine
 10
154.98363
 20
123.227874
 30
0.0
 11
146.483983
 21
123.227874
 31
0.0
  0
LINE
  5
48
100
AcDbEntity
  8
0
370
    -3
  6
Continuous
100
AcDbLine
 10
149.483983
 20
107.629322
 30
0.0
 11
158.656234
 21
107.629322
 31
0.0
  0
ARC
  5
49
100
AcDbEntity
  8
0
370
    -3
  6
Continuous
100
AcDbCircle
 10
149.483983
 20
110.629322
 30
0.0
 40
3.0
100
AcDbArc
 50
180.0
 51
270.0
  0
ARC
  5
4A
100
AcDbEntity
  8
0
370
    -3
  6
Continuous
100
AcDbCircle
 10
154.98363
 20
134.696715
 30
0.0
 40
3.0
100
AcDbArc
 50
270.0
 51
0.0
  0
ARC
  5
4B
100
AcDbEntity
  8
0
370
    -3
  6
Continuous
100
AcDbCircle
 10
154.98363
 20
120.227874
 30
0.0
 40
3.0
100
AcDbArc
 50
0.0
 51
90.0
  0
LINE
  5
4C
100
AcDbEntity
  8
0
370
    -3
  6
Continuous
100
AcDbLine
 10
154.98363
 20
147.016455
 30
0.0
 11
147.483983
 21
147.016455
 31
0.0
  0
LINE
  5
4D
100
AcDbEntity
  8
0
370
    -3
  6
Continuous
100
AcDbLine
 10
154.98363
 20
143.016455
 30
0.0
 11
147.483983
 21
143.016455
 31
0.0
  0
ARC
  5
4E
100
AcDbEntity
  8
0
370
    -3
  6
Continuous
100
AcDbCircle
 10
154.98363
 20
140.016455
 30
0.0
 40
3.0
100
AcDbArc
 50
0.0
 51
90.0
  0
ARC
  5
4F
100
AcDbEntity
  8
0
370
    -3
  6
Continuous
100
AcDbCircle
 10
154.98363
 20
150.016455
 30
0.0
 40
3.0
100
AcDbArc
 50
270.0
 51
0.0
  0
LINE
  5
50
100
AcDbEntity
  8
0
370
    -3
  6
Continuous
100
AcDbLine
 10
157.98363
 20
164.522373
 30
0.0
 11
157.98363
 21
109.522263
 31
0.0
  0
LINE
  5
51
100
AcDbEntity
  8
0
370
    -3
  6
CENTER
100
AcDbLine
 10
132.713467
 20
179.522263
 30
0.0
 11
165.029091
 21
179.522263
 31
0.0
  0
LINE
  5
52
100
AcDbEntity
  8
0
370
    -3
  6
Continuous
100
AcDbLine
 10
142.983406
 20
169.522263
 30
0.0
 11
151.98363
 21
169.522263
 31
0.0
  0
ARC
  5
53
100
AcDbEntity
  8
0
370
    -3
  6
Continuous
100
AcDbCircle
 10
154.98363
 20
164.522373
 30
0.0
 40
3.0
100
AcDbArc
 50
0.0
 51
90.0
  0
LINE
  5
54
100
AcDbEntity
  8
0
370
    -3
  6
Continuous
100
AcDbLine
 10
151.98363
 20
190.022263
 30
0.0
 11
151.98363
 21
169.522263
 31
0.0
  0
ARC
  5
55
100
AcDbEntity
  8
0
370
    -3
  6
Continuous
100
AcDbCircle
 10
154.98363
 20
170.522373
 30
0.0
 40
3.0
100
AcDbArc
 50
180.0
 51
270.0
  0
LINE
  5
56
100
AcDbEntity
  8
0
370
    -3
  6
Continuous
100
AcDbLine
 10
154.98363
 20
167.522373
 30
0.0
 11
165.98363
 21
167.522373
 31
0.0
  0
LINE
  5
57
100
AcDbEntity
  8
0
370
    -3
  6
Continuous
100
AcDbLine
 10
166.98363
 20
109.522263
 30
0.0
 11
166.98363
 21
190.022263
 31
0.0
  0
ARC
  5
58
100
AcDbEntity
  8
0
370
    -3
  6
Continuous
100
AcDbCircle
 10
165.98363
 20
168.522373
 30
0.0
 40
1.0
100
AcDbArc
 50
270.0
 51
0.0
  0
LINE
  5
59
100
AcDbEntity
  8
0
370
    -3
  6
Continuous
100
AcDbLine
 10
149.483983
 20
106.522263
 30
0.0
 11
163.98363
 21
106.522263
 31
0.0
  0
ARC
  5
5A
100
AcDbEntity
  8
0
370
    -3
  6
Continuous
100
AcDbCircle
 10
160.98363
 20
109.522263
 30
0.0
 40
3.0
100
AcDbArc
 50
180.0
 51
270.0
  0
ARC
  5
5B
100
AcDbEntity
  8
0
370
    -3
  6
Continuous
100
AcDbCircle
 10
149.483983
 20
109.522263
 30
0.0
 40
3.0
100
AcDbArc
 50
180.0
 51
270.0
  0
ARC
  5
5C
100
AcDbEntity
  8
0
370
    -3
  6
Continuous
100
AcDbCircle
 10
163.98363
 20
109.522263
 30
0.0
 40
3.0
100
AcDbArc
 50
270.0
 51
0.0
  0
ARC
  5
5D
100
AcDbEntity
  8
0
370
    -3
  6
Continuous
100
AcDbCircle
 10
171.98363
 20
114.951195
 30
0.0
 40
5.0
100
AcDbArc
 50
135.0
 51
180.0
  0
LINE
  5
5E
100
AcDbEntity
  8
0
370
    -3
  6
CENTER
100
AcDbLine
 10
-168.557383
 20
190.022263
 30
0.0
 11
427.015984
 21
190.022263
 31
0.0
  0
LINE
  5
5F
100
AcDbEntity
  8
0
370
    -3
  6
Continuous
100
AcDbLine
 10
413.48363
 20
190.022263
 30
0.0
 11
175.48363
 21
190.022263
 31
0.0
  0
LINE
  5
60
100
AcDbEntity
  8
0
370
    -3
  6
Continuous
100
AcDbLine
 10
177.562874
 20
193.022263
 30
0.0
 11
177.482945
 21
189.969909
 31
0.0
  0
LINE
  5
61
100
AcDbEntity
  8
0
370
    -3
  6
Continuous
100
AcDbLine
 10
411.404387
 20
193.022263
 30
0.0
 11
411.484316
 21
189.969909
 31
0.0
  0
LINE
  5
62
100
AcDbEntity
  8
0
370
    -3
  6
Continuous
100
AcDbLine
 10
175.562188
 20
193.022263
 30
0.0
 11
413.405073
 21
193.022263
 31
0.0
  0
LINE
  5
63
100
AcDbEntity
  8
0
370
    -3
  6
Continuous
100
AcDbLine
 10
169.98363
 20
260.022263
 30
0.0
 11
168.98363
 21
259.022263
 31
0.0
  0
LINE
  5
64
100
AcDbEntity
  8
0
370
    -3
  6
Continuous
100
AcDbLine
 10
169.98363
 20
120.022263
 30
0.0
 11
168.98363
 21
121.022263
 31
0.0
  0
LINE
  5
65
100
AcDbEntity
  8
0
370
    -3
  6
Continuous
100
AcDbLine
 10
168.98363
 20
261.022263
 30
0.0
 11
168.98363
 21
118.951195
 31
0.0
  0
LINE
  5
66
100
AcDbEntity
  8
0
370
    -3
  6
Continuous
100
AcDbLine
 10
383.98363
 20
264.022263
 30
0.0
 11
382.98363
 21
265.022263
 31
0.0
  0
LINE
  5
67
100
AcDbEntity
  8
0
370
    -3
  6
Continuous
100
AcDbLine
 10
383.98363
 20
260.022263
 30
0.0
 11
383.98363
 21
264.022263
 31
0.0
  0
LINE
  5
68
100
AcDbEntity
  8
0
370
    -3
  6
Continuous
100
AcDbLine
 10
411.964847
 20
248.022263
 30
0.0
 11
413.405073
 21
193.022263
 31
0.0
  0
LINE
  5
69
100
AcDbEntity
  8
0
370
    -3
  6
Continuous
100
AcDbLine
 10
410.509807
 20
259.022606
 30
0.0
 11
409.48363
 21
260.022263
 31
0.0
  0
LINE
  5
6A
100
AcDbEntity
  8
0
370
    -3
  6
Continuous
100
AcDbLine
 10
410.797861
 20
248.022263
 30
0.0
 11
410.509807
 21
259.022606
 31
0.0
  0
LINE
  5
6B
100
AcDbEntity
  8
0
370
    -3
  6
Continuous
100
AcDbLine
 10
269.98363
 20
265.022263
 30
0.0
 11
268.98363
 21
264.022263
 31
0.0
  0
LINE
  5
6C
100
AcDbEntity
  8
0
370
    -3
  6
Continuous
100
AcDbLine
 10
382.98363
 20
265.022263
 30
0.0
 11
269.98363
 21
265.022263
 31
0.0
  0
LINE
  5
6D
100
AcDbEntity
  8
0
370
    -3
  6
Continuous
100
AcDbLine
 10
268.98363
 20
260.022263
 30
0.0
 11
268.98363
 21
264.022263
 31
0.0
  0
LINE
  5
6E
100
AcDbEntity
  8
0
370
    -3
  6
Continuous
100
AcDbLine
 10
411.964847
 20
248.022263
 30
0.0
 11
177.002414
 21
248.022263
 31
0.0
  0
LINE
  5
6F
100
AcDbEntity
  8
0
370
    -3
  6
Continuous
100
AcDbLine
 10
177.002414
 20
248.022263
 30
0.0
 11
175.562188
 21
193.022263
 31
0.0
  0
LINE
  5
70
100
AcDbEntity
  8
0
370
    -3
  6
Continuous
100
AcDbLine
 10
178.457453
 20
259.022606
 30
0.0
 11
179.48363
 21
260.022263
 31
0.0
  0
LINE
  5
71
100
AcDbEntity
  8
0
370
    -3
  6
Continuous
100
AcDbLine
 10
409.48363
 20
260.022263
 30
0.0
 11
169.98363
 21
260.022263
 31
0.0
  0
LINE
  5
72
100
AcDbEntity
  8
0
370
    -3
  6
Continuous
100
AcDbLine
 10
178.169399
 20
248.022263
 30
0.0
 11
178.457453
 21
259.022606
 31
0.0
  0
LINE
  5
73
100
AcDbEntity
  8
0
370
    -3
  6
Continuous
100
AcDbLine
 10
410.509807
 20
121.02192
 30
0.0
 11
409.48363
 21
120.022263
 31
0.0
  0
LINE
  5
74
100
AcDbEntity
  8
0
370
    -3
  6
Continuous
100
AcDbLine
 10
178.457453
 20
121.02192
 30
0.0
 11
179.48363
 21
120.022263
 31
0.0
  0
LINE
  5
75
100
AcDbEntity
  8
0
370
    -3
  6
Continuous
100
AcDbLine
 10
411.964847
 20
132.022263
 30
0.0
 11
177.002414
 21
132.022263
 31
0.0
  0
LINE
  5
76
100
AcDbEntity
  8
0
370
    -3
  6
Continuous
100
AcDbLine
 10
178.169399
 20
132.022263
 30
0.0
 11
178.457453
 21
121.02192
 31
0.0
  0
LINE
  5
77
100
AcDbEntity
  8
0
370
    -3
  6
Continuous
100
AcDbLine
 10
410.797861
 20
132.022263
 30
0.0
 11
410.509807
 21
121.02192
 31
0.0
  0
LINE
  5
78
100
AcDbEntity
  8
0
370
    -3
  6
Continuous
100
AcDbLine
 10
409.48363
 20
120.022263
 30
0.0
 11
169.98363
 21
120.022263
 31
0.0
  0
LINE
  5
79
100
AcDbEntity
  8
0
370
    -3
  6
Continuous
100
AcDbLine
 10
383.98363
 20
116.022263
 30
0.0
 11
382.98363
 21
115.022263
 31
0.0
  0
LINE
  5
7A
100
AcDbEntity
  8
0
370
    -3
  6
Continuous
100
AcDbLine
 10
269.98363
 20
115.022263
 30
0.0
 11
268.98363
 21
116.022263
 31
0.0
  0
LINE
  5
7B
100
AcDbEntity
  8
0
370
    -3
  6
Continuous
100
AcDbLine
 10
268.98363
 20
120.022263
 30
0.0
 11
268.98363
 21
116.022263
 31
0.0
  0
LINE
  5
7C
100
AcDbEntity
  8
0
370
    -3
  6
Continuous
100
AcDbLine
 10
383.98363
 20
120.022263
 30
0.0
 11
383.98363
 21
116.022263
 31
0.0
  0
LINE
  5
7D
100
AcDbEntity
  8
0
370
    -3
  6
CENTER
100
AcDbLine
 10
326.48363
 20
32.353714
 30
0.0
 11
326.48363
 21
293.832709
 31
0.0
  0
LINE
  5
7E
100
AcDbEntity
  8
0
370
    -3
  6
Continuous
100
AcDbLine
 10
382.98363
 20
115.022263
 30
0.0
 11
269.98363
 21
115.022263
 31
0.0
  0
LINE
  5
7F
100
AcDbEntity
  8
0
370
    -3
  6
Continuous
100
AcDbLine
 10
177.002414
 20
132.022263
 30
0.0
 11
175.48363
 21
190.022263
 31
0.0
  0
LINE
  5
80
100
AcDbEntity
  8
0
370
    -3
  6
Continuous
100
AcDbLine
 10
411.964847
 20
132.022263
 30
0.0
 11
413.48363
 21
190.022263
 31
0.0
  0
LINE
  5
81
100
AcDbEntity
  8
0
370
    -3
  6
Continuous
100
AcDbLine
 10
332.48363
 20
103.022369
 30
0.0
 11
320.48363
 21
103.022369
 31
0.0
  0
LINE
  5
82
100
AcDbEntity
  8
0
370
    -3
  6
Continuous
100
AcDbLine
 10
306.48363
 20
113.022369
 30
0.0
 11
306.48363
 21
48.022369
 31
0.0
  0
LINE
  5
83
100
AcDbEntity
  8
0
370
    -3
  6
Continuous
100
AcDbLine
 10
346.48363
 20
48.022369
 30
0.0
 11
306.48363
 21
48.022369
 31
0.0
  0
LINE
  5
84
100
AcDbEntity
  8
0
370
    -3
  6
Continuous
100
AcDbLine
 10
347.48363
 20
115.022212
 30
0.0
 11
347.48363
 21
113.022369
 31
0.0
  0
LINE
  5
85
100
AcDbEntity
  8
0
370
    -3
  6
Continuous
100
AcDbLine
 10
346.48363
 20
113.022369
 30
0.0
 11
346.48363
 21
48.022369
 31
0.0
  0
LINE
  5
86
100
AcDbEntity
  8
0
370
    -3
  6
Continuous
100
AcDbLine
 10
305.48363
 20
115.022314
 30
0.0
 11
305.48363
 21
113.022369
 31
0.0
  0
LINE
  5
87
100
AcDbEntity
  8
0
370
    -3
  6
Continuous
100
AcDbLine
 10
305.48363
 20
113.022369
 30
0.0
 11
347.48363
 21
113.022369
 31
0.0
  0
LINE
  5
88
100
AcDbEntity
  8
0
370
    -3
  6
Continuous
100
AcDbLine
 10
332.48363
 20
48.022369
 30
0.0
 11
332.48363
 21
103.022369
 31
0.0
  0
LINE
  5
89
100
AcDbEntity
  8
0
370
    -3
  6
Continuous
100
AcDbLine
 10
320.48363
 20
48.022369
 30
0.0
 11
320.48363
 21
103.022369
 31
0.0
  0
ARC
  5
8A
100
AcDbEntity
  8
0
370
    -3
  6
Continuous
100
AcDbCircle
 10
326.48363
 20
103.022369
 30
0.0
 40
6.0
100
AcDbArc
 50
0.0
 51
180.0
  0
LINE
  5
8B
100
AcDbEntity
  8
0
370
    -3
  6
Continuous
100
AcDbLine
 10
144.48363
 20
169.522263
 30
0.0
 11
144.48363
 21
106.522263
 31
0.0
  0
INSERT
  5
97
100
AcDbEntity
  8
0
100
AcDbBlockReference
  2
ZU_SYM__USERS_HOME_SYMBOL_POO_SYM_B20_-1
 10
142.983406
 20
200.522263
 30
0.0
  0
LINE
  5
98
100
AcDbEntity
  8
0
370
    -3
  6
Continuous
100
AcDbLine
 10
142.983406
 20
210.522263
 30
0.0
 11
142.983406
 21
190.022263
 31
0.0
  0
LINE
  5
99
100
AcDbEntity
  8
0
370
    -3
  6
Continuous
100
AcDbLine
 10
146.483983
 20
210.522263
 30
0.0
 11
146.483983
 21
270.522263
 31
0.0
  0
INSERT
  5
A5
100
AcDbEntity
  8
0
100
AcDbBlockReference
  2
ZU_SYM__USERS_HOME_SYMBOL_POO_SYM_B20_00001-1
 10
142.983406
 20
179.522263
 30
0.0
 41
-1.0
 50
180.0
  0
LINE
  5
A6
100
AcDbEntity
  8
0
370
    -3
  6
Continuous
100
AcDbLine
 10
142.983406
 20
169.522263
 30
0.0
 11
142.983406
 21
190.022263
 31
0.0
  0
LINE
  5
A7
100
AcDbEntity
  8
0
370
    -3
  6
Continuous
100
AcDbLine
 10
146.483983
 20
169.522263
 30
0.0
 11
146.483983
 21
109.522263
 31
0.0
  0
LINE
  5
A8
100
AcDbEntity
  8
0
370
    -3
  6
Continuous
100
AcDbLine
 10
146.483983
 20
210.522263
 30
0.0
 11
146.483983
 21
270.522263
 31
0.0
  0
LINE
  5
A9
100
AcDbEntity
  8
0
370
    -3
  6
Continuous
100
AcDbLine
 10
144.48363
 20
210.522263
 30
0.0
 11
144.48363
 21
273.522263
 31
0.0
  0
ARC
  5
AA
100
AcDbEntity
  8
0
370
    -3
  6
Continuous
100
AcDbCircle
 10
147.483983
 20
236.028071
 30
0.0
 40
1.0
100
AcDbArc
 50
90.0
 51
180.0
  0
LINE
  5
AB
100
AcDbEntity
  8
0
370
    -3
  6
Continuous
100
AcDbLine
 10
146.483983
 20
234.028071
 30
0.0
 11
146.483983
 21
236.028071
 31
0.0
  0
ARC
  5
AC
100
AcDbEntity
  8
0
370
    -3
  6
Continuous
100
AcDbCircle
 10
147.483983
 20
234.028071
 30
0.0
 40
1.0
100
AcDbArc
 50
180.0
 51
270.0
  0
ARC
  5
AD
100
AcDbEntity
  8
0
370
    -3
  6
Continuous
100
AcDbCircle
 10
144.48363
 20
263.022168
 30
0.0
 40
2.0
100
AcDbArc
 50
270.0
 51
0.0
  0
ARC
  5
AE
100
AcDbEntity
  8
0
370
    -3
  6
Continuous
100
AcDbCircle
 10
147.483983
 20
144.016455
 30
0.0
 40
1.0
100
AcDbArc
 50
180.0
 51
270.0
  0
LINE
  5
AF
100
AcDbEntity
  8
0
370
    -3
  6
Continuous
100
AcDbLine
 10
146.483983
 20
146.016455
 30
0.0
 11
146.483983
 21
144.016455
 31
0.0
  0
ARC
  5
B0
100
AcDbEntity
  8
0
370
    -3
  6
Continuous
100
AcDbCircle
 10
147.483983
 20
146.016455
 30
0.0
 40
1.0
100
AcDbArc
 50
90.0
 51
180.0
  0
ARC
  5
B1
100
AcDbEntity
  8
0
370
    -3
  6
Continuous
100
AcDbCircle
 10
144.48363
 20
117.022358
 30
0.0
 40
2.0
100
AcDbArc
 50
0.0
 51
90.0
  0
LINE
  5
B2
100
AcDbEntity
  8
0
370
    -3
  6
Continuous
100
AcDbLine
 10
-269.516315
 20
-101.694546
 30
0.0
 11
-214.516315
 21
-101.69468
 31
0.0
  0
LINE
  5
B3
100
AcDbEntity
  8
0
370
    -3
  6
Continuous
100
AcDbLine
 10
-273.845611
 20
-104.694536
 30
0.0
 11
-214.516322
 21
-104.69468
 31
0.0
  0
LINE
  5
B4
100
AcDbEntity
  8
0
370
    -3
  6
Continuous
100
AcDbLine
 10
-269.516322
 20
-104.694546
 30
0.0
 11
-269.516315
 21
-101.694546
 31
0.0
  0
LINE
  5
B5
100
AcDbEntity
  8
0
370
    -3
  6
Continuous
100
AcDbLine
 10
-269.216446
 20
-144.694547
 30
0.0
 11
-214.516419
 21
-144.69468
 31
0.0
  0
LINE
  5
B6
100
AcDbEntity
  8
0
370
    -3
  6
CENTER
100
AcDbLine
 10
-209.768281
 20
-124.694692
 30
0.0
 11
-450.490091
 21
-124.694106
 31
0.0
  0
LINE
  5
B7
100
AcDbEntity
  8
0
370
    -3
  6
CENTER
100
AcDbLine
 10
-356.516254
 20
12.981858
 30
0.0
 11
-356.516582
 21
-256.581367
 31
0.0
  0
LINE
  5
B8
100
AcDbEntity
  8
0
370
    -3
  6
Continuous
100
AcDbLine
 10
-414.516422
 20
-246.66893
 30
0.0
 11
-359.516422
 21
-248.589572
 31
0.0
  0
LINE
  5
B9
100
AcDbEntity
  8
0
370
    -3
  6
Continuous
100
AcDbLine
 10
-414.516422
 20
-245.694334
 30
0.0
 11
-425.517107
 21
-245.406271
 31
0.0
  0
LINE
  5
BA
100
AcDbEntity
  8
0
370
    -3
  6
Continuous
100
AcDbLine
 10
-425.517107
 20
-245.406271
 30
0.0
 11
-426.516422
 21
-244.380446
 31
0.0
  0
LINE
  5
BB
100
AcDbEntity
  8
0
370
    -3
  6
Continuous
100
AcDbLine
 10
-356.516422
 20
-247.194334
 30
0.0
 11
-359.516422
 21
-247.299097
 31
0.0
  0
LINE
  5
BC
100
AcDbEntity
  8
0
370
    -3
  6
Continuous
100
AcDbLine
 10
-426.516422
 20
-67.194334
 30
0.0
 11
-430.516422
 21
-67.194334
 31
0.0
  0
LINE
  5
BD
100
AcDbEntity
  8
0
370
    -3
  6
Continuous
100
AcDbLine
 10
-430.516422
 20
-67.194334
 30
0.0
 11
-431.516422
 21
-68.194334
 31
0.0
  0
LINE
  5
BE
100
AcDbEntity
  8
0
370
    -3
  6
Continuous
100
AcDbLine
 10
-298.516422
 20
-246.66893
 30
0.0
 11
-356.516422
 21
-248.694334
 31
0.0
  0
LINE
  5
BF
100
AcDbEntity
  8
0
370
    -3
  6
Continuous
100
AcDbLine
 10
-287.515736
 20
-245.406271
 30
0.0
 11
-286.516422
 21
-244.380446
 31
0.0
  0
LINE
  5
C0
100
AcDbEntity
  8
0
370
    -3
  6
Continuous
100
AcDbLine
 10
-298.516422
 20
-245.694334
 30
0.0
 11
-287.515736
 21
-245.406271
 31
0.0
  0
LINE
  5
C1
100
AcDbEntity
  8
0
370
    -3
  6
Continuous
100
AcDbLine
 10
-356.516422
 20
-248.694334
 30
0.0
 11
-356.516422
 21
-231.994334
 31
0.0
  0
LINE
  5
C2
100
AcDbEntity
  8
0
370
    -3
  6
Continuous
100
AcDbLine
 10
-359.516422
 20
-248.589572
 30
0.0
 11
-359.516422
 21
-231.98282
 31
0.0
  0
LINE
  5
C3
100
AcDbEntity
  8
0
370
    -3
  6
Continuous
100
AcDbLine
 10
-414.516422
 20
-246.66893
 30
0.0
 11
-414.516422
 21
-217.136308
 31
0.0
  0
LINE
  5
C4
100
AcDbEntity
  8
0
370
    -3
  6
Continuous
100
AcDbLine
 10
-414.516422
 20
-72.252361
 30
0.0
 11
-414.516422
 21
-39.719739
 31
0.0
  0
LINE
  5
C5
100
AcDbEntity
  8
0
370
    -3
  6
Continuous
100
AcDbLine
 10
-426.516422
 20
-244.380446
 30
0.0
 11
-426.516422
 21
-212.189947
 31
0.0
  0
LINE
  5
C6
100
AcDbEntity
  8
0
370
    -3
  6
Continuous
100
AcDbLine
 10
-298.516422
 20
-72.252377
 30
0.0
 11
-298.516422
 21
-39.719739
 31
0.0
  0
LINE
  5
C7
100
AcDbEntity
  8
0
370
    -3
  6
Continuous
100
AcDbLine
 10
-286.516422
 20
-77.198794
 30
0.0
 11
-286.516422
 21
-42.008223
 31
0.0
  0
LINE
  5
C8
100
AcDbEntity
  8
0
370
    -3
  6
Continuous
100
AcDbLine
 10
-298.516422
 20
-246.66893
 30
0.0
 11
-298.516422
 21
-217.136269
 31
0.0
  0
LINE
  5
C9
100
AcDbEntity
  8
0
370
    -3
  6
CENTER
100
AcDbLine
 10
-372.709709
 20
-144.694334
 30
0.0
 11
-342.771951
 21
-144.694334
 31
0.0
  0
LINE
  5
CA
100
AcDbEntity
  8
0
370
    -3
  6
Continuous
100
AcDbLine
 10
-431.516422
 20
-90.11372
 30
0.0
 11
-431.516422
 21
-68.194334
 31
0.0
  0
LINE
  5
CB
100
AcDbEntity
  8
0
370
    -3
  6
Continuous
100
AcDbLine
 10
-286.516422
 20
-244.380446
 30
0.0
 11
-286.516422
 21
-212.189874
 31
0.0
  0
LINE
  5
CC
100
AcDbEntity
  8
0
370
    -3
  6
Continuous
100
AcDbLine
 10
-214.516419
 20
-144.69468
 30
0.0
 11
-214.516315
 21
-101.69468
 31
0.0
  0
LINE
  5
CD
100
AcDbEntity
  8
0
370
    -3
  6
Continuous
100
AcDbLine
 10
-403.225653
 20
-39.325457
 30
0.0
 11
-414.516422
 21
-39.719739
 31
0.0
  0
LINE
  5
CE
100
AcDbEntity
  8
0
370
    -3
  6
Continuous
100
AcDbLine
 10
-414.516422
 20
-40.694334
 30
0.0
 11
-425.517107
 21
-40.982398
 31
0.0
  0
LINE
  5
CF
100
AcDbEntity
  8
0
370
    -3
  6
Continuous
100
AcDbLine
 10
-425.517107
 20
-40.982398
 30
0.0
 11
-426.516422
 21
-42.008223
 31
0.0
  0
LINE
  5
D0
100
AcDbEntity
  8
0
370
    -3
  6
Continuous
100
AcDbLine
 10
-309.807239
 20
-39.325455
 30
0.0
 11
-298.516422
 21
-39.719739
 31
0.0
  0
LINE
  5
D1
100
AcDbEntity
  8
0
370
    -3
  6
Continuous
100
AcDbLine
 10
-298.516422
 20
-40.694334
 30
0.0
 11
-287.515736
 21
-40.982398
 31
0.0
  0
LINE
  5
D2
100
AcDbEntity
  8
0
370
    -3
  6
Continuous
100
AcDbLine
 10
-287.515736
 20
-40.982398
 30
0.0
 11
-286.516422
 21
-42.008223
 31
0.0
  0
INSERT
  5
DE
100
AcDbEntity
  8
0
100
AcDbBlockReference
  2
ZU_SYM__USERS_HOME_SYMBOL_POO_SYM_S07_-1
 10
-423.550169
 20
-211.728057
 30
0.0
 41
1.0
 42
1.0
 50
45.0
  0
INSERT
  5
EA
100
AcDbEntity
  8
0
100
AcDbBlockReference
  2
ZU_SYM__USERS_HOME_SYMBOL_POO_SYM_S07_00002-1
 10
-423.550169
 20
-77.660612
 30
0.0
 41
-1.0
 42
1.0
 50
135.0
  0
INSERT
  5
F6
100
AcDbEntity
  8
0
100
AcDbBlockReference
  2
ZU_SYM__USERS_HOME_SYMBOL_POO_SYM_S07_00003-1
 10
-289.482723
 20
-77.660612
 30
0.0
 41
1.0
 42
1.0
 50
225.0
  0
INSERT
  5
102
100
AcDbEntity
  8
0
100
AcDbBlockReference
  2
ZU_SYM__USERS_HOME_SYMBOL_POO_SYM_S07_00004-1
 10
-289.482723
 20
-211.728057
 30
0.0
 41
-1.0
 42
1.0
 50
315.0
  0
ARC
  5
103
100
AcDbEntity
  8
0
370
    -3
  6
Continuous
100
AcDbCircle
 10
-356.516446
 20
-144.694334
 30
0.0
 40
76.8
100
AcDbArc
 50
218.737581
 51
231.262419
  0
ARC
  5
104
100
AcDbEntity
  8
0
370
    -3
  6
Continuous
100
AcDbCircle
 10
-356.516446
 20
-144.694334
 30
0.0
 40
92.8
100
AcDbArc
 50
218.737581
 51
231.262419
  0
ARC
  5
105
100
AcDbEntity
  8
0
370
    -3
  6
Continuous
100
AcDbCircle
 10
-377.57699
 20
-161.589704
 30
0.0
 40
65.8
100
AcDbArc
 50
182.979907
 51
218.737581
  0
ARC
  5
106
100
AcDbEntity
  8
0
370
    -3
  6
Continuous
100
AcDbCircle
 10
-373.411815
 20
-165.754878
 30
0.0
 40
65.8
100
AcDbArc
 50
231.262419
 51
267.020093
  0
LINE
  5
107
100
AcDbEntity
  8
0
370
    -3
  6
Continuous
100
AcDbLine
 10
-426.307885
 20
-207.414706
 30
0.0
 11
-425.576174
 21
-206.682994
 31
0.0
  0
LINE
  5
108
100
AcDbEntity
  8
0
370
    -3
  6
Continuous
100
AcDbLine
 10
-422.984483
 20
-211.162372
 30
0.0
 11
-426.307885
 21
-207.83897
 31
0.0
  0
LINE
  5
109
100
AcDbEntity
  8
0
370
    -3
  6
Continuous
100
AcDbLine
 10
-423.550169
 20
-211.728057
 30
0.0
 11
-426.732149
 21
-208.546077
 31
0.0
  0
LINE
  5
10A
100
AcDbEntity
  8
0
370
    -3
  6
Continuous
100
AcDbLine
 10
-424.504763
 20
-209.642092
 30
0.0
 11
-426.307885
 21
-207.83897
 31
0.0
  0
LINE
  5
10B
100
AcDbEntity
  8
0
370
    -3
  6
Continuous
100
AcDbLine
 10
-426.732149
 20
-208.546077
 30
0.0
 11
-426.166464
 21
-207.980391
 31
0.0
  0
ARC
  5
10C
100
AcDbEntity
  8
0
370
    -3
  6
Continuous
100
AcDbCircle
 10
-426.095753
 20
-207.626838
 30
0.0
 40
0.3
100
AcDbArc
 50
135.0
 51
225.0
  0
LINE
  5
10D
100
AcDbEntity
  8
0
370
    -3
  6
Continuous
100
AcDbLine
 10
-422.984483
 20
-211.162372
 30
0.0
 11
-419.661082
 21
-214.485774
 31
0.0
  0
LINE
  5
10E
100
AcDbEntity
  8
0
370
    -3
  6
Continuous
100
AcDbLine
 10
-423.550169
 20
-211.728057
 30
0.0
 11
-420.368188
 21
-214.910038
 31
0.0
  0
LINE
  5
10F
100
AcDbEntity
  8
0
370
    -3
  6
Continuous
100
AcDbLine
 10
-419.236818
 20
-214.485774
 30
0.0
 11
-418.505106
 21
-213.754062
 31
0.0
  0
LINE
  5
110
100
AcDbEntity
  8
0
370
    -3
  6
Continuous
100
AcDbLine
 10
-424.504763
 20
-209.642092
 30
0.0
 11
-426.166464
 21
-207.980391
 31
0.0
  0
LINE
  5
111
100
AcDbEntity
  8
0
370
    -3
  6
Continuous
100
AcDbLine
 10
-421.464204
 20
-212.682651
 30
0.0
 11
-419.661082
 21
-214.485774
 31
0.0
  0
LINE
  5
112
100
AcDbEntity
  8
0
370
    -3
  6
Continuous
100
AcDbLine
 10
-420.368188
 20
-214.910038
 30
0.0
 11
-419.802503
 21
-214.344352
 31
0.0
  0
ARC
  5
113
100
AcDbEntity
  8
0
370
    -3
  6
Continuous
100
AcDbCircle
 10
-419.44895
 20
-214.273642
 30
0.0
 40
0.3
100
AcDbArc
 50
225.0
 51
315.0
  0
ARC
  5
114
100
AcDbEntity
  8
0
370
    -3
  6
Continuous
100
AcDbCircle
 10
-356.516446
 20
-144.694334
 30
0.0
 40
92.8
100
AcDbArc
 50
128.737581
 51
141.262419
  0
ARC
  5
115
100
AcDbEntity
  8
0
370
    -3
  6
Continuous
100
AcDbCircle
 10
-377.57699
 20
-127.798965
 30
0.0
 40
65.8
100
AcDbArc
 50
141.262419
 51
177.020093
  0
LINE
  5
116
100
AcDbEntity
  8
0
370
    -3
  6
Continuous
100
AcDbLine
 10
-422.984483
 20
-78.226297
 30
0.0
 11
-426.307885
 21
-81.549699
 31
0.0
  0
LINE
  5
117
100
AcDbEntity
  8
0
370
    -3
  6
Continuous
100
AcDbLine
 10
-423.550169
 20
-77.660612
 30
0.0
 11
-426.732149
 21
-80.842592
 31
0.0
  0
LINE
  5
118
100
AcDbEntity
  8
0
370
    -3
  6
Continuous
100
AcDbLine
 10
-426.307885
 20
-81.973963
 30
0.0
 11
-425.576174
 21
-82.705674
 31
0.0
  0
LINE
  5
119
100
AcDbEntity
  8
0
370
    -3
  6
Continuous
100
AcDbLine
 10
-424.504763
 20
-79.746577
 30
0.0
 11
-426.307885
 21
-81.549699
 31
0.0
  0
LINE
  5
11A
100
AcDbEntity
  8
0
370
    -3
  6
Continuous
100
AcDbLine
 10
-426.732149
 20
-80.842592
 30
0.0
 11
-426.166464
 21
-81.408277
 31
0.0
  0
ARC
  5
11B
100
AcDbEntity
  8
0
370
    -3
  6
Continuous
100
AcDbCircle
 10
-426.095753
 20
-81.761831
 30
0.0
 40
0.3
100
AcDbArc
 50
135.0
 51
225.0
  0
LINE
  5
11C
100
AcDbEntity
  8
0
370
    -3
  6
Continuous
100
AcDbLine
 10
-422.984483
 20
-78.226297
 30
0.0
 11
-419.661082
 21
-74.902895
 31
0.0
  0
LINE
  5
11D
100
AcDbEntity
  8
0
370
    -3
  6
Continuous
100
AcDbLine
 10
-423.550169
 20
-77.660612
 30
0.0
 11
-420.368188
 21
-74.478631
 31
0.0
  0
LINE
  5
11E
100
AcDbEntity
  8
0
370
    -3
  6
Continuous
100
AcDbLine
 10
-419.236818
 20
-74.902895
 30
0.0
 11
-418.505106
 21
-75.634606
 31
0.0
  0
LINE
  5
11F
100
AcDbEntity
  8
0
370
    -3
  6
Continuous
100
AcDbLine
 10
-424.504763
 20
-79.746577
 30
0.0
 11
-426.166464
 21
-81.408277
 31
0.0
  0
LINE
  5
120
100
AcDbEntity
  8
0
370
    -3
  6
Continuous
100
AcDbLine
 10
-421.464204
 20
-76.706017
 30
0.0
 11
-419.661082
 21
-74.902895
 31
0.0
  0
LINE
  5
121
100
AcDbEntity
  8
0
370
    -3
  6
Continuous
100
AcDbLine
 10
-420.368188
 20
-74.478631
 30
0.0
 11
-419.802503
 21
-75.044316
 31
0.0
  0
ARC
  5
122
100
AcDbEntity
  8
0
370
    -3
  6
Continuous
100
AcDbCircle
 10
-419.44895
 20
-75.115027
 30
0.0
 40
0.3
100
AcDbArc
 50
45.0
 51
135.0
  0
ARC
  5
123
100
AcDbEntity
  8
0
370
    -3
  6
Continuous
100
AcDbCircle
 10
-356.516446
 20
-144.694334
 30
0.0
 40
76.8
100
AcDbArc
 50
38.737581
 51
51.262419
  0
ARC
  5
124
100
AcDbEntity
  8
0
370
    -3
  6
Continuous
100
AcDbCircle
 10
-356.516446
 20
-144.694334
 30
0.0
 40
92.8
100
AcDbArc
 50
38.737581
 51
51.262419
  0
ARC
  5
125
100
AcDbEntity
  8
0
370
    -3
  6
Continuous
100
AcDbCircle
 10
-335.455902
 20
-127.798965
 30
0.0
 40
65.8
100
AcDbArc
 50
2.979907
 51
38.737581
  0
ARC
  5
126
100
AcDbEntity
  8
0
370
    -3
  6
Continuous
100
AcDbCircle
 10
-339.621077
 20
-123.633791
 30
0.0
 40
65.8
100
AcDbArc
 50
51.262419
 51
87.020093
  0
LINE
  5
127
100
AcDbEntity
  8
0
370
    -3
  6
Continuous
100
AcDbLine
 10
-290.048409
 20
-78.226297
 30
0.0
 11
-286.725007
 21
-81.549699
 31
0.0
  0
LINE
  5
128
100
AcDbEntity
  8
0
370
    -3
  6
Continuous
100
AcDbLine
 10
-289.482723
 20
-77.660612
 30
0.0
 11
-286.300743
 21
-80.842592
 31
0.0
  0
LINE
  5
129
100
AcDbEntity
  8
0
370
    -3
  6
Continuous
100
AcDbLine
 10
-286.725007
 20
-81.973963
 30
0.0
 11
-287.456718
 21
-82.705674
 31
0.0
  0
LINE
  5
12A
100
AcDbEntity
  8
0
370
    -3
  6
Continuous
100
AcDbLine
 10
-288.528129
 20
-79.746577
 30
0.0
 11
-286.725007
 21
-81.549699
 31
0.0
  0
LINE
  5
12B
100
AcDbEntity
  8
0
370
    -3
  6
Continuous
100
AcDbLine
 10
-286.300743
 20
-80.842592
 30
0.0
 11
-286.866428
 21
-81.408277
 31
0.0
  0
ARC
  5
12C
100
AcDbEntity
  8
0
370
    -3
  6
Continuous
100
AcDbCircle
 10
-286.937139
 20
-81.761831
 30
0.0
 40
0.3
100
AcDbArc
 50
315.0
 51
45.0
  0
LINE
  5
12D
100
AcDbEntity
  8
0
370
    -3
  6
Continuous
100
AcDbLine
 10
-290.048409
 20
-78.226297
 30
0.0
 11
-293.37181
 21
-74.902895
 31
0.0
  0
LINE
  5
12E
100
AcDbEntity
  8
0
370
    -3
  6
Continuous
100
AcDbLine
 10
-289.482723
 20
-77.660612
 30
0.0
 11
-292.664704
 21
-74.478631
 31
0.0
  0
LINE
  5
12F
100
AcDbEntity
  8
0
370
    -3
  6
Continuous
100
AcDbLine
 10
-293.796075
 20
-74.902895
 30
0.0
 11
-294.527786
 21
-75.634606
 31
0.0
  0
LINE
  5
130
100
AcDbEntity
  8
0
370
    -3
  6
Continuous
100
AcDbLine
 10
-288.528129
 20
-79.746577
 30
0.0
 11
-286.866428
 21
-81.408277
 31
0.0
  0
LINE
  5
131
100
AcDbEntity
  8
0
370
    -3
  6
Continuous
100
AcDbLine
 10
-291.568688
 20
-76.706017
 30
0.0
 11
-293.37181
 21
-74.902895
 31
0.0
  0
LINE
  5
132
100
AcDbEntity
  8
0
370
    -3
  6
Continuous
100
AcDbLine
 10
-292.664704
 20
-74.478631
 30
0.0
 11
-293.230389
 21
-75.044316
 31
0.0
  0
ARC
  5
133
100
AcDbEntity
  8
0
370
    -3
  6
Continuous
100
AcDbCircle
 10
-293.583942
 20
-75.115027
 30
0.0
 40
0.3
100
AcDbArc
 50
45.0
 51
135.0
  0
ARC
  5
134
100
AcDbEntity
  8
0
370
    -3
  6
Continuous
100
AcDbCircle
 10
-356.516446
 20
-144.694334
 30
0.0
 40
92.8
100
AcDbArc
 50
308.737581
 51
321.262419
  0
ARC
  5
135
100
AcDbEntity
  8
0
370
    -3
  6
Continuous
100
AcDbCircle
 10
-339.621077
 20
-165.754878
 30
0.0
 40
65.8
100
AcDbArc
 50
272.979907
 51
308.737581
  0
LINE
  5
136
100
AcDbEntity
  8
0
370
    -3
  6
Continuous
100
AcDbLine
 10
-290.048409
 20
-211.162372
 30
0.0
 11
-286.725007
 21
-207.83897
 31
0.0
  0
LINE
  5
137
100
AcDbEntity
  8
0
370
    -3
  6
Continuous
100
AcDbLine
 10
-289.482723
 20
-211.728057
 30
0.0
 11
-286.300743
 21
-208.546077
 31
0.0
  0
LINE
  5
138
100
AcDbEntity
  8
0
370
    -3
  6
Continuous
100
AcDbLine
 10
-286.725007
 20
-207.414706
 30
0.0
 11
-287.456718
 21
-206.682994
 31
0.0
  0
LINE
  5
139
100
AcDbEntity
  8
0
370
    -3
  6
Continuous
100
AcDbLine
 10
-288.528129
 20
-209.642092
 30
0.0
 11
-286.725007
 21
-207.83897
 31
0.0
  0
LINE
  5
13A
100
AcDbEntity
  8
0
370
    -3
  6
Continuous
100
AcDbLine
 10
-286.300743
 20
-208.546077
 30
0.0
 11
-286.866428
 21
-207.980391
 31
0.0
  0
ARC
  5
13B
100
AcDbEntity
  8
0
370
    -3
  6
Continuous
100
AcDbCircle
 10
-286.937139
 20
-207.626838
 30
0.0
 40
0.3
100
AcDbArc
 50
315.0
 51
45.0
  0
LINE
  5
13C
100
AcDbEntity
  8
0
370
    -3
  6
Continuous
100
AcDbLine
 10
-290.048409
 20
-211.162372
 30
0.0
 11
-293.37181
 21
-214.485774
 31
0.0
  0
LINE
  5
13D
100
AcDbEntity
  8
0
370
    -3
  6
Continuous
100
AcDbLine
 10
-289.482723
 20
-211.728057
 30
0.0
 11
-292.664704
 21
-214.910038
 31
0.0
  0
LINE
  5
13E
100
AcDbEntity
  8
0
370
    -3
  6
Continuous
100
AcDbLine
 10
-293.796075
 20
-214.485774
 30
0.0
 11
-294.527786
 21
-213.754062
 31
0.0
  0
LINE
  5
13F
100
AcDbEntity
  8
0
370
    -3
  6
Continuous
100
AcDbLine
 10
-288.528129
 20
-209.642092
 30
0.0
 11
-286.866428
 21
-207.980391
 31
0.0
  0
LINE
  5
140
100
AcDbEntity
  8
0
370
    -3
  6
Continuous
100
AcDbLine
 10
-291.568688
 20
-212.682651
 30
0.0
 11
-293.37181
 21
-214.485774
 31
0.0
  0
LINE
  5
141
100
AcDbEntity
  8
0
370
    -3
  6
Continuous
100
AcDbLine
 10
-292.664704
 20
-214.910038
 30
0.0
 11
-293.230389
 21
-214.344352
 31
0.0
  0
ARC
  5
142
100
AcDbEntity
  8
0
370
    -3
  6
Continuous
100
AcDbCircle
 10
-293.583942
 20
-214.273642
 30
0.0
 40
0.3
100
AcDbArc
 50
225.0
 51
315.0
  0
ARC
  5
143
100
AcDbEntity
  8
0
370
    -3
  6
Continuous
100
AcDbCircle
 10
-393.069416
 20
-196.005935
 30
0.0
 40
2.0
100
AcDbArc
 50
234.534976
 51
330.0
  0
ARC
  5
144
100
AcDbEntity
  8
0
370
    -3
  6
Continuous
100
AcDbCircle
 10
-393.069416
 20
-93.382733
 30
0.0
 40
2.0
100
AcDbArc
 50
30.0
 51
125.465024
  0
ARC
  5
145
100
AcDbEntity
  8
0
370
    -3
  6
Continuous
100
AcDbCircle
 10
-392.567096
 20
-94.252778
 30
0.0
 40
2.0
100
AcDbArc
 50
305.553444
 51
30.0
  0
ARC
  5
146
100
AcDbEntity
  8
0
370
    -3
  6
Continuous
100
AcDbCircle
 10
-388.04224
 20
-102.090058
 30
0.0
 40
2.0
100
AcDbArc
 50
30.0
 51
126.50025
  0
ARC
  5
147
100
AcDbEntity
  8
0
370
    -3
  6
Continuous
100
AcDbCircle
 10
-386.280107
 20
-105.142161
 30
0.0
 40
2.0
100
AcDbArc
 50
306.962063
 51
30.0
  0
ARC
  5
148
100
AcDbEntity
  8
0
370
    -3
  6
Continuous
100
AcDbCircle
 10
-381.739143
 20
-113.007341
 30
0.0
 40
2.0
100
AcDbArc
 50
30.0
 51
128.519624
  0
ARC
  5
149
100
AcDbEntity
  8
0
370
    -3
  6
Continuous
100
AcDbCircle
 10
-379.967735
 20
-116.075511
 30
0.0
 40
2.0
100
AcDbArc
 50
309.332418
 51
30.0
  0
ARC
  5
14A
100
AcDbEntity
  8
0
370
    -3
  6
Continuous
100
AcDbCircle
 10
-375.387393
 20
-124.008896
 30
0.0
 40
2.0
100
AcDbArc
 50
30.0
 51
132.373625
  0
ARC
  5
14B
100
AcDbEntity
  8
0
370
    -3
  6
Continuous
100
AcDbCircle
 10
-373.589572
 20
-127.122813
 30
0.0
 40
2.0
100
AcDbArc
 50
314.175804
 51
30.0
  0
ARC
  5
14C
100
AcDbEntity
  8
0
370
    -3
  6
Continuous
100
AcDbCircle
 10
-368.858401
 20
-135.317441
 30
0.0
 40
2.0
100
AcDbArc
 50
30.0
 51
142.773972
  0
ARC
  5
14D
100
AcDbEntity
  8
0
370
    -3
  6
Continuous
100
AcDbCircle
 10
-366.908751
 20
-138.694334
 30
0.0
 40
2.0
100
AcDbArc
 50
330.0
 51
30.0
  0
ARC
  5
14E
100
AcDbEntity
  8
0
370
    -3
  6
Continuous
100
AcDbCircle
 10
-356.516446
 20
-132.694334
 30
0.0
 40
2.0
100
AcDbArc
 50
210.0
 51
270.0
  0
ARC
  5
14F
100
AcDbEntity
  8
0
370
    -3
  6
Continuous
100
AcDbCircle
 10
-358.466097
 20
-129.317441
 30
0.0
 40
2.0
100
AcDbArc
 50
97.226028
 51
210.0
  0
ARC
  5
150
100
AcDbEntity
  8
0
370
    -3
  6
Continuous
100
AcDbCircle
 10
-363.197267
 20
-121.122813
 30
0.0
 40
2.0
100
AcDbArc
 50
210.0
 51
285.824196
  0
ARC
  5
151
100
AcDbEntity
  8
0
370
    -3
  6
Continuous
100
AcDbCircle
 10
-364.995088
 20
-118.008896
 30
0.0
 40
2.0
100
AcDbArc
 50
107.626375
 51
210.0
  0
ARC
  5
152
100
AcDbEntity
  8
0
370
    -3
  6
Continuous
100
AcDbCircle
 10
-369.57543
 20
-110.075511
 30
0.0
 40
2.0
100
AcDbArc
 50
210.0
 51
290.667582
  0
ARC
  5
153
100
AcDbEntity
  8
0
370
    -3
  6
Continuous
100
AcDbCircle
 10
-371.346838
 20
-107.007341
 30
0.0
 40
2.0
100
AcDbArc
 50
111.480376
 51
210.0
  0
ARC
  5
154
100
AcDbEntity
  8
0
370
    -3
  6
Continuous
100
AcDbCircle
 10
-375.887803
 20
-99.142161
 30
0.0
 40
2.0
100
AcDbArc
 50
210.0
 51
293.037937
  0
ARC
  5
155
100
AcDbEntity
  8
0
370
    -3
  6
Continuous
100
AcDbCircle
 10
-377.649935
 20
-96.090058
 30
0.0
 40
2.0
100
AcDbArc
 50
113.49975
 51
210.0
  0
ARC
  5
156
100
AcDbEntity
  8
0
370
    -3
  6
Continuous
100
AcDbCircle
 10
-382.174791
 20
-88.252778
 30
0.0
 40
2.0
100
AcDbArc
 50
210.0
 51
294.446556
  0
ARC
  5
157
100
AcDbEntity
  8
0
370
    -3
  6
Continuous
100
AcDbCircle
 10
-382.677111
 20
-87.382733
 30
0.0
 40
2.0
100
AcDbArc
 50
114.534976
 51
210.0
  0
LINE
  5
158
100
AcDbEntity
  8
0
370
    -3
  6
Continuous
100
AcDbLine
 10
-390.835045
 20
-93.252778
 30
0.0
 11
-391.337365
 21
-92.382733
 31
0.0
  0
LINE
  5
159
100
AcDbEntity
  8
0
370
    -3
  6
Continuous
100
AcDbLine
 10
-384.548057
 20
-104.142161
 30
0.0
 11
-386.310189
 21
-101.090058
 31
0.0
  0
LINE
  5
15A
100
AcDbEntity
  8
0
370
    -3
  6
Continuous
100
AcDbLine
 10
-378.235684
 20
-115.075511
 30
0.0
 11
-380.007093
 21
-112.007341
 31
0.0
  0
LINE
  5
15B
100
AcDbEntity
  8
0
370
    -3
  6
Continuous
100
AcDbLine
 10
-371.857521
 20
-126.122813
 30
0.0
 11
-373.655342
 21
-123.008896
 31
0.0
  0
LINE
  5
15C
100
AcDbEntity
  8
0
370
    -3
  6
Continuous
100
AcDbLine
 10
-364.929318
 20
-122.122813
 30
0.0
 11
-366.727139
 21
-119.008896
 31
0.0
  0
LINE
  5
15D
100
AcDbEntity
  8
0
370
    -3
  6
Continuous
100
AcDbLine
 10
-371.307481
 20
-111.075511
 30
0.0
 11
-373.078889
 21
-108.007341
 31
0.0
  0
LINE
  5
15E
100
AcDbEntity
  8
0
370
    -3
  6
Continuous
100
AcDbLine
 10
-377.619853
 20
-100.142161
 30
0.0
 11
-379.381985
 21
-97.090058
 31
0.0
  0
LINE
  5
15F
100
AcDbEntity
  8
0
370
    -3
  6
Continuous
100
AcDbLine
 10
-383.906842
 20
-89.252778
 30
0.0
 11
-384.409162
 21
-88.382733
 31
0.0
  0
LINE
  5
160
100
AcDbEntity
  8
0
370
    -3
  6
Continuous
100
AcDbLine
 10
-365.1767
 20
-137.694334
 30
0.0
 11
-367.126351
 21
-134.317441
 31
0.0
  0
LINE
  5
161
100
AcDbEntity
  8
0
370
    -3
  6
Continuous
100
AcDbLine
 10
-358.248497
 20
-133.694334
 30
0.0
 11
-360.198147
 21
-130.317441
 31
0.0
  0
ARC
  5
162
100
AcDbEntity
  8
0
370
    -3
  6
Continuous
100
AcDbCircle
 10
-375.387393
 20
-165.379773
 30
0.0
 40
2.0
100
AcDbArc
 50
227.626375
 51
330.0
  0
ARC
  5
163
100
AcDbEntity
  8
0
370
    -3
  6
Continuous
100
AcDbCircle
 10
-373.589572
 20
-162.265856
 30
0.0
 40
2.0
100
AcDbArc
 50
330.0
 51
45.824196
  0
LINE
  5
164
100
AcDbEntity
  8
0
370
    -3
  6
Continuous
100
AcDbLine
 10
-371.857521
 20
-163.265856
 30
0.0
 11
-373.655342
 21
-166.379773
 31
0.0
  0
ARC
  5
165
100
AcDbEntity
  8
0
370
    -3
  6
Continuous
100
AcDbCircle
 10
-375.887803
 20
-190.246508
 30
0.0
 40
2.0
100
AcDbArc
 50
66.962063
 51
150.0
  0
ARC
  5
166
100
AcDbEntity
  8
0
370
    -3
  6
Continuous
100
AcDbCircle
 10
-347.071596
 20
-171.053295
 30
0.0
 40
2.0
100
AcDbArc
 50
289.713439
 51
30.0
  0
ARC
  5
167
100
AcDbEntity
  8
0
370
    -3
  6
Continuous
100
AcDbCircle
 10
-348.854388
 20
-167.965408
 30
0.0
 40
2.0
100
AcDbArc
 50
30.0
 51
108.224256
  0
ARC
  5
168
100
AcDbEntity
  8
0
370
    -3
  6
Continuous
100
AcDbCircle
 10
-363.197267
 20
-168.265856
 30
0.0
 40
2.0
100
AcDbArc
 50
74.175804
 51
150.0
  0
ARC
  5
169
100
AcDbEntity
  8
0
370
    -3
  6
Continuous
100
AcDbCircle
 10
-364.995088
 20
-171.379773
 30
0.0
 40
2.0
100
AcDbArc
 50
150.0
 51
252.373625
  0
ARC
  5
16A
100
AcDbEntity
  8
0
370
    -3
  6
Continuous
100
AcDbCircle
 10
-371.346838
 20
-182.381328
 30
0.0
 40
2.0
100
AcDbArc
 50
150.0
 51
248.519624
  0
ARC
  5
16B
100
AcDbEntity
  8
0
370
    -3
  6
Continuous
100
AcDbCircle
 10
-369.57543
 20
-179.313158
 30
0.0
 40
2.0
100
AcDbArc
 50
69.332418
 51
150.0
  0
ARC
  5
16C
100
AcDbEntity
  8
0
370
    -3
  6
Continuous
100
AcDbCircle
 10
-379.967735
 20
-173.313158
 30
0.0
 40
2.0
100
AcDbArc
 50
330.0
 51
50.667582
  0
ARC
  5
16D
100
AcDbEntity
  8
0
370
    -3
  6
Continuous
100
AcDbCircle
 10
-381.739143
 20
-176.381328
 30
0.0
 40
2.0
100
AcDbArc
 50
231.480376
 51
330.0
  0
ARC
  5
16E
100
AcDbEntity
  8
0
370
    -3
  6
Continuous
100
AcDbCircle
 10
-380.500816
 20
-149.694334
 30
0.0
 40
2.0
100
AcDbArc
 50
11.775744
 51
90.0
  0
ARC
  5
16F
100
AcDbEntity
  8
0
370
    -3
  6
Continuous
100
AcDbCircle
 10
-384.066401
 20
-149.694334
 30
0.0
 40
2.0
100
AcDbArc
 50
90.0
 51
190.286561
  0
ARC
  5
170
100
AcDbEntity
  8
0
370
    -3
  6
Continuous
100
AcDbCircle
 10
-393.177052
 20
-149.694334
 30
0.0
 40
2.0
100
AcDbArc
 50
7.766434
 51
90.0
  0
ARC
  5
171
100
AcDbEntity
  8
0
370
    -3
  6
Continuous
100
AcDbCircle
 10
-396.706619
 20
-149.694334
 30
0.0
 40
2.0
100
AcDbArc
 50
90.0
 51
187.091646
  0
ARC
  5
172
100
AcDbEntity
  8
0
370
    -3
  6
Continuous
100
AcDbCircle
 10
-396.706619
 20
-139.694334
 30
0.0
 40
2.0
100
AcDbArc
 50
172.908354
 51
270.0
  0
ARC
  5
173
100
AcDbEntity
  8
0
370
    -3
  6
Continuous
100
AcDbCircle
 10
-393.177052
 20
-139.694334
 30
0.0
 40
2.0
100
AcDbArc
 50
270.0
 51
352.233566
  0
ARC
  5
174
100
AcDbEntity
  8
0
370
    -3
  6
Continuous
100
AcDbCircle
 10
-384.066401
 20
-139.694334
 30
0.0
 40
2.0
100
AcDbArc
 50
169.713439
 51
270.0
  0
ARC
  5
175
100
AcDbEntity
  8
0
370
    -3
  6
Continuous
100
AcDbCircle
 10
-380.500816
 20
-139.694334
 30
0.0
 40
2.0
100
AcDbArc
 50
270.0
 51
348.224256
  0
ARC
  5
176
100
AcDbEntity
  8
0
370
    -3
  6
Continuous
100
AcDbCircle
 10
-340.751487
 20
-107.388624
 30
0.0
 40
2.0
100
AcDbArc
 50
330.0
 51
67.091646
  0
ARC
  5
177
100
AcDbEntity
  8
0
370
    -3
  6
Continuous
100
AcDbCircle
 10
-342.51627
 20
-110.445319
 30
0.0
 40
2.0
100
AcDbArc
 50
247.766434
 51
330.0
  0
ARC
  5
178
100
AcDbEntity
  8
0
370
    -3
  6
Continuous
100
AcDbCircle
 10
-347.071596
 20
-118.335374
 30
0.0
 40
2.0
100
AcDbArc
 50
330.0
 51
70.286561
  0
ARC
  5
179
100
AcDbEntity
  8
0
370
    -3
  6
Continuous
100
AcDbCircle
 10
-348.854388
 20
-121.423261
 30
0.0
 40
2.0
100
AcDbArc
 50
251.775744
 51
330.0
  0
ARC
  5
17A
100
AcDbEntity
  8
0
370
    -3
  6
Continuous
100
AcDbCircle
 10
-353.510873
 20
-129.488529
 30
0.0
 40
2.0
100
AcDbArc
 50
330.0
 51
78.819063
  0
ARC
  5
17B
100
AcDbEntity
  8
0
370
    -3
  6
Continuous
100
AcDbCircle
 10
-355.392217
 20
-132.747113
 30
0.0
 40
2.0
100
AcDbArc
 50
264.624318
 51
330.0
  0
ARC
  5
17C
100
AcDbEntity
  8
0
370
    -3
  6
Continuous
100
AcDbCircle
 10
-367.425158
 20
-139.694334
 30
0.0
 40
2.0
100
AcDbArc
 50
270.0
 51
335.375682
  0
ARC
  5
17D
100
AcDbEntity
  8
0
370
    -3
  6
Continuous
100
AcDbCircle
 10
-371.187847
 20
-139.694334
 30
0.0
 40
2.0
100
AcDbArc
 50
161.180937
 51
270.0
  0
ARC
  5
17E
100
AcDbEntity
  8
0
370
    -3
  6
Continuous
100
AcDbCircle
 10
-371.187847
 20
-149.694334
 30
0.0
 40
2.0
100
AcDbArc
 50
90.0
 51
198.819063
  0
ARC
  5
17F
100
AcDbEntity
  8
0
370
    -3
  6
Continuous
100
AcDbCircle
 10
-368.858401
 20
-154.071228
 30
0.0
 40
2.0
100
AcDbArc
 50
217.226028
 51
330.0
  0
ARC
  5
180
100
AcDbEntity
  8
0
370
    -3
  6
Continuous
100
AcDbCircle
 10
-367.425158
 20
-149.694334
 30
0.0
 40
2.0
100
AcDbArc
 50
24.624318
 51
90.0
  0
ARC
  5
181
100
AcDbEntity
  8
0
370
    -3
  6
Continuous
100
AcDbCircle
 10
-366.908751
 20
-150.694334
 30
0.0
 40
2.0
100
AcDbArc
 50
330.0
 51
30.0
  0
ARC
  5
182
100
AcDbEntity
  8
0
370
    -3
  6
Continuous
100
AcDbCircle
 10
-356.516446
 20
-156.694334
 30
0.0
 40
2.0
100
AcDbArc
 50
90.0
 51
150.0
  0
ARC
  5
183
100
AcDbEntity
  8
0
370
    -3
  6
Continuous
100
AcDbCircle
 10
-358.466097
 20
-160.071228
 30
0.0
 40
2.0
100
AcDbArc
 50
150.0
 51
262.773972
  0
ARC
  5
184
100
AcDbEntity
  8
0
370
    -3
  6
Continuous
100
AcDbCircle
 10
-353.510873
 20
-159.90014
 30
0.0
 40
2.0
100
AcDbArc
 50
281.180937
 51
30.0
  0
ARC
  5
185
100
AcDbEntity
  8
0
370
    -3
  6
Continuous
100
AcDbCircle
 10
-355.392217
 20
-156.641556
 30
0.0
 40
2.0
100
AcDbArc
 50
30.0
 51
95.375682
  0
ARC
  5
186
100
AcDbEntity
  8
0
370
    -3
  6
Continuous
100
AcDbCircle
 10
-346.731963
 20
-151.641556
 30
0.0
 40
2.0
100
AcDbArc
 50
144.624318
 51
210.0
  0
ARC
  5
187
100
AcDbEntity
  8
0
370
    -3
  6
Continuous
100
AcDbCircle
 10
-346.124141
 20
-150.694334
 30
0.0
 40
2.0
100
AcDbArc
 50
90.0
 51
150.0
  0
ARC
  5
188
100
AcDbEntity
  8
0
370
    -3
  6
Continuous
100
AcDbCircle
 10
-344.850619
 20
-154.90014
 30
0.0
 40
2.0
100
AcDbArc
 50
210.0
 51
318.819063
  0
ARC
  5
189
100
AcDbEntity
  8
0
370
    -3
  6
Continuous
100
AcDbCircle
 10
-342.22484
 20
-150.694334
 30
0.0
 40
2.0
100
AcDbArc
 50
337.226028
 51
90.0
  0
ARC
  5
18A
100
AcDbEntity
  8
0
370
    -3
  6
Continuous
100
AcDbCircle
 10
-332.762499
 20
-150.694334
 30
0.0
 40
2.0
100
AcDbArc
 50
90.0
 51
165.824196
  0
ARC
  5
18B
100
AcDbEntity
  8
0
370
    -3
  6
Continuous
100
AcDbCircle
 10
-340.194134
 20
-162.965408
 30
0.0
 40
2.0
100
AcDbArc
 50
131.775744
 51
210.0
  0
ARC
  5
18C
100
AcDbEntity
  8
0
370
    -3
  6
Continuous
100
AcDbCircle
 10
-338.411342
 20
-166.053295
 30
0.0
 40
2.0
100
AcDbArc
 50
210.0
 51
310.286561
  0
ARC
  5
18D
100
AcDbEntity
  8
0
370
    -3
  6
Continuous
100
AcDbCircle
 10
-329.166857
 20
-150.694334
 30
0.0
 40
2.0
100
AcDbArc
 50
347.626375
 51
90.0
  0
ARC
  5
18E
100
AcDbEntity
  8
0
370
    -3
  6
Continuous
100
AcDbCircle
 10
-336.223159
 20
-189.843338
 30
0.0
 40
2.0
100
AcDbArc
 50
30.0
 51
114.20266
  0
ARC
  5
18F
100
AcDbEntity
  8
0
370
    -3
  6
Continuous
100
AcDbCircle
 10
-340.751487
 20
-182.000045
 30
0.0
 40
2.0
100
AcDbArc
 50
292.908354
 51
30.0
  0
ARC
  5
190
100
AcDbEntity
  8
0
370
    -3
  6
Continuous
100
AcDbCircle
 10
-342.51627
 20
-178.94335
 30
0.0
 40
2.0
100
AcDbArc
 50
30.0
 51
112.233566
  0
ARC
  5
191
100
AcDbEntity
  8
0
370
    -3
  6
Continuous
100
AcDbCircle
 10
-332.091233
 20
-177.000045
 30
0.0
 40
2.0
100
AcDbArc
 50
210.0
 51
307.091646
  0
ARC
  5
192
100
AcDbEntity
  8
0
370
    -3
  6
Continuous
100
AcDbCircle
 10
-333.856016
 20
-173.94335
 30
0.0
 40
2.0
100
AcDbArc
 50
127.766434
 51
210.0
  0
ARC
  5
193
100
AcDbEntity
  8
0
370
    -3
  6
Continuous
100
AcDbCircle
 10
-320.006173
 20
-150.694334
 30
0.0
 40
2.0
100
AcDbArc
 50
90.0
 51
170.667582
  0
ARC
  5
194
100
AcDbEntity
  8
0
370
    -3
  6
Continuous
100
AcDbCircle
 10
-316.463356
 20
-150.694334
 30
0.0
 40
2.0
100
AcDbArc
 50
351.480376
 51
90.0
  0
ARC
  5
195
100
AcDbEntity
  8
0
370
    -3
  6
Continuous
100
AcDbCircle
 10
-327.562905
 20
-184.843338
 30
0.0
 40
2.0
100
AcDbArc
 50
125.79734
 51
210.0
  0
ARC
  5
196
100
AcDbEntity
  8
0
370
    -3
  6
Continuous
100
AcDbCircle
 10
-307.381428
 20
-150.694334
 30
0.0
 40
2.0
100
AcDbArc
 50
90.0
 51
173.037937
  0
ARC
  5
197
100
AcDbEntity
  8
0
370
    -3
  6
Continuous
100
AcDbCircle
 10
-303.857164
 20
-150.694334
 30
0.0
 40
2.0
100
AcDbArc
 50
353.49975
 51
90.0
  0
ARC
  5
198
100
AcDbEntity
  8
0
370
    -3
  6
Continuous
100
AcDbCircle
 10
-325.804507
 20
-187.888973
 30
0.0
 40
2.0
100
AcDbArc
 50
210.0
 51
305.413312
  0
ARC
  5
199
100
AcDbEntity
  8
0
370
    -3
  6
Continuous
100
AcDbCircle
 10
-334.464761
 20
-192.888973
 30
0.0
 40
2.0
100
AcDbArc
 50
294.586688
 51
30.0
  0
ARC
  5
19A
100
AcDbEntity
  8
0
370
    -3
  6
Continuous
100
AcDbCircle
 10
-377.649935
 20
-193.298611
 30
0.0
 40
2.0
100
AcDbArc
 50
150.0
 51
246.50025
  0
ARC
  5
19B
100
AcDbEntity
  8
0
370
    -3
  6
Continuous
100
AcDbCircle
 10
-388.04224
 20
-187.298611
 30
0.0
 40
2.0
100
AcDbArc
 50
233.49975
 51
330.0
  0
ARC
  5
19C
100
AcDbEntity
  8
0
370
    -3
  6
Continuous
100
AcDbCircle
 10
-386.280107
 20
-184.246508
 30
0.0
 40
2.0
100
AcDbArc
 50
330.0
 51
53.037937
  0
ARC
  5
19D
100
AcDbEntity
  8
0
370
    -3
  6
Continuous
100
AcDbCircle
 10
-405.763273
 20
-149.694334
 30
0.0
 40
2.0
100
AcDbArc
 50
5.79734
 51
90.0
  0
ARC
  5
19E
100
AcDbEntity
  8
0
370
    -3
  6
Continuous
100
AcDbCircle
 10
-409.28007
 20
-149.694334
 30
0.0
 40
2.0
100
AcDbArc
 50
90.0
 51
185.413312
  0
ARC
  5
19F
100
AcDbEntity
  8
0
370
    -3
  6
Continuous
100
AcDbCircle
 10
-409.28007
 20
-139.694334
 30
0.0
 40
2.0
100
AcDbArc
 50
174.586688
 51
270.0
  0
ARC
  5
1A0
100
AcDbEntity
  8
0
370
    -3
  6
Continuous
100
AcDbCircle
 10
-405.763273
 20
-139.694334
 30
0.0
 40
2.0
100
AcDbArc
 50
270.0
 51
354.20266
  0
ARC
  5
1A1
100
AcDbEntity
  8
0
370
    -3
  6
Continuous
100
AcDbCircle
 10
-336.223159
 20
-99.545331
 30
0.0
 40
2.0
100
AcDbArc
 50
245.79734
 51
330.0
  0
ARC
  5
1A2
100
AcDbEntity
  8
0
370
    -3
  6
Continuous
100
AcDbCircle
 10
-334.464761
 20
-96.499696
 30
0.0
 40
2.0
100
AcDbArc
 50
330.0
 51
65.413312
  0
ARC
  5
1A3
100
AcDbEntity
  8
0
370
    -3
  6
Continuous
100
AcDbCircle
 10
-356.516446
 20
-144.694334
 30
0.0
 40
10.0
100
AcDbArc
 50
270.0
 51
275.375682
  0
ARC
  5
1A4
100
AcDbEntity
  8
0
370
    -3
  6
Continuous
100
AcDbCircle
 10
-356.516446
 20
-144.694334
 30
0.0
 40
17.5
100
AcDbArc
 50
262.773972
 51
281.180937
  0
ARC
  5
1A5
100
AcDbEntity
  8
0
370
    -3
  6
Continuous
100
AcDbCircle
 10
-356.516446
 20
-144.694334
 30
0.0
 40
22.5
100
AcDbArc
 50
254.175804
 51
288.224256
  0
ARC
  5
1A6
100
AcDbEntity
  8
0
370
    -3
  6
Continuous
100
AcDbCircle
 10
-356.516446
 20
-144.694334
 30
0.0
 40
30.0
100
AcDbArc
 50
252.373625
 51
289.713439
  0
ARC
  5
1A7
100
AcDbEntity
  8
0
370
    -3
  6
Continuous
100
AcDbCircle
 10
-356.516446
 20
-144.694334
 30
0.0
 40
35.0
100
AcDbArc
 50
249.332418
 51
292.233566
  0
ARC
  5
1A8
100
AcDbEntity
  8
0
370
    -3
  6
Continuous
100
AcDbCircle
 10
-356.516446
 20
-144.694334
 30
0.0
 40
42.5
100
AcDbArc
 50
248.519624
 51
292.908354
  0
ARC
  5
1A9
100
AcDbEntity
  8
0
370
    -3
  6
Continuous
100
AcDbCircle
 10
-356.516446
 20
-144.694334
 30
0.0
 40
47.5
100
AcDbArc
 50
246.962063
 51
294.20266
  0
ARC
  5
1AA
100
AcDbEntity
  8
0
370
    -3
  6
Continuous
100
AcDbCircle
 10
-356.516446
 20
-144.694334
 30
0.0
 40
55.0
100
AcDbArc
 50
246.50025
 51
294.586688
  0
ARC
  5
1AB
100
AcDbEntity
  8
0
370
    -3
  6
Continuous
100
AcDbCircle
 10
-356.516446
 20
-144.694334
 30
0.0
 40
10.0
100
AcDbArc
 50
204.624318
 51
210.0
  0
ARC
  5
1AC
100
AcDbEntity
  8
0
370
    -3
  6
Continuous
100
AcDbCircle
 10
-356.516446
 20
-144.694334
 30
0.0
 40
17.5
100
AcDbArc
 50
198.819063
 51
217.226028
  0
ARC
  5
1AD
100
AcDbEntity
  8
0
370
    -3
  6
Continuous
100
AcDbCircle
 10
-356.516446
 20
-144.694334
 30
0.0
 40
22.5
100
AcDbArc
 50
191.775744
 51
225.824196
  0
ARC
  5
1AE
100
AcDbEntity
  8
0
370
    -3
  6
Continuous
100
AcDbCircle
 10
-356.516446
 20
-144.694334
 30
0.0
 40
30.0
100
AcDbArc
 50
190.286561
 51
227.626375
  0
ARC
  5
1AF
100
AcDbEntity
  8
0
370
    -3
  6
Continuous
100
AcDbCircle
 10
-356.516446
 20
-144.694334
 30
0.0
 40
35.0
100
AcDbArc
 50
187.766434
 51
230.667582
  0
ARC
  5
1B0
100
AcDbEntity
  8
0
370
    -3
  6
Continuous
100
AcDbCircle
 10
-356.516446
 20
-144.694334
 30
0.0
 40
42.5
100
AcDbArc
 50
187.091646
 51
231.480376
  0
ARC
  5
1B1
100
AcDbEntity
  8
0
370
    -3
  6
Continuous
100
AcDbCircle
 10
-356.516446
 20
-144.694334
 30
0.0
 40
47.5
100
AcDbArc
 50
185.79734
 51
233.037937
  0
ARC
  5
1B2
100
AcDbEntity
  8
0
370
    -3
  6
Continuous
100
AcDbCircle
 10
-356.516446
 20
-144.694334
 30
0.0
 40
55.0
100
AcDbArc
 50
185.413312
 51
233.49975
  0
ARC
  5
1B3
100
AcDbEntity
  8
0
370
    -3
  6
Continuous
100
AcDbCircle
 10
-356.516446
 20
-144.694334
 30
0.0
 40
55.0
100
AcDbArc
 50
126.50025
 51
174.586688
  0
ARC
  5
1B4
100
AcDbEntity
  8
0
370
    -3
  6
Continuous
100
AcDbCircle
 10
-356.516446
 20
-144.694334
 30
0.0
 40
47.5
100
AcDbArc
 50
126.962063
 51
174.20266
  0
ARC
  5
1B5
100
AcDbEntity
  8
0
370
    -3
  6
Continuous
100
AcDbCircle
 10
-356.516446
 20
-144.694334
 30
0.0
 40
42.5
100
AcDbArc
 50
128.519624
 51
172.908354
  0
ARC
  5
1B6
100
AcDbEntity
  8
0
370
    -3
  6
Continuous
100
AcDbCircle
 10
-356.516446
 20
-144.694334
 30
0.0
 40
35.0
100
AcDbArc
 50
129.332418
 51
172.233566
  0
ARC
  5
1B7
100
AcDbEntity
  8
0
370
    -3
  6
Continuous
100
AcDbCircle
 10
-356.516446
 20
-144.694334
 30
0.0
 40
30.0
100
AcDbArc
 50
132.373625
 51
169.713439
  0
ARC
  5
1B8
100
AcDbEntity
  8
0
370
    -3
  6
Continuous
100
AcDbCircle
 10
-356.516446
 20
-144.694334
 30
0.0
 40
22.5
100
AcDbArc
 50
134.175804
 51
168.224256
  0
ARC
  5
1B9
100
AcDbEntity
  8
0
370
    -3
  6
Continuous
100
AcDbCircle
 10
-356.516446
 20
-144.694334
 30
0.0
 40
17.5
100
AcDbArc
 50
142.773972
 51
161.180937
  0
ARC
  5
1BA
100
AcDbEntity
  8
0
370
    -3
  6
Continuous
100
AcDbCircle
 10
-356.516446
 20
-144.694334
 30
0.0
 40
10.0
100
AcDbArc
 50
84.624318
 51
90.0
  0
ARC
  5
1BB
100
AcDbEntity
  8
0
370
    -3
  6
Continuous
100
AcDbCircle
 10
-356.516446
 20
-144.694334
 30
0.0
 40
17.5
100
AcDbArc
 50
78.819063
 51
97.226028
  0
ARC
  5
1BC
100
AcDbEntity
  8
0
370
    -3
  6
Continuous
100
AcDbCircle
 10
-356.516446
 20
-144.694334
 30
0.0
 40
22.5
100
AcDbArc
 50
71.775744
 51
105.824196
  0
ARC
  5
1BD
100
AcDbEntity
  8
0
370
    -3
  6
Continuous
100
AcDbCircle
 10
-356.516446
 20
-144.694334
 30
0.0
 40
30.0
100
AcDbArc
 50
70.286561
 51
107.626375
  0
ARC
  5
1BE
100
AcDbEntity
  8
0
370
    -3
  6
Continuous
100
AcDbCircle
 10
-356.516446
 20
-144.694334
 30
0.0
 40
35.0
100
AcDbArc
 50
67.766434
 51
110.667582
  0
ARC
  5
1BF
100
AcDbEntity
  8
0
370
    -3
  6
Continuous
100
AcDbCircle
 10
-356.516446
 20
-144.694334
 30
0.0
 40
42.5
100
AcDbArc
 50
67.091646
 51
111.480376
  0
ARC
  5
1C0
100
AcDbEntity
  8
0
370
    -3
  6
Continuous
100
AcDbCircle
 10
-356.516446
 20
-144.694334
 30
0.0
 40
47.5
100
AcDbArc
 50
65.79734
 51
113.037937
  0
ARC
  5
1C1
100
AcDbEntity
  8
0
370
    -3
  6
Continuous
100
AcDbCircle
 10
-356.516446
 20
-144.694334
 30
0.0
 40
55.0
100
AcDbArc
 50
65.413312
 51
113.49975
  0
ARC
  5
1C2
100
AcDbEntity
  8
0
370
    -3
  6
Continuous
100
AcDbCircle
 10
-346.731963
 20
-137.747113
 30
0.0
 40
2.0
100
AcDbArc
 50
150.0
 51
215.375682
  0
ARC
  5
1C3
100
AcDbEntity
  8
0
370
    -3
  6
Continuous
100
AcDbCircle
 10
-346.124141
 20
-138.694334
 30
0.0
 40
2.0
100
AcDbArc
 50
210.0
 51
270.0
  0
ARC
  5
1C4
100
AcDbEntity
  8
0
370
    -3
  6
Continuous
100
AcDbCircle
 10
-356.516446
 20
-144.694334
 30
0.0
 40
10.0
100
AcDbArc
 50
30.0
 51
35.375682
  0
ARC
  5
1C5
100
AcDbEntity
  8
0
370
    -3
  6
Continuous
100
AcDbCircle
 10
-356.516446
 20
-144.694334
 30
0.0
 40
10.0
100
AcDbArc
 50
150.0
 51
155.375682
  0
ARC
  5
1C6
100
AcDbEntity
  8
0
370
    -3
  6
Continuous
100
AcDbCircle
 10
-342.22484
 20
-138.694334
 30
0.0
 40
2.0
100
AcDbArc
 50
270.0
 51
22.773972
  0
ARC
  5
1C7
100
AcDbEntity
  8
0
370
    -3
  6
Continuous
100
AcDbCircle
 10
-344.850619
 20
-134.488529
 30
0.0
 40
2.0
100
AcDbArc
 50
41.180937
 51
150.0
  0
ARC
  5
1C8
100
AcDbEntity
  8
0
370
    -3
  6
Continuous
100
AcDbCircle
 10
-340.194134
 20
-126.423261
 30
0.0
 40
2.0
100
AcDbArc
 50
150.0
 51
228.224256
  0
ARC
  5
1C9
100
AcDbEntity
  8
0
370
    -3
  6
Continuous
100
AcDbCircle
 10
-332.762499
 20
-138.694334
 30
0.0
 40
2.0
100
AcDbArc
 50
194.175804
 51
270.0
  0
ARC
  5
1CA
100
AcDbEntity
  8
0
370
    -3
  6
Continuous
100
AcDbCircle
 10
-329.166857
 20
-138.694334
 30
0.0
 40
2.0
100
AcDbArc
 50
270.0
 51
12.373625
  0
ARC
  5
1CB
100
AcDbEntity
  8
0
370
    -3
  6
Continuous
100
AcDbCircle
 10
-338.411342
 20
-123.335374
 30
0.0
 40
2.0
100
AcDbArc
 50
49.713439
 51
150.0
  0
ARC
  5
1CC
100
AcDbEntity
  8
0
370
    -3
  6
Continuous
100
AcDbCircle
 10
-333.856016
 20
-115.445319
 30
0.0
 40
2.0
100
AcDbArc
 50
150.0
 51
232.233566
  0
ARC
  5
1CD
100
AcDbEntity
  8
0
370
    -3
  6
Continuous
100
AcDbCircle
 10
-320.006173
 20
-138.694334
 30
0.0
 40
2.0
100
AcDbArc
 50
189.332418
 51
270.0
  0
ARC
  5
1CE
100
AcDbEntity
  8
0
370
    -3
  6
Continuous
100
AcDbCircle
 10
-316.463356
 20
-138.694334
 30
0.0
 40
2.0
100
AcDbArc
 50
270.0
 51
8.519624
  0
ARC
  5
1CF
100
AcDbEntity
  8
0
370
    -3
  6
Continuous
100
AcDbCircle
 10
-332.091233
 20
-112.388624
 30
0.0
 40
2.0
100
AcDbArc
 50
52.908354
 51
150.0
  0
ARC
  5
1D0
100
AcDbEntity
  8
0
370
    -3
  6
Continuous
100
AcDbCircle
 10
-327.562905
 20
-104.545331
 30
0.0
 40
2.0
100
AcDbArc
 50
150.0
 51
234.20266
  0
ARC
  5
1D1
100
AcDbEntity
  8
0
370
    -3
  6
Continuous
100
AcDbCircle
 10
-325.804507
 20
-101.499696
 30
0.0
 40
2.0
100
AcDbArc
 50
54.586688
 51
150.0
  0
ARC
  5
1D2
100
AcDbEntity
  8
0
370
    -3
  6
Continuous
100
AcDbCircle
 10
-307.381428
 20
-138.694334
 30
0.0
 40
2.0
100
AcDbArc
 50
186.962063
 51
270.0
  0
ARC
  5
1D3
100
AcDbEntity
  8
0
370
    -3
  6
Continuous
100
AcDbCircle
 10
-303.857164
 20
-138.694334
 30
0.0
 40
2.0
100
AcDbArc
 50
270.0
 51
6.50025
  0
ARC
  5
1D4
100
AcDbEntity
  8
0
370
    -3
  6
Continuous
100
AcDbCircle
 10
-356.516446
 20
-144.694334
 30
0.0
 40
17.5
100
AcDbArc
 50
22.773972
 51
41.180937
  0
ARC
  5
1D5
100
AcDbEntity
  8
0
370
    -3
  6
Continuous
100
AcDbCircle
 10
-356.516446
 20
-144.694334
 30
0.0
 40
22.5
100
AcDbArc
 50
14.175804
 51
48.224256
  0
ARC
  5
1D6
100
AcDbEntity
  8
0
370
    -3
  6
Continuous
100
AcDbCircle
 10
-356.516446
 20
-144.694334
 30
0.0
 40
30.0
100
AcDbArc
 50
12.373625
 51
49.713439
  0
ARC
  5
1D7
100
AcDbEntity
  8
0
370
    -3
  6
Continuous
100
AcDbCircle
 10
-356.516446
 20
-144.694334
 30
0.0
 40
35.0
100
AcDbArc
 50
9.332418
 51
52.233566
  0
ARC
  5
1D8
100
AcDbEntity
  8
0
370
    -3
  6
Continuous
100
AcDbCircle
 10
-356.516446
 20
-144.694334
 30
0.0
 40
42.5
100
AcDbArc
 50
8.519624
 51
52.908354
  0
ARC
  5
1D9
100
AcDbEntity
  8
0
370
    -3
  6
Continuous
100
AcDbCircle
 10
-356.516446
 20
-144.694334
 30
0.0
 40
47.5
100
AcDbArc
 50
6.962063
 51
54.20266
  0
ARC
  5
1DA
100
AcDbEntity
  8
0
370
    -3
  6
Continuous
100
AcDbCircle
 10
-356.516446
 20
-144.694334
 30
0.0
 40
55.0
100
AcDbArc
 50
6.50025
 51
54.586688
  0
ARC
  5
1DB
100
AcDbEntity
  8
0
370
    -3
  6
Continuous
100
AcDbCircle
 10
-356.516446
 20
-144.694334
 30
0.0
 40
10.0
100
AcDbArc
 50
324.624318
 51
330.0
  0
ARC
  5
1DC
100
AcDbEntity
  8
0
370
    -3
  6
Continuous
100
AcDbCircle
 10
-356.516446
 20
-144.694334
 30
0.0
 40
17.5
100
AcDbArc
 50
318.819063
 51
337.226028
  0
ARC
  5
1DD
100
AcDbEntity
  8
0
370
    -3
  6
Continuous
100
AcDbCircle
 10
-356.516446
 20
-144.694334
 30
0.0
 40
22.5
100
AcDbArc
 50
311.775744
 51
345.824196
  0
ARC
  5
1DE
100
AcDbEntity
  8
0
370
    -3
  6
Continuous
100
AcDbCircle
 10
-356.516446
 20
-144.694334
 30
0.0
 40
30.0
100
AcDbArc
 50
310.286561
 51
347.626375
  0
ARC
  5
1DF
100
AcDbEntity
  8
0
370
    -3
  6
Continuous
100
AcDbCircle
 10
-356.516446
 20
-144.694334
 30
0.0
 40
35.0
100
AcDbArc
 50
307.766434
 51
350.667582
  0
ARC
  5
1E0
100
AcDbEntity
  8
0
370
    -3
  6
Continuous
100
AcDbCircle
 10
-356.516446
 20
-144.694334
 30
0.0
 40
42.5
100
AcDbArc
 50
307.091646
 51
351.480376
  0
ARC
  5
1E1
100
AcDbEntity
  8
0
370
    -3
  6
Continuous
100
AcDbCircle
 10
-356.516446
 20
-144.694334
 30
0.0
 40
47.5
100
AcDbArc
 50
305.79734
 51
353.037937
  0
ARC
  5
1E2
100
AcDbEntity
  8
0
370
    -3
  6
Continuous
100
AcDbCircle
 10
-356.516446
 20
-144.694334
 30
0.0
 40
55.0
100
AcDbArc
 50
305.413312
 51
353.49975
  0
LINE
  5
1E3
100
AcDbEntity
  8
0
370
    -3
  6
CENTER
100
AcDbLine
 10
-329.516446
 20
-97.928963
 30
0.0
 11
-324.016446
 21
-88.402683
 31
0.0
  0
ARC
  5
1E4
100
AcDbEntity
  8
0
370
    -3
  6
Continuous
100
AcDbCircle
 10
-294.807452
 20
-150.694334
 30
0.0
 40
2.0
100
AcDbArc
 50
90.0
 51
174.446556
  0
ARC
  5
1E5
100
AcDbEntity
  8
0
370
    -3
  6
Continuous
100
AcDbCircle
 10
-321.28729
 20
-195.713023
 30
0.0
 40
2.0
100
AcDbArc
 50
124.625651
 51
210.0
  0
ARC
  5
1E6
100
AcDbEntity
  8
0
370
    -3
  6
Continuous
100
AcDbCircle
 10
-329.947544
 20
-200.713023
 30
0.0
 40
2.0
100
AcDbArc
 50
30.0
 51
115.374349
  0
ARC
  5
1E7
100
AcDbEntity
  8
0
370
    -3
  6
Continuous
100
AcDbCircle
 10
-382.174791
 20
-201.135891
 30
0.0
 40
2.0
100
AcDbArc
 50
65.553444
 51
150.0
  0
ARC
  5
1E8
100
AcDbEntity
  8
0
370
    -3
  6
Continuous
100
AcDbCircle
 10
-392.567096
 20
-195.135891
 30
0.0
 40
2.0
100
AcDbArc
 50
330.0
 51
54.446556
  0
ARC
  5
1E9
100
AcDbEntity
  8
0
370
    -3
  6
Continuous
100
AcDbCircle
 10
-418.314504
 20
-149.694334
 30
0.0
 40
2.0
100
AcDbArc
 50
4.625651
 51
90.0
  0
ARC
  5
1EA
100
AcDbEntity
  8
0
370
    -3
  6
Continuous
100
AcDbCircle
 10
-418.314504
 20
-139.694334
 30
0.0
 40
2.0
100
AcDbArc
 50
270.0
 51
355.374349
  0
ARC
  5
1EB
100
AcDbEntity
  8
0
370
    -3
  6
Continuous
100
AcDbCircle
 10
-329.947544
 20
-88.675646
 30
0.0
 40
2.0
100
AcDbArc
 50
244.625651
 51
330.0
  0
ARC
  5
1EC
100
AcDbEntity
  8
0
370
    -3
  6
Continuous
100
AcDbCircle
 10
-321.28729
 20
-93.675646
 30
0.0
 40
2.0
100
AcDbArc
 50
150.0
 51
235.374349
  0
ARC
  5
1ED
100
AcDbEntity
  8
0
370
    -3
  6
Continuous
100
AcDbCircle
 10
-294.807452
 20
-138.694334
 30
0.0
 40
2.0
100
AcDbArc
 50
185.553444
 51
270.0
  0
ARC
  5
1EE
100
AcDbEntity
  8
0
370
    -3
  6
Continuous
100
AcDbCircle
 10
-356.516446
 20
-144.694334
 30
0.0
 40
60.0
100
AcDbArc
 50
5.553444
 51
55.374349
  0
ARC
  5
1EF
100
AcDbEntity
  8
0
370
    -3
  6
Continuous
100
AcDbCircle
 10
-356.516446
 20
-144.694334
 30
0.0
 40
60.0
100
AcDbArc
 50
64.625651
 51
114.446556
  0
ARC
  5
1F0
100
AcDbEntity
  8
0
370
    -3
  6
Continuous
100
AcDbCircle
 10
-356.516446
 20
-144.694334
 30
0.0
 40
60.0
100
AcDbArc
 50
125.553444
 51
175.374349
  0
ARC
  5
1F1
100
AcDbEntity
  8
0
370
    -3
  6
Continuous
100
AcDbCircle
 10
-356.516446
 20
-144.694334
 30
0.0
 40
60.0
100
AcDbArc
 50
184.625651
 51
234.446556
  0
ARC
  5
1F2
100
AcDbEntity
  8
0
370
    -3
  6
Continuous
100
AcDbCircle
 10
-356.516446
 20
-144.694334
 30
0.0
 40
60.0
100
AcDbArc
 50
245.553444
 51
295.374349
  0
ARC
  5
1F3
100
AcDbEntity
  8
0
370
    -3
  6
Continuous
100
AcDbCircle
 10
-356.516446
 20
-144.694334
 30
0.0
 40
60.0
100
AcDbArc
 50
304.625651
 51
354.446556
  0
ARC
  5
1F4
100
AcDbEntity
  8
0
370
    -3
  6
Continuous
100
AcDbCircle
 10
-53.016446
 20
-144.694334
 30
0.0
 40
390.8
100
AcDbArc
 50
177.020093
 51
182.979907
  0
ARC
  5
1F5
100
AcDbEntity
  8
0
370
    -3
  6
Continuous
100
AcDbCircle
 10
-356.516446
 20
158.805666
 30
0.0
 40
390.8
100
AcDbArc
 50
267.020093
 51
272.979907
  0
ARC
  5
1F6
100
AcDbEntity
  8
0
370
    -3
  6
Continuous
100
AcDbCircle
 10
-660.016446
 20
-144.694334
 30
0.0
 40
390.8
100
AcDbArc
 50
357.020093
 51
2.979907
  0
ARC
  5
1F7
100
AcDbEntity
  8
0
370
    -3
  6
Continuous
100
AcDbCircle
 10
-356.516446
 20
158.805666
 30
0.0
 40
374.8
100
AcDbArc
 50
270.0
 51
272.979907
  0
LINE
  5
1F8
100
AcDbEntity
  8
0
370
    -3
  6
Continuous
100
AcDbLine
 10
-367.425158
 20
-141.694334
 30
0.0
 11
-371.187847
 21
-141.694334
 31
0.0
  0
LINE
  5
1F9
100
AcDbEntity
  8
0
370
    -3
  6
Continuous
100
AcDbLine
 10
-380.500816
 20
-141.694334
 30
0.0
 11
-384.066401
 21
-141.694334
 31
0.0
  0
LINE
  5
1FA
100
AcDbEntity
  8
0
370
    -3
  6
Continuous
100
AcDbLine
 10
-393.177052
 20
-141.694334
 30
0.0
 11
-396.706619
 21
-141.694334
 31
0.0
  0
LINE
  5
1FB
100
AcDbEntity
  8
0
370
    -3
  6
Continuous
100
AcDbLine
 10
-405.763273
 20
-141.694334
 30
0.0
 11
-409.28007
 21
-141.694334
 31
0.0
  0
ARC
  5
1FC
100
AcDbEntity
  8
0
370
    -3
  6
Continuous
100
AcDbCircle
 10
-419.31772
 20
-139.694334
 30
0.0
 40
2.0
100
AcDbArc
 50
175.447929
 51
270.0
  0
LINE
  5
1FD
100
AcDbEntity
  8
0
370
    -3
  6
Continuous
100
AcDbLine
 10
-418.314504
 20
-141.694334
 30
0.0
 11
-419.31772
 21
-141.694334
 31
0.0
  0
ARC
  5
1FE
100
AcDbEntity
  8
0
370
    -3
  6
Continuous
100
AcDbCircle
 10
-356.516446
 20
-144.694334
 30
0.0
 40
65.0
100
AcDbArc
 50
125.465024
 51
175.447929
  0
LINE
  5
1FF
100
AcDbEntity
  8
0
370
    -3
  6
Continuous
100
AcDbLine
 10
-380.500816
 20
-147.694334
 30
0.0
 11
-384.066401
 21
-147.694334
 31
0.0
  0
LINE
  5
200
100
AcDbEntity
  8
0
370
    -3
  6
Continuous
100
AcDbLine
 10
-393.177052
 20
-147.694334
 30
0.0
 11
-396.706619
 21
-147.694334
 31
0.0
  0
LINE
  5
201
100
AcDbEntity
  8
0
370
    -3
  6
Continuous
100
AcDbLine
 10
-405.763273
 20
-147.694334
 30
0.0
 11
-409.28007
 21
-147.694334
 31
0.0
  0
ARC
  5
202
100
AcDbEntity
  8
0
370
    -3
  6
Continuous
100
AcDbCircle
 10
-419.31772
 20
-149.694334
 30
0.0
 40
2.0
100
AcDbArc
 50
90.0
 51
184.552071
  0
LINE
  5
203
100
AcDbEntity
  8
0
370
    -3
  6
Continuous
100
AcDbLine
 10
-418.314504
 20
-147.694334
 30
0.0
 11
-419.31772
 21
-147.694334
 31
0.0
  0
LINE
  5
204
100
AcDbEntity
  8
0
370
    -3
  6
Continuous
100
AcDbLine
 10
-390.835045
 20
-196.135891
 30
0.0
 11
-391.337365
 21
-197.005935
 31
0.0
  0
LINE
  5
205
100
AcDbEntity
  8
0
370
    -3
  6
Continuous
100
AcDbLine
 10
-384.548057
 20
-185.246508
 30
0.0
 11
-386.310189
 21
-188.298611
 31
0.0
  0
LINE
  5
206
100
AcDbEntity
  8
0
370
    -3
  6
Continuous
100
AcDbLine
 10
-378.235684
 20
-174.313158
 30
0.0
 11
-380.007093
 21
-177.381328
 31
0.0
  0
LINE
  5
207
100
AcDbEntity
  8
0
370
    -3
  6
Continuous
100
AcDbLine
 10
-365.1767
 20
-151.694334
 30
0.0
 11
-367.126351
 21
-155.071228
 31
0.0
  0
LINE
  5
208
100
AcDbEntity
  8
0
370
    -3
  6
Continuous
100
AcDbLine
 10
-367.425158
 20
-147.694334
 30
0.0
 11
-371.187847
 21
-147.694334
 31
0.0
  0
ARC
  5
209
100
AcDbEntity
  8
0
370
    -3
  6
Continuous
100
AcDbCircle
 10
-356.516446
 20
-144.694334
 30
0.0
 40
65.0
100
AcDbArc
 50
184.552071
 51
234.534976
  0
LINE
  5
20A
100
AcDbEntity
  8
0
370
    -3
  6
Continuous
100
AcDbLine
 10
-347.122337
 20
-166.965408
 30
0.0
 11
-345.339545
 21
-170.053295
 31
0.0
  0
LINE
  5
20B
100
AcDbEntity
  8
0
370
    -3
  6
Continuous
100
AcDbLine
 10
-371.307481
 20
-178.313158
 30
0.0
 11
-373.078889
 21
-181.381328
 31
0.0
  0
LINE
  5
20C
100
AcDbEntity
  8
0
370
    -3
  6
Continuous
100
AcDbLine
 10
-364.929318
 20
-167.265856
 30
0.0
 11
-366.727139
 21
-170.379773
 31
0.0
  0
LINE
  5
20D
100
AcDbEntity
  8
0
370
    -3
  6
Continuous
100
AcDbLine
 10
-358.248497
 20
-155.694334
 30
0.0
 11
-360.198147
 21
-159.071228
 31
0.0
  0
LINE
  5
20E
100
AcDbEntity
  8
0
370
    -3
  6
Continuous
100
AcDbLine
 10
-353.660166
 20
-155.641556
 30
0.0
 11
-351.778822
 21
-158.90014
 31
0.0
  0
LINE
  5
20F
100
AcDbEntity
  8
0
370
    -3
  6
Continuous
100
AcDbLine
 10
-340.784219
 20
-177.94335
 30
0.0
 11
-339.019436
 21
-181.000045
 31
0.0
  0
LINE
  5
210
100
AcDbEntity
  8
0
370
    -3
  6
Continuous
100
AcDbLine
 10
-334.491109
 20
-188.843338
 30
0.0
 11
-332.73271
 21
-191.888973
 31
0.0
  0
LINE
  5
211
100
AcDbEntity
  8
0
370
    -3
  6
Continuous
100
AcDbLine
 10
-377.619853
 20
-189.246508
 30
0.0
 11
-379.381985
 21
-192.298611
 31
0.0
  0
ARC
  5
212
100
AcDbEntity
  8
0
370
    -3
  6
Continuous
100
AcDbCircle
 10
-382.677111
 20
-202.005935
 30
0.0
 40
2.0
100
AcDbArc
 50
150.0
 51
245.465024
  0
LINE
  5
213
100
AcDbEntity
  8
0
370
    -3
  6
Continuous
100
AcDbLine
 10
-383.906842
 20
-200.135891
 30
0.0
 11
-384.409162
 21
-201.005935
 31
0.0
  0
ARC
  5
214
100
AcDbEntity
  8
0
370
    -3
  6
Continuous
100
AcDbCircle
 10
-329.445936
 20
-201.581833
 30
0.0
 40
2.0
100
AcDbArc
 50
295.447929
 51
30.0
  0
LINE
  5
215
100
AcDbEntity
  8
0
370
    -3
  6
Continuous
100
AcDbLine
 10
-328.215493
 20
-199.713023
 30
0.0
 11
-327.713885
 21
-200.581833
 31
0.0
  0
ARC
  5
216
100
AcDbEntity
  8
0
370
    -3
  6
Continuous
100
AcDbCircle
 10
-356.516446
 20
-144.694334
 30
0.0
 40
65.0
100
AcDbArc
 50
245.465024
 51
295.447929
  0
ARC
  5
217
100
AcDbEntity
  8
0
370
    -3
  6
Continuous
100
AcDbCircle
 10
-356.516446
 20
-144.694334
 30
0.0
 40
65.0
100
AcDbArc
 50
5.465024
 51
55.447929
  0
LINE
  5
218
100
AcDbEntity
  8
0
370
    -3
  6
Continuous
100
AcDbLine
 10
-347.122337
 20
-122.423261
 30
0.0
 11
-345.339545
 21
-119.335374
 31
0.0
  0
LINE
  5
219
100
AcDbEntity
  8
0
370
    -3
  6
Continuous
100
AcDbLine
 10
-340.784219
 20
-111.445319
 30
0.0
 11
-339.019436
 21
-108.388624
 31
0.0
  0
LINE
  5
21A
100
AcDbEntity
  8
0
370
    -3
  6
Continuous
100
AcDbLine
 10
-334.491109
 20
-100.545331
 30
0.0
 11
-332.73271
 21
-97.499696
 31
0.0
  0
LINE
  5
21B
100
AcDbEntity
  8
0
370
    -3
  6
Continuous
100
AcDbLine
 10
-328.215493
 20
-89.675646
 30
0.0
 11
-327.713885
 21
-88.806836
 31
0.0
  0
LINE
  5
21C
100
AcDbEntity
  8
0
370
    -3
  6
Continuous
100
AcDbLine
 10
-341.926185
 20
-125.423261
 30
0.0
 11
-340.143392
 21
-122.335374
 31
0.0
  0
LINE
  5
21D
100
AcDbEntity
  8
0
370
    -3
  6
Continuous
100
AcDbLine
 10
-335.588067
 20
-114.445319
 30
0.0
 11
-333.823283
 21
-111.388624
 31
0.0
  0
LINE
  5
21E
100
AcDbEntity
  8
0
370
    -3
  6
Continuous
100
AcDbLine
 10
-329.294956
 20
-103.545331
 30
0.0
 11
-327.536558
 21
-100.499696
 31
0.0
  0
LINE
  5
21F
100
AcDbEntity
  8
0
370
    -3
  6
Continuous
100
AcDbLine
 10
-323.019341
 20
-92.675646
 30
0.0
 11
-322.517733
 21
-91.806836
 31
0.0
  0
LINE
  5
220
100
AcDbEntity
  8
0
370
    -3
  6
Continuous
100
AcDbLine
 10
-341.926185
 20
-163.965408
 30
0.0
 11
-340.143392
 21
-167.053295
 31
0.0
  0
LINE
  5
221
100
AcDbEntity
  8
0
370
    -3
  6
Continuous
100
AcDbLine
 10
-335.588067
 20
-174.94335
 30
0.0
 11
-333.823283
 21
-178.000045
 31
0.0
  0
LINE
  5
222
100
AcDbEntity
  8
0
370
    -3
  6
Continuous
100
AcDbLine
 10
-329.294956
 20
-185.843338
 30
0.0
 11
-327.536558
 21
-188.888973
 31
0.0
  0
LINE
  5
223
100
AcDbEntity
  8
0
370
    -3
  6
Continuous
100
AcDbLine
 10
-323.019341
 20
-196.713023
 30
0.0
 11
-322.517733
 21
-197.581833
 31
0.0
  0
LINE
  5
224
100
AcDbEntity
  8
0
370
    -3
  6
Continuous
100
AcDbLine
 10
-332.762499
 20
-140.694334
 30
0.0
 11
-329.166857
 21
-140.694334
 31
0.0
  0
LINE
  5
225
100
AcDbEntity
  8
0
370
    -3
  6
Continuous
100
AcDbLine
 10
-320.006173
 20
-140.694334
 30
0.0
 11
-316.463356
 21
-140.694334
 31
0.0
  0
LINE
  5
226
100
AcDbEntity
  8
0
370
    -3
  6
Continuous
100
AcDbLine
 10
-307.381428
 20
-140.694334
 30
0.0
 11
-303.857164
 21
-140.694334
 31
0.0
  0
LINE
  5
227
100
AcDbEntity
  8
0
370
    -3
  6
Continuous
100
AcDbLine
 10
-294.807452
 20
-140.694334
 30
0.0
 11
-293.802811
 21
-140.694334
 31
0.0
  0
LINE
  5
228
100
AcDbEntity
  8
0
370
    -3
  6
Continuous
100
AcDbLine
 10
-332.762499
 20
-148.694334
 30
0.0
 11
-329.166857
 21
-148.694334
 31
0.0
  0
LINE
  5
229
100
AcDbEntity
  8
0
370
    -3
  6
Continuous
100
AcDbLine
 10
-320.006173
 20
-148.694334
 30
0.0
 11
-316.463356
 21
-148.694334
 31
0.0
  0
LINE
  5
22A
100
AcDbEntity
  8
0
370
    -3
  6
Continuous
100
AcDbLine
 10
-307.381428
 20
-148.694334
 30
0.0
 11
-303.857164
 21
-148.694334
 31
0.0
  0
LINE
  5
22B
100
AcDbEntity
  8
0
370
    -3
  6
Continuous
100
AcDbLine
 10
-294.807452
 20
-148.694334
 30
0.0
 11
-293.802811
 21
-148.694334
 31
0.0
  0
ARC
  5
22C
100
AcDbEntity
  8
0
370
    -3
  6
Continuous
100
AcDbCircle
 10
-356.516446
 20
-144.694334
 30
0.0
 40
65.0
100
AcDbArc
 50
304.552071
 51
354.534976
  0
ARC
  5
22D
100
AcDbEntity
  8
0
370
    -3
  6
Continuous
100
AcDbCircle
 10
-320.785682
 20
-196.581833
 30
0.0
 40
2.0
100
AcDbArc
 50
210.0
 51
304.552071
  0
LINE
  5
22E
100
AcDbEntity
  8
0
370
    -3
  6
Continuous
100
AcDbLine
 10
-348.464014
 20
-152.641556
 30
0.0
 11
-346.582669
 21
-155.90014
 31
0.0
  0
ARC
  5
22F
100
AcDbEntity
  8
0
370
    -3
  6
Continuous
100
AcDbCircle
 10
-329.445936
 20
-87.806836
 30
0.0
 40
2.0
100
AcDbArc
 50
330.0
 51
64.552071
  0
ARC
  5
230
100
AcDbEntity
  8
0
370
    -3
  6
Continuous
100
AcDbCircle
 10
-293.802811
 20
-150.694334
 30
0.0
 40
2.0
100
AcDbArc
 50
354.534976
 51
90.0
  0
ARC
  5
231
100
AcDbEntity
  8
0
370
    -3
  6
Continuous
100
AcDbCircle
 10
-293.802811
 20
-138.694334
 30
0.0
 40
2.0
100
AcDbArc
 50
270.0
 51
5.465024
  0
ARC
  5
232
100
AcDbEntity
  8
0
370
    -3
  6
Continuous
100
AcDbCircle
 10
-320.785682
 20
-92.806836
 30
0.0
 40
2.0
100
AcDbArc
 50
55.447929
 51
150.0
  0
ARC
  5
233
100
AcDbEntity
  8
0
370
    -3
  6
Continuous
100
AcDbCircle
 10
-356.516446
 20
-144.694334
 30
0.0
 40
65.0
100
AcDbArc
 50
64.552071
 51
114.534976
  0
LINE
  5
234
100
AcDbEntity
  8
0
370
    -3
  6
Continuous
100
AcDbLine
 10
-353.660166
 20
-133.747113
 30
0.0
 11
-351.778822
 21
-130.488529
 31
0.0
  0
LINE
  5
235
100
AcDbEntity
  8
0
370
    -3
  6
Continuous
100
AcDbLine
 10
-346.124141
 20
-148.694334
 30
0.0
 11
-342.22484
 21
-148.694334
 31
0.0
  0
LINE
  5
236
100
AcDbEntity
  8
0
370
    -3
  6
Continuous
100
AcDbLine
 10
-346.124141
 20
-140.694334
 30
0.0
 11
-342.22484
 21
-140.694334
 31
0.0
  0
LINE
  5
237
100
AcDbEntity
  8
0
370
    -3
  6
Continuous
100
AcDbLine
 10
-348.464014
 20
-136.747113
 30
0.0
 11
-346.582669
 21
-133.488529
 31
0.0
  0
CIRCLE
  5
238
100
AcDbEntity
  8
0
370
    -3
  6
Continuous
100
AcDbCircle
 10
-356.516446
 20
-144.694334
 30
0.0
 40
5.0
  0
ARC
  5
239
100
AcDbEntity
  8
0
370
    -3
  6
Continuous
100
AcDbCircle
 10
-373.411815
 20
-123.633791
 30
0.0
 40
65.8
100
AcDbArc
 50
92.979907
 51
128.737581
  0
ARC
  5
23A
100
AcDbEntity
  8
0
370
    -3
  6
Continuous
100
AcDbCircle
 10
-335.455902
 20
-161.589704
 30
0.0
 40
65.8
100
AcDbArc
 50
321.262419
 51
357.020093
  0
ARC
  5
23B
100
AcDbEntity
  8
0
370
    -3
  6
Continuous
100
AcDbCircle
 10
-339.621077
 20
-123.633791
 30
0.0
 40
49.8
100
AcDbArc
 50
51.262419
 51
87.020093
  0
ARC
  5
23C
100
AcDbEntity
  8
0
370
    -3
  6
Continuous
100
AcDbCircle
 10
-335.455902
 20
-127.798965
 30
0.0
 40
49.8
100
AcDbArc
 50
2.979907
 51
38.737581
  0
ARC
  5
23D
100
AcDbEntity
  8
0
370
    -3
  6
Continuous
100
AcDbCircle
 10
-660.016446
 20
-144.694334
 30
0.0
 40
374.8
100
AcDbArc
 50
0.0
 51
2.979907
  0
ARC
  5
23E
100
AcDbEntity
  8
0
370
    -3
  6
Continuous
100
AcDbCircle
 10
-660.016446
 20
-144.694334
 30
0.0
 40
374.8
100
AcDbArc
 50
357.020093
 51
0.0
  0
ARC
  5
23F
100
AcDbEntity
  8
0
370
    -3
  6
Continuous
100
AcDbCircle
 10
-335.455902
 20
-161.589704
 30
0.0
 40
49.8
100
AcDbArc
 50
321.262419
 51
357.020093
  0
ARC
  5
240
100
AcDbEntity
  8
0
370
    -3
  6
Continuous
100
AcDbCircle
 10
-356.516446
 20
-144.694334
 30
0.0
 40
76.8
100
AcDbArc
 50
308.737581
 51
321.262419
  0
ARC
  5
241
100
AcDbEntity
  8
0
370
    -3
  6
Continuous
100
AcDbCircle
 10
-339.621077
 20
-165.754878
 30
0.0
 40
49.8
100
AcDbArc
 50
272.979907
 51
308.737581
  0
ARC
  5
242
100
AcDbEntity
  8
0
370
    -3
  6
Continuous
100
AcDbCircle
 10
-356.516446
 20
158.805666
 30
0.0
 40
374.8
100
AcDbArc
 50
267.020093
 51
270.0
  0
ARC
  5
243
100
AcDbEntity
  8
0
370
    -3
  6
Continuous
100
AcDbCircle
 10
-373.411815
 20
-165.754878
 30
0.0
 40
49.8
100
AcDbArc
 50
231.262419
 51
267.020093
  0
ARC
  5
244
100
AcDbEntity
  8
0
370
    -3
  6
Continuous
100
AcDbCircle
 10
-377.57699
 20
-161.589704
 30
0.0
 40
49.8
100
AcDbArc
 50
182.979907
 51
218.737581
  0
ARC
  5
245
100
AcDbEntity
  8
0
370
    -3
  6
Continuous
100
AcDbCircle
 10
-53.016446
 20
-144.694334
 30
0.0
 40
374.8
100
AcDbArc
 50
180.0
 51
182.979907
  0
ARC
  5
246
100
AcDbEntity
  8
0
370
    -3
  6
Continuous
100
AcDbCircle
 10
-377.57699
 20
-127.798965
 30
0.0
 40
49.8
100
AcDbArc
 50
141.262419
 51
177.020093
  0
ARC
  5
247
100
AcDbEntity
  8
0
370
    -3
  6
Continuous
100
AcDbCircle
 10
-356.516446
 20
-144.694334
 30
0.0
 40
76.8
100
AcDbArc
 50
128.737581
 51
141.262419
  0
ARC
  5
248
100
AcDbEntity
  8
0
370
    -3
  6
Continuous
100
AcDbCircle
 10
-373.411815
 20
-123.633791
 30
0.0
 40
49.8
100
AcDbArc
 50
92.979907
 51
128.737581
  0
ARC
  5
249
100
AcDbEntity
  8
0
370
    -3
  6
Continuous
100
AcDbCircle
 10
-356.516446
 20
-448.194334
 30
0.0
 40
374.8
100
AcDbArc
 50
90.0
 51
92.979907
  0
ARC
  5
24A
100
AcDbEntity
  8
0
370
    -3
  6
Continuous
100
AcDbCircle
 10
-356.516446
 20
-448.194334
 30
0.0
 40
374.8
100
AcDbArc
 50
87.020093
 51
90.0
  0
ARC
  5
24B
100
AcDbEntity
  8
0
370
    -3
  6
Continuous
100
AcDbCircle
 10
-53.016446
 20
-144.694334
 30
0.0
 40
374.8
100
AcDbArc
 50
177.020093
 51
180.0
  0
ARC
  5
24C
100
AcDbEntity
  8
0
370
    -3
  6
Continuous
100
AcDbCircle
 10
-356.516446
 20
-448.194334
 30
0.0
 40
390.8
100
AcDbArc
 50
87.020093
 51
92.979907
  0
LINE
  5
24D
100
AcDbEntity
  8
0
370
    -3
  6
Continuous
100
AcDbLine
 10
-426.516422
 20
-77.198721
 30
0.0
 11
-426.516422
 21
-42.008223
 31
0.0
  0
ARC
  5
24E
100
AcDbEntity
  8
0
370
    -3
  6
DASHED
100
AcDbCircle
 10
998.982645
 20
-144.69468
 30
0.0
 40
390.8
100
AcDbArc
 50
177.020093
 51
180.0
  0
ARC
  5
24F
100
AcDbEntity
  8
0
370
    -3
  6
Continuous
100
AcDbCircle
 10
695.482645
 20
-144.69468
 30
0.0
 40
92.8
100
AcDbArc
 50
218.737581
 51
221.034854
  0
ARC
  5
250
100
AcDbEntity
  8
0
370
    -3
  6
Continuous
100
AcDbCircle
 10
674.422102
 20
-161.590049
 30
0.0
 40
65.8
100
AcDbArc
 50
182.979907
 51
218.737581
  0
ARC
  5
251
100
AcDbEntity
  8
0
370
    -3
  6
Continuous
100
AcDbCircle
 10
716.543189
 20
-161.590049
 30
0.0
 40
65.8
100
AcDbArc
 50
321.262419
 51
357.020093
  0
ARC
  5
252
100
AcDbEntity
  8
0
370
    -3
  6
Continuous
100
AcDbCircle
 10
391.982645
 20
-144.69468
 30
0.0
 40
390.8
100
AcDbArc
 50
357.020093
 51
2.979907
  0
ARC
  5
253
100
AcDbEntity
  8
0
370
    -3
  6
Continuous
100
AcDbCircle
 10
716.543189
 20
-127.799311
 30
0.0
 40
65.8
100
AcDbArc
 50
2.979907
 51
34.940367
  0
ARC
  5
254
100
AcDbEntity
  8
0
370
    -3
  6
Continuous
100
AcDbCircle
 10
674.422102
 20
-127.799311
 30
0.0
 40
65.8
100
AcDbArc
 50
145.059633
 51
159.443296
  0
ARC
  5
255
100
AcDbEntity
  8
0
370
    -3
  6
Continuous
100
AcDbCircle
 10
695.482645
 20
-144.69468
 30
0.0
 40
92.8
100
AcDbArc
 50
318.965146
 51
321.262419
  0
ARC
  5
256
100
AcDbEntity
  8
0
370
    -3
  6
DASHED
100
AcDbCircle
 10
674.422102
 20
-127.799311
 30
0.0
 40
65.8
100
AcDbArc
 50
141.262419
 51
145.059633
  0
ARC
  5
257
100
AcDbEntity
  8
0
370
    -3
  6
DASHED
100
AcDbCircle
 10
678.587276
 20
-123.634136
 30
0.0
 40
65.8
100
AcDbArc
 50
92.979907
 51
128.737581
  0
ARC
  5
258
100
AcDbEntity
  8
0
370
    -3
  6
DASHED
100
AcDbCircle
 10
695.482645
 20
-144.69468
 30
0.0
 40
92.8
100
AcDbArc
 50
128.737581
 51
141.262419
  0
ARC
  5
259
100
AcDbEntity
  8
0
370
    -3
  6
DASHED
100
AcDbCircle
 10
695.482645
 20
-448.19468
 30
0.0
 40
390.8
100
AcDbArc
 50
87.020093
 51
92.979907
  0
ARC
  5
25A
100
AcDbEntity
  8
0
370
    -3
  6
DASHED
100
AcDbCircle
 10
712.378014
 20
-123.634136
 30
0.0
 40
65.8
100
AcDbArc
 50
51.262419
 51
87.020093
  0
ARC
  5
25B
100
AcDbEntity
  8
0
370
    -3
  6
DASHED
100
AcDbCircle
 10
695.482645
 20
-144.69468
 30
0.0
 40
92.8
100
AcDbArc
 50
38.737581
 51
51.262419
  0
ARC
  5
25C
100
AcDbEntity
  8
0
370
    -3
  6
DASHED
100
AcDbCircle
 10
716.543189
 20
-127.799311
 30
0.0
 40
65.8
100
AcDbArc
 50
34.940367
 51
38.737581
  0
ARC
  5
25D
100
AcDbEntity
  8
0
370
    -3
  6
DASHED
100
AcDbCircle
 10
695.482645
 20
158.80532
 30
0.0
 40
390.8
100
AcDbArc
 50
267.020093
 51
272.979907
  0
ARC
  5
25E
100
AcDbEntity
  8
0
370
    -3
  6
DASHED
100
AcDbCircle
 10
678.587276
 20
-165.755224
 30
0.0
 40
65.8
100
AcDbArc
 50
231.262419
 51
267.020093
  0
ARC
  5
25F
100
AcDbEntity
  8
0
370
    -3
  6
DASHED
100
AcDbCircle
 10
712.378014
 20
-165.755224
 30
0.0
 40
65.8
100
AcDbArc
 50
272.979907
 51
308.737581
  0
ARC
  5
260
100
AcDbEntity
  8
0
370
    -3
  6
DASHED
100
AcDbCircle
 10
695.482645
 20
-144.69468
 30
0.0
 40
92.8
100
AcDbArc
 50
308.737581
 51
318.965146
  0
ARC
  5
261
100
AcDbEntity
  8
0
370
    -3
  6
DASHED
100
AcDbCircle
 10
695.482645
 20
-144.69468
 30
0.0
 40
92.8
100
AcDbArc
 50
221.034854
 51
231.262419
  0
ARC
  5
262
100
AcDbEntity
  8
0
370
    -3
  6
DASHED
100
AcDbCircle
 10
674.422102
 20
-127.799311
 30
0.0
 40
65.8
100
AcDbArc
 50
159.443296
 51
177.020093
  0
ARC
  5
263
100
AcDbEntity
  8
0
370
    -3
  6
Continuous
100
AcDbCircle
 10
998.982645
 20
-144.69468
 30
0.0
 40
390.8
100
AcDbArc
 50
180.0
 51
182.979907
  0
LINE
  5
264
100
AcDbEntity
  8
0
370
    -3
  6
CENTER
100
AcDbLine
 10
548.734504
 20
-124.69468
 30
0.0
 11
789.456315
 21
-124.69468
 31
0.0
  0
LINE
  5
265
100
AcDbEntity
  8
0
370
    -3
  6
Continuous
100
AcDbLine
 10
608.482594
 20
-101.69468
 30
0.0
 11
553.482594
 21
-101.69468
 31
0.0
  0
LINE
  5
266
100
AcDbEntity
  8
0
370
    -3
  6
Continuous
100
AcDbLine
 10
618.482594
 20
-104.69468
 30
0.0
 11
553.482594
 21
-104.69468
 31
0.0
  0
LINE
  5
267
100
AcDbEntity
  8
0
370
    -3
  6
Continuous
100
AcDbLine
 10
608.482594
 20
-104.69468
 30
0.0
 11
608.482594
 21
-101.69468
 31
0.0
  0
LINE
  5
268
100
AcDbEntity
  8
0
370
    -3
  6
Continuous
100
AcDbLine
 10
620.482543
 20
-145.69468
 30
0.0
 11
618.482594
 21
-145.69468
 31
0.0
  0
LINE
  5
269
100
AcDbEntity
  8
0
370
    -3
  6
Continuous
100
AcDbLine
 10
620.482645
 20
-103.69468
 30
0.0
 11
618.482594
 21
-103.69468
 31
0.0
  0
LINE
  5
26A
100
AcDbEntity
  8
0
370
    -3
  6
Continuous
100
AcDbLine
 10
618.482594
 20
-103.69468
 30
0.0
 11
618.482594
 21
-145.69468
 31
0.0
  0
LINE
  5
26B
100
AcDbEntity
  8
0
370
    -3
  6
Continuous
100
AcDbLine
 10
553.482594
 20
-144.69468
 30
0.0
 11
553.482594
 21
-101.69468
 31
0.0
  0
LINE
  5
26C
100
AcDbEntity
  8
0
370
    -3
  6
Continuous
100
AcDbLine
 10
618.482594
 20
-144.69468
 30
0.0
 11
553.482594
 21
-144.69468
 31
0.0
  0
LINE
  5
26D
100
AcDbEntity
  8
0
370
    -3
  6
CENTER
100
AcDbLine
 10
695.482486
 20
6.248747
 30
0.0
 11
695.482806
 21
-256.581713
 31
0.0
  0
LINE
  5
26E
100
AcDbEntity
  8
0
370
    -3
  6
Continuous
100
AcDbLine
 10
684.982501
 20
-6.19468
 30
0.0
 11
705.982501
 21
-6.19468
 31
0.0
  0
LINE
  5
26F
100
AcDbEntity
  8
0
370
    -3
  6
CENTER
100
AcDbLine
 10
680.543447
 20
-26.19468
 30
0.0
 11
710.421604
 21
-26.19468
 31
0.0
  0
CIRCLE
  5
270
100
AcDbEntity
  8
0
370
    -3
  6
Continuous
100
AcDbCircle
 10
695.482501
 20
-26.19468
 30
0.0
 40
10.0
  0
LINE
  5
271
100
AcDbEntity
  8
0
370
    -3
  6
Continuous
100
AcDbLine
 10
674.982501
 20
-38.410561
 30
0.0
 11
674.982501
 21
-16.19468
 31
0.0
  0
LINE
  5
272
100
AcDbEntity
  8
0
370
    -3
  6
Continuous
100
AcDbLine
 10
715.982501
 20
-38.410551
 30
0.0
 11
715.982501
 21
-16.19468
 31
0.0
  0
ARC
  5
273
100
AcDbEntity
  8
0
370
    -3
  6
Continuous
100
AcDbCircle
 10
705.982501
 20
-16.19468
 30
0.0
 40
10.0
100
AcDbArc
 50
0.0
 51
90.0
  0
ARC
  5
274
100
AcDbEntity
  8
0
370
    -3
  6
Continuous
100
AcDbCircle
 10
684.982501
 20
-16.19468
 30
0.0
 40
10.0
100
AcDbArc
 50
90.0
 51
180.0
  0
LINE
  5
275
100
AcDbEntity
  8
0
370
    -3
  6
Continuous
100
AcDbLine
 10
698.482645
 20
-37.799442
 30
0.0
 11
753.482645
 21
-39.720085
 31
0.0
  0
LINE
  5
276
100
AcDbEntity
  8
0
370
    -3
  6
Continuous
100
AcDbLine
 10
753.482645
 20
-40.69468
 30
0.0
 11
764.483331
 21
-40.982743
 31
0.0
  0
LINE
  5
277
100
AcDbEntity
  8
0
370
    -3
  6
Continuous
100
AcDbLine
 10
764.483331
 20
-40.982743
 30
0.0
 11
765.482645
 21
-42.008568
 31
0.0
  0
LINE
  5
278
100
AcDbEntity
  8
0
370
    -3
  6
Continuous
100
AcDbLine
 10
753.482645
 20
-246.669275
 30
0.0
 11
698.482645
 21
-248.589918
 31
0.0
  0
LINE
  5
279
100
AcDbEntity
  8
0
370
    -3
  6
Continuous
100
AcDbLine
 10
753.482645
 20
-245.69468
 30
0.0
 11
764.483331
 21
-245.406617
 31
0.0
  0
LINE
  5
27A
100
AcDbEntity
  8
0
370
    -3
  6
Continuous
100
AcDbLine
 10
764.483331
 20
-245.406617
 30
0.0
 11
765.482645
 21
-244.380792
 31
0.0
  0
LINE
  5
27B
100
AcDbEntity
  8
0
370
    -3
  6
Continuous
100
AcDbLine
 10
695.482645
 20
-247.19468
 30
0.0
 11
698.482645
 21
-247.299442
 31
0.0
  0
LINE
  5
27C
100
AcDbEntity
  8
0
370
    -3
  6
Continuous
100
AcDbLine
 10
695.482645
 20
-247.19468
 30
0.0
 11
695.482645
 21
-39.19468
 31
0.0
  0
LINE
  5
27D
100
AcDbEntity
  8
0
370
    -3
  6
Continuous
100
AcDbLine
 10
698.482645
 20
-39.142315
 30
0.0
 11
695.482645
 21
-39.19468
 31
0.0
  0
LINE
  5
27E
100
AcDbEntity
  8
0
370
    -3
  6
Continuous
100
AcDbLine
 10
765.482645
 20
-67.19468
 30
0.0
 11
769.482645
 21
-67.19468
 31
0.0
  0
LINE
  5
27F
100
AcDbEntity
  8
0
370
    -3
  6
Continuous
100
AcDbLine
 10
765.482645
 20
-182.19468
 30
0.0
 11
769.482645
 21
-182.19468
 31
0.0
  0
LINE
  5
280
100
AcDbEntity
  8
0
370
    -3
  6
Continuous
100
AcDbLine
 10
769.482645
 20
-67.19468
 30
0.0
 11
770.482645
 21
-68.19468
 31
0.0
  0
LINE
  5
281
100
AcDbEntity
  8
0
370
    -3
  6
Continuous
100
AcDbLine
 10
769.482645
 20
-182.19468
 30
0.0
 11
770.482645
 21
-181.19468
 31
0.0
  0
LINE
  5
282
100
AcDbEntity
  8
0
370
    -3
  6
Continuous
100
AcDbLine
 10
637.482645
 20
-246.669275
 30
0.0
 11
695.482645
 21
-248.69468
 31
0.0
  0
LINE
  5
283
100
AcDbEntity
  8
0
370
    -3
  6
Continuous
100
AcDbLine
 10
695.482645
 20
-37.69468
 30
0.0
 11
637.482645
 21
-39.720085
 31
0.0
  0
LINE
  5
284
100
AcDbEntity
  8
0
370
    -3
  6
Continuous
100
AcDbLine
 10
637.482645
 20
-40.69468
 30
0.0
 11
626.48196
 21
-40.982743
 31
0.0
  0
LINE
  5
285
100
AcDbEntity
  8
0
370
    -3
  6
Continuous
100
AcDbLine
 10
626.48196
 20
-40.982743
 30
0.0
 11
625.482645
 21
-42.008568
 31
0.0
  0
LINE
  5
286
100
AcDbEntity
  8
0
370
    -3
  6
Continuous
100
AcDbLine
 10
626.48196
 20
-245.406617
 30
0.0
 11
625.482645
 21
-244.380792
 31
0.0
  0
LINE
  5
287
100
AcDbEntity
  8
0
370
    -3
  6
Continuous
100
AcDbLine
 10
637.482645
 20
-245.69468
 30
0.0
 11
626.48196
 21
-245.406617
 31
0.0
  0
LINE
  5
288
100
AcDbEntity
  8
0
370
    -3
  6
Continuous
100
AcDbLine
 10
695.482645
 20
-248.69468
 30
0.0
 11
695.482645
 21
-37.69468
 31
0.0
  0
LINE
  5
289
100
AcDbEntity
  8
0
370
    -3
  6
Continuous
100
AcDbLine
 10
620.482645
 20
-181.19468
 30
0.0
 11
620.482645
 21
-68.19468
 31
0.0
  0
LINE
  5
28A
100
AcDbEntity
  8
0
370
    -3
  6
Continuous
100
AcDbLine
 10
625.482645
 20
-182.19468
 30
0.0
 11
621.482645
 21
-182.19468
 31
0.0
  0
LINE
  5
28B
100
AcDbEntity
  8
0
370
    -3
  6
Continuous
100
AcDbLine
 10
625.482645
 20
-67.19468
 30
0.0
 11
621.482645
 21
-67.19468
 31
0.0
  0
LINE
  5
28C
100
AcDbEntity
  8
0
370
    -3
  6
Continuous
100
AcDbLine
 10
621.482645
 20
-67.19468
 30
0.0
 11
620.482645
 21
-68.19468
 31
0.0
  0
LINE
  5
28D
100
AcDbEntity
  8
0
370
    -3
  6
Continuous
100
AcDbLine
 10
621.482645
 20
-182.19468
 30
0.0
 11
620.482645
 21
-181.19468
 31
0.0
  0
LINE
  5
28E
100
AcDbEntity
  8
0
370
    -3
  6
Continuous
100
AcDbLine
 10
698.482645
 20
-124.69468
 30
0.0
 11
698.482645
 21
-37.799442
 31
0.0
  0
LINE
  5
28F
100
AcDbEntity
  8
0
370
    -3
  6
Continuous
100
AcDbLine
 10
698.482645
 20
-248.589918
 30
0.0
 11
698.482645
 21
-124.69468
 31
0.0
  0
LINE
  5
290
100
AcDbEntity
  8
0
370
    -3
  6
Continuous
100
AcDbLine
 10
753.482645
 20
-246.669275
 30
0.0
 11
753.482645
 21
-124.69468
 31
0.0
  0
LINE
  5
291
100
AcDbEntity
  8
0
370
    -3
  6
Continuous
100
AcDbLine
 10
753.482645
 20
-124.69468
 30
0.0
 11
753.482645
 21
-39.720085
 31
0.0
  0
LINE
  5
292
100
AcDbEntity
  8
0
370
    -3
  6
Continuous
100
AcDbLine
 10
765.482645
 20
-244.380792
 30
0.0
 11
765.482645
 21
-124.69468
 31
0.0
  0
LINE
  5
293
100
AcDbEntity
  8
0
370
    -3
  6
Continuous
100
AcDbLine
 10
765.482645
 20
-124.69468
 30
0.0
 11
765.482645
 21
-42.008568
 31
0.0
  0
LINE
  5
294
100
AcDbEntity
  8
0
370
    -3
  6
Continuous
100
AcDbLine
 10
637.482645
 20
-124.69468
 30
0.0
 11
637.482645
 21
-39.720085
 31
0.0
  0
LINE
  5
295
100
AcDbEntity
  8
0
370
    -3
  6
Continuous
100
AcDbLine
 10
625.482645
 20
-124.69468
 30
0.0
 11
625.482645
 21
-42.008568
 31
0.0
  0
LINE
  5
296
100
AcDbEntity
  8
0
370
    -3
  6
Continuous
100
AcDbLine
 10
637.482645
 20
-246.669275
 30
0.0
 11
637.482645
 21
-124.69468
 31
0.0
  0
LINE
  5
297
100
AcDbEntity
  8
0
370
    -3
  6
CENTER
100
AcDbLine
 10
616.482645
 20
-55.69468
 30
0.0
 11
774.482645
 21
-55.69468
 31
0.0
  0
LINE
  5
298
100
AcDbEntity
  8
0
370
    -3
  6
CENTER
100
AcDbLine
 10
711.675933
 20
-144.69468
 30
0.0
 11
681.738174
 21
-144.69468
 31
0.0
  0
LINE
  5
299
100
AcDbEntity
  8
0
370
    -3
  6
CENTER
100
AcDbLine
 10
616.482645
 20
-230.69468
 30
0.0
 11
774.482645
 21
-230.69468
 31
0.0
  0
LINE
  5
29A
100
AcDbEntity
  8
0
370
    -3
  6
Continuous
100
AcDbLine
 10
770.482645
 20
-181.19468
 30
0.0
 11
770.482645
 21
-68.19468
 31
0.0
  0
LINE
  5
29B
100
AcDbEntity
  8
0
370
    -3
  6
Continuous
100
AcDbLine
 10
625.482645
 20
-244.380792
 30
0.0
 11
625.482645
 21
-124.69468
 31
0.0
  0
CIRCLE
  5
29C
100
AcDbEntity
  8
0
370
    -3
  6
Continuous
100
AcDbCircle
 10
483.842694
 20
-124.69468
 30
0.0
 40
3.5
  0
CIRCLE
  5
29D
100
AcDbEntity
  8
0
370
    -3
  6
Continuous
100
AcDbCircle
 10
483.842694
 20
-124.69468
 30
0.0
 40
4.0
  0
LINE
  5
29E
100
AcDbEntity
  8
0
370
    -3
  6
CENTER
100
AcDbLine
 10
483.842694
 20
-98.16733
 30
0.0
 11
483.842694
 21
-148.16733
 31
0.0
  0
LINE
  5
29F
100
AcDbEntity
  8
0
370
    -3
  6
CENTER
100
AcDbLine
 10
507.242049
 20
-124.69468
 30
0.0
 11
459.492049
 21
-124.69468
 31
0.0
  0
ARC
  5
2A0
100
AcDbEntity
  8
0
370
    -3
  6
Continuous
100
AcDbCircle
 10
147.48363
 20
-150.69468
 30
0.0
 40
1.0
100
AcDbArc
 50
180.0
 51
270.0
  0
LINE
  5
2A1
100
AcDbEntity
  8
0
370
    -3
  6
Continuous
100
AcDbLine
 10
146.48363
 20
-138.69468
 30
0.0
 11
146.48363
 21
-150.69468
 31
0.0
  0
ARC
  5
2A2
100
AcDbEntity
  8
0
370
    -3
  6
Continuous
100
AcDbCircle
 10
147.48363
 20
-170.69468
 30
0.0
 40
1.0
100
AcDbArc
 50
180.0
 51
270.0
  0
LINE
  5
2A3
100
AcDbEntity
  8
0
370
    -3
  6
Continuous
100
AcDbLine
 10
146.48363
 20
-168.69468
 30
0.0
 11
146.48363
 21
-170.69468
 31
0.0
  0
ARC
  5
2A4
100
AcDbEntity
  8
0
370
    -3
  6
Continuous
100
AcDbCircle
 10
147.48363
 20
-168.69468
 30
0.0
 40
1.0
100
AcDbArc
 50
90.0
 51
180.0
  0
LINE
  5
2A5
100
AcDbEntity
  8
0
370
    -3
  6
Continuous
100
AcDbLine
 10
146.48363
 20
-188.69468
 30
0.0
 11
146.48363
 21
-203.267351
 31
0.0
  0
ARC
  5
2A6
100
AcDbEntity
  8
0
370
    -3
  6
Continuous
100
AcDbCircle
 10
147.48363
 20
-188.69468
 30
0.0
 40
1.0
100
AcDbArc
 50
90.0
 51
180.0
  0
ARC
  5
2A7
100
AcDbEntity
  8
0
370
    -3
  6
Continuous
100
AcDbCircle
 10
147.48363
 20
-138.69468
 30
0.0
 40
1.0
100
AcDbArc
 50
90.0
 51
180.0
  0
ARC
  5
2A8
100
AcDbEntity
  8
0
370
    -3
  6
Continuous
100
AcDbCircle
 10
147.48363
 20
-120.69468
 30
0.0
 40
1.0
100
AcDbArc
 50
180.0
 51
270.0
  0
LINE
  5
2A9
100
AcDbEntity
  8
0
370
    -3
  6
Continuous
100
AcDbLine
 10
146.48363
 20
-118.69468
 30
0.0
 11
146.48363
 21
-120.69468
 31
0.0
  0
ARC
  5
2AA
100
AcDbEntity
  8
0
370
    -3
  6
Continuous
100
AcDbCircle
 10
147.48363
 20
-118.69468
 30
0.0
 40
1.0
100
AcDbArc
 50
90.0
 51
180.0
  0
LINE
  5
2AB
100
AcDbEntity
  8
0
370
    -3
  6
Continuous
100
AcDbLine
 10
146.48363
 20
-86.122009
 30
0.0
 11
146.48363
 21
-100.69468
 31
0.0
  0
ARC
  5
2AC
100
AcDbEntity
  8
0
370
    -3
  6
Continuous
100
AcDbCircle
 10
147.48363
 20
-98.69468
 30
0.0
 40
1.0
100
AcDbArc
 50
90.0
 51
180.0
  0
LINE
  5
2AD
100
AcDbEntity
  8
0
370
    -3
  6
Continuous
100
AcDbLine
 10
154.983278
 20
-97.69468
 30
0.0
 11
147.48363
 21
-97.69468
 31
0.0
  0
ARC
  5
2AE
100
AcDbEntity
  8
0
370
    -3
  6
Continuous
100
AcDbCircle
 10
147.48363
 20
-100.69468
 30
0.0
 40
1.0
100
AcDbArc
 50
180.0
 51
270.0
  0
LINE
  5
2AF
100
AcDbEntity
  8
0
370
    -3
  6
Continuous
100
AcDbLine
 10
154.983278
 20
-101.69468
 30
0.0
 11
147.48363
 21
-101.69468
 31
0.0
  0
LINE
  5
2B0
100
AcDbEntity
  8
0
370
    -3
  6
Continuous
100
AcDbLine
 10
154.983278
 20
-117.69468
 30
0.0
 11
147.48363
 21
-117.69468
 31
0.0
  0
LINE
  5
2B1
100
AcDbEntity
  8
0
370
    -3
  6
Continuous
100
AcDbLine
 10
154.983278
 20
-121.69468
 30
0.0
 11
147.48363
 21
-121.69468
 31
0.0
  0
ARC
  5
2B2
100
AcDbEntity
  8
0
370
    -3
  6
Continuous
100
AcDbCircle
 10
154.983278
 20
-124.69468
 30
0.0
 40
3.0
100
AcDbArc
 50
0.0
 51
90.0
  0
ARC
  5
2B3
100
AcDbEntity
  8
0
370
    -3
  6
Continuous
100
AcDbCircle
 10
154.983278
 20
-114.69468
 30
0.0
 40
3.0
100
AcDbArc
 50
270.0
 51
0.0
  0
ARC
  5
2B4
100
AcDbEntity
  8
0
370
    -3
  6
Continuous
100
AcDbCircle
 10
154.983278
 20
-104.69468
 30
0.0
 40
3.0
100
AcDbArc
 50
0.0
 51
90.0
  0
ARC
  5
2B5
100
AcDbEntity
  8
0
370
    -3
  6
Continuous
100
AcDbCircle
 10
154.983278
 20
-94.69468
 30
0.0
 40
3.0
100
AcDbArc
 50
270.0
 51
0.0
  0
LINE
  5
2B6
100
AcDbEntity
  8
0
370
    -3
  6
Continuous
100
AcDbLine
 10
144.48363
 20
-70.694775
 30
0.0
 11
146.48363
 21
-70.694775
 31
0.0
  0
LINE
  5
2B7
100
AcDbEntity
  8
0
370
    -3
  6
Continuous
100
AcDbLine
 10
146.48363
 20
-68.731276
 30
0.0
 11
146.48363
 21
-77.636727
 31
0.0
  0
ARC
  5
2B8
100
AcDbEntity
  8
0
370
    -3
  6
Continuous
100
AcDbCircle
 10
147.48363
 20
-68.714368
 30
0.0
 40
1.0
100
AcDbArc
 50
90.0
 51
180.0
  0
LINE
  5
2B9
100
AcDbEntity
  8
0
370
    -3
  6
Continuous
100
AcDbLine
 10
147.48363
 20
-67.714368
 30
0.0
 11
154.983278
 21
-67.714368
 31
0.0
  0
ARC
  5
2BA
100
AcDbEntity
  8
0
370
    -3
  6
Continuous
100
AcDbCircle
 10
147.48363
 20
-68.731276
 30
0.0
 40
1.0
100
AcDbArc
 50
180.0
 51
270.0
  0
LINE
  5
2BB
100
AcDbEntity
  8
0
370
    -3
  6
Continuous
100
AcDbLine
 10
147.48363
 20
-69.731276
 30
0.0
 11
154.983278
 21
-69.731276
 31
0.0
  0
ARC
  5
2BC
100
AcDbEntity
  8
0
370
    -3
  6
Continuous
100
AcDbCircle
 10
154.983278
 20
-64.714368
 30
0.0
 40
3.0
100
AcDbArc
 50
270.0
 51
0.0
  0
ARC
  5
2BD
100
AcDbEntity
  8
0
370
    -3
  6
Continuous
100
AcDbCircle
 10
154.983278
 20
-72.731276
 30
0.0
 40
3.0
100
AcDbArc
 50
0.0
 51
90.0
  0
ARC
  5
2BE
100
AcDbEntity
  8
0
370
    -3
  6
Continuous
100
AcDbCircle
 10
147.48363
 20
-220.674992
 30
0.0
 40
1.0
100
AcDbArc
 50
180.0
 51
270.0
  0
LINE
  5
2BF
100
AcDbEntity
  8
0
370
    -3
  6
Continuous
100
AcDbLine
 10
147.48363
 20
-221.674992
 30
0.0
 11
154.983278
 21
-221.674992
 31
0.0
  0
ARC
  5
2C0
100
AcDbEntity
  8
0
370
    -3
  6
Continuous
100
AcDbCircle
 10
147.48363
 20
-220.658084
 30
0.0
 40
1.0
100
AcDbArc
 50
90.0
 51
180.0
  0
LINE
  5
2C1
100
AcDbEntity
  8
0
370
    -3
  6
Continuous
100
AcDbLine
 10
147.48363
 20
-219.658084
 30
0.0
 11
154.983278
 21
-219.658084
 31
0.0
  0
ARC
  5
2C2
100
AcDbEntity
  8
0
370
    -3
  6
Continuous
100
AcDbCircle
 10
147.48363
 20
-190.69468
 30
0.0
 40
1.0
100
AcDbArc
 50
180.0
 51
270.0
  0
LINE
  5
2C3
100
AcDbEntity
  8
0
370
    -3
  6
Continuous
100
AcDbLine
 10
154.983278
 20
-191.69468
 30
0.0
 11
147.48363
 21
-191.69468
 31
0.0
  0
LINE
  5
2C4
100
AcDbEntity
  8
0
370
    -3
  6
Continuous
100
AcDbLine
 10
154.983278
 20
-187.69468
 30
0.0
 11
147.48363
 21
-187.69468
 31
0.0
  0
LINE
  5
2C5
100
AcDbEntity
  8
0
370
    -3
  6
Continuous
100
AcDbLine
 10
154.983278
 20
-171.69468
 30
0.0
 11
147.48363
 21
-171.69468
 31
0.0
  0
LINE
  5
2C6
100
AcDbEntity
  8
0
370
    -3
  6
Continuous
100
AcDbLine
 10
154.983278
 20
-167.69468
 30
0.0
 11
147.48363
 21
-167.69468
 31
0.0
  0
LINE
  5
2C7
100
AcDbEntity
  8
0
370
    -3
  6
Continuous
100
AcDbLine
 10
154.983278
 20
-151.69468
 30
0.0
 11
147.48363
 21
-151.69468
 31
0.0
  0
LINE
  5
2C8
100
AcDbEntity
  8
0
370
    -3
  6
Continuous
100
AcDbLine
 10
154.983278
 20
-137.69468
 30
0.0
 11
147.48363
 21
-137.69468
 31
0.0
  0
ARC
  5
2C9
100
AcDbEntity
  8
0
370
    -3
  6
Continuous
100
AcDbCircle
 10
154.983278
 20
-224.674992
 30
0.0
 40
3.0
100
AcDbArc
 50
0.0
 51
90.0
  0
ARC
  5
2CA
100
AcDbEntity
  8
0
370
    -3
  6
Continuous
100
AcDbCircle
 10
154.983278
 20
-216.658084
 30
0.0
 40
3.0
100
AcDbArc
 50
270.0
 51
0.0
  0
LINE
  5
2CB
100
AcDbEntity
  8
0
370
    -3
  6
Continuous
100
AcDbLine
 10
146.48363
 20
-211.752633
 30
0.0
 11
146.48363
 21
-225.19468
 31
0.0
  0
ARC
  5
2CC
100
AcDbEntity
  8
0
370
    -3
  6
Continuous
100
AcDbCircle
 10
154.983278
 20
-200.267351
 30
0.0
 40
3.0
100
AcDbArc
 50
270.0
 51
0.0
  0
LINE
  5
2CD
100
AcDbEntity
  8
0
370
    -3
  6
Continuous
100
AcDbLine
 10
154.983278
 20
-203.267351
 30
0.0
 11
144.48363
 21
-203.267351
 31
0.0
  0
ARC
  5
2CE
100
AcDbEntity
  8
0
370
    -3
  6
Continuous
100
AcDbCircle
 10
154.983278
 20
-214.752633
 30
0.0
 40
3.0
100
AcDbArc
 50
0.0
 51
90.0
  0
LINE
  5
2CF
100
AcDbEntity
  8
0
370
    -3
  6
Continuous
100
AcDbLine
 10
154.983278
 20
-211.752633
 30
0.0
 11
144.48363
 21
-211.752633
 31
0.0
  0
ARC
  5
2D0
100
AcDbEntity
  8
0
370
    -3
  6
Continuous
100
AcDbCircle
 10
154.983278
 20
-154.69468
 30
0.0
 40
3.0
100
AcDbArc
 50
0.0
 51
90.0
  0
ARC
  5
2D1
100
AcDbEntity
  8
0
370
    -3
  6
Continuous
100
AcDbCircle
 10
154.983278
 20
-164.69468
 30
0.0
 40
3.0
100
AcDbArc
 50
270.0
 51
0.0
  0
ARC
  5
2D2
100
AcDbEntity
  8
0
370
    -3
  6
Continuous
100
AcDbCircle
 10
154.983278
 20
-174.69468
 30
0.0
 40
3.0
100
AcDbArc
 50
0.0
 51
90.0
  0
ARC
  5
2D3
100
AcDbEntity
  8
0
370
    -3
  6
Continuous
100
AcDbCircle
 10
154.983278
 20
-184.69468
 30
0.0
 40
3.0
100
AcDbArc
 50
270.0
 51
0.0
  0
ARC
  5
2D4
100
AcDbEntity
  8
0
370
    -3
  6
Continuous
100
AcDbCircle
 10
154.983278
 20
-194.69468
 30
0.0
 40
3.0
100
AcDbArc
 50
0.0
 51
90.0
  0
ARC
  5
2D5
100
AcDbEntity
  8
0
370
    -3
  6
Continuous
100
AcDbCircle
 10
154.983278
 20
-134.69468
 30
0.0
 40
3.0
100
AcDbArc
 50
270.0
 51
0.0
  0
ARC
  5
2D6
100
AcDbEntity
  8
0
370
    -3
  6
Continuous
100
AcDbCircle
 10
154.983278
 20
-89.122009
 30
0.0
 40
3.0
100
AcDbArc
 50
0.0
 51
90.0
  0
LINE
  5
2D7
100
AcDbEntity
  8
0
370
    -3
  6
Continuous
100
AcDbLine
 10
154.983278
 20
-86.122009
 30
0.0
 11
144.48363
 21
-86.122009
 31
0.0
  0
ARC
  5
2D8
100
AcDbEntity
  8
0
370
    -3
  6
Continuous
100
AcDbCircle
 10
154.983278
 20
-74.636727
 30
0.0
 40
3.0
100
AcDbArc
 50
270.0
 51
0.0
  0
LINE
  5
2D9
100
AcDbEntity
  8
0
370
    -3
  6
Continuous
100
AcDbLine
 10
154.983278
 20
-77.636727
 30
0.0
 11
144.48363
 21
-77.636727
 31
0.0
  0
LINE
  5
2DA
100
AcDbEntity
  8
0
370
    -3
  6
Continuous
100
AcDbLine
 10
157.983278
 20
-64.19468
 30
0.0
 11
157.983278
 21
-144.69468
 31
0.0
  0
LINE
  5
2DB
100
AcDbEntity
  8
0
370
    -3
  6
Continuous
100
AcDbLine
 10
160.983278
 20
-61.19468
 30
0.0
 11
166.983278
 21
-61.19468
 31
0.0
  0
ARC
  5
2DC
100
AcDbEntity
  8
0
370
    -3
  6
Continuous
100
AcDbCircle
 10
160.983278
 20
-64.19468
 30
0.0
 40
3.0
100
AcDbArc
 50
90.0
 51
180.0
  0
LINE
  5
2DD
100
AcDbEntity
  8
0
370
    -3
  6
Continuous
100
AcDbLine
 10
157.983278
 20
-225.19468
 30
0.0
 11
157.983278
 21
-144.69468
 31
0.0
  0
ARC
  5
2DE
100
AcDbEntity
  8
0
370
    -3
  6
Continuous
100
AcDbCircle
 10
160.983278
 20
-225.19468
 30
0.0
 40
3.0
100
AcDbArc
 50
180.0
 51
270.0
  0
LINE
  5
2DF
100
AcDbEntity
  8
0
370
    -3
  6
Continuous
100
AcDbLine
 10
166.983278
 20
-225.19468
 30
0.0
 11
166.983278
 21
-144.69468
 31
0.0
  0
LINE
  5
2E0
100
AcDbEntity
  8
0
370
    -3
  6
Continuous
100
AcDbLine
 10
168.983278
 20
-215.765243
 30
0.0
 11
168.983278
 21
-144.69468
 31
0.0
  0
LINE
  5
2E1
100
AcDbEntity
  8
0
370
    -3
  6
Continuous
100
AcDbLine
 10
168.983278
 20
-66.69468
 30
0.0
 11
168.983278
 21
-144.69468
 31
0.0
  0
LINE
  5
2E2
100
AcDbEntity
  8
0
370
    -3
  6
Continuous
100
AcDbLine
 10
149.48363
 20
-228.19468
 30
0.0
 11
163.983278
 21
-228.19468
 31
0.0
  0
ARC
  5
2E3
100
AcDbEntity
  8
0
370
    -3
  6
Continuous
100
AcDbCircle
 10
144.48363
 20
-220.694585
 30
0.0
 40
2.0
100
AcDbArc
 50
0.0
 51
90.0
  0
ARC
  5
2E4
100
AcDbEntity
  8
0
370
    -3
  6
Continuous
100
AcDbCircle
 10
149.48363
 20
-225.19468
 30
0.0
 40
3.0
100
AcDbArc
 50
180.0
 51
270.0
  0
LINE
  5
2E5
100
AcDbEntity
  8
0
370
    -3
  6
Continuous
100
AcDbLine
 10
144.48363
 20
-144.69468
 30
0.0
 11
144.48363
 21
-218.694585
 31
0.0
  0
LINE
  5
2E6
100
AcDbEntity
  8
0
370
    -3
  6
Continuous
100
AcDbLine
 10
144.48363
 20
-144.69468
 30
0.0
 11
144.48363
 21
-70.694775
 31
0.0
  0
ARC
  5
2E7
100
AcDbEntity
  8
0
370
    -3
  6
Continuous
100
AcDbCircle
 10
163.983278
 20
-225.19468
 30
0.0
 40
3.0
100
AcDbArc
 50
270.0
 51
0.0
  0
ARC
  5
2E8
100
AcDbEntity
  8
0
370
    -3
  6
Continuous
100
AcDbCircle
 10
171.983278
 20
-219.765243
 30
0.0
 40
5.0
100
AcDbArc
 50
135.0
 51
180.0
  0
CIRCLE
  5
2E9
100
AcDbEntity
  8
0
370
    -3
  6
Continuous
100
AcDbCircle
 10
326.483278
 20
-124.69468
 30
0.0
 40
40.0
  0
LINE
  5
2EA
100
AcDbEntity
  8
0
370
    -3
  6
Continuous
100
AcDbLine
 10
147.483278
 20
-6.19468
 30
0.0
 11
151.983278
 21
-6.19468
 31
0.0
  0
LINE
  5
2EB
100
AcDbEntity
  8
0
370
    -3
  6
Continuous
100
AcDbLine
 10
147.483278
 20
-6.19468
 30
0.0
 11
147.483278
 21
-61.19468
 31
0.0
  0
LINE
  5
2EC
100
AcDbEntity
  8
0
370
    -3
  6
Continuous
100
AcDbLine
 10
144.48363
 20
-144.69468
 30
0.0
 11
144.48363
 21
-64.69468
 31
0.0
  0
LINE
  5
2ED
100
AcDbEntity
  8
0
370
    -3
  6
Continuous
100
AcDbLine
 10
144.48363
 20
-144.69468
 30
0.0
 11
144.48363
 21
-228.19468
 31
0.0
  0
LINE
  5
2EE
100
AcDbEntity
  8
0
370
    -3
  6
Continuous
100
AcDbLine
 10
144.48363
 20
-144.69468
 30
0.0
 11
144.48363
 21
-228.19468
 31
0.0
  0
LINE
  5
2EF
100
AcDbEntity
  8
0
370
    -3
  6
Continuous
100
AcDbLine
 10
144.48363
 20
-144.69468
 30
0.0
 11
144.48363
 21
-64.69468
 31
0.0
  0
LINE
  5
2F0
100
AcDbEntity
  8
0
370
    -3
  6
Continuous
100
AcDbLine
 10
168.983278
 20
-215.694175
 30
0.0
 11
168.447744
 21
-216.229709
 31
0.0
  0
LINE
  5
2F1
100
AcDbEntity
  8
0
370
    -3
  6
Continuous
100
AcDbLine
 10
168.983278
 20
-66.69468
 30
0.0
 11
167.861957
 21
-65.57336
 31
0.0
  0
ARC
  5
2F2
100
AcDbEntity
  8
0
370
    -3
  6
Continuous
100
AcDbCircle
 10
169.983278
 20
-63.452039
 30
0.0
 40
3.0
100
AcDbArc
 50
180.0
 51
225.0
  0
CIRCLE
  5
2F3
100
AcDbEntity
  8
0
370
    -3
  6
Continuous
100
AcDbCircle
 10
326.483278
 20
-124.69468
 30
0.0
 40
4.0
  0
CIRCLE
  5
2F4
100
AcDbEntity
  8
0
370
    -3
  6
Continuous
100
AcDbCircle
 10
326.483278
 20
-124.69468
 30
0.0
 40
3.5
  0
LINE
  5
2F5
100
AcDbEntity
  8
0
370
    -3
  6
Continuous
100
AcDbLine
 10
168.983278
 20
-66.69468
 30
0.0
 11
168.983278
 21
-212.69468
 31
0.0
  0
LINE
  5
2F6
100
AcDbEntity
  8
0
370
    -3
  6
Continuous
100
AcDbLine
 10
403.483278
 20
-245.69468
 30
0.0
 11
185.483278
 21
-245.69468
 31
0.0
  0
ARC
  5
2F7
100
AcDbEntity
  8
0
370
    -3
  6
Continuous
100
AcDbCircle
 10
403.483278
 20
-238.69468
 30
0.0
 40
7.0
100
AcDbArc
 50
270.0
 51
0.0
  0
LINE
  5
2F8
100
AcDbEntity
  8
0
370
    -3
  6
Continuous
100
AcDbLine
 10
178.483278
 20
-67.668524
 30
0.0
 11
175.483278
 21
-67.668524
 31
0.0
  0
ARC
  5
2F9
100
AcDbEntity
  8
0
370
    -3
  6
Continuous
100
AcDbCircle
 10
185.483278
 20
-47.69468
 30
0.0
 40
10.0
100
AcDbArc
 50
90.0
 51
180.0
  0
LINE
  5
2FA
100
AcDbEntity
  8
0
370
    -3
  6
Continuous
100
AcDbLine
 10
403.483278
 20
-37.69468
 30
0.0
 11
185.483278
 21
-37.69468
 31
0.0
  0
ARC
  5
2FB
100
AcDbEntity
  8
0
370
    -3
  6
Continuous
100
AcDbCircle
 10
403.483278
 20
-47.69468
 30
0.0
 40
10.0
100
AcDbArc
 50
0.0
 51
90.0
  0
LINE
  5
2FC
100
AcDbEntity
  8
0
370
    -3
  6
Continuous
100
AcDbLine
 10
413.483278
 20
-47.69468
 30
0.0
 11
413.483278
 21
-238.69468
 31
0.0
  0
ARC
  5
2FD
100
AcDbEntity
  8
0
370
    -3
  6
Continuous
100
AcDbCircle
 10
403.483278
 20
-238.69468
 30
0.0
 40
10.0
100
AcDbArc
 50
270.0
 51
0.0
  0
LINE
  5
2FE
100
AcDbEntity
  8
0
370
    -3
  6
Continuous
100
AcDbLine
 10
178.483278
 20
-124.69468
 30
0.0
 11
178.483278
 21
-47.69468
 31
0.0
  0
ARC
  5
2FF
100
AcDbEntity
  8
0
370
    -3
  6
Continuous
100
AcDbCircle
 10
185.483278
 20
-47.69468
 30
0.0
 40
7.0
100
AcDbArc
 50
90.0
 51
180.0
  0
LINE
  5
300
100
AcDbEntity
  8
0
370
    -3
  6
Continuous
100
AcDbLine
 10
185.483278
 20
-40.69468
 30
0.0
 11
403.483278
 21
-40.69468
 31
0.0
  0
ARC
  5
301
100
AcDbEntity
  8
0
370
    -3
  6
Continuous
100
AcDbCircle
 10
403.483278
 20
-47.69468
 30
0.0
 40
7.0
100
AcDbArc
 50
0.0
 51
90.0
  0
LINE
  5
302
100
AcDbEntity
  8
0
370
    -3
  6
Continuous
100
AcDbLine
 10
410.483278
 20
-47.69468
 30
0.0
 11
410.483278
 21
-238.69468
 31
0.0
  0
LINE
  5
303
100
AcDbEntity
  8
0
370
    -3
  6
Continuous
100
AcDbLine
 10
178.483278
 20
-238.69468
 30
0.0
 11
178.483278
 21
-124.69468
 31
0.0
  0
ARC
  5
304
100
AcDbEntity
  8
0
370
    -3
  6
Continuous
100
AcDbCircle
 10
185.483278
 20
-238.69468
 30
0.0
 40
7.0
100
AcDbArc
 50
180.0
 51
270.0
  0
ARC
  5
305
100
AcDbEntity
  8
0
370
    -3
  6
Continuous
100
AcDbCircle
 10
170.483278
 20
-60.69468
 30
0.0
 40
5.0
100
AcDbArc
 50
270.0
 51
0.0
  0
LINE
  5
306
100
AcDbEntity
  8
0
370
    -3
  6
Continuous
100
AcDbLine
 10
170.483278
 20
-65.69468
 30
0.0
 11
169.983278
 21
-65.69468
 31
0.0
  0
LINE
  5
307
100
AcDbEntity
  8
0
370
    -3
  6
Continuous
100
AcDbLine
 10
175.483278
 20
-211.720836
 30
0.0
 11
178.483278
 21
-211.720836
 31
0.0
  0
LINE
  5
308
100
AcDbEntity
  8
0
370
    -3
  6
Continuous
100
AcDbLine
 10
175.483278
 20
-238.69468
 30
0.0
 11
175.483278
 21
-47.69468
 31
0.0
  0
ARC
  5
309
100
AcDbEntity
  8
0
370
    -3
  6
Continuous
100
AcDbCircle
 10
185.483278
 20
-238.69468
 30
0.0
 40
10.0
100
AcDbArc
 50
180.0
 51
270.0
  0
LINE
  5
30A
100
AcDbEntity
  8
0
370
    -3
  6
Continuous
100
AcDbLine
 10
403.483278
 20
-248.69468
 30
0.0
 11
185.483278
 21
-248.69468
 31
0.0
  0
LINE
  5
30B
100
AcDbEntity
  8
0
370
    -3
  6
CENTER
100
AcDbLine
 10
420.726639
 20
-124.69468
 30
0.0
 11
415.105018
 21
-124.69468
 31
0.0
  0
LINE
  5
30C
100
AcDbEntity
  8
0
370
    -3
  6
CENTER
100
AcDbLine
 10
195.483278
 20
-71.9575
 30
0.0
 11
195.483278
 21
-39.023155
 31
0.0
  0
LINE
  5
30D
100
AcDbEntity
  8
0
370
    -3
  6
CENTER
100
AcDbLine
 10
180.749136
 20
-55.69468
 30
0.0
 11
210.428342
 21
-55.69468
 31
0.0
  0
LINE
  5
30E
100
AcDbEntity
  8
0
370
    -3
  6
CENTER
100
AcDbLine
 10
179.217306
 20
-230.69468
 30
0.0
 11
211.577215
 21
-230.69468
 31
0.0
  0
LINE
  5
30F
100
AcDbEntity
  8
0
370
    -3
  6
CENTER
100
AcDbLine
 10
195.483278
 20
-252.140919
 30
0.0
 11
195.483278
 21
-214.213043
 31
0.0
  0
LINE
  5
310
100
AcDbEntity
  8
0
370
    -3
  6
CENTER
100
AcDbLine
 10
380.844429
 20
-230.69468
 30
0.0
 11
411.28955
 21
-230.69468
 31
0.0
  0
LINE
  5
311
100
AcDbEntity
  8
0
370
    -3
  6
CENTER
100
AcDbLine
 10
395.483278
 20
-213.75804
 30
0.0
 11
395.483278
 21
-253.112991
 31
0.0
  0
LINE
  5
312
100
AcDbEntity
  8
0
370
    -3
  6
CENTER
100
AcDbLine
 10
395.483278
 20
-39.023155
 30
0.0
 11
395.483278
 21
-71.574543
 31
0.0
  0
LINE
  5
313
100
AcDbEntity
  8
0
370
    -3
  6
CENTER
100
AcDbLine
 10
380.227386
 20
-55.69468
 30
0.0
 11
410.481028
 21
-55.69468
 31
0.0
  0
LINE
  5
314
100
AcDbEntity
  8
0
370
    -3
  6
Continuous
100
AcDbLine
 10
410.483278
 20
-124.69468
 30
0.0
 11
410.483278
 21
-47.64275
 31
0.0
  0
LINE
  5
315
100
AcDbEntity
  8
0
370
    -3
  6
Continuous
100
AcDbLine
 10
169.983278
 20
-65.69468
 30
0.0
 11
168.983278
 21
-66.69468
 31
0.0
  0
LINE
  5
316
100
AcDbEntity
  8
0
370
    -3
  6
Continuous
100
AcDbLine
 10
396.983278
 20
-97.658062
 30
0.0
 11
396.983278
 21
-186.74832
 31
0.0
  0
ARC
  5
317
100
AcDbEntity
  8
0
370
    -3
  6
Continuous
100
AcDbCircle
 10
390.483278
 20
-186.74832
 30
0.0
 40
6.5
100
AcDbArc
 50
294.396165
 51
0.0
  0
ARC
  5
318
100
AcDbEntity
  8
0
370
    -3
  6
Continuous
100
AcDbCircle
 10
399.983278
 20
-207.69468
 30
0.0
 40
16.5
100
AcDbArc
 50
114.396165
 51
170.343561
  0
ARC
  5
319
100
AcDbEntity
  8
0
370
    -3
  6
Continuous
100
AcDbCircle
 10
377.309158
 20
-203.836662
 30
0.0
 40
6.5
100
AcDbArc
 50
305.523296
 51
350.343561
  0
ARC
  5
31A
100
AcDbEntity
  8
0
370
    -3
  6
Continuous
100
AcDbCircle
 10
396.483278
 20
-230.69468
 30
0.0
 40
26.5
100
AcDbArc
 50
125.523296
 51
171.285258
  0
ARC
  5
31B
100
AcDbEntity
  8
0
370
    -3
  6
Continuous
100
AcDbCircle
 10
363.864265
 20
-225.69468
 30
0.0
 40
6.5
100
AcDbArc
 50
270.0
 51
351.285258
  0
LINE
  5
31C
100
AcDbEntity
  8
0
370
    -3
  6
Continuous
100
AcDbLine
 10
363.864265
 20
-232.19468
 30
0.0
 11
332.649288
 21
-232.19468
 31
0.0
  0
ARC
  5
31D
100
AcDbEntity
  8
0
370
    -3
  6
Continuous
100
AcDbCircle
 10
332.649288
 20
-225.69468
 30
0.0
 40
6.5
100
AcDbArc
 50
203.035684
 51
270.0
  0
ARC
  5
31E
100
AcDbEntity
  8
0
370
    -3
  6
Continuous
100
AcDbCircle
 10
311.483278
 20
-234.69468
 30
0.0
 40
16.5
100
AcDbArc
 50
23.035684
 51
156.964316
  0
ARC
  5
31F
100
AcDbEntity
  8
0
370
    -3
  6
Continuous
100
AcDbCircle
 10
290.317267
 20
-225.69468
 30
0.0
 40
6.5
100
AcDbArc
 50
270.0
 51
336.964316
  0
LINE
  5
320
100
AcDbEntity
  8
0
370
    -3
  6
Continuous
100
AcDbLine
 10
290.317267
 20
-232.19468
 30
0.0
 11
228.102291
 21
-232.19468
 31
0.0
  0
ARC
  5
321
100
AcDbEntity
  8
0
370
    -3
  6
Continuous
100
AcDbCircle
 10
228.102291
 20
-225.69468
 30
0.0
 40
6.5
100
AcDbArc
 50
188.714742
 51
270.0
  0
ARC
  5
322
100
AcDbEntity
  8
0
370
    -3
  6
Continuous
100
AcDbCircle
 10
195.483278
 20
-230.69468
 30
0.0
 40
26.5
100
AcDbArc
 50
8.714742
 51
60.437071
  0
ARC
  5
323
100
AcDbEntity
  8
0
370
    -3
  6
Continuous
100
AcDbCircle
 10
211.764791
 20
-201.990807
 30
0.0
 40
6.5
100
AcDbArc
 50
194.358867
 51
240.437071
  0
ARC
  5
324
100
AcDbEntity
  8
0
370
    -3
  6
Continuous
100
AcDbCircle
 10
189.483278
 20
-207.69468
 30
0.0
 40
16.5
100
AcDbArc
 50
14.358867
 51
66.964924
  0
ARC
  5
325
100
AcDbEntity
  8
0
370
    -3
  6
Continuous
100
AcDbCircle
 10
198.483053
 20
-186.528574
 30
0.0
 40
6.5
100
AcDbArc
 50
180.0
 51
246.964924
  0
LINE
  5
326
100
AcDbEntity
  8
0
370
    -3
  6
Continuous
100
AcDbLine
 10
191.983053
 20
-186.528574
 30
0.0
 11
191.983053
 21
-99.860786
 31
0.0
  0
ARC
  5
327
100
AcDbEntity
  8
0
370
    -3
  6
Continuous
100
AcDbCircle
 10
198.483053
 20
-99.860786
 30
0.0
 40
6.5
100
AcDbArc
 50
113.035076
 51
180.0
  0
ARC
  5
328
100
AcDbEntity
  8
0
370
    -3
  6
Continuous
100
AcDbCircle
 10
189.483278
 20
-78.69468
 30
0.0
 40
16.5
100
AcDbArc
 50
293.035076
 51
345.641133
  0
ARC
  5
329
100
AcDbEntity
  8
0
370
    -3
  6
Continuous
100
AcDbCircle
 10
211.764791
 20
-84.398553
 30
0.0
 40
6.5
100
AcDbArc
 50
119.562929
 51
165.641133
  0
ARC
  5
32A
100
AcDbEntity
  8
0
370
    -3
  6
Continuous
100
AcDbCircle
 10
195.483278
 20
-55.69468
 30
0.0
 40
26.5
100
AcDbArc
 50
299.562929
 51
351.285258
  0
ARC
  5
32B
100
AcDbEntity
  8
0
370
    -3
  6
Continuous
100
AcDbCircle
 10
228.102291
 20
-60.69468
 30
0.0
 40
6.5
100
AcDbArc
 50
90.0
 51
171.285258
  0
LINE
  5
32C
100
AcDbEntity
  8
0
370
    -3
  6
Continuous
100
AcDbLine
 10
228.102291
 20
-54.19468
 30
0.0
 11
244.317267
 21
-54.19468
 31
0.0
  0
ARC
  5
32D
100
AcDbEntity
  8
0
370
    -3
  6
Continuous
100
AcDbCircle
 10
244.317267
 20
-60.69468
 30
0.0
 40
6.5
100
AcDbArc
 50
23.035684
 51
90.0
  0
ARC
  5
32E
100
AcDbEntity
  8
0
370
    -3
  6
Continuous
100
AcDbCircle
 10
265.483278
 20
-51.69468
 30
0.0
 40
16.5
100
AcDbArc
 50
203.035684
 51
336.964316
  0
ARC
  5
32F
100
AcDbEntity
  8
0
370
    -3
  6
Continuous
100
AcDbCircle
 10
286.649288
 20
-60.69468
 30
0.0
 40
6.5
100
AcDbArc
 50
90.0
 51
156.964316
  0
LINE
  5
330
100
AcDbEntity
  8
0
370
    -3
  6
Continuous
100
AcDbLine
 10
286.649288
 20
-54.19468
 30
0.0
 11
362.864265
 21
-54.19468
 31
0.0
  0
ARC
  5
331
100
AcDbEntity
  8
0
370
    -3
  6
Continuous
100
AcDbCircle
 10
362.864265
 20
-60.69468
 30
0.0
 40
6.5
100
AcDbArc
 50
8.714742
 51
90.0
  0
ARC
  5
332
100
AcDbEntity
  8
0
370
    -3
  6
Continuous
100
AcDbCircle
 10
395.483278
 20
-55.69468
 30
0.0
 40
26.5
100
AcDbArc
 50
188.714742
 51
240.286689
  0
ARC
  5
333
100
AcDbEntity
  8
0
370
    -3
  6
Continuous
100
AcDbCircle
 10
379.126483
 20
-84.355721
 30
0.0
 40
6.5
100
AcDbArc
 50
18.140582
 51
60.286689
  0
ARC
  5
334
100
AcDbEntity
  8
0
370
    -3
  6
Continuous
100
AcDbCircle
 10
400.983278
 20
-77.19468
 30
0.0
 40
16.5
100
AcDbArc
 50
198.140582
 51
242.837112
  0
ARC
  5
335
100
AcDbEntity
  8
0
370
    -3
  6
Continuous
100
AcDbCircle
 10
390.483278
 20
-97.658062
 30
0.0
 40
6.5
100
AcDbArc
 50
0.0
 51
62.837112
  0
LINE
  5
336
100
AcDbEntity
  8
0
370
    -3
  6
CENTER
100
AcDbLine
 10
326.483278
 20
-30.375439
 30
0.0
 11
326.483278
 21
-256.079454
 31
0.0
  0
LINE
  5
337
100
AcDbEntity
  8
0
370
    -3
  6
CENTER
100
AcDbLine
 10
422.657646
 20
-124.69468
 30
0.0
 11
207.000749
 21
-124.69468
 31
0.0
  0
LINE
  5
338
100
AcDbEntity
  8
0
370
    -3
  6
Continuous
100
AcDbLine
 10
169.983278
 20
-213.69468
 30
0.0
 11
168.983278
 21
-212.69468
 31
0.0
  0
LINE
  5
339
100
AcDbEntity
  8
0
370
    -3
  6
Continuous
100
AcDbLine
 10
170.483278
 20
-213.69468
 30
0.0
 11
169.983278
 21
-213.69468
 31
0.0
  0
ARC
  5
33A
100
AcDbEntity
  8
0
370
    -3
  6
Continuous
100
AcDbCircle
 10
170.483278
 20
-218.69468
 30
0.0
 40
5.0
100
AcDbArc
 50
0.0
 51
90.0
  0
CIRCLE
  5
33B
100
AcDbEntity
  8
0
370
    -3
  6
Continuous
100
AcDbCircle
 10
395.483278
 20
-55.69468
 30
0.0
 40
6.9175
  0
CIRCLE
  5
33C
100
AcDbEntity
  8
0
370
    -3
  6
Continuous
100
AcDbCircle
 10
395.483278
 20
-55.69468
 30
0.0
 40
8.0
  0
CIRCLE
  5
33D
100
AcDbEntity
  8
0
370
    -3
  6
Continuous
100
AcDbCircle
 10
195.483278
 20
-55.69468
 30
0.0
 40
8.0
  0
CIRCLE
  5
33E
100
AcDbEntity
  8
0
370
    -3
  6
Continuous
100
AcDbCircle
 10
195.483278
 20
-55.69468
 30
0.0
 40
6.9175
  0
CIRCLE
  5
33F
100
AcDbEntity
  8
0
370
    -3
  6
Continuous
100
AcDbCircle
 10
195.483278
 20
-230.69468
 30
0.0
 40
8.0
  0
CIRCLE
  5
340
100
AcDbEntity
  8
0
370
    -3
  6
Continuous
100
AcDbCircle
 10
195.483278
 20
-230.69468
 30
0.0
 40
6.9175
  0
CIRCLE
  5
341
100
AcDbEntity
  8
0
370
    -3
  6
Continuous
100
AcDbCircle
 10
395.483278
 20
-230.69468
 30
0.0
 40
8.0
  0
CIRCLE
  5
342
100
AcDbEntity
  8
0
370
    -3
  6
Continuous
100
AcDbCircle
 10
395.483278
 20
-230.69468
 30
0.0
 40
6.9175
  0
CIRCLE
  5
343
100
AcDbEntity
  8
0
370
    -3
  6
Continuous
100
AcDbCircle
 10
326.483278
 20
-124.69468
 30
0.0
 40
66.0
  0
CIRCLE
  5
344
100
AcDbEntity
  8
0
370
    -3
  6
Continuous
100
AcDbCircle
 10
326.483278
 20
-124.69468
 30
0.0
 40
68.5
  0
CIRCLE
  5
345
100
AcDbEntity
  8
0
370
    -3
  6
Continuous
100
AcDbCircle
 10
326.483278
 20
-124.69468
 30
0.0
 40
57.5
  0
LINE
  5
346
100
AcDbEntity
  8
0
370
    -3
  6
Continuous
100
AcDbLine
 10
166.983278
 20
-42.19468
 30
0.0
 11
166.983278
 21
-144.69468
 31
0.0
  0
LINE
  5
347
100
AcDbEntity
  8
0
370
    -3
  6
CENTER
100
AcDbLine
 10
140.56818
 20
-26.19468
 30
0.0
 11
155.031529
 21
-26.19468
 31
0.0
  0
LINE
  5
348
100
AcDbEntity
  8
0
370
    -3
  6
CENTER
100
AcDbLine
 10
133.549202
 20
-51.19468
 30
0.0
 11
156.520403
 21
-51.19468
 31
0.0
  0
INSERT
  5
354
100
AcDbEntity
  8
0
100
AcDbBlockReference
  2
ZU_SYM__USERS_HOME_SYMBOL_POO_SYM_B20_00005-1
 10
147.483278
 20
-51.19468
 30
0.0
 50
360.0
  0
LINE
  5
355
100
AcDbEntity
  8
0
370
    -3
  6
Continuous
100
AcDbLine
 10
151.983278
 20
-6.19468
 30
0.0
 11
151.983278
 21
-67.714368
 31
0.0
  0
LINE
  5
356
100
AcDbEntity
  8
0
370
    -3
  6
Continuous
100
AcDbLine
 10
154.983278
 20
-39.19468
 30
0.0
 11
163.983278
 21
-39.19468
 31
0.0
  0
ARC
  5
357
100
AcDbEntity
  8
0
370
    -3
  6
Continuous
100
AcDbCircle
 10
154.983278
 20
-42.19468
 30
0.0
 40
3.0
100
AcDbArc
 50
90.0
 51
180.0
  0
ARC
  5
358
100
AcDbEntity
  8
0
370
    -3
  6
Continuous
100
AcDbCircle
 10
163.983278
 20
-42.19468
 30
0.0
 40
3.0
100
AcDbArc
 50
0.0
 51
90.0
  0
LINE
  5
359
100
AcDbEntity
  8
0
370
    -3
  6
Continuous
100
AcDbLine
 10
147.483278
 20
-61.19468
 30
0.0
 11
151.983278
 21
-61.19468
 31
0.0
  0
LINE
  5
35A
100
AcDbEntity
  8
0
370
    -3
  6
Continuous
100
AcDbLine
 10
144.48363
 20
-144.69468
 30
0.0
 11
144.48363
 21
-228.19468
 31
0.0
  0
LINE
  5
35B
100
AcDbEntity
  8
0
370
    -3
  6
Continuous
100
AcDbLine
 10
144.48363
 20
-144.69468
 30
0.0
 11
144.48363
 21
-64.69468
 31
0.0
  0
LINE
  5
35C
100
AcDbEntity
  8
0
370
    -3
  6
CENTER
100
AcDbLine
 10
238.747244
 20
-144.69468
 30
0.0
 11
-172.326577
 21
-144.69468
 31
0.0
  0
LINE
  5
35D
100
AcDbEntity
  8
0
370
    -3
  6
Continuous
100
AcDbLine
 10
144.48363
 20
-227.69468
 30
0.0
 11
-10.516371
 21
-227.69468
 31
0.0
  0
LINE
  5
35E
100
AcDbEntity
  8
0
370
    -3
  6
Continuous
100
AcDbLine
 10
144.48363
 20
-227.19468
 30
0.0
 11
-10.516371
 21
-227.19468
 31
0.0
  0
LINE
  5
35F
100
AcDbEntity
  8
0
370
    -3
  6
Continuous
100
AcDbLine
 10
144.48363
 20
-224.69468
 30
0.0
 11
-10.516371
 21
-224.69468
 31
0.0
  0
LINE
  5
360
100
AcDbEntity
  8
0
370
    -3
  6
Continuous
100
AcDbLine
 10
-13.516371
 20
-58.33517
 30
0.0
 11
-29.516371
 21
-58.33517
 31
0.0
  0
ARC
  5
361
100
AcDbEntity
  8
0
370
    -3
  6
Continuous
100
AcDbCircle
 10
-29.516371
 20
-57.33517
 30
0.0
 40
1.0
100
AcDbArc
 50
183.411668
 51
270.0
  0
LINE
  5
362
100
AcDbEntity
  8
0
370
    -3
  6
Continuous
100
AcDbLine
 10
-116.584403
 20
-57.39468
 30
0.0
 11
-30.514598
 21
-57.39468
 31
0.0
  0
LINE
  5
363
100
AcDbEntity
  8
0
370
    -3
  6
Continuous
100
AcDbLine
 10
-10.516371
 20
-231.99468
 30
0.0
 11
-10.516371
 21
-144.69468
 31
0.0
  0
LINE
  5
364
100
AcDbEntity
  8
0
370
    -3
  6
Continuous
100
AcDbLine
 10
-116.584403
 20
-231.99468
 30
0.0
 11
-10.516371
 21
-231.99468
 31
0.0
  0
LINE
  5
365
100
AcDbEntity
  8
0
370
    -3
  6
Continuous
100
AcDbLine
 10
-36.01637
 20
-213.566881
 30
0.0
 11
-37.945574
 21
-214.777543
 31
0.0
  0
LINE
  5
366
100
AcDbEntity
  8
0
370
    -3
  6
Continuous
100
AcDbLine
 10
-36.01637
 20
-213.566881
 30
0.0
 11
-38.01637
 21
-211.993543
 31
0.0
  0
LINE
  5
367
100
AcDbEntity
  8
0
370
    -3
  6
Continuous
100
AcDbLine
 10
-36.01637
 20
-213.566881
 30
0.0
 11
-34.087165
 21
-214.777543
 31
0.0
  0
LINE
  5
368
100
AcDbEntity
  8
0
370
    -3
  6
Continuous
100
AcDbLine
 10
-36.01637
 20
-213.566881
 30
0.0
 11
-34.01637
 21
-211.993543
 31
0.0
  0
ELLIPSE
  5
369
100
AcDbEntity
  8
0
370
    -3
  6
Continuous
100
AcDbEllipse
 10
-36.01637
 20
-211.728403
 30
0.0
 11
4.5
 21
0.0
 31
0.0
210
0.0
220
0.0
230
1.0
 40
0.707107
 41
5.3002993159359626
 42
4.1244786448334168
  0
ELLIPSE
  5
36A
100
AcDbEntity
  8
0
370
    -3
  6
Continuous
100
AcDbEllipse
 10
-36.01637
 20
-212.264921
 30
0.0
 11
3.5
 21
0.0
 31
0.0
210
0.0
220
0.0
230
1.0
 40
0.860398
 41
0.0
 42
6.2831853071795862
  0
ELLIPSE
  5
36B
100
AcDbEntity
  8
0
370
    -3
  6
Continuous
100
AcDbEllipse
 10
-36.01637
 20
-211.162717
 30
0.0
 11
5.0
 21
0.0
 31
0.0
210
0.0
220
0.0
230
1.0
 40
0.707107
 41
3.1415926535897931
 42
3.880864480530414
  0
ELLIPSE
  5
36C
100
AcDbEntity
  8
0
370
    -3
  6
Continuous
100
AcDbEllipse
 10
-36.01637
 20
-211.162717
 30
0.0
 11
5.0
 21
0.0
 31
0.0
210
0.0
220
0.0
230
1.0
 40
0.707107
 41
5.5439134802389658
 42
0.0
  0
LINE
  5
36D
100
AcDbEntity
  8
0
370
    -3
  6
Continuous
100
AcDbLine
 10
-31.51637
 20
-211.728403
 30
0.0
 11
-31.51637
 21
-211.162717
 31
0.0
  0
LINE
  5
36E
100
AcDbEntity
  8
0
370
    -3
  6
Continuous
100
AcDbLine
 10
-40.51637
 20
-211.728403
 30
0.0
 11
-40.51637
 21
-211.162717
 31
0.0
  0
ELLIPSE
  5
36F
100
AcDbEntity
  8
0
370
    -3
  6
Continuous
100
AcDbEllipse
 10
-36.01637
 20
-211.162717
 30
0.0
 11
4.5
 21
0.0
 31
0.0
210
0.0
220
0.0
230
1.0
 40
0.707107
 41
0.0
 42
3.1415926535897931
  0
LINE
  5
370
100
AcDbEntity
  8
0
370
    -3
  6
Continuous
100
AcDbLine
 10
-31.01637
 20
-211.162717
 30
0.0
 11
-31.01637
 21
-210.346114
 31
0.0
  0
LINE
  5
371
100
AcDbEntity
  8
0
370
    -3
  6
Continuous
100
AcDbLine
 10
-41.01637
 20
-211.162717
 30
0.0
 11
-41.01637
 21
-210.346114
 31
0.0
  0
ELLIPSE
  5
372
100
AcDbEntity
  8
0
370
    -3
  6
Continuous
100
AcDbEllipse
 10
-36.01637
 20
-210.346114
 30
0.0
 11
5.0
 21
0.0
 31
0.0
210
0.0
220
0.0
230
1.0
 40
0.707107
 41
0.0
 42
3.1415926535897931
  0
ARC
  5
373
100
AcDbEntity
  8
0
370
    -3
  6
Continuous
100
AcDbCircle
 10
-151.716371
 20
-213.635149
 30
0.0
 40
3.8
100
AcDbArc
 50
180.0
 51
240.0
  0
ARC
  5
374
100
AcDbEntity
  8
0
370
    -3
  6
Continuous
100
AcDbCircle
 10
-116.584403
 20
-191.19468
 30
0.0
 40
40.8
100
AcDbArc
 50
240.0
 51
270.0
  0
LINE
  5
375
100
AcDbEntity
  8
0
370
    -3
  6
Continuous
100
AcDbLine
 10
-153.616371
 20
-216.926046
 30
0.0
 11
-136.984403
 21
-226.528517
 31
0.0
  0
LINE
  5
376
100
AcDbEntity
  8
0
370
    -3
  6
Continuous
100
AcDbLine
 10
-155.516371
 20
-213.635149
 30
0.0
 11
-155.516371
 21
-144.69468
 31
0.0
  0
LINE
  5
377
100
AcDbEntity
  8
0
370
    -3
  6
Continuous
100
AcDbLine
 10
-10.516371
 20
-228.19468
 30
0.0
 11
144.48363
 21
-228.19468
 31
0.0
  0
LINE
  5
378
100
AcDbEntity
  8
0
370
    -3
  6
Continuous
100
AcDbLine
 10
144.48363
 20
-98.556956
 30
0.0
 11
-10.516371
 21
-98.556956
 31
0.0
  0
LINE
  5
379
100
AcDbEntity
  8
0
370
    -3
  6
Continuous
100
AcDbLine
 10
144.48363
 20
-100.779283
 30
0.0
 11
-10.516371
 21
-100.779283
 31
0.0
  0
LINE
  5
37A
100
AcDbEntity
  8
0
370
    -3
  6
Continuous
100
AcDbLine
 10
144.48363
 20
-108.589742
 30
0.0
 11
-10.516371
 21
-108.589742
 31
0.0
  0
LINE
  5
37B
100
AcDbEntity
  8
0
370
    -3
  6
Continuous
100
AcDbLine
 10
144.48363
 20
-110.756452
 30
0.0
 11
-10.516371
 21
-110.756452
 31
0.0
  0
LINE
  5
37C
100
AcDbEntity
  8
0
370
    -3
  6
Continuous
100
AcDbLine
 10
144.48363
 20
-118.65206
 30
0.0
 11
-10.516371
 21
-118.65206
 31
0.0
  0
LINE
  5
37D
100
AcDbEntity
  8
0
370
    -3
  6
Continuous
100
AcDbLine
 10
144.48363
 20
-120.716823
 30
0.0
 11
-10.516371
 21
-120.716823
 31
0.0
  0
LINE
  5
37E
100
AcDbEntity
  8
0
370
    -3
  6
Continuous
100
AcDbLine
 10
144.48363
 20
-128.722952
 30
0.0
 11
-10.516371
 21
-128.722952
 31
0.0
  0
LINE
  5
37F
100
AcDbEntity
  8
0
370
    -3
  6
Continuous
100
AcDbLine
 10
144.48363
 20
-130.665335
 30
0.0
 11
-10.516371
 21
-130.665335
 31
0.0
  0
LINE
  5
380
100
AcDbEntity
  8
0
370
    -3
  6
Continuous
100
AcDbLine
 10
144.48363
 20
-138.75541
 30
0.0
 11
-10.516371
 21
-138.75541
 31
0.0
  0
LINE
  5
381
100
AcDbEntity
  8
0
370
    -3
  6
Continuous
100
AcDbLine
 10
144.48363
 20
-140.650183
 30
0.0
 11
-10.516371
 21
-140.650183
 31
0.0
  0
LINE
  5
382
100
AcDbEntity
  8
0
370
    -3
  6
Continuous
100
AcDbLine
 10
144.48363
 20
-148.739177
 30
0.0
 11
-10.516371
 21
-148.739177
 31
0.0
  0
LINE
  5
383
100
AcDbEntity
  8
0
370
    -3
  6
Continuous
100
AcDbLine
 10
144.48363
 20
-150.63395
 30
0.0
 11
-10.516371
 21
-150.63395
 31
0.0
  0
LINE
  5
384
100
AcDbEntity
  8
0
370
    -3
  6
Continuous
100
AcDbLine
 10
144.48363
 20
-158.724025
 30
0.0
 11
-10.516371
 21
-158.724025
 31
0.0
  0
LINE
  5
385
100
AcDbEntity
  8
0
370
    -3
  6
Continuous
100
AcDbLine
 10
144.48363
 20
-160.666408
 30
0.0
 11
-10.516371
 21
-160.666408
 31
0.0
  0
LINE
  5
386
100
AcDbEntity
  8
0
370
    -3
  6
Continuous
100
AcDbLine
 10
144.48363
 20
-168.672538
 30
0.0
 11
-10.516371
 21
-168.672538
 31
0.0
  0
LINE
  5
387
100
AcDbEntity
  8
0
370
    -3
  6
Continuous
100
AcDbLine
 10
144.48363
 20
-170.7373
 30
0.0
 11
-10.516371
 21
-170.7373
 31
0.0
  0
LINE
  5
388
100
AcDbEntity
  8
0
370
    -3
  6
Continuous
100
AcDbLine
 10
144.48363
 20
-178.632908
 30
0.0
 11
-10.516371
 21
-178.632908
 31
0.0
  0
LINE
  5
389
100
AcDbEntity
  8
0
370
    -3
  6
Continuous
100
AcDbLine
 10
144.48363
 20
-180.799618
 30
0.0
 11
-10.516371
 21
-180.799618
 31
0.0
  0
LINE
  5
38A
100
AcDbEntity
  8
0
370
    -3
  6
Continuous
100
AcDbLine
 10
144.48363
 20
-188.610078
 30
0.0
 11
-10.516371
 21
-188.610078
 31
0.0
  0
LINE
  5
38B
100
AcDbEntity
  8
0
370
    -3
  6
Continuous
100
AcDbLine
 10
144.48363
 20
-190.832404
 30
0.0
 11
-10.516371
 21
-190.832404
 31
0.0
  0
LINE
  5
38C
100
AcDbEntity
  8
0
370
    -3
  6
Continuous
100
AcDbLine
 10
144.48363
 20
-203.502825
 30
0.0
 11
-10.516371
 21
-203.502825
 31
0.0
  0
LINE
  5
38D
100
AcDbEntity
  8
0
370
    -3
  6
Continuous
100
AcDbLine
 10
144.48363
 20
-210.573893
 30
0.0
 11
-10.516371
 21
-210.573893
 31
0.0
  0
LINE
  5
38E
100
AcDbEntity
  8
0
370
    -3
  6
Continuous
100
AcDbLine
 10
144.48363
 20
-219.69468
 30
0.0
 11
-10.516371
 21
-219.69468
 31
0.0
  0
LINE
  5
38F
100
AcDbEntity
  8
0
370
    -3
  6
Continuous
100
AcDbLine
 10
-10.516371
 20
-61.33517
 30
0.0
 11
-10.516371
 21
-144.69468
 31
0.0
  0
ARC
  5
390
100
AcDbEntity
  8
0
370
    -3
  6
Continuous
100
AcDbCircle
 10
-151.716371
 20
-75.754211
 30
0.0
 40
3.8
100
AcDbArc
 50
120.0
 51
180.0
  0
LINE
  5
391
100
AcDbEntity
  8
0
370
    -3
  6
Continuous
100
AcDbLine
 10
-153.616371
 20
-72.463315
 30
0.0
 11
-136.984403
 21
-62.860844
 31
0.0
  0
LINE
  5
392
100
AcDbEntity
  8
0
370
    -3
  6
Continuous
100
AcDbLine
 10
-155.516371
 20
-75.754211
 30
0.0
 11
-155.516371
 21
-144.69468
 31
0.0
  0
ARC
  5
393
100
AcDbEntity
  8
0
370
    -3
  6
Continuous
100
AcDbCircle
 10
-116.584403
 20
-98.19468
 30
0.0
 40
40.8
100
AcDbArc
 50
90.0
 51
120.0
  0
LINE
  5
394
100
AcDbEntity
  8
0
370
    -3
  6
Continuous
100
AcDbLine
 10
-36.01637
 20
-75.822479
 30
0.0
 11
-37.945574
 21
-74.611817
 31
0.0
  0
LINE
  5
395
100
AcDbEntity
  8
0
370
    -3
  6
Continuous
100
AcDbLine
 10
-36.01637
 20
-75.822479
 30
0.0
 11
-38.01637
 21
-77.395817
 31
0.0
  0
LINE
  5
396
100
AcDbEntity
  8
0
370
    -3
  6
Continuous
100
AcDbLine
 10
-36.01637
 20
-75.822479
 30
0.0
 11
-34.087165
 21
-74.611817
 31
0.0
  0
LINE
  5
397
100
AcDbEntity
  8
0
370
    -3
  6
Continuous
100
AcDbLine
 10
-36.01637
 20
-75.822479
 30
0.0
 11
-34.01637
 21
-77.395817
 31
0.0
  0
ELLIPSE
  5
398
100
AcDbEntity
  8
0
370
    -3
  6
Continuous
100
AcDbEllipse
 10
-36.01637
 20
-77.660957
 30
0.0
 11
4.5
 21
0.0
 31
0.0
210
0.0
220
0.0
230
1.0
 40
0.707107
 41
2.158706662346169
 42
0.9828859912436241
  0
ELLIPSE
  5
399
100
AcDbEntity
  8
0
370
    -3
  6
Continuous
100
AcDbEllipse
 10
-36.01637
 20
-77.124439
 30
0.0
 11
3.5
 21
0.0
 31
0.0
210
0.0
220
0.0
230
1.0
 40
0.860398
 41
0.0
 42
6.2831853071795862
  0
ELLIPSE
  5
39A
100
AcDbEntity
  8
0
370
    -3
  6
Continuous
100
AcDbEllipse
 10
-36.01637
 20
-78.226643
 30
0.0
 11
5.0
 21
0.0
 31
0.0
210
0.0
220
0.0
230
1.0
 40
0.707107
 41
2.4023208266491722
 42
3.1415926535897931
  0
ELLIPSE
  5
39B
100
AcDbEntity
  8
0
370
    -3
  6
Continuous
100
AcDbEllipse
 10
-36.01637
 20
-78.226643
 30
0.0
 11
5.0
 21
0.0
 31
0.0
210
0.0
220
0.0
230
1.0
 40
0.707107
 41
0.0
 42
0.7392718269406207
  0
LINE
  5
39C
100
AcDbEntity
  8
0
370
    -3
  6
Continuous
100
AcDbLine
 10
-31.51637
 20
-77.660957
 30
0.0
 11
-31.51637
 21
-78.226643
 31
0.0
  0
LINE
  5
39D
100
AcDbEntity
  8
0
370
    -3
  6
Continuous
100
AcDbLine
 10
-40.51637
 20
-77.660957
 30
0.0
 11
-40.51637
 21
-78.226643
 31
0.0
  0
ELLIPSE
  5
39E
100
AcDbEntity
  8
0
370
    -3
  6
Continuous
100
AcDbEllipse
 10
-36.01637
 20
-78.226643
 30
0.0
 11
4.5
 21
0.0
 31
0.0
210
0.0
220
0.0
230
1.0
 40
0.707107
 41
3.1415926535897931
 42
0.0
  0
LINE
  5
39F
100
AcDbEntity
  8
0
370
    -3
  6
Continuous
100
AcDbLine
 10
-31.01637
 20
-78.226643
 30
0.0
 11
-31.01637
 21
-79.043246
 31
0.0
  0
LINE
  5
3A0
100
AcDbEntity
  8
0
370
    -3
  6
Continuous
100
AcDbLine
 10
-41.01637
 20
-78.226643
 30
0.0
 11
-41.01637
 21
-79.043246
 31
0.0
  0
ELLIPSE
  5
3A1
100
AcDbEntity
  8
0
370
    -3
  6
Continuous
100
AcDbEllipse
 10
-36.01637
 20
-79.043246
 30
0.0
 11
5.0
 21
0.0
 31
0.0
210
0.0
220
0.0
230
1.0
 40
0.707107
 41
3.1415926535897931
 42
0.0
  0
ARC
  5
3A2
100
AcDbEntity
  8
0
370
    -3
  6
Continuous
100
AcDbCircle
 10
-13.516371
 20
-61.33517
 30
0.0
 40
3.0
100
AcDbArc
 50
0.0
 51
90.0
  0
LINE
  5
3A3
100
AcDbEntity
  8
0
370
    -3
  6
Continuous
100
AcDbLine
 10
144.48363
 20
-64.69468
 30
0.0
 11
-10.516371
 21
-64.69468
 31
0.0
  0
LINE
  5
3A4
100
AcDbEntity
  8
0
370
    -3
  6
Continuous
100
AcDbLine
 10
144.48363
 20
-69.69468
 30
0.0
 11
-10.516371
 21
-69.69468
 31
0.0
  0
LINE
  5
3A5
100
AcDbEntity
  8
0
370
    -3
  6
Continuous
100
AcDbLine
 10
144.48363
 20
-78.815468
 30
0.0
 11
-10.516371
 21
-78.815468
 31
0.0
  0
LINE
  5
3A6
100
AcDbEntity
  8
0
370
    -3
  6
Continuous
100
AcDbLine
 10
144.48363
 20
-85.886535
 30
0.0
 11
-10.516371
 21
-85.886535
 31
0.0
  0
LINE
  5
3A7
100
AcDbEntity
  8
0
370
    -3
  6
Continuous
100
AcDbLine
 10
-155.516371
 20
121.081794
 30
0.0
 11
-155.516371
 21
190.022263
 31
0.0
  0
LINE
  5
3A8
100
AcDbEntity
  8
0
370
    -3
  6
Continuous
100
AcDbLine
 10
-153.616371
 20
117.790898
 30
0.0
 11
-136.984403
 21
108.188427
 31
0.0
  0
ARC
  5
3A9
100
AcDbEntity
  8
0
370
    -3
  6
Continuous
100
AcDbCircle
 10
-116.584403
 20
143.522263
 30
0.0
 40
40.8
100
AcDbArc
 50
240.0
 51
270.0
  0
ARC
  5
3AA
100
AcDbEntity
  8
0
370
    -3
  6
Continuous
100
AcDbCircle
 10
-151.716371
 20
121.081794
 30
0.0
 40
3.8
100
AcDbArc
 50
180.0
 51
240.0
  0
ELLIPSE
  5
3AB
100
AcDbEntity
  8
0
370
    -3
  6
Continuous
100
AcDbEllipse
 10
-36.01637
 20
255.673697
 30
0.0
 11
5.0
 21
0.0
 31
0.0
210
0.0
220
0.0
230
1.0
 40
0.707107
 41
3.1415926535897931
 42
0.0
  0
LINE
  5
3AC
100
AcDbEntity
  8
0
370
    -3
  6
Continuous
100
AcDbLine
 10
-41.01637
 20
256.4903
 30
0.0
 11
-41.01637
 21
255.673697
 31
0.0
  0
LINE
  5
3AD
100
AcDbEntity
  8
0
370
    -3
  6
Continuous
100
AcDbLine
 10
-31.01637
 20
256.4903
 30
0.0
 11
-31.01637
 21
255.673697
 31
0.0
  0
ELLIPSE
  5
3AE
100
AcDbEntity
  8
0
370
    -3
  6
Continuous
100
AcDbEllipse
 10
-36.01637
 20
256.4903
 30
0.0
 11
4.5
 21
0.0
 31
0.0
210
0.0
220
0.0
230
1.0
 40
0.707107
 41
3.1415926535897931
 42
0.0
  0
LINE
  5
3AF
100
AcDbEntity
  8
0
370
    -3
  6
Continuous
100
AcDbLine
 10
-40.51637
 20
257.055986
 30
0.0
 11
-40.51637
 21
256.4903
 31
0.0
  0
LINE
  5
3B0
100
AcDbEntity
  8
0
370
    -3
  6
Continuous
100
AcDbLine
 10
-31.51637
 20
257.055986
 30
0.0
 11
-31.51637
 21
256.4903
 31
0.0
  0
ELLIPSE
  5
3B1
100
AcDbEntity
  8
0
370
    -3
  6
Continuous
100
AcDbEllipse
 10
-36.01637
 20
256.4903
 30
0.0
 11
5.0
 21
0.0
 31
0.0
210
0.0
220
0.0
230
1.0
 40
0.707107
 41
0.0
 42
0.7392718269406207
  0
ELLIPSE
  5
3B2
100
AcDbEntity
  8
0
370
    -3
  6
Continuous
100
AcDbEllipse
 10
-36.01637
 20
256.4903
 30
0.0
 11
5.0
 21
0.0
 31
0.0
210
0.0
220
0.0
230
1.0
 40
0.707107
 41
2.4023208266491722
 42
3.1415926535897931
  0
ELLIPSE
  5
3B3
100
AcDbEntity
  8
0
370
    -3
  6
Continuous
100
AcDbEllipse
 10
-36.01637
 20
257.592504
 30
0.0
 11
3.5
 21
0.0
 31
0.0
210
0.0
220
0.0
230
1.0
 40
0.860398
 41
0.0
 42
6.2831853071795862
  0
ELLIPSE
  5
3B4
100
AcDbEntity
  8
0
370
    -3
  6
Continuous
100
AcDbEllipse
 10
-36.01637
 20
257.055986
 30
0.0
 11
4.5
 21
0.0
 31
0.0
210
0.0
220
0.0
230
1.0
 40
0.707107
 41
2.158706662346169
 42
0.9828859912436241
  0
LINE
  5
3B5
100
AcDbEntity
  8
0
370
    -3
  6
Continuous
100
AcDbLine
 10
-36.01637
 20
258.894464
 30
0.0
 11
-34.01637
 21
257.321126
 31
0.0
  0
LINE
  5
3B6
100
AcDbEntity
  8
0
370
    -3
  6
Continuous
100
AcDbLine
 10
-36.01637
 20
258.894464
 30
0.0
 11
-34.087165
 21
260.105126
 31
0.0
  0
LINE
  5
3B7
100
AcDbEntity
  8
0
370
    -3
  6
Continuous
100
AcDbLine
 10
-36.01637
 20
258.894464
 30
0.0
 11
-38.01637
 21
257.321126
 31
0.0
  0
LINE
  5
3B8
100
AcDbEntity
  8
0
370
    -3
  6
Continuous
100
AcDbLine
 10
-36.01637
 20
258.894464
 30
0.0
 11
-37.945574
 21
260.105126
 31
0.0
  0
ELLIPSE
  5
3B9
100
AcDbEntity
  8
0
370
    -3
  6
Continuous
100
AcDbEllipse
 10
-36.01637
 20
124.370829
 30
0.0
 11
5.0
 21
0.0
 31
0.0
210
0.0
220
0.0
230
1.0
 40
0.707107
 41
0.0
 42
3.1415926535897931
  0
LINE
  5
3BA
100
AcDbEntity
  8
0
370
    -3
  6
Continuous
100
AcDbLine
 10
-41.01637
 20
123.554226
 30
0.0
 11
-41.01637
 21
124.370829
 31
0.0
  0
LINE
  5
3BB
100
AcDbEntity
  8
0
370
    -3
  6
Continuous
100
AcDbLine
 10
-31.01637
 20
123.554226
 30
0.0
 11
-31.01637
 21
124.370829
 31
0.0
  0
ELLIPSE
  5
3BC
100
AcDbEntity
  8
0
370
    -3
  6
Continuous
100
AcDbEllipse
 10
-36.01637
 20
123.554226
 30
0.0
 11
4.5
 21
0.0
 31
0.0
210
0.0
220
0.0
230
1.0
 40
0.707107
 41
0.0
 42
3.1415926535897931
  0
LINE
  5
3BD
100
AcDbEntity
  8
0
370
    -3
  6
Continuous
100
AcDbLine
 10
-40.51637
 20
122.98854
 30
0.0
 11
-40.51637
 21
123.554226
 31
0.0
  0
LINE
  5
3BE
100
AcDbEntity
  8
0
370
    -3
  6
Continuous
100
AcDbLine
 10
-31.51637
 20
122.98854
 30
0.0
 11
-31.51637
 21
123.554226
 31
0.0
  0
ELLIPSE
  5
3BF
100
AcDbEntity
  8
0
370
    -3
  6
Continuous
100
AcDbEllipse
 10
-36.01637
 20
123.554226
 30
0.0
 11
5.0
 21
0.0
 31
0.0
210
0.0
220
0.0
230
1.0
 40
0.707107
 41
5.5439134802389658
 42
0.0
  0
ELLIPSE
  5
3C0
100
AcDbEntity
  8
0
370
    -3
  6
Continuous
100
AcDbEllipse
 10
-36.01637
 20
123.554226
 30
0.0
 11
5.0
 21
0.0
 31
0.0
210
0.0
220
0.0
230
1.0
 40
0.707107
 41
3.1415926535897931
 42
3.880864480530414
  0
ELLIPSE
  5
3C1
100
AcDbEntity
  8
0
370
    -3
  6
Continuous
100
AcDbEllipse
 10
-36.01637
 20
122.452022
 30
0.0
 11
3.5
 21
0.0
 31
0.0
210
0.0
220
0.0
230
1.0
 40
0.860398
 41
0.0
 42
6.2831853071795862
  0
ELLIPSE
  5
3C2
100
AcDbEntity
  8
0
370
    -3
  6
Continuous
100
AcDbEllipse
 10
-36.01637
 20
122.98854
 30
0.0
 11
4.5
 21
0.0
 31
0.0
210
0.0
220
0.0
230
1.0
 40
0.707107
 41
5.3002993159359626
 42
4.1244786448334168
  0
LINE
  5
3C3
100
AcDbEntity
  8
0
370
    -3
  6
Continuous
100
AcDbLine
 10
-36.01637
 20
121.150062
 30
0.0
 11
-34.01637
 21
122.7234
 31
0.0
  0
LINE
  5
3C4
100
AcDbEntity
  8
0
370
    -3
  6
Continuous
100
AcDbLine
 10
-36.01637
 20
121.150062
 30
0.0
 11
-34.087165
 21
119.9394
 31
0.0
  0
LINE
  5
3C5
100
AcDbEntity
  8
0
370
    -3
  6
Continuous
100
AcDbLine
 10
-36.01637
 20
121.150062
 30
0.0
 11
-38.01637
 21
122.7234
 31
0.0
  0
LINE
  5
3C6
100
AcDbEntity
  8
0
370
    -3
  6
Continuous
100
AcDbLine
 10
-36.01637
 20
121.150062
 30
0.0
 11
-37.945574
 21
119.9394
 31
0.0
  0
ARC
  5
3C7
100
AcDbEntity
  8
0
370
    -3
  6
Continuous
100
AcDbCircle
 10
-116.584403
 20
236.522263
 30
0.0
 40
40.8
100
AcDbArc
 50
90.0
 51
120.0
  0
LINE
  5
3C8
100
AcDbEntity
  8
0
370
    -3
  6
Continuous
100
AcDbLine
 10
-155.516371
 20
258.962732
 30
0.0
 11
-155.516371
 21
190.022263
 31
0.0
  0
LINE
  5
3C9
100
AcDbEntity
  8
0
370
    -3
  6
Continuous
100
AcDbLine
 10
-153.616371
 20
262.253628
 30
0.0
 11
-136.984403
 21
271.856099
 31
0.0
  0
ARC
  5
3CA
100
AcDbEntity
  8
0
370
    -3
  6
Continuous
100
AcDbCircle
 10
-151.716371
 20
258.962732
 30
0.0
 40
3.8
100
AcDbArc
 50
120.0
 51
180.0
  0
LINE
  5
3CB
100
AcDbEntity
  8
0
370
    -3
  6
Continuous
100
AcDbLine
 10
-116.584403
 20
102.722263
 30
0.0
 11
-10.516371
 21
102.722263
 31
0.0
  0
LINE
  5
3CC
100
AcDbEntity
  8
0
370
    -3
  6
Continuous
100
AcDbLine
 10
-10.516371
 20
102.722263
 30
0.0
 11
-10.516371
 21
143.222263
 31
0.0
  0
LINE
  5
3CD
100
AcDbEntity
  8
0
370
    -3
  6
Continuous
100
AcDbLine
 10
-116.584403
 20
277.322263
 30
0.0
 11
-10.516371
 21
277.322263
 31
0.0
  0
LINE
  5
3CE
100
AcDbEntity
  8
0
370
    -3
  6
Continuous
100
AcDbLine
 10
-10.516371
 20
277.322263
 30
0.0
 11
-10.516371
 21
236.822263
 31
0.0
  0
LINE
  5
3CF
100
AcDbEntity
  8
0
370
    -3
  6
Continuous
100
AcDbLine
 10
144.48363
 20
273.522263
 30
0.0
 11
-10.516371
 21
273.522263
 31
0.0
  0
LINE
  5
3D0
100
AcDbEntity
  8
0
370
    -3
  6
Continuous
100
AcDbLine
 10
144.48363
 20
273.022263
 30
0.0
 11
-10.516371
 21
273.022263
 31
0.0
  0
LINE
  5
3D1
100
AcDbEntity
  8
0
370
    -3
  6
Continuous
100
AcDbLine
 10
144.48363
 20
272.522263
 30
0.0
 11
-10.516371
 21
272.522263
 31
0.0
  0
LINE
  5
3D2
100
AcDbEntity
  8
0
370
    -3
  6
Continuous
100
AcDbLine
 10
144.48363
 20
270.022263
 30
0.0
 11
-10.516371
 21
270.022263
 31
0.0
  0
LINE
  5
3D3
100
AcDbEntity
  8
0
370
    -3
  6
Continuous
100
AcDbLine
 10
144.48363
 20
265.022263
 30
0.0
 11
-10.516371
 21
265.022263
 31
0.0
  0
LINE
  5
3D4
100
AcDbEntity
  8
0
370
    -3
  6
Continuous
100
AcDbLine
 10
144.48363
 20
255.901476
 30
0.0
 11
-10.516371
 21
255.901476
 31
0.0
  0
LINE
  5
3D5
100
AcDbEntity
  8
0
370
    -3
  6
Continuous
100
AcDbLine
 10
144.48363
 20
223.960491
 30
0.0
 11
44.3811
 21
223.960491
 31
0.0
  0
LINE
  5
3D6
100
AcDbEntity
  8
0
370
    -3
  6
Continuous
100
AcDbLine
 10
144.48363
 20
226.127201
 30
0.0
 11
44.3811
 21
226.127201
 31
0.0
  0
LINE
  5
3D7
100
AcDbEntity
  8
0
370
    -3
  6
Continuous
100
AcDbLine
 10
144.48363
 20
236.159987
 30
0.0
 11
39.726397
 21
236.159987
 31
0.0
  0
LINE
  5
3D8
100
AcDbEntity
  8
0
370
    -3
  6
Continuous
100
AcDbLine
 10
144.48363
 20
233.937661
 30
0.0
 11
42.637408
 21
233.937661
 31
0.0
  0
LINE
  5
3D9
100
AcDbEntity
  8
0
370
    -3
  6
Continuous
100
AcDbLine
 10
144.48363
 20
248.830408
 30
0.0
 11
-10.516371
 21
248.830408
 31
0.0
  0
LINE
  5
3DA
100
AcDbEntity
  8
0
370
    -3
  6
Continuous
100
AcDbLine
 10
144.48363
 20
214.022263
 30
0.0
 11
44.3811
 21
214.022263
 31
0.0
  0
LINE
  5
3DB
100
AcDbEntity
  8
0
370
    -3
  6
Continuous
100
AcDbLine
 10
144.48363
 20
107.022263
 30
0.0
 11
-10.516371
 21
107.022263
 31
0.0
  0
LINE
  5
3DC
100
AcDbEntity
  8
0
370
    -3
  6
Continuous
100
AcDbLine
 10
144.48363
 20
107.522263
 30
0.0
 11
-10.516371
 21
107.522263
 31
0.0
  0
LINE
  5
3DD
100
AcDbEntity
  8
0
370
    -3
  6
Continuous
100
AcDbLine
 10
144.48363
 20
110.022263
 30
0.0
 11
-10.516371
 21
110.022263
 31
0.0
  0
LINE
  5
3DE
100
AcDbEntity
  8
0
370
    -3
  6
Continuous
100
AcDbLine
 10
144.48363
 20
115.022263
 30
0.0
 11
-10.516371
 21
115.022263
 31
0.0
  0
LINE
  5
3DF
100
AcDbEntity
  8
0
370
    -3
  6
Continuous
100
AcDbLine
 10
144.48363
 20
124.14305
 30
0.0
 11
-10.516371
 21
124.14305
 31
0.0
  0
LINE
  5
3E0
100
AcDbEntity
  8
0
370
    -3
  6
Continuous
100
AcDbLine
 10
144.48363
 20
156.084035
 30
0.0
 11
44.3811
 21
156.084035
 31
0.0
  0
LINE
  5
3E1
100
AcDbEntity
  8
0
370
    -3
  6
Continuous
100
AcDbLine
 10
144.48363
 20
166.022263
 30
0.0
 11
44.3811
 21
166.022263
 31
0.0
  0
LINE
  5
3E2
100
AcDbEntity
  8
0
370
    -3
  6
Continuous
100
AcDbLine
 10
144.48363
 20
106.522263
 30
0.0
 11
-10.516371
 21
106.522263
 31
0.0
  0
LINE
  5
3E3
100
AcDbEntity
  8
0
370
    -3
  6
Continuous
100
AcDbLine
 10
144.48363
 20
153.917325
 30
0.0
 11
44.3811
 21
153.917325
 31
0.0
  0
LINE
  5
3E4
100
AcDbEntity
  8
0
370
    -3
  6
Continuous
100
AcDbLine
 10
144.48363
 20
146.106865
 30
0.0
 11
42.637408
 21
146.106865
 31
0.0
  0
LINE
  5
3E5
100
AcDbEntity
  8
0
370
    -3
  6
Continuous
100
AcDbLine
 10
144.48363
 20
143.884539
 30
0.0
 11
39.726397
 21
143.884539
 31
0.0
  0
LINE
  5
3E6
100
AcDbEntity
  8
0
370
    -3
  6
Continuous
100
AcDbLine
 10
144.48363
 20
131.214118
 30
0.0
 11
-10.516371
 21
131.214118
 31
0.0
  0
LINE
  5
3E7
100
AcDbEntity
  8
0
370
    -3
  6
Continuous
100
AcDbLine
 10
144.48363
 20
210.522263
 30
0.0
 11
144.48363
 21
273.522263
 31
0.0
  0
LINE
  5
3E8
100
AcDbEntity
  8
0
370
    -3
  6
Continuous
100
AcDbLine
 10
144.48363
 20
169.522263
 30
0.0
 11
144.48363
 21
106.522263
 31
0.0
  0
MTEXT
  5
3EA
100
AcDbEntity
  8
0
370
    -3
  6
Continuous
100
AcDbMText
 10
-426.883057
 20
224.013062
 30
0.0
 40
15.0
 41
0.0
 71
     7
 72
     1
  1
\W0.48;GV-SHYMB-RR
  7
ZU_SHPTB00001
 11
1.0
 21
0.0
 31
0.0
 73
     1
 44
1.0
  0
MTEXT
  5
3EB
100
AcDbEntity
  8
0
370
    -3
  6
Continuous
100
AcDbMText
 10
-426.883057
 20
173.163055
 30
0.0
 40
15.0
 41
0.0
 71
     7
 72
     1
  1
\W0.42;GEAR\W0.70; \W0.42;RATIO\W0.70;  \W0.42;1/5-1/60
  7
ZU_SHPTB00001
 11
1.0
 21
0.0
 31
0.0
 73
     1
 44
1.0
  0
MTEXT
  5
3EC
100
AcDbEntity
  8
0
370
    -3
  6
Continuous
100
AcDbMText
 10
-426.883057
 20
190.113068
 30
0.0
 40
15.0
 41
0.0
 71
     7
 72
     1
  1
\W0.43;600-50r/min\W0.53;　
  7
ZU_SHPTB00001
 11
1.0
 21
0.0
 31
0.0
 73
     1
 44
1.0
  0
MTEXT
  5
3ED
100
AcDbEntity
  8
0
370
    -3
  6
Continuous
100
AcDbMText
 10
-426.883057
 20
240.963074
 30
0.0
 40
15.0
 41
0.0
 71
     7
 72
     1
  1
\W0.63;三菱ギヤードモータ  
  7
ZU_SHPTB00001
 11
1.0
 21
0.0
 31
0.0
 73
     1
 44
1.0
  0
MTEXT
  5
3EE
100
AcDbEntity
  8
0
370
    -3
  6
Continuous
100
AcDbMText
 10
-426.883057
 20
240.963074
 30
0.0
 40
15.0
 41
0.0
 71
     7
 72
     1
  1
\W0.63;三菱ギヤードモータ  
  7
ZU_SHPTB00001
 11
1.0
 21
0.0
 31
0.0
 73
     1
 44
1.0
  0
MTEXT
  5
3EF
100
AcDbEntity
  8
0
370
    -3
  6
Continuous
100
AcDbMText
 10
-426.883057
 20
207.063049
 30
0.0
 40
15.0
 41
0.0
 71
     7
 72
     1
  1
\W0.43;2.2kW
  7
ZU_SHPTB00001
 11
1.0
 21
0.0
 31
0.0
 73
     1
 44
1.0
  0
MTEXT
  5
3F0
100
AcDbEntity
  8
0
370
    -3
  6
Continuous
100
AcDbMText
 10
-426.883057
 20
156.213013
 30
0.0
 40
15.0
 41
0.0
 71
     7
 72
     1
  1
\W0.43;SCALE\W0.72;  \W0.43;1/1
  7
ZU_SHPTB00001
 11
1.0
 21
0.0
 31
0.0
 73
     1
 44
1.0
  0
ARC
  5
3F1
100
AcDbEntity
  8
0
370
    -3
  6
Continuous
100
AcDbCircle
 10
-356.516446
 20
-21.694334
 30
0.0
 40
12.0585
100
AcDbArc
 50
270.0
 51
90.0
  0
ARC
  5
3F2
100
AcDbEntity
  8
0
370
    -3
  6
Continuous
100
AcDbCircle
 10
-356.516446
 20
-21.694334
 30
0.0
 40
13.2205
100
AcDbArc
 50
270.0
 51
90.0
  0
ARC
  5
3F3
100
AcDbEntity
  8
0
370
    -3
  6
Continuous
100
AcDbCircle
 10
-356.516446
 20
-21.694334
 30
0.0
 40
17.0
100
AcDbArc
 50
270.0
 51
90.0
  0
ARC
  5
3F4
100
AcDbEntity
  8
0
370
    -3
  6
Continuous
100
AcDbCircle
 10
-395.516446
 20
-38.138811
 30
0.0
 40
7.8
100
AcDbArc
 50
180.0
 51
270.0
  0
LINE
  5
3F5
100
AcDbEntity
  8
0
370
    -3
  6
Continuous
100
AcDbLine
 10
-402.516446
 20
-8.225799
 30
0.0
 11
-402.516446
 21
-38.600717
 31
0.0
  0
ARC
  5
3F6
100
AcDbEntity
  8
0
370
    -3
  6
Continuous
100
AcDbCircle
 10
-395.516446
 20
-8.225799
 30
0.0
 40
7.0
100
AcDbArc
 50
90.0
 51
180.0
  0
ARC
  5
3F7
100
AcDbEntity
  8
0
370
    -3
  6
Continuous
100
AcDbCircle
 10
-395.516446
 20
-8.687704
 30
0.0
 40
7.8
100
AcDbArc
 50
90.0
 51
180.0
  0
ARC
  5
3F8
100
AcDbEntity
  8
0
370
    -3
  6
Continuous
100
AcDbCircle
 10
-395.516446
 20
-4.023186
 30
0.0
 40
7.8
100
AcDbArc
 50
90.0
 51
180.0
  0
ELLIPSE
  5
3F9
100
AcDbEntity
  8
0
370
    -3
  6
Continuous
100
AcDbEllipse
 10
-396.016446
 20
1.891405
 30
0.0
 11
3.5
 21
0.0
 31
0.0
210
0.0
220
0.0
230
1.0
 40
0.656603
 41
0.9621393645107007
 42
2.7085416781366591
  0
LINE
  5
3FA
100
AcDbEntity
  8
0
370
    -3
  6
Continuous
100
AcDbLine
 10
-403.316446
 20
-4.023186
 30
0.0
 11
-403.316446
 21
-38.138811
 31
0.0
  0
LINE
  5
3FB
100
AcDbEntity
  8
0
370
    -3
  6
Continuous
100
AcDbLine
 10
-356.516446
 20
-1.225799
 30
0.0
 11
-395.516446
 21
-1.225799
 31
0.0
  0
LINE
  5
3FC
100
AcDbEntity
  8
0
370
    -3
  6
Continuous
100
AcDbLine
 10
-395.516446
 20
3.776814
 30
0.0
 11
-356.516446
 21
3.776814
 31
0.0
  0
LINE
  5
3FD
100
AcDbEntity
  8
0
370
    -3
  6
Continuous
100
AcDbLine
 10
-356.516446
 20
-48.694334
 30
0.0
 11
-387.516446
 21
-48.694334
 31
0.0
  0
LINE
  5
3FE
100
AcDbEntity
  8
0
370
    -3
  6
Continuous
100
AcDbLine
 10
-387.516446
 20
-47.694334
 30
0.0
 11
-356.516446
 21
-47.694334
 31
0.0
  0
LINE
  5
3FF
100
AcDbEntity
  8
0
370
    -3
  6
Continuous
100
AcDbLine
 10
-387.516446
 20
-48.694334
 30
0.0
 11
-387.516446
 21
-47.694334
 31
0.0
  0
ARC
  5
400
100
AcDbEntity
  8
0
370
    -3
  6
Continuous
100
AcDbCircle
 10
-395.516446
 20
-38.600717
 30
0.0
 40
7.0
100
AcDbArc
 50
180.0
 51
270.0
  0
LINE
  5
401
100
AcDbEntity
  8
0
370
    -3
  6
Continuous
100
AcDbLine
 10
-356.516446
 20
-47.694334
 30
0.0
 11
-384.516446
 21
-47.694334
 31
0.0
  0
LINE
  5
402
100
AcDbEntity
  8
0
370
    -3
  6
Continuous
100
AcDbLine
 10
-356.516446
 20
-2.458423
 30
0.0
 11
-382.575479
 21
-2.458423
 31
0.0
  0
LINE
  5
403
100
AcDbEntity
  8
0
370
    -3
  6
Continuous
100
AcDbLine
 10
-395.816446
 20
-39.894334
 30
0.0
 11
-395.816446
 21
-10.261476
 31
0.0
  0
LINE
  5
404
100
AcDbEntity
  8
0
370
    -3
  6
Continuous
100
AcDbLine
 10
-384.058876
 20
-2.759918
 30
0.0
 11
-393.499843
 21
-6.762972
 31
0.0
  0
ARC
  5
405
100
AcDbEntity
  8
0
370
    -3
  6
Continuous
100
AcDbCircle
 10
-382.575479
 20
-6.258423
 30
0.0
 40
3.8
100
AcDbArc
 50
90.0
 51
112.977375
  0
ARC
  5
406
100
AcDbEntity
  8
0
370
    -3
  6
Continuous
100
AcDbCircle
 10
-392.016446
 20
-10.261476
 30
0.0
 40
3.8
100
AcDbArc
 50
112.977375
 51
180.0
  0
LINE
  5
407
100
AcDbEntity
  8
0
370
    -3
  6
Continuous
100
AcDbLine
 10
-356.516446
 20
-46.694334
 30
0.0
 11
-389.016446
 21
-46.694334
 31
0.0
  0
ARC
  5
408
100
AcDbEntity
  8
0
370
    -3
  6
Continuous
100
AcDbCircle
 10
-389.016446
 20
-39.894334
 30
0.0
 40
6.8
100
AcDbArc
 50
180.0
 51
270.0
  0
LINE
  5
409
100
AcDbEntity
  8
0
370
    -3
  6
Continuous
100
AcDbLine
 10
-394.967635
 20
-43.184221
 30
0.0
 11
-396.016446
 21
-43.184221
 31
0.0
  0
ARC
  5
40A
100
AcDbEntity
  8
0
370
    -3
  6
Continuous
100
AcDbCircle
 10
-396.016446
 20
-37.184221
 30
0.0
 40
6.0
100
AcDbArc
 50
180.0
 51
270.0
  0
ARC
  5
40B
100
AcDbEntity
  8
0
370
    -3
  6
Continuous
100
AcDbCircle
 10
-385.781357
 20
-46.994334
 30
0.0
 40
0.3
100
AcDbArc
 50
13.342364
 51
90.0
  0
ARC
  5
40C
100
AcDbEntity
  8
0
370
    -3
  6
Continuous
100
AcDbCircle
 10
-384.516446
 20
-46.694334
 30
0.0
 40
1.0
100
AcDbArc
 50
193.342364
 51
270.0
  0
LINE
  5
40D
100
AcDbEntity
  8
0
370
    -3
  6
CENTER
100
AcDbLine
 10
-396.016446
 20
-4.583071
 30
0.0
 11
-396.016446
 21
-0.138312
 31
0.0
  0
LINE
  5
40E
100
AcDbEntity
  8
0
370
    -3
  6
CENTER
100
AcDbLine
 10
-398.881305
 20
-2.19025
 30
0.0
 11
-393.269915
 21
-2.19025
 31
0.0
  0
ELLIPSE
  5
40F
100
AcDbEntity
  8
0
370
    -3
  6
Continuous
100
AcDbEllipse
 10
-396.016446
 20
-2.19025
 30
0.0
 11
-1.6500000000000341
 21
0.0000000000000089
 31
0.0
210
0.0
220
0.0
230
1.0
 40
0.422618
 41
0.0
 42
6.2831853071795862
  0
ELLIPSE
  5
410
100
AcDbEntity
  8
0
370
    -3
  6
Continuous
100
AcDbEllipse
 10
-396.016446
 20
-2.19025
 30
0.0
 11
-2.0
 21
0.0000000000000111
 31
0.0
210
0.0
220
0.0
230
1.0
 40
0.422618
 41
0.0
 42
6.2831853071795862
  0
LINE
  5
411
100
AcDbEntity
  8
0
370
    -3
  6
Continuous
100
AcDbLine
 10
-392.714716
 20
-45.600717
 30
0.0
 11
-395.516446
 21
-45.600717
 31
0.0
  0
LINE
  5
412
100
AcDbEntity
  8
0
370
    -3
  6
Continuous
100
AcDbLine
 10
-395.516446
 20
-45.938811
 30
0.0
 11
-392.131619
 21
-45.938811
 31
0.0
  0
LINE
  5
413
100
AcDbEntity
  8
0
370
    -3
  6
Continuous
100
AcDbLine
 10
-402.016446
 20
-37.184221
 30
0.0
 11
-402.016446
 21
-5.627723
 31
0.0
  0
LINE
  5
414
100
AcDbEntity
  8
0
370
    -3
  6
Continuous
100
AcDbLine
 10
-356.516446
 20
-0.887704
 30
0.0
 11
-395.516446
 21
-0.887704
 31
0.0
  0
LINE
  5
415
100
AcDbEntity
  8
0
370
    -3
  6
CENTER
100
AcDbLine
 10
-337.871514
 20
-21.694334
 30
0.0
 11
-377.816903
 21
-21.694334
 31
0.0
  0
ARC
  5
416
100
AcDbEntity
  8
0
370
    -3
  6
Continuous
100
AcDbCircle
 10
-317.516446
 20
-38.138811
 30
0.0
 40
7.8
100
AcDbArc
 50
270.0
 51
0.0
  0
LINE
  5
417
100
AcDbEntity
  8
0
370
    -3
  6
Continuous
100
AcDbLine
 10
-310.516446
 20
-8.225799
 30
0.0
 11
-310.516446
 21
-38.600717
 31
0.0
  0
ARC
  5
418
100
AcDbEntity
  8
0
370
    -3
  6
Continuous
100
AcDbCircle
 10
-317.516446
 20
-8.225799
 30
0.0
 40
7.0
100
AcDbArc
 50
0.0
 51
90.0
  0
ARC
  5
419
100
AcDbEntity
  8
0
370
    -3
  6
Continuous
100
AcDbCircle
 10
-317.516446
 20
-8.687704
 30
0.0
 40
7.8
100
AcDbArc
 50
0.0
 51
90.0
  0
ARC
  5
41A
100
AcDbEntity
  8
0
370
    -3
  6
Continuous
100
AcDbCircle
 10
-317.516446
 20
-4.023186
 30
0.0
 40
7.8
100
AcDbArc
 50
0.0
 51
90.0
  0
ELLIPSE
  5
41B
100
AcDbEntity
  8
0
370
    -3
  6
Continuous
100
AcDbEllipse
 10
-317.016446
 20
1.891405
 30
0.0
 11
3.5
 21
0.0
 31
0.0
210
0.0
220
0.0
230
1.0
 40
0.656603
 41
0.4330509754534933
 42
2.1794532890790927
  0
LINE
  5
41C
100
AcDbEntity
  8
0
370
    -3
  6
Continuous
100
AcDbLine
 10
-309.716446
 20
-4.023186
 30
0.0
 11
-309.716446
 21
-38.138811
 31
0.0
  0
LINE
  5
41D
100
AcDbEntity
  8
0
370
    -3
  6
Continuous
100
AcDbLine
 10
-356.516446
 20
-1.225799
 30
0.0
 11
-317.516446
 21
-1.225799
 31
0.0
  0
LINE
  5
41E
100
AcDbEntity
  8
0
370
    -3
  6
Continuous
100
AcDbLine
 10
-317.516446
 20
3.776814
 30
0.0
 11
-356.516446
 21
3.776814
 31
0.0
  0
LINE
  5
41F
100
AcDbEntity
  8
0
370
    -3
  6
Continuous
100
AcDbLine
 10
-356.516446
 20
-48.694334
 30
0.0
 11
-325.516446
 21
-48.694334
 31
0.0
  0
LINE
  5
420
100
AcDbEntity
  8
0
370
    -3
  6
Continuous
100
AcDbLine
 10
-325.516446
 20
-47.694334
 30
0.0
 11
-356.516446
 21
-47.694334
 31
0.0
  0
LINE
  5
421
100
AcDbEntity
  8
0
370
    -3
  6
Continuous
100
AcDbLine
 10
-325.516446
 20
-48.694334
 30
0.0
 11
-325.516446
 21
-47.694334
 31
0.0
  0
ARC
  5
422
100
AcDbEntity
  8
0
370
    -3
  6
Continuous
100
AcDbCircle
 10
-317.516446
 20
-38.600717
 30
0.0
 40
7.0
100
AcDbArc
 50
270.0
 51
0.0
  0
LINE
  5
423
100
AcDbEntity
  8
0
370
    -3
  6
Continuous
100
AcDbLine
 10
-356.516446
 20
-47.694334
 30
0.0
 11
-328.516446
 21
-47.694334
 31
0.0
  0
LINE
  5
424
100
AcDbEntity
  8
0
370
    -3
  6
Continuous
100
AcDbLine
 10
-356.516446
 20
-2.458423
 30
0.0
 11
-330.457413
 21
-2.458423
 31
0.0
  0
LINE
  5
425
100
AcDbEntity
  8
0
370
    -3
  6
Continuous
100
AcDbLine
 10
-317.216446
 20
-39.894334
 30
0.0
 11
-317.216446
 21
-10.261476
 31
0.0
  0
LINE
  5
426
100
AcDbEntity
  8
0
370
    -3
  6
Continuous
100
AcDbLine
 10
-328.974016
 20
-2.759918
 30
0.0
 11
-319.533049
 21
-6.762972
 31
0.0
  0
ARC
  5
427
100
AcDbEntity
  8
0
370
    -3
  6
Continuous
100
AcDbCircle
 10
-330.457413
 20
-6.258423
 30
0.0
 40
3.8
100
AcDbArc
 50
67.022625
 51
90.0
  0
ARC
  5
428
100
AcDbEntity
  8
0
370
    -3
  6
Continuous
100
AcDbCircle
 10
-321.016446
 20
-10.261476
 30
0.0
 40
3.8
100
AcDbArc
 50
0.0
 51
67.022625
  0
LINE
  5
429
100
AcDbEntity
  8
0
370
    -3
  6
Continuous
100
AcDbLine
 10
-356.516446
 20
-46.694334
 30
0.0
 11
-324.016446
 21
-46.694334
 31
0.0
  0
ARC
  5
42A
100
AcDbEntity
  8
0
370
    -3
  6
Continuous
100
AcDbCircle
 10
-324.016446
 20
-39.894334
 30
0.0
 40
6.8
100
AcDbArc
 50
270.0
 51
0.0
  0
LINE
  5
42B
100
AcDbEntity
  8
0
370
    -3
  6
Continuous
100
AcDbLine
 10
-318.065257
 20
-43.184221
 30
0.0
 11
-317.016446
 21
-43.184221
 31
0.0
  0
ARC
  5
42C
100
AcDbEntity
  8
0
370
    -3
  6
Continuous
100
AcDbCircle
 10
-317.016446
 20
-37.184221
 30
0.0
 40
6.0
100
AcDbArc
 50
270.0
 51
0.0
  0
ARC
  5
42D
100
AcDbEntity
  8
0
370
    -3
  6
Continuous
100
AcDbCircle
 10
-327.251535
 20
-46.994334
 30
0.0
 40
0.3
100
AcDbArc
 50
90.0
 51
166.657636
  0
ARC
  5
42E
100
AcDbEntity
  8
0
370
    -3
  6
Continuous
100
AcDbCircle
 10
-328.516446
 20
-46.694334
 30
0.0
 40
1.0
100
AcDbArc
 50
270.0
 51
346.657636
  0
LINE
  5
42F
100
AcDbEntity
  8
0
370
    -3
  6
CENTER
100
AcDbLine
 10
-317.016446
 20
-4.583071
 30
0.0
 11
-317.016446
 21
-0.138312
 31
0.0
  0
LINE
  5
430
100
AcDbEntity
  8
0
370
    -3
  6
CENTER
100
AcDbLine
 10
-314.151587
 20
-2.19025
 30
0.0
 11
-319.762977
 21
-2.19025
 31
0.0
  0
ELLIPSE
  5
431
100
AcDbEntity
  8
0
370
    -3
  6
Continuous
100
AcDbEllipse
 10
-317.016446
 20
-2.19025
 30
0.0
 11
1.6500000000000341
 21
0.0000000000000089
 31
0.0
210
0.0
220
0.0
230
1.0
 40
0.422618
 41
0.0
 42
6.2831853071795862
  0
ELLIPSE
  5
432
100
AcDbEntity
  8
0
370
    -3
  6
Continuous
100
AcDbEllipse
 10
-317.016446
 20
-2.19025
 30
0.0
 11
2.0
 21
0.0000000000000107
 31
0.0
210
0.0
220
0.0
230
1.0
 40
0.422618
 41
0.0
 42
6.2831853071795862
  0
LINE
  5
433
100
AcDbEntity
  8
0
370
    -3
  6
Continuous
100
AcDbLine
 10
-320.318176
 20
-45.600717
 30
0.0
 11
-317.516446
 21
-45.600717
 31
0.0
  0
LINE
  5
434
100
AcDbEntity
  8
0
370
    -3
  6
Continuous
100
AcDbLine
 10
-317.516446
 20
-45.938811
 30
0.0
 11
-320.901273
 21
-45.938811
 31
0.0
  0
LINE
  5
435
100
AcDbEntity
  8
0
370
    -3
  6
Continuous
100
AcDbLine
 10
-311.016446
 20
-37.184221
 30
0.0
 11
-311.016446
 21
-5.627723
 31
0.0
  0
LINE
  5
436
100
AcDbEntity
  8
0
370
    -3
  6
Continuous
100
AcDbLine
 10
-356.516446
 20
-0.887704
 30
0.0
 11
-317.516446
 21
-0.887704
 31
0.0
  0
ARC
  5
437
100
AcDbEntity
  8
0
370
    -3
  6
Continuous
100
AcDbCircle
 10
-356.516446
 20
-21.694334
 30
0.0
 40
17.0
100
AcDbArc
 50
90.0
 51
270.0
  0
ARC
  5
438
100
AcDbEntity
  8
0
370
    -3
  6
Continuous
100
AcDbCircle
 10
-356.516446
 20
-21.694334
 30
0.0
 40
12.0585
100
AcDbArc
 50
90.0
 51
270.0
  0
ARC
  5
439
100
AcDbEntity
  8
0
370
    -3
  6
Continuous
100
AcDbCircle
 10
-356.516446
 20
-21.694334
 30
0.0
 40
13.2205
100
AcDbArc
 50
90.0
 51
270.0
  0
LINE
  5
43A
100
AcDbEntity
  8
0
370
    -3
  6
Continuous
100
AcDbLine
 10
-383.347817
 20
-39.894334
 30
0.0
 11
-383.347817
 21
-2.537738
 31
0.0
  0
ARC
  5
43B
100
AcDbEntity
  8
0
370
    -3
  6
Continuous
100
AcDbCircle
 10
-376.547817
 20
-39.894334
 30
0.0
 40
6.8
100
AcDbArc
 50
180.0
 51
270.0
  0
ARC
  5
43C
100
AcDbEntity
  8
0
370
    -3
  6
Continuous
100
AcDbCircle
 10
-336.485075
 20
-39.894334
 30
0.0
 40
6.8
100
AcDbArc
 50
270.0
 51
0.0
  0
LINE
  5
43D
100
AcDbEntity
  8
0
370
    -3
  6
Continuous
100
AcDbLine
 10
-329.685075
 20
-39.894334
 30
0.0
 11
-329.685075
 21
-2.537738
 31
0.0
  0
LINE
  5
43E
100
AcDbEntity
  8
0
370
    -3
  6
Continuous
100
AcDbLine
 10
-387.516446
 20
-48.694334
 30
0.0
 11
-387.516446
 21
-50.294334
 31
0.0
  0
ARC
  5
43F
100
AcDbEntity
  8
0
370
    -3
  6
Continuous
100
AcDbCircle
 10
-383.116446
 20
-52.294334
 30
0.0
 40
2.0
100
AcDbArc
 50
0.0
 51
90.0
  0
LINE
  5
440
100
AcDbEntity
  8
0
370
    -3
  6
Continuous
100
AcDbLine
 10
-387.516446
 20
-50.294334
 30
0.0
 11
-383.116446
 21
-50.294334
 31
0.0
  0
LINE
  5
441
100
AcDbEntity
  8
0
370
    -3
  6
Continuous
100
AcDbLine
 10
-381.116446
 20
-52.294334
 30
0.0
 11
-381.116446
 21
-58.402571
 31
0.0
  0
LINE
  5
442
100
AcDbEntity
  8
0
370
    -3
  6
Continuous
100
AcDbLine
 10
-325.516446
 20
-48.694334
 30
0.0
 11
-325.516446
 21
-50.294334
 31
0.0
  0
LINE
  5
443
100
AcDbEntity
  8
0
370
    -3
  6
Continuous
100
AcDbLine
 10
-329.916446
 20
-50.294334
 30
0.0
 11
-325.516446
 21
-50.294334
 31
0.0
  0
ARC
  5
444
100
AcDbEntity
  8
0
370
    -3
  6
Continuous
100
AcDbCircle
 10
-329.916446
 20
-52.294334
 30
0.0
 40
2.0
100
AcDbArc
 50
90.0
 51
180.0
  0
LINE
  5
445
100
AcDbEntity
  8
0
370
    -3
  6
Continuous
100
AcDbLine
 10
-331.916446
 20
-52.294334
 30
0.0
 11
-331.916446
 21
-58.402571
 31
0.0
  0
ARC
  5
446
100
AcDbEntity
  8
0
370
    -3
  6
Continuous
100
AcDbCircle
 10
663.73267
 20
-4.877153
 30
0.0
 40
6.8
100
AcDbArc
 50
90.0
 51
180.0
  0
LINE
  5
447
100
AcDbEntity
  8
0
370
    -3
  6
Continuous
100
AcDbLine
 10
727.23267
 20
1.922847
 30
0.0
 11
663.73267
 21
1.922847
 31
0.0
  0
ARC
  5
448
100
AcDbEntity
  8
0
370
    -3
  6
Continuous
100
AcDbCircle
 10
727.23267
 20
-4.877153
 30
0.0
 40
6.8
100
AcDbArc
 50
0.0
 51
90.0
  0
ARC
  5
449
100
AcDbEntity
  8
0
370
    -3
  6
Continuous
100
AcDbCircle
 10
734.48267
 20
-32.882572
 30
0.0
 40
7.8
100
AcDbArc
 50
305.715435
 51
0.0
  0
ARC
  5
44A
100
AcDbEntity
  8
0
370
    -3
  6
Continuous
100
AcDbCircle
 10
656.48267
 20
-32.882572
 30
0.0
 40
7.8
100
AcDbArc
 50
180.0
 51
234.284544
  0
ARC
  5
44B
100
AcDbEntity
  8
0
370
    -3
  6
Continuous
100
AcDbCircle
 10
656.48267
 20
-38.139157
 30
0.0
 40
7.8
100
AcDbArc
 50
180.0
 51
188.750606
  0
ARC
  5
44C
100
AcDbEntity
  8
0
370
    -3
  6
Continuous
100
AcDbCircle
 10
734.48267
 20
-38.139157
 30
0.0
 40
7.8
100
AcDbArc
 50
351.249381
 51
0.0
  0
LINE
  5
44D
100
AcDbEntity
  8
0
370
    -3
  6
Continuous
100
AcDbLine
 10
656.93267
 20
-29.38779
 30
0.0
 11
656.93267
 21
-4.877153
 31
0.0
  0
ARC
  5
44E
100
AcDbEntity
  8
0
370
    -3
  6
Continuous
100
AcDbCircle
 10
660.73267
 20
-29.38779
 30
0.0
 40
3.8
100
AcDbArc
 50
180.0
 51
246.772328
  0
LINE
  5
44F
100
AcDbEntity
  8
0
370
    -3
  6
Continuous
100
AcDbLine
 10
659.234004
 20
-32.879781
 30
0.0
 11
668.428674
 21
-36.825879
 31
0.0
  0
ARC
  5
450
100
AcDbEntity
  8
0
370
    -3
  6
Continuous
100
AcDbCircle
 10
669.927339
 20
-33.333888
 30
0.0
 40
3.8
100
AcDbArc
 50
246.772328
 51
270.0
  0
LINE
  5
451
100
AcDbEntity
  8
0
370
    -3
  6
Continuous
100
AcDbLine
 10
731.731336
 20
-32.879781
 30
0.0
 11
722.536666
 21
-36.825879
 31
0.0
  0
LINE
  5
452
100
AcDbEntity
  8
0
370
    -3
  6
Continuous
100
AcDbLine
 10
721.038
 20
-37.133888
 30
0.0
 11
715.982501
 21
-37.133888
 31
0.0
  0
ARC
  5
453
100
AcDbEntity
  8
0
370
    -3
  6
Continuous
100
AcDbCircle
 10
721.038
 20
-33.333888
 30
0.0
 40
3.8
100
AcDbArc
 50
270.0
 51
293.227672
  0
LINE
  5
454
100
AcDbEntity
  8
0
370
    -3
  6
Continuous
100
AcDbLine
 10
734.03267
 20
-29.38779
 30
0.0
 11
734.03267
 21
-4.877153
 31
0.0
  0
ARC
  5
455
100
AcDbEntity
  8
0
370
    -3
  6
Continuous
100
AcDbCircle
 10
730.23267
 20
-29.38779
 30
0.0
 40
3.8
100
AcDbArc
 50
293.227672
 51
0.0
  0
LINE
  5
456
100
AcDbEntity
  8
0
370
    -3
  6
Continuous
100
AcDbLine
 10
655.98267
 20
-35.029749
 30
0.0
 11
653.98267
 21
-36.078937
 31
0.0
  0
LINE
  5
457
100
AcDbEntity
  8
0
370
    -3
  6
Continuous
100
AcDbLine
 10
655.98267
 20
-35.029749
 30
0.0
 11
657.98267
 21
-36.078937
 31
0.0
  0
LINE
  5
458
100
AcDbEntity
  8
0
370
    -3
  6
Continuous
100
AcDbLine
 10
657.572686
 20
-34.519922
 30
0.0
 11
655.98267
 21
-35.029749
 31
0.0
  0
LINE
  5
459
100
AcDbEntity
  8
0
370
    -3
  6
Continuous
100
AcDbLine
 10
654.392653
 20
-34.519922
 30
0.0
 11
655.98267
 21
-35.029749
 31
0.0
  0
LINE
  5
45A
100
AcDbEntity
  8
0
370
    -3
  6
Continuous
100
AcDbLine
 10
657.572686
 20
3.93834
 30
0.0
 11
655.98267
 21
3.428513
 31
0.0
  0
LINE
  5
45B
100
AcDbEntity
  8
0
370
    -3
  6
Continuous
100
AcDbLine
 10
655.98267
 20
3.428513
 30
0.0
 11
657.98267
 21
2.379325
 31
0.0
  0
LINE
  5
45C
100
AcDbEntity
  8
0
370
    -3
  6
Continuous
100
AcDbLine
 10
655.98267
 20
3.428513
 30
0.0
 11
653.98267
 21
2.379325
 31
0.0
  0
LINE
  5
45D
100
AcDbEntity
  8
0
370
    -3
  6
Continuous
100
AcDbLine
 10
654.392653
 20
3.93834
 30
0.0
 11
655.98267
 21
3.428513
 31
0.0
  0
ELLIPSE
  5
45E
100
AcDbEntity
  8
0
370
    -3
  6
Continuous
100
AcDbEllipse
 10
655.98267
 20
1.89106
 30
0.0
 11
3.5
 21
0.0
 31
0.0
210
0.0
220
0.0
230
1.0
 40
0.656603
 41
0.0
 42
6.2831853071795862
  0
ARC
  5
45F
100
AcDbEntity
  8
0
370
    -3
  6
Continuous
100
AcDbCircle
 10
656.48267
 20
-4.023532
 30
0.0
 40
7.8
100
AcDbArc
 50
118.12516
 51
180.0
  0
ELLIPSE
  5
460
100
AcDbEntity
  8
0
370
    -3
  6
Continuous
100
AcDbEllipse
 10
734.98267
 20
-36.567202
 30
0.0
 11
3.5
 21
0.0
 31
0.0
210
0.0
220
0.0
230
1.0
 40
0.656603
 41
0.0
 42
6.2831853071795862
  0
LINE
  5
461
100
AcDbEntity
  8
0
370
    -3
  6
Continuous
100
AcDbLine
 10
734.98267
 20
-35.029749
 30
0.0
 11
736.98267
 21
-36.078937
 31
0.0
  0
LINE
  5
462
100
AcDbEntity
  8
0
370
    -3
  6
Continuous
100
AcDbLine
 10
734.98267
 20
-35.029749
 30
0.0
 11
732.98267
 21
-36.078937
 31
0.0
  0
LINE
  5
463
100
AcDbEntity
  8
0
370
    -3
  6
Continuous
100
AcDbLine
 10
733.392653
 20
-34.519922
 30
0.0
 11
734.98267
 21
-35.029749
 31
0.0
  0
LINE
  5
464
100
AcDbEntity
  8
0
370
    -3
  6
Continuous
100
AcDbLine
 10
736.572686
 20
-34.519922
 30
0.0
 11
734.98267
 21
-35.029749
 31
0.0
  0
LINE
  5
465
100
AcDbEntity
  8
0
370
    -3
  6
Continuous
100
AcDbLine
 10
733.392653
 20
3.93834
 30
0.0
 11
734.98267
 21
3.428513
 31
0.0
  0
LINE
  5
466
100
AcDbEntity
  8
0
370
    -3
  6
Continuous
100
AcDbLine
 10
734.98267
 20
3.428513
 30
0.0
 11
732.98267
 21
2.379325
 31
0.0
  0
LINE
  5
467
100
AcDbEntity
  8
0
370
    -3
  6
Continuous
100
AcDbLine
 10
734.98267
 20
3.428513
 30
0.0
 11
736.98267
 21
2.379325
 31
0.0
  0
LINE
  5
468
100
AcDbEntity
  8
0
370
    -3
  6
Continuous
100
AcDbLine
 10
736.572686
 20
3.93834
 30
0.0
 11
734.98267
 21
3.428513
 31
0.0
  0
ELLIPSE
  5
469
100
AcDbEntity
  8
0
370
    -3
  6
Continuous
100
AcDbEllipse
 10
734.98267
 20
1.89106
 30
0.0
 11
3.5
 21
0.0
 31
0.0
210
0.0
220
0.0
230
1.0
 40
0.656603
 41
0.0
 42
6.2831853071795862
  0
ARC
  5
46A
100
AcDbEntity
  8
0
370
    -3
  6
Continuous
100
AcDbCircle
 10
734.48267
 20
-4.023532
 30
0.0
 40
7.8
100
AcDbArc
 50
0.0
 51
61.87484
  0
LINE
  5
46B
100
AcDbEntity
  8
0
370
    -3
  6
Continuous
100
AcDbLine
 10
732.981488
 20
3.776468
 30
0.0
 11
657.983851
 21
3.776468
 31
0.0
  0
LINE
  5
46C
100
AcDbEntity
  8
0
370
    -3
  6
Continuous
100
AcDbLine
 10
648.68267
 20
-4.023532
 30
0.0
 11
648.68267
 21
-38.139157
 31
0.0
  0
LINE
  5
46D
100
AcDbEntity
  8
0
370
    -3
  6
Continuous
100
AcDbLine
 10
742.28267
 20
-4.023532
 30
0.0
 11
742.28267
 21
-38.139157
 31
0.0
  0
LINE
  5
46E
100
AcDbEntity
  8
0
370
    -3
  6
Continuous
100
AcDbLine
 10
674.982501
 20
-37.133888
 30
0.0
 11
669.927339
 21
-37.133888
 31
0.0
  0
ELLIPSE
  5
46F
100
AcDbEntity
  8
0
370
    -3
  6
Continuous
100
AcDbEllipse
 10
655.982645
 20
-36.567202
 30
0.0
 11
3.5
 21
0.0
 31
0.0
210
0.0
220
0.0
230
1.0
 40
0.656603
 41
0.0
 42
6.2831853071795862
  0
POINT
  5
470
100
AcDbEntity
  8
0
370
    -3
  6
CENTER
100
AcDbPoint
 10
-74.682349
 20
-7.922731
 30
0.0
  0
POINT
  5
471
100
AcDbEntity
  8
0
370
    -3
  6
CENTER
100
AcDbPoint
 10
-74.682349
 20
-34.363731
 30
0.0
  0
LINE
  5
472
100
AcDbEntity
  8
0
370
    -3
  6
Continuous
100
AcDbLine
 10
-0.51637
 20
-48.69468
 30
0.0
 11
30.48363
 21
-48.69468
 31
0.0
  0
ARC
  5
473
100
AcDbEntity
  8
0
370
    -3
  6
Continuous
100
AcDbCircle
 10
26.68363
 20
-51.89468
 30
0.0
 40
1.6
100
AcDbArc
 50
90.0
 51
180.0
  0
LINE
  5
474
100
AcDbEntity
  8
0
370
    -3
  6
Continuous
100
AcDbLine
 10
30.48363
 20
-48.69468
 30
0.0
 11
30.48363
 21
-50.29468
 31
0.0
  0
LINE
  5
475
100
AcDbEntity
  8
0
370
    -3
  6
Continuous
100
AcDbLine
 10
30.48363
 20
-50.29468
 30
0.0
 11
-0.51637
 21
-50.29468
 31
0.0
  0
LINE
  5
476
100
AcDbEntity
  8
0
370
    -3
  6
Continuous
100
AcDbLine
 10
25.08363
 20
-60.49468
 30
0.0
 11
25.08363
 21
-51.89468
 31
0.0
  0
LINE
  5
477
100
AcDbEntity
  8
0
370
    -3
  6
Continuous
100
AcDbLine
 10
-0.51637
 20
-48.69468
 30
0.0
 11
-31.51637
 21
-48.69468
 31
0.0
  0
LINE
  5
478
100
AcDbEntity
  8
0
370
    -3
  6
Continuous
100
AcDbLine
 10
-31.51637
 20
-48.69468
 30
0.0
 11
30.48363
 21
-48.69468
 31
0.0
  0
ARC
  5
479
100
AcDbEntity
  8
0
370
    -3
  6
Continuous
100
AcDbCircle
 10
-27.71637
 20
-51.89468
 30
0.0
 40
1.6
100
AcDbArc
 50
0.0
 51
90.0
  0
LINE
  5
47A
100
AcDbEntity
  8
0
370
    -3
  6
Continuous
100
AcDbLine
 10
-31.51637
 20
-48.69468
 30
0.0
 11
-31.51637
 21
-50.29468
 31
0.0
  0
LINE
  5
47B
100
AcDbEntity
  8
0
370
    -3
  6
Continuous
100
AcDbLine
 10
-31.51637
 20
-50.29468
 30
0.0
 11
-0.51637
 21
-50.29468
 31
0.0
  0
LINE
  5
47C
100
AcDbEntity
  8
0
370
    -3
  6
Continuous
100
AcDbLine
 10
-26.11637
 20
-58.33517
 30
0.0
 11
-26.11637
 21
-51.89468
 31
0.0
  0
LINE
  5
47D
100
AcDbEntity
  8
0
370
    -3
  6
Continuous
100
AcDbLine
 10
-72.51637
 20
-38.69468
 30
0.0
 11
-45.51637
 21
-38.69468
 31
0.0
  0
LINE
  5
47E
100
AcDbEntity
  8
0
370
    -3
  6
Continuous
100
AcDbLine
 10
-72.51637
 20
-4.69468
 30
0.0
 11
-45.927085
 21
-4.69468
 31
0.0
  0
ARC
  5
47F
100
AcDbEntity
  8
0
370
    -3
  6
Continuous
100
AcDbCircle
 10
-72.51637
 20
-6.69468
 30
0.0
 40
2.0
100
AcDbArc
 50
90.0
 51
180.0
  0
LINE
  5
480
100
AcDbEntity
  8
0
370
    -3
  6
Continuous
100
AcDbLine
 10
-74.51637
 20
-21.69468
 30
0.0
 11
-74.51637
 21
-6.69468
 31
0.0
  0
ARC
  5
481
100
AcDbEntity
  8
0
370
    -3
  6
Continuous
100
AcDbCircle
 10
-72.51637
 20
-36.69468
 30
0.0
 40
2.0
100
AcDbArc
 50
180.0
 51
270.0
  0
LINE
  5
482
100
AcDbEntity
  8
0
370
    -3
  6
Continuous
100
AcDbLine
 10
-74.51637
 20
-21.69468
 30
0.0
 11
-74.51637
 21
-36.69468
 31
0.0
  0
LINE
  5
483
100
AcDbEntity
  8
0
370
    -3
  6
Continuous
100
AcDbLine
 10
-47.51637
 20
-21.69468
 30
0.0
 11
-47.51637
 21
-38.69468
 31
0.0
  0
LINE
  5
484
100
AcDbEntity
  8
0
370
    -3
  6
Continuous
100
AcDbLine
 10
-47.51637
 20
-21.69468
 30
0.0
 11
-47.51637
 21
-4.69468
 31
0.0
  0
ARC
  5
485
100
AcDbEntity
  8
0
370
    -3
  6
Continuous
100
AcDbCircle
 10
-30.840676
 20
-43.69468
 30
0.0
 40
3.0
100
AcDbArc
 50
180.0
 51
270.0
  0
LINE
  5
486
100
AcDbEntity
  8
0
370
    -3
  6
Continuous
100
AcDbLine
 10
-33.840676
 20
-10.330665
 30
0.0
 11
-33.840676
 21
-43.69468
 31
0.0
  0
LINE
  5
487
100
AcDbEntity
  8
0
370
    -3
  6
Continuous
100
AcDbLine
 10
35.271518
 20
-42.558211
 30
0.0
 11
34.365754
 21
-44.500629
 31
0.0
  0
LINE
  5
488
100
AcDbEntity
  8
0
370
    -3
  6
Continuous
100
AcDbLine
 10
-45.51637
 20
-4.8862
 30
0.0
 11
-45.51637
 21
-39.89468
 31
0.0
  0
LINE
  5
489
100
AcDbEntity
  8
0
370
    -3
  6
Continuous
100
AcDbLine
 10
-45.927085
 20
-4.69468
 30
0.0
 11
-54.090429
 21
-0.88805
 31
0.0
  0
LINE
  5
48A
100
AcDbEntity
  8
0
370
    -3
  6
Continuous
100
AcDbLine
 10
42.521981
 20
-45.939157
 30
0.0
 11
-45.927085
 21
-4.69468
 31
0.0
  0
LINE
  5
48B
100
AcDbEntity
  8
0
370
    -3
  6
Continuous
100
AcDbLine
 10
23.670779
 20
-37.148697
 30
0.0
 11
20.242516
 21
-44.500629
 31
0.0
  0
ARC
  5
48C
100
AcDbEntity
  8
0
370
    -3
  6
Continuous
100
AcDbCircle
 10
16.798547
 20
-42.89468
 30
0.0
 40
3.8
100
AcDbArc
 50
270.0
 51
335.0
  0
ARC
  5
48D
100
AcDbEntity
  8
0
370
    -3
  6
Continuous
100
AcDbCircle
 10
-257.342009
 20
-97.380077
 30
0.0
 40
300.8
100
AcDbArc
 50
12.10025
 51
17.658425
  0
ARC
  5
48E
100
AcDbEntity
  8
0
370
    -3
  6
Continuous
100
AcDbCircle
 10
-6.098768
 20
-598.877153
 30
0.0
 40
600.8
100
AcDbArc
 50
87.562495
 51
93.317592
  0
ARC
  5
48F
100
AcDbEntity
  8
0
370
    -3
  6
Continuous
100
AcDbCircle
 10
29.883447
 20
-17.972665
 30
0.0
 40
2.8
100
AcDbArc
 50
335.0
 51
15.454189
  0
ARC
  5
490
100
AcDbEntity
  8
0
370
    -3
  6
Continuous
100
AcDbCircle
 10
-34.534973
 20
-0.297183
 30
0.0
 40
3.0
100
AcDbArc
 50
245.0
 51
335.0
  0
LINE
  5
491
100
AcDbEntity
  8
0
370
    -3
  6
Continuous
100
AcDbLine
 10
-31.81605
 20
-1.565038
 30
0.0
 11
-31.141019
 21
-0.117431
 31
0.0
  0
ARC
  5
492
100
AcDbEntity
  8
0
370
    -3
  6
Continuous
100
AcDbCircle
 10
-28.603358
 20
-1.300762
 30
0.0
 40
2.8
100
AcDbArc
 50
92.156727
 51
155.0
  0
LINE
  5
493
100
AcDbEntity
  8
0
370
    -3
  6
Continuous
100
AcDbLine
 10
32.421109
 20
-19.155996
 30
0.0
 11
27.685682
 21
-29.311152
 31
0.0
  0
ARC
  5
494
100
AcDbEntity
  8
0
370
    -3
  6
Continuous
100
AcDbCircle
 10
30.404606
 20
-30.579006
 30
0.0
 40
3.0
100
AcDbArc
 50
155.0
 51
245.0
  0
LINE
  5
495
100
AcDbEntity
  8
0
370
    -3
  6
Continuous
100
AcDbLine
 10
43.341813
 20
-39.921859
 30
0.0
 11
-50.00789
 21
3.607822
 31
0.0
  0
LINE
  5
496
100
AcDbEntity
  8
0
370
    -3
  6
CENTER
100
AcDbLine
 10
-76.994993
 20
-21.69468
 30
0.0
 11
-36.688507
 21
-21.69468
 31
0.0
  0
ARC
  5
497
100
AcDbEntity
  8
0
370
    -3
  6
Continuous
100
AcDbCircle
 10
36.323842
 20
-35.56909
 30
0.0
 40
1.299999
100
AcDbArc
 50
81.601531
 51
155.000001
  0
LINE
  5
498
100
AcDbEntity
  8
0
370
    -3
  6
Continuous
100
AcDbLine
 10
34.731889
 20
-35.906985
 30
0.0
 11
35.145643
 21
-35.019687
 31
0.0
  0
ARC
  5
499
100
AcDbEntity
  8
0
370
    -3
  6
Continuous
100
AcDbCircle
 10
35.199209
 20
-43.186519
 30
0.0
 40
9.0
100
AcDbArc
 50
48.398452
 51
81.601531
  0
ARC
  5
49A
100
AcDbEntity
  8
0
370
    -3
  6
Continuous
100
AcDbCircle
 10
40.311598
 20
-37.428611
 30
0.0
 40
1.299999
100
AcDbArc
 50
334.999982
 51
48.398452
  0
LINE
  5
49B
100
AcDbEntity
  8
0
370
    -3
  6
CENTER
100
AcDbLine
 10
36.646292
 20
-40.08324
 30
0.0
 11
39.516212
 21
-33.928675
 31
0.0
  0
LINE
  5
49C
100
AcDbEntity
  8
0
370
    -3
  6
Continuous
100
AcDbLine
 10
41.076043
 20
-38.865313
 30
0.0
 11
41.489797
 21
-37.978015
 31
0.0
  0
ARC
  5
49D
100
AcDbEntity
  8
0
370
    -3
  6
Continuous
100
AcDbCircle
 10
-46.150167
 20
2.889171
 30
0.0
 40
1.299999
100
AcDbArc
 50
81.601531
 51
155.000001
  0
ARC
  5
49E
100
AcDbEntity
  8
0
370
    -3
  6
Continuous
100
AcDbCircle
 10
-42.162411
 20
1.02965
 30
0.0
 40
1.299999
100
AcDbArc
 50
334.999982
 51
48.398452
  0
LINE
  5
49F
100
AcDbEntity
  8
0
370
    -3
  6
Continuous
100
AcDbLine
 10
-47.74212
 20
2.551277
 30
0.0
 11
-47.328366
 21
3.438575
 31
0.0
  0
LINE
  5
4A0
100
AcDbEntity
  8
0
370
    -3
  6
Continuous
100
AcDbLine
 10
-41.397966
 20
-0.407051
 30
0.0
 11
-40.984212
 21
0.480247
 31
0.0
  0
POINT
  5
4A1
100
AcDbEntity
  8
0
370
    -3
  6
Continuous
100
AcDbPoint
 10
-44.570043
 20
1.072113
 30
0.0
  0
ARC
  5
4A2
100
AcDbEntity
  8
0
370
    -3
  6
Continuous
100
AcDbCircle
 10
-47.274799
 20
-4.728257
 30
0.0
 40
9.0
100
AcDbArc
 50
48.398452
 51
81.601531
  0
ARC
  5
4A3
100
AcDbEntity
  8
0
370
    -3
  6
Continuous
100
AcDbCircle
 10
18.993725
 20
-9.410982
 30
0.0
 40
10.8
100
AcDbArc
 50
17.658425
 51
87.562495
  0
LINE
  5
4A4
100
AcDbEntity
  8
0
370
    -3
  6
CENTER
100
AcDbLine
 10
-45.827717
 20
-1.624978
 30
0.0
 11
-42.957796
 21
4.529587
 31
0.0
  0
POINT
  5
4A5
100
AcDbEntity
  8
0
370
    -3
  6
Continuous
100
AcDbPoint
 10
37.880255
 20
-37.375093
 30
0.0
  0
LINE
  5
4A6
100
AcDbEntity
  8
0
370
    -3
  6
CENTER
100
AcDbLine
 10
36.646292
 20
-40.08324
 30
0.0
 11
39.516212
 21
-33.928675
 31
0.0
  0
ARC
  5
4A7
100
AcDbEntity
  8
0
370
    -3
  6
Continuous
100
AcDbCircle
 10
42.5811
 20
-41.553213
 30
0.0
 40
1.8
100
AcDbArc
 50
335.0
 51
65.0
  0
LINE
  5
4A8
100
AcDbEntity
  8
0
370
    -3
  6
Continuous
100
AcDbLine
 10
44.212454
 20
-42.313926
 30
0.0
 11
42.521981
 21
-45.939157
 31
0.0
  0
ARC
  5
4A9
100
AcDbEntity
  8
0
370
    -3
  6
Continuous
100
AcDbCircle
 10
-50.768602
 20
1.976468
 30
0.0
 40
1.8
100
AcDbArc
 50
65.0
 51
155.0
  0
LINE
  5
4AA
100
AcDbEntity
  8
0
370
    -3
  6
Continuous
100
AcDbLine
 10
-52.399956
 20
2.737181
 30
0.0
 11
-54.090429
 21
-0.88805
 31
0.0
  0
ARC
  5
4AB
100
AcDbEntity
  8
0
370
    -3
  6
Continuous
100
AcDbCircle
 10
30.921784
 20
-42.89468
 30
0.0
 40
3.8
100
AcDbArc
 50
270.0
 51
335.0
  0
ARC
  5
4AC
100
AcDbEntity
  8
0
370
    -3
  6
Continuous
100
AcDbCircle
 10
-38.71637
 20
-39.89468
 30
0.0
 40
6.8
100
AcDbArc
 50
180.0
 51
270.0
  0
LINE
  5
4AD
100
AcDbEntity
  8
0
370
    -3
  6
Continuous
100
AcDbLine
 10
-38.71637
 20
-46.69468
 30
0.0
 11
30.921784
 21
-46.69468
 31
0.0
  0
ARC
  5
4AE
100
AcDbEntity
  8
0
370
    -3
  6
Continuous
100
AcDbCircle
 10
27.48363
 20
-46.69468
 30
0.0
 40
1.0
100
AcDbArc
 50
270.0
 51
346.657636
  0
LINE
  5
4AF
100
AcDbEntity
  8
0
370
    -3
  6
Continuous
100
AcDbLine
 10
-31.51637
 20
-47.69468
 30
0.0
 11
30.48363
 21
-47.69468
 31
0.0
  0
LINE
  5
4B0
100
AcDbEntity
  8
0
370
    -3
  6
Continuous
100
AcDbLine
 10
30.48363
 20
-48.69468
 30
0.0
 11
30.48363
 21
-47.69468
 31
0.0
  0
ARC
  5
4B1
100
AcDbEntity
  8
0
370
    -3
  6
Continuous
100
AcDbCircle
 10
28.748541
 20
-46.99468
 30
0.0
 40
0.3
100
AcDbArc
 50
90.0
 51
166.657636
  0
ARC
  5
4B2
100
AcDbEntity
  8
0
370
    -3
  6
Continuous
100
AcDbCircle
 10
-28.51637
 20
-46.69468
 30
0.0
 40
1.0
100
AcDbArc
 50
193.342364
 51
270.0
  0
LINE
  5
4B3
100
AcDbEntity
  8
0
370
    -3
  6
Continuous
100
AcDbLine
 10
-31.51637
 20
-48.69468
 30
0.0
 11
-31.51637
 21
-47.69468
 31
0.0
  0
ARC
  5
4B4
100
AcDbEntity
  8
0
370
    -3
  6
Continuous
100
AcDbCircle
 10
-29.781281
 20
-46.99468
 30
0.0
 40
0.3
100
AcDbArc
 50
13.342364
 51
90.0
  0
LINE
  5
4B5
100
AcDbEntity
  8
0
370
    -3
  6
CENTER
100
AcDbLine
 10
-0.51637
 20
-59.472097
 30
0.0
 11
-0.51637
 21
-36.562121
 31
0.0
  0
ARC
  5
4B6
100
AcDbEntity
  8
0
370
    -3
  6
Continuous
100
AcDbCircle
 10
21.88363
 20
-60.49468
 30
0.0
 40
3.2
100
AcDbArc
 50
270.0
 51
0.0
  0
LINE
  5
4B7
100
AcDbEntity
  8
0
370
    -3
  6
Continuous
100
AcDbLine
 10
-10.51637
 20
-63.69468
 30
0.0
 11
23.48363
 21
-63.69468
 31
0.0
  0
LINE
  5
4B8
100
AcDbEntity
  8
0
370
    -3
  6
Continuous
100
AcDbLine
 10
23.48363
 20
-64.69468
 30
0.0
 11
23.48363
 21
-63.69468
 31
0.0
  0
LINE
  5
4B9
100
AcDbEntity
  8
0
370
    -3
  6
CENTER
100
AcDbLine
 10
-0.51637
 20
246.387851
 30
0.0
 11
-0.51637
 21
132.980254
 31
0.0
  0
LINE
  5
4BA
100
AcDbEntity
  8
0
370
    -3
  6
Continuous
100
AcDbLine
 10
44.3811
 20
190.022263
 30
0.0
 11
44.3811
 21
229.022263
 31
0.0
  0
ARC
  5
4BB
100
AcDbEntity
  8
0
370
    -3
  6
Continuous
100
AcDbCircle
 10
24.424163
 20
224.772263
 30
0.0
 40
3.8
100
AcDbArc
 50
41.85078
 51
90.0
  0
ARC
  5
4BC
100
AcDbEntity
  8
0
370
    -3
  6
Continuous
100
AcDbCircle
 10
16.909583
 20
218.572263
 30
0.0
 40
10.0
100
AcDbArc
 50
0.0
 51
90.0
  0
LINE
  5
4BD
100
AcDbEntity
  8
0
370
    -3
  6
Continuous
100
AcDbLine
 10
26.909583
 20
190.022263
 30
0.0
 11
26.909583
 21
218.572263
 31
0.0
  0
ARC
  5
4BE
100
AcDbEntity
  8
0
370
    -3
  6
Continuous
100
AcDbCircle
 10
36.5811
 20
229.022263
 30
0.0
 40
7.8
100
AcDbArc
 50
0.0
 51
90.0
  0
LINE
  5
4BF
100
AcDbEntity
  8
0
370
    -3
  6
Continuous
100
AcDbLine
 10
27.254726
 20
227.307596
 30
0.0
 11
36.393553
 21
217.104587
 31
0.0
  0
ARC
  5
4C0
100
AcDbEntity
  8
0
370
    -3
  6
Continuous
100
AcDbCircle
 10
33.56299
 20
214.569254
 30
0.0
 40
3.8
100
AcDbArc
 50
0.0
 51
41.85078
  0
LINE
  5
4C1
100
AcDbEntity
  8
0
370
    -3
  6
Continuous
100
AcDbLine
 10
37.36299
 20
190.022263
 30
0.0
 11
37.36299
 21
214.569254
 31
0.0
  0
ELLIPSE
  5
4C2
100
AcDbEntity
  8
0
370
    -3
  6
Continuous
100
AcDbEllipse
 10
38.171743
 20
229.522263
 30
0.0
 11
0.0
 21
3.5
 31
0.0
210
0.0
220
0.0
230
1.0
 40
0.982815
 41
0.0
 42
6.2831853071795862
  0
LINE
  5
4C3
100
AcDbEntity
  8
0
370
    -3
  6
Continuous
100
AcDbLine
 10
37.095054
 20
231.522263
 30
0.0
 11
39.002773
 21
229.522263
 31
0.0
  0
LINE
  5
4C4
100
AcDbEntity
  8
0
370
    -3
  6
Continuous
100
AcDbLine
 10
39.002773
 20
229.522263
 30
0.0
 11
40.720285
 21
227.522263
 31
0.0
  0
LINE
  5
4C5
100
AcDbEntity
  8
0
370
    -3
  6
Continuous
100
AcDbLine
 10
40.720285
 20
231.522263
 30
0.0
 11
39.002773
 21
229.522263
 31
0.0
  0
LINE
  5
4C6
100
AcDbEntity
  8
0
370
    -3
  6
Continuous
100
AcDbLine
 10
39.002773
 20
229.522263
 30
0.0
 11
37.095054
 21
227.522263
 31
0.0
  0
LINE
  5
4C7
100
AcDbEntity
  8
0
370
    -3
  6
Continuous
100
AcDbLine
 10
44.3811
 20
190.022263
 30
0.0
 11
44.3811
 21
151.022263
 31
0.0
  0
ARC
  5
4C8
100
AcDbEntity
  8
0
370
    -3
  6
Continuous
100
AcDbCircle
 10
36.5811
 20
151.022263
 30
0.0
 40
7.8
100
AcDbArc
 50
270.0
 51
360.0
  0
ARC
  5
4C9
100
AcDbEntity
  8
0
370
    -3
  6
Continuous
100
AcDbCircle
 10
24.424163
 20
155.272263
 30
0.0
 40
3.8
100
AcDbArc
 50
270.0
 51
318.14922
  0
LINE
  5
4CA
100
AcDbEntity
  8
0
370
    -3
  6
Continuous
100
AcDbLine
 10
27.254726
 20
152.73693
 30
0.0
 11
36.393553
 21
162.939939
 31
0.0
  0
ARC
  5
4CB
100
AcDbEntity
  8
0
370
    -3
  6
Continuous
100
AcDbCircle
 10
33.56299
 20
165.475272
 30
0.0
 40
3.8
100
AcDbArc
 50
318.14922
 51
0.0
  0
LINE
  5
4CC
100
AcDbEntity
  8
0
370
    -3
  6
Continuous
100
AcDbLine
 10
37.36299
 20
190.022263
 30
0.0
 11
37.36299
 21
165.475272
 31
0.0
  0
ARC
  5
4CD
100
AcDbEntity
  8
0
370
    -3
  6
Continuous
100
AcDbCircle
 10
16.909583
 20
161.472263
 30
0.0
 40
10.0
100
AcDbArc
 50
270.0
 51
360.0
  0
LINE
  5
4CE
100
AcDbEntity
  8
0
370
    -3
  6
Continuous
100
AcDbLine
 10
26.909583
 20
190.022263
 30
0.0
 11
26.909583
 21
161.472263
 31
0.0
  0
ELLIPSE
  5
4CF
100
AcDbEntity
  8
0
370
    -3
  6
Continuous
100
AcDbEllipse
 10
38.171743
 20
150.522263
 30
0.0
 11
0.0000000000002061
 21
3.5
 31
0.0
210
0.0
220
0.0
230
1.0
 40
0.982815
 41
0.0
 42
6.2831853071795862
  0
LINE
  5
4D0
100
AcDbEntity
  8
0
370
    -3
  6
Continuous
100
AcDbLine
 10
37.095054
 20
148.522263
 30
0.0
 11
39.002773
 21
150.522263
 31
0.0
  0
LINE
  5
4D1
100
AcDbEntity
  8
0
370
    -3
  6
Continuous
100
AcDbLine
 10
39.002773
 20
150.522263
 30
0.0
 11
40.720285
 21
152.522263
 31
0.0
  0
LINE
  5
4D2
100
AcDbEntity
  8
0
370
    -3
  6
Continuous
100
AcDbLine
 10
40.720285
 20
148.522263
 30
0.0
 11
39.002773
 21
150.522263
 31
0.0
  0
LINE
  5
4D3
100
AcDbEntity
  8
0
370
    -3
  6
Continuous
100
AcDbLine
 10
39.002773
 20
150.522263
 30
0.0
 11
37.095054
 21
152.522263
 31
0.0
  0
LINE
  5
4D4
100
AcDbEntity
  8
0
370
    -3
  6
Continuous
100
AcDbLine
 10
36.5811
 20
143.222263
 30
0.0
 11
-46.290429
 21
143.222263
 31
0.0
  0
ARC
  5
4D5
100
AcDbEntity
  8
0
370
    -3
  6
Continuous
100
AcDbCircle
 10
-46.290429
 20
151.022263
 30
0.0
 40
7.8
100
AcDbArc
 50
180.0
 51
270.0
  0
ARC
  5
4D6
100
AcDbEntity
  8
0
370
    -3
  6
Continuous
100
AcDbCircle
 10
-43.839244
 20
151.022263
 30
0.0
 40
7.8
100
AcDbArc
 50
180.0
 51
270.0
  0
LINE
  5
4D7
100
AcDbEntity
  8
0
370
    -3
  6
Continuous
100
AcDbLine
 10
-54.090429
 20
190.022263
 30
0.0
 11
-54.090429
 21
151.022263
 31
0.0
  0
LINE
  5
4D8
100
AcDbEntity
  8
0
370
    -3
  6
Continuous
100
AcDbLine
 10
-51.639244
 20
190.022263
 30
0.0
 11
-51.639244
 21
151.022263
 31
0.0
  0
ARC
  5
4D9
100
AcDbEntity
  8
0
370
    -3
  6
Continuous
100
AcDbCircle
 10
-31.071894
 20
155.272263
 30
0.0
 40
3.8
100
AcDbArc
 50
221.390427
 51
270.0
  0
LINE
  5
4DA
100
AcDbEntity
  8
0
370
    -3
  6
Continuous
100
AcDbLine
 10
-33.922735
 20
152.759754
 30
0.0
 11
-42.899471
 21
162.945292
 31
0.0
  0
ARC
  5
4DB
100
AcDbEntity
  8
0
370
    -3
  6
Continuous
100
AcDbCircle
 10
-40.048629
 20
165.457801
 30
0.0
 40
3.8
100
AcDbArc
 50
180.0
 51
221.390427
  0
ELLIPSE
  5
4DC
100
AcDbEntity
  8
0
370
    -3
  6
Continuous
100
AcDbEllipse
 10
-44.302266
 20
150.522263
 30
0.0
 11
0.0000000000002061
 21
3.5
 31
0.0
210
0.0
220
0.0
230
1.0
 40
0.982815
 41
0.0
 42
6.2831853071795862
  0
LINE
  5
4DD
100
AcDbEntity
  8
0
370
    -3
  6
Continuous
100
AcDbLine
 10
-45.378955
 20
148.522263
 30
0.0
 11
-43.471235
 21
150.522263
 31
0.0
  0
LINE
  5
4DE
100
AcDbEntity
  8
0
370
    -3
  6
Continuous
100
AcDbLine
 10
-43.471235
 20
150.522263
 30
0.0
 11
-41.753724
 21
152.522263
 31
0.0
  0
LINE
  5
4DF
100
AcDbEntity
  8
0
370
    -3
  6
Continuous
100
AcDbLine
 10
-41.753724
 20
148.522263
 30
0.0
 11
-43.471235
 21
150.522263
 31
0.0
  0
LINE
  5
4E0
100
AcDbEntity
  8
0
370
    -3
  6
Continuous
100
AcDbLine
 10
-43.471235
 20
150.522263
 30
0.0
 11
-45.378955
 21
152.522263
 31
0.0
  0
LINE
  5
4E1
100
AcDbEntity
  8
0
370
    -3
  6
Continuous
100
AcDbLine
 10
-31.071894
 20
151.472263
 30
0.0
 11
24.424163
 21
151.472263
 31
0.0
  0
LINE
  5
4E2
100
AcDbEntity
  8
0
370
    -3
  6
Continuous
100
AcDbLine
 10
-43.848629
 20
190.022263
 30
0.0
 11
-43.848629
 21
165.457801
 31
0.0
  0
LINE
  5
4E3
100
AcDbEntity
  8
0
370
    -3
  6
Continuous
100
AcDbLine
 10
-74.51637
 20
190.022263
 30
0.0
 11
-74.51637
 21
175.022263
 31
0.0
  0
ARC
  5
4E4
100
AcDbEntity
  8
0
370
    -3
  6
Continuous
100
AcDbCircle
 10
-72.51637
 20
175.022263
 30
0.0
 40
2.0
100
AcDbArc
 50
180.0
 51
270.0
  0
LINE
  5
4E5
100
AcDbEntity
  8
0
370
    -3
  6
Continuous
100
AcDbLine
 10
-72.51637
 20
173.022263
 30
0.0
 11
-54.090429
 21
173.022263
 31
0.0
  0
POINT
  5
4E6
100
AcDbEntity
  8
0
370
    -3
  6
CENTER
100
AcDbPoint
 10
-74.682349
 20
177.353212
 30
0.0
  0
LINE
  5
4E7
100
AcDbEntity
  8
0
370
    -3
  6
Continuous
100
AcDbLine
 10
36.5811
 20
236.822263
 30
0.0
 11
-46.290429
 21
236.822263
 31
0.0
  0
ARC
  5
4E8
100
AcDbEntity
  8
0
370
    -3
  6
Continuous
100
AcDbCircle
 10
-46.290429
 20
229.022263
 30
0.0
 40
7.8
100
AcDbArc
 50
90.0
 51
180.0
  0
ARC
  5
4E9
100
AcDbEntity
  8
0
370
    -3
  6
Continuous
100
AcDbCircle
 10
-43.839244
 20
229.022263
 30
0.0
 40
7.8
100
AcDbArc
 50
90.0
 51
180.0
  0
LINE
  5
4EA
100
AcDbEntity
  8
0
370
    -3
  6
Continuous
100
AcDbLine
 10
-54.090429
 20
190.022263
 30
0.0
 11
-54.090429
 21
229.022263
 31
0.0
  0
LINE
  5
4EB
100
AcDbEntity
  8
0
370
    -3
  6
Continuous
100
AcDbLine
 10
-51.639244
 20
190.022263
 30
0.0
 11
-51.639244
 21
229.022263
 31
0.0
  0
LINE
  5
4EC
100
AcDbEntity
  8
0
370
    -3
  6
Continuous
100
AcDbLine
 10
-31.071894
 20
228.572263
 30
0.0
 11
24.424163
 21
228.572263
 31
0.0
  0
ARC
  5
4ED
100
AcDbEntity
  8
0
370
    -3
  6
Continuous
100
AcDbCircle
 10
-31.071894
 20
224.772263
 30
0.0
 40
3.8
100
AcDbArc
 50
90.0
 51
138.609573
  0
LINE
  5
4EE
100
AcDbEntity
  8
0
370
    -3
  6
Continuous
100
AcDbLine
 10
-33.922735
 20
227.284772
 30
0.0
 11
-42.899471
 21
217.099234
 31
0.0
  0
ARC
  5
4EF
100
AcDbEntity
  8
0
370
    -3
  6
Continuous
100
AcDbCircle
 10
-40.048629
 20
214.586725
 30
0.0
 40
3.8
100
AcDbArc
 50
138.609573
 51
180.0
  0
LINE
  5
4F0
100
AcDbEntity
  8
0
370
    -3
  6
Continuous
100
AcDbLine
 10
-43.848629
 20
190.022263
 30
0.0
 11
-43.848629
 21
214.586725
 31
0.0
  0
ELLIPSE
  5
4F1
100
AcDbEntity
  8
0
370
    -3
  6
Continuous
100
AcDbEllipse
 10
-44.302266
 20
229.522263
 30
0.0
 11
0.0
 21
3.5
 31
0.0
210
0.0
220
0.0
230
1.0
 40
0.982815
 41
0.0
 42
6.2831853071795862
  0
LINE
  5
4F2
100
AcDbEntity
  8
0
370
    -3
  6
Continuous
100
AcDbLine
 10
-45.378955
 20
231.522263
 30
0.0
 11
-43.471235
 21
229.522263
 31
0.0
  0
LINE
  5
4F3
100
AcDbEntity
  8
0
370
    -3
  6
Continuous
100
AcDbLine
 10
-43.471235
 20
229.522263
 30
0.0
 11
-41.753724
 21
227.522263
 31
0.0
  0
LINE
  5
4F4
100
AcDbEntity
  8
0
370
    -3
  6
Continuous
100
AcDbLine
 10
-41.753724
 20
231.522263
 30
0.0
 11
-43.471235
 21
229.522263
 31
0.0
  0
LINE
  5
4F5
100
AcDbEntity
  8
0
370
    -3
  6
Continuous
100
AcDbLine
 10
-43.471235
 20
229.522263
 30
0.0
 11
-45.378955
 21
227.522263
 31
0.0
  0
LINE
  5
4F6
100
AcDbEntity
  8
0
370
    -3
  6
Continuous
100
AcDbLine
 10
-74.51637
 20
190.022263
 30
0.0
 11
-74.51637
 21
205.022263
 31
0.0
  0
ARC
  5
4F7
100
AcDbEntity
  8
0
370
    -3
  6
Continuous
100
AcDbCircle
 10
-72.51637
 20
205.022263
 30
0.0
 40
2.0
100
AcDbArc
 50
90.0
 51
180.0
  0
LINE
  5
4F8
100
AcDbEntity
  8
0
370
    -3
  6
Continuous
100
AcDbLine
 10
-72.51637
 20
207.022263
 30
0.0
 11
-54.090429
 21
207.022263
 31
0.0
  0
POINT
  5
4F9
100
AcDbEntity
  8
0
370
    -3
  6
CENTER
100
AcDbPoint
 10
-74.682349
 20
203.794212
 30
0.0
  0
MTEXT
  5
4FA
100
AcDbEntity
  8
0
370
    -3
  6
Continuous
100
AcDbMText
 10
-426.883057
 20
139.213013
 30
0.0
 40
15.0
 41
0.0
 71
     7
 72
     1
  1
\W0.43;DATE\W0.72; \W0.43;2012.01.15
  7
ZU_SHPTB00001
 11
1.0
 21
0.0
 31
0.0
 73
     1
 44
1.0
  0
LINE
  5
4FB
100
AcDbEntity
  8
0
370
    -3
  6
Continuous
100
AcDbLine
 10
332.483278
 20
-101.69468
 30
0.0
 11
332.483278
 21
-109.69468
 31
0.0
  0
LINE
  5
4FC
100
AcDbEntity
  8
0
370
    -3
  6
Continuous
100
AcDbLine
 10
320.483278
 20
-101.69468
 30
0.0
 11
320.483278
 21
-109.69468
 31
0.0
  0
ARC
  5
4FD
100
AcDbEntity
  8
0
370
    -3
  6
Continuous
100
AcDbCircle
 10
326.483278
 20
-124.69468
 30
0.0
 40
20.0
100
AcDbArc
 50
107.457603
 51
72.542397
  0
LINE
  5
4FE
100
AcDbEntity
  8
0
370
    -3
  6
Continuous
100
AcDbLine
 10
332.483278
 20
-109.69468
 30
0.0
 11
320.483278
 21
-109.69468
 31
0.0
  0
LINE
  5
4FF
100
AcDbEntity
  8
0
370
    -3
  6
Continuous
100
AcDbLine
 10
332.483278
 20
-101.69468
 30
0.0
 11
320.483278
 21
-101.69468
 31
0.0
  0
LINE
  5
500
100
AcDbEntity
  8
0
370
    -3
  6
Continuous
100
AcDbLine
 10
489.842694
 20
-101.69468
 30
0.0
 11
489.842694
 21
-109.69468
 31
0.0
  0
ARC
  5
501
100
AcDbEntity
  8
0
370
    -3
  6
Continuous
100
AcDbCircle
 10
483.842694
 20
-124.69468
 30
0.0
 40
20.0
100
AcDbArc
 50
107.457603
 51
72.542397
  0
LINE
  5
502
100
AcDbEntity
  8
0
370
    -3
  6
Continuous
100
AcDbLine
 10
489.842694
 20
-101.69468
 30
0.0
 11
477.842694
 21
-101.69468
 31
0.0
  0
LINE
  5
503
100
AcDbEntity
  8
0
370
    -3
  6
Continuous
100
AcDbLine
 10
477.842694
 20
-101.69468
 30
0.0
 11
477.842694
 21
-109.69468
 31
0.0
  0
LINE
  5
504
100
AcDbEntity
  8
0
370
    -3
  6
Continuous
100
AcDbLine
 10
489.842694
 20
-109.69468
 30
0.0
 11
477.842694
 21
-109.69468
 31
0.0
  0
ENDSEC
  0
SECTION
  2
OBJECTS
  0
DICTIONARY
  5
19
100
AcDbDictionary
280
     0
281
     1
  3
ACAD_GROUP
350
1A
  3
ACAD_MLINESTYLE
350
1B
  3
ACAD_LAYOUT
350
1E
  3
ACAD_PLOTSETTINGS
350
22
  3
ACAD_PLOTSTYLENAME
350
1F
  3
ACAD_WIPEOUT_VARS
350
23
  3
DWGPROPS
350
505
  0
DICTIONARY
  5
1A
102
{ACAD_REACTORS
330
19
102
}
100
AcDbDictionary
280
     0
281
     1
  0
DICTIONARY
  5
1B
102
{ACAD_REACTORS
330
19
102
}
100
AcDbDictionary
280
     0
281
     1
  3
Standard
350
1C
  0
MLINESTYLE
  5
1C
102
{ACAD_REACTORS
330
1B
102
}
100
AcDbMlineStyle
  2
Standard
 70
     0
  3

 62
     0
 51
90.0
 52
90.0
 71
     2
 49
0.5
 62
   256
  6
ByLayer
 49
-0.5
 62
   256
  6
ByLayer
  0
ACDBDICTIONARYWDFLT
  5
1F
102
{ACAD_REACTORS
330
19
102
}
100
AcDbDictionary
281
     1
  3
Normal
350
1D
100
AcDbDictionaryWithDefault
340
1D
  0
ACDBPLACEHOLDER
  5
1D
102
{ACAD_REACTORS
330
1F
102
}
  0
LAYOUT
  5
20
102
{ACAD_REACTORS
330
1E
102
}
100
AcDbPlotSettings
  1

  2

  4

  6

 40
0.0
 41
0.0
 42
0.0
 43
0.0
 44
0.0
 45
0.0
 46
0.0
 47
0.0
 48
0.0
 49
0.0
140
0.0
141
0.0
142
1.0
143
1.0
 70
  1024
 72
     0
 73
     0
 74
     0
  7

 75
     0
147
1.0
148
0.0
149
0.0
100
AcDbLayout
  1
Model
 70
     0
 71
     0
 10
0.0
 20
0.0
 11
0.0
 21
0.0
 12
0.0
 22
0.0
 32
0.0
 14
0.0
 24
0.0
 34
0.0
 15
0.0
 25
0.0
 35
0.0
146
0.0
 13
0.0
 23
0.0
 33
0.0
 16
0.0
 26
0.0
 36
0.0
 17
0.0
 27
0.0
 37
0.0
 76
     0
330
A
331
0
345
0
346
0
  0
LAYOUT
  5
21
102
{ACAD_REACTORS
330
1E
102
}
100
AcDbPlotSettings
  1

  2

  4

  6

 40
0.0
 41
0.0
 42
0.0
 43
0.0
 44
0.0
 45
0.0
 46
0.0
 47
0.0
 48
0.0
 49
0.0
140
0.0
141
0.0
142
1.0
143
1.0
 70
     0
 72
     0
 73
     0
 74
     0
  7

 75
     0
147
1.0
148
0.0
149
0.0
100
AcDbLayout
  1
Layout1
 70
     0
 71
     0
 10
0.0
 20
0.0
 11
0.0
 21
0.0
 12
0.0
 22
0.0
 32
0.0
 14
0.0
 24
0.0
 34
0.0
 15
0.0
 25
0.0
 35
0.0
146
0.0
 13
0.0
 23
0.0
 33
0.0
 16
0.0
 26
0.0
 36
0.0
 17
0.0
 27
0.0
 37
0.0
 76
     0
330
B
331
0
345
0
346
0
  0
DICTIONARY
  5
1E
102
{ACAD_REACTORS
330
19
102
}
100
AcDbDictionary
280
     0
281
     1
  3
Layout1
350
21
  3
Model
350
20
  0
DICTIONARY
  5
22
102
{ACAD_REACTORS
330
19
102
}
100
AcDbDictionary
280
     0
281
     1
  0
WIPEOUTVARIABLES
  5
23
100
AcDbWipeoutVariables
 70
     1
  0
XRECORD
  5
505
100
AcDbXrecord
280
     1
  1
DWGPROPS COOKIE
  2

  3

  4

  6

  7

  8
HK96464
  9

300
=
301
=
302
=
303
=
304
=
305
=
306
=
307
=
308
=
309
=
 40
0.0
 41
2455942.683576
 42
2455942.683576
  1

 90
        0
  0
ENDSEC
  0
EOF
