  0
SECTION
  2
HEADER
  9
$ACADVER
  1
AC1015
  9
$ACADMAINTVER
 70
     6
  9
$DWGCODEPAGE
  3
ANSI_932
  9
$INSBASE
 10
0.0
 20
0.0
 30
0.0
  9
$EXTMIN
 10
1.000000E+20
 20
1.000000E+20
 30
1.000000E+20
  9
$EXTMAX
 10
-1.000000E+20
 20
-1.000000E+20
 30
-1.000000E+20
  9
$LIMMIN
 10
0.0
 20
0.0
  9
$LIMMAX
 10
0.0
 20
0.0
  9
$ORTHOMODE
 70
     0
  9
$REGENMODE
 70
     1
  9
$FILLMODE
 70
     1
  9
$QTEXTMODE
 70
     0
  9
$MIRRTEXT
 70
     1
  9
$LTSCALE
 40
1.0
  9
$ATTMODE
 70
     1
  9
$TEXTSIZE
 40
7.0
  9
$TRACEWID
 40
0.05
  9
$TEXTSTYLE
  7
Standard
  9
$CLAYER
  8
0
  9
$CELTYPE
  6
Continuous
  9
$CECOLOR
 62
   256
  9
$CELTSCALE
 40
1.0
  9
$DISPSILH
 70
     0
  9
$DIMSCALE
 40
1.0
  9
$DIMASZ
 40
1.931852
  9
$DIMEXO
 40
1.0
  9
$DIMDLI
 40
0.38
  9
$DIMRND
 40
0.0
  9
$DIMDLE
 40
0.0
  9
$DIMEXE
 40
2.0
  9
$DIMTP
 40
0.0
  9
$DIMTM
 40
0.0
  9
$DIMTXT
 40
10.0
  9
$DIMCEN
 40
0.09
  9
$DIMTSZ
 40
0.0
  9
$DIMTOL
 70
     0
  9
$DIMLIM
 70
     0
  9
$DIMTIH
 70
     1
  9
$DIMTOH
 70
     1
  9
$DIMSE1
 70
     0
  9
$DIMSE2
 70
     0
  9
$DIMTAD
 70
     1
  9
$DIMZIN
 70
     0
  9
$DIMBLK
  1

  9
$DIMASO
 70
     1
  9
$DIMSHO
 70
     1
  9
$DIMPOST
  1

  9
$DIMAPOST
  1

  9
$DIMALT
 70
     0
  9
$DIMALTD
 70
     2
  9
$DIMALTF
 40
25.4
  9
$DIMLFAC
 40
1.0
  9
$DIMTOFL
 70
     0
  9
$DIMTVP
 40
0.0
  9
$DIMTIX
 70
     0
  9
$DIMSOXD
 70
     0
  9
$DIMSAH
 70
     0
  9
$DIMBLK1
  1

  9
$DIMBLK2
  1

  9
$DIMSTYLE
  2
Standard
  9
$DIMCLRD
 70
     0
  9
$DIMCLRE
 70
     0
  9
$DIMCLRT
 70
     0
  9
$DIMTFAC
 40
0.714286
  9
$DIMGAP
 40
0.09
  9
$DIMJUST
 70
     0
  9
$DIMSD1
 70
     0
  9
$DIMSD2
 70
     0
  9
$DIMTOLJ
 70
     1
  9
$DIMTZIN
 70
     0
  9
$DIMALTZ
 70
     0
  9
$DIMALTTZ
 70
     0
  9
$DIMUPT
 70
     0
  9
$DIMDEC
 70
     4
  9
$DIMTDEC
 70
     4
  9
$DIMALTU
 70
     2
  9
$DIMALTTD
 70
     2
  9
$DIMTXSTY
  7
Standard
  9
$DIMAUNIT
 70
     0
  9
$DIMADEC
 70
     0
  9
$DIMALTRND
 40
0.0
  9
$DIMAZIN
 70
     0
  9
$DIMDSEP
 70
     0
  9
$DIMATFIT
 70
     3
  9
$DIMFRAC
 70
     0
  9
$DIMLDRBLK
  1

  9
$DIMLUNIT
 70
     2
  9
$DIMLWD
 70
     0
  9
$DIMLWE
 70
     0
  9
$DIMTMOVE
 70
     0
  9
$LUNITS
 70
     2
  9
$LUPREC
 70
     3
  9
$SKETCHINC
 40
0.1
  9
$FILLETRAD
 40
0.0
  9
$AUNITS
 70
     0
  9
$AUPREC
 70
     0
  9
$MENU
  1
acad
  9
$ELEVATION
 40
0.0
  9
$PELEVATION
 40
0.0
  9
$THICKNESS
 40
0.0
  9
$LIMCHECK
 70
     0
  9
$CHAMFERA
 40
0.0
  9
$CHAMFERB
 40
0.0
  9
$CHAMFERC
 40
0.0
  9
$CHAMFERD
 40
0.0
  9
$SKPOLY
 70
     0
  9
$TDCREATE
 40
0.000000000
  9
$TDUCREATE
 40
0.000000000
  9
$TDUPDATE
 40
0.000000000
  9
$TDUUPDATE
 40
0.000000000
  9
$TDINDWG
 40
0.0000000000
  9
$TDUSRTIMER
 40
0.0000000000
  9
$USRTIMER
 70
     1
  9
$ANGBASE
 50
0.0
  9
$ANGDIR
 70
     0
  9
$PDMODE
 70
     0
  9
$PDSIZE
 40
0.0
  9
$PLINEWID
 40
0.0
  9
$SPLFRAME
 70
     0
  9
$SPLINETYPE
 70
     6
  9
$SPLINESEGS
 70
     8
  9
$HANDSEED
  5
4A7
  9
$SURFTAB1
 70
     6
  9
$SURFTAB2
 70
     6
  9
$SURFTYPE
 70
     6
  9
$SURFU
 70
     6
  9
$SURFV
 70
     6
  9
$UCSBASE
  2

  9
$UCSNAME
  2

  9
$UCSORG
 10
0.0
 20
0.0
 30
0.0
  9
$UCSXDIR
 10
1.0
 20
0.0
 30
0.0
  9
$UCSYDIR
 10
0.0
 20
1.0
 30
0.0
  9
$UCSORTHOREF
  2

  9
$UCSORTHOVIEW
 70
     0
  9
$UCSORGTOP
 10
0.0
 20
0.0
 30
0.0
  9
$UCSORGBOTTOM
 10
0.0
 20
0.0
 30
0.0
  9
$UCSORGLEFT
 10
0.0
 20
0.0
 30
0.0
  9
$UCSORGRIGHT
 10
0.0
 20
0.0
 30
0.0
  9
$UCSORGFRONT
 10
0.0
 20
0.0
 30
0.0
  9
$UCSORGBACK
 10
0.0
 20
0.0
 30
0.0
  9
$PUCSBASE
  2

  9
$PUCSNAME
  2

  9
$PUCSORG
 10
0.0
 20
0.0
 30
0.0
  9
$PUCSXDIR
 10
1.0
 20
0.0
 30
0.0
  9
$PUCSYDIR
 10
0.0
 20
1.0
 30
0.0
  9
$PUCSORTHOREF
  2

  9
$PUCSORTHOVIEW
 70
     0
  9
$PUCSORGTOP
 10
0.0
 20
0.0
 30
0.0
  9
$PUCSORGBOTTOM
 10
0.0
 20
0.0
 30
0.0
  9
$PUCSORGLEFT
 10
0.0
 20
0.0
 30
0.0
  9
$PUCSORGRIGHT
 10
0.0
 20
0.0
 30
0.0
  9
$PUCSORGFRONT
 10
0.0
 20
0.0
 30
0.0
  9
$PUCSORGBACK
 10
0.0
 20
0.0
 30
0.0
  9
$USERI1
 70
     0
  9
$USERI2
 70
     0
  9
$USERI3
 70
     0
  9
$USERI4
 70
     0
  9
$USERI5
 70
     0
  9
$USERR1
 40
0.0
  9
$USERR2
 40
0.0
  9
$USERR3
 40
0.0
  9
$USERR4
 40
0.0
  9
$USERR5
 40
0.0
  9
$WORLDVIEW
 70
     1
  9
$SHADEDGE
 70
     3
  9
$SHADEDIF
 70
    70
  9
$TILEMODE
 70
     1
  9
$MAXACTVP
 70
    16
  9
$PINSBASE
 10
0.0
 20
0.0
 30
0.0
  9
$PLIMCHECK
 70
     0
  9
$PEXTMIN
 10
1.000000E+20
 20
1.000000E+20
 30
1.000000E+20
  9
$PEXTMAX
 10
-1.000000E+20
 20
-1.000000E+20
 30
-1.000000E+20
  9
$PLIMMIN
 10
0.0
 20
0.0
  9
$PLIMMAX
 10
12.0
 20
9.0
  9
$UNITMODE
 70
     0
  9
$VISRETAIN
 70
     0
  9
$PLINEGEN
 70
     1
  9
$PSLTSCALE
 70
     0
  9
$TREEDEPTH
 70
  3020
  9
$CMLSTYLE
  2
Standard
  9
$CMLJUST
 70
     0
  9
$CMLSCALE
 40
1.0
  9
$PROXYGRAPHICS
 70
     0
  9
$MEASUREMENT
 70
     0
  9
$CELWEIGHT
370
     0
  9
$ENDCAPS
280
     0
  9
$JOINSTYLE
280
     0
  9
$LWDISPLAY
290
     0
  9
$INSUNITS
 70
     0
  9
$HYPERLINKBASE
  1

  9
$STYLESHEET
  1

  9
$XEDIT
290
     1
  9
$CEPSNTYPE
380
     0
  9
$PSTYLEMODE
290
     1
  9
$FINGERPRINTGUID
  2

  9
$VERSIONGUID
  2

  9
$EXTNAMES
290
     1
  9
$PSVPSCALE
 40
0.0
  0
ENDSEC
  0
SECTION
  2
CLASSES
  0
CLASS
  1
LWPOLYLINE
  2
AcDbPolyline
  3
AutoCAD 2000
 90
    32768
280
     0
281
     1
  0
CLASS
  1
IMAGE
  2
AcDbRasterImage
  3
ISM
 90
    32895
280
     0
281
     1
  0
CLASS
  1
OLE2FRAME
  2
AcDbOle2Frame
  3
AutoCAD 2000
 90
    32768
280
     0
281
     1
  0
CLASS
  1
HATCH
  2
AcDbHatch
  3
AutoCAD 2000
 90
    32768
280
     0
281
     1
  0
CLASS
  1
DICTIONARYVAR
  2
AcDbDictionaryVar
  3
AutoCAD 2000
 90
    32768
280
     0
281
     0
  0
CLASS
  1
RASTERVARIABLES
  2
AcDbRasterVariables
  3
ISM
 90
    32768
280
     0
281
     0
  0
CLASS
  1
IMAGEDEF
  2
AcDbRasterImageDef
  3
ISM
 90
    32768
280
     0
281
     0
  0
CLASS
  1
IMAGEDEF_REACTOR
  2
AcDbRasterImageDefReactor
  3
ISM
 90
    32769
280
     0
281
     0
  0
CLASS
  1
IDBUFFER
  2
AcDbIdBuffer
  3
AutoCAD 2000
 90
    32768
280
     0
281
     0
  0
CLASS
  1
SPATIAL_FILTER
  2
AcDbSpatialFilter
  3
AutoCAD 2000
 90
    32768
280
     0
281
     0
  0
CLASS
  1
XRECORD
  2
AcDbXrecord
  3
AutoCAD 2000
 90
        0
280
     0
281
     0
  0
CLASS
  1
SORTENTSTABLE
  2
AcDbSortentsTable
  3
AutoCAD 2000
 90
    32768
280
     0
281
     0
  0
CLASS
  1
LAYER_INDEX
  2
AcDbLayerIndex
  3
AutoCAD 2000
 90
    32768
280
     0
281
     0
  0
CLASS
  1
SPATIAL_INDEX
  2
AcDbSpatialIndex
  3
AutoCAD 2000
 90
    32768
280
     0
281
     0
  0
CLASS
  1
OBJECT_PTR
  2
CAseDLPNTableRecord
  3
"ASE-LPNTableRecord"
 90
    32769
280
     0
281
     0
  0
CLASS
  1
LAYOUT
  2
AcDbLayout
  3
AutoCAD 2000
 90
        0
280
     0
281
     0
  0
CLASS
  1
PLOTSETTINGS
  2
AcDbPlotSettings
  3
AutoCAD 2000
 90
    32768
280
     0
281
     0
  0
CLASS
  1
ACDBDICTIONARYWDFLT
  2
AcDbDictionaryWithDefault
  3
AutoCAD 2000
 90
        0
280
     0
281
     0
  0
CLASS
  1
ACDBPLACEHOLDER
  2
AcDbPlaceHolder
  3
AutoCAD 2000
 90
        0
280
     0
281
     0
  0
CLASS
  1
VBA_PROJECT
  2
AcDbVbaProject
  3
acadvba
 90
    32768
280
     0
281
     0
  0
CLASS
  1
WIPEOUT
  2
AcDbWipeout
  3
WipeOut|AutoCAD Express Tool|expresstools@autodesk.com
 90
    32895
280
     0
281
     1
  0
CLASS
  1
WIPEOUTVARIABLES
  2
AcDbWipeoutVariables
  3
WipeOut|AutoCAD Express Tool|expresstools@autodesk.com
 90
        0
280
     0
281
     0
  0
CLASS
  1
RTEXT
  2
RText
  3
RText|AutoCAD Express Tool|expresstools@autodesk.com
 90
    32768
280
     0
281
     1
  0
CLASS
  1
ARCALIGNEDTEXT
  2
AcDbArcAlignedText
  3
ATEXT|AutoCAD Express Tool|expresstools@autodesk.com
 90
    32768
280
     0
281
     1
  0
ENDSEC
  0
SECTION
  2
TABLES
  0
TABLE
  2
VPORT
  5
7
100
AcDbSymbolTable
 70
     1
  0
VPORT
  5
15
100
AcDbSymbolTableRecord
100
AcDbViewportTableRecord
  2
*ACTIVE
 70
     0
 10
0.0
 20
0.0
 11
1.0
 21
1.0
 12
0.0
 22
0.0
 13
0.0
 23
0.0
 14
1.0
 24
1.0
 15
0.0
 25
0.0
 16
0.0
 26
0.0
 36
1.0
 17
0.0
 27
0.0
 37
0.0
 40
100.0
 41
1.0
 42
50.0
 43
0.0
 44
0.0
 50
0.0
 51
0.0
 71
     0
 72
   100
 73
     1
 74
     1
 75
     0
 76
     0
 77
     0
 78
     0
281
     0
 65
     0
110
0.0
120
0.0
130
0.0
111
1.0
121
0.0
131
0.0
112
0.0
122
1.0
132
0.0
345
0
346
0
 79
     0
146
0.0
  0
ENDTAB
  0
TABLE
  2
LTYPE
  5
4
100
AcDbSymbolTable
 70
     7
  0
LTYPE
  5
11
100
AcDbSymbolTableRecord
100
AcDbLinetypeTableRecord
  2
ByBlock
 70
    64
  3

 72
    65
 73
     0
 40
0.0
  0
LTYPE
  5
12
100
AcDbSymbolTableRecord
100
AcDbLinetypeTableRecord
  2
ByLayer
 70
    64
  3

 72
    65
 73
     0
 40
0.0
  0
LTYPE
  5
13
100
AcDbSymbolTableRecord
100
AcDbLinetypeTableRecord
  2
Continuous
 70
    64
  3
Solid line
 72
    65
 73
     0
 40
0.0
  0
LTYPE
  5
24
100
AcDbSymbolTableRecord
100
AcDbLinetypeTableRecord
  2
DASHED
 70
    64
  3
Dashed __ __ __ __ __ __ __ __ __ __ __ __ __ _
 72
    65
 73
     2
 40
0.75
 49
0.5
 74
     0
 49
-0.25
 74
     0
  0
LTYPE
  5
25
100
AcDbSymbolTableRecord
100
AcDbLinetypeTableRecord
  2
CENTER
 70
    64
  3
Center ____ _ ____ _ ____ _ ____ _ ____ _ ____
 72
    65
 73
     4
 40
1.0
 49
0.5
 74
     0
 49
-0.25
 74
     0
 49
0.0
 74
     0
 49
-0.25
 74
     0
  0
LTYPE
  5
26
100
AcDbSymbolTableRecord
100
AcDbLinetypeTableRecord
  2
DIVIDE
 70
    64
  3
Divide ____ . . ____ . . ____ . . ____ . . ____
 72
    65
 73
     6
 40
1.25
 49
0.5
 74
     0
 49
-0.25
 74
     0
 49
0.0
 74
     0
 49
-0.25
 74
     0
 49
0.0
 74
     0
 49
-0.25
 74
     0
  0
LTYPE
  5
27
100
AcDbSymbolTableRecord
100
AcDbLinetypeTableRecord
  2
PHANTOM
 70
    64
  3
Phantom ______  __  __  ______  __  __  ______
 72
    65
 73
     6
 40
9.0
 49
4.3
 74
     0
 49
-0.7
 74
     0
 49
1.3
 74
     0
 49
-0.7
 74
     0
 49
1.3
 74
     0
 49
-0.7
 74
     0
  0
ENDTAB
  0
TABLE
  2
LAYER
  5
2
100
AcDbSymbolTable
 70
     3
  0
LAYER
  5
14
100
AcDbSymbolTableRecord
100
AcDbLayerTableRecord
  2
0
 70
    64
 62
    53
  6
Continuous
290
     1
370
    -3
390
1D
  0
LAYER
  5
28
100
AcDbSymbolTableRecord
100
AcDbLayerTableRecord
  2
3
 70
    64
 62
     4
  6
Continuous
290
     1
370
    -3
390
1D
  0
LAYER
  5
29
100
AcDbSymbolTableRecord
100
AcDbLayerTableRecord
  2
5
 70
    64
 62
   191
  6
Continuous
290
     1
370
    -3
390
1D
  0
ENDTAB
  0
TABLE
  2
STYLE
  5
3
100
AcDbSymbolTable
 70
     2
  0
STYLE
  5
17
100
AcDbSymbolTableRecord
100
AcDbTextStyleTableRecord
  2
Standard
 70
     0
 40
0.0
 41
1.0
 50
0.0
 71
     0
 42
0.0
  3
txt
  4

  0
STYLE
  5
396
100
AcDbSymbolTableRecord
100
AcDbTextStyleTableRecord
  2
ZU_SHPTB00001
 70
     0
 40
0.0
 41
1.0
 50
0.0
 71
     0
 42
0.0
  3
monotxt
  4
bigfont
  0
ENDTAB
  0
TABLE
  2
VIEW
  5
5
100
AcDbSymbolTable
 70
     0
  0
ENDTAB
  0
TABLE
  2
UCS
  5
6
100
AcDbSymbolTable
 70
     0
  0
ENDTAB
  0
TABLE
  2
APPID
  5
8
100
AcDbSymbolTable
 70
     1
  0
APPID
  5
16
100
AcDbSymbolTableRecord
100
AcDbRegAppTableRecord
  2
ACAD
 70
     0
  0
ENDTAB
  0
TABLE
  2
DIMSTYLE
  5
9
100
AcDbSymbolTable
 70
     1
100
AcDbDimStyleTable
 71
     0
  0
DIMSTYLE
105
18
100
AcDbSymbolTableRecord
100
AcDbDimStyleTableRecord
  2
Standard
 70
     0
  3

  4

 40
1.0
 41
0.18
 42
0.0625
 43
0.38
 44
0.18
 45
0.0
 46
0.0
 47
0.0
 48
0.0
 71
     0
 72
     0
 73
     1
 74
     1
 75
     0
 76
     0
 77
     0
 78
     0
 79
     0
140
0.18
141
0.09
142
0.0
143
25.4
144
1.0
145
0.0
146
1.0
147
0.09
148
0.0
170
     0
171
     2
172
     0
173
     0
174
     0
175
     0
176
     0
177
     0
178
     0
179
     0
271
     4
272
     4
273
     2
274
     2
275
     0
276
     0
277
     2
278
    46
279
     0
280
     0
281
     0
282
     0
283
     1
284
     0
285
     0
286
     0
288
     0
340
17
341
0
342
0
343
0
344
0
371
    -2
372
    -2
  0
ENDTAB
  0
TABLE
  2
BLOCK_RECORD
  5
1
100
AcDbSymbolTable
 70
     7
  0
BLOCK_RECORD
  5
A
100
AcDbSymbolTableRecord
100
AcDbBlockTableRecord
  2
*MODEL_SPACE
340
20
  0
BLOCK_RECORD
  5
B
100
AcDbSymbolTableRecord
100
AcDbBlockTableRecord
  2
*PAPER_SPACE
340
21
  0
BLOCK_RECORD
  5
4E
100
AcDbSymbolTableRecord
100
AcDbBlockTableRecord
  2
ZU_SYM__USERS_HOME_SYMBOL_POO_SYM_S07_-1
340
0
102
{BLKREFS
331
59
102
}
  0
BLOCK_RECORD
  5
5A
100
AcDbSymbolTableRecord
100
AcDbBlockTableRecord
  2
ZU_SYM__USERS_HOME_SYMBOL_POO_SYM_S07_00001-1
340
0
102
{BLKREFS
331
65
102
}
  0
BLOCK_RECORD
  5
66
100
AcDbSymbolTableRecord
100
AcDbBlockTableRecord
  2
ZU_SYM__USERS_HOME_SYMBOL_POO_SYM_S07_00002-1
340
0
102
{BLKREFS
331
71
102
}
  0
BLOCK_RECORD
  5
72
100
AcDbSymbolTableRecord
100
AcDbBlockTableRecord
  2
ZU_SYM__USERS_HOME_SYMBOL_POO_SYM_S07_00003-1
340
0
102
{BLKREFS
331
7D
102
}
  0
BLOCK_RECORD
  5
208
100
AcDbSymbolTableRecord
100
AcDbBlockTableRecord
  2
ZU_SYM__USERS_HOME_SYMBOL_POO_SYM_B20_-1
340
0
102
{BLKREFS
331
213
102
}
  0
BLOCK_RECORD
  5
214
100
AcDbSymbolTableRecord
100
AcDbBlockTableRecord
  2
ZU_SYM__USERS_HOME_SYMBOL_POO_SYM_B20_00004-1
340
0
102
{BLKREFS
331
21F
102
}
  0
BLOCK_RECORD
  5
2F2
100
AcDbSymbolTableRecord
100
AcDbBlockTableRecord
  2
ZU_SYM__USERS_HOME_SYMBOL_POO_SYM_B20_00005-1
340
0
102
{BLKREFS
331
2FD
102
}
  0
ENDTAB
  0
ENDSEC
  0
SECTION
  2
BLOCKS
  0
BLOCK
  5
D
100
AcDbEntity
  8
0
100
AcDbBlockBegin
  2
*MODEL_SPACE
 70
     0
 10
0.0
 20
0.0
 30
0.0
  3
*MODEL_SPACE
  1

  0
ENDBLK
  5
E
100
AcDbEntity
  8
0
100
AcDbBlockEnd
  0
BLOCK
  5
F
100
AcDbEntity
 67
     1
  8
0
100
AcDbBlockBegin
  2
*PAPER_SPACE
 70
     0
 10
0.0
 20
0.0
 30
0.0
  3
*PAPER_SPACE
  1

  0
ENDBLK
  5
10
100
AcDbEntity
 67
     1
  8
0
100
AcDbBlockEnd
  0
BLOCK
  5
4F
100
AcDbEntity
  8
0
100
AcDbBlockBegin
  2
ZU_SYM__USERS_HOME_SYMBOL_POO_SYM_S07_-1
 70
    64
 10
0.0
 20
0.0
 30
0.0
  3
ZU_SYM__USERS_HOME_SYMBOL_POO_SYM_S07_-1
  1

  0
ARC
  5
50
100
AcDbEntity
  8
0
370
    -3
  6
Continuous
100
AcDbCircle
 10
-0.979025
 20
-2.200001
 30
0.0
 40
1.299999
100
AcDbArc
 50
196.601531
 51
270.0
  0
ARC
  5
51
100
AcDbEntity
  8
0
370
    -3
  6
Continuous
100
AcDbCircle
 10
-0.979025
 20
2.200001
 30
0.0
 40
1.299999
100
AcDbArc
 50
90.0
 51
163.398452
  0
LINE
  5
52
100
AcDbEntity
  8
0
370
    -3
  6
Continuous
100
AcDbLine
 10
0.0
 20
-3.5
 30
0.0
 11
-0.979025
 21
-3.5
 31
0.0
  0
LINE
  5
53
100
AcDbEntity
  8
0
370
    -3
  6
Continuous
100
AcDbLine
 10
0.0
 20
3.5
 30
0.0
 11
-0.979025
 21
3.5
 31
0.0
  0
LINE
  5
54
100
AcDbEntity
  8
0
370
    -3
  6
Continuous
100
AcDbLine
 10
0.0
 20
-3.5
 30
0.0
 11
0.0
 21
3.5
 31
0.0
  0
LINE
  5
55
100
AcDbEntity
  8
0
370
    -3
  6
Continuous
100
AcDbLine
 10
0.0
 20
-3.5
 30
0.0
 11
0.0
 21
3.5
 31
0.0
  0
POINT
  5
56
100
AcDbEntity
  8
0
370
    -3
  6
Continuous
100
AcDbPoint
 10
0.0
 20
0.0
 30
0.0
  0
ARC
  5
57
100
AcDbEntity
  8
0
370
    -3
  6
Continuous
100
AcDbCircle
 10
6.4
 20
0.0
 30
0.0
 40
9.0
100
AcDbArc
 50
163.398452
 51
196.601531
  0
ENDBLK
  5
58
100
AcDbEntity
  8
0
100
AcDbBlockEnd
  0
BLOCK
  5
5B
100
AcDbEntity
  8
0
100
AcDbBlockBegin
  2
ZU_SYM__USERS_HOME_SYMBOL_POO_SYM_S07_00001-1
 70
    64
 10
0.0
 20
0.0
 30
0.0
  3
ZU_SYM__USERS_HOME_SYMBOL_POO_SYM_S07_00001-1
  1

  0
ARC
  5
5C
100
AcDbEntity
  8
0
370
    -3
  6
Continuous
100
AcDbCircle
 10
-0.979025
 20
-2.200001
 30
0.0
 40
1.299999
100
AcDbArc
 50
196.601531
 51
270.0
  0
ARC
  5
5D
100
AcDbEntity
  8
0
370
    -3
  6
Continuous
100
AcDbCircle
 10
-0.979025
 20
2.200001
 30
0.0
 40
1.299999
100
AcDbArc
 50
90.0
 51
163.398452
  0
LINE
  5
5E
100
AcDbEntity
  8
0
370
    -3
  6
Continuous
100
AcDbLine
 10
0.0
 20
-3.5
 30
0.0
 11
-0.979025
 21
-3.5
 31
0.0
  0
LINE
  5
5F
100
AcDbEntity
  8
0
370
    -3
  6
Continuous
100
AcDbLine
 10
0.0
 20
3.5
 30
0.0
 11
-0.979025
 21
3.5
 31
0.0
  0
LINE
  5
60
100
AcDbEntity
  8
0
370
    -3
  6
Continuous
100
AcDbLine
 10
0.0
 20
-3.5
 30
0.0
 11
0.0
 21
3.5
 31
0.0
  0
LINE
  5
61
100
AcDbEntity
  8
0
370
    -3
  6
Continuous
100
AcDbLine
 10
0.0
 20
-3.5
 30
0.0
 11
0.0
 21
3.5
 31
0.0
  0
POINT
  5
62
100
AcDbEntity
  8
0
370
    -3
  6
Continuous
100
AcDbPoint
 10
0.0
 20
0.0
 30
0.0
  0
ARC
  5
63
100
AcDbEntity
  8
0
370
    -3
  6
Continuous
100
AcDbCircle
 10
6.4
 20
0.0
 30
0.0
 40
9.0
100
AcDbArc
 50
163.398452
 51
196.601531
  0
ENDBLK
  5
64
100
AcDbEntity
  8
0
100
AcDbBlockEnd
  0
BLOCK
  5
67
100
AcDbEntity
  8
0
100
AcDbBlockBegin
  2
ZU_SYM__USERS_HOME_SYMBOL_POO_SYM_S07_00002-1
 70
    64
 10
0.0
 20
0.0
 30
0.0
  3
ZU_SYM__USERS_HOME_SYMBOL_POO_SYM_S07_00002-1
  1

  0
ARC
  5
68
100
AcDbEntity
  8
0
370
    -3
  6
Continuous
100
AcDbCircle
 10
-0.979025
 20
-2.200001
 30
0.0
 40
1.299999
100
AcDbArc
 50
196.601531
 51
270.0
  0
ARC
  5
69
100
AcDbEntity
  8
0
370
    -3
  6
Continuous
100
AcDbCircle
 10
-0.979025
 20
2.200001
 30
0.0
 40
1.299999
100
AcDbArc
 50
90.0
 51
163.398452
  0
LINE
  5
6A
100
AcDbEntity
  8
0
370
    -3
  6
Continuous
100
AcDbLine
 10
0.0
 20
-3.5
 30
0.0
 11
-0.979025
 21
-3.5
 31
0.0
  0
LINE
  5
6B
100
AcDbEntity
  8
0
370
    -3
  6
Continuous
100
AcDbLine
 10
0.0
 20
3.5
 30
0.0
 11
-0.979025
 21
3.5
 31
0.0
  0
LINE
  5
6C
100
AcDbEntity
  8
0
370
    -3
  6
Continuous
100
AcDbLine
 10
0.0
 20
-3.5
 30
0.0
 11
0.0
 21
3.5
 31
0.0
  0
LINE
  5
6D
100
AcDbEntity
  8
0
370
    -3
  6
Continuous
100
AcDbLine
 10
0.0
 20
-3.5
 30
0.0
 11
0.0
 21
3.5
 31
0.0
  0
POINT
  5
6E
100
AcDbEntity
  8
0
370
    -3
  6
Continuous
100
AcDbPoint
 10
0.0
 20
0.0
 30
0.0
  0
ARC
  5
6F
100
AcDbEntity
  8
0
370
    -3
  6
Continuous
100
AcDbCircle
 10
6.4
 20
0.0
 30
0.0
 40
9.0
100
AcDbArc
 50
163.398452
 51
196.601531
  0
ENDBLK
  5
70
100
AcDbEntity
  8
0
100
AcDbBlockEnd
  0
BLOCK
  5
73
100
AcDbEntity
  8
0
100
AcDbBlockBegin
  2
ZU_SYM__USERS_HOME_SYMBOL_POO_SYM_S07_00003-1
 70
    64
 10
0.0
 20
0.0
 30
0.0
  3
ZU_SYM__USERS_HOME_SYMBOL_POO_SYM_S07_00003-1
  1

  0
ARC
  5
74
100
AcDbEntity
  8
0
370
    -3
  6
Continuous
100
AcDbCircle
 10
-0.979025
 20
-2.200001
 30
0.0
 40
1.299999
100
AcDbArc
 50
196.601531
 51
270.0
  0
ARC
  5
75
100
AcDbEntity
  8
0
370
    -3
  6
Continuous
100
AcDbCircle
 10
-0.979025
 20
2.200001
 30
0.0
 40
1.299999
100
AcDbArc
 50
90.0
 51
163.398452
  0
LINE
  5
76
100
AcDbEntity
  8
0
370
    -3
  6
Continuous
100
AcDbLine
 10
0.0
 20
-3.5
 30
0.0
 11
-0.979025
 21
-3.5
 31
0.0
  0
LINE
  5
77
100
AcDbEntity
  8
0
370
    -3
  6
Continuous
100
AcDbLine
 10
0.0
 20
3.5
 30
0.0
 11
-0.979025
 21
3.5
 31
0.0
  0
LINE
  5
78
100
AcDbEntity
  8
0
370
    -3
  6
Continuous
100
AcDbLine
 10
0.0
 20
-3.5
 30
0.0
 11
0.0
 21
3.5
 31
0.0
  0
LINE
  5
79
100
AcDbEntity
  8
0
370
    -3
  6
Continuous
100
AcDbLine
 10
0.0
 20
-3.5
 30
0.0
 11
0.0
 21
3.5
 31
0.0
  0
POINT
  5
7A
100
AcDbEntity
  8
0
370
    -3
  6
Continuous
100
AcDbPoint
 10
0.0
 20
0.0
 30
0.0
  0
ARC
  5
7B
100
AcDbEntity
  8
0
370
    -3
  6
Continuous
100
AcDbCircle
 10
6.4
 20
0.0
 30
0.0
 40
9.0
100
AcDbArc
 50
163.398452
 51
196.601531
  0
ENDBLK
  5
7C
100
AcDbEntity
  8
0
100
AcDbBlockEnd
  0
BLOCK
  5
209
100
AcDbEntity
  8
0
100
AcDbBlockBegin
  2
ZU_SYM__USERS_HOME_SYMBOL_POO_SYM_B20_-1
 70
    64
 10
0.0
 20
0.0
 30
0.0
  3
ZU_SYM__USERS_HOME_SYMBOL_POO_SYM_B20_-1
  1

  0
LINE
  5
20A
100
AcDbEntity
  8
0
370
    -3
  6
Continuous
100
AcDbLine
 10
-7.499999
 20
6.5
 30
0.0
 11
-7.499999
 21
-6.5
 31
0.0
  0
LINE
  5
20B
100
AcDbEntity
  8
0
370
    -3
  6
Continuous
100
AcDbLine
 10
-7.499998
 20
-6.499999
 30
0.0
 11
-7.999999
 21
-5.63407
 31
0.0
  0
LINE
  5
20C
100
AcDbEntity
  8
0
370
    -3
  6
Continuous
100
AcDbLine
 10
-7.499999
 20
6.5
 30
0.0
 11
-7.999999
 21
5.633876
 31
0.0
  0
LINE
  5
20D
100
AcDbEntity
  8
0
370
    -3
  6
Continuous
100
AcDbLine
 10
0.0
 20
-6.5
 30
0.0
 11
-7.499998
 21
-6.5
 31
0.0
  0
LINE
  5
20E
100
AcDbEntity
  8
0
370
    -3
  6
Continuous
100
AcDbLine
 10
0.0
 20
6.5
 30
0.0
 11
-7.499999
 21
6.5
 31
0.0
  0
LINE
  5
20F
100
AcDbEntity
  8
0
370
    -3
  6
Continuous
100
AcDbLine
 10
-7.999999
 20
5.633876
 30
0.0
 11
-7.999999
 21
-5.63407
 31
0.0
  0
LINE
  5
210
100
AcDbEntity
  8
0
370
    -3
  6
Continuous
100
AcDbLine
 10
0.0
 20
-6.5
 30
0.0
 11
0.0
 21
6.5
 31
0.0
  0
POINT
  5
211
100
AcDbEntity
  8
0
370
    -3
  6
Continuous
100
AcDbPoint
 10
0.0
 20
0.0
 30
0.0
  0
ENDBLK
  5
212
100
AcDbEntity
  8
0
100
AcDbBlockEnd
  0
BLOCK
  5
215
100
AcDbEntity
  8
0
100
AcDbBlockBegin
  2
ZU_SYM__USERS_HOME_SYMBOL_POO_SYM_B20_00004-1
 70
    64
 10
0.0
 20
0.0
 30
0.0
  3
ZU_SYM__USERS_HOME_SYMBOL_POO_SYM_B20_00004-1
  1

  0
LINE
  5
216
100
AcDbEntity
  8
0
370
    -3
  6
Continuous
100
AcDbLine
 10
-7.499999
 20
6.5
 30
0.0
 11
-7.499999
 21
-6.5
 31
0.0
  0
LINE
  5
217
100
AcDbEntity
  8
0
370
    -3
  6
Continuous
100
AcDbLine
 10
-7.499998
 20
-6.499999
 30
0.0
 11
-7.999999
 21
-5.63407
 31
0.0
  0
LINE
  5
218
100
AcDbEntity
  8
0
370
    -3
  6
Continuous
100
AcDbLine
 10
-7.499999
 20
6.5
 30
0.0
 11
-7.999999
 21
5.633876
 31
0.0
  0
LINE
  5
219
100
AcDbEntity
  8
0
370
    -3
  6
Continuous
100
AcDbLine
 10
0.0
 20
-6.5
 30
0.0
 11
-7.499998
 21
-6.5
 31
0.0
  0
LINE
  5
21A
100
AcDbEntity
  8
0
370
    -3
  6
Continuous
100
AcDbLine
 10
0.0
 20
6.5
 30
0.0
 11
-7.499999
 21
6.5
 31
0.0
  0
LINE
  5
21B
100
AcDbEntity
  8
0
370
    -3
  6
Continuous
100
AcDbLine
 10
-7.999999
 20
5.633876
 30
0.0
 11
-7.999999
 21
-5.63407
 31
0.0
  0
LINE
  5
21C
100
AcDbEntity
  8
0
370
    -3
  6
Continuous
100
AcDbLine
 10
0.0
 20
-6.5
 30
0.0
 11
0.0
 21
6.5
 31
0.0
  0
POINT
  5
21D
100
AcDbEntity
  8
0
370
    -3
  6
Continuous
100
AcDbPoint
 10
0.0
 20
0.0
 30
0.0
  0
ENDBLK
  5
21E
100
AcDbEntity
  8
0
100
AcDbBlockEnd
  0
BLOCK
  5
2F3
100
AcDbEntity
  8
0
100
AcDbBlockBegin
  2
ZU_SYM__USERS_HOME_SYMBOL_POO_SYM_B20_00005-1
 70
    64
 10
0.0
 20
0.0
 30
0.0
  3
ZU_SYM__USERS_HOME_SYMBOL_POO_SYM_B20_00005-1
  1

  0
POINT
  5
2F4
100
AcDbEntity
  8
0
370
    -3
  6
Continuous
100
AcDbPoint
 10
0.0
 20
0.0
 30
0.0
  0
LINE
  5
2F5
100
AcDbEntity
  8
0
370
    -3
  6
Continuous
100
AcDbLine
 10
0.0
 20
-6.5
 30
0.0
 11
0.0
 21
6.5
 31
0.0
  0
LINE
  5
2F6
100
AcDbEntity
  8
0
370
    -3
  6
Continuous
100
AcDbLine
 10
-7.999999
 20
5.633876
 30
0.0
 11
-7.999999
 21
-5.63407
 31
0.0
  0
LINE
  5
2F7
100
AcDbEntity
  8
0
370
    -3
  6
Continuous
100
AcDbLine
 10
0.0
 20
6.5
 30
0.0
 11
-7.499999
 21
6.5
 31
0.0
  0
LINE
  5
2F8
100
AcDbEntity
  8
0
370
    -3
  6
Continuous
100
AcDbLine
 10
0.0
 20
-6.5
 30
0.0
 11
-7.499998
 21
-6.5
 31
0.0
  0
LINE
  5
2F9
100
AcDbEntity
  8
0
370
    -3
  6
Continuous
100
AcDbLine
 10
-7.499999
 20
6.5
 30
0.0
 11
-7.999999
 21
5.633876
 31
0.0
  0
LINE
  5
2FA
100
AcDbEntity
  8
0
370
    -3
  6
Continuous
100
AcDbLine
 10
-7.499998
 20
-6.499999
 30
0.0
 11
-7.999999
 21
-5.63407
 31
0.0
  0
LINE
  5
2FB
100
AcDbEntity
  8
0
370
    -3
  6
Continuous
100
AcDbLine
 10
-7.499999
 20
6.5
 30
0.0
 11
-7.499999
 21
-6.5
 31
0.0
  0
ENDBLK
  5
2FC
100
AcDbEntity
  8
0
100
AcDbBlockEnd
  0
ENDSEC
  0
SECTION
  2
ENTITIES
  0
LINE
  5
2A
100
AcDbEntity
  8
0
370
    -3
  6
CENTER
100
AcDbLine
 10
-170.984253
 20
-113.458715
 30
0.0
 11
-446.580044
 21
-113.458044
 31
0.0
  0
LINE
  5
2B
100
AcDbEntity
  8
0
370
    -3
  6
CENTER
100
AcDbLine
 10
-368.217799
 20
-133.458289
 30
0.0
 11
-329.245274
 21
-133.458289
 31
0.0
  0
LINE
  5
2C
100
AcDbEntity
  8
0
370
    -3
  6
Continuous
100
AcDbLine
 10
-258.910092
 20
-87.458501
 30
0.0
 11
-258.910167
 21
-118.148793
 31
0.0
  0
LINE
  5
2D
100
AcDbEntity
  8
0
370
    -3
  6
Continuous
100
AcDbLine
 10
-258.610229
 20
-138.458502
 30
0.0
 11
-183.910216
 21
-138.458683
 31
0.0
  0
LINE
  5
2E
100
AcDbEntity
  8
0
370
    -3
  6
Continuous
100
AcDbLine
 10
-183.910086
 20
-84.958683
 30
0.0
 11
-183.910216
 21
-138.458683
 31
0.0
  0
LINE
  5
2F
100
AcDbEntity
  8
0
370
    -3
  6
Continuous
100
AcDbLine
 10
-258.910095
 20
-88.458501
 30
0.0
 11
-183.910095
 21
-88.458683
 31
0.0
  0
LINE
  5
30
100
AcDbEntity
  8
0
370
    -3
  6
Continuous
100
AcDbLine
 10
-260.910092
 20
-87.458496
 30
0.0
 11
-258.910092
 21
-87.458501
 31
0.0
  0
LINE
  5
31
100
AcDbEntity
  8
0
370
    -3
  6
Continuous
100
AcDbLine
 10
-246.910095
 20
-88.45853
 30
0.0
 11
-246.910086
 21
-84.95853
 31
0.0
  0
LINE
  5
32
100
AcDbEntity
  8
0
370
    -3
  6
Continuous
100
AcDbLine
 10
-246.910086
 20
-84.95853
 30
0.0
 11
-183.910086
 21
-84.958683
 31
0.0
  0
LINE
  5
33
100
AcDbEntity
  8
0
370
    -3
  6
CENTER
100
AcDbLine
 10
-345.910017
 20
23.108632
 30
0.0
 11
-345.910398
 21
-289.968806
 31
0.0
  0
LINE
  5
34
100
AcDbEntity
  8
0
370
    -3
  6
Continuous
100
AcDbLine
 10
-265.910212
 20
-12.81164
 30
0.0
 11
-265.910212
 21
-87.309186
 31
0.0
  0
LINE
  5
35
100
AcDbEntity
  8
0
370
    -3
  6
Continuous
100
AcDbLine
 10
-266.909526
 20
-11.785815
 30
0.0
 11
-265.910212
 21
-12.81164
 31
0.0
  0
LINE
  5
36
100
AcDbEntity
  8
0
370
    -3
  6
Continuous
100
AcDbLine
 10
-266.909526
 20
-261.144224
 30
0.0
 11
-279.410212
 21
-261.471566
 31
0.0
  0
LINE
  5
37
100
AcDbEntity
  8
0
370
    -3
  6
Continuous
100
AcDbLine
 10
-424.910897
 20
-261.144224
 30
0.0
 11
-412.410212
 21
-261.471566
 31
0.0
  0
LINE
  5
38
100
AcDbEntity
  8
0
370
    -3
  6
Continuous
100
AcDbLine
 10
-348.910212
 20
-220.746774
 30
0.0
 11
-348.910212
 21
-265.353711
 31
0.0
  0
LINE
  5
39
100
AcDbEntity
  8
0
370
    -3
  6
Continuous
100
AcDbLine
 10
-345.910212
 20
-265.458473
 30
0.0
 11
-279.410212
 21
-263.136242
 31
0.0
  0
LINE
  5
3A
100
AcDbEntity
  8
0
370
    -3
  6
Continuous
100
AcDbLine
 10
-279.410212
 20
-9.780704
 30
0.0
 11
-279.410212
 21
-62.883707
 31
0.0
  0
LINE
  5
3B
100
AcDbEntity
  8
0
370
    -3
  6
Continuous
100
AcDbLine
 10
-348.910212
 20
-265.353711
 30
0.0
 11
-412.410212
 21
-263.136242
 31
0.0
  0
LINE
  5
3C
100
AcDbEntity
  8
0
370
    -3
  6
Continuous
100
AcDbLine
 10
-412.410212
 20
-9.780704
 30
0.0
 11
-412.410212
 21
-62.883711
 31
0.0
  0
LINE
  5
3D
100
AcDbEntity
  8
0
370
    -3
  6
Continuous
100
AcDbLine
 10
-260.910212
 20
-38.458289
 30
0.0
 11
-260.910212
 21
-101.026305
 31
0.0
  0
LINE
  5
3E
100
AcDbEntity
  8
0
370
    -3
  6
Continuous
100
AcDbLine
 10
-299.110208
 20
-9.092765
 30
0.0
 11
-279.410212
 21
-9.780704
 31
0.0
  0
LINE
  5
3F
100
AcDbEntity
  8
0
370
    -3
  6
Continuous
100
AcDbLine
 10
-266.909526
 20
-261.144224
 30
0.0
 11
-265.910212
 21
-260.118399
 31
0.0
  0
LINE
  5
40
100
AcDbEntity
  8
0
370
    -3
  6
Continuous
100
AcDbLine
 10
-279.410212
 20
-11.458473
 30
0.0
 11
-266.909526
 21
-11.785815
 31
0.0
  0
LINE
  5
41
100
AcDbEntity
  8
0
370
    -3
  6
Continuous
100
AcDbLine
 10
-266.909526
 20
-11.785815
 30
0.0
 11
-265.910212
 21
-12.81164
 31
0.0
  0
LINE
  5
42
100
AcDbEntity
  8
0
370
    -3
  6
Continuous
100
AcDbLine
 10
-345.910212
 20
-220.758289
 30
0.0
 11
-345.910212
 21
-263.458473
 31
0.0
  0
LINE
  5
43
100
AcDbEntity
  8
0
370
    -3
  6
Continuous
100
AcDbLine
 10
-430.910212
 20
-38.458473
 30
0.0
 11
-430.910212
 21
-101.026335
 31
0.0
  0
LINE
  5
44
100
AcDbEntity
  8
0
370
    -3
  6
Continuous
100
AcDbLine
 10
-425.910212
 20
-12.81164
 30
0.0
 11
-425.910212
 21
-87.309201
 31
0.0
  0
LINE
  5
45
100
AcDbEntity
  8
0
370
    -3
  6
Continuous
100
AcDbLine
 10
-425.910212
 20
-38.458473
 30
0.0
 11
-430.910212
 21
-38.458473
 31
0.0
  0
LINE
  5
46
100
AcDbEntity
  8
0
370
    -3
  6
Continuous
100
AcDbLine
 10
-425.910212
 20
-188.458473
 30
0.0
 11
-430.910212
 21
-188.458473
 31
0.0
  0
LINE
  5
47
100
AcDbEntity
  8
0
370
    -3
  6
Continuous
100
AcDbLine
 10
-348.9061
 20
-263.615481
 30
0.0
 11
-345.910212
 21
-263.458473
 31
0.0
  0
LINE
  5
48
100
AcDbEntity
  8
0
370
    -3
  6
Continuous
100
AcDbLine
 10
-392.710208
 20
-9.092765
 30
0.0
 11
-412.410212
 21
-9.780704
 31
0.0
  0
LINE
  5
49
100
AcDbEntity
  8
0
370
    -3
  6
Continuous
100
AcDbLine
 10
-424.910897
 20
-261.144224
 30
0.0
 11
-425.910212
 21
-260.118399
 31
0.0
  0
LINE
  5
4A
100
AcDbEntity
  8
0
370
    -3
  6
Continuous
100
AcDbLine
 10
-424.910897
 20
-11.785815
 30
0.0
 11
-425.910212
 21
-12.81164
 31
0.0
  0
LINE
  5
4B
100
AcDbEntity
  8
0
370
    -3
  6
Continuous
100
AcDbLine
 10
-412.410212
 20
-11.458473
 30
0.0
 11
-424.910897
 21
-11.785815
 31
0.0
  0
LINE
  5
4C
100
AcDbEntity
  8
0
370
    -3
  6
Continuous
100
AcDbLine
 10
-265.910212
 20
-38.458289
 30
0.0
 11
-260.910212
 21
-38.458289
 31
0.0
  0
LINE
  5
4D
100
AcDbEntity
  8
0
370
    -3
  6
Continuous
100
AcDbLine
 10
-265.910212
 20
-188.458289
 30
0.0
 11
-260.910212
 21
-188.458289
 31
0.0
  0
INSERT
  5
59
100
AcDbEntity
  8
0
100
AcDbBlockReference
  2
ZU_SYM__USERS_HOME_SYMBOL_POO_SYM_S07_-1
 10
-412.943931
 20
-200.492012
 30
0.0
 41
1.0
 42
1.0
 50
45.0
  0
INSERT
  5
65
100
AcDbEntity
  8
0
100
AcDbBlockReference
  2
ZU_SYM__USERS_HOME_SYMBOL_POO_SYM_S07_00001-1
 10
-412.943931
 20
-66.424566
 30
0.0
 41
-1.0
 42
1.0
 50
135.0
  0
INSERT
  5
71
100
AcDbEntity
  8
0
100
AcDbBlockReference
  2
ZU_SYM__USERS_HOME_SYMBOL_POO_SYM_S07_00002-1
 10
-278.876485
 20
-66.424566
 30
0.0
 41
1.0
 42
1.0
 50
225.0
  0
INSERT
  5
7D
100
AcDbEntity
  8
0
100
AcDbBlockReference
  2
ZU_SYM__USERS_HOME_SYMBOL_POO_SYM_S07_00003-1
 10
-278.876485
 20
-200.492012
 30
0.0
 41
-1.0
 42
1.0
 50
315.0
  0
ARC
  5
7E
100
AcDbEntity
  8
0
370
    -3
  6
Continuous
100
AcDbCircle
 10
-345.910208
 20
-133.458289
 30
0.0
 40
76.8
100
AcDbArc
 50
218.737581
 51
231.262419
  0
ARC
  5
7F
100
AcDbEntity
  8
0
370
    -3
  6
Continuous
100
AcDbCircle
 10
-345.910208
 20
-133.458289
 30
0.0
 40
92.8
100
AcDbArc
 50
218.737581
 51
231.262419
  0
ARC
  5
80
100
AcDbEntity
  8
0
370
    -3
  6
Continuous
100
AcDbCircle
 10
-366.970752
 20
-150.353658
 30
0.0
 40
65.8
100
AcDbArc
 50
182.979907
 51
218.737581
  0
ARC
  5
81
100
AcDbEntity
  8
0
370
    -3
  6
Continuous
100
AcDbCircle
 10
-362.805577
 20
-154.518833
 30
0.0
 40
65.8
100
AcDbArc
 50
231.262419
 51
267.020093
  0
LINE
  5
82
100
AcDbEntity
  8
0
370
    -3
  6
Continuous
100
AcDbLine
 10
-415.701647
 20
-196.17866
 30
0.0
 11
-414.969936
 21
-195.446949
 31
0.0
  0
LINE
  5
83
100
AcDbEntity
  8
0
370
    -3
  6
Continuous
100
AcDbLine
 10
-412.378245
 20
-199.926326
 30
0.0
 11
-415.701647
 21
-196.602925
 31
0.0
  0
LINE
  5
84
100
AcDbEntity
  8
0
370
    -3
  6
Continuous
100
AcDbLine
 10
-412.943931
 20
-200.492012
 30
0.0
 11
-416.125911
 21
-197.310031
 31
0.0
  0
LINE
  5
85
100
AcDbEntity
  8
0
370
    -3
  6
Continuous
100
AcDbLine
 10
-413.898525
 20
-198.406047
 30
0.0
 11
-415.701647
 21
-196.602925
 31
0.0
  0
LINE
  5
86
100
AcDbEntity
  8
0
370
    -3
  6
Continuous
100
AcDbLine
 10
-416.125911
 20
-197.310031
 30
0.0
 11
-415.560226
 21
-196.744346
 31
0.0
  0
ARC
  5
87
100
AcDbEntity
  8
0
370
    -3
  6
Continuous
100
AcDbCircle
 10
-415.489515
 20
-196.390793
 30
0.0
 40
0.3
100
AcDbArc
 50
135.0
 51
225.0
  0
LINE
  5
88
100
AcDbEntity
  8
0
370
    -3
  6
Continuous
100
AcDbLine
 10
-412.378245
 20
-199.926326
 30
0.0
 11
-409.054843
 21
-203.249728
 31
0.0
  0
LINE
  5
89
100
AcDbEntity
  8
0
370
    -3
  6
Continuous
100
AcDbLine
 10
-412.943931
 20
-200.492012
 30
0.0
 11
-409.76195
 21
-203.673992
 31
0.0
  0
LINE
  5
8A
100
AcDbEntity
  8
0
370
    -3
  6
Continuous
100
AcDbLine
 10
-408.630579
 20
-203.249728
 30
0.0
 11
-407.898868
 21
-202.518017
 31
0.0
  0
LINE
  5
8B
100
AcDbEntity
  8
0
370
    -3
  6
Continuous
100
AcDbLine
 10
-413.898525
 20
-198.406047
 30
0.0
 11
-415.560226
 21
-196.744346
 31
0.0
  0
LINE
  5
8C
100
AcDbEntity
  8
0
370
    -3
  6
Continuous
100
AcDbLine
 10
-410.857966
 20
-201.446606
 30
0.0
 11
-409.054843
 21
-203.249728
 31
0.0
  0
LINE
  5
8D
100
AcDbEntity
  8
0
370
    -3
  6
Continuous
100
AcDbLine
 10
-409.76195
 20
-203.673992
 30
0.0
 11
-409.196265
 21
-203.108307
 31
0.0
  0
ARC
  5
8E
100
AcDbEntity
  8
0
370
    -3
  6
Continuous
100
AcDbCircle
 10
-408.842711
 20
-203.037596
 30
0.0
 40
0.3
100
AcDbArc
 50
225.0
 51
315.0
  0
ARC
  5
8F
100
AcDbEntity
  8
0
370
    -3
  6
Continuous
100
AcDbCircle
 10
-345.910208
 20
-133.458289
 30
0.0
 40
92.8
100
AcDbArc
 50
128.737581
 51
141.262419
  0
ARC
  5
90
100
AcDbEntity
  8
0
370
    -3
  6
Continuous
100
AcDbCircle
 10
-366.970752
 20
-116.56292
 30
0.0
 40
65.8
100
AcDbArc
 50
141.262419
 51
177.020093
  0
LINE
  5
91
100
AcDbEntity
  8
0
370
    -3
  6
Continuous
100
AcDbLine
 10
-412.378245
 20
-66.990252
 30
0.0
 11
-415.701647
 21
-70.313653
 31
0.0
  0
LINE
  5
92
100
AcDbEntity
  8
0
370
    -3
  6
Continuous
100
AcDbLine
 10
-412.943931
 20
-66.424566
 30
0.0
 11
-416.125911
 21
-69.606547
 31
0.0
  0
LINE
  5
93
100
AcDbEntity
  8
0
370
    -3
  6
Continuous
100
AcDbLine
 10
-415.701647
 20
-70.737918
 30
0.0
 11
-414.969936
 21
-71.469629
 31
0.0
  0
LINE
  5
94
100
AcDbEntity
  8
0
370
    -3
  6
Continuous
100
AcDbLine
 10
-413.898525
 20
-68.510531
 30
0.0
 11
-415.701647
 21
-70.313653
 31
0.0
  0
LINE
  5
95
100
AcDbEntity
  8
0
370
    -3
  6
Continuous
100
AcDbLine
 10
-416.125911
 20
-69.606547
 30
0.0
 11
-415.560226
 21
-70.172232
 31
0.0
  0
ARC
  5
96
100
AcDbEntity
  8
0
370
    -3
  6
Continuous
100
AcDbCircle
 10
-415.489515
 20
-70.525785
 30
0.0
 40
0.3
100
AcDbArc
 50
135.0
 51
225.0
  0
LINE
  5
97
100
AcDbEntity
  8
0
370
    -3
  6
Continuous
100
AcDbLine
 10
-412.378245
 20
-66.990252
 30
0.0
 11
-409.054843
 21
-63.66685
 31
0.0
  0
LINE
  5
98
100
AcDbEntity
  8
0
370
    -3
  6
Continuous
100
AcDbLine
 10
-412.943931
 20
-66.424566
 30
0.0
 11
-409.76195
 21
-63.242586
 31
0.0
  0
LINE
  5
99
100
AcDbEntity
  8
0
370
    -3
  6
Continuous
100
AcDbLine
 10
-408.630579
 20
-63.66685
 30
0.0
 11
-407.898868
 21
-64.398561
 31
0.0
  0
LINE
  5
9A
100
AcDbEntity
  8
0
370
    -3
  6
Continuous
100
AcDbLine
 10
-413.898525
 20
-68.510531
 30
0.0
 11
-415.560226
 21
-70.172232
 31
0.0
  0
LINE
  5
9B
100
AcDbEntity
  8
0
370
    -3
  6
Continuous
100
AcDbLine
 10
-410.857966
 20
-65.469972
 30
0.0
 11
-409.054843
 21
-63.66685
 31
0.0
  0
LINE
  5
9C
100
AcDbEntity
  8
0
370
    -3
  6
Continuous
100
AcDbLine
 10
-409.76195
 20
-63.242586
 30
0.0
 11
-409.196265
 21
-63.808271
 31
0.0
  0
ARC
  5
9D
100
AcDbEntity
  8
0
370
    -3
  6
Continuous
100
AcDbCircle
 10
-408.842711
 20
-63.878982
 30
0.0
 40
0.3
100
AcDbArc
 50
45.0
 51
135.0
  0
ARC
  5
9E
100
AcDbEntity
  8
0
370
    -3
  6
Continuous
100
AcDbCircle
 10
-345.910208
 20
-133.458289
 30
0.0
 40
76.8
100
AcDbArc
 50
38.737581
 51
51.262419
  0
ARC
  5
9F
100
AcDbEntity
  8
0
370
    -3
  6
Continuous
100
AcDbCircle
 10
-345.910208
 20
-133.458289
 30
0.0
 40
92.8
100
AcDbArc
 50
38.737581
 51
51.262419
  0
ARC
  5
A0
100
AcDbEntity
  8
0
370
    -3
  6
Continuous
100
AcDbCircle
 10
-324.849664
 20
-116.56292
 30
0.0
 40
65.8
100
AcDbArc
 50
2.979907
 51
38.737581
  0
ARC
  5
A1
100
AcDbEntity
  8
0
370
    -3
  6
Continuous
100
AcDbCircle
 10
-329.014839
 20
-112.397745
 30
0.0
 40
65.8
100
AcDbArc
 50
51.262419
 51
87.020093
  0
LINE
  5
A2
100
AcDbEntity
  8
0
370
    -3
  6
Continuous
100
AcDbLine
 10
-279.44217
 20
-66.990252
 30
0.0
 11
-276.118769
 21
-70.313653
 31
0.0
  0
LINE
  5
A3
100
AcDbEntity
  8
0
370
    -3
  6
Continuous
100
AcDbLine
 10
-278.876485
 20
-66.424566
 30
0.0
 11
-275.694504
 21
-69.606547
 31
0.0
  0
LINE
  5
A4
100
AcDbEntity
  8
0
370
    -3
  6
Continuous
100
AcDbLine
 10
-276.118769
 20
-70.737918
 30
0.0
 11
-276.85048
 21
-71.469629
 31
0.0
  0
LINE
  5
A5
100
AcDbEntity
  8
0
370
    -3
  6
Continuous
100
AcDbLine
 10
-277.921891
 20
-68.510531
 30
0.0
 11
-276.118769
 21
-70.313653
 31
0.0
  0
LINE
  5
A6
100
AcDbEntity
  8
0
370
    -3
  6
Continuous
100
AcDbLine
 10
-275.694504
 20
-69.606547
 30
0.0
 11
-276.26019
 21
-70.172232
 31
0.0
  0
ARC
  5
A7
100
AcDbEntity
  8
0
370
    -3
  6
Continuous
100
AcDbCircle
 10
-276.330901
 20
-70.525785
 30
0.0
 40
0.3
100
AcDbArc
 50
315.0
 51
45.0
  0
LINE
  5
A8
100
AcDbEntity
  8
0
370
    -3
  6
Continuous
100
AcDbLine
 10
-279.44217
 20
-66.990252
 30
0.0
 11
-282.765572
 21
-63.66685
 31
0.0
  0
LINE
  5
A9
100
AcDbEntity
  8
0
370
    -3
  6
Continuous
100
AcDbLine
 10
-278.876485
 20
-66.424566
 30
0.0
 11
-282.058466
 21
-63.242586
 31
0.0
  0
LINE
  5
AA
100
AcDbEntity
  8
0
370
    -3
  6
Continuous
100
AcDbLine
 10
-283.189836
 20
-63.66685
 30
0.0
 11
-283.921548
 21
-64.398561
 31
0.0
  0
LINE
  5
AB
100
AcDbEntity
  8
0
370
    -3
  6
Continuous
100
AcDbLine
 10
-277.921891
 20
-68.510531
 30
0.0
 11
-276.26019
 21
-70.172232
 31
0.0
  0
LINE
  5
AC
100
AcDbEntity
  8
0
370
    -3
  6
Continuous
100
AcDbLine
 10
-280.96245
 20
-65.469972
 30
0.0
 11
-282.765572
 21
-63.66685
 31
0.0
  0
LINE
  5
AD
100
AcDbEntity
  8
0
370
    -3
  6
Continuous
100
AcDbLine
 10
-282.058466
 20
-63.242586
 30
0.0
 11
-282.624151
 21
-63.808271
 31
0.0
  0
ARC
  5
AE
100
AcDbEntity
  8
0
370
    -3
  6
Continuous
100
AcDbCircle
 10
-282.977704
 20
-63.878982
 30
0.0
 40
0.3
100
AcDbArc
 50
45.0
 51
135.0
  0
ARC
  5
AF
100
AcDbEntity
  8
0
370
    -3
  6
Continuous
100
AcDbCircle
 10
-345.910208
 20
-133.458289
 30
0.0
 40
92.8
100
AcDbArc
 50
308.737581
 51
321.262419
  0
ARC
  5
B0
100
AcDbEntity
  8
0
370
    -3
  6
Continuous
100
AcDbCircle
 10
-329.014839
 20
-154.518833
 30
0.0
 40
65.8
100
AcDbArc
 50
272.979907
 51
308.737581
  0
LINE
  5
B1
100
AcDbEntity
  8
0
370
    -3
  6
Continuous
100
AcDbLine
 10
-279.44217
 20
-199.926326
 30
0.0
 11
-276.118769
 21
-196.602925
 31
0.0
  0
LINE
  5
B2
100
AcDbEntity
  8
0
370
    -3
  6
Continuous
100
AcDbLine
 10
-278.876485
 20
-200.492012
 30
0.0
 11
-275.694504
 21
-197.310031
 31
0.0
  0
LINE
  5
B3
100
AcDbEntity
  8
0
370
    -3
  6
Continuous
100
AcDbLine
 10
-276.118769
 20
-196.17866
 30
0.0
 11
-276.85048
 21
-195.446949
 31
0.0
  0
LINE
  5
B4
100
AcDbEntity
  8
0
370
    -3
  6
Continuous
100
AcDbLine
 10
-277.921891
 20
-198.406047
 30
0.0
 11
-276.118769
 21
-196.602925
 31
0.0
  0
LINE
  5
B5
100
AcDbEntity
  8
0
370
    -3
  6
Continuous
100
AcDbLine
 10
-275.694504
 20
-197.310031
 30
0.0
 11
-276.26019
 21
-196.744346
 31
0.0
  0
ARC
  5
B6
100
AcDbEntity
  8
0
370
    -3
  6
Continuous
100
AcDbCircle
 10
-276.330901
 20
-196.390793
 30
0.0
 40
0.3
100
AcDbArc
 50
315.0
 51
45.0
  0
LINE
  5
B7
100
AcDbEntity
  8
0
370
    -3
  6
Continuous
100
AcDbLine
 10
-279.44217
 20
-199.926326
 30
0.0
 11
-282.765572
 21
-203.249728
 31
0.0
  0
LINE
  5
B8
100
AcDbEntity
  8
0
370
    -3
  6
Continuous
100
AcDbLine
 10
-278.876485
 20
-200.492012
 30
0.0
 11
-282.058466
 21
-203.673992
 31
0.0
  0
LINE
  5
B9
100
AcDbEntity
  8
0
370
    -3
  6
Continuous
100
AcDbLine
 10
-283.189836
 20
-203.249728
 30
0.0
 11
-283.921548
 21
-202.518017
 31
0.0
  0
LINE
  5
BA
100
AcDbEntity
  8
0
370
    -3
  6
Continuous
100
AcDbLine
 10
-277.921891
 20
-198.406047
 30
0.0
 11
-276.26019
 21
-196.744346
 31
0.0
  0
LINE
  5
BB
100
AcDbEntity
  8
0
370
    -3
  6
Continuous
100
AcDbLine
 10
-280.96245
 20
-201.446606
 30
0.0
 11
-282.765572
 21
-203.249728
 31
0.0
  0
LINE
  5
BC
100
AcDbEntity
  8
0
370
    -3
  6
Continuous
100
AcDbLine
 10
-282.058466
 20
-203.673992
 30
0.0
 11
-282.624151
 21
-203.108307
 31
0.0
  0
ARC
  5
BD
100
AcDbEntity
  8
0
370
    -3
  6
Continuous
100
AcDbCircle
 10
-282.977704
 20
-203.037596
 30
0.0
 40
0.3
100
AcDbArc
 50
225.0
 51
315.0
  0
ARC
  5
BE
100
AcDbEntity
  8
0
370
    -3
  6
Continuous
100
AcDbCircle
 10
-382.463178
 20
-184.76989
 30
0.0
 40
2.0
100
AcDbArc
 50
234.534976
 51
330.0
  0
ARC
  5
BF
100
AcDbEntity
  8
0
370
    -3
  6
Continuous
100
AcDbCircle
 10
-382.463178
 20
-82.146688
 30
0.0
 40
2.0
100
AcDbArc
 50
30.0
 51
125.465024
  0
ARC
  5
C0
100
AcDbEntity
  8
0
370
    -3
  6
Continuous
100
AcDbCircle
 10
-381.960858
 20
-83.016732
 30
0.0
 40
2.0
100
AcDbArc
 50
305.553444
 51
30.0
  0
ARC
  5
C1
100
AcDbEntity
  8
0
370
    -3
  6
Continuous
100
AcDbCircle
 10
-377.436001
 20
-90.854013
 30
0.0
 40
2.0
100
AcDbArc
 50
30.0
 51
126.50025
  0
ARC
  5
C2
100
AcDbEntity
  8
0
370
    -3
  6
Continuous
100
AcDbCircle
 10
-375.673869
 20
-93.906115
 30
0.0
 40
2.0
100
AcDbArc
 50
306.962063
 51
30.0
  0
ARC
  5
C3
100
AcDbEntity
  8
0
370
    -3
  6
Continuous
100
AcDbCircle
 10
-371.132905
 20
-101.771296
 30
0.0
 40
2.0
100
AcDbArc
 50
30.0
 51
128.519624
  0
ARC
  5
C4
100
AcDbEntity
  8
0
370
    -3
  6
Continuous
100
AcDbCircle
 10
-369.361497
 20
-104.839465
 30
0.0
 40
2.0
100
AcDbArc
 50
309.332418
 51
30.0
  0
ARC
  5
C5
100
AcDbEntity
  8
0
370
    -3
  6
Continuous
100
AcDbCircle
 10
-364.781155
 20
-112.77285
 30
0.0
 40
2.0
100
AcDbArc
 50
30.0
 51
132.373625
  0
ARC
  5
C6
100
AcDbEntity
  8
0
370
    -3
  6
Continuous
100
AcDbCircle
 10
-362.983334
 20
-115.886767
 30
0.0
 40
2.0
100
AcDbArc
 50
314.175804
 51
30.0
  0
ARC
  5
C7
100
AcDbEntity
  8
0
370
    -3
  6
Continuous
100
AcDbCircle
 10
-358.252163
 20
-124.081395
 30
0.0
 40
2.0
100
AcDbArc
 50
30.0
 51
142.773972
  0
ARC
  5
C8
100
AcDbEntity
  8
0
370
    -3
  6
Continuous
100
AcDbCircle
 10
-356.302513
 20
-127.458289
 30
0.0
 40
2.0
100
AcDbArc
 50
330.0
 51
30.0
  0
ARC
  5
C9
100
AcDbEntity
  8
0
370
    -3
  6
Continuous
100
AcDbCircle
 10
-345.910208
 20
-121.458289
 30
0.0
 40
2.0
100
AcDbArc
 50
210.0
 51
270.0
  0
ARC
  5
CA
100
AcDbEntity
  8
0
370
    -3
  6
Continuous
100
AcDbCircle
 10
-347.859858
 20
-118.081395
 30
0.0
 40
2.0
100
AcDbArc
 50
97.226028
 51
210.0
  0
ARC
  5
CB
100
AcDbEntity
  8
0
370
    -3
  6
Continuous
100
AcDbCircle
 10
-352.591029
 20
-109.886767
 30
0.0
 40
2.0
100
AcDbArc
 50
210.0
 51
285.824196
  0
ARC
  5
CC
100
AcDbEntity
  8
0
370
    -3
  6
Continuous
100
AcDbCircle
 10
-354.38885
 20
-106.77285
 30
0.0
 40
2.0
100
AcDbArc
 50
107.626375
 51
210.0
  0
ARC
  5
CD
100
AcDbEntity
  8
0
370
    -3
  6
Continuous
100
AcDbCircle
 10
-358.969192
 20
-98.839465
 30
0.0
 40
2.0
100
AcDbArc
 50
210.0
 51
290.667582
  0
ARC
  5
CE
100
AcDbEntity
  8
0
370
    -3
  6
Continuous
100
AcDbCircle
 10
-360.7406
 20
-95.771296
 30
0.0
 40
2.0
100
AcDbArc
 50
111.480376
 51
210.0
  0
ARC
  5
CF
100
AcDbEntity
  8
0
370
    -3
  6
Continuous
100
AcDbCircle
 10
-365.281564
 20
-87.906115
 30
0.0
 40
2.0
100
AcDbArc
 50
210.0
 51
293.037937
  0
ARC
  5
D0
100
AcDbEntity
  8
0
370
    -3
  6
Continuous
100
AcDbCircle
 10
-367.043697
 20
-84.854013
 30
0.0
 40
2.0
100
AcDbArc
 50
113.49975
 51
210.0
  0
ARC
  5
D1
100
AcDbEntity
  8
0
370
    -3
  6
Continuous
100
AcDbCircle
 10
-371.568553
 20
-77.016732
 30
0.0
 40
2.0
100
AcDbArc
 50
210.0
 51
294.446556
  0
ARC
  5
D2
100
AcDbEntity
  8
0
370
    -3
  6
Continuous
100
AcDbCircle
 10
-372.070873
 20
-76.146688
 30
0.0
 40
2.0
100
AcDbArc
 50
114.534976
 51
210.0
  0
LINE
  5
D3
100
AcDbEntity
  8
0
370
    -3
  6
Continuous
100
AcDbLine
 10
-380.228807
 20
-82.016732
 30
0.0
 11
-380.731127
 21
-81.146688
 31
0.0
  0
LINE
  5
D4
100
AcDbEntity
  8
0
370
    -3
  6
Continuous
100
AcDbLine
 10
-373.941818
 20
-92.906115
 30
0.0
 11
-375.703951
 21
-89.854013
 31
0.0
  0
LINE
  5
D5
100
AcDbEntity
  8
0
370
    -3
  6
Continuous
100
AcDbLine
 10
-367.629446
 20
-103.839465
 30
0.0
 11
-369.400854
 21
-100.771296
 31
0.0
  0
LINE
  5
D6
100
AcDbEntity
  8
0
370
    -3
  6
Continuous
100
AcDbLine
 10
-361.251283
 20
-114.886767
 30
0.0
 11
-363.049104
 21
-111.77285
 31
0.0
  0
LINE
  5
D7
100
AcDbEntity
  8
0
370
    -3
  6
Continuous
100
AcDbLine
 10
-354.32308
 20
-110.886767
 30
0.0
 11
-356.120901
 21
-107.77285
 31
0.0
  0
LINE
  5
D8
100
AcDbEntity
  8
0
370
    -3
  6
Continuous
100
AcDbLine
 10
-360.701242
 20
-99.839465
 30
0.0
 11
-362.472651
 21
-96.771296
 31
0.0
  0
LINE
  5
D9
100
AcDbEntity
  8
0
370
    -3
  6
Continuous
100
AcDbLine
 10
-367.013615
 20
-88.906115
 30
0.0
 11
-368.775747
 21
-85.854013
 31
0.0
  0
LINE
  5
DA
100
AcDbEntity
  8
0
370
    -3
  6
Continuous
100
AcDbLine
 10
-373.300603
 20
-78.016732
 30
0.0
 11
-373.802924
 21
-77.146688
 31
0.0
  0
LINE
  5
DB
100
AcDbEntity
  8
0
370
    -3
  6
Continuous
100
AcDbLine
 10
-354.570462
 20
-126.458289
 30
0.0
 11
-356.520112
 21
-123.081395
 31
0.0
  0
LINE
  5
DC
100
AcDbEntity
  8
0
370
    -3
  6
Continuous
100
AcDbLine
 10
-347.642259
 20
-122.458289
 30
0.0
 11
-349.591909
 21
-119.081395
 31
0.0
  0
ARC
  5
DD
100
AcDbEntity
  8
0
370
    -3
  6
Continuous
100
AcDbCircle
 10
-364.781155
 20
-154.143728
 30
0.0
 40
2.0
100
AcDbArc
 50
227.626375
 51
330.0
  0
ARC
  5
DE
100
AcDbEntity
  8
0
370
    -3
  6
Continuous
100
AcDbCircle
 10
-362.983334
 20
-151.029811
 30
0.0
 40
2.0
100
AcDbArc
 50
330.0
 51
45.824196
  0
LINE
  5
DF
100
AcDbEntity
  8
0
370
    -3
  6
Continuous
100
AcDbLine
 10
-361.251283
 20
-152.029811
 30
0.0
 11
-363.049104
 21
-155.143728
 31
0.0
  0
ARC
  5
E0
100
AcDbEntity
  8
0
370
    -3
  6
Continuous
100
AcDbCircle
 10
-365.281564
 20
-179.010463
 30
0.0
 40
2.0
100
AcDbArc
 50
66.962063
 51
150.0
  0
ARC
  5
E1
100
AcDbEntity
  8
0
370
    -3
  6
Continuous
100
AcDbCircle
 10
-336.465358
 20
-159.81725
 30
0.0
 40
2.0
100
AcDbArc
 50
289.713439
 51
30.0
  0
ARC
  5
E2
100
AcDbEntity
  8
0
370
    -3
  6
Continuous
100
AcDbCircle
 10
-338.24815
 20
-156.729363
 30
0.0
 40
2.0
100
AcDbArc
 50
30.0
 51
108.224256
  0
ARC
  5
E3
100
AcDbEntity
  8
0
370
    -3
  6
Continuous
100
AcDbCircle
 10
-352.591029
 20
-157.029811
 30
0.0
 40
2.0
100
AcDbArc
 50
74.175804
 51
150.0
  0
ARC
  5
E4
100
AcDbEntity
  8
0
370
    -3
  6
Continuous
100
AcDbCircle
 10
-354.38885
 20
-160.143728
 30
0.0
 40
2.0
100
AcDbArc
 50
150.0
 51
252.373625
  0
ARC
  5
E5
100
AcDbEntity
  8
0
370
    -3
  6
Continuous
100
AcDbCircle
 10
-360.7406
 20
-171.145282
 30
0.0
 40
2.0
100
AcDbArc
 50
150.0
 51
248.519624
  0
ARC
  5
E6
100
AcDbEntity
  8
0
370
    -3
  6
Continuous
100
AcDbCircle
 10
-358.969192
 20
-168.077113
 30
0.0
 40
2.0
100
AcDbArc
 50
69.332418
 51
150.0
  0
ARC
  5
E7
100
AcDbEntity
  8
0
370
    -3
  6
Continuous
100
AcDbCircle
 10
-369.361497
 20
-162.077113
 30
0.0
 40
2.0
100
AcDbArc
 50
330.0
 51
50.667582
  0
ARC
  5
E8
100
AcDbEntity
  8
0
370
    -3
  6
Continuous
100
AcDbCircle
 10
-371.132905
 20
-165.145282
 30
0.0
 40
2.0
100
AcDbArc
 50
231.480376
 51
330.0
  0
ARC
  5
E9
100
AcDbEntity
  8
0
370
    -3
  6
Continuous
100
AcDbCircle
 10
-369.894578
 20
-138.458289
 30
0.0
 40
2.0
100
AcDbArc
 50
11.775744
 51
90.0
  0
ARC
  5
EA
100
AcDbEntity
  8
0
370
    -3
  6
Continuous
100
AcDbCircle
 10
-373.460162
 20
-138.458289
 30
0.0
 40
2.0
100
AcDbArc
 50
90.0
 51
190.286561
  0
ARC
  5
EB
100
AcDbEntity
  8
0
370
    -3
  6
Continuous
100
AcDbCircle
 10
-382.570813
 20
-138.458289
 30
0.0
 40
2.0
100
AcDbArc
 50
7.766434
 51
90.0
  0
ARC
  5
EC
100
AcDbEntity
  8
0
370
    -3
  6
Continuous
100
AcDbCircle
 10
-386.100381
 20
-138.458289
 30
0.0
 40
2.0
100
AcDbArc
 50
90.0
 51
187.091646
  0
ARC
  5
ED
100
AcDbEntity
  8
0
370
    -3
  6
Continuous
100
AcDbCircle
 10
-386.100381
 20
-128.458289
 30
0.0
 40
2.0
100
AcDbArc
 50
172.908354
 51
270.0
  0
ARC
  5
EE
100
AcDbEntity
  8
0
370
    -3
  6
Continuous
100
AcDbCircle
 10
-382.570813
 20
-128.458289
 30
0.0
 40
2.0
100
AcDbArc
 50
270.0
 51
352.233566
  0
ARC
  5
EF
100
AcDbEntity
  8
0
370
    -3
  6
Continuous
100
AcDbCircle
 10
-373.460162
 20
-128.458289
 30
0.0
 40
2.0
100
AcDbArc
 50
169.713439
 51
270.0
  0
ARC
  5
F0
100
AcDbEntity
  8
0
370
    -3
  6
Continuous
100
AcDbCircle
 10
-369.894578
 20
-128.458289
 30
0.0
 40
2.0
100
AcDbArc
 50
270.0
 51
348.224256
  0
ARC
  5
F1
100
AcDbEntity
  8
0
370
    -3
  6
Continuous
100
AcDbCircle
 10
-330.145248
 20
-96.152578
 30
0.0
 40
2.0
100
AcDbArc
 50
330.0
 51
67.091646
  0
ARC
  5
F2
100
AcDbEntity
  8
0
370
    -3
  6
Continuous
100
AcDbCircle
 10
-331.910032
 20
-99.209273
 30
0.0
 40
2.0
100
AcDbArc
 50
247.766434
 51
330.0
  0
ARC
  5
F3
100
AcDbEntity
  8
0
370
    -3
  6
Continuous
100
AcDbCircle
 10
-336.465358
 20
-107.099328
 30
0.0
 40
2.0
100
AcDbArc
 50
330.0
 51
70.286561
  0
ARC
  5
F4
100
AcDbEntity
  8
0
370
    -3
  6
Continuous
100
AcDbCircle
 10
-338.24815
 20
-110.187215
 30
0.0
 40
2.0
100
AcDbArc
 50
251.775744
 51
330.0
  0
ARC
  5
F5
100
AcDbEntity
  8
0
370
    -3
  6
Continuous
100
AcDbCircle
 10
-342.904634
 20
-118.252483
 30
0.0
 40
2.0
100
AcDbArc
 50
330.0
 51
78.819063
  0
ARC
  5
F6
100
AcDbEntity
  8
0
370
    -3
  6
Continuous
100
AcDbCircle
 10
-344.785979
 20
-121.511067
 30
0.0
 40
2.0
100
AcDbArc
 50
264.624318
 51
330.0
  0
ARC
  5
F7
100
AcDbEntity
  8
0
370
    -3
  6
Continuous
100
AcDbCircle
 10
-356.81892
 20
-128.458289
 30
0.0
 40
2.0
100
AcDbArc
 50
270.0
 51
335.375682
  0
ARC
  5
F8
100
AcDbEntity
  8
0
370
    -3
  6
Continuous
100
AcDbCircle
 10
-360.581609
 20
-128.458289
 30
0.0
 40
2.0
100
AcDbArc
 50
161.180937
 51
270.0
  0
ARC
  5
F9
100
AcDbEntity
  8
0
370
    -3
  6
Continuous
100
AcDbCircle
 10
-360.581609
 20
-138.458289
 30
0.0
 40
2.0
100
AcDbArc
 50
90.0
 51
198.819063
  0
ARC
  5
FA
100
AcDbEntity
  8
0
370
    -3
  6
Continuous
100
AcDbCircle
 10
-358.252163
 20
-142.835183
 30
0.0
 40
2.0
100
AcDbArc
 50
217.226028
 51
330.0
  0
ARC
  5
FB
100
AcDbEntity
  8
0
370
    -3
  6
Continuous
100
AcDbCircle
 10
-356.81892
 20
-138.458289
 30
0.0
 40
2.0
100
AcDbArc
 50
24.624318
 51
90.0
  0
ARC
  5
FC
100
AcDbEntity
  8
0
370
    -3
  6
Continuous
100
AcDbCircle
 10
-356.302513
 20
-139.458289
 30
0.0
 40
2.0
100
AcDbArc
 50
330.0
 51
30.0
  0
ARC
  5
FD
100
AcDbEntity
  8
0
370
    -3
  6
Continuous
100
AcDbCircle
 10
-345.910208
 20
-145.458289
 30
0.0
 40
2.0
100
AcDbArc
 50
90.0
 51
150.0
  0
ARC
  5
FE
100
AcDbEntity
  8
0
370
    -3
  6
Continuous
100
AcDbCircle
 10
-347.859858
 20
-148.835183
 30
0.0
 40
2.0
100
AcDbArc
 50
150.0
 51
262.773972
  0
ARC
  5
FF
100
AcDbEntity
  8
0
370
    -3
  6
Continuous
100
AcDbCircle
 10
-342.904634
 20
-148.664095
 30
0.0
 40
2.0
100
AcDbArc
 50
281.180937
 51
30.0
  0
ARC
  5
100
100
AcDbEntity
  8
0
370
    -3
  6
Continuous
100
AcDbCircle
 10
-344.785979
 20
-145.405511
 30
0.0
 40
2.0
100
AcDbArc
 50
30.0
 51
95.375682
  0
ARC
  5
101
100
AcDbEntity
  8
0
370
    -3
  6
Continuous
100
AcDbCircle
 10
-336.125725
 20
-140.405511
 30
0.0
 40
2.0
100
AcDbArc
 50
144.624318
 51
210.0
  0
ARC
  5
102
100
AcDbEntity
  8
0
370
    -3
  6
Continuous
100
AcDbCircle
 10
-335.517903
 20
-139.458289
 30
0.0
 40
2.0
100
AcDbArc
 50
90.0
 51
150.0
  0
ARC
  5
103
100
AcDbEntity
  8
0
370
    -3
  6
Continuous
100
AcDbCircle
 10
-334.24438
 20
-143.664095
 30
0.0
 40
2.0
100
AcDbArc
 50
210.0
 51
318.819063
  0
ARC
  5
104
100
AcDbEntity
  8
0
370
    -3
  6
Continuous
100
AcDbCircle
 10
-331.618602
 20
-139.458289
 30
0.0
 40
2.0
100
AcDbArc
 50
337.226028
 51
90.0
  0
ARC
  5
105
100
AcDbEntity
  8
0
370
    -3
  6
Continuous
100
AcDbCircle
 10
-322.156261
 20
-139.458289
 30
0.0
 40
2.0
100
AcDbArc
 50
90.0
 51
165.824196
  0
ARC
  5
106
100
AcDbEntity
  8
0
370
    -3
  6
Continuous
100
AcDbCircle
 10
-329.587896
 20
-151.729363
 30
0.0
 40
2.0
100
AcDbArc
 50
131.775744
 51
210.0
  0
ARC
  5
107
100
AcDbEntity
  8
0
370
    -3
  6
Continuous
100
AcDbCircle
 10
-327.805104
 20
-154.81725
 30
0.0
 40
2.0
100
AcDbArc
 50
210.0
 51
310.286561
  0
ARC
  5
108
100
AcDbEntity
  8
0
370
    -3
  6
Continuous
100
AcDbCircle
 10
-318.560619
 20
-139.458289
 30
0.0
 40
2.0
100
AcDbArc
 50
347.626375
 51
90.0
  0
ARC
  5
109
100
AcDbEntity
  8
0
370
    -3
  6
Continuous
100
AcDbCircle
 10
-325.616921
 20
-178.607293
 30
0.0
 40
2.0
100
AcDbArc
 50
30.0
 51
114.20266
  0
ARC
  5
10A
100
AcDbEntity
  8
0
370
    -3
  6
Continuous
100
AcDbCircle
 10
-330.145248
 20
-170.764
 30
0.0
 40
2.0
100
AcDbArc
 50
292.908354
 51
30.0
  0
ARC
  5
10B
100
AcDbEntity
  8
0
370
    -3
  6
Continuous
100
AcDbCircle
 10
-331.910032
 20
-167.707305
 30
0.0
 40
2.0
100
AcDbArc
 50
30.0
 51
112.233566
  0
ARC
  5
10C
100
AcDbEntity
  8
0
370
    -3
  6
Continuous
100
AcDbCircle
 10
-321.484994
 20
-165.764
 30
0.0
 40
2.0
100
AcDbArc
 50
210.0
 51
307.091646
  0
ARC
  5
10D
100
AcDbEntity
  8
0
370
    -3
  6
Continuous
100
AcDbCircle
 10
-323.249778
 20
-162.707305
 30
0.0
 40
2.0
100
AcDbArc
 50
127.766434
 51
210.0
  0
ARC
  5
10E
100
AcDbEntity
  8
0
370
    -3
  6
Continuous
100
AcDbCircle
 10
-309.399935
 20
-139.458289
 30
0.0
 40
2.0
100
AcDbArc
 50
90.0
 51
170.667582
  0
ARC
  5
10F
100
AcDbEntity
  8
0
370
    -3
  6
Continuous
100
AcDbCircle
 10
-305.857118
 20
-139.458289
 30
0.0
 40
2.0
100
AcDbArc
 50
351.480376
 51
90.0
  0
ARC
  5
110
100
AcDbEntity
  8
0
370
    -3
  6
Continuous
100
AcDbCircle
 10
-316.956667
 20
-173.607293
 30
0.0
 40
2.0
100
AcDbArc
 50
125.79734
 51
210.0
  0
ARC
  5
111
100
AcDbEntity
  8
0
370
    -3
  6
Continuous
100
AcDbCircle
 10
-296.77519
 20
-139.458289
 30
0.0
 40
2.0
100
AcDbArc
 50
90.0
 51
173.037937
  0
ARC
  5
112
100
AcDbEntity
  8
0
370
    -3
  6
Continuous
100
AcDbCircle
 10
-293.250926
 20
-139.458289
 30
0.0
 40
2.0
100
AcDbArc
 50
353.49975
 51
90.0
  0
ARC
  5
113
100
AcDbEntity
  8
0
370
    -3
  6
Continuous
100
AcDbCircle
 10
-315.198269
 20
-176.652928
 30
0.0
 40
2.0
100
AcDbArc
 50
210.0
 51
305.413312
  0
ARC
  5
114
100
AcDbEntity
  8
0
370
    -3
  6
Continuous
100
AcDbCircle
 10
-323.858523
 20
-181.652928
 30
0.0
 40
2.0
100
AcDbArc
 50
294.586688
 51
30.0
  0
ARC
  5
115
100
AcDbEntity
  8
0
370
    -3
  6
Continuous
100
AcDbCircle
 10
-367.043697
 20
-182.062565
 30
0.0
 40
2.0
100
AcDbArc
 50
150.0
 51
246.50025
  0
ARC
  5
116
100
AcDbEntity
  8
0
370
    -3
  6
Continuous
100
AcDbCircle
 10
-377.436001
 20
-176.062565
 30
0.0
 40
2.0
100
AcDbArc
 50
233.49975
 51
330.0
  0
ARC
  5
117
100
AcDbEntity
  8
0
370
    -3
  6
Continuous
100
AcDbCircle
 10
-375.673869
 20
-173.010463
 30
0.0
 40
2.0
100
AcDbArc
 50
330.0
 51
53.037937
  0
ARC
  5
118
100
AcDbEntity
  8
0
370
    -3
  6
Continuous
100
AcDbCircle
 10
-395.157035
 20
-138.458289
 30
0.0
 40
2.0
100
AcDbArc
 50
5.79734
 51
90.0
  0
ARC
  5
119
100
AcDbEntity
  8
0
370
    -3
  6
Continuous
100
AcDbCircle
 10
-398.673832
 20
-138.458289
 30
0.0
 40
2.0
100
AcDbArc
 50
90.0
 51
185.413312
  0
ARC
  5
11A
100
AcDbEntity
  8
0
370
    -3
  6
Continuous
100
AcDbCircle
 10
-398.673832
 20
-128.458289
 30
0.0
 40
2.0
100
AcDbArc
 50
174.586688
 51
270.0
  0
ARC
  5
11B
100
AcDbEntity
  8
0
370
    -3
  6
Continuous
100
AcDbCircle
 10
-395.157035
 20
-128.458289
 30
0.0
 40
2.0
100
AcDbArc
 50
270.0
 51
354.20266
  0
ARC
  5
11C
100
AcDbEntity
  8
0
370
    -3
  6
Continuous
100
AcDbCircle
 10
-325.616921
 20
-88.309285
 30
0.0
 40
2.0
100
AcDbArc
 50
245.79734
 51
330.0
  0
ARC
  5
11D
100
AcDbEntity
  8
0
370
    -3
  6
Continuous
100
AcDbCircle
 10
-323.858523
 20
-85.26365
 30
0.0
 40
2.0
100
AcDbArc
 50
330.0
 51
65.413312
  0
ARC
  5
11E
100
AcDbEntity
  8
0
370
    -3
  6
Continuous
100
AcDbCircle
 10
-345.910208
 20
-133.458289
 30
0.0
 40
10.0
100
AcDbArc
 50
270.0
 51
275.375682
  0
ARC
  5
11F
100
AcDbEntity
  8
0
370
    -3
  6
Continuous
100
AcDbCircle
 10
-345.910208
 20
-133.458289
 30
0.0
 40
17.5
100
AcDbArc
 50
262.773972
 51
281.180937
  0
ARC
  5
120
100
AcDbEntity
  8
0
370
    -3
  6
Continuous
100
AcDbCircle
 10
-345.910208
 20
-133.458289
 30
0.0
 40
22.5
100
AcDbArc
 50
254.175804
 51
288.224256
  0
ARC
  5
121
100
AcDbEntity
  8
0
370
    -3
  6
Continuous
100
AcDbCircle
 10
-345.910208
 20
-133.458289
 30
0.0
 40
30.0
100
AcDbArc
 50
252.373625
 51
289.713439
  0
ARC
  5
122
100
AcDbEntity
  8
0
370
    -3
  6
Continuous
100
AcDbCircle
 10
-345.910208
 20
-133.458289
 30
0.0
 40
35.0
100
AcDbArc
 50
249.332418
 51
292.233566
  0
ARC
  5
123
100
AcDbEntity
  8
0
370
    -3
  6
Continuous
100
AcDbCircle
 10
-345.910208
 20
-133.458289
 30
0.0
 40
42.5
100
AcDbArc
 50
248.519624
 51
292.908354
  0
ARC
  5
124
100
AcDbEntity
  8
0
370
    -3
  6
Continuous
100
AcDbCircle
 10
-345.910208
 20
-133.458289
 30
0.0
 40
47.5
100
AcDbArc
 50
246.962063
 51
294.20266
  0
ARC
  5
125
100
AcDbEntity
  8
0
370
    -3
  6
Continuous
100
AcDbCircle
 10
-345.910208
 20
-133.458289
 30
0.0
 40
55.0
100
AcDbArc
 50
246.50025
 51
294.586688
  0
ARC
  5
126
100
AcDbEntity
  8
0
370
    -3
  6
Continuous
100
AcDbCircle
 10
-345.910208
 20
-133.458289
 30
0.0
 40
10.0
100
AcDbArc
 50
204.624318
 51
210.0
  0
ARC
  5
127
100
AcDbEntity
  8
0
370
    -3
  6
Continuous
100
AcDbCircle
 10
-345.910208
 20
-133.458289
 30
0.0
 40
17.5
100
AcDbArc
 50
198.819063
 51
217.226028
  0
ARC
  5
128
100
AcDbEntity
  8
0
370
    -3
  6
Continuous
100
AcDbCircle
 10
-345.910208
 20
-133.458289
 30
0.0
 40
22.5
100
AcDbArc
 50
191.775744
 51
225.824196
  0
ARC
  5
129
100
AcDbEntity
  8
0
370
    -3
  6
Continuous
100
AcDbCircle
 10
-345.910208
 20
-133.458289
 30
0.0
 40
30.0
100
AcDbArc
 50
190.286561
 51
227.626375
  0
ARC
  5
12A
100
AcDbEntity
  8
0
370
    -3
  6
Continuous
100
AcDbCircle
 10
-345.910208
 20
-133.458289
 30
0.0
 40
35.0
100
AcDbArc
 50
187.766434
 51
230.667582
  0
ARC
  5
12B
100
AcDbEntity
  8
0
370
    -3
  6
Continuous
100
AcDbCircle
 10
-345.910208
 20
-133.458289
 30
0.0
 40
42.5
100
AcDbArc
 50
187.091646
 51
231.480376
  0
ARC
  5
12C
100
AcDbEntity
  8
0
370
    -3
  6
Continuous
100
AcDbCircle
 10
-345.910208
 20
-133.458289
 30
0.0
 40
47.5
100
AcDbArc
 50
185.79734
 51
233.037937
  0
ARC
  5
12D
100
AcDbEntity
  8
0
370
    -3
  6
Continuous
100
AcDbCircle
 10
-345.910208
 20
-133.458289
 30
0.0
 40
55.0
100
AcDbArc
 50
185.413312
 51
233.49975
  0
ARC
  5
12E
100
AcDbEntity
  8
0
370
    -3
  6
Continuous
100
AcDbCircle
 10
-345.910208
 20
-133.458289
 30
0.0
 40
55.0
100
AcDbArc
 50
126.50025
 51
174.586688
  0
ARC
  5
12F
100
AcDbEntity
  8
0
370
    -3
  6
Continuous
100
AcDbCircle
 10
-345.910208
 20
-133.458289
 30
0.0
 40
47.5
100
AcDbArc
 50
126.962063
 51
174.20266
  0
ARC
  5
130
100
AcDbEntity
  8
0
370
    -3
  6
Continuous
100
AcDbCircle
 10
-345.910208
 20
-133.458289
 30
0.0
 40
42.5
100
AcDbArc
 50
128.519624
 51
172.908354
  0
ARC
  5
131
100
AcDbEntity
  8
0
370
    -3
  6
Continuous
100
AcDbCircle
 10
-345.910208
 20
-133.458289
 30
0.0
 40
35.0
100
AcDbArc
 50
129.332418
 51
172.233566
  0
ARC
  5
132
100
AcDbEntity
  8
0
370
    -3
  6
Continuous
100
AcDbCircle
 10
-345.910208
 20
-133.458289
 30
0.0
 40
30.0
100
AcDbArc
 50
132.373625
 51
169.713439
  0
ARC
  5
133
100
AcDbEntity
  8
0
370
    -3
  6
Continuous
100
AcDbCircle
 10
-345.910208
 20
-133.458289
 30
0.0
 40
22.5
100
AcDbArc
 50
134.175804
 51
168.224256
  0
ARC
  5
134
100
AcDbEntity
  8
0
370
    -3
  6
Continuous
100
AcDbCircle
 10
-345.910208
 20
-133.458289
 30
0.0
 40
17.5
100
AcDbArc
 50
142.773972
 51
161.180937
  0
ARC
  5
135
100
AcDbEntity
  8
0
370
    -3
  6
Continuous
100
AcDbCircle
 10
-345.910208
 20
-133.458289
 30
0.0
 40
10.0
100
AcDbArc
 50
84.624318
 51
90.0
  0
ARC
  5
136
100
AcDbEntity
  8
0
370
    -3
  6
Continuous
100
AcDbCircle
 10
-345.910208
 20
-133.458289
 30
0.0
 40
17.5
100
AcDbArc
 50
78.819063
 51
97.226028
  0
ARC
  5
137
100
AcDbEntity
  8
0
370
    -3
  6
Continuous
100
AcDbCircle
 10
-345.910208
 20
-133.458289
 30
0.0
 40
22.5
100
AcDbArc
 50
71.775744
 51
105.824196
  0
ARC
  5
138
100
AcDbEntity
  8
0
370
    -3
  6
Continuous
100
AcDbCircle
 10
-345.910208
 20
-133.458289
 30
0.0
 40
30.0
100
AcDbArc
 50
70.286561
 51
107.626375
  0
ARC
  5
139
100
AcDbEntity
  8
0
370
    -3
  6
Continuous
100
AcDbCircle
 10
-345.910208
 20
-133.458289
 30
0.0
 40
35.0
100
AcDbArc
 50
67.766434
 51
110.667582
  0
ARC
  5
13A
100
AcDbEntity
  8
0
370
    -3
  6
Continuous
100
AcDbCircle
 10
-345.910208
 20
-133.458289
 30
0.0
 40
42.5
100
AcDbArc
 50
67.091646
 51
111.480376
  0
ARC
  5
13B
100
AcDbEntity
  8
0
370
    -3
  6
Continuous
100
AcDbCircle
 10
-345.910208
 20
-133.458289
 30
0.0
 40
47.5
100
AcDbArc
 50
65.79734
 51
113.037937
  0
ARC
  5
13C
100
AcDbEntity
  8
0
370
    -3
  6
Continuous
100
AcDbCircle
 10
-345.910208
 20
-133.458289
 30
0.0
 40
55.0
100
AcDbArc
 50
65.413312
 51
113.49975
  0
ARC
  5
13D
100
AcDbEntity
  8
0
370
    -3
  6
Continuous
100
AcDbCircle
 10
-336.125725
 20
-126.511067
 30
0.0
 40
2.0
100
AcDbArc
 50
150.0
 51
215.375682
  0
ARC
  5
13E
100
AcDbEntity
  8
0
370
    -3
  6
Continuous
100
AcDbCircle
 10
-335.517903
 20
-127.458289
 30
0.0
 40
2.0
100
AcDbArc
 50
210.0
 51
270.0
  0
ARC
  5
13F
100
AcDbEntity
  8
0
370
    -3
  6
Continuous
100
AcDbCircle
 10
-345.910208
 20
-133.458289
 30
0.0
 40
10.0
100
AcDbArc
 50
30.0
 51
35.375682
  0
ARC
  5
140
100
AcDbEntity
  8
0
370
    -3
  6
Continuous
100
AcDbCircle
 10
-345.910208
 20
-133.458289
 30
0.0
 40
10.0
100
AcDbArc
 50
150.0
 51
155.375682
  0
ARC
  5
141
100
AcDbEntity
  8
0
370
    -3
  6
Continuous
100
AcDbCircle
 10
-331.618602
 20
-127.458289
 30
0.0
 40
2.0
100
AcDbArc
 50
270.0
 51
22.773972
  0
ARC
  5
142
100
AcDbEntity
  8
0
370
    -3
  6
Continuous
100
AcDbCircle
 10
-334.24438
 20
-123.252483
 30
0.0
 40
2.0
100
AcDbArc
 50
41.180937
 51
150.0
  0
ARC
  5
143
100
AcDbEntity
  8
0
370
    -3
  6
Continuous
100
AcDbCircle
 10
-329.587896
 20
-115.187215
 30
0.0
 40
2.0
100
AcDbArc
 50
150.0
 51
228.224256
  0
ARC
  5
144
100
AcDbEntity
  8
0
370
    -3
  6
Continuous
100
AcDbCircle
 10
-322.156261
 20
-127.458289
 30
0.0
 40
2.0
100
AcDbArc
 50
194.175804
 51
270.0
  0
ARC
  5
145
100
AcDbEntity
  8
0
370
    -3
  6
Continuous
100
AcDbCircle
 10
-318.560619
 20
-127.458289
 30
0.0
 40
2.0
100
AcDbArc
 50
270.0
 51
12.373625
  0
ARC
  5
146
100
AcDbEntity
  8
0
370
    -3
  6
Continuous
100
AcDbCircle
 10
-327.805104
 20
-112.099328
 30
0.0
 40
2.0
100
AcDbArc
 50
49.713439
 51
150.0
  0
ARC
  5
147
100
AcDbEntity
  8
0
370
    -3
  6
Continuous
100
AcDbCircle
 10
-323.249778
 20
-104.209273
 30
0.0
 40
2.0
100
AcDbArc
 50
150.0
 51
232.233566
  0
ARC
  5
148
100
AcDbEntity
  8
0
370
    -3
  6
Continuous
100
AcDbCircle
 10
-309.399935
 20
-127.458289
 30
0.0
 40
2.0
100
AcDbArc
 50
189.332418
 51
270.0
  0
ARC
  5
149
100
AcDbEntity
  8
0
370
    -3
  6
Continuous
100
AcDbCircle
 10
-305.857118
 20
-127.458289
 30
0.0
 40
2.0
100
AcDbArc
 50
270.0
 51
8.519624
  0
ARC
  5
14A
100
AcDbEntity
  8
0
370
    -3
  6
Continuous
100
AcDbCircle
 10
-321.484994
 20
-101.152578
 30
0.0
 40
2.0
100
AcDbArc
 50
52.908354
 51
150.0
  0
ARC
  5
14B
100
AcDbEntity
  8
0
370
    -3
  6
Continuous
100
AcDbCircle
 10
-316.956667
 20
-93.309285
 30
0.0
 40
2.0
100
AcDbArc
 50
150.0
 51
234.20266
  0
ARC
  5
14C
100
AcDbEntity
  8
0
370
    -3
  6
Continuous
100
AcDbCircle
 10
-315.198269
 20
-90.26365
 30
0.0
 40
2.0
100
AcDbArc
 50
54.586688
 51
150.0
  0
ARC
  5
14D
100
AcDbEntity
  8
0
370
    -3
  6
Continuous
100
AcDbCircle
 10
-296.77519
 20
-127.458289
 30
0.0
 40
2.0
100
AcDbArc
 50
186.962063
 51
270.0
  0
ARC
  5
14E
100
AcDbEntity
  8
0
370
    -3
  6
Continuous
100
AcDbCircle
 10
-293.250926
 20
-127.458289
 30
0.0
 40
2.0
100
AcDbArc
 50
270.0
 51
6.50025
  0
ARC
  5
14F
100
AcDbEntity
  8
0
370
    -3
  6
Continuous
100
AcDbCircle
 10
-345.910208
 20
-133.458289
 30
0.0
 40
17.5
100
AcDbArc
 50
22.773972
 51
41.180937
  0
ARC
  5
150
100
AcDbEntity
  8
0
370
    -3
  6
Continuous
100
AcDbCircle
 10
-345.910208
 20
-133.458289
 30
0.0
 40
22.5
100
AcDbArc
 50
14.175804
 51
48.224256
  0
ARC
  5
151
100
AcDbEntity
  8
0
370
    -3
  6
Continuous
100
AcDbCircle
 10
-345.910208
 20
-133.458289
 30
0.0
 40
30.0
100
AcDbArc
 50
12.373625
 51
49.713439
  0
ARC
  5
152
100
AcDbEntity
  8
0
370
    -3
  6
Continuous
100
AcDbCircle
 10
-345.910208
 20
-133.458289
 30
0.0
 40
35.0
100
AcDbArc
 50
9.332418
 51
52.233566
  0
ARC
  5
153
100
AcDbEntity
  8
0
370
    -3
  6
Continuous
100
AcDbCircle
 10
-345.910208
 20
-133.458289
 30
0.0
 40
42.5
100
AcDbArc
 50
8.519624
 51
52.908354
  0
ARC
  5
154
100
AcDbEntity
  8
0
370
    -3
  6
Continuous
100
AcDbCircle
 10
-345.910208
 20
-133.458289
 30
0.0
 40
47.5
100
AcDbArc
 50
6.962063
 51
54.20266
  0
ARC
  5
155
100
AcDbEntity
  8
0
370
    -3
  6
Continuous
100
AcDbCircle
 10
-345.910208
 20
-133.458289
 30
0.0
 40
55.0
100
AcDbArc
 50
6.50025
 51
54.586688
  0
ARC
  5
156
100
AcDbEntity
  8
0
370
    -3
  6
Continuous
100
AcDbCircle
 10
-345.910208
 20
-133.458289
 30
0.0
 40
10.0
100
AcDbArc
 50
324.624318
 51
330.0
  0
ARC
  5
157
100
AcDbEntity
  8
0
370
    -3
  6
Continuous
100
AcDbCircle
 10
-345.910208
 20
-133.458289
 30
0.0
 40
17.5
100
AcDbArc
 50
318.819063
 51
337.226028
  0
ARC
  5
158
100
AcDbEntity
  8
0
370
    -3
  6
Continuous
100
AcDbCircle
 10
-345.910208
 20
-133.458289
 30
0.0
 40
22.5
100
AcDbArc
 50
311.775744
 51
345.824196
  0
ARC
  5
159
100
AcDbEntity
  8
0
370
    -3
  6
Continuous
100
AcDbCircle
 10
-345.910208
 20
-133.458289
 30
0.0
 40
30.0
100
AcDbArc
 50
310.286561
 51
347.626375
  0
ARC
  5
15A
100
AcDbEntity
  8
0
370
    -3
  6
Continuous
100
AcDbCircle
 10
-345.910208
 20
-133.458289
 30
0.0
 40
35.0
100
AcDbArc
 50
307.766434
 51
350.667582
  0
ARC
  5
15B
100
AcDbEntity
  8
0
370
    -3
  6
Continuous
100
AcDbCircle
 10
-345.910208
 20
-133.458289
 30
0.0
 40
42.5
100
AcDbArc
 50
307.091646
 51
351.480376
  0
ARC
  5
15C
100
AcDbEntity
  8
0
370
    -3
  6
Continuous
100
AcDbCircle
 10
-345.910208
 20
-133.458289
 30
0.0
 40
47.5
100
AcDbArc
 50
305.79734
 51
353.037937
  0
ARC
  5
15D
100
AcDbEntity
  8
0
370
    -3
  6
Continuous
100
AcDbCircle
 10
-345.910208
 20
-133.458289
 30
0.0
 40
55.0
100
AcDbArc
 50
305.413312
 51
353.49975
  0
LINE
  5
15E
100
AcDbEntity
  8
0
370
    -3
  6
CENTER
100
AcDbLine
 10
-318.910208
 20
-86.692917
 30
0.0
 11
-313.410208
 21
-77.166638
 31
0.0
  0
ARC
  5
15F
100
AcDbEntity
  8
0
370
    -3
  6
Continuous
100
AcDbCircle
 10
-284.201213
 20
-139.458289
 30
0.0
 40
2.0
100
AcDbArc
 50
90.0
 51
174.446556
  0
ARC
  5
160
100
AcDbEntity
  8
0
370
    -3
  6
Continuous
100
AcDbCircle
 10
-310.681052
 20
-184.476977
 30
0.0
 40
2.0
100
AcDbArc
 50
124.625651
 51
210.0
  0
ARC
  5
161
100
AcDbEntity
  8
0
370
    -3
  6
Continuous
100
AcDbCircle
 10
-319.341306
 20
-189.476977
 30
0.0
 40
2.0
100
AcDbArc
 50
30.0
 51
115.374349
  0
ARC
  5
162
100
AcDbEntity
  8
0
370
    -3
  6
Continuous
100
AcDbCircle
 10
-371.568553
 20
-189.899846
 30
0.0
 40
2.0
100
AcDbArc
 50
65.553444
 51
150.0
  0
ARC
  5
163
100
AcDbEntity
  8
0
370
    -3
  6
Continuous
100
AcDbCircle
 10
-381.960858
 20
-183.899846
 30
0.0
 40
2.0
100
AcDbArc
 50
330.0
 51
54.446556
  0
ARC
  5
164
100
AcDbEntity
  8
0
370
    -3
  6
Continuous
100
AcDbCircle
 10
-407.708266
 20
-138.458289
 30
0.0
 40
2.0
100
AcDbArc
 50
4.625651
 51
90.0
  0
ARC
  5
165
100
AcDbEntity
  8
0
370
    -3
  6
Continuous
100
AcDbCircle
 10
-407.708266
 20
-128.458289
 30
0.0
 40
2.0
100
AcDbArc
 50
270.0
 51
355.374349
  0
ARC
  5
166
100
AcDbEntity
  8
0
370
    -3
  6
Continuous
100
AcDbCircle
 10
-319.341306
 20
-77.439601
 30
0.0
 40
2.0
100
AcDbArc
 50
244.625651
 51
330.0
  0
ARC
  5
167
100
AcDbEntity
  8
0
370
    -3
  6
Continuous
100
AcDbCircle
 10
-310.681052
 20
-82.439601
 30
0.0
 40
2.0
100
AcDbArc
 50
150.0
 51
235.374349
  0
ARC
  5
168
100
AcDbEntity
  8
0
370
    -3
  6
Continuous
100
AcDbCircle
 10
-284.201213
 20
-127.458289
 30
0.0
 40
2.0
100
AcDbArc
 50
185.553444
 51
270.0
  0
ARC
  5
169
100
AcDbEntity
  8
0
370
    -3
  6
Continuous
100
AcDbCircle
 10
-345.910208
 20
-133.458289
 30
0.0
 40
60.0
100
AcDbArc
 50
5.553444
 51
55.374349
  0
ARC
  5
16A
100
AcDbEntity
  8
0
370
    -3
  6
Continuous
100
AcDbCircle
 10
-345.910208
 20
-133.458289
 30
0.0
 40
60.0
100
AcDbArc
 50
64.625651
 51
114.446556
  0
ARC
  5
16B
100
AcDbEntity
  8
0
370
    -3
  6
Continuous
100
AcDbCircle
 10
-345.910208
 20
-133.458289
 30
0.0
 40
60.0
100
AcDbArc
 50
125.553444
 51
175.374349
  0
ARC
  5
16C
100
AcDbEntity
  8
0
370
    -3
  6
Continuous
100
AcDbCircle
 10
-345.910208
 20
-133.458289
 30
0.0
 40
60.0
100
AcDbArc
 50
184.625651
 51
234.446556
  0
ARC
  5
16D
100
AcDbEntity
  8
0
370
    -3
  6
Continuous
100
AcDbCircle
 10
-345.910208
 20
-133.458289
 30
0.0
 40
60.0
100
AcDbArc
 50
245.553444
 51
295.374349
  0
ARC
  5
16E
100
AcDbEntity
  8
0
370
    -3
  6
Continuous
100
AcDbCircle
 10
-345.910208
 20
-133.458289
 30
0.0
 40
60.0
100
AcDbArc
 50
304.625651
 51
354.446556
  0
ARC
  5
16F
100
AcDbEntity
  8
0
370
    -3
  6
Continuous
100
AcDbCircle
 10
-42.410208
 20
-133.458289
 30
0.0
 40
390.8
100
AcDbArc
 50
177.020093
 51
182.979907
  0
ARC
  5
170
100
AcDbEntity
  8
0
370
    -3
  6
Continuous
100
AcDbCircle
 10
-345.910208
 20
170.041711
 30
0.0
 40
390.8
100
AcDbArc
 50
267.020093
 51
272.979907
  0
ARC
  5
171
100
AcDbEntity
  8
0
370
    -3
  6
Continuous
100
AcDbCircle
 10
-649.410208
 20
-133.458289
 30
0.0
 40
390.8
100
AcDbArc
 50
357.020093
 51
2.979907
  0
ARC
  5
172
100
AcDbEntity
  8
0
370
    -3
  6
Continuous
100
AcDbCircle
 10
-345.910208
 20
170.041711
 30
0.0
 40
374.8
100
AcDbArc
 50
270.0
 51
272.979907
  0
LINE
  5
173
100
AcDbEntity
  8
0
370
    -3
  6
Continuous
100
AcDbLine
 10
-356.81892
 20
-130.458289
 30
0.0
 11
-360.581609
 21
-130.458289
 31
0.0
  0
LINE
  5
174
100
AcDbEntity
  8
0
370
    -3
  6
Continuous
100
AcDbLine
 10
-369.894578
 20
-130.458289
 30
0.0
 11
-373.460162
 21
-130.458289
 31
0.0
  0
LINE
  5
175
100
AcDbEntity
  8
0
370
    -3
  6
Continuous
100
AcDbLine
 10
-382.570813
 20
-130.458289
 30
0.0
 11
-386.100381
 21
-130.458289
 31
0.0
  0
LINE
  5
176
100
AcDbEntity
  8
0
370
    -3
  6
Continuous
100
AcDbLine
 10
-395.157035
 20
-130.458289
 30
0.0
 11
-398.673832
 21
-130.458289
 31
0.0
  0
ARC
  5
177
100
AcDbEntity
  8
0
370
    -3
  6
Continuous
100
AcDbCircle
 10
-408.711482
 20
-128.458289
 30
0.0
 40
2.0
100
AcDbArc
 50
175.447929
 51
270.0
  0
LINE
  5
178
100
AcDbEntity
  8
0
370
    -3
  6
Continuous
100
AcDbLine
 10
-407.708266
 20
-130.458289
 30
0.0
 11
-408.711482
 21
-130.458289
 31
0.0
  0
ARC
  5
179
100
AcDbEntity
  8
0
370
    -3
  6
Continuous
100
AcDbCircle
 10
-345.910208
 20
-133.458289
 30
0.0
 40
65.0
100
AcDbArc
 50
125.465024
 51
175.447929
  0
LINE
  5
17A
100
AcDbEntity
  8
0
370
    -3
  6
Continuous
100
AcDbLine
 10
-369.894578
 20
-136.458289
 30
0.0
 11
-373.460162
 21
-136.458289
 31
0.0
  0
LINE
  5
17B
100
AcDbEntity
  8
0
370
    -3
  6
Continuous
100
AcDbLine
 10
-382.570813
 20
-136.458289
 30
0.0
 11
-386.100381
 21
-136.458289
 31
0.0
  0
LINE
  5
17C
100
AcDbEntity
  8
0
370
    -3
  6
Continuous
100
AcDbLine
 10
-395.157035
 20
-136.458289
 30
0.0
 11
-398.673832
 21
-136.458289
 31
0.0
  0
ARC
  5
17D
100
AcDbEntity
  8
0
370
    -3
  6
Continuous
100
AcDbCircle
 10
-408.711482
 20
-138.458289
 30
0.0
 40
2.0
100
AcDbArc
 50
90.0
 51
184.552071
  0
LINE
  5
17E
100
AcDbEntity
  8
0
370
    -3
  6
Continuous
100
AcDbLine
 10
-407.708266
 20
-136.458289
 30
0.0
 11
-408.711482
 21
-136.458289
 31
0.0
  0
LINE
  5
17F
100
AcDbEntity
  8
0
370
    -3
  6
Continuous
100
AcDbLine
 10
-380.228807
 20
-184.899846
 30
0.0
 11
-380.731127
 21
-185.76989
 31
0.0
  0
LINE
  5
180
100
AcDbEntity
  8
0
370
    -3
  6
Continuous
100
AcDbLine
 10
-373.941818
 20
-174.010463
 30
0.0
 11
-375.703951
 21
-177.062565
 31
0.0
  0
LINE
  5
181
100
AcDbEntity
  8
0
370
    -3
  6
Continuous
100
AcDbLine
 10
-367.629446
 20
-163.077113
 30
0.0
 11
-369.400854
 21
-166.145282
 31
0.0
  0
LINE
  5
182
100
AcDbEntity
  8
0
370
    -3
  6
Continuous
100
AcDbLine
 10
-354.570462
 20
-140.458289
 30
0.0
 11
-356.520112
 21
-143.835183
 31
0.0
  0
LINE
  5
183
100
AcDbEntity
  8
0
370
    -3
  6
Continuous
100
AcDbLine
 10
-356.81892
 20
-136.458289
 30
0.0
 11
-360.581609
 21
-136.458289
 31
0.0
  0
ARC
  5
184
100
AcDbEntity
  8
0
370
    -3
  6
Continuous
100
AcDbCircle
 10
-345.910208
 20
-133.458289
 30
0.0
 40
65.0
100
AcDbArc
 50
184.552071
 51
234.534976
  0
LINE
  5
185
100
AcDbEntity
  8
0
370
    -3
  6
Continuous
100
AcDbLine
 10
-336.516099
 20
-155.729363
 30
0.0
 11
-334.733307
 21
-158.81725
 31
0.0
  0
LINE
  5
186
100
AcDbEntity
  8
0
370
    -3
  6
Continuous
100
AcDbLine
 10
-360.701242
 20
-167.077113
 30
0.0
 11
-362.472651
 21
-170.145282
 31
0.0
  0
LINE
  5
187
100
AcDbEntity
  8
0
370
    -3
  6
Continuous
100
AcDbLine
 10
-354.32308
 20
-156.029811
 30
0.0
 11
-356.120901
 21
-159.143728
 31
0.0
  0
LINE
  5
188
100
AcDbEntity
  8
0
370
    -3
  6
Continuous
100
AcDbLine
 10
-347.642259
 20
-144.458289
 30
0.0
 11
-349.591909
 21
-147.835183
 31
0.0
  0
LINE
  5
189
100
AcDbEntity
  8
0
370
    -3
  6
Continuous
100
AcDbLine
 10
-343.053928
 20
-144.405511
 30
0.0
 11
-341.172584
 21
-147.664095
 31
0.0
  0
LINE
  5
18A
100
AcDbEntity
  8
0
370
    -3
  6
Continuous
100
AcDbLine
 10
-330.177981
 20
-166.707305
 30
0.0
 11
-328.413198
 21
-169.764
 31
0.0
  0
LINE
  5
18B
100
AcDbEntity
  8
0
370
    -3
  6
Continuous
100
AcDbLine
 10
-323.88487
 20
-177.607293
 30
0.0
 11
-322.126472
 21
-180.652928
 31
0.0
  0
LINE
  5
18C
100
AcDbEntity
  8
0
370
    -3
  6
Continuous
100
AcDbLine
 10
-367.013615
 20
-178.010463
 30
0.0
 11
-368.775747
 21
-181.062565
 31
0.0
  0
ARC
  5
18D
100
AcDbEntity
  8
0
370
    -3
  6
Continuous
100
AcDbCircle
 10
-372.070873
 20
-190.76989
 30
0.0
 40
2.0
100
AcDbArc
 50
150.0
 51
245.465024
  0
LINE
  5
18E
100
AcDbEntity
  8
0
370
    -3
  6
Continuous
100
AcDbLine
 10
-373.300603
 20
-188.899846
 30
0.0
 11
-373.802924
 21
-189.76989
 31
0.0
  0
ARC
  5
18F
100
AcDbEntity
  8
0
370
    -3
  6
Continuous
100
AcDbCircle
 10
-318.839698
 20
-190.345788
 30
0.0
 40
2.0
100
AcDbArc
 50
295.447929
 51
30.0
  0
LINE
  5
190
100
AcDbEntity
  8
0
370
    -3
  6
Continuous
100
AcDbLine
 10
-317.609255
 20
-188.476977
 30
0.0
 11
-317.107647
 21
-189.345788
 31
0.0
  0
ARC
  5
191
100
AcDbEntity
  8
0
370
    -3
  6
Continuous
100
AcDbCircle
 10
-345.910208
 20
-133.458289
 30
0.0
 40
65.0
100
AcDbArc
 50
245.465024
 51
295.447929
  0
ARC
  5
192
100
AcDbEntity
  8
0
370
    -3
  6
Continuous
100
AcDbCircle
 10
-345.910208
 20
-133.458289
 30
0.0
 40
65.0
100
AcDbArc
 50
5.465024
 51
55.447929
  0
LINE
  5
193
100
AcDbEntity
  8
0
370
    -3
  6
Continuous
100
AcDbLine
 10
-336.516099
 20
-111.187215
 30
0.0
 11
-334.733307
 21
-108.099328
 31
0.0
  0
LINE
  5
194
100
AcDbEntity
  8
0
370
    -3
  6
Continuous
100
AcDbLine
 10
-330.177981
 20
-100.209273
 30
0.0
 11
-328.413198
 21
-97.152578
 31
0.0
  0
LINE
  5
195
100
AcDbEntity
  8
0
370
    -3
  6
Continuous
100
AcDbLine
 10
-323.88487
 20
-89.309285
 30
0.0
 11
-322.126472
 21
-86.26365
 31
0.0
  0
LINE
  5
196
100
AcDbEntity
  8
0
370
    -3
  6
Continuous
100
AcDbLine
 10
-317.609255
 20
-78.439601
 30
0.0
 11
-317.107647
 21
-77.57079
 31
0.0
  0
LINE
  5
197
100
AcDbEntity
  8
0
370
    -3
  6
Continuous
100
AcDbLine
 10
-331.319947
 20
-114.187215
 30
0.0
 11
-329.537154
 21
-111.099328
 31
0.0
  0
LINE
  5
198
100
AcDbEntity
  8
0
370
    -3
  6
Continuous
100
AcDbLine
 10
-324.981829
 20
-103.209273
 30
0.0
 11
-323.217045
 21
-100.152578
 31
0.0
  0
LINE
  5
199
100
AcDbEntity
  8
0
370
    -3
  6
Continuous
100
AcDbLine
 10
-318.688718
 20
-92.309285
 30
0.0
 11
-316.93032
 21
-89.26365
 31
0.0
  0
LINE
  5
19A
100
AcDbEntity
  8
0
370
    -3
  6
Continuous
100
AcDbLine
 10
-312.413103
 20
-81.439601
 30
0.0
 11
-311.911495
 21
-80.57079
 31
0.0
  0
LINE
  5
19B
100
AcDbEntity
  8
0
370
    -3
  6
Continuous
100
AcDbLine
 10
-331.319947
 20
-152.729363
 30
0.0
 11
-329.537154
 21
-155.81725
 31
0.0
  0
LINE
  5
19C
100
AcDbEntity
  8
0
370
    -3
  6
Continuous
100
AcDbLine
 10
-324.981829
 20
-163.707305
 30
0.0
 11
-323.217045
 21
-166.764
 31
0.0
  0
LINE
  5
19D
100
AcDbEntity
  8
0
370
    -3
  6
Continuous
100
AcDbLine
 10
-318.688718
 20
-174.607293
 30
0.0
 11
-316.93032
 21
-177.652928
 31
0.0
  0
LINE
  5
19E
100
AcDbEntity
  8
0
370
    -3
  6
Continuous
100
AcDbLine
 10
-312.413103
 20
-185.476977
 30
0.0
 11
-311.911495
 21
-186.345788
 31
0.0
  0
LINE
  5
19F
100
AcDbEntity
  8
0
370
    -3
  6
Continuous
100
AcDbLine
 10
-322.156261
 20
-129.458289
 30
0.0
 11
-318.560619
 21
-129.458289
 31
0.0
  0
LINE
  5
1A0
100
AcDbEntity
  8
0
370
    -3
  6
Continuous
100
AcDbLine
 10
-309.399935
 20
-129.458289
 30
0.0
 11
-305.857118
 21
-129.458289
 31
0.0
  0
LINE
  5
1A1
100
AcDbEntity
  8
0
370
    -3
  6
Continuous
100
AcDbLine
 10
-296.77519
 20
-129.458289
 30
0.0
 11
-293.250926
 21
-129.458289
 31
0.0
  0
LINE
  5
1A2
100
AcDbEntity
  8
0
370
    -3
  6
Continuous
100
AcDbLine
 10
-284.201213
 20
-129.458289
 30
0.0
 11
-283.196573
 21
-129.458289
 31
0.0
  0
LINE
  5
1A3
100
AcDbEntity
  8
0
370
    -3
  6
Continuous
100
AcDbLine
 10
-322.156261
 20
-137.458289
 30
0.0
 11
-318.560619
 21
-137.458289
 31
0.0
  0
LINE
  5
1A4
100
AcDbEntity
  8
0
370
    -3
  6
Continuous
100
AcDbLine
 10
-309.399935
 20
-137.458289
 30
0.0
 11
-305.857118
 21
-137.458289
 31
0.0
  0
LINE
  5
1A5
100
AcDbEntity
  8
0
370
    -3
  6
Continuous
100
AcDbLine
 10
-296.77519
 20
-137.458289
 30
0.0
 11
-293.250926
 21
-137.458289
 31
0.0
  0
LINE
  5
1A6
100
AcDbEntity
  8
0
370
    -3
  6
Continuous
100
AcDbLine
 10
-284.201213
 20
-137.458289
 30
0.0
 11
-283.196573
 21
-137.458289
 31
0.0
  0
ARC
  5
1A7
100
AcDbEntity
  8
0
370
    -3
  6
Continuous
100
AcDbCircle
 10
-345.910208
 20
-133.458289
 30
0.0
 40
65.0
100
AcDbArc
 50
304.552071
 51
354.534976
  0
ARC
  5
1A8
100
AcDbEntity
  8
0
370
    -3
  6
Continuous
100
AcDbCircle
 10
-310.179444
 20
-185.345788
 30
0.0
 40
2.0
100
AcDbArc
 50
210.0
 51
304.552071
  0
LINE
  5
1A9
100
AcDbEntity
  8
0
370
    -3
  6
Continuous
100
AcDbLine
 10
-337.857776
 20
-141.405511
 30
0.0
 11
-335.976431
 21
-144.664095
 31
0.0
  0
ARC
  5
1AA
100
AcDbEntity
  8
0
370
    -3
  6
Continuous
100
AcDbCircle
 10
-318.839698
 20
-76.57079
 30
0.0
 40
2.0
100
AcDbArc
 50
330.0
 51
64.552071
  0
ARC
  5
1AB
100
AcDbEntity
  8
0
370
    -3
  6
Continuous
100
AcDbCircle
 10
-283.196573
 20
-139.458289
 30
0.0
 40
2.0
100
AcDbArc
 50
354.534976
 51
90.0
  0
ARC
  5
1AC
100
AcDbEntity
  8
0
370
    -3
  6
Continuous
100
AcDbCircle
 10
-283.196573
 20
-127.458289
 30
0.0
 40
2.0
100
AcDbArc
 50
270.0
 51
5.465024
  0
ARC
  5
1AD
100
AcDbEntity
  8
0
370
    -3
  6
Continuous
100
AcDbCircle
 10
-310.179444
 20
-81.57079
 30
0.0
 40
2.0
100
AcDbArc
 50
55.447929
 51
150.0
  0
ARC
  5
1AE
100
AcDbEntity
  8
0
370
    -3
  6
Continuous
100
AcDbCircle
 10
-345.910208
 20
-133.458289
 30
0.0
 40
65.0
100
AcDbArc
 50
64.552071
 51
114.534976
  0
LINE
  5
1AF
100
AcDbEntity
  8
0
370
    -3
  6
Continuous
100
AcDbLine
 10
-343.053928
 20
-122.511067
 30
0.0
 11
-341.172584
 21
-119.252483
 31
0.0
  0
LINE
  5
1B0
100
AcDbEntity
  8
0
370
    -3
  6
Continuous
100
AcDbLine
 10
-335.517903
 20
-137.458289
 30
0.0
 11
-331.618602
 21
-137.458289
 31
0.0
  0
LINE
  5
1B1
100
AcDbEntity
  8
0
370
    -3
  6
Continuous
100
AcDbLine
 10
-335.517903
 20
-129.458289
 30
0.0
 11
-331.618602
 21
-129.458289
 31
0.0
  0
LINE
  5
1B2
100
AcDbEntity
  8
0
370
    -3
  6
Continuous
100
AcDbLine
 10
-337.857776
 20
-125.511067
 30
0.0
 11
-335.976431
 21
-122.252483
 31
0.0
  0
CIRCLE
  5
1B3
100
AcDbEntity
  8
0
370
    -3
  6
Continuous
100
AcDbCircle
 10
-345.910208
 20
-133.458289
 30
0.0
 40
5.0
  0
ARC
  5
1B4
100
AcDbEntity
  8
0
370
    -3
  6
Continuous
100
AcDbCircle
 10
-362.805577
 20
-112.397745
 30
0.0
 40
65.8
100
AcDbArc
 50
92.979907
 51
128.737581
  0
ARC
  5
1B5
100
AcDbEntity
  8
0
370
    -3
  6
Continuous
100
AcDbCircle
 10
-324.849664
 20
-150.353658
 30
0.0
 40
65.8
100
AcDbArc
 50
321.262419
 51
357.020093
  0
ARC
  5
1B6
100
AcDbEntity
  8
0
370
    -3
  6
Continuous
100
AcDbCircle
 10
-329.014839
 20
-112.397745
 30
0.0
 40
49.8
100
AcDbArc
 50
51.262419
 51
87.020093
  0
ARC
  5
1B7
100
AcDbEntity
  8
0
370
    -3
  6
Continuous
100
AcDbCircle
 10
-324.849664
 20
-116.56292
 30
0.0
 40
49.8
100
AcDbArc
 50
2.979907
 51
38.737581
  0
ARC
  5
1B8
100
AcDbEntity
  8
0
370
    -3
  6
Continuous
100
AcDbCircle
 10
-649.410208
 20
-133.458289
 30
0.0
 40
374.8
100
AcDbArc
 50
0.0
 51
2.979907
  0
ARC
  5
1B9
100
AcDbEntity
  8
0
370
    -3
  6
Continuous
100
AcDbCircle
 10
-649.410208
 20
-133.458289
 30
0.0
 40
374.8
100
AcDbArc
 50
357.020093
 51
0.0
  0
ARC
  5
1BA
100
AcDbEntity
  8
0
370
    -3
  6
Continuous
100
AcDbCircle
 10
-324.849664
 20
-150.353658
 30
0.0
 40
49.8
100
AcDbArc
 50
321.262419
 51
357.020093
  0
ARC
  5
1BB
100
AcDbEntity
  8
0
370
    -3
  6
Continuous
100
AcDbCircle
 10
-345.910208
 20
-133.458289
 30
0.0
 40
76.8
100
AcDbArc
 50
308.737581
 51
321.262419
  0
ARC
  5
1BC
100
AcDbEntity
  8
0
370
    -3
  6
Continuous
100
AcDbCircle
 10
-329.014839
 20
-154.518833
 30
0.0
 40
49.8
100
AcDbArc
 50
272.979907
 51
308.737581
  0
ARC
  5
1BD
100
AcDbEntity
  8
0
370
    -3
  6
Continuous
100
AcDbCircle
 10
-345.910208
 20
170.041711
 30
0.0
 40
374.8
100
AcDbArc
 50
267.020093
 51
270.0
  0
ARC
  5
1BE
100
AcDbEntity
  8
0
370
    -3
  6
Continuous
100
AcDbCircle
 10
-362.805577
 20
-154.518833
 30
0.0
 40
49.8
100
AcDbArc
 50
231.262419
 51
267.020093
  0
ARC
  5
1BF
100
AcDbEntity
  8
0
370
    -3
  6
Continuous
100
AcDbCircle
 10
-366.970752
 20
-150.353658
 30
0.0
 40
49.8
100
AcDbArc
 50
182.979907
 51
218.737581
  0
ARC
  5
1C0
100
AcDbEntity
  8
0
370
    -3
  6
Continuous
100
AcDbCircle
 10
-42.410208
 20
-133.458289
 30
0.0
 40
374.8
100
AcDbArc
 50
180.0
 51
182.979907
  0
ARC
  5
1C1
100
AcDbEntity
  8
0
370
    -3
  6
Continuous
100
AcDbCircle
 10
-366.970752
 20
-116.56292
 30
0.0
 40
49.8
100
AcDbArc
 50
141.262419
 51
177.020093
  0
ARC
  5
1C2
100
AcDbEntity
  8
0
370
    -3
  6
Continuous
100
AcDbCircle
 10
-345.910208
 20
-133.458289
 30
0.0
 40
76.8
100
AcDbArc
 50
128.737581
 51
141.262419
  0
ARC
  5
1C3
100
AcDbEntity
  8
0
370
    -3
  6
Continuous
100
AcDbCircle
 10
-362.805577
 20
-112.397745
 30
0.0
 40
49.8
100
AcDbArc
 50
92.979907
 51
128.737581
  0
ARC
  5
1C4
100
AcDbEntity
  8
0
370
    -3
  6
Continuous
100
AcDbCircle
 10
-345.910208
 20
-436.958289
 30
0.0
 40
374.8
100
AcDbArc
 50
90.0
 51
92.979907
  0
ARC
  5
1C5
100
AcDbEntity
  8
0
370
    -3
  6
Continuous
100
AcDbCircle
 10
-345.910208
 20
-436.958289
 30
0.0
 40
374.8
100
AcDbArc
 50
87.020093
 51
90.0
  0
ARC
  5
1C6
100
AcDbEntity
  8
0
370
    -3
  6
Continuous
100
AcDbCircle
 10
-42.410208
 20
-133.458289
 30
0.0
 40
374.8
100
AcDbArc
 50
177.020093
 51
180.0
  0
ARC
  5
1C7
100
AcDbEntity
  8
0
370
    -3
  6
Continuous
100
AcDbCircle
 10
-345.910208
 20
-436.958289
 30
0.0
 40
390.8
100
AcDbArc
 50
87.020093
 51
92.979907
  0
LINE
  5
1C8
100
AcDbEntity
  8
0
370
    -3
  6
CENTER
100
AcDbLine
 10
153.910301
 20
215.045293
 30
0.0
 11
186.65009
 21
215.045293
 31
0.0
  0
LINE
  5
1C9
100
AcDbEntity
  8
0
370
    -3
  6
CENTER
100
AcDbLine
 10
153.910301
 20
194.045293
 30
0.0
 11
186.65009
 21
194.045293
 31
0.0
  0
ARC
  5
1CA
100
AcDbEntity
  8
0
370
    -3
  6
Continuous
100
AcDbCircle
 10
179.089845
 20
224.045293
 30
0.0
 40
3.0
100
AcDbArc
 50
90.0
 51
180.0
  0
ARC
  5
1CB
100
AcDbEntity
  8
0
370
    -3
  6
Continuous
100
AcDbCircle
 10
179.089845
 20
185.045293
 30
0.0
 40
3.0
100
AcDbArc
 50
180.0
 51
270.0
  0
LINE
  5
1CC
100
AcDbEntity
  8
0
370
    -3
  6
Continuous
100
AcDbLine
 10
179.089845
 20
227.045293
 30
0.0
 11
191.089845
 21
227.045293
 31
0.0
  0
LINE
  5
1CD
100
AcDbEntity
  8
0
370
    -3
  6
Continuous
100
AcDbLine
 10
179.089845
 20
182.045293
 30
0.0
 11
191.089845
 21
182.045293
 31
0.0
  0
LINE
  5
1CE
100
AcDbEntity
  8
0
370
    -3
  6
Continuous
100
AcDbLine
 10
191.001283
 20
286.633855
 30
0.0
 11
193.089845
 21
284.545293
 31
0.0
  0
ARC
  5
1CF
100
AcDbEntity
  8
0
370
    -3
  6
Continuous
100
AcDbCircle
 10
189.089845
 20
286.045293
 30
0.0
 40
2.0
100
AcDbArc
 50
0.0
 51
90.0
  0
LINE
  5
1D0
100
AcDbEntity
  8
0
370
    -3
  6
Continuous
100
AcDbLine
 10
178.089845
 20
288.045293
 30
0.0
 11
189.089845
 21
288.045293
 31
0.0
  0
LINE
  5
1D1
100
AcDbEntity
  8
0
370
    -3
  6
Continuous
100
AcDbLine
 10
191.089845
 20
204.545293
 30
0.0
 11
191.089845
 21
286.045293
 31
0.0
  0
ARC
  5
1D2
100
AcDbEntity
  8
0
370
    -3
  6
Continuous
100
AcDbCircle
 10
178.089845
 20
286.045293
 30
0.0
 40
2.0
100
AcDbArc
 50
90.0
 51
180.0
  0
LINE
  5
1D3
100
AcDbEntity
  8
0
370
    -3
  6
Continuous
100
AcDbLine
 10
191.089845
 20
204.545293
 30
0.0
 11
191.089845
 21
123.045293
 31
0.0
  0
ARC
  5
1D4
100
AcDbEntity
  8
0
370
    -3
  6
Continuous
100
AcDbCircle
 10
178.089845
 20
123.045293
 30
0.0
 40
2.0
100
AcDbArc
 50
180.0
 51
270.0
  0
LINE
  5
1D5
100
AcDbEntity
  8
0
370
    -3
  6
Continuous
100
AcDbLine
 10
178.089845
 20
121.045293
 30
0.0
 11
189.089845
 21
121.045293
 31
0.0
  0
LINE
  5
1D6
100
AcDbEntity
  8
0
370
    -3
  6
Continuous
100
AcDbLine
 10
191.001283
 20
122.456731
 30
0.0
 11
193.089845
 21
124.545293
 31
0.0
  0
ARC
  5
1D7
100
AcDbEntity
  8
0
370
    -3
  6
Continuous
100
AcDbCircle
 10
189.089845
 20
123.045293
 30
0.0
 40
2.0
100
AcDbArc
 50
270.0
 51
0.0
  0
ARC
  5
1D8
100
AcDbEntity
  8
0
370
    -3
  6
Continuous
100
AcDbCircle
 10
375.089845
 20
105.545293
 30
0.0
 40
7.0
100
AcDbArc
 50
0.0
 51
180.0
  0
LINE
  5
1D9
100
AcDbEntity
  8
0
370
    -3
  6
Continuous
100
AcDbLine
 10
368.089845
 20
42.545293
 30
0.0
 11
368.089845
 21
105.545293
 31
0.0
  0
LINE
  5
1DA
100
AcDbEntity
  8
0
370
    -3
  6
Continuous
100
AcDbLine
 10
382.089845
 20
42.545293
 30
0.0
 11
382.089845
 21
105.545293
 31
0.0
  0
LINE
  5
1DB
100
AcDbEntity
  8
0
370
    -3
  6
Continuous
100
AcDbLine
 10
349.089845
 20
117.545293
 30
0.0
 11
401.089845
 21
117.545293
 31
0.0
  0
LINE
  5
1DC
100
AcDbEntity
  8
0
370
    -3
  6
Continuous
100
AcDbLine
 10
401.089845
 20
119.545293
 30
0.0
 11
401.089845
 21
117.545293
 31
0.0
  0
LINE
  5
1DD
100
AcDbEntity
  8
0
370
    -3
  6
Continuous
100
AcDbLine
 10
400.089845
 20
117.545293
 30
0.0
 11
400.089845
 21
42.545293
 31
0.0
  0
LINE
  5
1DE
100
AcDbEntity
  8
0
370
    -3
  6
Continuous
100
AcDbLine
 10
382.089845
 20
105.545293
 30
0.0
 11
368.089845
 21
105.545293
 31
0.0
  0
LINE
  5
1DF
100
AcDbEntity
  8
0
370
    -3
  6
Continuous
100
AcDbLine
 10
349.089845
 20
119.545293
 30
0.0
 11
349.089845
 21
117.545293
 31
0.0
  0
LINE
  5
1E0
100
AcDbEntity
  8
0
370
    -3
  6
Continuous
100
AcDbLine
 10
350.089845
 20
117.545293
 30
0.0
 11
350.089845
 21
42.545293
 31
0.0
  0
LINE
  5
1E1
100
AcDbEntity
  8
0
370
    -3
  6
Continuous
100
AcDbLine
 10
350.089845
 20
42.545293
 30
0.0
 11
400.089845
 21
42.545293
 31
0.0
  0
LINE
  5
1E2
100
AcDbEntity
  8
0
370
    -3
  6
CENTER
100
AcDbLine
 10
512.513342
 20
204.545293
 30
0.0
 11
-131.523252
 21
204.545293
 31
0.0
  0
LINE
  5
1E3
100
AcDbEntity
  8
0
370
    -3
  6
Continuous
100
AcDbLine
 10
481.089845
 20
204.545293
 30
0.0
 11
479.348482
 21
138.045293
 31
0.0
  0
LINE
  5
1E4
100
AcDbEntity
  8
0
370
    -3
  6
Continuous
100
AcDbLine
 10
200.089845
 20
204.545293
 30
0.0
 11
201.831209
 21
138.045293
 31
0.0
  0
LINE
  5
1E5
100
AcDbEntity
  8
0
370
    -3
  6
Continuous
100
AcDbLine
 10
449.089845
 20
119.545293
 30
0.0
 11
301.089845
 21
119.545293
 31
0.0
  0
LINE
  5
1E6
100
AcDbEntity
  8
0
370
    -3
  6
CENTER
100
AcDbLine
 10
375.089845
 20
29.652461
 30
0.0
 11
375.089845
 21
309.701256
 31
0.0
  0
LINE
  5
1E7
100
AcDbEntity
  8
0
370
    -3
  6
Continuous
100
AcDbLine
 10
300.089845
 20
124.545293
 30
0.0
 11
300.089845
 21
120.545293
 31
0.0
  0
LINE
  5
1E8
100
AcDbEntity
  8
0
370
    -3
  6
Continuous
100
AcDbLine
 10
450.089845
 20
124.545293
 30
0.0
 11
450.089845
 21
120.545293
 31
0.0
  0
LINE
  5
1E9
100
AcDbEntity
  8
0
370
    -3
  6
Continuous
100
AcDbLine
 10
301.089845
 20
119.545293
 30
0.0
 11
300.089845
 21
120.545293
 31
0.0
  0
LINE
  5
1EA
100
AcDbEntity
  8
0
370
    -3
  6
Continuous
100
AcDbLine
 10
450.089845
 20
120.545293
 30
0.0
 11
449.089845
 21
119.545293
 31
0.0
  0
LINE
  5
1EB
100
AcDbEntity
  8
0
370
    -3
  6
Continuous
100
AcDbLine
 10
475.736335
 20
124.545293
 30
0.0
 11
195.089845
 21
124.545293
 31
0.0
  0
LINE
  5
1EC
100
AcDbEntity
  8
0
370
    -3
  6
Continuous
100
AcDbLine
 10
477.089845
 20
138.045293
 30
0.0
 11
476.762512
 21
125.54495
 31
0.0
  0
LINE
  5
1ED
100
AcDbEntity
  8
0
370
    -3
  6
Continuous
100
AcDbLine
 10
204.417178
 20
125.54495
 30
0.0
 11
204.089845
 21
138.045293
 31
0.0
  0
LINE
  5
1EE
100
AcDbEntity
  8
0
370
    -3
  6
Continuous
100
AcDbLine
 10
479.348482
 20
138.045293
 30
0.0
 11
201.831209
 21
138.045293
 31
0.0
  0
LINE
  5
1EF
100
AcDbEntity
  8
0
370
    -3
  6
Continuous
100
AcDbLine
 10
205.443355
 20
124.545293
 30
0.0
 11
204.417178
 21
125.54495
 31
0.0
  0
LINE
  5
1F0
100
AcDbEntity
  8
0
370
    -3
  6
Continuous
100
AcDbLine
 10
475.736335
 20
124.545293
 30
0.0
 11
476.762512
 21
125.54495
 31
0.0
  0
LINE
  5
1F1
100
AcDbEntity
  8
0
370
    -3
  6
Continuous
100
AcDbLine
 10
475.736335
 20
284.545293
 30
0.0
 11
195.089845
 21
284.545293
 31
0.0
  0
LINE
  5
1F2
100
AcDbEntity
  8
0
370
    -3
  6
Continuous
100
AcDbLine
 10
205.443355
 20
284.545293
 30
0.0
 11
204.417178
 21
283.545636
 31
0.0
  0
LINE
  5
1F3
100
AcDbEntity
  8
0
370
    -3
  6
Continuous
100
AcDbLine
 10
204.417178
 20
283.545636
 30
0.0
 11
204.089845
 21
271.045293
 31
0.0
  0
LINE
  5
1F4
100
AcDbEntity
  8
0
370
    -3
  6
Continuous
100
AcDbLine
 10
300.089845
 20
284.545293
 30
0.0
 11
300.089845
 21
288.545293
 31
0.0
  0
LINE
  5
1F5
100
AcDbEntity
  8
0
370
    -3
  6
Continuous
100
AcDbLine
 10
200.168403
 20
207.545293
 30
0.0
 11
201.831209
 21
271.045293
 31
0.0
  0
LINE
  5
1F6
100
AcDbEntity
  8
0
370
    -3
  6
Continuous
100
AcDbLine
 10
479.348482
 20
271.045293
 30
0.0
 11
201.831209
 21
271.045293
 31
0.0
  0
LINE
  5
1F7
100
AcDbEntity
  8
0
370
    -3
  6
Continuous
100
AcDbLine
 10
449.089845
 20
289.545293
 30
0.0
 11
301.089845
 21
289.545293
 31
0.0
  0
LINE
  5
1F8
100
AcDbEntity
  8
0
370
    -3
  6
Continuous
100
AcDbLine
 10
301.089845
 20
289.545293
 30
0.0
 11
300.089845
 21
288.545293
 31
0.0
  0
LINE
  5
1F9
100
AcDbEntity
  8
0
370
    -3
  6
Continuous
100
AcDbLine
 10
475.736335
 20
284.545293
 30
0.0
 11
476.762512
 21
283.545636
 31
0.0
  0
LINE
  5
1FA
100
AcDbEntity
  8
0
370
    -3
  6
Continuous
100
AcDbLine
 10
477.089845
 20
271.045293
 30
0.0
 11
476.762512
 21
283.545636
 31
0.0
  0
LINE
  5
1FB
100
AcDbEntity
  8
0
370
    -3
  6
Continuous
100
AcDbLine
 10
450.089845
 20
284.545293
 30
0.0
 11
450.089845
 21
288.545293
 31
0.0
  0
LINE
  5
1FC
100
AcDbEntity
  8
0
370
    -3
  6
Continuous
100
AcDbLine
 10
481.011288
 20
207.545293
 30
0.0
 11
479.348482
 21
271.045293
 31
0.0
  0
LINE
  5
1FD
100
AcDbEntity
  8
0
370
    -3
  6
Continuous
100
AcDbLine
 10
450.089845
 20
288.545293
 30
0.0
 11
449.089845
 21
289.545293
 31
0.0
  0
LINE
  5
1FE
100
AcDbEntity
  8
0
370
    -3
  6
Continuous
100
AcDbLine
 10
481.011288
 20
207.545293
 30
0.0
 11
200.168403
 21
207.545293
 31
0.0
  0
LINE
  5
1FF
100
AcDbEntity
  8
0
370
    -3
  6
Continuous
100
AcDbLine
 10
479.090531
 20
204.492939
 30
0.0
 11
479.010602
 21
207.545293
 31
0.0
  0
LINE
  5
200
100
AcDbEntity
  8
0
370
    -3
  6
Continuous
100
AcDbLine
 10
202.08916
 20
204.492939
 30
0.0
 11
202.169089
 21
207.545293
 31
0.0
  0
LINE
  5
201
100
AcDbEntity
  8
0
370
    -3
  6
Continuous
100
AcDbLine
 10
481.089845
 20
204.545293
 30
0.0
 11
200.089845
 21
204.545293
 31
0.0
  0
LINE
  5
202
100
AcDbEntity
  8
0
370
    -3
  6
Continuous
100
AcDbLine
 10
193.089845
 20
282.545293
 30
0.0
 11
193.089845
 21
126.545293
 31
0.0
  0
LINE
  5
203
100
AcDbEntity
  8
0
370
    -3
  6
Continuous
100
AcDbLine
 10
195.089845
 20
284.545293
 30
0.0
 11
193.089845
 21
282.545293
 31
0.0
  0
LINE
  5
204
100
AcDbEntity
  8
0
370
    -3
  6
Continuous
100
AcDbLine
 10
193.089845
 20
126.545293
 30
0.0
 11
195.089845
 21
124.545293
 31
0.0
  0
LINE
  5
205
100
AcDbEntity
  8
0
370
    -3
  6
Continuous
100
AcDbLine
 10
193.089845
 20
284.545293
 30
0.0
 11
193.089845
 21
124.545293
 31
0.0
  0
LINE
  5
206
100
AcDbEntity
  8
0
370
    -3
  6
Continuous
100
AcDbLine
 10
175.089845
 20
121.045293
 30
0.0
 11
175.089845
 21
182.045293
 31
0.0
  0
LINE
  5
207
100
AcDbEntity
  8
0
370
    -3
  6
Continuous
100
AcDbLine
 10
175.089845
 20
227.045293
 30
0.0
 11
175.089845
 21
288.045293
 31
0.0
  0
INSERT
  5
213
100
AcDbEntity
  8
0
100
AcDbBlockReference
  2
ZU_SYM__USERS_HOME_SYMBOL_POO_SYM_B20_-1
 10
167.089845
 20
215.045293
 30
0.0
 50
360.0
  0
INSERT
  5
21F
100
AcDbEntity
  8
0
100
AcDbBlockReference
  2
ZU_SYM__USERS_HOME_SYMBOL_POO_SYM_B20_00004-1
 10
167.089845
 20
194.045293
 30
0.0
 41
-1.0
 50
180.0
  0
LINE
  5
220
100
AcDbEntity
  8
0
370
    -3
  6
Continuous
100
AcDbLine
 10
175.089845
 20
227.045293
 30
0.0
 11
175.089845
 21
275.545198
 31
0.0
  0
LINE
  5
221
100
AcDbEntity
  8
0
370
    -3
  6
Continuous
100
AcDbLine
 10
167.089845
 20
227.045293
 30
0.0
 11
176.089845
 21
227.045293
 31
0.0
  0
LINE
  5
222
100
AcDbEntity
  8
0
370
    -3
  6
Continuous
100
AcDbLine
 10
167.089845
 20
182.045293
 30
0.0
 11
176.089845
 21
182.045293
 31
0.0
  0
LINE
  5
223
100
AcDbEntity
  8
0
370
    -3
  6
Continuous
100
AcDbLine
 10
167.089845
 20
182.045293
 30
0.0
 11
167.089845
 21
227.045293
 31
0.0
  0
LINE
  5
224
100
AcDbEntity
  8
0
370
    -3
  6
Continuous
100
AcDbLine
 10
176.089845
 20
182.045293
 30
0.0
 11
176.089845
 21
227.045293
 31
0.0
  0
LINE
  5
225
100
AcDbEntity
  8
0
370
    -3
  6
Continuous
100
AcDbLine
 10
176.089845
 20
227.045293
 30
0.0
 11
176.089845
 21
286.045293
 31
0.0
  0
LINE
  5
226
100
AcDbEntity
  8
0
370
    -3
  6
Continuous
100
AcDbLine
 10
175.089845
 20
182.045293
 30
0.0
 11
175.089845
 21
133.545388
 31
0.0
  0
LINE
  5
227
100
AcDbEntity
  8
0
370
    -3
  6
Continuous
100
AcDbLine
 10
176.089845
 20
182.045293
 30
0.0
 11
176.089845
 21
123.045293
 31
0.0
  0
ARC
  5
228
100
AcDbEntity
  8
0
370
    -3
  6
Continuous
100
AcDbCircle
 10
175.089845
 20
276.545198
 30
0.0
 40
1.0
100
AcDbArc
 50
270.0
 51
0.0
  0
ARC
  5
229
100
AcDbEntity
  8
0
370
    -3
  6
Continuous
100
AcDbCircle
 10
175.089845
 20
132.545388
 30
0.0
 40
1.0
100
AcDbArc
 50
0.0
 51
90.0
  0
LINE
  5
22A
100
AcDbEntity
  8
0
370
    -3
  6
Continuous
100
AcDbLine
 10
175.089845
 20
182.045293
 30
0.0
 11
175.089845
 21
121.045293
 31
0.0
  0
LINE
  5
22B
100
AcDbEntity
  8
0
370
    -3
  6
Continuous
100
AcDbLine
 10
175.089845
 20
227.045293
 30
0.0
 11
175.089845
 21
288.045293
 31
0.0
  0
LINE
  5
22C
100
AcDbEntity
  8
0
370
    -3
  6
Continuous
100
AcDbLine
 10
-279.410212
 20
-204.032871
 30
0.0
 11
-279.410212
 21
-263.136242
 31
0.0
  0
LINE
  5
22D
100
AcDbEntity
  8
0
370
    -3
  6
Continuous
100
AcDbLine
 10
-265.910212
 20
-179.607392
 30
0.0
 11
-265.910212
 21
-260.118399
 31
0.0
  0
LINE
  5
22E
100
AcDbEntity
  8
0
370
    -3
  6
Continuous
100
AcDbLine
 10
-260.910212
 20
-165.890273
 30
0.0
 11
-260.910212
 21
-188.458289
 31
0.0
  0
LINE
  5
22F
100
AcDbEntity
  8
0
370
    -3
  6
Continuous
100
AcDbLine
 10
-412.410212
 20
-204.032867
 30
0.0
 11
-412.410212
 21
-263.136242
 31
0.0
  0
LINE
  5
230
100
AcDbEntity
  8
0
370
    -3
  6
Continuous
100
AcDbLine
 10
-425.910212
 20
-179.607377
 30
0.0
 11
-425.910212
 21
-260.118399
 31
0.0
  0
LINE
  5
231
100
AcDbEntity
  8
0
370
    -3
  6
Continuous
100
AcDbLine
 10
-430.910212
 20
-165.890243
 30
0.0
 11
-430.910212
 21
-188.458473
 31
0.0
  0
ARC
  5
232
100
AcDbEntity
  8
0
370
    -3
  6
Continuous
100
AcDbCircle
 10
1096.589838
 20
-133.458289
 30
0.0
 40
390.8
100
AcDbArc
 50
177.020093
 51
182.979907
  0
ARC
  5
233
100
AcDbEntity
  8
0
370
    -3
  6
Continuous
100
AcDbCircle
 10
489.589838
 20
-133.458289
 30
0.0
 40
390.8
100
AcDbArc
 50
357.020093
 51
2.979907
  0
ARC
  5
234
100
AcDbEntity
  8
0
370
    -3
  6
Continuous
100
AcDbCircle
 10
814.150382
 20
-116.56292
 30
0.0
 40
65.8
100
AcDbArc
 50
2.979907
 51
13.657552
  0
ARC
  5
235
100
AcDbEntity
  8
0
370
    -3
  6
Continuous
100
AcDbCircle
 10
814.150382
 20
-150.353658
 30
0.0
 40
65.8
100
AcDbArc
 50
346.342448
 51
357.020093
  0
ARC
  5
236
100
AcDbEntity
  8
0
370
    -3
  6
Continuous
100
AcDbCircle
 10
772.029294
 20
-150.353658
 30
0.0
 40
65.8
100
AcDbArc
 50
182.979907
 51
193.657579
  0
ARC
  5
237
100
AcDbEntity
  8
0
370
    -3
  6
Continuous
100
AcDbCircle
 10
772.029294
 20
-116.56292
 30
0.0
 40
65.8
100
AcDbArc
 50
166.342421
 51
177.020093
  0
ARC
  5
238
100
AcDbEntity
  8
0
370
    -3
  6
DASHED
100
AcDbCircle
 10
776.194469
 20
-112.397745
 30
0.0
 40
65.8
100
AcDbArc
 50
92.979907
 51
128.737581
  0
ARC
  5
239
100
AcDbEntity
  8
0
370
    -3
  6
DASHED
100
AcDbCircle
 10
793.089838
 20
-133.458289
 30
0.0
 40
92.8
100
AcDbArc
 50
128.737581
 51
141.262419
  0
ARC
  5
23A
100
AcDbEntity
  8
0
370
    -3
  6
DASHED
100
AcDbCircle
 10
793.089838
 20
-133.458289
 30
0.0
 40
92.8
100
AcDbArc
 50
38.737581
 51
51.262419
  0
ARC
  5
23B
100
AcDbEntity
  8
0
370
    -3
  6
DASHED
100
AcDbCircle
 10
809.985207
 20
-112.397745
 30
0.0
 40
65.8
100
AcDbArc
 50
51.262419
 51
87.020093
  0
ARC
  5
23C
100
AcDbEntity
  8
0
370
    -3
  6
DASHED
100
AcDbCircle
 10
793.089838
 20
-436.958289
 30
0.0
 40
390.8
100
AcDbArc
 50
87.020093
 51
92.979907
  0
ARC
  5
23D
100
AcDbEntity
  8
0
370
    -3
  6
DASHED
100
AcDbCircle
 10
814.150382
 20
-116.56292
 30
0.0
 40
65.8
100
AcDbArc
 50
13.657552
 51
38.737581
  0
ARC
  5
23E
100
AcDbEntity
  8
0
370
    -3
  6
DASHED
100
AcDbCircle
 10
772.029294
 20
-116.56292
 30
0.0
 40
65.8
100
AcDbArc
 50
141.262419
 51
166.342421
  0
ARC
  5
23F
100
AcDbEntity
  8
0
370
    -3
  6
DASHED
100
AcDbCircle
 10
793.089838
 20
-133.458289
 30
0.0
 40
92.8
100
AcDbArc
 50
218.737581
 51
231.262419
  0
ARC
  5
240
100
AcDbEntity
  8
0
370
    -3
  6
DASHED
100
AcDbCircle
 10
776.194469
 20
-154.518833
 30
0.0
 40
65.8
100
AcDbArc
 50
231.262419
 51
267.020093
  0
ARC
  5
241
100
AcDbEntity
  8
0
370
    -3
  6
DASHED
100
AcDbCircle
 10
793.089838
 20
170.041711
 30
0.0
 40
390.8
100
AcDbArc
 50
267.020093
 51
272.979907
  0
ARC
  5
242
100
AcDbEntity
  8
0
370
    -3
  6
DASHED
100
AcDbCircle
 10
809.985207
 20
-154.518833
 30
0.0
 40
65.8
100
AcDbArc
 50
272.979907
 51
308.737581
  0
ARC
  5
243
100
AcDbEntity
  8
0
370
    -3
  6
DASHED
100
AcDbCircle
 10
793.089838
 20
-133.458289
 30
0.0
 40
92.8
100
AcDbArc
 50
308.737581
 51
321.262419
  0
ARC
  5
244
100
AcDbEntity
  8
0
370
    -3
  6
DASHED
100
AcDbCircle
 10
814.150382
 20
-150.353658
 30
0.0
 40
65.8
100
AcDbArc
 50
321.262419
 51
346.342448
  0
ARC
  5
245
100
AcDbEntity
  8
0
370
    -3
  6
DASHED
100
AcDbCircle
 10
772.029294
 20
-150.353658
 30
0.0
 40
65.8
100
AcDbArc
 50
193.657579
 51
218.737581
  0
LINE
  5
246
100
AcDbEntity
  8
0
370
    -3
  6
CENTER
100
AcDbLine
 10
618.163943
 20
-113.458289
 30
0.0
 11
893.759734
 21
-113.458289
 31
0.0
  0
LINE
  5
247
100
AcDbEntity
  8
0
370
    -3
  6
CENTER
100
AcDbLine
 10
815.397433
 20
-133.458289
 30
0.0
 11
776.424908
 21
-133.458289
 31
0.0
  0
LINE
  5
248
100
AcDbEntity
  8
0
370
    -3
  6
Continuous
100
AcDbLine
 10
706.089845
 20
-87.458289
 30
0.0
 11
706.089845
 21
-139.458289
 31
0.0
  0
LINE
  5
249
100
AcDbEntity
  8
0
370
    -3
  6
Continuous
100
AcDbLine
 10
708.089845
 20
-139.458289
 30
0.0
 11
706.089845
 21
-139.458289
 31
0.0
  0
LINE
  5
24A
100
AcDbEntity
  8
0
370
    -3
  6
Continuous
100
AcDbLine
 10
706.089845
 20
-138.458289
 30
0.0
 11
631.089845
 21
-138.458289
 31
0.0
  0
LINE
  5
24B
100
AcDbEntity
  8
0
370
    -3
  6
Continuous
100
AcDbLine
 10
631.089845
 20
-84.958289
 30
0.0
 11
631.089845
 21
-138.458289
 31
0.0
  0
LINE
  5
24C
100
AcDbEntity
  8
0
370
    -3
  6
Continuous
100
AcDbLine
 10
706.089845
 20
-88.458289
 30
0.0
 11
631.089845
 21
-88.458289
 31
0.0
  0
LINE
  5
24D
100
AcDbEntity
  8
0
370
    -3
  6
Continuous
100
AcDbLine
 10
708.089845
 20
-87.458289
 30
0.0
 11
706.089845
 21
-87.458289
 31
0.0
  0
LINE
  5
24E
100
AcDbEntity
  8
0
370
    -3
  6
Continuous
100
AcDbLine
 10
694.089845
 20
-88.458289
 30
0.0
 11
694.089845
 21
-84.958289
 31
0.0
  0
LINE
  5
24F
100
AcDbEntity
  8
0
370
    -3
  6
Continuous
100
AcDbLine
 10
694.089845
 20
-84.958289
 30
0.0
 11
631.089845
 21
-84.958289
 31
0.0
  0
ARC
  5
250
100
AcDbEntity
  8
0
370
    -3
  6
Continuous
100
AcDbCircle
 10
793.089531
 20
-8.458028
 30
0.0
 40
10.0
100
AcDbArc
 50
3.733167
 51
176.26696
  0
LINE
  5
251
100
AcDbEntity
  8
0
370
    -3
  6
Continuous
100
AcDbLine
 10
813.589519
 20
1.542009
 30
0.0
 11
813.589531
 21
-8.174338
 31
0.0
  0
ARC
  5
252
100
AcDbEntity
  8
0
370
    -3
  6
Continuous
100
AcDbCircle
 10
803.589519
 20
1.541997
 30
0.0
 40
10.0
100
AcDbArc
 50
0.00007
 51
90.000139
  0
LINE
  5
253
100
AcDbEntity
  8
0
370
    -3
  6
Continuous
100
AcDbLine
 10
772.589519
 20
1.541934
 30
0.0
 11
772.589531
 21
-8.17436
 31
0.0
  0
LINE
  5
254
100
AcDbEntity
  8
0
370
    -3
  6
Continuous
100
AcDbLine
 10
782.589495
 20
11.541946
 30
0.0
 11
803.589495
 21
11.541997
 31
0.0
  0
ARC
  5
255
100
AcDbEntity
  8
0
370
    -3
  6
Continuous
100
AcDbCircle
 10
782.589519
 20
1.541946
 30
0.0
 40
10.0
100
AcDbArc
 50
90.000139
 51
180.00007
  0
LINE
  5
256
100
AcDbEntity
  8
0
370
    -3
  6
CENTER
100
AcDbLine
 10
793.089651
 20
23.108632
 30
0.0
 11
793.090032
 21
-289.968806
 31
0.0
  0
LINE
  5
257
100
AcDbEntity
  8
0
370
    -3
  6
CENTER
100
AcDbLine
 10
876.653088
 20
-242.45754
 30
0.0
 11
709.717337
 21
-242.457947
 31
0.0
  0
LINE
  5
258
100
AcDbEntity
  8
0
370
    -3
  6
CENTER
100
AcDbLine
 10
876.652572
 20
-30.45754
 30
0.0
 11
709.716821
 21
-30.457947
 31
0.0
  0
LINE
  5
259
100
AcDbEntity
  8
0
370
    -3
  6
Continuous
100
AcDbLine
 10
713.089845
 20
-12.81164
 30
0.0
 11
713.089845
 21
-260.118399
 31
0.0
  0
LINE
  5
25A
100
AcDbEntity
  8
0
370
    -3
  6
Continuous
100
AcDbLine
 10
714.08916
 20
-11.785815
 30
0.0
 11
713.089845
 21
-12.81164
 31
0.0
  0
LINE
  5
25B
100
AcDbEntity
  8
0
370
    -3
  6
Continuous
100
AcDbLine
 10
714.08916
 20
-261.144224
 30
0.0
 11
726.589845
 21
-261.471566
 31
0.0
  0
LINE
  5
25C
100
AcDbEntity
  8
0
370
    -3
  6
Continuous
100
AcDbLine
 10
872.090531
 20
-261.144224
 30
0.0
 11
859.589845
 21
-261.471566
 31
0.0
  0
LINE
  5
25D
100
AcDbEntity
  8
0
370
    -3
  6
Continuous
100
AcDbLine
 10
796.089845
 20
-113.458473
 30
0.0
 11
796.089845
 21
-265.353711
 31
0.0
  0
LINE
  5
25E
100
AcDbEntity
  8
0
370
    -3
  6
Continuous
100
AcDbLine
 10
772.589677
 20
-8.174355
 30
0.0
 11
772.589677
 21
-7.958289
 31
0.0
  0
LINE
  5
25F
100
AcDbEntity
  8
0
370
    -3
  6
Continuous
100
AcDbLine
 10
813.589677
 20
-8.174343
 30
0.0
 11
813.589677
 21
-7.958289
 31
0.0
  0
LINE
  5
260
100
AcDbEntity
  8
0
370
    -3
  6
Continuous
100
AcDbLine
 10
796.089845
 20
-7.563235
 30
0.0
 11
796.089845
 21
-113.458473
 31
0.0
  0
LINE
  5
261
100
AcDbEntity
  8
0
370
    -3
  6
Continuous
100
AcDbLine
 10
793.089845
 20
-265.458473
 30
0.0
 11
726.589845
 21
-263.136242
 31
0.0
  0
LINE
  5
262
100
AcDbEntity
  8
0
370
    -3
  6
Continuous
100
AcDbLine
 10
726.589845
 20
-9.780704
 30
0.0
 11
726.589845
 21
-263.136242
 31
0.0
  0
LINE
  5
263
100
AcDbEntity
  8
0
370
    -3
  6
Continuous
100
AcDbLine
 10
796.089845
 20
-265.353711
 30
0.0
 11
859.589845
 21
-263.136242
 31
0.0
  0
LINE
  5
264
100
AcDbEntity
  8
0
370
    -3
  6
Continuous
100
AcDbLine
 10
859.589845
 20
-9.780704
 30
0.0
 11
859.589845
 21
-263.136242
 31
0.0
  0
LINE
  5
265
100
AcDbEntity
  8
0
370
    -3
  6
Continuous
100
AcDbLine
 10
708.089845
 20
-38.458289
 30
0.0
 11
708.089845
 21
-188.458289
 31
0.0
  0
LINE
  5
266
100
AcDbEntity
  8
0
370
    -3
  6
Continuous
100
AcDbLine
 10
793.089845
 20
-7.458473
 30
0.0
 11
793.089845
 21
-265.493394
 31
0.0
  0
LINE
  5
267
100
AcDbEntity
  8
0
370
    -3
  6
Continuous
100
AcDbLine
 10
793.089845
 20
-7.458473
 30
0.0
 11
726.589845
 21
-9.780704
 31
0.0
  0
LINE
  5
268
100
AcDbEntity
  8
0
370
    -3
  6
Continuous
100
AcDbLine
 10
714.08916
 20
-261.144224
 30
0.0
 11
713.089845
 21
-260.118399
 31
0.0
  0
LINE
  5
269
100
AcDbEntity
  8
0
370
    -3
  6
Continuous
100
AcDbLine
 10
726.589845
 20
-11.458473
 30
0.0
 11
714.08916
 21
-11.785815
 31
0.0
  0
LINE
  5
26A
100
AcDbEntity
  8
0
370
    -3
  6
Continuous
100
AcDbLine
 10
714.08916
 20
-11.785815
 30
0.0
 11
713.089845
 21
-12.81164
 31
0.0
  0
LINE
  5
26B
100
AcDbEntity
  8
0
370
    -3
  6
Continuous
100
AcDbLine
 10
793.089845
 20
-9.458473
 30
0.0
 11
793.089845
 21
-263.458473
 31
0.0
  0
LINE
  5
26C
100
AcDbEntity
  8
0
370
    -3
  6
Continuous
100
AcDbLine
 10
878.089845
 20
-38.458473
 30
0.0
 11
878.089845
 21
-188.458473
 31
0.0
  0
LINE
  5
26D
100
AcDbEntity
  8
0
370
    -3
  6
Continuous
100
AcDbLine
 10
873.089845
 20
-12.81164
 30
0.0
 11
873.089845
 21
-260.118399
 31
0.0
  0
LINE
  5
26E
100
AcDbEntity
  8
0
370
    -3
  6
Continuous
100
AcDbLine
 10
873.089845
 20
-38.458473
 30
0.0
 11
878.089845
 21
-38.458473
 31
0.0
  0
LINE
  5
26F
100
AcDbEntity
  8
0
370
    -3
  6
Continuous
100
AcDbLine
 10
873.089845
 20
-188.458473
 30
0.0
 11
878.089845
 21
-188.458473
 31
0.0
  0
LINE
  5
270
100
AcDbEntity
  8
0
370
    -3
  6
Continuous
100
AcDbLine
 10
796.085734
 20
-263.615481
 30
0.0
 11
793.089845
 21
-263.458473
 31
0.0
  0
LINE
  5
271
100
AcDbEntity
  8
0
370
    -3
  6
Continuous
100
AcDbLine
 10
796.089845
 20
-7.563235
 30
0.0
 11
859.589845
 21
-9.780704
 31
0.0
  0
LINE
  5
272
100
AcDbEntity
  8
0
370
    -3
  6
Continuous
100
AcDbLine
 10
796.085734
 20
-9.301465
 30
0.0
 11
793.089845
 21
-9.458473
 31
0.0
  0
LINE
  5
273
100
AcDbEntity
  8
0
370
    -3
  6
Continuous
100
AcDbLine
 10
872.090531
 20
-261.144224
 30
0.0
 11
873.089845
 21
-260.118399
 31
0.0
  0
LINE
  5
274
100
AcDbEntity
  8
0
370
    -3
  6
Continuous
100
AcDbLine
 10
872.090531
 20
-11.785815
 30
0.0
 11
873.089845
 21
-12.81164
 31
0.0
  0
LINE
  5
275
100
AcDbEntity
  8
0
370
    -3
  6
Continuous
100
AcDbLine
 10
859.589845
 20
-11.458473
 30
0.0
 11
872.090531
 21
-11.785815
 31
0.0
  0
LINE
  5
276
100
AcDbEntity
  8
0
370
    -3
  6
Continuous
100
AcDbLine
 10
713.089845
 20
-38.458289
 30
0.0
 11
708.089845
 21
-38.458289
 31
0.0
  0
LINE
  5
277
100
AcDbEntity
  8
0
370
    -3
  6
Continuous
100
AcDbLine
 10
713.089845
 20
-188.458289
 30
0.0
 11
708.089845
 21
-188.458289
 31
0.0
  0
POINT
  5
278
100
AcDbEntity
  8
0
370
    -3
  6
Continuous
100
AcDbPoint
 10
207.589845
 20
-133.45841
 30
0.0
  0
ARC
  5
279
100
AcDbEntity
  8
0
370
    -3
  6
Continuous
100
AcDbCircle
 10
175.089845
 20
-58.458505
 30
0.0
 40
1.0
100
AcDbArc
 50
270.0
 51
0.0
  0
ARC
  5
27A
100
AcDbEntity
  8
0
370
    -3
  6
Continuous
100
AcDbCircle
 10
178.089845
 20
-214.95841
 30
0.0
 40
2.0
100
AcDbArc
 50
180.0
 51
270.0
  0
ARC
  5
27B
100
AcDbEntity
  8
0
370
    -3
  6
Continuous
100
AcDbCircle
 10
189.761418
 20
-214.95841
 30
0.0
 40
2.0
100
AcDbArc
 50
270.0
 51
315.0
  0
LINE
  5
27C
100
AcDbEntity
  8
0
370
    -3
  6
Continuous
100
AcDbLine
 10
178.089845
 20
-216.95841
 30
0.0
 11
189.761418
 21
-216.95841
 31
0.0
  0
LINE
  5
27D
100
AcDbEntity
  8
0
370
    -3
  6
Continuous
100
AcDbLine
 10
191.089845
 20
-50.45841
 30
0.0
 11
193.089845
 21
-52.45841
 31
0.0
  0
LINE
  5
27E
100
AcDbEntity
  8
0
370
    -3
  6
Continuous
100
AcDbLine
 10
193.089845
 20
-52.45841
 30
0.0
 11
193.089845
 21
-214.45841
 31
0.0
  0
LINE
  5
27F
100
AcDbEntity
  8
0
370
    -3
  6
Continuous
100
AcDbLine
 10
191.089845
 20
-216.45841
 30
0.0
 11
193.089845
 21
-214.45841
 31
0.0
  0
LINE
  5
280
100
AcDbEntity
  8
0
370
    -3
  6
Continuous
100
AcDbLine
 10
175.089845
 20
-207.458315
 30
0.0
 11
175.089845
 21
-59.458505
 31
0.0
  0
ARC
  5
281
100
AcDbEntity
  8
0
370
    -3
  6
Continuous
100
AcDbCircle
 10
175.089845
 20
-208.458315
 30
0.0
 40
1.0
100
AcDbArc
 50
0.0
 51
90.0
  0
LINE
  5
282
100
AcDbEntity
  8
0
370
    -3
  6
Continuous
100
AcDbLine
 10
176.089845
 20
-214.95841
 30
0.0
 11
176.089845
 21
-133.45841
 31
0.0
  0
ARC
  5
283
100
AcDbEntity
  8
0
370
    -3
  6
Continuous
100
AcDbCircle
 10
178.089845
 20
-51.95841
 30
0.0
 40
2.0
100
AcDbArc
 50
90.0
 51
180.0
  0
ARC
  5
284
100
AcDbEntity
  8
0
370
    -3
  6
Continuous
100
AcDbCircle
 10
189.761418
 20
-51.95841
 30
0.0
 40
2.0
100
AcDbArc
 50
45.0
 51
90.0
  0
LINE
  5
285
100
AcDbEntity
  8
0
370
    -3
  6
Continuous
100
AcDbLine
 10
178.089845
 20
-49.95841
 30
0.0
 11
189.761418
 21
-49.95841
 31
0.0
  0
LINE
  5
286
100
AcDbEntity
  8
0
370
    -3
  6
Continuous
100
AcDbLine
 10
176.089845
 20
-51.95841
 30
0.0
 11
176.089845
 21
-133.45841
 31
0.0
  0
LINE
  5
287
100
AcDbEntity
  8
0
370
    -3
  6
Continuous
100
AcDbLine
 10
190.589845
 20
-216.778769
 30
0.0
 11
190.589845
 21
-50.13805
 31
0.0
  0
LINE
  5
288
100
AcDbEntity
  8
0
370
    -3
  6
Continuous
100
AcDbLine
 10
190.589845
 20
-114.95841
 30
0.0
 11
176.089845
 21
-114.95841
 31
0.0
  0
LINE
  5
289
100
AcDbEntity
  8
0
370
    -3
  6
Continuous
100
AcDbLine
 10
190.589845
 20
-151.95841
 30
0.0
 11
176.089845
 21
-151.95841
 31
0.0
  0
LINE
  5
28A
100
AcDbEntity
  8
0
370
    -3
  6
Continuous
100
AcDbLine
 10
191.089845
 20
-26.45841
 30
0.0
 11
191.089845
 21
-50.45841
 31
0.0
  0
ARC
  5
28B
100
AcDbEntity
  8
0
370
    -3
  6
Continuous
100
AcDbCircle
 10
188.089845
 20
-26.45841
 30
0.0
 40
3.0
100
AcDbArc
 50
0.0
 51
90.0
  0
LINE
  5
28C
100
AcDbEntity
  8
0
370
    -3
  6
Continuous
100
AcDbLine
 10
171.589845
 20
11.541643
 30
0.0
 11
176.089845
 21
11.541643
 31
0.0
  0
LINE
  5
28D
100
AcDbEntity
  8
0
370
    -3
  6
Continuous
100
AcDbLine
 10
176.089845
 20
-26.45841
 30
0.0
 11
176.089845
 21
-58.458505
 31
0.0
  0
ARC
  5
28E
100
AcDbEntity
  8
0
370
    -3
  6
Continuous
100
AcDbCircle
 10
179.089845
 20
-26.45841
 30
0.0
 40
3.0
100
AcDbArc
 50
90.0
 51
180.0
  0
LINE
  5
28F
100
AcDbEntity
  8
0
370
    -3
  6
Continuous
100
AcDbLine
 10
171.589845
 20
11.541643
 30
0.0
 11
171.589845
 21
-43.458357
 31
0.0
  0
LINE
  5
290
100
AcDbEntity
  8
0
370
    -3
  6
Continuous
100
AcDbLine
 10
179.089845
 20
-23.45841
 30
0.0
 11
188.089845
 21
-23.45841
 31
0.0
  0
LINE
  5
291
100
AcDbEntity
  8
0
370
    -3
  6
Continuous
100
AcDbLine
 10
171.589845
 20
-43.458357
 30
0.0
 11
176.089845
 21
-43.458357
 31
0.0
  0
LINE
  5
292
100
AcDbEntity
  8
0
370
    -3
  6
Continuous
100
AcDbLine
 10
175.089845
 20
-133.458394
 30
0.0
 11
175.089845
 21
-53.458394
 31
0.0
  0
LINE
  5
293
100
AcDbEntity
  8
0
370
    -3
  6
Continuous
100
AcDbLine
 10
175.089845
 20
-133.458394
 30
0.0
 11
175.089845
 21
-216.958394
 31
0.0
  0
LINE
  5
294
100
AcDbEntity
  8
0
370
    -3
  6
Continuous
100
AcDbLine
 10
175.089845
 20
-133.458394
 30
0.0
 11
175.089845
 21
-216.958394
 31
0.0
  0
LINE
  5
295
100
AcDbEntity
  8
0
370
    -3
  6
Continuous
100
AcDbLine
 10
175.089845
 20
-133.458394
 30
0.0
 11
175.089845
 21
-53.458394
 31
0.0
  0
LINE
  5
296
100
AcDbEntity
  8
0
370
    -3
  6
Continuous
100
AcDbLine
 10
193.089845
 20
-212.65841
 30
0.0
 11
193.089845
 21
-132.45841
 31
0.0
  0
LINE
  5
297
100
AcDbEntity
  8
0
370
    -3
  6
Continuous
100
AcDbLine
 10
193.089845
 20
-55.25841
 30
0.0
 11
193.089845
 21
-135.45841
 31
0.0
  0
LINE
  5
298
100
AcDbEntity
  8
0
370
    -3
  6
Continuous
100
AcDbLine
 10
368.089845
 20
-84.95841
 30
0.0
 11
368.089845
 21
-93.95841
 31
0.0
  0
LINE
  5
299
100
AcDbEntity
  8
0
370
    -3
  6
Continuous
100
AcDbLine
 10
382.089845
 20
-84.95841
 30
0.0
 11
382.089845
 21
-93.95841
 31
0.0
  0
LINE
  5
29A
100
AcDbEntity
  8
0
370
    -3
  6
Continuous
100
AcDbLine
 10
382.089845
 20
-93.95841
 30
0.0
 11
368.089845
 21
-93.95841
 31
0.0
  0
LINE
  5
29B
100
AcDbEntity
  8
0
370
    -3
  6
Continuous
100
AcDbLine
 10
382.089845
 20
-84.95841
 30
0.0
 11
368.089845
 21
-84.95841
 31
0.0
  0
ARC
  5
29C
100
AcDbEntity
  8
0
370
    -3
  6
Continuous
100
AcDbCircle
 10
375.089845
 20
-113.45841
 30
0.0
 40
25.0
100
AcDbArc
 50
106.260205
 51
73.739795
  0
CIRCLE
  5
29D
100
AcDbEntity
  8
0
370
    -3
  6
Continuous
100
AcDbCircle
 10
375.089845
 20
-113.45841
 30
0.0
 40
3.5
  0
CIRCLE
  5
29E
100
AcDbEntity
  8
0
370
    -3
  6
Continuous
100
AcDbCircle
 10
375.089845
 20
-113.45841
 30
0.0
 40
4.0
  0
LINE
  5
29F
100
AcDbEntity
  8
0
370
    -3
  6
Continuous
100
AcDbLine
 10
193.089845
 20
-52.45841
 30
0.0
 11
193.089845
 21
-212.458282
 31
0.0
  0
LINE
  5
2A0
100
AcDbEntity
  8
0
370
    -3
  6
Continuous
100
AcDbLine
 10
466.089845
 20
-79.969046
 30
0.0
 11
466.089845
 21
-192.947774
 31
0.0
  0
ARC
  5
2A1
100
AcDbEntity
  8
0
370
    -3
  6
Continuous
100
AcDbCircle
 10
457.089845
 20
-79.969046
 30
0.0
 40
9.0
100
AcDbArc
 50
0.0
 51
70.123126
  0
ARC
  5
2A2
100
AcDbEntity
  8
0
370
    -3
  6
Continuous
100
AcDbCircle
 10
465.589845
 20
-56.45841
 30
0.0
 40
16.0
100
AcDbArc
 50
190.481465
 51
250.123126
  0
ARC
  5
2A3
100
AcDbEntity
  8
0
370
    -3
  6
Continuous
100
AcDbCircle
 10
441.007
 20
-61.006346
 30
0.0
 40
9.0
100
AcDbArc
 50
10.481465
 51
60.785452
  0
ARC
  5
2A4
100
AcDbEntity
  8
0
370
    -3
  6
Continuous
100
AcDbCircle
 10
458.089845
 20
-30.45841
 30
0.0
 40
26.0
100
AcDbArc
 50
181.637245
 51
240.785452
  0
ARC
  5
2A5
100
AcDbEntity
  8
0
370
    -3
  6
Continuous
100
AcDbCircle
 10
423.104134
 20
-31.45841
 30
0.0
 40
9.0
100
AcDbArc
 50
1.637245
 51
90.0
  0
LINE
  5
2A6
100
AcDbEntity
  8
0
370
    -3
  6
Continuous
100
AcDbLine
 10
423.104134
 20
-22.45841
 30
0.0
 11
331.600481
 21
-22.45841
 31
0.0
  0
ARC
  5
2A7
100
AcDbEntity
  8
0
370
    -3
  6
Continuous
100
AcDbCircle
 10
331.600481
 20
-31.45841
 30
0.0
 40
9.0
100
AcDbArc
 50
90.0
 51
160.123126
  0
ARC
  5
2A8
100
AcDbEntity
  8
0
370
    -3
  6
Continuous
100
AcDbCircle
 10
308.089845
 20
-22.95841
 30
0.0
 40
16.0
100
AcDbArc
 50
199.876874
 51
340.123126
  0
ARC
  5
2A9
100
AcDbEntity
  8
0
370
    -3
  6
Continuous
100
AcDbCircle
 10
284.57921
 20
-31.45841
 30
0.0
 40
9.0
100
AcDbArc
 50
19.876874
 51
90.0
  0
LINE
  5
2AA
100
AcDbEntity
  8
0
370
    -3
  6
Continuous
100
AcDbLine
 10
284.57921
 20
-22.45841
 30
0.0
 11
258.075557
 21
-22.45841
 31
0.0
  0
ARC
  5
2AB
100
AcDbEntity
  8
0
370
    -3
  6
Continuous
100
AcDbCircle
 10
258.075557
 20
-31.45841
 30
0.0
 40
9.0
100
AcDbArc
 50
90.0
 51
178.362755
  0
ARC
  5
2AC
100
AcDbEntity
  8
0
370
    -3
  6
Continuous
100
AcDbCircle
 10
223.089845
 20
-30.45841
 30
0.0
 40
26.0
100
AcDbArc
 50
299.214548
 51
358.362755
  0
ARC
  5
2AD
100
AcDbEntity
  8
0
370
    -3
  6
Continuous
100
AcDbCircle
 10
240.172691
 20
-61.006346
 30
0.0
 40
9.0
100
AcDbArc
 50
119.214548
 51
169.518535
  0
ARC
  5
2AE
100
AcDbEntity
  8
0
370
    -3
  6
Continuous
100
AcDbCircle
 10
215.589845
 20
-56.45841
 30
0.0
 40
16.0
100
AcDbArc
 50
289.876874
 51
349.518535
  0
ARC
  5
2AF
100
AcDbEntity
  8
0
370
    -3
  6
Continuous
100
AcDbCircle
 10
224.089845
 20
-79.969046
 30
0.0
 40
9.0
100
AcDbArc
 50
109.876874
 51
180.0
  0
LINE
  5
2B0
100
AcDbEntity
  8
0
370
    -3
  6
Continuous
100
AcDbLine
 10
215.089845
 20
-192.947774
 30
0.0
 11
215.089845
 21
-79.969046
 31
0.0
  0
ARC
  5
2B1
100
AcDbEntity
  8
0
370
    -3
  6
Continuous
100
AcDbCircle
 10
224.089845
 20
-192.947774
 30
0.0
 40
9.0
100
AcDbArc
 50
180.0
 51
250.123126
  0
ARC
  5
2B2
100
AcDbEntity
  8
0
370
    -3
  6
Continuous
100
AcDbCircle
 10
215.589845
 20
-216.45841
 30
0.0
 40
16.0
100
AcDbArc
 50
10.481465
 51
70.123126
  0
ARC
  5
2B3
100
AcDbEntity
  8
0
370
    -3
  6
Continuous
100
AcDbCircle
 10
240.172691
 20
-211.910474
 30
0.0
 40
9.0
100
AcDbArc
 50
190.481465
 51
240.785452
  0
ARC
  5
2B4
100
AcDbEntity
  8
0
370
    -3
  6
Continuous
100
AcDbCircle
 10
223.089845
 20
-242.45841
 30
0.0
 40
26.0
100
AcDbArc
 50
1.637245
 51
60.785452
  0
ARC
  5
2B5
100
AcDbEntity
  8
0
370
    -3
  6
Continuous
100
AcDbCircle
 10
258.075557
 20
-241.45841
 30
0.0
 40
9.0
100
AcDbArc
 50
181.637245
 51
270.0
  0
LINE
  5
2B6
100
AcDbEntity
  8
0
370
    -3
  6
Continuous
100
AcDbLine
 10
331.621042
 20
-250.45841
 30
0.0
 11
258.075557
 21
-250.45841
 31
0.0
  0
ARC
  5
2B7
100
AcDbEntity
  8
0
370
    -3
  6
Continuous
100
AcDbCircle
 10
331.621042
 20
-241.45841
 30
0.0
 40
9.0
100
AcDbArc
 50
270.0
 51
339.843037
  0
ARC
  5
2B8
100
AcDbEntity
  8
0
370
    -3
  6
Continuous
100
AcDbCircle
 10
355.089845
 20
-250.073239
 30
0.0
 40
16.0
100
AcDbArc
 50
20.156963
 51
159.843037
  0
ARC
  5
2B9
100
AcDbEntity
  8
0
370
    -3
  6
Continuous
100
AcDbCircle
 10
378.558649
 20
-241.45841
 30
0.0
 40
9.0
100
AcDbArc
 50
200.156963
 51
270.0
  0
LINE
  5
2BA
100
AcDbEntity
  8
0
370
    -3
  6
Continuous
100
AcDbLine
 10
423.104134
 20
-250.45841
 30
0.0
 11
378.558649
 21
-250.45841
 31
0.0
  0
ARC
  5
2BB
100
AcDbEntity
  8
0
370
    -3
  6
Continuous
100
AcDbCircle
 10
423.104134
 20
-241.45841
 30
0.0
 40
9.0
100
AcDbArc
 50
270.0
 51
358.362755
  0
ARC
  5
2BC
100
AcDbEntity
  8
0
370
    -3
  6
Continuous
100
AcDbCircle
 10
458.089845
 20
-242.45841
 30
0.0
 40
26.0
100
AcDbArc
 50
119.214548
 51
178.362755
  0
ARC
  5
2BD
100
AcDbEntity
  8
0
370
    -3
  6
Continuous
100
AcDbCircle
 10
441.007
 20
-211.910474
 30
0.0
 40
9.0
100
AcDbArc
 50
299.214548
 51
349.518535
  0
ARC
  5
2BE
100
AcDbEntity
  8
0
370
    -3
  6
Continuous
100
AcDbCircle
 10
465.589845
 20
-216.45841
 30
0.0
 40
16.0
100
AcDbArc
 50
109.876874
 51
169.518535
  0
ARC
  5
2BF
100
AcDbEntity
  8
0
370
    -3
  6
Continuous
100
AcDbCircle
 10
457.089845
 20
-192.947774
 30
0.0
 40
9.0
100
AcDbArc
 50
289.876874
 51
0.0
  0
LINE
  5
2C0
100
AcDbEntity
  8
0
370
    -3
  6
CENTER
100
AcDbLine
 10
223.089845
 20
-10.293366
 30
0.0
 11
223.089845
 21
-50.437
 31
0.0
  0
LINE
  5
2C1
100
AcDbEntity
  8
0
370
    -3
  6
CENTER
100
AcDbLine
 10
193.860067
 20
-30.45841
 30
0.0
 11
242.181297
 21
-30.45841
 31
0.0
  0
LINE
  5
2C2
100
AcDbEntity
  8
0
370
    -3
  6
CENTER
100
AcDbLine
 10
478.187582
 20
-30.45841
 30
0.0
 11
438.998394
 21
-30.45841
 31
0.0
  0
LINE
  5
2C3
100
AcDbEntity
  8
0
370
    -3
  6
CENTER
100
AcDbLine
 10
458.089845
 20
-11.093217
 30
0.0
 11
458.089845
 21
-50.552676
 31
0.0
  0
LINE
  5
2C4
100
AcDbEntity
  8
0
370
    -3
  6
CENTER
100
AcDbLine
 10
478.187582
 20
-242.45841
 30
0.0
 11
438.998394
 21
-242.45841
 31
0.0
  0
LINE
  5
2C5
100
AcDbEntity
  8
0
370
    -3
  6
CENTER
100
AcDbLine
 10
458.089845
 20
-261.823602
 30
0.0
 11
458.089845
 21
-222.364143
 31
0.0
  0
LINE
  5
2C6
100
AcDbEntity
  8
0
370
    -3
  6
CENTER
100
AcDbLine
 10
223.089845
 20
-261.823602
 30
0.0
 11
223.089845
 21
-222.364143
 31
0.0
  0
LINE
  5
2C7
100
AcDbEntity
  8
0
370
    -3
  6
CENTER
100
AcDbLine
 10
195.488489
 20
-242.45841
 30
0.0
 11
242.181297
 21
-242.45841
 31
0.0
  0
LINE
  5
2C8
100
AcDbEntity
  8
0
370
    -3
  6
CENTER
100
AcDbLine
 10
375.089845
 20
-2.827556
 30
0.0
 11
375.089845
 21
-273.118372
 31
0.0
  0
LINE
  5
2C9
100
AcDbEntity
  8
0
370
    -3
  6
CENTER
100
AcDbLine
 10
486.843905
 20
-113.45841
 30
0.0
 11
224.915158
 21
-113.45841
 31
0.0
  0
LINE
  5
2CA
100
AcDbEntity
  8
0
370
    -3
  6
Continuous
100
AcDbLine
 10
204.089845
 20
-110.483608
 30
0.0
 11
200.089845
 21
-84.481848
 31
0.0
  0
LINE
  5
2CB
100
AcDbEntity
  8
0
370
    -3
  6
Continuous
100
AcDbLine
 10
204.089845
 20
-154.433202
 30
0.0
 11
200.089845
 21
-179.982387
 31
0.0
  0
ARC
  5
2CC
100
AcDbEntity
  8
0
370
    -3
  6
Continuous
100
AcDbCircle
 10
466.089845
 20
-250.45841
 30
0.0
 40
11.0
100
AcDbArc
 50
270.0
 51
0.0
  0
ARC
  5
2CD
100
AcDbEntity
  8
0
370
    -3
  6
Continuous
100
AcDbCircle
 10
466.089845
 20
-22.45841
 30
0.0
 40
15.0
100
AcDbArc
 50
360.0
 51
90.0
  0
ARC
  5
2CE
100
AcDbEntity
  8
0
370
    -3
  6
Continuous
100
AcDbCircle
 10
466.089845
 20
-22.45841
 30
0.0
 40
11.0
100
AcDbArc
 50
0.0
 51
90.0
  0
ARC
  5
2CF
100
AcDbEntity
  8
0
370
    -3
  6
Continuous
100
AcDbCircle
 10
215.089845
 20
-22.45841
 30
0.0
 40
15.0
100
AcDbArc
 50
90.0
 51
180.0
  0
ARC
  5
2D0
100
AcDbEntity
  8
0
370
    -3
  6
Continuous
100
AcDbCircle
 10
215.089845
 20
-22.45841
 30
0.0
 40
11.0
100
AcDbArc
 50
90.0
 51
180.0
  0
ARC
  5
2D1
100
AcDbEntity
  8
0
370
    -3
  6
Continuous
100
AcDbCircle
 10
215.089845
 20
-250.45841
 30
0.0
 40
11.0
100
AcDbArc
 50
180.0
 51
270.0
  0
LINE
  5
2D2
100
AcDbEntity
  8
0
370
    -3
  6
Continuous
100
AcDbLine
 10
200.089845
 20
-250.45841
 30
0.0
 11
200.089845
 21
-179.982387
 31
0.0
  0
ARC
  5
2D3
100
AcDbEntity
  8
0
370
    -3
  6
Continuous
100
AcDbCircle
 10
195.089845
 20
-219.45841
 30
0.0
 40
5.0
100
AcDbArc
 50
0.0
 51
90.0
  0
LINE
  5
2D4
100
AcDbEntity
  8
0
370
    -3
  6
Continuous
100
AcDbLine
 10
193.089845
 20
-212.458282
 30
0.0
 11
195.089973
 21
-214.45841
 31
0.0
  0
LINE
  5
2D5
100
AcDbEntity
  8
0
370
    -3
  6
Continuous
100
AcDbLine
 10
195.089845
 20
-50.45841
 30
0.0
 11
193.089845
 21
-52.45841
 31
0.0
  0
ARC
  5
2D6
100
AcDbEntity
  8
0
370
    -3
  6
Continuous
100
AcDbCircle
 10
195.089845
 20
-45.45841
 30
0.0
 40
5.0
100
AcDbArc
 50
270.0
 51
0.0
  0
LINE
  5
2D7
100
AcDbEntity
  8
0
370
    -3
  6
Continuous
100
AcDbLine
 10
204.089845
 20
-250.45841
 30
0.0
 11
204.089845
 21
-154.433202
 31
0.0
  0
LINE
  5
2D8
100
AcDbEntity
  8
0
370
    -3
  6
Continuous
100
AcDbLine
 10
204.089845
 20
-110.483608
 30
0.0
 11
204.089845
 21
-22.45841
 31
0.0
  0
LINE
  5
2D9
100
AcDbEntity
  8
0
370
    -3
  6
Continuous
100
AcDbLine
 10
477.089845
 20
-22.45841
 30
0.0
 11
477.089845
 21
-250.45841
 31
0.0
  0
LINE
  5
2DA
100
AcDbEntity
  8
0
370
    -3
  6
Continuous
100
AcDbLine
 10
215.089845
 20
-11.45841
 30
0.0
 11
466.089845
 21
-11.45841
 31
0.0
  0
LINE
  5
2DB
100
AcDbEntity
  8
0
370
    -3
  6
Continuous
100
AcDbLine
 10
466.089845
 20
-261.45841
 30
0.0
 11
215.089845
 21
-261.45841
 31
0.0
  0
ARC
  5
2DC
100
AcDbEntity
  8
0
370
    -3
  6
Continuous
100
AcDbCircle
 10
215.089845
 20
-250.45841
 30
0.0
 40
15.0
100
AcDbArc
 50
180.0
 51
270.0
  0
ARC
  5
2DD
100
AcDbEntity
  8
0
370
    -3
  6
Continuous
100
AcDbCircle
 10
466.089845
 20
-250.45841
 30
0.0
 40
15.0
100
AcDbArc
 50
270.0
 51
0.0
  0
LINE
  5
2DE
100
AcDbEntity
  8
0
370
    -3
  6
Continuous
100
AcDbLine
 10
466.089845
 20
-265.45841
 30
0.0
 11
215.089845
 21
-265.45841
 31
0.0
  0
LINE
  5
2DF
100
AcDbEntity
  8
0
370
    -3
  6
Continuous
100
AcDbLine
 10
466.089845
 20
-7.45841
 30
0.0
 11
215.089845
 21
-7.45841
 31
0.0
  0
LINE
  5
2E0
100
AcDbEntity
  8
0
370
    -3
  6
Continuous
100
AcDbLine
 10
200.089845
 20
-22.45841
 30
0.0
 11
200.089845
 21
-84.481848
 31
0.0
  0
LINE
  5
2E1
100
AcDbEntity
  8
0
370
    -3
  6
Continuous
100
AcDbLine
 10
481.089845
 20
-22.45841
 30
0.0
 11
481.089845
 21
-250.45841
 31
0.0
  0
ARC
  5
2E2
100
AcDbEntity
  8
0
370
    -3
  6
Continuous
100
AcDbCircle
 10
267.089845
 20
-113.45841
 30
0.0
 40
43.0
100
AcDbArc
 50
180.0
 51
180.055222
  0
LINE
  5
2E3
100
AcDbEntity
  8
0
370
    -3
  6
Continuous
100
AcDbLine
 10
193.089845
 20
-54.29441
 30
0.0
 11
193.089845
 21
-134.49441
 31
0.0
  0
LINE
  5
2E4
100
AcDbEntity
  8
0
370
    -3
  6
Continuous
100
AcDbLine
 10
195.328938
 20
-172.458688
 30
0.0
 11
195.328938
 21
-172.458676
 31
0.0
  0
CIRCLE
  5
2E5
100
AcDbEntity
  8
0
370
    -3
  6
Continuous
100
AcDbCircle
 10
458.089845
 20
-30.45841
 30
0.0
 40
10.0
  0
CIRCLE
  5
2E6
100
AcDbEntity
  8
0
370
    -3
  6
Continuous
100
AcDbCircle
 10
458.089845
 20
-30.45841
 30
0.0
 40
8.647
  0
CIRCLE
  5
2E7
100
AcDbEntity
  8
0
370
    -3
  6
Continuous
100
AcDbCircle
 10
223.089845
 20
-30.45841
 30
0.0
 40
10.0
  0
CIRCLE
  5
2E8
100
AcDbEntity
  8
0
370
    -3
  6
Continuous
100
AcDbCircle
 10
223.089845
 20
-30.45841
 30
0.0
 40
8.647
  0
CIRCLE
  5
2E9
100
AcDbEntity
  8
0
370
    -3
  6
Continuous
100
AcDbCircle
 10
223.089845
 20
-242.45841
 30
0.0
 40
10.0
  0
CIRCLE
  5
2EA
100
AcDbEntity
  8
0
370
    -3
  6
Continuous
100
AcDbCircle
 10
223.089845
 20
-242.45841
 30
0.0
 40
8.647
  0
CIRCLE
  5
2EB
100
AcDbEntity
  8
0
370
    -3
  6
Continuous
100
AcDbCircle
 10
458.089845
 20
-242.45841
 30
0.0
 40
10.0
  0
CIRCLE
  5
2EC
100
AcDbEntity
  8
0
370
    -3
  6
Continuous
100
AcDbCircle
 10
458.089845
 20
-242.45841
 30
0.0
 40
8.647
  0
CIRCLE
  5
2ED
100
AcDbEntity
  8
0
370
    -3
  6
Continuous
100
AcDbCircle
 10
375.089845
 20
-113.45841
 30
0.0
 40
50.0
  0
CIRCLE
  5
2EE
100
AcDbEntity
  8
0
370
    -3
  6
Continuous
100
AcDbCircle
 10
375.089845
 20
-113.45841
 30
0.0
 40
75.0
  0
CIRCLE
  5
2EF
100
AcDbEntity
  8
0
370
    -3
  6
Continuous
100
AcDbCircle
 10
375.089845
 20
-113.45841
 30
0.0
 40
82.5
  0
CIRCLE
  5
2F0
100
AcDbEntity
  8
0
370
    -3
  6
Continuous
100
AcDbCircle
 10
375.089845
 20
-113.45841
 30
0.0
 40
85.5
  0
LINE
  5
2F1
100
AcDbEntity
  8
0
370
    -3
  6
Continuous
100
AcDbLine
 10
176.089845
 20
11.541643
 30
0.0
 11
176.089845
 21
-43.458357
 31
0.0
  0
INSERT
  5
2FD
100
AcDbEntity
  8
0
100
AcDbBlockReference
  2
ZU_SYM__USERS_HOME_SYMBOL_POO_SYM_B20_00005-1
 10
171.589845
 20
-33.458357
 30
0.0
 50
360.0
  0
LINE
  5
2FE
100
AcDbEntity
  8
0
370
    -3
  6
CENTER
100
AcDbLine
 10
157.655769
 20
-33.458357
 30
0.0
 11
180.626971
 21
-33.458357
 31
0.0
  0
LINE
  5
2FF
100
AcDbEntity
  8
0
370
    -3
  6
CENTER
100
AcDbLine
 10
164.674748
 20
-8.458357
 30
0.0
 11
179.138097
 21
-8.458357
 31
0.0
  0
LINE
  5
300
100
AcDbEntity
  8
0
370
    -3
  6
Continuous
100
AcDbLine
 10
175.089845
 20
-133.458566
 30
0.0
 11
175.089845
 21
-216.958566
 31
0.0
  0
LINE
  5
301
100
AcDbEntity
  8
0
370
    -3
  6
Continuous
100
AcDbLine
 10
175.089845
 20
-133.458566
 30
0.0
 11
175.089845
 21
-53.458566
 31
0.0
  0
CIRCLE
  5
302
100
AcDbEntity
  8
0
370
    -3
  6
Continuous
100
AcDbCircle
 10
556.089845
 20
-113.458289
 30
0.0
 40
4.0
  0
CIRCLE
  5
303
100
AcDbEntity
  8
0
370
    -3
  6
Continuous
100
AcDbCircle
 10
556.089845
 20
-113.458289
 30
0.0
 40
3.5
  0
LINE
  5
304
100
AcDbEntity
  8
0
370
    -3
  6
CENTER
100
AcDbLine
 10
556.089845
 20
-74.226701
 30
0.0
 11
556.089845
 21
-147.237453
 31
0.0
  0
LINE
  5
305
100
AcDbEntity
  8
0
370
    -3
  6
CENTER
100
AcDbLine
 10
519.636862
 20
-113.458289
 30
0.0
 11
591.142238
 21
-113.458289
 31
0.0
  0
LINE
  5
306
100
AcDbEntity
  8
0
370
    -3
  6
Continuous
100
AcDbLine
 10
563.089845
 20
-84.958289
 30
0.0
 11
563.089845
 21
-93.958289
 31
0.0
  0
LINE
  5
307
100
AcDbEntity
  8
0
370
    -3
  6
Continuous
100
AcDbLine
 10
549.089845
 20
-84.958289
 30
0.0
 11
563.089845
 21
-84.958289
 31
0.0
  0
LINE
  5
308
100
AcDbEntity
  8
0
370
    -3
  6
Continuous
100
AcDbLine
 10
549.089845
 20
-93.958289
 30
0.0
 11
563.089845
 21
-93.958289
 31
0.0
  0
LINE
  5
309
100
AcDbEntity
  8
0
370
    -3
  6
Continuous
100
AcDbLine
 10
549.089845
 20
-84.958289
 30
0.0
 11
549.089845
 21
-93.958289
 31
0.0
  0
ARC
  5
30A
100
AcDbEntity
  8
0
370
    -3
  6
Continuous
100
AcDbCircle
 10
556.089845
 20
-113.458289
 30
0.0
 40
25.0
100
AcDbArc
 50
106.260205
 51
73.739795
  0
LINE
  5
30B
100
AcDbEntity
  8
0
370
    -3
  6
CENTER
100
AcDbLine
 10
262.46944
 20
-133.458566
 30
0.0
 11
-141.720007
 21
-133.45777
 31
0.0
  0
LINE
  5
30C
100
AcDbEntity
  8
0
370
    -3
  6
Continuous
100
AcDbLine
 10
175.089845
 20
-216.458394
 30
0.0
 11
20.089844
 21
-216.458394
 31
0.0
  0
LINE
  5
30D
100
AcDbEntity
  8
0
370
    -3
  6
Continuous
100
AcDbLine
 10
175.089845
 20
-215.958394
 30
0.0
 11
20.089844
 21
-215.958394
 31
0.0
  0
LINE
  5
30E
100
AcDbEntity
  8
0
370
    -3
  6
Continuous
100
AcDbLine
 10
175.089845
 20
-213.458394
 30
0.0
 11
20.089844
 21
-213.458394
 31
0.0
  0
LINE
  5
30F
100
AcDbEntity
  8
0
370
    -3
  6
Continuous
100
AcDbLine
 10
17.089844
 20
-47.098885
 30
0.0
 11
1.089844
 21
-47.098885
 31
0.0
  0
ARC
  5
310
100
AcDbEntity
  8
0
370
    -3
  6
Continuous
100
AcDbCircle
 10
1.089844
 20
-46.098885
 30
0.0
 40
1.0
100
AcDbArc
 50
183.411668
 51
270.0
  0
LINE
  5
311
100
AcDbEntity
  8
0
370
    -3
  6
Continuous
100
AcDbLine
 10
-85.978188
 20
-46.158394
 30
0.0
 11
0.091617
 21
-46.158394
 31
0.0
  0
LINE
  5
312
100
AcDbEntity
  8
0
370
    -3
  6
Continuous
100
AcDbLine
 10
20.089844
 20
-220.758394
 30
0.0
 11
20.089844
 21
-133.458394
 31
0.0
  0
LINE
  5
313
100
AcDbEntity
  8
0
370
    -3
  6
Continuous
100
AcDbLine
 10
-85.978188
 20
-220.758394
 30
0.0
 11
20.089844
 21
-220.758394
 31
0.0
  0
LINE
  5
314
100
AcDbEntity
  8
0
370
    -3
  6
Continuous
100
AcDbLine
 10
-5.410155
 20
-202.330595
 30
0.0
 11
-7.339359
 21
-203.541257
 31
0.0
  0
LINE
  5
315
100
AcDbEntity
  8
0
370
    -3
  6
Continuous
100
AcDbLine
 10
-5.410155
 20
-202.330595
 30
0.0
 11
-7.410155
 21
-200.757257
 31
0.0
  0
LINE
  5
316
100
AcDbEntity
  8
0
370
    -3
  6
Continuous
100
AcDbLine
 10
-5.410155
 20
-202.330595
 30
0.0
 11
-3.48095
 21
-203.541257
 31
0.0
  0
LINE
  5
317
100
AcDbEntity
  8
0
370
    -3
  6
Continuous
100
AcDbLine
 10
-5.410155
 20
-202.330595
 30
0.0
 11
-3.410155
 21
-200.757257
 31
0.0
  0
ELLIPSE
  5
318
100
AcDbEntity
  8
0
370
    -3
  6
Continuous
100
AcDbEllipse
 10
-5.410155
 20
-200.492117
 30
0.0
 11
4.5
 21
0.0
 31
0.0
210
0.0
220
0.0
230
1.0
 40
0.707107
 41
5.3002993159359626
 42
4.1244786448334168
  0
ELLIPSE
  5
319
100
AcDbEntity
  8
0
370
    -3
  6
Continuous
100
AcDbEllipse
 10
-5.410155
 20
-201.028635
 30
0.0
 11
3.5
 21
0.0
 31
0.0
210
0.0
220
0.0
230
1.0
 40
0.860398
 41
0.0
 42
6.2831853071795862
  0
ELLIPSE
  5
31A
100
AcDbEntity
  8
0
370
    -3
  6
Continuous
100
AcDbEllipse
 10
-5.410155
 20
-199.926432
 30
0.0
 11
5.0
 21
0.0
 31
0.0
210
0.0
220
0.0
230
1.0
 40
0.707107
 41
3.1415926535897931
 42
3.880864480530414
  0
ELLIPSE
  5
31B
100
AcDbEntity
  8
0
370
    -3
  6
Continuous
100
AcDbEllipse
 10
-5.410155
 20
-199.926432
 30
0.0
 11
5.0
 21
0.0
 31
0.0
210
0.0
220
0.0
230
1.0
 40
0.707107
 41
5.5439134802389658
 42
0.0
  0
LINE
  5
31C
100
AcDbEntity
  8
0
370
    -3
  6
Continuous
100
AcDbLine
 10
-0.910155
 20
-200.492117
 30
0.0
 11
-0.910155
 21
-199.926432
 31
0.0
  0
LINE
  5
31D
100
AcDbEntity
  8
0
370
    -3
  6
Continuous
100
AcDbLine
 10
-9.910155
 20
-200.492117
 30
0.0
 11
-9.910155
 21
-199.926432
 31
0.0
  0
ELLIPSE
  5
31E
100
AcDbEntity
  8
0
370
    -3
  6
Continuous
100
AcDbEllipse
 10
-5.410155
 20
-199.926432
 30
0.0
 11
4.5
 21
0.0
 31
0.0
210
0.0
220
0.0
230
1.0
 40
0.707107
 41
0.0
 42
3.1415926535897931
  0
LINE
  5
31F
100
AcDbEntity
  8
0
370
    -3
  6
Continuous
100
AcDbLine
 10
-0.410155
 20
-199.926432
 30
0.0
 11
-0.410155
 21
-199.109828
 31
0.0
  0
LINE
  5
320
100
AcDbEntity
  8
0
370
    -3
  6
Continuous
100
AcDbLine
 10
-10.410155
 20
-199.926432
 30
0.0
 11
-10.410155
 21
-199.109828
 31
0.0
  0
ELLIPSE
  5
321
100
AcDbEntity
  8
0
370
    -3
  6
Continuous
100
AcDbEllipse
 10
-5.410155
 20
-199.109828
 30
0.0
 11
5.0
 21
0.0
 31
0.0
210
0.0
220
0.0
230
1.0
 40
0.707107
 41
0.0
 42
3.1415926535897931
  0
ARC
  5
322
100
AcDbEntity
  8
0
370
    -3
  6
Continuous
100
AcDbCircle
 10
-121.110156
 20
-202.398863
 30
0.0
 40
3.8
100
AcDbArc
 50
180.0
 51
240.0
  0
ARC
  5
323
100
AcDbEntity
  8
0
370
    -3
  6
Continuous
100
AcDbCircle
 10
-85.978188
 20
-179.958394
 30
0.0
 40
40.8
100
AcDbArc
 50
240.0
 51
270.0
  0
LINE
  5
324
100
AcDbEntity
  8
0
370
    -3
  6
Continuous
100
AcDbLine
 10
-123.010156
 20
-205.68976
 30
0.0
 11
-106.378188
 21
-215.292231
 31
0.0
  0
LINE
  5
325
100
AcDbEntity
  8
0
370
    -3
  6
Continuous
100
AcDbLine
 10
-124.910156
 20
-202.398863
 30
0.0
 11
-124.910156
 21
-133.458394
 31
0.0
  0
LINE
  5
326
100
AcDbEntity
  8
0
370
    -3
  6
Continuous
100
AcDbLine
 10
20.089844
 20
-216.958394
 30
0.0
 11
175.089845
 21
-216.958394
 31
0.0
  0
LINE
  5
327
100
AcDbEntity
  8
0
370
    -3
  6
Continuous
100
AcDbLine
 10
175.089845
 20
-87.32067
 30
0.0
 11
20.089844
 21
-87.32067
 31
0.0
  0
LINE
  5
328
100
AcDbEntity
  8
0
370
    -3
  6
Continuous
100
AcDbLine
 10
175.089845
 20
-89.542997
 30
0.0
 11
20.089844
 21
-89.542997
 31
0.0
  0
LINE
  5
329
100
AcDbEntity
  8
0
370
    -3
  6
Continuous
100
AcDbLine
 10
175.089845
 20
-97.353456
 30
0.0
 11
20.089844
 21
-97.353456
 31
0.0
  0
LINE
  5
32A
100
AcDbEntity
  8
0
370
    -3
  6
Continuous
100
AcDbLine
 10
175.089845
 20
-99.520166
 30
0.0
 11
20.089844
 21
-99.520166
 31
0.0
  0
LINE
  5
32B
100
AcDbEntity
  8
0
370
    -3
  6
Continuous
100
AcDbLine
 10
175.089845
 20
-107.415774
 30
0.0
 11
20.089844
 21
-107.415774
 31
0.0
  0
LINE
  5
32C
100
AcDbEntity
  8
0
370
    -3
  6
Continuous
100
AcDbLine
 10
175.089845
 20
-109.480537
 30
0.0
 11
20.089844
 21
-109.480537
 31
0.0
  0
LINE
  5
32D
100
AcDbEntity
  8
0
370
    -3
  6
Continuous
100
AcDbLine
 10
175.089845
 20
-117.486666
 30
0.0
 11
20.089844
 21
-117.486666
 31
0.0
  0
LINE
  5
32E
100
AcDbEntity
  8
0
370
    -3
  6
Continuous
100
AcDbLine
 10
175.089845
 20
-119.429049
 30
0.0
 11
20.089844
 21
-119.429049
 31
0.0
  0
LINE
  5
32F
100
AcDbEntity
  8
0
370
    -3
  6
Continuous
100
AcDbLine
 10
175.089845
 20
-129.413897
 30
0.0
 11
20.089844
 21
-129.413897
 31
0.0
  0
LINE
  5
330
100
AcDbEntity
  8
0
370
    -3
  6
Continuous
100
AcDbLine
 10
175.089845
 20
-137.502892
 30
0.0
 11
20.089844
 21
-137.502892
 31
0.0
  0
LINE
  5
331
100
AcDbEntity
  8
0
370
    -3
  6
Continuous
100
AcDbLine
 10
175.089845
 20
-139.397664
 30
0.0
 11
20.089844
 21
-139.397664
 31
0.0
  0
LINE
  5
332
100
AcDbEntity
  8
0
370
    -3
  6
Continuous
100
AcDbLine
 10
175.089845
 20
-147.487739
 30
0.0
 11
20.089844
 21
-147.487739
 31
0.0
  0
LINE
  5
333
100
AcDbEntity
  8
0
370
    -3
  6
Continuous
100
AcDbLine
 10
175.089845
 20
-149.430122
 30
0.0
 11
20.089844
 21
-149.430122
 31
0.0
  0
LINE
  5
334
100
AcDbEntity
  8
0
370
    -3
  6
Continuous
100
AcDbLine
 10
175.089845
 20
-157.436252
 30
0.0
 11
20.089844
 21
-157.436252
 31
0.0
  0
LINE
  5
335
100
AcDbEntity
  8
0
370
    -3
  6
Continuous
100
AcDbLine
 10
175.089845
 20
-159.501014
 30
0.0
 11
20.089844
 21
-159.501014
 31
0.0
  0
LINE
  5
336
100
AcDbEntity
  8
0
370
    -3
  6
Continuous
100
AcDbLine
 10
175.089845
 20
-167.396622
 30
0.0
 11
20.089844
 21
-167.396622
 31
0.0
  0
LINE
  5
337
100
AcDbEntity
  8
0
370
    -3
  6
Continuous
100
AcDbLine
 10
175.089845
 20
-169.563332
 30
0.0
 11
20.089844
 21
-169.563332
 31
0.0
  0
LINE
  5
338
100
AcDbEntity
  8
0
370
    -3
  6
Continuous
100
AcDbLine
 10
175.089845
 20
-177.373792
 30
0.0
 11
20.089844
 21
-177.373792
 31
0.0
  0
LINE
  5
339
100
AcDbEntity
  8
0
370
    -3
  6
Continuous
100
AcDbLine
 10
175.089845
 20
-179.596118
 30
0.0
 11
20.089844
 21
-179.596118
 31
0.0
  0
LINE
  5
33A
100
AcDbEntity
  8
0
370
    -3
  6
Continuous
100
AcDbLine
 10
175.089845
 20
-192.266539
 30
0.0
 11
20.089844
 21
-192.266539
 31
0.0
  0
LINE
  5
33B
100
AcDbEntity
  8
0
370
    -3
  6
Continuous
100
AcDbLine
 10
175.089845
 20
-199.337607
 30
0.0
 11
20.089844
 21
-199.337607
 31
0.0
  0
LINE
  5
33C
100
AcDbEntity
  8
0
370
    -3
  6
Continuous
100
AcDbLine
 10
175.089845
 20
-208.458394
 30
0.0
 11
20.089844
 21
-208.458394
 31
0.0
  0
LINE
  5
33D
100
AcDbEntity
  8
0
370
    -3
  6
Continuous
100
AcDbLine
 10
20.089844
 20
-50.098885
 30
0.0
 11
20.089844
 21
-133.458394
 31
0.0
  0
ARC
  5
33E
100
AcDbEntity
  8
0
370
    -3
  6
Continuous
100
AcDbCircle
 10
-121.110156
 20
-64.517925
 30
0.0
 40
3.8
100
AcDbArc
 50
120.0
 51
180.0
  0
LINE
  5
33F
100
AcDbEntity
  8
0
370
    -3
  6
Continuous
100
AcDbLine
 10
-123.010156
 20
-61.227029
 30
0.0
 11
-106.378188
 21
-51.624558
 31
0.0
  0
LINE
  5
340
100
AcDbEntity
  8
0
370
    -3
  6
Continuous
100
AcDbLine
 10
-124.910156
 20
-64.517925
 30
0.0
 11
-124.910156
 21
-133.458394
 31
0.0
  0
ARC
  5
341
100
AcDbEntity
  8
0
370
    -3
  6
Continuous
100
AcDbCircle
 10
-85.978188
 20
-86.958394
 30
0.0
 40
40.8
100
AcDbArc
 50
90.0
 51
120.0
  0
LINE
  5
342
100
AcDbEntity
  8
0
370
    -3
  6
Continuous
100
AcDbLine
 10
-5.410155
 20
-64.586193
 30
0.0
 11
-7.339359
 21
-63.375531
 31
0.0
  0
LINE
  5
343
100
AcDbEntity
  8
0
370
    -3
  6
Continuous
100
AcDbLine
 10
-5.410155
 20
-64.586193
 30
0.0
 11
-7.410155
 21
-66.159531
 31
0.0
  0
LINE
  5
344
100
AcDbEntity
  8
0
370
    -3
  6
Continuous
100
AcDbLine
 10
-5.410155
 20
-64.586193
 30
0.0
 11
-3.48095
 21
-63.375531
 31
0.0
  0
LINE
  5
345
100
AcDbEntity
  8
0
370
    -3
  6
Continuous
100
AcDbLine
 10
-5.410155
 20
-64.586193
 30
0.0
 11
-3.410155
 21
-66.159531
 31
0.0
  0
ELLIPSE
  5
346
100
AcDbEntity
  8
0
370
    -3
  6
Continuous
100
AcDbEllipse
 10
-5.410155
 20
-66.424671
 30
0.0
 11
4.5
 21
0.0
 31
0.0
210
0.0
220
0.0
230
1.0
 40
0.707107
 41
2.158706662346169
 42
0.9828859912436241
  0
ELLIPSE
  5
347
100
AcDbEntity
  8
0
370
    -3
  6
Continuous
100
AcDbEllipse
 10
-5.410155
 20
-65.888153
 30
0.0
 11
3.5
 21
0.0
 31
0.0
210
0.0
220
0.0
230
1.0
 40
0.860398
 41
0.0
 42
6.2831853071795862
  0
ELLIPSE
  5
348
100
AcDbEntity
  8
0
370
    -3
  6
Continuous
100
AcDbEllipse
 10
-5.410155
 20
-66.990357
 30
0.0
 11
5.0
 21
0.0
 31
0.0
210
0.0
220
0.0
230
1.0
 40
0.707107
 41
2.4023208266491722
 42
3.1415926535897931
  0
ELLIPSE
  5
349
100
AcDbEntity
  8
0
370
    -3
  6
Continuous
100
AcDbEllipse
 10
-5.410155
 20
-66.990357
 30
0.0
 11
5.0
 21
0.0
 31
0.0
210
0.0
220
0.0
230
1.0
 40
0.707107
 41
0.0
 42
0.7392718269406207
  0
LINE
  5
34A
100
AcDbEntity
  8
0
370
    -3
  6
Continuous
100
AcDbLine
 10
-0.910155
 20
-66.424671
 30
0.0
 11
-0.910155
 21
-66.990357
 31
0.0
  0
LINE
  5
34B
100
AcDbEntity
  8
0
370
    -3
  6
Continuous
100
AcDbLine
 10
-9.910155
 20
-66.424671
 30
0.0
 11
-9.910155
 21
-66.990357
 31
0.0
  0
ELLIPSE
  5
34C
100
AcDbEntity
  8
0
370
    -3
  6
Continuous
100
AcDbEllipse
 10
-5.410155
 20
-66.990357
 30
0.0
 11
4.5
 21
0.0
 31
0.0
210
0.0
220
0.0
230
1.0
 40
0.707107
 41
3.1415926535897931
 42
0.0
  0
LINE
  5
34D
100
AcDbEntity
  8
0
370
    -3
  6
Continuous
100
AcDbLine
 10
-0.410155
 20
-66.990357
 30
0.0
 11
-0.410155
 21
-67.80696
 31
0.0
  0
LINE
  5
34E
100
AcDbEntity
  8
0
370
    -3
  6
Continuous
100
AcDbLine
 10
-10.410155
 20
-66.990357
 30
0.0
 11
-10.410155
 21
-67.80696
 31
0.0
  0
ELLIPSE
  5
34F
100
AcDbEntity
  8
0
370
    -3
  6
Continuous
100
AcDbEllipse
 10
-5.410155
 20
-67.80696
 30
0.0
 11
5.0
 21
0.0
 31
0.0
210
0.0
220
0.0
230
1.0
 40
0.707107
 41
3.1415926535897931
 42
0.0
  0
ARC
  5
350
100
AcDbEntity
  8
0
370
    -3
  6
Continuous
100
AcDbCircle
 10
17.089844
 20
-50.098885
 30
0.0
 40
3.0
100
AcDbArc
 50
0.0
 51
90.0
  0
LINE
  5
351
100
AcDbEntity
  8
0
370
    -3
  6
Continuous
100
AcDbLine
 10
175.089845
 20
-53.458394
 30
0.0
 11
20.089844
 21
-53.458394
 31
0.0
  0
LINE
  5
352
100
AcDbEntity
  8
0
370
    -3
  6
Continuous
100
AcDbLine
 10
175.089845
 20
-58.458394
 30
0.0
 11
20.089844
 21
-58.458394
 31
0.0
  0
LINE
  5
353
100
AcDbEntity
  8
0
370
    -3
  6
Continuous
100
AcDbLine
 10
175.089845
 20
-67.579182
 30
0.0
 11
20.089844
 21
-67.579182
 31
0.0
  0
LINE
  5
354
100
AcDbEntity
  8
0
370
    -3
  6
Continuous
100
AcDbLine
 10
175.089845
 20
-74.650249
 30
0.0
 11
20.089844
 21
-74.650249
 31
0.0
  0
LINE
  5
355
100
AcDbEntity
  8
0
370
    -3
  6
Continuous
100
AcDbLine
 10
175.089845
 20
-127.519124
 30
0.0
 11
20.089844
 21
-127.519124
 31
0.0
  0
LINE
  5
356
100
AcDbEntity
  8
0
370
    -3
  6
Continuous
100
AcDbLine
 10
-124.910156
 20
135.604824
 30
0.0
 11
-124.910156
 21
204.545293
 31
0.0
  0
LINE
  5
357
100
AcDbEntity
  8
0
370
    -3
  6
Continuous
100
AcDbLine
 10
-123.010156
 20
132.313928
 30
0.0
 11
-106.378188
 21
122.711457
 31
0.0
  0
ARC
  5
358
100
AcDbEntity
  8
0
370
    -3
  6
Continuous
100
AcDbCircle
 10
-85.978188
 20
158.045293
 30
0.0
 40
40.8
100
AcDbArc
 50
240.0
 51
270.0
  0
ARC
  5
359
100
AcDbEntity
  8
0
370
    -3
  6
Continuous
100
AcDbCircle
 10
-121.110156
 20
135.604824
 30
0.0
 40
3.8
100
AcDbArc
 50
180.0
 51
240.0
  0
ELLIPSE
  5
35A
100
AcDbEntity
  8
0
370
    -3
  6
Continuous
100
AcDbEllipse
 10
-5.410155
 20
270.196727
 30
0.0
 11
5.0
 21
0.0
 31
0.0
210
0.0
220
0.0
230
1.0
 40
0.707107
 41
3.1415926535897931
 42
0.0
  0
LINE
  5
35B
100
AcDbEntity
  8
0
370
    -3
  6
Continuous
100
AcDbLine
 10
-10.410155
 20
271.013331
 30
0.0
 11
-10.410155
 21
270.196727
 31
0.0
  0
LINE
  5
35C
100
AcDbEntity
  8
0
370
    -3
  6
Continuous
100
AcDbLine
 10
-0.410155
 20
271.013331
 30
0.0
 11
-0.410155
 21
270.196727
 31
0.0
  0
ELLIPSE
  5
35D
100
AcDbEntity
  8
0
370
    -3
  6
Continuous
100
AcDbEllipse
 10
-5.410155
 20
271.013331
 30
0.0
 11
4.5
 21
0.0
 31
0.0
210
0.0
220
0.0
230
1.0
 40
0.707107
 41
3.1415926535897931
 42
0.0
  0
LINE
  5
35E
100
AcDbEntity
  8
0
370
    -3
  6
Continuous
100
AcDbLine
 10
-9.910155
 20
271.579016
 30
0.0
 11
-9.910155
 21
271.013331
 31
0.0
  0
LINE
  5
35F
100
AcDbEntity
  8
0
370
    -3
  6
Continuous
100
AcDbLine
 10
-0.910155
 20
271.579016
 30
0.0
 11
-0.910155
 21
271.013331
 31
0.0
  0
ELLIPSE
  5
360
100
AcDbEntity
  8
0
370
    -3
  6
Continuous
100
AcDbEllipse
 10
-5.410155
 20
271.013331
 30
0.0
 11
5.0
 21
0.0
 31
0.0
210
0.0
220
0.0
230
1.0
 40
0.707107
 41
0.0
 42
0.7392718269406207
  0
ELLIPSE
  5
361
100
AcDbEntity
  8
0
370
    -3
  6
Continuous
100
AcDbEllipse
 10
-5.410155
 20
271.013331
 30
0.0
 11
5.0
 21
0.0
 31
0.0
210
0.0
220
0.0
230
1.0
 40
0.707107
 41
2.4023208266491722
 42
3.1415926535897931
  0
ELLIPSE
  5
362
100
AcDbEntity
  8
0
370
    -3
  6
Continuous
100
AcDbEllipse
 10
-5.410155
 20
272.115534
 30
0.0
 11
3.5
 21
0.0
 31
0.0
210
0.0
220
0.0
230
1.0
 40
0.860398
 41
0.0
 42
6.2831853071795862
  0
ELLIPSE
  5
363
100
AcDbEntity
  8
0
370
    -3
  6
Continuous
100
AcDbEllipse
 10
-5.410155
 20
271.579016
 30
0.0
 11
4.5
 21
0.0
 31
0.0
210
0.0
220
0.0
230
1.0
 40
0.707107
 41
2.158706662346169
 42
0.9828859912436241
  0
LINE
  5
364
100
AcDbEntity
  8
0
370
    -3
  6
Continuous
100
AcDbLine
 10
-5.410155
 20
273.417494
 30
0.0
 11
-3.410155
 21
271.844156
 31
0.0
  0
LINE
  5
365
100
AcDbEntity
  8
0
370
    -3
  6
Continuous
100
AcDbLine
 10
-5.410155
 20
273.417494
 30
0.0
 11
-3.48095
 21
274.628156
 31
0.0
  0
LINE
  5
366
100
AcDbEntity
  8
0
370
    -3
  6
Continuous
100
AcDbLine
 10
-5.410155
 20
273.417494
 30
0.0
 11
-7.410155
 21
271.844156
 31
0.0
  0
LINE
  5
367
100
AcDbEntity
  8
0
370
    -3
  6
Continuous
100
AcDbLine
 10
-5.410155
 20
273.417494
 30
0.0
 11
-7.339359
 21
274.628156
 31
0.0
  0
ELLIPSE
  5
368
100
AcDbEntity
  8
0
370
    -3
  6
Continuous
100
AcDbEllipse
 10
-5.410155
 20
138.893859
 30
0.0
 11
5.0
 21
0.0
 31
0.0
210
0.0
220
0.0
230
1.0
 40
0.707107
 41
0.0
 42
3.1415926535897931
  0
LINE
  5
369
100
AcDbEntity
  8
0
370
    -3
  6
Continuous
100
AcDbLine
 10
-10.410155
 20
138.077256
 30
0.0
 11
-10.410155
 21
138.893859
 31
0.0
  0
LINE
  5
36A
100
AcDbEntity
  8
0
370
    -3
  6
Continuous
100
AcDbLine
 10
-0.410155
 20
138.077256
 30
0.0
 11
-0.410155
 21
138.893859
 31
0.0
  0
ELLIPSE
  5
36B
100
AcDbEntity
  8
0
370
    -3
  6
Continuous
100
AcDbEllipse
 10
-5.410155
 20
138.077256
 30
0.0
 11
4.5
 21
0.0
 31
0.0
210
0.0
220
0.0
230
1.0
 40
0.707107
 41
0.0
 42
3.1415926535897931
  0
LINE
  5
36C
100
AcDbEntity
  8
0
370
    -3
  6
Continuous
100
AcDbLine
 10
-9.910155
 20
137.51157
 30
0.0
 11
-9.910155
 21
138.077256
 31
0.0
  0
LINE
  5
36D
100
AcDbEntity
  8
0
370
    -3
  6
Continuous
100
AcDbLine
 10
-0.910155
 20
137.51157
 30
0.0
 11
-0.910155
 21
138.077256
 31
0.0
  0
ELLIPSE
  5
36E
100
AcDbEntity
  8
0
370
    -3
  6
Continuous
100
AcDbEllipse
 10
-5.410155
 20
138.077256
 30
0.0
 11
5.0
 21
0.0
 31
0.0
210
0.0
220
0.0
230
1.0
 40
0.707107
 41
5.5439134802389658
 42
0.0
  0
ELLIPSE
  5
36F
100
AcDbEntity
  8
0
370
    -3
  6
Continuous
100
AcDbEllipse
 10
-5.410155
 20
138.077256
 30
0.0
 11
5.0
 21
0.0
 31
0.0
210
0.0
220
0.0
230
1.0
 40
0.707107
 41
3.1415926535897931
 42
3.880864480530414
  0
ELLIPSE
  5
370
100
AcDbEntity
  8
0
370
    -3
  6
Continuous
100
AcDbEllipse
 10
-5.410155
 20
136.975052
 30
0.0
 11
3.5
 21
0.0
 31
0.0
210
0.0
220
0.0
230
1.0
 40
0.860398
 41
0.0
 42
6.2831853071795862
  0
ELLIPSE
  5
371
100
AcDbEntity
  8
0
370
    -3
  6
Continuous
100
AcDbEllipse
 10
-5.410155
 20
137.51157
 30
0.0
 11
4.5
 21
0.0
 31
0.0
210
0.0
220
0.0
230
1.0
 40
0.707107
 41
5.3002993159359626
 42
4.1244786448334168
  0
LINE
  5
372
100
AcDbEntity
  8
0
370
    -3
  6
Continuous
100
AcDbLine
 10
-5.410155
 20
135.673092
 30
0.0
 11
-3.410155
 21
137.24643
 31
0.0
  0
LINE
  5
373
100
AcDbEntity
  8
0
370
    -3
  6
Continuous
100
AcDbLine
 10
-5.410155
 20
135.673092
 30
0.0
 11
-3.48095
 21
134.46243
 31
0.0
  0
LINE
  5
374
100
AcDbEntity
  8
0
370
    -3
  6
Continuous
100
AcDbLine
 10
-5.410155
 20
135.673092
 30
0.0
 11
-7.410155
 21
137.24643
 31
0.0
  0
LINE
  5
375
100
AcDbEntity
  8
0
370
    -3
  6
Continuous
100
AcDbLine
 10
-5.410155
 20
135.673092
 30
0.0
 11
-7.339359
 21
134.46243
 31
0.0
  0
ARC
  5
376
100
AcDbEntity
  8
0
370
    -3
  6
Continuous
100
AcDbCircle
 10
-85.978188
 20
251.045293
 30
0.0
 40
40.8
100
AcDbArc
 50
90.0
 51
120.0
  0
LINE
  5
377
100
AcDbEntity
  8
0
370
    -3
  6
Continuous
100
AcDbLine
 10
-124.910156
 20
273.485762
 30
0.0
 11
-124.910156
 21
204.545293
 31
0.0
  0
LINE
  5
378
100
AcDbEntity
  8
0
370
    -3
  6
Continuous
100
AcDbLine
 10
-123.010156
 20
276.776659
 30
0.0
 11
-106.378188
 21
286.37913
 31
0.0
  0
ARC
  5
379
100
AcDbEntity
  8
0
370
    -3
  6
Continuous
100
AcDbCircle
 10
-121.110156
 20
273.485762
 30
0.0
 40
3.8
100
AcDbArc
 50
120.0
 51
180.0
  0
LINE
  5
37A
100
AcDbEntity
  8
0
370
    -3
  6
Continuous
100
AcDbLine
 10
-85.978188
 20
117.245293
 30
0.0
 11
20.089844
 21
117.245293
 31
0.0
  0
LINE
  5
37B
100
AcDbEntity
  8
0
370
    -3
  6
Continuous
100
AcDbLine
 10
20.089844
 20
117.245293
 30
0.0
 11
20.089844
 21
157.745293
 31
0.0
  0
LINE
  5
37C
100
AcDbEntity
  8
0
370
    -3
  6
Continuous
100
AcDbLine
 10
-85.978188
 20
291.845293
 30
0.0
 11
20.089844
 21
291.845293
 31
0.0
  0
LINE
  5
37D
100
AcDbEntity
  8
0
370
    -3
  6
Continuous
100
AcDbLine
 10
20.089844
 20
291.845293
 30
0.0
 11
20.089844
 21
251.345293
 31
0.0
  0
LINE
  5
37E
100
AcDbEntity
  8
0
370
    -3
  6
Continuous
100
AcDbLine
 10
175.089845
 20
288.045293
 30
0.0
 11
20.089844
 21
288.045293
 31
0.0
  0
LINE
  5
37F
100
AcDbEntity
  8
0
370
    -3
  6
Continuous
100
AcDbLine
 10
175.089845
 20
287.545293
 30
0.0
 11
20.089844
 21
287.545293
 31
0.0
  0
LINE
  5
380
100
AcDbEntity
  8
0
370
    -3
  6
Continuous
100
AcDbLine
 10
175.089845
 20
287.045293
 30
0.0
 11
20.089844
 21
287.045293
 31
0.0
  0
LINE
  5
381
100
AcDbEntity
  8
0
370
    -3
  6
Continuous
100
AcDbLine
 10
175.089845
 20
284.545293
 30
0.0
 11
20.089844
 21
284.545293
 31
0.0
  0
LINE
  5
382
100
AcDbEntity
  8
0
370
    -3
  6
Continuous
100
AcDbLine
 10
175.089845
 20
279.545293
 30
0.0
 11
20.089844
 21
279.545293
 31
0.0
  0
LINE
  5
383
100
AcDbEntity
  8
0
370
    -3
  6
Continuous
100
AcDbLine
 10
175.089845
 20
270.424506
 30
0.0
 11
20.089844
 21
270.424506
 31
0.0
  0
LINE
  5
384
100
AcDbEntity
  8
0
370
    -3
  6
Continuous
100
AcDbLine
 10
175.089845
 20
238.483521
 30
0.0
 11
74.987315
 21
238.483521
 31
0.0
  0
LINE
  5
385
100
AcDbEntity
  8
0
370
    -3
  6
Continuous
100
AcDbLine
 10
175.089845
 20
240.650231
 30
0.0
 11
74.987315
 21
240.650231
 31
0.0
  0
LINE
  5
386
100
AcDbEntity
  8
0
370
    -3
  6
Continuous
100
AcDbLine
 10
175.089845
 20
250.683017
 30
0.0
 11
70.332612
 21
250.683017
 31
0.0
  0
LINE
  5
387
100
AcDbEntity
  8
0
370
    -3
  6
Continuous
100
AcDbLine
 10
175.089845
 20
248.460691
 30
0.0
 11
73.243623
 21
248.460691
 31
0.0
  0
LINE
  5
388
100
AcDbEntity
  8
0
370
    -3
  6
Continuous
100
AcDbLine
 10
175.089845
 20
263.353438
 30
0.0
 11
20.089844
 21
263.353438
 31
0.0
  0
LINE
  5
389
100
AcDbEntity
  8
0
370
    -3
  6
Continuous
100
AcDbLine
 10
175.089845
 20
228.545293
 30
0.0
 11
74.987315
 21
228.545293
 31
0.0
  0
LINE
  5
38A
100
AcDbEntity
  8
0
370
    -3
  6
Continuous
100
AcDbLine
 10
175.089845
 20
121.545293
 30
0.0
 11
20.089844
 21
121.545293
 31
0.0
  0
LINE
  5
38B
100
AcDbEntity
  8
0
370
    -3
  6
Continuous
100
AcDbLine
 10
175.089845
 20
122.045293
 30
0.0
 11
20.089844
 21
122.045293
 31
0.0
  0
LINE
  5
38C
100
AcDbEntity
  8
0
370
    -3
  6
Continuous
100
AcDbLine
 10
175.089845
 20
124.545293
 30
0.0
 11
20.089844
 21
124.545293
 31
0.0
  0
LINE
  5
38D
100
AcDbEntity
  8
0
370
    -3
  6
Continuous
100
AcDbLine
 10
175.089845
 20
129.545293
 30
0.0
 11
20.089844
 21
129.545293
 31
0.0
  0
LINE
  5
38E
100
AcDbEntity
  8
0
370
    -3
  6
Continuous
100
AcDbLine
 10
175.089845
 20
138.666081
 30
0.0
 11
20.089844
 21
138.666081
 31
0.0
  0
LINE
  5
38F
100
AcDbEntity
  8
0
370
    -3
  6
Continuous
100
AcDbLine
 10
175.089845
 20
170.607065
 30
0.0
 11
74.987315
 21
170.607065
 31
0.0
  0
LINE
  5
390
100
AcDbEntity
  8
0
370
    -3
  6
Continuous
100
AcDbLine
 10
175.089845
 20
180.545293
 30
0.0
 11
74.987315
 21
180.545293
 31
0.0
  0
LINE
  5
391
100
AcDbEntity
  8
0
370
    -3
  6
Continuous
100
AcDbLine
 10
175.089845
 20
121.045293
 30
0.0
 11
20.089844
 21
121.045293
 31
0.0
  0
LINE
  5
392
100
AcDbEntity
  8
0
370
    -3
  6
Continuous
100
AcDbLine
 10
175.089845
 20
168.440355
 30
0.0
 11
74.987315
 21
168.440355
 31
0.0
  0
LINE
  5
393
100
AcDbEntity
  8
0
370
    -3
  6
Continuous
100
AcDbLine
 10
175.089845
 20
160.629896
 30
0.0
 11
73.243623
 21
160.629896
 31
0.0
  0
LINE
  5
394
100
AcDbEntity
  8
0
370
    -3
  6
Continuous
100
AcDbLine
 10
175.089845
 20
158.407569
 30
0.0
 11
70.332612
 21
158.407569
 31
0.0
  0
LINE
  5
395
100
AcDbEntity
  8
0
370
    -3
  6
Continuous
100
AcDbLine
 10
175.089845
 20
145.737148
 30
0.0
 11
20.089844
 21
145.737148
 31
0.0
  0
MTEXT
  5
397
100
AcDbEntity
  8
0
370
    -3
  6
Continuous
100
AcDbMText
 10
-427.49173
 20
230.155716
 30
0.0
 40
15.0
 41
0.0
 71
     7
 72
     1
  1
\W0.48;GV-SHYMB-RR
  7
ZU_SHPTB00001
 11
1.0
 21
0.0
 31
0.0
 73
     1
 44
1.0
  0
MTEXT
  5
398
100
AcDbEntity
  8
0
370
    -3
  6
Continuous
100
AcDbMText
 10
-427.49173
 20
213.205704
 30
0.0
 40
15.0
 41
0.0
 71
     7
 72
     1
  1
\W0.43;2.2kW
  7
ZU_SHPTB00001
 11
1.0
 21
0.0
 31
0.0
 73
     1
 44
1.0
  0
MTEXT
  5
399
100
AcDbEntity
  8
0
370
    -3
  6
Continuous
100
AcDbMText
 10
-427.49173
 20
179.30571
 30
0.0
 40
15.0
 41
0.0
 71
     7
 72
     1
  1
\W0.42;GEAR\W0.70; \W0.42;RATIO\W0.70;  \W0.42;1/80-1/240
  7
ZU_SHPTB00001
 11
1.0
 21
0.0
 31
0.0
 73
     1
 44
1.0
  0
MTEXT
  5
39A
100
AcDbEntity
  8
0
370
    -3
  6
Continuous
100
AcDbMText
 10
-427.49173
 20
196.255722
 30
0.0
 40
15.0
 41
0.0
 71
     7
 72
     1
  1
\W0.43;37.5-12.5r/min\W0.53;　
  7
ZU_SHPTB00001
 11
1.0
 21
0.0
 31
0.0
 73
     1
 44
1.0
  0
MTEXT
  5
39B
100
AcDbEntity
  8
0
370
    -3
  6
Continuous
100
AcDbMText
 10
-427.49173
 20
162.355667
 30
0.0
 40
15.0
 41
0.0
 71
     7
 72
     1
  1
\W0.43;SCALE\W0.72;  \W0.43;1/1
  7
ZU_SHPTB00001
 11
1.0
 21
0.0
 31
0.0
 73
     1
 44
1.0
  0
MTEXT
  5
39C
100
AcDbEntity
  8
0
370
    -3
  6
Continuous
100
AcDbMText
 10
-427.49173
 20
247.105728
 30
0.0
 40
15.0
 41
0.0
 71
     7
 72
     1
  1
\W0.63;三菱ギヤードモータ  
  7
ZU_SHPTB00001
 11
1.0
 21
0.0
 31
0.0
 73
     1
 44
1.0
  0
MTEXT
  5
39D
100
AcDbEntity
  8
0
370
    -3
  6
Continuous
100
AcDbMText
 10
-427.49173
 20
247.105728
 30
0.0
 40
15.0
 41
0.0
 71
     7
 72
     1
  1
\W0.63;三菱ギヤードモータ  
  7
ZU_SHPTB00001
 11
1.0
 21
0.0
 31
0.0
 73
     1
 44
1.0
  0
ARC
  5
39E
100
AcDbEntity
  8
0
370
    -3
  6
Continuous
100
AcDbCircle
 10
-345.910212
 20
-10.458289
 30
0.0
 40
12.0585
100
AcDbArc
 50
270.0
 51
90.0
  0
ARC
  5
39F
100
AcDbEntity
  8
0
370
    -3
  6
Continuous
100
AcDbCircle
 10
-345.910212
 20
-10.458289
 30
0.0
 40
13.2205
100
AcDbArc
 50
270.0
 51
90.0
  0
ARC
  5
3A0
100
AcDbEntity
  8
0
370
    -3
  6
Continuous
100
AcDbCircle
 10
-345.910212
 20
-10.458289
 30
0.0
 40
17.0
100
AcDbArc
 50
270.0
 51
90.0
  0
ARC
  5
3A1
100
AcDbEntity
  8
0
370
    -3
  6
Continuous
100
AcDbCircle
 10
-384.910212
 20
-26.902766
 30
0.0
 40
7.8
100
AcDbArc
 50
180.0
 51
270.0
  0
LINE
  5
3A2
100
AcDbEntity
  8
0
370
    -3
  6
Continuous
100
AcDbLine
 10
-391.910212
 20
3.010246
 30
0.0
 11
-391.910212
 21
-27.364671
 31
0.0
  0
ARC
  5
3A3
100
AcDbEntity
  8
0
370
    -3
  6
Continuous
100
AcDbCircle
 10
-384.910212
 20
3.010246
 30
0.0
 40
7.0
100
AcDbArc
 50
90.0
 51
180.0
  0
ARC
  5
3A4
100
AcDbEntity
  8
0
370
    -3
  6
Continuous
100
AcDbCircle
 10
-384.910212
 20
2.548341
 30
0.0
 40
7.8
100
AcDbArc
 50
90.0
 51
180.0
  0
ARC
  5
3A5
100
AcDbEntity
  8
0
370
    -3
  6
Continuous
100
AcDbCircle
 10
-384.910212
 20
7.212859
 30
0.0
 40
7.8
100
AcDbArc
 50
90.0
 51
180.0
  0
ELLIPSE
  5
3A6
100
AcDbEntity
  8
0
370
    -3
  6
Continuous
100
AcDbEllipse
 10
-385.410212
 20
13.127451
 30
0.0
 11
3.5
 21
0.0
 31
0.0
210
0.0
220
0.0
230
1.0
 40
0.656603
 41
0.9621393645107007
 42
2.7085416781366591
  0
LINE
  5
3A7
100
AcDbEntity
  8
0
370
    -3
  6
Continuous
100
AcDbLine
 10
-392.710212
 20
7.212859
 30
0.0
 11
-392.710212
 21
-26.902766
 31
0.0
  0
LINE
  5
3A8
100
AcDbEntity
  8
0
370
    -3
  6
Continuous
100
AcDbLine
 10
-345.910212
 20
10.010246
 30
0.0
 11
-384.910212
 21
10.010246
 31
0.0
  0
LINE
  5
3A9
100
AcDbEntity
  8
0
370
    -3
  6
Continuous
100
AcDbLine
 10
-384.910212
 20
15.012859
 30
0.0
 11
-345.910212
 21
15.012859
 31
0.0
  0
LINE
  5
3AA
100
AcDbEntity
  8
0
370
    -3
  6
Continuous
100
AcDbLine
 10
-345.910212
 20
-37.458289
 30
0.0
 11
-376.910212
 21
-37.458289
 31
0.0
  0
LINE
  5
3AB
100
AcDbEntity
  8
0
370
    -3
  6
Continuous
100
AcDbLine
 10
-376.910212
 20
-36.458289
 30
0.0
 11
-345.910212
 21
-36.458289
 31
0.0
  0
LINE
  5
3AC
100
AcDbEntity
  8
0
370
    -3
  6
Continuous
100
AcDbLine
 10
-376.910212
 20
-37.458289
 30
0.0
 11
-376.910212
 21
-36.458289
 31
0.0
  0
ARC
  5
3AD
100
AcDbEntity
  8
0
370
    -3
  6
Continuous
100
AcDbCircle
 10
-384.910212
 20
-27.364671
 30
0.0
 40
7.0
100
AcDbArc
 50
180.0
 51
270.0
  0
LINE
  5
3AE
100
AcDbEntity
  8
0
370
    -3
  6
Continuous
100
AcDbLine
 10
-345.910212
 20
-36.458289
 30
0.0
 11
-373.910212
 21
-36.458289
 31
0.0
  0
LINE
  5
3AF
100
AcDbEntity
  8
0
370
    -3
  6
Continuous
100
AcDbLine
 10
-345.910212
 20
8.777623
 30
0.0
 11
-371.969245
 21
8.777623
 31
0.0
  0
LINE
  5
3B0
100
AcDbEntity
  8
0
370
    -3
  6
Continuous
100
AcDbLine
 10
-385.210212
 20
-28.658289
 30
0.0
 11
-385.210212
 21
0.974569
 31
0.0
  0
LINE
  5
3B1
100
AcDbEntity
  8
0
370
    -3
  6
Continuous
100
AcDbLine
 10
-373.452642
 20
8.476127
 30
0.0
 11
-382.893608
 21
4.473074
 31
0.0
  0
ARC
  5
3B2
100
AcDbEntity
  8
0
370
    -3
  6
Continuous
100
AcDbCircle
 10
-371.969245
 20
4.977623
 30
0.0
 40
3.8
100
AcDbArc
 50
90.0
 51
112.977375
  0
ARC
  5
3B3
100
AcDbEntity
  8
0
370
    -3
  6
Continuous
100
AcDbCircle
 10
-381.410212
 20
0.974569
 30
0.0
 40
3.8
100
AcDbArc
 50
112.977375
 51
180.0
  0
LINE
  5
3B4
100
AcDbEntity
  8
0
370
    -3
  6
Continuous
100
AcDbLine
 10
-345.910212
 20
-35.458289
 30
0.0
 11
-378.410212
 21
-35.458289
 31
0.0
  0
ARC
  5
3B5
100
AcDbEntity
  8
0
370
    -3
  6
Continuous
100
AcDbCircle
 10
-378.410212
 20
-28.658289
 30
0.0
 40
6.8
100
AcDbArc
 50
180.0
 51
270.0
  0
LINE
  5
3B6
100
AcDbEntity
  8
0
370
    -3
  6
Continuous
100
AcDbLine
 10
-384.3614
 20
-31.948176
 30
0.0
 11
-385.410212
 21
-31.948176
 31
0.0
  0
ARC
  5
3B7
100
AcDbEntity
  8
0
370
    -3
  6
Continuous
100
AcDbCircle
 10
-385.410212
 20
-25.948176
 30
0.0
 40
6.0
100
AcDbArc
 50
180.0
 51
270.0
  0
ARC
  5
3B8
100
AcDbEntity
  8
0
370
    -3
  6
Continuous
100
AcDbCircle
 10
-375.175123
 20
-35.758289
 30
0.0
 40
0.3
100
AcDbArc
 50
13.342364
 51
90.0
  0
ARC
  5
3B9
100
AcDbEntity
  8
0
370
    -3
  6
Continuous
100
AcDbCircle
 10
-373.910212
 20
-35.458289
 30
0.0
 40
1.0
100
AcDbArc
 50
193.342364
 51
270.0
  0
LINE
  5
3BA
100
AcDbEntity
  8
0
370
    -3
  6
CENTER
100
AcDbLine
 10
-385.410212
 20
6.652975
 30
0.0
 11
-385.410212
 21
11.097733
 31
0.0
  0
LINE
  5
3BB
100
AcDbEntity
  8
0
370
    -3
  6
CENTER
100
AcDbLine
 10
-388.275071
 20
9.045796
 30
0.0
 11
-382.663681
 21
9.045796
 31
0.0
  0
ELLIPSE
  5
3BC
100
AcDbEntity
  8
0
370
    -3
  6
Continuous
100
AcDbEllipse
 10
-385.410212
 20
9.045796
 30
0.0
 11
-1.6500000000000341
 21
0.0000000000000089
 31
0.0
210
0.0
220
0.0
230
1.0
 40
0.422618
 41
0.0
 42
6.2831853071795862
  0
ELLIPSE
  5
3BD
100
AcDbEntity
  8
0
370
    -3
  6
Continuous
100
AcDbEllipse
 10
-385.410212
 20
9.045796
 30
0.0
 11
-2.0
 21
0.0000000000000107
 31
0.0
210
0.0
220
0.0
230
1.0
 40
0.422618
 41
0.0
 42
6.2831853071795862
  0
LINE
  5
3BE
100
AcDbEntity
  8
0
370
    -3
  6
Continuous
100
AcDbLine
 10
-382.108482
 20
-34.364671
 30
0.0
 11
-384.910212
 21
-34.364671
 31
0.0
  0
LINE
  5
3BF
100
AcDbEntity
  8
0
370
    -3
  6
Continuous
100
AcDbLine
 10
-384.910212
 20
-34.702766
 30
0.0
 11
-381.525384
 21
-34.702766
 31
0.0
  0
LINE
  5
3C0
100
AcDbEntity
  8
0
370
    -3
  6
Continuous
100
AcDbLine
 10
-391.410212
 20
-25.948176
 30
0.0
 11
-391.410212
 21
5.608323
 31
0.0
  0
LINE
  5
3C1
100
AcDbEntity
  8
0
370
    -3
  6
Continuous
100
AcDbLine
 10
-345.910212
 20
10.348341
 30
0.0
 11
-384.910212
 21
10.348341
 31
0.0
  0
LINE
  5
3C2
100
AcDbEntity
  8
0
370
    -3
  6
CENTER
100
AcDbLine
 10
-327.265279
 20
-10.458289
 30
0.0
 11
-367.210668
 21
-10.458289
 31
0.0
  0
ARC
  5
3C3
100
AcDbEntity
  8
0
370
    -3
  6
Continuous
100
AcDbCircle
 10
-306.910212
 20
-26.902766
 30
0.0
 40
7.8
100
AcDbArc
 50
270.0
 51
0.0
  0
LINE
  5
3C4
100
AcDbEntity
  8
0
370
    -3
  6
Continuous
100
AcDbLine
 10
-299.910212
 20
3.010246
 30
0.0
 11
-299.910212
 21
-27.364671
 31
0.0
  0
ARC
  5
3C5
100
AcDbEntity
  8
0
370
    -3
  6
Continuous
100
AcDbCircle
 10
-306.910212
 20
3.010246
 30
0.0
 40
7.0
100
AcDbArc
 50
0.0
 51
90.0
  0
ARC
  5
3C6
100
AcDbEntity
  8
0
370
    -3
  6
Continuous
100
AcDbCircle
 10
-306.910212
 20
2.548341
 30
0.0
 40
7.8
100
AcDbArc
 50
0.0
 51
90.0
  0
ARC
  5
3C7
100
AcDbEntity
  8
0
370
    -3
  6
Continuous
100
AcDbCircle
 10
-306.910212
 20
7.212859
 30
0.0
 40
7.8
100
AcDbArc
 50
0.0
 51
90.0
  0
ELLIPSE
  5
3C8
100
AcDbEntity
  8
0
370
    -3
  6
Continuous
100
AcDbEllipse
 10
-306.410212
 20
13.127451
 30
0.0
 11
3.5
 21
0.0
 31
0.0
210
0.0
220
0.0
230
1.0
 40
0.656603
 41
0.4330509754534933
 42
2.1794532890790927
  0
LINE
  5
3C9
100
AcDbEntity
  8
0
370
    -3
  6
Continuous
100
AcDbLine
 10
-299.110212
 20
7.212859
 30
0.0
 11
-299.110212
 21
-26.902766
 31
0.0
  0
LINE
  5
3CA
100
AcDbEntity
  8
0
370
    -3
  6
Continuous
100
AcDbLine
 10
-345.910212
 20
10.010246
 30
0.0
 11
-306.910212
 21
10.010246
 31
0.0
  0
LINE
  5
3CB
100
AcDbEntity
  8
0
370
    -3
  6
Continuous
100
AcDbLine
 10
-306.910212
 20
15.012859
 30
0.0
 11
-345.910212
 21
15.012859
 31
0.0
  0
LINE
  5
3CC
100
AcDbEntity
  8
0
370
    -3
  6
Continuous
100
AcDbLine
 10
-345.910212
 20
-37.458289
 30
0.0
 11
-314.910212
 21
-37.458289
 31
0.0
  0
LINE
  5
3CD
100
AcDbEntity
  8
0
370
    -3
  6
Continuous
100
AcDbLine
 10
-314.910212
 20
-36.458289
 30
0.0
 11
-345.910212
 21
-36.458289
 31
0.0
  0
LINE
  5
3CE
100
AcDbEntity
  8
0
370
    -3
  6
Continuous
100
AcDbLine
 10
-314.910212
 20
-37.458289
 30
0.0
 11
-314.910212
 21
-36.458289
 31
0.0
  0
ARC
  5
3CF
100
AcDbEntity
  8
0
370
    -3
  6
Continuous
100
AcDbCircle
 10
-306.910212
 20
-27.364671
 30
0.0
 40
7.0
100
AcDbArc
 50
270.0
 51
0.0
  0
LINE
  5
3D0
100
AcDbEntity
  8
0
370
    -3
  6
Continuous
100
AcDbLine
 10
-345.910212
 20
-36.458289
 30
0.0
 11
-317.910212
 21
-36.458289
 31
0.0
  0
LINE
  5
3D1
100
AcDbEntity
  8
0
370
    -3
  6
Continuous
100
AcDbLine
 10
-345.910212
 20
8.777623
 30
0.0
 11
-319.851178
 21
8.777623
 31
0.0
  0
LINE
  5
3D2
100
AcDbEntity
  8
0
370
    -3
  6
Continuous
100
AcDbLine
 10
-306.610212
 20
-28.658289
 30
0.0
 11
-306.610212
 21
0.974569
 31
0.0
  0
LINE
  5
3D3
100
AcDbEntity
  8
0
370
    -3
  6
Continuous
100
AcDbLine
 10
-318.367781
 20
8.476127
 30
0.0
 11
-308.926815
 21
4.473074
 31
0.0
  0
ARC
  5
3D4
100
AcDbEntity
  8
0
370
    -3
  6
Continuous
100
AcDbCircle
 10
-319.851178
 20
4.977623
 30
0.0
 40
3.8
100
AcDbArc
 50
67.022625
 51
90.0
  0
ARC
  5
3D5
100
AcDbEntity
  8
0
370
    -3
  6
Continuous
100
AcDbCircle
 10
-310.410212
 20
0.974569
 30
0.0
 40
3.8
100
AcDbArc
 50
0.0
 51
67.022625
  0
LINE
  5
3D6
100
AcDbEntity
  8
0
370
    -3
  6
Continuous
100
AcDbLine
 10
-345.910212
 20
-35.458289
 30
0.0
 11
-313.410212
 21
-35.458289
 31
0.0
  0
ARC
  5
3D7
100
AcDbEntity
  8
0
370
    -3
  6
Continuous
100
AcDbCircle
 10
-313.410212
 20
-28.658289
 30
0.0
 40
6.8
100
AcDbArc
 50
270.0
 51
0.0
  0
LINE
  5
3D8
100
AcDbEntity
  8
0
370
    -3
  6
Continuous
100
AcDbLine
 10
-307.459023
 20
-31.948176
 30
0.0
 11
-306.410212
 21
-31.948176
 31
0.0
  0
ARC
  5
3D9
100
AcDbEntity
  8
0
370
    -3
  6
Continuous
100
AcDbCircle
 10
-306.410212
 20
-25.948176
 30
0.0
 40
6.0
100
AcDbArc
 50
270.0
 51
0.0
  0
ARC
  5
3DA
100
AcDbEntity
  8
0
370
    -3
  6
Continuous
100
AcDbCircle
 10
-316.6453
 20
-35.758289
 30
0.0
 40
0.3
100
AcDbArc
 50
90.0
 51
166.657636
  0
ARC
  5
3DB
100
AcDbEntity
  8
0
370
    -3
  6
Continuous
100
AcDbCircle
 10
-317.910212
 20
-35.458289
 30
0.0
 40
1.0
100
AcDbArc
 50
270.0
 51
346.657636
  0
LINE
  5
3DC
100
AcDbEntity
  8
0
370
    -3
  6
CENTER
100
AcDbLine
 10
-306.410212
 20
6.652975
 30
0.0
 11
-306.410212
 21
11.097733
 31
0.0
  0
LINE
  5
3DD
100
AcDbEntity
  8
0
370
    -3
  6
CENTER
100
AcDbLine
 10
-303.545352
 20
9.045796
 30
0.0
 11
-309.156742
 21
9.045796
 31
0.0
  0
ELLIPSE
  5
3DE
100
AcDbEntity
  8
0
370
    -3
  6
Continuous
100
AcDbEllipse
 10
-306.410212
 20
9.045796
 30
0.0
 11
1.6500000000000341
 21
0.0000000000000089
 31
0.0
210
0.0
220
0.0
230
1.0
 40
0.422618
 41
0.0
 42
6.2831853071795862
  0
ELLIPSE
  5
3DF
100
AcDbEntity
  8
0
370
    -3
  6
Continuous
100
AcDbEllipse
 10
-306.410212
 20
9.045796
 30
0.0
 11
2.0
 21
0.0000000000000107
 31
0.0
210
0.0
220
0.0
230
1.0
 40
0.422618
 41
0.0
 42
6.2831853071795862
  0
LINE
  5
3E0
100
AcDbEntity
  8
0
370
    -3
  6
Continuous
100
AcDbLine
 10
-309.711941
 20
-34.364671
 30
0.0
 11
-306.910212
 21
-34.364671
 31
0.0
  0
LINE
  5
3E1
100
AcDbEntity
  8
0
370
    -3
  6
Continuous
100
AcDbLine
 10
-306.910212
 20
-34.702766
 30
0.0
 11
-310.295039
 21
-34.702766
 31
0.0
  0
LINE
  5
3E2
100
AcDbEntity
  8
0
370
    -3
  6
Continuous
100
AcDbLine
 10
-300.410212
 20
-25.948176
 30
0.0
 11
-300.410212
 21
5.608323
 31
0.0
  0
LINE
  5
3E3
100
AcDbEntity
  8
0
370
    -3
  6
Continuous
100
AcDbLine
 10
-345.910212
 20
10.348341
 30
0.0
 11
-306.910212
 21
10.348341
 31
0.0
  0
ARC
  5
3E4
100
AcDbEntity
  8
0
370
    -3
  6
Continuous
100
AcDbCircle
 10
-345.910212
 20
-10.458289
 30
0.0
 40
17.0
100
AcDbArc
 50
90.0
 51
270.0
  0
ARC
  5
3E5
100
AcDbEntity
  8
0
370
    -3
  6
Continuous
100
AcDbCircle
 10
-345.910212
 20
-10.458289
 30
0.0
 40
12.0585
100
AcDbArc
 50
90.0
 51
270.0
  0
ARC
  5
3E6
100
AcDbEntity
  8
0
370
    -3
  6
Continuous
100
AcDbCircle
 10
-345.910212
 20
-10.458289
 30
0.0
 40
13.2205
100
AcDbArc
 50
90.0
 51
270.0
  0
LINE
  5
3E7
100
AcDbEntity
  8
0
370
    -3
  6
Continuous
100
AcDbLine
 10
-372.741582
 20
-28.658289
 30
0.0
 11
-372.741582
 21
8.698307
 31
0.0
  0
ARC
  5
3E8
100
AcDbEntity
  8
0
370
    -3
  6
Continuous
100
AcDbCircle
 10
-365.941582
 20
-28.658289
 30
0.0
 40
6.8
100
AcDbArc
 50
180.0
 51
270.0
  0
ARC
  5
3E9
100
AcDbEntity
  8
0
370
    -3
  6
Continuous
100
AcDbCircle
 10
-325.878841
 20
-28.658289
 30
0.0
 40
6.8
100
AcDbArc
 50
270.0
 51
0.0
  0
LINE
  5
3EA
100
AcDbEntity
  8
0
370
    -3
  6
Continuous
100
AcDbLine
 10
-319.078841
 20
-28.658289
 30
0.0
 11
-319.078841
 21
8.698307
 31
0.0
  0
LINE
  5
3EB
100
AcDbEntity
  8
0
370
    -3
  6
Continuous
100
AcDbLine
 10
-376.910212
 20
-37.458289
 30
0.0
 11
-376.910212
 21
-39.058289
 31
0.0
  0
ARC
  5
3EC
100
AcDbEntity
  8
0
370
    -3
  6
Continuous
100
AcDbCircle
 10
-372.510212
 20
-41.058289
 30
0.0
 40
2.0
100
AcDbArc
 50
0.0
 51
90.0
  0
LINE
  5
3ED
100
AcDbEntity
  8
0
370
    -3
  6
Continuous
100
AcDbLine
 10
-376.910212
 20
-39.058289
 30
0.0
 11
-372.510212
 21
-39.058289
 31
0.0
  0
LINE
  5
3EE
100
AcDbEntity
  8
0
370
    -3
  6
Continuous
100
AcDbLine
 10
-370.510212
 20
-41.058289
 30
0.0
 11
-370.510212
 21
-47.166525
 31
0.0
  0
LINE
  5
3EF
100
AcDbEntity
  8
0
370
    -3
  6
Continuous
100
AcDbLine
 10
-314.910212
 20
-37.458289
 30
0.0
 11
-314.910212
 21
-39.058289
 31
0.0
  0
LINE
  5
3F0
100
AcDbEntity
  8
0
370
    -3
  6
Continuous
100
AcDbLine
 10
-319.310212
 20
-39.058289
 30
0.0
 11
-314.910212
 21
-39.058289
 31
0.0
  0
ARC
  5
3F1
100
AcDbEntity
  8
0
370
    -3
  6
Continuous
100
AcDbCircle
 10
-319.310212
 20
-41.058289
 30
0.0
 40
2.0
100
AcDbArc
 50
90.0
 51
180.0
  0
LINE
  5
3F2
100
AcDbEntity
  8
0
370
    -3
  6
Continuous
100
AcDbLine
 10
-321.310212
 20
-41.058289
 30
0.0
 11
-321.310212
 21
-47.166525
 31
0.0
  0
ARC
  5
3F3
100
AcDbEntity
  8
0
370
    -3
  6
Continuous
100
AcDbCircle
 10
761.339842
 20
6.359238
 30
0.0
 40
6.8
100
AcDbArc
 50
90.0
 51
180.0
  0
LINE
  5
3F4
100
AcDbEntity
  8
0
370
    -3
  6
Continuous
100
AcDbLine
 10
824.839842
 20
13.159238
 30
0.0
 11
761.339842
 21
13.159238
 31
0.0
  0
ARC
  5
3F5
100
AcDbEntity
  8
0
370
    -3
  6
Continuous
100
AcDbCircle
 10
824.839842
 20
6.359238
 30
0.0
 40
6.8
100
AcDbArc
 50
0.0
 51
90.0
  0
LINE
  5
3F6
100
AcDbEntity
  8
0
370
    -3
  6
Continuous
100
AcDbLine
 10
754.539842
 20
-8.804669
 30
0.0
 11
754.539842
 21
6.359238
 31
0.0
  0
LINE
  5
3F7
100
AcDbEntity
  8
0
370
    -3
  6
Continuous
100
AcDbLine
 10
831.639842
 20
-8.804669
 30
0.0
 11
831.639842
 21
6.359238
 31
0.0
  0
LINE
  5
3F8
100
AcDbEntity
  8
0
370
    -3
  6
Continuous
100
AcDbLine
 10
755.179858
 20
15.174731
 30
0.0
 11
753.589842
 21
14.664904
 31
0.0
  0
LINE
  5
3F9
100
AcDbEntity
  8
0
370
    -3
  6
Continuous
100
AcDbLine
 10
753.589842
 20
14.664904
 30
0.0
 11
755.589842
 21
13.615716
 31
0.0
  0
LINE
  5
3FA
100
AcDbEntity
  8
0
370
    -3
  6
Continuous
100
AcDbLine
 10
753.589842
 20
14.664904
 30
0.0
 11
751.589842
 21
13.615716
 31
0.0
  0
LINE
  5
3FB
100
AcDbEntity
  8
0
370
    -3
  6
Continuous
100
AcDbLine
 10
751.999825
 20
15.174731
 30
0.0
 11
753.589842
 21
14.664904
 31
0.0
  0
ELLIPSE
  5
3FC
100
AcDbEntity
  8
0
370
    -3
  6
Continuous
100
AcDbEllipse
 10
753.589842
 20
13.127451
 30
0.0
 11
3.5
 21
0.0
 31
0.0
210
0.0
220
0.0
230
1.0
 40
0.656603
 41
0.0
 42
6.2831853071795862
  0
ARC
  5
3FD
100
AcDbEntity
  8
0
370
    -3
  6
Continuous
100
AcDbCircle
 10
754.089842
 20
7.212859
 30
0.0
 40
7.8
100
AcDbArc
 50
118.12516
 51
180.0
  0
LINE
  5
3FE
100
AcDbEntity
  8
0
370
    -3
  6
Continuous
100
AcDbLine
 10
830.999825
 20
15.174731
 30
0.0
 11
832.589842
 21
14.664904
 31
0.0
  0
LINE
  5
3FF
100
AcDbEntity
  8
0
370
    -3
  6
Continuous
100
AcDbLine
 10
832.589842
 20
14.664904
 30
0.0
 11
830.589842
 21
13.615716
 31
0.0
  0
LINE
  5
400
100
AcDbEntity
  8
0
370
    -3
  6
Continuous
100
AcDbLine
 10
832.589842
 20
14.664904
 30
0.0
 11
834.589842
 21
13.615716
 31
0.0
  0
LINE
  5
401
100
AcDbEntity
  8
0
370
    -3
  6
Continuous
100
AcDbLine
 10
834.179858
 20
15.174731
 30
0.0
 11
832.589842
 21
14.664904
 31
0.0
  0
ELLIPSE
  5
402
100
AcDbEntity
  8
0
370
    -3
  6
Continuous
100
AcDbEllipse
 10
832.589842
 20
13.127451
 30
0.0
 11
3.5
 21
0.0
 31
0.0
210
0.0
220
0.0
230
1.0
 40
0.656603
 41
0.0
 42
6.2831853071795862
  0
ARC
  5
403
100
AcDbEntity
  8
0
370
    -3
  6
Continuous
100
AcDbCircle
 10
832.089842
 20
7.212859
 30
0.0
 40
7.8
100
AcDbArc
 50
0.0
 51
61.87484
  0
LINE
  5
404
100
AcDbEntity
  8
0
370
    -3
  6
Continuous
100
AcDbLine
 10
830.58866
 20
15.012859
 30
0.0
 11
755.591023
 21
15.012859
 31
0.0
  0
LINE
  5
405
100
AcDbEntity
  8
0
370
    -3
  6
Continuous
100
AcDbLine
 10
746.289842
 20
7.212859
 30
0.0
 11
746.289842
 21
-9.092765
 31
0.0
  0
LINE
  5
406
100
AcDbEntity
  8
0
370
    -3
  6
Continuous
100
AcDbLine
 10
839.889842
 20
7.212859
 30
0.0
 11
839.889842
 21
-9.092765
 31
0.0
  0
ARC
  5
407
100
AcDbEntity
  8
0
370
    -3
  6
Continuous
100
AcDbCircle
 10
761.339842
 20
6.359238
 30
0.0
 40
6.8
100
AcDbArc
 50
90.0
 51
180.0
  0
LINE
  5
408
100
AcDbEntity
  8
0
370
    -3
  6
Continuous
100
AcDbLine
 10
824.839842
 20
13.159238
 30
0.0
 11
761.339842
 21
13.159238
 31
0.0
  0
ARC
  5
409
100
AcDbEntity
  8
0
370
    -3
  6
Continuous
100
AcDbCircle
 10
824.839842
 20
6.359238
 30
0.0
 40
6.8
100
AcDbArc
 50
0.0
 51
90.0
  0
LINE
  5
40A
100
AcDbEntity
  8
0
370
    -3
  6
Continuous
100
AcDbLine
 10
754.539842
 20
-8.804669
 30
0.0
 11
754.539842
 21
6.359238
 31
0.0
  0
LINE
  5
40B
100
AcDbEntity
  8
0
370
    -3
  6
Continuous
100
AcDbLine
 10
831.639842
 20
-8.804669
 30
0.0
 11
831.639842
 21
6.359238
 31
0.0
  0
LINE
  5
40C
100
AcDbEntity
  8
0
370
    -3
  6
Continuous
100
AcDbLine
 10
755.179858
 20
15.174731
 30
0.0
 11
753.589842
 21
14.664904
 31
0.0
  0
LINE
  5
40D
100
AcDbEntity
  8
0
370
    -3
  6
Continuous
100
AcDbLine
 10
753.589842
 20
14.664904
 30
0.0
 11
755.589842
 21
13.615716
 31
0.0
  0
LINE
  5
40E
100
AcDbEntity
  8
0
370
    -3
  6
Continuous
100
AcDbLine
 10
753.589842
 20
14.664904
 30
0.0
 11
751.589842
 21
13.615716
 31
0.0
  0
LINE
  5
40F
100
AcDbEntity
  8
0
370
    -3
  6
Continuous
100
AcDbLine
 10
751.999825
 20
15.174731
 30
0.0
 11
753.589842
 21
14.664904
 31
0.0
  0
ELLIPSE
  5
410
100
AcDbEntity
  8
0
370
    -3
  6
Continuous
100
AcDbEllipse
 10
753.589842
 20
13.127451
 30
0.0
 11
3.5
 21
0.0
 31
0.0
210
0.0
220
0.0
230
1.0
 40
0.656603
 41
0.0
 42
6.2831853071795862
  0
ARC
  5
411
100
AcDbEntity
  8
0
370
    -3
  6
Continuous
100
AcDbCircle
 10
754.089842
 20
7.212859
 30
0.0
 40
7.8
100
AcDbArc
 50
118.12516
 51
180.0
  0
LINE
  5
412
100
AcDbEntity
  8
0
370
    -3
  6
Continuous
100
AcDbLine
 10
830.999825
 20
15.174731
 30
0.0
 11
832.589842
 21
14.664904
 31
0.0
  0
LINE
  5
413
100
AcDbEntity
  8
0
370
    -3
  6
Continuous
100
AcDbLine
 10
832.589842
 20
14.664904
 30
0.0
 11
830.589842
 21
13.615716
 31
0.0
  0
LINE
  5
414
100
AcDbEntity
  8
0
370
    -3
  6
Continuous
100
AcDbLine
 10
832.589842
 20
14.664904
 30
0.0
 11
834.589842
 21
13.615716
 31
0.0
  0
LINE
  5
415
100
AcDbEntity
  8
0
370
    -3
  6
Continuous
100
AcDbLine
 10
834.179858
 20
15.174731
 30
0.0
 11
832.589842
 21
14.664904
 31
0.0
  0
ELLIPSE
  5
416
100
AcDbEntity
  8
0
370
    -3
  6
Continuous
100
AcDbEllipse
 10
832.589842
 20
13.127451
 30
0.0
 11
3.5
 21
0.0
 31
0.0
210
0.0
220
0.0
230
1.0
 40
0.656603
 41
0.0
 42
6.2831853071795862
  0
ARC
  5
417
100
AcDbEntity
  8
0
370
    -3
  6
Continuous
100
AcDbCircle
 10
832.089842
 20
7.212859
 30
0.0
 40
7.8
100
AcDbArc
 50
0.0
 51
61.87484
  0
LINE
  5
418
100
AcDbEntity
  8
0
370
    -3
  6
Continuous
100
AcDbLine
 10
830.58866
 20
15.012859
 30
0.0
 11
755.591023
 21
15.012859
 31
0.0
  0
LINE
  5
419
100
AcDbEntity
  8
0
370
    -3
  6
Continuous
100
AcDbLine
 10
746.289842
 20
7.212859
 30
0.0
 11
746.289842
 21
-9.092765
 31
0.0
  0
LINE
  5
41A
100
AcDbEntity
  8
0
370
    -3
  6
Continuous
100
AcDbLine
 10
839.889842
 20
7.212859
 30
0.0
 11
839.889842
 21
-9.092765
 31
0.0
  0
POINT
  5
41B
100
AcDbEntity
  8
0
370
    -3
  6
CENTER
100
AcDbPoint
 10
-44.076134
 20
3.313555
 30
0.0
  0
POINT
  5
41C
100
AcDbEntity
  8
0
370
    -3
  6
CENTER
100
AcDbPoint
 10
-44.076134
 20
-23.127445
 30
0.0
  0
LINE
  5
41D
100
AcDbEntity
  8
0
370
    -3
  6
Continuous
100
AcDbLine
 10
30.089845
 20
-37.458394
 30
0.0
 11
61.089845
 21
-37.458394
 31
0.0
  0
ARC
  5
41E
100
AcDbEntity
  8
0
370
    -3
  6
Continuous
100
AcDbCircle
 10
57.289845
 20
-40.658394
 30
0.0
 40
1.6
100
AcDbArc
 50
90.0
 51
180.0
  0
LINE
  5
41F
100
AcDbEntity
  8
0
370
    -3
  6
Continuous
100
AcDbLine
 10
61.089845
 20
-37.458394
 30
0.0
 11
61.089845
 21
-39.058394
 31
0.0
  0
LINE
  5
420
100
AcDbEntity
  8
0
370
    -3
  6
Continuous
100
AcDbLine
 10
61.089845
 20
-39.058394
 30
0.0
 11
30.089845
 21
-39.058394
 31
0.0
  0
LINE
  5
421
100
AcDbEntity
  8
0
370
    -3
  6
Continuous
100
AcDbLine
 10
55.689845
 20
-49.258394
 30
0.0
 11
55.689845
 21
-40.658394
 31
0.0
  0
LINE
  5
422
100
AcDbEntity
  8
0
370
    -3
  6
Continuous
100
AcDbLine
 10
30.089845
 20
-37.458394
 30
0.0
 11
-0.910155
 21
-37.458394
 31
0.0
  0
LINE
  5
423
100
AcDbEntity
  8
0
370
    -3
  6
Continuous
100
AcDbLine
 10
-0.910155
 20
-37.458394
 30
0.0
 11
61.089845
 21
-37.458394
 31
0.0
  0
ARC
  5
424
100
AcDbEntity
  8
0
370
    -3
  6
Continuous
100
AcDbCircle
 10
2.889845
 20
-40.658394
 30
0.0
 40
1.6
100
AcDbArc
 50
0.0
 51
90.0
  0
LINE
  5
425
100
AcDbEntity
  8
0
370
    -3
  6
Continuous
100
AcDbLine
 10
-0.910155
 20
-37.458394
 30
0.0
 11
-0.910155
 21
-39.058394
 31
0.0
  0
LINE
  5
426
100
AcDbEntity
  8
0
370
    -3
  6
Continuous
100
AcDbLine
 10
-0.910155
 20
-39.058394
 30
0.0
 11
30.089845
 21
-39.058394
 31
0.0
  0
LINE
  5
427
100
AcDbEntity
  8
0
370
    -3
  6
Continuous
100
AcDbLine
 10
4.489845
 20
-47.098885
 30
0.0
 11
4.489845
 21
-40.658394
 31
0.0
  0
LINE
  5
428
100
AcDbEntity
  8
0
370
    -3
  6
Continuous
100
AcDbLine
 10
-41.910155
 20
-27.458394
 30
0.0
 11
-14.910155
 21
-27.458394
 31
0.0
  0
LINE
  5
429
100
AcDbEntity
  8
0
370
    -3
  6
Continuous
100
AcDbLine
 10
-41.910155
 20
6.541606
 30
0.0
 11
-15.32087
 21
6.541606
 31
0.0
  0
ARC
  5
42A
100
AcDbEntity
  8
0
370
    -3
  6
Continuous
100
AcDbCircle
 10
-41.910155
 20
4.541606
 30
0.0
 40
2.0
100
AcDbArc
 50
90.0
 51
180.0
  0
LINE
  5
42B
100
AcDbEntity
  8
0
370
    -3
  6
Continuous
100
AcDbLine
 10
-43.910155
 20
-10.458394
 30
0.0
 11
-43.910155
 21
4.541606
 31
0.0
  0
ARC
  5
42C
100
AcDbEntity
  8
0
370
    -3
  6
Continuous
100
AcDbCircle
 10
-41.910155
 20
-25.458394
 30
0.0
 40
2.0
100
AcDbArc
 50
180.0
 51
270.0
  0
LINE
  5
42D
100
AcDbEntity
  8
0
370
    -3
  6
Continuous
100
AcDbLine
 10
-43.910155
 20
-10.458394
 30
0.0
 11
-43.910155
 21
-25.458394
 31
0.0
  0
LINE
  5
42E
100
AcDbEntity
  8
0
370
    -3
  6
Continuous
100
AcDbLine
 10
-16.910155
 20
-10.458394
 30
0.0
 11
-16.910155
 21
-27.458394
 31
0.0
  0
LINE
  5
42F
100
AcDbEntity
  8
0
370
    -3
  6
Continuous
100
AcDbLine
 10
-16.910155
 20
-10.458394
 30
0.0
 11
-16.910155
 21
6.541606
 31
0.0
  0
ARC
  5
430
100
AcDbEntity
  8
0
370
    -3
  6
Continuous
100
AcDbCircle
 10
-0.234461
 20
-32.458394
 30
0.0
 40
3.0
100
AcDbArc
 50
180.0
 51
270.0
  0
LINE
  5
431
100
AcDbEntity
  8
0
370
    -3
  6
Continuous
100
AcDbLine
 10
-3.234461
 20
0.905621
 30
0.0
 11
-3.234461
 21
-32.458394
 31
0.0
  0
LINE
  5
432
100
AcDbEntity
  8
0
370
    -3
  6
Continuous
100
AcDbLine
 10
65.877733
 20
-31.321925
 30
0.0
 11
64.971969
 21
-33.264344
 31
0.0
  0
LINE
  5
433
100
AcDbEntity
  8
0
370
    -3
  6
Continuous
100
AcDbLine
 10
-14.910155
 20
6.350086
 30
0.0
 11
-14.910155
 21
-28.658394
 31
0.0
  0
LINE
  5
434
100
AcDbEntity
  8
0
370
    -3
  6
Continuous
100
AcDbLine
 10
-15.32087
 20
6.541606
 30
0.0
 11
-23.484214
 21
10.348236
 31
0.0
  0
LINE
  5
435
100
AcDbEntity
  8
0
370
    -3
  6
Continuous
100
AcDbLine
 10
73.128196
 20
-34.702871
 30
0.0
 11
-15.32087
 21
6.541606
 31
0.0
  0
LINE
  5
436
100
AcDbEntity
  8
0
370
    -3
  6
Continuous
100
AcDbLine
 10
54.276994
 20
-25.912411
 30
0.0
 11
50.848731
 21
-33.264344
 31
0.0
  0
ARC
  5
437
100
AcDbEntity
  8
0
370
    -3
  6
Continuous
100
AcDbCircle
 10
47.404762
 20
-31.658394
 30
0.0
 40
3.8
100
AcDbArc
 50
270.0
 51
335.0
  0
ARC
  5
438
100
AcDbEntity
  8
0
370
    -3
  6
Continuous
100
AcDbCircle
 10
-226.735794
 20
-86.143791
 30
0.0
 40
300.8
100
AcDbArc
 50
12.10025
 51
17.658425
  0
ARC
  5
439
100
AcDbEntity
  8
0
370
    -3
  6
Continuous
100
AcDbCircle
 10
24.507447
 20
-587.640867
 30
0.0
 40
600.8
100
AcDbArc
 50
87.562495
 51
93.317592
  0
ARC
  5
43A
100
AcDbEntity
  8
0
370
    -3
  6
Continuous
100
AcDbCircle
 10
60.489662
 20
-6.736379
 30
0.0
 40
2.8
100
AcDbArc
 50
335.0
 51
15.454189
  0
ARC
  5
43B
100
AcDbEntity
  8
0
370
    -3
  6
Continuous
100
AcDbCircle
 10
-3.928758
 20
10.939102
 30
0.0
 40
3.0
100
AcDbArc
 50
245.0
 51
335.0
  0
LINE
  5
43C
100
AcDbEntity
  8
0
370
    -3
  6
Continuous
100
AcDbLine
 10
-1.209835
 20
9.671248
 30
0.0
 11
-0.534804
 21
11.118855
 31
0.0
  0
ARC
  5
43D
100
AcDbEntity
  8
0
370
    -3
  6
Continuous
100
AcDbCircle
 10
2.002857
 20
9.935524
 30
0.0
 40
2.8
100
AcDbArc
 50
92.156727
 51
155.0
  0
LINE
  5
43E
100
AcDbEntity
  8
0
370
    -3
  6
Continuous
100
AcDbLine
 10
63.027324
 20
-7.919711
 30
0.0
 11
58.291898
 21
-18.074866
 31
0.0
  0
ARC
  5
43F
100
AcDbEntity
  8
0
370
    -3
  6
Continuous
100
AcDbCircle
 10
61.010821
 20
-19.342721
 30
0.0
 40
3.0
100
AcDbArc
 50
155.0
 51
245.0
  0
LINE
  5
440
100
AcDbEntity
  8
0
370
    -3
  6
Continuous
100
AcDbLine
 10
73.948028
 20
-28.685573
 30
0.0
 11
-19.401674
 21
14.844108
 31
0.0
  0
LINE
  5
441
100
AcDbEntity
  8
0
370
    -3
  6
CENTER
100
AcDbLine
 10
-46.388778
 20
-10.458394
 30
0.0
 11
-6.082292
 21
-10.458394
 31
0.0
  0
ARC
  5
442
100
AcDbEntity
  8
0
370
    -3
  6
Continuous
100
AcDbCircle
 10
66.930057
 20
-24.332805
 30
0.0
 40
1.299999
100
AcDbArc
 50
81.601531
 51
155.000001
  0
LINE
  5
443
100
AcDbEntity
  8
0
370
    -3
  6
Continuous
100
AcDbLine
 10
65.338104
 20
-24.670699
 30
0.0
 11
65.751858
 21
-23.783401
 31
0.0
  0
ARC
  5
444
100
AcDbEntity
  8
0
370
    -3
  6
Continuous
100
AcDbCircle
 10
65.805424
 20
-31.950233
 30
0.0
 40
9.0
100
AcDbArc
 50
48.398452
 51
81.601531
  0
ARC
  5
445
100
AcDbEntity
  8
0
370
    -3
  6
Continuous
100
AcDbCircle
 10
70.917813
 20
-26.192326
 30
0.0
 40
1.299999
100
AcDbArc
 50
334.999982
 51
48.398452
  0
LINE
  5
446
100
AcDbEntity
  8
0
370
    -3
  6
CENTER
100
AcDbLine
 10
67.252507
 20
-28.846954
 30
0.0
 11
70.122428
 21
-22.692389
 31
0.0
  0
LINE
  5
447
100
AcDbEntity
  8
0
370
    -3
  6
Continuous
100
AcDbLine
 10
71.682258
 20
-27.629027
 30
0.0
 11
72.096012
 21
-26.741729
 31
0.0
  0
ARC
  5
448
100
AcDbEntity
  8
0
370
    -3
  6
Continuous
100
AcDbCircle
 10
-15.543952
 20
14.125457
 30
0.0
 40
1.299999
100
AcDbArc
 50
81.601531
 51
155.000001
  0
ARC
  5
449
100
AcDbEntity
  8
0
370
    -3
  6
Continuous
100
AcDbCircle
 10
-11.556196
 20
12.265936
 30
0.0
 40
1.299999
100
AcDbArc
 50
334.999982
 51
48.398452
  0
LINE
  5
44A
100
AcDbEntity
  8
0
370
    -3
  6
Continuous
100
AcDbLine
 10
-17.135905
 20
13.787562
 30
0.0
 11
-16.722151
 21
14.674861
 31
0.0
  0
LINE
  5
44B
100
AcDbEntity
  8
0
370
    -3
  6
Continuous
100
AcDbLine
 10
-10.79175
 20
10.829235
 30
0.0
 11
-10.377997
 21
11.716533
 31
0.0
  0
POINT
  5
44C
100
AcDbEntity
  8
0
370
    -3
  6
Continuous
100
AcDbPoint
 10
-13.963828
 20
12.308399
 30
0.0
  0
ARC
  5
44D
100
AcDbEntity
  8
0
370
    -3
  6
Continuous
100
AcDbCircle
 10
-16.668584
 20
6.508029
 30
0.0
 40
9.0
100
AcDbArc
 50
48.398452
 51
81.601531
  0
ARC
  5
44E
100
AcDbEntity
  8
0
370
    -3
  6
Continuous
100
AcDbCircle
 10
49.599941
 20
1.825304
 30
0.0
 40
10.8
100
AcDbArc
 50
17.658425
 51
87.562495
  0
LINE
  5
44F
100
AcDbEntity
  8
0
370
    -3
  6
CENTER
100
AcDbLine
 10
-15.221502
 20
9.611308
 30
0.0
 11
-12.351581
 21
15.765873
 31
0.0
  0
POINT
  5
450
100
AcDbEntity
  8
0
370
    -3
  6
Continuous
100
AcDbPoint
 10
68.486471
 20
-26.138807
 30
0.0
  0
LINE
  5
451
100
AcDbEntity
  8
0
370
    -3
  6
CENTER
100
AcDbLine
 10
67.252507
 20
-28.846954
 30
0.0
 11
70.122428
 21
-22.692389
 31
0.0
  0
ARC
  5
452
100
AcDbEntity
  8
0
370
    -3
  6
Continuous
100
AcDbCircle
 10
73.187315
 20
-30.316927
 30
0.0
 40
1.8
100
AcDbArc
 50
335.0
 51
65.0
  0
LINE
  5
453
100
AcDbEntity
  8
0
370
    -3
  6
Continuous
100
AcDbLine
 10
74.818669
 20
-31.07764
 30
0.0
 11
73.128196
 21
-34.702871
 31
0.0
  0
ARC
  5
454
100
AcDbEntity
  8
0
370
    -3
  6
Continuous
100
AcDbCircle
 10
-20.162387
 20
13.212754
 30
0.0
 40
1.8
100
AcDbArc
 50
65.0
 51
155.0
  0
LINE
  5
455
100
AcDbEntity
  8
0
370
    -3
  6
Continuous
100
AcDbLine
 10
-21.793741
 20
13.973467
 30
0.0
 11
-23.484214
 21
10.348236
 31
0.0
  0
ARC
  5
456
100
AcDbEntity
  8
0
370
    -3
  6
Continuous
100
AcDbCircle
 10
61.527999
 20
-31.658394
 30
0.0
 40
3.8
100
AcDbArc
 50
270.0
 51
335.0
  0
ARC
  5
457
100
AcDbEntity
  8
0
370
    -3
  6
Continuous
100
AcDbCircle
 10
-8.110155
 20
-28.658394
 30
0.0
 40
6.8
100
AcDbArc
 50
180.0
 51
270.0
  0
LINE
  5
458
100
AcDbEntity
  8
0
370
    -3
  6
Continuous
100
AcDbLine
 10
-8.110155
 20
-35.458394
 30
0.0
 11
61.527999
 21
-35.458394
 31
0.0
  0
ARC
  5
459
100
AcDbEntity
  8
0
370
    -3
  6
Continuous
100
AcDbCircle
 10
58.089845
 20
-35.458394
 30
0.0
 40
1.0
100
AcDbArc
 50
270.0
 51
346.657636
  0
LINE
  5
45A
100
AcDbEntity
  8
0
370
    -3
  6
Continuous
100
AcDbLine
 10
-0.910155
 20
-36.458394
 30
0.0
 11
61.089845
 21
-36.458394
 31
0.0
  0
LINE
  5
45B
100
AcDbEntity
  8
0
370
    -3
  6
Continuous
100
AcDbLine
 10
61.089845
 20
-37.458394
 30
0.0
 11
61.089845
 21
-36.458394
 31
0.0
  0
ARC
  5
45C
100
AcDbEntity
  8
0
370
    -3
  6
Continuous
100
AcDbCircle
 10
59.354757
 20
-35.758394
 30
0.0
 40
0.3
100
AcDbArc
 50
90.0
 51
166.657636
  0
ARC
  5
45D
100
AcDbEntity
  8
0
370
    -3
  6
Continuous
100
AcDbCircle
 10
2.089845
 20
-35.458394
 30
0.0
 40
1.0
100
AcDbArc
 50
193.342364
 51
270.0
  0
LINE
  5
45E
100
AcDbEntity
  8
0
370
    -3
  6
Continuous
100
AcDbLine
 10
-0.910155
 20
-37.458394
 30
0.0
 11
-0.910155
 21
-36.458394
 31
0.0
  0
ARC
  5
45F
100
AcDbEntity
  8
0
370
    -3
  6
Continuous
100
AcDbCircle
 10
0.824934
 20
-35.758394
 30
0.0
 40
0.3
100
AcDbArc
 50
13.342364
 51
90.0
  0
LINE
  5
460
100
AcDbEntity
  8
0
370
    -3
  6
CENTER
100
AcDbLine
 10
30.089845
 20
-48.235811
 30
0.0
 11
30.089845
 21
-25.325835
 31
0.0
  0
ARC
  5
461
100
AcDbEntity
  8
0
370
    -3
  6
Continuous
100
AcDbCircle
 10
52.489845
 20
-49.258394
 30
0.0
 40
3.2
100
AcDbArc
 50
270.0
 51
0.0
  0
LINE
  5
462
100
AcDbEntity
  8
0
370
    -3
  6
Continuous
100
AcDbLine
 10
20.089845
 20
-52.458394
 30
0.0
 11
54.089845
 21
-52.458394
 31
0.0
  0
LINE
  5
463
100
AcDbEntity
  8
0
370
    -3
  6
Continuous
100
AcDbLine
 10
54.089845
 20
-53.458394
 30
0.0
 11
54.089845
 21
-52.458394
 31
0.0
  0
LINE
  5
464
100
AcDbEntity
  8
0
370
    -3
  6
CENTER
100
AcDbLine
 10
30.089845
 20
260.910881
 30
0.0
 11
30.089845
 21
147.503284
 31
0.0
  0
LINE
  5
465
100
AcDbEntity
  8
0
370
    -3
  6
Continuous
100
AcDbLine
 10
74.987315
 20
204.545293
 30
0.0
 11
74.987315
 21
243.545293
 31
0.0
  0
ARC
  5
466
100
AcDbEntity
  8
0
370
    -3
  6
Continuous
100
AcDbCircle
 10
55.030378
 20
239.295293
 30
0.0
 40
3.8
100
AcDbArc
 50
41.85078
 51
90.0
  0
ARC
  5
467
100
AcDbEntity
  8
0
370
    -3
  6
Continuous
100
AcDbCircle
 10
47.515798
 20
233.095293
 30
0.0
 40
10.0
100
AcDbArc
 50
0.0
 51
90.0
  0
LINE
  5
468
100
AcDbEntity
  8
0
370
    -3
  6
Continuous
100
AcDbLine
 10
57.515798
 20
204.545293
 30
0.0
 11
57.515798
 21
233.095293
 31
0.0
  0
ARC
  5
469
100
AcDbEntity
  8
0
370
    -3
  6
Continuous
100
AcDbCircle
 10
67.187315
 20
243.545293
 30
0.0
 40
7.8
100
AcDbArc
 50
0.0
 51
90.0
  0
LINE
  5
46A
100
AcDbEntity
  8
0
370
    -3
  6
Continuous
100
AcDbLine
 10
57.860941
 20
241.830626
 30
0.0
 11
66.999768
 21
231.627617
 31
0.0
  0
ARC
  5
46B
100
AcDbEntity
  8
0
370
    -3
  6
Continuous
100
AcDbCircle
 10
64.169205
 20
229.092284
 30
0.0
 40
3.8
100
AcDbArc
 50
0.0
 51
41.85078
  0
LINE
  5
46C
100
AcDbEntity
  8
0
370
    -3
  6
Continuous
100
AcDbLine
 10
67.969205
 20
204.545293
 30
0.0
 11
67.969205
 21
229.092284
 31
0.0
  0
ELLIPSE
  5
46D
100
AcDbEntity
  8
0
370
    -3
  6
Continuous
100
AcDbEllipse
 10
68.777958
 20
244.045293
 30
0.0
 11
0.0
 21
3.5
 31
0.0
210
0.0
220
0.0
230
1.0
 40
0.982815
 41
0.0
 42
6.2831853071795862
  0
LINE
  5
46E
100
AcDbEntity
  8
0
370
    -3
  6
Continuous
100
AcDbLine
 10
67.701269
 20
246.045293
 30
0.0
 11
69.608989
 21
244.045293
 31
0.0
  0
LINE
  5
46F
100
AcDbEntity
  8
0
370
    -3
  6
Continuous
100
AcDbLine
 10
69.608989
 20
244.045293
 30
0.0
 11
71.3265
 21
242.045293
 31
0.0
  0
LINE
  5
470
100
AcDbEntity
  8
0
370
    -3
  6
Continuous
100
AcDbLine
 10
71.3265
 20
246.045293
 30
0.0
 11
69.608989
 21
244.045293
 31
0.0
  0
LINE
  5
471
100
AcDbEntity
  8
0
370
    -3
  6
Continuous
100
AcDbLine
 10
69.608989
 20
244.045293
 30
0.0
 11
67.701269
 21
242.045293
 31
0.0
  0
LINE
  5
472
100
AcDbEntity
  8
0
370
    -3
  6
Continuous
100
AcDbLine
 10
74.987315
 20
204.545293
 30
0.0
 11
74.987315
 21
165.545293
 31
0.0
  0
ARC
  5
473
100
AcDbEntity
  8
0
370
    -3
  6
Continuous
100
AcDbCircle
 10
67.187315
 20
165.545293
 30
0.0
 40
7.8
100
AcDbArc
 50
270.0
 51
360.0
  0
ARC
  5
474
100
AcDbEntity
  8
0
370
    -3
  6
Continuous
100
AcDbCircle
 10
55.030378
 20
169.795293
 30
0.0
 40
3.8
100
AcDbArc
 50
270.0
 51
318.14922
  0
LINE
  5
475
100
AcDbEntity
  8
0
370
    -3
  6
Continuous
100
AcDbLine
 10
57.860941
 20
167.25996
 30
0.0
 11
66.999768
 21
177.462969
 31
0.0
  0
ARC
  5
476
100
AcDbEntity
  8
0
370
    -3
  6
Continuous
100
AcDbCircle
 10
64.169205
 20
179.998302
 30
0.0
 40
3.8
100
AcDbArc
 50
318.14922
 51
0.0
  0
LINE
  5
477
100
AcDbEntity
  8
0
370
    -3
  6
Continuous
100
AcDbLine
 10
67.969205
 20
204.545293
 30
0.0
 11
67.969205
 21
179.998302
 31
0.0
  0
ARC
  5
478
100
AcDbEntity
  8
0
370
    -3
  6
Continuous
100
AcDbCircle
 10
47.515798
 20
175.995293
 30
0.0
 40
10.0
100
AcDbArc
 50
270.0
 51
360.0
  0
LINE
  5
479
100
AcDbEntity
  8
0
370
    -3
  6
Continuous
100
AcDbLine
 10
57.515798
 20
204.545293
 30
0.0
 11
57.515798
 21
175.995293
 31
0.0
  0
ELLIPSE
  5
47A
100
AcDbEntity
  8
0
370
    -3
  6
Continuous
100
AcDbEllipse
 10
68.777958
 20
165.045293
 30
0.0
 11
0.0000000000002132
 21
3.5
 31
0.0
210
0.0
220
0.0
230
1.0
 40
0.982815
 41
0.0
 42
6.2831853071795862
  0
LINE
  5
47B
100
AcDbEntity
  8
0
370
    -3
  6
Continuous
100
AcDbLine
 10
67.701269
 20
163.045293
 30
0.0
 11
69.608989
 21
165.045293
 31
0.0
  0
LINE
  5
47C
100
AcDbEntity
  8
0
370
    -3
  6
Continuous
100
AcDbLine
 10
69.608989
 20
165.045293
 30
0.0
 11
71.3265
 21
167.045293
 31
0.0
  0
LINE
  5
47D
100
AcDbEntity
  8
0
370
    -3
  6
Continuous
100
AcDbLine
 10
71.3265
 20
163.045293
 30
0.0
 11
69.608989
 21
165.045293
 31
0.0
  0
LINE
  5
47E
100
AcDbEntity
  8
0
370
    -3
  6
Continuous
100
AcDbLine
 10
69.608989
 20
165.045293
 30
0.0
 11
67.701269
 21
167.045293
 31
0.0
  0
LINE
  5
47F
100
AcDbEntity
  8
0
370
    -3
  6
Continuous
100
AcDbLine
 10
67.187315
 20
157.745293
 30
0.0
 11
-15.684214
 21
157.745293
 31
0.0
  0
ARC
  5
480
100
AcDbEntity
  8
0
370
    -3
  6
Continuous
100
AcDbCircle
 10
-15.684214
 20
165.545293
 30
0.0
 40
7.8
100
AcDbArc
 50
180.0
 51
270.0
  0
ARC
  5
481
100
AcDbEntity
  8
0
370
    -3
  6
Continuous
100
AcDbCircle
 10
-13.233028
 20
165.545293
 30
0.0
 40
7.8
100
AcDbArc
 50
180.0
 51
270.0
  0
LINE
  5
482
100
AcDbEntity
  8
0
370
    -3
  6
Continuous
100
AcDbLine
 10
-23.484214
 20
204.545293
 30
0.0
 11
-23.484214
 21
165.545293
 31
0.0
  0
LINE
  5
483
100
AcDbEntity
  8
0
370
    -3
  6
Continuous
100
AcDbLine
 10
-21.033028
 20
204.545293
 30
0.0
 11
-21.033028
 21
165.545293
 31
0.0
  0
ARC
  5
484
100
AcDbEntity
  8
0
370
    -3
  6
Continuous
100
AcDbCircle
 10
-0.465679
 20
169.795293
 30
0.0
 40
3.8
100
AcDbArc
 50
221.390427
 51
270.0
  0
LINE
  5
485
100
AcDbEntity
  8
0
370
    -3
  6
Continuous
100
AcDbLine
 10
-3.31652
 20
167.282784
 30
0.0
 11
-12.293256
 21
177.468322
 31
0.0
  0
ARC
  5
486
100
AcDbEntity
  8
0
370
    -3
  6
Continuous
100
AcDbCircle
 10
-9.442414
 20
179.980831
 30
0.0
 40
3.8
100
AcDbArc
 50
180.0
 51
221.390427
  0
ELLIPSE
  5
487
100
AcDbEntity
  8
0
370
    -3
  6
Continuous
100
AcDbEllipse
 10
-13.696051
 20
165.045293
 30
0.0
 11
0.0000000000002078
 21
3.5
 31
0.0
210
0.0
220
0.0
230
1.0
 40
0.982815
 41
0.0
 42
6.2831853071795862
  0
LINE
  5
488
100
AcDbEntity
  8
0
370
    -3
  6
Continuous
100
AcDbLine
 10
-14.77274
 20
163.045293
 30
0.0
 11
-12.86502
 21
165.045293
 31
0.0
  0
LINE
  5
489
100
AcDbEntity
  8
0
370
    -3
  6
Continuous
100
AcDbLine
 10
-12.86502
 20
165.045293
 30
0.0
 11
-11.147509
 21
167.045293
 31
0.0
  0
LINE
  5
48A
100
AcDbEntity
  8
0
370
    -3
  6
Continuous
100
AcDbLine
 10
-11.147509
 20
163.045293
 30
0.0
 11
-12.86502
 21
165.045293
 31
0.0
  0
LINE
  5
48B
100
AcDbEntity
  8
0
370
    -3
  6
Continuous
100
AcDbLine
 10
-12.86502
 20
165.045293
 30
0.0
 11
-14.77274
 21
167.045293
 31
0.0
  0
LINE
  5
48C
100
AcDbEntity
  8
0
370
    -3
  6
Continuous
100
AcDbLine
 10
-0.465679
 20
165.995293
 30
0.0
 11
55.030378
 21
165.995293
 31
0.0
  0
LINE
  5
48D
100
AcDbEntity
  8
0
370
    -3
  6
Continuous
100
AcDbLine
 10
-13.242414
 20
204.545293
 30
0.0
 11
-13.242414
 21
179.980831
 31
0.0
  0
LINE
  5
48E
100
AcDbEntity
  8
0
370
    -3
  6
Continuous
100
AcDbLine
 10
-43.910155
 20
204.545293
 30
0.0
 11
-43.910155
 21
189.545293
 31
0.0
  0
ARC
  5
48F
100
AcDbEntity
  8
0
370
    -3
  6
Continuous
100
AcDbCircle
 10
-41.910155
 20
189.545293
 30
0.0
 40
2.0
100
AcDbArc
 50
180.0
 51
270.0
  0
LINE
  5
490
100
AcDbEntity
  8
0
370
    -3
  6
Continuous
100
AcDbLine
 10
-41.910155
 20
187.545293
 30
0.0
 11
-23.484214
 21
187.545293
 31
0.0
  0
POINT
  5
491
100
AcDbEntity
  8
0
370
    -3
  6
CENTER
100
AcDbPoint
 10
-44.076134
 20
191.876242
 30
0.0
  0
LINE
  5
492
100
AcDbEntity
  8
0
370
    -3
  6
Continuous
100
AcDbLine
 10
67.187315
 20
251.345293
 30
0.0
 11
-15.684214
 21
251.345293
 31
0.0
  0
ARC
  5
493
100
AcDbEntity
  8
0
370
    -3
  6
Continuous
100
AcDbCircle
 10
-15.684214
 20
243.545293
 30
0.0
 40
7.8
100
AcDbArc
 50
90.0
 51
180.0
  0
ARC
  5
494
100
AcDbEntity
  8
0
370
    -3
  6
Continuous
100
AcDbCircle
 10
-13.233028
 20
243.545293
 30
0.0
 40
7.8
100
AcDbArc
 50
90.0
 51
180.0
  0
LINE
  5
495
100
AcDbEntity
  8
0
370
    -3
  6
Continuous
100
AcDbLine
 10
-23.484214
 20
204.545293
 30
0.0
 11
-23.484214
 21
243.545293
 31
0.0
  0
LINE
  5
496
100
AcDbEntity
  8
0
370
    -3
  6
Continuous
100
AcDbLine
 10
-21.033028
 20
204.545293
 30
0.0
 11
-21.033028
 21
243.545293
 31
0.0
  0
LINE
  5
497
100
AcDbEntity
  8
0
370
    -3
  6
Continuous
100
AcDbLine
 10
-0.465679
 20
243.095293
 30
0.0
 11
55.030378
 21
243.095293
 31
0.0
  0
ARC
  5
498
100
AcDbEntity
  8
0
370
    -3
  6
Continuous
100
AcDbCircle
 10
-0.465679
 20
239.295293
 30
0.0
 40
3.8
100
AcDbArc
 50
90.0
 51
138.609573
  0
LINE
  5
499
100
AcDbEntity
  8
0
370
    -3
  6
Continuous
100
AcDbLine
 10
-3.31652
 20
241.807802
 30
0.0
 11
-12.293256
 21
231.622264
 31
0.0
  0
ARC
  5
49A
100
AcDbEntity
  8
0
370
    -3
  6
Continuous
100
AcDbCircle
 10
-9.442414
 20
229.109756
 30
0.0
 40
3.8
100
AcDbArc
 50
138.609573
 51
180.0
  0
LINE
  5
49B
100
AcDbEntity
  8
0
370
    -3
  6
Continuous
100
AcDbLine
 10
-13.242414
 20
204.545293
 30
0.0
 11
-13.242414
 21
229.109756
 31
0.0
  0
ELLIPSE
  5
49C
100
AcDbEntity
  8
0
370
    -3
  6
Continuous
100
AcDbEllipse
 10
-13.696051
 20
244.045293
 30
0.0
 11
0.0
 21
3.5
 31
0.0
210
0.0
220
0.0
230
1.0
 40
0.982815
 41
0.0
 42
6.2831853071795862
  0
LINE
  5
49D
100
AcDbEntity
  8
0
370
    -3
  6
Continuous
100
AcDbLine
 10
-14.77274
 20
246.045293
 30
0.0
 11
-12.86502
 21
244.045293
 31
0.0
  0
LINE
  5
49E
100
AcDbEntity
  8
0
370
    -3
  6
Continuous
100
AcDbLine
 10
-12.86502
 20
244.045293
 30
0.0
 11
-11.147509
 21
242.045293
 31
0.0
  0
LINE
  5
49F
100
AcDbEntity
  8
0
370
    -3
  6
Continuous
100
AcDbLine
 10
-11.147509
 20
246.045293
 30
0.0
 11
-12.86502
 21
244.045293
 31
0.0
  0
LINE
  5
4A0
100
AcDbEntity
  8
0
370
    -3
  6
Continuous
100
AcDbLine
 10
-12.86502
 20
244.045293
 30
0.0
 11
-14.77274
 21
242.045293
 31
0.0
  0
LINE
  5
4A1
100
AcDbEntity
  8
0
370
    -3
  6
Continuous
100
AcDbLine
 10
-43.910155
 20
204.545293
 30
0.0
 11
-43.910155
 21
219.545293
 31
0.0
  0
ARC
  5
4A2
100
AcDbEntity
  8
0
370
    -3
  6
Continuous
100
AcDbCircle
 10
-41.910155
 20
219.545293
 30
0.0
 40
2.0
100
AcDbArc
 50
90.0
 51
180.0
  0
LINE
  5
4A3
100
AcDbEntity
  8
0
370
    -3
  6
Continuous
100
AcDbLine
 10
-41.910155
 20
221.545293
 30
0.0
 11
-23.484214
 21
221.545293
 31
0.0
  0
POINT
  5
4A4
100
AcDbEntity
  8
0
370
    -3
  6
CENTER
100
AcDbPoint
 10
-44.076134
 20
218.317242
 30
0.0
  0
MTEXT
  5
4A5
100
AcDbEntity
  8
0
370
    -3
  6
Continuous
100
AcDbMText
 10
-427.49173
 20
145.355667
 30
0.0
 40
15.0
 41
0.0
 71
     7
 72
     1
  1
\W0.43;DATE\W0.72; \W0.43;2012.01.15
  7
ZU_SHPTB00001
 11
1.0
 21
0.0
 31
0.0
 73
     1
 44
1.0
  0
ENDSEC
  0
SECTION
  2
OBJECTS
  0
DICTIONARY
  5
19
100
AcDbDictionary
280
     0
281
     1
  3
ACAD_GROUP
350
1A
  3
ACAD_MLINESTYLE
350
1B
  3
ACAD_LAYOUT
350
1E
  3
ACAD_PLOTSETTINGS
350
22
  3
ACAD_PLOTSTYLENAME
350
1F
  3
ACAD_WIPEOUT_VARS
350
23
  3
DWGPROPS
350
4A6
  0
DICTIONARY
  5
1A
102
{ACAD_REACTORS
330
19
102
}
100
AcDbDictionary
280
     0
281
     1
  0
DICTIONARY
  5
1B
102
{ACAD_REACTORS
330
19
102
}
100
AcDbDictionary
280
     0
281
     1
  3
Standard
350
1C
  0
MLINESTYLE
  5
1C
102
{ACAD_REACTORS
330
1B
102
}
100
AcDbMlineStyle
  2
Standard
 70
     0
  3

 62
     0
 51
90.0
 52
90.0
 71
     2
 49
0.5
 62
   256
  6
ByLayer
 49
-0.5
 62
   256
  6
ByLayer
  0
ACDBDICTIONARYWDFLT
  5
1F
102
{ACAD_REACTORS
330
19
102
}
100
AcDbDictionary
281
     1
  3
Normal
350
1D
100
AcDbDictionaryWithDefault
340
1D
  0
ACDBPLACEHOLDER
  5
1D
102
{ACAD_REACTORS
330
1F
102
}
  0
LAYOUT
  5
20
102
{ACAD_REACTORS
330
1E
102
}
100
AcDbPlotSettings
  1

  2

  4

  6

 40
0.0
 41
0.0
 42
0.0
 43
0.0
 44
0.0
 45
0.0
 46
0.0
 47
0.0
 48
0.0
 49
0.0
140
0.0
141
0.0
142
1.0
143
1.0
 70
  1024
 72
     0
 73
     0
 74
     0
  7

 75
     0
147
1.0
148
0.0
149
0.0
100
AcDbLayout
  1
Model
 70
     0
 71
     0
 10
0.0
 20
0.0
 11
0.0
 21
0.0
 12
0.0
 22
0.0
 32
0.0
 14
0.0
 24
0.0
 34
0.0
 15
0.0
 25
0.0
 35
0.0
146
0.0
 13
0.0
 23
0.0
 33
0.0
 16
0.0
 26
0.0
 36
0.0
 17
0.0
 27
0.0
 37
0.0
 76
     0
330
A
331
0
345
0
346
0
  0
LAYOUT
  5
21
102
{ACAD_REACTORS
330
1E
102
}
100
AcDbPlotSettings
  1

  2

  4

  6

 40
0.0
 41
0.0
 42
0.0
 43
0.0
 44
0.0
 45
0.0
 46
0.0
 47
0.0
 48
0.0
 49
0.0
140
0.0
141
0.0
142
1.0
143
1.0
 70
     0
 72
     0
 73
     0
 74
     0
  7

 75
     0
147
1.0
148
0.0
149
0.0
100
AcDbLayout
  1
Layout1
 70
     0
 71
     0
 10
0.0
 20
0.0
 11
0.0
 21
0.0
 12
0.0
 22
0.0
 32
0.0
 14
0.0
 24
0.0
 34
0.0
 15
0.0
 25
0.0
 35
0.0
146
0.0
 13
0.0
 23
0.0
 33
0.0
 16
0.0
 26
0.0
 36
0.0
 17
0.0
 27
0.0
 37
0.0
 76
     0
330
B
331
0
345
0
346
0
  0
DICTIONARY
  5
1E
102
{ACAD_REACTORS
330
19
102
}
100
AcDbDictionary
280
     0
281
     1
  3
Layout1
350
21
  3
Model
350
20
  0
DICTIONARY
  5
22
102
{ACAD_REACTORS
330
19
102
}
100
AcDbDictionary
280
     0
281
     1
  0
WIPEOUTVARIABLES
  5
23
100
AcDbWipeoutVariables
 70
     1
  0
XRECORD
  5
4A6
100
AcDbXrecord
280
     1
  1
DWGPROPS COOKIE
  2

  3

  4

  6

  7

  8
HK96464
  9

300
=
301
=
302
=
303
=
304
=
305
=
306
=
307
=
308
=
309
=
 40
0.0
 41
2455942.683576
 42
2455942.683576
  1

 90
        0
  0
ENDSEC
  0
EOF
