  0
SECTION
  2
HEADER
  9
$ACADVER
  1
AC1015
  9
$ACADMAINTVER
 70
     6
  9
$DWGCODEPAGE
  3
ANSI_932
  9
$INSBASE
 10
0.0
 20
0.0
 30
0.0
  9
$EXTMIN
 10
1.000000E+20
 20
1.000000E+20
 30
1.000000E+20
  9
$EXTMAX
 10
-1.000000E+20
 20
-1.000000E+20
 30
-1.000000E+20
  9
$LIMMIN
 10
0.0
 20
0.0
  9
$LIMMAX
 10
0.0
 20
0.0
  9
$ORTHOMODE
 70
     0
  9
$REGENMODE
 70
     1
  9
$FILLMODE
 70
     1
  9
$QTEXTMODE
 70
     0
  9
$MIRRTEXT
 70
     1
  9
$LTSCALE
 40
1.0
  9
$ATTMODE
 70
     1
  9
$TEXTSIZE
 40
7.0
  9
$TRACEWID
 40
0.05
  9
$TEXTSTYLE
  7
Standard
  9
$CLAYER
  8
0
  9
$CELTYPE
  6
Continuous
  9
$CECOLOR
 62
   256
  9
$CELTSCALE
 40
1.0
  9
$DISPSILH
 70
     0
  9
$DIMSCALE
 40
1.0
  9
$DIMASZ
 40
1.931852
  9
$DIMEXO
 40
1.0
  9
$DIMDLI
 40
0.38
  9
$DIMRND
 40
0.0
  9
$DIMDLE
 40
0.0
  9
$DIMEXE
 40
2.0
  9
$DIMTP
 40
0.0
  9
$DIMTM
 40
0.0
  9
$DIMTXT
 40
2.8
  9
$DIMCEN
 40
0.09
  9
$DIMTSZ
 40
0.0
  9
$DIMTOL
 70
     0
  9
$DIMLIM
 70
     0
  9
$DIMTIH
 70
     1
  9
$DIMTOH
 70
     1
  9
$DIMSE1
 70
     0
  9
$DIMSE2
 70
     0
  9
$DIMTAD
 70
     1
  9
$DIMZIN
 70
     0
  9
$DIMBLK
  1

  9
$DIMASO
 70
     1
  9
$DIMSHO
 70
     1
  9
$DIMPOST
  1

  9
$DIMAPOST
  1

  9
$DIMALT
 70
     0
  9
$DIMALTD
 70
     2
  9
$DIMALTF
 40
25.4
  9
$DIMLFAC
 40
1.0
  9
$DIMTOFL
 70
     0
  9
$DIMTVP
 40
0.0
  9
$DIMTIX
 70
     0
  9
$DIMSOXD
 70
     0
  9
$DIMSAH
 70
     0
  9
$DIMBLK1
  1

  9
$DIMBLK2
  1

  9
$DIMSTYLE
  2
Standard
  9
$DIMCLRD
 70
     0
  9
$DIMCLRE
 70
     0
  9
$DIMCLRT
 70
     0
  9
$DIMTFAC
 40
0.714286
  9
$DIMGAP
 40
0.09
  9
$DIMJUST
 70
     0
  9
$DIMSD1
 70
     0
  9
$DIMSD2
 70
     0
  9
$DIMTOLJ
 70
     1
  9
$DIMTZIN
 70
     0
  9
$DIMALTZ
 70
     0
  9
$DIMALTTZ
 70
     0
  9
$DIMUPT
 70
     0
  9
$DIMDEC
 70
     4
  9
$DIMTDEC
 70
     4
  9
$DIMALTU
 70
     2
  9
$DIMALTTD
 70
     2
  9
$DIMTXSTY
  7
Standard
  9
$DIMAUNIT
 70
     0
  9
$DIMADEC
 70
     0
  9
$DIMALTRND
 40
0.0
  9
$DIMAZIN
 70
     0
  9
$DIMDSEP
 70
     0
  9
$DIMATFIT
 70
     3
  9
$DIMFRAC
 70
     0
  9
$DIMLDRBLK
  1

  9
$DIMLUNIT
 70
     2
  9
$DIMLWD
 70
     0
  9
$DIMLWE
 70
     0
  9
$DIMTMOVE
 70
     0
  9
$LUNITS
 70
     2
  9
$LUPREC
 70
     3
  9
$SKETCHINC
 40
0.1
  9
$FILLETRAD
 40
0.0
  9
$AUNITS
 70
     0
  9
$AUPREC
 70
     0
  9
$MENU
  1
acad
  9
$ELEVATION
 40
0.0
  9
$PELEVATION
 40
0.0
  9
$THICKNESS
 40
0.0
  9
$LIMCHECK
 70
     0
  9
$CHAMFERA
 40
0.0
  9
$CHAMFERB
 40
0.0
  9
$CHAMFERC
 40
0.0
  9
$CHAMFERD
 40
0.0
  9
$SKPOLY
 70
     0
  9
$TDCREATE
 40
0.000000000
  9
$TDUCREATE
 40
0.000000000
  9
$TDUPDATE
 40
0.000000000
  9
$TDUUPDATE
 40
0.000000000
  9
$TDINDWG
 40
0.0000000000
  9
$TDUSRTIMER
 40
0.0000000000
  9
$USRTIMER
 70
     1
  9
$ANGBASE
 50
0.0
  9
$ANGDIR
 70
     0
  9
$PDMODE
 70
     0
  9
$PDSIZE
 40
0.0
  9
$PLINEWID
 40
0.0
  9
$SPLFRAME
 70
     0
  9
$SPLINETYPE
 70
     6
  9
$SPLINESEGS
 70
     8
  9
$HANDSEED
  5
59C
  9
$SURFTAB1
 70
     6
  9
$SURFTAB2
 70
     6
  9
$SURFTYPE
 70
     6
  9
$SURFU
 70
     6
  9
$SURFV
 70
     6
  9
$UCSBASE
  2

  9
$UCSNAME
  2

  9
$UCSORG
 10
0.0
 20
0.0
 30
0.0
  9
$UCSXDIR
 10
1.0
 20
0.0
 30
0.0
  9
$UCSYDIR
 10
0.0
 20
1.0
 30
0.0
  9
$UCSORTHOREF
  2

  9
$UCSORTHOVIEW
 70
     0
  9
$UCSORGTOP
 10
0.0
 20
0.0
 30
0.0
  9
$UCSORGBOTTOM
 10
0.0
 20
0.0
 30
0.0
  9
$UCSORGLEFT
 10
0.0
 20
0.0
 30
0.0
  9
$UCSORGRIGHT
 10
0.0
 20
0.0
 30
0.0
  9
$UCSORGFRONT
 10
0.0
 20
0.0
 30
0.0
  9
$UCSORGBACK
 10
0.0
 20
0.0
 30
0.0
  9
$PUCSBASE
  2

  9
$PUCSNAME
  2

  9
$PUCSORG
 10
0.0
 20
0.0
 30
0.0
  9
$PUCSXDIR
 10
1.0
 20
0.0
 30
0.0
  9
$PUCSYDIR
 10
0.0
 20
1.0
 30
0.0
  9
$PUCSORTHOREF
  2

  9
$PUCSORTHOVIEW
 70
     0
  9
$PUCSORGTOP
 10
0.0
 20
0.0
 30
0.0
  9
$PUCSORGBOTTOM
 10
0.0
 20
0.0
 30
0.0
  9
$PUCSORGLEFT
 10
0.0
 20
0.0
 30
0.0
  9
$PUCSORGRIGHT
 10
0.0
 20
0.0
 30
0.0
  9
$PUCSORGFRONT
 10
0.0
 20
0.0
 30
0.0
  9
$PUCSORGBACK
 10
0.0
 20
0.0
 30
0.0
  9
$USERI1
 70
     0
  9
$USERI2
 70
     0
  9
$USERI3
 70
     0
  9
$USERI4
 70
     0
  9
$USERI5
 70
     0
  9
$USERR1
 40
0.0
  9
$USERR2
 40
0.0
  9
$USERR3
 40
0.0
  9
$USERR4
 40
0.0
  9
$USERR5
 40
0.0
  9
$WORLDVIEW
 70
     1
  9
$SHADEDGE
 70
     3
  9
$SHADEDIF
 70
    70
  9
$TILEMODE
 70
     1
  9
$MAXACTVP
 70
    16
  9
$PINSBASE
 10
0.0
 20
0.0
 30
0.0
  9
$PLIMCHECK
 70
     0
  9
$PEXTMIN
 10
1.000000E+20
 20
1.000000E+20
 30
1.000000E+20
  9
$PEXTMAX
 10
-1.000000E+20
 20
-1.000000E+20
 30
-1.000000E+20
  9
$PLIMMIN
 10
0.0
 20
0.0
  9
$PLIMMAX
 10
12.0
 20
9.0
  9
$UNITMODE
 70
     0
  9
$VISRETAIN
 70
     0
  9
$PLINEGEN
 70
     1
  9
$PSLTSCALE
 70
     0
  9
$TREEDEPTH
 70
  3020
  9
$CMLSTYLE
  2
Standard
  9
$CMLJUST
 70
     0
  9
$CMLSCALE
 40
1.0
  9
$PROXYGRAPHICS
 70
     0
  9
$MEASUREMENT
 70
     0
  9
$CELWEIGHT
370
     0
  9
$ENDCAPS
280
     0
  9
$JOINSTYLE
280
     0
  9
$LWDISPLAY
290
     0
  9
$INSUNITS
 70
     0
  9
$HYPERLINKBASE
  1

  9
$STYLESHEET
  1

  9
$XEDIT
290
     1
  9
$CEPSNTYPE
380
     0
  9
$PSTYLEMODE
290
     1
  9
$FINGERPRINTGUID
  2

  9
$VERSIONGUID
  2

  9
$EXTNAMES
290
     1
  9
$PSVPSCALE
 40
0.0
  0
ENDSEC
  0
SECTION
  2
CLASSES
  0
CLASS
  1
LWPOLYLINE
  2
AcDbPolyline
  3
AutoCAD 2000
 90
    32768
280
     0
281
     1
  0
CLASS
  1
IMAGE
  2
AcDbRasterImage
  3
ISM
 90
    32895
280
     0
281
     1
  0
CLASS
  1
OLE2FRAME
  2
AcDbOle2Frame
  3
AutoCAD 2000
 90
    32768
280
     0
281
     1
  0
CLASS
  1
HATCH
  2
AcDbHatch
  3
AutoCAD 2000
 90
    32768
280
     0
281
     1
  0
CLASS
  1
DICTIONARYVAR
  2
AcDbDictionaryVar
  3
AutoCAD 2000
 90
    32768
280
     0
281
     0
  0
CLASS
  1
RASTERVARIABLES
  2
AcDbRasterVariables
  3
ISM
 90
    32768
280
     0
281
     0
  0
CLASS
  1
IMAGEDEF
  2
AcDbRasterImageDef
  3
ISM
 90
    32768
280
     0
281
     0
  0
CLASS
  1
IMAGEDEF_REACTOR
  2
AcDbRasterImageDefReactor
  3
ISM
 90
    32769
280
     0
281
     0
  0
CLASS
  1
IDBUFFER
  2
AcDbIdBuffer
  3
AutoCAD 2000
 90
    32768
280
     0
281
     0
  0
CLASS
  1
SPATIAL_FILTER
  2
AcDbSpatialFilter
  3
AutoCAD 2000
 90
    32768
280
     0
281
     0
  0
CLASS
  1
XRECORD
  2
AcDbXrecord
  3
AutoCAD 2000
 90
        0
280
     0
281
     0
  0
CLASS
  1
SORTENTSTABLE
  2
AcDbSortentsTable
  3
AutoCAD 2000
 90
    32768
280
     0
281
     0
  0
CLASS
  1
LAYER_INDEX
  2
AcDbLayerIndex
  3
AutoCAD 2000
 90
    32768
280
     0
281
     0
  0
CLASS
  1
SPATIAL_INDEX
  2
AcDbSpatialIndex
  3
AutoCAD 2000
 90
    32768
280
     0
281
     0
  0
CLASS
  1
OBJECT_PTR
  2
CAseDLPNTableRecord
  3
"ASE-LPNTableRecord"
 90
    32769
280
     0
281
     0
  0
CLASS
  1
LAYOUT
  2
AcDbLayout
  3
AutoCAD 2000
 90
        0
280
     0
281
     0
  0
CLASS
  1
PLOTSETTINGS
  2
AcDbPlotSettings
  3
AutoCAD 2000
 90
    32768
280
     0
281
     0
  0
CLASS
  1
ACDBDICTIONARYWDFLT
  2
AcDbDictionaryWithDefault
  3
AutoCAD 2000
 90
        0
280
     0
281
     0
  0
CLASS
  1
ACDBPLACEHOLDER
  2
AcDbPlaceHolder
  3
AutoCAD 2000
 90
        0
280
     0
281
     0
  0
CLASS
  1
VBA_PROJECT
  2
AcDbVbaProject
  3
acadvba
 90
    32768
280
     0
281
     0
  0
CLASS
  1
WIPEOUT
  2
AcDbWipeout
  3
WipeOut|AutoCAD Express Tool|expresstools@autodesk.com
 90
    32895
280
     0
281
     1
  0
CLASS
  1
WIPEOUTVARIABLES
  2
AcDbWipeoutVariables
  3
WipeOut|AutoCAD Express Tool|expresstools@autodesk.com
 90
        0
280
     0
281
     0
  0
CLASS
  1
RTEXT
  2
RText
  3
RText|AutoCAD Express Tool|expresstools@autodesk.com
 90
    32768
280
     0
281
     1
  0
CLASS
  1
ARCALIGNEDTEXT
  2
AcDbArcAlignedText
  3
ATEXT|AutoCAD Express Tool|expresstools@autodesk.com
 90
    32768
280
     0
281
     1
  0
ENDSEC
  0
SECTION
  2
TABLES
  0
TABLE
  2
VPORT
  5
7
100
AcDbSymbolTable
 70
     1
  0
VPORT
  5
15
100
AcDbSymbolTableRecord
100
AcDbViewportTableRecord
  2
*ACTIVE
 70
     0
 10
0.0
 20
0.0
 11
1.0
 21
1.0
 12
0.0
 22
0.0
 13
0.0
 23
0.0
 14
1.0
 24
1.0
 15
0.0
 25
0.0
 16
0.0
 26
0.0
 36
1.0
 17
0.0
 27
0.0
 37
0.0
 40
100.0
 41
1.0
 42
50.0
 43
0.0
 44
0.0
 50
0.0
 51
0.0
 71
     0
 72
   100
 73
     1
 74
     1
 75
     0
 76
     0
 77
     0
 78
     0
281
     0
 65
     0
110
0.0
120
0.0
130
0.0
111
1.0
121
0.0
131
0.0
112
0.0
122
1.0
132
0.0
345
0
346
0
 79
     0
146
0.0
  0
ENDTAB
  0
TABLE
  2
LTYPE
  5
4
100
AcDbSymbolTable
 70
     7
  0
LTYPE
  5
11
100
AcDbSymbolTableRecord
100
AcDbLinetypeTableRecord
  2
ByBlock
 70
    64
  3

 72
    65
 73
     0
 40
0.0
  0
LTYPE
  5
12
100
AcDbSymbolTableRecord
100
AcDbLinetypeTableRecord
  2
ByLayer
 70
    64
  3

 72
    65
 73
     0
 40
0.0
  0
LTYPE
  5
13
100
AcDbSymbolTableRecord
100
AcDbLinetypeTableRecord
  2
Continuous
 70
    64
  3
Solid line
 72
    65
 73
     0
 40
0.0
  0
LTYPE
  5
24
100
AcDbSymbolTableRecord
100
AcDbLinetypeTableRecord
  2
DASHED
 70
    64
  3
Dashed __ __ __ __ __ __ __ __ __ __ __ __ __ _
 72
    65
 73
     2
 40
0.75
 49
0.5
 74
     0
 49
-0.25
 74
     0
  0
LTYPE
  5
25
100
AcDbSymbolTableRecord
100
AcDbLinetypeTableRecord
  2
CENTER
 70
    64
  3
Center ____ _ ____ _ ____ _ ____ _ ____ _ ____
 72
    65
 73
     4
 40
1.0
 49
0.5
 74
     0
 49
-0.25
 74
     0
 49
0.0
 74
     0
 49
-0.25
 74
     0
  0
LTYPE
  5
26
100
AcDbSymbolTableRecord
100
AcDbLinetypeTableRecord
  2
DIVIDE
 70
    64
  3
Divide ____ . . ____ . . ____ . . ____ . . ____
 72
    65
 73
     6
 40
1.25
 49
0.5
 74
     0
 49
-0.25
 74
     0
 49
0.0
 74
     0
 49
-0.25
 74
     0
 49
0.0
 74
     0
 49
-0.25
 74
     0
  0
LTYPE
  5
27
100
AcDbSymbolTableRecord
100
AcDbLinetypeTableRecord
  2
PHANTOM
 70
    64
  3
Phantom ______  __  __  ______  __  __  ______
 72
    65
 73
     6
 40
9.0
 49
4.3
 74
     0
 49
-0.7
 74
     0
 49
1.3
 74
     0
 49
-0.7
 74
     0
 49
1.3
 74
     0
 49
-0.7
 74
     0
  0
ENDTAB
  0
TABLE
  2
LAYER
  5
2
100
AcDbSymbolTable
 70
     3
  0
LAYER
  5
14
100
AcDbSymbolTableRecord
100
AcDbLayerTableRecord
  2
0
 70
    64
 62
    53
  6
Continuous
290
     1
370
    -3
390
1D
  0
LAYER
  5
28
100
AcDbSymbolTableRecord
100
AcDbLayerTableRecord
  2
3
 70
    64
 62
     4
  6
Continuous
290
     1
370
    -3
390
1D
  0
LAYER
  5
29
100
AcDbSymbolTableRecord
100
AcDbLayerTableRecord
  2
5
 70
    64
 62
   191
  6
Continuous
290
     1
370
    -3
390
1D
  0
ENDTAB
  0
TABLE
  2
STYLE
  5
3
100
AcDbSymbolTable
 70
     2
  0
STYLE
  5
17
100
AcDbSymbolTableRecord
100
AcDbTextStyleTableRecord
  2
Standard
 70
     0
 40
0.0
 41
1.0
 50
0.0
 71
     0
 42
0.0
  3
txt
  4

  0
STYLE
  5
B8
100
AcDbSymbolTableRecord
100
AcDbTextStyleTableRecord
  2
ZU_SHPTB00001
 70
     0
 40
0.0
 41
1.0
 50
0.0
 71
     0
 42
0.0
  3
monotxt
  4
bigfont
  0
ENDTAB
  0
TABLE
  2
VIEW
  5
5
100
AcDbSymbolTable
 70
     0
  0
ENDTAB
  0
TABLE
  2
UCS
  5
6
100
AcDbSymbolTable
 70
     0
  0
ENDTAB
  0
TABLE
  2
APPID
  5
8
100
AcDbSymbolTable
 70
     1
  0
APPID
  5
16
100
AcDbSymbolTableRecord
100
AcDbRegAppTableRecord
  2
ACAD
 70
     0
  0
ENDTAB
  0
TABLE
  2
DIMSTYLE
  5
9
100
AcDbSymbolTable
 70
     1
100
AcDbDimStyleTable
 71
     0
  0
DIMSTYLE
105
18
100
AcDbSymbolTableRecord
100
AcDbDimStyleTableRecord
  2
Standard
 70
     0
  3

  4

 40
1.0
 41
0.18
 42
0.0625
 43
0.38
 44
0.18
 45
0.0
 46
0.0
 47
0.0
 48
0.0
 71
     0
 72
     0
 73
     1
 74
     1
 75
     0
 76
     0
 77
     0
 78
     0
 79
     0
140
0.18
141
0.09
142
0.0
143
25.4
144
1.0
145
0.0
146
1.0
147
0.09
148
0.0
170
     0
171
     2
172
     0
173
     0
174
     0
175
     0
176
     0
177
     0
178
     0
179
     0
271
     4
272
     4
273
     2
274
     2
275
     0
276
     0
277
     2
278
    46
279
     0
280
     0
281
     0
282
     0
283
     1
284
     0
285
     0
286
     0
288
     0
340
17
341
0
342
0
343
0
344
0
371
    -2
372
    -2
  0
ENDTAB
  0
TABLE
  2
BLOCK_RECORD
  5
1
100
AcDbSymbolTable
 70
     9
  0
BLOCK_RECORD
  5
A
100
AcDbSymbolTableRecord
100
AcDbBlockTableRecord
  2
*MODEL_SPACE
340
20
  0
BLOCK_RECORD
  5
B
100
AcDbSymbolTableRecord
100
AcDbBlockTableRecord
  2
*PAPER_SPACE
340
21
  0
BLOCK_RECORD
  5
E3
100
AcDbSymbolTableRecord
100
AcDbBlockTableRecord
  2
ZU_SYM__USERS_HOME_SYMBOL_STD_SYM_B01_-1
340
0
102
{BLKREFS
331
EE
102
}
  0
BLOCK_RECORD
  5
EF
100
AcDbSymbolTableRecord
100
AcDbBlockTableRecord
  2
ZU_SYM__USERS_HOME_SYMBOL_STD_SYM_B01_00001-1
340
0
102
{BLKREFS
331
FA
102
}
  0
BLOCK_RECORD
  5
FB
100
AcDbSymbolTableRecord
100
AcDbBlockTableRecord
  2
ZU_SYM__USERS_HOME_SYMBOL_STD_SYM_B01_00002-1
340
0
102
{BLKREFS
331
106
102
}
  0
BLOCK_RECORD
  5
107
100
AcDbSymbolTableRecord
100
AcDbBlockTableRecord
  2
ZU_SYM__USERS_HOME_SYMBOL_STD_SYM_B01_00003-1
340
0
102
{BLKREFS
331
112
102
}
  0
BLOCK_RECORD
  5
23E
100
AcDbSymbolTableRecord
100
AcDbBlockTableRecord
  2
ZU_SYM__USERS_HOME_SYMBOL_STD_SYM_B01_00004-1
340
0
102
{BLKREFS
331
250
102
}
  0
BLOCK_RECORD
  5
252
100
AcDbSymbolTableRecord
100
AcDbBlockTableRecord
  2
ZU_SYM__USERS_HOME_SYMBOL_STD_SYM_B01_00005-1
340
0
102
{BLKREFS
331
264
102
}
  0
BLOCK_RECORD
  5
265
100
AcDbSymbolTableRecord
100
AcDbBlockTableRecord
  2
ZU_SYM__USERS_HOME_SYMBOL_STD_SYM_B01_00006-1
340
0
102
{BLKREFS
331
277
102
}
  0
BLOCK_RECORD
  5
278
100
AcDbSymbolTableRecord
100
AcDbBlockTableRecord
  2
ZU_SYM__USERS_HOME_SYMBOL_STD_SYM_B01_00007-1
340
0
102
{BLKREFS
331
28A
102
}
  0
BLOCK_RECORD
  5
31A
100
AcDbSymbolTableRecord
100
AcDbBlockTableRecord
  2
ZU_SYM__USERS_HOME_SYMBOL_POO_SYM_B20_-1
340
0
102
{BLKREFS
331
325
102
}
  0
ENDTAB
  0
ENDSEC
  0
SECTION
  2
BLOCKS
  0
BLOCK
  5
D
100
AcDbEntity
  8
0
100
AcDbBlockBegin
  2
*MODEL_SPACE
 70
     0
 10
0.0
 20
0.0
 30
0.0
  3
*MODEL_SPACE
  1

  0
ENDBLK
  5
E
100
AcDbEntity
  8
0
100
AcDbBlockEnd
  0
BLOCK
  5
F
100
AcDbEntity
 67
     1
  8
0
100
AcDbBlockBegin
  2
*PAPER_SPACE
 70
     0
 10
0.0
 20
0.0
 30
0.0
  3
*PAPER_SPACE
  1

  0
ENDBLK
  5
10
100
AcDbEntity
 67
     1
  8
0
100
AcDbBlockEnd
  0
BLOCK
  5
E4
100
AcDbEntity
  8
0
100
AcDbBlockBegin
  2
ZU_SYM__USERS_HOME_SYMBOL_STD_SYM_B01_-1
 70
    64
 10
0.0
 20
0.0
 30
0.0
  3
ZU_SYM__USERS_HOME_SYMBOL_STD_SYM_B01_-1
  1

  0
CIRCLE
  5
E5
100
AcDbEntity
  8
0
370
    -3
  6
Continuous
100
AcDbCircle
 10
0.0
 20
0.0
 30
0.0
 40
4.0
  0
LINE
  5
E6
100
AcDbEntity
  8
0
370
    -3
  6
Continuous
100
AcDbLine
 10
2.299999
 20
-4.0
 30
0.0
 11
-2.299999
 21
-4.0
 31
0.0
  0
LINE
  5
E7
100
AcDbEntity
  8
0
370
    -3
  6
Continuous
100
AcDbLine
 10
4.6
 20
-0.000001
 30
0.0
 11
2.300001
 21
-4.0
 31
0.0
  0
LINE
  5
E8
100
AcDbEntity
  8
0
370
    -3
  6
Continuous
100
AcDbLine
 10
2.300001
 20
4.0
 30
0.0
 11
4.6
 21
0.000001
 31
0.0
  0
LINE
  5
E9
100
AcDbEntity
  8
0
370
    -3
  6
Continuous
100
AcDbLine
 10
-2.299999
 20
4.0
 30
0.0
 11
2.299999
 21
4.0
 31
0.0
  0
LINE
  5
EA
100
AcDbEntity
  8
0
370
    -3
  6
Continuous
100
AcDbLine
 10
-4.6
 20
0.000001
 30
0.0
 11
-2.300001
 21
4.0
 31
0.0
  0
LINE
  5
EB
100
AcDbEntity
  8
0
370
    -3
  6
Continuous
100
AcDbLine
 10
-2.300001
 20
-4.0
 30
0.0
 11
-4.6
 21
-0.000001
 31
0.0
  0
POINT
  5
EC
100
AcDbEntity
  8
0
370
    -3
  6
Continuous
100
AcDbPoint
 10
0.0
 20
0.0
 30
0.0
  0
ENDBLK
  5
ED
100
AcDbEntity
  8
0
100
AcDbBlockEnd
  0
BLOCK
  5
F0
100
AcDbEntity
  8
0
100
AcDbBlockBegin
  2
ZU_SYM__USERS_HOME_SYMBOL_STD_SYM_B01_00001-1
 70
    64
 10
0.0
 20
0.0
 30
0.0
  3
ZU_SYM__USERS_HOME_SYMBOL_STD_SYM_B01_00001-1
  1

  0
CIRCLE
  5
F1
100
AcDbEntity
  8
0
370
    -3
  6
Continuous
100
AcDbCircle
 10
0.0
 20
0.0
 30
0.0
 40
4.0
  0
LINE
  5
F2
100
AcDbEntity
  8
0
370
    -3
  6
Continuous
100
AcDbLine
 10
2.299999
 20
-4.0
 30
0.0
 11
-2.299999
 21
-4.0
 31
0.0
  0
LINE
  5
F3
100
AcDbEntity
  8
0
370
    -3
  6
Continuous
100
AcDbLine
 10
4.6
 20
-0.000001
 30
0.0
 11
2.300001
 21
-4.0
 31
0.0
  0
LINE
  5
F4
100
AcDbEntity
  8
0
370
    -3
  6
Continuous
100
AcDbLine
 10
2.300001
 20
4.0
 30
0.0
 11
4.6
 21
0.000001
 31
0.0
  0
LINE
  5
F5
100
AcDbEntity
  8
0
370
    -3
  6
Continuous
100
AcDbLine
 10
-2.299999
 20
4.0
 30
0.0
 11
2.299999
 21
4.0
 31
0.0
  0
LINE
  5
F6
100
AcDbEntity
  8
0
370
    -3
  6
Continuous
100
AcDbLine
 10
-4.6
 20
0.000001
 30
0.0
 11
-2.300001
 21
4.0
 31
0.0
  0
LINE
  5
F7
100
AcDbEntity
  8
0
370
    -3
  6
Continuous
100
AcDbLine
 10
-2.300001
 20
-4.0
 30
0.0
 11
-4.6
 21
-0.000001
 31
0.0
  0
POINT
  5
F8
100
AcDbEntity
  8
0
370
    -3
  6
Continuous
100
AcDbPoint
 10
0.0
 20
0.0
 30
0.0
  0
ENDBLK
  5
F9
100
AcDbEntity
  8
0
100
AcDbBlockEnd
  0
BLOCK
  5
FC
100
AcDbEntity
  8
0
100
AcDbBlockBegin
  2
ZU_SYM__USERS_HOME_SYMBOL_STD_SYM_B01_00002-1
 70
    64
 10
0.0
 20
0.0
 30
0.0
  3
ZU_SYM__USERS_HOME_SYMBOL_STD_SYM_B01_00002-1
  1

  0
CIRCLE
  5
FD
100
AcDbEntity
  8
0
370
    -3
  6
Continuous
100
AcDbCircle
 10
0.0
 20
0.0
 30
0.0
 40
4.0
  0
LINE
  5
FE
100
AcDbEntity
  8
0
370
    -3
  6
Continuous
100
AcDbLine
 10
2.299999
 20
-4.0
 30
0.0
 11
-2.299999
 21
-4.0
 31
0.0
  0
LINE
  5
FF
100
AcDbEntity
  8
0
370
    -3
  6
Continuous
100
AcDbLine
 10
4.6
 20
-0.000001
 30
0.0
 11
2.300001
 21
-4.0
 31
0.0
  0
LINE
  5
100
100
AcDbEntity
  8
0
370
    -3
  6
Continuous
100
AcDbLine
 10
2.300001
 20
4.0
 30
0.0
 11
4.6
 21
0.000001
 31
0.0
  0
LINE
  5
101
100
AcDbEntity
  8
0
370
    -3
  6
Continuous
100
AcDbLine
 10
-2.299999
 20
4.0
 30
0.0
 11
2.299999
 21
4.0
 31
0.0
  0
LINE
  5
102
100
AcDbEntity
  8
0
370
    -3
  6
Continuous
100
AcDbLine
 10
-4.6
 20
0.000001
 30
0.0
 11
-2.300001
 21
4.0
 31
0.0
  0
LINE
  5
103
100
AcDbEntity
  8
0
370
    -3
  6
Continuous
100
AcDbLine
 10
-2.300001
 20
-4.0
 30
0.0
 11
-4.6
 21
-0.000001
 31
0.0
  0
POINT
  5
104
100
AcDbEntity
  8
0
370
    -3
  6
Continuous
100
AcDbPoint
 10
0.0
 20
0.0
 30
0.0
  0
ENDBLK
  5
105
100
AcDbEntity
  8
0
100
AcDbBlockEnd
  0
BLOCK
  5
108
100
AcDbEntity
  8
0
100
AcDbBlockBegin
  2
ZU_SYM__USERS_HOME_SYMBOL_STD_SYM_B01_00003-1
 70
    64
 10
0.0
 20
0.0
 30
0.0
  3
ZU_SYM__USERS_HOME_SYMBOL_STD_SYM_B01_00003-1
  1

  0
CIRCLE
  5
109
100
AcDbEntity
  8
0
370
    -3
  6
Continuous
100
AcDbCircle
 10
0.0
 20
0.0
 30
0.0
 40
4.0
  0
LINE
  5
10A
100
AcDbEntity
  8
0
370
    -3
  6
Continuous
100
AcDbLine
 10
2.299999
 20
-4.0
 30
0.0
 11
-2.299999
 21
-4.0
 31
0.0
  0
LINE
  5
10B
100
AcDbEntity
  8
0
370
    -3
  6
Continuous
100
AcDbLine
 10
4.6
 20
-0.000001
 30
0.0
 11
2.300001
 21
-4.0
 31
0.0
  0
LINE
  5
10C
100
AcDbEntity
  8
0
370
    -3
  6
Continuous
100
AcDbLine
 10
2.300001
 20
4.0
 30
0.0
 11
4.6
 21
0.000001
 31
0.0
  0
LINE
  5
10D
100
AcDbEntity
  8
0
370
    -3
  6
Continuous
100
AcDbLine
 10
-2.299999
 20
4.0
 30
0.0
 11
2.299999
 21
4.0
 31
0.0
  0
LINE
  5
10E
100
AcDbEntity
  8
0
370
    -3
  6
Continuous
100
AcDbLine
 10
-4.6
 20
0.000001
 30
0.0
 11
-2.300001
 21
4.0
 31
0.0
  0
LINE
  5
10F
100
AcDbEntity
  8
0
370
    -3
  6
Continuous
100
AcDbLine
 10
-2.300001
 20
-4.0
 30
0.0
 11
-4.6
 21
-0.000001
 31
0.0
  0
POINT
  5
110
100
AcDbEntity
  8
0
370
    -3
  6
Continuous
100
AcDbPoint
 10
0.0
 20
0.0
 30
0.0
  0
ENDBLK
  5
111
100
AcDbEntity
  8
0
100
AcDbBlockEnd
  0
BLOCK
  5
23F
100
AcDbEntity
  8
0
100
AcDbBlockBegin
  2
ZU_SYM__USERS_HOME_SYMBOL_STD_SYM_B01_00004-1
 70
    64
 10
0.0
 20
0.0
 30
0.0
  3
ZU_SYM__USERS_HOME_SYMBOL_STD_SYM_B01_00004-1
  1

  0
LINE
  5
240
100
AcDbEntity
  8
0
370
    -3
  6
Continuous
100
AcDbLine
 10
-1.299999
 20
0.300007
 30
0.0
 11
-0.000001
 21
0.600002
 31
0.0
  0
LINE
  5
241
100
AcDbEntity
  8
0
370
    -3
  6
Continuous
100
AcDbLine
 10
-1.3
 20
-0.299995
 30
0.0
 11
-0.000004
 21
-0.000001
 31
0.0
  0
LINE
  5
242
100
AcDbEntity
  8
0
370
    -3
  6
Continuous
100
AcDbLine
 10
-1.300018
 20
-4.599993
 30
0.0
 11
-1.299981
 21
4.600004
 31
0.0
  0
ARC
  5
243
100
AcDbEntity
  8
0
370
    -3
  6
Continuous
100
AcDbCircle
 10
0.740001
 20
-0.000003
 30
0.0
 40
5.539999
100
AcDbArc
 50
155.470187
 51
204.52925
  0
ARC
  5
244
100
AcDbEntity
  8
0
370
    -3
  6
Continuous
100
AcDbCircle
 10
-3.229986
 20
3.450012
 30
0.0
 40
1.57
100
AcDbArc
 50
179.999745
 51
227.099746
  0
ARC
  5
245
100
AcDbEntity
  8
0
370
    -3
  6
Continuous
100
AcDbCircle
 10
-3.230014
 20
-3.449986
 30
0.0
 40
1.57
100
AcDbArc
 50
132.899744
 51
179.999745
  0
LINE
  5
246
100
AcDbEntity
  8
0
370
    -3
  6
Continuous
100
AcDbLine
 10
-4.299987
 20
2.300014
 30
0.0
 11
-1.29999
 21
2.300004
 31
0.0
  0
LINE
  5
247
100
AcDbEntity
  8
0
370
    -3
  6
Continuous
100
AcDbLine
 10
-4.300006
 20
-2.29998
 30
0.0
 11
-1.300007
 21
-2.299992
 31
0.0
  0
LINE
  5
248
100
AcDbEntity
  8
0
370
    -3
  6
Continuous
100
AcDbLine
 10
0.000016
 20
4.599992
 30
0.0
 11
-0.000021
 21
-4.599992
 31
0.0
  0
LINE
  5
249
100
AcDbEntity
  8
0
370
    -3
  6
Continuous
100
AcDbLine
 10
-4.299978
 20
4.600015
 30
0.0
 11
0.000013
 21
4.599998
 31
0.0
  0
LINE
  5
24A
100
AcDbEntity
  8
0
370
    -3
  6
Continuous
100
AcDbLine
 10
-4.799962
 20
3.900001
 30
0.0
 11
-4.299962
 21
4.599999
 31
0.0
  0
LINE
  5
24B
100
AcDbEntity
  8
0
370
    -3
  6
Continuous
100
AcDbLine
 10
-4.80001
 20
-3.899973
 30
0.0
 11
-4.799979
 21
3.900012
 31
0.0
  0
LINE
  5
24C
100
AcDbEntity
  8
0
370
    -3
  6
Continuous
100
AcDbLine
 10
-4.299996
 20
-4.599962
 30
0.0
 11
-4.79999
 21
-3.899959
 31
0.0
  0
LINE
  5
24D
100
AcDbEntity
  8
0
370
    -3
  6
Continuous
100
AcDbLine
 10
-0.000025
 20
-4.599994
 30
0.0
 11
-4.300015
 21
-4.599977
 31
0.0
  0
POINT
  5
24E
100
AcDbEntity
  8
0
370
    -3
  6
Continuous
100
AcDbPoint
 10
0.0
 20
0.0
 30
0.0
  0
ENDBLK
  5
24F
100
AcDbEntity
  8
0
100
AcDbBlockEnd
  0
BLOCK
  5
253
100
AcDbEntity
  8
0
100
AcDbBlockBegin
  2
ZU_SYM__USERS_HOME_SYMBOL_STD_SYM_B01_00005-1
 70
    64
 10
0.0
 20
0.0
 30
0.0
  3
ZU_SYM__USERS_HOME_SYMBOL_STD_SYM_B01_00005-1
  1

  0
LINE
  5
254
100
AcDbEntity
  8
0
370
    -3
  6
Continuous
100
AcDbLine
 10
-1.299999
 20
0.300007
 30
0.0
 11
-0.000001
 21
0.600002
 31
0.0
  0
LINE
  5
255
100
AcDbEntity
  8
0
370
    -3
  6
Continuous
100
AcDbLine
 10
-1.3
 20
-0.299995
 30
0.0
 11
-0.000004
 21
-0.000001
 31
0.0
  0
LINE
  5
256
100
AcDbEntity
  8
0
370
    -3
  6
Continuous
100
AcDbLine
 10
-1.300018
 20
-4.599993
 30
0.0
 11
-1.299981
 21
4.600004
 31
0.0
  0
ARC
  5
257
100
AcDbEntity
  8
0
370
    -3
  6
Continuous
100
AcDbCircle
 10
0.740001
 20
-0.000003
 30
0.0
 40
5.539999
100
AcDbArc
 50
155.470187
 51
204.52925
  0
ARC
  5
258
100
AcDbEntity
  8
0
370
    -3
  6
Continuous
100
AcDbCircle
 10
-3.229986
 20
3.450012
 30
0.0
 40
1.57
100
AcDbArc
 50
179.999745
 51
227.099746
  0
ARC
  5
259
100
AcDbEntity
  8
0
370
    -3
  6
Continuous
100
AcDbCircle
 10
-3.230014
 20
-3.449986
 30
0.0
 40
1.57
100
AcDbArc
 50
132.899744
 51
179.999745
  0
LINE
  5
25A
100
AcDbEntity
  8
0
370
    -3
  6
Continuous
100
AcDbLine
 10
-4.299987
 20
2.300014
 30
0.0
 11
-1.29999
 21
2.300004
 31
0.0
  0
LINE
  5
25B
100
AcDbEntity
  8
0
370
    -3
  6
Continuous
100
AcDbLine
 10
-4.300006
 20
-2.29998
 30
0.0
 11
-1.300007
 21
-2.299992
 31
0.0
  0
LINE
  5
25C
100
AcDbEntity
  8
0
370
    -3
  6
Continuous
100
AcDbLine
 10
0.000016
 20
4.599992
 30
0.0
 11
-0.000021
 21
-4.599992
 31
0.0
  0
LINE
  5
25D
100
AcDbEntity
  8
0
370
    -3
  6
Continuous
100
AcDbLine
 10
-4.299978
 20
4.600015
 30
0.0
 11
0.000013
 21
4.599998
 31
0.0
  0
LINE
  5
25E
100
AcDbEntity
  8
0
370
    -3
  6
Continuous
100
AcDbLine
 10
-4.799962
 20
3.900001
 30
0.0
 11
-4.299962
 21
4.599999
 31
0.0
  0
LINE
  5
25F
100
AcDbEntity
  8
0
370
    -3
  6
Continuous
100
AcDbLine
 10
-4.80001
 20
-3.899973
 30
0.0
 11
-4.799979
 21
3.900012
 31
0.0
  0
LINE
  5
260
100
AcDbEntity
  8
0
370
    -3
  6
Continuous
100
AcDbLine
 10
-4.299996
 20
-4.599962
 30
0.0
 11
-4.79999
 21
-3.899959
 31
0.0
  0
LINE
  5
261
100
AcDbEntity
  8
0
370
    -3
  6
Continuous
100
AcDbLine
 10
-0.000025
 20
-4.599994
 30
0.0
 11
-4.300015
 21
-4.599977
 31
0.0
  0
POINT
  5
262
100
AcDbEntity
  8
0
370
    -3
  6
Continuous
100
AcDbPoint
 10
0.0
 20
0.0
 30
0.0
  0
ENDBLK
  5
263
100
AcDbEntity
  8
0
100
AcDbBlockEnd
  0
BLOCK
  5
266
100
AcDbEntity
  8
0
100
AcDbBlockBegin
  2
ZU_SYM__USERS_HOME_SYMBOL_STD_SYM_B01_00006-1
 70
    64
 10
0.0
 20
0.0
 30
0.0
  3
ZU_SYM__USERS_HOME_SYMBOL_STD_SYM_B01_00006-1
  1

  0
LINE
  5
267
100
AcDbEntity
  8
0
370
    -3
  6
Continuous
100
AcDbLine
 10
-1.299999
 20
0.300007
 30
0.0
 11
-0.000001
 21
0.600002
 31
0.0
  0
LINE
  5
268
100
AcDbEntity
  8
0
370
    -3
  6
Continuous
100
AcDbLine
 10
-1.3
 20
-0.299995
 30
0.0
 11
-0.000004
 21
-0.000001
 31
0.0
  0
LINE
  5
269
100
AcDbEntity
  8
0
370
    -3
  6
Continuous
100
AcDbLine
 10
-1.300018
 20
-4.599993
 30
0.0
 11
-1.299981
 21
4.600004
 31
0.0
  0
ARC
  5
26A
100
AcDbEntity
  8
0
370
    -3
  6
Continuous
100
AcDbCircle
 10
0.740001
 20
-0.000003
 30
0.0
 40
5.539999
100
AcDbArc
 50
155.470187
 51
204.52925
  0
ARC
  5
26B
100
AcDbEntity
  8
0
370
    -3
  6
Continuous
100
AcDbCircle
 10
-3.229986
 20
3.450012
 30
0.0
 40
1.57
100
AcDbArc
 50
179.999745
 51
227.099746
  0
ARC
  5
26C
100
AcDbEntity
  8
0
370
    -3
  6
Continuous
100
AcDbCircle
 10
-3.230014
 20
-3.449986
 30
0.0
 40
1.57
100
AcDbArc
 50
132.899744
 51
179.999745
  0
LINE
  5
26D
100
AcDbEntity
  8
0
370
    -3
  6
Continuous
100
AcDbLine
 10
-4.299987
 20
2.300014
 30
0.0
 11
-1.29999
 21
2.300004
 31
0.0
  0
LINE
  5
26E
100
AcDbEntity
  8
0
370
    -3
  6
Continuous
100
AcDbLine
 10
-4.300006
 20
-2.29998
 30
0.0
 11
-1.300007
 21
-2.299992
 31
0.0
  0
LINE
  5
26F
100
AcDbEntity
  8
0
370
    -3
  6
Continuous
100
AcDbLine
 10
0.000016
 20
4.599992
 30
0.0
 11
-0.000021
 21
-4.599992
 31
0.0
  0
LINE
  5
270
100
AcDbEntity
  8
0
370
    -3
  6
Continuous
100
AcDbLine
 10
-4.299978
 20
4.600015
 30
0.0
 11
0.000013
 21
4.599998
 31
0.0
  0
LINE
  5
271
100
AcDbEntity
  8
0
370
    -3
  6
Continuous
100
AcDbLine
 10
-4.799962
 20
3.900001
 30
0.0
 11
-4.299962
 21
4.599999
 31
0.0
  0
LINE
  5
272
100
AcDbEntity
  8
0
370
    -3
  6
Continuous
100
AcDbLine
 10
-4.80001
 20
-3.899973
 30
0.0
 11
-4.799979
 21
3.900012
 31
0.0
  0
LINE
  5
273
100
AcDbEntity
  8
0
370
    -3
  6
Continuous
100
AcDbLine
 10
-4.299996
 20
-4.599962
 30
0.0
 11
-4.79999
 21
-3.899959
 31
0.0
  0
LINE
  5
274
100
AcDbEntity
  8
0
370
    -3
  6
Continuous
100
AcDbLine
 10
-0.000025
 20
-4.599994
 30
0.0
 11
-4.300015
 21
-4.599977
 31
0.0
  0
POINT
  5
275
100
AcDbEntity
  8
0
370
    -3
  6
Continuous
100
AcDbPoint
 10
0.0
 20
0.0
 30
0.0
  0
ENDBLK
  5
276
100
AcDbEntity
  8
0
100
AcDbBlockEnd
  0
BLOCK
  5
279
100
AcDbEntity
  8
0
100
AcDbBlockBegin
  2
ZU_SYM__USERS_HOME_SYMBOL_STD_SYM_B01_00007-1
 70
    64
 10
0.0
 20
0.0
 30
0.0
  3
ZU_SYM__USERS_HOME_SYMBOL_STD_SYM_B01_00007-1
  1

  0
LINE
  5
27A
100
AcDbEntity
  8
0
370
    -3
  6
Continuous
100
AcDbLine
 10
-1.299999
 20
0.300007
 30
0.0
 11
-0.000001
 21
0.600002
 31
0.0
  0
LINE
  5
27B
100
AcDbEntity
  8
0
370
    -3
  6
Continuous
100
AcDbLine
 10
-1.3
 20
-0.299995
 30
0.0
 11
-0.000004
 21
-0.000001
 31
0.0
  0
LINE
  5
27C
100
AcDbEntity
  8
0
370
    -3
  6
Continuous
100
AcDbLine
 10
-1.300018
 20
-4.599993
 30
0.0
 11
-1.299981
 21
4.600004
 31
0.0
  0
ARC
  5
27D
100
AcDbEntity
  8
0
370
    -3
  6
Continuous
100
AcDbCircle
 10
0.740001
 20
-0.000003
 30
0.0
 40
5.539999
100
AcDbArc
 50
155.470187
 51
204.52925
  0
ARC
  5
27E
100
AcDbEntity
  8
0
370
    -3
  6
Continuous
100
AcDbCircle
 10
-3.229986
 20
3.450012
 30
0.0
 40
1.57
100
AcDbArc
 50
179.999745
 51
227.099746
  0
ARC
  5
27F
100
AcDbEntity
  8
0
370
    -3
  6
Continuous
100
AcDbCircle
 10
-3.230014
 20
-3.449986
 30
0.0
 40
1.57
100
AcDbArc
 50
132.899744
 51
179.999745
  0
LINE
  5
280
100
AcDbEntity
  8
0
370
    -3
  6
Continuous
100
AcDbLine
 10
-4.299987
 20
2.300014
 30
0.0
 11
-1.29999
 21
2.300004
 31
0.0
  0
LINE
  5
281
100
AcDbEntity
  8
0
370
    -3
  6
Continuous
100
AcDbLine
 10
-4.300006
 20
-2.29998
 30
0.0
 11
-1.300007
 21
-2.299992
 31
0.0
  0
LINE
  5
282
100
AcDbEntity
  8
0
370
    -3
  6
Continuous
100
AcDbLine
 10
0.000016
 20
4.599992
 30
0.0
 11
-0.000021
 21
-4.599992
 31
0.0
  0
LINE
  5
283
100
AcDbEntity
  8
0
370
    -3
  6
Continuous
100
AcDbLine
 10
-4.299978
 20
4.600015
 30
0.0
 11
0.000013
 21
4.599998
 31
0.0
  0
LINE
  5
284
100
AcDbEntity
  8
0
370
    -3
  6
Continuous
100
AcDbLine
 10
-4.799962
 20
3.900001
 30
0.0
 11
-4.299962
 21
4.599999
 31
0.0
  0
LINE
  5
285
100
AcDbEntity
  8
0
370
    -3
  6
Continuous
100
AcDbLine
 10
-4.80001
 20
-3.899973
 30
0.0
 11
-4.799979
 21
3.900012
 31
0.0
  0
LINE
  5
286
100
AcDbEntity
  8
0
370
    -3
  6
Continuous
100
AcDbLine
 10
-4.299996
 20
-4.599962
 30
0.0
 11
-4.79999
 21
-3.899959
 31
0.0
  0
LINE
  5
287
100
AcDbEntity
  8
0
370
    -3
  6
Continuous
100
AcDbLine
 10
-0.000025
 20
-4.599994
 30
0.0
 11
-4.300015
 21
-4.599977
 31
0.0
  0
POINT
  5
288
100
AcDbEntity
  8
0
370
    -3
  6
Continuous
100
AcDbPoint
 10
0.0
 20
0.0
 30
0.0
  0
ENDBLK
  5
289
100
AcDbEntity
  8
0
100
AcDbBlockEnd
  0
BLOCK
  5
31B
100
AcDbEntity
  8
0
100
AcDbBlockBegin
  2
ZU_SYM__USERS_HOME_SYMBOL_POO_SYM_B20_-1
 70
    64
 10
0.0
 20
0.0
 30
0.0
  3
ZU_SYM__USERS_HOME_SYMBOL_POO_SYM_B20_-1
  1

  0
LINE
  5
31C
100
AcDbEntity
  8
0
370
    -3
  6
Continuous
100
AcDbLine
 10
-7.499999
 20
6.5
 30
0.0
 11
-7.499999
 21
-6.5
 31
0.0
  0
LINE
  5
31D
100
AcDbEntity
  8
0
370
    -3
  6
Continuous
100
AcDbLine
 10
-7.499998
 20
-6.499999
 30
0.0
 11
-7.999999
 21
-5.63407
 31
0.0
  0
LINE
  5
31E
100
AcDbEntity
  8
0
370
    -3
  6
Continuous
100
AcDbLine
 10
-7.499999
 20
6.5
 30
0.0
 11
-7.999999
 21
5.633876
 31
0.0
  0
LINE
  5
31F
100
AcDbEntity
  8
0
370
    -3
  6
Continuous
100
AcDbLine
 10
0.0
 20
-6.5
 30
0.0
 11
-7.499998
 21
-6.5
 31
0.0
  0
LINE
  5
320
100
AcDbEntity
  8
0
370
    -3
  6
Continuous
100
AcDbLine
 10
0.0
 20
6.5
 30
0.0
 11
-7.499999
 21
6.5
 31
0.0
  0
LINE
  5
321
100
AcDbEntity
  8
0
370
    -3
  6
Continuous
100
AcDbLine
 10
-7.999999
 20
5.633876
 30
0.0
 11
-7.999999
 21
-5.63407
 31
0.0
  0
LINE
  5
322
100
AcDbEntity
  8
0
370
    -3
  6
Continuous
100
AcDbLine
 10
0.0
 20
-6.5
 30
0.0
 11
0.0
 21
6.5
 31
0.0
  0
POINT
  5
323
100
AcDbEntity
  8
0
370
    -3
  6
Continuous
100
AcDbPoint
 10
0.0
 20
0.0
 30
0.0
  0
ENDBLK
  5
324
100
AcDbEntity
  8
0
100
AcDbBlockEnd
  0
ENDSEC
  0
SECTION
  2
ENTITIES
  0
LINE
  5
2A
100
AcDbEntity
  8
0
370
    -3
  6
Continuous
100
AcDbLine
 10
369.838708
 20
52.055638
 30
0.0
 11
329.838708
 21
52.055638
 31
0.0
  0
LINE
  5
2B
100
AcDbEntity
  8
0
370
    -3
  6
Continuous
100
AcDbLine
 10
201.829024
 20
124.055638
 30
0.0
 11
198.838808
 21
136.055638
 31
0.0
  0
LINE
  5
2C
100
AcDbEntity
  8
0
370
    -3
  6
Continuous
100
AcDbLine
 10
201.829024
 20
264.055638
 30
0.0
 11
201.319432
 21
263.555826
 31
0.0
  0
LINE
  5
2D
100
AcDbEntity
  8
0
370
    -3
  6
Continuous
100
AcDbLine
 10
407.338708
 20
119.455638
 30
0.0
 11
407.338708
 21
121.555638
 31
0.0
  0
LINE
  5
2E
100
AcDbEntity
  8
0
370
    -3
  6
Continuous
100
AcDbLine
 10
407.188708
 20
121.555638
 30
0.0
 11
407.188708
 21
123.055638
 31
0.0
  0
LINE
  5
2F
100
AcDbEntity
  8
0
370
    -3
  6
Continuous
100
AcDbLine
 10
407.188708
 20
123.055638
 30
0.0
 11
407.338708
 21
123.055638
 31
0.0
  0
LINE
  5
30
100
AcDbEntity
  8
0
370
    -3
  6
Continuous
100
AcDbLine
 10
407.188708
 20
121.555638
 30
0.0
 11
407.338708
 21
121.555638
 31
0.0
  0
LINE
  5
31
100
AcDbEntity
  8
0
370
    -3
  6
Continuous
100
AcDbLine
 10
407.338708
 20
123.055638
 30
0.0
 11
407.338708
 21
124.055638
 31
0.0
  0
LINE
  5
32
100
AcDbEntity
  8
0
370
    -3
  6
Continuous
100
AcDbLine
 10
407.338708
 20
119.455638
 30
0.0
 11
406.938708
 21
119.055638
 31
0.0
  0
LINE
  5
33
100
AcDbEntity
  8
0
370
    -3
  6
Continuous
100
AcDbLine
 10
407.338708
 20
124.055638
 30
0.0
 11
433.848492
 21
124.055638
 31
0.0
  0
LINE
  5
34
100
AcDbEntity
  8
0
370
    -3
  6
Continuous
100
AcDbLine
 10
370.838708
 20
119.055638
 30
0.0
 11
328.838708
 21
119.055638
 31
0.0
  0
LINE
  5
35
100
AcDbEntity
  8
0
370
    -3
  6
Continuous
100
AcDbLine
 10
292.338708
 20
119.455638
 30
0.0
 11
292.738708
 21
119.055638
 31
0.0
  0
LINE
  5
36
100
AcDbEntity
  8
0
370
    -3
  6
Continuous
100
AcDbLine
 10
292.338708
 20
119.455638
 30
0.0
 11
292.338708
 21
121.555638
 31
0.0
  0
LINE
  5
37
100
AcDbEntity
  8
0
370
    -3
  6
Continuous
100
AcDbLine
 10
292.488708
 20
121.555638
 30
0.0
 11
292.488708
 21
123.055638
 31
0.0
  0
LINE
  5
38
100
AcDbEntity
  8
0
370
    -3
  6
Continuous
100
AcDbLine
 10
292.488708
 20
123.055638
 30
0.0
 11
292.338708
 21
123.055638
 31
0.0
  0
LINE
  5
39
100
AcDbEntity
  8
0
370
    -3
  6
Continuous
100
AcDbLine
 10
292.488708
 20
121.555638
 30
0.0
 11
292.338708
 21
121.555638
 31
0.0
  0
LINE
  5
3A
100
AcDbEntity
  8
0
370
    -3
  6
Continuous
100
AcDbLine
 10
292.338708
 20
123.055638
 30
0.0
 11
292.338708
 21
124.055638
 31
0.0
  0
LINE
  5
3B
100
AcDbEntity
  8
0
370
    -3
  6
Continuous
100
AcDbLine
 10
292.738708
 20
119.055638
 30
0.0
 11
406.938708
 21
119.055638
 31
0.0
  0
LINE
  5
3C
100
AcDbEntity
  8
0
370
    -3
  6
Continuous
100
AcDbLine
 10
201.829024
 20
124.055638
 30
0.0
 11
417.501286
 21
124.055638
 31
0.0
  0
LINE
  5
3D
100
AcDbEntity
  8
0
370
    -3
  6
Continuous
100
AcDbLine
 10
407.338708
 20
119.455638
 30
0.0
 11
407.338708
 21
121.555638
 31
0.0
  0
LINE
  5
3E
100
AcDbEntity
  8
0
370
    -3
  6
Continuous
100
AcDbLine
 10
407.188708
 20
121.555638
 30
0.0
 11
407.188708
 21
123.055638
 31
0.0
  0
LINE
  5
3F
100
AcDbEntity
  8
0
370
    -3
  6
Continuous
100
AcDbLine
 10
407.188708
 20
123.055638
 30
0.0
 11
407.338708
 21
123.055638
 31
0.0
  0
LINE
  5
40
100
AcDbEntity
  8
0
370
    -3
  6
Continuous
100
AcDbLine
 10
407.188708
 20
121.555638
 30
0.0
 11
407.338708
 21
121.555638
 31
0.0
  0
LINE
  5
41
100
AcDbEntity
  8
0
370
    -3
  6
Continuous
100
AcDbLine
 10
407.338708
 20
123.055638
 30
0.0
 11
407.338708
 21
124.055638
 31
0.0
  0
LINE
  5
42
100
AcDbEntity
  8
0
370
    -3
  6
Continuous
100
AcDbLine
 10
407.338708
 20
119.455638
 30
0.0
 11
406.938708
 21
119.055638
 31
0.0
  0
LINE
  5
43
100
AcDbEntity
  8
0
370
    -3
  6
Continuous
100
AcDbLine
 10
407.338708
 20
124.055638
 30
0.0
 11
433.848492
 21
124.055638
 31
0.0
  0
LINE
  5
44
100
AcDbEntity
  8
0
370
    -3
  6
Continuous
100
AcDbLine
 10
292.738708
 20
119.055638
 30
0.0
 11
406.938708
 21
119.055638
 31
0.0
  0
LINE
  5
45
100
AcDbEntity
  8
0
370
    -3
  6
Continuous
100
AcDbLine
 10
292.338708
 20
119.455638
 30
0.0
 11
292.738708
 21
119.055638
 31
0.0
  0
LINE
  5
46
100
AcDbEntity
  8
0
370
    -3
  6
Continuous
100
AcDbLine
 10
292.338708
 20
119.455638
 30
0.0
 11
292.338708
 21
121.555638
 31
0.0
  0
LINE
  5
47
100
AcDbEntity
  8
0
370
    -3
  6
Continuous
100
AcDbLine
 10
292.488708
 20
121.555638
 30
0.0
 11
292.488708
 21
123.055638
 31
0.0
  0
LINE
  5
48
100
AcDbEntity
  8
0
370
    -3
  6
Continuous
100
AcDbLine
 10
292.488708
 20
123.055638
 30
0.0
 11
292.338708
 21
123.055638
 31
0.0
  0
LINE
  5
49
100
AcDbEntity
  8
0
370
    -3
  6
Continuous
100
AcDbLine
 10
292.488708
 20
121.555638
 30
0.0
 11
292.338708
 21
121.555638
 31
0.0
  0
LINE
  5
4A
100
AcDbEntity
  8
0
370
    -3
  6
Continuous
100
AcDbLine
 10
292.338708
 20
123.055638
 30
0.0
 11
292.338708
 21
124.055638
 31
0.0
  0
LINE
  5
4B
100
AcDbEntity
  8
0
370
    -3
  6
Continuous
100
AcDbLine
 10
407.338708
 20
268.655638
 30
0.0
 11
407.338708
 21
266.555638
 31
0.0
  0
LINE
  5
4C
100
AcDbEntity
  8
0
370
    -3
  6
Continuous
100
AcDbLine
 10
433.848492
 20
124.055638
 30
0.0
 11
436.838708
 21
136.055638
 31
0.0
  0
LINE
  5
4D
100
AcDbEntity
  8
0
370
    -3
  6
Continuous
100
AcDbLine
 10
407.188708
 20
266.555638
 30
0.0
 11
407.188708
 21
265.055638
 31
0.0
  0
LINE
  5
4E
100
AcDbEntity
  8
0
370
    -3
  6
Continuous
100
AcDbLine
 10
407.188708
 20
265.055638
 30
0.0
 11
407.338708
 21
265.055638
 31
0.0
  0
LINE
  5
4F
100
AcDbEntity
  8
0
370
    -3
  6
Continuous
100
AcDbLine
 10
198.839172
 20
136.055638
 30
0.0
 11
201.339172
 21
263.575187
 31
0.0
  0
LINE
  5
50
100
AcDbEntity
  8
0
370
    -3
  6
Continuous
100
AcDbLine
 10
407.188708
 20
266.555638
 30
0.0
 11
407.338708
 21
266.555638
 31
0.0
  0
LINE
  5
51
100
AcDbEntity
  8
0
370
    -3
  6
Continuous
100
AcDbLine
 10
186.838808
 20
133.055638
 30
0.0
 11
186.838808
 21
260.055638
 31
0.0
  0
LINE
  5
52
100
AcDbEntity
  8
0
370
    -3
  6
Continuous
100
AcDbLine
 10
407.338708
 20
265.055638
 30
0.0
 11
407.338708
 21
264.055638
 31
0.0
  0
LINE
  5
53
100
AcDbEntity
  8
0
370
    -3
  6
Continuous
100
AcDbLine
 10
407.338708
 20
268.655638
 30
0.0
 11
406.938708
 21
269.055638
 31
0.0
  0
LINE
  5
54
100
AcDbEntity
  8
0
370
    -3
  6
Continuous
100
AcDbLine
 10
407.338708
 20
264.055638
 30
0.0
 11
433.848492
 21
264.055638
 31
0.0
  0
LINE
  5
55
100
AcDbEntity
  8
0
370
    -3
  6
Continuous
100
AcDbLine
 10
292.338708
 20
268.655638
 30
0.0
 11
292.738708
 21
269.055638
 31
0.0
  0
LINE
  5
56
100
AcDbEntity
  8
0
370
    -3
  6
Continuous
100
AcDbLine
 10
292.338708
 20
268.655638
 30
0.0
 11
292.338708
 21
266.555638
 31
0.0
  0
LINE
  5
57
100
AcDbEntity
  8
0
370
    -3
  6
Continuous
100
AcDbLine
 10
292.488708
 20
266.555638
 30
0.0
 11
292.488708
 21
265.055638
 31
0.0
  0
LINE
  5
58
100
AcDbEntity
  8
0
370
    -3
  6
Continuous
100
AcDbLine
 10
292.488708
 20
265.055638
 30
0.0
 11
292.338708
 21
265.055638
 31
0.0
  0
LINE
  5
59
100
AcDbEntity
  8
0
370
    -3
  6
CENTER
100
AcDbLine
 10
349.838708
 20
303.905135
 30
0.0
 11
349.838708
 21
45.069425
 31
0.0
  0
LINE
  5
5A
100
AcDbEntity
  8
0
370
    -3
  6
Continuous
100
AcDbLine
 10
292.488708
 20
266.555638
 30
0.0
 11
292.338708
 21
266.555638
 31
0.0
  0
LINE
  5
5B
100
AcDbEntity
  8
0
370
    -3
  6
Continuous
100
AcDbLine
 10
436.838708
 20
136.055638
 30
0.0
 11
434.358084
 21
263.555826
 31
0.0
  0
LINE
  5
5C
100
AcDbEntity
  8
0
370
    -3
  6
Continuous
100
AcDbLine
 10
292.338708
 20
265.055638
 30
0.0
 11
292.338708
 21
264.055638
 31
0.0
  0
LINE
  5
5D
100
AcDbEntity
  8
0
370
    -3
  6
Continuous
100
AcDbLine
 10
201.829024
 20
264.055638
 30
0.0
 11
417.501286
 21
264.055638
 31
0.0
  0
LINE
  5
5E
100
AcDbEntity
  8
0
370
    -3
  6
Continuous
100
AcDbLine
 10
292.738708
 20
269.055638
 30
0.0
 11
406.938708
 21
269.055638
 31
0.0
  0
ARC
  5
5F
100
AcDbEntity
  8
0
370
    -3
  6
Continuous
100
AcDbCircle
 10
192.857624
 20
136.555638
 30
0.0
 40
3.0
100
AcDbArc
 50
358.889756
 51
90.0
  0
ARC
  5
60
100
AcDbEntity
  8
0
370
    -3
  6
Continuous
100
AcDbCircle
 10
189.838808
 20
136.555638
 30
0.0
 40
3.0
100
AcDbArc
 50
90.0
 51
180.0
  0
LINE
  5
61
100
AcDbEntity
  8
0
370
    -3
  6
Continuous
100
AcDbLine
 10
189.838808
 20
139.555638
 30
0.0
 11
192.857624
 21
139.555638
 31
0.0
  0
ARC
  5
62
100
AcDbEntity
  8
0
370
    -3
  6
Continuous
100
AcDbCircle
 10
198.309175
 20
263.055638
 30
0.0
 40
3.0
100
AcDbArc
 50
270.0
 51
358.889756
  0
LINE
  5
63
100
AcDbEntity
  8
0
370
    -3
  6
Continuous
100
AcDbLine
 10
195.848498
 20
136.055638
 30
0.0
 11
195.857061
 21
136.497509
 31
0.0
  0
LINE
  5
64
100
AcDbEntity
  8
0
370
    -3
  6
Continuous
100
AcDbLine
 10
201.308612
 20
262.997509
 30
0.0
 11
201.319432
 21
263.555826
 31
0.0
  0
LINE
  5
65
100
AcDbEntity
  8
0
370
    -3
  6
Continuous
100
AcDbLine
 10
186.838808
 20
136.555638
 30
0.0
 11
186.838808
 21
133.055638
 31
0.0
  0
LINE
  5
66
100
AcDbEntity
  8
0
370
    -3
  6
Continuous
100
AcDbLine
 10
173.338808
 20
128.055638
 30
0.0
 11
181.838808
 21
128.055638
 31
0.0
  0
LINE
  5
67
100
AcDbEntity
  8
0
370
    -3
  6
Continuous
100
AcDbLine
 10
170.338808
 20
125.055638
 30
0.0
 11
170.338808
 21
124.555638
 31
0.0
  0
ARC
  5
68
100
AcDbEntity
  8
0
370
    -3
  6
Continuous
100
AcDbCircle
 10
168.338808
 20
124.555638
 30
0.0
 40
2.0
100
AcDbArc
 50
270.0
 51
0.0
  0
LINE
  5
69
100
AcDbEntity
  8
0
370
    -3
  6
CENTER
100
AcDbLine
 10
450.206809
 20
194.055638
 30
0.0
 11
-58.788894
 21
194.055638
 31
0.0
  0
ARC
  5
6A
100
AcDbEntity
  8
0
370
    -3
  6
Continuous
100
AcDbCircle
 10
173.338808
 20
125.055638
 30
0.0
 40
3.0
100
AcDbArc
 50
90.0
 51
180.0
  0
LINE
  5
6B
100
AcDbEntity
  8
0
370
    -3
  6
Continuous
100
AcDbLine
 10
168.338808
 20
122.555638
 30
0.0
 11
163.838808
 21
122.555638
 31
0.0
  0
ARC
  5
6C
100
AcDbEntity
  8
0
370
    -3
  6
Continuous
100
AcDbCircle
 10
181.838808
 20
133.055638
 30
0.0
 40
5.0
100
AcDbArc
 50
270.0
 51
0.0
  0
LINE
  5
6D
100
AcDbEntity
  8
0
370
    -3
  6
Continuous
100
AcDbLine
 10
173.338808
 20
260.055638
 30
0.0
 11
198.309175
 21
260.055638
 31
0.0
  0
LINE
  5
6E
100
AcDbEntity
  8
0
370
    -3
  6
Continuous
100
AcDbLine
 10
170.338808
 20
263.055638
 30
0.0
 11
170.338808
 21
263.555638
 31
0.0
  0
ARC
  5
6F
100
AcDbEntity
  8
0
370
    -3
  6
Continuous
100
AcDbCircle
 10
168.338808
 20
263.555638
 30
0.0
 40
2.0
100
AcDbArc
 50
0.0
 51
90.0
  0
ARC
  5
70
100
AcDbEntity
  8
0
370
    -3
  6
Continuous
100
AcDbCircle
 10
173.338808
 20
263.055638
 30
0.0
 40
3.0
100
AcDbArc
 50
180.0
 51
270.0
  0
LINE
  5
71
100
AcDbEntity
  8
0
370
    -3
  6
Continuous
100
AcDbLine
 10
168.338808
 20
265.555638
 30
0.0
 11
163.838808
 21
265.555638
 31
0.0
  0
LINE
  5
72
100
AcDbEntity
  8
0
370
    -3
  6
Continuous
100
AcDbLine
 10
195.815664
 20
136.055638
 30
0.0
 11
436.838708
 21
136.055638
 31
0.0
  0
LINE
  5
73
100
AcDbEntity
  8
0
370
    -3
  6
Continuous
100
AcDbLine
 10
329.838708
 20
117.055638
 30
0.0
 11
329.838708
 21
52.055638
 31
0.0
  0
LINE
  5
74
100
AcDbEntity
  8
0
370
    -3
  6
Continuous
100
AcDbLine
 10
369.838708
 20
117.055638
 30
0.0
 11
369.838708
 21
52.055638
 31
0.0
  0
LINE
  5
75
100
AcDbEntity
  8
0
370
    -3
  6
Continuous
100
AcDbLine
 10
328.838708
 20
119.055638
 30
0.0
 11
328.838708
 21
117.055638
 31
0.0
  0
LINE
  5
76
100
AcDbEntity
  8
0
370
    -3
  6
Continuous
100
AcDbLine
 10
328.838708
 20
117.055638
 30
0.0
 11
370.838708
 21
117.055638
 31
0.0
  0
LINE
  5
77
100
AcDbEntity
  8
0
370
    -3
  6
Continuous
100
AcDbLine
 10
370.838708
 20
119.055638
 30
0.0
 11
370.838708
 21
117.055638
 31
0.0
  0
LINE
  5
78
100
AcDbEntity
  8
0
370
    -3
  6
Continuous
100
AcDbLine
 10
355.838708
 20
107.055638
 30
0.0
 11
343.838708
 21
107.055638
 31
0.0
  0
LINE
  5
79
100
AcDbEntity
  8
0
370
    -3
  6
Continuous
100
AcDbLine
 10
355.838708
 20
52.055638
 30
0.0
 11
355.838708
 21
107.055638
 31
0.0
  0
LINE
  5
7A
100
AcDbEntity
  8
0
370
    -3
  6
Continuous
100
AcDbLine
 10
433.848492
 20
264.055638
 30
0.0
 11
434.358084
 21
263.555826
 31
0.0
  0
LINE
  5
7B
100
AcDbEntity
  8
0
370
    -3
  6
Continuous
100
AcDbLine
 10
343.838708
 20
52.055638
 30
0.0
 11
343.838708
 21
107.055638
 31
0.0
  0
ARC
  5
7C
100
AcDbEntity
  8
0
370
    -3
  6
Continuous
100
AcDbCircle
 10
349.838708
 20
107.055638
 30
0.0
 40
6.0
100
AcDbArc
 50
0.0
 51
180.0
  0
LINE
  5
7D
100
AcDbEntity
  8
0
370
    -3
  6
Continuous
100
AcDbLine
 10
173.339172
 20
148.068485
 30
0.0
 11
181.839172
 21
148.068485
 31
0.0
  0
LINE
  5
7E
100
AcDbEntity
  8
0
370
    -3
  6
Continuous
100
AcDbLine
 10
173.339172
 20
152.307852
 30
0.0
 11
183.744822
 21
152.307852
 31
0.0
  0
LINE
  5
7F
100
AcDbEntity
  8
0
370
    -3
  6
Continuous
100
AcDbLine
 10
173.339172
 20
139.055638
 30
0.0
 11
181.839172
 21
139.055638
 31
0.0
  0
ARC
  5
80
100
AcDbEntity
  8
0
370
    -3
  6
Continuous
100
AcDbCircle
 10
181.839172
 20
153.068485
 30
0.0
 40
5.0
100
AcDbArc
 50
270.0
 51
351.914005
  0
ARC
  5
81
100
AcDbEntity
  8
0
370
    -3
  6
Continuous
100
AcDbCircle
 10
181.839172
 20
144.055638
 30
0.0
 40
5.0
100
AcDbArc
 50
270.0
 51
350.385223
  0
ARC
  5
82
100
AcDbEntity
  8
0
370
    -3
  6
Continuous
100
AcDbCircle
 10
173.339172
 20
151.068485
 30
0.0
 40
3.0
100
AcDbArc
 50
180.0
 51
270.0
  0
LINE
  5
83
100
AcDbEntity
  8
0
370
    -3
  6
Continuous
100
AcDbLine
 10
170.339172
 20
136.055638
 30
0.0
 11
170.339172
 21
124.555638
 31
0.0
  0
ARC
  5
84
100
AcDbEntity
  8
0
370
    -3
  6
Continuous
100
AcDbCircle
 10
173.339172
 20
136.055638
 30
0.0
 40
3.0
100
AcDbArc
 50
90.0
 51
180.0
  0
ARC
  5
85
100
AcDbEntity
  8
0
370
    -3
  6
Continuous
100
AcDbCircle
 10
173.339172
 20
155.307852
 30
0.0
 40
3.0
100
AcDbArc
 50
180.0
 51
270.0
  0
LINE
  5
86
100
AcDbEntity
  8
0
370
    -3
  6
Continuous
100
AcDbLine
 10
170.339172
 20
252.055638
 30
0.0
 11
170.339172
 21
263.555638
 31
0.0
  0
LINE
  5
87
100
AcDbEntity
  8
0
370
    -3
  6
Continuous
100
AcDbLine
 10
173.339172
 20
235.321668
 30
0.0
 11
184.271894
 21
235.321668
 31
0.0
  0
ARC
  5
88
100
AcDbEntity
  8
0
370
    -3
  6
Continuous
100
AcDbCircle
 10
173.339172
 20
232.321668
 30
0.0
 40
3.0
100
AcDbArc
 50
90.0
 51
180.0
  0
ARC
  5
89
100
AcDbEntity
  8
0
370
    -3
  6
Continuous
100
AcDbCircle
 10
173.339172
 20
237.042791
 30
0.0
 40
3.0
100
AcDbArc
 50
90.0
 51
180.0
  0
LINE
  5
8A
100
AcDbEntity
  8
0
370
    -3
  6
Continuous
100
AcDbLine
 10
173.339172
 20
240.042791
 30
0.0
 11
181.839172
 21
240.042791
 31
0.0
  0
ARC
  5
8B
100
AcDbEntity
  8
0
370
    -3
  6
Continuous
100
AcDbCircle
 10
173.339172
 20
252.055638
 30
0.0
 40
3.0
100
AcDbArc
 50
180.0
 51
270.0
  0
LINE
  5
8C
100
AcDbEntity
  8
0
370
    -3
  6
Continuous
100
AcDbLine
 10
173.339172
 20
249.055638
 30
0.0
 11
181.839172
 21
249.055638
 31
0.0
  0
ARC
  5
8D
100
AcDbEntity
  8
0
370
    -3
  6
Continuous
100
AcDbCircle
 10
181.839172
 20
235.042791
 30
0.0
 40
5.0
100
AcDbArc
 50
8.085995
 51
90.0
  0
ARC
  5
8E
100
AcDbEntity
  8
0
370
    -3
  6
Continuous
100
AcDbCircle
 10
181.839172
 20
244.055638
 30
0.0
 40
5.0
100
AcDbArc
 50
9.614777
 51
90.0
  0
LINE
  5
8F
100
AcDbEntity
  8
0
370
    -3
  6
Continuous
100
AcDbLine
 10
170.339172
 20
173.555638
 30
0.0
 11
170.339172
 21
151.068485
 31
0.0
  0
LINE
  5
90
100
AcDbEntity
  8
0
370
    -3
  6
Continuous
100
AcDbLine
 10
170.339172
 20
214.555638
 30
0.0
 11
170.339172
 21
237.042791
 31
0.0
  0
LINE
  5
91
100
AcDbEntity
  8
0
370
    -3
  6
Continuous
100
AcDbLine
 10
163.839172
 20
173.555638
 30
0.0
 11
163.839172
 21
122.555638
 31
0.0
  0
LINE
  5
92
100
AcDbEntity
  8
0
370
    -3
  6
Continuous
100
AcDbLine
 10
163.838808
 20
256.805638
 30
0.0
 11
163.838808
 21
265.555638
 31
0.0
  0
LINE
  5
93
100
AcDbEntity
  8
0
370
    -3
  6
Continuous
100
AcDbLine
 10
163.839172
 20
265.555638
 30
0.0
 11
163.839172
 21
214.555638
 31
0.0
  0
LINE
  5
94
100
AcDbEntity
  8
0
370
    -3
  6
Continuous
100
AcDbLine
 10
69.236626
 20
212.805638
 30
0.0
 11
97.339157
 21
212.805638
 31
0.0
  0
LINE
  5
95
100
AcDbEntity
  8
0
370
    -3
  6
Continuous
100
AcDbLine
 10
69.236626
 20
175.305638
 30
0.0
 11
97.339157
 21
175.305638
 31
0.0
  0
LINE
  5
96
100
AcDbEntity
  8
0
370
    -3
  6
Continuous
100
AcDbLine
 10
-16.660843
 20
146.729041
 30
0.0
 11
97.339157
 21
146.729041
 31
0.0
  0
LINE
  5
97
100
AcDbEntity
  8
0
370
    -3
  6
Continuous
100
AcDbLine
 10
69.103966
 20
153.62319
 30
0.0
 11
97.339157
 21
153.62319
 31
0.0
  0
LINE
  5
98
100
AcDbEntity
  8
0
370
    -3
  6
Continuous
100
AcDbLine
 10
69.236626
 20
160.955843
 30
0.0
 11
97.339157
 21
160.955843
 31
0.0
  0
LINE
  5
99
100
AcDbEntity
  8
0
370
    -3
  6
Continuous
100
AcDbLine
 10
69.236626
 20
162.155432
 30
0.0
 11
97.339157
 21
162.155432
 31
0.0
  0
LINE
  5
9A
100
AcDbEntity
  8
0
370
    -3
  6
Continuous
100
AcDbLine
 10
69.236626
 20
165.455843
 30
0.0
 11
97.339157
 21
165.455843
 31
0.0
  0
LINE
  5
9B
100
AcDbEntity
  8
0
370
    -3
  6
Continuous
100
AcDbLine
 10
69.236626
 20
169.955843
 30
0.0
 11
97.339157
 21
169.955843
 31
0.0
  0
LINE
  5
9C
100
AcDbEntity
  8
0
370
    -3
  6
Continuous
100
AcDbLine
 10
69.236626
 20
166.655432
 30
0.0
 11
97.339157
 21
166.655432
 31
0.0
  0
LINE
  5
9D
100
AcDbEntity
  8
0
370
    -3
  6
Continuous
100
AcDbLine
 10
69.236626
 20
171.155432
 30
0.0
 11
97.339157
 21
171.155432
 31
0.0
  0
LINE
  5
9E
100
AcDbEntity
  8
0
370
    -3
  6
Continuous
100
AcDbLine
 10
-16.660843
 20
241.382234
 30
0.0
 11
97.339157
 21
241.382234
 31
0.0
  0
LINE
  5
9F
100
AcDbEntity
  8
0
370
    -3
  6
Continuous
100
AcDbLine
 10
69.236626
 20
216.955843
 30
0.0
 11
97.339157
 21
216.955843
 31
0.0
  0
LINE
  5
A0
100
AcDbEntity
  8
0
370
    -3
  6
Continuous
100
AcDbLine
 10
69.236626
 20
218.155432
 30
0.0
 11
97.339157
 21
218.155432
 31
0.0
  0
LINE
  5
A1
100
AcDbEntity
  8
0
370
    -3
  6
Continuous
100
AcDbLine
 10
69.236626
 20
221.455843
 30
0.0
 11
97.339157
 21
221.455843
 31
0.0
  0
LINE
  5
A2
100
AcDbEntity
  8
0
370
    -3
  6
Continuous
100
AcDbLine
 10
69.236626
 20
222.655432
 30
0.0
 11
97.339157
 21
222.655432
 31
0.0
  0
LINE
  5
A3
100
AcDbEntity
  8
0
370
    -3
  6
Continuous
100
AcDbLine
 10
69.103966
 20
234.488085
 30
0.0
 11
97.339157
 21
234.488085
 31
0.0
  0
LINE
  5
A4
100
AcDbEntity
  8
0
370
    -3
  6
Continuous
100
AcDbLine
 10
69.236626
 20
227.155432
 30
0.0
 11
97.339157
 21
227.155432
 31
0.0
  0
LINE
  5
A5
100
AcDbEntity
  8
0
370
    -3
  6
Continuous
100
AcDbLine
 10
69.236626
 20
225.955843
 30
0.0
 11
97.339157
 21
225.955843
 31
0.0
  0
LINE
  5
A6
100
AcDbEntity
  8
0
370
    -3
  6
Continuous
100
AcDbLine
 10
97.339157
 20
246.555638
 30
0.0
 11
97.339157
 21
194.055638
 31
0.0
  0
LINE
  5
A7
100
AcDbEntity
  8
0
370
    -3
  6
Continuous
100
AcDbLine
 10
97.339157
 20
141.555638
 30
0.0
 11
97.339157
 21
194.055638
 31
0.0
  0
LINE
  5
A8
100
AcDbEntity
  8
0
370
    -3
  6
Continuous
100
AcDbLine
 10
97.339157
 20
246.555638
 30
0.0
 11
-16.660843
 21
246.555638
 31
0.0
  0
LINE
  5
A9
100
AcDbEntity
  8
0
370
    -3
  6
Continuous
100
AcDbLine
 10
-16.660843
 20
244.555638
 30
0.0
 11
97.339157
 21
244.555638
 31
0.0
  0
LINE
  5
AA
100
AcDbEntity
  8
0
370
    -3
  6
Continuous
100
AcDbLine
 10
-16.660843
 20
245.055638
 30
0.0
 11
97.339157
 21
245.055638
 31
0.0
  0
LINE
  5
AB
100
AcDbEntity
  8
0
370
    -3
  6
Continuous
100
AcDbLine
 10
97.339157
 20
141.555638
 30
0.0
 11
-16.660843
 21
141.555638
 31
0.0
  0
LINE
  5
AC
100
AcDbEntity
  8
0
370
    -3
  6
Continuous
100
AcDbLine
 10
-16.660843
 20
143.555638
 30
0.0
 11
97.339157
 21
143.555638
 31
0.0
  0
LINE
  5
AD
100
AcDbEntity
  8
0
370
    -3
  6
Continuous
100
AcDbLine
 10
-16.660843
 20
143.055638
 30
0.0
 11
97.339157
 21
143.055638
 31
0.0
  0
LINE
  5
AE
100
AcDbEntity
  8
0
370
    -3
  6
Continuous
100
AcDbLine
 10
-16.660843
 20
141.555638
 30
0.0
 11
-16.660843
 21
147.255638
 31
0.0
  0
LINE
  5
AF
100
AcDbEntity
  8
0
370
    -3
  6
Continuous
100
AcDbLine
 10
-16.660843
 20
246.555638
 30
0.0
 11
-16.660843
 21
244.305638
 31
0.0
  0
LINE
  5
B0
100
AcDbEntity
  8
0
370
    -3
  6
Continuous
100
AcDbLine
 10
-16.660843
 20
246.555638
 30
0.0
 11
-19.33162
 21
246.555638
 31
0.0
  0
ARC
  5
B1
100
AcDbEntity
  8
0
370
    -3
  6
Continuous
100
AcDbCircle
 10
-19.33162
 20
244.555638
 30
0.0
 40
2.0
100
AcDbArc
 50
90.0
 51
175.85105
  0
LINE
  5
B2
100
AcDbEntity
  8
0
370
    -3
  6
Continuous
100
AcDbLine
 10
-16.660843
 20
245.805638
 30
0.0
 11
-16.660843
 21
246.555638
 31
0.0
  0
LINE
  5
B3
100
AcDbEntity
  8
0
370
    -3
  6
Continuous
100
AcDbLine
 10
-16.660843
 20
244.305638
 30
0.0
 11
-16.660843
 21
240.855638
 31
0.0
  0
ARC
  5
B4
100
AcDbEntity
  8
0
370
    -3
  6
Continuous
100
AcDbCircle
 10
676.839157
 20
194.055638
 30
0.0
 40
700.0
100
AcDbArc
 50
175.85105
 51
176.204321
  0
LINE
  5
B5
100
AcDbEntity
  8
0
370
    -3
  6
Continuous
100
AcDbLine
 10
-16.660843
 20
141.555638
 30
0.0
 11
-19.33162
 21
141.555638
 31
0.0
  0
ARC
  5
B6
100
AcDbEntity
  8
0
370
    -3
  6
Continuous
100
AcDbCircle
 10
-19.33162
 20
143.555638
 30
0.0
 40
2.0
100
AcDbArc
 50
184.14895
 51
270.0
  0
ARC
  5
B7
100
AcDbEntity
  8
0
370
    -3
  6
Continuous
100
AcDbCircle
 10
676.839157
 20
194.055638
 30
0.0
 40
700.0
100
AcDbArc
 50
183.833357
 51
184.14895
  0
MTEXT
  5
B9
100
AcDbEntity
  8
0
370
    -3
  6
Continuous
100
AcDbMText
 10
-115.375488
 20
-18.15625
 30
0.0
 40
2.8
 41
0.0
 71
     7
 72
     1
  1
\W0.83;　
  7
ZU_SHPTB00001
 11
1.0
 21
0.0
 31
0.0
 73
     1
 44
1.0
  0
LINE
  5
BA
100
AcDbEntity
  8
0
370
    -3
  6
CENTER
100
AcDbLine
 10
-201.755625
 20
-133.064482
 30
0.0
 11
-265.333562
 21
-133.064482
 31
0.0
  0
LINE
  5
BB
100
AcDbEntity
  8
0
370
    -3
  6
CENTER
100
AcDbLine
 10
-238.660834
 20
-19.417751
 30
0.0
 11
-238.660834
 21
-251.583247
 31
0.0
  0
LINE
  5
BC
100
AcDbEntity
  8
0
370
    -3
  6
Continuous
100
AcDbLine
 10
-163.660834
 20
-141.064847
 30
0.0
 11
-161.660834
 21
-141.064847
 31
0.0
  0
LINE
  5
BD
100
AcDbEntity
  8
0
370
    -3
  6
Continuous
100
AcDbLine
 10
-163.660834
 20
-99.064847
 30
0.0
 11
-161.660834
 21
-99.064847
 31
0.0
  0
LINE
  5
BE
100
AcDbEntity
  8
0
370
    -3
  6
Continuous
100
AcDbLine
 10
-161.660834
 20
-99.064847
 30
0.0
 11
-161.660834
 21
-141.064847
 31
0.0
  0
LINE
  5
BF
100
AcDbEntity
  8
0
370
    -3
  6
Continuous
100
AcDbLine
 10
-151.660834
 20
-100.064847
 30
0.0
 11
-151.660834
 21
-97.064847
 31
0.0
  0
LINE
  5
C0
100
AcDbEntity
  8
0
370
    -3
  6
Continuous
100
AcDbLine
 10
-161.660834
 20
-140.064847
 30
0.0
 11
-96.660834
 21
-140.064847
 31
0.0
  0
LINE
  5
C1
100
AcDbEntity
  8
0
370
    -3
  6
Continuous
100
AcDbLine
 10
-96.660834
 20
-140.064847
 30
0.0
 11
-96.660834
 21
-97.064847
 31
0.0
  0
LINE
  5
C2
100
AcDbEntity
  8
0
370
    -3
  6
Continuous
100
AcDbLine
 10
-161.660834
 20
-100.064847
 30
0.0
 11
-96.660834
 21
-100.064847
 31
0.0
  0
LINE
  5
C3
100
AcDbEntity
  8
0
370
    -3
  6
Continuous
100
AcDbLine
 10
-151.660834
 20
-97.064847
 30
0.0
 11
-96.660834
 21
-97.064847
 31
0.0
  0
LINE
  5
C4
100
AcDbEntity
  8
0
370
    -3
  6
Continuous
100
AcDbLine
 10
-163.660834
 20
-62.964847
 30
0.0
 11
-163.660834
 21
-120.064847
 31
0.0
  0
LINE
  5
C5
100
AcDbEntity
  8
0
370
    -3
  6
Continuous
100
AcDbLine
 10
-163.660834
 20
-62.964847
 30
0.0
 11
-164.060834
 21
-62.564847
 31
0.0
  0
LINE
  5
C6
100
AcDbEntity
  8
0
370
    -3
  6
Continuous
100
AcDbLine
 10
-168.660834
 20
-62.564847
 30
0.0
 11
-164.060834
 21
-62.564847
 31
0.0
  0
LINE
  5
C7
100
AcDbEntity
  8
0
370
    -3
  6
Continuous
100
AcDbLine
 10
-163.660834
 20
-177.164847
 30
0.0
 11
-163.660834
 21
-120.064847
 31
0.0
  0
LINE
  5
C8
100
AcDbEntity
  8
0
370
    -3
  6
Continuous
100
AcDbLine
 10
-163.660834
 20
-177.164847
 30
0.0
 11
-164.060834
 21
-177.564847
 31
0.0
  0
LINE
  5
C9
100
AcDbEntity
  8
0
370
    -3
  6
Continuous
100
AcDbLine
 10
-167.160834
 20
-177.564847
 30
0.0
 11
-164.060834
 21
-177.564847
 31
0.0
  0
LINE
  5
CA
100
AcDbEntity
  8
0
370
    -3
  6
Continuous
100
AcDbLine
 10
-169.157889
 20
-33.988151
 30
0.0
 11
-168.660834
 21
-34.524909
 31
0.0
  0
LINE
  5
CB
100
AcDbEntity
  8
0
370
    -3
  6
Continuous
100
AcDbLine
 10
-168.660834
 20
-242.604786
 30
0.0
 11
-169.157889
 21
-243.141544
 31
0.0
  0
LINE
  5
CC
100
AcDbEntity
  8
0
370
    -3
  6
Continuous
100
AcDbLine
 10
-299.660834
 20
-241.564847
 30
0.0
 11
-180.660834
 21
-244.064847
 31
0.0
  0
LINE
  5
CD
100
AcDbEntity
  8
0
370
    -3
  6
Continuous
100
AcDbLine
 10
-299.660834
 20
-35.564847
 30
0.0
 11
-285.460834
 21
-35.266528
 31
0.0
  0
LINE
  5
CE
100
AcDbEntity
  8
0
370
    -3
  6
Continuous
100
AcDbLine
 10
-180.660834
 20
-244.026386
 30
0.0
 11
-169.157889
 21
-243.141544
 31
0.0
  0
LINE
  5
CF
100
AcDbEntity
  8
0
370
    -3
  6
Continuous
100
AcDbLine
 10
-180.660834
 20
-210.020983
 30
0.0
 11
-180.660834
 21
-244.064847
 31
0.0
  0
LINE
  5
D0
100
AcDbEntity
  8
0
370
    -3
  6
Continuous
100
AcDbLine
 10
-168.660834
 20
-120.064847
 30
0.0
 11
-168.660834
 21
-140.064482
 31
0.0
  0
LINE
  5
D1
100
AcDbEntity
  8
0
370
    -3
  6
Continuous
100
AcDbLine
 10
-168.660834
 20
-242.604786
 30
0.0
 11
-169.157889
 21
-243.141544
 31
0.0
  0
LINE
  5
D2
100
AcDbEntity
  8
0
370
    -3
  6
Continuous
100
AcDbLine
 10
-180.660834
 20
-118.107981
 30
0.0
 11
-180.660834
 21
-33.064847
 31
0.0
  0
LINE
  5
D3
100
AcDbEntity
  8
0
370
    -3
  6
Continuous
100
AcDbLine
 10
-169.157889
 20
-33.988151
 30
0.0
 11
-168.660834
 21
-34.524909
 31
0.0
  0
LINE
  5
D4
100
AcDbEntity
  8
0
370
    -3
  6
Continuous
100
AcDbLine
 10
-168.660834
 20
-120.064847
 30
0.0
 11
-168.660834
 21
-34.524909
 31
0.0
  0
LINE
  5
D5
100
AcDbEntity
  8
0
370
    -3
  6
Continuous
100
AcDbLine
 10
-180.660834
 20
-33.103309
 30
0.0
 11
-169.157889
 21
-33.988151
 31
0.0
  0
LINE
  5
D6
100
AcDbEntity
  8
0
370
    -3
  6
Continuous
100
AcDbLine
 10
-308.160834
 20
-241.564847
 30
0.0
 11
-299.660834
 21
-241.564847
 31
0.0
  0
LINE
  5
D7
100
AcDbEntity
  8
0
370
    -3
  6
Continuous
100
AcDbLine
 10
-308.160834
 20
-35.564847
 30
0.0
 11
-299.660834
 21
-35.564847
 31
0.0
  0
LINE
  5
D8
100
AcDbEntity
  8
0
370
    -3
  6
Continuous
100
AcDbLine
 10
-308.660834
 20
-241.064847
 30
0.0
 11
-308.160834
 21
-241.564847
 31
0.0
  0
LINE
  5
D9
100
AcDbEntity
  8
0
370
    -3
  6
Continuous
100
AcDbLine
 10
-308.660834
 20
-188.064846
 30
0.0
 11
-308.660834
 21
-241.064847
 31
0.0
  0
LINE
  5
DA
100
AcDbEntity
  8
0
370
    -3
  6
Continuous
100
AcDbLine
 10
-313.660834
 20
-177.164847
 30
0.0
 11
-313.660834
 21
-120.064847
 31
0.0
  0
LINE
  5
DB
100
AcDbEntity
  8
0
370
    -3
  6
Continuous
100
AcDbLine
 10
-310.160834
 20
-177.564847
 30
0.0
 11
-313.260834
 21
-177.564847
 31
0.0
  0
LINE
  5
DC
100
AcDbEntity
  8
0
370
    -3
  6
Continuous
100
AcDbLine
 10
-313.660834
 20
-177.164847
 30
0.0
 11
-313.260834
 21
-177.564847
 31
0.0
  0
LINE
  5
DD
100
AcDbEntity
  8
0
370
    -3
  6
Continuous
100
AcDbLine
 10
-308.660834
 20
-36.064847
 30
0.0
 11
-308.660834
 21
-140.064846
 31
0.0
  0
LINE
  5
DE
100
AcDbEntity
  8
0
370
    -3
  6
Continuous
100
AcDbLine
 10
-313.660834
 20
-62.964847
 30
0.0
 11
-313.660834
 21
-120.064847
 31
0.0
  0
LINE
  5
DF
100
AcDbEntity
  8
0
370
    -3
  6
Continuous
100
AcDbLine
 10
-313.660834
 20
-62.964847
 30
0.0
 11
-313.260834
 21
-62.564847
 31
0.0
  0
LINE
  5
E0
100
AcDbEntity
  8
0
370
    -3
  6
Continuous
100
AcDbLine
 10
-308.660834
 20
-62.564847
 30
0.0
 11
-313.260834
 21
-62.564847
 31
0.0
  0
LINE
  5
E1
100
AcDbEntity
  8
0
370
    -3
  6
Continuous
100
AcDbLine
 10
-308.660834
 20
-36.064847
 30
0.0
 11
-308.160834
 21
-35.564847
 31
0.0
  0
LINE
  5
E2
100
AcDbEntity
  8
0
370
    -3
  6
CENTER
100
AcDbLine
 10
-89.623295
 20
-120.064847
 30
0.0
 11
-324.791375
 21
-120.064847
 31
0.0
  0
INSERT
  5
EE
100
AcDbEntity
  8
0
100
AcDbBlockReference
  2
ZU_SYM__USERS_HOME_SYMBOL_STD_SYM_B01_-1
 10
-278.258814
 20
-172.662462
 30
0.0
 41
-1.0
 50
90.0
  0
INSERT
  5
FA
100
AcDbEntity
  8
0
100
AcDbBlockReference
  2
ZU_SYM__USERS_HOME_SYMBOL_STD_SYM_B01_00001-1
 10
-199.062855
 20
-93.466502
 30
0.0
 41
-1.0
 50
270.0
  0
INSERT
  5
106
100
AcDbEntity
  8
0
100
AcDbBlockReference
  2
ZU_SYM__USERS_HOME_SYMBOL_STD_SYM_B01_00002-1
 10
-199.062855
 20
-172.662462
 30
0.0
 50
270.0
  0
INSERT
  5
112
100
AcDbEntity
  8
0
100
AcDbBlockReference
  2
ZU_SYM__USERS_HOME_SYMBOL_STD_SYM_B01_00003-1
 10
-278.258814
 20
-93.466502
 30
0.0
 50
90.0
  0
ARC
  5
113
100
AcDbEntity
  8
0
370
    -3
  6
Continuous
100
AcDbCircle
 10
-288.660834
 20
-109.564482
 30
0.0
 40
1.0
100
AcDbArc
 50
93.0
 51
267.0
  0
ARC
  5
114
100
AcDbEntity
  8
0
370
    -3
  6
Continuous
100
AcDbCircle
 10
-285.511109
 20
-107.232297
 30
0.0
 40
1.0
100
AcDbArc
 50
331.128648
 51
87.0
  0
LINE
  5
115
100
AcDbEntity
  8
0
370
    -3
  6
Continuous
100
AcDbLine
 10
-285.55169
 20
-108.400166
 30
0.0
 11
-288.71317
 21
-108.565853
 31
0.0
  0
ARC
  5
116
100
AcDbEntity
  8
0
370
    -3
  6
Continuous
100
AcDbCircle
 10
-285.604026
 20
-107.401537
 30
0.0
 40
1.0
100
AcDbArc
 50
273.0
 51
331.335416
  0
ARC
  5
117
100
AcDbEntity
  8
0
370
    -3
  6
Continuous
100
AcDbCircle
 10
-287.674484
 20
-111.618919
 30
0.0
 40
1.0
100
AcDbArc
 50
336.36857
 51
87.0
  0
ARC
  5
118
100
AcDbEntity
  8
0
370
    -3
  6
Continuous
100
AcDbCircle
 10
-289.347181
 20
-115.943026
 30
0.0
 40
1.0
100
AcDbArc
 50
341.335429
 51
69.929668
  0
ARC
  5
119
100
AcDbEntity
  8
0
370
    -3
  6
Continuous
100
AcDbCircle
 10
-287.847649
 20
-112.01912
 30
0.0
 40
1.0
100
AcDbArc
 50
273.0
 51
336.835568
  0
LINE
  5
11A
100
AcDbEntity
  8
0
370
    -3
  6
Continuous
100
AcDbLine
 10
-287.795313
 20
-113.01775
 30
0.0
 11
-288.71317
 21
-113.065853
 31
0.0
  0
ARC
  5
11B
100
AcDbEntity
  8
0
370
    -3
  6
Continuous
100
AcDbCircle
 10
-288.660834
 20
-114.064482
 30
0.0
 40
1.0
100
AcDbArc
 50
93.0
 51
249.929668
  0
LINE
  5
11C
100
AcDbEntity
  8
0
370
    -3
  6
Continuous
100
AcDbLine
 10
-287.622148
 20
-110.62029
 30
0.0
 11
-288.71317
 21
-110.563112
 31
0.0
  0
ARC
  5
11D
100
AcDbEntity
  8
0
370
    -3
  6
Continuous
100
AcDbCircle
 10
-288.660834
 20
-105.064482
 30
0.0
 40
1.0
100
AcDbArc
 50
93.0
 51
267.0
  0
LINE
  5
11E
100
AcDbEntity
  8
0
370
    -3
  6
Continuous
100
AcDbLine
 10
-285.458773
 20
-106.233667
 30
0.0
 11
-288.71317
 21
-106.063112
 31
0.0
  0
ARC
  5
11F
100
AcDbEntity
  8
0
370
    -3
  6
Continuous
100
AcDbCircle
 10
-288.160834
 20
-100.564482
 30
0.0
 40
1.0
100
AcDbArc
 50
93.0
 51
267.0
  0
LINE
  5
120
100
AcDbEntity
  8
0
370
    -3
  6
Continuous
100
AcDbLine
 10
-282.758149
 20
-101.848997
 30
0.0
 11
-288.21317
 21
-101.563112
 31
0.0
  0
LINE
  5
121
100
AcDbEntity
  8
0
370
    -3
  6
Continuous
100
AcDbLine
 10
-282.692331
 20
-103.750314
 30
0.0
 11
-288.71317
 21
-104.065853
 31
0.0
  0
ARC
  5
122
100
AcDbEntity
  8
0
370
    -3
  6
Continuous
100
AcDbCircle
 10
-238.660834
 20
-133.064482
 30
0.0
 40
52.5
100
AcDbArc
 50
118.562834
 51
118.973449
  0
ARC
  5
123
100
AcDbEntity
  8
0
370
    -3
  6
Continuous
100
AcDbCircle
 10
-238.660834
 20
-133.064482
 30
0.0
 40
52.5
100
AcDbArc
 50
118.562834
 51
118.973449
  0
LINE
  5
124
100
AcDbEntity
  8
0
370
    -3
  6
Continuous
100
AcDbLine
 10
-269.876319
 20
-88.967167
 30
0.0
 11
-270.162205
 21
-83.512146
 31
0.0
  0
LINE
  5
125
100
AcDbEntity
  8
0
370
    -3
  6
Continuous
100
AcDbLine
 10
-267.975003
 20
-89.032986
 30
0.0
 11
-267.659464
 21
-83.012146
 31
0.0
  0
ARC
  5
126
100
AcDbEntity
  8
0
370
    -3
  6
Continuous
100
AcDbCircle
 10
-264.49302
 20
-86.214208
 30
0.0
 40
1.0
100
AcDbArc
 50
183.0
 51
298.871352
  0
ARC
  5
127
100
AcDbEntity
  8
0
370
    -3
  6
Continuous
100
AcDbCircle
 10
-264.32378
 20
-86.12129
 30
0.0
 40
1.0
100
AcDbArc
 50
298.664584
 51
357.0
  0
ARC
  5
128
100
AcDbEntity
  8
0
370
    -3
  6
Continuous
100
AcDbCircle
 10
-268.87769
 20
-88.914831
 30
0.0
 40
1.0
100
AcDbArc
 50
183.0
 51
304.388476
  0
ARC
  5
129
100
AcDbEntity
  8
0
370
    -3
  6
Continuous
100
AcDbCircle
 10
-268.973632
 20
-88.98065
 30
0.0
 40
1.0
100
AcDbArc
 50
304.513079
 51
357.0
  0
ARC
  5
12A
100
AcDbEntity
  8
0
370
    -3
  6
Continuous
100
AcDbCircle
 10
-284.041781
 20
-93.054238
 30
0.0
 40
1.0
100
AcDbArc
 50
138.598894
 51
222.0
  0
LINE
  5
12B
100
AcDbEntity
  8
0
370
    -3
  6
Continuous
100
AcDbLine
 10
-282.009535
 20
-99.240734
 30
0.0
 11
-288.21317
 21
-99.565853
 31
0.0
  0
ARC
  5
12C
100
AcDbEntity
  8
0
370
    -3
  6
Continuous
100
AcDbCircle
 10
-282.061871
 20
-98.242104
 30
0.0
 40
1.0
100
AcDbArc
 50
273.0
 51
42.0
  0
ARC
  5
12D
100
AcDbEntity
  8
0
370
    -3
  6
Continuous
100
AcDbCircle
 10
-278.671079
 20
-87.683535
 30
0.0
 40
1.0
100
AcDbArc
 50
48.0
 51
131.401106
  0
ARC
  5
12E
100
AcDbEntity
  8
0
370
    -3
  6
Continuous
100
AcDbCircle
 10
-238.660834
 20
-133.064482
 30
0.0
 40
61.5
100
AcDbArc
 50
131.401106
 51
138.598894
  0
LINE
  5
12F
100
AcDbEntity
  8
0
370
    -3
  6
Continuous
100
AcDbLine
 10
-272.484583
 20
-89.715781
 30
0.0
 11
-272.159464
 21
-83.512146
 31
0.0
  0
ARC
  5
130
100
AcDbEntity
  8
0
370
    -3
  6
Continuous
100
AcDbCircle
 10
-273.483212
 20
-89.663445
 30
0.0
 40
1.0
100
AcDbArc
 50
228.0
 51
357.0
  0
LINE
  5
131
100
AcDbEntity
  8
0
370
    -3
  6
Continuous
100
AcDbLine
 10
-210.462193
 20
-96.973117
 30
0.0
 11
-199.319721
 21
-86.94039
 31
0.0
  0
LINE
  5
132
100
AcDbEntity
  8
0
370
    -3
  6
Continuous
100
AcDbLine
 10
-202.569469
 20
-104.865841
 30
0.0
 11
-192.536742
 21
-93.723368
 31
0.0
  0
ARC
  5
133
100
AcDbEntity
  8
0
370
    -3
  6
Continuous
100
AcDbCircle
 10
-238.660834
 20
-133.064482
 30
0.0
 40
52.5
100
AcDbArc
 50
23.136889
 51
23.663705
  0
ARC
  5
134
100
AcDbEntity
  8
0
370
    -3
  6
Continuous
100
AcDbCircle
 10
-194.577002
 20
-102.751684
 30
0.0
 40
1.0
100
AcDbArc
 50
217.785803
 51
267.0
  0
ARC
  5
135
100
AcDbEntity
  8
0
370
    -3
  6
Continuous
100
AcDbCircle
 10
-194.511184
 20
-102.847627
 30
0.0
 40
1.0
100
AcDbArc
 50
93.0
 51
211.115753
  0
ARC
  5
136
100
AcDbEntity
  8
0
370
    -3
  6
Continuous
100
AcDbCircle
 10
-187.682898
 20
-118.564482
 30
0.0
 40
0.5
100
AcDbArc
 50
195.877702
 51
270.0
  0
LINE
  5
137
100
AcDbEntity
  8
0
370
    -3
  6
Continuous
100
AcDbLine
 10
-187.580918
 20
-119.064482
 30
0.0
 11
-187.682898
 21
-119.064482
 31
0.0
  0
ARC
  5
138
100
AcDbEntity
  8
0
370
    -3
  6
Continuous
100
AcDbCircle
 10
-187.580918
 20
-119.564482
 30
0.0
 40
0.5
100
AcDbArc
 50
7.79785
 51
90.0
  0
ARC
  5
139
100
AcDbEntity
  8
0
370
    -3
  6
Continuous
100
AcDbCircle
 10
-238.660834
 20
-133.064482
 30
0.0
 40
52.5
100
AcDbArc
 50
15.877702
 51
18.664571
  0
ARC
  5
13A
100
AcDbEntity
  8
0
370
    -3
  6
Continuous
100
AcDbCircle
 10
-238.660834
 20
-133.064482
 30
0.0
 40
52.5
100
AcDbArc
 50
28.562834
 51
28.973449
  0
ARC
  5
13B
100
AcDbEntity
  8
0
370
    -3
  6
Continuous
100
AcDbCircle
 10
-188.660834
 20
-109.564482
 30
0.0
 40
1.0
100
AcDbArc
 50
273.0
 51
87.0
  0
ARC
  5
13C
100
AcDbEntity
  8
0
370
    -3
  6
Continuous
100
AcDbCircle
 10
-191.81056
 20
-107.232297
 30
0.0
 40
1.0
100
AcDbArc
 50
93.0
 51
208.871352
  0
LINE
  5
13D
100
AcDbEntity
  8
0
370
    -3
  6
Continuous
100
AcDbLine
 10
-191.769979
 20
-108.400166
 30
0.0
 11
-188.608498
 21
-108.565853
 31
0.0
  0
ARC
  5
13E
100
AcDbEntity
  8
0
370
    -3
  6
Continuous
100
AcDbCircle
 10
-191.717643
 20
-107.401537
 30
0.0
 40
1.0
100
AcDbArc
 50
208.664584
 51
267.0
  0
ARC
  5
13F
100
AcDbEntity
  8
0
370
    -3
  6
Continuous
100
AcDbCircle
 10
-189.647185
 20
-111.618919
 30
0.0
 40
1.0
100
AcDbArc
 50
93.0
 51
203.63143
  0
ARC
  5
140
100
AcDbEntity
  8
0
370
    -3
  6
Continuous
100
AcDbCircle
 10
-187.974488
 20
-115.943026
 30
0.0
 40
1.0
100
AcDbArc
 50
110.070332
 51
198.664571
  0
ARC
  5
141
100
AcDbEntity
  8
0
370
    -3
  6
Continuous
100
AcDbCircle
 10
-189.47402
 20
-112.01912
 30
0.0
 40
1.0
100
AcDbArc
 50
203.164432
 51
267.0
  0
LINE
  5
142
100
AcDbEntity
  8
0
370
    -3
  6
Continuous
100
AcDbLine
 10
-189.526356
 20
-113.01775
 30
0.0
 11
-188.608498
 21
-113.065853
 31
0.0
  0
ARC
  5
143
100
AcDbEntity
  8
0
370
    -3
  6
Continuous
100
AcDbCircle
 10
-188.660834
 20
-114.064482
 30
0.0
 40
1.0
100
AcDbArc
 50
290.070332
 51
87.0
  0
LINE
  5
144
100
AcDbEntity
  8
0
370
    -3
  6
Continuous
100
AcDbLine
 10
-189.699521
 20
-110.62029
 30
0.0
 11
-188.608498
 21
-110.563112
 31
0.0
  0
ARC
  5
145
100
AcDbEntity
  8
0
370
    -3
  6
Continuous
100
AcDbCircle
 10
-188.660834
 20
-105.064482
 30
0.0
 40
1.0
100
AcDbArc
 50
273.0
 51
87.0
  0
LINE
  5
146
100
AcDbEntity
  8
0
370
    -3
  6
Continuous
100
AcDbLine
 10
-191.862896
 20
-106.233667
 30
0.0
 11
-188.608498
 21
-106.063112
 31
0.0
  0
ARC
  5
147
100
AcDbEntity
  8
0
370
    -3
  6
Continuous
100
AcDbCircle
 10
-189.160834
 20
-100.564482
 30
0.0
 40
1.0
100
AcDbArc
 50
273.0
 51
87.0
  0
LINE
  5
148
100
AcDbEntity
  8
0
370
    -3
  6
Continuous
100
AcDbLine
 10
-194.56352
 20
-101.848997
 30
0.0
 11
-189.108498
 21
-101.563112
 31
0.0
  0
LINE
  5
149
100
AcDbEntity
  8
0
370
    -3
  6
Continuous
100
AcDbLine
 10
-194.629338
 20
-103.750314
 30
0.0
 11
-188.608498
 21
-104.065853
 31
0.0
  0
ARC
  5
14A
100
AcDbEntity
  8
0
370
    -3
  6
Continuous
100
AcDbCircle
 10
-238.660834
 20
-133.064482
 30
0.0
 40
52.5
100
AcDbArc
 50
61.026551
 51
61.437166
  0
ARC
  5
14B
100
AcDbEntity
  8
0
370
    -3
  6
Continuous
100
AcDbCircle
 10
-238.660834
 20
-133.064482
 30
0.0
 40
52.5
100
AcDbArc
 50
61.026551
 51
61.437166
  0
LINE
  5
14C
100
AcDbEntity
  8
0
370
    -3
  6
Continuous
100
AcDbLine
 10
-207.445349
 20
-88.967167
 30
0.0
 11
-207.159464
 21
-83.512146
 31
0.0
  0
LINE
  5
14D
100
AcDbEntity
  8
0
370
    -3
  6
Continuous
100
AcDbLine
 10
-209.346666
 20
-89.032986
 30
0.0
 11
-209.662205
 21
-83.012146
 31
0.0
  0
ARC
  5
14E
100
AcDbEntity
  8
0
370
    -3
  6
Continuous
100
AcDbCircle
 10
-212.828649
 20
-86.214208
 30
0.0
 40
1.0
100
AcDbArc
 50
241.128648
 51
357.0
  0
ARC
  5
14F
100
AcDbEntity
  8
0
370
    -3
  6
Continuous
100
AcDbCircle
 10
-212.997889
 20
-86.12129
 30
0.0
 40
1.0
100
AcDbArc
 50
183.0
 51
241.335416
  0
ARC
  5
150
100
AcDbEntity
  8
0
370
    -3
  6
Continuous
100
AcDbCircle
 10
-208.443979
 20
-88.914831
 30
0.0
 40
1.0
100
AcDbArc
 50
235.611524
 51
357.0
  0
ARC
  5
151
100
AcDbEntity
  8
0
370
    -3
  6
Continuous
100
AcDbCircle
 10
-208.348036
 20
-88.98065
 30
0.0
 40
1.0
100
AcDbArc
 50
183.0
 51
235.486921
  0
ARC
  5
152
100
AcDbEntity
  8
0
370
    -3
  6
Continuous
100
AcDbCircle
 10
-193.279887
 20
-93.054238
 30
0.0
 40
1.0
100
AcDbArc
 50
318.0
 51
41.401106
  0
LINE
  5
153
100
AcDbEntity
  8
0
370
    -3
  6
Continuous
100
AcDbLine
 10
-195.312134
 20
-99.240734
 30
0.0
 11
-189.108498
 21
-99.565853
 31
0.0
  0
ARC
  5
154
100
AcDbEntity
  8
0
370
    -3
  6
Continuous
100
AcDbCircle
 10
-195.259798
 20
-98.242104
 30
0.0
 40
1.0
100
AcDbArc
 50
138.0
 51
267.0
  0
ARC
  5
155
100
AcDbEntity
  8
0
370
    -3
  6
Continuous
100
AcDbCircle
 10
-198.65059
 20
-87.683535
 30
0.0
 40
1.0
100
AcDbArc
 50
48.598894
 51
132.0
  0
ARC
  5
156
100
AcDbEntity
  8
0
370
    -3
  6
Continuous
100
AcDbCircle
 10
-238.660834
 20
-133.064482
 30
0.0
 40
61.5
100
AcDbArc
 50
41.401106
 51
48.598894
  0
LINE
  5
157
100
AcDbEntity
  8
0
370
    -3
  6
Continuous
100
AcDbLine
 10
-204.837086
 20
-89.715781
 30
0.0
 11
-205.162205
 21
-83.512146
 31
0.0
  0
ARC
  5
158
100
AcDbEntity
  8
0
370
    -3
  6
Continuous
100
AcDbCircle
 10
-203.838457
 20
-89.663445
 30
0.0
 40
1.0
100
AcDbArc
 50
183.0
 51
312.0
  0
LINE
  5
159
100
AcDbEntity
  8
0
370
    -3
  6
Continuous
100
AcDbLine
 10
-257.960834
 20
-79.564482
 30
0.0
 11
-238.660834
 21
-79.564482
 31
0.0
  0
ARC
  5
15A
100
AcDbEntity
  8
0
370
    -3
  6
Continuous
100
AcDbCircle
 10
-257.960834
 20
-80.264482
 30
0.0
 40
0.7
100
AcDbArc
 50
90.0
 51
180.0
  0
LINE
  5
15B
100
AcDbEntity
  8
0
370
    -3
  6
Continuous
100
AcDbLine
 10
-258.660834
 20
-80.264482
 30
0.0
 11
-258.660834
 21
-83.858283
 31
0.0
  0
ARC
  5
15C
100
AcDbEntity
  8
0
370
    -3
  6
Continuous
100
AcDbCircle
 10
-238.660834
 20
-133.064482
 30
0.0
 40
52.5
100
AcDbArc
 50
113.111602
 51
113.695081
  0
ARC
  5
15D
100
AcDbEntity
  8
0
370
    -3
  6
Continuous
100
AcDbCircle
 10
-259.660834
 20
-83.858283
 30
0.0
 40
1.0
100
AcDbArc
 50
293.111602
 51
0.0
  0
ARC
  5
15E
100
AcDbEntity
  8
0
370
    -3
  6
Continuous
100
AcDbCircle
 10
-238.660834
 20
-133.064482
 30
0.0
 40
52.5
100
AcDbArc
 50
113.111602
 51
113.663705
  0
ARC
  5
15F
100
AcDbEntity
  8
0
370
    -3
  6
Continuous
100
AcDbCircle
 10
-271.160834
 20
-83.564482
 30
0.0
 40
1.0
100
AcDbArc
 50
3.0
 51
177.0
  0
ARC
  5
160
100
AcDbEntity
  8
0
370
    -3
  6
Continuous
100
AcDbCircle
 10
-266.660834
 20
-83.064482
 30
0.0
 40
1.0
100
AcDbArc
 50
3.0
 51
177.0
  0
LINE
  5
161
100
AcDbEntity
  8
0
370
    -3
  6
Continuous
100
AcDbLine
 10
-265.491649
 20
-86.266544
 30
0.0
 11
-265.662205
 21
-83.012146
 31
0.0
  0
LINE
  5
162
100
AcDbEntity
  8
0
370
    -3
  6
Continuous
100
AcDbLine
 10
-263.32515
 20
-86.173626
 30
0.0
 11
-263.159464
 21
-83.012146
 31
0.0
  0
ARC
  5
163
100
AcDbEntity
  8
0
370
    -3
  6
Continuous
100
AcDbCircle
 10
-262.160834
 20
-83.064482
 30
0.0
 40
1.0
100
AcDbArc
 50
3.0
 51
177.0
  0
ARC
  5
164
100
AcDbEntity
  8
0
370
    -3
  6
Continuous
100
AcDbCircle
 10
-260.106397
 20
-84.050833
 30
0.0
 40
1.0
100
AcDbArc
 50
183.0
 51
293.63143
  0
LINE
  5
165
100
AcDbEntity
  8
0
370
    -3
  6
Continuous
100
AcDbLine
 10
-261.105027
 20
-84.103169
 30
0.0
 11
-261.162205
 21
-83.012146
 31
0.0
  0
LINE
  5
166
100
AcDbEntity
  8
0
370
    -3
  6
Continuous
100
AcDbLine
 10
-219.360834
 20
-79.564482
 30
0.0
 11
-238.660834
 21
-79.564482
 31
0.0
  0
ARC
  5
167
100
AcDbEntity
  8
0
370
    -3
  6
Continuous
100
AcDbCircle
 10
-219.360834
 20
-80.264482
 30
0.0
 40
0.7
100
AcDbArc
 50
0.0
 51
90.0
  0
LINE
  5
168
100
AcDbEntity
  8
0
370
    -3
  6
Continuous
100
AcDbLine
 10
-218.660834
 20
-80.264482
 30
0.0
 11
-218.660834
 21
-83.858283
 31
0.0
  0
ARC
  5
169
100
AcDbEntity
  8
0
370
    -3
  6
Continuous
100
AcDbCircle
 10
-238.660834
 20
-133.064482
 30
0.0
 40
52.5
100
AcDbArc
 50
66.304919
 51
66.888398
  0
ARC
  5
16A
100
AcDbEntity
  8
0
370
    -3
  6
Continuous
100
AcDbCircle
 10
-217.660834
 20
-83.858283
 30
0.0
 40
1.0
100
AcDbArc
 50
180.0
 51
246.888398
  0
ARC
  5
16B
100
AcDbEntity
  8
0
370
    -3
  6
Continuous
100
AcDbCircle
 10
-238.660834
 20
-133.064482
 30
0.0
 40
52.5
100
AcDbArc
 50
66.336295
 51
66.888398
  0
ARC
  5
16C
100
AcDbEntity
  8
0
370
    -3
  6
Continuous
100
AcDbCircle
 10
-206.160834
 20
-83.564482
 30
0.0
 40
1.0
100
AcDbArc
 50
3.0
 51
177.0
  0
ARC
  5
16D
100
AcDbEntity
  8
0
370
    -3
  6
Continuous
100
AcDbCircle
 10
-210.660834
 20
-83.064482
 30
0.0
 40
1.0
100
AcDbArc
 50
3.0
 51
177.0
  0
LINE
  5
16E
100
AcDbEntity
  8
0
370
    -3
  6
Continuous
100
AcDbLine
 10
-211.83002
 20
-86.266544
 30
0.0
 11
-211.659464
 21
-83.012146
 31
0.0
  0
LINE
  5
16F
100
AcDbEntity
  8
0
370
    -3
  6
Continuous
100
AcDbLine
 10
-213.996519
 20
-86.173626
 30
0.0
 11
-214.162205
 21
-83.012146
 31
0.0
  0
ARC
  5
170
100
AcDbEntity
  8
0
370
    -3
  6
Continuous
100
AcDbCircle
 10
-215.160834
 20
-83.064482
 30
0.0
 40
1.0
100
AcDbArc
 50
3.0
 51
177.0
  0
LINE
  5
171
100
AcDbEntity
  8
0
370
    -3
  6
Continuous
100
AcDbLine
 10
-210.462193
 20
-169.155847
 30
0.0
 11
-199.319721
 21
-179.188574
 31
0.0
  0
ARC
  5
172
100
AcDbEntity
  8
0
370
    -3
  6
Continuous
100
AcDbCircle
 10
-217.215271
 20
-84.050833
 30
0.0
 40
1.0
100
AcDbArc
 50
246.36857
 51
357.0
  0
LINE
  5
173
100
AcDbEntity
  8
0
370
    -3
  6
Continuous
100
AcDbLine
 10
-216.216642
 20
-84.103169
 30
0.0
 11
-216.159464
 21
-83.012146
 31
0.0
  0
LINE
  5
174
100
AcDbEntity
  8
0
370
    -3
  6
Continuous
100
AcDbLine
 10
-202.569469
 20
-161.263124
 30
0.0
 11
-192.536742
 21
-172.405596
 31
0.0
  0
ARC
  5
175
100
AcDbEntity
  8
0
370
    -3
  6
Continuous
100
AcDbCircle
 10
-238.660834
 20
-133.064482
 30
0.0
 40
52.5
100
AcDbArc
 50
336.336295
 51
336.863111
  0
ARC
  5
176
100
AcDbEntity
  8
0
370
    -3
  6
Continuous
100
AcDbCircle
 10
-194.577002
 20
-163.37728
 30
0.0
 40
1.0
100
AcDbArc
 50
93.0
 51
142.214197
  0
LINE
  5
177
100
AcDbEntity
  8
0
370
    -3
  6
Continuous
100
AcDbLine
 10
-257.410834
 20
-186.564482
 30
0.0
 11
-219.910834
 21
-186.564482
 31
0.0
  0
ARC
  5
178
100
AcDbEntity
  8
0
370
    -3
  6
Continuous
100
AcDbCircle
 10
-194.511184
 20
-163.281337
 30
0.0
 40
1.0
100
AcDbArc
 50
148.884247
 51
267.0
  0
ARC
  5
179
100
AcDbEntity
  8
0
370
    -3
  6
Continuous
100
AcDbCircle
 10
-187.682898
 20
-147.564482
 30
0.0
 40
0.5
100
AcDbArc
 50
90.0
 51
164.122298
  0
LINE
  5
17A
100
AcDbEntity
  8
0
370
    -3
  6
Continuous
100
AcDbLine
 10
-187.580918
 20
-147.064482
 30
0.0
 11
-187.682898
 21
-147.064482
 31
0.0
  0
ARC
  5
17B
100
AcDbEntity
  8
0
370
    -3
  6
Continuous
100
AcDbCircle
 10
-187.580918
 20
-146.564482
 30
0.0
 40
0.5
100
AcDbArc
 50
270.0
 51
352.20215
  0
ARC
  5
17C
100
AcDbEntity
  8
0
370
    -3
  6
Continuous
100
AcDbCircle
 10
-286.160834
 20
-133.064482
 30
0.0
 40
100.0
100
AcDbArc
 50
352.20215
 51
0.0
  0
ARC
  5
17D
100
AcDbEntity
  8
0
370
    -3
  6
Continuous
100
AcDbCircle
 10
-238.660834
 20
-133.064482
 30
0.0
 40
52.5
100
AcDbArc
 50
341.335429
 51
344.122298
  0
ARC
  5
17E
100
AcDbEntity
  8
0
370
    -3
  6
Continuous
100
AcDbCircle
 10
-238.660834
 20
-133.064482
 30
0.0
 40
52.5
100
AcDbArc
 50
331.026551
 51
331.437166
  0
ARC
  5
17F
100
AcDbEntity
  8
0
370
    -3
  6
Continuous
100
AcDbCircle
 10
-188.660834
 20
-156.564482
 30
0.0
 40
1.0
100
AcDbArc
 50
273.0
 51
87.0
  0
ARC
  5
180
100
AcDbEntity
  8
0
370
    -3
  6
Continuous
100
AcDbCircle
 10
-191.81056
 20
-158.896667
 30
0.0
 40
1.0
100
AcDbArc
 50
151.128648
 51
267.0
  0
LINE
  5
181
100
AcDbEntity
  8
0
370
    -3
  6
Continuous
100
AcDbLine
 10
-191.769979
 20
-157.728798
 30
0.0
 11
-188.608498
 21
-157.563112
 31
0.0
  0
ARC
  5
182
100
AcDbEntity
  8
0
370
    -3
  6
Continuous
100
AcDbCircle
 10
-191.717643
 20
-158.727427
 30
0.0
 40
1.0
100
AcDbArc
 50
93.0
 51
151.335416
  0
ARC
  5
183
100
AcDbEntity
  8
0
370
    -3
  6
Continuous
100
AcDbCircle
 10
-189.647185
 20
-154.510045
 30
0.0
 40
1.0
100
AcDbArc
 50
156.36857
 51
267.0
  0
ARC
  5
184
100
AcDbEntity
  8
0
370
    -3
  6
Continuous
100
AcDbCircle
 10
-187.974488
 20
-150.185938
 30
0.0
 40
1.0
100
AcDbArc
 50
161.335429
 51
249.929668
  0
ARC
  5
185
100
AcDbEntity
  8
0
370
    -3
  6
Continuous
100
AcDbCircle
 10
-189.47402
 20
-154.109844
 30
0.0
 40
1.0
100
AcDbArc
 50
93.0
 51
156.835568
  0
LINE
  5
186
100
AcDbEntity
  8
0
370
    -3
  6
Continuous
100
AcDbLine
 10
-189.526356
 20
-153.111214
 30
0.0
 11
-188.608498
 21
-153.063112
 31
0.0
  0
ARC
  5
187
100
AcDbEntity
  8
0
370
    -3
  6
Continuous
100
AcDbCircle
 10
-188.660834
 20
-152.064482
 30
0.0
 40
1.0
100
AcDbArc
 50
273.0
 51
69.929668
  0
LINE
  5
188
100
AcDbEntity
  8
0
370
    -3
  6
Continuous
100
AcDbLine
 10
-189.699521
 20
-155.508674
 30
0.0
 11
-188.608498
 21
-155.565853
 31
0.0
  0
ARC
  5
189
100
AcDbEntity
  8
0
370
    -3
  6
Continuous
100
AcDbCircle
 10
-188.660834
 20
-161.064482
 30
0.0
 40
1.0
100
AcDbArc
 50
273.0
 51
87.0
  0
LINE
  5
18A
100
AcDbEntity
  8
0
370
    -3
  6
Continuous
100
AcDbLine
 10
-191.862896
 20
-159.895297
 30
0.0
 11
-188.608498
 21
-160.065853
 31
0.0
  0
ARC
  5
18B
100
AcDbEntity
  8
0
370
    -3
  6
Continuous
100
AcDbCircle
 10
-189.160834
 20
-165.564482
 30
0.0
 40
1.0
100
AcDbArc
 50
273.0
 51
87.0
  0
LINE
  5
18C
100
AcDbEntity
  8
0
370
    -3
  6
Continuous
100
AcDbLine
 10
-194.56352
 20
-164.279967
 30
0.0
 11
-189.108498
 21
-164.565853
 31
0.0
  0
LINE
  5
18D
100
AcDbEntity
  8
0
370
    -3
  6
Continuous
100
AcDbLine
 10
-194.629338
 20
-162.37865
 30
0.0
 11
-188.608498
 21
-162.063112
 31
0.0
  0
LINE
  5
18E
100
AcDbEntity
  8
0
370
    -3
  6
Continuous
100
AcDbLine
 10
-219.360834
 20
-186.564482
 30
0.0
 11
-238.660834
 21
-186.564482
 31
0.0
  0
ARC
  5
18F
100
AcDbEntity
  8
0
370
    -3
  6
Continuous
100
AcDbCircle
 10
-219.360834
 20
-185.864482
 30
0.0
 40
0.7
100
AcDbArc
 50
270.0
 51
0.0
  0
LINE
  5
190
100
AcDbEntity
  8
0
370
    -3
  6
Continuous
100
AcDbLine
 10
-218.660834
 20
-185.864482
 30
0.0
 11
-218.660834
 21
-182.270681
 31
0.0
  0
ARC
  5
191
100
AcDbEntity
  8
0
370
    -3
  6
Continuous
100
AcDbCircle
 10
-238.660834
 20
-133.064482
 30
0.0
 40
52.5
100
AcDbArc
 50
293.111602
 51
293.695081
  0
ARC
  5
192
100
AcDbEntity
  8
0
370
    -3
  6
Continuous
100
AcDbCircle
 10
-217.660834
 20
-182.270681
 30
0.0
 40
1.0
100
AcDbArc
 50
113.111602
 51
180.0
  0
ARC
  5
193
100
AcDbEntity
  8
0
370
    -3
  6
Continuous
100
AcDbCircle
 10
-238.660834
 20
-133.064482
 30
0.0
 40
52.5
100
AcDbArc
 50
293.111602
 51
293.663705
  0
ARC
  5
194
100
AcDbEntity
  8
0
370
    -3
  6
Continuous
100
AcDbCircle
 10
-238.660834
 20
-133.064482
 30
0.0
 40
52.5
100
AcDbArc
 50
298.562834
 51
298.973449
  0
ARC
  5
195
100
AcDbEntity
  8
0
370
    -3
  6
Continuous
100
AcDbCircle
 10
-238.660834
 20
-133.064482
 30
0.0
 40
52.5
100
AcDbArc
 50
298.562834
 51
298.973449
  0
ARC
  5
196
100
AcDbEntity
  8
0
370
    -3
  6
Continuous
100
AcDbCircle
 10
-206.160834
 20
-182.564482
 30
0.0
 40
1.0
100
AcDbArc
 50
183.0
 51
357.0
  0
ARC
  5
197
100
AcDbEntity
  8
0
370
    -3
  6
Continuous
100
AcDbCircle
 10
-210.660834
 20
-183.064482
 30
0.0
 40
1.0
100
AcDbArc
 50
183.0
 51
357.0
  0
LINE
  5
198
100
AcDbEntity
  8
0
370
    -3
  6
Continuous
100
AcDbLine
 10
-207.445349
 20
-177.161797
 30
0.0
 11
-207.159464
 21
-182.616818
 31
0.0
  0
LINE
  5
199
100
AcDbEntity
  8
0
370
    -3
  6
Continuous
100
AcDbLine
 10
-209.346666
 20
-177.095979
 30
0.0
 11
-209.662205
 21
-183.116818
 31
0.0
  0
LINE
  5
19A
100
AcDbEntity
  8
0
370
    -3
  6
Continuous
100
AcDbLine
 10
-211.83002
 20
-179.862421
 30
0.0
 11
-211.659464
 21
-183.116818
 31
0.0
  0
ARC
  5
19B
100
AcDbEntity
  8
0
370
    -3
  6
Continuous
100
AcDbCircle
 10
-212.828649
 20
-179.914756
 30
0.0
 40
1.0
100
AcDbArc
 50
3.0
 51
118.871352
  0
LINE
  5
19C
100
AcDbEntity
  8
0
370
    -3
  6
Continuous
100
AcDbLine
 10
-213.996519
 20
-179.955338
 30
0.0
 11
-214.162205
 21
-183.116818
 31
0.0
  0
ARC
  5
19D
100
AcDbEntity
  8
0
370
    -3
  6
Continuous
100
AcDbCircle
 10
-212.997889
 20
-180.007674
 30
0.0
 40
1.0
100
AcDbArc
 50
118.664584
 51
177.0
  0
ARC
  5
19E
100
AcDbEntity
  8
0
370
    -3
  6
Continuous
100
AcDbCircle
 10
-215.160834
 20
-183.064482
 30
0.0
 40
1.0
100
AcDbArc
 50
183.0
 51
357.0
  0
ARC
  5
19F
100
AcDbEntity
  8
0
370
    -3
  6
Continuous
100
AcDbCircle
 10
-217.215271
 20
-182.078132
 30
0.0
 40
1.0
100
AcDbArc
 50
3.0
 51
113.63143
  0
LINE
  5
1A0
100
AcDbEntity
  8
0
370
    -3
  6
Continuous
100
AcDbLine
 10
-216.216642
 20
-182.025796
 30
0.0
 11
-216.159464
 21
-183.116818
 31
0.0
  0
ARC
  5
1A1
100
AcDbEntity
  8
0
370
    -3
  6
Continuous
100
AcDbCircle
 10
-208.443979
 20
-177.214133
 30
0.0
 40
1.0
100
AcDbArc
 50
3.0
 51
124.388476
  0
ARC
  5
1A2
100
AcDbEntity
  8
0
370
    -3
  6
Continuous
100
AcDbCircle
 10
-208.348036
 20
-177.148315
 30
0.0
 40
1.0
100
AcDbArc
 50
124.513079
 51
177.0
  0
ARC
  5
1A3
100
AcDbEntity
  8
0
370
    -3
  6
Continuous
100
AcDbCircle
 10
-193.279887
 20
-173.074726
 30
0.0
 40
1.0
100
AcDbArc
 50
318.598894
 51
42.0
  0
LINE
  5
1A4
100
AcDbEntity
  8
0
370
    -3
  6
Continuous
100
AcDbLine
 10
-195.312134
 20
-166.88823
 30
0.0
 11
-189.108498
 21
-166.563112
 31
0.0
  0
ARC
  5
1A5
100
AcDbEntity
  8
0
370
    -3
  6
Continuous
100
AcDbCircle
 10
-195.259798
 20
-167.88686
 30
0.0
 40
1.0
100
AcDbArc
 50
93.0
 51
222.0
  0
ARC
  5
1A6
100
AcDbEntity
  8
0
370
    -3
  6
Continuous
100
AcDbCircle
 10
-198.65059
 20
-178.445429
 30
0.0
 40
1.0
100
AcDbArc
 50
228.0
 51
311.401106
  0
ARC
  5
1A7
100
AcDbEntity
  8
0
370
    -3
  6
Continuous
100
AcDbCircle
 10
-238.660834
 20
-133.064482
 30
0.0
 40
61.5
100
AcDbArc
 50
311.401106
 51
318.598894
  0
LINE
  5
1A8
100
AcDbEntity
  8
0
370
    -3
  6
Continuous
100
AcDbLine
 10
-204.837086
 20
-176.413183
 30
0.0
 11
-205.162205
 21
-182.616818
 31
0.0
  0
ARC
  5
1A9
100
AcDbEntity
  8
0
370
    -3
  6
Continuous
100
AcDbCircle
 10
-203.838457
 20
-176.465519
 30
0.0
 40
1.0
100
AcDbArc
 50
48.0
 51
177.0
  0
LINE
  5
1AA
100
AcDbEntity
  8
0
370
    -3
  6
Continuous
100
AcDbLine
 10
-266.859476
 20
-169.155847
 30
0.0
 11
-278.001948
 21
-179.188574
 31
0.0
  0
LINE
  5
1AB
100
AcDbEntity
  8
0
370
    -3
  6
Continuous
100
AcDbLine
 10
-274.752199
 20
-161.263124
 30
0.0
 11
-284.784926
 21
-172.405596
 31
0.0
  0
ARC
  5
1AC
100
AcDbEntity
  8
0
370
    -3
  6
Continuous
100
AcDbCircle
 10
-238.660834
 20
-133.064482
 30
0.0
 40
52.5
100
AcDbArc
 50
203.136889
 51
203.663705
  0
ARC
  5
1AD
100
AcDbEntity
  8
0
370
    -3
  6
Continuous
100
AcDbCircle
 10
-282.744667
 20
-163.37728
 30
0.0
 40
1.0
100
AcDbArc
 50
37.785803
 51
87.0
  0
ARC
  5
1AE
100
AcDbEntity
  8
0
370
    -3
  6
Continuous
100
AcDbCircle
 10
-282.810485
 20
-163.281337
 30
0.0
 40
1.0
100
AcDbArc
 50
273.0
 51
31.115753
  0
ARC
  5
1AF
100
AcDbEntity
  8
0
370
    -3
  6
Continuous
100
AcDbCircle
 10
-289.638771
 20
-147.564482
 30
0.0
 40
0.5
100
AcDbArc
 50
15.877702
 51
90.0
  0
LINE
  5
1B0
100
AcDbEntity
  8
0
370
    -3
  6
Continuous
100
AcDbLine
 10
-289.740751
 20
-147.064482
 30
0.0
 11
-289.638771
 21
-147.064482
 31
0.0
  0
ARC
  5
1B1
100
AcDbEntity
  8
0
370
    -3
  6
Continuous
100
AcDbCircle
 10
-289.740751
 20
-146.564482
 30
0.0
 40
0.5
100
AcDbArc
 50
187.79785
 51
270.0
  0
ARC
  5
1B2
100
AcDbEntity
  8
0
370
    -3
  6
Continuous
100
AcDbCircle
 10
-191.160834
 20
-133.064482
 30
0.0
 40
100.0
100
AcDbArc
 50
180.0
 51
187.79785
  0
ARC
  5
1B3
100
AcDbEntity
  8
0
370
    -3
  6
Continuous
100
AcDbCircle
 10
-238.660834
 20
-133.064482
 30
0.0
 40
52.5
100
AcDbArc
 50
195.877702
 51
198.664571
  0
ARC
  5
1B4
100
AcDbEntity
  8
0
370
    -3
  6
Continuous
100
AcDbCircle
 10
-238.660834
 20
-133.064482
 30
0.0
 40
52.5
100
AcDbArc
 50
208.562834
 51
208.973449
  0
ARC
  5
1B5
100
AcDbEntity
  8
0
370
    -3
  6
Continuous
100
AcDbCircle
 10
-288.660834
 20
-156.564482
 30
0.0
 40
1.0
100
AcDbArc
 50
93.0
 51
267.0
  0
ARC
  5
1B6
100
AcDbEntity
  8
0
370
    -3
  6
Continuous
100
AcDbCircle
 10
-285.511109
 20
-158.896667
 30
0.0
 40
1.0
100
AcDbArc
 50
273.0
 51
28.871352
  0
LINE
  5
1B7
100
AcDbEntity
  8
0
370
    -3
  6
Continuous
100
AcDbLine
 10
-285.55169
 20
-157.728798
 30
0.0
 11
-288.71317
 21
-157.563112
 31
0.0
  0
ARC
  5
1B8
100
AcDbEntity
  8
0
370
    -3
  6
Continuous
100
AcDbCircle
 10
-285.604026
 20
-158.727427
 30
0.0
 40
1.0
100
AcDbArc
 50
28.664584
 51
87.0
  0
ARC
  5
1B9
100
AcDbEntity
  8
0
370
    -3
  6
Continuous
100
AcDbCircle
 10
-287.674484
 20
-154.510045
 30
0.0
 40
1.0
100
AcDbArc
 50
273.0
 51
23.63143
  0
ARC
  5
1BA
100
AcDbEntity
  8
0
370
    -3
  6
Continuous
100
AcDbCircle
 10
-289.347181
 20
-150.185938
 30
0.0
 40
1.0
100
AcDbArc
 50
290.070332
 51
18.664571
  0
ARC
  5
1BB
100
AcDbEntity
  8
0
370
    -3
  6
Continuous
100
AcDbCircle
 10
-287.847649
 20
-154.109844
 30
0.0
 40
1.0
100
AcDbArc
 50
23.164432
 51
87.0
  0
LINE
  5
1BC
100
AcDbEntity
  8
0
370
    -3
  6
Continuous
100
AcDbLine
 10
-287.795313
 20
-153.111214
 30
0.0
 11
-288.71317
 21
-153.063112
 31
0.0
  0
ARC
  5
1BD
100
AcDbEntity
  8
0
370
    -3
  6
Continuous
100
AcDbCircle
 10
-288.660834
 20
-152.064482
 30
0.0
 40
1.0
100
AcDbArc
 50
110.070332
 51
267.0
  0
LINE
  5
1BE
100
AcDbEntity
  8
0
370
    -3
  6
Continuous
100
AcDbLine
 10
-287.622148
 20
-155.508674
 30
0.0
 11
-288.71317
 21
-155.565853
 31
0.0
  0
ARC
  5
1BF
100
AcDbEntity
  8
0
370
    -3
  6
Continuous
100
AcDbCircle
 10
-288.660834
 20
-161.064482
 30
0.0
 40
1.0
100
AcDbArc
 50
93.0
 51
267.0
  0
LINE
  5
1C0
100
AcDbEntity
  8
0
370
    -3
  6
Continuous
100
AcDbLine
 10
-285.458773
 20
-159.895297
 30
0.0
 11
-288.71317
 21
-160.065853
 31
0.0
  0
ARC
  5
1C1
100
AcDbEntity
  8
0
370
    -3
  6
Continuous
100
AcDbCircle
 10
-288.160834
 20
-165.564482
 30
0.0
 40
1.0
100
AcDbArc
 50
93.0
 51
267.0
  0
LINE
  5
1C2
100
AcDbEntity
  8
0
370
    -3
  6
Continuous
100
AcDbLine
 10
-282.758149
 20
-164.279967
 30
0.0
 11
-288.21317
 21
-164.565853
 31
0.0
  0
LINE
  5
1C3
100
AcDbEntity
  8
0
370
    -3
  6
Continuous
100
AcDbLine
 10
-282.692331
 20
-162.37865
 30
0.0
 11
-288.71317
 21
-162.063112
 31
0.0
  0
LINE
  5
1C4
100
AcDbEntity
  8
0
370
    -3
  6
Continuous
100
AcDbLine
 10
-257.960834
 20
-186.564482
 30
0.0
 11
-238.660834
 21
-186.564482
 31
0.0
  0
ARC
  5
1C5
100
AcDbEntity
  8
0
370
    -3
  6
Continuous
100
AcDbCircle
 10
-257.960834
 20
-185.864482
 30
0.0
 40
0.7
100
AcDbArc
 50
180.0
 51
270.0
  0
LINE
  5
1C6
100
AcDbEntity
  8
0
370
    -3
  6
Continuous
100
AcDbLine
 10
-258.660834
 20
-185.864482
 30
0.0
 11
-258.660834
 21
-182.270681
 31
0.0
  0
ARC
  5
1C7
100
AcDbEntity
  8
0
370
    -3
  6
Continuous
100
AcDbCircle
 10
-238.660834
 20
-133.064482
 30
0.0
 40
52.5
100
AcDbArc
 50
246.304919
 51
246.888398
  0
ARC
  5
1C8
100
AcDbEntity
  8
0
370
    -3
  6
Continuous
100
AcDbCircle
 10
-259.660834
 20
-182.270681
 30
0.0
 40
1.0
100
AcDbArc
 50
0.0
 51
66.888398
  0
ARC
  5
1C9
100
AcDbEntity
  8
0
370
    -3
  6
Continuous
100
AcDbCircle
 10
-238.660834
 20
-133.064482
 30
0.0
 40
52.5
100
AcDbArc
 50
246.336295
 51
246.888398
  0
ARC
  5
1CA
100
AcDbEntity
  8
0
370
    -3
  6
Continuous
100
AcDbCircle
 10
-238.660834
 20
-133.064482
 30
0.0
 40
52.5
100
AcDbArc
 50
241.026551
 51
241.437166
  0
ARC
  5
1CB
100
AcDbEntity
  8
0
370
    -3
  6
Continuous
100
AcDbCircle
 10
-238.660834
 20
-133.064482
 30
0.0
 40
52.5
100
AcDbArc
 50
241.026551
 51
241.437166
  0
ARC
  5
1CC
100
AcDbEntity
  8
0
370
    -3
  6
Continuous
100
AcDbCircle
 10
-271.160834
 20
-182.564482
 30
0.0
 40
1.0
100
AcDbArc
 50
183.0
 51
357.0
  0
ARC
  5
1CD
100
AcDbEntity
  8
0
370
    -3
  6
Continuous
100
AcDbCircle
 10
-266.660834
 20
-183.064482
 30
0.0
 40
1.0
100
AcDbArc
 50
183.0
 51
357.0
  0
LINE
  5
1CE
100
AcDbEntity
  8
0
370
    -3
  6
Continuous
100
AcDbLine
 10
-269.876319
 20
-177.161797
 30
0.0
 11
-270.162205
 21
-182.616818
 31
0.0
  0
LINE
  5
1CF
100
AcDbEntity
  8
0
370
    -3
  6
Continuous
100
AcDbLine
 10
-267.975003
 20
-177.095979
 30
0.0
 11
-267.659464
 21
-183.116818
 31
0.0
  0
LINE
  5
1D0
100
AcDbEntity
  8
0
370
    -3
  6
Continuous
100
AcDbLine
 10
-265.491649
 20
-179.862421
 30
0.0
 11
-265.662205
 21
-183.116818
 31
0.0
  0
ARC
  5
1D1
100
AcDbEntity
  8
0
370
    -3
  6
Continuous
100
AcDbCircle
 10
-264.49302
 20
-179.914756
 30
0.0
 40
1.0
100
AcDbArc
 50
61.128648
 51
177.0
  0
LINE
  5
1D2
100
AcDbEntity
  8
0
370
    -3
  6
Continuous
100
AcDbLine
 10
-263.32515
 20
-179.955338
 30
0.0
 11
-263.159464
 21
-183.116818
 31
0.0
  0
ARC
  5
1D3
100
AcDbEntity
  8
0
370
    -3
  6
Continuous
100
AcDbCircle
 10
-264.32378
 20
-180.007674
 30
0.0
 40
1.0
100
AcDbArc
 50
3.0
 51
61.335416
  0
ARC
  5
1D4
100
AcDbEntity
  8
0
370
    -3
  6
Continuous
100
AcDbCircle
 10
-262.160834
 20
-183.064482
 30
0.0
 40
1.0
100
AcDbArc
 50
183.0
 51
357.0
  0
ARC
  5
1D5
100
AcDbEntity
  8
0
370
    -3
  6
Continuous
100
AcDbCircle
 10
-260.106397
 20
-182.078132
 30
0.0
 40
1.0
100
AcDbArc
 50
66.36857
 51
177.0
  0
LINE
  5
1D6
100
AcDbEntity
  8
0
370
    -3
  6
Continuous
100
AcDbLine
 10
-261.105027
 20
-182.025796
 30
0.0
 11
-261.162205
 21
-183.116818
 31
0.0
  0
ARC
  5
1D7
100
AcDbEntity
  8
0
370
    -3
  6
Continuous
100
AcDbCircle
 10
-268.87769
 20
-177.214133
 30
0.0
 40
1.0
100
AcDbArc
 50
55.611524
 51
177.0
  0
ARC
  5
1D8
100
AcDbEntity
  8
0
370
    -3
  6
Continuous
100
AcDbCircle
 10
-268.973632
 20
-177.148315
 30
0.0
 40
1.0
100
AcDbArc
 50
3.0
 51
55.486921
  0
ARC
  5
1D9
100
AcDbEntity
  8
0
370
    -3
  6
Continuous
100
AcDbCircle
 10
-284.041781
 20
-173.074726
 30
0.0
 40
1.0
100
AcDbArc
 50
138.0
 51
221.401106
  0
LINE
  5
1DA
100
AcDbEntity
  8
0
370
    -3
  6
Continuous
100
AcDbLine
 10
-282.009535
 20
-166.88823
 30
0.0
 11
-288.21317
 21
-166.563112
 31
0.0
  0
ARC
  5
1DB
100
AcDbEntity
  8
0
370
    -3
  6
Continuous
100
AcDbCircle
 10
-282.061871
 20
-167.88686
 30
0.0
 40
1.0
100
AcDbArc
 50
318.0
 51
87.0
  0
ARC
  5
1DC
100
AcDbEntity
  8
0
370
    -3
  6
Continuous
100
AcDbCircle
 10
-278.671079
 20
-178.445429
 30
0.0
 40
1.0
100
AcDbArc
 50
228.598894
 51
312.0
  0
ARC
  5
1DD
100
AcDbEntity
  8
0
370
    -3
  6
Continuous
100
AcDbCircle
 10
-238.660834
 20
-133.064482
 30
0.0
 40
61.5
100
AcDbArc
 50
221.401106
 51
228.598894
  0
LINE
  5
1DE
100
AcDbEntity
  8
0
370
    -3
  6
Continuous
100
AcDbLine
 10
-272.484583
 20
-176.413183
 30
0.0
 11
-272.159464
 21
-182.616818
 31
0.0
  0
ARC
  5
1DF
100
AcDbEntity
  8
0
370
    -3
  6
Continuous
100
AcDbCircle
 10
-273.483212
 20
-176.465519
 30
0.0
 40
1.0
100
AcDbArc
 50
3.0
 51
132.0
  0
ARC
  5
1E0
100
AcDbEntity
  8
0
370
    -3
  6
Continuous
100
AcDbCircle
 10
-191.160834
 20
-133.064482
 30
0.0
 40
100.0
100
AcDbArc
 50
172.20215
 51
180.0
  0
ARC
  5
1E1
100
AcDbEntity
  8
0
370
    -3
  6
Continuous
100
AcDbCircle
 10
-286.160834
 20
-133.064482
 30
0.0
 40
100.0
100
AcDbArc
 50
0.0
 51
7.79785
  0
LINE
  5
1E2
100
AcDbEntity
  8
0
370
    -3
  6
Continuous
100
AcDbLine
 10
-266.859476
 20
-96.973117
 30
0.0
 11
-278.001948
 21
-86.94039
 31
0.0
  0
LINE
  5
1E3
100
AcDbEntity
  8
0
370
    -3
  6
Continuous
100
AcDbLine
 10
-274.752199
 20
-104.865841
 30
0.0
 11
-284.784926
 21
-93.723368
 31
0.0
  0
ARC
  5
1E4
100
AcDbEntity
  8
0
370
    -3
  6
Continuous
100
AcDbCircle
 10
-238.660834
 20
-133.064482
 30
0.0
 40
52.5
100
AcDbArc
 50
156.336295
 51
156.863111
  0
ARC
  5
1E5
100
AcDbEntity
  8
0
370
    -3
  6
Continuous
100
AcDbCircle
 10
-282.744667
 20
-102.751684
 30
0.0
 40
1.0
100
AcDbArc
 50
273.0
 51
322.214197
  0
ARC
  5
1E6
100
AcDbEntity
  8
0
370
    -3
  6
Continuous
100
AcDbCircle
 10
-282.810485
 20
-102.847627
 30
0.0
 40
1.0
100
AcDbArc
 50
328.884247
 51
87.0
  0
ARC
  5
1E7
100
AcDbEntity
  8
0
370
    -3
  6
Continuous
100
AcDbCircle
 10
-289.638771
 20
-118.564482
 30
0.0
 40
0.5
100
AcDbArc
 50
270.0
 51
344.122298
  0
LINE
  5
1E8
100
AcDbEntity
  8
0
370
    -3
  6
Continuous
100
AcDbLine
 10
-289.740751
 20
-119.064482
 30
0.0
 11
-289.638771
 21
-119.064482
 31
0.0
  0
ARC
  5
1E9
100
AcDbEntity
  8
0
370
    -3
  6
Continuous
100
AcDbCircle
 10
-289.740751
 20
-119.564482
 30
0.0
 40
0.5
100
AcDbArc
 50
90.0
 51
172.20215
  0
ARC
  5
1EA
100
AcDbEntity
  8
0
370
    -3
  6
Continuous
100
AcDbCircle
 10
-238.660834
 20
-133.064482
 30
0.0
 40
52.5
100
AcDbArc
 50
161.335429
 51
164.122298
  0
ARC
  5
1EB
100
AcDbEntity
  8
0
370
    -3
  6
Continuous
100
AcDbCircle
 10
-238.660834
 20
-133.064482
 30
0.0
 40
52.5
100
AcDbArc
 50
151.026551
 51
151.437166
  0
ARC
  5
1EC
100
AcDbEntity
  8
0
370
    -3
  6
Continuous
100
AcDbCircle
 10
-266.160834
 20
-105.564482
 30
0.0
 40
25.0
100
AcDbArc
 50
95.730175
 51
174.269825
  0
ARC
  5
1ED
100
AcDbEntity
  8
0
370
    -3
  6
Continuous
100
AcDbCircle
 10
-258.660834
 20
-480.564482
 30
0.0
 40
400.0
100
AcDbArc
 50
90.954239
 51
91.431984
  0
ARC
  5
1EE
100
AcDbEntity
  8
0
370
    -3
  6
Continuous
100
AcDbCircle
 10
-218.660834
 20
-480.564482
 30
0.0
 40
400.0
100
AcDbArc
 50
88.568016
 51
89.045761
  0
ARC
  5
1EF
100
AcDbEntity
  8
0
370
    -3
  6
Continuous
100
AcDbCircle
 10
-211.160834
 20
-105.564482
 30
0.0
 40
25.0
100
AcDbArc
 50
5.730175
 51
84.269825
  0
ARC
  5
1F0
100
AcDbEntity
  8
0
370
    -3
  6
Continuous
100
AcDbCircle
 10
-185.660834
 20
-112.564482
 30
0.0
 40
0.5
100
AcDbArc
 50
180.0
 51
270.0
  0
ARC
  5
1F1
100
AcDbEntity
  8
0
370
    -3
  6
Continuous
100
AcDbCircle
 10
-185.660834
 20
-113.564482
 30
0.0
 40
0.5
100
AcDbArc
 50
0.0
 51
90.0
  0
LINE
  5
1F2
100
AcDbEntity
  8
0
370
    -3
  6
Continuous
100
AcDbLine
 10
-185.160834
 20
-113.564482
 30
0.0
 11
-185.160834
 21
-152.564482
 31
0.0
  0
ARC
  5
1F3
100
AcDbEntity
  8
0
370
    -3
  6
Continuous
100
AcDbCircle
 10
-586.160834
 20
-113.064482
 30
0.0
 40
400.0
100
AcDbArc
 50
0.07153
 51
1.431984
  0
ARC
  5
1F4
100
AcDbEntity
  8
0
370
    -3
  6
Continuous
100
AcDbCircle
 10
-586.160834
 20
-153.064482
 30
0.0
 40
400.0
100
AcDbArc
 50
359.140459
 51
359.92847
  0
ARC
  5
1F5
100
AcDbEntity
  8
0
370
    -3
  6
Continuous
100
AcDbCircle
 10
-185.660834
 20
-153.564482
 30
0.0
 40
0.5
100
AcDbArc
 50
90.0
 51
180.0
  0
ARC
  5
1F6
100
AcDbEntity
  8
0
370
    -3
  6
Continuous
100
AcDbCircle
 10
-185.660834
 20
-152.564482
 30
0.0
 40
0.5
100
AcDbArc
 50
270.0
 51
0.0
  0
ARC
  5
1F7
100
AcDbEntity
  8
0
370
    -3
  6
Continuous
100
AcDbCircle
 10
-211.160834
 20
-160.564482
 30
0.0
 40
25.0
100
AcDbArc
 50
275.730175
 51
3.43865
  0
LINE
  5
1F8
100
AcDbEntity
  8
0
370
    -3
  6
Continuous
100
AcDbLine
 10
-219.160834
 20
-186.564482
 30
0.0
 11
-258.160834
 21
-186.564482
 31
0.0
  0
ARC
  5
1F9
100
AcDbEntity
  8
0
370
    -3
  6
Continuous
100
AcDbCircle
 10
-219.160834
 20
-186.064482
 30
0.0
 40
0.5
100
AcDbArc
 50
270.0
 51
0.0
  0
ARC
  5
1FA
100
AcDbEntity
  8
0
370
    -3
  6
Continuous
100
AcDbCircle
 10
-218.160834
 20
-186.064482
 30
0.0
 40
0.5
100
AcDbArc
 50
90.0
 51
180.0
  0
ARC
  5
1FB
100
AcDbEntity
  8
0
370
    -3
  6
Continuous
100
AcDbCircle
 10
-218.660834
 20
214.435518
 30
0.0
 40
400.0
100
AcDbArc
 50
270.07153
 51
271.431984
  0
ARC
  5
1FC
100
AcDbEntity
  8
0
370
    -3
  6
Continuous
100
AcDbCircle
 10
-258.660834
 20
214.435518
 30
0.0
 40
400.0
100
AcDbArc
 50
269.140459
 51
269.92847
  0
ARC
  5
1FD
100
AcDbEntity
  8
0
370
    -3
  6
Continuous
100
AcDbCircle
 10
-258.160834
 20
-186.064482
 30
0.0
 40
0.5
100
AcDbArc
 50
180.0
 51
270.0
  0
ARC
  5
1FE
100
AcDbEntity
  8
0
370
    -3
  6
Continuous
100
AcDbCircle
 10
-259.160834
 20
-186.064482
 30
0.0
 40
0.5
100
AcDbArc
 50
0.0
 51
90.0
  0
ARC
  5
1FF
100
AcDbEntity
  8
0
370
    -3
  6
Continuous
100
AcDbCircle
 10
-266.160834
 20
-160.564482
 30
0.0
 40
25.0
100
AcDbArc
 50
185.730175
 51
273.43865
  0
ARC
  5
200
100
AcDbEntity
  8
0
370
    -3
  6
Continuous
100
AcDbCircle
 10
108.839166
 20
-153.064482
 30
0.0
 40
400.0
100
AcDbArc
 50
180.07153
 51
181.431984
  0
LINE
  5
201
100
AcDbEntity
  8
0
370
    -3
  6
Continuous
100
AcDbLine
 10
-292.160834
 20
-152.564482
 30
0.0
 11
-292.160834
 21
-113.564482
 31
0.0
  0
ARC
  5
202
100
AcDbEntity
  8
0
370
    -3
  6
Continuous
100
AcDbCircle
 10
-291.660834
 20
-153.564482
 30
0.0
 40
0.5
100
AcDbArc
 50
0.0
 51
90.0
  0
ARC
  5
203
100
AcDbEntity
  8
0
370
    -3
  6
Continuous
100
AcDbCircle
 10
-291.660834
 20
-152.564482
 30
0.0
 40
0.5
100
AcDbArc
 50
180.0
 51
270.0
  0
ARC
  5
204
100
AcDbEntity
  8
0
370
    -3
  6
Continuous
100
AcDbCircle
 10
108.839166
 20
-113.064482
 30
0.0
 40
400.0
100
AcDbArc
 50
178.568016
 51
179.947
  0
ARC
  5
205
100
AcDbEntity
  8
0
370
    -3
  6
Continuous
100
AcDbCircle
 10
-291.660834
 20
-112.564482
 30
0.0
 40
0.5
100
AcDbArc
 50
270.0
 51
0.0
  0
ARC
  5
206
100
AcDbEntity
  8
0
370
    -3
  6
Continuous
100
AcDbCircle
 10
-291.660834
 20
-113.564482
 30
0.0
 40
0.5
100
AcDbArc
 50
90.0
 51
180.0
  0
LINE
  5
207
100
AcDbEntity
  8
0
370
    -3
  6
Continuous
100
AcDbLine
 10
-191.860834
 20
-33.300141
 30
0.0
 11
-180.660834
 21
-33.064847
 31
0.0
  0
ARC
  5
208
100
AcDbEntity
  8
0
370
    -3
  6
Continuous
100
AcDbCircle
 10
-238.660834
 20
-164.064482
 30
0.0
 40
74.0
100
AcDbArc
 50
135.189127
 51
162.497476
  0
ARC
  5
209
100
AcDbEntity
  8
0
370
    -3
  6
Continuous
100
AcDbCircle
 10
-238.660834
 20
-164.064482
 30
0.0
 40
35.0
100
AcDbArc
 50
217.747421
 51
322.252579
  0
ARC
  5
20A
100
AcDbEntity
  8
0
370
    -3
  6
Continuous
100
AcDbCircle
 10
-238.660834
 20
-164.064482
 30
0.0
 40
35.0
100
AcDbArc
 50
217.236316
 51
217.747421
  0
ARC
  5
20B
100
AcDbEntity
  8
0
370
    -3
  6
Continuous
100
AcDbCircle
 10
-238.660834
 20
-164.064482
 30
0.0
 40
35.0
100
AcDbArc
 50
322.252579
 51
322.763684
  0
ARC
  5
20C
100
AcDbEntity
  8
0
370
    -3
  6
Continuous
100
AcDbCircle
 10
-238.660834
 20
-164.064482
 30
0.0
 40
74.0
100
AcDbArc
 50
17.502524
 51
44.810873
  0
CIRCLE
  5
20D
100
AcDbEntity
  8
0
370
    -3
  6
Continuous
100
AcDbCircle
 10
-190.22402
 20
-212.501297
 30
0.0
 40
2.9
  0
CIRCLE
  5
20E
100
AcDbEntity
  8
0
370
    -3
  6
Continuous
100
AcDbCircle
 10
-287.097649
 20
-212.501297
 30
0.0
 40
2.9
  0
ARC
  5
20F
100
AcDbEntity
  8
0
370
    -3
  6
Continuous
100
AcDbCircle
 10
-213.160834
 20
-192.238051
 30
0.0
 40
3.0
100
AcDbArc
 50
132.148359
 51
180.0
  0
LINE
  5
210
100
AcDbEntity
  8
0
370
    -3
  6
Continuous
100
AcDbLine
 10
-216.160834
 20
-192.238051
 30
0.0
 11
-216.160834
 21
-221.064482
 31
0.0
  0
ARC
  5
211
100
AcDbEntity
  8
0
370
    -3
  6
Continuous
100
AcDbCircle
 10
-213.160834
 20
-221.064482
 30
0.0
 40
3.0
100
AcDbArc
 50
180.0
 51
270.0
  0
ARC
  5
212
100
AcDbEntity
  8
0
370
    -3
  6
Continuous
100
AcDbCircle
 10
-224.160834
 20
-199.18926
 30
0.0
 40
3.0
100
AcDbArc
 50
0.0
 51
112.431521
  0
LINE
  5
213
100
AcDbEntity
  8
0
370
    -3
  6
Continuous
100
AcDbLine
 10
-221.160834
 20
-199.18926
 30
0.0
 11
-221.160834
 21
-221.064482
 31
0.0
  0
ARC
  5
214
100
AcDbEntity
  8
0
370
    -3
  6
Continuous
100
AcDbCircle
 10
-264.160834
 20
-192.238051
 30
0.0
 40
3.0
100
AcDbArc
 50
0.0
 51
47.851641
  0
ARC
  5
215
100
AcDbEntity
  8
0
370
    -3
  6
Continuous
100
AcDbCircle
 10
-253.160834
 20
-199.18926
 30
0.0
 40
3.0
100
AcDbArc
 50
67.568479
 51
180.0
  0
LINE
  5
216
100
AcDbEntity
  8
0
370
    -3
  6
Continuous
100
AcDbLine
 10
-256.160834
 20
-199.18926
 30
0.0
 11
-256.160834
 21
-221.064482
 31
0.0
  0
ARC
  5
217
100
AcDbEntity
  8
0
370
    -3
  6
Continuous
100
AcDbCircle
 10
-224.160834
 20
-221.064482
 30
0.0
 40
3.0
100
AcDbArc
 50
270.0
 51
0.0
  0
ARC
  5
218
100
AcDbEntity
  8
0
370
    -3
  6
Continuous
100
AcDbCircle
 10
-222.420453
 20
-215.564482
 30
0.0
 40
20.0
100
AcDbArc
 50
270.0
 51
287.502524
  0
ARC
  5
219
100
AcDbEntity
  8
0
370
    -3
  6
Continuous
100
AcDbCircle
 10
-253.160834
 20
-221.064482
 30
0.0
 40
3.0
100
AcDbArc
 50
180.0
 51
270.0
  0
ARC
  5
21A
100
AcDbEntity
  8
0
370
    -3
  6
Continuous
100
AcDbCircle
 10
-264.160834
 20
-221.064482
 30
0.0
 40
3.0
100
AcDbArc
 50
270.0
 51
0.0
  0
ARC
  5
21B
100
AcDbEntity
  8
0
370
    -3
  6
Continuous
100
AcDbCircle
 10
-254.901216
 20
-215.564482
 30
0.0
 40
20.0
100
AcDbArc
 50
252.497476
 51
270.0
  0
LINE
  5
21C
100
AcDbEntity
  8
0
370
    -3
  6
Continuous
100
AcDbLine
 10
-254.901216
 20
-235.564482
 30
0.0
 11
-222.420453
 21
-235.564482
 31
0.0
  0
LINE
  5
21D
100
AcDbEntity
  8
0
370
    -3
  6
Continuous
100
AcDbLine
 10
-261.160834
 20
-192.238051
 30
0.0
 11
-261.160834
 21
-221.064482
 31
0.0
  0
ARC
  5
21E
100
AcDbEntity
  8
0
370
    -3
  6
Continuous
100
AcDbCircle
 10
-238.660834
 20
-164.064482
 30
0.0
 40
74.0
100
AcDbArc
 50
197.502524
 51
252.497476
  0
ARC
  5
21F
100
AcDbEntity
  8
0
370
    -3
  6
Continuous
100
AcDbCircle
 10
-290.160834
 20
-180.304864
 30
0.0
 40
20.0
100
AcDbArc
 50
180.0
 51
197.502524
  0
LINE
  5
220
100
AcDbEntity
  8
0
370
    -3
  6
Continuous
100
AcDbLine
 10
-310.160834
 20
-147.8241
 30
0.0
 11
-310.160834
 21
-180.304864
 31
0.0
  0
ARC
  5
221
100
AcDbEntity
  8
0
370
    -3
  6
Continuous
100
AcDbCircle
 10
-290.160834
 20
-147.8241
 30
0.0
 40
20.0
100
AcDbArc
 50
162.497476
 51
180.0
  0
ARC
  5
222
100
AcDbEntity
  8
0
370
    -3
  6
Continuous
100
AcDbCircle
 10
-238.660834
 20
-164.064482
 30
0.0
 40
74.0
100
AcDbArc
 50
287.502524
 51
342.497476
  0
ARC
  5
223
100
AcDbEntity
  8
0
370
    -3
  6
Continuous
100
AcDbCircle
 10
-187.160834
 20
-180.304864
 30
0.0
 40
20.0
100
AcDbArc
 50
342.497476
 51
0.0
  0
LINE
  5
224
100
AcDbEntity
  8
0
370
    -3
  6
Continuous
100
AcDbLine
 10
-167.160834
 20
-147.8241
 30
0.0
 11
-167.160834
 21
-180.304864
 31
0.0
  0
ARC
  5
225
100
AcDbEntity
  8
0
370
    -3
  6
Continuous
100
AcDbCircle
 10
-187.160834
 20
-147.8241
 30
0.0
 40
20.0
100
AcDbArc
 50
0.0
 51
17.502524
  0
LINE
  5
226
100
AcDbEntity
  8
0
370
    -3
  6
Continuous
100
AcDbLine
 10
-168.660834
 20
-188.064482
 30
0.0
 11
-168.660834
 21
-242.604786
 31
0.0
  0
LINE
  5
227
100
AcDbEntity
  8
0
370
    -3
  6
Continuous
100
AcDbLine
 10
-16.660859
 20
-114.664276
 30
0.0
 11
97.339141
 21
-114.664276
 31
0.0
  0
LINE
  5
228
100
AcDbEntity
  8
0
370
    -3
  6
Continuous
100
AcDbLine
 10
-16.660859
 20
-160.464688
 30
0.0
 11
88.839141
 21
-160.464688
 31
0.0
  0
LINE
  5
229
100
AcDbEntity
  8
0
370
    -3
  6
Continuous
100
AcDbLine
 10
-13.160859
 20
-157.164276
 30
0.0
 11
97.339141
 21
-157.164276
 31
0.0
  0
LINE
  5
22A
100
AcDbEntity
  8
0
370
    -3
  6
Continuous
100
AcDbLine
 10
-16.660859
 20
-92.632035
 30
0.0
 11
97.339141
 21
-92.632035
 31
0.0
  0
LINE
  5
22B
100
AcDbEntity
  8
0
370
    -3
  6
Continuous
100
AcDbLine
 10
-16.660859
 20
-85.737885
 30
0.0
 11
97.339141
 21
-85.737885
 31
0.0
  0
LINE
  5
22C
100
AcDbEntity
  8
0
370
    -3
  6
Continuous
100
AcDbLine
 10
-16.660859
 20
-82.064482
 30
0.0
 11
97.339141
 21
-82.064482
 31
0.0
  0
LINE
  5
22D
100
AcDbEntity
  8
0
370
    -3
  6
Continuous
100
AcDbLine
 10
-16.660859
 20
-82.564482
 30
0.0
 11
97.339141
 21
-82.564482
 31
0.0
  0
LINE
  5
22E
100
AcDbEntity
  8
0
370
    -3
  6
Continuous
100
AcDbLine
 10
-16.660859
 20
-99.964688
 30
0.0
 11
97.339141
 21
-99.964688
 31
0.0
  0
LINE
  5
22F
100
AcDbEntity
  8
0
370
    -3
  6
Continuous
100
AcDbLine
 10
-16.660859
 20
-101.164276
 30
0.0
 11
97.339141
 21
-101.164276
 31
0.0
  0
LINE
  5
230
100
AcDbEntity
  8
0
370
    -3
  6
Continuous
100
AcDbLine
 10
-16.660859
 20
-184.064482
 30
0.0
 11
97.339141
 21
-184.064482
 31
0.0
  0
LINE
  5
231
100
AcDbEntity
  8
0
370
    -3
  6
Continuous
100
AcDbLine
 10
-16.660859
 20
-183.564482
 30
0.0
 11
97.339141
 21
-183.564482
 31
0.0
  0
LINE
  5
232
100
AcDbEntity
  8
0
370
    -3
  6
Continuous
100
AcDbLine
 10
-16.660859
 20
-166.164276
 30
0.0
 11
97.339141
 21
-166.164276
 31
0.0
  0
LINE
  5
233
100
AcDbEntity
  8
0
370
    -3
  6
Continuous
100
AcDbLine
 10
-16.660859
 20
-164.964688
 30
0.0
 11
97.339141
 21
-164.964688
 31
0.0
  0
LINE
  5
234
100
AcDbEntity
  8
0
370
    -3
  6
Continuous
100
AcDbLine
 10
-16.660859
 20
-119.064482
 30
0.0
 11
97.339141
 21
-119.064482
 31
0.0
  0
LINE
  5
235
100
AcDbEntity
  8
0
370
    -3
  6
Continuous
100
AcDbLine
 10
-16.660859
 20
-152.678397
 30
0.0
 11
97.339141
 21
-152.678397
 31
0.0
  0
LINE
  5
236
100
AcDbEntity
  8
0
370
    -3
  6
Continuous
100
AcDbLine
 10
-16.660859
 20
-147.064482
 30
0.0
 11
97.339141
 21
-147.064482
 31
0.0
  0
LINE
  5
237
100
AcDbEntity
  8
0
370
    -3
  6
Continuous
100
AcDbLine
 10
-16.660859
 20
-151.457642
 30
0.0
 11
97.339141
 21
-151.457642
 31
0.0
  0
LINE
  5
238
100
AcDbEntity
  8
0
370
    -3
  6
Continuous
100
AcDbLine
 10
-16.660859
 20
-180.391079
 30
0.0
 11
97.339141
 21
-180.391079
 31
0.0
  0
LINE
  5
239
100
AcDbEntity
  8
0
370
    -3
  6
Continuous
100
AcDbLine
 10
-16.660859
 20
-173.496929
 30
0.0
 11
97.339141
 21
-173.496929
 31
0.0
  0
LINE
  5
23A
100
AcDbEntity
  8
0
370
    -3
  6
Continuous
100
AcDbLine
 10
97.339141
 20
-186.564482
 30
0.0
 11
-16.660859
 21
-186.564482
 31
0.0
  0
LINE
  5
23B
100
AcDbEntity
  8
0
370
    -3
  6
Continuous
100
AcDbLine
 10
-16.660859
 20
-113.450568
 30
0.0
 11
97.339141
 21
-113.450568
 31
0.0
  0
LINE
  5
23C
100
AcDbEntity
  8
0
370
    -3
  6
CENTER
100
AcDbLine
 10
-40.51465
 20
-133.064482
 30
0.0
 11
132.862317
 21
-133.064482
 31
0.0
  0
LINE
  5
23D
100
AcDbEntity
  8
0
370
    -3
  6
CENTER
100
AcDbLine
 10
-13.603457
 20
-172.662462
 30
0.0
 11
-28.234622
 21
-172.662462
 31
0.0
  0
INSERT
  5
250
100
AcDbEntity
  8
0
100
AcDbBlockReference
  2
ZU_SYM__USERS_HOME_SYMBOL_STD_SYM_B01_00004-1
 10
-21.660856
 20
-172.662462
 30
0.0
 41
-1.0
 50
180.0
  0
LINE
  5
251
100
AcDbEntity
  8
0
370
    -3
  6
CENTER
100
AcDbLine
 10
-13.603457
 20
-93.466502
 30
0.0
 11
-28.234622
 21
-93.466502
 31
0.0
  0
INSERT
  5
264
100
AcDbEntity
  8
0
100
AcDbBlockReference
  2
ZU_SYM__USERS_HOME_SYMBOL_STD_SYM_B01_00005-1
 10
-21.660856
 20
-93.466502
 30
0.0
 50
360.0
  0
INSERT
  5
277
100
AcDbEntity
  8
0
100
AcDbBlockReference
  2
ZU_SYM__USERS_HOME_SYMBOL_STD_SYM_B01_00006-1
 10
-21.660856
 20
-93.466502
 30
0.0
 50
360.0
  0
INSERT
  5
28A
100
AcDbEntity
  8
0
100
AcDbBlockReference
  2
ZU_SYM__USERS_HOME_SYMBOL_STD_SYM_B01_00007-1
 10
-21.660856
 20
-93.466502
 30
0.0
 50
360.0
  0
ARC
  5
28B
100
AcDbEntity
  8
0
370
    -3
  6
Continuous
100
AcDbCircle
 10
676.839141
 20
-133.064482
 30
0.0
 40
700.0
100
AcDbArc
 50
183.620062
 51
184.231256
  0
ARC
  5
28C
100
AcDbEntity
  8
0
370
    -3
  6
Continuous
100
AcDbCircle
 10
676.839141
 20
-133.064482
 30
0.0
 40
700.0
100
AcDbArc
 50
177.134181
 51
180.0
  0
ARC
  5
28D
100
AcDbEntity
  8
0
370
    -3
  6
Continuous
100
AcDbCircle
 10
-23.369385
 20
-153.270166
 30
0.0
 40
0.5
100
AcDbArc
 50
1.652907
 51
44.884862
  0
ARC
  5
28E
100
AcDbEntity
  8
0
370
    -3
  6
Continuous
100
AcDbCircle
 10
-23.369385
 20
-112.858798
 30
0.0
 40
0.5
100
AcDbArc
 50
315.115138
 51
358.347093
  0
ARC
  5
28F
100
AcDbEntity
  8
0
370
    -3
  6
Continuous
100
AcDbCircle
 10
-22.660859
 20
-113.564482
 30
0.0
 40
0.5
100
AcDbArc
 50
135.115138
 51
180.0
  0
ARC
  5
290
100
AcDbEntity
  8
0
370
    -3
  6
Continuous
100
AcDbCircle
 10
-22.660859
 20
-152.564482
 30
0.0
 40
0.5
100
AcDbArc
 50
180.0
 51
224.884862
  0
LINE
  5
291
100
AcDbEntity
  8
0
370
    -3
  6
Continuous
100
AcDbLine
 10
-23.160859
 20
-113.564482
 30
0.0
 11
-23.160859
 21
-152.564482
 31
0.0
  0
ARC
  5
292
100
AcDbEntity
  8
0
370
    -3
  6
Continuous
100
AcDbCircle
 10
-19.580859
 20
-105.064482
 30
0.0
 40
1.0
100
AcDbArc
 50
93.0
 51
267.0
  0
ARC
  5
293
100
AcDbEntity
  8
0
370
    -3
  6
Continuous
100
AcDbCircle
 10
-19.580859
 20
-100.564482
 30
0.0
 40
1.0
100
AcDbArc
 50
93.0
 51
267.0
  0
ARC
  5
294
100
AcDbEntity
  8
0
370
    -3
  6
Continuous
100
AcDbCircle
 10
-19.580859
 20
-114.064482
 30
0.0
 40
1.0
100
AcDbArc
 50
93.0
 51
267.0
  0
ARC
  5
295
100
AcDbEntity
  8
0
370
    -3
  6
Continuous
100
AcDbCircle
 10
-19.580859
 20
-109.564482
 30
0.0
 40
1.0
100
AcDbArc
 50
93.0
 51
267.0
  0
ARC
  5
296
100
AcDbEntity
  8
0
370
    -3
  6
Continuous
100
AcDbCircle
 10
-21.160859
 20
-178.783943
 30
0.0
 40
0.5
100
AcDbArc
 50
180.0
 51
270.0
  0
ARC
  5
297
100
AcDbEntity
  8
0
370
    -3
  6
Continuous
100
AcDbCircle
 10
-19.258373
 20
-184.564482
 30
0.0
 40
2.0
100
AcDbArc
 50
184.231256
 51
270.0
  0
LINE
  5
298
100
AcDbEntity
  8
0
370
    -3
  6
Continuous
100
AcDbLine
 10
-22.405987
 20
-165.581785
 30
0.0
 11
-22.405987
 21
-165.547179
 31
0.0
  0
LINE
  5
299
100
AcDbEntity
  8
0
370
    -3
  6
Continuous
100
AcDbLine
 10
-22.405987
 20
-100.547179
 30
0.0
 11
-22.405987
 21
-100.581785
 31
0.0
  0
ARC
  5
29A
100
AcDbEntity
  8
0
370
    -3
  6
Continuous
100
AcDbCircle
 10
-19.258373
 20
-81.564482
 30
0.0
 40
2.0
100
AcDbArc
 50
90.0
 51
175.768744
  0
ARC
  5
29B
100
AcDbEntity
  8
0
370
    -3
  6
Continuous
100
AcDbCircle
 10
-21.160859
 20
-87.345021
 30
0.0
 40
0.5
100
AcDbArc
 50
90.0
 51
180.0
  0
LINE
  5
29C
100
AcDbEntity
  8
0
370
    -3
  6
Continuous
100
AcDbLine
 10
-21.160859
 20
-146.364482
 30
0.0
 11
-21.160859
 21
-133.064482
 31
0.0
  0
ARC
  5
29D
100
AcDbEntity
  8
0
370
    -3
  6
Continuous
100
AcDbCircle
 10
-20.460859
 20
-146.364482
 30
0.0
 40
0.7
100
AcDbArc
 50
180.0
 51
270.0
  0
ARC
  5
29E
100
AcDbEntity
  8
0
370
    -3
  6
Continuous
100
AcDbCircle
 10
-20.460859
 20
-119.764482
 30
0.0
 40
0.7
100
AcDbArc
 50
90.0
 51
180.0
  0
LINE
  5
29F
100
AcDbEntity
  8
0
370
    -3
  6
Continuous
100
AcDbLine
 10
-21.160859
 20
-119.764482
 30
0.0
 11
-21.160859
 21
-133.064482
 31
0.0
  0
ARC
  5
2A0
100
AcDbEntity
  8
0
370
    -3
  6
Continuous
100
AcDbCircle
 10
-19.580859
 20
-165.564482
 30
0.0
 40
1.0
100
AcDbArc
 50
93.0
 51
267.0
  0
ARC
  5
2A1
100
AcDbEntity
  8
0
370
    -3
  6
Continuous
100
AcDbCircle
 10
-19.580859
 20
-161.064482
 30
0.0
 40
1.0
100
AcDbArc
 50
93.0
 51
267.0
  0
ARC
  5
2A2
100
AcDbEntity
  8
0
370
    -3
  6
Continuous
100
AcDbCircle
 10
-19.580859
 20
-156.564482
 30
0.0
 40
1.0
100
AcDbArc
 50
93.0
 51
267.0
  0
ARC
  5
2A3
100
AcDbEntity
  8
0
370
    -3
  6
Continuous
100
AcDbCircle
 10
-19.580859
 20
-152.064482
 30
0.0
 40
1.0
100
AcDbArc
 50
93.0
 51
267.0
  0
LINE
  5
2A4
100
AcDbEntity
  8
0
370
    -3
  6
Continuous
100
AcDbLine
 10
-21.660859
 20
-178.783943
 30
0.0
 11
-21.660859
 21
-162.72103
 31
0.0
  0
ARC
  5
2A5
100
AcDbEntity
  8
0
370
    -3
  6
Continuous
100
AcDbCircle
 10
676.839141
 20
-133.064482
 30
0.0
 40
700.0
100
AcDbArc
 50
180.0
 51
182.865819
  0
ARC
  5
2A6
100
AcDbEntity
  8
0
370
    -3
  6
Continuous
100
AcDbCircle
 10
-22.660859
 20
-162.72103
 30
0.0
 40
1.0
100
AcDbArc
 50
0.0
 51
58.013739
  0
ARC
  5
2A7
100
AcDbEntity
  8
0
370
    -3
  6
Continuous
100
AcDbCircle
 10
-21.601427
 20
-161.02468
 30
0.0
 40
1.0
100
AcDbArc
 50
182.292459
 51
238.013739
  0
LINE
  5
2A8
100
AcDbEntity
  8
0
370
    -3
  6
Continuous
100
AcDbLine
 10
-21.660859
 20
-87.345021
 30
0.0
 11
-21.660859
 21
-103.407934
 31
0.0
  0
ARC
  5
2A9
100
AcDbEntity
  8
0
370
    -3
  6
Continuous
100
AcDbCircle
 10
676.839141
 20
-133.064482
 30
0.0
 40
700.0
100
AcDbArc
 50
175.768744
 51
176.379938
  0
ARC
  5
2AA
100
AcDbEntity
  8
0
370
    -3
  6
Continuous
100
AcDbCircle
 10
-21.601427
 20
-105.104284
 30
0.0
 40
1.0
100
AcDbArc
 50
121.986261
 51
177.707541
  0
ARC
  5
2AB
100
AcDbEntity
  8
0
370
    -3
  6
Continuous
100
AcDbCircle
 10
-22.660859
 20
-103.407934
 30
0.0
 40
1.0
100
AcDbArc
 50
301.986261
 51
0.0
  0
LINE
  5
2AC
100
AcDbEntity
  8
0
370
    -3
  6
Continuous
100
AcDbLine
 10
-16.660859
 20
-186.564482
 30
0.0
 11
-16.660859
 21
-133.064482
 31
0.0
  0
LINE
  5
2AD
100
AcDbEntity
  8
0
370
    -3
  6
Continuous
100
AcDbLine
 10
-16.660859
 20
-79.564482
 30
0.0
 11
-16.660859
 21
-133.064482
 31
0.0
  0
LINE
  5
2AE
100
AcDbEntity
  8
0
370
    -3
  6
Continuous
100
AcDbLine
 10
-16.660859
 20
-79.564482
 30
0.0
 11
-19.258373
 21
-79.564482
 31
0.0
  0
LINE
  5
2AF
100
AcDbEntity
  8
0
370
    -3
  6
Continuous
100
AcDbLine
 10
-16.660859
 20
-86.845021
 30
0.0
 11
-21.160859
 21
-86.845021
 31
0.0
  0
LINE
  5
2B0
100
AcDbEntity
  8
0
370
    -3
  6
Continuous
100
AcDbLine
 10
-16.660859
 20
-99.410079
 30
0.0
 11
-19.633194
 21
-99.565853
 31
0.0
  0
LINE
  5
2B1
100
AcDbEntity
  8
0
370
    -3
  6
Continuous
100
AcDbLine
 10
-16.660859
 20
-101.718885
 30
0.0
 11
-19.633194
 21
-101.563112
 31
0.0
  0
LINE
  5
2B2
100
AcDbEntity
  8
0
370
    -3
  6
Continuous
100
AcDbLine
 10
-16.660859
 20
-103.910079
 30
0.0
 11
-19.633194
 21
-104.065853
 31
0.0
  0
LINE
  5
2B3
100
AcDbEntity
  8
0
370
    -3
  6
Continuous
100
AcDbLine
 10
-16.660859
 20
-106.218885
 30
0.0
 11
-19.633194
 21
-106.063112
 31
0.0
  0
LINE
  5
2B4
100
AcDbEntity
  8
0
370
    -3
  6
Continuous
100
AcDbLine
 10
-16.660859
 20
-108.410079
 30
0.0
 11
-19.633194
 21
-108.565853
 31
0.0
  0
LINE
  5
2B5
100
AcDbEntity
  8
0
370
    -3
  6
Continuous
100
AcDbLine
 10
-16.660859
 20
-110.718885
 30
0.0
 11
-19.633194
 21
-110.563112
 31
0.0
  0
LINE
  5
2B6
100
AcDbEntity
  8
0
370
    -3
  6
Continuous
100
AcDbLine
 10
-16.660859
 20
-112.910079
 30
0.0
 11
-19.633194
 21
-113.065853
 31
0.0
  0
LINE
  5
2B7
100
AcDbEntity
  8
0
370
    -3
  6
Continuous
100
AcDbLine
 10
-16.660859
 20
-115.218885
 30
0.0
 11
-19.633194
 21
-115.063112
 31
0.0
  0
LINE
  5
2B8
100
AcDbEntity
  8
0
370
    -3
  6
Continuous
100
AcDbLine
 10
-20.460859
 20
-119.064482
 30
0.0
 11
-16.660859
 21
-119.064482
 31
0.0
  0
LINE
  5
2B9
100
AcDbEntity
  8
0
370
    -3
  6
Continuous
100
AcDbLine
 10
-20.460859
 20
-147.064482
 30
0.0
 11
-16.660859
 21
-147.064482
 31
0.0
  0
LINE
  5
2BA
100
AcDbEntity
  8
0
370
    -3
  6
Continuous
100
AcDbLine
 10
-16.660859
 20
-150.910079
 30
0.0
 11
-19.633194
 21
-151.065853
 31
0.0
  0
LINE
  5
2BB
100
AcDbEntity
  8
0
370
    -3
  6
Continuous
100
AcDbLine
 10
-16.660859
 20
-153.218885
 30
0.0
 11
-19.633194
 21
-153.063112
 31
0.0
  0
LINE
  5
2BC
100
AcDbEntity
  8
0
370
    -3
  6
Continuous
100
AcDbLine
 10
-16.660859
 20
-155.410079
 30
0.0
 11
-19.633194
 21
-155.565853
 31
0.0
  0
LINE
  5
2BD
100
AcDbEntity
  8
0
370
    -3
  6
Continuous
100
AcDbLine
 10
-16.660859
 20
-157.718885
 30
0.0
 11
-19.633194
 21
-157.563112
 31
0.0
  0
LINE
  5
2BE
100
AcDbEntity
  8
0
370
    -3
  6
Continuous
100
AcDbLine
 10
-16.660859
 20
-159.910079
 30
0.0
 11
-19.633194
 21
-160.065853
 31
0.0
  0
LINE
  5
2BF
100
AcDbEntity
  8
0
370
    -3
  6
Continuous
100
AcDbLine
 10
-16.660859
 20
-162.218885
 30
0.0
 11
-19.633194
 21
-162.063112
 31
0.0
  0
LINE
  5
2C0
100
AcDbEntity
  8
0
370
    -3
  6
Continuous
100
AcDbLine
 10
-16.660859
 20
-164.410079
 30
0.0
 11
-19.633194
 21
-164.565853
 31
0.0
  0
LINE
  5
2C1
100
AcDbEntity
  8
0
370
    -3
  6
Continuous
100
AcDbLine
 10
-16.660859
 20
-166.718885
 30
0.0
 11
-19.633194
 21
-166.563112
 31
0.0
  0
LINE
  5
2C2
100
AcDbEntity
  8
0
370
    -3
  6
Continuous
100
AcDbLine
 10
-16.660859
 20
-179.283943
 30
0.0
 11
-21.160859
 21
-179.283943
 31
0.0
  0
LINE
  5
2C3
100
AcDbEntity
  8
0
370
    -3
  6
Continuous
100
AcDbLine
 10
-16.660859
 20
-186.564482
 30
0.0
 11
-19.258373
 21
-186.564482
 31
0.0
  0
LINE
  5
2C4
100
AcDbEntity
  8
0
370
    -3
  6
Continuous
100
AcDbLine
 10
-2.45432
 20
-79.564482
 30
0.0
 11
-16.660859
 21
-79.564482
 31
0.0
  0
LINE
  5
2C5
100
AcDbEntity
  8
0
370
    -3
  6
Continuous
100
AcDbLine
 10
-16.660859
 20
-155.964688
 30
0.0
 11
65.339141
 21
-155.964688
 31
0.0
  0
LINE
  5
2C6
100
AcDbEntity
  8
0
370
    -3
  6
Continuous
100
AcDbLine
 10
-16.660859
 20
-105.664276
 30
0.0
 11
70.481751
 21
-105.664276
 31
0.0
  0
LINE
  5
2C7
100
AcDbEntity
  8
0
370
    -3
  6
Continuous
100
AcDbLine
 10
-16.660859
 20
-110.164276
 30
0.0
 11
65.339141
 21
-110.164276
 31
0.0
  0
LINE
  5
2C8
100
AcDbEntity
  8
0
370
    -3
  6
Continuous
100
AcDbLine
 10
-16.660859
 20
-184.814482
 30
0.0
 11
-16.660859
 21
-185.564482
 31
0.0
  0
LINE
  5
2C9
100
AcDbEntity
  8
0
370
    -3
  6
Continuous
100
AcDbLine
 10
-16.660859
 20
-185.564482
 30
0.0
 11
-16.660859
 21
-183.314482
 31
0.0
  0
LINE
  5
2CA
100
AcDbEntity
  8
0
370
    -3
  6
Continuous
100
AcDbLine
 10
-16.660859
 20
-161.664276
 30
0.0
 11
-9.660859
 21
-161.664276
 31
0.0
  0
LINE
  5
2CB
100
AcDbEntity
  8
0
370
    -3
  6
Continuous
100
AcDbLine
 10
-16.660859
 20
-157.164276
 30
0.0
 11
-9.660859
 21
-157.164276
 31
0.0
  0
LINE
  5
2CC
100
AcDbEntity
  8
0
370
    -3
  6
Continuous
100
AcDbLine
 10
-16.660859
 20
-108.964688
 30
0.0
 11
-9.660859
 21
-108.964688
 31
0.0
  0
LINE
  5
2CD
100
AcDbEntity
  8
0
370
    -3
  6
Continuous
100
AcDbLine
 10
-16.660859
 20
-104.464688
 30
0.0
 11
-9.660859
 21
-104.464688
 31
0.0
  0
LINE
  5
2CE
100
AcDbEntity
  8
0
370
    -3
  6
Continuous
100
AcDbLine
 10
163.839157
 20
-92.564847
 30
0.0
 11
163.839157
 21
-235.564847
 31
0.0
  0
LINE
  5
2CF
100
AcDbEntity
  8
0
370
    -3
  6
Continuous
100
AcDbLine
 10
163.839157
 20
-92.564847
 30
0.0
 11
163.839157
 21
-235.564847
 31
0.0
  0
LINE
  5
2D0
100
AcDbEntity
  8
0
370
    -3
  6
Continuous
100
AcDbLine
 10
163.839157
 20
-92.564847
 30
0.0
 11
163.839157
 21
-235.564847
 31
0.0
  0
LINE
  5
2D1
100
AcDbEntity
  8
0
370
    -3
  6
Continuous
100
AcDbLine
 10
163.839157
 20
-92.564847
 30
0.0
 11
163.839157
 21
-235.564847
 31
0.0
  0
LINE
  5
2D2
100
AcDbEntity
  8
0
370
    -3
  6
Continuous
100
AcDbLine
 10
163.839157
 20
-92.564847
 30
0.0
 11
163.839157
 21
-235.564847
 31
0.0
  0
LINE
  5
2D3
100
AcDbEntity
  8
0
370
    -3
  6
Continuous
100
AcDbLine
 10
163.839157
 20
-92.564847
 30
0.0
 11
156.839157
 21
-92.564847
 31
0.0
  0
ARC
  5
2D4
100
AcDbEntity
  8
0
370
    -3
  6
Continuous
100
AcDbCircle
 10
156.839157
 20
-95.564847
 30
0.0
 40
3.0
100
AcDbArc
 50
90.0
 51
180.0
  0
LINE
  5
2D5
100
AcDbEntity
  8
0
370
    -3
  6
Continuous
100
AcDbLine
 10
153.839157
 20
-95.564847
 30
0.0
 11
153.839157
 21
-155.064847
 31
0.0
  0
ARC
  5
2D6
100
AcDbEntity
  8
0
370
    -3
  6
Continuous
100
AcDbCircle
 10
113.839141
 20
-194.236403
 30
0.0
 40
5.0
100
AcDbArc
 50
180.0
 51
268.0
  0
LINE
  5
2D7
100
AcDbEntity
  8
0
370
    -3
  6
Continuous
100
AcDbLine
 10
136.543433
 20
-200.032302
 30
0.0
 11
113.664644
 21
-199.233358
 31
0.0
  0
LINE
  5
2D8
100
AcDbEntity
  8
0
370
    -3
  6
Continuous
100
AcDbLine
 10
108.839141
 20
-190.687794
 30
0.0
 11
108.839141
 21
-194.236403
 31
0.0
  0
LINE
  5
2D9
100
AcDbEntity
  8
0
370
    -3
  6
Continuous
100
AcDbLine
 10
97.339141
 20
-79.56485
 30
0.0
 11
97.339141
 21
-186.56485
 31
0.0
  0
LINE
  5
2DA
100
AcDbEntity
  8
0
370
    -3
  6
Continuous
100
AcDbLine
 10
103.926404
 20
-185.688556
 30
0.0
 11
97.339157
 21
-185.573575
 31
0.0
  0
LINE
  5
2DB
100
AcDbEntity
  8
0
370
    -3
  6
Continuous
100
AcDbLine
 10
97.339157
 20
-185.573575
 30
0.0
 11
97.339157
 21
-183.314847
 31
0.0
  0
LINE
  5
2DC
100
AcDbEntity
  8
0
370
    -3
  6
Continuous
100
AcDbLine
 10
108.839141
 20
-80.564847
 30
0.0
 11
97.339141
 21
-80.564847
 31
0.0
  0
ARC
  5
2DD
100
AcDbEntity
  8
0
370
    -3
  6
Continuous
100
AcDbCircle
 10
103.839141
 20
-190.687794
 30
0.0
 40
5.0
100
AcDbArc
 50
0.0
 51
89.0
  0
ARC
  5
2DE
100
AcDbEntity
  8
0
370
    -3
  6
Continuous
100
AcDbCircle
 10
108.839141
 20
-85.564847
 30
0.0
 40
5.0
100
AcDbArc
 50
0.0
 51
90.0
  0
LINE
  5
2DF
100
AcDbEntity
  8
0
370
    -3
  6
Continuous
100
AcDbLine
 10
153.839157
 20
-155.064847
 30
0.0
 11
153.839157
 21
-232.564847
 31
0.0
  0
LINE
  5
2E0
100
AcDbEntity
  8
0
370
    -3
  6
Continuous
100
AcDbLine
 10
97.339157
 20
-185.573575
 30
0.0
 11
97.339157
 21
-183.314847
 31
0.0
  0
LINE
  5
2E1
100
AcDbEntity
  8
0
370
    -3
  6
Continuous
100
AcDbLine
 10
97.339157
 20
-185.573575
 30
0.0
 11
97.339157
 21
-183.314847
 31
0.0
  0
ARC
  5
2E2
100
AcDbEntity
  8
0
370
    -3
  6
Continuous
100
AcDbCircle
 10
151.839157
 20
-101.314847
 30
0.0
 40
2.0
100
AcDbArc
 50
270.0
 51
0.0
  0
ARC
  5
2E3
100
AcDbEntity
  8
0
370
    -3
  6
Continuous
100
AcDbCircle
 10
136.368935
 20
-205.029257
 30
0.0
 40
5.0
100
AcDbArc
 50
30.0
 51
88.0
  0
ARC
  5
2E4
100
AcDbEntity
  8
0
370
    -3
  6
Continuous
100
AcDbCircle
 10
148.855335
 20
-233.073367
 30
0.0
 40
5.0
100
AcDbArc
 50
3.644461
 51
53.063279
  0
LINE
  5
2E5
100
AcDbEntity
  8
0
370
    -3
  6
Continuous
100
AcDbLine
 10
151.859998
 20
-229.076869
 30
0.0
 11
110.834478
 21
-198.232902
 31
0.0
  0
ARC
  5
2E6
100
AcDbEntity
  8
0
370
    -3
  6
Continuous
100
AcDbCircle
 10
115.839141
 20
-101.314847
 30
0.0
 40
2.0
100
AcDbArc
 50
180.0
 51
270.0
  0
LINE
  5
2E7
100
AcDbEntity
  8
0
370
    -3
  6
Continuous
100
AcDbLine
 10
113.839141
 20
-85.564847
 30
0.0
 11
113.839141
 21
-138.864847
 31
0.0
  0
LINE
  5
2E8
100
AcDbEntity
  8
0
370
    -3
  6
Continuous
100
AcDbLine
 10
113.839141
 20
-85.564847
 30
0.0
 11
113.839141
 21
-87.564847
 31
0.0
  0
LINE
  5
2E9
100
AcDbEntity
  8
0
370
    -3
  6
Continuous
100
AcDbLine
 10
151.839157
 20
-103.314847
 30
0.0
 11
115.839141
 21
-103.314847
 31
0.0
  0
ARC
  5
2EA
100
AcDbEntity
  8
0
370
    -3
  6
Continuous
100
AcDbCircle
 10
148.839157
 20
-226.628314
 30
0.0
 40
5.0
100
AcDbArc
 50
0.0
 51
30.0
  0
LINE
  5
2EB
100
AcDbEntity
  8
0
370
    -3
  6
Continuous
100
AcDbLine
 10
153.169284
 20
-224.128314
 30
0.0
 11
140.699062
 21
-202.529257
 31
0.0
  0
ARC
  5
2EC
100
AcDbEntity
  8
0
370
    -3
  6
Continuous
100
AcDbCircle
 10
156.839157
 20
-232.564847
 30
0.0
 40
3.0
100
AcDbArc
 50
180.0
 51
270.0
  0
LINE
  5
2ED
100
AcDbEntity
  8
0
370
    -3
  6
Continuous
100
AcDbLine
 10
163.839157
 20
-235.564847
 30
0.0
 11
156.839157
 21
-235.564847
 31
0.0
  0
LINE
  5
2EE
100
AcDbEntity
  8
0
370
    -3
  6
CENTER
100
AcDbLine
 10
163.839157
 20
-164.064847
 30
0.0
 11
134.294493
 21
-164.064847
 31
0.0
  0
LINE
  5
2EF
100
AcDbEntity
  8
0
370
    -3
  6
Continuous
100
AcDbLine
 10
97.339141
 20
-153.064847
 30
0.0
 11
151.839157
 21
-153.064847
 31
0.0
  0
LINE
  5
2F0
100
AcDbEntity
  8
0
370
    -3
  6
Continuous
100
AcDbLine
 10
97.339141
 20
-113.064847
 30
0.0
 11
111.839141
 21
-113.064847
 31
0.0
  0
LINE
  5
2F1
100
AcDbEntity
  8
0
370
    -3
  6
Continuous
100
AcDbLine
 10
115.839141
 20
-140.864847
 30
0.0
 11
151.839157
 21
-140.864847
 31
0.0
  0
ARC
  5
2F2
100
AcDbEntity
  8
0
370
    -3
  6
Continuous
100
AcDbCircle
 10
151.839157
 20
-138.864847
 30
0.0
 40
2.0
100
AcDbArc
 50
270.0
 51
0.0
  0
ARC
  5
2F3
100
AcDbEntity
  8
0
370
    -3
  6
Continuous
100
AcDbCircle
 10
115.839141
 20
-138.864847
 30
0.0
 40
2.0
100
AcDbArc
 50
180.0
 51
270.0
  0
ARC
  5
2F4
100
AcDbEntity
  8
0
370
    -3
  6
Continuous
100
AcDbCircle
 10
151.839157
 20
-155.064847
 30
0.0
 40
2.0
100
AcDbArc
 50
0.0
 51
90.0
  0
ARC
  5
2F5
100
AcDbEntity
  8
0
370
    -3
  6
Continuous
100
AcDbCircle
 10
111.839141
 20
-115.064847
 30
0.0
 40
2.0
100
AcDbArc
 50
0.0
 51
90.0
  0
LINE
  5
2F6
100
AcDbEntity
  8
0
370
    -3
  6
Continuous
100
AcDbLine
 10
97.339141
 20
-79.564482
 30
0.0
 11
51.132621
 21
-79.564482
 31
0.0
  0
LINE
  5
2F7
100
AcDbEntity
  8
0
370
    -3
  6
Continuous
100
AcDbLine
 10
97.339141
 20
-79.564482
 30
0.0
 11
97.339141
 21
-133.064482
 31
0.0
  0
LINE
  5
2F8
100
AcDbEntity
  8
0
370
    -3
  6
Continuous
100
AcDbLine
 10
-9.660859
 20
-161.664276
 30
0.0
 11
97.339141
 21
-161.664276
 31
0.0
  0
LINE
  5
2F9
100
AcDbEntity
  8
0
370
    -3
  6
Continuous
100
AcDbLine
 10
-9.660859
 20
-104.464688
 30
0.0
 11
97.339141
 21
-104.464688
 31
0.0
  0
LINE
  5
2FA
100
AcDbEntity
  8
0
370
    -3
  6
Continuous
100
AcDbLine
 10
-9.660859
 20
-108.964688
 30
0.0
 11
97.339141
 21
-108.964688
 31
0.0
  0
LINE
  5
2FB
100
AcDbEntity
  8
0
370
    -3
  6
Continuous
100
AcDbLine
 10
65.339141
 20
-105.664276
 30
0.0
 11
97.339141
 21
-105.664276
 31
0.0
  0
LINE
  5
2FC
100
AcDbEntity
  8
0
370
    -3
  6
Continuous
100
AcDbLine
 10
65.339141
 20
-110.164276
 30
0.0
 11
97.339141
 21
-110.164276
 31
0.0
  0
LINE
  5
2FD
100
AcDbEntity
  8
0
370
    -3
  6
Continuous
100
AcDbLine
 10
65.339141
 20
-160.464688
 30
0.0
 11
97.339141
 21
-160.464688
 31
0.0
  0
LINE
  5
2FE
100
AcDbEntity
  8
0
370
    -3
  6
Continuous
100
AcDbLine
 10
65.339141
 20
-155.964688
 30
0.0
 11
97.339141
 21
-155.964688
 31
0.0
  0
LINE
  5
2FF
100
AcDbEntity
  8
0
370
    -3
  6
Continuous
100
AcDbLine
 10
97.339141
 20
-186.564482
 30
0.0
 11
97.339141
 21
-133.064482
 31
0.0
  0
LINE
  5
300
100
AcDbEntity
  8
0
370
    -3
  6
Continuous
100
AcDbLine
 10
163.839157
 20
-164.064847
 30
0.0
 11
163.839157
 21
-235.564847
 31
0.0
  0
LINE
  5
301
100
AcDbEntity
  8
0
370
    -3
  6
Continuous
100
AcDbLine
 10
163.839157
 20
-164.064847
 30
0.0
 11
163.839157
 21
-94.064847
 31
0.0
  0
ARC
  5
302
100
AcDbEntity
  8
0
370
    -3
  6
Continuous
100
AcDbCircle
 10
173.339157
 20
-95.064847
 30
0.0
 40
3.0
100
AcDbArc
 50
180.0
 51
270.0
  0
ARC
  5
303
100
AcDbEntity
  8
0
370
    -3
  6
Continuous
100
AcDbCircle
 10
168.339157
 20
-94.564847
 30
0.0
 40
2.0
100
AcDbArc
 50
360.0
 51
90.0
  0
LINE
  5
304
100
AcDbEntity
  8
0
370
    -3
  6
Continuous
100
AcDbLine
 10
170.339157
 20
-164.064847
 30
0.0
 11
170.339157
 21
-207.052
 31
0.0
  0
LINE
  5
305
100
AcDbEntity
  8
0
370
    -3
  6
Continuous
100
AcDbLine
 10
168.339157
 20
-235.564847
 30
0.0
 11
163.839157
 21
-235.564847
 31
0.0
  0
ARC
  5
306
100
AcDbEntity
  8
0
370
    -3
  6
Continuous
100
AcDbCircle
 10
173.339157
 20
-207.052
 30
0.0
 40
3.0
100
AcDbArc
 50
180.0
 51
270.0
  0
ARC
  5
307
100
AcDbEntity
  8
0
370
    -3
  6
Continuous
100
AcDbCircle
 10
173.339157
 20
-222.064847
 30
0.0
 40
3.0
100
AcDbArc
 50
90.0
 51
180.0
  0
ARC
  5
308
100
AcDbEntity
  8
0
370
    -3
  6
Continuous
100
AcDbCircle
 10
173.339157
 20
-233.064847
 30
0.0
 40
3.0
100
AcDbArc
 50
90.0
 51
180.0
  0
ARC
  5
309
100
AcDbEntity
  8
0
370
    -3
  6
Continuous
100
AcDbCircle
 10
168.339157
 20
-233.564847
 30
0.0
 40
2.0
100
AcDbArc
 50
270.0
 51
0.0
  0
ARC
  5
30A
100
AcDbEntity
  8
0
370
    -3
  6
Continuous
100
AcDbCircle
 10
165.839157
 20
-70.064847
 30
0.0
 40
1.0
100
AcDbArc
 50
90.0
 51
180.0
  0
LINE
  5
30B
100
AcDbEntity
  8
0
370
    -3
  6
Continuous
100
AcDbLine
 10
175.839157
 20
-69.064847
 30
0.0
 11
165.839157
 21
-69.064847
 31
0.0
  0
LINE
  5
30C
100
AcDbEntity
  8
0
370
    -3
  6
Continuous
100
AcDbLine
 10
170.339157
 20
-106.064847
 30
0.0
 11
170.339157
 21
-94.564847
 31
0.0
  0
LINE
  5
30D
100
AcDbEntity
  8
0
370
    -3
  6
Continuous
100
AcDbLine
 10
170.339157
 20
-222.064847
 30
0.0
 11
170.339157
 21
-233.564847
 31
0.0
  0
ARC
  5
30E
100
AcDbEntity
  8
0
370
    -3
  6
Continuous
100
AcDbCircle
 10
173.339157
 20
-125.317061
 30
0.0
 40
3.0
100
AcDbArc
 50
90.0
 51
180.0
  0
ARC
  5
30F
100
AcDbEntity
  8
0
370
    -3
  6
Continuous
100
AcDbCircle
 10
173.339157
 20
-202.330877
 30
0.0
 40
3.0
100
AcDbArc
 50
180.0
 51
270.0
  0
LINE
  5
310
100
AcDbEntity
  8
0
370
    -3
  6
Continuous
100
AcDbLine
 10
163.839157
 20
-164.064847
 30
0.0
 11
163.839157
 21
-92.564847
 31
0.0
  0
LINE
  5
311
100
AcDbEntity
  8
0
370
    -3
  6
Continuous
100
AcDbLine
 10
163.839157
 20
-164.064847
 30
0.0
 11
163.839157
 21
-235.564847
 31
0.0
  0
ARC
  5
312
100
AcDbEntity
  8
0
370
    -3
  6
Continuous
100
AcDbCircle
 10
163.839157
 20
-91.564847
 30
0.0
 40
1.0
100
AcDbArc
 50
270.0
 51
360.0
  0
LINE
  5
313
100
AcDbEntity
  8
0
370
    -3
  6
Continuous
100
AcDbLine
 10
168.339157
 20
-92.564847
 30
0.0
 11
163.839157
 21
-92.564847
 31
0.0
  0
LINE
  5
314
100
AcDbEntity
  8
0
370
    -3
  6
Continuous
100
AcDbLine
 10
164.839157
 20
-91.564847
 30
0.0
 11
164.839157
 21
-70.064847
 31
0.0
  0
LINE
  5
315
100
AcDbEntity
  8
0
370
    -3
  6
Continuous
100
AcDbLine
 10
170.339157
 20
-164.064847
 30
0.0
 11
170.339157
 21
-121.077694
 31
0.0
  0
ARC
  5
316
100
AcDbEntity
  8
0
370
    -3
  6
Continuous
100
AcDbCircle
 10
173.339157
 20
-121.077694
 30
0.0
 40
3.0
100
AcDbArc
 50
90.0
 51
180.0
  0
ARC
  5
317
100
AcDbEntity
  8
0
370
    -3
  6
Continuous
100
AcDbCircle
 10
173.339157
 20
-106.064847
 30
0.0
 40
3.0
100
AcDbArc
 50
180.0
 51
270.0
  0
LINE
  5
318
100
AcDbEntity
  8
0
370
    -3
  6
Continuous
100
AcDbLine
 10
164.839157
 20
-34.064847
 30
0.0
 11
164.839157
 21
-89.064847
 31
0.0
  0
LINE
  5
319
100
AcDbEntity
  8
0
370
    -3
  6
Continuous
100
AcDbLine
 10
160.339157
 20
-34.064847
 30
0.0
 11
160.339157
 21
-89.064847
 31
0.0
  0
INSERT
  5
325
100
AcDbEntity
  8
0
100
AcDbBlockReference
  2
ZU_SYM__USERS_HOME_SYMBOL_POO_SYM_B20_-1
 10
160.339157
 20
-79.064847
 30
0.0
  0
LINE
  5
326
100
AcDbEntity
  8
0
370
    -3
  6
Continuous
100
AcDbLine
 10
160.339157
 20
-89.064847
 30
0.0
 11
164.839157
 21
-89.064847
 31
0.0
  0
LINE
  5
327
100
AcDbEntity
  8
0
370
    -3
  6
CENTER
100
AcDbLine
 10
150.630481
 20
-79.064847
 30
0.0
 11
170.930203
 21
-79.064847
 31
0.0
  0
LINE
  5
328
100
AcDbEntity
  8
0
370
    -3
  6
Continuous
100
AcDbLine
 10
163.839157
 20
-164.064847
 30
0.0
 11
163.839157
 21
-92.564847
 31
0.0
  0
LINE
  5
329
100
AcDbEntity
  8
0
370
    -3
  6
Continuous
100
AcDbLine
 10
163.839157
 20
-164.064847
 30
0.0
 11
163.839157
 21
-234.064847
 31
0.0
  0
LINE
  5
32A
100
AcDbEntity
  8
0
370
    -3
  6
Continuous
100
AcDbLine
 10
163.839157
 20
-164.064847
 30
0.0
 11
163.839157
 21
-92.564847
 31
0.0
  0
LINE
  5
32B
100
AcDbEntity
  8
0
370
    -3
  6
Continuous
100
AcDbLine
 10
163.839157
 20
-164.064847
 30
0.0
 11
163.839157
 21
-235.564847
 31
0.0
  0
LINE
  5
32C
100
AcDbEntity
  8
0
370
    -3
  6
Continuous
100
AcDbLine
 10
163.839157
 20
-164.064847
 30
0.0
 11
163.839157
 21
-92.564847
 31
0.0
  0
LINE
  5
32D
100
AcDbEntity
  8
0
370
    -3
  6
Continuous
100
AcDbLine
 10
163.839157
 20
-164.064847
 30
0.0
 11
163.839157
 21
-234.064847
 31
0.0
  0
LINE
  5
32E
100
AcDbEntity
  8
0
370
    -3
  6
Continuous
100
AcDbLine
 10
163.839157
 20
-164.064847
 30
0.0
 11
163.839157
 21
-92.564847
 31
0.0
  0
LINE
  5
32F
100
AcDbEntity
  8
0
370
    -3
  6
Continuous
100
AcDbLine
 10
163.839157
 20
-164.064847
 30
0.0
 11
163.839157
 21
-235.564847
 31
0.0
  0
LINE
  5
330
100
AcDbEntity
  8
0
370
    -3
  6
Continuous
100
AcDbLine
 10
163.839157
 20
-164.064847
 30
0.0
 11
163.839157
 21
-235.564847
 31
0.0
  0
LINE
  5
331
100
AcDbEntity
  8
0
370
    -3
  6
Continuous
100
AcDbLine
 10
163.839157
 20
-164.064847
 30
0.0
 11
163.839157
 21
-92.564847
 31
0.0
  0
LINE
  5
332
100
AcDbEntity
  8
0
370
    -3
  6
Continuous
100
AcDbLine
 10
163.839157
 20
-164.064847
 30
0.0
 11
163.839157
 21
-94.064847
 31
0.0
  0
LINE
  5
333
100
AcDbEntity
  8
0
370
    -3
  6
Continuous
100
AcDbLine
 10
163.839157
 20
-164.064847
 30
0.0
 11
163.839157
 21
-235.564847
 31
0.0
  0
LINE
  5
334
100
AcDbEntity
  8
0
370
    -3
  6
Continuous
100
AcDbLine
 10
163.839157
 20
-164.064847
 30
0.0
 11
163.839157
 21
-92.564847
 31
0.0
  0
LINE
  5
335
100
AcDbEntity
  8
0
370
    -3
  6
Continuous
100
AcDbLine
 10
163.839157
 20
-164.064847
 30
0.0
 11
163.839157
 21
-234.064847
 31
0.0
  0
LINE
  5
336
100
AcDbEntity
  8
0
370
    -3
  6
Continuous
100
AcDbLine
 10
163.839157
 20
-164.064847
 30
0.0
 11
163.839157
 21
-92.564847
 31
0.0
  0
LINE
  5
337
100
AcDbEntity
  8
0
370
    -3
  6
Continuous
100
AcDbLine
 10
163.839157
 20
-164.064847
 30
0.0
 11
163.839157
 21
-235.564847
 31
0.0
  0
LINE
  5
338
100
AcDbEntity
  8
0
370
    -3
  6
Continuous
100
AcDbLine
 10
163.839157
 20
-164.064847
 30
0.0
 11
163.839157
 21
-92.564847
 31
0.0
  0
LINE
  5
339
100
AcDbEntity
  8
0
370
    -3
  6
Continuous
100
AcDbLine
 10
163.839157
 20
-164.064847
 30
0.0
 11
163.839157
 21
-234.064847
 31
0.0
  0
LINE
  5
33A
100
AcDbEntity
  8
0
370
    -3
  6
Continuous
100
AcDbLine
 10
163.839157
 20
-164.064847
 30
0.0
 11
163.839157
 21
-92.564847
 31
0.0
  0
LINE
  5
33B
100
AcDbEntity
  8
0
370
    -3
  6
Continuous
100
AcDbLine
 10
163.839157
 20
-164.064847
 30
0.0
 11
163.839157
 21
-235.564847
 31
0.0
  0
LINE
  5
33C
100
AcDbEntity
  8
0
370
    -3
  6
Continuous
100
AcDbLine
 10
163.839157
 20
-164.064847
 30
0.0
 11
163.839157
 21
-92.564847
 31
0.0
  0
LINE
  5
33D
100
AcDbEntity
  8
0
370
    -3
  6
Continuous
100
AcDbLine
 10
163.839157
 20
-164.064847
 30
0.0
 11
163.839157
 21
-234.064847
 31
0.0
  0
LINE
  5
33E
100
AcDbEntity
  8
0
370
    -3
  6
Continuous
100
AcDbLine
 10
163.839157
 20
-164.064847
 30
0.0
 11
163.839157
 21
-92.564847
 31
0.0
  0
LINE
  5
33F
100
AcDbEntity
  8
0
370
    -3
  6
Continuous
100
AcDbLine
 10
163.839157
 20
-164.064847
 30
0.0
 11
163.839157
 21
-235.564847
 31
0.0
  0
LINE
  5
340
100
AcDbEntity
  8
0
370
    -3
  6
Continuous
100
AcDbLine
 10
163.839157
 20
-164.064847
 30
0.0
 11
163.839157
 21
-235.564847
 31
0.0
  0
LINE
  5
341
100
AcDbEntity
  8
0
370
    -3
  6
Continuous
100
AcDbLine
 10
163.839157
 20
-164.064847
 30
0.0
 11
163.839157
 21
-92.564847
 31
0.0
  0
LINE
  5
342
100
AcDbEntity
  8
0
370
    -3
  6
Continuous
100
AcDbLine
 10
163.839157
 20
-164.064847
 30
0.0
 11
163.839157
 21
-94.064847
 31
0.0
  0
LINE
  5
343
100
AcDbEntity
  8
0
370
    -3
  6
Continuous
100
AcDbLine
 10
163.839157
 20
-164.064847
 30
0.0
 11
163.839157
 21
-235.564847
 31
0.0
  0
LINE
  5
344
100
AcDbEntity
  8
0
370
    -3
  6
Continuous
100
AcDbLine
 10
97.339157
 20
-133.064482
 30
0.0
 11
97.339157
 21
-185.564482
 31
0.0
  0
LINE
  5
345
100
AcDbEntity
  8
0
370
    -3
  6
Continuous
100
AcDbLine
 10
97.339157
 20
-133.064482
 30
0.0
 11
97.339157
 21
-79.564482
 31
0.0
  0
LINE
  5
346
100
AcDbEntity
  8
0
370
    -3
  6
Continuous
100
AcDbLine
 10
97.339157
 20
-186.564482
 30
0.0
 11
97.339157
 21
-133.064482
 31
0.0
  0
LINE
  5
347
100
AcDbEntity
  8
0
370
    -3
  6
Continuous
100
AcDbLine
 10
97.339157
 20
-185.564482
 30
0.0
 11
97.339157
 21
-80.564482
 31
0.0
  0
LINE
  5
348
100
AcDbEntity
  8
0
370
    -3
  6
Continuous
100
AcDbLine
 10
97.339141
 20
-80.564479
 30
0.0
 11
97.339141
 21
-185.564479
 31
0.0
  0
LINE
  5
349
100
AcDbEntity
  8
0
370
    -3
  6
Continuous
100
AcDbLine
 10
97.339141
 20
-79.564479
 30
0.0
 11
97.339141
 21
-133.064479
 31
0.0
  0
LINE
  5
34A
100
AcDbEntity
  8
0
370
    -3
  6
Continuous
100
AcDbLine
 10
97.339141
 20
-133.064479
 30
0.0
 11
97.339141
 21
-186.564479
 31
0.0
  0
LINE
  5
34B
100
AcDbEntity
  8
0
370
    -3
  6
Continuous
100
AcDbLine
 10
97.339141
 20
-133.064479
 30
0.0
 11
97.339141
 21
-80.564479
 31
0.0
  0
LINE
  5
34C
100
AcDbEntity
  8
0
370
    -3
  6
Continuous
100
AcDbLine
 10
97.339141
 20
-186.564482
 30
0.0
 11
97.339141
 21
-133.064482
 31
0.0
  0
LINE
  5
34D
100
AcDbEntity
  8
0
370
    -3
  6
Continuous
100
AcDbLine
 10
97.339141
 20
-79.564482
 30
0.0
 11
97.339141
 21
-133.064482
 31
0.0
  0
LINE
  5
34E
100
AcDbEntity
  8
0
370
    -3
  6
Continuous
100
AcDbLine
 10
43.507621
 20
-79.564482
 30
0.0
 11
5.17068
 21
-79.564482
 31
0.0
  0
POINT
  5
34F
100
AcDbEntity
  8
0
370
    -3
  6
DASHED
100
AcDbPoint
 10
349.839157
 20
-99.951151
 30
0.0
  0
CIRCLE
  5
350
100
AcDbEntity
  8
0
370
    -3
  6
Continuous
100
AcDbCircle
 10
349.839157
 20
-120.064847
 30
0.0
 40
3.5
  0
CIRCLE
  5
351
100
AcDbEntity
  8
0
370
    -3
  6
Continuous
100
AcDbCircle
 10
349.839157
 20
-120.064847
 30
0.0
 40
4.0
  0
LINE
  5
352
100
AcDbEntity
  8
0
370
    -3
  6
Continuous
100
AcDbLine
 10
355.839157
 20
-97.064847
 30
0.0
 11
355.839157
 21
-105.064847
 31
0.0
  0
LINE
  5
353
100
AcDbEntity
  8
0
370
    -3
  6
Continuous
100
AcDbLine
 10
355.839157
 20
-97.064847
 30
0.0
 11
343.839157
 21
-97.064847
 31
0.0
  0
LINE
  5
354
100
AcDbEntity
  8
0
370
    -3
  6
Continuous
100
AcDbLine
 10
343.839157
 20
-97.064847
 30
0.0
 11
343.839157
 21
-105.064847
 31
0.0
  0
LINE
  5
355
100
AcDbEntity
  8
0
370
    -3
  6
Continuous
100
AcDbLine
 10
355.839157
 20
-105.064847
 30
0.0
 11
343.839157
 21
-105.064847
 31
0.0
  0
ARC
  5
356
100
AcDbEntity
  8
0
370
    -3
  6
Continuous
100
AcDbCircle
 10
349.839157
 20
-120.064847
 30
0.0
 40
20.0
100
AcDbArc
 50
107.457603
 51
72.542397
  0
LINE
  5
357
100
AcDbEntity
  8
0
370
    -3
  6
Continuous
100
AcDbLine
 10
173.339157
 20
-230.064847
 30
0.0
 11
195.839157
 21
-230.064847
 31
0.0
  0
LINE
  5
358
100
AcDbEntity
  8
0
370
    -3
  6
Continuous
100
AcDbLine
 10
173.339157
 20
-210.052
 30
0.0
 11
181.839157
 21
-210.052
 31
0.0
  0
LINE
  5
359
100
AcDbEntity
  8
0
370
    -3
  6
Continuous
100
AcDbLine
 10
173.339157
 20
-219.064847
 30
0.0
 11
181.839157
 21
-219.064847
 31
0.0
  0
ARC
  5
35A
100
AcDbEntity
  8
0
370
    -3
  6
Continuous
100
AcDbCircle
 10
181.839157
 20
-205.052
 30
0.0
 40
5.0
100
AcDbArc
 50
270.0
 51
351.914005
  0
ARC
  5
35B
100
AcDbEntity
  8
0
370
    -3
  6
Continuous
100
AcDbCircle
 10
181.839157
 20
-214.064847
 30
0.0
 40
5.0
100
AcDbArc
 50
270.0
 51
350.385223
  0
ARC
  5
35C
100
AcDbEntity
  8
0
370
    -3
  6
Continuous
100
AcDbCircle
 10
178.839157
 20
-96.064847
 30
0.0
 40
2.0
100
AcDbArc
 50
180.0
 51
270.0
  0
ARC
  5
35D
100
AcDbEntity
  8
0
370
    -3
  6
Continuous
100
AcDbCircle
 10
175.839157
 20
-70.064847
 30
0.0
 40
1.0
100
AcDbArc
 50
0.0
 51
90.0
  0
LINE
  5
35E
100
AcDbEntity
  8
0
370
    -3
  6
Continuous
100
AcDbLine
 10
176.839157
 20
-96.064847
 30
0.0
 11
176.839157
 21
-70.064847
 31
0.0
  0
LINE
  5
35F
100
AcDbEntity
  8
0
370
    -3
  6
Continuous
100
AcDbLine
 10
173.339157
 20
-122.317061
 30
0.0
 11
183.744807
 21
-122.317061
 31
0.0
  0
LINE
  5
360
100
AcDbEntity
  8
0
370
    -3
  6
Continuous
100
AcDbLine
 10
173.339157
 20
-205.330877
 30
0.0
 11
184.271879
 21
-205.330877
 31
0.0
  0
ARC
  5
361
100
AcDbEntity
  8
0
370
    -3
  6
Continuous
100
AcDbCircle
 10
189.726781
 20
-112.728663
 30
0.0
 40
3.0
100
AcDbArc
 50
189.614777
 51
270.0
  0
ARC
  5
362
100
AcDbEntity
  8
0
370
    -3
  6
Continuous
100
AcDbCircle
 10
189.759621
 20
-121.95242
 30
0.0
 40
3.0
100
AcDbArc
 50
188.085995
 51
270.0
  0
ARC
  5
363
100
AcDbEntity
  8
0
370
    -3
  6
Continuous
100
AcDbCircle
 10
189.759621
 20
-206.177274
 30
0.0
 40
3.0
100
AcDbArc
 50
90.0
 51
171.914005
  0
ARC
  5
364
100
AcDbEntity
  8
0
370
    -3
  6
Continuous
100
AcDbCircle
 10
189.726781
 20
-215.401032
 30
0.0
 40
3.0
100
AcDbArc
 50
90.0
 51
170.385223
  0
LINE
  5
365
100
AcDbEntity
  8
0
370
    -3
  6
CENTER
100
AcDbLine
 10
435.986635
 20
-226.064847
 30
0.0
 11
401.230248
 21
-226.064847
 31
0.0
  0
LINE
  5
366
100
AcDbEntity
  8
0
370
    -3
  6
CENTER
100
AcDbLine
 10
218.839157
 20
-242.340241
 30
0.0
 11
218.839157
 21
-209.99552
 31
0.0
  0
LINE
  5
367
100
AcDbEntity
  8
0
370
    -3
  6
CENTER
100
AcDbLine
 10
240.839157
 20
-225.586321
 30
0.0
 11
240.839157
 21
-242.425895
 31
0.0
  0
LINE
  5
368
100
AcDbEntity
  8
0
370
    -3
  6
CENTER
100
AcDbLine
 10
396.839157
 20
-225.586321
 30
0.0
 11
396.839157
 21
-244.327626
 31
0.0
  0
LINE
  5
369
100
AcDbEntity
  8
0
370
    -3
  6
CENTER
100
AcDbLine
 10
418.839157
 20
-244.286379
 30
0.0
 11
418.839157
 21
-209.99552
 31
0.0
  0
LINE
  5
36A
100
AcDbEntity
  8
0
370
    -3
  6
CENTER
100
AcDbLine
 10
407.070261
 20
-234.064847
 30
0.0
 11
388.343568
 21
-234.064847
 31
0.0
  0
LINE
  5
36B
100
AcDbEntity
  8
0
370
    -3
  6
CENTER
100
AcDbLine
 10
249.839157
 20
-43.064847
 30
0.0
 11
230.775647
 21
-43.064847
 31
0.0
  0
ARC
  5
36C
100
AcDbEntity
  8
0
370
    -3
  6
Continuous
100
AcDbCircle
 10
195.839157
 20
-233.064847
 30
0.0
 40
3.0
100
AcDbArc
 50
0.0
 51
90.0
  0
LINE
  5
36D
100
AcDbEntity
  8
0
370
    -3
  6
CENTER
100
AcDbLine
 10
235.223087
 20
-51.064847
 30
0.0
 11
201.588643
 21
-51.064847
 31
0.0
  0
LINE
  5
36E
100
AcDbEntity
  8
0
370
    -3
  6
CENTER
100
AcDbLine
 10
418.839157
 20
-69.286379
 30
0.0
 11
418.839157
 21
-34.99552
 31
0.0
  0
LINE
  5
36F
100
AcDbEntity
  8
0
370
    -3
  6
CENTER
100
AcDbLine
 10
435.223087
 20
-51.064847
 30
0.0
 11
401.588643
 21
-51.064847
 31
0.0
  0
LINE
  5
370
100
AcDbEntity
  8
0
370
    -3
  6
CENTER
100
AcDbLine
 10
405.839157
 20
-43.064847
 30
0.0
 11
386.775647
 21
-43.064847
 31
0.0
  0
LINE
  5
371
100
AcDbEntity
  8
0
370
    -3
  6
CENTER
100
AcDbLine
 10
396.839157
 20
-34.586321
 30
0.0
 11
396.839157
 21
-53.327626
 31
0.0
  0
LINE
  5
372
100
AcDbEntity
  8
0
370
    -3
  6
CENTER
100
AcDbLine
 10
240.839157
 20
-34.064847
 30
0.0
 11
240.839157
 21
-53.949266
 31
0.0
  0
LINE
  5
373
100
AcDbEntity
  8
0
370
    -3
  6
CENTER
100
AcDbLine
 10
218.839157
 20
-68.417233
 30
0.0
 11
218.839157
 21
-35.186392
 31
0.0
  0
CIRCLE
  5
374
100
AcDbEntity
  8
0
370
    -3
  6
Continuous
100
AcDbCircle
 10
349.839157
 20
-120.064847
 30
0.0
 40
64.5
  0
CIRCLE
  5
375
100
AcDbEntity
  8
0
370
    -3
  6
Continuous
100
AcDbCircle
 10
349.839157
 20
-120.064847
 30
0.0
 40
66.0
  0
CIRCLE
  5
376
100
AcDbEntity
  8
0
370
    -3
  6
Continuous
100
AcDbCircle
 10
240.839157
 20
-43.064847
 30
0.0
 40
4.5
  0
CIRCLE
  5
377
100
AcDbEntity
  8
0
370
    -3
  6
Continuous
100
AcDbCircle
 10
240.839157
 20
-43.064847
 30
0.0
 40
7.0
  0
CIRCLE
  5
378
100
AcDbEntity
  8
0
370
    -3
  6
Continuous
100
AcDbCircle
 10
396.839157
 20
-43.064847
 30
0.0
 40
7.0
  0
CIRCLE
  5
379
100
AcDbEntity
  8
0
370
    -3
  6
Continuous
100
AcDbCircle
 10
396.839157
 20
-43.064847
 30
0.0
 40
4.5
  0
LINE
  5
37A
100
AcDbEntity
  8
0
370
    -3
  6
Continuous
100
AcDbLine
 10
198.839157
 20
-73.064847
 30
0.0
 11
195.839157
 21
-83.064847
 31
0.0
  0
LINE
  5
37B
100
AcDbEntity
  8
0
370
    -3
  6
Continuous
100
AcDbLine
 10
198.839157
 20
-43.064847
 30
0.0
 11
198.839157
 21
-73.064847
 31
0.0
  0
ARC
  5
37C
100
AcDbEntity
  8
0
370
    -3
  6
Continuous
100
AcDbCircle
 10
208.839157
 20
-43.064847
 30
0.0
 40
10.0
100
AcDbArc
 50
90.0
 51
180.0
  0
ARC
  5
37D
100
AcDbEntity
  8
0
370
    -3
  6
Continuous
100
AcDbCircle
 10
208.839157
 20
-43.064847
 30
0.0
 40
9.0
100
AcDbArc
 50
90.0
 51
180.0
  0
LINE
  5
37E
100
AcDbEntity
  8
0
370
    -3
  6
Continuous
100
AcDbLine
 10
195.839157
 20
-83.064847
 30
0.0
 11
195.839157
 21
-194.064847
 31
0.0
  0
LINE
  5
37F
100
AcDbEntity
  8
0
370
    -3
  6
Continuous
100
AcDbLine
 10
436.839157
 20
-43.064847
 30
0.0
 11
436.839157
 21
-234.064847
 31
0.0
  0
LINE
  5
380
100
AcDbEntity
  8
0
370
    -3
  6
Continuous
100
AcDbLine
 10
435.839157
 20
-43.064847
 30
0.0
 11
435.839157
 21
-234.064847
 31
0.0
  0
ARC
  5
381
100
AcDbEntity
  8
0
370
    -3
  6
Continuous
100
AcDbCircle
 10
426.839157
 20
-43.064847
 30
0.0
 40
10.0
100
AcDbArc
 50
0.0
 51
90.0
  0
ARC
  5
382
100
AcDbEntity
  8
0
370
    -3
  6
Continuous
100
AcDbCircle
 10
426.839157
 20
-43.064847
 30
0.0
 40
9.0
100
AcDbArc
 50
0.0
 51
90.0
  0
LINE
  5
383
100
AcDbEntity
  8
0
370
    -3
  6
Continuous
100
AcDbLine
 10
426.839157
 20
-33.064847
 30
0.0
 11
208.839157
 21
-33.064847
 31
0.0
  0
LINE
  5
384
100
AcDbEntity
  8
0
370
    -3
  6
Continuous
100
AcDbLine
 10
208.839157
 20
-34.064847
 30
0.0
 11
426.839157
 21
-34.064847
 31
0.0
  0
ARC
  5
385
100
AcDbEntity
  8
0
370
    -3
  6
Continuous
100
AcDbCircle
 10
259.594156
 20
-54.564847
 30
0.0
 40
10.0
100
AcDbArc
 50
90.0
 51
148.48463
  0
ARC
  5
386
100
AcDbEntity
  8
0
370
    -3
  6
Continuous
100
AcDbCircle
 10
220.339157
 20
-81.027324
 30
0.0
 40
10.0
100
AcDbArc
 50
92.865984
 51
180.0
  0
ARC
  5
387
100
AcDbEntity
  8
0
370
    -3
  6
Continuous
100
AcDbCircle
 10
245.645875
 20
-64.533323
 30
0.0
 40
10.0
100
AcDbArc
 50
102.620195
 51
153.323715
  0
ARC
  5
388
100
AcDbEntity
  8
0
370
    -3
  6
Continuous
100
AcDbCircle
 10
218.839157
 20
-51.064847
 30
0.0
 40
20.0
100
AcDbArc
 50
272.865984
 51
333.323715
  0
ARC
  5
389
100
AcDbEntity
  8
0
370
    -3
  6
Continuous
100
AcDbCircle
 10
240.839157
 20
-43.064847
 30
0.0
 40
12.0
100
AcDbArc
 50
282.620195
 51
328.48463
  0
ARC
  5
38A
100
AcDbEntity
  8
0
370
    -3
  6
Continuous
100
AcDbCircle
 10
259.594156
 20
-54.564847
 30
0.0
 40
8.5
100
AcDbArc
 50
90.0
 51
148.48463
  0
ARC
  5
38B
100
AcDbEntity
  8
0
370
    -3
  6
Continuous
100
AcDbCircle
 10
240.839157
 20
-43.064847
 30
0.0
 40
13.5
100
AcDbArc
 50
282.620195
 51
328.48463
  0
ARC
  5
38C
100
AcDbEntity
  8
0
370
    -3
  6
Continuous
100
AcDbCircle
 10
245.645875
 20
-64.533323
 30
0.0
 40
8.5
100
AcDbArc
 50
102.620195
 51
153.323715
  0
ARC
  5
38D
100
AcDbEntity
  8
0
370
    -3
  6
Continuous
100
AcDbCircle
 10
218.839157
 20
-51.064847
 30
0.0
 40
21.5
100
AcDbArc
 50
272.865984
 51
333.323715
  0
ARC
  5
38E
100
AcDbEntity
  8
0
370
    -3
  6
Continuous
100
AcDbCircle
 10
220.339157
 20
-81.027324
 30
0.0
 40
8.5
100
AcDbArc
 50
92.865984
 51
180.0
  0
ARC
  5
38F
100
AcDbEntity
  8
0
370
    -3
  6
Continuous
100
AcDbCircle
 10
392.032438
 20
-64.533323
 30
0.0
 40
10.0
100
AcDbArc
 50
26.676285
 51
77.379805
  0
ARC
  5
390
100
AcDbEntity
  8
0
370
    -3
  6
Continuous
100
AcDbCircle
 10
392.032438
 20
-64.533323
 30
0.0
 40
8.5
100
AcDbArc
 50
26.676285
 51
77.379805
  0
ARC
  5
391
100
AcDbEntity
  8
0
370
    -3
  6
Continuous
100
AcDbCircle
 10
396.839157
 20
-43.064847
 30
0.0
 40
12.0
100
AcDbArc
 50
211.51537
 51
257.379805
  0
ARC
  5
392
100
AcDbEntity
  8
0
370
    -3
  6
Continuous
100
AcDbCircle
 10
396.839157
 20
-43.064847
 30
0.0
 40
13.5
100
AcDbArc
 50
211.51537
 51
257.379805
  0
ARC
  5
393
100
AcDbEntity
  8
0
370
    -3
  6
Continuous
100
AcDbCircle
 10
378.084158
 20
-54.564847
 30
0.0
 40
10.0
100
AcDbArc
 50
31.51537
 51
90.0
  0
ARC
  5
394
100
AcDbEntity
  8
0
370
    -3
  6
Continuous
100
AcDbCircle
 10
378.084158
 20
-54.564847
 30
0.0
 40
8.5
100
AcDbArc
 50
31.51537
 51
90.0
  0
LINE
  5
395
100
AcDbEntity
  8
0
370
    -3
  6
Continuous
100
AcDbLine
 10
259.594156
 20
-46.064847
 30
0.0
 11
378.084158
 21
-46.064847
 31
0.0
  0
LINE
  5
396
100
AcDbEntity
  8
0
370
    -3
  6
Continuous
100
AcDbLine
 10
259.594156
 20
-44.564847
 30
0.0
 11
378.084158
 21
-44.564847
 31
0.0
  0
ARC
  5
397
100
AcDbEntity
  8
0
370
    -3
  6
Continuous
100
AcDbCircle
 10
418.839157
 20
-51.064847
 30
0.0
 40
20.0
100
AcDbArc
 50
206.676285
 51
263.300235
  0
ARC
  5
398
100
AcDbEntity
  8
0
370
    -3
  6
Continuous
100
AcDbCircle
 10
415.339157
 20
-80.859981
 30
0.0
 40
10.0
100
AcDbArc
 50
0.0
 51
83.300235
  0
ARC
  5
399
100
AcDbEntity
  8
0
370
    -3
  6
Continuous
100
AcDbCircle
 10
415.339157
 20
-80.859981
 30
0.0
 40
8.5
100
AcDbArc
 50
0.0
 51
83.300235
  0
ARC
  5
39A
100
AcDbEntity
  8
0
370
    -3
  6
Continuous
100
AcDbCircle
 10
418.839157
 20
-51.064847
 30
0.0
 40
21.5
100
AcDbArc
 50
206.676285
 51
263.300235
  0
LINE
  5
39B
100
AcDbEntity
  8
0
370
    -3
  6
Continuous
100
AcDbLine
 10
425.339157
 20
-80.859981
 30
0.0
 11
425.339157
 21
-196.269713
 31
0.0
  0
LINE
  5
39C
100
AcDbEntity
  8
0
370
    -3
  6
Continuous
100
AcDbLine
 10
423.839157
 20
-80.859981
 30
0.0
 11
423.839157
 21
-196.269713
 31
0.0
  0
LINE
  5
39D
100
AcDbEntity
  8
0
370
    -3
  6
Continuous
100
AcDbLine
 10
211.839157
 20
-81.027324
 30
0.0
 11
211.839157
 21
-196.102371
 31
0.0
  0
LINE
  5
39E
100
AcDbEntity
  8
0
370
    -3
  6
Continuous
100
AcDbLine
 10
210.339157
 20
-81.027324
 30
0.0
 11
210.339157
 21
-196.102371
 31
0.0
  0
LINE
  5
39F
100
AcDbEntity
  8
0
370
    -3
  6
Continuous
100
AcDbLine
 10
199.839157
 20
-234.064847
 30
0.0
 11
199.839157
 21
-43.064847
 31
0.0
  0
LINE
  5
3A0
100
AcDbEntity
  8
0
370
    -3
  6
CENTER
100
AcDbLine
 10
235.986635
 20
-226.064847
 30
0.0
 11
201.230248
 21
-226.064847
 31
0.0
  0
LINE
  5
3A1
100
AcDbEntity
  8
0
370
    -3
  6
CENTER
100
AcDbLine
 10
251.070261
 20
-234.064847
 30
0.0
 11
232.343568
 21
-234.064847
 31
0.0
  0
CIRCLE
  5
3A2
100
AcDbEntity
  8
0
370
    -3
  6
Continuous
100
AcDbCircle
 10
240.839157
 20
-234.064847
 30
0.0
 40
7.0
  0
CIRCLE
  5
3A3
100
AcDbEntity
  8
0
370
    -3
  6
Continuous
100
AcDbCircle
 10
396.839157
 20
-234.064847
 30
0.0
 40
4.5
  0
LINE
  5
3A4
100
AcDbEntity
  8
0
370
    -3
  6
Continuous
100
AcDbLine
 10
198.839157
 20
-204.064847
 30
0.0
 11
195.839157
 21
-194.064847
 31
0.0
  0
LINE
  5
3A5
100
AcDbEntity
  8
0
370
    -3
  6
Continuous
100
AcDbLine
 10
198.839157
 20
-204.064847
 30
0.0
 11
198.839157
 21
-234.064847
 31
0.0
  0
ARC
  5
3A6
100
AcDbEntity
  8
0
370
    -3
  6
Continuous
100
AcDbCircle
 10
208.839157
 20
-234.064847
 30
0.0
 40
10.0
100
AcDbArc
 50
180.0
 51
270.0
  0
ARC
  5
3A7
100
AcDbEntity
  8
0
370
    -3
  6
Continuous
100
AcDbCircle
 10
208.839157
 20
-234.064847
 30
0.0
 40
9.0
100
AcDbArc
 50
180.0
 51
270.0
  0
LINE
  5
3A8
100
AcDbEntity
  8
0
370
    -3
  6
Continuous
100
AcDbLine
 10
426.839157
 20
-244.064847
 30
0.0
 11
208.839157
 21
-244.064847
 31
0.0
  0
LINE
  5
3A9
100
AcDbEntity
  8
0
370
    -3
  6
Continuous
100
AcDbLine
 10
426.839157
 20
-243.064847
 30
0.0
 11
208.839157
 21
-243.064847
 31
0.0
  0
ARC
  5
3AA
100
AcDbEntity
  8
0
370
    -3
  6
Continuous
100
AcDbCircle
 10
426.839157
 20
-234.064847
 30
0.0
 40
10.0
100
AcDbArc
 50
270.0
 51
0.0
  0
ARC
  5
3AB
100
AcDbEntity
  8
0
370
    -3
  6
Continuous
100
AcDbCircle
 10
426.839157
 20
-234.064847
 30
0.0
 40
9.0
100
AcDbArc
 50
270.0
 51
0.0
  0
CIRCLE
  5
3AC
100
AcDbEntity
  8
0
370
    -3
  6
Continuous
100
AcDbCircle
 10
240.839157
 20
-234.064847
 30
0.0
 40
4.4
  0
ARC
  5
3AD
100
AcDbEntity
  8
0
370
    -3
  6
Continuous
100
AcDbCircle
 10
378.084158
 20
-222.564847
 30
0.0
 40
10.0
100
AcDbArc
 50
270.0
 51
328.48463
  0
ARC
  5
3AE
100
AcDbEntity
  8
0
370
    -3
  6
Continuous
100
AcDbCircle
 10
378.084158
 20
-222.564847
 30
0.0
 40
8.5
100
AcDbArc
 50
270.0
 51
328.48463
  0
ARC
  5
3AF
100
AcDbEntity
  8
0
370
    -3
  6
Continuous
100
AcDbCircle
 10
396.839157
 20
-234.064847
 30
0.0
 40
12.0
100
AcDbArc
 50
102.620195
 51
148.48463
  0
ARC
  5
3B0
100
AcDbEntity
  8
0
370
    -3
  6
Continuous
100
AcDbCircle
 10
396.839157
 20
-234.064847
 30
0.0
 40
13.5
100
AcDbArc
 50
102.620195
 51
148.48463
  0
ARC
  5
3B1
100
AcDbEntity
  8
0
370
    -3
  6
Continuous
100
AcDbCircle
 10
392.032438
 20
-212.596371
 30
0.0
 40
8.5
100
AcDbArc
 50
282.620195
 51
333.323715
  0
ARC
  5
3B2
100
AcDbEntity
  8
0
370
    -3
  6
Continuous
100
AcDbCircle
 10
392.032438
 20
-212.596371
 30
0.0
 40
10.0
100
AcDbArc
 50
282.620195
 51
333.323715
  0
ARC
  5
3B3
100
AcDbEntity
  8
0
370
    -3
  6
Continuous
100
AcDbCircle
 10
418.839157
 20
-226.064847
 30
0.0
 40
20.0
100
AcDbArc
 50
96.699765
 51
153.323715
  0
ARC
  5
3B4
100
AcDbEntity
  8
0
370
    -3
  6
Continuous
100
AcDbCircle
 10
418.839157
 20
-226.064847
 30
0.0
 40
21.5
100
AcDbArc
 50
96.699765
 51
153.323715
  0
ARC
  5
3B5
100
AcDbEntity
  8
0
370
    -3
  6
Continuous
100
AcDbCircle
 10
415.339157
 20
-196.269713
 30
0.0
 40
10.0
100
AcDbArc
 50
276.699765
 51
0.0
  0
ARC
  5
3B6
100
AcDbEntity
  8
0
370
    -3
  6
Continuous
100
AcDbCircle
 10
415.339157
 20
-196.269713
 30
0.0
 40
8.5
100
AcDbArc
 50
276.699765
 51
0.0
  0
CIRCLE
  5
3B7
100
AcDbEntity
  8
0
370
    -3
  6
Continuous
100
AcDbCircle
 10
396.839157
 20
-234.064847
 30
0.0
 40
7.0
  0
ARC
  5
3B8
100
AcDbEntity
  8
0
370
    -3
  6
Continuous
100
AcDbCircle
 10
220.339157
 20
-196.102371
 30
0.0
 40
8.5
100
AcDbArc
 50
180.0
 51
267.134016
  0
ARC
  5
3B9
100
AcDbEntity
  8
0
370
    -3
  6
Continuous
100
AcDbCircle
 10
220.339157
 20
-196.102371
 30
0.0
 40
10.0
100
AcDbArc
 50
180.0
 51
267.134016
  0
ARC
  5
3BA
100
AcDbEntity
  8
0
370
    -3
  6
Continuous
100
AcDbCircle
 10
218.839157
 20
-226.064847
 30
0.0
 40
21.5
100
AcDbArc
 50
26.676285
 51
87.134016
  0
ARC
  5
3BB
100
AcDbEntity
  8
0
370
    -3
  6
Continuous
100
AcDbCircle
 10
218.839157
 20
-226.064847
 30
0.0
 40
20.0
100
AcDbArc
 50
26.676285
 51
87.134016
  0
ARC
  5
3BC
100
AcDbEntity
  8
0
370
    -3
  6
Continuous
100
AcDbCircle
 10
245.645875
 20
-212.596371
 30
0.0
 40
8.5
100
AcDbArc
 50
206.676285
 51
257.379805
  0
ARC
  5
3BD
100
AcDbEntity
  8
0
370
    -3
  6
Continuous
100
AcDbCircle
 10
245.645875
 20
-212.596371
 30
0.0
 40
10.0
100
AcDbArc
 50
206.676285
 51
257.379805
  0
ARC
  5
3BE
100
AcDbEntity
  8
0
370
    -3
  6
Continuous
100
AcDbCircle
 10
240.839157
 20
-234.064847
 30
0.0
 40
12.0
100
AcDbArc
 50
31.51537
 51
77.379805
  0
ARC
  5
3BF
100
AcDbEntity
  8
0
370
    -3
  6
Continuous
100
AcDbCircle
 10
240.839157
 20
-234.064847
 30
0.0
 40
13.5
100
AcDbArc
 50
31.51537
 51
77.379805
  0
ARC
  5
3C0
100
AcDbEntity
  8
0
370
    -3
  6
Continuous
100
AcDbCircle
 10
259.594156
 20
-222.564847
 30
0.0
 40
10.0
100
AcDbArc
 50
211.51537
 51
270.0
  0
ARC
  5
3C1
100
AcDbEntity
  8
0
370
    -3
  6
Continuous
100
AcDbCircle
 10
259.594156
 20
-222.564847
 30
0.0
 40
8.5
100
AcDbArc
 50
211.51537
 51
270.0
  0
LINE
  5
3C2
100
AcDbEntity
  8
0
370
    -3
  6
Continuous
100
AcDbLine
 10
378.084158
 20
-231.064847
 30
0.0
 11
259.594156
 21
-231.064847
 31
0.0
  0
LINE
  5
3C3
100
AcDbEntity
  8
0
370
    -3
  6
Continuous
100
AcDbLine
 10
378.084158
 20
-232.564847
 30
0.0
 11
259.594156
 21
-232.564847
 31
0.0
  0
LINE
  5
3C4
100
AcDbEntity
  8
0
370
    -3
  6
Continuous
100
AcDbLine
 10
173.339157
 20
-98.064847
 30
0.0
 11
195.839157
 21
-98.064847
 31
0.0
  0
LINE
  5
3C5
100
AcDbEntity
  8
0
370
    -3
  6
Continuous
100
AcDbLine
 10
173.339157
 20
-118.077694
 30
0.0
 11
181.839157
 21
-118.077694
 31
0.0
  0
LINE
  5
3C6
100
AcDbEntity
  8
0
370
    -3
  6
Continuous
100
AcDbLine
 10
173.339157
 20
-109.064847
 30
0.0
 11
181.839157
 21
-109.064847
 31
0.0
  0
ARC
  5
3C7
100
AcDbEntity
  8
0
370
    -3
  6
Continuous
100
AcDbCircle
 10
181.839157
 20
-123.077694
 30
0.0
 40
5.0
100
AcDbArc
 50
8.085995
 51
90.0
  0
ARC
  5
3C8
100
AcDbEntity
  8
0
370
    -3
  6
Continuous
100
AcDbCircle
 10
181.839157
 20
-114.064847
 30
0.0
 40
5.0
100
AcDbArc
 50
9.614777
 51
90.0
  0
LINE
  5
3C9
100
AcDbEntity
  8
0
370
    -3
  6
CENTER
100
AcDbLine
 10
446.013525
 20
-120.064847
 30
0.0
 11
223.163442
 21
-120.064847
 31
0.0
  0
LINE
  5
3CA
100
AcDbEntity
  8
0
370
    -3
  6
CENTER
100
AcDbLine
 10
349.839157
 20
-25.745606
 30
0.0
 11
349.839157
 21
-251.449622
 31
0.0
  0
CIRCLE
  5
3CB
100
AcDbEntity
  8
0
370
    -3
  6
Continuous
100
AcDbCircle
 10
418.839157
 20
-51.064847
 30
0.0
 40
8.0
  0
CIRCLE
  5
3CC
100
AcDbEntity
  8
0
370
    -3
  6
Continuous
100
AcDbCircle
 10
418.839157
 20
-51.064847
 30
0.0
 40
6.9175
  0
CIRCLE
  5
3CD
100
AcDbEntity
  8
0
370
    -3
  6
Continuous
100
AcDbCircle
 10
218.839157
 20
-51.064847
 30
0.0
 40
8.0
  0
CIRCLE
  5
3CE
100
AcDbEntity
  8
0
370
    -3
  6
Continuous
100
AcDbCircle
 10
218.839157
 20
-51.064847
 30
0.0
 40
6.9175
  0
CIRCLE
  5
3CF
100
AcDbEntity
  8
0
370
    -3
  6
Continuous
100
AcDbCircle
 10
218.839157
 20
-226.064847
 30
0.0
 40
8.0
  0
CIRCLE
  5
3D0
100
AcDbEntity
  8
0
370
    -3
  6
Continuous
100
AcDbCircle
 10
218.839157
 20
-226.064847
 30
0.0
 40
6.9175
  0
CIRCLE
  5
3D1
100
AcDbEntity
  8
0
370
    -3
  6
Continuous
100
AcDbCircle
 10
418.839157
 20
-226.064847
 30
0.0
 40
8.0
  0
CIRCLE
  5
3D2
100
AcDbEntity
  8
0
370
    -3
  6
Continuous
100
AcDbCircle
 10
418.839157
 20
-226.064847
 30
0.0
 40
6.9175
  0
CIRCLE
  5
3D3
100
AcDbEntity
  8
0
370
    -3
  6
Continuous
100
AcDbCircle
 10
349.839157
 20
-120.064847
 30
0.0
 40
40.0
  0
LINE
  5
3D4
100
AcDbEntity
  8
0
370
    -3
  6
DASHED
100
AcDbLine
 10
160.339157
 20
-64.064847
 30
0.0
 11
164.839157
 21
-64.064847
 31
0.0
  0
LINE
  5
3D5
100
AcDbEntity
  8
0
370
    -3
  6
DASHED
100
AcDbLine
 10
160.339157
 20
-44.064847
 30
0.0
 11
164.839157
 21
-44.064847
 31
0.0
  0
LINE
  5
3D6
100
AcDbEntity
  8
0
370
    -3
  6
CENTER
100
AcDbLine
 10
156.558134
 20
-54.064847
 30
0.0
 11
169.359788
 21
-54.064847
 31
0.0
  0
LINE
  5
3D7
100
AcDbEntity
  8
0
370
    -3
  6
Continuous
100
AcDbLine
 10
160.339157
 20
-34.064847
 30
0.0
 11
164.839157
 21
-34.064847
 31
0.0
  0
POINT
  5
3D8
100
AcDbEntity
  8
0
370
    -3
  6
DASHED
100
AcDbPoint
 10
506.479072
 20
-99.951151
 30
0.0
  0
CIRCLE
  5
3D9
100
AcDbEntity
  8
0
370
    -3
  6
Continuous
100
AcDbCircle
 10
506.479072
 20
-120.064847
 30
0.0
 40
3.5
  0
CIRCLE
  5
3DA
100
AcDbEntity
  8
0
370
    -3
  6
Continuous
100
AcDbCircle
 10
506.479072
 20
-120.064847
 30
0.0
 40
4.0
  0
LINE
  5
3DB
100
AcDbEntity
  8
0
370
    -3
  6
CENTER
100
AcDbLine
 10
506.479072
 20
-93.537497
 30
0.0
 11
506.479072
 21
-143.537497
 31
0.0
  0
LINE
  5
3DC
100
AcDbEntity
  8
0
370
    -3
  6
CENTER
100
AcDbLine
 10
483.079717
 20
-120.064847
 30
0.0
 11
530.829717
 21
-120.064847
 31
0.0
  0
ARC
  5
3DD
100
AcDbEntity
  8
0
370
    -3
  6
Continuous
100
AcDbCircle
 10
506.479072
 20
-120.064847
 30
0.0
 40
20.0
100
AcDbArc
 50
107.457603
 51
72.542397
  0
LINE
  5
3DE
100
AcDbEntity
  8
0
370
    -3
  6
Continuous
100
AcDbLine
 10
500.479072
 20
-97.064847
 30
0.0
 11
500.479072
 21
-105.064847
 31
0.0
  0
LINE
  5
3DF
100
AcDbEntity
  8
0
370
    -3
  6
Continuous
100
AcDbLine
 10
500.479072
 20
-97.064847
 30
0.0
 11
512.479072
 21
-97.064847
 31
0.0
  0
LINE
  5
3E0
100
AcDbEntity
  8
0
370
    -3
  6
Continuous
100
AcDbLine
 10
512.479072
 20
-97.064847
 30
0.0
 11
512.479072
 21
-105.064847
 31
0.0
  0
LINE
  5
3E1
100
AcDbEntity
  8
0
370
    -3
  6
Continuous
100
AcDbLine
 10
500.479072
 20
-105.064847
 30
0.0
 11
512.479072
 21
-105.064847
 31
0.0
  0
ARC
  5
3E2
100
AcDbEntity
  8
0
370
    -3
  6
DASHED
100
AcDbCircle
 10
746.338489
 20
-160.564847
 30
0.0
 40
25.0
100
AcDbArc
 50
275.730175
 51
354.269825
  0
ARC
  5
3E3
100
AcDbEntity
  8
0
370
    -3
  6
DASHED
100
AcDbCircle
 10
738.338489
 20
-186.064847
 30
0.0
 40
0.5
100
AcDbArc
 50
270.0
 51
0.0
  0
ARC
  5
3E4
100
AcDbEntity
  8
0
370
    -3
  6
DASHED
100
AcDbCircle
 10
739.338489
 20
-186.064847
 30
0.0
 40
0.5
100
AcDbArc
 50
90.0
 51
180.0
  0
ARC
  5
3E5
100
AcDbEntity
  8
0
370
    -3
  6
DASHED
100
AcDbCircle
 10
738.838489
 20
214.435153
 30
0.0
 40
400.0
100
AcDbArc
 50
270.07153
 51
271.431984
  0
ARC
  5
3E6
100
AcDbEntity
  8
0
370
    -3
  6
DASHED
100
AcDbCircle
 10
699.338489
 20
-186.064847
 30
0.0
 40
0.5
100
AcDbArc
 50
180.0
 51
270.0
  0
ARC
  5
3E7
100
AcDbEntity
  8
0
370
    -3
  6
DASHED
100
AcDbCircle
 10
698.338489
 20
-186.064847
 30
0.0
 40
0.5
100
AcDbArc
 50
0.0
 51
90.0
  0
ARC
  5
3E8
100
AcDbEntity
  8
0
370
    -3
  6
DASHED
100
AcDbCircle
 10
698.838489
 20
214.435153
 30
0.0
 40
400.0
100
AcDbArc
 50
268.568016
 51
269.92847
  0
ARC
  5
3E9
100
AcDbEntity
  8
0
370
    -3
  6
DASHED
100
AcDbCircle
 10
691.338489
 20
-160.564847
 30
0.0
 40
25.0
100
AcDbArc
 50
185.730175
 51
264.269825
  0
LINE
  5
3EA
100
AcDbEntity
  8
0
370
    -3
  6
CENTER
100
AcDbLine
 10
718.838489
 20
-20.69117
 30
0.0
 11
718.838489
 21
-254.266318
 31
0.0
  0
LINE
  5
3EB
100
AcDbEntity
  8
0
370
    -3
  6
Continuous
100
AcDbLine
 10
788.838489
 20
-140.064846
 30
0.0
 11
788.838489
 21
-188.064846
 31
0.0
  0
LINE
  5
3EC
100
AcDbEntity
  8
0
370
    -3
  6
Continuous
100
AcDbLine
 10
648.838489
 20
-120.064847
 30
0.0
 11
648.838489
 21
-242.604786
 31
0.0
  0
LINE
  5
3ED
100
AcDbEntity
  8
0
370
    -3
  6
Continuous
100
AcDbLine
 10
660.838489
 20
-120.064847
 30
0.0
 11
660.838489
 21
-244.064847
 31
0.0
  0
LINE
  5
3EE
100
AcDbEntity
  8
0
370
    -3
  6
DASHED
100
AcDbLine
 10
738.338489
 20
-186.564847
 30
0.0
 11
699.338489
 21
-186.564847
 31
0.0
  0
LINE
  5
3EF
100
AcDbEntity
  8
0
370
    -3
  6
Continuous
100
AcDbLine
 10
788.838489
 20
-188.064846
 30
0.0
 11
788.838489
 21
-241.064847
 31
0.0
  0
LINE
  5
3F0
100
AcDbEntity
  8
0
370
    -3
  6
Continuous
100
AcDbLine
 10
788.838489
 20
-241.064847
 30
0.0
 11
788.338489
 21
-241.564847
 31
0.0
  0
LINE
  5
3F1
100
AcDbEntity
  8
0
370
    -3
  6
Continuous
100
AcDbLine
 10
788.338489
 20
-241.564847
 30
0.0
 11
779.838489
 21
-241.564847
 31
0.0
  0
LINE
  5
3F2
100
AcDbEntity
  8
0
370
    -3
  6
Continuous
100
AcDbLine
 10
648.838489
 20
-242.604786
 30
0.0
 11
649.335543
 21
-243.141544
 31
0.0
  0
LINE
  5
3F3
100
AcDbEntity
  8
0
370
    -3
  6
Continuous
100
AcDbLine
 10
660.838489
 20
-244.026386
 30
0.0
 11
649.335543
 21
-243.141544
 31
0.0
  0
LINE
  5
3F4
100
AcDbEntity
  8
0
370
    -3
  6
Continuous
100
AcDbLine
 10
779.838489
 20
-241.564847
 30
0.0
 11
660.838489
 21
-244.064847
 31
0.0
  0
LINE
  5
3F5
100
AcDbEntity
  8
0
370
    -3
  6
Continuous
100
AcDbLine
 10
648.838489
 20
-242.604786
 30
0.0
 11
649.335543
 21
-243.141544
 31
0.0
  0
LINE
  5
3F6
100
AcDbEntity
  8
0
370
    -3
  6
CENTER
100
AcDbLine
 10
644.385605
 20
-226.064847
 30
0.0
 11
791.883546
 21
-226.064847
 31
0.0
  0
ARC
  5
3F7
100
AcDbEntity
  8
0
370
    -3
  6
DASHED
100
AcDbCircle
 10
738.338489
 20
-80.064847
 30
0.0
 40
0.5
100
AcDbArc
 50
0.0
 51
90.0
  0
ARC
  5
3F8
100
AcDbEntity
  8
0
370
    -3
  6
DASHED
100
AcDbCircle
 10
739.338489
 20
-80.064847
 30
0.0
 40
0.5
100
AcDbArc
 50
180.0
 51
270.0
  0
ARC
  5
3F9
100
AcDbEntity
  8
0
370
    -3
  6
DASHED
100
AcDbCircle
 10
738.838489
 20
-480.564847
 30
0.0
 40
400.0
100
AcDbArc
 50
89.140459
 51
89.92847
  0
LINE
  5
3FA
100
AcDbEntity
  8
0
370
    -3
  6
DASHED
100
AcDbLine
 10
699.338489
 20
-79.564847
 30
0.0
 11
738.338489
 21
-79.564847
 31
0.0
  0
ARC
  5
3FB
100
AcDbEntity
  8
0
370
    -3
  6
DASHED
100
AcDbCircle
 10
698.338489
 20
-80.064847
 30
0.0
 40
0.5
100
AcDbArc
 50
270.0
 51
0.0
  0
ARC
  5
3FC
100
AcDbEntity
  8
0
370
    -3
  6
DASHED
100
AcDbCircle
 10
699.338489
 20
-80.064847
 30
0.0
 40
0.5
100
AcDbArc
 50
90.0
 51
180.0
  0
ARC
  5
3FD
100
AcDbEntity
  8
0
370
    -3
  6
DASHED
100
AcDbCircle
 10
691.338489
 20
-105.564847
 30
0.0
 40
25.0
100
AcDbArc
 50
86.56135
 51
174.269825
  0
ARC
  5
3FE
100
AcDbEntity
  8
0
370
    -3
  6
DASHED
100
AcDbCircle
 10
698.838489
 20
-480.564847
 30
0.0
 40
400.0
100
AcDbArc
 50
90.07153
 51
90.859541
  0
ARC
  5
3FF
100
AcDbEntity
  8
0
370
    -3
  6
DASHED
100
AcDbCircle
 10
746.338489
 20
-105.564847
 30
0.0
 40
25.0
100
AcDbArc
 50
5.730175
 51
93.43865
  0
ARC
  5
400
100
AcDbEntity
  8
0
370
    -3
  6
DASHED
100
AcDbCircle
 10
771.838489
 20
-112.564847
 30
0.0
 40
0.5
100
AcDbArc
 50
180.0
 51
270.0
  0
ARC
  5
401
100
AcDbEntity
  8
0
370
    -3
  6
DASHED
100
AcDbCircle
 10
771.838489
 20
-113.564847
 30
0.0
 40
0.5
100
AcDbArc
 50
0.0
 51
90.0
  0
ARC
  5
402
100
AcDbEntity
  8
0
370
    -3
  6
DASHED
100
AcDbCircle
 10
371.338489
 20
-113.064847
 30
0.0
 40
400.0
100
AcDbArc
 50
0.07153
 51
1.431984
  0
LINE
  5
403
100
AcDbEntity
  8
0
370
    -3
  6
DASHED
100
AcDbLine
 10
772.338489
 20
-113.564847
 30
0.0
 11
772.338489
 21
-152.564847
 31
0.0
  0
ARC
  5
404
100
AcDbEntity
  8
0
370
    -3
  6
DASHED
100
AcDbCircle
 10
771.838489
 20
-153.564847
 30
0.0
 40
0.5
100
AcDbArc
 50
90.0
 51
180.0
  0
ARC
  5
405
100
AcDbEntity
  8
0
370
    -3
  6
DASHED
100
AcDbCircle
 10
771.838489
 20
-152.564847
 30
0.0
 40
0.5
100
AcDbArc
 50
270.0
 51
0.0
  0
ARC
  5
406
100
AcDbEntity
  8
0
370
    -3
  6
DASHED
100
AcDbCircle
 10
371.338489
 20
-153.064847
 30
0.0
 40
400.0
100
AcDbArc
 50
358.568016
 51
359.92847
  0
ARC
  5
407
100
AcDbEntity
  8
0
370
    -3
  6
DASHED
100
AcDbCircle
 10
665.838489
 20
-153.564847
 30
0.0
 40
0.5
100
AcDbArc
 50
0.0
 51
90.0
  0
ARC
  5
408
100
AcDbEntity
  8
0
370
    -3
  6
DASHED
100
AcDbCircle
 10
1066.338489
 20
-153.064847
 30
0.0
 40
400.0
100
AcDbArc
 50
180.07153
 51
181.431984
  0
ARC
  5
409
100
AcDbEntity
  8
0
370
    -3
  6
DASHED
100
AcDbCircle
 10
665.838489
 20
-152.564847
 30
0.0
 40
0.5
100
AcDbArc
 50
180.0
 51
270.0
  0
LINE
  5
40A
100
AcDbEntity
  8
0
370
    -3
  6
DASHED
100
AcDbLine
 10
665.338489
 20
-152.564847
 30
0.0
 11
665.338489
 21
-113.564847
 31
0.0
  0
ARC
  5
40B
100
AcDbEntity
  8
0
370
    -3
  6
DASHED
100
AcDbCircle
 10
665.838489
 20
-112.564847
 30
0.0
 40
0.5
100
AcDbArc
 50
270.0
 51
0.0
  0
ARC
  5
40C
100
AcDbEntity
  8
0
370
    -3
  6
DASHED
100
AcDbCircle
 10
665.838489
 20
-113.564847
 30
0.0
 40
0.5
100
AcDbArc
 50
90.0
 51
180.0
  0
ARC
  5
40D
100
AcDbEntity
  8
0
370
    -3
  6
DASHED
100
AcDbCircle
 10
1066.338489
 20
-113.064847
 30
0.0
 40
400.0
100
AcDbArc
 50
178.568016
 51
179.947
  0
LINE
  5
40E
100
AcDbEntity
  8
0
370
    -3
  6
CENTER
100
AcDbLine
 10
750.937592
 20
-133.064847
 30
0.0
 11
681.125625
 21
-133.064847
 31
0.0
  0
LINE
  5
40F
100
AcDbEntity
  8
0
370
    -3
  6
CENTER
100
AcDbLine
 10
569.800949
 20
-120.064847
 30
0.0
 11
804.969029
 21
-120.064847
 31
0.0
  0
LINE
  5
410
100
AcDbEntity
  8
0
370
    -3
  6
Continuous
100
AcDbLine
 10
788.838489
 20
-35.753923
 30
0.0
 11
788.838489
 21
-140.064846
 31
0.0
  0
LINE
  5
411
100
AcDbEntity
  8
0
370
    -3
  6
Continuous
100
AcDbLine
 10
648.838489
 20
-120.064847
 30
0.0
 11
648.838489
 21
-34.524909
 31
0.0
  0
LINE
  5
412
100
AcDbEntity
  8
0
370
    -3
  6
Continuous
100
AcDbLine
 10
660.838489
 20
-120.064847
 30
0.0
 11
660.838489
 21
-33.064847
 31
0.0
  0
LINE
  5
413
100
AcDbEntity
  8
0
370
    -3
  6
Continuous
100
AcDbLine
 10
788.838489
 20
-62.564847
 30
0.0
 11
793.438489
 21
-62.564847
 31
0.0
  0
LINE
  5
414
100
AcDbEntity
  8
0
370
    -3
  6
Continuous
100
AcDbLine
 10
793.838489
 20
-62.964847
 30
0.0
 11
793.438489
 21
-62.564847
 31
0.0
  0
LINE
  5
415
100
AcDbEntity
  8
0
370
    -3
  6
Continuous
100
AcDbLine
 10
793.838489
 20
-62.964847
 30
0.0
 11
793.838489
 21
-120.064847
 31
0.0
  0
LINE
  5
416
100
AcDbEntity
  8
0
370
    -3
  6
Continuous
100
AcDbLine
 10
648.838489
 20
-62.564847
 30
0.0
 11
644.238489
 21
-62.564847
 31
0.0
  0
LINE
  5
417
100
AcDbEntity
  8
0
370
    -3
  6
Continuous
100
AcDbLine
 10
643.838489
 20
-62.964847
 30
0.0
 11
644.238489
 21
-62.564847
 31
0.0
  0
LINE
  5
418
100
AcDbEntity
  8
0
370
    -3
  6
Continuous
100
AcDbLine
 10
643.838489
 20
-62.964847
 30
0.0
 11
643.838489
 21
-120.064847
 31
0.0
  0
LINE
  5
419
100
AcDbEntity
  8
0
370
    -3
  6
Continuous
100
AcDbLine
 10
788.838489
 20
-177.564847
 30
0.0
 11
793.438489
 21
-177.564847
 31
0.0
  0
LINE
  5
41A
100
AcDbEntity
  8
0
370
    -3
  6
Continuous
100
AcDbLine
 10
793.838489
 20
-177.164847
 30
0.0
 11
793.438489
 21
-177.564847
 31
0.0
  0
LINE
  5
41B
100
AcDbEntity
  8
0
370
    -3
  6
Continuous
100
AcDbLine
 10
793.838489
 20
-177.164847
 30
0.0
 11
793.838489
 21
-120.064847
 31
0.0
  0
LINE
  5
41C
100
AcDbEntity
  8
0
370
    -3
  6
Continuous
100
AcDbLine
 10
648.838489
 20
-177.564847
 30
0.0
 11
644.238489
 21
-177.564847
 31
0.0
  0
LINE
  5
41D
100
AcDbEntity
  8
0
370
    -3
  6
Continuous
100
AcDbLine
 10
643.838489
 20
-177.164847
 30
0.0
 11
644.238489
 21
-177.564847
 31
0.0
  0
LINE
  5
41E
100
AcDbEntity
  8
0
370
    -3
  6
Continuous
100
AcDbLine
 10
643.838489
 20
-177.164847
 30
0.0
 11
643.838489
 21
-120.064847
 31
0.0
  0
LINE
  5
41F
100
AcDbEntity
  8
0
370
    -3
  6
Continuous
100
AcDbLine
 10
631.838489
 20
-97.064847
 30
0.0
 11
576.838489
 21
-97.064847
 31
0.0
  0
LINE
  5
420
100
AcDbEntity
  8
0
370
    -3
  6
Continuous
100
AcDbLine
 10
641.838489
 20
-100.064847
 30
0.0
 11
576.838489
 21
-100.064847
 31
0.0
  0
LINE
  5
421
100
AcDbEntity
  8
0
370
    -3
  6
Continuous
100
AcDbLine
 10
641.838489
 20
-140.064847
 30
0.0
 11
576.838489
 21
-140.064847
 31
0.0
  0
LINE
  5
422
100
AcDbEntity
  8
0
370
    -3
  6
Continuous
100
AcDbLine
 10
631.838489
 20
-100.064847
 30
0.0
 11
631.838489
 21
-97.064847
 31
0.0
  0
LINE
  5
423
100
AcDbEntity
  8
0
370
    -3
  6
Continuous
100
AcDbLine
 10
641.838489
 20
-99.064847
 30
0.0
 11
641.838489
 21
-141.064847
 31
0.0
  0
LINE
  5
424
100
AcDbEntity
  8
0
370
    -3
  6
Continuous
100
AcDbLine
 10
643.838489
 20
-99.064847
 30
0.0
 11
641.838489
 21
-99.064847
 31
0.0
  0
LINE
  5
425
100
AcDbEntity
  8
0
370
    -3
  6
Continuous
100
AcDbLine
 10
643.838489
 20
-141.064847
 30
0.0
 11
641.838489
 21
-141.064847
 31
0.0
  0
LINE
  5
426
100
AcDbEntity
  8
0
370
    -3
  6
Continuous
100
AcDbLine
 10
788.838489
 20
-36.064847
 30
0.0
 11
788.338489
 21
-35.564847
 31
0.0
  0
LINE
  5
427
100
AcDbEntity
  8
0
370
    -3
  6
Continuous
100
AcDbLine
 10
660.838489
 20
-33.103309
 30
0.0
 11
649.335543
 21
-33.988151
 31
0.0
  0
LINE
  5
428
100
AcDbEntity
  8
0
370
    -3
  6
Continuous
100
AcDbLine
 10
649.335543
 20
-33.988151
 30
0.0
 11
648.838489
 21
-34.524909
 31
0.0
  0
LINE
  5
429
100
AcDbEntity
  8
0
370
    -3
  6
Continuous
100
AcDbLine
 10
788.838489
 20
-35.753923
 30
0.0
 11
660.838489
 21
-33.064847
 31
0.0
  0
LINE
  5
42A
100
AcDbEntity
  8
0
370
    -3
  6
Continuous
100
AcDbLine
 10
649.335543
 20
-33.988151
 30
0.0
 11
648.838489
 21
-34.524909
 31
0.0
  0
LINE
  5
42B
100
AcDbEntity
  8
0
370
    -3
  6
Continuous
100
AcDbLine
 10
576.838489
 20
-140.064847
 30
0.0
 11
576.838489
 21
-97.064847
 31
0.0
  0
LINE
  5
42C
100
AcDbEntity
  8
0
370
    -3
  6
CENTER
100
AcDbLine
 10
645.123095
 20
-51.064847
 30
0.0
 11
791.883546
 21
-51.064847
 31
0.0
  0
LINE
  5
42D
100
AcDbEntity
  8
0
370
    -3
  6
Continuous
100
AcDbLine
 10
790.338489
 20
-177.564847
 30
0.0
 11
790.338489
 21
-180.305229
 31
0.0
  0
ARC
  5
42E
100
AcDbEntity
  8
0
370
    -3
  6
Continuous
100
AcDbCircle
 10
770.338489
 20
-180.305229
 30
0.0
 40
20.0
100
AcDbArc
 50
342.497476
 51
0.0
  0
ARC
  5
42F
100
AcDbEntity
  8
0
370
    -3
  6
Continuous
100
AcDbCircle
 10
718.838489
 20
-164.064847
 30
0.0
 40
74.0
100
AcDbArc
 50
341.075356
 51
342.497476
  0
LINE
  5
430
100
AcDbEntity
  8
0
370
    -3
  6
Continuous
100
AcDbLine
 10
647.338489
 20
-177.564847
 30
0.0
 11
647.338489
 21
-180.305229
 31
0.0
  0
ARC
  5
431
100
AcDbEntity
  8
0
370
    -3
  6
Continuous
100
AcDbCircle
 10
667.338489
 20
-180.305229
 30
0.0
 40
20.0
100
AcDbArc
 50
180.0
 51
197.502524
  0
ARC
  5
432
100
AcDbEntity
  8
0
370
    -3
  6
Continuous
100
AcDbCircle
 10
718.838489
 20
-164.064847
 30
0.0
 40
74.0
100
AcDbArc
 50
197.502524
 51
198.924644
  0
MTEXT
  5
433
100
AcDbEntity
  8
0
370
    -3
  6
Continuous
100
AcDbMText
 10
-310.777191
 20
194.041168
 30
0.0
 40
15.0
 41
0.0
 71
     7
 72
     1
  1
\W0.48;GV-SHYM-RR
  7
ZU_SHPTB00001
 11
1.0
 21
0.0
 31
0.0
 73
     1
 44
1.0
  0
MTEXT
  5
434
100
AcDbEntity
  8
0
370
    -3
  6
Continuous
100
AcDbMText
 10
-310.777191
 20
160.141174
 30
0.0
 40
15.0
 41
0.0
 71
     7
 72
     1
  1
\W0.43;2.5-2.1r/min\W0.53;　
  7
ZU_SHPTB00001
 11
1.0
 21
0.0
 31
0.0
 73
     1
 44
1.0
  0
MTEXT
  5
435
100
AcDbEntity
  8
0
370
    -3
  6
Continuous
100
AcDbMText
 10
-310.777191
 20
143.191162
 30
0.0
 40
15.0
 41
0.0
 71
     7
 72
     1
  1
\W0.42;GEAR\W0.70; \W0.42;RATIO\W0.70;  \W0.42;1/1200-1/1440
  7
ZU_SHPTB00001
 11
1.0
 21
0.0
 31
0.0
 73
     1
 44
1.0
  0
MTEXT
  5
436
100
AcDbEntity
  8
0
370
    -3
  6
Continuous
100
AcDbMText
 10
-310.777191
 20
210.99118
 30
0.0
 40
15.0
 41
0.0
 71
     7
 72
     1
  1
\W0.63;三菱ギヤードモータ  
  7
ZU_SHPTB00001
 11
1.0
 21
0.0
 31
0.0
 73
     1
 44
1.0
  0
MTEXT
  5
437
100
AcDbEntity
  8
0
370
    -3
  6
Continuous
100
AcDbMText
 10
-310.777191
 20
126.241142
 30
0.0
 40
15.0
 41
0.0
 71
     7
 72
     1
  1
\W0.43;SCALE\W0.72;  \W0.43;1/1
  7
ZU_SHPTB00001
 11
1.0
 21
0.0
 31
0.0
 73
     1
 44
1.0
  0
MTEXT
  5
438
100
AcDbEntity
  8
0
370
    -3
  6
Continuous
100
AcDbMText
 10
-310.777191
 20
177.091187
 30
0.0
 40
15.0
 41
0.0
 71
     7
 72
     1
  1
\W0.43;0.4kW
  7
ZU_SHPTB00001
 11
1.0
 21
0.0
 31
0.0
 73
     1
 44
1.0
  0
LINE
  5
439
100
AcDbEntity
  8
0
370
    -3
  6
Continuous
100
AcDbLine
 10
69.236626
 20
194.055638
 30
0.0
 11
69.236626
 21
233.055638
 31
0.0
  0
ARC
  5
43A
100
AcDbEntity
  8
0
370
    -3
  6
Continuous
100
AcDbCircle
 10
61.436626
 20
233.055638
 30
0.0
 40
7.8
100
AcDbArc
 50
0.0
 51
90.0
  0
LINE
  5
43B
100
AcDbEntity
  8
0
370
    -3
  6
Continuous
100
AcDbLine
 10
61.436626
 20
240.855638
 30
0.0
 11
-21.434903
 21
240.855638
 31
0.0
  0
LINE
  5
43C
100
AcDbEntity
  8
0
370
    -3
  6
Continuous
100
AcDbLine
 10
69.236626
 20
194.055638
 30
0.0
 11
69.236626
 21
155.055638
 31
0.0
  0
ARC
  5
43D
100
AcDbEntity
  8
0
370
    -3
  6
Continuous
100
AcDbCircle
 10
61.436626
 20
155.055638
 30
0.0
 40
7.8
100
AcDbArc
 50
270.0
 51
360.0
  0
ELLIPSE
  5
43E
100
AcDbEntity
  8
0
370
    -3
  6
Continuous
100
AcDbEllipse
 10
63.027269
 20
154.555638
 30
0.0
 11
0.0
 21
3.5
 31
0.0
210
0.0
220
0.0
230
1.0
 40
0.982815
 41
0.0
 42
6.2831853071795862
  0
LINE
  5
43F
100
AcDbEntity
  8
0
370
    -3
  6
Continuous
100
AcDbLine
 10
61.436626
 20
147.255638
 30
0.0
 11
-21.434903
 21
147.255638
 31
0.0
  0
POINT
  5
440
100
AcDbEntity
  8
0
370
    -3
  6
CENTER
100
AcDbPoint
 10
-46.660843
 20
204.533138
 30
0.0
  0
POINT
  5
441
100
AcDbEntity
  8
0
370
    -3
  6
CENTER
100
AcDbPoint
 10
-46.660843
 20
204.533138
 30
0.0
  0
ARC
  5
442
100
AcDbEntity
  8
0
370
    -3
  6
Continuous
100
AcDbCircle
 10
-44.660843
 20
206.055638
 30
0.0
 40
2.0
100
AcDbArc
 50
90.0
 51
180.0
  0
LINE
  5
443
100
AcDbEntity
  8
0
370
    -3
  6
Continuous
100
AcDbLine
 10
-46.660843
 20
206.055638
 30
0.0
 11
-46.660843
 21
194.055638
 31
0.0
  0
LINE
  5
444
100
AcDbEntity
  8
0
370
    -3
  6
Continuous
100
AcDbLine
 10
-16.898197
 20
235.555638
 30
0.0
 11
-18.615709
 21
233.555638
 31
0.0
  0
LINE
  5
445
100
AcDbEntity
  8
0
370
    -3
  6
Continuous
100
AcDbLine
 10
-18.615709
 20
233.555638
 30
0.0
 11
-16.898197
 21
231.555638
 31
0.0
  0
ARC
  5
446
100
AcDbEntity
  8
0
370
    -3
  6
Continuous
100
AcDbCircle
 10
-6.216367
 20
228.805638
 30
0.0
 40
3.8
100
AcDbArc
 50
90.0
 51
138.609573
  0
ARC
  5
447
100
AcDbEntity
  8
0
370
    -3
  6
Continuous
100
AcDbCircle
 10
-21.434903
 20
233.055638
 30
0.0
 40
7.8
100
AcDbArc
 50
90.0
 51
180.0
  0
ARC
  5
448
100
AcDbEntity
  8
0
370
    -3
  6
Continuous
100
AcDbCircle
 10
-18.983717
 20
233.055638
 30
0.0
 40
7.8
100
AcDbArc
 50
90.0
 51
180.0
  0
ELLIPSE
  5
449
100
AcDbEntity
  8
0
370
    -3
  6
Continuous
100
AcDbEllipse
 10
-19.446739
 20
233.555638
 30
0.0
 11
-0.0000000000002061
 21
3.5
 31
0.0
210
0.0
220
0.0
230
1.0
 40
0.982815
 41
0.0
 42
6.2831853071795862
  0
LINE
  5
44A
100
AcDbEntity
  8
0
370
    -3
  6
Continuous
100
AcDbLine
 10
-20.523428
 20
235.555638
 30
0.0
 11
-18.615709
 21
233.555638
 31
0.0
  0
LINE
  5
44B
100
AcDbEntity
  8
0
370
    -3
  6
Continuous
100
AcDbLine
 10
-18.615709
 20
233.555638
 30
0.0
 11
-20.523428
 21
231.555638
 31
0.0
  0
ARC
  5
44C
100
AcDbEntity
  8
0
370
    -3
  6
Continuous
100
AcDbCircle
 10
-15.193102
 20
218.6201
 30
0.0
 40
3.8
100
AcDbArc
 50
138.609573
 51
180.0
  0
LINE
  5
44D
100
AcDbEntity
  8
0
370
    -3
  6
Continuous
100
AcDbLine
 10
-9.067209
 20
231.318146
 30
0.0
 11
-18.043944
 21
221.132609
 31
0.0
  0
LINE
  5
44E
100
AcDbEntity
  8
0
370
    -3
  6
Continuous
100
AcDbLine
 10
-44.660843
 20
208.055638
 30
0.0
 11
-29.234903
 21
208.055638
 31
0.0
  0
LINE
  5
44F
100
AcDbEntity
  8
0
370
    -3
  6
Continuous
100
AcDbLine
 10
-29.234903
 20
194.055638
 30
0.0
 11
-29.234903
 21
233.055638
 31
0.0
  0
LINE
  5
450
100
AcDbEntity
  8
0
370
    -3
  6
Continuous
100
AcDbLine
 10
-26.783717
 20
194.055638
 30
0.0
 11
-26.783717
 21
233.055638
 31
0.0
  0
LINE
  5
451
100
AcDbEntity
  8
0
370
    -3
  6
Continuous
100
AcDbLine
 10
-18.993102
 20
194.055638
 30
0.0
 11
-18.993102
 21
218.6201
 31
0.0
  0
LINE
  5
452
100
AcDbEntity
  8
0
370
    -3
  6
Continuous
100
AcDbLine
 10
62.218517
 20
194.055638
 30
0.0
 11
62.218517
 21
218.602629
 31
0.0
  0
ARC
  5
453
100
AcDbEntity
  8
0
370
    -3
  6
Continuous
100
AcDbCircle
 10
58.418517
 20
218.602629
 30
0.0
 40
3.8
100
AcDbArc
 50
0.0
 51
41.85078
  0
LINE
  5
454
100
AcDbEntity
  8
0
370
    -3
  6
Continuous
100
AcDbLine
 10
51.76511
 20
194.055638
 30
0.0
 11
51.76511
 21
222.605638
 31
0.0
  0
LINE
  5
455
100
AcDbEntity
  8
0
370
    -3
  6
Continuous
100
AcDbLine
 10
63.8583
 20
233.555638
 30
0.0
 11
65.575811
 21
231.555638
 31
0.0
  0
LINE
  5
456
100
AcDbEntity
  8
0
370
    -3
  6
Continuous
100
AcDbLine
 10
65.575811
 20
235.555638
 30
0.0
 11
63.8583
 21
233.555638
 31
0.0
  0
ELLIPSE
  5
457
100
AcDbEntity
  8
0
370
    -3
  6
Continuous
100
AcDbEllipse
 10
63.027269
 20
233.555638
 30
0.0
 11
-0.0000000000002061
 21
3.5
 31
0.0
210
0.0
220
0.0
230
1.0
 40
0.982815
 41
0.0
 42
6.2831853071795862
  0
LINE
  5
458
100
AcDbEntity
  8
0
370
    -3
  6
Continuous
100
AcDbLine
 10
61.95058
 20
235.555638
 30
0.0
 11
63.8583
 21
233.555638
 31
0.0
  0
LINE
  5
459
100
AcDbEntity
  8
0
370
    -3
  6
Continuous
100
AcDbLine
 10
63.8583
 20
233.555638
 30
0.0
 11
61.95058
 21
231.555638
 31
0.0
  0
ARC
  5
45A
100
AcDbEntity
  8
0
370
    -3
  6
Continuous
100
AcDbCircle
 10
49.279689
 20
228.805638
 30
0.0
 40
3.8
100
AcDbArc
 50
41.85078
 51
90.0
  0
LINE
  5
45B
100
AcDbEntity
  8
0
370
    -3
  6
Continuous
100
AcDbLine
 10
52.110252
 20
231.340971
 30
0.0
 11
61.249079
 21
221.137962
 31
0.0
  0
ARC
  5
45C
100
AcDbEntity
  8
0
370
    -3
  6
Continuous
100
AcDbCircle
 10
41.76511
 20
222.605638
 30
0.0
 40
10.0
100
AcDbArc
 50
0.0
 51
90.0
  0
LINE
  5
45D
100
AcDbEntity
  8
0
370
    -3
  6
Continuous
100
AcDbLine
 10
-6.216367
 20
232.605638
 30
0.0
 11
49.279689
 21
232.605638
 31
0.0
  0
ARC
  5
45E
100
AcDbEntity
  8
0
370
    -3
  6
Continuous
100
AcDbCircle
 10
49.279689
 20
159.305638
 30
0.0
 40
3.8
100
AcDbArc
 50
270.0
 51
318.14922
  0
LINE
  5
45F
100
AcDbEntity
  8
0
370
    -3
  6
Continuous
100
AcDbLine
 10
52.110252
 20
156.770305
 30
0.0
 11
61.249079
 21
166.973313
 31
0.0
  0
ARC
  5
460
100
AcDbEntity
  8
0
370
    -3
  6
Continuous
100
AcDbCircle
 10
41.76511
 20
165.505638
 30
0.0
 40
10.0
100
AcDbArc
 50
270.0
 51
0.0
  0
LINE
  5
461
100
AcDbEntity
  8
0
370
    -3
  6
Continuous
100
AcDbLine
 10
51.76511
 20
194.055638
 30
0.0
 11
51.76511
 21
165.505638
 31
0.0
  0
ARC
  5
462
100
AcDbEntity
  8
0
370
    -3
  6
Continuous
100
AcDbCircle
 10
-6.216367
 20
159.305638
 30
0.0
 40
3.8
100
AcDbArc
 50
221.390427
 51
270.0
  0
LINE
  5
463
100
AcDbEntity
  8
0
370
    -3
  6
Continuous
100
AcDbLine
 10
-6.216367
 20
155.505638
 30
0.0
 11
49.279689
 21
155.505638
 31
0.0
  0
LINE
  5
464
100
AcDbEntity
  8
0
370
    -3
  6
Continuous
100
AcDbLine
 10
-9.067209
 20
156.793129
 30
0.0
 11
-18.043944
 21
166.978666
 31
0.0
  0
LINE
  5
465
100
AcDbEntity
  8
0
370
    -3
  6
Continuous
100
AcDbLine
 10
-18.615709
 20
154.555638
 30
0.0
 11
-16.898197
 21
156.555638
 31
0.0
  0
LINE
  5
466
100
AcDbEntity
  8
0
370
    -3
  6
Continuous
100
AcDbLine
 10
-16.898197
 20
152.555638
 30
0.0
 11
-18.615709
 21
154.555638
 31
0.0
  0
ARC
  5
467
100
AcDbEntity
  8
0
370
    -3
  6
Continuous
100
AcDbCircle
 10
-15.193102
 20
169.491175
 30
0.0
 40
3.8
100
AcDbArc
 50
180.0
 51
221.390427
  0
ARC
  5
468
100
AcDbEntity
  8
0
370
    -3
  6
Continuous
100
AcDbCircle
 10
-21.434903
 20
155.055638
 30
0.0
 40
7.8
100
AcDbArc
 50
180.0
 51
270.0
  0
ARC
  5
469
100
AcDbEntity
  8
0
370
    -3
  6
Continuous
100
AcDbCircle
 10
-18.983717
 20
155.055638
 30
0.0
 40
7.8
100
AcDbArc
 50
180.0
 51
270.0
  0
ELLIPSE
  5
46A
100
AcDbEntity
  8
0
370
    -3
  6
Continuous
100
AcDbEllipse
 10
-19.446739
 20
154.555638
 30
0.0
 11
0.0
 21
3.5
 31
0.0
210
0.0
220
0.0
230
1.0
 40
0.982815
 41
0.0
 42
6.2831853071795862
  0
LINE
  5
46B
100
AcDbEntity
  8
0
370
    -3
  6
Continuous
100
AcDbLine
 10
-20.523428
 20
152.555638
 30
0.0
 11
-18.615709
 21
154.555638
 31
0.0
  0
LINE
  5
46C
100
AcDbEntity
  8
0
370
    -3
  6
Continuous
100
AcDbLine
 10
-18.615709
 20
154.555638
 30
0.0
 11
-20.523428
 21
156.555638
 31
0.0
  0
LINE
  5
46D
100
AcDbEntity
  8
0
370
    -3
  6
Continuous
100
AcDbLine
 10
-44.660843
 20
180.055638
 30
0.0
 11
-29.234903
 21
180.055638
 31
0.0
  0
ARC
  5
46E
100
AcDbEntity
  8
0
370
    -3
  6
Continuous
100
AcDbCircle
 10
-44.660843
 20
182.055638
 30
0.0
 40
2.0
100
AcDbArc
 50
180.0
 51
270.0
  0
LINE
  5
46F
100
AcDbEntity
  8
0
370
    -3
  6
Continuous
100
AcDbLine
 10
-46.660843
 20
182.055638
 30
0.0
 11
-46.660843
 21
194.055638
 31
0.0
  0
LINE
  5
470
100
AcDbEntity
  8
0
370
    -3
  6
Continuous
100
AcDbLine
 10
-18.993102
 20
194.055638
 30
0.0
 11
-18.993102
 21
169.491175
 31
0.0
  0
LINE
  5
471
100
AcDbEntity
  8
0
370
    -3
  6
Continuous
100
AcDbLine
 10
-29.234903
 20
194.055638
 30
0.0
 11
-29.234903
 21
155.055638
 31
0.0
  0
LINE
  5
472
100
AcDbEntity
  8
0
370
    -3
  6
Continuous
100
AcDbLine
 10
-26.783717
 20
194.055638
 30
0.0
 11
-26.783717
 21
155.055638
 31
0.0
  0
LINE
  5
473
100
AcDbEntity
  8
0
370
    -3
  6
CENTER
100
AcDbLine
 10
24.339157
 20
243.747401
 30
0.0
 11
24.339157
 21
143.362998
 31
0.0
  0
LINE
  5
474
100
AcDbEntity
  8
0
370
    -3
  6
Continuous
100
AcDbLine
 10
62.218517
 20
194.055638
 30
0.0
 11
62.218517
 21
169.508646
 31
0.0
  0
LINE
  5
475
100
AcDbEntity
  8
0
370
    -3
  6
Continuous
100
AcDbLine
 10
63.8583
 20
154.555638
 30
0.0
 11
65.575811
 21
156.555638
 31
0.0
  0
LINE
  5
476
100
AcDbEntity
  8
0
370
    -3
  6
Continuous
100
AcDbLine
 10
65.575811
 20
152.555638
 30
0.0
 11
63.8583
 21
154.555638
 31
0.0
  0
ARC
  5
477
100
AcDbEntity
  8
0
370
    -3
  6
Continuous
100
AcDbCircle
 10
58.418517
 20
169.508646
 30
0.0
 40
3.8
100
AcDbArc
 50
318.14922
 51
0.0
  0
LINE
  5
478
100
AcDbEntity
  8
0
370
    -3
  6
Continuous
100
AcDbLine
 10
61.95058
 20
152.555638
 30
0.0
 11
63.8583
 21
154.555638
 31
0.0
  0
LINE
  5
479
100
AcDbEntity
  8
0
370
    -3
  6
Continuous
100
AcDbLine
 10
63.8583
 20
154.555638
 30
0.0
 11
61.95058
 21
156.555638
 31
0.0
  0
ARC
  5
47A
100
AcDbEntity
  8
0
370
    -3
  6
Continuous
100
AcDbCircle
 10
-264.700414
 20
-81.564482
 30
0.0
 40
0.5
100
AcDbArc
 50
187.125016
 51
270.0
  0
LINE
  5
47B
100
AcDbEntity
  8
0
370
    -3
  6
Continuous
100
AcDbLine
 10
-264.700414
 20
-82.064482
 30
0.0
 11
-258.660834
 21
-82.064482
 31
0.0
  0
ARC
  5
47C
100
AcDbEntity
  8
0
370
    -3
  6
Continuous
100
AcDbCircle
 10
-212.621255
 20
-81.564482
 30
0.0
 40
0.5
100
AcDbArc
 50
270.0
 51
352.874984
  0
LINE
  5
47D
100
AcDbEntity
  8
0
370
    -3
  6
Continuous
100
AcDbLine
 10
-212.621255
 20
-82.064482
 30
0.0
 11
-218.660834
 21
-82.064482
 31
0.0
  0
LINE
  5
47E
100
AcDbEntity
  8
0
370
    -3
  6
Continuous
100
AcDbLine
 10
-219.910834
 20
-79.564482
 30
0.0
 11
-219.910834
 21
-78.064482
 31
0.0
  0
LINE
  5
47F
100
AcDbEntity
  8
0
370
    -3
  6
Continuous
100
AcDbLine
 10
-219.492364
 20
-79.564482
 30
0.0
 11
-219.625116
 21
-78.502465
 31
0.0
  0
ARC
  5
480
100
AcDbEntity
  8
0
370
    -3
  6
Continuous
100
AcDbCircle
 10
-220.121255
 20
-78.564482
 30
0.0
 40
0.5
100
AcDbArc
 50
7.125016
 51
90.0
  0
LINE
  5
481
100
AcDbEntity
  8
0
370
    -3
  6
Continuous
100
AcDbLine
 10
-212.125116
 20
-81.626499
 30
0.0
 11
-211.734612
 21
-78.502465
 31
0.0
  0
ARC
  5
482
100
AcDbEntity
  8
0
370
    -3
  6
Continuous
100
AcDbCircle
 10
-211.238473
 20
-78.564482
 30
0.0
 40
0.5
100
AcDbArc
 50
90.0
 51
172.874984
  0
ARC
  5
483
100
AcDbEntity
  8
0
370
    -3
  6
Continuous
100
AcDbCircle
 10
-211.179864
 20
-77.564482
 30
0.0
 40
0.5
100
AcDbArc
 50
270.0
 51
0.0
  0
LINE
  5
484
100
AcDbEntity
  8
0
370
    -3
  6
Continuous
100
AcDbLine
 10
-210.679864
 20
-77.564482
 30
0.0
 11
-210.679864
 21
-76.564482
 31
0.0
  0
ARC
  5
485
100
AcDbEntity
  8
0
370
    -3
  6
Continuous
100
AcDbCircle
 10
-210.179864
 20
-76.564482
 30
0.0
 40
0.5
100
AcDbArc
 50
90.0
 51
180.0
  0
LINE
  5
486
100
AcDbEntity
  8
0
370
    -3
  6
Continuous
100
AcDbLine
 10
-220.143679
 20
-78.064482
 30
0.0
 11
-211.179864
 21
-78.064482
 31
0.0
  0
LINE
  5
487
100
AcDbEntity
  8
0
370
    -3
  6
Continuous
100
AcDbLine
 10
-238.660834
 20
-78.064482
 30
0.0
 11
-220.143679
 21
-78.064482
 31
0.0
  0
LINE
  5
488
100
AcDbEntity
  8
0
370
    -3
  6
Continuous
100
AcDbLine
 10
-238.660834
 20
-78.064482
 30
0.0
 11
-257.17799
 21
-78.064482
 31
0.0
  0
ARC
  5
489
100
AcDbEntity
  8
0
370
    -3
  6
Continuous
100
AcDbCircle
 10
-257.17799
 20
-77.564482
 30
0.0
 40
0.5
100
AcDbArc
 50
182.0
 51
270.0
  0
LINE
  5
48A
100
AcDbEntity
  8
0
370
    -3
  6
Continuous
100
AcDbLine
 10
-257.677685
 20
-77.581932
 30
0.0
 11
-257.713825
 21
-76.547032
 31
0.0
  0
ARC
  5
48B
100
AcDbEntity
  8
0
370
    -3
  6
Continuous
100
AcDbCircle
 10
-258.21352
 20
-76.564482
 30
0.0
 40
0.5
100
AcDbArc
 50
2.0
 51
90.0
  0
LINE
  5
48C
100
AcDbEntity
  8
0
370
    -3
  6
Continuous
100
AcDbLine
 10
-258.21352
 20
-76.064482
 30
0.0
 11
-271.265578
 21
-76.064482
 31
0.0
  0
LINE
  5
48D
100
AcDbEntity
  8
0
370
    -3
  6
Continuous
100
AcDbLine
 10
-271.265578
 20
-76.064482
 30
0.0
 11
-271.186335
 21
-73.038305
 31
0.0
  0
ARC
  5
48E
100
AcDbEntity
  8
0
370
    -3
  6
Continuous
100
AcDbCircle
 10
-270.186677
 20
-73.064482
 30
0.0
 40
1.0
100
AcDbArc
 50
90.0
 51
178.5
  0
LINE
  5
48F
100
AcDbEntity
  8
0
370
    -3
  6
Continuous
100
AcDbLine
 10
-270.186677
 20
-72.064482
 30
0.0
 11
-207.134991
 21
-72.064482
 31
0.0
  0
ARC
  5
490
100
AcDbEntity
  8
0
370
    -3
  6
Continuous
100
AcDbCircle
 10
-207.134991
 20
-73.064482
 30
0.0
 40
1.0
100
AcDbArc
 50
1.5
 51
90.0
  0
LINE
  5
491
100
AcDbEntity
  8
0
370
    -3
  6
Continuous
100
AcDbLine
 10
-206.056091
 20
-76.064482
 30
0.0
 11
-206.135334
 21
-73.038305
 31
0.0
  0
LINE
  5
492
100
AcDbEntity
  8
0
370
    -3
  6
Continuous
100
AcDbLine
 10
-219.108148
 20
-76.064482
 30
0.0
 11
-206.056091
 21
-76.064482
 31
0.0
  0
ARC
  5
493
100
AcDbEntity
  8
0
370
    -3
  6
Continuous
100
AcDbCircle
 10
-219.108148
 20
-76.564482
 30
0.0
 40
0.5
100
AcDbArc
 50
90.0
 51
178.0
  0
LINE
  5
494
100
AcDbEntity
  8
0
370
    -3
  6
Continuous
100
AcDbLine
 10
-219.643983
 20
-77.581932
 30
0.0
 11
-219.607844
 21
-76.547032
 31
0.0
  0
ARC
  5
495
100
AcDbEntity
  8
0
370
    -3
  6
Continuous
100
AcDbCircle
 10
-220.143679
 20
-77.564482
 30
0.0
 40
0.5
100
AcDbArc
 50
270.0
 51
358.0
  0
LINE
  5
496
100
AcDbEntity
  8
0
370
    -3
  6
Continuous
100
AcDbLine
 10
-257.829305
 20
-79.564482
 30
0.0
 11
-257.696553
 21
-78.502465
 31
0.0
  0
ARC
  5
497
100
AcDbEntity
  8
0
370
    -3
  6
Continuous
100
AcDbCircle
 10
-257.200414
 20
-78.564482
 30
0.0
 40
0.5
100
AcDbArc
 50
90.0
 51
172.874984
  0
LINE
  5
498
100
AcDbEntity
  8
0
370
    -3
  6
Continuous
100
AcDbLine
 10
-257.410834
 20
-79.564482
 30
0.0
 11
-257.410834
 21
-78.064482
 31
0.0
  0
LINE
  5
499
100
AcDbEntity
  8
0
370
    -3
  6
Continuous
100
AcDbLine
 10
-257.17799
 20
-78.064482
 30
0.0
 11
-266.141805
 21
-78.064482
 31
0.0
  0
ARC
  5
49A
100
AcDbEntity
  8
0
370
    -3
  6
Continuous
100
AcDbCircle
 10
-266.083196
 20
-78.564482
 30
0.0
 40
0.5
100
AcDbArc
 50
7.125016
 51
90.0
  0
ARC
  5
49B
100
AcDbEntity
  8
0
370
    -3
  6
Continuous
100
AcDbCircle
 10
-266.141805
 20
-77.564482
 30
0.0
 40
0.5
100
AcDbArc
 50
180.0
 51
270.0
  0
LINE
  5
49C
100
AcDbEntity
  8
0
370
    -3
  6
Continuous
100
AcDbLine
 10
-266.641805
 20
-77.564482
 30
0.0
 11
-266.641805
 21
-76.564482
 31
0.0
  0
ARC
  5
49D
100
AcDbEntity
  8
0
370
    -3
  6
Continuous
100
AcDbCircle
 10
-267.141805
 20
-76.564482
 30
0.0
 40
0.5
100
AcDbArc
 50
0.0
 51
90.0
  0
ARC
  5
49E
100
AcDbEntity
  8
0
370
    -3
  6
Continuous
100
AcDbCircle
 10
-238.660834
 20
-45.064482
 30
0.0
 40
14.0
100
AcDbArc
 50
90.0
 51
270.0
  0
ARC
  5
49F
100
AcDbEntity
  8
0
370
    -3
  6
Continuous
100
AcDbCircle
 10
-238.660834
 20
-45.064482
 30
0.0
 40
9.3155
100
AcDbArc
 50
90.0
 51
270.0
  0
ARC
  5
4A0
100
AcDbEntity
  8
0
370
    -3
  6
Continuous
100
AcDbCircle
 10
-238.660834
 20
-45.064482
 30
0.0
 40
10.4775
100
AcDbArc
 50
90.0
 51
270.0
  0
ELLIPSE
  5
4A1
100
AcDbEntity
  8
0
370
    -3
  6
Continuous
100
AcDbEllipse
 10
-278.160834
 20
-21.478742
 30
0.0
 11
3.5
 21
0.0
 31
0.0
210
0.0
220
0.0
230
1.0
 40
0.656603
 41
0.9621393645107007
 42
2.7085416781366591
  0
LINE
  5
4A2
100
AcDbEntity
  8
0
370
    -3
  6
Continuous
100
AcDbLine
 10
-238.660834
 20
-24.595947
 30
0.0
 11
-277.660834
 21
-24.595947
 31
0.0
  0
LINE
  5
4A3
100
AcDbEntity
  8
0
370
    -3
  6
Continuous
100
AcDbLine
 10
-277.660834
 20
-19.593334
 30
0.0
 11
-238.660834
 21
-19.593334
 31
0.0
  0
LINE
  5
4A4
100
AcDbEntity
  8
0
370
    -3
  6
Continuous
100
AcDbLine
 10
-238.660834
 20
-72.064482
 30
0.0
 11
-269.660834
 21
-72.064482
 31
0.0
  0
LINE
  5
4A5
100
AcDbEntity
  8
0
370
    -3
  6
Continuous
100
AcDbLine
 10
-269.660834
 20
-71.064482
 30
0.0
 11
-238.660834
 21
-71.064482
 31
0.0
  0
LINE
  5
4A6
100
AcDbEntity
  8
0
370
    -3
  6
Continuous
100
AcDbLine
 10
-269.660834
 20
-72.064482
 30
0.0
 11
-269.660834
 21
-71.064482
 31
0.0
  0
LINE
  5
4A7
100
AcDbEntity
  8
0
370
    -3
  6
Continuous
100
AcDbLine
 10
-238.660834
 20
-71.064482
 30
0.0
 11
-266.660834
 21
-71.064482
 31
0.0
  0
LINE
  5
4A8
100
AcDbEntity
  8
0
370
    -3
  6
Continuous
100
AcDbLine
 10
-238.660834
 20
-25.82857
 30
0.0
 11
-264.719868
 21
-25.82857
 31
0.0
  0
LINE
  5
4A9
100
AcDbEntity
  8
0
370
    -3
  6
Continuous
100
AcDbLine
 10
-277.960834
 20
-63.264482
 30
0.0
 11
-277.960834
 21
-33.631624
 31
0.0
  0
LINE
  5
4AA
100
AcDbEntity
  8
0
370
    -3
  6
Continuous
100
AcDbLine
 10
-266.203265
 20
-26.130066
 30
0.0
 11
-275.644231
 21
-30.133119
 31
0.0
  0
ARC
  5
4AB
100
AcDbEntity
  8
0
370
    -3
  6
Continuous
100
AcDbCircle
 10
-264.719868
 20
-29.62857
 30
0.0
 40
3.8
100
AcDbArc
 50
90.0
 51
112.977375
  0
ARC
  5
4AC
100
AcDbEntity
  8
0
370
    -3
  6
Continuous
100
AcDbCircle
 10
-274.160834
 20
-33.631624
 30
0.0
 40
3.8
100
AcDbArc
 50
112.977375
 51
180.0
  0
LINE
  5
4AD
100
AcDbEntity
  8
0
370
    -3
  6
Continuous
100
AcDbLine
 10
-238.660834
 20
-70.064482
 30
0.0
 11
-271.160834
 21
-70.064482
 31
0.0
  0
ARC
  5
4AE
100
AcDbEntity
  8
0
370
    -3
  6
Continuous
100
AcDbCircle
 10
-271.160834
 20
-63.264482
 30
0.0
 40
6.8
100
AcDbArc
 50
180.0
 51
270.0
  0
LINE
  5
4AF
100
AcDbEntity
  8
0
370
    -3
  6
Continuous
100
AcDbLine
 10
-277.112023
 20
-66.554369
 30
0.0
 11
-278.160834
 21
-66.554369
 31
0.0
  0
ARC
  5
4B0
100
AcDbEntity
  8
0
370
    -3
  6
Continuous
100
AcDbCircle
 10
-267.925745
 20
-70.364482
 30
0.0
 40
0.3
100
AcDbArc
 50
13.342364
 51
90.0
  0
ARC
  5
4B1
100
AcDbEntity
  8
0
370
    -3
  6
Continuous
100
AcDbCircle
 10
-266.660834
 20
-70.064482
 30
0.0
 40
1.0
100
AcDbArc
 50
193.342364
 51
270.0
  0
LINE
  5
4B2
100
AcDbEntity
  8
0
370
    -3
  6
Continuous
100
AcDbLine
 10
-274.859105
 20
-68.970864
 30
0.0
 11
-277.660834
 21
-68.970864
 31
0.0
  0
LINE
  5
4B3
100
AcDbEntity
  8
0
370
    -3
  6
Continuous
100
AcDbLine
 10
-277.660834
 20
-69.308959
 30
0.0
 11
-274.276007
 21
-69.308959
 31
0.0
  0
LINE
  5
4B4
100
AcDbEntity
  8
0
370
    -3
  6
Continuous
100
AcDbLine
 10
-238.660834
 20
-24.257852
 30
0.0
 11
-277.660834
 21
-24.257852
 31
0.0
  0
LINE
  5
4B5
100
AcDbEntity
  8
0
370
    -3
  6
CENTER
100
AcDbLine
 10
-220.015902
 20
-45.064482
 30
0.0
 11
-259.961291
 21
-45.064482
 31
0.0
  0
ARC
  5
4B6
100
AcDbEntity
  8
0
370
    -3
  6
Continuous
100
AcDbCircle
 10
-199.660834
 20
-61.508959
 30
0.0
 40
7.8
100
AcDbArc
 50
270.0
 51
0.0
  0
LINE
  5
4B7
100
AcDbEntity
  8
0
370
    -3
  6
Continuous
100
AcDbLine
 10
-192.660834
 20
-31.595947
 30
0.0
 11
-192.660834
 21
-61.970864
 31
0.0
  0
ARC
  5
4B8
100
AcDbEntity
  8
0
370
    -3
  6
Continuous
100
AcDbCircle
 10
-199.660834
 20
-31.595947
 30
0.0
 40
7.0
100
AcDbArc
 50
0.0
 51
90.0
  0
ARC
  5
4B9
100
AcDbEntity
  8
0
370
    -3
  6
Continuous
100
AcDbCircle
 10
-199.660834
 20
-32.057852
 30
0.0
 40
7.8
100
AcDbArc
 50
0.0
 51
90.0
  0
ARC
  5
4BA
100
AcDbEntity
  8
0
370
    -3
  6
Continuous
100
AcDbCircle
 10
-199.660834
 20
-27.393334
 30
0.0
 40
7.8
100
AcDbArc
 50
0.0
 51
90.0
  0
ELLIPSE
  5
4BB
100
AcDbEntity
  8
0
370
    -3
  6
Continuous
100
AcDbEllipse
 10
-199.160834
 20
-21.478742
 30
0.0
 11
3.5
 21
0.0
 31
0.0
210
0.0
220
0.0
230
1.0
 40
0.656603
 41
0.4330509754535478
 42
2.1794532890791989
  0
LINE
  5
4BC
100
AcDbEntity
  8
0
370
    -3
  6
Continuous
100
AcDbLine
 10
-191.860834
 20
-27.393334
 30
0.0
 11
-191.860834
 21
-61.508959
 31
0.0
  0
LINE
  5
4BD
100
AcDbEntity
  8
0
370
    -3
  6
Continuous
100
AcDbLine
 10
-238.660834
 20
-24.595947
 30
0.0
 11
-199.660834
 21
-24.595947
 31
0.0
  0
LINE
  5
4BE
100
AcDbEntity
  8
0
370
    -3
  6
Continuous
100
AcDbLine
 10
-199.660834
 20
-19.593334
 30
0.0
 11
-238.660834
 21
-19.593334
 31
0.0
  0
LINE
  5
4BF
100
AcDbEntity
  8
0
370
    -3
  6
Continuous
100
AcDbLine
 10
-238.660834
 20
-72.064482
 30
0.0
 11
-207.660834
 21
-72.064482
 31
0.0
  0
LINE
  5
4C0
100
AcDbEntity
  8
0
370
    -3
  6
Continuous
100
AcDbLine
 10
-207.660834
 20
-71.064482
 30
0.0
 11
-238.660834
 21
-71.064482
 31
0.0
  0
LINE
  5
4C1
100
AcDbEntity
  8
0
370
    -3
  6
Continuous
100
AcDbLine
 10
-207.660834
 20
-72.064482
 30
0.0
 11
-207.660834
 21
-71.064482
 31
0.0
  0
ARC
  5
4C2
100
AcDbEntity
  8
0
370
    -3
  6
Continuous
100
AcDbCircle
 10
-199.660834
 20
-61.970864
 30
0.0
 40
7.0
100
AcDbArc
 50
270.0
 51
0.0
  0
LINE
  5
4C3
100
AcDbEntity
  8
0
370
    -3
  6
Continuous
100
AcDbLine
 10
-238.660834
 20
-71.064482
 30
0.0
 11
-210.660834
 21
-71.064482
 31
0.0
  0
LINE
  5
4C4
100
AcDbEntity
  8
0
370
    -3
  6
Continuous
100
AcDbLine
 10
-238.660834
 20
-25.82857
 30
0.0
 11
-212.601801
 21
-25.82857
 31
0.0
  0
LINE
  5
4C5
100
AcDbEntity
  8
0
370
    -3
  6
Continuous
100
AcDbLine
 10
-199.360834
 20
-63.264482
 30
0.0
 11
-199.360834
 21
-33.631624
 31
0.0
  0
LINE
  5
4C6
100
AcDbEntity
  8
0
370
    -3
  6
Continuous
100
AcDbLine
 10
-211.118404
 20
-26.130066
 30
0.0
 11
-201.677437
 21
-30.133119
 31
0.0
  0
ARC
  5
4C7
100
AcDbEntity
  8
0
370
    -3
  6
Continuous
100
AcDbCircle
 10
-212.601801
 20
-29.62857
 30
0.0
 40
3.8
100
AcDbArc
 50
67.022625
 51
90.0
  0
ARC
  5
4C8
100
AcDbEntity
  8
0
370
    -3
  6
Continuous
100
AcDbCircle
 10
-203.160834
 20
-33.631624
 30
0.0
 40
3.8
100
AcDbArc
 50
0.0
 51
67.022625
  0
LINE
  5
4C9
100
AcDbEntity
  8
0
370
    -3
  6
Continuous
100
AcDbLine
 10
-238.660834
 20
-70.064482
 30
0.0
 11
-206.160834
 21
-70.064482
 31
0.0
  0
ARC
  5
4CA
100
AcDbEntity
  8
0
370
    -3
  6
Continuous
100
AcDbCircle
 10
-206.160834
 20
-63.264482
 30
0.0
 40
6.8
100
AcDbArc
 50
270.0
 51
0.0
  0
LINE
  5
4CB
100
AcDbEntity
  8
0
370
    -3
  6
Continuous
100
AcDbLine
 10
-200.209646
 20
-66.554369
 30
0.0
 11
-199.160834
 21
-66.554369
 31
0.0
  0
ARC
  5
4CC
100
AcDbEntity
  8
0
370
    -3
  6
Continuous
100
AcDbCircle
 10
-199.160834
 20
-60.554369
 30
0.0
 40
6.0
100
AcDbArc
 50
270.0
 51
0.0
  0
ARC
  5
4CD
100
AcDbEntity
  8
0
370
    -3
  6
Continuous
100
AcDbCircle
 10
-209.395923
 20
-70.364482
 30
0.0
 40
0.3
100
AcDbArc
 50
90.0
 51
166.657636
  0
ARC
  5
4CE
100
AcDbEntity
  8
0
370
    -3
  6
Continuous
100
AcDbCircle
 10
-210.660834
 20
-70.064482
 30
0.0
 40
1.0
100
AcDbArc
 50
270.0
 51
346.657636
  0
LINE
  5
4CF
100
AcDbEntity
  8
0
370
    -3
  6
Continuous
100
AcDbLine
 10
-202.462564
 20
-68.970864
 30
0.0
 11
-199.660834
 21
-68.970864
 31
0.0
  0
LINE
  5
4D0
100
AcDbEntity
  8
0
370
    -3
  6
Continuous
100
AcDbLine
 10
-199.660834
 20
-69.308959
 30
0.0
 11
-203.045662
 21
-69.308959
 31
0.0
  0
LINE
  5
4D1
100
AcDbEntity
  8
0
370
    -3
  6
Continuous
100
AcDbLine
 10
-193.160834
 20
-60.554369
 30
0.0
 11
-193.160834
 21
-28.99787
 31
0.0
  0
LINE
  5
4D2
100
AcDbEntity
  8
0
370
    -3
  6
Continuous
100
AcDbLine
 10
-238.660834
 20
-24.257852
 30
0.0
 11
-199.660834
 21
-24.257852
 31
0.0
  0
ARC
  5
4D3
100
AcDbEntity
  8
0
370
    -3
  6
Continuous
100
AcDbCircle
 10
-238.660834
 20
-45.064482
 30
0.0
 40
14.0
100
AcDbArc
 50
270.0
 51
90.0
  0
ARC
  5
4D4
100
AcDbEntity
  8
0
370
    -3
  6
Continuous
100
AcDbCircle
 10
-238.660834
 20
-45.064482
 30
0.0
 40
9.3155
100
AcDbArc
 50
270.0
 51
90.0
  0
ARC
  5
4D5
100
AcDbEntity
  8
0
370
    -3
  6
Continuous
100
AcDbCircle
 10
-238.660834
 20
-45.064482
 30
0.0
 40
10.4775
100
AcDbArc
 50
270.0
 51
90.0
  0
LINE
  5
4D6
100
AcDbEntity
  8
0
370
    -3
  6
Continuous
100
AcDbLine
 10
-265.492205
 20
-63.264482
 30
0.0
 11
-265.492205
 21
-25.907886
 31
0.0
  0
ARC
  5
4D7
100
AcDbEntity
  8
0
370
    -3
  6
Continuous
100
AcDbCircle
 10
-258.692205
 20
-63.264482
 30
0.0
 40
6.8
100
AcDbArc
 50
180.0
 51
270.0
  0
ARC
  5
4D8
100
AcDbEntity
  8
0
370
    -3
  6
Continuous
100
AcDbCircle
 10
-218.629464
 20
-63.264482
 30
0.0
 40
6.8
100
AcDbArc
 50
270.0
 51
0.0
  0
LINE
  5
4D9
100
AcDbEntity
  8
0
370
    -3
  6
Continuous
100
AcDbLine
 10
-211.829464
 20
-63.264482
 30
0.0
 11
-211.829464
 21
-25.907886
 31
0.0
  0
LINE
  5
4DA
100
AcDbEntity
  8
0
370
    -3
  6
Continuous
100
AcDbLine
 10
-207.660834
 20
-72.064482
 30
0.0
 11
-269.660834
 21
-72.064482
 31
0.0
  0
ARC
  5
4DB
100
AcDbEntity
  8
0
370
    -3
  6
Continuous
100
AcDbCircle
 10
-277.660834
 20
-61.508959
 30
0.0
 40
7.8
100
AcDbArc
 50
180.0
 51
270.0
  0
ARC
  5
4DC
100
AcDbEntity
  8
0
370
    -3
  6
Continuous
100
AcDbCircle
 10
-277.660834
 20
-31.595947
 30
0.0
 40
7.0
100
AcDbArc
 50
90.0
 51
180.0
  0
ARC
  5
4DD
100
AcDbEntity
  8
0
370
    -3
  6
Continuous
100
AcDbCircle
 10
-277.660834
 20
-32.057852
 30
0.0
 40
7.8
100
AcDbArc
 50
90.0
 51
180.0
  0
ARC
  5
4DE
100
AcDbEntity
  8
0
370
    -3
  6
Continuous
100
AcDbCircle
 10
-277.660834
 20
-27.393334
 30
0.0
 40
7.8
100
AcDbArc
 50
90.0
 51
180.0
  0
ARC
  5
4DF
100
AcDbEntity
  8
0
370
    -3
  6
Continuous
100
AcDbCircle
 10
-277.660834
 20
-61.970864
 30
0.0
 40
7.0
100
AcDbArc
 50
180.0
 51
270.0
  0
ARC
  5
4E0
100
AcDbEntity
  8
0
370
    -3
  6
Continuous
100
AcDbCircle
 10
-278.160834
 20
-60.554369
 30
0.0
 40
6.0
100
AcDbArc
 50
180.0
 51
270.0
  0
LINE
  5
4E1
100
AcDbEntity
  8
0
370
    -3
  6
Continuous
100
AcDbLine
 10
-284.660834
 20
-31.595947
 30
0.0
 11
-284.660834
 21
-61.970864
 31
0.0
  0
LINE
  5
4E2
100
AcDbEntity
  8
0
370
    -3
  6
Continuous
100
AcDbLine
 10
-285.460834
 20
-27.393334
 30
0.0
 11
-285.460834
 21
-61.508959
 31
0.0
  0
LINE
  5
4E3
100
AcDbEntity
  8
0
370
    -3
  6
Continuous
100
AcDbLine
 10
-284.160834
 20
-60.554369
 30
0.0
 11
-284.160834
 21
-28.99787
 31
0.0
  0
LINE
  5
4E4
100
AcDbEntity
  8
0
370
    -3
  6
Continuous
100
AcDbLine
 10
-265.196553
 20
-81.626499
 30
0.0
 11
-265.587057
 21
-78.502465
 31
0.0
  0
LINE
  5
4E5
100
AcDbEntity
  8
0
370
    -3
  6
Continuous
100
AcDbLine
 10
97.339157
 20
247.555638
 30
0.0
 11
97.339157
 21
140.555638
 31
0.0
  0
LINE
  5
4E6
100
AcDbEntity
  8
0
370
    -3
  6
Continuous
100
AcDbLine
 10
113.839172
 20
242.555638
 30
0.0
 11
113.839172
 21
145.555638
 31
0.0
  0
LINE
  5
4E7
100
AcDbEntity
  8
0
370
    -3
  6
Continuous
100
AcDbLine
 10
151.839172
 20
247.555638
 30
0.0
 11
97.339172
 21
247.555638
 31
0.0
  0
LINE
  5
4E8
100
AcDbEntity
  8
0
370
    -3
  6
Continuous
100
AcDbLine
 10
151.839172
 20
140.555638
 30
0.0
 11
97.339172
 21
140.555638
 31
0.0
  0
LINE
  5
4E9
100
AcDbEntity
  8
0
370
    -3
  6
Continuous
100
AcDbLine
 10
161.339172
 20
173.555638
 30
0.0
 11
161.339172
 21
214.555638
 31
0.0
  0
LINE
  5
4EA
100
AcDbEntity
  8
0
370
    -3
  6
Continuous
100
AcDbLine
 10
161.339172
 20
211.055638
 30
0.0
 11
153.859172
 21
211.055638
 31
0.0
  0
LINE
  5
4EB
100
AcDbEntity
  8
0
370
    -3
  6
Continuous
100
AcDbLine
 10
153.859172
 20
198.055638
 30
0.0
 11
161.339172
 21
198.055638
 31
0.0
  0
LINE
  5
4EC
100
AcDbEntity
  8
0
370
    -3
  6
Continuous
100
AcDbLine
 10
161.339172
 20
190.055638
 30
0.0
 11
153.859172
 21
190.055638
 31
0.0
  0
LINE
  5
4ED
100
AcDbEntity
  8
0
370
    -3
  6
Continuous
100
AcDbLine
 10
165.839172
 20
173.555638
 30
0.0
 11
165.839172
 21
214.555638
 31
0.0
  0
LINE
  5
4EE
100
AcDbEntity
  8
0
370
    -3
  6
Continuous
100
AcDbLine
 10
177.839172
 20
214.555638
 30
0.0
 11
177.839172
 21
173.555638
 31
0.0
  0
LINE
  5
4EF
100
AcDbEntity
  8
0
370
    -3
  6
Continuous
100
AcDbLine
 10
153.839172
 20
211.055638
 30
0.0
 11
153.839172
 21
261.768601
 31
0.0
  0
LINE
  5
4F0
100
AcDbEntity
  8
0
370
    -3
  6
Continuous
100
AcDbLine
 10
153.839172
 20
126.342675
 30
0.0
 11
153.839172
 21
177.055638
 31
0.0
  0
LINE
  5
4F1
100
AcDbEntity
  8
0
370
    -3
  6
Continuous
100
AcDbLine
 10
163.839172
 20
265.555638
 30
0.0
 11
163.839172
 21
122.555638
 31
0.0
  0
ARC
  5
4F2
100
AcDbEntity
  8
0
370
    -3
  6
Continuous
100
AcDbCircle
 10
108.839172
 20
242.555638
 30
0.0
 40
5.0
100
AcDbArc
 50
0.0
 51
90.0
  0
ARC
  5
4F3
100
AcDbEntity
  8
0
370
    -3
  6
Continuous
100
AcDbCircle
 10
108.839172
 20
145.555638
 30
0.0
 40
5.0
100
AcDbArc
 50
270.0
 51
0.0
  0
ARC
  5
4F4
100
AcDbEntity
  8
0
370
    -3
  6
Continuous
100
AcDbCircle
 10
110.013168
 20
192.079591
 30
0.0
 40
15.324423
100
AcDbArc
 50
265.606296
 51
284.457814
  0
ARC
  5
4F5
100
AcDbEntity
  8
0
370
    -3
  6
Continuous
100
AcDbCircle
 10
110.013168
 20
196.031685
 30
0.0
 40
15.324423
100
AcDbArc
 50
75.542186
 51
94.393704
  0
LINE
  5
4F6
100
AcDbEntity
  8
0
370
    -3
  6
Continuous
100
AcDbLine
 10
108.839172
 20
211.311072
 30
0.0
 11
97.339172
 21
211.311072
 31
0.0
  0
LINE
  5
4F7
100
AcDbEntity
  8
0
370
    -3
  6
Continuous
100
AcDbLine
 10
108.839172
 20
176.800204
 30
0.0
 11
97.339172
 21
176.800204
 31
0.0
  0
LINE
  5
4F8
100
AcDbEntity
  8
0
370
    -3
  6
Continuous
100
AcDbLine
 10
97.339172
 20
174.755638
 30
0.0
 11
97.339172
 21
213.355638
 31
0.0
  0
ARC
  5
4F9
100
AcDbEntity
  8
0
370
    -3
  6
Continuous
100
AcDbCircle
 10
151.839172
 20
249.555638
 30
0.0
 40
2.0
100
AcDbArc
 50
269.973361
 51
0.0
  0
LINE
  5
4FA
100
AcDbEntity
  8
0
370
    -3
  6
Continuous
100
AcDbLine
 10
153.839172
 20
246.742419
 30
0.0
 11
148.839172
 21
246.742419
 31
0.0
  0
LINE
  5
4FB
100
AcDbEntity
  8
0
370
    -3
  6
Continuous
100
AcDbLine
 10
148.839172
 20
238.242419
 30
0.0
 11
153.839172
 21
238.242419
 31
0.0
  0
ARC
  5
4FC
100
AcDbEntity
  8
0
370
    -3
  6
Continuous
100
AcDbCircle
 10
156.839172
 20
262.555638
 30
0.0
 40
3.0
100
AcDbArc
 50
90.0
 51
180.0
  0
LINE
  5
4FD
100
AcDbEntity
  8
0
370
    -3
  6
Continuous
100
AcDbLine
 10
156.839172
 20
265.555638
 30
0.0
 11
163.839172
 21
265.555638
 31
0.0
  0
LINE
  5
4FE
100
AcDbEntity
  8
0
370
    -3
  6
Continuous
100
AcDbLine
 10
153.839172
 20
261.768601
 30
0.0
 11
153.839172
 21
262.555638
 31
0.0
  0
LINE
  5
4FF
100
AcDbEntity
  8
0
370
    -3
  6
Continuous
100
AcDbLine
 10
148.839172
 20
246.742419
 30
0.0
 11
148.839172
 21
238.242419
 31
0.0
  0
LINE
  5
500
100
AcDbEntity
  8
0
370
    -3
  6
Continuous
100
AcDbLine
 10
153.339172
 20
198.956304
 30
0.0
 11
153.859172
 21
198.055638
 31
0.0
  0
LINE
  5
501
100
AcDbEntity
  8
0
370
    -3
  6
Continuous
100
AcDbLine
 10
153.859172
 20
211.055638
 30
0.0
 11
153.339172
 21
210.154971
 31
0.0
  0
LINE
  5
502
100
AcDbEntity
  8
0
370
    -3
  6
Continuous
100
AcDbLine
 10
153.339172
 20
177.956304
 30
0.0
 11
153.859172
 21
177.055638
 31
0.0
  0
LINE
  5
503
100
AcDbEntity
  8
0
370
    -3
  6
Continuous
100
AcDbLine
 10
153.859172
 20
190.055638
 30
0.0
 11
153.339172
 21
189.154971
 31
0.0
  0
ARC
  5
504
100
AcDbEntity
  8
0
370
    -3
  6
Continuous
100
AcDbCircle
 10
151.839172
 20
138.555638
 30
0.0
 40
2.0
100
AcDbArc
 50
0.0
 51
89.975467
  0
LINE
  5
505
100
AcDbEntity
  8
0
370
    -3
  6
Continuous
100
AcDbLine
 10
153.839172
 20
149.868856
 30
0.0
 11
148.839172
 21
149.868856
 31
0.0
  0
LINE
  5
506
100
AcDbEntity
  8
0
370
    -3
  6
Continuous
100
AcDbLine
 10
148.839172
 20
141.368856
 30
0.0
 11
153.839172
 21
141.368856
 31
0.0
  0
LINE
  5
507
100
AcDbEntity
  8
0
370
    -3
  6
Continuous
100
AcDbLine
 10
153.859172
 20
211.055638
 30
0.0
 11
153.859172
 21
198.055638
 31
0.0
  0
LINE
  5
508
100
AcDbEntity
  8
0
370
    -3
  6
Continuous
100
AcDbLine
 10
153.339172
 20
210.154971
 30
0.0
 11
153.339172
 21
198.956304
 31
0.0
  0
LINE
  5
509
100
AcDbEntity
  8
0
370
    -3
  6
Continuous
100
AcDbLine
 10
153.859172
 20
190.055638
 30
0.0
 11
153.859172
 21
177.055638
 31
0.0
  0
LINE
  5
50A
100
AcDbEntity
  8
0
370
    -3
  6
Continuous
100
AcDbLine
 10
153.339172
 20
189.154971
 30
0.0
 11
153.339172
 21
177.956304
 31
0.0
  0
ARC
  5
50B
100
AcDbEntity
  8
0
370
    -3
  6
Continuous
100
AcDbCircle
 10
156.839172
 20
125.555638
 30
0.0
 40
3.0
100
AcDbArc
 50
180.0
 51
270.0
  0
LINE
  5
50C
100
AcDbEntity
  8
0
370
    -3
  6
Continuous
100
AcDbLine
 10
156.839172
 20
122.555638
 30
0.0
 11
163.839172
 21
122.555638
 31
0.0
  0
LINE
  5
50D
100
AcDbEntity
  8
0
370
    -3
  6
Continuous
100
AcDbLine
 10
153.839172
 20
125.555638
 30
0.0
 11
153.839172
 21
126.342675
 31
0.0
  0
LINE
  5
50E
100
AcDbEntity
  8
0
370
    -3
  6
Continuous
100
AcDbLine
 10
153.839172
 20
190.020997
 30
0.0
 11
153.839172
 21
198.090279
 31
0.0
  0
LINE
  5
50F
100
AcDbEntity
  8
0
370
    -3
  6
Continuous
100
AcDbLine
 10
153.839172
 20
177.815256
 30
0.0
 11
153.839172
 21
190.020997
 31
0.0
  0
LINE
  5
510
100
AcDbEntity
  8
0
370
    -3
  6
Continuous
100
AcDbLine
 10
153.839172
 20
177.090279
 30
0.0
 11
153.839172
 21
177.815256
 31
0.0
  0
LINE
  5
511
100
AcDbEntity
  8
0
370
    -3
  6
Continuous
100
AcDbLine
 10
148.839172
 20
149.868856
 30
0.0
 11
148.839172
 21
141.368856
 31
0.0
  0
LINE
  5
512
100
AcDbEntity
  8
0
370
    -3
  6
Continuous
100
AcDbLine
 10
153.859172
 20
177.055638
 30
0.0
 11
161.339172
 21
177.055638
 31
0.0
  0
LINE
  5
513
100
AcDbEntity
  8
0
370
    -3
  6
Continuous
100
AcDbLine
 10
161.339172
 20
214.555638
 30
0.0
 11
165.839172
 21
214.555638
 31
0.0
  0
LINE
  5
514
100
AcDbEntity
  8
0
370
    -3
  6
Continuous
100
AcDbLine
 10
161.339172
 20
173.555638
 30
0.0
 11
165.839172
 21
173.555638
 31
0.0
  0
ARC
  5
515
100
AcDbEntity
  8
0
370
    -3
  6
Continuous
100
AcDbCircle
 10
166.839172
 20
174.555638
 30
0.0
 40
1.0
100
AcDbArc
 50
180.0
 51
270.0
  0
LINE
  5
516
100
AcDbEntity
  8
0
370
    -3
  6
Continuous
100
AcDbLine
 10
163.839172
 20
174.116158
 30
0.0
 11
163.839172
 21
175.842648
 31
0.0
  0
LINE
  5
517
100
AcDbEntity
  8
0
370
    -3
  6
Continuous
100
AcDbLine
 10
163.839172
 20
173.555638
 30
0.0
 11
163.839172
 21
174.116158
 31
0.0
  0
LINE
  5
518
100
AcDbEntity
  8
0
370
    -3
  6
Continuous
100
AcDbLine
 10
163.839172
 20
171.8003
 30
0.0
 11
163.839172
 21
173.555638
 31
0.0
  0
LINE
  5
519
100
AcDbEntity
  8
0
370
    -3
  6
Continuous
100
AcDbLine
 10
163.839172
 20
175.842648
 30
0.0
 11
163.839172
 21
177.815256
 31
0.0
  0
LINE
  5
51A
100
AcDbEntity
  8
0
370
    -3
  6
Continuous
100
AcDbLine
 10
177.839172
 20
173.555638
 30
0.0
 11
166.839172
 21
173.555638
 31
0.0
  0
LINE
  5
51B
100
AcDbEntity
  8
0
370
    -3
  6
Continuous
100
AcDbLine
 10
166.839172
 20
214.555638
 30
0.0
 11
177.839172
 21
214.555638
 31
0.0
  0
ARC
  5
51C
100
AcDbEntity
  8
0
370
    -3
  6
Continuous
100
AcDbCircle
 10
166.839172
 20
213.555638
 30
0.0
 40
1.0
100
AcDbArc
 50
90.0
 51
180.0
  0
LINE
  5
51D
100
AcDbEntity
  8
0
370
    -3
  6
Continuous
100
AcDbLine
 10
-27.544437
 20
-20.632621
 30
0.0
 11
-29.23491
 21
-24.257852
 31
0.0
  0
ARC
  5
51E
100
AcDbEntity
  8
0
370
    -3
  6
Continuous
100
AcDbCircle
 10
-25.913082
 20
-21.393334
 30
0.0
 40
1.8
100
AcDbArc
 50
65.0
 51
155.0
  0
LINE
  5
51F
100
AcDbEntity
  8
0
370
    -3
  6
CENTER
100
AcDbLine
 10
-20.972197
 20
-24.99478
 30
0.0
 11
-18.102276
 21
-18.840215
 31
0.0
  0
ARC
  5
520
100
AcDbEntity
  8
0
370
    -3
  6
Continuous
100
AcDbCircle
 10
-22.41928
 20
-28.098059
 30
0.0
 40
9.0
100
AcDbArc
 50
48.398452
 51
81.601531
  0
POINT
  5
521
100
AcDbEntity
  8
0
370
    -3
  6
Continuous
100
AcDbPoint
 10
-19.714523
 20
-22.297689
 30
0.0
  0
LINE
  5
522
100
AcDbEntity
  8
0
370
    -3
  6
Continuous
100
AcDbLine
 10
-16.542446
 20
-23.776853
 30
0.0
 11
-16.128692
 21
-22.889555
 31
0.0
  0
LINE
  5
523
100
AcDbEntity
  8
0
370
    -3
  6
Continuous
100
AcDbLine
 10
-22.8866
 20
-20.818525
 30
0.0
 11
-22.472846
 21
-19.931227
 31
0.0
  0
ARC
  5
524
100
AcDbEntity
  8
0
370
    -3
  6
Continuous
100
AcDbCircle
 10
-17.306891
 20
-22.340152
 30
0.0
 40
1.299999
100
AcDbArc
 50
334.999982
 51
48.398452
  0
ARC
  5
525
100
AcDbEntity
  8
0
370
    -3
  6
Continuous
100
AcDbCircle
 10
-21.294647
 20
-20.480631
 30
0.0
 40
1.299999
100
AcDbArc
 50
81.601531
 51
155.000001
  0
ARC
  5
526
100
AcDbEntity
  8
0
370
    -3
  6
Continuous
100
AcDbCircle
 10
-3.747838
 20
-24.670564
 30
0.0
 40
2.8
100
AcDbArc
 50
92.156727
 51
155.0
  0
LINE
  5
527
100
AcDbEntity
  8
0
370
    -3
  6
Continuous
100
AcDbLine
 10
-6.96053
 20
-24.93484
 30
0.0
 11
-6.2855
 21
-23.487233
 31
0.0
  0
ARC
  5
528
100
AcDbEntity
  8
0
370
    -3
  6
Continuous
100
AcDbCircle
 10
18.756752
 20
-622.246955
 30
0.0
 40
600.8
100
AcDbArc
 50
87.562495
 51
93.317592
  0
ARC
  5
529
100
AcDbEntity
  8
0
370
    -3
  6
Continuous
100
AcDbCircle
 10
-4.925761
 20
-70.364482
 30
0.0
 40
0.3
100
AcDbArc
 50
13.342364
 51
90.0
  0
ARC
  5
52A
100
AcDbEntity
  8
0
370
    -3
  6
Continuous
100
AcDbCircle
 10
53.604061
 20
-70.364482
 30
0.0
 40
0.3
100
AcDbArc
 50
90.0
 51
166.657636
  0
ARC
  5
52B
100
AcDbEntity
  8
0
370
    -3
  6
Continuous
100
AcDbCircle
 10
-13.86085
 20
-63.264482
 30
0.0
 40
6.8
100
AcDbArc
 50
180.0
 51
270.0
  0
LINE
  5
52C
100
AcDbEntity
  8
0
370
    -3
  6
Continuous
100
AcDbLine
 10
55.33915
 20
-72.064482
 30
0.0
 11
55.33915
 21
-71.064482
 31
0.0
  0
LINE
  5
52D
100
AcDbEntity
  8
0
370
    -3
  6
Continuous
100
AcDbLine
 10
-6.66085
 20
-72.064482
 30
0.0
 11
-6.66085
 21
-71.064482
 31
0.0
  0
LINE
  5
52E
100
AcDbEntity
  8
0
370
    -3
  6
Continuous
100
AcDbLine
 10
-6.66085
 20
-71.064482
 30
0.0
 11
55.33915
 21
-71.064482
 31
0.0
  0
LINE
  5
52F
100
AcDbEntity
  8
0
370
    -3
  6
Continuous
100
AcDbLine
 10
-6.66085
 20
-72.064482
 30
0.0
 11
55.33915
 21
-72.064482
 31
0.0
  0
LINE
  5
530
100
AcDbEntity
  8
0
370
    -3
  6
Continuous
100
AcDbLine
 10
-22.66085
 20
-59.064482
 30
0.0
 11
-20.66085
 21
-59.064482
 31
0.0
  0
LINE
  5
531
100
AcDbEntity
  8
0
370
    -3
  6
Continuous
100
AcDbLine
 10
-44.66085
 20
-59.064482
 30
0.0
 11
-22.66085
 21
-59.064482
 31
0.0
  0
ARC
  5
532
100
AcDbEntity
  8
0
370
    -3
  6
Continuous
100
AcDbCircle
 10
-44.66085
 20
-57.064482
 30
0.0
 40
2.0
100
AcDbArc
 50
180.0
 51
270.0
  0
ARC
  5
533
100
AcDbEntity
  8
0
370
    -3
  6
Continuous
100
AcDbCircle
 10
-44.66085
 20
-33.064482
 30
0.0
 40
2.0
100
AcDbArc
 50
90.0
 51
180.0
  0
LINE
  5
534
100
AcDbEntity
  8
0
370
    -3
  6
Continuous
100
AcDbLine
 10
-46.66085
 20
-57.064482
 30
0.0
 11
-46.66085
 21
-45.064482
 31
0.0
  0
LINE
  5
535
100
AcDbEntity
  8
0
370
    -3
  6
Continuous
100
AcDbLine
 10
-46.66085
 20
-33.064482
 30
0.0
 11
-46.66085
 21
-45.064482
 31
0.0
  0
LINE
  5
536
100
AcDbEntity
  8
0
370
    -3
  6
CENTER
100
AcDbLine
 10
-52.139473
 20
-45.064482
 30
0.0
 11
-11.832987
 21
-45.064482
 31
0.0
  0
LINE
  5
537
100
AcDbEntity
  8
0
370
    -3
  6
Continuous
100
AcDbLine
 10
-22.66085
 20
-59.064482
 30
0.0
 11
-22.66085
 21
-45.064482
 31
0.0
  0
ARC
  5
538
100
AcDbEntity
  8
0
370
    -3
  6
Continuous
100
AcDbCircle
 10
52.33915
 20
-70.064482
 30
0.0
 40
1.0
100
AcDbArc
 50
270.0
 51
346.657636
  0
LINE
  5
539
100
AcDbEntity
  8
0
370
    -3
  6
Continuous
100
AcDbLine
 10
-13.86085
 20
-70.064482
 30
0.0
 11
55.777304
 21
-70.064482
 31
0.0
  0
ARC
  5
53A
100
AcDbEntity
  8
0
370
    -3
  6
Continuous
100
AcDbCircle
 10
-3.66085
 20
-70.064482
 30
0.0
 40
1.0
100
AcDbArc
 50
193.342364
 51
270.0
  0
LINE
  5
53B
100
AcDbEntity
  8
0
370
    -3
  6
CENTER
100
AcDbLine
 10
24.33915
 20
-82.841899
 30
0.0
 11
24.33915
 21
-59.931923
 31
0.0
  0
ARC
  5
53C
100
AcDbEntity
  8
0
370
    -3
  6
Continuous
100
AcDbCircle
 10
-5.985156
 20
-67.064482
 30
0.0
 40
3.0
100
AcDbArc
 50
180.0
 51
270.0
  0
POINT
  5
53D
100
AcDbEntity
  8
0
370
    -3
  6
CENTER
100
AcDbPoint
 10
-46.66085
 20
-55.541982
 30
0.0
  0
POINT
  5
53E
100
AcDbEntity
  8
0
370
    -3
  6
CENTER
100
AcDbPoint
 10
-46.66085
 20
-34.586982
 30
0.0
  0
LINE
  5
53F
100
AcDbEntity
  8
0
370
    -3
  6
Continuous
100
AcDbLine
 10
-44.66085
 20
-31.064482
 30
0.0
 11
-20.66085
 21
-31.064482
 31
0.0
  0
ARC
  5
540
100
AcDbEntity
  8
0
370
    -3
  6
Continuous
100
AcDbCircle
 10
-9.679453
 20
-23.666985
 30
0.0
 40
3.0
100
AcDbArc
 50
245.0
 51
335.0
  0
LINE
  5
541
100
AcDbEntity
  8
0
370
    -3
  6
Continuous
100
AcDbLine
 10
-21.071565
 20
-28.064482
 30
0.0
 11
-29.23491
 21
-24.257852
 31
0.0
  0
LINE
  5
542
100
AcDbEntity
  8
0
370
    -3
  6
Continuous
100
AcDbLine
 10
-22.66085
 20
-45.064482
 30
0.0
 11
-22.66085
 21
-31.064482
 31
0.0
  0
LINE
  5
543
100
AcDbEntity
  8
0
370
    -3
  6
Continuous
100
AcDbLine
 10
-20.66085
 20
-28.256002
 30
0.0
 11
-20.66085
 21
-63.264482
 31
0.0
  0
LINE
  5
544
100
AcDbEntity
  8
0
370
    -3
  6
Continuous
100
AcDbLine
 10
-8.985156
 20
-33.700467
 30
0.0
 11
-8.985156
 21
-67.064482
 31
0.0
  0
ARC
  5
545
100
AcDbEntity
  8
0
370
    -3
  6
Continuous
100
AcDbCircle
 10
55.777304
 20
-66.264482
 30
0.0
 40
3.8
100
AcDbArc
 50
270.0
 51
335.0
  0
LINE
  5
546
100
AcDbEntity
  8
0
370
    -3
  6
Continuous
100
AcDbLine
 10
69.067974
 20
-65.683728
 30
0.0
 11
67.377501
 21
-69.308959
 31
0.0
  0
ARC
  5
547
100
AcDbEntity
  8
0
370
    -3
  6
Continuous
100
AcDbCircle
 10
67.43662
 20
-64.923015
 30
0.0
 40
1.8
100
AcDbArc
 50
335.0
 51
65.0
  0
LINE
  5
548
100
AcDbEntity
  8
0
370
    -3
  6
CENTER
100
AcDbLine
 10
61.501812
 20
-63.453042
 30
0.0
 11
64.371732
 21
-57.298477
 31
0.0
  0
POINT
  5
549
100
AcDbEntity
  8
0
370
    -3
  6
Continuous
100
AcDbPoint
 10
62.735775
 20
-60.744895
 30
0.0
  0
LINE
  5
54A
100
AcDbEntity
  8
0
370
    -3
  6
Continuous
100
AcDbLine
 10
65.931563
 20
-62.235115
 30
0.0
 11
66.345317
 21
-61.347817
 31
0.0
  0
LINE
  5
54B
100
AcDbEntity
  8
0
370
    -3
  6
CENTER
100
AcDbLine
 10
61.501812
 20
-63.453042
 30
0.0
 11
64.371732
 21
-57.298477
 31
0.0
  0
ARC
  5
54C
100
AcDbEntity
  8
0
370
    -3
  6
Continuous
100
AcDbCircle
 10
65.167118
 20
-60.798413
 30
0.0
 40
1.299999
100
AcDbArc
 50
334.999982
 51
48.398452
  0
ARC
  5
54D
100
AcDbEntity
  8
0
370
    -3
  6
Continuous
100
AcDbCircle
 10
60.054729
 20
-66.556321
 30
0.0
 40
9.0
100
AcDbArc
 50
48.398452
 51
81.601531
  0
LINE
  5
54E
100
AcDbEntity
  8
0
370
    -3
  6
Continuous
100
AcDbLine
 10
59.587408
 20
-59.276787
 30
0.0
 11
60.001162
 21
-58.389489
 31
0.0
  0
ARC
  5
54F
100
AcDbEntity
  8
0
370
    -3
  6
Continuous
100
AcDbCircle
 10
61.179362
 20
-58.938892
 30
0.0
 40
1.299999
100
AcDbArc
 50
81.601531
 51
155.000001
  0
ARC
  5
550
100
AcDbEntity
  8
0
370
    -3
  6
Continuous
100
AcDbCircle
 10
55.260126
 20
-53.948808
 30
0.0
 40
3.0
100
AcDbArc
 50
155.0
 51
245.0
  0
LINE
  5
551
100
AcDbEntity
  8
0
370
    -3
  6
Continuous
100
AcDbLine
 10
57.276629
 20
-42.525798
 30
0.0
 11
52.541202
 21
-52.680954
 31
0.0
  0
ARC
  5
552
100
AcDbEntity
  8
0
370
    -3
  6
Continuous
100
AcDbCircle
 10
54.738967
 20
-41.342467
 30
0.0
 40
2.8
100
AcDbArc
 50
335.0
 51
15.454189
  0
ARC
  5
553
100
AcDbEntity
  8
0
370
    -3
  6
Continuous
100
AcDbCircle
 10
41.654067
 20
-66.264482
 30
0.0
 40
3.8
100
AcDbArc
 50
270.0
 51
335.0
  0
LINE
  5
554
100
AcDbEntity
  8
0
370
    -3
  6
Continuous
100
AcDbLine
 10
48.526299
 20
-60.518499
 30
0.0
 11
45.098036
 21
-67.870431
 31
0.0
  0
LINE
  5
555
100
AcDbEntity
  8
0
370
    -3
  6
Continuous
100
AcDbLine
 10
60.127038
 20
-65.928013
 30
0.0
 11
59.221274
 21
-67.870431
 31
0.0
  0
LINE
  5
556
100
AcDbEntity
  8
0
370
    -3
  6
Continuous
100
AcDbLine
 10
68.197332
 20
-63.291661
 30
0.0
 11
-25.15237
 21
-19.76198
 31
0.0
  0
LINE
  5
557
100
AcDbEntity
  8
0
370
    -3
  6
Continuous
100
AcDbLine
 10
67.377501
 20
-69.308959
 30
0.0
 11
-21.071565
 21
-28.064482
 31
0.0
  0
ARC
  5
558
100
AcDbEntity
  8
0
370
    -3
  6
Continuous
100
AcDbCircle
 10
43.849245
 20
-32.780784
 30
0.0
 40
10.8
100
AcDbArc
 50
17.658425
 51
87.562495
  0
ARC
  5
559
100
AcDbEntity
  8
0
370
    -3
  6
Continuous
100
AcDbCircle
 10
-232.48649
 20
-120.749879
 30
0.0
 40
300.8
100
AcDbArc
 50
12.10025
 51
17.658425
  0
LINE
  5
55A
100
AcDbEntity
  8
0
370
    -3
  6
Continuous
100
AcDbLine
 10
5.821995
 20
-78.064482
 30
0.0
 11
-2.835503
 21
-78.064482
 31
0.0
  0
LINE
  5
55B
100
AcDbEntity
  8
0
370
    -3
  6
Continuous
100
AcDbLine
 10
-7.410859
 20
-78.064482
 30
0.0
 11
-7.410859
 21
-79.564482
 31
0.0
  0
ARC
  5
55C
100
AcDbEntity
  8
0
370
    -3
  6
Continuous
100
AcDbCircle
 10
6.85818
 20
-76.564482
 30
0.0
 40
0.5
100
AcDbArc
 50
90.0
 51
180.0
  0
LINE
  5
55D
100
AcDbEntity
  8
0
370
    -3
  6
Continuous
100
AcDbLine
 10
6.35818
 20
-77.564482
 30
0.0
 11
6.35818
 21
-76.564482
 31
0.0
  0
LINE
  5
55E
100
AcDbEntity
  8
0
370
    -3
  6
Continuous
100
AcDbLine
 10
-3.64182
 20
-77.564482
 30
0.0
 11
-3.64182
 21
-76.564482
 31
0.0
  0
ARC
  5
55F
100
AcDbEntity
  8
0
370
    -3
  6
Continuous
100
AcDbCircle
 10
-4.14182
 20
-76.564482
 30
0.0
 40
0.5
100
AcDbArc
 50
0.0
 51
90.0
  0
LINE
  5
560
100
AcDbEntity
  8
0
370
    -3
  6
Continuous
100
AcDbLine
 10
5.85818
 20
-78.064482
 30
0.0
 11
-2.835503
 21
-78.064482
 31
0.0
  0
ARC
  5
561
100
AcDbEntity
  8
0
370
    -3
  6
Continuous
100
AcDbCircle
 10
-3.14182
 20
-77.564482
 30
0.0
 40
0.5
100
AcDbArc
 50
180.0
 51
270.0
  0
ARC
  5
562
100
AcDbEntity
  8
0
370
    -3
  6
Continuous
100
AcDbCircle
 10
5.85818
 20
-77.564482
 30
0.0
 40
0.5
100
AcDbArc
 50
270.0
 51
0.0
  0
ARC
  5
563
100
AcDbEntity
  8
0
370
    -3
  6
Continuous
100
AcDbCircle
 10
-3.083211
 20
-78.564482
 30
0.0
 40
0.5
100
AcDbArc
 50
7.125016
 51
90.0
  0
LINE
  5
564
100
AcDbEntity
  8
0
370
    -3
  6
Continuous
100
AcDbLine
 10
-2.45432
 20
-79.564482
 30
0.0
 11
-2.587072
 21
-78.502465
 31
0.0
  0
ARC
  5
565
100
AcDbEntity
  8
0
370
    -3
  6
Continuous
100
AcDbCircle
 10
5.799571
 20
-78.564482
 30
0.0
 40
0.5
100
AcDbArc
 50
90.0
 51
172.874984
  0
LINE
  5
566
100
AcDbEntity
  8
0
370
    -3
  6
Continuous
100
AcDbLine
 10
-7.410859
 20
-78.064482
 30
0.0
 11
61.08915
 21
-78.064482
 31
0.0
  0
LINE
  5
567
100
AcDbEntity
  8
0
370
    -3
  6
Continuous
100
AcDbLine
 10
-2.196568
 20
-81.626499
 30
0.0
 11
-2.587072
 21
-78.502465
 31
0.0
  0
ARC
  5
568
100
AcDbEntity
  8
0
370
    -3
  6
Continuous
100
AcDbCircle
 10
42.820121
 20
-77.564482
 30
0.0
 40
0.5
100
AcDbArc
 50
180.0
 51
270.0
  0
LINE
  5
569
100
AcDbEntity
  8
0
370
    -3
  6
Continuous
100
AcDbLine
 10
42.320121
 20
-77.564482
 30
0.0
 11
42.320121
 21
-76.564482
 31
0.0
  0
ARC
  5
56A
100
AcDbEntity
  8
0
370
    -3
  6
Continuous
100
AcDbCircle
 10
41.820121
 20
-76.564482
 30
0.0
 40
0.5
100
AcDbArc
 50
0.0
 51
90.0
  0
ARC
  5
56B
100
AcDbEntity
  8
0
370
    -3
  6
Continuous
100
AcDbCircle
 10
42.87873
 20
-78.564482
 30
0.0
 40
0.5
100
AcDbArc
 50
7.125016
 51
90.0
  0
LINE
  5
56C
100
AcDbEntity
  8
0
370
    -3
  6
Continuous
100
AcDbLine
 10
56.943894
 20
-76.064482
 30
0.0
 11
56.864651
 21
-73.038305
 31
0.0
  0
ARC
  5
56D
100
AcDbEntity
  8
0
370
    -3
  6
Continuous
100
AcDbCircle
 10
55.864993
 20
-73.064482
 30
0.0
 40
1.0
100
AcDbArc
 50
1.5
 51
90.0
  0
LINE
  5
56E
100
AcDbEntity
  8
0
370
    -3
  6
Continuous
100
AcDbLine
 10
-7.186693
 20
-72.064482
 30
0.0
 11
55.864993
 21
-72.064482
 31
0.0
  0
ARC
  5
56F
100
AcDbEntity
  8
0
370
    -3
  6
Continuous
100
AcDbCircle
 10
-7.186693
 20
-73.064482
 30
0.0
 40
1.0
100
AcDbArc
 50
90.0
 51
178.5
  0
LINE
  5
570
100
AcDbEntity
  8
0
370
    -3
  6
Continuous
100
AcDbLine
 10
-8.265593
 20
-76.064482
 30
0.0
 11
-8.18635
 21
-73.038305
 31
0.0
  0
LINE
  5
571
100
AcDbEntity
  8
0
370
    -3
  6
Continuous
100
AcDbLine
 10
4.786464
 20
-76.064482
 30
0.0
 11
-8.265593
 21
-76.064482
 31
0.0
  0
LINE
  5
572
100
AcDbEntity
  8
0
370
    -3
  6
Continuous
100
AcDbLine
 10
43.891836
 20
-76.064482
 30
0.0
 11
4.786464
 21
-76.064482
 31
0.0
  0
LINE
  5
573
100
AcDbEntity
  8
0
370
    -3
  6
Continuous
100
AcDbLine
 10
43.891836
 20
-76.064482
 30
0.0
 11
56.943894
 21
-76.064482
 31
0.0
  0
LINE
  5
574
100
AcDbEntity
  8
0
370
    -3
  6
Continuous
100
AcDbLine
 10
42.856306
 20
-78.064482
 30
0.0
 11
51.820121
 21
-78.064482
 31
0.0
  0
ARC
  5
575
100
AcDbEntity
  8
0
370
    -3
  6
Continuous
100
AcDbCircle
 10
51.820121
 20
-77.564482
 30
0.0
 40
0.5
100
AcDbArc
 50
270.0
 51
0.0
  0
ARC
  5
576
100
AcDbEntity
  8
0
370
    -3
  6
Continuous
100
AcDbCircle
 10
51.761512
 20
-78.564482
 30
0.0
 40
0.5
100
AcDbArc
 50
90.0
 51
172.874984
  0
LINE
  5
577
100
AcDbEntity
  8
0
370
    -3
  6
Continuous
100
AcDbLine
 10
61.08915
 20
-79.569894
 30
0.0
 11
61.08915
 21
-78.064482
 31
0.0
  0
ARC
  5
578
100
AcDbEntity
  8
0
370
    -3
  6
Continuous
100
AcDbCircle
 10
52.820121
 20
-76.564482
 30
0.0
 40
0.5
100
AcDbArc
 50
90.0
 51
180.0
  0
LINE
  5
579
100
AcDbEntity
  8
0
370
    -3
  6
Continuous
100
AcDbLine
 10
52.320121
 20
-77.564482
 30
0.0
 11
52.320121
 21
-76.564482
 31
0.0
  0
POINT
  5
57A
100
AcDbEntity
  8
0
370
    -3
  6
Continuous
100
AcDbPoint
 10
-46.66085
 20
-33.064482
 30
0.0
  0
POINT
  5
57B
100
AcDbEntity
  8
0
370
    -3
  6
Continuous
100
AcDbPoint
 10
-46.66085
 20
-34.586982
 30
0.0
  0
LINE
  5
57C
100
AcDbEntity
  8
0
370
    -3
  6
Continuous
100
AcDbLine
 10
50.37873
 20
-82.064482
 30
0.0
 11
44.267642
 21
-82.064482
 31
0.0
  0
LINE
  5
57D
100
AcDbEntity
  8
0
370
    -3
  6
Continuous
100
AcDbLine
 10
43.765373
 20
-81.626499
 30
0.0
 11
43.374869
 21
-78.502465
 31
0.0
  0
LINE
  5
57E
100
AcDbEntity
  8
0
370
    -3
  6
Continuous
100
AcDbLine
 10
50.874869
 20
-81.626499
 30
0.0
 11
51.265373
 21
-78.502465
 31
0.0
  0
ARC
  5
57F
100
AcDbEntity
  8
0
370
    -3
  6
Continuous
100
AcDbCircle
 10
50.37873
 20
-81.564482
 30
0.0
 40
0.5
100
AcDbArc
 50
270.0
 51
352.874984
  0
ARC
  5
580
100
AcDbEntity
  8
0
370
    -3
  6
Continuous
100
AcDbCircle
 10
44.261512
 20
-81.564482
 30
0.0
 40
0.5
100
AcDbArc
 50
187.125016
 51
270.0
  0
LINE
  5
581
100
AcDbEntity
  8
0
370
    -3
  6
Continuous
100
AcDbLine
 10
4.912928
 20
-81.626499
 30
0.0
 11
5.303432
 21
-78.502465
 31
0.0
  0
ARC
  5
582
100
AcDbEntity
  8
0
370
    -3
  6
Continuous
100
AcDbCircle
 10
-1.700429
 20
-81.564482
 30
0.0
 40
0.5
100
AcDbArc
 50
187.125016
 51
270.0
  0
ARC
  5
583
100
AcDbEntity
  8
0
370
    -3
  6
Continuous
100
AcDbCircle
 10
4.416789
 20
-81.564482
 30
0.0
 40
0.5
100
AcDbArc
 50
270.0
 51
352.874984
  0
LINE
  5
584
100
AcDbEntity
  8
0
370
    -3
  6
Continuous
100
AcDbLine
 10
-1.66085
 20
-82.064482
 30
0.0
 11
4.410659
 21
-82.064482
 31
0.0
  0
ARC
  5
585
100
AcDbEntity
  8
0
370
    -3
  6
DASHED
100
AcDbCircle
 10
718.838489
 20
-45.064847
 30
0.0
 40
14.0
100
AcDbArc
 50
49.142478
 51
128.45049
  0
LINE
  5
586
100
AcDbEntity
  8
0
370
    -3
  6
Continuous
100
AcDbLine
 10
765.638489
 20
-27.393699
 30
0.0
 11
765.638489
 21
-35.266893
 31
0.0
  0
LINE
  5
587
100
AcDbEntity
  8
0
370
    -3
  6
Continuous
100
AcDbLine
 10
757.388489
 20
-35.093574
 30
0.0
 11
757.388489
 21
-28.247321
 31
0.0
  0
LINE
  5
588
100
AcDbEntity
  8
0
370
    -3
  6
Continuous
100
AcDbLine
 10
680.288489
 20
-33.473826
 30
0.0
 11
680.288489
 21
-28.247321
 31
0.0
  0
LINE
  5
589
100
AcDbEntity
  8
0
370
    -3
  6
Continuous
100
AcDbLine
 10
672.038489
 20
-27.393699
 30
0.0
 11
672.038489
 21
-33.300507
 31
0.0
  0
ARC
  5
58A
100
AcDbEntity
  8
0
370
    -3
  6
Continuous
100
AcDbCircle
 10
679.838489
 20
-27.393699
 30
0.0
 40
7.8
100
AcDbArc
 50
118.12516
 51
180.0
  0
ELLIPSE
  5
58B
100
AcDbEntity
  8
0
370
    -3
  6
Continuous
100
AcDbEllipse
 10
679.338489
 20
-21.479108
 30
0.0
 11
3.5
 21
0.0
 31
0.0
210
0.0
220
0.0
230
1.0
 40
0.656603
 41
0.0
 42
6.2831853071795862
  0
LINE
  5
58C
100
AcDbEntity
  8
0
370
    -3
  6
Continuous
100
AcDbLine
 10
677.748472
 20
-19.431827
 30
0.0
 11
679.338489
 21
-19.941654
 31
0.0
  0
LINE
  5
58D
100
AcDbEntity
  8
0
370
    -3
  6
Continuous
100
AcDbLine
 10
679.338489
 20
-19.941654
 30
0.0
 11
677.338489
 21
-20.990842
 31
0.0
  0
LINE
  5
58E
100
AcDbEntity
  8
0
370
    -3
  6
Continuous
100
AcDbLine
 10
679.338489
 20
-19.941654
 30
0.0
 11
681.338489
 21
-20.990842
 31
0.0
  0
LINE
  5
58F
100
AcDbEntity
  8
0
370
    -3
  6
Continuous
100
AcDbLine
 10
680.928505
 20
-19.431827
 30
0.0
 11
679.338489
 21
-19.941654
 31
0.0
  0
ARC
  5
590
100
AcDbEntity
  8
0
370
    -3
  6
Continuous
100
AcDbCircle
 10
687.088489
 20
-28.247321
 30
0.0
 40
6.8
100
AcDbArc
 50
90.0
 51
180.0
  0
LINE
  5
591
100
AcDbEntity
  8
0
370
    -3
  6
Continuous
100
AcDbLine
 10
756.337307
 20
-19.593699
 30
0.0
 11
681.33967
 21
-19.593699
 31
0.0
  0
ARC
  5
592
100
AcDbEntity
  8
0
370
    -3
  6
Continuous
100
AcDbCircle
 10
757.838489
 20
-27.393699
 30
0.0
 40
7.8
100
AcDbArc
 50
0.0
 51
61.87484
  0
ELLIPSE
  5
593
100
AcDbEntity
  8
0
370
    -3
  6
Continuous
100
AcDbEllipse
 10
758.338489
 20
-21.479108
 30
0.0
 11
3.5
 21
0.0
 31
0.0
210
0.0
220
0.0
230
1.0
 40
0.656603
 41
0.0
 42
6.2831853071795862
  0
LINE
  5
594
100
AcDbEntity
  8
0
370
    -3
  6
Continuous
100
AcDbLine
 10
759.928505
 20
-19.431827
 30
0.0
 11
758.338489
 21
-19.941654
 31
0.0
  0
LINE
  5
595
100
AcDbEntity
  8
0
370
    -3
  6
Continuous
100
AcDbLine
 10
758.338489
 20
-19.941654
 30
0.0
 11
760.338489
 21
-20.990842
 31
0.0
  0
LINE
  5
596
100
AcDbEntity
  8
0
370
    -3
  6
Continuous
100
AcDbLine
 10
758.338489
 20
-19.941654
 30
0.0
 11
756.338489
 21
-20.990842
 31
0.0
  0
LINE
  5
597
100
AcDbEntity
  8
0
370
    -3
  6
Continuous
100
AcDbLine
 10
756.748472
 20
-19.431827
 30
0.0
 11
758.338489
 21
-19.941654
 31
0.0
  0
ARC
  5
598
100
AcDbEntity
  8
0
370
    -3
  6
Continuous
100
AcDbCircle
 10
750.588489
 20
-28.247321
 30
0.0
 40
6.8
100
AcDbArc
 50
0.0
 51
90.0
  0
LINE
  5
599
100
AcDbEntity
  8
0
370
    -3
  6
Continuous
100
AcDbLine
 10
750.588489
 20
-21.447321
 30
0.0
 11
687.088489
 21
-21.447321
 31
0.0
  0
CIRCLE
  5
59A
100
AcDbEntity
  8
0
370
    -3
  6
Continuous
100
AcDbCircle
 10
349.839157
 20
-120.064847
 30
0.0
 40
57.5
  0
ENDSEC
  0
SECTION
  2
OBJECTS
  0
DICTIONARY
  5
19
100
AcDbDictionary
280
     0
281
     1
  3
ACAD_GROUP
350
1A
  3
ACAD_MLINESTYLE
350
1B
  3
ACAD_LAYOUT
350
1E
  3
ACAD_PLOTSETTINGS
350
22
  3
ACAD_PLOTSTYLENAME
350
1F
  3
ACAD_WIPEOUT_VARS
350
23
  3
DWGPROPS
350
59B
  0
DICTIONARY
  5
1A
102
{ACAD_REACTORS
330
19
102
}
100
AcDbDictionary
280
     0
281
     1
  0
DICTIONARY
  5
1B
102
{ACAD_REACTORS
330
19
102
}
100
AcDbDictionary
280
     0
281
     1
  3
Standard
350
1C
  0
MLINESTYLE
  5
1C
102
{ACAD_REACTORS
330
1B
102
}
100
AcDbMlineStyle
  2
Standard
 70
     0
  3

 62
     0
 51
90.0
 52
90.0
 71
     2
 49
0.5
 62
   256
  6
ByLayer
 49
-0.5
 62
   256
  6
ByLayer
  0
ACDBDICTIONARYWDFLT
  5
1F
102
{ACAD_REACTORS
330
19
102
}
100
AcDbDictionary
281
     1
  3
Normal
350
1D
100
AcDbDictionaryWithDefault
340
1D
  0
ACDBPLACEHOLDER
  5
1D
102
{ACAD_REACTORS
330
1F
102
}
  0
LAYOUT
  5
20
102
{ACAD_REACTORS
330
1E
102
}
100
AcDbPlotSettings
  1

  2

  4

  6

 40
0.0
 41
0.0
 42
0.0
 43
0.0
 44
0.0
 45
0.0
 46
0.0
 47
0.0
 48
0.0
 49
0.0
140
0.0
141
0.0
142
1.0
143
1.0
 70
  1024
 72
     0
 73
     0
 74
     0
  7

 75
     0
147
1.0
148
0.0
149
0.0
100
AcDbLayout
  1
Model
 70
     0
 71
     0
 10
0.0
 20
0.0
 11
0.0
 21
0.0
 12
0.0
 22
0.0
 32
0.0
 14
0.0
 24
0.0
 34
0.0
 15
0.0
 25
0.0
 35
0.0
146
0.0
 13
0.0
 23
0.0
 33
0.0
 16
0.0
 26
0.0
 36
0.0
 17
0.0
 27
0.0
 37
0.0
 76
     0
330
A
331
0
345
0
346
0
  0
LAYOUT
  5
21
102
{ACAD_REACTORS
330
1E
102
}
100
AcDbPlotSettings
  1

  2

  4

  6

 40
0.0
 41
0.0
 42
0.0
 43
0.0
 44
0.0
 45
0.0
 46
0.0
 47
0.0
 48
0.0
 49
0.0
140
0.0
141
0.0
142
1.0
143
1.0
 70
     0
 72
     0
 73
     0
 74
     0
  7

 75
     0
147
1.0
148
0.0
149
0.0
100
AcDbLayout
  1
Layout1
 70
     0
 71
     0
 10
0.0
 20
0.0
 11
0.0
 21
0.0
 12
0.0
 22
0.0
 32
0.0
 14
0.0
 24
0.0
 34
0.0
 15
0.0
 25
0.0
 35
0.0
146
0.0
 13
0.0
 23
0.0
 33
0.0
 16
0.0
 26
0.0
 36
0.0
 17
0.0
 27
0.0
 37
0.0
 76
     0
330
B
331
0
345
0
346
0
  0
DICTIONARY
  5
1E
102
{ACAD_REACTORS
330
19
102
}
100
AcDbDictionary
280
     0
281
     1
  3
Layout1
350
21
  3
Model
350
20
  0
DICTIONARY
  5
22
102
{ACAD_REACTORS
330
19
102
}
100
AcDbDictionary
280
     0
281
     1
  0
WIPEOUTVARIABLES
  5
23
100
AcDbWipeoutVariables
 70
     1
  0
XRECORD
  5
59B
100
AcDbXrecord
280
     1
  1
DWGPROPS COOKIE
  2

  3

  4

  6

  7

  8
HK96464
  9

300
=
301
=
302
=
303
=
304
=
305
=
306
=
307
=
308
=
309
=
 40
0.0
 41
2455943.857222
 42
2455943.857222
  1

 90
        0
  0
ENDSEC
  0
EOF
