  0
SECTION
  2
HEADER
  9
$ACADVER
  1
AC1015
  9
$ACADMAINTVER
 70
     6
  9
$DWGCODEPAGE
  3
ANSI_932
  9
$INSBASE
 10
0.0
 20
0.0
 30
0.0
  9
$EXTMIN
 10
1.000000E+20
 20
1.000000E+20
 30
1.000000E+20
  9
$EXTMAX
 10
-1.000000E+20
 20
-1.000000E+20
 30
-1.000000E+20
  9
$LIMMIN
 10
0.0
 20
0.0
  9
$LIMMAX
 10
0.0
 20
0.0
  9
$ORTHOMODE
 70
     0
  9
$REGENMODE
 70
     1
  9
$FILLMODE
 70
     1
  9
$QTEXTMODE
 70
     0
  9
$MIRRTEXT
 70
     1
  9
$LTSCALE
 40
1.0
  9
$ATTMODE
 70
     1
  9
$TEXTSIZE
 40
7.0
  9
$TRACEWID
 40
0.05
  9
$TEXTSTYLE
  7
Standard
  9
$CLAYER
  8
0
  9
$CELTYPE
  6
Continuous
  9
$CECOLOR
 62
   256
  9
$CELTSCALE
 40
1.0
  9
$DISPSILH
 70
     0
  9
$DIMSCALE
 40
1.0
  9
$DIMASZ
 40
1.931852
  9
$DIMEXO
 40
1.0
  9
$DIMDLI
 40
0.38
  9
$DIMRND
 40
0.0
  9
$DIMDLE
 40
0.0
  9
$DIMEXE
 40
2.0
  9
$DIMTP
 40
0.0
  9
$DIMTM
 40
0.0
  9
$DIMTXT
 40
2.8
  9
$DIMCEN
 40
0.09
  9
$DIMTSZ
 40
0.0
  9
$DIMTOL
 70
     0
  9
$DIMLIM
 70
     0
  9
$DIMTIH
 70
     1
  9
$DIMTOH
 70
     1
  9
$DIMSE1
 70
     0
  9
$DIMSE2
 70
     0
  9
$DIMTAD
 70
     1
  9
$DIMZIN
 70
     0
  9
$DIMBLK
  1

  9
$DIMASO
 70
     1
  9
$DIMSHO
 70
     1
  9
$DIMPOST
  1

  9
$DIMAPOST
  1

  9
$DIMALT
 70
     0
  9
$DIMALTD
 70
     2
  9
$DIMALTF
 40
25.4
  9
$DIMLFAC
 40
1.0
  9
$DIMTOFL
 70
     0
  9
$DIMTVP
 40
0.0
  9
$DIMTIX
 70
     0
  9
$DIMSOXD
 70
     0
  9
$DIMSAH
 70
     0
  9
$DIMBLK1
  1

  9
$DIMBLK2
  1

  9
$DIMSTYLE
  2
Standard
  9
$DIMCLRD
 70
     0
  9
$DIMCLRE
 70
     0
  9
$DIMCLRT
 70
     0
  9
$DIMTFAC
 40
0.714286
  9
$DIMGAP
 40
0.09
  9
$DIMJUST
 70
     0
  9
$DIMSD1
 70
     0
  9
$DIMSD2
 70
     0
  9
$DIMTOLJ
 70
     1
  9
$DIMTZIN
 70
     0
  9
$DIMALTZ
 70
     0
  9
$DIMALTTZ
 70
     0
  9
$DIMUPT
 70
     0
  9
$DIMDEC
 70
     4
  9
$DIMTDEC
 70
     4
  9
$DIMALTU
 70
     2
  9
$DIMALTTD
 70
     2
  9
$DIMTXSTY
  7
Standard
  9
$DIMAUNIT
 70
     0
  9
$DIMADEC
 70
     0
  9
$DIMALTRND
 40
0.0
  9
$DIMAZIN
 70
     0
  9
$DIMDSEP
 70
     0
  9
$DIMATFIT
 70
     3
  9
$DIMFRAC
 70
     0
  9
$DIMLDRBLK
  1

  9
$DIMLUNIT
 70
     2
  9
$DIMLWD
 70
     0
  9
$DIMLWE
 70
     0
  9
$DIMTMOVE
 70
     0
  9
$LUNITS
 70
     2
  9
$LUPREC
 70
     3
  9
$SKETCHINC
 40
0.1
  9
$FILLETRAD
 40
0.0
  9
$AUNITS
 70
     0
  9
$AUPREC
 70
     0
  9
$MENU
  1
acad
  9
$ELEVATION
 40
0.0
  9
$PELEVATION
 40
0.0
  9
$THICKNESS
 40
0.0
  9
$LIMCHECK
 70
     0
  9
$CHAMFERA
 40
0.0
  9
$CHAMFERB
 40
0.0
  9
$CHAMFERC
 40
0.0
  9
$CHAMFERD
 40
0.0
  9
$SKPOLY
 70
     0
  9
$TDCREATE
 40
0.000000000
  9
$TDUCREATE
 40
0.000000000
  9
$TDUPDATE
 40
0.000000000
  9
$TDUUPDATE
 40
0.000000000
  9
$TDINDWG
 40
0.0000000000
  9
$TDUSRTIMER
 40
0.0000000000
  9
$USRTIMER
 70
     1
  9
$ANGBASE
 50
0.0
  9
$ANGDIR
 70
     0
  9
$PDMODE
 70
     0
  9
$PDSIZE
 40
0.0
  9
$PLINEWID
 40
0.0
  9
$SPLFRAME
 70
     0
  9
$SPLINETYPE
 70
     6
  9
$SPLINESEGS
 70
     8
  9
$HANDSEED
  5
51D
  9
$SURFTAB1
 70
     6
  9
$SURFTAB2
 70
     6
  9
$SURFTYPE
 70
     6
  9
$SURFU
 70
     6
  9
$SURFV
 70
     6
  9
$UCSBASE
  2

  9
$UCSNAME
  2

  9
$UCSORG
 10
0.0
 20
0.0
 30
0.0
  9
$UCSXDIR
 10
1.0
 20
0.0
 30
0.0
  9
$UCSYDIR
 10
0.0
 20
1.0
 30
0.0
  9
$UCSORTHOREF
  2

  9
$UCSORTHOVIEW
 70
     0
  9
$UCSORGTOP
 10
0.0
 20
0.0
 30
0.0
  9
$UCSORGBOTTOM
 10
0.0
 20
0.0
 30
0.0
  9
$UCSORGLEFT
 10
0.0
 20
0.0
 30
0.0
  9
$UCSORGRIGHT
 10
0.0
 20
0.0
 30
0.0
  9
$UCSORGFRONT
 10
0.0
 20
0.0
 30
0.0
  9
$UCSORGBACK
 10
0.0
 20
0.0
 30
0.0
  9
$PUCSBASE
  2

  9
$PUCSNAME
  2

  9
$PUCSORG
 10
0.0
 20
0.0
 30
0.0
  9
$PUCSXDIR
 10
1.0
 20
0.0
 30
0.0
  9
$PUCSYDIR
 10
0.0
 20
1.0
 30
0.0
  9
$PUCSORTHOREF
  2

  9
$PUCSORTHOVIEW
 70
     0
  9
$PUCSORGTOP
 10
0.0
 20
0.0
 30
0.0
  9
$PUCSORGBOTTOM
 10
0.0
 20
0.0
 30
0.0
  9
$PUCSORGLEFT
 10
0.0
 20
0.0
 30
0.0
  9
$PUCSORGRIGHT
 10
0.0
 20
0.0
 30
0.0
  9
$PUCSORGFRONT
 10
0.0
 20
0.0
 30
0.0
  9
$PUCSORGBACK
 10
0.0
 20
0.0
 30
0.0
  9
$USERI1
 70
     0
  9
$USERI2
 70
     0
  9
$USERI3
 70
     0
  9
$USERI4
 70
     0
  9
$USERI5
 70
     0
  9
$USERR1
 40
0.0
  9
$USERR2
 40
0.0
  9
$USERR3
 40
0.0
  9
$USERR4
 40
0.0
  9
$USERR5
 40
0.0
  9
$WORLDVIEW
 70
     1
  9
$SHADEDGE
 70
     3
  9
$SHADEDIF
 70
    70
  9
$TILEMODE
 70
     1
  9
$MAXACTVP
 70
    16
  9
$PINSBASE
 10
0.0
 20
0.0
 30
0.0
  9
$PLIMCHECK
 70
     0
  9
$PEXTMIN
 10
1.000000E+20
 20
1.000000E+20
 30
1.000000E+20
  9
$PEXTMAX
 10
-1.000000E+20
 20
-1.000000E+20
 30
-1.000000E+20
  9
$PLIMMIN
 10
0.0
 20
0.0
  9
$PLIMMAX
 10
12.0
 20
9.0
  9
$UNITMODE
 70
     0
  9
$VISRETAIN
 70
     0
  9
$PLINEGEN
 70
     1
  9
$PSLTSCALE
 70
     0
  9
$TREEDEPTH
 70
  3020
  9
$CMLSTYLE
  2
Standard
  9
$CMLJUST
 70
     0
  9
$CMLSCALE
 40
1.0
  9
$PROXYGRAPHICS
 70
     0
  9
$MEASUREMENT
 70
     0
  9
$CELWEIGHT
370
     0
  9
$ENDCAPS
280
     0
  9
$JOINSTYLE
280
     0
  9
$LWDISPLAY
290
     0
  9
$INSUNITS
 70
     0
  9
$HYPERLINKBASE
  1

  9
$STYLESHEET
  1

  9
$XEDIT
290
     1
  9
$CEPSNTYPE
380
     0
  9
$PSTYLEMODE
290
     1
  9
$FINGERPRINTGUID
  2

  9
$VERSIONGUID
  2

  9
$EXTNAMES
290
     1
  9
$PSVPSCALE
 40
0.0
  0
ENDSEC
  0
SECTION
  2
CLASSES
  0
CLASS
  1
LWPOLYLINE
  2
AcDbPolyline
  3
AutoCAD 2000
 90
    32768
280
     0
281
     1
  0
CLASS
  1
IMAGE
  2
AcDbRasterImage
  3
ISM
 90
    32895
280
     0
281
     1
  0
CLASS
  1
OLE2FRAME
  2
AcDbOle2Frame
  3
AutoCAD 2000
 90
    32768
280
     0
281
     1
  0
CLASS
  1
HATCH
  2
AcDbHatch
  3
AutoCAD 2000
 90
    32768
280
     0
281
     1
  0
CLASS
  1
DICTIONARYVAR
  2
AcDbDictionaryVar
  3
AutoCAD 2000
 90
    32768
280
     0
281
     0
  0
CLASS
  1
RASTERVARIABLES
  2
AcDbRasterVariables
  3
ISM
 90
    32768
280
     0
281
     0
  0
CLASS
  1
IMAGEDEF
  2
AcDbRasterImageDef
  3
ISM
 90
    32768
280
     0
281
     0
  0
CLASS
  1
IMAGEDEF_REACTOR
  2
AcDbRasterImageDefReactor
  3
ISM
 90
    32769
280
     0
281
     0
  0
CLASS
  1
IDBUFFER
  2
AcDbIdBuffer
  3
AutoCAD 2000
 90
    32768
280
     0
281
     0
  0
CLASS
  1
SPATIAL_FILTER
  2
AcDbSpatialFilter
  3
AutoCAD 2000
 90
    32768
280
     0
281
     0
  0
CLASS
  1
XRECORD
  2
AcDbXrecord
  3
AutoCAD 2000
 90
        0
280
     0
281
     0
  0
CLASS
  1
SORTENTSTABLE
  2
AcDbSortentsTable
  3
AutoCAD 2000
 90
    32768
280
     0
281
     0
  0
CLASS
  1
LAYER_INDEX
  2
AcDbLayerIndex
  3
AutoCAD 2000
 90
    32768
280
     0
281
     0
  0
CLASS
  1
SPATIAL_INDEX
  2
AcDbSpatialIndex
  3
AutoCAD 2000
 90
    32768
280
     0
281
     0
  0
CLASS
  1
OBJECT_PTR
  2
CAseDLPNTableRecord
  3
"ASE-LPNTableRecord"
 90
    32769
280
     0
281
     0
  0
CLASS
  1
LAYOUT
  2
AcDbLayout
  3
AutoCAD 2000
 90
        0
280
     0
281
     0
  0
CLASS
  1
PLOTSETTINGS
  2
AcDbPlotSettings
  3
AutoCAD 2000
 90
    32768
280
     0
281
     0
  0
CLASS
  1
ACDBDICTIONARYWDFLT
  2
AcDbDictionaryWithDefault
  3
AutoCAD 2000
 90
        0
280
     0
281
     0
  0
CLASS
  1
ACDBPLACEHOLDER
  2
AcDbPlaceHolder
  3
AutoCAD 2000
 90
        0
280
     0
281
     0
  0
CLASS
  1
VBA_PROJECT
  2
AcDbVbaProject
  3
acadvba
 90
    32768
280
     0
281
     0
  0
CLASS
  1
WIPEOUT
  2
AcDbWipeout
  3
WipeOut|AutoCAD Express Tool|expresstools@autodesk.com
 90
    32895
280
     0
281
     1
  0
CLASS
  1
WIPEOUTVARIABLES
  2
AcDbWipeoutVariables
  3
WipeOut|AutoCAD Express Tool|expresstools@autodesk.com
 90
        0
280
     0
281
     0
  0
CLASS
  1
RTEXT
  2
RText
  3
RText|AutoCAD Express Tool|expresstools@autodesk.com
 90
    32768
280
     0
281
     1
  0
CLASS
  1
ARCALIGNEDTEXT
  2
AcDbArcAlignedText
  3
ATEXT|AutoCAD Express Tool|expresstools@autodesk.com
 90
    32768
280
     0
281
     1
  0
ENDSEC
  0
SECTION
  2
TABLES
  0
TABLE
  2
VPORT
  5
7
100
AcDbSymbolTable
 70
     1
  0
VPORT
  5
15
100
AcDbSymbolTableRecord
100
AcDbViewportTableRecord
  2
*ACTIVE
 70
     0
 10
0.0
 20
0.0
 11
1.0
 21
1.0
 12
0.0
 22
0.0
 13
0.0
 23
0.0
 14
1.0
 24
1.0
 15
0.0
 25
0.0
 16
0.0
 26
0.0
 36
1.0
 17
0.0
 27
0.0
 37
0.0
 40
100.0
 41
1.0
 42
50.0
 43
0.0
 44
0.0
 50
0.0
 51
0.0
 71
     0
 72
   100
 73
     1
 74
     1
 75
     0
 76
     0
 77
     0
 78
     0
281
     0
 65
     0
110
0.0
120
0.0
130
0.0
111
1.0
121
0.0
131
0.0
112
0.0
122
1.0
132
0.0
345
0
346
0
 79
     0
146
0.0
  0
ENDTAB
  0
TABLE
  2
LTYPE
  5
4
100
AcDbSymbolTable
 70
     7
  0
LTYPE
  5
11
100
AcDbSymbolTableRecord
100
AcDbLinetypeTableRecord
  2
ByBlock
 70
    64
  3

 72
    65
 73
     0
 40
0.0
  0
LTYPE
  5
12
100
AcDbSymbolTableRecord
100
AcDbLinetypeTableRecord
  2
ByLayer
 70
    64
  3

 72
    65
 73
     0
 40
0.0
  0
LTYPE
  5
13
100
AcDbSymbolTableRecord
100
AcDbLinetypeTableRecord
  2
Continuous
 70
    64
  3
Solid line
 72
    65
 73
     0
 40
0.0
  0
LTYPE
  5
24
100
AcDbSymbolTableRecord
100
AcDbLinetypeTableRecord
  2
DASHED
 70
    64
  3
Dashed __ __ __ __ __ __ __ __ __ __ __ __ __ _
 72
    65
 73
     2
 40
0.75
 49
0.5
 74
     0
 49
-0.25
 74
     0
  0
LTYPE
  5
25
100
AcDbSymbolTableRecord
100
AcDbLinetypeTableRecord
  2
CENTER
 70
    64
  3
Center ____ _ ____ _ ____ _ ____ _ ____ _ ____
 72
    65
 73
     4
 40
1.0
 49
0.5
 74
     0
 49
-0.25
 74
     0
 49
0.0
 74
     0
 49
-0.25
 74
     0
  0
LTYPE
  5
26
100
AcDbSymbolTableRecord
100
AcDbLinetypeTableRecord
  2
DIVIDE
 70
    64
  3
Divide ____ . . ____ . . ____ . . ____ . . ____
 72
    65
 73
     6
 40
1.25
 49
0.5
 74
     0
 49
-0.25
 74
     0
 49
0.0
 74
     0
 49
-0.25
 74
     0
 49
0.0
 74
     0
 49
-0.25
 74
     0
  0
LTYPE
  5
27
100
AcDbSymbolTableRecord
100
AcDbLinetypeTableRecord
  2
PHANTOM
 70
    64
  3
Phantom ______  __  __  ______  __  __  ______
 72
    65
 73
     6
 40
9.0
 49
4.3
 74
     0
 49
-0.7
 74
     0
 49
1.3
 74
     0
 49
-0.7
 74
     0
 49
1.3
 74
     0
 49
-0.7
 74
     0
  0
ENDTAB
  0
TABLE
  2
LAYER
  5
2
100
AcDbSymbolTable
 70
     4
  0
LAYER
  5
14
100
AcDbSymbolTableRecord
100
AcDbLayerTableRecord
  2
0
 70
    64
 62
    53
  6
Continuous
290
     1
370
    -3
390
1D
  0
LAYER
  5
28
100
AcDbSymbolTableRecord
100
AcDbLayerTableRecord
  2
1
 70
    64
 62
     3
  6
Continuous
290
     1
370
    -3
390
1D
  0
LAYER
  5
29
100
AcDbSymbolTableRecord
100
AcDbLayerTableRecord
  2
3
 70
    64
 62
     4
  6
Continuous
290
     1
370
    -3
390
1D
  0
LAYER
  5
2A
100
AcDbSymbolTableRecord
100
AcDbLayerTableRecord
  2
5
 70
    64
 62
   191
  6
Continuous
290
     1
370
    -3
390
1D
  0
ENDTAB
  0
TABLE
  2
STYLE
  5
3
100
AcDbSymbolTable
 70
     2
  0
STYLE
  5
17
100
AcDbSymbolTableRecord
100
AcDbTextStyleTableRecord
  2
Standard
 70
     0
 40
0.0
 41
1.0
 50
0.0
 71
     0
 42
0.0
  3
txt
  4

  0
STYLE
  5
34
100
AcDbSymbolTableRecord
100
AcDbTextStyleTableRecord
  2
ZU_SHPTB00001
 70
     0
 40
0.0
 41
1.0
 50
0.0
 71
     0
 42
0.0
  3
monotxt
  4
bigfont
  0
ENDTAB
  0
TABLE
  2
VIEW
  5
5
100
AcDbSymbolTable
 70
     0
  0
ENDTAB
  0
TABLE
  2
UCS
  5
6
100
AcDbSymbolTable
 70
     0
  0
ENDTAB
  0
TABLE
  2
APPID
  5
8
100
AcDbSymbolTable
 70
     1
  0
APPID
  5
16
100
AcDbSymbolTableRecord
100
AcDbRegAppTableRecord
  2
ACAD
 70
     0
  0
ENDTAB
  0
TABLE
  2
DIMSTYLE
  5
9
100
AcDbSymbolTable
 70
     1
100
AcDbDimStyleTable
 71
     0
  0
DIMSTYLE
105
18
100
AcDbSymbolTableRecord
100
AcDbDimStyleTableRecord
  2
Standard
 70
     0
  3

  4

 40
1.0
 41
0.18
 42
0.0625
 43
0.38
 44
0.18
 45
0.0
 46
0.0
 47
0.0
 48
0.0
 71
     0
 72
     0
 73
     1
 74
     1
 75
     0
 76
     0
 77
     0
 78
     0
 79
     0
140
0.18
141
0.09
142
0.0
143
25.4
144
1.0
145
0.0
146
1.0
147
0.09
148
0.0
170
     0
171
     2
172
     0
173
     0
174
     0
175
     0
176
     0
177
     0
178
     0
179
     0
271
     4
272
     4
273
     2
274
     2
275
     0
276
     0
277
     2
278
    46
279
     0
280
     0
281
     0
282
     0
283
     1
284
     0
285
     0
286
     0
288
     0
340
17
341
0
342
0
343
0
344
0
371
    -2
372
    -2
  0
ENDTAB
  0
TABLE
  2
BLOCK_RECORD
  5
1
100
AcDbSymbolTable
 70
    10
  0
BLOCK_RECORD
  5
A
100
AcDbSymbolTableRecord
100
AcDbBlockTableRecord
  2
*MODEL_SPACE
340
20
  0
BLOCK_RECORD
  5
B
100
AcDbSymbolTableRecord
100
AcDbBlockTableRecord
  2
*PAPER_SPACE
340
21
  0
BLOCK_RECORD
  5
5B
100
AcDbSymbolTableRecord
100
AcDbBlockTableRecord
  2
ZU_SYM__USERS_HOME_SYMBOL_STD_SYM_B01_-1
340
0
102
{BLKREFS
331
66
102
}
  0
BLOCK_RECORD
  5
67
100
AcDbSymbolTableRecord
100
AcDbBlockTableRecord
  2
ZU_SYM__USERS_HOME_SYMBOL_STD_SYM_B01_00001-1
340
0
102
{BLKREFS
331
72
102
}
  0
BLOCK_RECORD
  5
73
100
AcDbSymbolTableRecord
100
AcDbBlockTableRecord
  2
ZU_SYM__USERS_HOME_SYMBOL_STD_SYM_B01_00002-1
340
0
102
{BLKREFS
331
7E
102
}
  0
BLOCK_RECORD
  5
7F
100
AcDbSymbolTableRecord
100
AcDbBlockTableRecord
  2
ZU_SYM__USERS_HOME_SYMBOL_STD_SYM_B01_00003-1
340
0
102
{BLKREFS
331
8A
102
}
  0
BLOCK_RECORD
  5
26A
100
AcDbSymbolTableRecord
100
AcDbBlockTableRecord
  2
ZU_SYM__USERS_HOME_SYMBOL_POO_SYM_B20_-1
340
0
102
{BLKREFS
331
275
102
}
  0
BLOCK_RECORD
  5
276
100
AcDbSymbolTableRecord
100
AcDbBlockTableRecord
  2
ZU_SYM__USERS_HOME_SYMBOL_POO_SYM_B20_00004-1
340
0
102
{BLKREFS
331
281
102
}
  0
BLOCK_RECORD
  5
282
100
AcDbSymbolTableRecord
100
AcDbBlockTableRecord
  2
ZU_SYM__USERS_HOME_SYMBOL_POO_SYM_B20_00005-1
340
0
102
{BLKREFS
331
28D
102
}
  0
BLOCK_RECORD
  5
28E
100
AcDbSymbolTableRecord
100
AcDbBlockTableRecord
  2
ZU_SYM__USERS_HOME_SYMBOL_POO_SYM_B20_00006-1
340
0
102
{BLKREFS
331
299
102
}
  0
BLOCK_RECORD
  5
366
100
AcDbSymbolTableRecord
100
AcDbBlockTableRecord
  2
ZU_SYM__USERS_HOME_SYMBOL_STD_SYM_B01_00007-1
340
0
102
{BLKREFS
331
378
102
}
  0
BLOCK_RECORD
  5
394
100
AcDbSymbolTableRecord
100
AcDbBlockTableRecord
  2
ZU_SYM__USERS_HOME_SYMBOL_STD_SYM_B01_00008-1
340
0
102
{BLKREFS
331
3A6
102
}
  0
ENDTAB
  0
ENDSEC
  0
SECTION
  2
BLOCKS
  0
BLOCK
  5
D
100
AcDbEntity
  8
0
100
AcDbBlockBegin
  2
*MODEL_SPACE
 70
     0
 10
0.0
 20
0.0
 30
0.0
  3
*MODEL_SPACE
  1

  0
ENDBLK
  5
E
100
AcDbEntity
  8
0
100
AcDbBlockEnd
  0
BLOCK
  5
F
100
AcDbEntity
 67
     1
  8
0
100
AcDbBlockBegin
  2
*PAPER_SPACE
 70
     0
 10
0.0
 20
0.0
 30
0.0
  3
*PAPER_SPACE
  1

  0
ENDBLK
  5
10
100
AcDbEntity
 67
     1
  8
0
100
AcDbBlockEnd
  0
BLOCK
  5
5C
100
AcDbEntity
  8
0
100
AcDbBlockBegin
  2
ZU_SYM__USERS_HOME_SYMBOL_STD_SYM_B01_-1
 70
    64
 10
0.0
 20
0.0
 30
0.0
  3
ZU_SYM__USERS_HOME_SYMBOL_STD_SYM_B01_-1
  1

  0
POINT
  5
5D
100
AcDbEntity
  8
0
370
    -3
  6
Continuous
100
AcDbPoint
 10
0.0
 20
0.0
 30
0.0
  0
LINE
  5
5E
100
AcDbEntity
  8
0
370
    -3
  6
Continuous
100
AcDbLine
 10
-2.300001
 20
-4.0
 30
0.0
 11
-4.6
 21
-0.000001
 31
0.0
  0
LINE
  5
5F
100
AcDbEntity
  8
0
370
    -3
  6
Continuous
100
AcDbLine
 10
-4.6
 20
0.000001
 30
0.0
 11
-2.300001
 21
4.0
 31
0.0
  0
LINE
  5
60
100
AcDbEntity
  8
0
370
    -3
  6
Continuous
100
AcDbLine
 10
-2.299999
 20
4.0
 30
0.0
 11
2.299999
 21
4.0
 31
0.0
  0
LINE
  5
61
100
AcDbEntity
  8
0
370
    -3
  6
Continuous
100
AcDbLine
 10
2.300001
 20
4.0
 30
0.0
 11
4.6
 21
0.000001
 31
0.0
  0
LINE
  5
62
100
AcDbEntity
  8
0
370
    -3
  6
Continuous
100
AcDbLine
 10
4.6
 20
-0.000001
 30
0.0
 11
2.300001
 21
-4.0
 31
0.0
  0
LINE
  5
63
100
AcDbEntity
  8
0
370
    -3
  6
Continuous
100
AcDbLine
 10
2.299999
 20
-4.0
 30
0.0
 11
-2.299999
 21
-4.0
 31
0.0
  0
CIRCLE
  5
64
100
AcDbEntity
  8
0
370
    -3
  6
Continuous
100
AcDbCircle
 10
0.0
 20
0.0
 30
0.0
 40
4.0
  0
ENDBLK
  5
65
100
AcDbEntity
  8
0
100
AcDbBlockEnd
  0
BLOCK
  5
68
100
AcDbEntity
  8
0
100
AcDbBlockBegin
  2
ZU_SYM__USERS_HOME_SYMBOL_STD_SYM_B01_00001-1
 70
    64
 10
0.0
 20
0.0
 30
0.0
  3
ZU_SYM__USERS_HOME_SYMBOL_STD_SYM_B01_00001-1
  1

  0
POINT
  5
69
100
AcDbEntity
  8
0
370
    -3
  6
Continuous
100
AcDbPoint
 10
0.0
 20
0.0
 30
0.0
  0
LINE
  5
6A
100
AcDbEntity
  8
0
370
    -3
  6
Continuous
100
AcDbLine
 10
-2.300001
 20
-4.0
 30
0.0
 11
-4.6
 21
-0.000001
 31
0.0
  0
LINE
  5
6B
100
AcDbEntity
  8
0
370
    -3
  6
Continuous
100
AcDbLine
 10
-4.6
 20
0.000001
 30
0.0
 11
-2.300001
 21
4.0
 31
0.0
  0
LINE
  5
6C
100
AcDbEntity
  8
0
370
    -3
  6
Continuous
100
AcDbLine
 10
-2.299999
 20
4.0
 30
0.0
 11
2.299999
 21
4.0
 31
0.0
  0
LINE
  5
6D
100
AcDbEntity
  8
0
370
    -3
  6
Continuous
100
AcDbLine
 10
2.300001
 20
4.0
 30
0.0
 11
4.6
 21
0.000001
 31
0.0
  0
LINE
  5
6E
100
AcDbEntity
  8
0
370
    -3
  6
Continuous
100
AcDbLine
 10
4.6
 20
-0.000001
 30
0.0
 11
2.300001
 21
-4.0
 31
0.0
  0
LINE
  5
6F
100
AcDbEntity
  8
0
370
    -3
  6
Continuous
100
AcDbLine
 10
2.299999
 20
-4.0
 30
0.0
 11
-2.299999
 21
-4.0
 31
0.0
  0
CIRCLE
  5
70
100
AcDbEntity
  8
0
370
    -3
  6
Continuous
100
AcDbCircle
 10
0.0
 20
0.0
 30
0.0
 40
4.0
  0
ENDBLK
  5
71
100
AcDbEntity
  8
0
100
AcDbBlockEnd
  0
BLOCK
  5
74
100
AcDbEntity
  8
0
100
AcDbBlockBegin
  2
ZU_SYM__USERS_HOME_SYMBOL_STD_SYM_B01_00002-1
 70
    64
 10
0.0
 20
0.0
 30
0.0
  3
ZU_SYM__USERS_HOME_SYMBOL_STD_SYM_B01_00002-1
  1

  0
POINT
  5
75
100
AcDbEntity
  8
0
370
    -3
  6
Continuous
100
AcDbPoint
 10
0.0
 20
0.0
 30
0.0
  0
LINE
  5
76
100
AcDbEntity
  8
0
370
    -3
  6
Continuous
100
AcDbLine
 10
-2.300001
 20
-4.0
 30
0.0
 11
-4.6
 21
-0.000001
 31
0.0
  0
LINE
  5
77
100
AcDbEntity
  8
0
370
    -3
  6
Continuous
100
AcDbLine
 10
-4.6
 20
0.000001
 30
0.0
 11
-2.300001
 21
4.0
 31
0.0
  0
LINE
  5
78
100
AcDbEntity
  8
0
370
    -3
  6
Continuous
100
AcDbLine
 10
-2.299999
 20
4.0
 30
0.0
 11
2.299999
 21
4.0
 31
0.0
  0
LINE
  5
79
100
AcDbEntity
  8
0
370
    -3
  6
Continuous
100
AcDbLine
 10
2.300001
 20
4.0
 30
0.0
 11
4.6
 21
0.000001
 31
0.0
  0
LINE
  5
7A
100
AcDbEntity
  8
0
370
    -3
  6
Continuous
100
AcDbLine
 10
4.6
 20
-0.000001
 30
0.0
 11
2.300001
 21
-4.0
 31
0.0
  0
LINE
  5
7B
100
AcDbEntity
  8
0
370
    -3
  6
Continuous
100
AcDbLine
 10
2.299999
 20
-4.0
 30
0.0
 11
-2.299999
 21
-4.0
 31
0.0
  0
CIRCLE
  5
7C
100
AcDbEntity
  8
0
370
    -3
  6
Continuous
100
AcDbCircle
 10
0.0
 20
0.0
 30
0.0
 40
4.0
  0
ENDBLK
  5
7D
100
AcDbEntity
  8
0
100
AcDbBlockEnd
  0
BLOCK
  5
80
100
AcDbEntity
  8
0
100
AcDbBlockBegin
  2
ZU_SYM__USERS_HOME_SYMBOL_STD_SYM_B01_00003-1
 70
    64
 10
0.0
 20
0.0
 30
0.0
  3
ZU_SYM__USERS_HOME_SYMBOL_STD_SYM_B01_00003-1
  1

  0
POINT
  5
81
100
AcDbEntity
  8
0
370
    -3
  6
Continuous
100
AcDbPoint
 10
0.0
 20
0.0
 30
0.0
  0
LINE
  5
82
100
AcDbEntity
  8
0
370
    -3
  6
Continuous
100
AcDbLine
 10
-2.300001
 20
-4.0
 30
0.0
 11
-4.6
 21
-0.000001
 31
0.0
  0
LINE
  5
83
100
AcDbEntity
  8
0
370
    -3
  6
Continuous
100
AcDbLine
 10
-4.6
 20
0.000001
 30
0.0
 11
-2.300001
 21
4.0
 31
0.0
  0
LINE
  5
84
100
AcDbEntity
  8
0
370
    -3
  6
Continuous
100
AcDbLine
 10
-2.299999
 20
4.0
 30
0.0
 11
2.299999
 21
4.0
 31
0.0
  0
LINE
  5
85
100
AcDbEntity
  8
0
370
    -3
  6
Continuous
100
AcDbLine
 10
2.300001
 20
4.0
 30
0.0
 11
4.6
 21
0.000001
 31
0.0
  0
LINE
  5
86
100
AcDbEntity
  8
0
370
    -3
  6
Continuous
100
AcDbLine
 10
4.6
 20
-0.000001
 30
0.0
 11
2.300001
 21
-4.0
 31
0.0
  0
LINE
  5
87
100
AcDbEntity
  8
0
370
    -3
  6
Continuous
100
AcDbLine
 10
2.299999
 20
-4.0
 30
0.0
 11
-2.299999
 21
-4.0
 31
0.0
  0
CIRCLE
  5
88
100
AcDbEntity
  8
0
370
    -3
  6
Continuous
100
AcDbCircle
 10
0.0
 20
0.0
 30
0.0
 40
4.0
  0
ENDBLK
  5
89
100
AcDbEntity
  8
0
100
AcDbBlockEnd
  0
BLOCK
  5
26B
100
AcDbEntity
  8
0
100
AcDbBlockBegin
  2
ZU_SYM__USERS_HOME_SYMBOL_POO_SYM_B20_-1
 70
    64
 10
0.0
 20
0.0
 30
0.0
  3
ZU_SYM__USERS_HOME_SYMBOL_POO_SYM_B20_-1
  1

  0
CIRCLE
  5
26C
100
AcDbEntity
  8
0
370
    -3
  6
Continuous
100
AcDbCircle
 10
0.0
 20
0.0
 30
0.0
 40
5.0
  0
POINT
  5
26D
100
AcDbEntity
  8
0
370
    -3
  6
Continuous
100
AcDbPoint
 10
0.0
 20
0.0
 30
0.0
  0
LINE
  5
26E
100
AcDbEntity
  8
0
370
    -3
  6
Continuous
100
AcDbLine
 10
-2.499998
 20
-1.443372
 30
0.0
 11
-2.499999
 21
1.443378
 31
0.0
  0
LINE
  5
26F
100
AcDbEntity
  8
0
370
    -3
  6
Continuous
100
AcDbLine
 10
2.499998
 20
1.443372
 30
0.0
 11
2.499999
 21
-1.443374
 31
0.0
  0
LINE
  5
270
100
AcDbEntity
  8
0
370
    -3
  6
Continuous
100
AcDbLine
 10
0.000005
 20
2.886749
 30
0.0
 11
2.499999
 21
1.443372
 31
0.0
  0
LINE
  5
271
100
AcDbEntity
  8
0
370
    -3
  6
Continuous
100
AcDbLine
 10
-0.000006
 20
-2.886747
 30
0.0
 11
-2.499998
 21
-1.443372
 31
0.0
  0
LINE
  5
272
100
AcDbEntity
  8
0
370
    -3
  6
Continuous
100
AcDbLine
 10
0.000005
 20
2.886748
 30
0.0
 11
-2.5
 21
1.443377
 31
0.0
  0
LINE
  5
273
100
AcDbEntity
  8
0
370
    -3
  6
Continuous
100
AcDbLine
 10
2.499999
 20
-1.443374
 30
0.0
 11
-0.000005
 21
-2.886748
 31
0.0
  0
ENDBLK
  5
274
100
AcDbEntity
  8
0
100
AcDbBlockEnd
  0
BLOCK
  5
277
100
AcDbEntity
  8
0
100
AcDbBlockBegin
  2
ZU_SYM__USERS_HOME_SYMBOL_POO_SYM_B20_00004-1
 70
    64
 10
0.0
 20
0.0
 30
0.0
  3
ZU_SYM__USERS_HOME_SYMBOL_POO_SYM_B20_00004-1
  1

  0
CIRCLE
  5
278
100
AcDbEntity
  8
0
370
    -3
  6
Continuous
100
AcDbCircle
 10
0.0
 20
0.0
 30
0.0
 40
5.0
  0
POINT
  5
279
100
AcDbEntity
  8
0
370
    -3
  6
Continuous
100
AcDbPoint
 10
0.0
 20
0.0
 30
0.0
  0
LINE
  5
27A
100
AcDbEntity
  8
0
370
    -3
  6
Continuous
100
AcDbLine
 10
-2.499998
 20
-1.443372
 30
0.0
 11
-2.499999
 21
1.443378
 31
0.0
  0
LINE
  5
27B
100
AcDbEntity
  8
0
370
    -3
  6
Continuous
100
AcDbLine
 10
2.499998
 20
1.443372
 30
0.0
 11
2.499999
 21
-1.443374
 31
0.0
  0
LINE
  5
27C
100
AcDbEntity
  8
0
370
    -3
  6
Continuous
100
AcDbLine
 10
0.000005
 20
2.886749
 30
0.0
 11
2.499999
 21
1.443372
 31
0.0
  0
LINE
  5
27D
100
AcDbEntity
  8
0
370
    -3
  6
Continuous
100
AcDbLine
 10
-0.000006
 20
-2.886747
 30
0.0
 11
-2.499998
 21
-1.443372
 31
0.0
  0
LINE
  5
27E
100
AcDbEntity
  8
0
370
    -3
  6
Continuous
100
AcDbLine
 10
0.000005
 20
2.886748
 30
0.0
 11
-2.5
 21
1.443377
 31
0.0
  0
LINE
  5
27F
100
AcDbEntity
  8
0
370
    -3
  6
Continuous
100
AcDbLine
 10
2.499999
 20
-1.443374
 30
0.0
 11
-0.000005
 21
-2.886748
 31
0.0
  0
ENDBLK
  5
280
100
AcDbEntity
  8
0
100
AcDbBlockEnd
  0
BLOCK
  5
283
100
AcDbEntity
  8
0
100
AcDbBlockBegin
  2
ZU_SYM__USERS_HOME_SYMBOL_POO_SYM_B20_00005-1
 70
    64
 10
0.0
 20
0.0
 30
0.0
  3
ZU_SYM__USERS_HOME_SYMBOL_POO_SYM_B20_00005-1
  1

  0
CIRCLE
  5
284
100
AcDbEntity
  8
0
370
    -3
  6
Continuous
100
AcDbCircle
 10
0.0
 20
0.0
 30
0.0
 40
5.0
  0
POINT
  5
285
100
AcDbEntity
  8
0
370
    -3
  6
Continuous
100
AcDbPoint
 10
0.0
 20
0.0
 30
0.0
  0
LINE
  5
286
100
AcDbEntity
  8
0
370
    -3
  6
Continuous
100
AcDbLine
 10
-2.499998
 20
-1.443372
 30
0.0
 11
-2.499999
 21
1.443378
 31
0.0
  0
LINE
  5
287
100
AcDbEntity
  8
0
370
    -3
  6
Continuous
100
AcDbLine
 10
2.499998
 20
1.443372
 30
0.0
 11
2.499999
 21
-1.443374
 31
0.0
  0
LINE
  5
288
100
AcDbEntity
  8
0
370
    -3
  6
Continuous
100
AcDbLine
 10
0.000005
 20
2.886749
 30
0.0
 11
2.499999
 21
1.443372
 31
0.0
  0
LINE
  5
289
100
AcDbEntity
  8
0
370
    -3
  6
Continuous
100
AcDbLine
 10
-0.000006
 20
-2.886747
 30
0.0
 11
-2.499998
 21
-1.443372
 31
0.0
  0
LINE
  5
28A
100
AcDbEntity
  8
0
370
    -3
  6
Continuous
100
AcDbLine
 10
0.000005
 20
2.886748
 30
0.0
 11
-2.5
 21
1.443377
 31
0.0
  0
LINE
  5
28B
100
AcDbEntity
  8
0
370
    -3
  6
Continuous
100
AcDbLine
 10
2.499999
 20
-1.443374
 30
0.0
 11
-0.000005
 21
-2.886748
 31
0.0
  0
ENDBLK
  5
28C
100
AcDbEntity
  8
0
100
AcDbBlockEnd
  0
BLOCK
  5
28F
100
AcDbEntity
  8
0
100
AcDbBlockBegin
  2
ZU_SYM__USERS_HOME_SYMBOL_POO_SYM_B20_00006-1
 70
    64
 10
0.0
 20
0.0
 30
0.0
  3
ZU_SYM__USERS_HOME_SYMBOL_POO_SYM_B20_00006-1
  1

  0
CIRCLE
  5
290
100
AcDbEntity
  8
0
370
    -3
  6
Continuous
100
AcDbCircle
 10
0.0
 20
0.0
 30
0.0
 40
5.0
  0
POINT
  5
291
100
AcDbEntity
  8
0
370
    -3
  6
Continuous
100
AcDbPoint
 10
0.0
 20
0.0
 30
0.0
  0
LINE
  5
292
100
AcDbEntity
  8
0
370
    -3
  6
Continuous
100
AcDbLine
 10
-2.499998
 20
-1.443372
 30
0.0
 11
-2.499999
 21
1.443378
 31
0.0
  0
LINE
  5
293
100
AcDbEntity
  8
0
370
    -3
  6
Continuous
100
AcDbLine
 10
2.499998
 20
1.443372
 30
0.0
 11
2.499999
 21
-1.443374
 31
0.0
  0
LINE
  5
294
100
AcDbEntity
  8
0
370
    -3
  6
Continuous
100
AcDbLine
 10
0.000005
 20
2.886749
 30
0.0
 11
2.499999
 21
1.443372
 31
0.0
  0
LINE
  5
295
100
AcDbEntity
  8
0
370
    -3
  6
Continuous
100
AcDbLine
 10
-0.000006
 20
-2.886747
 30
0.0
 11
-2.499998
 21
-1.443372
 31
0.0
  0
LINE
  5
296
100
AcDbEntity
  8
0
370
    -3
  6
Continuous
100
AcDbLine
 10
0.000005
 20
2.886748
 30
0.0
 11
-2.5
 21
1.443377
 31
0.0
  0
LINE
  5
297
100
AcDbEntity
  8
0
370
    -3
  6
Continuous
100
AcDbLine
 10
2.499999
 20
-1.443374
 30
0.0
 11
-0.000005
 21
-2.886748
 31
0.0
  0
ENDBLK
  5
298
100
AcDbEntity
  8
0
100
AcDbBlockEnd
  0
BLOCK
  5
367
100
AcDbEntity
  8
0
100
AcDbBlockBegin
  2
ZU_SYM__USERS_HOME_SYMBOL_STD_SYM_B01_00007-1
 70
    64
 10
0.0
 20
0.0
 30
0.0
  3
ZU_SYM__USERS_HOME_SYMBOL_STD_SYM_B01_00007-1
  1

  0
LINE
  5
368
100
AcDbEntity
  8
0
370
    -3
  6
Continuous
100
AcDbLine
 10
-1.299999
 20
0.300007
 30
0.0
 11
-0.000001
 21
0.600002
 31
0.0
  0
LINE
  5
369
100
AcDbEntity
  8
0
370
    -3
  6
Continuous
100
AcDbLine
 10
-1.3
 20
-0.299995
 30
0.0
 11
-0.000004
 21
-0.000001
 31
0.0
  0
LINE
  5
36A
100
AcDbEntity
  8
0
370
    -3
  6
Continuous
100
AcDbLine
 10
-1.300018
 20
-4.599993
 30
0.0
 11
-1.299981
 21
4.600004
 31
0.0
  0
ARC
  5
36B
100
AcDbEntity
  8
0
370
    -3
  6
Continuous
100
AcDbCircle
 10
0.740001
 20
-0.000003
 30
0.0
 40
5.539999
100
AcDbArc
 50
155.470187
 51
204.52925
  0
ARC
  5
36C
100
AcDbEntity
  8
0
370
    -3
  6
Continuous
100
AcDbCircle
 10
-3.229986
 20
3.450012
 30
0.0
 40
1.57
100
AcDbArc
 50
179.999745
 51
227.099746
  0
ARC
  5
36D
100
AcDbEntity
  8
0
370
    -3
  6
Continuous
100
AcDbCircle
 10
-3.230014
 20
-3.449986
 30
0.0
 40
1.57
100
AcDbArc
 50
132.899744
 51
179.999745
  0
LINE
  5
36E
100
AcDbEntity
  8
0
370
    -3
  6
Continuous
100
AcDbLine
 10
-4.299987
 20
2.300014
 30
0.0
 11
-1.29999
 21
2.300004
 31
0.0
  0
LINE
  5
36F
100
AcDbEntity
  8
0
370
    -3
  6
Continuous
100
AcDbLine
 10
-4.300006
 20
-2.29998
 30
0.0
 11
-1.300007
 21
-2.299992
 31
0.0
  0
LINE
  5
370
100
AcDbEntity
  8
0
370
    -3
  6
Continuous
100
AcDbLine
 10
0.000016
 20
4.599992
 30
0.0
 11
-0.000021
 21
-4.599992
 31
0.0
  0
LINE
  5
371
100
AcDbEntity
  8
0
370
    -3
  6
Continuous
100
AcDbLine
 10
-4.299978
 20
4.600015
 30
0.0
 11
0.000013
 21
4.599998
 31
0.0
  0
LINE
  5
372
100
AcDbEntity
  8
0
370
    -3
  6
Continuous
100
AcDbLine
 10
-4.799962
 20
3.900001
 30
0.0
 11
-4.299962
 21
4.599999
 31
0.0
  0
LINE
  5
373
100
AcDbEntity
  8
0
370
    -3
  6
Continuous
100
AcDbLine
 10
-4.80001
 20
-3.899973
 30
0.0
 11
-4.799979
 21
3.900012
 31
0.0
  0
LINE
  5
374
100
AcDbEntity
  8
0
370
    -3
  6
Continuous
100
AcDbLine
 10
-4.299996
 20
-4.599962
 30
0.0
 11
-4.79999
 21
-3.899959
 31
0.0
  0
LINE
  5
375
100
AcDbEntity
  8
0
370
    -3
  6
Continuous
100
AcDbLine
 10
-0.000025
 20
-4.599994
 30
0.0
 11
-4.300015
 21
-4.599977
 31
0.0
  0
POINT
  5
376
100
AcDbEntity
  8
0
370
    -3
  6
Continuous
100
AcDbPoint
 10
0.0
 20
0.0
 30
0.0
  0
ENDBLK
  5
377
100
AcDbEntity
  8
0
100
AcDbBlockEnd
  0
BLOCK
  5
395
100
AcDbEntity
  8
0
100
AcDbBlockBegin
  2
ZU_SYM__USERS_HOME_SYMBOL_STD_SYM_B01_00008-1
 70
    64
 10
0.0
 20
0.0
 30
0.0
  3
ZU_SYM__USERS_HOME_SYMBOL_STD_SYM_B01_00008-1
  1

  0
LINE
  5
396
100
AcDbEntity
  8
0
370
    -3
  6
Continuous
100
AcDbLine
 10
-1.299999
 20
0.300007
 30
0.0
 11
-0.000001
 21
0.600002
 31
0.0
  0
LINE
  5
397
100
AcDbEntity
  8
0
370
    -3
  6
Continuous
100
AcDbLine
 10
-1.3
 20
-0.299995
 30
0.0
 11
-0.000004
 21
-0.000001
 31
0.0
  0
LINE
  5
398
100
AcDbEntity
  8
0
370
    -3
  6
Continuous
100
AcDbLine
 10
-1.300018
 20
-4.599993
 30
0.0
 11
-1.299981
 21
4.600004
 31
0.0
  0
ARC
  5
399
100
AcDbEntity
  8
0
370
    -3
  6
Continuous
100
AcDbCircle
 10
0.740001
 20
-0.000003
 30
0.0
 40
5.539999
100
AcDbArc
 50
155.470187
 51
204.52925
  0
ARC
  5
39A
100
AcDbEntity
  8
0
370
    -3
  6
Continuous
100
AcDbCircle
 10
-3.229986
 20
3.450012
 30
0.0
 40
1.57
100
AcDbArc
 50
179.999745
 51
227.099746
  0
ARC
  5
39B
100
AcDbEntity
  8
0
370
    -3
  6
Continuous
100
AcDbCircle
 10
-3.230014
 20
-3.449986
 30
0.0
 40
1.57
100
AcDbArc
 50
132.899744
 51
179.999745
  0
LINE
  5
39C
100
AcDbEntity
  8
0
370
    -3
  6
Continuous
100
AcDbLine
 10
-4.299987
 20
2.300014
 30
0.0
 11
-1.29999
 21
2.300004
 31
0.0
  0
LINE
  5
39D
100
AcDbEntity
  8
0
370
    -3
  6
Continuous
100
AcDbLine
 10
-4.300006
 20
-2.29998
 30
0.0
 11
-1.300007
 21
-2.299992
 31
0.0
  0
LINE
  5
39E
100
AcDbEntity
  8
0
370
    -3
  6
Continuous
100
AcDbLine
 10
0.000016
 20
4.599992
 30
0.0
 11
-0.000021
 21
-4.599992
 31
0.0
  0
LINE
  5
39F
100
AcDbEntity
  8
0
370
    -3
  6
Continuous
100
AcDbLine
 10
-4.299978
 20
4.600015
 30
0.0
 11
0.000013
 21
4.599998
 31
0.0
  0
LINE
  5
3A0
100
AcDbEntity
  8
0
370
    -3
  6
Continuous
100
AcDbLine
 10
-4.799962
 20
3.900001
 30
0.0
 11
-4.299962
 21
4.599999
 31
0.0
  0
LINE
  5
3A1
100
AcDbEntity
  8
0
370
    -3
  6
Continuous
100
AcDbLine
 10
-4.80001
 20
-3.899973
 30
0.0
 11
-4.799979
 21
3.900012
 31
0.0
  0
LINE
  5
3A2
100
AcDbEntity
  8
0
370
    -3
  6
Continuous
100
AcDbLine
 10
-4.299996
 20
-4.599962
 30
0.0
 11
-4.79999
 21
-3.899959
 31
0.0
  0
LINE
  5
3A3
100
AcDbEntity
  8
0
370
    -3
  6
Continuous
100
AcDbLine
 10
-0.000025
 20
-4.599994
 30
0.0
 11
-4.300015
 21
-4.599977
 31
0.0
  0
POINT
  5
3A4
100
AcDbEntity
  8
0
370
    -3
  6
Continuous
100
AcDbPoint
 10
0.0
 20
0.0
 30
0.0
  0
ENDBLK
  5
3A5
100
AcDbEntity
  8
0
100
AcDbBlockEnd
  0
ENDSEC
  0
SECTION
  2
ENTITIES
  0
LINE
  5
2B
100
AcDbEntity
  8
0
370
    -3
  6
CENTER
100
AcDbLine
 10
464.704411
 20
-81.206058
 30
0.0
 11
464.704411
 21
-125.727563
 31
0.0
  0
LINE
  5
2C
100
AcDbEntity
  8
0
370
    -3
  6
CENTER
100
AcDbLine
 10
485.92423
 20
-104.704071
 30
0.0
 11
444.827456
 21
-104.704071
 31
0.0
  0
LINE
  5
2D
100
AcDbEntity
  8
0
370
    -3
  6
Continuous
100
AcDbLine
 10
469.704411
 20
-85.704071
 30
0.0
 11
469.704411
 21
-93.704071
 31
0.0
  0
LINE
  5
2E
100
AcDbEntity
  8
0
370
    -3
  6
Continuous
100
AcDbLine
 10
469.704411
 20
-85.704071
 30
0.0
 11
459.704411
 21
-85.704071
 31
0.0
  0
LINE
  5
2F
100
AcDbEntity
  8
0
370
    -3
  6
Continuous
100
AcDbLine
 10
459.704411
 20
-85.704071
 30
0.0
 11
459.704411
 21
-93.704071
 31
0.0
  0
LINE
  5
30
100
AcDbEntity
  8
0
370
    -3
  6
Continuous
100
AcDbLine
 10
459.704411
 20
-93.704071
 30
0.0
 11
469.704411
 21
-93.704071
 31
0.0
  0
ARC
  5
31
100
AcDbEntity
  8
0
370
    -3
  6
Continuous
100
AcDbCircle
 10
464.704411
 20
-104.704071
 30
0.0
 40
16.0
100
AcDbArc
 50
108.209957
 51
71.790043
  0
CIRCLE
  5
32
100
AcDbEntity
  8
0
370
    -3
  6
Continuous
100
AcDbCircle
 10
464.704411
 20
-104.704071
 30
0.0
 40
4.0
  0
CIRCLE
  5
33
100
AcDbEntity
  8
0
370
    -3
  6
Continuous
100
AcDbCircle
 10
464.704411
 20
-104.704071
 30
0.0
 40
3.5
  0
MTEXT
  5
35
100
AcDbEntity
  8
0
370
    -3
  6
Continuous
100
AcDbMText
 10
-70.375488
 20
-3.15625
 30
0.0
 40
2.8
 41
0.0
 71
     7
 72
     1
  1
\W0.83;　
  7
ZU_SHPTB00001
 11
1.0
 21
0.0
 31
0.0
 73
     1
 44
1.0
  0
LINE
  5
36
100
AcDbEntity
  8
0
370
    -3
  6
Continuous
100
AcDbLine
 10
-98.79522
 20
-57.204071
 30
0.0
 11
-103.795618
 21
-57.204071
 31
0.0
  0
LINE
  5
37
100
AcDbEntity
  8
0
370
    -3
  6
Continuous
100
AcDbLine
 10
-98.79522
 20
-152.204071
 30
0.0
 11
-103.795618
 21
-152.204071
 31
0.0
  0
LINE
  5
38
100
AcDbEntity
  8
0
370
    -3
  6
Continuous
100
AcDbLine
 10
-224.795618
 20
-152.204071
 30
0.0
 11
-219.795618
 21
-152.204071
 31
0.0
  0
LINE
  5
39
100
AcDbEntity
  8
0
370
    -3
  6
Continuous
100
AcDbLine
 10
-224.795618
 20
-57.204071
 30
0.0
 11
-219.795618
 21
-57.204071
 31
0.0
  0
LINE
  5
3A
100
AcDbEntity
  8
0
370
    -3
  6
Continuous
100
AcDbLine
 10
-115.795618
 20
-208.466357
 30
0.0
 11
-210.295618
 21
-206.816854
 31
0.0
  0
LINE
  5
3B
100
AcDbEntity
  8
0
370
    -3
  6
CENTER
100
AcDbLine
 10
-161.795618
 20
1.893605
 30
0.0
 11
-161.795618
 21
-211.33459
 31
0.0
  0
LINE
  5
3C
100
AcDbEntity
  8
0
370
    -3
  6
CENTER
100
AcDbLine
 10
-150.554392
 20
-120.703914
 30
0.0
 11
-172.793585
 21
-120.703914
 31
0.0
  0
LINE
  5
3D
100
AcDbEntity
  8
0
370
    -3
  6
Continuous
100
AcDbLine
 10
-103.79522
 20
-100.703914
 30
0.0
 11
-103.79522
 21
-32.693593
 31
0.0
  0
LINE
  5
3E
100
AcDbEntity
  8
0
370
    -3
  6
Continuous
100
AcDbLine
 10
-98.79522
 20
-104.475398
 30
0.0
 11
-98.79522
 21
-57.204071
 31
0.0
  0
LINE
  5
3F
100
AcDbEntity
  8
0
370
    -3
  6
Continuous
100
AcDbLine
 10
-98.79522
 20
-104.475398
 30
0.0
 11
-98.79522
 21
-152.204071
 31
0.0
  0
LINE
  5
40
100
AcDbEntity
  8
0
370
    -3
  6
Continuous
100
AcDbLine
 10
-103.79522
 20
-140.703914
 30
0.0
 11
-103.79522
 21
-207.757279
 31
0.0
  0
LINE
  5
41
100
AcDbEntity
  8
0
370
    -3
  6
Continuous
100
AcDbLine
 10
-103.79522
 20
-207.757279
 30
0.0
 11
-104.295068
 21
-208.265927
 31
0.0
  0
LINE
  5
42
100
AcDbEntity
  8
0
370
    -3
  6
Continuous
100
AcDbLine
 10
-115.795618
 20
-32.484125
 30
0.0
 11
-115.795618
 21
-71.319781
 31
0.0
  0
LINE
  5
43
100
AcDbEntity
  8
0
370
    -3
  6
Continuous
100
AcDbLine
 10
-219.795618
 20
-34.133629
 30
0.0
 11
-219.795618
 21
-100.703914
 31
0.0
  0
LINE
  5
44
100
AcDbEntity
  8
0
370
    -3
  6
Continuous
100
AcDbLine
 10
-224.795618
 20
-57.204071
 30
0.0
 11
-224.795618
 21
-152.204071
 31
0.0
  0
LINE
  5
45
100
AcDbEntity
  8
0
370
    -3
  6
Continuous
100
AcDbLine
 10
-219.795618
 20
-140.703914
 30
0.0
 11
-219.795618
 21
-206.817167
 31
0.0
  0
LINE
  5
46
100
AcDbEntity
  8
0
370
    -3
  6
Continuous
100
AcDbLine
 10
-210.295618
 20
-206.817167
 30
0.0
 11
-219.795618
 21
-206.817167
 31
0.0
  0
LINE
  5
47
100
AcDbEntity
  8
0
370
    -3
  6
Continuous
100
AcDbLine
 10
-115.795618
 20
-170.088048
 30
0.0
 11
-115.795618
 21
-208.46667
 31
0.0
  0
LINE
  5
48
100
AcDbEntity
  8
0
370
    -3
  6
Continuous
100
AcDbLine
 10
-104.295068
 20
-208.265927
 30
0.0
 11
-115.795618
 21
-208.46667
 31
0.0
  0
LINE
  5
49
100
AcDbEntity
  8
0
370
    -3
  6
CENTER
100
AcDbLine
 10
-34.057292
 20
-104.704071
 30
0.0
 11
-232.412856
 21
-104.704071
 31
0.0
  0
LINE
  5
4A
100
AcDbEntity
  8
0
370
    -3
  6
Continuous
100
AcDbLine
 10
-96.395754
 20
-120.704071
 30
0.0
 11
-42.595823
 21
-120.704071
 31
0.0
  0
LINE
  5
4B
100
AcDbEntity
  8
0
370
    -3
  6
Continuous
100
AcDbLine
 10
-96.395754
 20
-88.704071
 30
0.0
 11
-42.595823
 21
-88.704071
 31
0.0
  0
LINE
  5
4C
100
AcDbEntity
  8
0
370
    -3
  6
Continuous
100
AcDbLine
 10
-81.795823
 20
-85.704071
 30
0.0
 11
-41.795823
 21
-85.704071
 31
0.0
  0
LINE
  5
4D
100
AcDbEntity
  8
0
370
    -3
  6
Continuous
100
AcDbLine
 10
-81.795823
 20
-85.704071
 30
0.0
 11
-81.795823
 21
-88.704071
 31
0.0
  0
LINE
  5
4E
100
AcDbEntity
  8
0
370
    -3
  6
Continuous
100
AcDbLine
 10
-96.795754
 20
-88.104071
 30
0.0
 11
-96.795754
 21
-121.304071
 31
0.0
  0
ARC
  5
4F
100
AcDbEntity
  8
0
370
    -3
  6
Continuous
100
AcDbCircle
 10
-96.395754
 20
-121.104071
 30
0.0
 40
0.4
100
AcDbArc
 50
90.0
 51
180.0
  0
ARC
  5
50
100
AcDbEntity
  8
0
370
    -3
  6
Continuous
100
AcDbCircle
 10
-97.195754
 20
-121.304071
 30
0.0
 40
0.4
100
AcDbArc
 50
270.0
 51
0.0
  0
LINE
  5
51
100
AcDbEntity
  8
0
370
    -3
  6
Continuous
100
AcDbLine
 10
-98.795618
 20
-121.704071
 30
0.0
 11
-97.195754
 21
-121.704071
 31
0.0
  0
ARC
  5
52
100
AcDbEntity
  8
0
370
    -3
  6
Continuous
100
AcDbCircle
 10
-96.395754
 20
-88.304071
 30
0.0
 40
0.4
100
AcDbArc
 50
180.0
 51
270.0
  0
ARC
  5
53
100
AcDbEntity
  8
0
370
    -3
  6
Continuous
100
AcDbCircle
 10
-97.195754
 20
-88.104071
 30
0.0
 40
0.4
100
AcDbArc
 50
0.0
 51
90.0
  0
LINE
  5
54
100
AcDbEntity
  8
0
370
    -3
  6
Continuous
100
AcDbLine
 10
-98.795618
 20
-87.704071
 30
0.0
 11
-97.195754
 21
-87.704071
 31
0.0
  0
LINE
  5
55
100
AcDbEntity
  8
0
370
    -3
  6
Continuous
100
AcDbLine
 10
-103.79522
 20
-32.693593
 30
0.0
 11
-114.995618
 21
-32.498089
 31
0.0
  0
LINE
  5
56
100
AcDbEntity
  8
0
370
    -3
  6
Continuous
100
AcDbLine
 10
-208.595618
 20
-34.103955
 30
0.0
 11
-210.295618
 21
-34.133629
 31
0.0
  0
LINE
  5
57
100
AcDbEntity
  8
0
370
    -3
  6
Continuous
100
AcDbLine
 10
-210.295618
 20
-34.133629
 30
0.0
 11
-219.795618
 21
-34.133629
 31
0.0
  0
LINE
  5
58
100
AcDbEntity
  8
0
370
    -3
  6
Continuous
100
AcDbLine
 10
-41.795823
 20
-85.704071
 30
0.0
 11
-41.795823
 21
-119.904071
 31
0.0
  0
ARC
  5
59
100
AcDbEntity
  8
0
370
    -3
  6
Continuous
100
AcDbCircle
 10
-42.595823
 20
-119.904071
 30
0.0
 40
0.8
100
AcDbArc
 50
270.0
 51
0.0
  0
ARC
  5
5A
100
AcDbEntity
  8
0
370
    -3
  6
Continuous
100
AcDbCircle
 10
-42.595823
 20
-89.504071
 30
0.0
 40
0.8
100
AcDbArc
 50
0.0
 51
90.0
  0
INSERT
  5
66
100
AcDbEntity
  8
0
100
AcDbBlockReference
  2
ZU_SYM__USERS_HOME_SYMBOL_STD_SYM_B01_-1
 10
-117.601444
 20
-76.50974
 30
0.0
 41
-1.0
 50
270.0
  0
INSERT
  5
72
100
AcDbEntity
  8
0
100
AcDbBlockReference
  2
ZU_SYM__USERS_HOME_SYMBOL_STD_SYM_B01_00001-1
 10
-117.601444
 20
-164.898088
 30
0.0
 50
270.0
  0
INSERT
  5
7E
100
AcDbEntity
  8
0
100
AcDbBlockReference
  2
ZU_SYM__USERS_HOME_SYMBOL_STD_SYM_B01_00002-1
 10
-205.989792
 20
-164.898088
 30
0.0
 41
-1.0
 50
90.0
  0
INSERT
  5
8A
100
AcDbEntity
  8
0
100
AcDbBlockReference
  2
ZU_SYM__USERS_HOME_SYMBOL_STD_SYM_B01_00003-1
 10
-205.989792
 20
-76.50974
 30
0.0
 50
90.0
  0
ARC
  5
8B
100
AcDbEntity
  8
0
370
    -3
  6
Continuous
100
AcDbCircle
 10
-213.535376
 20
-80.079971
 30
0.0
 40
3.0
100
AcDbArc
 50
273.0
 51
42.0
  0
ARC
  5
8C
100
AcDbEntity
  8
0
370
    -3
  6
Continuous
100
AcDbCircle
 10
-202.419561
 20
-68.964156
 30
0.0
 40
3.0
100
AcDbArc
 50
228.0
 51
357.0
  0
ARC
  5
8D
100
AcDbEntity
  8
0
370
    -3
  6
Continuous
100
AcDbCircle
 10
-213.535376
 20
-161.327858
 30
0.0
 40
3.0
100
AcDbArc
 50
318.0
 51
87.0
  0
ARC
  5
8E
100
AcDbEntity
  8
0
370
    -3
  6
Continuous
100
AcDbCircle
 10
-202.419561
 20
-172.443672
 30
0.0
 40
3.0
100
AcDbArc
 50
3.0
 51
132.0
  0
ARC
  5
8F
100
AcDbEntity
  8
0
370
    -3
  6
Continuous
100
AcDbCircle
 10
-121.171674
 20
-172.443672
 30
0.0
 40
3.0
100
AcDbArc
 50
48.0
 51
177.0
  0
ARC
  5
90
100
AcDbEntity
  8
0
370
    -3
  6
Continuous
100
AcDbCircle
 10
-110.05586
 20
-161.327858
 30
0.0
 40
3.0
100
AcDbArc
 50
93.0
 51
222.0
  0
ARC
  5
91
100
AcDbEntity
  8
0
370
    -3
  6
Continuous
100
AcDbCircle
 10
-110.05586
 20
-80.079971
 30
0.0
 40
3.0
100
AcDbArc
 50
138.0
 51
267.0
  0
ARC
  5
92
100
AcDbEntity
  8
0
370
    -3
  6
Continuous
100
AcDbCircle
 10
-121.171674
 20
-68.964156
 30
0.0
 40
3.0
100
AcDbArc
 50
183.0
 51
312.0
  0
ARC
  5
93
100
AcDbEntity
  8
0
370
    -3
  6
Continuous
100
AcDbCircle
 10
-185.224385
 20
-175.397084
 30
0.0
 40
1.0
100
AcDbArc
 50
66.81129
 51
177.0
  0
LINE
  5
94
100
AcDbEntity
  8
0
370
    -3
  6
Continuous
100
AcDbLine
 10
-186.296988
 20
-176.75625
 30
0.0
 11
-186.223015
 21
-175.344748
 31
0.0
  0
ARC
  5
95
100
AcDbEntity
  8
0
370
    -3
  6
Continuous
100
AcDbCircle
 10
-181.095618
 20
-179.503914
 30
0.0
 40
0.7
100
AcDbArc
 50
180.0
 51
270.0
  0
LINE
  5
96
100
AcDbEntity
  8
0
370
    -3
  6
Continuous
100
AcDbLine
 10
-181.795618
 20
-176.374822
 30
0.0
 11
-181.795618
 21
-179.503914
 31
0.0
  0
ARC
  5
97
100
AcDbEntity
  8
0
370
    -3
  6
Continuous
100
AcDbCircle
 10
-182.795618
 20
-176.374822
 30
0.0
 40
1.0
100
AcDbArc
 50
0.0
 51
69.332684
  0
LINE
  5
98
100
AcDbEntity
  8
0
370
    -3
  6
Continuous
100
AcDbLine
 10
-181.095618
 20
-180.203914
 30
0.0
 11
-161.795618
 21
-180.203914
 31
0.0
  0
ARC
  5
99
100
AcDbEntity
  8
0
370
    -3
  6
Continuous
100
AcDbCircle
 10
-161.795618
 20
-120.703914
 30
0.0
 40
58.5
100
AcDbArc
 50
246.81129
 51
249.332684
  0
ARC
  5
9A
100
AcDbEntity
  8
0
370
    -3
  6
Continuous
100
AcDbCircle
 10
-195.096661
 20
-170.012032
 30
0.0
 40
1.0
100
AcDbArc
 50
3.0
 51
55.966232
  0
ARC
  5
9B
100
AcDbEntity
  8
0
370
    -3
  6
Continuous
100
AcDbCircle
 10
-190.637854
 20
-172.745969
 30
0.0
 40
1.0
100
AcDbArc
 50
61.004334
 51
177.0
  0
ARC
  5
9C
100
AcDbEntity
  8
0
370
    -3
  6
Continuous
100
AcDbCircle
 10
-189.472834
 20
-173.374795
 30
0.0
 40
1.0
100
AcDbArc
 50
3.0
 51
62.279209
  0
ARC
  5
9D
100
AcDbEntity
  8
0
370
    -3
  6
Continuous
100
AcDbCircle
 10
-198.295618
 20
-174.703914
 30
0.0
 40
1.0
100
AcDbArc
 50
183.0
 51
357.0
  0
LINE
  5
9E
100
AcDbEntity
  8
0
370
    -3
  6
Continuous
100
AcDbLine
 10
-197.296988
 20
-174.75625
 30
0.0
 11
-197.012488
 21
-169.327671
 31
0.0
  0
ARC
  5
9F
100
AcDbEntity
  8
0
370
    -3
  6
Continuous
100
AcDbCircle
 10
-196.013859
 20
-169.380007
 30
0.0
 40
1.0
100
AcDbArc
 50
54.89361
 51
177.0
  0
LINE
  5
A0
100
AcDbEntity
  8
0
370
    -3
  6
Continuous
100
AcDbLine
 10
-199.294247
 20
-174.75625
 30
0.0
 11
-199.423673
 21
-172.286665
 31
0.0
  0
ARC
  5
A1
100
AcDbEntity
  8
0
370
    -3
  6
Continuous
100
AcDbCircle
 10
-192.795618
 20
-175.703914
 30
0.0
 40
1.0
100
AcDbArc
 50
183.0
 51
357.0
  0
ARC
  5
A2
100
AcDbEntity
  8
0
370
    -3
  6
Continuous
100
AcDbCircle
 10
-187.295618
 20
-176.703914
 30
0.0
 40
1.0
100
AcDbArc
 50
183.0
 51
357.0
  0
LINE
  5
A3
100
AcDbEntity
  8
0
370
    -3
  6
Continuous
100
AcDbLine
 10
-188.294247
 20
-176.75625
 30
0.0
 11
-188.474205
 21
-173.322459
 31
0.0
  0
LINE
  5
A4
100
AcDbEntity
  8
0
370
    -3
  6
Continuous
100
AcDbLine
 10
-193.794247
 20
-175.75625
 30
0.0
 11
-194.098032
 21
-169.959696
 31
0.0
  0
LINE
  5
A5
100
AcDbEntity
  8
0
370
    -3
  6
Continuous
100
AcDbLine
 10
-191.796988
 20
-175.75625
 30
0.0
 11
-191.636483
 21
-172.693633
 31
0.0
  0
ARC
  5
A6
100
AcDbEntity
  8
0
370
    -3
  6
Continuous
100
AcDbCircle
 10
-211.427026
 20
-164.964204
 30
0.0
 40
1.0
100
AcDbArc
 50
138.0
 51
221.725937
  0
ARC
  5
A7
100
AcDbEntity
  8
0
370
    -3
  6
Continuous
100
AcDbCircle
 10
-161.795618
 20
-120.703914
 30
0.0
 40
67.5
100
AcDbArc
 50
221.725937
 51
228.274063
  0
ARC
  5
A8
100
AcDbEntity
  8
0
370
    -3
  6
Continuous
100
AcDbCircle
 10
-206.055908
 20
-170.335323
 30
0.0
 40
1.0
100
AcDbArc
 50
228.274063
 51
312.0
  0
LINE
  5
A9
100
AcDbEntity
  8
0
370
    -3
  6
Continuous
100
AcDbLine
 10
-215.847954
 20
-156.205285
 30
0.0
 11
-210.419374
 21
-155.920785
 31
0.0
  0
LINE
  5
AA
100
AcDbEntity
  8
0
370
    -3
  6
Continuous
100
AcDbLine
 10
-215.847954
 20
-158.202544
 30
0.0
 11
-213.378368
 21
-158.331969
 31
0.0
  0
ARC
  5
AB
100
AcDbEntity
  8
0
370
    -3
  6
Continuous
100
AcDbCircle
 10
-215.795618
 20
-157.203914
 30
0.0
 40
1.0
100
AcDbArc
 50
93.0
 51
267.0
  0
LINE
  5
AC
100
AcDbEntity
  8
0
370
    -3
  6
Continuous
100
AcDbLine
 10
-218.723203
 20
-135.703914
 30
0.0
 11
-218.912649
 21
-135.703914
 31
0.0
  0
ARC
  5
AD
100
AcDbEntity
  8
0
370
    -3
  6
Continuous
100
AcDbCircle
 10
-218.723203
 20
-136.203914
 30
0.0
 40
0.5
100
AcDbArc
 50
15.231036
 51
90.0
  0
ARC
  5
AE
100
AcDbEntity
  8
0
370
    -3
  6
Continuous
100
AcDbCircle
 10
-161.795618
 20
-120.703914
 30
0.0
 40
58.5
100
AcDbArc
 50
195.231036
 51
197.620097
  0
ARC
  5
AF
100
AcDbEntity
  8
0
370
    -3
  6
Continuous
100
AcDbCircle
 10
-218.504148
 20
-138.714815
 30
0.0
 40
1.0
100
AcDbArc
 50
275.98484
 51
17.620097
  0
ARC
  5
B0
100
AcDbEntity
  8
0
370
    -3
  6
Continuous
100
AcDbCircle
 10
-218.295618
 20
-140.703914
 30
0.0
 40
1.0
100
AcDbArc
 50
95.98484
 51
267.0
  0
ARC
  5
B1
100
AcDbEntity
  8
0
370
    -3
  6
Continuous
100
AcDbCircle
 10
-217.0519
 20
-142.771839
 30
0.0
 40
1.0
100
AcDbArc
 50
21.770485
 51
87.0
  0
LINE
  5
B2
100
AcDbEntity
  8
0
370
    -3
  6
Continuous
100
AcDbLine
 10
-218.347954
 20
-141.702544
 30
0.0
 11
-216.999564
 21
-141.77321
 31
0.0
  0
ARC
  5
B3
100
AcDbEntity
  8
0
370
    -3
  6
Continuous
100
AcDbCircle
 10
-161.795618
 20
-120.703914
 30
0.0
 40
58.5
100
AcDbArc
 50
201.770485
 51
203.18871
  0
ARC
  5
B4
100
AcDbEntity
  8
0
370
    -3
  6
Continuous
100
AcDbCircle
 10
-214.466499
 20
-148.381131
 30
0.0
 40
1.0
100
AcDbArc
 50
27.720791
 51
87.0
  0
LINE
  5
B5
100
AcDbEntity
  8
0
370
    -3
  6
Continuous
100
AcDbLine
 10
-217.847954
 20
-147.202544
 30
0.0
 11
-214.414163
 21
-147.382501
 31
0.0
  0
ARC
  5
B6
100
AcDbEntity
  8
0
370
    -3
  6
Continuous
100
AcDbCircle
 10
-216.488788
 20
-144.132681
 30
0.0
 40
1.0
100
AcDbArc
 50
273.0
 51
23.18871
  0
LINE
  5
B7
100
AcDbEntity
  8
0
370
    -3
  6
Continuous
100
AcDbLine
 10
-217.847954
 20
-145.205285
 30
0.0
 11
-216.436452
 21
-145.131311
 31
0.0
  0
ARC
  5
B8
100
AcDbEntity
  8
0
370
    -3
  6
Continuous
100
AcDbCircle
 10
-217.795618
 20
-146.203914
 30
0.0
 40
1.0
100
AcDbArc
 50
93.0
 51
267.0
  0
ARC
  5
B9
100
AcDbEntity
  8
0
370
    -3
  6
Continuous
100
AcDbCircle
 10
-161.795618
 20
-120.703914
 30
0.0
 40
58.5
100
AcDbArc
 50
207.720791
 51
208.995666
  0
ARC
  5
BA
100
AcDbEntity
  8
0
370
    -3
  6
Continuous
100
AcDbCircle
 10
-213.837672
 20
-149.54615
 30
0.0
 40
1.0
100
AcDbArc
 50
273.0
 51
28.995666
  0
LINE
  5
BB
100
AcDbEntity
  8
0
370
    -3
  6
Continuous
100
AcDbLine
 10
-216.847954
 20
-150.705285
 30
0.0
 11
-213.785336
 21
-150.54478
 31
0.0
  0
ARC
  5
BC
100
AcDbEntity
  8
0
370
    -3
  6
Continuous
100
AcDbCircle
 10
-211.103736
 20
-154.004958
 30
0.0
 40
1.0
100
AcDbArc
 50
34.033768
 51
87.0
  0
LINE
  5
BD
100
AcDbEntity
  8
0
370
    -3
  6
Continuous
100
AcDbLine
 10
-216.847954
 20
-152.702544
 30
0.0
 11
-211.0514
 21
-153.006328
 31
0.0
  0
ARC
  5
BE
100
AcDbEntity
  8
0
370
    -3
  6
Continuous
100
AcDbCircle
 10
-216.795618
 20
-151.703914
 30
0.0
 40
1.0
100
AcDbArc
 50
93.0
 51
267.0
  0
ARC
  5
BF
100
AcDbEntity
  8
0
370
    -3
  6
Continuous
100
AcDbCircle
 10
-210.47171
 20
-154.922155
 30
0.0
 40
1.0
100
AcDbArc
 50
273.0
 51
35.10639
  0
ARC
  5
C0
100
AcDbEntity
  8
0
370
    -3
  6
Continuous
100
AcDbCircle
 10
-161.795618
 20
-120.703914
 30
0.0
 40
58.5
100
AcDbArc
 50
214.033768
 51
215.10639
  0
ARC
  5
C1
100
AcDbEntity
  8
0
370
    -3
  6
Continuous
100
AcDbCircle
 10
-161.795618
 20
-120.703914
 30
0.0
 40
58.5
100
AcDbArc
 50
241.004334
 51
242.279209
  0
ARC
  5
C2
100
AcDbEntity
  8
0
370
    -3
  6
Continuous
100
AcDbCircle
 10
-161.795618
 20
-120.703914
 30
0.0
 40
58.5
100
AcDbArc
 50
234.89361
 51
235.966232
  0
LINE
  5
C3
100
AcDbEntity
  8
0
370
    -3
  6
Continuous
100
AcDbLine
 10
-198.083073
 20
-148.649766
 30
0.0
 11
-212.170171
 21
-164.295074
 31
0.0
  0
LINE
  5
C4
100
AcDbEntity
  8
0
370
    -3
  6
Continuous
100
AcDbLine
 10
-189.741469
 20
-156.991369
 30
0.0
 11
-205.386777
 21
-171.078467
 31
0.0
  0
ARC
  5
C5
100
AcDbEntity
  8
0
370
    -3
  6
Continuous
100
AcDbCircle
 10
-218.912649
 20
-135.203914
 30
0.0
 40
0.5
100
AcDbArc
 50
186.969381
 51
270.0
  0
ARC
  5
C6
100
AcDbEntity
  8
0
370
    -3
  6
Continuous
100
AcDbCircle
 10
-100.295618
 20
-120.703914
 30
0.0
 40
120.0
100
AcDbArc
 50
180.0
 51
186.969381
  0
ARC
  5
C7
100
AcDbEntity
  8
0
370
    -3
  6
Continuous
100
AcDbCircle
 10
-138.366851
 20
-175.397084
 30
0.0
 40
1.0
100
AcDbArc
 50
3.0
 51
113.18871
  0
LINE
  5
C8
100
AcDbEntity
  8
0
370
    -3
  6
Continuous
100
AcDbLine
 10
-137.294247
 20
-176.75625
 30
0.0
 11
-137.368221
 21
-175.344748
 31
0.0
  0
ARC
  5
C9
100
AcDbEntity
  8
0
370
    -3
  6
Continuous
100
AcDbCircle
 10
-142.495618
 20
-179.503914
 30
0.0
 40
0.7
100
AcDbArc
 50
270.0
 51
0.0
  0
LINE
  5
CA
100
AcDbEntity
  8
0
370
    -3
  6
Continuous
100
AcDbLine
 10
-141.795618
 20
-176.374822
 30
0.0
 11
-141.795618
 21
-179.503914
 31
0.0
  0
ARC
  5
CB
100
AcDbEntity
  8
0
370
    -3
  6
Continuous
100
AcDbCircle
 10
-140.795618
 20
-176.374822
 30
0.0
 40
1.0
100
AcDbArc
 50
110.667316
 51
180.0
  0
LINE
  5
CC
100
AcDbEntity
  8
0
370
    -3
  6
Continuous
100
AcDbLine
 10
-142.495618
 20
-180.203914
 30
0.0
 11
-161.795618
 21
-180.203914
 31
0.0
  0
ARC
  5
CD
100
AcDbEntity
  8
0
370
    -3
  6
Continuous
100
AcDbCircle
 10
-161.795618
 20
-120.703914
 30
0.0
 40
58.5
100
AcDbArc
 50
290.667316
 51
293.18871
  0
ARC
  5
CE
100
AcDbEntity
  8
0
370
    -3
  6
Continuous
100
AcDbCircle
 10
-128.494574
 20
-170.012032
 30
0.0
 40
1.0
100
AcDbArc
 50
124.033768
 51
177.0
  0
ARC
  5
CF
100
AcDbEntity
  8
0
370
    -3
  6
Continuous
100
AcDbCircle
 10
-132.953382
 20
-172.745969
 30
0.0
 40
1.0
100
AcDbArc
 50
3.0
 51
118.995666
  0
ARC
  5
D0
100
AcDbEntity
  8
0
370
    -3
  6
Continuous
100
AcDbCircle
 10
-134.118401
 20
-173.374795
 30
0.0
 40
1.0
100
AcDbArc
 50
117.720791
 51
177.0
  0
ARC
  5
D1
100
AcDbEntity
  8
0
370
    -3
  6
Continuous
100
AcDbCircle
 10
-125.295618
 20
-174.703914
 30
0.0
 40
1.0
100
AcDbArc
 50
183.0
 51
357.0
  0
LINE
  5
D2
100
AcDbEntity
  8
0
370
    -3
  6
Continuous
100
AcDbLine
 10
-126.294247
 20
-174.75625
 30
0.0
 11
-126.578747
 21
-169.327671
 31
0.0
  0
ARC
  5
D3
100
AcDbEntity
  8
0
370
    -3
  6
Continuous
100
AcDbCircle
 10
-127.577377
 20
-169.380007
 30
0.0
 40
1.0
100
AcDbArc
 50
3.0
 51
125.10639
  0
LINE
  5
D4
100
AcDbEntity
  8
0
370
    -3
  6
Continuous
100
AcDbLine
 10
-124.296988
 20
-174.75625
 30
0.0
 11
-124.167563
 21
-172.286665
 31
0.0
  0
ARC
  5
D5
100
AcDbEntity
  8
0
370
    -3
  6
Continuous
100
AcDbCircle
 10
-130.795618
 20
-175.703914
 30
0.0
 40
1.0
100
AcDbArc
 50
183.0
 51
357.0
  0
ARC
  5
D6
100
AcDbEntity
  8
0
370
    -3
  6
Continuous
100
AcDbCircle
 10
-136.295618
 20
-176.703914
 30
0.0
 40
1.0
100
AcDbArc
 50
183.0
 51
357.0
  0
LINE
  5
D7
100
AcDbEntity
  8
0
370
    -3
  6
Continuous
100
AcDbLine
 10
-135.296988
 20
-176.75625
 30
0.0
 11
-135.117031
 21
-173.322459
 31
0.0
  0
LINE
  5
D8
100
AcDbEntity
  8
0
370
    -3
  6
Continuous
100
AcDbLine
 10
-129.796988
 20
-175.75625
 30
0.0
 11
-129.493204
 21
-169.959696
 31
0.0
  0
LINE
  5
D9
100
AcDbEntity
  8
0
370
    -3
  6
Continuous
100
AcDbLine
 10
-131.794247
 20
-175.75625
 30
0.0
 11
-131.954752
 21
-172.693633
 31
0.0
  0
ARC
  5
DA
100
AcDbEntity
  8
0
370
    -3
  6
Continuous
100
AcDbCircle
 10
-112.164209
 20
-164.964204
 30
0.0
 40
1.0
100
AcDbArc
 50
318.274063
 51
42.0
  0
ARC
  5
DB
100
AcDbEntity
  8
0
370
    -3
  6
Continuous
100
AcDbCircle
 10
-161.795618
 20
-120.703914
 30
0.0
 40
67.5
100
AcDbArc
 50
311.725937
 51
318.274063
  0
ARC
  5
DC
100
AcDbEntity
  8
0
370
    -3
  6
Continuous
100
AcDbCircle
 10
-117.535328
 20
-170.335323
 30
0.0
 40
1.0
100
AcDbArc
 50
228.0
 51
311.725937
  0
LINE
  5
DD
100
AcDbEntity
  8
0
370
    -3
  6
Continuous
100
AcDbLine
 10
-107.743282
 20
-156.205285
 30
0.0
 11
-113.171861
 21
-155.920785
 31
0.0
  0
LINE
  5
DE
100
AcDbEntity
  8
0
370
    -3
  6
Continuous
100
AcDbLine
 10
-107.743282
 20
-158.202544
 30
0.0
 11
-110.212867
 21
-158.331969
 31
0.0
  0
ARC
  5
DF
100
AcDbEntity
  8
0
370
    -3
  6
Continuous
100
AcDbCircle
 10
-107.795618
 20
-157.203914
 30
0.0
 40
1.0
100
AcDbArc
 50
273.0
 51
87.0
  0
LINE
  5
E0
100
AcDbEntity
  8
0
370
    -3
  6
Continuous
100
AcDbLine
 10
-104.868032
 20
-135.703914
 30
0.0
 11
-104.678587
 21
-135.703914
 31
0.0
  0
ARC
  5
E1
100
AcDbEntity
  8
0
370
    -3
  6
Continuous
100
AcDbCircle
 10
-104.868032
 20
-136.203914
 30
0.0
 40
0.5
100
AcDbArc
 50
90.0
 51
164.768964
  0
ARC
  5
E2
100
AcDbEntity
  8
0
370
    -3
  6
Continuous
100
AcDbCircle
 10
-161.795618
 20
-120.703914
 30
0.0
 40
58.5
100
AcDbArc
 50
342.379903
 51
344.768964
  0
ARC
  5
E3
100
AcDbEntity
  8
0
370
    -3
  6
Continuous
100
AcDbCircle
 10
-105.087087
 20
-138.714815
 30
0.0
 40
1.0
100
AcDbArc
 50
162.379903
 51
264.01516
  0
ARC
  5
E4
100
AcDbEntity
  8
0
370
    -3
  6
Continuous
100
AcDbCircle
 10
-105.295618
 20
-140.703914
 30
0.0
 40
1.0
100
AcDbArc
 50
273.0
 51
84.01516
  0
ARC
  5
E5
100
AcDbEntity
  8
0
370
    -3
  6
Continuous
100
AcDbCircle
 10
-106.539336
 20
-142.771839
 30
0.0
 40
1.0
100
AcDbArc
 50
93.0
 51
158.229515
  0
LINE
  5
E6
100
AcDbEntity
  8
0
370
    -3
  6
Continuous
100
AcDbLine
 10
-105.243282
 20
-141.702544
 30
0.0
 11
-106.591672
 21
-141.77321
 31
0.0
  0
ARC
  5
E7
100
AcDbEntity
  8
0
370
    -3
  6
Continuous
100
AcDbCircle
 10
-161.795618
 20
-120.703914
 30
0.0
 40
58.5
100
AcDbArc
 50
336.81129
 51
338.229515
  0
ARC
  5
E8
100
AcDbEntity
  8
0
370
    -3
  6
Continuous
100
AcDbCircle
 10
-109.124737
 20
-148.381131
 30
0.0
 40
1.0
100
AcDbArc
 50
93.0
 51
152.279209
  0
LINE
  5
E9
100
AcDbEntity
  8
0
370
    -3
  6
Continuous
100
AcDbLine
 10
-105.743282
 20
-147.202544
 30
0.0
 11
-109.177073
 21
-147.382501
 31
0.0
  0
ARC
  5
EA
100
AcDbEntity
  8
0
370
    -3
  6
Continuous
100
AcDbCircle
 10
-107.102448
 20
-144.132681
 30
0.0
 40
1.0
100
AcDbArc
 50
156.81129
 51
267.0
  0
LINE
  5
EB
100
AcDbEntity
  8
0
370
    -3
  6
Continuous
100
AcDbLine
 10
-105.743282
 20
-145.205285
 30
0.0
 11
-107.154784
 21
-145.131311
 31
0.0
  0
ARC
  5
EC
100
AcDbEntity
  8
0
370
    -3
  6
Continuous
100
AcDbCircle
 10
-105.795618
 20
-146.203914
 30
0.0
 40
1.0
100
AcDbArc
 50
273.0
 51
87.0
  0
ARC
  5
ED
100
AcDbEntity
  8
0
370
    -3
  6
Continuous
100
AcDbCircle
 10
-161.795618
 20
-120.703914
 30
0.0
 40
58.5
100
AcDbArc
 50
331.004334
 51
332.279209
  0
ARC
  5
EE
100
AcDbEntity
  8
0
370
    -3
  6
Continuous
100
AcDbCircle
 10
-109.753563
 20
-149.54615
 30
0.0
 40
1.0
100
AcDbArc
 50
151.004334
 51
267.0
  0
LINE
  5
EF
100
AcDbEntity
  8
0
370
    -3
  6
Continuous
100
AcDbLine
 10
-106.743282
 20
-150.705285
 30
0.0
 11
-109.805899
 21
-150.54478
 31
0.0
  0
ARC
  5
F0
100
AcDbEntity
  8
0
370
    -3
  6
Continuous
100
AcDbCircle
 10
-112.4875
 20
-154.004958
 30
0.0
 40
1.0
100
AcDbArc
 50
93.0
 51
145.966232
  0
LINE
  5
F1
100
AcDbEntity
  8
0
370
    -3
  6
Continuous
100
AcDbLine
 10
-106.743282
 20
-152.702544
 30
0.0
 11
-112.539836
 21
-153.006328
 31
0.0
  0
ARC
  5
F2
100
AcDbEntity
  8
0
370
    -3
  6
Continuous
100
AcDbCircle
 10
-106.795618
 20
-151.703914
 30
0.0
 40
1.0
100
AcDbArc
 50
273.0
 51
87.0
  0
ARC
  5
F3
100
AcDbEntity
  8
0
370
    -3
  6
Continuous
100
AcDbCircle
 10
-113.119525
 20
-154.922155
 30
0.0
 40
1.0
100
AcDbArc
 50
144.89361
 51
267.0
  0
ARC
  5
F4
100
AcDbEntity
  8
0
370
    -3
  6
Continuous
100
AcDbCircle
 10
-161.795618
 20
-120.703914
 30
0.0
 40
58.5
100
AcDbArc
 50
324.89361
 51
325.966232
  0
ARC
  5
F5
100
AcDbEntity
  8
0
370
    -3
  6
Continuous
100
AcDbCircle
 10
-161.795618
 20
-120.703914
 30
0.0
 40
58.5
100
AcDbArc
 50
297.720791
 51
298.995666
  0
ARC
  5
F6
100
AcDbEntity
  8
0
370
    -3
  6
Continuous
100
AcDbCircle
 10
-161.795618
 20
-120.703914
 30
0.0
 40
58.5
100
AcDbArc
 50
304.033768
 51
305.10639
  0
LINE
  5
F7
100
AcDbEntity
  8
0
370
    -3
  6
Continuous
100
AcDbLine
 10
-125.508163
 20
-148.649766
 30
0.0
 11
-111.421064
 21
-164.295074
 31
0.0
  0
LINE
  5
F8
100
AcDbEntity
  8
0
370
    -3
  6
Continuous
100
AcDbLine
 10
-133.849766
 20
-156.991369
 30
0.0
 11
-118.204458
 21
-171.078467
 31
0.0
  0
ARC
  5
F9
100
AcDbEntity
  8
0
370
    -3
  6
Continuous
100
AcDbCircle
 10
-104.678587
 20
-135.203914
 30
0.0
 40
0.5
100
AcDbArc
 50
270.0
 51
353.030619
  0
ARC
  5
FA
100
AcDbEntity
  8
0
370
    -3
  6
Continuous
100
AcDbCircle
 10
-223.295618
 20
-120.703914
 30
0.0
 40
120.0
100
AcDbArc
 50
353.030619
 51
0.0
  0
ARC
  5
FB
100
AcDbEntity
  8
0
370
    -3
  6
Continuous
100
AcDbCircle
 10
-138.366851
 20
-66.010744
 30
0.0
 40
1.0
100
AcDbArc
 50
246.81129
 51
357.0
  0
LINE
  5
FC
100
AcDbEntity
  8
0
370
    -3
  6
Continuous
100
AcDbLine
 10
-137.294247
 20
-64.651578
 30
0.0
 11
-137.368221
 21
-66.06308
 31
0.0
  0
ARC
  5
FD
100
AcDbEntity
  8
0
370
    -3
  6
Continuous
100
AcDbCircle
 10
-142.495618
 20
-61.903914
 30
0.0
 40
0.7
100
AcDbArc
 50
0.0
 51
90.0
  0
LINE
  5
FE
100
AcDbEntity
  8
0
370
    -3
  6
Continuous
100
AcDbLine
 10
-141.795618
 20
-65.033006
 30
0.0
 11
-141.795618
 21
-61.903914
 31
0.0
  0
ARC
  5
FF
100
AcDbEntity
  8
0
370
    -3
  6
Continuous
100
AcDbCircle
 10
-140.795618
 20
-65.033006
 30
0.0
 40
1.0
100
AcDbArc
 50
180.0
 51
249.332684
  0
LINE
  5
100
100
AcDbEntity
  8
0
370
    -3
  6
Continuous
100
AcDbLine
 10
-142.495618
 20
-61.203914
 30
0.0
 11
-161.795618
 21
-61.203914
 31
0.0
  0
ARC
  5
101
100
AcDbEntity
  8
0
370
    -3
  6
Continuous
100
AcDbCircle
 10
-161.795618
 20
-120.703914
 30
0.0
 40
58.5
100
AcDbArc
 50
66.81129
 51
69.332684
  0
ARC
  5
102
100
AcDbEntity
  8
0
370
    -3
  6
Continuous
100
AcDbCircle
 10
-128.494574
 20
-71.395796
 30
0.0
 40
1.0
100
AcDbArc
 50
183.0
 51
235.966232
  0
ARC
  5
103
100
AcDbEntity
  8
0
370
    -3
  6
Continuous
100
AcDbCircle
 10
-132.953382
 20
-68.66186
 30
0.0
 40
1.0
100
AcDbArc
 50
241.004334
 51
357.0
  0
ARC
  5
104
100
AcDbEntity
  8
0
370
    -3
  6
Continuous
100
AcDbCircle
 10
-134.118401
 20
-68.033033
 30
0.0
 40
1.0
100
AcDbArc
 50
183.0
 51
242.279209
  0
ARC
  5
105
100
AcDbEntity
  8
0
370
    -3
  6
Continuous
100
AcDbCircle
 10
-125.295618
 20
-66.703914
 30
0.0
 40
1.0
100
AcDbArc
 50
3.0
 51
177.0
  0
LINE
  5
106
100
AcDbEntity
  8
0
370
    -3
  6
Continuous
100
AcDbLine
 10
-126.294247
 20
-66.651578
 30
0.0
 11
-126.578747
 21
-72.080158
 31
0.0
  0
ARC
  5
107
100
AcDbEntity
  8
0
370
    -3
  6
Continuous
100
AcDbCircle
 10
-127.577377
 20
-72.027822
 30
0.0
 40
1.0
100
AcDbArc
 50
234.89361
 51
357.0
  0
LINE
  5
108
100
AcDbEntity
  8
0
370
    -3
  6
Continuous
100
AcDbLine
 10
-124.296988
 20
-66.651578
 30
0.0
 11
-124.167563
 21
-69.121164
 31
0.0
  0
ARC
  5
109
100
AcDbEntity
  8
0
370
    -3
  6
Continuous
100
AcDbCircle
 10
-130.795618
 20
-65.703914
 30
0.0
 40
1.0
100
AcDbArc
 50
3.0
 51
177.0
  0
ARC
  5
10A
100
AcDbEntity
  8
0
370
    -3
  6
Continuous
100
AcDbCircle
 10
-136.295618
 20
-64.703914
 30
0.0
 40
1.0
100
AcDbArc
 50
3.0
 51
177.0
  0
LINE
  5
10B
100
AcDbEntity
  8
0
370
    -3
  6
Continuous
100
AcDbLine
 10
-135.296988
 20
-64.651578
 30
0.0
 11
-135.117031
 21
-68.085369
 31
0.0
  0
LINE
  5
10C
100
AcDbEntity
  8
0
370
    -3
  6
Continuous
100
AcDbLine
 10
-129.796988
 20
-65.651578
 30
0.0
 11
-129.493204
 21
-71.448132
 31
0.0
  0
LINE
  5
10D
100
AcDbEntity
  8
0
370
    -3
  6
Continuous
100
AcDbLine
 10
-131.794247
 20
-65.651578
 30
0.0
 11
-131.954752
 21
-68.714196
 31
0.0
  0
ARC
  5
10E
100
AcDbEntity
  8
0
370
    -3
  6
Continuous
100
AcDbCircle
 10
-112.164209
 20
-76.443624
 30
0.0
 40
1.0
100
AcDbArc
 50
318.0
 51
41.725937
  0
ARC
  5
10F
100
AcDbEntity
  8
0
370
    -3
  6
Continuous
100
AcDbCircle
 10
-161.795618
 20
-120.703914
 30
0.0
 40
67.5
100
AcDbArc
 50
41.725937
 51
48.274063
  0
ARC
  5
110
100
AcDbEntity
  8
0
370
    -3
  6
Continuous
100
AcDbCircle
 10
-117.535328
 20
-71.072506
 30
0.0
 40
1.0
100
AcDbArc
 50
48.274063
 51
132.0
  0
LINE
  5
111
100
AcDbEntity
  8
0
370
    -3
  6
Continuous
100
AcDbLine
 10
-107.743282
 20
-85.202544
 30
0.0
 11
-113.171861
 21
-85.487043
 31
0.0
  0
LINE
  5
112
100
AcDbEntity
  8
0
370
    -3
  6
Continuous
100
AcDbLine
 10
-107.743282
 20
-83.205285
 30
0.0
 11
-110.212867
 21
-83.075859
 31
0.0
  0
ARC
  5
113
100
AcDbEntity
  8
0
370
    -3
  6
Continuous
100
AcDbCircle
 10
-107.795618
 20
-84.203914
 30
0.0
 40
1.0
100
AcDbArc
 50
273.0
 51
87.0
  0
LINE
  5
114
100
AcDbEntity
  8
0
370
    -3
  6
Continuous
100
AcDbLine
 10
-104.868032
 20
-105.703914
 30
0.0
 11
-104.678587
 21
-105.703914
 31
0.0
  0
ARC
  5
115
100
AcDbEntity
  8
0
370
    -3
  6
Continuous
100
AcDbCircle
 10
-104.868032
 20
-105.203914
 30
0.0
 40
0.5
100
AcDbArc
 50
195.231036
 51
270.0
  0
ARC
  5
116
100
AcDbEntity
  8
0
370
    -3
  6
Continuous
100
AcDbCircle
 10
-161.795618
 20
-120.703914
 30
0.0
 40
58.5
100
AcDbArc
 50
15.231036
 51
17.620097
  0
ARC
  5
117
100
AcDbEntity
  8
0
370
    -3
  6
Continuous
100
AcDbCircle
 10
-105.087087
 20
-102.693013
 30
0.0
 40
1.0
100
AcDbArc
 50
95.98484
 51
197.620097
  0
ARC
  5
118
100
AcDbEntity
  8
0
370
    -3
  6
Continuous
100
AcDbCircle
 10
-105.295618
 20
-100.703914
 30
0.0
 40
1.0
100
AcDbArc
 50
275.98484
 51
87.0
  0
ARC
  5
119
100
AcDbEntity
  8
0
370
    -3
  6
Continuous
100
AcDbCircle
 10
-106.539336
 20
-98.635989
 30
0.0
 40
1.0
100
AcDbArc
 50
201.770485
 51
267.0
  0
LINE
  5
11A
100
AcDbEntity
  8
0
370
    -3
  6
Continuous
100
AcDbLine
 10
-105.243282
 20
-99.705285
 30
0.0
 11
-106.591672
 21
-99.634618
 31
0.0
  0
ARC
  5
11B
100
AcDbEntity
  8
0
370
    -3
  6
Continuous
100
AcDbCircle
 10
-161.795618
 20
-120.703914
 30
0.0
 40
58.5
100
AcDbArc
 50
21.770485
 51
23.18871
  0
ARC
  5
11C
100
AcDbEntity
  8
0
370
    -3
  6
Continuous
100
AcDbCircle
 10
-109.124737
 20
-93.026698
 30
0.0
 40
1.0
100
AcDbArc
 50
207.720791
 51
267.0
  0
LINE
  5
11D
100
AcDbEntity
  8
0
370
    -3
  6
Continuous
100
AcDbLine
 10
-105.743282
 20
-94.205285
 30
0.0
 11
-109.177073
 21
-94.025327
 31
0.0
  0
ARC
  5
11E
100
AcDbEntity
  8
0
370
    -3
  6
Continuous
100
AcDbCircle
 10
-107.102448
 20
-97.275147
 30
0.0
 40
1.0
100
AcDbArc
 50
93.0
 51
203.18871
  0
LINE
  5
11F
100
AcDbEntity
  8
0
370
    -3
  6
Continuous
100
AcDbLine
 10
-105.743282
 20
-96.202544
 30
0.0
 11
-107.154784
 21
-96.276517
 31
0.0
  0
ARC
  5
120
100
AcDbEntity
  8
0
370
    -3
  6
Continuous
100
AcDbCircle
 10
-105.795618
 20
-95.203914
 30
0.0
 40
1.0
100
AcDbArc
 50
273.0
 51
87.0
  0
ARC
  5
121
100
AcDbEntity
  8
0
370
    -3
  6
Continuous
100
AcDbCircle
 10
-161.795618
 20
-120.703914
 30
0.0
 40
58.5
100
AcDbArc
 50
27.720791
 51
28.995666
  0
ARC
  5
122
100
AcDbEntity
  8
0
370
    -3
  6
Continuous
100
AcDbCircle
 10
-109.753563
 20
-91.861678
 30
0.0
 40
1.0
100
AcDbArc
 50
93.0
 51
208.995666
  0
LINE
  5
123
100
AcDbEntity
  8
0
370
    -3
  6
Continuous
100
AcDbLine
 10
-106.743282
 20
-90.702544
 30
0.0
 11
-109.805899
 21
-90.863049
 31
0.0
  0
ARC
  5
124
100
AcDbEntity
  8
0
370
    -3
  6
Continuous
100
AcDbCircle
 10
-112.4875
 20
-87.402871
 30
0.0
 40
1.0
100
AcDbArc
 50
214.033768
 51
267.0
  0
LINE
  5
125
100
AcDbEntity
  8
0
370
    -3
  6
Continuous
100
AcDbLine
 10
-106.743282
 20
-88.705285
 30
0.0
 11
-112.539836
 21
-88.4015
 31
0.0
  0
ARC
  5
126
100
AcDbEntity
  8
0
370
    -3
  6
Continuous
100
AcDbCircle
 10
-106.795618
 20
-89.703914
 30
0.0
 40
1.0
100
AcDbArc
 50
273.0
 51
87.0
  0
ARC
  5
127
100
AcDbEntity
  8
0
370
    -3
  6
Continuous
100
AcDbCircle
 10
-113.119525
 20
-86.485673
 30
0.0
 40
1.0
100
AcDbArc
 50
93.0
 51
215.10639
  0
ARC
  5
128
100
AcDbEntity
  8
0
370
    -3
  6
Continuous
100
AcDbCircle
 10
-161.795618
 20
-120.703914
 30
0.0
 40
58.5
100
AcDbArc
 50
34.033768
 51
35.10639
  0
ARC
  5
129
100
AcDbEntity
  8
0
370
    -3
  6
Continuous
100
AcDbCircle
 10
-161.795618
 20
-120.703914
 30
0.0
 40
58.5
100
AcDbArc
 50
61.004334
 51
62.279209
  0
ARC
  5
12A
100
AcDbEntity
  8
0
370
    -3
  6
Continuous
100
AcDbCircle
 10
-161.795618
 20
-120.703914
 30
0.0
 40
58.5
100
AcDbArc
 50
54.89361
 51
55.966232
  0
LINE
  5
12B
100
AcDbEntity
  8
0
370
    -3
  6
Continuous
100
AcDbLine
 10
-125.508163
 20
-92.758062
 30
0.0
 11
-111.421064
 21
-77.112755
 31
0.0
  0
LINE
  5
12C
100
AcDbEntity
  8
0
370
    -3
  6
Continuous
100
AcDbLine
 10
-133.849766
 20
-84.416459
 30
0.0
 11
-118.204458
 21
-70.329361
 31
0.0
  0
ARC
  5
12D
100
AcDbEntity
  8
0
370
    -3
  6
Continuous
100
AcDbCircle
 10
-104.678587
 20
-106.203914
 30
0.0
 40
0.5
100
AcDbArc
 50
6.969381
 51
90.0
  0
ARC
  5
12E
100
AcDbEntity
  8
0
370
    -3
  6
Continuous
100
AcDbCircle
 10
-223.295618
 20
-120.703914
 30
0.0
 40
120.0
100
AcDbArc
 50
0.0
 51
6.969381
  0
ARC
  5
12F
100
AcDbEntity
  8
0
370
    -3
  6
Continuous
100
AcDbCircle
 10
-100.295618
 20
-120.703914
 30
0.0
 40
120.0
100
AcDbArc
 50
173.030619
 51
180.0
  0
ARC
  5
130
100
AcDbEntity
  8
0
370
    -3
  6
Continuous
100
AcDbCircle
 10
-218.912649
 20
-106.203914
 30
0.0
 40
0.5
100
AcDbArc
 50
90.0
 51
173.030619
  0
ARC
  5
131
100
AcDbEntity
  8
0
370
    -3
  6
Continuous
100
AcDbCircle
 10
-161.795618
 20
-120.703914
 30
0.0
 40
58.5
100
AcDbArc
 50
124.033768
 51
125.10639
  0
ARC
  5
132
100
AcDbEntity
  8
0
370
    -3
  6
Continuous
100
AcDbCircle
 10
-161.795618
 20
-120.703914
 30
0.0
 40
58.5
100
AcDbArc
 50
117.720791
 51
118.995666
  0
LINE
  5
133
100
AcDbEntity
  8
0
370
    -3
  6
Continuous
100
AcDbLine
 10
-218.723203
 20
-105.703914
 30
0.0
 11
-218.912649
 21
-105.703914
 31
0.0
  0
ARC
  5
134
100
AcDbEntity
  8
0
370
    -3
  6
Continuous
100
AcDbCircle
 10
-218.723203
 20
-105.203914
 30
0.0
 40
0.5
100
AcDbArc
 50
270.0
 51
344.768964
  0
ARC
  5
135
100
AcDbEntity
  8
0
370
    -3
  6
Continuous
100
AcDbCircle
 10
-161.795618
 20
-120.703914
 30
0.0
 40
58.5
100
AcDbArc
 50
162.379903
 51
164.768964
  0
ARC
  5
136
100
AcDbEntity
  8
0
370
    -3
  6
Continuous
100
AcDbCircle
 10
-218.504148
 20
-102.693013
 30
0.0
 40
1.0
100
AcDbArc
 50
342.379903
 51
84.01516
  0
ARC
  5
137
100
AcDbEntity
  8
0
370
    -3
  6
Continuous
100
AcDbCircle
 10
-218.295618
 20
-100.703914
 30
0.0
 40
1.0
100
AcDbArc
 50
93.0
 51
264.01516
  0
ARC
  5
138
100
AcDbEntity
  8
0
370
    -3
  6
Continuous
100
AcDbCircle
 10
-217.0519
 20
-98.635989
 30
0.0
 40
1.0
100
AcDbArc
 50
273.0
 51
338.229515
  0
LINE
  5
139
100
AcDbEntity
  8
0
370
    -3
  6
Continuous
100
AcDbLine
 10
-218.347954
 20
-99.705285
 30
0.0
 11
-216.999564
 21
-99.634618
 31
0.0
  0
ARC
  5
13A
100
AcDbEntity
  8
0
370
    -3
  6
Continuous
100
AcDbCircle
 10
-161.795618
 20
-120.703914
 30
0.0
 40
58.5
100
AcDbArc
 50
156.81129
 51
158.229515
  0
ARC
  5
13B
100
AcDbEntity
  8
0
370
    -3
  6
Continuous
100
AcDbCircle
 10
-214.466499
 20
-93.026698
 30
0.0
 40
1.0
100
AcDbArc
 50
273.0
 51
332.279209
  0
LINE
  5
13C
100
AcDbEntity
  8
0
370
    -3
  6
Continuous
100
AcDbLine
 10
-217.847954
 20
-94.205285
 30
0.0
 11
-214.414163
 21
-94.025327
 31
0.0
  0
ARC
  5
13D
100
AcDbEntity
  8
0
370
    -3
  6
Continuous
100
AcDbCircle
 10
-216.488788
 20
-97.275147
 30
0.0
 40
1.0
100
AcDbArc
 50
336.81129
 51
87.0
  0
LINE
  5
13E
100
AcDbEntity
  8
0
370
    -3
  6
Continuous
100
AcDbLine
 10
-217.847954
 20
-96.202544
 30
0.0
 11
-216.436452
 21
-96.276517
 31
0.0
  0
ARC
  5
13F
100
AcDbEntity
  8
0
370
    -3
  6
Continuous
100
AcDbCircle
 10
-217.795618
 20
-95.203914
 30
0.0
 40
1.0
100
AcDbArc
 50
93.0
 51
267.0
  0
ARC
  5
140
100
AcDbEntity
  8
0
370
    -3
  6
Continuous
100
AcDbCircle
 10
-161.795618
 20
-120.703914
 30
0.0
 40
58.5
100
AcDbArc
 50
151.004334
 51
152.279209
  0
ARC
  5
141
100
AcDbEntity
  8
0
370
    -3
  6
Continuous
100
AcDbCircle
 10
-213.837672
 20
-91.861678
 30
0.0
 40
1.0
100
AcDbArc
 50
331.004334
 51
87.0
  0
LINE
  5
142
100
AcDbEntity
  8
0
370
    -3
  6
Continuous
100
AcDbLine
 10
-216.847954
 20
-90.702544
 30
0.0
 11
-213.785336
 21
-90.863049
 31
0.0
  0
ARC
  5
143
100
AcDbEntity
  8
0
370
    -3
  6
Continuous
100
AcDbCircle
 10
-211.103736
 20
-87.402871
 30
0.0
 40
1.0
100
AcDbArc
 50
273.0
 51
325.966232
  0
LINE
  5
144
100
AcDbEntity
  8
0
370
    -3
  6
Continuous
100
AcDbLine
 10
-216.847954
 20
-88.705285
 30
0.0
 11
-211.0514
 21
-88.4015
 31
0.0
  0
ARC
  5
145
100
AcDbEntity
  8
0
370
    -3
  6
Continuous
100
AcDbCircle
 10
-216.795618
 20
-89.703914
 30
0.0
 40
1.0
100
AcDbArc
 50
93.0
 51
267.0
  0
ARC
  5
146
100
AcDbEntity
  8
0
370
    -3
  6
Continuous
100
AcDbCircle
 10
-210.47171
 20
-86.485673
 30
0.0
 40
1.0
100
AcDbArc
 50
324.89361
 51
87.0
  0
ARC
  5
147
100
AcDbEntity
  8
0
370
    -3
  6
Continuous
100
AcDbCircle
 10
-161.795618
 20
-120.703914
 30
0.0
 40
58.5
100
AcDbArc
 50
144.89361
 51
145.966232
  0
LINE
  5
148
100
AcDbEntity
  8
0
370
    -3
  6
Continuous
100
AcDbLine
 10
-215.847954
 20
-85.202544
 30
0.0
 11
-210.419374
 21
-85.487043
 31
0.0
  0
LINE
  5
149
100
AcDbEntity
  8
0
370
    -3
  6
Continuous
100
AcDbLine
 10
-215.847954
 20
-83.205285
 30
0.0
 11
-213.378368
 21
-83.075859
 31
0.0
  0
ARC
  5
14A
100
AcDbEntity
  8
0
370
    -3
  6
Continuous
100
AcDbCircle
 10
-215.795618
 20
-84.203914
 30
0.0
 40
1.0
100
AcDbArc
 50
93.0
 51
267.0
  0
ARC
  5
14B
100
AcDbEntity
  8
0
370
    -3
  6
Continuous
100
AcDbCircle
 10
-206.055908
 20
-71.072506
 30
0.0
 40
1.0
100
AcDbArc
 50
48.0
 51
131.725937
  0
LINE
  5
14C
100
AcDbEntity
  8
0
370
    -3
  6
Continuous
100
AcDbLine
 10
-198.083073
 20
-92.758062
 30
0.0
 11
-212.170171
 21
-77.112755
 31
0.0
  0
ARC
  5
14D
100
AcDbEntity
  8
0
370
    -3
  6
Continuous
100
AcDbCircle
 10
-211.427026
 20
-76.443624
 30
0.0
 40
1.0
100
AcDbArc
 50
138.274063
 51
222.0
  0
ARC
  5
14E
100
AcDbEntity
  8
0
370
    -3
  6
Continuous
100
AcDbCircle
 10
-161.795618
 20
-120.703914
 30
0.0
 40
67.5
100
AcDbArc
 50
131.725937
 51
138.274063
  0
LINE
  5
14F
100
AcDbEntity
  8
0
370
    -3
  6
Continuous
100
AcDbLine
 10
-189.741469
 20
-84.416459
 30
0.0
 11
-205.386777
 21
-70.329361
 31
0.0
  0
LINE
  5
150
100
AcDbEntity
  8
0
370
    -3
  6
Continuous
100
AcDbLine
 10
-181.095618
 20
-61.203914
 30
0.0
 11
-161.795618
 21
-61.203914
 31
0.0
  0
ARC
  5
151
100
AcDbEntity
  8
0
370
    -3
  6
Continuous
100
AcDbCircle
 10
-181.095618
 20
-61.903914
 30
0.0
 40
0.7
100
AcDbArc
 50
90.0
 51
180.0
  0
LINE
  5
152
100
AcDbEntity
  8
0
370
    -3
  6
Continuous
100
AcDbLine
 10
-181.795618
 20
-65.033006
 30
0.0
 11
-181.795618
 21
-61.903914
 31
0.0
  0
ARC
  5
153
100
AcDbEntity
  8
0
370
    -3
  6
Continuous
100
AcDbCircle
 10
-182.795618
 20
-65.033006
 30
0.0
 40
1.0
100
AcDbArc
 50
290.667316
 51
0.0
  0
ARC
  5
154
100
AcDbEntity
  8
0
370
    -3
  6
Continuous
100
AcDbCircle
 10
-192.795618
 20
-65.703914
 30
0.0
 40
1.0
100
AcDbArc
 50
3.0
 51
177.0
  0
ARC
  5
155
100
AcDbEntity
  8
0
370
    -3
  6
Continuous
100
AcDbCircle
 10
-187.295618
 20
-64.703914
 30
0.0
 40
1.0
100
AcDbArc
 50
3.0
 51
177.0
  0
ARC
  5
156
100
AcDbEntity
  8
0
370
    -3
  6
Continuous
100
AcDbCircle
 10
-185.224385
 20
-66.010744
 30
0.0
 40
1.0
100
AcDbArc
 50
183.0
 51
293.18871
  0
LINE
  5
157
100
AcDbEntity
  8
0
370
    -3
  6
Continuous
100
AcDbLine
 10
-186.296988
 20
-64.651578
 30
0.0
 11
-186.223015
 21
-66.06308
 31
0.0
  0
LINE
  5
158
100
AcDbEntity
  8
0
370
    -3
  6
Continuous
100
AcDbLine
 10
-188.294247
 20
-64.651578
 30
0.0
 11
-188.474205
 21
-68.085369
 31
0.0
  0
LINE
  5
159
100
AcDbEntity
  8
0
370
    -3
  6
Continuous
100
AcDbLine
 10
-193.794247
 20
-65.651578
 30
0.0
 11
-194.098032
 21
-71.448132
 31
0.0
  0
LINE
  5
15A
100
AcDbEntity
  8
0
370
    -3
  6
Continuous
100
AcDbLine
 10
-191.796988
 20
-65.651578
 30
0.0
 11
-191.636483
 21
-68.714196
 31
0.0
  0
ARC
  5
15B
100
AcDbEntity
  8
0
370
    -3
  6
Continuous
100
AcDbCircle
 10
-161.795618
 20
-120.703914
 30
0.0
 40
58.5
100
AcDbArc
 50
110.667316
 51
113.18871
  0
LINE
  5
15C
100
AcDbEntity
  8
0
370
    -3
  6
Continuous
100
AcDbLine
 10
-199.294247
 20
-66.651578
 30
0.0
 11
-199.423673
 21
-69.121164
 31
0.0
  0
ARC
  5
15D
100
AcDbEntity
  8
0
370
    -3
  6
Continuous
100
AcDbCircle
 10
-196.013859
 20
-72.027822
 30
0.0
 40
1.0
100
AcDbArc
 50
183.0
 51
305.10639
  0
LINE
  5
15E
100
AcDbEntity
  8
0
370
    -3
  6
Continuous
100
AcDbLine
 10
-197.296988
 20
-66.651578
 30
0.0
 11
-197.012488
 21
-72.080158
 31
0.0
  0
ARC
  5
15F
100
AcDbEntity
  8
0
370
    -3
  6
Continuous
100
AcDbCircle
 10
-198.295618
 20
-66.703914
 30
0.0
 40
1.0
100
AcDbArc
 50
3.0
 51
177.0
  0
ARC
  5
160
100
AcDbEntity
  8
0
370
    -3
  6
Continuous
100
AcDbCircle
 10
-189.472834
 20
-68.033033
 30
0.0
 40
1.0
100
AcDbArc
 50
297.720791
 51
357.0
  0
ARC
  5
161
100
AcDbEntity
  8
0
370
    -3
  6
Continuous
100
AcDbCircle
 10
-190.637854
 20
-68.66186
 30
0.0
 40
1.0
100
AcDbArc
 50
183.0
 51
298.995666
  0
ARC
  5
162
100
AcDbEntity
  8
0
370
    -3
  6
Continuous
100
AcDbCircle
 10
-195.096661
 20
-71.395796
 30
0.0
 40
1.0
100
AcDbArc
 50
304.033768
 51
357.0
  0
ARC
  5
163
100
AcDbEntity
  8
0
370
    -3
  6
Continuous
100
AcDbCircle
 10
-181.295618
 20
-61.703914
 30
0.0
 40
0.5
100
AcDbArc
 50
90.0
 51
180.0
  0
ARC
  5
164
100
AcDbEntity
  8
0
370
    -3
  6
Continuous
100
AcDbCircle
 10
-142.295618
 20
-61.703914
 30
0.0
 40
0.5
100
AcDbArc
 50
0.0
 51
90.0
  0
LINE
  5
165
100
AcDbEntity
  8
0
370
    -3
  6
Continuous
100
AcDbLine
 10
-161.795618
 20
-61.203914
 30
0.0
 11
-181.295618
 21
-61.203914
 31
0.0
  0
LINE
  5
166
100
AcDbEntity
  8
0
370
    -3
  6
Continuous
100
AcDbLine
 10
-181.795618
 20
-61.703914
 30
0.0
 11
-181.795618
 21
-63.228915
 31
0.0
  0
LINE
  5
167
100
AcDbEntity
  8
0
370
    -3
  6
Continuous
100
AcDbLine
 10
-161.795618
 20
-61.203914
 30
0.0
 11
-142.295618
 21
-61.203914
 31
0.0
  0
LINE
  5
168
100
AcDbEntity
  8
0
370
    -3
  6
Continuous
100
AcDbLine
 10
-141.795618
 20
-61.703914
 30
0.0
 11
-141.795618
 21
-63.228915
 31
0.0
  0
ARC
  5
169
100
AcDbEntity
  8
0
370
    -3
  6
Continuous
100
AcDbCircle
 10
-161.795618
 20
-463.203914
 30
0.0
 40
400.0
100
AcDbArc
 50
85.885655
 51
87.065975
  0
ARC
  5
16A
100
AcDbEntity
  8
0
370
    -3
  6
Continuous
100
AcDbCircle
 10
-141.295618
 20
-63.228915
 30
0.0
 40
0.5
100
AcDbArc
 50
180.0
 51
267.065975
  0
ARC
  5
16B
100
AcDbEntity
  8
0
370
    -3
  6
Continuous
100
AcDbCircle
 10
-161.795618
 20
-463.203914
 30
0.0
 40
400.0
100
AcDbArc
 50
92.934025
 51
94.114345
  0
ARC
  5
16C
100
AcDbEntity
  8
0
370
    -3
  6
Continuous
100
AcDbCircle
 10
-182.295618
 20
-63.228915
 30
0.0
 40
0.5
100
AcDbArc
 50
272.934025
 51
0.0
  0
ARC
  5
16D
100
AcDbEntity
  8
0
370
    -3
  6
Continuous
100
AcDbCircle
 10
-135.249163
 20
-94.157459
 30
0.0
 40
30.0
100
AcDbArc
 50
4.114345
 51
85.885655
  0
ARC
  5
16E
100
AcDbEntity
  8
0
370
    -3
  6
Continuous
100
AcDbCircle
 10
-102.795618
 20
-101.203914
 30
0.0
 40
0.5
100
AcDbArc
 50
360.0
 51
90.0
  0
ARC
  5
16F
100
AcDbEntity
  8
0
370
    -3
  6
Continuous
100
AcDbCircle
 10
-104.320619
 20
-100.203914
 30
0.0
 40
0.5
100
AcDbArc
 50
182.934025
 51
270.0
  0
ARC
  5
170
100
AcDbEntity
  8
0
370
    -3
  6
Continuous
100
AcDbCircle
 10
-102.795618
 20
-101.203914
 30
0.0
 40
0.5
100
AcDbArc
 50
360.0
 51
90.0
  0
ARC
  5
171
100
AcDbEntity
  8
0
370
    -3
  6
Continuous
100
AcDbCircle
 10
-104.320619
 20
-100.203914
 30
0.0
 40
0.5
100
AcDbArc
 50
182.934025
 51
270.0
  0
ARC
  5
172
100
AcDbEntity
  8
0
370
    -3
  6
Continuous
100
AcDbCircle
 10
-504.295618
 20
-120.703914
 30
0.0
 40
400.0
100
AcDbArc
 50
2.934025
 51
4.114345
  0
LINE
  5
173
100
AcDbEntity
  8
0
370
    -3
  6
Continuous
100
AcDbLine
 10
-102.295618
 20
-120.703914
 30
0.0
 11
-102.295618
 21
-101.203914
 31
0.0
  0
LINE
  5
174
100
AcDbEntity
  8
0
370
    -3
  6
Continuous
100
AcDbLine
 10
-102.795618
 20
-100.703914
 30
0.0
 11
-104.320619
 21
-100.703914
 31
0.0
  0
ARC
  5
175
100
AcDbEntity
  8
0
370
    -3
  6
Continuous
100
AcDbCircle
 10
-102.795618
 20
-140.203914
 30
0.0
 40
0.5
100
AcDbArc
 50
270.0
 51
0.0
  0
ARC
  5
176
100
AcDbEntity
  8
0
370
    -3
  6
Continuous
100
AcDbCircle
 10
-104.320619
 20
-141.203914
 30
0.0
 40
0.5
100
AcDbArc
 50
90.0
 51
177.065975
  0
ARC
  5
177
100
AcDbEntity
  8
0
370
    -3
  6
Continuous
100
AcDbCircle
 10
-104.320619
 20
-141.203914
 30
0.0
 40
0.5
100
AcDbArc
 50
90.0
 51
177.065975
  0
LINE
  5
178
100
AcDbEntity
  8
0
370
    -3
  6
Continuous
100
AcDbLine
 10
-102.295618
 20
-120.703914
 30
0.0
 11
-102.295618
 21
-140.203914
 31
0.0
  0
LINE
  5
179
100
AcDbEntity
  8
0
370
    -3
  6
Continuous
100
AcDbLine
 10
-102.795618
 20
-140.703914
 30
0.0
 11
-104.320619
 21
-140.703914
 31
0.0
  0
ARC
  5
17A
100
AcDbEntity
  8
0
370
    -3
  6
Continuous
100
AcDbCircle
 10
-504.295618
 20
-120.703914
 30
0.0
 40
400.0
100
AcDbArc
 50
355.885655
 51
357.065975
  0
ARC
  5
17B
100
AcDbEntity
  8
0
370
    -3
  6
Continuous
100
AcDbCircle
 10
-135.249163
 20
-147.250369
 30
0.0
 40
30.0
100
AcDbArc
 50
274.114345
 51
355.885655
  0
ARC
  5
17C
100
AcDbEntity
  8
0
370
    -3
  6
Continuous
100
AcDbCircle
 10
-141.295618
 20
-178.178913
 30
0.0
 40
0.5
100
AcDbArc
 50
92.934025
 51
180.0
  0
ARC
  5
17D
100
AcDbEntity
  8
0
370
    -3
  6
Continuous
100
AcDbCircle
 10
-141.295618
 20
-178.178913
 30
0.0
 40
0.5
100
AcDbArc
 50
92.934025
 51
180.0
  0
ARC
  5
17E
100
AcDbEntity
  8
0
370
    -3
  6
Continuous
100
AcDbCircle
 10
-161.795618
 20
221.796086
 30
0.0
 40
400.0
100
AcDbArc
 50
272.934025
 51
274.114345
  0
LINE
  5
17F
100
AcDbEntity
  8
0
370
    -3
  6
Continuous
100
AcDbLine
 10
-141.795618
 20
-179.703914
 30
0.0
 11
-141.795618
 21
-178.178913
 31
0.0
  0
LINE
  5
180
100
AcDbEntity
  8
0
370
    -3
  6
Continuous
100
AcDbLine
 10
-141.795618
 20
-179.703914
 30
0.0
 11
-141.795618
 21
-178.178913
 31
0.0
  0
ARC
  5
181
100
AcDbEntity
  8
0
370
    -3
  6
Continuous
100
AcDbCircle
 10
-142.295618
 20
-179.703914
 30
0.0
 40
0.5
100
AcDbArc
 50
270.0
 51
0.0
  0
ARC
  5
182
100
AcDbEntity
  8
0
370
    -3
  6
Continuous
100
AcDbCircle
 10
-142.295618
 20
-179.703914
 30
0.0
 40
0.5
100
AcDbArc
 50
270.0
 51
0.0
  0
LINE
  5
183
100
AcDbEntity
  8
0
370
    -3
  6
Continuous
100
AcDbLine
 10
-161.795618
 20
-180.203914
 30
0.0
 11
-142.295618
 21
-180.203914
 31
0.0
  0
LINE
  5
184
100
AcDbEntity
  8
0
370
    -3
  6
Continuous
100
AcDbLine
 10
-161.795618
 20
-180.203914
 30
0.0
 11
-142.295618
 21
-180.203914
 31
0.0
  0
ARC
  5
185
100
AcDbEntity
  8
0
370
    -3
  6
Continuous
100
AcDbCircle
 10
-161.795618
 20
221.796086
 30
0.0
 40
400.0
100
AcDbArc
 50
265.885655
 51
267.065975
  0
ARC
  5
186
100
AcDbEntity
  8
0
370
    -3
  6
Continuous
100
AcDbCircle
 10
-181.295618
 20
-179.703914
 30
0.0
 40
0.5
100
AcDbArc
 50
180.0
 51
270.0
  0
ARC
  5
187
100
AcDbEntity
  8
0
370
    -3
  6
Continuous
100
AcDbCircle
 10
-182.295618
 20
-178.178913
 30
0.0
 40
0.5
100
AcDbArc
 50
0.0
 51
87.065975
  0
LINE
  5
188
100
AcDbEntity
  8
0
370
    -3
  6
Continuous
100
AcDbLine
 10
-161.795618
 20
-180.203914
 30
0.0
 11
-181.295618
 21
-180.203914
 31
0.0
  0
LINE
  5
189
100
AcDbEntity
  8
0
370
    -3
  6
Continuous
100
AcDbLine
 10
-181.795618
 20
-179.703914
 30
0.0
 11
-181.795618
 21
-178.178913
 31
0.0
  0
ARC
  5
18A
100
AcDbEntity
  8
0
370
    -3
  6
Continuous
100
AcDbCircle
 10
-188.342072
 20
-147.250369
 30
0.0
 40
30.0
100
AcDbArc
 50
184.114345
 51
265.885655
  0
ARC
  5
18B
100
AcDbEntity
  8
0
370
    -3
  6
Continuous
100
AcDbCircle
 10
180.704382
 20
-120.703914
 30
0.0
 40
400.0
100
AcDbArc
 50
182.934025
 51
184.114345
  0
ARC
  5
18C
100
AcDbEntity
  8
0
370
    -3
  6
Continuous
100
AcDbCircle
 10
-220.795618
 20
-140.203914
 30
0.0
 40
0.5
100
AcDbArc
 50
180.0
 51
270.0
  0
LINE
  5
18D
100
AcDbEntity
  8
0
370
    -3
  6
Continuous
100
AcDbLine
 10
-221.295618
 20
-120.703914
 30
0.0
 11
-221.295618
 21
-140.203914
 31
0.0
  0
ARC
  5
18E
100
AcDbEntity
  8
0
370
    -3
  6
Continuous
100
AcDbCircle
 10
-219.270617
 20
-141.203914
 30
0.0
 40
0.5
100
AcDbArc
 50
2.934025
 51
90.0
  0
LINE
  5
18F
100
AcDbEntity
  8
0
370
    -3
  6
Continuous
100
AcDbLine
 10
-220.795618
 20
-140.703914
 30
0.0
 11
-219.270617
 21
-140.703914
 31
0.0
  0
LINE
  5
190
100
AcDbEntity
  8
0
370
    -3
  6
Continuous
100
AcDbLine
 10
-221.295618
 20
-120.703914
 30
0.0
 11
-221.295618
 21
-101.203914
 31
0.0
  0
ARC
  5
191
100
AcDbEntity
  8
0
370
    -3
  6
Continuous
100
AcDbCircle
 10
-220.795618
 20
-101.203914
 30
0.0
 40
0.5
100
AcDbArc
 50
90.0
 51
180.0
  0
LINE
  5
192
100
AcDbEntity
  8
0
370
    -3
  6
Continuous
100
AcDbLine
 10
-220.795618
 20
-100.703914
 30
0.0
 11
-219.270617
 21
-100.703914
 31
0.0
  0
ARC
  5
193
100
AcDbEntity
  8
0
370
    -3
  6
Continuous
100
AcDbCircle
 10
180.704382
 20
-120.703914
 30
0.0
 40
400.0
100
AcDbArc
 50
175.885655
 51
177.065975
  0
ARC
  5
194
100
AcDbEntity
  8
0
370
    -3
  6
Continuous
100
AcDbCircle
 10
-219.270617
 20
-100.203914
 30
0.0
 40
0.5
100
AcDbArc
 50
270.0
 51
357.065975
  0
ARC
  5
195
100
AcDbEntity
  8
0
370
    -3
  6
Continuous
100
AcDbCircle
 10
-188.342072
 20
-94.157459
 30
0.0
 40
30.0
100
AcDbArc
 50
94.114345
 51
175.885655
  0
LINE
  5
196
100
AcDbEntity
  8
0
370
    -3
  6
CENTER
100
AcDbLine
 10
408.626698
 20
206.981317
 30
0.0
 11
-3.913265
 21
206.981317
 31
0.0
  0
LINE
  5
197
100
AcDbEntity
  8
0
370
    -3
  6
Continuous
100
AcDbLine
 10
397.995019
 20
148.980919
 30
0.0
 11
398.503668
 21
149.480767
 31
0.0
  0
LINE
  5
198
100
AcDbEntity
  8
0
370
    -3
  6
Continuous
100
AcDbLine
 10
326.704411
 20
143.980919
 30
0.0
 11
279.204411
 21
143.980919
 31
0.0
  0
LINE
  5
199
100
AcDbEntity
  8
0
370
    -3
  6
Continuous
100
AcDbLine
 10
208.913645
 20
148.980919
 30
0.0
 11
208.704177
 21
160.981317
 31
0.0
  0
LINE
  5
19A
100
AcDbEntity
  8
0
370
    -3
  6
Continuous
100
AcDbLine
 10
210.353681
 20
255.481317
 30
0.0
 11
210.353681
 21
264.981317
 31
0.0
  0
LINE
  5
19B
100
AcDbEntity
  8
0
370
    -3
  6
Continuous
100
AcDbLine
 10
208.704177
 20
160.981317
 30
0.0
 11
210.353681
 21
255.481317
 31
0.0
  0
LINE
  5
19C
100
AcDbEntity
  8
0
370
    -3
  6
Continuous
100
AcDbLine
 10
398.503668
 20
149.480767
 30
0.0
 11
398.704411
 21
160.981317
 31
0.0
  0
LINE
  5
19D
100
AcDbEntity
  8
0
370
    -3
  6
Continuous
100
AcDbLine
 10
397.054907
 20
255.481317
 30
0.0
 11
397.054907
 21
264.981317
 31
0.0
  0
LINE
  5
19E
100
AcDbEntity
  8
0
370
    -3
  6
Continuous
100
AcDbLine
 10
398.704411
 20
160.981317
 30
0.0
 11
397.054907
 21
255.481317
 31
0.0
  0
LINE
  5
19F
100
AcDbEntity
  8
0
370
    -3
  6
Continuous
100
AcDbLine
 10
210.353681
 20
264.981317
 30
0.0
 11
310.712982
 21
264.981317
 31
0.0
  0
LINE
  5
1A0
100
AcDbEntity
  8
0
370
    -3
  6
Continuous
100
AcDbLine
 10
208.704177
 20
160.981317
 30
0.0
 11
310.712982
 21
160.981317
 31
0.0
  0
LINE
  5
1A1
100
AcDbEntity
  8
0
370
    -3
  6
Continuous
100
AcDbLine
 10
310.712982
 20
148.980919
 30
0.0
 11
208.913645
 21
148.980919
 31
0.0
  0
LINE
  5
1A2
100
AcDbEntity
  8
0
370
    -3
  6
Continuous
100
AcDbLine
 10
310.712982
 20
148.980919
 30
0.0
 11
397.995019
 21
148.980919
 31
0.0
  0
LINE
  5
1A3
100
AcDbEntity
  8
0
370
    -3
  6
Continuous
100
AcDbLine
 10
310.712982
 20
160.981317
 30
0.0
 11
398.704411
 21
160.981317
 31
0.0
  0
LINE
  5
1A4
100
AcDbEntity
  8
0
370
    -3
  6
Continuous
100
AcDbLine
 10
310.712982
 20
264.981317
 30
0.0
 11
397.054907
 21
264.981317
 31
0.0
  0
LINE
  5
1A5
100
AcDbEntity
  8
0
370
    -3
  6
Continuous
100
AcDbLine
 10
197.204177
 20
150.242316
 30
0.0
 11
197.204177
 21
263.720318
 31
0.0
  0
ARC
  5
1A6
100
AcDbEntity
  8
0
370
    -3
  6
Continuous
100
AcDbCircle
 10
200.204177
 20
253.981317
 30
0.0
 40
3.0
100
AcDbArc
 50
180.0
 51
270.0
  0
LINE
  5
1A7
100
AcDbEntity
  8
0
370
    -3
  6
Continuous
100
AcDbLine
 10
208.309738
 20
250.981317
 30
0.0
 11
200.204177
 21
250.981317
 31
0.0
  0
ARC
  5
1A8
100
AcDbEntity
  8
0
370
    -3
  6
Continuous
100
AcDbCircle
 10
200.204177
 20
159.981715
 30
0.0
 40
3.0
100
AcDbArc
 50
90.0
 51
180.0
  0
ARC
  5
1A9
100
AcDbEntity
  8
0
370
    -3
  6
Continuous
100
AcDbCircle
 10
194.204177
 20
249.166048
 30
0.0
 40
3.0
100
AcDbArc
 50
0.0
 51
90.0
  0
ARC
  5
1AA
100
AcDbEntity
  8
0
370
    -3
  6
Continuous
100
AcDbCircle
 10
194.204177
 20
256.077624
 30
0.0
 40
3.0
100
AcDbArc
 50
0.0
 51
90.0
  0
ARC
  5
1AB
100
AcDbEntity
  8
0
370
    -3
  6
Continuous
100
AcDbCircle
 10
194.204177
 20
164.796586
 30
0.0
 40
3.0
100
AcDbArc
 50
270.0
 51
0.0
  0
ARC
  5
1AC
100
AcDbEntity
  8
0
370
    -3
  6
Continuous
100
AcDbCircle
 10
194.204177
 20
157.885009
 30
0.0
 40
3.0
100
AcDbArc
 50
270.0
 51
0.0
  0
ARC
  5
1AD
100
AcDbEntity
  8
0
370
    -3
  6
Continuous
100
AcDbCircle
 10
194.204177
 20
150.242316
 30
0.0
 40
3.0
100
AcDbArc
 50
269.018827
 51
0.0
  0
ARC
  5
1AE
100
AcDbEntity
  8
0
370
    -3
  6
Continuous
100
AcDbCircle
 10
194.204177
 20
263.720318
 30
0.0
 40
3.0
100
AcDbArc
 50
0.0
 51
90.981173
  0
ARC
  5
1AF
100
AcDbEntity
  8
0
370
    -3
  6
Continuous
100
AcDbCircle
 10
189.204177
 20
170.98005
 30
0.0
 40
3.0
100
AcDbArc
 50
180.0
 51
270.0
  0
ARC
  5
1B0
100
AcDbEntity
  8
0
370
    -3
  6
Continuous
100
AcDbCircle
 10
189.204177
 20
151.885009
 30
0.0
 40
3.0
100
AcDbArc
 50
90.0
 51
180.0
  0
ARC
  5
1B1
100
AcDbEntity
  8
0
370
    -3
  6
Continuous
100
AcDbCircle
 10
189.204177
 20
164.796586
 30
0.0
 40
3.0
100
AcDbArc
 50
180.0
 51
270.0
  0
ARC
  5
1B2
100
AcDbEntity
  8
0
370
    -3
  6
Continuous
100
AcDbCircle
 10
183.204177
 20
150.481317
 30
0.0
 40
3.0
100
AcDbArc
 50
270.0
 51
0.0
  0
ARC
  5
1B3
100
AcDbEntity
  8
0
370
    -3
  6
Continuous
100
AcDbCircle
 10
183.204177
 20
263.481317
 30
0.0
 40
3.0
100
AcDbArc
 50
0.0
 51
90.0
  0
ARC
  5
1B4
100
AcDbEntity
  8
0
370
    -3
  6
Continuous
100
AcDbCircle
 10
189.204177
 20
242.982584
 30
0.0
 40
3.0
100
AcDbArc
 50
90.0
 51
180.0
  0
ARC
  5
1B5
100
AcDbEntity
  8
0
370
    -3
  6
Continuous
100
AcDbCircle
 10
189.204177
 20
249.166048
 30
0.0
 40
3.0
100
AcDbArc
 50
90.0
 51
180.0
  0
ARC
  5
1B6
100
AcDbEntity
  8
0
370
    -3
  6
Continuous
100
AcDbCircle
 10
189.204177
 20
262.077624
 30
0.0
 40
3.0
100
AcDbArc
 50
180.0
 51
270.0
  0
LINE
  5
1B7
100
AcDbEntity
  8
0
370
    -3
  6
Continuous
100
AcDbLine
 10
186.204177
 20
164.796586
 30
0.0
 11
186.204177
 21
206.981317
 31
0.0
  0
LINE
  5
1B8
100
AcDbEntity
  8
0
370
    -3
  6
Continuous
100
AcDbLine
 10
189.204177
 20
167.98005
 30
0.0
 11
194.204177
 21
167.98005
 31
0.0
  0
LINE
  5
1B9
100
AcDbEntity
  8
0
370
    -3
  6
Continuous
100
AcDbLine
 10
186.204177
 20
151.481317
 30
0.0
 11
186.204177
 21
151.885009
 31
0.0
  0
LINE
  5
1BA
100
AcDbEntity
  8
0
370
    -3
  6
Continuous
100
AcDbLine
 10
186.204177
 20
151.481317
 30
0.0
 11
186.204177
 21
151.885009
 31
0.0
  0
LINE
  5
1BB
100
AcDbEntity
  8
0
370
    -3
  6
Continuous
100
AcDbLine
 10
186.204177
 20
151.481317
 30
0.0
 11
186.204177
 21
150.481317
 31
0.0
  0
LINE
  5
1BC
100
AcDbEntity
  8
0
370
    -3
  6
Continuous
100
AcDbLine
 10
186.204177
 20
262.481317
 30
0.0
 11
186.204177
 21
262.077624
 31
0.0
  0
LINE
  5
1BD
100
AcDbEntity
  8
0
370
    -3
  6
Continuous
100
AcDbLine
 10
186.204177
 20
249.166048
 30
0.0
 11
186.204177
 21
206.981317
 31
0.0
  0
LINE
  5
1BE
100
AcDbEntity
  8
0
370
    -3
  6
Continuous
100
AcDbLine
 10
189.204177
 20
245.982584
 30
0.0
 11
194.204177
 21
245.982584
 31
0.0
  0
LINE
  5
1BF
100
AcDbEntity
  8
0
370
    -3
  6
Continuous
100
AcDbLine
 10
186.204177
 20
262.481317
 30
0.0
 11
186.204177
 21
263.481317
 31
0.0
  0
LINE
  5
1C0
100
AcDbEntity
  8
0
370
    -3
  6
Continuous
100
AcDbLine
 10
189.204177
 20
259.077624
 30
0.0
 11
194.204177
 21
259.077624
 31
0.0
  0
LINE
  5
1C1
100
AcDbEntity
  8
0
370
    -3
  6
Continuous
100
AcDbLine
 10
189.204177
 20
252.166048
 30
0.0
 11
194.204177
 21
252.166048
 31
0.0
  0
LINE
  5
1C2
100
AcDbEntity
  8
0
370
    -3
  6
Continuous
100
AcDbLine
 10
189.204177
 20
161.796586
 30
0.0
 11
194.204177
 21
161.796586
 31
0.0
  0
LINE
  5
1C3
100
AcDbEntity
  8
0
370
    -3
  6
Continuous
100
AcDbLine
 10
189.204177
 20
154.885009
 30
0.0
 11
194.204177
 21
154.885009
 31
0.0
  0
LINE
  5
1C4
100
AcDbEntity
  8
0
370
    -3
  6
Continuous
100
AcDbLine
 10
180.204177
 20
226.981317
 30
0.0
 11
186.204177
 21
226.981317
 31
0.0
  0
LINE
  5
1C5
100
AcDbEntity
  8
0
370
    -3
  6
Continuous
100
AcDbLine
 10
180.204177
 20
186.981317
 30
0.0
 11
186.204177
 21
186.981317
 31
0.0
  0
LINE
  5
1C6
100
AcDbEntity
  8
0
370
    -3
  6
CENTER
100
AcDbLine
 10
326.704411
 20
283.697061
 30
0.0
 11
326.704411
 21
82.340455
 31
0.0
  0
LINE
  5
1C7
100
AcDbEntity
  8
0
370
    -3
  6
Continuous
100
AcDbLine
 10
180.204177
 20
266.463862
 30
0.0
 11
194.152805
 21
266.719878
 31
0.0
  0
LINE
  5
1C8
100
AcDbEntity
  8
0
370
    -3
  6
Continuous
100
AcDbLine
 10
180.204177
 20
147.498772
 30
0.0
 11
194.152805
 21
147.242756
 31
0.0
  0
LINE
  5
1C9
100
AcDbEntity
  8
0
370
    -3
  6
Continuous
100
AcDbLine
 10
200.204177
 20
162.981715
 30
0.0
 11
206.703865
 21
162.981715
 31
0.0
  0
LINE
  5
1CA
100
AcDbEntity
  8
0
370
    -3
  6
Continuous
100
AcDbLine
 10
374.204411
 20
269.981715
 30
0.0
 11
374.204411
 21
264.981317
 31
0.0
  0
LINE
  5
1CB
100
AcDbEntity
  8
0
370
    -3
  6
Continuous
100
AcDbLine
 10
326.933084
 20
269.981715
 30
0.0
 11
374.204411
 21
269.981715
 31
0.0
  0
LINE
  5
1CC
100
AcDbEntity
  8
0
370
    -3
  6
Continuous
100
AcDbLine
 10
279.204411
 20
269.981715
 30
0.0
 11
279.204411
 21
264.981317
 31
0.0
  0
LINE
  5
1CD
100
AcDbEntity
  8
0
370
    -3
  6
Continuous
100
AcDbLine
 10
326.933084
 20
269.981715
 30
0.0
 11
279.204411
 21
269.981715
 31
0.0
  0
LINE
  5
1CE
100
AcDbEntity
  8
0
370
    -3
  6
Continuous
100
AcDbLine
 10
374.204411
 20
143.981317
 30
0.0
 11
279.204411
 21
143.981317
 31
0.0
  0
LINE
  5
1CF
100
AcDbEntity
  8
0
370
    -3
  6
Continuous
100
AcDbLine
 10
374.204411
 20
143.981317
 30
0.0
 11
374.204411
 21
148.981317
 31
0.0
  0
LINE
  5
1D0
100
AcDbEntity
  8
0
370
    -3
  6
Continuous
100
AcDbLine
 10
279.204411
 20
143.981317
 30
0.0
 11
279.204411
 21
148.981317
 31
0.0
  0
LINE
  5
1D1
100
AcDbEntity
  8
0
370
    -3
  6
Continuous
100
AcDbLine
 10
309.204013
 20
143.980919
 30
0.0
 11
309.204013
 21
142.381056
 31
0.0
  0
LINE
  5
1D2
100
AcDbEntity
  8
0
370
    -3
  6
Continuous
100
AcDbLine
 10
344.204013
 20
143.980919
 30
0.0
 11
344.204013
 21
142.381056
 31
0.0
  0
ARC
  5
1D3
100
AcDbEntity
  8
0
370
    -3
  6
Continuous
100
AcDbCircle
 10
309.604013
 20
142.381056
 30
0.0
 40
0.4
100
AcDbArc
 50
180.0
 51
270.0
  0
ARC
  5
1D4
100
AcDbEntity
  8
0
370
    -3
  6
Continuous
100
AcDbCircle
 10
310.304013
 20
141.581056
 30
0.0
 40
0.4
100
AcDbArc
 50
0.0
 51
90.0
  0
LINE
  5
1D5
100
AcDbEntity
  8
0
370
    -3
  6
Continuous
100
AcDbLine
 10
310.704013
 20
141.581056
 30
0.0
 11
310.704013
 21
87.781124
 31
0.0
  0
LINE
  5
1D6
100
AcDbEntity
  8
0
370
    -3
  6
Continuous
100
AcDbLine
 10
309.604013
 20
141.981056
 30
0.0
 11
343.804013
 21
141.981056
 31
0.0
  0
ARC
  5
1D7
100
AcDbEntity
  8
0
370
    -3
  6
Continuous
100
AcDbCircle
 10
311.504013
 20
87.781124
 30
0.0
 40
0.8
100
AcDbArc
 50
180.0
 51
270.0
  0
LINE
  5
1D8
100
AcDbEntity
  8
0
370
    -3
  6
Continuous
100
AcDbLine
 10
310.704013
 20
86.981124
 30
0.0
 11
341.904013
 21
86.981124
 31
0.0
  0
ARC
  5
1D9
100
AcDbEntity
  8
0
370
    -3
  6
Continuous
100
AcDbCircle
 10
343.804013
 20
142.381056
 30
0.0
 40
0.4
100
AcDbArc
 50
270.0
 51
0.0
  0
ARC
  5
1DA
100
AcDbEntity
  8
0
370
    -3
  6
Continuous
100
AcDbCircle
 10
343.104013
 20
141.581056
 30
0.0
 40
0.4
100
AcDbArc
 50
90.0
 51
180.0
  0
LINE
  5
1DB
100
AcDbEntity
  8
0
370
    -3
  6
Continuous
100
AcDbLine
 10
342.704013
 20
141.581056
 30
0.0
 11
342.704013
 21
87.781124
 31
0.0
  0
ARC
  5
1DC
100
AcDbEntity
  8
0
370
    -3
  6
Continuous
100
AcDbCircle
 10
341.904013
 20
87.781124
 30
0.0
 40
0.8
100
AcDbArc
 50
270.0
 51
0.0
  0
LINE
  5
1DD
100
AcDbEntity
  8
0
370
    -3
  6
Continuous
100
AcDbLine
 10
331.704411
 20
86.981124
 30
0.0
 11
331.704411
 21
126.981124
 31
0.0
  0
LINE
  5
1DE
100
AcDbEntity
  8
0
370
    -3
  6
Continuous
100
AcDbLine
 10
321.704411
 20
126.981124
 30
0.0
 11
331.704411
 21
126.981124
 31
0.0
  0
LINE
  5
1DF
100
AcDbEntity
  8
0
370
    -3
  6
Continuous
100
AcDbLine
 10
321.704411
 20
86.981124
 30
0.0
 11
321.704411
 21
126.981124
 31
0.0
  0
ARC
  5
1E0
100
AcDbEntity
  8
0
370
    -3
  6
Continuous
100
AcDbCircle
 10
326.704411
 20
126.981124
 30
0.0
 40
5.0
100
AcDbArc
 50
0.0
 51
180.0
  0
ARC
  5
1E1
100
AcDbEntity
  8
0
370
    -3
  6
Continuous
100
AcDbCircle
 10
206.703865
 20
160.981715
 30
0.0
 40
2.0
100
AcDbArc
 50
1.0
 51
90.0
  0
ARC
  5
1E2
100
AcDbEntity
  8
0
370
    -3
  6
Continuous
100
AcDbCircle
 10
208.309738
 20
252.981317
 30
0.0
 40
2.0
100
AcDbArc
 50
270.0
 51
359.0
  0
LINE
  5
1E3
100
AcDbEntity
  8
0
370
    -3
  6
Continuous
100
AcDbLine
 10
180.204177
 20
206.981317
 30
0.0
 11
180.204177
 21
147.481317
 31
0.0
  0
LINE
  5
1E4
100
AcDbEntity
  8
0
370
    -3
  6
Continuous
100
AcDbLine
 10
180.204177
 20
206.981317
 30
0.0
 11
180.204177
 21
266.481317
 31
0.0
  0
LINE
  5
1E5
100
AcDbEntity
  8
0
370
    -3
  6
Continuous
100
AcDbLine
 10
180.204177
 20
265.481317
 30
0.0
 11
41.204177
 21
265.481317
 31
0.0
  0
LINE
  5
1E6
100
AcDbEntity
  8
0
370
    -3
  6
Continuous
100
AcDbLine
 10
37.073177
 20
265.481317
 30
0.0
 11
41.204177
 21
265.481317
 31
0.0
  0
ARC
  5
1E7
100
AcDbEntity
  8
0
370
    -3
  6
Continuous
100
AcDbCircle
 10
36.44418
 20
251.175494
 30
0.0
 40
5.539999
100
AcDbArc
 50
155.47075
 51
176.688629
  0
LINE
  5
1E8
100
AcDbEntity
  8
0
370
    -3
  6
Continuous
100
AcDbLine
 10
31.404174
 20
253.475471
 30
0.0
 11
34.267367
 21
253.475483
 31
0.0
  0
LINE
  5
1E9
100
AcDbEntity
  8
0
370
    -3
  6
Continuous
100
AcDbLine
 10
34.404162
 20
255.775485
 30
0.0
 11
34.404171
 21
253.513617
 31
0.0
  0
ARC
  5
1EA
100
AcDbEntity
  8
0
370
    -3
  6
Continuous
100
AcDbCircle
 10
32.474166
 20
254.625477
 30
0.0
 40
1.57
100
AcDbArc
 50
180.000255
 51
227.100256
  0
LINE
  5
1EB
100
AcDbEntity
  8
0
370
    -3
  6
Continuous
100
AcDbLine
 10
30.904169
 20
255.075464
 30
0.0
 11
30.904184
 21
251.48623
 31
0.0
  0
LINE
  5
1EC
100
AcDbEntity
  8
0
370
    -3
  6
Continuous
100
AcDbLine
 10
31.404184
 20
255.775453
 30
0.0
 11
30.90419
 21
255.07545
 31
0.0
  0
LINE
  5
1ED
100
AcDbEntity
  8
0
370
    -3
  6
Continuous
100
AcDbLine
 10
35.704155
 20
255.775485
 30
0.0
 11
31.404165
 21
255.775468
 31
0.0
  0
LINE
  5
1EE
100
AcDbEntity
  8
0
370
    -3
  6
Continuous
100
AcDbLine
 10
41.204177
 20
263.981317
 30
0.0
 11
180.204177
 21
263.981317
 31
0.0
  0
LINE
  5
1EF
100
AcDbEntity
  8
0
370
    -3
  6
Continuous
100
AcDbLine
 10
41.204177
 20
264.481317
 30
0.0
 11
180.204177
 21
264.481317
 31
0.0
  0
LINE
  5
1F0
100
AcDbEntity
  8
0
370
    -3
  6
Continuous
100
AcDbLine
 10
41.204177
 20
262.981317
 30
0.0
 11
180.204177
 21
262.981317
 31
0.0
  0
LINE
  5
1F1
100
AcDbEntity
  8
0
370
    -3
  6
Continuous
100
AcDbLine
 10
41.204177
 20
261.981317
 30
0.0
 11
180.204177
 21
261.981317
 31
0.0
  0
LINE
  5
1F2
100
AcDbEntity
  8
0
370
    -3
  6
Continuous
100
AcDbLine
 10
41.204177
 20
257.296852
 30
0.0
 11
180.204177
 21
257.296852
 31
0.0
  0
LINE
  5
1F3
100
AcDbEntity
  8
0
370
    -3
  6
Continuous
100
AcDbLine
 10
41.204177
 20
265.481317
 30
0.0
 11
41.204177
 21
253.781317
 31
0.0
  0
LINE
  5
1F4
100
AcDbEntity
  8
0
370
    -3
  6
Continuous
100
AcDbLine
 10
40.704177
 20
253.781317
 30
0.0
 11
40.704177
 21
257.612726
 31
0.0
  0
LINE
  5
1F5
100
AcDbEntity
  8
0
370
    -3
  6
Continuous
100
AcDbLine
 10
35.704177
 20
253.747463
 30
0.0
 11
35.704177
 21
257.112726
 31
0.0
  0
ARC
  5
1F6
100
AcDbEntity
  8
0
370
    -3
  6
Continuous
100
AcDbCircle
 10
733.704177
 20
206.981317
 30
0.0
 40
700.0
100
AcDbArc
 50
175.281496
 51
176.002902
  0
ARC
  5
1F7
100
AcDbEntity
  8
0
370
    -3
  6
Continuous
100
AcDbCircle
 10
37.073177
 20
264.481317
 30
0.0
 40
1.0
100
AcDbArc
 50
90.0
 51
175.281496
  0
LINE
  5
1F8
100
AcDbEntity
  8
0
370
    -3
  6
Continuous
100
AcDbLine
 10
36.204177
 20
257.612726
 30
0.0
 11
40.704177
 21
257.612726
 31
0.0
  0
ARC
  5
1F9
100
AcDbEntity
  8
0
370
    -3
  6
Continuous
100
AcDbCircle
 10
36.204177
 20
257.112726
 30
0.0
 40
0.5
100
AcDbArc
 50
90.0
 51
180.0
  0
ARC
  5
1FA
100
AcDbEntity
  8
0
370
    -3
  6
Continuous
100
AcDbCircle
 10
36.44418
 20
162.787147
 30
0.0
 40
5.539999
100
AcDbArc
 50
183.311438
 51
204.529813
  0
ARC
  5
1FB
100
AcDbEntity
  8
0
370
    -3
  6
Continuous
100
AcDbCircle
 10
32.474193
 20
159.337131
 30
0.0
 40
1.57
100
AcDbArc
 50
132.900254
 51
180.000255
  0
LINE
  5
1FC
100
AcDbEntity
  8
0
370
    -3
  6
Continuous
100
AcDbLine
 10
31.404192
 20
160.48713
 30
0.0
 11
34.267414
 21
160.487139
 31
0.0
  0
LINE
  5
1FD
100
AcDbEntity
  8
0
370
    -3
  6
Continuous
100
AcDbLine
 10
41.204177
 20
148.481317
 30
0.0
 11
41.204177
 21
160.181317
 31
0.0
  0
LINE
  5
1FE
100
AcDbEntity
  8
0
370
    -3
  6
Continuous
100
AcDbLine
 10
41.204177
 20
149.981317
 30
0.0
 11
180.204177
 21
149.981317
 31
0.0
  0
LINE
  5
1FF
100
AcDbEntity
  8
0
370
    -3
  6
Continuous
100
AcDbLine
 10
41.204177
 20
149.481317
 30
0.0
 11
180.204177
 21
149.481317
 31
0.0
  0
LINE
  5
200
100
AcDbEntity
  8
0
370
    -3
  6
Continuous
100
AcDbLine
 10
41.204177
 20
150.981317
 30
0.0
 11
180.204177
 21
150.981317
 31
0.0
  0
LINE
  5
201
100
AcDbEntity
  8
0
370
    -3
  6
Continuous
100
AcDbLine
 10
41.204177
 20
151.981317
 30
0.0
 11
180.204177
 21
151.981317
 31
0.0
  0
LINE
  5
202
100
AcDbEntity
  8
0
370
    -3
  6
Continuous
100
AcDbLine
 10
41.204177
 20
156.665783
 30
0.0
 11
180.204177
 21
156.665783
 31
0.0
  0
LINE
  5
203
100
AcDbEntity
  8
0
370
    -3
  6
Continuous
100
AcDbLine
 10
180.204177
 20
148.481317
 30
0.0
 11
41.204177
 21
148.481317
 31
0.0
  0
ARC
  5
204
100
AcDbEntity
  8
0
370
    -3
  6
Continuous
100
AcDbCircle
 10
733.704177
 20
206.981317
 30
0.0
 40
700.0
100
AcDbArc
 50
183.997099
 51
184.718504
  0
LINE
  5
205
100
AcDbEntity
  8
0
370
    -3
  6
Continuous
100
AcDbLine
 10
35.704177
 20
160.181317
 30
0.0
 11
35.704177
 21
156.849909
 31
0.0
  0
LINE
  5
206
100
AcDbEntity
  8
0
370
    -3
  6
Continuous
100
AcDbLine
 10
40.704177
 20
160.181317
 30
0.0
 11
40.704177
 21
156.349909
 31
0.0
  0
LINE
  5
207
100
AcDbEntity
  8
0
370
    -3
  6
Continuous
100
AcDbLine
 10
41.204177
 20
148.481317
 30
0.0
 11
41.204177
 21
160.181317
 31
0.0
  0
ARC
  5
208
100
AcDbEntity
  8
0
370
    -3
  6
Continuous
100
AcDbCircle
 10
37.073177
 20
149.481317
 30
0.0
 40
1.0
100
AcDbArc
 50
184.718504
 51
270.0
  0
LINE
  5
209
100
AcDbEntity
  8
0
370
    -3
  6
Continuous
100
AcDbLine
 10
37.073177
 20
148.481317
 30
0.0
 11
41.204177
 21
148.481317
 31
0.0
  0
LINE
  5
20A
100
AcDbEntity
  8
0
370
    -3
  6
Continuous
100
AcDbLine
 10
36.204177
 20
156.349909
 30
0.0
 11
40.704177
 21
156.349909
 31
0.0
  0
ARC
  5
20B
100
AcDbEntity
  8
0
370
    -3
  6
Continuous
100
AcDbCircle
 10
36.204177
 20
156.849909
 30
0.0
 40
0.5
100
AcDbArc
 50
180.0
 51
270.0
  0
LINE
  5
20C
100
AcDbEntity
  8
0
370
    -3
  6
Continuous
100
AcDbLine
 10
34.40419
 20
160.449013
 30
0.0
 11
34.404199
 21
158.18714
 31
0.0
  0
LINE
  5
20D
100
AcDbEntity
  8
0
370
    -3
  6
Continuous
100
AcDbLine
 10
35.704196
 20
158.187152
 30
0.0
 11
35.704188
 21
160.215171
 31
0.0
  0
LINE
  5
20E
100
AcDbEntity
  8
0
370
    -3
  6
Continuous
100
AcDbLine
 10
31.404202
 20
158.187129
 30
0.0
 11
35.704193
 21
158.187146
 31
0.0
  0
LINE
  5
20F
100
AcDbEntity
  8
0
370
    -3
  6
Continuous
100
AcDbLine
 10
30.904217
 20
158.887142
 30
0.0
 11
31.404218
 21
158.187145
 31
0.0
  0
LINE
  5
210
100
AcDbEntity
  8
0
370
    -3
  6
Continuous
100
AcDbLine
 10
30.904186
 20
162.476403
 30
0.0
 11
30.904201
 21
158.887131
 31
0.0
  0
LINE
  5
211
100
AcDbEntity
  8
0
370
    -3
  6
Continuous
100
AcDbLine
 10
123.809058
 20
161.615531
 30
0.0
 11
180.204177
 21
161.615531
 31
0.0
  0
LINE
  5
212
100
AcDbEntity
  8
0
370
    -3
  6
Continuous
100
AcDbLine
 10
123.809058
 20
252.347104
 30
0.0
 11
180.204177
 21
252.347104
 31
0.0
  0
LINE
  5
213
100
AcDbEntity
  8
0
370
    -3
  6
Continuous
100
AcDbLine
 10
127.101646
 20
225.731317
 30
0.0
 11
180.204177
 21
225.731317
 31
0.0
  0
LINE
  5
214
100
AcDbEntity
  8
0
370
    -3
  6
Continuous
100
AcDbLine
 10
127.101646
 20
174.830796
 30
0.0
 11
180.204177
 21
174.830796
 31
0.0
  0
LINE
  5
215
100
AcDbEntity
  8
0
370
    -3
  6
Continuous
100
AcDbLine
 10
127.101646
 20
171.622197
 30
0.0
 11
180.204177
 21
171.622197
 31
0.0
  0
LINE
  5
216
100
AcDbEntity
  8
0
370
    -3
  6
Continuous
100
AcDbLine
 10
127.048436
 20
169.285498
 30
0.0
 11
180.204177
 21
169.285498
 31
0.0
  0
LINE
  5
217
100
AcDbEntity
  8
0
370
    -3
  6
Continuous
100
AcDbLine
 10
127.101646
 20
188.231317
 30
0.0
 11
180.204177
 21
188.231317
 31
0.0
  0
LINE
  5
218
100
AcDbEntity
  8
0
370
    -3
  6
Continuous
100
AcDbLine
 10
127.101646
 20
180.392709
 30
0.0
 11
180.204177
 21
180.392709
 31
0.0
  0
LINE
  5
219
100
AcDbEntity
  8
0
370
    -3
  6
Continuous
100
AcDbLine
 10
127.101646
 20
182.516934
 30
0.0
 11
180.204177
 21
182.516934
 31
0.0
  0
LINE
  5
21A
100
AcDbEntity
  8
0
370
    -3
  6
Continuous
100
AcDbLine
 10
127.101646
 20
177.0602
 30
0.0
 11
180.204177
 21
177.0602
 31
0.0
  0
LINE
  5
21B
100
AcDbEntity
  8
0
370
    -3
  6
Continuous
100
AcDbLine
 10
180.204177
 20
265.481317
 30
0.0
 11
180.204177
 21
206.981317
 31
0.0
  0
LINE
  5
21C
100
AcDbEntity
  8
0
370
    -3
  6
Continuous
100
AcDbLine
 10
180.204177
 20
148.481317
 30
0.0
 11
180.204177
 21
206.981317
 31
0.0
  0
LINE
  5
21D
100
AcDbEntity
  8
0
370
    -3
  6
Continuous
100
AcDbLine
 10
127.101646
 20
244.677137
 30
0.0
 11
180.204177
 21
244.677137
 31
0.0
  0
LINE
  5
21E
100
AcDbEntity
  8
0
370
    -3
  6
Continuous
100
AcDbLine
 10
127.101646
 20
242.340438
 30
0.0
 11
180.204177
 21
242.340438
 31
0.0
  0
LINE
  5
21F
100
AcDbEntity
  8
0
370
    -3
  6
Continuous
100
AcDbLine
 10
127.101646
 20
239.131839
 30
0.0
 11
180.204177
 21
239.131839
 31
0.0
  0
LINE
  5
220
100
AcDbEntity
  8
0
370
    -3
  6
Continuous
100
AcDbLine
 10
127.101646
 20
236.902435
 30
0.0
 11
180.204177
 21
236.902435
 31
0.0
  0
LINE
  5
221
100
AcDbEntity
  8
0
370
    -3
  6
Continuous
100
AcDbLine
 10
127.101646
 20
233.569926
 30
0.0
 11
180.204177
 21
233.569926
 31
0.0
  0
LINE
  5
222
100
AcDbEntity
  8
0
370
    -3
  6
Continuous
100
AcDbLine
 10
127.101646
 20
231.445701
 30
0.0
 11
180.204177
 21
231.445701
 31
0.0
  0
LINE
  5
223
100
AcDbEntity
  8
0
370
    -3
  6
Continuous
100
AcDbLine
 10
63.03503
 20
-61.209326
 30
0.0
 11
101.373324
 21
-61.209326
 31
0.0
  0
LINE
  5
224
100
AcDbEntity
  8
0
370
    -3
  6
Continuous
100
AcDbLine
 10
108.996971
 20
-61.209326
 30
0.0
 11
180.204177
 21
-61.209326
 31
0.0
  0
LINE
  5
225
100
AcDbEntity
  8
0
370
    -3
  6
Continuous
100
AcDbLine
 10
180.204177
 20
-180.209326
 30
0.0
 11
180.204177
 21
-61.209326
 31
0.0
  0
LINE
  5
226
100
AcDbEntity
  8
0
370
    -3
  6
Continuous
100
AcDbLine
 10
123.204177
 20
-180.209326
 30
0.0
 11
180.204177
 21
-180.209326
 31
0.0
  0
LINE
  5
227
100
AcDbEntity
  8
0
370
    -3
  6
Continuous
100
AcDbLine
 10
180.204177
 20
-180.209326
 30
0.0
 11
180.204177
 21
-61.209326
 31
0.0
  0
LINE
  5
228
100
AcDbEntity
  8
0
370
    -3
  6
Continuous
100
AcDbLine
 10
321.704411
 20
-85.704071
 30
0.0
 11
321.704411
 21
-93.704071
 31
0.0
  0
LINE
  5
229
100
AcDbEntity
  8
0
370
    -3
  6
Continuous
100
AcDbLine
 10
331.704411
 20
-93.704071
 30
0.0
 11
321.704411
 21
-93.704071
 31
0.0
  0
LINE
  5
22A
100
AcDbEntity
  8
0
370
    -3
  6
Continuous
100
AcDbLine
 10
331.704411
 20
-85.704071
 30
0.0
 11
331.704411
 21
-93.704071
 31
0.0
  0
LINE
  5
22B
100
AcDbEntity
  8
0
370
    -3
  6
Continuous
100
AcDbLine
 10
321.704411
 20
-85.704071
 30
0.0
 11
331.704411
 21
-85.704071
 31
0.0
  0
CIRCLE
  5
22C
100
AcDbEntity
  8
0
370
    -3
  6
Continuous
100
AcDbCircle
 10
326.704411
 20
-104.704071
 30
0.0
 40
3.5
  0
CIRCLE
  5
22D
100
AcDbEntity
  8
0
370
    -3
  6
Continuous
100
AcDbCircle
 10
326.704411
 20
-104.704071
 30
0.0
 40
4.0
  0
ARC
  5
22E
100
AcDbEntity
  8
0
370
    -3
  6
Continuous
100
AcDbCircle
 10
326.704411
 20
-104.704071
 30
0.0
 40
16.0
100
AcDbArc
 50
108.209957
 51
71.790043
  0
LINE
  5
22F
100
AcDbEntity
  8
0
370
    -3
  6
Continuous
100
AcDbLine
 10
386.704411
 20
-33.704071
 30
0.0
 11
221.704411
 21
-33.704071
 31
0.0
  0
LINE
  5
230
100
AcDbEntity
  8
0
370
    -3
  6
Continuous
100
AcDbLine
 10
210.704411
 20
-44.704071
 30
0.0
 11
210.704411
 21
-196.704071
 31
0.0
  0
LINE
  5
231
100
AcDbEntity
  8
0
370
    -3
  6
Continuous
100
AcDbLine
 10
221.704411
 20
-207.704071
 30
0.0
 11
386.704411
 21
-207.704071
 31
0.0
  0
LINE
  5
232
100
AcDbEntity
  8
0
370
    -3
  6
Continuous
100
AcDbLine
 10
397.704411
 20
-196.704071
 30
0.0
 11
397.704411
 21
-44.704071
 31
0.0
  0
ARC
  5
233
100
AcDbEntity
  8
0
370
    -3
  6
Continuous
100
AcDbCircle
 10
379.704411
 20
-169.026145
 30
0.0
 40
7.5
100
AcDbArc
 50
279.206896
 51
0.0
  0
LINE
  5
234
100
AcDbEntity
  8
0
370
    -3
  6
Continuous
100
AcDbLine
 10
387.204411
 20
-169.026145
 30
0.0
 11
387.204411
 21
-72.381996
 31
0.0
  0
ARC
  5
235
100
AcDbEntity
  8
0
370
    -3
  6
Continuous
100
AcDbCircle
 10
379.704411
 20
-72.381996
 30
0.0
 40
7.5
100
AcDbArc
 50
0.0
 51
80.793104
  0
ARC
  5
236
100
AcDbEntity
  8
0
370
    -3
  6
Continuous
100
AcDbCircle
 10
383.704411
 20
-47.704071
 30
0.0
 40
17.5
100
AcDbArc
 50
211.5123
 51
260.793104
  0
ARC
  5
237
100
AcDbEntity
  8
0
370
    -3
  6
Continuous
100
AcDbCircle
 10
365.801323
 20
-58.680384
 30
0.0
 40
3.5
100
AcDbArc
 50
31.5123
 51
86.955283
  0
ARC
  5
238
100
AcDbEntity
  8
0
370
    -3
  6
Continuous
100
AcDbCircle
 10
366.704284
 20
-41.704382
 30
0.0
 40
13.5
100
AcDbArc
 50
200.666196
 51
266.955283
  0
ARC
  5
239
100
AcDbEntity
  8
0
370
    -3
  6
Continuous
100
AcDbCircle
 10
350.798192
 20
-47.704071
 30
0.0
 40
3.5
100
AcDbArc
 50
20.666196
 51
90.0
  0
LINE
  5
23A
100
AcDbEntity
  8
0
370
    -3
  6
Continuous
100
AcDbLine
 10
350.798192
 20
-44.204071
 30
0.0
 11
258.610375
 21
-44.204071
 31
0.0
  0
ARC
  5
23B
100
AcDbEntity
  8
0
370
    -3
  6
Continuous
100
AcDbCircle
 10
258.610375
 20
-47.704071
 30
0.0
 40
3.5
100
AcDbArc
 50
90.0
 51
159.333804
  0
ARC
  5
23C
100
AcDbEntity
  8
0
370
    -3
  6
Continuous
100
AcDbCircle
 10
242.704284
 20
-41.704382
 30
0.0
 40
13.5
100
AcDbArc
 50
269.624891
 51
339.333804
  0
ARC
  5
23D
100
AcDbEntity
  8
0
370
    -3
  6
Continuous
100
AcDbCircle
 10
242.592987
 20
-58.704017
 30
0.0
 40
3.5
100
AcDbArc
 50
89.624891
 51
148.412035
  0
ARC
  5
23E
100
AcDbEntity
  8
0
370
    -3
  6
Continuous
100
AcDbCircle
 10
224.704411
 20
-47.704071
 30
0.0
 40
17.5
100
AcDbArc
 50
279.206896
 51
328.412035
  0
ARC
  5
23F
100
AcDbEntity
  8
0
370
    -3
  6
Continuous
100
AcDbCircle
 10
228.704411
 20
-72.381996
 30
0.0
 40
7.5
100
AcDbArc
 50
99.206896
 51
180.0
  0
LINE
  5
240
100
AcDbEntity
  8
0
370
    -3
  6
Continuous
100
AcDbLine
 10
221.204411
 20
-72.381996
 30
0.0
 11
221.204411
 21
-169.026145
 31
0.0
  0
ARC
  5
241
100
AcDbEntity
  8
0
370
    -3
  6
Continuous
100
AcDbCircle
 10
228.704411
 20
-169.026145
 30
0.0
 40
7.5
100
AcDbArc
 50
180.0
 51
260.793104
  0
ARC
  5
242
100
AcDbEntity
  8
0
370
    -3
  6
Continuous
100
AcDbCircle
 10
224.704411
 20
-193.704071
 30
0.0
 40
17.5
100
AcDbArc
 50
31.58598
 51
80.793104
  0
ARC
  5
243
100
AcDbEntity
  8
0
370
    -3
  6
Continuous
100
AcDbCircle
 10
242.593368
 20
-182.704744
 30
0.0
 40
3.5
100
AcDbArc
 50
211.58598
 51
270.373825
  0
ARC
  5
244
100
AcDbEntity
  8
0
370
    -3
  6
Continuous
100
AcDbCircle
 10
242.704284
 20
-199.704382
 30
0.0
 40
13.5
100
AcDbArc
 50
20.668437
 51
90.373825
  0
ARC
  5
245
100
AcDbEntity
  8
0
370
    -3
  6
Continuous
100
AcDbCircle
 10
258.61014
 20
-193.704071
 30
0.0
 40
3.5
100
AcDbArc
 50
200.668437
 51
270.0
  0
LINE
  5
246
100
AcDbEntity
  8
0
370
    -3
  6
Continuous
100
AcDbLine
 10
258.61014
 20
-197.204071
 30
0.0
 11
350.798427
 21
-197.204071
 31
0.0
  0
ARC
  5
247
100
AcDbEntity
  8
0
370
    -3
  6
Continuous
100
AcDbCircle
 10
350.798427
 20
-193.704071
 30
0.0
 40
3.5
100
AcDbArc
 50
270.0
 51
339.331563
  0
ARC
  5
248
100
AcDbEntity
  8
0
370
    -3
  6
Continuous
100
AcDbCircle
 10
366.704284
 20
-199.704382
 30
0.0
 40
13.5
100
AcDbArc
 50
93.046047
 51
159.331563
  0
ARC
  5
249
100
AcDbEntity
  8
0
370
    -3
  6
Continuous
100
AcDbCircle
 10
365.800929
 20
-182.7284
 30
0.0
 40
3.5
100
AcDbArc
 50
273.046047
 51
328.489758
  0
ARC
  5
24A
100
AcDbEntity
  8
0
370
    -3
  6
Continuous
100
AcDbCircle
 10
383.704411
 20
-193.704071
 30
0.0
 40
17.5
100
AcDbArc
 50
99.206896
 51
148.489758
  0
ARC
  5
24B
100
AcDbEntity
  8
0
370
    -3
  6
Continuous
100
AcDbCircle
 10
221.704411
 20
-44.704071
 30
0.0
 40
12.0
100
AcDbArc
 50
90.0
 51
180.0
  0
ARC
  5
24C
100
AcDbEntity
  8
0
370
    -3
  6
Continuous
100
AcDbCircle
 10
221.704411
 20
-44.704071
 30
0.0
 40
11.0
100
AcDbArc
 50
90.0
 51
180.0
  0
ARC
  5
24D
100
AcDbEntity
  8
0
370
    -3
  6
Continuous
100
AcDbCircle
 10
386.704411
 20
-44.704071
 30
0.0
 40
11.0
100
AcDbArc
 50
0.0
 51
90.0
  0
ARC
  5
24E
100
AcDbEntity
  8
0
370
    -3
  6
Continuous
100
AcDbCircle
 10
386.704411
 20
-44.704071
 30
0.0
 40
12.0
100
AcDbArc
 50
0.0
 51
90.0
  0
ARC
  5
24F
100
AcDbEntity
  8
0
370
    -3
  6
Continuous
100
AcDbCircle
 10
221.704411
 20
-196.704071
 30
0.0
 40
12.0
100
AcDbArc
 50
180.0
 51
270.0
  0
ARC
  5
250
100
AcDbEntity
  8
0
370
    -3
  6
Continuous
100
AcDbCircle
 10
386.704411
 20
-196.704071
 30
0.0
 40
12.0
100
AcDbArc
 50
270.0
 51
0.0
  0
ARC
  5
251
100
AcDbEntity
  8
0
370
    -3
  6
Continuous
100
AcDbCircle
 10
386.704411
 20
-196.704071
 30
0.0
 40
11.0
100
AcDbArc
 50
270.0
 51
0.0
  0
ARC
  5
252
100
AcDbEntity
  8
0
370
    -3
  6
Continuous
100
AcDbCircle
 10
221.704411
 20
-196.704071
 30
0.0
 40
11.0
100
AcDbArc
 50
180.0
 51
270.0
  0
LINE
  5
253
100
AcDbEntity
  8
0
370
    -3
  6
Continuous
100
AcDbLine
 10
219.204411
 20
-169.026145
 30
0.0
 11
219.204411
 21
-72.381996
 31
0.0
  0
ARC
  5
254
100
AcDbEntity
  8
0
370
    -3
  6
Continuous
100
AcDbCircle
 10
228.704411
 20
-72.381996
 30
0.0
 40
9.5
100
AcDbArc
 50
99.206896
 51
180.0
  0
ARC
  5
255
100
AcDbEntity
  8
0
370
    -3
  6
Continuous
100
AcDbCircle
 10
224.704411
 20
-47.704071
 30
0.0
 40
15.5
100
AcDbArc
 50
279.206896
 51
328.412035
  0
ARC
  5
256
100
AcDbEntity
  8
0
370
    -3
  6
Continuous
100
AcDbCircle
 10
242.592987
 20
-58.704017
 30
0.0
 40
5.5
100
AcDbArc
 50
89.624891
 51
148.412035
  0
ARC
  5
257
100
AcDbEntity
  8
0
370
    -3
  6
Continuous
100
AcDbCircle
 10
242.704284
 20
-41.704382
 30
0.0
 40
11.5
100
AcDbArc
 50
269.624891
 51
339.333804
  0
ARC
  5
258
100
AcDbEntity
  8
0
370
    -3
  6
Continuous
100
AcDbCircle
 10
258.610375
 20
-47.704071
 30
0.0
 40
5.5
100
AcDbArc
 50
90.0
 51
159.333804
  0
LINE
  5
259
100
AcDbEntity
  8
0
370
    -3
  6
Continuous
100
AcDbLine
 10
258.610375
 20
-42.204071
 30
0.0
 11
350.798192
 21
-42.204071
 31
0.0
  0
ARC
  5
25A
100
AcDbEntity
  8
0
370
    -3
  6
Continuous
100
AcDbCircle
 10
350.798192
 20
-47.704071
 30
0.0
 40
5.5
100
AcDbArc
 50
20.666196
 51
90.0
  0
ARC
  5
25B
100
AcDbEntity
  8
0
370
    -3
  6
Continuous
100
AcDbCircle
 10
366.704284
 20
-41.704382
 30
0.0
 40
11.5
100
AcDbArc
 50
200.666196
 51
266.955283
  0
ARC
  5
25C
100
AcDbEntity
  8
0
370
    -3
  6
Continuous
100
AcDbCircle
 10
365.801323
 20
-58.680384
 30
0.0
 40
5.5
100
AcDbArc
 50
31.5123
 51
86.955283
  0
ARC
  5
25D
100
AcDbEntity
  8
0
370
    -3
  6
Continuous
100
AcDbCircle
 10
383.704411
 20
-47.704071
 30
0.0
 40
15.5
100
AcDbArc
 50
211.5123
 51
260.793104
  0
ARC
  5
25E
100
AcDbEntity
  8
0
370
    -3
  6
Continuous
100
AcDbCircle
 10
379.704411
 20
-72.381996
 30
0.0
 40
9.5
100
AcDbArc
 50
0.0
 51
80.793104
  0
LINE
  5
25F
100
AcDbEntity
  8
0
370
    -3
  6
Continuous
100
AcDbLine
 10
389.204411
 20
-72.381996
 30
0.0
 11
389.204411
 21
-169.026145
 31
0.0
  0
ARC
  5
260
100
AcDbEntity
  8
0
370
    -3
  6
Continuous
100
AcDbCircle
 10
379.704411
 20
-169.026145
 30
0.0
 40
9.5
100
AcDbArc
 50
279.206896
 51
0.0
  0
ARC
  5
261
100
AcDbEntity
  8
0
370
    -3
  6
Continuous
100
AcDbCircle
 10
383.704411
 20
-193.704071
 30
0.0
 40
15.5
100
AcDbArc
 50
99.206896
 51
148.489758
  0
ARC
  5
262
100
AcDbEntity
  8
0
370
    -3
  6
Continuous
100
AcDbCircle
 10
365.800929
 20
-182.7284
 30
0.0
 40
5.5
100
AcDbArc
 50
273.046047
 51
328.489758
  0
ARC
  5
263
100
AcDbEntity
  8
0
370
    -3
  6
Continuous
100
AcDbCircle
 10
366.704284
 20
-199.704382
 30
0.0
 40
11.5
100
AcDbArc
 50
93.046047
 51
159.331563
  0
ARC
  5
264
100
AcDbEntity
  8
0
370
    -3
  6
Continuous
100
AcDbCircle
 10
350.798427
 20
-193.704071
 30
0.0
 40
5.5
100
AcDbArc
 50
270.0
 51
339.331563
  0
LINE
  5
265
100
AcDbEntity
  8
0
370
    -3
  6
Continuous
100
AcDbLine
 10
350.798427
 20
-199.204071
 30
0.0
 11
258.61014
 21
-199.204071
 31
0.0
  0
ARC
  5
266
100
AcDbEntity
  8
0
370
    -3
  6
Continuous
100
AcDbCircle
 10
258.61014
 20
-193.704071
 30
0.0
 40
5.5
100
AcDbArc
 50
200.668437
 51
270.0
  0
ARC
  5
267
100
AcDbEntity
  8
0
370
    -3
  6
Continuous
100
AcDbCircle
 10
242.704284
 20
-199.704382
 30
0.0
 40
11.5
100
AcDbArc
 50
20.668437
 51
90.373825
  0
ARC
  5
268
100
AcDbEntity
  8
0
370
    -3
  6
Continuous
100
AcDbCircle
 10
242.593368
 20
-182.704744
 30
0.0
 40
5.5
100
AcDbArc
 50
211.58598
 51
270.373825
  0
ARC
  5
269
100
AcDbEntity
  8
0
370
    -3
  6
Continuous
100
AcDbCircle
 10
228.704411
 20
-169.026145
 30
0.0
 40
9.5
100
AcDbArc
 50
180.0
 51
260.793104
  0
INSERT
  5
275
100
AcDbEntity
  8
0
100
AcDbBlockReference
  2
ZU_SYM__USERS_HOME_SYMBOL_POO_SYM_B20_-1
 10
242.704284
 20
-199.704382
 30
0.0
  0
INSERT
  5
281
100
AcDbEntity
  8
0
100
AcDbBlockReference
  2
ZU_SYM__USERS_HOME_SYMBOL_POO_SYM_B20_00004-1
 10
366.704284
 20
-199.704382
 30
0.0
  0
INSERT
  5
28D
100
AcDbEntity
  8
0
100
AcDbBlockReference
  2
ZU_SYM__USERS_HOME_SYMBOL_POO_SYM_B20_00005-1
 10
366.704284
 20
-41.704382
 30
0.0
  0
INSERT
  5
299
100
AcDbEntity
  8
0
100
AcDbBlockReference
  2
ZU_SYM__USERS_HOME_SYMBOL_POO_SYM_B20_00006-1
 10
242.704284
 20
-41.704382
 30
0.0
  0
LINE
  5
29A
100
AcDbEntity
  8
0
370
    -3
  6
DASHED
100
AcDbLine
 10
209.704411
 20
-156.150109
 30
0.0
 11
209.704411
 21
-169.930401
 31
0.0
  0
ARC
  5
29B
100
AcDbEntity
  8
0
370
    -3
  6
Continuous
100
AcDbCircle
 10
195.204177
 20
-162.888645
 30
0.0
 40
3.0
100
AcDbArc
 50
270.0
 51
0.0
  0
ARC
  5
29C
100
AcDbEntity
  8
0
370
    -3
  6
Continuous
100
AcDbCircle
 10
195.204177
 20
-169.800222
 30
0.0
 40
3.0
100
AcDbArc
 50
270.0
 51
0.0
  0
ARC
  5
29D
100
AcDbEntity
  8
0
370
    -3
  6
Continuous
100
AcDbCircle
 10
195.204177
 20
-78.519183
 30
0.0
 40
3.0
100
AcDbArc
 50
0.0
 51
90.0
  0
ARC
  5
29E
100
AcDbEntity
  8
0
370
    -3
  6
Continuous
100
AcDbCircle
 10
195.204177
 20
-71.607607
 30
0.0
 40
3.0
100
AcDbArc
 50
0.0
 51
90.0
  0
ARC
  5
29F
100
AcDbEntity
  8
0
370
    -3
  6
Continuous
100
AcDbCircle
 10
195.204177
 20
-63.964914
 30
0.0
 40
3.0
100
AcDbArc
 50
0.0
 51
90.981173
  0
ARC
  5
2A0
100
AcDbEntity
  8
0
370
    -3
  6
Continuous
100
AcDbCircle
 10
195.204177
 20
-177.442915
 30
0.0
 40
3.0
100
AcDbArc
 50
269.018827
 51
0.0
  0
LINE
  5
2A1
100
AcDbEntity
  8
0
370
    -3
  6
Continuous
100
AcDbLine
 10
198.204177
 20
-63.964914
 30
0.0
 11
198.204177
 21
-177.442915
 31
0.0
  0
ARC
  5
2A2
100
AcDbEntity
  8
0
370
    -3
  6
Continuous
100
AcDbCircle
 10
190.204177
 20
-84.702647
 30
0.0
 40
3.0
100
AcDbArc
 50
90.0
 51
180.0
  0
ARC
  5
2A3
100
AcDbEntity
  8
0
370
    -3
  6
Continuous
100
AcDbCircle
 10
190.204177
 20
-65.607607
 30
0.0
 40
3.0
100
AcDbArc
 50
180.0
 51
270.0
  0
ARC
  5
2A4
100
AcDbEntity
  8
0
370
    -3
  6
Continuous
100
AcDbCircle
 10
190.204177
 20
-78.519183
 30
0.0
 40
3.0
100
AcDbArc
 50
90.0
 51
180.0
  0
ARC
  5
2A5
100
AcDbEntity
  8
0
370
    -3
  6
Continuous
100
AcDbCircle
 10
184.204177
 20
-64.203914
 30
0.0
 40
3.0
100
AcDbArc
 50
0.0
 51
90.0
  0
ARC
  5
2A6
100
AcDbEntity
  8
0
370
    -3
  6
Continuous
100
AcDbCircle
 10
184.204177
 20
-177.203914
 30
0.0
 40
3.0
100
AcDbArc
 50
270.0
 51
0.0
  0
ARC
  5
2A7
100
AcDbEntity
  8
0
370
    -3
  6
Continuous
100
AcDbCircle
 10
190.204177
 20
-156.705181
 30
0.0
 40
3.0
100
AcDbArc
 50
180.0
 51
270.0
  0
ARC
  5
2A8
100
AcDbEntity
  8
0
370
    -3
  6
Continuous
100
AcDbCircle
 10
190.204177
 20
-162.888645
 30
0.0
 40
3.0
100
AcDbArc
 50
180.0
 51
270.0
  0
ARC
  5
2A9
100
AcDbEntity
  8
0
370
    -3
  6
Continuous
100
AcDbCircle
 10
190.204177
 20
-175.800222
 30
0.0
 40
3.0
100
AcDbArc
 50
90.0
 51
180.0
  0
LINE
  5
2AA
100
AcDbEntity
  8
0
370
    -3
  6
Continuous
100
AcDbLine
 10
187.204177
 20
-78.519183
 30
0.0
 11
187.204177
 21
-120.703914
 31
0.0
  0
LINE
  5
2AB
100
AcDbEntity
  8
0
370
    -3
  6
Continuous
100
AcDbLine
 10
190.204177
 20
-81.702647
 30
0.0
 11
195.204177
 21
-81.702647
 31
0.0
  0
LINE
  5
2AC
100
AcDbEntity
  8
0
370
    -3
  6
Continuous
100
AcDbLine
 10
187.204177
 20
-65.203914
 30
0.0
 11
187.204177
 21
-65.607607
 31
0.0
  0
LINE
  5
2AD
100
AcDbEntity
  8
0
370
    -3
  6
Continuous
100
AcDbLine
 10
187.204177
 20
-65.203914
 30
0.0
 11
187.204177
 21
-65.607607
 31
0.0
  0
LINE
  5
2AE
100
AcDbEntity
  8
0
370
    -3
  6
Continuous
100
AcDbLine
 10
187.204177
 20
-65.203914
 30
0.0
 11
187.204177
 21
-64.203914
 31
0.0
  0
LINE
  5
2AF
100
AcDbEntity
  8
0
370
    -3
  6
Continuous
100
AcDbLine
 10
187.204177
 20
-176.203914
 30
0.0
 11
187.204177
 21
-175.800222
 31
0.0
  0
LINE
  5
2B0
100
AcDbEntity
  8
0
370
    -3
  6
Continuous
100
AcDbLine
 10
187.204177
 20
-162.888645
 30
0.0
 11
187.204177
 21
-120.703914
 31
0.0
  0
LINE
  5
2B1
100
AcDbEntity
  8
0
370
    -3
  6
Continuous
100
AcDbLine
 10
190.204177
 20
-159.705181
 30
0.0
 11
195.204177
 21
-159.705181
 31
0.0
  0
LINE
  5
2B2
100
AcDbEntity
  8
0
370
    -3
  6
Continuous
100
AcDbLine
 10
187.204177
 20
-176.203914
 30
0.0
 11
187.204177
 21
-177.203914
 31
0.0
  0
LINE
  5
2B3
100
AcDbEntity
  8
0
370
    -3
  6
Continuous
100
AcDbLine
 10
190.204177
 20
-172.800222
 30
0.0
 11
195.204177
 21
-172.800222
 31
0.0
  0
LINE
  5
2B4
100
AcDbEntity
  8
0
370
    -3
  6
Continuous
100
AcDbLine
 10
190.204177
 20
-165.888645
 30
0.0
 11
195.204177
 21
-165.888645
 31
0.0
  0
LINE
  5
2B5
100
AcDbEntity
  8
0
370
    -3
  6
Continuous
100
AcDbLine
 10
190.204177
 20
-75.519183
 30
0.0
 11
195.204177
 21
-75.519183
 31
0.0
  0
LINE
  5
2B6
100
AcDbEntity
  8
0
370
    -3
  6
Continuous
100
AcDbLine
 10
190.204177
 20
-68.607607
 30
0.0
 11
195.204177
 21
-68.607607
 31
0.0
  0
LINE
  5
2B7
100
AcDbEntity
  8
0
370
    -3
  6
Continuous
100
AcDbLine
 10
180.204177
 20
-140.703914
 30
0.0
 11
187.204177
 21
-140.703914
 31
0.0
  0
LINE
  5
2B8
100
AcDbEntity
  8
0
370
    -3
  6
Continuous
100
AcDbLine
 10
180.204177
 20
-100.703914
 30
0.0
 11
187.204177
 21
-100.703914
 31
0.0
  0
CIRCLE
  5
2B9
100
AcDbEntity
  8
0
370
    -3
  6
Continuous
100
AcDbCircle
 10
242.704284
 20
-199.704382
 30
0.0
 40
5.5
  0
CIRCLE
  5
2BA
100
AcDbEntity
  8
0
370
    -3
  6
Continuous
100
AcDbCircle
 10
242.704284
 20
-41.704382
 30
0.0
 40
5.5
  0
CIRCLE
  5
2BB
100
AcDbEntity
  8
0
370
    -3
  6
Continuous
100
AcDbCircle
 10
366.704284
 20
-41.704382
 30
0.0
 40
5.5
  0
CIRCLE
  5
2BC
100
AcDbEntity
  8
0
370
    -3
  6
Continuous
100
AcDbCircle
 10
366.704284
 20
-199.704382
 30
0.0
 40
5.5
  0
LINE
  5
2BD
100
AcDbEntity
  8
0
370
    -3
  6
CENTER
100
AcDbLine
 10
237.308079
 20
-193.704071
 30
0.0
 11
210.704411
 21
-193.704071
 31
0.0
  0
LINE
  5
2BE
100
AcDbEntity
  8
0
370
    -3
  6
CENTER
100
AcDbLine
 10
249.996129
 20
-199.704382
 30
0.0
 11
234.870775
 21
-199.704382
 31
0.0
  0
LINE
  5
2BF
100
AcDbEntity
  8
0
370
    -3
  6
CENTER
100
AcDbLine
 10
249.55861
 20
-41.704382
 30
0.0
 11
235.339243
 21
-41.704382
 31
0.0
  0
LINE
  5
2C0
100
AcDbEntity
  8
0
370
    -3
  6
CENTER
100
AcDbLine
 10
236.6518
 20
-47.704071
 30
0.0
 11
210.704411
 21
-47.704071
 31
0.0
  0
LINE
  5
2C1
100
AcDbEntity
  8
0
370
    -3
  6
CENTER
100
AcDbLine
 10
383.704411
 20
-181.431195
 30
0.0
 11
383.704411
 21
-205.827902
 31
0.0
  0
LINE
  5
2C2
100
AcDbEntity
  8
0
370
    -3
  6
CENTER
100
AcDbLine
 10
366.704284
 20
-191.494132
 30
0.0
 11
366.704284
 21
-206.369776
 31
0.0
  0
LINE
  5
2C3
100
AcDbEntity
  8
0
370
    -3
  6
CENTER
100
AcDbLine
 10
242.704284
 20
-192.15041
 30
0.0
 11
242.704284
 21
-206.588536
 31
0.0
  0
LINE
  5
2C4
100
AcDbEntity
  8
0
370
    -3
  6
CENTER
100
AcDbLine
 10
224.704411
 20
-181.868714
 30
0.0
 11
224.704411
 21
-206.474105
 31
0.0
  0
LINE
  5
2C5
100
AcDbEntity
  8
0
370
    -3
  6
CENTER
100
AcDbLine
 10
242.704284
 20
-34.862341
 30
0.0
 11
242.704284
 21
-49.737986
 31
0.0
  0
LINE
  5
2C6
100
AcDbEntity
  8
0
370
    -3
  6
CENTER
100
AcDbLine
 10
366.704284
 20
-33.748725
 30
0.0
 11
366.704284
 21
-49.956746
 31
0.0
  0
LINE
  5
2C7
100
AcDbEntity
  8
0
370
    -3
  6
CENTER
100
AcDbLine
 10
375.292101
 20
-41.704382
 30
0.0
 11
358.500833
 21
-41.704382
 31
0.0
  0
LINE
  5
2C8
100
AcDbEntity
  8
0
370
    -3
  6
CENTER
100
AcDbLine
 10
374.251515
 20
-199.704382
 30
0.0
 11
358.500833
 21
-199.704382
 31
0.0
  0
LINE
  5
2C9
100
AcDbEntity
  8
0
370
    -3
  6
CENTER
100
AcDbLine
 10
224.704411
 20
-35.704071
 30
0.0
 11
224.704411
 21
-60.67596
 31
0.0
  0
LINE
  5
2CA
100
AcDbEntity
  8
0
370
    -3
  6
CENTER
100
AcDbLine
 10
395.704411
 20
-193.704071
 30
0.0
 11
371.845161
 21
-193.704071
 31
0.0
  0
LINE
  5
2CB
100
AcDbEntity
  8
0
370
    -3
  6
CENTER
100
AcDbLine
 10
395.704411
 20
-47.704071
 30
0.0
 11
372.063921
 21
-47.704071
 31
0.0
  0
LINE
  5
2CC
100
AcDbEntity
  8
0
370
    -3
  6
CENTER
100
AcDbLine
 10
383.704411
 20
-35.704071
 30
0.0
 11
383.704411
 21
-61.113479
 31
0.0
  0
LINE
  5
2CD
100
AcDbEntity
  8
0
370
    -3
  6
Continuous
100
AcDbLine
 10
221.704411
 20
-208.704071
 30
0.0
 11
386.704411
 21
-208.704071
 31
0.0
  0
LINE
  5
2CE
100
AcDbEntity
  8
0
370
    -3
  6
Continuous
100
AcDbLine
 10
398.704411
 20
-196.704071
 30
0.0
 11
398.704411
 21
-44.704071
 31
0.0
  0
LINE
  5
2CF
100
AcDbEntity
  8
0
370
    -3
  6
Continuous
100
AcDbLine
 10
386.704411
 20
-32.704071
 30
0.0
 11
221.704411
 21
-32.704071
 31
0.0
  0
LINE
  5
2D0
100
AcDbEntity
  8
0
370
    -3
  6
Continuous
100
AcDbLine
 10
209.704411
 20
-44.704071
 30
0.0
 11
209.704411
 21
-196.704071
 31
0.0
  0
LINE
  5
2D1
100
AcDbEntity
  8
0
370
    -3
  6
Continuous
100
AcDbLine
 10
180.204177
 20
-180.186459
 30
0.0
 11
206.756768
 21
-180.641209
 31
0.0
  0
LINE
  5
2D2
100
AcDbEntity
  8
0
370
    -3
  6
Continuous
100
AcDbLine
 10
209.394177
 20
-48.79185
 30
0.0
 11
209.394105
 21
-48.79185
 31
0.0
  0
LINE
  5
2D3
100
AcDbEntity
  8
0
370
    -3
  6
Continuous
100
AcDbLine
 10
209.394177
 20
-48.790256
 30
0.0
 11
209.394105
 21
-48.790256
 31
0.0
  0
LINE
  5
2D4
100
AcDbEntity
  8
0
370
    -3
  6
Continuous
100
AcDbLine
 10
180.204177
 20
-61.221369
 30
0.0
 11
206.756768
 21
-60.76662
 31
0.0
  0
ARC
  5
2D5
100
AcDbEntity
  8
0
370
    -3
  6
Continuous
100
AcDbCircle
 10
206.704411
 20
-57.767076
 30
0.0
 40
3.0
100
AcDbArc
 50
271.0
 51
0.0
  0
ARC
  5
2D6
100
AcDbEntity
  8
0
370
    -3
  6
Continuous
100
AcDbCircle
 10
206.704411
 20
-183.640752
 30
0.0
 40
3.0
100
AcDbArc
 50
0.0
 51
89.0
  0
LINE
  5
2D7
100
AcDbEntity
  8
0
370
    -3
  6
CENTER
100
AcDbLine
 10
326.704411
 20
-29.743506
 30
0.0
 11
326.704411
 21
-181.32491
 31
0.0
  0
POINT
  5
2D8
100
AcDbEntity
  8
0
370
    -3
  6
Continuous
100
AcDbPoint
 10
326.704411
 20
-104.704071
 30
0.0
  0
LINE
  5
2D9
100
AcDbEntity
  8
0
370
    -3
  6
CENTER
100
AcDbLine
 10
403.215105
 20
-104.704071
 30
0.0
 11
254.345099
 21
-104.704071
 31
0.0
  0
ARC
  5
2DA
100
AcDbEntity
  8
0
370
    -3
  6
Continuous
100
AcDbCircle
 10
224.704411
 20
-193.704071
 30
0.0
 40
15.5
100
AcDbArc
 50
31.58598
 51
80.793104
  0
LINE
  5
2DB
100
AcDbEntity
  8
0
370
    -3
  6
Continuous
100
AcDbLine
 10
180.204177
 20
-62.256322
 30
0.0
 11
180.204177
 21
-179.151506
 31
0.0
  0
LINE
  5
2DC
100
AcDbEntity
  8
0
370
    -3
  6
Continuous
100
AcDbLine
 10
180.104177
 20
-62.203914
 30
0.0
 11
180.104177
 21
-62.203914
 31
0.0
  0
LINE
  5
2DD
100
AcDbEntity
  8
0
370
    -3
  6
Continuous
100
AcDbLine
 10
180.204177
 20
-62.206352
 30
0.0
 11
180.204177
 21
-179.203914
 31
0.0
  0
LINE
  5
2DE
100
AcDbEntity
  8
0
370
    -3
  6
Continuous
100
AcDbLine
 10
180.204177
 20
-179.203918
 30
0.0
 11
180.204177
 21
-176.953918
 31
0.0
  0
LINE
  5
2DF
100
AcDbEntity
  8
0
370
    -3
  6
Continuous
100
AcDbLine
 10
180.204177
 20
-62.212642
 30
0.0
 11
180.204177
 21
-120.703914
 31
0.0
  0
LINE
  5
2E0
100
AcDbEntity
  8
0
370
    -3
  6
Continuous
100
AcDbLine
 10
180.204177
 20
-179.195187
 30
0.0
 11
180.204177
 21
-120.703914
 31
0.0
  0
LINE
  5
2E1
100
AcDbEntity
  8
0
370
    -3
  6
Continuous
100
AcDbLine
 10
180.203671
 20
-176.953914
 30
0.0
 11
180.203671
 21
-179.121875
 31
0.0
  0
LINE
  5
2E2
100
AcDbEntity
  8
0
370
    -3
  6
Continuous
100
AcDbLine
 10
180.203671
 20
-179.203914
 30
0.0
 11
180.203671
 21
-176.953914
 31
0.0
  0
LINE
  5
2E3
100
AcDbEntity
  8
0
370
    -3
  6
Continuous
100
AcDbLine
 10
180.203671
 20
-62.203914
 30
0.0
 11
180.203671
 21
-64.453914
 31
0.0
  0
LINE
  5
2E4
100
AcDbEntity
  8
0
370
    -3
  6
Continuous
100
AcDbLine
 10
180.204177
 20
-180.203914
 30
0.0
 11
180.204177
 21
-120.703914
 31
0.0
  0
LINE
  5
2E5
100
AcDbEntity
  8
0
370
    -3
  6
Continuous
100
AcDbLine
 10
180.204177
 20
-61.203914
 30
0.0
 11
180.204177
 21
-120.703914
 31
0.0
  0
LINE
  5
2E6
100
AcDbEntity
  8
0
370
    -3
  6
Continuous
100
AcDbLine
 10
180.204177
 20
-120.703914
 30
0.0
 11
180.204177
 21
-61.2301
 31
0.0
  0
LINE
  5
2E7
100
AcDbEntity
  8
0
370
    -3
  6
Continuous
100
AcDbLine
 10
180.204177
 20
-120.703914
 30
0.0
 11
180.204177
 21
-180.177728
 31
0.0
  0
LINE
  5
2E8
100
AcDbEntity
  8
0
370
    -3
  6
Continuous
100
AcDbLine
 10
180.203671
 20
-62.203914
 30
0.0
 11
180.203671
 21
-64.453914
 31
0.0
  0
LINE
  5
2E9
100
AcDbEntity
  8
0
370
    -3
  6
Continuous
100
AcDbLine
 10
180.203671
 20
-179.203914
 30
0.0
 11
180.203671
 21
-176.953914
 31
0.0
  0
LINE
  5
2EA
100
AcDbEntity
  8
0
370
    -3
  6
Continuous
100
AcDbLine
 10
180.203671
 20
-176.953914
 30
0.0
 11
180.203671
 21
-179.121875
 31
0.0
  0
LINE
  5
2EB
100
AcDbEntity
  8
0
370
    -3
  6
Continuous
100
AcDbLine
 10
180.204177
 20
-179.203918
 30
0.0
 11
180.204177
 21
-176.953918
 31
0.0
  0
LINE
  5
2EC
100
AcDbEntity
  8
0
370
    -3
  6
Continuous
100
AcDbLine
 10
180.104177
 20
-62.203914
 30
0.0
 11
180.104177
 21
-62.203914
 31
0.0
  0
LINE
  5
2ED
100
AcDbEntity
  8
0
370
    -3
  6
Continuous
100
AcDbLine
 10
180.204177
 20
-62.256322
 30
0.0
 11
180.204177
 21
-179.151506
 31
0.0
  0
LINE
  5
2EE
100
AcDbEntity
  8
0
370
    -3
  6
Continuous
100
AcDbLine
 10
180.204177
 20
-62.206352
 30
0.0
 11
180.204177
 21
-179.203914
 31
0.0
  0
LINE
  5
2EF
100
AcDbEntity
  8
0
370
    -3
  6
Continuous
100
AcDbLine
 10
180.204177
 20
-62.212642
 30
0.0
 11
180.204177
 21
-120.703914
 31
0.0
  0
LINE
  5
2F0
100
AcDbEntity
  8
0
370
    -3
  6
Continuous
100
AcDbLine
 10
180.204177
 20
-179.195187
 30
0.0
 11
180.204177
 21
-120.703914
 31
0.0
  0
CIRCLE
  5
2F1
100
AcDbEntity
  8
0
370
    -3
  6
Continuous
100
AcDbCircle
 10
383.704411
 20
-47.704071
 30
0.0
 40
5.053
  0
CIRCLE
  5
2F2
100
AcDbEntity
  8
0
370
    -3
  6
Continuous
100
AcDbCircle
 10
383.704411
 20
-47.704071
 30
0.0
 40
6.0
  0
CIRCLE
  5
2F3
100
AcDbEntity
  8
0
370
    -3
  6
Continuous
100
AcDbCircle
 10
383.704411
 20
-193.704071
 30
0.0
 40
6.0
  0
CIRCLE
  5
2F4
100
AcDbEntity
  8
0
370
    -3
  6
Continuous
100
AcDbCircle
 10
383.704411
 20
-193.704071
 30
0.0
 40
5.053
  0
CIRCLE
  5
2F5
100
AcDbEntity
  8
0
370
    -3
  6
Continuous
100
AcDbCircle
 10
224.704411
 20
-193.704071
 30
0.0
 40
6.0
  0
CIRCLE
  5
2F6
100
AcDbEntity
  8
0
370
    -3
  6
Continuous
100
AcDbCircle
 10
224.704411
 20
-193.704071
 30
0.0
 40
5.053
  0
CIRCLE
  5
2F7
100
AcDbEntity
  8
0
370
    -3
  6
Continuous
100
AcDbCircle
 10
224.704411
 20
-47.704071
 30
0.0
 40
6.0
  0
CIRCLE
  5
2F8
100
AcDbEntity
  8
0
370
    -3
  6
Continuous
100
AcDbCircle
 10
224.704411
 20
-47.704071
 30
0.0
 40
5.053
  0
ARC
  5
2F9
100
AcDbEntity
  8
0
370
    -3
  6
DASHED
100
AcDbCircle
 10
650.704603
 20
-463.203914
 30
0.0
 40
400.0
100
AcDbArc
 50
85.885655
 51
87.065975
  0
ARC
  5
2FA
100
AcDbEntity
  8
0
370
    -3
  6
DASHED
100
AcDbCircle
 10
650.704603
 20
-463.203914
 30
0.0
 40
400.0
100
AcDbArc
 50
92.934025
 51
94.114345
  0
ARC
  5
2FB
100
AcDbEntity
  8
0
370
    -3
  6
DASHED
100
AcDbCircle
 10
677.251058
 20
-94.157459
 30
0.0
 40
30.0
100
AcDbArc
 50
4.114345
 51
85.885655
  0
ARC
  5
2FC
100
AcDbEntity
  8
0
370
    -3
  6
DASHED
100
AcDbCircle
 10
624.158148
 20
-94.157459
 30
0.0
 40
30.0
100
AcDbArc
 50
94.114345
 51
175.885655
  0
LINE
  5
2FD
100
AcDbEntity
  8
0
370
    -3
  6
CENTER
100
AcDbLine
 10
650.704603
 20
-224.722545
 30
0.0
 11
650.704603
 21
-16.322996
 31
0.0
  0
LINE
  5
2FE
100
AcDbEntity
  8
0
370
    -3
  6
Continuous
100
AcDbLine
 10
713.704603
 20
-57.204071
 30
0.0
 11
713.704603
 21
-152.204071
 31
0.0
  0
LINE
  5
2FF
100
AcDbEntity
  8
0
370
    -3
  6
Continuous
100
AcDbLine
 10
708.704603
 20
-34.133629
 30
0.0
 11
708.704603
 21
-120.475241
 31
0.0
  0
ARC
  5
300
100
AcDbEntity
  8
0
370
    -3
  6
DASHED
100
AcDbCircle
 10
631.204603
 20
-61.703914
 30
0.0
 40
0.5
100
AcDbArc
 50
90.0
 51
180.0
  0
ARC
  5
301
100
AcDbEntity
  8
0
370
    -3
  6
DASHED
100
AcDbCircle
 10
670.204603
 20
-61.703914
 30
0.0
 40
0.5
100
AcDbArc
 50
0.0
 51
90.0
  0
LINE
  5
302
100
AcDbEntity
  8
0
370
    -3
  6
DASHED
100
AcDbLine
 10
630.704603
 20
-61.703914
 30
0.0
 11
630.704603
 21
-63.228915
 31
0.0
  0
LINE
  5
303
100
AcDbEntity
  8
0
370
    -3
  6
DASHED
100
AcDbLine
 10
670.704603
 20
-61.703914
 30
0.0
 11
670.704603
 21
-63.228915
 31
0.0
  0
ARC
  5
304
100
AcDbEntity
  8
0
370
    -3
  6
DASHED
100
AcDbCircle
 10
671.204603
 20
-63.228915
 30
0.0
 40
0.5
100
AcDbArc
 50
180.0
 51
267.065975
  0
ARC
  5
305
100
AcDbEntity
  8
0
370
    -3
  6
DASHED
100
AcDbCircle
 10
630.204603
 20
-63.228915
 30
0.0
 40
0.5
100
AcDbArc
 50
272.934025
 51
0.0
  0
LINE
  5
306
100
AcDbEntity
  8
0
370
    -3
  6
Continuous
100
AcDbLine
 10
570.704411
 20
-85.704071
 30
0.0
 11
570.704411
 21
-88.704071
 31
0.0
  0
LINE
  5
307
100
AcDbEntity
  8
0
370
    -3
  6
Continuous
100
AcDbLine
 10
570.704411
 20
-85.704071
 30
0.0
 11
530.704411
 21
-85.704071
 31
0.0
  0
LINE
  5
308
100
AcDbEntity
  8
0
370
    -3
  6
Continuous
100
AcDbLine
 10
604.704603
 20
-32.484125
 30
0.0
 11
604.704603
 21
-120.475241
 31
0.0
  0
LINE
  5
309
100
AcDbEntity
  8
0
370
    -3
  6
Continuous
100
AcDbLine
 10
587.704205
 20
-104.475398
 30
0.0
 11
587.704205
 21
-57.204071
 31
0.0
  0
LINE
  5
30A
100
AcDbEntity
  8
0
370
    -3
  6
Continuous
100
AcDbLine
 10
592.704205
 20
-120.475241
 30
0.0
 11
592.704205
 21
-32.693593
 31
0.0
  0
LINE
  5
30B
100
AcDbEntity
  8
0
370
    -3
  6
DASHED
100
AcDbLine
 10
650.704603
 20
-61.203914
 30
0.0
 11
631.204603
 21
-61.203914
 31
0.0
  0
LINE
  5
30C
100
AcDbEntity
  8
0
370
    -3
  6
DASHED
100
AcDbLine
 10
650.704603
 20
-61.203914
 30
0.0
 11
670.204603
 21
-61.203914
 31
0.0
  0
LINE
  5
30D
100
AcDbEntity
  8
0
370
    -3
  6
CENTER
100
AcDbLine
 10
650.704603
 20
-5.403457
 30
0.0
 11
650.704603
 21
-48.004371
 31
0.0
  0
LINE
  5
30E
100
AcDbEntity
  8
0
370
    -3
  6
CENTER
100
AcDbLine
 10
590.161003
 20
-47.704071
 30
0.0
 11
711.461367
 21
-47.704071
 31
0.0
  0
LINE
  5
30F
100
AcDbEntity
  8
0
370
    -3
  6
Continuous
100
AcDbLine
 10
713.704603
 20
-57.204071
 30
0.0
 11
708.704603
 21
-57.204071
 31
0.0
  0
LINE
  5
310
100
AcDbEntity
  8
0
370
    -3
  6
Continuous
100
AcDbLine
 10
587.704205
 20
-57.204071
 30
0.0
 11
592.704603
 21
-57.204071
 31
0.0
  0
ARC
  5
311
100
AcDbEntity
  8
0
370
    -3
  6
DASHED
100
AcDbCircle
 10
709.704603
 20
-101.203914
 30
0.0
 40
0.5
100
AcDbArc
 50
360.0
 51
90.0
  0
ARC
  5
312
100
AcDbEntity
  8
0
370
    -3
  6
DASHED
100
AcDbCircle
 10
708.179602
 20
-100.203914
 30
0.0
 40
0.5
100
AcDbArc
 50
182.934025
 51
270.0
  0
ARC
  5
313
100
AcDbEntity
  8
0
370
    -3
  6
DASHED
100
AcDbCircle
 10
709.704603
 20
-101.203914
 30
0.0
 40
0.5
100
AcDbArc
 50
360.0
 51
90.0
  0
ARC
  5
314
100
AcDbEntity
  8
0
370
    -3
  6
DASHED
100
AcDbCircle
 10
708.179602
 20
-100.203914
 30
0.0
 40
0.5
100
AcDbArc
 50
182.934025
 51
270.0
  0
ARC
  5
315
100
AcDbEntity
  8
0
370
    -3
  6
DASHED
100
AcDbCircle
 10
308.204603
 20
-120.703914
 30
0.0
 40
400.0
100
AcDbArc
 50
2.934025
 51
4.114345
  0
LINE
  5
316
100
AcDbEntity
  8
0
370
    -3
  6
DASHED
100
AcDbLine
 10
710.204603
 20
-120.703914
 30
0.0
 11
710.204603
 21
-101.203914
 31
0.0
  0
LINE
  5
317
100
AcDbEntity
  8
0
370
    -3
  6
DASHED
100
AcDbLine
 10
709.704603
 20
-100.703914
 30
0.0
 11
708.179602
 21
-100.703914
 31
0.0
  0
ARC
  5
318
100
AcDbEntity
  8
0
370
    -3
  6
DASHED
100
AcDbCircle
 10
709.704603
 20
-140.203914
 30
0.0
 40
0.5
100
AcDbArc
 50
270.0
 51
0.0
  0
ARC
  5
319
100
AcDbEntity
  8
0
370
    -3
  6
DASHED
100
AcDbCircle
 10
708.179602
 20
-141.203914
 30
0.0
 40
0.5
100
AcDbArc
 50
90.0
 51
177.065975
  0
ARC
  5
31A
100
AcDbEntity
  8
0
370
    -3
  6
DASHED
100
AcDbCircle
 10
708.179602
 20
-141.203914
 30
0.0
 40
0.5
100
AcDbArc
 50
90.0
 51
177.065975
  0
LINE
  5
31B
100
AcDbEntity
  8
0
370
    -3
  6
DASHED
100
AcDbLine
 10
710.204603
 20
-120.703914
 30
0.0
 11
710.204603
 21
-140.203914
 31
0.0
  0
LINE
  5
31C
100
AcDbEntity
  8
0
370
    -3
  6
DASHED
100
AcDbLine
 10
709.704603
 20
-140.703914
 30
0.0
 11
708.179602
 21
-140.703914
 31
0.0
  0
ARC
  5
31D
100
AcDbEntity
  8
0
370
    -3
  6
DASHED
100
AcDbCircle
 10
308.204603
 20
-120.703914
 30
0.0
 40
400.0
100
AcDbArc
 50
355.885655
 51
357.065975
  0
ARC
  5
31E
100
AcDbEntity
  8
0
370
    -3
  6
DASHED
100
AcDbCircle
 10
677.251058
 20
-147.250369
 30
0.0
 40
30.0
100
AcDbArc
 50
274.114345
 51
355.885655
  0
ARC
  5
31F
100
AcDbEntity
  8
0
370
    -3
  6
DASHED
100
AcDbCircle
 10
671.204603
 20
-178.178913
 30
0.0
 40
0.5
100
AcDbArc
 50
92.934025
 51
180.0
  0
ARC
  5
320
100
AcDbEntity
  8
0
370
    -3
  6
DASHED
100
AcDbCircle
 10
671.204603
 20
-178.178913
 30
0.0
 40
0.5
100
AcDbArc
 50
92.934025
 51
180.0
  0
ARC
  5
321
100
AcDbEntity
  8
0
370
    -3
  6
DASHED
100
AcDbCircle
 10
650.704603
 20
221.796086
 30
0.0
 40
400.0
100
AcDbArc
 50
272.934025
 51
274.114345
  0
LINE
  5
322
100
AcDbEntity
  8
0
370
    -3
  6
DASHED
100
AcDbLine
 10
670.704603
 20
-179.703914
 30
0.0
 11
670.704603
 21
-178.178913
 31
0.0
  0
LINE
  5
323
100
AcDbEntity
  8
0
370
    -3
  6
DASHED
100
AcDbLine
 10
670.704603
 20
-179.703914
 30
0.0
 11
670.704603
 21
-178.178913
 31
0.0
  0
ARC
  5
324
100
AcDbEntity
  8
0
370
    -3
  6
DASHED
100
AcDbCircle
 10
670.204603
 20
-179.703914
 30
0.0
 40
0.5
100
AcDbArc
 50
270.0
 51
0.0
  0
ARC
  5
325
100
AcDbEntity
  8
0
370
    -3
  6
DASHED
100
AcDbCircle
 10
670.204603
 20
-179.703914
 30
0.0
 40
0.5
100
AcDbArc
 50
270.0
 51
0.0
  0
LINE
  5
326
100
AcDbEntity
  8
0
370
    -3
  6
DASHED
100
AcDbLine
 10
650.704603
 20
-180.203914
 30
0.0
 11
670.204603
 21
-180.203914
 31
0.0
  0
LINE
  5
327
100
AcDbEntity
  8
0
370
    -3
  6
DASHED
100
AcDbLine
 10
650.704603
 20
-180.203914
 30
0.0
 11
670.204603
 21
-180.203914
 31
0.0
  0
ARC
  5
328
100
AcDbEntity
  8
0
370
    -3
  6
DASHED
100
AcDbCircle
 10
650.704603
 20
221.796086
 30
0.0
 40
400.0
100
AcDbArc
 50
265.885655
 51
267.065975
  0
ARC
  5
329
100
AcDbEntity
  8
0
370
    -3
  6
DASHED
100
AcDbCircle
 10
631.204603
 20
-179.703914
 30
0.0
 40
0.5
100
AcDbArc
 50
180.0
 51
270.0
  0
ARC
  5
32A
100
AcDbEntity
  8
0
370
    -3
  6
DASHED
100
AcDbCircle
 10
630.204603
 20
-178.178913
 30
0.0
 40
0.5
100
AcDbArc
 50
0.0
 51
87.065975
  0
LINE
  5
32B
100
AcDbEntity
  8
0
370
    -3
  6
DASHED
100
AcDbLine
 10
650.704603
 20
-180.203914
 30
0.0
 11
631.204603
 21
-180.203914
 31
0.0
  0
LINE
  5
32C
100
AcDbEntity
  8
0
370
    -3
  6
DASHED
100
AcDbLine
 10
630.704603
 20
-179.703914
 30
0.0
 11
630.704603
 21
-178.178913
 31
0.0
  0
ARC
  5
32D
100
AcDbEntity
  8
0
370
    -3
  6
DASHED
100
AcDbCircle
 10
624.158148
 20
-147.250369
 30
0.0
 40
30.0
100
AcDbArc
 50
184.114345
 51
265.885655
  0
ARC
  5
32E
100
AcDbEntity
  8
0
370
    -3
  6
DASHED
100
AcDbCircle
 10
993.204603
 20
-120.703914
 30
0.0
 40
400.0
100
AcDbArc
 50
182.934025
 51
184.114345
  0
ARC
  5
32F
100
AcDbEntity
  8
0
370
    -3
  6
DASHED
100
AcDbCircle
 10
591.704603
 20
-140.203914
 30
0.0
 40
0.5
100
AcDbArc
 50
180.0
 51
270.0
  0
LINE
  5
330
100
AcDbEntity
  8
0
370
    -3
  6
DASHED
100
AcDbLine
 10
591.204603
 20
-120.703914
 30
0.0
 11
591.204603
 21
-140.203914
 31
0.0
  0
ARC
  5
331
100
AcDbEntity
  8
0
370
    -3
  6
DASHED
100
AcDbCircle
 10
593.229604
 20
-141.203914
 30
0.0
 40
0.5
100
AcDbArc
 50
2.934025
 51
90.0
  0
LINE
  5
332
100
AcDbEntity
  8
0
370
    -3
  6
DASHED
100
AcDbLine
 10
591.704603
 20
-140.703914
 30
0.0
 11
593.229604
 21
-140.703914
 31
0.0
  0
LINE
  5
333
100
AcDbEntity
  8
0
370
    -3
  6
DASHED
100
AcDbLine
 10
591.204603
 20
-120.703914
 30
0.0
 11
591.204603
 21
-101.203914
 31
0.0
  0
ARC
  5
334
100
AcDbEntity
  8
0
370
    -3
  6
DASHED
100
AcDbCircle
 10
591.704603
 20
-101.203914
 30
0.0
 40
0.5
100
AcDbArc
 50
90.0
 51
180.0
  0
LINE
  5
335
100
AcDbEntity
  8
0
370
    -3
  6
DASHED
100
AcDbLine
 10
591.704603
 20
-100.703914
 30
0.0
 11
593.229604
 21
-100.703914
 31
0.0
  0
ARC
  5
336
100
AcDbEntity
  8
0
370
    -3
  6
DASHED
100
AcDbCircle
 10
993.204603
 20
-120.703914
 30
0.0
 40
400.0
100
AcDbArc
 50
175.885655
 51
177.065975
  0
ARC
  5
337
100
AcDbEntity
  8
0
370
    -3
  6
DASHED
100
AcDbCircle
 10
593.229604
 20
-100.203914
 30
0.0
 40
0.5
100
AcDbArc
 50
270.0
 51
357.065975
  0
LINE
  5
338
100
AcDbEntity
  8
0
370
    -3
  6
CENTER
100
AcDbLine
 10
628.278106
 20
-120.703914
 30
0.0
 11
668.278106
 21
-120.703914
 31
0.0
  0
LINE
  5
339
100
AcDbEntity
  8
0
370
    -3
  6
CENTER
100
AcDbLine
 10
590.161003
 20
-193.704071
 30
0.0
 11
711.461367
 21
-193.704071
 31
0.0
  0
LINE
  5
33A
100
AcDbEntity
  8
0
370
    -3
  6
Continuous
100
AcDbLine
 10
587.704205
 20
-87.704071
 30
0.0
 11
586.104342
 21
-87.704071
 31
0.0
  0
ARC
  5
33B
100
AcDbEntity
  8
0
370
    -3
  6
Continuous
100
AcDbCircle
 10
586.104342
 20
-88.104071
 30
0.0
 40
0.4
100
AcDbArc
 50
90.0
 51
180.0
  0
ARC
  5
33C
100
AcDbEntity
  8
0
370
    -3
  6
Continuous
100
AcDbCircle
 10
585.304342
 20
-88.304071
 30
0.0
 40
0.4
100
AcDbArc
 50
270.0
 51
0.0
  0
LINE
  5
33D
100
AcDbEntity
  8
0
370
    -3
  6
Continuous
100
AcDbLine
 10
587.704205
 20
-121.704071
 30
0.0
 11
586.104342
 21
-121.704071
 31
0.0
  0
ARC
  5
33E
100
AcDbEntity
  8
0
370
    -3
  6
Continuous
100
AcDbCircle
 10
586.104342
 20
-121.304071
 30
0.0
 40
0.4
100
AcDbArc
 50
180.0
 51
270.0
  0
ARC
  5
33F
100
AcDbEntity
  8
0
370
    -3
  6
Continuous
100
AcDbCircle
 10
585.304342
 20
-121.104071
 30
0.0
 40
0.4
100
AcDbArc
 50
0.0
 51
90.0
  0
LINE
  5
340
100
AcDbEntity
  8
0
370
    -3
  6
Continuous
100
AcDbLine
 10
585.704342
 20
-88.104071
 30
0.0
 11
585.704342
 21
-121.304071
 31
0.0
  0
LINE
  5
341
100
AcDbEntity
  8
0
370
    -3
  6
Continuous
100
AcDbLine
 10
585.304342
 20
-88.704071
 30
0.0
 11
531.504411
 21
-88.704071
 31
0.0
  0
LINE
  5
342
100
AcDbEntity
  8
0
370
    -3
  6
Continuous
100
AcDbLine
 10
585.304342
 20
-120.704071
 30
0.0
 11
531.504411
 21
-120.704071
 31
0.0
  0
ARC
  5
343
100
AcDbEntity
  8
0
370
    -3
  6
Continuous
100
AcDbCircle
 10
891.304603
 20
-120.475241
 30
0.0
 40
300.6
100
AcDbArc
 50
186.058951
 51
186.612353
  0
ARC
  5
344
100
AcDbEntity
  8
0
370
    -3
  6
Continuous
100
AcDbCircle
 10
410.104603
 20
-120.475241
 30
0.0
 40
300.6
100
AcDbArc
 50
353.386989
 51
353.941049
  0
LINE
  5
345
100
AcDbEntity
  8
0
370
    -3
  6
Continuous
100
AcDbLine
 10
593.204053
 20
-208.265927
 30
0.0
 11
604.704603
 21
-208.46667
 31
0.0
  0
LINE
  5
346
100
AcDbEntity
  8
0
370
    -3
  6
Continuous
100
AcDbLine
 10
604.704603
 20
-120.475241
 30
0.0
 11
604.704603
 21
-208.46667
 31
0.0
  0
LINE
  5
347
100
AcDbEntity
  8
0
370
    -3
  6
Continuous
100
AcDbLine
 10
699.204603
 20
-206.817167
 30
0.0
 11
708.704603
 21
-206.817167
 31
0.0
  0
LINE
  5
348
100
AcDbEntity
  8
0
370
    -3
  6
Continuous
100
AcDbLine
 10
708.704603
 20
-120.475241
 30
0.0
 11
708.704603
 21
-206.817167
 31
0.0
  0
LINE
  5
349
100
AcDbEntity
  8
0
370
    -3
  6
Continuous
100
AcDbLine
 10
592.704205
 20
-207.757279
 30
0.0
 11
593.204053
 21
-208.265927
 31
0.0
  0
LINE
  5
34A
100
AcDbEntity
  8
0
370
    -3
  6
Continuous
100
AcDbLine
 10
592.704205
 20
-120.475241
 30
0.0
 11
592.704205
 21
-207.757279
 31
0.0
  0
LINE
  5
34B
100
AcDbEntity
  8
0
370
    -3
  6
Continuous
100
AcDbLine
 10
587.704205
 20
-104.475398
 30
0.0
 11
587.704205
 21
-152.204071
 31
0.0
  0
LINE
  5
34C
100
AcDbEntity
  8
0
370
    -3
  6
Continuous
100
AcDbLine
 10
604.704603
 20
-208.466357
 30
0.0
 11
699.204603
 21
-206.816854
 31
0.0
  0
LINE
  5
34D
100
AcDbEntity
  8
0
370
    -3
  6
CENTER
100
AcDbLine
 10
720.183412
 20
-104.704071
 30
0.0
 11
526.004008
 21
-104.704071
 31
0.0
  0
LINE
  5
34E
100
AcDbEntity
  8
0
370
    -3
  6
Continuous
100
AcDbLine
 10
713.704603
 20
-152.204071
 30
0.0
 11
708.704603
 21
-152.204071
 31
0.0
  0
LINE
  5
34F
100
AcDbEntity
  8
0
370
    -3
  6
Continuous
100
AcDbLine
 10
587.704205
 20
-152.204071
 30
0.0
 11
592.704603
 21
-152.204071
 31
0.0
  0
ARC
  5
350
100
AcDbEntity
  8
0
370
    -3
  6
Continuous
100
AcDbCircle
 10
531.504411
 20
-89.504071
 30
0.0
 40
0.8
100
AcDbArc
 50
90.0
 51
180.0
  0
ARC
  5
351
100
AcDbEntity
  8
0
370
    -3
  6
Continuous
100
AcDbCircle
 10
531.504411
 20
-119.904071
 30
0.0
 40
0.8
100
AcDbArc
 50
180.0
 51
270.0
  0
LINE
  5
352
100
AcDbEntity
  8
0
370
    -3
  6
Continuous
100
AcDbLine
 10
530.704411
 20
-85.704071
 30
0.0
 11
530.704411
 21
-119.904071
 31
0.0
  0
LINE
  5
353
100
AcDbEntity
  8
0
370
    -3
  6
Continuous
100
AcDbLine
 10
680.704603
 20
-33.536472
 30
0.0
 11
680.704603
 21
-33.81071
 31
0.0
  0
LINE
  5
354
100
AcDbEntity
  8
0
370
    -3
  6
Continuous
100
AcDbLine
 10
699.204603
 20
-34.133629
 30
0.0
 11
708.704603
 21
-34.133629
 31
0.0
  0
LINE
  5
355
100
AcDbEntity
  8
0
370
    -3
  6
Continuous
100
AcDbLine
 10
604.704603
 20
-32.484125
 30
0.0
 11
699.204603
 21
-34.133629
 31
0.0
  0
LINE
  5
356
100
AcDbEntity
  8
0
370
    -3
  6
Continuous
100
AcDbLine
 10
592.704205
 20
-32.693593
 30
0.0
 11
604.704603
 21
-32.484125
 31
0.0
  0
CIRCLE
  5
357
100
AcDbEntity
  8
0
370
    -3
  6
Continuous
100
AcDbCircle
 10
326.704411
 20
-104.704071
 30
0.0
 40
54.5
  0
CIRCLE
  5
358
100
AcDbEntity
  8
0
370
    -3
  6
Continuous
100
AcDbCircle
 10
326.704411
 20
-104.704071
 30
0.0
 40
52.5
  0
CIRCLE
  5
359
100
AcDbEntity
  8
0
370
    -3
  6
Continuous
100
AcDbCircle
 10
326.704411
 20
-104.704071
 30
0.0
 40
47.5
  0
CIRCLE
  5
35A
100
AcDbEntity
  8
0
370
    -3
  6
Continuous
100
AcDbCircle
 10
326.704411
 20
-104.704071
 30
0.0
 40
30.2
  0
MTEXT
  5
35B
100
AcDbEntity
  8
0
370
    -3
  6
Continuous
100
AcDbMText
 10
-240.86673
 20
218.773666
 30
0.0
 40
15.0
 41
0.0
 71
     7
 72
     1
  1
\W0.48;GV-SHYM-RR
  7
ZU_SHPTB00001
 11
1.0
 21
0.0
 31
0.0
 73
     1
 44
1.0
  0
MTEXT
  5
35C
100
AcDbEntity
  8
0
370
    -3
  6
Continuous
100
AcDbMText
 10
-240.86673
 20
184.873672
 30
0.0
 40
15.0
 41
0.0
 71
     7
 72
     1
  1
\W0.43;37.5-12.5r/min\W0.53;　
  7
ZU_SHPTB00001
 11
1.0
 21
0.0
 31
0.0
 73
     1
 44
1.0
  0
MTEXT
  5
35D
100
AcDbEntity
  8
0
370
    -3
  6
Continuous
100
AcDbMText
 10
-240.86673
 20
167.92363
 30
0.0
 40
15.0
 41
0.0
 71
     7
 72
     1
  1
\W0.42;GEAR\W0.70; \W0.42;RATIO\W0.70;  \W0.42;1/80-1/240
  7
ZU_SHPTB00001
 11
1.0
 21
0.0
 31
0.0
 73
     1
 44
1.0
  0
MTEXT
  5
35E
100
AcDbEntity
  8
0
370
    -3
  6
Continuous
100
AcDbMText
 10
-240.86673
 20
235.723679
 30
0.0
 40
15.0
 41
0.0
 71
     7
 72
     1
  1
\W0.63;三菱ギヤードモータ  
  7
ZU_SHPTB00001
 11
1.0
 21
0.0
 31
0.0
 73
     1
 44
1.0
  0
MTEXT
  5
35F
100
AcDbEntity
  8
0
370
    -3
  6
Continuous
100
AcDbMText
 10
-240.86673
 20
150.973618
 30
0.0
 40
15.0
 41
0.0
 71
     7
 72
     1
  1
\W0.43;SCALE\W0.72;  \W0.43;1/1
  7
ZU_SHPTB00001
 11
1.0
 21
0.0
 31
0.0
 73
     1
 44
1.0
  0
MTEXT
  5
360
100
AcDbEntity
  8
0
370
    -3
  6
Continuous
100
AcDbMText
 10
-240.86673
 20
201.823685
 30
0.0
 40
15.0
 41
0.0
 71
     7
 72
     1
  1
\W0.43;0.75kW
  7
ZU_SHPTB00001
 11
1.0
 21
0.0
 31
0.0
 73
     1
 44
1.0
  0
LINE
  5
361
100
AcDbEntity
  8
0
370
    -3
  6
Continuous
100
AcDbLine
 10
36.037678
 20
-70.072506
 30
0.0
 11
40.704177
 21
-70.072506
 31
0.0
  0
LINE
  5
362
100
AcDbEntity
  8
0
370
    -3
  6
Continuous
100
AcDbLine
 10
36.037678
 20
-171.335323
 30
0.0
 11
40.704177
 21
-171.335323
 31
0.0
  0
ARC
  5
363
100
AcDbEntity
  8
0
370
    -3
  6
Continuous
100
AcDbCircle
 10
733.704177
 20
-121.703914
 30
0.0
 40
700.0
100
AcDbArc
 50
183.915052
 51
184.718504
  0
ARC
  5
364
100
AcDbEntity
  8
0
370
    -3
  6
Continuous
100
AcDbCircle
 10
37.073177
 20
-179.203914
 30
0.0
 40
1.0
100
AcDbArc
 50
184.718504
 51
270.0
  0
LINE
  5
365
100
AcDbEntity
  8
0
370
    -3
  6
Continuous
100
AcDbLine
 10
37.073177
 20
-180.203914
 30
0.0
 11
41.204177
 21
-180.203914
 31
0.0
  0
INSERT
  5
378
100
AcDbEntity
  8
0
100
AcDbBlockReference
  2
ZU_SYM__USERS_HOME_SYMBOL_STD_SYM_B01_00007-1
 10
35.70418
 20
-164.898088
 30
0.0
  0
LINE
  5
379
100
AcDbEntity
  8
0
370
    -3
  6
CENTER
100
AcDbLine
 10
29.267947
 20
-164.898088
 30
0.0
 11
38.113662
 21
-164.898088
 31
0.0
  0
ARC
  5
37A
100
AcDbEntity
  8
0
370
    -3
  6
Continuous
100
AcDbCircle
 10
733.704177
 20
-120.703914
 30
0.0
 40
700.0
100
AcDbArc
 50
181.652907
 51
183.242558
  0
LINE
  5
37B
100
AcDbEntity
  8
0
370
    -3
  6
Continuous
100
AcDbLine
 10
37.448177
 20
-139.703914
 30
0.0
 11
41.204177
 21
-139.507071
 31
0.0
  0
LINE
  5
37C
100
AcDbEntity
  8
0
370
    -3
  6
Continuous
100
AcDbLine
 10
37.448177
 20
-141.703914
 30
0.0
 11
41.204177
 21
-141.900758
 31
0.0
  0
LINE
  5
37D
100
AcDbEntity
  8
0
370
    -3
  6
Continuous
100
AcDbLine
 10
37.529177
 20
-145.203914
 30
0.0
 11
41.204177
 21
-145.011316
 31
0.0
  0
LINE
  5
37E
100
AcDbEntity
  8
0
370
    -3
  6
Continuous
100
AcDbLine
 10
37.529177
 20
-147.203914
 30
0.0
 11
41.204177
 21
-147.396513
 31
0.0
  0
LINE
  5
37F
100
AcDbEntity
  8
0
370
    -3
  6
Continuous
100
AcDbLine
 10
37.570177
 20
-150.703914
 30
0.0
 11
41.204177
 21
-150.513464
 31
0.0
  0
LINE
  5
380
100
AcDbEntity
  8
0
370
    -3
  6
Continuous
100
AcDbLine
 10
37.570177
 20
-152.703914
 30
0.0
 11
41.204177
 21
-152.894364
 31
0.0
  0
LINE
  5
381
100
AcDbEntity
  8
0
370
    -3
  6
Continuous
100
AcDbLine
 10
37.653177
 20
-156.203914
 30
0.0
 11
41.204177
 21
-156.017814
 31
0.0
  0
LINE
  5
382
100
AcDbEntity
  8
0
370
    -3
  6
Continuous
100
AcDbLine
 10
37.653177
 20
-158.203914
 30
0.0
 11
41.204177
 21
-158.390014
 31
0.0
  0
ARC
  5
383
100
AcDbEntity
  8
0
370
    -3
  6
Continuous
100
AcDbCircle
 10
37.448177
 20
-140.703914
 30
0.0
 40
1.0
100
AcDbArc
 50
90.0
 51
270.0
  0
ARC
  5
384
100
AcDbEntity
  8
0
370
    -3
  6
Continuous
100
AcDbCircle
 10
37.653177
 20
-157.203914
 30
0.0
 40
1.0
100
AcDbArc
 50
90.0
 51
270.0
  0
ARC
  5
385
100
AcDbEntity
  8
0
370
    -3
  6
Continuous
100
AcDbCircle
 10
37.529177
 20
-146.203914
 30
0.0
 40
1.0
100
AcDbArc
 50
90.0
 51
270.0
  0
ARC
  5
386
100
AcDbEntity
  8
0
370
    -3
  6
Continuous
100
AcDbCircle
 10
37.570177
 20
-151.703914
 30
0.0
 40
1.0
100
AcDbArc
 50
90.0
 51
270.0
  0
LINE
  5
387
100
AcDbEntity
  8
0
370
    -3
  6
Continuous
100
AcDbLine
 10
41.204177
 20
-135.703914
 30
0.0
 11
36.404177
 21
-135.703914
 31
0.0
  0
LINE
  5
388
100
AcDbEntity
  8
0
370
    -3
  6
Continuous
100
AcDbLine
 10
35.704177
 20
-135.003914
 30
0.0
 11
35.704177
 21
-128.703914
 31
0.0
  0
ARC
  5
389
100
AcDbEntity
  8
0
370
    -3
  6
Continuous
100
AcDbCircle
 10
36.404177
 20
-135.003914
 30
0.0
 40
0.7
100
AcDbArc
 50
180.0
 51
270.0
  0
ARC
  5
38A
100
AcDbEntity
  8
0
370
    -3
  6
Continuous
100
AcDbCircle
 10
36.204177
 20
-170.835323
 30
0.0
 40
0.5
100
AcDbArc
 50
180.0
 51
270.0
  0
LINE
  5
38B
100
AcDbEntity
  8
0
370
    -3
  6
Continuous
100
AcDbLine
 10
35.704177
 20
-120.703914
 30
0.0
 11
35.704177
 21
-128.703914
 31
0.0
  0
LINE
  5
38C
100
AcDbEntity
  8
0
370
    -3
  6
Continuous
100
AcDbLine
 10
33.704177
 20
-140.203914
 30
0.0
 11
33.704177
 21
-120.703914
 31
0.0
  0
ARC
  5
38D
100
AcDbEntity
  8
0
370
    -3
  6
Continuous
100
AcDbCircle
 10
34.204177
 20
-140.203914
 30
0.0
 40
0.5
100
AcDbArc
 50
180.0
 51
224.884862
  0
ARC
  5
38E
100
AcDbEntity
  8
0
370
    -3
  6
Continuous
100
AcDbCircle
 10
33.495651
 20
-140.909599
 30
0.0
 40
0.5
100
AcDbArc
 50
1.652907
 51
44.884862
  0
ARC
  5
38F
100
AcDbEntity
  8
0
370
    -3
  6
Continuous
100
AcDbCircle
 10
35.229272
 20
-147.792773
 30
0.0
 40
1.0
100
AcDbArc
 50
182.220981
 51
254.778742
  0
ARC
  5
390
100
AcDbEntity
  8
0
370
    -3
  6
Continuous
100
AcDbCircle
 10
34.704177
 20
-149.722611
 30
0.0
 40
1.0
100
AcDbArc
 50
0.0
 51
74.778742
  0
LINE
  5
391
100
AcDbEntity
  8
0
370
    -3
  6
Continuous
100
AcDbLine
 10
35.704177
 20
-149.649766
 30
0.0
 11
35.704177
 21
-170.835323
 31
0.0
  0
ARC
  5
392
100
AcDbEntity
  8
0
370
    -3
  6
Continuous
100
AcDbCircle
 10
733.704177
 20
-119.703914
 30
0.0
 40
700.0
100
AcDbArc
 50
175.281496
 51
176.084948
  0
LINE
  5
393
100
AcDbEntity
  8
0
370
    -3
  6
Continuous
100
AcDbLine
 10
35.704177
 20
-120.703914
 30
0.0
 11
35.704177
 21
-112.703914
 31
0.0
  0
INSERT
  5
3A6
100
AcDbEntity
  8
0
100
AcDbBlockReference
  2
ZU_SYM__USERS_HOME_SYMBOL_STD_SYM_B01_00008-1
 10
35.70418
 20
-76.50974
 30
0.0
  0
LINE
  5
3A7
100
AcDbEntity
  8
0
370
    -3
  6
CENTER
100
AcDbLine
 10
29.267947
 20
-76.50974
 30
0.0
 11
38.113662
 21
-76.50974
 31
0.0
  0
LINE
  5
3A8
100
AcDbEntity
  8
0
370
    -3
  6
Continuous
100
AcDbLine
 10
37.073177
 20
-61.203914
 30
0.0
 11
41.204177
 21
-61.203914
 31
0.0
  0
LINE
  5
3A9
100
AcDbEntity
  8
0
370
    -3
  6
Continuous
100
AcDbLine
 10
41.204177
 20
-105.703914
 30
0.0
 11
36.404177
 21
-105.703914
 31
0.0
  0
LINE
  5
3AA
100
AcDbEntity
  8
0
370
    -3
  6
Continuous
100
AcDbLine
 10
35.704177
 20
-106.403914
 30
0.0
 11
35.704177
 21
-112.703914
 31
0.0
  0
ARC
  5
3AB
100
AcDbEntity
  8
0
370
    -3
  6
Continuous
100
AcDbCircle
 10
36.404177
 20
-106.403914
 30
0.0
 40
0.7
100
AcDbArc
 50
90.0
 51
180.0
  0
LINE
  5
3AC
100
AcDbEntity
  8
0
370
    -3
  6
Continuous
100
AcDbLine
 10
37.570177
 20
-90.703914
 30
0.0
 11
41.204177
 21
-90.894364
 31
0.0
  0
LINE
  5
3AD
100
AcDbEntity
  8
0
370
    -3
  6
Continuous
100
AcDbLine
 10
37.570177
 20
-88.703914
 30
0.0
 11
41.204177
 21
-88.513464
 31
0.0
  0
LINE
  5
3AE
100
AcDbEntity
  8
0
370
    -3
  6
Continuous
100
AcDbLine
 10
37.448177
 20
-101.703914
 30
0.0
 11
41.204177
 21
-101.900758
 31
0.0
  0
LINE
  5
3AF
100
AcDbEntity
  8
0
370
    -3
  6
Continuous
100
AcDbLine
 10
37.448177
 20
-99.703914
 30
0.0
 11
41.204177
 21
-99.507071
 31
0.0
  0
LINE
  5
3B0
100
AcDbEntity
  8
0
370
    -3
  6
Continuous
100
AcDbLine
 10
37.529177
 20
-96.203914
 30
0.0
 11
41.204177
 21
-96.396513
 31
0.0
  0
LINE
  5
3B1
100
AcDbEntity
  8
0
370
    -3
  6
Continuous
100
AcDbLine
 10
37.529177
 20
-94.203914
 30
0.0
 11
41.204177
 21
-94.011316
 31
0.0
  0
ARC
  5
3B2
100
AcDbEntity
  8
0
370
    -3
  6
Continuous
100
AcDbCircle
 10
37.448177
 20
-100.703914
 30
0.0
 40
1.0
100
AcDbArc
 50
90.0
 51
270.0
  0
ARC
  5
3B3
100
AcDbEntity
  8
0
370
    -3
  6
Continuous
100
AcDbCircle
 10
37.529177
 20
-95.203914
 30
0.0
 40
1.0
100
AcDbArc
 50
90.0
 51
270.0
  0
ARC
  5
3B4
100
AcDbEntity
  8
0
370
    -3
  6
Continuous
100
AcDbCircle
 10
37.570177
 20
-89.703914
 30
0.0
 40
1.0
100
AcDbArc
 50
90.0
 51
270.0
  0
ARC
  5
3B5
100
AcDbEntity
  8
0
370
    -3
  6
Continuous
100
AcDbCircle
 10
36.204177
 20
-70.572506
 30
0.0
 40
0.5
100
AcDbArc
 50
90.0
 51
180.0
  0
LINE
  5
3B6
100
AcDbEntity
  8
0
370
    -3
  6
Continuous
100
AcDbLine
 10
37.653177
 20
-85.203914
 30
0.0
 11
41.204177
 21
-85.390014
 31
0.0
  0
LINE
  5
3B7
100
AcDbEntity
  8
0
370
    -3
  6
Continuous
100
AcDbLine
 10
37.653177
 20
-83.203914
 30
0.0
 11
41.204177
 21
-83.017814
 31
0.0
  0
ARC
  5
3B8
100
AcDbEntity
  8
0
370
    -3
  6
Continuous
100
AcDbCircle
 10
37.073177
 20
-62.203914
 30
0.0
 40
1.0
100
AcDbArc
 50
90.0
 51
175.281496
  0
ARC
  5
3B9
100
AcDbEntity
  8
0
370
    -3
  6
Continuous
100
AcDbCircle
 10
35.229272
 20
-93.615056
 30
0.0
 40
1.0
100
AcDbArc
 50
105.221258
 51
177.779019
  0
ARC
  5
3BA
100
AcDbEntity
  8
0
370
    -3
  6
Continuous
100
AcDbCircle
 10
34.704177
 20
-91.685217
 30
0.0
 40
1.0
100
AcDbArc
 50
285.221258
 51
0.0
  0
LINE
  5
3BB
100
AcDbEntity
  8
0
370
    -3
  6
Continuous
100
AcDbLine
 10
35.704177
 20
-91.758062
 30
0.0
 11
35.704177
 21
-70.572506
 31
0.0
  0
ARC
  5
3BC
100
AcDbEntity
  8
0
370
    -3
  6
Continuous
100
AcDbCircle
 10
733.704177
 20
-120.703914
 30
0.0
 40
700.0
100
AcDbArc
 50
176.757441
 51
178.347093
  0
LINE
  5
3BD
100
AcDbEntity
  8
0
370
    -3
  6
Continuous
100
AcDbLine
 10
33.704177
 20
-101.203914
 30
0.0
 11
33.704177
 21
-120.703914
 31
0.0
  0
ARC
  5
3BE
100
AcDbEntity
  8
0
370
    -3
  6
Continuous
100
AcDbCircle
 10
34.204177
 20
-101.203914
 30
0.0
 40
0.5
100
AcDbArc
 50
135.115138
 51
180.0
  0
ARC
  5
3BF
100
AcDbEntity
  8
0
370
    -3
  6
Continuous
100
AcDbCircle
 10
33.495651
 20
-100.49823
 30
0.0
 40
0.5
100
AcDbArc
 50
315.115138
 51
358.347093
  0
ARC
  5
3C0
100
AcDbEntity
  8
0
370
    -3
  6
Continuous
100
AcDbCircle
 10
37.653177
 20
-84.203914
 30
0.0
 40
1.0
100
AcDbArc
 50
90.0
 51
270.0
  0
LINE
  5
3C1
100
AcDbEntity
  8
0
370
    -3
  6
CENTER
100
AcDbLine
 10
278.479121
 20
-120.703914
 30
0.0
 11
20.940436
 21
-120.703914
 31
0.0
  0
LINE
  5
3C2
100
AcDbEntity
  8
0
370
    -3
  6
Continuous
100
AcDbLine
 10
41.204177
 20
-180.209326
 30
0.0
 11
41.204177
 21
-120.703914
 31
0.0
  0
LINE
  5
3C3
100
AcDbEntity
  8
0
370
    -3
  6
Continuous
100
AcDbLine
 10
40.704177
 20
-162.148088
 30
0.0
 11
40.704177
 21
-171.335323
 31
0.0
  0
LINE
  5
3C4
100
AcDbEntity
  8
0
370
    -3
  6
Continuous
100
AcDbLine
 10
40.704177
 20
-162.148088
 30
0.0
 11
41.204177
 21
-162.148088
 31
0.0
  0
LINE
  5
3C5
100
AcDbEntity
  8
0
370
    -3
  6
Continuous
100
AcDbLine
 10
41.204177
 20
-61.209326
 30
0.0
 11
41.204177
 21
-120.703914
 31
0.0
  0
LINE
  5
3C6
100
AcDbEntity
  8
0
370
    -3
  6
Continuous
100
AcDbLine
 10
40.704177
 20
-79.25974
 30
0.0
 11
40.704177
 21
-70.072506
 31
0.0
  0
LINE
  5
3C7
100
AcDbEntity
  8
0
370
    -3
  6
Continuous
100
AcDbLine
 10
40.704177
 20
-79.25974
 30
0.0
 11
41.204177
 21
-79.25974
 31
0.0
  0
LINE
  5
3C8
100
AcDbEntity
  8
0
370
    -3
  6
Continuous
100
AcDbLine
 10
41.204177
 20
-105.709326
 30
0.0
 11
180.204177
 21
-105.709326
 31
0.0
  0
LINE
  5
3C9
100
AcDbEntity
  8
0
370
    -3
  6
Continuous
100
AcDbLine
 10
41.204177
 20
-65.709326
 30
0.0
 11
180.204177
 21
-65.709326
 31
0.0
  0
LINE
  5
3CA
100
AcDbEntity
  8
0
370
    -3
  6
Continuous
100
AcDbLine
 10
41.204177
 20
-64.709326
 30
0.0
 11
180.204177
 21
-64.709326
 31
0.0
  0
LINE
  5
3CB
100
AcDbEntity
  8
0
370
    -3
  6
Continuous
100
AcDbLine
 10
41.204177
 20
-63.709326
 30
0.0
 11
180.204177
 21
-63.709326
 31
0.0
  0
LINE
  5
3CC
100
AcDbEntity
  8
0
370
    -3
  6
Continuous
100
AcDbLine
 10
41.204177
 20
-177.709326
 30
0.0
 11
180.204177
 21
-177.709326
 31
0.0
  0
LINE
  5
3CD
100
AcDbEntity
  8
0
370
    -3
  6
Continuous
100
AcDbLine
 10
41.204177
 20
-176.709326
 30
0.0
 11
180.204177
 21
-176.709326
 31
0.0
  0
LINE
  5
3CE
100
AcDbEntity
  8
0
370
    -3
  6
Continuous
100
AcDbLine
 10
41.204177
 20
-175.709326
 30
0.0
 11
180.204177
 21
-175.709326
 31
0.0
  0
LINE
  5
3CF
100
AcDbEntity
  8
0
370
    -3
  6
Continuous
100
AcDbLine
 10
41.204177
 20
-171.024861
 30
0.0
 11
180.204177
 21
-171.024861
 31
0.0
  0
LINE
  5
3D0
100
AcDbEntity
  8
0
370
    -3
  6
Continuous
100
AcDbLine
 10
41.204177
 20
-166.075113
 30
0.0
 11
180.204177
 21
-166.075113
 31
0.0
  0
LINE
  5
3D1
100
AcDbEntity
  8
0
370
    -3
  6
Continuous
100
AcDbLine
 10
41.204177
 20
-135.709326
 30
0.0
 11
180.204177
 21
-135.709326
 31
0.0
  0
LINE
  5
3D2
100
AcDbEntity
  8
0
370
    -3
  6
Continuous
100
AcDbLine
 10
41.204177
 20
-61.209326
 30
0.0
 11
55.411383
 21
-61.209326
 31
0.0
  0
LINE
  5
3D3
100
AcDbEntity
  8
0
370
    -3
  6
Continuous
100
AcDbLine
 10
41.204177
 20
-180.209326
 30
0.0
 11
180.204177
 21
-180.209326
 31
0.0
  0
LINE
  5
3D4
100
AcDbEntity
  8
0
370
    -3
  6
Continuous
100
AcDbLine
 10
41.204177
 20
-75.332715
 30
0.0
 11
180.204177
 21
-75.332715
 31
0.0
  0
LINE
  5
3D5
100
AcDbEntity
  8
0
370
    -3
  6
Continuous
100
AcDbLine
 10
41.204177
 20
-70.382968
 30
0.0
 11
180.204177
 21
-70.382968
 31
0.0
  0
LINE
  5
3D6
100
AcDbEntity
  8
0
370
    -3
  6
Continuous
100
AcDbLine
 10
41.204177
 20
-101.703876
 30
0.0
 11
180.204177
 21
-101.703876
 31
0.0
  0
LINE
  5
3D7
100
AcDbEntity
  8
0
370
    -3
  6
Continuous
100
AcDbLine
 10
41.204177
 20
-99.675364
 30
0.0
 11
180.204177
 21
-99.675364
 31
0.0
  0
LINE
  5
3D8
100
AcDbEntity
  8
0
370
    -3
  6
Continuous
100
AcDbLine
 10
41.204177
 20
-96.244943
 30
0.0
 11
180.204177
 21
-96.244943
 31
0.0
  0
LINE
  5
3D9
100
AcDbEntity
  8
0
370
    -3
  6
Continuous
100
AcDbLine
 10
41.204177
 20
-94.120718
 30
0.0
 11
180.204177
 21
-94.120718
 31
0.0
  0
LINE
  5
3DA
100
AcDbEntity
  8
0
370
    -3
  6
Continuous
100
AcDbLine
 10
41.204177
 20
-90.788209
 30
0.0
 11
180.204177
 21
-90.788209
 31
0.0
  0
LINE
  5
3DB
100
AcDbEntity
  8
0
370
    -3
  6
Continuous
100
AcDbLine
 10
41.204177
 20
-88.558805
 30
0.0
 11
180.204177
 21
-88.558805
 31
0.0
  0
LINE
  5
3DC
100
AcDbEntity
  8
0
370
    -3
  6
Continuous
100
AcDbLine
 10
41.204177
 20
-85.350206
 30
0.0
 11
180.204177
 21
-85.350206
 31
0.0
  0
LINE
  5
3DD
100
AcDbEntity
  8
0
370
    -3
  6
Continuous
100
AcDbLine
 10
41.204177
 20
-83.013507
 30
0.0
 11
180.204177
 21
-83.013507
 31
0.0
  0
LINE
  5
3DE
100
AcDbEntity
  8
0
370
    -3
  6
Continuous
100
AcDbLine
 10
41.204177
 20
-139.714777
 30
0.0
 11
180.204177
 21
-139.714777
 31
0.0
  0
LINE
  5
3DF
100
AcDbEntity
  8
0
370
    -3
  6
Continuous
100
AcDbLine
 10
41.204177
 20
-141.743289
 30
0.0
 11
180.204177
 21
-141.743289
 31
0.0
  0
LINE
  5
3E0
100
AcDbEntity
  8
0
370
    -3
  6
Continuous
100
AcDbLine
 10
41.204177
 20
-145.17371
 30
0.0
 11
180.204177
 21
-145.17371
 31
0.0
  0
LINE
  5
3E1
100
AcDbEntity
  8
0
370
    -3
  6
Continuous
100
AcDbLine
 10
41.204177
 20
-147.297935
 30
0.0
 11
180.204177
 21
-147.297935
 31
0.0
  0
LINE
  5
3E2
100
AcDbEntity
  8
0
370
    -3
  6
Continuous
100
AcDbLine
 10
41.204177
 20
-150.630444
 30
0.0
 11
180.204177
 21
-150.630444
 31
0.0
  0
LINE
  5
3E3
100
AcDbEntity
  8
0
370
    -3
  6
Continuous
100
AcDbLine
 10
41.204177
 20
-152.859848
 30
0.0
 11
180.204177
 21
-152.859848
 31
0.0
  0
LINE
  5
3E4
100
AcDbEntity
  8
0
370
    -3
  6
Continuous
100
AcDbLine
 10
41.204177
 20
-156.068447
 30
0.0
 11
180.204177
 21
-156.068447
 31
0.0
  0
LINE
  5
3E5
100
AcDbEntity
  8
0
370
    -3
  6
Continuous
100
AcDbLine
 10
41.204177
 20
-158.405146
 30
0.0
 11
180.204177
 21
-158.405146
 31
0.0
  0
LINE
  5
3E6
100
AcDbEntity
  8
0
370
    -3
  6
Continuous
100
AcDbLine
 10
-192.795618
 20
-53.703914
 30
0.0
 11
-130.795618
 21
-53.703914
 31
0.0
  0
LINE
  5
3E7
100
AcDbEntity
  8
0
370
    -3
  6
Continuous
100
AcDbLine
 10
-193.321461
 20
-53.703914
 30
0.0
 11
-130.269775
 21
-53.703914
 31
0.0
  0
LINE
  5
3E8
100
AcDbEntity
  8
0
370
    -3
  6
Continuous
100
AcDbLine
 10
-161.795618
 20
-59.703914
 30
0.0
 11
-180.312773
 21
-59.703914
 31
0.0
  0
LINE
  5
3E9
100
AcDbEntity
  8
0
370
    -3
  6
Continuous
100
AcDbLine
 10
-161.795618
 20
-59.703914
 30
0.0
 11
-143.278462
 21
-59.703914
 31
0.0
  0
LINE
  5
3EA
100
AcDbEntity
  8
0
370
    -3
  6
Continuous
100
AcDbLine
 10
-192.795618
 20
-53.703914
 30
0.0
 11
-130.795618
 21
-53.703914
 31
0.0
  0
LINE
  5
3EB
100
AcDbEntity
  8
0
370
    -3
  6
Continuous
100
AcDbLine
 10
-192.795618
 20
-53.703914
 30
0.0
 11
-192.795618
 21
-52.703914
 31
0.0
  0
LINE
  5
3EC
100
AcDbEntity
  8
0
370
    -3
  6
Continuous
100
AcDbLine
 10
-161.795618
 20
-53.703914
 30
0.0
 11
-192.795618
 21
-53.703914
 31
0.0
  0
LINE
  5
3ED
100
AcDbEntity
  8
0
370
    -3
  6
Continuous
100
AcDbLine
 10
-130.795618
 20
-53.703914
 30
0.0
 11
-130.795618
 21
-52.703914
 31
0.0
  0
LINE
  5
3EE
100
AcDbEntity
  8
0
370
    -3
  6
Continuous
100
AcDbLine
 10
-161.795618
 20
-53.703914
 30
0.0
 11
-130.795618
 21
-53.703914
 31
0.0
  0
ARC
  5
3EF
100
AcDbEntity
  8
0
370
    -3
  6
Continuous
100
AcDbCircle
 10
-133.314647
 20
-58.203914
 30
0.0
 40
0.5
100
AcDbArc
 50
90.0
 51
180.0
  0
LINE
  5
3F0
100
AcDbEntity
  8
0
370
    -3
  6
Continuous
100
AcDbLine
 10
-133.814647
 20
-59.203914
 30
0.0
 11
-133.814647
 21
-58.203914
 31
0.0
  0
ARC
  5
3F1
100
AcDbEntity
  8
0
370
    -3
  6
Continuous
100
AcDbCircle
 10
-134.314647
 20
-59.203914
 30
0.0
 40
0.5
100
AcDbArc
 50
270.0
 51
0.0
  0
ARC
  5
3F2
100
AcDbEntity
  8
0
370
    -3
  6
Continuous
100
AcDbCircle
 10
-134.373256
 20
-60.203914
 30
0.0
 40
0.5
100
AcDbArc
 50
90.0
 51
172.874984
  0
LINE
  5
3F3
100
AcDbEntity
  8
0
370
    -3
  6
Continuous
100
AcDbLine
 10
-143.278462
 20
-59.703914
 30
0.0
 11
-134.314647
 21
-59.703914
 31
0.0
  0
LINE
  5
3F4
100
AcDbEntity
  8
0
370
    -3
  6
Continuous
100
AcDbLine
 10
-143.045618
 20
-61.320063
 30
0.0
 11
-143.045618
 21
-59.703914
 31
0.0
  0
ARC
  5
3F5
100
AcDbEntity
  8
0
370
    -3
  6
Continuous
100
AcDbCircle
 10
-143.256038
 20
-60.203914
 30
0.0
 40
0.5
100
AcDbArc
 50
7.125016
 51
90.0
  0
LINE
  5
3F6
100
AcDbEntity
  8
0
370
    -3
  6
Continuous
100
AcDbLine
 10
-142.612629
 20
-61.320063
 30
0.0
 11
-142.7599
 21
-60.141897
 31
0.0
  0
ARC
  5
3F7
100
AcDbEntity
  8
0
370
    -3
  6
Continuous
100
AcDbCircle
 10
-180.312773
 20
-59.203914
 30
0.0
 40
0.5
100
AcDbArc
 50
182.0
 51
270.0
  0
LINE
  5
3F8
100
AcDbEntity
  8
0
370
    -3
  6
Continuous
100
AcDbLine
 10
-180.812469
 20
-59.221364
 30
0.0
 11
-180.848608
 21
-58.186464
 31
0.0
  0
ARC
  5
3F9
100
AcDbEntity
  8
0
370
    -3
  6
Continuous
100
AcDbCircle
 10
-181.348304
 20
-58.203914
 30
0.0
 40
0.5
100
AcDbArc
 50
2.0
 51
90.0
  0
LINE
  5
3FA
100
AcDbEntity
  8
0
370
    -3
  6
Continuous
100
AcDbLine
 10
-181.348304
 20
-57.703914
 30
0.0
 11
-194.400361
 21
-57.703914
 31
0.0
  0
LINE
  5
3FB
100
AcDbEntity
  8
0
370
    -3
  6
Continuous
100
AcDbLine
 10
-194.400361
 20
-57.703914
 30
0.0
 11
-194.321118
 21
-54.677737
 31
0.0
  0
ARC
  5
3FC
100
AcDbEntity
  8
0
370
    -3
  6
Continuous
100
AcDbCircle
 10
-193.321461
 20
-54.703914
 30
0.0
 40
1.0
100
AcDbArc
 50
90.0
 51
178.5
  0
LINE
  5
3FD
100
AcDbEntity
  8
0
370
    -3
  6
Continuous
100
AcDbLine
 10
-130.269775
 20
-53.703914
 30
0.0
 11
-193.321461
 21
-53.703914
 31
0.0
  0
ARC
  5
3FE
100
AcDbEntity
  8
0
370
    -3
  6
Continuous
100
AcDbCircle
 10
-130.269775
 20
-54.703914
 30
0.0
 40
1.0
100
AcDbArc
 50
1.5
 51
90.0
  0
LINE
  5
3FF
100
AcDbEntity
  8
0
370
    -3
  6
Continuous
100
AcDbLine
 10
-129.190874
 20
-57.703914
 30
0.0
 11
-129.270117
 21
-54.677737
 31
0.0
  0
LINE
  5
400
100
AcDbEntity
  8
0
370
    -3
  6
Continuous
100
AcDbLine
 10
-142.242932
 20
-57.703914
 30
0.0
 11
-129.190874
 21
-57.703914
 31
0.0
  0
ARC
  5
401
100
AcDbEntity
  8
0
370
    -3
  6
Continuous
100
AcDbCircle
 10
-142.242932
 20
-58.203914
 30
0.0
 40
0.5
100
AcDbArc
 50
90.0
 51
178.0
  0
LINE
  5
402
100
AcDbEntity
  8
0
370
    -3
  6
Continuous
100
AcDbLine
 10
-142.778767
 20
-59.221364
 30
0.0
 11
-142.742627
 21
-58.186464
 31
0.0
  0
ARC
  5
403
100
AcDbEntity
  8
0
370
    -3
  6
Continuous
100
AcDbCircle
 10
-143.278462
 20
-59.203914
 30
0.0
 40
0.5
100
AcDbArc
 50
270.0
 51
358.0
  0
LINE
  5
404
100
AcDbEntity
  8
0
370
    -3
  6
Continuous
100
AcDbLine
 10
-180.312773
 20
-59.703914
 30
0.0
 11
-189.276588
 21
-59.703914
 31
0.0
  0
ARC
  5
405
100
AcDbEntity
  8
0
370
    -3
  6
Continuous
100
AcDbCircle
 10
-190.276588
 20
-58.203914
 30
0.0
 40
0.5
100
AcDbArc
 50
0.0
 51
90.0
  0
LINE
  5
406
100
AcDbEntity
  8
0
370
    -3
  6
Continuous
100
AcDbLine
 10
-189.776588
 20
-59.203914
 30
0.0
 11
-189.776588
 21
-58.203914
 31
0.0
  0
ARC
  5
407
100
AcDbEntity
  8
0
370
    -3
  6
Continuous
100
AcDbCircle
 10
-189.276588
 20
-59.203914
 30
0.0
 40
0.5
100
AcDbArc
 50
180.0
 51
270.0
  0
ARC
  5
408
100
AcDbEntity
  8
0
370
    -3
  6
Continuous
100
AcDbCircle
 10
-189.217979
 20
-60.203914
 30
0.0
 40
0.5
100
AcDbArc
 50
7.125016
 51
90.0
  0
ARC
  5
409
100
AcDbEntity
  8
0
370
    -3
  6
Continuous
100
AcDbCircle
 10
-180.335197
 20
-60.203914
 30
0.0
 40
0.5
100
AcDbArc
 50
90.0
 51
172.874984
  0
LINE
  5
40A
100
AcDbEntity
  8
0
370
    -3
  6
Continuous
100
AcDbLine
 10
-180.978607
 20
-61.320063
 30
0.0
 11
-180.831336
 21
-60.141897
 31
0.0
  0
LINE
  5
40B
100
AcDbEntity
  8
0
370
    -3
  6
Continuous
100
AcDbLine
 10
-180.545618
 20
-61.320063
 30
0.0
 11
-180.545618
 21
-59.703914
 31
0.0
  0
LINE
  5
40C
100
AcDbEntity
  8
0
370
    -3
  6
Continuous
100
AcDbLine
 10
-192.795618
 20
-52.703914
 30
0.0
 11
-161.795618
 21
-52.703914
 31
0.0
  0
LINE
  5
40D
100
AcDbEntity
  8
0
370
    -3
  6
Continuous
100
AcDbLine
 10
-130.795618
 20
-52.703914
 30
0.0
 11
-161.795618
 21
-52.703914
 31
0.0
  0
ARC
  5
40E
100
AcDbEntity
  8
0
370
    -3
  6
Continuous
100
AcDbCircle
 10
-130.269775
 20
-54.703914
 30
0.0
 40
1.0
100
AcDbArc
 50
1.5
 51
90.0
  0
LINE
  5
40F
100
AcDbEntity
  8
0
370
    -3
  6
Continuous
100
AcDbLine
 10
-130.269775
 20
-53.703914
 30
0.0
 11
-193.321461
 21
-53.703914
 31
0.0
  0
LINE
  5
410
100
AcDbEntity
  8
0
370
    -3
  6
CENTER
100
AcDbLine
 10
-180.44055
 20
-26.703914
 30
0.0
 11
-140.495161
 21
-26.703914
 31
0.0
  0
ARC
  5
411
100
AcDbEntity
  8
0
370
    -3
  6
Continuous
100
AcDbCircle
 10
-122.795618
 20
-43.148391
 30
0.0
 40
7.8
100
AcDbArc
 50
270.0
 51
0.0
  0
LINE
  5
412
100
AcDbEntity
  8
0
370
    -3
  6
Continuous
100
AcDbLine
 10
-115.795618
 20
-13.235379
 30
0.0
 11
-115.795618
 21
-43.610296
 31
0.0
  0
ARC
  5
413
100
AcDbEntity
  8
0
370
    -3
  6
Continuous
100
AcDbCircle
 10
-122.795618
 20
-13.235379
 30
0.0
 40
7.0
100
AcDbArc
 50
0.0
 51
90.0
  0
ARC
  5
414
100
AcDbEntity
  8
0
370
    -3
  6
Continuous
100
AcDbCircle
 10
-122.795618
 20
-13.697284
 30
0.0
 40
7.8
100
AcDbArc
 50
0.0
 51
90.0
  0
ARC
  5
415
100
AcDbEntity
  8
0
370
    -3
  6
Continuous
100
AcDbCircle
 10
-122.795618
 20
-9.032766
 30
0.0
 40
7.8
100
AcDbArc
 50
0.0
 51
90.0
  0
ELLIPSE
  5
416
100
AcDbEntity
  8
0
370
    -3
  6
Continuous
100
AcDbEllipse
 10
-122.295618
 20
-3.118174
 30
0.0
 11
3.5
 21
0.0
 31
0.0
210
0.0
220
0.0
230
1.0
 40
0.656603
 41
0.4330509754535205
 42
2.1794532890791456
  0
LINE
  5
417
100
AcDbEntity
  8
0
370
    -3
  6
Continuous
100
AcDbLine
 10
-114.995618
 20
-9.032766
 30
0.0
 11
-114.995618
 21
-43.148391
 31
0.0
  0
LINE
  5
418
100
AcDbEntity
  8
0
370
    -3
  6
Continuous
100
AcDbLine
 10
-161.795618
 20
-6.235379
 30
0.0
 11
-122.795618
 21
-6.235379
 31
0.0
  0
LINE
  5
419
100
AcDbEntity
  8
0
370
    -3
  6
Continuous
100
AcDbLine
 10
-122.795618
 20
-1.232766
 30
0.0
 11
-161.795618
 21
-1.232766
 31
0.0
  0
LINE
  5
41A
100
AcDbEntity
  8
0
370
    -3
  6
Continuous
100
AcDbLine
 10
-161.795618
 20
-53.703914
 30
0.0
 11
-130.795618
 21
-53.703914
 31
0.0
  0
LINE
  5
41B
100
AcDbEntity
  8
0
370
    -3
  6
Continuous
100
AcDbLine
 10
-130.795618
 20
-52.703914
 30
0.0
 11
-161.795618
 21
-52.703914
 31
0.0
  0
LINE
  5
41C
100
AcDbEntity
  8
0
370
    -3
  6
Continuous
100
AcDbLine
 10
-130.795618
 20
-53.703914
 30
0.0
 11
-130.795618
 21
-52.703914
 31
0.0
  0
ARC
  5
41D
100
AcDbEntity
  8
0
370
    -3
  6
Continuous
100
AcDbCircle
 10
-122.795618
 20
-43.610296
 30
0.0
 40
7.0
100
AcDbArc
 50
270.0
 51
0.0
  0
LINE
  5
41E
100
AcDbEntity
  8
0
370
    -3
  6
Continuous
100
AcDbLine
 10
-161.795618
 20
-52.703914
 30
0.0
 11
-133.795618
 21
-52.703914
 31
0.0
  0
LINE
  5
41F
100
AcDbEntity
  8
0
370
    -3
  6
Continuous
100
AcDbLine
 10
-161.795618
 20
-7.468003
 30
0.0
 11
-135.736584
 21
-7.468003
 31
0.0
  0
LINE
  5
420
100
AcDbEntity
  8
0
370
    -3
  6
Continuous
100
AcDbLine
 10
-122.495618
 20
-44.903914
 30
0.0
 11
-122.495618
 21
-15.271056
 31
0.0
  0
LINE
  5
421
100
AcDbEntity
  8
0
370
    -3
  6
Continuous
100
AcDbLine
 10
-134.253187
 20
-7.769498
 30
0.0
 11
-124.812221
 21
-11.772551
 31
0.0
  0
ARC
  5
422
100
AcDbEntity
  8
0
370
    -3
  6
Continuous
100
AcDbCircle
 10
-135.736584
 20
-11.268003
 30
0.0
 40
3.8
100
AcDbArc
 50
67.022625
 51
90.0
  0
ARC
  5
423
100
AcDbEntity
  8
0
370
    -3
  6
Continuous
100
AcDbCircle
 10
-126.295618
 20
-15.271056
 30
0.0
 40
3.8
100
AcDbArc
 50
0.0
 51
67.022625
  0
LINE
  5
424
100
AcDbEntity
  8
0
370
    -3
  6
Continuous
100
AcDbLine
 10
-161.795618
 20
-51.703914
 30
0.0
 11
-129.295618
 21
-51.703914
 31
0.0
  0
ARC
  5
425
100
AcDbEntity
  8
0
370
    -3
  6
Continuous
100
AcDbCircle
 10
-129.295618
 20
-44.903914
 30
0.0
 40
6.8
100
AcDbArc
 50
270.0
 51
0.0
  0
LINE
  5
426
100
AcDbEntity
  8
0
370
    -3
  6
Continuous
100
AcDbLine
 10
-123.344429
 20
-48.193801
 30
0.0
 11
-122.295618
 21
-48.193801
 31
0.0
  0
ARC
  5
427
100
AcDbEntity
  8
0
370
    -3
  6
Continuous
100
AcDbCircle
 10
-122.295618
 20
-42.193801
 30
0.0
 40
6.0
100
AcDbArc
 50
270.0
 51
0.0
  0
ARC
  5
428
100
AcDbEntity
  8
0
370
    -3
  6
Continuous
100
AcDbCircle
 10
-132.530707
 20
-52.003914
 30
0.0
 40
0.3
100
AcDbArc
 50
90.0
 51
166.657636
  0
ARC
  5
429
100
AcDbEntity
  8
0
370
    -3
  6
Continuous
100
AcDbCircle
 10
-133.795618
 20
-51.703914
 30
0.0
 40
1.0
100
AcDbArc
 50
270.0
 51
346.657636
  0
LINE
  5
42A
100
AcDbEntity
  8
0
370
    -3
  6
Continuous
100
AcDbLine
 10
-125.597347
 20
-50.610296
 30
0.0
 11
-122.795618
 21
-50.610296
 31
0.0
  0
LINE
  5
42B
100
AcDbEntity
  8
0
370
    -3
  6
Continuous
100
AcDbLine
 10
-122.795618
 20
-50.948391
 30
0.0
 11
-126.180445
 21
-50.948391
 31
0.0
  0
LINE
  5
42C
100
AcDbEntity
  8
0
370
    -3
  6
Continuous
100
AcDbLine
 10
-116.295618
 20
-42.193801
 30
0.0
 11
-116.295618
 21
-10.637303
 31
0.0
  0
LINE
  5
42D
100
AcDbEntity
  8
0
370
    -3
  6
Continuous
100
AcDbLine
 10
-161.795618
 20
-5.897284
 30
0.0
 11
-122.795618
 21
-5.897284
 31
0.0
  0
LINE
  5
42E
100
AcDbEntity
  8
0
370
    -3
  6
CENTER
100
AcDbLine
 10
-180.44055
 20
-26.703914
 30
0.0
 11
-140.495161
 21
-26.703914
 31
0.0
  0
ARC
  5
42F
100
AcDbEntity
  8
0
370
    -3
  6
Continuous
100
AcDbCircle
 10
-200.795618
 20
-43.148391
 30
0.0
 40
7.8
100
AcDbArc
 50
180.0
 51
270.0
  0
LINE
  5
430
100
AcDbEntity
  8
0
370
    -3
  6
Continuous
100
AcDbLine
 10
-207.795618
 20
-13.235379
 30
0.0
 11
-207.795618
 21
-43.610296
 31
0.0
  0
ARC
  5
431
100
AcDbEntity
  8
0
370
    -3
  6
Continuous
100
AcDbCircle
 10
-200.795618
 20
-13.235379
 30
0.0
 40
7.0
100
AcDbArc
 50
90.0
 51
180.0
  0
ARC
  5
432
100
AcDbEntity
  8
0
370
    -3
  6
Continuous
100
AcDbCircle
 10
-200.795618
 20
-13.697284
 30
0.0
 40
7.8
100
AcDbArc
 50
90.0
 51
180.0
  0
ARC
  5
433
100
AcDbEntity
  8
0
370
    -3
  6
Continuous
100
AcDbCircle
 10
-200.795618
 20
-9.032766
 30
0.0
 40
7.8
100
AcDbArc
 50
90.0
 51
180.0
  0
ELLIPSE
  5
434
100
AcDbEntity
  8
0
370
    -3
  6
Continuous
100
AcDbEllipse
 10
-201.295618
 20
-3.118174
 30
0.0
 11
3.5
 21
0.0
 31
0.0
210
0.0
220
0.0
230
1.0
 40
0.656603
 41
0.9621393645110468
 42
2.7085416781362457
  0
LINE
  5
435
100
AcDbEntity
  8
0
370
    -3
  6
Continuous
100
AcDbLine
 10
-208.595618
 20
-9.032766
 30
0.0
 11
-208.595618
 21
-43.148391
 31
0.0
  0
LINE
  5
436
100
AcDbEntity
  8
0
370
    -3
  6
Continuous
100
AcDbLine
 10
-161.795618
 20
-6.235379
 30
0.0
 11
-200.795618
 21
-6.235379
 31
0.0
  0
LINE
  5
437
100
AcDbEntity
  8
0
370
    -3
  6
Continuous
100
AcDbLine
 10
-200.795618
 20
-1.232766
 30
0.0
 11
-161.795618
 21
-1.232766
 31
0.0
  0
LINE
  5
438
100
AcDbEntity
  8
0
370
    -3
  6
Continuous
100
AcDbLine
 10
-161.795618
 20
-53.703914
 30
0.0
 11
-192.795618
 21
-53.703914
 31
0.0
  0
LINE
  5
439
100
AcDbEntity
  8
0
370
    -3
  6
Continuous
100
AcDbLine
 10
-192.795618
 20
-52.703914
 30
0.0
 11
-161.795618
 21
-52.703914
 31
0.0
  0
LINE
  5
43A
100
AcDbEntity
  8
0
370
    -3
  6
Continuous
100
AcDbLine
 10
-192.795618
 20
-53.703914
 30
0.0
 11
-192.795618
 21
-52.703914
 31
0.0
  0
ARC
  5
43B
100
AcDbEntity
  8
0
370
    -3
  6
Continuous
100
AcDbCircle
 10
-200.795618
 20
-43.610296
 30
0.0
 40
7.0
100
AcDbArc
 50
180.0
 51
270.0
  0
LINE
  5
43C
100
AcDbEntity
  8
0
370
    -3
  6
Continuous
100
AcDbLine
 10
-161.795618
 20
-52.703914
 30
0.0
 11
-189.795618
 21
-52.703914
 31
0.0
  0
LINE
  5
43D
100
AcDbEntity
  8
0
370
    -3
  6
Continuous
100
AcDbLine
 10
-161.795618
 20
-7.468003
 30
0.0
 11
-187.854651
 21
-7.468003
 31
0.0
  0
LINE
  5
43E
100
AcDbEntity
  8
0
370
    -3
  6
Continuous
100
AcDbLine
 10
-201.095618
 20
-44.903914
 30
0.0
 11
-201.095618
 21
-15.271056
 31
0.0
  0
LINE
  5
43F
100
AcDbEntity
  8
0
370
    -3
  6
Continuous
100
AcDbLine
 10
-189.338048
 20
-7.769498
 30
0.0
 11
-198.779015
 21
-11.772551
 31
0.0
  0
ARC
  5
440
100
AcDbEntity
  8
0
370
    -3
  6
Continuous
100
AcDbCircle
 10
-187.854651
 20
-11.268003
 30
0.0
 40
3.8
100
AcDbArc
 50
90.0
 51
112.977375
  0
ARC
  5
441
100
AcDbEntity
  8
0
370
    -3
  6
Continuous
100
AcDbCircle
 10
-197.295618
 20
-15.271056
 30
0.0
 40
3.8
100
AcDbArc
 50
112.977375
 51
180.0
  0
LINE
  5
442
100
AcDbEntity
  8
0
370
    -3
  6
Continuous
100
AcDbLine
 10
-161.795618
 20
-51.703914
 30
0.0
 11
-194.295618
 21
-51.703914
 31
0.0
  0
ARC
  5
443
100
AcDbEntity
  8
0
370
    -3
  6
Continuous
100
AcDbCircle
 10
-194.295618
 20
-44.903914
 30
0.0
 40
6.8
100
AcDbArc
 50
180.0
 51
270.0
  0
LINE
  5
444
100
AcDbEntity
  8
0
370
    -3
  6
Continuous
100
AcDbLine
 10
-200.246806
 20
-48.193801
 30
0.0
 11
-201.295618
 21
-48.193801
 31
0.0
  0
ARC
  5
445
100
AcDbEntity
  8
0
370
    -3
  6
Continuous
100
AcDbCircle
 10
-201.295618
 20
-42.193801
 30
0.0
 40
6.0
100
AcDbArc
 50
180.0
 51
270.0
  0
ARC
  5
446
100
AcDbEntity
  8
0
370
    -3
  6
Continuous
100
AcDbCircle
 10
-191.060529
 20
-52.003914
 30
0.0
 40
0.3
100
AcDbArc
 50
13.342364
 51
90.0
  0
ARC
  5
447
100
AcDbEntity
  8
0
370
    -3
  6
Continuous
100
AcDbCircle
 10
-189.795618
 20
-51.703914
 30
0.0
 40
1.0
100
AcDbArc
 50
193.342364
 51
270.0
  0
LINE
  5
448
100
AcDbEntity
  8
0
370
    -3
  6
Continuous
100
AcDbLine
 10
-197.993888
 20
-50.610296
 30
0.0
 11
-200.795618
 21
-50.610296
 31
0.0
  0
LINE
  5
449
100
AcDbEntity
  8
0
370
    -3
  6
Continuous
100
AcDbLine
 10
-200.795618
 20
-50.948391
 30
0.0
 11
-197.410791
 21
-50.948391
 31
0.0
  0
LINE
  5
44A
100
AcDbEntity
  8
0
370
    -3
  6
Continuous
100
AcDbLine
 10
-207.295618
 20
-42.193801
 30
0.0
 11
-207.295618
 21
-10.637303
 31
0.0
  0
LINE
  5
44B
100
AcDbEntity
  8
0
370
    -3
  6
Continuous
100
AcDbLine
 10
-161.795618
 20
-5.897284
 30
0.0
 11
-200.795618
 21
-5.897284
 31
0.0
  0
LINE
  5
44C
100
AcDbEntity
  8
0
370
    -3
  6
Continuous
100
AcDbLine
 10
-134.964247
 20
-44.903914
 30
0.0
 11
-134.964247
 21
-7.547318
 31
0.0
  0
ARC
  5
44D
100
AcDbEntity
  8
0
370
    -3
  6
Continuous
100
AcDbCircle
 10
-141.764247
 20
-44.903914
 30
0.0
 40
6.8
100
AcDbArc
 50
270.0
 51
0.0
  0
ARC
  5
44E
100
AcDbEntity
  8
0
370
    -3
  6
Continuous
100
AcDbCircle
 10
-181.826989
 20
-44.903914
 30
0.0
 40
6.8
100
AcDbArc
 50
180.0
 51
270.0
  0
LINE
  5
44F
100
AcDbEntity
  8
0
370
    -3
  6
Continuous
100
AcDbLine
 10
-188.626989
 20
-44.903914
 30
0.0
 11
-188.626989
 21
-7.547318
 31
0.0
  0
ARC
  5
450
100
AcDbEntity
  8
0
370
    -3
  6
Continuous
100
AcDbCircle
 10
-161.795618
 20
-26.703914
 30
0.0
 40
13.2205
100
AcDbArc
 50
90.0
 51
270.0
  0
ARC
  5
451
100
AcDbEntity
  8
0
370
    -3
  6
Continuous
100
AcDbCircle
 10
-161.795618
 20
-26.703914
 30
0.0
 40
12.0585
100
AcDbArc
 50
90.0
 51
270.0
  0
ARC
  5
452
100
AcDbEntity
  8
0
370
    -3
  6
Continuous
100
AcDbCircle
 10
-161.795618
 20
-26.703914
 30
0.0
 40
17.0
100
AcDbArc
 50
90.0
 51
270.0
  0
ARC
  5
453
100
AcDbEntity
  8
0
370
    -3
  6
Continuous
100
AcDbCircle
 10
-161.795618
 20
-26.703914
 30
0.0
 40
13.2205
100
AcDbArc
 50
270.0
 51
90.0
  0
ARC
  5
454
100
AcDbEntity
  8
0
370
    -3
  6
Continuous
100
AcDbCircle
 10
-161.795618
 20
-26.703914
 30
0.0
 40
12.0585
100
AcDbArc
 50
270.0
 51
90.0
  0
ARC
  5
455
100
AcDbEntity
  8
0
370
    -3
  6
Continuous
100
AcDbCircle
 10
-161.795618
 20
-26.703914
 30
0.0
 40
17.0
100
AcDbArc
 50
270.0
 51
90.0
  0
LINE
  5
456
100
AcDbEntity
  8
0
370
    -3
  6
Continuous
100
AcDbLine
 10
-188.331336
 20
-63.265932
 30
0.0
 11
-188.72184
 21
-60.141897
 31
0.0
  0
LINE
  5
457
100
AcDbEntity
  8
0
370
    -3
  6
Continuous
100
AcDbLine
 10
-187.835197
 20
-63.703914
 30
0.0
 11
-181.795618
 21
-63.703914
 31
0.0
  0
ARC
  5
458
100
AcDbEntity
  8
0
370
    -3
  6
Continuous
100
AcDbCircle
 10
-187.835197
 20
-63.203914
 30
0.0
 40
0.5
100
AcDbArc
 50
187.125016
 51
270.0
  0
LINE
  5
459
100
AcDbEntity
  8
0
370
    -3
  6
Continuous
100
AcDbLine
 10
-135.2599
 20
-63.265932
 30
0.0
 11
-134.869395
 21
-60.141897
 31
0.0
  0
LINE
  5
45A
100
AcDbEntity
  8
0
370
    -3
  6
Continuous
100
AcDbLine
 10
-135.756038
 20
-63.703914
 30
0.0
 11
-141.795618
 21
-63.703914
 31
0.0
  0
ARC
  5
45B
100
AcDbEntity
  8
0
370
    -3
  6
Continuous
100
AcDbCircle
 10
-135.756038
 20
-63.203914
 30
0.0
 40
0.5
100
AcDbArc
 50
270.0
 51
352.874984
  0
LINE
  5
45C
100
AcDbEntity
  8
0
370
    -3
  6
CENTER
100
AcDbLine
 10
82.204177
 20
154.199099
 30
0.0
 11
82.204177
 21
261.126795
 31
0.0
  0
ARC
  5
45D
100
AcDbEntity
  8
0
370
    -3
  6
Continuous
100
AcDbCircle
 10
51.648653
 20
172.231317
 30
0.0
 40
3.8
100
AcDbArc
 50
221.390427
 51
270.0
  0
LINE
  5
45E
100
AcDbEntity
  8
0
370
    -3
  6
Continuous
100
AcDbLine
 10
48.797811
 20
169.718809
 30
0.0
 11
39.821076
 21
179.904346
 31
0.0
  0
LINE
  5
45F
100
AcDbEntity
  8
0
370
    -3
  6
Continuous
100
AcDbLine
 10
51.648653
 20
168.431317
 30
0.0
 11
107.14471
 21
168.431317
 31
0.0
  0
LINE
  5
460
100
AcDbEntity
  8
0
370
    -3
  6
Continuous
100
AcDbLine
 10
39.249312
 20
167.481317
 30
0.0
 11
37.341592
 21
169.481317
 31
0.0
  0
LINE
  5
461
100
AcDbEntity
  8
0
370
    -3
  6
Continuous
100
AcDbLine
 10
40.966823
 20
165.481317
 30
0.0
 11
39.249312
 21
167.481317
 31
0.0
  0
LINE
  5
462
100
AcDbEntity
  8
0
370
    -3
  6
Continuous
100
AcDbLine
 10
39.249312
 20
167.481317
 30
0.0
 11
40.966823
 21
169.481317
 31
0.0
  0
LINE
  5
463
100
AcDbEntity
  8
0
370
    -3
  6
Continuous
100
AcDbLine
 10
37.341592
 20
165.481317
 30
0.0
 11
39.249312
 21
167.481317
 31
0.0
  0
ELLIPSE
  5
464
100
AcDbEntity
  8
0
370
    -3
  6
Continuous
100
AcDbEllipse
 10
38.418281
 20
167.481317
 30
0.0
 11
0.0
 21
3.5
 31
0.0
210
0.0
220
0.0
230
1.0
 40
0.982815
 41
0.0
 42
6.2831853071795862
  0
ARC
  5
465
100
AcDbEntity
  8
0
370
    -3
  6
Continuous
100
AcDbCircle
 10
42.671918
 20
182.416855
 30
0.0
 40
3.8
100
AcDbArc
 50
180.0
 51
221.390427
  0
ARC
  5
466
100
AcDbEntity
  8
0
370
    -3
  6
Continuous
100
AcDbCircle
 10
38.881303
 20
167.981317
 30
0.0
 40
7.8
100
AcDbArc
 50
180.0
 51
270.0
  0
ARC
  5
467
100
AcDbEntity
  8
0
370
    -3
  6
Continuous
100
AcDbCircle
 10
36.430117
 20
167.981317
 30
0.0
 40
7.8
100
AcDbArc
 50
180.0
 51
270.0
  0
LINE
  5
468
100
AcDbEntity
  8
0
370
    -3
  6
Continuous
100
AcDbLine
 10
121.72332
 20
167.481317
 30
0.0
 11
119.815601
 21
169.481317
 31
0.0
  0
LINE
  5
469
100
AcDbEntity
  8
0
370
    -3
  6
Continuous
100
AcDbLine
 10
123.440832
 20
165.481317
 30
0.0
 11
121.72332
 21
167.481317
 31
0.0
  0
LINE
  5
46A
100
AcDbEntity
  8
0
370
    -3
  6
Continuous
100
AcDbLine
 10
121.72332
 20
167.481317
 30
0.0
 11
123.440832
 21
169.481317
 31
0.0
  0
LINE
  5
46B
100
AcDbEntity
  8
0
370
    -3
  6
Continuous
100
AcDbLine
 10
119.815601
 20
165.481317
 30
0.0
 11
121.72332
 21
167.481317
 31
0.0
  0
ELLIPSE
  5
46C
100
AcDbEntity
  8
0
370
    -3
  6
Continuous
100
AcDbEllipse
 10
120.89229
 20
167.481317
 30
0.0
 11
0.0
 21
3.5
 31
0.0
210
0.0
220
0.0
230
1.0
 40
0.982815
 41
0.0
 42
6.2831853071795862
  0
ARC
  5
46D
100
AcDbEntity
  8
0
370
    -3
  6
Continuous
100
AcDbCircle
 10
99.63013
 20
178.431317
 30
0.0
 40
10.0
100
AcDbArc
 50
270.0
 51
0.0
  0
ARC
  5
46E
100
AcDbEntity
  8
0
370
    -3
  6
Continuous
100
AcDbCircle
 10
116.283537
 20
182.434326
 30
0.0
 40
3.8
100
AcDbArc
 50
318.14922
 51
0.0
  0
LINE
  5
46F
100
AcDbEntity
  8
0
370
    -3
  6
Continuous
100
AcDbLine
 10
109.975273
 20
169.695984
 30
0.0
 11
119.1141
 21
179.898993
 31
0.0
  0
ARC
  5
470
100
AcDbEntity
  8
0
370
    -3
  6
Continuous
100
AcDbCircle
 10
107.14471
 20
172.231317
 30
0.0
 40
3.8
100
AcDbArc
 50
270.0
 51
318.14922
  0
LINE
  5
471
100
AcDbEntity
  8
0
370
    -3
  6
Continuous
100
AcDbLine
 10
119.301646
 20
160.181317
 30
0.0
 11
36.430117
 21
160.181317
 31
0.0
  0
ARC
  5
472
100
AcDbEntity
  8
0
370
    -3
  6
Continuous
100
AcDbCircle
 10
119.301646
 20
167.981317
 30
0.0
 40
7.8
100
AcDbArc
 50
270.0
 51
0.0
  0
LINE
  5
473
100
AcDbEntity
  8
0
370
    -3
  6
Continuous
100
AcDbLine
 10
121.72332
 20
246.481317
 30
0.0
 11
119.815601
 21
244.481317
 31
0.0
  0
LINE
  5
474
100
AcDbEntity
  8
0
370
    -3
  6
Continuous
100
AcDbLine
 10
123.440832
 20
248.481317
 30
0.0
 11
121.72332
 21
246.481317
 31
0.0
  0
LINE
  5
475
100
AcDbEntity
  8
0
370
    -3
  6
Continuous
100
AcDbLine
 10
121.72332
 20
246.481317
 30
0.0
 11
123.440832
 21
244.481317
 31
0.0
  0
LINE
  5
476
100
AcDbEntity
  8
0
370
    -3
  6
Continuous
100
AcDbLine
 10
119.815601
 20
248.481317
 30
0.0
 11
121.72332
 21
246.481317
 31
0.0
  0
ELLIPSE
  5
477
100
AcDbEntity
  8
0
370
    -3
  6
Continuous
100
AcDbEllipse
 10
120.89229
 20
246.481317
 30
0.0
 11
-0.0000000000002132
 21
3.5
 31
0.0
210
0.0
220
0.0
230
1.0
 40
0.982815
 41
0.0
 42
6.2831853071795862
  0
ARC
  5
478
100
AcDbEntity
  8
0
370
    -3
  6
Continuous
100
AcDbCircle
 10
99.63013
 20
235.531317
 30
0.0
 40
10.0
100
AcDbArc
 50
0.0
 51
90.0
  0
ARC
  5
479
100
AcDbEntity
  8
0
370
    -3
  6
Continuous
100
AcDbCircle
 10
116.283537
 20
231.528309
 30
0.0
 40
3.8
100
AcDbArc
 50
0.0
 51
41.85078
  0
LINE
  5
47A
100
AcDbEntity
  8
0
370
    -3
  6
Continuous
100
AcDbLine
 10
109.975273
 20
244.266651
 30
0.0
 11
119.1141
 21
234.063642
 31
0.0
  0
ARC
  5
47B
100
AcDbEntity
  8
0
370
    -3
  6
Continuous
100
AcDbCircle
 10
107.14471
 20
241.731317
 30
0.0
 40
3.8
100
AcDbArc
 50
41.85078
 51
90.0
  0
ARC
  5
47C
100
AcDbEntity
  8
0
370
    -3
  6
Continuous
100
AcDbCircle
 10
119.301646
 20
245.981317
 30
0.0
 40
7.8
100
AcDbArc
 50
0.0
 51
90.0
  0
LINE
  5
47D
100
AcDbEntity
  8
0
370
    -3
  6
Continuous
100
AcDbLine
 10
119.301646
 20
253.781317
 30
0.0
 11
36.430117
 21
253.781317
 31
0.0
  0
LINE
  5
47E
100
AcDbEntity
  8
0
370
    -3
  6
Continuous
100
AcDbLine
 10
51.648653
 20
245.531317
 30
0.0
 11
107.14471
 21
245.531317
 31
0.0
  0
LINE
  5
47F
100
AcDbEntity
  8
0
370
    -3
  6
Continuous
100
AcDbLine
 10
39.249312
 20
246.481317
 30
0.0
 11
37.341592
 21
244.481317
 31
0.0
  0
LINE
  5
480
100
AcDbEntity
  8
0
370
    -3
  6
Continuous
100
AcDbLine
 10
40.966823
 20
248.481317
 30
0.0
 11
39.249312
 21
246.481317
 31
0.0
  0
LINE
  5
481
100
AcDbEntity
  8
0
370
    -3
  6
Continuous
100
AcDbLine
 10
39.249312
 20
246.481317
 30
0.0
 11
40.966823
 21
244.481317
 31
0.0
  0
LINE
  5
482
100
AcDbEntity
  8
0
370
    -3
  6
Continuous
100
AcDbLine
 10
37.341592
 20
248.481317
 30
0.0
 11
39.249312
 21
246.481317
 31
0.0
  0
ELLIPSE
  5
483
100
AcDbEntity
  8
0
370
    -3
  6
Continuous
100
AcDbEllipse
 10
38.418281
 20
246.481317
 30
0.0
 11
-0.0000000000002061
 21
3.5
 31
0.0
210
0.0
220
0.0
230
1.0
 40
0.982815
 41
0.0
 42
6.2831853071795862
  0
LINE
  5
484
100
AcDbEntity
  8
0
370
    -3
  6
Continuous
100
AcDbLine
 10
48.797811
 20
244.243826
 30
0.0
 11
39.821076
 21
234.058289
 31
0.0
  0
ARC
  5
485
100
AcDbEntity
  8
0
370
    -3
  6
Continuous
100
AcDbCircle
 10
51.648653
 20
241.731317
 30
0.0
 40
3.8
100
AcDbArc
 50
90.0
 51
138.609573
  0
ARC
  5
486
100
AcDbEntity
  8
0
370
    -3
  6
Continuous
100
AcDbCircle
 10
38.881303
 20
245.981317
 30
0.0
 40
7.8
100
AcDbArc
 50
90.0
 51
180.0
  0
ARC
  5
487
100
AcDbEntity
  8
0
370
    -3
  6
Continuous
100
AcDbCircle
 10
36.430117
 20
245.981317
 30
0.0
 40
7.8
100
AcDbArc
 50
90.0
 51
180.0
  0
LINE
  5
488
100
AcDbEntity
  8
0
370
    -3
  6
Continuous
100
AcDbLine
 10
8.204177
 20
206.981317
 30
0.0
 11
8.204177
 21
221.981317
 31
0.0
  0
ARC
  5
489
100
AcDbEntity
  8
0
370
    -3
  6
Continuous
100
AcDbCircle
 10
10.204177
 20
221.981317
 30
0.0
 40
2.0
100
AcDbArc
 50
90.0
 51
180.0
  0
LINE
  5
48A
100
AcDbEntity
  8
0
370
    -3
  6
Continuous
100
AcDbLine
 10
10.204177
 20
223.981317
 30
0.0
 11
28.630117
 21
223.981317
 31
0.0
  0
LINE
  5
48B
100
AcDbEntity
  8
0
370
    -3
  6
Continuous
100
AcDbLine
 10
38.871918
 20
206.981317
 30
0.0
 11
38.871918
 21
231.54578
 31
0.0
  0
ARC
  5
48C
100
AcDbEntity
  8
0
370
    -3
  6
Continuous
100
AcDbCircle
 10
42.671918
 20
231.54578
 30
0.0
 40
3.8
100
AcDbArc
 50
138.609573
 51
180.0
  0
LINE
  5
48D
100
AcDbEntity
  8
0
370
    -3
  6
Continuous
100
AcDbLine
 10
31.081303
 20
206.981317
 30
0.0
 11
31.081303
 21
245.981317
 31
0.0
  0
LINE
  5
48E
100
AcDbEntity
  8
0
370
    -3
  6
Continuous
100
AcDbLine
 10
28.630117
 20
206.981317
 30
0.0
 11
28.630117
 21
245.981317
 31
0.0
  0
POINT
  5
48F
100
AcDbEntity
  8
0
370
    -3
  6
CENTER
100
AcDbPoint
 10
8.204177
 20
220.201817
 30
0.0
  0
LINE
  5
490
100
AcDbEntity
  8
0
370
    -3
  6
Continuous
100
AcDbLine
 10
8.204177
 20
206.981317
 30
0.0
 11
8.204177
 21
191.981317
 31
0.0
  0
ARC
  5
491
100
AcDbEntity
  8
0
370
    -3
  6
Continuous
100
AcDbCircle
 10
10.204177
 20
191.981317
 30
0.0
 40
2.0
100
AcDbArc
 50
180.0
 51
270.0
  0
LINE
  5
492
100
AcDbEntity
  8
0
370
    -3
  6
Continuous
100
AcDbLine
 10
10.204177
 20
189.981317
 30
0.0
 11
28.630117
 21
189.981317
 31
0.0
  0
LINE
  5
493
100
AcDbEntity
  8
0
370
    -3
  6
Continuous
100
AcDbLine
 10
38.871918
 20
206.981317
 30
0.0
 11
38.871918
 21
182.416855
 31
0.0
  0
LINE
  5
494
100
AcDbEntity
  8
0
370
    -3
  6
Continuous
100
AcDbLine
 10
31.081303
 20
206.981317
 30
0.0
 11
31.081303
 21
167.981317
 31
0.0
  0
LINE
  5
495
100
AcDbEntity
  8
0
370
    -3
  6
Continuous
100
AcDbLine
 10
28.630117
 20
206.981317
 30
0.0
 11
28.630117
 21
167.981317
 31
0.0
  0
POINT
  5
496
100
AcDbEntity
  8
0
370
    -3
  6
CENTER
100
AcDbPoint
 10
8.204177
 20
193.760817
 30
0.0
  0
LINE
  5
497
100
AcDbEntity
  8
0
370
    -3
  6
Continuous
100
AcDbLine
 10
109.63013
 20
206.981317
 30
0.0
 11
109.63013
 21
235.531317
 31
0.0
  0
LINE
  5
498
100
AcDbEntity
  8
0
370
    -3
  6
Continuous
100
AcDbLine
 10
120.083537
 20
206.981317
 30
0.0
 11
120.083537
 21
231.528309
 31
0.0
  0
LINE
  5
499
100
AcDbEntity
  8
0
370
    -3
  6
Continuous
100
AcDbLine
 10
127.101646
 20
206.981317
 30
0.0
 11
127.101646
 21
245.981317
 31
0.0
  0
LINE
  5
49A
100
AcDbEntity
  8
0
370
    -3
  6
Continuous
100
AcDbLine
 10
109.63013
 20
206.981317
 30
0.0
 11
109.63013
 21
178.431317
 31
0.0
  0
LINE
  5
49B
100
AcDbEntity
  8
0
370
    -3
  6
Continuous
100
AcDbLine
 10
120.083537
 20
206.981317
 30
0.0
 11
120.083537
 21
182.434326
 31
0.0
  0
LINE
  5
49C
100
AcDbEntity
  8
0
370
    -3
  6
Continuous
100
AcDbLine
 10
127.101646
 20
206.981317
 30
0.0
 11
127.101646
 21
167.981317
 31
0.0
  0
LINE
  5
49D
100
AcDbEntity
  8
0
370
    -3
  6
Continuous
100
AcDbLine
 10
63.687022
 20
-59.703914
 30
0.0
 11
55.029524
 21
-59.703914
 31
0.0
  0
LINE
  5
49E
100
AcDbEntity
  8
0
370
    -3
  6
Continuous
100
AcDbLine
 10
54.223207
 20
-59.203914
 30
0.0
 11
54.223207
 21
-58.203914
 31
0.0
  0
ARC
  5
49F
100
AcDbEntity
  8
0
370
    -3
  6
Continuous
100
AcDbCircle
 10
53.723207
 20
-58.203914
 30
0.0
 40
0.5
100
AcDbArc
 50
0.0
 51
90.0
  0
ARC
  5
4A0
100
AcDbEntity
  8
0
370
    -3
  6
Continuous
100
AcDbCircle
 10
64.723207
 20
-58.203914
 30
0.0
 40
0.5
100
AcDbArc
 50
90.0
 51
180.0
  0
LINE
  5
4A1
100
AcDbEntity
  8
0
370
    -3
  6
Continuous
100
AcDbLine
 10
64.223207
 20
-59.203914
 30
0.0
 11
64.223207
 21
-58.203914
 31
0.0
  0
LINE
  5
4A2
100
AcDbEntity
  8
0
370
    -3
  6
Continuous
100
AcDbLine
 10
63.723207
 20
-59.703914
 30
0.0
 11
55.029524
 21
-59.703914
 31
0.0
  0
ARC
  5
4A3
100
AcDbEntity
  8
0
370
    -3
  6
Continuous
100
AcDbCircle
 10
63.723207
 20
-59.203914
 30
0.0
 40
0.5
100
AcDbArc
 50
270.0
 51
0.0
  0
ARC
  5
4A4
100
AcDbEntity
  8
0
370
    -3
  6
Continuous
100
AcDbCircle
 10
99.685148
 20
-58.203914
 30
0.0
 40
0.5
100
AcDbArc
 50
0.0
 51
90.0
  0
LINE
  5
4A5
100
AcDbEntity
  8
0
370
    -3
  6
Continuous
100
AcDbLine
 10
100.185148
 20
-59.203914
 30
0.0
 11
100.185148
 21
-58.203914
 31
0.0
  0
ARC
  5
4A6
100
AcDbEntity
  8
0
370
    -3
  6
Continuous
100
AcDbCircle
 10
100.685148
 20
-59.203914
 30
0.0
 40
0.5
100
AcDbArc
 50
180.0
 51
270.0
  0
ARC
  5
4A7
100
AcDbEntity
  8
0
370
    -3
  6
Continuous
100
AcDbCircle
 10
110.685148
 20
-58.203914
 30
0.0
 40
0.5
100
AcDbArc
 50
90.0
 51
180.0
  0
LINE
  5
4A8
100
AcDbEntity
  8
0
370
    -3
  6
Continuous
100
AcDbLine
 10
110.185148
 20
-59.203914
 30
0.0
 11
110.185148
 21
-58.203914
 31
0.0
  0
ARC
  5
4A9
100
AcDbEntity
  8
0
370
    -3
  6
Continuous
100
AcDbCircle
 10
109.685148
 20
-59.203914
 30
0.0
 40
0.5
100
AcDbArc
 50
270.0
 51
0.0
  0
LINE
  5
4AA
100
AcDbEntity
  8
0
370
    -3
  6
Continuous
100
AcDbLine
 10
100.721333
 20
-59.703914
 30
0.0
 11
109.685148
 21
-59.703914
 31
0.0
  0
ARC
  5
4AB
100
AcDbEntity
  8
0
370
    -3
  6
Continuous
100
AcDbCircle
 10
54.723207
 20
-59.203914
 30
0.0
 40
0.5
100
AcDbArc
 50
180.0
 51
270.0
  0
ARC
  5
4AC
100
AcDbEntity
  8
0
370
    -3
  6
Continuous
100
AcDbCircle
 10
100.743756
 20
-60.203914
 30
0.0
 40
0.5
100
AcDbArc
 50
7.125016
 51
90.0
  0
ARC
  5
4AD
100
AcDbEntity
  8
0
370
    -3
  6
Continuous
100
AcDbCircle
 10
109.626539
 20
-60.203914
 30
0.0
 40
0.5
100
AcDbArc
 50
90.0
 51
172.874984
  0
ARC
  5
4AE
100
AcDbEntity
  8
0
370
    -3
  6
Continuous
100
AcDbCircle
 10
54.781816
 20
-60.203914
 30
0.0
 40
0.5
100
AcDbArc
 50
7.125016
 51
90.0
  0
ARC
  5
4AF
100
AcDbEntity
  8
0
370
    -3
  6
Continuous
100
AcDbCircle
 10
63.664598
 20
-60.203914
 30
0.0
 40
0.5
100
AcDbArc
 50
90.0
 51
172.874984
  0
LINE
  5
4B0
100
AcDbEntity
  8
0
370
    -3
  6
Continuous
100
AcDbLine
 10
101.756863
 20
-57.703914
 30
0.0
 11
62.651491
 21
-57.703914
 31
0.0
  0
LINE
  5
4B1
100
AcDbEntity
  8
0
370
    -3
  6
Continuous
100
AcDbLine
 10
101.756863
 20
-57.703914
 30
0.0
 11
114.808921
 21
-57.703914
 31
0.0
  0
LINE
  5
4B2
100
AcDbEntity
  8
0
370
    -3
  6
Continuous
100
AcDbLine
 10
62.651491
 20
-57.703914
 30
0.0
 11
49.599434
 21
-57.703914
 31
0.0
  0
LINE
  5
4B3
100
AcDbEntity
  8
0
370
    -3
  6
Continuous
100
AcDbLine
 10
54.522443
 20
-59.703914
 30
0.0
 11
118.954177
 21
-59.703914
 31
0.0
  0
LINE
  5
4B4
100
AcDbEntity
  8
0
370
    -3
  6
Continuous
100
AcDbLine
 10
118.954177
 20
-61.209326
 30
0.0
 11
118.954177
 21
-59.703914
 31
0.0
  0
ARC
  5
4B5
100
AcDbEntity
  8
0
370
    -3
  6
Continuous
100
AcDbCircle
 10
54.204177
 20
-51.703914
 30
0.0
 40
1.0
100
AcDbArc
 50
193.342364
 51
270.0
  0
LINE
  5
4B6
100
AcDbEntity
  8
0
370
    -3
  6
Continuous
100
AcDbLine
 10
44.004177
 20
-51.703914
 30
0.0
 11
113.642331
 21
-51.703914
 31
0.0
  0
ARC
  5
4B7
100
AcDbEntity
  8
0
370
    -3
  6
Continuous
100
AcDbCircle
 10
110.204177
 20
-51.703914
 30
0.0
 40
1.0
100
AcDbArc
 50
270.0
 51
346.657636
  0
LINE
  5
4B8
100
AcDbEntity
  8
0
370
    -3
  6
Continuous
100
AcDbLine
 10
51.204177
 20
-52.703914
 30
0.0
 11
113.204177
 21
-52.703914
 31
0.0
  0
LINE
  5
4B9
100
AcDbEntity
  8
0
370
    -3
  6
Continuous
100
AcDbLine
 10
51.204177
 20
-53.703914
 30
0.0
 11
51.204177
 21
-52.703914
 31
0.0
  0
LINE
  5
4BA
100
AcDbEntity
  8
0
370
    -3
  6
Continuous
100
AcDbLine
 10
113.204177
 20
-53.703914
 30
0.0
 11
113.204177
 21
-52.703914
 31
0.0
  0
ARC
  5
4BB
100
AcDbEntity
  8
0
370
    -3
  6
Continuous
100
AcDbCircle
 10
111.469088
 20
-52.003914
 30
0.0
 40
0.3
100
AcDbArc
 50
90.0
 51
166.657636
  0
ARC
  5
4BC
100
AcDbEntity
  8
0
370
    -3
  6
Continuous
100
AcDbCircle
 10
52.939266
 20
-52.003914
 30
0.0
 40
0.3
100
AcDbArc
 50
13.342364
 51
90.0
  0
LINE
  5
4BD
100
AcDbEntity
  8
0
370
    -3
  6
Continuous
100
AcDbLine
 10
51.204177
 20
-53.703914
 30
0.0
 11
113.204177
 21
-53.703914
 31
0.0
  0
LINE
  5
4BE
100
AcDbEntity
  8
0
370
    -3
  6
Continuous
100
AcDbLine
 10
82.204177
 20
-53.703914
 30
0.0
 11
51.204177
 21
-53.703914
 31
0.0
  0
LINE
  5
4BF
100
AcDbEntity
  8
0
370
    -3
  6
Continuous
100
AcDbLine
 10
82.204177
 20
-53.703914
 30
0.0
 11
113.204177
 21
-53.703914
 31
0.0
  0
LINE
  5
4C0
100
AcDbEntity
  8
0
370
    -3
  6
Continuous
100
AcDbLine
 10
114.808921
 20
-57.703914
 30
0.0
 11
114.729678
 21
-54.677737
 31
0.0
  0
LINE
  5
4C1
100
AcDbEntity
  8
0
370
    -3
  6
Continuous
100
AcDbLine
 10
49.599434
 20
-57.703914
 30
0.0
 11
49.678677
 21
-54.677737
 31
0.0
  0
ARC
  5
4C2
100
AcDbEntity
  8
0
370
    -3
  6
Continuous
100
AcDbCircle
 10
50.678334
 20
-54.703914
 30
0.0
 40
1.0
100
AcDbArc
 50
90.0
 51
178.5
  0
ARC
  5
4C3
100
AcDbEntity
  8
0
370
    -3
  6
Continuous
100
AcDbCircle
 10
113.73002
 20
-54.703914
 30
0.0
 40
1.0
100
AcDbArc
 50
1.5
 51
90.0
  0
LINE
  5
4C4
100
AcDbEntity
  8
0
370
    -3
  6
CENTER
100
AcDbLine
 10
59.223207
 20
-66.592773
 30
0.0
 11
59.223207
 21
-51.679275
 31
0.0
  0
LINE
  5
4C5
100
AcDbEntity
  8
0
370
    -3
  6
Continuous
100
AcDbLine
 10
50.678334
 20
-53.703914
 30
0.0
 11
113.73002
 21
-53.703914
 31
0.0
  0
LINE
  5
4C6
100
AcDbEntity
  8
0
370
    -3
  6
CENTER
100
AcDbLine
 10
105.185148
 20
-67.013801
 30
0.0
 11
105.185148
 21
-51.679275
 31
0.0
  0
LINE
  5
4C7
100
AcDbEntity
  8
0
370
    -3
  6
CENTER
100
AcDbLine
 10
82.204177
 20
-64.481331
 30
0.0
 11
82.204177
 21
-41.571355
 31
0.0
  0
ARC
  5
4C8
100
AcDbEntity
  8
0
370
    -3
  6
Continuous
100
AcDbCircle
 10
51.879871
 20
-48.703914
 30
0.0
 40
3.0
100
AcDbArc
 50
180.0
 51
270.0
  0
ARC
  5
4C9
100
AcDbEntity
  8
0
370
    -3
  6
Continuous
100
AcDbCircle
 10
99.519093
 20
-47.903914
 30
0.0
 40
3.8
100
AcDbArc
 50
270.0
 51
335.0
  0
ARC
  5
4CA
100
AcDbEntity
  8
0
370
    -3
  6
Continuous
100
AcDbCircle
 10
113.642331
 20
-47.903914
 30
0.0
 40
3.8
100
AcDbArc
 50
270.0
 51
335.0
  0
LINE
  5
4CB
100
AcDbEntity
  8
0
370
    -3
  6
Continuous
100
AcDbLine
 10
48.879871
 20
-15.339899
 30
0.0
 11
48.879871
 21
-48.703914
 31
0.0
  0
LINE
  5
4CC
100
AcDbEntity
  8
0
370
    -3
  6
Continuous
100
AcDbLine
 10
117.992065
 20
-47.567445
 30
0.0
 11
117.0863
 21
-49.509864
 31
0.0
  0
LINE
  5
4CD
100
AcDbEntity
  8
0
370
    -3
  6
Continuous
100
AcDbLine
 10
125.242527
 20
-50.948391
 30
0.0
 11
36.793462
 21
-9.703914
 31
0.0
  0
LINE
  5
4CE
100
AcDbEntity
  8
0
370
    -3
  6
Continuous
100
AcDbLine
 10
106.391325
 20
-42.157931
 30
0.0
 11
102.963063
 21
-49.509864
 31
0.0
  0
ARC
  5
4CF
100
AcDbEntity
  8
0
370
    -3
  6
Continuous
100
AcDbCircle
 10
44.004177
 20
-44.903914
 30
0.0
 40
6.8
100
AcDbArc
 50
180.0
 51
270.0
  0
LINE
  5
4D0
100
AcDbEntity
  8
0
370
    -3
  6
Continuous
100
AcDbLine
 10
37.204177
 20
-9.895434
 30
0.0
 11
37.204177
 21
-44.903914
 31
0.0
  0
LINE
  5
4D1
100
AcDbEntity
  8
0
370
    -3
  6
Continuous
100
AcDbLine
 10
36.793462
 20
-9.703914
 30
0.0
 11
28.630117
 21
-5.897284
 31
0.0
  0
ARC
  5
4D2
100
AcDbEntity
  8
0
370
    -3
  6
Continuous
100
AcDbCircle
 10
-174.621463
 20
-102.389311
 30
0.0
 40
300.8
100
AcDbArc
 50
12.10025
 51
17.658425
  0
ARC
  5
4D3
100
AcDbEntity
  8
0
370
    -3
  6
Continuous
100
AcDbCircle
 10
76.621779
 20
-603.886387
 30
0.0
 40
600.8
100
AcDbArc
 50
87.562495
 51
93.317592
  0
ARC
  5
4D4
100
AcDbEntity
  8
0
370
    -3
  6
Continuous
100
AcDbCircle
 10
112.603994
 20
-22.981899
 30
0.0
 40
2.8
100
AcDbArc
 50
335.0
 51
15.454189
  0
ARC
  5
4D5
100
AcDbEntity
  8
0
370
    -3
  6
Continuous
100
AcDbCircle
 10
48.185574
 20
-5.306417
 30
0.0
 40
3.0
100
AcDbArc
 50
245.0
 51
335.0
  0
LINE
  5
4D6
100
AcDbEntity
  8
0
370
    -3
  6
Continuous
100
AcDbLine
 10
50.904497
 20
-6.574272
 30
0.0
 11
51.579527
 21
-5.126665
 31
0.0
  0
ARC
  5
4D7
100
AcDbEntity
  8
0
370
    -3
  6
Continuous
100
AcDbCircle
 10
54.117189
 20
-6.309996
 30
0.0
 40
2.8
100
AcDbArc
 50
92.156727
 51
155.0
  0
LINE
  5
4D8
100
AcDbEntity
  8
0
370
    -3
  6
Continuous
100
AcDbLine
 10
115.141656
 20
-24.165231
 30
0.0
 11
110.406229
 21
-34.320386
 31
0.0
  0
ARC
  5
4D9
100
AcDbEntity
  8
0
370
    -3
  6
Continuous
100
AcDbCircle
 10
113.125153
 20
-35.58824
 30
0.0
 40
3.0
100
AcDbArc
 50
155.0
 51
245.0
  0
LINE
  5
4DA
100
AcDbEntity
  8
0
370
    -3
  6
Continuous
100
AcDbLine
 10
126.062359
 20
-44.931093
 30
0.0
 11
32.712657
 21
-1.401412
 31
0.0
  0
LINE
  5
4DB
100
AcDbEntity
  8
0
370
    -3
  6
CENTER
100
AcDbLine
 10
5.725554
 20
-26.703914
 30
0.0
 11
46.03204
 21
-26.703914
 31
0.0
  0
ARC
  5
4DC
100
AcDbEntity
  8
0
370
    -3
  6
Continuous
100
AcDbCircle
 10
119.044389
 20
-40.578325
 30
0.0
 40
1.299999
100
AcDbArc
 50
81.601531
 51
155.000001
  0
LINE
  5
4DD
100
AcDbEntity
  8
0
370
    -3
  6
Continuous
100
AcDbLine
 10
117.452435
 20
-40.916219
 30
0.0
 11
117.866189
 21
-40.028921
 31
0.0
  0
ARC
  5
4DE
100
AcDbEntity
  8
0
370
    -3
  6
Continuous
100
AcDbCircle
 10
117.919756
 20
-48.195753
 30
0.0
 40
9.0
100
AcDbArc
 50
48.398452
 51
81.601531
  0
ARC
  5
4DF
100
AcDbEntity
  8
0
370
    -3
  6
Continuous
100
AcDbCircle
 10
123.032144
 20
-42.437846
 30
0.0
 40
1.299999
100
AcDbArc
 50
334.999982
 51
48.398452
  0
LINE
  5
4E0
100
AcDbEntity
  8
0
370
    -3
  6
CENTER
100
AcDbLine
 10
119.366839
 20
-45.092474
 30
0.0
 11
122.236759
 21
-38.937909
 31
0.0
  0
LINE
  5
4E1
100
AcDbEntity
  8
0
370
    -3
  6
Continuous
100
AcDbLine
 10
123.79659
 20
-43.874547
 30
0.0
 11
124.210344
 21
-42.987249
 31
0.0
  0
ARC
  5
4E2
100
AcDbEntity
  8
0
370
    -3
  6
Continuous
100
AcDbCircle
 10
36.57038
 20
-2.120063
 30
0.0
 40
1.299999
100
AcDbArc
 50
81.601531
 51
155.000001
  0
ARC
  5
4E3
100
AcDbEntity
  8
0
370
    -3
  6
Continuous
100
AcDbCircle
 10
40.558136
 20
-3.979584
 30
0.0
 40
1.299999
100
AcDbArc
 50
334.999982
 51
48.398452
  0
LINE
  5
4E4
100
AcDbEntity
  8
0
370
    -3
  6
Continuous
100
AcDbLine
 10
34.978427
 20
-2.457958
 30
0.0
 11
35.392181
 21
-1.570659
 31
0.0
  0
LINE
  5
4E5
100
AcDbEntity
  8
0
370
    -3
  6
Continuous
100
AcDbLine
 10
41.322581
 20
-5.416285
 30
0.0
 11
41.736335
 21
-4.528987
 31
0.0
  0
POINT
  5
4E6
100
AcDbEntity
  8
0
370
    -3
  6
Continuous
100
AcDbPoint
 10
38.150504
 20
-3.937121
 30
0.0
  0
ARC
  5
4E7
100
AcDbEntity
  8
0
370
    -3
  6
Continuous
100
AcDbCircle
 10
35.445747
 20
-9.737491
 30
0.0
 40
9.0
100
AcDbArc
 50
48.398452
 51
81.601531
  0
ARC
  5
4E8
100
AcDbEntity
  8
0
370
    -3
  6
Continuous
100
AcDbCircle
 10
101.714272
 20
-14.420216
 30
0.0
 40
10.8
100
AcDbArc
 50
17.658425
 51
87.562495
  0
LINE
  5
4E9
100
AcDbEntity
  8
0
370
    -3
  6
CENTER
100
AcDbLine
 10
36.89283
 20
-6.634212
 30
0.0
 11
39.762751
 21
-0.479647
 31
0.0
  0
POINT
  5
4EA
100
AcDbEntity
  8
0
370
    -3
  6
Continuous
100
AcDbPoint
 10
120.600802
 20
-42.384327
 30
0.0
  0
LINE
  5
4EB
100
AcDbEntity
  8
0
370
    -3
  6
CENTER
100
AcDbLine
 10
119.366839
 20
-45.092474
 30
0.0
 11
122.236759
 21
-38.937909
 31
0.0
  0
ARC
  5
4EC
100
AcDbEntity
  8
0
370
    -3
  6
Continuous
100
AcDbCircle
 10
125.301646
 20
-46.562447
 30
0.0
 40
1.8
100
AcDbArc
 50
335.0
 51
65.0
  0
LINE
  5
4ED
100
AcDbEntity
  8
0
370
    -3
  6
Continuous
100
AcDbLine
 10
126.933001
 20
-47.32316
 30
0.0
 11
125.242527
 21
-50.948391
 31
0.0
  0
ARC
  5
4EE
100
AcDbEntity
  8
0
370
    -3
  6
Continuous
100
AcDbCircle
 10
31.951944
 20
-3.032766
 30
0.0
 40
1.8
100
AcDbArc
 50
65.0
 51
155.0
  0
LINE
  5
4EF
100
AcDbEntity
  8
0
370
    -3
  6
Continuous
100
AcDbLine
 10
30.32059
 20
-2.272053
 30
0.0
 11
28.630117
 21
-5.897284
 31
0.0
  0
LINE
  5
4F0
100
AcDbEntity
  8
0
370
    -3
  6
CENTER
100
AcDbLine
 10
5.725554
 20
-26.703914
 30
0.0
 11
46.03204
 21
-26.703914
 31
0.0
  0
LINE
  5
4F1
100
AcDbEntity
  8
0
370
    -3
  6
Continuous
100
AcDbLine
 10
10.204177
 20
-9.703914
 30
0.0
 11
36.793462
 21
-9.703914
 31
0.0
  0
ARC
  5
4F2
100
AcDbEntity
  8
0
370
    -3
  6
Continuous
100
AcDbCircle
 10
10.204177
 20
-11.703914
 30
0.0
 40
2.0
100
AcDbArc
 50
90.0
 51
180.0
  0
LINE
  5
4F3
100
AcDbEntity
  8
0
370
    -3
  6
Continuous
100
AcDbLine
 10
8.204177
 20
-26.703914
 30
0.0
 11
8.204177
 21
-11.703914
 31
0.0
  0
LINE
  5
4F4
100
AcDbEntity
  8
0
370
    -3
  6
Continuous
100
AcDbLine
 10
10.204177
 20
-43.703914
 30
0.0
 11
37.204177
 21
-43.703914
 31
0.0
  0
ARC
  5
4F5
100
AcDbEntity
  8
0
370
    -3
  6
Continuous
100
AcDbCircle
 10
10.204177
 20
-41.703914
 30
0.0
 40
2.0
100
AcDbArc
 50
180.0
 51
270.0
  0
LINE
  5
4F6
100
AcDbEntity
  8
0
370
    -3
  6
Continuous
100
AcDbLine
 10
8.204177
 20
-26.703914
 30
0.0
 11
8.204177
 21
-41.703914
 31
0.0
  0
LINE
  5
4F7
100
AcDbEntity
  8
0
370
    -3
  6
Continuous
100
AcDbLine
 10
35.204177
 20
-26.703914
 30
0.0
 11
35.204177
 21
-9.703914
 31
0.0
  0
LINE
  5
4F8
100
AcDbEntity
  8
0
370
    -3
  6
Continuous
100
AcDbLine
 10
35.204177
 20
-26.703914
 30
0.0
 11
35.204177
 21
-43.703914
 31
0.0
  0
POINT
  5
4F9
100
AcDbEntity
  8
0
370
    -3
  6
CENTER
100
AcDbPoint
 10
8.204177
 20
-13.483414
 30
0.0
  0
POINT
  5
4FA
100
AcDbEntity
  8
0
370
    -3
  6
CENTER
100
AcDbPoint
 10
8.204177
 20
-39.924414
 30
0.0
  0
LINE
  5
4FB
100
AcDbEntity
  8
0
370
    -3
  6
Continuous
100
AcDbLine
 10
56.164598
 20
-63.703914
 30
0.0
 11
62.275685
 21
-63.703914
 31
0.0
  0
ARC
  5
4FC
100
AcDbEntity
  8
0
370
    -3
  6
Continuous
100
AcDbCircle
 10
56.164598
 20
-63.203914
 30
0.0
 40
0.5
100
AcDbArc
 50
187.125016
 51
270.0
  0
ARC
  5
4FD
100
AcDbEntity
  8
0
370
    -3
  6
Continuous
100
AcDbCircle
 10
62.281816
 20
-63.203914
 30
0.0
 40
0.5
100
AcDbArc
 50
270.0
 51
352.874984
  0
LINE
  5
4FE
100
AcDbEntity
  8
0
370
    -3
  6
Continuous
100
AcDbLine
 10
62.777955
 20
-63.265932
 30
0.0
 11
63.168459
 21
-60.141897
 31
0.0
  0
LINE
  5
4FF
100
AcDbEntity
  8
0
370
    -3
  6
Continuous
100
AcDbLine
 10
55.668459
 20
-63.265932
 30
0.0
 11
55.277955
 21
-60.141897
 31
0.0
  0
LINE
  5
500
100
AcDbEntity
  8
0
370
    -3
  6
Continuous
100
AcDbLine
 10
108.243756
 20
-63.703914
 30
0.0
 11
102.132669
 21
-63.703914
 31
0.0
  0
ARC
  5
501
100
AcDbEntity
  8
0
370
    -3
  6
Continuous
100
AcDbCircle
 10
102.126539
 20
-63.203914
 30
0.0
 40
0.5
100
AcDbArc
 50
187.125016
 51
270.0
  0
ARC
  5
502
100
AcDbEntity
  8
0
370
    -3
  6
Continuous
100
AcDbCircle
 10
108.243756
 20
-63.203914
 30
0.0
 40
0.5
100
AcDbArc
 50
270.0
 51
352.874984
  0
LINE
  5
503
100
AcDbEntity
  8
0
370
    -3
  6
Continuous
100
AcDbLine
 10
108.739895
 20
-63.265932
 30
0.0
 11
109.1304
 21
-60.141897
 31
0.0
  0
LINE
  5
504
100
AcDbEntity
  8
0
370
    -3
  6
Continuous
100
AcDbLine
 10
101.6304
 20
-63.265932
 30
0.0
 11
101.239895
 21
-60.141897
 31
0.0
  0
ARC
  5
505
100
AcDbEntity
  8
0
370
    -3
  6
DASHED
100
AcDbCircle
 10
650.704603
 20
-26.703914
 30
0.0
 40
17.0
100
AcDbArc
 50
336.220558
 51
201.779442
  0
LINE
  5
506
100
AcDbEntity
  8
0
370
    -3
  6
Continuous
100
AcDbLine
 10
603.904603
 20
-9.032766
 30
0.0
 11
603.904603
 21
-32.498089
 31
0.0
  0
LINE
  5
507
100
AcDbEntity
  8
0
370
    -3
  6
Continuous
100
AcDbLine
 10
612.154603
 20
-32.614165
 30
0.0
 11
612.154603
 21
-9.886387
 31
0.0
  0
LINE
  5
508
100
AcDbEntity
  8
0
370
    -3
  6
Continuous
100
AcDbLine
 10
689.254603
 20
-33.959951
 30
0.0
 11
689.254603
 21
-9.886387
 31
0.0
  0
LINE
  5
509
100
AcDbEntity
  8
0
370
    -3
  6
Continuous
100
AcDbLine
 10
697.504603
 20
-9.032766
 30
0.0
 11
697.504603
 21
-34.103955
 31
0.0
  0
LINE
  5
50A
100
AcDbEntity
  8
0
370
    -3
  6
Continuous
100
AcDbLine
 10
688.203422
 20
-1.232766
 30
0.0
 11
613.205785
 21
-1.232766
 31
0.0
  0
ARC
  5
50B
100
AcDbEntity
  8
0
370
    -3
  6
Continuous
100
AcDbCircle
 10
689.704603
 20
-9.032766
 30
0.0
 40
7.8
100
AcDbArc
 50
0.0
 51
61.87484
  0
ELLIPSE
  5
50C
100
AcDbEntity
  8
0
370
    -3
  6
Continuous
100
AcDbEllipse
 10
690.204603
 20
-3.118174
 30
0.0
 11
3.5
 21
0.0
 31
0.0
210
0.0
220
0.0
230
1.0
 40
0.656603
 41
0.0
 42
6.2831853071795862
  0
LINE
  5
50D
100
AcDbEntity
  8
0
370
    -3
  6
Continuous
100
AcDbLine
 10
691.79462
 20
-1.070894
 30
0.0
 11
690.204603
 21
-1.580721
 31
0.0
  0
LINE
  5
50E
100
AcDbEntity
  8
0
370
    -3
  6
Continuous
100
AcDbLine
 10
690.204603
 20
-1.580721
 30
0.0
 11
692.204603
 21
-2.629909
 31
0.0
  0
LINE
  5
50F
100
AcDbEntity
  8
0
370
    -3
  6
Continuous
100
AcDbLine
 10
690.204603
 20
-1.580721
 30
0.0
 11
688.204603
 21
-2.629909
 31
0.0
  0
LINE
  5
510
100
AcDbEntity
  8
0
370
    -3
  6
Continuous
100
AcDbLine
 10
688.614587
 20
-1.070894
 30
0.0
 11
690.204603
 21
-1.580721
 31
0.0
  0
ARC
  5
511
100
AcDbEntity
  8
0
370
    -3
  6
Continuous
100
AcDbCircle
 10
682.454603
 20
-9.886387
 30
0.0
 40
6.8
100
AcDbArc
 50
0.0
 51
90.0
  0
LINE
  5
512
100
AcDbEntity
  8
0
370
    -3
  6
Continuous
100
AcDbLine
 10
682.454603
 20
-3.086387
 30
0.0
 11
618.954603
 21
-3.086387
 31
0.0
  0
ARC
  5
513
100
AcDbEntity
  8
0
370
    -3
  6
Continuous
100
AcDbCircle
 10
618.954603
 20
-9.886387
 30
0.0
 40
6.8
100
AcDbArc
 50
90.0
 51
180.0
  0
ARC
  5
514
100
AcDbEntity
  8
0
370
    -3
  6
Continuous
100
AcDbCircle
 10
611.704603
 20
-9.032766
 30
0.0
 40
7.8
100
AcDbArc
 50
118.12516
 51
180.0
  0
ELLIPSE
  5
515
100
AcDbEntity
  8
0
370
    -3
  6
Continuous
100
AcDbEllipse
 10
611.204603
 20
-3.118174
 30
0.0
 11
3.5
 21
0.0
 31
0.0
210
0.0
220
0.0
230
1.0
 40
0.656603
 41
0.0
 42
6.2831853071795862
  0
LINE
  5
516
100
AcDbEntity
  8
0
370
    -3
  6
Continuous
100
AcDbLine
 10
609.614587
 20
-1.070894
 30
0.0
 11
611.204603
 21
-1.580721
 31
0.0
  0
LINE
  5
517
100
AcDbEntity
  8
0
370
    -3
  6
Continuous
100
AcDbLine
 10
611.204603
 20
-1.580721
 30
0.0
 11
609.204603
 21
-2.629909
 31
0.0
  0
LINE
  5
518
100
AcDbEntity
  8
0
370
    -3
  6
Continuous
100
AcDbLine
 10
611.204603
 20
-1.580721
 30
0.0
 11
613.204603
 21
-2.629909
 31
0.0
  0
LINE
  5
519
100
AcDbEntity
  8
0
370
    -3
  6
Continuous
100
AcDbLine
 10
612.79462
 20
-1.070894
 30
0.0
 11
611.204603
 21
-1.580721
 31
0.0
  0
LINE
  5
51A
100
AcDbEntity
  8
0
370
    -3
  6
CENTER
100
AcDbLine
 10
672.00506
 20
-26.703914
 30
0.0
 11
629.404146
 21
-26.703914
 31
0.0
  0
MTEXT
  5
51B
100
AcDbEntity
  8
0
370
    -3
  6
Continuous
100
AcDbMText
 10
-240.86673
 20
133.973618
 30
0.0
 40
15.0
 41
0.0
 71
     7
 72
     1
  1
\W0.43;DATE\W0.72; \W0.43;2012.01.15
  7
ZU_SHPTB00001
 11
1.0
 21
0.0
 31
0.0
 73
     1
 44
1.0
  0
ENDSEC
  0
SECTION
  2
OBJECTS
  0
DICTIONARY
  5
19
100
AcDbDictionary
280
     0
281
     1
  3
ACAD_GROUP
350
1A
  3
ACAD_MLINESTYLE
350
1B
  3
ACAD_LAYOUT
350
1E
  3
ACAD_PLOTSETTINGS
350
22
  3
ACAD_PLOTSTYLENAME
350
1F
  3
ACAD_WIPEOUT_VARS
350
23
  3
DWGPROPS
350
51C
  0
DICTIONARY
  5
1A
102
{ACAD_REACTORS
330
19
102
}
100
AcDbDictionary
280
     0
281
     1
  0
DICTIONARY
  5
1B
102
{ACAD_REACTORS
330
19
102
}
100
AcDbDictionary
280
     0
281
     1
  3
Standard
350
1C
  0
MLINESTYLE
  5
1C
102
{ACAD_REACTORS
330
1B
102
}
100
AcDbMlineStyle
  2
Standard
 70
     0
  3

 62
     0
 51
90.0
 52
90.0
 71
     2
 49
0.5
 62
   256
  6
ByLayer
 49
-0.5
 62
   256
  6
ByLayer
  0
ACDBDICTIONARYWDFLT
  5
1F
102
{ACAD_REACTORS
330
19
102
}
100
AcDbDictionary
281
     1
  3
Normal
350
1D
100
AcDbDictionaryWithDefault
340
1D
  0
ACDBPLACEHOLDER
  5
1D
102
{ACAD_REACTORS
330
1F
102
}
  0
LAYOUT
  5
20
102
{ACAD_REACTORS
330
1E
102
}
100
AcDbPlotSettings
  1

  2

  4

  6

 40
0.0
 41
0.0
 42
0.0
 43
0.0
 44
0.0
 45
0.0
 46
0.0
 47
0.0
 48
0.0
 49
0.0
140
0.0
141
0.0
142
1.0
143
1.0
 70
  1024
 72
     0
 73
     0
 74
     0
  7

 75
     0
147
1.0
148
0.0
149
0.0
100
AcDbLayout
  1
Model
 70
     0
 71
     0
 10
0.0
 20
0.0
 11
0.0
 21
0.0
 12
0.0
 22
0.0
 32
0.0
 14
0.0
 24
0.0
 34
0.0
 15
0.0
 25
0.0
 35
0.0
146
0.0
 13
0.0
 23
0.0
 33
0.0
 16
0.0
 26
0.0
 36
0.0
 17
0.0
 27
0.0
 37
0.0
 76
     0
330
A
331
0
345
0
346
0
  0
LAYOUT
  5
21
102
{ACAD_REACTORS
330
1E
102
}
100
AcDbPlotSettings
  1

  2

  4

  6

 40
0.0
 41
0.0
 42
0.0
 43
0.0
 44
0.0
 45
0.0
 46
0.0
 47
0.0
 48
0.0
 49
0.0
140
0.0
141
0.0
142
1.0
143
1.0
 70
     0
 72
     0
 73
     0
 74
     0
  7

 75
     0
147
1.0
148
0.0
149
0.0
100
AcDbLayout
  1
Layout1
 70
     0
 71
     0
 10
0.0
 20
0.0
 11
0.0
 21
0.0
 12
0.0
 22
0.0
 32
0.0
 14
0.0
 24
0.0
 34
0.0
 15
0.0
 25
0.0
 35
0.0
146
0.0
 13
0.0
 23
0.0
 33
0.0
 16
0.0
 26
0.0
 36
0.0
 17
0.0
 27
0.0
 37
0.0
 76
     0
330
B
331
0
345
0
346
0
  0
DICTIONARY
  5
1E
102
{ACAD_REACTORS
330
19
102
}
100
AcDbDictionary
280
     0
281
     1
  3
Layout1
350
21
  3
Model
350
20
  0
DICTIONARY
  5
22
102
{ACAD_REACTORS
330
19
102
}
100
AcDbDictionary
280
     0
281
     1
  0
WIPEOUTVARIABLES
  5
23
100
AcDbWipeoutVariables
 70
     1
  0
XRECORD
  5
51C
100
AcDbXrecord
280
     1
  1
DWGPROPS COOKIE
  2

  3

  4

  6

  7

  8
HK96464
  9

300
=
301
=
302
=
303
=
304
=
305
=
306
=
307
=
308
=
309
=
 40
0.0
 41
2455941.601053
 42
2455941.601053
  1

 90
        0
  0
ENDSEC
  0
EOF
