  0
SECTION
  2
HEADER
  9
$ACADVER
  1
AC1015
  9
$ACADMAINTVER
 70
     6
  9
$DWGCODEPAGE
  3
ANSI_932
  9
$INSBASE
 10
0.0
 20
0.0
 30
0.0
  9
$EXTMIN
 10
1.000000E+20
 20
1.000000E+20
 30
1.000000E+20
  9
$EXTMAX
 10
-1.000000E+20
 20
-1.000000E+20
 30
-1.000000E+20
  9
$LIMMIN
 10
0.0
 20
0.0
  9
$LIMMAX
 10
0.0
 20
0.0
  9
$ORTHOMODE
 70
     0
  9
$REGENMODE
 70
     1
  9
$FILLMODE
 70
     1
  9
$QTEXTMODE
 70
     0
  9
$MIRRTEXT
 70
     1
  9
$LTSCALE
 40
1.0
  9
$ATTMODE
 70
     1
  9
$TEXTSIZE
 40
7.0
  9
$TRACEWID
 40
0.05
  9
$TEXTSTYLE
  7
Standard
  9
$CLAYER
  8
0
  9
$CELTYPE
  6
Continuous
  9
$CECOLOR
 62
   256
  9
$CELTSCALE
 40
1.0
  9
$DISPSILH
 70
     0
  9
$DIMSCALE
 40
1.0
  9
$DIMASZ
 40
1.931852
  9
$DIMEXO
 40
1.0
  9
$DIMDLI
 40
0.38
  9
$DIMRND
 40
0.0
  9
$DIMDLE
 40
0.0
  9
$DIMEXE
 40
2.0
  9
$DIMTP
 40
0.0
  9
$DIMTM
 40
0.0
  9
$DIMTXT
 40
2.8
  9
$DIMCEN
 40
0.09
  9
$DIMTSZ
 40
0.0
  9
$DIMTOL
 70
     0
  9
$DIMLIM
 70
     0
  9
$DIMTIH
 70
     1
  9
$DIMTOH
 70
     1
  9
$DIMSE1
 70
     0
  9
$DIMSE2
 70
     0
  9
$DIMTAD
 70
     1
  9
$DIMZIN
 70
     0
  9
$DIMBLK
  1

  9
$DIMASO
 70
     1
  9
$DIMSHO
 70
     1
  9
$DIMPOST
  1

  9
$DIMAPOST
  1

  9
$DIMALT
 70
     0
  9
$DIMALTD
 70
     2
  9
$DIMALTF
 40
25.4
  9
$DIMLFAC
 40
1.0
  9
$DIMTOFL
 70
     0
  9
$DIMTVP
 40
0.0
  9
$DIMTIX
 70
     0
  9
$DIMSOXD
 70
     0
  9
$DIMSAH
 70
     0
  9
$DIMBLK1
  1

  9
$DIMBLK2
  1

  9
$DIMSTYLE
  2
Standard
  9
$DIMCLRD
 70
     0
  9
$DIMCLRE
 70
     0
  9
$DIMCLRT
 70
     0
  9
$DIMTFAC
 40
0.714286
  9
$DIMGAP
 40
0.09
  9
$DIMJUST
 70
     0
  9
$DIMSD1
 70
     0
  9
$DIMSD2
 70
     0
  9
$DIMTOLJ
 70
     1
  9
$DIMTZIN
 70
     0
  9
$DIMALTZ
 70
     0
  9
$DIMALTTZ
 70
     0
  9
$DIMUPT
 70
     0
  9
$DIMDEC
 70
     4
  9
$DIMTDEC
 70
     4
  9
$DIMALTU
 70
     2
  9
$DIMALTTD
 70
     2
  9
$DIMTXSTY
  7
Standard
  9
$DIMAUNIT
 70
     0
  9
$DIMADEC
 70
     0
  9
$DIMALTRND
 40
0.0
  9
$DIMAZIN
 70
     0
  9
$DIMDSEP
 70
     0
  9
$DIMATFIT
 70
     3
  9
$DIMFRAC
 70
     0
  9
$DIMLDRBLK
  1

  9
$DIMLUNIT
 70
     2
  9
$DIMLWD
 70
     0
  9
$DIMLWE
 70
     0
  9
$DIMTMOVE
 70
     0
  9
$LUNITS
 70
     2
  9
$LUPREC
 70
     3
  9
$SKETCHINC
 40
0.1
  9
$FILLETRAD
 40
0.0
  9
$AUNITS
 70
     0
  9
$AUPREC
 70
     0
  9
$MENU
  1
acad
  9
$ELEVATION
 40
0.0
  9
$PELEVATION
 40
0.0
  9
$THICKNESS
 40
0.0
  9
$LIMCHECK
 70
     0
  9
$CHAMFERA
 40
0.0
  9
$CHAMFERB
 40
0.0
  9
$CHAMFERC
 40
0.0
  9
$CHAMFERD
 40
0.0
  9
$SKPOLY
 70
     0
  9
$TDCREATE
 40
0.000000000
  9
$TDUCREATE
 40
0.000000000
  9
$TDUPDATE
 40
0.000000000
  9
$TDUUPDATE
 40
0.000000000
  9
$TDINDWG
 40
0.0000000000
  9
$TDUSRTIMER
 40
0.0000000000
  9
$USRTIMER
 70
     1
  9
$ANGBASE
 50
0.0
  9
$ANGDIR
 70
     0
  9
$PDMODE
 70
     0
  9
$PDSIZE
 40
0.0
  9
$PLINEWID
 40
0.0
  9
$SPLFRAME
 70
     0
  9
$SPLINETYPE
 70
     6
  9
$SPLINESEGS
 70
     8
  9
$HANDSEED
  5
4D8
  9
$SURFTAB1
 70
     6
  9
$SURFTAB2
 70
     6
  9
$SURFTYPE
 70
     6
  9
$SURFU
 70
     6
  9
$SURFV
 70
     6
  9
$UCSBASE
  2

  9
$UCSNAME
  2

  9
$UCSORG
 10
0.0
 20
0.0
 30
0.0
  9
$UCSXDIR
 10
1.0
 20
0.0
 30
0.0
  9
$UCSYDIR
 10
0.0
 20
1.0
 30
0.0
  9
$UCSORTHOREF
  2

  9
$UCSORTHOVIEW
 70
     0
  9
$UCSORGTOP
 10
0.0
 20
0.0
 30
0.0
  9
$UCSORGBOTTOM
 10
0.0
 20
0.0
 30
0.0
  9
$UCSORGLEFT
 10
0.0
 20
0.0
 30
0.0
  9
$UCSORGRIGHT
 10
0.0
 20
0.0
 30
0.0
  9
$UCSORGFRONT
 10
0.0
 20
0.0
 30
0.0
  9
$UCSORGBACK
 10
0.0
 20
0.0
 30
0.0
  9
$PUCSBASE
  2

  9
$PUCSNAME
  2

  9
$PUCSORG
 10
0.0
 20
0.0
 30
0.0
  9
$PUCSXDIR
 10
1.0
 20
0.0
 30
0.0
  9
$PUCSYDIR
 10
0.0
 20
1.0
 30
0.0
  9
$PUCSORTHOREF
  2

  9
$PUCSORTHOVIEW
 70
     0
  9
$PUCSORGTOP
 10
0.0
 20
0.0
 30
0.0
  9
$PUCSORGBOTTOM
 10
0.0
 20
0.0
 30
0.0
  9
$PUCSORGLEFT
 10
0.0
 20
0.0
 30
0.0
  9
$PUCSORGRIGHT
 10
0.0
 20
0.0
 30
0.0
  9
$PUCSORGFRONT
 10
0.0
 20
0.0
 30
0.0
  9
$PUCSORGBACK
 10
0.0
 20
0.0
 30
0.0
  9
$USERI1
 70
     0
  9
$USERI2
 70
     0
  9
$USERI3
 70
     0
  9
$USERI4
 70
     0
  9
$USERI5
 70
     0
  9
$USERR1
 40
0.0
  9
$USERR2
 40
0.0
  9
$USERR3
 40
0.0
  9
$USERR4
 40
0.0
  9
$USERR5
 40
0.0
  9
$WORLDVIEW
 70
     1
  9
$SHADEDGE
 70
     3
  9
$SHADEDIF
 70
    70
  9
$TILEMODE
 70
     1
  9
$MAXACTVP
 70
    16
  9
$PINSBASE
 10
0.0
 20
0.0
 30
0.0
  9
$PLIMCHECK
 70
     0
  9
$PEXTMIN
 10
1.000000E+20
 20
1.000000E+20
 30
1.000000E+20
  9
$PEXTMAX
 10
-1.000000E+20
 20
-1.000000E+20
 30
-1.000000E+20
  9
$PLIMMIN
 10
0.0
 20
0.0
  9
$PLIMMAX
 10
12.0
 20
9.0
  9
$UNITMODE
 70
     0
  9
$VISRETAIN
 70
     0
  9
$PLINEGEN
 70
     1
  9
$PSLTSCALE
 70
     0
  9
$TREEDEPTH
 70
  3020
  9
$CMLSTYLE
  2
Standard
  9
$CMLJUST
 70
     0
  9
$CMLSCALE
 40
1.0
  9
$PROXYGRAPHICS
 70
     0
  9
$MEASUREMENT
 70
     0
  9
$CELWEIGHT
370
     0
  9
$ENDCAPS
280
     0
  9
$JOINSTYLE
280
     0
  9
$LWDISPLAY
290
     0
  9
$INSUNITS
 70
     0
  9
$HYPERLINKBASE
  1

  9
$STYLESHEET
  1

  9
$XEDIT
290
     1
  9
$CEPSNTYPE
380
     0
  9
$PSTYLEMODE
290
     1
  9
$FINGERPRINTGUID
  2

  9
$VERSIONGUID
  2

  9
$EXTNAMES
290
     1
  9
$PSVPSCALE
 40
0.0
  0
ENDSEC
  0
SECTION
  2
CLASSES
  0
CLASS
  1
LWPOLYLINE
  2
AcDbPolyline
  3
AutoCAD 2000
 90
    32768
280
     0
281
     1
  0
CLASS
  1
IMAGE
  2
AcDbRasterImage
  3
ISM
 90
    32895
280
     0
281
     1
  0
CLASS
  1
OLE2FRAME
  2
AcDbOle2Frame
  3
AutoCAD 2000
 90
    32768
280
     0
281
     1
  0
CLASS
  1
HATCH
  2
AcDbHatch
  3
AutoCAD 2000
 90
    32768
280
     0
281
     1
  0
CLASS
  1
DICTIONARYVAR
  2
AcDbDictionaryVar
  3
AutoCAD 2000
 90
    32768
280
     0
281
     0
  0
CLASS
  1
RASTERVARIABLES
  2
AcDbRasterVariables
  3
ISM
 90
    32768
280
     0
281
     0
  0
CLASS
  1
IMAGEDEF
  2
AcDbRasterImageDef
  3
ISM
 90
    32768
280
     0
281
     0
  0
CLASS
  1
IMAGEDEF_REACTOR
  2
AcDbRasterImageDefReactor
  3
ISM
 90
    32769
280
     0
281
     0
  0
CLASS
  1
IDBUFFER
  2
AcDbIdBuffer
  3
AutoCAD 2000
 90
    32768
280
     0
281
     0
  0
CLASS
  1
SPATIAL_FILTER
  2
AcDbSpatialFilter
  3
AutoCAD 2000
 90
    32768
280
     0
281
     0
  0
CLASS
  1
XRECORD
  2
AcDbXrecord
  3
AutoCAD 2000
 90
        0
280
     0
281
     0
  0
CLASS
  1
SORTENTSTABLE
  2
AcDbSortentsTable
  3
AutoCAD 2000
 90
    32768
280
     0
281
     0
  0
CLASS
  1
LAYER_INDEX
  2
AcDbLayerIndex
  3
AutoCAD 2000
 90
    32768
280
     0
281
     0
  0
CLASS
  1
SPATIAL_INDEX
  2
AcDbSpatialIndex
  3
AutoCAD 2000
 90
    32768
280
     0
281
     0
  0
CLASS
  1
OBJECT_PTR
  2
CAseDLPNTableRecord
  3
"ASE-LPNTableRecord"
 90
    32769
280
     0
281
     0
  0
CLASS
  1
LAYOUT
  2
AcDbLayout
  3
AutoCAD 2000
 90
        0
280
     0
281
     0
  0
CLASS
  1
PLOTSETTINGS
  2
AcDbPlotSettings
  3
AutoCAD 2000
 90
    32768
280
     0
281
     0
  0
CLASS
  1
ACDBDICTIONARYWDFLT
  2
AcDbDictionaryWithDefault
  3
AutoCAD 2000
 90
        0
280
     0
281
     0
  0
CLASS
  1
ACDBPLACEHOLDER
  2
AcDbPlaceHolder
  3
AutoCAD 2000
 90
        0
280
     0
281
     0
  0
CLASS
  1
VBA_PROJECT
  2
AcDbVbaProject
  3
acadvba
 90
    32768
280
     0
281
     0
  0
CLASS
  1
WIPEOUT
  2
AcDbWipeout
  3
WipeOut|AutoCAD Express Tool|expresstools@autodesk.com
 90
    32895
280
     0
281
     1
  0
CLASS
  1
WIPEOUTVARIABLES
  2
AcDbWipeoutVariables
  3
WipeOut|AutoCAD Express Tool|expresstools@autodesk.com
 90
        0
280
     0
281
     0
  0
CLASS
  1
RTEXT
  2
RText
  3
RText|AutoCAD Express Tool|expresstools@autodesk.com
 90
    32768
280
     0
281
     1
  0
CLASS
  1
ARCALIGNEDTEXT
  2
AcDbArcAlignedText
  3
ATEXT|AutoCAD Express Tool|expresstools@autodesk.com
 90
    32768
280
     0
281
     1
  0
ENDSEC
  0
SECTION
  2
TABLES
  0
TABLE
  2
VPORT
  5
7
100
AcDbSymbolTable
 70
     1
  0
VPORT
  5
15
100
AcDbSymbolTableRecord
100
AcDbViewportTableRecord
  2
*ACTIVE
 70
     0
 10
0.0
 20
0.0
 11
1.0
 21
1.0
 12
0.0
 22
0.0
 13
0.0
 23
0.0
 14
1.0
 24
1.0
 15
0.0
 25
0.0
 16
0.0
 26
0.0
 36
1.0
 17
0.0
 27
0.0
 37
0.0
 40
100.0
 41
1.0
 42
50.0
 43
0.0
 44
0.0
 50
0.0
 51
0.0
 71
     0
 72
   100
 73
     1
 74
     1
 75
     0
 76
     0
 77
     0
 78
     0
281
     0
 65
     0
110
0.0
120
0.0
130
0.0
111
1.0
121
0.0
131
0.0
112
0.0
122
1.0
132
0.0
345
0
346
0
 79
     0
146
0.0
  0
ENDTAB
  0
TABLE
  2
LTYPE
  5
4
100
AcDbSymbolTable
 70
     7
  0
LTYPE
  5
11
100
AcDbSymbolTableRecord
100
AcDbLinetypeTableRecord
  2
ByBlock
 70
    64
  3

 72
    65
 73
     0
 40
0.0
  0
LTYPE
  5
12
100
AcDbSymbolTableRecord
100
AcDbLinetypeTableRecord
  2
ByLayer
 70
    64
  3

 72
    65
 73
     0
 40
0.0
  0
LTYPE
  5
13
100
AcDbSymbolTableRecord
100
AcDbLinetypeTableRecord
  2
Continuous
 70
    64
  3
Solid line
 72
    65
 73
     0
 40
0.0
  0
LTYPE
  5
24
100
AcDbSymbolTableRecord
100
AcDbLinetypeTableRecord
  2
DASHED
 70
    64
  3
Dashed __ __ __ __ __ __ __ __ __ __ __ __ __ _
 72
    65
 73
     2
 40
0.75
 49
0.5
 74
     0
 49
-0.25
 74
     0
  0
LTYPE
  5
25
100
AcDbSymbolTableRecord
100
AcDbLinetypeTableRecord
  2
CENTER
 70
    64
  3
Center ____ _ ____ _ ____ _ ____ _ ____ _ ____
 72
    65
 73
     4
 40
1.0
 49
0.5
 74
     0
 49
-0.25
 74
     0
 49
0.0
 74
     0
 49
-0.25
 74
     0
  0
LTYPE
  5
26
100
AcDbSymbolTableRecord
100
AcDbLinetypeTableRecord
  2
DIVIDE
 70
    64
  3
Divide ____ . . ____ . . ____ . . ____ . . ____
 72
    65
 73
     6
 40
1.25
 49
0.5
 74
     0
 49
-0.25
 74
     0
 49
0.0
 74
     0
 49
-0.25
 74
     0
 49
0.0
 74
     0
 49
-0.25
 74
     0
  0
LTYPE
  5
27
100
AcDbSymbolTableRecord
100
AcDbLinetypeTableRecord
  2
PHANTOM
 70
    64
  3
Phantom ______  __  __  ______  __  __  ______
 72
    65
 73
     6
 40
9.0
 49
4.3
 74
     0
 49
-0.7
 74
     0
 49
1.3
 74
     0
 49
-0.7
 74
     0
 49
1.3
 74
     0
 49
-0.7
 74
     0
  0
ENDTAB
  0
TABLE
  2
LAYER
  5
2
100
AcDbSymbolTable
 70
     3
  0
LAYER
  5
14
100
AcDbSymbolTableRecord
100
AcDbLayerTableRecord
  2
0
 70
    64
 62
    53
  6
Continuous
290
     1
370
    -3
390
1D
  0
LAYER
  5
28
100
AcDbSymbolTableRecord
100
AcDbLayerTableRecord
  2
3
 70
    64
 62
     4
  6
Continuous
290
     1
370
    -3
390
1D
  0
LAYER
  5
29
100
AcDbSymbolTableRecord
100
AcDbLayerTableRecord
  2
5
 70
    64
 62
   191
  6
Continuous
290
     1
370
    -3
390
1D
  0
ENDTAB
  0
TABLE
  2
STYLE
  5
3
100
AcDbSymbolTable
 70
     2
  0
STYLE
  5
17
100
AcDbSymbolTableRecord
100
AcDbTextStyleTableRecord
  2
Standard
 70
     0
 40
0.0
 41
1.0
 50
0.0
 71
     0
 42
0.0
  3
txt
  4

  0
STYLE
  5
17D
100
AcDbSymbolTableRecord
100
AcDbTextStyleTableRecord
  2
ZU_SHPTB00001
 70
     0
 40
0.0
 41
1.0
 50
0.0
 71
     0
 42
0.0
  3
monotxt
  4
bigfont
  0
ENDTAB
  0
TABLE
  2
VIEW
  5
5
100
AcDbSymbolTable
 70
     0
  0
ENDTAB
  0
TABLE
  2
UCS
  5
6
100
AcDbSymbolTable
 70
     0
  0
ENDTAB
  0
TABLE
  2
APPID
  5
8
100
AcDbSymbolTable
 70
     1
  0
APPID
  5
16
100
AcDbSymbolTableRecord
100
AcDbRegAppTableRecord
  2
ACAD
 70
     0
  0
ENDTAB
  0
TABLE
  2
DIMSTYLE
  5
9
100
AcDbSymbolTable
 70
     1
100
AcDbDimStyleTable
 71
     0
  0
DIMSTYLE
105
18
100
AcDbSymbolTableRecord
100
AcDbDimStyleTableRecord
  2
Standard
 70
     0
  3

  4

 40
1.0
 41
0.18
 42
0.0625
 43
0.38
 44
0.18
 45
0.0
 46
0.0
 47
0.0
 48
0.0
 71
     0
 72
     0
 73
     1
 74
     1
 75
     0
 76
     0
 77
     0
 78
     0
 79
     0
140
0.18
141
0.09
142
0.0
143
25.4
144
1.0
145
0.0
146
1.0
147
0.09
148
0.0
170
     0
171
     2
172
     0
173
     0
174
     0
175
     0
176
     0
177
     0
178
     0
179
     0
271
     4
272
     4
273
     2
274
     2
275
     0
276
     0
277
     2
278
    46
279
     0
280
     0
281
     0
282
     0
283
     1
284
     0
285
     0
286
     0
288
     0
340
17
341
0
342
0
343
0
344
0
371
    -2
372
    -2
  0
ENDTAB
  0
TABLE
  2
BLOCK_RECORD
  5
1
100
AcDbSymbolTable
 70
     8
  0
BLOCK_RECORD
  5
A
100
AcDbSymbolTableRecord
100
AcDbBlockTableRecord
  2
*MODEL_SPACE
340
20
  0
BLOCK_RECORD
  5
B
100
AcDbSymbolTableRecord
100
AcDbBlockTableRecord
  2
*PAPER_SPACE
340
21
  0
BLOCK_RECORD
  5
E2
100
AcDbSymbolTableRecord
100
AcDbBlockTableRecord
  2
ZU_SYM__USERS_HOME_SYMBOL_STD_SYM_B01_-1
340
0
102
{BLKREFS
331
F4
102
}
  0
BLOCK_RECORD
  5
F5
100
AcDbSymbolTableRecord
100
AcDbBlockTableRecord
  2
ZU_SYM__USERS_HOME_SYMBOL_STD_SYM_B01_00001-1
340
0
102
{BLKREFS
331
107
102
}
  0
BLOCK_RECORD
  5
108
100
AcDbSymbolTableRecord
100
AcDbBlockTableRecord
  2
ZU_SYM__USERS_HOME_SYMBOL_STD_SYM_B01_00002-1
340
0
102
{BLKREFS
331
11A
102
}
  0
BLOCK_RECORD
  5
11C
100
AcDbSymbolTableRecord
100
AcDbBlockTableRecord
  2
ZU_SYM__USERS_HOME_SYMBOL_STD_SYM_B01_00003-1
340
0
102
{BLKREFS
331
12E
102
}
  0
BLOCK_RECORD
  5
234
100
AcDbSymbolTableRecord
100
AcDbBlockTableRecord
  2
ZU_SYM__USERS_HOME_SYMBOL_STD_SYM_B01_00004-1
340
0
102
{BLKREFS
331
23F
102
}
  0
BLOCK_RECORD
  5
240
100
AcDbSymbolTableRecord
100
AcDbBlockTableRecord
  2
ZU_SYM__USERS_HOME_SYMBOL_STD_SYM_B01_00005-1
340
0
102
{BLKREFS
331
24B
102
}
  0
BLOCK_RECORD
  5
24C
100
AcDbSymbolTableRecord
100
AcDbBlockTableRecord
  2
ZU_SYM__USERS_HOME_SYMBOL_STD_SYM_B01_00006-1
340
0
102
{BLKREFS
331
257
102
}
  0
BLOCK_RECORD
  5
258
100
AcDbSymbolTableRecord
100
AcDbBlockTableRecord
  2
ZU_SYM__USERS_HOME_SYMBOL_STD_SYM_B01_00007-1
340
0
102
{BLKREFS
331
263
102
}
  0
ENDTAB
  0
ENDSEC
  0
SECTION
  2
BLOCKS
  0
BLOCK
  5
D
100
AcDbEntity
  8
0
100
AcDbBlockBegin
  2
*MODEL_SPACE
 70
     0
 10
0.0
 20
0.0
 30
0.0
  3
*MODEL_SPACE
  1

  0
ENDBLK
  5
E
100
AcDbEntity
  8
0
100
AcDbBlockEnd
  0
BLOCK
  5
F
100
AcDbEntity
 67
     1
  8
0
100
AcDbBlockBegin
  2
*PAPER_SPACE
 70
     0
 10
0.0
 20
0.0
 30
0.0
  3
*PAPER_SPACE
  1

  0
ENDBLK
  5
10
100
AcDbEntity
 67
     1
  8
0
100
AcDbBlockEnd
  0
BLOCK
  5
E3
100
AcDbEntity
  8
0
100
AcDbBlockBegin
  2
ZU_SYM__USERS_HOME_SYMBOL_STD_SYM_B01_-1
 70
    64
 10
0.0
 20
0.0
 30
0.0
  3
ZU_SYM__USERS_HOME_SYMBOL_STD_SYM_B01_-1
  1

  0
LINE
  5
E4
100
AcDbEntity
  8
0
370
    -3
  6
Continuous
100
AcDbLine
 10
-1.299999
 20
0.300007
 30
0.0
 11
-0.000001
 21
0.600002
 31
0.0
  0
LINE
  5
E5
100
AcDbEntity
  8
0
370
    -3
  6
Continuous
100
AcDbLine
 10
-1.3
 20
-0.299995
 30
0.0
 11
-0.000004
 21
-0.000001
 31
0.0
  0
LINE
  5
E6
100
AcDbEntity
  8
0
370
    -3
  6
Continuous
100
AcDbLine
 10
-1.300018
 20
-4.599993
 30
0.0
 11
-1.299981
 21
4.600004
 31
0.0
  0
ARC
  5
E7
100
AcDbEntity
  8
0
370
    -3
  6
Continuous
100
AcDbCircle
 10
0.740001
 20
-0.000003
 30
0.0
 40
5.539999
100
AcDbArc
 50
155.470187
 51
204.52925
  0
ARC
  5
E8
100
AcDbEntity
  8
0
370
    -3
  6
Continuous
100
AcDbCircle
 10
-3.229986
 20
3.450012
 30
0.0
 40
1.57
100
AcDbArc
 50
179.999745
 51
227.099746
  0
ARC
  5
E9
100
AcDbEntity
  8
0
370
    -3
  6
Continuous
100
AcDbCircle
 10
-3.230014
 20
-3.449986
 30
0.0
 40
1.57
100
AcDbArc
 50
132.899744
 51
179.999745
  0
LINE
  5
EA
100
AcDbEntity
  8
0
370
    -3
  6
Continuous
100
AcDbLine
 10
-4.299987
 20
2.300014
 30
0.0
 11
-1.29999
 21
2.300004
 31
0.0
  0
LINE
  5
EB
100
AcDbEntity
  8
0
370
    -3
  6
Continuous
100
AcDbLine
 10
-4.300006
 20
-2.29998
 30
0.0
 11
-1.300007
 21
-2.299992
 31
0.0
  0
LINE
  5
EC
100
AcDbEntity
  8
0
370
    -3
  6
Continuous
100
AcDbLine
 10
0.000016
 20
4.599992
 30
0.0
 11
-0.000021
 21
-4.599992
 31
0.0
  0
LINE
  5
ED
100
AcDbEntity
  8
0
370
    -3
  6
Continuous
100
AcDbLine
 10
-4.299978
 20
4.600015
 30
0.0
 11
0.000013
 21
4.599998
 31
0.0
  0
LINE
  5
EE
100
AcDbEntity
  8
0
370
    -3
  6
Continuous
100
AcDbLine
 10
-4.799962
 20
3.900001
 30
0.0
 11
-4.299962
 21
4.599999
 31
0.0
  0
LINE
  5
EF
100
AcDbEntity
  8
0
370
    -3
  6
Continuous
100
AcDbLine
 10
-4.80001
 20
-3.899973
 30
0.0
 11
-4.799979
 21
3.900012
 31
0.0
  0
LINE
  5
F0
100
AcDbEntity
  8
0
370
    -3
  6
Continuous
100
AcDbLine
 10
-4.299996
 20
-4.599962
 30
0.0
 11
-4.79999
 21
-3.899959
 31
0.0
  0
LINE
  5
F1
100
AcDbEntity
  8
0
370
    -3
  6
Continuous
100
AcDbLine
 10
-0.000025
 20
-4.599994
 30
0.0
 11
-4.300015
 21
-4.599977
 31
0.0
  0
POINT
  5
F2
100
AcDbEntity
  8
0
370
    -3
  6
Continuous
100
AcDbPoint
 10
0.0
 20
0.0
 30
0.0
  0
ENDBLK
  5
F3
100
AcDbEntity
  8
0
100
AcDbBlockEnd
  0
BLOCK
  5
F6
100
AcDbEntity
  8
0
100
AcDbBlockBegin
  2
ZU_SYM__USERS_HOME_SYMBOL_STD_SYM_B01_00001-1
 70
    64
 10
0.0
 20
0.0
 30
0.0
  3
ZU_SYM__USERS_HOME_SYMBOL_STD_SYM_B01_00001-1
  1

  0
LINE
  5
F7
100
AcDbEntity
  8
0
370
    -3
  6
Continuous
100
AcDbLine
 10
-1.299999
 20
0.300007
 30
0.0
 11
-0.000001
 21
0.600002
 31
0.0
  0
LINE
  5
F8
100
AcDbEntity
  8
0
370
    -3
  6
Continuous
100
AcDbLine
 10
-1.3
 20
-0.299995
 30
0.0
 11
-0.000004
 21
-0.000001
 31
0.0
  0
LINE
  5
F9
100
AcDbEntity
  8
0
370
    -3
  6
Continuous
100
AcDbLine
 10
-1.300018
 20
-4.599993
 30
0.0
 11
-1.299981
 21
4.600004
 31
0.0
  0
ARC
  5
FA
100
AcDbEntity
  8
0
370
    -3
  6
Continuous
100
AcDbCircle
 10
0.740001
 20
-0.000003
 30
0.0
 40
5.539999
100
AcDbArc
 50
155.470187
 51
204.52925
  0
ARC
  5
FB
100
AcDbEntity
  8
0
370
    -3
  6
Continuous
100
AcDbCircle
 10
-3.229986
 20
3.450012
 30
0.0
 40
1.57
100
AcDbArc
 50
179.999745
 51
227.099746
  0
ARC
  5
FC
100
AcDbEntity
  8
0
370
    -3
  6
Continuous
100
AcDbCircle
 10
-3.230014
 20
-3.449986
 30
0.0
 40
1.57
100
AcDbArc
 50
132.899744
 51
179.999745
  0
LINE
  5
FD
100
AcDbEntity
  8
0
370
    -3
  6
Continuous
100
AcDbLine
 10
-4.299987
 20
2.300014
 30
0.0
 11
-1.29999
 21
2.300004
 31
0.0
  0
LINE
  5
FE
100
AcDbEntity
  8
0
370
    -3
  6
Continuous
100
AcDbLine
 10
-4.300006
 20
-2.29998
 30
0.0
 11
-1.300007
 21
-2.299992
 31
0.0
  0
LINE
  5
FF
100
AcDbEntity
  8
0
370
    -3
  6
Continuous
100
AcDbLine
 10
0.000016
 20
4.599992
 30
0.0
 11
-0.000021
 21
-4.599992
 31
0.0
  0
LINE
  5
100
100
AcDbEntity
  8
0
370
    -3
  6
Continuous
100
AcDbLine
 10
-4.299978
 20
4.600015
 30
0.0
 11
0.000013
 21
4.599998
 31
0.0
  0
LINE
  5
101
100
AcDbEntity
  8
0
370
    -3
  6
Continuous
100
AcDbLine
 10
-4.799962
 20
3.900001
 30
0.0
 11
-4.299962
 21
4.599999
 31
0.0
  0
LINE
  5
102
100
AcDbEntity
  8
0
370
    -3
  6
Continuous
100
AcDbLine
 10
-4.80001
 20
-3.899973
 30
0.0
 11
-4.799979
 21
3.900012
 31
0.0
  0
LINE
  5
103
100
AcDbEntity
  8
0
370
    -3
  6
Continuous
100
AcDbLine
 10
-4.299996
 20
-4.599962
 30
0.0
 11
-4.79999
 21
-3.899959
 31
0.0
  0
LINE
  5
104
100
AcDbEntity
  8
0
370
    -3
  6
Continuous
100
AcDbLine
 10
-0.000025
 20
-4.599994
 30
0.0
 11
-4.300015
 21
-4.599977
 31
0.0
  0
POINT
  5
105
100
AcDbEntity
  8
0
370
    -3
  6
Continuous
100
AcDbPoint
 10
0.0
 20
0.0
 30
0.0
  0
ENDBLK
  5
106
100
AcDbEntity
  8
0
100
AcDbBlockEnd
  0
BLOCK
  5
109
100
AcDbEntity
  8
0
100
AcDbBlockBegin
  2
ZU_SYM__USERS_HOME_SYMBOL_STD_SYM_B01_00002-1
 70
    64
 10
0.0
 20
0.0
 30
0.0
  3
ZU_SYM__USERS_HOME_SYMBOL_STD_SYM_B01_00002-1
  1

  0
LINE
  5
10A
100
AcDbEntity
  8
0
370
    -3
  6
Continuous
100
AcDbLine
 10
-1.299999
 20
0.300007
 30
0.0
 11
-0.000001
 21
0.600002
 31
0.0
  0
LINE
  5
10B
100
AcDbEntity
  8
0
370
    -3
  6
Continuous
100
AcDbLine
 10
-1.3
 20
-0.299995
 30
0.0
 11
-0.000004
 21
-0.000001
 31
0.0
  0
LINE
  5
10C
100
AcDbEntity
  8
0
370
    -3
  6
Continuous
100
AcDbLine
 10
-1.300018
 20
-4.599993
 30
0.0
 11
-1.299981
 21
4.600004
 31
0.0
  0
ARC
  5
10D
100
AcDbEntity
  8
0
370
    -3
  6
Continuous
100
AcDbCircle
 10
0.740001
 20
-0.000003
 30
0.0
 40
5.539999
100
AcDbArc
 50
155.470187
 51
204.52925
  0
ARC
  5
10E
100
AcDbEntity
  8
0
370
    -3
  6
Continuous
100
AcDbCircle
 10
-3.229986
 20
3.450012
 30
0.0
 40
1.57
100
AcDbArc
 50
179.999745
 51
227.099746
  0
ARC
  5
10F
100
AcDbEntity
  8
0
370
    -3
  6
Continuous
100
AcDbCircle
 10
-3.230014
 20
-3.449986
 30
0.0
 40
1.57
100
AcDbArc
 50
132.899744
 51
179.999745
  0
LINE
  5
110
100
AcDbEntity
  8
0
370
    -3
  6
Continuous
100
AcDbLine
 10
-4.299987
 20
2.300014
 30
0.0
 11
-1.29999
 21
2.300004
 31
0.0
  0
LINE
  5
111
100
AcDbEntity
  8
0
370
    -3
  6
Continuous
100
AcDbLine
 10
-4.300006
 20
-2.29998
 30
0.0
 11
-1.300007
 21
-2.299992
 31
0.0
  0
LINE
  5
112
100
AcDbEntity
  8
0
370
    -3
  6
Continuous
100
AcDbLine
 10
0.000016
 20
4.599992
 30
0.0
 11
-0.000021
 21
-4.599992
 31
0.0
  0
LINE
  5
113
100
AcDbEntity
  8
0
370
    -3
  6
Continuous
100
AcDbLine
 10
-4.299978
 20
4.600015
 30
0.0
 11
0.000013
 21
4.599998
 31
0.0
  0
LINE
  5
114
100
AcDbEntity
  8
0
370
    -3
  6
Continuous
100
AcDbLine
 10
-4.799962
 20
3.900001
 30
0.0
 11
-4.299962
 21
4.599999
 31
0.0
  0
LINE
  5
115
100
AcDbEntity
  8
0
370
    -3
  6
Continuous
100
AcDbLine
 10
-4.80001
 20
-3.899973
 30
0.0
 11
-4.799979
 21
3.900012
 31
0.0
  0
LINE
  5
116
100
AcDbEntity
  8
0
370
    -3
  6
Continuous
100
AcDbLine
 10
-4.299996
 20
-4.599962
 30
0.0
 11
-4.79999
 21
-3.899959
 31
0.0
  0
LINE
  5
117
100
AcDbEntity
  8
0
370
    -3
  6
Continuous
100
AcDbLine
 10
-0.000025
 20
-4.599994
 30
0.0
 11
-4.300015
 21
-4.599977
 31
0.0
  0
POINT
  5
118
100
AcDbEntity
  8
0
370
    -3
  6
Continuous
100
AcDbPoint
 10
0.0
 20
0.0
 30
0.0
  0
ENDBLK
  5
119
100
AcDbEntity
  8
0
100
AcDbBlockEnd
  0
BLOCK
  5
11D
100
AcDbEntity
  8
0
100
AcDbBlockBegin
  2
ZU_SYM__USERS_HOME_SYMBOL_STD_SYM_B01_00003-1
 70
    64
 10
0.0
 20
0.0
 30
0.0
  3
ZU_SYM__USERS_HOME_SYMBOL_STD_SYM_B01_00003-1
  1

  0
LINE
  5
11E
100
AcDbEntity
  8
0
370
    -3
  6
Continuous
100
AcDbLine
 10
-1.299999
 20
0.300007
 30
0.0
 11
-0.000001
 21
0.600002
 31
0.0
  0
LINE
  5
11F
100
AcDbEntity
  8
0
370
    -3
  6
Continuous
100
AcDbLine
 10
-1.3
 20
-0.299995
 30
0.0
 11
-0.000004
 21
-0.000001
 31
0.0
  0
LINE
  5
120
100
AcDbEntity
  8
0
370
    -3
  6
Continuous
100
AcDbLine
 10
-1.300018
 20
-4.599993
 30
0.0
 11
-1.299981
 21
4.600004
 31
0.0
  0
ARC
  5
121
100
AcDbEntity
  8
0
370
    -3
  6
Continuous
100
AcDbCircle
 10
0.740001
 20
-0.000003
 30
0.0
 40
5.539999
100
AcDbArc
 50
155.470187
 51
204.52925
  0
ARC
  5
122
100
AcDbEntity
  8
0
370
    -3
  6
Continuous
100
AcDbCircle
 10
-3.229986
 20
3.450012
 30
0.0
 40
1.57
100
AcDbArc
 50
179.999745
 51
227.099746
  0
ARC
  5
123
100
AcDbEntity
  8
0
370
    -3
  6
Continuous
100
AcDbCircle
 10
-3.230014
 20
-3.449986
 30
0.0
 40
1.57
100
AcDbArc
 50
132.899744
 51
179.999745
  0
LINE
  5
124
100
AcDbEntity
  8
0
370
    -3
  6
Continuous
100
AcDbLine
 10
-4.299987
 20
2.300014
 30
0.0
 11
-1.29999
 21
2.300004
 31
0.0
  0
LINE
  5
125
100
AcDbEntity
  8
0
370
    -3
  6
Continuous
100
AcDbLine
 10
-4.300006
 20
-2.29998
 30
0.0
 11
-1.300007
 21
-2.299992
 31
0.0
  0
LINE
  5
126
100
AcDbEntity
  8
0
370
    -3
  6
Continuous
100
AcDbLine
 10
0.000016
 20
4.599992
 30
0.0
 11
-0.000021
 21
-4.599992
 31
0.0
  0
LINE
  5
127
100
AcDbEntity
  8
0
370
    -3
  6
Continuous
100
AcDbLine
 10
-4.299978
 20
4.600015
 30
0.0
 11
0.000013
 21
4.599998
 31
0.0
  0
LINE
  5
128
100
AcDbEntity
  8
0
370
    -3
  6
Continuous
100
AcDbLine
 10
-4.799962
 20
3.900001
 30
0.0
 11
-4.299962
 21
4.599999
 31
0.0
  0
LINE
  5
129
100
AcDbEntity
  8
0
370
    -3
  6
Continuous
100
AcDbLine
 10
-4.80001
 20
-3.899973
 30
0.0
 11
-4.799979
 21
3.900012
 31
0.0
  0
LINE
  5
12A
100
AcDbEntity
  8
0
370
    -3
  6
Continuous
100
AcDbLine
 10
-4.299996
 20
-4.599962
 30
0.0
 11
-4.79999
 21
-3.899959
 31
0.0
  0
LINE
  5
12B
100
AcDbEntity
  8
0
370
    -3
  6
Continuous
100
AcDbLine
 10
-0.000025
 20
-4.599994
 30
0.0
 11
-4.300015
 21
-4.599977
 31
0.0
  0
POINT
  5
12C
100
AcDbEntity
  8
0
370
    -3
  6
Continuous
100
AcDbPoint
 10
0.0
 20
0.0
 30
0.0
  0
ENDBLK
  5
12D
100
AcDbEntity
  8
0
100
AcDbBlockEnd
  0
BLOCK
  5
235
100
AcDbEntity
  8
0
100
AcDbBlockBegin
  2
ZU_SYM__USERS_HOME_SYMBOL_STD_SYM_B01_00004-1
 70
    64
 10
0.0
 20
0.0
 30
0.0
  3
ZU_SYM__USERS_HOME_SYMBOL_STD_SYM_B01_00004-1
  1

  0
CIRCLE
  5
236
100
AcDbEntity
  8
0
370
    -3
  6
Continuous
100
AcDbCircle
 10
0.0
 20
0.0
 30
0.0
 40
4.0
  0
LINE
  5
237
100
AcDbEntity
  8
0
370
    -3
  6
Continuous
100
AcDbLine
 10
2.299999
 20
-4.0
 30
0.0
 11
-2.299999
 21
-4.0
 31
0.0
  0
LINE
  5
238
100
AcDbEntity
  8
0
370
    -3
  6
Continuous
100
AcDbLine
 10
4.6
 20
-0.000001
 30
0.0
 11
2.300001
 21
-4.0
 31
0.0
  0
LINE
  5
239
100
AcDbEntity
  8
0
370
    -3
  6
Continuous
100
AcDbLine
 10
2.300001
 20
4.0
 30
0.0
 11
4.6
 21
0.000001
 31
0.0
  0
LINE
  5
23A
100
AcDbEntity
  8
0
370
    -3
  6
Continuous
100
AcDbLine
 10
-2.299999
 20
4.0
 30
0.0
 11
2.299999
 21
4.0
 31
0.0
  0
LINE
  5
23B
100
AcDbEntity
  8
0
370
    -3
  6
Continuous
100
AcDbLine
 10
-4.6
 20
0.000001
 30
0.0
 11
-2.300001
 21
4.0
 31
0.0
  0
LINE
  5
23C
100
AcDbEntity
  8
0
370
    -3
  6
Continuous
100
AcDbLine
 10
-2.300001
 20
-4.0
 30
0.0
 11
-4.6
 21
-0.000001
 31
0.0
  0
POINT
  5
23D
100
AcDbEntity
  8
0
370
    -3
  6
Continuous
100
AcDbPoint
 10
0.0
 20
0.0
 30
0.0
  0
ENDBLK
  5
23E
100
AcDbEntity
  8
0
100
AcDbBlockEnd
  0
BLOCK
  5
241
100
AcDbEntity
  8
0
100
AcDbBlockBegin
  2
ZU_SYM__USERS_HOME_SYMBOL_STD_SYM_B01_00005-1
 70
    64
 10
0.0
 20
0.0
 30
0.0
  3
ZU_SYM__USERS_HOME_SYMBOL_STD_SYM_B01_00005-1
  1

  0
CIRCLE
  5
242
100
AcDbEntity
  8
0
370
    -3
  6
Continuous
100
AcDbCircle
 10
0.0
 20
0.0
 30
0.0
 40
4.0
  0
LINE
  5
243
100
AcDbEntity
  8
0
370
    -3
  6
Continuous
100
AcDbLine
 10
2.299999
 20
-4.0
 30
0.0
 11
-2.299999
 21
-4.0
 31
0.0
  0
LINE
  5
244
100
AcDbEntity
  8
0
370
    -3
  6
Continuous
100
AcDbLine
 10
4.6
 20
-0.000001
 30
0.0
 11
2.300001
 21
-4.0
 31
0.0
  0
LINE
  5
245
100
AcDbEntity
  8
0
370
    -3
  6
Continuous
100
AcDbLine
 10
2.300001
 20
4.0
 30
0.0
 11
4.6
 21
0.000001
 31
0.0
  0
LINE
  5
246
100
AcDbEntity
  8
0
370
    -3
  6
Continuous
100
AcDbLine
 10
-2.299999
 20
4.0
 30
0.0
 11
2.299999
 21
4.0
 31
0.0
  0
LINE
  5
247
100
AcDbEntity
  8
0
370
    -3
  6
Continuous
100
AcDbLine
 10
-4.6
 20
0.000001
 30
0.0
 11
-2.300001
 21
4.0
 31
0.0
  0
LINE
  5
248
100
AcDbEntity
  8
0
370
    -3
  6
Continuous
100
AcDbLine
 10
-2.300001
 20
-4.0
 30
0.0
 11
-4.6
 21
-0.000001
 31
0.0
  0
POINT
  5
249
100
AcDbEntity
  8
0
370
    -3
  6
Continuous
100
AcDbPoint
 10
0.0
 20
0.0
 30
0.0
  0
ENDBLK
  5
24A
100
AcDbEntity
  8
0
100
AcDbBlockEnd
  0
BLOCK
  5
24D
100
AcDbEntity
  8
0
100
AcDbBlockBegin
  2
ZU_SYM__USERS_HOME_SYMBOL_STD_SYM_B01_00006-1
 70
    64
 10
0.0
 20
0.0
 30
0.0
  3
ZU_SYM__USERS_HOME_SYMBOL_STD_SYM_B01_00006-1
  1

  0
CIRCLE
  5
24E
100
AcDbEntity
  8
0
370
    -3
  6
Continuous
100
AcDbCircle
 10
0.0
 20
0.0
 30
0.0
 40
4.0
  0
LINE
  5
24F
100
AcDbEntity
  8
0
370
    -3
  6
Continuous
100
AcDbLine
 10
2.299999
 20
-4.0
 30
0.0
 11
-2.299999
 21
-4.0
 31
0.0
  0
LINE
  5
250
100
AcDbEntity
  8
0
370
    -3
  6
Continuous
100
AcDbLine
 10
4.6
 20
-0.000001
 30
0.0
 11
2.300001
 21
-4.0
 31
0.0
  0
LINE
  5
251
100
AcDbEntity
  8
0
370
    -3
  6
Continuous
100
AcDbLine
 10
2.300001
 20
4.0
 30
0.0
 11
4.6
 21
0.000001
 31
0.0
  0
LINE
  5
252
100
AcDbEntity
  8
0
370
    -3
  6
Continuous
100
AcDbLine
 10
-2.299999
 20
4.0
 30
0.0
 11
2.299999
 21
4.0
 31
0.0
  0
LINE
  5
253
100
AcDbEntity
  8
0
370
    -3
  6
Continuous
100
AcDbLine
 10
-4.6
 20
0.000001
 30
0.0
 11
-2.300001
 21
4.0
 31
0.0
  0
LINE
  5
254
100
AcDbEntity
  8
0
370
    -3
  6
Continuous
100
AcDbLine
 10
-2.300001
 20
-4.0
 30
0.0
 11
-4.6
 21
-0.000001
 31
0.0
  0
POINT
  5
255
100
AcDbEntity
  8
0
370
    -3
  6
Continuous
100
AcDbPoint
 10
0.0
 20
0.0
 30
0.0
  0
ENDBLK
  5
256
100
AcDbEntity
  8
0
100
AcDbBlockEnd
  0
BLOCK
  5
259
100
AcDbEntity
  8
0
100
AcDbBlockBegin
  2
ZU_SYM__USERS_HOME_SYMBOL_STD_SYM_B01_00007-1
 70
    64
 10
0.0
 20
0.0
 30
0.0
  3
ZU_SYM__USERS_HOME_SYMBOL_STD_SYM_B01_00007-1
  1

  0
CIRCLE
  5
25A
100
AcDbEntity
  8
0
370
    -3
  6
Continuous
100
AcDbCircle
 10
0.0
 20
0.0
 30
0.0
 40
4.0
  0
LINE
  5
25B
100
AcDbEntity
  8
0
370
    -3
  6
Continuous
100
AcDbLine
 10
2.299999
 20
-4.0
 30
0.0
 11
-2.299999
 21
-4.0
 31
0.0
  0
LINE
  5
25C
100
AcDbEntity
  8
0
370
    -3
  6
Continuous
100
AcDbLine
 10
4.6
 20
-0.000001
 30
0.0
 11
2.300001
 21
-4.0
 31
0.0
  0
LINE
  5
25D
100
AcDbEntity
  8
0
370
    -3
  6
Continuous
100
AcDbLine
 10
2.300001
 20
4.0
 30
0.0
 11
4.6
 21
0.000001
 31
0.0
  0
LINE
  5
25E
100
AcDbEntity
  8
0
370
    -3
  6
Continuous
100
AcDbLine
 10
-2.299999
 20
4.0
 30
0.0
 11
2.299999
 21
4.0
 31
0.0
  0
LINE
  5
25F
100
AcDbEntity
  8
0
370
    -3
  6
Continuous
100
AcDbLine
 10
-4.6
 20
0.000001
 30
0.0
 11
-2.300001
 21
4.0
 31
0.0
  0
LINE
  5
260
100
AcDbEntity
  8
0
370
    -3
  6
Continuous
100
AcDbLine
 10
-2.300001
 20
-4.0
 30
0.0
 11
-4.6
 21
-0.000001
 31
0.0
  0
POINT
  5
261
100
AcDbEntity
  8
0
370
    -3
  6
Continuous
100
AcDbPoint
 10
0.0
 20
0.0
 30
0.0
  0
ENDBLK
  5
262
100
AcDbEntity
  8
0
100
AcDbBlockEnd
  0
ENDSEC
  0
SECTION
  2
ENTITIES
  0
LINE
  5
2A
100
AcDbEntity
  8
0
370
    -3
  6
CENTER
100
AcDbLine
 10
-512.710298
 20
-147.692882
 30
0.0
 11
-512.710298
 21
54.923037
 31
0.0
  0
LINE
  5
2B
100
AcDbEntity
  8
0
370
    -3
  6
CENTER
100
AcDbLine
 10
-536.418655
 20
-67.751014
 30
0.0
 11
-494.011661
 21
-67.751014
 31
0.0
  0
LINE
  5
2C
100
AcDbEntity
  8
0
370
    -3
  6
Continuous
100
AcDbLine
 10
-579.710298
 20
-48.936903
 30
0.0
 11
-579.710298
 21
3.263097
 31
0.0
  0
ARC
  5
2D
100
AcDbEntity
  8
0
370
    -3
  6
Continuous
100
AcDbCircle
 10
-574.210298
 20
12.557635
 30
0.0
 40
3.0
100
AcDbArc
 50
100.0
 51
180.0
  0
LINE
  5
2E
100
AcDbEntity
  8
0
370
    -3
  6
Continuous
100
AcDbLine
 10
-579.710298
 20
3.263097
 30
0.0
 11
-579.310298
 21
3.663097
 31
0.0
  0
LINE
  5
2F
100
AcDbEntity
  8
0
370
    -3
  6
Continuous
100
AcDbLine
 10
-579.710298
 20
-48.936903
 30
0.0
 11
-579.310298
 21
-49.336903
 31
0.0
  0
ARC
  5
30
100
AcDbEntity
  8
0
370
    -3
  6
Continuous
100
AcDbCircle
 10
-574.210298
 20
-58.23144
 30
0.0
 40
3.0
100
AcDbArc
 50
180.0
 51
260.0
  0
LINE
  5
31
100
AcDbEntity
  8
0
370
    -3
  6
Continuous
100
AcDbLine
 10
-549.710298
 20
40.163097
 30
0.0
 11
-556.727467
 21
40.040612
 31
0.0
  0
ARC
  5
32
100
AcDbEntity
  8
0
370
    -3
  6
Continuous
100
AcDbCircle
 10
-556.710015
 20
39.040765
 30
0.0
 40
1.0
100
AcDbArc
 50
91.0
 51
180.0
  0
LINE
  5
33
100
AcDbEntity
  8
0
370
    -3
  6
Continuous
100
AcDbLine
 10
-549.710298
 20
-126.836903
 30
0.0
 11
-556.710015
 21
-126.836903
 31
0.0
  0
ARC
  5
34
100
AcDbEntity
  8
0
370
    -3
  6
Continuous
100
AcDbCircle
 10
-556.710015
 20
-125.836903
 30
0.0
 40
1.0
100
AcDbArc
 50
180.0
 51
270.0
  0
LINE
  5
35
100
AcDbEntity
  8
0
370
    -3
  6
Continuous
100
AcDbLine
 10
-445.710298
 20
-49.037131
 30
0.0
 11
-445.710298
 21
3.363326
 31
0.0
  0
LINE
  5
36
100
AcDbEntity
  8
0
370
    -3
  6
Continuous
100
AcDbLine
 10
-577.210298
 20
-22.836903
 30
0.0
 11
-577.210298
 21
12.557635
 31
0.0
  0
POINT
  5
37
100
AcDbEntity
  8
0
370
    -3
  6
Continuous
100
AcDbPoint
 10
-445.710298
 20
-127.836903
 30
0.0
  0
POINT
  5
38
100
AcDbEntity
  8
0
370
    -3
  6
Continuous
100
AcDbPoint
 10
-579.710298
 20
-127.836903
 30
0.0
  0
LINE
  5
39
100
AcDbEntity
  8
0
370
    -3
  6
Continuous
100
AcDbLine
 10
-579.710298
 20
-142.836903
 30
0.0
 11
-445.710298
 21
-142.836903
 31
0.0
  0
LINE
  5
3A
100
AcDbEntity
  8
0
370
    -3
  6
Continuous
100
AcDbLine
 10
-549.710298
 20
-118.375677
 30
0.0
 11
-549.710298
 21
40.163098
 31
0.0
  0
LINE
  5
3B
100
AcDbEntity
  8
0
370
    -3
  6
Continuous
100
AcDbLine
 10
-550.210298
 20
-127.336903
 30
0.0
 11
-549.710298
 21
-127.336903
 31
0.0
  0
LINE
  5
3C
100
AcDbEntity
  8
0
370
    -3
  6
Continuous
100
AcDbLine
 10
-549.710298
 20
-127.336903
 30
0.0
 11
-549.710298
 21
-118.375677
 31
0.0
  0
ARC
  5
3D
100
AcDbEntity
  8
0
370
    -3
  6
Continuous
100
AcDbCircle
 10
-451.210069
 20
-58.23144
 30
0.0
 40
3.0
100
AcDbArc
 50
280.0
 51
0.0
  0
ARC
  5
3E
100
AcDbEntity
  8
0
370
    -3
  6
Continuous
100
AcDbCircle
 10
-451.210069
 20
12.557635
 30
0.0
 40
3.0
100
AcDbArc
 50
0.0
 51
80.0
  0
LINE
  5
3F
100
AcDbEntity
  8
0
370
    -3
  6
Continuous
100
AcDbLine
 10
-448.210069
 20
12.557635
 30
0.0
 11
-448.210069
 21
-22.836903
 31
0.0
  0
LINE
  5
40
100
AcDbEntity
  8
0
370
    -3
  6
Continuous
100
AcDbLine
 10
-448.210069
 20
-58.23144
 30
0.0
 11
-448.210069
 21
-22.836903
 31
0.0
  0
LINE
  5
41
100
AcDbEntity
  8
0
370
    -3
  6
Continuous
100
AcDbLine
 10
-443.710298
 20
-8.336903
 30
0.0
 11
-445.710298
 21
-8.336903
 31
0.0
  0
LINE
  5
42
100
AcDbEntity
  8
0
370
    -3
  6
Continuous
100
AcDbLine
 10
-443.710298
 20
-22.836903
 30
0.0
 11
-443.710298
 21
-8.336903
 31
0.0
  0
LINE
  5
43
100
AcDbEntity
  8
0
370
    -3
  6
Continuous
100
AcDbLine
 10
-443.710298
 20
-22.836903
 30
0.0
 11
-443.710298
 21
-8.336903
 31
0.0
  0
LINE
  5
44
100
AcDbEntity
  8
0
370
    -3
  6
Continuous
100
AcDbLine
 10
-443.710298
 20
-37.336903
 30
0.0
 11
-445.710298
 21
-37.336903
 31
0.0
  0
LINE
  5
45
100
AcDbEntity
  8
0
370
    -3
  6
Continuous
100
AcDbLine
 10
-443.710298
 20
-22.836903
 30
0.0
 11
-443.710298
 21
-37.336903
 31
0.0
  0
LINE
  5
46
100
AcDbEntity
  8
0
370
    -3
  6
Continuous
100
AcDbLine
 10
-443.710298
 20
-22.836903
 30
0.0
 11
-443.710298
 21
-37.336903
 31
0.0
  0
LINE
  5
47
100
AcDbEntity
  8
0
370
    -3
  6
Continuous
100
AcDbLine
 10
-398.710298
 20
-22.836903
 30
0.0
 11
-398.710298
 21
-36.836903
 31
0.0
  0
LINE
  5
48
100
AcDbEntity
  8
0
370
    -3
  6
Continuous
100
AcDbLine
 10
-443.710298
 20
-36.836903
 30
0.0
 11
-398.710298
 21
-36.836903
 31
0.0
  0
LINE
  5
49
100
AcDbEntity
  8
0
370
    -3
  6
Continuous
100
AcDbLine
 10
-434.710298
 20
-8.836903
 30
0.0
 11
-434.710298
 21
-5.836903
 31
0.0
  0
LINE
  5
4A
100
AcDbEntity
  8
0
370
    -3
  6
Continuous
100
AcDbLine
 10
-434.710298
 20
-5.836903
 30
0.0
 11
-398.710298
 21
-5.836903
 31
0.0
  0
LINE
  5
4B
100
AcDbEntity
  8
0
370
    -3
  6
Continuous
100
AcDbLine
 10
-398.710298
 20
-22.836903
 30
0.0
 11
-398.710298
 21
-5.836903
 31
0.0
  0
LINE
  5
4C
100
AcDbEntity
  8
0
370
    -3
  6
Continuous
100
AcDbLine
 10
-443.710298
 20
-8.836903
 30
0.0
 11
-398.710298
 21
-8.836903
 31
0.0
  0
ARC
  5
4D
100
AcDbEntity
  8
0
370
    -3
  6
Continuous
100
AcDbCircle
 10
-860.210298
 20
-87.751014
 30
0.0
 40
400.0
100
AcDbArc
 50
358.865247
 51
359.92847
  0
ARC
  5
4E
100
AcDbEntity
  8
0
370
    -3
  6
Continuous
100
AcDbCircle
 10
-165.210298
 20
-87.751014
 30
0.0
 40
400.0
100
AcDbArc
 50
180.07153
 51
181.134753
  0
ARC
  5
4F
100
AcDbEntity
  8
0
370
    -3
  6
Continuous
100
AcDbCircle
 10
-466.710298
 20
-123.469737
 30
0.0
 40
4.0
100
AcDbArc
 50
180.0
 51
269.0
  0
ARC
  5
50
100
AcDbEntity
  8
0
370
    -3
  6
Continuous
100
AcDbCircle
 10
-448.710298
 20
-130.784994
 30
0.0
 40
3.0
100
AcDbArc
 50
0.0
 51
89.0
  0
ARC
  5
51
100
AcDbEntity
  8
0
370
    -3
  6
Continuous
100
AcDbCircle
 10
-576.710298
 20
-130.784994
 30
0.0
 40
3.0
100
AcDbArc
 50
91.0
 51
180.0
  0
ARC
  5
52
100
AcDbEntity
  8
0
370
    -3
  6
Continuous
100
AcDbCircle
 10
-462.710582
 20
22.708858
 30
0.0
 40
5.0
100
AcDbArc
 50
180.0
 51
260.0
  0
ARC
  5
53
100
AcDbEntity
  8
0
370
    -3
  6
Continuous
100
AcDbCircle
 10
-485.210298
 20
-95.251014
 30
0.0
 40
25.0
100
AcDbArc
 50
305.450543
 51
0.0
  0
ARC
  5
54
100
AcDbEntity
  8
0
370
    -3
  6
Continuous
100
AcDbCircle
 10
-459.710298
 20
-88.251014
 30
0.0
 40
0.5
100
AcDbArc
 50
90.0
 51
180.0
  0
ARC
  5
55
100
AcDbEntity
  8
0
370
    -3
  6
Continuous
100
AcDbCircle
 10
-459.710298
 20
-87.251014
 30
0.0
 40
0.5
100
AcDbArc
 50
270.0
 51
0.0
  0
ARC
  5
56
100
AcDbEntity
  8
0
370
    -3
  6
Continuous
100
AcDbCircle
 10
-565.710298
 20
-88.251014
 30
0.0
 40
0.5
100
AcDbArc
 50
0.0
 51
90.0
  0
ARC
  5
57
100
AcDbEntity
  8
0
370
    -3
  6
Continuous
100
AcDbCircle
 10
-565.710298
 20
-87.251014
 30
0.0
 40
0.5
100
AcDbArc
 50
180.0
 51
270.0
  0
ARC
  5
58
100
AcDbEntity
  8
0
370
    -3
  6
Continuous
100
AcDbCircle
 10
-462.710582
 20
-68.382663
 30
0.0
 40
5.0
100
AcDbArc
 50
100.0
 51
180.0
  0
ARC
  5
59
100
AcDbEntity
  8
0
370
    -3
  6
Continuous
100
AcDbCircle
 10
-470.710582
 20
-70.640914
 30
0.0
 40
3.0
100
AcDbArc
 50
300.003127
 51
0.0
  0
ARC
  5
5A
100
AcDbEntity
  8
0
370
    -3
  6
Continuous
100
AcDbCircle
 10
-467.710298
 20
-75.836903
 30
0.0
 40
3.0
100
AcDbArc
 50
120.003127
 51
180.0
  0
ARC
  5
5B
100
AcDbEntity
  8
0
370
    -3
  6
Continuous
100
AcDbCircle
 10
-470.710582
 20
24.967109
 30
0.0
 40
3.0
100
AcDbArc
 50
0.0
 51
59.996873
  0
ARC
  5
5C
100
AcDbEntity
  8
0
370
    -3
  6
Continuous
100
AcDbCircle
 10
-467.710298
 20
30.163097
 30
0.0
 40
3.0
100
AcDbArc
 50
180.0
 51
239.996873
  0
ARC
  5
5D
100
AcDbEntity
  8
0
370
    -3
  6
Continuous
100
AcDbCircle
 10
-473.710298
 20
35.836055
 30
0.0
 40
3.0
100
AcDbArc
 50
360.0
 51
89.0
  0
ARC
  5
5E
100
AcDbEntity
  8
0
370
    -3
  6
Continuous
100
AcDbCircle
 10
-540.210298
 20
-95.251014
 30
0.0
 40
25.0
100
AcDbArc
 50
180.0
 51
225.573906
  0
LINE
  5
5F
100
AcDbEntity
  8
0
370
    -3
  6
Continuous
100
AcDbLine
 10
-448.657941
 20
-127.785451
 30
0.0
 11
-466.780108
 21
-127.469128
 31
0.0
  0
LINE
  5
60
100
AcDbEntity
  8
0
370
    -3
  6
Continuous
100
AcDbLine
 10
-470.710298
 20
-115.616426
 30
0.0
 11
-470.710298
 21
-123.469737
 31
0.0
  0
LINE
  5
61
100
AcDbEntity
  8
0
370
    -3
  6
Continuous
100
AcDbLine
 10
-467.710582
 20
24.967109
 30
0.0
 11
-467.710582
 21
-70.640914
 31
0.0
  0
LINE
  5
62
100
AcDbEntity
  8
0
370
    -3
  6
Continuous
100
AcDbLine
 10
-459.210298
 20
-87.251014
 30
0.0
 11
-459.210298
 21
-62.688376
 31
0.0
  0
LINE
  5
63
100
AcDbEntity
  8
0
370
    -3
  6
Continuous
100
AcDbLine
 10
-566.210298
 20
-62.688336
 30
0.0
 11
-566.210298
 21
-87.251014
 31
0.0
  0
LINE
  5
64
100
AcDbEntity
  8
0
370
    -3
  6
CENTER
100
AcDbLine
 10
-457.710298
 20
-147.082787
 30
0.0
 11
-457.710298
 21
-123.028733
 31
0.0
  0
LINE
  5
65
100
AcDbEntity
  8
0
370
    -3
  6
CENTER
100
AcDbLine
 10
-567.710298
 20
-147.082787
 30
0.0
 11
-567.710298
 21
-123.028733
 31
0.0
  0
LINE
  5
66
100
AcDbEntity
  8
0
370
    -3
  6
Continuous
100
AcDbLine
 10
-470.710298
 20
-115.616426
 30
0.0
 11
-470.710298
 21
35.836055
 31
0.0
  0
LINE
  5
67
100
AcDbEntity
  8
0
370
    -3
  6
Continuous
100
AcDbLine
 10
-445.710298
 20
-142.836903
 30
0.0
 11
-445.710298
 21
-130.784994
 31
0.0
  0
LINE
  5
68
100
AcDbEntity
  8
0
370
    -3
  6
Continuous
100
AcDbLine
 10
-579.710298
 20
-142.836903
 30
0.0
 11
-579.710298
 21
-130.284994
 31
0.0
  0
LINE
  5
69
100
AcDbEntity
  8
0
370
    -3
  6
Continuous
100
AcDbLine
 10
-549.710298
 20
40.163097
 30
0.0
 11
-473.657941
 21
38.835599
 31
0.0
  0
LINE
  5
6A
100
AcDbEntity
  8
0
370
    -3
  6
Continuous
100
AcDbLine
 10
-576.762655
 20
-127.785451
 30
0.0
 11
-550.210298
 21
-127.321978
 31
0.0
  0
ARC
  5
6B
100
AcDbEntity
  8
0
370
    -3
  6
Continuous
100
AcDbCircle
 10
-562.710015
 20
22.708858
 30
0.0
 40
5.0
100
AcDbArc
 50
280.0
 51
0.0
  0
ARC
  5
6C
100
AcDbEntity
  8
0
370
    -3
  6
Continuous
100
AcDbCircle
 10
-562.710015
 20
22.708858
 30
0.0
 40
5.0
100
AcDbArc
 50
280.0
 51
0.0
  0
LINE
  5
6D
100
AcDbEntity
  8
0
370
    -3
  6
Continuous
100
AcDbLine
 10
-574.731243
 20
15.512058
 30
0.0
 11
-561.841774
 21
17.784819
 31
0.0
  0
LINE
  5
6E
100
AcDbEntity
  8
0
370
    -3
  6
Continuous
100
AcDbLine
 10
-566.210298
 20
-62.688336
 30
0.0
 11
-561.841774
 21
-63.458625
 31
0.0
  0
ARC
  5
6F
100
AcDbEntity
  8
0
370
    -3
  6
Continuous
100
AcDbCircle
 10
-562.710015
 20
-68.382663
 30
0.0
 40
5.0
100
AcDbArc
 50
0.0
 51
80.0
  0
LINE
  5
70
100
AcDbEntity
  8
0
370
    -3
  6
Continuous
100
AcDbLine
 10
-574.231243
 20
-61.274027
 30
0.0
 11
-566.210298
 21
-62.688336
 31
0.0
  0
LINE
  5
71
100
AcDbEntity
  8
0
370
    -3
  6
Continuous
100
AcDbLine
 10
-557.710015
 20
-125.836903
 30
0.0
 11
-557.710015
 21
-113.104863
 31
0.0
  0
LINE
  5
72
100
AcDbEntity
  8
0
370
    -3
  6
Continuous
100
AcDbLine
 10
-574.731243
 20
-61.185863
 30
0.0
 11
-566.210298
 21
-62.688336
 31
0.0
  0
LINE
  5
73
100
AcDbEntity
  8
0
370
    -3
  6
Continuous
100
AcDbLine
 10
-557.710015
 20
39.040765
 30
0.0
 11
-557.710015
 21
-68.382663
 31
0.0
  0
LINE
  5
74
100
AcDbEntity
  8
0
370
    -3
  6
Continuous
100
AcDbLine
 10
-446.010069
 20
-49.336903
 30
0.0
 11
-445.710069
 21
-49.036903
 31
0.0
  0
LINE
  5
75
100
AcDbEntity
  8
0
370
    -3
  6
Continuous
100
AcDbLine
 10
-450.689125
 20
15.512058
 30
0.0
 11
-463.578594
 21
17.784819
 31
0.0
  0
LINE
  5
76
100
AcDbEntity
  8
0
370
    -3
  6
Continuous
100
AcDbLine
 10
-446.010069
 20
3.663097
 30
0.0
 11
-445.710069
 21
3.363097
 31
0.0
  0
LINE
  5
77
100
AcDbEntity
  8
0
370
    -3
  6
Continuous
100
AcDbLine
 10
-450.689125
 20
-61.185863
 30
0.0
 11
-463.598445
 21
-63.462125
 31
0.0
  0
LINE
  5
78
100
AcDbEntity
  8
0
370
    -3
  6
Continuous
100
AcDbLine
 10
-577.210298
 20
-58.23144
 30
0.0
 11
-577.210298
 21
-22.836903
 31
0.0
  0
LINE
  5
79
100
AcDbEntity
  8
0
370
    -3
  6
Continuous
100
AcDbLine
 10
-577.210298
 20
3.663097
 30
0.0
 11
-579.310298
 21
3.663097
 31
0.0
  0
LINE
  5
7A
100
AcDbEntity
  8
0
370
    -3
  6
Continuous
100
AcDbLine
 10
-577.210298
 20
-49.336903
 30
0.0
 11
-579.310298
 21
-49.336903
 31
0.0
  0
LINE
  5
7B
100
AcDbEntity
  8
0
370
    -3
  6
Continuous
100
AcDbLine
 10
-557.710015
 20
-113.104863
 30
0.0
 11
-557.710015
 21
-68.382663
 31
0.0
  0
LINE
  5
7C
100
AcDbEntity
  8
0
370
    -3
  6
Continuous
100
AcDbLine
 10
-448.210069
 20
-49.336903
 30
0.0
 11
-446.010069
 21
-49.336903
 31
0.0
  0
LINE
  5
7D
100
AcDbEntity
  8
0
370
    -3
  6
Continuous
100
AcDbLine
 10
-448.210069
 20
3.663097
 30
0.0
 11
-446.010069
 21
3.663097
 31
0.0
  0
LINE
  5
7E
100
AcDbEntity
  8
0
370
    -3
  6
CENTER
100
AcDbLine
 10
-633.921308
 20
-22.836903
 30
0.0
 11
-394.002279
 21
-22.836903
 31
0.0
  0
LINE
  5
7F
100
AcDbEntity
  8
0
370
    -3
  6
Continuous
100
AcDbLine
 10
-115.710277
 20
-121.251014
 30
0.0
 11
-115.710277
 21
-67.751014
 31
0.0
  0
LINE
  5
80
100
AcDbEntity
  8
0
370
    -3
  6
Continuous
100
AcDbLine
 10
-83.710277
 20
-90.65122
 30
0.0
 11
-115.710277
 21
-90.65122
 31
0.0
  0
LINE
  5
81
100
AcDbEntity
  8
0
370
    -3
  6
Continuous
100
AcDbLine
 10
-83.710277
 20
-95.15122
 30
0.0
 11
-115.710277
 21
-95.15122
 31
0.0
  0
LINE
  5
82
100
AcDbEntity
  8
0
370
    -3
  6
Continuous
100
AcDbLine
 10
-83.710277
 20
-44.850809
 30
0.0
 11
-115.710277
 21
-44.850809
 31
0.0
  0
LINE
  5
83
100
AcDbEntity
  8
0
370
    -3
  6
Continuous
100
AcDbLine
 10
-83.710277
 20
-40.350809
 30
0.0
 11
-115.710277
 21
-40.350809
 31
0.0
  0
LINE
  5
84
100
AcDbEntity
  8
0
370
    -3
  6
Continuous
100
AcDbLine
 10
-8.710277
 20
-43.65122
 30
0.0
 11
-115.710277
 21
-43.65122
 31
0.0
  0
LINE
  5
85
100
AcDbEntity
  8
0
370
    -3
  6
Continuous
100
AcDbLine
 10
-8.710277
 20
-39.15122
 30
0.0
 11
-115.710277
 21
-39.15122
 31
0.0
  0
LINE
  5
86
100
AcDbEntity
  8
0
370
    -3
  6
Continuous
100
AcDbLine
 10
-8.710277
 20
-96.350809
 30
0.0
 11
-115.710277
 21
-96.350809
 31
0.0
  0
LINE
  5
87
100
AcDbEntity
  8
0
370
    -3
  6
Continuous
100
AcDbLine
 10
-115.710277
 20
-14.251014
 30
0.0
 11
-115.710277
 21
-67.751014
 31
0.0
  0
LINE
  5
88
100
AcDbEntity
  8
0
370
    -3
  6
Continuous
100
AcDbLine
 10
-115.710277
 20
-14.251014
 30
0.0
 11
-69.503757
 21
-14.251014
 31
0.0
  0
LINE
  5
89
100
AcDbEntity
  8
0
370
    -3
  6
Continuous
100
AcDbLine
 10
-61.878757
 20
-14.251014
 30
0.0
 11
-23.541816
 21
-14.251014
 31
0.0
  0
LINE
  5
8A
100
AcDbEntity
  8
0
370
    -3
  6
Continuous
100
AcDbLine
 10
-1.710277
 20
-48.1371
 30
0.0
 11
-115.710277
 21
-48.1371
 31
0.0
  0
LINE
  5
8B
100
AcDbEntity
  8
0
370
    -3
  6
Continuous
100
AcDbLine
 10
-115.710277
 20
-121.251014
 30
0.0
 11
-1.710277
 21
-121.251014
 31
0.0
  0
LINE
  5
8C
100
AcDbEntity
  8
0
370
    -3
  6
Continuous
100
AcDbLine
 10
-1.710277
 20
-108.183462
 30
0.0
 11
-115.710277
 21
-108.183462
 31
0.0
  0
LINE
  5
8D
100
AcDbEntity
  8
0
370
    -3
  6
Continuous
100
AcDbLine
 10
-1.710277
 20
-115.077611
 30
0.0
 11
-115.710277
 21
-115.077611
 31
0.0
  0
LINE
  5
8E
100
AcDbEntity
  8
0
370
    -3
  6
Continuous
100
AcDbLine
 10
-1.710277
 20
-121.251014
 30
0.0
 11
-1.710277
 21
-67.751014
 31
0.0
  0
LINE
  5
8F
100
AcDbEntity
  8
0
370
    -3
  6
Continuous
100
AcDbLine
 10
-1.710277
 20
-86.144175
 30
0.0
 11
-115.710277
 21
-86.144175
 31
0.0
  0
LINE
  5
90
100
AcDbEntity
  8
0
370
    -3
  6
Continuous
100
AcDbLine
 10
-1.710277
 20
-81.751014
 30
0.0
 11
-115.710277
 21
-81.751014
 31
0.0
  0
LINE
  5
91
100
AcDbEntity
  8
0
370
    -3
  6
Continuous
100
AcDbLine
 10
-1.710277
 20
-87.364929
 30
0.0
 11
-115.710277
 21
-87.364929
 31
0.0
  0
LINE
  5
92
100
AcDbEntity
  8
0
370
    -3
  6
Continuous
100
AcDbLine
 10
-1.710277
 20
-53.751014
 30
0.0
 11
-115.710277
 21
-53.751014
 31
0.0
  0
LINE
  5
93
100
AcDbEntity
  8
0
370
    -3
  6
Continuous
100
AcDbLine
 10
-1.710277
 20
-99.65122
 30
0.0
 11
-115.710277
 21
-99.65122
 31
0.0
  0
LINE
  5
94
100
AcDbEntity
  8
0
370
    -3
  6
Continuous
100
AcDbLine
 10
-1.710277
 20
-100.850809
 30
0.0
 11
-115.710277
 21
-100.850809
 31
0.0
  0
LINE
  5
95
100
AcDbEntity
  8
0
370
    -3
  6
Continuous
100
AcDbLine
 10
-1.710277
 20
-118.251014
 30
0.0
 11
-115.710277
 21
-118.251014
 31
0.0
  0
LINE
  5
96
100
AcDbEntity
  8
0
370
    -3
  6
Continuous
100
AcDbLine
 10
-1.710277
 20
-118.751014
 30
0.0
 11
-115.710277
 21
-118.751014
 31
0.0
  0
LINE
  5
97
100
AcDbEntity
  8
0
370
    -3
  6
Continuous
100
AcDbLine
 10
-1.710277
 20
-120.251014
 30
0.0
 11
-1.710277
 21
-67.751014
 31
0.0
  0
LINE
  5
98
100
AcDbEntity
  8
0
370
    -3
  6
Continuous
100
AcDbLine
 10
-1.710277
 20
-35.850809
 30
0.0
 11
-115.710277
 21
-35.850809
 31
0.0
  0
LINE
  5
99
100
AcDbEntity
  8
0
370
    -3
  6
Continuous
100
AcDbLine
 10
-1.710277
 20
-34.65122
 30
0.0
 11
-115.710277
 21
-34.65122
 31
0.0
  0
LINE
  5
9A
100
AcDbEntity
  8
0
370
    -3
  6
Continuous
100
AcDbLine
 10
-1.710277
 20
-17.251014
 30
0.0
 11
-115.710277
 21
-17.251014
 31
0.0
  0
LINE
  5
9B
100
AcDbEntity
  8
0
370
    -3
  6
Continuous
100
AcDbLine
 10
-1.710277
 20
-16.751014
 30
0.0
 11
-115.710277
 21
-16.751014
 31
0.0
  0
LINE
  5
9C
100
AcDbEntity
  8
0
370
    -3
  6
Continuous
100
AcDbLine
 10
-1.710277
 20
-20.424418
 30
0.0
 11
-115.710277
 21
-20.424418
 31
0.0
  0
LINE
  5
9D
100
AcDbEntity
  8
0
370
    -3
  6
Continuous
100
AcDbLine
 10
-1.710277
 20
-27.318567
 30
0.0
 11
-115.710277
 21
-27.318567
 31
0.0
  0
LINE
  5
9E
100
AcDbEntity
  8
0
370
    -3
  6
Continuous
100
AcDbLine
 10
-1.710277
 20
-39.15122
 30
0.0
 11
-8.710277
 21
-39.15122
 31
0.0
  0
LINE
  5
9F
100
AcDbEntity
  8
0
370
    -3
  6
Continuous
100
AcDbLine
 10
-1.710277
 20
-43.65122
 30
0.0
 11
-8.710277
 21
-43.65122
 31
0.0
  0
LINE
  5
A0
100
AcDbEntity
  8
0
370
    -3
  6
Continuous
100
AcDbLine
 10
-1.710277
 20
-91.850809
 30
0.0
 11
-8.710277
 21
-91.850809
 31
0.0
  0
LINE
  5
A1
100
AcDbEntity
  8
0
370
    -3
  6
Continuous
100
AcDbLine
 10
-1.710277
 20
-96.350809
 30
0.0
 11
-8.710277
 21
-96.350809
 31
0.0
  0
LINE
  5
A2
100
AcDbEntity
  8
0
370
    -3
  6
Continuous
100
AcDbLine
 10
-1.710277
 20
-120.251014
 30
0.0
 11
-1.710277
 21
-118.001014
 31
0.0
  0
LINE
  5
A3
100
AcDbEntity
  8
0
370
    -3
  6
Continuous
100
AcDbLine
 10
-1.710277
 20
-119.501014
 30
0.0
 11
-1.710277
 21
-120.251014
 31
0.0
  0
LINE
  5
A4
100
AcDbEntity
  8
0
370
    -3
  6
Continuous
100
AcDbLine
 10
-1.710277
 20
-44.850809
 30
0.0
 11
-83.710277
 21
-44.850809
 31
0.0
  0
LINE
  5
A5
100
AcDbEntity
  8
0
370
    -3
  6
Continuous
100
AcDbLine
 10
-1.710277
 20
-40.350809
 30
0.0
 11
-88.852887
 21
-40.350809
 31
0.0
  0
LINE
  5
A6
100
AcDbEntity
  8
0
370
    -3
  6
Continuous
100
AcDbLine
 10
-1.710277
 20
-90.65122
 30
0.0
 11
-83.710277
 21
-90.65122
 31
0.0
  0
LINE
  5
A7
100
AcDbEntity
  8
0
370
    -3
  6
Continuous
100
AcDbLine
 10
-5.210277
 20
-91.850809
 30
0.0
 11
-115.710277
 21
-91.850809
 31
0.0
  0
LINE
  5
A8
100
AcDbEntity
  8
0
370
    -3
  6
Continuous
100
AcDbLine
 10
-1.710277
 20
-95.15122
 30
0.0
 11
-107.210277
 21
-95.15122
 31
0.0
  0
LINE
  5
A9
100
AcDbEntity
  8
0
370
    -3
  6
Continuous
100
AcDbLine
 10
-1.710277
 20
-14.251014
 30
0.0
 11
-1.710277
 21
-67.751014
 31
0.0
  0
LINE
  5
AA
100
AcDbEntity
  8
0
370
    -3
  6
Continuous
100
AcDbLine
 10
-15.916816
 20
-14.251014
 30
0.0
 11
-1.710277
 21
-14.251014
 31
0.0
  0
LINE
  5
AB
100
AcDbEntity
  8
0
370
    -3
  6
Continuous
100
AcDbLine
 10
-1.710277
 20
-49.350809
 30
0.0
 11
-115.710277
 21
-49.350809
 31
0.0
  0
ARC
  5
AC
100
AcDbEntity
  8
0
370
    -3
  6
Continuous
100
AcDbCircle
 10
4.998249
 20
-87.956699
 30
0.0
 40
0.5
100
AcDbArc
 50
135.115138
 51
178.347093
  0
ARC
  5
AD
100
AcDbEntity
  8
0
370
    -3
  6
Continuous
100
AcDbCircle
 10
4.998249
 20
-47.54533
 30
0.0
 40
0.5
100
AcDbArc
 50
181.652907
 51
224.884862
  0
ARC
  5
AE
100
AcDbEntity
  8
0
370
    -3
  6
Continuous
100
AcDbCircle
 10
4.289723
 20
-48.251014
 30
0.0
 40
0.5
100
AcDbArc
 50
0.0
 51
44.884862
  0
ARC
  5
AF
100
AcDbEntity
  8
0
370
    -3
  6
Continuous
100
AcDbCircle
 10
4.289723
 20
-87.251014
 30
0.0
 40
0.5
100
AcDbArc
 50
315.115138
 51
0.0
  0
LINE
  5
B0
100
AcDbEntity
  8
0
370
    -3
  6
Continuous
100
AcDbLine
 10
4.789723
 20
-48.251014
 30
0.0
 11
4.789723
 21
-87.251014
 31
0.0
  0
ARC
  5
B1
100
AcDbEntity
  8
0
370
    -3
  6
Continuous
100
AcDbCircle
 10
1.209723
 20
-39.751014
 30
0.0
 40
1.0
100
AcDbArc
 50
273.0
 51
87.0
  0
ARC
  5
B2
100
AcDbEntity
  8
0
370
    -3
  6
Continuous
100
AcDbCircle
 10
1.209723
 20
-35.251014
 30
0.0
 40
1.0
100
AcDbArc
 50
273.0
 51
87.0
  0
ARC
  5
B3
100
AcDbEntity
  8
0
370
    -3
  6
Continuous
100
AcDbCircle
 10
1.209723
 20
-48.751014
 30
0.0
 40
1.0
100
AcDbArc
 50
273.0
 51
87.0
  0
ARC
  5
B4
100
AcDbEntity
  8
0
370
    -3
  6
Continuous
100
AcDbCircle
 10
1.209723
 20
-44.251014
 30
0.0
 40
1.0
100
AcDbArc
 50
273.0
 51
87.0
  0
ARC
  5
B5
100
AcDbEntity
  8
0
370
    -3
  6
Continuous
100
AcDbCircle
 10
2.789723
 20
-113.470476
 30
0.0
 40
0.5
100
AcDbArc
 50
270.0
 51
0.0
  0
LINE
  5
B6
100
AcDbEntity
  8
0
370
    -3
  6
Continuous
100
AcDbLine
 10
4.034851
 20
-100.268317
 30
0.0
 11
4.034851
 21
-100.233712
 31
0.0
  0
LINE
  5
B7
100
AcDbEntity
  8
0
370
    -3
  6
Continuous
100
AcDbLine
 10
4.034851
 20
-35.233712
 30
0.0
 11
4.034851
 21
-35.268317
 31
0.0
  0
ARC
  5
B8
100
AcDbEntity
  8
0
370
    -3
  6
Continuous
100
AcDbCircle
 10
0.887237
 20
-16.251014
 30
0.0
 40
2.0
100
AcDbArc
 50
4.231256
 51
90.0
  0
ARC
  5
B9
100
AcDbEntity
  8
0
370
    -3
  6
Continuous
100
AcDbCircle
 10
2.789723
 20
-22.031553
 30
0.0
 40
0.5
100
AcDbArc
 50
0.0
 51
90.0
  0
LINE
  5
BA
100
AcDbEntity
  8
0
370
    -3
  6
Continuous
100
AcDbLine
 10
2.789723
 20
-81.051014
 30
0.0
 11
2.789723
 21
-67.751014
 31
0.0
  0
ARC
  5
BB
100
AcDbEntity
  8
0
370
    -3
  6
Continuous
100
AcDbCircle
 10
2.089723
 20
-81.051014
 30
0.0
 40
0.7
100
AcDbArc
 50
270.0
 51
0.0
  0
ARC
  5
BC
100
AcDbEntity
  8
0
370
    -3
  6
Continuous
100
AcDbCircle
 10
2.089723
 20
-54.451014
 30
0.0
 40
0.7
100
AcDbArc
 50
0.0
 51
90.0
  0
LINE
  5
BD
100
AcDbEntity
  8
0
370
    -3
  6
Continuous
100
AcDbLine
 10
2.789723
 20
-54.451014
 30
0.0
 11
2.789723
 21
-67.751014
 31
0.0
  0
ARC
  5
BE
100
AcDbEntity
  8
0
370
    -3
  6
Continuous
100
AcDbCircle
 10
1.209723
 20
-100.251014
 30
0.0
 40
1.0
100
AcDbArc
 50
273.0
 51
87.0
  0
ARC
  5
BF
100
AcDbEntity
  8
0
370
    -3
  6
Continuous
100
AcDbCircle
 10
1.209723
 20
-95.751014
 30
0.0
 40
1.0
100
AcDbArc
 50
273.0
 51
87.0
  0
ARC
  5
C0
100
AcDbEntity
  8
0
370
    -3
  6
Continuous
100
AcDbCircle
 10
1.209723
 20
-91.251014
 30
0.0
 40
1.0
100
AcDbArc
 50
273.0
 51
87.0
  0
ARC
  5
C1
100
AcDbEntity
  8
0
370
    -3
  6
Continuous
100
AcDbCircle
 10
1.209723
 20
-86.751014
 30
0.0
 40
1.0
100
AcDbArc
 50
273.0
 51
87.0
  0
LINE
  5
C2
100
AcDbEntity
  8
0
370
    -3
  6
Continuous
100
AcDbLine
 10
3.289723
 20
-113.470476
 30
0.0
 11
3.289723
 21
-97.407563
 31
0.0
  0
ARC
  5
C3
100
AcDbEntity
  8
0
370
    -3
  6
Continuous
100
AcDbCircle
 10
4.289723
 20
-97.407563
 30
0.0
 40
1.0
100
AcDbArc
 50
121.986261
 51
180.0
  0
ARC
  5
C4
100
AcDbEntity
  8
0
370
    -3
  6
Continuous
100
AcDbCircle
 10
3.230291
 20
-95.711212
 30
0.0
 40
1.0
100
AcDbArc
 50
301.986261
 51
357.707541
  0
LINE
  5
C5
100
AcDbEntity
  8
0
370
    -3
  6
Continuous
100
AcDbLine
 10
3.289723
 20
-22.031553
 30
0.0
 11
3.289723
 21
-38.094466
 31
0.0
  0
ARC
  5
C6
100
AcDbEntity
  8
0
370
    -3
  6
Continuous
100
AcDbCircle
 10
3.230291
 20
-39.790817
 30
0.0
 40
1.0
100
AcDbArc
 50
2.292459
 51
58.013739
  0
ARC
  5
C7
100
AcDbEntity
  8
0
370
    -3
  6
Continuous
100
AcDbCircle
 10
4.289723
 20
-38.094466
 30
0.0
 40
1.0
100
AcDbArc
 50
180.0
 51
238.013739
  0
LINE
  5
C8
100
AcDbEntity
  8
0
370
    -3
  6
Continuous
100
AcDbLine
 10
-1.710277
 20
-121.251014
 30
0.0
 11
-1.710277
 21
-67.751014
 31
0.0
  0
LINE
  5
C9
100
AcDbEntity
  8
0
370
    -3
  6
Continuous
100
AcDbLine
 10
-1.710277
 20
-14.251014
 30
0.0
 11
-1.710277
 21
-67.751014
 31
0.0
  0
LINE
  5
CA
100
AcDbEntity
  8
0
370
    -3
  6
Continuous
100
AcDbLine
 10
-1.710277
 20
-14.251014
 30
0.0
 11
0.887237
 21
-14.251014
 31
0.0
  0
LINE
  5
CB
100
AcDbEntity
  8
0
370
    -3
  6
Continuous
100
AcDbLine
 10
-1.710277
 20
-21.531553
 30
0.0
 11
2.789723
 21
-21.531553
 31
0.0
  0
LINE
  5
CC
100
AcDbEntity
  8
0
370
    -3
  6
Continuous
100
AcDbLine
 10
-1.710277
 20
-34.096611
 30
0.0
 11
1.262059
 21
-34.252385
 31
0.0
  0
LINE
  5
CD
100
AcDbEntity
  8
0
370
    -3
  6
Continuous
100
AcDbLine
 10
-1.710277
 20
-36.405418
 30
0.0
 11
1.262059
 21
-36.249644
 31
0.0
  0
LINE
  5
CE
100
AcDbEntity
  8
0
370
    -3
  6
Continuous
100
AcDbLine
 10
-1.710277
 20
-38.596611
 30
0.0
 11
1.262059
 21
-38.752385
 31
0.0
  0
LINE
  5
CF
100
AcDbEntity
  8
0
370
    -3
  6
Continuous
100
AcDbLine
 10
-1.710277
 20
-40.905418
 30
0.0
 11
1.262059
 21
-40.749644
 31
0.0
  0
LINE
  5
D0
100
AcDbEntity
  8
0
370
    -3
  6
Continuous
100
AcDbLine
 10
-1.710277
 20
-43.096611
 30
0.0
 11
1.262059
 21
-43.252385
 31
0.0
  0
LINE
  5
D1
100
AcDbEntity
  8
0
370
    -3
  6
Continuous
100
AcDbLine
 10
-1.710277
 20
-45.405418
 30
0.0
 11
1.262059
 21
-45.249644
 31
0.0
  0
LINE
  5
D2
100
AcDbEntity
  8
0
370
    -3
  6
Continuous
100
AcDbLine
 10
-1.710277
 20
-47.596611
 30
0.0
 11
1.262059
 21
-47.752385
 31
0.0
  0
LINE
  5
D3
100
AcDbEntity
  8
0
370
    -3
  6
Continuous
100
AcDbLine
 10
-1.710277
 20
-49.905418
 30
0.0
 11
1.262059
 21
-49.749644
 31
0.0
  0
LINE
  5
D4
100
AcDbEntity
  8
0
370
    -3
  6
Continuous
100
AcDbLine
 10
2.089723
 20
-53.751014
 30
0.0
 11
-1.710277
 21
-53.751014
 31
0.0
  0
LINE
  5
D5
100
AcDbEntity
  8
0
370
    -3
  6
Continuous
100
AcDbLine
 10
2.089723
 20
-81.751014
 30
0.0
 11
-1.710277
 21
-81.751014
 31
0.0
  0
LINE
  5
D6
100
AcDbEntity
  8
0
370
    -3
  6
Continuous
100
AcDbLine
 10
-1.710277
 20
-85.596611
 30
0.0
 11
1.262059
 21
-85.752385
 31
0.0
  0
LINE
  5
D7
100
AcDbEntity
  8
0
370
    -3
  6
Continuous
100
AcDbLine
 10
-1.710277
 20
-87.905418
 30
0.0
 11
1.262059
 21
-87.749644
 31
0.0
  0
LINE
  5
D8
100
AcDbEntity
  8
0
370
    -3
  6
Continuous
100
AcDbLine
 10
-1.710277
 20
-90.096611
 30
0.0
 11
1.262059
 21
-90.252385
 31
0.0
  0
LINE
  5
D9
100
AcDbEntity
  8
0
370
    -3
  6
Continuous
100
AcDbLine
 10
-1.710277
 20
-92.405418
 30
0.0
 11
1.262059
 21
-92.249644
 31
0.0
  0
LINE
  5
DA
100
AcDbEntity
  8
0
370
    -3
  6
Continuous
100
AcDbLine
 10
-1.710277
 20
-94.596611
 30
0.0
 11
1.262059
 21
-94.752385
 31
0.0
  0
LINE
  5
DB
100
AcDbEntity
  8
0
370
    -3
  6
Continuous
100
AcDbLine
 10
-1.710277
 20
-96.905418
 30
0.0
 11
1.262059
 21
-96.749644
 31
0.0
  0
LINE
  5
DC
100
AcDbEntity
  8
0
370
    -3
  6
Continuous
100
AcDbLine
 10
-1.710277
 20
-99.096611
 30
0.0
 11
1.262059
 21
-99.252385
 31
0.0
  0
LINE
  5
DD
100
AcDbEntity
  8
0
370
    -3
  6
Continuous
100
AcDbLine
 10
-1.710277
 20
-101.405418
 30
0.0
 11
1.262059
 21
-101.249644
 31
0.0
  0
ARC
  5
DE
100
AcDbEntity
  8
0
370
    -3
  6
Continuous
100
AcDbCircle
 10
-695.210277
 20
-67.751014
 30
0.0
 40
700.0
100
AcDbArc
 50
3.620062
 51
4.231256
  0
ARC
  5
DF
100
AcDbEntity
  8
0
370
    -3
  6
Continuous
100
AcDbCircle
 10
-695.210277
 20
-67.751014
 30
0.0
 40
700.0
100
AcDbArc
 50
360.0
 51
2.865819
  0
ARC
  5
E0
100
AcDbEntity
  8
0
370
    -3
  6
Continuous
100
AcDbCircle
 10
-695.210277
 20
-67.751014
 30
0.0
 40
700.0
100
AcDbArc
 50
355.768744
 51
356.379938
  0
ARC
  5
E1
100
AcDbEntity
  8
0
370
    -3
  6
Continuous
100
AcDbCircle
 10
-695.210277
 20
-67.751014
 30
0.0
 40
700.0
100
AcDbArc
 50
357.134181
 51
360.0
  0
INSERT
  5
F4
100
AcDbEntity
  8
0
100
AcDbBlockReference
  2
ZU_SYM__USERS_HOME_SYMBOL_STD_SYM_B01_-1
 10
3.28972
 20
-28.153035
 30
0.0
 41
-1.0
  0
INSERT
  5
107
100
AcDbEntity
  8
0
100
AcDbBlockReference
  2
ZU_SYM__USERS_HOME_SYMBOL_STD_SYM_B01_00001-1
 10
3.28972
 20
-28.153035
 30
0.0
 41
-1.0
  0
INSERT
  5
11A
100
AcDbEntity
  8
0
100
AcDbBlockReference
  2
ZU_SYM__USERS_HOME_SYMBOL_STD_SYM_B01_00002-1
 10
3.28972
 20
-28.153035
 30
0.0
 41
-1.0
  0
LINE
  5
11B
100
AcDbEntity
  8
0
370
    -3
  6
CENTER
100
AcDbLine
 10
-4.767679
 20
-28.153035
 30
0.0
 11
9.863486
 21
-28.153035
 31
0.0
  0
INSERT
  5
12E
100
AcDbEntity
  8
0
100
AcDbBlockReference
  2
ZU_SYM__USERS_HOME_SYMBOL_STD_SYM_B01_00003-1
 10
3.28972
 20
-107.348994
 30
0.0
 50
180.0
  0
LINE
  5
12F
100
AcDbEntity
  8
0
370
    -3
  6
CENTER
100
AcDbLine
 10
-4.767679
 20
-107.348994
 30
0.0
 11
9.863486
 21
-107.348994
 31
0.0
  0
ARC
  5
130
100
AcDbEntity
  8
0
370
    -3
  6
Continuous
100
AcDbCircle
 10
0.887237
 20
-119.251014
 30
0.0
 40
2.0
100
AcDbArc
 50
270.0
 51
355.768744
  0
LINE
  5
131
100
AcDbEntity
  8
0
370
    -3
  6
Continuous
100
AcDbLine
 10
-1.710277
 20
-113.970476
 30
0.0
 11
2.789723
 21
-113.970476
 31
0.0
  0
LINE
  5
132
100
AcDbEntity
  8
0
370
    -3
  6
Continuous
100
AcDbLine
 10
-1.710277
 20
-121.251014
 30
0.0
 11
0.887237
 21
-121.251014
 31
0.0
  0
LINE
  5
133
100
AcDbEntity
  8
0
370
    -3
  6
Continuous
100
AcDbLine
 10
-115.710277
 20
-121.251014
 30
0.0
 11
-115.710277
 21
-67.751014
 31
0.0
  0
LINE
  5
134
100
AcDbEntity
  8
0
370
    -3
  6
Continuous
100
AcDbLine
 10
-115.710277
 20
-14.251014
 30
0.0
 11
-115.710277
 21
-67.751014
 31
0.0
  0
LINE
  5
135
100
AcDbEntity
  8
0
370
    -3
  6
Continuous
100
AcDbLine
 10
-115.710277
 20
-121.251014
 30
0.0
 11
-115.710277
 21
-67.751014
 31
0.0
  0
LINE
  5
136
100
AcDbEntity
  8
0
370
    -3
  6
Continuous
100
AcDbLine
 10
-115.710277
 20
-14.251014
 30
0.0
 11
-115.710277
 21
-67.751014
 31
0.0
  0
CIRCLE
  5
137
100
AcDbEntity
  8
0
370
    -3
  6
Continuous
100
AcDbCircle
 10
-203.710298
 20
-22.836903
 30
0.0
 40
26.5
  0
CIRCLE
  5
138
100
AcDbEntity
  8
0
370
    -3
  6
Continuous
100
AcDbCircle
 10
-203.710298
 20
-22.836903
 30
0.0
 40
22.5
  0
CIRCLE
  5
139
100
AcDbEntity
  8
0
370
    -3
  6
Continuous
100
AcDbCircle
 10
-203.710298
 20
-22.836903
 30
0.0
 40
29.5
  0
CIRCLE
  5
13A
100
AcDbEntity
  8
0
370
    -3
  6
Continuous
100
AcDbCircle
 10
-203.710298
 20
-22.836903
 30
0.0
 40
38.0
  0
CIRCLE
  5
13B
100
AcDbEntity
  8
0
370
    -3
  6
Continuous
100
AcDbCircle
 10
-203.710298
 20
-22.836903
 30
0.0
 40
43.658234
  0
LINE
  5
13C
100
AcDbEntity
  8
0
370
    -3
  6
Continuous
100
AcDbLine
 10
-253.710298
 20
-22.836903
 30
0.0
 11
-253.710298
 21
-79.836903
 31
0.0
  0
ARC
  5
13D
100
AcDbEntity
  8
0
370
    -3
  6
Continuous
100
AcDbCircle
 10
-223.710298
 20
-79.836903
 30
0.0
 40
30.0
100
AcDbArc
 50
180.0
 51
270.0
  0
LINE
  5
13E
100
AcDbEntity
  8
0
370
    -3
  6
Continuous
100
AcDbLine
 10
-223.710298
 20
-109.836903
 30
0.0
 11
-183.710298
 21
-109.836903
 31
0.0
  0
ARC
  5
13F
100
AcDbEntity
  8
0
370
    -3
  6
Continuous
100
AcDbCircle
 10
-183.710298
 20
-79.836903
 30
0.0
 40
30.0
100
AcDbArc
 50
270.0
 51
0.0
  0
LINE
  5
140
100
AcDbEntity
  8
0
370
    -3
  6
Continuous
100
AcDbLine
 10
-153.710298
 20
-22.836903
 30
0.0
 11
-153.710298
 21
-79.836903
 31
0.0
  0
ARC
  5
141
100
AcDbEntity
  8
0
370
    -3
  6
Continuous
100
AcDbCircle
 10
-203.710298
 20
-22.836903
 30
0.0
 40
50.0
100
AcDbArc
 50
0.0
 51
180.0
  0
ARC
  5
142
100
AcDbEntity
  8
0
370
    -3
  6
Continuous
100
AcDbCircle
 10
-240.710298
 20
10.163097
 30
0.0
 40
30.0
100
AcDbArc
 50
90.0
 51
180.0
  0
LINE
  5
143
100
AcDbEntity
  8
0
370
    -3
  6
Continuous
100
AcDbLine
 10
-240.710298
 20
40.163097
 30
0.0
 11
-170.710298
 21
40.163097
 31
0.0
  0
ARC
  5
144
100
AcDbEntity
  8
0
370
    -3
  6
Continuous
100
AcDbCircle
 10
-170.710298
 20
10.163097
 30
0.0
 40
30.0
100
AcDbArc
 50
0.0
 51
90.0
  0
LINE
  5
145
100
AcDbEntity
  8
0
370
    -3
  6
Continuous
100
AcDbLine
 10
-270.710298
 20
-142.836903
 30
0.0
 11
-270.710298
 21
10.163097
 31
0.0
  0
ARC
  5
146
100
AcDbEntity
  8
0
370
    -3
  6
Continuous
100
AcDbCircle
 10
-137.710298
 20
-124.581735
 30
0.0
 40
3.0
100
AcDbArc
 50
90.995843
 51
180.0
  0
LINE
  5
147
100
AcDbEntity
  8
0
370
    -3
  6
Continuous
100
AcDbLine
 10
-140.710298
 20
-142.836903
 30
0.0
 11
-140.710298
 21
-124.581735
 31
0.0
  0
ARC
  5
148
100
AcDbEntity
  8
0
370
    -3
  6
Continuous
100
AcDbCircle
 10
-137.710298
 20
-10.920294
 30
0.0
 40
3.0
100
AcDbArc
 50
180.0
 51
269.004157
  0
LINE
  5
149
100
AcDbEntity
  8
0
370
    -3
  6
Continuous
100
AcDbLine
 10
-140.710298
 20
-10.920294
 30
0.0
 11
-140.710298
 21
10.163097
 31
0.0
  0
LINE
  5
14A
100
AcDbEntity
  8
0
370
    -3
  6
CENTER
100
AcDbLine
 10
-203.710298
 20
50.234709
 30
0.0
 11
-203.710298
 21
-148.654936
 31
0.0
  0
LINE
  5
14B
100
AcDbEntity
  8
0
370
    -3
  6
CENTER
100
AcDbLine
 10
-258.710298
 20
-122.988869
 30
0.0
 11
-258.710298
 21
-150.251186
 31
0.0
  0
LINE
  5
14C
100
AcDbEntity
  8
0
370
    -3
  6
CENTER
100
AcDbLine
 10
-152.710298
 20
-125.549156
 30
0.0
 11
-152.710298
 21
-149.50142
 31
0.0
  0
LINE
  5
14D
100
AcDbEntity
  8
0
370
    -3
  6
CENTER
100
AcDbLine
 10
-278.839138
 20
-22.836903
 30
0.0
 11
-119.954432
 21
-22.836903
 31
0.0
  0
LINE
  5
14E
100
AcDbEntity
  8
0
370
    -3
  6
Continuous
100
AcDbLine
 10
-270.710298
 20
-142.836903
 30
0.0
 11
-203.710297
 21
-142.836903
 31
0.0
  0
LINE
  5
14F
100
AcDbEntity
  8
0
370
    -3
  6
Continuous
100
AcDbLine
 10
-203.710297
 20
-142.836903
 30
0.0
 11
-140.710298
 21
-142.836903
 31
0.0
  0
LINE
  5
150
100
AcDbEntity
  8
0
370
    -3
  6
Continuous
100
AcDbLine
 10
-207.710298
 20
-5.836903
 30
0.0
 11
-207.710298
 21
-12.836903
 31
0.0
  0
LINE
  5
151
100
AcDbEntity
  8
0
370
    -3
  6
Continuous
100
AcDbLine
 10
-207.710298
 20
-5.836903
 30
0.0
 11
-199.710298
 21
-5.836903
 31
0.0
  0
ARC
  5
152
100
AcDbEntity
  8
0
370
    -3
  6
Continuous
100
AcDbCircle
 10
-203.710298
 20
-22.836903
 30
0.0
 40
14.0
100
AcDbArc
 50
106.60155
 51
73.39845
  0
LINE
  5
153
100
AcDbEntity
  8
0
370
    -3
  6
Continuous
100
AcDbLine
 10
-199.710298
 20
-5.836903
 30
0.0
 11
-199.710298
 21
-12.836903
 31
0.0
  0
LINE
  5
154
100
AcDbEntity
  8
0
370
    -3
  6
Continuous
100
AcDbLine
 10
-207.710298
 20
-12.836903
 30
0.0
 11
-199.710298
 21
-12.836903
 31
0.0
  0
CIRCLE
  5
155
100
AcDbEntity
  8
0
370
    -3
  6
Continuous
100
AcDbCircle
 10
-203.710298
 20
-22.836903
 30
0.0
 40
3.5
  0
CIRCLE
  5
156
100
AcDbEntity
  8
0
370
    -3
  6
Continuous
100
AcDbCircle
 10
-203.710298
 20
-22.836903
 30
0.0
 40
4.0
  0
ARC
  5
157
100
AcDbEntity
  8
0
370
    -3
  6
Continuous
100
AcDbCircle
 10
-122.710277
 20
-115.251014
 30
0.0
 40
3.0
100
AcDbArc
 50
0.0
 51
90.0
  0
ARC
  5
158
100
AcDbEntity
  8
0
370
    -3
  6
Continuous
100
AcDbCircle
 10
-121.710277
 20
-107.180666
 30
0.0
 40
2.0
100
AcDbArc
 50
270.0
 51
0.0
  0
ARC
  5
159
100
AcDbEntity
  8
0
370
    -3
  6
Continuous
100
AcDbCircle
 10
-122.710277
 20
-98.64318
 30
0.0
 40
3.0
100
AcDbArc
 50
270.0
 51
0.0
  0
ARC
  5
15A
100
AcDbEntity
  8
0
370
    -3
  6
Continuous
100
AcDbCircle
 10
-117.710277
 20
-119.303075
 30
0.0
 40
2.0
100
AcDbArc
 50
180.0
 51
271.0
  0
ARC
  5
15B
100
AcDbEntity
  8
0
370
    -3
  6
Continuous
100
AcDbCircle
 10
-117.710277
 20
-16.198954
 30
0.0
 40
2.0
100
AcDbArc
 50
89.0
 51
180.0
  0
ARC
  5
15C
100
AcDbEntity
  8
0
370
    -3
  6
Continuous
100
AcDbCircle
 10
-122.710277
 20
-36.858849
 30
0.0
 40
3.0
100
AcDbArc
 50
0.0
 51
90.0
  0
ARC
  5
15D
100
AcDbEntity
  8
0
370
    -3
  6
Continuous
100
AcDbCircle
 10
-122.710277
 20
-20.251014
 30
0.0
 40
3.0
100
AcDbArc
 50
270.0
 51
0.0
  0
ARC
  5
15E
100
AcDbEntity
  8
0
370
    -3
  6
Continuous
100
AcDbCircle
 10
-121.710277
 20
-28.321363
 30
0.0
 40
2.0
100
AcDbArc
 50
0.0
 51
90.0
  0
ARC
  5
15F
100
AcDbEntity
  8
0
370
    -3
  6
Continuous
100
AcDbCircle
 10
-130.710277
 20
-98.64318
 30
0.0
 40
3.0
100
AcDbArc
 50
180.0
 51
270.0
  0
ARC
  5
160
100
AcDbEntity
  8
0
370
    -3
  6
Continuous
100
AcDbCircle
 10
-130.710277
 20
-36.858849
 30
0.0
 40
3.0
100
AcDbArc
 50
90.0
 51
180.0
  0
ARC
  5
161
100
AcDbEntity
  8
0
370
    -3
  6
Continuous
100
AcDbCircle
 10
-128.710277
 20
-107.251014
 30
0.0
 40
5.0
100
AcDbArc
 50
180.0
 51
270.0
  0
ARC
  5
162
100
AcDbEntity
  8
0
370
    -3
  6
Continuous
100
AcDbCircle
 10
-128.710277
 20
-104.180666
 30
0.0
 40
5.0
100
AcDbArc
 50
180.0
 51
270.0
  0
ARC
  5
163
100
AcDbEntity
  8
0
370
    -3
  6
Continuous
100
AcDbCircle
 10
-128.710277
 20
-28.251014
 30
0.0
 40
5.0
100
AcDbArc
 50
90.0
 51
180.0
  0
ARC
  5
164
100
AcDbEntity
  8
0
370
    -3
  6
Continuous
100
AcDbCircle
 10
-128.710277
 20
-31.321363
 30
0.0
 40
5.0
100
AcDbArc
 50
90.0
 51
180.0
  0
ARC
  5
165
100
AcDbEntity
  8
0
370
    -3
  6
Continuous
100
AcDbCircle
 10
-130.710277
 20
-118.546064
 30
0.0
 40
3.0
100
AcDbArc
 50
180.0
 51
270.995843
  0
ARC
  5
166
100
AcDbEntity
  8
0
370
    -3
  6
Continuous
100
AcDbCircle
 10
-130.710277
 20
-16.955965
 30
0.0
 40
3.0
100
AcDbArc
 50
89.004157
 51
180.0
  0
ARC
  5
167
100
AcDbEntity
  8
0
370
    -3
  6
Continuous
100
AcDbCircle
 10
-143.710298
 20
-130.836903
 30
0.0
 40
3.0
100
AcDbArc
 50
0.0
 51
90.0
  0
ARC
  5
168
100
AcDbEntity
  8
0
370
    -3
  6
Continuous
100
AcDbCircle
 10
-267.710298
 20
-130.836903
 30
0.0
 40
3.0
100
AcDbArc
 50
90.0
 51
180.0
  0
LINE
  5
169
100
AcDbEntity
  8
0
370
    -3
  6
Continuous
100
AcDbLine
 10
-119.710277
 20
-67.751014
 30
0.0
 11
-119.710277
 21
-107.180666
 31
0.0
  0
LINE
  5
16A
100
AcDbEntity
  8
0
370
    -3
  6
Continuous
100
AcDbLine
 10
-130.710277
 20
-101.64318
 30
0.0
 11
-122.710277
 21
-101.64318
 31
0.0
  0
LINE
  5
16B
100
AcDbEntity
  8
0
370
    -3
  6
Continuous
100
AcDbLine
 10
-121.710277
 20
-109.180666
 30
0.0
 11
-128.710277
 21
-109.180666
 31
0.0
  0
LINE
  5
16C
100
AcDbEntity
  8
0
370
    -3
  6
Continuous
100
AcDbLine
 10
-122.710277
 20
-112.251014
 30
0.0
 11
-128.710277
 21
-112.251014
 31
0.0
  0
LINE
  5
16D
100
AcDbEntity
  8
0
370
    -3
  6
Continuous
100
AcDbLine
 10
-119.710277
 20
-115.251014
 30
0.0
 11
-119.710277
 21
-119.303075
 31
0.0
  0
LINE
  5
16E
100
AcDbEntity
  8
0
370
    -3
  6
Continuous
100
AcDbLine
 10
-119.710277
 20
-20.251014
 30
0.0
 11
-119.710277
 21
-16.198954
 31
0.0
  0
LINE
  5
16F
100
AcDbEntity
  8
0
370
    -3
  6
Continuous
100
AcDbLine
 10
-122.710277
 20
-23.251014
 30
0.0
 11
-128.710277
 21
-23.251014
 31
0.0
  0
LINE
  5
170
100
AcDbEntity
  8
0
370
    -3
  6
Continuous
100
AcDbLine
 10
-119.710277
 20
-67.751014
 30
0.0
 11
-119.710277
 21
-28.321363
 31
0.0
  0
LINE
  5
171
100
AcDbEntity
  8
0
370
    -3
  6
Continuous
100
AcDbLine
 10
-121.710277
 20
-26.321363
 30
0.0
 11
-128.710277
 21
-26.321363
 31
0.0
  0
LINE
  5
172
100
AcDbEntity
  8
0
370
    -3
  6
Continuous
100
AcDbLine
 10
-130.710277
 20
-33.858849
 30
0.0
 11
-122.710277
 21
-33.858849
 31
0.0
  0
LINE
  5
173
100
AcDbEntity
  8
0
370
    -3
  6
Continuous
100
AcDbLine
 10
-133.710277
 20
-118.546064
 30
0.0
 11
-133.710277
 21
-16.955965
 31
0.0
  0
LINE
  5
174
100
AcDbEntity
  8
0
370
    -3
  6
Continuous
100
AcDbLine
 10
-119.710277
 20
-87.751014
 30
0.0
 11
-115.710277
 21
-87.751014
 31
0.0
  0
LINE
  5
175
100
AcDbEntity
  8
0
370
    -3
  6
Continuous
100
AcDbLine
 10
-119.710277
 20
-47.751014
 30
0.0
 11
-115.710277
 21
-47.751014
 31
0.0
  0
LINE
  5
176
100
AcDbEntity
  8
0
370
    -3
  6
Continuous
100
AcDbLine
 10
-137.762438
 20
-13.867693
 30
0.0
 11
-115.710277
 21
-14.251014
 31
0.0
  0
LINE
  5
177
100
AcDbEntity
  8
0
370
    -3
  6
Continuous
100
AcDbLine
 10
-137.762438
 20
-121.634336
 30
0.0
 11
-115.710277
 21
-121.251014
 31
0.0
  0
LINE
  5
178
100
AcDbEntity
  8
0
370
    -3
  6
Continuous
100
AcDbLine
 10
-267.710298
 20
-127.836903
 30
0.0
 11
-143.710298
 21
-127.836903
 31
0.0
  0
POINT
  5
179
100
AcDbEntity
  8
0
370
    -3
  6
Continuous
100
AcDbPoint
 10
-203.710298
 20
-22.836903
 30
0.0
  0
LINE
  5
17A
100
AcDbEntity
  8
0
370
    -3
  6
Continuous
100
AcDbLine
 10
-115.710277
 20
-15.251014
 30
0.0
 11
-115.710277
 21
-120.251014
 31
0.0
  0
LINE
  5
17B
100
AcDbEntity
  8
0
370
    -3
  6
CENTER
100
AcDbLine
 10
-163.289477
 20
-67.751014
 30
0.0
 11
11.887679
 21
-67.751014
 31
0.0
  0
LINE
  5
17C
100
AcDbEntity
  8
0
370
    -3
  6
Continuous
100
AcDbLine
 10
-115.710277
 20
-14.251014
 30
0.0
 11
-115.710277
 21
-67.751014
 31
0.0
  0
MTEXT
  5
17E
100
AcDbEntity
  8
0
370
    -3
  6
Continuous
100
AcDbMText
 10
-288.487823
 20
-13.15625
 30
0.0
 40
2.8
 41
0.0
 71
     7
 72
     1
  1
\W0.83;　
  7
ZU_SHPTB00001
 11
1.0
 21
0.0
 31
0.0
 73
     1
 44
1.0
  0
LINE
  5
17F
100
AcDbEntity
  8
0
370
    -3
  6
CENTER
100
AcDbLine
 10
192.289714
 20
-147.692882
 30
0.0
 11
192.289714
 21
54.923037
 31
0.0
  0
LINE
  5
180
100
AcDbEntity
  8
0
370
    -3
  6
CENTER
100
AcDbLine
 10
215.99807
 20
-67.751014
 30
0.0
 11
173.591076
 21
-67.751014
 31
0.0
  0
LINE
  5
181
100
AcDbEntity
  8
0
370
    -3
  6
Continuous
100
AcDbLine
 10
259.289714
 20
-48.936903
 30
0.0
 11
259.289714
 21
3.263097
 31
0.0
  0
ARC
  5
182
100
AcDbEntity
  8
0
370
    -3
  6
Continuous
100
AcDbCircle
 10
253.789714
 20
12.557635
 30
0.0
 40
3.0
100
AcDbArc
 50
0.0
 51
80.0
  0
LINE
  5
183
100
AcDbEntity
  8
0
370
    -3
  6
Continuous
100
AcDbLine
 10
259.289714
 20
3.263097
 30
0.0
 11
258.889714
 21
3.663097
 31
0.0
  0
LINE
  5
184
100
AcDbEntity
  8
0
370
    -3
  6
Continuous
100
AcDbLine
 10
259.289714
 20
-48.936903
 30
0.0
 11
258.889714
 21
-49.336903
 31
0.0
  0
ARC
  5
185
100
AcDbEntity
  8
0
370
    -3
  6
Continuous
100
AcDbCircle
 10
253.789714
 20
-58.23144
 30
0.0
 40
3.0
100
AcDbArc
 50
280.0
 51
0.0
  0
LINE
  5
186
100
AcDbEntity
  8
0
370
    -3
  6
Continuous
100
AcDbLine
 10
229.289714
 20
-126.836903
 30
0.0
 11
236.28943
 21
-126.836903
 31
0.0
  0
ARC
  5
187
100
AcDbEntity
  8
0
370
    -3
  6
Continuous
100
AcDbCircle
 10
236.28943
 20
-125.836903
 30
0.0
 40
1.0
100
AcDbArc
 50
270.0
 51
0.0
  0
LINE
  5
188
100
AcDbEntity
  8
0
370
    -3
  6
Continuous
100
AcDbLine
 10
125.289714
 20
-49.037131
 30
0.0
 11
125.289714
 21
3.363326
 31
0.0
  0
LINE
  5
189
100
AcDbEntity
  8
0
370
    -3
  6
Continuous
100
AcDbLine
 10
256.789714
 20
-22.836903
 30
0.0
 11
256.789714
 21
12.557635
 31
0.0
  0
POINT
  5
18A
100
AcDbEntity
  8
0
370
    -3
  6
Continuous
100
AcDbPoint
 10
125.289714
 20
-127.836903
 30
0.0
  0
POINT
  5
18B
100
AcDbEntity
  8
0
370
    -3
  6
Continuous
100
AcDbPoint
 10
259.289714
 20
-127.836903
 30
0.0
  0
LINE
  5
18C
100
AcDbEntity
  8
0
370
    -3
  6
Continuous
100
AcDbLine
 10
259.289714
 20
-142.836903
 30
0.0
 11
125.289714
 21
-142.836903
 31
0.0
  0
LINE
  5
18D
100
AcDbEntity
  8
0
370
    -3
  6
Continuous
100
AcDbLine
 10
229.289714
 20
-17.126352
 30
0.0
 11
229.289714
 21
-3.995491
 31
0.0
  0
LINE
  5
18E
100
AcDbEntity
  8
0
370
    -3
  6
Continuous
100
AcDbLine
 10
229.789714
 20
-127.336903
 30
0.0
 11
229.289714
 21
-127.336903
 31
0.0
  0
LINE
  5
18F
100
AcDbEntity
  8
0
370
    -3
  6
Continuous
100
AcDbLine
 10
229.289714
 20
-127.336903
 30
0.0
 11
229.289714
 21
-118.375677
 31
0.0
  0
ARC
  5
190
100
AcDbEntity
  8
0
370
    -3
  6
Continuous
100
AcDbCircle
 10
130.789485
 20
-58.23144
 30
0.0
 40
3.0
100
AcDbArc
 50
180.0
 51
260.0
  0
ARC
  5
191
100
AcDbEntity
  8
0
370
    -3
  6
Continuous
100
AcDbCircle
 10
130.789485
 20
12.557635
 30
0.0
 40
3.0
100
AcDbArc
 50
100.0
 51
180.0
  0
LINE
  5
192
100
AcDbEntity
  8
0
370
    -3
  6
Continuous
100
AcDbLine
 10
127.789485
 20
12.557635
 30
0.0
 11
127.789485
 21
-22.836903
 31
0.0
  0
LINE
  5
193
100
AcDbEntity
  8
0
370
    -3
  6
Continuous
100
AcDbLine
 10
127.789485
 20
-58.23144
 30
0.0
 11
127.789485
 21
-22.836903
 31
0.0
  0
LINE
  5
194
100
AcDbEntity
  8
0
370
    -3
  6
Continuous
100
AcDbLine
 10
123.289714
 20
-8.336903
 30
0.0
 11
125.289714
 21
-8.336903
 31
0.0
  0
LINE
  5
195
100
AcDbEntity
  8
0
370
    -3
  6
Continuous
100
AcDbLine
 10
123.289714
 20
-22.836903
 30
0.0
 11
123.289714
 21
-8.336903
 31
0.0
  0
LINE
  5
196
100
AcDbEntity
  8
0
370
    -3
  6
Continuous
100
AcDbLine
 10
123.289714
 20
-22.836903
 30
0.0
 11
123.289714
 21
-8.336903
 31
0.0
  0
LINE
  5
197
100
AcDbEntity
  8
0
370
    -3
  6
Continuous
100
AcDbLine
 10
123.289714
 20
-37.336903
 30
0.0
 11
125.289714
 21
-37.336903
 31
0.0
  0
LINE
  5
198
100
AcDbEntity
  8
0
370
    -3
  6
Continuous
100
AcDbLine
 10
123.289714
 20
-22.836903
 30
0.0
 11
123.289714
 21
-37.336903
 31
0.0
  0
LINE
  5
199
100
AcDbEntity
  8
0
370
    -3
  6
Continuous
100
AcDbLine
 10
123.289714
 20
-22.836903
 30
0.0
 11
123.289714
 21
-37.336903
 31
0.0
  0
LINE
  5
19A
100
AcDbEntity
  8
0
370
    -3
  6
Continuous
100
AcDbLine
 10
78.289714
 20
-22.836903
 30
0.0
 11
78.289714
 21
-36.836903
 31
0.0
  0
LINE
  5
19B
100
AcDbEntity
  8
0
370
    -3
  6
Continuous
100
AcDbLine
 10
123.289714
 20
-36.836903
 30
0.0
 11
78.289714
 21
-36.836903
 31
0.0
  0
LINE
  5
19C
100
AcDbEntity
  8
0
370
    -3
  6
Continuous
100
AcDbLine
 10
114.289714
 20
-8.836903
 30
0.0
 11
114.289714
 21
-5.836903
 31
0.0
  0
LINE
  5
19D
100
AcDbEntity
  8
0
370
    -3
  6
Continuous
100
AcDbLine
 10
114.289714
 20
-5.836903
 30
0.0
 11
78.289714
 21
-5.836903
 31
0.0
  0
LINE
  5
19E
100
AcDbEntity
  8
0
370
    -3
  6
Continuous
100
AcDbLine
 10
78.289714
 20
-22.836903
 30
0.0
 11
78.289714
 21
-5.836903
 31
0.0
  0
LINE
  5
19F
100
AcDbEntity
  8
0
370
    -3
  6
Continuous
100
AcDbLine
 10
123.289714
 20
-8.836903
 30
0.0
 11
78.289714
 21
-8.836903
 31
0.0
  0
ARC
  5
1A0
100
AcDbEntity
  8
0
370
    -3
  6
Continuous
100
AcDbCircle
 10
146.289714
 20
-123.469737
 30
0.0
 40
4.0
100
AcDbArc
 50
271.0
 51
0.0
  0
ARC
  5
1A1
100
AcDbEntity
  8
0
370
    -3
  6
Continuous
100
AcDbCircle
 10
128.289714
 20
-130.784994
 30
0.0
 40
3.0
100
AcDbArc
 50
91.0
 51
180.0
  0
ARC
  5
1A2
100
AcDbEntity
  8
0
370
    -3
  6
Continuous
100
AcDbCircle
 10
256.289714
 20
-130.784994
 30
0.0
 40
3.0
100
AcDbArc
 50
0.0
 51
89.0
  0
ARC
  5
1A3
100
AcDbEntity
  8
0
370
    -3
  6
Continuous
100
AcDbCircle
 10
142.289997
 20
22.708858
 30
0.0
 40
5.0
100
AcDbArc
 50
280.0
 51
309.787591
  0
LINE
  5
1A4
100
AcDbEntity
  8
0
370
    -3
  6
Continuous
100
AcDbLine
 10
128.237357
 20
-127.785451
 30
0.0
 11
146.359523
 21
-127.469128
 31
0.0
  0
LINE
  5
1A5
100
AcDbEntity
  8
0
370
    -3
  6
Continuous
100
AcDbLine
 10
150.289714
 20
-115.616426
 30
0.0
 11
150.289714
 21
-123.469737
 31
0.0
  0
LINE
  5
1A6
100
AcDbEntity
  8
0
370
    -3
  6
Continuous
100
AcDbLine
 10
147.289997
 20
-1.179807
 30
0.0
 11
147.289997
 21
-22.397165
 31
0.0
  0
LINE
  5
1A7
100
AcDbEntity
  8
0
370
    -3
  6
CENTER
100
AcDbLine
 10
137.289714
 20
-147.082787
 30
0.0
 11
137.289714
 21
-123.028733
 31
0.0
  0
LINE
  5
1A8
100
AcDbEntity
  8
0
370
    -3
  6
CENTER
100
AcDbLine
 10
247.289714
 20
-147.082787
 30
0.0
 11
247.289714
 21
-123.028733
 31
0.0
  0
LINE
  5
1A9
100
AcDbEntity
  8
0
370
    -3
  6
Continuous
100
AcDbLine
 10
150.289714
 20
-19.885603
 30
0.0
 11
150.289714
 21
-3.395491
 31
0.0
  0
LINE
  5
1AA
100
AcDbEntity
  8
0
370
    -3
  6
Continuous
100
AcDbLine
 10
125.289714
 20
-142.836903
 30
0.0
 11
125.289714
 21
-130.784994
 31
0.0
  0
LINE
  5
1AB
100
AcDbEntity
  8
0
370
    -3
  6
Continuous
100
AcDbLine
 10
259.289714
 20
-142.836903
 30
0.0
 11
259.289714
 21
-130.284994
 31
0.0
  0
LINE
  5
1AC
100
AcDbEntity
  8
0
370
    -3
  6
Continuous
100
AcDbLine
 10
256.342071
 20
-127.785451
 30
0.0
 11
229.789714
 21
-127.321978
 31
0.0
  0
ARC
  5
1AD
100
AcDbEntity
  8
0
370
    -3
  6
Continuous
100
AcDbCircle
 10
242.28943
 20
22.708858
 30
0.0
 40
5.0
100
AcDbArc
 50
230.212409
 51
260.0
  0
LINE
  5
1AE
100
AcDbEntity
  8
0
370
    -3
  6
Continuous
100
AcDbLine
 10
254.310658
 20
15.512058
 30
0.0
 11
241.421189
 21
17.784819
 31
0.0
  0
LINE
  5
1AF
100
AcDbEntity
  8
0
370
    -3
  6
Continuous
100
AcDbLine
 10
253.810658
 20
-61.274027
 30
0.0
 11
245.789714
 21
-62.688336
 31
0.0
  0
LINE
  5
1B0
100
AcDbEntity
  8
0
370
    -3
  6
Continuous
100
AcDbLine
 10
237.28943
 20
-125.836903
 30
0.0
 11
237.28943
 21
-113.104863
 31
0.0
  0
LINE
  5
1B1
100
AcDbEntity
  8
0
370
    -3
  6
Continuous
100
AcDbLine
 10
254.310658
 20
-61.185863
 30
0.0
 11
245.789714
 21
-62.688336
 31
0.0
  0
LINE
  5
1B2
100
AcDbEntity
  8
0
370
    -3
  6
Continuous
100
AcDbLine
 10
237.28943
 20
-1.179807
 30
0.0
 11
237.28943
 21
-22.397165
 31
0.0
  0
LINE
  5
1B3
100
AcDbEntity
  8
0
370
    -3
  6
Continuous
100
AcDbLine
 10
125.589485
 20
-49.336903
 30
0.0
 11
125.289485
 21
-49.036903
 31
0.0
  0
LINE
  5
1B4
100
AcDbEntity
  8
0
370
    -3
  6
Continuous
100
AcDbLine
 10
130.26854
 20
15.512058
 30
0.0
 11
143.158009
 21
17.784819
 31
0.0
  0
LINE
  5
1B5
100
AcDbEntity
  8
0
370
    -3
  6
Continuous
100
AcDbLine
 10
125.589485
 20
3.663097
 30
0.0
 11
125.289485
 21
3.363097
 31
0.0
  0
LINE
  5
1B6
100
AcDbEntity
  8
0
370
    -3
  6
Continuous
100
AcDbLine
 10
130.26854
 20
-61.185863
 30
0.0
 11
138.789714
 21
-62.688376
 31
0.0
  0
LINE
  5
1B7
100
AcDbEntity
  8
0
370
    -3
  6
Continuous
100
AcDbLine
 10
256.789714
 20
-58.23144
 30
0.0
 11
256.789714
 21
-22.836903
 31
0.0
  0
LINE
  5
1B8
100
AcDbEntity
  8
0
370
    -3
  6
Continuous
100
AcDbLine
 10
256.789714
 20
3.663097
 30
0.0
 11
258.889714
 21
3.663097
 31
0.0
  0
LINE
  5
1B9
100
AcDbEntity
  8
0
370
    -3
  6
Continuous
100
AcDbLine
 10
256.789714
 20
-49.336903
 30
0.0
 11
258.889714
 21
-49.336903
 31
0.0
  0
LINE
  5
1BA
100
AcDbEntity
  8
0
370
    -3
  6
Continuous
100
AcDbLine
 10
127.789485
 20
-49.336903
 30
0.0
 11
125.589485
 21
-49.336903
 31
0.0
  0
LINE
  5
1BB
100
AcDbEntity
  8
0
370
    -3
  6
Continuous
100
AcDbLine
 10
127.789485
 20
3.663097
 30
0.0
 11
125.589485
 21
3.663097
 31
0.0
  0
LINE
  5
1BC
100
AcDbEntity
  8
0
370
    -3
  6
CENTER
100
AcDbLine
 10
311.809508
 20
-22.836903
 30
0.0
 11
73.581695
 21
-22.836903
 31
0.0
  0
LINE
  5
1BD
100
AcDbEntity
  8
0
370
    -3
  6
CENTER
100
AcDbLine
 10
-276.496856
 20
204.581038
 30
0.0
 11
35.51318
 21
204.581038
 31
0.0
  0
ARC
  5
1BE
100
AcDbEntity
  8
0
370
    -3
  6
Continuous
100
AcDbCircle
 10
-203.710277
 20
126.581038
 30
0.0
 40
4.0
100
AcDbArc
 50
0.0
 51
180.0
  0
LINE
  5
1BF
100
AcDbEntity
  8
0
370
    -3
  6
CENTER
100
AcDbLine
 10
-203.710277
 20
320.625489
 30
0.0
 11
-203.710277
 21
87.835459
 31
0.0
  0
LINE
  5
1C0
100
AcDbEntity
  8
0
370
    -3
  6
Continuous
100
AcDbLine
 10
-189.710277
 20
135.581038
 30
0.0
 11
-189.710277
 21
90.581038
 31
0.0
  0
LINE
  5
1C1
100
AcDbEntity
  8
0
370
    -3
  6
Continuous
100
AcDbLine
 10
-207.710277
 20
126.581038
 30
0.0
 11
-199.710277
 21
126.581038
 31
0.0
  0
LINE
  5
1C2
100
AcDbEntity
  8
0
370
    -3
  6
Continuous
100
AcDbLine
 10
-217.710277
 20
135.581038
 30
0.0
 11
-217.710277
 21
90.581038
 31
0.0
  0
LINE
  5
1C3
100
AcDbEntity
  8
0
370
    -3
  6
Continuous
100
AcDbLine
 10
-189.710277
 20
90.581038
 30
0.0
 11
-217.710277
 21
90.581038
 31
0.0
  0
LINE
  5
1C4
100
AcDbEntity
  8
0
370
    -3
  6
Continuous
100
AcDbLine
 10
-203.710277
 20
135.581038
 30
0.0
 11
-218.210277
 21
135.581038
 31
0.0
  0
LINE
  5
1C5
100
AcDbEntity
  8
0
370
    -3
  6
Continuous
100
AcDbLine
 10
-203.710277
 20
135.581038
 30
0.0
 11
-218.210277
 21
135.581038
 31
0.0
  0
LINE
  5
1C6
100
AcDbEntity
  8
0
370
    -3
  6
Continuous
100
AcDbLine
 10
-218.210277
 20
135.581038
 30
0.0
 11
-218.210277
 21
137.581038
 31
0.0
  0
LINE
  5
1C7
100
AcDbEntity
  8
0
370
    -3
  6
Continuous
100
AcDbLine
 10
-203.710277
 20
135.581038
 30
0.0
 11
-189.210277
 21
135.581038
 31
0.0
  0
LINE
  5
1C8
100
AcDbEntity
  8
0
370
    -3
  6
Continuous
100
AcDbLine
 10
-203.710277
 20
135.581038
 30
0.0
 11
-189.210277
 21
135.581038
 31
0.0
  0
LINE
  5
1C9
100
AcDbEntity
  8
0
370
    -3
  6
Continuous
100
AcDbLine
 10
-189.210277
 20
135.581038
 30
0.0
 11
-189.210277
 21
137.581038
 31
0.0
  0
LINE
  5
1CA
100
AcDbEntity
  8
0
370
    -3
  6
Continuous
100
AcDbLine
 10
-207.710277
 20
126.581038
 30
0.0
 11
-207.710277
 21
90.581038
 31
0.0
  0
LINE
  5
1CB
100
AcDbEntity
  8
0
370
    -3
  6
Continuous
100
AcDbLine
 10
-199.710277
 20
126.581038
 30
0.0
 11
-199.710277
 21
90.581038
 31
0.0
  0
LINE
  5
1CC
100
AcDbEntity
  8
0
370
    -3
  6
Continuous
100
AcDbLine
 10
-131.11403
 20
258.348794
 30
0.0
 11
-115.710277
 21
258.081038
 31
0.0
  0
ARC
  5
1CD
100
AcDbEntity
  8
0
370
    -3
  6
Continuous
100
AcDbCircle
 10
-130.710277
 20
153.785989
 30
0.0
 40
3.0
100
AcDbArc
 50
180.0
 51
270.995843
  0
LINE
  5
1CE
100
AcDbEntity
  8
0
370
    -3
  6
Continuous
100
AcDbLine
 10
-131.11403
 20
150.813283
 30
0.0
 11
-115.710277
 21
151.081038
 31
0.0
  0
LINE
  5
1CF
100
AcDbEntity
  8
0
370
    -3
  6
Continuous
100
AcDbLine
 10
-142.089231
 20
162.58081
 30
0.0
 11
-136.710277
 21
162.58081
 31
0.0
  0
ARC
  5
1D0
100
AcDbEntity
  8
0
370
    -3
  6
Continuous
100
AcDbCircle
 10
-136.710277
 20
159.58081
 30
0.0
 40
3.0
100
AcDbArc
 50
0.0
 51
90.0
  0
ARC
  5
1D1
100
AcDbEntity
  8
0
370
    -3
  6
Continuous
100
AcDbCircle
 10
-136.710277
 20
243.581038
 30
0.0
 40
3.0
100
AcDbArc
 50
270.0
 51
0.0
  0
LINE
  5
1D2
100
AcDbEntity
  8
0
370
    -3
  6
Continuous
100
AcDbLine
 10
-136.710277
 20
240.581038
 30
0.0
 11
-139.710298
 21
240.581038
 31
0.0
  0
ARC
  5
1D3
100
AcDbEntity
  8
0
370
    -3
  6
Continuous
100
AcDbCircle
 10
-139.710298
 20
241.581038
 30
0.0
 40
1.0
100
AcDbArc
 50
180.0
 51
270.0
  0
LINE
  5
1D4
100
AcDbEntity
  8
0
370
    -3
  6
Continuous
100
AcDbLine
 10
-119.710277
 20
184.581038
 30
0.0
 11
-115.710277
 21
184.581038
 31
0.0
  0
LINE
  5
1D5
100
AcDbEntity
  8
0
370
    -3
  6
Continuous
100
AcDbLine
 10
-119.710277
 20
224.581038
 30
0.0
 11
-115.710277
 21
224.581038
 31
0.0
  0
LINE
  5
1D6
100
AcDbEntity
  8
0
370
    -3
  6
Continuous
100
AcDbLine
 10
-133.710277
 20
255.376088
 30
0.0
 11
-133.710277
 21
153.785989
 31
0.0
  0
LINE
  5
1D7
100
AcDbEntity
  8
0
370
    -3
  6
Continuous
100
AcDbLine
 10
-130.710277
 20
170.688873
 30
0.0
 11
-122.710277
 21
170.688873
 31
0.0
  0
LINE
  5
1D8
100
AcDbEntity
  8
0
370
    -3
  6
Continuous
100
AcDbLine
 10
-121.710277
 20
163.151387
 30
0.0
 11
-128.710277
 21
163.151387
 31
0.0
  0
LINE
  5
1D9
100
AcDbEntity
  8
0
370
    -3
  6
Continuous
100
AcDbLine
 10
-119.710277
 20
204.581038
 30
0.0
 11
-119.710277
 21
165.151387
 31
0.0
  0
LINE
  5
1DA
100
AcDbEntity
  8
0
370
    -3
  6
Continuous
100
AcDbLine
 10
-122.710277
 20
160.081038
 30
0.0
 11
-128.710277
 21
160.081038
 31
0.0
  0
LINE
  5
1DB
100
AcDbEntity
  8
0
370
    -3
  6
Continuous
100
AcDbLine
 10
-119.710277
 20
157.081038
 30
0.0
 11
-119.710277
 21
153.028978
 31
0.0
  0
LINE
  5
1DC
100
AcDbEntity
  8
0
370
    -3
  6
Continuous
100
AcDbLine
 10
-119.710277
 20
252.081038
 30
0.0
 11
-119.710277
 21
256.133099
 31
0.0
  0
LINE
  5
1DD
100
AcDbEntity
  8
0
370
    -3
  6
Continuous
100
AcDbLine
 10
-122.710277
 20
249.081038
 30
0.0
 11
-128.710277
 21
249.081038
 31
0.0
  0
LINE
  5
1DE
100
AcDbEntity
  8
0
370
    -3
  6
Continuous
100
AcDbLine
 10
-121.710277
 20
246.01069
 30
0.0
 11
-128.710277
 21
246.01069
 31
0.0
  0
LINE
  5
1DF
100
AcDbEntity
  8
0
370
    -3
  6
Continuous
100
AcDbLine
 10
-130.710277
 20
238.473204
 30
0.0
 11
-122.710277
 21
238.473204
 31
0.0
  0
LINE
  5
1E0
100
AcDbEntity
  8
0
370
    -3
  6
Continuous
100
AcDbLine
 10
-119.710277
 20
204.581038
 30
0.0
 11
-119.710277
 21
244.01069
 31
0.0
  0
ARC
  5
1E1
100
AcDbEntity
  8
0
370
    -3
  6
Continuous
100
AcDbCircle
 10
-130.710277
 20
255.376088
 30
0.0
 40
3.0
100
AcDbArc
 50
89.004157
 51
180.0
  0
ARC
  5
1E2
100
AcDbEntity
  8
0
370
    -3
  6
Continuous
100
AcDbCircle
 10
-128.710277
 20
168.151387
 30
0.0
 40
5.0
100
AcDbArc
 50
180.0
 51
270.0
  0
ARC
  5
1E3
100
AcDbEntity
  8
0
370
    -3
  6
Continuous
100
AcDbCircle
 10
-128.710277
 20
165.081038
 30
0.0
 40
5.0
100
AcDbArc
 50
180.0
 51
270.0
  0
ARC
  5
1E4
100
AcDbEntity
  8
0
370
    -3
  6
Continuous
100
AcDbCircle
 10
-128.710277
 20
241.01069
 30
0.0
 40
5.0
100
AcDbArc
 50
90.0
 51
180.0
  0
ARC
  5
1E5
100
AcDbEntity
  8
0
370
    -3
  6
Continuous
100
AcDbCircle
 10
-128.710277
 20
244.081038
 30
0.0
 40
5.0
100
AcDbArc
 50
90.0
 51
180.0
  0
ARC
  5
1E6
100
AcDbEntity
  8
0
370
    -3
  6
Continuous
100
AcDbCircle
 10
-130.710277
 20
173.688873
 30
0.0
 40
3.0
100
AcDbArc
 50
180.0
 51
270.0
  0
ARC
  5
1E7
100
AcDbEntity
  8
0
370
    -3
  6
Continuous
100
AcDbCircle
 10
-130.710277
 20
235.473204
 30
0.0
 40
3.0
100
AcDbArc
 50
90.0
 51
180.0
  0
ARC
  5
1E8
100
AcDbEntity
  8
0
370
    -3
  6
Continuous
100
AcDbCircle
 10
-121.710277
 20
165.151387
 30
0.0
 40
2.0
100
AcDbArc
 50
270.0
 51
0.0
  0
ARC
  5
1E9
100
AcDbEntity
  8
0
370
    -3
  6
Continuous
100
AcDbCircle
 10
-122.710277
 20
157.081038
 30
0.0
 40
3.0
100
AcDbArc
 50
0.0
 51
90.0
  0
ARC
  5
1EA
100
AcDbEntity
  8
0
370
    -3
  6
Continuous
100
AcDbCircle
 10
-122.710277
 20
173.688873
 30
0.0
 40
3.0
100
AcDbArc
 50
270.0
 51
0.0
  0
ARC
  5
1EB
100
AcDbEntity
  8
0
370
    -3
  6
Continuous
100
AcDbCircle
 10
-117.710277
 20
153.028978
 30
0.0
 40
2.0
100
AcDbArc
 50
180.0
 51
271.0
  0
ARC
  5
1EC
100
AcDbEntity
  8
0
370
    -3
  6
Continuous
100
AcDbCircle
 10
-117.710277
 20
256.133099
 30
0.0
 40
2.0
100
AcDbArc
 50
89.0
 51
180.0
  0
ARC
  5
1ED
100
AcDbEntity
  8
0
370
    -3
  6
Continuous
100
AcDbCircle
 10
-122.710277
 20
235.473204
 30
0.0
 40
3.0
100
AcDbArc
 50
0.0
 51
90.0
  0
ARC
  5
1EE
100
AcDbEntity
  8
0
370
    -3
  6
Continuous
100
AcDbCircle
 10
-121.710277
 20
244.01069
 30
0.0
 40
2.0
100
AcDbArc
 50
0.0
 51
90.0
  0
ARC
  5
1EF
100
AcDbEntity
  8
0
370
    -3
  6
Continuous
100
AcDbCircle
 10
-122.710277
 20
252.081038
 30
0.0
 40
3.0
100
AcDbArc
 50
270.0
 51
0.0
  0
ARC
  5
1F0
100
AcDbEntity
  8
0
370
    -3
  6
Continuous
100
AcDbCircle
 10
-144.182021
 20
268.581038
 30
0.0
 40
3.0
100
AcDbArc
 50
1.0
 51
90.0
  0
LINE
  5
1F1
100
AcDbEntity
  8
0
370
    -3
  6
Continuous
100
AcDbLine
 10
-140.710277
 20
241.581038
 30
0.0
 11
-141.182478
 21
268.633396
 31
0.0
  0
LINE
  5
1F2
100
AcDbEntity
  8
0
370
    -3
  6
Continuous
100
AcDbLine
 10
-267.238533
 20
271.581038
 30
0.0
 11
-144.182021
 21
271.581038
 31
0.0
  0
ARC
  5
1F3
100
AcDbEntity
  8
0
370
    -3
  6
Continuous
100
AcDbCircle
 10
-267.238533
 20
268.581038
 30
0.0
 40
3.0
100
AcDbArc
 50
90.0
 51
179.0
  0
LINE
  5
1F4
100
AcDbEntity
  8
0
370
    -3
  6
Continuous
100
AcDbLine
 10
-270.238076
 20
268.633396
 30
0.0
 11
-270.710277
 21
241.581038
 31
0.0
  0
ARC
  5
1F5
100
AcDbEntity
  8
0
370
    -3
  6
Continuous
100
AcDbCircle
 10
-265.946858
 20
140.581038
 30
0.0
 40
3.0
100
AcDbArc
 50
181.0
 51
270.0
  0
LINE
  5
1F6
100
AcDbEntity
  8
0
370
    -3
  6
Continuous
100
AcDbLine
 10
-265.946858
 20
137.581038
 30
0.0
 11
-145.473695
 21
137.581038
 31
0.0
  0
LINE
  5
1F7
100
AcDbEntity
  8
0
370
    -3
  6
Continuous
100
AcDbLine
 10
-270.710277
 20
241.581038
 30
0.0
 11
-268.946401
 21
140.528681
 31
0.0
  0
ARC
  5
1F8
100
AcDbEntity
  8
0
370
    -3
  6
Continuous
100
AcDbCircle
 10
-145.473695
 20
140.581038
 30
0.0
 40
3.0
100
AcDbArc
 50
270.0
 51
359.0
  0
LINE
  5
1F9
100
AcDbEntity
  8
0
370
    -3
  6
Continuous
100
AcDbLine
 10
-140.710277
 20
241.581038
 30
0.0
 11
-142.474152
 21
140.528681
 31
0.0
  0
ARC
  5
1FA
100
AcDbEntity
  8
0
370
    -3
  6
Continuous
100
AcDbCircle
 10
-269.587944
 20
248.580755
 30
0.0
 40
1.0
100
AcDbArc
 50
90.0
 51
179.0
  0
LINE
  5
1FB
100
AcDbEntity
  8
0
370
    -3
  6
Continuous
100
AcDbLine
 10
-269.587944
 20
249.580755
 30
0.0
 11
-249.256038
 21
249.580755
 31
0.0
  0
ARC
  5
1FC
100
AcDbEntity
  8
0
370
    -3
  6
Continuous
100
AcDbCircle
 10
-266.383235
 20
165.581038
 30
0.0
 40
3.0
100
AcDbArc
 50
181.0
 51
270.0
  0
LINE
  5
1FD
100
AcDbEntity
  8
0
370
    -3
  6
Continuous
100
AcDbLine
 10
-266.383235
 20
162.581038
 30
0.0
 11
-145.037319
 21
162.581038
 31
0.0
  0
LINE
  5
1FE
100
AcDbEntity
  8
0
370
    -3
  6
Continuous
100
AcDbLine
 10
-270.710277
 20
241.581038
 30
0.0
 11
-140.710277
 21
241.581038
 31
0.0
  0
LINE
  5
1FF
100
AcDbEntity
  8
0
370
    -3
  6
Continuous
100
AcDbLine
 10
-177.210277
 20
140.08081
 30
0.0
 11
-177.210277
 21
137.88081
 31
0.0
  0
LINE
  5
200
100
AcDbEntity
  8
0
370
    -3
  6
Continuous
100
AcDbLine
 10
-230.210277
 20
140.08081
 30
0.0
 11
-230.210277
 21
137.88081
 31
0.0
  0
LINE
  5
201
100
AcDbEntity
  8
0
370
    -3
  6
Continuous
100
AcDbLine
 10
-239.104815
 20
140.08081
 30
0.0
 11
-203.710277
 21
140.08081
 31
0.0
  0
LINE
  5
202
100
AcDbEntity
  8
0
370
    -3
  6
Continuous
100
AcDbLine
 10
-168.315739
 20
140.08081
 30
0.0
 11
-203.710277
 21
140.08081
 31
0.0
  0
LINE
  5
203
100
AcDbEntity
  8
0
370
    -3
  6
Continuous
100
AcDbLine
 10
-230.210277
 20
269.081038
 30
0.0
 11
-230.210277
 21
271.181038
 31
0.0
  0
LINE
  5
204
100
AcDbEntity
  8
0
370
    -3
  6
Continuous
100
AcDbLine
 10
-177.210277
 20
269.081038
 30
0.0
 11
-177.210277
 21
271.181038
 31
0.0
  0
LINE
  5
205
100
AcDbEntity
  8
0
370
    -3
  6
Continuous
100
AcDbLine
 10
-239.104815
 20
269.081038
 30
0.0
 11
-203.710277
 21
269.081038
 31
0.0
  0
LINE
  5
206
100
AcDbEntity
  8
0
370
    -3
  6
Continuous
100
AcDbLine
 10
-203.710277
 20
269.081038
 30
0.0
 11
-168.315739
 21
269.081038
 31
0.0
  0
LINE
  5
207
100
AcDbEntity
  8
0
370
    -3
  6
Continuous
100
AcDbLine
 10
-242.059238
 20
142.559865
 30
0.0
 11
-244.335499
 21
155.469185
 31
0.0
  0
ARC
  5
208
100
AcDbEntity
  8
0
370
    -3
  6
Continuous
100
AcDbCircle
 10
-168.315739
 20
143.08081
 30
0.0
 40
3.0
100
AcDbArc
 50
270.0
 51
350.0
  0
LINE
  5
209
100
AcDbEntity
  8
0
370
    -3
  6
Continuous
100
AcDbLine
 10
-177.210277
 20
137.88081
 30
0.0
 11
-177.510277
 21
137.58081
 31
0.0
  0
LINE
  5
20A
100
AcDbEntity
  8
0
370
    -3
  6
Continuous
100
AcDbLine
 10
-165.361316
 20
142.559865
 30
0.0
 11
-163.088555
 21
155.449334
 31
0.0
  0
ARC
  5
20B
100
AcDbEntity
  8
0
370
    -3
  6
Continuous
100
AcDbCircle
 10
-239.104815
 20
143.08081
 30
0.0
 40
3.0
100
AcDbArc
 50
190.0
 51
270.0
  0
LINE
  5
20C
100
AcDbEntity
  8
0
370
    -3
  6
Continuous
100
AcDbLine
 10
-230.210277
 20
137.88081
 30
0.0
 11
-229.910277
 21
137.58081
 31
0.0
  0
LINE
  5
20D
100
AcDbEntity
  8
0
370
    -3
  6
Continuous
100
AcDbLine
 10
-141.83261
 20
249.580755
 30
0.0
 11
-249.256038
 21
249.580755
 31
0.0
  0
LINE
  5
20E
100
AcDbEntity
  8
0
370
    -3
  6
Continuous
100
AcDbLine
 10
-242.059238
 20
266.601983
 30
0.0
 11
-243.56171
 21
258.081038
 31
0.0
  0
LINE
  5
20F
100
AcDbEntity
  8
0
370
    -3
  6
Continuous
100
AcDbLine
 10
-242.147401
 20
266.101983
 30
0.0
 11
-243.56171
 21
258.081038
 31
0.0
  0
ARC
  5
210
100
AcDbEntity
  8
0
370
    -3
  6
Continuous
100
AcDbCircle
 10
-141.83261
 20
248.580755
 30
0.0
 40
1.0
100
AcDbArc
 50
1.0
 51
90.0
  0
ARC
  5
211
100
AcDbEntity
  8
0
370
    -3
  6
Continuous
100
AcDbCircle
 10
-239.104815
 20
266.081038
 30
0.0
 40
3.0
100
AcDbArc
 50
90.0
 51
170.0
  0
LINE
  5
212
100
AcDbEntity
  8
0
370
    -3
  6
Continuous
100
AcDbLine
 10
-229.810277
 20
271.581038
 30
0.0
 11
-230.210277
 21
271.181038
 31
0.0
  0
LINE
  5
213
100
AcDbEntity
  8
0
370
    -3
  6
Continuous
100
AcDbLine
 10
-177.610277
 20
271.581038
 30
0.0
 11
-177.210277
 21
271.181038
 31
0.0
  0
ARC
  5
214
100
AcDbEntity
  8
0
370
    -3
  6
Continuous
100
AcDbCircle
 10
-249.256038
 20
254.580755
 30
0.0
 40
5.0
100
AcDbArc
 50
270.0
 51
350.0
  0
LINE
  5
215
100
AcDbEntity
  8
0
370
    -3
  6
Continuous
100
AcDbLine
 10
-243.56171
 20
258.081038
 30
0.0
 11
-244.331999
 21
253.712514
 31
0.0
  0
ARC
  5
216
100
AcDbEntity
  8
0
370
    -3
  6
Continuous
100
AcDbCircle
 10
-168.315739
 20
266.081038
 30
0.0
 40
3.0
100
AcDbArc
 50
10.0
 51
90.0
  0
LINE
  5
217
100
AcDbEntity
  8
0
370
    -3
  6
Continuous
100
AcDbLine
 10
-165.361316
 20
266.601983
 30
0.0
 11
-163.088555
 21
253.712514
 31
0.0
  0
ARC
  5
218
100
AcDbEntity
  8
0
370
    -3
  6
Continuous
100
AcDbCircle
 10
-158.164516
 20
254.580755
 30
0.0
 40
5.0
100
AcDbArc
 50
190.0
 51
270.0
  0
ARC
  5
219
100
AcDbEntity
  8
0
370
    -3
  6
Continuous
100
AcDbCircle
 10
-158.164516
 20
254.580755
 30
0.0
 40
5.0
100
AcDbArc
 50
190.0
 51
270.0
  0
LINE
  5
21A
100
AcDbEntity
  8
0
370
    -3
  6
Continuous
100
AcDbLine
 10
-155.906266
 20
159.581322
 30
0.0
 11
-251.514288
 21
159.581322
 31
0.0
  0
ARC
  5
21B
100
AcDbEntity
  8
0
370
    -3
  6
Continuous
100
AcDbCircle
 10
-145.037319
 20
165.581038
 30
0.0
 40
3.0
100
AcDbArc
 50
270.0
 51
359.0
  0
ARC
  5
21C
100
AcDbEntity
  8
0
370
    -3
  6
Continuous
100
AcDbCircle
 10
-150.710277
 20
159.581038
 30
0.0
 40
3.0
100
AcDbArc
 50
90.0
 51
149.996873
  0
ARC
  5
21D
100
AcDbEntity
  8
0
370
    -3
  6
Continuous
100
AcDbCircle
 10
-155.906266
 20
162.581322
 30
0.0
 40
3.0
100
AcDbArc
 50
270.0
 51
329.996873
  0
ARC
  5
21E
100
AcDbEntity
  8
0
370
    -3
  6
Continuous
100
AcDbCircle
 10
-256.710277
 20
159.581038
 30
0.0
 40
3.0
100
AcDbArc
 50
30.003127
 51
90.0
  0
ARC
  5
21F
100
AcDbEntity
  8
0
370
    -3
  6
Continuous
100
AcDbCircle
 10
-251.514288
 20
162.581322
 30
0.0
 40
3.0
100
AcDbArc
 50
210.003127
 51
270.0
  0
ARC
  5
220
100
AcDbEntity
  8
0
370
    -3
  6
Continuous
100
AcDbCircle
 10
-249.256038
 20
154.581322
 30
0.0
 40
5.0
100
AcDbArc
 50
10.0
 51
90.0
  0
ARC
  5
221
100
AcDbEntity
  8
0
370
    -3
  6
Continuous
100
AcDbCircle
 10
-158.164516
 20
154.581322
 30
0.0
 40
5.0
100
AcDbArc
 50
90.0
 51
170.0
  0
CIRCLE
  5
222
100
AcDbEntity
  8
0
370
    -3
  6
Continuous
100
AcDbCircle
 10
-152.710298
 20
149.581038
 30
0.0
 40
5.5
  0
LINE
  5
223
100
AcDbEntity
  8
0
370
    -3
  6
CENTER
100
AcDbLine
 10
-164.154605
 20
149.581038
 30
0.0
 11
-142.258107
 21
149.581038
 31
0.0
  0
LINE
  5
224
100
AcDbEntity
  8
0
370
    -3
  6
CENTER
100
AcDbLine
 10
-152.710298
 20
160.885535
 30
0.0
 11
-152.710298
 21
138.989037
 31
0.0
  0
LINE
  5
225
100
AcDbEntity
  8
0
370
    -3
  6
CENTER
100
AcDbLine
 10
-269.549749
 20
149.581038
 30
0.0
 11
-247.361298
 21
149.581038
 31
0.0
  0
LINE
  5
226
100
AcDbEntity
  8
0
370
    -3
  6
CENTER
100
AcDbLine
 10
-258.710298
 20
160.301628
 30
0.0
 11
-258.710298
 21
137.581038
 31
0.0
  0
CIRCLE
  5
227
100
AcDbEntity
  8
0
370
    -3
  6
Continuous
100
AcDbCircle
 10
-258.710298
 20
149.581038
 30
0.0
 40
5.5
  0
LINE
  5
228
100
AcDbEntity
  8
0
370
    -3
  6
CENTER
100
AcDbLine
 10
-152.710298
 20
270.951932
 30
0.0
 11
-152.710298
 21
248.179574
 31
0.0
  0
LINE
  5
229
100
AcDbEntity
  8
0
370
    -3
  6
CENTER
100
AcDbLine
 10
-163.570699
 20
259.581038
 30
0.0
 11
-141.674201
 21
259.581038
 31
0.0
  0
CIRCLE
  5
22A
100
AcDbEntity
  8
0
370
    -3
  6
Continuous
100
AcDbCircle
 10
-152.710298
 20
259.581038
 30
0.0
 40
5.5
  0
CIRCLE
  5
22B
100
AcDbEntity
  8
0
370
    -3
  6
Continuous
100
AcDbCircle
 10
-258.710298
 20
259.581038
 30
0.0
 40
5.5
  0
LINE
  5
22C
100
AcDbEntity
  8
0
370
    -3
  6
CENTER
100
AcDbLine
 10
-269.841703
 20
259.581038
 30
0.0
 11
-247.739277
 21
259.581038
 31
0.0
  0
LINE
  5
22D
100
AcDbEntity
  8
0
370
    -3
  6
CENTER
100
AcDbLine
 10
-258.710298
 20
270.951932
 30
0.0
 11
-258.710298
 21
248.471527
 31
0.0
  0
LINE
  5
22E
100
AcDbEntity
  8
0
370
    -3
  6
Continuous
100
AcDbLine
 10
-115.710277
 20
204.581038
 30
0.0
 11
-115.710277
 21
152.081038
 31
0.0
  0
LINE
  5
22F
100
AcDbEntity
  8
0
370
    -3
  6
Continuous
100
AcDbLine
 10
-115.710277
 20
204.581038
 30
0.0
 11
-115.710277
 21
257.081038
 31
0.0
  0
LINE
  5
230
100
AcDbEntity
  8
0
370
    -3
  6
Continuous
100
AcDbLine
 10
-115.710277
 20
204.581038
 30
0.0
 11
-115.710277
 21
257.081038
 31
0.0
  0
LINE
  5
231
100
AcDbEntity
  8
0
370
    -3
  6
Continuous
100
AcDbLine
 10
-115.710277
 20
204.581038
 30
0.0
 11
-115.710277
 21
152.081038
 31
0.0
  0
LINE
  5
232
100
AcDbEntity
  8
0
370
    -3
  6
Continuous
100
AcDbLine
 10
-115.710277
 20
204.581038
 30
0.0
 11
-115.710277
 21
258.081038
 31
0.0
  0
LINE
  5
233
100
AcDbEntity
  8
0
370
    -3
  6
Continuous
100
AcDbLine
 10
-115.710277
 20
204.581038
 30
0.0
 11
-115.710277
 21
151.081038
 31
0.0
  0
INSERT
  5
23F
100
AcDbEntity
  8
0
100
AcDbBlockReference
  2
ZU_SYM__USERS_HOME_SYMBOL_STD_SYM_B01_00004-1
 10
152.691734
 20
-107.348994
 30
0.0
 41
-1.0
 50
90.0
  0
INSERT
  5
24B
100
AcDbEntity
  8
0
100
AcDbBlockReference
  2
ZU_SYM__USERS_HOME_SYMBOL_STD_SYM_B01_00005-1
 10
231.887694
 20
-28.153035
 30
0.0
 41
-1.0
 50
270.0
  0
INSERT
  5
257
100
AcDbEntity
  8
0
100
AcDbBlockReference
  2
ZU_SYM__USERS_HOME_SYMBOL_STD_SYM_B01_00006-1
 10
231.887694
 20
-107.348994
 30
0.0
 50
270.0
  0
INSERT
  5
263
100
AcDbEntity
  8
0
100
AcDbBlockReference
  2
ZU_SYM__USERS_HOME_SYMBOL_STD_SYM_B01_00007-1
 10
152.691734
 20
-28.153035
 30
0.0
 50
90.0
  0
ARC
  5
264
100
AcDbEntity
  8
0
370
    -3
  6
Continuous
100
AcDbCircle
 10
142.289714
 20
-44.251014
 30
0.0
 40
1.0
100
AcDbArc
 50
93.0
 51
267.0
  0
ARC
  5
265
100
AcDbEntity
  8
0
370
    -3
  6
Continuous
100
AcDbCircle
 10
145.439439
 20
-41.918829
 30
0.0
 40
1.0
100
AcDbArc
 50
331.128648
 51
87.0
  0
LINE
  5
266
100
AcDbEntity
  8
0
370
    -3
  6
Continuous
100
AcDbLine
 10
145.398858
 20
-43.086699
 30
0.0
 11
142.237378
 21
-43.252385
 31
0.0
  0
ARC
  5
267
100
AcDbEntity
  8
0
370
    -3
  6
Continuous
100
AcDbCircle
 10
145.346522
 20
-42.088069
 30
0.0
 40
1.0
100
AcDbArc
 50
273.0
 51
331.335416
  0
ARC
  5
268
100
AcDbEntity
  8
0
370
    -3
  6
Continuous
100
AcDbCircle
 10
143.276064
 20
-46.305452
 30
0.0
 40
1.0
100
AcDbArc
 50
336.36857
 51
87.0
  0
ARC
  5
269
100
AcDbEntity
  8
0
370
    -3
  6
Continuous
100
AcDbCircle
 10
141.603367
 20
-50.629559
 30
0.0
 40
1.0
100
AcDbArc
 50
341.335429
 51
69.929668
  0
ARC
  5
26A
100
AcDbEntity
  8
0
370
    -3
  6
Continuous
100
AcDbCircle
 10
143.102899
 20
-46.705653
 30
0.0
 40
1.0
100
AcDbArc
 50
273.0
 51
336.835568
  0
LINE
  5
26B
100
AcDbEntity
  8
0
370
    -3
  6
Continuous
100
AcDbLine
 10
143.155235
 20
-47.704282
 30
0.0
 11
142.237378
 21
-47.752385
 31
0.0
  0
ARC
  5
26C
100
AcDbEntity
  8
0
370
    -3
  6
Continuous
100
AcDbCircle
 10
142.289714
 20
-48.751014
 30
0.0
 40
1.0
100
AcDbArc
 50
93.0
 51
249.929668
  0
LINE
  5
26D
100
AcDbEntity
  8
0
370
    -3
  6
Continuous
100
AcDbLine
 10
143.3284
 20
-45.306822
 30
0.0
 11
142.237378
 21
-45.249644
 31
0.0
  0
ARC
  5
26E
100
AcDbEntity
  8
0
370
    -3
  6
Continuous
100
AcDbCircle
 10
142.289714
 20
-39.751014
 30
0.0
 40
1.0
100
AcDbArc
 50
93.0
 51
267.0
  0
LINE
  5
26F
100
AcDbEntity
  8
0
370
    -3
  6
Continuous
100
AcDbLine
 10
145.491775
 20
-40.9202
 30
0.0
 11
142.237378
 21
-40.749644
 31
0.0
  0
ARC
  5
270
100
AcDbEntity
  8
0
370
    -3
  6
Continuous
100
AcDbCircle
 10
142.789714
 20
-35.251014
 30
0.0
 40
1.0
100
AcDbArc
 50
93.0
 51
267.0
  0
LINE
  5
271
100
AcDbEntity
  8
0
370
    -3
  6
Continuous
100
AcDbLine
 10
148.192399
 20
-36.53553
 30
0.0
 11
142.737378
 21
-36.249644
 31
0.0
  0
LINE
  5
272
100
AcDbEntity
  8
0
370
    -3
  6
Continuous
100
AcDbLine
 10
148.258217
 20
-38.436846
 30
0.0
 11
142.237378
 21
-38.752385
 31
0.0
  0
ARC
  5
273
100
AcDbEntity
  8
0
370
    -3
  6
Continuous
100
AcDbCircle
 10
192.289714
 20
-67.751014
 30
0.0
 40
52.5
100
AcDbArc
 50
118.562834
 51
118.973449
  0
ARC
  5
274
100
AcDbEntity
  8
0
370
    -3
  6
Continuous
100
AcDbCircle
 10
192.289714
 20
-67.751014
 30
0.0
 40
52.5
100
AcDbArc
 50
118.562834
 51
118.973449
  0
LINE
  5
275
100
AcDbEntity
  8
0
370
    -3
  6
Continuous
100
AcDbLine
 10
161.074229
 20
-23.6537
 30
0.0
 11
160.788343
 21
-18.198679
 31
0.0
  0
LINE
  5
276
100
AcDbEntity
  8
0
370
    -3
  6
Continuous
100
AcDbLine
 10
162.975545
 20
-23.719518
 30
0.0
 11
163.291084
 21
-17.698679
 31
0.0
  0
ARC
  5
277
100
AcDbEntity
  8
0
370
    -3
  6
Continuous
100
AcDbCircle
 10
166.457529
 20
-20.90074
 30
0.0
 40
1.0
100
AcDbArc
 50
183.0
 51
298.871352
  0
ARC
  5
278
100
AcDbEntity
  8
0
370
    -3
  6
Continuous
100
AcDbCircle
 10
166.626769
 20
-20.807823
 30
0.0
 40
1.0
100
AcDbArc
 50
298.664584
 51
357.0
  0
ARC
  5
279
100
AcDbEntity
  8
0
370
    -3
  6
Continuous
100
AcDbCircle
 10
162.072858
 20
-23.601364
 30
0.0
 40
1.0
100
AcDbArc
 50
183.0
 51
304.388476
  0
ARC
  5
27A
100
AcDbEntity
  8
0
370
    -3
  6
Continuous
100
AcDbCircle
 10
161.976916
 20
-23.667182
 30
0.0
 40
1.0
100
AcDbArc
 50
304.513079
 51
357.0
  0
ARC
  5
27B
100
AcDbEntity
  8
0
370
    -3
  6
Continuous
100
AcDbCircle
 10
146.908767
 20
-27.74077
 30
0.0
 40
1.0
100
AcDbArc
 50
138.598894
 51
222.0
  0
LINE
  5
27C
100
AcDbEntity
  8
0
370
    -3
  6
Continuous
100
AcDbLine
 10
148.941013
 20
-33.927266
 30
0.0
 11
142.737378
 21
-34.252385
 31
0.0
  0
ARC
  5
27D
100
AcDbEntity
  8
0
370
    -3
  6
Continuous
100
AcDbCircle
 10
148.888677
 20
-32.928637
 30
0.0
 40
1.0
100
AcDbArc
 50
273.0
 51
42.0
  0
ARC
  5
27E
100
AcDbEntity
  8
0
370
    -3
  6
Continuous
100
AcDbCircle
 10
152.27947
 20
-22.370067
 30
0.0
 40
1.0
100
AcDbArc
 50
48.0
 51
131.401106
  0
ARC
  5
27F
100
AcDbEntity
  8
0
370
    -3
  6
Continuous
100
AcDbCircle
 10
192.289714
 20
-67.751014
 30
0.0
 40
61.5
100
AcDbArc
 50
131.401106
 51
138.598894
  0
LINE
  5
280
100
AcDbEntity
  8
0
370
    -3
  6
Continuous
100
AcDbLine
 10
158.465965
 20
-24.402314
 30
0.0
 11
158.791084
 21
-18.198679
 31
0.0
  0
ARC
  5
281
100
AcDbEntity
  8
0
370
    -3
  6
Continuous
100
AcDbCircle
 10
157.467336
 20
-24.349978
 30
0.0
 40
1.0
100
AcDbArc
 50
228.0
 51
357.0
  0
LINE
  5
282
100
AcDbEntity
  8
0
370
    -3
  6
Continuous
100
AcDbLine
 10
220.488355
 20
-31.65965
 30
0.0
 11
231.630827
 21
-21.626923
 31
0.0
  0
LINE
  5
283
100
AcDbEntity
  8
0
370
    -3
  6
Continuous
100
AcDbLine
 10
228.381079
 20
-39.552373
 30
0.0
 11
238.413806
 21
-28.409901
 31
0.0
  0
ARC
  5
284
100
AcDbEntity
  8
0
370
    -3
  6
Continuous
100
AcDbCircle
 10
192.289714
 20
-67.751014
 30
0.0
 40
52.5
100
AcDbArc
 50
23.136889
 51
23.663705
  0
ARC
  5
285
100
AcDbEntity
  8
0
370
    -3
  6
Continuous
100
AcDbCircle
 10
236.373546
 20
-37.438217
 30
0.0
 40
1.0
100
AcDbArc
 50
217.785803
 51
267.0
  0
ARC
  5
286
100
AcDbEntity
  8
0
370
    -3
  6
Continuous
100
AcDbCircle
 10
236.439364
 20
-37.534159
 30
0.0
 40
1.0
100
AcDbArc
 50
93.0
 51
211.115753
  0
ARC
  5
287
100
AcDbEntity
  8
0
370
    -3
  6
Continuous
100
AcDbCircle
 10
243.26765
 20
-53.251014
 30
0.0
 40
0.5
100
AcDbArc
 50
195.877702
 51
270.0
  0
LINE
  5
288
100
AcDbEntity
  8
0
370
    -3
  6
Continuous
100
AcDbLine
 10
243.369631
 20
-53.751014
 30
0.0
 11
243.26765
 21
-53.751014
 31
0.0
  0
ARC
  5
289
100
AcDbEntity
  8
0
370
    -3
  6
Continuous
100
AcDbCircle
 10
243.369631
 20
-54.251014
 30
0.0
 40
0.5
100
AcDbArc
 50
7.79785
 51
90.0
  0
ARC
  5
28A
100
AcDbEntity
  8
0
370
    -3
  6
Continuous
100
AcDbCircle
 10
192.289714
 20
-67.751014
 30
0.0
 40
52.5
100
AcDbArc
 50
15.877702
 51
18.664571
  0
ARC
  5
28B
100
AcDbEntity
  8
0
370
    -3
  6
Continuous
100
AcDbCircle
 10
192.289714
 20
-67.751014
 30
0.0
 40
52.5
100
AcDbArc
 50
28.562834
 51
28.973449
  0
ARC
  5
28C
100
AcDbEntity
  8
0
370
    -3
  6
Continuous
100
AcDbCircle
 10
242.289714
 20
-44.251014
 30
0.0
 40
1.0
100
AcDbArc
 50
273.0
 51
87.0
  0
ARC
  5
28D
100
AcDbEntity
  8
0
370
    -3
  6
Continuous
100
AcDbCircle
 10
239.139988
 20
-41.918829
 30
0.0
 40
1.0
100
AcDbArc
 50
93.0
 51
208.871352
  0
LINE
  5
28E
100
AcDbEntity
  8
0
370
    -3
  6
Continuous
100
AcDbLine
 10
239.180569
 20
-43.086699
 30
0.0
 11
242.34205
 21
-43.252385
 31
0.0
  0
ARC
  5
28F
100
AcDbEntity
  8
0
370
    -3
  6
Continuous
100
AcDbCircle
 10
239.232905
 20
-42.088069
 30
0.0
 40
1.0
100
AcDbArc
 50
208.664584
 51
267.0
  0
ARC
  5
290
100
AcDbEntity
  8
0
370
    -3
  6
Continuous
100
AcDbCircle
 10
241.303363
 20
-46.305452
 30
0.0
 40
1.0
100
AcDbArc
 50
93.0
 51
203.63143
  0
ARC
  5
291
100
AcDbEntity
  8
0
370
    -3
  6
Continuous
100
AcDbCircle
 10
242.976061
 20
-50.629559
 30
0.0
 40
1.0
100
AcDbArc
 50
110.070332
 51
198.664571
  0
ARC
  5
292
100
AcDbEntity
  8
0
370
    -3
  6
Continuous
100
AcDbCircle
 10
241.476528
 20
-46.705653
 30
0.0
 40
1.0
100
AcDbArc
 50
203.164432
 51
267.0
  0
LINE
  5
293
100
AcDbEntity
  8
0
370
    -3
  6
Continuous
100
AcDbLine
 10
241.424193
 20
-47.704282
 30
0.0
 11
242.34205
 21
-47.752385
 31
0.0
  0
ARC
  5
294
100
AcDbEntity
  8
0
370
    -3
  6
Continuous
100
AcDbCircle
 10
242.289714
 20
-48.751014
 30
0.0
 40
1.0
100
AcDbArc
 50
290.070332
 51
87.0
  0
LINE
  5
295
100
AcDbEntity
  8
0
370
    -3
  6
Continuous
100
AcDbLine
 10
241.251027
 20
-45.306822
 30
0.0
 11
242.34205
 21
-45.249644
 31
0.0
  0
ARC
  5
296
100
AcDbEntity
  8
0
370
    -3
  6
Continuous
100
AcDbCircle
 10
242.289714
 20
-39.751014
 30
0.0
 40
1.0
100
AcDbArc
 50
273.0
 51
87.0
  0
LINE
  5
297
100
AcDbEntity
  8
0
370
    -3
  6
Continuous
100
AcDbLine
 10
239.087652
 20
-40.9202
 30
0.0
 11
242.34205
 21
-40.749644
 31
0.0
  0
ARC
  5
298
100
AcDbEntity
  8
0
370
    -3
  6
Continuous
100
AcDbCircle
 10
241.789714
 20
-35.251014
 30
0.0
 40
1.0
100
AcDbArc
 50
273.0
 51
87.0
  0
LINE
  5
299
100
AcDbEntity
  8
0
370
    -3
  6
Continuous
100
AcDbLine
 10
236.387028
 20
-36.53553
 30
0.0
 11
241.84205
 21
-36.249644
 31
0.0
  0
LINE
  5
29A
100
AcDbEntity
  8
0
370
    -3
  6
Continuous
100
AcDbLine
 10
236.32121
 20
-38.436846
 30
0.0
 11
242.34205
 21
-38.752385
 31
0.0
  0
ARC
  5
29B
100
AcDbEntity
  8
0
370
    -3
  6
Continuous
100
AcDbCircle
 10
192.289714
 20
-67.751014
 30
0.0
 40
52.5
100
AcDbArc
 50
61.026551
 51
61.437166
  0
ARC
  5
29C
100
AcDbEntity
  8
0
370
    -3
  6
Continuous
100
AcDbCircle
 10
192.289714
 20
-67.751014
 30
0.0
 40
52.5
100
AcDbArc
 50
61.026551
 51
61.437166
  0
LINE
  5
29D
100
AcDbEntity
  8
0
370
    -3
  6
Continuous
100
AcDbLine
 10
223.505199
 20
-23.6537
 30
0.0
 11
223.791084
 21
-18.198679
 31
0.0
  0
LINE
  5
29E
100
AcDbEntity
  8
0
370
    -3
  6
Continuous
100
AcDbLine
 10
221.603882
 20
-23.719518
 30
0.0
 11
221.288343
 21
-17.698679
 31
0.0
  0
ARC
  5
29F
100
AcDbEntity
  8
0
370
    -3
  6
Continuous
100
AcDbCircle
 10
218.121899
 20
-20.90074
 30
0.0
 40
1.0
100
AcDbArc
 50
241.128648
 51
357.0
  0
ARC
  5
2A0
100
AcDbEntity
  8
0
370
    -3
  6
Continuous
100
AcDbCircle
 10
217.952659
 20
-20.807823
 30
0.0
 40
1.0
100
AcDbArc
 50
183.0
 51
241.335416
  0
ARC
  5
2A1
100
AcDbEntity
  8
0
370
    -3
  6
Continuous
100
AcDbCircle
 10
222.506569
 20
-23.601364
 30
0.0
 40
1.0
100
AcDbArc
 50
235.611524
 51
357.0
  0
ARC
  5
2A2
100
AcDbEntity
  8
0
370
    -3
  6
Continuous
100
AcDbCircle
 10
222.602512
 20
-23.667182
 30
0.0
 40
1.0
100
AcDbArc
 50
183.0
 51
235.486921
  0
ARC
  5
2A3
100
AcDbEntity
  8
0
370
    -3
  6
Continuous
100
AcDbCircle
 10
237.670661
 20
-27.74077
 30
0.0
 40
1.0
100
AcDbArc
 50
318.0
 51
41.401106
  0
LINE
  5
2A4
100
AcDbEntity
  8
0
370
    -3
  6
Continuous
100
AcDbLine
 10
235.638414
 20
-33.927266
 30
0.0
 11
241.84205
 21
-34.252385
 31
0.0
  0
ARC
  5
2A5
100
AcDbEntity
  8
0
370
    -3
  6
Continuous
100
AcDbCircle
 10
235.69075
 20
-32.928637
 30
0.0
 40
1.0
100
AcDbArc
 50
138.0
 51
267.0
  0
ARC
  5
2A6
100
AcDbEntity
  8
0
370
    -3
  6
Continuous
100
AcDbCircle
 10
232.299958
 20
-22.370067
 30
0.0
 40
1.0
100
AcDbArc
 50
48.598894
 51
132.0
  0
ARC
  5
2A7
100
AcDbEntity
  8
0
370
    -3
  6
Continuous
100
AcDbCircle
 10
192.289714
 20
-67.751014
 30
0.0
 40
61.5
100
AcDbArc
 50
41.401106
 51
48.598894
  0
LINE
  5
2A8
100
AcDbEntity
  8
0
370
    -3
  6
Continuous
100
AcDbLine
 10
226.113462
 20
-24.402314
 30
0.0
 11
225.788343
 21
-18.198679
 31
0.0
  0
ARC
  5
2A9
100
AcDbEntity
  8
0
370
    -3
  6
Continuous
100
AcDbCircle
 10
227.112092
 20
-24.349978
 30
0.0
 40
1.0
100
AcDbArc
 50
183.0
 51
312.0
  0
LINE
  5
2AA
100
AcDbEntity
  8
0
370
    -3
  6
Continuous
100
AcDbLine
 10
172.989714
 20
-14.251014
 30
0.0
 11
192.289714
 21
-14.251014
 31
0.0
  0
ARC
  5
2AB
100
AcDbEntity
  8
0
370
    -3
  6
Continuous
100
AcDbCircle
 10
172.989714
 20
-14.951014
 30
0.0
 40
0.7
100
AcDbArc
 50
90.0
 51
180.0
  0
LINE
  5
2AC
100
AcDbEntity
  8
0
370
    -3
  6
Continuous
100
AcDbLine
 10
172.289714
 20
-14.951014
 30
0.0
 11
172.289714
 21
-18.544816
 31
0.0
  0
ARC
  5
2AD
100
AcDbEntity
  8
0
370
    -3
  6
Continuous
100
AcDbCircle
 10
192.289714
 20
-67.751014
 30
0.0
 40
52.5
100
AcDbArc
 50
113.111602
 51
113.695081
  0
ARC
  5
2AE
100
AcDbEntity
  8
0
370
    -3
  6
Continuous
100
AcDbCircle
 10
171.289714
 20
-18.544816
 30
0.0
 40
1.0
100
AcDbArc
 50
293.111602
 51
0.0
  0
ARC
  5
2AF
100
AcDbEntity
  8
0
370
    -3
  6
Continuous
100
AcDbCircle
 10
192.289714
 20
-67.751014
 30
0.0
 40
52.5
100
AcDbArc
 50
113.111602
 51
113.663705
  0
ARC
  5
2B0
100
AcDbEntity
  8
0
370
    -3
  6
Continuous
100
AcDbCircle
 10
159.789714
 20
-18.251014
 30
0.0
 40
1.0
100
AcDbArc
 50
3.0
 51
177.0
  0
ARC
  5
2B1
100
AcDbEntity
  8
0
370
    -3
  6
Continuous
100
AcDbCircle
 10
164.289714
 20
-17.751014
 30
0.0
 40
1.0
100
AcDbArc
 50
3.0
 51
177.0
  0
LINE
  5
2B2
100
AcDbEntity
  8
0
370
    -3
  6
Continuous
100
AcDbLine
 10
165.458899
 20
-20.953076
 30
0.0
 11
165.288343
 21
-17.698679
 31
0.0
  0
LINE
  5
2B3
100
AcDbEntity
  8
0
370
    -3
  6
Continuous
100
AcDbLine
 10
167.625398
 20
-20.860159
 30
0.0
 11
167.791084
 21
-17.698679
 31
0.0
  0
ARC
  5
2B4
100
AcDbEntity
  8
0
370
    -3
  6
Continuous
100
AcDbCircle
 10
168.789714
 20
-17.751014
 30
0.0
 40
1.0
100
AcDbArc
 50
3.0
 51
177.0
  0
ARC
  5
2B5
100
AcDbEntity
  8
0
370
    -3
  6
Continuous
100
AcDbCircle
 10
170.844151
 20
-18.737365
 30
0.0
 40
1.0
100
AcDbArc
 50
183.0
 51
293.63143
  0
LINE
  5
2B6
100
AcDbEntity
  8
0
370
    -3
  6
Continuous
100
AcDbLine
 10
169.845521
 20
-18.789701
 30
0.0
 11
169.788343
 21
-17.698679
 31
0.0
  0
LINE
  5
2B7
100
AcDbEntity
  8
0
370
    -3
  6
Continuous
100
AcDbLine
 10
211.589714
 20
-14.251014
 30
0.0
 11
192.289714
 21
-14.251014
 31
0.0
  0
ARC
  5
2B8
100
AcDbEntity
  8
0
370
    -3
  6
Continuous
100
AcDbCircle
 10
211.589714
 20
-14.951014
 30
0.0
 40
0.7
100
AcDbArc
 50
0.0
 51
90.0
  0
LINE
  5
2B9
100
AcDbEntity
  8
0
370
    -3
  6
Continuous
100
AcDbLine
 10
212.289714
 20
-14.951014
 30
0.0
 11
212.289714
 21
-18.544816
 31
0.0
  0
ARC
  5
2BA
100
AcDbEntity
  8
0
370
    -3
  6
Continuous
100
AcDbCircle
 10
192.289714
 20
-67.751014
 30
0.0
 40
52.5
100
AcDbArc
 50
66.304919
 51
66.888398
  0
ARC
  5
2BB
100
AcDbEntity
  8
0
370
    -3
  6
Continuous
100
AcDbCircle
 10
213.289714
 20
-18.544816
 30
0.0
 40
1.0
100
AcDbArc
 50
180.0
 51
246.888398
  0
ARC
  5
2BC
100
AcDbEntity
  8
0
370
    -3
  6
Continuous
100
AcDbCircle
 10
192.289714
 20
-67.751014
 30
0.0
 40
52.5
100
AcDbArc
 50
66.336295
 51
66.888398
  0
ARC
  5
2BD
100
AcDbEntity
  8
0
370
    -3
  6
Continuous
100
AcDbCircle
 10
224.789714
 20
-18.251014
 30
0.0
 40
1.0
100
AcDbArc
 50
3.0
 51
177.0
  0
ARC
  5
2BE
100
AcDbEntity
  8
0
370
    -3
  6
Continuous
100
AcDbCircle
 10
220.289714
 20
-17.751014
 30
0.0
 40
1.0
100
AcDbArc
 50
3.0
 51
177.0
  0
LINE
  5
2BF
100
AcDbEntity
  8
0
370
    -3
  6
Continuous
100
AcDbLine
 10
219.120529
 20
-20.953076
 30
0.0
 11
219.291084
 21
-17.698679
 31
0.0
  0
LINE
  5
2C0
100
AcDbEntity
  8
0
370
    -3
  6
Continuous
100
AcDbLine
 10
216.954029
 20
-20.860159
 30
0.0
 11
216.788343
 21
-17.698679
 31
0.0
  0
ARC
  5
2C1
100
AcDbEntity
  8
0
370
    -3
  6
Continuous
100
AcDbCircle
 10
215.789714
 20
-17.751014
 30
0.0
 40
1.0
100
AcDbArc
 50
3.0
 51
177.0
  0
LINE
  5
2C2
100
AcDbEntity
  8
0
370
    -3
  6
Continuous
100
AcDbLine
 10
220.488355
 20
-103.842379
 30
0.0
 11
231.630827
 21
-113.875106
 31
0.0
  0
ARC
  5
2C3
100
AcDbEntity
  8
0
370
    -3
  6
Continuous
100
AcDbCircle
 10
213.735277
 20
-18.737365
 30
0.0
 40
1.0
100
AcDbArc
 50
246.36857
 51
357.0
  0
LINE
  5
2C4
100
AcDbEntity
  8
0
370
    -3
  6
Continuous
100
AcDbLine
 10
214.733906
 20
-18.789701
 30
0.0
 11
214.791084
 21
-17.698679
 31
0.0
  0
LINE
  5
2C5
100
AcDbEntity
  8
0
370
    -3
  6
Continuous
100
AcDbLine
 10
228.381079
 20
-95.949656
 30
0.0
 11
238.413806
 21
-107.092128
 31
0.0
  0
ARC
  5
2C6
100
AcDbEntity
  8
0
370
    -3
  6
Continuous
100
AcDbCircle
 10
192.289714
 20
-67.751014
 30
0.0
 40
52.5
100
AcDbArc
 50
336.336295
 51
336.863111
  0
ARC
  5
2C7
100
AcDbEntity
  8
0
370
    -3
  6
Continuous
100
AcDbCircle
 10
236.373546
 20
-98.063812
 30
0.0
 40
1.0
100
AcDbArc
 50
93.0
 51
142.214197
  0
LINE
  5
2C8
100
AcDbEntity
  8
0
370
    -3
  6
Continuous
100
AcDbLine
 10
173.539714
 20
-121.251014
 30
0.0
 11
211.039714
 21
-121.251014
 31
0.0
  0
ARC
  5
2C9
100
AcDbEntity
  8
0
370
    -3
  6
Continuous
100
AcDbCircle
 10
236.439364
 20
-97.96787
 30
0.0
 40
1.0
100
AcDbArc
 50
148.884247
 51
267.0
  0
ARC
  5
2CA
100
AcDbEntity
  8
0
370
    -3
  6
Continuous
100
AcDbCircle
 10
243.26765
 20
-82.251014
 30
0.0
 40
0.5
100
AcDbArc
 50
90.0
 51
164.122298
  0
LINE
  5
2CB
100
AcDbEntity
  8
0
370
    -3
  6
Continuous
100
AcDbLine
 10
243.369631
 20
-81.751014
 30
0.0
 11
243.26765
 21
-81.751014
 31
0.0
  0
ARC
  5
2CC
100
AcDbEntity
  8
0
370
    -3
  6
Continuous
100
AcDbCircle
 10
243.369631
 20
-81.251014
 30
0.0
 40
0.5
100
AcDbArc
 50
270.0
 51
352.20215
  0
ARC
  5
2CD
100
AcDbEntity
  8
0
370
    -3
  6
Continuous
100
AcDbCircle
 10
144.789714
 20
-67.751014
 30
0.0
 40
100.0
100
AcDbArc
 50
352.20215
 51
0.0
  0
ARC
  5
2CE
100
AcDbEntity
  8
0
370
    -3
  6
Continuous
100
AcDbCircle
 10
192.289714
 20
-67.751014
 30
0.0
 40
52.5
100
AcDbArc
 50
341.335429
 51
344.122298
  0
ARC
  5
2CF
100
AcDbEntity
  8
0
370
    -3
  6
Continuous
100
AcDbCircle
 10
192.289714
 20
-67.751014
 30
0.0
 40
52.5
100
AcDbArc
 50
331.026551
 51
331.437166
  0
ARC
  5
2D0
100
AcDbEntity
  8
0
370
    -3
  6
Continuous
100
AcDbCircle
 10
242.289714
 20
-91.251014
 30
0.0
 40
1.0
100
AcDbArc
 50
273.0
 51
87.0
  0
ARC
  5
2D1
100
AcDbEntity
  8
0
370
    -3
  6
Continuous
100
AcDbCircle
 10
239.139988
 20
-93.5832
 30
0.0
 40
1.0
100
AcDbArc
 50
151.128648
 51
267.0
  0
LINE
  5
2D2
100
AcDbEntity
  8
0
370
    -3
  6
Continuous
100
AcDbLine
 10
239.180569
 20
-92.41533
 30
0.0
 11
242.34205
 21
-92.249644
 31
0.0
  0
ARC
  5
2D3
100
AcDbEntity
  8
0
370
    -3
  6
Continuous
100
AcDbCircle
 10
239.232905
 20
-93.41396
 30
0.0
 40
1.0
100
AcDbArc
 50
93.0
 51
151.335416
  0
ARC
  5
2D4
100
AcDbEntity
  8
0
370
    -3
  6
Continuous
100
AcDbCircle
 10
241.303363
 20
-89.196577
 30
0.0
 40
1.0
100
AcDbArc
 50
156.36857
 51
267.0
  0
ARC
  5
2D5
100
AcDbEntity
  8
0
370
    -3
  6
Continuous
100
AcDbCircle
 10
242.976061
 20
-84.87247
 30
0.0
 40
1.0
100
AcDbArc
 50
161.335429
 51
249.929668
  0
ARC
  5
2D6
100
AcDbEntity
  8
0
370
    -3
  6
Continuous
100
AcDbCircle
 10
241.476528
 20
-88.796376
 30
0.0
 40
1.0
100
AcDbArc
 50
93.0
 51
156.835568
  0
LINE
  5
2D7
100
AcDbEntity
  8
0
370
    -3
  6
Continuous
100
AcDbLine
 10
241.424193
 20
-87.797747
 30
0.0
 11
242.34205
 21
-87.749644
 31
0.0
  0
ARC
  5
2D8
100
AcDbEntity
  8
0
370
    -3
  6
Continuous
100
AcDbCircle
 10
242.289714
 20
-86.751014
 30
0.0
 40
1.0
100
AcDbArc
 50
273.0
 51
69.929668
  0
LINE
  5
2D9
100
AcDbEntity
  8
0
370
    -3
  6
Continuous
100
AcDbLine
 10
241.251027
 20
-90.195207
 30
0.0
 11
242.34205
 21
-90.252385
 31
0.0
  0
ARC
  5
2DA
100
AcDbEntity
  8
0
370
    -3
  6
Continuous
100
AcDbCircle
 10
242.289714
 20
-95.751014
 30
0.0
 40
1.0
100
AcDbArc
 50
273.0
 51
87.0
  0
LINE
  5
2DB
100
AcDbEntity
  8
0
370
    -3
  6
Continuous
100
AcDbLine
 10
239.087652
 20
-94.581829
 30
0.0
 11
242.34205
 21
-94.752385
 31
0.0
  0
ARC
  5
2DC
100
AcDbEntity
  8
0
370
    -3
  6
Continuous
100
AcDbCircle
 10
241.789714
 20
-100.251014
 30
0.0
 40
1.0
100
AcDbArc
 50
273.0
 51
87.0
  0
LINE
  5
2DD
100
AcDbEntity
  8
0
370
    -3
  6
Continuous
100
AcDbLine
 10
236.387028
 20
-98.966499
 30
0.0
 11
241.84205
 21
-99.252385
 31
0.0
  0
LINE
  5
2DE
100
AcDbEntity
  8
0
370
    -3
  6
Continuous
100
AcDbLine
 10
236.32121
 20
-97.065183
 30
0.0
 11
242.34205
 21
-96.749644
 31
0.0
  0
LINE
  5
2DF
100
AcDbEntity
  8
0
370
    -3
  6
Continuous
100
AcDbLine
 10
211.589714
 20
-121.251014
 30
0.0
 11
192.289714
 21
-121.251014
 31
0.0
  0
ARC
  5
2E0
100
AcDbEntity
  8
0
370
    -3
  6
Continuous
100
AcDbCircle
 10
211.589714
 20
-120.551014
 30
0.0
 40
0.7
100
AcDbArc
 50
270.0
 51
0.0
  0
LINE
  5
2E1
100
AcDbEntity
  8
0
370
    -3
  6
Continuous
100
AcDbLine
 10
212.289714
 20
-120.551014
 30
0.0
 11
212.289714
 21
-116.957213
 31
0.0
  0
ARC
  5
2E2
100
AcDbEntity
  8
0
370
    -3
  6
Continuous
100
AcDbCircle
 10
192.289714
 20
-67.751014
 30
0.0
 40
52.5
100
AcDbArc
 50
293.111602
 51
293.695081
  0
ARC
  5
2E3
100
AcDbEntity
  8
0
370
    -3
  6
Continuous
100
AcDbCircle
 10
213.289714
 20
-116.957213
 30
0.0
 40
1.0
100
AcDbArc
 50
113.111602
 51
180.0
  0
ARC
  5
2E4
100
AcDbEntity
  8
0
370
    -3
  6
Continuous
100
AcDbCircle
 10
192.289714
 20
-67.751014
 30
0.0
 40
52.5
100
AcDbArc
 50
293.111602
 51
293.663705
  0
ARC
  5
2E5
100
AcDbEntity
  8
0
370
    -3
  6
Continuous
100
AcDbCircle
 10
192.289714
 20
-67.751014
 30
0.0
 40
52.5
100
AcDbArc
 50
298.562834
 51
298.973449
  0
ARC
  5
2E6
100
AcDbEntity
  8
0
370
    -3
  6
Continuous
100
AcDbCircle
 10
192.289714
 20
-67.751014
 30
0.0
 40
52.5
100
AcDbArc
 50
298.562834
 51
298.973449
  0
ARC
  5
2E7
100
AcDbEntity
  8
0
370
    -3
  6
Continuous
100
AcDbCircle
 10
224.789714
 20
-117.251014
 30
0.0
 40
1.0
100
AcDbArc
 50
183.0
 51
357.0
  0
ARC
  5
2E8
100
AcDbEntity
  8
0
370
    -3
  6
Continuous
100
AcDbCircle
 10
220.289714
 20
-117.751014
 30
0.0
 40
1.0
100
AcDbArc
 50
183.0
 51
357.0
  0
LINE
  5
2E9
100
AcDbEntity
  8
0
370
    -3
  6
Continuous
100
AcDbLine
 10
223.505199
 20
-111.848329
 30
0.0
 11
223.791084
 21
-117.30335
 31
0.0
  0
LINE
  5
2EA
100
AcDbEntity
  8
0
370
    -3
  6
Continuous
100
AcDbLine
 10
221.603882
 20
-111.782511
 30
0.0
 11
221.288343
 21
-117.80335
 31
0.0
  0
LINE
  5
2EB
100
AcDbEntity
  8
0
370
    -3
  6
Continuous
100
AcDbLine
 10
219.120529
 20
-114.548953
 30
0.0
 11
219.291084
 21
-117.80335
 31
0.0
  0
ARC
  5
2EC
100
AcDbEntity
  8
0
370
    -3
  6
Continuous
100
AcDbCircle
 10
218.121899
 20
-114.601289
 30
0.0
 40
1.0
100
AcDbArc
 50
3.0
 51
118.871352
  0
LINE
  5
2ED
100
AcDbEntity
  8
0
370
    -3
  6
Continuous
100
AcDbLine
 10
216.954029
 20
-114.64187
 30
0.0
 11
216.788343
 21
-117.80335
 31
0.0
  0
ARC
  5
2EE
100
AcDbEntity
  8
0
370
    -3
  6
Continuous
100
AcDbCircle
 10
217.952659
 20
-114.694206
 30
0.0
 40
1.0
100
AcDbArc
 50
118.664584
 51
177.0
  0
ARC
  5
2EF
100
AcDbEntity
  8
0
370
    -3
  6
Continuous
100
AcDbCircle
 10
215.789714
 20
-117.751014
 30
0.0
 40
1.0
100
AcDbArc
 50
183.0
 51
357.0
  0
ARC
  5
2F0
100
AcDbEntity
  8
0
370
    -3
  6
Continuous
100
AcDbCircle
 10
213.735277
 20
-116.764664
 30
0.0
 40
1.0
100
AcDbArc
 50
3.0
 51
113.63143
  0
LINE
  5
2F1
100
AcDbEntity
  8
0
370
    -3
  6
Continuous
100
AcDbLine
 10
214.733906
 20
-116.712328
 30
0.0
 11
214.791084
 21
-117.80335
 31
0.0
  0
ARC
  5
2F2
100
AcDbEntity
  8
0
370
    -3
  6
Continuous
100
AcDbCircle
 10
222.506569
 20
-111.900665
 30
0.0
 40
1.0
100
AcDbArc
 50
3.0
 51
124.388476
  0
ARC
  5
2F3
100
AcDbEntity
  8
0
370
    -3
  6
Continuous
100
AcDbCircle
 10
222.602512
 20
-111.834847
 30
0.0
 40
1.0
100
AcDbArc
 50
124.513079
 51
177.0
  0
ARC
  5
2F4
100
AcDbEntity
  8
0
370
    -3
  6
Continuous
100
AcDbCircle
 10
237.670661
 20
-107.761259
 30
0.0
 40
1.0
100
AcDbArc
 50
318.598894
 51
42.0
  0
LINE
  5
2F5
100
AcDbEntity
  8
0
370
    -3
  6
Continuous
100
AcDbLine
 10
235.638414
 20
-101.574763
 30
0.0
 11
241.84205
 21
-101.249644
 31
0.0
  0
ARC
  5
2F6
100
AcDbEntity
  8
0
370
    -3
  6
Continuous
100
AcDbCircle
 10
235.69075
 20
-102.573392
 30
0.0
 40
1.0
100
AcDbArc
 50
93.0
 51
222.0
  0
ARC
  5
2F7
100
AcDbEntity
  8
0
370
    -3
  6
Continuous
100
AcDbCircle
 10
232.299958
 20
-113.131962
 30
0.0
 40
1.0
100
AcDbArc
 50
228.0
 51
311.401106
  0
ARC
  5
2F8
100
AcDbEntity
  8
0
370
    -3
  6
Continuous
100
AcDbCircle
 10
192.289714
 20
-67.751014
 30
0.0
 40
61.5
100
AcDbArc
 50
311.401106
 51
318.598894
  0
LINE
  5
2F9
100
AcDbEntity
  8
0
370
    -3
  6
Continuous
100
AcDbLine
 10
226.113462
 20
-111.099715
 30
0.0
 11
225.788343
 21
-117.30335
 31
0.0
  0
ARC
  5
2FA
100
AcDbEntity
  8
0
370
    -3
  6
Continuous
100
AcDbCircle
 10
227.112092
 20
-111.152051
 30
0.0
 40
1.0
100
AcDbArc
 50
48.0
 51
177.0
  0
LINE
  5
2FB
100
AcDbEntity
  8
0
370
    -3
  6
Continuous
100
AcDbLine
 10
164.091072
 20
-103.842379
 30
0.0
 11
152.9486
 21
-113.875106
 31
0.0
  0
LINE
  5
2FC
100
AcDbEntity
  8
0
370
    -3
  6
Continuous
100
AcDbLine
 10
156.198349
 20
-95.949656
 30
0.0
 11
146.165622
 21
-107.092128
 31
0.0
  0
ARC
  5
2FD
100
AcDbEntity
  8
0
370
    -3
  6
Continuous
100
AcDbCircle
 10
192.289714
 20
-67.751014
 30
0.0
 40
52.5
100
AcDbArc
 50
203.136889
 51
203.663705
  0
ARC
  5
2FE
100
AcDbEntity
  8
0
370
    -3
  6
Continuous
100
AcDbCircle
 10
148.205881
 20
-98.063812
 30
0.0
 40
1.0
100
AcDbArc
 50
37.785803
 51
87.0
  0
ARC
  5
2FF
100
AcDbEntity
  8
0
370
    -3
  6
Continuous
100
AcDbCircle
 10
148.140063
 20
-97.96787
 30
0.0
 40
1.0
100
AcDbArc
 50
273.0
 51
31.115753
  0
ARC
  5
300
100
AcDbEntity
  8
0
370
    -3
  6
Continuous
100
AcDbCircle
 10
141.311777
 20
-82.251014
 30
0.0
 40
0.5
100
AcDbArc
 50
15.877702
 51
90.0
  0
LINE
  5
301
100
AcDbEntity
  8
0
370
    -3
  6
Continuous
100
AcDbLine
 10
141.209797
 20
-81.751014
 30
0.0
 11
141.311777
 21
-81.751014
 31
0.0
  0
ARC
  5
302
100
AcDbEntity
  8
0
370
    -3
  6
Continuous
100
AcDbCircle
 10
141.209797
 20
-81.251014
 30
0.0
 40
0.5
100
AcDbArc
 50
187.79785
 51
270.0
  0
ARC
  5
303
100
AcDbEntity
  8
0
370
    -3
  6
Continuous
100
AcDbCircle
 10
239.789714
 20
-67.751014
 30
0.0
 40
100.0
100
AcDbArc
 50
180.0
 51
187.79785
  0
ARC
  5
304
100
AcDbEntity
  8
0
370
    -3
  6
Continuous
100
AcDbCircle
 10
192.289714
 20
-67.751014
 30
0.0
 40
52.5
100
AcDbArc
 50
195.877702
 51
198.664571
  0
ARC
  5
305
100
AcDbEntity
  8
0
370
    -3
  6
Continuous
100
AcDbCircle
 10
192.289714
 20
-67.751014
 30
0.0
 40
52.5
100
AcDbArc
 50
208.562834
 51
208.973449
  0
ARC
  5
306
100
AcDbEntity
  8
0
370
    -3
  6
Continuous
100
AcDbCircle
 10
142.289714
 20
-91.251014
 30
0.0
 40
1.0
100
AcDbArc
 50
93.0
 51
267.0
  0
ARC
  5
307
100
AcDbEntity
  8
0
370
    -3
  6
Continuous
100
AcDbCircle
 10
145.439439
 20
-93.5832
 30
0.0
 40
1.0
100
AcDbArc
 50
273.0
 51
28.871352
  0
LINE
  5
308
100
AcDbEntity
  8
0
370
    -3
  6
Continuous
100
AcDbLine
 10
145.398858
 20
-92.41533
 30
0.0
 11
142.237378
 21
-92.249644
 31
0.0
  0
ARC
  5
309
100
AcDbEntity
  8
0
370
    -3
  6
Continuous
100
AcDbCircle
 10
145.346522
 20
-93.41396
 30
0.0
 40
1.0
100
AcDbArc
 50
28.664584
 51
87.0
  0
ARC
  5
30A
100
AcDbEntity
  8
0
370
    -3
  6
Continuous
100
AcDbCircle
 10
143.276064
 20
-89.196577
 30
0.0
 40
1.0
100
AcDbArc
 50
273.0
 51
23.63143
  0
ARC
  5
30B
100
AcDbEntity
  8
0
370
    -3
  6
Continuous
100
AcDbCircle
 10
141.603367
 20
-84.87247
 30
0.0
 40
1.0
100
AcDbArc
 50
290.070332
 51
18.664571
  0
ARC
  5
30C
100
AcDbEntity
  8
0
370
    -3
  6
Continuous
100
AcDbCircle
 10
143.102899
 20
-88.796376
 30
0.0
 40
1.0
100
AcDbArc
 50
23.164432
 51
87.0
  0
LINE
  5
30D
100
AcDbEntity
  8
0
370
    -3
  6
Continuous
100
AcDbLine
 10
143.155235
 20
-87.797747
 30
0.0
 11
142.237378
 21
-87.749644
 31
0.0
  0
ARC
  5
30E
100
AcDbEntity
  8
0
370
    -3
  6
Continuous
100
AcDbCircle
 10
142.289714
 20
-86.751014
 30
0.0
 40
1.0
100
AcDbArc
 50
110.070332
 51
267.0
  0
LINE
  5
30F
100
AcDbEntity
  8
0
370
    -3
  6
Continuous
100
AcDbLine
 10
143.3284
 20
-90.195207
 30
0.0
 11
142.237378
 21
-90.252385
 31
0.0
  0
ARC
  5
310
100
AcDbEntity
  8
0
370
    -3
  6
Continuous
100
AcDbCircle
 10
142.289714
 20
-95.751014
 30
0.0
 40
1.0
100
AcDbArc
 50
93.0
 51
267.0
  0
LINE
  5
311
100
AcDbEntity
  8
0
370
    -3
  6
Continuous
100
AcDbLine
 10
145.491775
 20
-94.581829
 30
0.0
 11
142.237378
 21
-94.752385
 31
0.0
  0
ARC
  5
312
100
AcDbEntity
  8
0
370
    -3
  6
Continuous
100
AcDbCircle
 10
142.789714
 20
-100.251014
 30
0.0
 40
1.0
100
AcDbArc
 50
93.0
 51
267.0
  0
LINE
  5
313
100
AcDbEntity
  8
0
370
    -3
  6
Continuous
100
AcDbLine
 10
148.192399
 20
-98.966499
 30
0.0
 11
142.737378
 21
-99.252385
 31
0.0
  0
LINE
  5
314
100
AcDbEntity
  8
0
370
    -3
  6
Continuous
100
AcDbLine
 10
148.258217
 20
-97.065183
 30
0.0
 11
142.237378
 21
-96.749644
 31
0.0
  0
LINE
  5
315
100
AcDbEntity
  8
0
370
    -3
  6
Continuous
100
AcDbLine
 10
172.989714
 20
-121.251014
 30
0.0
 11
192.289714
 21
-121.251014
 31
0.0
  0
ARC
  5
316
100
AcDbEntity
  8
0
370
    -3
  6
Continuous
100
AcDbCircle
 10
172.989714
 20
-120.551014
 30
0.0
 40
0.7
100
AcDbArc
 50
180.0
 51
270.0
  0
LINE
  5
317
100
AcDbEntity
  8
0
370
    -3
  6
Continuous
100
AcDbLine
 10
172.289714
 20
-120.551014
 30
0.0
 11
172.289714
 21
-116.957213
 31
0.0
  0
ARC
  5
318
100
AcDbEntity
  8
0
370
    -3
  6
Continuous
100
AcDbCircle
 10
192.289714
 20
-67.751014
 30
0.0
 40
52.5
100
AcDbArc
 50
246.304919
 51
246.888398
  0
ARC
  5
319
100
AcDbEntity
  8
0
370
    -3
  6
Continuous
100
AcDbCircle
 10
171.289714
 20
-116.957213
 30
0.0
 40
1.0
100
AcDbArc
 50
0.0
 51
66.888398
  0
ARC
  5
31A
100
AcDbEntity
  8
0
370
    -3
  6
Continuous
100
AcDbCircle
 10
192.289714
 20
-67.751014
 30
0.0
 40
52.5
100
AcDbArc
 50
246.336295
 51
246.888398
  0
ARC
  5
31B
100
AcDbEntity
  8
0
370
    -3
  6
Continuous
100
AcDbCircle
 10
192.289714
 20
-67.751014
 30
0.0
 40
52.5
100
AcDbArc
 50
241.026551
 51
241.437166
  0
ARC
  5
31C
100
AcDbEntity
  8
0
370
    -3
  6
Continuous
100
AcDbCircle
 10
192.289714
 20
-67.751014
 30
0.0
 40
52.5
100
AcDbArc
 50
241.026551
 51
241.437166
  0
ARC
  5
31D
100
AcDbEntity
  8
0
370
    -3
  6
Continuous
100
AcDbCircle
 10
159.789714
 20
-117.251014
 30
0.0
 40
1.0
100
AcDbArc
 50
183.0
 51
357.0
  0
ARC
  5
31E
100
AcDbEntity
  8
0
370
    -3
  6
Continuous
100
AcDbCircle
 10
164.289714
 20
-117.751014
 30
0.0
 40
1.0
100
AcDbArc
 50
183.0
 51
357.0
  0
LINE
  5
31F
100
AcDbEntity
  8
0
370
    -3
  6
Continuous
100
AcDbLine
 10
161.074229
 20
-111.848329
 30
0.0
 11
160.788343
 21
-117.30335
 31
0.0
  0
LINE
  5
320
100
AcDbEntity
  8
0
370
    -3
  6
Continuous
100
AcDbLine
 10
162.975545
 20
-111.782511
 30
0.0
 11
163.291084
 21
-117.80335
 31
0.0
  0
LINE
  5
321
100
AcDbEntity
  8
0
370
    -3
  6
Continuous
100
AcDbLine
 10
165.458899
 20
-114.548953
 30
0.0
 11
165.288343
 21
-117.80335
 31
0.0
  0
ARC
  5
322
100
AcDbEntity
  8
0
370
    -3
  6
Continuous
100
AcDbCircle
 10
166.457529
 20
-114.601289
 30
0.0
 40
1.0
100
AcDbArc
 50
61.128648
 51
177.0
  0
LINE
  5
323
100
AcDbEntity
  8
0
370
    -3
  6
Continuous
100
AcDbLine
 10
167.625398
 20
-114.64187
 30
0.0
 11
167.791084
 21
-117.80335
 31
0.0
  0
ARC
  5
324
100
AcDbEntity
  8
0
370
    -3
  6
Continuous
100
AcDbCircle
 10
166.626769
 20
-114.694206
 30
0.0
 40
1.0
100
AcDbArc
 50
3.0
 51
61.335416
  0
ARC
  5
325
100
AcDbEntity
  8
0
370
    -3
  6
Continuous
100
AcDbCircle
 10
168.789714
 20
-117.751014
 30
0.0
 40
1.0
100
AcDbArc
 50
183.0
 51
357.0
  0
ARC
  5
326
100
AcDbEntity
  8
0
370
    -3
  6
Continuous
100
AcDbCircle
 10
170.844151
 20
-116.764664
 30
0.0
 40
1.0
100
AcDbArc
 50
66.36857
 51
177.0
  0
LINE
  5
327
100
AcDbEntity
  8
0
370
    -3
  6
Continuous
100
AcDbLine
 10
169.845521
 20
-116.712328
 30
0.0
 11
169.788343
 21
-117.80335
 31
0.0
  0
ARC
  5
328
100
AcDbEntity
  8
0
370
    -3
  6
Continuous
100
AcDbCircle
 10
162.072858
 20
-111.900665
 30
0.0
 40
1.0
100
AcDbArc
 50
55.611524
 51
177.0
  0
ARC
  5
329
100
AcDbEntity
  8
0
370
    -3
  6
Continuous
100
AcDbCircle
 10
161.976916
 20
-111.834847
 30
0.0
 40
1.0
100
AcDbArc
 50
3.0
 51
55.486921
  0
ARC
  5
32A
100
AcDbEntity
  8
0
370
    -3
  6
Continuous
100
AcDbCircle
 10
146.908767
 20
-107.761259
 30
0.0
 40
1.0
100
AcDbArc
 50
138.0
 51
221.401106
  0
LINE
  5
32B
100
AcDbEntity
  8
0
370
    -3
  6
Continuous
100
AcDbLine
 10
148.941013
 20
-101.574763
 30
0.0
 11
142.737378
 21
-101.249644
 31
0.0
  0
ARC
  5
32C
100
AcDbEntity
  8
0
370
    -3
  6
Continuous
100
AcDbCircle
 10
148.888677
 20
-102.573392
 30
0.0
 40
1.0
100
AcDbArc
 50
318.0
 51
87.0
  0
ARC
  5
32D
100
AcDbEntity
  8
0
370
    -3
  6
Continuous
100
AcDbCircle
 10
152.27947
 20
-113.131962
 30
0.0
 40
1.0
100
AcDbArc
 50
228.598894
 51
312.0
  0
ARC
  5
32E
100
AcDbEntity
  8
0
370
    -3
  6
Continuous
100
AcDbCircle
 10
192.289714
 20
-67.751014
 30
0.0
 40
61.5
100
AcDbArc
 50
221.401106
 51
228.598894
  0
LINE
  5
32F
100
AcDbEntity
  8
0
370
    -3
  6
Continuous
100
AcDbLine
 10
158.465965
 20
-111.099715
 30
0.0
 11
158.791084
 21
-117.30335
 31
0.0
  0
ARC
  5
330
100
AcDbEntity
  8
0
370
    -3
  6
Continuous
100
AcDbCircle
 10
157.467336
 20
-111.152051
 30
0.0
 40
1.0
100
AcDbArc
 50
3.0
 51
132.0
  0
ARC
  5
331
100
AcDbEntity
  8
0
370
    -3
  6
Continuous
100
AcDbCircle
 10
239.789714
 20
-67.751014
 30
0.0
 40
100.0
100
AcDbArc
 50
172.20215
 51
180.0
  0
ARC
  5
332
100
AcDbEntity
  8
0
370
    -3
  6
Continuous
100
AcDbCircle
 10
144.789714
 20
-67.751014
 30
0.0
 40
100.0
100
AcDbArc
 50
0.0
 51
7.79785
  0
LINE
  5
333
100
AcDbEntity
  8
0
370
    -3
  6
Continuous
100
AcDbLine
 10
164.091072
 20
-31.65965
 30
0.0
 11
152.9486
 21
-21.626923
 31
0.0
  0
LINE
  5
334
100
AcDbEntity
  8
0
370
    -3
  6
Continuous
100
AcDbLine
 10
156.198349
 20
-39.552373
 30
0.0
 11
146.165622
 21
-28.409901
 31
0.0
  0
ARC
  5
335
100
AcDbEntity
  8
0
370
    -3
  6
Continuous
100
AcDbCircle
 10
192.289714
 20
-67.751014
 30
0.0
 40
52.5
100
AcDbArc
 50
156.336295
 51
156.863111
  0
ARC
  5
336
100
AcDbEntity
  8
0
370
    -3
  6
Continuous
100
AcDbCircle
 10
148.205881
 20
-37.438217
 30
0.0
 40
1.0
100
AcDbArc
 50
273.0
 51
322.214197
  0
ARC
  5
337
100
AcDbEntity
  8
0
370
    -3
  6
Continuous
100
AcDbCircle
 10
148.140063
 20
-37.534159
 30
0.0
 40
1.0
100
AcDbArc
 50
328.884247
 51
87.0
  0
ARC
  5
338
100
AcDbEntity
  8
0
370
    -3
  6
Continuous
100
AcDbCircle
 10
141.311777
 20
-53.251014
 30
0.0
 40
0.5
100
AcDbArc
 50
270.0
 51
344.122298
  0
LINE
  5
339
100
AcDbEntity
  8
0
370
    -3
  6
Continuous
100
AcDbLine
 10
141.209797
 20
-53.751014
 30
0.0
 11
141.311777
 21
-53.751014
 31
0.0
  0
ARC
  5
33A
100
AcDbEntity
  8
0
370
    -3
  6
Continuous
100
AcDbCircle
 10
141.209797
 20
-54.251014
 30
0.0
 40
0.5
100
AcDbArc
 50
90.0
 51
172.20215
  0
ARC
  5
33B
100
AcDbEntity
  8
0
370
    -3
  6
Continuous
100
AcDbCircle
 10
192.289714
 20
-67.751014
 30
0.0
 40
52.5
100
AcDbArc
 50
161.335429
 51
164.122298
  0
ARC
  5
33C
100
AcDbEntity
  8
0
370
    -3
  6
Continuous
100
AcDbCircle
 10
192.289714
 20
-67.751014
 30
0.0
 40
52.5
100
AcDbArc
 50
151.026551
 51
151.437166
  0
ARC
  5
33D
100
AcDbEntity
  8
0
370
    -3
  6
Continuous
100
AcDbCircle
 10
164.789714
 20
-40.251014
 30
0.0
 40
25.0
100
AcDbArc
 50
88.089941
 51
174.269825
  0
ARC
  5
33E
100
AcDbEntity
  8
0
370
    -3
  6
Continuous
100
AcDbCircle
 10
219.789714
 20
-40.251014
 30
0.0
 40
25.0
100
AcDbArc
 50
5.730175
 51
91.910059
  0
ARC
  5
33F
100
AcDbEntity
  8
0
370
    -3
  6
Continuous
100
AcDbCircle
 10
245.289714
 20
-47.251014
 30
0.0
 40
0.5
100
AcDbArc
 50
180.0
 51
270.0
  0
ARC
  5
340
100
AcDbEntity
  8
0
370
    -3
  6
Continuous
100
AcDbCircle
 10
245.289714
 20
-48.251014
 30
0.0
 40
0.5
100
AcDbArc
 50
0.0
 51
90.0
  0
ARC
  5
341
100
AcDbEntity
  8
0
370
    -3
  6
Continuous
100
AcDbCircle
 10
-155.210286
 20
-47.751014
 30
0.0
 40
400.0
100
AcDbArc
 50
0.07153
 51
1.431984
  0
LINE
  5
342
100
AcDbEntity
  8
0
370
    -3
  6
Continuous
100
AcDbLine
 10
245.789714
 20
-48.251014
 30
0.0
 11
245.789714
 21
-87.251014
 31
0.0
  0
ARC
  5
343
100
AcDbEntity
  8
0
370
    -3
  6
Continuous
100
AcDbCircle
 10
245.289714
 20
-88.251014
 30
0.0
 40
0.5
100
AcDbArc
 50
90.0
 51
180.0
  0
ARC
  5
344
100
AcDbEntity
  8
0
370
    -3
  6
Continuous
100
AcDbCircle
 10
245.289714
 20
-87.251014
 30
0.0
 40
0.5
100
AcDbArc
 50
270.0
 51
0.0
  0
ARC
  5
345
100
AcDbEntity
  8
0
370
    -3
  6
Continuous
100
AcDbCircle
 10
-155.210286
 20
-87.751014
 30
0.0
 40
400.0
100
AcDbArc
 50
358.568016
 51
359.92847
  0
ARC
  5
346
100
AcDbEntity
  8
0
370
    -3
  6
Continuous
100
AcDbCircle
 10
219.789714
 20
-95.251014
 30
0.0
 40
25.0
100
AcDbArc
 50
275.730175
 51
354.269825
  0
ARC
  5
347
100
AcDbEntity
  8
0
370
    -3
  6
Continuous
100
AcDbCircle
 10
211.789714
 20
-120.751014
 30
0.0
 40
0.5
100
AcDbArc
 50
270.0
 51
0.0
  0
ARC
  5
348
100
AcDbEntity
  8
0
370
    -3
  6
Continuous
100
AcDbCircle
 10
212.789714
 20
-120.751014
 30
0.0
 40
0.5
100
AcDbArc
 50
90.0
 51
180.0
  0
ARC
  5
349
100
AcDbEntity
  8
0
370
    -3
  6
Continuous
100
AcDbCircle
 10
212.289714
 20
279.748986
 30
0.0
 40
400.0
100
AcDbArc
 50
270.07153
 51
271.431984
  0
LINE
  5
34A
100
AcDbEntity
  8
0
370
    -3
  6
Continuous
100
AcDbLine
 10
211.789714
 20
-121.251014
 30
0.0
 11
172.789714
 21
-121.251014
 31
0.0
  0
ARC
  5
34B
100
AcDbEntity
  8
0
370
    -3
  6
Continuous
100
AcDbCircle
 10
172.789714
 20
-120.751014
 30
0.0
 40
0.5
100
AcDbArc
 50
180.0
 51
270.0
  0
ARC
  5
34C
100
AcDbEntity
  8
0
370
    -3
  6
Continuous
100
AcDbCircle
 10
171.789714
 20
-120.751014
 30
0.0
 40
0.5
100
AcDbArc
 50
0.0
 51
90.0
  0
ARC
  5
34D
100
AcDbEntity
  8
0
370
    -3
  6
Continuous
100
AcDbCircle
 10
172.289714
 20
279.748986
 30
0.0
 40
400.0
100
AcDbArc
 50
268.568016
 51
269.92847
  0
ARC
  5
34E
100
AcDbEntity
  8
0
370
    -3
  6
Continuous
100
AcDbCircle
 10
164.789714
 20
-95.251014
 30
0.0
 40
25.0
100
AcDbArc
 50
185.730175
 51
264.269825
  0
ARC
  5
34F
100
AcDbEntity
  8
0
370
    -3
  6
Continuous
100
AcDbCircle
 10
139.289714
 20
-88.251014
 30
0.0
 40
0.5
100
AcDbArc
 50
0.0
 51
90.0
  0
ARC
  5
350
100
AcDbEntity
  8
0
370
    -3
  6
Continuous
100
AcDbCircle
 10
539.789714
 20
-87.751014
 30
0.0
 40
400.0
100
AcDbArc
 50
180.07153
 51
181.431984
  0
ARC
  5
351
100
AcDbEntity
  8
0
370
    -3
  6
Continuous
100
AcDbCircle
 10
139.289714
 20
-87.251014
 30
0.0
 40
0.5
100
AcDbArc
 50
180.0
 51
270.0
  0
LINE
  5
352
100
AcDbEntity
  8
0
370
    -3
  6
Continuous
100
AcDbLine
 10
138.789714
 20
-87.251014
 30
0.0
 11
138.789714
 21
-48.251014
 31
0.0
  0
ARC
  5
353
100
AcDbEntity
  8
0
370
    -3
  6
Continuous
100
AcDbCircle
 10
139.289714
 20
-47.251014
 30
0.0
 40
0.5
100
AcDbArc
 50
270.0
 51
0.0
  0
ARC
  5
354
100
AcDbEntity
  8
0
370
    -3
  6
Continuous
100
AcDbCircle
 10
139.289714
 20
-48.251014
 30
0.0
 40
0.5
100
AcDbArc
 50
90.0
 51
180.0
  0
ARC
  5
355
100
AcDbEntity
  8
0
370
    -3
  6
Continuous
100
AcDbCircle
 10
539.789714
 20
-47.751014
 30
0.0
 40
400.0
100
AcDbArc
 50
178.568016
 51
179.947
  0
LINE
  5
356
100
AcDbEntity
  8
0
370
    -3
  6
Continuous
100
AcDbLine
 10
-87.607747
 20
185.831038
 30
0.0
 11
-115.710277
 21
185.831038
 31
0.0
  0
LINE
  5
357
100
AcDbEntity
  8
0
370
    -3
  6
Continuous
100
AcDbLine
 10
-87.607747
 20
223.331038
 30
0.0
 11
-115.710277
 21
223.331038
 31
0.0
  0
LINE
  5
358
100
AcDbEntity
  8
0
370
    -3
  6
Continuous
100
AcDbLine
 10
-1.710277
 20
251.907635
 30
0.0
 11
-115.710277
 21
251.907635
 31
0.0
  0
LINE
  5
359
100
AcDbEntity
  8
0
370
    -3
  6
Continuous
100
AcDbLine
 10
-87.475086
 20
245.013486
 30
0.0
 11
-115.710277
 21
245.013486
 31
0.0
  0
LINE
  5
35A
100
AcDbEntity
  8
0
370
    -3
  6
Continuous
100
AcDbLine
 10
-87.607747
 20
237.680832
 30
0.0
 11
-115.710277
 21
237.680832
 31
0.0
  0
LINE
  5
35B
100
AcDbEntity
  8
0
370
    -3
  6
Continuous
100
AcDbLine
 10
-87.607747
 20
236.481244
 30
0.0
 11
-115.710277
 21
236.481244
 31
0.0
  0
LINE
  5
35C
100
AcDbEntity
  8
0
370
    -3
  6
Continuous
100
AcDbLine
 10
-87.607747
 20
233.180832
 30
0.0
 11
-115.710277
 21
233.180832
 31
0.0
  0
LINE
  5
35D
100
AcDbEntity
  8
0
370
    -3
  6
Continuous
100
AcDbLine
 10
-87.607747
 20
228.680832
 30
0.0
 11
-115.710277
 21
228.680832
 31
0.0
  0
LINE
  5
35E
100
AcDbEntity
  8
0
370
    -3
  6
Continuous
100
AcDbLine
 10
-87.607747
 20
231.981244
 30
0.0
 11
-115.710277
 21
231.981244
 31
0.0
  0
LINE
  5
35F
100
AcDbEntity
  8
0
370
    -3
  6
Continuous
100
AcDbLine
 10
-87.607747
 20
227.481244
 30
0.0
 11
-115.710277
 21
227.481244
 31
0.0
  0
LINE
  5
360
100
AcDbEntity
  8
0
370
    -3
  6
Continuous
100
AcDbLine
 10
-1.710277
 20
157.254441
 30
0.0
 11
-115.710277
 21
157.254441
 31
0.0
  0
LINE
  5
361
100
AcDbEntity
  8
0
370
    -3
  6
Continuous
100
AcDbLine
 10
-87.607747
 20
181.680832
 30
0.0
 11
-115.710277
 21
181.680832
 31
0.0
  0
LINE
  5
362
100
AcDbEntity
  8
0
370
    -3
  6
Continuous
100
AcDbLine
 10
-87.607747
 20
180.481244
 30
0.0
 11
-115.710277
 21
180.481244
 31
0.0
  0
LINE
  5
363
100
AcDbEntity
  8
0
370
    -3
  6
Continuous
100
AcDbLine
 10
-87.607747
 20
177.180832
 30
0.0
 11
-115.710277
 21
177.180832
 31
0.0
  0
LINE
  5
364
100
AcDbEntity
  8
0
370
    -3
  6
Continuous
100
AcDbLine
 10
-87.607747
 20
175.981244
 30
0.0
 11
-115.710277
 21
175.981244
 31
0.0
  0
LINE
  5
365
100
AcDbEntity
  8
0
370
    -3
  6
Continuous
100
AcDbLine
 10
-87.475086
 20
164.148591
 30
0.0
 11
-115.710277
 21
164.148591
 31
0.0
  0
LINE
  5
366
100
AcDbEntity
  8
0
370
    -3
  6
Continuous
100
AcDbLine
 10
-87.607747
 20
171.481244
 30
0.0
 11
-115.710277
 21
171.481244
 31
0.0
  0
LINE
  5
367
100
AcDbEntity
  8
0
370
    -3
  6
Continuous
100
AcDbLine
 10
-87.607747
 20
172.680832
 30
0.0
 11
-115.710277
 21
172.680832
 31
0.0
  0
LINE
  5
368
100
AcDbEntity
  8
0
370
    -3
  6
Continuous
100
AcDbLine
 10
-115.710277
 20
152.081038
 30
0.0
 11
-115.710277
 21
204.581038
 31
0.0
  0
LINE
  5
369
100
AcDbEntity
  8
0
370
    -3
  6
Continuous
100
AcDbLine
 10
-115.710277
 20
257.081038
 30
0.0
 11
-115.710277
 21
204.581038
 31
0.0
  0
LINE
  5
36A
100
AcDbEntity
  8
0
370
    -3
  6
Continuous
100
AcDbLine
 10
-115.710277
 20
152.081038
 30
0.0
 11
-1.710277
 21
152.081038
 31
0.0
  0
LINE
  5
36B
100
AcDbEntity
  8
0
370
    -3
  6
Continuous
100
AcDbLine
 10
-1.710277
 20
154.081038
 30
0.0
 11
-115.710277
 21
154.081038
 31
0.0
  0
LINE
  5
36C
100
AcDbEntity
  8
0
370
    -3
  6
Continuous
100
AcDbLine
 10
-1.710277
 20
153.581038
 30
0.0
 11
-115.710277
 21
153.581038
 31
0.0
  0
LINE
  5
36D
100
AcDbEntity
  8
0
370
    -3
  6
Continuous
100
AcDbLine
 10
-115.710277
 20
257.081038
 30
0.0
 11
-1.710277
 21
257.081038
 31
0.0
  0
LINE
  5
36E
100
AcDbEntity
  8
0
370
    -3
  6
Continuous
100
AcDbLine
 10
-1.710277
 20
255.081038
 30
0.0
 11
-115.710277
 21
255.081038
 31
0.0
  0
LINE
  5
36F
100
AcDbEntity
  8
0
370
    -3
  6
Continuous
100
AcDbLine
 10
-1.710277
 20
255.581038
 30
0.0
 11
-115.710277
 21
255.581038
 31
0.0
  0
LINE
  5
370
100
AcDbEntity
  8
0
370
    -3
  6
Continuous
100
AcDbLine
 10
-1.710277
 20
257.081038
 30
0.0
 11
-1.710277
 21
251.381038
 31
0.0
  0
LINE
  5
371
100
AcDbEntity
  8
0
370
    -3
  6
Continuous
100
AcDbLine
 10
-1.710277
 20
152.081038
 30
0.0
 11
-1.710277
 21
154.331038
 31
0.0
  0
LINE
  5
372
100
AcDbEntity
  8
0
370
    -3
  6
Continuous
100
AcDbLine
 10
-1.710277
 20
152.081038
 30
0.0
 11
0.960499
 21
152.081038
 31
0.0
  0
ARC
  5
373
100
AcDbEntity
  8
0
370
    -3
  6
Continuous
100
AcDbCircle
 10
0.960499
 20
154.081038
 30
0.0
 40
2.0
100
AcDbArc
 50
270.0
 51
355.85105
  0
LINE
  5
374
100
AcDbEntity
  8
0
370
    -3
  6
Continuous
100
AcDbLine
 10
-1.710277
 20
152.831038
 30
0.0
 11
-1.710277
 21
152.081038
 31
0.0
  0
LINE
  5
375
100
AcDbEntity
  8
0
370
    -3
  6
Continuous
100
AcDbLine
 10
-1.710277
 20
154.331038
 30
0.0
 11
-1.710277
 21
157.781038
 31
0.0
  0
ARC
  5
376
100
AcDbEntity
  8
0
370
    -3
  6
Continuous
100
AcDbCircle
 10
-695.210277
 20
204.581038
 30
0.0
 40
700.0
100
AcDbArc
 50
355.85105
 51
356.204321
  0
LINE
  5
377
100
AcDbEntity
  8
0
370
    -3
  6
Continuous
100
AcDbLine
 10
-1.710277
 20
257.081038
 30
0.0
 11
0.960499
 21
257.081038
 31
0.0
  0
ARC
  5
378
100
AcDbEntity
  8
0
370
    -3
  6
Continuous
100
AcDbCircle
 10
0.960499
 20
255.081038
 30
0.0
 40
2.0
100
AcDbArc
 50
4.14895
 51
90.0
  0
ARC
  5
379
100
AcDbEntity
  8
0
370
    -3
  6
Continuous
100
AcDbCircle
 10
-695.210277
 20
204.581038
 30
0.0
 40
700.0
100
AcDbArc
 50
3.833357
 51
4.14895
  0
CIRCLE
  5
37A
100
AcDbEntity
  8
0
370
    -3
  6
Continuous
100
AcDbCircle
 10
-334.710298
 20
-22.836903
 30
0.0
 40
4.0
  0
CIRCLE
  5
37B
100
AcDbEntity
  8
0
370
    -3
  6
Continuous
100
AcDbCircle
 10
-334.710298
 20
-22.836903
 30
0.0
 40
3.5
  0
LINE
  5
37C
100
AcDbEntity
  8
0
370
    -3
  6
CENTER
100
AcDbLine
 10
-353.913228
 20
-22.836903
 30
0.0
 11
-312.181638
 21
-22.836903
 31
0.0
  0
LINE
  5
37D
100
AcDbEntity
  8
0
370
    -3
  6
CENTER
100
AcDbLine
 10
-334.710298
 20
-43.885225
 30
0.0
 11
-334.710298
 21
-2.153635
 31
0.0
  0
LINE
  5
37E
100
AcDbEntity
  8
0
370
    -3
  6
Continuous
100
AcDbLine
 10
-338.710298
 20
-5.836903
 30
0.0
 11
-330.710298
 21
-5.836903
 31
0.0
  0
LINE
  5
37F
100
AcDbEntity
  8
0
370
    -3
  6
Continuous
100
AcDbLine
 10
-338.710298
 20
-5.836903
 30
0.0
 11
-338.710298
 21
-12.836903
 31
0.0
  0
LINE
  5
380
100
AcDbEntity
  8
0
370
    -3
  6
Continuous
100
AcDbLine
 10
-338.710298
 20
-12.836903
 30
0.0
 11
-330.710298
 21
-12.836903
 31
0.0
  0
LINE
  5
381
100
AcDbEntity
  8
0
370
    -3
  6
Continuous
100
AcDbLine
 10
-330.710298
 20
-5.836903
 30
0.0
 11
-330.710298
 21
-12.836903
 31
0.0
  0
ARC
  5
382
100
AcDbEntity
  8
0
370
    -3
  6
Continuous
100
AcDbCircle
 10
-334.710298
 20
-22.836903
 30
0.0
 40
14.0
100
AcDbArc
 50
106.60155
 51
73.39845
  0
LINE
  5
383
100
AcDbEntity
  8
0
370
    -3
  6
Continuous
100
AcDbLine
 10
-581.710298
 20
-8.836903
 30
0.0
 11
-626.710298
 21
-8.836903
 31
0.0
  0
LINE
  5
384
100
AcDbEntity
  8
0
370
    -3
  6
Continuous
100
AcDbLine
 10
-626.710298
 20
-22.836903
 30
0.0
 11
-626.710298
 21
-5.836903
 31
0.0
  0
LINE
  5
385
100
AcDbEntity
  8
0
370
    -3
  6
Continuous
100
AcDbLine
 10
-590.710298
 20
-5.836903
 30
0.0
 11
-626.710298
 21
-5.836903
 31
0.0
  0
LINE
  5
386
100
AcDbEntity
  8
0
370
    -3
  6
Continuous
100
AcDbLine
 10
-590.710298
 20
-8.836903
 30
0.0
 11
-590.710298
 21
-5.836903
 31
0.0
  0
LINE
  5
387
100
AcDbEntity
  8
0
370
    -3
  6
Continuous
100
AcDbLine
 10
-581.710298
 20
-36.836903
 30
0.0
 11
-626.710298
 21
-36.836903
 31
0.0
  0
LINE
  5
388
100
AcDbEntity
  8
0
370
    -3
  6
Continuous
100
AcDbLine
 10
-626.710298
 20
-22.836903
 30
0.0
 11
-626.710298
 21
-36.836903
 31
0.0
  0
LINE
  5
389
100
AcDbEntity
  8
0
370
    -3
  6
Continuous
100
AcDbLine
 10
-581.710298
 20
-22.836903
 30
0.0
 11
-581.710298
 21
-37.336903
 31
0.0
  0
LINE
  5
38A
100
AcDbEntity
  8
0
370
    -3
  6
Continuous
100
AcDbLine
 10
-581.710298
 20
-22.836903
 30
0.0
 11
-581.710298
 21
-37.336903
 31
0.0
  0
LINE
  5
38B
100
AcDbEntity
  8
0
370
    -3
  6
Continuous
100
AcDbLine
 10
-581.710298
 20
-37.336903
 30
0.0
 11
-579.710298
 21
-37.336903
 31
0.0
  0
LINE
  5
38C
100
AcDbEntity
  8
0
370
    -3
  6
Continuous
100
AcDbLine
 10
-581.710298
 20
-22.836903
 30
0.0
 11
-581.710298
 21
-8.336903
 31
0.0
  0
LINE
  5
38D
100
AcDbEntity
  8
0
370
    -3
  6
Continuous
100
AcDbLine
 10
-581.710298
 20
-22.836903
 30
0.0
 11
-581.710298
 21
-8.336903
 31
0.0
  0
LINE
  5
38E
100
AcDbEntity
  8
0
370
    -3
  6
Continuous
100
AcDbLine
 10
-581.710298
 20
-8.336903
 30
0.0
 11
-579.710298
 21
-8.336903
 31
0.0
  0
LINE
  5
38F
100
AcDbEntity
  8
0
370
    -3
  6
Continuous
100
AcDbLine
 10
261.289714
 20
-8.836903
 30
0.0
 11
306.289714
 21
-8.836903
 31
0.0
  0
LINE
  5
390
100
AcDbEntity
  8
0
370
    -3
  6
Continuous
100
AcDbLine
 10
306.289714
 20
-22.836903
 30
0.0
 11
306.289714
 21
-5.836903
 31
0.0
  0
LINE
  5
391
100
AcDbEntity
  8
0
370
    -3
  6
Continuous
100
AcDbLine
 10
270.289714
 20
-5.836903
 30
0.0
 11
306.289714
 21
-5.836903
 31
0.0
  0
LINE
  5
392
100
AcDbEntity
  8
0
370
    -3
  6
Continuous
100
AcDbLine
 10
270.289714
 20
-8.836903
 30
0.0
 11
270.289714
 21
-5.836903
 31
0.0
  0
LINE
  5
393
100
AcDbEntity
  8
0
370
    -3
  6
Continuous
100
AcDbLine
 10
261.289714
 20
-36.836903
 30
0.0
 11
306.289714
 21
-36.836903
 31
0.0
  0
LINE
  5
394
100
AcDbEntity
  8
0
370
    -3
  6
Continuous
100
AcDbLine
 10
306.289714
 20
-22.836903
 30
0.0
 11
306.289714
 21
-36.836903
 31
0.0
  0
LINE
  5
395
100
AcDbEntity
  8
0
370
    -3
  6
Continuous
100
AcDbLine
 10
261.289714
 20
-22.836903
 30
0.0
 11
261.289714
 21
-37.336903
 31
0.0
  0
LINE
  5
396
100
AcDbEntity
  8
0
370
    -3
  6
Continuous
100
AcDbLine
 10
261.289714
 20
-22.836903
 30
0.0
 11
261.289714
 21
-37.336903
 31
0.0
  0
LINE
  5
397
100
AcDbEntity
  8
0
370
    -3
  6
Continuous
100
AcDbLine
 10
261.289714
 20
-37.336903
 30
0.0
 11
259.289714
 21
-37.336903
 31
0.0
  0
LINE
  5
398
100
AcDbEntity
  8
0
370
    -3
  6
Continuous
100
AcDbLine
 10
261.289714
 20
-22.836903
 30
0.0
 11
261.289714
 21
-8.336903
 31
0.0
  0
LINE
  5
399
100
AcDbEntity
  8
0
370
    -3
  6
Continuous
100
AcDbLine
 10
261.289714
 20
-22.836903
 30
0.0
 11
261.289714
 21
-8.336903
 31
0.0
  0
LINE
  5
39A
100
AcDbEntity
  8
0
370
    -3
  6
Continuous
100
AcDbLine
 10
261.289714
 20
-8.336903
 30
0.0
 11
259.289714
 21
-8.336903
 31
0.0
  0
LINE
  5
39B
100
AcDbEntity
  8
0
370
    -3
  6
Continuous
100
AcDbLine
 10
-199.710277
 20
282.581038
 30
0.0
 11
-199.710277
 21
318.581038
 31
0.0
  0
LINE
  5
39C
100
AcDbEntity
  8
0
370
    -3
  6
Continuous
100
AcDbLine
 10
-207.710277
 20
282.581038
 30
0.0
 11
-207.710277
 21
318.581038
 31
0.0
  0
LINE
  5
39D
100
AcDbEntity
  8
0
370
    -3
  6
Continuous
100
AcDbLine
 10
-189.210277
 20
273.581038
 30
0.0
 11
-189.210277
 21
271.581038
 31
0.0
  0
LINE
  5
39E
100
AcDbEntity
  8
0
370
    -3
  6
Continuous
100
AcDbLine
 10
-203.710277
 20
273.581038
 30
0.0
 11
-189.210277
 21
273.581038
 31
0.0
  0
LINE
  5
39F
100
AcDbEntity
  8
0
370
    -3
  6
Continuous
100
AcDbLine
 10
-203.710277
 20
273.581038
 30
0.0
 11
-189.210277
 21
273.581038
 31
0.0
  0
LINE
  5
3A0
100
AcDbEntity
  8
0
370
    -3
  6
Continuous
100
AcDbLine
 10
-218.210277
 20
273.581038
 30
0.0
 11
-218.210277
 21
271.581038
 31
0.0
  0
LINE
  5
3A1
100
AcDbEntity
  8
0
370
    -3
  6
Continuous
100
AcDbLine
 10
-203.710277
 20
273.581038
 30
0.0
 11
-218.210277
 21
273.581038
 31
0.0
  0
LINE
  5
3A2
100
AcDbEntity
  8
0
370
    -3
  6
Continuous
100
AcDbLine
 10
-203.710277
 20
273.581038
 30
0.0
 11
-218.210277
 21
273.581038
 31
0.0
  0
LINE
  5
3A3
100
AcDbEntity
  8
0
370
    -3
  6
Continuous
100
AcDbLine
 10
-189.710277
 20
318.581038
 30
0.0
 11
-217.710277
 21
318.581038
 31
0.0
  0
LINE
  5
3A4
100
AcDbEntity
  8
0
370
    -3
  6
Continuous
100
AcDbLine
 10
-217.710277
 20
273.581038
 30
0.0
 11
-217.710277
 21
318.581038
 31
0.0
  0
LINE
  5
3A5
100
AcDbEntity
  8
0
370
    -3
  6
Continuous
100
AcDbLine
 10
-207.710277
 20
282.581038
 30
0.0
 11
-199.710277
 21
282.581038
 31
0.0
  0
LINE
  5
3A6
100
AcDbEntity
  8
0
370
    -3
  6
Continuous
100
AcDbLine
 10
-189.710277
 20
273.581038
 30
0.0
 11
-189.710277
 21
318.581038
 31
0.0
  0
ARC
  5
3A7
100
AcDbEntity
  8
0
370
    -3
  6
Continuous
100
AcDbCircle
 10
-203.710277
 20
282.581038
 30
0.0
 40
4.0
100
AcDbArc
 50
180.0
 51
0.0
  0
MTEXT
  5
3A8
100
AcDbEntity
  8
0
370
    -3
  6
Continuous
100
AcDbMText
 10
-569.870117
 20
239.844315
 30
0.0
 40
15.0
 41
0.0
 71
     7
 72
     1
  1
\W0.48;GV-SHY-RT
  7
ZU_SHPTB00001
 11
1.0
 21
0.0
 31
0.0
 73
     1
 44
1.0
  0
MTEXT
  5
3A9
100
AcDbEntity
  8
0
370
    -3
  6
Continuous
100
AcDbMText
 10
-569.870117
 20
256.794342
 30
0.0
 40
15.0
 41
0.0
 71
     7
 72
     1
  1
\W0.63;三菱ギヤードモータ  
  7
ZU_SHPTB00001
 11
1.0
 21
0.0
 31
0.0
 73
     1
 44
1.0
  0
MTEXT
  5
3AA
100
AcDbEntity
  8
0
370
    -3
  6
Continuous
100
AcDbMText
 10
-569.870117
 20
222.894333
 30
0.0
 40
15.0
 41
0.0
 71
     7
 72
     1
  1
\W0.43;0.4kW
  7
ZU_SHPTB00001
 11
1.0
 21
0.0
 31
0.0
 73
     1
 44
1.0
  0
MTEXT
  5
3AB
100
AcDbEntity
  8
0
370
    -3
  6
Continuous
100
AcDbMText
 10
-569.870117
 20
172.044327
 30
0.0
 40
15.0
 41
0.0
 71
     7
 72
     1
  1
\W0.43;SCALE\W0.72;  \W0.43;1/1
  7
ZU_SHPTB00001
 11
1.0
 21
0.0
 31
0.0
 73
     1
 44
1.0
  0
MTEXT
  5
3AC
100
AcDbEntity
  8
0
370
    -3
  6
Continuous
100
AcDbMText
 10
-569.870117
 20
205.944336
 30
0.0
 40
15.0
 41
0.0
 71
     7
 72
     1
  1
\W0.43;37.5-12.5r/min\W0.53;　
  7
ZU_SHPTB00001
 11
1.0
 21
0.0
 31
0.0
 73
     1
 44
1.0
  0
MTEXT
  5
3AD
100
AcDbEntity
  8
0
370
    -3
  6
Continuous
100
AcDbMText
 10
-569.870117
 20
188.994324
 30
0.0
 40
15.0
 41
0.0
 71
     7
 72
     1
  1
\W0.42;GEAR\W0.70; \W0.42;RATIO\W0.70;  \W0.42;1/80-1/240
  7
ZU_SHPTB00001
 11
1.0
 21
0.0
 31
0.0
 73
     1
 44
1.0
  0
MTEXT
  5
3AE
100
AcDbEntity
  8
0
370
    -3
  6
Continuous
100
AcDbMText
 10
-569.870117
 20
256.794342
 30
0.0
 40
15.0
 41
0.0
 71
     7
 72
     1
  1
\W0.63;三菱ギヤードモータ  
  7
ZU_SHPTB00001
 11
1.0
 21
0.0
 31
0.0
 73
     1
 44
1.0
  0
LINE
  5
3AF
100
AcDbEntity
  8
0
370
    -3
  6
Continuous
100
AcDbLine
 10
-480.960298
 20
43.866512
 30
0.0
 11
-544.460298
 21
43.866512
 31
0.0
  0
ARC
  5
3B0
100
AcDbEntity
  8
0
370
    -3
  6
Continuous
100
AcDbCircle
 10
-480.960298
 20
37.066512
 30
0.0
 40
6.8
100
AcDbArc
 50
15.192288
 51
90.0
  0
LINE
  5
3B1
100
AcDbEntity
  8
0
370
    -3
  6
Continuous
100
AcDbLine
 10
-465.910298
 20
37.920134
 30
0.0
 11
-465.910298
 21
18.866747
 31
0.0
  0
LINE
  5
3B2
100
AcDbEntity
  8
0
370
    -3
  6
Continuous
100
AcDbLine
 10
-474.800315
 20
45.882006
 30
0.0
 11
-473.210298
 21
45.372179
 31
0.0
  0
LINE
  5
3B3
100
AcDbEntity
  8
0
370
    -3
  6
Continuous
100
AcDbLine
 10
-473.210298
 20
45.372179
 30
0.0
 11
-475.210298
 21
44.322991
 31
0.0
  0
LINE
  5
3B4
100
AcDbEntity
  8
0
370
    -3
  6
Continuous
100
AcDbLine
 10
-473.210298
 20
45.372179
 30
0.0
 11
-471.210298
 21
44.322991
 31
0.0
  0
LINE
  5
3B5
100
AcDbEntity
  8
0
370
    -3
  6
Continuous
100
AcDbLine
 10
-471.620282
 20
45.882006
 30
0.0
 11
-473.210298
 21
45.372179
 31
0.0
  0
ELLIPSE
  5
3B6
100
AcDbEntity
  8
0
370
    -3
  6
Continuous
100
AcDbEllipse
 10
-473.210298
 20
43.834725
 30
0.0
 11
3.5
 21
0.0
 31
0.0
210
0.0
220
0.0
230
1.0
 40
0.656603
 41
0.0
 42
6.2831853071795862
  0
ARC
  5
3B7
100
AcDbEntity
  8
0
370
    -3
  6
Continuous
100
AcDbCircle
 10
-473.710298
 20
37.920134
 30
0.0
 40
7.8
100
AcDbArc
 50
0.0
 51
61.87484
  0
LINE
  5
3B8
100
AcDbEntity
  8
0
370
    -3
  6
Continuous
100
AcDbLine
 10
-475.21148
 20
45.720134
 30
0.0
 11
-550.209117
 21
45.720134
 31
0.0
  0
ARC
  5
3B9
100
AcDbEntity
  8
0
370
    -3
  6
Continuous
100
AcDbCircle
 10
-544.460298
 20
37.066512
 30
0.0
 40
6.8
100
AcDbArc
 50
90.0
 51
153.044537
  0
LINE
  5
3BA
100
AcDbEntity
  8
0
370
    -3
  6
Continuous
100
AcDbLine
 10
-550.620282
 20
45.882006
 30
0.0
 11
-552.210298
 21
45.372179
 31
0.0
  0
LINE
  5
3BB
100
AcDbEntity
  8
0
370
    -3
  6
Continuous
100
AcDbLine
 10
-552.210298
 20
45.372179
 30
0.0
 11
-550.210298
 21
44.322991
 31
0.0
  0
LINE
  5
3BC
100
AcDbEntity
  8
0
370
    -3
  6
Continuous
100
AcDbLine
 10
-552.210298
 20
45.372179
 30
0.0
 11
-554.210298
 21
44.322991
 31
0.0
  0
LINE
  5
3BD
100
AcDbEntity
  8
0
370
    -3
  6
Continuous
100
AcDbLine
 10
-553.800315
 20
45.882006
 30
0.0
 11
-552.210298
 21
45.372179
 31
0.0
  0
ELLIPSE
  5
3BE
100
AcDbEntity
  8
0
370
    -3
  6
Continuous
100
AcDbEllipse
 10
-552.210298
 20
43.834725
 30
0.0
 11
3.5
 21
0.0
 31
0.0
210
0.0
220
0.0
230
1.0
 40
0.656603
 41
0.0
 42
6.2831853071795862
  0
ARC
  5
3BF
100
AcDbEntity
  8
0
370
    -3
  6
Continuous
100
AcDbCircle
 10
-551.710298
 20
37.920134
 30
0.0
 40
7.8
100
AcDbArc
 50
118.12516
 51
180.0
  0
LINE
  5
3C0
100
AcDbEntity
  8
0
370
    -3
  6
Continuous
100
AcDbLine
 10
-559.510298
 20
37.920134
 30
0.0
 11
-559.510298
 21
18.866747
 31
0.0
  0
LINE
  5
3C1
100
AcDbEntity
  8
0
370
    -3
  6
Continuous
100
AcDbLine
 10
-16.710286
 20
-16.751014
 30
0.0
 11
-22.781794
 21
-16.751014
 31
0.0
  0
ARC
  5
3C2
100
AcDbEntity
  8
0
370
    -3
  6
Continuous
100
AcDbCircle
 10
-22.787925
 20
-16.251014
 30
0.0
 40
0.5
100
AcDbArc
 50
187.125016
 51
270.0
  0
ARC
  5
3C3
100
AcDbEntity
  8
0
370
    -3
  6
Continuous
100
AcDbCircle
 10
-16.670707
 20
-16.251014
 30
0.0
 40
0.5
100
AcDbArc
 50
270.0
 51
352.874984
  0
LINE
  5
3C4
100
AcDbEntity
  8
0
370
    -3
  6
Continuous
100
AcDbLine
 10
-23.284064
 20
-16.313032
 30
0.0
 11
-23.674568
 21
-13.188997
 31
0.0
  0
ARC
  5
3C5
100
AcDbEntity
  8
0
370
    -3
  6
Continuous
100
AcDbCircle
 10
-62.632648
 20
-16.251014
 30
0.0
 40
0.5
100
AcDbArc
 50
270.0
 51
352.874984
  0
ARC
  5
3C6
100
AcDbEntity
  8
0
370
    -3
  6
Continuous
100
AcDbCircle
 10
-68.749865
 20
-16.251014
 30
0.0
 40
0.5
100
AcDbArc
 50
187.125016
 51
270.0
  0
LINE
  5
3C7
100
AcDbEntity
  8
0
370
    -3
  6
Continuous
100
AcDbLine
 10
-69.246004
 20
-16.313032
 30
0.0
 11
-69.636509
 21
-13.188997
 31
0.0
  0
LINE
  5
3C8
100
AcDbEntity
  8
0
370
    -3
  6
Continuous
100
AcDbLine
 10
-62.136509
 20
-16.313032
 30
0.0
 11
-61.746004
 21
-13.188997
 31
0.0
  0
LINE
  5
3C9
100
AcDbEntity
  8
0
370
    -3
  6
Continuous
100
AcDbLine
 10
-68.749865
 20
-16.751014
 30
0.0
 11
-62.638778
 21
-16.751014
 31
0.0
  0
LINE
  5
3CA
100
AcDbEntity
  8
0
370
    -3
  6
CENTER
100
AcDbLine
 10
-42.710286
 20
-17.528432
 30
0.0
 11
-42.710286
 21
5.381545
 31
0.0
  0
POINT
  5
3CB
100
AcDbEntity
  8
0
370
    -3
  6
Continuous
100
AcDbPoint
 10
28.289714
 20
30.726486
 30
0.0
  0
POINT
  5
3CC
100
AcDbEntity
  8
0
370
    -3
  6
Continuous
100
AcDbPoint
 10
28.289714
 20
32.248986
 30
0.0
  0
LINE
  5
3CD
100
AcDbEntity
  8
0
370
    -3
  6
Continuous
100
AcDbLine
 10
-70.691257
 20
-12.251014
 30
0.0
 11
-70.691257
 21
-11.251014
 31
0.0
  0
ARC
  5
3CE
100
AcDbEntity
  8
0
370
    -3
  6
Continuous
100
AcDbCircle
 10
-71.191257
 20
-11.251014
 30
0.0
 40
0.5
100
AcDbArc
 50
0.0
 51
90.0
  0
LINE
  5
3CF
100
AcDbEntity
  8
0
370
    -3
  6
Continuous
100
AcDbLine
 10
-79.460286
 20
-14.256427
 30
0.0
 11
-79.460286
 21
-12.751014
 31
0.0
  0
ARC
  5
3D0
100
AcDbEntity
  8
0
370
    -3
  6
Continuous
100
AcDbCircle
 10
-70.132648
 20
-13.251014
 30
0.0
 40
0.5
100
AcDbArc
 50
7.125016
 51
90.0
  0
ARC
  5
3D1
100
AcDbEntity
  8
0
370
    -3
  6
Continuous
100
AcDbCircle
 10
-70.191257
 20
-12.251014
 30
0.0
 40
0.5
100
AcDbArc
 50
180.0
 51
270.0
  0
LINE
  5
3D2
100
AcDbEntity
  8
0
370
    -3
  6
Continuous
100
AcDbLine
 10
-61.227442
 20
-12.751014
 30
0.0
 11
-70.191257
 21
-12.751014
 31
0.0
  0
LINE
  5
3D3
100
AcDbEntity
  8
0
370
    -3
  6
Continuous
100
AcDbLine
 10
-62.262972
 20
-10.751014
 30
0.0
 11
-75.31503
 21
-10.751014
 31
0.0
  0
LINE
  5
3D4
100
AcDbEntity
  8
0
370
    -3
  6
Continuous
100
AcDbLine
 10
-62.262972
 20
-10.751014
 30
0.0
 11
-23.1576
 21
-10.751014
 31
0.0
  0
LINE
  5
3D5
100
AcDbEntity
  8
0
370
    -3
  6
Continuous
100
AcDbLine
 10
-23.1576
 20
-10.751014
 30
0.0
 11
-10.105543
 21
-10.751014
 31
0.0
  0
LINE
  5
3D6
100
AcDbEntity
  8
0
370
    -3
  6
Continuous
100
AcDbLine
 10
-10.105543
 20
-10.751014
 30
0.0
 11
-10.184786
 21
-7.724838
 31
0.0
  0
ARC
  5
3D7
100
AcDbEntity
  8
0
370
    -3
  6
Continuous
100
AcDbCircle
 10
-11.184443
 20
-7.751014
 30
0.0
 40
1.0
100
AcDbArc
 50
1.5
 51
90.0
  0
LINE
  5
3D8
100
AcDbEntity
  8
0
370
    -3
  6
Continuous
100
AcDbLine
 10
-11.184443
 20
-6.751014
 30
0.0
 11
-74.236129
 21
-6.751014
 31
0.0
  0
ARC
  5
3D9
100
AcDbEntity
  8
0
370
    -3
  6
Continuous
100
AcDbCircle
 10
-74.236129
 20
-7.751014
 30
0.0
 40
1.0
100
AcDbArc
 50
90.0
 51
178.5
  0
LINE
  5
3DA
100
AcDbEntity
  8
0
370
    -3
  6
Continuous
100
AcDbLine
 10
-75.31503
 20
-10.751014
 30
0.0
 11
-75.235787
 21
-7.724838
 31
0.0
  0
ARC
  5
3DB
100
AcDbEntity
  8
0
370
    -3
  6
Continuous
100
AcDbCircle
 10
-61.249865
 20
-13.251014
 30
0.0
 40
0.5
100
AcDbArc
 50
90.0
 51
172.874984
  0
ARC
  5
3DC
100
AcDbEntity
  8
0
370
    -3
  6
Continuous
100
AcDbCircle
 10
-60.191257
 20
-11.251014
 30
0.0
 40
0.5
100
AcDbArc
 50
90.0
 51
180.0
  0
LINE
  5
3DD
100
AcDbEntity
  8
0
370
    -3
  6
Continuous
100
AcDbLine
 10
-60.691257
 20
-12.251014
 30
0.0
 11
-60.691257
 21
-11.251014
 31
0.0
  0
ARC
  5
3DE
100
AcDbEntity
  8
0
370
    -3
  6
Continuous
100
AcDbCircle
 10
-61.191257
 20
-12.251014
 30
0.0
 40
0.5
100
AcDbArc
 50
270.0
 51
0.0
  0
LINE
  5
3DF
100
AcDbEntity
  8
0
370
    -3
  6
Continuous
100
AcDbLine
 10
-16.174568
 20
-16.313032
 30
0.0
 11
-15.784064
 21
-13.188997
 31
0.0
  0
LINE
  5
3E0
100
AcDbEntity
  8
0
370
    -3
  6
Continuous
100
AcDbLine
 10
-10.960277
 20
-12.751014
 30
0.0
 11
-79.460286
 21
-12.751014
 31
0.0
  0
ARC
  5
3E1
100
AcDbEntity
  8
0
370
    -3
  6
Continuous
100
AcDbCircle
 10
-24.170707
 20
-13.251014
 30
0.0
 40
0.5
100
AcDbArc
 50
7.125016
 51
90.0
  0
LINE
  5
3E2
100
AcDbEntity
  8
0
370
    -3
  6
Continuous
100
AcDbLine
 10
-15.916816
 20
-14.251014
 30
0.0
 11
-15.784064
 21
-13.188997
 31
0.0
  0
ARC
  5
3E3
100
AcDbEntity
  8
0
370
    -3
  6
Continuous
100
AcDbCircle
 10
-15.287925
 20
-13.251014
 30
0.0
 40
0.5
100
AcDbArc
 50
90.0
 51
172.874984
  0
ARC
  5
3E4
100
AcDbEntity
  8
0
370
    -3
  6
Continuous
100
AcDbCircle
 10
-24.229316
 20
-12.251014
 30
0.0
 40
0.5
100
AcDbArc
 50
180.0
 51
270.0
  0
ARC
  5
3E5
100
AcDbEntity
  8
0
370
    -3
  6
Continuous
100
AcDbCircle
 10
-15.229316
 20
-12.251014
 30
0.0
 40
0.5
100
AcDbArc
 50
270.0
 51
0.0
  0
LINE
  5
3E6
100
AcDbEntity
  8
0
370
    -3
  6
Continuous
100
AcDbLine
 10
-24.229316
 20
-12.751014
 30
0.0
 11
-15.535633
 21
-12.751014
 31
0.0
  0
ARC
  5
3E7
100
AcDbEntity
  8
0
370
    -3
  6
Continuous
100
AcDbCircle
 10
-14.229316
 20
-11.251014
 30
0.0
 40
0.5
100
AcDbArc
 50
90.0
 51
180.0
  0
LINE
  5
3E8
100
AcDbEntity
  8
0
370
    -3
  6
Continuous
100
AcDbLine
 10
-14.729316
 20
-12.251014
 30
0.0
 11
-14.729316
 21
-11.251014
 31
0.0
  0
LINE
  5
3E9
100
AcDbEntity
  8
0
370
    -3
  6
Continuous
100
AcDbLine
 10
-24.729316
 20
-12.251014
 30
0.0
 11
-24.729316
 21
-11.251014
 31
0.0
  0
ARC
  5
3EA
100
AcDbEntity
  8
0
370
    -3
  6
Continuous
100
AcDbCircle
 10
-25.229316
 20
-11.251014
 30
0.0
 40
0.5
100
AcDbArc
 50
0.0
 51
90.0
  0
LINE
  5
3EB
100
AcDbEntity
  8
0
370
    -3
  6
Continuous
100
AcDbLine
 10
-10.960277
 20
-12.751014
 30
0.0
 11
-10.960277
 21
-14.251014
 31
0.0
  0
LINE
  5
3EC
100
AcDbEntity
  8
0
370
    -3
  6
Continuous
100
AcDbLine
 10
-24.193131
 20
-12.751014
 30
0.0
 11
-15.535633
 21
-12.751014
 31
0.0
  0
ARC
  5
3ED
100
AcDbEntity
  8
0
370
    -3
  6
Continuous
100
AcDbCircle
 10
214.115354
 20
-55.436411
 30
0.0
 40
300.8
100
AcDbArc
 50
162.341575
 51
167.89975
  0
ARC
  5
3EE
100
AcDbEntity
  8
0
370
    -3
  6
Continuous
100
AcDbCircle
 10
-62.220381
 20
32.532683
 30
0.0
 40
10.8
100
AcDbArc
 50
92.437505
 51
162.341575
  0
LINE
  5
3EF
100
AcDbEntity
  8
0
370
    -3
  6
Continuous
100
AcDbLine
 10
-85.748636
 20
-3.995491
 30
0.0
 11
2.700429
 21
37.248986
 31
0.0
  0
LINE
  5
3F0
100
AcDbEntity
  8
0
370
    -3
  6
Continuous
100
AcDbLine
 10
-86.568468
 20
2.021807
 30
0.0
 11
6.781234
 21
45.551488
 31
0.0
  0
LINE
  5
3F1
100
AcDbEntity
  8
0
370
    -3
  6
Continuous
100
AcDbLine
 10
-78.498174
 20
-0.614545
 30
0.0
 11
-77.592409
 21
-2.556964
 31
0.0
  0
LINE
  5
3F2
100
AcDbEntity
  8
0
370
    -3
  6
Continuous
100
AcDbLine
 10
-66.897435
 20
4.794969
 30
0.0
 11
-63.469172
 21
-2.556964
 31
0.0
  0
ARC
  5
3F3
100
AcDbEntity
  8
0
370
    -3
  6
Continuous
100
AcDbCircle
 10
-60.025202
 20
-0.951014
 30
0.0
 40
3.8
100
AcDbArc
 50
205.0
 51
270.0
  0
ARC
  5
3F4
100
AcDbEntity
  8
0
370
    -3
  6
Continuous
100
AcDbCircle
 10
-73.110103
 20
23.971
 30
0.0
 40
2.8
100
AcDbArc
 50
164.545811
 51
205.0
  0
LINE
  5
3F5
100
AcDbEntity
  8
0
370
    -3
  6
Continuous
100
AcDbLine
 10
-75.647765
 20
22.787669
 30
0.0
 11
-70.912338
 21
12.632514
 31
0.0
  0
ARC
  5
3F6
100
AcDbEntity
  8
0
370
    -3
  6
Continuous
100
AcDbCircle
 10
-73.631262
 20
11.364659
 30
0.0
 40
3.0
100
AcDbArc
 50
295.0
 51
25.0
  0
ARC
  5
3F7
100
AcDbEntity
  8
0
370
    -3
  6
Continuous
100
AcDbCircle
 10
-79.550498
 20
6.374575
 30
0.0
 40
1.299999
100
AcDbArc
 50
24.999999
 51
98.398469
  0
LINE
  5
3F8
100
AcDbEntity
  8
0
370
    -3
  6
Continuous
100
AcDbLine
 10
-77.958544
 20
6.03668
 30
0.0
 11
-78.372298
 21
6.923979
 31
0.0
  0
ARC
  5
3F9
100
AcDbEntity
  8
0
370
    -3
  6
Continuous
100
AcDbCircle
 10
-78.425865
 20
-1.242853
 30
0.0
 40
9.0
100
AcDbArc
 50
98.398469
 51
131.601548
  0
ARC
  5
3FA
100
AcDbEntity
  8
0
370
    -3
  6
Continuous
100
AcDbCircle
 10
-83.538253
 20
4.515054
 30
0.0
 40
1.299999
100
AcDbArc
 50
131.601548
 51
205.000018
  0
LINE
  5
3FB
100
AcDbEntity
  8
0
370
    -3
  6
CENTER
100
AcDbLine
 10
-79.872948
 20
1.860426
 30
0.0
 11
-82.742868
 21
8.014991
 31
0.0
  0
LINE
  5
3FC
100
AcDbEntity
  8
0
370
    -3
  6
Continuous
100
AcDbLine
 10
-84.302699
 20
3.078353
 30
0.0
 11
-84.716453
 21
3.965651
 31
0.0
  0
POINT
  5
3FD
100
AcDbEntity
  8
0
370
    -3
  6
Continuous
100
AcDbPoint
 10
-81.106911
 20
4.568573
 30
0.0
  0
LINE
  5
3FE
100
AcDbEntity
  8
0
370
    -3
  6
CENTER
100
AcDbLine
 10
-79.872948
 20
1.860426
 30
0.0
 11
-82.742868
 21
8.014991
 31
0.0
  0
ARC
  5
3FF
100
AcDbEntity
  8
0
370
    -3
  6
Continuous
100
AcDbCircle
 10
-85.807756
 20
0.390453
 30
0.0
 40
1.8
100
AcDbArc
 50
115.0
 51
205.0
  0
LINE
  5
400
100
AcDbEntity
  8
0
370
    -3
  6
Continuous
100
AcDbLine
 10
-87.43911
 20
-0.37026
 30
0.0
 11
-85.748636
 21
-3.995491
 31
0.0
  0
ARC
  5
401
100
AcDbEntity
  8
0
370
    -3
  6
Continuous
100
AcDbCircle
 10
-74.14844
 20
-0.951014
 30
0.0
 40
3.8
100
AcDbArc
 50
205.0
 51
270.0
  0
LINE
  5
402
100
AcDbEntity
  8
0
370
    -3
  6
Continuous
100
AcDbLine
 10
-9.38598
 20
31.613
 30
0.0
 11
-9.38598
 21
-1.751014
 31
0.0
  0
LINE
  5
403
100
AcDbEntity
  8
0
370
    -3
  6
Continuous
100
AcDbLine
 10
2.289714
 20
37.057466
 30
0.0
 11
2.289714
 21
2.048986
 31
0.0
  0
LINE
  5
404
100
AcDbEntity
  8
0
370
    -3
  6
Continuous
100
AcDbLine
 10
4.289714
 20
20.248986
 30
0.0
 11
4.289714
 21
34.248986
 31
0.0
  0
LINE
  5
405
100
AcDbEntity
  8
0
370
    -3
  6
Continuous
100
AcDbLine
 10
2.700429
 20
37.248986
 30
0.0
 11
10.863774
 21
41.055616
 31
0.0
  0
ARC
  5
406
100
AcDbEntity
  8
0
370
    -3
  6
Continuous
100
AcDbCircle
 10
-8.691683
 20
41.646482
 30
0.0
 40
3.0
100
AcDbArc
 50
205.0
 51
295.0
  0
LINE
  5
407
100
AcDbEntity
  8
0
370
    -3
  6
Continuous
100
AcDbLine
 10
26.289714
 20
34.248986
 30
0.0
 11
2.289714
 21
34.248986
 31
0.0
  0
POINT
  5
408
100
AcDbEntity
  8
0
370
    -3
  6
CENTER
100
AcDbPoint
 10
28.289714
 20
30.726486
 30
0.0
  0
POINT
  5
409
100
AcDbEntity
  8
0
370
    -3
  6
CENTER
100
AcDbPoint
 10
28.289714
 20
9.771486
 30
0.0
  0
ARC
  5
40A
100
AcDbEntity
  8
0
370
    -3
  6
Continuous
100
AcDbCircle
 10
-12.38598
 20
-1.751014
 30
0.0
 40
3.0
100
AcDbArc
 50
270.0
 51
0.0
  0
LINE
  5
40B
100
AcDbEntity
  8
0
370
    -3
  6
CENTER
100
AcDbLine
 10
-42.710286
 20
-17.528432
 30
0.0
 11
-42.710286
 21
5.381545
 31
0.0
  0
ARC
  5
40C
100
AcDbEntity
  8
0
370
    -3
  6
Continuous
100
AcDbCircle
 10
-14.710286
 20
-4.751014
 30
0.0
 40
1.0
100
AcDbArc
 50
270.0
 51
346.657636
  0
LINE
  5
40D
100
AcDbEntity
  8
0
370
    -3
  6
Continuous
100
AcDbLine
 10
-4.510286
 20
-4.751014
 30
0.0
 11
-74.14844
 21
-4.751014
 31
0.0
  0
ARC
  5
40E
100
AcDbEntity
  8
0
370
    -3
  6
Continuous
100
AcDbCircle
 10
-70.710286
 20
-4.751014
 30
0.0
 40
1.0
100
AcDbArc
 50
193.342364
 51
270.0
  0
LINE
  5
40F
100
AcDbEntity
  8
0
370
    -3
  6
Continuous
100
AcDbLine
 10
4.289714
 20
6.248986
 30
0.0
 11
4.289714
 21
20.248986
 31
0.0
  0
LINE
  5
410
100
AcDbEntity
  8
0
370
    -3
  6
CENTER
100
AcDbLine
 10
33.768337
 20
20.248986
 30
0.0
 11
-6.538149
 21
20.248986
 31
0.0
  0
LINE
  5
411
100
AcDbEntity
  8
0
370
    -3
  6
Continuous
100
AcDbLine
 10
28.289714
 20
32.248986
 30
0.0
 11
28.289714
 21
20.248986
 31
0.0
  0
LINE
  5
412
100
AcDbEntity
  8
0
370
    -3
  6
Continuous
100
AcDbLine
 10
28.289714
 20
8.248986
 30
0.0
 11
28.289714
 21
20.248986
 31
0.0
  0
ARC
  5
413
100
AcDbEntity
  8
0
370
    -3
  6
Continuous
100
AcDbCircle
 10
26.289714
 20
32.248986
 30
0.0
 40
2.0
100
AcDbArc
 50
0.0
 51
90.0
  0
ARC
  5
414
100
AcDbEntity
  8
0
370
    -3
  6
Continuous
100
AcDbCircle
 10
26.289714
 20
8.248986
 30
0.0
 40
2.0
100
AcDbArc
 50
270.0
 51
0.0
  0
LINE
  5
415
100
AcDbEntity
  8
0
370
    -3
  6
Continuous
100
AcDbLine
 10
26.289714
 20
6.248986
 30
0.0
 11
4.289714
 21
6.248986
 31
0.0
  0
LINE
  5
416
100
AcDbEntity
  8
0
370
    -3
  6
Continuous
100
AcDbLine
 10
4.289714
 20
6.248986
 30
0.0
 11
2.289714
 21
6.248986
 31
0.0
  0
LINE
  5
417
100
AcDbEntity
  8
0
370
    -3
  6
Continuous
100
AcDbLine
 10
-11.710286
 20
-6.751014
 30
0.0
 11
-73.710286
 21
-6.751014
 31
0.0
  0
LINE
  5
418
100
AcDbEntity
  8
0
370
    -3
  6
Continuous
100
AcDbLine
 10
-11.710286
 20
-5.751014
 30
0.0
 11
-73.710286
 21
-5.751014
 31
0.0
  0
LINE
  5
419
100
AcDbEntity
  8
0
370
    -3
  6
Continuous
100
AcDbLine
 10
-11.710286
 20
-6.751014
 30
0.0
 11
-11.710286
 21
-5.751014
 31
0.0
  0
LINE
  5
41A
100
AcDbEntity
  8
0
370
    -3
  6
Continuous
100
AcDbLine
 10
-73.710286
 20
-6.751014
 30
0.0
 11
-73.710286
 21
-5.751014
 31
0.0
  0
ARC
  5
41B
100
AcDbEntity
  8
0
370
    -3
  6
Continuous
100
AcDbCircle
 10
-4.510286
 20
2.048986
 30
0.0
 40
6.8
100
AcDbArc
 50
270.0
 51
0.0
  0
ARC
  5
41C
100
AcDbEntity
  8
0
370
    -3
  6
Continuous
100
AcDbCircle
 10
-71.975197
 20
-5.051014
 30
0.0
 40
0.3
100
AcDbArc
 50
13.342364
 51
90.0
  0
ARC
  5
41D
100
AcDbEntity
  8
0
370
    -3
  6
Continuous
100
AcDbCircle
 10
-13.445375
 20
-5.051014
 30
0.0
 40
0.3
100
AcDbArc
 50
90.0
 51
166.657636
  0
ARC
  5
41E
100
AcDbEntity
  8
0
370
    -3
  6
Continuous
100
AcDbCircle
 10
-37.127888
 20
-556.933488
 30
0.0
 40
600.8
100
AcDbArc
 50
86.682408
 51
92.437505
  0
LINE
  5
41F
100
AcDbEntity
  8
0
370
    -3
  6
Continuous
100
AcDbLine
 10
-11.410606
 20
40.378627
 30
0.0
 11
-12.085636
 21
41.826235
 31
0.0
  0
ARC
  5
420
100
AcDbEntity
  8
0
370
    -3
  6
Continuous
100
AcDbCircle
 10
-14.623298
 20
40.642904
 30
0.0
 40
2.8
100
AcDbArc
 50
25.0
 51
87.843273
  0
ARC
  5
421
100
AcDbEntity
  8
0
370
    -3
  6
Continuous
100
AcDbCircle
 10
2.923511
 20
44.832837
 30
0.0
 40
1.299999
100
AcDbArc
 50
24.999999
 51
98.398469
  0
ARC
  5
422
100
AcDbEntity
  8
0
370
    -3
  6
Continuous
100
AcDbCircle
 10
-1.064245
 20
42.973316
 30
0.0
 40
1.299999
100
AcDbArc
 50
131.601548
 51
205.000018
  0
LINE
  5
423
100
AcDbEntity
  8
0
370
    -3
  6
Continuous
100
AcDbLine
 10
4.515464
 20
44.494942
 30
0.0
 11
4.10171
 21
45.38224
 31
0.0
  0
LINE
  5
424
100
AcDbEntity
  8
0
370
    -3
  6
Continuous
100
AcDbLine
 10
-1.82869
 20
41.536614
 30
0.0
 11
-2.242444
 21
42.423913
 31
0.0
  0
POINT
  5
425
100
AcDbEntity
  8
0
370
    -3
  6
Continuous
100
AcDbPoint
 10
1.343387
 20
43.015778
 30
0.0
  0
ARC
  5
426
100
AcDbEntity
  8
0
370
    -3
  6
Continuous
100
AcDbCircle
 10
4.048144
 20
37.215409
 30
0.0
 40
9.0
100
AcDbArc
 50
98.398469
 51
131.601548
  0
LINE
  5
427
100
AcDbEntity
  8
0
370
    -3
  6
CENTER
100
AcDbLine
 10
2.601061
 20
40.318688
 30
0.0
 11
-0.26886
 21
46.473252
 31
0.0
  0
ARC
  5
428
100
AcDbEntity
  8
0
370
    -3
  6
Continuous
100
AcDbCircle
 10
7.541947
 20
43.920134
 30
0.0
 40
1.8
100
AcDbArc
 50
25.0
 51
115.0
  0
LINE
  5
429
100
AcDbEntity
  8
0
370
    -3
  6
Continuous
100
AcDbLine
 10
9.173301
 20
44.680847
 30
0.0
 11
10.863774
 21
41.055616
 31
0.0
  0
ARC
  5
42A
100
AcDbEntity
  8
0
370
    -3
  6
Continuous
100
AcDbCircle
 10
166.250135
 20
-16.251014
 30
0.0
 40
0.5
100
AcDbArc
 50
187.125016
 51
270.0
  0
LINE
  5
42B
100
AcDbEntity
  8
0
370
    -3
  6
Continuous
100
AcDbLine
 10
166.250135
 20
-16.751014
 30
0.0
 11
172.289714
 21
-16.751014
 31
0.0
  0
ARC
  5
42C
100
AcDbEntity
  8
0
370
    -3
  6
Continuous
100
AcDbCircle
 10
218.329293
 20
-16.251014
 30
0.0
 40
0.5
100
AcDbArc
 50
270.0
 51
352.874984
  0
LINE
  5
42D
100
AcDbEntity
  8
0
370
    -3
  6
Continuous
100
AcDbLine
 10
218.329293
 20
-16.751014
 30
0.0
 11
212.289714
 21
-16.751014
 31
0.0
  0
LINE
  5
42E
100
AcDbEntity
  8
0
370
    -3
  6
Continuous
100
AcDbLine
 10
211.039714
 20
-14.251014
 30
0.0
 11
211.039714
 21
-12.751014
 31
0.0
  0
LINE
  5
42F
100
AcDbEntity
  8
0
370
    -3
  6
Continuous
100
AcDbLine
 10
211.458184
 20
-14.251014
 30
0.0
 11
211.325432
 21
-13.188997
 31
0.0
  0
ARC
  5
430
100
AcDbEntity
  8
0
370
    -3
  6
Continuous
100
AcDbCircle
 10
210.829293
 20
-13.251014
 30
0.0
 40
0.5
100
AcDbArc
 50
7.125016
 51
90.0
  0
LINE
  5
431
100
AcDbEntity
  8
0
370
    -3
  6
Continuous
100
AcDbLine
 10
218.825432
 20
-16.313032
 30
0.0
 11
219.215936
 21
-13.188997
 31
0.0
  0
ARC
  5
432
100
AcDbEntity
  8
0
370
    -3
  6
Continuous
100
AcDbCircle
 10
219.712075
 20
-13.251014
 30
0.0
 40
0.5
100
AcDbArc
 50
90.0
 51
172.874984
  0
ARC
  5
433
100
AcDbEntity
  8
0
370
    -3
  6
Continuous
100
AcDbCircle
 10
219.770684
 20
-12.251014
 30
0.0
 40
0.5
100
AcDbArc
 50
270.0
 51
0.0
  0
LINE
  5
434
100
AcDbEntity
  8
0
370
    -3
  6
Continuous
100
AcDbLine
 10
220.270684
 20
-12.251014
 30
0.0
 11
220.270684
 21
-11.251014
 31
0.0
  0
ARC
  5
435
100
AcDbEntity
  8
0
370
    -3
  6
Continuous
100
AcDbCircle
 10
220.770684
 20
-11.251014
 30
0.0
 40
0.5
100
AcDbArc
 50
90.0
 51
180.0
  0
LINE
  5
436
100
AcDbEntity
  8
0
370
    -3
  6
Continuous
100
AcDbLine
 10
210.806869
 20
-12.751014
 30
0.0
 11
219.770684
 21
-12.751014
 31
0.0
  0
LINE
  5
437
100
AcDbEntity
  8
0
370
    -3
  6
Continuous
100
AcDbLine
 10
192.289714
 20
-12.751014
 30
0.0
 11
210.806869
 21
-12.751014
 31
0.0
  0
LINE
  5
438
100
AcDbEntity
  8
0
370
    -3
  6
Continuous
100
AcDbLine
 10
192.289714
 20
-12.751014
 30
0.0
 11
173.772558
 21
-12.751014
 31
0.0
  0
ARC
  5
439
100
AcDbEntity
  8
0
370
    -3
  6
Continuous
100
AcDbCircle
 10
173.772558
 20
-12.251014
 30
0.0
 40
0.5
100
AcDbArc
 50
182.0
 51
270.0
  0
LINE
  5
43A
100
AcDbEntity
  8
0
370
    -3
  6
Continuous
100
AcDbLine
 10
173.272863
 20
-12.268464
 30
0.0
 11
173.236723
 21
-11.233565
 31
0.0
  0
ARC
  5
43B
100
AcDbEntity
  8
0
370
    -3
  6
Continuous
100
AcDbCircle
 10
172.737028
 20
-11.251014
 30
0.0
 40
0.5
100
AcDbArc
 50
2.0
 51
90.0
  0
LINE
  5
43C
100
AcDbEntity
  8
0
370
    -3
  6
Continuous
100
AcDbLine
 10
172.737028
 20
-10.751014
 30
0.0
 11
159.68497
 21
-10.751014
 31
0.0
  0
LINE
  5
43D
100
AcDbEntity
  8
0
370
    -3
  6
Continuous
100
AcDbLine
 10
159.68497
 20
-10.751014
 30
0.0
 11
159.764213
 21
-7.724838
 31
0.0
  0
ARC
  5
43E
100
AcDbEntity
  8
0
370
    -3
  6
Continuous
100
AcDbCircle
 10
160.763871
 20
-7.751014
 30
0.0
 40
1.0
100
AcDbArc
 50
90.0
 51
178.5
  0
LINE
  5
43F
100
AcDbEntity
  8
0
370
    -3
  6
Continuous
100
AcDbLine
 10
160.763871
 20
-6.751014
 30
0.0
 11
223.815557
 21
-6.751014
 31
0.0
  0
ARC
  5
440
100
AcDbEntity
  8
0
370
    -3
  6
Continuous
100
AcDbCircle
 10
223.815557
 20
-7.751014
 30
0.0
 40
1.0
100
AcDbArc
 50
1.5
 51
90.0
  0
LINE
  5
441
100
AcDbEntity
  8
0
370
    -3
  6
Continuous
100
AcDbLine
 10
224.894457
 20
-10.751014
 30
0.0
 11
224.815214
 21
-7.724838
 31
0.0
  0
LINE
  5
442
100
AcDbEntity
  8
0
370
    -3
  6
Continuous
100
AcDbLine
 10
211.8424
 20
-10.751014
 30
0.0
 11
224.894457
 21
-10.751014
 31
0.0
  0
ARC
  5
443
100
AcDbEntity
  8
0
370
    -3
  6
Continuous
100
AcDbCircle
 10
211.8424
 20
-11.251014
 30
0.0
 40
0.5
100
AcDbArc
 50
90.0
 51
178.0
  0
LINE
  5
444
100
AcDbEntity
  8
0
370
    -3
  6
Continuous
100
AcDbLine
 10
211.306565
 20
-12.268464
 30
0.0
 11
211.342704
 21
-11.233565
 31
0.0
  0
ARC
  5
445
100
AcDbEntity
  8
0
370
    -3
  6
Continuous
100
AcDbCircle
 10
210.806869
 20
-12.251014
 30
0.0
 40
0.5
100
AcDbArc
 50
270.0
 51
358.0
  0
LINE
  5
446
100
AcDbEntity
  8
0
370
    -3
  6
Continuous
100
AcDbLine
 10
173.121243
 20
-14.251014
 30
0.0
 11
173.253996
 21
-13.188997
 31
0.0
  0
ARC
  5
447
100
AcDbEntity
  8
0
370
    -3
  6
Continuous
100
AcDbCircle
 10
173.750135
 20
-13.251014
 30
0.0
 40
0.5
100
AcDbArc
 50
90.0
 51
172.874984
  0
LINE
  5
448
100
AcDbEntity
  8
0
370
    -3
  6
Continuous
100
AcDbLine
 10
173.539714
 20
-14.251014
 30
0.0
 11
173.539714
 21
-12.751014
 31
0.0
  0
LINE
  5
449
100
AcDbEntity
  8
0
370
    -3
  6
Continuous
100
AcDbLine
 10
173.772558
 20
-12.751014
 30
0.0
 11
164.808743
 21
-12.751014
 31
0.0
  0
ARC
  5
44A
100
AcDbEntity
  8
0
370
    -3
  6
Continuous
100
AcDbCircle
 10
164.867352
 20
-13.251014
 30
0.0
 40
0.5
100
AcDbArc
 50
7.125016
 51
90.0
  0
ARC
  5
44B
100
AcDbEntity
  8
0
370
    -3
  6
Continuous
100
AcDbCircle
 10
164.808743
 20
-12.251014
 30
0.0
 40
0.5
100
AcDbArc
 50
180.0
 51
270.0
  0
LINE
  5
44C
100
AcDbEntity
  8
0
370
    -3
  6
Continuous
100
AcDbLine
 10
164.308743
 20
-12.251014
 30
0.0
 11
164.308743
 21
-11.251014
 31
0.0
  0
ARC
  5
44D
100
AcDbEntity
  8
0
370
    -3
  6
Continuous
100
AcDbCircle
 10
163.808743
 20
-11.251014
 30
0.0
 40
0.5
100
AcDbArc
 50
0.0
 51
90.0
  0
ARC
  5
44E
100
AcDbEntity
  8
0
370
    -3
  6
Continuous
100
AcDbCircle
 10
192.289714
 20
20.248986
 30
0.0
 40
14.0
100
AcDbArc
 50
90.0
 51
270.0
  0
ARC
  5
44F
100
AcDbEntity
  8
0
370
    -3
  6
Continuous
100
AcDbCircle
 10
192.289714
 20
20.248986
 30
0.0
 40
9.3155
100
AcDbArc
 50
90.0
 51
270.0
  0
ARC
  5
450
100
AcDbEntity
  8
0
370
    -3
  6
Continuous
100
AcDbCircle
 10
192.289714
 20
20.248986
 30
0.0
 40
10.4775
100
AcDbArc
 50
90.0
 51
270.0
  0
ELLIPSE
  5
451
100
AcDbEntity
  8
0
370
    -3
  6
Continuous
100
AcDbEllipse
 10
152.789714
 20
43.834725
 30
0.0
 11
3.5
 21
0.0
 31
0.0
210
0.0
220
0.0
230
1.0
 40
0.656603
 41
0.9621393645107007
 42
2.7085416781366591
  0
LINE
  5
452
100
AcDbEntity
  8
0
370
    -3
  6
Continuous
100
AcDbLine
 10
192.289714
 20
40.717521
 30
0.0
 11
153.289714
 21
40.717521
 31
0.0
  0
LINE
  5
453
100
AcDbEntity
  8
0
370
    -3
  6
Continuous
100
AcDbLine
 10
153.289714
 20
45.720134
 30
0.0
 11
192.289714
 21
45.720134
 31
0.0
  0
LINE
  5
454
100
AcDbEntity
  8
0
370
    -3
  6
Continuous
100
AcDbLine
 10
192.289714
 20
-6.751014
 30
0.0
 11
161.289714
 21
-6.751014
 31
0.0
  0
LINE
  5
455
100
AcDbEntity
  8
0
370
    -3
  6
Continuous
100
AcDbLine
 10
161.289714
 20
-5.751014
 30
0.0
 11
192.289714
 21
-5.751014
 31
0.0
  0
LINE
  5
456
100
AcDbEntity
  8
0
370
    -3
  6
Continuous
100
AcDbLine
 10
161.289714
 20
-6.751014
 30
0.0
 11
161.289714
 21
-5.751014
 31
0.0
  0
LINE
  5
457
100
AcDbEntity
  8
0
370
    -3
  6
Continuous
100
AcDbLine
 10
192.289714
 20
-5.751014
 30
0.0
 11
164.289714
 21
-5.751014
 31
0.0
  0
LINE
  5
458
100
AcDbEntity
  8
0
370
    -3
  6
Continuous
100
AcDbLine
 10
192.289714
 20
39.484897
 30
0.0
 11
166.23068
 21
39.484897
 31
0.0
  0
LINE
  5
459
100
AcDbEntity
  8
0
370
    -3
  6
Continuous
100
AcDbLine
 10
152.989714
 20
2.048986
 30
0.0
 11
152.989714
 21
31.681844
 31
0.0
  0
LINE
  5
45A
100
AcDbEntity
  8
0
370
    -3
  6
Continuous
100
AcDbLine
 10
164.747283
 20
39.183402
 30
0.0
 11
155.306317
 21
35.180348
 31
0.0
  0
ARC
  5
45B
100
AcDbEntity
  8
0
370
    -3
  6
Continuous
100
AcDbCircle
 10
166.23068
 20
35.684897
 30
0.0
 40
3.8
100
AcDbArc
 50
90.0
 51
112.977375
  0
ARC
  5
45C
100
AcDbEntity
  8
0
370
    -3
  6
Continuous
100
AcDbCircle
 10
156.789714
 20
31.681844
 30
0.0
 40
3.8
100
AcDbArc
 50
112.977375
 51
180.0
  0
LINE
  5
45D
100
AcDbEntity
  8
0
370
    -3
  6
Continuous
100
AcDbLine
 10
192.289714
 20
-4.751014
 30
0.0
 11
159.789714
 21
-4.751014
 31
0.0
  0
ARC
  5
45E
100
AcDbEntity
  8
0
370
    -3
  6
Continuous
100
AcDbCircle
 10
159.789714
 20
2.048986
 30
0.0
 40
6.8
100
AcDbArc
 50
180.0
 51
270.0
  0
LINE
  5
45F
100
AcDbEntity
  8
0
370
    -3
  6
Continuous
100
AcDbLine
 10
153.838525
 20
-1.240901
 30
0.0
 11
152.789714
 21
-1.240901
 31
0.0
  0
ARC
  5
460
100
AcDbEntity
  8
0
370
    -3
  6
Continuous
100
AcDbCircle
 10
163.024803
 20
-5.051014
 30
0.0
 40
0.3
100
AcDbArc
 50
13.342364
 51
90.0
  0
ARC
  5
461
100
AcDbEntity
  8
0
370
    -3
  6
Continuous
100
AcDbCircle
 10
164.289714
 20
-4.751014
 30
0.0
 40
1.0
100
AcDbArc
 50
193.342364
 51
270.0
  0
LINE
  5
462
100
AcDbEntity
  8
0
370
    -3
  6
Continuous
100
AcDbLine
 10
156.091443
 20
-3.657397
 30
0.0
 11
153.289714
 21
-3.657397
 31
0.0
  0
LINE
  5
463
100
AcDbEntity
  8
0
370
    -3
  6
Continuous
100
AcDbLine
 10
153.289714
 20
-3.995491
 30
0.0
 11
156.674541
 21
-3.995491
 31
0.0
  0
LINE
  5
464
100
AcDbEntity
  8
0
370
    -3
  6
Continuous
100
AcDbLine
 10
192.289714
 20
41.055616
 30
0.0
 11
153.289714
 21
41.055616
 31
0.0
  0
LINE
  5
465
100
AcDbEntity
  8
0
370
    -3
  6
CENTER
100
AcDbLine
 10
210.934646
 20
20.248986
 30
0.0
 11
170.989257
 21
20.248986
 31
0.0
  0
ARC
  5
466
100
AcDbEntity
  8
0
370
    -3
  6
Continuous
100
AcDbCircle
 10
231.289714
 20
3.804509
 30
0.0
 40
7.8
100
AcDbArc
 50
270.0
 51
0.0
  0
LINE
  5
467
100
AcDbEntity
  8
0
370
    -3
  6
Continuous
100
AcDbLine
 10
238.289714
 20
33.717521
 30
0.0
 11
238.289714
 21
3.342603
 31
0.0
  0
ARC
  5
468
100
AcDbEntity
  8
0
370
    -3
  6
Continuous
100
AcDbCircle
 10
231.289714
 20
33.717521
 30
0.0
 40
7.0
100
AcDbArc
 50
0.0
 51
90.0
  0
ARC
  5
469
100
AcDbEntity
  8
0
370
    -3
  6
Continuous
100
AcDbCircle
 10
231.289714
 20
33.255616
 30
0.0
 40
7.8
100
AcDbArc
 50
0.0
 51
90.0
  0
ARC
  5
46A
100
AcDbEntity
  8
0
370
    -3
  6
Continuous
100
AcDbCircle
 10
231.289714
 20
37.920134
 30
0.0
 40
7.8
100
AcDbArc
 50
0.0
 51
90.0
  0
ELLIPSE
  5
46B
100
AcDbEntity
  8
0
370
    -3
  6
Continuous
100
AcDbEllipse
 10
231.789714
 20
43.834725
 30
0.0
 11
3.5
 21
0.0
 31
0.0
210
0.0
220
0.0
230
1.0
 40
0.656603
 41
0.4330509754535478
 42
2.1794532890791989
  0
LINE
  5
46C
100
AcDbEntity
  8
0
370
    -3
  6
Continuous
100
AcDbLine
 10
239.089714
 20
37.920134
 30
0.0
 11
239.089714
 21
3.804509
 31
0.0
  0
LINE
  5
46D
100
AcDbEntity
  8
0
370
    -3
  6
Continuous
100
AcDbLine
 10
192.289714
 20
40.717521
 30
0.0
 11
231.289714
 21
40.717521
 31
0.0
  0
LINE
  5
46E
100
AcDbEntity
  8
0
370
    -3
  6
Continuous
100
AcDbLine
 10
231.289714
 20
45.720134
 30
0.0
 11
192.289714
 21
45.720134
 31
0.0
  0
LINE
  5
46F
100
AcDbEntity
  8
0
370
    -3
  6
Continuous
100
AcDbLine
 10
192.289714
 20
-6.751014
 30
0.0
 11
223.289714
 21
-6.751014
 31
0.0
  0
LINE
  5
470
100
AcDbEntity
  8
0
370
    -3
  6
Continuous
100
AcDbLine
 10
223.289714
 20
-5.751014
 30
0.0
 11
192.289714
 21
-5.751014
 31
0.0
  0
LINE
  5
471
100
AcDbEntity
  8
0
370
    -3
  6
Continuous
100
AcDbLine
 10
223.289714
 20
-6.751014
 30
0.0
 11
223.289714
 21
-5.751014
 31
0.0
  0
ARC
  5
472
100
AcDbEntity
  8
0
370
    -3
  6
Continuous
100
AcDbCircle
 10
231.289714
 20
3.342603
 30
0.0
 40
7.0
100
AcDbArc
 50
270.0
 51
0.0
  0
LINE
  5
473
100
AcDbEntity
  8
0
370
    -3
  6
Continuous
100
AcDbLine
 10
192.289714
 20
-5.751014
 30
0.0
 11
220.289714
 21
-5.751014
 31
0.0
  0
LINE
  5
474
100
AcDbEntity
  8
0
370
    -3
  6
Continuous
100
AcDbLine
 10
192.289714
 20
39.484897
 30
0.0
 11
218.348747
 21
39.484897
 31
0.0
  0
LINE
  5
475
100
AcDbEntity
  8
0
370
    -3
  6
Continuous
100
AcDbLine
 10
231.589714
 20
2.048986
 30
0.0
 11
231.589714
 21
31.681844
 31
0.0
  0
LINE
  5
476
100
AcDbEntity
  8
0
370
    -3
  6
Continuous
100
AcDbLine
 10
219.832144
 20
39.183402
 30
0.0
 11
229.273111
 21
35.180348
 31
0.0
  0
ARC
  5
477
100
AcDbEntity
  8
0
370
    -3
  6
Continuous
100
AcDbCircle
 10
218.348747
 20
35.684897
 30
0.0
 40
3.8
100
AcDbArc
 50
67.022625
 51
90.0
  0
ARC
  5
478
100
AcDbEntity
  8
0
370
    -3
  6
Continuous
100
AcDbCircle
 10
227.789714
 20
31.681844
 30
0.0
 40
3.8
100
AcDbArc
 50
0.0
 51
67.022625
  0
LINE
  5
479
100
AcDbEntity
  8
0
370
    -3
  6
Continuous
100
AcDbLine
 10
192.289714
 20
-4.751014
 30
0.0
 11
224.789714
 21
-4.751014
 31
0.0
  0
ARC
  5
47A
100
AcDbEntity
  8
0
370
    -3
  6
Continuous
100
AcDbCircle
 10
224.789714
 20
2.048986
 30
0.0
 40
6.8
100
AcDbArc
 50
270.0
 51
0.0
  0
LINE
  5
47B
100
AcDbEntity
  8
0
370
    -3
  6
Continuous
100
AcDbLine
 10
230.740902
 20
-1.240901
 30
0.0
 11
231.789714
 21
-1.240901
 31
0.0
  0
ARC
  5
47C
100
AcDbEntity
  8
0
370
    -3
  6
Continuous
100
AcDbCircle
 10
231.789714
 20
4.759099
 30
0.0
 40
6.0
100
AcDbArc
 50
270.0
 51
0.0
  0
ARC
  5
47D
100
AcDbEntity
  8
0
370
    -3
  6
Continuous
100
AcDbCircle
 10
221.554625
 20
-5.051014
 30
0.0
 40
0.3
100
AcDbArc
 50
90.0
 51
166.657636
  0
ARC
  5
47E
100
AcDbEntity
  8
0
370
    -3
  6
Continuous
100
AcDbCircle
 10
220.289714
 20
-4.751014
 30
0.0
 40
1.0
100
AcDbArc
 50
270.0
 51
346.657636
  0
LINE
  5
47F
100
AcDbEntity
  8
0
370
    -3
  6
Continuous
100
AcDbLine
 10
228.487984
 20
-3.657397
 30
0.0
 11
231.289714
 21
-3.657397
 31
0.0
  0
LINE
  5
480
100
AcDbEntity
  8
0
370
    -3
  6
Continuous
100
AcDbLine
 10
231.289714
 20
-3.995491
 30
0.0
 11
227.904887
 21
-3.995491
 31
0.0
  0
LINE
  5
481
100
AcDbEntity
  8
0
370
    -3
  6
Continuous
100
AcDbLine
 10
237.789714
 20
4.759099
 30
0.0
 11
237.789714
 21
36.315597
 31
0.0
  0
LINE
  5
482
100
AcDbEntity
  8
0
370
    -3
  6
Continuous
100
AcDbLine
 10
192.289714
 20
41.055616
 30
0.0
 11
231.289714
 21
41.055616
 31
0.0
  0
ARC
  5
483
100
AcDbEntity
  8
0
370
    -3
  6
Continuous
100
AcDbCircle
 10
192.289714
 20
20.248986
 30
0.0
 40
14.0
100
AcDbArc
 50
270.0
 51
90.0
  0
ARC
  5
484
100
AcDbEntity
  8
0
370
    -3
  6
Continuous
100
AcDbCircle
 10
192.289714
 20
20.248986
 30
0.0
 40
9.3155
100
AcDbArc
 50
270.0
 51
90.0
  0
ARC
  5
485
100
AcDbEntity
  8
0
370
    -3
  6
Continuous
100
AcDbCircle
 10
192.289714
 20
20.248986
 30
0.0
 40
10.4775
100
AcDbArc
 50
270.0
 51
90.0
  0
LINE
  5
486
100
AcDbEntity
  8
0
370
    -3
  6
Continuous
100
AcDbLine
 10
165.458343
 20
2.048986
 30
0.0
 11
165.458343
 21
39.405582
 31
0.0
  0
ARC
  5
487
100
AcDbEntity
  8
0
370
    -3
  6
Continuous
100
AcDbCircle
 10
172.258343
 20
2.048986
 30
0.0
 40
6.8
100
AcDbArc
 50
180.0
 51
270.0
  0
ARC
  5
488
100
AcDbEntity
  8
0
370
    -3
  6
Continuous
100
AcDbCircle
 10
212.321085
 20
2.048986
 30
0.0
 40
6.8
100
AcDbArc
 50
270.0
 51
0.0
  0
LINE
  5
489
100
AcDbEntity
  8
0
370
    -3
  6
Continuous
100
AcDbLine
 10
219.121085
 20
2.048986
 30
0.0
 11
219.121085
 21
39.405582
 31
0.0
  0
LINE
  5
48A
100
AcDbEntity
  8
0
370
    -3
  6
Continuous
100
AcDbLine
 10
223.289714
 20
-6.751014
 30
0.0
 11
161.289714
 21
-6.751014
 31
0.0
  0
ARC
  5
48B
100
AcDbEntity
  8
0
370
    -3
  6
Continuous
100
AcDbCircle
 10
153.289714
 20
3.804509
 30
0.0
 40
7.8
100
AcDbArc
 50
180.0
 51
270.0
  0
ARC
  5
48C
100
AcDbEntity
  8
0
370
    -3
  6
Continuous
100
AcDbCircle
 10
153.289714
 20
33.717521
 30
0.0
 40
7.0
100
AcDbArc
 50
90.0
 51
180.0
  0
ARC
  5
48D
100
AcDbEntity
  8
0
370
    -3
  6
Continuous
100
AcDbCircle
 10
153.289714
 20
33.255616
 30
0.0
 40
7.8
100
AcDbArc
 50
90.0
 51
180.0
  0
ARC
  5
48E
100
AcDbEntity
  8
0
370
    -3
  6
Continuous
100
AcDbCircle
 10
153.289714
 20
37.920134
 30
0.0
 40
7.8
100
AcDbArc
 50
90.0
 51
180.0
  0
ARC
  5
48F
100
AcDbEntity
  8
0
370
    -3
  6
Continuous
100
AcDbCircle
 10
153.289714
 20
3.342603
 30
0.0
 40
7.0
100
AcDbArc
 50
180.0
 51
270.0
  0
ARC
  5
490
100
AcDbEntity
  8
0
370
    -3
  6
Continuous
100
AcDbCircle
 10
152.789714
 20
4.759099
 30
0.0
 40
6.0
100
AcDbArc
 50
180.0
 51
270.0
  0
LINE
  5
491
100
AcDbEntity
  8
0
370
    -3
  6
Continuous
100
AcDbLine
 10
146.289714
 20
33.717521
 30
0.0
 11
146.289714
 21
3.342603
 31
0.0
  0
LINE
  5
492
100
AcDbEntity
  8
0
370
    -3
  6
Continuous
100
AcDbLine
 10
145.489714
 20
37.920134
 30
0.0
 11
145.489714
 21
3.804509
 31
0.0
  0
LINE
  5
493
100
AcDbEntity
  8
0
370
    -3
  6
Continuous
100
AcDbLine
 10
146.789714
 20
4.759099
 30
0.0
 11
146.789714
 21
36.315597
 31
0.0
  0
LINE
  5
494
100
AcDbEntity
  8
0
370
    -3
  6
Continuous
100
AcDbLine
 10
165.753996
 20
-16.313032
 30
0.0
 11
165.363491
 21
-13.188997
 31
0.0
  0
LINE
  5
495
100
AcDbEntity
  8
0
370
    -3
  6
Continuous
100
AcDbLine
 10
-87.607747
 20
204.581038
 30
0.0
 11
-87.607747
 21
165.581038
 31
0.0
  0
ARC
  5
496
100
AcDbEntity
  8
0
370
    -3
  6
Continuous
100
AcDbCircle
 10
-79.807747
 20
165.581038
 30
0.0
 40
7.8
100
AcDbArc
 50
180.0
 51
270.0
  0
LINE
  5
497
100
AcDbEntity
  8
0
370
    -3
  6
Continuous
100
AcDbLine
 10
-79.807747
 20
157.781038
 30
0.0
 11
3.063782
 21
157.781038
 31
0.0
  0
LINE
  5
498
100
AcDbEntity
  8
0
370
    -3
  6
Continuous
100
AcDbLine
 10
-87.607747
 20
204.581038
 30
0.0
 11
-87.607747
 21
243.581038
 31
0.0
  0
ARC
  5
499
100
AcDbEntity
  8
0
370
    -3
  6
Continuous
100
AcDbCircle
 10
-79.807747
 20
243.581038
 30
0.0
 40
7.8
100
AcDbArc
 50
90.0
 51
180.0
  0
ELLIPSE
  5
49A
100
AcDbEntity
  8
0
370
    -3
  6
Continuous
100
AcDbEllipse
 10
-81.39839
 20
244.081038
 30
0.0
 11
0.0
 21
3.5
 31
0.0
210
0.0
220
0.0
230
1.0
 40
0.982815
 41
0.0
 42
6.2831853071795862
  0
LINE
  5
49B
100
AcDbEntity
  8
0
370
    -3
  6
Continuous
100
AcDbLine
 10
-79.807747
 20
251.381038
 30
0.0
 11
3.063782
 21
251.381038
 31
0.0
  0
POINT
  5
49C
100
AcDbEntity
  8
0
370
    -3
  6
CENTER
100
AcDbPoint
 10
28.289723
 20
194.103538
 30
0.0
  0
POINT
  5
49D
100
AcDbEntity
  8
0
370
    -3
  6
CENTER
100
AcDbPoint
 10
28.289723
 20
194.103538
 30
0.0
  0
ARC
  5
49E
100
AcDbEntity
  8
0
370
    -3
  6
Continuous
100
AcDbCircle
 10
26.289723
 20
192.581038
 30
0.0
 40
2.0
100
AcDbArc
 50
270.0
 51
0.0
  0
LINE
  5
49F
100
AcDbEntity
  8
0
370
    -3
  6
Continuous
100
AcDbLine
 10
28.289723
 20
192.581038
 30
0.0
 11
28.289723
 21
204.581038
 31
0.0
  0
LINE
  5
4A0
100
AcDbEntity
  8
0
370
    -3
  6
Continuous
100
AcDbLine
 10
-1.472923
 20
163.081038
 30
0.0
 11
0.244588
 21
165.081038
 31
0.0
  0
LINE
  5
4A1
100
AcDbEntity
  8
0
370
    -3
  6
Continuous
100
AcDbLine
 10
0.244588
 20
165.081038
 30
0.0
 11
-1.472923
 21
167.081038
 31
0.0
  0
ARC
  5
4A2
100
AcDbEntity
  8
0
370
    -3
  6
Continuous
100
AcDbCircle
 10
-12.154753
 20
169.831038
 30
0.0
 40
3.8
100
AcDbArc
 50
270.0
 51
318.609573
  0
ARC
  5
4A3
100
AcDbEntity
  8
0
370
    -3
  6
Continuous
100
AcDbCircle
 10
3.063782
 20
165.581038
 30
0.0
 40
7.8
100
AcDbArc
 50
270.0
 51
0.0
  0
ARC
  5
4A4
100
AcDbEntity
  8
0
370
    -3
  6
Continuous
100
AcDbCircle
 10
0.612596
 20
165.581038
 30
0.0
 40
7.8
100
AcDbArc
 50
270.0
 51
0.0
  0
ELLIPSE
  5
4A5
100
AcDbEntity
  8
0
370
    -3
  6
Continuous
100
AcDbEllipse
 10
1.075619
 20
165.081038
 30
0.0
 11
-0.0000000000002081
 21
3.5
 31
0.0
210
0.0
220
0.0
230
1.0
 40
0.982815
 41
0.0
 42
6.2831853071795862
  0
LINE
  5
4A6
100
AcDbEntity
  8
0
370
    -3
  6
Continuous
100
AcDbLine
 10
2.152308
 20
163.081038
 30
0.0
 11
0.244588
 21
165.081038
 31
0.0
  0
LINE
  5
4A7
100
AcDbEntity
  8
0
370
    -3
  6
Continuous
100
AcDbLine
 10
0.244588
 20
165.081038
 30
0.0
 11
2.152308
 21
167.081038
 31
0.0
  0
ARC
  5
4A8
100
AcDbEntity
  8
0
370
    -3
  6
Continuous
100
AcDbCircle
 10
-3.178018
 20
180.016576
 30
0.0
 40
3.8
100
AcDbArc
 50
318.609573
 51
0.0
  0
LINE
  5
4A9
100
AcDbEntity
  8
0
370
    -3
  6
Continuous
100
AcDbLine
 10
-9.303912
 20
167.318529
 30
0.0
 11
-0.327176
 21
177.504067
 31
0.0
  0
LINE
  5
4AA
100
AcDbEntity
  8
0
370
    -3
  6
Continuous
100
AcDbLine
 10
26.289723
 20
190.581038
 30
0.0
 11
10.863782
 21
190.581038
 31
0.0
  0
LINE
  5
4AB
100
AcDbEntity
  8
0
370
    -3
  6
Continuous
100
AcDbLine
 10
10.863782
 20
204.581038
 30
0.0
 11
10.863782
 21
165.581038
 31
0.0
  0
LINE
  5
4AC
100
AcDbEntity
  8
0
370
    -3
  6
Continuous
100
AcDbLine
 10
8.412596
 20
204.581038
 30
0.0
 11
8.412596
 21
165.581038
 31
0.0
  0
LINE
  5
4AD
100
AcDbEntity
  8
0
370
    -3
  6
Continuous
100
AcDbLine
 10
0.621982
 20
204.581038
 30
0.0
 11
0.621982
 21
180.016576
 31
0.0
  0
LINE
  5
4AE
100
AcDbEntity
  8
0
370
    -3
  6
Continuous
100
AcDbLine
 10
-80.589637
 20
204.581038
 30
0.0
 11
-80.589637
 21
180.034047
 31
0.0
  0
ARC
  5
4AF
100
AcDbEntity
  8
0
370
    -3
  6
Continuous
100
AcDbCircle
 10
-76.789637
 20
180.034047
 30
0.0
 40
3.8
100
AcDbArc
 50
180.0
 51
221.85078
  0
LINE
  5
4B0
100
AcDbEntity
  8
0
370
    -3
  6
Continuous
100
AcDbLine
 10
-70.13623
 20
204.581038
 30
0.0
 11
-70.13623
 21
176.031038
 31
0.0
  0
LINE
  5
4B1
100
AcDbEntity
  8
0
370
    -3
  6
Continuous
100
AcDbLine
 10
-82.229421
 20
165.081038
 30
0.0
 11
-83.946932
 21
167.081038
 31
0.0
  0
LINE
  5
4B2
100
AcDbEntity
  8
0
370
    -3
  6
Continuous
100
AcDbLine
 10
-83.946932
 20
163.081038
 30
0.0
 11
-82.229421
 21
165.081038
 31
0.0
  0
ELLIPSE
  5
4B3
100
AcDbEntity
  8
0
370
    -3
  6
Continuous
100
AcDbEllipse
 10
-81.39839
 20
165.081038
 30
0.0
 11
-0.0000000000002132
 21
3.5
 31
0.0
210
0.0
220
0.0
230
1.0
 40
0.982815
 41
0.0
 42
6.2831853071795862
  0
LINE
  5
4B4
100
AcDbEntity
  8
0
370
    -3
  6
Continuous
100
AcDbLine
 10
-80.321701
 20
163.081038
 30
0.0
 11
-82.229421
 21
165.081038
 31
0.0
  0
LINE
  5
4B5
100
AcDbEntity
  8
0
370
    -3
  6
Continuous
100
AcDbLine
 10
-82.229421
 20
165.081038
 30
0.0
 11
-80.321701
 21
167.081038
 31
0.0
  0
ARC
  5
4B6
100
AcDbEntity
  8
0
370
    -3
  6
Continuous
100
AcDbCircle
 10
-67.65081
 20
169.831038
 30
0.0
 40
3.8
100
AcDbArc
 50
221.85078
 51
270.0
  0
LINE
  5
4B7
100
AcDbEntity
  8
0
370
    -3
  6
Continuous
100
AcDbLine
 10
-70.481373
 20
167.295705
 30
0.0
 11
-79.6202
 21
177.498714
 31
0.0
  0
ARC
  5
4B8
100
AcDbEntity
  8
0
370
    -3
  6
Continuous
100
AcDbCircle
 10
-60.13623
 20
176.031038
 30
0.0
 40
10.0
100
AcDbArc
 50
180.0
 51
270.0
  0
LINE
  5
4B9
100
AcDbEntity
  8
0
370
    -3
  6
Continuous
100
AcDbLine
 10
-12.154753
 20
166.031038
 30
0.0
 11
-67.65081
 21
166.031038
 31
0.0
  0
ARC
  5
4BA
100
AcDbEntity
  8
0
370
    -3
  6
Continuous
100
AcDbCircle
 10
-67.65081
 20
239.331038
 30
0.0
 40
3.8
100
AcDbArc
 50
90.0
 51
138.14922
  0
LINE
  5
4BB
100
AcDbEntity
  8
0
370
    -3
  6
Continuous
100
AcDbLine
 10
-70.481373
 20
241.866371
 30
0.0
 11
-79.6202
 21
231.663362
 31
0.0
  0
ARC
  5
4BC
100
AcDbEntity
  8
0
370
    -3
  6
Continuous
100
AcDbCircle
 10
-60.13623
 20
233.131038
 30
0.0
 40
10.0
100
AcDbArc
 50
90.0
 51
180.0
  0
LINE
  5
4BD
100
AcDbEntity
  8
0
370
    -3
  6
Continuous
100
AcDbLine
 10
-70.13623
 20
204.581038
 30
0.0
 11
-70.13623
 21
233.131038
 31
0.0
  0
ARC
  5
4BE
100
AcDbEntity
  8
0
370
    -3
  6
Continuous
100
AcDbCircle
 10
-12.154753
 20
239.331038
 30
0.0
 40
3.8
100
AcDbArc
 50
41.390427
 51
90.0
  0
LINE
  5
4BF
100
AcDbEntity
  8
0
370
    -3
  6
Continuous
100
AcDbLine
 10
-12.154753
 20
243.131038
 30
0.0
 11
-67.65081
 21
243.131038
 31
0.0
  0
LINE
  5
4C0
100
AcDbEntity
  8
0
370
    -3
  6
Continuous
100
AcDbLine
 10
-9.303912
 20
241.843547
 30
0.0
 11
-0.327176
 21
231.658009
 31
0.0
  0
LINE
  5
4C1
100
AcDbEntity
  8
0
370
    -3
  6
Continuous
100
AcDbLine
 10
0.244588
 20
244.081038
 30
0.0
 11
-1.472923
 21
242.081038
 31
0.0
  0
LINE
  5
4C2
100
AcDbEntity
  8
0
370
    -3
  6
Continuous
100
AcDbLine
 10
-1.472923
 20
246.081038
 30
0.0
 11
0.244588
 21
244.081038
 31
0.0
  0
ARC
  5
4C3
100
AcDbEntity
  8
0
370
    -3
  6
Continuous
100
AcDbCircle
 10
-3.178018
 20
229.145501
 30
0.0
 40
3.8
100
AcDbArc
 50
0.0
 51
41.390427
  0
ARC
  5
4C4
100
AcDbEntity
  8
0
370
    -3
  6
Continuous
100
AcDbCircle
 10
3.063782
 20
243.581038
 30
0.0
 40
7.8
100
AcDbArc
 50
0.0
 51
90.0
  0
ARC
  5
4C5
100
AcDbEntity
  8
0
370
    -3
  6
Continuous
100
AcDbCircle
 10
0.612596
 20
243.581038
 30
0.0
 40
7.8
100
AcDbArc
 50
0.0
 51
90.0
  0
ELLIPSE
  5
4C6
100
AcDbEntity
  8
0
370
    -3
  6
Continuous
100
AcDbEllipse
 10
1.075619
 20
244.081038
 30
0.0
 11
0.0000000000000002
 21
3.5
 31
0.0
210
0.0
220
0.0
230
1.0
 40
0.982815
 41
0.0
 42
6.2831853071795862
  0
LINE
  5
4C7
100
AcDbEntity
  8
0
370
    -3
  6
Continuous
100
AcDbLine
 10
2.152308
 20
246.081038
 30
0.0
 11
0.244588
 21
244.081038
 31
0.0
  0
LINE
  5
4C8
100
AcDbEntity
  8
0
370
    -3
  6
Continuous
100
AcDbLine
 10
0.244588
 20
244.081038
 30
0.0
 11
2.152308
 21
242.081038
 31
0.0
  0
LINE
  5
4C9
100
AcDbEntity
  8
0
370
    -3
  6
Continuous
100
AcDbLine
 10
26.289723
 20
218.581038
 30
0.0
 11
10.863782
 21
218.581038
 31
0.0
  0
ARC
  5
4CA
100
AcDbEntity
  8
0
370
    -3
  6
Continuous
100
AcDbCircle
 10
26.289723
 20
216.581038
 30
0.0
 40
2.0
100
AcDbArc
 50
0.0
 51
90.0
  0
LINE
  5
4CB
100
AcDbEntity
  8
0
370
    -3
  6
Continuous
100
AcDbLine
 10
28.289723
 20
216.581038
 30
0.0
 11
28.289723
 21
204.581038
 31
0.0
  0
LINE
  5
4CC
100
AcDbEntity
  8
0
370
    -3
  6
Continuous
100
AcDbLine
 10
0.621982
 20
204.581038
 30
0.0
 11
0.621982
 21
229.145501
 31
0.0
  0
LINE
  5
4CD
100
AcDbEntity
  8
0
370
    -3
  6
Continuous
100
AcDbLine
 10
10.863782
 20
204.581038
 30
0.0
 11
10.863782
 21
243.581038
 31
0.0
  0
LINE
  5
4CE
100
AcDbEntity
  8
0
370
    -3
  6
Continuous
100
AcDbLine
 10
8.412596
 20
204.581038
 30
0.0
 11
8.412596
 21
243.581038
 31
0.0
  0
LINE
  5
4CF
100
AcDbEntity
  8
0
370
    -3
  6
CENTER
100
AcDbLine
 10
-42.710277
 20
154.889275
 30
0.0
 11
-42.710277
 21
255.273677
 31
0.0
  0
LINE
  5
4D0
100
AcDbEntity
  8
0
370
    -3
  6
Continuous
100
AcDbLine
 10
-80.589637
 20
204.581038
 30
0.0
 11
-80.589637
 21
229.128029
 31
0.0
  0
LINE
  5
4D1
100
AcDbEntity
  8
0
370
    -3
  6
Continuous
100
AcDbLine
 10
-82.229421
 20
244.081038
 30
0.0
 11
-83.946932
 21
242.081038
 31
0.0
  0
LINE
  5
4D2
100
AcDbEntity
  8
0
370
    -3
  6
Continuous
100
AcDbLine
 10
-83.946932
 20
246.081038
 30
0.0
 11
-82.229421
 21
244.081038
 31
0.0
  0
ARC
  5
4D3
100
AcDbEntity
  8
0
370
    -3
  6
Continuous
100
AcDbCircle
 10
-76.789637
 20
229.128029
 30
0.0
 40
3.8
100
AcDbArc
 50
138.14922
 51
180.0
  0
LINE
  5
4D4
100
AcDbEntity
  8
0
370
    -3
  6
Continuous
100
AcDbLine
 10
-80.321701
 20
246.081038
 30
0.0
 11
-82.229421
 21
244.081038
 31
0.0
  0
LINE
  5
4D5
100
AcDbEntity
  8
0
370
    -3
  6
Continuous
100
AcDbLine
 10
-82.229421
 20
244.081038
 30
0.0
 11
-80.321701
 21
242.081038
 31
0.0
  0
MTEXT
  5
4D6
100
AcDbEntity
  8
0
370
    -3
  6
Continuous
100
AcDbMText
 10
-569.870117
 20
155.044327
 30
0.0
 40
15.0
 41
0.0
 71
     7
 72
     1
  1
\W0.43;DATE\W0.72; \W0.43;2012.01.14
  7
ZU_SHPTB00001
 11
1.0
 21
0.0
 31
0.0
 73
     1
 44
1.0
  0
ENDSEC
  0
SECTION
  2
OBJECTS
  0
DICTIONARY
  5
19
100
AcDbDictionary
280
     0
281
     1
  3
ACAD_GROUP
350
1A
  3
ACAD_MLINESTYLE
350
1B
  3
ACAD_LAYOUT
350
1E
  3
ACAD_PLOTSETTINGS
350
22
  3
ACAD_PLOTSTYLENAME
350
1F
  3
ACAD_WIPEOUT_VARS
350
23
  3
DWGPROPS
350
4D7
  0
DICTIONARY
  5
1A
102
{ACAD_REACTORS
330
19
102
}
100
AcDbDictionary
280
     0
281
     1
  0
DICTIONARY
  5
1B
102
{ACAD_REACTORS
330
19
102
}
100
AcDbDictionary
280
     0
281
     1
  3
Standard
350
1C
  0
MLINESTYLE
  5
1C
102
{ACAD_REACTORS
330
1B
102
}
100
AcDbMlineStyle
  2
Standard
 70
     0
  3

 62
     0
 51
90.0
 52
90.0
 71
     2
 49
0.5
 62
   256
  6
ByLayer
 49
-0.5
 62
   256
  6
ByLayer
  0
ACDBDICTIONARYWDFLT
  5
1F
102
{ACAD_REACTORS
330
19
102
}
100
AcDbDictionary
281
     1
  3
Normal
350
1D
100
AcDbDictionaryWithDefault
340
1D
  0
ACDBPLACEHOLDER
  5
1D
102
{ACAD_REACTORS
330
1F
102
}
  0
LAYOUT
  5
20
102
{ACAD_REACTORS
330
1E
102
}
100
AcDbPlotSettings
  1

  2

  4

  6

 40
0.0
 41
0.0
 42
0.0
 43
0.0
 44
0.0
 45
0.0
 46
0.0
 47
0.0
 48
0.0
 49
0.0
140
0.0
141
0.0
142
1.0
143
1.0
 70
  1024
 72
     0
 73
     0
 74
     0
  7

 75
     0
147
1.0
148
0.0
149
0.0
100
AcDbLayout
  1
Model
 70
     0
 71
     0
 10
0.0
 20
0.0
 11
0.0
 21
0.0
 12
0.0
 22
0.0
 32
0.0
 14
0.0
 24
0.0
 34
0.0
 15
0.0
 25
0.0
 35
0.0
146
0.0
 13
0.0
 23
0.0
 33
0.0
 16
0.0
 26
0.0
 36
0.0
 17
0.0
 27
0.0
 37
0.0
 76
     0
330
A
331
0
345
0
346
0
  0
LAYOUT
  5
21
102
{ACAD_REACTORS
330
1E
102
}
100
AcDbPlotSettings
  1

  2

  4

  6

 40
0.0
 41
0.0
 42
0.0
 43
0.0
 44
0.0
 45
0.0
 46
0.0
 47
0.0
 48
0.0
 49
0.0
140
0.0
141
0.0
142
1.0
143
1.0
 70
     0
 72
     0
 73
     0
 74
     0
  7

 75
     0
147
1.0
148
0.0
149
0.0
100
AcDbLayout
  1
Layout1
 70
     0
 71
     0
 10
0.0
 20
0.0
 11
0.0
 21
0.0
 12
0.0
 22
0.0
 32
0.0
 14
0.0
 24
0.0
 34
0.0
 15
0.0
 25
0.0
 35
0.0
146
0.0
 13
0.0
 23
0.0
 33
0.0
 16
0.0
 26
0.0
 36
0.0
 17
0.0
 27
0.0
 37
0.0
 76
     0
330
B
331
0
345
0
346
0
  0
DICTIONARY
  5
1E
102
{ACAD_REACTORS
330
19
102
}
100
AcDbDictionary
280
     0
281
     1
  3
Layout1
350
21
  3
Model
350
20
  0
DICTIONARY
  5
22
102
{ACAD_REACTORS
330
19
102
}
100
AcDbDictionary
280
     0
281
     1
  0
WIPEOUTVARIABLES
  5
23
100
AcDbWipeoutVariables
 70
     1
  0
XRECORD
  5
4D7
100
AcDbXrecord
280
     1
  1
DWGPROPS COOKIE
  2

  3

  4

  6

  7

  8
HK96464
  9

300
=
301
=
302
=
303
=
304
=
305
=
306
=
307
=
308
=
309
=
 40
0.0
 41
2455941.771956
 42
2455941.771956
  1

 90
        0
  0
ENDSEC
  0
EOF
