  0
SECTION
  2
HEADER
  9
$ACADVER
  1
AC1015
  9
$ACADMAINTVER
 70
     6
  9
$DWGCODEPAGE
  3
ANSI_932
  9
$INSBASE
 10
0.0
 20
0.0
 30
0.0
  9
$EXTMIN
 10
1.000000E+20
 20
1.000000E+20
 30
1.000000E+20
  9
$EXTMAX
 10
-1.000000E+20
 20
-1.000000E+20
 30
-1.000000E+20
  9
$LIMMIN
 10
0.0
 20
0.0
  9
$LIMMAX
 10
0.0
 20
0.0
  9
$ORTHOMODE
 70
     0
  9
$REGENMODE
 70
     1
  9
$FILLMODE
 70
     1
  9
$QTEXTMODE
 70
     0
  9
$MIRRTEXT
 70
     1
  9
$LTSCALE
 40
1.0
  9
$ATTMODE
 70
     1
  9
$TEXTSIZE
 40
7.0
  9
$TRACEWID
 40
0.05
  9
$TEXTSTYLE
  7
Standard
  9
$CLAYER
  8
0
  9
$CELTYPE
  6
Continuous
  9
$CECOLOR
 62
   256
  9
$CELTSCALE
 40
1.0
  9
$DISPSILH
 70
     0
  9
$DIMSCALE
 40
1.0
  9
$DIMASZ
 40
1.931852
  9
$DIMEXO
 40
1.0
  9
$DIMDLI
 40
0.38
  9
$DIMRND
 40
0.0
  9
$DIMDLE
 40
0.0
  9
$DIMEXE
 40
2.0
  9
$DIMTP
 40
0.0
  9
$DIMTM
 40
0.0
  9
$DIMTXT
 40
2.8
  9
$DIMCEN
 40
0.09
  9
$DIMTSZ
 40
0.0
  9
$DIMTOL
 70
     0
  9
$DIMLIM
 70
     0
  9
$DIMTIH
 70
     1
  9
$DIMTOH
 70
     1
  9
$DIMSE1
 70
     0
  9
$DIMSE2
 70
     0
  9
$DIMTAD
 70
     1
  9
$DIMZIN
 70
     0
  9
$DIMBLK
  1

  9
$DIMASO
 70
     1
  9
$DIMSHO
 70
     1
  9
$DIMPOST
  1

  9
$DIMAPOST
  1

  9
$DIMALT
 70
     0
  9
$DIMALTD
 70
     2
  9
$DIMALTF
 40
25.4
  9
$DIMLFAC
 40
1.0
  9
$DIMTOFL
 70
     0
  9
$DIMTVP
 40
0.0
  9
$DIMTIX
 70
     0
  9
$DIMSOXD
 70
     0
  9
$DIMSAH
 70
     0
  9
$DIMBLK1
  1

  9
$DIMBLK2
  1

  9
$DIMSTYLE
  2
Standard
  9
$DIMCLRD
 70
     0
  9
$DIMCLRE
 70
     0
  9
$DIMCLRT
 70
     0
  9
$DIMTFAC
 40
0.714286
  9
$DIMGAP
 40
0.09
  9
$DIMJUST
 70
     0
  9
$DIMSD1
 70
     0
  9
$DIMSD2
 70
     0
  9
$DIMTOLJ
 70
     1
  9
$DIMTZIN
 70
     0
  9
$DIMALTZ
 70
     0
  9
$DIMALTTZ
 70
     0
  9
$DIMUPT
 70
     0
  9
$DIMDEC
 70
     4
  9
$DIMTDEC
 70
     4
  9
$DIMALTU
 70
     2
  9
$DIMALTTD
 70
     2
  9
$DIMTXSTY
  7
Standard
  9
$DIMAUNIT
 70
     0
  9
$DIMADEC
 70
     0
  9
$DIMALTRND
 40
0.0
  9
$DIMAZIN
 70
     0
  9
$DIMDSEP
 70
     0
  9
$DIMATFIT
 70
     3
  9
$DIMFRAC
 70
     0
  9
$DIMLDRBLK
  1

  9
$DIMLUNIT
 70
     2
  9
$DIMLWD
 70
     0
  9
$DIMLWE
 70
     0
  9
$DIMTMOVE
 70
     0
  9
$LUNITS
 70
     2
  9
$LUPREC
 70
     3
  9
$SKETCHINC
 40
0.1
  9
$FILLETRAD
 40
0.0
  9
$AUNITS
 70
     0
  9
$AUPREC
 70
     0
  9
$MENU
  1
acad
  9
$ELEVATION
 40
0.0
  9
$PELEVATION
 40
0.0
  9
$THICKNESS
 40
0.0
  9
$LIMCHECK
 70
     0
  9
$CHAMFERA
 40
0.0
  9
$CHAMFERB
 40
0.0
  9
$CHAMFERC
 40
0.0
  9
$CHAMFERD
 40
0.0
  9
$SKPOLY
 70
     0
  9
$TDCREATE
 40
0.000000000
  9
$TDUCREATE
 40
0.000000000
  9
$TDUPDATE
 40
0.000000000
  9
$TDUUPDATE
 40
0.000000000
  9
$TDINDWG
 40
0.0000000000
  9
$TDUSRTIMER
 40
0.0000000000
  9
$USRTIMER
 70
     1
  9
$ANGBASE
 50
0.0
  9
$ANGDIR
 70
     0
  9
$PDMODE
 70
     0
  9
$PDSIZE
 40
0.0
  9
$PLINEWID
 40
0.0
  9
$SPLFRAME
 70
     0
  9
$SPLINETYPE
 70
     6
  9
$SPLINESEGS
 70
     8
  9
$HANDSEED
  5
5D5
  9
$SURFTAB1
 70
     6
  9
$SURFTAB2
 70
     6
  9
$SURFTYPE
 70
     6
  9
$SURFU
 70
     6
  9
$SURFV
 70
     6
  9
$UCSBASE
  2

  9
$UCSNAME
  2

  9
$UCSORG
 10
0.0
 20
0.0
 30
0.0
  9
$UCSXDIR
 10
1.0
 20
0.0
 30
0.0
  9
$UCSYDIR
 10
0.0
 20
1.0
 30
0.0
  9
$UCSORTHOREF
  2

  9
$UCSORTHOVIEW
 70
     0
  9
$UCSORGTOP
 10
0.0
 20
0.0
 30
0.0
  9
$UCSORGBOTTOM
 10
0.0
 20
0.0
 30
0.0
  9
$UCSORGLEFT
 10
0.0
 20
0.0
 30
0.0
  9
$UCSORGRIGHT
 10
0.0
 20
0.0
 30
0.0
  9
$UCSORGFRONT
 10
0.0
 20
0.0
 30
0.0
  9
$UCSORGBACK
 10
0.0
 20
0.0
 30
0.0
  9
$PUCSBASE
  2

  9
$PUCSNAME
  2

  9
$PUCSORG
 10
0.0
 20
0.0
 30
0.0
  9
$PUCSXDIR
 10
1.0
 20
0.0
 30
0.0
  9
$PUCSYDIR
 10
0.0
 20
1.0
 30
0.0
  9
$PUCSORTHOREF
  2

  9
$PUCSORTHOVIEW
 70
     0
  9
$PUCSORGTOP
 10
0.0
 20
0.0
 30
0.0
  9
$PUCSORGBOTTOM
 10
0.0
 20
0.0
 30
0.0
  9
$PUCSORGLEFT
 10
0.0
 20
0.0
 30
0.0
  9
$PUCSORGRIGHT
 10
0.0
 20
0.0
 30
0.0
  9
$PUCSORGFRONT
 10
0.0
 20
0.0
 30
0.0
  9
$PUCSORGBACK
 10
0.0
 20
0.0
 30
0.0
  9
$USERI1
 70
     0
  9
$USERI2
 70
     0
  9
$USERI3
 70
     0
  9
$USERI4
 70
     0
  9
$USERI5
 70
     0
  9
$USERR1
 40
0.0
  9
$USERR2
 40
0.0
  9
$USERR3
 40
0.0
  9
$USERR4
 40
0.0
  9
$USERR5
 40
0.0
  9
$WORLDVIEW
 70
     1
  9
$SHADEDGE
 70
     3
  9
$SHADEDIF
 70
    70
  9
$TILEMODE
 70
     1
  9
$MAXACTVP
 70
    16
  9
$PINSBASE
 10
0.0
 20
0.0
 30
0.0
  9
$PLIMCHECK
 70
     0
  9
$PEXTMIN
 10
1.000000E+20
 20
1.000000E+20
 30
1.000000E+20
  9
$PEXTMAX
 10
-1.000000E+20
 20
-1.000000E+20
 30
-1.000000E+20
  9
$PLIMMIN
 10
0.0
 20
0.0
  9
$PLIMMAX
 10
12.0
 20
9.0
  9
$UNITMODE
 70
     0
  9
$VISRETAIN
 70
     0
  9
$PLINEGEN
 70
     1
  9
$PSLTSCALE
 70
     0
  9
$TREEDEPTH
 70
  3020
  9
$CMLSTYLE
  2
Standard
  9
$CMLJUST
 70
     0
  9
$CMLSCALE
 40
1.0
  9
$PROXYGRAPHICS
 70
     0
  9
$MEASUREMENT
 70
     0
  9
$CELWEIGHT
370
     0
  9
$ENDCAPS
280
     0
  9
$JOINSTYLE
280
     0
  9
$LWDISPLAY
290
     0
  9
$INSUNITS
 70
     0
  9
$HYPERLINKBASE
  1

  9
$STYLESHEET
  1

  9
$XEDIT
290
     1
  9
$CEPSNTYPE
380
     0
  9
$PSTYLEMODE
290
     1
  9
$FINGERPRINTGUID
  2

  9
$VERSIONGUID
  2

  9
$EXTNAMES
290
     1
  9
$PSVPSCALE
 40
0.0
  0
ENDSEC
  0
SECTION
  2
CLASSES
  0
CLASS
  1
LWPOLYLINE
  2
AcDbPolyline
  3
AutoCAD 2000
 90
    32768
280
     0
281
     1
  0
CLASS
  1
IMAGE
  2
AcDbRasterImage
  3
ISM
 90
    32895
280
     0
281
     1
  0
CLASS
  1
OLE2FRAME
  2
AcDbOle2Frame
  3
AutoCAD 2000
 90
    32768
280
     0
281
     1
  0
CLASS
  1
HATCH
  2
AcDbHatch
  3
AutoCAD 2000
 90
    32768
280
     0
281
     1
  0
CLASS
  1
DICTIONARYVAR
  2
AcDbDictionaryVar
  3
AutoCAD 2000
 90
    32768
280
     0
281
     0
  0
CLASS
  1
RASTERVARIABLES
  2
AcDbRasterVariables
  3
ISM
 90
    32768
280
     0
281
     0
  0
CLASS
  1
IMAGEDEF
  2
AcDbRasterImageDef
  3
ISM
 90
    32768
280
     0
281
     0
  0
CLASS
  1
IMAGEDEF_REACTOR
  2
AcDbRasterImageDefReactor
  3
ISM
 90
    32769
280
     0
281
     0
  0
CLASS
  1
IDBUFFER
  2
AcDbIdBuffer
  3
AutoCAD 2000
 90
    32768
280
     0
281
     0
  0
CLASS
  1
SPATIAL_FILTER
  2
AcDbSpatialFilter
  3
AutoCAD 2000
 90
    32768
280
     0
281
     0
  0
CLASS
  1
XRECORD
  2
AcDbXrecord
  3
AutoCAD 2000
 90
        0
280
     0
281
     0
  0
CLASS
  1
SORTENTSTABLE
  2
AcDbSortentsTable
  3
AutoCAD 2000
 90
    32768
280
     0
281
     0
  0
CLASS
  1
LAYER_INDEX
  2
AcDbLayerIndex
  3
AutoCAD 2000
 90
    32768
280
     0
281
     0
  0
CLASS
  1
SPATIAL_INDEX
  2
AcDbSpatialIndex
  3
AutoCAD 2000
 90
    32768
280
     0
281
     0
  0
CLASS
  1
OBJECT_PTR
  2
CAseDLPNTableRecord
  3
"ASE-LPNTableRecord"
 90
    32769
280
     0
281
     0
  0
CLASS
  1
LAYOUT
  2
AcDbLayout
  3
AutoCAD 2000
 90
        0
280
     0
281
     0
  0
CLASS
  1
PLOTSETTINGS
  2
AcDbPlotSettings
  3
AutoCAD 2000
 90
    32768
280
     0
281
     0
  0
CLASS
  1
ACDBDICTIONARYWDFLT
  2
AcDbDictionaryWithDefault
  3
AutoCAD 2000
 90
        0
280
     0
281
     0
  0
CLASS
  1
ACDBPLACEHOLDER
  2
AcDbPlaceHolder
  3
AutoCAD 2000
 90
        0
280
     0
281
     0
  0
CLASS
  1
VBA_PROJECT
  2
AcDbVbaProject
  3
acadvba
 90
    32768
280
     0
281
     0
  0
CLASS
  1
WIPEOUT
  2
AcDbWipeout
  3
WipeOut|AutoCAD Express Tool|expresstools@autodesk.com
 90
    32895
280
     0
281
     1
  0
CLASS
  1
WIPEOUTVARIABLES
  2
AcDbWipeoutVariables
  3
WipeOut|AutoCAD Express Tool|expresstools@autodesk.com
 90
        0
280
     0
281
     0
  0
CLASS
  1
RTEXT
  2
RText
  3
RText|AutoCAD Express Tool|expresstools@autodesk.com
 90
    32768
280
     0
281
     1
  0
CLASS
  1
ARCALIGNEDTEXT
  2
AcDbArcAlignedText
  3
ATEXT|AutoCAD Express Tool|expresstools@autodesk.com
 90
    32768
280
     0
281
     1
  0
ENDSEC
  0
SECTION
  2
TABLES
  0
TABLE
  2
VPORT
  5
7
100
AcDbSymbolTable
 70
     1
  0
VPORT
  5
15
100
AcDbSymbolTableRecord
100
AcDbViewportTableRecord
  2
*ACTIVE
 70
     0
 10
0.0
 20
0.0
 11
1.0
 21
1.0
 12
0.0
 22
0.0
 13
0.0
 23
0.0
 14
1.0
 24
1.0
 15
0.0
 25
0.0
 16
0.0
 26
0.0
 36
1.0
 17
0.0
 27
0.0
 37
0.0
 40
100.0
 41
1.0
 42
50.0
 43
0.0
 44
0.0
 50
0.0
 51
0.0
 71
     0
 72
   100
 73
     1
 74
     1
 75
     0
 76
     0
 77
     0
 78
     0
281
     0
 65
     0
110
0.0
120
0.0
130
0.0
111
1.0
121
0.0
131
0.0
112
0.0
122
1.0
132
0.0
345
0
346
0
 79
     0
146
0.0
  0
ENDTAB
  0
TABLE
  2
LTYPE
  5
4
100
AcDbSymbolTable
 70
     7
  0
LTYPE
  5
11
100
AcDbSymbolTableRecord
100
AcDbLinetypeTableRecord
  2
ByBlock
 70
    64
  3

 72
    65
 73
     0
 40
0.0
  0
LTYPE
  5
12
100
AcDbSymbolTableRecord
100
AcDbLinetypeTableRecord
  2
ByLayer
 70
    64
  3

 72
    65
 73
     0
 40
0.0
  0
LTYPE
  5
13
100
AcDbSymbolTableRecord
100
AcDbLinetypeTableRecord
  2
Continuous
 70
    64
  3
Solid line
 72
    65
 73
     0
 40
0.0
  0
LTYPE
  5
24
100
AcDbSymbolTableRecord
100
AcDbLinetypeTableRecord
  2
DASHED
 70
    64
  3
Dashed __ __ __ __ __ __ __ __ __ __ __ __ __ _
 72
    65
 73
     2
 40
0.75
 49
0.5
 74
     0
 49
-0.25
 74
     0
  0
LTYPE
  5
25
100
AcDbSymbolTableRecord
100
AcDbLinetypeTableRecord
  2
CENTER
 70
    64
  3
Center ____ _ ____ _ ____ _ ____ _ ____ _ ____
 72
    65
 73
     4
 40
1.0
 49
0.5
 74
     0
 49
-0.25
 74
     0
 49
0.0
 74
     0
 49
-0.25
 74
     0
  0
LTYPE
  5
26
100
AcDbSymbolTableRecord
100
AcDbLinetypeTableRecord
  2
DIVIDE
 70
    64
  3
Divide ____ . . ____ . . ____ . . ____ . . ____
 72
    65
 73
     6
 40
1.25
 49
0.5
 74
     0
 49
-0.25
 74
     0
 49
0.0
 74
     0
 49
-0.25
 74
     0
 49
0.0
 74
     0
 49
-0.25
 74
     0
  0
LTYPE
  5
27
100
AcDbSymbolTableRecord
100
AcDbLinetypeTableRecord
  2
PHANTOM
 70
    64
  3
Phantom ______  __  __  ______  __  __  ______
 72
    65
 73
     6
 40
9.0
 49
4.3
 74
     0
 49
-0.7
 74
     0
 49
1.3
 74
     0
 49
-0.7
 74
     0
 49
1.3
 74
     0
 49
-0.7
 74
     0
  0
ENDTAB
  0
TABLE
  2
LAYER
  5
2
100
AcDbSymbolTable
 70
     4
  0
LAYER
  5
14
100
AcDbSymbolTableRecord
100
AcDbLayerTableRecord
  2
0
 70
    64
 62
    53
  6
Continuous
290
     1
370
    -3
390
1D
  0
LAYER
  5
28
100
AcDbSymbolTableRecord
100
AcDbLayerTableRecord
  2
1
 70
    64
 62
     3
  6
Continuous
290
     1
370
    -3
390
1D
  0
LAYER
  5
29
100
AcDbSymbolTableRecord
100
AcDbLayerTableRecord
  2
3
 70
    64
 62
     4
  6
Continuous
290
     1
370
    -3
390
1D
  0
LAYER
  5
2A
100
AcDbSymbolTableRecord
100
AcDbLayerTableRecord
  2
5
 70
    64
 62
   191
  6
Continuous
290
     1
370
    -3
390
1D
  0
ENDTAB
  0
TABLE
  2
STYLE
  5
3
100
AcDbSymbolTable
 70
     2
  0
STYLE
  5
17
100
AcDbSymbolTableRecord
100
AcDbTextStyleTableRecord
  2
Standard
 70
     0
 40
0.0
 41
1.0
 50
0.0
 71
     0
 42
0.0
  3
txt
  4

  0
STYLE
  5
19A
100
AcDbSymbolTableRecord
100
AcDbTextStyleTableRecord
  2
ZU_SHPTB00001
 70
     0
 40
0.0
 41
1.0
 50
0.0
 71
     0
 42
0.0
  3
monotxt
  4
bigfont
  0
ENDTAB
  0
TABLE
  2
VIEW
  5
5
100
AcDbSymbolTable
 70
     0
  0
ENDTAB
  0
TABLE
  2
UCS
  5
6
100
AcDbSymbolTable
 70
     0
  0
ENDTAB
  0
TABLE
  2
APPID
  5
8
100
AcDbSymbolTable
 70
     1
  0
APPID
  5
16
100
AcDbSymbolTableRecord
100
AcDbRegAppTableRecord
  2
ACAD
 70
     0
  0
ENDTAB
  0
TABLE
  2
DIMSTYLE
  5
9
100
AcDbSymbolTable
 70
     1
100
AcDbDimStyleTable
 71
     0
  0
DIMSTYLE
105
18
100
AcDbSymbolTableRecord
100
AcDbDimStyleTableRecord
  2
Standard
 70
     0
  3

  4

 40
1.0
 41
0.18
 42
0.0625
 43
0.38
 44
0.18
 45
0.0
 46
0.0
 47
0.0
 48
0.0
 71
     0
 72
     0
 73
     1
 74
     1
 75
     0
 76
     0
 77
     0
 78
     0
 79
     0
140
0.18
141
0.09
142
0.0
143
25.4
144
1.0
145
0.0
146
1.0
147
0.09
148
0.0
170
     0
171
     2
172
     0
173
     0
174
     0
175
     0
176
     0
177
     0
178
     0
179
     0
271
     4
272
     4
273
     2
274
     2
275
     0
276
     0
277
     2
278
    46
279
     0
280
     0
281
     0
282
     0
283
     1
284
     0
285
     0
286
     0
288
     0
340
17
341
0
342
0
343
0
344
0
371
    -2
372
    -2
  0
ENDTAB
  0
TABLE
  2
BLOCK_RECORD
  5
1
100
AcDbSymbolTable
 70
    14
  0
BLOCK_RECORD
  5
A
100
AcDbSymbolTableRecord
100
AcDbBlockTableRecord
  2
*MODEL_SPACE
340
20
  0
BLOCK_RECORD
  5
B
100
AcDbSymbolTableRecord
100
AcDbBlockTableRecord
  2
*PAPER_SPACE
340
21
  0
BLOCK_RECORD
  5
154
100
AcDbSymbolTableRecord
100
AcDbBlockTableRecord
  2
ZU_SYM__USERS_HOME_SYMBOL_STD_SYM_B01_-1
340
0
102
{BLKREFS
331
166
102
}
  0
BLOCK_RECORD
  5
182
100
AcDbSymbolTableRecord
100
AcDbBlockTableRecord
  2
ZU_SYM__USERS_HOME_SYMBOL_STD_SYM_B01_00001-1
340
0
102
{BLKREFS
331
194
102
}
  0
BLOCK_RECORD
  5
1C2
100
AcDbSymbolTableRecord
100
AcDbBlockTableRecord
  2
ZU_SYM__USERS_HOME_SYMBOL_STD_SYM_B01_00002-1
340
0
102
{BLKREFS
331
1D4
102
}
  0
BLOCK_RECORD
  5
1D5
100
AcDbSymbolTableRecord
100
AcDbBlockTableRecord
  2
ZU_SYM__USERS_HOME_SYMBOL_STD_SYM_B01_00003-1
340
0
102
{BLKREFS
331
1E7
102
}
  0
BLOCK_RECORD
  5
1E8
100
AcDbSymbolTableRecord
100
AcDbBlockTableRecord
  2
ZU_SYM__USERS_HOME_SYMBOL_STD_SYM_B01_00004-1
340
0
102
{BLKREFS
331
1FA
102
}
  0
BLOCK_RECORD
  5
1FB
100
AcDbSymbolTableRecord
100
AcDbBlockTableRecord
  2
ZU_SYM__USERS_HOME_SYMBOL_STD_SYM_B01_00005-1
340
0
102
{BLKREFS
331
20D
102
}
  0
BLOCK_RECORD
  5
24C
100
AcDbSymbolTableRecord
100
AcDbBlockTableRecord
  2
ZU_SYM__USERS_HOME_SYMBOL_STD_SYM_B01_00006-1
340
0
102
{BLKREFS
331
257
102
}
  0
BLOCK_RECORD
  5
258
100
AcDbSymbolTableRecord
100
AcDbBlockTableRecord
  2
ZU_SYM__USERS_HOME_SYMBOL_STD_SYM_B01_00007-1
340
0
102
{BLKREFS
331
263
102
}
  0
BLOCK_RECORD
  5
264
100
AcDbSymbolTableRecord
100
AcDbBlockTableRecord
  2
ZU_SYM__USERS_HOME_SYMBOL_STD_SYM_B01_00008-1
340
0
102
{BLKREFS
331
26F
102
}
  0
BLOCK_RECORD
  5
270
100
AcDbSymbolTableRecord
100
AcDbBlockTableRecord
  2
ZU_SYM__USERS_HOME_SYMBOL_STD_SYM_B01_00009-1
340
0
102
{BLKREFS
331
27B
102
}
  0
BLOCK_RECORD
  5
40F
100
AcDbSymbolTableRecord
100
AcDbBlockTableRecord
  2
ZU_SYM__USERS_HOME_SYMBOL_POO_SYM_B20_-1
340
0
102
{BLKREFS
331
41A
102
}
  0
BLOCK_RECORD
  5
41B
100
AcDbSymbolTableRecord
100
AcDbBlockTableRecord
  2
ZU_SYM__USERS_HOME_SYMBOL_POO_SYM_B20_00010-1
340
0
102
{BLKREFS
331
426
102
}
  0
BLOCK_RECORD
  5
427
100
AcDbSymbolTableRecord
100
AcDbBlockTableRecord
  2
ZU_SYM__USERS_HOME_SYMBOL_POO_SYM_B20_00011-1
340
0
102
{BLKREFS
331
432
102
}
  0
BLOCK_RECORD
  5
433
100
AcDbSymbolTableRecord
100
AcDbBlockTableRecord
  2
ZU_SYM__USERS_HOME_SYMBOL_POO_SYM_B20_00012-1
340
0
102
{BLKREFS
331
43E
102
}
  0
ENDTAB
  0
ENDSEC
  0
SECTION
  2
BLOCKS
  0
BLOCK
  5
D
100
AcDbEntity
  8
0
100
AcDbBlockBegin
  2
*MODEL_SPACE
 70
     0
 10
0.0
 20
0.0
 30
0.0
  3
*MODEL_SPACE
  1

  0
ENDBLK
  5
E
100
AcDbEntity
  8
0
100
AcDbBlockEnd
  0
BLOCK
  5
F
100
AcDbEntity
 67
     1
  8
0
100
AcDbBlockBegin
  2
*PAPER_SPACE
 70
     0
 10
0.0
 20
0.0
 30
0.0
  3
*PAPER_SPACE
  1

  0
ENDBLK
  5
10
100
AcDbEntity
 67
     1
  8
0
100
AcDbBlockEnd
  0
BLOCK
  5
155
100
AcDbEntity
  8
0
100
AcDbBlockBegin
  2
ZU_SYM__USERS_HOME_SYMBOL_STD_SYM_B01_-1
 70
    64
 10
0.0
 20
0.0
 30
0.0
  3
ZU_SYM__USERS_HOME_SYMBOL_STD_SYM_B01_-1
  1

  0
LINE
  5
156
100
AcDbEntity
  8
0
370
    -3
  6
Continuous
100
AcDbLine
 10
-1.299999
 20
0.300007
 30
0.0
 11
-0.000001
 21
0.600002
 31
0.0
  0
LINE
  5
157
100
AcDbEntity
  8
0
370
    -3
  6
Continuous
100
AcDbLine
 10
-1.3
 20
-0.299995
 30
0.0
 11
-0.000004
 21
-0.000001
 31
0.0
  0
LINE
  5
158
100
AcDbEntity
  8
0
370
    -3
  6
Continuous
100
AcDbLine
 10
-1.300018
 20
-4.599993
 30
0.0
 11
-1.299981
 21
4.600004
 31
0.0
  0
ARC
  5
159
100
AcDbEntity
  8
0
370
    -3
  6
Continuous
100
AcDbCircle
 10
0.740001
 20
-0.000003
 30
0.0
 40
5.539999
100
AcDbArc
 50
155.470187
 51
204.52925
  0
ARC
  5
15A
100
AcDbEntity
  8
0
370
    -3
  6
Continuous
100
AcDbCircle
 10
-3.229986
 20
3.450012
 30
0.0
 40
1.57
100
AcDbArc
 50
179.999745
 51
227.099746
  0
ARC
  5
15B
100
AcDbEntity
  8
0
370
    -3
  6
Continuous
100
AcDbCircle
 10
-3.230014
 20
-3.449986
 30
0.0
 40
1.57
100
AcDbArc
 50
132.899744
 51
179.999745
  0
LINE
  5
15C
100
AcDbEntity
  8
0
370
    -3
  6
Continuous
100
AcDbLine
 10
-4.299987
 20
2.300014
 30
0.0
 11
-1.29999
 21
2.300004
 31
0.0
  0
LINE
  5
15D
100
AcDbEntity
  8
0
370
    -3
  6
Continuous
100
AcDbLine
 10
-4.300006
 20
-2.29998
 30
0.0
 11
-1.300007
 21
-2.299992
 31
0.0
  0
LINE
  5
15E
100
AcDbEntity
  8
0
370
    -3
  6
Continuous
100
AcDbLine
 10
0.000016
 20
4.599992
 30
0.0
 11
-0.000021
 21
-4.599992
 31
0.0
  0
LINE
  5
15F
100
AcDbEntity
  8
0
370
    -3
  6
Continuous
100
AcDbLine
 10
-4.299978
 20
4.600015
 30
0.0
 11
0.000013
 21
4.599998
 31
0.0
  0
LINE
  5
160
100
AcDbEntity
  8
0
370
    -3
  6
Continuous
100
AcDbLine
 10
-4.799962
 20
3.900001
 30
0.0
 11
-4.299962
 21
4.599999
 31
0.0
  0
LINE
  5
161
100
AcDbEntity
  8
0
370
    -3
  6
Continuous
100
AcDbLine
 10
-4.80001
 20
-3.899973
 30
0.0
 11
-4.799979
 21
3.900012
 31
0.0
  0
LINE
  5
162
100
AcDbEntity
  8
0
370
    -3
  6
Continuous
100
AcDbLine
 10
-4.299996
 20
-4.599962
 30
0.0
 11
-4.79999
 21
-3.899959
 31
0.0
  0
LINE
  5
163
100
AcDbEntity
  8
0
370
    -3
  6
Continuous
100
AcDbLine
 10
-0.000025
 20
-4.599994
 30
0.0
 11
-4.300015
 21
-4.599977
 31
0.0
  0
POINT
  5
164
100
AcDbEntity
  8
0
370
    -3
  6
Continuous
100
AcDbPoint
 10
0.0
 20
0.0
 30
0.0
  0
ENDBLK
  5
165
100
AcDbEntity
  8
0
100
AcDbBlockEnd
  0
BLOCK
  5
183
100
AcDbEntity
  8
0
100
AcDbBlockBegin
  2
ZU_SYM__USERS_HOME_SYMBOL_STD_SYM_B01_00001-1
 70
    64
 10
0.0
 20
0.0
 30
0.0
  3
ZU_SYM__USERS_HOME_SYMBOL_STD_SYM_B01_00001-1
  1

  0
LINE
  5
184
100
AcDbEntity
  8
0
370
    -3
  6
Continuous
100
AcDbLine
 10
-1.299999
 20
0.300007
 30
0.0
 11
-0.000001
 21
0.600002
 31
0.0
  0
LINE
  5
185
100
AcDbEntity
  8
0
370
    -3
  6
Continuous
100
AcDbLine
 10
-1.3
 20
-0.299995
 30
0.0
 11
-0.000004
 21
-0.000001
 31
0.0
  0
LINE
  5
186
100
AcDbEntity
  8
0
370
    -3
  6
Continuous
100
AcDbLine
 10
-1.300018
 20
-4.599993
 30
0.0
 11
-1.299981
 21
4.600004
 31
0.0
  0
ARC
  5
187
100
AcDbEntity
  8
0
370
    -3
  6
Continuous
100
AcDbCircle
 10
0.740001
 20
-0.000003
 30
0.0
 40
5.539999
100
AcDbArc
 50
155.470187
 51
204.52925
  0
ARC
  5
188
100
AcDbEntity
  8
0
370
    -3
  6
Continuous
100
AcDbCircle
 10
-3.229986
 20
3.450012
 30
0.0
 40
1.57
100
AcDbArc
 50
179.999745
 51
227.099746
  0
ARC
  5
189
100
AcDbEntity
  8
0
370
    -3
  6
Continuous
100
AcDbCircle
 10
-3.230014
 20
-3.449986
 30
0.0
 40
1.57
100
AcDbArc
 50
132.899744
 51
179.999745
  0
LINE
  5
18A
100
AcDbEntity
  8
0
370
    -3
  6
Continuous
100
AcDbLine
 10
-4.299987
 20
2.300014
 30
0.0
 11
-1.29999
 21
2.300004
 31
0.0
  0
LINE
  5
18B
100
AcDbEntity
  8
0
370
    -3
  6
Continuous
100
AcDbLine
 10
-4.300006
 20
-2.29998
 30
0.0
 11
-1.300007
 21
-2.299992
 31
0.0
  0
LINE
  5
18C
100
AcDbEntity
  8
0
370
    -3
  6
Continuous
100
AcDbLine
 10
0.000016
 20
4.599992
 30
0.0
 11
-0.000021
 21
-4.599992
 31
0.0
  0
LINE
  5
18D
100
AcDbEntity
  8
0
370
    -3
  6
Continuous
100
AcDbLine
 10
-4.299978
 20
4.600015
 30
0.0
 11
0.000013
 21
4.599998
 31
0.0
  0
LINE
  5
18E
100
AcDbEntity
  8
0
370
    -3
  6
Continuous
100
AcDbLine
 10
-4.799962
 20
3.900001
 30
0.0
 11
-4.299962
 21
4.599999
 31
0.0
  0
LINE
  5
18F
100
AcDbEntity
  8
0
370
    -3
  6
Continuous
100
AcDbLine
 10
-4.80001
 20
-3.899973
 30
0.0
 11
-4.799979
 21
3.900012
 31
0.0
  0
LINE
  5
190
100
AcDbEntity
  8
0
370
    -3
  6
Continuous
100
AcDbLine
 10
-4.299996
 20
-4.599962
 30
0.0
 11
-4.79999
 21
-3.899959
 31
0.0
  0
LINE
  5
191
100
AcDbEntity
  8
0
370
    -3
  6
Continuous
100
AcDbLine
 10
-0.000025
 20
-4.599994
 30
0.0
 11
-4.300015
 21
-4.599977
 31
0.0
  0
POINT
  5
192
100
AcDbEntity
  8
0
370
    -3
  6
Continuous
100
AcDbPoint
 10
0.0
 20
0.0
 30
0.0
  0
ENDBLK
  5
193
100
AcDbEntity
  8
0
100
AcDbBlockEnd
  0
BLOCK
  5
1C3
100
AcDbEntity
  8
0
100
AcDbBlockBegin
  2
ZU_SYM__USERS_HOME_SYMBOL_STD_SYM_B01_00002-1
 70
    64
 10
0.0
 20
0.0
 30
0.0
  3
ZU_SYM__USERS_HOME_SYMBOL_STD_SYM_B01_00002-1
  1

  0
LINE
  5
1C4
100
AcDbEntity
  8
0
370
    -3
  6
Continuous
100
AcDbLine
 10
-1.299999
 20
0.300007
 30
0.0
 11
-0.000001
 21
0.600002
 31
0.0
  0
LINE
  5
1C5
100
AcDbEntity
  8
0
370
    -3
  6
Continuous
100
AcDbLine
 10
-1.3
 20
-0.299995
 30
0.0
 11
-0.000004
 21
-0.000001
 31
0.0
  0
LINE
  5
1C6
100
AcDbEntity
  8
0
370
    -3
  6
Continuous
100
AcDbLine
 10
-1.300018
 20
-4.599993
 30
0.0
 11
-1.299981
 21
4.600004
 31
0.0
  0
ARC
  5
1C7
100
AcDbEntity
  8
0
370
    -3
  6
Continuous
100
AcDbCircle
 10
0.740001
 20
-0.000003
 30
0.0
 40
5.539999
100
AcDbArc
 50
155.470187
 51
204.52925
  0
ARC
  5
1C8
100
AcDbEntity
  8
0
370
    -3
  6
Continuous
100
AcDbCircle
 10
-3.229986
 20
3.450012
 30
0.0
 40
1.57
100
AcDbArc
 50
179.999745
 51
227.099746
  0
ARC
  5
1C9
100
AcDbEntity
  8
0
370
    -3
  6
Continuous
100
AcDbCircle
 10
-3.230014
 20
-3.449986
 30
0.0
 40
1.57
100
AcDbArc
 50
132.899744
 51
179.999745
  0
LINE
  5
1CA
100
AcDbEntity
  8
0
370
    -3
  6
Continuous
100
AcDbLine
 10
-4.299987
 20
2.300014
 30
0.0
 11
-1.29999
 21
2.300004
 31
0.0
  0
LINE
  5
1CB
100
AcDbEntity
  8
0
370
    -3
  6
Continuous
100
AcDbLine
 10
-4.300006
 20
-2.29998
 30
0.0
 11
-1.300007
 21
-2.299992
 31
0.0
  0
LINE
  5
1CC
100
AcDbEntity
  8
0
370
    -3
  6
Continuous
100
AcDbLine
 10
0.000016
 20
4.599992
 30
0.0
 11
-0.000021
 21
-4.599992
 31
0.0
  0
LINE
  5
1CD
100
AcDbEntity
  8
0
370
    -3
  6
Continuous
100
AcDbLine
 10
-4.299978
 20
4.600015
 30
0.0
 11
0.000013
 21
4.599998
 31
0.0
  0
LINE
  5
1CE
100
AcDbEntity
  8
0
370
    -3
  6
Continuous
100
AcDbLine
 10
-4.799962
 20
3.900001
 30
0.0
 11
-4.299962
 21
4.599999
 31
0.0
  0
LINE
  5
1CF
100
AcDbEntity
  8
0
370
    -3
  6
Continuous
100
AcDbLine
 10
-4.80001
 20
-3.899973
 30
0.0
 11
-4.799979
 21
3.900012
 31
0.0
  0
LINE
  5
1D0
100
AcDbEntity
  8
0
370
    -3
  6
Continuous
100
AcDbLine
 10
-4.299996
 20
-4.599962
 30
0.0
 11
-4.79999
 21
-3.899959
 31
0.0
  0
LINE
  5
1D1
100
AcDbEntity
  8
0
370
    -3
  6
Continuous
100
AcDbLine
 10
-0.000025
 20
-4.599994
 30
0.0
 11
-4.300015
 21
-4.599977
 31
0.0
  0
POINT
  5
1D2
100
AcDbEntity
  8
0
370
    -3
  6
Continuous
100
AcDbPoint
 10
0.0
 20
0.0
 30
0.0
  0
ENDBLK
  5
1D3
100
AcDbEntity
  8
0
100
AcDbBlockEnd
  0
BLOCK
  5
1D6
100
AcDbEntity
  8
0
100
AcDbBlockBegin
  2
ZU_SYM__USERS_HOME_SYMBOL_STD_SYM_B01_00003-1
 70
    64
 10
0.0
 20
0.0
 30
0.0
  3
ZU_SYM__USERS_HOME_SYMBOL_STD_SYM_B01_00003-1
  1

  0
LINE
  5
1D7
100
AcDbEntity
  8
0
370
    -3
  6
Continuous
100
AcDbLine
 10
-1.299999
 20
0.300007
 30
0.0
 11
-0.000001
 21
0.600002
 31
0.0
  0
LINE
  5
1D8
100
AcDbEntity
  8
0
370
    -3
  6
Continuous
100
AcDbLine
 10
-1.3
 20
-0.299995
 30
0.0
 11
-0.000004
 21
-0.000001
 31
0.0
  0
LINE
  5
1D9
100
AcDbEntity
  8
0
370
    -3
  6
Continuous
100
AcDbLine
 10
-1.300018
 20
-4.599993
 30
0.0
 11
-1.299981
 21
4.600004
 31
0.0
  0
ARC
  5
1DA
100
AcDbEntity
  8
0
370
    -3
  6
Continuous
100
AcDbCircle
 10
0.740001
 20
-0.000003
 30
0.0
 40
5.539999
100
AcDbArc
 50
155.470187
 51
204.52925
  0
ARC
  5
1DB
100
AcDbEntity
  8
0
370
    -3
  6
Continuous
100
AcDbCircle
 10
-3.229986
 20
3.450012
 30
0.0
 40
1.57
100
AcDbArc
 50
179.999745
 51
227.099746
  0
ARC
  5
1DC
100
AcDbEntity
  8
0
370
    -3
  6
Continuous
100
AcDbCircle
 10
-3.230014
 20
-3.449986
 30
0.0
 40
1.57
100
AcDbArc
 50
132.899744
 51
179.999745
  0
LINE
  5
1DD
100
AcDbEntity
  8
0
370
    -3
  6
Continuous
100
AcDbLine
 10
-4.299987
 20
2.300014
 30
0.0
 11
-1.29999
 21
2.300004
 31
0.0
  0
LINE
  5
1DE
100
AcDbEntity
  8
0
370
    -3
  6
Continuous
100
AcDbLine
 10
-4.300006
 20
-2.29998
 30
0.0
 11
-1.300007
 21
-2.299992
 31
0.0
  0
LINE
  5
1DF
100
AcDbEntity
  8
0
370
    -3
  6
Continuous
100
AcDbLine
 10
0.000016
 20
4.599992
 30
0.0
 11
-0.000021
 21
-4.599992
 31
0.0
  0
LINE
  5
1E0
100
AcDbEntity
  8
0
370
    -3
  6
Continuous
100
AcDbLine
 10
-4.299978
 20
4.600015
 30
0.0
 11
0.000013
 21
4.599998
 31
0.0
  0
LINE
  5
1E1
100
AcDbEntity
  8
0
370
    -3
  6
Continuous
100
AcDbLine
 10
-4.799962
 20
3.900001
 30
0.0
 11
-4.299962
 21
4.599999
 31
0.0
  0
LINE
  5
1E2
100
AcDbEntity
  8
0
370
    -3
  6
Continuous
100
AcDbLine
 10
-4.80001
 20
-3.899973
 30
0.0
 11
-4.799979
 21
3.900012
 31
0.0
  0
LINE
  5
1E3
100
AcDbEntity
  8
0
370
    -3
  6
Continuous
100
AcDbLine
 10
-4.299996
 20
-4.599962
 30
0.0
 11
-4.79999
 21
-3.899959
 31
0.0
  0
LINE
  5
1E4
100
AcDbEntity
  8
0
370
    -3
  6
Continuous
100
AcDbLine
 10
-0.000025
 20
-4.599994
 30
0.0
 11
-4.300015
 21
-4.599977
 31
0.0
  0
POINT
  5
1E5
100
AcDbEntity
  8
0
370
    -3
  6
Continuous
100
AcDbPoint
 10
0.0
 20
0.0
 30
0.0
  0
ENDBLK
  5
1E6
100
AcDbEntity
  8
0
100
AcDbBlockEnd
  0
BLOCK
  5
1E9
100
AcDbEntity
  8
0
100
AcDbBlockBegin
  2
ZU_SYM__USERS_HOME_SYMBOL_STD_SYM_B01_00004-1
 70
    64
 10
0.0
 20
0.0
 30
0.0
  3
ZU_SYM__USERS_HOME_SYMBOL_STD_SYM_B01_00004-1
  1

  0
LINE
  5
1EA
100
AcDbEntity
  8
0
370
    -3
  6
Continuous
100
AcDbLine
 10
-1.299999
 20
0.300007
 30
0.0
 11
-0.000001
 21
0.600002
 31
0.0
  0
LINE
  5
1EB
100
AcDbEntity
  8
0
370
    -3
  6
Continuous
100
AcDbLine
 10
-1.3
 20
-0.299995
 30
0.0
 11
-0.000004
 21
-0.000001
 31
0.0
  0
LINE
  5
1EC
100
AcDbEntity
  8
0
370
    -3
  6
Continuous
100
AcDbLine
 10
-1.300018
 20
-4.599993
 30
0.0
 11
-1.299981
 21
4.600004
 31
0.0
  0
ARC
  5
1ED
100
AcDbEntity
  8
0
370
    -3
  6
Continuous
100
AcDbCircle
 10
0.740001
 20
-0.000003
 30
0.0
 40
5.539999
100
AcDbArc
 50
155.470187
 51
204.52925
  0
ARC
  5
1EE
100
AcDbEntity
  8
0
370
    -3
  6
Continuous
100
AcDbCircle
 10
-3.229986
 20
3.450012
 30
0.0
 40
1.57
100
AcDbArc
 50
179.999745
 51
227.099746
  0
ARC
  5
1EF
100
AcDbEntity
  8
0
370
    -3
  6
Continuous
100
AcDbCircle
 10
-3.230014
 20
-3.449986
 30
0.0
 40
1.57
100
AcDbArc
 50
132.899744
 51
179.999745
  0
LINE
  5
1F0
100
AcDbEntity
  8
0
370
    -3
  6
Continuous
100
AcDbLine
 10
-4.299987
 20
2.300014
 30
0.0
 11
-1.29999
 21
2.300004
 31
0.0
  0
LINE
  5
1F1
100
AcDbEntity
  8
0
370
    -3
  6
Continuous
100
AcDbLine
 10
-4.300006
 20
-2.29998
 30
0.0
 11
-1.300007
 21
-2.299992
 31
0.0
  0
LINE
  5
1F2
100
AcDbEntity
  8
0
370
    -3
  6
Continuous
100
AcDbLine
 10
0.000016
 20
4.599992
 30
0.0
 11
-0.000021
 21
-4.599992
 31
0.0
  0
LINE
  5
1F3
100
AcDbEntity
  8
0
370
    -3
  6
Continuous
100
AcDbLine
 10
-4.299978
 20
4.600015
 30
0.0
 11
0.000013
 21
4.599998
 31
0.0
  0
LINE
  5
1F4
100
AcDbEntity
  8
0
370
    -3
  6
Continuous
100
AcDbLine
 10
-4.799962
 20
3.900001
 30
0.0
 11
-4.299962
 21
4.599999
 31
0.0
  0
LINE
  5
1F5
100
AcDbEntity
  8
0
370
    -3
  6
Continuous
100
AcDbLine
 10
-4.80001
 20
-3.899973
 30
0.0
 11
-4.799979
 21
3.900012
 31
0.0
  0
LINE
  5
1F6
100
AcDbEntity
  8
0
370
    -3
  6
Continuous
100
AcDbLine
 10
-4.299996
 20
-4.599962
 30
0.0
 11
-4.79999
 21
-3.899959
 31
0.0
  0
LINE
  5
1F7
100
AcDbEntity
  8
0
370
    -3
  6
Continuous
100
AcDbLine
 10
-0.000025
 20
-4.599994
 30
0.0
 11
-4.300015
 21
-4.599977
 31
0.0
  0
POINT
  5
1F8
100
AcDbEntity
  8
0
370
    -3
  6
Continuous
100
AcDbPoint
 10
0.0
 20
0.0
 30
0.0
  0
ENDBLK
  5
1F9
100
AcDbEntity
  8
0
100
AcDbBlockEnd
  0
BLOCK
  5
1FC
100
AcDbEntity
  8
0
100
AcDbBlockBegin
  2
ZU_SYM__USERS_HOME_SYMBOL_STD_SYM_B01_00005-1
 70
    64
 10
0.0
 20
0.0
 30
0.0
  3
ZU_SYM__USERS_HOME_SYMBOL_STD_SYM_B01_00005-1
  1

  0
LINE
  5
1FD
100
AcDbEntity
  8
0
370
    -3
  6
Continuous
100
AcDbLine
 10
-1.299999
 20
0.300007
 30
0.0
 11
-0.000001
 21
0.600002
 31
0.0
  0
LINE
  5
1FE
100
AcDbEntity
  8
0
370
    -3
  6
Continuous
100
AcDbLine
 10
-1.3
 20
-0.299995
 30
0.0
 11
-0.000004
 21
-0.000001
 31
0.0
  0
LINE
  5
1FF
100
AcDbEntity
  8
0
370
    -3
  6
Continuous
100
AcDbLine
 10
-1.300018
 20
-4.599993
 30
0.0
 11
-1.299981
 21
4.600004
 31
0.0
  0
ARC
  5
200
100
AcDbEntity
  8
0
370
    -3
  6
Continuous
100
AcDbCircle
 10
0.740001
 20
-0.000003
 30
0.0
 40
5.539999
100
AcDbArc
 50
155.470187
 51
204.52925
  0
ARC
  5
201
100
AcDbEntity
  8
0
370
    -3
  6
Continuous
100
AcDbCircle
 10
-3.229986
 20
3.450012
 30
0.0
 40
1.57
100
AcDbArc
 50
179.999745
 51
227.099746
  0
ARC
  5
202
100
AcDbEntity
  8
0
370
    -3
  6
Continuous
100
AcDbCircle
 10
-3.230014
 20
-3.449986
 30
0.0
 40
1.57
100
AcDbArc
 50
132.899744
 51
179.999745
  0
LINE
  5
203
100
AcDbEntity
  8
0
370
    -3
  6
Continuous
100
AcDbLine
 10
-4.299987
 20
2.300014
 30
0.0
 11
-1.29999
 21
2.300004
 31
0.0
  0
LINE
  5
204
100
AcDbEntity
  8
0
370
    -3
  6
Continuous
100
AcDbLine
 10
-4.300006
 20
-2.29998
 30
0.0
 11
-1.300007
 21
-2.299992
 31
0.0
  0
LINE
  5
205
100
AcDbEntity
  8
0
370
    -3
  6
Continuous
100
AcDbLine
 10
0.000016
 20
4.599992
 30
0.0
 11
-0.000021
 21
-4.599992
 31
0.0
  0
LINE
  5
206
100
AcDbEntity
  8
0
370
    -3
  6
Continuous
100
AcDbLine
 10
-4.299978
 20
4.600015
 30
0.0
 11
0.000013
 21
4.599998
 31
0.0
  0
LINE
  5
207
100
AcDbEntity
  8
0
370
    -3
  6
Continuous
100
AcDbLine
 10
-4.799962
 20
3.900001
 30
0.0
 11
-4.299962
 21
4.599999
 31
0.0
  0
LINE
  5
208
100
AcDbEntity
  8
0
370
    -3
  6
Continuous
100
AcDbLine
 10
-4.80001
 20
-3.899973
 30
0.0
 11
-4.799979
 21
3.900012
 31
0.0
  0
LINE
  5
209
100
AcDbEntity
  8
0
370
    -3
  6
Continuous
100
AcDbLine
 10
-4.299996
 20
-4.599962
 30
0.0
 11
-4.79999
 21
-3.899959
 31
0.0
  0
LINE
  5
20A
100
AcDbEntity
  8
0
370
    -3
  6
Continuous
100
AcDbLine
 10
-0.000025
 20
-4.599994
 30
0.0
 11
-4.300015
 21
-4.599977
 31
0.0
  0
POINT
  5
20B
100
AcDbEntity
  8
0
370
    -3
  6
Continuous
100
AcDbPoint
 10
0.0
 20
0.0
 30
0.0
  0
ENDBLK
  5
20C
100
AcDbEntity
  8
0
100
AcDbBlockEnd
  0
BLOCK
  5
24D
100
AcDbEntity
  8
0
100
AcDbBlockBegin
  2
ZU_SYM__USERS_HOME_SYMBOL_STD_SYM_B01_00006-1
 70
    64
 10
0.0
 20
0.0
 30
0.0
  3
ZU_SYM__USERS_HOME_SYMBOL_STD_SYM_B01_00006-1
  1

  0
POINT
  5
24E
100
AcDbEntity
  8
0
370
    -3
  6
Continuous
100
AcDbPoint
 10
0.0
 20
0.0
 30
0.0
  0
LINE
  5
24F
100
AcDbEntity
  8
0
370
    -3
  6
Continuous
100
AcDbLine
 10
-2.300001
 20
-4.0
 30
0.0
 11
-4.6
 21
-0.000001
 31
0.0
  0
LINE
  5
250
100
AcDbEntity
  8
0
370
    -3
  6
Continuous
100
AcDbLine
 10
-4.6
 20
0.000001
 30
0.0
 11
-2.300001
 21
4.0
 31
0.0
  0
LINE
  5
251
100
AcDbEntity
  8
0
370
    -3
  6
Continuous
100
AcDbLine
 10
-2.299999
 20
4.0
 30
0.0
 11
2.299999
 21
4.0
 31
0.0
  0
LINE
  5
252
100
AcDbEntity
  8
0
370
    -3
  6
Continuous
100
AcDbLine
 10
2.300001
 20
4.0
 30
0.0
 11
4.6
 21
0.000001
 31
0.0
  0
LINE
  5
253
100
AcDbEntity
  8
0
370
    -3
  6
Continuous
100
AcDbLine
 10
4.6
 20
-0.000001
 30
0.0
 11
2.300001
 21
-4.0
 31
0.0
  0
LINE
  5
254
100
AcDbEntity
  8
0
370
    -3
  6
Continuous
100
AcDbLine
 10
2.299999
 20
-4.0
 30
0.0
 11
-2.299999
 21
-4.0
 31
0.0
  0
CIRCLE
  5
255
100
AcDbEntity
  8
0
370
    -3
  6
Continuous
100
AcDbCircle
 10
0.0
 20
0.0
 30
0.0
 40
4.0
  0
ENDBLK
  5
256
100
AcDbEntity
  8
0
100
AcDbBlockEnd
  0
BLOCK
  5
259
100
AcDbEntity
  8
0
100
AcDbBlockBegin
  2
ZU_SYM__USERS_HOME_SYMBOL_STD_SYM_B01_00007-1
 70
    64
 10
0.0
 20
0.0
 30
0.0
  3
ZU_SYM__USERS_HOME_SYMBOL_STD_SYM_B01_00007-1
  1

  0
POINT
  5
25A
100
AcDbEntity
  8
0
370
    -3
  6
Continuous
100
AcDbPoint
 10
0.0
 20
0.0
 30
0.0
  0
LINE
  5
25B
100
AcDbEntity
  8
0
370
    -3
  6
Continuous
100
AcDbLine
 10
-2.300001
 20
-4.0
 30
0.0
 11
-4.6
 21
-0.000001
 31
0.0
  0
LINE
  5
25C
100
AcDbEntity
  8
0
370
    -3
  6
Continuous
100
AcDbLine
 10
-4.6
 20
0.000001
 30
0.0
 11
-2.300001
 21
4.0
 31
0.0
  0
LINE
  5
25D
100
AcDbEntity
  8
0
370
    -3
  6
Continuous
100
AcDbLine
 10
-2.299999
 20
4.0
 30
0.0
 11
2.299999
 21
4.0
 31
0.0
  0
LINE
  5
25E
100
AcDbEntity
  8
0
370
    -3
  6
Continuous
100
AcDbLine
 10
2.300001
 20
4.0
 30
0.0
 11
4.6
 21
0.000001
 31
0.0
  0
LINE
  5
25F
100
AcDbEntity
  8
0
370
    -3
  6
Continuous
100
AcDbLine
 10
4.6
 20
-0.000001
 30
0.0
 11
2.300001
 21
-4.0
 31
0.0
  0
LINE
  5
260
100
AcDbEntity
  8
0
370
    -3
  6
Continuous
100
AcDbLine
 10
2.299999
 20
-4.0
 30
0.0
 11
-2.299999
 21
-4.0
 31
0.0
  0
CIRCLE
  5
261
100
AcDbEntity
  8
0
370
    -3
  6
Continuous
100
AcDbCircle
 10
0.0
 20
0.0
 30
0.0
 40
4.0
  0
ENDBLK
  5
262
100
AcDbEntity
  8
0
100
AcDbBlockEnd
  0
BLOCK
  5
265
100
AcDbEntity
  8
0
100
AcDbBlockBegin
  2
ZU_SYM__USERS_HOME_SYMBOL_STD_SYM_B01_00008-1
 70
    64
 10
0.0
 20
0.0
 30
0.0
  3
ZU_SYM__USERS_HOME_SYMBOL_STD_SYM_B01_00008-1
  1

  0
POINT
  5
266
100
AcDbEntity
  8
0
370
    -3
  6
Continuous
100
AcDbPoint
 10
0.0
 20
0.0
 30
0.0
  0
LINE
  5
267
100
AcDbEntity
  8
0
370
    -3
  6
Continuous
100
AcDbLine
 10
-2.300001
 20
-4.0
 30
0.0
 11
-4.6
 21
-0.000001
 31
0.0
  0
LINE
  5
268
100
AcDbEntity
  8
0
370
    -3
  6
Continuous
100
AcDbLine
 10
-4.6
 20
0.000001
 30
0.0
 11
-2.300001
 21
4.0
 31
0.0
  0
LINE
  5
269
100
AcDbEntity
  8
0
370
    -3
  6
Continuous
100
AcDbLine
 10
-2.299999
 20
4.0
 30
0.0
 11
2.299999
 21
4.0
 31
0.0
  0
LINE
  5
26A
100
AcDbEntity
  8
0
370
    -3
  6
Continuous
100
AcDbLine
 10
2.300001
 20
4.0
 30
0.0
 11
4.6
 21
0.000001
 31
0.0
  0
LINE
  5
26B
100
AcDbEntity
  8
0
370
    -3
  6
Continuous
100
AcDbLine
 10
4.6
 20
-0.000001
 30
0.0
 11
2.300001
 21
-4.0
 31
0.0
  0
LINE
  5
26C
100
AcDbEntity
  8
0
370
    -3
  6
Continuous
100
AcDbLine
 10
2.299999
 20
-4.0
 30
0.0
 11
-2.299999
 21
-4.0
 31
0.0
  0
CIRCLE
  5
26D
100
AcDbEntity
  8
0
370
    -3
  6
Continuous
100
AcDbCircle
 10
0.0
 20
0.0
 30
0.0
 40
4.0
  0
ENDBLK
  5
26E
100
AcDbEntity
  8
0
100
AcDbBlockEnd
  0
BLOCK
  5
271
100
AcDbEntity
  8
0
100
AcDbBlockBegin
  2
ZU_SYM__USERS_HOME_SYMBOL_STD_SYM_B01_00009-1
 70
    64
 10
0.0
 20
0.0
 30
0.0
  3
ZU_SYM__USERS_HOME_SYMBOL_STD_SYM_B01_00009-1
  1

  0
POINT
  5
272
100
AcDbEntity
  8
0
370
    -3
  6
Continuous
100
AcDbPoint
 10
0.0
 20
0.0
 30
0.0
  0
LINE
  5
273
100
AcDbEntity
  8
0
370
    -3
  6
Continuous
100
AcDbLine
 10
-2.300001
 20
-4.0
 30
0.0
 11
-4.6
 21
-0.000001
 31
0.0
  0
LINE
  5
274
100
AcDbEntity
  8
0
370
    -3
  6
Continuous
100
AcDbLine
 10
-4.6
 20
0.000001
 30
0.0
 11
-2.300001
 21
4.0
 31
0.0
  0
LINE
  5
275
100
AcDbEntity
  8
0
370
    -3
  6
Continuous
100
AcDbLine
 10
-2.299999
 20
4.0
 30
0.0
 11
2.299999
 21
4.0
 31
0.0
  0
LINE
  5
276
100
AcDbEntity
  8
0
370
    -3
  6
Continuous
100
AcDbLine
 10
2.300001
 20
4.0
 30
0.0
 11
4.6
 21
0.000001
 31
0.0
  0
LINE
  5
277
100
AcDbEntity
  8
0
370
    -3
  6
Continuous
100
AcDbLine
 10
4.6
 20
-0.000001
 30
0.0
 11
2.300001
 21
-4.0
 31
0.0
  0
LINE
  5
278
100
AcDbEntity
  8
0
370
    -3
  6
Continuous
100
AcDbLine
 10
2.299999
 20
-4.0
 30
0.0
 11
-2.299999
 21
-4.0
 31
0.0
  0
CIRCLE
  5
279
100
AcDbEntity
  8
0
370
    -3
  6
Continuous
100
AcDbCircle
 10
0.0
 20
0.0
 30
0.0
 40
4.0
  0
ENDBLK
  5
27A
100
AcDbEntity
  8
0
100
AcDbBlockEnd
  0
BLOCK
  5
410
100
AcDbEntity
  8
0
100
AcDbBlockBegin
  2
ZU_SYM__USERS_HOME_SYMBOL_POO_SYM_B20_-1
 70
    64
 10
0.0
 20
0.0
 30
0.0
  3
ZU_SYM__USERS_HOME_SYMBOL_POO_SYM_B20_-1
  1

  0
CIRCLE
  5
411
100
AcDbEntity
  8
0
370
    -3
  6
Continuous
100
AcDbCircle
 10
0.0
 20
0.0
 30
0.0
 40
4.249999
  0
POINT
  5
412
100
AcDbEntity
  8
0
370
    -3
  6
Continuous
100
AcDbPoint
 10
0.0
 20
0.0
 30
0.0
  0
LINE
  5
413
100
AcDbEntity
  8
0
370
    -3
  6
Continuous
100
AcDbLine
 10
-1.999998
 20
-1.154696
 30
0.0
 11
-1.999999
 21
1.1547
 31
0.0
  0
LINE
  5
414
100
AcDbEntity
  8
0
370
    -3
  6
Continuous
100
AcDbLine
 10
1.999998
 20
1.154695
 30
0.0
 11
1.999999
 21
-1.154699
 31
0.0
  0
LINE
  5
415
100
AcDbEntity
  8
0
370
    -3
  6
Continuous
100
AcDbLine
 10
1.999998
 20
1.154696
 30
0.0
 11
0.000002
 21
2.309399
 31
0.0
  0
LINE
  5
416
100
AcDbEntity
  8
0
370
    -3
  6
Continuous
100
AcDbLine
 10
-0.000002
 20
-2.309397
 30
0.0
 11
-1.999997
 21
-1.154696
 31
0.0
  0
LINE
  5
417
100
AcDbEntity
  8
0
370
    -3
  6
Continuous
100
AcDbLine
 10
-1.999999
 20
1.1547
 30
0.0
 11
0.000002
 21
2.309399
 31
0.0
  0
LINE
  5
418
100
AcDbEntity
  8
0
370
    -3
  6
Continuous
100
AcDbLine
 10
1.999999
 20
-1.154699
 30
0.0
 11
-0.000002
 21
-2.309398
 31
0.0
  0
ENDBLK
  5
419
100
AcDbEntity
  8
0
100
AcDbBlockEnd
  0
BLOCK
  5
41C
100
AcDbEntity
  8
0
100
AcDbBlockBegin
  2
ZU_SYM__USERS_HOME_SYMBOL_POO_SYM_B20_00010-1
 70
    64
 10
0.0
 20
0.0
 30
0.0
  3
ZU_SYM__USERS_HOME_SYMBOL_POO_SYM_B20_00010-1
  1

  0
CIRCLE
  5
41D
100
AcDbEntity
  8
0
370
    -3
  6
Continuous
100
AcDbCircle
 10
0.0
 20
0.0
 30
0.0
 40
4.249999
  0
POINT
  5
41E
100
AcDbEntity
  8
0
370
    -3
  6
Continuous
100
AcDbPoint
 10
0.0
 20
0.0
 30
0.0
  0
LINE
  5
41F
100
AcDbEntity
  8
0
370
    -3
  6
Continuous
100
AcDbLine
 10
-1.999998
 20
-1.154696
 30
0.0
 11
-1.999999
 21
1.1547
 31
0.0
  0
LINE
  5
420
100
AcDbEntity
  8
0
370
    -3
  6
Continuous
100
AcDbLine
 10
1.999998
 20
1.154695
 30
0.0
 11
1.999999
 21
-1.154699
 31
0.0
  0
LINE
  5
421
100
AcDbEntity
  8
0
370
    -3
  6
Continuous
100
AcDbLine
 10
1.999998
 20
1.154696
 30
0.0
 11
0.000002
 21
2.309399
 31
0.0
  0
LINE
  5
422
100
AcDbEntity
  8
0
370
    -3
  6
Continuous
100
AcDbLine
 10
-0.000002
 20
-2.309397
 30
0.0
 11
-1.999997
 21
-1.154696
 31
0.0
  0
LINE
  5
423
100
AcDbEntity
  8
0
370
    -3
  6
Continuous
100
AcDbLine
 10
-1.999999
 20
1.1547
 30
0.0
 11
0.000002
 21
2.309399
 31
0.0
  0
LINE
  5
424
100
AcDbEntity
  8
0
370
    -3
  6
Continuous
100
AcDbLine
 10
1.999999
 20
-1.154699
 30
0.0
 11
-0.000002
 21
-2.309398
 31
0.0
  0
ENDBLK
  5
425
100
AcDbEntity
  8
0
100
AcDbBlockEnd
  0
BLOCK
  5
428
100
AcDbEntity
  8
0
100
AcDbBlockBegin
  2
ZU_SYM__USERS_HOME_SYMBOL_POO_SYM_B20_00011-1
 70
    64
 10
0.0
 20
0.0
 30
0.0
  3
ZU_SYM__USERS_HOME_SYMBOL_POO_SYM_B20_00011-1
  1

  0
CIRCLE
  5
429
100
AcDbEntity
  8
0
370
    -3
  6
Continuous
100
AcDbCircle
 10
0.0
 20
0.0
 30
0.0
 40
4.249999
  0
POINT
  5
42A
100
AcDbEntity
  8
0
370
    -3
  6
Continuous
100
AcDbPoint
 10
0.0
 20
0.0
 30
0.0
  0
LINE
  5
42B
100
AcDbEntity
  8
0
370
    -3
  6
Continuous
100
AcDbLine
 10
-1.999998
 20
-1.154696
 30
0.0
 11
-1.999999
 21
1.1547
 31
0.0
  0
LINE
  5
42C
100
AcDbEntity
  8
0
370
    -3
  6
Continuous
100
AcDbLine
 10
1.999998
 20
1.154695
 30
0.0
 11
1.999999
 21
-1.154699
 31
0.0
  0
LINE
  5
42D
100
AcDbEntity
  8
0
370
    -3
  6
Continuous
100
AcDbLine
 10
1.999998
 20
1.154696
 30
0.0
 11
0.000002
 21
2.309399
 31
0.0
  0
LINE
  5
42E
100
AcDbEntity
  8
0
370
    -3
  6
Continuous
100
AcDbLine
 10
-0.000002
 20
-2.309397
 30
0.0
 11
-1.999997
 21
-1.154696
 31
0.0
  0
LINE
  5
42F
100
AcDbEntity
  8
0
370
    -3
  6
Continuous
100
AcDbLine
 10
-1.999999
 20
1.1547
 30
0.0
 11
0.000002
 21
2.309399
 31
0.0
  0
LINE
  5
430
100
AcDbEntity
  8
0
370
    -3
  6
Continuous
100
AcDbLine
 10
1.999999
 20
-1.154699
 30
0.0
 11
-0.000002
 21
-2.309398
 31
0.0
  0
ENDBLK
  5
431
100
AcDbEntity
  8
0
100
AcDbBlockEnd
  0
BLOCK
  5
434
100
AcDbEntity
  8
0
100
AcDbBlockBegin
  2
ZU_SYM__USERS_HOME_SYMBOL_POO_SYM_B20_00012-1
 70
    64
 10
0.0
 20
0.0
 30
0.0
  3
ZU_SYM__USERS_HOME_SYMBOL_POO_SYM_B20_00012-1
  1

  0
CIRCLE
  5
435
100
AcDbEntity
  8
0
370
    -3
  6
Continuous
100
AcDbCircle
 10
0.0
 20
0.0
 30
0.0
 40
4.249999
  0
POINT
  5
436
100
AcDbEntity
  8
0
370
    -3
  6
Continuous
100
AcDbPoint
 10
0.0
 20
0.0
 30
0.0
  0
LINE
  5
437
100
AcDbEntity
  8
0
370
    -3
  6
Continuous
100
AcDbLine
 10
-1.999998
 20
-1.154696
 30
0.0
 11
-1.999999
 21
1.1547
 31
0.0
  0
LINE
  5
438
100
AcDbEntity
  8
0
370
    -3
  6
Continuous
100
AcDbLine
 10
1.999998
 20
1.154695
 30
0.0
 11
1.999999
 21
-1.154699
 31
0.0
  0
LINE
  5
439
100
AcDbEntity
  8
0
370
    -3
  6
Continuous
100
AcDbLine
 10
1.999998
 20
1.154696
 30
0.0
 11
0.000002
 21
2.309399
 31
0.0
  0
LINE
  5
43A
100
AcDbEntity
  8
0
370
    -3
  6
Continuous
100
AcDbLine
 10
-0.000002
 20
-2.309397
 30
0.0
 11
-1.999997
 21
-1.154696
 31
0.0
  0
LINE
  5
43B
100
AcDbEntity
  8
0
370
    -3
  6
Continuous
100
AcDbLine
 10
-1.999999
 20
1.1547
 30
0.0
 11
0.000002
 21
2.309399
 31
0.0
  0
LINE
  5
43C
100
AcDbEntity
  8
0
370
    -3
  6
Continuous
100
AcDbLine
 10
1.999999
 20
-1.154699
 30
0.0
 11
-0.000002
 21
-2.309398
 31
0.0
  0
ENDBLK
  5
43D
100
AcDbEntity
  8
0
100
AcDbBlockEnd
  0
ENDSEC
  0
SECTION
  2
ENTITIES
  0
ARC
  5
2B
100
AcDbEntity
  8
0
370
    -3
  6
Continuous
100
AcDbCircle
 10
-303.083084
 20
211.5
 30
0.0
 40
7.8
100
AcDbArc
 50
135.109161
 51
180.0
  0
ARC
  5
2C
100
AcDbEntity
  8
0
370
    -3
  6
Continuous
100
AcDbCircle
 10
-303.083084
 20
133.5
 30
0.0
 40
7.8
100
AcDbArc
 50
180.0
 51
224.890813
  0
LINE
  5
2D
100
AcDbEntity
  8
0
370
    -3
  6
Continuous
100
AcDbLine
 10
-310.883084
 20
155.5
 30
0.0
 11
-310.883084
 21
133.5
 31
0.0
  0
LINE
  5
2E
100
AcDbEntity
  8
0
370
    -3
  6
Continuous
100
AcDbLine
 10
-329.309024
 20
155.5
 30
0.0
 11
-305.809024
 21
155.5
 31
0.0
  0
ARC
  5
2F
100
AcDbEntity
  8
0
370
    -3
  6
Continuous
100
AcDbCircle
 10
-329.309024
 20
157.5
 30
0.0
 40
2.0
100
AcDbArc
 50
180.0
 51
270.0
  0
POINT
  5
30
100
AcDbEntity
  8
0
370
    -3
  6
CENTER
100
AcDbPoint
 10
-331.309024
 20
159.2795
 30
0.0
  0
LINE
  5
31
100
AcDbEntity
  8
0
370
    -3
  6
Continuous
100
AcDbLine
 10
-310.883084
 20
189.5
 30
0.0
 11
-310.883084
 21
211.5
 31
0.0
  0
LINE
  5
32
100
AcDbEntity
  8
0
370
    -3
  6
Continuous
100
AcDbLine
 10
-329.309024
 20
189.5
 30
0.0
 11
-305.809024
 21
189.5
 31
0.0
  0
ARC
  5
33
100
AcDbEntity
  8
0
370
    -3
  6
Continuous
100
AcDbCircle
 10
-329.309024
 20
187.5
 30
0.0
 40
2.0
100
AcDbArc
 50
90.0
 51
180.0
  0
POINT
  5
34
100
AcDbEntity
  8
0
370
    -3
  6
CENTER
100
AcDbPoint
 10
-331.309024
 20
185.7205
 30
0.0
  0
LINE
  5
35
100
AcDbEntity
  8
0
370
    -3
  6
Continuous
100
AcDbLine
 10
-331.309024
 20
172.5
 30
0.0
 11
-331.309024
 21
157.5
 31
0.0
  0
LINE
  5
36
100
AcDbEntity
  8
0
370
    -3
  6
Continuous
100
AcDbLine
 10
-331.309024
 20
172.5
 30
0.0
 11
-331.309024
 21
187.5
 31
0.0
  0
LINE
  5
37
100
AcDbEntity
  8
0
370
    -3
  6
Continuous
100
AcDbLine
 10
-408.809024
 20
-151.503787
 30
0.0
 11
-470.809024
 21
-151.503787
 31
0.0
  0
LINE
  5
38
100
AcDbEntity
  8
0
370
    -3
  6
Continuous
100
AcDbLine
 10
-408.283181
 20
-151.503787
 30
0.0
 11
-471.334867
 21
-151.503787
 31
0.0
  0
LINE
  5
39
100
AcDbEntity
  8
0
370
    -3
  6
Continuous
100
AcDbLine
 10
-439.809024
 20
-145.503787
 30
0.0
 11
-421.291868
 21
-145.503787
 31
0.0
  0
LINE
  5
3A
100
AcDbEntity
  8
0
370
    -3
  6
Continuous
100
AcDbLine
 10
-439.809024
 20
-145.503787
 30
0.0
 11
-458.326179
 21
-145.503787
 31
0.0
  0
LINE
  5
3B
100
AcDbEntity
  8
0
370
    -3
  6
Continuous
100
AcDbLine
 10
-408.809024
 20
-151.503787
 30
0.0
 11
-470.809024
 21
-151.503787
 31
0.0
  0
LINE
  5
3C
100
AcDbEntity
  8
0
370
    -3
  6
CENTER
100
AcDbLine
 10
-439.809024
 20
-207.602973
 30
0.0
 11
-439.809024
 21
-145.818634
 31
0.0
  0
LINE
  5
3D
100
AcDbEntity
  8
0
370
    -3
  6
Continuous
100
AcDbLine
 10
-408.809024
 20
-151.503787
 30
0.0
 11
-408.809024
 21
-152.503787
 31
0.0
  0
LINE
  5
3E
100
AcDbEntity
  8
0
370
    -3
  6
Continuous
100
AcDbLine
 10
-439.809024
 20
-151.503787
 30
0.0
 11
-408.809024
 21
-151.503787
 31
0.0
  0
LINE
  5
3F
100
AcDbEntity
  8
0
370
    -3
  6
Continuous
100
AcDbLine
 10
-470.809024
 20
-151.503787
 30
0.0
 11
-470.809024
 21
-152.503787
 31
0.0
  0
LINE
  5
40
100
AcDbEntity
  8
0
370
    -3
  6
Continuous
100
AcDbLine
 10
-439.809024
 20
-151.503787
 30
0.0
 11
-470.809024
 21
-151.503787
 31
0.0
  0
ARC
  5
41
100
AcDbEntity
  8
0
370
    -3
  6
Continuous
100
AcDbCircle
 10
-468.289994
 20
-147.003787
 30
0.0
 40
0.5
100
AcDbArc
 50
270.0
 51
0.0
  0
LINE
  5
42
100
AcDbEntity
  8
0
370
    -3
  6
Continuous
100
AcDbLine
 10
-467.789994
 20
-146.003787
 30
0.0
 11
-467.789994
 21
-147.003787
 31
0.0
  0
ARC
  5
43
100
AcDbEntity
  8
0
370
    -3
  6
Continuous
100
AcDbCircle
 10
-467.289994
 20
-146.003787
 30
0.0
 40
0.5
100
AcDbArc
 50
90.0
 51
180.0
  0
ARC
  5
44
100
AcDbEntity
  8
0
370
    -3
  6
Continuous
100
AcDbCircle
 10
-467.231385
 20
-145.003787
 30
0.0
 40
0.5
100
AcDbArc
 50
270.0
 51
352.874984
  0
LINE
  5
45
100
AcDbEntity
  8
0
370
    -3
  6
Continuous
100
AcDbLine
 10
-458.326179
 20
-145.503787
 30
0.0
 11
-467.289994
 21
-145.503787
 31
0.0
  0
LINE
  5
46
100
AcDbEntity
  8
0
370
    -3
  6
Continuous
100
AcDbLine
 10
-458.559024
 20
-143.887637
 30
0.0
 11
-458.559024
 21
-145.503787
 31
0.0
  0
ARC
  5
47
100
AcDbEntity
  8
0
370
    -3
  6
Continuous
100
AcDbCircle
 10
-458.348603
 20
-145.003787
 30
0.0
 40
0.5
100
AcDbArc
 50
187.125016
 51
270.0
  0
LINE
  5
48
100
AcDbEntity
  8
0
370
    -3
  6
Continuous
100
AcDbLine
 10
-458.992013
 20
-143.887637
 30
0.0
 11
-458.844742
 21
-145.065804
 31
0.0
  0
ARC
  5
49
100
AcDbEntity
  8
0
370
    -3
  6
Continuous
100
AcDbCircle
 10
-421.291868
 20
-146.003787
 30
0.0
 40
0.5
100
AcDbArc
 50
2.0
 51
90.0
  0
LINE
  5
4A
100
AcDbEntity
  8
0
370
    -3
  6
Continuous
100
AcDbLine
 10
-420.792173
 20
-145.986337
 30
0.0
 11
-420.756033
 21
-147.021236
 31
0.0
  0
ARC
  5
4B
100
AcDbEntity
  8
0
370
    -3
  6
Continuous
100
AcDbCircle
 10
-420.256338
 20
-147.003787
 30
0.0
 40
0.5
100
AcDbArc
 50
182.0
 51
270.0
  0
LINE
  5
4C
100
AcDbEntity
  8
0
370
    -3
  6
Continuous
100
AcDbLine
 10
-420.256338
 20
-147.503787
 30
0.0
 11
-407.20428
 21
-147.503787
 31
0.0
  0
LINE
  5
4D
100
AcDbEntity
  8
0
370
    -3
  6
Continuous
100
AcDbLine
 10
-407.20428
 20
-147.503787
 30
0.0
 11
-407.283523
 21
-150.529964
 31
0.0
  0
ARC
  5
4E
100
AcDbEntity
  8
0
370
    -3
  6
Continuous
100
AcDbCircle
 10
-408.283181
 20
-150.503787
 30
0.0
 40
1.0
100
AcDbArc
 50
270.0
 51
358.5
  0
LINE
  5
4F
100
AcDbEntity
  8
0
370
    -3
  6
Continuous
100
AcDbLine
 10
-471.334867
 20
-151.503787
 30
0.0
 11
-408.283181
 21
-151.503787
 31
0.0
  0
ARC
  5
50
100
AcDbEntity
  8
0
370
    -3
  6
Continuous
100
AcDbCircle
 10
-471.334867
 20
-150.503787
 30
0.0
 40
1.0
100
AcDbArc
 50
181.5
 51
270.0
  0
LINE
  5
51
100
AcDbEntity
  8
0
370
    -3
  6
Continuous
100
AcDbLine
 10
-472.413767
 20
-147.503787
 30
0.0
 11
-472.334524
 21
-150.529964
 31
0.0
  0
LINE
  5
52
100
AcDbEntity
  8
0
370
    -3
  6
Continuous
100
AcDbLine
 10
-459.36171
 20
-147.503787
 30
0.0
 11
-472.413767
 21
-147.503787
 31
0.0
  0
ARC
  5
53
100
AcDbEntity
  8
0
370
    -3
  6
Continuous
100
AcDbCircle
 10
-459.36171
 20
-147.003787
 30
0.0
 40
0.5
100
AcDbArc
 50
270.0
 51
358.0
  0
LINE
  5
54
100
AcDbEntity
  8
0
370
    -3
  6
Continuous
100
AcDbLine
 10
-458.825875
 20
-145.986337
 30
0.0
 11
-458.862014
 21
-147.021236
 31
0.0
  0
ARC
  5
55
100
AcDbEntity
  8
0
370
    -3
  6
Continuous
100
AcDbCircle
 10
-458.326179
 20
-146.003787
 30
0.0
 40
0.5
100
AcDbArc
 50
90.0
 51
178.0
  0
LINE
  5
56
100
AcDbEntity
  8
0
370
    -3
  6
Continuous
100
AcDbLine
 10
-421.291868
 20
-145.503787
 30
0.0
 11
-412.328053
 21
-145.503787
 31
0.0
  0
ARC
  5
57
100
AcDbEntity
  8
0
370
    -3
  6
Continuous
100
AcDbCircle
 10
-411.328053
 20
-147.003787
 30
0.0
 40
0.5
100
AcDbArc
 50
180.0
 51
270.0
  0
LINE
  5
58
100
AcDbEntity
  8
0
370
    -3
  6
Continuous
100
AcDbLine
 10
-411.828053
 20
-146.003787
 30
0.0
 11
-411.828053
 21
-147.003787
 31
0.0
  0
ARC
  5
59
100
AcDbEntity
  8
0
370
    -3
  6
Continuous
100
AcDbCircle
 10
-412.328053
 20
-146.003787
 30
0.0
 40
0.5
100
AcDbArc
 50
0.0
 51
90.0
  0
ARC
  5
5A
100
AcDbEntity
  8
0
370
    -3
  6
Continuous
100
AcDbCircle
 10
-412.386662
 20
-145.003787
 30
0.0
 40
0.5
100
AcDbArc
 50
187.125016
 51
270.0
  0
ARC
  5
5B
100
AcDbEntity
  8
0
370
    -3
  6
Continuous
100
AcDbCircle
 10
-421.269444
 20
-145.003787
 30
0.0
 40
0.5
100
AcDbArc
 50
270.0
 51
352.874984
  0
LINE
  5
5C
100
AcDbEntity
  8
0
370
    -3
  6
Continuous
100
AcDbLine
 10
-420.626035
 20
-143.887637
 30
0.0
 11
-420.773305
 21
-145.065804
 31
0.0
  0
LINE
  5
5D
100
AcDbEntity
  8
0
370
    -3
  6
Continuous
100
AcDbLine
 10
-421.059024
 20
-143.887637
 30
0.0
 11
-421.059024
 21
-145.503787
 31
0.0
  0
LINE
  5
5E
100
AcDbEntity
  8
0
370
    -3
  6
Continuous
100
AcDbLine
 10
-408.809024
 20
-152.503787
 30
0.0
 11
-439.809024
 21
-152.503787
 31
0.0
  0
LINE
  5
5F
100
AcDbEntity
  8
0
370
    -3
  6
Continuous
100
AcDbLine
 10
-470.809024
 20
-152.503787
 30
0.0
 11
-439.809024
 21
-152.503787
 31
0.0
  0
ARC
  5
60
100
AcDbEntity
  8
0
370
    -3
  6
Continuous
100
AcDbCircle
 10
-471.334867
 20
-150.503787
 30
0.0
 40
1.0
100
AcDbArc
 50
181.5
 51
270.0
  0
LINE
  5
61
100
AcDbEntity
  8
0
370
    -3
  6
Continuous
100
AcDbLine
 10
-471.334867
 20
-151.503787
 30
0.0
 11
-408.283181
 21
-151.503787
 31
0.0
  0
LINE
  5
62
100
AcDbEntity
  8
0
370
    -3
  6
CENTER
100
AcDbLine
 10
-421.164091
 20
-178.503787
 30
0.0
 11
-461.109481
 21
-178.503787
 31
0.0
  0
ARC
  5
63
100
AcDbEntity
  8
0
370
    -3
  6
Continuous
100
AcDbCircle
 10
-478.809024
 20
-162.05931
 30
0.0
 40
7.8
100
AcDbArc
 50
90.0
 51
180.0
  0
LINE
  5
64
100
AcDbEntity
  8
0
370
    -3
  6
Continuous
100
AcDbLine
 10
-485.809024
 20
-191.972322
 30
0.0
 11
-485.809024
 21
-161.597405
 31
0.0
  0
ARC
  5
65
100
AcDbEntity
  8
0
370
    -3
  6
Continuous
100
AcDbCircle
 10
-478.809024
 20
-191.972322
 30
0.0
 40
7.0
100
AcDbArc
 50
180.0
 51
270.0
  0
ARC
  5
66
100
AcDbEntity
  8
0
370
    -3
  6
Continuous
100
AcDbCircle
 10
-478.809024
 20
-191.510417
 30
0.0
 40
7.8
100
AcDbArc
 50
180.0
 51
270.0
  0
ARC
  5
67
100
AcDbEntity
  8
0
370
    -3
  6
Continuous
100
AcDbCircle
 10
-478.809024
 20
-196.174935
 30
0.0
 40
7.8
100
AcDbArc
 50
180.0
 51
270.0
  0
ELLIPSE
  5
68
100
AcDbEntity
  8
0
370
    -3
  6
Continuous
100
AcDbEllipse
 10
-479.309024
 20
-202.089526
 30
0.0
 11
3.5
 21
0.0
 31
0.0
210
0.0
220
0.0
230
1.0
 40
0.656603
 41
3.574643629043285
 42
5.3210459426688868
  0
LINE
  5
69
100
AcDbEntity
  8
0
370
    -3
  6
Continuous
100
AcDbLine
 10
-486.609024
 20
-196.174935
 30
0.0
 11
-486.609024
 21
-162.05931
 31
0.0
  0
LINE
  5
6A
100
AcDbEntity
  8
0
370
    -3
  6
Continuous
100
AcDbLine
 10
-439.809024
 20
-198.972322
 30
0.0
 11
-478.809024
 21
-198.972322
 31
0.0
  0
LINE
  5
6B
100
AcDbEntity
  8
0
370
    -3
  6
Continuous
100
AcDbLine
 10
-478.809024
 20
-203.974935
 30
0.0
 11
-439.809024
 21
-203.974935
 31
0.0
  0
LINE
  5
6C
100
AcDbEntity
  8
0
370
    -3
  6
Continuous
100
AcDbLine
 10
-439.809024
 20
-151.503787
 30
0.0
 11
-470.809024
 21
-151.503787
 31
0.0
  0
LINE
  5
6D
100
AcDbEntity
  8
0
370
    -3
  6
Continuous
100
AcDbLine
 10
-470.809024
 20
-152.503787
 30
0.0
 11
-439.809024
 21
-152.503787
 31
0.0
  0
LINE
  5
6E
100
AcDbEntity
  8
0
370
    -3
  6
Continuous
100
AcDbLine
 10
-470.809024
 20
-151.503787
 30
0.0
 11
-470.809024
 21
-152.503787
 31
0.0
  0
ARC
  5
6F
100
AcDbEntity
  8
0
370
    -3
  6
Continuous
100
AcDbCircle
 10
-478.809024
 20
-161.597405
 30
0.0
 40
7.0
100
AcDbArc
 50
90.0
 51
180.0
  0
LINE
  5
70
100
AcDbEntity
  8
0
370
    -3
  6
Continuous
100
AcDbLine
 10
-439.809024
 20
-152.503787
 30
0.0
 11
-467.809024
 21
-152.503787
 31
0.0
  0
LINE
  5
71
100
AcDbEntity
  8
0
370
    -3
  6
Continuous
100
AcDbLine
 10
-439.809024
 20
-197.739698
 30
0.0
 11
-465.868057
 21
-197.739698
 31
0.0
  0
LINE
  5
72
100
AcDbEntity
  8
0
370
    -3
  6
Continuous
100
AcDbLine
 10
-479.109024
 20
-160.303787
 30
0.0
 11
-479.109024
 21
-189.936645
 31
0.0
  0
LINE
  5
73
100
AcDbEntity
  8
0
370
    -3
  6
Continuous
100
AcDbLine
 10
-467.351454
 20
-197.438203
 30
0.0
 11
-476.792421
 21
-193.435149
 31
0.0
  0
ARC
  5
74
100
AcDbEntity
  8
0
370
    -3
  6
Continuous
100
AcDbCircle
 10
-465.868057
 20
-193.939698
 30
0.0
 40
3.8
100
AcDbArc
 50
247.022625
 51
270.0
  0
ARC
  5
75
100
AcDbEntity
  8
0
370
    -3
  6
Continuous
100
AcDbCircle
 10
-475.309024
 20
-189.936645
 30
0.0
 40
3.8
100
AcDbArc
 50
180.0
 51
247.022625
  0
LINE
  5
76
100
AcDbEntity
  8
0
370
    -3
  6
Continuous
100
AcDbLine
 10
-439.809024
 20
-153.503787
 30
0.0
 11
-472.309024
 21
-153.503787
 31
0.0
  0
ARC
  5
77
100
AcDbEntity
  8
0
370
    -3
  6
Continuous
100
AcDbCircle
 10
-472.309024
 20
-160.303787
 30
0.0
 40
6.8
100
AcDbArc
 50
90.0
 51
180.0
  0
LINE
  5
78
100
AcDbEntity
  8
0
370
    -3
  6
Continuous
100
AcDbLine
 10
-478.260212
 20
-157.0139
 30
0.0
 11
-479.309024
 21
-157.0139
 31
0.0
  0
ARC
  5
79
100
AcDbEntity
  8
0
370
    -3
  6
Continuous
100
AcDbCircle
 10
-479.309024
 20
-163.0139
 30
0.0
 40
6.0
100
AcDbArc
 50
90.0
 51
180.0
  0
ARC
  5
7A
100
AcDbEntity
  8
0
370
    -3
  6
Continuous
100
AcDbCircle
 10
-469.073935
 20
-153.203787
 30
0.0
 40
0.3
100
AcDbArc
 50
270.0
 51
346.657636
  0
ARC
  5
7B
100
AcDbEntity
  8
0
370
    -3
  6
Continuous
100
AcDbCircle
 10
-467.809024
 20
-153.503787
 30
0.0
 40
1.0
100
AcDbArc
 50
90.0
 51
166.657636
  0
LINE
  5
7C
100
AcDbEntity
  8
0
370
    -3
  6
Continuous
100
AcDbLine
 10
-476.007294
 20
-154.597405
 30
0.0
 11
-478.809024
 21
-154.597405
 31
0.0
  0
LINE
  5
7D
100
AcDbEntity
  8
0
370
    -3
  6
Continuous
100
AcDbLine
 10
-478.809024
 20
-154.25931
 30
0.0
 11
-475.424196
 21
-154.25931
 31
0.0
  0
LINE
  5
7E
100
AcDbEntity
  8
0
370
    -3
  6
Continuous
100
AcDbLine
 10
-485.309024
 20
-163.0139
 30
0.0
 11
-485.309024
 21
-194.570398
 31
0.0
  0
LINE
  5
7F
100
AcDbEntity
  8
0
370
    -3
  6
Continuous
100
AcDbLine
 10
-439.809024
 20
-199.310417
 30
0.0
 11
-478.809024
 21
-199.310417
 31
0.0
  0
LINE
  5
80
100
AcDbEntity
  8
0
370
    -3
  6
CENTER
100
AcDbLine
 10
-421.164091
 20
-178.503787
 30
0.0
 11
-461.109481
 21
-178.503787
 31
0.0
  0
ARC
  5
81
100
AcDbEntity
  8
0
370
    -3
  6
Continuous
100
AcDbCircle
 10
-400.809024
 20
-162.05931
 30
0.0
 40
7.8
100
AcDbArc
 50
0.0
 51
90.0
  0
LINE
  5
82
100
AcDbEntity
  8
0
370
    -3
  6
Continuous
100
AcDbLine
 10
-393.809024
 20
-191.972322
 30
0.0
 11
-393.809024
 21
-161.597405
 31
0.0
  0
ARC
  5
83
100
AcDbEntity
  8
0
370
    -3
  6
Continuous
100
AcDbCircle
 10
-400.809024
 20
-191.972322
 30
0.0
 40
7.0
100
AcDbArc
 50
270.0
 51
0.0
  0
ARC
  5
84
100
AcDbEntity
  8
0
370
    -3
  6
Continuous
100
AcDbCircle
 10
-400.809024
 20
-191.510417
 30
0.0
 40
7.8
100
AcDbArc
 50
270.0
 51
0.0
  0
ARC
  5
85
100
AcDbEntity
  8
0
370
    -3
  6
Continuous
100
AcDbCircle
 10
-400.809024
 20
-196.174935
 30
0.0
 40
7.8
100
AcDbArc
 50
270.0
 51
0.0
  0
ELLIPSE
  5
86
100
AcDbEntity
  8
0
370
    -3
  6
Continuous
100
AcDbEllipse
 10
-400.309024
 20
-202.089526
 30
0.0
 11
3.5
 21
0.0
 31
0.0
210
0.0
220
0.0
230
1.0
 40
0.656603
 41
4.1037320181008381
 42
5.8501343317260392
  0
LINE
  5
87
100
AcDbEntity
  8
0
370
    -3
  6
Continuous
100
AcDbLine
 10
-393.009024
 20
-196.174935
 30
0.0
 11
-393.009024
 21
-162.05931
 31
0.0
  0
LINE
  5
88
100
AcDbEntity
  8
0
370
    -3
  6
Continuous
100
AcDbLine
 10
-439.809024
 20
-198.972322
 30
0.0
 11
-400.809024
 21
-198.972322
 31
0.0
  0
LINE
  5
89
100
AcDbEntity
  8
0
370
    -3
  6
Continuous
100
AcDbLine
 10
-400.809024
 20
-203.974935
 30
0.0
 11
-439.809024
 21
-203.974935
 31
0.0
  0
LINE
  5
8A
100
AcDbEntity
  8
0
370
    -3
  6
Continuous
100
AcDbLine
 10
-439.809024
 20
-151.503787
 30
0.0
 11
-408.809024
 21
-151.503787
 31
0.0
  0
LINE
  5
8B
100
AcDbEntity
  8
0
370
    -3
  6
Continuous
100
AcDbLine
 10
-408.809024
 20
-152.503787
 30
0.0
 11
-439.809024
 21
-152.503787
 31
0.0
  0
LINE
  5
8C
100
AcDbEntity
  8
0
370
    -3
  6
Continuous
100
AcDbLine
 10
-408.809024
 20
-151.503787
 30
0.0
 11
-408.809024
 21
-152.503787
 31
0.0
  0
ARC
  5
8D
100
AcDbEntity
  8
0
370
    -3
  6
Continuous
100
AcDbCircle
 10
-400.809024
 20
-161.597405
 30
0.0
 40
7.0
100
AcDbArc
 50
0.0
 51
90.0
  0
LINE
  5
8E
100
AcDbEntity
  8
0
370
    -3
  6
Continuous
100
AcDbLine
 10
-439.809024
 20
-152.503787
 30
0.0
 11
-411.809024
 21
-152.503787
 31
0.0
  0
LINE
  5
8F
100
AcDbEntity
  8
0
370
    -3
  6
Continuous
100
AcDbLine
 10
-439.809024
 20
-197.739698
 30
0.0
 11
-413.74999
 21
-197.739698
 31
0.0
  0
LINE
  5
90
100
AcDbEntity
  8
0
370
    -3
  6
Continuous
100
AcDbLine
 10
-400.509024
 20
-160.303787
 30
0.0
 11
-400.509024
 21
-189.936645
 31
0.0
  0
LINE
  5
91
100
AcDbEntity
  8
0
370
    -3
  6
Continuous
100
AcDbLine
 10
-412.266593
 20
-197.438203
 30
0.0
 11
-402.825627
 21
-193.435149
 31
0.0
  0
ARC
  5
92
100
AcDbEntity
  8
0
370
    -3
  6
Continuous
100
AcDbCircle
 10
-413.74999
 20
-193.939698
 30
0.0
 40
3.8
100
AcDbArc
 50
270.0
 51
292.977375
  0
ARC
  5
93
100
AcDbEntity
  8
0
370
    -3
  6
Continuous
100
AcDbCircle
 10
-404.309024
 20
-189.936645
 30
0.0
 40
3.8
100
AcDbArc
 50
292.977375
 51
0.0
  0
LINE
  5
94
100
AcDbEntity
  8
0
370
    -3
  6
Continuous
100
AcDbLine
 10
-439.809024
 20
-153.503787
 30
0.0
 11
-407.309024
 21
-153.503787
 31
0.0
  0
ARC
  5
95
100
AcDbEntity
  8
0
370
    -3
  6
Continuous
100
AcDbCircle
 10
-407.309024
 20
-160.303787
 30
0.0
 40
6.8
100
AcDbArc
 50
0.0
 51
90.0
  0
LINE
  5
96
100
AcDbEntity
  8
0
370
    -3
  6
Continuous
100
AcDbLine
 10
-401.357835
 20
-157.0139
 30
0.0
 11
-400.309024
 21
-157.0139
 31
0.0
  0
ARC
  5
97
100
AcDbEntity
  8
0
370
    -3
  6
Continuous
100
AcDbCircle
 10
-400.309024
 20
-163.0139
 30
0.0
 40
6.0
100
AcDbArc
 50
0.0
 51
90.0
  0
ARC
  5
98
100
AcDbEntity
  8
0
370
    -3
  6
Continuous
100
AcDbCircle
 10
-410.544113
 20
-153.203787
 30
0.0
 40
0.3
100
AcDbArc
 50
193.342364
 51
270.0
  0
ARC
  5
99
100
AcDbEntity
  8
0
370
    -3
  6
Continuous
100
AcDbCircle
 10
-411.809024
 20
-153.503787
 30
0.0
 40
1.0
100
AcDbArc
 50
13.342364
 51
90.0
  0
LINE
  5
9A
100
AcDbEntity
  8
0
370
    -3
  6
Continuous
100
AcDbLine
 10
-403.610753
 20
-154.597405
 30
0.0
 11
-400.809024
 21
-154.597405
 31
0.0
  0
LINE
  5
9B
100
AcDbEntity
  8
0
370
    -3
  6
Continuous
100
AcDbLine
 10
-400.809024
 20
-154.25931
 30
0.0
 11
-404.193851
 21
-154.25931
 31
0.0
  0
LINE
  5
9C
100
AcDbEntity
  8
0
370
    -3
  6
Continuous
100
AcDbLine
 10
-394.309024
 20
-163.0139
 30
0.0
 11
-394.309024
 21
-194.570398
 31
0.0
  0
LINE
  5
9D
100
AcDbEntity
  8
0
370
    -3
  6
Continuous
100
AcDbLine
 10
-439.809024
 20
-199.310417
 30
0.0
 11
-400.809024
 21
-199.310417
 31
0.0
  0
LINE
  5
9E
100
AcDbEntity
  8
0
370
    -3
  6
Continuous
100
AcDbLine
 10
-466.640395
 20
-160.303787
 30
0.0
 11
-466.640395
 21
-197.660383
 31
0.0
  0
ARC
  5
9F
100
AcDbEntity
  8
0
370
    -3
  6
Continuous
100
AcDbCircle
 10
-459.840395
 20
-160.303787
 30
0.0
 40
6.8
100
AcDbArc
 50
90.0
 51
180.0
  0
ARC
  5
A0
100
AcDbEntity
  8
0
370
    -3
  6
Continuous
100
AcDbCircle
 10
-419.777653
 20
-160.303787
 30
0.0
 40
6.8
100
AcDbArc
 50
0.0
 51
90.0
  0
LINE
  5
A1
100
AcDbEntity
  8
0
370
    -3
  6
Continuous
100
AcDbLine
 10
-412.977653
 20
-160.303787
 30
0.0
 11
-412.977653
 21
-197.660383
 31
0.0
  0
ARC
  5
A2
100
AcDbEntity
  8
0
370
    -3
  6
Continuous
100
AcDbCircle
 10
-439.809024
 20
-178.503787
 30
0.0
 40
13.2205
100
AcDbArc
 50
270.0
 51
90.0
  0
ARC
  5
A3
100
AcDbEntity
  8
0
370
    -3
  6
Continuous
100
AcDbCircle
 10
-439.809024
 20
-178.503787
 30
0.0
 40
12.0585
100
AcDbArc
 50
270.0
 51
90.0
  0
ARC
  5
A4
100
AcDbEntity
  8
0
370
    -3
  6
Continuous
100
AcDbCircle
 10
-439.809024
 20
-178.503787
 30
0.0
 40
17.0
100
AcDbArc
 50
270.0
 51
90.0
  0
ARC
  5
A5
100
AcDbEntity
  8
0
370
    -3
  6
Continuous
100
AcDbCircle
 10
-439.809024
 20
-178.503787
 30
0.0
 40
13.2205
100
AcDbArc
 50
90.0
 51
270.0
  0
ARC
  5
A6
100
AcDbEntity
  8
0
370
    -3
  6
Continuous
100
AcDbCircle
 10
-439.809024
 20
-178.503787
 30
0.0
 40
12.0585
100
AcDbArc
 50
90.0
 51
270.0
  0
ARC
  5
A7
100
AcDbEntity
  8
0
370
    -3
  6
Continuous
100
AcDbCircle
 10
-439.809024
 20
-178.503787
 30
0.0
 40
17.0
100
AcDbArc
 50
90.0
 51
270.0
  0
LINE
  5
A8
100
AcDbEntity
  8
0
370
    -3
  6
Continuous
100
AcDbLine
 10
-413.273305
 20
-141.941769
 30
0.0
 11
-412.882801
 21
-145.065804
 31
0.0
  0
LINE
  5
A9
100
AcDbEntity
  8
0
370
    -3
  6
Continuous
100
AcDbLine
 10
-413.769444
 20
-141.503787
 30
0.0
 11
-419.809024
 21
-141.503787
 31
0.0
  0
ARC
  5
AA
100
AcDbEntity
  8
0
370
    -3
  6
Continuous
100
AcDbCircle
 10
-413.769444
 20
-142.003787
 30
0.0
 40
0.5
100
AcDbArc
 50
7.125016
 51
90.0
  0
LINE
  5
AB
100
AcDbEntity
  8
0
370
    -3
  6
Continuous
100
AcDbLine
 10
-466.344742
 20
-141.941769
 30
0.0
 11
-466.735246
 21
-145.065804
 31
0.0
  0
LINE
  5
AC
100
AcDbEntity
  8
0
370
    -3
  6
Continuous
100
AcDbLine
 10
-465.848603
 20
-141.503787
 30
0.0
 11
-459.809024
 21
-141.503787
 31
0.0
  0
ARC
  5
AD
100
AcDbEntity
  8
0
370
    -3
  6
Continuous
100
AcDbCircle
 10
-465.848603
 20
-142.003787
 30
0.0
 40
0.5
100
AcDbArc
 50
90.0
 51
172.874984
  0
LINE
  5
AE
100
AcDbEntity
  8
0
370
    -3
  6
Continuous
100
AcDbLine
 10
-329.309024
 20
-195.387637
 30
0.0
 11
-302.719739
 21
-195.387637
 31
0.0
  0
ARC
  5
AF
100
AcDbEntity
  8
0
370
    -3
  6
Continuous
100
AcDbCircle
 10
-329.309024
 20
-193.387637
 30
0.0
 40
2.0
100
AcDbArc
 50
180.0
 51
270.0
  0
LINE
  5
B0
100
AcDbEntity
  8
0
370
    -3
  6
Continuous
100
AcDbLine
 10
-309.19261
 20
-202.819498
 30
0.0
 11
-310.883084
 21
-199.194267
 31
0.0
  0
ARC
  5
B1
100
AcDbEntity
  8
0
370
    -3
  6
Continuous
100
AcDbCircle
 10
-307.561256
 20
-202.058786
 30
0.0
 40
1.8
100
AcDbArc
 50
205.0
 51
295.0
  0
LINE
  5
B2
100
AcDbEntity
  8
0
370
    -3
  6
CENTER
100
AcDbLine
 10
-302.620371
 20
-198.457339
 30
0.0
 11
-299.75045
 21
-204.611904
 31
0.0
  0
ARC
  5
B3
100
AcDbEntity
  8
0
370
    -3
  6
Continuous
100
AcDbCircle
 10
-237.798929
 20
-190.671335
 30
0.0
 40
10.8
100
AcDbArc
 50
272.437505
 51
342.341575
  0
ARC
  5
B4
100
AcDbEntity
  8
0
370
    -3
  6
Continuous
100
AcDbCircle
 10
-304.067454
 20
-195.354061
 30
0.0
 40
9.0
100
AcDbArc
 50
278.398469
 51
311.601548
  0
POINT
  5
B5
100
AcDbEntity
  8
0
370
    -3
  6
Continuous
100
AcDbPoint
 10
-301.362697
 20
-201.15443
 30
0.0
  0
LINE
  5
B6
100
AcDbEntity
  8
0
370
    -3
  6
Continuous
100
AcDbLine
 10
-298.19062
 20
-199.675266
 30
0.0
 11
-297.776866
 21
-200.562564
 31
0.0
  0
LINE
  5
B7
100
AcDbEntity
  8
0
370
    -3
  6
Continuous
100
AcDbLine
 10
-304.534774
 20
-202.633594
 30
0.0
 11
-304.12102
 21
-203.520892
 31
0.0
  0
ARC
  5
B8
100
AcDbEntity
  8
0
370
    -3
  6
Continuous
100
AcDbCircle
 10
-298.955065
 20
-201.111968
 30
0.0
 40
1.299999
100
AcDbArc
 50
311.601548
 51
25.000018
  0
ARC
  5
B9
100
AcDbEntity
  8
0
370
    -3
  6
Continuous
100
AcDbCircle
 10
-302.942821
 20
-202.971489
 30
0.0
 40
1.299999
100
AcDbArc
 50
204.999999
 51
278.398469
  0
ARC
  5
BA
100
AcDbEntity
  8
0
370
    -3
  6
Continuous
100
AcDbCircle
 10
-285.396012
 20
-198.781555
 30
0.0
 40
2.8
100
AcDbArc
 50
205.0
 51
267.843273
  0
LINE
  5
BB
100
AcDbEntity
  8
0
370
    -3
  6
Continuous
100
AcDbLine
 10
-288.608704
 20
-198.517279
 30
0.0
 11
-287.933674
 21
-199.964887
 31
0.0
  0
ARC
  5
BC
100
AcDbEntity
  8
0
370
    -3
  6
Continuous
100
AcDbCircle
 10
-291.327627
 20
-199.785134
 30
0.0
 40
3.0
100
AcDbArc
 50
25.0
 51
115.0
  0
ARC
  5
BD
100
AcDbEntity
  8
0
370
    -3
  6
Continuous
100
AcDbCircle
 10
-262.891422
 20
398.794836
 30
0.0
 40
600.8
100
AcDbArc
 50
266.682408
 51
272.437505
  0
LINE
  5
BE
100
AcDbEntity
  8
0
370
    -3
  6
Continuous
100
AcDbLine
 10
-302.719739
 20
-195.387637
 30
0.0
 11
-310.883084
 21
-199.194267
 31
0.0
  0
POINT
  5
BF
100
AcDbEntity
  8
0
370
    -3
  6
CENTER
100
AcDbPoint
 10
-331.309024
 20
-191.608137
 30
0.0
  0
LINE
  5
C0
100
AcDbEntity
  8
0
370
    -3
  6
CENTER
100
AcDbLine
 10
-333.787647
 20
-178.387637
 30
0.0
 11
-293.481161
 21
-178.387637
 31
0.0
  0
LINE
  5
C1
100
AcDbEntity
  8
0
370
    -3
  6
Continuous
100
AcDbLine
 10
-331.309024
 20
-178.387637
 30
0.0
 11
-331.309024
 21
-193.387637
 31
0.0
  0
LINE
  5
C2
100
AcDbEntity
  8
0
370
    -3
  6
Continuous
100
AcDbLine
 10
-329.309024
 20
-161.387637
 30
0.0
 11
-302.309024
 21
-161.387637
 31
0.0
  0
ARC
  5
C3
100
AcDbEntity
  8
0
370
    -3
  6
Continuous
100
AcDbCircle
 10
-329.309024
 20
-163.387637
 30
0.0
 40
2.0
100
AcDbArc
 50
90.0
 51
180.0
  0
LINE
  5
C4
100
AcDbEntity
  8
0
370
    -3
  6
Continuous
100
AcDbLine
 10
-331.309024
 20
-178.387637
 30
0.0
 11
-331.309024
 21
-163.387637
 31
0.0
  0
LINE
  5
C5
100
AcDbEntity
  8
0
370
    -3
  6
Continuous
100
AcDbLine
 10
-304.309024
 20
-178.387637
 30
0.0
 11
-304.309024
 21
-195.387637
 31
0.0
  0
LINE
  5
C6
100
AcDbEntity
  8
0
370
    -3
  6
Continuous
100
AcDbLine
 10
-304.309024
 20
-178.387637
 30
0.0
 11
-304.309024
 21
-161.387637
 31
0.0
  0
LINE
  5
C7
100
AcDbEntity
  8
0
370
    -3
  6
Continuous
100
AcDbLine
 10
-275.826179
 20
-145.387637
 30
0.0
 11
-284.483677
 21
-145.387637
 31
0.0
  0
LINE
  5
C8
100
AcDbEntity
  8
0
370
    -3
  6
Continuous
100
AcDbLine
 10
-257.309024
 20
-151.387637
 30
0.0
 11
-226.309024
 21
-151.387637
 31
0.0
  0
LINE
  5
C9
100
AcDbEntity
  8
0
370
    -3
  6
Continuous
100
AcDbLine
 10
-257.309024
 20
-151.387637
 30
0.0
 11
-288.309024
 21
-151.387637
 31
0.0
  0
LINE
  5
CA
100
AcDbEntity
  8
0
370
    -3
  6
Continuous
100
AcDbLine
 10
-288.309024
 20
-151.387637
 30
0.0
 11
-226.309024
 21
-151.387637
 31
0.0
  0
ARC
  5
CB
100
AcDbEntity
  8
0
370
    -3
  6
Continuous
100
AcDbCircle
 10
-286.573935
 20
-153.087637
 30
0.0
 40
0.3
100
AcDbArc
 50
270.0
 51
346.657636
  0
ARC
  5
CC
100
AcDbEntity
  8
0
370
    -3
  6
Continuous
100
AcDbCircle
 10
-228.044113
 20
-153.087637
 30
0.0
 40
0.3
100
AcDbArc
 50
193.342364
 51
270.0
  0
ARC
  5
CD
100
AcDbEntity
  8
0
370
    -3
  6
Continuous
100
AcDbCircle
 10
-295.509024
 20
-160.187637
 30
0.0
 40
6.8
100
AcDbArc
 50
90.0
 51
180.0
  0
ARC
  5
CE
100
AcDbEntity
  8
0
370
    -3
  6
Continuous
100
AcDbCircle
 10
-225.87087
 20
-157.187637
 30
0.0
 40
3.8
100
AcDbArc
 50
25.0
 51
90.0
  0
LINE
  5
CF
100
AcDbEntity
  8
0
370
    -3
  6
Continuous
100
AcDbLine
 10
-212.5802
 20
-157.768392
 30
0.0
 11
-214.270673
 21
-154.143161
 31
0.0
  0
ARC
  5
D0
100
AcDbEntity
  8
0
370
    -3
  6
Continuous
100
AcDbCircle
 10
-214.211554
 20
-158.529105
 30
0.0
 40
1.8
100
AcDbArc
 50
295.0
 51
25.0
  0
LINE
  5
D1
100
AcDbEntity
  8
0
370
    -3
  6
CENTER
100
AcDbLine
 10
-220.146362
 20
-159.999078
 30
0.0
 11
-217.276442
 21
-166.153642
 31
0.0
  0
POINT
  5
D2
100
AcDbEntity
  8
0
370
    -3
  6
Continuous
100
AcDbPoint
 10
-218.912399
 20
-162.707225
 30
0.0
  0
LINE
  5
D3
100
AcDbEntity
  8
0
370
    -3
  6
Continuous
100
AcDbLine
 10
-215.716611
 20
-161.217004
 30
0.0
 11
-215.302857
 21
-162.104303
 31
0.0
  0
LINE
  5
D4
100
AcDbEntity
  8
0
370
    -3
  6
CENTER
100
AcDbLine
 10
-220.146362
 20
-159.999078
 30
0.0
 11
-217.276442
 21
-166.153642
 31
0.0
  0
ARC
  5
D5
100
AcDbEntity
  8
0
370
    -3
  6
Continuous
100
AcDbCircle
 10
-216.481056
 20
-162.653706
 30
0.0
 40
1.299999
100
AcDbArc
 50
311.601548
 51
25.000018
  0
ARC
  5
D6
100
AcDbEntity
  8
0
370
    -3
  6
Continuous
100
AcDbCircle
 10
-221.593445
 20
-156.895799
 30
0.0
 40
9.0
100
AcDbArc
 50
278.398469
 51
311.601548
  0
LINE
  5
D7
100
AcDbEntity
  8
0
370
    -3
  6
Continuous
100
AcDbLine
 10
-222.060766
 20
-164.175332
 30
0.0
 11
-221.647012
 21
-165.06263
 31
0.0
  0
ARC
  5
D8
100
AcDbEntity
  8
0
370
    -3
  6
Continuous
100
AcDbCircle
 10
-220.468812
 20
-164.513227
 30
0.0
 40
1.299999
100
AcDbArc
 50
204.999999
 51
278.398469
  0
LINE
  5
D9
100
AcDbEntity
  8
0
370
    -3
  6
Continuous
100
AcDbLine
 10
-226.309024
 20
-151.387637
 30
0.0
 11
-226.309024
 21
-152.387637
 31
0.0
  0
LINE
  5
DA
100
AcDbEntity
  8
0
370
    -3
  6
Continuous
100
AcDbLine
 10
-288.309024
 20
-151.387637
 30
0.0
 11
-288.309024
 21
-152.387637
 31
0.0
  0
LINE
  5
DB
100
AcDbEntity
  8
0
370
    -3
  6
Continuous
100
AcDbLine
 10
-288.309024
 20
-152.387637
 30
0.0
 11
-226.309024
 21
-152.387637
 31
0.0
  0
LINE
  5
DC
100
AcDbEntity
  8
0
370
    -3
  6
CENTER
100
AcDbLine
 10
-333.787647
 20
-178.387637
 30
0.0
 11
-293.481161
 21
-178.387637
 31
0.0
  0
LINE
  5
DD
100
AcDbEntity
  8
0
370
    -3
  6
Continuous
100
AcDbLine
 10
-213.450842
 20
-160.160459
 30
0.0
 11
-306.800544
 21
-203.69014
 31
0.0
  0
ARC
  5
DE
100
AcDbEntity
  8
0
370
    -3
  6
Continuous
100
AcDbCircle
 10
-226.388048
 20
-169.503311
 30
0.0
 40
3.0
100
AcDbArc
 50
115.0
 51
205.0
  0
LINE
  5
DF
100
AcDbEntity
  8
0
370
    -3
  6
Continuous
100
AcDbLine
 10
-224.371545
 20
-180.926321
 30
0.0
 11
-229.106972
 21
-170.771166
 31
0.0
  0
ARC
  5
E0
100
AcDbEntity
  8
0
370
    -3
  6
Continuous
100
AcDbCircle
 10
-226.909207
 20
-182.109652
 30
0.0
 40
2.8
100
AcDbArc
 50
344.545811
 51
25.0
  0
ARC
  5
E1
100
AcDbEntity
  8
0
370
    -3
  6
Continuous
100
AcDbCircle
 10
-514.134664
 20
-102.70224
 30
0.0
 40
300.8
100
AcDbArc
 50
342.341575
 51
347.89975
  0
ARC
  5
E2
100
AcDbEntity
  8
0
370
    -3
  6
Continuous
100
AcDbCircle
 10
-239.994107
 20
-157.187637
 30
0.0
 40
3.8
100
AcDbArc
 50
25.0
 51
90.0
  0
LINE
  5
E3
100
AcDbEntity
  8
0
370
    -3
  6
Continuous
100
AcDbLine
 10
-233.121875
 20
-162.93362
 30
0.0
 11
-236.550138
 21
-155.581688
 31
0.0
  0
LINE
  5
E4
100
AcDbEntity
  8
0
370
    -3
  6
Continuous
100
AcDbLine
 10
-214.270673
 20
-154.143161
 30
0.0
 11
-302.719739
 21
-195.387637
 31
0.0
  0
LINE
  5
E5
100
AcDbEntity
  8
0
370
    -3
  6
Continuous
100
AcDbLine
 10
-302.309024
 20
-195.196118
 30
0.0
 11
-302.309024
 21
-160.187637
 31
0.0
  0
LINE
  5
E6
100
AcDbEntity
  8
0
370
    -3
  6
Continuous
100
AcDbLine
 10
-221.521136
 20
-157.524107
 30
0.0
 11
-222.4269
 21
-155.581688
 31
0.0
  0
ARC
  5
E7
100
AcDbEntity
  8
0
370
    -3
  6
Continuous
100
AcDbCircle
 10
-229.309024
 20
-153.387637
 30
0.0
 40
1.0
100
AcDbArc
 50
13.342364
 51
90.0
  0
LINE
  5
E8
100
AcDbEntity
  8
0
370
    -3
  6
Continuous
100
AcDbLine
 10
-295.509024
 20
-153.387637
 30
0.0
 11
-225.87087
 21
-153.387637
 31
0.0
  0
ARC
  5
E9
100
AcDbEntity
  8
0
370
    -3
  6
Continuous
100
AcDbCircle
 10
-285.309024
 20
-153.387637
 30
0.0
 40
1.0
100
AcDbArc
 50
90.0
 51
166.657636
  0
LINE
  5
EA
100
AcDbEntity
  8
0
370
    -3
  6
Continuous
100
AcDbLine
 10
-290.63333
 20
-189.751652
 30
0.0
 11
-290.63333
 21
-156.387637
 31
0.0
  0
ARC
  5
EB
100
AcDbEntity
  8
0
370
    -3
  6
Continuous
100
AcDbCircle
 10
-287.63333
 20
-156.387637
 30
0.0
 40
3.0
100
AcDbArc
 50
90.0
 51
180.0
  0
POINT
  5
EC
100
AcDbEntity
  8
0
370
    -3
  6
CENTER
100
AcDbPoint
 10
-331.309024
 20
-165.167137
 30
0.0
  0
ARC
  5
ED
100
AcDbEntity
  8
0
370
    -3
  6
Continuous
100
AcDbCircle
 10
-284.789994
 20
-145.887637
 30
0.0
 40
0.5
100
AcDbArc
 50
90.0
 51
180.0
  0
LINE
  5
EE
100
AcDbEntity
  8
0
370
    -3
  6
Continuous
100
AcDbLine
 10
-238.791868
 20
-145.387637
 30
0.0
 11
-229.828053
 21
-145.387637
 31
0.0
  0
ARC
  5
EF
100
AcDbEntity
  8
0
370
    -3
  6
Continuous
100
AcDbCircle
 10
-229.828053
 20
-145.887637
 30
0.0
 40
0.5
100
AcDbArc
 50
0.0
 51
90.0
  0
LINE
  5
F0
100
AcDbEntity
  8
0
370
    -3
  6
Continuous
100
AcDbLine
 10
-229.328053
 20
-145.887637
 30
0.0
 11
-229.328053
 21
-146.887637
 31
0.0
  0
ARC
  5
F1
100
AcDbEntity
  8
0
370
    -3
  6
Continuous
100
AcDbCircle
 10
-228.828053
 20
-146.887637
 30
0.0
 40
0.5
100
AcDbArc
 50
180.0
 51
270.0
  0
ARC
  5
F2
100
AcDbEntity
  8
0
370
    -3
  6
Continuous
100
AcDbCircle
 10
-238.828053
 20
-145.887637
 30
0.0
 40
0.5
100
AcDbArc
 50
90.0
 51
180.0
  0
LINE
  5
F3
100
AcDbEntity
  8
0
370
    -3
  6
Continuous
100
AcDbLine
 10
-239.328053
 20
-145.887637
 30
0.0
 11
-239.328053
 21
-146.887637
 31
0.0
  0
ARC
  5
F4
100
AcDbEntity
  8
0
370
    -3
  6
Continuous
100
AcDbCircle
 10
-239.828053
 20
-146.887637
 30
0.0
 40
0.5
100
AcDbArc
 50
270.0
 51
0.0
  0
ARC
  5
F5
100
AcDbEntity
  8
0
370
    -3
  6
Continuous
100
AcDbCircle
 10
-275.789994
 20
-145.887637
 30
0.0
 40
0.5
100
AcDbArc
 50
0.0
 51
90.0
  0
LINE
  5
F6
100
AcDbEntity
  8
0
370
    -3
  6
Continuous
100
AcDbLine
 10
-275.789994
 20
-145.387637
 30
0.0
 11
-284.483677
 21
-145.387637
 31
0.0
  0
LINE
  5
F7
100
AcDbEntity
  8
0
370
    -3
  6
Continuous
100
AcDbLine
 10
-275.289994
 20
-145.887637
 30
0.0
 11
-275.289994
 21
-146.887637
 31
0.0
  0
ARC
  5
F8
100
AcDbEntity
  8
0
370
    -3
  6
Continuous
100
AcDbCircle
 10
-274.789994
 20
-146.887637
 30
0.0
 40
0.5
100
AcDbArc
 50
180.0
 51
270.0
  0
ARC
  5
F9
100
AcDbEntity
  8
0
370
    -3
  6
Continuous
100
AcDbCircle
 10
-285.789994
 20
-146.887637
 30
0.0
 40
0.5
100
AcDbArc
 50
270.0
 51
0.0
  0
LINE
  5
FA
100
AcDbEntity
  8
0
370
    -3
  6
Continuous
100
AcDbLine
 10
-285.289994
 20
-145.887637
 30
0.0
 11
-285.289994
 21
-146.887637
 31
0.0
  0
LINE
  5
FB
100
AcDbEntity
  8
0
370
    -3
  6
Continuous
100
AcDbLine
 10
-283.844742
 20
-141.82562
 30
0.0
 11
-284.235246
 21
-144.949655
 31
0.0
  0
LINE
  5
FC
100
AcDbEntity
  8
0
370
    -3
  6
Continuous
100
AcDbLine
 10
-276.735246
 20
-141.82562
 30
0.0
 11
-276.344742
 21
-144.949655
 31
0.0
  0
ARC
  5
FD
100
AcDbEntity
  8
0
370
    -3
  6
Continuous
100
AcDbCircle
 10
-275.848603
 20
-144.887637
 30
0.0
 40
0.5
100
AcDbArc
 50
187.125016
 51
270.0
  0
ARC
  5
FE
100
AcDbEntity
  8
0
370
    -3
  6
Continuous
100
AcDbCircle
 10
-284.731385
 20
-144.887637
 30
0.0
 40
0.5
100
AcDbArc
 50
270.0
 51
352.874984
  0
LINE
  5
FF
100
AcDbEntity
  8
0
370
    -3
  6
Continuous
100
AcDbLine
 10
-230.773305
 20
-141.82562
 30
0.0
 11
-230.382801
 21
-144.949655
 31
0.0
  0
ARC
  5
100
100
AcDbEntity
  8
0
370
    -3
  6
Continuous
100
AcDbCircle
 10
-229.886662
 20
-144.887637
 30
0.0
 40
0.5
100
AcDbArc
 50
187.125016
 51
270.0
  0
LINE
  5
101
100
AcDbEntity
  8
0
370
    -3
  6
Continuous
100
AcDbLine
 10
-237.882801
 20
-141.82562
 30
0.0
 11
-238.273305
 21
-144.949655
 31
0.0
  0
ARC
  5
102
100
AcDbEntity
  8
0
370
    -3
  6
Continuous
100
AcDbCircle
 10
-238.769444
 20
-144.887637
 30
0.0
 40
0.5
100
AcDbArc
 50
270.0
 51
352.874984
  0
LINE
  5
103
100
AcDbEntity
  8
0
370
    -3
  6
Continuous
100
AcDbLine
 10
-220.559024
 20
-143.882225
 30
0.0
 11
-220.559024
 21
-145.387637
 31
0.0
  0
LINE
  5
104
100
AcDbEntity
  8
0
370
    -3
  6
Continuous
100
AcDbLine
 10
-284.990758
 20
-145.387637
 30
0.0
 11
-220.559024
 21
-145.387637
 31
0.0
  0
LINE
  5
105
100
AcDbEntity
  8
0
370
    -3
  6
CENTER
100
AcDbLine
 10
-234.328053
 20
-138.077751
 30
0.0
 11
-234.328053
 21
-153.412277
 31
0.0
  0
LINE
  5
106
100
AcDbEntity
  8
0
370
    -3
  6
Continuous
100
AcDbLine
 10
-276.86171
 20
-147.387637
 30
0.0
 11
-289.913767
 21
-147.387637
 31
0.0
  0
LINE
  5
107
100
AcDbEntity
  8
0
370
    -3
  6
Continuous
100
AcDbLine
 10
-237.756338
 20
-147.387637
 30
0.0
 11
-224.70428
 21
-147.387637
 31
0.0
  0
LINE
  5
108
100
AcDbEntity
  8
0
370
    -3
  6
Continuous
100
AcDbLine
 10
-288.834867
 20
-151.387637
 30
0.0
 11
-225.783181
 21
-151.387637
 31
0.0
  0
LINE
  5
109
100
AcDbEntity
  8
0
370
    -3
  6
CENTER
100
AcDbLine
 10
-280.289994
 20
-138.498779
 30
0.0
 11
-280.289994
 21
-153.412277
 31
0.0
  0
ARC
  5
10A
100
AcDbEntity
  8
0
370
    -3
  6
Continuous
100
AcDbCircle
 10
-225.783181
 20
-150.387637
 30
0.0
 40
1.0
100
AcDbArc
 50
270.0
 51
358.5
  0
ARC
  5
10B
100
AcDbEntity
  8
0
370
    -3
  6
Continuous
100
AcDbCircle
 10
-288.834867
 20
-150.387637
 30
0.0
 40
1.0
100
AcDbArc
 50
181.5
 51
270.0
  0
LINE
  5
10C
100
AcDbEntity
  8
0
370
    -3
  6
Continuous
100
AcDbLine
 10
-289.913767
 20
-147.387637
 30
0.0
 11
-289.834524
 21
-150.413814
 31
0.0
  0
LINE
  5
10D
100
AcDbEntity
  8
0
370
    -3
  6
Continuous
100
AcDbLine
 10
-224.70428
 20
-147.387637
 30
0.0
 11
-224.783523
 21
-150.413814
 31
0.0
  0
LINE
  5
10E
100
AcDbEntity
  8
0
370
    -3
  6
Continuous
100
AcDbLine
 10
-237.756338
 20
-147.387637
 30
0.0
 11
-276.86171
 21
-147.387637
 31
0.0
  0
ARC
  5
10F
100
AcDbEntity
  8
0
370
    -3
  6
Continuous
100
AcDbCircle
 10
-231.269444
 20
-141.887637
 30
0.0
 40
0.5
100
AcDbArc
 50
7.125016
 51
90.0
  0
ARC
  5
110
100
AcDbEntity
  8
0
370
    -3
  6
Continuous
100
AcDbCircle
 10
-237.386662
 20
-141.887637
 30
0.0
 40
0.5
100
AcDbArc
 50
90.0
 51
172.874984
  0
LINE
  5
111
100
AcDbEntity
  8
0
370
    -3
  6
Continuous
100
AcDbLine
 10
-231.269444
 20
-141.387637
 30
0.0
 11
-237.380532
 21
-141.387637
 31
0.0
  0
ARC
  5
112
100
AcDbEntity
  8
0
370
    -3
  6
Continuous
100
AcDbCircle
 10
-277.231385
 20
-141.887637
 30
0.0
 40
0.5
100
AcDbArc
 50
7.125016
 51
90.0
  0
LINE
  5
113
100
AcDbEntity
  8
0
370
    -3
  6
Continuous
100
AcDbLine
 10
-283.348603
 20
-141.387637
 30
0.0
 11
-277.237515
 21
-141.387637
 31
0.0
  0
ARC
  5
114
100
AcDbEntity
  8
0
370
    -3
  6
Continuous
100
AcDbCircle
 10
-283.348603
 20
-141.887637
 30
0.0
 40
0.5
100
AcDbArc
 50
90.0
 51
172.874984
  0
LINE
  5
115
100
AcDbEntity
  8
0
370
    -3
  6
Continuous
100
AcDbLine
 10
-298.809024
 20
-42.943463
 30
0.0
 11
-298.809024
 21
-33.756229
 31
0.0
  0
LINE
  5
116
100
AcDbEntity
  8
0
370
    -3
  6
Continuous
100
AcDbLine
 10
-298.809024
 20
-42.943463
 30
0.0
 11
-298.309024
 21
-42.943463
 31
0.0
  0
LINE
  5
117
100
AcDbEntity
  8
0
370
    -3
  6
Continuous
100
AcDbLine
 10
-298.809024
 20
-125.831811
 30
0.0
 11
-298.809024
 21
-135.019046
 31
0.0
  0
LINE
  5
118
100
AcDbEntity
  8
0
370
    -3
  6
Continuous
100
AcDbLine
 10
-298.809024
 20
-125.831811
 30
0.0
 11
-298.309024
 21
-125.831811
 31
0.0
  0
LINE
  5
119
100
AcDbEntity
  8
0
370
    -3
  6
Continuous
100
AcDbLine
 10
-298.309024
 20
-143.882225
 30
0.0
 11
-298.309024
 21
-84.387637
 31
0.0
  0
LINE
  5
11A
100
AcDbEntity
  8
0
370
    -3
  6
Continuous
100
AcDbLine
 10
-298.309024
 20
-24.882225
 30
0.0
 11
-298.309024
 21
-84.387637
 31
0.0
  0
LINE
  5
11B
100
AcDbEntity
  8
0
370
    -3
  6
Continuous
100
AcDbLine
 10
-298.309024
 20
-46.686405
 30
0.0
 11
-159.309024
 21
-46.686405
 31
0.0
  0
LINE
  5
11C
100
AcDbEntity
  8
0
370
    -3
  6
Continuous
100
AcDbLine
 10
-298.309024
 20
-49.023104
 30
0.0
 11
-159.309024
 21
-49.023104
 31
0.0
  0
LINE
  5
11D
100
AcDbEntity
  8
0
370
    -3
  6
Continuous
100
AcDbLine
 10
-298.309024
 20
-52.231703
 30
0.0
 11
-159.309024
 21
-52.231703
 31
0.0
  0
LINE
  5
11E
100
AcDbEntity
  8
0
370
    -3
  6
Continuous
100
AcDbLine
 10
-298.309024
 20
-54.461107
 30
0.0
 11
-159.309024
 21
-54.461107
 31
0.0
  0
LINE
  5
11F
100
AcDbEntity
  8
0
370
    -3
  6
Continuous
100
AcDbLine
 10
-298.309024
 20
-57.793617
 30
0.0
 11
-159.309024
 21
-57.793617
 31
0.0
  0
LINE
  5
120
100
AcDbEntity
  8
0
370
    -3
  6
Continuous
100
AcDbLine
 10
-298.309024
 20
-59.917841
 30
0.0
 11
-159.309024
 21
-59.917841
 31
0.0
  0
LINE
  5
121
100
AcDbEntity
  8
0
370
    -3
  6
Continuous
100
AcDbLine
 10
-298.309024
 20
-63.348262
 30
0.0
 11
-159.309024
 21
-63.348262
 31
0.0
  0
LINE
  5
122
100
AcDbEntity
  8
0
370
    -3
  6
Continuous
100
AcDbLine
 10
-298.309024
 20
-65.376774
 30
0.0
 11
-159.309024
 21
-65.376774
 31
0.0
  0
LINE
  5
123
100
AcDbEntity
  8
0
370
    -3
  6
Continuous
100
AcDbLine
 10
-298.309024
 20
-122.078045
 30
0.0
 11
-159.309024
 21
-122.078045
 31
0.0
  0
LINE
  5
124
100
AcDbEntity
  8
0
370
    -3
  6
Continuous
100
AcDbLine
 10
-298.309024
 20
-119.741346
 30
0.0
 11
-159.309024
 21
-119.741346
 31
0.0
  0
LINE
  5
125
100
AcDbEntity
  8
0
370
    -3
  6
Continuous
100
AcDbLine
 10
-298.309024
 20
-116.532747
 30
0.0
 11
-159.309024
 21
-116.532747
 31
0.0
  0
LINE
  5
126
100
AcDbEntity
  8
0
370
    -3
  6
Continuous
100
AcDbLine
 10
-298.309024
 20
-114.303343
 30
0.0
 11
-159.309024
 21
-114.303343
 31
0.0
  0
LINE
  5
127
100
AcDbEntity
  8
0
370
    -3
  6
Continuous
100
AcDbLine
 10
-298.309024
 20
-110.970833
 30
0.0
 11
-159.309024
 21
-110.970833
 31
0.0
  0
LINE
  5
128
100
AcDbEntity
  8
0
370
    -3
  6
Continuous
100
AcDbLine
 10
-298.309024
 20
-108.846609
 30
0.0
 11
-159.309024
 21
-108.846609
 31
0.0
  0
LINE
  5
129
100
AcDbEntity
  8
0
370
    -3
  6
Continuous
100
AcDbLine
 10
-298.309024
 20
-105.416188
 30
0.0
 11
-159.309024
 21
-105.416188
 31
0.0
  0
LINE
  5
12A
100
AcDbEntity
  8
0
370
    -3
  6
Continuous
100
AcDbLine
 10
-298.309024
 20
-103.387675
 30
0.0
 11
-159.309024
 21
-103.387675
 31
0.0
  0
LINE
  5
12B
100
AcDbEntity
  8
0
370
    -3
  6
Continuous
100
AcDbLine
 10
-298.309024
 20
-134.708584
 30
0.0
 11
-159.309024
 21
-134.708584
 31
0.0
  0
LINE
  5
12C
100
AcDbEntity
  8
0
370
    -3
  6
Continuous
100
AcDbLine
 10
-298.309024
 20
-129.758836
 30
0.0
 11
-159.309024
 21
-129.758836
 31
0.0
  0
LINE
  5
12D
100
AcDbEntity
  8
0
370
    -3
  6
Continuous
100
AcDbLine
 10
-298.309024
 20
-24.882225
 30
0.0
 11
-159.309024
 21
-24.882225
 31
0.0
  0
LINE
  5
12E
100
AcDbEntity
  8
0
370
    -3
  6
Continuous
100
AcDbLine
 10
-298.309024
 20
-69.382225
 30
0.0
 11
-159.309024
 21
-69.382225
 31
0.0
  0
LINE
  5
12F
100
AcDbEntity
  8
0
370
    -3
  6
Continuous
100
AcDbLine
 10
-298.309024
 20
-39.016438
 30
0.0
 11
-159.309024
 21
-39.016438
 31
0.0
  0
LINE
  5
130
100
AcDbEntity
  8
0
370
    -3
  6
Continuous
100
AcDbLine
 10
-298.309024
 20
-34.066691
 30
0.0
 11
-159.309024
 21
-34.066691
 31
0.0
  0
LINE
  5
131
100
AcDbEntity
  8
0
370
    -3
  6
Continuous
100
AcDbLine
 10
-298.309024
 20
-29.382225
 30
0.0
 11
-159.309024
 21
-29.382225
 31
0.0
  0
LINE
  5
132
100
AcDbEntity
  8
0
370
    -3
  6
Continuous
100
AcDbLine
 10
-298.309024
 20
-28.382225
 30
0.0
 11
-159.309024
 21
-28.382225
 31
0.0
  0
LINE
  5
133
100
AcDbEntity
  8
0
370
    -3
  6
Continuous
100
AcDbLine
 10
-298.309024
 20
-27.382225
 30
0.0
 11
-159.309024
 21
-27.382225
 31
0.0
  0
LINE
  5
134
100
AcDbEntity
  8
0
370
    -3
  6
Continuous
100
AcDbLine
 10
-298.309024
 20
-99.382225
 30
0.0
 11
-159.309024
 21
-99.382225
 31
0.0
  0
LINE
  5
135
100
AcDbEntity
  8
0
370
    -3
  6
Continuous
100
AcDbLine
 10
-298.309024
 20
-139.382225
 30
0.0
 11
-159.309024
 21
-139.382225
 31
0.0
  0
LINE
  5
136
100
AcDbEntity
  8
0
370
    -3
  6
Continuous
100
AcDbLine
 10
-298.309024
 20
-140.382225
 30
0.0
 11
-159.309024
 21
-140.382225
 31
0.0
  0
LINE
  5
137
100
AcDbEntity
  8
0
370
    -3
  6
Continuous
100
AcDbLine
 10
-298.309024
 20
-141.382225
 30
0.0
 11
-159.309024
 21
-141.382225
 31
0.0
  0
LINE
  5
138
100
AcDbEntity
  8
0
370
    -3
  6
Continuous
100
AcDbLine
 10
-298.309024
 20
-143.882225
 30
0.0
 11
-284.101818
 21
-143.882225
 31
0.0
  0
LINE
  5
139
100
AcDbEntity
  8
0
370
    -3
  6
CENTER
100
AcDbLine
 10
-115.403367
 20
-84.387637
 30
0.0
 11
-322.457621
 21
-84.387637
 31
0.0
  0
ARC
  5
13A
100
AcDbEntity
  8
0
370
    -3
  6
Continuous
100
AcDbCircle
 10
-301.860024
 20
-47.887637
 30
0.0
 40
1.0
100
AcDbArc
 50
90.0
 51
270.0
  0
ARC
  5
13B
100
AcDbEntity
  8
0
370
    -3
  6
Continuous
100
AcDbCircle
 10
-306.01755
 20
-64.181953
 30
0.0
 40
0.5
100
AcDbArc
 50
315.115138
 51
358.347093
  0
ARC
  5
13C
100
AcDbEntity
  8
0
370
    -3
  6
Continuous
100
AcDbCircle
 10
-305.309024
 20
-64.887637
 30
0.0
 40
0.5
100
AcDbArc
 50
135.115138
 51
180.0
  0
LINE
  5
13D
100
AcDbEntity
  8
0
370
    -3
  6
Continuous
100
AcDbLine
 10
-305.809024
 20
-64.887637
 30
0.0
 11
-305.809024
 21
-84.387637
 31
0.0
  0
ARC
  5
13E
100
AcDbEntity
  8
0
370
    -3
  6
Continuous
100
AcDbCircle
 10
394.190976
 20
-84.387637
 30
0.0
 40
700.0
100
AcDbArc
 50
176.757441
 51
178.347093
  0
LINE
  5
13F
100
AcDbEntity
  8
0
370
    -3
  6
Continuous
100
AcDbLine
 10
-303.809024
 20
-55.441786
 30
0.0
 11
-303.809024
 21
-34.256229
 31
0.0
  0
ARC
  5
140
100
AcDbEntity
  8
0
370
    -3
  6
Continuous
100
AcDbCircle
 10
-304.809024
 20
-55.368941
 30
0.0
 40
1.0
100
AcDbArc
 50
285.221258
 51
0.0
  0
ARC
  5
141
100
AcDbEntity
  8
0
370
    -3
  6
Continuous
100
AcDbCircle
 10
-304.283929
 20
-57.298779
 30
0.0
 40
1.0
100
AcDbArc
 50
105.221258
 51
177.779019
  0
ARC
  5
142
100
AcDbEntity
  8
0
370
    -3
  6
Continuous
100
AcDbCircle
 10
-302.440024
 20
-25.887637
 30
0.0
 40
1.0
100
AcDbArc
 50
90.0
 51
175.281496
  0
LINE
  5
143
100
AcDbEntity
  8
0
370
    -3
  6
Continuous
100
AcDbLine
 10
-301.860024
 20
-46.887637
 30
0.0
 11
-298.309024
 21
-46.701537
 31
0.0
  0
LINE
  5
144
100
AcDbEntity
  8
0
370
    -3
  6
Continuous
100
AcDbLine
 10
-301.860024
 20
-48.887637
 30
0.0
 11
-298.309024
 21
-49.073737
 31
0.0
  0
ARC
  5
145
100
AcDbEntity
  8
0
370
    -3
  6
Continuous
100
AcDbCircle
 10
-303.309024
 20
-34.256229
 30
0.0
 40
0.5
100
AcDbArc
 50
90.0
 51
180.0
  0
ARC
  5
146
100
AcDbEntity
  8
0
370
    -3
  6
Continuous
100
AcDbCircle
 10
-301.943024
 20
-53.387637
 30
0.0
 40
1.0
100
AcDbArc
 50
90.0
 51
270.0
  0
ARC
  5
147
100
AcDbEntity
  8
0
370
    -3
  6
Continuous
100
AcDbCircle
 10
-301.984024
 20
-58.887637
 30
0.0
 40
1.0
100
AcDbArc
 50
90.0
 51
270.0
  0
ARC
  5
148
100
AcDbEntity
  8
0
370
    -3
  6
Continuous
100
AcDbCircle
 10
-302.065024
 20
-64.387637
 30
0.0
 40
1.0
100
AcDbArc
 50
90.0
 51
270.0
  0
LINE
  5
149
100
AcDbEntity
  8
0
370
    -3
  6
Continuous
100
AcDbLine
 10
-301.984024
 20
-57.887637
 30
0.0
 11
-298.309024
 21
-57.695039
 31
0.0
  0
LINE
  5
14A
100
AcDbEntity
  8
0
370
    -3
  6
Continuous
100
AcDbLine
 10
-301.984024
 20
-59.887637
 30
0.0
 11
-298.309024
 21
-60.080236
 31
0.0
  0
LINE
  5
14B
100
AcDbEntity
  8
0
370
    -3
  6
Continuous
100
AcDbLine
 10
-302.065024
 20
-63.387637
 30
0.0
 11
-298.309024
 21
-63.190794
 31
0.0
  0
LINE
  5
14C
100
AcDbEntity
  8
0
370
    -3
  6
Continuous
100
AcDbLine
 10
-302.065024
 20
-65.387637
 30
0.0
 11
-298.309024
 21
-65.584481
 31
0.0
  0
LINE
  5
14D
100
AcDbEntity
  8
0
370
    -3
  6
Continuous
100
AcDbLine
 10
-301.943024
 20
-52.387637
 30
0.0
 11
-298.309024
 21
-52.197187
 31
0.0
  0
LINE
  5
14E
100
AcDbEntity
  8
0
370
    -3
  6
Continuous
100
AcDbLine
 10
-301.943024
 20
-54.387637
 30
0.0
 11
-298.309024
 21
-54.578087
 31
0.0
  0
ARC
  5
14F
100
AcDbEntity
  8
0
370
    -3
  6
Continuous
100
AcDbCircle
 10
-303.109024
 20
-70.087637
 30
0.0
 40
0.7
100
AcDbArc
 50
90.0
 51
180.0
  0
LINE
  5
150
100
AcDbEntity
  8
0
370
    -3
  6
Continuous
100
AcDbLine
 10
-303.809024
 20
-70.087637
 30
0.0
 11
-303.809024
 21
-76.387637
 31
0.0
  0
LINE
  5
151
100
AcDbEntity
  8
0
370
    -3
  6
Continuous
100
AcDbLine
 10
-298.309024
 20
-69.387637
 30
0.0
 11
-303.109024
 21
-69.387637
 31
0.0
  0
LINE
  5
152
100
AcDbEntity
  8
0
370
    -3
  6
Continuous
100
AcDbLine
 10
-302.440024
 20
-24.887637
 30
0.0
 11
-298.309024
 21
-24.887637
 31
0.0
  0
LINE
  5
153
100
AcDbEntity
  8
0
370
    -3
  6
CENTER
100
AcDbLine
 10
-310.245254
 20
-40.193463
 30
0.0
 11
-301.399539
 21
-40.193463
 31
0.0
  0
INSERT
  5
166
100
AcDbEntity
  8
0
100
AcDbBlockReference
  2
ZU_SYM__USERS_HOME_SYMBOL_STD_SYM_B01_-1
 10
-303.809021
 20
-40.193463
 30
0.0
  0
LINE
  5
167
100
AcDbEntity
  8
0
370
    -3
  6
Continuous
100
AcDbLine
 10
-303.809024
 20
-84.387637
 30
0.0
 11
-303.809024
 21
-76.387637
 31
0.0
  0
ARC
  5
168
100
AcDbEntity
  8
0
370
    -3
  6
Continuous
100
AcDbCircle
 10
394.190976
 20
-83.387637
 30
0.0
 40
700.0
100
AcDbArc
 50
175.281496
 51
176.084948
  0
LINE
  5
169
100
AcDbEntity
  8
0
370
    -3
  6
Continuous
100
AcDbLine
 10
-303.809024
 20
-113.333489
 30
0.0
 11
-303.809024
 21
-134.519046
 31
0.0
  0
ARC
  5
16A
100
AcDbEntity
  8
0
370
    -3
  6
Continuous
100
AcDbCircle
 10
-304.809024
 20
-113.406334
 30
0.0
 40
1.0
100
AcDbArc
 50
0.0
 51
74.778742
  0
ARC
  5
16B
100
AcDbEntity
  8
0
370
    -3
  6
Continuous
100
AcDbCircle
 10
-304.283929
 20
-111.476496
 30
0.0
 40
1.0
100
AcDbArc
 50
182.220981
 51
254.778742
  0
ARC
  5
16C
100
AcDbEntity
  8
0
370
    -3
  6
Continuous
100
AcDbCircle
 10
-306.01755
 20
-104.593322
 30
0.0
 40
0.5
100
AcDbArc
 50
1.652907
 51
44.884862
  0
ARC
  5
16D
100
AcDbEntity
  8
0
370
    -3
  6
Continuous
100
AcDbCircle
 10
-305.309024
 20
-103.887637
 30
0.0
 40
0.5
100
AcDbArc
 50
180.0
 51
224.884862
  0
LINE
  5
16E
100
AcDbEntity
  8
0
370
    -3
  6
Continuous
100
AcDbLine
 10
-305.809024
 20
-103.887637
 30
0.0
 11
-305.809024
 21
-84.387637
 31
0.0
  0
LINE
  5
16F
100
AcDbEntity
  8
0
370
    -3
  6
Continuous
100
AcDbLine
 10
-303.809024
 20
-84.387637
 30
0.0
 11
-303.809024
 21
-92.387637
 31
0.0
  0
ARC
  5
170
100
AcDbEntity
  8
0
370
    -3
  6
Continuous
100
AcDbCircle
 10
-303.309024
 20
-134.519046
 30
0.0
 40
0.5
100
AcDbArc
 50
180.0
 51
270.0
  0
ARC
  5
171
100
AcDbEntity
  8
0
370
    -3
  6
Continuous
100
AcDbCircle
 10
-303.109024
 20
-98.687637
 30
0.0
 40
0.7
100
AcDbArc
 50
180.0
 51
270.0
  0
LINE
  5
172
100
AcDbEntity
  8
0
370
    -3
  6
Continuous
100
AcDbLine
 10
-303.809024
 20
-98.687637
 30
0.0
 11
-303.809024
 21
-92.387637
 31
0.0
  0
LINE
  5
173
100
AcDbEntity
  8
0
370
    -3
  6
Continuous
100
AcDbLine
 10
-298.309024
 20
-99.387637
 30
0.0
 11
-303.109024
 21
-99.387637
 31
0.0
  0
ARC
  5
174
100
AcDbEntity
  8
0
370
    -3
  6
Continuous
100
AcDbCircle
 10
-301.943024
 20
-115.387637
 30
0.0
 40
1.0
100
AcDbArc
 50
90.0
 51
270.0
  0
ARC
  5
175
100
AcDbEntity
  8
0
370
    -3
  6
Continuous
100
AcDbCircle
 10
-301.984024
 20
-109.887637
 30
0.0
 40
1.0
100
AcDbArc
 50
90.0
 51
270.0
  0
ARC
  5
176
100
AcDbEntity
  8
0
370
    -3
  6
Continuous
100
AcDbCircle
 10
-301.860024
 20
-120.887637
 30
0.0
 40
1.0
100
AcDbArc
 50
90.0
 51
270.0
  0
ARC
  5
177
100
AcDbEntity
  8
0
370
    -3
  6
Continuous
100
AcDbCircle
 10
-302.065024
 20
-104.387637
 30
0.0
 40
1.0
100
AcDbArc
 50
90.0
 51
270.0
  0
LINE
  5
178
100
AcDbEntity
  8
0
370
    -3
  6
Continuous
100
AcDbLine
 10
-301.860024
 20
-121.887637
 30
0.0
 11
-298.309024
 21
-122.073737
 31
0.0
  0
LINE
  5
179
100
AcDbEntity
  8
0
370
    -3
  6
Continuous
100
AcDbLine
 10
-301.860024
 20
-119.887637
 30
0.0
 11
-298.309024
 21
-119.701537
 31
0.0
  0
LINE
  5
17A
100
AcDbEntity
  8
0
370
    -3
  6
Continuous
100
AcDbLine
 10
-301.943024
 20
-116.387637
 30
0.0
 11
-298.309024
 21
-116.578087
 31
0.0
  0
LINE
  5
17B
100
AcDbEntity
  8
0
370
    -3
  6
Continuous
100
AcDbLine
 10
-301.943024
 20
-114.387637
 30
0.0
 11
-298.309024
 21
-114.197187
 31
0.0
  0
LINE
  5
17C
100
AcDbEntity
  8
0
370
    -3
  6
Continuous
100
AcDbLine
 10
-301.984024
 20
-110.887637
 30
0.0
 11
-298.309024
 21
-111.080236
 31
0.0
  0
LINE
  5
17D
100
AcDbEntity
  8
0
370
    -3
  6
Continuous
100
AcDbLine
 10
-301.984024
 20
-108.887637
 30
0.0
 11
-298.309024
 21
-108.695039
 31
0.0
  0
LINE
  5
17E
100
AcDbEntity
  8
0
370
    -3
  6
Continuous
100
AcDbLine
 10
-302.065024
 20
-105.387637
 30
0.0
 11
-298.309024
 21
-105.584481
 31
0.0
  0
LINE
  5
17F
100
AcDbEntity
  8
0
370
    -3
  6
Continuous
100
AcDbLine
 10
-302.065024
 20
-103.387637
 30
0.0
 11
-298.309024
 21
-103.190794
 31
0.0
  0
ARC
  5
180
100
AcDbEntity
  8
0
370
    -3
  6
Continuous
100
AcDbCircle
 10
394.190976
 20
-84.387637
 30
0.0
 40
700.0
100
AcDbArc
 50
181.652907
 51
183.242558
  0
LINE
  5
181
100
AcDbEntity
  8
0
370
    -3
  6
CENTER
100
AcDbLine
 10
-310.245254
 20
-128.581811
 30
0.0
 11
-301.399539
 21
-128.581811
 31
0.0
  0
INSERT
  5
194
100
AcDbEntity
  8
0
100
AcDbBlockReference
  2
ZU_SYM__USERS_HOME_SYMBOL_STD_SYM_B01_00001-1
 10
-303.809021
 20
-128.581811
 30
0.0
  0
LINE
  5
195
100
AcDbEntity
  8
0
370
    -3
  6
Continuous
100
AcDbLine
 10
-302.440024
 20
-143.887637
 30
0.0
 11
-298.309024
 21
-143.887637
 31
0.0
  0
ARC
  5
196
100
AcDbEntity
  8
0
370
    -3
  6
Continuous
100
AcDbCircle
 10
-302.440024
 20
-142.887637
 30
0.0
 40
1.0
100
AcDbArc
 50
184.718504
 51
270.0
  0
ARC
  5
197
100
AcDbEntity
  8
0
370
    -3
  6
Continuous
100
AcDbCircle
 10
394.190976
 20
-85.387637
 30
0.0
 40
700.0
100
AcDbArc
 50
183.915052
 51
184.718504
  0
LINE
  5
198
100
AcDbEntity
  8
0
370
    -3
  6
Continuous
100
AcDbLine
 10
-303.475523
 20
-135.019046
 30
0.0
 11
-298.809024
 21
-135.019046
 31
0.0
  0
LINE
  5
199
100
AcDbEntity
  8
0
370
    -3
  6
Continuous
100
AcDbLine
 10
-303.475523
 20
-33.756229
 30
0.0
 11
-298.809024
 21
-33.756229
 31
0.0
  0
MTEXT
  5
19B
100
AcDbEntity
  8
0
370
    -3
  6
Continuous
100
AcDbMText
 10
-506.894592
 20
148.199173
 30
0.0
 40
15.0
 41
0.0
 71
     7
 72
     1
  1
\W0.42;GEAR\W0.70; \W0.42;RATIO\W0.70;  \W0.42;1/7.5-1/30
  7
ZU_SHPTB00001
 11
1.0
 21
0.0
 31
0.0
 73
     1
 44
1.0
  0
MTEXT
  5
19C
100
AcDbEntity
  8
0
370
    -3
  6
Continuous
100
AcDbMText
 10
-506.894592
 20
165.149185
 30
0.0
 40
15.0
 41
0.0
 71
     7
 72
     1
  1
\W0.43;400-100r/min\W0.53;　
  7
ZU_SHPTB00001
 11
1.0
 21
0.0
 31
0.0
 73
     1
 44
1.0
  0
MTEXT
  5
19D
100
AcDbEntity
  8
0
370
    -3
  6
Continuous
100
AcDbMText
 10
-506.894592
 20
199.049179
 30
0.0
 40
15.0
 41
0.0
 71
     7
 72
     1
  1
\W0.48;GV-SSYF-RH
  7
ZU_SHPTB00001
 11
1.0
 21
0.0
 31
0.0
 73
     1
 44
1.0
  0
MTEXT
  5
19E
100
AcDbEntity
  8
0
370
    -3
  6
Continuous
100
AcDbMText
 10
-506.894592
 20
131.249161
 30
0.0
 40
15.0
 41
0.0
 71
     7
 72
     1
  1
\W0.43;SCALE\W0.72;  \W0.43;1/1
  7
ZU_SHPTB00001
 11
1.0
 21
0.0
 31
0.0
 73
     1
 44
1.0
  0
MTEXT
  5
19F
100
AcDbEntity
  8
0
370
    -3
  6
Continuous
100
AcDbMText
 10
-506.894592
 20
182.099167
 30
0.0
 40
15.0
 41
0.0
 71
     7
 72
     1
  1
\W0.43;0.75kW
  7
ZU_SHPTB00001
 11
1.0
 21
0.0
 31
0.0
 73
     1
 44
1.0
  0
MTEXT
  5
1A0
100
AcDbEntity
  8
0
370
    -3
  6
Continuous
100
AcDbMText
 10
-506.894592
 20
215.999191
 30
0.0
 40
15.0
 41
0.0
 71
     7
 72
     1
  1
\W0.63;三菱ギヤードモータ  
  7
ZU_SHPTB00001
 11
1.0
 21
0.0
 31
0.0
 73
     1
 44
1.0
  0
MTEXT
  5
1A1
100
AcDbEntity
  8
0
370
    -3
  6
Continuous
100
AcDbMText
 10
-506.894592
 20
215.999191
 30
0.0
 40
15.0
 41
0.0
 71
     7
 72
     1
  1
\W0.63;三菱ギヤードモータ  
  7
ZU_SHPTB00001
 11
1.0
 21
0.0
 31
0.0
 73
     1
 44
1.0
  0
LINE
  5
1A2
100
AcDbEntity
  8
0
370
    -3
  6
Continuous
100
AcDbLine
 10
-159.309024
 20
114.0
 30
0.0
 11
-298.309024
 21
114.0
 31
0.0
  0
LINE
  5
1A3
100
AcDbEntity
  8
0
370
    -3
  6
Continuous
100
AcDbLine
 10
-298.309024
 20
122.184466
 30
0.0
 11
-159.309024
 21
122.184466
 31
0.0
  0
LINE
  5
1A4
100
AcDbEntity
  8
0
370
    -3
  6
Continuous
100
AcDbLine
 10
-298.309024
 20
117.5
 30
0.0
 11
-159.309024
 21
117.5
 31
0.0
  0
LINE
  5
1A5
100
AcDbEntity
  8
0
370
    -3
  6
Continuous
100
AcDbLine
 10
-298.309024
 20
116.5
 30
0.0
 11
-159.309024
 21
116.5
 31
0.0
  0
LINE
  5
1A6
100
AcDbEntity
  8
0
370
    -3
  6
Continuous
100
AcDbLine
 10
-298.309024
 20
115.0
 30
0.0
 11
-159.309024
 21
115.0
 31
0.0
  0
LINE
  5
1A7
100
AcDbEntity
  8
0
370
    -3
  6
Continuous
100
AcDbLine
 10
-298.309024
 20
115.5
 30
0.0
 11
-159.309024
 21
115.5
 31
0.0
  0
LINE
  5
1A8
100
AcDbEntity
  8
0
370
    -3
  6
Continuous
100
AcDbLine
 10
-159.309024
 20
231.0
 30
0.0
 11
-298.309024
 21
231.0
 31
0.0
  0
LINE
  5
1A9
100
AcDbEntity
  8
0
370
    -3
  6
Continuous
100
AcDbLine
 10
-298.309024
 20
222.815534
 30
0.0
 11
-159.309024
 21
222.815534
 31
0.0
  0
LINE
  5
1AA
100
AcDbEntity
  8
0
370
    -3
  6
Continuous
100
AcDbLine
 10
-298.309024
 20
227.5
 30
0.0
 11
-159.309024
 21
227.5
 31
0.0
  0
LINE
  5
1AB
100
AcDbEntity
  8
0
370
    -3
  6
Continuous
100
AcDbLine
 10
-298.309024
 20
228.5
 30
0.0
 11
-159.309024
 21
228.5
 31
0.0
  0
LINE
  5
1AC
100
AcDbEntity
  8
0
370
    -3
  6
Continuous
100
AcDbLine
 10
-298.309024
 20
230.0
 30
0.0
 11
-159.309024
 21
230.0
 31
0.0
  0
LINE
  5
1AD
100
AcDbEntity
  8
0
370
    -3
  6
Continuous
100
AcDbLine
 10
-298.309024
 20
229.5
 30
0.0
 11
-159.309024
 21
229.5
 31
0.0
  0
LINE
  5
1AE
100
AcDbEntity
  8
0
370
    -3
  6
Continuous
100
AcDbLine
 10
-298.309024
 20
231.0
 30
0.0
 11
-298.309024
 21
114.0
 31
0.0
  0
LINE
  5
1AF
100
AcDbEntity
  8
0
370
    -3
  6
Continuous
100
AcDbLine
 10
-298.309024
 20
231.0
 30
0.0
 11
-298.309024
 21
219.3
 31
0.0
  0
LINE
  5
1B0
100
AcDbEntity
  8
0
370
    -3
  6
Continuous
100
AcDbLine
 10
-301.304423
 20
148.035616
 30
0.0
 11
-159.309024
 21
148.035616
 31
0.0
  0
LINE
  5
1B1
100
AcDbEntity
  8
0
370
    -3
  6
Continuous
100
AcDbLine
 10
-298.309024
 20
145.911392
 30
0.0
 11
-159.309024
 21
145.911392
 31
0.0
  0
LINE
  5
1B2
100
AcDbEntity
  8
0
370
    -3
  6
Continuous
100
AcDbLine
 10
-298.309024
 20
142.578882
 30
0.0
 11
-159.309024
 21
142.578882
 31
0.0
  0
LINE
  5
1B3
100
AcDbEntity
  8
0
370
    -3
  6
Continuous
100
AcDbLine
 10
-298.309024
 20
140.349478
 30
0.0
 11
-159.309024
 21
140.349478
 31
0.0
  0
LINE
  5
1B4
100
AcDbEntity
  8
0
370
    -3
  6
Continuous
100
AcDbLine
 10
-298.309024
 20
137.140879
 30
0.0
 11
-159.309024
 21
137.140879
 31
0.0
  0
LINE
  5
1B5
100
AcDbEntity
  8
0
370
    -3
  6
Continuous
100
AcDbLine
 10
-298.309024
 20
134.80418
 30
0.0
 11
-159.309024
 21
134.80418
 31
0.0
  0
LINE
  5
1B6
100
AcDbEntity
  8
0
370
    -3
  6
Continuous
100
AcDbLine
 10
-159.309024
 20
231.0
 30
0.0
 11
-159.309024
 21
172.5
 31
0.0
  0
LINE
  5
1B7
100
AcDbEntity
  8
0
370
    -3
  6
Continuous
100
AcDbLine
 10
-159.309024
 20
114.0
 30
0.0
 11
-159.309024
 21
172.5
 31
0.0
  0
LINE
  5
1B8
100
AcDbEntity
  8
0
370
    -3
  6
Continuous
100
AcDbLine
 10
-298.309024
 20
202.421118
 30
0.0
 11
-159.309024
 21
202.421118
 31
0.0
  0
LINE
  5
1B9
100
AcDbEntity
  8
0
370
    -3
  6
Continuous
100
AcDbLine
 10
-298.309024
 20
196.964384
 30
0.0
 11
-159.309024
 21
196.964384
 31
0.0
  0
LINE
  5
1BA
100
AcDbEntity
  8
0
370
    -3
  6
Continuous
100
AcDbLine
 10
-298.309024
 20
199.088608
 30
0.0
 11
-159.309024
 21
199.088608
 31
0.0
  0
LINE
  5
1BB
100
AcDbEntity
  8
0
370
    -3
  6
Continuous
100
AcDbLine
 10
-298.309024
 20
191.25
 30
0.0
 11
-159.309024
 21
191.25
 31
0.0
  0
LINE
  5
1BC
100
AcDbEntity
  8
0
370
    -3
  6
Continuous
100
AcDbLine
 10
-298.309024
 20
210.19582
 30
0.0
 11
-159.309024
 21
210.19582
 31
0.0
  0
LINE
  5
1BD
100
AcDbEntity
  8
0
370
    -3
  6
Continuous
100
AcDbLine
 10
-298.309024
 20
207.859121
 30
0.0
 11
-159.309024
 21
207.859121
 31
0.0
  0
LINE
  5
1BE
100
AcDbEntity
  8
0
370
    -3
  6
Continuous
100
AcDbLine
 10
-298.309024
 20
204.650522
 30
0.0
 11
-159.309024
 21
204.650522
 31
0.0
  0
LINE
  5
1BF
100
AcDbEntity
  8
0
370
    -3
  6
Continuous
100
AcDbLine
 10
-298.309024
 20
153.75
 30
0.0
 11
-159.309024
 21
153.75
 31
0.0
  0
LINE
  5
1C0
100
AcDbEntity
  8
0
370
    -3
  6
Continuous
100
AcDbLine
 10
-298.309024
 20
127.134213
 30
0.0
 11
-159.309024
 21
127.134213
 31
0.0
  0
LINE
  5
1C1
100
AcDbEntity
  8
0
370
    -3
  6
Continuous
100
AcDbLine
 10
-298.309024
 20
217.865787
 30
0.0
 11
-159.309024
 21
217.865787
 31
0.0
  0
INSERT
  5
1D4
100
AcDbEntity
  8
0
100
AcDbBlockReference
  2
ZU_SYM__USERS_HOME_SYMBOL_STD_SYM_B01_00002-1
 10
-303.809021
 20
128.305826
 30
0.0
  0
INSERT
  5
1E7
100
AcDbEntity
  8
0
100
AcDbBlockReference
  2
ZU_SYM__USERS_HOME_SYMBOL_STD_SYM_B01_00003-1
 10
-303.809021
 20
216.694174
 30
0.0
  0
INSERT
  5
1FA
100
AcDbEntity
  8
0
100
AcDbBlockReference
  2
ZU_SYM__USERS_HOME_SYMBOL_STD_SYM_B01_00004-1
 10
-303.809021
 20
128.305826
 30
0.0
  0
INSERT
  5
20D
100
AcDbEntity
  8
0
100
AcDbBlockReference
  2
ZU_SYM__USERS_HOME_SYMBOL_STD_SYM_B01_00005-1
 10
-303.809021
 20
216.694174
 30
0.0
  0
LINE
  5
20E
100
AcDbEntity
  8
0
370
    -3
  6
CENTER
100
AcDbLine
 10
-310.245254
 20
128.305826
 30
0.0
 11
-301.399539
 21
128.305826
 31
0.0
  0
LINE
  5
20F
100
AcDbEntity
  8
0
370
    -3
  6
CENTER
100
AcDbLine
 10
-310.245254
 20
216.694174
 30
0.0
 11
-301.399539
 21
216.694174
 31
0.0
  0
LINE
  5
210
100
AcDbEntity
  8
0
370
    -3
  6
CENTER
100
AcDbLine
 10
-310.245254
 20
128.305826
 30
0.0
 11
-301.399539
 21
128.305826
 31
0.0
  0
LINE
  5
211
100
AcDbEntity
  8
0
370
    -3
  6
CENTER
100
AcDbLine
 10
-310.245254
 20
216.694174
 30
0.0
 11
-301.399539
 21
216.694174
 31
0.0
  0
ARC
  5
212
100
AcDbEntity
  8
0
370
    -3
  6
Continuous
100
AcDbCircle
 10
394.190976
 20
172.5
 30
0.0
 40
700.0
100
AcDbArc
 50
183.997098
 51
184.332186
  0
ARC
  5
213
100
AcDbEntity
  8
0
370
    -3
  6
Continuous
100
AcDbCircle
 10
394.190976
 20
172.5
 30
0.0
 40
700.0
100
AcDbArc
 50
176.757441
 51
178.347093
  0
LINE
  5
214
100
AcDbEntity
  8
0
370
    -3
  6
Continuous
100
AcDbLine
 10
-302.440024
 20
114.0
 30
0.0
 11
-298.309024
 21
114.0
 31
0.0
  0
LINE
  5
215
100
AcDbEntity
  8
0
370
    -3
  6
Continuous
100
AcDbLine
 10
-298.309024
 20
153.75
 30
0.0
 11
-303.109024
 21
153.75
 31
0.0
  0
LINE
  5
216
100
AcDbEntity
  8
0
370
    -3
  6
Continuous
100
AcDbLine
 10
-303.809024
 20
154.45
 30
0.0
 11
-303.809024
 21
164.5
 31
0.0
  0
ARC
  5
217
100
AcDbEntity
  8
0
370
    -3
  6
Continuous
100
AcDbCircle
 10
-303.109024
 20
154.45
 30
0.0
 40
0.7
100
AcDbArc
 50
180.0
 51
270.0
  0
LINE
  5
218
100
AcDbEntity
  8
0
370
    -3
  6
Continuous
100
AcDbLine
 10
-301.943024
 20
142.5
 30
0.0
 11
-298.309024
 21
142.69045
 31
0.0
  0
LINE
  5
219
100
AcDbEntity
  8
0
370
    -3
  6
Continuous
100
AcDbLine
 10
-301.943024
 20
140.5
 30
0.0
 11
-298.309024
 21
140.30955
 31
0.0
  0
LINE
  5
21A
100
AcDbEntity
  8
0
370
    -3
  6
Continuous
100
AcDbLine
 10
-301.984024
 20
148.0
 30
0.0
 11
-298.309024
 21
148.192599
 31
0.0
  0
LINE
  5
21B
100
AcDbEntity
  8
0
370
    -3
  6
Continuous
100
AcDbLine
 10
-301.984024
 20
146.0
 30
0.0
 11
-298.309024
 21
145.807401
 31
0.0
  0
ARC
  5
21C
100
AcDbEntity
  8
0
370
    -3
  6
Continuous
100
AcDbCircle
 10
-301.984024
 20
147.0
 30
0.0
 40
1.0
100
AcDbArc
 50
90.0
 51
270.0
  0
ARC
  5
21D
100
AcDbEntity
  8
0
370
    -3
  6
Continuous
100
AcDbCircle
 10
-301.943024
 20
141.5
 30
0.0
 40
1.0
100
AcDbArc
 50
90.0
 51
270.0
  0
LINE
  5
21E
100
AcDbEntity
  8
0
370
    -3
  6
Continuous
100
AcDbLine
 10
-303.475523
 20
121.868591
 30
0.0
 11
-298.809024
 21
121.868591
 31
0.0
  0
ARC
  5
21F
100
AcDbEntity
  8
0
370
    -3
  6
Continuous
100
AcDbCircle
 10
-303.309024
 20
122.368591
 30
0.0
 40
0.5
100
AcDbArc
 50
180.0
 51
270.0
  0
LINE
  5
220
100
AcDbEntity
  8
0
370
    -3
  6
Continuous
100
AcDbLine
 10
-303.809024
 20
172.5
 30
0.0
 11
-303.809024
 21
164.5
 31
0.0
  0
LINE
  5
221
100
AcDbEntity
  8
0
370
    -3
  6
Continuous
100
AcDbLine
 10
-301.860024
 20
137.0
 30
0.0
 11
-298.309024
 21
137.1861
 31
0.0
  0
LINE
  5
222
100
AcDbEntity
  8
0
370
    -3
  6
Continuous
100
AcDbLine
 10
-301.860024
 20
135.0
 30
0.0
 11
-298.309024
 21
134.8139
 31
0.0
  0
LINE
  5
223
100
AcDbEntity
  8
0
370
    -3
  6
Continuous
100
AcDbLine
 10
-301.984024
 20
197.0
 30
0.0
 11
-298.309024
 21
196.807401
 31
0.0
  0
LINE
  5
224
100
AcDbEntity
  8
0
370
    -3
  6
Continuous
100
AcDbLine
 10
-301.984024
 20
199.0
 30
0.0
 11
-298.309024
 21
199.192599
 31
0.0
  0
LINE
  5
225
100
AcDbEntity
  8
0
370
    -3
  6
Continuous
100
AcDbLine
 10
-301.943024
 20
202.5
 30
0.0
 11
-298.309024
 21
202.30955
 31
0.0
  0
LINE
  5
226
100
AcDbEntity
  8
0
370
    -3
  6
Continuous
100
AcDbLine
 10
-301.943024
 20
204.5
 30
0.0
 11
-298.309024
 21
204.69045
 31
0.0
  0
LINE
  5
227
100
AcDbEntity
  8
0
370
    -3
  6
Continuous
100
AcDbLine
 10
-301.860024
 20
208.0
 30
0.0
 11
-298.309024
 21
207.8139
 31
0.0
  0
LINE
  5
228
100
AcDbEntity
  8
0
370
    -3
  6
Continuous
100
AcDbLine
 10
-301.860024
 20
210.0
 30
0.0
 11
-298.309024
 21
210.1861
 31
0.0
  0
ARC
  5
229
100
AcDbEntity
  8
0
370
    -3
  6
Continuous
100
AcDbCircle
 10
-301.860024
 20
209.0
 30
0.0
 40
1.0
100
AcDbArc
 50
90.0
 51
270.0
  0
ARC
  5
22A
100
AcDbEntity
  8
0
370
    -3
  6
Continuous
100
AcDbCircle
 10
-301.984024
 20
198.0
 30
0.0
 40
1.0
100
AcDbArc
 50
90.0
 51
270.0
  0
ARC
  5
22B
100
AcDbEntity
  8
0
370
    -3
  6
Continuous
100
AcDbCircle
 10
-301.943024
 20
203.5
 30
0.0
 40
1.0
100
AcDbArc
 50
90.0
 51
270.0
  0
LINE
  5
22C
100
AcDbEntity
  8
0
370
    -3
  6
Continuous
100
AcDbLine
 10
-303.475523
 20
223.131409
 30
0.0
 11
-298.809024
 21
223.131409
 31
0.0
  0
LINE
  5
22D
100
AcDbEntity
  8
0
370
    -3
  6
Continuous
100
AcDbLine
 10
-302.440024
 20
231.0
 30
0.0
 11
-298.309024
 21
231.0
 31
0.0
  0
LINE
  5
22E
100
AcDbEntity
  8
0
370
    -3
  6
Continuous
100
AcDbLine
 10
-298.309024
 20
191.25
 30
0.0
 11
-303.109024
 21
191.25
 31
0.0
  0
LINE
  5
22F
100
AcDbEntity
  8
0
370
    -3
  6
Continuous
100
AcDbLine
 10
-303.809024
 20
190.55
 30
0.0
 11
-303.809024
 21
180.5
 31
0.0
  0
ARC
  5
230
100
AcDbEntity
  8
0
370
    -3
  6
Continuous
100
AcDbCircle
 10
-303.109024
 20
190.55
 30
0.0
 40
0.7
100
AcDbArc
 50
90.0
 51
180.0
  0
ARC
  5
231
100
AcDbEntity
  8
0
370
    -3
  6
Continuous
100
AcDbCircle
 10
-303.309024
 20
222.631409
 30
0.0
 40
0.5
100
AcDbArc
 50
90.0
 51
180.0
  0
LINE
  5
232
100
AcDbEntity
  8
0
370
    -3
  6
Continuous
100
AcDbLine
 10
-303.809024
 20
172.5
 30
0.0
 11
-303.809024
 21
180.5
 31
0.0
  0
ARC
  5
233
100
AcDbEntity
  8
0
370
    -3
  6
Continuous
100
AcDbCircle
 10
394.190976
 20
172.5
 30
0.0
 40
700.0
100
AcDbArc
 50
184.147859
 51
184.718504
  0
ARC
  5
234
100
AcDbEntity
  8
0
370
    -3
  6
Continuous
100
AcDbCircle
 10
-302.440024
 20
115.0
 30
0.0
 40
1.0
100
AcDbArc
 50
184.718504
 51
270.0
  0
ARC
  5
235
100
AcDbEntity
  8
0
370
    -3
  6
Continuous
100
AcDbCircle
 10
-304.283929
 20
145.411142
 30
0.0
 40
1.0
100
AcDbArc
 50
182.220981
 51
254.778742
  0
ARC
  5
236
100
AcDbEntity
  8
0
370
    -3
  6
Continuous
100
AcDbCircle
 10
-304.809024
 20
143.481303
 30
0.0
 40
1.0
100
AcDbArc
 50
0.0
 51
74.778742
  0
LINE
  5
237
100
AcDbEntity
  8
0
370
    -3
  6
Continuous
100
AcDbLine
 10
-303.809024
 20
143.554148
 30
0.0
 11
-303.809024
 21
122.368591
 31
0.0
  0
ARC
  5
238
100
AcDbEntity
  8
0
370
    -3
  6
Continuous
100
AcDbCircle
 10
394.190976
 20
172.5
 30
0.0
 40
700.0
100
AcDbArc
 50
181.652907
 51
183.242558
  0
LINE
  5
239
100
AcDbEntity
  8
0
370
    -3
  6
Continuous
100
AcDbLine
 10
-305.809024
 20
153.0
 30
0.0
 11
-305.809024
 21
172.5
 31
0.0
  0
ARC
  5
23A
100
AcDbEntity
  8
0
370
    -3
  6
Continuous
100
AcDbCircle
 10
-305.309024
 20
153.0
 30
0.0
 40
0.5
100
AcDbArc
 50
180.0
 51
224.884862
  0
ARC
  5
23B
100
AcDbEntity
  8
0
370
    -3
  6
Continuous
100
AcDbCircle
 10
-306.01755
 20
152.294316
 30
0.0
 40
0.5
100
AcDbArc
 50
1.652907
 51
44.884862
  0
LINE
  5
23C
100
AcDbEntity
  8
0
370
    -3
  6
Continuous
100
AcDbLine
 10
-305.809024
 20
192.0
 30
0.0
 11
-305.809024
 21
172.5
 31
0.0
  0
ARC
  5
23D
100
AcDbEntity
  8
0
370
    -3
  6
Continuous
100
AcDbCircle
 10
-305.309024
 20
192.0
 30
0.0
 40
0.5
100
AcDbArc
 50
135.115138
 51
180.0
  0
ARC
  5
23E
100
AcDbEntity
  8
0
370
    -3
  6
Continuous
100
AcDbCircle
 10
-306.01755
 20
192.705684
 30
0.0
 40
0.5
100
AcDbArc
 50
315.115138
 51
358.347093
  0
ARC
  5
23F
100
AcDbEntity
  8
0
370
    -3
  6
Continuous
100
AcDbCircle
 10
394.190976
 20
172.5
 30
0.0
 40
700.0
100
AcDbArc
 50
175.667814
 51
176.002901
  0
ARC
  5
240
100
AcDbEntity
  8
0
370
    -3
  6
Continuous
100
AcDbCircle
 10
-304.283929
 20
199.588858
 30
0.0
 40
1.0
100
AcDbArc
 50
105.221258
 51
177.779019
  0
ARC
  5
241
100
AcDbEntity
  8
0
370
    -3
  6
Continuous
100
AcDbCircle
 10
-304.809024
 20
201.518697
 30
0.0
 40
1.0
100
AcDbArc
 50
285.221258
 51
0.0
  0
LINE
  5
242
100
AcDbEntity
  8
0
370
    -3
  6
Continuous
100
AcDbLine
 10
-303.809024
 20
201.445852
 30
0.0
 11
-303.809024
 21
222.631409
 31
0.0
  0
ARC
  5
243
100
AcDbEntity
  8
0
370
    -3
  6
Continuous
100
AcDbCircle
 10
394.190976
 20
172.5
 30
0.0
 40
700.0
100
AcDbArc
 50
175.281496
 51
175.852141
  0
ARC
  5
244
100
AcDbEntity
  8
0
370
    -3
  6
Continuous
100
AcDbCircle
 10
-302.440024
 20
230.0
 30
0.0
 40
1.0
100
AcDbArc
 50
90.0
 51
175.281496
  0
ARC
  5
245
100
AcDbEntity
  8
0
370
    -3
  6
Continuous
100
AcDbCircle
 10
-301.860024
 20
136.0
 30
0.0
 40
1.0
100
AcDbArc
 50
90.0
 51
270.0
  0
LINE
  5
246
100
AcDbEntity
  8
0
370
    -3
  6
Continuous
100
AcDbLine
 10
-407.309024
 20
-16.387637
 30
0.0
 11
-396.808871
 21
-16.570918
 31
0.0
  0
LINE
  5
247
100
AcDbEntity
  8
0
370
    -3
  6
Continuous
100
AcDbLine
 10
-396.808871
 20
-16.570918
 30
0.0
 11
-396.309024
 21
-17.079567
 31
0.0
  0
LINE
  5
248
100
AcDbEntity
  8
0
370
    -3
  6
Continuous
100
AcDbLine
 10
-396.309024
 20
-17.079567
 30
0.0
 11
-396.309024
 21
-34.106645
 31
0.0
  0
LINE
  5
249
100
AcDbEntity
  8
0
370
    -3
  6
Continuous
100
AcDbLine
 10
-407.309024
 20
-35.678125
 30
0.0
 11
-407.309024
 21
-16.387637
 31
0.0
  0
LINE
  5
24A
100
AcDbEntity
  8
0
370
    -3
  6
Continuous
100
AcDbLine
 10
-407.309024
 20
-16.387637
 30
0.0
 11
-483.309024
 21
-17.731677
 31
0.0
  0
LINE
  5
24B
100
AcDbEntity
  8
0
370
    -3
  6
Continuous
100
AcDbLine
 10
-483.309024
 20
-34.095164
 30
0.0
 11
-483.309024
 21
-17.731677
 31
0.0
  0
INSERT
  5
257
100
AcDbEntity
  8
0
100
AcDbBlockReference
  2
ZU_SYM__USERS_HOME_SYMBOL_STD_SYM_B01_00006-1
 10
-484.003198
 20
-128.581811
 30
0.0
 41
-1.0
 50
90.0
  0
INSERT
  5
263
100
AcDbEntity
  8
0
100
AcDbBlockReference
  2
ZU_SYM__USERS_HOME_SYMBOL_STD_SYM_B01_00007-1
 10
-484.003198
 20
-40.193463
 30
0.0
 50
90.0
  0
INSERT
  5
26F
100
AcDbEntity
  8
0
100
AcDbBlockReference
  2
ZU_SYM__USERS_HOME_SYMBOL_STD_SYM_B01_00008-1
 10
-395.61485
 20
-40.193463
 30
0.0
 41
-1.0
 50
270.0
  0
INSERT
  5
27B
100
AcDbEntity
  8
0
100
AcDbBlockReference
  2
ZU_SYM__USERS_HOME_SYMBOL_STD_SYM_B01_00009-1
 10
-395.61485
 20
-128.581811
 30
0.0
 50
270.0
  0
LINE
  5
27C
100
AcDbEntity
  8
0
370
    -3
  6
CENTER
100
AcDbLine
 10
-439.809024
 20
-207.491731
 30
0.0
 11
-439.809024
 21
-8.331042
 31
0.0
  0
LINE
  5
27D
100
AcDbEntity
  8
0
370
    -3
  6
CENTER
100
AcDbLine
 10
-505.814307
 20
-84.387637
 30
0.0
 11
-374.979796
 21
-84.387637
 31
0.0
  0
ARC
  5
27E
100
AcDbEntity
  8
0
370
    -3
  6
Continuous
100
AcDbCircle
 10
-388.069265
 20
-125.011581
 30
0.0
 40
3.0
100
AcDbArc
 50
93.0
 51
222.0
  0
ARC
  5
27F
100
AcDbEntity
  8
0
370
    -3
  6
Continuous
100
AcDbCircle
 10
-399.18508
 20
-136.127396
 30
0.0
 40
3.0
100
AcDbArc
 50
48.0
 51
177.0
  0
ARC
  5
280
100
AcDbEntity
  8
0
370
    -3
  6
Continuous
100
AcDbCircle
 10
-388.069265
 20
-43.763694
 30
0.0
 40
3.0
100
AcDbArc
 50
138.0
 51
267.0
  0
ARC
  5
281
100
AcDbEntity
  8
0
370
    -3
  6
Continuous
100
AcDbCircle
 10
-399.18508
 20
-32.647879
 30
0.0
 40
3.0
100
AcDbArc
 50
183.0
 51
312.0
  0
ARC
  5
282
100
AcDbEntity
  8
0
370
    -3
  6
Continuous
100
AcDbCircle
 10
-480.432967
 20
-32.647879
 30
0.0
 40
3.0
100
AcDbArc
 50
228.0
 51
357.0
  0
ARC
  5
283
100
AcDbEntity
  8
0
370
    -3
  6
Continuous
100
AcDbCircle
 10
-491.548782
 20
-43.763694
 30
0.0
 40
3.0
100
AcDbArc
 50
273.0
 51
42.0
  0
ARC
  5
284
100
AcDbEntity
  8
0
370
    -3
  6
Continuous
100
AcDbCircle
 10
-491.548782
 20
-125.011581
 30
0.0
 40
3.0
100
AcDbArc
 50
318.0
 51
87.0
  0
ARC
  5
285
100
AcDbEntity
  8
0
370
    -3
  6
Continuous
100
AcDbCircle
 10
-480.432967
 20
-136.127396
 30
0.0
 40
3.0
100
AcDbArc
 50
3.0
 51
132.0
  0
ARC
  5
286
100
AcDbEntity
  8
0
370
    -3
  6
Continuous
100
AcDbCircle
 10
-416.380256
 20
-29.694467
 30
0.0
 40
1.0
100
AcDbArc
 50
246.81129
 51
357.0
  0
LINE
  5
287
100
AcDbEntity
  8
0
370
    -3
  6
Continuous
100
AcDbLine
 10
-415.307653
 20
-28.335301
 30
0.0
 11
-415.381627
 21
-29.746803
 31
0.0
  0
ARC
  5
288
100
AcDbEntity
  8
0
370
    -3
  6
Continuous
100
AcDbCircle
 10
-420.509024
 20
-25.587637
 30
0.0
 40
0.7
100
AcDbArc
 50
0.0
 51
90.0
  0
LINE
  5
289
100
AcDbEntity
  8
0
370
    -3
  6
Continuous
100
AcDbLine
 10
-419.809024
 20
-28.716729
 30
0.0
 11
-419.809024
 21
-25.587637
 31
0.0
  0
ARC
  5
28A
100
AcDbEntity
  8
0
370
    -3
  6
Continuous
100
AcDbCircle
 10
-418.809024
 20
-28.716729
 30
0.0
 40
1.0
100
AcDbArc
 50
180.0
 51
249.332684
  0
LINE
  5
28B
100
AcDbEntity
  8
0
370
    -3
  6
Continuous
100
AcDbLine
 10
-420.509024
 20
-24.887637
 30
0.0
 11
-439.809024
 21
-24.887637
 31
0.0
  0
ARC
  5
28C
100
AcDbEntity
  8
0
370
    -3
  6
Continuous
100
AcDbCircle
 10
-439.809024
 20
-84.387637
 30
0.0
 40
58.5
100
AcDbArc
 50
66.81129
 51
69.332684
  0
ARC
  5
28D
100
AcDbEntity
  8
0
370
    -3
  6
Continuous
100
AcDbCircle
 10
-406.50798
 20
-35.079519
 30
0.0
 40
1.0
100
AcDbArc
 50
183.0
 51
235.966232
  0
ARC
  5
28E
100
AcDbEntity
  8
0
370
    -3
  6
Continuous
100
AcDbCircle
 10
-410.966788
 20
-32.345583
 30
0.0
 40
1.0
100
AcDbArc
 50
241.004334
 51
357.0
  0
ARC
  5
28F
100
AcDbEntity
  8
0
370
    -3
  6
Continuous
100
AcDbCircle
 10
-412.131807
 20
-31.716756
 30
0.0
 40
1.0
100
AcDbArc
 50
183.0
 51
242.279209
  0
ARC
  5
290
100
AcDbEntity
  8
0
370
    -3
  6
Continuous
100
AcDbCircle
 10
-403.309024
 20
-30.387637
 30
0.0
 40
1.0
100
AcDbArc
 50
3.0
 51
177.0
  0
LINE
  5
291
100
AcDbEntity
  8
0
370
    -3
  6
Continuous
100
AcDbLine
 10
-404.307653
 20
-30.335301
 30
0.0
 11
-404.592153
 21
-35.763881
 31
0.0
  0
ARC
  5
292
100
AcDbEntity
  8
0
370
    -3
  6
Continuous
100
AcDbCircle
 10
-405.590783
 20
-35.711545
 30
0.0
 40
1.0
100
AcDbArc
 50
234.89361
 51
357.0
  0
LINE
  5
293
100
AcDbEntity
  8
0
370
    -3
  6
Continuous
100
AcDbLine
 10
-402.310394
 20
-30.335301
 30
0.0
 11
-402.180969
 21
-32.804887
 31
0.0
  0
ARC
  5
294
100
AcDbEntity
  8
0
370
    -3
  6
Continuous
100
AcDbCircle
 10
-408.809024
 20
-29.387637
 30
0.0
 40
1.0
100
AcDbArc
 50
3.0
 51
177.0
  0
ARC
  5
295
100
AcDbEntity
  8
0
370
    -3
  6
Continuous
100
AcDbCircle
 10
-414.309024
 20
-28.387637
 30
0.0
 40
1.0
100
AcDbArc
 50
3.0
 51
177.0
  0
LINE
  5
296
100
AcDbEntity
  8
0
370
    -3
  6
Continuous
100
AcDbLine
 10
-413.310394
 20
-28.335301
 30
0.0
 11
-413.130437
 21
-31.769092
 31
0.0
  0
LINE
  5
297
100
AcDbEntity
  8
0
370
    -3
  6
Continuous
100
AcDbLine
 10
-407.810394
 20
-29.335301
 30
0.0
 11
-407.50661
 21
-35.131855
 31
0.0
  0
LINE
  5
298
100
AcDbEntity
  8
0
370
    -3
  6
Continuous
100
AcDbLine
 10
-409.807653
 20
-29.335301
 30
0.0
 11
-409.968158
 21
-32.397919
 31
0.0
  0
ARC
  5
299
100
AcDbEntity
  8
0
370
    -3
  6
Continuous
100
AcDbCircle
 10
-390.177615
 20
-40.127347
 30
0.0
 40
1.0
100
AcDbArc
 50
318.0
 51
41.725937
  0
ARC
  5
29A
100
AcDbEntity
  8
0
370
    -3
  6
Continuous
100
AcDbCircle
 10
-439.809024
 20
-84.387637
 30
0.0
 40
67.5
100
AcDbArc
 50
41.725937
 51
48.274063
  0
ARC
  5
29B
100
AcDbEntity
  8
0
370
    -3
  6
Continuous
100
AcDbCircle
 10
-395.548733
 20
-34.756229
 30
0.0
 40
1.0
100
AcDbArc
 50
48.274063
 51
132.0
  0
LINE
  5
29C
100
AcDbEntity
  8
0
370
    -3
  6
Continuous
100
AcDbLine
 10
-385.756688
 20
-48.886267
 30
0.0
 11
-391.185267
 21
-49.170767
 31
0.0
  0
LINE
  5
29D
100
AcDbEntity
  8
0
370
    -3
  6
Continuous
100
AcDbLine
 10
-385.756688
 20
-46.889008
 30
0.0
 11
-388.226273
 21
-46.759582
 31
0.0
  0
ARC
  5
29E
100
AcDbEntity
  8
0
370
    -3
  6
Continuous
100
AcDbCircle
 10
-385.809024
 20
-47.887637
 30
0.0
 40
1.0
100
AcDbArc
 50
273.0
 51
87.0
  0
LINE
  5
29F
100
AcDbEntity
  8
0
370
    -3
  6
Continuous
100
AcDbLine
 10
-382.881438
 20
-69.387637
 30
0.0
 11
-382.691993
 21
-69.387637
 31
0.0
  0
ARC
  5
2A0
100
AcDbEntity
  8
0
370
    -3
  6
Continuous
100
AcDbCircle
 10
-382.881438
 20
-68.887637
 30
0.0
 40
0.5
100
AcDbArc
 50
195.231036
 51
270.0
  0
ARC
  5
2A1
100
AcDbEntity
  8
0
370
    -3
  6
Continuous
100
AcDbCircle
 10
-439.809024
 20
-84.387637
 30
0.0
 40
58.5
100
AcDbArc
 50
15.231036
 51
17.620097
  0
ARC
  5
2A2
100
AcDbEntity
  8
0
370
    -3
  6
Continuous
100
AcDbCircle
 10
-383.100493
 20
-66.376736
 30
0.0
 40
1.0
100
AcDbArc
 50
95.98484
 51
197.620097
  0
ARC
  5
2A3
100
AcDbEntity
  8
0
370
    -3
  6
Continuous
100
AcDbCircle
 10
-383.309024
 20
-64.387637
 30
0.0
 40
1.0
100
AcDbArc
 50
275.98484
 51
87.0
  0
ARC
  5
2A4
100
AcDbEntity
  8
0
370
    -3
  6
Continuous
100
AcDbCircle
 10
-384.552742
 20
-62.319712
 30
0.0
 40
1.0
100
AcDbArc
 50
201.770485
 51
267.0
  0
LINE
  5
2A5
100
AcDbEntity
  8
0
370
    -3
  6
Continuous
100
AcDbLine
 10
-383.256688
 20
-63.389008
 30
0.0
 11
-384.605078
 21
-63.318342
 31
0.0
  0
ARC
  5
2A6
100
AcDbEntity
  8
0
370
    -3
  6
Continuous
100
AcDbCircle
 10
-439.809024
 20
-84.387637
 30
0.0
 40
58.5
100
AcDbArc
 50
21.770485
 51
23.18871
  0
ARC
  5
2A7
100
AcDbEntity
  8
0
370
    -3
  6
Continuous
100
AcDbCircle
 10
-387.138143
 20
-56.710421
 30
0.0
 40
1.0
100
AcDbArc
 50
207.720791
 51
267.0
  0
LINE
  5
2A8
100
AcDbEntity
  8
0
370
    -3
  6
Continuous
100
AcDbLine
 10
-383.756688
 20
-57.889008
 30
0.0
 11
-387.190479
 21
-57.70905
 31
0.0
  0
ARC
  5
2A9
100
AcDbEntity
  8
0
370
    -3
  6
Continuous
100
AcDbCircle
 10
-385.115854
 20
-60.95887
 30
0.0
 40
1.0
100
AcDbArc
 50
93.0
 51
203.18871
  0
LINE
  5
2AA
100
AcDbEntity
  8
0
370
    -3
  6
Continuous
100
AcDbLine
 10
-383.756688
 20
-59.886267
 30
0.0
 11
-385.168189
 21
-59.960241
 31
0.0
  0
ARC
  5
2AB
100
AcDbEntity
  8
0
370
    -3
  6
Continuous
100
AcDbCircle
 10
-383.809024
 20
-58.887637
 30
0.0
 40
1.0
100
AcDbArc
 50
273.0
 51
87.0
  0
ARC
  5
2AC
100
AcDbEntity
  8
0
370
    -3
  6
Continuous
100
AcDbCircle
 10
-439.809024
 20
-84.387637
 30
0.0
 40
58.5
100
AcDbArc
 50
27.720791
 51
28.995666
  0
ARC
  5
2AD
100
AcDbEntity
  8
0
370
    -3
  6
Continuous
100
AcDbCircle
 10
-387.766969
 20
-55.545401
 30
0.0
 40
1.0
100
AcDbArc
 50
93.0
 51
208.995666
  0
LINE
  5
2AE
100
AcDbEntity
  8
0
370
    -3
  6
Continuous
100
AcDbLine
 10
-384.756688
 20
-54.386267
 30
0.0
 11
-387.819305
 21
-54.546772
 31
0.0
  0
ARC
  5
2AF
100
AcDbEntity
  8
0
370
    -3
  6
Continuous
100
AcDbCircle
 10
-390.500906
 20
-51.086594
 30
0.0
 40
1.0
100
AcDbArc
 50
214.033768
 51
267.0
  0
LINE
  5
2B0
100
AcDbEntity
  8
0
370
    -3
  6
Continuous
100
AcDbLine
 10
-384.756688
 20
-52.389008
 30
0.0
 11
-390.553242
 21
-52.085223
 31
0.0
  0
ARC
  5
2B1
100
AcDbEntity
  8
0
370
    -3
  6
Continuous
100
AcDbCircle
 10
-384.809024
 20
-53.387637
 30
0.0
 40
1.0
100
AcDbArc
 50
273.0
 51
87.0
  0
ARC
  5
2B2
100
AcDbEntity
  8
0
370
    -3
  6
Continuous
100
AcDbCircle
 10
-391.132931
 20
-50.169396
 30
0.0
 40
1.0
100
AcDbArc
 50
93.0
 51
215.10639
  0
ARC
  5
2B3
100
AcDbEntity
  8
0
370
    -3
  6
Continuous
100
AcDbCircle
 10
-439.809024
 20
-84.387637
 30
0.0
 40
58.5
100
AcDbArc
 50
34.033768
 51
35.10639
  0
ARC
  5
2B4
100
AcDbEntity
  8
0
370
    -3
  6
Continuous
100
AcDbCircle
 10
-439.809024
 20
-84.387637
 30
0.0
 40
58.5
100
AcDbArc
 50
61.004334
 51
62.279209
  0
ARC
  5
2B5
100
AcDbEntity
  8
0
370
    -3
  6
Continuous
100
AcDbCircle
 10
-439.809024
 20
-84.387637
 30
0.0
 40
58.5
100
AcDbArc
 50
54.89361
 51
55.966232
  0
LINE
  5
2B6
100
AcDbEntity
  8
0
370
    -3
  6
Continuous
100
AcDbLine
 10
-403.521569
 20
-56.441786
 30
0.0
 11
-389.43447
 21
-40.796478
 31
0.0
  0
LINE
  5
2B7
100
AcDbEntity
  8
0
370
    -3
  6
Continuous
100
AcDbLine
 10
-411.863172
 20
-48.100183
 30
0.0
 11
-396.217864
 21
-34.013084
 31
0.0
  0
ARC
  5
2B8
100
AcDbEntity
  8
0
370
    -3
  6
Continuous
100
AcDbCircle
 10
-382.691993
 20
-69.887637
 30
0.0
 40
0.5
100
AcDbArc
 50
6.969381
 51
90.0
  0
ARC
  5
2B9
100
AcDbEntity
  8
0
370
    -3
  6
Continuous
100
AcDbCircle
 10
-501.309024
 20
-84.387637
 30
0.0
 40
120.0
100
AcDbArc
 50
0.0
 51
6.969381
  0
ARC
  5
2BA
100
AcDbEntity
  8
0
370
    -3
  6
Continuous
100
AcDbCircle
 10
-463.237791
 20
-29.694467
 30
0.0
 40
1.0
100
AcDbArc
 50
183.0
 51
293.18871
  0
LINE
  5
2BB
100
AcDbEntity
  8
0
370
    -3
  6
Continuous
100
AcDbLine
 10
-464.310394
 20
-28.335301
 30
0.0
 11
-464.23642
 21
-29.746803
 31
0.0
  0
ARC
  5
2BC
100
AcDbEntity
  8
0
370
    -3
  6
Continuous
100
AcDbCircle
 10
-459.109024
 20
-25.587637
 30
0.0
 40
0.7
100
AcDbArc
 50
90.0
 51
180.0
  0
LINE
  5
2BD
100
AcDbEntity
  8
0
370
    -3
  6
Continuous
100
AcDbLine
 10
-459.809024
 20
-28.716729
 30
0.0
 11
-459.809024
 21
-25.587637
 31
0.0
  0
ARC
  5
2BE
100
AcDbEntity
  8
0
370
    -3
  6
Continuous
100
AcDbCircle
 10
-460.809024
 20
-28.716729
 30
0.0
 40
1.0
100
AcDbArc
 50
290.667316
 51
0.0
  0
LINE
  5
2BF
100
AcDbEntity
  8
0
370
    -3
  6
Continuous
100
AcDbLine
 10
-459.109024
 20
-24.887637
 30
0.0
 11
-439.809024
 21
-24.887637
 31
0.0
  0
ARC
  5
2C0
100
AcDbEntity
  8
0
370
    -3
  6
Continuous
100
AcDbCircle
 10
-439.809024
 20
-84.387637
 30
0.0
 40
58.5
100
AcDbArc
 50
110.667316
 51
113.18871
  0
ARC
  5
2C1
100
AcDbEntity
  8
0
370
    -3
  6
Continuous
100
AcDbCircle
 10
-473.110067
 20
-35.079519
 30
0.0
 40
1.0
100
AcDbArc
 50
304.033768
 51
357.0
  0
ARC
  5
2C2
100
AcDbEntity
  8
0
370
    -3
  6
Continuous
100
AcDbCircle
 10
-468.65126
 20
-32.345583
 30
0.0
 40
1.0
100
AcDbArc
 50
183.0
 51
298.995666
  0
ARC
  5
2C3
100
AcDbEntity
  8
0
370
    -3
  6
Continuous
100
AcDbCircle
 10
-467.48624
 20
-31.716756
 30
0.0
 40
1.0
100
AcDbArc
 50
297.720791
 51
357.0
  0
ARC
  5
2C4
100
AcDbEntity
  8
0
370
    -3
  6
Continuous
100
AcDbCircle
 10
-476.309024
 20
-30.387637
 30
0.0
 40
1.0
100
AcDbArc
 50
3.0
 51
177.0
  0
LINE
  5
2C5
100
AcDbEntity
  8
0
370
    -3
  6
Continuous
100
AcDbLine
 10
-475.310394
 20
-30.335301
 30
0.0
 11
-475.025894
 21
-35.763881
 31
0.0
  0
ARC
  5
2C6
100
AcDbEntity
  8
0
370
    -3
  6
Continuous
100
AcDbCircle
 10
-474.027265
 20
-35.711545
 30
0.0
 40
1.0
100
AcDbArc
 50
183.0
 51
305.10639
  0
LINE
  5
2C7
100
AcDbEntity
  8
0
370
    -3
  6
Continuous
100
AcDbLine
 10
-477.307653
 20
-30.335301
 30
0.0
 11
-477.437079
 21
-32.804887
 31
0.0
  0
ARC
  5
2C8
100
AcDbEntity
  8
0
370
    -3
  6
Continuous
100
AcDbCircle
 10
-470.809024
 20
-29.387637
 30
0.0
 40
1.0
100
AcDbArc
 50
3.0
 51
177.0
  0
ARC
  5
2C9
100
AcDbEntity
  8
0
370
    -3
  6
Continuous
100
AcDbCircle
 10
-465.309024
 20
-28.387637
 30
0.0
 40
1.0
100
AcDbArc
 50
3.0
 51
177.0
  0
LINE
  5
2CA
100
AcDbEntity
  8
0
370
    -3
  6
Continuous
100
AcDbLine
 10
-466.307653
 20
-28.335301
 30
0.0
 11
-466.487611
 21
-31.769092
 31
0.0
  0
LINE
  5
2CB
100
AcDbEntity
  8
0
370
    -3
  6
Continuous
100
AcDbLine
 10
-471.807653
 20
-29.335301
 30
0.0
 11
-472.111438
 21
-35.131855
 31
0.0
  0
LINE
  5
2CC
100
AcDbEntity
  8
0
370
    -3
  6
Continuous
100
AcDbLine
 10
-469.810394
 20
-29.335301
 30
0.0
 11
-469.649889
 21
-32.397919
 31
0.0
  0
ARC
  5
2CD
100
AcDbEntity
  8
0
370
    -3
  6
Continuous
100
AcDbCircle
 10
-489.440432
 20
-40.127347
 30
0.0
 40
1.0
100
AcDbArc
 50
138.274063
 51
222.0
  0
ARC
  5
2CE
100
AcDbEntity
  8
0
370
    -3
  6
Continuous
100
AcDbCircle
 10
-439.809024
 20
-84.387637
 30
0.0
 40
67.5
100
AcDbArc
 50
131.725937
 51
138.274063
  0
ARC
  5
2CF
100
AcDbEntity
  8
0
370
    -3
  6
Continuous
100
AcDbCircle
 10
-484.069314
 20
-34.756229
 30
0.0
 40
1.0
100
AcDbArc
 50
48.0
 51
131.725937
  0
LINE
  5
2D0
100
AcDbEntity
  8
0
370
    -3
  6
Continuous
100
AcDbLine
 10
-493.86136
 20
-48.886267
 30
0.0
 11
-488.43278
 21
-49.170767
 31
0.0
  0
LINE
  5
2D1
100
AcDbEntity
  8
0
370
    -3
  6
Continuous
100
AcDbLine
 10
-493.86136
 20
-46.889008
 30
0.0
 11
-491.391774
 21
-46.759582
 31
0.0
  0
ARC
  5
2D2
100
AcDbEntity
  8
0
370
    -3
  6
Continuous
100
AcDbCircle
 10
-493.809024
 20
-47.887637
 30
0.0
 40
1.0
100
AcDbArc
 50
93.0
 51
267.0
  0
LINE
  5
2D3
100
AcDbEntity
  8
0
370
    -3
  6
Continuous
100
AcDbLine
 10
-496.736609
 20
-69.387637
 30
0.0
 11
-496.926055
 21
-69.387637
 31
0.0
  0
ARC
  5
2D4
100
AcDbEntity
  8
0
370
    -3
  6
Continuous
100
AcDbCircle
 10
-496.736609
 20
-68.887637
 30
0.0
 40
0.5
100
AcDbArc
 50
270.0
 51
344.768964
  0
ARC
  5
2D5
100
AcDbEntity
  8
0
370
    -3
  6
Continuous
100
AcDbCircle
 10
-439.809024
 20
-84.387637
 30
0.0
 40
58.5
100
AcDbArc
 50
162.379903
 51
164.768964
  0
ARC
  5
2D6
100
AcDbEntity
  8
0
370
    -3
  6
Continuous
100
AcDbCircle
 10
-496.517554
 20
-66.376736
 30
0.0
 40
1.0
100
AcDbArc
 50
342.379903
 51
84.01516
  0
ARC
  5
2D7
100
AcDbEntity
  8
0
370
    -3
  6
Continuous
100
AcDbCircle
 10
-496.309024
 20
-64.387637
 30
0.0
 40
1.0
100
AcDbArc
 50
93.0
 51
264.01516
  0
ARC
  5
2D8
100
AcDbEntity
  8
0
370
    -3
  6
Continuous
100
AcDbCircle
 10
-495.065305
 20
-62.319712
 30
0.0
 40
1.0
100
AcDbArc
 50
273.0
 51
338.229515
  0
LINE
  5
2D9
100
AcDbEntity
  8
0
370
    -3
  6
Continuous
100
AcDbLine
 10
-496.36136
 20
-63.389008
 30
0.0
 11
-495.01297
 21
-63.318342
 31
0.0
  0
ARC
  5
2DA
100
AcDbEntity
  8
0
370
    -3
  6
Continuous
100
AcDbCircle
 10
-439.809024
 20
-84.387637
 30
0.0
 40
58.5
100
AcDbArc
 50
156.81129
 51
158.229515
  0
ARC
  5
2DB
100
AcDbEntity
  8
0
370
    -3
  6
Continuous
100
AcDbCircle
 10
-492.479905
 20
-56.710421
 30
0.0
 40
1.0
100
AcDbArc
 50
273.0
 51
332.279209
  0
LINE
  5
2DC
100
AcDbEntity
  8
0
370
    -3
  6
Continuous
100
AcDbLine
 10
-495.86136
 20
-57.889008
 30
0.0
 11
-492.427569
 21
-57.70905
 31
0.0
  0
ARC
  5
2DD
100
AcDbEntity
  8
0
370
    -3
  6
Continuous
100
AcDbCircle
 10
-494.502194
 20
-60.95887
 30
0.0
 40
1.0
100
AcDbArc
 50
336.81129
 51
87.0
  0
LINE
  5
2DE
100
AcDbEntity
  8
0
370
    -3
  6
Continuous
100
AcDbLine
 10
-495.86136
 20
-59.886267
 30
0.0
 11
-494.449858
 21
-59.960241
 31
0.0
  0
ARC
  5
2DF
100
AcDbEntity
  8
0
370
    -3
  6
Continuous
100
AcDbCircle
 10
-495.809024
 20
-58.887637
 30
0.0
 40
1.0
100
AcDbArc
 50
93.0
 51
267.0
  0
ARC
  5
2E0
100
AcDbEntity
  8
0
370
    -3
  6
Continuous
100
AcDbCircle
 10
-439.809024
 20
-84.387637
 30
0.0
 40
58.5
100
AcDbArc
 50
151.004334
 51
152.279209
  0
ARC
  5
2E1
100
AcDbEntity
  8
0
370
    -3
  6
Continuous
100
AcDbCircle
 10
-491.851078
 20
-55.545401
 30
0.0
 40
1.0
100
AcDbArc
 50
331.004334
 51
87.0
  0
LINE
  5
2E2
100
AcDbEntity
  8
0
370
    -3
  6
Continuous
100
AcDbLine
 10
-494.86136
 20
-54.386267
 30
0.0
 11
-491.798742
 21
-54.546772
 31
0.0
  0
ARC
  5
2E3
100
AcDbEntity
  8
0
370
    -3
  6
Continuous
100
AcDbCircle
 10
-489.117142
 20
-51.086594
 30
0.0
 40
1.0
100
AcDbArc
 50
273.0
 51
325.966232
  0
LINE
  5
2E4
100
AcDbEntity
  8
0
370
    -3
  6
Continuous
100
AcDbLine
 10
-494.86136
 20
-52.389008
 30
0.0
 11
-489.064806
 21
-52.085223
 31
0.0
  0
ARC
  5
2E5
100
AcDbEntity
  8
0
370
    -3
  6
Continuous
100
AcDbCircle
 10
-494.809024
 20
-53.387637
 30
0.0
 40
1.0
100
AcDbArc
 50
93.0
 51
267.0
  0
ARC
  5
2E6
100
AcDbEntity
  8
0
370
    -3
  6
Continuous
100
AcDbCircle
 10
-488.485116
 20
-50.169396
 30
0.0
 40
1.0
100
AcDbArc
 50
324.89361
 51
87.0
  0
ARC
  5
2E7
100
AcDbEntity
  8
0
370
    -3
  6
Continuous
100
AcDbCircle
 10
-439.809024
 20
-84.387637
 30
0.0
 40
58.5
100
AcDbArc
 50
144.89361
 51
145.966232
  0
ARC
  5
2E8
100
AcDbEntity
  8
0
370
    -3
  6
Continuous
100
AcDbCircle
 10
-439.809024
 20
-84.387637
 30
0.0
 40
58.5
100
AcDbArc
 50
117.720791
 51
118.995666
  0
ARC
  5
2E9
100
AcDbEntity
  8
0
370
    -3
  6
Continuous
100
AcDbCircle
 10
-439.809024
 20
-84.387637
 30
0.0
 40
58.5
100
AcDbArc
 50
124.033768
 51
125.10639
  0
LINE
  5
2EA
100
AcDbEntity
  8
0
370
    -3
  6
Continuous
100
AcDbLine
 10
-476.096478
 20
-56.441786
 30
0.0
 11
-490.183577
 21
-40.796478
 31
0.0
  0
LINE
  5
2EB
100
AcDbEntity
  8
0
370
    -3
  6
Continuous
100
AcDbLine
 10
-467.754875
 20
-48.100183
 30
0.0
 11
-483.400183
 21
-34.013084
 31
0.0
  0
ARC
  5
2EC
100
AcDbEntity
  8
0
370
    -3
  6
Continuous
100
AcDbCircle
 10
-496.926055
 20
-69.887637
 30
0.0
 40
0.5
100
AcDbArc
 50
90.0
 51
173.030619
  0
ARC
  5
2ED
100
AcDbEntity
  8
0
370
    -3
  6
Continuous
100
AcDbCircle
 10
-378.309024
 20
-84.387637
 30
0.0
 40
120.0
100
AcDbArc
 50
173.030619
 51
180.0
  0
ARC
  5
2EE
100
AcDbEntity
  8
0
370
    -3
  6
Continuous
100
AcDbCircle
 10
-463.237791
 20
-139.080807
 30
0.0
 40
1.0
100
AcDbArc
 50
66.81129
 51
177.0
  0
LINE
  5
2EF
100
AcDbEntity
  8
0
370
    -3
  6
Continuous
100
AcDbLine
 10
-464.310394
 20
-140.439973
 30
0.0
 11
-464.23642
 21
-139.028472
 31
0.0
  0
ARC
  5
2F0
100
AcDbEntity
  8
0
370
    -3
  6
Continuous
100
AcDbCircle
 10
-459.109024
 20
-143.187637
 30
0.0
 40
0.7
100
AcDbArc
 50
180.0
 51
270.0
  0
LINE
  5
2F1
100
AcDbEntity
  8
0
370
    -3
  6
Continuous
100
AcDbLine
 10
-459.809024
 20
-140.058545
 30
0.0
 11
-459.809024
 21
-143.187637
 31
0.0
  0
ARC
  5
2F2
100
AcDbEntity
  8
0
370
    -3
  6
Continuous
100
AcDbCircle
 10
-460.809024
 20
-140.058545
 30
0.0
 40
1.0
100
AcDbArc
 50
0.0
 51
69.332684
  0
LINE
  5
2F3
100
AcDbEntity
  8
0
370
    -3
  6
Continuous
100
AcDbLine
 10
-459.109024
 20
-143.887637
 30
0.0
 11
-439.809024
 21
-143.887637
 31
0.0
  0
ARC
  5
2F4
100
AcDbEntity
  8
0
370
    -3
  6
Continuous
100
AcDbCircle
 10
-439.809024
 20
-84.387637
 30
0.0
 40
58.5
100
AcDbArc
 50
246.81129
 51
249.332684
  0
ARC
  5
2F5
100
AcDbEntity
  8
0
370
    -3
  6
Continuous
100
AcDbCircle
 10
-473.110067
 20
-133.695755
 30
0.0
 40
1.0
100
AcDbArc
 50
3.0
 51
55.966232
  0
ARC
  5
2F6
100
AcDbEntity
  8
0
370
    -3
  6
Continuous
100
AcDbCircle
 10
-468.65126
 20
-136.429692
 30
0.0
 40
1.0
100
AcDbArc
 50
61.004334
 51
177.0
  0
ARC
  5
2F7
100
AcDbEntity
  8
0
370
    -3
  6
Continuous
100
AcDbCircle
 10
-467.48624
 20
-137.058518
 30
0.0
 40
1.0
100
AcDbArc
 50
3.0
 51
62.279209
  0
ARC
  5
2F8
100
AcDbEntity
  8
0
370
    -3
  6
Continuous
100
AcDbCircle
 10
-476.309024
 20
-138.387637
 30
0.0
 40
1.0
100
AcDbArc
 50
183.0
 51
357.0
  0
LINE
  5
2F9
100
AcDbEntity
  8
0
370
    -3
  6
Continuous
100
AcDbLine
 10
-475.310394
 20
-138.439973
 30
0.0
 11
-475.025894
 21
-133.011394
 31
0.0
  0
ARC
  5
2FA
100
AcDbEntity
  8
0
370
    -3
  6
Continuous
100
AcDbCircle
 10
-474.027265
 20
-133.06373
 30
0.0
 40
1.0
100
AcDbArc
 50
54.89361
 51
177.0
  0
LINE
  5
2FB
100
AcDbEntity
  8
0
370
    -3
  6
Continuous
100
AcDbLine
 10
-477.307653
 20
-138.439973
 30
0.0
 11
-477.437079
 21
-135.970388
 31
0.0
  0
ARC
  5
2FC
100
AcDbEntity
  8
0
370
    -3
  6
Continuous
100
AcDbCircle
 10
-470.809024
 20
-139.387637
 30
0.0
 40
1.0
100
AcDbArc
 50
183.0
 51
357.0
  0
ARC
  5
2FD
100
AcDbEntity
  8
0
370
    -3
  6
Continuous
100
AcDbCircle
 10
-465.309024
 20
-140.387637
 30
0.0
 40
1.0
100
AcDbArc
 50
183.0
 51
357.0
  0
LINE
  5
2FE
100
AcDbEntity
  8
0
370
    -3
  6
Continuous
100
AcDbLine
 10
-466.307653
 20
-140.439973
 30
0.0
 11
-466.487611
 21
-137.006182
 31
0.0
  0
LINE
  5
2FF
100
AcDbEntity
  8
0
370
    -3
  6
Continuous
100
AcDbLine
 10
-471.807653
 20
-139.439973
 30
0.0
 11
-472.111438
 21
-133.643419
 31
0.0
  0
LINE
  5
300
100
AcDbEntity
  8
0
370
    -3
  6
Continuous
100
AcDbLine
 10
-469.810394
 20
-139.439973
 30
0.0
 11
-469.649889
 21
-136.377356
 31
0.0
  0
ARC
  5
301
100
AcDbEntity
  8
0
370
    -3
  6
Continuous
100
AcDbCircle
 10
-489.440432
 20
-128.647928
 30
0.0
 40
1.0
100
AcDbArc
 50
138.0
 51
221.725937
  0
ARC
  5
302
100
AcDbEntity
  8
0
370
    -3
  6
Continuous
100
AcDbCircle
 10
-439.809024
 20
-84.387637
 30
0.0
 40
67.5
100
AcDbArc
 50
221.725937
 51
228.274063
  0
ARC
  5
303
100
AcDbEntity
  8
0
370
    -3
  6
Continuous
100
AcDbCircle
 10
-484.069314
 20
-134.019046
 30
0.0
 40
1.0
100
AcDbArc
 50
228.274063
 51
312.0
  0
LINE
  5
304
100
AcDbEntity
  8
0
370
    -3
  6
Continuous
100
AcDbLine
 10
-493.86136
 20
-119.889008
 30
0.0
 11
-488.43278
 21
-119.604508
 31
0.0
  0
LINE
  5
305
100
AcDbEntity
  8
0
370
    -3
  6
Continuous
100
AcDbLine
 10
-493.86136
 20
-121.886267
 30
0.0
 11
-491.391774
 21
-122.015692
 31
0.0
  0
ARC
  5
306
100
AcDbEntity
  8
0
370
    -3
  6
Continuous
100
AcDbCircle
 10
-493.809024
 20
-120.887637
 30
0.0
 40
1.0
100
AcDbArc
 50
93.0
 51
267.0
  0
LINE
  5
307
100
AcDbEntity
  8
0
370
    -3
  6
Continuous
100
AcDbLine
 10
-496.736609
 20
-99.387637
 30
0.0
 11
-496.926055
 21
-99.387637
 31
0.0
  0
ARC
  5
308
100
AcDbEntity
  8
0
370
    -3
  6
Continuous
100
AcDbCircle
 10
-496.736609
 20
-99.887637
 30
0.0
 40
0.5
100
AcDbArc
 50
15.231036
 51
90.0
  0
ARC
  5
309
100
AcDbEntity
  8
0
370
    -3
  6
Continuous
100
AcDbCircle
 10
-439.809024
 20
-84.387637
 30
0.0
 40
58.5
100
AcDbArc
 50
195.231036
 51
197.620097
  0
ARC
  5
30A
100
AcDbEntity
  8
0
370
    -3
  6
Continuous
100
AcDbCircle
 10
-496.517554
 20
-102.398538
 30
0.0
 40
1.0
100
AcDbArc
 50
275.98484
 51
17.620097
  0
ARC
  5
30B
100
AcDbEntity
  8
0
370
    -3
  6
Continuous
100
AcDbCircle
 10
-496.309024
 20
-104.387637
 30
0.0
 40
1.0
100
AcDbArc
 50
95.98484
 51
267.0
  0
ARC
  5
30C
100
AcDbEntity
  8
0
370
    -3
  6
Continuous
100
AcDbCircle
 10
-495.065305
 20
-106.455563
 30
0.0
 40
1.0
100
AcDbArc
 50
21.770485
 51
87.0
  0
LINE
  5
30D
100
AcDbEntity
  8
0
370
    -3
  6
Continuous
100
AcDbLine
 10
-496.36136
 20
-105.386267
 30
0.0
 11
-495.01297
 21
-105.456933
 31
0.0
  0
ARC
  5
30E
100
AcDbEntity
  8
0
370
    -3
  6
Continuous
100
AcDbCircle
 10
-439.809024
 20
-84.387637
 30
0.0
 40
58.5
100
AcDbArc
 50
201.770485
 51
203.18871
  0
ARC
  5
30F
100
AcDbEntity
  8
0
370
    -3
  6
Continuous
100
AcDbCircle
 10
-492.479905
 20
-112.064854
 30
0.0
 40
1.0
100
AcDbArc
 50
27.720791
 51
87.0
  0
LINE
  5
310
100
AcDbEntity
  8
0
370
    -3
  6
Continuous
100
AcDbLine
 10
-495.86136
 20
-110.886267
 30
0.0
 11
-492.427569
 21
-111.066224
 31
0.0
  0
ARC
  5
311
100
AcDbEntity
  8
0
370
    -3
  6
Continuous
100
AcDbCircle
 10
-494.502194
 20
-107.816405
 30
0.0
 40
1.0
100
AcDbArc
 50
273.0
 51
23.18871
  0
LINE
  5
312
100
AcDbEntity
  8
0
370
    -3
  6
Continuous
100
AcDbLine
 10
-495.86136
 20
-108.889008
 30
0.0
 11
-494.449858
 21
-108.815034
 31
0.0
  0
ARC
  5
313
100
AcDbEntity
  8
0
370
    -3
  6
Continuous
100
AcDbCircle
 10
-495.809024
 20
-109.887637
 30
0.0
 40
1.0
100
AcDbArc
 50
93.0
 51
267.0
  0
ARC
  5
314
100
AcDbEntity
  8
0
370
    -3
  6
Continuous
100
AcDbCircle
 10
-439.809024
 20
-84.387637
 30
0.0
 40
58.5
100
AcDbArc
 50
207.720791
 51
208.995666
  0
ARC
  5
315
100
AcDbEntity
  8
0
370
    -3
  6
Continuous
100
AcDbCircle
 10
-491.851078
 20
-113.229873
 30
0.0
 40
1.0
100
AcDbArc
 50
273.0
 51
28.995666
  0
LINE
  5
316
100
AcDbEntity
  8
0
370
    -3
  6
Continuous
100
AcDbLine
 10
-494.86136
 20
-114.389008
 30
0.0
 11
-491.798742
 21
-114.228503
 31
0.0
  0
ARC
  5
317
100
AcDbEntity
  8
0
370
    -3
  6
Continuous
100
AcDbCircle
 10
-489.117142
 20
-117.688681
 30
0.0
 40
1.0
100
AcDbArc
 50
34.033768
 51
87.0
  0
LINE
  5
318
100
AcDbEntity
  8
0
370
    -3
  6
Continuous
100
AcDbLine
 10
-494.86136
 20
-116.386267
 30
0.0
 11
-489.064806
 21
-116.690051
 31
0.0
  0
ARC
  5
319
100
AcDbEntity
  8
0
370
    -3
  6
Continuous
100
AcDbCircle
 10
-494.809024
 20
-115.387637
 30
0.0
 40
1.0
100
AcDbArc
 50
93.0
 51
267.0
  0
ARC
  5
31A
100
AcDbEntity
  8
0
370
    -3
  6
Continuous
100
AcDbCircle
 10
-488.485116
 20
-118.605878
 30
0.0
 40
1.0
100
AcDbArc
 50
273.0
 51
35.10639
  0
ARC
  5
31B
100
AcDbEntity
  8
0
370
    -3
  6
Continuous
100
AcDbCircle
 10
-439.809024
 20
-84.387637
 30
0.0
 40
58.5
100
AcDbArc
 50
214.033768
 51
215.10639
  0
ARC
  5
31C
100
AcDbEntity
  8
0
370
    -3
  6
Continuous
100
AcDbCircle
 10
-439.809024
 20
-84.387637
 30
0.0
 40
58.5
100
AcDbArc
 50
241.004334
 51
242.279209
  0
ARC
  5
31D
100
AcDbEntity
  8
0
370
    -3
  6
Continuous
100
AcDbCircle
 10
-439.809024
 20
-84.387637
 30
0.0
 40
58.5
100
AcDbArc
 50
234.89361
 51
235.966232
  0
LINE
  5
31E
100
AcDbEntity
  8
0
370
    -3
  6
Continuous
100
AcDbLine
 10
-476.096478
 20
-112.333489
 30
0.0
 11
-490.183577
 21
-127.978797
 31
0.0
  0
LINE
  5
31F
100
AcDbEntity
  8
0
370
    -3
  6
Continuous
100
AcDbLine
 10
-467.754875
 20
-120.675092
 30
0.0
 11
-483.400183
 21
-134.762191
 31
0.0
  0
ARC
  5
320
100
AcDbEntity
  8
0
370
    -3
  6
Continuous
100
AcDbCircle
 10
-496.926055
 20
-98.887637
 30
0.0
 40
0.5
100
AcDbArc
 50
186.969381
 51
270.0
  0
ARC
  5
321
100
AcDbEntity
  8
0
370
    -3
  6
Continuous
100
AcDbCircle
 10
-378.309024
 20
-84.387637
 30
0.0
 40
120.0
100
AcDbArc
 50
180.0
 51
186.969381
  0
ARC
  5
322
100
AcDbEntity
  8
0
370
    -3
  6
Continuous
100
AcDbCircle
 10
-501.309024
 20
-84.387637
 30
0.0
 40
120.0
100
AcDbArc
 50
353.030619
 51
0.0
  0
ARC
  5
323
100
AcDbEntity
  8
0
370
    -3
  6
Continuous
100
AcDbCircle
 10
-382.691993
 20
-98.887637
 30
0.0
 40
0.5
100
AcDbArc
 50
270.0
 51
353.030619
  0
ARC
  5
324
100
AcDbEntity
  8
0
370
    -3
  6
Continuous
100
AcDbCircle
 10
-439.809024
 20
-84.387637
 30
0.0
 40
58.5
100
AcDbArc
 50
304.033768
 51
305.10639
  0
ARC
  5
325
100
AcDbEntity
  8
0
370
    -3
  6
Continuous
100
AcDbCircle
 10
-439.809024
 20
-84.387637
 30
0.0
 40
58.5
100
AcDbArc
 50
297.720791
 51
298.995666
  0
LINE
  5
326
100
AcDbEntity
  8
0
370
    -3
  6
Continuous
100
AcDbLine
 10
-382.881438
 20
-99.387637
 30
0.0
 11
-382.691993
 21
-99.387637
 31
0.0
  0
ARC
  5
327
100
AcDbEntity
  8
0
370
    -3
  6
Continuous
100
AcDbCircle
 10
-382.881438
 20
-99.887637
 30
0.0
 40
0.5
100
AcDbArc
 50
90.0
 51
164.768964
  0
ARC
  5
328
100
AcDbEntity
  8
0
370
    -3
  6
Continuous
100
AcDbCircle
 10
-439.809024
 20
-84.387637
 30
0.0
 40
58.5
100
AcDbArc
 50
342.379903
 51
344.768964
  0
ARC
  5
329
100
AcDbEntity
  8
0
370
    -3
  6
Continuous
100
AcDbCircle
 10
-383.100493
 20
-102.398538
 30
0.0
 40
1.0
100
AcDbArc
 50
162.379903
 51
264.01516
  0
ARC
  5
32A
100
AcDbEntity
  8
0
370
    -3
  6
Continuous
100
AcDbCircle
 10
-383.309024
 20
-104.387637
 30
0.0
 40
1.0
100
AcDbArc
 50
273.0
 51
84.01516
  0
ARC
  5
32B
100
AcDbEntity
  8
0
370
    -3
  6
Continuous
100
AcDbCircle
 10
-384.552742
 20
-106.455563
 30
0.0
 40
1.0
100
AcDbArc
 50
93.0
 51
158.229515
  0
LINE
  5
32C
100
AcDbEntity
  8
0
370
    -3
  6
Continuous
100
AcDbLine
 10
-383.256688
 20
-105.386267
 30
0.0
 11
-384.605078
 21
-105.456933
 31
0.0
  0
ARC
  5
32D
100
AcDbEntity
  8
0
370
    -3
  6
Continuous
100
AcDbCircle
 10
-439.809024
 20
-84.387637
 30
0.0
 40
58.5
100
AcDbArc
 50
336.81129
 51
338.229515
  0
ARC
  5
32E
100
AcDbEntity
  8
0
370
    -3
  6
Continuous
100
AcDbCircle
 10
-387.138143
 20
-112.064854
 30
0.0
 40
1.0
100
AcDbArc
 50
93.0
 51
152.279209
  0
LINE
  5
32F
100
AcDbEntity
  8
0
370
    -3
  6
Continuous
100
AcDbLine
 10
-383.756688
 20
-110.886267
 30
0.0
 11
-387.190479
 21
-111.066224
 31
0.0
  0
ARC
  5
330
100
AcDbEntity
  8
0
370
    -3
  6
Continuous
100
AcDbCircle
 10
-385.115854
 20
-107.816405
 30
0.0
 40
1.0
100
AcDbArc
 50
156.81129
 51
267.0
  0
LINE
  5
331
100
AcDbEntity
  8
0
370
    -3
  6
Continuous
100
AcDbLine
 10
-383.756688
 20
-108.889008
 30
0.0
 11
-385.168189
 21
-108.815034
 31
0.0
  0
ARC
  5
332
100
AcDbEntity
  8
0
370
    -3
  6
Continuous
100
AcDbCircle
 10
-383.809024
 20
-109.887637
 30
0.0
 40
1.0
100
AcDbArc
 50
273.0
 51
87.0
  0
ARC
  5
333
100
AcDbEntity
  8
0
370
    -3
  6
Continuous
100
AcDbCircle
 10
-439.809024
 20
-84.387637
 30
0.0
 40
58.5
100
AcDbArc
 50
331.004334
 51
332.279209
  0
ARC
  5
334
100
AcDbEntity
  8
0
370
    -3
  6
Continuous
100
AcDbCircle
 10
-387.766969
 20
-113.229873
 30
0.0
 40
1.0
100
AcDbArc
 50
151.004334
 51
267.0
  0
LINE
  5
335
100
AcDbEntity
  8
0
370
    -3
  6
Continuous
100
AcDbLine
 10
-384.756688
 20
-114.389008
 30
0.0
 11
-387.819305
 21
-114.228503
 31
0.0
  0
ARC
  5
336
100
AcDbEntity
  8
0
370
    -3
  6
Continuous
100
AcDbCircle
 10
-390.500906
 20
-117.688681
 30
0.0
 40
1.0
100
AcDbArc
 50
93.0
 51
145.966232
  0
LINE
  5
337
100
AcDbEntity
  8
0
370
    -3
  6
Continuous
100
AcDbLine
 10
-384.756688
 20
-116.386267
 30
0.0
 11
-390.553242
 21
-116.690051
 31
0.0
  0
ARC
  5
338
100
AcDbEntity
  8
0
370
    -3
  6
Continuous
100
AcDbCircle
 10
-384.809024
 20
-115.387637
 30
0.0
 40
1.0
100
AcDbArc
 50
273.0
 51
87.0
  0
ARC
  5
339
100
AcDbEntity
  8
0
370
    -3
  6
Continuous
100
AcDbCircle
 10
-391.132931
 20
-118.605878
 30
0.0
 40
1.0
100
AcDbArc
 50
144.89361
 51
267.0
  0
ARC
  5
33A
100
AcDbEntity
  8
0
370
    -3
  6
Continuous
100
AcDbCircle
 10
-439.809024
 20
-84.387637
 30
0.0
 40
58.5
100
AcDbArc
 50
324.89361
 51
325.966232
  0
LINE
  5
33B
100
AcDbEntity
  8
0
370
    -3
  6
Continuous
100
AcDbLine
 10
-385.756688
 20
-119.889008
 30
0.0
 11
-391.185267
 21
-119.604508
 31
0.0
  0
LINE
  5
33C
100
AcDbEntity
  8
0
370
    -3
  6
Continuous
100
AcDbLine
 10
-385.756688
 20
-121.886267
 30
0.0
 11
-388.226273
 21
-122.015692
 31
0.0
  0
ARC
  5
33D
100
AcDbEntity
  8
0
370
    -3
  6
Continuous
100
AcDbCircle
 10
-385.809024
 20
-120.887637
 30
0.0
 40
1.0
100
AcDbArc
 50
273.0
 51
87.0
  0
ARC
  5
33E
100
AcDbEntity
  8
0
370
    -3
  6
Continuous
100
AcDbCircle
 10
-395.548733
 20
-134.019046
 30
0.0
 40
1.0
100
AcDbArc
 50
228.0
 51
311.725937
  0
LINE
  5
33F
100
AcDbEntity
  8
0
370
    -3
  6
Continuous
100
AcDbLine
 10
-403.521569
 20
-112.333489
 30
0.0
 11
-389.43447
 21
-127.978797
 31
0.0
  0
ARC
  5
340
100
AcDbEntity
  8
0
370
    -3
  6
Continuous
100
AcDbCircle
 10
-390.177615
 20
-128.647928
 30
0.0
 40
1.0
100
AcDbArc
 50
318.274063
 51
42.0
  0
ARC
  5
341
100
AcDbEntity
  8
0
370
    -3
  6
Continuous
100
AcDbCircle
 10
-439.809024
 20
-84.387637
 30
0.0
 40
67.5
100
AcDbArc
 50
311.725937
 51
318.274063
  0
LINE
  5
342
100
AcDbEntity
  8
0
370
    -3
  6
Continuous
100
AcDbLine
 10
-411.863172
 20
-120.675092
 30
0.0
 11
-396.217864
 21
-134.762191
 31
0.0
  0
LINE
  5
343
100
AcDbEntity
  8
0
370
    -3
  6
Continuous
100
AcDbLine
 10
-420.509024
 20
-143.887637
 30
0.0
 11
-439.809024
 21
-143.887637
 31
0.0
  0
ARC
  5
344
100
AcDbEntity
  8
0
370
    -3
  6
Continuous
100
AcDbCircle
 10
-420.509024
 20
-143.187637
 30
0.0
 40
0.7
100
AcDbArc
 50
270.0
 51
0.0
  0
LINE
  5
345
100
AcDbEntity
  8
0
370
    -3
  6
Continuous
100
AcDbLine
 10
-419.809024
 20
-140.058545
 30
0.0
 11
-419.809024
 21
-143.187637
 31
0.0
  0
ARC
  5
346
100
AcDbEntity
  8
0
370
    -3
  6
Continuous
100
AcDbCircle
 10
-418.809024
 20
-140.058545
 30
0.0
 40
1.0
100
AcDbArc
 50
110.667316
 51
180.0
  0
ARC
  5
347
100
AcDbEntity
  8
0
370
    -3
  6
Continuous
100
AcDbCircle
 10
-408.809024
 20
-139.387637
 30
0.0
 40
1.0
100
AcDbArc
 50
183.0
 51
357.0
  0
ARC
  5
348
100
AcDbEntity
  8
0
370
    -3
  6
Continuous
100
AcDbCircle
 10
-414.309024
 20
-140.387637
 30
0.0
 40
1.0
100
AcDbArc
 50
183.0
 51
357.0
  0
ARC
  5
349
100
AcDbEntity
  8
0
370
    -3
  6
Continuous
100
AcDbCircle
 10
-416.380256
 20
-139.080807
 30
0.0
 40
1.0
100
AcDbArc
 50
3.0
 51
113.18871
  0
LINE
  5
34A
100
AcDbEntity
  8
0
370
    -3
  6
Continuous
100
AcDbLine
 10
-415.307653
 20
-140.439973
 30
0.0
 11
-415.381627
 21
-139.028472
 31
0.0
  0
LINE
  5
34B
100
AcDbEntity
  8
0
370
    -3
  6
Continuous
100
AcDbLine
 10
-413.310394
 20
-140.439973
 30
0.0
 11
-413.130437
 21
-137.006182
 31
0.0
  0
LINE
  5
34C
100
AcDbEntity
  8
0
370
    -3
  6
Continuous
100
AcDbLine
 10
-407.810394
 20
-139.439973
 30
0.0
 11
-407.50661
 21
-133.643419
 31
0.0
  0
LINE
  5
34D
100
AcDbEntity
  8
0
370
    -3
  6
Continuous
100
AcDbLine
 10
-409.807653
 20
-139.439973
 30
0.0
 11
-409.968158
 21
-136.377356
 31
0.0
  0
ARC
  5
34E
100
AcDbEntity
  8
0
370
    -3
  6
Continuous
100
AcDbCircle
 10
-439.809024
 20
-84.387637
 30
0.0
 40
58.5
100
AcDbArc
 50
290.667316
 51
293.18871
  0
LINE
  5
34F
100
AcDbEntity
  8
0
370
    -3
  6
Continuous
100
AcDbLine
 10
-402.310394
 20
-138.439973
 30
0.0
 11
-402.180969
 21
-135.970388
 31
0.0
  0
ARC
  5
350
100
AcDbEntity
  8
0
370
    -3
  6
Continuous
100
AcDbCircle
 10
-405.590783
 20
-133.06373
 30
0.0
 40
1.0
100
AcDbArc
 50
3.0
 51
125.10639
  0
LINE
  5
351
100
AcDbEntity
  8
0
370
    -3
  6
Continuous
100
AcDbLine
 10
-404.307653
 20
-138.439973
 30
0.0
 11
-404.592153
 21
-133.011394
 31
0.0
  0
ARC
  5
352
100
AcDbEntity
  8
0
370
    -3
  6
Continuous
100
AcDbCircle
 10
-403.309024
 20
-138.387637
 30
0.0
 40
1.0
100
AcDbArc
 50
183.0
 51
357.0
  0
ARC
  5
353
100
AcDbEntity
  8
0
370
    -3
  6
Continuous
100
AcDbCircle
 10
-412.131807
 20
-137.058518
 30
0.0
 40
1.0
100
AcDbArc
 50
117.720791
 51
177.0
  0
ARC
  5
354
100
AcDbEntity
  8
0
370
    -3
  6
Continuous
100
AcDbCircle
 10
-410.966788
 20
-136.429692
 30
0.0
 40
1.0
100
AcDbArc
 50
3.0
 51
118.995666
  0
ARC
  5
355
100
AcDbEntity
  8
0
370
    -3
  6
Continuous
100
AcDbCircle
 10
-406.50798
 20
-133.695755
 30
0.0
 40
1.0
100
AcDbArc
 50
124.033768
 51
177.0
  0
LINE
  5
356
100
AcDbEntity
  8
0
370
    -3
  6
Continuous
100
AcDbLine
 10
-159.309024
 20
114.0
 30
0.0
 11
-159.309024
 21
172.5
 31
0.0
  0
LINE
  5
357
100
AcDbEntity
  8
0
370
    -3
  6
Continuous
100
AcDbLine
 10
-159.309024
 20
231.0
 30
0.0
 11
-159.309024
 21
172.5
 31
0.0
  0
LINE
  5
358
100
AcDbEntity
  8
0
370
    -3
  6
Continuous
100
AcDbLine
 10
-159.309024
 20
113.0
 30
0.0
 11
-159.309024
 21
232.0
 31
0.0
  0
LINE
  5
359
100
AcDbEntity
  8
0
370
    -3
  6
Continuous
100
AcDbLine
 10
-159.309024
 20
231.0
 30
0.0
 11
-159.309024
 21
172.5
 31
0.0
  0
LINE
  5
35A
100
AcDbEntity
  8
0
370
    -3
  6
Continuous
100
AcDbLine
 10
-159.309024
 20
114.0
 30
0.0
 11
-159.309024
 21
172.5
 31
0.0
  0
LINE
  5
35B
100
AcDbEntity
  8
0
370
    -3
  6
Continuous
100
AcDbLine
 10
11.621156
 20
143.0
 30
0.0
 11
11.638611
 21
143.0
 31
0.0
  0
LINE
  5
35C
100
AcDbEntity
  8
0
370
    -3
  6
Continuous
100
AcDbLine
 10
-129.982164
 20
215.500152
 30
0.0
 11
-130.008958
 21
213.965095
 31
0.0
  0
LINE
  5
35D
100
AcDbEntity
  8
0
370
    -3
  6
Continuous
100
AcDbLine
 10
11.690976
 20
140.0
 30
0.0
 11
10.373116
 21
215.500152
 31
0.0
  0
LINE
  5
35E
100
AcDbEntity
  8
0
370
    -3
  6
Continuous
100
AcDbLine
 10
-132.008654
 20
212.0
 30
0.0
 11
-134.821951
 21
212.0
 31
0.0
  0
LINE
  5
35F
100
AcDbEntity
  8
0
370
    -3
  6
Continuous
100
AcDbLine
 10
-138.309024
 20
142.0
 30
0.0
 11
-133.291601
 21
142.0
 31
0.0
  0
LINE
  5
360
100
AcDbEntity
  8
0
370
    -3
  6
Continuous
100
AcDbLine
 10
-132.008654
 20
212.0
 30
0.0
 11
-138.309024
 21
212.0
 31
0.0
  0
LINE
  5
361
100
AcDbEntity
  8
0
370
    -3
  6
Continuous
100
AcDbLine
 10
-130.02906
 20
212.813458
 30
0.0
 11
-131.300024
 21
140.0
 31
0.0
  0
LINE
  5
362
100
AcDbEntity
  8
0
370
    -3
  6
CENTER
100
AcDbLine
 10
-36.309024
 20
111.991388
 30
0.0
 11
-36.309024
 21
231.59707
 31
0.0
  0
ARC
  5
363
100
AcDbEntity
  8
0
370
    -3
  6
Continuous
100
AcDbCircle
 10
-133.291601
 20
140.0
 30
0.0
 40
2.0
100
AcDbArc
 50
4.354184
 51
90.0
  0
ARC
  5
364
100
AcDbEntity
  8
0
370
    -3
  6
Continuous
100
AcDbCircle
 10
-132.008654
 20
214.0
 30
0.0
 40
2.0
100
AcDbArc
 50
270.0
 51
359.0
  0
ARC
  5
365
100
AcDbEntity
  8
0
370
    -3
  6
Continuous
100
AcDbCircle
 10
-132.008654
 20
214.0
 30
0.0
 40
2.0
100
AcDbArc
 50
270.0
 51
359.0
  0
LINE
  5
366
100
AcDbEntity
  8
0
370
    -3
  6
Continuous
100
AcDbLine
 10
-129.982164
 20
215.500152
 30
0.0
 11
-129.473515
 21
216.0
 31
0.0
  0
LINE
  5
367
100
AcDbEntity
  8
0
370
    -3
  6
Continuous
100
AcDbLine
 10
9.864467
 20
216.0
 30
0.0
 11
10.373116
 21
215.500152
 31
0.0
  0
LINE
  5
368
100
AcDbEntity
  8
0
370
    -3
  6
Continuous
100
AcDbLine
 10
-131.297374
 20
140.151843
 30
0.0
 11
-131.300024
 21
140.0
 31
0.0
  0
LINE
  5
369
100
AcDbEntity
  8
0
370
    -3
  6
Continuous
100
AcDbLine
 10
-153.309024
 20
229.0
 30
0.0
 11
-153.309024
 21
227.596307
 31
0.0
  0
LINE
  5
36A
100
AcDbEntity
  8
0
370
    -3
  6
Continuous
100
AcDbLine
 10
-153.309024
 20
115.929915
 30
0.0
 11
-153.309024
 21
117.403692
 31
0.0
  0
ARC
  5
36B
100
AcDbEntity
  8
0
370
    -3
  6
Continuous
100
AcDbCircle
 10
-150.309024
 20
208.501267
 30
0.0
 40
3.0
100
AcDbArc
 50
90.0
 51
180.0
  0
ARC
  5
36C
100
AcDbEntity
  8
0
370
    -3
  6
Continuous
100
AcDbCircle
 10
-150.309024
 20
214.684731
 30
0.0
 40
3.0
100
AcDbArc
 50
90.0
 51
180.0
  0
ARC
  5
36D
100
AcDbEntity
  8
0
370
    -3
  6
Continuous
100
AcDbCircle
 10
-150.309024
 20
227.596307
 30
0.0
 40
3.0
100
AcDbArc
 50
180.0
 51
270.0
  0
LINE
  5
36E
100
AcDbEntity
  8
0
370
    -3
  6
Continuous
100
AcDbLine
 10
-153.309024
 20
214.684731
 30
0.0
 11
-153.309024
 21
172.5
 31
0.0
  0
LINE
  5
36F
100
AcDbEntity
  8
0
370
    -3
  6
Continuous
100
AcDbLine
 10
-150.309024
 20
217.684731
 30
0.0
 11
-145.309024
 21
217.684731
 31
0.0
  0
LINE
  5
370
100
AcDbEntity
  8
0
370
    -3
  6
Continuous
100
AcDbLine
 10
-150.309024
 20
224.596307
 30
0.0
 11
-145.309024
 21
224.596307
 31
0.0
  0
LINE
  5
371
100
AcDbEntity
  8
0
370
    -3
  6
Continuous
100
AcDbLine
 10
-150.309024
 20
211.501267
 30
0.0
 11
-143.309024
 21
211.501267
 31
0.0
  0
ARC
  5
372
100
AcDbEntity
  8
0
370
    -3
  6
Continuous
100
AcDbCircle
 10
-145.309024
 20
219.596307
 30
0.0
 40
5.0
100
AcDbArc
 50
0.0
 51
90.0
  0
ARC
  5
373
100
AcDbEntity
  8
0
370
    -3
  6
Continuous
100
AcDbCircle
 10
-145.309024
 20
212.684731
 30
0.0
 40
5.0
100
AcDbArc
 50
0.0
 51
90.0
  0
ARC
  5
374
100
AcDbEntity
  8
0
370
    -3
  6
Continuous
100
AcDbCircle
 10
-143.309024
 20
208.501267
 30
0.0
 40
3.0
100
AcDbArc
 50
0.0
 51
90.0
  0
ARC
  5
375
100
AcDbEntity
  8
0
370
    -3
  6
Continuous
100
AcDbCircle
 10
-150.309024
 20
136.498733
 30
0.0
 40
3.0
100
AcDbArc
 50
180.0
 51
270.0
  0
ARC
  5
376
100
AcDbEntity
  8
0
370
    -3
  6
Continuous
100
AcDbCircle
 10
-150.309024
 20
117.403692
 30
0.0
 40
3.0
100
AcDbArc
 50
90.0
 51
180.0
  0
ARC
  5
377
100
AcDbEntity
  8
0
370
    -3
  6
Continuous
100
AcDbCircle
 10
-150.309024
 20
130.315269
 30
0.0
 40
3.0
100
AcDbArc
 50
180.0
 51
270.0
  0
LINE
  5
378
100
AcDbEntity
  8
0
370
    -3
  6
Continuous
100
AcDbLine
 10
-153.309024
 20
130.315269
 30
0.0
 11
-153.309024
 21
172.5
 31
0.0
  0
LINE
  5
379
100
AcDbEntity
  8
0
370
    -3
  6
Continuous
100
AcDbLine
 10
-150.309024
 20
133.498733
 30
0.0
 11
-143.309024
 21
133.498733
 31
0.0
  0
LINE
  5
37A
100
AcDbEntity
  8
0
370
    -3
  6
Continuous
100
AcDbLine
 10
-150.309024
 20
127.315269
 30
0.0
 11
-145.309024
 21
127.315269
 31
0.0
  0
LINE
  5
37B
100
AcDbEntity
  8
0
370
    -3
  6
Continuous
100
AcDbLine
 10
-150.309024
 20
120.403692
 30
0.0
 11
-145.309024
 21
120.403692
 31
0.0
  0
ARC
  5
37C
100
AcDbEntity
  8
0
370
    -3
  6
Continuous
100
AcDbCircle
 10
-145.309024
 20
132.315269
 30
0.0
 40
5.0
100
AcDbArc
 50
270.0
 51
0.0
  0
ARC
  5
37D
100
AcDbEntity
  8
0
370
    -3
  6
Continuous
100
AcDbCircle
 10
-145.309024
 20
125.403692
 30
0.0
 40
5.0
100
AcDbArc
 50
270.0
 51
0.0
  0
ARC
  5
37E
100
AcDbEntity
  8
0
370
    -3
  6
Continuous
100
AcDbCircle
 10
-143.309024
 20
136.498733
 30
0.0
 40
3.0
100
AcDbArc
 50
270.0
 51
0.0
  0
LINE
  5
37F
100
AcDbEntity
  8
0
370
    -3
  6
Continuous
100
AcDbLine
 10
-140.309024
 20
115.622581
 30
0.0
 11
-140.309024
 21
229.0
 31
0.0
  0
LINE
  5
380
100
AcDbEntity
  8
0
370
    -3
  6
Continuous
100
AcDbLine
 10
-143.309024
 20
232.0
 30
0.0
 11
-159.309024
 21
232.0
 31
0.0
  0
LINE
  5
381
100
AcDbEntity
  8
0
370
    -3
  6
Continuous
100
AcDbLine
 10
-159.309024
 20
113.0
 30
0.0
 11
-143.379927
 21
112.623419
 31
0.0
  0
ARC
  5
382
100
AcDbEntity
  8
0
370
    -3
  6
Continuous
100
AcDbCircle
 10
-143.309024
 20
229.0
 30
0.0
 40
3.0
100
AcDbArc
 50
0.0
 51
90.0
  0
ARC
  5
383
100
AcDbEntity
  8
0
370
    -3
  6
Continuous
100
AcDbCircle
 10
-143.309024
 20
115.622581
 30
0.0
 40
3.0
100
AcDbArc
 50
268.64572
 51
0.0
  0
LINE
  5
384
100
AcDbEntity
  8
0
370
    -3
  6
Continuous
100
AcDbLine
 10
-131.125743
 20
129.499848
 30
0.0
 11
-131.309024
 21
140.0
 31
0.0
  0
LINE
  5
385
100
AcDbEntity
  8
0
370
    -3
  6
Continuous
100
AcDbLine
 10
11.690976
 20
140.0
 30
0.0
 11
11.507695
 21
129.499848
 31
0.0
  0
LINE
  5
386
100
AcDbEntity
  8
0
370
    -3
  6
Continuous
100
AcDbLine
 10
11.507695
 20
129.499848
 30
0.0
 11
10.999046
 21
129.0
 31
0.0
  0
LINE
  5
387
100
AcDbEntity
  8
0
370
    -3
  6
Continuous
100
AcDbLine
 10
-130.617094
 20
129.0
 30
0.0
 11
-131.125743
 21
129.499848
 31
0.0
  0
LINE
  5
388
100
AcDbEntity
  8
0
370
    -3
  6
Continuous
100
AcDbLine
 10
-131.308752
 20
140.0
 30
0.0
 11
11.690976
 21
140.0
 31
0.0
  0
LINE
  5
389
100
AcDbEntity
  8
0
370
    -3
  6
Continuous
100
AcDbLine
 10
-36.309024
 20
220.0
 30
0.0
 11
-73.409024
 21
220.0
 31
0.0
  0
LINE
  5
38A
100
AcDbEntity
  8
0
370
    -3
  6
Continuous
100
AcDbLine
 10
-73.809024
 20
216.0
 30
0.0
 11
-73.809024
 21
219.6
 31
0.0
  0
LINE
  5
38B
100
AcDbEntity
  8
0
370
    -3
  6
Continuous
100
AcDbLine
 10
-73.809024
 20
219.6
 30
0.0
 11
-73.409024
 21
220.0
 31
0.0
  0
LINE
  5
38C
100
AcDbEntity
  8
0
370
    -3
  6
Continuous
100
AcDbLine
 10
1.190976
 20
219.6
 30
0.0
 11
0.790976
 21
220.0
 31
0.0
  0
LINE
  5
38D
100
AcDbEntity
  8
0
370
    -3
  6
Continuous
100
AcDbLine
 10
1.190976
 20
216.0
 30
0.0
 11
1.190976
 21
219.6
 31
0.0
  0
LINE
  5
38E
100
AcDbEntity
  8
0
370
    -3
  6
Continuous
100
AcDbLine
 10
-129.473515
 20
216.0
 30
0.0
 11
-36.309024
 21
216.0
 31
0.0
  0
LINE
  5
38F
100
AcDbEntity
  8
0
370
    -3
  6
Continuous
100
AcDbLine
 10
9.864467
 20
216.0
 30
0.0
 11
-36.309024
 21
216.0
 31
0.0
  0
LINE
  5
390
100
AcDbEntity
  8
0
370
    -3
  6
Continuous
100
AcDbLine
 10
-36.309024
 20
220.0
 30
0.0
 11
0.790976
 21
220.0
 31
0.0
  0
LINE
  5
391
100
AcDbEntity
  8
0
370
    -3
  6
Continuous
100
AcDbLine
 10
-153.309024
 20
152.5
 30
0.0
 11
-159.309024
 21
152.5
 31
0.0
  0
LINE
  5
392
100
AcDbEntity
  8
0
370
    -3
  6
Continuous
100
AcDbLine
 10
-153.309024
 20
192.5
 30
0.0
 11
-159.309024
 21
192.5
 31
0.0
  0
ARC
  5
393
100
AcDbEntity
  8
0
370
    -3
  6
Continuous
100
AcDbCircle
 10
-156.309024
 20
229.0
 30
0.0
 40
3.0
100
AcDbArc
 50
0.0
 51
90.0
  0
ARC
  5
394
100
AcDbEntity
  8
0
370
    -3
  6
Continuous
100
AcDbCircle
 10
-156.309024
 20
115.929915
 30
0.0
 40
3.0
100
AcDbArc
 50
268.64572
 51
0.0
  0
ARC
  5
395
100
AcDbEntity
  8
0
370
    -3
  6
Continuous
100
AcDbCircle
 10
-138.309024
 20
214.0
 30
0.0
 40
2.0
100
AcDbArc
 50
180.0
 51
270.0
  0
ARC
  5
396
100
AcDbEntity
  8
0
370
    -3
  6
Continuous
100
AcDbCircle
 10
-138.309024
 20
140.0
 30
0.0
 40
2.0
100
AcDbArc
 50
90.0
 51
180.0
  0
LINE
  5
397
100
AcDbEntity
  8
0
370
    -3
  6
Continuous
100
AcDbLine
 10
-37.309024
 20
144.0
 30
0.0
 11
-37.309024
 21
216.0
 31
0.0
  0
LINE
  5
398
100
AcDbEntity
  8
0
370
    -3
  6
Continuous
100
AcDbLine
 10
-35.309024
 20
144.0
 30
0.0
 11
-35.309024
 21
216.0
 31
0.0
  0
ARC
  5
399
100
AcDbEntity
  8
0
370
    -3
  6
Continuous
100
AcDbCircle
 10
-36.309024
 20
144.0
 30
0.0
 40
1.0
100
AcDbArc
 50
180.0
 51
0.0
  0
LINE
  5
39A
100
AcDbEntity
  8
0
370
    -3
  6
Continuous
100
AcDbLine
 10
-131.309024
 20
140.0
 30
0.0
 11
-36.309024
 21
140.0
 31
0.0
  0
LINE
  5
39B
100
AcDbEntity
  8
0
370
    -3
  6
Continuous
100
AcDbLine
 10
-73.409024
 20
125.0
 30
0.0
 11
0.790976
 21
125.0
 31
0.0
  0
LINE
  5
39C
100
AcDbEntity
  8
0
370
    -3
  6
Continuous
100
AcDbLine
 10
0.790976
 20
125.0
 30
0.0
 11
1.190976
 21
125.4
 31
0.0
  0
LINE
  5
39D
100
AcDbEntity
  8
0
370
    -3
  6
Continuous
100
AcDbLine
 10
10.999046
 20
129.0
 30
0.0
 11
-36.309024
 21
129.0
 31
0.0
  0
LINE
  5
39E
100
AcDbEntity
  8
0
370
    -3
  6
Continuous
100
AcDbLine
 10
1.190976
 20
125.4
 30
0.0
 11
1.190976
 21
129.0
 31
0.0
  0
LINE
  5
39F
100
AcDbEntity
  8
0
370
    -3
  6
Continuous
100
AcDbLine
 10
11.690976
 20
140.0
 30
0.0
 11
-36.309024
 21
140.0
 31
0.0
  0
LINE
  5
3A0
100
AcDbEntity
  8
0
370
    -3
  6
Continuous
100
AcDbLine
 10
-73.409024
 20
125.0
 30
0.0
 11
-73.809024
 21
125.4
 31
0.0
  0
LINE
  5
3A1
100
AcDbEntity
  8
0
370
    -3
  6
Continuous
100
AcDbLine
 10
-130.617094
 20
129.0
 30
0.0
 11
-36.309024
 21
129.0
 31
0.0
  0
LINE
  5
3A2
100
AcDbEntity
  8
0
370
    -3
  6
Continuous
100
AcDbLine
 10
-73.809024
 20
125.4
 30
0.0
 11
-73.809024
 21
129.0
 31
0.0
  0
LINE
  5
3A3
100
AcDbEntity
  8
0
370
    -3
  6
Continuous
100
AcDbLine
 10
-35.309024
 20
136.0
 30
0.0
 11
-35.309024
 21
129.0
 31
0.0
  0
LINE
  5
3A4
100
AcDbEntity
  8
0
370
    -3
  6
Continuous
100
AcDbLine
 10
-37.309024
 20
136.0
 30
0.0
 11
-37.309024
 21
129.0
 31
0.0
  0
ARC
  5
3A5
100
AcDbEntity
  8
0
370
    -3
  6
Continuous
100
AcDbCircle
 10
-36.309024
 20
136.0
 30
0.0
 40
1.0
100
AcDbArc
 50
0.0
 51
180.0
  0
LINE
  5
3A6
100
AcDbEntity
  8
0
370
    -3
  6
Continuous
100
AcDbLine
 10
-54.309024
 20
224.0
 30
0.0
 11
-18.309024
 21
224.0
 31
0.0
  0
LINE
  5
3A7
100
AcDbEntity
  8
0
370
    -3
  6
Continuous
100
AcDbLine
 10
-54.309024
 20
121.0
 30
0.0
 11
-18.309024
 21
121.0
 31
0.0
  0
LINE
  5
3A8
100
AcDbEntity
  8
0
370
    -3
  6
Continuous
100
AcDbLine
 10
-17.309024
 20
122.0
 30
0.0
 11
-17.309024
 21
125.0
 31
0.0
  0
LINE
  5
3A9
100
AcDbEntity
  8
0
370
    -3
  6
Continuous
100
AcDbLine
 10
-55.309024
 20
122.0
 30
0.0
 11
-55.309024
 21
125.0
 31
0.0
  0
ARC
  5
3AA
100
AcDbEntity
  8
0
370
    -3
  6
Continuous
100
AcDbCircle
 10
-54.309024
 20
223.0
 30
0.0
 40
1.0
100
AcDbArc
 50
90.0
 51
180.0
  0
ARC
  5
3AB
100
AcDbEntity
  8
0
370
    -3
  6
Continuous
100
AcDbCircle
 10
-18.309024
 20
223.0
 30
0.0
 40
1.0
100
AcDbArc
 50
0.0
 51
90.0
  0
ARC
  5
3AC
100
AcDbEntity
  8
0
370
    -3
  6
Continuous
100
AcDbCircle
 10
-54.309024
 20
122.0
 30
0.0
 40
1.0
100
AcDbArc
 50
180.0
 51
270.0
  0
ARC
  5
3AD
100
AcDbEntity
  8
0
370
    -3
  6
Continuous
100
AcDbCircle
 10
-18.309024
 20
122.0
 30
0.0
 40
1.0
100
AcDbArc
 50
270.0
 51
0.0
  0
LINE
  5
3AE
100
AcDbEntity
  8
0
370
    -3
  6
Continuous
100
AcDbLine
 10
-17.309024
 20
220.0
 30
0.0
 11
-17.309024
 21
223.0
 31
0.0
  0
LINE
  5
3AF
100
AcDbEntity
  8
0
370
    -3
  6
Continuous
100
AcDbLine
 10
-55.309024
 20
220.0
 30
0.0
 11
-55.309024
 21
223.0
 31
0.0
  0
LINE
  5
3B0
100
AcDbEntity
  8
0
370
    -3
  6
CENTER
100
AcDbLine
 10
-337.5
 20
172.5
 30
0.0
 11
18.962998
 21
172.5
 31
0.0
  0
LINE
  5
3B1
100
AcDbEntity
  8
0
370
    -3
  6
Continuous
100
AcDbLine
 10
-159.309024
 20
-143.887637
 30
0.0
 11
-159.309024
 21
-24.887637
 31
0.0
  0
CIRCLE
  5
3B2
100
AcDbEntity
  8
0
370
    -3
  6
Continuous
100
AcDbCircle
 10
61.690976
 20
-64.387637
 30
0.0
 40
19.0
  0
LINE
  5
3B3
100
AcDbEntity
  8
0
370
    -3
  6
CENTER
100
AcDbLine
 10
61.690976
 20
-34.160521
 30
0.0
 11
61.690976
 21
-93.168535
 31
0.0
  0
LINE
  5
3B4
100
AcDbEntity
  8
0
370
    -3
  6
Continuous
100
AcDbLine
 10
213.412608
 20
-76.887637
 30
0.0
 11
213.412608
 21
-51.887579
 31
0.0
  0
LINE
  5
3B5
100
AcDbEntity
  8
0
370
    -3
  6
Continuous
100
AcDbLine
 10
117.340608
 20
-76.887637
 30
0.0
 11
117.340608
 21
-51.887579
 31
0.0
  0
LINE
  5
3B6
100
AcDbEntity
  8
0
370
    -3
  6
Continuous
100
AcDbLine
 10
151.876608
 20
-77.087637
 30
0.0
 11
151.876608
 21
-51.687637
 31
0.0
  0
LINE
  5
3B7
100
AcDbEntity
  8
0
370
    -3
  6
Continuous
100
AcDbLine
 10
178.876608
 20
-77.087637
 30
0.0
 11
178.876608
 21
-51.687637
 31
0.0
  0
LINE
  5
3B8
100
AcDbEntity
  8
0
370
    -3
  6
Continuous
100
AcDbLine
 10
196.226608
 20
-77.487637
 30
0.0
 11
196.226608
 21
-51.287637
 31
0.0
  0
LINE
  5
3B9
100
AcDbEntity
  8
0
370
    -3
  6
Continuous
100
AcDbLine
 10
194.876608
 20
-77.487637
 30
0.0
 11
194.876608
 21
-51.287637
 31
0.0
  0
LINE
  5
3BA
100
AcDbEntity
  8
0
370
    -3
  6
Continuous
100
AcDbLine
 10
135.876608
 20
-77.487637
 30
0.0
 11
135.876608
 21
-51.287637
 31
0.0
  0
LINE
  5
3BB
100
AcDbEntity
  8
0
370
    -3
  6
Continuous
100
AcDbLine
 10
134.526608
 20
-77.487637
 30
0.0
 11
134.526608
 21
-51.287637
 31
0.0
  0
LINE
  5
3BC
100
AcDbEntity
  8
0
370
    -3
  6
Continuous
100
AcDbLine
 10
196.226608
 20
-77.487637
 30
0.0
 11
194.876608
 21
-77.487637
 31
0.0
  0
ARC
  5
3BD
100
AcDbEntity
  8
0
370
    -3
  6
Continuous
100
AcDbCircle
 10
114.876608
 20
-82.387637
 30
0.0
 40
1.0
100
AcDbArc
 50
180.0
 51
270.0
  0
LINE
  5
3BE
100
AcDbEntity
  8
0
370
    -3
  6
Continuous
100
AcDbLine
 10
114.876608
 20
-83.387637
 30
0.0
 11
130.476608
 21
-83.387637
 31
0.0
  0
ARC
  5
3BF
100
AcDbEntity
  8
0
370
    -3
  6
Continuous
100
AcDbCircle
 10
142.476582
 20
-84.787637
 30
0.0
 40
0.4
100
AcDbArc
 50
359.99993
 51
90.0
  0
LINE
  5
3C0
100
AcDbEntity
  8
0
370
    -3
  6
Continuous
100
AcDbLine
 10
131.276608
 20
-84.387637
 30
0.0
 11
142.476582
 21
-84.387637
 31
0.0
  0
LINE
  5
3C1
100
AcDbEntity
  8
0
370
    -3
  6
Continuous
100
AcDbLine
 10
142.87658
 20
-86.487637
 30
0.0
 11
142.876582
 21
-84.787638
 31
0.0
  0
LINE
  5
3C2
100
AcDbEntity
  8
0
370
    -3
  6
Continuous
100
AcDbLine
 10
173.476608
 20
-86.887637
 30
0.0
 11
143.27658
 21
-86.887637
 31
0.0
  0
ARC
  5
3C3
100
AcDbEntity
  8
0
370
    -3
  6
Continuous
100
AcDbCircle
 10
174.276608
 20
-85.037637
 30
0.0
 40
0.4
100
AcDbArc
 50
90.0
 51
180.0
  0
LINE
  5
3C4
100
AcDbEntity
  8
0
370
    -3
  6
Continuous
100
AcDbLine
 10
185.876608
 20
-84.637637
 30
0.0
 11
174.276608
 21
-84.637637
 31
0.0
  0
ARC
  5
3C5
100
AcDbEntity
  8
0
370
    -3
  6
Continuous
100
AcDbCircle
 10
143.27658
 20
-86.487637
 30
0.0
 40
0.4
100
AcDbArc
 50
179.99993
 51
270.0
  0
ARC
  5
3C6
100
AcDbEntity
  8
0
370
    -3
  6
Continuous
100
AcDbCircle
 10
173.476608
 20
-86.487637
 30
0.0
 40
0.4
100
AcDbArc
 50
270.0
 51
0.0
  0
ARC
  5
3C7
100
AcDbEntity
  8
0
370
    -3
  6
Continuous
100
AcDbCircle
 10
215.876608
 20
-82.387637
 30
0.0
 40
1.0
100
AcDbArc
 50
270.0
 51
0.0
  0
LINE
  5
3C8
100
AcDbEntity
  8
0
370
    -3
  6
Continuous
100
AcDbLine
 10
173.876608
 20
-86.487637
 30
0.0
 11
173.876608
 21
-85.037637
 31
0.0
  0
ARC
  5
3C9
100
AcDbEntity
  8
0
370
    -3
  6
Continuous
100
AcDbCircle
 10
200.276608
 20
-83.787637
 30
0.0
 40
0.4
100
AcDbArc
 50
90.0
 51
180.0
  0
ARC
  5
3CA
100
AcDbEntity
  8
0
370
    -3
  6
Continuous
100
AcDbCircle
 10
199.476608
 20
-83.987637
 30
0.0
 40
0.4
100
AcDbArc
 50
270.0
 51
0.0
  0
LINE
  5
3CB
100
AcDbEntity
  8
0
370
    -3
  6
Continuous
100
AcDbLine
 10
185.876608
 20
-84.637637
 30
0.0
 11
185.876608
 21
-84.387637
 31
0.0
  0
ARC
  5
3CC
100
AcDbEntity
  8
0
370
    -3
  6
Continuous
100
AcDbCircle
 10
131.276608
 20
-83.987637
 30
0.0
 40
0.4
100
AcDbArc
 50
180.0
 51
270.0
  0
ARC
  5
3CD
100
AcDbEntity
  8
0
370
    -3
  6
Continuous
100
AcDbCircle
 10
130.476608
 20
-83.787637
 30
0.0
 40
0.4
100
AcDbArc
 50
0.0
 51
90.0
  0
LINE
  5
3CE
100
AcDbEntity
  8
0
370
    -3
  6
Continuous
100
AcDbLine
 10
199.476608
 20
-84.387637
 30
0.0
 11
185.876608
 21
-84.387637
 31
0.0
  0
LINE
  5
3CF
100
AcDbEntity
  8
0
370
    -3
  6
Continuous
100
AcDbLine
 10
199.876608
 20
-83.787637
 30
0.0
 11
199.876608
 21
-83.987637
 31
0.0
  0
LINE
  5
3D0
100
AcDbEntity
  8
0
370
    -3
  6
Continuous
100
AcDbLine
 10
130.876608
 20
-83.787637
 30
0.0
 11
130.876608
 21
-83.987637
 31
0.0
  0
LINE
  5
3D1
100
AcDbEntity
  8
0
370
    -3
  6
Continuous
100
AcDbLine
 10
215.876608
 20
-83.387637
 30
0.0
 11
200.276608
 21
-83.387637
 31
0.0
  0
LINE
  5
3D2
100
AcDbEntity
  8
0
370
    -3
  6
Continuous
100
AcDbLine
 10
216.876608
 20
-78.887637
 30
0.0
 11
213.412506
 21
-76.887637
 31
0.0
  0
LINE
  5
3D3
100
AcDbEntity
  8
0
370
    -3
  6
Continuous
100
AcDbLine
 10
213.412608
 20
-76.887637
 30
0.0
 11
196.226608
 21
-76.887637
 31
0.0
  0
LINE
  5
3D4
100
AcDbEntity
  8
0
370
    -3
  6
Continuous
100
AcDbLine
 10
194.876608
 20
-76.887637
 30
0.0
 11
178.876608
 21
-76.887637
 31
0.0
  0
LINE
  5
3D5
100
AcDbEntity
  8
0
370
    -3
  6
Continuous
100
AcDbLine
 10
178.876608
 20
-77.087637
 30
0.0
 11
151.876608
 21
-77.087637
 31
0.0
  0
LINE
  5
3D6
100
AcDbEntity
  8
0
370
    -3
  6
Continuous
100
AcDbLine
 10
135.876608
 20
-76.887637
 30
0.0
 11
151.876608
 21
-76.887637
 31
0.0
  0
LINE
  5
3D7
100
AcDbEntity
  8
0
370
    -3
  6
Continuous
100
AcDbLine
 10
117.340709
 20
-76.887637
 30
0.0
 11
134.526608
 21
-76.887637
 31
0.0
  0
LINE
  5
3D8
100
AcDbEntity
  8
0
370
    -3
  6
Continuous
100
AcDbLine
 10
134.526608
 20
-77.487637
 30
0.0
 11
135.876608
 21
-77.487637
 31
0.0
  0
LINE
  5
3D9
100
AcDbEntity
  8
0
370
    -3
  6
Continuous
100
AcDbLine
 10
113.876608
 20
-78.887637
 30
0.0
 11
117.340709
 21
-76.887637
 31
0.0
  0
ARC
  5
3DA
100
AcDbEntity
  8
0
370
    -3
  6
Continuous
100
AcDbCircle
 10
142.476582
 20
-43.987637
 30
0.0
 40
0.4
100
AcDbArc
 50
270.0
 51
0.00007
  0
LINE
  5
3DB
100
AcDbEntity
  8
0
370
    -3
  6
Continuous
100
AcDbLine
 10
131.276608
 20
-44.387637
 30
0.0
 11
142.476582
 21
-44.387637
 31
0.0
  0
LINE
  5
3DC
100
AcDbEntity
  8
0
370
    -3
  6
Continuous
100
AcDbLine
 10
142.87658
 20
-42.287638
 30
0.0
 11
142.876582
 21
-43.987637
 31
0.0
  0
LINE
  5
3DD
100
AcDbEntity
  8
0
370
    -3
  6
Continuous
100
AcDbLine
 10
173.476608
 20
-41.887637
 30
0.0
 11
143.27658
 21
-41.887637
 31
0.0
  0
ARC
  5
3DE
100
AcDbEntity
  8
0
370
    -3
  6
Continuous
100
AcDbCircle
 10
174.276608
 20
-43.737637
 30
0.0
 40
0.4
100
AcDbArc
 50
180.0
 51
270.0
  0
LINE
  5
3DF
100
AcDbEntity
  8
0
370
    -3
  6
Continuous
100
AcDbLine
 10
185.876608
 20
-44.137637
 30
0.0
 11
174.276608
 21
-44.137637
 31
0.0
  0
ARC
  5
3E0
100
AcDbEntity
  8
0
370
    -3
  6
Continuous
100
AcDbCircle
 10
143.27658
 20
-42.287637
 30
0.0
 40
0.4
100
AcDbArc
 50
90.0
 51
180.00007
  0
ARC
  5
3E1
100
AcDbEntity
  8
0
370
    -3
  6
Continuous
100
AcDbCircle
 10
173.476608
 20
-42.287637
 30
0.0
 40
0.4
100
AcDbArc
 50
0.0
 51
90.0
  0
ARC
  5
3E2
100
AcDbEntity
  8
0
370
    -3
  6
Continuous
100
AcDbCircle
 10
215.876608
 20
-46.387637
 30
0.0
 40
1.0
100
AcDbArc
 50
0.0
 51
90.0
  0
ARC
  5
3E3
100
AcDbEntity
  8
0
370
    -3
  6
Continuous
100
AcDbCircle
 10
114.876608
 20
-46.387637
 30
0.0
 40
1.0
100
AcDbArc
 50
90.0
 51
180.0
  0
LINE
  5
3E4
100
AcDbEntity
  8
0
370
    -3
  6
Continuous
100
AcDbLine
 10
216.876608
 20
-49.887637
 30
0.0
 11
213.412506
 21
-51.887637
 31
0.0
  0
LINE
  5
3E5
100
AcDbEntity
  8
0
370
    -3
  6
Continuous
100
AcDbLine
 10
113.876608
 20
-49.887637
 30
0.0
 11
117.340709
 21
-51.887637
 31
0.0
  0
LINE
  5
3E6
100
AcDbEntity
  8
0
370
    -3
  6
Continuous
100
AcDbLine
 10
178.876608
 20
-51.687637
 30
0.0
 11
151.876608
 21
-51.687637
 31
0.0
  0
LINE
  5
3E7
100
AcDbEntity
  8
0
370
    -3
  6
Continuous
100
AcDbLine
 10
173.876608
 20
-42.287637
 30
0.0
 11
173.876608
 21
-43.737637
 31
0.0
  0
LINE
  5
3E8
100
AcDbEntity
  8
0
370
    -3
  6
Continuous
100
AcDbLine
 10
117.340709
 20
-51.887637
 30
0.0
 11
134.526608
 21
-51.887637
 31
0.0
  0
LINE
  5
3E9
100
AcDbEntity
  8
0
370
    -3
  6
Continuous
100
AcDbLine
 10
134.526608
 20
-51.287637
 30
0.0
 11
135.876608
 21
-51.287637
 31
0.0
  0
LINE
  5
3EA
100
AcDbEntity
  8
0
370
    -3
  6
Continuous
100
AcDbLine
 10
135.876608
 20
-51.887637
 30
0.0
 11
151.876608
 21
-51.887637
 31
0.0
  0
LINE
  5
3EB
100
AcDbEntity
  8
0
370
    -3
  6
Continuous
100
AcDbLine
 10
194.876608
 20
-51.887637
 30
0.0
 11
178.876608
 21
-51.887637
 31
0.0
  0
LINE
  5
3EC
100
AcDbEntity
  8
0
370
    -3
  6
Continuous
100
AcDbLine
 10
196.226608
 20
-51.287637
 30
0.0
 11
194.876608
 21
-51.287637
 31
0.0
  0
ARC
  5
3ED
100
AcDbEntity
  8
0
370
    -3
  6
Continuous
100
AcDbCircle
 10
200.276608
 20
-44.987637
 30
0.0
 40
0.4
100
AcDbArc
 50
180.0
 51
270.0
  0
ARC
  5
3EE
100
AcDbEntity
  8
0
370
    -3
  6
Continuous
100
AcDbCircle
 10
199.476608
 20
-44.787637
 30
0.0
 40
0.4
100
AcDbArc
 50
0.0
 51
90.0
  0
LINE
  5
3EF
100
AcDbEntity
  8
0
370
    -3
  6
Continuous
100
AcDbLine
 10
185.876608
 20
-44.137637
 30
0.0
 11
185.876608
 21
-44.387637
 31
0.0
  0
ARC
  5
3F0
100
AcDbEntity
  8
0
370
    -3
  6
Continuous
100
AcDbCircle
 10
131.276608
 20
-44.787637
 30
0.0
 40
0.4
100
AcDbArc
 50
90.0
 51
180.0
  0
ARC
  5
3F1
100
AcDbEntity
  8
0
370
    -3
  6
Continuous
100
AcDbCircle
 10
130.476608
 20
-44.987637
 30
0.0
 40
0.4
100
AcDbArc
 50
270.0
 51
0.0
  0
LINE
  5
3F2
100
AcDbEntity
  8
0
370
    -3
  6
Continuous
100
AcDbLine
 10
213.412608
 20
-51.887637
 30
0.0
 11
196.226608
 21
-51.887637
 31
0.0
  0
LINE
  5
3F3
100
AcDbEntity
  8
0
370
    -3
  6
Continuous
100
AcDbLine
 10
199.476608
 20
-44.387637
 30
0.0
 11
185.876608
 21
-44.387637
 31
0.0
  0
LINE
  5
3F4
100
AcDbEntity
  8
0
370
    -3
  6
Continuous
100
AcDbLine
 10
199.876608
 20
-44.987637
 30
0.0
 11
199.876608
 21
-44.787637
 31
0.0
  0
LINE
  5
3F5
100
AcDbEntity
  8
0
370
    -3
  6
Continuous
100
AcDbLine
 10
130.876608
 20
-44.987637
 30
0.0
 11
130.876608
 21
-44.787637
 31
0.0
  0
LINE
  5
3F6
100
AcDbEntity
  8
0
370
    -3
  6
Continuous
100
AcDbLine
 10
216.876608
 20
-82.387637
 30
0.0
 11
216.876608
 21
-46.387637
 31
0.0
  0
LINE
  5
3F7
100
AcDbEntity
  8
0
370
    -3
  6
Continuous
100
AcDbLine
 10
215.876608
 20
-45.387637
 30
0.0
 11
200.276608
 21
-45.387637
 31
0.0
  0
LINE
  5
3F8
100
AcDbEntity
  8
0
370
    -3
  6
Continuous
100
AcDbLine
 10
113.876608
 20
-82.387637
 30
0.0
 11
113.876608
 21
-46.387637
 31
0.0
  0
LINE
  5
3F9
100
AcDbEntity
  8
0
370
    -3
  6
Continuous
100
AcDbLine
 10
114.876608
 20
-45.387637
 30
0.0
 11
130.476608
 21
-45.387637
 31
0.0
  0
LINE
  5
3FA
100
AcDbEntity
  8
0
370
    -3
  6
Continuous
100
AcDbLine
 10
216.876608
 20
-48.587637
 30
0.0
 11
113.876608
 21
-48.587637
 31
0.0
  0
ARC
  5
3FB
100
AcDbEntity
  8
0
370
    -3
  6
Continuous
100
AcDbCircle
 10
61.690976
 20
-64.387637
 30
0.0
 40
12.5
100
AcDbArc
 50
108.662925
 51
71.337075
  0
LINE
  5
3FC
100
AcDbEntity
  8
0
370
    -3
  6
Continuous
100
AcDbLine
 10
65.690976
 20
-48.587637
 30
0.0
 11
65.690976
 21
-52.544918
 31
0.0
  0
LINE
  5
3FD
100
AcDbEntity
  8
0
370
    -3
  6
Continuous
100
AcDbLine
 10
57.690976
 20
-48.587637
 30
0.0
 11
57.690976
 21
-52.544918
 31
0.0
  0
LINE
  5
3FE
100
AcDbEntity
  8
0
370
    -3
  6
Continuous
100
AcDbLine
 10
57.690976
 20
-48.587637
 30
0.0
 11
65.690976
 21
-48.587637
 31
0.0
  0
ARC
  5
3FF
100
AcDbEntity
  8
0
370
    -3
  6
Continuous
100
AcDbCircle
 10
-156.309024
 20
-140.957722
 30
0.0
 40
3.0
100
AcDbArc
 50
268.64572
 51
0.0
  0
ARC
  5
400
100
AcDbEntity
  8
0
370
    -3
  6
Continuous
100
AcDbCircle
 10
-156.309024
 20
-27.887637
 30
0.0
 40
3.0
100
AcDbArc
 50
0.0
 51
90.0
  0
LINE
  5
401
100
AcDbEntity
  8
0
370
    -3
  6
Continuous
100
AcDbLine
 10
-153.309024
 20
-64.387637
 30
0.0
 11
-159.309024
 21
-64.387637
 31
0.0
  0
LINE
  5
402
100
AcDbEntity
  8
0
370
    -3
  6
Continuous
100
AcDbLine
 10
-153.309024
 20
-104.387637
 30
0.0
 11
-159.309024
 21
-104.387637
 31
0.0
  0
CIRCLE
  5
403
100
AcDbEntity
  8
0
370
    -3
  6
Continuous
100
AcDbCircle
 10
-36.309024
 20
-64.387637
 30
0.0
 40
37.5
  0
CIRCLE
  5
404
100
AcDbEntity
  8
0
370
    -3
  6
Continuous
100
AcDbCircle
 10
-36.309024
 20
-64.387637
 30
0.0
 40
25.0
  0
ARC
  5
405
100
AcDbEntity
  8
0
370
    -3
  6
Continuous
100
AcDbCircle
 10
-58.81104
 20
-26.137637
 30
0.0
 40
4.5
100
AcDbArc
 50
90.0
 51
180.924166
  0
ARC
  5
406
100
AcDbEntity
  8
0
370
    -3
  6
Continuous
100
AcDbCircle
 10
-58.81104
 20
-102.637637
 30
0.0
 40
4.5
100
AcDbArc
 50
179.075834
 51
270.0
  0
LINE
  5
407
100
AcDbEntity
  8
0
370
    -3
  6
CENTER
100
AcDbLine
 10
1.690976
 20
-16.387637
 30
0.0
 11
1.690976
 21
-36.387637
 31
0.0
  0
LINE
  5
408
100
AcDbEntity
  8
0
370
    -3
  6
CENTER
100
AcDbLine
 10
11.690976
 20
-26.387637
 30
0.0
 11
-8.309024
 21
-26.387637
 31
0.0
  0
LINE
  5
409
100
AcDbEntity
  8
0
370
    -3
  6
CENTER
100
AcDbLine
 10
1.690976
 20
-92.387637
 30
0.0
 11
1.690976
 21
-112.387637
 31
0.0
  0
LINE
  5
40A
100
AcDbEntity
  8
0
370
    -3
  6
CENTER
100
AcDbLine
 10
11.690976
 20
-102.387637
 30
0.0
 11
-8.309024
 21
-102.387637
 31
0.0
  0
LINE
  5
40B
100
AcDbEntity
  8
0
370
    -3
  6
CENTER
100
AcDbLine
 10
-121.309024
 20
-92.387637
 30
0.0
 11
-121.309024
 21
-112.387637
 31
0.0
  0
LINE
  5
40C
100
AcDbEntity
  8
0
370
    -3
  6
CENTER
100
AcDbLine
 10
-111.309024
 20
-102.387637
 30
0.0
 11
-131.309024
 21
-102.387637
 31
0.0
  0
LINE
  5
40D
100
AcDbEntity
  8
0
370
    -3
  6
CENTER
100
AcDbLine
 10
-121.309024
 20
-16.387637
 30
0.0
 11
-121.309024
 21
-36.387637
 31
0.0
  0
LINE
  5
40E
100
AcDbEntity
  8
0
370
    -3
  6
CENTER
100
AcDbLine
 10
-111.309024
 20
-26.387637
 30
0.0
 11
-131.309024
 21
-26.387637
 31
0.0
  0
INSERT
  5
41A
100
AcDbEntity
  8
0
100
AcDbBlockReference
  2
ZU_SYM__USERS_HOME_SYMBOL_POO_SYM_B20_-1
 10
-10.808751
 20
-22.387335
 30
0.0
  0
INSERT
  5
426
100
AcDbEntity
  8
0
100
AcDbBlockReference
  2
ZU_SYM__USERS_HOME_SYMBOL_POO_SYM_B20_00010-1
 10
-10.808751
 20
-106.38794
 30
0.0
  0
INSERT
  5
432
100
AcDbEntity
  8
0
100
AcDbBlockReference
  2
ZU_SYM__USERS_HOME_SYMBOL_POO_SYM_B20_00011-1
 10
-108.809024
 20
-106.387637
 30
0.0
  0
INSERT
  5
43E
100
AcDbEntity
  8
0
100
AcDbBlockReference
  2
ZU_SYM__USERS_HOME_SYMBOL_POO_SYM_B20_00012-1
 10
-108.809024
 20
-22.387637
 30
0.0
  0
CIRCLE
  5
43F
100
AcDbEntity
  8
0
370
    -3
  6
Continuous
100
AcDbCircle
 10
-36.309024
 20
-64.387637
 30
0.0
 40
19.0
  0
LINE
  5
440
100
AcDbEntity
  8
0
370
    -3
  6
Continuous
100
AcDbLine
 10
-153.309024
 20
-27.887637
 30
0.0
 11
-153.309024
 21
-29.29133
 31
0.0
  0
LINE
  5
441
100
AcDbEntity
  8
0
370
    -3
  6
Continuous
100
AcDbLine
 10
-153.309024
 20
-42.202906
 30
0.0
 11
-153.309024
 21
-84.387637
 31
0.0
  0
LINE
  5
442
100
AcDbEntity
  8
0
370
    -3
  6
Continuous
100
AcDbLine
 10
-153.309024
 20
-126.572368
 30
0.0
 11
-153.309024
 21
-84.387637
 31
0.0
  0
LINE
  5
443
100
AcDbEntity
  8
0
370
    -3
  6
Continuous
100
AcDbLine
 10
-153.309024
 20
-140.957722
 30
0.0
 11
-153.309024
 21
-139.483945
 31
0.0
  0
LINE
  5
444
100
AcDbEntity
  8
0
370
    -3
  6
Continuous
100
AcDbLine
 10
-140.309024
 20
-141.265056
 30
0.0
 11
-140.309024
 21
-27.887637
 31
0.0
  0
LINE
  5
445
100
AcDbEntity
  8
0
370
    -3
  6
Continuous
100
AcDbLine
 10
-135.787264
 20
-24.887637
 30
0.0
 11
-159.309024
 21
-24.887637
 31
0.0
  0
LINE
  5
446
100
AcDbEntity
  8
0
370
    -3
  6
Continuous
100
AcDbLine
 10
-131.309024
 20
-84.387637
 30
0.0
 11
-131.309024
 21
-105.387637
 31
0.0
  0
LINE
  5
447
100
AcDbEntity
  8
0
370
    -3
  6
Continuous
100
AcDbLine
 10
-131.309024
 20
-23.387637
 30
0.0
 11
-131.309024
 21
-84.387637
 31
0.0
  0
LINE
  5
448
100
AcDbEntity
  8
0
370
    -3
  6
Continuous
100
AcDbLine
 10
-124.309024
 20
-16.387637
 30
0.0
 11
4.690976
 21
-16.387637
 31
0.0
  0
LINE
  5
449
100
AcDbEntity
  8
0
370
    -3
  6
Continuous
100
AcDbLine
 10
11.690976
 20
-23.387637
 30
0.0
 11
11.690976
 21
-105.387637
 31
0.0
  0
LINE
  5
44A
100
AcDbEntity
  8
0
370
    -3
  6
Continuous
100
AcDbLine
 10
-137.309024
 20
-112.387637
 30
0.0
 11
4.690976
 21
-112.387637
 31
0.0
  0
LINE
  5
44B
100
AcDbEntity
  8
0
370
    -3
  6
Continuous
100
AcDbLine
 10
-159.309024
 20
-143.887637
 30
0.0
 11
-143.379927
 21
-144.264218
 31
0.0
  0
LINE
  5
44C
100
AcDbEntity
  8
0
370
    -3
  6
Continuous
100
AcDbLine
 10
-133.809024
 20
-115.390824
 30
0.0
 11
-137.309024
 21
-115.390824
 31
0.0
  0
ARC
  5
44D
100
AcDbEntity
  8
0
370
    -3
  6
Continuous
100
AcDbCircle
 10
-137.309024
 20
-115.387637
 30
0.0
 40
3.0
100
AcDbArc
 50
90.0
 51
180.0
  0
ARC
  5
44E
100
AcDbEntity
  8
0
370
    -3
  6
Continuous
100
AcDbCircle
 10
-143.309024
 20
-27.887637
 30
0.0
 40
3.0
100
AcDbArc
 50
0.0
 51
90.0
  0
ARC
  5
44F
100
AcDbEntity
  8
0
370
    -3
  6
Continuous
100
AcDbCircle
 10
-135.787264
 20
-19.887637
 30
0.0
 40
5.0
100
AcDbArc
 50
270.0
 51
343.042237
  0
ARC
  5
450
100
AcDbEntity
  8
0
370
    -3
  6
Continuous
100
AcDbCircle
 10
-124.309024
 20
-23.387637
 30
0.0
 40
7.0
100
AcDbArc
 50
90.0
 51
180.0
  0
ARC
  5
451
100
AcDbEntity
  8
0
370
    -3
  6
Continuous
100
AcDbCircle
 10
-133.809024
 20
-113.390824
 30
0.0
 40
2.0
100
AcDbArc
 50
270.0
 51
336.461659
  0
ARC
  5
452
100
AcDbEntity
  8
0
370
    -3
  6
Continuous
100
AcDbCircle
 10
-129.225059
 20
-115.387637
 30
0.0
 40
3.0
100
AcDbArc
 50
90.0
 51
156.461659
  0
ARC
  5
453
100
AcDbEntity
  8
0
370
    -3
  6
Continuous
100
AcDbCircle
 10
-137.309024
 20
-118.390824
 30
0.0
 40
3.0
100
AcDbArc
 50
90.0
 51
180.0
  0
ARC
  5
454
100
AcDbEntity
  8
0
370
    -3
  6
Continuous
100
AcDbCircle
 10
-143.309024
 20
-141.265056
 30
0.0
 40
3.0
100
AcDbArc
 50
268.64572
 51
0.0
  0
ARC
  5
455
100
AcDbEntity
  8
0
370
    -3
  6
Continuous
100
AcDbCircle
 10
-124.309024
 20
-105.387637
 30
0.0
 40
7.0
100
AcDbArc
 50
180.0
 51
270.0
  0
ARC
  5
456
100
AcDbEntity
  8
0
370
    -3
  6
Continuous
100
AcDbCircle
 10
-124.309024
 20
-105.387637
 30
0.0
 40
7.0
100
AcDbArc
 50
180.0
 51
270.0
  0
ARC
  5
457
100
AcDbEntity
  8
0
370
    -3
  6
Continuous
100
AcDbCircle
 10
4.690976
 20
-23.387637
 30
0.0
 40
7.0
100
AcDbArc
 50
0.0
 51
90.0
  0
ARC
  5
458
100
AcDbEntity
  8
0
370
    -3
  6
Continuous
100
AcDbCircle
 10
4.690976
 20
-105.387637
 30
0.0
 40
7.0
100
AcDbArc
 50
270.0
 51
0.0
  0
ARC
  5
459
100
AcDbEntity
  8
0
370
    -3
  6
Continuous
100
AcDbCircle
 10
4.690976
 20
-23.387637
 30
0.0
 40
7.0
100
AcDbArc
 50
0.0
 51
90.0
  0
POINT
  5
45A
100
AcDbEntity
  8
0
370
    -3
  6
Continuous
100
AcDbPoint
 10
-36.309024
 20
-64.387637
 30
0.0
  0
ARC
  5
45B
100
AcDbEntity
  8
0
370
    -3
  6
Continuous
100
AcDbCircle
 10
-150.309024
 20
-120.388904
 30
0.0
 40
3.0
100
AcDbArc
 50
180.0
 51
270.0
  0
ARC
  5
45C
100
AcDbEntity
  8
0
370
    -3
  6
Continuous
100
AcDbCircle
 10
-150.309024
 20
-48.38637
 30
0.0
 40
3.0
100
AcDbArc
 50
90.0
 51
180.0
  0
ARC
  5
45D
100
AcDbEntity
  8
0
370
    -3
  6
Continuous
100
AcDbCircle
 10
-150.309024
 20
-42.202906
 30
0.0
 40
3.0
100
AcDbArc
 50
90.0
 51
180.0
  0
ARC
  5
45E
100
AcDbEntity
  8
0
370
    -3
  6
Continuous
100
AcDbCircle
 10
-150.309024
 20
-29.29133
 30
0.0
 40
3.0
100
AcDbArc
 50
180.0
 51
270.0
  0
ARC
  5
45F
100
AcDbEntity
  8
0
370
    -3
  6
Continuous
100
AcDbCircle
 10
-150.309024
 20
-139.483945
 30
0.0
 40
3.0
100
AcDbArc
 50
90.0
 51
180.0
  0
ARC
  5
460
100
AcDbEntity
  8
0
370
    -3
  6
Continuous
100
AcDbCircle
 10
-150.309024
 20
-126.572368
 30
0.0
 40
3.0
100
AcDbArc
 50
180.0
 51
270.0
  0
LINE
  5
461
100
AcDbEntity
  8
0
370
    -3
  6
Continuous
100
AcDbLine
 10
-150.309024
 20
-39.202906
 30
0.0
 11
-145.309024
 21
-39.202906
 31
0.0
  0
LINE
  5
462
100
AcDbEntity
  8
0
370
    -3
  6
Continuous
100
AcDbLine
 10
-150.309024
 20
-32.29133
 30
0.0
 11
-145.309024
 21
-32.29133
 31
0.0
  0
LINE
  5
463
100
AcDbEntity
  8
0
370
    -3
  6
Continuous
100
AcDbLine
 10
-150.309024
 20
-45.38637
 30
0.0
 11
-143.309024
 21
-45.38637
 31
0.0
  0
LINE
  5
464
100
AcDbEntity
  8
0
370
    -3
  6
Continuous
100
AcDbLine
 10
-150.309024
 20
-123.388904
 30
0.0
 11
-143.309024
 21
-123.388904
 31
0.0
  0
LINE
  5
465
100
AcDbEntity
  8
0
370
    -3
  6
Continuous
100
AcDbLine
 10
-150.309024
 20
-129.572368
 30
0.0
 11
-145.309024
 21
-129.572368
 31
0.0
  0
LINE
  5
466
100
AcDbEntity
  8
0
370
    -3
  6
Continuous
100
AcDbLine
 10
-150.309024
 20
-136.483945
 30
0.0
 11
-145.309024
 21
-136.483945
 31
0.0
  0
ARC
  5
467
100
AcDbEntity
  8
0
370
    -3
  6
Continuous
100
AcDbCircle
 10
-145.309024
 20
-37.29133
 30
0.0
 40
5.0
100
AcDbArc
 50
360.0
 51
90.0
  0
ARC
  5
468
100
AcDbEntity
  8
0
370
    -3
  6
Continuous
100
AcDbCircle
 10
-145.309024
 20
-44.202906
 30
0.0
 40
5.0
100
AcDbArc
 50
360.0
 51
90.0
  0
ARC
  5
469
100
AcDbEntity
  8
0
370
    -3
  6
Continuous
100
AcDbCircle
 10
-145.309024
 20
-124.572368
 30
0.0
 40
5.0
100
AcDbArc
 50
270.0
 51
360.0
  0
ARC
  5
46A
100
AcDbEntity
  8
0
370
    -3
  6
Continuous
100
AcDbCircle
 10
-145.309024
 20
-131.483945
 30
0.0
 40
5.0
100
AcDbArc
 50
270.0
 51
360.0
  0
ARC
  5
46B
100
AcDbEntity
  8
0
370
    -3
  6
Continuous
100
AcDbCircle
 10
-143.309024
 20
-48.38637
 30
0.0
 40
3.0
100
AcDbArc
 50
360.0
 51
90.0
  0
ARC
  5
46C
100
AcDbEntity
  8
0
370
    -3
  6
Continuous
100
AcDbCircle
 10
-143.309024
 20
-120.388904
 30
0.0
 40
3.0
100
AcDbArc
 50
270.0
 51
360.0
  0
LINE
  5
46D
100
AcDbEntity
  8
0
370
    -3
  6
CENTER
100
AcDbLine
 10
15.853271
 20
-64.387637
 30
0.0
 11
-85.376334
 21
-64.387637
 31
0.0
  0
POINT
  5
46E
100
AcDbEntity
  8
0
370
    -3
  6
CENTER
100
AcDbPoint
 10
-36.308612
 20
-64.387637
 30
0.0
  0
LINE
  5
46F
100
AcDbEntity
  8
0
370
    -3
  6
CENTER
100
AcDbLine
 10
-36.309024
 20
-14.07202
 30
0.0
 11
-36.309024
 21
-115.531147
 31
0.0
  0
LINE
  5
470
100
AcDbEntity
  8
0
370
    -3
  6
Continuous
100
AcDbLine
 10
-124.309024
 20
-16.387637
 30
0.0
 11
4.690976
 21
-16.387637
 31
0.0
  0
ARC
  5
471
100
AcDbEntity
  8
0
370
    -3
  6
Continuous
100
AcDbCircle
 10
-124.309024
 20
-23.387637
 30
0.0
 40
7.0
100
AcDbArc
 50
90.0
 51
180.0
  0
ARC
  5
472
100
AcDbEntity
  8
0
370
    -3
  6
Continuous
100
AcDbCircle
 10
4.690976
 20
-23.387637
 30
0.0
 40
7.0
100
AcDbArc
 50
0.0
 51
90.0
  0
LINE
  5
473
100
AcDbEntity
  8
0
370
    -3
  6
Continuous
100
AcDbLine
 10
11.690976
 20
-23.387637
 30
0.0
 11
11.690976
 21
-105.387637
 31
0.0
  0
ARC
  5
474
100
AcDbEntity
  8
0
370
    -3
  6
Continuous
100
AcDbCircle
 10
4.690976
 20
-105.387637
 30
0.0
 40
7.0
100
AcDbArc
 50
270.0
 51
0.0
  0
ARC
  5
475
100
AcDbEntity
  8
0
370
    -3
  6
Continuous
100
AcDbCircle
 10
4.690976
 20
-23.387637
 30
0.0
 40
7.0
100
AcDbArc
 50
0.0
 51
90.0
  0
POINT
  5
476
100
AcDbEntity
  8
0
370
    -3
  6
Continuous
100
AcDbPoint
 10
-36.308612
 20
-64.387637
 30
0.0
  0
LINE
  5
477
100
AcDbEntity
  8
0
370
    -3
  6
CENTER
100
AcDbLine
 10
-3.808751
 20
-22.387335
 30
0.0
 11
-20.341318
 21
-22.387335
 31
0.0
  0
LINE
  5
478
100
AcDbEntity
  8
0
370
    -3
  6
CENTER
100
AcDbLine
 10
-10.808751
 20
-15.387335
 30
0.0
 11
-10.808751
 21
-29.387335
 31
0.0
  0
LINE
  5
479
100
AcDbEntity
  8
0
370
    -3
  6
CENTER
100
AcDbLine
 10
-115.809024
 20
-22.387637
 30
0.0
 11
-100.348549
 21
-22.387637
 31
0.0
  0
LINE
  5
47A
100
AcDbEntity
  8
0
370
    -3
  6
CENTER
100
AcDbLine
 10
-108.809024
 20
-29.387637
 30
0.0
 11
-108.809024
 21
-15.387637
 31
0.0
  0
LINE
  5
47B
100
AcDbEntity
  8
0
370
    -3
  6
CENTER
100
AcDbLine
 10
-18.216685
 20
-106.38794
 30
0.0
 11
-3.808751
 21
-106.38794
 31
0.0
  0
LINE
  5
47C
100
AcDbEntity
  8
0
370
    -3
  6
CENTER
100
AcDbLine
 10
-10.808751
 20
-113.38794
 30
0.0
 11
-10.808751
 21
-99.38794
 31
0.0
  0
ARC
  5
47D
100
AcDbEntity
  8
0
370
    -3
  6
Continuous
100
AcDbCircle
 10
-108.809024
 20
-106.387637
 30
0.0
 40
5.0
100
AcDbArc
 50
0.0
 51
180.0
  0
LINE
  5
47E
100
AcDbEntity
  8
0
370
    -3
  6
CENTER
100
AcDbLine
 10
-101.309024
 20
-106.387637
 30
0.0
 11
-116.309024
 21
-106.387637
 31
0.0
  0
LINE
  5
47F
100
AcDbEntity
  8
0
370
    -3
  6
CENTER
100
AcDbLine
 10
-108.809024
 20
-98.887637
 30
0.0
 11
-108.809024
 21
-113.887637
 31
0.0
  0
ARC
  5
480
100
AcDbEntity
  8
0
370
    -3
  6
Continuous
100
AcDbCircle
 10
-124.309024
 20
-105.387637
 30
0.0
 40
7.0
100
AcDbArc
 50
180.0
 51
270.0
  0
LINE
  5
481
100
AcDbEntity
  8
0
370
    -3
  6
Continuous
100
AcDbLine
 10
-124.309024
 20
-112.387637
 30
0.0
 11
4.690976
 21
-112.387637
 31
0.0
  0
LINE
  5
482
100
AcDbEntity
  8
0
370
    -3
  6
Continuous
100
AcDbLine
 10
-131.309024
 20
-23.387637
 30
0.0
 11
-131.309024
 21
-105.387637
 31
0.0
  0
ARC
  5
483
100
AcDbEntity
  8
0
370
    -3
  6
Continuous
100
AcDbCircle
 10
-124.309024
 20
-105.387637
 30
0.0
 40
7.0
100
AcDbArc
 50
180.0
 51
270.0
  0
ARC
  5
484
100
AcDbEntity
  8
0
370
    -3
  6
Continuous
100
AcDbCircle
 10
-108.809024
 20
-22.387637
 30
0.0
 40
5.0
100
AcDbArc
 50
180.0
 51
0.0
  0
ARC
  5
485
100
AcDbEntity
  8
0
370
    -3
  6
Continuous
100
AcDbCircle
 10
-10.808751
 20
-22.387335
 30
0.0
 40
5.0
100
AcDbArc
 50
180.0
 51
0.0
  0
ARC
  5
486
100
AcDbEntity
  8
0
370
    -3
  6
Continuous
100
AcDbCircle
 10
-10.808751
 20
-106.38794
 30
0.0
 40
5.0
100
AcDbArc
 50
0.0
 51
180.0
  0
ARC
  5
487
100
AcDbEntity
  8
0
370
    -3
  6
Continuous
100
AcDbCircle
 10
-38.041075
 20
-111.387637
 30
0.0
 40
1.0
100
AcDbArc
 50
270.0
 51
330.0
  0
ARC
  5
488
100
AcDbEntity
  8
0
370
    -3
  6
Continuous
100
AcDbCircle
 10
-36.309024
 20
-112.387637
 30
0.0
 40
1.0
100
AcDbArc
 50
30.0
 51
150.0
  0
ARC
  5
489
100
AcDbEntity
  8
0
370
    -3
  6
Continuous
100
AcDbCircle
 10
-34.576973
 20
-111.387637
 30
0.0
 40
1.0
100
AcDbArc
 50
210.0
 51
270.0
  0
ARC
  5
48A
100
AcDbEntity
  8
0
370
    -3
  6
Continuous
100
AcDbCircle
 10
10.690976
 20
-66.119688
 30
0.0
 40
1.0
100
AcDbArc
 50
0.0
 51
60.0
  0
ARC
  5
48B
100
AcDbEntity
  8
0
370
    -3
  6
Continuous
100
AcDbCircle
 10
11.690976
 20
-64.387637
 30
0.0
 40
1.0
100
AcDbArc
 50
120.0
 51
240.0
  0
ARC
  5
48C
100
AcDbEntity
  8
0
370
    -3
  6
Continuous
100
AcDbCircle
 10
10.690976
 20
-62.655587
 30
0.0
 40
1.0
100
AcDbArc
 50
300.0
 51
0.0
  0
ARC
  5
48D
100
AcDbEntity
  8
0
370
    -3
  6
Continuous
100
AcDbCircle
 10
-34.576973
 20
-17.387637
 30
0.0
 40
1.0
100
AcDbArc
 50
90.0
 51
150.0
  0
ARC
  5
48E
100
AcDbEntity
  8
0
370
    -3
  6
Continuous
100
AcDbCircle
 10
-36.309024
 20
-16.387637
 30
0.0
 40
1.0
100
AcDbArc
 50
210.0
 51
330.0
  0
ARC
  5
48F
100
AcDbEntity
  8
0
370
    -3
  6
Continuous
100
AcDbCircle
 10
-38.041075
 20
-17.387637
 30
0.0
 40
1.0
100
AcDbArc
 50
30.0
 51
90.0
  0
CIRCLE
  5
490
100
AcDbEntity
  8
0
370
    -3
  6
Continuous
100
AcDbCircle
 10
-36.309024
 20
-64.387637
 30
0.0
 40
39.25
  0
LINE
  5
491
100
AcDbEntity
  8
0
370
    -3
  6
Continuous
100
AcDbLine
 10
6.440976
 20
-79.722273
 30
0.0
 11
6.440976
 21
-42.819314
 31
0.0
  0
ARC
  5
492
100
AcDbEntity
  8
0
370
    -3
  6
Continuous
100
AcDbCircle
 10
0.190976
 20
-42.819314
 30
0.0
 40
6.25
100
AcDbArc
 50
0.0
 51
84.784091
  0
ARC
  5
493
100
AcDbEntity
  8
0
370
    -3
  6
Continuous
100
AcDbCircle
 10
1.690976
 20
-26.387637
 30
0.0
 40
10.25
100
AcDbArc
 50
212.751953
 51
264.784091
  0
ARC
  5
494
100
AcDbEntity
  8
0
370
    -3
  6
Continuous
100
AcDbCircle
 10
-12.185863
 20
-35.314189
 30
0.0
 40
6.25
100
AcDbArc
 50
32.751953
 51
83.919152
  0
ARC
  5
495
100
AcDbEntity
  8
0
370
    -3
  6
Continuous
100
AcDbCircle
 10
-10.808751
 20
-22.387335
 30
0.0
 40
6.75
100
AcDbArc
 50
205.030471
 51
263.919152
  0
ARC
  5
496
100
AcDbEntity
  8
0
370
    -3
  6
Continuous
100
AcDbCircle
 10
-22.587829
 20
-27.887637
 30
0.0
 40
6.25
100
AcDbArc
 50
25.030471
 51
90.0
  0
LINE
  5
497
100
AcDbEntity
  8
0
370
    -3
  6
Continuous
100
AcDbLine
 10
-22.587829
 20
-21.637637
 30
0.0
 11
-96.809024
 21
-21.637637
 31
0.0
  0
LINE
  5
498
100
AcDbEntity
  8
0
370
    -3
  6
Continuous
100
AcDbLine
 10
-96.809024
 20
-107.137637
 30
0.0
 11
-22.587829
 21
-107.137637
 31
0.0
  0
ARC
  5
499
100
AcDbEntity
  8
0
370
    -3
  6
Continuous
100
AcDbCircle
 10
-22.587829
 20
-100.887637
 30
0.0
 40
6.25
100
AcDbArc
 50
270.0
 51
334.969529
  0
ARC
  5
49A
100
AcDbEntity
  8
0
370
    -3
  6
Continuous
100
AcDbCircle
 10
-10.808751
 20
-106.38794
 30
0.0
 40
6.75
100
AcDbArc
 50
96.080848
 51
154.969529
  0
ARC
  5
49B
100
AcDbEntity
  8
0
370
    -3
  6
Continuous
100
AcDbCircle
 10
-12.185863
 20
-93.461085
 30
0.0
 40
6.25
100
AcDbArc
 50
276.080848
 51
327.248047
  0
ARC
  5
49C
100
AcDbEntity
  8
0
370
    -3
  6
Continuous
100
AcDbCircle
 10
1.690976
 20
-102.387637
 30
0.0
 40
10.25
100
AcDbArc
 50
117.891357
 51
147.248047
  0
ARC
  5
49D
100
AcDbEntity
  8
0
370
    -3
  6
Continuous
100
AcDbCircle
 10
-6.027666
 20
-87.80434
 30
0.0
 40
6.25
100
AcDbArc
 50
297.891357
 51
347.568351
  0
ARC
  5
49E
100
AcDbEntity
  8
0
370
    -3
  6
Continuous
100
AcDbCircle
 10
5.690976
 20
-90.387637
 30
0.0
 40
5.75
100
AcDbArc
 50
117.279613
 51
167.568351
  0
ARC
  5
49F
100
AcDbEntity
  8
0
370
    -3
  6
Continuous
100
AcDbCircle
 10
0.190976
 20
-79.722273
 30
0.0
 40
6.25
100
AcDbArc
 50
297.279613
 51
0.0
  0
LINE
  5
4A0
100
AcDbEntity
  8
0
370
    -3
  6
Continuous
100
AcDbLine
 10
-113.809024
 20
-111.987637
 30
0.0
 11
-113.809024
 21
-106.387637
 31
0.0
  0
LINE
  5
4A1
100
AcDbEntity
  8
0
370
    -3
  6
Continuous
100
AcDbLine
 10
-103.809024
 20
-111.987637
 30
0.0
 11
-103.809024
 21
-106.387637
 31
0.0
  0
LINE
  5
4A2
100
AcDbEntity
  8
0
370
    -3
  6
Continuous
100
AcDbLine
 10
-15.808751
 20
-111.987637
 30
0.0
 11
-15.808751
 21
-106.38794
 31
0.0
  0
LINE
  5
4A3
100
AcDbEntity
  8
0
370
    -3
  6
Continuous
100
AcDbLine
 10
-5.808751
 20
-111.987637
 30
0.0
 11
-5.808751
 21
-106.38794
 31
0.0
  0
LINE
  5
4A4
100
AcDbEntity
  8
0
370
    -3
  6
Continuous
100
AcDbLine
 10
-15.808751
 20
-22.387335
 30
0.0
 11
-15.808751
 21
-16.787637
 31
0.0
  0
LINE
  5
4A5
100
AcDbEntity
  8
0
370
    -3
  6
Continuous
100
AcDbLine
 10
-5.808751
 20
-22.387335
 30
0.0
 11
-5.808751
 21
-16.787637
 31
0.0
  0
LINE
  5
4A6
100
AcDbEntity
  8
0
370
    -3
  6
Continuous
100
AcDbLine
 10
-113.809024
 20
-22.387637
 30
0.0
 11
-113.809024
 21
-16.787637
 31
0.0
  0
LINE
  5
4A7
100
AcDbEntity
  8
0
370
    -3
  6
Continuous
100
AcDbLine
 10
-103.809024
 20
-22.387637
 30
0.0
 11
-103.809024
 21
-16.787637
 31
0.0
  0
ARC
  5
4A8
100
AcDbEntity
  8
0
370
    -3
  6
Continuous
100
AcDbCircle
 10
-74.309024
 20
-102.387637
 30
0.0
 40
11.0
100
AcDbArc
 50
359.075834
 51
88.151428
  0
ARC
  5
4A9
100
AcDbEntity
  8
0
370
    -3
  6
Continuous
100
AcDbCircle
 10
-73.809024
 20
-86.895704
 30
0.0
 40
4.5
100
AcDbArc
 50
180.0
 51
268.151428
  0
LINE
  5
4AA
100
AcDbEntity
  8
0
370
    -3
  6
Continuous
100
AcDbLine
 10
-78.309024
 20
-86.895704
 30
0.0
 11
-78.309024
 21
-41.879571
 31
0.0
  0
ARC
  5
4AB
100
AcDbEntity
  8
0
370
    -3
  6
Continuous
100
AcDbCircle
 10
-73.809024
 20
-41.879571
 30
0.0
 40
4.5
100
AcDbArc
 50
91.848572
 51
180.0
  0
ARC
  5
4AC
100
AcDbEntity
  8
0
370
    -3
  6
Continuous
100
AcDbCircle
 10
-74.309024
 20
-26.387637
 30
0.0
 40
11.0
100
AcDbArc
 50
271.848572
 51
0.924166
  0
LINE
  5
4AD
100
AcDbEntity
  8
0
370
    -3
  6
Continuous
100
AcDbLine
 10
-126.059024
 20
-49.296349
 30
0.0
 11
-126.059024
 21
-85.917968
 31
0.0
  0
ARC
  5
4AE
100
AcDbEntity
  8
0
370
    -3
  6
Continuous
100
AcDbCircle
 10
-125.309024
 20
-38.387637
 30
0.0
 40
6.25
100
AcDbArc
 50
294.624318
 51
347.568351
  0
ARC
  5
4AF
100
AcDbEntity
  8
0
370
    -3
  6
Continuous
100
AcDbCircle
 10
-113.590382
 20
-40.970935
 30
0.0
 40
5.75
100
AcDbArc
 50
117.891357
 51
167.568351
  0
ARC
  5
4B0
100
AcDbEntity
  8
0
370
    -3
  6
Continuous
100
AcDbCircle
 10
-121.309024
 20
-26.387637
 30
0.0
 40
10.75
100
AcDbArc
 50
297.891357
 51
327.246577
  0
ARC
  5
4B1
100
AcDbEntity
  8
0
370
    -3
  6
Continuous
100
AcDbCircle
 10
-107.432413
 20
-35.314545
 30
0.0
 40
5.75
100
AcDbArc
 50
96.078625
 51
147.246577
  0
ARC
  5
4B2
100
AcDbEntity
  8
0
370
    -3
  6
Continuous
100
AcDbCircle
 10
-108.809024
 20
-22.387637
 30
0.0
 40
7.25
100
AcDbArc
 50
276.078625
 51
337.380135
  0
ARC
  5
4B3
100
AcDbEntity
  8
0
370
    -3
  6
Continuous
100
AcDbCircle
 10
-96.809024
 20
-27.387637
 30
0.0
 40
5.75
100
AcDbArc
 50
90.0
 51
157.380135
  0
ARC
  5
4B4
100
AcDbEntity
  8
0
370
    -3
  6
Continuous
100
AcDbCircle
 10
-108.809024
 20
-106.387637
 30
0.0
 40
7.25
100
AcDbArc
 50
22.619865
 51
83.921375
  0
ARC
  5
4B5
100
AcDbEntity
  8
0
370
    -3
  6
Continuous
100
AcDbCircle
 10
-107.432413
 20
-93.46073
 30
0.0
 40
5.75
100
AcDbArc
 50
212.753423
 51
263.921375
  0
ARC
  5
4B6
100
AcDbEntity
  8
0
370
    -3
  6
Continuous
100
AcDbCircle
 10
-121.309024
 20
-102.387637
 30
0.0
 40
10.75
100
AcDbArc
 50
32.753423
 51
86.525399
  0
ARC
  5
4B7
100
AcDbEntity
  8
0
370
    -3
  6
Continuous
100
AcDbCircle
 10
-96.809024
 20
-101.387637
 30
0.0
 40
5.75
100
AcDbArc
 50
202.619865
 51
270.0
  0
ARC
  5
4B8
100
AcDbEntity
  8
0
370
    -3
  6
Continuous
100
AcDbCircle
 10
-120.309024
 20
-85.917968
 30
0.0
 40
5.75
100
AcDbArc
 50
180.0
 51
266.525399
  0
ARC
  5
4B9
100
AcDbEntity
  8
0
370
    -3
  6
Continuous
100
AcDbCircle
 10
-120.309024
 20
-49.296349
 30
0.0
 40
5.75
100
AcDbArc
 50
114.624318
 51
180.0
  0
LINE
  5
4BA
100
AcDbEntity
  8
0
370
    -3
  6
Continuous
100
AcDbLine
 10
-113.809024
 20
-111.987637
 30
0.0
 11
-114.209024
 21
-112.387637
 31
0.0
  0
LINE
  5
4BB
100
AcDbEntity
  8
0
370
    -3
  6
Continuous
100
AcDbLine
 10
-103.809024
 20
-111.987637
 30
0.0
 11
-103.409024
 21
-112.387637
 31
0.0
  0
LINE
  5
4BC
100
AcDbEntity
  8
0
370
    -3
  6
Continuous
100
AcDbLine
 10
-15.808751
 20
-111.987637
 30
0.0
 11
-16.208751
 21
-112.387637
 31
0.0
  0
LINE
  5
4BD
100
AcDbEntity
  8
0
370
    -3
  6
Continuous
100
AcDbLine
 10
-5.808751
 20
-111.987637
 30
0.0
 11
-5.408751
 21
-112.387637
 31
0.0
  0
LINE
  5
4BE
100
AcDbEntity
  8
0
370
    -3
  6
Continuous
100
AcDbLine
 10
-15.808751
 20
-16.787637
 30
0.0
 11
-16.208751
 21
-16.387637
 31
0.0
  0
LINE
  5
4BF
100
AcDbEntity
  8
0
370
    -3
  6
Continuous
100
AcDbLine
 10
-5.808751
 20
-16.787637
 30
0.0
 11
-5.408751
 21
-16.387637
 31
0.0
  0
LINE
  5
4C0
100
AcDbEntity
  8
0
370
    -3
  6
Continuous
100
AcDbLine
 10
-113.809024
 20
-16.787637
 30
0.0
 11
-114.209024
 21
-16.387637
 31
0.0
  0
LINE
  5
4C1
100
AcDbEntity
  8
0
370
    -3
  6
Continuous
100
AcDbLine
 10
-103.809024
 20
-16.787637
 30
0.0
 11
-103.409024
 21
-16.387637
 31
0.0
  0
ARC
  5
4C2
100
AcDbEntity
  8
0
370
    -3
  6
Continuous
100
AcDbCircle
 10
-36.309024
 20
-64.387637
 30
0.0
 40
12.5
100
AcDbArc
 50
108.662925
 51
71.337075
  0
LINE
  5
4C3
100
AcDbEntity
  8
0
370
    -3
  6
Continuous
100
AcDbLine
 10
-32.309024
 20
-48.587637
 30
0.0
 11
-32.309024
 21
-52.544918
 31
0.0
  0
LINE
  5
4C4
100
AcDbEntity
  8
0
370
    -3
  6
Continuous
100
AcDbLine
 10
-40.309024
 20
-48.587637
 30
0.0
 11
-32.309024
 21
-48.587637
 31
0.0
  0
LINE
  5
4C5
100
AcDbEntity
  8
0
370
    -3
  6
Continuous
100
AcDbLine
 10
-40.309024
 20
-48.587637
 30
0.0
 11
-40.309024
 21
-52.544918
 31
0.0
  0
LINE
  5
4C6
100
AcDbEntity
  8
0
370
    -3
  6
Continuous
100
AcDbLine
 10
-159.309024
 20
-24.882225
 30
0.0
 11
-159.309024
 21
-143.882225
 31
0.0
  0
LINE
  5
4C7
100
AcDbEntity
  8
0
370
    -3
  6
Continuous
100
AcDbLine
 10
-159.309024
 20
-24.882225
 30
0.0
 11
-159.309024
 21
-143.882225
 31
0.0
  0
LINE
  5
4C8
100
AcDbEntity
  8
0
370
    -3
  6
Continuous
100
AcDbLine
 10
-230.51623
 20
-143.882225
 30
0.0
 11
-159.309024
 21
-143.882225
 31
0.0
  0
LINE
  5
4C9
100
AcDbEntity
  8
0
370
    -3
  6
Continuous
100
AcDbLine
 10
-216.309024
 20
-24.882225
 30
0.0
 11
-159.309024
 21
-24.882225
 31
0.0
  0
LINE
  5
4CA
100
AcDbEntity
  8
0
370
    -3
  6
Continuous
100
AcDbLine
 10
-159.309024
 20
-24.882225
 30
0.0
 11
-159.309024
 21
-143.882225
 31
0.0
  0
LINE
  5
4CB
100
AcDbEntity
  8
0
370
    -3
  6
Continuous
100
AcDbLine
 10
-276.478171
 20
-143.882225
 30
0.0
 11
-238.139877
 21
-143.882225
 31
0.0
  0
CIRCLE
  5
4CC
100
AcDbEntity
  8
0
370
    -3
  6
Continuous
100
AcDbCircle
 10
1.690976
 20
-26.387637
 30
0.0
 40
5.0
  0
CIRCLE
  5
4CD
100
AcDbEntity
  8
0
370
    -3
  6
Continuous
100
AcDbCircle
 10
1.690976
 20
-26.387637
 30
0.0
 40
4.4
  0
CIRCLE
  5
4CE
100
AcDbEntity
  8
0
370
    -3
  6
Continuous
100
AcDbCircle
 10
1.690976
 20
-26.387637
 30
0.0
 40
7.0
  0
CIRCLE
  5
4CF
100
AcDbEntity
  8
0
370
    -3
  6
Continuous
100
AcDbCircle
 10
-121.309024
 20
-26.387637
 30
0.0
 40
5.0
  0
CIRCLE
  5
4D0
100
AcDbEntity
  8
0
370
    -3
  6
Continuous
100
AcDbCircle
 10
-121.309024
 20
-26.387637
 30
0.0
 40
4.4
  0
CIRCLE
  5
4D1
100
AcDbEntity
  8
0
370
    -3
  6
Continuous
100
AcDbCircle
 10
-121.309024
 20
-26.387637
 30
0.0
 40
7.0
  0
CIRCLE
  5
4D2
100
AcDbEntity
  8
0
370
    -3
  6
Continuous
100
AcDbCircle
 10
-121.309024
 20
-102.387637
 30
0.0
 40
5.0
  0
CIRCLE
  5
4D3
100
AcDbEntity
  8
0
370
    -3
  6
Continuous
100
AcDbCircle
 10
-121.309024
 20
-102.387637
 30
0.0
 40
4.4
  0
CIRCLE
  5
4D4
100
AcDbEntity
  8
0
370
    -3
  6
Continuous
100
AcDbCircle
 10
-121.309024
 20
-102.387637
 30
0.0
 40
7.0
  0
CIRCLE
  5
4D5
100
AcDbEntity
  8
0
370
    -3
  6
Continuous
100
AcDbCircle
 10
1.690976
 20
-102.387637
 30
0.0
 40
5.0
  0
CIRCLE
  5
4D6
100
AcDbEntity
  8
0
370
    -3
  6
Continuous
100
AcDbCircle
 10
1.690976
 20
-102.387637
 30
0.0
 40
4.4
  0
CIRCLE
  5
4D7
100
AcDbEntity
  8
0
370
    -3
  6
Continuous
100
AcDbCircle
 10
1.690976
 20
-102.387637
 30
0.0
 40
7.0
  0
LINE
  5
4D8
100
AcDbEntity
  8
0
370
    -3
  6
CENTER
100
AcDbLine
 10
221.610725
 20
-64.387637
 30
0.0
 11
106.218474
 21
-64.387637
 31
0.0
  0
LINE
  5
4D9
100
AcDbEntity
  8
0
370
    -3
  6
CENTER
100
AcDbLine
 10
88.041367
 20
-64.387637
 30
0.0
 11
35.782187
 21
-64.387637
 31
0.0
  0
MTEXT
  5
4DA
100
AcDbEntity
  8
0
370
    -3
  6
Continuous
100
AcDbMText
 10
-506.484802
 20
111.382088
 30
0.0
 40
15.0
 41
0.0
 71
     7
 72
     1
  1
\W0.43;DATE\W0.72; \W0.43;2011.12.29
  7
ZU_SHPTB00001
 11
1.0
 21
0.0
 31
0.0
 73
     1
 44
1.0
  0
LINE
  5
4DB
100
AcDbEntity
  8
0
370
    -3
  6
Continuous
100
AcDbLine
 10
321.234984
 20
-112.387637
 30
0.0
 11
321.234984
 21
-16.387637
 31
0.0
  0
LINE
  5
4DC
100
AcDbEntity
  8
0
370
    -3
  6
DASHED
100
AcDbLine
 10
321.234984
 20
-19.387637
 30
0.0
 11
321.234984
 21
-33.387637
 31
0.0
  0
LINE
  5
4DD
100
AcDbEntity
  8
0
370
    -3
  6
Continuous
100
AcDbLine
 10
310.234984
 20
-17.079567
 30
0.0
 11
310.234984
 21
-64.387637
 31
0.0
  0
LINE
  5
4DE
100
AcDbEntity
  8
0
370
    -3
  6
Continuous
100
AcDbLine
 10
310.734831
 20
-16.570918
 30
0.0
 11
310.234984
 21
-17.079567
 31
0.0
  0
LINE
  5
4DF
100
AcDbEntity
  8
0
370
    -3
  6
Continuous
100
AcDbLine
 10
321.234984
 20
-16.387637
 30
0.0
 11
310.734831
 21
-16.570918
 31
0.0
  0
LINE
  5
4E0
100
AcDbEntity
  8
0
370
    -3
  6
Continuous
100
AcDbLine
 10
306.234984
 20
-64.387637
 30
0.0
 11
306.234984
 21
-27.287637
 31
0.0
  0
LINE
  5
4E1
100
AcDbEntity
  8
0
370
    -3
  6
Continuous
100
AcDbLine
 10
306.234984
 20
-27.287637
 30
0.0
 11
306.634984
 21
-26.887637
 31
0.0
  0
LINE
  5
4E2
100
AcDbEntity
  8
0
370
    -3
  6
Continuous
100
AcDbLine
 10
306.634984
 20
-26.887637
 30
0.0
 11
310.234984
 21
-26.887637
 31
0.0
  0
ARC
  5
4E3
100
AcDbEntity
  8
0
370
    -3
  6
Continuous
100
AcDbCircle
 10
303.234984
 20
-46.387637
 30
0.0
 40
1.0
100
AcDbArc
 50
90.0
 51
180.0
  0
LINE
  5
4E4
100
AcDbEntity
  8
0
370
    -3
  6
Continuous
100
AcDbLine
 10
303.234984
 20
-45.387637
 30
0.0
 11
306.234984
 21
-45.387637
 31
0.0
  0
LINE
  5
4E5
100
AcDbEntity
  8
0
370
    -3
  6
Continuous
100
AcDbLine
 10
302.234984
 20
-46.387637
 30
0.0
 11
302.234984
 21
-82.387637
 31
0.0
  0
ARC
  5
4E6
100
AcDbEntity
  8
0
370
    -3
  6
Continuous
100
AcDbCircle
 10
303.234984
 20
-82.387637
 30
0.0
 40
1.0
100
AcDbArc
 50
180.0
 51
270.0
  0
LINE
  5
4E7
100
AcDbEntity
  8
0
370
    -3
  6
Continuous
100
AcDbLine
 10
303.234984
 20
-83.387637
 30
0.0
 11
306.234984
 21
-83.387637
 31
0.0
  0
LINE
  5
4E8
100
AcDbEntity
  8
0
370
    -3
  6
Continuous
100
AcDbLine
 10
310.234984
 20
-111.695708
 30
0.0
 11
310.234984
 21
-64.387637
 31
0.0
  0
LINE
  5
4E9
100
AcDbEntity
  8
0
370
    -3
  6
Continuous
100
AcDbLine
 10
306.234984
 20
-64.387637
 30
0.0
 11
306.234984
 21
-101.487637
 31
0.0
  0
LINE
  5
4EA
100
AcDbEntity
  8
0
370
    -3
  6
Continuous
100
AcDbLine
 10
306.234984
 20
-101.487637
 30
0.0
 11
306.634984
 21
-101.887637
 31
0.0
  0
LINE
  5
4EB
100
AcDbEntity
  8
0
370
    -3
  6
Continuous
100
AcDbLine
 10
306.634984
 20
-101.887637
 30
0.0
 11
310.234984
 21
-101.887637
 31
0.0
  0
LINE
  5
4EC
100
AcDbEntity
  8
0
370
    -3
  6
DASHED
100
AcDbLine
 10
321.234984
 20
-95.387637
 30
0.0
 11
321.234984
 21
-109.387637
 31
0.0
  0
LINE
  5
4ED
100
AcDbEntity
  8
0
370
    -3
  6
Continuous
100
AcDbLine
 10
310.734831
 20
-112.204356
 30
0.0
 11
310.234984
 21
-111.695708
 31
0.0
  0
LINE
  5
4EE
100
AcDbEntity
  8
0
370
    -3
  6
Continuous
100
AcDbLine
 10
321.234984
 20
-112.387637
 30
0.0
 11
310.734831
 21
-112.204356
 31
0.0
  0
LINE
  5
4EF
100
AcDbEntity
  8
0
370
    -3
  6
Continuous
100
AcDbLine
 10
321.234984
 20
-112.387637
 30
0.0
 11
397.234984
 21
-111.043597
 31
0.0
  0
LINE
  5
4F0
100
AcDbEntity
  8
0
370
    -3
  6
Continuous
100
AcDbLine
 10
397.234984
 20
-33.440901
 30
0.0
 11
397.234984
 21
-17.731677
 31
0.0
  0
LINE
  5
4F1
100
AcDbEntity
  8
0
370
    -3
  6
Continuous
100
AcDbLine
 10
321.234984
 20
-16.387637
 30
0.0
 11
397.234984
 21
-17.731677
 31
0.0
  0
LINE
  5
4F2
100
AcDbEntity
  8
0
370
    -3
  6
Continuous
100
AcDbLine
 10
401.234984
 20
-83.387637
 30
0.0
 11
404.234984
 21
-83.387637
 31
0.0
  0
ARC
  5
4F3
100
AcDbEntity
  8
0
370
    -3
  6
Continuous
100
AcDbCircle
 10
404.234984
 20
-82.387637
 30
0.0
 40
1.0
100
AcDbArc
 50
270.0
 51
0.0
  0
LINE
  5
4F4
100
AcDbEntity
  8
0
370
    -3
  6
Continuous
100
AcDbLine
 10
397.234984
 20
-111.043597
 30
0.0
 11
397.234984
 21
-33.440901
 31
0.0
  0
LINE
  5
4F5
100
AcDbEntity
  8
0
370
    -3
  6
Continuous
100
AcDbLine
 10
405.234984
 20
-82.387637
 30
0.0
 11
405.234984
 21
-46.387637
 31
0.0
  0
ARC
  5
4F6
100
AcDbEntity
  8
0
370
    -3
  6
Continuous
100
AcDbCircle
 10
404.234984
 20
-46.387637
 30
0.0
 40
1.0
100
AcDbArc
 50
0.0
 51
90.0
  0
LINE
  5
4F7
100
AcDbEntity
  8
0
370
    -3
  6
Continuous
100
AcDbLine
 10
401.234984
 20
-45.387637
 30
0.0
 11
404.234984
 21
-45.387637
 31
0.0
  0
LINE
  5
4F8
100
AcDbEntity
  8
0
370
    -3
  6
Continuous
100
AcDbLine
 10
401.234984
 20
-64.387637
 30
0.0
 11
401.234984
 21
-27.287637
 31
0.0
  0
LINE
  5
4F9
100
AcDbEntity
  8
0
370
    -3
  6
Continuous
100
AcDbLine
 10
401.234984
 20
-27.287637
 30
0.0
 11
400.834984
 21
-26.887637
 31
0.0
  0
LINE
  5
4FA
100
AcDbEntity
  8
0
370
    -3
  6
Continuous
100
AcDbLine
 10
400.834984
 20
-26.887637
 30
0.0
 11
397.234984
 21
-26.887637
 31
0.0
  0
LINE
  5
4FB
100
AcDbEntity
  8
0
370
    -3
  6
Continuous
100
AcDbLine
 10
401.234984
 20
-64.387637
 30
0.0
 11
401.234984
 21
-101.487637
 31
0.0
  0
LINE
  5
4FC
100
AcDbEntity
  8
0
370
    -3
  6
Continuous
100
AcDbLine
 10
401.234984
 20
-101.487637
 30
0.0
 11
400.834984
 21
-101.887637
 31
0.0
  0
LINE
  5
4FD
100
AcDbEntity
  8
0
370
    -3
  6
Continuous
100
AcDbLine
 10
400.834984
 20
-101.887637
 30
0.0
 11
397.234984
 21
-101.887637
 31
0.0
  0
LINE
  5
4FE
100
AcDbEntity
  8
0
370
    -3
  6
Continuous
100
AcDbLine
 10
325.234984
 20
-65.387637
 30
0.0
 11
397.234984
 21
-65.387637
 31
0.0
  0
ARC
  5
4FF
100
AcDbEntity
  8
0
370
    -3
  6
Continuous
100
AcDbCircle
 10
325.234984
 20
-64.387637
 30
0.0
 40
1.0
100
AcDbArc
 50
90.0
 51
270.0
  0
LINE
  5
500
100
AcDbEntity
  8
0
370
    -3
  6
Continuous
100
AcDbLine
 10
325.234984
 20
-63.387637
 30
0.0
 11
397.234984
 21
-63.387637
 31
0.0
  0
LINE
  5
501
100
AcDbEntity
  8
0
370
    -3
  6
Continuous
100
AcDbLine
 10
310.234984
 20
-65.387637
 30
0.0
 11
317.234984
 21
-65.387637
 31
0.0
  0
LINE
  5
502
100
AcDbEntity
  8
0
370
    -3
  6
Continuous
100
AcDbLine
 10
310.234984
 20
-63.387637
 30
0.0
 11
317.234984
 21
-63.387637
 31
0.0
  0
ARC
  5
503
100
AcDbEntity
  8
0
370
    -3
  6
Continuous
100
AcDbCircle
 10
317.234984
 20
-64.387637
 30
0.0
 40
1.0
100
AcDbArc
 50
270.0
 51
90.0
  0
ARC
  5
504
100
AcDbEntity
  8
0
370
    -3
  6
Continuous
100
AcDbCircle
 10
336.958539
 20
-115.104911
 30
0.0
 40
3.0
100
AcDbArc
 50
61.358544
 51
91.0
  0
ARC
  5
505
100
AcDbEntity
  8
0
370
    -3
  6
Continuous
100
AcDbCircle
 10
371.573226
 20
-114.500709
 30
0.0
 40
3.0
100
AcDbArc
 50
91.0
 51
120.641456
  0
ARC
  5
506
100
AcDbEntity
  8
0
370
    -3
  6
Continuous
100
AcDbCircle
 10
353.734984
 20
-84.387637
 30
0.0
 40
32.0
100
AcDbArc
 50
241.358544
 51
300.641456
  0
LINE
  5
507
100
AcDbEntity
  8
0
370
    -3
  6
CENTER
100
AcDbLine
 10
353.734984
 20
-211.508224
 30
0.0
 11
353.734984
 21
-10.444101
 31
0.0
  0
LINE
  5
508
100
AcDbEntity
  8
0
370
    -3
  6
CENTER
100
AcDbLine
 10
289.109375
 20
-84.387637
 30
0.0
 11
417.109157
 21
-84.387637
 31
0.0
  0
POINT
  5
509
100
AcDbEntity
  8
0
370
    -3
  6
Continuous
100
AcDbPoint
 10
399.125224
 20
-121.292597
 30
0.0
  0
POINT
  5
50A
100
AcDbEntity
  8
0
370
    -3
  6
Continuous
100
AcDbPoint
 10
302.161278
 20
-41.299214
 30
0.0
  0
POINT
  5
50B
100
AcDbEntity
  8
0
370
    -3
  6
Continuous
100
AcDbPoint
 10
302.161278
 20
-127.476061
 30
0.0
  0
ARC
  5
50C
100
AcDbEntity
  8
0
370
    -3
  6
Continuous
100
AcDbCircle
 10
304.764184
 20
-127.701583
 30
0.0
 40
2.0
100
AcDbArc
 50
135.0
 51
216.786789
  0
ARC
  5
50D
100
AcDbEntity
  8
0
370
    -3
  6
Continuous
100
AcDbCircle
 10
412.734984
 20
-64.887637
 30
0.0
 40
0.5
100
AcDbArc
 50
360.0
 51
90.0
  0
ARC
  5
50E
100
AcDbEntity
  8
0
370
    -3
  6
Continuous
100
AcDbCircle
 10
411.209983
 20
-63.887637
 30
0.0
 40
0.5
100
AcDbArc
 50
182.934025
 51
270.0
  0
ARC
  5
50F
100
AcDbEntity
  8
0
370
    -3
  6
Continuous
100
AcDbCircle
 10
411.209983
 20
-104.887637
 30
0.0
 40
0.5
100
AcDbArc
 50
90.0
 51
177.065975
  0
ARC
  5
510
100
AcDbEntity
  8
0
370
    -3
  6
Continuous
100
AcDbCircle
 10
403.117836
 20
-121.042567
 30
0.0
 40
3.0
100
AcDbArc
 50
143.414968
 51
225.0
  0
LINE
  5
511
100
AcDbEntity
  8
0
370
    -3
  6
Continuous
100
AcDbLine
 10
404.119997
 20
-126.287369
 30
0.0
 11
400.996515
 21
-123.163888
 31
0.0
  0
POINT
  5
512
100
AcDbEntity
  8
0
370
    -3
  6
Continuous
100
AcDbPoint
 10
405.308689
 20
-127.476061
 30
0.0
  0
ARC
  5
513
100
AcDbEntity
  8
0
370
    -3
  6
Continuous
100
AcDbCircle
 10
402.705783
 20
-127.701583
 30
0.0
 40
2.0
100
AcDbArc
 50
323.213211
 51
45.0
  0
POINT
  5
514
100
AcDbEntity
  8
0
370
    -3
  6
Continuous
100
AcDbPoint
 10
405.308689
 20
-41.299214
 30
0.0
  0
POINT
  5
515
100
AcDbEntity
  8
0
370
    -3
  6
Continuous
100
AcDbPoint
 10
405.308689
 20
-41.299214
 30
0.0
  0
ARC
  5
516
100
AcDbEntity
  8
0
370
    -3
  6
Continuous
100
AcDbCircle
 10
402.705783
 20
-41.073692
 30
0.0
 40
2.0
100
AcDbArc
 50
315.0
 51
36.786789
  0
ARC
  5
517
100
AcDbEntity
  8
0
370
    -3
  6
Continuous
100
AcDbCircle
 10
403.117836
 20
-121.042567
 30
0.0
 40
3.0
100
AcDbArc
 50
143.414968
 51
225.0
  0
LINE
  5
518
100
AcDbEntity
  8
0
370
    -3
  6
Continuous
100
AcDbLine
 10
404.119997
 20
-126.287369
 30
0.0
 11
400.996515
 21
-123.163888
 31
0.0
  0
POINT
  5
519
100
AcDbEntity
  8
0
370
    -3
  6
Continuous
100
AcDbPoint
 10
405.308689
 20
-127.476061
 30
0.0
  0
ARC
  5
51A
100
AcDbEntity
  8
0
370
    -3
  6
Continuous
100
AcDbCircle
 10
402.705783
 20
-127.701583
 30
0.0
 40
2.0
100
AcDbArc
 50
323.213211
 51
45.0
  0
ARC
  5
51B
100
AcDbEntity
  8
0
370
    -3
  6
Continuous
100
AcDbCircle
 10
304.352131
 20
-121.042567
 30
0.0
 40
3.0
100
AcDbArc
 50
315.0
 51
36.585032
  0
LINE
  5
51C
100
AcDbEntity
  8
0
370
    -3
  6
Continuous
100
AcDbLine
 10
303.34997
 20
-126.287369
 30
0.0
 11
306.473452
 21
-123.163888
 31
0.0
  0
POINT
  5
51D
100
AcDbEntity
  8
0
370
    -3
  6
Continuous
100
AcDbPoint
 10
302.161278
 20
-127.476061
 30
0.0
  0
ARC
  5
51E
100
AcDbEntity
  8
0
370
    -3
  6
Continuous
100
AcDbCircle
 10
304.764184
 20
-127.701583
 30
0.0
 40
2.0
100
AcDbArc
 50
135.0
 51
216.786789
  0
ARC
  5
51F
100
AcDbEntity
  8
0
370
    -3
  6
Continuous
100
AcDbCircle
 10
304.764184
 20
-41.073692
 30
0.0
 40
2.0
100
AcDbArc
 50
143.213211
 51
225.0
  0
POINT
  5
520
100
AcDbEntity
  8
0
370
    -3
  6
Continuous
100
AcDbPoint
 10
302.161278
 20
-41.299214
 30
0.0
  0
LINE
  5
521
100
AcDbEntity
  8
0
370
    -3
  6
Continuous
100
AcDbLine
 10
294.234984
 20
-84.387637
 30
0.0
 11
294.234984
 21
-103.887637
 31
0.0
  0
ARC
  5
522
100
AcDbEntity
  8
0
370
    -3
  6
Continuous
100
AcDbCircle
 10
294.734984
 20
-103.887637
 30
0.0
 40
0.5
100
AcDbArc
 50
180.0
 51
270.0
  0
LINE
  5
523
100
AcDbEntity
  8
0
370
    -3
  6
Continuous
100
AcDbLine
 10
294.734984
 20
-104.387637
 30
0.0
 11
296.259984
 21
-104.387637
 31
0.0
  0
ARC
  5
524
100
AcDbEntity
  8
0
370
    -3
  6
Continuous
100
AcDbCircle
 10
296.259984
 20
-104.887637
 30
0.0
 40
0.5
100
AcDbArc
 50
2.934025
 51
90.0
  0
ARC
  5
525
100
AcDbEntity
  8
0
370
    -3
  6
Continuous
100
AcDbCircle
 10
696.234984
 20
-84.387637
 30
0.0
 40
400.0
100
AcDbArc
 50
182.934025
 51
184.114345
  0
ARC
  5
526
100
AcDbEntity
  8
0
370
    -3
  6
Continuous
100
AcDbCircle
 10
327.188529
 20
-110.934092
 30
0.0
 40
30.0
100
AcDbArc
 50
184.114345
 51
265.885655
  0
LINE
  5
527
100
AcDbEntity
  8
0
370
    -3
  6
Continuous
100
AcDbLine
 10
413.234984
 20
-84.387637
 30
0.0
 11
413.234984
 21
-103.887637
 31
0.0
  0
ARC
  5
528
100
AcDbEntity
  8
0
370
    -3
  6
Continuous
100
AcDbCircle
 10
412.734984
 20
-103.887637
 30
0.0
 40
0.5
100
AcDbArc
 50
270.0
 51
0.0
  0
LINE
  5
529
100
AcDbEntity
  8
0
370
    -3
  6
Continuous
100
AcDbLine
 10
412.734984
 20
-104.387637
 30
0.0
 11
411.209983
 21
-104.387637
 31
0.0
  0
ARC
  5
52A
100
AcDbEntity
  8
0
370
    -3
  6
Continuous
100
AcDbCircle
 10
411.209983
 20
-104.887637
 30
0.0
 40
0.5
100
AcDbArc
 50
90.0
 51
177.065975
  0
ARC
  5
52B
100
AcDbEntity
  8
0
370
    -3
  6
Continuous
100
AcDbCircle
 10
11.234984
 20
-84.387637
 30
0.0
 40
400.0
100
AcDbArc
 50
355.885655
 51
357.065975
  0
ARC
  5
52C
100
AcDbEntity
  8
0
370
    -3
  6
Continuous
100
AcDbCircle
 10
380.281438
 20
-110.934092
 30
0.0
 40
30.0
100
AcDbArc
 50
274.114345
 51
355.885655
  0
LINE
  5
52D
100
AcDbEntity
  8
0
370
    -3
  6
Continuous
100
AcDbLine
 10
413.234984
 20
-84.387637
 30
0.0
 11
413.234984
 21
-64.887637
 31
0.0
  0
ARC
  5
52E
100
AcDbEntity
  8
0
370
    -3
  6
Continuous
100
AcDbCircle
 10
412.734984
 20
-64.887637
 30
0.0
 40
0.5
100
AcDbArc
 50
360.0
 51
90.0
  0
LINE
  5
52F
100
AcDbEntity
  8
0
370
    -3
  6
Continuous
100
AcDbLine
 10
412.734984
 20
-64.387637
 30
0.0
 11
411.209983
 21
-64.387637
 31
0.0
  0
ARC
  5
530
100
AcDbEntity
  8
0
370
    -3
  6
Continuous
100
AcDbCircle
 10
411.209983
 20
-63.887637
 30
0.0
 40
0.5
100
AcDbArc
 50
182.934025
 51
270.0
  0
ARC
  5
531
100
AcDbEntity
  8
0
370
    -3
  6
Continuous
100
AcDbCircle
 10
11.234984
 20
-84.387637
 30
0.0
 40
400.0
100
AcDbArc
 50
2.934025
 51
4.114345
  0
ARC
  5
532
100
AcDbEntity
  8
0
370
    -3
  6
Continuous
100
AcDbCircle
 10
296.259984
 20
-63.887637
 30
0.0
 40
0.5
100
AcDbArc
 50
270.0
 51
357.065975
  0
ARC
  5
533
100
AcDbEntity
  8
0
370
    -3
  6
Continuous
100
AcDbCircle
 10
294.734984
 20
-64.887637
 30
0.0
 40
0.5
100
AcDbArc
 50
90.0
 51
180.0
  0
ARC
  5
534
100
AcDbEntity
  8
0
370
    -3
  6
Continuous
100
AcDbCircle
 10
696.234984
 20
-84.387637
 30
0.0
 40
400.0
100
AcDbArc
 50
175.885655
 51
177.065975
  0
LINE
  5
535
100
AcDbEntity
  8
0
370
    -3
  6
Continuous
100
AcDbLine
 10
294.734984
 20
-64.387637
 30
0.0
 11
296.259984
 21
-64.387637
 31
0.0
  0
LINE
  5
536
100
AcDbEntity
  8
0
370
    -3
  6
Continuous
100
AcDbLine
 10
294.234984
 20
-84.387637
 30
0.0
 11
294.234984
 21
-64.887637
 31
0.0
  0
LINE
  5
537
100
AcDbEntity
  8
0
370
    -3
  6
CENTER
100
AcDbLine
 10
399.197052
 20
-26.387637
 30
0.0
 11
307.659014
 21
-26.387637
 31
0.0
  0
LINE
  5
538
100
AcDbEntity
  8
0
370
    -3
  6
CENTER
100
AcDbLine
 10
398.664854
 20
-102.387637
 30
0.0
 11
308.72341
 21
-102.387637
 31
0.0
  0
ARC
  5
539
100
AcDbEntity
  8
0
370
    -3
  6
Continuous
100
AcDbCircle
 10
380.281438
 20
-57.841183
 30
0.0
 40
30.0
100
AcDbArc
 50
4.114345
 51
45.6971
  0
ARC
  5
53A
100
AcDbEntity
  8
0
370
    -3
  6
Continuous
100
AcDbCircle
 10
327.188529
 20
-57.841183
 30
0.0
 40
30.0
100
AcDbArc
 50
134.3029
 51
175.885655
  0
LINE
  5
53B
100
AcDbEntity
  8
0
370
    -3
  6
Continuous
100
AcDbLine
 10
303.34997
 20
-42.487905
 30
0.0
 11
306.234984
 21
-45.372919
 31
0.0
  0
LINE
  5
53C
100
AcDbEntity
  8
0
370
    -3
  6
Continuous
100
AcDbLine
 10
404.119997
 20
-42.487905
 30
0.0
 11
401.234984
 21
-45.372919
 31
0.0
  0
ARC
  5
53D
100
AcDbEntity
  8
0
370
    -3
  6
Continuous
100
AcDbCircle
 10
353.734984
 20
-84.387637
 30
0.0
 40
58.5
100
AcDbArc
 50
151.683632
 51
28.316368
  0
LINE
  5
53E
100
AcDbEntity
  8
0
370
    -3
  6
CENTER
100
AcDbLine
 10
414.715435
 20
-64.387637
 30
0.0
 11
291.70615
 21
-64.387637
 31
0.0
  0
LINE
  5
53F
100
AcDbEntity
  8
0
370
    -3
  6
Continuous
100
AcDbLine
 10
309.175503
 20
-134.399741
 30
0.0
 11
321.265877
 21
-134.610779
 31
0.0
  0
ARC
  5
540
100
AcDbEntity
  8
0
370
    -3
  6
Continuous
100
AcDbCircle
 10
321.091353
 20
-144.609256
 30
0.0
 40
10.0
100
AcDbArc
 50
61.539724
 51
89.0
  0
POINT
  5
541
100
AcDbEntity
  8
0
370
    -3
  6
Continuous
100
AcDbPoint
 10
308.48208
 20
-134.387637
 30
0.0
  0
ARC
  5
542
100
AcDbEntity
  8
0
370
    -3
  6
Continuous
100
AcDbCircle
 10
309.210408
 20
-132.400046
 30
0.0
 40
2.0
100
AcDbArc
 50
230.053222
 51
269.0
  0
ARC
  5
543
100
AcDbEntity
  8
0
370
    -3
  6
Continuous
100
AcDbCircle
 10
333.234984
 20
-141.862637
 30
0.0
 40
0.5
100
AcDbArc
 50
71.804841
 51
87.065975
  0
ARC
  5
544
100
AcDbEntity
  8
0
370
    -3
  6
Continuous
100
AcDbCircle
 10
386.378614
 20
-144.609256
 30
0.0
 40
10.0
100
AcDbArc
 50
91.0
 51
118.460276
  0
ARC
  5
545
100
AcDbEntity
  8
0
370
    -3
  6
Continuous
100
AcDbCircle
 10
374.234984
 20
-141.862637
 30
0.0
 40
0.5
100
AcDbArc
 50
92.934025
 51
108.195159
  0
ARC
  5
546
100
AcDbEntity
  8
0
370
    -3
  6
Continuous
100
AcDbCircle
 10
398.259559
 20
-132.400046
 30
0.0
 40
2.0
100
AcDbArc
 50
271.0
 51
309.946778
  0
LINE
  5
547
100
AcDbEntity
  8
0
370
    -3
  6
Continuous
100
AcDbLine
 10
398.294464
 20
-134.399741
 30
0.0
 11
386.20409
 21
-134.610779
 31
0.0
  0
POINT
  5
548
100
AcDbEntity
  8
0
370
    -3
  6
Continuous
100
AcDbPoint
 10
396.823407
 20
-135.961342
 30
0.0
  0
POINT
  5
549
100
AcDbEntity
  8
0
370
    -3
  6
Continuous
100
AcDbPoint
 10
396.823407
 20
-135.961342
 30
0.0
  0
POINT
  5
54A
100
AcDbEntity
  8
0
370
    -3
  6
Continuous
100
AcDbPoint
 10
398.987887
 20
-134.387637
 30
0.0
  0
LINE
  5
54B
100
AcDbEntity
  8
0
370
    -3
  6
DASHED
100
AcDbLine
 10
343.234984
 20
-97.387637
 30
0.0
 11
321.234984
 21
-97.387637
 31
0.0
  0
LINE
  5
54C
100
AcDbEntity
  8
0
370
    -3
  6
DASHED
100
AcDbLine
 10
343.234984
 20
-107.387637
 30
0.0
 11
321.234984
 21
-107.387637
 31
0.0
  0
LINE
  5
54D
100
AcDbEntity
  8
0
370
    -3
  6
DASHED
100
AcDbLine
 10
386.234984
 20
-97.387637
 30
0.0
 11
364.234984
 21
-97.387637
 31
0.0
  0
LINE
  5
54E
100
AcDbEntity
  8
0
370
    -3
  6
DASHED
100
AcDbLine
 10
386.234984
 20
-107.387637
 30
0.0
 11
364.234984
 21
-107.387637
 31
0.0
  0
LINE
  5
54F
100
AcDbEntity
  8
0
370
    -3
  6
DASHED
100
AcDbLine
 10
386.234984
 20
-109.387637
 30
0.0
 11
397.234984
 21
-109.387637
 31
0.0
  0
LINE
  5
550
100
AcDbEntity
  8
0
370
    -3
  6
DASHED
100
AcDbLine
 10
386.234984
 20
-95.387637
 30
0.0
 11
397.234984
 21
-95.387637
 31
0.0
  0
LINE
  5
551
100
AcDbEntity
  8
0
370
    -3
  6
DASHED
100
AcDbLine
 10
386.234984
 20
-95.387637
 30
0.0
 11
386.234984
 21
-109.387637
 31
0.0
  0
LINE
  5
552
100
AcDbEntity
  8
0
370
    -3
  6
DASHED
100
AcDbLine
 10
364.234984
 20
-97.387637
 30
0.0
 11
364.234984
 21
-107.387637
 31
0.0
  0
LINE
  5
553
100
AcDbEntity
  8
0
370
    -3
  6
DASHED
100
AcDbLine
 10
343.234984
 20
-97.387637
 30
0.0
 11
343.234984
 21
-107.387637
 31
0.0
  0
LINE
  5
554
100
AcDbEntity
  8
0
370
    -3
  6
DASHED
100
AcDbLine
 10
386.234984
 20
-106.787637
 30
0.0
 11
321.234984
 21
-106.787637
 31
0.0
  0
LINE
  5
555
100
AcDbEntity
  8
0
370
    -3
  6
DASHED
100
AcDbLine
 10
386.234984
 20
-97.987637
 30
0.0
 11
321.234984
 21
-97.987637
 31
0.0
  0
LINE
  5
556
100
AcDbEntity
  8
0
370
    -3
  6
DASHED
100
AcDbLine
 10
321.234984
 20
-109.387637
 30
0.0
 11
310.234984
 21
-109.387637
 31
0.0
  0
LINE
  5
557
100
AcDbEntity
  8
0
370
    -3
  6
DASHED
100
AcDbLine
 10
321.234984
 20
-95.387637
 30
0.0
 11
310.234984
 21
-95.387637
 31
0.0
  0
LINE
  5
558
100
AcDbEntity
  8
0
370
    -3
  6
DASHED
100
AcDbLine
 10
321.234984
 20
-95.387637
 30
0.0
 11
321.234984
 21
-109.387637
 31
0.0
  0
LINE
  5
559
100
AcDbEntity
  8
0
370
    -3
  6
DASHED
100
AcDbLine
 10
343.234984
 20
-21.387637
 30
0.0
 11
321.234984
 21
-21.387637
 31
0.0
  0
LINE
  5
55A
100
AcDbEntity
  8
0
370
    -3
  6
DASHED
100
AcDbLine
 10
343.234984
 20
-31.387637
 30
0.0
 11
321.234984
 21
-31.387637
 31
0.0
  0
LINE
  5
55B
100
AcDbEntity
  8
0
370
    -3
  6
DASHED
100
AcDbLine
 10
386.234984
 20
-21.387637
 30
0.0
 11
364.234984
 21
-21.387637
 31
0.0
  0
LINE
  5
55C
100
AcDbEntity
  8
0
370
    -3
  6
DASHED
100
AcDbLine
 10
386.234984
 20
-31.387637
 30
0.0
 11
364.234984
 21
-31.387637
 31
0.0
  0
LINE
  5
55D
100
AcDbEntity
  8
0
370
    -3
  6
DASHED
100
AcDbLine
 10
386.234984
 20
-33.387637
 30
0.0
 11
397.234984
 21
-33.387637
 31
0.0
  0
LINE
  5
55E
100
AcDbEntity
  8
0
370
    -3
  6
DASHED
100
AcDbLine
 10
386.234984
 20
-19.387637
 30
0.0
 11
397.234984
 21
-19.387637
 31
0.0
  0
LINE
  5
55F
100
AcDbEntity
  8
0
370
    -3
  6
DASHED
100
AcDbLine
 10
386.234984
 20
-19.387637
 30
0.0
 11
386.234984
 21
-33.387637
 31
0.0
  0
LINE
  5
560
100
AcDbEntity
  8
0
370
    -3
  6
DASHED
100
AcDbLine
 10
364.234984
 20
-21.387637
 30
0.0
 11
364.234984
 21
-31.387637
 31
0.0
  0
LINE
  5
561
100
AcDbEntity
  8
0
370
    -3
  6
DASHED
100
AcDbLine
 10
343.234984
 20
-21.387637
 30
0.0
 11
343.234984
 21
-31.387637
 31
0.0
  0
LINE
  5
562
100
AcDbEntity
  8
0
370
    -3
  6
DASHED
100
AcDbLine
 10
386.234984
 20
-30.787637
 30
0.0
 11
321.234984
 21
-30.787637
 31
0.0
  0
LINE
  5
563
100
AcDbEntity
  8
0
370
    -3
  6
DASHED
100
AcDbLine
 10
386.234984
 20
-21.987637
 30
0.0
 11
321.234984
 21
-21.987637
 31
0.0
  0
LINE
  5
564
100
AcDbEntity
  8
0
370
    -3
  6
DASHED
100
AcDbLine
 10
321.234984
 20
-33.387637
 30
0.0
 11
310.234984
 21
-33.387637
 31
0.0
  0
LINE
  5
565
100
AcDbEntity
  8
0
370
    -3
  6
DASHED
100
AcDbLine
 10
321.234984
 20
-19.387637
 30
0.0
 11
310.234984
 21
-19.387637
 31
0.0
  0
LINE
  5
566
100
AcDbEntity
  8
0
370
    -3
  6
DASHED
100
AcDbLine
 10
321.234984
 20
-19.387637
 30
0.0
 11
321.234984
 21
-33.387637
 31
0.0
  0
ARC
  5
567
100
AcDbEntity
  8
0
370
    -3
  6
Continuous
100
AcDbCircle
 10
374.234984
 20
-141.862637
 30
0.0
 40
0.5
100
AcDbArc
 50
92.934025
 51
180.0
  0
ARC
  5
568
100
AcDbEntity
  8
0
370
    -3
  6
Continuous
100
AcDbCircle
 10
374.234984
 20
-141.862637
 30
0.0
 40
0.5
100
AcDbArc
 50
92.934025
 51
180.0
  0
ARC
  5
569
100
AcDbEntity
  8
0
370
    -3
  6
Continuous
100
AcDbCircle
 10
353.734984
 20
258.112363
 30
0.0
 40
400.0
100
AcDbArc
 50
272.934025
 51
274.114345
  0
LINE
  5
56A
100
AcDbEntity
  8
0
370
    -3
  6
Continuous
100
AcDbLine
 10
373.734984
 20
-143.387637
 30
0.0
 11
373.734984
 21
-141.862637
 31
0.0
  0
LINE
  5
56B
100
AcDbEntity
  8
0
370
    -3
  6
Continuous
100
AcDbLine
 10
373.734984
 20
-143.387637
 30
0.0
 11
373.734984
 21
-141.862637
 31
0.0
  0
ARC
  5
56C
100
AcDbEntity
  8
0
370
    -3
  6
Continuous
100
AcDbCircle
 10
373.234984
 20
-143.387637
 30
0.0
 40
0.5
100
AcDbArc
 50
270.0
 51
0.0
  0
ARC
  5
56D
100
AcDbEntity
  8
0
370
    -3
  6
Continuous
100
AcDbCircle
 10
373.234984
 20
-143.387637
 30
0.0
 40
0.5
100
AcDbArc
 50
270.0
 51
0.0
  0
LINE
  5
56E
100
AcDbEntity
  8
0
370
    -3
  6
Continuous
100
AcDbLine
 10
353.734984
 20
-143.887637
 30
0.0
 11
373.234984
 21
-143.887637
 31
0.0
  0
LINE
  5
56F
100
AcDbEntity
  8
0
370
    -3
  6
Continuous
100
AcDbLine
 10
353.734984
 20
-143.887637
 30
0.0
 11
373.234984
 21
-143.887637
 31
0.0
  0
ARC
  5
570
100
AcDbEntity
  8
0
370
    -3
  6
Continuous
100
AcDbCircle
 10
353.734984
 20
258.112363
 30
0.0
 40
400.0
100
AcDbArc
 50
265.885655
 51
267.065975
  0
ARC
  5
571
100
AcDbEntity
  8
0
370
    -3
  6
Continuous
100
AcDbCircle
 10
334.234984
 20
-143.387637
 30
0.0
 40
0.5
100
AcDbArc
 50
180.0
 51
270.0
  0
ARC
  5
572
100
AcDbEntity
  8
0
370
    -3
  6
Continuous
100
AcDbCircle
 10
333.234984
 20
-141.862637
 30
0.0
 40
0.5
100
AcDbArc
 50
0.0
 51
87.065975
  0
LINE
  5
573
100
AcDbEntity
  8
0
370
    -3
  6
Continuous
100
AcDbLine
 10
353.734984
 20
-143.887637
 30
0.0
 11
334.234984
 21
-143.887637
 31
0.0
  0
LINE
  5
574
100
AcDbEntity
  8
0
370
    -3
  6
Continuous
100
AcDbLine
 10
333.734984
 20
-143.387637
 30
0.0
 11
333.734984
 21
-141.862637
 31
0.0
  0
LINE
  5
575
100
AcDbEntity
  8
0
370
    -3
  6
Continuous
100
AcDbLine
 10
318.234984
 20
-153.387637
 30
0.0
 11
389.234984
 21
-153.387637
 31
0.0
  0
ARC
  5
576
100
AcDbEntity
  8
0
370
    -3
  6
Continuous
100
AcDbCircle
 10
325.734984
 20
-153.387637
 30
0.0
 40
1.0
100
AcDbArc
 50
90.0
 51
180.0
  0
LINE
  5
577
100
AcDbEntity
  8
0
370
    -3
  6
Continuous
100
AcDbLine
 10
384.734984
 20
-152.387637
 30
0.0
 11
322.734984
 21
-152.387637
 31
0.0
  0
LINE
  5
578
100
AcDbEntity
  8
0
370
    -3
  6
Continuous
100
AcDbLine
 10
322.734984
 20
-151.387637
 30
0.0
 11
322.734984
 21
-152.387637
 31
0.0
  0
LINE
  5
579
100
AcDbEntity
  8
0
370
    -3
  6
Continuous
100
AcDbLine
 10
384.734984
 20
-151.387637
 30
0.0
 11
322.734984
 21
-151.387637
 31
0.0
  0
LINE
  5
57A
100
AcDbEntity
  8
0
370
    -3
  6
Continuous
100
AcDbLine
 10
384.734984
 20
-151.387637
 30
0.0
 11
384.734984
 21
-152.387637
 31
0.0
  0
LINE
  5
57B
100
AcDbEntity
  8
0
370
    -3
  6
Continuous
100
AcDbLine
 10
325.734984
 20
-152.387637
 30
0.0
 11
381.734984
 21
-152.387637
 31
0.0
  0
ARC
  5
57C
100
AcDbEntity
  8
0
370
    -3
  6
Continuous
100
AcDbCircle
 10
381.734984
 20
-153.387637
 30
0.0
 40
1.0
100
AcDbArc
 50
0.0
 51
90.0
  0
ARC
  5
57D
100
AcDbEntity
  8
0
370
    -3
  6
Continuous
100
AcDbCircle
 10
389.234984
 20
-157.187637
 30
0.0
 40
3.8
100
AcDbArc
 50
51.247352
 51
90.0
  0
ARC
  5
57E
100
AcDbEntity
  8
0
370
    -3
  6
Continuous
100
AcDbCircle
 10
318.234984
 20
-157.187637
 30
0.0
 40
3.8
100
AcDbArc
 50
90.0
 51
126.757251
  0
LINE
  5
57F
100
AcDbEntity
  8
0
370
    -3
  6
Continuous
100
AcDbLine
 10
316.236165
 20
-203.858786
 30
0.0
 11
391.233802
 21
-203.858786
 31
0.0
  0
ARC
  5
580
100
AcDbEntity
  8
0
370
    -3
  6
Continuous
100
AcDbCircle
 10
314.734984
 20
-196.058786
 30
0.0
 40
7.8
100
AcDbArc
 50
180.0
 51
241.87484
  0
ELLIPSE
  5
581
100
AcDbEntity
  8
0
370
    -3
  6
Continuous
100
AcDbEllipse
 10
314.234984
 20
-201.973377
 30
0.0
 11
3.5
 21
0.0
 31
0.0
210
0.0
220
0.0
230
1.0
 40
0.656603
 41
0.0
 42
6.2831853071795862
  0
LINE
  5
582
100
AcDbEntity
  8
0
370
    -3
  6
Continuous
100
AcDbLine
 10
312.644967
 20
-204.020658
 30
0.0
 11
314.234984
 21
-203.510831
 31
0.0
  0
LINE
  5
583
100
AcDbEntity
  8
0
370
    -3
  6
Continuous
100
AcDbLine
 10
314.234984
 20
-203.510831
 30
0.0
 11
312.234984
 21
-202.461643
 31
0.0
  0
LINE
  5
584
100
AcDbEntity
  8
0
370
    -3
  6
Continuous
100
AcDbLine
 10
314.234984
 20
-203.510831
 30
0.0
 11
316.234984
 21
-202.461643
 31
0.0
  0
LINE
  5
585
100
AcDbEntity
  8
0
370
    -3
  6
Continuous
100
AcDbLine
 10
315.825
 20
-204.020658
 30
0.0
 11
314.234984
 21
-203.510831
 31
0.0
  0
LINE
  5
586
100
AcDbEntity
  8
0
370
    -3
  6
Continuous
100
AcDbLine
 10
312.644967
 20
-165.562396
 30
0.0
 11
314.234984
 21
-165.052569
 31
0.0
  0
LINE
  5
587
100
AcDbEntity
  8
0
370
    -3
  6
Continuous
100
AcDbLine
 10
315.825
 20
-165.562396
 30
0.0
 11
314.234984
 21
-165.052569
 31
0.0
  0
LINE
  5
588
100
AcDbEntity
  8
0
370
    -3
  6
Continuous
100
AcDbLine
 10
314.234984
 20
-165.052569
 30
0.0
 11
316.234984
 21
-164.003381
 31
0.0
  0
LINE
  5
589
100
AcDbEntity
  8
0
370
    -3
  6
Continuous
100
AcDbLine
 10
314.234984
 20
-165.052569
 30
0.0
 11
312.234984
 21
-164.003381
 31
0.0
  0
ELLIPSE
  5
58A
100
AcDbEntity
  8
0
370
    -3
  6
Continuous
100
AcDbEllipse
 10
314.234984
 20
-163.515115
 30
0.0
 11
3.5
 21
0.0
 31
0.0
210
0.0
220
0.0
230
1.0
 40
0.656603
 41
0.0
 42
6.2831853071795862
  0
ARC
  5
58B
100
AcDbEntity
  8
0
370
    -3
  6
Continuous
100
AcDbCircle
 10
318.984984
 20
-170.694528
 30
0.0
 40
3.8
100
AcDbArc
 50
113.227672
 51
180.0
  0
LINE
  5
58C
100
AcDbEntity
  8
0
370
    -3
  6
Continuous
100
AcDbLine
 10
315.184984
 20
-170.694528
 30
0.0
 11
315.184984
 21
-195.205164
 31
0.0
  0
ARC
  5
58D
100
AcDbEntity
  8
0
370
    -3
  6
Continuous
100
AcDbCircle
 10
328.179653
 20
-166.748429
 30
0.0
 40
3.8
100
AcDbArc
 50
90.0
 51
113.227672
  0
LINE
  5
58E
100
AcDbEntity
  8
0
370
    -3
  6
Continuous
100
AcDbLine
 10
328.179653
 20
-162.948429
 30
0.0
 11
379.290314
 21
-162.948429
 31
0.0
  0
LINE
  5
58F
100
AcDbEntity
  8
0
370
    -3
  6
Continuous
100
AcDbLine
 10
317.486318
 20
-167.202537
 30
0.0
 11
326.680987
 21
-163.256438
 31
0.0
  0
ARC
  5
590
100
AcDbEntity
  8
0
370
    -3
  6
Continuous
100
AcDbCircle
 10
379.290314
 20
-166.748429
 30
0.0
 40
3.8
100
AcDbArc
 50
66.772328
 51
90.0
  0
LINE
  5
591
100
AcDbEntity
  8
0
370
    -3
  6
Continuous
100
AcDbLine
 10
389.98365
 20
-167.202537
 30
0.0
 11
380.78898
 21
-163.256438
 31
0.0
  0
ARC
  5
592
100
AcDbEntity
  8
0
370
    -3
  6
Continuous
100
AcDbCircle
 10
314.734984
 20
-161.943161
 30
0.0
 40
7.8
100
AcDbArc
 50
90.0
 51
180.0
  0
LINE
  5
593
100
AcDbEntity
  8
0
370
    -3
  6
Continuous
100
AcDbLine
 10
314.734984
 20
-154.143161
 30
0.0
 11
392.734984
 21
-154.143161
 31
0.0
  0
LINE
  5
594
100
AcDbEntity
  8
0
370
    -3
  6
Continuous
100
AcDbLine
 10
306.934984
 20
-196.058786
 30
0.0
 11
306.934984
 21
-161.943161
 31
0.0
  0
LINE
  5
595
100
AcDbEntity
  8
0
370
    -3
  6
Continuous
100
AcDbLine
 10
392.734984
 20
-159.399746
 30
0.0
 11
314.734984
 21
-159.399746
 31
0.0
  0
ARC
  5
596
100
AcDbEntity
  8
0
370
    -3
  6
Continuous
100
AcDbCircle
 10
314.734984
 20
-167.199746
 30
0.0
 40
7.8
100
AcDbArc
 50
90.0
 51
180.0
  0
ARC
  5
597
100
AcDbEntity
  8
0
370
    -3
  6
Continuous
100
AcDbCircle
 10
321.984984
 20
-195.205164
 30
0.0
 40
6.8
100
AcDbArc
 50
180.0
 51
270.0
  0
LINE
  5
598
100
AcDbEntity
  8
0
370
    -3
  6
Continuous
100
AcDbLine
 10
321.984984
 20
-202.005164
 30
0.0
 11
385.484984
 21
-202.005164
 31
0.0
  0
ARC
  5
599
100
AcDbEntity
  8
0
370
    -3
  6
Continuous
100
AcDbCircle
 10
385.484984
 20
-195.205164
 30
0.0
 40
6.8
100
AcDbArc
 50
270.0
 51
0.0
  0
LINE
  5
59A
100
AcDbEntity
  8
0
370
    -3
  6
Continuous
100
AcDbLine
 10
400.534984
 20
-196.058786
 30
0.0
 11
400.534984
 21
-161.943161
 31
0.0
  0
ARC
  5
59B
100
AcDbEntity
  8
0
370
    -3
  6
Continuous
100
AcDbCircle
 10
392.734984
 20
-196.058786
 30
0.0
 40
7.8
100
AcDbArc
 50
298.12516
 51
0.0
  0
ELLIPSE
  5
59C
100
AcDbEntity
  8
0
370
    -3
  6
Continuous
100
AcDbEllipse
 10
393.234984
 20
-201.973377
 30
0.0
 11
3.5
 21
0.0
 31
0.0
210
0.0
220
0.0
230
1.0
 40
0.656603
 41
0.0
 42
6.2831853071795862
  0
LINE
  5
59D
100
AcDbEntity
  8
0
370
    -3
  6
Continuous
100
AcDbLine
 10
394.825
 20
-204.020658
 30
0.0
 11
393.234984
 21
-203.510831
 31
0.0
  0
LINE
  5
59E
100
AcDbEntity
  8
0
370
    -3
  6
Continuous
100
AcDbLine
 10
393.234984
 20
-203.510831
 30
0.0
 11
395.234984
 21
-202.461643
 31
0.0
  0
LINE
  5
59F
100
AcDbEntity
  8
0
370
    -3
  6
Continuous
100
AcDbLine
 10
393.234984
 20
-203.510831
 30
0.0
 11
391.234984
 21
-202.461643
 31
0.0
  0
LINE
  5
5A0
100
AcDbEntity
  8
0
370
    -3
  6
Continuous
100
AcDbLine
 10
391.644967
 20
-204.020658
 30
0.0
 11
393.234984
 21
-203.510831
 31
0.0
  0
LINE
  5
5A1
100
AcDbEntity
  8
0
370
    -3
  6
Continuous
100
AcDbLine
 10
394.825
 20
-165.562396
 30
0.0
 11
393.234984
 21
-165.052569
 31
0.0
  0
LINE
  5
5A2
100
AcDbEntity
  8
0
370
    -3
  6
Continuous
100
AcDbLine
 10
391.644967
 20
-165.562396
 30
0.0
 11
393.234984
 21
-165.052569
 31
0.0
  0
LINE
  5
5A3
100
AcDbEntity
  8
0
370
    -3
  6
Continuous
100
AcDbLine
 10
393.234984
 20
-165.052569
 30
0.0
 11
391.234984
 21
-164.003381
 31
0.0
  0
LINE
  5
5A4
100
AcDbEntity
  8
0
370
    -3
  6
Continuous
100
AcDbLine
 10
393.234984
 20
-165.052569
 30
0.0
 11
395.234984
 21
-164.003381
 31
0.0
  0
ELLIPSE
  5
5A5
100
AcDbEntity
  8
0
370
    -3
  6
Continuous
100
AcDbEllipse
 10
393.234984
 20
-163.515115
 30
0.0
 11
3.5
 21
0.0
 31
0.0
210
0.0
220
0.0
230
1.0
 40
0.656603
 41
0.0
 42
6.2831853071795862
  0
ARC
  5
5A6
100
AcDbEntity
  8
0
370
    -3
  6
Continuous
100
AcDbCircle
 10
388.484984
 20
-170.694528
 30
0.0
 40
3.8
100
AcDbArc
 50
0.0
 51
66.772328
  0
LINE
  5
5A7
100
AcDbEntity
  8
0
370
    -3
  6
Continuous
100
AcDbLine
 10
392.284984
 20
-170.694528
 30
0.0
 11
392.284984
 21
-195.205164
 31
0.0
  0
ARC
  5
5A8
100
AcDbEntity
  8
0
370
    -3
  6
Continuous
100
AcDbCircle
 10
392.734984
 20
-161.943161
 30
0.0
 40
7.8
100
AcDbArc
 50
0.0
 51
90.0
  0
ARC
  5
5A9
100
AcDbEntity
  8
0
370
    -3
  6
Continuous
100
AcDbCircle
 10
392.734984
 20
-167.199746
 30
0.0
 40
7.8
100
AcDbArc
 50
0.0
 51
90.0
  0
LINE
  5
5AA
100
AcDbEntity
  8
0
370
    -3
  6
Continuous
100
AcDbLine
 10
353.734984
 20
-145.387637
 30
0.0
 11
370.234984
 21
-145.387637
 31
0.0
  0
LINE
  5
5AB
100
AcDbEntity
  8
0
370
    -3
  6
Continuous
100
AcDbLine
 10
353.734984
 20
-145.387637
 30
0.0
 11
335.217828
 21
-145.387637
 31
0.0
  0
LINE
  5
5AC
100
AcDbEntity
  8
0
370
    -3
  6
Continuous
100
AcDbLine
 10
380.270702
 20
-141.82562
 30
0.0
 11
380.661206
 21
-144.949655
 31
0.0
  0
ARC
  5
5AD
100
AcDbEntity
  8
0
370
    -3
  6
Continuous
100
AcDbCircle
 10
381.157345
 20
-144.887637
 30
0.0
 40
0.5
100
AcDbArc
 50
187.125016
 51
270.0
  0
ARC
  5
5AE
100
AcDbEntity
  8
0
370
    -3
  6
Continuous
100
AcDbCircle
 10
372.274563
 20
-144.887637
 30
0.0
 40
0.5
100
AcDbArc
 50
270.0
 51
352.874984
  0
LINE
  5
5AF
100
AcDbEntity
  8
0
370
    -3
  6
Continuous
100
AcDbLine
 10
372.903454
 20
-143.887637
 30
0.0
 11
372.770702
 21
-144.949655
 31
0.0
  0
ARC
  5
5B0
100
AcDbEntity
  8
0
370
    -3
  6
Continuous
100
AcDbCircle
 10
379.774563
 20
-141.887637
 30
0.0
 40
0.5
100
AcDbArc
 50
7.125016
 51
90.0
  0
LINE
  5
5B1
100
AcDbEntity
  8
0
370
    -3
  6
Continuous
100
AcDbLine
 10
379.774563
 20
-141.387637
 30
0.0
 11
374.078856
 21
-141.387637
 31
0.0
  0
LINE
  5
5B2
100
AcDbEntity
  8
0
370
    -3
  6
Continuous
100
AcDbLine
 10
327.199265
 20
-141.82562
 30
0.0
 11
326.808761
 21
-144.949655
 31
0.0
  0
ARC
  5
5B3
100
AcDbEntity
  8
0
370
    -3
  6
Continuous
100
AcDbCircle
 10
327.695404
 20
-141.887637
 30
0.0
 40
0.5
100
AcDbArc
 50
90.0
 51
172.874984
  0
ARC
  5
5B4
100
AcDbEntity
  8
0
370
    -3
  6
Continuous
100
AcDbCircle
 10
326.312622
 20
-144.887637
 30
0.0
 40
0.5
100
AcDbArc
 50
270.0
 51
352.874984
  0
LINE
  5
5B5
100
AcDbEntity
  8
0
370
    -3
  6
Continuous
100
AcDbLine
 10
327.695404
 20
-141.387637
 30
0.0
 11
333.391111
 21
-141.387637
 31
0.0
  0
LINE
  5
5B6
100
AcDbEntity
  8
0
370
    -3
  6
Continuous
100
AcDbLine
 10
334.566513
 20
-143.887637
 30
0.0
 11
334.699265
 21
-144.949655
 31
0.0
  0
ARC
  5
5B7
100
AcDbEntity
  8
0
370
    -3
  6
Continuous
100
AcDbCircle
 10
335.195404
 20
-144.887637
 30
0.0
 40
0.5
100
AcDbArc
 50
187.125016
 51
270.0
  0
ARC
  5
5B8
100
AcDbEntity
  8
0
370
    -3
  6
Continuous
100
AcDbCircle
 10
381.215954
 20
-145.887637
 30
0.0
 40
0.5
100
AcDbArc
 50
0.0
 51
90.0
  0
LINE
  5
5B9
100
AcDbEntity
  8
0
370
    -3
  6
Continuous
100
AcDbLine
 10
381.715954
 20
-145.887637
 30
0.0
 11
381.715954
 21
-146.887637
 31
0.0
  0
LINE
  5
5BA
100
AcDbEntity
  8
0
370
    -3
  6
Continuous
100
AcDbLine
 10
372.252139
 20
-145.387637
 30
0.0
 11
381.215954
 21
-145.387637
 31
0.0
  0
ARC
  5
5BB
100
AcDbEntity
  8
0
370
    -3
  6
Continuous
100
AcDbCircle
 10
382.215954
 20
-146.887637
 30
0.0
 40
0.5
100
AcDbArc
 50
180.0
 51
270.0
  0
ARC
  5
5BC
100
AcDbEntity
  8
0
370
    -3
  6
Continuous
100
AcDbCircle
 10
326.254013
 20
-145.887637
 30
0.0
 40
0.5
100
AcDbArc
 50
90.0
 51
180.0
  0
LINE
  5
5BD
100
AcDbEntity
  8
0
370
    -3
  6
Continuous
100
AcDbLine
 10
325.754013
 20
-145.887637
 30
0.0
 11
325.754013
 21
-146.887637
 31
0.0
  0
LINE
  5
5BE
100
AcDbEntity
  8
0
370
    -3
  6
Continuous
100
AcDbLine
 10
335.217828
 20
-145.387637
 30
0.0
 11
326.254013
 21
-145.387637
 31
0.0
  0
ARC
  5
5BF
100
AcDbEntity
  8
0
370
    -3
  6
Continuous
100
AcDbCircle
 10
325.254013
 20
-146.887637
 30
0.0
 40
0.5
100
AcDbArc
 50
270.0
 51
0.0
  0
LINE
  5
5C0
100
AcDbEntity
  8
0
370
    -3
  6
Continuous
100
AcDbLine
 10
370.234984
 20
-145.387637
 30
0.0
 11
372.252139
 21
-145.387637
 31
0.0
  0
LINE
  5
5C1
100
AcDbEntity
  8
0
370
    -3
  6
Continuous
100
AcDbLine
 10
373.287669
 20
-147.387637
 30
0.0
 11
386.339727
 21
-147.387637
 31
0.0
  0
LINE
  5
5C2
100
AcDbEntity
  8
0
370
    -3
  6
Continuous
100
AcDbLine
 10
334.182298
 20
-147.387637
 30
0.0
 11
321.13024
 21
-147.387637
 31
0.0
  0
LINE
  5
5C3
100
AcDbEntity
  8
0
370
    -3
  6
Continuous
100
AcDbLine
 10
337.234984
 20
-145.387637
 30
0.0
 11
335.217828
 21
-145.387637
 31
0.0
  0
LINE
  5
5C4
100
AcDbEntity
  8
0
370
    -3
  6
Continuous
100
AcDbLine
 10
321.13024
 20
-147.387637
 30
0.0
 11
321.209483
 21
-150.413814
 31
0.0
  0
LINE
  5
5C5
100
AcDbEntity
  8
0
370
    -3
  6
Continuous
100
AcDbLine
 10
385.260827
 20
-151.387637
 30
0.0
 11
322.20914
 21
-151.387637
 31
0.0
  0
LINE
  5
5C6
100
AcDbEntity
  8
0
370
    -3
  6
Continuous
100
AcDbLine
 10
334.718133
 20
-145.870188
 30
0.0
 11
334.681993
 21
-146.905087
 31
0.0
  0
ARC
  5
5C7
100
AcDbEntity
  8
0
370
    -3
  6
Continuous
100
AcDbCircle
 10
335.217828
 20
-145.887637
 30
0.0
 40
0.5
100
AcDbArc
 50
90.0
 51
178.0
  0
ARC
  5
5C8
100
AcDbEntity
  8
0
370
    -3
  6
Continuous
100
AcDbCircle
 10
334.182298
 20
-146.887637
 30
0.0
 40
0.5
100
AcDbArc
 50
270.0
 51
358.0
  0
ARC
  5
5C9
100
AcDbEntity
  8
0
370
    -3
  6
Continuous
100
AcDbCircle
 10
373.287669
 20
-146.887637
 30
0.0
 40
0.5
100
AcDbArc
 50
182.0
 51
270.0
  0
LINE
  5
5CA
100
AcDbEntity
  8
0
370
    -3
  6
Continuous
100
AcDbLine
 10
372.751835
 20
-145.870188
 30
0.0
 11
372.787974
 21
-146.905087
 31
0.0
  0
ARC
  5
5CB
100
AcDbEntity
  8
0
370
    -3
  6
Continuous
100
AcDbCircle
 10
372.252139
 20
-145.887637
 30
0.0
 40
0.5
100
AcDbArc
 50
2.0
 51
90.0
  0
ARC
  5
5CC
100
AcDbEntity
  8
0
370
    -3
  6
Continuous
100
AcDbCircle
 10
322.20914
 20
-150.387637
 30
0.0
 40
1.0
100
AcDbArc
 50
181.5
 51
270.0
  0
ARC
  5
5CD
100
AcDbEntity
  8
0
370
    -3
  6
Continuous
100
AcDbCircle
 10
385.260827
 20
-150.387637
 30
0.0
 40
1.0
100
AcDbArc
 50
270.0
 51
358.5
  0
LINE
  5
5CE
100
AcDbEntity
  8
0
370
    -3
  6
Continuous
100
AcDbLine
 10
386.339727
 20
-147.387637
 30
0.0
 11
386.260484
 21
-150.413814
 31
0.0
  0
CIRCLE
  5
5CF
100
AcDbEntity
  8
0
370
    -3
  6
DASHED
100
AcDbCircle
 10
353.734984
 20
-178.387637
 30
0.0
 40
17.0
  0
LINE
  5
5D0
100
AcDbEntity
  8
0
370
    -3
  6
CENTER
100
AcDbLine
 10
332.434527
 20
-178.387637
 30
0.0
 11
375.03544
 21
-178.387637
 31
0.0
  0
LINE
  5
5D1
100
AcDbEntity
  8
0
370
    -3
  6
Continuous
100
AcDbLine
 10
334.984984
 20
-143.887637
 30
0.0
 11
334.984984
 21
-145.387637
 31
0.0
  0
LINE
  5
5D2
100
AcDbEntity
  8
0
370
    -3
  6
Continuous
100
AcDbLine
 10
372.484984
 20
-143.887637
 30
0.0
 11
372.484984
 21
-145.387637
 31
0.0
  0
LINE
  5
5D3
100
AcDbEntity
  8
0
370
    -3
  6
CENTER
100
AcDbLine
 10
-257.309024
 20
-140.61022
 30
0.0
 11
-257.309024
 21
-163.520197
 31
0.0
  0
ENDSEC
  0
SECTION
  2
OBJECTS
  0
DICTIONARY
  5
19
100
AcDbDictionary
280
     0
281
     1
  3
ACAD_GROUP
350
1A
  3
ACAD_MLINESTYLE
350
1B
  3
ACAD_LAYOUT
350
1E
  3
ACAD_PLOTSETTINGS
350
22
  3
ACAD_PLOTSTYLENAME
350
1F
  3
ACAD_WIPEOUT_VARS
350
23
  3
DWGPROPS
350
5D4
  0
DICTIONARY
  5
1A
102
{ACAD_REACTORS
330
19
102
}
100
AcDbDictionary
280
     0
281
     1
  0
DICTIONARY
  5
1B
102
{ACAD_REACTORS
330
19
102
}
100
AcDbDictionary
280
     0
281
     1
  3
Standard
350
1C
  0
MLINESTYLE
  5
1C
102
{ACAD_REACTORS
330
1B
102
}
100
AcDbMlineStyle
  2
Standard
 70
     0
  3

 62
     0
 51
90.0
 52
90.0
 71
     2
 49
0.5
 62
   256
  6
ByLayer
 49
-0.5
 62
   256
  6
ByLayer
  0
ACDBDICTIONARYWDFLT
  5
1F
102
{ACAD_REACTORS
330
19
102
}
100
AcDbDictionary
281
     1
  3
Normal
350
1D
100
AcDbDictionaryWithDefault
340
1D
  0
ACDBPLACEHOLDER
  5
1D
102
{ACAD_REACTORS
330
1F
102
}
  0
LAYOUT
  5
20
102
{ACAD_REACTORS
330
1E
102
}
100
AcDbPlotSettings
  1

  2

  4

  6

 40
0.0
 41
0.0
 42
0.0
 43
0.0
 44
0.0
 45
0.0
 46
0.0
 47
0.0
 48
0.0
 49
0.0
140
0.0
141
0.0
142
1.0
143
1.0
 70
  1024
 72
     0
 73
     0
 74
     0
  7

 75
     0
147
1.0
148
0.0
149
0.0
100
AcDbLayout
  1
Model
 70
     0
 71
     0
 10
0.0
 20
0.0
 11
0.0
 21
0.0
 12
0.0
 22
0.0
 32
0.0
 14
0.0
 24
0.0
 34
0.0
 15
0.0
 25
0.0
 35
0.0
146
0.0
 13
0.0
 23
0.0
 33
0.0
 16
0.0
 26
0.0
 36
0.0
 17
0.0
 27
0.0
 37
0.0
 76
     0
330
A
331
0
345
0
346
0
  0
LAYOUT
  5
21
102
{ACAD_REACTORS
330
1E
102
}
100
AcDbPlotSettings
  1

  2

  4

  6

 40
0.0
 41
0.0
 42
0.0
 43
0.0
 44
0.0
 45
0.0
 46
0.0
 47
0.0
 48
0.0
 49
0.0
140
0.0
141
0.0
142
1.0
143
1.0
 70
     0
 72
     0
 73
     0
 74
     0
  7

 75
     0
147
1.0
148
0.0
149
0.0
100
AcDbLayout
  1
Layout1
 70
     0
 71
     0
 10
0.0
 20
0.0
 11
0.0
 21
0.0
 12
0.0
 22
0.0
 32
0.0
 14
0.0
 24
0.0
 34
0.0
 15
0.0
 25
0.0
 35
0.0
146
0.0
 13
0.0
 23
0.0
 33
0.0
 16
0.0
 26
0.0
 36
0.0
 17
0.0
 27
0.0
 37
0.0
 76
     0
330
B
331
0
345
0
346
0
  0
DICTIONARY
  5
1E
102
{ACAD_REACTORS
330
19
102
}
100
AcDbDictionary
280
     0
281
     1
  3
Layout1
350
21
  3
Model
350
20
  0
DICTIONARY
  5
22
102
{ACAD_REACTORS
330
19
102
}
100
AcDbDictionary
280
     0
281
     1
  0
WIPEOUTVARIABLES
  5
23
100
AcDbWipeoutVariables
 70
     1
  0
XRECORD
  5
5D4
100
AcDbXrecord
280
     1
  1
DWGPROPS COOKIE
  2

  3

  4

  6

  7

  8
HK96464
  9

300
=
301
=
302
=
303
=
304
=
305
=
306
=
307
=
308
=
309
=
 40
0.0
 41
2455940.51544
 42
2455940.51544
  1

 90
        0
  0
ENDSEC
  0
EOF
