  0
SECTION
  2
HEADER
  9
$ACADVER
  1
AC1015
  9
$ACADMAINTVER
 70
     6
  9
$DWGCODEPAGE
  3
ANSI_932
  9
$INSBASE
 10
0.0
 20
0.0
 30
0.0
  9
$EXTMIN
 10
1.000000E+20
 20
1.000000E+20
 30
1.000000E+20
  9
$EXTMAX
 10
-1.000000E+20
 20
-1.000000E+20
 30
-1.000000E+20
  9
$LIMMIN
 10
0.0
 20
0.0
  9
$LIMMAX
 10
0.0
 20
0.0
  9
$ORTHOMODE
 70
     0
  9
$REGENMODE
 70
     1
  9
$FILLMODE
 70
     1
  9
$QTEXTMODE
 70
     0
  9
$MIRRTEXT
 70
     1
  9
$LTSCALE
 40
1.0
  9
$ATTMODE
 70
     1
  9
$TEXTSIZE
 40
7.0
  9
$TRACEWID
 40
0.05
  9
$TEXTSTYLE
  7
Standard
  9
$CLAYER
  8
0
  9
$CELTYPE
  6
Continuous
  9
$CECOLOR
 62
   256
  9
$CELTSCALE
 40
1.0
  9
$DISPSILH
 70
     0
  9
$DIMSCALE
 40
1.0
  9
$DIMASZ
 40
1.931852
  9
$DIMEXO
 40
1.0
  9
$DIMDLI
 40
0.38
  9
$DIMRND
 40
0.0
  9
$DIMDLE
 40
0.0
  9
$DIMEXE
 40
2.0
  9
$DIMTP
 40
0.0
  9
$DIMTM
 40
0.0
  9
$DIMTXT
 40
2.8
  9
$DIMCEN
 40
0.09
  9
$DIMTSZ
 40
0.0
  9
$DIMTOL
 70
     0
  9
$DIMLIM
 70
     0
  9
$DIMTIH
 70
     1
  9
$DIMTOH
 70
     1
  9
$DIMSE1
 70
     0
  9
$DIMSE2
 70
     0
  9
$DIMTAD
 70
     1
  9
$DIMZIN
 70
     0
  9
$DIMBLK
  1

  9
$DIMASO
 70
     1
  9
$DIMSHO
 70
     1
  9
$DIMPOST
  1

  9
$DIMAPOST
  1

  9
$DIMALT
 70
     0
  9
$DIMALTD
 70
     2
  9
$DIMALTF
 40
25.4
  9
$DIMLFAC
 40
1.0
  9
$DIMTOFL
 70
     0
  9
$DIMTVP
 40
0.0
  9
$DIMTIX
 70
     0
  9
$DIMSOXD
 70
     0
  9
$DIMSAH
 70
     0
  9
$DIMBLK1
  1

  9
$DIMBLK2
  1

  9
$DIMSTYLE
  2
Standard
  9
$DIMCLRD
 70
     0
  9
$DIMCLRE
 70
     0
  9
$DIMCLRT
 70
     0
  9
$DIMTFAC
 40
0.714286
  9
$DIMGAP
 40
0.09
  9
$DIMJUST
 70
     0
  9
$DIMSD1
 70
     0
  9
$DIMSD2
 70
     0
  9
$DIMTOLJ
 70
     1
  9
$DIMTZIN
 70
     0
  9
$DIMALTZ
 70
     0
  9
$DIMALTTZ
 70
     0
  9
$DIMUPT
 70
     0
  9
$DIMDEC
 70
     4
  9
$DIMTDEC
 70
     4
  9
$DIMALTU
 70
     2
  9
$DIMALTTD
 70
     2
  9
$DIMTXSTY
  7
Standard
  9
$DIMAUNIT
 70
     0
  9
$DIMADEC
 70
     0
  9
$DIMALTRND
 40
0.0
  9
$DIMAZIN
 70
     0
  9
$DIMDSEP
 70
     0
  9
$DIMATFIT
 70
     3
  9
$DIMFRAC
 70
     0
  9
$DIMLDRBLK
  1

  9
$DIMLUNIT
 70
     2
  9
$DIMLWD
 70
     0
  9
$DIMLWE
 70
     0
  9
$DIMTMOVE
 70
     0
  9
$LUNITS
 70
     2
  9
$LUPREC
 70
     3
  9
$SKETCHINC
 40
0.1
  9
$FILLETRAD
 40
0.0
  9
$AUNITS
 70
     0
  9
$AUPREC
 70
     0
  9
$MENU
  1
acad
  9
$ELEVATION
 40
0.0
  9
$PELEVATION
 40
0.0
  9
$THICKNESS
 40
0.0
  9
$LIMCHECK
 70
     0
  9
$CHAMFERA
 40
0.0
  9
$CHAMFERB
 40
0.0
  9
$CHAMFERC
 40
0.0
  9
$CHAMFERD
 40
0.0
  9
$SKPOLY
 70
     0
  9
$TDCREATE
 40
0.000000000
  9
$TDUCREATE
 40
0.000000000
  9
$TDUPDATE
 40
0.000000000
  9
$TDUUPDATE
 40
0.000000000
  9
$TDINDWG
 40
0.0000000000
  9
$TDUSRTIMER
 40
0.0000000000
  9
$USRTIMER
 70
     1
  9
$ANGBASE
 50
0.0
  9
$ANGDIR
 70
     0
  9
$PDMODE
 70
     0
  9
$PDSIZE
 40
0.0
  9
$PLINEWID
 40
0.0
  9
$SPLFRAME
 70
     0
  9
$SPLINETYPE
 70
     6
  9
$SPLINESEGS
 70
     8
  9
$HANDSEED
  5
714
  9
$SURFTAB1
 70
     6
  9
$SURFTAB2
 70
     6
  9
$SURFTYPE
 70
     6
  9
$SURFU
 70
     6
  9
$SURFV
 70
     6
  9
$UCSBASE
  2

  9
$UCSNAME
  2

  9
$UCSORG
 10
0.0
 20
0.0
 30
0.0
  9
$UCSXDIR
 10
1.0
 20
0.0
 30
0.0
  9
$UCSYDIR
 10
0.0
 20
1.0
 30
0.0
  9
$UCSORTHOREF
  2

  9
$UCSORTHOVIEW
 70
     0
  9
$UCSORGTOP
 10
0.0
 20
0.0
 30
0.0
  9
$UCSORGBOTTOM
 10
0.0
 20
0.0
 30
0.0
  9
$UCSORGLEFT
 10
0.0
 20
0.0
 30
0.0
  9
$UCSORGRIGHT
 10
0.0
 20
0.0
 30
0.0
  9
$UCSORGFRONT
 10
0.0
 20
0.0
 30
0.0
  9
$UCSORGBACK
 10
0.0
 20
0.0
 30
0.0
  9
$PUCSBASE
  2

  9
$PUCSNAME
  2

  9
$PUCSORG
 10
0.0
 20
0.0
 30
0.0
  9
$PUCSXDIR
 10
1.0
 20
0.0
 30
0.0
  9
$PUCSYDIR
 10
0.0
 20
1.0
 30
0.0
  9
$PUCSORTHOREF
  2

  9
$PUCSORTHOVIEW
 70
     0
  9
$PUCSORGTOP
 10
0.0
 20
0.0
 30
0.0
  9
$PUCSORGBOTTOM
 10
0.0
 20
0.0
 30
0.0
  9
$PUCSORGLEFT
 10
0.0
 20
0.0
 30
0.0
  9
$PUCSORGRIGHT
 10
0.0
 20
0.0
 30
0.0
  9
$PUCSORGFRONT
 10
0.0
 20
0.0
 30
0.0
  9
$PUCSORGBACK
 10
0.0
 20
0.0
 30
0.0
  9
$USERI1
 70
     0
  9
$USERI2
 70
     0
  9
$USERI3
 70
     0
  9
$USERI4
 70
     0
  9
$USERI5
 70
     0
  9
$USERR1
 40
0.0
  9
$USERR2
 40
0.0
  9
$USERR3
 40
0.0
  9
$USERR4
 40
0.0
  9
$USERR5
 40
0.0
  9
$WORLDVIEW
 70
     1
  9
$SHADEDGE
 70
     3
  9
$SHADEDIF
 70
    70
  9
$TILEMODE
 70
     1
  9
$MAXACTVP
 70
    16
  9
$PINSBASE
 10
0.0
 20
0.0
 30
0.0
  9
$PLIMCHECK
 70
     0
  9
$PEXTMIN
 10
1.000000E+20
 20
1.000000E+20
 30
1.000000E+20
  9
$PEXTMAX
 10
-1.000000E+20
 20
-1.000000E+20
 30
-1.000000E+20
  9
$PLIMMIN
 10
0.0
 20
0.0
  9
$PLIMMAX
 10
12.0
 20
9.0
  9
$UNITMODE
 70
     0
  9
$VISRETAIN
 70
     0
  9
$PLINEGEN
 70
     1
  9
$PSLTSCALE
 70
     0
  9
$TREEDEPTH
 70
  3020
  9
$CMLSTYLE
  2
Standard
  9
$CMLJUST
 70
     0
  9
$CMLSCALE
 40
1.0
  9
$PROXYGRAPHICS
 70
     0
  9
$MEASUREMENT
 70
     0
  9
$CELWEIGHT
370
     0
  9
$ENDCAPS
280
     0
  9
$JOINSTYLE
280
     0
  9
$LWDISPLAY
290
     0
  9
$INSUNITS
 70
     0
  9
$HYPERLINKBASE
  1

  9
$STYLESHEET
  1

  9
$XEDIT
290
     1
  9
$CEPSNTYPE
380
     0
  9
$PSTYLEMODE
290
     1
  9
$FINGERPRINTGUID
  2

  9
$VERSIONGUID
  2

  9
$EXTNAMES
290
     1
  9
$PSVPSCALE
 40
0.0
  0
ENDSEC
  0
SECTION
  2
CLASSES
  0
CLASS
  1
LWPOLYLINE
  2
AcDbPolyline
  3
AutoCAD 2000
 90
    32768
280
     0
281
     1
  0
CLASS
  1
IMAGE
  2
AcDbRasterImage
  3
ISM
 90
    32895
280
     0
281
     1
  0
CLASS
  1
OLE2FRAME
  2
AcDbOle2Frame
  3
AutoCAD 2000
 90
    32768
280
     0
281
     1
  0
CLASS
  1
HATCH
  2
AcDbHatch
  3
AutoCAD 2000
 90
    32768
280
     0
281
     1
  0
CLASS
  1
DICTIONARYVAR
  2
AcDbDictionaryVar
  3
AutoCAD 2000
 90
    32768
280
     0
281
     0
  0
CLASS
  1
RASTERVARIABLES
  2
AcDbRasterVariables
  3
ISM
 90
    32768
280
     0
281
     0
  0
CLASS
  1
IMAGEDEF
  2
AcDbRasterImageDef
  3
ISM
 90
    32768
280
     0
281
     0
  0
CLASS
  1
IMAGEDEF_REACTOR
  2
AcDbRasterImageDefReactor
  3
ISM
 90
    32769
280
     0
281
     0
  0
CLASS
  1
IDBUFFER
  2
AcDbIdBuffer
  3
AutoCAD 2000
 90
    32768
280
     0
281
     0
  0
CLASS
  1
SPATIAL_FILTER
  2
AcDbSpatialFilter
  3
AutoCAD 2000
 90
    32768
280
     0
281
     0
  0
CLASS
  1
XRECORD
  2
AcDbXrecord
  3
AutoCAD 2000
 90
        0
280
     0
281
     0
  0
CLASS
  1
SORTENTSTABLE
  2
AcDbSortentsTable
  3
AutoCAD 2000
 90
    32768
280
     0
281
     0
  0
CLASS
  1
LAYER_INDEX
  2
AcDbLayerIndex
  3
AutoCAD 2000
 90
    32768
280
     0
281
     0
  0
CLASS
  1
SPATIAL_INDEX
  2
AcDbSpatialIndex
  3
AutoCAD 2000
 90
    32768
280
     0
281
     0
  0
CLASS
  1
OBJECT_PTR
  2
CAseDLPNTableRecord
  3
"ASE-LPNTableRecord"
 90
    32769
280
     0
281
     0
  0
CLASS
  1
LAYOUT
  2
AcDbLayout
  3
AutoCAD 2000
 90
        0
280
     0
281
     0
  0
CLASS
  1
PLOTSETTINGS
  2
AcDbPlotSettings
  3
AutoCAD 2000
 90
    32768
280
     0
281
     0
  0
CLASS
  1
ACDBDICTIONARYWDFLT
  2
AcDbDictionaryWithDefault
  3
AutoCAD 2000
 90
        0
280
     0
281
     0
  0
CLASS
  1
ACDBPLACEHOLDER
  2
AcDbPlaceHolder
  3
AutoCAD 2000
 90
        0
280
     0
281
     0
  0
CLASS
  1
VBA_PROJECT
  2
AcDbVbaProject
  3
acadvba
 90
    32768
280
     0
281
     0
  0
CLASS
  1
WIPEOUT
  2
AcDbWipeout
  3
WipeOut|AutoCAD Express Tool|expresstools@autodesk.com
 90
    32895
280
     0
281
     1
  0
CLASS
  1
WIPEOUTVARIABLES
  2
AcDbWipeoutVariables
  3
WipeOut|AutoCAD Express Tool|expresstools@autodesk.com
 90
        0
280
     0
281
     0
  0
CLASS
  1
RTEXT
  2
RText
  3
RText|AutoCAD Express Tool|expresstools@autodesk.com
 90
    32768
280
     0
281
     1
  0
CLASS
  1
ARCALIGNEDTEXT
  2
AcDbArcAlignedText
  3
ATEXT|AutoCAD Express Tool|expresstools@autodesk.com
 90
    32768
280
     0
281
     1
  0
ENDSEC
  0
SECTION
  2
TABLES
  0
TABLE
  2
VPORT
  5
7
100
AcDbSymbolTable
 70
     1
  0
VPORT
  5
15
100
AcDbSymbolTableRecord
100
AcDbViewportTableRecord
  2
*ACTIVE
 70
     0
 10
0.0
 20
0.0
 11
1.0
 21
1.0
 12
0.0
 22
0.0
 13
0.0
 23
0.0
 14
1.0
 24
1.0
 15
0.0
 25
0.0
 16
0.0
 26
0.0
 36
1.0
 17
0.0
 27
0.0
 37
0.0
 40
100.0
 41
1.0
 42
50.0
 43
0.0
 44
0.0
 50
0.0
 51
0.0
 71
     0
 72
   100
 73
     1
 74
     1
 75
     0
 76
     0
 77
     0
 78
     0
281
     0
 65
     0
110
0.0
120
0.0
130
0.0
111
1.0
121
0.0
131
0.0
112
0.0
122
1.0
132
0.0
345
0
346
0
 79
     0
146
0.0
  0
ENDTAB
  0
TABLE
  2
LTYPE
  5
4
100
AcDbSymbolTable
 70
     7
  0
LTYPE
  5
11
100
AcDbSymbolTableRecord
100
AcDbLinetypeTableRecord
  2
ByBlock
 70
    64
  3

 72
    65
 73
     0
 40
0.0
  0
LTYPE
  5
12
100
AcDbSymbolTableRecord
100
AcDbLinetypeTableRecord
  2
ByLayer
 70
    64
  3

 72
    65
 73
     0
 40
0.0
  0
LTYPE
  5
13
100
AcDbSymbolTableRecord
100
AcDbLinetypeTableRecord
  2
Continuous
 70
    64
  3
Solid line
 72
    65
 73
     0
 40
0.0
  0
LTYPE
  5
24
100
AcDbSymbolTableRecord
100
AcDbLinetypeTableRecord
  2
DASHED
 70
    64
  3
Dashed __ __ __ __ __ __ __ __ __ __ __ __ __ _
 72
    65
 73
     2
 40
0.75
 49
0.5
 74
     0
 49
-0.25
 74
     0
  0
LTYPE
  5
25
100
AcDbSymbolTableRecord
100
AcDbLinetypeTableRecord
  2
CENTER
 70
    64
  3
Center ____ _ ____ _ ____ _ ____ _ ____ _ ____
 72
    65
 73
     4
 40
1.0
 49
0.5
 74
     0
 49
-0.25
 74
     0
 49
0.0
 74
     0
 49
-0.25
 74
     0
  0
LTYPE
  5
26
100
AcDbSymbolTableRecord
100
AcDbLinetypeTableRecord
  2
DIVIDE
 70
    64
  3
Divide ____ . . ____ . . ____ . . ____ . . ____
 72
    65
 73
     6
 40
1.25
 49
0.5
 74
     0
 49
-0.25
 74
     0
 49
0.0
 74
     0
 49
-0.25
 74
     0
 49
0.0
 74
     0
 49
-0.25
 74
     0
  0
LTYPE
  5
27
100
AcDbSymbolTableRecord
100
AcDbLinetypeTableRecord
  2
PHANTOM
 70
    64
  3
Phantom ______  __  __  ______  __  __  ______
 72
    65
 73
     6
 40
9.0
 49
4.3
 74
     0
 49
-0.7
 74
     0
 49
1.3
 74
     0
 49
-0.7
 74
     0
 49
1.3
 74
     0
 49
-0.7
 74
     0
  0
ENDTAB
  0
TABLE
  2
LAYER
  5
2
100
AcDbSymbolTable
 70
     3
  0
LAYER
  5
14
100
AcDbSymbolTableRecord
100
AcDbLayerTableRecord
  2
0
 70
    64
 62
    53
  6
Continuous
290
     1
370
    -3
390
1D
  0
LAYER
  5
28
100
AcDbSymbolTableRecord
100
AcDbLayerTableRecord
  2
3
 70
    64
 62
     4
  6
Continuous
290
     1
370
    -3
390
1D
  0
LAYER
  5
29
100
AcDbSymbolTableRecord
100
AcDbLayerTableRecord
  2
5
 70
    64
 62
   191
  6
Continuous
290
     1
370
    -3
390
1D
  0
ENDTAB
  0
TABLE
  2
STYLE
  5
3
100
AcDbSymbolTable
 70
     2
  0
STYLE
  5
17
100
AcDbSymbolTableRecord
100
AcDbTextStyleTableRecord
  2
Standard
 70
     0
 40
0.0
 41
1.0
 50
0.0
 71
     0
 42
0.0
  3
txt
  4

  0
STYLE
  5
558
100
AcDbSymbolTableRecord
100
AcDbTextStyleTableRecord
  2
ZU_SHPTB00001
 70
     0
 40
0.0
 41
1.0
 50
0.0
 71
     0
 42
0.0
  3
monotxt
  4
bigfont
  0
ENDTAB
  0
TABLE
  2
VIEW
  5
5
100
AcDbSymbolTable
 70
     0
  0
ENDTAB
  0
TABLE
  2
UCS
  5
6
100
AcDbSymbolTable
 70
     0
  0
ENDTAB
  0
TABLE
  2
APPID
  5
8
100
AcDbSymbolTable
 70
     1
  0
APPID
  5
16
100
AcDbSymbolTableRecord
100
AcDbRegAppTableRecord
  2
ACAD
 70
     0
  0
ENDTAB
  0
TABLE
  2
DIMSTYLE
  5
9
100
AcDbSymbolTable
 70
     1
100
AcDbDimStyleTable
 71
     0
  0
DIMSTYLE
105
18
100
AcDbSymbolTableRecord
100
AcDbDimStyleTableRecord
  2
Standard
 70
     0
  3

  4

 40
1.0
 41
0.18
 42
0.0625
 43
0.38
 44
0.18
 45
0.0
 46
0.0
 47
0.0
 48
0.0
 71
     0
 72
     0
 73
     1
 74
     1
 75
     0
 76
     0
 77
     0
 78
     0
 79
     0
140
0.18
141
0.09
142
0.0
143
25.4
144
1.0
145
0.0
146
1.0
147
0.09
148
0.0
170
     0
171
     2
172
     0
173
     0
174
     0
175
     0
176
     0
177
     0
178
     0
179
     0
271
     4
272
     4
273
     2
274
     2
275
     0
276
     0
277
     2
278
    46
279
     0
280
     0
281
     0
282
     0
283
     1
284
     0
285
     0
286
     0
288
     0
340
17
341
0
342
0
343
0
344
0
371
    -2
372
    -2
  0
ENDTAB
  0
TABLE
  2
BLOCK_RECORD
  5
1
100
AcDbSymbolTable
 70
     4
  0
BLOCK_RECORD
  5
A
100
AcDbSymbolTableRecord
100
AcDbBlockTableRecord
  2
*MODEL_SPACE
340
20
  0
BLOCK_RECORD
  5
B
100
AcDbSymbolTableRecord
100
AcDbBlockTableRecord
  2
*PAPER_SPACE
340
21
  0
BLOCK_RECORD
  5
3E9
100
AcDbSymbolTableRecord
100
AcDbBlockTableRecord
  2
ZU_SYM__USERS_HOME_SYMBOL_POO_SYM_S07_-1
340
0
102
{BLKREFS
331
3F4
102
}
  0
BLOCK_RECORD
  5
407
100
AcDbSymbolTableRecord
100
AcDbBlockTableRecord
  2
ZU_SYM__USERS_HOME_SYMBOL_POO_SYM_S07_00001-1
340
0
102
{BLKREFS
331
412
102
}
  0
BLOCK_RECORD
  5
422
100
AcDbSymbolTableRecord
100
AcDbBlockTableRecord
  2
ZU_SYM__USERS_HOME_SYMBOL_POO_SYM_S07_00002-1
340
0
102
{BLKREFS
331
42D
102
}
  0
BLOCK_RECORD
  5
43C
100
AcDbSymbolTableRecord
100
AcDbBlockTableRecord
  2
ZU_SYM__USERS_HOME_SYMBOL_POO_SYM_S07_00003-1
340
0
102
{BLKREFS
331
447
102
}
  0
ENDTAB
  0
ENDSEC
  0
SECTION
  2
BLOCKS
  0
BLOCK
  5
D
100
AcDbEntity
  8
0
100
AcDbBlockBegin
  2
*MODEL_SPACE
 70
     0
 10
0.0
 20
0.0
 30
0.0
  3
*MODEL_SPACE
  1

  0
ENDBLK
  5
E
100
AcDbEntity
  8
0
100
AcDbBlockEnd
  0
BLOCK
  5
F
100
AcDbEntity
 67
     1
  8
0
100
AcDbBlockBegin
  2
*PAPER_SPACE
 70
     0
 10
0.0
 20
0.0
 30
0.0
  3
*PAPER_SPACE
  1

  0
ENDBLK
  5
10
100
AcDbEntity
 67
     1
  8
0
100
AcDbBlockEnd
  0
BLOCK
  5
3EA
100
AcDbEntity
  8
0
100
AcDbBlockBegin
  2
ZU_SYM__USERS_HOME_SYMBOL_POO_SYM_S07_-1
 70
    64
 10
0.0
 20
0.0
 30
0.0
  3
ZU_SYM__USERS_HOME_SYMBOL_POO_SYM_S07_-1
  1

  0
ARC
  5
3EB
100
AcDbEntity
  8
0
370
    -3
  6
Continuous
100
AcDbCircle
 10
-0.979025
 20
-2.200001
 30
0.0
 40
1.299999
100
AcDbArc
 50
196.601531
 51
270.0
  0
ARC
  5
3EC
100
AcDbEntity
  8
0
370
    -3
  6
Continuous
100
AcDbCircle
 10
-0.979025
 20
2.200001
 30
0.0
 40
1.299999
100
AcDbArc
 50
90.0
 51
163.398452
  0
LINE
  5
3ED
100
AcDbEntity
  8
0
370
    -3
  6
Continuous
100
AcDbLine
 10
0.0
 20
-3.5
 30
0.0
 11
-0.979025
 21
-3.5
 31
0.0
  0
LINE
  5
3EE
100
AcDbEntity
  8
0
370
    -3
  6
Continuous
100
AcDbLine
 10
0.0
 20
3.5
 30
0.0
 11
-0.979025
 21
3.5
 31
0.0
  0
LINE
  5
3EF
100
AcDbEntity
  8
0
370
    -3
  6
Continuous
100
AcDbLine
 10
0.0
 20
-3.5
 30
0.0
 11
0.0
 21
3.5
 31
0.0
  0
LINE
  5
3F0
100
AcDbEntity
  8
0
370
    -3
  6
Continuous
100
AcDbLine
 10
0.0
 20
-3.5
 30
0.0
 11
0.0
 21
3.5
 31
0.0
  0
POINT
  5
3F1
100
AcDbEntity
  8
0
370
    -3
  6
Continuous
100
AcDbPoint
 10
0.0
 20
0.0
 30
0.0
  0
ARC
  5
3F2
100
AcDbEntity
  8
0
370
    -3
  6
Continuous
100
AcDbCircle
 10
6.4
 20
0.0
 30
0.0
 40
9.0
100
AcDbArc
 50
163.398452
 51
196.601531
  0
ENDBLK
  5
3F3
100
AcDbEntity
  8
0
100
AcDbBlockEnd
  0
BLOCK
  5
408
100
AcDbEntity
  8
0
100
AcDbBlockBegin
  2
ZU_SYM__USERS_HOME_SYMBOL_POO_SYM_S07_00001-1
 70
    64
 10
0.0
 20
0.0
 30
0.0
  3
ZU_SYM__USERS_HOME_SYMBOL_POO_SYM_S07_00001-1
  1

  0
ARC
  5
409
100
AcDbEntity
  8
0
370
    -3
  6
Continuous
100
AcDbCircle
 10
-0.979025
 20
-2.200001
 30
0.0
 40
1.299999
100
AcDbArc
 50
196.601531
 51
270.0
  0
ARC
  5
40A
100
AcDbEntity
  8
0
370
    -3
  6
Continuous
100
AcDbCircle
 10
-0.979025
 20
2.200001
 30
0.0
 40
1.299999
100
AcDbArc
 50
90.0
 51
163.398452
  0
LINE
  5
40B
100
AcDbEntity
  8
0
370
    -3
  6
Continuous
100
AcDbLine
 10
0.0
 20
-3.5
 30
0.0
 11
-0.979025
 21
-3.5
 31
0.0
  0
LINE
  5
40C
100
AcDbEntity
  8
0
370
    -3
  6
Continuous
100
AcDbLine
 10
0.0
 20
3.5
 30
0.0
 11
-0.979025
 21
3.5
 31
0.0
  0
LINE
  5
40D
100
AcDbEntity
  8
0
370
    -3
  6
Continuous
100
AcDbLine
 10
0.0
 20
-3.5
 30
0.0
 11
0.0
 21
3.5
 31
0.0
  0
LINE
  5
40E
100
AcDbEntity
  8
0
370
    -3
  6
Continuous
100
AcDbLine
 10
0.0
 20
-3.5
 30
0.0
 11
0.0
 21
3.5
 31
0.0
  0
POINT
  5
40F
100
AcDbEntity
  8
0
370
    -3
  6
Continuous
100
AcDbPoint
 10
0.0
 20
0.0
 30
0.0
  0
ARC
  5
410
100
AcDbEntity
  8
0
370
    -3
  6
Continuous
100
AcDbCircle
 10
6.4
 20
0.0
 30
0.0
 40
9.0
100
AcDbArc
 50
163.398452
 51
196.601531
  0
ENDBLK
  5
411
100
AcDbEntity
  8
0
100
AcDbBlockEnd
  0
BLOCK
  5
423
100
AcDbEntity
  8
0
100
AcDbBlockBegin
  2
ZU_SYM__USERS_HOME_SYMBOL_POO_SYM_S07_00002-1
 70
    64
 10
0.0
 20
0.0
 30
0.0
  3
ZU_SYM__USERS_HOME_SYMBOL_POO_SYM_S07_00002-1
  1

  0
ARC
  5
424
100
AcDbEntity
  8
0
370
    -3
  6
Continuous
100
AcDbCircle
 10
-0.979025
 20
-2.200001
 30
0.0
 40
1.299999
100
AcDbArc
 50
196.601531
 51
270.0
  0
ARC
  5
425
100
AcDbEntity
  8
0
370
    -3
  6
Continuous
100
AcDbCircle
 10
-0.979025
 20
2.200001
 30
0.0
 40
1.299999
100
AcDbArc
 50
90.0
 51
163.398452
  0
LINE
  5
426
100
AcDbEntity
  8
0
370
    -3
  6
Continuous
100
AcDbLine
 10
0.0
 20
-3.5
 30
0.0
 11
-0.979025
 21
-3.5
 31
0.0
  0
LINE
  5
427
100
AcDbEntity
  8
0
370
    -3
  6
Continuous
100
AcDbLine
 10
0.0
 20
3.5
 30
0.0
 11
-0.979025
 21
3.5
 31
0.0
  0
LINE
  5
428
100
AcDbEntity
  8
0
370
    -3
  6
Continuous
100
AcDbLine
 10
0.0
 20
-3.5
 30
0.0
 11
0.0
 21
3.5
 31
0.0
  0
LINE
  5
429
100
AcDbEntity
  8
0
370
    -3
  6
Continuous
100
AcDbLine
 10
0.0
 20
-3.5
 30
0.0
 11
0.0
 21
3.5
 31
0.0
  0
POINT
  5
42A
100
AcDbEntity
  8
0
370
    -3
  6
Continuous
100
AcDbPoint
 10
0.0
 20
0.0
 30
0.0
  0
ARC
  5
42B
100
AcDbEntity
  8
0
370
    -3
  6
Continuous
100
AcDbCircle
 10
6.4
 20
0.0
 30
0.0
 40
9.0
100
AcDbArc
 50
163.398452
 51
196.601531
  0
ENDBLK
  5
42C
100
AcDbEntity
  8
0
100
AcDbBlockEnd
  0
BLOCK
  5
43D
100
AcDbEntity
  8
0
100
AcDbBlockBegin
  2
ZU_SYM__USERS_HOME_SYMBOL_POO_SYM_S07_00003-1
 70
    64
 10
0.0
 20
0.0
 30
0.0
  3
ZU_SYM__USERS_HOME_SYMBOL_POO_SYM_S07_00003-1
  1

  0
ARC
  5
43E
100
AcDbEntity
  8
0
370
    -3
  6
Continuous
100
AcDbCircle
 10
-0.979025
 20
-2.200001
 30
0.0
 40
1.299999
100
AcDbArc
 50
196.601531
 51
270.0
  0
ARC
  5
43F
100
AcDbEntity
  8
0
370
    -3
  6
Continuous
100
AcDbCircle
 10
-0.979025
 20
2.200001
 30
0.0
 40
1.299999
100
AcDbArc
 50
90.0
 51
163.398452
  0
LINE
  5
440
100
AcDbEntity
  8
0
370
    -3
  6
Continuous
100
AcDbLine
 10
0.0
 20
-3.5
 30
0.0
 11
-0.979025
 21
-3.5
 31
0.0
  0
LINE
  5
441
100
AcDbEntity
  8
0
370
    -3
  6
Continuous
100
AcDbLine
 10
0.0
 20
3.5
 30
0.0
 11
-0.979025
 21
3.5
 31
0.0
  0
LINE
  5
442
100
AcDbEntity
  8
0
370
    -3
  6
Continuous
100
AcDbLine
 10
0.0
 20
-3.5
 30
0.0
 11
0.0
 21
3.5
 31
0.0
  0
LINE
  5
443
100
AcDbEntity
  8
0
370
    -3
  6
Continuous
100
AcDbLine
 10
0.0
 20
-3.5
 30
0.0
 11
0.0
 21
3.5
 31
0.0
  0
POINT
  5
444
100
AcDbEntity
  8
0
370
    -3
  6
Continuous
100
AcDbPoint
 10
0.0
 20
0.0
 30
0.0
  0
ARC
  5
445
100
AcDbEntity
  8
0
370
    -3
  6
Continuous
100
AcDbCircle
 10
6.4
 20
0.0
 30
0.0
 40
9.0
100
AcDbArc
 50
163.398452
 51
196.601531
  0
ENDBLK
  5
446
100
AcDbEntity
  8
0
100
AcDbBlockEnd
  0
ENDSEC
  0
SECTION
  2
ENTITIES
  0
CIRCLE
  5
2A
100
AcDbEntity
  8
0
370
    -3
  6
Continuous
100
AcDbCircle
 10
35.349354
 20
-65.879622
 30
0.0
 40
44.25
  0
CIRCLE
  5
2B
100
AcDbEntity
  8
0
370
    -3
  6
Continuous
100
AcDbCircle
 10
35.349354
 20
-65.879622
 30
0.0
 40
45.5
  0
CIRCLE
  5
2C
100
AcDbEntity
  8
0
370
    -3
  6
Continuous
100
AcDbCircle
 10
35.349354
 20
-65.879622
 30
0.0
 40
43.0
  0
CIRCLE
  5
2D
100
AcDbEntity
  8
0
370
    -3
  6
Continuous
100
AcDbCircle
 10
35.349354
 20
-65.879622
 30
0.0
 40
43.0
  0
CIRCLE
  5
2E
100
AcDbEntity
  8
0
370
    -3
  6
Continuous
100
AcDbCircle
 10
35.349354
 20
-65.879622
 30
0.0
 40
45.5
  0
CIRCLE
  5
2F
100
AcDbEntity
  8
0
370
    -3
  6
Continuous
100
AcDbCircle
 10
35.349354
 20
-65.879622
 30
0.0
 40
44.25
  0
CIRCLE
  5
30
100
AcDbEntity
  8
0
370
    -3
  6
Continuous
100
AcDbCircle
 10
35.349354
 20
-65.879622
 30
0.0
 40
44.25
  0
CIRCLE
  5
31
100
AcDbEntity
  8
0
370
    -3
  6
Continuous
100
AcDbCircle
 10
35.349354
 20
-65.879622
 30
0.0
 40
45.5
  0
CIRCLE
  5
32
100
AcDbEntity
  8
0
370
    -3
  6
Continuous
100
AcDbCircle
 10
35.349354
 20
-65.879622
 30
0.0
 40
43.0
  0
CIRCLE
  5
33
100
AcDbEntity
  8
0
370
    -3
  6
Continuous
100
AcDbCircle
 10
35.349354
 20
-65.879622
 30
0.0
 40
43.0
  0
CIRCLE
  5
34
100
AcDbEntity
  8
0
370
    -3
  6
Continuous
100
AcDbCircle
 10
35.349354
 20
-65.879622
 30
0.0
 40
45.5
  0
CIRCLE
  5
35
100
AcDbEntity
  8
0
370
    -3
  6
Continuous
100
AcDbCircle
 10
35.349354
 20
-65.879622
 30
0.0
 40
44.25
  0
CIRCLE
  5
36
100
AcDbEntity
  8
0
370
    -3
  6
Continuous
100
AcDbCircle
 10
-65.650646
 20
-110.879622
 30
0.0
 40
9.0
  0
CIRCLE
  5
37
100
AcDbEntity
  8
0
370
    -3
  6
Continuous
100
AcDbCircle
 10
-65.650646
 20
-110.879622
 30
0.0
 40
5.4
  0
CIRCLE
  5
38
100
AcDbEntity
  8
0
370
    -3
  6
Continuous
100
AcDbCircle
 10
-65.650646
 20
-110.879622
 30
0.0
 40
6.0
  0
CIRCLE
  5
39
100
AcDbEntity
  8
0
370
    -3
  6
Continuous
100
AcDbCircle
 10
80.349354
 20
-110.879622
 30
0.0
 40
9.0
  0
CIRCLE
  5
3A
100
AcDbEntity
  8
0
370
    -3
  6
Continuous
100
AcDbCircle
 10
80.349354
 20
-110.879622
 30
0.0
 40
5.4
  0
CIRCLE
  5
3B
100
AcDbEntity
  8
0
370
    -3
  6
Continuous
100
AcDbCircle
 10
80.349354
 20
-110.879622
 30
0.0
 40
6.0
  0
CIRCLE
  5
3C
100
AcDbEntity
  8
0
370
    -3
  6
Continuous
100
AcDbCircle
 10
80.349354
 20
-20.879622
 30
0.0
 40
9.0
  0
CIRCLE
  5
3D
100
AcDbEntity
  8
0
370
    -3
  6
Continuous
100
AcDbCircle
 10
80.349354
 20
-20.879622
 30
0.0
 40
5.4
  0
CIRCLE
  5
3E
100
AcDbEntity
  8
0
370
    -3
  6
Continuous
100
AcDbCircle
 10
80.349354
 20
-20.879622
 30
0.0
 40
6.0
  0
CIRCLE
  5
3F
100
AcDbEntity
  8
0
370
    -3
  6
Continuous
100
AcDbCircle
 10
-65.650646
 20
-20.879622
 30
0.0
 40
9.0
  0
CIRCLE
  5
40
100
AcDbEntity
  8
0
370
    -3
  6
Continuous
100
AcDbCircle
 10
-65.650646
 20
-20.879622
 30
0.0
 40
5.4
  0
CIRCLE
  5
41
100
AcDbEntity
  8
0
370
    -3
  6
Continuous
100
AcDbCircle
 10
-65.650646
 20
-20.879622
 30
0.0
 40
6.0
  0
LINE
  5
42
100
AcDbEntity
  8
0
370
    -3
  6
Continuous
100
AcDbLine
 10
-103.650646
 20
-12.879622
 30
0.0
 11
-223.650646
 21
-12.879622
 31
0.0
  0
LINE
  5
43
100
AcDbEntity
  8
0
370
    -3
  6
Continuous
100
AcDbLine
 10
-103.650646
 20
-34.957648
 30
0.0
 11
-223.650646
 21
-34.957648
 31
0.0
  0
LINE
  5
44
100
AcDbEntity
  8
0
370
    -3
  6
Continuous
100
AcDbLine
 10
-103.650646
 20
-28.028001
 30
0.0
 11
-223.650646
 21
-28.028001
 31
0.0
  0
LINE
  5
45
100
AcDbEntity
  8
0
370
    -3
  6
Continuous
100
AcDbLine
 10
-103.650646
 20
-83.879622
 30
0.0
 11
-103.650646
 21
-12.379622
 31
0.0
  0
LINE
  5
46
100
AcDbEntity
  8
0
370
    -3
  6
Continuous
100
AcDbLine
 10
-103.650646
 20
-153.879622
 30
0.0
 11
-103.650646
 21
-83.879622
 31
0.0
  0
LINE
  5
47
100
AcDbEntity
  8
0
370
    -3
  6
Continuous
100
AcDbLine
 10
-103.650646
 20
-139.731243
 30
0.0
 11
-223.650646
 21
-139.731243
 31
0.0
  0
LINE
  5
48
100
AcDbEntity
  8
0
370
    -3
  6
Continuous
100
AcDbLine
 10
-103.650646
 20
-132.801597
 30
0.0
 11
-223.650646
 21
-132.801597
 31
0.0
  0
ARC
  5
49
100
AcDbEntity
  8
0
370
    -3
  6
Continuous
100
AcDbCircle
 10
-242.650646
 20
-158.59742
 30
0.0
 40
1.0
100
AcDbArc
 50
90.0
 51
180.0
  0
LINE
  5
4A
100
AcDbEntity
  8
0
370
    -3
  6
Continuous
100
AcDbLine
 10
-242.650646
 20
-157.59742
 30
0.0
 11
-226.650646
 21
-157.59742
 31
0.0
  0
LINE
  5
4B
100
AcDbEntity
  8
0
370
    -3
  6
Continuous
100
AcDbLine
 10
-243.650646
 20
-158.679622
 30
0.0
 11
-243.650646
 21
-158.59742
 31
0.0
  0
LINE
  5
4C
100
AcDbEntity
  8
0
370
    -3
  6
Continuous
100
AcDbLine
 10
-243.650646
 20
-158.679622
 30
0.0
 11
-255.397811
 21
-158.679622
 31
0.0
  0
ARC
  5
4D
100
AcDbEntity
  8
0
370
    -3
  6
Continuous
100
AcDbCircle
 10
-226.650646
 20
-154.59742
 30
0.0
 40
3.0
100
AcDbArc
 50
270.0
 51
0.0
  0
LINE
  5
4E
100
AcDbEntity
  8
0
370
    -3
  6
Continuous
100
AcDbLine
 10
-223.650646
 20
-154.59742
 30
0.0
 11
-223.650646
 21
-83.879622
 31
0.0
  0
LINE
  5
4F
100
AcDbEntity
  8
0
370
    -3
  6
Continuous
100
AcDbLine
 10
-240.650646
 20
-144.12512
 30
0.0
 11
-242.579851
 21
-145.335782
 31
0.0
  0
LINE
  5
50
100
AcDbEntity
  8
0
370
    -3
  6
Continuous
100
AcDbLine
 10
-240.650646
 20
-144.12512
 30
0.0
 11
-242.650646
 21
-142.551783
 31
0.0
  0
LINE
  5
51
100
AcDbEntity
  8
0
370
    -3
  6
Continuous
100
AcDbLine
 10
-240.650646
 20
-144.12512
 30
0.0
 11
-238.721442
 21
-145.335782
 31
0.0
  0
LINE
  5
52
100
AcDbEntity
  8
0
370
    -3
  6
Continuous
100
AcDbLine
 10
-240.650646
 20
-144.12512
 30
0.0
 11
-238.650646
 21
-142.551783
 31
0.0
  0
ELLIPSE
  5
53
100
AcDbEntity
  8
0
370
    -3
  6
Continuous
100
AcDbEllipse
 10
-240.650646
 20
-142.286642
 30
0.0
 11
4.5
 21
0.0
 31
0.0
210
0.0
220
0.0
230
1.0
 40
0.707107
 41
5.3002993159361305
 42
4.1244786448332489
  0
ELLIPSE
  5
54
100
AcDbEntity
  8
0
370
    -3
  6
Continuous
100
AcDbEllipse
 10
-240.650646
 20
-142.823161
 30
0.0
 11
3.5
 21
0.0
 31
0.0
210
0.0
220
0.0
230
1.0
 40
0.860398
 41
0.0
 42
6.2831853071795862
  0
ELLIPSE
  5
55
100
AcDbEntity
  8
0
370
    -3
  6
Continuous
100
AcDbEllipse
 10
-240.650646
 20
-141.720957
 30
0.0
 11
5.0
 21
0.0
 31
0.0
210
0.0
220
0.0
230
1.0
 40
0.707107
 41
3.1415926535897931
 42
3.880864480530291
  0
ELLIPSE
  5
56
100
AcDbEntity
  8
0
370
    -3
  6
Continuous
100
AcDbEllipse
 10
-240.650646
 20
-141.720957
 30
0.0
 11
5.0
 21
0.0
 31
0.0
210
0.0
220
0.0
230
1.0
 40
0.707107
 41
5.5439134802390884
 42
0.0
  0
LINE
  5
57
100
AcDbEntity
  8
0
370
    -3
  6
Continuous
100
AcDbLine
 10
-236.150646
 20
-142.286642
 30
0.0
 11
-236.150646
 21
-141.720957
 31
0.0
  0
LINE
  5
58
100
AcDbEntity
  8
0
370
    -3
  6
Continuous
100
AcDbLine
 10
-245.150646
 20
-142.286642
 30
0.0
 11
-245.150646
 21
-141.720957
 31
0.0
  0
ELLIPSE
  5
59
100
AcDbEntity
  8
0
370
    -3
  6
Continuous
100
AcDbEllipse
 10
-240.650646
 20
-141.720957
 30
0.0
 11
4.5
 21
0.0
 31
0.0
210
0.0
220
0.0
230
1.0
 40
0.707107
 41
0.0
 42
3.1415926535897931
  0
LINE
  5
5A
100
AcDbEntity
  8
0
370
    -3
  6
Continuous
100
AcDbLine
 10
-235.650646
 20
-141.720957
 30
0.0
 11
-235.650646
 21
-140.904354
 31
0.0
  0
LINE
  5
5B
100
AcDbEntity
  8
0
370
    -3
  6
Continuous
100
AcDbLine
 10
-245.650646
 20
-141.720957
 30
0.0
 11
-245.650646
 21
-140.904354
 31
0.0
  0
ELLIPSE
  5
5C
100
AcDbEntity
  8
0
370
    -3
  6
Continuous
100
AcDbEllipse
 10
-240.650646
 20
-140.904354
 30
0.0
 11
5.0
 21
0.0
 31
0.0
210
0.0
220
0.0
230
1.0
 40
0.707107
 41
0.0
 42
3.1415926535897931
  0
LINE
  5
5D
100
AcDbEntity
  8
0
370
    -3
  6
Continuous
100
AcDbLine
 10
-103.650646
 20
-107.101878
 30
0.0
 11
-223.650646
 21
-107.101878
 31
0.0
  0
LINE
  5
5E
100
AcDbEntity
  8
0
370
    -3
  6
Continuous
100
AcDbLine
 10
-103.650646
 20
-99.122787
 30
0.0
 11
-223.650646
 21
-99.122787
 31
0.0
  0
LINE
  5
5F
100
AcDbEntity
  8
0
370
    -3
  6
Continuous
100
AcDbLine
 10
-103.650646
 20
-100.659623
 30
0.0
 11
-223.650646
 21
-100.659623
 31
0.0
  0
LINE
  5
60
100
AcDbEntity
  8
0
370
    -3
  6
Continuous
100
AcDbLine
 10
-103.650646
 20
-91.14262
 30
0.0
 11
-223.650646
 21
-91.14262
 31
0.0
  0
LINE
  5
61
100
AcDbEntity
  8
0
370
    -3
  6
Continuous
100
AcDbLine
 10
-103.650646
 20
-92.627778
 30
0.0
 11
-223.650646
 21
-92.627778
 31
0.0
  0
LINE
  5
62
100
AcDbEntity
  8
0
370
    -3
  6
Continuous
100
AcDbLine
 10
-103.650646
 20
-84.609418
 30
0.0
 11
-223.650646
 21
-84.609418
 31
0.0
  0
LINE
  5
63
100
AcDbEntity
  8
0
370
    -3
  6
Continuous
100
AcDbLine
 10
-103.650646
 20
-108.69413
 30
0.0
 11
-223.650646
 21
-108.69413
 31
0.0
  0
LINE
  5
64
100
AcDbEntity
  8
0
370
    -3
  6
Continuous
100
AcDbLine
 10
-103.650646
 20
-115.089667
 30
0.0
 11
-223.650646
 21
-115.089667
 31
0.0
  0
LINE
  5
65
100
AcDbEntity
  8
0
370
    -3
  6
Continuous
100
AcDbLine
 10
-103.650646
 20
-116.722394
 30
0.0
 11
-223.650646
 21
-116.722394
 31
0.0
  0
LINE
  5
66
100
AcDbEntity
  8
0
370
    -3
  6
Continuous
100
AcDbLine
 10
-103.650646
 20
-123.080264
 30
0.0
 11
-223.650646
 21
-123.080264
 31
0.0
  0
LINE
  5
67
100
AcDbEntity
  8
0
370
    -3
  6
Continuous
100
AcDbLine
 10
-103.650646
 20
-124.728891
 30
0.0
 11
-223.650646
 21
-124.728891
 31
0.0
  0
LINE
  5
68
100
AcDbEntity
  8
0
370
    -3
  6
Continuous
100
AcDbLine
 10
-103.650646
 20
-145.879622
 30
0.0
 11
-223.650646
 21
-145.879622
 31
0.0
  0
LINE
  5
69
100
AcDbEntity
  8
0
370
    -3
  6
Continuous
100
AcDbLine
 10
-103.650646
 20
-150.379622
 30
0.0
 11
-223.650646
 21
-150.379622
 31
0.0
  0
LINE
  5
6A
100
AcDbEntity
  8
0
370
    -3
  6
Continuous
100
AcDbLine
 10
-103.650646
 20
-60.657367
 30
0.0
 11
-223.650646
 21
-60.657367
 31
0.0
  0
LINE
  5
6B
100
AcDbEntity
  8
0
370
    -3
  6
Continuous
100
AcDbLine
 10
-103.650646
 20
-68.636458
 30
0.0
 11
-223.650646
 21
-68.636458
 31
0.0
  0
LINE
  5
6C
100
AcDbEntity
  8
0
370
    -3
  6
Continuous
100
AcDbLine
 10
-103.650646
 20
-67.099622
 30
0.0
 11
-223.650646
 21
-67.099622
 31
0.0
  0
LINE
  5
6D
100
AcDbEntity
  8
0
370
    -3
  6
Continuous
100
AcDbLine
 10
-103.650646
 20
-76.616624
 30
0.0
 11
-223.650646
 21
-76.616624
 31
0.0
  0
LINE
  5
6E
100
AcDbEntity
  8
0
370
    -3
  6
Continuous
100
AcDbLine
 10
-103.650646
 20
-75.131466
 30
0.0
 11
-223.650646
 21
-75.131466
 31
0.0
  0
LINE
  5
6F
100
AcDbEntity
  8
0
370
    -3
  6
Continuous
100
AcDbLine
 10
-103.650646
 20
-83.149827
 30
0.0
 11
-223.650646
 21
-83.149827
 31
0.0
  0
LINE
  5
70
100
AcDbEntity
  8
0
370
    -3
  6
Continuous
100
AcDbLine
 10
-103.650646
 20
-59.065115
 30
0.0
 11
-223.650646
 21
-59.065115
 31
0.0
  0
LINE
  5
71
100
AcDbEntity
  8
0
370
    -3
  6
Continuous
100
AcDbLine
 10
-103.650646
 20
-52.669578
 30
0.0
 11
-223.650646
 21
-52.669578
 31
0.0
  0
LINE
  5
72
100
AcDbEntity
  8
0
370
    -3
  6
Continuous
100
AcDbLine
 10
-103.650646
 20
-51.03685
 30
0.0
 11
-223.650646
 21
-51.03685
 31
0.0
  0
LINE
  5
73
100
AcDbEntity
  8
0
370
    -3
  6
Continuous
100
AcDbLine
 10
-103.650646
 20
-44.67898
 30
0.0
 11
-223.650646
 21
-44.67898
 31
0.0
  0
LINE
  5
74
100
AcDbEntity
  8
0
370
    -3
  6
Continuous
100
AcDbLine
 10
-103.650646
 20
-43.030353
 30
0.0
 11
-223.650646
 21
-43.030353
 31
0.0
  0
LINE
  5
75
100
AcDbEntity
  8
0
370
    -3
  6
Continuous
100
AcDbLine
 10
-103.650646
 20
-21.879622
 30
0.0
 11
-223.650646
 21
-21.879622
 31
0.0
  0
LINE
  5
76
100
AcDbEntity
  8
0
370
    -3
  6
Continuous
100
AcDbLine
 10
-103.650646
 20
-17.379622
 30
0.0
 11
-223.650646
 21
-17.379622
 31
0.0
  0
LINE
  5
77
100
AcDbEntity
  8
0
370
    -3
  6
Continuous
100
AcDbLine
 10
-103.650646
 20
-14.379622
 30
0.0
 11
-223.650646
 21
-14.379622
 31
0.0
  0
LINE
  5
78
100
AcDbEntity
  8
0
370
    -3
  6
Continuous
100
AcDbLine
 10
-103.650646
 20
-12.379622
 30
0.0
 11
-223.650646
 21
-12.379622
 31
0.0
  0
LINE
  5
79
100
AcDbEntity
  8
0
370
    -3
  6
Continuous
100
AcDbLine
 10
-223.650646
 20
-9.079622
 30
0.0
 11
-223.650646
 21
-83.879622
 31
0.0
  0
LINE
  5
7A
100
AcDbEntity
  8
0
370
    -3
  6
Continuous
100
AcDbLine
 10
-223.650646
 20
-9.079622
 30
0.0
 11
-255.397811
 21
-9.079622
 31
0.0
  0
LINE
  5
7B
100
AcDbEntity
  8
0
370
    -3
  6
Continuous
100
AcDbLine
 10
-285.750646
 20
-21.839063
 30
0.0
 11
-270.797811
 21
-13.20604
 31
0.0
  0
LINE
  5
7C
100
AcDbEntity
  8
0
370
    -3
  6
Continuous
100
AcDbLine
 10
-287.650646
 20
-83.879622
 30
0.0
 11
-287.650646
 21
-25.12996
 31
0.0
  0
ARC
  5
7D
100
AcDbEntity
  8
0
370
    -3
  6
Continuous
100
AcDbCircle
 10
-283.850646
 20
-25.12996
 30
0.0
 40
3.8
100
AcDbArc
 50
120.0
 51
180.0
  0
ARC
  5
7E
100
AcDbEntity
  8
0
370
    -3
  6
Continuous
100
AcDbCircle
 10
-255.397811
 20
-39.879622
 30
0.0
 40
30.8
100
AcDbArc
 50
90.0
 51
120.0
  0
LINE
  5
7F
100
AcDbEntity
  8
0
370
    -3
  6
Continuous
100
AcDbLine
 10
-285.750646
 20
-145.920181
 30
0.0
 11
-270.797811
 21
-154.553205
 31
0.0
  0
LINE
  5
80
100
AcDbEntity
  8
0
370
    -3
  6
Continuous
100
AcDbLine
 10
-287.650646
 20
-83.879622
 30
0.0
 11
-287.650646
 21
-142.629285
 31
0.0
  0
ARC
  5
81
100
AcDbEntity
  8
0
370
    -3
  6
Continuous
100
AcDbCircle
 10
-283.850646
 20
-142.629285
 30
0.0
 40
3.8
100
AcDbArc
 50
180.0
 51
240.0
  0
LINE
  5
82
100
AcDbEntity
  8
0
370
    -3
  6
Continuous
100
AcDbLine
 10
-240.650646
 20
-23.634124
 30
0.0
 11
-242.579851
 21
-22.423462
 31
0.0
  0
LINE
  5
83
100
AcDbEntity
  8
0
370
    -3
  6
Continuous
100
AcDbLine
 10
-240.650646
 20
-23.634124
 30
0.0
 11
-242.650646
 21
-25.207462
 31
0.0
  0
LINE
  5
84
100
AcDbEntity
  8
0
370
    -3
  6
Continuous
100
AcDbLine
 10
-240.650646
 20
-23.634124
 30
0.0
 11
-238.721442
 21
-22.423462
 31
0.0
  0
LINE
  5
85
100
AcDbEntity
  8
0
370
    -3
  6
Continuous
100
AcDbLine
 10
-240.650646
 20
-23.634124
 30
0.0
 11
-238.650646
 21
-25.207462
 31
0.0
  0
ELLIPSE
  5
86
100
AcDbEntity
  8
0
370
    -3
  6
Continuous
100
AcDbEllipse
 10
-240.650646
 20
-25.472602
 30
0.0
 11
4.5
 21
0.0
 31
0.0
210
0.0
220
0.0
230
1.0
 40
0.707107
 41
2.1587066623463373
 42
0.9828859912434559
  0
ELLIPSE
  5
87
100
AcDbEntity
  8
0
370
    -3
  6
Continuous
100
AcDbEllipse
 10
-240.650646
 20
-24.936084
 30
0.0
 11
3.5
 21
0.0
 31
0.0
210
0.0
220
0.0
230
1.0
 40
0.860398
 41
0.0
 42
6.2831853071795862
  0
ELLIPSE
  5
88
100
AcDbEntity
  8
0
370
    -3
  6
Continuous
100
AcDbEllipse
 10
-240.650646
 20
-26.038288
 30
0.0
 11
5.0
 21
0.0
 31
0.0
210
0.0
220
0.0
230
1.0
 40
0.707107
 41
2.4023208266492952
 42
3.1415926535897931
  0
ELLIPSE
  5
89
100
AcDbEntity
  8
0
370
    -3
  6
Continuous
100
AcDbEllipse
 10
-240.650646
 20
-26.038288
 30
0.0
 11
5.0
 21
0.0
 31
0.0
210
0.0
220
0.0
230
1.0
 40
0.707107
 41
0.0
 42
0.7392718269404981
  0
LINE
  5
8A
100
AcDbEntity
  8
0
370
    -3
  6
Continuous
100
AcDbLine
 10
-236.150646
 20
-25.472602
 30
0.0
 11
-236.150646
 21
-26.038288
 31
0.0
  0
LINE
  5
8B
100
AcDbEntity
  8
0
370
    -3
  6
Continuous
100
AcDbLine
 10
-245.150646
 20
-25.472602
 30
0.0
 11
-245.150646
 21
-26.038288
 31
0.0
  0
ELLIPSE
  5
8C
100
AcDbEntity
  8
0
370
    -3
  6
Continuous
100
AcDbEllipse
 10
-240.650646
 20
-26.038288
 30
0.0
 11
4.5
 21
0.0
 31
0.0
210
0.0
220
0.0
230
1.0
 40
0.707107
 41
3.1415926535897931
 42
0.0
  0
LINE
  5
8D
100
AcDbEntity
  8
0
370
    -3
  6
Continuous
100
AcDbLine
 10
-235.650646
 20
-26.038288
 30
0.0
 11
-235.650646
 21
-26.854891
 31
0.0
  0
LINE
  5
8E
100
AcDbEntity
  8
0
370
    -3
  6
Continuous
100
AcDbLine
 10
-245.650646
 20
-26.038288
 30
0.0
 11
-245.650646
 21
-26.854891
 31
0.0
  0
ELLIPSE
  5
8F
100
AcDbEntity
  8
0
370
    -3
  6
Continuous
100
AcDbEllipse
 10
-240.650646
 20
-26.854891
 30
0.0
 11
5.0
 21
0.0
 31
0.0
210
0.0
220
0.0
230
1.0
 40
0.707107
 41
3.1415926535897931
 42
0.0
  0
ARC
  5
90
100
AcDbEntity
  8
0
370
    -3
  6
Continuous
100
AcDbCircle
 10
-255.397811
 20
-127.879622
 30
0.0
 40
30.8
100
AcDbArc
 50
240.0
 51
270.0
  0
LINE
  5
91
100
AcDbEntity
  8
0
370
    -3
  6
Continuous
100
AcDbLine
 10
-103.650646
 20
-153.879622
 30
0.0
 11
-223.650646
 21
-153.879622
 31
0.0
  0
CIRCLE
  5
92
100
AcDbEntity
  8
0
370
    -3
  6
Continuous
100
AcDbCircle
 10
35.349354
 20
-65.879622
 30
0.0
 40
22.0
  0
ARC
  5
93
100
AcDbEntity
  8
0
370
    -3
  6
Continuous
100
AcDbCircle
 10
35.349354
 20
-65.879622
 30
0.0
 40
15.0
100
AcDbArc
 50
105.46601
 51
74.53399
  0
LINE
  5
94
100
AcDbEntity
  8
0
370
    -3
  6
Continuous
100
AcDbLine
 10
31.349354
 20
-47.579622
 30
0.0
 11
39.349354
 21
-47.579622
 31
0.0
  0
LINE
  5
95
100
AcDbEntity
  8
0
370
    -3
  6
Continuous
100
AcDbLine
 10
39.349354
 20
-47.579622
 30
0.0
 11
39.349354
 21
-51.42279
 31
0.0
  0
LINE
  5
96
100
AcDbEntity
  8
0
370
    -3
  6
Continuous
100
AcDbLine
 10
31.349354
 20
-47.579622
 30
0.0
 11
31.349354
 21
-51.42279
 31
0.0
  0
LINE
  5
97
100
AcDbEntity
  8
0
370
    -3
  6
Continuous
100
AcDbLine
 10
-103.650646
 20
-83.879622
 30
0.0
 11
-103.650646
 21
-12.379622
 31
0.0
  0
LINE
  5
98
100
AcDbEntity
  8
0
370
    -3
  6
Continuous
100
AcDbLine
 10
-103.650646
 20
-83.879622
 30
0.0
 11
-103.650646
 21
-153.879622
 31
0.0
  0
ARC
  5
99
100
AcDbEntity
  8
0
370
    -3
  6
Continuous
100
AcDbCircle
 10
-85.650646
 20
-33.879622
 30
0.0
 40
5.0
100
AcDbArc
 50
360.0
 51
90.0
  0
LINE
  5
9A
100
AcDbEntity
  8
0
370
    -3
  6
Continuous
100
AcDbLine
 10
-94.150646
 20
-28.879622
 30
0.0
 11
-85.650646
 21
-28.879622
 31
0.0
  0
ARC
  5
9B
100
AcDbEntity
  8
0
370
    -3
  6
Continuous
100
AcDbCircle
 10
-94.150646
 20
-25.879622
 30
0.0
 40
3.0
100
AcDbArc
 50
180.0
 51
270.0
  0
LINE
  5
9C
100
AcDbEntity
  8
0
370
    -3
  6
Continuous
100
AcDbLine
 10
-97.150646
 20
-83.879622
 30
0.0
 11
-97.150646
 21
-14.379622
 31
0.0
  0
ARC
  5
9D
100
AcDbEntity
  8
0
370
    -3
  6
Continuous
100
AcDbCircle
 10
-85.650646
 20
-22.879622
 30
0.0
 40
5.0
100
AcDbArc
 50
360.0
 51
90.0
  0
LINE
  5
9E
100
AcDbEntity
  8
0
370
    -3
  6
Continuous
100
AcDbLine
 10
-80.650646
 20
-83.879622
 30
0.0
 11
-80.650646
 21
-22.879622
 31
0.0
  0
ARC
  5
9F
100
AcDbEntity
  8
0
370
    -3
  6
Continuous
100
AcDbCircle
 10
-79.4673
 20
-15.879622
 30
0.0
 40
2.0
100
AcDbArc
 50
270.0
 51
349.524318
  0
LINE
  5
A0
100
AcDbEntity
  8
0
370
    -3
  6
Continuous
100
AcDbLine
 10
-79.4673
 20
-17.879622
 30
0.0
 11
-95.150646
 21
-17.879622
 31
0.0
  0
ARC
  5
A1
100
AcDbEntity
  8
0
370
    -3
  6
Continuous
100
AcDbCircle
 10
-95.150646
 20
-15.879622
 30
0.0
 40
2.0
100
AcDbArc
 50
180.0
 51
270.0
  0
ARC
  5
A2
100
AcDbEntity
  8
0
370
    -3
  6
Continuous
100
AcDbCircle
 10
-99.150646
 20
-14.379622
 30
0.0
 40
2.0
100
AcDbArc
 50
0.0
 51
90.0
  0
ARC
  5
A3
100
AcDbEntity
  8
0
370
    -3
  6
Continuous
100
AcDbCircle
 10
-99.150646
 20
-14.379622
 30
0.0
 40
2.0
100
AcDbArc
 50
0.0
 51
90.0
  0
ARC
  5
A4
100
AcDbEntity
  8
0
370
    -3
  6
Continuous
100
AcDbCircle
 10
-95.150646
 20
-15.879622
 30
0.0
 40
2.0
100
AcDbArc
 50
180.0
 51
270.0
  0
LINE
  5
A5
100
AcDbEntity
  8
0
370
    -3
  6
Continuous
100
AcDbLine
 10
-79.4673
 20
-17.879622
 30
0.0
 11
-95.150646
 21
-17.879622
 31
0.0
  0
ARC
  5
A6
100
AcDbEntity
  8
0
370
    -3
  6
Continuous
100
AcDbCircle
 10
-79.4673
 20
-15.879622
 30
0.0
 40
2.0
100
AcDbArc
 50
270.0
 51
349.524318
  0
LINE
  5
A7
100
AcDbEntity
  8
0
370
    -3
  6
Continuous
100
AcDbLine
 10
-80.650646
 20
-83.879622
 30
0.0
 11
-80.650646
 21
-22.879622
 31
0.0
  0
ARC
  5
A8
100
AcDbEntity
  8
0
370
    -3
  6
Continuous
100
AcDbCircle
 10
-85.650646
 20
-22.879622
 30
0.0
 40
5.0
100
AcDbArc
 50
360.0
 51
90.0
  0
LINE
  5
A9
100
AcDbEntity
  8
0
370
    -3
  6
Continuous
100
AcDbLine
 10
-97.150646
 20
-83.879622
 30
0.0
 11
-97.150646
 21
-14.379622
 31
0.0
  0
ARC
  5
AA
100
AcDbEntity
  8
0
370
    -3
  6
Continuous
100
AcDbCircle
 10
-94.150646
 20
-25.879622
 30
0.0
 40
3.0
100
AcDbArc
 50
180.0
 51
270.0
  0
LINE
  5
AB
100
AcDbEntity
  8
0
370
    -3
  6
Continuous
100
AcDbLine
 10
-94.150646
 20
-28.879622
 30
0.0
 11
-85.650646
 21
-28.879622
 31
0.0
  0
ARC
  5
AC
100
AcDbEntity
  8
0
370
    -3
  6
Continuous
100
AcDbCircle
 10
-85.650646
 20
-33.879622
 30
0.0
 40
5.0
100
AcDbArc
 50
360.0
 51
90.0
  0
ARC
  5
AD
100
AcDbEntity
  8
0
370
    -3
  6
Continuous
100
AcDbCircle
 10
-85.650646
 20
-42.122676
 30
0.0
 40
5.0
100
AcDbArc
 50
360.0
 51
90.0
  0
LINE
  5
AE
100
AcDbEntity
  8
0
370
    -3
  6
Continuous
100
AcDbLine
 10
-94.150646
 20
-37.122676
 30
0.0
 11
-85.650646
 21
-37.122676
 31
0.0
  0
ARC
  5
AF
100
AcDbEntity
  8
0
370
    -3
  6
Continuous
100
AcDbCircle
 10
-94.150646
 20
-45.239848
 30
0.0
 40
3.0
100
AcDbArc
 50
90.0
 51
180.0
  0
LINE
  5
B0
100
AcDbEntity
  8
0
370
    -3
  6
Continuous
100
AcDbLine
 10
-94.150646
 20
-42.239848
 30
0.0
 11
-83.089418
 21
-42.239848
 31
0.0
  0
ARC
  5
B1
100
AcDbEntity
  8
0
370
    -3
  6
Continuous
100
AcDbCircle
 10
-94.150646
 20
-40.122676
 30
0.0
 40
3.0
100
AcDbArc
 50
90.0
 51
180.0
  0
ARC
  5
B2
100
AcDbEntity
  8
0
370
    -3
  6
Continuous
100
AcDbCircle
 10
-94.150646
 20
-40.122676
 30
0.0
 40
3.0
100
AcDbArc
 50
90.0
 51
180.0
  0
LINE
  5
B3
100
AcDbEntity
  8
0
370
    -3
  6
Continuous
100
AcDbLine
 10
-94.150646
 20
-42.239848
 30
0.0
 11
-83.089418
 21
-42.239848
 31
0.0
  0
ARC
  5
B4
100
AcDbEntity
  8
0
370
    -3
  6
Continuous
100
AcDbCircle
 10
-94.150646
 20
-45.239848
 30
0.0
 40
3.0
100
AcDbArc
 50
90.0
 51
180.0
  0
LINE
  5
B5
100
AcDbEntity
  8
0
370
    -3
  6
Continuous
100
AcDbLine
 10
-94.150646
 20
-37.122676
 30
0.0
 11
-85.650646
 21
-37.122676
 31
0.0
  0
ARC
  5
B6
100
AcDbEntity
  8
0
370
    -3
  6
Continuous
100
AcDbCircle
 10
-85.650646
 20
-42.122676
 30
0.0
 40
5.0
100
AcDbArc
 50
360.0
 51
90.0
  0
LINE
  5
B7
100
AcDbEntity
  8
0
370
    -3
  6
Continuous
100
AcDbLine
 10
-97.150646
 20
-83.879622
 30
0.0
 11
-97.150646
 21
-153.379622
 31
0.0
  0
LINE
  5
B8
100
AcDbEntity
  8
0
370
    -3
  6
Continuous
100
AcDbLine
 10
-80.650646
 20
-83.879622
 30
0.0
 11
-80.650646
 21
-144.879622
 31
0.0
  0
LINE
  5
B9
100
AcDbEntity
  8
0
370
    -3
  6
Continuous
100
AcDbLine
 10
-80.650646
 20
-83.879622
 30
0.0
 11
-80.650646
 21
-144.879622
 31
0.0
  0
LINE
  5
BA
100
AcDbEntity
  8
0
370
    -3
  6
Continuous
100
AcDbLine
 10
-97.150646
 20
-83.879622
 30
0.0
 11
-97.150646
 21
-153.379622
 31
0.0
  0
ARC
  5
BB
100
AcDbEntity
  8
0
370
    -3
  6
Continuous
100
AcDbCircle
 10
-85.650646
 20
-125.636568
 30
0.0
 40
5.0
100
AcDbArc
 50
270.0
 51
0.0
  0
LINE
  5
BC
100
AcDbEntity
  8
0
370
    -3
  6
Continuous
100
AcDbLine
 10
-94.150646
 20
-130.636568
 30
0.0
 11
-85.650646
 21
-130.636568
 31
0.0
  0
ARC
  5
BD
100
AcDbEntity
  8
0
370
    -3
  6
Continuous
100
AcDbCircle
 10
-85.650646
 20
-133.879622
 30
0.0
 40
5.0
100
AcDbArc
 50
270.0
 51
0.0
  0
ARC
  5
BE
100
AcDbEntity
  8
0
370
    -3
  6
Continuous
100
AcDbCircle
 10
-94.150646
 20
-122.519397
 30
0.0
 40
3.0
100
AcDbArc
 50
180.0
 51
270.0
  0
LINE
  5
BF
100
AcDbEntity
  8
0
370
    -3
  6
Continuous
100
AcDbLine
 10
-94.150646
 20
-125.519397
 30
0.0
 11
-83.089418
 21
-125.519397
 31
0.0
  0
ARC
  5
C0
100
AcDbEntity
  8
0
370
    -3
  6
Continuous
100
AcDbCircle
 10
-94.150646
 20
-127.636568
 30
0.0
 40
3.0
100
AcDbArc
 50
180.0
 51
270.0
  0
ARC
  5
C1
100
AcDbEntity
  8
0
370
    -3
  6
Continuous
100
AcDbCircle
 10
-77.650646
 20
-131.879622
 30
0.0
 40
3.0
100
AcDbArc
 50
90.0
 51
180.0
  0
ARC
  5
C2
100
AcDbEntity
  8
0
370
    -3
  6
Continuous
100
AcDbCircle
 10
-77.650646
 20
-131.879622
 30
0.0
 40
3.0
100
AcDbArc
 50
90.0
 51
180.0
  0
ARC
  5
C3
100
AcDbEntity
  8
0
370
    -3
  6
Continuous
100
AcDbCircle
 10
-94.150646
 20
-127.636568
 30
0.0
 40
3.0
100
AcDbArc
 50
180.0
 51
270.0
  0
LINE
  5
C4
100
AcDbEntity
  8
0
370
    -3
  6
Continuous
100
AcDbLine
 10
-94.150646
 20
-125.519397
 30
0.0
 11
-83.089418
 21
-125.519397
 31
0.0
  0
ARC
  5
C5
100
AcDbEntity
  8
0
370
    -3
  6
Continuous
100
AcDbCircle
 10
-94.150646
 20
-122.519397
 30
0.0
 40
3.0
100
AcDbArc
 50
180.0
 51
270.0
  0
ARC
  5
C6
100
AcDbEntity
  8
0
370
    -3
  6
Continuous
100
AcDbCircle
 10
-85.650646
 20
-133.879622
 30
0.0
 40
5.0
100
AcDbArc
 50
270.0
 51
0.0
  0
LINE
  5
C7
100
AcDbEntity
  8
0
370
    -3
  6
Continuous
100
AcDbLine
 10
-94.150646
 20
-130.636568
 30
0.0
 11
-85.650646
 21
-130.636568
 31
0.0
  0
ARC
  5
C8
100
AcDbEntity
  8
0
370
    -3
  6
Continuous
100
AcDbCircle
 10
-85.650646
 20
-125.636568
 30
0.0
 40
5.0
100
AcDbArc
 50
270.0
 51
0.0
  0
LINE
  5
C9
100
AcDbEntity
  8
0
370
    -3
  6
Continuous
100
AcDbLine
 10
-77.650646
 20
-128.879622
 30
0.0
 11
-74.650646
 21
-128.879622
 31
0.0
  0
ARC
  5
CA
100
AcDbEntity
  8
0
370
    -3
  6
Continuous
100
AcDbCircle
 10
-74.650646
 20
-125.879622
 30
0.0
 40
3.0
100
AcDbArc
 50
270.0
 51
0.0
  0
ARC
  5
CB
100
AcDbEntity
  8
0
370
    -3
  6
Continuous
100
AcDbCircle
 10
-68.650646
 20
-125.879622
 30
0.0
 40
3.0
100
AcDbArc
 50
90.0
 51
180.0
  0
ARC
  5
CC
100
AcDbEntity
  8
0
370
    -3
  6
Continuous
100
AcDbCircle
 10
-68.650646
 20
-125.879622
 30
0.0
 40
3.0
100
AcDbArc
 50
90.0
 51
180.0
  0
ARC
  5
CD
100
AcDbEntity
  8
0
370
    -3
  6
Continuous
100
AcDbCircle
 10
-74.650646
 20
-125.879622
 30
0.0
 40
3.0
100
AcDbArc
 50
270.0
 51
0.0
  0
LINE
  5
CE
100
AcDbEntity
  8
0
370
    -3
  6
Continuous
100
AcDbLine
 10
-77.650646
 20
-128.879622
 30
0.0
 11
-74.650646
 21
-128.879622
 31
0.0
  0
LINE
  5
CF
100
AcDbEntity
  8
0
370
    -3
  6
Continuous
100
AcDbLine
 10
-99.150646
 20
-155.379622
 30
0.0
 11
-104.650646
 21
-155.379622
 31
0.0
  0
LINE
  5
D0
100
AcDbEntity
  8
0
370
    -3
  6
Continuous
100
AcDbLine
 10
-85.650646
 20
-149.879622
 30
0.0
 11
-95.150646
 21
-149.879622
 31
0.0
  0
LINE
  5
D1
100
AcDbEntity
  8
0
370
    -3
  6
Continuous
100
AcDbLine
 10
-94.150646
 20
-138.879622
 30
0.0
 11
-85.650646
 21
-138.879622
 31
0.0
  0
ARC
  5
D2
100
AcDbEntity
  8
0
370
    -3
  6
Continuous
100
AcDbCircle
 10
-94.150646
 20
-141.879622
 30
0.0
 40
3.0
100
AcDbArc
 50
90.0
 51
180.0
  0
ARC
  5
D3
100
AcDbEntity
  8
0
370
    -3
  6
Continuous
100
AcDbCircle
 10
-85.650646
 20
-144.879622
 30
0.0
 40
5.0
100
AcDbArc
 50
270.0
 51
0.0
  0
ARC
  5
D4
100
AcDbEntity
  8
0
370
    -3
  6
Continuous
100
AcDbCircle
 10
-95.150646
 20
-151.879622
 30
0.0
 40
2.0
100
AcDbArc
 50
90.0
 51
180.0
  0
ARC
  5
D5
100
AcDbEntity
  8
0
370
    -3
  6
Continuous
100
AcDbCircle
 10
-99.150646
 20
-153.379622
 30
0.0
 40
2.0
100
AcDbArc
 50
270.0
 51
0.0
  0
ARC
  5
D6
100
AcDbEntity
  8
0
370
    -3
  6
Continuous
100
AcDbCircle
 10
-85.650646
 20
-144.879622
 30
0.0
 40
5.0
100
AcDbArc
 50
270.0
 51
0.0
  0
ARC
  5
D7
100
AcDbEntity
  8
0
370
    -3
  6
Continuous
100
AcDbCircle
 10
-85.650646
 20
-144.879622
 30
0.0
 40
5.0
100
AcDbArc
 50
270.0
 51
0.0
  0
ARC
  5
D8
100
AcDbEntity
  8
0
370
    -3
  6
Continuous
100
AcDbCircle
 10
-99.150646
 20
-153.379622
 30
0.0
 40
2.0
100
AcDbArc
 50
270.0
 51
0.0
  0
ARC
  5
D9
100
AcDbEntity
  8
0
370
    -3
  6
Continuous
100
AcDbCircle
 10
-95.150646
 20
-151.879622
 30
0.0
 40
2.0
100
AcDbArc
 50
90.0
 51
180.0
  0
ARC
  5
DA
100
AcDbEntity
  8
0
370
    -3
  6
Continuous
100
AcDbCircle
 10
-85.650646
 20
-144.879622
 30
0.0
 40
5.0
100
AcDbArc
 50
270.0
 51
0.0
  0
ARC
  5
DB
100
AcDbEntity
  8
0
370
    -3
  6
Continuous
100
AcDbCircle
 10
-94.150646
 20
-141.879622
 30
0.0
 40
3.0
100
AcDbArc
 50
90.0
 51
180.0
  0
LINE
  5
DC
100
AcDbEntity
  8
0
370
    -3
  6
Continuous
100
AcDbLine
 10
-94.150646
 20
-138.879622
 30
0.0
 11
-85.650646
 21
-138.879622
 31
0.0
  0
LINE
  5
DD
100
AcDbEntity
  8
0
370
    -3
  6
Continuous
100
AcDbLine
 10
-85.650646
 20
-149.879622
 30
0.0
 11
-95.150646
 21
-149.879622
 31
0.0
  0
LINE
  5
DE
100
AcDbEntity
  8
0
370
    -3
  6
CENTER
100
AcDbLine
 10
-65.650646
 20
-126.906597
 30
0.0
 11
-65.650646
 21
-99.365682
 31
0.0
  0
LINE
  5
DF
100
AcDbEntity
  8
0
370
    -3
  6
CENTER
100
AcDbLine
 10
-55.113205
 20
-110.879622
 30
0.0
 11
-81.601264
 21
-110.879622
 31
0.0
  0
LINE
  5
E0
100
AcDbEntity
  8
0
370
    -3
  6
CENTER
100
AcDbLine
 10
80.349354
 20
-126.175423
 30
0.0
 11
80.349354
 21
-98.634507
 31
0.0
  0
LINE
  5
E1
100
AcDbEntity
  8
0
370
    -3
  6
CENTER
100
AcDbLine
 10
98.998896
 20
-110.879622
 30
0.0
 11
69.703538
 21
-110.879622
 31
0.0
  0
LINE
  5
E2
100
AcDbEntity
  8
0
370
    -3
  6
CENTER
100
AcDbLine
 10
80.349354
 20
-32.45251
 30
0.0
 11
80.349354
 21
-0.510857
 31
0.0
  0
LINE
  5
E3
100
AcDbEntity
  8
0
370
    -3
  6
CENTER
100
AcDbLine
 10
99.242621
 20
-20.879622
 30
0.0
 11
68.045832
 21
-20.879622
 31
0.0
  0
LINE
  5
E4
100
AcDbEntity
  8
0
370
    -3
  6
CENTER
100
AcDbLine
 10
-56.966359
 20
-115.879622
 30
0.0
 11
-44.086938
 21
-115.879622
 31
0.0
  0
LINE
  5
E5
100
AcDbEntity
  8
0
370
    -3
  6
CENTER
100
AcDbLine
 10
-50.650646
 20
-123.094081
 30
0.0
 11
-50.650646
 21
-110.122001
 31
0.0
  0
LINE
  5
E6
100
AcDbEntity
  8
0
370
    -3
  6
CENTER
100
AcDbLine
 10
59.033641
 20
-115.879622
 30
0.0
 11
71.913062
 21
-115.879622
 31
0.0
  0
LINE
  5
E7
100
AcDbEntity
  8
0
370
    -3
  6
CENTER
100
AcDbLine
 10
65.349354
 20
-123.094081
 30
0.0
 11
65.349354
 21
-110.122001
 31
0.0
  0
LINE
  5
E8
100
AcDbEntity
  8
0
370
    -3
  6
CENTER
100
AcDbLine
 10
59.033641
 20
-15.879622
 30
0.0
 11
71.913062
 21
-15.879622
 31
0.0
  0
LINE
  5
E9
100
AcDbEntity
  8
0
370
    -3
  6
CENTER
100
AcDbLine
 10
65.349354
 20
-23.094081
 30
0.0
 11
65.349354
 21
-10.122001
 31
0.0
  0
LINE
  5
EA
100
AcDbEntity
  8
0
370
    -3
  6
CENTER
100
AcDbLine
 10
-65.650646
 20
-32.45251
 30
0.0
 11
-65.650646
 21
-0.998307
 31
0.0
  0
LINE
  5
EB
100
AcDbEntity
  8
0
370
    -3
  6
CENTER
100
AcDbLine
 10
-55.113205
 20
-20.879622
 30
0.0
 11
-80.38264
 21
-20.879622
 31
0.0
  0
LINE
  5
EC
100
AcDbEntity
  8
0
370
    -3
  6
CENTER
100
AcDbLine
 10
-50.650646
 20
-23.094081
 30
0.0
 11
-50.650646
 21
-10.122001
 31
0.0
  0
LINE
  5
ED
100
AcDbEntity
  8
0
370
    -3
  6
CENTER
100
AcDbLine
 10
-56.966359
 20
-15.879622
 30
0.0
 11
-44.086938
 21
-15.879622
 31
0.0
  0
LINE
  5
EE
100
AcDbEntity
  8
0
370
    -3
  6
Continuous
100
AcDbLine
 10
91.849354
 20
-113.379622
 30
0.0
 11
91.849354
 21
-66.745648
 31
0.0
  0
LINE
  5
EF
100
AcDbEntity
  8
0
370
    -3
  6
Continuous
100
AcDbLine
 10
82.849354
 20
-122.379622
 30
0.0
 11
36.215379
 21
-122.379622
 31
0.0
  0
ARC
  5
F0
100
AcDbEntity
  8
0
370
    -3
  6
Continuous
100
AcDbCircle
 10
82.849354
 20
-113.379622
 30
0.0
 40
9.0
100
AcDbArc
 50
270.0
 51
0.0
  0
ARC
  5
F1
100
AcDbEntity
  8
0
370
    -3
  6
Continuous
100
AcDbCircle
 10
82.849354
 20
-18.379622
 30
0.0
 40
9.0
100
AcDbArc
 50
0.0
 51
90.0
  0
LINE
  5
F2
100
AcDbEntity
  8
0
370
    -3
  6
Continuous
100
AcDbLine
 10
36.215379
 20
-9.379622
 30
0.0
 11
82.849354
 21
-9.379622
 31
0.0
  0
LINE
  5
F3
100
AcDbEntity
  8
0
370
    -3
  6
Continuous
100
AcDbLine
 10
91.849354
 20
-65.013597
 30
0.0
 11
91.849354
 21
-18.379622
 31
0.0
  0
LINE
  5
F4
100
AcDbEntity
  8
0
370
    -3
  6
Continuous
100
AcDbLine
 10
-56.150646
 20
-15.879622
 30
0.0
 11
-56.150646
 21
-9.279622
 31
0.0
  0
LINE
  5
F5
100
AcDbEntity
  8
0
370
    -3
  6
Continuous
100
AcDbLine
 10
-56.150646
 20
-9.279622
 30
0.0
 11
-56.550646
 21
-8.879622
 31
0.0
  0
LINE
  5
F6
100
AcDbEntity
  8
0
370
    -3
  6
Continuous
100
AcDbLine
 10
-45.150646
 20
-15.879622
 30
0.0
 11
-45.150646
 21
-9.279622
 31
0.0
  0
LINE
  5
F7
100
AcDbEntity
  8
0
370
    -3
  6
Continuous
100
AcDbLine
 10
-45.150646
 20
-9.279622
 30
0.0
 11
-44.750646
 21
-8.879622
 31
0.0
  0
ARC
  5
F8
100
AcDbEntity
  8
0
370
    -3
  6
Continuous
100
AcDbCircle
 10
-50.650646
 20
-15.879622
 30
0.0
 40
5.5
100
AcDbArc
 50
180.0
 51
0.0
  0
LINE
  5
F9
100
AcDbEntity
  8
0
370
    -3
  6
Continuous
100
AcDbLine
 10
59.849354
 20
-15.879622
 30
0.0
 11
59.849354
 21
-9.279622
 31
0.0
  0
LINE
  5
FA
100
AcDbEntity
  8
0
370
    -3
  6
Continuous
100
AcDbLine
 10
59.849354
 20
-9.279622
 30
0.0
 11
59.449354
 21
-8.879622
 31
0.0
  0
LINE
  5
FB
100
AcDbEntity
  8
0
370
    -3
  6
Continuous
100
AcDbLine
 10
70.849354
 20
-15.879622
 30
0.0
 11
70.849354
 21
-9.279622
 31
0.0
  0
LINE
  5
FC
100
AcDbEntity
  8
0
370
    -3
  6
Continuous
100
AcDbLine
 10
70.849354
 20
-9.279622
 30
0.0
 11
71.249354
 21
-8.879622
 31
0.0
  0
ARC
  5
FD
100
AcDbEntity
  8
0
370
    -3
  6
Continuous
100
AcDbCircle
 10
65.349354
 20
-15.879622
 30
0.0
 40
5.5
100
AcDbArc
 50
180.0
 51
0.0
  0
ARC
  5
FE
100
AcDbEntity
  8
0
370
    -3
  6
Continuous
100
AcDbCircle
 10
65.349354
 20
-115.879622
 30
0.0
 40
5.5
100
AcDbArc
 50
0.0
 51
180.0
  0
LINE
  5
FF
100
AcDbEntity
  8
0
370
    -3
  6
Continuous
100
AcDbLine
 10
70.849354
 20
-115.879622
 30
0.0
 11
70.849354
 21
-122.479622
 31
0.0
  0
LINE
  5
100
100
AcDbEntity
  8
0
370
    -3
  6
Continuous
100
AcDbLine
 10
70.849354
 20
-122.479622
 30
0.0
 11
71.249354
 21
-122.879622
 31
0.0
  0
LINE
  5
101
100
AcDbEntity
  8
0
370
    -3
  6
Continuous
100
AcDbLine
 10
59.849354
 20
-115.879622
 30
0.0
 11
59.849354
 21
-122.479622
 31
0.0
  0
LINE
  5
102
100
AcDbEntity
  8
0
370
    -3
  6
Continuous
100
AcDbLine
 10
59.849354
 20
-122.479622
 30
0.0
 11
59.449354
 21
-122.879622
 31
0.0
  0
ARC
  5
103
100
AcDbEntity
  8
0
370
    -3
  6
Continuous
100
AcDbCircle
 10
83.349354
 20
-17.879622
 30
0.0
 40
9.0
100
AcDbArc
 50
0.0
 51
90.0
  0
LINE
  5
104
100
AcDbEntity
  8
0
370
    -3
  6
Continuous
100
AcDbLine
 10
92.349354
 20
-65.879622
 30
0.0
 11
92.349354
 21
-17.879622
 31
0.0
  0
LINE
  5
105
100
AcDbEntity
  8
0
370
    -3
  6
Continuous
100
AcDbLine
 10
92.349354
 20
-65.879622
 30
0.0
 11
92.349354
 21
-113.879622
 31
0.0
  0
ARC
  5
106
100
AcDbEntity
  8
0
370
    -3
  6
Continuous
100
AcDbCircle
 10
83.349354
 20
-113.879622
 30
0.0
 40
9.0
100
AcDbArc
 50
270.0
 51
0.0
  0
LINE
  5
107
100
AcDbEntity
  8
0
370
    -3
  6
Continuous
100
AcDbLine
 10
83.349354
 20
-122.879622
 30
0.0
 11
35.349354
 21
-122.879622
 31
0.0
  0
LINE
  5
108
100
AcDbEntity
  8
0
370
    -3
  6
Continuous
100
AcDbLine
 10
83.349354
 20
-8.879622
 30
0.0
 11
35.349354
 21
-8.879622
 31
0.0
  0
CIRCLE
  5
109
100
AcDbEntity
  8
0
370
    -3
  6
Continuous
100
AcDbCircle
 10
-50.650646
 20
-15.879622
 30
0.0
 40
3.3
  0
CIRCLE
  5
10A
100
AcDbEntity
  8
0
370
    -3
  6
Continuous
100
AcDbCircle
 10
65.349354
 20
-15.879622
 30
0.0
 40
3.3
  0
CIRCLE
  5
10B
100
AcDbEntity
  8
0
370
    -3
  6
Continuous
100
AcDbCircle
 10
-50.650646
 20
-115.879622
 30
0.0
 40
3.3
  0
CIRCLE
  5
10C
100
AcDbEntity
  8
0
370
    -3
  6
Continuous
100
AcDbCircle
 10
65.349354
 20
-115.879622
 30
0.0
 40
3.3
  0
ARC
  5
10D
100
AcDbEntity
  8
0
370
    -3
  6
Continuous
100
AcDbCircle
 10
79.349354
 20
-38.351027
 30
0.0
 40
5.0
100
AcDbArc
 50
0.0
 51
86.724171
  0
ARC
  5
10E
100
AcDbEntity
  8
0
370
    -3
  6
Continuous
100
AcDbCircle
 10
79.349354
 20
-38.351027
 30
0.0
 40
3.5
100
AcDbArc
 50
0.0
 51
86.724171
  0
LINE
  5
10F
100
AcDbEntity
  8
0
370
    -3
  6
Continuous
100
AcDbLine
 10
82.849354
 20
-38.351027
 30
0.0
 11
82.849354
 21
-93.408217
 31
0.0
  0
LINE
  5
110
100
AcDbEntity
  8
0
370
    -3
  6
Continuous
100
AcDbLine
 10
84.349354
 20
-38.351027
 30
0.0
 11
84.349354
 21
-93.408217
 31
0.0
  0
ARC
  5
111
100
AcDbEntity
  8
0
370
    -3
  6
Continuous
100
AcDbCircle
 10
79.349354
 20
-93.408217
 30
0.0
 40
5.0
100
AcDbArc
 50
273.275829
 51
0.0
  0
ARC
  5
112
100
AcDbEntity
  8
0
370
    -3
  6
Continuous
100
AcDbCircle
 10
79.349354
 20
-93.408217
 30
0.0
 40
3.5
100
AcDbArc
 50
273.275829
 51
0.0
  0
ARC
  5
113
100
AcDbEntity
  8
0
370
    -3
  6
Continuous
100
AcDbCircle
 10
7.820759
 20
-109.879622
 30
0.0
 40
3.5
100
AcDbArc
 50
183.275829
 51
270.0
  0
ARC
  5
114
100
AcDbEntity
  8
0
370
    -3
  6
Continuous
100
AcDbCircle
 10
7.820759
 20
-109.879622
 30
0.0
 40
4.0
100
AcDbArc
 50
183.275829
 51
270.0
  0
ARC
  5
115
100
AcDbEntity
  8
0
370
    -3
  6
Continuous
100
AcDbCircle
 10
-9.650646
 20
-110.879622
 30
0.0
 40
14.0
100
AcDbArc
 50
3.275829
 51
86.724171
  0
ARC
  5
116
100
AcDbEntity
  8
0
370
    -3
  6
Continuous
100
AcDbCircle
 10
-9.650646
 20
-110.879622
 30
0.0
 40
13.5
100
AcDbArc
 50
3.275829
 51
86.724171
  0
LINE
  5
117
100
AcDbEntity
  8
0
370
    -3
  6
Continuous
100
AcDbLine
 10
-12.150646
 20
-38.351027
 30
0.0
 11
-12.150646
 21
-93.408217
 31
0.0
  0
LINE
  5
118
100
AcDbEntity
  8
0
370
    -3
  6
Continuous
100
AcDbLine
 10
-12.650646
 20
-38.351027
 30
0.0
 11
-12.650646
 21
-93.408217
 31
0.0
  0
ARC
  5
119
100
AcDbEntity
  8
0
370
    -3
  6
Continuous
100
AcDbCircle
 10
-8.650646
 20
-93.408217
 30
0.0
 40
3.5
100
AcDbArc
 50
180.0
 51
266.724171
  0
ARC
  5
11A
100
AcDbEntity
  8
0
370
    -3
  6
Continuous
100
AcDbCircle
 10
-8.650646
 20
-93.408217
 30
0.0
 40
4.0
100
AcDbArc
 50
180.0
 51
266.724171
  0
ARC
  5
11B
100
AcDbEntity
  8
0
370
    -3
  6
Continuous
100
AcDbCircle
 10
-8.650646
 20
-38.351027
 30
0.0
 40
3.5
100
AcDbArc
 50
93.275829
 51
180.0
  0
ARC
  5
11C
100
AcDbEntity
  8
0
370
    -3
  6
Continuous
100
AcDbCircle
 10
-8.650646
 20
-38.351027
 30
0.0
 40
4.0
100
AcDbArc
 50
93.275829
 51
180.0
  0
ARC
  5
11D
100
AcDbEntity
  8
0
370
    -3
  6
Continuous
100
AcDbCircle
 10
-9.650646
 20
-20.879622
 30
0.0
 40
14.0
100
AcDbArc
 50
273.275829
 51
356.724171
  0
ARC
  5
11E
100
AcDbEntity
  8
0
370
    -3
  6
Continuous
100
AcDbCircle
 10
-9.650646
 20
-20.879622
 30
0.0
 40
13.5
100
AcDbArc
 50
273.275829
 51
356.724171
  0
ARC
  5
11F
100
AcDbEntity
  8
0
370
    -3
  6
Continuous
100
AcDbCircle
 10
7.820759
 20
-21.879622
 30
0.0
 40
4.0
100
AcDbArc
 50
90.0
 51
176.724171
  0
ARC
  5
120
100
AcDbEntity
  8
0
370
    -3
  6
Continuous
100
AcDbCircle
 10
7.820759
 20
-21.879622
 30
0.0
 40
3.5
100
AcDbArc
 50
90.0
 51
176.724171
  0
ARC
  5
121
100
AcDbEntity
  8
0
370
    -3
  6
Continuous
100
AcDbCircle
 10
33.617303
 20
-9.879622
 30
0.0
 40
1.0
100
AcDbArc
 50
30.0
 51
90.0
  0
ARC
  5
122
100
AcDbEntity
  8
0
370
    -3
  6
Continuous
100
AcDbCircle
 10
37.081404
 20
-9.879622
 30
0.0
 40
1.0
100
AcDbArc
 50
90.0
 51
150.0
  0
ARC
  5
123
100
AcDbEntity
  8
0
370
    -3
  6
Continuous
100
AcDbCircle
 10
35.349354
 20
-8.879622
 30
0.0
 40
1.0
100
AcDbArc
 50
210.0
 51
330.0
  0
ARC
  5
124
100
AcDbEntity
  8
0
370
    -3
  6
Continuous
100
AcDbCircle
 10
91.349354
 20
-64.147571
 30
0.0
 40
1.0
100
AcDbArc
 50
300.0
 51
0.0
  0
ARC
  5
125
100
AcDbEntity
  8
0
370
    -3
  6
Continuous
100
AcDbCircle
 10
91.349354
 20
-67.611673
 30
0.0
 40
1.0
100
AcDbArc
 50
0.0
 51
60.0
  0
ARC
  5
126
100
AcDbEntity
  8
0
370
    -3
  6
Continuous
100
AcDbCircle
 10
92.349354
 20
-65.879622
 30
0.0
 40
1.0
100
AcDbArc
 50
120.0
 51
240.0
  0
ARC
  5
127
100
AcDbEntity
  8
0
370
    -3
  6
Continuous
100
AcDbCircle
 10
37.081404
 20
-121.879622
 30
0.0
 40
1.0
100
AcDbArc
 50
210.0
 51
270.0
  0
ARC
  5
128
100
AcDbEntity
  8
0
370
    -3
  6
Continuous
100
AcDbCircle
 10
33.617303
 20
-121.879622
 30
0.0
 40
1.0
100
AcDbArc
 50
270.0
 51
330.0
  0
ARC
  5
129
100
AcDbEntity
  8
0
370
    -3
  6
Continuous
100
AcDbCircle
 10
35.349354
 20
-122.879622
 30
0.0
 40
1.0
100
AcDbArc
 50
30.0
 51
150.0
  0
ARC
  5
12A
100
AcDbEntity
  8
0
370
    -3
  6
Continuous
100
AcDbCircle
 10
54.383497
 20
-21.879622
 30
0.0
 40
5.0
100
AcDbArc
 50
28.685402
 51
90.0
  0
ARC
  5
12B
100
AcDbEntity
  8
0
370
    -3
  6
Continuous
100
AcDbCircle
 10
80.349354
 20
-20.879622
 30
0.0
 40
12.5
100
AcDbArc
 50
210.012476
 51
266.724171
  0
ARC
  5
12C
100
AcDbEntity
  8
0
370
    -3
  6
Continuous
100
AcDbCircle
 10
65.349354
 20
-15.879622
 30
0.0
 40
7.5
100
AcDbArc
 50
208.685402
 51
259.77568
  0
ARC
  5
12D
100
AcDbEntity
  8
0
370
    -3
  6
Continuous
100
AcDbCircle
 10
62.598065
 20
-31.133488
 30
0.0
 40
8.0
100
AcDbArc
 50
30.012476
 51
79.77568
  0
LINE
  5
12E
100
AcDbEntity
  8
0
370
    -3
  6
Continuous
100
AcDbLine
 10
7.820759
 20
-18.379622
 30
0.0
 11
54.383497
 21
-18.379622
 31
0.0
  0
ARC
  5
12F
100
AcDbEntity
  8
0
370
    -3
  6
Continuous
100
AcDbCircle
 10
54.383497
 20
-21.879622
 30
0.0
 40
3.5
100
AcDbArc
 50
28.685402
 51
90.0
  0
ARC
  5
130
100
AcDbEntity
  8
0
370
    -3
  6
Continuous
100
AcDbCircle
 10
80.349354
 20
-20.879622
 30
0.0
 40
14.0
100
AcDbArc
 50
210.012476
 51
266.724171
  0
ARC
  5
131
100
AcDbEntity
  8
0
370
    -3
  6
Continuous
100
AcDbCircle
 10
65.349354
 20
-15.879622
 30
0.0
 40
9.0
100
AcDbArc
 50
208.685402
 51
259.77568
  0
ARC
  5
132
100
AcDbEntity
  8
0
370
    -3
  6
Continuous
100
AcDbCircle
 10
62.598065
 20
-31.133488
 30
0.0
 40
6.5
100
AcDbArc
 50
30.012476
 51
79.77568
  0
ARC
  5
133
100
AcDbEntity
  8
0
370
    -3
  6
Continuous
100
AcDbCircle
 10
-47.899358
 20
-31.133488
 30
0.0
 40
8.0
100
AcDbArc
 50
100.22432
 51
149.987524
  0
LINE
  5
134
100
AcDbEntity
  8
0
370
    -3
  6
Continuous
100
AcDbLine
 10
54.383497
 20
-16.879622
 30
0.0
 11
-39.68479
 21
-16.879622
 31
0.0
  0
ARC
  5
135
100
AcDbEntity
  8
0
370
    -3
  6
Continuous
100
AcDbCircle
 10
-50.650646
 20
-15.879622
 30
0.0
 40
7.5
100
AcDbArc
 50
280.22432
 51
331.314598
  0
ARC
  5
136
100
AcDbEntity
  8
0
370
    -3
  6
Continuous
100
AcDbCircle
 10
-39.68479
 20
-21.879622
 30
0.0
 40
5.0
100
AcDbArc
 50
90.0
 51
151.314598
  0
ARC
  5
137
100
AcDbEntity
  8
0
370
    -3
  6
Continuous
100
AcDbCircle
 10
-47.899358
 20
-31.133488
 30
0.0
 40
7.0
100
AcDbArc
 50
100.22432
 51
149.987524
  0
ARC
  5
138
100
AcDbEntity
  8
0
370
    -3
  6
Continuous
100
AcDbCircle
 10
-50.650646
 20
-15.879622
 30
0.0
 40
8.5
100
AcDbArc
 50
280.22432
 51
331.314598
  0
ARC
  5
139
100
AcDbEntity
  8
0
370
    -3
  6
Continuous
100
AcDbCircle
 10
-39.68479
 20
-21.879622
 30
0.0
 40
4.0
100
AcDbArc
 50
90.0
 51
151.314598
  0
LINE
  5
13A
100
AcDbEntity
  8
0
370
    -3
  6
Continuous
100
AcDbLine
 10
7.820759
 20
-17.879622
 30
0.0
 11
-39.68479
 21
-17.879622
 31
0.0
  0
ARC
  5
13B
100
AcDbEntity
  8
0
370
    -3
  6
Continuous
100
AcDbCircle
 10
80.349354
 20
-110.879622
 30
0.0
 40
12.5
100
AcDbArc
 50
93.275829
 51
149.987524
  0
ARC
  5
13C
100
AcDbEntity
  8
0
370
    -3
  6
Continuous
100
AcDbCircle
 10
62.598065
 20
-100.625757
 30
0.0
 40
8.0
100
AcDbArc
 50
280.22432
 51
329.987524
  0
ARC
  5
13D
100
AcDbEntity
  8
0
370
    -3
  6
Continuous
100
AcDbCircle
 10
-47.899358
 20
-100.625757
 30
0.0
 40
8.0
100
AcDbArc
 50
210.012476
 51
259.77568
  0
ARC
  5
13E
100
AcDbEntity
  8
0
370
    -3
  6
Continuous
100
AcDbCircle
 10
-50.650646
 20
-115.879622
 30
0.0
 40
7.5
100
AcDbArc
 50
28.685402
 51
79.77568
  0
ARC
  5
13F
100
AcDbEntity
  8
0
370
    -3
  6
Continuous
100
AcDbCircle
 10
-39.68479
 20
-109.879622
 30
0.0
 40
5.0
100
AcDbArc
 50
208.685402
 51
270.0
  0
LINE
  5
140
100
AcDbEntity
  8
0
370
    -3
  6
Continuous
100
AcDbLine
 10
-39.68479
 20
-113.879622
 30
0.0
 11
7.820759
 21
-113.879622
 31
0.0
  0
ARC
  5
141
100
AcDbEntity
  8
0
370
    -3
  6
Continuous
100
AcDbCircle
 10
-39.68479
 20
-109.879622
 30
0.0
 40
4.0
100
AcDbArc
 50
208.685402
 51
270.0
  0
ARC
  5
142
100
AcDbEntity
  8
0
370
    -3
  6
Continuous
100
AcDbCircle
 10
-50.650646
 20
-115.879622
 30
0.0
 40
8.5
100
AcDbArc
 50
28.685402
 51
79.77568
  0
ARC
  5
143
100
AcDbEntity
  8
0
370
    -3
  6
Continuous
100
AcDbCircle
 10
-47.899358
 20
-100.625757
 30
0.0
 40
7.0
100
AcDbArc
 50
210.012476
 51
259.77568
  0
LINE
  5
144
100
AcDbEntity
  8
0
370
    -3
  6
Continuous
100
AcDbLine
 10
54.383497
 20
-114.879622
 30
0.0
 11
-39.68479
 21
-114.879622
 31
0.0
  0
ARC
  5
145
100
AcDbEntity
  8
0
370
    -3
  6
Continuous
100
AcDbCircle
 10
65.349354
 20
-115.879622
 30
0.0
 40
7.5
100
AcDbArc
 50
100.22432
 51
151.314598
  0
ARC
  5
146
100
AcDbEntity
  8
0
370
    -3
  6
Continuous
100
AcDbCircle
 10
54.383497
 20
-109.879622
 30
0.0
 40
5.0
100
AcDbArc
 50
270.0
 51
331.314598
  0
LINE
  5
147
100
AcDbEntity
  8
0
370
    -3
  6
Continuous
100
AcDbLine
 10
54.383497
 20
-113.379622
 30
0.0
 11
7.820759
 21
-113.379622
 31
0.0
  0
ARC
  5
148
100
AcDbEntity
  8
0
370
    -3
  6
Continuous
100
AcDbCircle
 10
54.383497
 20
-109.879622
 30
0.0
 40
3.5
100
AcDbArc
 50
270.0
 51
331.314598
  0
ARC
  5
149
100
AcDbEntity
  8
0
370
    -3
  6
Continuous
100
AcDbCircle
 10
80.349354
 20
-110.879622
 30
0.0
 40
14.0
100
AcDbArc
 50
93.275829
 51
149.987524
  0
ARC
  5
14A
100
AcDbEntity
  8
0
370
    -3
  6
Continuous
100
AcDbCircle
 10
65.349354
 20
-115.879622
 30
0.0
 40
9.0
100
AcDbArc
 50
100.22432
 51
151.314598
  0
ARC
  5
14B
100
AcDbEntity
  8
0
370
    -3
  6
Continuous
100
AcDbCircle
 10
62.598065
 20
-100.625757
 30
0.0
 40
6.5
100
AcDbArc
 50
280.22432
 51
329.987524
  0
ARC
  5
14C
100
AcDbEntity
  8
0
370
    -3
  6
Continuous
100
AcDbCircle
 10
-50.650646
 20
-115.879622
 30
0.0
 40
5.5
100
AcDbArc
 50
0.0
 51
180.0
  0
LINE
  5
14D
100
AcDbEntity
  8
0
370
    -3
  6
Continuous
100
AcDbLine
 10
-56.150646
 20
-115.879622
 30
0.0
 11
-56.150646
 21
-122.479622
 31
0.0
  0
LINE
  5
14E
100
AcDbEntity
  8
0
370
    -3
  6
Continuous
100
AcDbLine
 10
-56.150646
 20
-122.479622
 30
0.0
 11
-56.550646
 21
-122.879622
 31
0.0
  0
LINE
  5
14F
100
AcDbEntity
  8
0
370
    -3
  6
Continuous
100
AcDbLine
 10
-45.150646
 20
-115.879622
 30
0.0
 11
-45.150646
 21
-122.479622
 31
0.0
  0
LINE
  5
150
100
AcDbEntity
  8
0
370
    -3
  6
Continuous
100
AcDbLine
 10
-45.150646
 20
-122.479622
 30
0.0
 11
-44.750646
 21
-122.879622
 31
0.0
  0
LINE
  5
151
100
AcDbEntity
  8
0
370
    -3
  6
Continuous
100
AcDbLine
 10
-45.150646
 20
-122.479622
 30
0.0
 11
-44.750646
 21
-122.879622
 31
0.0
  0
LINE
  5
152
100
AcDbEntity
  8
0
370
    -3
  6
Continuous
100
AcDbLine
 10
-45.150646
 20
-115.879622
 30
0.0
 11
-45.150646
 21
-122.479622
 31
0.0
  0
LINE
  5
153
100
AcDbEntity
  8
0
370
    -3
  6
Continuous
100
AcDbLine
 10
-56.150646
 20
-122.479622
 30
0.0
 11
-56.550646
 21
-122.879622
 31
0.0
  0
LINE
  5
154
100
AcDbEntity
  8
0
370
    -3
  6
Continuous
100
AcDbLine
 10
-56.150646
 20
-115.879622
 30
0.0
 11
-56.150646
 21
-122.479622
 31
0.0
  0
ARC
  5
155
100
AcDbEntity
  8
0
370
    -3
  6
Continuous
100
AcDbCircle
 10
-50.650646
 20
-115.879622
 30
0.0
 40
5.5
100
AcDbArc
 50
0.0
 51
180.0
  0
ARC
  5
156
100
AcDbEntity
  8
0
370
    -3
  6
Continuous
100
AcDbCircle
 10
62.598065
 20
-100.625757
 30
0.0
 40
6.5
100
AcDbArc
 50
280.22432
 51
329.987524
  0
ARC
  5
157
100
AcDbEntity
  8
0
370
    -3
  6
Continuous
100
AcDbCircle
 10
65.349354
 20
-115.879622
 30
0.0
 40
9.0
100
AcDbArc
 50
100.22432
 51
151.314598
  0
ARC
  5
158
100
AcDbEntity
  8
0
370
    -3
  6
Continuous
100
AcDbCircle
 10
80.349354
 20
-110.879622
 30
0.0
 40
14.0
100
AcDbArc
 50
93.275829
 51
149.987524
  0
ARC
  5
159
100
AcDbEntity
  8
0
370
    -3
  6
Continuous
100
AcDbCircle
 10
54.383497
 20
-109.879622
 30
0.0
 40
3.5
100
AcDbArc
 50
270.0
 51
331.314598
  0
LINE
  5
15A
100
AcDbEntity
  8
0
370
    -3
  6
Continuous
100
AcDbLine
 10
54.383497
 20
-113.379622
 30
0.0
 11
7.820759
 21
-113.379622
 31
0.0
  0
ARC
  5
15B
100
AcDbEntity
  8
0
370
    -3
  6
Continuous
100
AcDbCircle
 10
54.383497
 20
-109.879622
 30
0.0
 40
5.0
100
AcDbArc
 50
270.0
 51
331.314598
  0
ARC
  5
15C
100
AcDbEntity
  8
0
370
    -3
  6
Continuous
100
AcDbCircle
 10
65.349354
 20
-115.879622
 30
0.0
 40
7.5
100
AcDbArc
 50
100.22432
 51
151.314598
  0
LINE
  5
15D
100
AcDbEntity
  8
0
370
    -3
  6
Continuous
100
AcDbLine
 10
54.383497
 20
-114.879622
 30
0.0
 11
-39.68479
 21
-114.879622
 31
0.0
  0
ARC
  5
15E
100
AcDbEntity
  8
0
370
    -3
  6
Continuous
100
AcDbCircle
 10
-47.899358
 20
-100.625757
 30
0.0
 40
7.0
100
AcDbArc
 50
210.012476
 51
259.77568
  0
ARC
  5
15F
100
AcDbEntity
  8
0
370
    -3
  6
Continuous
100
AcDbCircle
 10
-50.650646
 20
-115.879622
 30
0.0
 40
8.5
100
AcDbArc
 50
28.685402
 51
79.77568
  0
ARC
  5
160
100
AcDbEntity
  8
0
370
    -3
  6
Continuous
100
AcDbCircle
 10
-39.68479
 20
-109.879622
 30
0.0
 40
4.0
100
AcDbArc
 50
208.685402
 51
270.0
  0
LINE
  5
161
100
AcDbEntity
  8
0
370
    -3
  6
Continuous
100
AcDbLine
 10
-39.68479
 20
-113.879622
 30
0.0
 11
7.820759
 21
-113.879622
 31
0.0
  0
ARC
  5
162
100
AcDbEntity
  8
0
370
    -3
  6
Continuous
100
AcDbCircle
 10
-39.68479
 20
-109.879622
 30
0.0
 40
5.0
100
AcDbArc
 50
208.685402
 51
270.0
  0
ARC
  5
163
100
AcDbEntity
  8
0
370
    -3
  6
Continuous
100
AcDbCircle
 10
-50.650646
 20
-115.879622
 30
0.0
 40
7.5
100
AcDbArc
 50
28.685402
 51
79.77568
  0
ARC
  5
164
100
AcDbEntity
  8
0
370
    -3
  6
Continuous
100
AcDbCircle
 10
-47.899358
 20
-100.625757
 30
0.0
 40
8.0
100
AcDbArc
 50
210.012476
 51
259.77568
  0
ARC
  5
165
100
AcDbEntity
  8
0
370
    -3
  6
Continuous
100
AcDbCircle
 10
62.598065
 20
-100.625757
 30
0.0
 40
8.0
100
AcDbArc
 50
280.22432
 51
329.987524
  0
ARC
  5
166
100
AcDbEntity
  8
0
370
    -3
  6
Continuous
100
AcDbCircle
 10
80.349354
 20
-110.879622
 30
0.0
 40
12.5
100
AcDbArc
 50
93.275829
 51
149.987524
  0
LINE
  5
167
100
AcDbEntity
  8
0
370
    -3
  6
Continuous
100
AcDbLine
 10
7.820759
 20
-17.879622
 30
0.0
 11
-39.68479
 21
-17.879622
 31
0.0
  0
ARC
  5
168
100
AcDbEntity
  8
0
370
    -3
  6
Continuous
100
AcDbCircle
 10
-39.68479
 20
-21.879622
 30
0.0
 40
4.0
100
AcDbArc
 50
90.0
 51
151.314598
  0
ARC
  5
169
100
AcDbEntity
  8
0
370
    -3
  6
Continuous
100
AcDbCircle
 10
-50.650646
 20
-15.879622
 30
0.0
 40
8.5
100
AcDbArc
 50
280.22432
 51
331.314598
  0
ARC
  5
16A
100
AcDbEntity
  8
0
370
    -3
  6
Continuous
100
AcDbCircle
 10
-47.899358
 20
-31.133488
 30
0.0
 40
7.0
100
AcDbArc
 50
100.22432
 51
149.987524
  0
ARC
  5
16B
100
AcDbEntity
  8
0
370
    -3
  6
Continuous
100
AcDbCircle
 10
-39.68479
 20
-21.879622
 30
0.0
 40
5.0
100
AcDbArc
 50
90.0
 51
151.314598
  0
ARC
  5
16C
100
AcDbEntity
  8
0
370
    -3
  6
Continuous
100
AcDbCircle
 10
-50.650646
 20
-15.879622
 30
0.0
 40
7.5
100
AcDbArc
 50
280.22432
 51
331.314598
  0
LINE
  5
16D
100
AcDbEntity
  8
0
370
    -3
  6
Continuous
100
AcDbLine
 10
54.383497
 20
-16.879622
 30
0.0
 11
-39.68479
 21
-16.879622
 31
0.0
  0
ARC
  5
16E
100
AcDbEntity
  8
0
370
    -3
  6
Continuous
100
AcDbCircle
 10
-47.899358
 20
-31.133488
 30
0.0
 40
8.0
100
AcDbArc
 50
100.22432
 51
149.987524
  0
ARC
  5
16F
100
AcDbEntity
  8
0
370
    -3
  6
Continuous
100
AcDbCircle
 10
62.598065
 20
-31.133488
 30
0.0
 40
6.5
100
AcDbArc
 50
30.012476
 51
79.77568
  0
ARC
  5
170
100
AcDbEntity
  8
0
370
    -3
  6
Continuous
100
AcDbCircle
 10
65.349354
 20
-15.879622
 30
0.0
 40
9.0
100
AcDbArc
 50
208.685402
 51
259.77568
  0
ARC
  5
171
100
AcDbEntity
  8
0
370
    -3
  6
Continuous
100
AcDbCircle
 10
80.349354
 20
-20.879622
 30
0.0
 40
14.0
100
AcDbArc
 50
210.012476
 51
266.724171
  0
ARC
  5
172
100
AcDbEntity
  8
0
370
    -3
  6
Continuous
100
AcDbCircle
 10
54.383497
 20
-21.879622
 30
0.0
 40
3.5
100
AcDbArc
 50
28.685402
 51
90.0
  0
LINE
  5
173
100
AcDbEntity
  8
0
370
    -3
  6
Continuous
100
AcDbLine
 10
7.820759
 20
-18.379622
 30
0.0
 11
54.383497
 21
-18.379622
 31
0.0
  0
ARC
  5
174
100
AcDbEntity
  8
0
370
    -3
  6
Continuous
100
AcDbCircle
 10
62.598065
 20
-31.133488
 30
0.0
 40
8.0
100
AcDbArc
 50
30.012476
 51
79.77568
  0
ARC
  5
175
100
AcDbEntity
  8
0
370
    -3
  6
Continuous
100
AcDbCircle
 10
65.349354
 20
-15.879622
 30
0.0
 40
7.5
100
AcDbArc
 50
208.685402
 51
259.77568
  0
ARC
  5
176
100
AcDbEntity
  8
0
370
    -3
  6
Continuous
100
AcDbCircle
 10
80.349354
 20
-20.879622
 30
0.0
 40
12.5
100
AcDbArc
 50
210.012476
 51
266.724171
  0
ARC
  5
177
100
AcDbEntity
  8
0
370
    -3
  6
Continuous
100
AcDbCircle
 10
54.383497
 20
-21.879622
 30
0.0
 40
5.0
100
AcDbArc
 50
28.685402
 51
90.0
  0
ARC
  5
178
100
AcDbEntity
  8
0
370
    -3
  6
Continuous
100
AcDbCircle
 10
35.349354
 20
-122.879622
 30
0.0
 40
1.0
100
AcDbArc
 50
30.0
 51
150.0
  0
ARC
  5
179
100
AcDbEntity
  8
0
370
    -3
  6
Continuous
100
AcDbCircle
 10
33.617303
 20
-121.879622
 30
0.0
 40
1.0
100
AcDbArc
 50
270.0
 51
330.0
  0
ARC
  5
17A
100
AcDbEntity
  8
0
370
    -3
  6
Continuous
100
AcDbCircle
 10
37.081404
 20
-121.879622
 30
0.0
 40
1.0
100
AcDbArc
 50
210.0
 51
270.0
  0
ARC
  5
17B
100
AcDbEntity
  8
0
370
    -3
  6
Continuous
100
AcDbCircle
 10
92.349354
 20
-65.879622
 30
0.0
 40
1.0
100
AcDbArc
 50
120.0
 51
240.0
  0
ARC
  5
17C
100
AcDbEntity
  8
0
370
    -3
  6
Continuous
100
AcDbCircle
 10
91.349354
 20
-67.611673
 30
0.0
 40
1.0
100
AcDbArc
 50
0.0
 51
60.0
  0
ARC
  5
17D
100
AcDbEntity
  8
0
370
    -3
  6
Continuous
100
AcDbCircle
 10
91.349354
 20
-64.147571
 30
0.0
 40
1.0
100
AcDbArc
 50
300.0
 51
0.0
  0
ARC
  5
17E
100
AcDbEntity
  8
0
370
    -3
  6
Continuous
100
AcDbCircle
 10
35.349354
 20
-8.879622
 30
0.0
 40
1.0
100
AcDbArc
 50
210.0
 51
330.0
  0
ARC
  5
17F
100
AcDbEntity
  8
0
370
    -3
  6
Continuous
100
AcDbCircle
 10
37.081404
 20
-9.879622
 30
0.0
 40
1.0
100
AcDbArc
 50
90.0
 51
150.0
  0
ARC
  5
180
100
AcDbEntity
  8
0
370
    -3
  6
Continuous
100
AcDbCircle
 10
33.617303
 20
-9.879622
 30
0.0
 40
1.0
100
AcDbArc
 50
30.0
 51
90.0
  0
ARC
  5
181
100
AcDbEntity
  8
0
370
    -3
  6
Continuous
100
AcDbCircle
 10
7.820759
 20
-21.879622
 30
0.0
 40
3.5
100
AcDbArc
 50
90.0
 51
176.724171
  0
ARC
  5
182
100
AcDbEntity
  8
0
370
    -3
  6
Continuous
100
AcDbCircle
 10
7.820759
 20
-21.879622
 30
0.0
 40
4.0
100
AcDbArc
 50
90.0
 51
176.724171
  0
ARC
  5
183
100
AcDbEntity
  8
0
370
    -3
  6
Continuous
100
AcDbCircle
 10
-9.650646
 20
-20.879622
 30
0.0
 40
13.5
100
AcDbArc
 50
273.275829
 51
356.724171
  0
ARC
  5
184
100
AcDbEntity
  8
0
370
    -3
  6
Continuous
100
AcDbCircle
 10
-9.650646
 20
-20.879622
 30
0.0
 40
14.0
100
AcDbArc
 50
273.275829
 51
356.724171
  0
ARC
  5
185
100
AcDbEntity
  8
0
370
    -3
  6
Continuous
100
AcDbCircle
 10
-8.650646
 20
-38.351027
 30
0.0
 40
4.0
100
AcDbArc
 50
93.275829
 51
180.0
  0
ARC
  5
186
100
AcDbEntity
  8
0
370
    -3
  6
Continuous
100
AcDbCircle
 10
-8.650646
 20
-38.351027
 30
0.0
 40
3.5
100
AcDbArc
 50
93.275829
 51
180.0
  0
ARC
  5
187
100
AcDbEntity
  8
0
370
    -3
  6
Continuous
100
AcDbCircle
 10
-8.650646
 20
-93.408217
 30
0.0
 40
4.0
100
AcDbArc
 50
180.0
 51
266.724171
  0
ARC
  5
188
100
AcDbEntity
  8
0
370
    -3
  6
Continuous
100
AcDbCircle
 10
-8.650646
 20
-93.408217
 30
0.0
 40
3.5
100
AcDbArc
 50
180.0
 51
266.724171
  0
LINE
  5
189
100
AcDbEntity
  8
0
370
    -3
  6
Continuous
100
AcDbLine
 10
-12.650646
 20
-38.351027
 30
0.0
 11
-12.650646
 21
-93.408217
 31
0.0
  0
LINE
  5
18A
100
AcDbEntity
  8
0
370
    -3
  6
Continuous
100
AcDbLine
 10
-12.150646
 20
-38.351027
 30
0.0
 11
-12.150646
 21
-93.408217
 31
0.0
  0
ARC
  5
18B
100
AcDbEntity
  8
0
370
    -3
  6
Continuous
100
AcDbCircle
 10
-9.650646
 20
-110.879622
 30
0.0
 40
13.5
100
AcDbArc
 50
3.275829
 51
86.724171
  0
ARC
  5
18C
100
AcDbEntity
  8
0
370
    -3
  6
Continuous
100
AcDbCircle
 10
-9.650646
 20
-110.879622
 30
0.0
 40
14.0
100
AcDbArc
 50
3.275829
 51
86.724171
  0
ARC
  5
18D
100
AcDbEntity
  8
0
370
    -3
  6
Continuous
100
AcDbCircle
 10
7.820759
 20
-109.879622
 30
0.0
 40
4.0
100
AcDbArc
 50
183.275829
 51
270.0
  0
ARC
  5
18E
100
AcDbEntity
  8
0
370
    -3
  6
Continuous
100
AcDbCircle
 10
7.820759
 20
-109.879622
 30
0.0
 40
3.5
100
AcDbArc
 50
183.275829
 51
270.0
  0
ARC
  5
18F
100
AcDbEntity
  8
0
370
    -3
  6
Continuous
100
AcDbCircle
 10
79.349354
 20
-93.408217
 30
0.0
 40
3.5
100
AcDbArc
 50
273.275829
 51
0.0
  0
ARC
  5
190
100
AcDbEntity
  8
0
370
    -3
  6
Continuous
100
AcDbCircle
 10
79.349354
 20
-93.408217
 30
0.0
 40
5.0
100
AcDbArc
 50
273.275829
 51
0.0
  0
LINE
  5
191
100
AcDbEntity
  8
0
370
    -3
  6
Continuous
100
AcDbLine
 10
84.349354
 20
-38.351027
 30
0.0
 11
84.349354
 21
-93.408217
 31
0.0
  0
LINE
  5
192
100
AcDbEntity
  8
0
370
    -3
  6
Continuous
100
AcDbLine
 10
82.849354
 20
-38.351027
 30
0.0
 11
82.849354
 21
-93.408217
 31
0.0
  0
ARC
  5
193
100
AcDbEntity
  8
0
370
    -3
  6
Continuous
100
AcDbCircle
 10
79.349354
 20
-38.351027
 30
0.0
 40
3.5
100
AcDbArc
 50
0.0
 51
86.724171
  0
ARC
  5
194
100
AcDbEntity
  8
0
370
    -3
  6
Continuous
100
AcDbCircle
 10
79.349354
 20
-38.351027
 30
0.0
 40
5.0
100
AcDbArc
 50
0.0
 51
86.724171
  0
CIRCLE
  5
195
100
AcDbEntity
  8
0
370
    -3
  6
Continuous
100
AcDbCircle
 10
65.349354
 20
-115.879622
 30
0.0
 40
3.3
  0
CIRCLE
  5
196
100
AcDbEntity
  8
0
370
    -3
  6
Continuous
100
AcDbCircle
 10
-50.650646
 20
-115.879622
 30
0.0
 40
3.3
  0
CIRCLE
  5
197
100
AcDbEntity
  8
0
370
    -3
  6
Continuous
100
AcDbCircle
 10
65.349354
 20
-15.879622
 30
0.0
 40
3.3
  0
CIRCLE
  5
198
100
AcDbEntity
  8
0
370
    -3
  6
Continuous
100
AcDbCircle
 10
-50.650646
 20
-15.879622
 30
0.0
 40
3.3
  0
LINE
  5
199
100
AcDbEntity
  8
0
370
    -3
  6
Continuous
100
AcDbLine
 10
83.349354
 20
-8.879622
 30
0.0
 11
35.349354
 21
-8.879622
 31
0.0
  0
LINE
  5
19A
100
AcDbEntity
  8
0
370
    -3
  6
Continuous
100
AcDbLine
 10
83.349354
 20
-122.879622
 30
0.0
 11
35.349354
 21
-122.879622
 31
0.0
  0
ARC
  5
19B
100
AcDbEntity
  8
0
370
    -3
  6
Continuous
100
AcDbCircle
 10
83.349354
 20
-113.879622
 30
0.0
 40
9.0
100
AcDbArc
 50
270.0
 51
0.0
  0
LINE
  5
19C
100
AcDbEntity
  8
0
370
    -3
  6
Continuous
100
AcDbLine
 10
92.349354
 20
-65.879622
 30
0.0
 11
92.349354
 21
-113.879622
 31
0.0
  0
LINE
  5
19D
100
AcDbEntity
  8
0
370
    -3
  6
Continuous
100
AcDbLine
 10
92.349354
 20
-65.879622
 30
0.0
 11
92.349354
 21
-17.879622
 31
0.0
  0
ARC
  5
19E
100
AcDbEntity
  8
0
370
    -3
  6
Continuous
100
AcDbCircle
 10
83.349354
 20
-17.879622
 30
0.0
 40
9.0
100
AcDbArc
 50
0.0
 51
90.0
  0
LINE
  5
19F
100
AcDbEntity
  8
0
370
    -3
  6
Continuous
100
AcDbLine
 10
59.849354
 20
-122.479622
 30
0.0
 11
59.449354
 21
-122.879622
 31
0.0
  0
LINE
  5
1A0
100
AcDbEntity
  8
0
370
    -3
  6
Continuous
100
AcDbLine
 10
59.849354
 20
-115.879622
 30
0.0
 11
59.849354
 21
-122.479622
 31
0.0
  0
LINE
  5
1A1
100
AcDbEntity
  8
0
370
    -3
  6
Continuous
100
AcDbLine
 10
70.849354
 20
-122.479622
 30
0.0
 11
71.249354
 21
-122.879622
 31
0.0
  0
LINE
  5
1A2
100
AcDbEntity
  8
0
370
    -3
  6
Continuous
100
AcDbLine
 10
70.849354
 20
-115.879622
 30
0.0
 11
70.849354
 21
-122.479622
 31
0.0
  0
ARC
  5
1A3
100
AcDbEntity
  8
0
370
    -3
  6
Continuous
100
AcDbCircle
 10
65.349354
 20
-115.879622
 30
0.0
 40
5.5
100
AcDbArc
 50
0.0
 51
180.0
  0
ARC
  5
1A4
100
AcDbEntity
  8
0
370
    -3
  6
Continuous
100
AcDbCircle
 10
65.349354
 20
-15.879622
 30
0.0
 40
5.5
100
AcDbArc
 50
180.0
 51
0.0
  0
LINE
  5
1A5
100
AcDbEntity
  8
0
370
    -3
  6
Continuous
100
AcDbLine
 10
70.849354
 20
-9.279622
 30
0.0
 11
71.249354
 21
-8.879622
 31
0.0
  0
LINE
  5
1A6
100
AcDbEntity
  8
0
370
    -3
  6
Continuous
100
AcDbLine
 10
70.849354
 20
-15.879622
 30
0.0
 11
70.849354
 21
-9.279622
 31
0.0
  0
LINE
  5
1A7
100
AcDbEntity
  8
0
370
    -3
  6
Continuous
100
AcDbLine
 10
59.849354
 20
-9.279622
 30
0.0
 11
59.449354
 21
-8.879622
 31
0.0
  0
LINE
  5
1A8
100
AcDbEntity
  8
0
370
    -3
  6
Continuous
100
AcDbLine
 10
59.849354
 20
-15.879622
 30
0.0
 11
59.849354
 21
-9.279622
 31
0.0
  0
ARC
  5
1A9
100
AcDbEntity
  8
0
370
    -3
  6
Continuous
100
AcDbCircle
 10
-50.650646
 20
-15.879622
 30
0.0
 40
5.5
100
AcDbArc
 50
180.0
 51
0.0
  0
LINE
  5
1AA
100
AcDbEntity
  8
0
370
    -3
  6
Continuous
100
AcDbLine
 10
-45.150646
 20
-9.279622
 30
0.0
 11
-44.750646
 21
-8.879622
 31
0.0
  0
LINE
  5
1AB
100
AcDbEntity
  8
0
370
    -3
  6
Continuous
100
AcDbLine
 10
-45.150646
 20
-15.879622
 30
0.0
 11
-45.150646
 21
-9.279622
 31
0.0
  0
LINE
  5
1AC
100
AcDbEntity
  8
0
370
    -3
  6
Continuous
100
AcDbLine
 10
-56.150646
 20
-9.279622
 30
0.0
 11
-56.550646
 21
-8.879622
 31
0.0
  0
LINE
  5
1AD
100
AcDbEntity
  8
0
370
    -3
  6
Continuous
100
AcDbLine
 10
-56.150646
 20
-15.879622
 30
0.0
 11
-56.150646
 21
-9.279622
 31
0.0
  0
LINE
  5
1AE
100
AcDbEntity
  8
0
370
    -3
  6
Continuous
100
AcDbLine
 10
-77.150646
 20
-113.379622
 30
0.0
 11
-77.150646
 21
-18.379622
 31
0.0
  0
LINE
  5
1AF
100
AcDbEntity
  8
0
370
    -3
  6
Continuous
100
AcDbLine
 10
-68.150646
 20
-9.379622
 30
0.0
 11
34.483328
 21
-9.379622
 31
0.0
  0
ARC
  5
1B0
100
AcDbEntity
  8
0
370
    -3
  6
Continuous
100
AcDbCircle
 10
-68.150646
 20
-18.379622
 30
0.0
 40
9.0
100
AcDbArc
 50
90.0
 51
180.0
  0
ARC
  5
1B1
100
AcDbEntity
  8
0
370
    -3
  6
Continuous
100
AcDbCircle
 10
-68.150646
 20
-113.379622
 30
0.0
 40
9.0
100
AcDbArc
 50
180.0
 51
270.0
  0
LINE
  5
1B2
100
AcDbEntity
  8
0
370
    -3
  6
Continuous
100
AcDbLine
 10
34.483328
 20
-122.379622
 30
0.0
 11
-68.150646
 21
-122.379622
 31
0.0
  0
LINE
  5
1B3
100
AcDbEntity
  8
0
370
    -3
  6
Continuous
100
AcDbLine
 10
-68.650646
 20
-122.879622
 30
0.0
 11
35.349354
 21
-122.879622
 31
0.0
  0
ARC
  5
1B4
100
AcDbEntity
  8
0
370
    -3
  6
Continuous
100
AcDbCircle
 10
-68.650646
 20
-113.879622
 30
0.0
 40
9.0
100
AcDbArc
 50
180.0
 51
270.0
  0
LINE
  5
1B5
100
AcDbEntity
  8
0
370
    -3
  6
Continuous
100
AcDbLine
 10
-77.650646
 20
-65.879622
 30
0.0
 11
-77.650646
 21
-113.879622
 31
0.0
  0
LINE
  5
1B6
100
AcDbEntity
  8
0
370
    -3
  6
Continuous
100
AcDbLine
 10
-77.650646
 20
-65.879622
 30
0.0
 11
-77.650646
 21
-17.879622
 31
0.0
  0
ARC
  5
1B7
100
AcDbEntity
  8
0
370
    -3
  6
Continuous
100
AcDbCircle
 10
-68.650646
 20
-17.879622
 30
0.0
 40
9.0
100
AcDbArc
 50
90.0
 51
180.0
  0
LINE
  5
1B8
100
AcDbEntity
  8
0
370
    -3
  6
Continuous
100
AcDbLine
 10
-68.650646
 20
-8.879622
 30
0.0
 11
35.349354
 21
-8.879622
 31
0.0
  0
ARC
  5
1B9
100
AcDbEntity
  8
0
370
    -3
  6
Continuous
100
AcDbCircle
 10
-64.650646
 20
-38.351027
 30
0.0
 40
5.0
100
AcDbArc
 50
93.275829
 51
180.0
  0
LINE
  5
1BA
100
AcDbEntity
  8
0
370
    -3
  6
Continuous
100
AcDbLine
 10
-69.650646
 20
-93.408217
 30
0.0
 11
-69.650646
 21
-38.351027
 31
0.0
  0
ARC
  5
1BB
100
AcDbEntity
  8
0
370
    -3
  6
Continuous
100
AcDbCircle
 10
-64.650646
 20
-38.351027
 30
0.0
 40
4.0
100
AcDbArc
 50
93.275829
 51
180.0
  0
LINE
  5
1BC
100
AcDbEntity
  8
0
370
    -3
  6
Continuous
100
AcDbLine
 10
-68.650646
 20
-38.351027
 30
0.0
 11
-68.650646
 21
-93.408217
 31
0.0
  0
ARC
  5
1BD
100
AcDbEntity
  8
0
370
    -3
  6
Continuous
100
AcDbCircle
 10
-64.650646
 20
-93.408217
 30
0.0
 40
5.0
100
AcDbArc
 50
180.0
 51
266.724171
  0
ARC
  5
1BE
100
AcDbEntity
  8
0
370
    -3
  6
Continuous
100
AcDbCircle
 10
-64.650646
 20
-93.408217
 30
0.0
 40
4.0
100
AcDbArc
 50
180.0
 51
266.724171
  0
ARC
  5
1BF
100
AcDbEntity
  8
0
370
    -3
  6
Continuous
100
AcDbCircle
 10
-65.650646
 20
-20.879622
 30
0.0
 40
12.5
100
AcDbArc
 50
273.275829
 51
329.987524
  0
ARC
  5
1C0
100
AcDbEntity
  8
0
370
    -3
  6
Continuous
100
AcDbCircle
 10
-65.650646
 20
-20.879622
 30
0.0
 40
13.5
100
AcDbArc
 50
273.275829
 51
329.987524
  0
ARC
  5
1C1
100
AcDbEntity
  8
0
370
    -3
  6
Continuous
100
AcDbCircle
 10
-65.650646
 20
-110.879622
 30
0.0
 40
12.5
100
AcDbArc
 50
30.012476
 51
86.724171
  0
ARC
  5
1C2
100
AcDbEntity
  8
0
370
    -3
  6
Continuous
100
AcDbCircle
 10
-65.650646
 20
-110.879622
 30
0.0
 40
13.5
100
AcDbArc
 50
30.012476
 51
86.724171
  0
ARC
  5
1C3
100
AcDbEntity
  8
0
370
    -3
  6
Continuous
100
AcDbCircle
 10
-65.650646
 20
-110.879622
 30
0.0
 40
13.5
100
AcDbArc
 50
30.012476
 51
86.724171
  0
ARC
  5
1C4
100
AcDbEntity
  8
0
370
    -3
  6
Continuous
100
AcDbCircle
 10
-65.650646
 20
-110.879622
 30
0.0
 40
12.5
100
AcDbArc
 50
30.012476
 51
86.724171
  0
ARC
  5
1C5
100
AcDbEntity
  8
0
370
    -3
  6
Continuous
100
AcDbCircle
 10
-65.650646
 20
-20.879622
 30
0.0
 40
13.5
100
AcDbArc
 50
273.275829
 51
329.987524
  0
ARC
  5
1C6
100
AcDbEntity
  8
0
370
    -3
  6
Continuous
100
AcDbCircle
 10
-65.650646
 20
-20.879622
 30
0.0
 40
12.5
100
AcDbArc
 50
273.275829
 51
329.987524
  0
ARC
  5
1C7
100
AcDbEntity
  8
0
370
    -3
  6
Continuous
100
AcDbCircle
 10
-64.650646
 20
-93.408217
 30
0.0
 40
4.0
100
AcDbArc
 50
180.0
 51
266.724171
  0
ARC
  5
1C8
100
AcDbEntity
  8
0
370
    -3
  6
Continuous
100
AcDbCircle
 10
-64.650646
 20
-93.408217
 30
0.0
 40
5.0
100
AcDbArc
 50
180.0
 51
266.724171
  0
LINE
  5
1C9
100
AcDbEntity
  8
0
370
    -3
  6
Continuous
100
AcDbLine
 10
-68.650646
 20
-38.351027
 30
0.0
 11
-68.650646
 21
-93.408217
 31
0.0
  0
ARC
  5
1CA
100
AcDbEntity
  8
0
370
    -3
  6
Continuous
100
AcDbCircle
 10
-64.650646
 20
-38.351027
 30
0.0
 40
4.0
100
AcDbArc
 50
93.275829
 51
180.0
  0
LINE
  5
1CB
100
AcDbEntity
  8
0
370
    -3
  6
Continuous
100
AcDbLine
 10
-69.650646
 20
-93.408217
 30
0.0
 11
-69.650646
 21
-38.351027
 31
0.0
  0
ARC
  5
1CC
100
AcDbEntity
  8
0
370
    -3
  6
Continuous
100
AcDbCircle
 10
-64.650646
 20
-38.351027
 30
0.0
 40
5.0
100
AcDbArc
 50
93.275829
 51
180.0
  0
LINE
  5
1CD
100
AcDbEntity
  8
0
370
    -3
  6
Continuous
100
AcDbLine
 10
-68.650646
 20
-8.879622
 30
0.0
 11
35.349354
 21
-8.879622
 31
0.0
  0
ARC
  5
1CE
100
AcDbEntity
  8
0
370
    -3
  6
Continuous
100
AcDbCircle
 10
-68.650646
 20
-17.879622
 30
0.0
 40
9.0
100
AcDbArc
 50
90.0
 51
180.0
  0
LINE
  5
1CF
100
AcDbEntity
  8
0
370
    -3
  6
Continuous
100
AcDbLine
 10
-77.650646
 20
-65.879622
 30
0.0
 11
-77.650646
 21
-17.879622
 31
0.0
  0
LINE
  5
1D0
100
AcDbEntity
  8
0
370
    -3
  6
Continuous
100
AcDbLine
 10
-77.650646
 20
-65.879622
 30
0.0
 11
-77.650646
 21
-113.879622
 31
0.0
  0
ARC
  5
1D1
100
AcDbEntity
  8
0
370
    -3
  6
Continuous
100
AcDbCircle
 10
-68.650646
 20
-113.879622
 30
0.0
 40
9.0
100
AcDbArc
 50
180.0
 51
270.0
  0
LINE
  5
1D2
100
AcDbEntity
  8
0
370
    -3
  6
Continuous
100
AcDbLine
 10
-68.650646
 20
-122.879622
 30
0.0
 11
35.349354
 21
-122.879622
 31
0.0
  0
LINE
  5
1D3
100
AcDbEntity
  8
0
370
    -3
  6
Continuous
100
AcDbLine
 10
34.483328
 20
-122.379622
 30
0.0
 11
-68.150646
 21
-122.379622
 31
0.0
  0
ARC
  5
1D4
100
AcDbEntity
  8
0
370
    -3
  6
Continuous
100
AcDbCircle
 10
-68.150646
 20
-113.379622
 30
0.0
 40
9.0
100
AcDbArc
 50
180.0
 51
270.0
  0
ARC
  5
1D5
100
AcDbEntity
  8
0
370
    -3
  6
Continuous
100
AcDbCircle
 10
-68.150646
 20
-18.379622
 30
0.0
 40
9.0
100
AcDbArc
 50
90.0
 51
180.0
  0
LINE
  5
1D6
100
AcDbEntity
  8
0
370
    -3
  6
Continuous
100
AcDbLine
 10
-68.150646
 20
-9.379622
 30
0.0
 11
34.483328
 21
-9.379622
 31
0.0
  0
LINE
  5
1D7
100
AcDbEntity
  8
0
370
    -3
  6
Continuous
100
AcDbLine
 10
-77.150646
 20
-113.379622
 30
0.0
 11
-77.150646
 21
-18.379622
 31
0.0
  0
LINE
  5
1D8
100
AcDbEntity
  8
0
370
    -3
  6
Continuous
100
AcDbLine
 10
-77.150646
 20
-113.379622
 30
0.0
 11
-77.150646
 21
-18.379622
 31
0.0
  0
LINE
  5
1D9
100
AcDbEntity
  8
0
370
    -3
  6
Continuous
100
AcDbLine
 10
-68.150646
 20
-9.379622
 30
0.0
 11
34.483328
 21
-9.379622
 31
0.0
  0
ARC
  5
1DA
100
AcDbEntity
  8
0
370
    -3
  6
Continuous
100
AcDbCircle
 10
-68.150646
 20
-18.379622
 30
0.0
 40
9.0
100
AcDbArc
 50
90.0
 51
180.0
  0
ARC
  5
1DB
100
AcDbEntity
  8
0
370
    -3
  6
Continuous
100
AcDbCircle
 10
-68.150646
 20
-113.379622
 30
0.0
 40
9.0
100
AcDbArc
 50
180.0
 51
270.0
  0
LINE
  5
1DC
100
AcDbEntity
  8
0
370
    -3
  6
Continuous
100
AcDbLine
 10
34.483328
 20
-122.379622
 30
0.0
 11
-68.150646
 21
-122.379622
 31
0.0
  0
LINE
  5
1DD
100
AcDbEntity
  8
0
370
    -3
  6
Continuous
100
AcDbLine
 10
-68.650646
 20
-122.879622
 30
0.0
 11
35.349354
 21
-122.879622
 31
0.0
  0
ARC
  5
1DE
100
AcDbEntity
  8
0
370
    -3
  6
Continuous
100
AcDbCircle
 10
-68.650646
 20
-113.879622
 30
0.0
 40
9.0
100
AcDbArc
 50
180.0
 51
270.0
  0
LINE
  5
1DF
100
AcDbEntity
  8
0
370
    -3
  6
Continuous
100
AcDbLine
 10
-77.650646
 20
-65.879622
 30
0.0
 11
-77.650646
 21
-113.879622
 31
0.0
  0
LINE
  5
1E0
100
AcDbEntity
  8
0
370
    -3
  6
Continuous
100
AcDbLine
 10
-77.650646
 20
-65.879622
 30
0.0
 11
-77.650646
 21
-17.879622
 31
0.0
  0
ARC
  5
1E1
100
AcDbEntity
  8
0
370
    -3
  6
Continuous
100
AcDbCircle
 10
-68.650646
 20
-17.879622
 30
0.0
 40
9.0
100
AcDbArc
 50
90.0
 51
180.0
  0
LINE
  5
1E2
100
AcDbEntity
  8
0
370
    -3
  6
Continuous
100
AcDbLine
 10
-68.650646
 20
-8.879622
 30
0.0
 11
35.349354
 21
-8.879622
 31
0.0
  0
ARC
  5
1E3
100
AcDbEntity
  8
0
370
    -3
  6
Continuous
100
AcDbCircle
 10
-64.650646
 20
-38.351027
 30
0.0
 40
5.0
100
AcDbArc
 50
93.275829
 51
180.0
  0
LINE
  5
1E4
100
AcDbEntity
  8
0
370
    -3
  6
Continuous
100
AcDbLine
 10
-69.650646
 20
-93.408217
 30
0.0
 11
-69.650646
 21
-38.351027
 31
0.0
  0
ARC
  5
1E5
100
AcDbEntity
  8
0
370
    -3
  6
Continuous
100
AcDbCircle
 10
-64.650646
 20
-38.351027
 30
0.0
 40
4.0
100
AcDbArc
 50
93.275829
 51
180.0
  0
LINE
  5
1E6
100
AcDbEntity
  8
0
370
    -3
  6
Continuous
100
AcDbLine
 10
-68.650646
 20
-38.351027
 30
0.0
 11
-68.650646
 21
-93.408217
 31
0.0
  0
ARC
  5
1E7
100
AcDbEntity
  8
0
370
    -3
  6
Continuous
100
AcDbCircle
 10
-64.650646
 20
-93.408217
 30
0.0
 40
5.0
100
AcDbArc
 50
180.0
 51
266.724171
  0
ARC
  5
1E8
100
AcDbEntity
  8
0
370
    -3
  6
Continuous
100
AcDbCircle
 10
-64.650646
 20
-93.408217
 30
0.0
 40
4.0
100
AcDbArc
 50
180.0
 51
266.724171
  0
ARC
  5
1E9
100
AcDbEntity
  8
0
370
    -3
  6
Continuous
100
AcDbCircle
 10
-65.650646
 20
-20.879622
 30
0.0
 40
12.5
100
AcDbArc
 50
273.275829
 51
329.987524
  0
ARC
  5
1EA
100
AcDbEntity
  8
0
370
    -3
  6
Continuous
100
AcDbCircle
 10
-65.650646
 20
-20.879622
 30
0.0
 40
13.5
100
AcDbArc
 50
273.275829
 51
329.987524
  0
ARC
  5
1EB
100
AcDbEntity
  8
0
370
    -3
  6
Continuous
100
AcDbCircle
 10
-65.650646
 20
-110.879622
 30
0.0
 40
12.5
100
AcDbArc
 50
30.012476
 51
86.724171
  0
ARC
  5
1EC
100
AcDbEntity
  8
0
370
    -3
  6
Continuous
100
AcDbCircle
 10
-65.650646
 20
-110.879622
 30
0.0
 40
13.5
100
AcDbArc
 50
30.012476
 51
86.724171
  0
ARC
  5
1ED
100
AcDbEntity
  8
0
370
    -3
  6
Continuous
100
AcDbCircle
 10
-65.650646
 20
-110.879622
 30
0.0
 40
13.5
100
AcDbArc
 50
30.012476
 51
86.724171
  0
ARC
  5
1EE
100
AcDbEntity
  8
0
370
    -3
  6
Continuous
100
AcDbCircle
 10
-65.650646
 20
-110.879622
 30
0.0
 40
12.5
100
AcDbArc
 50
30.012476
 51
86.724171
  0
ARC
  5
1EF
100
AcDbEntity
  8
0
370
    -3
  6
Continuous
100
AcDbCircle
 10
-65.650646
 20
-20.879622
 30
0.0
 40
13.5
100
AcDbArc
 50
273.275829
 51
329.987524
  0
ARC
  5
1F0
100
AcDbEntity
  8
0
370
    -3
  6
Continuous
100
AcDbCircle
 10
-65.650646
 20
-20.879622
 30
0.0
 40
12.5
100
AcDbArc
 50
273.275829
 51
329.987524
  0
ARC
  5
1F1
100
AcDbEntity
  8
0
370
    -3
  6
Continuous
100
AcDbCircle
 10
-64.650646
 20
-93.408217
 30
0.0
 40
4.0
100
AcDbArc
 50
180.0
 51
266.724171
  0
ARC
  5
1F2
100
AcDbEntity
  8
0
370
    -3
  6
Continuous
100
AcDbCircle
 10
-64.650646
 20
-93.408217
 30
0.0
 40
5.0
100
AcDbArc
 50
180.0
 51
266.724171
  0
LINE
  5
1F3
100
AcDbEntity
  8
0
370
    -3
  6
Continuous
100
AcDbLine
 10
-68.650646
 20
-38.351027
 30
0.0
 11
-68.650646
 21
-93.408217
 31
0.0
  0
ARC
  5
1F4
100
AcDbEntity
  8
0
370
    -3
  6
Continuous
100
AcDbCircle
 10
-64.650646
 20
-38.351027
 30
0.0
 40
4.0
100
AcDbArc
 50
93.275829
 51
180.0
  0
LINE
  5
1F5
100
AcDbEntity
  8
0
370
    -3
  6
Continuous
100
AcDbLine
 10
-69.650646
 20
-93.408217
 30
0.0
 11
-69.650646
 21
-38.351027
 31
0.0
  0
ARC
  5
1F6
100
AcDbEntity
  8
0
370
    -3
  6
Continuous
100
AcDbCircle
 10
-64.650646
 20
-38.351027
 30
0.0
 40
5.0
100
AcDbArc
 50
93.275829
 51
180.0
  0
LINE
  5
1F7
100
AcDbEntity
  8
0
370
    -3
  6
Continuous
100
AcDbLine
 10
-68.650646
 20
-8.879622
 30
0.0
 11
35.349354
 21
-8.879622
 31
0.0
  0
ARC
  5
1F8
100
AcDbEntity
  8
0
370
    -3
  6
Continuous
100
AcDbCircle
 10
-68.650646
 20
-17.879622
 30
0.0
 40
9.0
100
AcDbArc
 50
90.0
 51
180.0
  0
LINE
  5
1F9
100
AcDbEntity
  8
0
370
    -3
  6
Continuous
100
AcDbLine
 10
-77.650646
 20
-65.879622
 30
0.0
 11
-77.650646
 21
-17.879622
 31
0.0
  0
LINE
  5
1FA
100
AcDbEntity
  8
0
370
    -3
  6
Continuous
100
AcDbLine
 10
-77.650646
 20
-65.879622
 30
0.0
 11
-77.650646
 21
-113.879622
 31
0.0
  0
ARC
  5
1FB
100
AcDbEntity
  8
0
370
    -3
  6
Continuous
100
AcDbCircle
 10
-68.650646
 20
-113.879622
 30
0.0
 40
9.0
100
AcDbArc
 50
180.0
 51
270.0
  0
LINE
  5
1FC
100
AcDbEntity
  8
0
370
    -3
  6
Continuous
100
AcDbLine
 10
-68.650646
 20
-122.879622
 30
0.0
 11
35.349354
 21
-122.879622
 31
0.0
  0
LINE
  5
1FD
100
AcDbEntity
  8
0
370
    -3
  6
Continuous
100
AcDbLine
 10
34.483328
 20
-122.379622
 30
0.0
 11
-68.150646
 21
-122.379622
 31
0.0
  0
ARC
  5
1FE
100
AcDbEntity
  8
0
370
    -3
  6
Continuous
100
AcDbCircle
 10
-68.150646
 20
-113.379622
 30
0.0
 40
9.0
100
AcDbArc
 50
180.0
 51
270.0
  0
ARC
  5
1FF
100
AcDbEntity
  8
0
370
    -3
  6
Continuous
100
AcDbCircle
 10
-68.150646
 20
-18.379622
 30
0.0
 40
9.0
100
AcDbArc
 50
90.0
 51
180.0
  0
LINE
  5
200
100
AcDbEntity
  8
0
370
    -3
  6
Continuous
100
AcDbLine
 10
-68.150646
 20
-9.379622
 30
0.0
 11
34.483328
 21
-9.379622
 31
0.0
  0
LINE
  5
201
100
AcDbEntity
  8
0
370
    -3
  6
Continuous
100
AcDbLine
 10
-77.150646
 20
-113.379622
 30
0.0
 11
-77.150646
 21
-18.379622
 31
0.0
  0
ARC
  5
202
100
AcDbEntity
  8
0
370
    -3
  6
Continuous
100
AcDbCircle
 10
82.849354
 20
-18.379622
 30
0.0
 40
9.0
100
AcDbArc
 50
0.0
 51
90.0
  0
LINE
  5
203
100
AcDbEntity
  8
0
370
    -3
  6
Continuous
100
AcDbLine
 10
36.215379
 20
-9.379622
 30
0.0
 11
82.849354
 21
-9.379622
 31
0.0
  0
LINE
  5
204
100
AcDbEntity
  8
0
370
    -3
  6
Continuous
100
AcDbLine
 10
91.849354
 20
-65.013597
 30
0.0
 11
91.849354
 21
-18.379622
 31
0.0
  0
ARC
  5
205
100
AcDbEntity
  8
0
370
    -3
  6
Continuous
100
AcDbCircle
 10
83.349354
 20
-17.879622
 30
0.0
 40
9.0
100
AcDbArc
 50
0.0
 51
90.0
  0
LINE
  5
206
100
AcDbEntity
  8
0
370
    -3
  6
Continuous
100
AcDbLine
 10
92.349354
 20
-65.879622
 30
0.0
 11
92.349354
 21
-17.879622
 31
0.0
  0
LINE
  5
207
100
AcDbEntity
  8
0
370
    -3
  6
Continuous
100
AcDbLine
 10
83.349354
 20
-8.879622
 30
0.0
 11
35.349354
 21
-8.879622
 31
0.0
  0
LINE
  5
208
100
AcDbEntity
  8
0
370
    -3
  6
Continuous
100
AcDbLine
 10
83.349354
 20
-8.879622
 30
0.0
 11
35.349354
 21
-8.879622
 31
0.0
  0
LINE
  5
209
100
AcDbEntity
  8
0
370
    -3
  6
Continuous
100
AcDbLine
 10
92.349354
 20
-65.879622
 30
0.0
 11
92.349354
 21
-17.879622
 31
0.0
  0
ARC
  5
20A
100
AcDbEntity
  8
0
370
    -3
  6
Continuous
100
AcDbCircle
 10
83.349354
 20
-17.879622
 30
0.0
 40
9.0
100
AcDbArc
 50
0.0
 51
90.0
  0
LINE
  5
20B
100
AcDbEntity
  8
0
370
    -3
  6
Continuous
100
AcDbLine
 10
91.849354
 20
-65.013597
 30
0.0
 11
91.849354
 21
-18.379622
 31
0.0
  0
LINE
  5
20C
100
AcDbEntity
  8
0
370
    -3
  6
Continuous
100
AcDbLine
 10
36.215379
 20
-9.379622
 30
0.0
 11
82.849354
 21
-9.379622
 31
0.0
  0
ARC
  5
20D
100
AcDbEntity
  8
0
370
    -3
  6
Continuous
100
AcDbCircle
 10
82.849354
 20
-18.379622
 30
0.0
 40
9.0
100
AcDbArc
 50
0.0
 51
90.0
  0
ARC
  5
20E
100
AcDbEntity
  8
0
370
    -3
  6
Continuous
100
AcDbCircle
 10
82.849354
 20
-18.379622
 30
0.0
 40
9.0
100
AcDbArc
 50
0.0
 51
90.0
  0
LINE
  5
20F
100
AcDbEntity
  8
0
370
    -3
  6
Continuous
100
AcDbLine
 10
36.215379
 20
-9.379622
 30
0.0
 11
82.849354
 21
-9.379622
 31
0.0
  0
LINE
  5
210
100
AcDbEntity
  8
0
370
    -3
  6
Continuous
100
AcDbLine
 10
91.849354
 20
-65.013597
 30
0.0
 11
91.849354
 21
-18.379622
 31
0.0
  0
ARC
  5
211
100
AcDbEntity
  8
0
370
    -3
  6
Continuous
100
AcDbCircle
 10
83.349354
 20
-17.879622
 30
0.0
 40
9.0
100
AcDbArc
 50
0.0
 51
90.0
  0
LINE
  5
212
100
AcDbEntity
  8
0
370
    -3
  6
Continuous
100
AcDbLine
 10
92.349354
 20
-65.879622
 30
0.0
 11
92.349354
 21
-17.879622
 31
0.0
  0
LINE
  5
213
100
AcDbEntity
  8
0
370
    -3
  6
Continuous
100
AcDbLine
 10
83.349354
 20
-8.879622
 30
0.0
 11
35.349354
 21
-8.879622
 31
0.0
  0
LINE
  5
214
100
AcDbEntity
  8
0
370
    -3
  6
Continuous
100
AcDbLine
 10
83.349354
 20
-8.879622
 30
0.0
 11
35.349354
 21
-8.879622
 31
0.0
  0
LINE
  5
215
100
AcDbEntity
  8
0
370
    -3
  6
Continuous
100
AcDbLine
 10
92.349354
 20
-65.879622
 30
0.0
 11
92.349354
 21
-17.879622
 31
0.0
  0
ARC
  5
216
100
AcDbEntity
  8
0
370
    -3
  6
Continuous
100
AcDbCircle
 10
83.349354
 20
-17.879622
 30
0.0
 40
9.0
100
AcDbArc
 50
0.0
 51
90.0
  0
LINE
  5
217
100
AcDbEntity
  8
0
370
    -3
  6
Continuous
100
AcDbLine
 10
91.849354
 20
-65.013597
 30
0.0
 11
91.849354
 21
-18.379622
 31
0.0
  0
LINE
  5
218
100
AcDbEntity
  8
0
370
    -3
  6
Continuous
100
AcDbLine
 10
36.215379
 20
-9.379622
 30
0.0
 11
82.849354
 21
-9.379622
 31
0.0
  0
ARC
  5
219
100
AcDbEntity
  8
0
370
    -3
  6
Continuous
100
AcDbCircle
 10
82.849354
 20
-18.379622
 30
0.0
 40
9.0
100
AcDbArc
 50
0.0
 51
90.0
  0
LINE
  5
21A
100
AcDbEntity
  8
0
370
    -3
  6
Continuous
100
AcDbLine
 10
91.849354
 20
-113.379622
 30
0.0
 11
91.849354
 21
-66.745648
 31
0.0
  0
LINE
  5
21B
100
AcDbEntity
  8
0
370
    -3
  6
Continuous
100
AcDbLine
 10
82.849354
 20
-122.379622
 30
0.0
 11
36.215379
 21
-122.379622
 31
0.0
  0
ARC
  5
21C
100
AcDbEntity
  8
0
370
    -3
  6
Continuous
100
AcDbCircle
 10
82.849354
 20
-113.379622
 30
0.0
 40
9.0
100
AcDbArc
 50
270.0
 51
0.0
  0
ARC
  5
21D
100
AcDbEntity
  8
0
370
    -3
  6
Continuous
100
AcDbCircle
 10
82.849354
 20
-18.379622
 30
0.0
 40
9.0
100
AcDbArc
 50
0.0
 51
90.0
  0
LINE
  5
21E
100
AcDbEntity
  8
0
370
    -3
  6
Continuous
100
AcDbLine
 10
36.215379
 20
-9.379622
 30
0.0
 11
82.849354
 21
-9.379622
 31
0.0
  0
LINE
  5
21F
100
AcDbEntity
  8
0
370
    -3
  6
Continuous
100
AcDbLine
 10
91.849354
 20
-65.013597
 30
0.0
 11
91.849354
 21
-18.379622
 31
0.0
  0
LINE
  5
220
100
AcDbEntity
  8
0
370
    -3
  6
Continuous
100
AcDbLine
 10
-56.150646
 20
-15.879622
 30
0.0
 11
-56.150646
 21
-9.279622
 31
0.0
  0
LINE
  5
221
100
AcDbEntity
  8
0
370
    -3
  6
Continuous
100
AcDbLine
 10
-56.150646
 20
-9.279622
 30
0.0
 11
-56.550646
 21
-8.879622
 31
0.0
  0
LINE
  5
222
100
AcDbEntity
  8
0
370
    -3
  6
Continuous
100
AcDbLine
 10
-45.150646
 20
-15.879622
 30
0.0
 11
-45.150646
 21
-9.279622
 31
0.0
  0
LINE
  5
223
100
AcDbEntity
  8
0
370
    -3
  6
Continuous
100
AcDbLine
 10
-45.150646
 20
-9.279622
 30
0.0
 11
-44.750646
 21
-8.879622
 31
0.0
  0
ARC
  5
224
100
AcDbEntity
  8
0
370
    -3
  6
Continuous
100
AcDbCircle
 10
-50.650646
 20
-15.879622
 30
0.0
 40
5.5
100
AcDbArc
 50
180.0
 51
0.0
  0
LINE
  5
225
100
AcDbEntity
  8
0
370
    -3
  6
Continuous
100
AcDbLine
 10
59.849354
 20
-15.879622
 30
0.0
 11
59.849354
 21
-9.279622
 31
0.0
  0
LINE
  5
226
100
AcDbEntity
  8
0
370
    -3
  6
Continuous
100
AcDbLine
 10
59.849354
 20
-9.279622
 30
0.0
 11
59.449354
 21
-8.879622
 31
0.0
  0
LINE
  5
227
100
AcDbEntity
  8
0
370
    -3
  6
Continuous
100
AcDbLine
 10
70.849354
 20
-15.879622
 30
0.0
 11
70.849354
 21
-9.279622
 31
0.0
  0
LINE
  5
228
100
AcDbEntity
  8
0
370
    -3
  6
Continuous
100
AcDbLine
 10
70.849354
 20
-9.279622
 30
0.0
 11
71.249354
 21
-8.879622
 31
0.0
  0
ARC
  5
229
100
AcDbEntity
  8
0
370
    -3
  6
Continuous
100
AcDbCircle
 10
65.349354
 20
-15.879622
 30
0.0
 40
5.5
100
AcDbArc
 50
180.0
 51
0.0
  0
ARC
  5
22A
100
AcDbEntity
  8
0
370
    -3
  6
Continuous
100
AcDbCircle
 10
65.349354
 20
-115.879622
 30
0.0
 40
5.5
100
AcDbArc
 50
0.0
 51
180.0
  0
LINE
  5
22B
100
AcDbEntity
  8
0
370
    -3
  6
Continuous
100
AcDbLine
 10
70.849354
 20
-115.879622
 30
0.0
 11
70.849354
 21
-122.479622
 31
0.0
  0
LINE
  5
22C
100
AcDbEntity
  8
0
370
    -3
  6
Continuous
100
AcDbLine
 10
70.849354
 20
-122.479622
 30
0.0
 11
71.249354
 21
-122.879622
 31
0.0
  0
LINE
  5
22D
100
AcDbEntity
  8
0
370
    -3
  6
Continuous
100
AcDbLine
 10
59.849354
 20
-115.879622
 30
0.0
 11
59.849354
 21
-122.479622
 31
0.0
  0
LINE
  5
22E
100
AcDbEntity
  8
0
370
    -3
  6
Continuous
100
AcDbLine
 10
59.849354
 20
-122.479622
 30
0.0
 11
59.449354
 21
-122.879622
 31
0.0
  0
ARC
  5
22F
100
AcDbEntity
  8
0
370
    -3
  6
Continuous
100
AcDbCircle
 10
83.349354
 20
-17.879622
 30
0.0
 40
9.0
100
AcDbArc
 50
0.0
 51
90.0
  0
LINE
  5
230
100
AcDbEntity
  8
0
370
    -3
  6
Continuous
100
AcDbLine
 10
92.349354
 20
-65.879622
 30
0.0
 11
92.349354
 21
-17.879622
 31
0.0
  0
LINE
  5
231
100
AcDbEntity
  8
0
370
    -3
  6
Continuous
100
AcDbLine
 10
92.349354
 20
-65.879622
 30
0.0
 11
92.349354
 21
-113.879622
 31
0.0
  0
ARC
  5
232
100
AcDbEntity
  8
0
370
    -3
  6
Continuous
100
AcDbCircle
 10
83.349354
 20
-113.879622
 30
0.0
 40
9.0
100
AcDbArc
 50
270.0
 51
0.0
  0
LINE
  5
233
100
AcDbEntity
  8
0
370
    -3
  6
Continuous
100
AcDbLine
 10
83.349354
 20
-122.879622
 30
0.0
 11
35.349354
 21
-122.879622
 31
0.0
  0
LINE
  5
234
100
AcDbEntity
  8
0
370
    -3
  6
Continuous
100
AcDbLine
 10
83.349354
 20
-8.879622
 30
0.0
 11
35.349354
 21
-8.879622
 31
0.0
  0
CIRCLE
  5
235
100
AcDbEntity
  8
0
370
    -3
  6
Continuous
100
AcDbCircle
 10
-50.650646
 20
-15.879622
 30
0.0
 40
3.3
  0
CIRCLE
  5
236
100
AcDbEntity
  8
0
370
    -3
  6
Continuous
100
AcDbCircle
 10
65.349354
 20
-15.879622
 30
0.0
 40
3.3
  0
CIRCLE
  5
237
100
AcDbEntity
  8
0
370
    -3
  6
Continuous
100
AcDbCircle
 10
-50.650646
 20
-115.879622
 30
0.0
 40
3.3
  0
CIRCLE
  5
238
100
AcDbEntity
  8
0
370
    -3
  6
Continuous
100
AcDbCircle
 10
65.349354
 20
-115.879622
 30
0.0
 40
3.3
  0
ARC
  5
239
100
AcDbEntity
  8
0
370
    -3
  6
Continuous
100
AcDbCircle
 10
79.349354
 20
-38.351027
 30
0.0
 40
5.0
100
AcDbArc
 50
0.0
 51
86.724171
  0
ARC
  5
23A
100
AcDbEntity
  8
0
370
    -3
  6
Continuous
100
AcDbCircle
 10
79.349354
 20
-38.351027
 30
0.0
 40
3.5
100
AcDbArc
 50
0.0
 51
86.724171
  0
LINE
  5
23B
100
AcDbEntity
  8
0
370
    -3
  6
Continuous
100
AcDbLine
 10
82.849354
 20
-38.351027
 30
0.0
 11
82.849354
 21
-93.408217
 31
0.0
  0
LINE
  5
23C
100
AcDbEntity
  8
0
370
    -3
  6
Continuous
100
AcDbLine
 10
84.349354
 20
-38.351027
 30
0.0
 11
84.349354
 21
-93.408217
 31
0.0
  0
ARC
  5
23D
100
AcDbEntity
  8
0
370
    -3
  6
Continuous
100
AcDbCircle
 10
79.349354
 20
-93.408217
 30
0.0
 40
5.0
100
AcDbArc
 50
273.275829
 51
0.0
  0
ARC
  5
23E
100
AcDbEntity
  8
0
370
    -3
  6
Continuous
100
AcDbCircle
 10
79.349354
 20
-93.408217
 30
0.0
 40
3.5
100
AcDbArc
 50
273.275829
 51
0.0
  0
ARC
  5
23F
100
AcDbEntity
  8
0
370
    -3
  6
Continuous
100
AcDbCircle
 10
7.820759
 20
-109.879622
 30
0.0
 40
3.5
100
AcDbArc
 50
183.275829
 51
270.0
  0
ARC
  5
240
100
AcDbEntity
  8
0
370
    -3
  6
Continuous
100
AcDbCircle
 10
7.820759
 20
-109.879622
 30
0.0
 40
4.0
100
AcDbArc
 50
183.275829
 51
270.0
  0
ARC
  5
241
100
AcDbEntity
  8
0
370
    -3
  6
Continuous
100
AcDbCircle
 10
-9.650646
 20
-110.879622
 30
0.0
 40
14.0
100
AcDbArc
 50
3.275829
 51
86.724171
  0
ARC
  5
242
100
AcDbEntity
  8
0
370
    -3
  6
Continuous
100
AcDbCircle
 10
-9.650646
 20
-110.879622
 30
0.0
 40
13.5
100
AcDbArc
 50
3.275829
 51
86.724171
  0
LINE
  5
243
100
AcDbEntity
  8
0
370
    -3
  6
Continuous
100
AcDbLine
 10
-12.150646
 20
-38.351027
 30
0.0
 11
-12.150646
 21
-93.408217
 31
0.0
  0
LINE
  5
244
100
AcDbEntity
  8
0
370
    -3
  6
Continuous
100
AcDbLine
 10
-12.650646
 20
-38.351027
 30
0.0
 11
-12.650646
 21
-93.408217
 31
0.0
  0
ARC
  5
245
100
AcDbEntity
  8
0
370
    -3
  6
Continuous
100
AcDbCircle
 10
-8.650646
 20
-93.408217
 30
0.0
 40
3.5
100
AcDbArc
 50
180.0
 51
266.724171
  0
ARC
  5
246
100
AcDbEntity
  8
0
370
    -3
  6
Continuous
100
AcDbCircle
 10
-8.650646
 20
-93.408217
 30
0.0
 40
4.0
100
AcDbArc
 50
180.0
 51
266.724171
  0
ARC
  5
247
100
AcDbEntity
  8
0
370
    -3
  6
Continuous
100
AcDbCircle
 10
-8.650646
 20
-38.351027
 30
0.0
 40
3.5
100
AcDbArc
 50
93.275829
 51
180.0
  0
ARC
  5
248
100
AcDbEntity
  8
0
370
    -3
  6
Continuous
100
AcDbCircle
 10
-8.650646
 20
-38.351027
 30
0.0
 40
4.0
100
AcDbArc
 50
93.275829
 51
180.0
  0
ARC
  5
249
100
AcDbEntity
  8
0
370
    -3
  6
Continuous
100
AcDbCircle
 10
-9.650646
 20
-20.879622
 30
0.0
 40
14.0
100
AcDbArc
 50
273.275829
 51
356.724171
  0
ARC
  5
24A
100
AcDbEntity
  8
0
370
    -3
  6
Continuous
100
AcDbCircle
 10
-9.650646
 20
-20.879622
 30
0.0
 40
13.5
100
AcDbArc
 50
273.275829
 51
356.724171
  0
ARC
  5
24B
100
AcDbEntity
  8
0
370
    -3
  6
Continuous
100
AcDbCircle
 10
7.820759
 20
-21.879622
 30
0.0
 40
4.0
100
AcDbArc
 50
90.0
 51
176.724171
  0
ARC
  5
24C
100
AcDbEntity
  8
0
370
    -3
  6
Continuous
100
AcDbCircle
 10
7.820759
 20
-21.879622
 30
0.0
 40
3.5
100
AcDbArc
 50
90.0
 51
176.724171
  0
ARC
  5
24D
100
AcDbEntity
  8
0
370
    -3
  6
Continuous
100
AcDbCircle
 10
33.617303
 20
-9.879622
 30
0.0
 40
1.0
100
AcDbArc
 50
30.0
 51
90.0
  0
ARC
  5
24E
100
AcDbEntity
  8
0
370
    -3
  6
Continuous
100
AcDbCircle
 10
37.081404
 20
-9.879622
 30
0.0
 40
1.0
100
AcDbArc
 50
90.0
 51
150.0
  0
ARC
  5
24F
100
AcDbEntity
  8
0
370
    -3
  6
Continuous
100
AcDbCircle
 10
35.349354
 20
-8.879622
 30
0.0
 40
1.0
100
AcDbArc
 50
210.0
 51
330.0
  0
ARC
  5
250
100
AcDbEntity
  8
0
370
    -3
  6
Continuous
100
AcDbCircle
 10
91.349354
 20
-64.147571
 30
0.0
 40
1.0
100
AcDbArc
 50
300.0
 51
0.0
  0
ARC
  5
251
100
AcDbEntity
  8
0
370
    -3
  6
Continuous
100
AcDbCircle
 10
91.349354
 20
-67.611673
 30
0.0
 40
1.0
100
AcDbArc
 50
0.0
 51
60.0
  0
ARC
  5
252
100
AcDbEntity
  8
0
370
    -3
  6
Continuous
100
AcDbCircle
 10
92.349354
 20
-65.879622
 30
0.0
 40
1.0
100
AcDbArc
 50
120.0
 51
240.0
  0
ARC
  5
253
100
AcDbEntity
  8
0
370
    -3
  6
Continuous
100
AcDbCircle
 10
37.081404
 20
-121.879622
 30
0.0
 40
1.0
100
AcDbArc
 50
210.0
 51
270.0
  0
ARC
  5
254
100
AcDbEntity
  8
0
370
    -3
  6
Continuous
100
AcDbCircle
 10
33.617303
 20
-121.879622
 30
0.0
 40
1.0
100
AcDbArc
 50
270.0
 51
330.0
  0
ARC
  5
255
100
AcDbEntity
  8
0
370
    -3
  6
Continuous
100
AcDbCircle
 10
35.349354
 20
-122.879622
 30
0.0
 40
1.0
100
AcDbArc
 50
30.0
 51
150.0
  0
ARC
  5
256
100
AcDbEntity
  8
0
370
    -3
  6
Continuous
100
AcDbCircle
 10
54.383497
 20
-21.879622
 30
0.0
 40
5.0
100
AcDbArc
 50
28.685402
 51
90.0
  0
ARC
  5
257
100
AcDbEntity
  8
0
370
    -3
  6
Continuous
100
AcDbCircle
 10
80.349354
 20
-20.879622
 30
0.0
 40
12.5
100
AcDbArc
 50
210.012476
 51
266.724171
  0
ARC
  5
258
100
AcDbEntity
  8
0
370
    -3
  6
Continuous
100
AcDbCircle
 10
65.349354
 20
-15.879622
 30
0.0
 40
7.5
100
AcDbArc
 50
208.685402
 51
259.77568
  0
ARC
  5
259
100
AcDbEntity
  8
0
370
    -3
  6
Continuous
100
AcDbCircle
 10
62.598065
 20
-31.133488
 30
0.0
 40
8.0
100
AcDbArc
 50
30.012476
 51
79.77568
  0
LINE
  5
25A
100
AcDbEntity
  8
0
370
    -3
  6
Continuous
100
AcDbLine
 10
7.820759
 20
-18.379622
 30
0.0
 11
54.383497
 21
-18.379622
 31
0.0
  0
ARC
  5
25B
100
AcDbEntity
  8
0
370
    -3
  6
Continuous
100
AcDbCircle
 10
54.383497
 20
-21.879622
 30
0.0
 40
3.5
100
AcDbArc
 50
28.685402
 51
90.0
  0
ARC
  5
25C
100
AcDbEntity
  8
0
370
    -3
  6
Continuous
100
AcDbCircle
 10
80.349354
 20
-20.879622
 30
0.0
 40
14.0
100
AcDbArc
 50
210.012476
 51
266.724171
  0
ARC
  5
25D
100
AcDbEntity
  8
0
370
    -3
  6
Continuous
100
AcDbCircle
 10
65.349354
 20
-15.879622
 30
0.0
 40
9.0
100
AcDbArc
 50
208.685402
 51
259.77568
  0
ARC
  5
25E
100
AcDbEntity
  8
0
370
    -3
  6
Continuous
100
AcDbCircle
 10
62.598065
 20
-31.133488
 30
0.0
 40
6.5
100
AcDbArc
 50
30.012476
 51
79.77568
  0
ARC
  5
25F
100
AcDbEntity
  8
0
370
    -3
  6
Continuous
100
AcDbCircle
 10
-47.899358
 20
-31.133488
 30
0.0
 40
8.0
100
AcDbArc
 50
100.22432
 51
149.987524
  0
LINE
  5
260
100
AcDbEntity
  8
0
370
    -3
  6
Continuous
100
AcDbLine
 10
54.383497
 20
-16.879622
 30
0.0
 11
-39.68479
 21
-16.879622
 31
0.0
  0
ARC
  5
261
100
AcDbEntity
  8
0
370
    -3
  6
Continuous
100
AcDbCircle
 10
-50.650646
 20
-15.879622
 30
0.0
 40
7.5
100
AcDbArc
 50
280.22432
 51
331.314598
  0
ARC
  5
262
100
AcDbEntity
  8
0
370
    -3
  6
Continuous
100
AcDbCircle
 10
-39.68479
 20
-21.879622
 30
0.0
 40
5.0
100
AcDbArc
 50
90.0
 51
151.314598
  0
ARC
  5
263
100
AcDbEntity
  8
0
370
    -3
  6
Continuous
100
AcDbCircle
 10
-47.899358
 20
-31.133488
 30
0.0
 40
7.0
100
AcDbArc
 50
100.22432
 51
149.987524
  0
ARC
  5
264
100
AcDbEntity
  8
0
370
    -3
  6
Continuous
100
AcDbCircle
 10
-50.650646
 20
-15.879622
 30
0.0
 40
8.5
100
AcDbArc
 50
280.22432
 51
331.314598
  0
ARC
  5
265
100
AcDbEntity
  8
0
370
    -3
  6
Continuous
100
AcDbCircle
 10
-39.68479
 20
-21.879622
 30
0.0
 40
4.0
100
AcDbArc
 50
90.0
 51
151.314598
  0
LINE
  5
266
100
AcDbEntity
  8
0
370
    -3
  6
Continuous
100
AcDbLine
 10
7.820759
 20
-17.879622
 30
0.0
 11
-39.68479
 21
-17.879622
 31
0.0
  0
ARC
  5
267
100
AcDbEntity
  8
0
370
    -3
  6
Continuous
100
AcDbCircle
 10
80.349354
 20
-110.879622
 30
0.0
 40
12.5
100
AcDbArc
 50
93.275829
 51
149.987524
  0
ARC
  5
268
100
AcDbEntity
  8
0
370
    -3
  6
Continuous
100
AcDbCircle
 10
62.598065
 20
-100.625757
 30
0.0
 40
8.0
100
AcDbArc
 50
280.22432
 51
329.987524
  0
ARC
  5
269
100
AcDbEntity
  8
0
370
    -3
  6
Continuous
100
AcDbCircle
 10
-47.899358
 20
-100.625757
 30
0.0
 40
8.0
100
AcDbArc
 50
210.012476
 51
259.77568
  0
ARC
  5
26A
100
AcDbEntity
  8
0
370
    -3
  6
Continuous
100
AcDbCircle
 10
-50.650646
 20
-115.879622
 30
0.0
 40
7.5
100
AcDbArc
 50
28.685402
 51
79.77568
  0
ARC
  5
26B
100
AcDbEntity
  8
0
370
    -3
  6
Continuous
100
AcDbCircle
 10
-39.68479
 20
-109.879622
 30
0.0
 40
5.0
100
AcDbArc
 50
208.685402
 51
270.0
  0
LINE
  5
26C
100
AcDbEntity
  8
0
370
    -3
  6
Continuous
100
AcDbLine
 10
-39.68479
 20
-113.879622
 30
0.0
 11
7.820759
 21
-113.879622
 31
0.0
  0
ARC
  5
26D
100
AcDbEntity
  8
0
370
    -3
  6
Continuous
100
AcDbCircle
 10
-39.68479
 20
-109.879622
 30
0.0
 40
4.0
100
AcDbArc
 50
208.685402
 51
270.0
  0
ARC
  5
26E
100
AcDbEntity
  8
0
370
    -3
  6
Continuous
100
AcDbCircle
 10
-50.650646
 20
-115.879622
 30
0.0
 40
8.5
100
AcDbArc
 50
28.685402
 51
79.77568
  0
ARC
  5
26F
100
AcDbEntity
  8
0
370
    -3
  6
Continuous
100
AcDbCircle
 10
-47.899358
 20
-100.625757
 30
0.0
 40
7.0
100
AcDbArc
 50
210.012476
 51
259.77568
  0
LINE
  5
270
100
AcDbEntity
  8
0
370
    -3
  6
Continuous
100
AcDbLine
 10
54.383497
 20
-114.879622
 30
0.0
 11
-39.68479
 21
-114.879622
 31
0.0
  0
ARC
  5
271
100
AcDbEntity
  8
0
370
    -3
  6
Continuous
100
AcDbCircle
 10
65.349354
 20
-115.879622
 30
0.0
 40
7.5
100
AcDbArc
 50
100.22432
 51
151.314598
  0
ARC
  5
272
100
AcDbEntity
  8
0
370
    -3
  6
Continuous
100
AcDbCircle
 10
54.383497
 20
-109.879622
 30
0.0
 40
5.0
100
AcDbArc
 50
270.0
 51
331.314598
  0
LINE
  5
273
100
AcDbEntity
  8
0
370
    -3
  6
Continuous
100
AcDbLine
 10
54.383497
 20
-113.379622
 30
0.0
 11
7.820759
 21
-113.379622
 31
0.0
  0
ARC
  5
274
100
AcDbEntity
  8
0
370
    -3
  6
Continuous
100
AcDbCircle
 10
54.383497
 20
-109.879622
 30
0.0
 40
3.5
100
AcDbArc
 50
270.0
 51
331.314598
  0
ARC
  5
275
100
AcDbEntity
  8
0
370
    -3
  6
Continuous
100
AcDbCircle
 10
80.349354
 20
-110.879622
 30
0.0
 40
14.0
100
AcDbArc
 50
93.275829
 51
149.987524
  0
ARC
  5
276
100
AcDbEntity
  8
0
370
    -3
  6
Continuous
100
AcDbCircle
 10
65.349354
 20
-115.879622
 30
0.0
 40
9.0
100
AcDbArc
 50
100.22432
 51
151.314598
  0
ARC
  5
277
100
AcDbEntity
  8
0
370
    -3
  6
Continuous
100
AcDbCircle
 10
62.598065
 20
-100.625757
 30
0.0
 40
6.5
100
AcDbArc
 50
280.22432
 51
329.987524
  0
ARC
  5
278
100
AcDbEntity
  8
0
370
    -3
  6
Continuous
100
AcDbCircle
 10
-50.650646
 20
-115.879622
 30
0.0
 40
5.5
100
AcDbArc
 50
0.0
 51
180.0
  0
LINE
  5
279
100
AcDbEntity
  8
0
370
    -3
  6
Continuous
100
AcDbLine
 10
-56.150646
 20
-115.879622
 30
0.0
 11
-56.150646
 21
-122.479622
 31
0.0
  0
LINE
  5
27A
100
AcDbEntity
  8
0
370
    -3
  6
Continuous
100
AcDbLine
 10
-56.150646
 20
-122.479622
 30
0.0
 11
-56.550646
 21
-122.879622
 31
0.0
  0
LINE
  5
27B
100
AcDbEntity
  8
0
370
    -3
  6
Continuous
100
AcDbLine
 10
-45.150646
 20
-115.879622
 30
0.0
 11
-45.150646
 21
-122.479622
 31
0.0
  0
LINE
  5
27C
100
AcDbEntity
  8
0
370
    -3
  6
Continuous
100
AcDbLine
 10
-45.150646
 20
-122.479622
 30
0.0
 11
-44.750646
 21
-122.879622
 31
0.0
  0
LINE
  5
27D
100
AcDbEntity
  8
0
370
    -3
  6
Continuous
100
AcDbLine
 10
-45.150646
 20
-122.479622
 30
0.0
 11
-44.750646
 21
-122.879622
 31
0.0
  0
LINE
  5
27E
100
AcDbEntity
  8
0
370
    -3
  6
Continuous
100
AcDbLine
 10
-45.150646
 20
-115.879622
 30
0.0
 11
-45.150646
 21
-122.479622
 31
0.0
  0
LINE
  5
27F
100
AcDbEntity
  8
0
370
    -3
  6
Continuous
100
AcDbLine
 10
-56.150646
 20
-122.479622
 30
0.0
 11
-56.550646
 21
-122.879622
 31
0.0
  0
LINE
  5
280
100
AcDbEntity
  8
0
370
    -3
  6
Continuous
100
AcDbLine
 10
-56.150646
 20
-115.879622
 30
0.0
 11
-56.150646
 21
-122.479622
 31
0.0
  0
ARC
  5
281
100
AcDbEntity
  8
0
370
    -3
  6
Continuous
100
AcDbCircle
 10
-50.650646
 20
-115.879622
 30
0.0
 40
5.5
100
AcDbArc
 50
0.0
 51
180.0
  0
ARC
  5
282
100
AcDbEntity
  8
0
370
    -3
  6
Continuous
100
AcDbCircle
 10
62.598065
 20
-100.625757
 30
0.0
 40
6.5
100
AcDbArc
 50
280.22432
 51
329.987524
  0
ARC
  5
283
100
AcDbEntity
  8
0
370
    -3
  6
Continuous
100
AcDbCircle
 10
65.349354
 20
-115.879622
 30
0.0
 40
9.0
100
AcDbArc
 50
100.22432
 51
151.314598
  0
ARC
  5
284
100
AcDbEntity
  8
0
370
    -3
  6
Continuous
100
AcDbCircle
 10
80.349354
 20
-110.879622
 30
0.0
 40
14.0
100
AcDbArc
 50
93.275829
 51
149.987524
  0
ARC
  5
285
100
AcDbEntity
  8
0
370
    -3
  6
Continuous
100
AcDbCircle
 10
54.383497
 20
-109.879622
 30
0.0
 40
3.5
100
AcDbArc
 50
270.0
 51
331.314598
  0
LINE
  5
286
100
AcDbEntity
  8
0
370
    -3
  6
Continuous
100
AcDbLine
 10
54.383497
 20
-113.379622
 30
0.0
 11
7.820759
 21
-113.379622
 31
0.0
  0
ARC
  5
287
100
AcDbEntity
  8
0
370
    -3
  6
Continuous
100
AcDbCircle
 10
54.383497
 20
-109.879622
 30
0.0
 40
5.0
100
AcDbArc
 50
270.0
 51
331.314598
  0
ARC
  5
288
100
AcDbEntity
  8
0
370
    -3
  6
Continuous
100
AcDbCircle
 10
65.349354
 20
-115.879622
 30
0.0
 40
7.5
100
AcDbArc
 50
100.22432
 51
151.314598
  0
LINE
  5
289
100
AcDbEntity
  8
0
370
    -3
  6
Continuous
100
AcDbLine
 10
54.383497
 20
-114.879622
 30
0.0
 11
-39.68479
 21
-114.879622
 31
0.0
  0
ARC
  5
28A
100
AcDbEntity
  8
0
370
    -3
  6
Continuous
100
AcDbCircle
 10
-47.899358
 20
-100.625757
 30
0.0
 40
7.0
100
AcDbArc
 50
210.012476
 51
259.77568
  0
ARC
  5
28B
100
AcDbEntity
  8
0
370
    -3
  6
Continuous
100
AcDbCircle
 10
-50.650646
 20
-115.879622
 30
0.0
 40
8.5
100
AcDbArc
 50
28.685402
 51
79.77568
  0
ARC
  5
28C
100
AcDbEntity
  8
0
370
    -3
  6
Continuous
100
AcDbCircle
 10
-39.68479
 20
-109.879622
 30
0.0
 40
4.0
100
AcDbArc
 50
208.685402
 51
270.0
  0
LINE
  5
28D
100
AcDbEntity
  8
0
370
    -3
  6
Continuous
100
AcDbLine
 10
-39.68479
 20
-113.879622
 30
0.0
 11
7.820759
 21
-113.879622
 31
0.0
  0
ARC
  5
28E
100
AcDbEntity
  8
0
370
    -3
  6
Continuous
100
AcDbCircle
 10
-39.68479
 20
-109.879622
 30
0.0
 40
5.0
100
AcDbArc
 50
208.685402
 51
270.0
  0
ARC
  5
28F
100
AcDbEntity
  8
0
370
    -3
  6
Continuous
100
AcDbCircle
 10
-50.650646
 20
-115.879622
 30
0.0
 40
7.5
100
AcDbArc
 50
28.685402
 51
79.77568
  0
ARC
  5
290
100
AcDbEntity
  8
0
370
    -3
  6
Continuous
100
AcDbCircle
 10
-47.899358
 20
-100.625757
 30
0.0
 40
8.0
100
AcDbArc
 50
210.012476
 51
259.77568
  0
ARC
  5
291
100
AcDbEntity
  8
0
370
    -3
  6
Continuous
100
AcDbCircle
 10
62.598065
 20
-100.625757
 30
0.0
 40
8.0
100
AcDbArc
 50
280.22432
 51
329.987524
  0
ARC
  5
292
100
AcDbEntity
  8
0
370
    -3
  6
Continuous
100
AcDbCircle
 10
80.349354
 20
-110.879622
 30
0.0
 40
12.5
100
AcDbArc
 50
93.275829
 51
149.987524
  0
LINE
  5
293
100
AcDbEntity
  8
0
370
    -3
  6
Continuous
100
AcDbLine
 10
7.820759
 20
-17.879622
 30
0.0
 11
-39.68479
 21
-17.879622
 31
0.0
  0
ARC
  5
294
100
AcDbEntity
  8
0
370
    -3
  6
Continuous
100
AcDbCircle
 10
-39.68479
 20
-21.879622
 30
0.0
 40
4.0
100
AcDbArc
 50
90.0
 51
151.314598
  0
ARC
  5
295
100
AcDbEntity
  8
0
370
    -3
  6
Continuous
100
AcDbCircle
 10
-50.650646
 20
-15.879622
 30
0.0
 40
8.5
100
AcDbArc
 50
280.22432
 51
331.314598
  0
ARC
  5
296
100
AcDbEntity
  8
0
370
    -3
  6
Continuous
100
AcDbCircle
 10
-47.899358
 20
-31.133488
 30
0.0
 40
7.0
100
AcDbArc
 50
100.22432
 51
149.987524
  0
ARC
  5
297
100
AcDbEntity
  8
0
370
    -3
  6
Continuous
100
AcDbCircle
 10
-39.68479
 20
-21.879622
 30
0.0
 40
5.0
100
AcDbArc
 50
90.0
 51
151.314598
  0
ARC
  5
298
100
AcDbEntity
  8
0
370
    -3
  6
Continuous
100
AcDbCircle
 10
-50.650646
 20
-15.879622
 30
0.0
 40
7.5
100
AcDbArc
 50
280.22432
 51
331.314598
  0
LINE
  5
299
100
AcDbEntity
  8
0
370
    -3
  6
Continuous
100
AcDbLine
 10
54.383497
 20
-16.879622
 30
0.0
 11
-39.68479
 21
-16.879622
 31
0.0
  0
ARC
  5
29A
100
AcDbEntity
  8
0
370
    -3
  6
Continuous
100
AcDbCircle
 10
-47.899358
 20
-31.133488
 30
0.0
 40
8.0
100
AcDbArc
 50
100.22432
 51
149.987524
  0
ARC
  5
29B
100
AcDbEntity
  8
0
370
    -3
  6
Continuous
100
AcDbCircle
 10
62.598065
 20
-31.133488
 30
0.0
 40
6.5
100
AcDbArc
 50
30.012476
 51
79.77568
  0
ARC
  5
29C
100
AcDbEntity
  8
0
370
    -3
  6
Continuous
100
AcDbCircle
 10
65.349354
 20
-15.879622
 30
0.0
 40
9.0
100
AcDbArc
 50
208.685402
 51
259.77568
  0
ARC
  5
29D
100
AcDbEntity
  8
0
370
    -3
  6
Continuous
100
AcDbCircle
 10
80.349354
 20
-20.879622
 30
0.0
 40
14.0
100
AcDbArc
 50
210.012476
 51
266.724171
  0
ARC
  5
29E
100
AcDbEntity
  8
0
370
    -3
  6
Continuous
100
AcDbCircle
 10
54.383497
 20
-21.879622
 30
0.0
 40
3.5
100
AcDbArc
 50
28.685402
 51
90.0
  0
LINE
  5
29F
100
AcDbEntity
  8
0
370
    -3
  6
Continuous
100
AcDbLine
 10
7.820759
 20
-18.379622
 30
0.0
 11
54.383497
 21
-18.379622
 31
0.0
  0
ARC
  5
2A0
100
AcDbEntity
  8
0
370
    -3
  6
Continuous
100
AcDbCircle
 10
62.598065
 20
-31.133488
 30
0.0
 40
8.0
100
AcDbArc
 50
30.012476
 51
79.77568
  0
ARC
  5
2A1
100
AcDbEntity
  8
0
370
    -3
  6
Continuous
100
AcDbCircle
 10
65.349354
 20
-15.879622
 30
0.0
 40
7.5
100
AcDbArc
 50
208.685402
 51
259.77568
  0
ARC
  5
2A2
100
AcDbEntity
  8
0
370
    -3
  6
Continuous
100
AcDbCircle
 10
80.349354
 20
-20.879622
 30
0.0
 40
12.5
100
AcDbArc
 50
210.012476
 51
266.724171
  0
ARC
  5
2A3
100
AcDbEntity
  8
0
370
    -3
  6
Continuous
100
AcDbCircle
 10
54.383497
 20
-21.879622
 30
0.0
 40
5.0
100
AcDbArc
 50
28.685402
 51
90.0
  0
ARC
  5
2A4
100
AcDbEntity
  8
0
370
    -3
  6
Continuous
100
AcDbCircle
 10
35.349354
 20
-122.879622
 30
0.0
 40
1.0
100
AcDbArc
 50
30.0
 51
150.0
  0
ARC
  5
2A5
100
AcDbEntity
  8
0
370
    -3
  6
Continuous
100
AcDbCircle
 10
33.617303
 20
-121.879622
 30
0.0
 40
1.0
100
AcDbArc
 50
270.0
 51
330.0
  0
ARC
  5
2A6
100
AcDbEntity
  8
0
370
    -3
  6
Continuous
100
AcDbCircle
 10
37.081404
 20
-121.879622
 30
0.0
 40
1.0
100
AcDbArc
 50
210.0
 51
270.0
  0
ARC
  5
2A7
100
AcDbEntity
  8
0
370
    -3
  6
Continuous
100
AcDbCircle
 10
92.349354
 20
-65.879622
 30
0.0
 40
1.0
100
AcDbArc
 50
120.0
 51
240.0
  0
ARC
  5
2A8
100
AcDbEntity
  8
0
370
    -3
  6
Continuous
100
AcDbCircle
 10
91.349354
 20
-67.611673
 30
0.0
 40
1.0
100
AcDbArc
 50
0.0
 51
60.0
  0
ARC
  5
2A9
100
AcDbEntity
  8
0
370
    -3
  6
Continuous
100
AcDbCircle
 10
91.349354
 20
-64.147571
 30
0.0
 40
1.0
100
AcDbArc
 50
300.0
 51
0.0
  0
ARC
  5
2AA
100
AcDbEntity
  8
0
370
    -3
  6
Continuous
100
AcDbCircle
 10
35.349354
 20
-8.879622
 30
0.0
 40
1.0
100
AcDbArc
 50
210.0
 51
330.0
  0
ARC
  5
2AB
100
AcDbEntity
  8
0
370
    -3
  6
Continuous
100
AcDbCircle
 10
37.081404
 20
-9.879622
 30
0.0
 40
1.0
100
AcDbArc
 50
90.0
 51
150.0
  0
ARC
  5
2AC
100
AcDbEntity
  8
0
370
    -3
  6
Continuous
100
AcDbCircle
 10
33.617303
 20
-9.879622
 30
0.0
 40
1.0
100
AcDbArc
 50
30.0
 51
90.0
  0
ARC
  5
2AD
100
AcDbEntity
  8
0
370
    -3
  6
Continuous
100
AcDbCircle
 10
7.820759
 20
-21.879622
 30
0.0
 40
3.5
100
AcDbArc
 50
90.0
 51
176.724171
  0
ARC
  5
2AE
100
AcDbEntity
  8
0
370
    -3
  6
Continuous
100
AcDbCircle
 10
7.820759
 20
-21.879622
 30
0.0
 40
4.0
100
AcDbArc
 50
90.0
 51
176.724171
  0
ARC
  5
2AF
100
AcDbEntity
  8
0
370
    -3
  6
Continuous
100
AcDbCircle
 10
-9.650646
 20
-20.879622
 30
0.0
 40
13.5
100
AcDbArc
 50
273.275829
 51
356.724171
  0
ARC
  5
2B0
100
AcDbEntity
  8
0
370
    -3
  6
Continuous
100
AcDbCircle
 10
-9.650646
 20
-20.879622
 30
0.0
 40
14.0
100
AcDbArc
 50
273.275829
 51
356.724171
  0
ARC
  5
2B1
100
AcDbEntity
  8
0
370
    -3
  6
Continuous
100
AcDbCircle
 10
-8.650646
 20
-38.351027
 30
0.0
 40
4.0
100
AcDbArc
 50
93.275829
 51
180.0
  0
ARC
  5
2B2
100
AcDbEntity
  8
0
370
    -3
  6
Continuous
100
AcDbCircle
 10
-8.650646
 20
-38.351027
 30
0.0
 40
3.5
100
AcDbArc
 50
93.275829
 51
180.0
  0
ARC
  5
2B3
100
AcDbEntity
  8
0
370
    -3
  6
Continuous
100
AcDbCircle
 10
-8.650646
 20
-93.408217
 30
0.0
 40
4.0
100
AcDbArc
 50
180.0
 51
266.724171
  0
ARC
  5
2B4
100
AcDbEntity
  8
0
370
    -3
  6
Continuous
100
AcDbCircle
 10
-8.650646
 20
-93.408217
 30
0.0
 40
3.5
100
AcDbArc
 50
180.0
 51
266.724171
  0
LINE
  5
2B5
100
AcDbEntity
  8
0
370
    -3
  6
Continuous
100
AcDbLine
 10
-12.650646
 20
-38.351027
 30
0.0
 11
-12.650646
 21
-93.408217
 31
0.0
  0
LINE
  5
2B6
100
AcDbEntity
  8
0
370
    -3
  6
Continuous
100
AcDbLine
 10
-12.150646
 20
-38.351027
 30
0.0
 11
-12.150646
 21
-93.408217
 31
0.0
  0
ARC
  5
2B7
100
AcDbEntity
  8
0
370
    -3
  6
Continuous
100
AcDbCircle
 10
-9.650646
 20
-110.879622
 30
0.0
 40
13.5
100
AcDbArc
 50
3.275829
 51
86.724171
  0
ARC
  5
2B8
100
AcDbEntity
  8
0
370
    -3
  6
Continuous
100
AcDbCircle
 10
-9.650646
 20
-110.879622
 30
0.0
 40
14.0
100
AcDbArc
 50
3.275829
 51
86.724171
  0
ARC
  5
2B9
100
AcDbEntity
  8
0
370
    -3
  6
Continuous
100
AcDbCircle
 10
7.820759
 20
-109.879622
 30
0.0
 40
4.0
100
AcDbArc
 50
183.275829
 51
270.0
  0
ARC
  5
2BA
100
AcDbEntity
  8
0
370
    -3
  6
Continuous
100
AcDbCircle
 10
7.820759
 20
-109.879622
 30
0.0
 40
3.5
100
AcDbArc
 50
183.275829
 51
270.0
  0
ARC
  5
2BB
100
AcDbEntity
  8
0
370
    -3
  6
Continuous
100
AcDbCircle
 10
79.349354
 20
-93.408217
 30
0.0
 40
3.5
100
AcDbArc
 50
273.275829
 51
0.0
  0
ARC
  5
2BC
100
AcDbEntity
  8
0
370
    -3
  6
Continuous
100
AcDbCircle
 10
79.349354
 20
-93.408217
 30
0.0
 40
5.0
100
AcDbArc
 50
273.275829
 51
0.0
  0
LINE
  5
2BD
100
AcDbEntity
  8
0
370
    -3
  6
Continuous
100
AcDbLine
 10
84.349354
 20
-38.351027
 30
0.0
 11
84.349354
 21
-93.408217
 31
0.0
  0
LINE
  5
2BE
100
AcDbEntity
  8
0
370
    -3
  6
Continuous
100
AcDbLine
 10
82.849354
 20
-38.351027
 30
0.0
 11
82.849354
 21
-93.408217
 31
0.0
  0
ARC
  5
2BF
100
AcDbEntity
  8
0
370
    -3
  6
Continuous
100
AcDbCircle
 10
79.349354
 20
-38.351027
 30
0.0
 40
3.5
100
AcDbArc
 50
0.0
 51
86.724171
  0
ARC
  5
2C0
100
AcDbEntity
  8
0
370
    -3
  6
Continuous
100
AcDbCircle
 10
79.349354
 20
-38.351027
 30
0.0
 40
5.0
100
AcDbArc
 50
0.0
 51
86.724171
  0
CIRCLE
  5
2C1
100
AcDbEntity
  8
0
370
    -3
  6
Continuous
100
AcDbCircle
 10
65.349354
 20
-115.879622
 30
0.0
 40
3.3
  0
CIRCLE
  5
2C2
100
AcDbEntity
  8
0
370
    -3
  6
Continuous
100
AcDbCircle
 10
-50.650646
 20
-115.879622
 30
0.0
 40
3.3
  0
CIRCLE
  5
2C3
100
AcDbEntity
  8
0
370
    -3
  6
Continuous
100
AcDbCircle
 10
65.349354
 20
-15.879622
 30
0.0
 40
3.3
  0
CIRCLE
  5
2C4
100
AcDbEntity
  8
0
370
    -3
  6
Continuous
100
AcDbCircle
 10
-50.650646
 20
-15.879622
 30
0.0
 40
3.3
  0
LINE
  5
2C5
100
AcDbEntity
  8
0
370
    -3
  6
Continuous
100
AcDbLine
 10
83.349354
 20
-8.879622
 30
0.0
 11
35.349354
 21
-8.879622
 31
0.0
  0
LINE
  5
2C6
100
AcDbEntity
  8
0
370
    -3
  6
Continuous
100
AcDbLine
 10
83.349354
 20
-122.879622
 30
0.0
 11
35.349354
 21
-122.879622
 31
0.0
  0
ARC
  5
2C7
100
AcDbEntity
  8
0
370
    -3
  6
Continuous
100
AcDbCircle
 10
83.349354
 20
-113.879622
 30
0.0
 40
9.0
100
AcDbArc
 50
270.0
 51
0.0
  0
LINE
  5
2C8
100
AcDbEntity
  8
0
370
    -3
  6
Continuous
100
AcDbLine
 10
92.349354
 20
-65.879622
 30
0.0
 11
92.349354
 21
-113.879622
 31
0.0
  0
LINE
  5
2C9
100
AcDbEntity
  8
0
370
    -3
  6
Continuous
100
AcDbLine
 10
92.349354
 20
-65.879622
 30
0.0
 11
92.349354
 21
-17.879622
 31
0.0
  0
ARC
  5
2CA
100
AcDbEntity
  8
0
370
    -3
  6
Continuous
100
AcDbCircle
 10
83.349354
 20
-17.879622
 30
0.0
 40
9.0
100
AcDbArc
 50
0.0
 51
90.0
  0
LINE
  5
2CB
100
AcDbEntity
  8
0
370
    -3
  6
Continuous
100
AcDbLine
 10
59.849354
 20
-122.479622
 30
0.0
 11
59.449354
 21
-122.879622
 31
0.0
  0
LINE
  5
2CC
100
AcDbEntity
  8
0
370
    -3
  6
Continuous
100
AcDbLine
 10
59.849354
 20
-115.879622
 30
0.0
 11
59.849354
 21
-122.479622
 31
0.0
  0
LINE
  5
2CD
100
AcDbEntity
  8
0
370
    -3
  6
Continuous
100
AcDbLine
 10
70.849354
 20
-122.479622
 30
0.0
 11
71.249354
 21
-122.879622
 31
0.0
  0
LINE
  5
2CE
100
AcDbEntity
  8
0
370
    -3
  6
Continuous
100
AcDbLine
 10
70.849354
 20
-115.879622
 30
0.0
 11
70.849354
 21
-122.479622
 31
0.0
  0
ARC
  5
2CF
100
AcDbEntity
  8
0
370
    -3
  6
Continuous
100
AcDbCircle
 10
65.349354
 20
-115.879622
 30
0.0
 40
5.5
100
AcDbArc
 50
0.0
 51
180.0
  0
ARC
  5
2D0
100
AcDbEntity
  8
0
370
    -3
  6
Continuous
100
AcDbCircle
 10
65.349354
 20
-15.879622
 30
0.0
 40
5.5
100
AcDbArc
 50
180.0
 51
0.0
  0
LINE
  5
2D1
100
AcDbEntity
  8
0
370
    -3
  6
Continuous
100
AcDbLine
 10
70.849354
 20
-9.279622
 30
0.0
 11
71.249354
 21
-8.879622
 31
0.0
  0
LINE
  5
2D2
100
AcDbEntity
  8
0
370
    -3
  6
Continuous
100
AcDbLine
 10
70.849354
 20
-15.879622
 30
0.0
 11
70.849354
 21
-9.279622
 31
0.0
  0
LINE
  5
2D3
100
AcDbEntity
  8
0
370
    -3
  6
Continuous
100
AcDbLine
 10
59.849354
 20
-9.279622
 30
0.0
 11
59.449354
 21
-8.879622
 31
0.0
  0
LINE
  5
2D4
100
AcDbEntity
  8
0
370
    -3
  6
Continuous
100
AcDbLine
 10
59.849354
 20
-15.879622
 30
0.0
 11
59.849354
 21
-9.279622
 31
0.0
  0
ARC
  5
2D5
100
AcDbEntity
  8
0
370
    -3
  6
Continuous
100
AcDbCircle
 10
-50.650646
 20
-15.879622
 30
0.0
 40
5.5
100
AcDbArc
 50
180.0
 51
0.0
  0
LINE
  5
2D6
100
AcDbEntity
  8
0
370
    -3
  6
Continuous
100
AcDbLine
 10
-45.150646
 20
-9.279622
 30
0.0
 11
-44.750646
 21
-8.879622
 31
0.0
  0
LINE
  5
2D7
100
AcDbEntity
  8
0
370
    -3
  6
Continuous
100
AcDbLine
 10
-45.150646
 20
-15.879622
 30
0.0
 11
-45.150646
 21
-9.279622
 31
0.0
  0
LINE
  5
2D8
100
AcDbEntity
  8
0
370
    -3
  6
Continuous
100
AcDbLine
 10
-56.150646
 20
-9.279622
 30
0.0
 11
-56.550646
 21
-8.879622
 31
0.0
  0
LINE
  5
2D9
100
AcDbEntity
  8
0
370
    -3
  6
Continuous
100
AcDbLine
 10
-56.150646
 20
-15.879622
 30
0.0
 11
-56.150646
 21
-9.279622
 31
0.0
  0
LINE
  5
2DA
100
AcDbEntity
  8
0
370
    -3
  6
Continuous
100
AcDbLine
 10
91.849354
 20
-65.013597
 30
0.0
 11
91.849354
 21
-18.379622
 31
0.0
  0
LINE
  5
2DB
100
AcDbEntity
  8
0
370
    -3
  6
Continuous
100
AcDbLine
 10
36.215379
 20
-9.379622
 30
0.0
 11
82.849354
 21
-9.379622
 31
0.0
  0
ARC
  5
2DC
100
AcDbEntity
  8
0
370
    -3
  6
Continuous
100
AcDbCircle
 10
82.849354
 20
-18.379622
 30
0.0
 40
9.0
100
AcDbArc
 50
0.0
 51
90.0
  0
ARC
  5
2DD
100
AcDbEntity
  8
0
370
    -3
  6
Continuous
100
AcDbCircle
 10
82.849354
 20
-113.379622
 30
0.0
 40
9.0
100
AcDbArc
 50
270.0
 51
0.0
  0
LINE
  5
2DE
100
AcDbEntity
  8
0
370
    -3
  6
Continuous
100
AcDbLine
 10
82.849354
 20
-122.379622
 30
0.0
 11
36.215379
 21
-122.379622
 31
0.0
  0
LINE
  5
2DF
100
AcDbEntity
  8
0
370
    -3
  6
Continuous
100
AcDbLine
 10
91.849354
 20
-113.379622
 30
0.0
 11
91.849354
 21
-66.745648
 31
0.0
  0
LINE
  5
2E0
100
AcDbEntity
  8
0
370
    -3
  6
Continuous
100
AcDbLine
 10
91.849354
 20
-65.013597
 30
0.0
 11
91.849354
 21
-18.379622
 31
0.0
  0
LINE
  5
2E1
100
AcDbEntity
  8
0
370
    -3
  6
Continuous
100
AcDbLine
 10
36.215379
 20
-9.379622
 30
0.0
 11
82.849354
 21
-9.379622
 31
0.0
  0
ARC
  5
2E2
100
AcDbEntity
  8
0
370
    -3
  6
Continuous
100
AcDbCircle
 10
82.849354
 20
-18.379622
 30
0.0
 40
9.0
100
AcDbArc
 50
0.0
 51
90.0
  0
ARC
  5
2E3
100
AcDbEntity
  8
0
370
    -3
  6
Continuous
100
AcDbCircle
 10
82.849354
 20
-113.379622
 30
0.0
 40
9.0
100
AcDbArc
 50
270.0
 51
0.0
  0
LINE
  5
2E4
100
AcDbEntity
  8
0
370
    -3
  6
Continuous
100
AcDbLine
 10
82.849354
 20
-122.379622
 30
0.0
 11
36.215379
 21
-122.379622
 31
0.0
  0
LINE
  5
2E5
100
AcDbEntity
  8
0
370
    -3
  6
Continuous
100
AcDbLine
 10
91.849354
 20
-113.379622
 30
0.0
 11
91.849354
 21
-66.745648
 31
0.0
  0
LINE
  5
2E6
100
AcDbEntity
  8
0
370
    -3
  6
Continuous
100
AcDbLine
 10
-99.150646
 20
-12.379622
 30
0.0
 11
-103.650646
 21
-12.379622
 31
0.0
  0
LINE
  5
2E7
100
AcDbEntity
  8
0
370
    -3
  6
Continuous
100
AcDbLine
 10
-99.150646
 20
-155.379622
 30
0.0
 11
-103.650646
 21
-155.379622
 31
0.0
  0
LINE
  5
2E8
100
AcDbEntity
  8
0
370
    -3
  6
Continuous
100
AcDbLine
 10
-103.650646
 20
-83.879622
 30
0.0
 11
-103.650646
 21
-155.379622
 31
0.0
  0
LINE
  5
2E9
100
AcDbEntity
  8
0
370
    -3
  6
Continuous
100
AcDbLine
 10
-103.650646
 20
-83.879622
 30
0.0
 11
-103.650646
 21
-12.379622
 31
0.0
  0
CIRCLE
  5
2EA
100
AcDbEntity
  8
0
370
    -3
  6
Continuous
100
AcDbCircle
 10
35.349354
 20
-65.879622
 30
0.0
 40
30.0
  0
LINE
  5
2EB
100
AcDbEntity
  8
0
370
    -3
  6
CENTER
100
AcDbLine
 10
35.349354
 20
1.235687
 30
0.0
 11
35.349354
 21
-129.092337
 31
0.0
  0
LINE
  5
2EC
100
AcDbEntity
  8
0
370
    -3
  6
CENTER
100
AcDbLine
 10
97.123985
 20
-65.879622
 30
0.0
 11
-62.50431
 21
-65.879622
 31
0.0
  0
LINE
  5
2ED
100
AcDbEntity
  8
0
370
    -3
  6
Continuous
100
AcDbLine
 10
-103.650646
 20
-83.879622
 30
0.0
 11
-103.650646
 21
-12.379622
 31
0.0
  0
LINE
  5
2EE
100
AcDbEntity
  8
0
370
    -3
  6
Continuous
100
AcDbLine
 10
-103.650646
 20
-83.879622
 30
0.0
 11
-103.650646
 21
-153.879622
 31
0.0
  0
LINE
  5
2EF
100
AcDbEntity
  8
0
370
    -3
  6
CENTER
100
AcDbLine
 10
-50.829081
 20
-83.879622
 30
0.0
 11
-293.512535
 21
-83.879622
 31
0.0
  0
LINE
  5
2F0
100
AcDbEntity
  8
0
370
    -3
  6
CENTER
100
AcDbLine
 10
142.349354
 20
-38.426268
 30
0.0
 11
142.349354
 21
-92.701924
 31
0.0
  0
CIRCLE
  5
2F1
100
AcDbEntity
  8
0
370
    -3
  6
Continuous
100
AcDbCircle
 10
142.349354
 20
-65.879622
 30
0.0
 40
22.0
  0
ARC
  5
2F2
100
AcDbEntity
  8
0
370
    -3
  6
Continuous
100
AcDbCircle
 10
142.349354
 20
-65.879622
 30
0.0
 40
15.0
100
AcDbArc
 50
105.46601
 51
74.53399
  0
LINE
  5
2F3
100
AcDbEntity
  8
0
370
    -3
  6
CENTER
100
AcDbLine
 10
167.635205
 20
-65.879622
 30
0.0
 11
116.567962
 21
-65.879622
 31
0.0
  0
LINE
  5
2F4
100
AcDbEntity
  8
0
370
    -3
  6
Continuous
100
AcDbLine
 10
146.349354
 20
-47.579622
 30
0.0
 11
138.349354
 21
-47.579622
 31
0.0
  0
LINE
  5
2F5
100
AcDbEntity
  8
0
370
    -3
  6
Continuous
100
AcDbLine
 10
146.349354
 20
-47.579622
 30
0.0
 11
146.349354
 21
-51.42279
 31
0.0
  0
LINE
  5
2F6
100
AcDbEntity
  8
0
370
    -3
  6
Continuous
100
AcDbLine
 10
138.349354
 20
-47.579622
 30
0.0
 11
138.349354
 21
-51.42279
 31
0.0
  0
LINE
  5
2F7
100
AcDbEntity
  8
0
370
    -3
  6
Continuous
100
AcDbLine
 10
-20.703243
 20
136.002539
 30
0.0
 11
-76.628625
 21
136.001907
 31
0.0
  0
LINE
  5
2F8
100
AcDbEntity
  8
0
370
    -3
  6
Continuous
100
AcDbLine
 10
-20.703241
 20
147.0
 30
0.0
 11
-36.76787
 21
147.0
 31
0.0
  0
LINE
  5
2F9
100
AcDbEntity
  8
0
370
    -3
  6
Continuous
100
AcDbLine
 10
-19.84211
 20
233.998074
 30
0.0
 11
-75.650765
 21
233.997444
 31
0.0
  0
LINE
  5
2FA
100
AcDbEntity
  8
0
370
    -3
  6
Continuous
100
AcDbLine
 10
36.849385
 20
136.001248
 30
0.0
 11
36.849345
 21
143.000008
 31
0.0
  0
LINE
  5
2FB
100
AcDbEntity
  8
0
370
    -3
  6
Continuous
100
AcDbLine
 10
33.849385
 20
136.001282
 30
0.0
 11
33.849348
 21
142.502902
 31
0.0
  0
ARC
  5
2FC
100
AcDbEntity
  8
0
370
    -3
  6
Continuous
100
AcDbCircle
 10
35.349345
 20
142.5
 30
0.0
 40
1.5
100
AcDbArc
 50
0.000324
 51
180.000324
  0
ARC
  5
2FD
100
AcDbEntity
  8
0
370
    -3
  6
Continuous
100
AcDbCircle
 10
-85.650646
 20
235.0
 30
0.0
 40
5.0
100
AcDbArc
 50
0.0
 51
90.0
  0
LINE
  5
2FE
100
AcDbEntity
  8
0
370
    -3
  6
Continuous
100
AcDbLine
 10
-94.150646
 20
240.0
 30
0.0
 11
-85.650646
 21
240.0
 31
0.0
  0
LINE
  5
2FF
100
AcDbEntity
  8
0
370
    -3
  6
Continuous
100
AcDbLine
 10
-94.150646
 20
240.0
 30
0.0
 11
-85.650646
 21
240.0
 31
0.0
  0
ARC
  5
300
100
AcDbEntity
  8
0
370
    -3
  6
Continuous
100
AcDbCircle
 10
-85.650646
 20
235.0
 30
0.0
 40
5.0
100
AcDbArc
 50
0.0
 51
90.0
  0
ARC
  5
301
100
AcDbEntity
  8
0
370
    -3
  6
Continuous
100
AcDbCircle
 10
-85.650646
 20
226.756946
 30
0.0
 40
5.0
100
AcDbArc
 50
0.0
 51
90.0
  0
LINE
  5
302
100
AcDbEntity
  8
0
370
    -3
  6
Continuous
100
AcDbLine
 10
-94.150646
 20
231.756946
 30
0.0
 11
-85.650646
 21
231.756946
 31
0.0
  0
LINE
  5
303
100
AcDbEntity
  8
0
370
    -3
  6
Continuous
100
AcDbLine
 10
-94.150646
 20
226.639774
 30
0.0
 11
-83.089417
 21
226.639774
 31
0.0
  0
LINE
  5
304
100
AcDbEntity
  8
0
370
    -3
  6
Continuous
100
AcDbLine
 10
-94.150646
 20
226.639774
 30
0.0
 11
-83.089417
 21
226.639774
 31
0.0
  0
LINE
  5
305
100
AcDbEntity
  8
0
370
    -3
  6
Continuous
100
AcDbLine
 10
-94.150646
 20
231.756946
 30
0.0
 11
-85.650646
 21
231.756946
 31
0.0
  0
ARC
  5
306
100
AcDbEntity
  8
0
370
    -3
  6
Continuous
100
AcDbCircle
 10
-85.650646
 20
226.756946
 30
0.0
 40
5.0
100
AcDbArc
 50
0.0
 51
90.0
  0
LINE
  5
307
100
AcDbEntity
  8
0
370
    -3
  6
Continuous
100
AcDbLine
 10
-97.150646
 20
185.0
 30
0.0
 11
-97.150646
 21
115.5
 31
0.0
  0
LINE
  5
308
100
AcDbEntity
  8
0
370
    -3
  6
Continuous
100
AcDbLine
 10
-97.150646
 20
185.0
 30
0.0
 11
-97.150646
 21
115.5
 31
0.0
  0
ARC
  5
309
100
AcDbEntity
  8
0
370
    -3
  6
Continuous
100
AcDbCircle
 10
-85.650646
 20
143.243054
 30
0.0
 40
5.0
100
AcDbArc
 50
270.0
 51
0.0
  0
LINE
  5
30A
100
AcDbEntity
  8
0
370
    -3
  6
Continuous
100
AcDbLine
 10
-94.150646
 20
138.243054
 30
0.0
 11
-85.650646
 21
138.243054
 31
0.0
  0
ARC
  5
30B
100
AcDbEntity
  8
0
370
    -3
  6
Continuous
100
AcDbCircle
 10
-85.650646
 20
135.0
 30
0.0
 40
5.0
100
AcDbArc
 50
270.0
 51
0.0
  0
ARC
  5
30C
100
AcDbEntity
  8
0
370
    -3
  6
Continuous
100
AcDbCircle
 10
-94.150646
 20
146.360226
 30
0.0
 40
3.0
100
AcDbArc
 50
180.0
 51
270.0
  0
LINE
  5
30D
100
AcDbEntity
  8
0
370
    -3
  6
Continuous
100
AcDbLine
 10
-94.150646
 20
143.360226
 30
0.0
 11
-83.089417
 21
143.360226
 31
0.0
  0
ARC
  5
30E
100
AcDbEntity
  8
0
370
    -3
  6
Continuous
100
AcDbCircle
 10
-94.150646
 20
141.243054
 30
0.0
 40
3.0
100
AcDbArc
 50
180.0
 51
270.0
  0
ARC
  5
30F
100
AcDbEntity
  8
0
370
    -3
  6
Continuous
100
AcDbCircle
 10
-94.150646
 20
141.243054
 30
0.0
 40
3.0
100
AcDbArc
 50
180.0
 51
270.0
  0
LINE
  5
310
100
AcDbEntity
  8
0
370
    -3
  6
Continuous
100
AcDbLine
 10
-94.150646
 20
143.360226
 30
0.0
 11
-83.089417
 21
143.360226
 31
0.0
  0
ARC
  5
311
100
AcDbEntity
  8
0
370
    -3
  6
Continuous
100
AcDbCircle
 10
-94.150646
 20
146.360226
 30
0.0
 40
3.0
100
AcDbArc
 50
180.0
 51
270.0
  0
ARC
  5
312
100
AcDbEntity
  8
0
370
    -3
  6
Continuous
100
AcDbCircle
 10
-85.650646
 20
135.0
 30
0.0
 40
5.0
100
AcDbArc
 50
270.0
 51
0.0
  0
LINE
  5
313
100
AcDbEntity
  8
0
370
    -3
  6
Continuous
100
AcDbLine
 10
-94.150646
 20
138.243054
 30
0.0
 11
-85.650646
 21
138.243054
 31
0.0
  0
ARC
  5
314
100
AcDbEntity
  8
0
370
    -3
  6
Continuous
100
AcDbCircle
 10
-85.650646
 20
143.243054
 30
0.0
 40
5.0
100
AcDbArc
 50
270.0
 51
0.0
  0
LINE
  5
315
100
AcDbEntity
  8
0
370
    -3
  6
Continuous
100
AcDbLine
 10
-94.150646
 20
130.0
 30
0.0
 11
-85.650646
 21
130.0
 31
0.0
  0
ARC
  5
316
100
AcDbEntity
  8
0
370
    -3
  6
Continuous
100
AcDbCircle
 10
-94.150646
 20
127.0
 30
0.0
 40
3.0
100
AcDbArc
 50
90.0
 51
180.0
  0
ARC
  5
317
100
AcDbEntity
  8
0
370
    -3
  6
Continuous
100
AcDbCircle
 10
-94.150646
 20
127.0
 30
0.0
 40
3.0
100
AcDbArc
 50
90.0
 51
180.0
  0
LINE
  5
318
100
AcDbEntity
  8
0
370
    -3
  6
Continuous
100
AcDbLine
 10
-94.150646
 20
130.0
 30
0.0
 11
-85.650646
 21
130.0
 31
0.0
  0
LINE
  5
319
100
AcDbEntity
  8
0
370
    -3
  6
Continuous
100
AcDbLine
 10
-94.150646
 20
240.0
 30
0.0
 11
-85.650646
 21
240.0
 31
0.0
  0
ARC
  5
31A
100
AcDbEntity
  8
0
370
    -3
  6
Continuous
100
AcDbCircle
 10
-94.150646
 20
243.0
 30
0.0
 40
3.0
100
AcDbArc
 50
180.0
 51
270.0
  0
LINE
  5
31B
100
AcDbEntity
  8
0
370
    -3
  6
Continuous
100
AcDbLine
 10
-97.150646
 20
185.0
 30
0.0
 11
-97.150646
 21
254.5
 31
0.0
  0
LINE
  5
31C
100
AcDbEntity
  8
0
370
    -3
  6
Continuous
100
AcDbLine
 10
-97.150646
 20
185.0
 30
0.0
 11
-97.150646
 21
254.5
 31
0.0
  0
ARC
  5
31D
100
AcDbEntity
  8
0
370
    -3
  6
Continuous
100
AcDbCircle
 10
-94.150646
 20
243.0
 30
0.0
 40
3.0
100
AcDbArc
 50
180.0
 51
270.0
  0
LINE
  5
31E
100
AcDbEntity
  8
0
370
    -3
  6
Continuous
100
AcDbLine
 10
-94.150646
 20
240.0
 30
0.0
 11
-85.650646
 21
240.0
 31
0.0
  0
LINE
  5
31F
100
AcDbEntity
  8
0
370
    -3
  6
Continuous
100
AcDbLine
 10
-94.150646
 20
231.756946
 30
0.0
 11
-85.650646
 21
231.756946
 31
0.0
  0
ARC
  5
320
100
AcDbEntity
  8
0
370
    -3
  6
Continuous
100
AcDbCircle
 10
-94.150646
 20
223.639774
 30
0.0
 40
3.0
100
AcDbArc
 50
90.0
 51
180.0
  0
LINE
  5
321
100
AcDbEntity
  8
0
370
    -3
  6
Continuous
100
AcDbLine
 10
-94.150646
 20
226.639774
 30
0.0
 11
-83.089417
 21
226.639774
 31
0.0
  0
ARC
  5
322
100
AcDbEntity
  8
0
370
    -3
  6
Continuous
100
AcDbCircle
 10
-94.150646
 20
228.756946
 30
0.0
 40
3.0
100
AcDbArc
 50
90.0
 51
180.0
  0
ARC
  5
323
100
AcDbEntity
  8
0
370
    -3
  6
Continuous
100
AcDbCircle
 10
-94.150646
 20
228.756946
 30
0.0
 40
3.0
100
AcDbArc
 50
90.0
 51
180.0
  0
LINE
  5
324
100
AcDbEntity
  8
0
370
    -3
  6
Continuous
100
AcDbLine
 10
-94.150646
 20
226.639774
 30
0.0
 11
-83.089417
 21
226.639774
 31
0.0
  0
ARC
  5
325
100
AcDbEntity
  8
0
370
    -3
  6
Continuous
100
AcDbCircle
 10
-94.150646
 20
223.639774
 30
0.0
 40
3.0
100
AcDbArc
 50
90.0
 51
180.0
  0
LINE
  5
326
100
AcDbEntity
  8
0
370
    -3
  6
Continuous
100
AcDbLine
 10
-94.150646
 20
231.756946
 30
0.0
 11
-85.650646
 21
231.756946
 31
0.0
  0
LINE
  5
327
100
AcDbEntity
  8
0
370
    -3
  6
Continuous
100
AcDbLine
 10
35.150323
 20
237.998846
 30
0.0
 11
77.449513
 21
237.998846
 31
0.0
  0
LINE
  5
328
100
AcDbEntity
  8
0
370
    -3
  6
Continuous
100
AcDbLine
 10
35.548323
 20
237.998848
 30
0.0
 11
-6.750868
 21
237.99837
 31
0.0
  0
LINE
  5
329
100
AcDbEntity
  8
0
370
    -3
  6
Continuous
100
AcDbLine
 10
-6.750677
 20
237.998846
 30
0.0
 11
77.449323
 21
237.998846
 31
0.0
  0
LINE
  5
32A
100
AcDbEntity
  8
0
370
    -3
  6
Continuous
100
AcDbLine
 10
35.349323
 20
241.998846
 30
0.0
 11
13.349323
 21
241.998846
 31
0.0
  0
LINE
  5
32B
100
AcDbEntity
  8
0
370
    -3
  6
Continuous
100
AcDbLine
 10
13.349323
 20
241.998846
 30
0.0
 11
13.349323
 21
237.998846
 31
0.0
  0
LINE
  5
32C
100
AcDbEntity
  8
0
370
    -3
  6
Continuous
100
AcDbLine
 10
57.349323
 20
241.998846
 30
0.0
 11
57.349323
 21
237.998846
 31
0.0
  0
LINE
  5
32D
100
AcDbEntity
  8
0
370
    -3
  6
Continuous
100
AcDbLine
 10
35.349323
 20
241.998846
 30
0.0
 11
57.349323
 21
241.998846
 31
0.0
  0
LINE
  5
32E
100
AcDbEntity
  8
0
370
    -3
  6
Continuous
100
AcDbLine
 10
35.349323
 20
237.998846
 30
0.0
 11
-7.150677
 21
237.998846
 31
0.0
  0
LINE
  5
32F
100
AcDbEntity
  8
0
370
    -3
  6
Continuous
100
AcDbLine
 10
35.349323
 20
237.998846
 30
0.0
 11
77.849323
 21
237.998846
 31
0.0
  0
ARC
  5
330
100
AcDbEntity
  8
0
370
    -3
  6
Continuous
100
AcDbCircle
 10
58.553507
 20
240.345055
 30
0.0
 40
3.0
100
AcDbArc
 50
308.549527
 51
315.0
  0
LINE
  5
331
100
AcDbEntity
  8
0
370
    -3
  6
Continuous
100
AcDbLine
 10
35.349323
 20
128.001154
 30
0.0
 11
13.349323
 21
128.001154
 31
0.0
  0
LINE
  5
332
100
AcDbEntity
  8
0
370
    -3
  6
Continuous
100
AcDbLine
 10
13.349323
 20
128.001154
 30
0.0
 11
13.349323
 21
132.001154
 31
0.0
  0
LINE
  5
333
100
AcDbEntity
  8
0
370
    -3
  6
Continuous
100
AcDbLine
 10
57.349323
 20
128.001154
 30
0.0
 11
57.349323
 21
132.001154
 31
0.0
  0
LINE
  5
334
100
AcDbEntity
  8
0
370
    -3
  6
Continuous
100
AcDbLine
 10
35.349323
 20
128.001154
 30
0.0
 11
57.349323
 21
128.001154
 31
0.0
  0
LINE
  5
335
100
AcDbEntity
  8
0
370
    -3
  6
Continuous
100
AcDbLine
 10
35.349323
 20
132.001154
 30
0.0
 11
-7.150677
 21
132.001154
 31
0.0
  0
LINE
  5
336
100
AcDbEntity
  8
0
370
    -3
  6
Continuous
100
AcDbLine
 10
35.349323
 20
132.001154
 30
0.0
 11
77.849323
 21
132.001154
 31
0.0
  0
ARC
  5
337
100
AcDbEntity
  8
0
370
    -3
  6
Continuous
100
AcDbCircle
 10
58.553507
 20
129.654945
 30
0.0
 40
3.0
100
AcDbArc
 50
45.0
 51
51.450473
  0
ARC
  5
338
100
AcDbEntity
  8
0
370
    -3
  6
Continuous
100
AcDbCircle
 10
35.349345
 20
151.5
 30
0.0
 40
1.5
100
AcDbArc
 50
179.999676
 51
359.999676
  0
LINE
  5
339
100
AcDbEntity
  8
0
370
    -3
  6
Continuous
100
AcDbLine
 10
33.849803
 20
232.000017
 30
0.0
 11
33.849348
 21
151.497098
 31
0.0
  0
LINE
  5
33A
100
AcDbEntity
  8
0
370
    -3
  6
Continuous
100
AcDbLine
 10
36.849803
 20
232.000017
 30
0.0
 11
36.849345
 21
150.999992
 31
0.0
  0
LINE
  5
33B
100
AcDbEntity
  8
0
370
    -3
  6
Continuous
100
AcDbLine
 10
33.849323
 20
233.998735
 30
0.0
 11
33.848868
 21
153.495815
 31
0.0
  0
LINE
  5
33C
100
AcDbEntity
  8
0
370
    -3
  6
Continuous
100
AcDbLine
 10
36.849323
 20
233.998735
 30
0.0
 11
36.848865
 21
152.998709
 31
0.0
  0
LINE
  5
33D
100
AcDbEntity
  8
0
370
    -3
  6
CENTER
100
AcDbLine
 10
110.486301
 20
185.0
 30
0.0
 11
-299.150529
 21
185.0
 31
0.0
  0
LINE
  5
33E
100
AcDbEntity
  8
0
370
    -3
  6
Continuous
100
AcDbLine
 10
91.327112
 20
136.001265
 30
0.0
 11
91.849276
 21
136.500234
 31
0.0
  0
LINE
  5
33F
100
AcDbEntity
  8
0
370
    -3
  6
Continuous
100
AcDbLine
 10
77.849323
 20
136.001265
 30
0.0
 11
91.327112
 21
136.001265
 31
0.0
  0
LINE
  5
340
100
AcDbEntity
  8
0
370
    -3
  6
Continuous
100
AcDbLine
 10
-76.628625
 20
136.001907
 30
0.0
 11
-77.15079
 21
136.50087
 31
0.0
  0
LINE
  5
341
100
AcDbEntity
  8
0
370
    -3
  6
Continuous
100
AcDbLine
 10
-7.150677
 20
136.002729
 30
0.0
 11
-22.960243
 21
136.00255
 31
0.0
  0
LINE
  5
342
100
AcDbEntity
  8
0
370
    -3
  6
Continuous
100
AcDbLine
 10
-77.15079
 20
136.50087
 30
0.0
 11
-77.628109
 21
147.001896
 31
0.0
  0
LINE
  5
343
100
AcDbEntity
  8
0
370
    -3
  6
Continuous
100
AcDbLine
 10
-68.895067
 20
147.001994
 30
0.0
 11
-77.628109
 21
147.001896
 31
0.0
  0
LINE
  5
344
100
AcDbEntity
  8
0
370
    -3
  6
Continuous
100
AcDbLine
 10
91.849276
 20
136.500234
 30
0.0
 11
92.326595
 21
147.001265
 31
0.0
  0
LINE
  5
345
100
AcDbEntity
  8
0
370
    -3
  6
Continuous
100
AcDbLine
 10
87.349323
 20
147.001265
 30
0.0
 11
92.326595
 21
147.001265
 31
0.0
  0
LINE
  5
346
100
AcDbEntity
  8
0
370
    -3
  6
Continuous
100
AcDbLine
 10
-6.750677
 20
132.001154
 30
0.0
 11
77.449323
 21
132.001154
 31
0.0
  0
LINE
  5
347
100
AcDbEntity
  8
0
370
    -3
  6
Continuous
100
AcDbLine
 10
-7.100677
 20
133.502729
 30
0.0
 11
-7.150677
 21
133.502729
 31
0.0
  0
LINE
  5
348
100
AcDbEntity
  8
0
370
    -3
  6
Continuous
100
AcDbLine
 10
-7.100677
 20
135.002729
 30
0.0
 11
-7.150677
 21
135.002729
 31
0.0
  0
LINE
  5
349
100
AcDbEntity
  8
0
370
    -3
  6
Continuous
100
AcDbLine
 10
-7.150677
 20
132.401154
 30
0.0
 11
-7.150677
 21
133.502729
 31
0.0
  0
LINE
  5
34A
100
AcDbEntity
  8
0
370
    -3
  6
Continuous
100
AcDbLine
 10
-7.150677
 20
135.002729
 30
0.0
 11
-7.150677
 21
136.002729
 31
0.0
  0
LINE
  5
34B
100
AcDbEntity
  8
0
370
    -3
  6
Continuous
100
AcDbLine
 10
77.799323
 20
133.502729
 30
0.0
 11
77.849323
 21
133.502729
 31
0.0
  0
LINE
  5
34C
100
AcDbEntity
  8
0
370
    -3
  6
Continuous
100
AcDbLine
 10
77.799323
 20
135.002729
 30
0.0
 11
77.849323
 21
135.002729
 31
0.0
  0
LINE
  5
34D
100
AcDbEntity
  8
0
370
    -3
  6
Continuous
100
AcDbLine
 10
77.849323
 20
132.401154
 30
0.0
 11
77.849323
 21
133.502729
 31
0.0
  0
LINE
  5
34E
100
AcDbEntity
  8
0
370
    -3
  6
Continuous
100
AcDbLine
 10
77.849323
 20
135.002729
 30
0.0
 11
77.849323
 21
136.002729
 31
0.0
  0
LINE
  5
34F
100
AcDbEntity
  8
0
370
    -3
  6
Continuous
100
AcDbLine
 10
77.849323
 20
135.002729
 30
0.0
 11
77.849323
 21
136.002729
 31
0.0
  0
LINE
  5
350
100
AcDbEntity
  8
0
370
    -3
  6
Continuous
100
AcDbLine
 10
77.799323
 20
135.002729
 30
0.0
 11
77.849323
 21
135.002729
 31
0.0
  0
LINE
  5
351
100
AcDbEntity
  8
0
370
    -3
  6
Continuous
100
AcDbLine
 10
77.799323
 20
133.502729
 30
0.0
 11
77.849323
 21
133.502729
 31
0.0
  0
LINE
  5
352
100
AcDbEntity
  8
0
370
    -3
  6
Continuous
100
AcDbLine
 10
77.699323
 20
134.90273
 30
0.0
 11
77.799323
 21
135.002729
 31
0.0
  0
LINE
  5
353
100
AcDbEntity
  8
0
370
    -3
  6
Continuous
100
AcDbLine
 10
77.699323
 20
133.60273
 30
0.0
 11
77.799323
 21
133.502729
 31
0.0
  0
LINE
  5
354
100
AcDbEntity
  8
0
370
    -3
  6
Continuous
100
AcDbLine
 10
-7.150677
 20
135.002729
 30
0.0
 11
-7.150677
 21
136.002729
 31
0.0
  0
LINE
  5
355
100
AcDbEntity
  8
0
370
    -3
  6
Continuous
100
AcDbLine
 10
-7.100677
 20
135.002729
 30
0.0
 11
-7.150677
 21
135.002729
 31
0.0
  0
LINE
  5
356
100
AcDbEntity
  8
0
370
    -3
  6
Continuous
100
AcDbLine
 10
-7.100677
 20
133.502729
 30
0.0
 11
-7.150677
 21
133.502729
 31
0.0
  0
LINE
  5
357
100
AcDbEntity
  8
0
370
    -3
  6
Continuous
100
AcDbLine
 10
-7.000677
 20
134.90273
 30
0.0
 11
-7.100677
 21
135.002729
 31
0.0
  0
LINE
  5
358
100
AcDbEntity
  8
0
370
    -3
  6
Continuous
100
AcDbLine
 10
-7.000677
 20
133.60273
 30
0.0
 11
-7.100677
 21
133.502729
 31
0.0
  0
LINE
  5
359
100
AcDbEntity
  8
0
370
    -3
  6
Continuous
100
AcDbLine
 10
87.349323
 20
147.001265
 30
0.0
 11
92.326595
 21
147.001265
 31
0.0
  0
LINE
  5
35A
100
AcDbEntity
  8
0
370
    -3
  6
Continuous
100
AcDbLine
 10
91.849276
 20
136.500234
 30
0.0
 11
92.326595
 21
147.001265
 31
0.0
  0
LINE
  5
35B
100
AcDbEntity
  8
0
370
    -3
  6
Continuous
100
AcDbLine
 10
-68.895067
 20
147.001994
 30
0.0
 11
-77.628109
 21
147.001896
 31
0.0
  0
LINE
  5
35C
100
AcDbEntity
  8
0
370
    -3
  6
Continuous
100
AcDbLine
 10
-77.15079
 20
136.50087
 30
0.0
 11
-77.628109
 21
147.001896
 31
0.0
  0
LINE
  5
35D
100
AcDbEntity
  8
0
370
    -3
  6
Continuous
100
AcDbLine
 10
-76.628625
 20
136.001907
 30
0.0
 11
-77.15079
 21
136.50087
 31
0.0
  0
LINE
  5
35E
100
AcDbEntity
  8
0
370
    -3
  6
Continuous
100
AcDbLine
 10
77.849323
 20
136.001265
 30
0.0
 11
91.327112
 21
136.001265
 31
0.0
  0
LINE
  5
35F
100
AcDbEntity
  8
0
370
    -3
  6
Continuous
100
AcDbLine
 10
91.327112
 20
136.001265
 30
0.0
 11
91.849276
 21
136.500234
 31
0.0
  0
LINE
  5
360
100
AcDbEntity
  8
0
370
    -3
  6
Continuous
100
AcDbLine
 10
-6.750677
 20
132.001154
 30
0.0
 11
-7.150677
 21
132.401154
 31
0.0
  0
LINE
  5
361
100
AcDbEntity
  8
0
370
    -3
  6
Continuous
100
AcDbLine
 10
77.849323
 20
132.401154
 30
0.0
 11
77.449323
 21
132.001154
 31
0.0
  0
LINE
  5
362
100
AcDbEntity
  8
0
370
    -3
  6
Continuous
100
AcDbLine
 10
-7.000677
 20
133.60273
 30
0.0
 11
-7.000677
 21
134.90273
 31
0.0
  0
LINE
  5
363
100
AcDbEntity
  8
0
370
    -3
  6
Continuous
100
AcDbLine
 10
77.699323
 20
133.60273
 30
0.0
 11
77.699323
 21
134.90273
 31
0.0
  0
LINE
  5
364
100
AcDbEntity
  8
0
370
    -3
  6
Continuous
100
AcDbLine
 10
-97.150646
 20
116.0
 30
0.0
 11
-97.150646
 21
254.0
 31
0.0
  0
LINE
  5
365
100
AcDbEntity
  8
0
370
    -3
  6
Continuous
100
AcDbLine
 10
-21.470247
 20
233.998093
 30
0.0
 11
-22.09911
 21
233.998086
 31
0.0
  0
LINE
  5
366
100
AcDbEntity
  8
0
370
    -3
  6
Continuous
100
AcDbLine
 10
-22.892641
 20
147.0
 30
0.0
 11
-78.650646
 21
147.0
 31
0.0
  0
LINE
  5
367
100
AcDbEntity
  8
0
370
    -3
  6
Continuous
100
AcDbLine
 10
-7.150863
 20
132.401635
 30
0.0
 11
-7.150851
 21
133.501746
 31
0.0
  0
LINE
  5
368
100
AcDbEntity
  8
0
370
    -3
  6
Continuous
100
AcDbLine
 10
-7.00085
 20
133.601744
 30
0.0
 11
-7.100851
 21
133.501745
 31
0.0
  0
LINE
  5
369
100
AcDbEntity
  8
0
370
    -3
  6
Continuous
100
AcDbLine
 10
-7.100851
 20
133.501745
 30
0.0
 11
-7.150851
 21
133.501746
 31
0.0
  0
LINE
  5
36A
100
AcDbEntity
  8
0
370
    -3
  6
Continuous
100
AcDbLine
 10
77.449513
 20
132.001154
 30
0.0
 11
77.849508
 21
132.401154
 31
0.0
  0
LINE
  5
36B
100
AcDbEntity
  8
0
370
    -3
  6
Continuous
100
AcDbLine
 10
35.150323
 20
132.001154
 30
0.0
 11
77.449513
 21
132.001154
 31
0.0
  0
LINE
  5
36C
100
AcDbEntity
  8
0
370
    -3
  6
Continuous
100
AcDbLine
 10
77.849508
 20
132.401154
 30
0.0
 11
77.849493
 21
133.751746
 31
0.0
  0
LINE
  5
36D
100
AcDbEntity
  8
0
370
    -3
  6
Continuous
100
AcDbLine
 10
-7.150863
 20
132.401635
 30
0.0
 11
-6.750868
 21
132.00163
 31
0.0
  0
LINE
  5
36E
100
AcDbEntity
  8
0
370
    -3
  6
Continuous
100
AcDbLine
 10
35.548323
 20
132.001152
 30
0.0
 11
-6.750868
 21
132.00163
 31
0.0
  0
LINE
  5
36F
100
AcDbEntity
  8
0
370
    -3
  6
Continuous
100
AcDbLine
 10
77.799493
 20
133.751745
 30
0.0
 11
77.849493
 21
133.751746
 31
0.0
  0
LINE
  5
370
100
AcDbEntity
  8
0
370
    -3
  6
Continuous
100
AcDbLine
 10
77.849479
 20
135.001746
 30
0.0
 11
77.849468
 21
136.001746
 31
0.0
  0
LINE
  5
371
100
AcDbEntity
  8
0
370
    -3
  6
Continuous
100
AcDbLine
 10
77.799479
 20
135.001745
 30
0.0
 11
77.849479
 21
135.001746
 31
0.0
  0
LINE
  5
372
100
AcDbEntity
  8
0
370
    -3
  6
Continuous
100
AcDbLine
 10
77.799493
 20
133.751745
 30
0.0
 11
77.699492
 21
133.851744
 31
0.0
  0
LINE
  5
373
100
AcDbEntity
  8
0
370
    -3
  6
Continuous
100
AcDbLine
 10
77.799479
 20
135.001745
 30
0.0
 11
77.69948
 21
134.901744
 31
0.0
  0
LINE
  5
374
100
AcDbEntity
  8
0
370
    -3
  6
Continuous
100
AcDbLine
 10
-7.150834
 20
135.001746
 30
0.0
 11
-7.150822
 21
136.001746
 31
0.0
  0
LINE
  5
375
100
AcDbEntity
  8
0
370
    -3
  6
Continuous
100
AcDbLine
 10
-7.100834
 20
135.001745
 30
0.0
 11
-7.150834
 21
135.001746
 31
0.0
  0
LINE
  5
376
100
AcDbEntity
  8
0
370
    -3
  6
Continuous
100
AcDbLine
 10
-7.100834
 20
135.001745
 30
0.0
 11
-7.000835
 21
134.901744
 31
0.0
  0
LINE
  5
377
100
AcDbEntity
  8
0
370
    -3
  6
Continuous
100
AcDbLine
 10
77.849513
 20
136.001265
 30
0.0
 11
90.349609
 21
136.001265
 31
0.0
  0
LINE
  5
378
100
AcDbEntity
  8
0
370
    -3
  6
Continuous
100
AcDbLine
 10
77.699492
 20
133.851744
 30
0.0
 11
77.69948
 21
134.901744
 31
0.0
  0
LINE
  5
379
100
AcDbEntity
  8
0
370
    -3
  6
Continuous
100
AcDbLine
 10
-7.00085
 20
133.601744
 30
0.0
 11
-7.000835
 21
134.901744
 31
0.0
  0
LINE
  5
37A
100
AcDbEntity
  8
0
370
    -3
  6
Continuous
100
AcDbLine
 10
90.849524
 20
136.000638
 30
0.0
 11
-40.024878
 21
136.002117
 31
0.0
  0
ARC
  5
37B
100
AcDbEntity
  8
0
370
    -3
  6
Continuous
100
AcDbCircle
 10
-94.150646
 20
254.0
 30
0.0
 40
3.0
100
AcDbArc
 50
180.0
 51
270.0
  0
ARC
  5
37C
100
AcDbEntity
  8
0
370
    -3
  6
Continuous
100
AcDbCircle
 10
-99.150646
 20
254.5
 30
0.0
 40
2.0
100
AcDbArc
 50
0.0
 51
90.0
  0
LINE
  5
37D
100
AcDbEntity
  8
0
370
    -3
  6
Continuous
100
AcDbLine
 10
-97.150646
 20
254.0
 30
0.0
 11
-97.150646
 21
254.5
 31
0.0
  0
LINE
  5
37E
100
AcDbEntity
  8
0
370
    -3
  6
Continuous
100
AcDbLine
 10
-7.150863
 20
237.598365
 30
0.0
 11
-7.150851
 21
236.498254
 31
0.0
  0
LINE
  5
37F
100
AcDbEntity
  8
0
370
    -3
  6
Continuous
100
AcDbLine
 10
-7.00085
 20
236.398256
 30
0.0
 11
-7.100851
 21
236.498255
 31
0.0
  0
LINE
  5
380
100
AcDbEntity
  8
0
370
    -3
  6
Continuous
100
AcDbLine
 10
-7.100851
 20
236.498255
 30
0.0
 11
-7.150851
 21
236.498254
 31
0.0
  0
LINE
  5
381
100
AcDbEntity
  8
0
370
    -3
  6
CENTER
100
AcDbLine
 10
35.349323
 20
247.700272
 30
0.0
 11
35.349323
 21
124.477839
 31
0.0
  0
LINE
  5
382
100
AcDbEntity
  8
0
370
    -3
  6
Continuous
100
AcDbLine
 10
77.449513
 20
237.998846
 30
0.0
 11
77.849508
 21
237.598846
 31
0.0
  0
LINE
  5
383
100
AcDbEntity
  8
0
370
    -3
  6
Continuous
100
AcDbLine
 10
35.150323
 20
237.998846
 30
0.0
 11
77.449513
 21
237.998846
 31
0.0
  0
LINE
  5
384
100
AcDbEntity
  8
0
370
    -3
  6
Continuous
100
AcDbLine
 10
77.849508
 20
237.598846
 30
0.0
 11
77.849493
 21
236.248254
 31
0.0
  0
LINE
  5
385
100
AcDbEntity
  8
0
370
    -3
  6
Continuous
100
AcDbLine
 10
-7.150863
 20
237.598365
 30
0.0
 11
-6.750868
 21
237.99837
 31
0.0
  0
LINE
  5
386
100
AcDbEntity
  8
0
370
    -3
  6
Continuous
100
AcDbLine
 10
35.548323
 20
237.998848
 30
0.0
 11
-6.750868
 21
237.99837
 31
0.0
  0
LINE
  5
387
100
AcDbEntity
  8
0
370
    -3
  6
Continuous
100
AcDbLine
 10
77.799493
 20
236.248255
 30
0.0
 11
77.849493
 21
236.248254
 31
0.0
  0
LINE
  5
388
100
AcDbEntity
  8
0
370
    -3
  6
Continuous
100
AcDbLine
 10
77.849479
 20
234.998254
 30
0.0
 11
77.849468
 21
233.998254
 31
0.0
  0
LINE
  5
389
100
AcDbEntity
  8
0
370
    -3
  6
Continuous
100
AcDbLine
 10
77.799479
 20
234.998255
 30
0.0
 11
77.849479
 21
234.998254
 31
0.0
  0
LINE
  5
38A
100
AcDbEntity
  8
0
370
    -3
  6
Continuous
100
AcDbLine
 10
77.799493
 20
236.248255
 30
0.0
 11
77.699492
 21
236.148256
 31
0.0
  0
LINE
  5
38B
100
AcDbEntity
  8
0
370
    -3
  6
Continuous
100
AcDbLine
 10
77.799479
 20
234.998255
 30
0.0
 11
77.69948
 21
235.098256
 31
0.0
  0
LINE
  5
38C
100
AcDbEntity
  8
0
370
    -3
  6
Continuous
100
AcDbLine
 10
-7.150834
 20
234.998254
 30
0.0
 11
-7.150822
 21
233.998254
 31
0.0
  0
LINE
  5
38D
100
AcDbEntity
  8
0
370
    -3
  6
Continuous
100
AcDbLine
 10
-7.100834
 20
234.998255
 30
0.0
 11
-7.150834
 21
234.998254
 31
0.0
  0
LINE
  5
38E
100
AcDbEntity
  8
0
370
    -3
  6
Continuous
100
AcDbLine
 10
-7.100834
 20
234.998255
 30
0.0
 11
-7.000835
 21
235.098256
 31
0.0
  0
LINE
  5
38F
100
AcDbEntity
  8
0
370
    -3
  6
Continuous
100
AcDbLine
 10
88.349323
 20
147.0
 30
0.0
 11
-22.960241
 21
147.0
 31
0.0
  0
LINE
  5
390
100
AcDbEntity
  8
0
370
    -3
  6
Continuous
100
AcDbLine
 10
92.358134
 20
147.0
 30
0.0
 11
88.349323
 21
147.0
 31
0.0
  0
LINE
  5
391
100
AcDbEntity
  8
0
370
    -3
  6
Continuous
100
AcDbLine
 10
-73.663739
 20
147.0
 30
0.0
 11
-78.650646
 21
147.0
 31
0.0
  0
LINE
  5
392
100
AcDbEntity
  8
0
370
    -3
  6
Continuous
100
AcDbLine
 10
-78.650646
 20
147.0
 30
0.0
 11
-78.650646
 21
146.5
 31
0.0
  0
ARC
  5
393
100
AcDbEntity
  8
0
370
    -3
  6
Continuous
100
AcDbCircle
 10
-78.650646
 20
144.5
 30
0.0
 40
2.0
100
AcDbArc
 50
90.0
 51
180.0
  0
LINE
  5
394
100
AcDbEntity
  8
0
370
    -3
  6
Continuous
100
AcDbLine
 10
90.349609
 20
233.998735
 30
0.0
 11
90.858153
 21
233.498883
 31
0.0
  0
LINE
  5
395
100
AcDbEntity
  8
0
370
    -3
  6
Continuous
100
AcDbLine
 10
77.849513
 20
233.998735
 30
0.0
 11
90.349609
 21
233.998735
 31
0.0
  0
LINE
  5
396
100
AcDbEntity
  8
0
370
    -3
  6
Continuous
100
AcDbLine
 10
-75.650765
 20
233.997444
 30
0.0
 11
-77.099295
 21
232.573657
 31
0.0
  0
LINE
  5
397
100
AcDbEntity
  8
0
370
    -3
  6
Continuous
100
AcDbLine
 10
90.849524
 20
233.999362
 30
0.0
 11
-38.023246
 21
233.997906
 31
0.0
  0
LINE
  5
398
100
AcDbEntity
  8
0
370
    -3
  6
Continuous
100
AcDbLine
 10
92.349513
 20
147.0
 30
0.0
 11
90.858153
 21
233.498883
 31
0.0
  0
LINE
  5
399
100
AcDbEntity
  8
0
370
    -3
  6
Continuous
100
AcDbLine
 10
-99.150646
 20
113.5
 30
0.0
 11
-103.650646
 21
113.5
 31
0.0
  0
ARC
  5
39A
100
AcDbEntity
  8
0
370
    -3
  6
Continuous
100
AcDbCircle
 10
-78.501274
 20
234.0
 30
0.0
 40
2.0
100
AcDbArc
 50
270.0
 51
314.506443
  0
LINE
  5
39B
100
AcDbEntity
  8
0
370
    -3
  6
Continuous
100
AcDbLine
 10
-78.501274
 20
232.0
 30
0.0
 11
-78.650646
 21
232.0
 31
0.0
  0
LINE
  5
39C
100
AcDbEntity
  8
0
370
    -3
  6
Continuous
100
AcDbLine
 10
-80.650646
 20
246.0
 30
0.0
 11
-80.650646
 21
124.0
 31
0.0
  0
ARC
  5
39D
100
AcDbEntity
  8
0
370
    -3
  6
Continuous
100
AcDbCircle
 10
-85.650646
 20
246.0
 30
0.0
 40
5.0
100
AcDbArc
 50
0.0
 51
90.0
  0
ARC
  5
39E
100
AcDbEntity
  8
0
370
    -3
  6
Continuous
100
AcDbCircle
 10
-94.150646
 20
254.0
 30
0.0
 40
3.0
100
AcDbArc
 50
180.0
 51
270.0
  0
ARC
  5
39F
100
AcDbEntity
  8
0
370
    -3
  6
Continuous
100
AcDbCircle
 10
-99.150646
 20
254.5
 30
0.0
 40
2.0
100
AcDbArc
 50
0.0
 51
90.0
  0
LINE
  5
3A0
100
AcDbEntity
  8
0
370
    -3
  6
Continuous
100
AcDbLine
 10
-97.150646
 20
254.0
 30
0.0
 11
-97.150646
 21
254.5
 31
0.0
  0
LINE
  5
3A1
100
AcDbEntity
  8
0
370
    -3
  6
Continuous
100
AcDbLine
 10
-94.150646
 20
251.0
 30
0.0
 11
-85.650646
 21
251.0
 31
0.0
  0
LINE
  5
3A2
100
AcDbEntity
  8
0
370
    -3
  6
Continuous
100
AcDbLine
 10
-80.650646
 20
234.0
 30
0.0
 11
-80.650646
 21
246.0
 31
0.0
  0
ARC
  5
3A3
100
AcDbEntity
  8
0
370
    -3
  6
Continuous
100
AcDbCircle
 10
-85.650646
 20
124.0
 30
0.0
 40
5.0
100
AcDbArc
 50
270.0
 51
0.0
  0
ARC
  5
3A4
100
AcDbEntity
  8
0
370
    -3
  6
Continuous
100
AcDbCircle
 10
-94.150646
 20
116.0
 30
0.0
 40
3.0
100
AcDbArc
 50
90.0
 51
180.0
  0
LINE
  5
3A5
100
AcDbEntity
  8
0
370
    -3
  6
Continuous
100
AcDbLine
 10
-94.150646
 20
119.0
 30
0.0
 11
-85.650646
 21
119.0
 31
0.0
  0
ARC
  5
3A6
100
AcDbEntity
  8
0
370
    -3
  6
Continuous
100
AcDbCircle
 10
-78.650646
 20
234.0
 30
0.0
 40
2.0
100
AcDbArc
 50
180.0
 51
270.0
  0
ARC
  5
3A7
100
AcDbEntity
  8
0
370
    -3
  6
Continuous
100
AcDbCircle
 10
-99.150646
 20
115.5
 30
0.0
 40
2.0
100
AcDbArc
 50
270.0
 51
0.0
  0
LINE
  5
3A8
100
AcDbEntity
  8
0
370
    -3
  6
Continuous
100
AcDbLine
 10
-97.150646
 20
116.0
 30
0.0
 11
-97.150646
 21
115.5
 31
0.0
  0
LINE
  5
3A9
100
AcDbEntity
  8
0
370
    -3
  6
Continuous
100
AcDbLine
 10
77.699492
 20
236.148256
 30
0.0
 11
77.69948
 21
235.098256
 31
0.0
  0
LINE
  5
3AA
100
AcDbEntity
  8
0
370
    -3
  6
Continuous
100
AcDbLine
 10
-7.00085
 20
236.398256
 30
0.0
 11
-7.000835
 21
235.098256
 31
0.0
  0
LINE
  5
3AB
100
AcDbEntity
  8
0
370
    -3
  6
Continuous
100
AcDbLine
 10
-103.650646
 20
256.5
 30
0.0
 11
-103.650646
 21
113.5
 31
0.0
  0
LINE
  5
3AC
100
AcDbEntity
  8
0
370
    -3
  6
Continuous
100
AcDbLine
 10
-103.650646
 20
144.400206
 30
0.0
 11
-223.650646
 21
144.400206
 31
0.0
  0
LINE
  5
3AD
100
AcDbEntity
  8
0
370
    -3
  6
Continuous
100
AcDbLine
 10
-103.650646
 20
145.599794
 30
0.0
 11
-223.650646
 21
145.599794
 31
0.0
  0
LINE
  5
3AE
100
AcDbEntity
  8
0
370
    -3
  6
Continuous
100
AcDbLine
 10
-223.650646
 20
152.400206
 30
0.0
 11
-103.650646
 21
152.400206
 31
0.0
  0
LINE
  5
3AF
100
AcDbEntity
  8
0
370
    -3
  6
Continuous
100
AcDbLine
 10
-223.650646
 20
153.599794
 30
0.0
 11
-103.650646
 21
153.599794
 31
0.0
  0
LINE
  5
3B0
100
AcDbEntity
  8
0
370
    -3
  6
Continuous
100
AcDbLine
 10
-223.650646
 20
161.0
 30
0.0
 11
-103.650646
 21
161.0
 31
0.0
  0
LINE
  5
3B1
100
AcDbEntity
  8
0
370
    -3
  6
Continuous
100
AcDbLine
 10
-223.650646
 20
209.0
 30
0.0
 11
-103.650646
 21
209.0
 31
0.0
  0
LINE
  5
3B2
100
AcDbEntity
  8
0
370
    -3
  6
Continuous
100
AcDbLine
 10
-223.650646
 20
216.400206
 30
0.0
 11
-103.650646
 21
216.400206
 31
0.0
  0
LINE
  5
3B3
100
AcDbEntity
  8
0
370
    -3
  6
Continuous
100
AcDbLine
 10
-223.650646
 20
217.599794
 30
0.0
 11
-103.650646
 21
217.599794
 31
0.0
  0
LINE
  5
3B4
100
AcDbEntity
  8
0
370
    -3
  6
Continuous
100
AcDbLine
 10
-103.650646
 20
225.599794
 30
0.0
 11
-223.650646
 21
225.599794
 31
0.0
  0
LINE
  5
3B5
100
AcDbEntity
  8
0
370
    -3
  6
Continuous
100
AcDbLine
 10
-223.650646
 20
129.148379
 30
0.0
 11
-103.650646
 21
129.148379
 31
0.0
  0
LINE
  5
3B6
100
AcDbEntity
  8
0
370
    -3
  6
Continuous
100
AcDbLine
 10
-223.650646
 20
136.078025
 30
0.0
 11
-103.650646
 21
136.078025
 31
0.0
  0
LINE
  5
3B7
100
AcDbEntity
  8
0
370
    -3
  6
Continuous
100
AcDbLine
 10
-223.650646
 20
233.921975
 30
0.0
 11
-103.650646
 21
233.921975
 31
0.0
  0
LINE
  5
3B8
100
AcDbEntity
  8
0
370
    -3
  6
Continuous
100
AcDbLine
 10
-223.650646
 20
240.851621
 30
0.0
 11
-103.650646
 21
240.851621
 31
0.0
  0
LINE
  5
3B9
100
AcDbEntity
  8
0
370
    -3
  6
Continuous
100
AcDbLine
 10
-223.650646
 20
247.0
 30
0.0
 11
-103.650646
 21
247.0
 31
0.0
  0
LINE
  5
3BA
100
AcDbEntity
  8
0
370
    -3
  6
Continuous
100
AcDbLine
 10
-223.650646
 20
123.0
 30
0.0
 11
-103.650646
 21
123.0
 31
0.0
  0
LINE
  5
3BB
100
AcDbEntity
  8
0
370
    -3
  6
Continuous
100
AcDbLine
 10
-223.650646
 20
113.5
 30
0.0
 11
-103.650646
 21
113.5
 31
0.0
  0
LINE
  5
3BC
100
AcDbEntity
  8
0
370
    -3
  6
Continuous
100
AcDbLine
 10
-223.650646
 20
115.5
 30
0.0
 11
-103.650646
 21
115.5
 31
0.0
  0
LINE
  5
3BD
100
AcDbEntity
  8
0
370
    -3
  6
Continuous
100
AcDbLine
 10
-223.650646
 20
114.0
 30
0.0
 11
-103.650646
 21
114.0
 31
0.0
  0
LINE
  5
3BE
100
AcDbEntity
  8
0
370
    -3
  6
Continuous
100
AcDbLine
 10
-223.650646
 20
118.5
 30
0.0
 11
-103.650646
 21
118.5
 31
0.0
  0
LINE
  5
3BF
100
AcDbEntity
  8
0
370
    -3
  6
Continuous
100
AcDbLine
 10
-223.650646
 20
259.8
 30
0.0
 11
-223.650646
 21
110.2
 31
0.0
  0
ELLIPSE
  5
3C0
100
AcDbEntity
  8
0
370
    -3
  6
Continuous
100
AcDbEllipse
 10
-240.650646
 20
127.975269
 30
0.0
 11
5.0
 21
0.0
 31
0.0
210
0.0
220
0.0
230
1.0
 40
0.707107
 41
0.0
 42
3.1415926535897931
  0
LINE
  5
3C1
100
AcDbEntity
  8
0
370
    -3
  6
Continuous
100
AcDbLine
 10
-245.650646
 20
127.158665
 30
0.0
 11
-245.650646
 21
127.975269
 31
0.0
  0
LINE
  5
3C2
100
AcDbEntity
  8
0
370
    -3
  6
Continuous
100
AcDbLine
 10
-235.650646
 20
127.158665
 30
0.0
 11
-235.650646
 21
127.975269
 31
0.0
  0
ELLIPSE
  5
3C3
100
AcDbEntity
  8
0
370
    -3
  6
Continuous
100
AcDbEllipse
 10
-240.650646
 20
127.158665
 30
0.0
 11
4.5
 21
0.0
 31
0.0
210
0.0
220
0.0
230
1.0
 40
0.707107
 41
0.0
 42
3.1415926535897931
  0
LINE
  5
3C4
100
AcDbEntity
  8
0
370
    -3
  6
Continuous
100
AcDbLine
 10
-245.150646
 20
126.59298
 30
0.0
 11
-245.150646
 21
127.158665
 31
0.0
  0
LINE
  5
3C5
100
AcDbEntity
  8
0
370
    -3
  6
Continuous
100
AcDbLine
 10
-236.150646
 20
126.59298
 30
0.0
 11
-236.150646
 21
127.158665
 31
0.0
  0
ELLIPSE
  5
3C6
100
AcDbEntity
  8
0
370
    -3
  6
Continuous
100
AcDbEllipse
 10
-240.650646
 20
127.158665
 30
0.0
 11
5.0
 21
0.0
 31
0.0
210
0.0
220
0.0
230
1.0
 40
0.707107
 41
5.5439134802390884
 42
0.0
  0
ELLIPSE
  5
3C7
100
AcDbEntity
  8
0
370
    -3
  6
Continuous
100
AcDbEllipse
 10
-240.650646
 20
127.158665
 30
0.0
 11
5.0
 21
0.0
 31
0.0
210
0.0
220
0.0
230
1.0
 40
0.707107
 41
3.1415926535897931
 42
3.8808644805305361
  0
ELLIPSE
  5
3C8
100
AcDbEntity
  8
0
370
    -3
  6
Continuous
100
AcDbEllipse
 10
-240.650646
 20
126.056462
 30
0.0
 11
3.5
 21
0.0
 31
0.0
210
0.0
220
0.0
230
1.0
 40
0.860398
 41
0.0
 42
6.2831853071795862
  0
ELLIPSE
  5
3C9
100
AcDbEntity
  8
0
370
    -3
  6
Continuous
100
AcDbEllipse
 10
-240.650646
 20
126.59298
 30
0.0
 11
4.5
 21
0.0
 31
0.0
210
0.0
220
0.0
230
1.0
 40
0.707107
 41
5.3002993159361305
 42
4.1244786448335855
  0
LINE
  5
3CA
100
AcDbEntity
  8
0
370
    -3
  6
Continuous
100
AcDbLine
 10
-240.650646
 20
124.754502
 30
0.0
 11
-238.650646
 21
126.32784
 31
0.0
  0
LINE
  5
3CB
100
AcDbEntity
  8
0
370
    -3
  6
Continuous
100
AcDbLine
 10
-240.650646
 20
124.754502
 30
0.0
 11
-238.721442
 21
123.54384
 31
0.0
  0
LINE
  5
3CC
100
AcDbEntity
  8
0
370
    -3
  6
Continuous
100
AcDbLine
 10
-240.650646
 20
124.754502
 30
0.0
 11
-242.650646
 21
126.32784
 31
0.0
  0
LINE
  5
3CD
100
AcDbEntity
  8
0
370
    -3
  6
Continuous
100
AcDbLine
 10
-240.650646
 20
124.754502
 30
0.0
 11
-242.579851
 21
123.54384
 31
0.0
  0
LINE
  5
3CE
100
AcDbEntity
  8
0
370
    -3
  6
Continuous
100
AcDbLine
 10
-223.650646
 20
254.5
 30
0.0
 11
-103.650646
 21
254.5
 31
0.0
  0
LINE
  5
3CF
100
AcDbEntity
  8
0
370
    -3
  6
Continuous
100
AcDbLine
 10
-223.650646
 20
251.5
 30
0.0
 11
-103.650646
 21
251.5
 31
0.0
  0
LINE
  5
3D0
100
AcDbEntity
  8
0
370
    -3
  6
Continuous
100
AcDbLine
 10
-285.750646
 20
247.040559
 30
0.0
 11
-270.797811
 21
255.673582
 31
0.0
  0
LINE
  5
3D1
100
AcDbEntity
  8
0
370
    -3
  6
Continuous
100
AcDbLine
 10
-287.650646
 20
185.0
 30
0.0
 11
-287.650646
 21
243.749663
 31
0.0
  0
ARC
  5
3D2
100
AcDbEntity
  8
0
370
    -3
  6
Continuous
100
AcDbCircle
 10
-283.850646
 20
243.749663
 30
0.0
 40
3.8
100
AcDbArc
 50
120.0
 51
180.0
  0
LINE
  5
3D3
100
AcDbEntity
  8
0
370
    -3
  6
Continuous
100
AcDbLine
 10
-240.650646
 20
245.245498
 30
0.0
 11
-242.579851
 21
246.45616
 31
0.0
  0
LINE
  5
3D4
100
AcDbEntity
  8
0
370
    -3
  6
Continuous
100
AcDbLine
 10
-240.650646
 20
245.245498
 30
0.0
 11
-242.650646
 21
243.67216
 31
0.0
  0
LINE
  5
3D5
100
AcDbEntity
  8
0
370
    -3
  6
Continuous
100
AcDbLine
 10
-240.650646
 20
245.245498
 30
0.0
 11
-238.721442
 21
246.45616
 31
0.0
  0
LINE
  5
3D6
100
AcDbEntity
  8
0
370
    -3
  6
Continuous
100
AcDbLine
 10
-240.650646
 20
245.245498
 30
0.0
 11
-238.650646
 21
243.67216
 31
0.0
  0
ELLIPSE
  5
3D7
100
AcDbEntity
  8
0
370
    -3
  6
Continuous
100
AcDbEllipse
 10
-240.650646
 20
243.40702
 30
0.0
 11
4.5
 21
0.0
 31
0.0
210
0.0
220
0.0
230
1.0
 40
0.707107
 41
2.1587066623460007
 42
0.9828859912434559
  0
ELLIPSE
  5
3D8
100
AcDbEntity
  8
0
370
    -3
  6
Continuous
100
AcDbEllipse
 10
-240.650646
 20
243.943538
 30
0.0
 11
3.5
 21
0.0
 31
0.0
210
0.0
220
0.0
230
1.0
 40
0.860398
 41
0.0
 42
6.2831853071795862
  0
ELLIPSE
  5
3D9
100
AcDbEntity
  8
0
370
    -3
  6
Continuous
100
AcDbEllipse
 10
-240.650646
 20
242.841335
 30
0.0
 11
5.0
 21
0.0
 31
0.0
210
0.0
220
0.0
230
1.0
 40
0.707107
 41
2.4023208266490501
 42
3.1415926535897931
  0
ELLIPSE
  5
3DA
100
AcDbEntity
  8
0
370
    -3
  6
Continuous
100
AcDbEllipse
 10
-240.650646
 20
242.841335
 30
0.0
 11
5.0
 21
0.0
 31
0.0
210
0.0
220
0.0
230
1.0
 40
0.707107
 41
0.0
 42
0.7392718269404981
  0
LINE
  5
3DB
100
AcDbEntity
  8
0
370
    -3
  6
Continuous
100
AcDbLine
 10
-236.150646
 20
243.40702
 30
0.0
 11
-236.150646
 21
242.841335
 31
0.0
  0
LINE
  5
3DC
100
AcDbEntity
  8
0
370
    -3
  6
Continuous
100
AcDbLine
 10
-245.150646
 20
243.40702
 30
0.0
 11
-245.150646
 21
242.841335
 31
0.0
  0
ELLIPSE
  5
3DD
100
AcDbEntity
  8
0
370
    -3
  6
Continuous
100
AcDbEllipse
 10
-240.650646
 20
242.841335
 30
0.0
 11
4.5
 21
0.0
 31
0.0
210
0.0
220
0.0
230
1.0
 40
0.707107
 41
3.1415926535897931
 42
0.0
  0
LINE
  5
3DE
100
AcDbEntity
  8
0
370
    -3
  6
Continuous
100
AcDbLine
 10
-235.650646
 20
242.841335
 30
0.0
 11
-235.650646
 21
242.024731
 31
0.0
  0
LINE
  5
3DF
100
AcDbEntity
  8
0
370
    -3
  6
Continuous
100
AcDbLine
 10
-245.650646
 20
242.841335
 30
0.0
 11
-245.650646
 21
242.024731
 31
0.0
  0
ELLIPSE
  5
3E0
100
AcDbEntity
  8
0
370
    -3
  6
Continuous
100
AcDbEllipse
 10
-240.650646
 20
242.024731
 30
0.0
 11
5.0
 21
0.0
 31
0.0
210
0.0
220
0.0
230
1.0
 40
0.707107
 41
3.1415926535897931
 42
0.0
  0
ARC
  5
3E1
100
AcDbEntity
  8
0
370
    -3
  6
Continuous
100
AcDbCircle
 10
-283.850646
 20
126.250337
 30
0.0
 40
3.8
100
AcDbArc
 50
180.0
 51
240.0
  0
LINE
  5
3E2
100
AcDbEntity
  8
0
370
    -3
  6
Continuous
100
AcDbLine
 10
-287.650646
 20
185.0
 30
0.0
 11
-287.650646
 21
126.250337
 31
0.0
  0
LINE
  5
3E3
100
AcDbEntity
  8
0
370
    -3
  6
Continuous
100
AcDbLine
 10
-103.650646
 20
185.0
 30
0.0
 11
-103.650646
 21
113.5
 31
0.0
  0
LINE
  5
3E4
100
AcDbEntity
  8
0
370
    -3
  6
Continuous
100
AcDbLine
 10
-103.650646
 20
185.0
 30
0.0
 11
-103.650646
 21
256.5
 31
0.0
  0
ARC
  5
3E5
100
AcDbEntity
  8
0
370
    -3
  6
Continuous
100
AcDbCircle
 10
-255.397811
 20
141.0
 30
0.0
 40
30.8
100
AcDbArc
 50
240.0
 51
270.0
  0
LINE
  5
3E6
100
AcDbEntity
  8
0
370
    -3
  6
Continuous
100
AcDbLine
 10
-285.750646
 20
122.959441
 30
0.0
 11
-270.797811
 21
114.326418
 31
0.0
  0
LINE
  5
3E7
100
AcDbEntity
  8
0
370
    -3
  6
Continuous
100
AcDbLine
 10
-223.650646
 20
110.2
 30
0.0
 11
-255.397811
 21
110.2
 31
0.0
  0
LINE
  5
3E8
100
AcDbEntity
  8
0
370
    -3
  6
Continuous
100
AcDbLine
 10
-466.968579
 20
-22.714886
 30
0.0
 11
-473.615383
 21
-29.361689
 31
0.0
  0
INSERT
  5
3F4
100
AcDbEntity
  8
0
100
AcDbBlockReference
  2
ZU_SYM__USERS_HOME_SYMBOL_POO_SYM_S07_-1
 10
-470.857667
 20
-25.472602
 30
0.0
 41
1.0
 42
1.0
 50
315.0
  0
ARC
  5
3F5
100
AcDbEntity
  8
0
370
    -3
  6
Continuous
100
AcDbCircle
 10
-412.450646
 20
-83.879622
 30
0.0
 40
80.8
100
AcDbArc
 50
129.094568
 51
140.905432
  0
LINE
  5
3F6
100
AcDbEntity
  8
0
370
    -3
  6
Continuous
100
AcDbLine
 10
-469.337387
 20
-23.952323
 30
0.0
 11
-467.675686
 21
-22.290622
 31
0.0
  0
LINE
  5
3F7
100
AcDbEntity
  8
0
370
    -3
  6
Continuous
100
AcDbLine
 10
-467.675686
 20
-22.290622
 30
0.0
 11
-467.110001
 21
-22.856307
 31
0.0
  0
ARC
  5
3F8
100
AcDbEntity
  8
0
370
    -3
  6
Continuous
100
AcDbCircle
 10
-466.756447
 20
-22.927018
 30
0.0
 40
0.3
100
AcDbArc
 50
45.0
 51
135.0
  0
LINE
  5
3F9
100
AcDbEntity
  8
0
370
    -3
  6
Continuous
100
AcDbLine
 10
-466.544315
 20
-22.714886
 30
0.0
 11
-465.939844
 21
-23.319357
 31
0.0
  0
LINE
  5
3FA
100
AcDbEntity
  8
0
370
    -3
  6
Continuous
100
AcDbLine
 10
-472.377946
 20
-26.992882
 30
0.0
 11
-474.039647
 21
-28.654583
 31
0.0
  0
LINE
  5
3FB
100
AcDbEntity
  8
0
370
    -3
  6
Continuous
100
AcDbLine
 10
-474.039647
 20
-28.654583
 30
0.0
 11
-473.473962
 21
-29.220268
 31
0.0
  0
LINE
  5
3FC
100
AcDbEntity
  8
0
370
    -3
  6
Continuous
100
AcDbLine
 10
-473.615383
 20
-29.785954
 30
0.0
 11
-473.010912
 21
-30.390425
 31
0.0
  0
ARC
  5
3FD
100
AcDbEntity
  8
0
370
    -3
  6
Continuous
100
AcDbCircle
 10
-473.403251
 20
-29.573821
 30
0.0
 40
0.3
100
AcDbArc
 50
135.0
 51
225.0
  0
LINE
  5
3FE
100
AcDbEntity
  8
0
370
    -3
  6
Continuous
100
AcDbLine
 10
-358.356978
 20
-22.714886
 30
0.0
 11
-358.961449
 21
-23.319357
 31
0.0
  0
ARC
  5
3FF
100
AcDbEntity
  8
0
370
    -3
  6
Continuous
100
AcDbCircle
 10
-358.144846
 20
-22.927018
 30
0.0
 40
0.3
100
AcDbArc
 50
45.0
 51
135.0
  0
LINE
  5
400
100
AcDbEntity
  8
0
370
    -3
  6
Continuous
100
AcDbLine
 10
-352.523347
 20
-26.992882
 30
0.0
 11
-350.861646
 21
-28.654583
 31
0.0
  0
LINE
  5
401
100
AcDbEntity
  8
0
370
    -3
  6
Continuous
100
AcDbLine
 10
-355.563906
 20
-23.952323
 30
0.0
 11
-357.225607
 21
-22.290622
 31
0.0
  0
LINE
  5
402
100
AcDbEntity
  8
0
370
    -3
  6
Continuous
100
AcDbLine
 10
-357.225607
 20
-22.290622
 30
0.0
 11
-357.791292
 21
-22.856307
 31
0.0
  0
LINE
  5
403
100
AcDbEntity
  8
0
370
    -3
  6
Continuous
100
AcDbLine
 10
-357.932714
 20
-22.714886
 30
0.0
 11
-351.28591
 21
-29.361689
 31
0.0
  0
LINE
  5
404
100
AcDbEntity
  8
0
370
    -3
  6
Continuous
100
AcDbLine
 10
-350.861646
 20
-28.654583
 30
0.0
 11
-351.427331
 21
-29.220268
 31
0.0
  0
LINE
  5
405
100
AcDbEntity
  8
0
370
    -3
  6
Continuous
100
AcDbLine
 10
-351.28591
 20
-29.785954
 30
0.0
 11
-351.890381
 21
-30.390425
 31
0.0
  0
ARC
  5
406
100
AcDbEntity
  8
0
370
    -3
  6
Continuous
100
AcDbCircle
 10
-351.498042
 20
-29.573821
 30
0.0
 40
0.3
100
AcDbArc
 50
315.0
 51
45.0
  0
INSERT
  5
412
100
AcDbEntity
  8
0
100
AcDbBlockReference
  2
ZU_SYM__USERS_HOME_SYMBOL_POO_SYM_S07_00001-1
 10
-354.043626
 20
-25.472602
 30
0.0
 41
-1.0
 42
1.0
 50
45.0
  0
ARC
  5
413
100
AcDbEntity
  8
0
370
    -3
  6
Continuous
100
AcDbCircle
 10
-393.532579
 20
-60.596436
 30
0.0
 40
36.944
100
AcDbArc
 50
50.905432
 51
85.66015
  0
ARC
  5
414
100
AcDbEntity
  8
0
370
    -3
  6
Continuous
100
AcDbCircle
 10
-412.450646
 20
-83.879622
 30
0.0
 40
66.944
100
AcDbArc
 50
39.094568
 51
50.905432
  0
ARC
  5
415
100
AcDbEntity
  8
0
370
    -3
  6
Continuous
100
AcDbCircle
 10
-389.167461
 20
-64.961555
 30
0.0
 40
36.944
100
AcDbArc
 50
4.33985
 51
39.094568
  0
ARC
  5
416
100
AcDbEntity
  8
0
370
    -3
  6
Continuous
100
AcDbCircle
 10
-393.532579
 20
-60.596436
 30
0.0
 40
50.8
100
AcDbArc
 50
50.905432
 51
85.66015
  0
ARC
  5
417
100
AcDbEntity
  8
0
370
    -3
  6
Continuous
100
AcDbCircle
 10
-412.450646
 20
-83.879622
 30
0.0
 40
80.8
100
AcDbArc
 50
39.094568
 51
50.905432
  0
ARC
  5
418
100
AcDbEntity
  8
0
370
    -3
  6
Continuous
100
AcDbCircle
 10
-389.167461
 20
-64.961555
 30
0.0
 40
50.8
100
AcDbArc
 50
4.33985
 51
39.094568
  0
LINE
  5
419
100
AcDbEntity
  8
0
370
    -3
  6
Continuous
100
AcDbLine
 10
-358.356978
 20
-145.044359
 30
0.0
 11
-358.961449
 21
-144.439888
 31
0.0
  0
ARC
  5
41A
100
AcDbEntity
  8
0
370
    -3
  6
Continuous
100
AcDbCircle
 10
-358.144846
 20
-144.832227
 30
0.0
 40
0.3
100
AcDbArc
 50
225.0
 51
315.0
  0
LINE
  5
41B
100
AcDbEntity
  8
0
370
    -3
  6
Continuous
100
AcDbLine
 10
-352.523347
 20
-140.766363
 30
0.0
 11
-350.861646
 21
-139.104662
 31
0.0
  0
LINE
  5
41C
100
AcDbEntity
  8
0
370
    -3
  6
Continuous
100
AcDbLine
 10
-350.861646
 20
-139.104662
 30
0.0
 11
-351.427331
 21
-138.538976
 31
0.0
  0
LINE
  5
41D
100
AcDbEntity
  8
0
370
    -3
  6
Continuous
100
AcDbLine
 10
-355.563906
 20
-143.806922
 30
0.0
 11
-357.225607
 21
-145.468623
 31
0.0
  0
LINE
  5
41E
100
AcDbEntity
  8
0
370
    -3
  6
Continuous
100
AcDbLine
 10
-357.225607
 20
-145.468623
 30
0.0
 11
-357.791292
 21
-144.902937
 31
0.0
  0
LINE
  5
41F
100
AcDbEntity
  8
0
370
    -3
  6
Continuous
100
AcDbLine
 10
-351.28591
 20
-137.973291
 30
0.0
 11
-351.890381
 21
-137.36882
 31
0.0
  0
ARC
  5
420
100
AcDbEntity
  8
0
370
    -3
  6
Continuous
100
AcDbCircle
 10
-351.498042
 20
-138.185423
 30
0.0
 40
0.3
100
AcDbArc
 50
315.0
 51
45.0
  0
LINE
  5
421
100
AcDbEntity
  8
0
370
    -3
  6
Continuous
100
AcDbLine
 10
-357.932714
 20
-145.044359
 30
0.0
 11
-351.28591
 21
-138.397555
 31
0.0
  0
INSERT
  5
42D
100
AcDbEntity
  8
0
100
AcDbBlockReference
  2
ZU_SYM__USERS_HOME_SYMBOL_POO_SYM_S07_00002-1
 10
-354.043626
 20
-142.286642
 30
0.0
 41
1.0
 42
1.0
 50
135.0
  0
ARC
  5
42E
100
AcDbEntity
  8
0
370
    -3
  6
Continuous
100
AcDbCircle
 10
-393.532579
 20
-107.162808
 30
0.0
 40
50.8
100
AcDbArc
 50
274.33985
 51
309.094568
  0
ARC
  5
42F
100
AcDbEntity
  8
0
370
    -3
  6
Continuous
100
AcDbCircle
 10
-412.450646
 20
-83.879622
 30
0.0
 40
80.8
100
AcDbArc
 50
309.094568
 51
320.905432
  0
ARC
  5
430
100
AcDbEntity
  8
0
370
    -3
  6
Continuous
100
AcDbCircle
 10
-389.167461
 20
-102.797689
 30
0.0
 40
50.8
100
AcDbArc
 50
320.905432
 51
355.66015
  0
ARC
  5
431
100
AcDbEntity
  8
0
370
    -3
  6
Continuous
100
AcDbCircle
 10
-412.450646
 20
-83.879622
 30
0.0
 40
66.944
100
AcDbArc
 50
309.094568
 51
320.905432
  0
ARC
  5
432
100
AcDbEntity
  8
0
370
    -3
  6
Continuous
100
AcDbCircle
 10
-393.532579
 20
-107.162808
 30
0.0
 40
36.944
100
AcDbArc
 50
274.33985
 51
309.094568
  0
ARC
  5
433
100
AcDbEntity
  8
0
370
    -3
  6
Continuous
100
AcDbCircle
 10
-466.756447
 20
-144.832227
 30
0.0
 40
0.3
100
AcDbArc
 50
225.0
 51
315.0
  0
LINE
  5
434
100
AcDbEntity
  8
0
370
    -3
  6
Continuous
100
AcDbLine
 10
-472.377946
 20
-140.766363
 30
0.0
 11
-474.039647
 21
-139.104662
 31
0.0
  0
LINE
  5
435
100
AcDbEntity
  8
0
370
    -3
  6
Continuous
100
AcDbLine
 10
-474.039647
 20
-139.104662
 30
0.0
 11
-473.473962
 21
-138.538976
 31
0.0
  0
LINE
  5
436
100
AcDbEntity
  8
0
370
    -3
  6
Continuous
100
AcDbLine
 10
-469.337387
 20
-143.806922
 30
0.0
 11
-467.675686
 21
-145.468623
 31
0.0
  0
LINE
  5
437
100
AcDbEntity
  8
0
370
    -3
  6
Continuous
100
AcDbLine
 10
-467.675686
 20
-145.468623
 30
0.0
 11
-467.110001
 21
-144.902937
 31
0.0
  0
LINE
  5
438
100
AcDbEntity
  8
0
370
    -3
  6
Continuous
100
AcDbLine
 10
-473.615383
 20
-137.973291
 30
0.0
 11
-473.010912
 21
-137.36882
 31
0.0
  0
ARC
  5
439
100
AcDbEntity
  8
0
370
    -3
  6
Continuous
100
AcDbCircle
 10
-473.403251
 20
-138.185423
 30
0.0
 40
0.3
100
AcDbArc
 50
135.0
 51
225.0
  0
LINE
  5
43A
100
AcDbEntity
  8
0
370
    -3
  6
Continuous
100
AcDbLine
 10
-466.968579
 20
-145.044359
 30
0.0
 11
-473.615383
 21
-138.397555
 31
0.0
  0
LINE
  5
43B
100
AcDbEntity
  8
0
370
    -3
  6
Continuous
100
AcDbLine
 10
-466.544315
 20
-145.044359
 30
0.0
 11
-465.939844
 21
-144.439888
 31
0.0
  0
INSERT
  5
447
100
AcDbEntity
  8
0
100
AcDbBlockReference
  2
ZU_SYM__USERS_HOME_SYMBOL_POO_SYM_S07_00003-1
 10
-470.857667
 20
-142.286642
 30
0.0
 41
-1.0
 42
1.0
 50
225.0
  0
ARC
  5
448
100
AcDbEntity
  8
0
370
    -3
  6
Continuous
100
AcDbCircle
 10
-412.450646
 20
-83.879622
 30
0.0
 40
66.944
100
AcDbArc
 50
219.094568
 51
230.905432
  0
ARC
  5
449
100
AcDbEntity
  8
0
370
    -3
  6
Continuous
100
AcDbCircle
 10
-435.733832
 20
-102.797689
 30
0.0
 40
36.944
100
AcDbArc
 50
184.33985
 51
219.094568
  0
ARC
  5
44A
100
AcDbEntity
  8
0
370
    -3
  6
Continuous
100
AcDbCircle
 10
-431.368713
 20
-107.162808
 30
0.0
 40
50.8
100
AcDbArc
 50
230.905432
 51
265.66015
  0
ARC
  5
44B
100
AcDbEntity
  8
0
370
    -3
  6
Continuous
100
AcDbCircle
 10
-412.450646
 20
-83.879622
 30
0.0
 40
80.8
100
AcDbArc
 50
219.094568
 51
230.905432
  0
ARC
  5
44C
100
AcDbEntity
  8
0
370
    -3
  6
Continuous
100
AcDbCircle
 10
-435.733832
 20
-102.797689
 30
0.0
 40
50.8
100
AcDbArc
 50
184.33985
 51
219.094568
  0
ARC
  5
44D
100
AcDbEntity
  8
0
370
    -3
  6
Continuous
100
AcDbCircle
 10
-412.450646
 20
-309.879622
 30
0.0
 40
300.8
100
AcDbArc
 50
85.66015
 51
94.33985
  0
ARC
  5
44E
100
AcDbEntity
  8
0
370
    -3
  6
Continuous
100
AcDbCircle
 10
-412.450646
 20
142.120378
 30
0.0
 40
300.8
100
AcDbArc
 50
265.66015
 51
274.33985
  0
ARC
  5
44F
100
AcDbEntity
  8
0
370
    -3
  6
Continuous
100
AcDbCircle
 10
-412.450646
 20
-83.879622
 30
0.0
 40
19.0
100
AcDbArc
 50
195.183114
 51
227.626375
  0
ARC
  5
450
100
AcDbEntity
  8
0
370
    -3
  6
Continuous
100
AcDbCircle
 10
-412.450646
 20
-83.879622
 30
0.0
 40
25.0
100
AcDbArc
 50
193.835224
 51
228.717176
  0
LINE
  5
451
100
AcDbEntity
  8
0
370
    -3
  6
Continuous
100
AcDbLine
 10
-434.783358
 20
-87.379622
 30
0.0
 11
-432.717615
 21
-87.379622
 31
0.0
  0
LINE
  5
452
100
AcDbEntity
  8
0
370
    -3
  6
Continuous
100
AcDbLine
 10
-430.961581
 20
-110.941501
 30
0.0
 11
-429.951534
 21
-109.192049
 31
0.0
  0
ARC
  5
453
100
AcDbEntity
  8
0
370
    -3
  6
Continuous
100
AcDbCircle
 10
-412.450646
 20
-83.879622
 30
0.0
 40
29.0
100
AcDbArc
 50
190.21948
 51
231.653381
  0
LINE
  5
454
100
AcDbEntity
  8
0
370
    -3
  6
Continuous
100
AcDbLine
 10
-435.997653
 20
-119.664234
 30
0.0
 11
-434.99186
 21
-117.92215
 31
0.0
  0
LINE
  5
455
100
AcDbEntity
  8
0
370
    -3
  6
Continuous
100
AcDbLine
 10
-441.020018
 20
-128.363226
 30
0.0
 11
-440.016251
 21
-126.62465
 31
0.0
  0
ARC
  5
456
100
AcDbEntity
  8
0
370
    -3
  6
Continuous
100
AcDbCircle
 10
-412.450646
 20
-83.879622
 30
0.0
 40
49.0
100
AcDbArc
 50
186.190997
 51
234.937907
  0
LINE
  5
457
100
AcDbEntity
  8
0
370
    -3
  6
Continuous
100
AcDbLine
 10
-465.164497
 20
-87.379622
 30
0.0
 11
-463.15321
 21
-87.379622
 31
0.0
  0
ARC
  5
458
100
AcDbEntity
  8
0
370
    -3
  6
Continuous
100
AcDbCircle
 10
-444.989085
 20
-89.379622
 30
0.0
 40
2.0
100
AcDbArc
 50
90.0
 51
189.594068
  0
ARC
  5
459
100
AcDbEntity
  8
0
370
    -3
  6
Continuous
100
AcDbCircle
 10
-412.450646
 20
-83.879622
 30
0.0
 40
55.0
100
AcDbArc
 50
185.956512
 51
235.1294
  0
ARC
  5
45A
100
AcDbEntity
  8
0
370
    -3
  6
Continuous
100
AcDbCircle
 10
-412.450646
 20
-83.879622
 30
0.0
 40
45.0
100
AcDbArc
 50
187.348661
 51
233.992931
  0
ARC
  5
45B
100
AcDbEntity
  8
0
370
    -3
  6
Continuous
100
AcDbCircle
 10
-412.450646
 20
-83.879622
 30
0.0
 40
39.0
100
AcDbArc
 50
187.70926
 51
233.698744
  0
LINE
  5
45C
100
AcDbEntity
  8
0
370
    -3
  6
Continuous
100
AcDbLine
 10
-455.097452
 20
-87.379622
 30
0.0
 11
-453.080069
 21
-87.379622
 31
0.0
  0
LINE
  5
45D
100
AcDbEntity
  8
0
370
    -3
  6
Continuous
100
AcDbLine
 10
-444.989085
 20
-87.379622
 30
0.0
 11
-442.958842
 21
-87.379622
 31
0.0
  0
ARC
  5
45E
100
AcDbEntity
  8
0
370
    -3
  6
Continuous
100
AcDbCircle
 10
-412.450646
 20
-83.879622
 30
0.0
 40
35.0
100
AcDbArc
 50
189.594068
 51
232.16252
  0
LINE
  5
45F
100
AcDbEntity
  8
0
370
    -3
  6
Continuous
100
AcDbLine
 10
-404.187427
 20
-93.191937
 30
0.0
 11
-405.266868
 21
-91.322292
 31
0.0
  0
ARC
  5
460
100
AcDbEntity
  8
0
370
    -3
  6
Continuous
100
AcDbCircle
 10
-412.450646
 20
-83.879622
 30
0.0
 40
9.0
100
AcDbArc
 50
324.14774
 51
330.0
  0
ARC
  5
461
100
AcDbEntity
  8
0
370
    -3
  6
Continuous
100
AcDbCircle
 10
-412.450646
 20
-83.879622
 30
0.0
 40
15.0
100
AcDbArc
 50
320.252247
 51
334.971001
  0
LINE
  5
462
100
AcDbEntity
  8
0
370
    -3
  6
Continuous
100
AcDbLine
 10
-400.671427
 20
-87.379622
 30
0.0
 11
-402.924367
 21
-87.379622
 31
0.0
  0
LINE
  5
463
100
AcDbEntity
  8
0
370
    -3
  6
Continuous
100
AcDbLine
 10
-399.007839
 20
-102.163247
 30
0.0
 11
-400.029487
 21
-100.393701
 31
0.0
  0
ARC
  5
464
100
AcDbEntity
  8
0
370
    -3
  6
Continuous
100
AcDbCircle
 10
-412.450646
 20
-83.879622
 30
0.0
 40
19.0
100
AcDbArc
 50
312.373625
 51
344.816886
  0
ARC
  5
465
100
AcDbEntity
  8
0
370
    -3
  6
Continuous
100
AcDbCircle
 10
-412.450646
 20
-83.879622
 30
0.0
 40
25.0
100
AcDbArc
 50
311.282824
 51
346.164776
  0
LINE
  5
466
100
AcDbEntity
  8
0
370
    -3
  6
Continuous
100
AcDbLine
 10
-390.117935
 20
-87.379622
 30
0.0
 11
-392.183678
 21
-87.379622
 31
0.0
  0
LINE
  5
467
100
AcDbEntity
  8
0
370
    -3
  6
Continuous
100
AcDbLine
 10
-393.939712
 20
-110.941501
 30
0.0
 11
-394.949759
 21
-109.192049
 31
0.0
  0
ARC
  5
468
100
AcDbEntity
  8
0
370
    -3
  6
Continuous
100
AcDbCircle
 10
-412.450646
 20
-83.879622
 30
0.0
 40
29.0
100
AcDbArc
 50
308.346619
 51
349.78052
  0
LINE
  5
469
100
AcDbEntity
  8
0
370
    -3
  6
Continuous
100
AcDbLine
 10
-388.90364
 20
-119.664234
 30
0.0
 11
-389.909433
 21
-117.92215
 31
0.0
  0
LINE
  5
46A
100
AcDbEntity
  8
0
370
    -3
  6
Continuous
100
AcDbLine
 10
-383.881275
 20
-128.363226
 30
0.0
 11
-384.885042
 21
-126.62465
 31
0.0
  0
ARC
  5
46B
100
AcDbEntity
  8
0
370
    -3
  6
Continuous
100
AcDbCircle
 10
-412.450646
 20
-83.879622
 30
0.0
 40
49.0
100
AcDbArc
 50
305.062093
 51
353.809003
  0
LINE
  5
46C
100
AcDbEntity
  8
0
370
    -3
  6
Continuous
100
AcDbLine
 10
-359.736796
 20
-87.379622
 30
0.0
 11
-361.748082
 21
-87.379622
 31
0.0
  0
ARC
  5
46D
100
AcDbEntity
  8
0
370
    -3
  6
Continuous
100
AcDbCircle
 10
-412.450646
 20
-83.879622
 30
0.0
 40
55.0
100
AcDbArc
 50
304.8706
 51
354.043488
  0
ARC
  5
46E
100
AcDbEntity
  8
0
370
    -3
  6
Continuous
100
AcDbCircle
 10
-412.450646
 20
-83.879622
 30
0.0
 40
45.0
100
AcDbArc
 50
306.007069
 51
352.651339
  0
ARC
  5
46F
100
AcDbEntity
  8
0
370
    -3
  6
Continuous
100
AcDbCircle
 10
-412.450646
 20
-83.879622
 30
0.0
 40
39.0
100
AcDbArc
 50
306.301256
 51
352.29074
  0
LINE
  5
470
100
AcDbEntity
  8
0
370
    -3
  6
Continuous
100
AcDbLine
 10
-369.803841
 20
-87.379622
 30
0.0
 11
-371.821224
 21
-87.379622
 31
0.0
  0
LINE
  5
471
100
AcDbEntity
  8
0
370
    -3
  6
Continuous
100
AcDbLine
 10
-379.912208
 20
-87.379622
 30
0.0
 11
-381.942451
 21
-87.379622
 31
0.0
  0
ARC
  5
472
100
AcDbEntity
  8
0
370
    -3
  6
Continuous
100
AcDbCircle
 10
-412.450646
 20
-83.879622
 30
0.0
 40
35.0
100
AcDbArc
 50
307.83748
 51
350.405932
  0
LINE
  5
473
100
AcDbEntity
  8
0
370
    -3
  6
Continuous
100
AcDbLine
 10
-388.90364
 20
-48.09501
 30
0.0
 11
-389.909433
 21
-49.837095
 31
0.0
  0
LINE
  5
474
100
AcDbEntity
  8
0
370
    -3
  6
Continuous
100
AcDbLine
 10
-393.939712
 20
-56.817743
 30
0.0
 11
-394.949759
 21
-58.567196
 31
0.0
  0
LINE
  5
475
100
AcDbEntity
  8
0
370
    -3
  6
Continuous
100
AcDbLine
 10
-399.007839
 20
-65.595997
 30
0.0
 11
-400.029487
 21
-67.365543
 31
0.0
  0
LINE
  5
476
100
AcDbEntity
  8
0
370
    -3
  6
Continuous
100
AcDbLine
 10
-404.187427
 20
-74.567307
 30
0.0
 11
-405.266868
 21
-76.436953
 31
0.0
  0
LINE
  5
477
100
AcDbEntity
  8
0
370
    -3
  6
Continuous
100
AcDbLine
 10
-400.671427
 20
-80.379622
 30
0.0
 11
-402.924367
 21
-80.379622
 31
0.0
  0
LINE
  5
478
100
AcDbEntity
  8
0
370
    -3
  6
Continuous
100
AcDbLine
 10
-390.117935
 20
-80.379622
 30
0.0
 11
-392.183678
 21
-80.379622
 31
0.0
  0
LINE
  5
479
100
AcDbEntity
  8
0
370
    -3
  6
Continuous
100
AcDbLine
 10
-379.912208
 20
-80.379622
 30
0.0
 11
-381.942451
 21
-80.379622
 31
0.0
  0
LINE
  5
47A
100
AcDbEntity
  8
0
370
    -3
  6
Continuous
100
AcDbLine
 10
-369.803841
 20
-80.379622
 30
0.0
 11
-371.821224
 21
-80.379622
 31
0.0
  0
ARC
  5
47B
100
AcDbEntity
  8
0
370
    -3
  6
Continuous
100
AcDbCircle
 10
-412.450646
 20
-83.879622
 30
0.0
 40
9.0
100
AcDbArc
 50
30.0
 51
35.85226
  0
ARC
  5
47C
100
AcDbEntity
  8
0
370
    -3
  6
Continuous
100
AcDbCircle
 10
-412.450646
 20
-83.879622
 30
0.0
 40
15.0
100
AcDbArc
 50
25.028999
 51
39.747753
  0
ARC
  5
47D
100
AcDbEntity
  8
0
370
    -3
  6
Continuous
100
AcDbCircle
 10
-412.450646
 20
-83.879622
 30
0.0
 40
19.0
100
AcDbArc
 50
15.183114
 51
47.626375
  0
ARC
  5
47E
100
AcDbEntity
  8
0
370
    -3
  6
Continuous
100
AcDbCircle
 10
-412.450646
 20
-83.879622
 30
0.0
 40
25.0
100
AcDbArc
 50
13.835224
 51
48.717176
  0
ARC
  5
47F
100
AcDbEntity
  8
0
370
    -3
  6
Continuous
100
AcDbCircle
 10
-412.450646
 20
-83.879622
 30
0.0
 40
29.0
100
AcDbArc
 50
10.21948
 51
51.653381
  0
ARC
  5
480
100
AcDbEntity
  8
0
370
    -3
  6
Continuous
100
AcDbCircle
 10
-412.450646
 20
-83.879622
 30
0.0
 40
35.0
100
AcDbArc
 50
9.594068
 51
52.16252
  0
ARC
  5
481
100
AcDbEntity
  8
0
370
    -3
  6
Continuous
100
AcDbCircle
 10
-412.450646
 20
-83.879622
 30
0.0
 40
39.0
100
AcDbArc
 50
7.70926
 51
53.698744
  0
ARC
  5
482
100
AcDbEntity
  8
0
370
    -3
  6
Continuous
100
AcDbCircle
 10
-412.450646
 20
-83.879622
 30
0.0
 40
45.0
100
AcDbArc
 50
7.348661
 51
53.992931
  0
ARC
  5
483
100
AcDbEntity
  8
0
370
    -3
  6
Continuous
100
AcDbCircle
 10
-412.450646
 20
-83.879622
 30
0.0
 40
49.0
100
AcDbArc
 50
6.190997
 51
54.937907
  0
ARC
  5
484
100
AcDbEntity
  8
0
370
    -3
  6
Continuous
100
AcDbCircle
 10
-412.450646
 20
-83.879622
 30
0.0
 40
55.0
100
AcDbArc
 50
5.956512
 51
55.1294
  0
LINE
  5
485
100
AcDbEntity
  8
0
370
    -3
  6
Continuous
100
AcDbLine
 10
-383.881275
 20
-39.396019
 30
0.0
 11
-384.885042
 21
-41.134594
 31
0.0
  0
LINE
  5
486
100
AcDbEntity
  8
0
370
    -3
  6
Continuous
100
AcDbLine
 10
-359.736796
 20
-80.379622
 30
0.0
 11
-361.748082
 21
-80.379622
 31
0.0
  0
CIRCLE
  5
487
100
AcDbEntity
  8
0
370
    -3
  6
Continuous
100
AcDbCircle
 10
-412.450646
 20
-83.879622
 30
0.0
 40
5.0
  0
ARC
  5
488
100
AcDbEntity
  8
0
370
    -3
  6
Continuous
100
AcDbCircle
 10
-359.736796
 20
-78.379622
 30
0.0
 40
2.0
100
AcDbArc
 50
270.0
 51
5.956512
  0
ARC
  5
489
100
AcDbEntity
  8
0
370
    -3
  6
Continuous
100
AcDbCircle
 10
-638.450646
 20
-83.879622
 30
0.0
 40
300.8
100
AcDbArc
 50
355.66015
 51
4.33985
  0
ARC
  5
48A
100
AcDbEntity
  8
0
370
    -3
  6
Continuous
100
AcDbCircle
 10
-453.080069
 20
-89.379622
 30
0.0
 40
2.0
100
AcDbArc
 50
7.70926
 51
90.0
  0
ARC
  5
48B
100
AcDbEntity
  8
0
370
    -3
  6
Continuous
100
AcDbCircle
 10
-455.097452
 20
-89.379622
 30
0.0
 40
2.0
100
AcDbArc
 50
90.0
 51
187.348661
  0
ARC
  5
48C
100
AcDbEntity
  8
0
370
    -3
  6
Continuous
100
AcDbCircle
 10
-463.15321
 20
-89.379622
 30
0.0
 40
2.0
100
AcDbArc
 50
6.190997
 51
90.0
  0
ARC
  5
48D
100
AcDbEntity
  8
0
370
    -3
  6
Continuous
100
AcDbCircle
 10
-465.164497
 20
-89.379622
 30
0.0
 40
2.0
100
AcDbArc
 50
90.0
 51
185.956512
  0
ARC
  5
48E
100
AcDbEntity
  8
0
370
    -3
  6
Continuous
100
AcDbCircle
 10
-442.752069
 20
-127.363226
 30
0.0
 40
2.0
100
AcDbArc
 50
235.1294
 51
330.0
  0
ARC
  5
48F
100
AcDbEntity
  8
0
370
    -3
  6
Continuous
100
AcDbCircle
 10
-441.748302
 20
-125.62465
 30
0.0
 40
2.0
100
AcDbArc
 50
330.0
 51
54.937907
  0
ARC
  5
490
100
AcDbEntity
  8
0
370
    -3
  6
Continuous
100
AcDbCircle
 10
-437.729704
 20
-118.664234
 30
0.0
 40
2.0
100
AcDbArc
 50
233.992931
 51
330.0
  0
ARC
  5
491
100
AcDbEntity
  8
0
370
    -3
  6
Continuous
100
AcDbCircle
 10
-436.723911
 20
-116.92215
 30
0.0
 40
2.0
100
AcDbArc
 50
330.0
 51
53.698744
  0
ARC
  5
492
100
AcDbEntity
  8
0
370
    -3
  6
Continuous
100
AcDbCircle
 10
-432.693632
 20
-109.941501
 30
0.0
 40
2.0
100
AcDbArc
 50
232.16252
 51
330.0
  0
ARC
  5
493
100
AcDbEntity
  8
0
370
    -3
  6
Continuous
100
AcDbCircle
 10
-431.683585
 20
-108.192049
 30
0.0
 40
2.0
100
AcDbArc
 50
330.0
 51
51.653381
  0
ARC
  5
494
100
AcDbEntity
  8
0
370
    -3
  6
Continuous
100
AcDbCircle
 10
-427.625504
 20
-101.163247
 30
0.0
 40
2.0
100
AcDbArc
 50
228.717176
 51
330.0
  0
ARC
  5
495
100
AcDbEntity
  8
0
370
    -3
  6
Continuous
100
AcDbCircle
 10
-426.603856
 20
-99.393701
 30
0.0
 40
2.0
100
AcDbArc
 50
330.0
 51
47.626375
  0
ARC
  5
496
100
AcDbEntity
  8
0
370
    -3
  6
Continuous
100
AcDbCircle
 10
-422.445916
 20
-92.191937
 30
0.0
 40
2.0
100
AcDbArc
 50
219.747753
 51
330.0
  0
ARC
  5
497
100
AcDbEntity
  8
0
370
    -3
  6
Continuous
100
AcDbCircle
 10
-421.366476
 20
-90.322292
 30
0.0
 40
2.0
100
AcDbArc
 50
330.0
 51
35.85226
  0
ARC
  5
498
100
AcDbEntity
  8
0
370
    -3
  6
Continuous
100
AcDbCircle
 10
-434.95784
 20
-131.863226
 30
0.0
 40
2.0
100
AcDbArc
 50
150.0
 51
244.8706
  0
ARC
  5
499
100
AcDbEntity
  8
0
370
    -3
  6
Continuous
100
AcDbCircle
 10
-433.954073
 20
-130.12465
 30
0.0
 40
2.0
100
AcDbArc
 50
65.062093
 51
150.0
  0
ARC
  5
49A
100
AcDbEntity
  8
0
370
    -3
  6
Continuous
100
AcDbCircle
 10
-429.935475
 20
-123.164234
 30
0.0
 40
2.0
100
AcDbArc
 50
150.0
 51
246.007069
  0
ARC
  5
49B
100
AcDbEntity
  8
0
370
    -3
  6
Continuous
100
AcDbCircle
 10
-428.929682
 20
-121.42215
 30
0.0
 40
2.0
100
AcDbArc
 50
66.301256
 51
150.0
  0
ARC
  5
49C
100
AcDbEntity
  8
0
370
    -3
  6
Continuous
100
AcDbCircle
 10
-424.899403
 20
-114.441501
 30
0.0
 40
2.0
100
AcDbArc
 50
150.0
 51
247.83748
  0
ARC
  5
49D
100
AcDbEntity
  8
0
370
    -3
  6
Continuous
100
AcDbCircle
 10
-423.889356
 20
-112.692049
 30
0.0
 40
2.0
100
AcDbArc
 50
68.346619
 51
150.0
  0
ARC
  5
49E
100
AcDbEntity
  8
0
370
    -3
  6
Continuous
100
AcDbCircle
 10
-419.831276
 20
-105.663247
 30
0.0
 40
2.0
100
AcDbArc
 50
150.0
 51
251.282824
  0
ARC
  5
49F
100
AcDbEntity
  8
0
370
    -3
  6
Continuous
100
AcDbCircle
 10
-418.809628
 20
-103.893701
 30
0.0
 40
2.0
100
AcDbArc
 50
72.373625
 51
150.0
  0
ARC
  5
4A0
100
AcDbEntity
  8
0
370
    -3
  6
Continuous
100
AcDbCircle
 10
-414.651688
 20
-96.691937
 30
0.0
 40
2.0
100
AcDbArc
 50
150.0
 51
260.252247
  0
ARC
  5
4A1
100
AcDbEntity
  8
0
370
    -3
  6
Continuous
100
AcDbCircle
 10
-413.572247
 20
-94.822292
 30
0.0
 40
2.0
100
AcDbArc
 50
84.14774
 51
150.0
  0
ARC
  5
4A2
100
AcDbEntity
  8
0
370
    -3
  6
Continuous
100
AcDbCircle
 10
-412.450646
 20
-94.879622
 30
0.0
 40
2.0
100
AcDbArc
 50
30.0
 51
90.0
  0
ARC
  5
4A3
100
AcDbEntity
  8
0
370
    -3
  6
Continuous
100
AcDbCircle
 10
-411.324177
 20
-96.830725
 30
0.0
 40
2.0
100
AcDbArc
 50
274.971001
 51
30.0
  0
ARC
  5
4A4
100
AcDbEntity
  8
0
370
    -3
  6
Continuous
100
AcDbCircle
 10
-407.080302
 20
-104.181332
 30
0.0
 40
2.0
100
AcDbArc
 50
30.0
 51
104.816886
  0
ARC
  5
4A5
100
AcDbEntity
  8
0
370
    -3
  6
Continuous
100
AcDbCircle
 10
-406.04743
 20
-105.970318
 30
0.0
 40
2.0
100
AcDbArc
 50
286.164776
 51
30.0
  0
ARC
  5
4A6
100
AcDbEntity
  8
0
370
    -3
  6
Continuous
100
AcDbCircle
 10
-401.959688
 20
-113.050495
 30
0.0
 40
2.0
100
AcDbArc
 50
30.0
 51
109.78052
  0
ARC
  5
4A7
100
AcDbEntity
  8
0
370
    -3
  6
Continuous
100
AcDbCircle
 10
-400.944567
 20
-114.808737
 30
0.0
 40
2.0
100
AcDbArc
 50
290.405932
 51
30.0
  0
ARC
  5
4A8
100
AcDbEntity
  8
0
370
    -3
  6
Continuous
100
AcDbCircle
 10
-396.899075
 20
-121.815735
 30
0.0
 40
2.0
100
AcDbArc
 50
30.0
 51
112.29074
  0
ARC
  5
4A9
100
AcDbEntity
  8
0
370
    -3
  6
Continuous
100
AcDbCircle
 10
-395.890384
 20
-123.562839
 30
0.0
 40
2.0
100
AcDbArc
 50
292.651339
 51
30.0
  0
ARC
  5
4AA
100
AcDbEntity
  8
0
370
    -3
  6
Continuous
100
AcDbCircle
 10
-391.862504
 20
-130.539331
 30
0.0
 40
2.0
100
AcDbArc
 50
30.0
 51
113.809003
  0
ARC
  5
4AB
100
AcDbEntity
  8
0
370
    -3
  6
Continuous
100
AcDbCircle
 10
-390.856861
 20
-132.281156
 30
0.0
 40
2.0
100
AcDbArc
 50
294.043488
 51
30.0
  0
ARC
  5
4AC
100
AcDbEntity
  8
0
370
    -3
  6
Continuous
100
AcDbCircle
 10
-361.748082
 20
-78.379622
 30
0.0
 40
2.0
100
AcDbArc
 50
186.190997
 51
270.0
  0
ARC
  5
4AD
100
AcDbEntity
  8
0
370
    -3
  6
Continuous
100
AcDbCircle
 10
-382.149224
 20
-127.363226
 30
0.0
 40
2.0
100
AcDbArc
 50
210.0
 51
304.8706
  0
ARC
  5
4AE
100
AcDbEntity
  8
0
370
    -3
  6
Continuous
100
AcDbCircle
 10
-369.803841
 20
-78.379622
 30
0.0
 40
2.0
100
AcDbArc
 50
270.0
 51
7.348661
  0
ARC
  5
4AF
100
AcDbEntity
  8
0
370
    -3
  6
Continuous
100
AcDbCircle
 10
-383.152991
 20
-125.62465
 30
0.0
 40
2.0
100
AcDbArc
 50
125.062093
 51
210.0
  0
ARC
  5
4B0
100
AcDbEntity
  8
0
370
    -3
  6
Continuous
100
AcDbCircle
 10
-371.821224
 20
-78.379622
 30
0.0
 40
2.0
100
AcDbArc
 50
187.70926
 51
270.0
  0
ARC
  5
4B1
100
AcDbEntity
  8
0
370
    -3
  6
Continuous
100
AcDbCircle
 10
-387.171589
 20
-118.664234
 30
0.0
 40
2.0
100
AcDbArc
 50
210.0
 51
306.007069
  0
ARC
  5
4B2
100
AcDbEntity
  8
0
370
    -3
  6
Continuous
100
AcDbCircle
 10
-379.912208
 20
-78.379622
 30
0.0
 40
2.0
100
AcDbArc
 50
270.0
 51
9.594068
  0
ARC
  5
4B3
100
AcDbEntity
  8
0
370
    -3
  6
Continuous
100
AcDbCircle
 10
-388.177382
 20
-116.92215
 30
0.0
 40
2.0
100
AcDbArc
 50
126.301256
 51
210.0
  0
ARC
  5
4B4
100
AcDbEntity
  8
0
370
    -3
  6
Continuous
100
AcDbCircle
 10
-381.942451
 20
-78.379622
 30
0.0
 40
2.0
100
AcDbArc
 50
190.21948
 51
270.0
  0
ARC
  5
4B5
100
AcDbEntity
  8
0
370
    -3
  6
Continuous
100
AcDbCircle
 10
-392.207661
 20
-109.941501
 30
0.0
 40
2.0
100
AcDbArc
 50
210.0
 51
307.83748
  0
ARC
  5
4B6
100
AcDbEntity
  8
0
370
    -3
  6
Continuous
100
AcDbCircle
 10
-390.117935
 20
-78.379622
 30
0.0
 40
2.0
100
AcDbArc
 50
270.0
 51
13.835224
  0
ARC
  5
4B7
100
AcDbEntity
  8
0
370
    -3
  6
Continuous
100
AcDbCircle
 10
-393.217708
 20
-108.192049
 30
0.0
 40
2.0
100
AcDbArc
 50
128.346619
 51
210.0
  0
ARC
  5
4B8
100
AcDbEntity
  8
0
370
    -3
  6
Continuous
100
AcDbCircle
 10
-392.183678
 20
-78.379622
 30
0.0
 40
2.0
100
AcDbArc
 50
195.183114
 51
270.0
  0
ARC
  5
4B9
100
AcDbEntity
  8
0
370
    -3
  6
Continuous
100
AcDbCircle
 10
-397.275789
 20
-101.163247
 30
0.0
 40
2.0
100
AcDbArc
 50
210.0
 51
311.282824
  0
ARC
  5
4BA
100
AcDbEntity
  8
0
370
    -3
  6
Continuous
100
AcDbCircle
 10
-400.671427
 20
-78.379622
 30
0.0
 40
2.0
100
AcDbArc
 50
270.0
 51
25.028999
  0
ARC
  5
4BB
100
AcDbEntity
  8
0
370
    -3
  6
Continuous
100
AcDbCircle
 10
-398.297436
 20
-99.393701
 30
0.0
 40
2.0
100
AcDbArc
 50
132.373625
 51
210.0
  0
ARC
  5
4BC
100
AcDbEntity
  8
0
370
    -3
  6
Continuous
100
AcDbCircle
 10
-402.924367
 20
-78.379622
 30
0.0
 40
2.0
100
AcDbArc
 50
210.0
 51
270.0
  0
ARC
  5
4BD
100
AcDbEntity
  8
0
370
    -3
  6
Continuous
100
AcDbCircle
 10
-402.455377
 20
-92.191937
 30
0.0
 40
2.0
100
AcDbArc
 50
210.0
 51
320.252247
  0
ARC
  5
4BE
100
AcDbEntity
  8
0
370
    -3
  6
Continuous
100
AcDbCircle
 10
-382.149224
 20
-40.396019
 30
0.0
 40
2.0
100
AcDbArc
 50
55.1294
 51
150.0
  0
ARC
  5
4BF
100
AcDbEntity
  8
0
370
    -3
  6
Continuous
100
AcDbCircle
 10
-403.534817
 20
-90.322292
 30
0.0
 40
2.0
100
AcDbArc
 50
144.14774
 51
210.0
  0
ARC
  5
4C0
100
AcDbEntity
  8
0
370
    -3
  6
Continuous
100
AcDbCircle
 10
-383.152991
 20
-42.134594
 30
0.0
 40
2.0
100
AcDbArc
 50
150.0
 51
234.937907
  0
ARC
  5
4C1
100
AcDbEntity
  8
0
370
    -3
  6
Continuous
100
AcDbCircle
 10
-402.924367
 20
-89.379622
 30
0.0
 40
2.0
100
AcDbArc
 50
90.0
 51
150.0
  0
ARC
  5
4C2
100
AcDbEntity
  8
0
370
    -3
  6
Continuous
100
AcDbCircle
 10
-387.171589
 20
-49.09501
 30
0.0
 40
2.0
100
AcDbArc
 50
53.992931
 51
150.0
  0
ARC
  5
4C3
100
AcDbEntity
  8
0
370
    -3
  6
Continuous
100
AcDbCircle
 10
-400.671427
 20
-89.379622
 30
0.0
 40
2.0
100
AcDbArc
 50
334.971001
 51
90.0
  0
ARC
  5
4C4
100
AcDbEntity
  8
0
370
    -3
  6
Continuous
100
AcDbCircle
 10
-388.177382
 20
-50.837095
 30
0.0
 40
2.0
100
AcDbArc
 50
150.0
 51
233.698744
  0
ARC
  5
4C5
100
AcDbEntity
  8
0
370
    -3
  6
Continuous
100
AcDbCircle
 10
-392.183678
 20
-89.379622
 30
0.0
 40
2.0
100
AcDbArc
 50
90.0
 51
164.816886
  0
ARC
  5
4C6
100
AcDbEntity
  8
0
370
    -3
  6
Continuous
100
AcDbCircle
 10
-392.207661
 20
-57.817743
 30
0.0
 40
2.0
100
AcDbArc
 50
52.16252
 51
150.0
  0
ARC
  5
4C7
100
AcDbEntity
  8
0
370
    -3
  6
Continuous
100
AcDbCircle
 10
-390.117935
 20
-89.379622
 30
0.0
 40
2.0
100
AcDbArc
 50
346.164776
 51
90.0
  0
ARC
  5
4C8
100
AcDbEntity
  8
0
370
    -3
  6
Continuous
100
AcDbCircle
 10
-393.217708
 20
-59.567196
 30
0.0
 40
2.0
100
AcDbArc
 50
150.0
 51
231.653381
  0
ARC
  5
4C9
100
AcDbEntity
  8
0
370
    -3
  6
Continuous
100
AcDbCircle
 10
-381.942451
 20
-89.379622
 30
0.0
 40
2.0
100
AcDbArc
 50
90.0
 51
169.78052
  0
ARC
  5
4CA
100
AcDbEntity
  8
0
370
    -3
  6
Continuous
100
AcDbCircle
 10
-397.275789
 20
-66.595997
 30
0.0
 40
2.0
100
AcDbArc
 50
48.717176
 51
150.0
  0
ARC
  5
4CB
100
AcDbEntity
  8
0
370
    -3
  6
Continuous
100
AcDbCircle
 10
-379.912208
 20
-89.379622
 30
0.0
 40
2.0
100
AcDbArc
 50
350.405932
 51
90.0
  0
ARC
  5
4CC
100
AcDbEntity
  8
0
370
    -3
  6
Continuous
100
AcDbCircle
 10
-398.297436
 20
-68.365543
 30
0.0
 40
2.0
100
AcDbArc
 50
150.0
 51
227.626375
  0
ARC
  5
4CD
100
AcDbEntity
  8
0
370
    -3
  6
Continuous
100
AcDbCircle
 10
-371.821224
 20
-89.379622
 30
0.0
 40
2.0
100
AcDbArc
 50
90.0
 51
172.29074
  0
ARC
  5
4CE
100
AcDbEntity
  8
0
370
    -3
  6
Continuous
100
AcDbCircle
 10
-402.455377
 20
-75.567307
 30
0.0
 40
2.0
100
AcDbArc
 50
39.747753
 51
150.0
  0
ARC
  5
4CF
100
AcDbEntity
  8
0
370
    -3
  6
Continuous
100
AcDbCircle
 10
-369.803841
 20
-89.379622
 30
0.0
 40
2.0
100
AcDbArc
 50
352.651339
 51
90.0
  0
ARC
  5
4D0
100
AcDbEntity
  8
0
370
    -3
  6
Continuous
100
AcDbCircle
 10
-403.534817
 20
-77.436953
 30
0.0
 40
2.0
100
AcDbArc
 50
150.0
 51
215.85226
  0
ARC
  5
4D1
100
AcDbEntity
  8
0
370
    -3
  6
Continuous
100
AcDbCircle
 10
-361.748082
 20
-89.379622
 30
0.0
 40
2.0
100
AcDbArc
 50
90.0
 51
173.809003
  0
ARC
  5
4D2
100
AcDbEntity
  8
0
370
    -3
  6
Continuous
100
AcDbCircle
 10
-412.450646
 20
-72.879622
 30
0.0
 40
2.0
100
AcDbArc
 50
270.0
 51
330.0
  0
ARC
  5
4D3
100
AcDbEntity
  8
0
370
    -3
  6
Continuous
100
AcDbCircle
 10
-359.736796
 20
-89.379622
 30
0.0
 40
2.0
100
AcDbArc
 50
354.043488
 51
90.0
  0
ARC
  5
4D4
100
AcDbEntity
  8
0
370
    -3
  6
Continuous
100
AcDbCircle
 10
-411.324177
 20
-70.928519
 30
0.0
 40
2.0
100
AcDbArc
 50
330.0
 51
85.028999
  0
ARC
  5
4D5
100
AcDbEntity
  8
0
370
    -3
  6
Continuous
100
AcDbCircle
 10
-407.080302
 20
-63.577913
 30
0.0
 40
2.0
100
AcDbArc
 50
255.183114
 51
330.0
  0
ARC
  5
4D6
100
AcDbEntity
  8
0
370
    -3
  6
Continuous
100
AcDbCircle
 10
-406.04743
 20
-61.788927
 30
0.0
 40
2.0
100
AcDbArc
 50
330.0
 51
73.835224
  0
ARC
  5
4D7
100
AcDbEntity
  8
0
370
    -3
  6
Continuous
100
AcDbCircle
 10
-401.959688
 20
-54.70875
 30
0.0
 40
2.0
100
AcDbArc
 50
250.21948
 51
330.0
  0
ARC
  5
4D8
100
AcDbEntity
  8
0
370
    -3
  6
Continuous
100
AcDbCircle
 10
-400.944567
 20
-52.950508
 30
0.0
 40
2.0
100
AcDbArc
 50
330.0
 51
69.594068
  0
ARC
  5
4D9
100
AcDbEntity
  8
0
370
    -3
  6
Continuous
100
AcDbCircle
 10
-435.733832
 20
-64.961555
 30
0.0
 40
36.944
100
AcDbArc
 50
140.905432
 51
175.66015
  0
ARC
  5
4DA
100
AcDbEntity
  8
0
370
    -3
  6
Continuous
100
AcDbCircle
 10
-396.899075
 20
-45.94351
 30
0.0
 40
2.0
100
AcDbArc
 50
247.70926
 51
330.0
  0
ARC
  5
4DB
100
AcDbEntity
  8
0
370
    -3
  6
Continuous
100
AcDbCircle
 10
-412.450646
 20
-83.879622
 30
0.0
 40
66.944
100
AcDbArc
 50
129.094568
 51
140.905432
  0
ARC
  5
4DC
100
AcDbEntity
  8
0
370
    -3
  6
Continuous
100
AcDbCircle
 10
-395.890384
 20
-44.196406
 30
0.0
 40
2.0
100
AcDbArc
 50
330.0
 51
67.348661
  0
ARC
  5
4DD
100
AcDbEntity
  8
0
370
    -3
  6
Continuous
100
AcDbCircle
 10
-431.368713
 20
-60.596436
 30
0.0
 40
36.944
100
AcDbArc
 50
94.33985
 51
129.094568
  0
ARC
  5
4DE
100
AcDbEntity
  8
0
370
    -3
  6
Continuous
100
AcDbCircle
 10
-391.862504
 20
-37.219914
 30
0.0
 40
2.0
100
AcDbArc
 50
246.190997
 51
330.0
  0
ARC
  5
4DF
100
AcDbEntity
  8
0
370
    -3
  6
Continuous
100
AcDbCircle
 10
-412.450646
 20
-309.879622
 30
0.0
 40
286.944
100
AcDbArc
 50
85.66015
 51
94.33985
  0
ARC
  5
4E0
100
AcDbEntity
  8
0
370
    -3
  6
Continuous
100
AcDbCircle
 10
-390.856861
 20
-35.478089
 30
0.0
 40
2.0
100
AcDbArc
 50
330.0
 51
65.956512
  0
ARC
  5
4E1
100
AcDbEntity
  8
0
370
    -3
  6
Continuous
100
AcDbCircle
 10
-434.95784
 20
-35.896019
 30
0.0
 40
2.0
100
AcDbArc
 50
115.1294
 51
210.0
  0
ARC
  5
4E2
100
AcDbEntity
  8
0
370
    -3
  6
Continuous
100
AcDbCircle
 10
-433.954073
 20
-37.634594
 30
0.0
 40
2.0
100
AcDbArc
 50
210.0
 51
294.937907
  0
LINE
  5
4E3
100
AcDbEntity
  8
0
370
    -3
  6
CENTER
100
AcDbLine
 10
-412.450646
 20
-2.66313
 30
0.0
 11
-412.450646
 21
-168.401774
 31
0.0
  0
ARC
  5
4E4
100
AcDbEntity
  8
0
370
    -3
  6
Continuous
100
AcDbCircle
 10
-429.935475
 20
-44.59501
 30
0.0
 40
2.0
100
AcDbArc
 50
113.992931
 51
210.0
  0
ARC
  5
4E5
100
AcDbEntity
  8
0
370
    -3
  6
Continuous
100
AcDbCircle
 10
-638.450646
 20
-83.879622
 30
0.0
 40
286.944
100
AcDbArc
 50
355.66015
 51
4.33985
  0
LINE
  5
4E6
100
AcDbEntity
  8
0
370
    -3
  6
CENTER
100
AcDbLine
 10
-328.869934
 20
-83.879622
 30
0.0
 11
-492.508198
 21
-83.879622
 31
0.0
  0
ARC
  5
4E7
100
AcDbEntity
  8
0
370
    -3
  6
Continuous
100
AcDbCircle
 10
-428.929682
 20
-46.337095
 30
0.0
 40
2.0
100
AcDbArc
 50
210.0
 51
293.698744
  0
ARC
  5
4E8
100
AcDbEntity
  8
0
370
    -3
  6
Continuous
100
AcDbCircle
 10
-389.167461
 20
-102.797689
 30
0.0
 40
36.944
100
AcDbArc
 50
320.905432
 51
355.66015
  0
ARC
  5
4E9
100
AcDbEntity
  8
0
370
    -3
  6
Continuous
100
AcDbCircle
 10
-424.899403
 20
-53.317743
 30
0.0
 40
2.0
100
AcDbArc
 50
112.16252
 51
210.0
  0
ARC
  5
4EA
100
AcDbEntity
  8
0
370
    -3
  6
Continuous
100
AcDbCircle
 10
-423.889356
 20
-55.067196
 30
0.0
 40
2.0
100
AcDbArc
 50
210.0
 51
291.653381
  0
ARC
  5
4EB
100
AcDbEntity
  8
0
370
    -3
  6
Continuous
100
AcDbCircle
 10
-412.450646
 20
142.120378
 30
0.0
 40
286.944
100
AcDbArc
 50
265.66015
 51
274.33985
  0
ARC
  5
4EC
100
AcDbEntity
  8
0
370
    -3
  6
Continuous
100
AcDbCircle
 10
-419.831276
 20
-62.095997
 30
0.0
 40
2.0
100
AcDbArc
 50
108.717176
 51
210.0
  0
ARC
  5
4ED
100
AcDbEntity
  8
0
370
    -3
  6
Continuous
100
AcDbCircle
 10
-431.368713
 20
-107.162808
 30
0.0
 40
36.944
100
AcDbArc
 50
230.905432
 51
265.66015
  0
ARC
  5
4EE
100
AcDbEntity
  8
0
370
    -3
  6
Continuous
100
AcDbCircle
 10
-186.450646
 20
-83.879622
 30
0.0
 40
286.944
100
AcDbArc
 50
175.66015
 51
184.33985
  0
ARC
  5
4EF
100
AcDbEntity
  8
0
370
    -3
  6
Continuous
100
AcDbCircle
 10
-186.450646
 20
-83.879622
 30
0.0
 40
300.8
100
AcDbArc
 50
175.66015
 51
184.33985
  0
ARC
  5
4F0
100
AcDbEntity
  8
0
370
    -3
  6
Continuous
100
AcDbCircle
 10
-431.368713
 20
-60.596436
 30
0.0
 40
50.8
100
AcDbArc
 50
94.33985
 51
129.094568
  0
ARC
  5
4F1
100
AcDbEntity
  8
0
370
    -3
  6
Continuous
100
AcDbCircle
 10
-435.733832
 20
-64.961555
 30
0.0
 40
50.8
100
AcDbArc
 50
140.905432
 51
175.66015
  0
LINE
  5
4F2
100
AcDbEntity
  8
0
370
    -3
  6
Continuous
100
AcDbLine
 10
-436.689891
 20
-36.896019
 30
0.0
 11
-435.686124
 21
-38.634594
 31
0.0
  0
LINE
  5
4F3
100
AcDbEntity
  8
0
370
    -3
  6
Continuous
100
AcDbLine
 10
-431.667526
 20
-45.59501
 30
0.0
 11
-430.661733
 21
-47.337095
 31
0.0
  0
LINE
  5
4F4
100
AcDbEntity
  8
0
370
    -3
  6
Continuous
100
AcDbLine
 10
-426.631454
 20
-54.317743
 30
0.0
 11
-425.621407
 21
-56.067196
 31
0.0
  0
LINE
  5
4F5
100
AcDbEntity
  8
0
370
    -3
  6
Continuous
100
AcDbLine
 10
-421.563326
 20
-63.095997
 30
0.0
 11
-420.541679
 21
-64.865543
 31
0.0
  0
LINE
  5
4F6
100
AcDbEntity
  8
0
370
    -3
  6
Continuous
100
AcDbLine
 10
-416.383738
 20
-72.067307
 30
0.0
 11
-415.304298
 21
-73.936953
 31
0.0
  0
ARC
  5
4F7
100
AcDbEntity
  8
0
370
    -3
  6
Continuous
100
AcDbCircle
 10
-412.450646
 20
-83.879622
 30
0.0
 40
9.0
100
AcDbArc
 50
90.0
 51
95.85226
  0
ARC
  5
4F8
100
AcDbEntity
  8
0
370
    -3
  6
Continuous
100
AcDbCircle
 10
-412.450646
 20
-83.879622
 30
0.0
 40
15.0
100
AcDbArc
 50
85.028999
 51
99.747753
  0
LINE
  5
4F9
100
AcDbEntity
  8
0
370
    -3
  6
Continuous
100
AcDbLine
 10
-409.592126
 20
-71.928519
 30
0.0
 11
-410.718596
 21
-73.879622
 31
0.0
  0
ARC
  5
4FA
100
AcDbEntity
  8
0
370
    -3
  6
Continuous
100
AcDbCircle
 10
-412.450646
 20
-83.879622
 30
0.0
 40
19.0
100
AcDbArc
 50
75.183114
 51
107.626375
  0
ARC
  5
4FB
100
AcDbEntity
  8
0
370
    -3
  6
Continuous
100
AcDbCircle
 10
-412.450646
 20
-83.879622
 30
0.0
 40
25.0
100
AcDbArc
 50
73.835224
 51
108.717176
  0
LINE
  5
4FC
100
AcDbEntity
  8
0
370
    -3
  6
Continuous
100
AcDbLine
 10
-404.31538
 20
-62.788927
 30
0.0
 11
-405.348251
 21
-64.577913
 31
0.0
  0
ARC
  5
4FD
100
AcDbEntity
  8
0
370
    -3
  6
Continuous
100
AcDbCircle
 10
-412.450646
 20
-83.879622
 30
0.0
 40
29.0
100
AcDbArc
 50
70.21948
 51
111.653381
  0
ARC
  5
4FE
100
AcDbEntity
  8
0
370
    -3
  6
Continuous
100
AcDbCircle
 10
-412.450646
 20
-83.879622
 30
0.0
 40
49.0
100
AcDbArc
 50
66.190997
 51
114.937907
  0
LINE
  5
4FF
100
AcDbEntity
  8
0
370
    -3
  6
Continuous
100
AcDbLine
 10
-389.12481
 20
-36.478089
 30
0.0
 11
-390.130453
 21
-38.219914
 31
0.0
  0
ARC
  5
500
100
AcDbEntity
  8
0
370
    -3
  6
Continuous
100
AcDbCircle
 10
-412.450646
 20
-83.879622
 30
0.0
 40
55.0
100
AcDbArc
 50
65.956512
 51
115.1294
  0
ARC
  5
501
100
AcDbEntity
  8
0
370
    -3
  6
Continuous
100
AcDbCircle
 10
-412.450646
 20
-83.879622
 30
0.0
 40
45.0
100
AcDbArc
 50
67.348661
 51
113.992931
  0
ARC
  5
502
100
AcDbEntity
  8
0
370
    -3
  6
Continuous
100
AcDbCircle
 10
-412.450646
 20
-83.879622
 30
0.0
 40
39.0
100
AcDbArc
 50
67.70926
 51
113.698744
  0
LINE
  5
503
100
AcDbEntity
  8
0
370
    -3
  6
Continuous
100
AcDbLine
 10
-394.158333
 20
-45.196406
 30
0.0
 11
-395.167024
 21
-46.94351
 31
0.0
  0
LINE
  5
504
100
AcDbEntity
  8
0
370
    -3
  6
Continuous
100
AcDbLine
 10
-399.212516
 20
-53.950508
 30
0.0
 11
-400.227638
 21
-55.70875
 31
0.0
  0
ARC
  5
505
100
AcDbEntity
  8
0
370
    -3
  6
Continuous
100
AcDbCircle
 10
-412.450646
 20
-83.879622
 30
0.0
 40
35.0
100
AcDbArc
 50
69.594068
 51
112.16252
  0
LINE
  5
506
100
AcDbEntity
  8
0
370
    -3
  6
Continuous
100
AcDbLine
 10
-436.689891
 20
-130.863226
 30
0.0
 11
-435.686124
 21
-129.12465
 31
0.0
  0
LINE
  5
507
100
AcDbEntity
  8
0
370
    -3
  6
Continuous
100
AcDbLine
 10
-431.667526
 20
-122.164234
 30
0.0
 11
-430.661733
 21
-120.42215
 31
0.0
  0
ARC
  5
508
100
AcDbEntity
  8
0
370
    -3
  6
Continuous
100
AcDbCircle
 10
-418.809628
 20
-63.865543
 30
0.0
 40
2.0
100
AcDbArc
 50
210.0
 51
287.626375
  0
LINE
  5
509
100
AcDbEntity
  8
0
370
    -3
  6
Continuous
100
AcDbLine
 10
-426.631454
 20
-113.441501
 30
0.0
 11
-425.621407
 21
-111.692049
 31
0.0
  0
ARC
  5
50A
100
AcDbEntity
  8
0
370
    -3
  6
Continuous
100
AcDbCircle
 10
-414.651688
 20
-71.067307
 30
0.0
 40
2.0
100
AcDbArc
 50
99.747753
 51
210.0
  0
LINE
  5
50B
100
AcDbEntity
  8
0
370
    -3
  6
Continuous
100
AcDbLine
 10
-421.563326
 20
-104.663247
 30
0.0
 11
-420.541679
 21
-102.893701
 31
0.0
  0
ARC
  5
50C
100
AcDbEntity
  8
0
370
    -3
  6
Continuous
100
AcDbCircle
 10
-413.572247
 20
-72.936953
 30
0.0
 40
2.0
100
AcDbArc
 50
210.0
 51
275.85226
  0
LINE
  5
50D
100
AcDbEntity
  8
0
370
    -3
  6
Continuous
100
AcDbLine
 10
-416.383738
 20
-95.691937
 30
0.0
 11
-415.304298
 21
-93.822292
 31
0.0
  0
ARC
  5
50E
100
AcDbEntity
  8
0
370
    -3
  6
Continuous
100
AcDbCircle
 10
-421.366476
 20
-77.436953
 30
0.0
 40
2.0
100
AcDbArc
 50
324.14774
 51
30.0
  0
ARC
  5
50F
100
AcDbEntity
  8
0
370
    -3
  6
Continuous
100
AcDbCircle
 10
-412.450646
 20
-83.879622
 30
0.0
 40
9.0
100
AcDbArc
 50
264.14774
 51
270.0
  0
ARC
  5
510
100
AcDbEntity
  8
0
370
    -3
  6
Continuous
100
AcDbCircle
 10
-412.450646
 20
-83.879622
 30
0.0
 40
15.0
100
AcDbArc
 50
260.252247
 51
274.971001
  0
ARC
  5
511
100
AcDbEntity
  8
0
370
    -3
  6
Continuous
100
AcDbCircle
 10
-422.445916
 20
-75.567307
 30
0.0
 40
2.0
100
AcDbArc
 50
30.0
 51
140.252247
  0
LINE
  5
512
100
AcDbEntity
  8
0
370
    -3
  6
Continuous
100
AcDbLine
 10
-409.592126
 20
-95.830725
 30
0.0
 11
-410.718596
 21
-93.879622
 31
0.0
  0
ARC
  5
513
100
AcDbEntity
  8
0
370
    -3
  6
Continuous
100
AcDbCircle
 10
-426.603856
 20
-68.365543
 30
0.0
 40
2.0
100
AcDbArc
 50
312.373625
 51
30.0
  0
ARC
  5
514
100
AcDbEntity
  8
0
370
    -3
  6
Continuous
100
AcDbCircle
 10
-412.450646
 20
-83.879622
 30
0.0
 40
19.0
100
AcDbArc
 50
252.373625
 51
284.816886
  0
ARC
  5
515
100
AcDbEntity
  8
0
370
    -3
  6
Continuous
100
AcDbCircle
 10
-427.625504
 20
-66.595997
 30
0.0
 40
2.0
100
AcDbArc
 50
30.0
 51
131.282824
  0
ARC
  5
516
100
AcDbEntity
  8
0
370
    -3
  6
Continuous
100
AcDbCircle
 10
-412.450646
 20
-83.879622
 30
0.0
 40
25.0
100
AcDbArc
 50
251.282824
 51
286.164776
  0
ARC
  5
517
100
AcDbEntity
  8
0
370
    -3
  6
Continuous
100
AcDbCircle
 10
-431.683585
 20
-59.567196
 30
0.0
 40
2.0
100
AcDbArc
 50
308.346619
 51
30.0
  0
LINE
  5
518
100
AcDbEntity
  8
0
370
    -3
  6
Continuous
100
AcDbLine
 10
-404.31538
 20
-104.970318
 30
0.0
 11
-405.348251
 21
-103.181332
 31
0.0
  0
ARC
  5
519
100
AcDbEntity
  8
0
370
    -3
  6
Continuous
100
AcDbCircle
 10
-432.693632
 20
-57.817743
 30
0.0
 40
2.0
100
AcDbArc
 50
30.0
 51
127.83748
  0
ARC
  5
51A
100
AcDbEntity
  8
0
370
    -3
  6
Continuous
100
AcDbCircle
 10
-412.450646
 20
-83.879622
 30
0.0
 40
29.0
100
AcDbArc
 50
248.346619
 51
289.78052
  0
ARC
  5
51B
100
AcDbEntity
  8
0
370
    -3
  6
Continuous
100
AcDbCircle
 10
-436.723911
 20
-50.837095
 30
0.0
 40
2.0
100
AcDbArc
 50
306.301256
 51
30.0
  0
ARC
  5
51C
100
AcDbEntity
  8
0
370
    -3
  6
Continuous
100
AcDbCircle
 10
-412.450646
 20
-83.879622
 30
0.0
 40
49.0
100
AcDbArc
 50
245.062093
 51
293.809003
  0
ARC
  5
51D
100
AcDbEntity
  8
0
370
    -3
  6
Continuous
100
AcDbCircle
 10
-437.729704
 20
-49.09501
 30
0.0
 40
2.0
100
AcDbArc
 50
30.0
 51
126.007069
  0
LINE
  5
51E
100
AcDbEntity
  8
0
370
    -3
  6
Continuous
100
AcDbLine
 10
-389.12481
 20
-131.281156
 30
0.0
 11
-390.130453
 21
-129.539331
 31
0.0
  0
ARC
  5
51F
100
AcDbEntity
  8
0
370
    -3
  6
Continuous
100
AcDbCircle
 10
-441.748302
 20
-42.134594
 30
0.0
 40
2.0
100
AcDbArc
 50
305.062093
 51
30.0
  0
ARC
  5
520
100
AcDbEntity
  8
0
370
    -3
  6
Continuous
100
AcDbCircle
 10
-412.450646
 20
-83.879622
 30
0.0
 40
55.0
100
AcDbArc
 50
244.8706
 51
294.043488
  0
ARC
  5
521
100
AcDbEntity
  8
0
370
    -3
  6
Continuous
100
AcDbCircle
 10
-442.752069
 20
-40.396019
 30
0.0
 40
2.0
100
AcDbArc
 50
30.0
 51
124.8706
  0
ARC
  5
522
100
AcDbEntity
  8
0
370
    -3
  6
Continuous
100
AcDbCircle
 10
-412.450646
 20
-83.879622
 30
0.0
 40
45.0
100
AcDbArc
 50
246.007069
 51
292.651339
  0
ARC
  5
523
100
AcDbEntity
  8
0
370
    -3
  6
Continuous
100
AcDbCircle
 10
-465.164497
 20
-78.379622
 30
0.0
 40
2.0
100
AcDbArc
 50
174.043488
 51
270.0
  0
ARC
  5
524
100
AcDbEntity
  8
0
370
    -3
  6
Continuous
100
AcDbCircle
 10
-412.450646
 20
-83.879622
 30
0.0
 40
39.0
100
AcDbArc
 50
246.301256
 51
292.29074
  0
ARC
  5
525
100
AcDbEntity
  8
0
370
    -3
  6
Continuous
100
AcDbCircle
 10
-463.15321
 20
-78.379622
 30
0.0
 40
2.0
100
AcDbArc
 50
270.0
 51
353.809003
  0
LINE
  5
526
100
AcDbEntity
  8
0
370
    -3
  6
Continuous
100
AcDbLine
 10
-394.158333
 20
-122.562839
 30
0.0
 11
-395.167024
 21
-120.815735
 31
0.0
  0
ARC
  5
527
100
AcDbEntity
  8
0
370
    -3
  6
Continuous
100
AcDbCircle
 10
-455.097452
 20
-78.379622
 30
0.0
 40
2.0
100
AcDbArc
 50
172.651339
 51
270.0
  0
LINE
  5
528
100
AcDbEntity
  8
0
370
    -3
  6
Continuous
100
AcDbLine
 10
-399.212516
 20
-113.808737
 30
0.0
 11
-400.227638
 21
-112.050495
 31
0.0
  0
ARC
  5
529
100
AcDbEntity
  8
0
370
    -3
  6
Continuous
100
AcDbCircle
 10
-453.080069
 20
-78.379622
 30
0.0
 40
2.0
100
AcDbArc
 50
270.0
 51
352.29074
  0
ARC
  5
52A
100
AcDbEntity
  8
0
370
    -3
  6
Continuous
100
AcDbCircle
 10
-412.450646
 20
-83.879622
 30
0.0
 40
35.0
100
AcDbArc
 50
247.83748
 51
290.405932
  0
ARC
  5
52B
100
AcDbEntity
  8
0
370
    -3
  6
Continuous
100
AcDbCircle
 10
-444.989085
 20
-78.379622
 30
0.0
 40
2.0
100
AcDbArc
 50
170.405932
 51
270.0
  0
LINE
  5
52C
100
AcDbEntity
  8
0
370
    -3
  6
Continuous
100
AcDbLine
 10
-420.713865
 20
-74.567307
 30
0.0
 11
-419.634425
 21
-76.436953
 31
0.0
  0
ARC
  5
52D
100
AcDbEntity
  8
0
370
    -3
  6
Continuous
100
AcDbCircle
 10
-442.958842
 20
-78.379622
 30
0.0
 40
2.0
100
AcDbArc
 50
270.0
 51
349.78052
  0
ARC
  5
52E
100
AcDbEntity
  8
0
370
    -3
  6
Continuous
100
AcDbCircle
 10
-412.450646
 20
-83.879622
 30
0.0
 40
9.0
100
AcDbArc
 50
144.14774
 51
150.0
  0
ARC
  5
52F
100
AcDbEntity
  8
0
370
    -3
  6
Continuous
100
AcDbCircle
 10
-434.783358
 20
-78.379622
 30
0.0
 40
2.0
100
AcDbArc
 50
166.164776
 51
270.0
  0
ARC
  5
530
100
AcDbEntity
  8
0
370
    -3
  6
Continuous
100
AcDbCircle
 10
-412.450646
 20
-83.879622
 30
0.0
 40
15.0
100
AcDbArc
 50
140.252247
 51
154.971001
  0
ARC
  5
531
100
AcDbEntity
  8
0
370
    -3
  6
Continuous
100
AcDbCircle
 10
-432.717615
 20
-78.379622
 30
0.0
 40
2.0
100
AcDbArc
 50
270.0
 51
344.816886
  0
LINE
  5
532
100
AcDbEntity
  8
0
370
    -3
  6
Continuous
100
AcDbLine
 10
-424.229865
 20
-80.379622
 30
0.0
 11
-421.976926
 21
-80.379622
 31
0.0
  0
ARC
  5
533
100
AcDbEntity
  8
0
370
    -3
  6
Continuous
100
AcDbCircle
 10
-424.229865
 20
-78.379622
 30
0.0
 40
2.0
100
AcDbArc
 50
154.971001
 51
270.0
  0
LINE
  5
534
100
AcDbEntity
  8
0
370
    -3
  6
Continuous
100
AcDbLine
 10
-425.893453
 20
-65.595997
 30
0.0
 11
-424.871806
 21
-67.365543
 31
0.0
  0
ARC
  5
535
100
AcDbEntity
  8
0
370
    -3
  6
Continuous
100
AcDbCircle
 10
-421.976926
 20
-78.379622
 30
0.0
 40
2.0
100
AcDbArc
 50
270.0
 51
330.0
  0
ARC
  5
536
100
AcDbEntity
  8
0
370
    -3
  6
Continuous
100
AcDbCircle
 10
-412.450646
 20
-83.879622
 30
0.0
 40
19.0
100
AcDbArc
 50
132.373625
 51
164.816886
  0
ARC
  5
537
100
AcDbEntity
  8
0
370
    -3
  6
Continuous
100
AcDbCircle
 10
-421.976926
 20
-89.379622
 30
0.0
 40
2.0
100
AcDbArc
 50
30.0
 51
90.0
  0
ARC
  5
538
100
AcDbEntity
  8
0
370
    -3
  6
Continuous
100
AcDbCircle
 10
-412.450646
 20
-83.879622
 30
0.0
 40
25.0
100
AcDbArc
 50
131.282824
 51
166.164776
  0
ARC
  5
539
100
AcDbEntity
  8
0
370
    -3
  6
Continuous
100
AcDbCircle
 10
-424.229865
 20
-89.379622
 30
0.0
 40
2.0
100
AcDbArc
 50
90.0
 51
205.028999
  0
LINE
  5
53A
100
AcDbEntity
  8
0
370
    -3
  6
Continuous
100
AcDbLine
 10
-434.783358
 20
-80.379622
 30
0.0
 11
-432.717615
 21
-80.379622
 31
0.0
  0
ARC
  5
53B
100
AcDbEntity
  8
0
370
    -3
  6
Continuous
100
AcDbCircle
 10
-432.717615
 20
-89.379622
 30
0.0
 40
2.0
100
AcDbArc
 50
15.183114
 51
90.0
  0
LINE
  5
53C
100
AcDbEntity
  8
0
370
    -3
  6
Continuous
100
AcDbLine
 10
-430.961581
 20
-56.817743
 30
0.0
 11
-429.951534
 21
-58.567196
 31
0.0
  0
ARC
  5
53D
100
AcDbEntity
  8
0
370
    -3
  6
Continuous
100
AcDbCircle
 10
-434.783358
 20
-89.379622
 30
0.0
 40
2.0
100
AcDbArc
 50
90.0
 51
193.835224
  0
ARC
  5
53E
100
AcDbEntity
  8
0
370
    -3
  6
Continuous
100
AcDbCircle
 10
-412.450646
 20
-83.879622
 30
0.0
 40
29.0
100
AcDbArc
 50
128.346619
 51
169.78052
  0
ARC
  5
53F
100
AcDbEntity
  8
0
370
    -3
  6
Continuous
100
AcDbCircle
 10
-442.958842
 20
-89.379622
 30
0.0
 40
2.0
100
AcDbArc
 50
10.21948
 51
90.0
  0
LINE
  5
540
100
AcDbEntity
  8
0
370
    -3
  6
Continuous
100
AcDbLine
 10
-435.997653
 20
-48.09501
 30
0.0
 11
-434.99186
 21
-49.837095
 31
0.0
  0
LINE
  5
541
100
AcDbEntity
  8
0
370
    -3
  6
Continuous
100
AcDbLine
 10
-441.020018
 20
-39.396019
 30
0.0
 11
-440.016251
 21
-41.134594
 31
0.0
  0
ARC
  5
542
100
AcDbEntity
  8
0
370
    -3
  6
Continuous
100
AcDbCircle
 10
-412.450646
 20
-83.879622
 30
0.0
 40
49.0
100
AcDbArc
 50
125.062093
 51
173.809003
  0
LINE
  5
543
100
AcDbEntity
  8
0
370
    -3
  6
Continuous
100
AcDbLine
 10
-465.164497
 20
-80.379622
 30
0.0
 11
-463.15321
 21
-80.379622
 31
0.0
  0
ARC
  5
544
100
AcDbEntity
  8
0
370
    -3
  6
Continuous
100
AcDbCircle
 10
-412.450646
 20
-83.879622
 30
0.0
 40
55.0
100
AcDbArc
 50
124.8706
 51
174.043488
  0
ARC
  5
545
100
AcDbEntity
  8
0
370
    -3
  6
Continuous
100
AcDbCircle
 10
-412.450646
 20
-83.879622
 30
0.0
 40
45.0
100
AcDbArc
 50
126.007069
 51
172.651339
  0
ARC
  5
546
100
AcDbEntity
  8
0
370
    -3
  6
Continuous
100
AcDbCircle
 10
-412.450646
 20
-83.879622
 30
0.0
 40
39.0
100
AcDbArc
 50
126.301256
 51
172.29074
  0
LINE
  5
547
100
AcDbEntity
  8
0
370
    -3
  6
Continuous
100
AcDbLine
 10
-455.097452
 20
-80.379622
 30
0.0
 11
-453.080069
 21
-80.379622
 31
0.0
  0
LINE
  5
548
100
AcDbEntity
  8
0
370
    -3
  6
Continuous
100
AcDbLine
 10
-444.989085
 20
-80.379622
 30
0.0
 11
-442.958842
 21
-80.379622
 31
0.0
  0
ARC
  5
549
100
AcDbEntity
  8
0
370
    -3
  6
Continuous
100
AcDbCircle
 10
-412.450646
 20
-83.879622
 30
0.0
 40
35.0
100
AcDbArc
 50
127.83748
 51
170.405932
  0
LINE
  5
54A
100
AcDbEntity
  8
0
370
    -3
  6
Continuous
100
AcDbLine
 10
-420.713865
 20
-93.191937
 30
0.0
 11
-419.634425
 21
-91.322292
 31
0.0
  0
ARC
  5
54B
100
AcDbEntity
  8
0
370
    -3
  6
Continuous
100
AcDbCircle
 10
-412.450646
 20
-83.879622
 30
0.0
 40
9.0
100
AcDbArc
 50
210.0
 51
215.85226
  0
ARC
  5
54C
100
AcDbEntity
  8
0
370
    -3
  6
Continuous
100
AcDbCircle
 10
-412.450646
 20
-83.879622
 30
0.0
 40
15.0
100
AcDbArc
 50
205.028999
 51
219.747753
  0
LINE
  5
54D
100
AcDbEntity
  8
0
370
    -3
  6
Continuous
100
AcDbLine
 10
-424.229865
 20
-87.379622
 30
0.0
 11
-421.976926
 21
-87.379622
 31
0.0
  0
LINE
  5
54E
100
AcDbEntity
  8
0
370
    -3
  6
Continuous
100
AcDbLine
 10
-425.893453
 20
-102.163247
 30
0.0
 11
-424.871806
 21
-100.393701
 31
0.0
  0
LINE
  5
54F
100
AcDbEntity
  8
0
370
    -3
  6
Continuous
100
AcDbLine
 10
-451.950646
 20
-10.833488
 30
0.0
 11
-440.418145
 21
-10.60896
 31
0.0
  0
LINE
  5
550
100
AcDbEntity
  8
0
370
    -3
  6
Continuous
100
AcDbLine
 10
-460.450799
 20
-10.833488
 30
0.0
 11
-461.450646
 21
-11.85094
 31
0.0
  0
LINE
  5
551
100
AcDbEntity
  8
0
370
    -3
  6
Continuous
100
AcDbLine
 10
-460.450799
 20
-10.833488
 30
0.0
 11
-451.950646
 21
-10.833488
 31
0.0
  0
LINE
  5
552
100
AcDbEntity
  8
0
370
    -3
  6
Continuous
100
AcDbLine
 10
-461.450646
 20
-19.66091
 30
0.0
 11
-461.450646
 21
-11.85094
 31
0.0
  0
LINE
  5
553
100
AcDbEntity
  8
0
370
    -3
  6
Continuous
100
AcDbLine
 10
-374.450646
 20
-13.516506
 30
0.0
 11
-374.450646
 21
-8.879622
 31
0.0
  0
LINE
  5
554
100
AcDbEntity
  8
0
370
    -3
  6
Continuous
100
AcDbLine
 10
-363.450646
 20
-19.66091
 30
0.0
 11
-363.450646
 21
-9.901833
 31
0.0
  0
LINE
  5
555
100
AcDbEntity
  8
0
370
    -3
  6
Continuous
100
AcDbLine
 10
-363.949615
 20
-9.379669
 30
0.0
 11
-363.450646
 21
-9.901833
 31
0.0
  0
LINE
  5
556
100
AcDbEntity
  8
0
370
    -3
  6
Continuous
100
AcDbLine
 10
-363.949615
 20
-9.379669
 30
0.0
 11
-374.450646
 21
-8.90235
 31
0.0
  0
LINE
  5
557
100
AcDbEntity
  8
0
370
    -3
  6
Continuous
100
AcDbLine
 10
-393.279003
 20
-9.691201
 30
0.0
 11
-374.450646
 21
-9.324629
 31
0.0
  0
MTEXT
  5
559
100
AcDbEntity
  8
0
370
    -3
  6
Continuous
100
AcDbMText
 10
-479.627136
 20
215.052109
 30
0.0
 40
15.0
 41
0.0
 71
     7
 72
     1
  1
\W0.63;三菱ギヤードモータ  
  7
ZU_SHPTB00001
 11
1.0
 21
0.0
 31
0.0
 73
     1
 44
1.0
  0
MTEXT
  5
55A
100
AcDbEntity
  8
0
370
    -3
  6
Continuous
100
AcDbMText
 10
-479.627136
 20
215.052109
 30
0.0
 40
15.0
 41
0.0
 71
     7
 72
     1
  1
\W0.63;三菱ギヤードモータ  
  7
ZU_SHPTB00001
 11
1.0
 21
0.0
 31
0.0
 73
     1
 44
1.0
  0
MTEXT
  5
55B
100
AcDbEntity
  8
0
370
    -3
  6
Continuous
100
AcDbMText
 10
-479.627136
 20
181.152084
 30
0.0
 40
15.0
 41
0.0
 71
     7
 72
     1
  1
\W0.43;1.5kW
  7
ZU_SHPTB00001
 11
1.0
 21
0.0
 31
0.0
 73
     1
 44
1.0
  0
MTEXT
  5
55C
100
AcDbEntity
  8
0
370
    -3
  6
Continuous
100
AcDbMText
 10
-479.627136
 20
130.302078
 30
0.0
 40
15.0
 41
0.0
 71
     7
 72
     1
  1
\W0.43;SCALE\W0.72;  \W0.43;1/1
  7
ZU_SHPTB00001
 11
1.0
 21
0.0
 31
0.0
 73
     1
 44
1.0
  0
MTEXT
  5
55D
100
AcDbEntity
  8
0
370
    -3
  6
Continuous
100
AcDbMText
 10
-479.627136
 20
198.102097
 30
0.0
 40
15.0
 41
0.0
 71
     7
 72
     1
  1
\W0.48;GV-SSYF-RH
  7
ZU_SHPTB00001
 11
1.0
 21
0.0
 31
0.0
 73
     1
 44
1.0
  0
MTEXT
  5
55E
100
AcDbEntity
  8
0
370
    -3
  6
Continuous
100
AcDbMText
 10
-479.627136
 20
164.202103
 30
0.0
 40
15.0
 41
0.0
 71
     7
 72
     1
  1
\W0.43;400-100r/min\W0.53;　
  7
ZU_SHPTB00001
 11
1.0
 21
0.0
 31
0.0
 73
     1
 44
1.0
  0
MTEXT
  5
55F
100
AcDbEntity
  8
0
370
    -3
  6
Continuous
100
AcDbMText
 10
-479.627136
 20
147.25209
 30
0.0
 40
15.0
 41
0.0
 71
     7
 72
     1
  1
\W0.42;GEAR\W0.70; \W0.42;RATIO\W0.70;  \W0.42;1/7.5-1/30
  7
ZU_SHPTB00001
 11
1.0
 21
0.0
 31
0.0
 73
     1
 44
1.0
  0
POINT
  5
560
100
AcDbEntity
  8
0
370
    -3
  6
CENTER
100
AcDbPoint
 10
-287.650646
 20
-210.100122
 30
0.0
  0
POINT
  5
561
100
AcDbEntity
  8
0
370
    -3
  6
CENTER
100
AcDbPoint
 10
-287.650646
 20
-183.659122
 30
0.0
  0
LINE
  5
562
100
AcDbEntity
  8
0
370
    -3
  6
Continuous
100
AcDbLine
 10
-285.650646
 20
-179.879622
 30
0.0
 11
-258.650646
 21
-179.879622
 31
0.0
  0
LINE
  5
563
100
AcDbEntity
  8
0
370
    -3
  6
Continuous
100
AcDbLine
 10
-285.650646
 20
-213.879622
 30
0.0
 11
-259.061362
 21
-213.879622
 31
0.0
  0
ARC
  5
564
100
AcDbEntity
  8
0
370
    -3
  6
Continuous
100
AcDbCircle
 10
-285.650646
 20
-211.879622
 30
0.0
 40
2.0
100
AcDbArc
 50
180.0
 51
270.0
  0
LINE
  5
565
100
AcDbEntity
  8
0
370
    -3
  6
Continuous
100
AcDbLine
 10
-287.650646
 20
-196.879622
 30
0.0
 11
-287.650646
 21
-211.879622
 31
0.0
  0
ARC
  5
566
100
AcDbEntity
  8
0
370
    -3
  6
Continuous
100
AcDbCircle
 10
-285.650646
 20
-181.879622
 30
0.0
 40
2.0
100
AcDbArc
 50
90.0
 51
180.0
  0
LINE
  5
567
100
AcDbEntity
  8
0
370
    -3
  6
Continuous
100
AcDbLine
 10
-287.650646
 20
-196.879622
 30
0.0
 11
-287.650646
 21
-181.879622
 31
0.0
  0
LINE
  5
568
100
AcDbEntity
  8
0
370
    -3
  6
Continuous
100
AcDbLine
 10
-260.650646
 20
-196.879622
 30
0.0
 11
-260.650646
 21
-179.879622
 31
0.0
  0
LINE
  5
569
100
AcDbEntity
  8
0
370
    -3
  6
Continuous
100
AcDbLine
 10
-260.650646
 20
-196.879622
 30
0.0
 11
-260.650646
 21
-213.879622
 31
0.0
  0
ARC
  5
56A
100
AcDbEntity
  8
0
370
    -3
  6
Continuous
100
AcDbCircle
 10
-243.974953
 20
-174.879622
 30
0.0
 40
3.0
100
AcDbArc
 50
90.0
 51
180.0
  0
LINE
  5
56B
100
AcDbEntity
  8
0
370
    -3
  6
Continuous
100
AcDbLine
 10
-246.974953
 20
-208.243637
 30
0.0
 11
-246.974953
 21
-174.879622
 31
0.0
  0
LINE
  5
56C
100
AcDbEntity
  8
0
370
    -3
  6
Continuous
100
AcDbLine
 10
-177.862758
 20
-176.016092
 30
0.0
 11
-178.768523
 21
-174.073673
 31
0.0
  0
LINE
  5
56D
100
AcDbEntity
  8
0
370
    -3
  6
Continuous
100
AcDbLine
 10
-258.650646
 20
-213.688102
 30
0.0
 11
-258.650646
 21
-178.679622
 31
0.0
  0
LINE
  5
56E
100
AcDbEntity
  8
0
370
    -3
  6
Continuous
100
AcDbLine
 10
-259.061362
 20
-213.879622
 30
0.0
 11
-267.224706
 21
-217.686252
 31
0.0
  0
LINE
  5
56F
100
AcDbEntity
  8
0
370
    -3
  6
Continuous
100
AcDbLine
 10
-170.612296
 20
-172.635146
 30
0.0
 11
-259.061362
 21
-213.879622
 31
0.0
  0
LINE
  5
570
100
AcDbEntity
  8
0
370
    -3
  6
Continuous
100
AcDbLine
 10
-189.463498
 20
-181.425605
 30
0.0
 11
-192.891761
 21
-174.073673
 31
0.0
  0
ARC
  5
571
100
AcDbEntity
  8
0
370
    -3
  6
Continuous
100
AcDbCircle
 10
-196.33573
 20
-175.679622
 30
0.0
 40
3.8
100
AcDbArc
 50
25.0
 51
90.0
  0
ARC
  5
572
100
AcDbEntity
  8
0
370
    -3
  6
Continuous
100
AcDbCircle
 10
-470.476286
 20
-121.194225
 30
0.0
 40
300.8
100
AcDbArc
 50
342.341575
 51
347.89975
  0
ARC
  5
573
100
AcDbEntity
  8
0
370
    -3
  6
Continuous
100
AcDbCircle
 10
-219.233045
 20
380.302851
 30
0.0
 40
600.8
100
AcDbArc
 50
266.682408
 51
272.437505
  0
ARC
  5
574
100
AcDbEntity
  8
0
370
    -3
  6
Continuous
100
AcDbCircle
 10
-183.25083
 20
-200.601637
 30
0.0
 40
2.8
100
AcDbArc
 50
344.545811
 51
25.0
  0
ARC
  5
575
100
AcDbEntity
  8
0
370
    -3
  6
Continuous
100
AcDbCircle
 10
-247.66925
 20
-218.277119
 30
0.0
 40
3.0
100
AcDbArc
 50
25.0
 51
115.0
  0
LINE
  5
576
100
AcDbEntity
  8
0
370
    -3
  6
Continuous
100
AcDbLine
 10
-244.950327
 20
-217.009264
 30
0.0
 11
-244.275296
 21
-218.456871
 31
0.0
  0
ARC
  5
577
100
AcDbEntity
  8
0
370
    -3
  6
Continuous
100
AcDbCircle
 10
-241.737634
 20
-217.27354
 30
0.0
 40
2.8
100
AcDbArc
 50
205.0
 51
267.843273
  0
LINE
  5
578
100
AcDbEntity
  8
0
370
    -3
  6
Continuous
100
AcDbLine
 10
-180.713168
 20
-199.418306
 30
0.0
 11
-185.448594
 21
-189.263151
 31
0.0
  0
ARC
  5
579
100
AcDbEntity
  8
0
370
    -3
  6
Continuous
100
AcDbCircle
 10
-182.729671
 20
-187.995296
 30
0.0
 40
3.0
100
AcDbArc
 50
115.0
 51
205.0
  0
LINE
  5
57A
100
AcDbEntity
  8
0
370
    -3
  6
Continuous
100
AcDbLine
 10
-169.792464
 20
-178.652444
 30
0.0
 11
-263.142166
 21
-222.182125
 31
0.0
  0
LINE
  5
57B
100
AcDbEntity
  8
0
370
    -3
  6
CENTER
100
AcDbLine
 10
-290.12927
 20
-196.879622
 30
0.0
 11
-249.822783
 21
-196.879622
 31
0.0
  0
ARC
  5
57C
100
AcDbEntity
  8
0
370
    -3
  6
Continuous
100
AcDbCircle
 10
-176.810435
 20
-183.005212
 30
0.0
 40
1.299999
100
AcDbArc
 50
204.999999
 51
278.398469
  0
LINE
  5
57D
100
AcDbEntity
  8
0
370
    -3
  6
Continuous
100
AcDbLine
 10
-178.402388
 20
-182.667317
 30
0.0
 11
-177.988634
 21
-183.554615
 31
0.0
  0
ARC
  5
57E
100
AcDbEntity
  8
0
370
    -3
  6
Continuous
100
AcDbCircle
 10
-177.935068
 20
-175.387784
 30
0.0
 40
9.0
100
AcDbArc
 50
278.398469
 51
311.601548
  0
ARC
  5
57F
100
AcDbEntity
  8
0
370
    -3
  6
Continuous
100
AcDbCircle
 10
-172.822679
 20
-181.145691
 30
0.0
 40
1.299999
100
AcDbArc
 50
311.601548
 51
25.000018
  0
LINE
  5
580
100
AcDbEntity
  8
0
370
    -3
  6
CENTER
100
AcDbLine
 10
-176.487985
 20
-178.491062
 30
0.0
 11
-173.618064
 21
-184.645627
 31
0.0
  0
LINE
  5
581
100
AcDbEntity
  8
0
370
    -3
  6
Continuous
100
AcDbLine
 10
-172.058234
 20
-179.708989
 30
0.0
 11
-171.64448
 21
-180.596287
 31
0.0
  0
ARC
  5
582
100
AcDbEntity
  8
0
370
    -3
  6
Continuous
100
AcDbCircle
 10
-259.284443
 20
-221.463474
 30
0.0
 40
1.299999
100
AcDbArc
 50
204.999999
 51
278.398469
  0
ARC
  5
583
100
AcDbEntity
  8
0
370
    -3
  6
Continuous
100
AcDbCircle
 10
-255.296688
 20
-219.603953
 30
0.0
 40
1.299999
100
AcDbArc
 50
311.601548
 51
25.000018
  0
LINE
  5
584
100
AcDbEntity
  8
0
370
    -3
  6
Continuous
100
AcDbLine
 10
-260.876397
 20
-221.125579
 30
0.0
 11
-260.462643
 21
-222.012877
 31
0.0
  0
LINE
  5
585
100
AcDbEntity
  8
0
370
    -3
  6
Continuous
100
AcDbLine
 10
-254.532242
 20
-218.167251
 30
0.0
 11
-254.118488
 21
-219.054549
 31
0.0
  0
POINT
  5
586
100
AcDbEntity
  8
0
370
    -3
  6
Continuous
100
AcDbPoint
 10
-257.70432
 20
-219.646415
 30
0.0
  0
ARC
  5
587
100
AcDbEntity
  8
0
370
    -3
  6
Continuous
100
AcDbCircle
 10
-260.409076
 20
-213.846045
 30
0.0
 40
9.0
100
AcDbArc
 50
278.398469
 51
311.601548
  0
ARC
  5
588
100
AcDbEntity
  8
0
370
    -3
  6
Continuous
100
AcDbCircle
 10
-194.140551
 20
-209.16332
 30
0.0
 40
10.8
100
AcDbArc
 50
272.437505
 51
342.341575
  0
LINE
  5
589
100
AcDbEntity
  8
0
370
    -3
  6
CENTER
100
AcDbLine
 10
-258.961994
 20
-216.949324
 30
0.0
 11
-256.092073
 21
-223.103889
 31
0.0
  0
POINT
  5
58A
100
AcDbEntity
  8
0
370
    -3
  6
Continuous
100
AcDbPoint
 10
-175.254021
 20
-181.199209
 30
0.0
  0
LINE
  5
58B
100
AcDbEntity
  8
0
370
    -3
  6
CENTER
100
AcDbLine
 10
-176.487985
 20
-178.491062
 30
0.0
 11
-173.618064
 21
-184.645627
 31
0.0
  0
ARC
  5
58C
100
AcDbEntity
  8
0
370
    -3
  6
Continuous
100
AcDbCircle
 10
-170.553177
 20
-177.02109
 30
0.0
 40
1.8
100
AcDbArc
 50
295.0
 51
25.0
  0
LINE
  5
58D
100
AcDbEntity
  8
0
370
    -3
  6
Continuous
100
AcDbLine
 10
-168.921823
 20
-176.260377
 30
0.0
 11
-170.612296
 21
-172.635146
 31
0.0
  0
ARC
  5
58E
100
AcDbEntity
  8
0
370
    -3
  6
Continuous
100
AcDbCircle
 10
-263.902879
 20
-220.550771
 30
0.0
 40
1.8
100
AcDbArc
 50
205.0
 51
295.0
  0
LINE
  5
58F
100
AcDbEntity
  8
0
370
    -3
  6
Continuous
100
AcDbLine
 10
-265.534233
 20
-221.311483
 30
0.0
 11
-267.224706
 21
-217.686252
 31
0.0
  0
ARC
  5
590
100
AcDbEntity
  8
0
370
    -3
  6
Continuous
100
AcDbCircle
 10
-182.212493
 20
-175.679622
 30
0.0
 40
3.8
100
AcDbArc
 50
25.0
 51
90.0
  0
ARC
  5
591
100
AcDbEntity
  8
0
370
    -3
  6
Continuous
100
AcDbCircle
 10
-251.850646
 20
-178.679622
 30
0.0
 40
6.8
100
AcDbArc
 50
90.0
 51
180.0
  0
LINE
  5
592
100
AcDbEntity
  8
0
370
    -3
  6
Continuous
100
AcDbLine
 10
-251.850646
 20
-171.879622
 30
0.0
 11
-182.212493
 21
-171.879622
 31
0.0
  0
ARC
  5
593
100
AcDbEntity
  8
0
370
    -3
  6
Continuous
100
AcDbCircle
 10
-185.650646
 20
-171.879622
 30
0.0
 40
1.0
100
AcDbArc
 50
13.342364
 51
90.0
  0
LINE
  5
594
100
AcDbEntity
  8
0
370
    -3
  6
Continuous
100
AcDbLine
 10
-244.650646
 20
-170.879622
 30
0.0
 11
-182.650646
 21
-170.879622
 31
0.0
  0
LINE
  5
595
100
AcDbEntity
  8
0
370
    -3
  6
Continuous
100
AcDbLine
 10
-182.650646
 20
-169.879622
 30
0.0
 11
-182.650646
 21
-170.879622
 31
0.0
  0
ARC
  5
596
100
AcDbEntity
  8
0
370
    -3
  6
Continuous
100
AcDbCircle
 10
-184.385735
 20
-171.579622
 30
0.0
 40
0.3
100
AcDbArc
 50
193.342364
 51
270.0
  0
ARC
  5
597
100
AcDbEntity
  8
0
370
    -3
  6
Continuous
100
AcDbCircle
 10
-241.650646
 20
-171.879622
 30
0.0
 40
1.0
100
AcDbArc
 50
90.0
 51
166.657636
  0
LINE
  5
598
100
AcDbEntity
  8
0
370
    -3
  6
Continuous
100
AcDbLine
 10
-244.650646
 20
-169.879622
 30
0.0
 11
-244.650646
 21
-170.879622
 31
0.0
  0
ARC
  5
599
100
AcDbEntity
  8
0
370
    -3
  6
Continuous
100
AcDbCircle
 10
-242.915557
 20
-171.579622
 30
0.0
 40
0.3
100
AcDbArc
 50
270.0
 51
346.657636
  0
LINE
  5
59A
100
AcDbEntity
  8
0
370
    -3
  6
CENTER
100
AcDbLine
 10
-213.650646
 20
-159.102205
 30
0.0
 11
-213.650646
 21
-182.012182
 31
0.0
  0
LINE
  5
59B
100
AcDbEntity
  8
0
370
    -3
  6
Continuous
100
AcDbLine
 10
-244.650646
 20
-168.279622
 30
0.0
 11
-213.650646
 21
-168.279622
 31
0.0
  0
LINE
  5
59C
100
AcDbEntity
  8
0
370
    -3
  6
Continuous
100
AcDbLine
 10
-244.650646
 20
-169.879622
 30
0.0
 11
-244.650646
 21
-168.279622
 31
0.0
  0
ARC
  5
59D
100
AcDbEntity
  8
0
370
    -3
  6
Continuous
100
AcDbCircle
 10
-240.850646
 20
-166.679622
 30
0.0
 40
1.6
100
AcDbArc
 50
270.0
 51
0.0
  0
LINE
  5
59E
100
AcDbEntity
  8
0
370
    -3
  6
Continuous
100
AcDbLine
 10
-244.650646
 20
-169.879622
 30
0.0
 11
-182.650646
 21
-169.879622
 31
0.0
  0
LINE
  5
59F
100
AcDbEntity
  8
0
370
    -3
  6
Continuous
100
AcDbLine
 10
-213.650646
 20
-169.879622
 30
0.0
 11
-244.650646
 21
-169.879622
 31
0.0
  0
LINE
  5
5A0
100
AcDbEntity
  8
0
370
    -3
  6
Continuous
100
AcDbLine
 10
-182.650646
 20
-168.279622
 30
0.0
 11
-213.650646
 21
-168.279622
 31
0.0
  0
LINE
  5
5A1
100
AcDbEntity
  8
0
370
    -3
  6
Continuous
100
AcDbLine
 10
-182.650646
 20
-169.879622
 30
0.0
 11
-182.650646
 21
-168.279622
 31
0.0
  0
ARC
  5
5A2
100
AcDbEntity
  8
0
370
    -3
  6
Continuous
100
AcDbCircle
 10
-186.450646
 20
-166.679622
 30
0.0
 40
1.6
100
AcDbArc
 50
180.0
 51
270.0
  0
LINE
  5
5A3
100
AcDbEntity
  8
0
370
    -3
  6
Continuous
100
AcDbLine
 10
-213.650646
 20
-169.879622
 30
0.0
 11
-182.650646
 21
-169.879622
 31
0.0
  0
LINE
  5
5A4
100
AcDbEntity
  8
0
370
    -3
  6
Continuous
100
AcDbLine
 10
-189.650646
 20
-153.879622
 30
0.0
 11
-189.650646
 21
-154.879622
 31
0.0
  0
LINE
  5
5A5
100
AcDbEntity
  8
0
370
    -3
  6
Continuous
100
AcDbLine
 10
-223.650646
 20
-154.879622
 30
0.0
 11
-189.650646
 21
-154.879622
 31
0.0
  0
ARC
  5
5A6
100
AcDbEntity
  8
0
370
    -3
  6
Continuous
100
AcDbCircle
 10
-191.250646
 20
-158.079622
 30
0.0
 40
3.2
100
AcDbArc
 50
0.0
 51
90.0
  0
LINE
  5
5A7
100
AcDbEntity
  8
0
370
    -3
  6
Continuous
100
AcDbLine
 10
-188.050646
 20
-158.079622
 30
0.0
 11
-188.050646
 21
-166.679622
 31
0.0
  0
LINE
  5
5A8
100
AcDbEntity
  8
0
370
    -3
  6
Continuous
100
AcDbLine
 10
-239.250646
 20
-158.079622
 30
0.0
 11
-239.250646
 21
-166.679622
 31
0.0
  0
ARC
  5
5A9
100
AcDbEntity
  8
0
370
    -3
  6
Continuous
100
AcDbCircle
 10
-236.050646
 20
-158.079622
 30
0.0
 40
3.2
100
AcDbArc
 50
171.333191
 51
180.0
  0
LINE
  5
5AA
100
AcDbEntity
  8
0
370
    -3
  6
CENTER
100
AcDbLine
 10
-412.450646
 20
-226.094958
 30
0.0
 11
-412.450646
 21
-164.310619
 31
0.0
  0
ARC
  5
5AB
100
AcDbEntity
  8
0
370
    -3
  6
Continuous
100
AcDbCircle
 10
-433.850646
 20
-158.195772
 30
0.0
 40
3.2
100
AcDbArc
 50
170.167578
 51
180.0
  0
LINE
  5
5AC
100
AcDbEntity
  8
0
370
    -3
  6
Continuous
100
AcDbLine
 10
-437.050646
 20
-166.395772
 30
0.0
 11
-437.050646
 21
-158.195772
 31
0.0
  0
ARC
  5
5AD
100
AcDbEntity
  8
0
370
    -3
  6
Continuous
100
AcDbCircle
 10
-391.050646
 20
-158.195772
 30
0.0
 40
3.2
100
AcDbArc
 50
0.0
 51
9.832422
  0
LINE
  5
5AE
100
AcDbEntity
  8
0
370
    -3
  6
Continuous
100
AcDbLine
 10
-387.850646
 20
-166.395772
 30
0.0
 11
-387.850646
 21
-158.195772
 31
0.0
  0
LINE
  5
5AF
100
AcDbEntity
  8
0
370
    -3
  6
Continuous
100
AcDbLine
 10
-385.619276
 20
-178.795772
 30
0.0
 11
-385.619276
 21
-216.152368
 31
0.0
  0
ARC
  5
5B0
100
AcDbEntity
  8
0
370
    -3
  6
Continuous
100
AcDbCircle
 10
-392.419276
 20
-178.795772
 30
0.0
 40
6.8
100
AcDbArc
 50
0.0
 51
90.0
  0
ARC
  5
5B1
100
AcDbEntity
  8
0
370
    -3
  6
Continuous
100
AcDbCircle
 10
-432.482017
 20
-178.795772
 30
0.0
 40
6.8
100
AcDbArc
 50
90.0
 51
180.0
  0
LINE
  5
5B2
100
AcDbEntity
  8
0
370
    -3
  6
Continuous
100
AcDbLine
 10
-439.282017
 20
-178.795772
 30
0.0
 11
-439.282017
 21
-216.152368
 31
0.0
  0
ARC
  5
5B3
100
AcDbEntity
  8
0
370
    -3
  6
Continuous
100
AcDbCircle
 10
-412.450646
 20
-196.995772
 30
0.0
 40
13.2205
100
AcDbArc
 50
90.0
 51
270.0
  0
ARC
  5
5B4
100
AcDbEntity
  8
0
370
    -3
  6
Continuous
100
AcDbCircle
 10
-412.450646
 20
-196.995772
 30
0.0
 40
12.0585
100
AcDbArc
 50
90.0
 51
270.0
  0
ARC
  5
5B5
100
AcDbEntity
  8
0
370
    -3
  6
Continuous
100
AcDbCircle
 10
-412.450646
 20
-196.995772
 30
0.0
 40
17.0
100
AcDbArc
 50
90.0
 51
270.0
  0
LINE
  5
5B6
100
AcDbEntity
  8
0
370
    -3
  6
Continuous
100
AcDbLine
 10
-412.450646
 20
-217.802402
 30
0.0
 11
-373.450646
 21
-217.802402
 31
0.0
  0
LINE
  5
5B7
100
AcDbEntity
  8
0
370
    -3
  6
Continuous
100
AcDbLine
 10
-366.950646
 20
-181.505885
 30
0.0
 11
-366.950646
 21
-213.062383
 31
0.0
  0
LINE
  5
5B8
100
AcDbEntity
  8
0
370
    -3
  6
Continuous
100
AcDbLine
 10
-373.450646
 20
-172.751295
 30
0.0
 11
-376.835474
 21
-172.751295
 31
0.0
  0
LINE
  5
5B9
100
AcDbEntity
  8
0
370
    -3
  6
Continuous
100
AcDbLine
 10
-376.252376
 20
-173.089389
 30
0.0
 11
-373.450646
 21
-173.089389
 31
0.0
  0
ELLIPSE
  5
5BA
100
AcDbEntity
  8
0
370
    -3
  6
Continuous
100
AcDbEllipse
 10
-372.950646
 20
-216.499856
 30
0.0
 11
-2.0
 21
0.0
 31
0.0
210
0.0
220
0.0
230
1.0
 40
0.422618
 41
0.0
 42
6.2831853071795862
  0
ELLIPSE
  5
5BB
100
AcDbEntity
  8
0
370
    -3
  6
Continuous
100
AcDbEllipse
 10
-372.950646
 20
-216.499856
 30
0.0
 11
-1.6500000000000341
 21
0.0
 31
0.0
210
0.0
220
0.0
230
1.0
 40
0.422618
 41
0.0
 42
6.2831853071795862
  0
LINE
  5
5BC
100
AcDbEntity
  8
0
370
    -3
  6
CENTER
100
AcDbLine
 10
-370.085787
 20
-216.499856
 30
0.0
 11
-375.697177
 21
-216.499856
 31
0.0
  0
LINE
  5
5BD
100
AcDbEntity
  8
0
370
    -3
  6
CENTER
100
AcDbLine
 10
-372.950646
 20
-214.107035
 30
0.0
 11
-372.950646
 21
-218.551794
 31
0.0
  0
ARC
  5
5BE
100
AcDbEntity
  8
0
370
    -3
  6
Continuous
100
AcDbCircle
 10
-384.450646
 20
-171.995772
 30
0.0
 40
1.0
100
AcDbArc
 50
13.342364
 51
90.0
  0
ARC
  5
5BF
100
AcDbEntity
  8
0
370
    -3
  6
Continuous
100
AcDbCircle
 10
-383.185735
 20
-171.695772
 30
0.0
 40
0.3
100
AcDbArc
 50
193.342364
 51
270.0
  0
ARC
  5
5C0
100
AcDbEntity
  8
0
370
    -3
  6
Continuous
100
AcDbCircle
 10
-372.950646
 20
-181.505885
 30
0.0
 40
6.0
100
AcDbArc
 50
0.0
 51
90.0
  0
LINE
  5
5C1
100
AcDbEntity
  8
0
370
    -3
  6
Continuous
100
AcDbLine
 10
-373.999458
 20
-175.505885
 30
0.0
 11
-372.950646
 21
-175.505885
 31
0.0
  0
ARC
  5
5C2
100
AcDbEntity
  8
0
370
    -3
  6
Continuous
100
AcDbCircle
 10
-379.950646
 20
-178.795772
 30
0.0
 40
6.8
100
AcDbArc
 50
0.0
 51
90.0
  0
LINE
  5
5C3
100
AcDbEntity
  8
0
370
    -3
  6
Continuous
100
AcDbLine
 10
-412.450646
 20
-171.995772
 30
0.0
 11
-379.950646
 21
-171.995772
 31
0.0
  0
ARC
  5
5C4
100
AcDbEntity
  8
0
370
    -3
  6
Continuous
100
AcDbCircle
 10
-376.950646
 20
-208.42863
 30
0.0
 40
3.8
100
AcDbArc
 50
292.977375
 51
0.0
  0
ARC
  5
5C5
100
AcDbEntity
  8
0
370
    -3
  6
Continuous
100
AcDbCircle
 10
-386.391613
 20
-212.431683
 30
0.0
 40
3.8
100
AcDbArc
 50
270.0
 51
292.977375
  0
LINE
  5
5C6
100
AcDbEntity
  8
0
370
    -3
  6
Continuous
100
AcDbLine
 10
-384.908216
 20
-215.930188
 30
0.0
 11
-375.46725
 21
-211.927134
 31
0.0
  0
LINE
  5
5C7
100
AcDbEntity
  8
0
370
    -3
  6
Continuous
100
AcDbLine
 10
-373.150646
 20
-178.795772
 30
0.0
 11
-373.150646
 21
-208.42863
 31
0.0
  0
LINE
  5
5C8
100
AcDbEntity
  8
0
370
    -3
  6
Continuous
100
AcDbLine
 10
-412.450646
 20
-216.231683
 30
0.0
 11
-386.391613
 21
-216.231683
 31
0.0
  0
LINE
  5
5C9
100
AcDbEntity
  8
0
370
    -3
  6
Continuous
100
AcDbLine
 10
-412.450646
 20
-170.995772
 30
0.0
 11
-384.450646
 21
-170.995772
 31
0.0
  0
ARC
  5
5CA
100
AcDbEntity
  8
0
370
    -3
  6
Continuous
100
AcDbCircle
 10
-373.450646
 20
-180.089389
 30
0.0
 40
7.0
100
AcDbArc
 50
0.0
 51
90.0
  0
LINE
  5
5CB
100
AcDbEntity
  8
0
370
    -3
  6
Continuous
100
AcDbLine
 10
-381.450646
 20
-170.995772
 30
0.0
 11
-412.450646
 21
-170.995772
 31
0.0
  0
LINE
  5
5CC
100
AcDbEntity
  8
0
370
    -3
  6
Continuous
100
AcDbLine
 10
-373.450646
 20
-222.46692
 30
0.0
 11
-412.450646
 21
-222.46692
 31
0.0
  0
LINE
  5
5CD
100
AcDbEntity
  8
0
370
    -3
  6
Continuous
100
AcDbLine
 10
-412.450646
 20
-217.464307
 30
0.0
 11
-373.450646
 21
-217.464307
 31
0.0
  0
LINE
  5
5CE
100
AcDbEntity
  8
0
370
    -3
  6
Continuous
100
AcDbLine
 10
-365.650646
 20
-214.66692
 30
0.0
 11
-365.650646
 21
-180.551295
 31
0.0
  0
ELLIPSE
  5
5CF
100
AcDbEntity
  8
0
370
    -3
  6
Continuous
100
AcDbEllipse
 10
-372.950646
 20
-220.581511
 30
0.0
 11
3.5
 21
0.0
 31
0.0
210
0.0
220
0.0
230
1.0
 40
0.656603
 41
4.103732018100386
 42
5.8501343317260392
  0
ARC
  5
5D0
100
AcDbEntity
  8
0
370
    -3
  6
Continuous
100
AcDbCircle
 10
-373.450646
 20
-214.66692
 30
0.0
 40
7.8
100
AcDbArc
 50
270.0
 51
0.0
  0
ARC
  5
5D1
100
AcDbEntity
  8
0
370
    -3
  6
Continuous
100
AcDbCircle
 10
-373.450646
 20
-210.002402
 30
0.0
 40
7.8
100
AcDbArc
 50
270.0
 51
0.0
  0
ARC
  5
5D2
100
AcDbEntity
  8
0
370
    -3
  6
Continuous
100
AcDbCircle
 10
-373.450646
 20
-210.464307
 30
0.0
 40
7.0
100
AcDbArc
 50
270.0
 51
0.0
  0
LINE
  5
5D3
100
AcDbEntity
  8
0
370
    -3
  6
Continuous
100
AcDbLine
 10
-366.450646
 20
-210.464307
 30
0.0
 11
-366.450646
 21
-180.089389
 31
0.0
  0
ARC
  5
5D4
100
AcDbEntity
  8
0
370
    -3
  6
Continuous
100
AcDbCircle
 10
-373.450646
 20
-180.551295
 30
0.0
 40
7.8
100
AcDbArc
 50
0.0
 51
90.0
  0
LINE
  5
5D5
100
AcDbEntity
  8
0
370
    -3
  6
CENTER
100
AcDbLine
 10
-393.805714
 20
-196.995772
 30
0.0
 11
-433.751103
 21
-196.995772
 31
0.0
  0
LINE
  5
5D6
100
AcDbEntity
  8
0
370
    -3
  6
Continuous
100
AcDbLine
 10
-412.450646
 20
-217.802402
 30
0.0
 11
-451.450646
 21
-217.802402
 31
0.0
  0
LINE
  5
5D7
100
AcDbEntity
  8
0
370
    -3
  6
Continuous
100
AcDbLine
 10
-457.950646
 20
-181.505885
 30
0.0
 11
-457.950646
 21
-213.062383
 31
0.0
  0
LINE
  5
5D8
100
AcDbEntity
  8
0
370
    -3
  6
Continuous
100
AcDbLine
 10
-451.450646
 20
-172.751295
 30
0.0
 11
-448.065819
 21
-172.751295
 31
0.0
  0
LINE
  5
5D9
100
AcDbEntity
  8
0
370
    -3
  6
Continuous
100
AcDbLine
 10
-448.648917
 20
-173.089389
 30
0.0
 11
-451.450646
 21
-173.089389
 31
0.0
  0
ELLIPSE
  5
5DA
100
AcDbEntity
  8
0
370
    -3
  6
Continuous
100
AcDbEllipse
 10
-451.950646
 20
-216.499856
 30
0.0
 11
2.0
 21
0.0
 31
0.0
210
0.0
220
0.0
230
1.0
 40
0.422618
 41
0.0
 42
6.2831853071795862
  0
ELLIPSE
  5
5DB
100
AcDbEntity
  8
0
370
    -3
  6
Continuous
100
AcDbEllipse
 10
-451.950646
 20
-216.499856
 30
0.0
 11
1.6500000000000341
 21
0.0
 31
0.0
210
0.0
220
0.0
230
1.0
 40
0.422618
 41
0.0
 42
6.2831853071795862
  0
LINE
  5
5DC
100
AcDbEntity
  8
0
370
    -3
  6
CENTER
100
AcDbLine
 10
-454.815506
 20
-216.499856
 30
0.0
 11
-449.204115
 21
-216.499856
 31
0.0
  0
LINE
  5
5DD
100
AcDbEntity
  8
0
370
    -3
  6
CENTER
100
AcDbLine
 10
-451.950646
 20
-214.107035
 30
0.0
 11
-451.950646
 21
-218.551794
 31
0.0
  0
ARC
  5
5DE
100
AcDbEntity
  8
0
370
    -3
  6
Continuous
100
AcDbCircle
 10
-440.450646
 20
-171.995772
 30
0.0
 40
1.0
100
AcDbArc
 50
90.0
 51
166.657636
  0
ARC
  5
5DF
100
AcDbEntity
  8
0
370
    -3
  6
Continuous
100
AcDbCircle
 10
-441.715557
 20
-171.695772
 30
0.0
 40
0.3
100
AcDbArc
 50
270.0
 51
346.657636
  0
ARC
  5
5E0
100
AcDbEntity
  8
0
370
    -3
  6
Continuous
100
AcDbCircle
 10
-451.950646
 20
-181.505885
 30
0.0
 40
6.0
100
AcDbArc
 50
90.0
 51
180.0
  0
LINE
  5
5E1
100
AcDbEntity
  8
0
370
    -3
  6
Continuous
100
AcDbLine
 10
-450.901835
 20
-175.505885
 30
0.0
 11
-451.950646
 21
-175.505885
 31
0.0
  0
ARC
  5
5E2
100
AcDbEntity
  8
0
370
    -3
  6
Continuous
100
AcDbCircle
 10
-444.950646
 20
-178.795772
 30
0.0
 40
6.8
100
AcDbArc
 50
90.0
 51
180.0
  0
LINE
  5
5E3
100
AcDbEntity
  8
0
370
    -3
  6
Continuous
100
AcDbLine
 10
-412.450646
 20
-171.995772
 30
0.0
 11
-444.950646
 21
-171.995772
 31
0.0
  0
ARC
  5
5E4
100
AcDbEntity
  8
0
370
    -3
  6
Continuous
100
AcDbCircle
 10
-447.950646
 20
-208.42863
 30
0.0
 40
3.8
100
AcDbArc
 50
180.0
 51
247.022625
  0
ARC
  5
5E5
100
AcDbEntity
  8
0
370
    -3
  6
Continuous
100
AcDbCircle
 10
-438.50968
 20
-212.431683
 30
0.0
 40
3.8
100
AcDbArc
 50
247.022625
 51
270.0
  0
LINE
  5
5E6
100
AcDbEntity
  8
0
370
    -3
  6
Continuous
100
AcDbLine
 10
-439.993077
 20
-215.930188
 30
0.0
 11
-449.434043
 21
-211.927134
 31
0.0
  0
LINE
  5
5E7
100
AcDbEntity
  8
0
370
    -3
  6
Continuous
100
AcDbLine
 10
-451.750646
 20
-178.795772
 30
0.0
 11
-451.750646
 21
-208.42863
 31
0.0
  0
LINE
  5
5E8
100
AcDbEntity
  8
0
370
    -3
  6
Continuous
100
AcDbLine
 10
-412.450646
 20
-216.231683
 30
0.0
 11
-438.50968
 21
-216.231683
 31
0.0
  0
LINE
  5
5E9
100
AcDbEntity
  8
0
370
    -3
  6
Continuous
100
AcDbLine
 10
-412.450646
 20
-170.995772
 30
0.0
 11
-440.450646
 21
-170.995772
 31
0.0
  0
ARC
  5
5EA
100
AcDbEntity
  8
0
370
    -3
  6
Continuous
100
AcDbCircle
 10
-451.450646
 20
-180.089389
 30
0.0
 40
7.0
100
AcDbArc
 50
90.0
 51
180.0
  0
LINE
  5
5EB
100
AcDbEntity
  8
0
370
    -3
  6
Continuous
100
AcDbLine
 10
-443.450646
 20
-170.995772
 30
0.0
 11
-412.450646
 21
-170.995772
 31
0.0
  0
LINE
  5
5EC
100
AcDbEntity
  8
0
370
    -3
  6
Continuous
100
AcDbLine
 10
-451.450646
 20
-222.46692
 30
0.0
 11
-412.450646
 21
-222.46692
 31
0.0
  0
LINE
  5
5ED
100
AcDbEntity
  8
0
370
    -3
  6
Continuous
100
AcDbLine
 10
-412.450646
 20
-217.464307
 30
0.0
 11
-451.450646
 21
-217.464307
 31
0.0
  0
LINE
  5
5EE
100
AcDbEntity
  8
0
370
    -3
  6
Continuous
100
AcDbLine
 10
-459.250646
 20
-214.66692
 30
0.0
 11
-459.250646
 21
-180.551295
 31
0.0
  0
ELLIPSE
  5
5EF
100
AcDbEntity
  8
0
370
    -3
  6
Continuous
100
AcDbEllipse
 10
-451.950646
 20
-220.581511
 30
0.0
 11
3.5
 21
0.0
 31
0.0
210
0.0
220
0.0
230
1.0
 40
0.656603
 41
3.5746436290433126
 42
5.32104594266894
  0
ARC
  5
5F0
100
AcDbEntity
  8
0
370
    -3
  6
Continuous
100
AcDbCircle
 10
-451.450646
 20
-214.66692
 30
0.0
 40
7.8
100
AcDbArc
 50
180.0
 51
270.0
  0
ARC
  5
5F1
100
AcDbEntity
  8
0
370
    -3
  6
Continuous
100
AcDbCircle
 10
-451.450646
 20
-210.002402
 30
0.0
 40
7.8
100
AcDbArc
 50
180.0
 51
270.0
  0
ARC
  5
5F2
100
AcDbEntity
  8
0
370
    -3
  6
Continuous
100
AcDbCircle
 10
-451.450646
 20
-210.464307
 30
0.0
 40
7.0
100
AcDbArc
 50
180.0
 51
270.0
  0
LINE
  5
5F3
100
AcDbEntity
  8
0
370
    -3
  6
Continuous
100
AcDbLine
 10
-458.450646
 20
-210.464307
 30
0.0
 11
-458.450646
 21
-180.089389
 31
0.0
  0
ARC
  5
5F4
100
AcDbEntity
  8
0
370
    -3
  6
Continuous
100
AcDbCircle
 10
-451.450646
 20
-180.551295
 30
0.0
 40
7.8
100
AcDbArc
 50
90.0
 51
180.0
  0
ARC
  5
5F5
100
AcDbEntity
  8
0
370
    -3
  6
Continuous
100
AcDbCircle
 10
-412.450646
 20
-196.995772
 30
0.0
 40
13.2205
100
AcDbArc
 50
270.0
 51
90.0
  0
ARC
  5
5F6
100
AcDbEntity
  8
0
370
    -3
  6
Continuous
100
AcDbCircle
 10
-412.450646
 20
-196.995772
 30
0.0
 40
12.0585
100
AcDbArc
 50
270.0
 51
90.0
  0
ARC
  5
5F7
100
AcDbEntity
  8
0
370
    -3
  6
Continuous
100
AcDbCircle
 10
-412.450646
 20
-196.995772
 30
0.0
 40
17.0
100
AcDbArc
 50
270.0
 51
90.0
  0
LINE
  5
5F8
100
AcDbEntity
  8
0
370
    -3
  6
Continuous
100
AcDbLine
 10
-381.450646
 20
-169.995772
 30
0.0
 11
-381.450646
 21
-170.995772
 31
0.0
  0
LINE
  5
5F9
100
AcDbEntity
  8
0
370
    -3
  6
Continuous
100
AcDbLine
 10
-381.450646
 20
-168.395772
 30
0.0
 11
-385.850646
 21
-168.395772
 31
0.0
  0
LINE
  5
5FA
100
AcDbEntity
  8
0
370
    -3
  6
Continuous
100
AcDbLine
 10
-381.450646
 20
-169.995772
 30
0.0
 11
-381.450646
 21
-168.395772
 31
0.0
  0
LINE
  5
5FB
100
AcDbEntity
  8
0
370
    -3
  6
Continuous
100
AcDbLine
 10
-412.450646
 20
-169.995772
 30
0.0
 11
-381.450646
 21
-169.995772
 31
0.0
  0
LINE
  5
5FC
100
AcDbEntity
  8
0
370
    -3
  6
Continuous
100
AcDbLine
 10
-412.450646
 20
-169.995772
 30
0.0
 11
-381.450646
 21
-169.995772
 31
0.0
  0
ARC
  5
5FD
100
AcDbEntity
  8
0
370
    -3
  6
Continuous
100
AcDbCircle
 10
-385.850646
 20
-166.395772
 30
0.0
 40
2.0
100
AcDbArc
 50
180.0
 51
270.0
  0
LINE
  5
5FE
100
AcDbEntity
  8
0
370
    -3
  6
Continuous
100
AcDbLine
 10
-443.450646
 20
-169.995772
 30
0.0
 11
-443.450646
 21
-170.995772
 31
0.0
  0
LINE
  5
5FF
100
AcDbEntity
  8
0
370
    -3
  6
Continuous
100
AcDbLine
 10
-443.450646
 20
-168.395772
 30
0.0
 11
-439.050646
 21
-168.395772
 31
0.0
  0
LINE
  5
600
100
AcDbEntity
  8
0
370
    -3
  6
Continuous
100
AcDbLine
 10
-443.450646
 20
-169.995772
 30
0.0
 11
-443.450646
 21
-168.395772
 31
0.0
  0
LINE
  5
601
100
AcDbEntity
  8
0
370
    -3
  6
Continuous
100
AcDbLine
 10
-412.450646
 20
-169.995772
 30
0.0
 11
-443.450646
 21
-169.995772
 31
0.0
  0
ARC
  5
602
100
AcDbEntity
  8
0
370
    -3
  6
Continuous
100
AcDbCircle
 10
-439.050646
 20
-166.395772
 30
0.0
 40
2.0
100
AcDbArc
 50
270.0
 51
0.0
  0
MTEXT
  5
603
100
AcDbEntity
  8
0
370
    -3
  6
Continuous
100
AcDbMText
 10
-479.382141
 20
112.777863
 30
0.0
 40
15.0
 41
0.0
 71
     7
 72
     1
  1
\W0.43;DATE\W0.72; \W0.43;2011.12.29
  7
ZU_SHPTB00001
 11
1.0
 21
0.0
 31
0.0
 73
     1
 44
1.0
  0
ARC
  5
604
100
AcDbEntity
  8
0
370
    -3
  6
Continuous
100
AcDbCircle
 10
194.349354
 20
-82.879563
 30
0.0
 40
2.0
100
AcDbArc
 50
90.0
 51
180.0
  0
ARC
  5
605
100
AcDbEntity
  8
0
370
    -3
  6
Continuous
100
AcDbCircle
 10
192.749354
 20
-87.479563
 30
0.0
 40
0.4
100
AcDbArc
 50
180.0
 51
270.0
  0
LINE
  5
606
100
AcDbEntity
  8
0
370
    -3
  6
Continuous
100
AcDbLine
 10
192.349354
 20
-87.479563
 30
0.0
 11
192.349354
 21
-44.279563
 31
0.0
  0
LINE
  5
607
100
AcDbEntity
  8
0
370
    -3
  6
Continuous
100
AcDbLine
 10
214.349354
 20
-50.179089
 30
0.0
 11
212.999354
 21
-50.179089
 31
0.0
  0
LINE
  5
608
100
AcDbEntity
  8
0
370
    -3
  6
Continuous
100
AcDbLine
 10
214.349354
 20
-50.179089
 30
0.0
 11
214.349354
 21
-65.879563
 31
0.0
  0
LINE
  5
609
100
AcDbEntity
  8
0
370
    -3
  6
Continuous
100
AcDbLine
 10
212.999354
 20
-50.879563
 30
0.0
 11
194.349354
 21
-50.879563
 31
0.0
  0
ARC
  5
60A
100
AcDbEntity
  8
0
370
    -3
  6
Continuous
100
AcDbCircle
 10
207.949624
 20
-43.479563
 30
0.0
 40
0.4
100
AcDbArc
 50
270.0
 51
350.405932
  0
LINE
  5
60B
100
AcDbEntity
  8
0
370
    -3
  6
Continuous
100
AcDbLine
 10
207.949624
 20
-43.879563
 30
0.0
 11
192.749354
 21
-43.879563
 31
0.0
  0
ARC
  5
60C
100
AcDbEntity
  8
0
370
    -3
  6
Continuous
100
AcDbCircle
 10
192.749354
 20
-44.279563
 30
0.0
 40
0.4
100
AcDbArc
 50
90.0
 51
180.0
  0
ARC
  5
60D
100
AcDbEntity
  8
0
370
    -3
  6
Continuous
100
AcDbCircle
 10
194.349354
 20
-48.879563
 30
0.0
 40
2.0
100
AcDbArc
 50
180.0
 51
270.0
  0
LINE
  5
60E
100
AcDbEntity
  8
0
370
    -3
  6
Continuous
100
AcDbLine
 10
221.849626
 20
-43.37958
 30
0.0
 11
208.849626
 21
-43.379595
 31
0.0
  0
ARC
  5
60F
100
AcDbEntity
  8
0
370
    -3
  6
Continuous
100
AcDbCircle
 10
208.541232
 20
-43.579563
 30
0.0
 40
0.2
100
AcDbArc
 50
90.0
 51
170.405932
  0
LINE
  5
610
100
AcDbEntity
  8
0
370
    -3
  6
Continuous
100
AcDbLine
 10
212.999354
 20
-50.179089
 30
0.0
 11
212.999354
 21
-81.580156
 31
0.0
  0
LINE
  5
611
100
AcDbEntity
  8
0
370
    -3
  6
Continuous
100
AcDbLine
 10
214.349354
 20
-81.580156
 30
0.0
 11
212.999354
 21
-81.580156
 31
0.0
  0
LINE
  5
612
100
AcDbEntity
  8
0
370
    -3
  6
Continuous
100
AcDbLine
 10
221.84968
 20
-88.379565
 30
0.0
 11
208.84968
 21
-88.37958
 31
0.0
  0
LINE
  5
613
100
AcDbEntity
  8
0
370
    -3
  6
Continuous
100
AcDbLine
 10
208.541232
 20
-88.379563
 30
0.0
 11
238.949637
 21
-88.379563
 31
0.0
  0
ARC
  5
614
100
AcDbEntity
  8
0
370
    -3
  6
Continuous
100
AcDbCircle
 10
208.541232
 20
-88.179563
 30
0.0
 40
0.2
100
AcDbArc
 50
189.594068
 51
270.0
  0
ARC
  5
615
100
AcDbEntity
  8
0
370
    -3
  6
Continuous
100
AcDbCircle
 10
207.949624
 20
-88.279563
 30
0.0
 40
0.4
100
AcDbArc
 50
9.594068
 51
90.0
  0
LINE
  5
616
100
AcDbEntity
  8
0
370
    -3
  6
Continuous
100
AcDbLine
 10
212.999354
 20
-80.879563
 30
0.0
 11
194.349354
 21
-80.879563
 31
0.0
  0
LINE
  5
617
100
AcDbEntity
  8
0
370
    -3
  6
Continuous
100
AcDbLine
 10
207.949624
 20
-87.879563
 30
0.0
 11
192.749354
 21
-87.879563
 31
0.0
  0
LINE
  5
618
100
AcDbEntity
  8
0
370
    -3
  6
Continuous
100
AcDbLine
 10
238.349354
 20
-80.879563
 30
0.0
 11
214.349354
 21
-80.879563
 31
0.0
  0
LINE
  5
619
100
AcDbEntity
  8
0
370
    -3
  6
Continuous
100
AcDbLine
 10
214.349354
 20
-81.580156
 30
0.0
 11
214.349354
 21
-65.879563
 31
0.0
  0
LINE
  5
61A
100
AcDbEntity
  8
0
370
    -3
  6
Continuous
100
AcDbLine
 10
239.349637
 20
-90.379622
 30
0.0
 11
239.349637
 21
-88.779563
 31
0.0
  0
ARC
  5
61B
100
AcDbEntity
  8
0
370
    -3
  6
Continuous
100
AcDbCircle
 10
238.949637
 20
-88.779563
 30
0.0
 40
0.4
100
AcDbArc
 50
0.0
 51
90.0
  0
LINE
  5
61C
100
AcDbEntity
  8
0
370
    -3
  6
Continuous
100
AcDbLine
 10
238.349354
 20
-81.179563
 30
0.0
 11
238.349354
 21
-65.879563
 31
0.0
  0
LINE
  5
61D
100
AcDbEntity
  8
0
370
    -3
  6
Continuous
100
AcDbLine
 10
208.541232
 20
-43.379563
 30
0.0
 11
238.949637
 21
-43.379563
 31
0.0
  0
LINE
  5
61E
100
AcDbEntity
  8
0
370
    -3
  6
Continuous
100
AcDbLine
 10
238.349354
 20
-50.879563
 30
0.0
 11
214.349354
 21
-50.879563
 31
0.0
  0
LINE
  5
61F
100
AcDbEntity
  8
0
370
    -3
  6
Continuous
100
AcDbLine
 10
238.349354
 20
-50.679563
 30
0.0
 11
238.349354
 21
-65.879563
 31
0.0
  0
LINE
  5
620
100
AcDbEntity
  8
0
370
    -3
  6
Continuous
100
AcDbLine
 10
239.349637
 20
-42.029622
 30
0.0
 11
239.349637
 21
-42.979563
 31
0.0
  0
ARC
  5
621
100
AcDbEntity
  8
0
370
    -3
  6
Continuous
100
AcDbCircle
 10
239.749637
 20
-42.029622
 30
0.0
 40
0.4
100
AcDbArc
 50
90.0
 51
180.0
  0
ARC
  5
622
100
AcDbEntity
  8
0
370
    -3
  6
Continuous
100
AcDbCircle
 10
238.949637
 20
-42.979563
 30
0.0
 40
0.4
100
AcDbArc
 50
270.0
 51
0.0
  0
LINE
  5
623
100
AcDbEntity
  8
0
370
    -3
  6
Continuous
100
AcDbLine
 10
192.349354
 20
-47.579622
 30
0.0
 11
306.349354
 21
-47.579622
 31
0.0
  0
LINE
  5
624
100
AcDbEntity
  8
0
370
    -3
  6
Continuous
100
AcDbLine
 10
239.749637
 20
-41.629622
 30
0.0
 11
253.349086
 21
-41.629622
 31
0.0
  0
LINE
  5
625
100
AcDbEntity
  8
0
370
    -3
  6
Continuous
100
AcDbLine
 10
238.349354
 20
-50.679563
 30
0.0
 11
260.349354
 21
-50.679563
 31
0.0
  0
LINE
  5
626
100
AcDbEntity
  8
0
370
    -3
  6
Continuous
100
AcDbLine
 10
275.349084
 20
-42.979562
 30
0.0
 11
275.349087
 21
-40.879623
 31
0.0
  0
ARC
  5
627
100
AcDbEntity
  8
0
370
    -3
  6
Continuous
100
AcDbCircle
 10
275.749084
 20
-42.979563
 30
0.0
 40
0.4
100
AcDbArc
 50
179.999927
 51
270.0
  0
ARC
  5
628
100
AcDbEntity
  8
0
370
    -3
  6
Continuous
100
AcDbCircle
 10
275.749084
 20
-42.979622
 30
0.0
 40
0.4
100
AcDbArc
 50
179.999927
 51
270.0
  0
LINE
  5
629
100
AcDbEntity
  8
0
370
    -3
  6
Continuous
100
AcDbLine
 10
275.349084
 20
-42.979622
 30
0.0
 11
275.349087
 21
-40.879623
 31
0.0
  0
ARC
  5
62A
100
AcDbEntity
  8
0
370
    -3
  6
Continuous
100
AcDbCircle
 10
274.949087
 20
-40.879622
 30
0.0
 40
0.4
100
AcDbArc
 50
359.999927
 51
90.0
  0
LINE
  5
62B
100
AcDbEntity
  8
0
370
    -3
  6
Continuous
100
AcDbLine
 10
253.349087
 20
-40.479622
 30
0.0
 11
274.949087
 21
-40.479622
 31
0.0
  0
LINE
  5
62C
100
AcDbEntity
  8
0
370
    -3
  6
Continuous
100
AcDbLine
 10
253.349086
 20
-41.629622
 30
0.0
 11
253.349087
 21
-40.479622
 31
0.0
  0
LINE
  5
62D
100
AcDbEntity
  8
0
370
    -3
  6
Continuous
100
AcDbLine
 10
260.349354
 20
-50.579563
 30
0.0
 11
260.349354
 21
-65.879563
 31
0.0
  0
LINE
  5
62E
100
AcDbEntity
  8
0
370
    -3
  6
Continuous
100
AcDbLine
 10
238.349354
 20
-81.079563
 30
0.0
 11
260.349354
 21
-81.079563
 31
0.0
  0
LINE
  5
62F
100
AcDbEntity
  8
0
370
    -3
  6
Continuous
100
AcDbLine
 10
260.349354
 20
-81.179563
 30
0.0
 11
260.349354
 21
-65.879563
 31
0.0
  0
LINE
  5
630
100
AcDbEntity
  8
0
370
    -3
  6
Continuous
100
AcDbLine
 10
275.349084
 20
-88.779563
 30
0.0
 11
275.349087
 21
-91.279622
 31
0.0
  0
ARC
  5
631
100
AcDbEntity
  8
0
370
    -3
  6
Continuous
100
AcDbCircle
 10
275.749084
 20
-88.779563
 30
0.0
 40
0.4
100
AcDbArc
 50
90.0
 51
180.000073
  0
LINE
  5
632
100
AcDbEntity
  8
0
370
    -3
  6
Continuous
100
AcDbLine
 10
257.849637
 20
-91.279622
 30
0.0
 11
275.349101
 21
-91.279622
 31
0.0
  0
LINE
  5
633
100
AcDbEntity
  8
0
370
    -3
  6
Continuous
100
AcDbLine
 10
239.349637
 20
-90.379622
 30
0.0
 11
257.849637
 21
-90.379622
 31
0.0
  0
LINE
  5
634
100
AcDbEntity
  8
0
370
    -3
  6
Continuous
100
AcDbLine
 10
257.849637
 20
-91.279622
 30
0.0
 11
257.849637
 21
-90.379622
 31
0.0
  0
LINE
  5
635
100
AcDbEntity
  8
0
370
    -3
  6
Continuous
100
AcDbLine
 10
275.749084
 20
-88.379563
 30
0.0
 11
290.149083
 21
-88.379563
 31
0.0
  0
LINE
  5
636
100
AcDbEntity
  8
0
370
    -3
  6
Continuous
100
AcDbLine
 10
285.699354
 20
-81.580156
 30
0.0
 11
284.349354
 21
-81.580156
 31
0.0
  0
LINE
  5
637
100
AcDbEntity
  8
0
370
    -3
  6
Continuous
100
AcDbLine
 10
304.349354
 20
-80.879563
 30
0.0
 11
285.699354
 21
-80.879563
 31
0.0
  0
LINE
  5
638
100
AcDbEntity
  8
0
370
    -3
  6
Continuous
100
AcDbLine
 10
284.349354
 20
-80.879563
 30
0.0
 11
260.349354
 21
-80.879563
 31
0.0
  0
ARC
  5
639
100
AcDbEntity
  8
0
370
    -3
  6
Continuous
100
AcDbCircle
 10
290.740691
 20
-88.279563
 30
0.0
 40
0.4
100
AcDbArc
 50
90.0
 51
170.405932
  0
ARC
  5
63A
100
AcDbEntity
  8
0
370
    -3
  6
Continuous
100
AcDbCircle
 10
290.149083
 20
-88.179563
 30
0.0
 40
0.2
100
AcDbArc
 50
270.0
 51
350.405932
  0
LINE
  5
63B
100
AcDbEntity
  8
0
370
    -3
  6
Continuous
100
AcDbLine
 10
290.740691
 20
-87.879563
 30
0.0
 11
305.949354
 21
-87.879563
 31
0.0
  0
ARC
  5
63C
100
AcDbEntity
  8
0
370
    -3
  6
Continuous
100
AcDbCircle
 10
305.949354
 20
-87.479563
 30
0.0
 40
0.4
100
AcDbArc
 50
270.0
 51
0.0
  0
LINE
  5
63D
100
AcDbEntity
  8
0
370
    -3
  6
Continuous
100
AcDbLine
 10
306.349354
 20
-87.479563
 30
0.0
 11
306.349354
 21
-43.879563
 31
0.0
  0
ARC
  5
63E
100
AcDbEntity
  8
0
370
    -3
  6
Continuous
100
AcDbCircle
 10
304.349354
 20
-82.879563
 30
0.0
 40
2.0
100
AcDbArc
 50
0.0
 51
90.0
  0
LINE
  5
63F
100
AcDbEntity
  8
0
370
    -3
  6
Continuous
100
AcDbLine
 10
285.699354
 20
-50.179089
 30
0.0
 11
285.699354
 21
-81.580156
 31
0.0
  0
LINE
  5
640
100
AcDbEntity
  8
0
370
    -3
  6
Continuous
100
AcDbLine
 10
284.349354
 20
-50.879563
 30
0.0
 11
260.349354
 21
-50.879563
 31
0.0
  0
LINE
  5
641
100
AcDbEntity
  8
0
370
    -3
  6
Continuous
100
AcDbLine
 10
304.349354
 20
-50.879563
 30
0.0
 11
285.699354
 21
-50.879563
 31
0.0
  0
LINE
  5
642
100
AcDbEntity
  8
0
370
    -3
  6
Continuous
100
AcDbLine
 10
284.349354
 20
-50.179089
 30
0.0
 11
284.349354
 21
-65.879563
 31
0.0
  0
LINE
  5
643
100
AcDbEntity
  8
0
370
    -3
  6
Continuous
100
AcDbLine
 10
284.349354
 20
-81.580156
 30
0.0
 11
284.349354
 21
-65.879563
 31
0.0
  0
LINE
  5
644
100
AcDbEntity
  8
0
370
    -3
  6
CENTER
100
AcDbLine
 10
309.914891
 20
-65.879622
 30
0.0
 11
188.447077
 21
-65.879622
 31
0.0
  0
LINE
  5
645
100
AcDbEntity
  8
0
370
    -3
  6
Continuous
100
AcDbLine
 10
285.699354
 20
-50.179089
 30
0.0
 11
284.349354
 21
-50.179089
 31
0.0
  0
ARC
  5
646
100
AcDbEntity
  8
0
370
    -3
  6
Continuous
100
AcDbCircle
 10
290.740691
 20
-43.479563
 30
0.0
 40
0.4
100
AcDbArc
 50
189.594068
 51
270.0
  0
LINE
  5
647
100
AcDbEntity
  8
0
370
    -3
  6
Continuous
100
AcDbLine
 10
290.740691
 20
-43.879563
 30
0.0
 11
306.349354
 21
-43.879563
 31
0.0
  0
LINE
  5
648
100
AcDbEntity
  8
0
370
    -3
  6
Continuous
100
AcDbLine
 10
275.749084
 20
-43.379563
 30
0.0
 11
290.149083
 21
-43.379563
 31
0.0
  0
ARC
  5
649
100
AcDbEntity
  8
0
370
    -3
  6
Continuous
100
AcDbCircle
 10
290.149083
 20
-43.579563
 30
0.0
 40
0.2
100
AcDbArc
 50
9.594068
 51
90.0
  0
ARC
  5
64A
100
AcDbEntity
  8
0
370
    -3
  6
Continuous
100
AcDbCircle
 10
304.349354
 20
-48.879682
 30
0.0
 40
2.0
100
AcDbArc
 50
270.0
 51
0.0
  0
LINE
  5
64B
100
AcDbEntity
  8
0
370
    -3
  6
CENTER
100
AcDbLine
 10
451.834151
 20
-83.879622
 30
0.0
 11
406.317782
 21
-83.879622
 31
0.0
  0
ARC
  5
64C
100
AcDbEntity
  8
0
370
    -3
  6
Continuous
100
AcDbCircle
 10
447.389735
 20
-135.379622
 30
0.0
 40
20.0
100
AcDbArc
 50
270.0
 51
287.502524
  0
ARC
  5
64D
100
AcDbEntity
  8
0
370
    -3
  6
Continuous
100
AcDbCircle
 10
414.908972
 20
-135.379622
 30
0.0
 40
20.0
100
AcDbArc
 50
252.497476
 51
270.0
  0
LINE
  5
64E
100
AcDbEntity
  8
0
370
    -3
  6
Continuous
100
AcDbLine
 10
414.908972
 20
-155.379622
 30
0.0
 11
447.389735
 21
-155.379622
 31
0.0
  0
LINE
  5
64F
100
AcDbEntity
  8
0
370
    -3
  6
DASHED
100
AcDbLine
 10
382.149354
 20
-29.879622
 30
0.0
 11
395.149354
 21
-29.879622
 31
0.0
  0
LINE
  5
650
100
AcDbEntity
  8
0
370
    -3
  6
DASHED
100
AcDbLine
 10
422.149354
 20
-14.879622
 30
0.0
 11
422.149354
 21
-26.879622
 31
0.0
  0
LINE
  5
651
100
AcDbEntity
  8
0
370
    -3
  6
DASHED
100
AcDbLine
 10
440.149354
 20
-26.879622
 30
0.0
 11
440.149354
 21
-14.879622
 31
0.0
  0
LINE
  5
652
100
AcDbEntity
  8
0
370
    -3
  6
DASHED
100
AcDbLine
 10
395.149354
 20
-26.279622
 30
0.0
 11
467.149354
 21
-26.279622
 31
0.0
  0
LINE
  5
653
100
AcDbEntity
  8
0
370
    -3
  6
DASHED
100
AcDbLine
 10
467.149354
 20
-11.879622
 30
0.0
 11
467.149354
 21
-29.879622
 31
0.0
  0
LINE
  5
654
100
AcDbEntity
  8
0
370
    -3
  6
DASHED
100
AcDbLine
 10
480.149354
 20
-29.879622
 30
0.0
 11
467.149354
 21
-29.879622
 31
0.0
  0
LINE
  5
655
100
AcDbEntity
  8
0
370
    -3
  6
DASHED
100
AcDbLine
 10
480.149354
 20
-11.879622
 30
0.0
 11
467.149354
 21
-11.879622
 31
0.0
  0
LINE
  5
656
100
AcDbEntity
  8
0
370
    -3
  6
DASHED
100
AcDbLine
 10
382.149354
 20
-11.879622
 30
0.0
 11
395.149354
 21
-11.879622
 31
0.0
  0
LINE
  5
657
100
AcDbEntity
  8
0
370
    -3
  6
DASHED
100
AcDbLine
 10
395.149354
 20
-11.879622
 30
0.0
 11
395.149354
 21
-29.879622
 31
0.0
  0
LINE
  5
658
100
AcDbEntity
  8
0
370
    -3
  6
DASHED
100
AcDbLine
 10
395.149354
 20
-15.479622
 30
0.0
 11
467.149354
 21
-15.479622
 31
0.0
  0
LINE
  5
659
100
AcDbEntity
  8
0
370
    -3
  6
DASHED
100
AcDbLine
 10
395.149354
 20
-26.879622
 30
0.0
 11
422.149354
 21
-26.879622
 31
0.0
  0
LINE
  5
65A
100
AcDbEntity
  8
0
370
    -3
  6
DASHED
100
AcDbLine
 10
395.149354
 20
-14.879622
 30
0.0
 11
422.149354
 21
-14.879622
 31
0.0
  0
LINE
  5
65B
100
AcDbEntity
  8
0
370
    -3
  6
DASHED
100
AcDbLine
 10
440.149354
 20
-26.879622
 30
0.0
 11
467.149354
 21
-26.879622
 31
0.0
  0
LINE
  5
65C
100
AcDbEntity
  8
0
370
    -3
  6
DASHED
100
AcDbLine
 10
440.149354
 20
-14.879622
 30
0.0
 11
467.149354
 21
-14.879622
 31
0.0
  0
LINE
  5
65D
100
AcDbEntity
  8
0
370
    -3
  6
DASHED
100
AcDbLine
 10
382.149354
 20
-119.879622
 30
0.0
 11
395.149354
 21
-119.879622
 31
0.0
  0
LINE
  5
65E
100
AcDbEntity
  8
0
370
    -3
  6
DASHED
100
AcDbLine
 10
422.149354
 20
-104.879622
 30
0.0
 11
422.149354
 21
-116.879622
 31
0.0
  0
LINE
  5
65F
100
AcDbEntity
  8
0
370
    -3
  6
DASHED
100
AcDbLine
 10
440.149354
 20
-116.879622
 30
0.0
 11
440.149354
 21
-104.879622
 31
0.0
  0
LINE
  5
660
100
AcDbEntity
  8
0
370
    -3
  6
DASHED
100
AcDbLine
 10
395.149354
 20
-116.279622
 30
0.0
 11
467.149354
 21
-116.279622
 31
0.0
  0
LINE
  5
661
100
AcDbEntity
  8
0
370
    -3
  6
DASHED
100
AcDbLine
 10
467.149354
 20
-101.879622
 30
0.0
 11
467.149354
 21
-119.879622
 31
0.0
  0
LINE
  5
662
100
AcDbEntity
  8
0
370
    -3
  6
DASHED
100
AcDbLine
 10
480.149354
 20
-119.879622
 30
0.0
 11
467.149354
 21
-119.879622
 31
0.0
  0
LINE
  5
663
100
AcDbEntity
  8
0
370
    -3
  6
DASHED
100
AcDbLine
 10
480.149354
 20
-101.879622
 30
0.0
 11
467.149354
 21
-101.879622
 31
0.0
  0
LINE
  5
664
100
AcDbEntity
  8
0
370
    -3
  6
DASHED
100
AcDbLine
 10
382.149354
 20
-101.879622
 30
0.0
 11
395.149354
 21
-101.879622
 31
0.0
  0
LINE
  5
665
100
AcDbEntity
  8
0
370
    -3
  6
DASHED
100
AcDbLine
 10
395.149354
 20
-101.879622
 30
0.0
 11
395.149354
 21
-119.879622
 31
0.0
  0
LINE
  5
666
100
AcDbEntity
  8
0
370
    -3
  6
DASHED
100
AcDbLine
 10
395.149354
 20
-105.479622
 30
0.0
 11
467.149354
 21
-105.479622
 31
0.0
  0
LINE
  5
667
100
AcDbEntity
  8
0
370
    -3
  6
DASHED
100
AcDbLine
 10
395.149354
 20
-116.879622
 30
0.0
 11
422.149354
 21
-116.879622
 31
0.0
  0
LINE
  5
668
100
AcDbEntity
  8
0
370
    -3
  6
DASHED
100
AcDbLine
 10
395.149354
 20
-104.879622
 30
0.0
 11
422.149354
 21
-104.879622
 31
0.0
  0
LINE
  5
669
100
AcDbEntity
  8
0
370
    -3
  6
DASHED
100
AcDbLine
 10
440.149354
 20
-116.879622
 30
0.0
 11
467.149354
 21
-116.879622
 31
0.0
  0
LINE
  5
66A
100
AcDbEntity
  8
0
370
    -3
  6
DASHED
100
AcDbLine
 10
440.149354
 20
-104.879622
 30
0.0
 11
467.149354
 21
-104.879622
 31
0.0
  0
LINE
  5
66B
100
AcDbEntity
  8
0
370
    -3
  6
Continuous
100
AcDbLine
 10
480.149354
 20
-67.380114
 30
0.0
 11
397.149345
 21
-67.379645
 31
0.0
  0
LINE
  5
66C
100
AcDbEntity
  8
0
370
    -3
  6
Continuous
100
AcDbLine
 10
480.149354
 20
-64.380114
 30
0.0
 11
397.646451
 21
-64.379648
 31
0.0
  0
ARC
  5
66D
100
AcDbEntity
  8
0
370
    -3
  6
Continuous
100
AcDbCircle
 10
397.649354
 20
-65.879645
 30
0.0
 40
1.5
100
AcDbArc
 50
89.999676
 51
269.999676
  0
LINE
  5
66E
100
AcDbEntity
  8
0
370
    -3
  6
Continuous
100
AcDbLine
 10
382.149354
 20
-67.379622
 30
0.0
 11
388.649354
 21
-67.379622
 31
0.0
  0
LINE
  5
66F
100
AcDbEntity
  8
0
370
    -3
  6
Continuous
100
AcDbLine
 10
382.149354
 20
-64.379622
 30
0.0
 11
388.649354
 21
-64.379622
 31
0.0
  0
ARC
  5
670
100
AcDbEntity
  8
0
370
    -3
  6
Continuous
100
AcDbCircle
 10
388.649354
 20
-65.879622
 30
0.0
 40
1.5
100
AcDbArc
 50
270.0
 51
90.0
  0
LINE
  5
671
100
AcDbEntity
  8
0
370
    -3
  6
CENTER
100
AcDbLine
 10
494.803456
 20
-65.879622
 30
0.0
 11
367.804443
 21
-65.879622
 31
0.0
  0
LINE
  5
672
100
AcDbEntity
  8
0
370
    -3
  6
Continuous
100
AcDbLine
 10
488.149465
 20
-65.879622
 30
0.0
 11
488.149465
 21
-87.879622
 31
0.0
  0
LINE
  5
673
100
AcDbEntity
  8
0
370
    -3
  6
Continuous
100
AcDbLine
 10
488.149465
 20
-87.879622
 30
0.0
 11
484.149465
 21
-87.879622
 31
0.0
  0
LINE
  5
674
100
AcDbEntity
  8
0
370
    -3
  6
Continuous
100
AcDbLine
 10
488.149465
 20
-65.879622
 30
0.0
 11
488.149465
 21
-43.879622
 31
0.0
  0
LINE
  5
675
100
AcDbEntity
  8
0
370
    -3
  6
Continuous
100
AcDbLine
 10
488.149465
 20
-43.879622
 30
0.0
 11
484.149465
 21
-43.879622
 31
0.0
  0
LINE
  5
676
100
AcDbEntity
  8
0
370
    -3
  6
Continuous
100
AcDbLine
 10
374.149243
 20
-65.879622
 30
0.0
 11
374.149243
 21
-87.879622
 31
0.0
  0
LINE
  5
677
100
AcDbEntity
  8
0
370
    -3
  6
Continuous
100
AcDbLine
 10
374.149243
 20
-87.879622
 30
0.0
 11
378.149243
 21
-87.879622
 31
0.0
  0
LINE
  5
678
100
AcDbEntity
  8
0
370
    -3
  6
Continuous
100
AcDbLine
 10
374.149243
 20
-43.879622
 30
0.0
 11
378.149243
 21
-43.879622
 31
0.0
  0
LINE
  5
679
100
AcDbEntity
  8
0
370
    -3
  6
Continuous
100
AcDbLine
 10
374.149243
 20
-65.879622
 30
0.0
 11
374.149243
 21
-43.879622
 31
0.0
  0
ARC
  5
67A
100
AcDbEntity
  8
0
370
    -3
  6
Continuous
100
AcDbCircle
 10
450.067421
 20
-60.596436
 30
0.0
 40
50.8
100
AcDbArc
 50
79.738654
 51
85.66015
  0
ARC
  5
67B
100
AcDbEntity
  8
0
370
    -3
  6
Continuous
100
AcDbCircle
 10
657.149354
 20
-83.879622
 30
0.0
 40
300.8
100
AcDbArc
 50
175.66015
 51
180.0
  0
ARC
  5
67C
100
AcDbEntity
  8
0
370
    -3
  6
Continuous
100
AcDbCircle
 10
407.866168
 20
-64.961555
 30
0.0
 40
50.8
100
AcDbArc
 50
140.905432
 51
175.66015
  0
ARC
  5
67D
100
AcDbEntity
  8
0
370
    -3
  6
Continuous
100
AcDbCircle
 10
431.149354
 20
-83.879622
 30
0.0
 40
80.8
100
AcDbArc
 50
129.094568
 51
140.905432
  0
ARC
  5
67E
100
AcDbEntity
  8
0
370
    -3
  6
Continuous
100
AcDbCircle
 10
431.149354
 20
-309.879622
 30
0.0
 40
300.8
100
AcDbArc
 50
90.0
 51
93.654253
  0
ARC
  5
67F
100
AcDbEntity
  8
0
370
    -3
  6
Continuous
100
AcDbCircle
 10
412.231287
 20
-60.596436
 30
0.0
 40
50.8
100
AcDbArc
 50
126.310726
 51
129.094568
  0
ARC
  5
680
100
AcDbEntity
  8
0
370
    -3
  6
Continuous
100
AcDbCircle
 10
431.149354
 20
-309.879622
 30
0.0
 40
300.8
100
AcDbArc
 50
85.66015
 51
90.0
  0
ARC
  5
681
100
AcDbEntity
  8
0
370
    -3
  6
Continuous
100
AcDbCircle
 10
450.067421
 20
-60.596436
 30
0.0
 40
50.8
100
AcDbArc
 50
50.905432
 51
53.689274
  0
ARC
  5
682
100
AcDbEntity
  8
0
370
    -3
  6
Continuous
100
AcDbCircle
 10
431.149354
 20
-83.879622
 30
0.0
 40
80.8
100
AcDbArc
 50
39.094568
 51
50.905432
  0
ARC
  5
683
100
AcDbEntity
  8
0
370
    -3
  6
Continuous
100
AcDbCircle
 10
454.432539
 20
-64.961555
 30
0.0
 40
50.8
100
AcDbArc
 50
4.33985
 51
39.094568
  0
ARC
  5
684
100
AcDbEntity
  8
0
370
    -3
  6
Continuous
100
AcDbCircle
 10
205.149354
 20
-83.879622
 30
0.0
 40
300.8
100
AcDbArc
 50
355.66015
 51
0.0
  0
ARC
  5
685
100
AcDbEntity
  8
0
370
    -3
  6
Continuous
100
AcDbCircle
 10
454.432539
 20
-102.797689
 30
0.0
 40
50.8
100
AcDbArc
 50
320.905432
 51
355.66015
  0
ARC
  5
686
100
AcDbEntity
  8
0
370
    -3
  6
Continuous
100
AcDbCircle
 10
205.149354
 20
-83.879622
 30
0.0
 40
300.8
100
AcDbArc
 50
360.0
 51
4.33985
  0
ARC
  5
687
100
AcDbEntity
  8
0
370
    -3
  6
Continuous
100
AcDbCircle
 10
431.149354
 20
-83.879622
 30
0.0
 40
80.8
100
AcDbArc
 50
309.094568
 51
320.905432
  0
ARC
  5
688
100
AcDbEntity
  8
0
370
    -3
  6
Continuous
100
AcDbCircle
 10
657.149354
 20
-83.879622
 30
0.0
 40
300.8
100
AcDbArc
 50
180.0
 51
184.33985
  0
ARC
  5
689
100
AcDbEntity
  8
0
370
    -3
  6
Continuous
100
AcDbCircle
 10
407.866168
 20
-102.797689
 30
0.0
 40
50.8
100
AcDbArc
 50
184.33985
 51
219.094568
  0
ARC
  5
68A
100
AcDbEntity
  8
0
370
    -3
  6
Continuous
100
AcDbCircle
 10
431.149354
 20
-83.879622
 30
0.0
 40
80.8
100
AcDbArc
 50
219.094568
 51
230.905432
  0
ARC
  5
68B
100
AcDbEntity
  8
0
370
    -3
  6
Continuous
100
AcDbCircle
 10
450.067421
 20
-107.162808
 30
0.0
 40
50.8
100
AcDbArc
 50
276.421918
 51
309.094568
  0
ARC
  5
68C
100
AcDbEntity
  8
0
370
    -3
  6
Continuous
100
AcDbCircle
 10
412.231287
 20
-107.162808
 30
0.0
 40
50.8
100
AcDbArc
 50
230.905432
 51
263.611373
  0
LINE
  5
68D
100
AcDbEntity
  8
0
370
    -3
  6
Continuous
100
AcDbLine
 10
393.149354
 20
-65.879622
 30
0.0
 11
393.149354
 21
-8.879622
 31
0.0
  0
LINE
  5
68E
100
AcDbEntity
  8
0
370
    -3
  6
Continuous
100
AcDbLine
 10
393.149354
 20
-65.879622
 30
0.0
 11
393.149354
 21
-122.879622
 31
0.0
  0
LINE
  5
68F
100
AcDbEntity
  8
0
370
    -3
  6
Continuous
100
AcDbLine
 10
470.649354
 20
-10.833488
 30
0.0
 11
393.149354
 21
-9.324629
 31
0.0
  0
LINE
  5
690
100
AcDbEntity
  8
0
370
    -3
  6
Continuous
100
AcDbLine
 10
470.649354
 20
-120.925756
 30
0.0
 11
393.149354
 21
-122.434615
 31
0.0
  0
LINE
  5
691
100
AcDbEntity
  8
0
370
    -3
  6
Continuous
100
AcDbLine
 10
479.649506
 20
-120.925756
 30
0.0
 11
470.649354
 21
-120.925756
 31
0.0
  0
LINE
  5
692
100
AcDbEntity
  8
0
370
    -3
  6
Continuous
100
AcDbLine
 10
502.649354
 20
-67.63924
 30
0.0
 11
502.649354
 21
-100.120004
 31
0.0
  0
ARC
  5
693
100
AcDbEntity
  8
0
370
    -3
  6
Continuous
100
AcDbCircle
 10
482.649354
 20
-67.63924
 30
0.0
 40
20.0
100
AcDbArc
 50
0.0
 51
17.502524
  0
ARC
  5
694
100
AcDbEntity
  8
0
370
    -3
  6
Continuous
100
AcDbCircle
 10
431.149354
 20
-83.879622
 30
0.0
 40
74.0
100
AcDbArc
 50
287.502524
 51
342.497476
  0
ARC
  5
695
100
AcDbEntity
  8
0
370
    -3
  6
Continuous
100
AcDbCircle
 10
482.649354
 20
-100.120004
 30
0.0
 40
20.0
100
AcDbArc
 50
342.497476
 51
0.0
  0
ARC
  5
696
100
AcDbEntity
  8
0
370
    -3
  6
Continuous
100
AcDbCircle
 10
447.389735
 20
-135.379622
 30
0.0
 40
20.0
100
AcDbArc
 50
282.838568
 51
287.502524
  0
ARC
  5
697
100
AcDbEntity
  8
0
370
    -3
  6
Continuous
100
AcDbCircle
 10
431.149354
 20
-83.879622
 30
0.0
 40
74.0
100
AcDbArc
 50
197.502524
 51
252.497476
  0
ARC
  5
698
100
AcDbEntity
  8
0
370
    -3
  6
Continuous
100
AcDbCircle
 10
414.908972
 20
-135.379622
 30
0.0
 40
20.0
100
AcDbArc
 50
252.497476
 51
257.161432
  0
LINE
  5
699
100
AcDbEntity
  8
0
370
    -3
  6
Continuous
100
AcDbLine
 10
359.649354
 20
-100.120004
 30
0.0
 11
359.649354
 21
-67.63924
 31
0.0
  0
ARC
  5
69A
100
AcDbEntity
  8
0
370
    -3
  6
Continuous
100
AcDbCircle
 10
379.649354
 20
-100.120004
 30
0.0
 40
20.0
100
AcDbArc
 50
180.0
 51
197.502524
  0
ARC
  5
69B
100
AcDbEntity
  8
0
370
    -3
  6
Continuous
100
AcDbCircle
 10
379.649354
 20
-67.63924
 30
0.0
 40
20.0
100
AcDbArc
 50
162.497476
 51
180.0
  0
LINE
  5
69C
100
AcDbEntity
  8
0
370
    -3
  6
CENTER
100
AcDbLine
 10
378.935346
 20
-20.879622
 30
0.0
 11
484.739831
 21
-20.879622
 31
0.0
  0
LINE
  5
69D
100
AcDbEntity
  8
0
370
    -3
  6
CENTER
100
AcDbLine
 10
378.518793
 20
-110.879622
 30
0.0
 11
484.739831
 21
-110.879622
 31
0.0
  0
LINE
  5
69E
100
AcDbEntity
  8
0
370
    -3
  6
Continuous
100
AcDbLine
 10
479.149506
 20
-10.833488
 30
0.0
 11
480.149354
 21
-11.85094
 31
0.0
  0
LINE
  5
69F
100
AcDbEntity
  8
0
370
    -3
  6
Continuous
100
AcDbLine
 10
479.149506
 20
-120.925756
 30
0.0
 11
480.149354
 21
-119.908304
 31
0.0
  0
LINE
  5
6A0
100
AcDbEntity
  8
0
370
    -3
  6
Continuous
100
AcDbLine
 10
484.149465
 20
-108.379622
 30
0.0
 11
480.149354
 21
-108.379622
 31
0.0
  0
LINE
  5
6A1
100
AcDbEntity
  8
0
370
    -3
  6
Continuous
100
AcDbLine
 10
484.149465
 20
-65.879622
 30
0.0
 11
484.149465
 21
-108.379622
 31
0.0
  0
LINE
  5
6A2
100
AcDbEntity
  8
0
370
    -3
  6
Continuous
100
AcDbLine
 10
480.149354
 20
-28.872805
 30
0.0
 11
480.149354
 21
-119.908304
 31
0.0
  0
LINE
  5
6A3
100
AcDbEntity
  8
0
370
    -3
  6
Continuous
100
AcDbLine
 10
484.149465
 20
-65.879622
 30
0.0
 11
484.149465
 21
-23.379622
 31
0.0
  0
LINE
  5
6A4
100
AcDbEntity
  8
0
370
    -3
  6
Continuous
100
AcDbLine
 10
484.149465
 20
-23.379622
 30
0.0
 11
480.149354
 21
-23.379622
 31
0.0
  0
LINE
  5
6A5
100
AcDbEntity
  8
0
370
    -3
  6
Continuous
100
AcDbLine
 10
480.149354
 20
-28.872805
 30
0.0
 11
480.149354
 21
-11.85094
 31
0.0
  0
LINE
  5
6A6
100
AcDbEntity
  8
0
370
    -3
  6
Continuous
100
AcDbLine
 10
479.149506
 20
-10.833488
 30
0.0
 11
470.649354
 21
-10.833488
 31
0.0
  0
ARC
  5
6A7
100
AcDbEntity
  8
0
370
    -3
  6
Continuous
100
AcDbCircle
 10
431.149354
 20
-83.879622
 30
0.0
 40
74.0
100
AcDbArc
 50
17.502524
 51
44.256915
  0
LINE
  5
6A8
100
AcDbEntity
  8
0
370
    -3
  6
Continuous
100
AcDbLine
 10
378.149243
 20
-108.379622
 30
0.0
 11
382.149354
 21
-108.379622
 31
0.0
  0
LINE
  5
6A9
100
AcDbEntity
  8
0
370
    -3
  6
Continuous
100
AcDbLine
 10
382.149354
 20
-65.879622
 30
0.0
 11
382.149354
 21
-121.857411
 31
0.0
  0
LINE
  5
6AA
100
AcDbEntity
  8
0
370
    -3
  6
Continuous
100
AcDbLine
 10
378.149243
 20
-65.879622
 30
0.0
 11
378.149243
 21
-108.379622
 31
0.0
  0
LINE
  5
6AB
100
AcDbEntity
  8
0
370
    -3
  6
Continuous
100
AcDbLine
 10
378.149243
 20
-65.879622
 30
0.0
 11
378.149243
 21
-23.379622
 31
0.0
  0
LINE
  5
6AC
100
AcDbEntity
  8
0
370
    -3
  6
Continuous
100
AcDbLine
 10
378.149243
 20
-23.379622
 30
0.0
 11
382.149354
 21
-23.379622
 31
0.0
  0
LINE
  5
6AD
100
AcDbEntity
  8
0
370
    -3
  6
Continuous
100
AcDbLine
 10
382.149354
 20
-65.879622
 30
0.0
 11
382.149354
 21
-9.901833
 31
0.0
  0
LINE
  5
6AE
100
AcDbEntity
  8
0
370
    -3
  6
Continuous
100
AcDbLine
 10
382.648322
 20
-9.379669
 30
0.0
 11
382.149354
 21
-9.901833
 31
0.0
  0
LINE
  5
6AF
100
AcDbEntity
  8
0
370
    -3
  6
Continuous
100
AcDbLine
 10
382.648322
 20
-122.379575
 30
0.0
 11
393.149354
 21
-122.856895
 31
0.0
  0
LINE
  5
6B0
100
AcDbEntity
  8
0
370
    -3
  6
Continuous
100
AcDbLine
 10
382.671026
 20
-122.403335
 30
0.0
 11
382.149354
 21
-121.857411
 31
0.0
  0
LINE
  5
6B1
100
AcDbEntity
  8
0
370
    -3
  6
Continuous
100
AcDbLine
 10
382.648322
 20
-9.379669
 30
0.0
 11
393.149354
 21
-8.90235
 31
0.0
  0
ARC
  5
6B2
100
AcDbEntity
  8
0
370
    -3
  6
Continuous
100
AcDbCircle
 10
431.149354
 20
-83.879622
 30
0.0
 40
74.0
100
AcDbArc
 50
135.743085
 51
162.497476
  0
LINE
  5
6B3
100
AcDbEntity
  8
0
370
    -3
  6
Continuous
100
AcDbLine
 10
484.374354
 20
-40.554117
 30
0.0
 11
486.223945
 21
-38.704526
 31
0.0
  0
ARC
  5
6B4
100
AcDbEntity
  8
0
370
    -3
  6
Continuous
100
AcDbCircle
 10
484.102625
 20
-36.583205
 30
0.0
 40
3.0
100
AcDbArc
 50
315.0
 51
41.770359
  0
ARC
  5
6B5
100
AcDbEntity
  8
0
370
    -3
  6
Continuous
100
AcDbCircle
 10
468.525817
 20
-141.879622
 30
0.0
 40
3.0
100
AcDbArc
 50
90.0
 51
122.798614
  0
LINE
  5
6B6
100
AcDbEntity
  8
0
370
    -3
  6
Continuous
100
AcDbLine
 10
479.491881
 20
-138.879622
 30
0.0
 11
468.525817
 21
-138.879622
 31
0.0
  0
ARC
  5
6B7
100
AcDbEntity
  8
0
370
    -3
  6
Continuous
100
AcDbCircle
 10
479.491881
 20
-135.879622
 30
0.0
 40
3.0
100
AcDbArc
 50
270.0
 51
312.9125
  0
ARC
  5
6B8
100
AcDbEntity
  8
0
370
    -3
  6
Continuous
100
AcDbCircle
 10
484.102625
 20
-131.176039
 30
0.0
 40
3.0
100
AcDbArc
 50
318.229641
 51
45.0
  0
LINE
  5
6B9
100
AcDbEntity
  8
0
370
    -3
  6
Continuous
100
AcDbLine
 10
484.374354
 20
-127.205127
 30
0.0
 11
486.223945
 21
-129.054719
 31
0.0
  0
ARC
  5
6BA
100
AcDbEntity
  8
0
370
    -3
  6
Continuous
100
AcDbCircle
 10
486.495674
 20
-125.083807
 30
0.0
 40
3.0
100
AcDbArc
 50
143.333083
 51
225.0
  0
ARC
  5
6BB
100
AcDbEntity
  8
0
370
    -3
  6
Continuous
100
AcDbCircle
 10
375.803033
 20
-125.083807
 30
0.0
 40
3.0
100
AcDbArc
 50
315.0
 51
36.666917
  0
LINE
  5
6BC
100
AcDbEntity
  8
0
370
    -3
  6
Continuous
100
AcDbLine
 10
377.924354
 20
-127.205127
 30
0.0
 11
376.074762
 21
-129.054719
 31
0.0
  0
ARC
  5
6BD
100
AcDbEntity
  8
0
370
    -3
  6
Continuous
100
AcDbCircle
 10
378.196082
 20
-131.176039
 30
0.0
 40
3.0
100
AcDbArc
 50
135.0
 51
221.770359
  0
ARC
  5
6BE
100
AcDbEntity
  8
0
370
    -3
  6
Continuous
100
AcDbCircle
 10
382.806826
 20
-135.879622
 30
0.0
 40
3.0
100
AcDbArc
 50
227.0875
 51
270.0
  0
LINE
  5
6BF
100
AcDbEntity
  8
0
370
    -3
  6
Continuous
100
AcDbLine
 10
382.806826
 20
-138.879622
 30
0.0
 11
393.77289
 21
-138.879622
 31
0.0
  0
ARC
  5
6C0
100
AcDbEntity
  8
0
370
    -3
  6
Continuous
100
AcDbCircle
 10
393.77289
 20
-141.879622
 30
0.0
 40
3.0
100
AcDbArc
 50
57.201386
 51
90.0
  0
ARC
  5
6C1
100
AcDbEntity
  8
0
370
    -3
  6
Continuous
100
AcDbCircle
 10
431.149354
 20
-83.879622
 30
0.0
 40
66.0
100
AcDbArc
 50
216.666917
 51
323.333083
  0
ARC
  5
6C2
100
AcDbEntity
  8
0
370
    -3
  6
Continuous
100
AcDbCircle
 10
378.196082
 20
-36.583205
 30
0.0
 40
3.0
100
AcDbArc
 50
138.229641
 51
225.0
  0
ARC
  5
6C3
100
AcDbEntity
  8
0
370
    -3
  6
Continuous
100
AcDbCircle
 10
431.149354
 20
-83.879622
 30
0.0
 40
66.0
100
AcDbArc
 50
323.333083
 51
30.27245
  0
ARC
  5
6C4
100
AcDbEntity
  8
0
370
    -3
  6
Continuous
100
AcDbCircle
 10
486.495674
 20
-42.675438
 30
0.0
 40
3.0
100
AcDbArc
 50
135.0
 51
141.450473
  0
ARC
  5
6C5
100
AcDbEntity
  8
0
370
    -3
  6
Continuous
100
AcDbCircle
 10
431.149354
 20
-83.879622
 30
0.0
 40
66.0
100
AcDbArc
 50
149.72755
 51
216.666917
  0
ARC
  5
6C6
100
AcDbEntity
  8
0
370
    -3
  6
Continuous
100
AcDbCircle
 10
375.803033
 20
-42.675438
 30
0.0
 40
3.0
100
AcDbArc
 50
38.549527
 51
45.0
  0
LINE
  5
6C7
100
AcDbEntity
  8
0
370
    -3
  6
Continuous
100
AcDbLine
 10
377.924354
 20
-40.554117
 30
0.0
 11
376.074762
 21
-38.704526
 31
0.0
  0
LINE
  5
6C8
100
AcDbEntity
  8
0
370
    -3
  6
CENTER
100
AcDbLine
 10
431.149354
 20
-226.128333
 30
0.0
 11
431.149354
 21
-2.256536
 31
0.0
  0
LINE
  5
6C9
100
AcDbEntity
  8
0
370
    -3
  6
Continuous
100
AcDbLine
 10
431.149354
 20
-169.879622
 30
0.0
 11
400.149354
 21
-169.879622
 31
0.0
  0
LINE
  5
6CA
100
AcDbEntity
  8
0
370
    -3
  6
Continuous
100
AcDbLine
 10
451.833833
 20
-154.879622
 30
0.0
 11
452.549354
 21
-154.879622
 31
0.0
  0
ARC
  5
6CB
100
AcDbEntity
  8
0
370
    -3
  6
Continuous
100
AcDbCircle
 10
452.549354
 20
-158.079622
 30
0.0
 40
3.2
100
AcDbArc
 50
0.0
 51
90.0
  0
LINE
  5
6CC
100
AcDbEntity
  8
0
370
    -3
  6
Continuous
100
AcDbLine
 10
410.464875
 20
-154.879622
 30
0.0
 11
409.749354
 21
-154.879622
 31
0.0
  0
ARC
  5
6CD
100
AcDbEntity
  8
0
370
    -3
  6
Continuous
100
AcDbCircle
 10
409.749354
 20
-158.079622
 30
0.0
 40
3.2
100
AcDbArc
 50
90.0
 51
172.236305
  0
ARC
  5
6CE
100
AcDbEntity
  8
0
370
    -3
  6
Continuous
100
AcDbCircle
 10
409.749354
 20
-158.079622
 30
0.0
 40
3.2
100
AcDbArc
 50
172.236305
 51
180.0
  0
LINE
  5
6CF
100
AcDbEntity
  8
0
370
    -3
  6
Continuous
100
AcDbLine
 10
431.149354
 20
-169.879622
 30
0.0
 11
462.149354
 21
-169.879622
 31
0.0
  0
ARC
  5
6D0
100
AcDbEntity
  8
0
370
    -3
  6
Continuous
100
AcDbCircle
 10
457.749354
 20
-166.279622
 30
0.0
 40
2.0
100
AcDbArc
 50
180.0
 51
270.0
  0
LINE
  5
6D1
100
AcDbEntity
  8
0
370
    -3
  6
Continuous
100
AcDbLine
 10
455.749354
 20
-166.279622
 30
0.0
 11
455.749354
 21
-158.079622
 31
0.0
  0
LINE
  5
6D2
100
AcDbEntity
  8
0
370
    -3
  6
Continuous
100
AcDbLine
 10
462.149354
 20
-169.879622
 30
0.0
 11
462.149354
 21
-168.279622
 31
0.0
  0
LINE
  5
6D3
100
AcDbEntity
  8
0
370
    -3
  6
Continuous
100
AcDbLine
 10
462.149354
 20
-168.279622
 30
0.0
 11
457.749354
 21
-168.279622
 31
0.0
  0
LINE
  5
6D4
100
AcDbEntity
  8
0
370
    -3
  6
Continuous
100
AcDbLine
 10
462.149354
 20
-169.879622
 30
0.0
 11
462.149354
 21
-170.879622
 31
0.0
  0
LINE
  5
6D5
100
AcDbEntity
  8
0
370
    -3
  6
Continuous
100
AcDbLine
 10
400.149354
 20
-169.879622
 30
0.0
 11
400.149354
 21
-170.879622
 31
0.0
  0
LINE
  5
6D6
100
AcDbEntity
  8
0
370
    -3
  6
Continuous
100
AcDbLine
 10
462.149354
 20
-170.879622
 30
0.0
 11
400.149354
 21
-170.879622
 31
0.0
  0
LINE
  5
6D7
100
AcDbEntity
  8
0
370
    -3
  6
Continuous
100
AcDbLine
 10
406.549354
 20
-166.279622
 30
0.0
 11
406.549354
 21
-158.079622
 31
0.0
  0
LINE
  5
6D8
100
AcDbEntity
  8
0
370
    -3
  6
Continuous
100
AcDbLine
 10
400.149354
 20
-169.879622
 30
0.0
 11
400.149354
 21
-168.279622
 31
0.0
  0
ARC
  5
6D9
100
AcDbEntity
  8
0
370
    -3
  6
Continuous
100
AcDbCircle
 10
404.549354
 20
-166.279622
 30
0.0
 40
2.0
100
AcDbArc
 50
270.0
 51
0.0
  0
LINE
  5
6DA
100
AcDbEntity
  8
0
370
    -3
  6
Continuous
100
AcDbLine
 10
400.149354
 20
-168.279622
 30
0.0
 11
404.549354
 21
-168.279622
 31
0.0
  0
ARC
  5
6DB
100
AcDbEntity
  8
0
370
    -3
  6
Continuous
100
AcDbCircle
 10
462.899354
 20
-213.697149
 30
0.0
 40
6.8
100
AcDbArc
 50
270.0
 51
0.0
  0
LINE
  5
6DC
100
AcDbEntity
  8
0
370
    -3
  6
Continuous
100
AcDbLine
 10
399.399354
 20
-220.497149
 30
0.0
 11
462.899354
 21
-220.497149
 31
0.0
  0
ARC
  5
6DD
100
AcDbEntity
  8
0
370
    -3
  6
Continuous
100
AcDbCircle
 10
399.399354
 20
-213.697149
 30
0.0
 40
6.8
100
AcDbArc
 50
180.0
 51
270.0
  0
ARC
  5
6DE
100
AcDbEntity
  8
0
370
    -3
  6
Continuous
100
AcDbCircle
 10
392.149354
 20
-185.691731
 30
0.0
 40
7.8
100
AcDbArc
 50
90.0
 51
180.0
  0
LINE
  5
6DF
100
AcDbEntity
  8
0
370
    -3
  6
Continuous
100
AcDbLine
 10
470.149354
 20
-177.891731
 30
0.0
 11
392.149354
 21
-177.891731
 31
0.0
  0
ARC
  5
6E0
100
AcDbEntity
  8
0
370
    -3
  6
Continuous
100
AcDbCircle
 10
470.149354
 20
-185.691731
 30
0.0
 40
7.8
100
AcDbArc
 50
0.0
 51
90.0
  0
ARC
  5
6E1
100
AcDbEntity
  8
0
370
    -3
  6
Continuous
100
AcDbCircle
 10
470.149354
 20
-180.435146
 30
0.0
 40
7.8
100
AcDbArc
 50
0.0
 51
90.0
  0
LINE
  5
6E2
100
AcDbEntity
  8
0
370
    -3
  6
Continuous
100
AcDbLine
 10
384.349354
 20
-214.550771
 30
0.0
 11
384.349354
 21
-180.435146
 31
0.0
  0
LINE
  5
6E3
100
AcDbEntity
  8
0
370
    -3
  6
Continuous
100
AcDbLine
 10
392.149354
 20
-172.635146
 30
0.0
 11
470.149354
 21
-172.635146
 31
0.0
  0
ARC
  5
6E4
100
AcDbEntity
  8
0
370
    -3
  6
Continuous
100
AcDbCircle
 10
392.149354
 20
-180.435146
 30
0.0
 40
7.8
100
AcDbArc
 50
90.0
 51
180.0
  0
LINE
  5
6E5
100
AcDbEntity
  8
0
370
    -3
  6
Continuous
100
AcDbLine
 10
469.699354
 20
-189.186512
 30
0.0
 11
469.699354
 21
-213.697149
 31
0.0
  0
ARC
  5
6E6
100
AcDbEntity
  8
0
370
    -3
  6
Continuous
100
AcDbCircle
 10
465.899354
 20
-189.186512
 30
0.0
 40
3.8
100
AcDbArc
 50
0.0
 51
66.772328
  0
LINE
  5
6E7
100
AcDbEntity
  8
0
370
    -3
  6
Continuous
100
AcDbLine
 10
467.39802
 20
-185.694522
 30
0.0
 11
458.20335
 21
-181.748423
 31
0.0
  0
ARC
  5
6E8
100
AcDbEntity
  8
0
370
    -3
  6
Continuous
100
AcDbCircle
 10
456.704684
 20
-185.240414
 30
0.0
 40
3.8
100
AcDbArc
 50
66.772328
 51
90.0
  0
LINE
  5
6E9
100
AcDbEntity
  8
0
370
    -3
  6
Continuous
100
AcDbLine
 10
394.900688
 20
-185.694522
 30
0.0
 11
404.095358
 21
-181.748423
 31
0.0
  0
LINE
  5
6EA
100
AcDbEntity
  8
0
370
    -3
  6
Continuous
100
AcDbLine
 10
405.594023
 20
-181.440414
 30
0.0
 11
456.704684
 21
-181.440414
 31
0.0
  0
ARC
  5
6EB
100
AcDbEntity
  8
0
370
    -3
  6
Continuous
100
AcDbCircle
 10
405.594023
 20
-185.240414
 30
0.0
 40
3.8
100
AcDbArc
 50
90.0
 51
113.227672
  0
LINE
  5
6EC
100
AcDbEntity
  8
0
370
    -3
  6
Continuous
100
AcDbLine
 10
392.599354
 20
-189.186512
 30
0.0
 11
392.599354
 21
-213.697149
 31
0.0
  0
ARC
  5
6ED
100
AcDbEntity
  8
0
370
    -3
  6
Continuous
100
AcDbCircle
 10
396.399354
 20
-189.186512
 30
0.0
 40
3.8
100
AcDbArc
 50
113.227672
 51
180.0
  0
ELLIPSE
  5
6EE
100
AcDbEntity
  8
0
370
    -3
  6
Continuous
100
AcDbEllipse
 10
470.649354
 20
-182.0071
 30
0.0
 11
3.5
 21
0.0
 31
0.0
210
0.0
220
0.0
230
1.0
 40
0.656603
 41
0.0
 42
6.2831853071795862
  0
LINE
  5
6EF
100
AcDbEntity
  8
0
370
    -3
  6
Continuous
100
AcDbLine
 10
470.649354
 20
-183.544554
 30
0.0
 11
472.649354
 21
-182.495366
 31
0.0
  0
LINE
  5
6F0
100
AcDbEntity
  8
0
370
    -3
  6
Continuous
100
AcDbLine
 10
470.649354
 20
-183.544554
 30
0.0
 11
468.649354
 21
-182.495366
 31
0.0
  0
LINE
  5
6F1
100
AcDbEntity
  8
0
370
    -3
  6
Continuous
100
AcDbLine
 10
469.059337
 20
-184.054381
 30
0.0
 11
470.649354
 21
-183.544554
 31
0.0
  0
LINE
  5
6F2
100
AcDbEntity
  8
0
370
    -3
  6
Continuous
100
AcDbLine
 10
472.23937
 20
-184.054381
 30
0.0
 11
470.649354
 21
-183.544554
 31
0.0
  0
LINE
  5
6F3
100
AcDbEntity
  8
0
370
    -3
  6
Continuous
100
AcDbLine
 10
469.059337
 20
-222.512642
 30
0.0
 11
470.649354
 21
-222.002816
 31
0.0
  0
LINE
  5
6F4
100
AcDbEntity
  8
0
370
    -3
  6
Continuous
100
AcDbLine
 10
470.649354
 20
-222.002816
 30
0.0
 11
468.649354
 21
-220.953628
 31
0.0
  0
LINE
  5
6F5
100
AcDbEntity
  8
0
370
    -3
  6
Continuous
100
AcDbLine
 10
470.649354
 20
-222.002816
 30
0.0
 11
472.649354
 21
-220.953628
 31
0.0
  0
LINE
  5
6F6
100
AcDbEntity
  8
0
370
    -3
  6
Continuous
100
AcDbLine
 10
472.23937
 20
-222.512642
 30
0.0
 11
470.649354
 21
-222.002816
 31
0.0
  0
ELLIPSE
  5
6F7
100
AcDbEntity
  8
0
370
    -3
  6
Continuous
100
AcDbEllipse
 10
470.649354
 20
-220.465362
 30
0.0
 11
3.5
 21
0.0
 31
0.0
210
0.0
220
0.0
230
1.0
 40
0.656603
 41
0.0
 42
6.2831853071795862
  0
ARC
  5
6F8
100
AcDbEntity
  8
0
370
    -3
  6
Continuous
100
AcDbCircle
 10
470.149354
 20
-214.550771
 30
0.0
 40
7.8
100
AcDbArc
 50
298.12516
 51
0.0
  0
ELLIPSE
  5
6F9
100
AcDbEntity
  8
0
370
    -3
  6
Continuous
100
AcDbEllipse
 10
391.649354
 20
-182.0071
 30
0.0
 11
3.5
 21
0.0
 31
0.0
210
0.0
220
0.0
230
1.0
 40
0.656603
 41
0.0
 42
6.2831853071795862
  0
LINE
  5
6FA
100
AcDbEntity
  8
0
370
    -3
  6
Continuous
100
AcDbLine
 10
391.649354
 20
-183.544554
 30
0.0
 11
389.649354
 21
-182.495366
 31
0.0
  0
LINE
  5
6FB
100
AcDbEntity
  8
0
370
    -3
  6
Continuous
100
AcDbLine
 10
391.649354
 20
-183.544554
 30
0.0
 11
393.649354
 21
-182.495366
 31
0.0
  0
LINE
  5
6FC
100
AcDbEntity
  8
0
370
    -3
  6
Continuous
100
AcDbLine
 10
393.23937
 20
-184.054381
 30
0.0
 11
391.649354
 21
-183.544554
 31
0.0
  0
LINE
  5
6FD
100
AcDbEntity
  8
0
370
    -3
  6
Continuous
100
AcDbLine
 10
390.059337
 20
-184.054381
 30
0.0
 11
391.649354
 21
-183.544554
 31
0.0
  0
LINE
  5
6FE
100
AcDbEntity
  8
0
370
    -3
  6
Continuous
100
AcDbLine
 10
393.23937
 20
-222.512642
 30
0.0
 11
391.649354
 21
-222.002816
 31
0.0
  0
LINE
  5
6FF
100
AcDbEntity
  8
0
370
    -3
  6
Continuous
100
AcDbLine
 10
391.649354
 20
-222.002816
 30
0.0
 11
393.649354
 21
-220.953628
 31
0.0
  0
LINE
  5
700
100
AcDbEntity
  8
0
370
    -3
  6
Continuous
100
AcDbLine
 10
391.649354
 20
-222.002816
 30
0.0
 11
389.649354
 21
-220.953628
 31
0.0
  0
LINE
  5
701
100
AcDbEntity
  8
0
370
    -3
  6
Continuous
100
AcDbLine
 10
390.059337
 20
-222.512642
 30
0.0
 11
391.649354
 21
-222.002816
 31
0.0
  0
ELLIPSE
  5
702
100
AcDbEntity
  8
0
370
    -3
  6
Continuous
100
AcDbEllipse
 10
391.649354
 20
-220.465362
 30
0.0
 11
3.5
 21
0.0
 31
0.0
210
0.0
220
0.0
230
1.0
 40
0.656603
 41
0.0
 42
6.2831853071795862
  0
ARC
  5
703
100
AcDbEntity
  8
0
370
    -3
  6
Continuous
100
AcDbCircle
 10
392.149354
 20
-214.550771
 30
0.0
 40
7.8
100
AcDbArc
 50
180.0
 51
241.87484
  0
LINE
  5
704
100
AcDbEntity
  8
0
370
    -3
  6
Continuous
100
AcDbLine
 10
393.650535
 20
-222.350771
 30
0.0
 11
468.648172
 21
-222.350771
 31
0.0
  0
ARC
  5
705
100
AcDbEntity
  8
0
370
    -3
  6
Continuous
100
AcDbCircle
 10
395.649354
 20
-175.679622
 30
0.0
 40
3.8
100
AcDbArc
 50
90.0
 51
126.757251
  0
ARC
  5
706
100
AcDbEntity
  8
0
370
    -3
  6
Continuous
100
AcDbCircle
 10
466.649354
 20
-175.679622
 30
0.0
 40
3.8
100
AcDbArc
 50
51.247352
 51
90.0
  0
ARC
  5
707
100
AcDbEntity
  8
0
370
    -3
  6
Continuous
100
AcDbCircle
 10
459.149354
 20
-171.879622
 30
0.0
 40
1.0
100
AcDbArc
 50
0.0
 51
90.0
  0
ARC
  5
708
100
AcDbEntity
  8
0
370
    -3
  6
Continuous
100
AcDbCircle
 10
403.149354
 20
-171.879622
 30
0.0
 40
1.0
100
AcDbArc
 50
90.0
 51
180.0
  0
LINE
  5
709
100
AcDbEntity
  8
0
370
    -3
  6
Continuous
100
AcDbLine
 10
395.649354
 20
-171.879622
 30
0.0
 11
466.649354
 21
-171.879622
 31
0.0
  0
LINE
  5
70A
100
AcDbEntity
  8
0
370
    -3
  6
CENTER
100
AcDbLine
 10
412.504421
 20
-196.879622
 30
0.0
 11
452.449811
 21
-196.879622
 31
0.0
  0
LINE
  5
70B
100
AcDbEntity
  8
0
370
    -3
  6
Continuous
100
AcDbLine
 10
477.949354
 20
-214.550771
 30
0.0
 11
477.949354
 21
-180.435146
 31
0.0
  0
ARC
  5
70C
100
AcDbEntity
  8
0
370
    -3
  6
DASHED
100
AcDbCircle
 10
431.149354
 20
-196.879622
 30
0.0
 40
17.0
100
AcDbArc
 50
90.0
 51
270.0
  0
ARC
  5
70D
100
AcDbEntity
  8
0
370
    -3
  6
DASHED
100
AcDbCircle
 10
431.149354
 20
-196.879622
 30
0.0
 40
17.0
100
AcDbArc
 50
270.0
 51
90.0
  0
ARC
  5
70E
100
AcDbEntity
  8
0
370
    -3
  6
Continuous
100
AcDbCircle
 10
-255.397811
 20
229.0
 30
0.0
 40
30.8
100
AcDbArc
 50
90.0
 51
120.0
  0
LINE
  5
70F
100
AcDbEntity
  8
0
370
    -3
  6
Continuous
100
AcDbLine
 10
-223.650646
 20
256.0
 30
0.0
 11
-103.650646
 21
256.0
 31
0.0
  0
LINE
  5
710
100
AcDbEntity
  8
0
370
    -3
  6
Continuous
100
AcDbLine
 10
-223.650646
 20
256.5
 30
0.0
 11
-103.650646
 21
256.5
 31
0.0
  0
LINE
  5
711
100
AcDbEntity
  8
0
370
    -3
  6
Continuous
100
AcDbLine
 10
-223.650646
 20
259.8
 30
0.0
 11
-255.397811
 21
259.8
 31
0.0
  0
LINE
  5
712
100
AcDbEntity
  8
0
370
    -3
  6
Continuous
100
AcDbLine
 10
-99.150646
 20
256.5
 30
0.0
 11
-103.650646
 21
256.5
 31
0.0
  0
ENDSEC
  0
SECTION
  2
OBJECTS
  0
DICTIONARY
  5
19
100
AcDbDictionary
280
     0
281
     1
  3
ACAD_GROUP
350
1A
  3
ACAD_MLINESTYLE
350
1B
  3
ACAD_LAYOUT
350
1E
  3
ACAD_PLOTSETTINGS
350
22
  3
ACAD_PLOTSTYLENAME
350
1F
  3
ACAD_WIPEOUT_VARS
350
23
  3
DWGPROPS
350
713
  0
DICTIONARY
  5
1A
102
{ACAD_REACTORS
330
19
102
}
100
AcDbDictionary
280
     0
281
     1
  0
DICTIONARY
  5
1B
102
{ACAD_REACTORS
330
19
102
}
100
AcDbDictionary
280
     0
281
     1
  3
Standard
350
1C
  0
MLINESTYLE
  5
1C
102
{ACAD_REACTORS
330
1B
102
}
100
AcDbMlineStyle
  2
Standard
 70
     0
  3

 62
     0
 51
90.0
 52
90.0
 71
     2
 49
0.5
 62
   256
  6
ByLayer
 49
-0.5
 62
   256
  6
ByLayer
  0
ACDBDICTIONARYWDFLT
  5
1F
102
{ACAD_REACTORS
330
19
102
}
100
AcDbDictionary
281
     1
  3
Normal
350
1D
100
AcDbDictionaryWithDefault
340
1D
  0
ACDBPLACEHOLDER
  5
1D
102
{ACAD_REACTORS
330
1F
102
}
  0
LAYOUT
  5
20
102
{ACAD_REACTORS
330
1E
102
}
100
AcDbPlotSettings
  1

  2

  4

  6

 40
0.0
 41
0.0
 42
0.0
 43
0.0
 44
0.0
 45
0.0
 46
0.0
 47
0.0
 48
0.0
 49
0.0
140
0.0
141
0.0
142
1.0
143
1.0
 70
  1024
 72
     0
 73
     0
 74
     0
  7

 75
     0
147
1.0
148
0.0
149
0.0
100
AcDbLayout
  1
Model
 70
     0
 71
     0
 10
0.0
 20
0.0
 11
0.0
 21
0.0
 12
0.0
 22
0.0
 32
0.0
 14
0.0
 24
0.0
 34
0.0
 15
0.0
 25
0.0
 35
0.0
146
0.0
 13
0.0
 23
0.0
 33
0.0
 16
0.0
 26
0.0
 36
0.0
 17
0.0
 27
0.0
 37
0.0
 76
     0
330
A
331
0
345
0
346
0
  0
LAYOUT
  5
21
102
{ACAD_REACTORS
330
1E
102
}
100
AcDbPlotSettings
  1

  2

  4

  6

 40
0.0
 41
0.0
 42
0.0
 43
0.0
 44
0.0
 45
0.0
 46
0.0
 47
0.0
 48
0.0
 49
0.0
140
0.0
141
0.0
142
1.0
143
1.0
 70
     0
 72
     0
 73
     0
 74
     0
  7

 75
     0
147
1.0
148
0.0
149
0.0
100
AcDbLayout
  1
Layout1
 70
     0
 71
     0
 10
0.0
 20
0.0
 11
0.0
 21
0.0
 12
0.0
 22
0.0
 32
0.0
 14
0.0
 24
0.0
 34
0.0
 15
0.0
 25
0.0
 35
0.0
146
0.0
 13
0.0
 23
0.0
 33
0.0
 16
0.0
 26
0.0
 36
0.0
 17
0.0
 27
0.0
 37
0.0
 76
     0
330
B
331
0
345
0
346
0
  0
DICTIONARY
  5
1E
102
{ACAD_REACTORS
330
19
102
}
100
AcDbDictionary
280
     0
281
     1
  3
Layout1
350
21
  3
Model
350
20
  0
DICTIONARY
  5
22
102
{ACAD_REACTORS
330
19
102
}
100
AcDbDictionary
280
     0
281
     1
  0
WIPEOUTVARIABLES
  5
23
100
AcDbWipeoutVariables
 70
     1
  0
XRECORD
  5
713
100
AcDbXrecord
280
     1
  1
DWGPROPS COOKIE
  2

  3

  4

  6

  7

  8
HK96464
  9

300
=
301
=
302
=
303
=
304
=
305
=
306
=
307
=
308
=
309
=
 40
0.0
 41
2455940.515451
 42
2455940.515451
  1

 90
        0
  0
ENDSEC
  0
EOF
