  0
SECTION
  2
HEADER
  9
$ACADVER
  1
AC1015
  9
$ACADMAINTVER
 70
     6
  9
$DWGCODEPAGE
  3
ANSI_932
  9
$INSBASE
 10
0.0
 20
0.0
 30
0.0
  9
$EXTMIN
 10
1.000000E+20
 20
1.000000E+20
 30
1.000000E+20
  9
$EXTMAX
 10
-1.000000E+20
 20
-1.000000E+20
 30
-1.000000E+20
  9
$LIMMIN
 10
0.0
 20
0.0
  9
$LIMMAX
 10
0.0
 20
0.0
  9
$ORTHOMODE
 70
     0
  9
$REGENMODE
 70
     1
  9
$FILLMODE
 70
     1
  9
$QTEXTMODE
 70
     0
  9
$MIRRTEXT
 70
     1
  9
$LTSCALE
 40
1.0
  9
$ATTMODE
 70
     1
  9
$TEXTSIZE
 40
3.2
  9
$TRACEWID
 40
0.05
  9
$TEXTSTYLE
  7
Standard
  9
$CLAYER
  8
0
  9
$CELTYPE
  6
Continuous
  9
$CECOLOR
 62
   256
  9
$CELTSCALE
 40
1.0
  9
$DISPSILH
 70
     0
  9
$DIMSCALE
 40
1.0
  9
$DIMASZ
 40
1.931852
  9
$DIMEXO
 40
1.0
  9
$DIMDLI
 40
0.38
  9
$DIMRND
 40
0.0
  9
$DIMDLE
 40
0.0
  9
$DIMEXE
 40
2.0
  9
$DIMTP
 40
0.0
  9
$DIMTM
 40
0.0
  9
$DIMTXT
 40
2.8
  9
$DIMCEN
 40
0.09
  9
$DIMTSZ
 40
0.0
  9
$DIMTOL
 70
     0
  9
$DIMLIM
 70
     0
  9
$DIMTIH
 70
     1
  9
$DIMTOH
 70
     1
  9
$DIMSE1
 70
     0
  9
$DIMSE2
 70
     0
  9
$DIMTAD
 70
     1
  9
$DIMZIN
 70
     0
  9
$DIMBLK
  1

  9
$DIMASO
 70
     1
  9
$DIMSHO
 70
     1
  9
$DIMPOST
  1

  9
$DIMAPOST
  1

  9
$DIMALT
 70
     0
  9
$DIMALTD
 70
     2
  9
$DIMALTF
 40
25.4
  9
$DIMLFAC
 40
1.0
  9
$DIMTOFL
 70
     0
  9
$DIMTVP
 40
0.0
  9
$DIMTIX
 70
     0
  9
$DIMSOXD
 70
     0
  9
$DIMSAH
 70
     0
  9
$DIMBLK1
  1

  9
$DIMBLK2
  1

  9
$DIMSTYLE
  2
Standard
  9
$DIMCLRD
 70
     0
  9
$DIMCLRE
 70
     0
  9
$DIMCLRT
 70
     0
  9
$DIMTFAC
 40
0.625
  9
$DIMGAP
 40
0.09
  9
$DIMJUST
 70
     0
  9
$DIMSD1
 70
     0
  9
$DIMSD2
 70
     0
  9
$DIMTOLJ
 70
     1
  9
$DIMTZIN
 70
     0
  9
$DIMALTZ
 70
     0
  9
$DIMALTTZ
 70
     0
  9
$DIMUPT
 70
     0
  9
$DIMDEC
 70
     4
  9
$DIMTDEC
 70
     4
  9
$DIMALTU
 70
     2
  9
$DIMALTTD
 70
     2
  9
$DIMTXSTY
  7
Standard
  9
$DIMAUNIT
 70
     0
  9
$DIMADEC
 70
     0
  9
$DIMALTRND
 40
0.0
  9
$DIMAZIN
 70
     0
  9
$DIMDSEP
 70
     0
  9
$DIMATFIT
 70
     3
  9
$DIMFRAC
 70
     0
  9
$DIMLDRBLK
  1

  9
$DIMLUNIT
 70
     2
  9
$DIMLWD
 70
     0
  9
$DIMLWE
 70
     0
  9
$DIMTMOVE
 70
     0
  9
$LUNITS
 70
     2
  9
$LUPREC
 70
     3
  9
$SKETCHINC
 40
0.1
  9
$FILLETRAD
 40
0.0
  9
$AUNITS
 70
     0
  9
$AUPREC
 70
     0
  9
$MENU
  1
acad
  9
$ELEVATION
 40
0.0
  9
$PELEVATION
 40
0.0
  9
$THICKNESS
 40
0.0
  9
$LIMCHECK
 70
     0
  9
$CHAMFERA
 40
0.0
  9
$CHAMFERB
 40
0.0
  9
$CHAMFERC
 40
0.0
  9
$CHAMFERD
 40
0.0
  9
$SKPOLY
 70
     0
  9
$TDCREATE
 40
0.000000000
  9
$TDUCREATE
 40
0.000000000
  9
$TDUPDATE
 40
0.000000000
  9
$TDUUPDATE
 40
0.000000000
  9
$TDINDWG
 40
0.0000000000
  9
$TDUSRTIMER
 40
0.0000000000
  9
$USRTIMER
 70
     1
  9
$ANGBASE
 50
0.0
  9
$ANGDIR
 70
     0
  9
$PDMODE
 70
     0
  9
$PDSIZE
 40
0.0
  9
$PLINEWID
 40
0.0
  9
$SPLFRAME
 70
     0
  9
$SPLINETYPE
 70
     6
  9
$SPLINESEGS
 70
     8
  9
$HANDSEED
  5
7E4
  9
$SURFTAB1
 70
     6
  9
$SURFTAB2
 70
     6
  9
$SURFTYPE
 70
     6
  9
$SURFU
 70
     6
  9
$SURFV
 70
     6
  9
$UCSBASE
  2

  9
$UCSNAME
  2

  9
$UCSORG
 10
0.0
 20
0.0
 30
0.0
  9
$UCSXDIR
 10
1.0
 20
0.0
 30
0.0
  9
$UCSYDIR
 10
0.0
 20
1.0
 30
0.0
  9
$UCSORTHOREF
  2

  9
$UCSORTHOVIEW
 70
     0
  9
$UCSORGTOP
 10
0.0
 20
0.0
 30
0.0
  9
$UCSORGBOTTOM
 10
0.0
 20
0.0
 30
0.0
  9
$UCSORGLEFT
 10
0.0
 20
0.0
 30
0.0
  9
$UCSORGRIGHT
 10
0.0
 20
0.0
 30
0.0
  9
$UCSORGFRONT
 10
0.0
 20
0.0
 30
0.0
  9
$UCSORGBACK
 10
0.0
 20
0.0
 30
0.0
  9
$PUCSBASE
  2

  9
$PUCSNAME
  2

  9
$PUCSORG
 10
0.0
 20
0.0
 30
0.0
  9
$PUCSXDIR
 10
1.0
 20
0.0
 30
0.0
  9
$PUCSYDIR
 10
0.0
 20
1.0
 30
0.0
  9
$PUCSORTHOREF
  2

  9
$PUCSORTHOVIEW
 70
     0
  9
$PUCSORGTOP
 10
0.0
 20
0.0
 30
0.0
  9
$PUCSORGBOTTOM
 10
0.0
 20
0.0
 30
0.0
  9
$PUCSORGLEFT
 10
0.0
 20
0.0
 30
0.0
  9
$PUCSORGRIGHT
 10
0.0
 20
0.0
 30
0.0
  9
$PUCSORGFRONT
 10
0.0
 20
0.0
 30
0.0
  9
$PUCSORGBACK
 10
0.0
 20
0.0
 30
0.0
  9
$USERI1
 70
     0
  9
$USERI2
 70
     0
  9
$USERI3
 70
     0
  9
$USERI4
 70
     0
  9
$USERI5
 70
     0
  9
$USERR1
 40
0.0
  9
$USERR2
 40
0.0
  9
$USERR3
 40
0.0
  9
$USERR4
 40
0.0
  9
$USERR5
 40
0.0
  9
$WORLDVIEW
 70
     1
  9
$SHADEDGE
 70
     3
  9
$SHADEDIF
 70
    70
  9
$TILEMODE
 70
     1
  9
$MAXACTVP
 70
    16
  9
$PINSBASE
 10
0.0
 20
0.0
 30
0.0
  9
$PLIMCHECK
 70
     0
  9
$PEXTMIN
 10
1.000000E+20
 20
1.000000E+20
 30
1.000000E+20
  9
$PEXTMAX
 10
-1.000000E+20
 20
-1.000000E+20
 30
-1.000000E+20
  9
$PLIMMIN
 10
0.0
 20
0.0
  9
$PLIMMAX
 10
12.0
 20
9.0
  9
$UNITMODE
 70
     0
  9
$VISRETAIN
 70
     0
  9
$PLINEGEN
 70
     1
  9
$PSLTSCALE
 70
     0
  9
$TREEDEPTH
 70
  3020
  9
$CMLSTYLE
  2
Standard
  9
$CMLJUST
 70
     0
  9
$CMLSCALE
 40
1.0
  9
$PROXYGRAPHICS
 70
     0
  9
$MEASUREMENT
 70
     0
  9
$CELWEIGHT
370
     0
  9
$ENDCAPS
280
     0
  9
$JOINSTYLE
280
     0
  9
$LWDISPLAY
290
     0
  9
$INSUNITS
 70
     0
  9
$HYPERLINKBASE
  1

  9
$STYLESHEET
  1

  9
$XEDIT
290
     1
  9
$CEPSNTYPE
380
     0
  9
$PSTYLEMODE
290
     1
  9
$FINGERPRINTGUID
  2

  9
$VERSIONGUID
  2

  9
$EXTNAMES
290
     1
  9
$PSVPSCALE
 40
0.0
  0
ENDSEC
  0
SECTION
  2
CLASSES
  0
CLASS
  1
LWPOLYLINE
  2
AcDbPolyline
  3
AutoCAD 2000
 90
        0
280
     0
281
     1
  0
CLASS
  1
IMAGE
  2
AcDbRasterImage
  3
ISM
 90
      127
280
     0
281
     1
  0
CLASS
  1
OLE2FRAME
  2
AcDbOle2Frame
  3
AutoCAD 2000
 90
        0
280
     0
281
     1
  0
CLASS
  1
HATCH
  2
AcDbHatch
  3
AutoCAD 2000
 90
        0
280
     0
281
     1
  0
CLASS
  1
DICTIONARYVAR
  2
AcDbDictionaryVar
  3
AutoCAD 2000
 90
        0
280
     0
281
     0
  0
CLASS
  1
RASTERVARIABLES
  2
AcDbRasterVariables
  3
ISM
 90
        0
280
     0
281
     0
  0
CLASS
  1
IMAGEDEF
  2
AcDbRasterImageDef
  3
ISM
 90
        0
280
     0
281
     0
  0
CLASS
  1
IMAGEDEF_REACTOR
  2
AcDbRasterImageDefReactor
  3
ISM
 90
        1
280
     0
281
     0
  0
CLASS
  1
IDBUFFER
  2
AcDbIdBuffer
  3
AutoCAD 2000
 90
        0
280
     0
281
     0
  0
CLASS
  1
SPATIAL_FILTER
  2
AcDbSpatialFilter
  3
AutoCAD 2000
 90
        0
280
     0
281
     0
  0
CLASS
  1
XRECORD
  2
AcDbXrecord
  3
AutoCAD 2000
 90
        0
280
     0
281
     0
  0
CLASS
  1
SORTENTSTABLE
  2
AcDbSortentsTable
  3
AutoCAD 2000
 90
        0
280
     0
281
     0
  0
CLASS
  1
LAYER_INDEX
  2
AcDbLayerIndex
  3
AutoCAD 2000
 90
        0
280
     0
281
     0
  0
CLASS
  1
SPATIAL_INDEX
  2
AcDbSpatialIndex
  3
AutoCAD 2000
 90
        0
280
     0
281
     0
  0
CLASS
  1
OBJECT_PTR
  2
CAseDLPNTableRecord
  3
"ASE-LPNTableRecord"
 90
        1
280
     0
281
     0
  0
CLASS
  1
LAYOUT
  2
AcDbLayout
  3
AutoCAD 2000
 90
        0
280
     0
281
     0
  0
CLASS
  1
PLOTSETTINGS
  2
AcDbPlotSettings
  3
AutoCAD 2000
 90
        0
280
     0
281
     0
  0
CLASS
  1
ACDBDICTIONARYWDFLT
  2
AcDbDictionaryWithDefault
  3
AutoCAD 2000
 90
        0
280
     0
281
     0
  0
CLASS
  1
ACDBPLACEHOLDER
  2
AcDbPlaceHolder
  3
AutoCAD 2000
 90
        0
280
     0
281
     0
  0
CLASS
  1
VBA_PROJECT
  2
AcDbVbaProject
  3
acadvba
 90
        0
280
     0
281
     0
  0
CLASS
  1
WIPEOUT
  2
AcDbWipeout
  3
WipeOut|AutoCAD Express Tool|expresstools@autodesk.com
 90
      127
280
     0
281
     1
  0
CLASS
  1
WIPEOUTVARIABLES
  2
AcDbWipeoutVariables
  3
WipeOut|AutoCAD Express Tool|expresstools@autodesk.com
 90
        0
280
     0
281
     0
  0
CLASS
  1
RTEXT
  2
RText
  3
RText|AutoCAD Express Tool|expresstools@autodesk.com
 90
        0
280
     0
281
     1
  0
CLASS
  1
ARCALIGNEDTEXT
  2
AcDbArcAlignedText
  3
ATEXT|AutoCAD Express Tool|expresstools@autodesk.com
 90
        0
280
     0
281
     1
  0
ENDSEC
  0
SECTION
  2
TABLES
  0
TABLE
  2
VPORT
  5
7
100
AcDbSymbolTable
 70
     1
  0
VPORT
  5
15
100
AcDbSymbolTableRecord
100
AcDbViewportTableRecord
  2
*ACTIVE
 70
     0
 10
0.0
 20
0.0
 11
1.0
 21
1.0
 12
0.0
 22
0.0
 13
0.0
 23
0.0
 14
1.0
 24
1.0
 15
0.0
 25
0.0
 16
0.0
 26
0.0
 36
1.0
 17
0.0
 27
0.0
 37
0.0
 40
100.0
 41
1.0
 42
50.0
 43
0.0
 44
0.0
 50
0.0
 51
0.0
 71
     0
 72
   100
 73
     1
 74
     1
 75
     0
 76
     0
 77
     0
 78
     0
281
     0
 65
     0
110
0.0
120
0.0
130
0.0
111
1.0
121
0.0
131
0.0
112
0.0
122
1.0
132
0.0
345
0
346
0
 79
     0
146
0.0
  0
ENDTAB
  0
TABLE
  2
LTYPE
  5
4
100
AcDbSymbolTable
 70
     7
  0
LTYPE
  5
11
100
AcDbSymbolTableRecord
100
AcDbLinetypeTableRecord
  2
ByBlock
 70
    64
  3

 72
    65
 73
     0
 40
0.0
  0
LTYPE
  5
12
100
AcDbSymbolTableRecord
100
AcDbLinetypeTableRecord
  2
ByLayer
 70
    64
  3

 72
    65
 73
     0
 40
0.0
  0
LTYPE
  5
13
100
AcDbSymbolTableRecord
100
AcDbLinetypeTableRecord
  2
Continuous
 70
    64
  3
Solid line
 72
    65
 73
     0
 40
0.0
  0
LTYPE
  5
24
100
AcDbSymbolTableRecord
100
AcDbLinetypeTableRecord
  2
DASHED
 70
    64
  3
Dashed __ __ __ __ __ __ __ __ __ __ __ __ __ _
 72
    65
 73
     2
 40
0.75
 49
0.5
 74
     0
 49
-0.25
 74
     0
  0
LTYPE
  5
25
100
AcDbSymbolTableRecord
100
AcDbLinetypeTableRecord
  2
CENTER
 70
    64
  3
Center ____ _ ____ _ ____ _ ____ _ ____ _ ____
 72
    65
 73
     4
 40
1.0
 49
0.5
 74
     0
 49
-0.25
 74
     0
 49
0.0
 74
     0
 49
-0.25
 74
     0
  0
LTYPE
  5
26
100
AcDbSymbolTableRecord
100
AcDbLinetypeTableRecord
  2
DIVIDE
 70
    64
  3
Divide ____ . . ____ . . ____ . . ____ . . ____
 72
    65
 73
     6
 40
1.25
 49
0.5
 74
     0
 49
-0.25
 74
     0
 49
0.0
 74
     0
 49
-0.25
 74
     0
 49
0.0
 74
     0
 49
-0.25
 74
     0
  0
LTYPE
  5
27
100
AcDbSymbolTableRecord
100
AcDbLinetypeTableRecord
  2
PHANTOM
 70
    64
  3
Phantom ______  __  __  ______  __  __  ______
 72
    65
 73
     6
 40
9.0
 49
4.3
 74
     0
 49
-0.7
 74
     0
 49
1.3
 74
     0
 49
-0.7
 74
     0
 49
1.3
 74
     0
 49
-0.7
 74
     0
  0
ENDTAB
  0
TABLE
  2
LAYER
  5
2
100
AcDbSymbolTable
 70
     6
  0
LAYER
  5
14
100
AcDbSymbolTableRecord
100
AcDbLayerTableRecord
  2
0
 70
    64
 62
     3
  6
Continuous
290
     1
370
    -3
390
1D
  0
LAYER
  5
28
100
AcDbSymbolTableRecord
100
AcDbLayerTableRecord
  2
1
 70
    64
 62
    42
  6
Continuous
290
     1
370
    -3
390
1D
  0
LAYER
  5
29
100
AcDbSymbolTableRecord
100
AcDbLayerTableRecord
  2
2
 70
    64
 62
     4
  6
Continuous
290
     1
370
    -3
390
1D
  0
LAYER
  5
2A
100
AcDbSymbolTableRecord
100
AcDbLayerTableRecord
  2
3
 70
    64
 62
    42
  6
Continuous
290
     1
370
    -3
390
1D
  0
LAYER
  5
2B
100
AcDbSymbolTableRecord
100
AcDbLayerTableRecord
  2
5
 70
    64
 62
   191
  6
Continuous
290
     1
370
    -3
390
1D
  0
LAYER
  5
2C
100
AcDbSymbolTableRecord
100
AcDbLayerTableRecord
  2
10
 70
    64
 62
     7
  6
Continuous
290
     1
370
    -3
390
1D
  0
ENDTAB
  0
TABLE
  2
STYLE
  5
3
100
AcDbSymbolTable
 70
     2
  0
STYLE
  5
17
100
AcDbSymbolTableRecord
100
AcDbTextStyleTableRecord
  2
Standard
 70
     0
 40
0.0
 41
1.0
 50
0.0
 71
     0
 42
0.0
  3
txt
  4

  0
STYLE
  5
7DC
100
AcDbSymbolTableRecord
100
AcDbTextStyleTableRecord
  2
ZU_SHPTB00001
 70
     0
 40
0.0
 41
1.0
 50
0.0
 71
     0
 42
0.0
  3
monotxt
  4
bigfont
  0
ENDTAB
  0
TABLE
  2
VIEW
  5
5
100
AcDbSymbolTable
 70
     0
  0
ENDTAB
  0
TABLE
  2
UCS
  5
6
100
AcDbSymbolTable
 70
     0
  0
ENDTAB
  0
TABLE
  2
APPID
  5
8
100
AcDbSymbolTable
 70
     1
  0
APPID
  5
16
100
AcDbSymbolTableRecord
100
AcDbRegAppTableRecord
  2
ACAD
 70
     0
  0
ENDTAB
  0
TABLE
  2
DIMSTYLE
  5
9
100
AcDbSymbolTable
 70
     1
100
AcDbDimStyleTable
 71
     0
  0
DIMSTYLE
105
18
100
AcDbSymbolTableRecord
100
AcDbDimStyleTableRecord
  2
Standard
 70
     0
  3

  4

 40
1.0
 41
0.18
 42
0.0625
 43
0.38
 44
0.18
 45
0.0
 46
0.0
 47
0.0
 48
0.0
 71
     0
 72
     0
 73
     1
 74
     1
 75
     0
 76
     0
 77
     0
 78
     0
 79
     0
140
0.18
141
0.09
142
0.0
143
25.4
144
1.0
145
0.0
146
1.0
147
0.09
148
0.0
170
     0
171
     2
172
     0
173
     0
174
     0
175
     0
176
     0
177
     0
178
     0
179
     0
271
     4
272
     4
273
     2
274
     2
275
     0
276
     0
277
     2
278
    46
279
     0
280
     0
281
     0
282
     0
283
     1
284
     0
285
     0
286
     0
288
     0
289
     3
340
17
341
0
342
0
343
0
344
0
371
    -2
372
    -2
  0
ENDTAB
  0
TABLE
  2
BLOCK_RECORD
  5
1
100
AcDbSymbolTable
 70
    18
  0
BLOCK_RECORD
  5
A
100
AcDbSymbolTableRecord
100
AcDbBlockTableRecord
  2
*MODEL_SPACE
340
20
  0
BLOCK_RECORD
  5
B
100
AcDbSymbolTableRecord
100
AcDbBlockTableRecord
  2
*PAPER_SPACE
340
21
  0
BLOCK_RECORD
  5
46
100
AcDbSymbolTableRecord
100
AcDbBlockTableRecord
  2
ZU_SYM__USERS_HOME_SYMBOL_POO_SYM_B21_21
340
0
102
{BLKREFS
331
56
102
}
  0
BLOCK_RECORD
  5
57
100
AcDbSymbolTableRecord
100
AcDbBlockTableRecord
  2
ZU_SYM__USERS_HOME_SYMBOL_POO_SYM_B21_0000121
340
0
102
{BLKREFS
331
67
102
}
  0
BLOCK_RECORD
  5
68
100
AcDbSymbolTableRecord
100
AcDbBlockTableRecord
  2
ZU_SYM__USERS_HOME_SYMBOL_POO_SYM_B21_0000221
340
0
102
{BLKREFS
331
78
102
}
  0
BLOCK_RECORD
  5
79
100
AcDbSymbolTableRecord
100
AcDbBlockTableRecord
  2
ZU_SYM_C__ZUOU_AC_BLOCK_BLKF030_00
340
0
102
{BLKREFS
331
80
102
}
  0
BLOCK_RECORD
  5
81
100
AcDbSymbolTableRecord
100
AcDbBlockTableRecord
  2
ZU_SYM_K__CAD_SYM_POO_SYM_B21_20
340
0
102
{BLKREFS
331
91
102
}
  0
BLOCK_RECORD
  5
92
100
AcDbSymbolTableRecord
100
AcDbBlockTableRecord
  2
ZU_SYM_K__CAD_SYM_POO_SYM_B21_0000320
340
0
102
{BLKREFS
331
A2
102
}
  0
BLOCK_RECORD
  5
A3
100
AcDbSymbolTableRecord
100
AcDbBlockTableRecord
  2
ZU_SYM_K__CAD_SYM_POO_SYM_B21_0000420
340
0
102
{BLKREFS
331
B3
102
}
  0
BLOCK_RECORD
  5
B4
100
AcDbSymbolTableRecord
100
AcDbBlockTableRecord
  2
ZU_SYM_K__CAD_SYM_POO_SYM_B21_0000520
340
0
102
{BLKREFS
331
C4
102
}
  0
BLOCK_RECORD
  5
C5
100
AcDbSymbolTableRecord
100
AcDbBlockTableRecord
  2
ZU_SYM_K__CAD_SYM_POO_SYM_S07_16
340
0
102
{BLKREFS
331
CF
102
}
  0
BLOCK_RECORD
  5
5D7
100
AcDbSymbolTableRecord
100
AcDbBlockTableRecord
  2
ZU_SYM_C__ZUOU_AC_BLOCK_BLKF052_00
340
0
102
{BLKREFS
331
5F5
102
}
  0
BLOCK_RECORD
  5
626
100
AcDbSymbolTableRecord
100
AcDbBlockTableRecord
  2
ZU_SYM_K__CAD_SYM_POO_SYM_B21_0000620
340
0
102
{BLKREFS
331
636
102
}
  0
BLOCK_RECORD
  5
638
100
AcDbSymbolTableRecord
100
AcDbBlockTableRecord
  2
ZU_SYM_K__CAD_SYM_POO_SYM_B21_0000720
340
0
102
{BLKREFS
331
648
102
}
  0
BLOCK_RECORD
  5
656
100
AcDbSymbolTableRecord
100
AcDbBlockTableRecord
  2
ZU_SYM_K__CAD_SYM_POO_SYM_B21_0000820
340
0
102
{BLKREFS
331
666
102
}
  0
BLOCK_RECORD
  5
66A
100
AcDbSymbolTableRecord
100
AcDbBlockTableRecord
  2
ZU_SYM_K__CAD_SYM_POO_SYM_B21_0000920
340
0
102
{BLKREFS
331
67A
102
}
  0
BLOCK_RECORD
  5
68B
100
AcDbSymbolTableRecord
100
AcDbBlockTableRecord
  2
ZU_SYM_K__CAD_SYM_POO_SYM_B21_0001020
340
0
102
{BLKREFS
331
69B
102
}
  0
BLOCK_RECORD
  5
6A8
100
AcDbSymbolTableRecord
100
AcDbBlockTableRecord
  2
ZU_SYM_K__CAD_SYM_POO_SYM_B21_0001120
340
0
102
{BLKREFS
331
6B8
102
}
  0
BLOCK_RECORD
  5
6BD
100
AcDbSymbolTableRecord
100
AcDbBlockTableRecord
  2
ZU_SYM_C__ZUOU_AC_BLOCK_BLKF074_00
340
0
102
{BLKREFS
331
6CC
102
}
  0
BLOCK_RECORD
  5
798
100
AcDbSymbolTableRecord
100
AcDbBlockTableRecord
  2
ZU_SYM_C__ZUOU_AC_BLOCK_BLKF030_0001200
340
0
102
{BLKREFS
331
79F
102
}
  0
ENDTAB
  0
ENDSEC
  0
SECTION
  2
BLOCKS
  0
BLOCK
  5
D
100
AcDbEntity
  8
0
390
0
100
AcDbBlockBegin
  2
*MODEL_SPACE
 70
     0
 10
0.0
 20
0.0
 30
0.0
  3
*MODEL_SPACE
  1

  0
ENDBLK
  5
E
100
AcDbEntity
  8
0
390
0
100
AcDbBlockEnd
  0
BLOCK
  5
F
100
AcDbEntity
 67
     1
  8
0
390
0
100
AcDbBlockBegin
  2
*PAPER_SPACE
 70
     0
 10
0.0
 20
0.0
 30
0.0
  3
*PAPER_SPACE
  1

  0
ENDBLK
  5
10
100
AcDbEntity
 67
     1
  8
0
390
0
100
AcDbBlockEnd
  0
BLOCK
  5
47
100
AcDbEntity
  8
0
390
0
100
AcDbBlockBegin
  2
ZU_SYM__USERS_HOME_SYMBOL_POO_SYM_B21_21
 70
    64
 10
0.0
 20
0.0
 30
0.0
  3
ZU_SYM__USERS_HOME_SYMBOL_POO_SYM_B21_21
  1

  0
POINT
  5
48
100
AcDbEntity
  8
0
370
    -3
390
0
  6
Continuous
100
AcDbPoint
 10
0.0
 20
0.0
 30
0.0
  0
LINE
  5
49
100
AcDbEntity
  8
0
370
    -3
390
0
  6
Continuous
100
AcDbLine
 10
0.0
 20
14.0
 30
0.0
 11
0.0
 21
-14.0
 31
0.0
  0
LINE
  5
4A
100
AcDbEntity
  8
0
370
    -3
390
0
  6
Continuous
100
AcDbLine
 10
-4.0
 20
-14.0
 30
0.0
 11
-4.0
 21
14.0
 31
0.0
  0
LINE
  5
4B
100
AcDbEntity
  8
0
370
    -3
390
0
  6
Continuous
100
AcDbLine
 10
-19.999962
 20
-10.268356
 30
0.0
 11
-19.999977
 21
10.267579
 31
0.0
  0
LINE
  5
4C
100
AcDbEntity
  8
0
370
    -3
390
0
  6
Continuous
100
AcDbLine
 10
-4.0
 20
12.0
 30
0.0
 11
-18.999985
 21
12.0
 31
0.0
  0
LINE
  5
4D
100
AcDbEntity
  8
0
370
    -3
390
0
  6
Continuous
100
AcDbLine
 10
-4.0
 20
-12.0
 30
0.0
 11
-18.999969
 21
-12.0
 31
0.0
  0
LINE
  5
4E
100
AcDbEntity
  8
0
370
    -3
390
0
  6
Continuous
100
AcDbLine
 10
0.0
 20
14.0
 30
0.0
 11
-4.0
 21
14.0
 31
0.0
  0
LINE
  5
4F
100
AcDbEntity
  8
0
370
    -3
390
0
  6
Continuous
100
AcDbLine
 10
0.0
 20
-14.0
 30
0.0
 11
-4.0
 21
-14.0
 31
0.0
  0
LINE
  5
50
100
AcDbEntity
  8
0
370
    -3
390
0
  6
Continuous
100
AcDbLine
 10
-18.999981
 20
11.999997
 30
0.0
 11
-19.999966
 21
10.267576
 31
0.0
  0
LINE
  5
51
100
AcDbEntity
  8
0
370
    -3
390
0
  6
Continuous
100
AcDbLine
 10
-18.999973
 20
-12.0
 30
0.0
 11
-19.999958
 21
-10.268356
 31
0.0
  0
LINE
  5
52
100
AcDbEntity
  8
0
370
    -3
390
0
  6
Continuous
100
AcDbLine
 10
-18.999985
 20
12.0
 30
0.0
 11
-18.999985
 21
-12.0
 31
0.0
  0
LINE
  5
53
100
AcDbEntity
  8
0
370
    -3
390
0
  6
Continuous
100
AcDbLine
 10
0.000001
 20
0.182041
 30
0.0
 11
-3.999999
 21
-1.273837
 31
0.0
  0
LINE
  5
54
100
AcDbEntity
  8
0
370
    -3
390
0
  6
Continuous
100
AcDbLine
 10
-4.0
 20
-0.222603
 30
0.0
 11
0.000001
 21
1.233275
 31
0.0
  0
ENDBLK
  5
55
100
AcDbEntity
  8
0
390
0
100
AcDbBlockEnd
  0
BLOCK
  5
58
100
AcDbEntity
  8
0
390
0
100
AcDbBlockBegin
  2
ZU_SYM__USERS_HOME_SYMBOL_POO_SYM_B21_0000121
 70
    64
 10
0.0
 20
0.0
 30
0.0
  3
ZU_SYM__USERS_HOME_SYMBOL_POO_SYM_B21_0000121
  1

  0
POINT
  5
59
100
AcDbEntity
  8
0
370
    -3
390
0
  6
Continuous
100
AcDbPoint
 10
0.0
 20
0.0
 30
0.0
  0
LINE
  5
5A
100
AcDbEntity
  8
0
370
    -3
390
0
  6
Continuous
100
AcDbLine
 10
0.0
 20
14.0
 30
0.0
 11
0.0
 21
-14.0
 31
0.0
  0
LINE
  5
5B
100
AcDbEntity
  8
0
370
    -3
390
0
  6
Continuous
100
AcDbLine
 10
-4.0
 20
-14.0
 30
0.0
 11
-4.0
 21
14.0
 31
0.0
  0
LINE
  5
5C
100
AcDbEntity
  8
0
370
    -3
390
0
  6
Continuous
100
AcDbLine
 10
-19.999962
 20
-10.268356
 30
0.0
 11
-19.999977
 21
10.267579
 31
0.0
  0
LINE
  5
5D
100
AcDbEntity
  8
0
370
    -3
390
0
  6
Continuous
100
AcDbLine
 10
-4.0
 20
12.0
 30
0.0
 11
-18.999985
 21
12.0
 31
0.0
  0
LINE
  5
5E
100
AcDbEntity
  8
0
370
    -3
390
0
  6
Continuous
100
AcDbLine
 10
-4.0
 20
-12.0
 30
0.0
 11
-18.999969
 21
-12.0
 31
0.0
  0
LINE
  5
5F
100
AcDbEntity
  8
0
370
    -3
390
0
  6
Continuous
100
AcDbLine
 10
0.0
 20
14.0
 30
0.0
 11
-4.0
 21
14.0
 31
0.0
  0
LINE
  5
60
100
AcDbEntity
  8
0
370
    -3
390
0
  6
Continuous
100
AcDbLine
 10
0.0
 20
-14.0
 30
0.0
 11
-4.0
 21
-14.0
 31
0.0
  0
LINE
  5
61
100
AcDbEntity
  8
0
370
    -3
390
0
  6
Continuous
100
AcDbLine
 10
-18.999981
 20
11.999997
 30
0.0
 11
-19.999966
 21
10.267576
 31
0.0
  0
LINE
  5
62
100
AcDbEntity
  8
0
370
    -3
390
0
  6
Continuous
100
AcDbLine
 10
-18.999973
 20
-12.0
 30
0.0
 11
-19.999958
 21
-10.268356
 31
0.0
  0
LINE
  5
63
100
AcDbEntity
  8
0
370
    -3
390
0
  6
Continuous
100
AcDbLine
 10
-18.999985
 20
12.0
 30
0.0
 11
-18.999985
 21
-12.0
 31
0.0
  0
LINE
  5
64
100
AcDbEntity
  8
0
370
    -3
390
0
  6
Continuous
100
AcDbLine
 10
0.000001
 20
0.182041
 30
0.0
 11
-3.999999
 21
-1.273837
 31
0.0
  0
LINE
  5
65
100
AcDbEntity
  8
0
370
    -3
390
0
  6
Continuous
100
AcDbLine
 10
-4.0
 20
-0.222603
 30
0.0
 11
0.000001
 21
1.233275
 31
0.0
  0
ENDBLK
  5
66
100
AcDbEntity
  8
0
390
0
100
AcDbBlockEnd
  0
BLOCK
  5
69
100
AcDbEntity
  8
0
390
0
100
AcDbBlockBegin
  2
ZU_SYM__USERS_HOME_SYMBOL_POO_SYM_B21_0000221
 70
    64
 10
0.0
 20
0.0
 30
0.0
  3
ZU_SYM__USERS_HOME_SYMBOL_POO_SYM_B21_0000221
  1

  0
POINT
  5
6A
100
AcDbEntity
  8
0
370
    -3
390
0
  6
Continuous
100
AcDbPoint
 10
0.0
 20
0.0
 30
0.0
  0
LINE
  5
6B
100
AcDbEntity
  8
0
370
    -3
390
0
  6
Continuous
100
AcDbLine
 10
0.0
 20
14.0
 30
0.0
 11
0.0
 21
-14.0
 31
0.0
  0
LINE
  5
6C
100
AcDbEntity
  8
0
370
    -3
390
0
  6
Continuous
100
AcDbLine
 10
-4.0
 20
-14.0
 30
0.0
 11
-4.0
 21
14.0
 31
0.0
  0
LINE
  5
6D
100
AcDbEntity
  8
0
370
    -3
390
0
  6
Continuous
100
AcDbLine
 10
-19.999962
 20
-10.268356
 30
0.0
 11
-19.999977
 21
10.267579
 31
0.0
  0
LINE
  5
6E
100
AcDbEntity
  8
0
370
    -3
390
0
  6
Continuous
100
AcDbLine
 10
-4.0
 20
12.0
 30
0.0
 11
-18.999985
 21
12.0
 31
0.0
  0
LINE
  5
6F
100
AcDbEntity
  8
0
370
    -3
390
0
  6
Continuous
100
AcDbLine
 10
-4.0
 20
-12.0
 30
0.0
 11
-18.999969
 21
-12.0
 31
0.0
  0
LINE
  5
70
100
AcDbEntity
  8
0
370
    -3
390
0
  6
Continuous
100
AcDbLine
 10
0.0
 20
14.0
 30
0.0
 11
-4.0
 21
14.0
 31
0.0
  0
LINE
  5
71
100
AcDbEntity
  8
0
370
    -3
390
0
  6
Continuous
100
AcDbLine
 10
0.0
 20
-14.0
 30
0.0
 11
-4.0
 21
-14.0
 31
0.0
  0
LINE
  5
72
100
AcDbEntity
  8
0
370
    -3
390
0
  6
Continuous
100
AcDbLine
 10
-18.999981
 20
11.999997
 30
0.0
 11
-19.999966
 21
10.267576
 31
0.0
  0
LINE
  5
73
100
AcDbEntity
  8
0
370
    -3
390
0
  6
Continuous
100
AcDbLine
 10
-18.999973
 20
-12.0
 30
0.0
 11
-19.999958
 21
-10.268356
 31
0.0
  0
LINE
  5
74
100
AcDbEntity
  8
0
370
    -3
390
0
  6
Continuous
100
AcDbLine
 10
-18.999985
 20
12.0
 30
0.0
 11
-18.999985
 21
-12.0
 31
0.0
  0
LINE
  5
75
100
AcDbEntity
  8
0
370
    -3
390
0
  6
Continuous
100
AcDbLine
 10
0.000001
 20
0.182041
 30
0.0
 11
-3.999999
 21
-1.273837
 31
0.0
  0
LINE
  5
76
100
AcDbEntity
  8
0
370
    -3
390
0
  6
Continuous
100
AcDbLine
 10
-4.0
 20
-0.222603
 30
0.0
 11
0.000001
 21
1.233275
 31
0.0
  0
ENDBLK
  5
77
100
AcDbEntity
  8
0
390
0
100
AcDbBlockEnd
  0
BLOCK
  5
7A
100
AcDbEntity
  8
0
390
0
100
AcDbBlockBegin
  2
ZU_SYM_C__ZUOU_AC_BLOCK_BLKF030_00
 70
    64
 10
0.0
 20
0.0
 30
0.0
  3
ZU_SYM_C__ZUOU_AC_BLOCK_BLKF030_00
  1

  0
LINE
  5
7B
100
AcDbEntity
  8
0
370
    -3
390
0
  6
Continuous
100
AcDbLine
 10
299.075267
 20
207.337117
 30
0.0
 11
294.075267
 21
209.837118
 31
0.0
  0
LINE
  5
7C
100
AcDbEntity
  8
0
370
    -3
390
0
  6
Continuous
100
AcDbLine
 10
299.075267
 20
202.337115
 30
0.0
 11
299.075267
 21
207.337117
 31
0.0
  0
LINE
  5
7D
100
AcDbEntity
  8
0
370
    -3
390
0
  6
Continuous
100
AcDbLine
 10
289.075267
 20
207.337117
 30
0.0
 11
289.075267
 21
202.337115
 31
0.0
  0
LINE
  5
7E
100
AcDbEntity
  8
0
370
    -3
390
0
  6
Continuous
100
AcDbLine
 10
294.075267
 20
209.837118
 30
0.0
 11
289.075267
 21
207.337117
 31
0.0
  0
ENDBLK
  5
7F
100
AcDbEntity
  8
0
390
0
100
AcDbBlockEnd
  0
BLOCK
  5
82
100
AcDbEntity
  8
0
390
0
100
AcDbBlockBegin
  2
ZU_SYM_K__CAD_SYM_POO_SYM_B21_20
 70
    64
 10
0.0
 20
0.0
 30
0.0
  3
ZU_SYM_K__CAD_SYM_POO_SYM_B21_20
  1

  0
POINT
  5
83
100
AcDbEntity
  8
0
370
    -3
390
0
  6
Continuous
100
AcDbPoint
 10
0.0
 20
0.0
 30
0.0
  0
LINE
  5
84
100
AcDbEntity
  8
0
370
    -3
390
0
  6
Continuous
100
AcDbLine
 10
0.0
 20
10.75
 30
0.0
 11
0.0
 21
-10.75
 31
0.0
  0
LINE
  5
85
100
AcDbEntity
  8
0
370
    -3
390
0
  6
Continuous
100
AcDbLine
 10
-3.0
 20
-10.75
 30
0.0
 11
-3.0
 21
10.75
 31
0.0
  0
LINE
  5
86
100
AcDbEntity
  8
0
370
    -3
390
0
  6
Continuous
100
AcDbLine
 10
-14.999958
 20
-7.787735
 30
0.0
 11
-14.999973
 21
7.78734
 31
0.0
  0
LINE
  5
87
100
AcDbEntity
  8
0
370
    -3
390
0
  6
Continuous
100
AcDbLine
 10
-3.0
 20
-9.0
 30
0.0
 11
-14.299961
 21
-9.0
 31
0.0
  0
LINE
  5
88
100
AcDbEntity
  8
0
370
    -3
390
0
  6
Continuous
100
AcDbLine
 10
-3.0
 20
9.0
 30
0.0
 11
-14.299976
 21
9.0
 31
0.0
  0
LINE
  5
89
100
AcDbEntity
  8
0
370
    -3
390
0
  6
Continuous
100
AcDbLine
 10
0.0
 20
10.75
 30
0.0
 11
-3.0
 21
10.75
 31
0.0
  0
LINE
  5
8A
100
AcDbEntity
  8
0
370
    -3
390
0
  6
Continuous
100
AcDbLine
 10
0.0
 20
-10.75
 30
0.0
 11
-3.0
 21
-10.75
 31
0.0
  0
LINE
  5
8B
100
AcDbEntity
  8
0
370
    -3
390
0
  6
Continuous
100
AcDbLine
 10
-14.299981
 20
9.000001
 30
0.0
 11
-14.999978
 21
7.787341
 31
0.0
  0
LINE
  5
8C
100
AcDbEntity
  8
0
370
    -3
390
0
  6
Continuous
100
AcDbLine
 10
-14.299962
 20
-9.000003
 30
0.0
 11
-14.999959
 21
-7.787739
 31
0.0
  0
LINE
  5
8D
100
AcDbEntity
  8
0
370
    -3
390
0
  6
Continuous
100
AcDbLine
 10
-14.299976
 20
9.0
 30
0.0
 11
-14.299976
 21
-9.0
 31
0.0
  0
LINE
  5
8E
100
AcDbEntity
  8
0
370
    -3
390
0
  6
Continuous
100
AcDbLine
 10
-2.999999
 20
-0.025431
 30
0.0
 11
0.000001
 21
1.066476
 31
0.0
  0
LINE
  5
8F
100
AcDbEntity
  8
0
370
    -3
390
0
  6
Continuous
100
AcDbLine
 10
0.000001
 20
0.015238
 30
0.0
 11
-2.999999
 21
-1.076669
 31
0.0
  0
ENDBLK
  5
90
100
AcDbEntity
  8
0
390
0
100
AcDbBlockEnd
  0
BLOCK
  5
93
100
AcDbEntity
  8
0
390
0
100
AcDbBlockBegin
  2
ZU_SYM_K__CAD_SYM_POO_SYM_B21_0000320
 70
    64
 10
0.0
 20
0.0
 30
0.0
  3
ZU_SYM_K__CAD_SYM_POO_SYM_B21_0000320
  1

  0
POINT
  5
94
100
AcDbEntity
  8
0
370
    -3
390
0
  6
Continuous
100
AcDbPoint
 10
0.0
 20
0.0
 30
0.0
  0
LINE
  5
95
100
AcDbEntity
  8
0
370
    -3
390
0
  6
Continuous
100
AcDbLine
 10
0.0
 20
10.75
 30
0.0
 11
0.0
 21
-10.75
 31
0.0
  0
LINE
  5
96
100
AcDbEntity
  8
0
370
    -3
390
0
  6
Continuous
100
AcDbLine
 10
-3.0
 20
-10.75
 30
0.0
 11
-3.0
 21
10.75
 31
0.0
  0
LINE
  5
97
100
AcDbEntity
  8
0
370
    -3
390
0
  6
Continuous
100
AcDbLine
 10
-14.999958
 20
-7.787735
 30
0.0
 11
-14.999973
 21
7.78734
 31
0.0
  0
LINE
  5
98
100
AcDbEntity
  8
0
370
    -3
390
0
  6
Continuous
100
AcDbLine
 10
-3.0
 20
-9.0
 30
0.0
 11
-14.299961
 21
-9.0
 31
0.0
  0
LINE
  5
99
100
AcDbEntity
  8
0
370
    -3
390
0
  6
Continuous
100
AcDbLine
 10
-3.0
 20
9.0
 30
0.0
 11
-14.299976
 21
9.0
 31
0.0
  0
LINE
  5
9A
100
AcDbEntity
  8
0
370
    -3
390
0
  6
Continuous
100
AcDbLine
 10
0.0
 20
10.75
 30
0.0
 11
-3.0
 21
10.75
 31
0.0
  0
LINE
  5
9B
100
AcDbEntity
  8
0
370
    -3
390
0
  6
Continuous
100
AcDbLine
 10
0.0
 20
-10.75
 30
0.0
 11
-3.0
 21
-10.75
 31
0.0
  0
LINE
  5
9C
100
AcDbEntity
  8
0
370
    -3
390
0
  6
Continuous
100
AcDbLine
 10
-14.299981
 20
9.000001
 30
0.0
 11
-14.999978
 21
7.787341
 31
0.0
  0
LINE
  5
9D
100
AcDbEntity
  8
0
370
    -3
390
0
  6
Continuous
100
AcDbLine
 10
-14.299962
 20
-9.000003
 30
0.0
 11
-14.999959
 21
-7.787739
 31
0.0
  0
LINE
  5
9E
100
AcDbEntity
  8
0
370
    -3
390
0
  6
Continuous
100
AcDbLine
 10
-14.299976
 20
9.0
 30
0.0
 11
-14.299976
 21
-9.0
 31
0.0
  0
LINE
  5
9F
100
AcDbEntity
  8
0
370
    -3
390
0
  6
Continuous
100
AcDbLine
 10
-2.999999
 20
-0.025431
 30
0.0
 11
0.000001
 21
1.066476
 31
0.0
  0
LINE
  5
A0
100
AcDbEntity
  8
0
370
    -3
390
0
  6
Continuous
100
AcDbLine
 10
0.000001
 20
0.015238
 30
0.0
 11
-2.999999
 21
-1.076669
 31
0.0
  0
ENDBLK
  5
A1
100
AcDbEntity
  8
0
390
0
100
AcDbBlockEnd
  0
BLOCK
  5
A4
100
AcDbEntity
  8
0
390
0
100
AcDbBlockBegin
  2
ZU_SYM_K__CAD_SYM_POO_SYM_B21_0000420
 70
    64
 10
0.0
 20
0.0
 30
0.0
  3
ZU_SYM_K__CAD_SYM_POO_SYM_B21_0000420
  1

  0
LINE
  5
A5
100
AcDbEntity
  8
0
370
    -3
390
0
  6
Continuous
100
AcDbLine
 10
0.000001
 20
0.015238
 30
0.0
 11
-2.999999
 21
-1.076669
 31
0.0
  0
LINE
  5
A6
100
AcDbEntity
  8
0
370
    -3
390
0
  6
Continuous
100
AcDbLine
 10
-2.999999
 20
-0.025431
 30
0.0
 11
0.000001
 21
1.066476
 31
0.0
  0
LINE
  5
A7
100
AcDbEntity
  8
0
370
    -3
390
0
  6
Continuous
100
AcDbLine
 10
-14.299976
 20
9.0
 30
0.0
 11
-14.299976
 21
-9.0
 31
0.0
  0
LINE
  5
A8
100
AcDbEntity
  8
0
370
    -3
390
0
  6
Continuous
100
AcDbLine
 10
-14.299962
 20
-9.000003
 30
0.0
 11
-14.999959
 21
-7.787739
 31
0.0
  0
LINE
  5
A9
100
AcDbEntity
  8
0
370
    -3
390
0
  6
Continuous
100
AcDbLine
 10
-14.299981
 20
9.000001
 30
0.0
 11
-14.999978
 21
7.787341
 31
0.0
  0
LINE
  5
AA
100
AcDbEntity
  8
0
370
    -3
390
0
  6
Continuous
100
AcDbLine
 10
0.0
 20
-10.75
 30
0.0
 11
-3.0
 21
-10.75
 31
0.0
  0
LINE
  5
AB
100
AcDbEntity
  8
0
370
    -3
390
0
  6
Continuous
100
AcDbLine
 10
0.0
 20
10.75
 30
0.0
 11
-3.0
 21
10.75
 31
0.0
  0
LINE
  5
AC
100
AcDbEntity
  8
0
370
    -3
390
0
  6
Continuous
100
AcDbLine
 10
-3.0
 20
9.0
 30
0.0
 11
-14.299976
 21
9.0
 31
0.0
  0
LINE
  5
AD
100
AcDbEntity
  8
0
370
    -3
390
0
  6
Continuous
100
AcDbLine
 10
-3.0
 20
-9.0
 30
0.0
 11
-14.299961
 21
-9.0
 31
0.0
  0
LINE
  5
AE
100
AcDbEntity
  8
0
370
    -3
390
0
  6
Continuous
100
AcDbLine
 10
-14.999958
 20
-7.787735
 30
0.0
 11
-14.999973
 21
7.78734
 31
0.0
  0
LINE
  5
AF
100
AcDbEntity
  8
0
370
    -3
390
0
  6
Continuous
100
AcDbLine
 10
-3.0
 20
-10.75
 30
0.0
 11
-3.0
 21
10.75
 31
0.0
  0
LINE
  5
B0
100
AcDbEntity
  8
0
370
    -3
390
0
  6
Continuous
100
AcDbLine
 10
0.0
 20
10.75
 30
0.0
 11
0.0
 21
-10.75
 31
0.0
  0
POINT
  5
B1
100
AcDbEntity
  8
0
370
    -3
390
0
  6
Continuous
100
AcDbPoint
 10
0.0
 20
0.0
 30
0.0
  0
ENDBLK
  5
B2
100
AcDbEntity
  8
0
390
0
100
AcDbBlockEnd
  0
BLOCK
  5
B5
100
AcDbEntity
  8
0
390
0
100
AcDbBlockBegin
  2
ZU_SYM_K__CAD_SYM_POO_SYM_B21_0000520
 70
    64
 10
0.0
 20
0.0
 30
0.0
  3
ZU_SYM_K__CAD_SYM_POO_SYM_B21_0000520
  1

  0
LINE
  5
B6
100
AcDbEntity
  8
0
370
    -3
390
0
  6
Continuous
100
AcDbLine
 10
0.000001
 20
0.015238
 30
0.0
 11
-2.999999
 21
-1.076669
 31
0.0
  0
LINE
  5
B7
100
AcDbEntity
  8
0
370
    -3
390
0
  6
Continuous
100
AcDbLine
 10
-2.999999
 20
-0.025431
 30
0.0
 11
0.000001
 21
1.066476
 31
0.0
  0
LINE
  5
B8
100
AcDbEntity
  8
0
370
    -3
390
0
  6
Continuous
100
AcDbLine
 10
-14.299976
 20
9.0
 30
0.0
 11
-14.299976
 21
-9.0
 31
0.0
  0
LINE
  5
B9
100
AcDbEntity
  8
0
370
    -3
390
0
  6
Continuous
100
AcDbLine
 10
-14.299962
 20
-9.000003
 30
0.0
 11
-14.999959
 21
-7.787739
 31
0.0
  0
LINE
  5
BA
100
AcDbEntity
  8
0
370
    -3
390
0
  6
Continuous
100
AcDbLine
 10
-14.299981
 20
9.000001
 30
0.0
 11
-14.999978
 21
7.787341
 31
0.0
  0
LINE
  5
BB
100
AcDbEntity
  8
0
370
    -3
390
0
  6
Continuous
100
AcDbLine
 10
0.0
 20
-10.75
 30
0.0
 11
-3.0
 21
-10.75
 31
0.0
  0
LINE
  5
BC
100
AcDbEntity
  8
0
370
    -3
390
0
  6
Continuous
100
AcDbLine
 10
0.0
 20
10.75
 30
0.0
 11
-3.0
 21
10.75
 31
0.0
  0
LINE
  5
BD
100
AcDbEntity
  8
0
370
    -3
390
0
  6
Continuous
100
AcDbLine
 10
-3.0
 20
9.0
 30
0.0
 11
-14.299976
 21
9.0
 31
0.0
  0
LINE
  5
BE
100
AcDbEntity
  8
0
370
    -3
390
0
  6
Continuous
100
AcDbLine
 10
-3.0
 20
-9.0
 30
0.0
 11
-14.299961
 21
-9.0
 31
0.0
  0
LINE
  5
BF
100
AcDbEntity
  8
0
370
    -3
390
0
  6
Continuous
100
AcDbLine
 10
-14.999958
 20
-7.787735
 30
0.0
 11
-14.999973
 21
7.78734
 31
0.0
  0
LINE
  5
C0
100
AcDbEntity
  8
0
370
    -3
390
0
  6
Continuous
100
AcDbLine
 10
-3.0
 20
-10.75
 30
0.0
 11
-3.0
 21
10.75
 31
0.0
  0
LINE
  5
C1
100
AcDbEntity
  8
0
370
    -3
390
0
  6
Continuous
100
AcDbLine
 10
0.0
 20
10.75
 30
0.0
 11
0.0
 21
-10.75
 31
0.0
  0
POINT
  5
C2
100
AcDbEntity
  8
0
370
    -3
390
0
  6
Continuous
100
AcDbPoint
 10
0.0
 20
0.0
 30
0.0
  0
ENDBLK
  5
C3
100
AcDbEntity
  8
0
390
0
100
AcDbBlockEnd
  0
BLOCK
  5
C6
100
AcDbEntity
  8
0
390
0
100
AcDbBlockBegin
  2
ZU_SYM_K__CAD_SYM_POO_SYM_S07_16
 70
    64
 10
0.0
 20
0.0
 30
0.0
  3
ZU_SYM_K__CAD_SYM_POO_SYM_S07_16
  1

  0
ARC
  5
C7
100
AcDbEntity
  8
0
370
    -3
390
0
  6
Continuous
100
AcDbCircle
 10
8.7
 20
0.0
 30
0.0
 40
12.0
100
AcDbArc
 50
163.808645
 51
196.191337
  0
POINT
  5
C8
100
AcDbEntity
  8
0
370
    -3
390
0
  6
Continuous
100
AcDbPoint
 10
0.0
 20
0.0
 30
0.0
  0
LINE
  5
C9
100
AcDbEntity
  8
0
370
    -3
390
0
  6
Continuous
100
AcDbLine
 10
0.0
 20
4.5
 30
0.0
 11
0.0
 21
-4.5
 31
0.0
  0
LINE
  5
CA
100
AcDbEntity
  8
0
370
    -3
390
0
  6
Continuous
100
AcDbLine
 10
0.0
 20
4.5
 30
0.0
 11
-1.287493
 21
4.5
 31
0.0
  0
LINE
  5
CB
100
AcDbEntity
  8
0
370
    -3
390
0
  6
Continuous
100
AcDbLine
 10
0.0
 20
-4.5
 30
0.0
 11
-1.287493
 21
-4.5
 31
0.0
  0
ARC
  5
CC
100
AcDbEntity
  8
0
370
    -3
390
0
  6
Continuous
100
AcDbCircle
 10
-1.287493
 20
2.900001
 30
0.0
 40
1.599999
100
AcDbArc
 50
90.0
 51
163.808591
  0
ARC
  5
CD
100
AcDbEntity
  8
0
370
    -3
390
0
  6
Continuous
100
AcDbCircle
 10
-1.287493
 20
-2.900001
 30
0.0
 40
1.599999
100
AcDbArc
 50
196.191283
 51
270.0
  0
ENDBLK
  5
CE
100
AcDbEntity
  8
0
390
0
100
AcDbBlockEnd
  0
BLOCK
  5
5D8
100
AcDbEntity
  8
0
390
0
100
AcDbBlockBegin
  2
ZU_SYM_C__ZUOU_AC_BLOCK_BLKF052_00
 70
    64
 10
0.0
 20
0.0
 30
0.0
  3
ZU_SYM_C__ZUOU_AC_BLOCK_BLKF052_00
  1

  0
ARC
  5
5D9
100
AcDbEntity
  8
0
370
    -3
390
0
  6
Continuous
100
AcDbCircle
 10
600.482697
 20
990.447453
 30
0.0
 40
0.5
100
AcDbArc
 50
169.270663
 51
180.0
  0
ARC
  5
5DA
100
AcDbEntity
  8
0
370
    -3
390
0
  6
Continuous
100
AcDbCircle
 10
600.482697
 20
990.37209
 30
0.0
 40
0.5
100
AcDbArc
 50
152.507137
 51
180.0
  0
ARC
  5
5DB
100
AcDbEntity
  8
0
370
    -3
390
0
  6
Continuous
100
AcDbCircle
 10
601.783955
 20
994.62917
 30
0.0
 40
1.0
100
AcDbArc
 50
143.250415
 51
169.270663
  0
ARC
  5
5DC
100
AcDbEntity
  8
0
370
    -3
390
0
  6
Continuous
100
AcDbCircle
 10
600.374225
 20
1008.207023
 30
0.0
 40
1.0
100
AcDbArc
 50
52.520866
 51
90.0
  0
ARC
  5
5DD
100
AcDbEntity
  8
0
370
    -3
390
0
  6
Continuous
100
AcDbCircle
 10
599.482697
 20
974.634526
 30
0.0
 40
0.5
100
AcDbArc
 50
270.0
 51
0.0
  0
LINE
  5
5DE
100
AcDbEntity
  8
0
370
    -3
390
0
  6
Continuous
100
AcDbLine
 10
599.982697
 20
990.447453
 30
0.0
 11
599.982697
 21
974.634526
 31
0.0
  0
LINE
  5
5DF
100
AcDbEntity
  8
0
370
    -3
390
0
  6
Continuous
100
AcDbLine
 10
600.801438
 20
994.815339
 30
0.0
 11
599.991438
 21
990.540538
 31
0.0
  0
LINE
  5
5E0
100
AcDbEntity
  8
0
370
    -3
390
0
  6
Continuous
100
AcDbLine
 10
600.039163
 20
990.602909
 30
0.0
 11
600.982697
 21
992.415972
 31
0.0
  0
ARC
  5
5E1
100
AcDbEntity
  8
0
370
    -3
390
0
  6
Continuous
100
AcDbCircle
 10
575.482697
 20
990.447453
 30
0.0
 40
0.5
100
AcDbArc
 50
0.0
 51
10.729337
  0
ARC
  5
5E2
100
AcDbEntity
  8
0
370
    -3
390
0
  6
Continuous
100
AcDbCircle
 10
575.482697
 20
990.37209
 30
0.0
 40
0.5
100
AcDbArc
 50
0.0
 51
27.492863
  0
ARC
  5
5E3
100
AcDbEntity
  8
0
370
    -3
390
0
  6
Continuous
100
AcDbCircle
 10
574.482697
 20
995.542955
 30
0.0
 40
1.0
100
AcDbArc
 50
180.0
 51
207.492863
  0
ARC
  5
5E4
100
AcDbEntity
  8
0
370
    -3
390
0
  6
Continuous
100
AcDbCircle
 10
574.181439
 20
994.62917
 30
0.0
 40
1.0
100
AcDbArc
 50
10.729337
 51
39.23152
  0
ARC
  5
5E5
100
AcDbEntity
  8
0
370
    -3
390
0
  6
Continuous
100
AcDbCircle
 10
575.59117
 20
1008.207023
 30
0.0
 40
1.0
100
AcDbArc
 50
90.0
 51
140.76848
  0
ARC
  5
5E6
100
AcDbEntity
  8
0
370
    -3
390
0
  6
Continuous
100
AcDbCircle
 10
574.482697
 20
997.422483
 30
0.0
 40
1.0
100
AcDbArc
 50
180.0
 51
219.23152
  0
ARC
  5
5E7
100
AcDbEntity
  8
0
370
    -3
390
0
  6
Continuous
100
AcDbCircle
 10
574.482697
 20
1006.849427
 30
0.0
 40
1.0
100
AcDbArc
 50
140.76848
 51
180.0
  0
ARC
  5
5E8
100
AcDbEntity
  8
0
370
    -3
390
0
  6
Continuous
100
AcDbCircle
 10
576.482697
 20
974.634526
 30
0.0
 40
0.5
100
AcDbArc
 50
180.0
 51
270.0
  0
LINE
  5
5E9
100
AcDbEntity
  8
0
370
    -3
390
0
  6
Continuous
100
AcDbLine
 10
575.982697
 20
990.447453
 30
0.0
 11
575.982697
 21
974.634526
 31
0.0
  0
LINE
  5
5EA
100
AcDbEntity
  8
0
370
    -3
390
0
  6
Continuous
100
AcDbLine
 10
575.163957
 20
994.815339
 30
0.0
 11
575.973956
 21
990.540538
 31
0.0
  0
LINE
  5
5EB
100
AcDbEntity
  8
0
370
    -3
390
0
  6
Continuous
100
AcDbLine
 10
574.956036
 20
995.261625
 30
0.0
 11
573.7081
 21
996.790027
 31
0.0
  0
LINE
  5
5EC
100
AcDbEntity
  8
0
370
    -3
390
0
  6
Continuous
100
AcDbLine
 10
574.816573
 20
1008.839478
 30
0.0
 11
573.7081
 21
1007.481882
 31
0.0
  0
LINE
  5
5ED
100
AcDbEntity
  8
0
370
    -3
390
0
  6
Continuous
100
AcDbLine
 10
575.926231
 20
990.602909
 30
0.0
 11
573.595629
 21
995.081316
 31
0.0
  0
LINE
  5
5EE
100
AcDbEntity
  8
0
370
    -3
390
0
  6
Continuous
100
AcDbLine
 10
575.59117
 20
1009.207023
 30
0.0
 11
600.673669
 21
1009.207023
 31
0.0
  0
LINE
  5
5EF
100
AcDbEntity
  8
0
370
    -3
390
0
  6
Continuous
100
AcDbLine
 10
576.482697
 20
974.134526
 30
0.0
 11
599.482697
 21
974.134526
 31
0.0
  0
LINE
  5
5F0
100
AcDbEntity
  8
0
370
    -3
390
0
  6
Continuous
100
AcDbLine
 10
575.982697
 20
975.54874
 30
0.0
 11
599.982697
 21
975.54874
 31
0.0
  0
LINE
  5
5F1
100
AcDbEntity
  8
0
370
    -3
390
0
  6
Continuous
100
AcDbLine
 10
575.982697
 20
978.306456
 30
0.0
 11
599.982697
 21
978.306456
 31
0.0
  0
LINE
  5
5F2
100
AcDbEntity
  8
0
370
    -3
390
0
  6
Continuous
100
AcDbLine
 10
575.081522
 20
995.064887
 30
0.0
 11
600.883872
 21
995.064887
 31
0.0
  0
LINE
  5
5F3
100
AcDbEntity
  8
0
370
    -3
390
0
  6
Continuous
100
AcDbLine
 10
573.482697
 20
1006.849427
 30
0.0
 11
573.482697
 21
995.542955
 31
0.0
  0
ENDBLK
  5
5F4
100
AcDbEntity
  8
0
390
0
100
AcDbBlockEnd
  0
BLOCK
  5
627
100
AcDbEntity
  8
0
390
0
100
AcDbBlockBegin
  2
ZU_SYM_K__CAD_SYM_POO_SYM_B21_0000620
 70
    64
 10
0.0
 20
0.0
 30
0.0
  3
ZU_SYM_K__CAD_SYM_POO_SYM_B21_0000620
  1

  0
LINE
  5
628
100
AcDbEntity
  8
0
370
    -3
390
0
  6
Continuous
100
AcDbLine
 10
0.000001
 20
0.015238
 30
0.0
 11
-2.999999
 21
-1.076669
 31
0.0
  0
LINE
  5
629
100
AcDbEntity
  8
0
370
    -3
390
0
  6
Continuous
100
AcDbLine
 10
-2.999999
 20
-0.025431
 30
0.0
 11
0.000001
 21
1.066476
 31
0.0
  0
LINE
  5
62A
100
AcDbEntity
  8
0
370
    -3
390
0
  6
Continuous
100
AcDbLine
 10
-14.299976
 20
9.0
 30
0.0
 11
-14.299976
 21
-9.0
 31
0.0
  0
LINE
  5
62B
100
AcDbEntity
  8
0
370
    -3
390
0
  6
Continuous
100
AcDbLine
 10
-14.299962
 20
-9.000003
 30
0.0
 11
-14.999959
 21
-7.787739
 31
0.0
  0
LINE
  5
62C
100
AcDbEntity
  8
0
370
    -3
390
0
  6
Continuous
100
AcDbLine
 10
-14.299981
 20
9.000001
 30
0.0
 11
-14.999978
 21
7.787341
 31
0.0
  0
LINE
  5
62D
100
AcDbEntity
  8
0
370
    -3
390
0
  6
Continuous
100
AcDbLine
 10
0.0
 20
-10.75
 30
0.0
 11
-3.0
 21
-10.75
 31
0.0
  0
LINE
  5
62E
100
AcDbEntity
  8
0
370
    -3
390
0
  6
Continuous
100
AcDbLine
 10
0.0
 20
10.75
 30
0.0
 11
-3.0
 21
10.75
 31
0.0
  0
LINE
  5
62F
100
AcDbEntity
  8
0
370
    -3
390
0
  6
Continuous
100
AcDbLine
 10
-3.0
 20
9.0
 30
0.0
 11
-14.299976
 21
9.0
 31
0.0
  0
LINE
  5
630
100
AcDbEntity
  8
0
370
    -3
390
0
  6
Continuous
100
AcDbLine
 10
-3.0
 20
-9.0
 30
0.0
 11
-14.299961
 21
-9.0
 31
0.0
  0
LINE
  5
631
100
AcDbEntity
  8
0
370
    -3
390
0
  6
Continuous
100
AcDbLine
 10
-14.999958
 20
-7.787735
 30
0.0
 11
-14.999973
 21
7.78734
 31
0.0
  0
LINE
  5
632
100
AcDbEntity
  8
0
370
    -3
390
0
  6
Continuous
100
AcDbLine
 10
-3.0
 20
-10.75
 30
0.0
 11
-3.0
 21
10.75
 31
0.0
  0
LINE
  5
633
100
AcDbEntity
  8
0
370
    -3
390
0
  6
Continuous
100
AcDbLine
 10
0.0
 20
10.75
 30
0.0
 11
0.0
 21
-10.75
 31
0.0
  0
POINT
  5
634
100
AcDbEntity
  8
0
370
    -3
390
0
  6
Continuous
100
AcDbPoint
 10
0.0
 20
0.0
 30
0.0
  0
ENDBLK
  5
635
100
AcDbEntity
  8
0
390
0
100
AcDbBlockEnd
  0
BLOCK
  5
639
100
AcDbEntity
  8
0
390
0
100
AcDbBlockBegin
  2
ZU_SYM_K__CAD_SYM_POO_SYM_B21_0000720
 70
    64
 10
0.0
 20
0.0
 30
0.0
  3
ZU_SYM_K__CAD_SYM_POO_SYM_B21_0000720
  1

  0
LINE
  5
63A
100
AcDbEntity
  8
0
370
    -3
390
0
  6
Continuous
100
AcDbLine
 10
0.000001
 20
0.015238
 30
0.0
 11
-2.999999
 21
-1.076669
 31
0.0
  0
LINE
  5
63B
100
AcDbEntity
  8
0
370
    -3
390
0
  6
Continuous
100
AcDbLine
 10
-2.999999
 20
-0.025431
 30
0.0
 11
0.000001
 21
1.066476
 31
0.0
  0
LINE
  5
63C
100
AcDbEntity
  8
0
370
    -3
390
0
  6
Continuous
100
AcDbLine
 10
-14.299976
 20
9.0
 30
0.0
 11
-14.299976
 21
-9.0
 31
0.0
  0
LINE
  5
63D
100
AcDbEntity
  8
0
370
    -3
390
0
  6
Continuous
100
AcDbLine
 10
-14.299962
 20
-9.000003
 30
0.0
 11
-14.999959
 21
-7.787739
 31
0.0
  0
LINE
  5
63E
100
AcDbEntity
  8
0
370
    -3
390
0
  6
Continuous
100
AcDbLine
 10
-14.299981
 20
9.000001
 30
0.0
 11
-14.999978
 21
7.787341
 31
0.0
  0
LINE
  5
63F
100
AcDbEntity
  8
0
370
    -3
390
0
  6
Continuous
100
AcDbLine
 10
0.0
 20
-10.75
 30
0.0
 11
-3.0
 21
-10.75
 31
0.0
  0
LINE
  5
640
100
AcDbEntity
  8
0
370
    -3
390
0
  6
Continuous
100
AcDbLine
 10
0.0
 20
10.75
 30
0.0
 11
-3.0
 21
10.75
 31
0.0
  0
LINE
  5
641
100
AcDbEntity
  8
0
370
    -3
390
0
  6
Continuous
100
AcDbLine
 10
-3.0
 20
9.0
 30
0.0
 11
-14.299976
 21
9.0
 31
0.0
  0
LINE
  5
642
100
AcDbEntity
  8
0
370
    -3
390
0
  6
Continuous
100
AcDbLine
 10
-3.0
 20
-9.0
 30
0.0
 11
-14.299961
 21
-9.0
 31
0.0
  0
LINE
  5
643
100
AcDbEntity
  8
0
370
    -3
390
0
  6
Continuous
100
AcDbLine
 10
-14.999958
 20
-7.787735
 30
0.0
 11
-14.999973
 21
7.78734
 31
0.0
  0
LINE
  5
644
100
AcDbEntity
  8
0
370
    -3
390
0
  6
Continuous
100
AcDbLine
 10
-3.0
 20
-10.75
 30
0.0
 11
-3.0
 21
10.75
 31
0.0
  0
LINE
  5
645
100
AcDbEntity
  8
0
370
    -3
390
0
  6
Continuous
100
AcDbLine
 10
0.0
 20
10.75
 30
0.0
 11
0.0
 21
-10.75
 31
0.0
  0
POINT
  5
646
100
AcDbEntity
  8
0
370
    -3
390
0
  6
Continuous
100
AcDbPoint
 10
0.0
 20
0.0
 30
0.0
  0
ENDBLK
  5
647
100
AcDbEntity
  8
0
390
0
100
AcDbBlockEnd
  0
BLOCK
  5
657
100
AcDbEntity
  8
0
390
0
100
AcDbBlockBegin
  2
ZU_SYM_K__CAD_SYM_POO_SYM_B21_0000820
 70
    64
 10
0.0
 20
0.0
 30
0.0
  3
ZU_SYM_K__CAD_SYM_POO_SYM_B21_0000820
  1

  0
POINT
  5
658
100
AcDbEntity
  8
0
370
    -3
390
0
  6
Continuous
100
AcDbPoint
 10
0.0
 20
0.0
 30
0.0
  0
LINE
  5
659
100
AcDbEntity
  8
0
370
    -3
390
0
  6
Continuous
100
AcDbLine
 10
0.0
 20
10.75
 30
0.0
 11
0.0
 21
-10.75
 31
0.0
  0
LINE
  5
65A
100
AcDbEntity
  8
0
370
    -3
390
0
  6
Continuous
100
AcDbLine
 10
-3.0
 20
-10.75
 30
0.0
 11
-3.0
 21
10.75
 31
0.0
  0
LINE
  5
65B
100
AcDbEntity
  8
0
370
    -3
390
0
  6
Continuous
100
AcDbLine
 10
-14.999958
 20
-7.787735
 30
0.0
 11
-14.999973
 21
7.78734
 31
0.0
  0
LINE
  5
65C
100
AcDbEntity
  8
0
370
    -3
390
0
  6
Continuous
100
AcDbLine
 10
-3.0
 20
-9.0
 30
0.0
 11
-14.299961
 21
-9.0
 31
0.0
  0
LINE
  5
65D
100
AcDbEntity
  8
0
370
    -3
390
0
  6
Continuous
100
AcDbLine
 10
-3.0
 20
9.0
 30
0.0
 11
-14.299976
 21
9.0
 31
0.0
  0
LINE
  5
65E
100
AcDbEntity
  8
0
370
    -3
390
0
  6
Continuous
100
AcDbLine
 10
0.0
 20
10.75
 30
0.0
 11
-3.0
 21
10.75
 31
0.0
  0
LINE
  5
65F
100
AcDbEntity
  8
0
370
    -3
390
0
  6
Continuous
100
AcDbLine
 10
0.0
 20
-10.75
 30
0.0
 11
-3.0
 21
-10.75
 31
0.0
  0
LINE
  5
660
100
AcDbEntity
  8
0
370
    -3
390
0
  6
Continuous
100
AcDbLine
 10
-14.299981
 20
9.000001
 30
0.0
 11
-14.999978
 21
7.787341
 31
0.0
  0
LINE
  5
661
100
AcDbEntity
  8
0
370
    -3
390
0
  6
Continuous
100
AcDbLine
 10
-14.299962
 20
-9.000003
 30
0.0
 11
-14.999959
 21
-7.787739
 31
0.0
  0
LINE
  5
662
100
AcDbEntity
  8
0
370
    -3
390
0
  6
Continuous
100
AcDbLine
 10
-14.299976
 20
9.0
 30
0.0
 11
-14.299976
 21
-9.0
 31
0.0
  0
LINE
  5
663
100
AcDbEntity
  8
0
370
    -3
390
0
  6
Continuous
100
AcDbLine
 10
-2.999999
 20
-0.025431
 30
0.0
 11
0.000001
 21
1.066476
 31
0.0
  0
LINE
  5
664
100
AcDbEntity
  8
0
370
    -3
390
0
  6
Continuous
100
AcDbLine
 10
0.000001
 20
0.015238
 30
0.0
 11
-2.999999
 21
-1.076669
 31
0.0
  0
ENDBLK
  5
665
100
AcDbEntity
  8
0
390
0
100
AcDbBlockEnd
  0
BLOCK
  5
66B
100
AcDbEntity
  8
0
390
0
100
AcDbBlockBegin
  2
ZU_SYM_K__CAD_SYM_POO_SYM_B21_0000920
 70
    64
 10
0.0
 20
0.0
 30
0.0
  3
ZU_SYM_K__CAD_SYM_POO_SYM_B21_0000920
  1

  0
POINT
  5
66C
100
AcDbEntity
  8
0
370
    -3
390
0
  6
Continuous
100
AcDbPoint
 10
0.0
 20
0.0
 30
0.0
  0
LINE
  5
66D
100
AcDbEntity
  8
0
370
    -3
390
0
  6
Continuous
100
AcDbLine
 10
0.0
 20
10.75
 30
0.0
 11
0.0
 21
-10.75
 31
0.0
  0
LINE
  5
66E
100
AcDbEntity
  8
0
370
    -3
390
0
  6
Continuous
100
AcDbLine
 10
-3.0
 20
-10.75
 30
0.0
 11
-3.0
 21
10.75
 31
0.0
  0
LINE
  5
66F
100
AcDbEntity
  8
0
370
    -3
390
0
  6
Continuous
100
AcDbLine
 10
-14.999958
 20
-7.787735
 30
0.0
 11
-14.999973
 21
7.78734
 31
0.0
  0
LINE
  5
670
100
AcDbEntity
  8
0
370
    -3
390
0
  6
Continuous
100
AcDbLine
 10
-3.0
 20
-9.0
 30
0.0
 11
-14.299961
 21
-9.0
 31
0.0
  0
LINE
  5
671
100
AcDbEntity
  8
0
370
    -3
390
0
  6
Continuous
100
AcDbLine
 10
-3.0
 20
9.0
 30
0.0
 11
-14.299976
 21
9.0
 31
0.0
  0
LINE
  5
672
100
AcDbEntity
  8
0
370
    -3
390
0
  6
Continuous
100
AcDbLine
 10
0.0
 20
10.75
 30
0.0
 11
-3.0
 21
10.75
 31
0.0
  0
LINE
  5
673
100
AcDbEntity
  8
0
370
    -3
390
0
  6
Continuous
100
AcDbLine
 10
0.0
 20
-10.75
 30
0.0
 11
-3.0
 21
-10.75
 31
0.0
  0
LINE
  5
674
100
AcDbEntity
  8
0
370
    -3
390
0
  6
Continuous
100
AcDbLine
 10
-14.299981
 20
9.000001
 30
0.0
 11
-14.999978
 21
7.787341
 31
0.0
  0
LINE
  5
675
100
AcDbEntity
  8
0
370
    -3
390
0
  6
Continuous
100
AcDbLine
 10
-14.299962
 20
-9.000003
 30
0.0
 11
-14.999959
 21
-7.787739
 31
0.0
  0
LINE
  5
676
100
AcDbEntity
  8
0
370
    -3
390
0
  6
Continuous
100
AcDbLine
 10
-14.299976
 20
9.0
 30
0.0
 11
-14.299976
 21
-9.0
 31
0.0
  0
LINE
  5
677
100
AcDbEntity
  8
0
370
    -3
390
0
  6
Continuous
100
AcDbLine
 10
-2.999999
 20
-0.025431
 30
0.0
 11
0.000001
 21
1.066476
 31
0.0
  0
LINE
  5
678
100
AcDbEntity
  8
0
370
    -3
390
0
  6
Continuous
100
AcDbLine
 10
0.000001
 20
0.015238
 30
0.0
 11
-2.999999
 21
-1.076669
 31
0.0
  0
ENDBLK
  5
679
100
AcDbEntity
  8
0
390
0
100
AcDbBlockEnd
  0
BLOCK
  5
68C
100
AcDbEntity
  8
0
390
0
100
AcDbBlockBegin
  2
ZU_SYM_K__CAD_SYM_POO_SYM_B21_0001020
 70
    64
 10
0.0
 20
0.0
 30
0.0
  3
ZU_SYM_K__CAD_SYM_POO_SYM_B21_0001020
  1

  0
POINT
  5
68D
100
AcDbEntity
  8
0
370
    -3
390
0
  6
Continuous
100
AcDbPoint
 10
0.0
 20
0.0
 30
0.0
  0
LINE
  5
68E
100
AcDbEntity
  8
0
370
    -3
390
0
  6
Continuous
100
AcDbLine
 10
0.0
 20
10.75
 30
0.0
 11
0.0
 21
-10.75
 31
0.0
  0
LINE
  5
68F
100
AcDbEntity
  8
0
370
    -3
390
0
  6
Continuous
100
AcDbLine
 10
-3.0
 20
-10.75
 30
0.0
 11
-3.0
 21
10.75
 31
0.0
  0
LINE
  5
690
100
AcDbEntity
  8
0
370
    -3
390
0
  6
Continuous
100
AcDbLine
 10
-14.999958
 20
-7.787735
 30
0.0
 11
-14.999973
 21
7.78734
 31
0.0
  0
LINE
  5
691
100
AcDbEntity
  8
0
370
    -3
390
0
  6
Continuous
100
AcDbLine
 10
-3.0
 20
-9.0
 30
0.0
 11
-14.299961
 21
-9.0
 31
0.0
  0
LINE
  5
692
100
AcDbEntity
  8
0
370
    -3
390
0
  6
Continuous
100
AcDbLine
 10
-3.0
 20
9.0
 30
0.0
 11
-14.299976
 21
9.0
 31
0.0
  0
LINE
  5
693
100
AcDbEntity
  8
0
370
    -3
390
0
  6
Continuous
100
AcDbLine
 10
0.0
 20
10.75
 30
0.0
 11
-3.0
 21
10.75
 31
0.0
  0
LINE
  5
694
100
AcDbEntity
  8
0
370
    -3
390
0
  6
Continuous
100
AcDbLine
 10
0.0
 20
-10.75
 30
0.0
 11
-3.0
 21
-10.75
 31
0.0
  0
LINE
  5
695
100
AcDbEntity
  8
0
370
    -3
390
0
  6
Continuous
100
AcDbLine
 10
-14.299981
 20
9.000001
 30
0.0
 11
-14.999978
 21
7.787341
 31
0.0
  0
LINE
  5
696
100
AcDbEntity
  8
0
370
    -3
390
0
  6
Continuous
100
AcDbLine
 10
-14.299962
 20
-9.000003
 30
0.0
 11
-14.999959
 21
-7.787739
 31
0.0
  0
LINE
  5
697
100
AcDbEntity
  8
0
370
    -3
390
0
  6
Continuous
100
AcDbLine
 10
-14.299976
 20
9.0
 30
0.0
 11
-14.299976
 21
-9.0
 31
0.0
  0
LINE
  5
698
100
AcDbEntity
  8
0
370
    -3
390
0
  6
Continuous
100
AcDbLine
 10
-2.999999
 20
-0.025431
 30
0.0
 11
0.000001
 21
1.066476
 31
0.0
  0
LINE
  5
699
100
AcDbEntity
  8
0
370
    -3
390
0
  6
Continuous
100
AcDbLine
 10
0.000001
 20
0.015238
 30
0.0
 11
-2.999999
 21
-1.076669
 31
0.0
  0
ENDBLK
  5
69A
100
AcDbEntity
  8
0
390
0
100
AcDbBlockEnd
  0
BLOCK
  5
6A9
100
AcDbEntity
  8
0
390
0
100
AcDbBlockBegin
  2
ZU_SYM_K__CAD_SYM_POO_SYM_B21_0001120
 70
    64
 10
0.0
 20
0.0
 30
0.0
  3
ZU_SYM_K__CAD_SYM_POO_SYM_B21_0001120
  1

  0
POINT
  5
6AA
100
AcDbEntity
  8
0
370
    -3
390
0
  6
Continuous
100
AcDbPoint
 10
0.0
 20
0.0
 30
0.0
  0
LINE
  5
6AB
100
AcDbEntity
  8
0
370
    -3
390
0
  6
Continuous
100
AcDbLine
 10
0.0
 20
10.75
 30
0.0
 11
0.0
 21
-10.75
 31
0.0
  0
LINE
  5
6AC
100
AcDbEntity
  8
0
370
    -3
390
0
  6
Continuous
100
AcDbLine
 10
-3.0
 20
-10.75
 30
0.0
 11
-3.0
 21
10.75
 31
0.0
  0
LINE
  5
6AD
100
AcDbEntity
  8
0
370
    -3
390
0
  6
Continuous
100
AcDbLine
 10
-14.999958
 20
-7.787735
 30
0.0
 11
-14.999973
 21
7.78734
 31
0.0
  0
LINE
  5
6AE
100
AcDbEntity
  8
0
370
    -3
390
0
  6
Continuous
100
AcDbLine
 10
-3.0
 20
-9.0
 30
0.0
 11
-14.299961
 21
-9.0
 31
0.0
  0
LINE
  5
6AF
100
AcDbEntity
  8
0
370
    -3
390
0
  6
Continuous
100
AcDbLine
 10
-3.0
 20
9.0
 30
0.0
 11
-14.299976
 21
9.0
 31
0.0
  0
LINE
  5
6B0
100
AcDbEntity
  8
0
370
    -3
390
0
  6
Continuous
100
AcDbLine
 10
0.0
 20
10.75
 30
0.0
 11
-3.0
 21
10.75
 31
0.0
  0
LINE
  5
6B1
100
AcDbEntity
  8
0
370
    -3
390
0
  6
Continuous
100
AcDbLine
 10
0.0
 20
-10.75
 30
0.0
 11
-3.0
 21
-10.75
 31
0.0
  0
LINE
  5
6B2
100
AcDbEntity
  8
0
370
    -3
390
0
  6
Continuous
100
AcDbLine
 10
-14.299981
 20
9.000001
 30
0.0
 11
-14.999978
 21
7.787341
 31
0.0
  0
LINE
  5
6B3
100
AcDbEntity
  8
0
370
    -3
390
0
  6
Continuous
100
AcDbLine
 10
-14.299962
 20
-9.000003
 30
0.0
 11
-14.999959
 21
-7.787739
 31
0.0
  0
LINE
  5
6B4
100
AcDbEntity
  8
0
370
    -3
390
0
  6
Continuous
100
AcDbLine
 10
-14.299976
 20
9.0
 30
0.0
 11
-14.299976
 21
-9.0
 31
0.0
  0
LINE
  5
6B5
100
AcDbEntity
  8
0
370
    -3
390
0
  6
Continuous
100
AcDbLine
 10
-2.999999
 20
-0.025431
 30
0.0
 11
0.000001
 21
1.066476
 31
0.0
  0
LINE
  5
6B6
100
AcDbEntity
  8
0
370
    -3
390
0
  6
Continuous
100
AcDbLine
 10
0.000001
 20
0.015238
 30
0.0
 11
-2.999999
 21
-1.076669
 31
0.0
  0
ENDBLK
  5
6B7
100
AcDbEntity
  8
0
390
0
100
AcDbBlockEnd
  0
BLOCK
  5
6BE
100
AcDbEntity
  8
0
390
0
100
AcDbBlockBegin
  2
ZU_SYM_C__ZUOU_AC_BLOCK_BLKF074_00
 70
    64
 10
0.0
 20
0.0
 30
0.0
  3
ZU_SYM_C__ZUOU_AC_BLOCK_BLKF074_00
  1

  0
LINE
  5
6BF
100
AcDbEntity
  8
0
370
    -3
390
0
  6
Continuous
100
AcDbLine
 10
372.982697
 20
1023.173191
 30
0.0
 11
372.982697
 21
1021.395366
 31
0.0
  0
LINE
  5
6C0
100
AcDbEntity
  8
0
370
    -3
390
0
  6
Continuous
100
AcDbLine
 10
340.982697
 20
999.360082
 30
0.0
 11
346.943791
 21
999.360082
 31
0.0
  0
LINE
  5
6C1
100
AcDbEntity
  8
0
370
    -3
390
0
  6
Continuous
100
AcDbLine
 10
340.982697
 20
1007.790121
 30
0.0
 11
340.982697
 21
999.360082
 31
0.0
  0
LINE
  5
6C2
100
AcDbEntity
  8
0
370
    -3
390
0
  6
Continuous
100
AcDbLine
 10
340.982697
 20
1006.012297
 30
0.0
 11
372.982697
 21
1021.395366
 31
0.0
  0
LINE
  5
6C3
100
AcDbEntity
  8
0
370
    -3
390
0
  6
Continuous
100
AcDbLine
 10
372.982697
 20
1023.173191
 30
0.0
 11
340.982697
 21
1007.790121
 31
0.0
  0
LINE
  5
6C4
100
AcDbEntity
  8
0
370
    -3
390
0
  6
Continuous
100
AcDbLine
 10
508.982697
 20
1023.173191
 30
0.0
 11
372.982697
 21
1023.173191
 31
0.0
  0
LINE
  5
6C5
100
AcDbEntity
  8
0
370
    -3
390
0
  6
Continuous
100
AcDbLine
 10
508.982697
 20
1021.395366
 30
0.0
 11
372.982697
 21
1021.395366
 31
0.0
  0
LINE
  5
6C6
100
AcDbEntity
  8
0
370
    -3
390
0
  6
Continuous
100
AcDbLine
 10
508.982697
 20
1023.173191
 30
0.0
 11
508.982697
 21
1021.395366
 31
0.0
  0
LINE
  5
6C7
100
AcDbEntity
  8
0
370
    -3
390
0
  6
Continuous
100
AcDbLine
 10
540.982697
 20
999.360082
 30
0.0
 11
535.021603
 21
999.360082
 31
0.0
  0
LINE
  5
6C8
100
AcDbEntity
  8
0
370
    -3
390
0
  6
Continuous
100
AcDbLine
 10
540.982697
 20
1007.790121
 30
0.0
 11
540.982697
 21
999.360082
 31
0.0
  0
LINE
  5
6C9
100
AcDbEntity
  8
0
370
    -3
390
0
  6
Continuous
100
AcDbLine
 10
540.982697
 20
1006.012297
 30
0.0
 11
508.982697
 21
1021.395366
 31
0.0
  0
LINE
  5
6CA
100
AcDbEntity
  8
0
370
    -3
390
0
  6
Continuous
100
AcDbLine
 10
508.982697
 20
1023.173191
 30
0.0
 11
540.982697
 21
1007.790121
 31
0.0
  0
ENDBLK
  5
6CB
100
AcDbEntity
  8
0
390
0
100
AcDbBlockEnd
  0
BLOCK
  5
799
100
AcDbEntity
  8
0
390
0
100
AcDbBlockBegin
  2
ZU_SYM_C__ZUOU_AC_BLOCK_BLKF030_0001200
 70
    64
 10
0.0
 20
0.0
 30
0.0
  3
ZU_SYM_C__ZUOU_AC_BLOCK_BLKF030_0001200
  1

  0
LINE
  5
79A
100
AcDbEntity
  8
0
370
    -3
390
0
  6
Continuous
100
AcDbLine
 10
299.075267
 20
207.337117
 30
0.0
 11
294.075267
 21
209.837118
 31
0.0
  0
LINE
  5
79B
100
AcDbEntity
  8
0
370
    -3
390
0
  6
Continuous
100
AcDbLine
 10
299.075267
 20
202.337115
 30
0.0
 11
299.075267
 21
207.337117
 31
0.0
  0
LINE
  5
79C
100
AcDbEntity
  8
0
370
    -3
390
0
  6
Continuous
100
AcDbLine
 10
289.075267
 20
207.337117
 30
0.0
 11
289.075267
 21
202.337115
 31
0.0
  0
LINE
  5
79D
100
AcDbEntity
  8
0
370
    -3
390
0
  6
Continuous
100
AcDbLine
 10
294.075267
 20
209.837118
 30
0.0
 11
289.075267
 21
207.337117
 31
0.0
  0
ENDBLK
  5
79E
100
AcDbEntity
  8
0
390
0
100
AcDbBlockEnd
  0
ENDSEC
  0
SECTION
  2
ENTITIES
  0
LINE
  5
2D
100
AcDbEntity
  8
0
370
    -3
390
0
  6
Continuous
100
AcDbLine
 10
-834.066219
 20
-422.966709
 30
0.0
 11
-834.066219
 21
-448.604726
 31
0.0
  0
ARC
  5
2E
100
AcDbEntity
  8
0
370
    -3
390
0
  6
Continuous
100
AcDbCircle
 10
-832.066219
 20
-448.604726
 30
0.0
 40
2.0
100
AcDbArc
 50
180.0
 51
270.0
  0
ARC
  5
2F
100
AcDbEntity
  8
0
370
    -3
390
0
  6
Continuous
100
AcDbCircle
 10
-832.066219
 20
-452.604726
 30
0.0
 40
2.0
100
AcDbArc
 50
0.0
 51
90.0
  0
LINE
  5
30
100
AcDbEntity
  8
0
370
    -3
390
0
  6
Continuous
100
AcDbLine
 10
-817.066219
 20
-245.368601
 30
0.0
 11
-830.066219
 21
-252.442127
 31
0.0
  0
LINE
  5
31
100
AcDbEntity
  8
0
370
    -3
390
0
  6
Continuous
100
AcDbLine
 10
-591.066219
 20
-245.368601
 30
0.0
 11
-571.566219
 21
-255.97889
 31
0.0
  0
LINE
  5
32
100
AcDbEntity
  8
0
370
    -3
390
0
  6
Continuous
100
AcDbLine
 10
-817.066219
 20
-245.368601
 30
0.0
 11
-591.066219
 21
-245.368601
 31
0.0
  0
ARC
  5
33
100
AcDbEntity
  8
0
370
    -3
390
0
  6
Continuous
100
AcDbCircle
 10
-891.661492
 20
72.289788
 30
0.0
 40
2.0
100
AcDbArc
 50
36.869898
 51
90.0
  0
ARC
  5
34
100
AcDbEntity
  8
0
370
    -3
390
0
  6
Continuous
100
AcDbCircle
 10
-887.661492
 20
75.289788
 30
0.0
 40
3.0
100
AcDbArc
 50
216.869898
 51
270.0
  0
LINE
  5
35
100
AcDbEntity
  8
0
370
    -3
390
0
  6
Continuous
100
AcDbLine
 10
-880.332645
 20
72.289788
 30
0.0
 11
-887.661492
 21
72.289788
 31
0.0
  0
ARC
  5
36
100
AcDbEntity
  8
0
370
    -3
390
0
  6
Continuous
100
AcDbCircle
 10
-891.661492
 20
383.289788
 30
0.0
 40
2.0
100
AcDbArc
 50
270.0
 51
323.130102
  0
ARC
  5
37
100
AcDbEntity
  8
0
370
    -3
390
0
  6
Continuous
100
AcDbCircle
 10
-891.661492
 20
383.289788
 30
0.0
 40
2.0
100
AcDbArc
 50
270.0
 51
323.130102
  0
ARC
  5
38
100
AcDbEntity
  8
0
370
    -3
390
0
  6
Continuous
100
AcDbCircle
 10
-887.661492
 20
380.289788
 30
0.0
 40
3.0
100
AcDbArc
 50
90.0
 51
143.130102
  0
ARC
  5
39
100
AcDbEntity
  8
0
370
    -3
390
0
  6
Continuous
100
AcDbCircle
 10
-887.661492
 20
380.289788
 30
0.0
 40
3.0
100
AcDbArc
 50
90.0
 51
143.130102
  0
LINE
  5
3A
100
AcDbEntity
  8
0
370
    -3
390
0
  6
Continuous
100
AcDbLine
 10
-830.066219
 20
383.289788
 30
0.0
 11
-887.661492
 21
383.289788
 31
0.0
  0
LINE
  5
3B
100
AcDbEntity
  8
0
370
    -3
390
0
  6
Continuous
100
AcDbLine
 10
-830.066219
 20
383.289788
 30
0.0
 11
-887.661492
 21
383.289788
 31
0.0
  0
LINE
  5
3C
100
AcDbEntity
  8
0
370
    -3
390
0
  6
CENTER
100
AcDbLine
 10
-866.566219
 20
-30.071854
 30
0.0
 11
-866.566219
 21
-40.503301
 31
0.0
  0
LINE
  5
3D
100
AcDbEntity
  8
0
370
    -3
390
0
  6
CENTER
100
AcDbLine
 10
-860.547415
 20
-34.291663
 30
0.0
 11
-872.446125
 21
-34.291663
 31
0.0
  0
LINE
  5
3E
100
AcDbEntity
  8
0
370
    -3
390
0
  6
Continuous
100
AcDbLine
 10
-868.263277
 20
-32.594609
 30
0.0
 11
-864.86916
 21
-35.988716
 31
0.0
  0
LINE
  5
3F
100
AcDbEntity
  8
0
370
    -3
390
0
  6
Continuous
100
AcDbLine
 10
-864.869165
 20
-32.594604
 30
0.0
 11
-868.263272
 21
-35.988722
 31
0.0
  0
ELLIPSE
  5
40
100
AcDbEntity
  8
0
370
    -3
390
0
  6
Continuous
100
AcDbEllipse
 10
-866.566219
 20
-34.291663
 30
0.0
 11
4.5
 21
0.0
 31
0.0
210
0.0
220
0.0
230
1.0
 40
0.727273
 41
0.0
 42
6.2831853071795862
  0
LINE
  5
41
100
AcDbEntity
  8
0
370
    -3
390
0
  6
Continuous
100
AcDbLine
 10
-753.263272
 20
-32.594604
 30
0.0
 11
-749.869165
 21
-35.988722
 31
0.0
  0
LINE
  5
42
100
AcDbEntity
  8
0
370
    -3
390
0
  6
Continuous
100
AcDbLine
 10
-749.86916
 20
-32.594609
 30
0.0
 11
-753.263277
 21
-35.988716
 31
0.0
  0
ELLIPSE
  5
43
100
AcDbEntity
  8
0
370
    -3
390
0
  6
Continuous
100
AcDbEllipse
 10
-751.566219
 20
-34.291663
 30
0.0
 11
4.5
 21
0.0
 31
0.0
210
0.0
220
0.0
230
1.0
 40
0.727273
 41
0.0
 42
6.2831853071795862
  0
LINE
  5
44
100
AcDbEntity
  8
0
370
    -3
390
0
  6
CENTER
100
AcDbLine
 10
-751.566219
 20
-30.071854
 30
0.0
 11
-751.566219
 21
-40.503301
 31
0.0
  0
LINE
  5
45
100
AcDbEntity
  8
0
370
    -3
390
0
  6
CENTER
100
AcDbLine
 10
-745.547415
 20
-34.291663
 30
0.0
 11
-757.446125
 21
-34.291663
 31
0.0
  0
INSERT
  5
56
100
AcDbEntity
  8
0
390
0
100
AcDbBlockReference
  2
ZU_SYM__USERS_HOME_SYMBOL_POO_SYM_B21_21
 10
-398.066219
 20
-158.556254
 30
0.0
  0
INSERT
  5
67
100
AcDbEntity
  8
0
390
0
100
AcDbBlockReference
  2
ZU_SYM__USERS_HOME_SYMBOL_POO_SYM_B21_0000121
 10
-398.066219
 20
-303.556254
 30
0.0
  0
INSERT
  5
78
100
AcDbEntity
  8
0
390
0
100
AcDbBlockReference
  2
ZU_SYM__USERS_HOME_SYMBOL_POO_SYM_B21_0000221
 10
-398.066219
 20
-423.556254
 30
0.0
  0
INSERT
  5
80
100
AcDbEntity
  8
0
390
0
100
AcDbBlockReference
  2
ZU_SYM_C__ZUOU_AC_BLOCK_BLKF030_00
 10
-1165.141486
 20
-681.64337
 30
0.0
  0
INSERT
  5
91
100
AcDbEntity
  8
0
390
0
100
AcDbBlockReference
  2
ZU_SYM_K__CAD_SYM_POO_SYM_B21_20
 10
-433.066219
 20
-275.923627
 30
0.0
  0
INSERT
  5
A2
100
AcDbEntity
  8
0
390
0
100
AcDbBlockReference
  2
ZU_SYM_K__CAD_SYM_POO_SYM_B21_0000320
 10
-433.066219
 20
-395.556254
 30
0.0
  0
INSERT
  5
B3
100
AcDbEntity
  8
0
390
0
100
AcDbBlockReference
  2
ZU_SYM_K__CAD_SYM_POO_SYM_B21_0000420
 10
-529.066219
 20
-271.714622
 30
0.0
 41
-1.0
  0
INSERT
  5
C4
100
AcDbEntity
  8
0
390
0
100
AcDbBlockReference
  2
ZU_SYM_K__CAD_SYM_POO_SYM_B21_0000520
 10
-529.066219
 20
-467.056256
 30
0.0
 50
180.0
  0
INSERT
  5
CF
100
AcDbEntity
  8
0
390
0
100
AcDbBlockReference
  2
ZU_SYM_K__CAD_SYM_POO_SYM_S07_16
 10
143.165063
 20
-398.422267
 30
0.0
 50
321.0
  0
LINE
  5
D0
100
AcDbEntity
  8
0
370
    -3
390
0
  6
CENTER
100
AcDbLine
 10
-369.019382
 20
-395.556254
 30
0.0
 11
-970.54141
 21
-395.556254
 31
0.0
  0
LINE
  5
D1
100
AcDbEntity
  8
0
370
    -3
390
0
  6
Continuous
100
AcDbLine
 10
-809.066219
 20
-260.410503
 30
0.0
 11
-749.052532
 21
-260.410503
 31
0.0
  0
ARC
  5
D2
100
AcDbEntity
  8
0
370
    -3
390
0
  6
Continuous
100
AcDbCircle
 10
-749.052532
 20
-269.410503
 30
0.0
 40
9.0
100
AcDbArc
 50
9.449383
 51
90.0
  0
LINE
  5
D3
100
AcDbEntity
  8
0
370
    -3
390
0
  6
Continuous
100
AcDbLine
 10
-809.066219
 20
-260.410503
 30
0.0
 11
-869.079906
 21
-260.410503
 31
0.0
  0
ARC
  5
D4
100
AcDbEntity
  8
0
370
    -3
390
0
  6
Continuous
100
AcDbCircle
 10
-869.079906
 20
-269.410503
 30
0.0
 40
9.0
100
AcDbArc
 50
90.0
 51
170.550617
  0
ARC
  5
D5
100
AcDbEntity
  8
0
370
    -3
390
0
  6
Continuous
100
AcDbCircle
 10
-850.923781
 20
-393.897281
 30
0.0
 40
6.0
100
AcDbArc
 50
205.298826
 51
270.0
  0
ELLIPSE
  5
D6
100
AcDbEntity
  8
0
370
    -3
390
0
  6
Continuous
100
AcDbEllipse
 10
-866.566219
 20
-399.897281
 30
0.0
 11
11.0
 21
0.0
 31
0.0
210
0.0
220
0.0
230
1.0
 40
0.843458
 41
0.3793675677192439
 42
1.5707963267948966
  0
LINE
  5
D7
100
AcDbEntity
  8
0
370
    -3
390
0
  6
Continuous
100
AcDbLine
 10
-809.066219
 20
-399.897281
 30
0.0
 11
-850.923781
 21
-399.897281
 31
0.0
  0
ARC
  5
D8
100
AcDbEntity
  8
0
370
    -3
390
0
  6
Continuous
100
AcDbCircle
 10
-767.208656
 20
-393.897281
 30
0.0
 40
6.0
100
AcDbArc
 50
270.0
 51
334.701174
  0
ELLIPSE
  5
D9
100
AcDbEntity
  8
0
370
    -3
390
0
  6
Continuous
100
AcDbEllipse
 10
-751.566219
 20
-399.897281
 30
0.0
 11
11.0
 21
0.0
 31
0.0
210
0.0
220
0.0
230
1.0
 40
0.843458
 41
1.5707963267948966
 42
2.7622250858705493
  0
LINE
  5
DA
100
AcDbEntity
  8
0
370
    -3
390
0
  6
Continuous
100
AcDbLine
 10
-809.066219
 20
-399.897281
 30
0.0
 11
-767.208656
 21
-399.897281
 31
0.0
  0
LINE
  5
DB
100
AcDbEntity
  8
0
370
    -3
390
0
  6
Continuous
100
AcDbLine
 10
-864.869165
 20
-395.651892
 30
0.0
 11
-868.263272
 21
-399.046009
 31
0.0
  0
LINE
  5
DC
100
AcDbEntity
  8
0
370
    -3
390
0
  6
Continuous
100
AcDbLine
 10
-868.263277
 20
-395.651897
 30
0.0
 11
-864.86916
 21
-399.046004
 31
0.0
  0
POINT
  5
DD
100
AcDbEntity
  8
0
370
    -3
390
0
  6
Continuous
100
AcDbPoint
 10
-866.566219
 20
-397.348951
 30
0.0
  0
ELLIPSE
  5
DE
100
AcDbEntity
  8
0
370
    -3
390
0
  6
Continuous
100
AcDbEllipse
 10
-866.566219
 20
-397.348951
 30
0.0
 11
4.5
 21
0.0
 31
0.0
210
0.0
220
0.0
230
1.0
 40
0.727273
 41
0.0
 42
6.2831853071795862
  0
LINE
  5
DF
100
AcDbEntity
  8
0
370
    -3
390
0
  6
CENTER
100
AcDbLine
 10
-861.846161
 20
-397.348951
 30
0.0
 11
-871.473527
 21
-397.348951
 31
0.0
  0
LINE
  5
E0
100
AcDbEntity
  8
0
370
    -3
390
0
  6
CENTER
100
AcDbLine
 10
-866.566219
 20
-393.183089
 30
0.0
 11
-866.566219
 21
-401.799904
 31
0.0
  0
LINE
  5
E1
100
AcDbEntity
  8
0
370
    -3
390
0
  6
Continuous
100
AcDbLine
 10
-753.263272
 20
-395.651892
 30
0.0
 11
-749.869165
 21
-399.046009
 31
0.0
  0
LINE
  5
E2
100
AcDbEntity
  8
0
370
    -3
390
0
  6
Continuous
100
AcDbLine
 10
-749.86916
 20
-395.651897
 30
0.0
 11
-753.263277
 21
-399.046004
 31
0.0
  0
POINT
  5
E3
100
AcDbEntity
  8
0
370
    -3
390
0
  6
Continuous
100
AcDbPoint
 10
-751.566219
 20
-397.348951
 30
0.0
  0
ELLIPSE
  5
E4
100
AcDbEntity
  8
0
370
    -3
390
0
  6
Continuous
100
AcDbEllipse
 10
-751.566219
 20
-397.348951
 30
0.0
 11
4.5
 21
0.0
 31
0.0
210
0.0
220
0.0
230
1.0
 40
0.727273
 41
0.0
 42
6.2831853071795862
  0
LINE
  5
E5
100
AcDbEntity
  8
0
370
    -3
390
0
  6
CENTER
100
AcDbLine
 10
-756.286276
 20
-397.348951
 30
0.0
 11
-746.65891
 21
-397.348951
 31
0.0
  0
LINE
  5
E6
100
AcDbEntity
  8
0
370
    -3
390
0
  6
CENTER
100
AcDbLine
 10
-751.566219
 20
-393.183089
 30
0.0
 11
-751.566219
 21
-401.799904
 31
0.0
  0
LINE
  5
E7
100
AcDbEntity
  8
0
370
    -3
390
0
  6
CENTER
100
AcDbLine
 10
-831.156431
 20
-413.726338
 30
0.0
 11
-787.63805
 21
-413.726338
 31
0.0
  0
ELLIPSE
  5
E8
100
AcDbEntity
  8
0
370
    -3
390
0
  6
Continuous
100
AcDbEllipse
 10
-809.066219
 20
-413.726338
 30
0.0
 11
17.5
 21
0.0
 31
0.0
210
0.0
220
0.0
230
1.0
 40
0.34202
 41
2.289994865616805
 42
0.8515977879729881
  0
LINE
  5
E9
100
AcDbEntity
  8
0
370
    -3
390
0
  6
Continuous
100
AcDbLine
 10
-809.066219
 20
-422.966709
 30
0.0
 11
-846.792754
 21
-422.966709
 31
0.0
  0
ARC
  5
EA
100
AcDbEntity
  8
0
370
    -3
390
0
  6
Continuous
100
AcDbCircle
 10
-846.792754
 20
-413.966709
 30
0.0
 40
9.0
100
AcDbArc
 50
230.025496
 51
270.0
  0
ARC
  5
EB
100
AcDbEntity
  8
0
370
    -3
390
0
  6
Continuous
100
AcDbCircle
 10
-771.339683
 20
-413.966709
 30
0.0
 40
9.0
100
AcDbArc
 50
270.0
 51
309.974504
  0
LINE
  5
EC
100
AcDbEntity
  8
0
370
    -3
390
0
  6
Continuous
100
AcDbLine
 10
-809.066219
 20
-422.966709
 30
0.0
 11
-771.339683
 21
-422.966709
 31
0.0
  0
LINE
  5
ED
100
AcDbEntity
  8
0
370
    -3
390
0
  6
Continuous
100
AcDbLine
 10
-751.672716
 20
-409.223354
 30
0.0
 11
-765.557663
 21
-420.863683
 31
0.0
  0
LINE
  5
EE
100
AcDbEntity
  8
0
370
    -3
390
0
  6
Continuous
100
AcDbLine
 10
-866.459722
 20
-409.223354
 30
0.0
 11
-852.574774
 21
-420.863683
 31
0.0
  0
LINE
  5
EF
100
AcDbEntity
  8
0
370
    -3
390
0
  6
Continuous
100
AcDbLine
 10
-751.566219
 20
-390.619245
 30
0.0
 11
-746.735883
 21
-390.619245
 31
0.0
  0
ARC
  5
F0
100
AcDbEntity
  8
0
370
    -3
390
0
  6
Continuous
100
AcDbCircle
 10
-1082.466219
 20
-324.902064
 30
0.0
 40
347.0
100
AcDbArc
 50
349.914143
 51
9.449383
  0
ARC
  5
F1
100
AcDbEntity
  8
0
370
    -3
390
0
  6
Continuous
100
AcDbCircle
 10
-746.735883
 20
-384.619245
 30
0.0
 40
6.0
100
AcDbArc
 50
270.0
 51
349.914143
  0
ARC
  5
F2
100
AcDbEntity
  8
0
370
    -3
390
0
  6
Continuous
100
AcDbCircle
 10
-535.666219
 20
-324.902064
 30
0.0
 40
347.0
100
AcDbArc
 50
170.550617
 51
190.085857
  0
LINE
  5
F3
100
AcDbEntity
  8
0
370
    -3
390
0
  6
Continuous
100
AcDbLine
 10
-866.566219
 20
-390.619245
 30
0.0
 11
-871.396554
 21
-390.619245
 31
0.0
  0
ARC
  5
F4
100
AcDbEntity
  8
0
370
    -3
390
0
  6
Continuous
100
AcDbCircle
 10
-871.396554
 20
-384.619245
 30
0.0
 40
6.0
100
AcDbArc
 50
190.085857
 51
270.0
  0
ARC
  5
F5
100
AcDbEntity
  8
0
370
    -3
390
0
  6
Continuous
100
AcDbCircle
 10
-872.286628
 20
-287.32588
 30
0.0
 40
12.0
100
AcDbArc
 50
126.572176
 51
174.579766
  0
ARC
  5
F6
100
AcDbEntity
  8
0
370
    -3
390
0
  6
Continuous
100
AcDbCircle
 10
-745.845809
 20
-287.32588
 30
0.0
 40
12.0
100
AcDbArc
 50
5.420234
 51
53.427824
  0
LINE
  5
F7
100
AcDbEntity
  8
0
370
    -3
390
0
  6
Continuous
100
AcDbLine
 10
-809.066219
 20
-409.223354
 30
0.0
 11
-750.688706
 21
-409.223354
 31
0.0
  0
ARC
  5
F8
100
AcDbEntity
  8
0
370
    -3
390
0
  6
Continuous
100
AcDbCircle
 10
-1142.066219
 20
-324.920917
 30
0.0
 40
410.0
100
AcDbArc
 50
349.533278
 51
5.420234
  0
ARC
  5
F9
100
AcDbEntity
  8
0
370
    -3
390
0
  6
Continuous
100
AcDbCircle
 10
-750.688706
 20
-397.223354
 30
0.0
 40
12.0
100
AcDbArc
 50
270.0
 51
349.533278
  0
ARC
  5
FA
100
AcDbEntity
  8
0
370
    -3
390
0
  6
Continuous
100
AcDbCircle
 10
-476.066219
 20
-324.920917
 30
0.0
 40
410.0
100
AcDbArc
 50
174.579766
 51
190.466722
  0
LINE
  5
FB
100
AcDbEntity
  8
0
370
    -3
390
0
  6
Continuous
100
AcDbLine
 10
-809.066219
 20
-409.223354
 30
0.0
 11
-867.443731
 21
-409.223354
 31
0.0
  0
ARC
  5
FC
100
AcDbEntity
  8
0
370
    -3
390
0
  6
Continuous
100
AcDbCircle
 10
-867.443731
 20
-397.223354
 30
0.0
 40
12.0
100
AcDbArc
 50
190.466722
 51
270.0
  0
LINE
  5
FD
100
AcDbEntity
  8
0
370
    -3
390
0
  6
Continuous
100
AcDbLine
 10
-809.066219
 20
-406.44472
 30
0.0
 11
-750.185573
 21
-406.44472
 31
0.0
  0
ARC
  5
FE
100
AcDbEntity
  8
0
370
    -3
390
0
  6
Continuous
100
AcDbCircle
 10
-750.185573
 20
-394.44472
 30
0.0
 40
12.0
100
AcDbArc
 50
270.0
 51
349.939793
  0
LINE
  5
FF
100
AcDbEntity
  8
0
370
    -3
390
0
  6
Continuous
100
AcDbLine
 10
-809.066219
 20
-406.44472
 30
0.0
 11
-867.946865
 21
-406.44472
 31
0.0
  0
ARC
  5
100
100
AcDbEntity
  8
0
370
    -3
390
0
  6
Continuous
100
AcDbCircle
 10
-867.946865
 20
-394.44472
 30
0.0
 40
12.0
100
AcDbArc
 50
190.060207
 51
270.0
  0
POINT
  5
101
100
AcDbEntity
  8
0
370
    -3
390
0
  6
Continuous
100
AcDbPoint
 10
-826.566219
 20
-413.726338
 30
0.0
  0
LINE
  5
102
100
AcDbEntity
  8
0
370
    -3
390
0
  6
CENTER
100
AcDbLine
 10
-244.263353
 20
-303.556254
 30
0.0
 11
-34.551192
 21
-303.556254
 31
0.0
  0
LINE
  5
103
100
AcDbEntity
  8
0
370
    -3
390
0
  6
CENTER
100
AcDbLine
 10
-423.290305
 20
-423.556254
 30
0.0
 11
-380.383508
 21
-423.556254
 31
0.0
  0
LINE
  5
104
100
AcDbEntity
  8
0
370
    -3
390
0
  6
Continuous
100
AcDbLine
 10
-319.834473
 20
-136.556254
 30
0.0
 11
-325.354084
 21
-136.556254
 31
0.0
  0
LINE
  5
105
100
AcDbEntity
  8
0
370
    -3
390
0
  6
Continuous
100
AcDbLine
 10
-329.663264
 20
-136.556254
 30
0.0
 11
-333.566219
 21
-136.556254
 31
0.0
  0
LINE
  5
106
100
AcDbEntity
  8
0
370
    -3
390
0
  6
Continuous
100
AcDbLine
 10
-318.049552
 20
-126.556254
 30
0.0
 11
-318.049552
 21
-136.556254
 31
0.0
  0
LINE
  5
107
100
AcDbEntity
  8
0
370
    -3
390
0
  6
Continuous
100
AcDbLine
 10
-319.834473
 20
-126.556254
 30
0.0
 11
-319.834473
 21
-136.556254
 31
0.0
  0
LINE
  5
108
100
AcDbEntity
  8
0
370
    -3
390
0
  6
Continuous
100
AcDbLine
 10
-325.354084
 20
-126.556254
 30
0.0
 11
-325.354084
 21
-136.556254
 31
0.0
  0
LINE
  5
109
100
AcDbEntity
  8
0
370
    -3
390
0
  6
Continuous
100
AcDbLine
 10
-329.663264
 20
-126.556254
 30
0.0
 11
-329.663264
 21
-136.556254
 31
0.0
  0
ARC
  5
10A
100
AcDbEntity
  8
0
370
    -3
390
0
  6
Continuous
100
AcDbCircle
 10
-324.066219
 20
-143.056254
 30
0.0
 40
1.5
100
AcDbArc
 50
0.0
 51
90.0
  0
ARC
  5
10B
100
AcDbEntity
  8
0
370
    -3
390
0
  6
Continuous
100
AcDbCircle
 10
-324.066219
 20
-143.056254
 30
0.0
 40
1.5
100
AcDbArc
 50
270.0
 51
0.0
  0
LINE
  5
10C
100
AcDbEntity
  8
0
370
    -3
390
0
  6
Continuous
100
AcDbLine
 10
-318.316219
 20
-138.556254
 30
0.0
 11
-318.316219
 21
-141.556254
 31
0.0
  0
LINE
  5
10D
100
AcDbEntity
  8
0
370
    -3
390
0
  6
Continuous
100
AcDbLine
 10
-318.316219
 20
-138.556254
 30
0.0
 11
-333.566219
 21
-138.556254
 31
0.0
  0
LINE
  5
10E
100
AcDbEntity
  8
0
370
    -3
390
0
  6
Continuous
100
AcDbLine
 10
-317.566219
 20
-136.556254
 30
0.0
 11
-318.049552
 21
-136.556254
 31
0.0
  0
LINE
  5
10F
100
AcDbEntity
  8
0
370
    -3
390
0
  6
Continuous
100
AcDbLine
 10
-317.566219
 20
-137.556254
 30
0.0
 11
-317.566219
 21
-126.556254
 31
0.0
  0
LINE
  5
110
100
AcDbEntity
  8
0
370
    -3
390
0
  6
Continuous
100
AcDbLine
 10
-320.566219
 20
-124.556254
 30
0.0
 11
-319.066219
 21
-126.556254
 31
0.0
  0
LINE
  5
111
100
AcDbEntity
  8
0
370
    -3
390
0
  6
Continuous
100
AcDbLine
 10
-317.566219
 20
-137.556254
 30
0.0
 11
-333.566219
 21
-137.556254
 31
0.0
  0
LINE
  5
112
100
AcDbEntity
  8
0
370
    -3
390
0
  6
Continuous
100
AcDbLine
 10
-317.566219
 20
-137.556254
 30
0.0
 11
-317.566219
 21
-126.556254
 31
0.0
  0
LINE
  5
113
100
AcDbEntity
  8
0
370
    -3
390
0
  6
Continuous
100
AcDbLine
 10
-320.566219
 20
-124.556254
 30
0.0
 11
-319.066219
 21
-126.556254
 31
0.0
  0
LINE
  5
114
100
AcDbEntity
  8
0
370
    -3
390
0
  6
Continuous
100
AcDbLine
 10
-317.566219
 20
-126.556254
 30
0.0
 11
-333.566219
 21
-126.556254
 31
0.0
  0
LINE
  5
115
100
AcDbEntity
  8
0
370
    -3
390
0
  6
Continuous
100
AcDbLine
 10
-318.316219
 20
-141.556254
 30
0.0
 11
-333.566219
 21
-141.556254
 31
0.0
  0
LINE
  5
116
100
AcDbEntity
  8
0
370
    -3
390
0
  6
Continuous
100
AcDbLine
 10
-320.566219
 20
-124.556254
 30
0.0
 11
-333.566219
 21
-124.556254
 31
0.0
  0
LINE
  5
117
100
AcDbEntity
  8
0
370
    -3
390
0
  6
Continuous
100
AcDbLine
 10
-320.566219
 20
-138.556254
 30
0.0
 11
-320.566219
 21
-137.556254
 31
0.0
  0
LINE
  5
118
100
AcDbEntity
  8
0
370
    -3
390
0
  6
Continuous
100
AcDbLine
 10
-347.297965
 20
-136.556254
 30
0.0
 11
-341.778353
 21
-136.556254
 31
0.0
  0
LINE
  5
119
100
AcDbEntity
  8
0
370
    -3
390
0
  6
Continuous
100
AcDbLine
 10
-337.469173
 20
-136.556254
 30
0.0
 11
-333.566219
 21
-136.556254
 31
0.0
  0
LINE
  5
11A
100
AcDbEntity
  8
0
370
    -3
390
0
  6
Continuous
100
AcDbLine
 10
-349.082885
 20
-126.556254
 30
0.0
 11
-349.082885
 21
-136.556254
 31
0.0
  0
LINE
  5
11B
100
AcDbEntity
  8
0
370
    -3
390
0
  6
Continuous
100
AcDbLine
 10
-347.297965
 20
-126.556254
 30
0.0
 11
-347.297965
 21
-136.556254
 31
0.0
  0
LINE
  5
11C
100
AcDbEntity
  8
0
370
    -3
390
0
  6
Continuous
100
AcDbLine
 10
-341.778353
 20
-126.556254
 30
0.0
 11
-341.778353
 21
-136.556254
 31
0.0
  0
LINE
  5
11D
100
AcDbEntity
  8
0
370
    -3
390
0
  6
Continuous
100
AcDbLine
 10
-337.469173
 20
-126.556254
 30
0.0
 11
-337.469173
 21
-136.556254
 31
0.0
  0
LINE
  5
11E
100
AcDbEntity
  8
0
370
    -3
390
0
  6
Continuous
100
AcDbLine
 10
-336.566219
 20
-138.556254
 30
0.0
 11
-333.566219
 21
-138.556254
 31
0.0
  0
LINE
  5
11F
100
AcDbEntity
  8
0
370
    -3
390
0
  6
Continuous
100
AcDbLine
 10
-349.566219
 20
-136.556254
 30
0.0
 11
-349.082885
 21
-136.556254
 31
0.0
  0
LINE
  5
120
100
AcDbEntity
  8
0
370
    -3
390
0
  6
Continuous
100
AcDbLine
 10
-349.566219
 20
-137.556254
 30
0.0
 11
-349.566219
 21
-126.556254
 31
0.0
  0
LINE
  5
121
100
AcDbEntity
  8
0
370
    -3
390
0
  6
Continuous
100
AcDbLine
 10
-346.566219
 20
-124.556254
 30
0.0
 11
-348.066219
 21
-126.556254
 31
0.0
  0
LINE
  5
122
100
AcDbEntity
  8
0
370
    -3
390
0
  6
Continuous
100
AcDbLine
 10
-349.566219
 20
-137.556254
 30
0.0
 11
-333.566219
 21
-137.556254
 31
0.0
  0
LINE
  5
123
100
AcDbEntity
  8
0
370
    -3
390
0
  6
Continuous
100
AcDbLine
 10
-349.566219
 20
-137.556254
 30
0.0
 11
-349.566219
 21
-126.556254
 31
0.0
  0
LINE
  5
124
100
AcDbEntity
  8
0
370
    -3
390
0
  6
Continuous
100
AcDbLine
 10
-346.566219
 20
-124.556254
 30
0.0
 11
-348.066219
 21
-126.556254
 31
0.0
  0
LINE
  5
125
100
AcDbEntity
  8
0
370
    -3
390
0
  6
Continuous
100
AcDbLine
 10
-349.566219
 20
-126.556254
 30
0.0
 11
-333.566219
 21
-126.556254
 31
0.0
  0
LINE
  5
126
100
AcDbEntity
  8
0
370
    -3
390
0
  6
Continuous
100
AcDbLine
 10
-346.566219
 20
-124.556254
 30
0.0
 11
-333.566219
 21
-124.556254
 31
0.0
  0
LINE
  5
127
100
AcDbEntity
  8
0
370
    -3
390
0
  6
Continuous
100
AcDbLine
 10
-346.566219
 20
-138.556254
 30
0.0
 11
-346.566219
 21
-137.556254
 31
0.0
  0
LINE
  5
128
100
AcDbEntity
  8
0
370
    -3
390
0
  6
CENTER
100
AcDbLine
 10
-333.566219
 20
-122.192766
 30
0.0
 11
-333.566219
 21
-158.081555
 31
0.0
  0
ARC
  5
129
100
AcDbEntity
  8
0
370
    -3
390
0
  6
Continuous
100
AcDbCircle
 10
-402.066219
 20
-255.556254
 30
0.0
 40
6.0
100
AcDbArc
 50
270.0
 51
0.0
  0
LINE
  5
12A
100
AcDbEntity
  8
0
370
    -3
390
0
  6
Continuous
100
AcDbLine
 10
-402.066219
 20
-261.556254
 30
0.0
 11
-414.066219
 21
-261.556254
 31
0.0
  0
LINE
  5
12B
100
AcDbEntity
  8
0
370
    -3
390
0
  6
Continuous
100
AcDbLine
 10
-414.066219
 20
-222.358134
 30
0.0
 11
-405.60531
 21
-222.358134
 31
0.0
  0
ARC
  5
12C
100
AcDbEntity
  8
0
370
    -3
390
0
  6
Continuous
100
AcDbCircle
 10
-393.066219
 20
-145.758295
 30
0.0
 40
3.0
100
AcDbArc
 50
297.035692
 51
0.0
  0
ARC
  5
12D
100
AcDbEntity
  8
0
370
    -3
390
0
  6
Continuous
100
AcDbCircle
 10
-388.066219
 20
-155.556254
 30
0.0
 40
8.0
100
AcDbArc
 50
117.035692
 51
180.0
  0
ARC
  5
12E
100
AcDbEntity
  8
0
370
    -3
390
0
  6
Continuous
100
AcDbCircle
 10
-387.066219
 20
-141.556254
 30
0.0
 40
3.0
100
AcDbArc
 50
90.0
 51
180.0
  0
LINE
  5
12F
100
AcDbEntity
  8
0
370
    -3
390
0
  6
Continuous
100
AcDbLine
 10
-390.066219
 20
-141.556254
 30
0.0
 11
-390.066219
 21
-145.758295
 31
0.0
  0
ARC
  5
130
100
AcDbEntity
  8
0
370
    -3
390
0
  6
Continuous
100
AcDbCircle
 10
-395.066219
 20
-141.556254
 30
0.0
 40
3.0
100
AcDbArc
 50
90.0
 51
180.0
  0
ARC
  5
131
100
AcDbEntity
  8
0
370
    -3
390
0
  6
Continuous
100
AcDbCircle
 10
-393.066219
 20
-141.556254
 30
0.0
 40
3.0
100
AcDbArc
 50
90.0
 51
180.0
  0
LINE
  5
132
100
AcDbEntity
  8
0
370
    -3
390
0
  6
Continuous
100
AcDbLine
 10
-398.066219
 20
-141.556254
 30
0.0
 11
-398.066219
 21
-173.556254
 31
0.0
  0
LINE
  5
133
100
AcDbEntity
  8
0
370
    -3
390
0
  6
Continuous
100
AcDbLine
 10
-396.066219
 20
-141.556254
 30
0.0
 11
-396.066219
 21
-395.556254
 31
0.0
  0
LINE
  5
134
100
AcDbEntity
  8
0
370
    -3
390
0
  6
Continuous
100
AcDbLine
 10
-373.566219
 20
-243.556254
 30
0.0
 11
-373.566219
 21
-363.556254
 31
0.0
  0
LINE
  5
135
100
AcDbEntity
  8
0
370
    -3
390
0
  6
Continuous
100
AcDbLine
 10
-395.066219
 20
-138.556254
 30
0.0
 11
-373.566219
 21
-138.556254
 31
0.0
  0
LINE
  5
136
100
AcDbEntity
  8
0
370
    -3
390
0
  6
Continuous
100
AcDbLine
 10
-413.72521
 20
-260.800878
 30
0.0
 11
-399.151786
 21
-260.800878
 31
0.0
  0
ARC
  5
137
100
AcDbEntity
  8
0
370
    -3
390
0
  6
Continuous
100
AcDbCircle
 10
-413.72521
 20
-257.800878
 30
0.0
 40
3.0
100
AcDbArc
 50
270.0
 51
353.103099
  0
LINE
  5
138
100
AcDbEntity
  8
0
370
    -3
390
0
  6
Continuous
100
AcDbLine
 10
-398.066219
 20
-169.860541
 30
0.0
 11
-410.746918
 21
-258.161128
 31
0.0
  0
ARC
  5
139
100
AcDbEntity
  8
0
370
    -3
390
0
  6
Continuous
100
AcDbCircle
 10
-396.066219
 20
-173.556254
 30
0.0
 40
2.0
100
AcDbArc
 50
180.0
 51
270.0
  0
LINE
  5
13A
100
AcDbEntity
  8
0
370
    -3
390
0
  6
Continuous
100
AcDbLine
 10
-398.066219
 20
-286.556254
 30
0.0
 11
-398.066219
 21
-320.556254
 31
0.0
  0
ARC
  5
13B
100
AcDbEntity
  8
0
370
    -3
390
0
  6
Continuous
100
AcDbCircle
 10
-396.066219
 20
-286.556254
 30
0.0
 40
2.0
100
AcDbArc
 50
90.0
 51
180.0
  0
ARC
  5
13C
100
AcDbEntity
  8
0
370
    -3
390
0
  6
Continuous
100
AcDbCircle
 10
-396.066219
 20
-320.556254
 30
0.0
 40
2.0
100
AcDbArc
 50
180.0
 51
270.0
  0
LINE
  5
13D
100
AcDbEntity
  8
0
370
    -3
390
0
  6
Continuous
100
AcDbLine
 10
-398.066219
 20
-408.556254
 30
0.0
 11
-398.066219
 21
-438.556254
 31
0.0
  0
ARC
  5
13E
100
AcDbEntity
  8
0
370
    -3
390
0
  6
Continuous
100
AcDbCircle
 10
-396.066219
 20
-408.556254
 30
0.0
 40
2.0
100
AcDbArc
 50
90.0
 51
180.0
  0
ARC
  5
13F
100
AcDbEntity
  8
0
370
    -3
390
0
  6
Continuous
100
AcDbCircle
 10
-396.066219
 20
-438.556254
 30
0.0
 40
2.0
100
AcDbArc
 50
180.0
 51
270.0
  0
LINE
  5
140
100
AcDbEntity
  8
0
370
    -3
390
0
  6
Continuous
100
AcDbLine
 10
-414.066219
 20
-376.556254
 30
0.0
 11
-401.066219
 21
-376.556254
 31
0.0
  0
ARC
  5
141
100
AcDbEntity
  8
0
370
    -3
390
0
  6
Continuous
100
AcDbCircle
 10
-401.066219
 20
-371.556254
 30
0.0
 40
5.0
100
AcDbArc
 50
270.0
 51
0.0
  0
LINE
  5
142
100
AcDbEntity
  8
0
370
    -3
390
0
  6
Continuous
100
AcDbLine
 10
-396.066219
 20
-395.556254
 30
0.0
 11
-396.066219
 21
-472.62386
 31
0.0
  0
LINE
  5
143
100
AcDbEntity
  8
0
370
    -3
390
0
  6
Continuous
100
AcDbLine
 10
-412.066219
 20
-452.26663
 30
0.0
 11
-396.066219
 21
-452.26663
 31
0.0
  0
LINE
  5
144
100
AcDbEntity
  8
0
370
    -3
390
0
  6
Continuous
100
AcDbLine
 10
-411.77844
 20
-452.875398
 30
0.0
 11
-401.236487
 21
-475.175906
 31
0.0
  0
LINE
  5
145
100
AcDbEntity
  8
0
370
    -3
390
0
  6
Continuous
100
AcDbLine
 10
-414.066219
 20
-480.937688
 30
0.0
 11
-412.909461
 21
-480.937688
 31
0.0
  0
ARC
  5
146
100
AcDbEntity
  8
0
370
    -3
390
0
  6
Continuous
100
AcDbCircle
 10
-409.066219
 20
-451.593269
 30
0.0
 40
3.0
100
AcDbArc
 50
180.0
 51
205.301157
  0
LINE
  5
147
100
AcDbEntity
  8
0
370
    -3
390
0
  6
Continuous
100
AcDbLine
 10
-400.066219
 20
-172.556254
 30
0.0
 11
-400.066219
 21
-183.78731
 31
0.0
  0
LINE
  5
148
100
AcDbEntity
  8
0
370
    -3
390
0
  6
CENTER
100
AcDbLine
 10
-424.764116
 20
-158.556254
 30
0.0
 11
-380.383508
 21
-158.556254
 31
0.0
  0
LINE
  5
149
100
AcDbEntity
  8
0
370
    -3
390
0
  6
Continuous
100
AcDbLine
 10
-414.066219
 20
-222.358134
 30
0.0
 11
-414.066219
 21
-291.556254
 31
0.0
  0
LINE
  5
14A
100
AcDbEntity
  8
0
370
    -3
390
0
  6
Continuous
100
AcDbLine
 10
-414.066219
 20
-315.556254
 30
0.0
 11
-414.066219
 21
-395.556254
 31
0.0
  0
LINE
  5
14B
100
AcDbEntity
  8
0
370
    -3
390
0
  6
Continuous
100
AcDbLine
 10
-412.066219
 20
-435.556254
 30
0.0
 11
-412.066219
 21
-480.521463
 31
0.0
  0
LINE
  5
14C
100
AcDbEntity
  8
0
370
    -3
390
0
  6
Continuous
100
AcDbLine
 10
-414.066219
 20
-395.556254
 30
0.0
 11
-414.066219
 21
-411.556254
 31
0.0
  0
LINE
  5
14D
100
AcDbEntity
  8
0
370
    -3
390
0
  6
Continuous
100
AcDbLine
 10
-414.066219
 20
-435.556254
 30
0.0
 11
-414.066219
 21
-481.508663
 31
0.0
  0
LINE
  5
14E
100
AcDbEntity
  8
0
370
    -3
390
0
  6
Continuous
100
AcDbLine
 10
-163.066219
 20
-341.056254
 30
0.0
 11
-158.066219
 21
-341.056254
 31
0.0
  0
LINE
  5
14F
100
AcDbEntity
  8
0
370
    -3
390
0
  6
Continuous
100
AcDbLine
 10
-163.066219
 20
-266.056254
 30
0.0
 11
-158.066219
 21
-266.056254
 31
0.0
  0
LINE
  5
150
100
AcDbEntity
  8
0
370
    -3
390
0
  6
Continuous
100
AcDbLine
 10
-133.066219
 20
-264.056254
 30
0.0
 11
-53.066219
 21
-264.056254
 31
0.0
  0
LINE
  5
151
100
AcDbEntity
  8
0
370
    -3
390
0
  6
Continuous
100
AcDbLine
 10
-158.066219
 20
-266.056254
 30
0.0
 11
-158.066219
 21
-341.056254
 31
0.0
  0
LINE
  5
152
100
AcDbEntity
  8
0
370
    -3
390
0
  6
Continuous
100
AcDbLine
 10
-133.066219
 20
-264.056254
 30
0.0
 11
-133.066219
 21
-268.556254
 31
0.0
  0
LINE
  5
153
100
AcDbEntity
  8
0
370
    -3
390
0
  6
Continuous
100
AcDbLine
 10
-158.066219
 20
-338.556254
 30
0.0
 11
-53.066219
 21
-338.556254
 31
0.0
  0
LINE
  5
154
100
AcDbEntity
  8
0
370
    -3
390
0
  6
Continuous
100
AcDbLine
 10
-158.066219
 20
-268.556254
 30
0.0
 11
-53.066219
 21
-268.556254
 31
0.0
  0
LINE
  5
155
100
AcDbEntity
  8
0
370
    -3
390
0
  6
Continuous
100
AcDbLine
 10
-53.066219
 20
-264.056254
 30
0.0
 11
-53.066219
 21
-338.556254
 31
0.0
  0
LINE
  5
156
100
AcDbEntity
  8
0
370
    -3
390
0
  6
CENTER
100
AcDbLine
 10
-301.066219
 20
-528.556254
 30
0.0
 11
-336.066219
 21
-528.556254
 31
0.0
  0
LINE
  5
157
100
AcDbEntity
  8
0
370
    -3
390
0
  6
CENTER
100
AcDbLine
 10
-318.566219
 20
-511.056254
 30
0.0
 11
-318.566219
 21
-546.056254
 31
0.0
  0
LINE
  5
158
100
AcDbEntity
  8
0
370
    -3
390
0
  6
CENTER
100
AcDbLine
 10
-208.566219
 20
-445.556254
 30
0.0
 11
-258.566219
 21
-445.556254
 31
0.0
  0
LINE
  5
159
100
AcDbEntity
  8
0
370
    -3
390
0
  6
CENTER
100
AcDbLine
 10
-233.566219
 20
-420.556254
 30
0.0
 11
-233.566219
 21
-470.556254
 31
0.0
  0
ARC
  5
15A
100
AcDbEntity
  8
0
370
    -3
390
0
  6
Continuous
100
AcDbCircle
 10
-458.066219
 20
-568.556254
 30
0.0
 40
5.0
100
AcDbArc
 50
90.0
 51
180.0
  0
ARC
  5
15B
100
AcDbEntity
  8
0
370
    -3
390
0
  6
Continuous
100
AcDbCircle
 10
-278.066219
 20
-568.556254
 30
0.0
 40
5.0
100
AcDbArc
 50
0.0
 51
90.0
  0
LINE
  5
15C
100
AcDbEntity
  8
0
370
    -3
390
0
  6
Continuous
100
AcDbLine
 10
-463.066219
 20
-568.556254
 30
0.0
 11
-573.066219
 21
-568.556254
 31
0.0
  0
LINE
  5
15D
100
AcDbEntity
  8
0
370
    -3
390
0
  6
Continuous
100
AcDbLine
 10
-278.066219
 20
-563.556254
 30
0.0
 11
-458.066219
 21
-563.556254
 31
0.0
  0
ARC
  5
15E
100
AcDbEntity
  8
0
370
    -3
390
0
  6
Continuous
100
AcDbCircle
 10
-233.566219
 20
-445.556254
 30
0.0
 40
20.0
100
AcDbArc
 50
270.0
 51
90.0
  0
LINE
  5
15F
100
AcDbEntity
  8
0
370
    -3
390
0
  6
Continuous
100
AcDbLine
 10
-233.566219
 20
-465.556254
 30
0.0
 11
-266.566219
 21
-465.556254
 31
0.0
  0
LINE
  5
160
100
AcDbEntity
  8
0
370
    -3
390
0
  6
Continuous
100
AcDbLine
 10
-233.566219
 20
-425.556254
 30
0.0
 11
-266.566219
 21
-425.556254
 31
0.0
  0
CIRCLE
  5
161
100
AcDbEntity
  8
0
370
    -3
390
0
  6
Continuous
100
AcDbCircle
 10
-318.566219
 20
-528.556254
 30
0.0
 40
12.5
  0
CIRCLE
  5
162
100
AcDbEntity
  8
0
370
    -3
390
0
  6
Continuous
100
AcDbCircle
 10
-233.566219
 20
-445.556254
 30
0.0
 40
15.0
  0
LINE
  5
163
100
AcDbEntity
  8
0
370
    -3
390
0
  6
Continuous
100
AcDbLine
 10
-163.066219
 20
-568.556254
 30
0.0
 11
-273.066219
 21
-568.556254
 31
0.0
  0
LINE
  5
164
100
AcDbEntity
  8
0
370
    -3
390
0
  6
CENTER
100
AcDbLine
 10
-193.066219
 20
-517.987643
 30
0.0
 11
-193.066219
 21
-582.425607
 31
0.0
  0
LINE
  5
165
100
AcDbEntity
  8
0
370
    -3
390
0
  6
CENTER
100
AcDbLine
 10
-543.066219
 20
-517.987643
 30
0.0
 11
-543.066219
 21
-583.296391
 31
0.0
  0
LINE
  5
166
100
AcDbEntity
  8
0
370
    -3
390
0
  6
Continuous
100
AcDbLine
 10
-163.066219
 20
-367.792322
 30
0.0
 11
-163.066219
 21
-303.556254
 31
0.0
  0
LINE
  5
167
100
AcDbEntity
  8
0
370
    -3
390
0
  6
Continuous
100
AcDbLine
 10
-163.066219
 20
-239.320186
 30
0.0
 11
-163.066219
 21
-303.556254
 31
0.0
  0
LINE
  5
168
100
AcDbEntity
  8
0
370
    -3
390
0
  6
Continuous
100
AcDbLine
 10
-372.566219
 20
-352.556254
 30
0.0
 11
-373.566219
 21
-352.556254
 31
0.0
  0
LINE
  5
169
100
AcDbEntity
  8
0
370
    -3
390
0
  6
Continuous
100
AcDbLine
 10
-357.566219
 20
-148.126254
 30
0.0
 11
-357.566219
 21
-284.556254
 31
0.0
  0
LINE
  5
16A
100
AcDbEntity
  8
0
370
    -3
390
0
  6
Continuous
100
AcDbLine
 10
-373.566219
 20
-138.556254
 30
0.0
 11
-373.566219
 21
-461.517856
 31
0.0
  0
LINE
  5
16B
100
AcDbEntity
  8
0
370
    -3
390
0
  6
Continuous
100
AcDbLine
 10
-573.066219
 20
-537.556254
 30
0.0
 11
-573.066219
 21
-568.556254
 31
0.0
  0
LINE
  5
16C
100
AcDbEntity
  8
0
370
    -3
390
0
  6
Continuous
100
AcDbLine
 10
-373.566219
 20
-138.556254
 30
0.0
 11
-336.566219
 21
-138.556254
 31
0.0
  0
LINE
  5
16D
100
AcDbEntity
  8
0
370
    -3
390
0
  6
Continuous
100
AcDbLine
 10
-170.066219
 20
-238.556254
 30
0.0
 11
-165.066219
 21
-238.556254
 31
0.0
  0
LINE
  5
16E
100
AcDbEntity
  8
0
370
    -3
390
0
  6
Continuous
100
AcDbLine
 10
-173.066219
 20
-221.556254
 30
0.0
 11
-173.066219
 21
-368.556254
 31
0.0
  0
LINE
  5
16F
100
AcDbEntity
  8
0
370
    -3
390
0
  6
Continuous
100
AcDbLine
 10
-201.066219
 20
-213.556254
 30
0.0
 11
-181.066219
 21
-213.556254
 31
0.0
  0
LINE
  5
170
100
AcDbEntity
  8
0
370
    -3
390
0
  6
Continuous
100
AcDbLine
 10
-209.066219
 20
-160.344854
 30
0.0
 11
-209.066219
 21
-205.556254
 31
0.0
  0
ARC
  5
171
100
AcDbEntity
  8
0
370
    -3
390
0
  6
Continuous
100
AcDbCircle
 10
-165.066219
 20
-241.556254
 30
0.0
 40
3.0
100
AcDbArc
 50
48.189685
 51
90.0
  0
ARC
  5
172
100
AcDbEntity
  8
0
370
    -3
390
0
  6
Continuous
100
AcDbCircle
 10
-170.066219
 20
-235.556254
 30
0.0
 40
3.0
100
AcDbArc
 50
180.0
 51
270.0
  0
ARC
  5
173
100
AcDbEntity
  8
0
370
    -3
390
0
  6
Continuous
100
AcDbCircle
 10
-181.066219
 20
-221.556254
 30
0.0
 40
8.0
100
AcDbArc
 50
0.0
 51
90.0
  0
LINE
  5
174
100
AcDbEntity
  8
0
370
    -3
390
0
  6
Continuous
100
AcDbLine
 10
-333.566219
 20
-141.556254
 30
0.0
 11
-333.566219
 21
-144.556254
 31
0.0
  0
ARC
  5
175
100
AcDbEntity
  8
0
370
    -3
390
0
  6
Continuous
100
AcDbCircle
 10
-336.566219
 20
-141.556254
 30
0.0
 40
3.0
100
AcDbArc
 50
0.0
 51
90.0
  0
LINE
  5
176
100
AcDbEntity
  8
0
370
    -3
390
0
  6
Continuous
100
AcDbLine
 10
-333.566219
 20
-144.556254
 30
0.0
 11
-318.066219
 21
-144.556254
 31
0.0
  0
ARC
  5
177
100
AcDbEntity
  8
0
370
    -3
390
0
  6
Continuous
100
AcDbCircle
 10
-201.066219
 20
-205.556254
 30
0.0
 40
8.0
100
AcDbArc
 50
180.0
 51
270.0
  0
ARC
  5
178
100
AcDbEntity
  8
0
370
    -3
390
0
  6
Continuous
100
AcDbCircle
 10
-165.066219
 20
-365.556254
 30
0.0
 40
3.0
100
AcDbArc
 50
270.0
 51
311.810315
  0
LINE
  5
179
100
AcDbEntity
  8
0
370
    -3
390
0
  6
Continuous
100
AcDbLine
 10
-170.066219
 20
-368.556254
 30
0.0
 11
-165.066219
 21
-368.556254
 31
0.0
  0
ARC
  5
17A
100
AcDbEntity
  8
0
370
    -3
390
0
  6
Continuous
100
AcDbCircle
 10
-170.066219
 20
-371.556254
 30
0.0
 40
3.0
100
AcDbArc
 50
90.0
 51
180.0
  0
LINE
  5
17B
100
AcDbEntity
  8
0
370
    -3
390
0
  6
Continuous
100
AcDbLine
 10
-173.066219
 20
-463.556254
 30
0.0
 11
-173.066219
 21
-371.556254
 31
0.0
  0
LINE
  5
17C
100
AcDbEntity
  8
0
370
    -3
390
0
  6
Continuous
100
AcDbLine
 10
-173.066219
 20
-463.556254
 30
0.0
 11
-173.066219
 21
-509.489557
 31
0.0
  0
LINE
  5
17D
100
AcDbEntity
  8
0
370
    -3
390
0
  6
Continuous
100
AcDbLine
 10
-232.566219
 20
-528.556254
 30
0.0
 11
-176.02684
 21
-528.556254
 31
0.0
  0
LINE
  5
17E
100
AcDbEntity
  8
0
370
    -3
390
0
  6
Continuous
100
AcDbLine
 10
-163.066219
 20
-533.556254
 30
0.0
 11
-163.066219
 21
-568.556254
 31
0.0
  0
ARC
  5
17F
100
AcDbEntity
  8
0
370
    -3
390
0
  6
Continuous
100
AcDbCircle
 10
-168.066219
 20
-533.556254
 30
0.0
 40
5.0
100
AcDbArc
 50
0.0
 51
90.0
  0
ARC
  5
180
100
AcDbEntity
  8
0
370
    -3
390
0
  6
Continuous
100
AcDbCircle
 10
-568.066219
 20
-537.556254
 30
0.0
 40
5.0
100
AcDbArc
 50
90.0
 51
180.0
  0
LINE
  5
181
100
AcDbEntity
  8
0
370
    -3
390
0
  6
Continuous
100
AcDbLine
 10
-194.191886
 20
-339.831229
 30
0.0
 11
-178.024329
 21
-342.682006
 31
0.0
  0
ARC
  5
182
100
AcDbEntity
  8
0
370
    -3
390
0
  6
Continuous
100
AcDbCircle
 10
-179.066219
 20
-348.590852
 30
0.0
 40
6.0
100
AcDbArc
 50
0.0
 51
80.0
  0
LINE
  5
183
100
AcDbEntity
  8
0
370
    -3
390
0
  6
Continuous
100
AcDbLine
 10
-173.066219
 20
-371.556254
 30
0.0
 11
-173.066219
 21
-348.590852
 31
0.0
  0
LINE
  5
184
100
AcDbEntity
  8
0
370
    -3
390
0
  6
Continuous
100
AcDbLine
 10
-209.066219
 20
-322.10469
 30
0.0
 11
-209.066219
 21
-205.556254
 31
0.0
  0
ARC
  5
185
100
AcDbEntity
  8
0
370
    -3
390
0
  6
Continuous
100
AcDbCircle
 10
-191.066219
 20
-322.10469
 30
0.0
 40
18.0
100
AcDbArc
 50
180.0
 51
260.0
  0
LINE
  5
186
100
AcDbEntity
  8
0
370
    -3
390
0
  6
Continuous
100
AcDbLine
 10
-373.566219
 20
-284.556254
 30
0.0
 11
-268.566219
 21
-284.556254
 31
0.0
  0
LINE
  5
187
100
AcDbEntity
  8
0
370
    -3
390
0
  6
Continuous
100
AcDbLine
 10
-367.566219
 20
-357.556254
 30
0.0
 11
-268.566219
 21
-357.556254
 31
0.0
  0
LINE
  5
188
100
AcDbEntity
  8
0
370
    -3
390
0
  6
Continuous
100
AcDbLine
 10
-362.566219
 20
-388.556254
 30
0.0
 11
-268.566219
 21
-388.556254
 31
0.0
  0
LINE
  5
189
100
AcDbEntity
  8
0
370
    -3
390
0
  6
Continuous
100
AcDbLine
 10
-367.566219
 20
-452.442339
 30
0.0
 11
-367.566219
 21
-357.556254
 31
0.0
  0
LINE
  5
18A
100
AcDbEntity
  8
0
370
    -3
390
0
  6
Continuous
100
AcDbLine
 10
-266.566219
 20
-488.556254
 30
0.0
 11
-266.566219
 21
-289.556254
 31
0.0
  0
ARC
  5
18B
100
AcDbEntity
  8
0
370
    -3
390
0
  6
Continuous
100
AcDbCircle
 10
-271.566219
 20
-289.556254
 30
0.0
 40
5.0
100
AcDbArc
 50
0.0
 51
90.0
  0
ARC
  5
18C
100
AcDbEntity
  8
0
370
    -3
390
0
  6
Continuous
100
AcDbCircle
 10
-271.566219
 20
-352.556254
 30
0.0
 40
5.0
100
AcDbArc
 50
270.0
 51
0.0
  0
ARC
  5
18D
100
AcDbEntity
  8
0
370
    -3
390
0
  6
Continuous
100
AcDbCircle
 10
-271.566219
 20
-362.556254
 30
0.0
 40
5.0
100
AcDbArc
 50
0.0
 51
90.0
  0
ARC
  5
18E
100
AcDbEntity
  8
0
370
    -3
390
0
  6
Continuous
100
AcDbCircle
 10
-271.566219
 20
-383.556254
 30
0.0
 40
5.0
100
AcDbArc
 50
270.0
 51
0.0
  0
ARC
  5
18F
100
AcDbEntity
  8
0
370
    -3
390
0
  6
Continuous
100
AcDbCircle
 10
-271.566219
 20
-393.556254
 30
0.0
 40
5.0
100
AcDbArc
 50
0.0
 51
90.0
  0
ARC
  5
190
100
AcDbEntity
  8
0
370
    -3
390
0
  6
Continuous
100
AcDbCircle
 10
-372.566219
 20
-357.556254
 30
0.0
 40
5.0
100
AcDbArc
 50
0.0
 51
90.0
  0
ARC
  5
191
100
AcDbEntity
  8
0
370
    -3
390
0
  6
Continuous
100
AcDbCircle
 10
-362.566219
 20
-383.556254
 30
0.0
 40
5.0
100
AcDbArc
 50
180.0
 51
270.0
  0
ARC
  5
192
100
AcDbEntity
  8
0
370
    -3
390
0
  6
Continuous
100
AcDbCircle
 10
-362.566219
 20
-393.556254
 30
0.0
 40
5.0
100
AcDbArc
 50
90.0
 51
180.0
  0
ARC
  5
193
100
AcDbEntity
  8
0
370
    -3
390
0
  6
Continuous
100
AcDbCircle
 10
-226.566219
 20
-488.556254
 30
0.0
 40
40.0
100
AcDbArc
 50
180.0
 51
270.0
  0
LINE
  5
194
100
AcDbEntity
  8
0
370
    -3
390
0
  6
Continuous
100
AcDbLine
 10
-176.02684
 20
-528.556254
 30
0.0
 11
-167.066219
 21
-528.556254
 31
0.0
  0
ARC
  5
195
100
AcDbEntity
  8
0
370
    -3
390
0
  6
Continuous
100
AcDbCircle
 10
-377.566219
 20
-452.442339
 30
0.0
 40
10.0
100
AcDbArc
 50
304.024236
 51
0.0
  0
LINE
  5
196
100
AcDbEntity
  8
0
370
    -3
390
0
  6
Continuous
100
AcDbLine
 10
-568.066219
 20
-532.556254
 30
0.0
 11
-513.161634
 21
-529.886123
 31
0.0
  0
LINE
  5
197
100
AcDbEntity
  8
0
370
    -3
390
0
  6
Continuous
100
AcDbLine
 10
-371.970783
 20
-460.730348
 30
0.0
 11
-510.202141
 21
-528.961373
 31
0.0
  0
ARC
  5
198
100
AcDbEntity
  8
0
370
    -3
390
0
  6
Continuous
100
AcDbCircle
 10
-514.628307
 20
-519.994264
 30
0.0
 40
10.0
100
AcDbArc
 50
272.784227
 51
296.270955
  0
LINE
  5
199
100
AcDbEntity
  8
0
370
    -3
390
0
  6
Continuous
100
AcDbLine
 10
-373.566219
 20
-147.646254
 30
0.0
 11
-331.626192
 21
-148.904455
 31
0.0
  0
LINE
  5
19A
100
AcDbEntity
  8
0
370
    -3
390
0
  6
Continuous
100
AcDbLine
 10
-316.066219
 20
-146.556254
 30
0.0
 11
-316.066219
 21
-147.430355
 31
0.0
  0
ARC
  5
19B
100
AcDbEntity
  8
0
370
    -3
390
0
  6
Continuous
100
AcDbCircle
 10
-318.066219
 20
-146.556254
 30
0.0
 40
2.0
100
AcDbArc
 50
0.0
 51
90.0
  0
ARC
  5
19C
100
AcDbEntity
  8
0
370
    -3
390
0
  6
Continuous
100
AcDbCircle
 10
-314.066219
 20
-147.430355
 30
0.0
 40
2.0
100
AcDbArc
 50
180.0
 51
268.281642
  0
LINE
  5
19D
100
AcDbEntity
  8
0
370
    -3
390
0
  6
Continuous
100
AcDbLine
 10
-331.626192
 20
-148.904455
 30
0.0
 11
-314.126192
 21
-149.429455
 31
0.0
  0
LINE
  5
19E
100
AcDbEntity
  8
0
370
    -3
390
0
  6
DASHED
100
AcDbLine
 10
-333.566219
 20
-144.556254
 30
0.0
 11
-333.566219
 21
-146.905355
 31
0.0
  0
LINE
  5
19F
100
AcDbEntity
  8
0
370
    -3
390
0
  6
Continuous
100
AcDbLine
 10
-314.126192
 20
-149.429455
 30
0.0
 11
-216.435502
 21
-152.360176
 31
0.0
  0
ARC
  5
1A0
100
AcDbEntity
  8
0
370
    -3
390
0
  6
Continuous
100
AcDbCircle
 10
-331.566219
 20
-146.905355
 30
0.0
 40
2.0
100
AcDbArc
 50
180.0
 51
268.281642
  0
ARC
  5
1A1
100
AcDbEntity
  8
0
370
    -3
390
0
  6
Continuous
100
AcDbCircle
 10
-217.066219
 20
-160.344854
 30
0.0
 40
8.0
100
AcDbArc
 50
0.0
 51
88.281642
  0
ARC
  5
1A2
100
AcDbEntity
  8
0
370
    -3
390
0
  6
Continuous
100
AcDbCircle
 10
-208.066219
 20
-509.489557
 30
0.0
 40
35.0
100
AcDbArc
 50
326.991546
 51
0.0
  0
LINE
  5
1A3
100
AcDbEntity
  8
0
370
    -3
390
0
  6
Continuous
100
AcDbLine
 10
-209.677048
 20
-156.480608
 30
0.0
 11
-178.656464
 21
-212.490524
 31
0.0
  0
ARC
  5
1A4
100
AcDbEntity
  8
0
370
    -3
390
0
  6
Continuous
100
AcDbCircle
 10
-216.675394
 20
-160.356578
 30
0.0
 40
8.0
100
AcDbArc
 50
28.979478
 51
88.281642
  0
ARC
  5
1A5
100
AcDbEntity
  8
0
370
    -3
390
0
  6
Continuous
100
AcDbCircle
 10
-171.658118
 20
-208.614553
 30
0.0
 40
8.0
100
AcDbArc
 50
208.979478
 51
233.984342
  0
LINE
  5
1A6
100
AcDbEntity
  8
0
370
    -3
390
0
  6
Continuous
100
AcDbLine
 10
-374.066219
 20
-138.556254
 30
0.0
 11
-374.066219
 21
-461.764656
 31
0.0
  0
LINE
  5
1A7
100
AcDbEntity
  8
0
370
    -3
390
0
  6
Continuous
100
AcDbLine
 10
-704.066219
 20
-407.069916
 30
0.0
 11
-591.066219
 21
-407.069916
 31
0.0
  0
LINE
  5
1A8
100
AcDbEntity
  8
0
370
    -3
390
0
  6
Continuous
100
AcDbLine
 10
-727.066219
 20
-407.069916
 30
0.0
 11
-704.066219
 21
-407.069916
 31
0.0
  0
LINE
  5
1A9
100
AcDbEntity
  8
0
370
    -3
390
0
  6
Continuous
100
AcDbLine
 10
-704.066219
 20
-404.77484
 30
0.0
 11
-591.066219
 21
-404.77484
 31
0.0
  0
LINE
  5
1AA
100
AcDbEntity
  8
0
370
    -3
390
0
  6
Continuous
100
AcDbLine
 10
-727.066219
 20
-404.77484
 30
0.0
 11
-704.066219
 21
-404.77484
 31
0.0
  0
ARC
  5
1AB
100
AcDbEntity
  8
0
370
    -3
390
0
  6
Continuous
100
AcDbCircle
 10
-570.566219
 20
-262.73979
 30
0.0
 40
1.0
100
AcDbArc
 50
180.0
 51
270.0
  0
ARC
  5
1AC
100
AcDbEntity
  8
0
370
    -3
390
0
  6
Continuous
100
AcDbCircle
 10
-545.566219
 20
-287.096068
 30
0.0
 40
0.5
100
AcDbArc
 50
270.0
 51
0.0
  0
ARC
  5
1AD
100
AcDbEntity
  8
0
370
    -3
390
0
  6
Continuous
100
AcDbCircle
 10
-544.566219
 20
-266.86111
 30
0.0
 40
0.5
100
AcDbArc
 50
135.0
 51
180.0
  0
LINE
  5
1AE
100
AcDbEntity
  8
0
370
    -3
390
0
  6
Continuous
100
AcDbLine
 10
-545.066219
 20
-287.096068
 30
0.0
 11
-545.066219
 21
-266.86111
 31
0.0
  0
ARC
  5
1AF
100
AcDbEntity
  8
0
370
    -3
390
0
  6
Continuous
100
AcDbCircle
 10
-568.566219
 20
-287.096068
 30
0.0
 40
0.5
100
AcDbArc
 50
180.0
 51
270.0
  0
ARC
  5
1B0
100
AcDbEntity
  8
0
370
    -3
390
0
  6
Continuous
100
AcDbCircle
 10
-570.566219
 20
-253.511868
 30
0.0
 40
1.0
100
AcDbArc
 50
90.0
 51
180.0
  0
LINE
  5
1B1
100
AcDbEntity
  8
0
370
    -3
390
0
  6
Continuous
100
AcDbLine
 10
-571.566219
 20
-263.73979
 30
0.0
 11
-571.566219
 21
-253.511868
 31
0.0
  0
ARC
  5
1B2
100
AcDbEntity
  8
0
370
    -3
390
0
  6
Continuous
100
AcDbCircle
 10
-570.566219
 20
-263.73979
 30
0.0
 40
1.0
100
AcDbArc
 50
180.0
 51
225.0
  0
LINE
  5
1B3
100
AcDbEntity
  8
0
370
    -3
390
0
  6
Continuous
100
AcDbLine
 10
-569.212667
 20
-266.507558
 30
0.0
 11
-571.273327
 21
-264.446898
 31
0.0
  0
ARC
  5
1B4
100
AcDbEntity
  8
0
370
    -3
390
0
  6
Continuous
100
AcDbCircle
 10
-569.566219
 20
-266.86111
 30
0.0
 40
0.5
100
AcDbArc
 50
0.0
 51
45.0
  0
LINE
  5
1B5
100
AcDbEntity
  8
0
370
    -3
390
0
  6
Continuous
100
AcDbLine
 10
-569.066219
 20
-287.096068
 30
0.0
 11
-569.066219
 21
-266.86111
 31
0.0
  0
LINE
  5
1B6
100
AcDbEntity
  8
0
370
    -3
390
0
  6
Continuous
100
AcDbLine
 10
-545.566219
 20
-287.596068
 30
0.0
 11
-568.566219
 21
-287.596068
 31
0.0
  0
ARC
  5
1B7
100
AcDbEntity
  8
0
370
    -3
390
0
  6
Continuous
100
AcDbCircle
 10
-570.566219
 20
-262.73979
 30
0.0
 40
1.0
100
AcDbArc
 50
180.0
 51
270.0
  0
LINE
  5
1B8
100
AcDbEntity
  8
0
370
    -3
390
0
  6
Continuous
100
AcDbLine
 10
-570.566219
 20
-263.73979
 30
0.0
 11
-544.066219
 21
-263.73979
 31
0.0
  0
ARC
  5
1B9
100
AcDbEntity
  8
0
370
    -3
390
0
  6
Continuous
100
AcDbCircle
 10
-545.566219
 20
-287.096068
 30
0.0
 40
0.5
100
AcDbArc
 50
270.0
 51
0.0
  0
LINE
  5
1BA
100
AcDbEntity
  8
0
370
    -3
390
0
  6
Continuous
100
AcDbLine
 10
-544.919773
 20
-266.507558
 30
0.0
 11
-544.066219
 21
-265.654004
 31
0.0
  0
ARC
  5
1BB
100
AcDbEntity
  8
0
370
    -3
390
0
  6
Continuous
100
AcDbCircle
 10
-544.566219
 20
-266.86111
 30
0.0
 40
0.5
100
AcDbArc
 50
135.0
 51
180.0
  0
LINE
  5
1BC
100
AcDbEntity
  8
0
370
    -3
390
0
  6
Continuous
100
AcDbLine
 10
-545.066219
 20
-287.096068
 30
0.0
 11
-545.066219
 21
-266.86111
 31
0.0
  0
ARC
  5
1BD
100
AcDbEntity
  8
0
370
    -3
390
0
  6
Continuous
100
AcDbCircle
 10
-568.566219
 20
-287.096068
 30
0.0
 40
0.5
100
AcDbArc
 50
180.0
 51
270.0
  0
LINE
  5
1BE
100
AcDbEntity
  8
0
370
    -3
390
0
  6
Continuous
100
AcDbLine
 10
-570.566219
 20
-252.511868
 30
0.0
 11
-544.066219
 21
-252.511868
 31
0.0
  0
ARC
  5
1BF
100
AcDbEntity
  8
0
370
    -3
390
0
  6
Continuous
100
AcDbCircle
 10
-570.566219
 20
-253.511868
 30
0.0
 40
1.0
100
AcDbArc
 50
90.0
 51
180.0
  0
LINE
  5
1C0
100
AcDbEntity
  8
0
370
    -3
390
0
  6
Continuous
100
AcDbLine
 10
-571.566219
 20
-263.73979
 30
0.0
 11
-571.566219
 21
-253.511868
 31
0.0
  0
ARC
  5
1C1
100
AcDbEntity
  8
0
370
    -3
390
0
  6
Continuous
100
AcDbCircle
 10
-570.566219
 20
-263.73979
 30
0.0
 40
1.0
100
AcDbArc
 50
180.0
 51
225.0
  0
LINE
  5
1C2
100
AcDbEntity
  8
0
370
    -3
390
0
  6
Continuous
100
AcDbLine
 10
-569.212667
 20
-266.507558
 30
0.0
 11
-571.273327
 21
-264.446898
 31
0.0
  0
ARC
  5
1C3
100
AcDbEntity
  8
0
370
    -3
390
0
  6
Continuous
100
AcDbCircle
 10
-569.566219
 20
-266.86111
 30
0.0
 40
0.5
100
AcDbArc
 50
0.0
 51
45.0
  0
LINE
  5
1C4
100
AcDbEntity
  8
0
370
    -3
390
0
  6
Continuous
100
AcDbLine
 10
-569.066219
 20
-287.096068
 30
0.0
 11
-569.066219
 21
-266.86111
 31
0.0
  0
LINE
  5
1C5
100
AcDbEntity
  8
0
370
    -3
390
0
  6
Continuous
100
AcDbLine
 10
-545.566219
 20
-287.596068
 30
0.0
 11
-568.566219
 21
-287.596068
 31
0.0
  0
LINE
  5
1C6
100
AcDbEntity
  8
0
370
    -3
390
0
  6
Continuous
100
AcDbLine
 10
-604.066219
 20
-263.556254
 30
0.0
 11
-571.566219
 21
-263.556254
 31
0.0
  0
LINE
  5
1C7
100
AcDbEntity
  8
0
370
    -3
390
0
  6
Continuous
100
AcDbLine
 10
-772.066219
 20
-245.995166
 30
0.0
 11
-798.56524
 21
-260.410503
 31
0.0
  0
LINE
  5
1C8
100
AcDbEntity
  8
0
370
    -3
390
0
  6
Continuous
100
AcDbLine
 10
-636.066219
 20
-245.995166
 30
0.0
 11
-604.066219
 21
-263.403008
 31
0.0
  0
LINE
  5
1C9
100
AcDbEntity
  8
0
370
    -3
390
0
  6
Continuous
100
AcDbLine
 10
-772.066219
 20
-246.772374
 30
0.0
 11
-797.136536
 21
-260.410503
 31
0.0
  0
LINE
  5
1CA
100
AcDbEntity
  8
0
370
    -3
390
0
  6
Continuous
100
AcDbLine
 10
-636.066219
 20
-246.772374
 30
0.0
 11
-604.066219
 21
-264.180216
 31
0.0
  0
LINE
  5
1CB
100
AcDbEntity
  8
0
370
    -3
390
0
  6
Continuous
100
AcDbLine
 10
-772.066219
 20
-246.772374
 30
0.0
 11
-772.066219
 21
-245.995166
 31
0.0
  0
LINE
  5
1CC
100
AcDbEntity
  8
0
370
    -3
390
0
  6
Continuous
100
AcDbLine
 10
-636.066219
 20
-246.772374
 30
0.0
 11
-636.066219
 21
-245.995166
 31
0.0
  0
LINE
  5
1CD
100
AcDbEntity
  8
0
370
    -3
390
0
  6
Continuous
100
AcDbLine
 10
-604.066219
 20
-263.403008
 30
0.0
 11
-604.066219
 21
-270.021588
 31
0.0
  0
LINE
  5
1CE
100
AcDbEntity
  8
0
370
    -3
390
0
  6
Continuous
100
AcDbLine
 10
-772.066219
 20
-246.772374
 30
0.0
 11
-636.066219
 21
-246.772374
 31
0.0
  0
LINE
  5
1CF
100
AcDbEntity
  8
0
370
    -3
390
0
  6
Continuous
100
AcDbLine
 10
-772.066219
 20
-245.995166
 30
0.0
 11
-636.066219
 21
-245.995166
 31
0.0
  0
LINE
  5
1D0
100
AcDbEntity
  8
0
370
    -3
390
0
  6
Continuous
100
AcDbLine
 10
-604.703983
 20
-278.205104
 30
0.0
 11
-604.066219
 21
-278.205104
 31
0.0
  0
LINE
  5
1D1
100
AcDbEntity
  8
0
370
    -3
390
0
  6
Continuous
100
AcDbLine
 10
-772.066219
 20
-253.505192
 30
0.0
 11
-785.445042
 21
-260.410503
 31
0.0
  0
LINE
  5
1D2
100
AcDbEntity
  8
0
370
    -3
390
0
  6
Continuous
100
AcDbLine
 10
-636.066219
 20
-253.505192
 30
0.0
 11
-604.066219
 21
-270.021588
 31
0.0
  0
LINE
  5
1D3
100
AcDbEntity
  8
0
370
    -3
390
0
  6
Continuous
100
AcDbLine
 10
-636.066219
 20
-254.540418
 30
0.0
 11
-604.066219
 21
-271.056816
 31
0.0
  0
LINE
  5
1D4
100
AcDbEntity
  8
0
370
    -3
390
0
  6
Continuous
100
AcDbLine
 10
-772.066219
 20
-254.540418
 30
0.0
 11
-783.439323
 21
-260.410503
 31
0.0
  0
LINE
  5
1D5
100
AcDbEntity
  8
0
370
    -3
390
0
  6
Continuous
100
AcDbLine
 10
-604.066219
 20
-270.021588
 30
0.0
 11
-604.066219
 21
-278.205104
 31
0.0
  0
LINE
  5
1D6
100
AcDbEntity
  8
0
370
    -3
390
0
  6
Continuous
100
AcDbLine
 10
-772.066219
 20
-253.505192
 30
0.0
 11
-772.066219
 21
-254.540418
 31
0.0
  0
LINE
  5
1D7
100
AcDbEntity
  8
0
370
    -3
390
0
  6
Continuous
100
AcDbLine
 10
-636.066219
 20
-253.505192
 30
0.0
 11
-636.066219
 21
-254.540418
 31
0.0
  0
LINE
  5
1D8
100
AcDbEntity
  8
0
370
    -3
390
0
  6
Continuous
100
AcDbLine
 10
-772.066219
 20
-254.540418
 30
0.0
 11
-636.066219
 21
-254.540418
 31
0.0
  0
LINE
  5
1D9
100
AcDbEntity
  8
0
370
    -3
390
0
  6
Continuous
100
AcDbLine
 10
-772.066219
 20
-253.505192
 30
0.0
 11
-636.066219
 21
-253.505192
 31
0.0
  0
LINE
  5
1DA
100
AcDbEntity
  8
0
370
    -3
390
0
  6
Continuous
100
AcDbLine
 10
-611.188631
 20
-286.44532
 30
0.0
 11
-604.066219
 21
-286.44532
 31
0.0
  0
LINE
  5
1DB
100
AcDbEntity
  8
0
370
    -3
390
0
  6
Continuous
100
AcDbLine
 10
-636.066219
 20
-263.132872
 30
0.0
 11
-604.066219
 21
-278.511602
 31
0.0
  0
LINE
  5
1DC
100
AcDbEntity
  8
0
370
    -3
390
0
  6
Continuous
100
AcDbLine
 10
-636.066219
 20
-264.410684
 30
0.0
 11
-604.066219
 21
-279.789414
 31
0.0
  0
LINE
  5
1DD
100
AcDbEntity
  8
0
370
    -3
390
0
  6
Continuous
100
AcDbLine
 10
-636.066219
 20
-263.132872
 30
0.0
 11
-636.066219
 21
-264.410684
 31
0.0
  0
LINE
  5
1DE
100
AcDbEntity
  8
0
370
    -3
390
0
  6
Continuous
100
AcDbLine
 10
-604.066219
 20
-286.44532
 30
0.0
 11
-604.066219
 21
-278.511602
 31
0.0
  0
LINE
  5
1DF
100
AcDbEntity
  8
0
370
    -3
390
0
  6
Continuous
100
AcDbLine
 10
-741.569096
 20
-264.410684
 30
0.0
 11
-636.066219
 21
-264.410684
 31
0.0
  0
LINE
  5
1E0
100
AcDbEntity
  8
0
370
    -3
390
0
  6
Continuous
100
AcDbLine
 10
-742.603396
 20
-263.132872
 30
0.0
 11
-636.066219
 21
-263.132872
 31
0.0
  0
LINE
  5
1E1
100
AcDbEntity
  8
0
370
    -3
390
0
  6
Continuous
100
AcDbLine
 10
-636.066219
 20
-275.634524
 30
0.0
 11
-604.066219
 21
-289.540434
 31
0.0
  0
LINE
  5
1E2
100
AcDbEntity
  8
0
370
    -3
390
0
  6
Continuous
100
AcDbLine
 10
-636.066219
 20
-277.15102
 30
0.0
 11
-606.065623
 21
-290.188068
 31
0.0
  0
LINE
  5
1E3
100
AcDbEntity
  8
0
370
    -3
390
0
  6
Continuous
100
AcDbLine
 10
-738.981562
 20
-275.634524
 30
0.0
 11
-636.066219
 21
-275.634524
 31
0.0
  0
LINE
  5
1E4
100
AcDbEntity
  8
0
370
    -3
390
0
  6
Continuous
100
AcDbLine
 10
-738.767458
 20
-277.15102
 30
0.0
 11
-636.066219
 21
-277.15102
 31
0.0
  0
LINE
  5
1E5
100
AcDbEntity
  8
0
370
    -3
390
0
  6
Continuous
100
AcDbLine
 10
-636.066219
 20
-277.15102
 30
0.0
 11
-636.066219
 21
-275.634524
 31
0.0
  0
LINE
  5
1E6
100
AcDbEntity
  8
0
370
    -3
390
0
  6
Continuous
100
AcDbLine
 10
-604.066219
 20
-290.188068
 30
0.0
 11
-604.066219
 21
-289.540434
 31
0.0
  0
LINE
  5
1E7
100
AcDbEntity
  8
0
370
    -3
390
0
  6
Continuous
100
AcDbLine
 10
-817.066219
 20
-545.117342
 30
0.0
 11
-830.066219
 21
-538.045407
 31
0.0
  0
LINE
  5
1E8
100
AcDbEntity
  8
0
370
    -3
390
0
  6
Continuous
100
AcDbLine
 10
-817.066219
 20
-544.340134
 30
0.0
 11
-830.066219
 21
-537.268199
 31
0.0
  0
LINE
  5
1E9
100
AcDbEntity
  8
0
370
    -3
390
0
  6
Continuous
100
AcDbLine
 10
-817.066219
 20
-544.340134
 30
0.0
 11
-817.066219
 21
-545.117342
 31
0.0
  0
LINE
  5
1EA
100
AcDbEntity
  8
0
370
    -3
390
0
  6
Continuous
100
AcDbLine
 10
-591.066219
 20
-545.117342
 30
0.0
 11
-572.311618
 21
-534.914932
 31
0.0
  0
LINE
  5
1EB
100
AcDbEntity
  8
0
370
    -3
390
0
  6
Continuous
100
AcDbLine
 10
-591.066219
 20
-544.340134
 30
0.0
 11
-559.066219
 21
-526.932292
 31
0.0
  0
LINE
  5
1EC
100
AcDbEntity
  8
0
370
    -3
390
0
  6
Continuous
100
AcDbLine
 10
-591.066219
 20
-544.340134
 30
0.0
 11
-591.066219
 21
-545.117342
 31
0.0
  0
LINE
  5
1ED
100
AcDbEntity
  8
0
370
    -3
390
0
  6
Continuous
100
AcDbLine
 10
-559.066219
 20
-521.09092
 30
0.0
 11
-559.066219
 21
-527.7095
 31
0.0
  0
LINE
  5
1EE
100
AcDbEntity
  8
0
370
    -3
390
0
  6
Continuous
100
AcDbLine
 10
-817.066219
 20
-545.117342
 30
0.0
 11
-591.066219
 21
-545.117342
 31
0.0
  0
LINE
  5
1EF
100
AcDbEntity
  8
0
370
    -3
390
0
  6
Continuous
100
AcDbLine
 10
-817.066219
 20
-544.340134
 30
0.0
 11
-591.066219
 21
-544.340134
 31
0.0
  0
LINE
  5
1F0
100
AcDbEntity
  8
0
370
    -3
390
0
  6
Continuous
100
AcDbLine
 10
-817.066219
 20
-537.607316
 30
0.0
 11
-830.066219
 21
-530.897531
 31
0.0
  0
LINE
  5
1F1
100
AcDbEntity
  8
0
370
    -3
390
0
  6
Continuous
100
AcDbLine
 10
-817.066219
 20
-536.57209
 30
0.0
 11
-830.066219
 21
-529.862305
 31
0.0
  0
LINE
  5
1F2
100
AcDbEntity
  8
0
370
    -3
390
0
  6
Continuous
100
AcDbLine
 10
-559.703983
 20
-512.907404
 30
0.0
 11
-559.066219
 21
-512.907404
 31
0.0
  0
LINE
  5
1F3
100
AcDbEntity
  8
0
370
    -3
390
0
  6
Continuous
100
AcDbLine
 10
-591.066219
 20
-537.607316
 30
0.0
 11
-559.066219
 21
-521.09092
 31
0.0
  0
LINE
  5
1F4
100
AcDbEntity
  8
0
370
    -3
390
0
  6
Continuous
100
AcDbLine
 10
-591.066219
 20
-536.57209
 30
0.0
 11
-559.066219
 21
-520.055694
 31
0.0
  0
LINE
  5
1F5
100
AcDbEntity
  8
0
370
    -3
390
0
  6
Continuous
100
AcDbLine
 10
-559.066219
 20
-512.907404
 30
0.0
 11
-559.066219
 21
-521.09092
 31
0.0
  0
LINE
  5
1F6
100
AcDbEntity
  8
0
370
    -3
390
0
  6
Continuous
100
AcDbLine
 10
-817.066219
 20
-536.57209
 30
0.0
 11
-817.066219
 21
-537.607316
 31
0.0
  0
LINE
  5
1F7
100
AcDbEntity
  8
0
370
    -3
390
0
  6
Continuous
100
AcDbLine
 10
-591.066219
 20
-536.57209
 30
0.0
 11
-591.066219
 21
-537.607316
 31
0.0
  0
LINE
  5
1F8
100
AcDbEntity
  8
0
370
    -3
390
0
  6
Continuous
100
AcDbLine
 10
-817.066219
 20
-537.607316
 30
0.0
 11
-591.066219
 21
-537.607316
 31
0.0
  0
LINE
  5
1F9
100
AcDbEntity
  8
0
370
    -3
390
0
  6
Continuous
100
AcDbLine
 10
-817.066219
 20
-536.57209
 30
0.0
 11
-591.066219
 21
-536.57209
 31
0.0
  0
LINE
  5
1FA
100
AcDbEntity
  8
0
370
    -3
390
0
  6
Continuous
100
AcDbLine
 10
-566.188631
 20
-504.667188
 30
0.0
 11
-559.066219
 21
-504.667188
 31
0.0
  0
LINE
  5
1FB
100
AcDbEntity
  8
0
370
    -3
390
0
  6
Continuous
100
AcDbLine
 10
-817.066219
 20
-527.979636
 30
0.0
 11
-830.066219
 21
-521.732027
 31
0.0
  0
LINE
  5
1FC
100
AcDbEntity
  8
0
370
    -3
390
0
  6
Continuous
100
AcDbLine
 10
-817.066219
 20
-526.701824
 30
0.0
 11
-830.066219
 21
-520.454215
 31
0.0
  0
LINE
  5
1FD
100
AcDbEntity
  8
0
370
    -3
390
0
  6
Continuous
100
AcDbLine
 10
-591.066219
 20
-527.979636
 30
0.0
 11
-559.066219
 21
-512.600906
 31
0.0
  0
LINE
  5
1FE
100
AcDbEntity
  8
0
370
    -3
390
0
  6
Continuous
100
AcDbLine
 10
-591.066219
 20
-526.701824
 30
0.0
 11
-559.066219
 21
-511.323094
 31
0.0
  0
LINE
  5
1FF
100
AcDbEntity
  8
0
370
    -3
390
0
  6
Continuous
100
AcDbLine
 10
-591.066219
 20
-526.701824
 30
0.0
 11
-591.066219
 21
-527.979636
 31
0.0
  0
LINE
  5
200
100
AcDbEntity
  8
0
370
    -3
390
0
  6
Continuous
100
AcDbLine
 10
-817.066219
 20
-526.701824
 30
0.0
 11
-817.066219
 21
-527.979636
 31
0.0
  0
LINE
  5
201
100
AcDbEntity
  8
0
370
    -3
390
0
  6
Continuous
100
AcDbLine
 10
-559.066219
 20
-504.667188
 30
0.0
 11
-559.066219
 21
-512.600906
 31
0.0
  0
LINE
  5
202
100
AcDbEntity
  8
0
370
    -3
390
0
  6
Continuous
100
AcDbLine
 10
-817.066219
 20
-527.979636
 30
0.0
 11
-591.066219
 21
-527.979636
 31
0.0
  0
LINE
  5
203
100
AcDbEntity
  8
0
370
    -3
390
0
  6
Continuous
100
AcDbLine
 10
-817.066219
 20
-526.701824
 30
0.0
 11
-591.066219
 21
-526.701824
 31
0.0
  0
LINE
  5
204
100
AcDbEntity
  8
0
370
    -3
390
0
  6
Continuous
100
AcDbLine
 10
-617.993915
 20
-494.037108
 30
0.0
 11
-559.066219
 21
-494.037108
 31
0.0
  0
LINE
  5
205
100
AcDbEntity
  8
0
370
    -3
390
0
  6
Continuous
100
AcDbLine
 10
-817.066219
 20
-515.477984
 30
0.0
 11
-830.066219
 21
-509.828708
 31
0.0
  0
LINE
  5
206
100
AcDbEntity
  8
0
370
    -3
390
0
  6
Continuous
100
AcDbLine
 10
-591.066219
 20
-515.477984
 30
0.0
 11
-559.066219
 21
-501.572074
 31
0.0
  0
LINE
  5
207
100
AcDbEntity
  8
0
370
    -3
390
0
  6
Continuous
100
AcDbLine
 10
-817.066219
 20
-513.96149
 30
0.0
 11
-830.066219
 21
-508.312214
 31
0.0
  0
LINE
  5
208
100
AcDbEntity
  8
0
370
    -3
390
0
  6
Continuous
100
AcDbLine
 10
-591.066219
 20
-513.96149
 30
0.0
 11
-559.066219
 21
-500.05558
 31
0.0
  0
LINE
  5
209
100
AcDbEntity
  8
0
370
    -3
390
0
  6
Continuous
100
AcDbLine
 10
-591.066219
 20
-513.96149
 30
0.0
 11
-591.066219
 21
-515.477984
 31
0.0
  0
LINE
  5
20A
100
AcDbEntity
  8
0
370
    -3
390
0
  6
Continuous
100
AcDbLine
 10
-817.066219
 20
-513.96149
 30
0.0
 11
-817.066219
 21
-515.477984
 31
0.0
  0
LINE
  5
20B
100
AcDbEntity
  8
0
370
    -3
390
0
  6
Continuous
100
AcDbLine
 10
-559.066219
 20
-494.037108
 30
0.0
 11
-559.066219
 21
-501.572074
 31
0.0
  0
LINE
  5
20C
100
AcDbEntity
  8
0
370
    -3
390
0
  6
Continuous
100
AcDbLine
 10
-817.066219
 20
-515.477984
 30
0.0
 11
-591.066219
 21
-515.477984
 31
0.0
  0
LINE
  5
20D
100
AcDbEntity
  8
0
370
    -3
390
0
  6
Continuous
100
AcDbLine
 10
-817.066219
 20
-513.96149
 30
0.0
 11
-591.066219
 21
-513.96149
 31
0.0
  0
LINE
  5
20E
100
AcDbEntity
  8
0
370
    -3
390
0
  6
Continuous
100
AcDbLine
 10
-830.066219
 20
-494.037108
 30
0.0
 11
-790.138525
 21
-494.037108
 31
0.0
  0
LINE
  5
20F
100
AcDbEntity
  8
0
370
    -3
390
0
  6
Continuous
100
AcDbLine
 10
-772.066219
 20
-500.92444
 30
0.0
 11
-804.066219
 21
-488.729284
 31
0.0
  0
LINE
  5
210
100
AcDbEntity
  8
0
370
    -3
390
0
  6
Continuous
100
AcDbLine
 10
-636.066219
 20
-500.92444
 30
0.0
 11
-604.066219
 21
-488.729284
 31
0.0
  0
LINE
  5
211
100
AcDbEntity
  8
0
370
    -3
390
0
  6
Continuous
100
AcDbLine
 10
-627.203339
 20
-481.721996
 30
0.0
 11
-604.066219
 21
-481.721996
 31
0.0
  0
LINE
  5
212
100
AcDbEntity
  8
0
370
    -3
390
0
  6
Continuous
100
AcDbLine
 10
-772.066219
 20
-499.195208
 30
0.0
 11
-804.066219
 21
-487.000052
 31
0.0
  0
LINE
  5
213
100
AcDbEntity
  8
0
370
    -3
390
0
  6
Continuous
100
AcDbLine
 10
-636.066219
 20
-499.195208
 30
0.0
 11
-604.066219
 21
-487.000052
 31
0.0
  0
LINE
  5
214
100
AcDbEntity
  8
0
370
    -3
390
0
  6
Continuous
100
AcDbLine
 10
-636.066219
 20
-499.195208
 30
0.0
 11
-636.066219
 21
-500.92444
 31
0.0
  0
LINE
  5
215
100
AcDbEntity
  8
0
370
    -3
390
0
  6
Continuous
100
AcDbLine
 10
-772.066219
 20
-499.195208
 30
0.0
 11
-772.066219
 21
-500.92444
 31
0.0
  0
LINE
  5
216
100
AcDbEntity
  8
0
370
    -3
390
0
  6
Continuous
100
AcDbLine
 10
-804.066219
 20
-481.721996
 30
0.0
 11
-804.066219
 21
-488.729284
 31
0.0
  0
LINE
  5
217
100
AcDbEntity
  8
0
370
    -3
390
0
  6
Continuous
100
AcDbLine
 10
-604.066219
 20
-481.721996
 30
0.0
 11
-604.066219
 21
-488.729284
 31
0.0
  0
LINE
  5
218
100
AcDbEntity
  8
0
370
    -3
390
0
  6
Continuous
100
AcDbLine
 10
-772.066219
 20
-500.92444
 30
0.0
 11
-636.066219
 21
-500.92444
 31
0.0
  0
LINE
  5
219
100
AcDbEntity
  8
0
370
    -3
390
0
  6
Continuous
100
AcDbLine
 10
-772.066219
 20
-499.195208
 30
0.0
 11
-636.066219
 21
-499.195208
 31
0.0
  0
LINE
  5
21A
100
AcDbEntity
  8
0
370
    -3
390
0
  6
Continuous
100
AcDbLine
 10
-804.066219
 20
-481.721996
 30
0.0
 11
-780.929101
 21
-481.721996
 31
0.0
  0
LINE
  5
21B
100
AcDbEntity
  8
0
370
    -3
390
0
  6
Continuous
100
AcDbLine
 10
-772.066219
 20
-484.568016
 30
0.0
 11
-804.066219
 21
-474.292276
 31
0.0
  0
LINE
  5
21C
100
AcDbEntity
  8
0
370
    -3
390
0
  6
Continuous
100
AcDbLine
 10
-636.066219
 20
-484.568016
 30
0.0
 11
-604.066219
 21
-474.292276
 31
0.0
  0
LINE
  5
21D
100
AcDbEntity
  8
0
370
    -3
390
0
  6
Continuous
100
AcDbLine
 10
-772.066219
 20
-482.655636
 30
0.0
 11
-804.066219
 21
-472.379896
 31
0.0
  0
LINE
  5
21E
100
AcDbEntity
  8
0
370
    -3
390
0
  6
Continuous
100
AcDbLine
 10
-636.066219
 20
-482.655636
 30
0.0
 11
-604.066219
 21
-472.379896
 31
0.0
  0
LINE
  5
21F
100
AcDbEntity
  8
0
370
    -3
390
0
  6
Continuous
100
AcDbLine
 10
-636.066219
 20
-482.655636
 30
0.0
 11
-636.066219
 21
-484.568016
 31
0.0
  0
LINE
  5
220
100
AcDbEntity
  8
0
370
    -3
390
0
  6
Continuous
100
AcDbLine
 10
-772.066219
 20
-482.655636
 30
0.0
 11
-772.066219
 21
-484.568016
 31
0.0
  0
LINE
  5
221
100
AcDbEntity
  8
0
370
    -3
390
0
  6
Continuous
100
AcDbLine
 10
-804.066219
 20
-467.932562
 30
0.0
 11
-804.066219
 21
-474.292276
 31
0.0
  0
LINE
  5
222
100
AcDbEntity
  8
0
370
    -3
390
0
  6
Continuous
100
AcDbLine
 10
-604.066219
 20
-467.932562
 30
0.0
 11
-604.066219
 21
-474.292276
 31
0.0
  0
LINE
  5
223
100
AcDbEntity
  8
0
370
    -3
390
0
  6
Continuous
100
AcDbLine
 10
-772.066219
 20
-484.568016
 30
0.0
 11
-636.066219
 21
-484.568016
 31
0.0
  0
LINE
  5
224
100
AcDbEntity
  8
0
370
    -3
390
0
  6
Continuous
100
AcDbLine
 10
-772.066219
 20
-482.655636
 30
0.0
 11
-636.066219
 21
-482.655636
 31
0.0
  0
LINE
  5
225
100
AcDbEntity
  8
0
370
    -3
390
0
  6
Continuous
100
AcDbLine
 10
-804.066219
 20
-467.932562
 30
0.0
 11
-604.066219
 21
-467.932562
 31
0.0
  0
LINE
  5
226
100
AcDbEntity
  8
0
370
    -3
390
0
  6
Continuous
100
AcDbLine
 10
-772.066219
 20
-466.688576
 30
0.0
 11
-804.066219
 21
-458.508074
 31
0.0
  0
LINE
  5
227
100
AcDbEntity
  8
0
370
    -3
390
0
  6
Continuous
100
AcDbLine
 10
-636.066219
 20
-466.688576
 30
0.0
 11
-604.066219
 21
-458.508074
 31
0.0
  0
LINE
  5
228
100
AcDbEntity
  8
0
370
    -3
390
0
  6
Continuous
100
AcDbLine
 10
-772.066219
 20
-464.625768
 30
0.0
 11
-804.066219
 21
-456.445268
 31
0.0
  0
LINE
  5
229
100
AcDbEntity
  8
0
370
    -3
390
0
  6
Continuous
100
AcDbLine
 10
-636.066219
 20
-464.625768
 30
0.0
 11
-604.066219
 21
-456.445268
 31
0.0
  0
LINE
  5
22A
100
AcDbEntity
  8
0
370
    -3
390
0
  6
Continuous
100
AcDbLine
 10
-636.066219
 20
-464.625768
 30
0.0
 11
-636.066219
 21
-466.688576
 31
0.0
  0
LINE
  5
22B
100
AcDbEntity
  8
0
370
    -3
390
0
  6
Continuous
100
AcDbLine
 10
-772.066219
 20
-464.625768
 30
0.0
 11
-772.066219
 21
-466.688576
 31
0.0
  0
LINE
  5
22C
100
AcDbEntity
  8
0
370
    -3
390
0
  6
Continuous
100
AcDbLine
 10
-804.066219
 20
-452.90475
 30
0.0
 11
-804.066219
 21
-458.508074
 31
0.0
  0
LINE
  5
22D
100
AcDbEntity
  8
0
370
    -3
390
0
  6
Continuous
100
AcDbLine
 10
-604.066219
 20
-452.90475
 30
0.0
 11
-604.066219
 21
-458.508074
 31
0.0
  0
LINE
  5
22E
100
AcDbEntity
  8
0
370
    -3
390
0
  6
Continuous
100
AcDbLine
 10
-772.066219
 20
-466.688576
 30
0.0
 11
-636.066219
 21
-466.688576
 31
0.0
  0
LINE
  5
22F
100
AcDbEntity
  8
0
370
    -3
390
0
  6
Continuous
100
AcDbLine
 10
-772.066219
 20
-464.625768
 30
0.0
 11
-636.066219
 21
-464.625768
 31
0.0
  0
LINE
  5
230
100
AcDbEntity
  8
0
370
    -3
390
0
  6
Continuous
100
AcDbLine
 10
-804.066219
 20
-452.90475
 30
0.0
 11
-604.066219
 21
-452.90475
 31
0.0
  0
LINE
  5
231
100
AcDbEntity
  8
0
370
    -3
390
0
  6
Continuous
100
AcDbLine
 10
-772.066219
 20
-447.592042
 30
0.0
 11
-804.066219
 21
-441.646748
 31
0.0
  0
LINE
  5
232
100
AcDbEntity
  8
0
370
    -3
390
0
  6
Continuous
100
AcDbLine
 10
-636.066219
 20
-447.592042
 30
0.0
 11
-604.066219
 21
-441.646748
 31
0.0
  0
LINE
  5
233
100
AcDbEntity
  8
0
370
    -3
390
0
  6
Continuous
100
AcDbLine
 10
-636.066219
 20
-445.414102
 30
0.0
 11
-604.066219
 21
-439.46881
 31
0.0
  0
LINE
  5
234
100
AcDbEntity
  8
0
370
    -3
390
0
  6
Continuous
100
AcDbLine
 10
-772.066219
 20
-445.414102
 30
0.0
 11
-804.066219
 21
-439.46881
 31
0.0
  0
LINE
  5
235
100
AcDbEntity
  8
0
370
    -3
390
0
  6
Continuous
100
AcDbLine
 10
-772.066219
 20
-447.592042
 30
0.0
 11
-636.066219
 21
-447.592042
 31
0.0
  0
LINE
  5
236
100
AcDbEntity
  8
0
370
    -3
390
0
  6
Continuous
100
AcDbLine
 10
-772.066219
 20
-445.414102
 30
0.0
 11
-636.066219
 21
-445.414102
 31
0.0
  0
LINE
  5
237
100
AcDbEntity
  8
0
370
    -3
390
0
  6
Continuous
100
AcDbLine
 10
-804.066219
 20
-436.89569
 30
0.0
 11
-604.066219
 21
-436.89569
 31
0.0
  0
LINE
  5
238
100
AcDbEntity
  8
0
370
    -3
390
0
  6
Continuous
100
AcDbLine
 10
-636.066219
 20
-447.592042
 30
0.0
 11
-636.066219
 21
-445.414102
 31
0.0
  0
LINE
  5
239
100
AcDbEntity
  8
0
370
    -3
390
0
  6
Continuous
100
AcDbLine
 10
-772.066219
 20
-447.592042
 30
0.0
 11
-772.066219
 21
-445.414102
 31
0.0
  0
LINE
  5
23A
100
AcDbEntity
  8
0
370
    -3
390
0
  6
Continuous
100
AcDbLine
 10
-804.066219
 20
-441.646748
 30
0.0
 11
-804.066219
 21
-436.89569
 31
0.0
  0
LINE
  5
23B
100
AcDbEntity
  8
0
370
    -3
390
0
  6
Continuous
100
AcDbLine
 10
-604.066219
 20
-441.646748
 30
0.0
 11
-604.066219
 21
-436.89569
 31
0.0
  0
LINE
  5
23C
100
AcDbEntity
  8
0
370
    -3
390
0
  6
Continuous
100
AcDbLine
 10
-591.066219
 20
-427.605162
 30
0.0
 11
-559.066219
 21
-423.996802
 31
0.0
  0
LINE
  5
23D
100
AcDbEntity
  8
0
370
    -3
390
0
  6
Continuous
100
AcDbLine
 10
-591.066219
 20
-425.349356
 30
0.0
 11
-559.066219
 21
-421.740996
 31
0.0
  0
LINE
  5
23E
100
AcDbEntity
  8
0
370
    -3
390
0
  6
Continuous
100
AcDbLine
 10
-817.066219
 20
-427.605162
 30
0.0
 11
-834.066219
 21
-425.688221
 31
0.0
  0
LINE
  5
23F
100
AcDbEntity
  8
0
370
    -3
390
0
  6
Continuous
100
AcDbLine
 10
-817.066219
 20
-425.349356
 30
0.0
 11
-834.066219
 21
-423.432415
 31
0.0
  0
LINE
  5
240
100
AcDbEntity
  8
0
370
    -3
390
0
  6
Continuous
100
AcDbLine
 10
-817.066219
 20
-427.605162
 30
0.0
 11
-817.066219
 21
-425.349356
 31
0.0
  0
LINE
  5
241
100
AcDbEntity
  8
0
370
    -3
390
0
  6
Continuous
100
AcDbLine
 10
-591.066219
 20
-427.605162
 30
0.0
 11
-591.066219
 21
-425.349356
 31
0.0
  0
LINE
  5
242
100
AcDbEntity
  8
0
370
    -3
390
0
  6
Continuous
100
AcDbLine
 10
-559.066219
 20
-420.1793
 30
0.0
 11
-559.066219
 21
-423.996802
 31
0.0
  0
LINE
  5
243
100
AcDbEntity
  8
0
370
    -3
390
0
  6
Continuous
100
AcDbLine
 10
-817.066219
 20
-427.605162
 30
0.0
 11
-591.066219
 21
-427.605162
 31
0.0
  0
LINE
  5
244
100
AcDbEntity
  8
0
370
    -3
390
0
  6
Continuous
100
AcDbLine
 10
-817.066219
 20
-425.349356
 30
0.0
 11
-591.066219
 21
-425.349356
 31
0.0
  0
LINE
  5
245
100
AcDbEntity
  8
0
370
    -3
390
0
  6
Continuous
100
AcDbLine
 10
-764.74131
 20
-420.1793
 30
0.0
 11
-559.066219
 21
-420.1793
 31
0.0
  0
LINE
  5
246
100
AcDbEntity
  8
0
370
    -3
390
0
  6
Continuous
100
AcDbLine
 10
-727.066219
 20
-407.069916
 30
0.0
 11
-743.03565
 21
-406.466229
 31
0.0
  0
LINE
  5
247
100
AcDbEntity
  8
0
370
    -3
390
0
  6
Continuous
100
AcDbLine
 10
-727.066219
 20
-404.77484
 30
0.0
 11
-740.960806
 21
-404.249588
 31
0.0
  0
LINE
  5
248
100
AcDbEntity
  8
0
370
    -3
390
0
  6
Continuous
100
AcDbLine
 10
-591.066219
 20
-407.069916
 30
0.0
 11
-559.066219
 21
-405.86023
 31
0.0
  0
LINE
  5
249
100
AcDbEntity
  8
0
370
    -3
390
0
  6
Continuous
100
AcDbLine
 10
-591.066219
 20
-404.77484
 30
0.0
 11
-559.066219
 21
-403.565154
 31
0.0
  0
LINE
  5
24A
100
AcDbEntity
  8
0
370
    -3
390
0
  6
Continuous
100
AcDbLine
 10
-559.066219
 20
-403.041604
 30
0.0
 11
-559.066219
 21
-405.86023
 31
0.0
  0
LINE
  5
24B
100
AcDbEntity
  8
0
370
    -3
390
0
  6
Continuous
100
AcDbLine
 10
-727.066219
 20
-404.77484
 30
0.0
 11
-727.066219
 21
-407.069916
 31
0.0
  0
LINE
  5
24C
100
AcDbEntity
  8
0
370
    -3
390
0
  6
Continuous
100
AcDbLine
 10
-591.066219
 20
-404.77484
 30
0.0
 11
-591.066219
 21
-407.069916
 31
0.0
  0
LINE
  5
24D
100
AcDbEntity
  8
0
370
    -3
390
0
  6
Continuous
100
AcDbLine
 10
-740.193566
 20
-403.041604
 30
0.0
 11
-559.066219
 21
-403.041604
 31
0.0
  0
LINE
  5
24E
100
AcDbEntity
  8
0
370
    -3
390
0
  6
Continuous
100
AcDbLine
 10
-583.593973
 20
-309.390512
 30
0.0
 11
-559.066219
 21
-309.390512
 31
0.0
  0
LINE
  5
24F
100
AcDbEntity
  8
0
370
    -3
390
0
  6
Continuous
100
AcDbLine
 10
-727.066219
 20
-308.456872
 30
0.0
 11
-732.321375
 21
-310.45845
 31
0.0
  0
LINE
  5
250
100
AcDbEntity
  8
0
370
    -3
390
0
  6
Continuous
100
AcDbLine
 10
-727.066219
 20
-306.544492
 30
0.0
 11
-732.392265
 21
-308.57307
 31
0.0
  0
LINE
  5
251
100
AcDbEntity
  8
0
370
    -3
390
0
  6
Continuous
100
AcDbLine
 10
-591.066219
 20
-308.456872
 30
0.0
 11
-559.066219
 21
-320.644992
 31
0.0
  0
LINE
  5
252
100
AcDbEntity
  8
0
370
    -3
390
0
  6
Continuous
100
AcDbLine
 10
-591.066219
 20
-306.544492
 30
0.0
 11
-559.066219
 21
-318.732612
 31
0.0
  0
LINE
  5
253
100
AcDbEntity
  8
0
370
    -3
390
0
  6
Continuous
100
AcDbLine
 10
-559.066219
 20
-318.732612
 30
0.0
 11
-559.066219
 21
-323.179946
 31
0.0
  0
LINE
  5
254
100
AcDbEntity
  8
0
370
    -3
390
0
  6
Continuous
100
AcDbLine
 10
-727.066219
 20
-306.544492
 30
0.0
 11
-727.066219
 21
-308.456872
 31
0.0
  0
LINE
  5
255
100
AcDbEntity
  8
0
370
    -3
390
0
  6
Continuous
100
AcDbLine
 10
-591.066219
 20
-306.544492
 30
0.0
 11
-591.066219
 21
-308.456872
 31
0.0
  0
LINE
  5
256
100
AcDbEntity
  8
0
370
    -3
390
0
  6
Continuous
100
AcDbLine
 10
-732.069915
 20
-323.179946
 30
0.0
 11
-559.066219
 21
-323.179946
 31
0.0
  0
LINE
  5
257
100
AcDbEntity
  8
0
370
    -3
390
0
  6
Continuous
100
AcDbLine
 10
-727.066219
 20
-308.456872
 30
0.0
 11
-591.066219
 21
-308.456872
 31
0.0
  0
LINE
  5
258
100
AcDbEntity
  8
0
370
    -3
390
0
  6
Continuous
100
AcDbLine
 10
-727.066219
 20
-306.544492
 30
0.0
 11
-591.066219
 21
-306.544492
 31
0.0
  0
LINE
  5
259
100
AcDbEntity
  8
0
370
    -3
390
0
  6
Continuous
100
AcDbLine
 10
-591.066219
 20
-291.9173
 30
0.0
 11
-559.066219
 21
-305.841688
 31
0.0
  0
LINE
  5
25A
100
AcDbEntity
  8
0
370
    -3
390
0
  6
Continuous
100
AcDbLine
 10
-591.066219
 20
-290.188068
 30
0.0
 11
-559.066219
 21
-304.112456
 31
0.0
  0
LINE
  5
25B
100
AcDbEntity
  8
0
370
    -3
390
0
  6
Continuous
100
AcDbLine
 10
-591.066219
 20
-291.9173
 30
0.0
 11
-591.066219
 21
-290.188068
 31
0.0
  0
LINE
  5
25C
100
AcDbEntity
  8
0
370
    -3
390
0
  6
Continuous
100
AcDbLine
 10
-559.066219
 20
-304.112456
 30
0.0
 11
-559.066219
 21
-309.390512
 31
0.0
  0
LINE
  5
25D
100
AcDbEntity
  8
0
370
    -3
390
0
  6
Continuous
100
AcDbLine
 10
-733.396717
 20
-291.9173
 30
0.0
 11
-591.066219
 21
-291.9173
 31
0.0
  0
LINE
  5
25E
100
AcDbEntity
  8
0
370
    -3
390
0
  6
Continuous
100
AcDbLine
 10
-733.540051
 20
-290.188068
 30
0.0
 11
-591.066219
 21
-290.188068
 31
0.0
  0
ARC
  5
25F
100
AcDbEntity
  8
0
370
    -3
390
0
  6
Continuous
100
AcDbCircle
 10
-544.066219
 20
-461.292836
 30
0.0
 40
1.0
100
AcDbArc
 50
180.0
 51
270.0
  0
ARC
  5
260
100
AcDbEntity
  8
0
370
    -3
390
0
  6
Continuous
100
AcDbCircle
 10
-570.066219
 20
-461.292836
 30
0.0
 40
1.0
100
AcDbArc
 50
270.0
 51
0.0
  0
ARC
  5
261
100
AcDbEntity
  8
0
370
    -3
390
0
  6
Continuous
100
AcDbCircle
 10
-570.566219
 20
-463.292836
 30
0.0
 40
1.0
100
AcDbArc
 50
90.0
 51
180.0
  0
ARC
  5
262
100
AcDbEntity
  8
0
370
    -3
390
0
  6
Continuous
100
AcDbCircle
 10
-546.066219
 20
-451.748818
 30
0.0
 40
1.0
100
AcDbArc
 50
0.0
 51
90.0
  0
ARC
  5
263
100
AcDbEntity
  8
0
370
    -3
390
0
  6
Continuous
100
AcDbCircle
 10
-568.066219
 20
-451.748818
 30
0.0
 40
1.0
100
AcDbArc
 50
90.0
 51
180.0
  0
ARC
  5
264
100
AcDbEntity
  8
0
370
    -3
390
0
  6
Continuous
100
AcDbCircle
 10
-570.566219
 20
-482.329814
 30
0.0
 40
1.0
100
AcDbArc
 50
180.0
 51
270.0
  0
ARC
  5
265
100
AcDbEntity
  8
0
370
    -3
390
0
  6
Continuous
100
AcDbCircle
 10
-570.566219
 20
-467.106498
 30
0.0
 40
1.0
100
AcDbArc
 50
90.0
 51
180.0
  0
LINE
  5
266
100
AcDbEntity
  8
0
370
    -3
390
0
  6
Continuous
100
AcDbLine
 10
-570.066219
 20
-462.292836
 30
0.0
 11
-570.566219
 21
-462.292836
 31
0.0
  0
LINE
  5
267
100
AcDbEntity
  8
0
370
    -3
390
0
  6
Continuous
100
AcDbLine
 10
-571.566219
 20
-482.329814
 30
0.0
 11
-571.566219
 21
-463.292836
 31
0.0
  0
LINE
  5
268
100
AcDbEntity
  8
0
370
    -3
390
0
  6
Continuous
100
AcDbLine
 10
-569.066219
 20
-461.292836
 30
0.0
 11
-569.066219
 21
-451.748818
 31
0.0
  0
LINE
  5
269
100
AcDbEntity
  8
0
370
    -3
390
0
  6
Continuous
100
AcDbLine
 10
-545.066219
 20
-461.292836
 30
0.0
 11
-545.066219
 21
-451.748818
 31
0.0
  0
LINE
  5
26A
100
AcDbEntity
  8
0
370
    -3
390
0
  6
Continuous
100
AcDbLine
 10
-544.066219
 20
-483.329814
 30
0.0
 11
-570.566219
 21
-483.329814
 31
0.0
  0
LINE
  5
26B
100
AcDbEntity
  8
0
370
    -3
390
0
  6
Continuous
100
AcDbLine
 10
-544.066219
 20
-466.106498
 30
0.0
 11
-570.566219
 21
-466.106498
 31
0.0
  0
LINE
  5
26C
100
AcDbEntity
  8
0
370
    -3
390
0
  6
Continuous
100
AcDbLine
 10
-546.066219
 20
-450.748818
 30
0.0
 11
-568.066219
 21
-450.748818
 31
0.0
  0
LINE
  5
26D
100
AcDbEntity
  8
0
370
    -3
390
0
  6
Continuous
100
AcDbLine
 10
-559.066219
 20
-354.056098
 30
0.0
 11
-559.066219
 21
-348.878922
 31
0.0
  0
LINE
  5
26E
100
AcDbEntity
  8
0
370
    -3
390
0
  6
Continuous
100
AcDbLine
 10
-559.066219
 20
-354.056098
 30
0.0
 11
-704.066219
 21
-354.056098
 31
0.0
  0
LINE
  5
26F
100
AcDbEntity
  8
0
370
    -3
390
0
  6
Continuous
100
AcDbLine
 10
-704.066219
 20
-343.359746
 30
0.0
 11
-591.066219
 21
-343.359746
 31
0.0
  0
LINE
  5
270
100
AcDbEntity
  8
0
370
    -3
390
0
  6
Continuous
100
AcDbLine
 10
-559.066219
 20
-351.482978
 30
0.0
 11
-591.066219
 21
-345.962468
 31
0.0
  0
LINE
  5
271
100
AcDbEntity
  8
0
370
    -3
390
0
  6
Continuous
100
AcDbLine
 10
-591.066219
 20
-343.359746
 30
0.0
 11
-559.066219
 21
-348.878922
 31
0.0
  0
LINE
  5
272
100
AcDbEntity
  8
0
370
    -3
390
0
  6
Continuous
100
AcDbLine
 10
-591.066219
 20
-345.962468
 30
0.0
 11
-591.066219
 21
-343.359746
 31
0.0
  0
LINE
  5
273
100
AcDbEntity
  8
0
370
    -3
390
0
  6
Continuous
100
AcDbLine
 10
-591.066219
 20
-345.962468
 30
0.0
 11
-704.066219
 21
-345.962468
 31
0.0
  0
LINE
  5
274
100
AcDbEntity
  8
0
370
    -3
390
0
  6
Continuous
100
AcDbLine
 10
-733.102722
 20
-354.056098
 30
0.0
 11
-704.066219
 21
-354.056098
 31
0.0
  0
LINE
  5
275
100
AcDbEntity
  8
0
370
    -3
390
0
  6
Continuous
100
AcDbLine
 10
-704.066219
 20
-343.359746
 30
0.0
 11
-727.066219
 21
-343.359746
 31
0.0
  0
LINE
  5
276
100
AcDbEntity
  8
0
370
    -3
390
0
  6
Continuous
100
AcDbLine
 10
-732.657215
 20
-346.927004
 30
0.0
 11
-727.066219
 21
-345.962468
 31
0.0
  0
LINE
  5
277
100
AcDbEntity
  8
0
370
    -3
390
0
  6
Continuous
100
AcDbLine
 10
-727.066219
 20
-343.359746
 30
0.0
 11
-732.524516
 21
-344.301162
 31
0.0
  0
LINE
  5
278
100
AcDbEntity
  8
0
370
    -3
390
0
  6
Continuous
100
AcDbLine
 10
-559.066219
 20
-370.835664
 30
0.0
 11
-704.066219
 21
-370.835664
 31
0.0
  0
LINE
  5
279
100
AcDbEntity
  8
0
370
    -3
390
0
  6
Continuous
100
AcDbLine
 10
-734.645262
 20
-370.835664
 30
0.0
 11
-704.066219
 21
-370.835664
 31
0.0
  0
LINE
  5
27A
100
AcDbEntity
  8
0
370
    -3
390
0
  6
Continuous
100
AcDbLine
 10
-559.066219
 20
-337.986614
 30
0.0
 11
-704.066219
 21
-337.986614
 31
0.0
  0
LINE
  5
27B
100
AcDbEntity
  8
0
370
    -3
390
0
  6
Continuous
100
AcDbLine
 10
-732.274457
 20
-337.986614
 30
0.0
 11
-704.066219
 21
-337.986614
 31
0.0
  0
LINE
  5
27C
100
AcDbEntity
  8
0
370
    -3
390
0
  6
Continuous
100
AcDbLine
 10
-559.066219
 20
-388.038204
 30
0.0
 11
-704.066219
 21
-388.038204
 31
0.0
  0
LINE
  5
27D
100
AcDbEntity
  8
0
370
    -3
390
0
  6
Continuous
100
AcDbLine
 10
-736.953632
 20
-388.038204
 30
0.0
 11
-704.066219
 21
-388.038204
 31
0.0
  0
LINE
  5
27E
100
AcDbEntity
  8
0
370
    -3
390
0
  6
CENTER
100
AcDbLine
 10
-809.066219
 20
-256.270772
 30
0.0
 11
-809.066219
 21
-425.175677
 31
0.0
  0
LINE
  5
27F
100
AcDbEntity
  8
0
370
    -3
390
0
  6
Continuous
100
AcDbLine
 10
-559.066219
 20
-388.038204
 30
0.0
 11
-559.066219
 21
-385.219848
 31
0.0
  0
LINE
  5
280
100
AcDbEntity
  8
0
370
    -3
390
0
  6
Continuous
100
AcDbLine
 10
-559.066219
 20
-370.835664
 30
0.0
 11
-559.066219
 21
-367.018972
 31
0.0
  0
LINE
  5
281
100
AcDbEntity
  8
0
370
    -3
390
0
  6
Continuous
100
AcDbLine
 10
-559.066219
 20
-337.986614
 30
0.0
 11
-559.066219
 21
-332.385128
 31
0.0
  0
LINE
  5
282
100
AcDbEntity
  8
0
370
    -3
390
0
  6
Continuous
100
AcDbLine
 10
-591.066219
 20
-326.265596
 30
0.0
 11
-591.066219
 21
-324.202788
 31
0.0
  0
LINE
  5
283
100
AcDbEntity
  8
0
370
    -3
390
0
  6
Continuous
100
AcDbLine
 10
-591.066219
 20
-365.665608
 30
0.0
 11
-591.066219
 21
-363.409802
 31
0.0
  0
LINE
  5
284
100
AcDbEntity
  8
0
370
    -3
390
0
  6
Continuous
100
AcDbLine
 10
-591.066219
 20
-386.304966
 30
0.0
 11
-591.066219
 21
-384.00989
 31
0.0
  0
LINE
  5
285
100
AcDbEntity
  8
0
370
    -3
390
0
  6
Continuous
100
AcDbLine
 10
-591.066219
 20
-386.304966
 30
0.0
 11
-559.066219
 21
-387.514924
 31
0.0
  0
LINE
  5
286
100
AcDbEntity
  8
0
370
    -3
390
0
  6
Continuous
100
AcDbLine
 10
-591.066219
 20
-384.00989
 30
0.0
 11
-559.066219
 21
-385.219848
 31
0.0
  0
LINE
  5
287
100
AcDbEntity
  8
0
370
    -3
390
0
  6
Continuous
100
AcDbLine
 10
-591.066219
 20
-365.665608
 30
0.0
 11
-559.066219
 21
-369.274778
 31
0.0
  0
LINE
  5
288
100
AcDbEntity
  8
0
370
    -3
390
0
  6
Continuous
100
AcDbLine
 10
-591.066219
 20
-363.409802
 30
0.0
 11
-559.066219
 21
-367.018972
 31
0.0
  0
LINE
  5
289
100
AcDbEntity
  8
0
370
    -3
390
0
  6
Continuous
100
AcDbLine
 10
-591.066219
 20
-326.265596
 30
0.0
 11
-559.066219
 21
-334.447936
 31
0.0
  0
LINE
  5
28A
100
AcDbEntity
  8
0
370
    -3
390
0
  6
Continuous
100
AcDbLine
 10
-591.066219
 20
-324.202788
 30
0.0
 11
-559.066219
 21
-332.385128
 31
0.0
  0
LINE
  5
28B
100
AcDbEntity
  8
0
370
    -3
390
0
  6
Continuous
100
AcDbLine
 10
-591.066219
 20
-386.304966
 30
0.0
 11
-704.066219
 21
-386.304966
 31
0.0
  0
LINE
  5
28C
100
AcDbEntity
  8
0
370
    -3
390
0
  6
Continuous
100
AcDbLine
 10
-591.066219
 20
-384.00989
 30
0.0
 11
-704.066219
 21
-384.00989
 31
0.0
  0
LINE
  5
28D
100
AcDbEntity
  8
0
370
    -3
390
0
  6
Continuous
100
AcDbLine
 10
-591.066219
 20
-365.665608
 30
0.0
 11
-704.066219
 21
-365.665608
 31
0.0
  0
LINE
  5
28E
100
AcDbEntity
  8
0
370
    -3
390
0
  6
Continuous
100
AcDbLine
 10
-591.066219
 20
-363.409802
 30
0.0
 11
-704.066219
 21
-363.409802
 31
0.0
  0
LINE
  5
28F
100
AcDbEntity
  8
0
370
    -3
390
0
  6
Continuous
100
AcDbLine
 10
-591.066219
 20
-326.265596
 30
0.0
 11
-704.066219
 21
-326.265596
 31
0.0
  0
LINE
  5
290
100
AcDbEntity
  8
0
370
    -3
390
0
  6
Continuous
100
AcDbLine
 10
-591.066219
 20
-324.202788
 30
0.0
 11
-704.066219
 21
-324.202788
 31
0.0
  0
LINE
  5
291
100
AcDbEntity
  8
0
370
    -3
390
0
  6
Continuous
100
AcDbLine
 10
-727.066219
 20
-326.265596
 30
0.0
 11
-727.066219
 21
-324.202788
 31
0.0
  0
LINE
  5
292
100
AcDbEntity
  8
0
370
    -3
390
0
  6
Continuous
100
AcDbLine
 10
-727.066219
 20
-345.962468
 30
0.0
 11
-727.066219
 21
-343.359746
 31
0.0
  0
LINE
  5
293
100
AcDbEntity
  8
0
370
    -3
390
0
  6
Continuous
100
AcDbLine
 10
-727.066219
 20
-365.665608
 30
0.0
 11
-727.066219
 21
-363.409802
 31
0.0
  0
LINE
  5
294
100
AcDbEntity
  8
0
370
    -3
390
0
  6
Continuous
100
AcDbLine
 10
-727.066219
 20
-386.304966
 30
0.0
 11
-727.066219
 21
-384.00989
 31
0.0
  0
LINE
  5
295
100
AcDbEntity
  8
0
370
    -3
390
0
  6
Continuous
100
AcDbLine
 10
-727.066219
 20
-386.304966
 30
0.0
 11
-736.742959
 21
-386.670855
 31
0.0
  0
LINE
  5
296
100
AcDbEntity
  8
0
370
    -3
390
0
  6
Continuous
100
AcDbLine
 10
-727.066219
 20
-384.00989
 30
0.0
 11
-736.398041
 21
-384.362738
 31
0.0
  0
LINE
  5
297
100
AcDbEntity
  8
0
370
    -3
390
0
  6
Continuous
100
AcDbLine
 10
-727.066219
 20
-365.665608
 30
0.0
 11
-734.17668
 21
-366.467573
 31
0.0
  0
LINE
  5
298
100
AcDbEntity
  8
0
370
    -3
390
0
  6
Continuous
100
AcDbLine
 10
-727.066219
 20
-363.409802
 30
0.0
 11
-733.950756
 21
-364.186286
 31
0.0
  0
LINE
  5
299
100
AcDbEntity
  8
0
370
    -3
390
0
  6
Continuous
100
AcDbLine
 10
-727.066219
 20
-326.265596
 30
0.0
 11
-732.074624
 21
-327.546236
 31
0.0
  0
LINE
  5
29A
100
AcDbEntity
  8
0
370
    -3
390
0
  6
Continuous
100
AcDbLine
 10
-727.066219
 20
-324.202788
 30
0.0
 11
-732.066602
 21
-325.481377
 31
0.0
  0
LINE
  5
29B
100
AcDbEntity
  8
0
370
    -3
390
0
  6
Continuous
100
AcDbLine
 10
-727.066219
 20
-386.304966
 30
0.0
 11
-704.066219
 21
-386.304966
 31
0.0
  0
LINE
  5
29C
100
AcDbEntity
  8
0
370
    -3
390
0
  6
Continuous
100
AcDbLine
 10
-727.066219
 20
-384.00989
 30
0.0
 11
-704.066219
 21
-384.00989
 31
0.0
  0
LINE
  5
29D
100
AcDbEntity
  8
0
370
    -3
390
0
  6
Continuous
100
AcDbLine
 10
-727.066219
 20
-365.665608
 30
0.0
 11
-704.066219
 21
-365.665608
 31
0.0
  0
LINE
  5
29E
100
AcDbEntity
  8
0
370
    -3
390
0
  6
Continuous
100
AcDbLine
 10
-727.066219
 20
-363.409802
 30
0.0
 11
-704.066219
 21
-363.409802
 31
0.0
  0
LINE
  5
29F
100
AcDbEntity
  8
0
370
    -3
390
0
  6
Continuous
100
AcDbLine
 10
-727.066219
 20
-345.962468
 30
0.0
 11
-704.066219
 21
-345.962468
 31
0.0
  0
LINE
  5
2A0
100
AcDbEntity
  8
0
370
    -3
390
0
  6
Continuous
100
AcDbLine
 10
-727.066219
 20
-326.265596
 30
0.0
 11
-704.066219
 21
-326.265596
 31
0.0
  0
LINE
  5
2A1
100
AcDbEntity
  8
0
370
    -3
390
0
  6
Continuous
100
AcDbLine
 10
-727.066219
 20
-324.202788
 30
0.0
 11
-704.066219
 21
-324.202788
 31
0.0
  0
LINE
  5
2A2
100
AcDbEntity
  8
0
370
    -3
390
0
  6
Continuous
100
AcDbLine
 10
-559.066219
 20
-527.556254
 30
0.0
 11
-544.066219
 21
-527.556254
 31
0.0
  0
LINE
  5
2A3
100
AcDbEntity
  8
0
370
    -3
390
0
  6
Continuous
100
AcDbLine
 10
-721.466219
 20
-551.356254
 30
0.0
 11
-686.666219
 21
-551.356254
 31
0.0
  0
ARC
  5
2A4
100
AcDbEntity
  8
0
370
    -3
390
0
  6
Continuous
100
AcDbCircle
 10
-686.666219
 20
-550.756254
 30
0.0
 40
0.6
100
AcDbArc
 50
270.0
 51
0.0
  0
ARC
  5
2A5
100
AcDbEntity
  8
0
370
    -3
390
0
  6
Continuous
100
AcDbCircle
 10
-721.466219
 20
-550.756254
 30
0.0
 40
0.6
100
AcDbArc
 50
180.0
 51
270.0
  0
LINE
  5
2A6
100
AcDbEntity
  8
0
370
    -3
390
0
  6
Continuous
100
AcDbLine
 10
-722.066219
 20
-545.117342
 30
0.0
 11
-722.066219
 21
-550.756254
 31
0.0
  0
LINE
  5
2A7
100
AcDbEntity
  8
0
370
    -3
390
0
  6
Continuous
100
AcDbLine
 10
-686.066219
 20
-545.117342
 30
0.0
 11
-686.066219
 21
-550.756254
 31
0.0
  0
LINE
  5
2A8
100
AcDbEntity
  8
0
370
    -3
390
0
  6
Continuous
100
AcDbLine
 10
-567.966894
 20
-532.551424
 30
0.0
 11
-559.066219
 21
-527.7095
 31
0.0
  0
LINE
  5
2A9
100
AcDbEntity
  8
0
370
    -3
390
0
  6
Continuous
100
AcDbLine
 10
-871.066219
 20
-257.713877
 30
0.0
 11
-866.066219
 21
-256.270502
 31
0.0
  0
LINE
  5
2AA
100
AcDbEntity
  8
0
370
    -3
390
0
  6
Continuous
100
AcDbLine
 10
-876.066219
 20
-256.270502
 30
0.0
 11
-871.066219
 21
-257.713877
 31
0.0
  0
LINE
  5
2AB
100
AcDbEntity
  8
0
370
    -3
390
0
  6
Continuous
100
AcDbLine
 10
-868.51978
 20
-249.211366
 30
0.0
 11
-830.066219
 21
-249.211366
 31
0.0
  0
LINE
  5
2AC
100
AcDbEntity
  8
0
370
    -3
390
0
  6
Continuous
100
AcDbLine
 10
-866.066219
 20
-249.919649
 30
0.0
 11
-871.066219
 21
-248.476273
 31
0.0
  0
LINE
  5
2AD
100
AcDbEntity
  8
0
370
    -3
390
0
  6
Continuous
100
AcDbLine
 10
-866.066219
 20
-252.8064
 30
0.0
 11
-866.066219
 21
-249.919649
 31
0.0
  0
LINE
  5
2AE
100
AcDbEntity
  8
0
370
    -3
390
0
  6
Continuous
100
AcDbLine
 10
-871.066219
 20
-254.249776
 30
0.0
 11
-866.066219
 21
-252.8064
 31
0.0
  0
LINE
  5
2AF
100
AcDbEntity
  8
0
370
    -3
390
0
  6
Continuous
100
AcDbLine
 10
-876.066219
 20
-252.8064
 30
0.0
 11
-871.066219
 21
-254.249776
 31
0.0
  0
LINE
  5
2B0
100
AcDbEntity
  8
0
370
    -3
390
0
  6
Continuous
100
AcDbLine
 10
-876.066219
 20
-249.919649
 30
0.0
 11
-876.066219
 21
-252.8064
 31
0.0
  0
LINE
  5
2B1
100
AcDbEntity
  8
0
370
    -3
390
0
  6
Continuous
100
AcDbLine
 10
-871.066219
 20
-248.476273
 30
0.0
 11
-876.066219
 21
-249.919649
 31
0.0
  0
LINE
  5
2B2
100
AcDbEntity
  8
0
370
    -3
390
0
  6
Continuous
100
AcDbLine
 10
-866.066219
 20
-256.270502
 30
0.0
 11
-866.066219
 21
-252.8064
 31
0.0
  0
LINE
  5
2B3
100
AcDbEntity
  8
0
370
    -3
390
0
  6
Continuous
100
AcDbLine
 10
-876.066219
 20
-252.8064
 30
0.0
 11
-876.066219
 21
-256.270502
 31
0.0
  0
LINE
  5
2B4
100
AcDbEntity
  8
0
370
    -3
390
0
  6
CENTER
100
AcDbLine
 10
-871.066219
 20
-246.017235
 30
0.0
 11
-871.066219
 21
-260.56424
 31
0.0
  0
ELLIPSE
  5
2B5
100
AcDbEntity
  8
0
370
    -3
390
0
  6
Continuous
100
AcDbEllipse
 10
-871.066219
 20
-251.363024
 30
0.0
 11
5.0
 21
0.0
 31
0.0
210
0.0
220
0.0
230
1.0
 40
0.501013
 41
0.0
 42
6.2831853071795862
  0
LINE
  5
2B6
100
AcDbEntity
  8
0
370
    -3
390
0
  6
Continuous
100
AcDbLine
 10
-883.083557
 20
-249.211366
 30
0.0
 11
-873.612657
 21
-249.211366
 31
0.0
  0
LINE
  5
2B7
100
AcDbEntity
  8
0
370
    -3
390
0
  6
CENTER
100
AcDbLine
 10
-878.339721
 20
-251.363024
 30
0.0
 11
-863.792716
 21
-251.363024
 31
0.0
  0
ELLIPSE
  5
2B8
100
AcDbEntity
  8
0
370
    -3
390
0
  6
Continuous
100
AcDbEllipse
 10
-878.066219
 20
-252.393759
 30
0.0
 11
7.0
 21
0.0
 31
0.0
210
0.0
220
0.0
230
1.0
 40
0.454628
 41
1.5721694153616843
 42
3.1415926535897931
  0
ARC
  5
2B9
100
AcDbEntity
  8
0
370
    -3
390
0
  6
Continuous
100
AcDbCircle
 10
-900.705581
 20
-257.393759
 30
0.0
 40
15.639362
100
AcDbArc
 50
337.950598
 51
0.0
  0
ELLIPSE
  5
2BA
100
AcDbEntity
  8
0
370
    -3
390
0
  6
Continuous
100
AcDbEllipse
 10
-878.066219
 20
-257.393759
 30
0.0
 11
7.0
 21
0.0
 31
0.0
210
0.0
220
0.0
230
1.0
 40
0.545372
 41
3.1415926535897931
 42
4.7123889803846897
  0
ARC
  5
2BB
100
AcDbEntity
  8
0
370
    -3
390
0
  6
Continuous
100
AcDbCircle
 10
-882.715629
 20
-265.211366
 30
0.0
 40
4.0
100
AcDbArc
 50
90.0
 51
150.88103
  0
LINE
  5
2BC
100
AcDbEntity
  8
0
370
    -3
390
0
  6
Continuous
100
AcDbLine
 10
-886.210073
 20
-263.264868
 30
0.0
 11
-889.066219
 21
-268.392352
 31
0.0
  0
LINE
  5
2BD
100
AcDbEntity
  8
0
370
    -3
390
0
  6
Continuous
100
AcDbLine
 10
-882.715629
 20
-261.211366
 30
0.0
 11
-872.791261
 21
-261.211366
 31
0.0
  0
LINE
  5
2BE
100
AcDbEntity
  8
0
370
    -3
390
0
  6
Continuous
100
AcDbLine
 10
-889.066219
 20
-268.392352
 30
0.0
 11
-878.022129
 21
-268.392352
 31
0.0
  0
ARC
  5
2BF
100
AcDbEntity
  8
0
370
    -3
390
0
  6
Continuous
100
AcDbCircle
 10
-886.738751
 20
-252.393759
 30
0.0
 40
1.672533
100
AcDbArc
 50
0.0
 51
73.610004
  0
LINE
  5
2C0
100
AcDbEntity
  8
0
370
    -3
390
0
  6
Continuous
100
AcDbLine
 10
-886.266806
 20
-250.789192
 30
0.0
 11
-889.066219
 21
-254.468213
 31
0.0
  0
LINE
  5
2C1
100
AcDbEntity
  8
0
370
    -3
390
0
  6
Continuous
100
AcDbLine
 10
-885.066219
 20
-257.393759
 30
0.0
 11
-885.066219
 21
-252.393759
 31
0.0
  0
LINE
  5
2C2
100
AcDbEntity
  8
0
370
    -3
390
0
  6
Continuous
100
AcDbLine
 10
-889.066219
 20
-549.856254
 30
0.0
 11
-889.066219
 21
-241.256254
 31
0.0
  0
LINE
  5
2C3
100
AcDbEntity
  8
0
370
    -3
390
0
  6
Continuous
100
AcDbLine
 10
-890.566219
 20
-549.056254
 30
0.0
 11
-890.566219
 21
-242.056254
 31
0.0
  0
ARC
  5
2C4
100
AcDbEntity
  8
0
370
    -3
390
0
  6
Continuous
100
AcDbCircle
 10
-932.066219
 20
-246.191102
 30
0.0
 40
3.0
100
AcDbArc
 50
325.0
 51
0.0
  0
ARC
  5
2C5
100
AcDbEntity
  8
0
370
    -3
390
0
  6
Continuous
100
AcDbCircle
 10
-926.066219
 20
-245.056254
 30
0.0
 40
3.0
100
AcDbArc
 50
90.0
 51
180.0
  0
LINE
  5
2C6
100
AcDbEntity
  8
0
370
    -3
390
0
  6
Continuous
100
AcDbLine
 10
-929.066219
 20
-245.056254
 30
0.0
 11
-929.066219
 21
-395.556254
 31
0.0
  0
LINE
  5
2C7
100
AcDbEntity
  8
0
370
    -3
390
0
  6
Continuous
100
AcDbLine
 10
-950.469049
 20
-277.703407
 30
0.0
 11
-929.608762
 21
-247.911831
 31
0.0
  0
ARC
  5
2C8
100
AcDbEntity
  8
0
370
    -3
390
0
  6
Continuous
100
AcDbCircle
 10
-887.566219
 20
-243.056254
 30
0.0
 40
3.0
100
AcDbArc
 50
90.0
 51
143.130102
  0
ARC
  5
2C9
100
AcDbEntity
  8
0
370
    -3
390
0
  6
Continuous
100
AcDbCircle
 10
-891.566219
 20
-240.056254
 30
0.0
 40
2.0
100
AcDbArc
 50
270.0
 51
323.130102
  0
ARC
  5
2CA
100
AcDbEntity
  8
0
370
    -3
390
0
  6
Continuous
100
AcDbCircle
 10
-883.083557
 20
-253.211366
 30
0.0
 40
4.0
100
AcDbArc
 50
90.0
 51
142.732041
  0
LINE
  5
2CB
100
AcDbEntity
  8
0
370
    -3
390
0
  6
Continuous
100
AcDbLine
 10
-830.066219
 20
-240.056254
 30
0.0
 11
-887.566219
 21
-240.056254
 31
0.0
  0
LINE
  5
2CC
100
AcDbEntity
  8
0
370
    -3
390
0
  6
Continuous
100
AcDbLine
 10
-926.066219
 20
-242.056254
 30
0.0
 11
-891.566219
 21
-242.056254
 31
0.0
  0
LINE
  5
2CD
100
AcDbEntity
  8
0
370
    -3
390
0
  6
Continuous
100
AcDbLine
 10
-950.469168
 20
-513.408931
 30
0.0
 11
-929.608762
 21
-543.200678
 31
0.0
  0
ARC
  5
2CE
100
AcDbEntity
  8
0
370
    -3
390
0
  6
Continuous
100
AcDbCircle
 10
-932.066219
 20
-544.921407
 30
0.0
 40
3.0
100
AcDbArc
 50
0.0
 51
35.0
  0
ARC
  5
2CF
100
AcDbEntity
  8
0
370
    -3
390
0
  6
Continuous
100
AcDbCircle
 10
-926.066219
 20
-546.056254
 30
0.0
 40
3.0
100
AcDbArc
 50
180.0
 51
270.0
  0
LINE
  5
2D0
100
AcDbEntity
  8
0
370
    -3
390
0
  6
Continuous
100
AcDbLine
 10
-929.066219
 20
-546.056254
 30
0.0
 11
-929.066219
 21
-395.556254
 31
0.0
  0
LINE
  5
2D1
100
AcDbEntity
  8
0
370
    -3
390
0
  6
Continuous
100
AcDbLine
 10
-926.066219
 20
-549.056254
 30
0.0
 11
-891.566219
 21
-549.056254
 31
0.0
  0
ARC
  5
2D2
100
AcDbEntity
  8
0
370
    -3
390
0
  6
Continuous
100
AcDbCircle
 10
-887.566219
 20
-548.056254
 30
0.0
 40
3.0
100
AcDbArc
 50
216.869898
 51
270.0
  0
ARC
  5
2D3
100
AcDbEntity
  8
0
370
    -3
390
0
  6
Continuous
100
AcDbCircle
 10
-891.566219
 20
-551.056254
 30
0.0
 40
2.0
100
AcDbArc
 50
36.869898
 51
90.0
  0
LINE
  5
2D4
100
AcDbEntity
  8
0
370
    -3
390
0
  6
Continuous
100
AcDbLine
 10
-830.066219
 20
-551.056254
 30
0.0
 11
-887.566219
 21
-551.056254
 31
0.0
  0
ARC
  5
2D5
100
AcDbEntity
  8
0
370
    -3
390
0
  6
Continuous
100
AcDbCircle
 10
-897.370614
 20
-481.09791
 30
0.0
 40
12.304395
100
AcDbArc
 50
334.478825
 51
0.0
  0
ARC
  5
2D6
100
AcDbEntity
  8
0
370
    -3
390
0
  6
Continuous
100
AcDbCircle
 10
-911.156194
 20
-472.437656
 30
0.0
 40
26.089975
100
AcDbArc
 50
0.0
 51
17.449275
  0
ARC
  5
2D7
100
AcDbEntity
  8
0
370
    -3
390
0
  6
Continuous
100
AcDbCircle
 10
-883.083557
 20
-477.915103
 30
0.0
 40
9.061615
100
AcDbArc
 50
249.433801
 51
270.0
  0
ARC
  5
2D8
100
AcDbEntity
  8
0
370
    -3
390
0
  6
Continuous
100
AcDbCircle
 10
-883.083557
 20
-462.192108
 30
0.0
 40
4.0
100
AcDbArc
 50
217.267959
 51
270.0
  0
ELLIPSE
  5
2D9
100
AcDbEntity
  8
0
370
    -3
390
0
  6
Continuous
100
AcDbEllipse
 10
-878.066219
 20
-472.437656
 30
0.0
 11
7.0
 21
0.0
 31
0.0
210
0.0
220
0.0
230
1.0
 40
0.892221
 41
1.5786489530372321
 42
3.1415926535897931
  0
ELLIPSE
  5
2DA
100
AcDbEntity
  8
0
370
    -3
390
0
  6
Continuous
100
AcDbEllipse
 10
-878.066219
 20
-481.09791
 30
0.0
 11
7.0
 21
0.0
 31
0.0
210
0.0
220
0.0
230
1.0
 40
0.83983
 41
3.1415926535897931
 42
4.7123889803846897
  0
LINE
  5
2DB
100
AcDbEntity
  8
0
370
    -3
390
0
  6
Continuous
100
AcDbLine
 10
-886.266806
 20
-486.399193
 30
0.0
 11
-889.066219
 21
-485.052578
 31
0.0
  0
LINE
  5
2DC
100
AcDbEntity
  8
0
370
    -3
390
0
  6
Continuous
100
AcDbLine
 10
-886.266806
 20
-464.614282
 30
0.0
 11
-889.066219
 21
-460.935261
 31
0.0
  0
LINE
  5
2DD
100
AcDbEntity
  8
0
370
    -3
390
0
  6
Continuous
100
AcDbLine
 10
-830.066219
 20
-486.976718
 30
0.0
 11
-883.083557
 21
-486.976718
 31
0.0
  0
LINE
  5
2DE
100
AcDbEntity
  8
0
370
    -3
390
0
  6
Continuous
100
AcDbLine
 10
-830.066219
 20
-460.935261
 30
0.0
 11
-889.066219
 21
-460.935261
 31
0.0
  0
LINE
  5
2DF
100
AcDbEntity
  8
0
370
    -3
390
0
  6
Continuous
100
AcDbLine
 10
-885.066219
 20
-472.437656
 30
0.0
 11
-885.066219
 21
-481.09791
 31
0.0
  0
LINE
  5
2E0
100
AcDbEntity
  8
0
370
    -3
390
0
  6
Continuous
100
AcDbLine
 10
-830.066219
 20
-466.192108
 30
0.0
 11
-883.083557
 21
-466.192108
 31
0.0
  0
LINE
  5
2E1
100
AcDbEntity
  8
0
370
    -3
390
0
  6
Continuous
100
AcDbLine
 10
-866.066219
 20
-476.306253
 30
0.0
 11
-871.066219
 21
-473.806252
 31
0.0
  0
LINE
  5
2E2
100
AcDbEntity
  8
0
370
    -3
390
0
  6
Continuous
100
AcDbLine
 10
-866.066219
 20
-481.306255
 30
0.0
 11
-866.066219
 21
-476.306253
 31
0.0
  0
LINE
  5
2E3
100
AcDbEntity
  8
0
370
    -3
390
0
  6
Continuous
100
AcDbLine
 10
-871.066219
 20
-483.806256
 30
0.0
 11
-866.066219
 21
-481.306255
 31
0.0
  0
LINE
  5
2E4
100
AcDbEntity
  8
0
370
    -3
390
0
  6
Continuous
100
AcDbLine
 10
-876.066219
 20
-481.306255
 30
0.0
 11
-871.066219
 21
-483.806256
 31
0.0
  0
LINE
  5
2E5
100
AcDbEntity
  8
0
370
    -3
390
0
  6
Continuous
100
AcDbLine
 10
-876.066219
 20
-476.306253
 30
0.0
 11
-876.066219
 21
-481.306255
 31
0.0
  0
LINE
  5
2E6
100
AcDbEntity
  8
0
370
    -3
390
0
  6
Continuous
100
AcDbLine
 10
-871.066219
 20
-473.806252
 30
0.0
 11
-876.066219
 21
-476.306253
 31
0.0
  0
LINE
  5
2E7
100
AcDbEntity
  8
0
370
    -3
390
0
  6
CENTER
100
AcDbLine
 10
-863.792716
 20
-478.806254
 30
0.0
 11
-878.339721
 21
-478.806254
 31
0.0
  0
LINE
  5
2E8
100
AcDbEntity
  8
0
370
    -3
390
0
  6
CENTER
100
AcDbLine
 10
-871.066219
 20
-470.21283
 30
0.0
 11
-871.066219
 21
-486.976718
 31
0.0
  0
ELLIPSE
  5
2E9
100
AcDbEntity
  8
0
370
    -3
390
0
  6
Continuous
100
AcDbEllipse
 10
-871.066219
 20
-478.806254
 30
0.0
 11
5.0
 21
0.0
 31
0.0
210
0.0
220
0.0
230
1.0
 40
0.866
 41
0.0
 42
6.2831853071795862
  0
LINE
  5
2EA
100
AcDbEntity
  8
0
370
    -3
390
0
  6
Continuous
100
AcDbLine
 10
-951.066219
 20
-512.848613
 30
0.0
 11
-951.066219
 21
-395.556254
 31
0.0
  0
LINE
  5
2EB
100
AcDbEntity
  8
0
370
    -3
390
0
  6
Continuous
100
AcDbLine
 10
-951.066219
 20
-278.263896
 30
0.0
 11
-951.066219
 21
-395.556254
 31
0.0
  0
ARC
  5
2EC
100
AcDbEntity
  8
0
370
    -3
390
0
  6
Continuous
100
AcDbCircle
 10
-952.107472
 20
-514.556084
 30
0.0
 40
2.0
100
AcDbArc
 50
35.0
 51
89.527267
  0
POINT
  5
2ED
100
AcDbEntity
  8
0
370
    -3
390
0
  6
Continuous
100
AcDbPoint
 10
-893.566219
 20
-395.556254
 30
0.0
  0
POINT
  5
2EE
100
AcDbEntity
  8
0
370
    -3
390
0
  6
Continuous
100
AcDbPoint
 10
-714.739031
 20
-190.454932
 30
0.0
  0
ARC
  5
2EF
100
AcDbEntity
  8
0
370
    -3
390
0
  6
Continuous
100
AcDbCircle
 10
-686.666219
 20
-240.356254
 30
0.0
 40
0.6
100
AcDbArc
 50
0.0
 51
90.0
  0
ARC
  5
2F0
100
AcDbEntity
  8
0
370
    -3
390
0
  6
Continuous
100
AcDbCircle
 10
-721.466219
 20
-240.356254
 30
0.0
 40
0.6
100
AcDbArc
 50
90.0
 51
180.0
  0
LINE
  5
2F1
100
AcDbEntity
  8
0
370
    -3
390
0
  6
Continuous
100
AcDbLine
 10
-686.066219
 20
-245.995166
 30
0.0
 11
-686.066219
 21
-240.356254
 31
0.0
  0
LINE
  5
2F2
100
AcDbEntity
  8
0
370
    -3
390
0
  6
Continuous
100
AcDbLine
 10
-722.066219
 20
-245.995166
 30
0.0
 11
-722.066219
 21
-240.356254
 31
0.0
  0
LINE
  5
2F3
100
AcDbEntity
  8
0
370
    -3
390
0
  6
Continuous
100
AcDbLine
 10
-686.666219
 20
-239.756254
 30
0.0
 11
-721.466219
 21
-239.756254
 31
0.0
  0
LINE
  5
2F4
100
AcDbEntity
  8
0
370
    -3
390
0
  6
Continuous
100
AcDbLine
 10
-715.890627
 20
-232.034238
 30
0.0
 11
-716.566219
 21
-239.756254
 31
0.0
  0
LINE
  5
2F5
100
AcDbEntity
  8
0
370
    -3
390
0
  6
Continuous
100
AcDbLine
 10
-692.241807
 20
-232.034238
 30
0.0
 11
-691.566219
 21
-239.756254
 31
0.0
  0
LINE
  5
2F6
100
AcDbEntity
  8
0
370
    -3
390
0
  6
Continuous
100
AcDbLine
 10
-714.495955
 20
-230.756254
 30
0.0
 11
-693.636479
 21
-230.756254
 31
0.0
  0
LINE
  5
2F7
100
AcDbEntity
  8
0
370
    -3
390
0
  6
Continuous
100
AcDbLine
 10
-716.566219
 20
-239.756254
 30
0.0
 11
-691.566219
 21
-239.756254
 31
0.0
  0
LINE
  5
2F8
100
AcDbEntity
  8
0
370
    -3
390
0
  6
Continuous
100
AcDbLine
 10
-714.756451
 20
-230.780702
 30
0.0
 11
-704.066219
 21
-228.756254
 31
0.0
  0
LINE
  5
2F9
100
AcDbEntity
  8
0
370
    -3
390
0
  6
Continuous
100
AcDbLine
 10
-693.375987
 20
-230.780702
 30
0.0
 11
-704.066219
 21
-228.756254
 31
0.0
  0
ARC
  5
2FA
100
AcDbEntity
  8
0
370
    -3
390
0
  6
Continuous
100
AcDbCircle
 10
-714.495955
 20
-232.156254
 30
0.0
 40
1.4
100
AcDbArc
 50
90.0
 51
175.0
  0
ARC
  5
2FB
100
AcDbEntity
  8
0
370
    -3
390
0
  6
Continuous
100
AcDbCircle
 10
-693.636479
 20
-232.156254
 30
0.0
 40
1.4
100
AcDbArc
 50
5.0
 51
90.0
  0
ARC
  5
2FC
100
AcDbEntity
  8
0
370
    -3
390
0
  6
Continuous
100
AcDbCircle
 10
-722.495287
 20
-238.683538
 30
0.0
 40
6.0
100
AcDbArc
 50
355.0
 51
53.523996
  0
ARC
  5
2FD
100
AcDbEntity
  8
0
370
    -3
390
0
  6
Continuous
100
AcDbCircle
 10
-685.637151
 20
-238.683538
 30
0.0
 40
6.0
100
AcDbArc
 50
126.476004
 51
185.0
  0
ARC
  5
2FE
100
AcDbEntity
  8
0
370
    -3
390
0
  6
Continuous
100
AcDbCircle
 10
-704.066219
 20
-213.756254
 30
0.0
 40
25.0
100
AcDbArc
 50
306.476004
 51
233.523996
  0
CIRCLE
  5
2FF
100
AcDbEntity
  8
0
370
    -3
390
0
  6
Continuous
100
AcDbCircle
 10
-704.066219
 20
-213.756254
 30
0.0
 40
15.0
  0
LINE
  5
300
100
AcDbEntity
  8
0
370
    -3
390
0
  6
CENTER
100
AcDbLine
 10
-704.066219
 20
-183.756254
 30
0.0
 11
-704.066219
 21
-253.505192
 31
0.0
  0
LINE
  5
301
100
AcDbEntity
  8
0
370
    -3
390
0
  6
CENTER
100
AcDbLine
 10
-674.066219
 20
-213.756254
 30
0.0
 11
-734.066219
 21
-213.756254
 31
0.0
  0
ARC
  5
302
100
AcDbEntity
  8
0
370
    -3
390
0
  6
Continuous
100
AcDbCircle
 10
-952.107353
 20
-276.556254
 30
0.0
 40
2.0
100
AcDbArc
 50
270.0
 51
325.0
  0
ARC
  5
303
100
AcDbEntity
  8
0
370
    -3
390
0
  6
Continuous
100
AcDbCircle
 10
-952.066219
 20
-281.556254
 30
0.0
 40
3.0
100
AcDbArc
 50
90.0
 51
180.0
  0
LINE
  5
304
100
AcDbEntity
  8
0
370
    -3
390
0
  6
Continuous
100
AcDbLine
 10
-955.066219
 20
-281.556254
 30
0.0
 11
-955.066219
 21
-395.556254
 31
0.0
  0
LINE
  5
305
100
AcDbEntity
  8
0
370
    -3
390
0
  6
Continuous
100
AcDbLine
 10
-955.066219
 20
-509.556254
 30
0.0
 11
-955.066219
 21
-395.556254
 31
0.0
  0
LINE
  5
306
100
AcDbEntity
  8
0
370
    -3
390
0
  6
Continuous
100
AcDbLine
 10
-830.066219
 20
-551.056254
 30
0.0
 11
-830.066219
 21
-452.604726
 31
0.0
  0
LINE
  5
307
100
AcDbEntity
  8
0
370
    -3
390
0
  6
Continuous
100
AcDbLine
 10
-830.066219
 20
-240.056254
 30
0.0
 11
-830.066219
 21
-260.410503
 31
0.0
  0
ARC
  5
308
100
AcDbEntity
  8
0
370
    -3
390
0
  6
Continuous
100
AcDbCircle
 10
-952.066219
 20
-509.556254
 30
0.0
 40
3.0
100
AcDbArc
 50
180.0
 51
270.0
  0
LINE
  5
309
100
AcDbEntity
  8
0
370
    -3
390
0
  6
Continuous
100
AcDbLine
 10
-463.797947
 20
-506.056254
 30
0.0
 11
-519.066219
 21
-506.056254
 31
0.0
  0
LINE
  5
30A
100
AcDbEntity
  8
0
370
    -3
390
0
  6
Continuous
100
AcDbLine
 10
-433.066219
 20
-395.556254
 30
0.0
 11
-433.066219
 21
-490.887067
 31
0.0
  0
LINE
  5
30B
100
AcDbEntity
  8
0
370
    -3
390
0
  6
Continuous
100
AcDbLine
 10
-414.066219
 20
-395.556254
 30
0.0
 11
-414.066219
 21
-411.556254
 31
0.0
  0
LINE
  5
30C
100
AcDbEntity
  8
0
370
    -3
390
0
  6
Continuous
100
AcDbLine
 10
-529.066219
 20
-530.659598
 30
0.0
 11
-529.066219
 21
-395.556254
 31
0.0
  0
LINE
  5
30D
100
AcDbEntity
  8
0
370
    -3
390
0
  6
Continuous
100
AcDbLine
 10
-544.066219
 20
-531.389081
 30
0.0
 11
-544.066219
 21
-251.123269
 31
0.0
  0
LINE
  5
30E
100
AcDbEntity
  8
0
370
    -3
390
0
  6
Continuous
100
AcDbLine
 10
-439.066219
 20
-285.056254
 30
0.0
 11
-519.066219
 21
-285.056254
 31
0.0
  0
LINE
  5
30F
100
AcDbEntity
  8
0
370
    -3
390
0
  6
Continuous
100
AcDbLine
 10
-414.066219
 20
-260.929497
 30
0.0
 11
-430.066219
 21
-260.929497
 31
0.0
  0
ARC
  5
310
100
AcDbEntity
  8
0
370
    -3
390
0
  6
Continuous
100
AcDbCircle
 10
-430.066219
 20
-263.929497
 30
0.0
 40
3.0
100
AcDbArc
 50
90.0
 51
180.0
  0
LINE
  5
311
100
AcDbEntity
  8
0
370
    -3
390
0
  6
CENTER
100
AcDbLine
 10
-450.507173
 20
-275.923627
 30
0.0
 11
-410.527654
 21
-275.923627
 31
0.0
  0
ARC
  5
312
100
AcDbEntity
  8
0
370
    -3
390
0
  6
Continuous
100
AcDbCircle
 10
-519.066219
 20
-275.056254
 30
0.0
 40
10.0
100
AcDbArc
 50
227.802747
 51
270.0
  0
LINE
  5
313
100
AcDbEntity
  8
0
370
    -3
390
0
  6
Continuous
100
AcDbLine
 10
-414.066219
 20
-285.909063
 30
0.0
 11
-430.066219
 21
-285.909063
 31
0.0
  0
ARC
  5
314
100
AcDbEntity
  8
0
370
    -3
390
0
  6
Continuous
100
AcDbCircle
 10
-430.066219
 20
-288.909063
 30
0.0
 40
3.0
100
AcDbArc
 50
90.0
 51
180.0
  0
LINE
  5
315
100
AcDbEntity
  8
0
370
    -3
390
0
  6
Continuous
100
AcDbLine
 10
-414.066219
 20
-321.702538
 30
0.0
 11
-433.066219
 21
-321.702538
 31
0.0
  0
LINE
  5
316
100
AcDbEntity
  8
0
370
    -3
390
0
  6
Continuous
100
AcDbLine
 10
-433.066219
 20
-329.57317
 30
0.0
 11
-414.066219
 21
-329.57317
 31
0.0
  0
LINE
  5
317
100
AcDbEntity
  8
0
370
    -3
390
0
  6
Continuous
100
AcDbLine
 10
-433.066219
 20
-375.637799
 30
0.0
 11
-414.066219
 21
-375.637799
 31
0.0
  0
LINE
  5
318
100
AcDbEntity
  8
0
370
    -3
390
0
  6
Continuous
100
AcDbLine
 10
-433.066219
 20
-380.556254
 30
0.0
 11
-414.066219
 21
-380.556254
 31
0.0
  0
LINE
  5
319
100
AcDbEntity
  8
0
370
    -3
390
0
  6
Continuous
100
AcDbLine
 10
-433.066219
 20
-387.798895
 30
0.0
 11
-414.066219
 21
-387.798895
 31
0.0
  0
LINE
  5
31A
100
AcDbEntity
  8
0
370
    -3
390
0
  6
Continuous
100
AcDbLine
 10
-433.066219
 20
-392.041536
 30
0.0
 11
-414.066219
 21
-392.041536
 31
0.0
  0
LINE
  5
31B
100
AcDbEntity
  8
0
370
    -3
390
0
  6
Continuous
100
AcDbLine
 10
-433.066219
 20
-445.408067
 30
0.0
 11
-417.066219
 21
-445.408067
 31
0.0
  0
LINE
  5
31C
100
AcDbEntity
  8
0
370
    -3
390
0
  6
Continuous
100
AcDbLine
 10
-433.066219
 20
-461.539339
 30
0.0
 11
-414.066219
 21
-461.539339
 31
0.0
  0
LINE
  5
31D
100
AcDbEntity
  8
0
370
    -3
390
0
  6
Continuous
100
AcDbLine
 10
-414.066219
 20
-469.409971
 30
0.0
 11
-433.066219
 21
-469.409971
 31
0.0
  0
ARC
  5
31E
100
AcDbEntity
  8
0
370
    -3
390
0
  6
Continuous
100
AcDbCircle
 10
-519.066219
 20
-516.056254
 30
0.0
 40
10.0
100
AcDbArc
 50
90.0
 51
180.0
  0
ARC
  5
31F
100
AcDbEntity
  8
0
370
    -3
390
0
  6
Continuous
100
AcDbCircle
 10
-439.066219
 20
-279.056254
 30
0.0
 40
6.0
100
AcDbArc
 50
270.0
 51
282.069317
  0
LINE
  5
320
100
AcDbEntity
  8
0
370
    -3
390
0
  6
Continuous
100
AcDbLine
 10
-529.066219
 20
-471.214624
 30
0.0
 11
-529.066219
 21
-474.714624
 31
0.0
  0
LINE
  5
321
100
AcDbEntity
  8
0
370
    -3
390
0
  6
Continuous
100
AcDbLine
 10
-544.066219
 20
-266.356254
 30
0.0
 11
-544.066219
 21
-263.556254
 31
0.0
  0
LINE
  5
322
100
AcDbEntity
  8
0
370
    -3
390
0
  6
Continuous
100
AcDbLine
 10
-544.066219
 20
-251.123269
 30
0.0
 11
-531.066219
 21
-251.123269
 31
0.0
  0
LINE
  5
323
100
AcDbEntity
  8
0
370
    -3
390
0
  6
Continuous
100
AcDbLine
 10
-529.066219
 20
-395.556254
 30
0.0
 11
-529.066219
 21
-253.123269
 31
0.0
  0
ARC
  5
324
100
AcDbEntity
  8
0
370
    -3
390
0
  6
Continuous
100
AcDbCircle
 10
-531.066219
 20
-253.123269
 30
0.0
 40
2.0
100
AcDbArc
 50
0.0
 51
90.0
  0
LINE
  5
325
100
AcDbEntity
  8
0
370
    -3
390
0
  6
Continuous
100
AcDbLine
 10
-414.066219
 20
-395.556254
 30
0.0
 11
-414.066219
 21
-315.556254
 31
0.0
  0
LINE
  5
326
100
AcDbEntity
  8
0
370
    -3
390
0
  6
Continuous
100
AcDbLine
 10
-433.066219
 20
-395.556254
 30
0.0
 11
-433.066219
 21
-263.929497
 31
0.0
  0
LINE
  5
327
100
AcDbEntity
  8
0
370
    -3
390
0
  6
Continuous
100
AcDbLine
 10
-544.066219
 20
-260.324047
 30
0.0
 11
-531.066219
 21
-260.324047
 31
0.0
  0
ARC
  5
328
100
AcDbEntity
  8
0
370
    -3
390
0
  6
Continuous
100
AcDbCircle
 10
-531.066219
 20
-262.324047
 30
0.0
 40
2.0
100
AcDbArc
 50
0.0
 51
90.0
  0
LINE
  5
329
100
AcDbEntity
  8
0
370
    -3
390
0
  6
Continuous
100
AcDbLine
 10
-544.066219
 20
-292.605974
 30
0.0
 11
-529.066219
 21
-292.605974
 31
0.0
  0
LINE
  5
32A
100
AcDbEntity
  8
0
370
    -3
390
0
  6
Continuous
100
AcDbLine
 10
-529.066219
 20
-449.164905
 30
0.0
 11
-529.066219
 21
-485.64761
 31
0.0
  0
LINE
  5
32B
100
AcDbEntity
  8
0
370
    -3
390
0
  6
Continuous
100
AcDbLine
 10
-544.066219
 20
-444.39309
 30
0.0
 11
-529.066219
 21
-444.39309
 31
0.0
  0
LINE
  5
32C
100
AcDbEntity
  8
0
370
    -3
390
0
  6
Continuous
100
AcDbLine
 10
-544.066219
 20
-468.52755
 30
0.0
 11
-531.066219
 21
-468.52755
 31
0.0
  0
LINE
  5
32D
100
AcDbEntity
  8
0
370
    -3
390
0
  6
Continuous
100
AcDbLine
 10
-544.066219
 20
-485.106252
 30
0.0
 11
-531.066219
 21
-485.106252
 31
0.0
  0
LINE
  5
32E
100
AcDbEntity
  8
0
370
    -3
390
0
  6
CENTER
100
AcDbLine
 10
-559.854965
 20
-467.056256
 30
0.0
 11
-512.889766
 21
-467.056256
 31
0.0
  0
LINE
  5
32F
100
AcDbEntity
  8
0
370
    -3
390
0
  6
Continuous
100
AcDbLine
 10
-544.066219
 20
-529.056254
 30
0.0
 11
-531.066219
 21
-529.056254
 31
0.0
  0
ARC
  5
330
100
AcDbEntity
  8
0
370
    -3
390
0
  6
Continuous
100
AcDbCircle
 10
-531.066219
 20
-527.056254
 30
0.0
 40
2.0
100
AcDbArc
 50
270.0
 51
0.0
  0
ARC
  5
331
100
AcDbEntity
  8
0
370
    -3
390
0
  6
Continuous
100
AcDbCircle
 10
-531.066219
 20
-466.52755
 30
0.0
 40
2.0
100
AcDbArc
 50
270.0
 51
0.0
  0
ARC
  5
332
100
AcDbEntity
  8
0
370
    -3
390
0
  6
Continuous
100
AcDbCircle
 10
-531.066219
 20
-483.106252
 30
0.0
 40
2.0
100
AcDbArc
 50
270.0
 51
0.0
  0
LINE
  5
333
100
AcDbEntity
  8
0
370
    -3
390
0
  6
CENTER
100
AcDbLine
 10
-556.398181
 20
-271.714622
 30
0.0
 11
-511.962549
 21
-271.714622
 31
0.0
  0
LINE
  5
334
100
AcDbEntity
  8
0
370
    -3
390
0
  6
Continuous
100
AcDbLine
 10
-433.066219
 20
-425.556254
 30
0.0
 11
-418.066187
 21
-425.556254
 31
0.0
  0
LINE
  5
335
100
AcDbEntity
  8
0
370
    -3
390
0
  6
Continuous
100
AcDbLine
 10
-417.874263
 20
-412.956185
 30
0.0
 11
-433.066219
 21
-412.956185
 31
0.0
  0
LINE
  5
336
100
AcDbEntity
  8
0
370
    -3
390
0
  6
Continuous
100
AcDbLine
 10
-433.066219
 20
-438.961463
 30
0.0
 11
-433.066219
 21
-376.556254
 31
0.0
  0
LINE
  5
337
100
AcDbEntity
  8
0
370
    -3
390
0
  6
Continuous
100
AcDbLine
 10
-417.066219
 20
-435.556254
 30
0.0
 11
-417.066219
 21
-445.408067
 31
0.0
  0
LINE
  5
338
100
AcDbEntity
  8
0
370
    -3
390
0
  6
Continuous
100
AcDbLine
 10
-414.066219
 20
-291.556254
 30
0.0
 11
-414.066219
 21
-260.929497
 31
0.0
  0
LINE
  5
339
100
AcDbEntity
  8
0
370
    -3
390
0
  6
Continuous
100
AcDbLine
 10
-414.066219
 20
-435.556254
 30
0.0
 11
-414.066219
 21
-481.508663
 31
0.0
  0
LINE
  5
33A
100
AcDbEntity
  8
0
370
    -3
390
0
  6
CENTER
100
AcDbLine
 10
437.992246
 20
-395.556254
 30
0.0
 11
361.676627
 21
-395.556254
 31
0.0
  0
LINE
  5
33B
100
AcDbEntity
  8
0
370
    -3
390
0
  6
CENTER
100
AcDbLine
 10
402.681931
 20
-576.134553
 30
0.0
 11
402.681931
 21
-117.80396
 31
0.0
  0
LINE
  5
33C
100
AcDbEntity
  8
0
370
    -3
390
0
  6
Continuous
100
AcDbLine
 10
416.413677
 20
-136.556254
 30
0.0
 11
410.894066
 21
-136.556254
 31
0.0
  0
LINE
  5
33D
100
AcDbEntity
  8
0
370
    -3
390
0
  6
Continuous
100
AcDbLine
 10
406.584886
 20
-136.556254
 30
0.0
 11
402.681931
 21
-136.556254
 31
0.0
  0
LINE
  5
33E
100
AcDbEntity
  8
0
370
    -3
390
0
  6
Continuous
100
AcDbLine
 10
418.198598
 20
-126.556254
 30
0.0
 11
418.198598
 21
-136.556254
 31
0.0
  0
LINE
  5
33F
100
AcDbEntity
  8
0
370
    -3
390
0
  6
Continuous
100
AcDbLine
 10
416.413677
 20
-126.556254
 30
0.0
 11
416.413677
 21
-136.556254
 31
0.0
  0
LINE
  5
340
100
AcDbEntity
  8
0
370
    -3
390
0
  6
Continuous
100
AcDbLine
 10
410.894066
 20
-126.556254
 30
0.0
 11
410.894066
 21
-136.556254
 31
0.0
  0
LINE
  5
341
100
AcDbEntity
  8
0
370
    -3
390
0
  6
Continuous
100
AcDbLine
 10
406.584886
 20
-126.556254
 30
0.0
 11
406.584886
 21
-136.556254
 31
0.0
  0
ARC
  5
342
100
AcDbEntity
  8
0
370
    -3
390
0
  6
Continuous
100
AcDbCircle
 10
412.181931
 20
-143.056254
 30
0.0
 40
1.5
100
AcDbArc
 50
0.0
 51
90.0
  0
ARC
  5
343
100
AcDbEntity
  8
0
370
    -3
390
0
  6
Continuous
100
AcDbCircle
 10
412.181931
 20
-143.056254
 30
0.0
 40
1.5
100
AcDbArc
 50
270.0
 51
0.0
  0
LINE
  5
344
100
AcDbEntity
  8
0
370
    -3
390
0
  6
Continuous
100
AcDbLine
 10
417.931931
 20
-138.556254
 30
0.0
 11
417.931931
 21
-141.556254
 31
0.0
  0
LINE
  5
345
100
AcDbEntity
  8
0
370
    -3
390
0
  6
Continuous
100
AcDbLine
 10
417.931931
 20
-138.556254
 30
0.0
 11
402.681931
 21
-138.556254
 31
0.0
  0
LINE
  5
346
100
AcDbEntity
  8
0
370
    -3
390
0
  6
Continuous
100
AcDbLine
 10
418.681931
 20
-136.556254
 30
0.0
 11
418.198598
 21
-136.556254
 31
0.0
  0
LINE
  5
347
100
AcDbEntity
  8
0
370
    -3
390
0
  6
Continuous
100
AcDbLine
 10
418.681931
 20
-137.556254
 30
0.0
 11
418.681931
 21
-126.556254
 31
0.0
  0
LINE
  5
348
100
AcDbEntity
  8
0
370
    -3
390
0
  6
Continuous
100
AcDbLine
 10
415.681931
 20
-124.556254
 30
0.0
 11
417.181931
 21
-126.556254
 31
0.0
  0
LINE
  5
349
100
AcDbEntity
  8
0
370
    -3
390
0
  6
Continuous
100
AcDbLine
 10
418.681931
 20
-137.556254
 30
0.0
 11
402.681931
 21
-137.556254
 31
0.0
  0
LINE
  5
34A
100
AcDbEntity
  8
0
370
    -3
390
0
  6
Continuous
100
AcDbLine
 10
418.681931
 20
-137.556254
 30
0.0
 11
418.681931
 21
-126.556254
 31
0.0
  0
LINE
  5
34B
100
AcDbEntity
  8
0
370
    -3
390
0
  6
Continuous
100
AcDbLine
 10
415.681931
 20
-124.556254
 30
0.0
 11
417.181931
 21
-126.556254
 31
0.0
  0
LINE
  5
34C
100
AcDbEntity
  8
0
370
    -3
390
0
  6
Continuous
100
AcDbLine
 10
418.681931
 20
-126.556254
 30
0.0
 11
402.681931
 21
-126.556254
 31
0.0
  0
LINE
  5
34D
100
AcDbEntity
  8
0
370
    -3
390
0
  6
Continuous
100
AcDbLine
 10
417.931931
 20
-141.556254
 30
0.0
 11
402.681931
 21
-141.556254
 31
0.0
  0
LINE
  5
34E
100
AcDbEntity
  8
0
370
    -3
390
0
  6
Continuous
100
AcDbLine
 10
415.681931
 20
-124.556254
 30
0.0
 11
402.681931
 21
-124.556254
 31
0.0
  0
LINE
  5
34F
100
AcDbEntity
  8
0
370
    -3
390
0
  6
Continuous
100
AcDbLine
 10
415.681931
 20
-138.556254
 30
0.0
 11
415.681931
 21
-137.556254
 31
0.0
  0
LINE
  5
350
100
AcDbEntity
  8
0
370
    -3
390
0
  6
Continuous
100
AcDbLine
 10
388.950185
 20
-136.556254
 30
0.0
 11
394.469797
 21
-136.556254
 31
0.0
  0
LINE
  5
351
100
AcDbEntity
  8
0
370
    -3
390
0
  6
Continuous
100
AcDbLine
 10
398.778976
 20
-136.556254
 30
0.0
 11
402.681931
 21
-136.556254
 31
0.0
  0
LINE
  5
352
100
AcDbEntity
  8
0
370
    -3
390
0
  6
Continuous
100
AcDbLine
 10
387.165265
 20
-126.556254
 30
0.0
 11
387.165265
 21
-136.556254
 31
0.0
  0
LINE
  5
353
100
AcDbEntity
  8
0
370
    -3
390
0
  6
Continuous
100
AcDbLine
 10
388.950185
 20
-126.556254
 30
0.0
 11
388.950185
 21
-136.556254
 31
0.0
  0
LINE
  5
354
100
AcDbEntity
  8
0
370
    -3
390
0
  6
Continuous
100
AcDbLine
 10
394.469797
 20
-126.556254
 30
0.0
 11
394.469797
 21
-136.556254
 31
0.0
  0
LINE
  5
355
100
AcDbEntity
  8
0
370
    -3
390
0
  6
Continuous
100
AcDbLine
 10
398.778976
 20
-126.556254
 30
0.0
 11
398.778976
 21
-136.556254
 31
0.0
  0
ARC
  5
356
100
AcDbEntity
  8
0
370
    -3
390
0
  6
Continuous
100
AcDbCircle
 10
393.181931
 20
-143.056254
 30
0.0
 40
1.5
100
AcDbArc
 50
90.0
 51
180.0
  0
ARC
  5
357
100
AcDbEntity
  8
0
370
    -3
390
0
  6
Continuous
100
AcDbCircle
 10
393.181931
 20
-143.056254
 30
0.0
 40
1.5
100
AcDbArc
 50
180.0
 51
270.0
  0
LINE
  5
358
100
AcDbEntity
  8
0
370
    -3
390
0
  6
Continuous
100
AcDbLine
 10
387.431931
 20
-138.556254
 30
0.0
 11
387.431931
 21
-141.556254
 31
0.0
  0
LINE
  5
359
100
AcDbEntity
  8
0
370
    -3
390
0
  6
Continuous
100
AcDbLine
 10
387.431931
 20
-138.556254
 30
0.0
 11
402.681931
 21
-138.556254
 31
0.0
  0
LINE
  5
35A
100
AcDbEntity
  8
0
370
    -3
390
0
  6
Continuous
100
AcDbLine
 10
386.681931
 20
-136.556254
 30
0.0
 11
387.165265
 21
-136.556254
 31
0.0
  0
LINE
  5
35B
100
AcDbEntity
  8
0
370
    -3
390
0
  6
Continuous
100
AcDbLine
 10
386.681931
 20
-137.556254
 30
0.0
 11
386.681931
 21
-126.556254
 31
0.0
  0
LINE
  5
35C
100
AcDbEntity
  8
0
370
    -3
390
0
  6
Continuous
100
AcDbLine
 10
389.681931
 20
-124.556254
 30
0.0
 11
388.181931
 21
-126.556254
 31
0.0
  0
LINE
  5
35D
100
AcDbEntity
  8
0
370
    -3
390
0
  6
Continuous
100
AcDbLine
 10
386.681931
 20
-137.556254
 30
0.0
 11
402.681931
 21
-137.556254
 31
0.0
  0
LINE
  5
35E
100
AcDbEntity
  8
0
370
    -3
390
0
  6
Continuous
100
AcDbLine
 10
386.681931
 20
-137.556254
 30
0.0
 11
386.681931
 21
-126.556254
 31
0.0
  0
LINE
  5
35F
100
AcDbEntity
  8
0
370
    -3
390
0
  6
Continuous
100
AcDbLine
 10
389.681931
 20
-124.556254
 30
0.0
 11
388.181931
 21
-126.556254
 31
0.0
  0
LINE
  5
360
100
AcDbEntity
  8
0
370
    -3
390
0
  6
Continuous
100
AcDbLine
 10
386.681931
 20
-126.556254
 30
0.0
 11
402.681931
 21
-126.556254
 31
0.0
  0
LINE
  5
361
100
AcDbEntity
  8
0
370
    -3
390
0
  6
Continuous
100
AcDbLine
 10
387.431931
 20
-141.556254
 30
0.0
 11
402.681931
 21
-141.556254
 31
0.0
  0
LINE
  5
362
100
AcDbEntity
  8
0
370
    -3
390
0
  6
Continuous
100
AcDbLine
 10
389.681931
 20
-124.556254
 30
0.0
 11
402.681931
 21
-124.556254
 31
0.0
  0
LINE
  5
363
100
AcDbEntity
  8
0
370
    -3
390
0
  6
Continuous
100
AcDbLine
 10
389.681931
 20
-138.556254
 30
0.0
 11
389.681931
 21
-137.556254
 31
0.0
  0
CIRCLE
  5
364
100
AcDbEntity
  8
0
370
    -3
390
0
  6
Continuous
100
AcDbCircle
 10
402.681931
 20
-303.556254
 30
0.0
 40
5.0
  0
CIRCLE
  5
365
100
AcDbEntity
  8
0
370
    -3
390
0
  6
Continuous
100
AcDbCircle
 10
402.681931
 20
-303.556254
 30
0.0
 40
6.0
  0
ARC
  5
366
100
AcDbEntity
  8
0
370
    -3
390
0
  6
Continuous
100
AcDbCircle
 10
402.681931
 20
-303.556254
 30
0.0
 40
35.0
100
AcDbArc
 50
106.60155
 51
270.0
  0
LINE
  5
367
100
AcDbEntity
  8
0
370
    -3
390
0
  6
Continuous
100
AcDbLine
 10
402.681931
 20
-276.056254
 30
0.0
 11
392.681931
 21
-276.056254
 31
0.0
  0
LINE
  5
368
100
AcDbEntity
  8
0
370
    -3
390
0
  6
Continuous
100
AcDbLine
 10
392.681931
 20
-264.056254
 30
0.0
 11
392.681931
 21
-276.056254
 31
0.0
  0
LINE
  5
369
100
AcDbEntity
  8
0
370
    -3
390
0
  6
Continuous
100
AcDbLine
 10
402.681931
 20
-264.056254
 30
0.0
 11
392.681931
 21
-264.056254
 31
0.0
  0
LINE
  5
36A
100
AcDbEntity
  8
0
370
    -3
390
0
  6
Continuous
100
AcDbLine
 10
412.681931
 20
-264.056254
 30
0.0
 11
412.681931
 21
-276.056254
 31
0.0
  0
LINE
  5
36B
100
AcDbEntity
  8
0
370
    -3
390
0
  6
Continuous
100
AcDbLine
 10
402.681931
 20
-264.056254
 30
0.0
 11
412.681931
 21
-264.056254
 31
0.0
  0
LINE
  5
36C
100
AcDbEntity
  8
0
370
    -3
390
0
  6
Continuous
100
AcDbLine
 10
402.681931
 20
-276.056254
 30
0.0
 11
412.681931
 21
-276.056254
 31
0.0
  0
ARC
  5
36D
100
AcDbEntity
  8
0
370
    -3
390
0
  6
Continuous
100
AcDbCircle
 10
402.681931
 20
-303.556254
 30
0.0
 40
35.0
100
AcDbArc
 50
270.0
 51
73.39845
  0
LINE
  5
36E
100
AcDbEntity
  8
0
370
    -3
390
0
  6
CENTER
100
AcDbLine
 10
222.681931
 20
-512.879827
 30
0.0
 11
222.681931
 21
-582.360731
 31
0.0
  0
LINE
  5
36F
100
AcDbEntity
  8
0
370
    -3
390
0
  6
CENTER
100
AcDbLine
 10
582.681931
 20
-512.879827
 30
0.0
 11
582.681931
 21
-582.360731
 31
0.0
  0
LINE
  5
370
100
AcDbEntity
  8
0
370
    -3
390
0
  6
Continuous
100
AcDbLine
 10
182.681931
 20
-568.556254
 30
0.0
 11
262.681931
 21
-568.556254
 31
0.0
  0
LINE
  5
371
100
AcDbEntity
  8
0
370
    -3
390
0
  6
Continuous
100
AcDbLine
 10
622.681931
 20
-568.556254
 30
0.0
 11
542.681931
 21
-568.556254
 31
0.0
  0
CIRCLE
  5
372
100
AcDbEntity
  8
0
370
    -3
390
0
  6
Continuous
100
AcDbCircle
 10
402.681931
 20
-303.556254
 30
0.0
 40
50.0
  0
LINE
  5
373
100
AcDbEntity
  8
0
370
    -3
390
0
  6
Continuous
100
AcDbLine
 10
242.681931
 20
-247.556254
 30
0.0
 11
242.681931
 21
-449.556254
 31
0.0
  0
ARC
  5
374
100
AcDbEntity
  8
0
370
    -3
390
0
  6
Continuous
100
AcDbCircle
 10
342.681931
 20
-449.556254
 30
0.0
 40
100.0
100
AcDbArc
 50
180.0
 51
270.0
  0
LINE
  5
375
100
AcDbEntity
  8
0
370
    -3
390
0
  6
Continuous
100
AcDbLine
 10
288.662693
 20
-549.556254
 30
0.0
 11
402.681931
 21
-549.556254
 31
0.0
  0
LINE
  5
376
100
AcDbEntity
  8
0
370
    -3
390
0
  6
Continuous
100
AcDbLine
 10
233.681931
 20
-247.556254
 30
0.0
 11
233.681931
 21
-276.556254
 31
0.0
  0
ARC
  5
377
100
AcDbEntity
  8
0
370
    -3
390
0
  6
Continuous
100
AcDbCircle
 10
225.681931
 20
-276.556254
 30
0.0
 40
8.0
100
AcDbArc
 50
270.0
 51
0.0
  0
LINE
  5
378
100
AcDbEntity
  8
0
370
    -3
390
0
  6
Continuous
100
AcDbLine
 10
219.681931
 20
-284.556254
 30
0.0
 11
236.681931
 21
-284.556254
 31
0.0
  0
ARC
  5
379
100
AcDbEntity
  8
0
370
    -3
390
0
  6
Continuous
100
AcDbCircle
 10
219.681931
 20
-290.556254
 30
0.0
 40
6.0
100
AcDbArc
 50
90.0
 51
180.0
  0
LINE
  5
37A
100
AcDbEntity
  8
0
370
    -3
390
0
  6
Continuous
100
AcDbLine
 10
213.681931
 20
-290.556254
 30
0.0
 11
213.681931
 21
-353.414119
 31
0.0
  0
ARC
  5
37B
100
AcDbEntity
  8
0
370
    -3
390
0
  6
Continuous
100
AcDbCircle
 10
203.681931
 20
-353.414119
 30
0.0
 40
10.0
100
AcDbArc
 50
315.0
 51
0.0
  0
LINE
  5
37C
100
AcDbEntity
  8
0
370
    -3
390
0
  6
Continuous
100
AcDbLine
 10
185.610863
 20
-385.627322
 30
0.0
 11
210.752999
 21
-360.485187
 31
0.0
  0
ARC
  5
37D
100
AcDbEntity
  8
0
370
    -3
390
0
  6
Continuous
100
AcDbCircle
 10
192.681931
 20
-392.69839
 30
0.0
 40
10.0
100
AcDbArc
 50
135.0
 51
180.0
  0
LINE
  5
37E
100
AcDbEntity
  8
0
370
    -3
390
0
  6
Continuous
100
AcDbLine
 10
182.681931
 20
-392.69839
 30
0.0
 11
182.681931
 21
-568.556254
 31
0.0
  0
LINE
  5
37F
100
AcDbEntity
  8
0
370
    -3
390
0
  6
Continuous
100
AcDbLine
 10
262.681931
 20
-539.52591
 30
0.0
 11
262.681931
 21
-568.556254
 31
0.0
  0
ARC
  5
380
100
AcDbEntity
  8
0
370
    -3
390
0
  6
Continuous
100
AcDbCircle
 10
257.681931
 20
-539.52591
 30
0.0
 40
5.0
100
AcDbArc
 50
0.0
 51
60.0
  0
LINE
  5
381
100
AcDbEntity
  8
0
370
    -3
390
0
  6
Continuous
100
AcDbLine
 10
249.842185
 20
-529.226127
 30
0.0
 11
260.181931
 21
-535.195783
 31
0.0
  0
ARC
  5
382
100
AcDbEntity
  8
0
370
    -3
390
0
  6
Continuous
100
AcDbCircle
 10
247.342185
 20
-533.556254
 30
0.0
 40
5.0
100
AcDbArc
 50
60.0
 51
90.0
  0
LINE
  5
383
100
AcDbEntity
  8
0
370
    -3
390
0
  6
Continuous
100
AcDbLine
 10
187.681931
 20
-528.556254
 30
0.0
 11
247.342185
 21
-528.556254
 31
0.0
  0
ARC
  5
384
100
AcDbEntity
  8
0
370
    -3
390
0
  6
Continuous
100
AcDbCircle
 10
187.681931
 20
-533.556254
 30
0.0
 40
5.0
100
AcDbArc
 50
90.0
 51
180.0
  0
LINE
  5
385
100
AcDbEntity
  8
0
370
    -3
390
0
  6
Continuous
100
AcDbLine
 10
315.173865
 20
-558.556254
 30
0.0
 11
402.681931
 21
-558.556254
 31
0.0
  0
ARC
  5
386
100
AcDbEntity
  8
0
370
    -3
390
0
  6
Continuous
100
AcDbCircle
 10
315.173865
 20
-564.556254
 30
0.0
 40
6.0
100
AcDbArc
 50
90.0
 51
132.342605
  0
ARC
  5
387
100
AcDbEntity
  8
0
370
    -3
390
0
  6
Continuous
100
AcDbCircle
 10
299.681931
 20
-547.556254
 30
0.0
 40
17.0
100
AcDbArc
 50
215.544998
 51
339.645594
  0
LINE
  5
388
100
AcDbEntity
  8
0
370
    -3
390
0
  6
Continuous
100
AcDbLine
 10
265.681931
 20
-564.556254
 30
0.0
 11
299.681931
 21
-564.556254
 31
0.0
  0
ARC
  5
389
100
AcDbEntity
  8
0
370
    -3
390
0
  6
Continuous
100
AcDbCircle
 10
265.681931
 20
-567.556254
 30
0.0
 40
3.0
100
AcDbArc
 50
90.0
 51
180.0
  0
ARC
  5
38A
100
AcDbEntity
  8
0
370
    -3
390
0
  6
Continuous
100
AcDbCircle
 10
226.681931
 20
-500.556254
 30
0.0
 40
28.0
100
AcDbArc
 50
180.0
 51
270.0
  0
LINE
  5
38B
100
AcDbEntity
  8
0
370
    -3
390
0
  6
Continuous
100
AcDbLine
 10
198.681931
 20
-398.49738
 30
0.0
 11
198.681931
 21
-500.556254
 31
0.0
  0
LINE
  5
38C
100
AcDbEntity
  8
0
370
    -3
390
0
  6
CENTER
100
AcDbLine
 10
185.252874
 20
-303.556254
 30
0.0
 11
402.681931
 21
-303.556254
 31
0.0
  0
LINE
  5
38D
100
AcDbEntity
  8
0
370
    -3
390
0
  6
Continuous
100
AcDbLine
 10
250.681931
 20
-343.556254
 30
0.0
 11
294.681931
 21
-343.556254
 31
0.0
  0
ARC
  5
38E
100
AcDbEntity
  8
0
370
    -3
390
0
  6
Continuous
100
AcDbCircle
 10
250.681931
 20
-351.556254
 30
0.0
 40
8.0
100
AcDbArc
 50
90.0
 51
180.0
  0
LINE
  5
38F
100
AcDbEntity
  8
0
370
    -3
390
0
  6
Continuous
100
AcDbLine
 10
312.681931
 20
-325.556254
 30
0.0
 11
312.681931
 21
-303.556254
 31
0.0
  0
ARC
  5
390
100
AcDbEntity
  8
0
370
    -3
390
0
  6
Continuous
100
AcDbCircle
 10
402.681931
 20
-303.556254
 30
0.0
 40
90.0
100
AcDbArc
 50
90.0
 51
180.0
  0
LINE
  5
391
100
AcDbEntity
  8
0
370
    -3
390
0
  6
Continuous
100
AcDbLine
 10
213.623057
 20
-383.556254
 30
0.0
 11
234.681931
 21
-383.556254
 31
0.0
  0
ARC
  5
392
100
AcDbEntity
  8
0
370
    -3
390
0
  6
Continuous
100
AcDbCircle
 10
234.681931
 20
-391.556254
 30
0.0
 40
8.0
100
AcDbArc
 50
0.0
 51
90.0
  0
LINE
  5
393
100
AcDbEntity
  8
0
370
    -3
390
0
  6
Continuous
100
AcDbLine
 10
201.025077
 20
-392.840526
 30
0.0
 11
207.966202
 21
-385.8994
 31
0.0
  0
ARC
  5
394
100
AcDbEntity
  8
0
370
    -3
390
0
  6
Continuous
100
AcDbCircle
 10
206.681931
 20
-398.49738
 30
0.0
 40
8.0
100
AcDbArc
 50
135.0
 51
180.0
  0
ARC
  5
395
100
AcDbEntity
  8
0
370
    -3
390
0
  6
Continuous
100
AcDbCircle
 10
213.623057
 20
-391.556254
 30
0.0
 40
8.0
100
AcDbArc
 50
90.0
 51
135.0
  0
ARC
  5
396
100
AcDbEntity
  8
0
370
    -3
390
0
  6
Continuous
100
AcDbCircle
 10
321.24579
 20
-555.556254
 30
0.0
 40
6.0
100
AcDbArc
 50
90.0
 51
159.645594
  0
LINE
  5
397
100
AcDbEntity
  8
0
370
    -3
390
0
  6
Continuous
100
AcDbLine
 10
265.681931
 20
-562.824204
 30
0.0
 11
294.704842
 21
-546.067819
 31
0.0
  0
ARC
  5
398
100
AcDbEntity
  8
0
370
    -3
390
0
  6
Continuous
100
AcDbCircle
 10
304.704842
 20
-563.388327
 30
0.0
 40
20.0
100
AcDbArc
 50
71.550074
 51
120.0
  0
ARC
  5
399
100
AcDbEntity
  8
0
370
    -3
390
0
  6
Continuous
100
AcDbCircle
 10
268.681931
 20
-568.020356
 30
0.0
 40
6.0
100
AcDbArc
 50
120.0
 51
180.0
  0
LINE
  5
39A
100
AcDbEntity
  8
0
370
    -3
390
0
  6
Continuous
100
AcDbLine
 10
255.978835
 20
-519.381748
 30
0.0
 11
253.568683
 21
-523.556254
 31
0.0
  0
ARC
  5
39B
100
AcDbEntity
  8
0
370
    -3
390
0
  6
Continuous
100
AcDbCircle
 10
238.658327
 20
-509.381748
 30
0.0
 40
20.0
100
AcDbArc
 50
330.0
 51
29.903836
  0
ARC
  5
39C
100
AcDbEntity
  8
0
370
    -3
390
0
  6
Continuous
100
AcDbCircle
 10
244.908429
 20
-518.556254
 30
0.0
 40
10.0
100
AcDbArc
 50
270.0
 51
330.0
  0
ARC
  5
39D
100
AcDbEntity
  8
0
370
    -3
390
0
  6
Continuous
100
AcDbCircle
 10
280.96777
 20
-560.927124
 30
0.0
 40
6.0
100
AcDbArc
 50
35.544998
 51
120.0
  0
LINE
  5
39E
100
AcDbEntity
  8
0
370
    -3
390
0
  6
Continuous
100
AcDbLine
 10
241.681931
 20
-426.556254
 30
0.0
 11
241.681931
 21
-445.556254
 31
0.0
  0
ARC
  5
39F
100
AcDbEntity
  8
0
370
    -3
390
0
  6
Continuous
100
AcDbCircle
 10
242.681931
 20
-426.556254
 30
0.0
 40
1.0
100
AcDbArc
 50
120.0
 51
180.0
  0
ARC
  5
3A0
100
AcDbEntity
  8
0
370
    -3
390
0
  6
Continuous
100
AcDbCircle
 10
241.681931
 20
-424.824204
 30
0.0
 40
1.0
100
AcDbArc
 50
300.0
 51
0.0
  0
LINE
  5
3A1
100
AcDbEntity
  8
0
370
    -3
390
0
  6
Continuous
100
AcDbLine
 10
241.681931
 20
-464.556254
 30
0.0
 11
241.681931
 21
-445.556254
 31
0.0
  0
LINE
  5
3A2
100
AcDbEntity
  8
0
370
    -3
390
0
  6
Continuous
100
AcDbLine
 10
242.681931
 20
-465.556254
 30
0.0
 11
243.122903
 21
-465.556254
 31
0.0
  0
ARC
  5
3A3
100
AcDbEntity
  8
0
370
    -3
390
0
  6
Continuous
100
AcDbCircle
 10
242.681931
 20
-464.556254
 30
0.0
 40
1.0
100
AcDbArc
 50
180.0
 51
270.0
  0
ARC
  5
3A4
100
AcDbEntity
  8
0
370
    -3
390
0
  6
Continuous
100
AcDbCircle
 10
243.122903
 20
-466.556254
 30
0.0
 40
1.0
100
AcDbArc
 50
9.68997
 51
90.0
  0
POINT
  5
3A5
100
AcDbEntity
  8
0
370
    -3
390
0
  6
CENTER
100
AcDbPoint
 10
260.630976
 20
-535.488196
 30
0.0
  0
POINT
  5
3A6
100
AcDbEntity
  8
0
370
    -3
390
0
  6
CENTER
100
AcDbPoint
 10
273.938377
 20
-522.180794
 30
0.0
  0
ARC
  5
3A7
100
AcDbEntity
  8
0
370
    -3
390
0
  6
Continuous
100
AcDbCircle
 10
294.681931
 20
-325.556254
 30
0.0
 40
18.0
100
AcDbArc
 50
270.0
 51
0.0
  0
ARC
  5
3A8
100
AcDbEntity
  8
0
370
    -3
390
0
  6
Continuous
100
AcDbCircle
 10
236.681931
 20
-278.556254
 30
0.0
 40
6.0
100
AcDbArc
 50
270.0
 51
0.0
  0
LINE
  5
3A9
100
AcDbEntity
  8
0
370
    -3
390
0
  6
Continuous
100
AcDbLine
 10
342.681931
 20
-147.556254
 30
0.0
 11
402.681931
 21
-147.556254
 31
0.0
  0
ARC
  5
3AA
100
AcDbEntity
  8
0
370
    -3
390
0
  6
Continuous
100
AcDbCircle
 10
342.681931
 20
-247.556254
 30
0.0
 40
100.0
100
AcDbArc
 50
90.0
 51
180.0
  0
LINE
  5
3AB
100
AcDbEntity
  8
0
370
    -3
390
0
  6
Continuous
100
AcDbLine
 10
342.681931
 20
-138.556254
 30
0.0
 11
387.431931
 21
-138.556254
 31
0.0
  0
ARC
  5
3AC
100
AcDbEntity
  8
0
370
    -3
390
0
  6
Continuous
100
AcDbCircle
 10
342.681931
 20
-247.556254
 30
0.0
 40
109.0
100
AcDbArc
 50
90.0
 51
180.0
  0
ARC
  5
3AD
100
AcDbEntity
  8
0
370
    -3
390
0
  6
Continuous
100
AcDbCircle
 10
318.681931
 20
-158.556254
 30
0.0
 40
17.0
100
AcDbArc
 50
37.88147
 51
172.301675
  0
LINE
  5
3AE
100
AcDbEntity
  8
0
370
    -3
390
0
  6
Continuous
100
AcDbLine
 10
387.181931
 20
-144.556254
 30
0.0
 11
402.681931
 21
-144.556254
 31
0.0
  0
ARC
  5
3AF
100
AcDbEntity
  8
0
370
    -3
390
0
  6
Continuous
100
AcDbCircle
 10
387.181931
 20
-146.556254
 30
0.0
 40
2.0
100
AcDbArc
 50
90.0
 51
165.522488
  0
ARC
  5
3B0
100
AcDbEntity
  8
0
370
    -3
390
0
  6
Continuous
100
AcDbCircle
 10
383.308948
 20
-145.556254
 30
0.0
 40
2.0
100
AcDbArc
 50
270.0
 51
345.522488
  0
LINE
  5
3B1
100
AcDbEntity
  8
0
370
    -3
390
0
  6
Continuous
100
AcDbLine
 10
397.681931
 20
-152.556254
 30
0.0
 11
397.681931
 21
-209.084036
 31
0.0
  0
ARC
  5
3B2
100
AcDbEntity
  8
0
370
    -3
390
0
  6
Continuous
100
AcDbCircle
 10
392.681931
 20
-152.556254
 30
0.0
 40
5.0
100
AcDbArc
 50
0.0
 51
90.0
  0
ARC
  5
3B3
100
AcDbEntity
  8
0
370
    -3
390
0
  6
Continuous
100
AcDbCircle
 10
392.681931
 20
-209.084036
 30
0.0
 40
5.0
100
AcDbArc
 50
276.042328
 51
0.0
  0
LINE
  5
3B4
100
AcDbEntity
  8
0
370
    -3
390
0
  6
Continuous
100
AcDbLine
 10
462.681931
 20
-147.556254
 30
0.0
 11
402.681931
 21
-147.556254
 31
0.0
  0
ARC
  5
3B5
100
AcDbEntity
  8
0
370
    -3
390
0
  6
Continuous
100
AcDbCircle
 10
462.681931
 20
-247.556254
 30
0.0
 40
100.0
100
AcDbArc
 50
0.0
 51
90.0
  0
LINE
  5
3B6
100
AcDbEntity
  8
0
370
    -3
390
0
  6
Continuous
100
AcDbLine
 10
562.681931
 20
-247.556254
 30
0.0
 11
562.681931
 21
-449.556254
 31
0.0
  0
ARC
  5
3B7
100
AcDbEntity
  8
0
370
    -3
390
0
  6
Continuous
100
AcDbCircle
 10
462.681931
 20
-449.556254
 30
0.0
 40
100.0
100
AcDbArc
 50
270.0
 51
0.0
  0
LINE
  5
3B8
100
AcDbEntity
  8
0
370
    -3
390
0
  6
Continuous
100
AcDbLine
 10
516.701169
 20
-549.556254
 30
0.0
 11
402.681931
 21
-549.556254
 31
0.0
  0
LINE
  5
3B9
100
AcDbEntity
  8
0
370
    -3
390
0
  6
Continuous
100
AcDbLine
 10
462.681931
 20
-138.556254
 30
0.0
 11
417.931931
 21
-138.556254
 31
0.0
  0
ARC
  5
3BA
100
AcDbEntity
  8
0
370
    -3
390
0
  6
Continuous
100
AcDbCircle
 10
462.681931
 20
-247.556254
 30
0.0
 40
109.0
100
AcDbArc
 50
0.0
 51
90.0
  0
LINE
  5
3BB
100
AcDbEntity
  8
0
370
    -3
390
0
  6
Continuous
100
AcDbLine
 10
571.681931
 20
-247.556254
 30
0.0
 11
571.681931
 21
-276.556254
 31
0.0
  0
ARC
  5
3BC
100
AcDbEntity
  8
0
370
    -3
390
0
  6
Continuous
100
AcDbCircle
 10
579.681931
 20
-276.556254
 30
0.0
 40
8.0
100
AcDbArc
 50
180.0
 51
270.0
  0
LINE
  5
3BD
100
AcDbEntity
  8
0
370
    -3
390
0
  6
Continuous
100
AcDbLine
 10
585.681931
 20
-284.556254
 30
0.0
 11
568.681931
 21
-284.556254
 31
0.0
  0
ARC
  5
3BE
100
AcDbEntity
  8
0
370
    -3
390
0
  6
Continuous
100
AcDbCircle
 10
585.681931
 20
-290.556254
 30
0.0
 40
6.0
100
AcDbArc
 50
0.0
 51
90.0
  0
LINE
  5
3BF
100
AcDbEntity
  8
0
370
    -3
390
0
  6
Continuous
100
AcDbLine
 10
591.681931
 20
-290.556254
 30
0.0
 11
591.681931
 21
-353.414119
 31
0.0
  0
ARC
  5
3C0
100
AcDbEntity
  8
0
370
    -3
390
0
  6
Continuous
100
AcDbCircle
 10
601.681931
 20
-353.414119
 30
0.0
 40
10.0
100
AcDbArc
 50
180.0
 51
225.0
  0
LINE
  5
3C1
100
AcDbEntity
  8
0
370
    -3
390
0
  6
Continuous
100
AcDbLine
 10
619.752999
 20
-385.627322
 30
0.0
 11
594.610863
 21
-360.485187
 31
0.0
  0
ARC
  5
3C2
100
AcDbEntity
  8
0
370
    -3
390
0
  6
Continuous
100
AcDbCircle
 10
612.681931
 20
-392.69839
 30
0.0
 40
10.0
100
AcDbArc
 50
0.0
 51
45.0
  0
LINE
  5
3C3
100
AcDbEntity
  8
0
370
    -3
390
0
  6
Continuous
100
AcDbLine
 10
622.681931
 20
-392.69839
 30
0.0
 11
622.681931
 21
-568.556254
 31
0.0
  0
LINE
  5
3C4
100
AcDbEntity
  8
0
370
    -3
390
0
  6
Continuous
100
AcDbLine
 10
542.681931
 20
-539.52591
 30
0.0
 11
542.681931
 21
-568.556254
 31
0.0
  0
ARC
  5
3C5
100
AcDbEntity
  8
0
370
    -3
390
0
  6
Continuous
100
AcDbCircle
 10
547.681931
 20
-539.52591
 30
0.0
 40
5.0
100
AcDbArc
 50
120.0
 51
180.0
  0
LINE
  5
3C6
100
AcDbEntity
  8
0
370
    -3
390
0
  6
Continuous
100
AcDbLine
 10
555.521677
 20
-529.226127
 30
0.0
 11
545.181931
 21
-535.195783
 31
0.0
  0
ARC
  5
3C7
100
AcDbEntity
  8
0
370
    -3
390
0
  6
Continuous
100
AcDbCircle
 10
558.021677
 20
-533.556254
 30
0.0
 40
5.0
100
AcDbArc
 50
90.0
 51
120.0
  0
LINE
  5
3C8
100
AcDbEntity
  8
0
370
    -3
390
0
  6
Continuous
100
AcDbLine
 10
617.681931
 20
-528.556254
 30
0.0
 11
558.021677
 21
-528.556254
 31
0.0
  0
ARC
  5
3C9
100
AcDbEntity
  8
0
370
    -3
390
0
  6
Continuous
100
AcDbCircle
 10
617.681931
 20
-533.556254
 30
0.0
 40
5.0
100
AcDbArc
 50
0.0
 51
90.0
  0
LINE
  5
3CA
100
AcDbEntity
  8
0
370
    -3
390
0
  6
Continuous
100
AcDbLine
 10
490.189998
 20
-558.556254
 30
0.0
 11
402.681931
 21
-558.556254
 31
0.0
  0
ARC
  5
3CB
100
AcDbEntity
  8
0
370
    -3
390
0
  6
Continuous
100
AcDbCircle
 10
490.189998
 20
-564.556254
 30
0.0
 40
6.0
100
AcDbArc
 50
47.657395
 51
90.0
  0
ARC
  5
3CC
100
AcDbEntity
  8
0
370
    -3
390
0
  6
Continuous
100
AcDbCircle
 10
505.681931
 20
-547.556254
 30
0.0
 40
17.0
100
AcDbArc
 50
200.354406
 51
324.455002
  0
LINE
  5
3CD
100
AcDbEntity
  8
0
370
    -3
390
0
  6
Continuous
100
AcDbLine
 10
539.681931
 20
-564.556254
 30
0.0
 11
505.681931
 21
-564.556254
 31
0.0
  0
ARC
  5
3CE
100
AcDbEntity
  8
0
370
    -3
390
0
  6
Continuous
100
AcDbCircle
 10
539.681931
 20
-567.556254
 30
0.0
 40
3.0
100
AcDbArc
 50
0.0
 51
90.0
  0
ARC
  5
3CF
100
AcDbEntity
  8
0
370
    -3
390
0
  6
Continuous
100
AcDbCircle
 10
578.681931
 20
-500.556254
 30
0.0
 40
28.0
100
AcDbArc
 50
270.0
 51
0.0
  0
LINE
  5
3D0
100
AcDbEntity
  8
0
370
    -3
390
0
  6
Continuous
100
AcDbLine
 10
606.681931
 20
-398.49738
 30
0.0
 11
606.681931
 21
-500.556254
 31
0.0
  0
ARC
  5
3D1
100
AcDbEntity
  8
0
370
    -3
390
0
  6
Continuous
100
AcDbCircle
 10
486.681931
 20
-158.556254
 30
0.0
 40
17.0
100
AcDbArc
 50
7.698325
 51
142.11853
  0
LINE
  5
3D2
100
AcDbEntity
  8
0
370
    -3
390
0
  6
Continuous
100
AcDbLine
 10
554.681931
 20
-343.556254
 30
0.0
 11
510.681931
 21
-343.556254
 31
0.0
  0
ARC
  5
3D3
100
AcDbEntity
  8
0
370
    -3
390
0
  6
Continuous
100
AcDbCircle
 10
554.681931
 20
-351.556254
 30
0.0
 40
8.0
100
AcDbArc
 50
0.0
 51
90.0
  0
LINE
  5
3D4
100
AcDbEntity
  8
0
370
    -3
390
0
  6
Continuous
100
AcDbLine
 10
492.681931
 20
-325.556254
 30
0.0
 11
492.681931
 21
-303.556254
 31
0.0
  0
ARC
  5
3D5
100
AcDbEntity
  8
0
370
    -3
390
0
  6
Continuous
100
AcDbCircle
 10
402.681931
 20
-303.556254
 30
0.0
 40
90.0
100
AcDbArc
 50
0.0
 51
90.0
  0
ARC
  5
3D6
100
AcDbEntity
  8
0
370
    -3
390
0
  6
Continuous
100
AcDbCircle
 10
402.681931
 20
-303.556254
 30
0.0
 40
90.0
100
AcDbArc
 50
0.0
 51
90.0
  0
LINE
  5
3D7
100
AcDbEntity
  8
0
370
    -3
390
0
  6
Continuous
100
AcDbLine
 10
418.181931
 20
-144.556254
 30
0.0
 11
402.681931
 21
-144.556254
 31
0.0
  0
ARC
  5
3D8
100
AcDbEntity
  8
0
370
    -3
390
0
  6
Continuous
100
AcDbCircle
 10
418.181931
 20
-146.556254
 30
0.0
 40
2.0
100
AcDbArc
 50
14.477512
 51
90.0
  0
ARC
  5
3D9
100
AcDbEntity
  8
0
370
    -3
390
0
  6
Continuous
100
AcDbCircle
 10
422.054915
 20
-145.556254
 30
0.0
 40
2.0
100
AcDbArc
 50
194.477512
 51
270.0
  0
ARC
  5
3DA
100
AcDbEntity
  8
0
370
    -3
390
0
  6
Continuous
100
AcDbCircle
 10
422.054915
 20
-145.556254
 30
0.0
 40
2.0
100
AcDbArc
 50
194.477512
 51
270.0
  0
LINE
  5
3DB
100
AcDbEntity
  8
0
370
    -3
390
0
  6
Continuous
100
AcDbLine
 10
407.681931
 20
-152.556254
 30
0.0
 11
407.681931
 21
-209.084036
 31
0.0
  0
ARC
  5
3DC
100
AcDbEntity
  8
0
370
    -3
390
0
  6
Continuous
100
AcDbCircle
 10
412.681931
 20
-152.556254
 30
0.0
 40
5.0
100
AcDbArc
 50
90.0
 51
180.0
  0
ARC
  5
3DD
100
AcDbEntity
  8
0
370
    -3
390
0
  6
Continuous
100
AcDbCircle
 10
412.681931
 20
-209.084036
 30
0.0
 40
5.0
100
AcDbArc
 50
180.0
 51
263.957672
  0
LINE
  5
3DE
100
AcDbEntity
  8
0
370
    -3
390
0
  6
Continuous
100
AcDbLine
 10
591.740806
 20
-383.556254
 30
0.0
 11
570.681931
 21
-383.556254
 31
0.0
  0
LINE
  5
3DF
100
AcDbEntity
  8
0
370
    -3
390
0
  6
CENTER
100
AcDbLine
 10
620.274457
 20
-303.556254
 30
0.0
 11
402.681931
 21
-303.556254
 31
0.0
  0
ARC
  5
3E0
100
AcDbEntity
  8
0
370
    -3
390
0
  6
Continuous
100
AcDbCircle
 10
570.681931
 20
-391.556254
 30
0.0
 40
8.0
100
AcDbArc
 50
90.0
 51
180.0
  0
LINE
  5
3E1
100
AcDbEntity
  8
0
370
    -3
390
0
  6
Continuous
100
AcDbLine
 10
604.338785
 20
-392.840526
 30
0.0
 11
597.39766
 21
-385.8994
 31
0.0
  0
ARC
  5
3E2
100
AcDbEntity
  8
0
370
    -3
390
0
  6
Continuous
100
AcDbCircle
 10
598.681931
 20
-398.49738
 30
0.0
 40
8.0
100
AcDbArc
 50
0.0
 51
45.0
  0
ARC
  5
3E3
100
AcDbEntity
  8
0
370
    -3
390
0
  6
Continuous
100
AcDbCircle
 10
591.740806
 20
-391.556254
 30
0.0
 40
8.0
100
AcDbArc
 50
45.0
 51
90.0
  0
ARC
  5
3E4
100
AcDbEntity
  8
0
370
    -3
390
0
  6
Continuous
100
AcDbCircle
 10
484.118073
 20
-555.556254
 30
0.0
 40
6.0
100
AcDbArc
 50
20.354406
 51
90.0
  0
LINE
  5
3E5
100
AcDbEntity
  8
0
370
    -3
390
0
  6
Continuous
100
AcDbLine
 10
539.681931
 20
-562.824204
 30
0.0
 11
510.659021
 21
-546.067819
 31
0.0
  0
ARC
  5
3E6
100
AcDbEntity
  8
0
370
    -3
390
0
  6
Continuous
100
AcDbCircle
 10
500.659021
 20
-563.388327
 30
0.0
 40
20.0
100
AcDbArc
 50
60.0
 51
108.449926
  0
ARC
  5
3E7
100
AcDbEntity
  8
0
370
    -3
390
0
  6
Continuous
100
AcDbCircle
 10
536.681931
 20
-568.020356
 30
0.0
 40
6.0
100
AcDbArc
 50
0.0
 51
60.0
  0
LINE
  5
3E8
100
AcDbEntity
  8
0
370
    -3
390
0
  6
Continuous
100
AcDbLine
 10
549.385028
 20
-519.381748
 30
0.0
 11
551.79518
 21
-523.556254
 31
0.0
  0
ARC
  5
3E9
100
AcDbEntity
  8
0
370
    -3
390
0
  6
Continuous
100
AcDbCircle
 10
566.705536
 20
-509.381748
 30
0.0
 40
20.0
100
AcDbArc
 50
150.096164
 51
210.0
  0
ARC
  5
3EA
100
AcDbEntity
  8
0
370
    -3
390
0
  6
Continuous
100
AcDbCircle
 10
560.455434
 20
-518.556254
 30
0.0
 40
10.0
100
AcDbArc
 50
210.0
 51
270.0
  0
ARC
  5
3EB
100
AcDbEntity
  8
0
370
    -3
390
0
  6
Continuous
100
AcDbCircle
 10
524.396093
 20
-560.927124
 30
0.0
 40
6.0
100
AcDbArc
 50
60.0
 51
144.455002
  0
LINE
  5
3EC
100
AcDbEntity
  8
0
370
    -3
390
0
  6
Continuous
100
AcDbLine
 10
563.681931
 20
-426.556254
 30
0.0
 11
563.681931
 21
-445.556254
 31
0.0
  0
ARC
  5
3ED
100
AcDbEntity
  8
0
370
    -3
390
0
  6
Continuous
100
AcDbCircle
 10
562.681931
 20
-426.556254
 30
0.0
 40
1.0
100
AcDbArc
 50
0.0
 51
60.0
  0
ARC
  5
3EE
100
AcDbEntity
  8
0
370
    -3
390
0
  6
Continuous
100
AcDbCircle
 10
563.681931
 20
-424.824204
 30
0.0
 40
1.0
100
AcDbArc
 50
180.0
 51
240.0
  0
LINE
  5
3EF
100
AcDbEntity
  8
0
370
    -3
390
0
  6
Continuous
100
AcDbLine
 10
563.681931
 20
-464.556254
 30
0.0
 11
563.681931
 21
-445.556254
 31
0.0
  0
LINE
  5
3F0
100
AcDbEntity
  8
0
370
    -3
390
0
  6
Continuous
100
AcDbLine
 10
562.681931
 20
-465.556254
 30
0.0
 11
562.240959
 21
-465.556254
 31
0.0
  0
ARC
  5
3F1
100
AcDbEntity
  8
0
370
    -3
390
0
  6
Continuous
100
AcDbCircle
 10
562.681931
 20
-464.556254
 30
0.0
 40
1.0
100
AcDbArc
 50
270.0
 51
0.0
  0
ARC
  5
3F2
100
AcDbEntity
  8
0
370
    -3
390
0
  6
Continuous
100
AcDbCircle
 10
562.240959
 20
-466.556254
 30
0.0
 40
1.0
100
AcDbArc
 50
90.0
 51
170.31003
  0
POINT
  5
3F3
100
AcDbEntity
  8
0
370
    -3
390
0
  6
CENTER
100
AcDbPoint
 10
544.732886
 20
-535.488196
 30
0.0
  0
POINT
  5
3F4
100
AcDbEntity
  8
0
370
    -3
390
0
  6
CENTER
100
AcDbPoint
 10
531.425485
 20
-522.180794
 30
0.0
  0
ARC
  5
3F5
100
AcDbEntity
  8
0
370
    -3
390
0
  6
Continuous
100
AcDbCircle
 10
510.681931
 20
-325.556254
 30
0.0
 40
18.0
100
AcDbArc
 50
180.0
 51
270.0
  0
ARC
  5
3F6
100
AcDbEntity
  8
0
370
    -3
390
0
  6
Continuous
100
AcDbCircle
 10
568.681931
 20
-278.556254
 30
0.0
 40
6.0
100
AcDbArc
 50
180.0
 51
270.0
  0
CIRCLE
  5
3F7
100
AcDbEntity
  8
0
370
    -3
390
0
  6
Continuous
100
AcDbCircle
 10
402.681931
 20
-303.556254
 30
0.0
 40
65.0
  0
ARC
  5
3F8
100
AcDbEntity
  8
0
370
    -3
390
0
  6
Continuous
100
AcDbCircle
 10
186.206789
 20
-271.29424
 30
0.0
 40
11.0
100
AcDbArc
 50
122.846106
 51
151.738799
  0
LINE
  5
3F9
100
AcDbEntity
  8
0
370
    -3
390
0
  6
Continuous
100
AcDbLine
 10
189.053799
 20
-260.669056
 30
0.0
 11
233.681931
 21
-272.627128
 31
0.0
  0
ARC
  5
3FA
100
AcDbEntity
  8
0
370
    -3
390
0
  6
Continuous
100
AcDbCircle
 10
186.206789
 20
-271.29424
 30
0.0
 40
11.0
100
AcDbArc
 50
75.0
 51
122.846106
  0
POINT
  5
3FB
100
AcDbEntity
  8
0
370
    -3
390
0
  6
Continuous
100
AcDbPoint
 10
180.772347
 20
-258.450047
 30
0.0
  0
LINE
  5
3FC
100
AcDbEntity
  8
0
370
    -3
390
0
  6
CENTER
100
AcDbLine
 10
186.870718
 20
-390.756084
 30
0.0
 11
177.456763
 21
-425.889443
 31
0.0
  0
LINE
  5
3FD
100
AcDbEntity
  8
0
370
    -3
390
0
  6
Continuous
100
AcDbLine
 10
143.906121
 20
-403.863199
 30
0.0
 11
182.681931
 21
-414.253146
 31
0.0
  0
LINE
  5
3FE
100
AcDbEntity
  8
0
370
    -3
390
0
  6
Continuous
100
AcDbLine
 10
213.681931
 20
-311.341187
 30
0.0
 11
139.025281
 21
-403.534472
 31
0.0
  0
LINE
  5
3FF
100
AcDbEntity
  8
0
370
    -3
390
0
  6
Continuous
100
AcDbLine
 10
213.681931
 20
-317.69725
 30
0.0
 11
139.351122
 21
-409.488155
 31
0.0
  0
POINT
  5
400
100
AcDbEntity
  8
0
370
    -3
390
0
  6
Continuous
100
AcDbPoint
 10
136.242538
 20
-406.970873
 30
0.0
  0
LINE
  5
401
100
AcDbEntity
  8
0
370
    -3
390
0
  6
Continuous
100
AcDbLine
 10
137.019684
 20
-407.600193
 30
0.0
 11
137.264876
 21
-407.798745
 31
0.0
  0
ARC
  5
402
100
AcDbEntity
  8
0
370
    -3
390
0
  6
Continuous
100
AcDbCircle
 10
137.649005
 20
-406.823047
 30
0.0
 40
1.0
100
AcDbArc
 50
141.0
 51
231.0
  0
LINE
  5
403
100
AcDbEntity
  8
0
370
    -3
390
0
  6
Continuous
100
AcDbLine
 10
139.025281
 20
-403.534472
 30
0.0
 11
136.871859
 21
-406.193727
 31
0.0
  0
LINE
  5
404
100
AcDbEntity
  8
0
370
    -3
390
0
  6
Continuous
100
AcDbLine
 10
137.264876
 20
-407.798745
 30
0.0
 11
139.351122
 21
-409.488155
 31
0.0
  0
ARC
  5
405
100
AcDbEntity
  8
0
370
    -3
390
0
  6
Continuous
100
AcDbCircle
 10
431.949484
 20
-403.398472
 30
0.0
 40
290.0
100
AcDbArc
 50
151.738799
 51
178.305095
  0
LINE
  5
406
100
AcDbEntity
  8
0
370
    -3
390
0
  6
CENTER
100
AcDbLine
 10
139.692759
 20
-395.610452
 30
0.0
 11
146.967265
 21
-401.50123
 31
0.0
  0
LINE
  5
407
100
AcDbEntity
  8
0
370
    -3
390
0
  6
CENTER
100
AcDbLine
 10
143.12349
 20
-326.007776
 30
0.0
 11
280.834511
 21
-362.907338
 31
0.0
  0
ARC
  5
408
100
AcDbEntity
  8
0
370
    -3
390
0
  6
Continuous
100
AcDbCircle
 10
-438.086069
 20
-265.156254
 30
0.0
 40
2.599999
100
AcDbArc
 50
5.000172
 51
82.933883
  0
ARC
  5
409
100
AcDbEntity
  8
0
370
    -3
390
0
  6
Continuous
100
AcDbCircle
 10
-475.066219
 20
-282.056254
 30
0.0
 40
3.0
100
AcDbArc
 50
270.0
 51
0.0
  0
LINE
  5
40A
100
AcDbEntity
  8
0
370
    -3
390
0
  6
Continuous
100
AcDbLine
 10
-472.066219
 20
-278.556254
 30
0.0
 11
-472.066219
 21
-282.056254
 31
0.0
  0
ARC
  5
40B
100
AcDbEntity
  8
0
370
    -3
390
0
  6
Continuous
100
AcDbCircle
 10
-469.066219
 20
-278.556254
 30
0.0
 40
3.0
100
AcDbArc
 50
90.0
 51
180.0
  0
ARC
  5
40C
100
AcDbEntity
  8
0
370
    -3
390
0
  6
Continuous
100
AcDbCircle
 10
-473.47549
 20
-274.344466
 30
0.0
 40
4.0
100
AcDbArc
 50
354.999792
 51
57.640222
  0
LINE
  5
40D
100
AcDbEntity
  8
0
370
    -3
390
0
  6
Continuous
100
AcDbLine
 10
-469.566224
 20
-275.556216
 30
0.0
 11
-468.636476
 21
-264.929606
 31
0.0
  0
ARC
  5
40E
100
AcDbEntity
  8
0
370
    -3
390
0
  6
Continuous
100
AcDbCircle
 10
-466.046368
 20
-265.156254
 30
0.0
 40
2.599999
100
AcDbArc
 50
97.066117
 51
174.999828
  0
LINE
  5
40F
100
AcDbEntity
  8
0
370
    -3
390
0
  6
Continuous
100
AcDbLine
 10
-452.066219
 20
-260.556254
 30
0.0
 11
-466.461258
 21
-262.589047
 31
0.0
  0
LINE
  5
410
100
AcDbEntity
  8
0
370
    -3
390
0
  6
Continuous
100
AcDbLine
 10
-452.066219
 20
-260.556254
 30
0.0
 11
-437.671179
 21
-262.589047
 31
0.0
  0
ARC
  5
411
100
AcDbEntity
  8
0
370
    -3
390
0
  6
Continuous
100
AcDbCircle
 10
-452.066219
 20
-240.556254
 30
0.0
 40
36.0
100
AcDbArc
 50
90.0
 51
237.640241
  0
ARC
  5
412
100
AcDbEntity
  8
0
370
    -3
390
0
  6
Continuous
100
AcDbCircle
 10
-452.066219
 20
-240.556254
 30
0.0
 40
20.0
100
AcDbArc
 50
90.0
 51
270.0
  0
LINE
  5
413
100
AcDbEntity
  8
0
370
    -3
390
0
  6
CENTER
100
AcDbLine
 10
-452.066219
 20
-201.413651
 30
0.0
 11
-452.066219
 21
-296.501499
 31
0.0
  0
LINE
  5
414
100
AcDbEntity
  8
0
370
    -3
390
0
  6
CENTER
100
AcDbLine
 10
-413.451886
 20
-240.556254
 30
0.0
 11
-493.853026
 21
-240.556254
 31
0.0
  0
ARC
  5
415
100
AcDbEntity
  8
0
370
    -3
390
0
  6
Continuous
100
AcDbCircle
 10
-452.066219
 20
-240.556254
 30
0.0
 40
20.0
100
AcDbArc
 50
270.0
 51
90.0
  0
ARC
  5
416
100
AcDbEntity
  8
0
370
    -3
390
0
  6
Continuous
100
AcDbCircle
 10
-452.066219
 20
-240.556254
 30
0.0
 40
36.0
100
AcDbArc
 50
325.533561
 51
90.0
  0
LINE
  5
417
100
AcDbEntity
  8
0
370
    -3
390
0
  6
Continuous
100
AcDbLine
 10
-435.474611
 20
-265.173627
 30
0.0
 11
-435.495961
 21
-264.929606
 31
0.0
  0
LINE
  5
418
100
AcDbEntity
  8
0
370
    -3
390
0
  6
Continuous
100
AcDbLine
 10
-469.066219
 20
-275.556254
 30
0.0
 11
-448.066185
 21
-275.556254
 31
0.0
  0
LINE
  5
419
100
AcDbEntity
  8
0
370
    -3
390
0
  6
Continuous
100
AcDbLine
 10
-373.566219
 20
10.789788
 30
0.0
 11
-373.566219
 21
227.789788
 31
0.0
  0
LINE
  5
41A
100
AcDbEntity
  8
0
370
    -3
390
0
  6
Continuous
100
AcDbLine
 10
-396.066219
 20
10.789788
 30
0.0
 11
-396.066219
 21
154.372525
 31
0.0
  0
LINE
  5
41B
100
AcDbEntity
  8
0
370
    -3
390
0
  6
Continuous
100
AcDbLine
 10
-396.066219
 20
10.789788
 30
0.0
 11
-373.566219
 21
10.789788
 31
0.0
  0
ARC
  5
41C
100
AcDbEntity
  8
0
370
    -3
390
0
  6
Continuous
100
AcDbCircle
 10
-396.066219
 20
12.789788
 30
0.0
 40
2.0
100
AcDbArc
 50
180.0
 51
270.0
  0
LINE
  5
41D
100
AcDbEntity
  8
0
370
    -3
390
0
  6
Continuous
100
AcDbLine
 10
-398.066219
 20
74.789788
 30
0.0
 11
-398.066219
 21
12.789788
 31
0.0
  0
LINE
  5
41E
100
AcDbEntity
  8
0
370
    -3
390
0
  6
Continuous
100
AcDbLine
 10
-226.566219
 20
7.789788
 30
0.0
 11
-226.566219
 21
23.789788
 31
0.0
  0
ARC
  5
41F
100
AcDbEntity
  8
0
370
    -3
390
0
  6
Continuous
100
AcDbCircle
 10
-169.066219
 20
13.789788
 30
0.0
 40
6.0
100
AcDbArc
 50
270.0
 51
0.0
  0
ARC
  5
420
100
AcDbEntity
  8
0
370
    -3
390
0
  6
Continuous
100
AcDbCircle
 10
-272.566219
 20
13.789788
 30
0.0
 40
6.0
100
AcDbArc
 50
270.0
 51
0.0
  0
LINE
  5
421
100
AcDbEntity
  8
0
370
    -3
390
0
  6
Continuous
100
AcDbLine
 10
-373.566219
 20
7.789788
 30
0.0
 11
-373.566219
 21
227.789788
 31
0.0
  0
LINE
  5
422
100
AcDbEntity
  8
0
370
    -3
390
0
  6
Continuous
100
AcDbLine
 10
-374.066219
 20
10.789788
 30
0.0
 11
-374.066219
 21
227.789788
 31
0.0
  0
LINE
  5
423
100
AcDbEntity
  8
0
370
    -3
390
0
  6
Continuous
100
AcDbLine
 10
-513.066219
 20
7.789788
 30
0.0
 11
-513.066219
 21
23.789788
 31
0.0
  0
LINE
  5
424
100
AcDbEntity
  8
0
370
    -3
390
0
  6
Continuous
100
AcDbLine
 10
-169.066219
 20
7.789788
 30
0.0
 11
-497.066219
 21
7.789788
 31
0.0
  0
ARC
  5
425
100
AcDbEntity
  8
0
370
    -3
390
0
  6
Continuous
100
AcDbCircle
 10
-567.066219
 20
13.789788
 30
0.0
 40
6.0
100
AcDbArc
 50
180.0
 51
270.0
  0
LINE
  5
426
100
AcDbEntity
  8
0
370
    -3
390
0
  6
Continuous
100
AcDbLine
 10
-497.066219
 20
7.789788
 30
0.0
 11
-567.066219
 21
7.789788
 31
0.0
  0
LINE
  5
427
100
AcDbEntity
  8
0
370
    -3
390
0
  6
CENTER
100
AcDbLine
 10
-809.066219
 20
-54.435388
 30
0.0
 11
-809.066219
 21
130.612448
 31
0.0
  0
LINE
  5
428
100
AcDbEntity
  8
0
370
    -3
390
0
  6
Continuous
100
AcDbLine
 10
-871.39388
 20
4.621591
 30
0.0
 11
-744.135562
 21
4.621591
 31
0.0
  0
LINE
  5
429
100
AcDbEntity
  8
0
370
    -3
390
0
  6
Continuous
100
AcDbLine
 10
-868.448848
 20
-38.503248
 30
0.0
 11
-749.683589
 21
-38.503248
 31
0.0
  0
LINE
  5
42A
100
AcDbEntity
  8
0
370
    -3
390
0
  6
Continuous
100
AcDbLine
 10
-847.979659
 20
-34.192076
 30
0.0
 11
-770.152779
 21
-34.192076
 31
0.0
  0
LINE
  5
42B
100
AcDbEntity
  8
0
370
    -3
390
0
  6
Continuous
100
AcDbLine
 10
-754.619818
 20
-25.287519
 30
0.0
 11
-746.107211
 21
-25.287519
 31
0.0
  0
ARC
  5
42C
100
AcDbEntity
  8
0
370
    -3
390
0
  6
Continuous
100
AcDbCircle
 10
-928.943022
 20
18.745899
 30
0.0
 40
196.882204
100
AcDbArc
 50
345.833187
 51
14.40704
  0
ARC
  5
42D
100
AcDbEntity
  8
0
370
    -3
390
0
  6
Continuous
100
AcDbCircle
 10
-932.343022
 20
18.745899
 30
0.0
 40
196.882204
100
AcDbArc
 50
348.753311
 51
12.259471
  0
ARC
  5
42E
100
AcDbEntity
  8
0
370
    -3
390
0
  6
Continuous
100
AcDbCircle
 10
-754.619818
 20
-36.287519
 30
0.0
 40
11.0
100
AcDbArc
 50
90.0
 51
149.64857
  0
ARC
  5
42F
100
AcDbEntity
  8
0
370
    -3
390
0
  6
Continuous
100
AcDbCircle
 10
-749.683589
 20
-26.503248
 30
0.0
 40
12.0
100
AcDbArc
 50
270.0
 51
345.833187
  0
ARC
  5
430
100
AcDbEntity
  8
0
370
    -3
390
0
  6
Continuous
100
AcDbCircle
 10
-770.152779
 20
-27.192076
 30
0.0
 40
7.0
100
AcDbArc
 50
270.0
 51
329.64857
  0
ARC
  5
431
100
AcDbEntity
  8
0
370
    -3
390
0
  6
Continuous
100
AcDbCircle
 10
-746.107211
 20
-18.287519
 30
0.0
 40
7.0
100
AcDbArc
 50
270.0
 51
348.753311
  0
LINE
  5
432
100
AcDbEntity
  8
0
370
    -3
390
0
  6
Continuous
100
AcDbLine
 10
-863.51262
 20
-25.287519
 30
0.0
 11
-872.025227
 21
-25.287519
 31
0.0
  0
ARC
  5
433
100
AcDbEntity
  8
0
370
    -3
390
0
  6
Continuous
100
AcDbCircle
 10
-689.189416
 20
18.745899
 30
0.0
 40
196.882204
100
AcDbArc
 50
165.59296
 51
194.166813
  0
ARC
  5
434
100
AcDbEntity
  8
0
370
    -3
390
0
  6
Continuous
100
AcDbCircle
 10
-685.789416
 20
18.745899
 30
0.0
 40
196.882204
100
AcDbArc
 50
167.740529
 51
191.246689
  0
ARC
  5
435
100
AcDbEntity
  8
0
370
    -3
390
0
  6
Continuous
100
AcDbCircle
 10
-863.51262
 20
-36.287519
 30
0.0
 40
11.0
100
AcDbArc
 50
30.35143
 51
90.0
  0
ARC
  5
436
100
AcDbEntity
  8
0
370
    -3
390
0
  6
Continuous
100
AcDbCircle
 10
-868.448848
 20
-26.503248
 30
0.0
 40
12.0
100
AcDbArc
 50
194.166813
 51
270.0
  0
ARC
  5
437
100
AcDbEntity
  8
0
370
    -3
390
0
  6
Continuous
100
AcDbCircle
 10
-847.979659
 20
-27.192076
 30
0.0
 40
7.0
100
AcDbArc
 50
210.35143
 51
270.0
  0
ARC
  5
438
100
AcDbEntity
  8
0
370
    -3
390
0
  6
Continuous
100
AcDbCircle
 10
-872.025227
 20
-18.287519
 30
0.0
 40
7.0
100
AcDbArc
 50
191.246689
 51
270.0
  0
POINT
  5
439
100
AcDbEntity
  8
0
370
    -3
390
0
  6
Continuous
100
AcDbPoint
 10
-398.066219
 20
27.789788
 30
0.0
  0
LINE
  5
43A
100
AcDbEntity
  8
0
370
    -3
390
0
  6
Continuous
100
AcDbLine
 10
-398.066219
 20
13.789788
 30
0.0
 11
-398.066219
 21
41.789788
 31
0.0
  0
LINE
  5
43B
100
AcDbEntity
  8
0
370
    -3
390
0
  6
Continuous
100
AcDbLine
 10
-402.066219
 20
41.789788
 30
0.0
 11
-402.066219
 21
13.789788
 31
0.0
  0
LINE
  5
43C
100
AcDbEntity
  8
0
370
    -3
390
0
  6
Continuous
100
AcDbLine
 10
-418.06618
 20
38.058144
 30
0.0
 11
-418.066196
 21
17.522208
 31
0.0
  0
LINE
  5
43D
100
AcDbEntity
  8
0
370
    -3
390
0
  6
Continuous
100
AcDbLine
 10
-402.066219
 20
15.789788
 30
0.0
 11
-417.066203
 21
15.789788
 31
0.0
  0
LINE
  5
43E
100
AcDbEntity
  8
0
370
    -3
390
0
  6
Continuous
100
AcDbLine
 10
-402.066219
 20
39.789788
 30
0.0
 11
-417.066188
 21
39.789788
 31
0.0
  0
LINE
  5
43F
100
AcDbEntity
  8
0
370
    -3
390
0
  6
Continuous
100
AcDbLine
 10
-398.066219
 20
13.789788
 30
0.0
 11
-402.066219
 21
13.789788
 31
0.0
  0
LINE
  5
440
100
AcDbEntity
  8
0
370
    -3
390
0
  6
Continuous
100
AcDbLine
 10
-398.066219
 20
41.789788
 30
0.0
 11
-402.066219
 21
41.789788
 31
0.0
  0
LINE
  5
441
100
AcDbEntity
  8
0
370
    -3
390
0
  6
Continuous
100
AcDbLine
 10
-417.0662
 20
15.78979
 30
0.0
 11
-418.066185
 21
17.522212
 31
0.0
  0
LINE
  5
442
100
AcDbEntity
  8
0
370
    -3
390
0
  6
Continuous
100
AcDbLine
 10
-417.066192
 20
39.789788
 30
0.0
 11
-418.066177
 21
38.058144
 31
0.0
  0
LINE
  5
443
100
AcDbEntity
  8
0
370
    -3
390
0
  6
Continuous
100
AcDbLine
 10
-417.066203
 20
15.789788
 30
0.0
 11
-417.066203
 21
39.789788
 31
0.0
  0
LINE
  5
444
100
AcDbEntity
  8
0
370
    -3
390
0
  6
Continuous
100
AcDbLine
 10
-398.066218
 20
27.607747
 30
0.0
 11
-402.066217
 21
29.063625
 31
0.0
  0
LINE
  5
445
100
AcDbEntity
  8
0
370
    -3
390
0
  6
Continuous
100
AcDbLine
 10
-402.066218
 20
28.01239
 30
0.0
 11
-398.066218
 21
26.556513
 31
0.0
  0
POINT
  5
446
100
AcDbEntity
  8
0
370
    -3
390
0
  6
Continuous
100
AcDbPoint
 10
-398.066219
 20
57.789788
 30
0.0
  0
LINE
  5
447
100
AcDbEntity
  8
0
370
    -3
390
0
  6
Continuous
100
AcDbLine
 10
-398.066219
 20
43.789788
 30
0.0
 11
-398.066219
 21
71.789788
 31
0.0
  0
LINE
  5
448
100
AcDbEntity
  8
0
370
    -3
390
0
  6
Continuous
100
AcDbLine
 10
-402.066219
 20
71.789788
 30
0.0
 11
-402.066219
 21
43.789788
 31
0.0
  0
LINE
  5
449
100
AcDbEntity
  8
0
370
    -3
390
0
  6
Continuous
100
AcDbLine
 10
-418.06618
 20
68.058144
 30
0.0
 11
-418.066196
 21
47.522208
 31
0.0
  0
LINE
  5
44A
100
AcDbEntity
  8
0
370
    -3
390
0
  6
Continuous
100
AcDbLine
 10
-402.066219
 20
45.789788
 30
0.0
 11
-417.066203
 21
45.789788
 31
0.0
  0
LINE
  5
44B
100
AcDbEntity
  8
0
370
    -3
390
0
  6
Continuous
100
AcDbLine
 10
-402.066219
 20
69.789788
 30
0.0
 11
-417.066188
 21
69.789788
 31
0.0
  0
LINE
  5
44C
100
AcDbEntity
  8
0
370
    -3
390
0
  6
Continuous
100
AcDbLine
 10
-398.066219
 20
43.789788
 30
0.0
 11
-402.066219
 21
43.789788
 31
0.0
  0
LINE
  5
44D
100
AcDbEntity
  8
0
370
    -3
390
0
  6
Continuous
100
AcDbLine
 10
-398.066219
 20
71.789788
 30
0.0
 11
-402.066219
 21
71.789788
 31
0.0
  0
LINE
  5
44E
100
AcDbEntity
  8
0
370
    -3
390
0
  6
Continuous
100
AcDbLine
 10
-417.0662
 20
45.78979
 30
0.0
 11
-418.066185
 21
47.522212
 31
0.0
  0
LINE
  5
44F
100
AcDbEntity
  8
0
370
    -3
390
0
  6
Continuous
100
AcDbLine
 10
-417.066192
 20
69.789788
 30
0.0
 11
-418.066177
 21
68.058144
 31
0.0
  0
LINE
  5
450
100
AcDbEntity
  8
0
370
    -3
390
0
  6
Continuous
100
AcDbLine
 10
-417.066203
 20
45.789788
 30
0.0
 11
-417.066203
 21
69.789788
 31
0.0
  0
LINE
  5
451
100
AcDbEntity
  8
0
370
    -3
390
0
  6
Continuous
100
AcDbLine
 10
-398.066218
 20
57.607747
 30
0.0
 11
-402.066217
 21
59.063625
 31
0.0
  0
LINE
  5
452
100
AcDbEntity
  8
0
370
    -3
390
0
  6
Continuous
100
AcDbLine
 10
-402.066218
 20
58.01239
 30
0.0
 11
-398.066218
 21
56.556513
 31
0.0
  0
POINT
  5
453
100
AcDbEntity
  8
0
370
    -3
390
0
  6
Continuous
100
AcDbPoint
 10
-398.066219
 20
143.789788
 30
0.0
  0
LINE
  5
454
100
AcDbEntity
  8
0
370
    -3
390
0
  6
Continuous
100
AcDbLine
 10
-398.066219
 20
129.789788
 30
0.0
 11
-398.066219
 21
157.789788
 31
0.0
  0
LINE
  5
455
100
AcDbEntity
  8
0
370
    -3
390
0
  6
Continuous
100
AcDbLine
 10
-402.066219
 20
157.789788
 30
0.0
 11
-402.066219
 21
129.789788
 31
0.0
  0
LINE
  5
456
100
AcDbEntity
  8
0
370
    -3
390
0
  6
Continuous
100
AcDbLine
 10
-418.06618
 20
154.058144
 30
0.0
 11
-418.066196
 21
133.522208
 31
0.0
  0
LINE
  5
457
100
AcDbEntity
  8
0
370
    -3
390
0
  6
Continuous
100
AcDbLine
 10
-402.066219
 20
131.789788
 30
0.0
 11
-417.066203
 21
131.789788
 31
0.0
  0
LINE
  5
458
100
AcDbEntity
  8
0
370
    -3
390
0
  6
Continuous
100
AcDbLine
 10
-402.066219
 20
155.789788
 30
0.0
 11
-417.066188
 21
155.789788
 31
0.0
  0
LINE
  5
459
100
AcDbEntity
  8
0
370
    -3
390
0
  6
Continuous
100
AcDbLine
 10
-398.066219
 20
129.789788
 30
0.0
 11
-402.066219
 21
129.789788
 31
0.0
  0
LINE
  5
45A
100
AcDbEntity
  8
0
370
    -3
390
0
  6
Continuous
100
AcDbLine
 10
-398.066219
 20
157.789788
 30
0.0
 11
-402.066219
 21
157.789788
 31
0.0
  0
LINE
  5
45B
100
AcDbEntity
  8
0
370
    -3
390
0
  6
Continuous
100
AcDbLine
 10
-417.0662
 20
131.78979
 30
0.0
 11
-418.066185
 21
133.522212
 31
0.0
  0
LINE
  5
45C
100
AcDbEntity
  8
0
370
    -3
390
0
  6
Continuous
100
AcDbLine
 10
-417.066192
 20
155.789788
 30
0.0
 11
-418.066177
 21
154.058144
 31
0.0
  0
LINE
  5
45D
100
AcDbEntity
  8
0
370
    -3
390
0
  6
Continuous
100
AcDbLine
 10
-417.066203
 20
131.789788
 30
0.0
 11
-417.066203
 21
155.789788
 31
0.0
  0
LINE
  5
45E
100
AcDbEntity
  8
0
370
    -3
390
0
  6
Continuous
100
AcDbLine
 10
-398.066218
 20
143.607747
 30
0.0
 11
-402.066217
 21
145.063625
 31
0.0
  0
LINE
  5
45F
100
AcDbEntity
  8
0
370
    -3
390
0
  6
Continuous
100
AcDbLine
 10
-402.066218
 20
144.01239
 30
0.0
 11
-398.066218
 21
142.556513
 31
0.0
  0
POINT
  5
460
100
AcDbEntity
  8
0
370
    -3
390
0
  6
Continuous
100
AcDbPoint
 10
-398.066219
 20
311.789788
 30
0.0
  0
LINE
  5
461
100
AcDbEntity
  8
0
370
    -3
390
0
  6
Continuous
100
AcDbLine
 10
-398.066219
 20
325.789788
 30
0.0
 11
-398.066219
 21
297.789788
 31
0.0
  0
LINE
  5
462
100
AcDbEntity
  8
0
370
    -3
390
0
  6
Continuous
100
AcDbLine
 10
-402.066219
 20
297.789788
 30
0.0
 11
-402.066219
 21
325.789788
 31
0.0
  0
LINE
  5
463
100
AcDbEntity
  8
0
370
    -3
390
0
  6
Continuous
100
AcDbLine
 10
-418.06618
 20
301.521432
 30
0.0
 11
-418.066196
 21
322.057367
 31
0.0
  0
LINE
  5
464
100
AcDbEntity
  8
0
370
    -3
390
0
  6
Continuous
100
AcDbLine
 10
-402.066219
 20
323.789788
 30
0.0
 11
-417.066203
 21
323.789788
 31
0.0
  0
LINE
  5
465
100
AcDbEntity
  8
0
370
    -3
390
0
  6
Continuous
100
AcDbLine
 10
-402.066219
 20
299.789788
 30
0.0
 11
-417.066188
 21
299.789788
 31
0.0
  0
LINE
  5
466
100
AcDbEntity
  8
0
370
    -3
390
0
  6
Continuous
100
AcDbLine
 10
-398.066219
 20
325.789788
 30
0.0
 11
-402.066219
 21
325.789788
 31
0.0
  0
LINE
  5
467
100
AcDbEntity
  8
0
370
    -3
390
0
  6
Continuous
100
AcDbLine
 10
-398.066219
 20
297.789788
 30
0.0
 11
-402.066219
 21
297.789788
 31
0.0
  0
LINE
  5
468
100
AcDbEntity
  8
0
370
    -3
390
0
  6
Continuous
100
AcDbLine
 10
-417.0662
 20
323.789785
 30
0.0
 11
-418.066185
 21
322.057363
 31
0.0
  0
LINE
  5
469
100
AcDbEntity
  8
0
370
    -3
390
0
  6
Continuous
100
AcDbLine
 10
-417.066192
 20
299.789788
 30
0.0
 11
-418.066177
 21
301.521431
 31
0.0
  0
LINE
  5
46A
100
AcDbEntity
  8
0
370
    -3
390
0
  6
Continuous
100
AcDbLine
 10
-417.066203
 20
323.789788
 30
0.0
 11
-417.066203
 21
299.789788
 31
0.0
  0
LINE
  5
46B
100
AcDbEntity
  8
0
370
    -3
390
0
  6
Continuous
100
AcDbLine
 10
-398.066218
 20
311.971828
 30
0.0
 11
-402.066217
 21
310.51595
 31
0.0
  0
LINE
  5
46C
100
AcDbEntity
  8
0
370
    -3
390
0
  6
Continuous
100
AcDbLine
 10
-402.066218
 20
311.567185
 30
0.0
 11
-398.066218
 21
313.023062
 31
0.0
  0
POINT
  5
46D
100
AcDbEntity
  8
0
370
    -3
390
0
  6
Continuous
100
AcDbPoint
 10
-398.066219
 20
397.789788
 30
0.0
  0
LINE
  5
46E
100
AcDbEntity
  8
0
370
    -3
390
0
  6
Continuous
100
AcDbLine
 10
-398.066219
 20
411.789788
 30
0.0
 11
-398.066219
 21
383.789788
 31
0.0
  0
LINE
  5
46F
100
AcDbEntity
  8
0
370
    -3
390
0
  6
Continuous
100
AcDbLine
 10
-402.066219
 20
383.789788
 30
0.0
 11
-402.066219
 21
411.789788
 31
0.0
  0
LINE
  5
470
100
AcDbEntity
  8
0
370
    -3
390
0
  6
Continuous
100
AcDbLine
 10
-418.06618
 20
387.521432
 30
0.0
 11
-418.066196
 21
408.057367
 31
0.0
  0
LINE
  5
471
100
AcDbEntity
  8
0
370
    -3
390
0
  6
Continuous
100
AcDbLine
 10
-402.066219
 20
409.789788
 30
0.0
 11
-417.066203
 21
409.789788
 31
0.0
  0
LINE
  5
472
100
AcDbEntity
  8
0
370
    -3
390
0
  6
Continuous
100
AcDbLine
 10
-402.066219
 20
385.789788
 30
0.0
 11
-417.066188
 21
385.789788
 31
0.0
  0
LINE
  5
473
100
AcDbEntity
  8
0
370
    -3
390
0
  6
Continuous
100
AcDbLine
 10
-398.066219
 20
411.789788
 30
0.0
 11
-402.066219
 21
411.789788
 31
0.0
  0
LINE
  5
474
100
AcDbEntity
  8
0
370
    -3
390
0
  6
Continuous
100
AcDbLine
 10
-398.066219
 20
383.789788
 30
0.0
 11
-402.066219
 21
383.789788
 31
0.0
  0
LINE
  5
475
100
AcDbEntity
  8
0
370
    -3
390
0
  6
Continuous
100
AcDbLine
 10
-417.0662
 20
409.789785
 30
0.0
 11
-418.066185
 21
408.057363
 31
0.0
  0
LINE
  5
476
100
AcDbEntity
  8
0
370
    -3
390
0
  6
Continuous
100
AcDbLine
 10
-417.066192
 20
385.789788
 30
0.0
 11
-418.066177
 21
387.521431
 31
0.0
  0
LINE
  5
477
100
AcDbEntity
  8
0
370
    -3
390
0
  6
Continuous
100
AcDbLine
 10
-417.066203
 20
409.789788
 30
0.0
 11
-417.066203
 21
385.789788
 31
0.0
  0
LINE
  5
478
100
AcDbEntity
  8
0
370
    -3
390
0
  6
Continuous
100
AcDbLine
 10
-398.066218
 20
397.971828
 30
0.0
 11
-402.066217
 21
396.51595
 31
0.0
  0
LINE
  5
479
100
AcDbEntity
  8
0
370
    -3
390
0
  6
Continuous
100
AcDbLine
 10
-402.066218
 20
397.567185
 30
0.0
 11
-398.066218
 21
399.023062
 31
0.0
  0
POINT
  5
47A
100
AcDbEntity
  8
0
370
    -3
390
0
  6
Continuous
100
AcDbPoint
 10
-398.066219
 20
427.789788
 30
0.0
  0
LINE
  5
47B
100
AcDbEntity
  8
0
370
    -3
390
0
  6
Continuous
100
AcDbLine
 10
-398.066219
 20
441.789788
 30
0.0
 11
-398.066219
 21
413.789788
 31
0.0
  0
LINE
  5
47C
100
AcDbEntity
  8
0
370
    -3
390
0
  6
Continuous
100
AcDbLine
 10
-402.066219
 20
413.789788
 30
0.0
 11
-402.066219
 21
441.789788
 31
0.0
  0
LINE
  5
47D
100
AcDbEntity
  8
0
370
    -3
390
0
  6
Continuous
100
AcDbLine
 10
-418.06618
 20
417.521432
 30
0.0
 11
-418.066196
 21
438.057367
 31
0.0
  0
LINE
  5
47E
100
AcDbEntity
  8
0
370
    -3
390
0
  6
Continuous
100
AcDbLine
 10
-402.066219
 20
439.789788
 30
0.0
 11
-417.066203
 21
439.789788
 31
0.0
  0
LINE
  5
47F
100
AcDbEntity
  8
0
370
    -3
390
0
  6
Continuous
100
AcDbLine
 10
-402.066219
 20
415.789788
 30
0.0
 11
-417.066188
 21
415.789788
 31
0.0
  0
LINE
  5
480
100
AcDbEntity
  8
0
370
    -3
390
0
  6
Continuous
100
AcDbLine
 10
-398.066219
 20
441.789788
 30
0.0
 11
-402.066219
 21
441.789788
 31
0.0
  0
LINE
  5
481
100
AcDbEntity
  8
0
370
    -3
390
0
  6
Continuous
100
AcDbLine
 10
-398.066219
 20
413.789788
 30
0.0
 11
-402.066219
 21
413.789788
 31
0.0
  0
LINE
  5
482
100
AcDbEntity
  8
0
370
    -3
390
0
  6
Continuous
100
AcDbLine
 10
-417.0662
 20
439.789785
 30
0.0
 11
-418.066185
 21
438.057363
 31
0.0
  0
LINE
  5
483
100
AcDbEntity
  8
0
370
    -3
390
0
  6
Continuous
100
AcDbLine
 10
-417.066192
 20
415.789788
 30
0.0
 11
-418.066177
 21
417.521431
 31
0.0
  0
LINE
  5
484
100
AcDbEntity
  8
0
370
    -3
390
0
  6
Continuous
100
AcDbLine
 10
-417.066203
 20
439.789788
 30
0.0
 11
-417.066203
 21
415.789788
 31
0.0
  0
LINE
  5
485
100
AcDbEntity
  8
0
370
    -3
390
0
  6
Continuous
100
AcDbLine
 10
-398.066218
 20
427.971828
 30
0.0
 11
-402.066217
 21
426.51595
 31
0.0
  0
LINE
  5
486
100
AcDbEntity
  8
0
370
    -3
390
0
  6
Continuous
100
AcDbLine
 10
-402.066218
 20
427.567185
 30
0.0
 11
-398.066218
 21
429.023062
 31
0.0
  0
ARC
  5
487
100
AcDbEntity
  8
0
370
    -3
390
0
  6
Continuous
100
AcDbCircle
 10
-333.566219
 20
227.789788
 30
0.0
 40
17.5
100
AcDbArc
 50
270.0
 51
0.0
  0
ARC
  5
488
100
AcDbEntity
  8
0
370
    -3
390
0
  6
Continuous
100
AcDbCircle
 10
-355.566219
 20
208.289788
 30
0.0
 40
2.0
100
AcDbArc
 50
90.0
 51
180.0
  0
LINE
  5
489
100
AcDbEntity
  8
0
370
    -3
390
0
  6
Continuous
100
AcDbLine
 10
-333.566219
 20
210.289788
 30
0.0
 11
-355.566219
 21
210.289788
 31
0.0
  0
ARC
  5
48A
100
AcDbEntity
  8
0
370
    -3
390
0
  6
Continuous
100
AcDbCircle
 10
-355.566219
 20
247.289788
 30
0.0
 40
2.0
100
AcDbArc
 50
180.0
 51
270.0
  0
LINE
  5
48B
100
AcDbEntity
  8
0
370
    -3
390
0
  6
Continuous
100
AcDbLine
 10
-333.566219
 20
245.289788
 30
0.0
 11
-355.566219
 21
245.289788
 31
0.0
  0
CIRCLE
  5
48C
100
AcDbEntity
  8
0
370
    -3
390
0
  6
Continuous
100
AcDbCircle
 10
-333.566219
 20
227.789788
 30
0.0
 40
16.0
  0
ARC
  5
48D
100
AcDbEntity
  8
0
370
    -3
390
0
  6
Continuous
100
AcDbCircle
 10
-333.566219
 20
227.789788
 30
0.0
 40
17.5
100
AcDbArc
 50
0.0
 51
90.0
  0
LINE
  5
48E
100
AcDbEntity
  8
0
370
    -3
390
0
  6
CENTER
100
AcDbLine
 10
-333.566219
 20
206.836138
 30
0.0
 11
-333.566219
 21
249.429554
 31
0.0
  0
LINE
  5
48F
100
AcDbEntity
  8
0
370
    -3
390
0
  6
Continuous
100
AcDbLine
 10
-398.066219
 20
128.789788
 30
0.0
 11
-398.066219
 21
158.789788
 31
0.0
  0
LINE
  5
490
100
AcDbEntity
  8
0
370
    -3
390
0
  6
Continuous
100
AcDbLine
 10
-396.066219
 20
154.372525
 30
0.0
 11
-392.066219
 21
154.372525
 31
0.0
  0
LINE
  5
491
100
AcDbEntity
  8
0
370
    -3
390
0
  6
Continuous
100
AcDbLine
 10
-396.066219
 20
127.790638
 30
0.0
 11
-392.066219
 21
127.790638
 31
0.0
  0
LINE
  5
492
100
AcDbEntity
  8
0
370
    -3
390
0
  6
Continuous
100
AcDbLine
 10
-396.066219
 20
154.372525
 30
0.0
 11
-396.066219
 21
227.789788
 31
0.0
  0
LINE
  5
493
100
AcDbEntity
  8
0
370
    -3
390
0
  6
Continuous
100
AcDbLine
 10
-400.066219
 20
194.102843
 30
0.0
 11
-400.066219
 21
227.789788
 31
0.0
  0
LINE
  5
494
100
AcDbEntity
  8
0
370
    -3
390
0
  6
Continuous
100
AcDbLine
 10
-397.066219
 20
210.289788
 30
0.0
 11
-396.066219
 21
210.289788
 31
0.0
  0
ARC
  5
495
100
AcDbEntity
  8
0
370
    -3
390
0
  6
Continuous
100
AcDbCircle
 10
-397.066219
 20
213.289788
 30
0.0
 40
3.0
100
AcDbArc
 50
180.0
 51
270.0
  0
ARC
  5
496
100
AcDbEntity
  8
0
370
    -3
390
0
  6
Continuous
100
AcDbCircle
 10
-396.066219
 20
128.789788
 30
0.0
 40
2.0
100
AcDbArc
 50
180.0
 51
270.0
  0
ARC
  5
497
100
AcDbEntity
  8
0
370
    -3
390
0
  6
Continuous
100
AcDbCircle
 10
-396.066219
 20
158.789788
 30
0.0
 40
2.0
100
AcDbArc
 50
90.0
 51
180.0
  0
ARC
  5
498
100
AcDbEntity
  8
0
370
    -3
390
0
  6
Continuous
100
AcDbCircle
 10
-392.066219
 20
156.372525
 30
0.0
 40
2.0
100
AcDbArc
 50
270.0
 51
0.0
  0
ARC
  5
499
100
AcDbEntity
  8
0
370
    -3
390
0
  6
Continuous
100
AcDbCircle
 10
-392.066219
 20
125.790638
 30
0.0
 40
2.0
100
AcDbArc
 50
0.0
 51
90.0
  0
ARC
  5
49A
100
AcDbEntity
  8
0
370
    -3
390
0
  6
Continuous
100
AcDbCircle
 10
-396.066219
 20
74.789788
 30
0.0
 40
2.0
100
AcDbArc
 50
90.0
 51
180.0
  0
LINE
  5
49B
100
AcDbEntity
  8
0
370
    -3
390
0
  6
Continuous
100
AcDbLine
 10
-402.066219
 20
192.102843
 30
0.0
 11
-396.066219
 21
192.102843
 31
0.0
  0
ARC
  5
49C
100
AcDbEntity
  8
0
370
    -3
390
0
  6
Continuous
100
AcDbCircle
 10
-402.066219
 20
194.102843
 30
0.0
 40
2.0
100
AcDbArc
 50
270.0
 51
0.0
  0
ARC
  5
49D
100
AcDbEntity
  8
0
370
    -3
390
0
  6
Continuous
100
AcDbCircle
 10
-398.066219
 20
102.915244
 30
0.0
 40
2.0
100
AcDbArc
 50
0.0
 51
19.43891
  0
LINE
  5
49E
100
AcDbEntity
  8
0
370
    -3
390
0
  6
Continuous
100
AcDbLine
 10
-414.066219
 20
109.871159
 30
0.0
 11
-398.400196
 21
109.871159
 31
0.0
  0
LINE
  5
49F
100
AcDbEntity
  8
0
370
    -3
390
0
  6
Continuous
100
AcDbLine
 10
-414.066219
 20
95.943576
 30
0.0
 11
-396.066219
 21
95.943576
 31
0.0
  0
LINE
  5
4A0
100
AcDbEntity
  8
0
370
    -3
390
0
  6
Continuous
100
AcDbLine
 10
-390.066219
 20
61.789788
 30
0.0
 11
-390.066219
 21
227.789788
 31
0.0
  0
ARC
  5
4A1
100
AcDbEntity
  8
0
370
    -3
390
0
  6
Continuous
100
AcDbCircle
 10
-393.066219
 20
61.789788
 30
0.0
 40
3.0
100
AcDbArc
 50
270.0
 51
0.0
  0
LINE
  5
4A2
100
AcDbEntity
  8
0
370
    -3
390
0
  6
Continuous
100
AcDbLine
 10
-393.066219
 20
58.789788
 30
0.0
 11
-396.066219
 21
58.789788
 31
0.0
  0
LINE
  5
4A3
100
AcDbEntity
  8
0
370
    -3
390
0
  6
Continuous
100
AcDbLine
 10
-406.135699
 20
131.789788
 30
0.0
 11
-396.180225
 21
103.580848
 31
0.0
  0
LINE
  5
4A4
100
AcDbEntity
  8
0
370
    -3
390
0
  6
Continuous
100
AcDbLine
 10
-414.066219
 20
155.789788
 30
0.0
 11
-414.066219
 21
227.789788
 31
0.0
  0
LINE
  5
4A5
100
AcDbEntity
  8
0
370
    -3
390
0
  6
CENTER
100
AcDbLine
 10
-383.343465
 20
143.789788
 30
0.0
 11
-424.331816
 21
143.789788
 31
0.0
  0
LINE
  5
4A6
100
AcDbEntity
  8
0
370
    -3
390
0
  6
CENTER
100
AcDbLine
 10
-383.588904
 20
57.789788
 30
0.0
 11
-425.068134
 21
57.789788
 31
0.0
  0
LINE
  5
4A7
100
AcDbEntity
  8
0
370
    -3
390
0
  6
CENTER
100
AcDbLine
 10
-383.825222
 20
27.789788
 30
0.0
 11
-424.568134
 21
27.789788
 31
0.0
  0
LINE
  5
4A8
100
AcDbEntity
  8
0
370
    -3
390
0
  6
Continuous
100
AcDbLine
 10
-414.066219
 20
69.789788
 30
0.0
 11
-414.066219
 21
131.789788
 31
0.0
  0
ARC
  5
4A9
100
AcDbEntity
  8
0
370
    -3
390
0
  6
Continuous
100
AcDbCircle
 10
-396.066219
 20
40.789788
 30
0.0
 40
2.0
100
AcDbArc
 50
180.0
 51
270.0
  0
LINE
  5
4AA
100
AcDbEntity
  8
0
370
    -3
390
0
  6
Continuous
100
AcDbLine
 10
-373.566219
 20
444.789788
 30
0.0
 11
-373.566219
 21
227.789788
 31
0.0
  0
LINE
  5
4AB
100
AcDbEntity
  8
0
370
    -3
390
0
  6
Continuous
100
AcDbLine
 10
-396.066219
 20
444.789788
 30
0.0
 11
-396.066219
 21
301.20705
 31
0.0
  0
LINE
  5
4AC
100
AcDbEntity
  8
0
370
    -3
390
0
  6
Continuous
100
AcDbLine
 10
-398.066219
 20
326.789788
 30
0.0
 11
-398.066219
 21
296.789788
 31
0.0
  0
LINE
  5
4AD
100
AcDbEntity
  8
0
370
    -3
390
0
  6
Continuous
100
AcDbLine
 10
-396.066219
 20
301.20705
 30
0.0
 11
-392.066219
 21
301.20705
 31
0.0
  0
LINE
  5
4AE
100
AcDbEntity
  8
0
370
    -3
390
0
  6
Continuous
100
AcDbLine
 10
-396.066219
 20
327.788937
 30
0.0
 11
-392.066219
 21
327.788937
 31
0.0
  0
LINE
  5
4AF
100
AcDbEntity
  8
0
370
    -3
390
0
  6
Continuous
100
AcDbLine
 10
-396.066219
 20
301.20705
 30
0.0
 11
-396.066219
 21
227.789788
 31
0.0
  0
LINE
  5
4B0
100
AcDbEntity
  8
0
370
    -3
390
0
  6
Continuous
100
AcDbLine
 10
-400.066219
 20
261.476732
 30
0.0
 11
-400.066219
 21
227.789788
 31
0.0
  0
LINE
  5
4B1
100
AcDbEntity
  8
0
370
    -3
390
0
  6
Continuous
100
AcDbLine
 10
-397.066219
 20
245.289788
 30
0.0
 11
-396.066219
 21
245.289788
 31
0.0
  0
ARC
  5
4B2
100
AcDbEntity
  8
0
370
    -3
390
0
  6
Continuous
100
AcDbCircle
 10
-397.066219
 20
242.289788
 30
0.0
 40
3.0
100
AcDbArc
 50
90.0
 51
180.0
  0
ARC
  5
4B3
100
AcDbEntity
  8
0
370
    -3
390
0
  6
Continuous
100
AcDbCircle
 10
-396.066219
 20
326.789788
 30
0.0
 40
2.0
100
AcDbArc
 50
90.0
 51
180.0
  0
ARC
  5
4B4
100
AcDbEntity
  8
0
370
    -3
390
0
  6
Continuous
100
AcDbCircle
 10
-396.066219
 20
296.789788
 30
0.0
 40
2.0
100
AcDbArc
 50
180.0
 51
270.0
  0
ARC
  5
4B5
100
AcDbEntity
  8
0
370
    -3
390
0
  6
Continuous
100
AcDbCircle
 10
-392.066219
 20
299.20705
 30
0.0
 40
2.0
100
AcDbArc
 50
0.0
 51
90.0
  0
ARC
  5
4B6
100
AcDbEntity
  8
0
370
    -3
390
0
  6
Continuous
100
AcDbCircle
 10
-392.066219
 20
329.788937
 30
0.0
 40
2.0
100
AcDbArc
 50
270.0
 51
0.0
  0
ARC
  5
4B7
100
AcDbEntity
  8
0
370
    -3
390
0
  6
Continuous
100
AcDbCircle
 10
-396.066219
 20
380.789788
 30
0.0
 40
2.0
100
AcDbArc
 50
180.0
 51
270.0
  0
LINE
  5
4B8
100
AcDbEntity
  8
0
370
    -3
390
0
  6
Continuous
100
AcDbLine
 10
-396.066219
 20
444.789788
 30
0.0
 11
-373.566219
 21
444.789788
 31
0.0
  0
ARC
  5
4B9
100
AcDbEntity
  8
0
370
    -3
390
0
  6
Continuous
100
AcDbCircle
 10
-396.066219
 20
442.789788
 30
0.0
 40
2.0
100
AcDbArc
 50
90.0
 51
180.0
  0
LINE
  5
4BA
100
AcDbEntity
  8
0
370
    -3
390
0
  6
Continuous
100
AcDbLine
 10
-402.066219
 20
263.476732
 30
0.0
 11
-396.066219
 21
263.476732
 31
0.0
  0
ARC
  5
4BB
100
AcDbEntity
  8
0
370
    -3
390
0
  6
Continuous
100
AcDbCircle
 10
-402.066219
 20
261.476732
 30
0.0
 40
2.0
100
AcDbArc
 50
0.0
 51
90.0
  0
ARC
  5
4BC
100
AcDbEntity
  8
0
370
    -3
390
0
  6
Continuous
100
AcDbCircle
 10
-398.066219
 20
352.664331
 30
0.0
 40
2.0
100
AcDbArc
 50
340.56109
 51
0.0
  0
LINE
  5
4BD
100
AcDbEntity
  8
0
370
    -3
390
0
  6
Continuous
100
AcDbLine
 10
-414.066219
 20
345.708416
 30
0.0
 11
-398.400196
 21
345.708416
 31
0.0
  0
LINE
  5
4BE
100
AcDbEntity
  8
0
370
    -3
390
0
  6
Continuous
100
AcDbLine
 10
-414.066219
 20
359.635999
 30
0.0
 11
-396.066219
 21
359.635999
 31
0.0
  0
LINE
  5
4BF
100
AcDbEntity
  8
0
370
    -3
390
0
  6
Continuous
100
AcDbLine
 10
-390.066219
 20
393.789788
 30
0.0
 11
-390.066219
 21
227.789788
 31
0.0
  0
ARC
  5
4C0
100
AcDbEntity
  8
0
370
    -3
390
0
  6
Continuous
100
AcDbCircle
 10
-393.066219
 20
393.789788
 30
0.0
 40
3.0
100
AcDbArc
 50
0.0
 51
90.0
  0
LINE
  5
4C1
100
AcDbEntity
  8
0
370
    -3
390
0
  6
Continuous
100
AcDbLine
 10
-393.066219
 20
396.789788
 30
0.0
 11
-396.066219
 21
396.789788
 31
0.0
  0
LINE
  5
4C2
100
AcDbEntity
  8
0
370
    -3
390
0
  6
Continuous
100
AcDbLine
 10
-406.135699
 20
323.789788
 30
0.0
 11
-396.180225
 21
351.998728
 31
0.0
  0
LINE
  5
4C3
100
AcDbEntity
  8
0
370
    -3
390
0
  6
Continuous
100
AcDbLine
 10
-414.066219
 20
299.789788
 30
0.0
 11
-414.066219
 21
227.789788
 31
0.0
  0
LINE
  5
4C4
100
AcDbEntity
  8
0
370
    -3
390
0
  6
CENTER
100
AcDbLine
 10
-383.343465
 20
311.789788
 30
0.0
 11
-424.331816
 21
311.789788
 31
0.0
  0
LINE
  5
4C5
100
AcDbEntity
  8
0
370
    -3
390
0
  6
CENTER
100
AcDbLine
 10
-383.588904
 20
397.789788
 30
0.0
 11
-425.068134
 21
397.789788
 31
0.0
  0
LINE
  5
4C6
100
AcDbEntity
  8
0
370
    -3
390
0
  6
CENTER
100
AcDbLine
 10
-383.825222
 20
427.789788
 30
0.0
 11
-424.568134
 21
427.789788
 31
0.0
  0
LINE
  5
4C7
100
AcDbEntity
  8
0
370
    -3
390
0
  6
Continuous
100
AcDbLine
 10
-414.066219
 20
385.789788
 30
0.0
 11
-414.066219
 21
323.789788
 31
0.0
  0
LINE
  5
4C8
100
AcDbEntity
  8
0
370
    -3
390
0
  6
Continuous
100
AcDbLine
 10
-398.066219
 20
380.789788
 30
0.0
 11
-398.066219
 21
442.789788
 31
0.0
  0
ARC
  5
4C9
100
AcDbEntity
  8
0
370
    -3
390
0
  6
Continuous
100
AcDbCircle
 10
-396.066219
 20
414.789788
 30
0.0
 40
2.0
100
AcDbArc
 50
90.0
 51
180.0
  0
ARC
  5
4CA
100
AcDbEntity
  8
0
370
    -3
390
0
  6
Continuous
100
AcDbCircle
 10
-133.066219
 20
227.789788
 30
0.0
 40
10.0
100
AcDbArc
 50
90.0
 51
270.0
  0
LINE
  5
4CB
100
AcDbEntity
  8
0
370
    -3
390
0
  6
Continuous
100
AcDbLine
 10
-53.066219
 20
217.789788
 30
0.0
 11
-133.066219
 21
217.789788
 31
0.0
  0
LINE
  5
4CC
100
AcDbEntity
  8
0
370
    -3
390
0
  6
Continuous
100
AcDbLine
 10
-53.066219
 20
237.789788
 30
0.0
 11
-133.066219
 21
237.789788
 31
0.0
  0
LINE
  5
4CD
100
AcDbEntity
  8
0
370
    -3
390
0
  6
Continuous
100
AcDbLine
 10
-158.066219
 20
190.289788
 30
0.0
 11
-163.066219
 21
190.289788
 31
0.0
  0
LINE
  5
4CE
100
AcDbEntity
  8
0
370
    -3
390
0
  6
Continuous
100
AcDbLine
 10
-158.066219
 20
265.289788
 30
0.0
 11
-163.066219
 21
265.289788
 31
0.0
  0
LINE
  5
4CF
100
AcDbEntity
  8
0
370
    -3
390
0
  6
Continuous
100
AcDbLine
 10
-158.066219
 20
265.289788
 30
0.0
 11
-158.066219
 21
190.289788
 31
0.0
  0
LINE
  5
4D0
100
AcDbEntity
  8
0
370
    -3
390
0
  6
Continuous
100
AcDbLine
 10
-133.066219
 20
237.789788
 30
0.0
 11
-133.066219
 21
217.789788
 31
0.0
  0
LINE
  5
4D1
100
AcDbEntity
  8
0
370
    -3
390
0
  6
Continuous
100
AcDbLine
 10
-53.066219
 20
192.789788
 30
0.0
 11
-158.066219
 21
192.789788
 31
0.0
  0
LINE
  5
4D2
100
AcDbEntity
  8
0
370
    -3
390
0
  6
Continuous
100
AcDbLine
 10
-53.066219
 20
262.789788
 30
0.0
 11
-158.066219
 21
262.789788
 31
0.0
  0
LINE
  5
4D3
100
AcDbEntity
  8
0
370
    -3
390
0
  6
Continuous
100
AcDbLine
 10
-53.066219
 20
262.789788
 30
0.0
 11
-53.066219
 21
192.789788
 31
0.0
  0
LINE
  5
4D4
100
AcDbEntity
  8
0
370
    -3
390
0
  6
CENTER
100
AcDbLine
 10
-543.066219
 20
66.789788
 30
0.0
 11
-543.066219
 21
28.789788
 31
0.0
  0
LINE
  5
4D5
100
AcDbEntity
  8
0
370
    -3
390
0
  6
CENTER
100
AcDbLine
 10
-562.066219
 20
47.789788
 30
0.0
 11
-524.066219
 21
47.789788
 31
0.0
  0
LINE
  5
4D6
100
AcDbEntity
  8
0
370
    -3
390
0
  6
CENTER
100
AcDbLine
 10
-193.066219
 20
66.789788
 30
0.0
 11
-193.066219
 21
28.789788
 31
0.0
  0
LINE
  5
4D7
100
AcDbEntity
  8
0
370
    -3
390
0
  6
CENTER
100
AcDbLine
 10
-212.066219
 20
47.789788
 30
0.0
 11
-174.066219
 21
47.789788
 31
0.0
  0
LINE
  5
4D8
100
AcDbEntity
  8
0
370
    -3
390
0
  6
CENTER
100
AcDbLine
 10
-193.066219
 20
426.789788
 30
0.0
 11
-193.066219
 21
388.789788
 31
0.0
  0
LINE
  5
4D9
100
AcDbEntity
  8
0
370
    -3
390
0
  6
CENTER
100
AcDbLine
 10
-212.066219
 20
407.789788
 30
0.0
 11
-174.066219
 21
407.789788
 31
0.0
  0
CIRCLE
  5
4DA
100
AcDbEntity
  8
0
370
    -3
390
0
  6
Continuous
100
AcDbCircle
 10
-193.066219
 20
407.789788
 30
0.0
 40
14.0
  0
LINE
  5
4DB
100
AcDbEntity
  8
0
370
    -3
390
0
  6
Continuous
100
AcDbLine
 10
-221.566219
 20
426.789788
 30
0.0
 11
-221.566219
 21
419.789788
 31
0.0
  0
ARC
  5
4DC
100
AcDbEntity
  8
0
370
    -3
390
0
  6
Continuous
100
AcDbCircle
 10
-226.566219
 20
426.789788
 30
0.0
 40
5.0
100
AcDbArc
 50
0.0
 51
90.0
  0
LINE
  5
4DD
100
AcDbEntity
  8
0
370
    -3
390
0
  6
Continuous
100
AcDbLine
 10
-226.566219
 20
447.789788
 30
0.0
 11
-226.566219
 21
431.789788
 31
0.0
  0
LINE
  5
4DE
100
AcDbEntity
  8
0
370
    -3
390
0
  6
Continuous
100
AcDbLine
 10
-226.566219
 20
431.789788
 30
0.0
 11
-266.566219
 21
431.789788
 31
0.0
  0
CIRCLE
  5
4DF
100
AcDbEntity
  8
0
370
    -3
390
0
  6
Continuous
100
AcDbCircle
 10
-193.066219
 20
47.789788
 30
0.0
 40
14.0
  0
ARC
  5
4E0
100
AcDbEntity
  8
0
370
    -3
390
0
  6
Continuous
100
AcDbCircle
 10
-226.566219
 20
28.789788
 30
0.0
 40
5.0
100
AcDbArc
 50
270.0
 51
0.0
  0
LINE
  5
4E1
100
AcDbEntity
  8
0
370
    -3
390
0
  6
Continuous
100
AcDbLine
 10
-221.566219
 20
28.789788
 30
0.0
 11
-221.566219
 21
35.789788
 31
0.0
  0
LINE
  5
4E2
100
AcDbEntity
  8
0
370
    -3
390
0
  6
Continuous
100
AcDbLine
 10
-226.566219
 20
23.789788
 30
0.0
 11
-266.566219
 21
23.789788
 31
0.0
  0
LINE
  5
4E3
100
AcDbEntity
  8
0
370
    -3
390
0
  6
Continuous
100
AcDbLine
 10
-181.066219
 20
317.789788
 30
0.0
 11
-201.066219
 21
317.789788
 31
0.0
  0
LINE
  5
4E4
100
AcDbEntity
  8
0
370
    -3
390
0
  6
Continuous
100
AcDbLine
 10
-165.066219
 20
292.789788
 30
0.0
 11
-170.066219
 21
292.789788
 31
0.0
  0
ARC
  5
4E5
100
AcDbEntity
  8
0
370
    -3
390
0
  6
Continuous
100
AcDbCircle
 10
-170.066219
 20
295.789788
 30
0.0
 40
3.0
100
AcDbArc
 50
180.0
 51
270.0
  0
ARC
  5
4E6
100
AcDbEntity
  8
0
370
    -3
390
0
  6
Continuous
100
AcDbCircle
 10
-181.066219
 20
309.789788
 30
0.0
 40
8.0
100
AcDbArc
 50
0.0
 51
90.0
  0
ARC
  5
4E7
100
AcDbEntity
  8
0
370
    -3
390
0
  6
Continuous
100
AcDbCircle
 10
-201.066219
 20
325.789788
 30
0.0
 40
8.0
100
AcDbArc
 50
180.0
 51
270.0
  0
LINE
  5
4E8
100
AcDbEntity
  8
0
370
    -3
390
0
  6
Continuous
100
AcDbLine
 10
-183.066219
 20
232.789788
 30
0.0
 11
-204.066219
 21
232.789788
 31
0.0
  0
ARC
  5
4E9
100
AcDbEntity
  8
0
370
    -3
390
0
  6
Continuous
100
AcDbCircle
 10
-183.066219
 20
237.789788
 30
0.0
 40
5.0
100
AcDbArc
 50
270.0
 51
0.0
  0
ARC
  5
4EA
100
AcDbEntity
  8
0
370
    -3
390
0
  6
Continuous
100
AcDbCircle
 10
-204.066219
 20
237.789788
 30
0.0
 40
5.0
100
AcDbArc
 50
180.0
 51
270.0
  0
ARC
  5
4EB
100
AcDbEntity
  8
0
370
    -3
390
0
  6
Continuous
100
AcDbCircle
 10
-208.066219
 20
352.789788
 30
0.0
 40
35.0
100
AcDbArc
 50
0.0
 51
90.0
  0
ARC
  5
4EC
100
AcDbEntity
  8
0
370
    -3
390
0
  6
Continuous
100
AcDbCircle
 10
-217.066219
 20
379.789788
 30
0.0
 40
8.0
100
AcDbArc
 50
0.0
 51
90.0
  0
LINE
  5
4ED
100
AcDbEntity
  8
0
370
    -3
390
0
  6
Continuous
100
AcDbLine
 10
-229.607925
 20
387.789788
 30
0.0
 11
-208.066219
 21
387.789788
 31
0.0
  0
ARC
  5
4EE
100
AcDbEntity
  8
0
370
    -3
390
0
  6
Continuous
100
AcDbCircle
 10
-165.066219
 20
289.789788
 30
0.0
 40
3.0
100
AcDbArc
 50
48.189685
 51
90.0
  0
LINE
  5
4EF
100
AcDbEntity
  8
0
370
    -3
390
0
  6
Continuous
100
AcDbLine
 10
-163.066219
 20
292.025856
 30
0.0
 11
-163.066219
 21
227.789788
 31
0.0
  0
LINE
  5
4F0
100
AcDbEntity
  8
0
370
    -3
390
0
  6
Continuous
100
AcDbLine
 10
-173.066219
 20
352.789788
 30
0.0
 11
-173.066219
 21
227.789788
 31
0.0
  0
LINE
  5
4F1
100
AcDbEntity
  8
0
370
    -3
390
0
  6
Continuous
100
AcDbLine
 10
-178.066219
 20
237.789788
 30
0.0
 11
-178.066219
 21
227.789788
 31
0.0
  0
LINE
  5
4F2
100
AcDbEntity
  8
0
370
    -3
390
0
  6
Continuous
100
AcDbLine
 10
-209.066219
 20
379.789788
 30
0.0
 11
-209.066219
 21
227.789788
 31
0.0
  0
LINE
  5
4F3
100
AcDbEntity
  8
0
370
    -3
390
0
  6
Continuous
100
AcDbLine
 10
-360.566219
 20
396.789788
 30
0.0
 11
-373.566219
 21
396.789788
 31
0.0
  0
ARC
  5
4F4
100
AcDbEntity
  8
0
370
    -3
390
0
  6
Continuous
100
AcDbCircle
 10
-360.566219
 20
393.789788
 30
0.0
 40
3.0
100
AcDbArc
 50
0.0
 51
90.0
  0
LINE
  5
4F5
100
AcDbEntity
  8
0
370
    -3
390
0
  6
Continuous
100
AcDbLine
 10
-357.566219
 20
393.789788
 30
0.0
 11
-357.566219
 21
390.789788
 31
0.0
  0
LINE
  5
4F6
100
AcDbEntity
  8
0
370
    -3
390
0
  6
Continuous
100
AcDbLine
 10
-336.566219
 20
328.636569
 30
0.0
 11
-373.566219
 21
328.636569
 31
0.0
  0
ARC
  5
4F7
100
AcDbEntity
  8
0
370
    -3
390
0
  6
Continuous
100
AcDbCircle
 10
-336.566219
 20
325.636569
 30
0.0
 40
3.0
100
AcDbArc
 50
0.0
 51
90.0
  0
LINE
  5
4F8
100
AcDbEntity
  8
0
370
    -3
390
0
  6
Continuous
100
AcDbLine
 10
-333.566219
 20
325.636569
 30
0.0
 11
-333.566219
 21
301.371982
 31
0.0
  0
LINE
  5
4F9
100
AcDbEntity
  8
0
370
    -3
390
0
  6
Continuous
100
AcDbLine
 10
-336.566219
 20
298.371982
 30
0.0
 11
-373.566219
 21
298.371982
 31
0.0
  0
ARC
  5
4FA
100
AcDbEntity
  8
0
370
    -3
390
0
  6
Continuous
100
AcDbCircle
 10
-336.566219
 20
301.371982
 30
0.0
 40
3.0
100
AcDbArc
 50
270.0
 51
0.0
  0
LINE
  5
4FB
100
AcDbEntity
  8
0
370
    -3
390
0
  6
Continuous
100
AcDbLine
 10
-357.566219
 20
390.789788
 30
0.0
 11
-357.566219
 21
328.636569
 31
0.0
  0
LINE
  5
4FC
100
AcDbEntity
  8
0
370
    -3
390
0
  6
Continuous
100
AcDbLine
 10
-357.566219
 20
298.371982
 30
0.0
 11
-357.566219
 21
227.789788
 31
0.0
  0
LINE
  5
4FD
100
AcDbEntity
  8
0
370
    -3
390
0
  6
Continuous
100
AcDbLine
 10
-373.566219
 20
447.789788
 30
0.0
 11
-373.566219
 21
227.789788
 31
0.0
  0
ARC
  5
4FE
100
AcDbEntity
  8
0
370
    -3
390
0
  6
Continuous
100
AcDbCircle
 10
-272.566219
 20
441.789788
 30
0.0
 40
6.0
100
AcDbArc
 50
0.0
 51
90.0
  0
ARC
  5
4FF
100
AcDbEntity
  8
0
370
    -3
390
0
  6
Continuous
100
AcDbCircle
 10
-258.566219
 20
395.789788
 30
0.0
 40
8.0
100
AcDbArc
 50
180.0
 51
270.0
  0
ARC
  5
500
100
AcDbEntity
  8
0
370
    -3
390
0
  6
Continuous
100
AcDbCircle
 10
-354.566219
 20
390.789788
 30
0.0
 40
3.0
100
AcDbArc
 50
180.0
 51
270.0
  0
LINE
  5
501
100
AcDbEntity
  8
0
370
    -3
390
0
  6
Continuous
100
AcDbLine
 10
-229.607925
 20
387.789788
 30
0.0
 11
-354.566219
 21
387.789788
 31
0.0
  0
LINE
  5
502
100
AcDbEntity
  8
0
370
    -3
390
0
  6
Continuous
100
AcDbLine
 10
-269.566219
 20
416.789788
 30
0.0
 11
-373.566219
 21
416.789788
 31
0.0
  0
ARC
  5
503
100
AcDbEntity
  8
0
370
    -3
390
0
  6
Continuous
100
AcDbCircle
 10
-269.566219
 20
413.789788
 30
0.0
 40
3.0
100
AcDbArc
 50
0.0
 51
90.0
  0
LINE
  5
504
100
AcDbEntity
  8
0
370
    -3
390
0
  6
Continuous
100
AcDbLine
 10
-266.566219
 20
441.789788
 30
0.0
 11
-266.566219
 21
419.789788
 31
0.0
  0
ARC
  5
505
100
AcDbEntity
  8
0
370
    -3
390
0
  6
Continuous
100
AcDbCircle
 10
-269.566219
 20
419.789788
 30
0.0
 40
3.0
100
AcDbArc
 50
270.0
 51
0.0
  0
LINE
  5
506
100
AcDbEntity
  8
0
370
    -3
390
0
  6
Continuous
100
AcDbLine
 10
-266.566219
 20
419.789788
 30
0.0
 11
-266.566219
 21
395.789788
 31
0.0
  0
ARC
  5
507
100
AcDbEntity
  8
0
370
    -3
390
0
  6
Continuous
100
AcDbCircle
 10
-169.066219
 20
441.789788
 30
0.0
 40
6.0
100
AcDbArc
 50
0.0
 51
90.0
  0
ARC
  5
508
100
AcDbEntity
  8
0
370
    -3
390
0
  6
Continuous
100
AcDbCircle
 10
-169.066219
 20
373.789788
 30
0.0
 40
6.0
100
AcDbArc
 50
270.0
 51
0.0
  0
ARC
  5
509
100
AcDbEntity
  8
0
370
    -3
390
0
  6
Continuous
100
AcDbCircle
 10
-169.066219
 20
389.129534
 30
0.0
 40
6.0
100
AcDbArc
 50
270.0
 51
0.0
  0
LINE
  5
50A
100
AcDbEntity
  8
0
370
    -3
390
0
  6
Continuous
100
AcDbLine
 10
-163.066219
 20
377.129534
 30
0.0
 11
-163.066219
 21
373.789788
 31
0.0
  0
ARC
  5
50B
100
AcDbEntity
  8
0
370
    -3
390
0
  6
Continuous
100
AcDbCircle
 10
-169.066219
 20
377.129534
 30
0.0
 40
6.0
100
AcDbArc
 50
0.0
 51
90.0
  0
LINE
  5
50C
100
AcDbEntity
  8
0
370
    -3
390
0
  6
Continuous
100
AcDbLine
 10
-163.066219
 20
441.789788
 30
0.0
 11
-163.066219
 21
377.129534
 31
0.0
  0
LINE
  5
50D
100
AcDbEntity
  8
0
370
    -3
390
0
  6
Continuous
100
AcDbLine
 10
-169.066219
 20
447.789788
 30
0.0
 11
-567.066219
 21
447.789788
 31
0.0
  0
ARC
  5
50E
100
AcDbEntity
  8
0
370
    -3
390
0
  6
Continuous
100
AcDbCircle
 10
-567.066219
 20
441.789788
 30
0.0
 40
6.0
100
AcDbArc
 50
90.0
 51
180.0
  0
ARC
  5
50F
100
AcDbEntity
  8
0
370
    -3
390
0
  6
Continuous
100
AcDbCircle
 10
-551.600811
 20
380.466515
 30
0.0
 40
10.0
100
AcDbArc
 50
225.0
 51
269.134135
  0
LINE
  5
510
100
AcDbEntity
  8
0
370
    -3
390
0
  6
Continuous
100
AcDbLine
 10
-169.066219
 20
367.789788
 30
0.0
 11
-176.443442
 21
367.789788
 31
0.0
  0
LINE
  5
511
100
AcDbEntity
  8
0
370
    -3
390
0
  6
Continuous
100
AcDbLine
 10
-169.066219
 20
383.129534
 30
0.0
 11
-190.616295
 21
383.129534
 31
0.0
  0
LINE
  5
512
100
AcDbEntity
  8
0
370
    -3
390
0
  6
Continuous
100
AcDbLine
 10
-414.066219
 20
72.789788
 30
0.0
 11
-490.566219
 21
72.789788
 31
0.0
  0
ARC
  5
513
100
AcDbEntity
  8
0
370
    -3
390
0
  6
Continuous
100
AcDbCircle
 10
-169.066219
 20
78.450042
 30
0.0
 40
6.0
100
AcDbArc
 50
270.0
 51
0.0
  0
ARC
  5
514
100
AcDbEntity
  8
0
370
    -3
390
0
  6
Continuous
100
AcDbCircle
 10
-169.066219
 20
66.450042
 30
0.0
 40
6.0
100
AcDbArc
 50
0.0
 51
90.0
  0
LINE
  5
515
100
AcDbEntity
  8
0
370
    -3
390
0
  6
Continuous
100
AcDbLine
 10
-163.066219
 20
78.450042
 30
0.0
 11
-163.066219
 21
81.789788
 31
0.0
  0
LINE
  5
516
100
AcDbEntity
  8
0
370
    -3
390
0
  6
Continuous
100
AcDbLine
 10
-169.066219
 20
72.450042
 30
0.0
 11
-190.616295
 21
72.450042
 31
0.0
  0
ARC
  5
517
100
AcDbEntity
  8
0
370
    -3
390
0
  6
Continuous
100
AcDbCircle
 10
-169.066219
 20
81.789788
 30
0.0
 40
6.0
100
AcDbArc
 50
0.0
 51
90.0
  0
LINE
  5
518
100
AcDbEntity
  8
0
370
    -3
390
0
  6
Continuous
100
AcDbLine
 10
-163.066219
 20
13.789788
 30
0.0
 11
-163.066219
 21
78.450042
 31
0.0
  0
LINE
  5
519
100
AcDbEntity
  8
0
370
    -3
390
0
  6
Continuous
100
AcDbLine
 10
-169.066219
 20
87.789788
 30
0.0
 11
-176.443442
 21
87.789788
 31
0.0
  0
ARC
  5
51A
100
AcDbEntity
  8
0
370
    -3
390
0
  6
Continuous
100
AcDbCircle
 10
-269.566219
 20
35.789788
 30
0.0
 40
3.0
100
AcDbArc
 50
0.0
 51
90.0
  0
ARC
  5
51B
100
AcDbEntity
  8
0
370
    -3
390
0
  6
Continuous
100
AcDbCircle
 10
-269.566219
 20
41.789788
 30
0.0
 40
3.0
100
AcDbArc
 50
270.0
 51
0.0
  0
LINE
  5
51C
100
AcDbEntity
  8
0
370
    -3
390
0
  6
Continuous
100
AcDbLine
 10
-266.566219
 20
35.789788
 30
0.0
 11
-266.566219
 21
59.789788
 31
0.0
  0
LINE
  5
51D
100
AcDbEntity
  8
0
370
    -3
390
0
  6
Continuous
100
AcDbLine
 10
-269.566219
 20
38.789788
 30
0.0
 11
-373.566219
 21
38.789788
 31
0.0
  0
ARC
  5
51E
100
AcDbEntity
  8
0
370
    -3
390
0
  6
Continuous
100
AcDbCircle
 10
-258.566219
 20
59.789788
 30
0.0
 40
8.0
100
AcDbArc
 50
90.0
 51
180.0
  0
LINE
  5
51F
100
AcDbEntity
  8
0
370
    -3
390
0
  6
Continuous
100
AcDbLine
 10
-266.566219
 20
13.789788
 30
0.0
 11
-266.566219
 21
35.789788
 31
0.0
  0
LINE
  5
520
100
AcDbEntity
  8
0
370
    -3
390
0
  6
Continuous
100
AcDbLine
 10
-357.566219
 20
157.207594
 30
0.0
 11
-357.566219
 21
227.789788
 31
0.0
  0
ARC
  5
521
100
AcDbEntity
  8
0
370
    -3
390
0
  6
Continuous
100
AcDbCircle
 10
-336.566219
 20
154.207594
 30
0.0
 40
3.0
100
AcDbArc
 50
0.0
 51
90.0
  0
ARC
  5
522
100
AcDbEntity
  8
0
370
    -3
390
0
  6
Continuous
100
AcDbCircle
 10
-336.566219
 20
129.943007
 30
0.0
 40
3.0
100
AcDbArc
 50
270.0
 51
0.0
  0
LINE
  5
523
100
AcDbEntity
  8
0
370
    -3
390
0
  6
Continuous
100
AcDbLine
 10
-333.566219
 20
129.943007
 30
0.0
 11
-333.566219
 21
154.207594
 31
0.0
  0
LINE
  5
524
100
AcDbEntity
  8
0
370
    -3
390
0
  6
Continuous
100
AcDbLine
 10
-336.566219
 20
157.207594
 30
0.0
 11
-373.566219
 21
157.207594
 31
0.0
  0
LINE
  5
525
100
AcDbEntity
  8
0
370
    -3
390
0
  6
Continuous
100
AcDbLine
 10
-336.566219
 20
126.943007
 30
0.0
 11
-373.566219
 21
126.943007
 31
0.0
  0
LINE
  5
526
100
AcDbEntity
  8
0
370
    -3
390
0
  6
Continuous
100
AcDbLine
 10
-357.566219
 20
64.789788
 30
0.0
 11
-357.566219
 21
126.943007
 31
0.0
  0
ARC
  5
527
100
AcDbEntity
  8
0
370
    -3
390
0
  6
Continuous
100
AcDbCircle
 10
-354.566219
 20
64.789788
 30
0.0
 40
3.0
100
AcDbArc
 50
90.0
 51
180.0
  0
ARC
  5
528
100
AcDbEntity
  8
0
370
    -3
390
0
  6
Continuous
100
AcDbCircle
 10
-360.566219
 20
61.789788
 30
0.0
 40
3.0
100
AcDbArc
 50
270.0
 51
0.0
  0
LINE
  5
529
100
AcDbEntity
  8
0
370
    -3
390
0
  6
Continuous
100
AcDbLine
 10
-360.566219
 20
58.789788
 30
0.0
 11
-373.566219
 21
58.789788
 31
0.0
  0
LINE
  5
52A
100
AcDbEntity
  8
0
370
    -3
390
0
  6
Continuous
100
AcDbLine
 10
-357.566219
 20
61.789788
 30
0.0
 11
-357.566219
 21
64.789788
 31
0.0
  0
LINE
  5
52B
100
AcDbEntity
  8
0
370
    -3
390
0
  6
Continuous
100
AcDbLine
 10
-229.607925
 20
67.789788
 30
0.0
 11
-354.566219
 21
67.789788
 31
0.0
  0
LINE
  5
52C
100
AcDbEntity
  8
0
370
    -3
390
0
  6
Continuous
100
AcDbLine
 10
-163.066219
 20
163.55372
 30
0.0
 11
-163.066219
 21
227.789788
 31
0.0
  0
LINE
  5
52D
100
AcDbEntity
  8
0
370
    -3
390
0
  6
Continuous
100
AcDbLine
 10
-209.066219
 20
75.789788
 30
0.0
 11
-209.066219
 21
227.789788
 31
0.0
  0
LINE
  5
52E
100
AcDbEntity
  8
0
370
    -3
390
0
  6
Continuous
100
AcDbLine
 10
-181.066219
 20
137.789788
 30
0.0
 11
-201.066219
 21
137.789788
 31
0.0
  0
LINE
  5
52F
100
AcDbEntity
  8
0
370
    -3
390
0
  6
Continuous
100
AcDbLine
 10
-173.066219
 20
102.789788
 30
0.0
 11
-173.066219
 21
227.789788
 31
0.0
  0
LINE
  5
530
100
AcDbEntity
  8
0
370
    -3
390
0
  6
Continuous
100
AcDbLine
 10
-165.066219
 20
162.789788
 30
0.0
 11
-170.066219
 21
162.789788
 31
0.0
  0
ARC
  5
531
100
AcDbEntity
  8
0
370
    -3
390
0
  6
Continuous
100
AcDbCircle
 10
-165.066219
 20
165.789788
 30
0.0
 40
3.0
100
AcDbArc
 50
270.0
 51
311.810315
  0
ARC
  5
532
100
AcDbEntity
  8
0
370
    -3
390
0
  6
Continuous
100
AcDbCircle
 10
-170.066219
 20
159.789788
 30
0.0
 40
3.0
100
AcDbArc
 50
90.0
 51
180.0
  0
ARC
  5
533
100
AcDbEntity
  8
0
370
    -3
390
0
  6
Continuous
100
AcDbCircle
 10
-181.066219
 20
145.789788
 30
0.0
 40
8.0
100
AcDbArc
 50
270.0
 51
0.0
  0
ARC
  5
534
100
AcDbEntity
  8
0
370
    -3
390
0
  6
Continuous
100
AcDbCircle
 10
-201.066219
 20
129.789788
 30
0.0
 40
8.0
100
AcDbArc
 50
90.0
 51
180.0
  0
LINE
  5
535
100
AcDbEntity
  8
0
370
    -3
390
0
  6
Continuous
100
AcDbLine
 10
-183.066219
 20
222.789788
 30
0.0
 11
-204.066219
 21
222.789788
 31
0.0
  0
LINE
  5
536
100
AcDbEntity
  8
0
370
    -3
390
0
  6
Continuous
100
AcDbLine
 10
-178.066219
 20
217.789788
 30
0.0
 11
-178.066219
 21
227.789788
 31
0.0
  0
ARC
  5
537
100
AcDbEntity
  8
0
370
    -3
390
0
  6
Continuous
100
AcDbCircle
 10
-183.066219
 20
217.789788
 30
0.0
 40
5.0
100
AcDbArc
 50
0.0
 51
90.0
  0
ARC
  5
538
100
AcDbEntity
  8
0
370
    -3
390
0
  6
Continuous
100
AcDbCircle
 10
-204.066219
 20
217.789788
 30
0.0
 40
5.0
100
AcDbArc
 50
90.0
 51
180.0
  0
ARC
  5
539
100
AcDbEntity
  8
0
370
    -3
390
0
  6
Continuous
100
AcDbCircle
 10
-208.066219
 20
102.789788
 30
0.0
 40
35.0
100
AcDbArc
 50
270.0
 51
0.0
  0
ARC
  5
53A
100
AcDbEntity
  8
0
370
    -3
390
0
  6
Continuous
100
AcDbCircle
 10
-217.066219
 20
75.789788
 30
0.0
 40
8.0
100
AcDbArc
 50
270.0
 51
0.0
  0
LINE
  5
53B
100
AcDbEntity
  8
0
370
    -3
390
0
  6
Continuous
100
AcDbLine
 10
-229.607925
 20
67.789788
 30
0.0
 11
-208.066219
 21
67.789788
 31
0.0
  0
ARC
  5
53C
100
AcDbEntity
  8
0
370
    -3
390
0
  6
Continuous
100
AcDbCircle
 10
-543.066219
 20
47.789788
 30
0.0
 40
14.0
100
AcDbArc
 50
216.83921
 51
323.16079
  0
LINE
  5
53D
100
AcDbEntity
  8
0
370
    -3
390
0
  6
Continuous
100
AcDbLine
 10
-374.066219
 20
444.789788
 30
0.0
 11
-374.066219
 21
227.789788
 31
0.0
  0
LINE
  5
53E
100
AcDbEntity
  8
0
370
    -3
390
0
  6
CENTER
100
AcDbLine
 10
-543.066219
 20
426.789788
 30
0.0
 11
-543.066219
 21
388.789788
 31
0.0
  0
LINE
  5
53F
100
AcDbEntity
  8
0
370
    -3
390
0
  6
CENTER
100
AcDbLine
 10
-562.066219
 20
407.789788
 30
0.0
 11
-524.066219
 21
407.789788
 31
0.0
  0
CIRCLE
  5
540
100
AcDbEntity
  8
0
370
    -3
390
0
  6
Continuous
100
AcDbCircle
 10
-543.066219
 20
407.789788
 30
0.0
 40
14.0
  0
ARC
  5
541
100
AcDbEntity
  8
0
370
    -3
390
0
  6
Continuous
100
AcDbCircle
 10
-513.066219
 20
421.789788
 30
0.0
 40
10.0
100
AcDbArc
 50
90.0
 51
180.0
  0
LINE
  5
542
100
AcDbEntity
  8
0
370
    -3
390
0
  6
Continuous
100
AcDbLine
 10
-513.066219
 20
447.789788
 30
0.0
 11
-513.066219
 21
431.789788
 31
0.0
  0
LINE
  5
543
100
AcDbEntity
  8
0
370
    -3
390
0
  6
Continuous
100
AcDbLine
 10
-418.066191
 20
431.789788
 30
0.0
 11
-513.066219
 21
431.789788
 31
0.0
  0
LINE
  5
544
100
AcDbEntity
  8
0
370
    -3
390
0
  6
Continuous
100
AcDbLine
 10
-573.066219
 20
441.789788
 30
0.0
 11
-573.066219
 21
391.931923
 31
0.0
  0
ARC
  5
545
100
AcDbEntity
  8
0
370
    -3
390
0
  6
Continuous
100
AcDbCircle
 10
-563.066219
 20
391.931923
 30
0.0
 40
10.0
100
AcDbArc
 50
180.0
 51
225.0
  0
ARC
  5
546
100
AcDbEntity
  8
0
370
    -3
390
0
  6
Continuous
100
AcDbCircle
 10
-563.924083
 20
392.789788
 30
0.0
 40
10.0
100
AcDbArc
 50
225.0
 51
270.0
  0
LINE
  5
547
100
AcDbEntity
  8
0
370
    -3
390
0
  6
Continuous
100
AcDbLine
 10
-570.137286
 20
384.860855
 30
0.0
 11
-558.671879
 21
373.395448
 31
0.0
  0
LINE
  5
548
100
AcDbEntity
  8
0
370
    -3
390
0
  6
Continuous
100
AcDbLine
 10
-414.066219
 20
382.789788
 30
0.0
 11
-563.924083
 21
382.789788
 31
0.0
  0
LINE
  5
549
100
AcDbEntity
  8
0
370
    -3
390
0
  6
Continuous
100
AcDbLine
 10
-418.066191
 20
23.789788
 30
0.0
 11
-497.066219
 21
23.789788
 31
0.0
  0
ARC
  5
54A
100
AcDbEntity
  8
0
370
    -3
390
0
  6
Continuous
100
AcDbCircle
 10
-513.066219
 20
33.789788
 30
0.0
 40
10.0
100
AcDbArc
 50
180.0
 51
270.0
  0
LINE
  5
54B
100
AcDbEntity
  8
0
370
    -3
390
0
  6
Continuous
100
AcDbLine
 10
-497.066219
 20
23.789788
 30
0.0
 11
-513.066219
 21
23.789788
 31
0.0
  0
LINE
  5
54C
100
AcDbEntity
  8
0
370
    -3
390
0
  6
Continuous
100
AcDbLine
 10
-490.566219
 20
72.789788
 30
0.0
 11
-563.924083
 21
72.789788
 31
0.0
  0
LINE
  5
54D
100
AcDbEntity
  8
0
370
    -3
390
0
  6
Continuous
100
AcDbLine
 10
-573.066219
 20
58.319788
 30
0.0
 11
-573.066219
 21
63.647652
 31
0.0
  0
ARC
  5
54E
100
AcDbEntity
  8
0
370
    -3
390
0
  6
Continuous
100
AcDbCircle
 10
-563.924083
 20
62.789788
 30
0.0
 40
10.0
100
AcDbArc
 50
90.0
 51
135.0
  0
ARC
  5
54F
100
AcDbEntity
  8
0
370
    -3
390
0
  6
Continuous
100
AcDbCircle
 10
-563.066219
 20
63.647652
 30
0.0
 40
10.0
100
AcDbArc
 50
135.0
 51
180.0
  0
LINE
  5
550
100
AcDbEntity
  8
0
370
    -3
390
0
  6
Continuous
100
AcDbLine
 10
-573.066219
 20
13.789788
 30
0.0
 11
-573.066219
 21
39.395788
 31
0.0
  0
LINE
  5
551
100
AcDbEntity
  8
0
370
    -3
390
0
  6
Continuous
100
AcDbLine
 10
-573.066219
 20
39.395788
 30
0.0
 11
-573.066219
 21
58.319788
 31
0.0
  0
LINE
  5
552
100
AcDbEntity
  8
0
370
    -3
390
0
  6
Continuous
100
AcDbLine
 10
-570.137286
 20
70.71872
 30
0.0
 11
-558.671879
 21
82.184128
 31
0.0
  0
ARC
  5
553
100
AcDbEntity
  8
0
370
    -3
390
0
  6
Continuous
100
AcDbCircle
 10
-543.066219
 20
47.789788
 30
0.0
 40
14.0
100
AcDbArc
 50
323.16079
 51
216.83921
  0
LINE
  5
554
100
AcDbEntity
  8
0
370
    -3
390
0
  6
Continuous
100
AcDbLine
 10
-433.066219
 20
119.099838
 30
0.0
 11
-433.066219
 21
113.198121
 31
0.0
  0
LINE
  5
555
100
AcDbEntity
  8
0
370
    -3
390
0
  6
Continuous
100
AcDbLine
 10
-433.066219
 20
342.381454
 30
0.0
 11
-433.066219
 21
336.479737
 31
0.0
  0
LINE
  5
556
100
AcDbEntity
  8
0
370
    -3
390
0
  6
Continuous
100
AcDbLine
 10
-433.066219
 20
323.35315
 30
0.0
 11
-433.066219
 21
305.343249
 31
0.0
  0
LINE
  5
557
100
AcDbEntity
  8
0
370
    -3
390
0
  6
Continuous
100
AcDbLine
 10
-433.066219
 20
305.343249
 30
0.0
 11
-433.066219
 21
298.575398
 31
0.0
  0
LINE
  5
558
100
AcDbEntity
  8
0
370
    -3
390
0
  6
Continuous
100
AcDbLine
 10
-433.066219
 20
150.236326
 30
0.0
 11
-433.066219
 21
132.226425
 31
0.0
  0
LINE
  5
559
100
AcDbEntity
  8
0
370
    -3
390
0
  6
Continuous
100
AcDbLine
 10
-414.066219
 20
298.575398
 30
0.0
 11
-414.066219
 21
270.140281
 31
0.0
  0
LINE
  5
55A
100
AcDbEntity
  8
0
370
    -3
390
0
  6
Continuous
100
AcDbLine
 10
-414.066219
 20
342.381454
 30
0.0
 11
-414.066219
 21
336.479737
 31
0.0
  0
LINE
  5
55B
100
AcDbEntity
  8
0
370
    -3
390
0
  6
Continuous
100
AcDbLine
 10
-414.066219
 20
367.304506
 30
0.0
 11
-414.066219
 21
342.381454
 31
0.0
  0
LINE
  5
55C
100
AcDbEntity
  8
0
370
    -3
390
0
  6
Continuous
100
AcDbLine
 10
-414.066219
 20
371.547147
 30
0.0
 11
-414.066219
 21
367.304506
 31
0.0
  0
LINE
  5
55D
100
AcDbEntity
  8
0
370
    -3
390
0
  6
Continuous
100
AcDbLine
 10
-414.066219
 20
374.032428
 30
0.0
 11
-414.066219
 21
371.547147
 31
0.0
  0
LINE
  5
55E
100
AcDbEntity
  8
0
370
    -3
390
0
  6
Continuous
100
AcDbLine
 10
-414.066219
 20
375.789788
 30
0.0
 11
-414.066219
 21
374.032428
 31
0.0
  0
LINE
  5
55F
100
AcDbEntity
  8
0
370
    -3
390
0
  6
Continuous
100
AcDbLine
 10
-414.066219
 20
81.547147
 30
0.0
 11
-414.066219
 21
79.789788
 31
0.0
  0
LINE
  5
560
100
AcDbEntity
  8
0
370
    -3
390
0
  6
Continuous
100
AcDbLine
 10
-414.066219
 20
84.032428
 30
0.0
 11
-414.066219
 21
81.547147
 31
0.0
  0
LINE
  5
561
100
AcDbEntity
  8
0
370
    -3
390
0
  6
Continuous
100
AcDbLine
 10
-414.066219
 20
88.275069
 30
0.0
 11
-414.066219
 21
84.032428
 31
0.0
  0
LINE
  5
562
100
AcDbEntity
  8
0
370
    -3
390
0
  6
Continuous
100
AcDbLine
 10
-414.066219
 20
113.198121
 30
0.0
 11
-414.066219
 21
88.275069
 31
0.0
  0
LINE
  5
563
100
AcDbEntity
  8
0
370
    -3
390
0
  6
Continuous
100
AcDbLine
 10
-414.066219
 20
119.099838
 30
0.0
 11
-414.066219
 21
113.198121
 31
0.0
  0
LINE
  5
564
100
AcDbEntity
  8
0
370
    -3
390
0
  6
Continuous
100
AcDbLine
 10
-433.066219
 20
336.479737
 30
0.0
 11
-414.066219
 21
336.479737
 31
0.0
  0
LINE
  5
565
100
AcDbEntity
  8
0
370
    -3
390
0
  6
Continuous
100
AcDbLine
 10
-433.066219
 20
342.381454
 30
0.0
 11
-414.066219
 21
342.381454
 31
0.0
  0
LINE
  5
566
100
AcDbEntity
  8
0
370
    -3
390
0
  6
Continuous
100
AcDbLine
 10
-433.066219
 20
113.198121
 30
0.0
 11
-414.066219
 21
113.198121
 31
0.0
  0
LINE
  5
567
100
AcDbEntity
  8
0
370
    -3
390
0
  6
Continuous
100
AcDbLine
 10
-433.066219
 20
119.099838
 30
0.0
 11
-414.066219
 21
119.099838
 31
0.0
  0
LINE
  5
568
100
AcDbEntity
  8
0
370
    -3
390
0
  6
Continuous
100
AcDbLine
 10
-414.066219
 20
298.575398
 30
0.0
 11
-433.066219
 21
298.575398
 31
0.0
  0
LINE
  5
569
100
AcDbEntity
  8
0
370
    -3
390
0
  6
Continuous
100
AcDbLine
 10
-591.066219
 20
283.021707
 30
0.0
 11
-559.066219
 21
276.76989
 31
0.0
  0
LINE
  5
56A
100
AcDbEntity
  8
0
370
    -3
390
0
  6
Continuous
100
AcDbLine
 10
-559.066219
 20
273.758126
 30
0.0
 11
-591.066219
 21
280.009944
 31
0.0
  0
LINE
  5
56B
100
AcDbEntity
  8
0
370
    -3
390
0
  6
Continuous
100
AcDbLine
 10
-591.066219
 20
283.021707
 30
0.0
 11
-591.066219
 21
280.009944
 31
0.0
  0
LINE
  5
56C
100
AcDbEntity
  8
0
370
    -3
390
0
  6
Continuous
100
AcDbLine
 10
-559.066219
 20
276.76989
 30
0.0
 11
-559.066219
 21
271.054607
 31
0.0
  0
LINE
  5
56D
100
AcDbEntity
  8
0
370
    -3
390
0
  6
Continuous
100
AcDbLine
 10
-559.066219
 20
285.994717
 30
0.0
 11
-559.066219
 21
292.453284
 31
0.0
  0
LINE
  5
56E
100
AcDbEntity
  8
0
370
    -3
390
0
  6
Continuous
100
AcDbLine
 10
-591.066219
 20
300.780583
 30
0.0
 11
-559.066219
 21
292.453284
 31
0.0
  0
LINE
  5
56F
100
AcDbEntity
  8
0
370
    -3
390
0
  6
Continuous
100
AcDbLine
 10
-559.066219
 20
289.595752
 30
0.0
 11
-591.066219
 21
297.92305
 31
0.0
  0
LINE
  5
570
100
AcDbEntity
  8
0
370
    -3
390
0
  6
Continuous
100
AcDbLine
 10
-591.066219
 20
297.92305
 30
0.0
 11
-591.066219
 21
300.780583
 31
0.0
  0
LINE
  5
571
100
AcDbEntity
  8
0
370
    -3
390
0
  6
Continuous
100
AcDbLine
 10
-636.066219
 20
317.451334
 30
0.0
 11
-604.066219
 21
307.172695
 31
0.0
  0
LINE
  5
572
100
AcDbEntity
  8
0
370
    -3
390
0
  6
Continuous
100
AcDbLine
 10
-604.066219
 20
304.511993
 30
0.0
 11
-636.066219
 21
314.790631
 31
0.0
  0
LINE
  5
573
100
AcDbEntity
  8
0
370
    -3
390
0
  6
Continuous
100
AcDbLine
 10
-604.066219
 20
307.172695
 30
0.0
 11
-604.066219
 21
300.780583
 31
0.0
  0
LINE
  5
574
100
AcDbEntity
  8
0
370
    -3
390
0
  6
Continuous
100
AcDbLine
 10
-636.066219
 20
314.790631
 30
0.0
 11
-636.066219
 21
317.451334
 31
0.0
  0
LINE
  5
575
100
AcDbEntity
  8
0
370
    -3
390
0
  6
Continuous
100
AcDbLine
 10
-636.066219
 20
333.823408
 30
0.0
 11
-604.066219
 21
321.624811
 31
0.0
  0
LINE
  5
576
100
AcDbEntity
  8
0
370
    -3
390
0
  6
Continuous
100
AcDbLine
 10
-604.066219
 20
319.218924
 30
0.0
 11
-636.066219
 21
331.417521
 31
0.0
  0
LINE
  5
577
100
AcDbEntity
  8
0
370
    -3
390
0
  6
Continuous
100
AcDbLine
 10
-604.066219
 20
321.624811
 30
0.0
 11
-604.066219
 21
313.943795
 31
0.0
  0
LINE
  5
578
100
AcDbEntity
  8
0
370
    -3
390
0
  6
Continuous
100
AcDbLine
 10
-604.066219
 20
313.943795
 30
0.0
 11
-625.146364
 21
313.943795
 31
0.0
  0
LINE
  5
579
100
AcDbEntity
  8
0
370
    -3
390
0
  6
Continuous
100
AcDbLine
 10
-636.066219
 20
331.417521
 30
0.0
 11
-636.066219
 21
333.823408
 31
0.0
  0
LINE
  5
57A
100
AcDbEntity
  8
0
370
    -3
390
0
  6
Continuous
100
AcDbLine
 10
-636.066219
 20
348.381218
 30
0.0
 11
-604.066219
 21
334.471384
 31
0.0
  0
LINE
  5
57B
100
AcDbEntity
  8
0
370
    -3
390
0
  6
Continuous
100
AcDbLine
 10
-604.066219
 20
332.361478
 30
0.0
 11
-636.066219
 21
346.271311
 31
0.0
  0
LINE
  5
57C
100
AcDbEntity
  8
0
370
    -3
390
0
  6
Continuous
100
AcDbLine
 10
-604.066219
 20
334.471384
 30
0.0
 11
-604.066219
 21
326.346346
 31
0.0
  0
LINE
  5
57D
100
AcDbEntity
  8
0
370
    -3
390
0
  6
Continuous
100
AcDbLine
 10
-604.066219
 20
326.346346
 30
0.0
 11
-616.451996
 21
326.346346
 31
0.0
  0
LINE
  5
57E
100
AcDbEntity
  8
0
370
    -3
390
0
  6
Continuous
100
AcDbLine
 10
-636.066219
 20
348.381218
 30
0.0
 11
-636.066219
 21
346.271311
 31
0.0
  0
LINE
  5
57F
100
AcDbEntity
  8
0
370
    -3
390
0
  6
Continuous
100
AcDbLine
 10
-591.066219
 20
172.557868
 30
0.0
 11
-559.066219
 21
178.809686
 31
0.0
  0
LINE
  5
580
100
AcDbEntity
  8
0
370
    -3
390
0
  6
Continuous
100
AcDbLine
 10
-559.066219
 20
181.821449
 30
0.0
 11
-591.066219
 21
175.569632
 31
0.0
  0
LINE
  5
581
100
AcDbEntity
  8
0
370
    -3
390
0
  6
Continuous
100
AcDbLine
 10
-591.066219
 20
172.557868
 30
0.0
 11
-591.066219
 21
175.569632
 31
0.0
  0
LINE
  5
582
100
AcDbEntity
  8
0
370
    -3
390
0
  6
Continuous
100
AcDbLine
 10
-559.066219
 20
178.809686
 30
0.0
 11
-559.066219
 21
184.524969
 31
0.0
  0
LINE
  5
583
100
AcDbEntity
  8
0
370
    -3
390
0
  6
Continuous
100
AcDbLine
 10
-591.066219
 20
157.656525
 30
0.0
 11
-591.066219
 21
154.798993
 31
0.0
  0
LINE
  5
584
100
AcDbEntity
  8
0
370
    -3
390
0
  6
Continuous
100
AcDbLine
 10
-636.066219
 20
138.128242
 30
0.0
 11
-604.066219
 21
148.40688
 31
0.0
  0
LINE
  5
585
100
AcDbEntity
  8
0
370
    -3
390
0
  6
Continuous
100
AcDbLine
 10
-604.066219
 20
151.067583
 30
0.0
 11
-636.066219
 21
140.788945
 31
0.0
  0
LINE
  5
586
100
AcDbEntity
  8
0
370
    -3
390
0
  6
Continuous
100
AcDbLine
 10
-604.066219
 20
148.40688
 30
0.0
 11
-604.066219
 21
154.798993
 31
0.0
  0
LINE
  5
587
100
AcDbEntity
  8
0
370
    -3
390
0
  6
Continuous
100
AcDbLine
 10
-636.066219
 20
140.788945
 30
0.0
 11
-636.066219
 21
138.128242
 31
0.0
  0
LINE
  5
588
100
AcDbEntity
  8
0
370
    -3
390
0
  6
Continuous
100
AcDbLine
 10
-636.066219
 20
121.756168
 30
0.0
 11
-604.066219
 21
133.954764
 31
0.0
  0
LINE
  5
589
100
AcDbEntity
  8
0
370
    -3
390
0
  6
Continuous
100
AcDbLine
 10
-604.066219
 20
136.360651
 30
0.0
 11
-636.066219
 21
124.162055
 31
0.0
  0
LINE
  5
58A
100
AcDbEntity
  8
0
370
    -3
390
0
  6
Continuous
100
AcDbLine
 10
-604.066219
 20
133.954764
 30
0.0
 11
-604.066219
 21
141.635781
 31
0.0
  0
LINE
  5
58B
100
AcDbEntity
  8
0
370
    -3
390
0
  6
Continuous
100
AcDbLine
 10
-604.066219
 20
141.635781
 30
0.0
 11
-625.146364
 21
141.635781
 31
0.0
  0
LINE
  5
58C
100
AcDbEntity
  8
0
370
    -3
390
0
  6
Continuous
100
AcDbLine
 10
-636.066219
 20
124.162055
 30
0.0
 11
-636.066219
 21
121.756168
 31
0.0
  0
LINE
  5
58D
100
AcDbEntity
  8
0
370
    -3
390
0
  6
Continuous
100
AcDbLine
 10
-636.066219
 20
107.198358
 30
0.0
 11
-604.066219
 21
121.108191
 31
0.0
  0
LINE
  5
58E
100
AcDbEntity
  8
0
370
    -3
390
0
  6
Continuous
100
AcDbLine
 10
-604.066219
 20
123.218098
 30
0.0
 11
-636.066219
 21
109.308264
 31
0.0
  0
LINE
  5
58F
100
AcDbEntity
  8
0
370
    -3
390
0
  6
Continuous
100
AcDbLine
 10
-604.066219
 20
121.108191
 30
0.0
 11
-604.066219
 21
129.23323
 31
0.0
  0
LINE
  5
590
100
AcDbEntity
  8
0
370
    -3
390
0
  6
Continuous
100
AcDbLine
 10
-604.066219
 20
129.23323
 30
0.0
 11
-616.451996
 21
129.23323
 31
0.0
  0
LINE
  5
591
100
AcDbEntity
  8
0
370
    -3
390
0
  6
Continuous
100
AcDbLine
 10
-636.066219
 20
107.198358
 30
0.0
 11
-636.066219
 21
109.308264
 31
0.0
  0
LINE
  5
592
100
AcDbEntity
  8
0
370
    -3
390
0
  6
Continuous
100
AcDbLine
 10
-636.066219
 20
94.703901
 30
0.0
 11
-604.066219
 21
110.08697
 31
0.0
  0
LINE
  5
593
100
AcDbEntity
  8
0
370
    -3
390
0
  6
Continuous
100
AcDbLine
 10
-604.066219
 20
111.864795
 30
0.0
 11
-636.066219
 21
96.481726
 31
0.0
  0
LINE
  5
594
100
AcDbEntity
  8
0
370
    -3
390
0
  6
Continuous
100
AcDbLine
 10
-604.066219
 20
110.08697
 30
0.0
 11
-604.066219
 21
118.517009
 31
0.0
  0
LINE
  5
595
100
AcDbEntity
  8
0
370
    -3
390
0
  6
Continuous
100
AcDbLine
 10
-604.066219
 20
118.517009
 30
0.0
 11
-610.027313
 21
118.517009
 31
0.0
  0
LINE
  5
596
100
AcDbEntity
  8
0
370
    -3
390
0
  6
Continuous
100
AcDbLine
 10
-636.066219
 20
94.703901
 30
0.0
 11
-636.066219
 21
96.481726
 31
0.0
  0
LINE
  5
597
100
AcDbEntity
  8
0
370
    -3
390
0
  6
Continuous
100
AcDbLine
 10
-591.066219
 20
69.242897
 30
0.0
 11
-559.066219
 21
87.704345
 31
0.0
  0
LINE
  5
598
100
AcDbEntity
  8
0
370
    -3
390
0
  6
Continuous
100
AcDbLine
 10
-559.066219
 20
87.495055
 30
0.0
 11
-591.066219
 21
69.033607
 31
0.0
  0
LINE
  5
599
100
AcDbEntity
  8
0
370
    -3
390
0
  6
Continuous
100
AcDbLine
 10
-591.066219
 20
69.242897
 30
0.0
 11
-591.066219
 21
69.033607
 31
0.0
  0
LINE
  5
59A
100
AcDbEntity
  8
0
370
    -3
390
0
  6
Continuous
100
AcDbLine
 10
-591.066219
 20
76.713594
 30
0.0
 11
-591.066219
 21
77.749824
 31
0.0
  0
LINE
  5
59B
100
AcDbEntity
  8
0
370
    -3
390
0
  6
Continuous
100
AcDbLine
 10
-591.066219
 20
76.721217
 30
0.0
 11
-559.066219
 21
94.240429
 31
0.0
  0
LINE
  5
59C
100
AcDbEntity
  8
0
370
    -3
390
0
  6
Continuous
100
AcDbLine
 10
-591.066219
 20
77.749824
 30
0.0
 11
-559.066219
 21
95.269035
 31
0.0
  0
LINE
  5
59D
100
AcDbEntity
  8
0
370
    -3
390
0
  6
Continuous
100
AcDbLine
 10
-591.066219
 20
71.532784
 30
0.0
 11
-591.066219
 21
72.157073
 31
0.0
  0
LINE
  5
59E
100
AcDbEntity
  8
0
370
    -3
390
0
  6
Continuous
100
AcDbLine
 10
-559.066219
 20
89.686247
 30
0.0
 11
-591.066219
 21
71.54068
 31
0.0
  0
LINE
  5
59F
100
AcDbEntity
  8
0
370
    -3
390
0
  6
Continuous
100
AcDbLine
 10
-591.066219
 20
72.164969
 30
0.0
 11
-559.066219
 21
90.310536
 31
0.0
  0
ARC
  5
5A0
100
AcDbEntity
  8
0
370
    -3
390
0
  6
Continuous
100
AcDbCircle
 10
-684.066219
 20
227.789788
 30
0.0
 40
5.0
100
AcDbArc
 50
270.0
 51
90.0
  0
LINE
  5
5A1
100
AcDbEntity
  8
0
370
    -3
390
0
  6
Continuous
100
AcDbLine
 10
-685.066219
 20
208.789788
 30
0.0
 11
-685.066219
 21
222.789788
 31
0.0
  0
ARC
  5
5A2
100
AcDbEntity
  8
0
370
    -3
390
0
  6
Continuous
100
AcDbCircle
 10
-686.066219
 20
208.789788
 30
0.0
 40
1.0
100
AcDbArc
 50
270.0
 51
0.0
  0
ARC
  5
5A3
100
AcDbEntity
  8
0
370
    -3
390
0
  6
Continuous
100
AcDbCircle
 10
-686.066219
 20
246.789788
 30
0.0
 40
1.0
100
AcDbArc
 50
0.0
 51
90.0
  0
LINE
  5
5A4
100
AcDbEntity
  8
0
370
    -3
390
0
  6
Continuous
100
AcDbLine
 10
-685.066219
 20
232.789788
 30
0.0
 11
-685.066219
 21
246.789788
 31
0.0
  0
LINE
  5
5A5
100
AcDbEntity
  8
0
370
    -3
390
0
  6
Continuous
100
AcDbLine
 10
-591.066219
 20
371.092995
 30
0.0
 11
-591.066219
 21
369.677671
 31
0.0
  0
LINE
  5
5A6
100
AcDbEntity
  8
0
370
    -3
390
0
  6
Continuous
100
AcDbLine
 10
-591.066219
 20
378.865982
 30
0.0
 11
-591.066219
 21
377.829752
 31
0.0
  0
LINE
  5
5A7
100
AcDbEntity
  8
0
370
    -3
390
0
  6
Continuous
100
AcDbLine
 10
-591.066219
 20
384.046792
 30
0.0
 11
-591.066219
 21
383.422503
 31
0.0
  0
LINE
  5
5A8
100
AcDbEntity
  8
0
370
    -3
390
0
  6
Continuous
100
AcDbLine
 10
-591.066219
 20
386.336678
 30
0.0
 11
-591.066219
 21
386.545968
 31
0.0
  0
LINE
  5
5A9
100
AcDbEntity
  8
0
370
    -3
390
0
  6
Continuous
100
AcDbLine
 10
-577.066219
 20
378.469085
 30
0.0
 11
-577.066219
 21
379.789788
 31
0.0
  0
LINE
  5
5AA
100
AcDbEntity
  8
0
370
    -3
390
0
  6
Continuous
100
AcDbLine
 10
-584.555474
 20
382.789788
 30
0.0
 11
-580.066219
 21
382.789788
 31
0.0
  0
LINE
  5
5AB
100
AcDbEntity
  8
0
370
    -3
390
0
  6
Continuous
100
AcDbLine
 10
-580.066219
 20
382.789788
 30
0.0
 11
-577.066219
 21
379.789788
 31
0.0
  0
LINE
  5
5AC
100
AcDbEntity
  8
0
370
    -3
390
0
  6
Continuous
100
AcDbLine
 10
-544.066219
 20
330.738428
 30
0.0
 11
-529.066219
 21
330.738428
 31
0.0
  0
LINE
  5
5AD
100
AcDbEntity
  8
0
370
    -3
390
0
  6
Continuous
100
AcDbLine
 10
-544.066219
 20
181.130201
 30
0.0
 11
-529.066219
 21
181.130201
 31
0.0
  0
LINE
  5
5AE
100
AcDbEntity
  8
0
370
    -3
390
0
  6
Continuous
100
AcDbLine
 10
-544.066219
 20
175.873769
 30
0.0
 11
-529.066219
 21
175.873769
 31
0.0
  0
LINE
  5
5AF
100
AcDbEntity
  8
0
370
    -3
390
0
  6
Continuous
100
AcDbLine
 10
-544.066219
 20
175.873769
 30
0.0
 11
-544.066219
 21
158.279326
 31
0.0
  0
LINE
  5
5B0
100
AcDbEntity
  8
0
370
    -3
390
0
  6
Continuous
100
AcDbLine
 10
-544.066219
 20
158.279326
 30
0.0
 11
-529.066219
 21
158.279326
 31
0.0
  0
LINE
  5
5B1
100
AcDbEntity
  8
0
370
    -3
390
0
  6
Continuous
100
AcDbLine
 10
-544.066219
 20
158.279326
 30
0.0
 11
-544.066219
 21
154.818493
 31
0.0
  0
LINE
  5
5B2
100
AcDbEntity
  8
0
370
    -3
390
0
  6
Continuous
100
AcDbLine
 10
-544.066219
 20
154.818493
 30
0.0
 11
-529.066219
 21
154.818493
 31
0.0
  0
LINE
  5
5B3
100
AcDbEntity
  8
0
370
    -3
390
0
  6
Continuous
100
AcDbLine
 10
-544.066219
 20
154.818493
 30
0.0
 11
-544.066219
 21
139.503322
 31
0.0
  0
LINE
  5
5B4
100
AcDbEntity
  8
0
370
    -3
390
0
  6
Continuous
100
AcDbLine
 10
-544.066219
 20
139.503322
 30
0.0
 11
-529.066219
 21
139.503322
 31
0.0
  0
LINE
  5
5B5
100
AcDbEntity
  8
0
370
    -3
390
0
  6
Continuous
100
AcDbLine
 10
-544.066219
 20
139.503322
 30
0.0
 11
-544.066219
 21
138.143318
 31
0.0
  0
LINE
  5
5B6
100
AcDbEntity
  8
0
370
    -3
390
0
  6
Continuous
100
AcDbLine
 10
-544.066219
 20
138.143318
 30
0.0
 11
-544.066219
 21
94.289788
 31
0.0
  0
LINE
  5
5B7
100
AcDbEntity
  8
0
370
    -3
390
0
  6
Continuous
100
AcDbLine
 10
-544.066219
 20
94.289788
 30
0.0
 11
-544.066219
 21
84.254475
 31
0.0
  0
LINE
  5
5B8
100
AcDbEntity
  8
0
370
    -3
390
0
  6
Continuous
100
AcDbLine
 10
-544.066219
 20
84.254475
 30
0.0
 11
-529.066219
 21
84.254475
 31
0.0
  0
LINE
  5
5B9
100
AcDbEntity
  8
0
370
    -3
390
0
  6
Continuous
100
AcDbLine
 10
-544.066219
 20
84.254475
 30
0.0
 11
-544.066219
 21
83.391667
 31
0.0
  0
LINE
  5
5BA
100
AcDbEntity
  8
0
370
    -3
390
0
  6
Continuous
100
AcDbLine
 10
-544.066219
 20
371.864214
 30
0.0
 11
-544.066219
 21
372.187909
 31
0.0
  0
LINE
  5
5BB
100
AcDbEntity
  8
0
370
    -3
390
0
  6
Continuous
100
AcDbLine
 10
-544.066219
 20
371.864214
 30
0.0
 11
-529.066219
 21
371.864214
 31
0.0
  0
LINE
  5
5BC
100
AcDbEntity
  8
0
370
    -3
390
0
  6
Continuous
100
AcDbLine
 10
-544.066219
 20
371.864214
 30
0.0
 11
-544.066219
 21
363.021995
 31
0.0
  0
LINE
  5
5BD
100
AcDbEntity
  8
0
370
    -3
390
0
  6
Continuous
100
AcDbLine
 10
-544.066219
 20
363.021995
 30
0.0
 11
-529.066219
 21
363.021995
 31
0.0
  0
LINE
  5
5BE
100
AcDbEntity
  8
0
370
    -3
390
0
  6
Continuous
100
AcDbLine
 10
-544.066219
 20
363.021995
 30
0.0
 11
-544.066219
 21
359.755269
 31
0.0
  0
LINE
  5
5BF
100
AcDbEntity
  8
0
370
    -3
390
0
  6
Continuous
100
AcDbLine
 10
-544.066219
 20
359.755269
 30
0.0
 11
-529.066219
 21
359.755269
 31
0.0
  0
LINE
  5
5C0
100
AcDbEntity
  8
0
370
    -3
390
0
  6
Continuous
100
AcDbLine
 10
-544.066219
 20
359.755269
 30
0.0
 11
-544.066219
 21
335.85197
 31
0.0
  0
LINE
  5
5C1
100
AcDbEntity
  8
0
370
    -3
390
0
  6
Continuous
100
AcDbLine
 10
-544.066219
 20
335.85197
 30
0.0
 11
-529.066219
 21
335.85197
 31
0.0
  0
LINE
  5
5C2
100
AcDbEntity
  8
0
370
    -3
390
0
  6
Continuous
100
AcDbLine
 10
-529.066219
 20
335.85197
 30
0.0
 11
-529.066219
 21
330.738428
 31
0.0
  0
LINE
  5
5C3
100
AcDbEntity
  8
0
370
    -3
390
0
  6
Continuous
100
AcDbLine
 10
-529.066219
 20
330.738428
 30
0.0
 11
-529.066219
 21
181.130201
 31
0.0
  0
LINE
  5
5C4
100
AcDbEntity
  8
0
370
    -3
390
0
  6
Continuous
100
AcDbLine
 10
-529.066219
 20
181.130201
 30
0.0
 11
-529.066219
 21
175.873769
 31
0.0
  0
LINE
  5
5C5
100
AcDbEntity
  8
0
370
    -3
390
0
  6
Continuous
100
AcDbLine
 10
-529.066219
 20
175.873769
 30
0.0
 11
-529.066219
 21
158.279326
 31
0.0
  0
LINE
  5
5C6
100
AcDbEntity
  8
0
370
    -3
390
0
  6
Continuous
100
AcDbLine
 10
-529.066219
 20
158.279326
 30
0.0
 11
-529.066219
 21
154.818493
 31
0.0
  0
LINE
  5
5C7
100
AcDbEntity
  8
0
370
    -3
390
0
  6
Continuous
100
AcDbLine
 10
-529.066219
 20
154.818493
 30
0.0
 11
-529.066219
 21
139.503322
 31
0.0
  0
LINE
  5
5C8
100
AcDbEntity
  8
0
370
    -3
390
0
  6
Continuous
100
AcDbLine
 10
-529.066219
 20
139.503322
 30
0.0
 11
-529.066219
 21
138.143318
 31
0.0
  0
LINE
  5
5C9
100
AcDbEntity
  8
0
370
    -3
390
0
  6
Continuous
100
AcDbLine
 10
-529.066219
 20
138.143318
 30
0.0
 11
-529.066219
 21
94.289788
 31
0.0
  0
LINE
  5
5CA
100
AcDbEntity
  8
0
370
    -3
390
0
  6
Continuous
100
AcDbLine
 10
-529.066219
 20
94.289788
 30
0.0
 11
-529.066219
 21
84.254475
 31
0.0
  0
LINE
  5
5CB
100
AcDbEntity
  8
0
370
    -3
390
0
  6
Continuous
100
AcDbLine
 10
-529.066219
 20
84.254475
 30
0.0
 11
-529.066219
 21
83.391667
 31
0.0
  0
LINE
  5
5CC
100
AcDbEntity
  8
0
370
    -3
390
0
  6
Continuous
100
AcDbLine
 10
-529.066219
 20
371.864214
 30
0.0
 11
-529.066219
 21
372.187909
 31
0.0
  0
LINE
  5
5CD
100
AcDbEntity
  8
0
370
    -3
390
0
  6
Continuous
100
AcDbLine
 10
-529.066219
 20
371.864214
 30
0.0
 11
-529.066219
 21
363.021995
 31
0.0
  0
LINE
  5
5CE
100
AcDbEntity
  8
0
370
    -3
390
0
  6
Continuous
100
AcDbLine
 10
-529.066219
 20
363.021995
 30
0.0
 11
-529.066219
 21
359.755269
 31
0.0
  0
LINE
  5
5CF
100
AcDbEntity
  8
0
370
    -3
390
0
  6
Continuous
100
AcDbLine
 10
-529.066219
 20
359.755269
 30
0.0
 11
-529.066219
 21
335.85197
 31
0.0
  0
LINE
  5
5D0
100
AcDbEntity
  8
0
370
    -3
390
0
  6
Continuous
100
AcDbLine
 10
-544.066219
 20
138.143318
 30
0.0
 11
-529.066219
 21
138.143318
 31
0.0
  0
LINE
  5
5D1
100
AcDbEntity
  8
0
370
    -3
390
0
  6
Continuous
100
AcDbLine
 10
-544.066219
 20
94.289788
 30
0.0
 11
-529.066219
 21
94.289788
 31
0.0
  0
LINE
  5
5D2
100
AcDbEntity
  8
0
370
    -3
390
0
  6
Continuous
100
AcDbLine
 10
-544.066219
 20
83.391667
 30
0.0
 11
-529.066219
 21
83.391667
 31
0.0
  0
LINE
  5
5D3
100
AcDbEntity
  8
0
370
    -3
390
0
  6
Continuous
100
AcDbLine
 10
-529.066219
 20
372.187909
 30
0.0
 11
-544.066219
 21
372.187909
 31
0.0
  0
LINE
  5
5D4
100
AcDbEntity
  8
0
370
    -3
390
0
  6
Continuous
100
AcDbLine
 10
-433.066219
 20
338.289788
 30
0.0
 11
-529.066219
 21
338.289788
 31
0.0
  0
LINE
  5
5D5
100
AcDbEntity
  8
0
370
    -3
390
0
  6
Continuous
100
AcDbLine
 10
-529.066219
 20
117.289788
 30
0.0
 11
-433.066219
 21
117.289788
 31
0.0
  0
LINE
  5
5D6
100
AcDbEntity
  8
0
370
    -3
390
0
  6
CENTER
100
AcDbLine
 10
-522.698135
 20
351.63142
 30
0.0
 11
-552.019979
 21
351.63142
 31
0.0
  0
INSERT
  5
5F5
100
AcDbEntity
  8
0
390
0
100
AcDbBlockReference
  2
ZU_SYM_C__ZUOU_AC_BLOCK_BLKF052_00
 10
-1145.048916
 20
-639.572153
 30
0.0
  0
LINE
  5
5F6
100
AcDbEntity
  8
0
370
    -3
390
0
  6
Continuous
100
AcDbLine
 10
-544.066219
 20
358.577333
 30
0.0
 11
-544.066219
 21
353.463792
 31
0.0
  0
LINE
  5
5F7
100
AcDbEntity
  8
0
370
    -3
390
0
  6
Continuous
100
AcDbLine
 10
-569.066219
 20
345.9091
 30
0.0
 11
-604.932614
 21
345.9091
 31
0.0
  0
LINE
  5
5F8
100
AcDbEntity
  8
0
370
    -3
390
0
  6
Continuous
100
AcDbLine
 10
-591.066219
 20
369.677671
 30
0.0
 11
-571.566219
 21
359.566253
 31
0.0
  0
LINE
  5
5F9
100
AcDbEntity
  8
0
370
    -3
390
0
  6
Continuous
100
AcDbLine
 10
-591.066219
 20
371.092995
 30
0.0
 11
-571.566219
 21
360.981577
 31
0.0
  0
LINE
  5
5FA
100
AcDbEntity
  8
0
370
    -3
390
0
  6
Continuous
100
AcDbLine
 10
-591.066219
 20
377.829752
 30
0.0
 11
-571.566219
 21
367.153982
 31
0.0
  0
LINE
  5
5FB
100
AcDbEntity
  8
0
370
    -3
390
0
  6
Continuous
100
AcDbLine
 10
-591.066219
 20
378.858358
 30
0.0
 11
-571.256483
 21
368.013016
 31
0.0
  0
LINE
  5
5FC
100
AcDbEntity
  8
0
370
    -3
390
0
  6
Continuous
100
AcDbLine
 10
-561.753506
 20
369.63487
 30
0.0
 11
-591.066219
 21
386.545968
 31
0.0
  0
LINE
  5
5FD
100
AcDbEntity
  8
0
370
    -3
390
0
  6
Continuous
100
AcDbLine
 10
-591.066219
 20
386.336678
 30
0.0
 11
-562.116277
 21
369.63487
 31
0.0
  0
LINE
  5
5FE
100
AcDbEntity
  8
0
370
    -3
390
0
  6
Continuous
100
AcDbLine
 10
-591.066219
 20
383.414607
 30
0.0
 11
-566.765431
 21
369.63487
 31
0.0
  0
LINE
  5
5FF
100
AcDbEntity
  8
0
370
    -3
390
0
  6
Continuous
100
AcDbLine
 10
-565.664488
 20
369.63487
 30
0.0
 11
-591.066219
 21
384.038896
 31
0.0
  0
LINE
  5
600
100
AcDbEntity
  8
0
370
    -3
390
0
  6
Continuous
100
AcDbLine
 10
-571.566219
 20
140.643935
 30
0.0
 11
-571.566219
 21
151.950407
 31
0.0
  0
LINE
  5
601
100
AcDbEntity
  8
0
370
    -3
390
0
  6
Continuous
100
AcDbLine
 10
-569.967394
 20
152.428475
 30
0.0
 11
-544.165044
 21
152.428475
 31
0.0
  0
LINE
  5
602
100
AcDbEntity
  8
0
370
    -3
390
0
  6
Continuous
100
AcDbLine
 10
-569.066219
 20
169.186905
 30
0.0
 11
-545.066219
 21
169.186905
 31
0.0
  0
LINE
  5
603
100
AcDbEntity
  8
0
370
    -3
390
0
  6
Continuous
100
AcDbLine
 10
-569.066219
 20
171.944622
 30
0.0
 11
-545.066219
 21
171.944622
 31
0.0
  0
LINE
  5
604
100
AcDbEntity
  8
0
370
    -3
390
0
  6
Continuous
100
AcDbLine
 10
-568.566219
 20
173.358835
 30
0.0
 11
-545.566219
 21
173.358835
 31
0.0
  0
LINE
  5
605
100
AcDbEntity
  8
0
370
    -3
390
0
  6
Continuous
100
AcDbLine
 10
-569.457746
 20
138.286339
 30
0.0
 11
-544.375247
 21
138.286339
 31
0.0
  0
LINE
  5
606
100
AcDbEntity
  8
0
370
    -3
390
0
  6
Continuous
100
AcDbLine
 10
-569.122685
 20
156.890453
 30
0.0
 11
-571.453287
 21
152.412045
 31
0.0
  0
LINE
  5
607
100
AcDbEntity
  8
0
370
    -3
390
0
  6
Continuous
100
AcDbLine
 10
-570.232343
 20
138.653883
 30
0.0
 11
-571.340816
 21
140.011479
 31
0.0
  0
LINE
  5
608
100
AcDbEntity
  8
0
370
    -3
390
0
  6
Continuous
100
AcDbLine
 10
-570.09288
 20
152.231736
 30
0.0
 11
-571.340816
 21
150.703334
 31
0.0
  0
LINE
  5
609
100
AcDbEntity
  8
0
370
    -3
390
0
  6
Continuous
100
AcDbLine
 10
-569.884959
 20
152.678022
 30
0.0
 11
-569.07496
 21
156.952824
 31
0.0
  0
LINE
  5
60A
100
AcDbEntity
  8
0
370
    -3
390
0
  6
Continuous
100
AcDbLine
 10
-569.066219
 20
157.045908
 30
0.0
 11
-569.066219
 21
172.858835
 31
0.0
  0
ARC
  5
60B
100
AcDbEntity
  8
0
370
    -3
390
0
  6
Continuous
100
AcDbCircle
 10
-568.566219
 20
172.858835
 30
0.0
 40
0.5
100
AcDbArc
 50
90.0
 51
180.0
  0
ARC
  5
60C
100
AcDbEntity
  8
0
370
    -3
390
0
  6
Continuous
100
AcDbCircle
 10
-570.566219
 20
140.643935
 30
0.0
 40
1.0
100
AcDbArc
 50
180.0
 51
219.23152
  0
ARC
  5
60D
100
AcDbEntity
  8
0
370
    -3
390
0
  6
Continuous
100
AcDbCircle
 10
-570.566219
 20
150.070879
 30
0.0
 40
1.0
100
AcDbArc
 50
140.76848
 51
180.0
  0
ARC
  5
60E
100
AcDbEntity
  8
0
370
    -3
390
0
  6
Continuous
100
AcDbCircle
 10
-569.457746
 20
139.286339
 30
0.0
 40
1.0
100
AcDbArc
 50
219.23152
 51
270.0
  0
ARC
  5
60F
100
AcDbEntity
  8
0
370
    -3
390
0
  6
Continuous
100
AcDbCircle
 10
-570.867477
 20
152.864192
 30
0.0
 40
1.0
100
AcDbArc
 50
320.76848
 51
349.270663
  0
ARC
  5
610
100
AcDbEntity
  8
0
370
    -3
390
0
  6
Continuous
100
AcDbCircle
 10
-570.566219
 20
151.950407
 30
0.0
 40
1.0
100
AcDbArc
 50
152.507137
 51
180.0
  0
ARC
  5
611
100
AcDbEntity
  8
0
370
    -3
390
0
  6
Continuous
100
AcDbCircle
 10
-569.566219
 20
157.121272
 30
0.0
 40
0.5
100
AcDbArc
 50
332.507137
 51
0.0
  0
ARC
  5
612
100
AcDbEntity
  8
0
370
    -3
390
0
  6
Continuous
100
AcDbCircle
 10
-569.566219
 20
157.045908
 30
0.0
 40
0.5
100
AcDbArc
 50
349.270663
 51
0.0
  0
LINE
  5
613
100
AcDbEntity
  8
0
370
    -3
390
0
  6
Continuous
100
AcDbLine
 10
-545.009753
 20
156.890453
 30
0.0
 11
-544.066219
 21
155.077389
 31
0.0
  0
LINE
  5
614
100
AcDbEntity
  8
0
370
    -3
390
0
  6
Continuous
100
AcDbLine
 10
-544.247478
 20
152.678022
 30
0.0
 11
-545.057478
 21
156.952824
 31
0.0
  0
LINE
  5
615
100
AcDbEntity
  8
0
370
    -3
390
0
  6
Continuous
100
AcDbLine
 10
-545.066219
 20
157.045908
 30
0.0
 11
-545.066219
 21
172.858835
 31
0.0
  0
ARC
  5
616
100
AcDbEntity
  8
0
370
    -3
390
0
  6
Continuous
100
AcDbCircle
 10
-545.566219
 20
172.858835
 30
0.0
 40
0.5
100
AcDbArc
 50
0.0
 51
90.0
  0
ARC
  5
617
100
AcDbEntity
  8
0
370
    -3
390
0
  6
Continuous
100
AcDbCircle
 10
-544.674691
 20
139.286339
 30
0.0
 40
1.0
100
AcDbArc
 50
270.0
 51
307.479134
  0
ARC
  5
618
100
AcDbEntity
  8
0
370
    -3
390
0
  6
Continuous
100
AcDbCircle
 10
-543.264961
 20
152.864192
 30
0.0
 40
1.0
100
AcDbArc
 50
190.729337
 51
216.749585
  0
ARC
  5
619
100
AcDbEntity
  8
0
370
    -3
390
0
  6
Continuous
100
AcDbCircle
 10
-544.566219
 20
157.121272
 30
0.0
 40
0.5
100
AcDbArc
 50
180.0
 51
207.492863
  0
ARC
  5
61A
100
AcDbEntity
  8
0
370
    -3
390
0
  6
Continuous
100
AcDbCircle
 10
-544.566219
 20
157.045908
 30
0.0
 40
0.5
100
AcDbArc
 50
180.0
 51
190.729337
  0
LINE
  5
61B
100
AcDbEntity
  8
0
370
    -3
390
0
  6
Continuous
100
AcDbLine
 10
-544.066219
 20
162.289788
 30
0.0
 11
-545.066219
 21
162.289788
 31
0.0
  0
LINE
  5
61C
100
AcDbEntity
  8
0
370
    -3
390
0
  6
CENTER
100
AcDbLine
 10
-525.35216
 20
156.289788
 30
0.0
 11
-550.328919
 21
156.289788
 31
0.0
  0
LINE
  5
61D
100
AcDbEntity
  8
0
370
    -3
390
0
  6
Continuous
100
AcDbLine
 10
-559.066219
 20
109.670476
 30
0.0
 11
-559.066219
 21
87.495055
 31
0.0
  0
LINE
  5
61E
100
AcDbEntity
  8
0
370
    -3
390
0
  6
Continuous
100
AcDbLine
 10
-591.066219
 20
84.48658
 30
0.0
 11
-591.066219
 21
85.901904
 31
0.0
  0
LINE
  5
61F
100
AcDbEntity
  8
0
370
    -3
390
0
  6
Continuous
100
AcDbLine
 10
-591.066219
 20
85.901904
 30
0.0
 11
-559.066219
 21
102.495001
 31
0.0
  0
LINE
  5
620
100
AcDbEntity
  8
0
370
    -3
390
0
  6
Continuous
100
AcDbLine
 10
-591.066219
 20
84.48658
 30
0.0
 11
-559.066219
 21
101.079677
 31
0.0
  0
LINE
  5
621
100
AcDbEntity
  8
0
370
    -3
390
0
  6
Continuous
100
AcDbLine
 10
-544.066219
 20
109.670476
 30
0.0
 11
-604.932614
 21
109.670476
 31
0.0
  0
LINE
  5
622
100
AcDbEntity
  8
0
370
    -3
390
0
  6
Continuous
100
AcDbLine
 10
-544.066219
 20
353.463792
 30
0.0
 11
-544.066219
 21
227.789788
 31
0.0
  0
LINE
  5
623
100
AcDbEntity
  8
0
370
    -3
390
0
  6
Continuous
100
AcDbLine
 10
-544.066219
 20
227.789788
 30
0.0
 11
-544.066219
 21
175.873769
 31
0.0
  0
LINE
  5
624
100
AcDbEntity
  8
0
370
    -3
390
0
  6
Continuous
100
AcDbLine
 10
-569.066219
 20
163.381543
 30
0.0
 11
-591.066219
 21
157.656525
 31
0.0
  0
LINE
  5
625
100
AcDbEntity
  8
0
370
    -3
390
0
  6
Continuous
100
AcDbLine
 10
-591.066219
 20
154.798993
 30
0.0
 11
-569.066219
 21
160.52401
 31
0.0
  0
INSERT
  5
636
100
AcDbEntity
  8
0
390
0
100
AcDbBlockReference
  2
ZU_SYM_K__CAD_SYM_POO_SYM_B21_0000620
 10
-529.066219
 20
156.289786
 30
0.0
 50
180.0
  0
LINE
  5
637
100
AcDbEntity
  8
0
370
    -3
390
0
  6
Continuous
100
AcDbLine
 10
-544.066219
 20
85.054213
 30
0.0
 11
-563.297031
 21
85.054213
 31
0.0
  0
INSERT
  5
648
100
AcDbEntity
  8
0
390
0
100
AcDbBlockReference
  2
ZU_SYM_K__CAD_SYM_POO_SYM_B21_0000720
 10
-529.066219
 20
351.631419
 30
0.0
 50
180.0
  0
LINE
  5
649
100
AcDbEntity
  8
0
370
    -3
390
0
  6
Continuous
100
AcDbLine
 10
-414.066219
 20
185.439294
 30
0.0
 11
-414.066219
 21
157.004177
 31
0.0
  0
LINE
  5
64A
100
AcDbEntity
  8
0
370
    -3
390
0
  6
Continuous
100
AcDbLine
 10
-414.066219
 20
207.789788
 30
0.0
 11
-414.066219
 21
185.439294
 31
0.0
  0
LINE
  5
64B
100
AcDbEntity
  8
0
370
    -3
390
0
  6
Continuous
100
AcDbLine
 10
-414.066219
 20
270.140281
 30
0.0
 11
-414.066219
 21
247.789788
 31
0.0
  0
LINE
  5
64C
100
AcDbEntity
  8
0
370
    -3
390
0
  6
Continuous
100
AcDbLine
 10
-414.066219
 20
207.789788
 30
0.0
 11
-414.066219
 21
247.789788
 31
0.0
  0
ARC
  5
64D
100
AcDbEntity
  8
0
370
    -3
390
0
  6
Continuous
100
AcDbCircle
 10
-424.066219
 20
227.789788
 30
0.0
 40
8.0
100
AcDbArc
 50
270.0
 51
90.0
  0
LINE
  5
64E
100
AcDbEntity
  8
0
370
    -3
390
0
  6
Continuous
100
AcDbLine
 10
-433.066219
 20
375.789788
 30
0.0
 11
-433.066219
 21
374.032428
 31
0.0
  0
LINE
  5
64F
100
AcDbEntity
  8
0
370
    -3
390
0
  6
Continuous
100
AcDbLine
 10
-433.066219
 20
374.032428
 30
0.0
 11
-433.066219
 21
371.547147
 31
0.0
  0
LINE
  5
650
100
AcDbEntity
  8
0
370
    -3
390
0
  6
Continuous
100
AcDbLine
 10
-433.066219
 20
371.547147
 30
0.0
 11
-433.066219
 21
367.304506
 31
0.0
  0
LINE
  5
651
100
AcDbEntity
  8
0
370
    -3
390
0
  6
Continuous
100
AcDbLine
 10
-433.066219
 20
367.304506
 30
0.0
 11
-433.066219
 21
342.381454
 31
0.0
  0
LINE
  5
652
100
AcDbEntity
  8
0
370
    -3
390
0
  6
Continuous
100
AcDbLine
 10
-433.066219
 20
367.304506
 30
0.0
 11
-414.066219
 21
367.304506
 31
0.0
  0
LINE
  5
653
100
AcDbEntity
  8
0
370
    -3
390
0
  6
Continuous
100
AcDbLine
 10
-433.066219
 20
371.547147
 30
0.0
 11
-414.066219
 21
371.547147
 31
0.0
  0
LINE
  5
654
100
AcDbEntity
  8
0
370
    -3
390
0
  6
Continuous
100
AcDbLine
 10
-433.066219
 20
374.032428
 30
0.0
 11
-414.066219
 21
374.032428
 31
0.0
  0
LINE
  5
655
100
AcDbEntity
  8
0
370
    -3
390
0
  6
Continuous
100
AcDbLine
 10
-433.066219
 20
375.789788
 30
0.0
 11
-414.066219
 21
375.789788
 31
0.0
  0
INSERT
  5
666
100
AcDbEntity
  8
0
390
0
100
AcDbBlockReference
  2
ZU_SYM_K__CAD_SYM_POO_SYM_B21_0000820
 10
-433.066219
 20
359.789788
 30
0.0
  0
LINE
  5
667
100
AcDbEntity
  8
0
370
    -3
390
0
  6
CENTER
100
AcDbLine
 10
-426.698134
 20
359.805027
 30
0.0
 11
-456.019978
 21
359.805027
 31
0.0
  0
LINE
  5
668
100
AcDbEntity
  8
0
370
    -3
390
0
  6
Continuous
100
AcDbLine
 10
-433.066219
 20
298.575398
 30
0.0
 11
-433.066219
 21
270.140281
 31
0.0
  0
LINE
  5
669
100
AcDbEntity
  8
0
370
    -3
390
0
  6
Continuous
100
AcDbLine
 10
-433.066219
 20
270.140281
 30
0.0
 11
-414.066219
 21
270.140281
 31
0.0
  0
INSERT
  5
67A
100
AcDbEntity
  8
0
390
0
100
AcDbBlockReference
  2
ZU_SYM_K__CAD_SYM_POO_SYM_B21_0000920
 10
-433.066219
 20
283.575398
 30
0.0
  0
LINE
  5
67B
100
AcDbEntity
  8
0
370
    -3
390
0
  6
CENTER
100
AcDbLine
 10
-426.698134
 20
283.590637
 30
0.0
 11
-456.019978
 21
283.590637
 31
0.0
  0
LINE
  5
67C
100
AcDbEntity
  8
0
370
    -3
390
0
  6
Continuous
100
AcDbLine
 10
-433.066219
 20
270.140281
 30
0.0
 11
-433.066219
 21
247.789788
 31
0.0
  0
ARC
  5
67D
100
AcDbEntity
  8
0
370
    -3
390
0
  6
Continuous
100
AcDbCircle
 10
-452.066219
 20
227.789788
 30
0.0
 40
20.0
100
AcDbArc
 50
90.0
 51
156.421822
  0
LINE
  5
67E
100
AcDbEntity
  8
0
370
    -3
390
0
  6
Continuous
100
AcDbLine
 10
-452.066219
 20
207.789788
 30
0.0
 11
-414.066219
 21
207.789788
 31
0.0
  0
LINE
  5
67F
100
AcDbEntity
  8
0
370
    -3
390
0
  6
Continuous
100
AcDbLine
 10
-414.066219
 20
247.789788
 30
0.0
 11
-452.066219
 21
247.789788
 31
0.0
  0
ARC
  5
680
100
AcDbEntity
  8
0
370
    -3
390
0
  6
Continuous
100
AcDbCircle
 10
-452.066219
 20
227.789788
 30
0.0
 40
8.647
100
AcDbArc
 50
67.694964
 51
112.305036
  0
ARC
  5
681
100
AcDbEntity
  8
0
370
    -3
390
0
  6
Continuous
100
AcDbCircle
 10
-452.066219
 20
227.789788
 30
0.0
 40
10.0
100
AcDbArc
 50
53.130102
 51
126.869898
  0
LINE
  5
682
100
AcDbEntity
  8
0
370
    -3
390
0
  6
CENTER
100
AcDbLine
 10
-452.066219
 20
211.862957
 30
0.0
 11
-452.066219
 21
243.510172
 31
0.0
  0
ARC
  5
683
100
AcDbEntity
  8
0
370
    -3
390
0
  6
Continuous
100
AcDbCircle
 10
-452.066219
 20
227.789788
 30
0.0
 40
20.0
100
AcDbArc
 50
203.578178
 51
270.0
  0
ARC
  5
684
100
AcDbEntity
  8
0
370
    -3
390
0
  6
Continuous
100
AcDbCircle
 10
-452.066219
 20
227.789788
 30
0.0
 40
10.0
100
AcDbArc
 50
233.130102
 51
306.869898
  0
ARC
  5
685
100
AcDbEntity
  8
0
370
    -3
390
0
  6
Continuous
100
AcDbCircle
 10
-452.066219
 20
227.789788
 30
0.0
 40
8.647
100
AcDbArc
 50
247.694964
 51
292.305036
  0
LINE
  5
686
100
AcDbEntity
  8
0
370
    -3
390
0
  6
Continuous
100
AcDbLine
 10
-424.066219
 20
235.789788
 30
0.0
 11
-480.066219
 21
235.789788
 31
0.0
  0
LINE
  5
687
100
AcDbEntity
  8
0
370
    -3
390
0
  6
Continuous
100
AcDbLine
 10
-424.066219
 20
219.789788
 30
0.0
 11
-480.066219
 21
219.789788
 31
0.0
  0
ARC
  5
688
100
AcDbEntity
  8
0
370
    -3
390
0
  6
Continuous
100
AcDbCircle
 10
-480.066219
 20
227.789788
 30
0.0
 40
8.0
100
AcDbArc
 50
90.0
 51
270.0
  0
LINE
  5
689
100
AcDbEntity
  8
0
370
    -3
390
0
  6
Continuous
100
AcDbLine
 10
-433.066219
 20
157.004177
 30
0.0
 11
-433.066219
 21
150.236326
 31
0.0
  0
LINE
  5
68A
100
AcDbEntity
  8
0
370
    -3
390
0
  6
Continuous
100
AcDbLine
 10
-433.066219
 20
157.004177
 30
0.0
 11
-414.066219
 21
157.004177
 31
0.0
  0
INSERT
  5
69B
100
AcDbEntity
  8
0
390
0
100
AcDbBlockReference
  2
ZU_SYM_K__CAD_SYM_POO_SYM_B21_0001020
 10
-433.066219
 20
172.004177
 30
0.0
  0
LINE
  5
69C
100
AcDbEntity
  8
0
370
    -3
390
0
  6
CENTER
100
AcDbLine
 10
-426.698134
 20
172.019416
 30
0.0
 11
-456.019978
 21
172.019416
 31
0.0
  0
LINE
  5
69D
100
AcDbEntity
  8
0
370
    -3
390
0
  6
Continuous
100
AcDbLine
 10
-433.066219
 20
207.789788
 30
0.0
 11
-433.066219
 21
185.439294
 31
0.0
  0
LINE
  5
69E
100
AcDbEntity
  8
0
370
    -3
390
0
  6
Continuous
100
AcDbLine
 10
-433.066219
 20
185.439294
 30
0.0
 11
-433.066219
 21
157.004177
 31
0.0
  0
LINE
  5
69F
100
AcDbEntity
  8
0
370
    -3
390
0
  6
Continuous
100
AcDbLine
 10
-433.066219
 20
185.439294
 30
0.0
 11
-414.066219
 21
185.439294
 31
0.0
  0
LINE
  5
6A0
100
AcDbEntity
  8
0
370
    -3
390
0
  6
Continuous
100
AcDbLine
 10
-433.066219
 20
113.198121
 30
0.0
 11
-433.066219
 21
88.275069
 31
0.0
  0
LINE
  5
6A1
100
AcDbEntity
  8
0
370
    -3
390
0
  6
Continuous
100
AcDbLine
 10
-433.066219
 20
88.275069
 30
0.0
 11
-433.066219
 21
84.032428
 31
0.0
  0
LINE
  5
6A2
100
AcDbEntity
  8
0
370
    -3
390
0
  6
Continuous
100
AcDbLine
 10
-433.066219
 20
84.032428
 30
0.0
 11
-433.066219
 21
81.547147
 31
0.0
  0
LINE
  5
6A3
100
AcDbEntity
  8
0
370
    -3
390
0
  6
Continuous
100
AcDbLine
 10
-433.066219
 20
81.547147
 30
0.0
 11
-433.066219
 21
79.789788
 31
0.0
  0
LINE
  5
6A4
100
AcDbEntity
  8
0
370
    -3
390
0
  6
Continuous
100
AcDbLine
 10
-433.066219
 20
79.789788
 30
0.0
 11
-414.066219
 21
79.789788
 31
0.0
  0
LINE
  5
6A5
100
AcDbEntity
  8
0
370
    -3
390
0
  6
Continuous
100
AcDbLine
 10
-433.066219
 20
81.547147
 30
0.0
 11
-414.066219
 21
81.547147
 31
0.0
  0
LINE
  5
6A6
100
AcDbEntity
  8
0
370
    -3
390
0
  6
Continuous
100
AcDbLine
 10
-433.066219
 20
84.032428
 30
0.0
 11
-414.066219
 21
84.032428
 31
0.0
  0
LINE
  5
6A7
100
AcDbEntity
  8
0
370
    -3
390
0
  6
Continuous
100
AcDbLine
 10
-433.066219
 20
88.275069
 30
0.0
 11
-414.066219
 21
88.275069
 31
0.0
  0
INSERT
  5
6B8
100
AcDbEntity
  8
0
390
0
100
AcDbBlockReference
  2
ZU_SYM_K__CAD_SYM_POO_SYM_B21_0001120
 10
-433.066219
 20
95.789788
 30
0.0
  0
LINE
  5
6B9
100
AcDbEntity
  8
0
370
    -3
390
0
  6
CENTER
100
AcDbLine
 10
-426.698133
 20
95.820264
 30
0.0
 11
-456.019977
 21
95.820264
 31
0.0
  0
LINE
  5
6BA
100
AcDbEntity
  8
0
370
    -3
390
0
  6
Continuous
100
AcDbLine
 10
-859.066219
 20
84.057571
 30
0.0
 11
-759.066219
 21
84.057571
 31
0.0
  0
LINE
  5
6BB
100
AcDbEntity
  8
0
370
    -3
390
0
  6
Continuous
100
AcDbLine
 10
-759.066219
 20
87.495055
 30
0.0
 11
-759.066219
 21
94.703901
 31
0.0
  0
LINE
  5
6BC
100
AcDbEntity
  8
0
370
    -3
390
0
  6
Continuous
100
AcDbLine
 10
-759.066219
 20
87.148534
 30
0.0
 11
-759.066219
 21
80.738109
 31
0.0
  0
INSERT
  5
6CC
100
AcDbEntity
  8
0
390
0
100
AcDbBlockReference
  2
ZU_SYM_C__ZUOU_AC_BLOCK_BLKF074_00
 10
-1145.048916
 20
-662.297516
 30
0.0
  0
LINE
  5
6CD
100
AcDbEntity
  8
0
370
    -3
390
0
  6
Continuous
100
AcDbLine
 10
-591.066219
 20
280.009944
 30
0.0
 11
-817.066219
 21
280.009944
 31
0.0
  0
LINE
  5
6CE
100
AcDbEntity
  8
0
370
    -3
390
0
  6
Continuous
100
AcDbLine
 10
-817.066219
 20
283.021707
 30
0.0
 11
-591.066219
 21
283.021707
 31
0.0
  0
LINE
  5
6CF
100
AcDbEntity
  8
0
370
    -3
390
0
  6
Continuous
100
AcDbLine
 10
-817.066219
 20
283.021707
 30
0.0
 11
-817.066219
 21
280.009944
 31
0.0
  0
LINE
  5
6D0
100
AcDbEntity
  8
0
370
    -3
390
0
  6
Continuous
100
AcDbLine
 10
-591.066219
 20
297.92305
 30
0.0
 11
-817.066219
 21
297.92305
 31
0.0
  0
LINE
  5
6D1
100
AcDbEntity
  8
0
370
    -3
390
0
  6
Continuous
100
AcDbLine
 10
-817.066219
 20
297.92305
 30
0.0
 11
-817.066219
 21
300.780583
 31
0.0
  0
LINE
  5
6D2
100
AcDbEntity
  8
0
370
    -3
390
0
  6
Continuous
100
AcDbLine
 10
-636.066219
 20
317.451334
 30
0.0
 11
-772.066219
 21
317.451334
 31
0.0
  0
LINE
  5
6D3
100
AcDbEntity
  8
0
370
    -3
390
0
  6
Continuous
100
AcDbLine
 10
-636.066219
 20
314.790631
 30
0.0
 11
-772.066219
 21
314.790631
 31
0.0
  0
LINE
  5
6D4
100
AcDbEntity
  8
0
370
    -3
390
0
  6
Continuous
100
AcDbLine
 10
-772.066219
 20
317.451334
 30
0.0
 11
-804.066219
 21
307.172695
 31
0.0
  0
LINE
  5
6D5
100
AcDbEntity
  8
0
370
    -3
390
0
  6
Continuous
100
AcDbLine
 10
-804.066219
 20
304.511993
 30
0.0
 11
-772.066219
 21
314.790631
 31
0.0
  0
LINE
  5
6D6
100
AcDbEntity
  8
0
370
    -3
390
0
  6
Continuous
100
AcDbLine
 10
-804.066219
 20
307.172695
 30
0.0
 11
-804.066219
 21
300.780583
 31
0.0
  0
LINE
  5
6D7
100
AcDbEntity
  8
0
370
    -3
390
0
  6
Continuous
100
AcDbLine
 10
-772.066219
 20
314.790631
 30
0.0
 11
-772.066219
 21
317.451334
 31
0.0
  0
LINE
  5
6D8
100
AcDbEntity
  8
0
370
    -3
390
0
  6
Continuous
100
AcDbLine
 10
-636.066219
 20
331.417521
 30
0.0
 11
-772.066219
 21
331.417521
 31
0.0
  0
LINE
  5
6D9
100
AcDbEntity
  8
0
370
    -3
390
0
  6
Continuous
100
AcDbLine
 10
-636.066219
 20
333.823408
 30
0.0
 11
-772.066219
 21
333.823408
 31
0.0
  0
LINE
  5
6DA
100
AcDbEntity
  8
0
370
    -3
390
0
  6
Continuous
100
AcDbLine
 10
-772.066219
 20
333.823408
 30
0.0
 11
-804.066219
 21
321.624811
 31
0.0
  0
LINE
  5
6DB
100
AcDbEntity
  8
0
370
    -3
390
0
  6
Continuous
100
AcDbLine
 10
-804.066219
 20
319.218924
 30
0.0
 11
-772.066219
 21
331.417521
 31
0.0
  0
LINE
  5
6DC
100
AcDbEntity
  8
0
370
    -3
390
0
  6
Continuous
100
AcDbLine
 10
-804.066219
 20
321.624811
 30
0.0
 11
-804.066219
 21
313.943795
 31
0.0
  0
LINE
  5
6DD
100
AcDbEntity
  8
0
370
    -3
390
0
  6
Continuous
100
AcDbLine
 10
-804.066219
 20
313.943795
 30
0.0
 11
-782.986074
 21
313.943795
 31
0.0
  0
LINE
  5
6DE
100
AcDbEntity
  8
0
370
    -3
390
0
  6
Continuous
100
AcDbLine
 10
-772.066219
 20
331.417521
 30
0.0
 11
-772.066219
 21
333.823408
 31
0.0
  0
LINE
  5
6DF
100
AcDbEntity
  8
0
370
    -3
390
0
  6
Continuous
100
AcDbLine
 10
-636.066219
 20
348.381218
 30
0.0
 11
-772.066219
 21
348.381218
 31
0.0
  0
LINE
  5
6E0
100
AcDbEntity
  8
0
370
    -3
390
0
  6
Continuous
100
AcDbLine
 10
-636.066219
 20
346.271311
 30
0.0
 11
-772.066219
 21
346.271311
 31
0.0
  0
LINE
  5
6E1
100
AcDbEntity
  8
0
370
    -3
390
0
  6
Continuous
100
AcDbLine
 10
-772.066219
 20
348.381218
 30
0.0
 11
-804.066219
 21
334.471384
 31
0.0
  0
LINE
  5
6E2
100
AcDbEntity
  8
0
370
    -3
390
0
  6
Continuous
100
AcDbLine
 10
-804.066219
 20
332.361478
 30
0.0
 11
-772.066219
 21
346.271311
 31
0.0
  0
LINE
  5
6E3
100
AcDbEntity
  8
0
370
    -3
390
0
  6
Continuous
100
AcDbLine
 10
-804.066219
 20
334.471384
 30
0.0
 11
-804.066219
 21
326.346346
 31
0.0
  0
LINE
  5
6E4
100
AcDbEntity
  8
0
370
    -3
390
0
  6
Continuous
100
AcDbLine
 10
-804.066219
 20
326.346346
 30
0.0
 11
-791.680442
 21
326.346346
 31
0.0
  0
LINE
  5
6E5
100
AcDbEntity
  8
0
370
    -3
390
0
  6
Continuous
100
AcDbLine
 10
-772.066219
 20
348.381218
 30
0.0
 11
-772.066219
 21
346.271311
 31
0.0
  0
LINE
  5
6E6
100
AcDbEntity
  8
0
370
    -3
390
0
  6
Continuous
100
AcDbLine
 10
-591.066219
 20
175.569632
 30
0.0
 11
-817.066219
 21
175.569632
 31
0.0
  0
LINE
  5
6E7
100
AcDbEntity
  8
0
370
    -3
390
0
  6
Continuous
100
AcDbLine
 10
-817.066219
 20
172.557868
 30
0.0
 11
-591.066219
 21
172.557868
 31
0.0
  0
LINE
  5
6E8
100
AcDbEntity
  8
0
370
    -3
390
0
  6
Continuous
100
AcDbLine
 10
-559.066219
 20
184.524969
 30
0.0
 11
-830.066219
 21
184.524969
 31
0.0
  0
LINE
  5
6E9
100
AcDbEntity
  8
0
370
    -3
390
0
  6
Continuous
100
AcDbLine
 10
-817.066219
 20
172.557868
 30
0.0
 11
-830.066219
 21
175.097669
 31
0.0
  0
LINE
  5
6EA
100
AcDbEntity
  8
0
370
    -3
390
0
  6
Continuous
100
AcDbLine
 10
-830.066219
 20
178.109432
 30
0.0
 11
-817.066219
 21
175.569632
 31
0.0
  0
LINE
  5
6EB
100
AcDbEntity
  8
0
370
    -3
390
0
  6
Continuous
100
AcDbLine
 10
-817.066219
 20
172.557868
 30
0.0
 11
-817.066219
 21
175.569632
 31
0.0
  0
LINE
  5
6EC
100
AcDbEntity
  8
0
370
    -3
390
0
  6
Continuous
100
AcDbLine
 10
-591.066219
 20
157.656525
 30
0.0
 11
-817.066219
 21
157.656525
 31
0.0
  0
LINE
  5
6ED
100
AcDbEntity
  8
0
370
    -3
390
0
  6
Continuous
100
AcDbLine
 10
-591.066219
 20
154.798993
 30
0.0
 11
-817.066219
 21
154.798993
 31
0.0
  0
LINE
  5
6EE
100
AcDbEntity
  8
0
370
    -3
390
0
  6
Continuous
100
AcDbLine
 10
-817.066219
 20
154.798993
 30
0.0
 11
-830.066219
 21
158.181958
 31
0.0
  0
LINE
  5
6EF
100
AcDbEntity
  8
0
370
    -3
390
0
  6
Continuous
100
AcDbLine
 10
-830.066219
 20
161.03949
 30
0.0
 11
-817.066219
 21
157.656525
 31
0.0
  0
LINE
  5
6F0
100
AcDbEntity
  8
0
370
    -3
390
0
  6
Continuous
100
AcDbLine
 10
-817.066219
 20
157.656525
 30
0.0
 11
-817.066219
 21
154.798993
 31
0.0
  0
LINE
  5
6F1
100
AcDbEntity
  8
0
370
    -3
390
0
  6
Continuous
100
AcDbLine
 10
-636.066219
 20
138.128242
 30
0.0
 11
-772.066219
 21
138.128242
 31
0.0
  0
LINE
  5
6F2
100
AcDbEntity
  8
0
370
    -3
390
0
  6
Continuous
100
AcDbLine
 10
-636.066219
 20
140.788945
 30
0.0
 11
-772.066219
 21
140.788945
 31
0.0
  0
LINE
  5
6F3
100
AcDbEntity
  8
0
370
    -3
390
0
  6
Continuous
100
AcDbLine
 10
-772.066219
 20
138.128242
 30
0.0
 11
-804.066219
 21
148.40688
 31
0.0
  0
LINE
  5
6F4
100
AcDbEntity
  8
0
370
    -3
390
0
  6
Continuous
100
AcDbLine
 10
-804.066219
 20
151.067583
 30
0.0
 11
-772.066219
 21
140.788945
 31
0.0
  0
LINE
  5
6F5
100
AcDbEntity
  8
0
370
    -3
390
0
  6
Continuous
100
AcDbLine
 10
-804.066219
 20
148.40688
 30
0.0
 11
-804.066219
 21
154.798993
 31
0.0
  0
LINE
  5
6F6
100
AcDbEntity
  8
0
370
    -3
390
0
  6
Continuous
100
AcDbLine
 10
-772.066219
 20
140.788945
 30
0.0
 11
-772.066219
 21
138.128242
 31
0.0
  0
LINE
  5
6F7
100
AcDbEntity
  8
0
370
    -3
390
0
  6
Continuous
100
AcDbLine
 10
-636.066219
 20
124.162055
 30
0.0
 11
-772.066219
 21
124.162055
 31
0.0
  0
LINE
  5
6F8
100
AcDbEntity
  8
0
370
    -3
390
0
  6
Continuous
100
AcDbLine
 10
-636.066219
 20
121.756168
 30
0.0
 11
-772.066219
 21
121.756168
 31
0.0
  0
LINE
  5
6F9
100
AcDbEntity
  8
0
370
    -3
390
0
  6
Continuous
100
AcDbLine
 10
-772.066219
 20
121.756168
 30
0.0
 11
-804.066219
 21
133.954764
 31
0.0
  0
LINE
  5
6FA
100
AcDbEntity
  8
0
370
    -3
390
0
  6
Continuous
100
AcDbLine
 10
-804.066219
 20
136.360651
 30
0.0
 11
-772.066219
 21
124.162055
 31
0.0
  0
LINE
  5
6FB
100
AcDbEntity
  8
0
370
    -3
390
0
  6
Continuous
100
AcDbLine
 10
-804.066219
 20
133.954764
 30
0.0
 11
-804.066219
 21
141.635781
 31
0.0
  0
LINE
  5
6FC
100
AcDbEntity
  8
0
370
    -3
390
0
  6
Continuous
100
AcDbLine
 10
-804.066219
 20
141.635781
 30
0.0
 11
-782.986074
 21
141.635781
 31
0.0
  0
LINE
  5
6FD
100
AcDbEntity
  8
0
370
    -3
390
0
  6
Continuous
100
AcDbLine
 10
-772.066219
 20
124.162055
 30
0.0
 11
-772.066219
 21
121.756168
 31
0.0
  0
LINE
  5
6FE
100
AcDbEntity
  8
0
370
    -3
390
0
  6
Continuous
100
AcDbLine
 10
-636.066219
 20
107.198358
 30
0.0
 11
-772.066219
 21
107.198358
 31
0.0
  0
LINE
  5
6FF
100
AcDbEntity
  8
0
370
    -3
390
0
  6
Continuous
100
AcDbLine
 10
-636.066219
 20
109.308264
 30
0.0
 11
-772.066219
 21
109.308264
 31
0.0
  0
LINE
  5
700
100
AcDbEntity
  8
0
370
    -3
390
0
  6
Continuous
100
AcDbLine
 10
-772.066219
 20
107.198358
 30
0.0
 11
-804.066219
 21
121.108191
 31
0.0
  0
LINE
  5
701
100
AcDbEntity
  8
0
370
    -3
390
0
  6
Continuous
100
AcDbLine
 10
-804.066219
 20
123.218098
 30
0.0
 11
-772.066219
 21
109.308264
 31
0.0
  0
LINE
  5
702
100
AcDbEntity
  8
0
370
    -3
390
0
  6
Continuous
100
AcDbLine
 10
-804.066219
 20
121.108191
 30
0.0
 11
-804.066219
 21
129.23323
 31
0.0
  0
LINE
  5
703
100
AcDbEntity
  8
0
370
    -3
390
0
  6
Continuous
100
AcDbLine
 10
-804.066219
 20
129.23323
 30
0.0
 11
-791.680442
 21
129.23323
 31
0.0
  0
LINE
  5
704
100
AcDbEntity
  8
0
370
    -3
390
0
  6
Continuous
100
AcDbLine
 10
-772.066219
 20
107.198358
 30
0.0
 11
-772.066219
 21
109.308264
 31
0.0
  0
LINE
  5
705
100
AcDbEntity
  8
0
370
    -3
390
0
  6
Continuous
100
AcDbLine
 10
-636.066219
 20
96.481726
 30
0.0
 11
-772.066219
 21
96.481726
 31
0.0
  0
LINE
  5
706
100
AcDbEntity
  8
0
370
    -3
390
0
  6
Continuous
100
AcDbLine
 10
-636.066219
 20
94.703901
 30
0.0
 11
-772.066219
 21
94.703901
 31
0.0
  0
LINE
  5
707
100
AcDbEntity
  8
0
370
    -3
390
0
  6
Continuous
100
AcDbLine
 10
-772.066219
 20
94.703901
 30
0.0
 11
-804.066219
 21
110.08697
 31
0.0
  0
LINE
  5
708
100
AcDbEntity
  8
0
370
    -3
390
0
  6
Continuous
100
AcDbLine
 10
-804.066219
 20
111.864795
 30
0.0
 11
-772.066219
 21
96.481726
 31
0.0
  0
LINE
  5
709
100
AcDbEntity
  8
0
370
    -3
390
0
  6
Continuous
100
AcDbLine
 10
-804.066219
 20
110.08697
 30
0.0
 11
-804.066219
 21
118.517009
 31
0.0
  0
LINE
  5
70A
100
AcDbEntity
  8
0
370
    -3
390
0
  6
Continuous
100
AcDbLine
 10
-804.066219
 20
118.517009
 30
0.0
 11
-798.105125
 21
118.517009
 31
0.0
  0
LINE
  5
70B
100
AcDbEntity
  8
0
370
    -3
390
0
  6
Continuous
100
AcDbLine
 10
-772.066219
 20
94.703901
 30
0.0
 11
-772.066219
 21
96.481726
 31
0.0
  0
LINE
  5
70C
100
AcDbEntity
  8
0
370
    -3
390
0
  6
Continuous
100
AcDbLine
 10
-859.066219
 20
87.148534
 30
0.0
 11
-859.066219
 21
80.738109
 31
0.0
  0
LINE
  5
70D
100
AcDbEntity
  8
0
370
    -3
390
0
  6
Continuous
100
AcDbLine
 10
-869.996179
 20
72.886462
 30
0.0
 11
-748.136259
 21
72.886462
 31
0.0
  0
LINE
  5
70E
100
AcDbEntity
  8
0
370
    -3
390
0
  6
Continuous
100
AcDbLine
 10
-869.226107
 20
75.995046
 30
0.0
 11
-748.906331
 21
75.995046
 31
0.0
  0
LINE
  5
70F
100
AcDbEntity
  8
0
370
    -3
390
0
  6
Continuous
100
AcDbLine
 10
-869.387158
 20
67.640658
 30
0.0
 11
-748.74528
 21
67.640658
 31
0.0
  0
LINE
  5
710
100
AcDbEntity
  8
0
370
    -3
390
0
  6
Continuous
100
AcDbLine
 10
-870.453764
 20
80.738109
 30
0.0
 11
-747.678674
 21
80.738109
 31
0.0
  0
ARC
  5
711
100
AcDbEntity
  8
0
370
    -3
390
0
  6
Continuous
100
AcDbCircle
 10
-748.74528
 20
58.640658
 30
0.0
 40
9.0
100
AcDbArc
 50
12.259471
 51
90.0
  0
ARC
  5
712
100
AcDbEntity
  8
0
370
    -3
390
0
  6
Continuous
100
AcDbCircle
 10
-748.136259
 20
61.886462
 30
0.0
 40
11.0
100
AcDbArc
 50
13.419885
 51
90.0
  0
ARC
  5
713
100
AcDbEntity
  8
0
370
    -3
390
0
  6
Continuous
100
AcDbCircle
 10
-748.906331
 20
64.995046
 30
0.0
 40
11.0
100
AcDbArc
 50
14.40704
 51
90.0
  0
ARC
  5
714
100
AcDbEntity
  8
0
370
    -3
390
0
  6
Continuous
100
AcDbCircle
 10
-869.387158
 20
58.640658
 30
0.0
 40
9.0
100
AcDbArc
 50
90.0
 51
167.740529
  0
ARC
  5
715
100
AcDbEntity
  8
0
370
    -3
390
0
  6
Continuous
100
AcDbCircle
 10
-869.996179
 20
61.886462
 30
0.0
 40
11.0
100
AcDbArc
 50
90.0
 51
166.580115
  0
ARC
  5
716
100
AcDbEntity
  8
0
370
    -3
390
0
  6
Continuous
100
AcDbCircle
 10
-869.226107
 20
64.995046
 30
0.0
 40
11.0
100
AcDbArc
 50
90.0
 51
165.59296
  0
ARC
  5
717
100
AcDbEntity
  8
0
370
    -3
390
0
  6
Continuous
100
AcDbCircle
 10
-747.678674
 20
70.738109
 30
0.0
 40
10.0
100
AcDbArc
 50
7.706129
 51
90.0
  0
ARC
  5
718
100
AcDbEntity
  8
0
370
    -3
390
0
  6
Continuous
100
AcDbCircle
 10
-869.226107
 20
64.995046
 30
0.0
 40
11.0
100
AcDbArc
 50
90.0
 51
165.59296
  0
ARC
  5
719
100
AcDbEntity
  8
0
370
    -3
390
0
  6
Continuous
100
AcDbCircle
 10
-870.453764
 20
70.738109
 30
0.0
 40
10.0
100
AcDbArc
 50
90.0
 51
172.293871
  0
LINE
  5
71A
100
AcDbEntity
  8
0
370
    -3
390
0
  6
Continuous
100
AcDbLine
 10
-859.066219
 20
85.11718
 30
0.0
 11
-859.066219
 21
83.841112
 31
0.0
  0
LINE
  5
71B
100
AcDbEntity
  8
0
370
    -3
390
0
  6
Continuous
100
AcDbLine
 10
-735.643705
 20
56.13542
 30
0.0
 11
-737.768985
 21
72.079031
 31
0.0
  0
LINE
  5
71C
100
AcDbEntity
  8
0
370
    -3
390
0
  6
Continuous
100
AcDbLine
 10
-882.488733
 20
56.13542
 30
0.0
 11
-880.363452
 21
72.079031
 31
0.0
  0
LINE
  5
71D
100
AcDbEntity
  8
0
370
    -3
390
0
  6
Continuous
100
AcDbLine
 10
-591.066219
 20
69.033607
 30
0.0
 11
-727.066219
 21
69.033607
 31
0.0
  0
LINE
  5
71E
100
AcDbEntity
  8
0
370
    -3
390
0
  6
Continuous
100
AcDbLine
 10
-727.066219
 20
69.242897
 30
0.0
 11
-591.066219
 21
69.242897
 31
0.0
  0
LINE
  5
71F
100
AcDbEntity
  8
0
370
    -3
390
0
  6
Continuous
100
AcDbLine
 10
-727.066219
 20
69.242897
 30
0.0
 11
-739.41246
 21
76.365694
 31
0.0
  0
LINE
  5
720
100
AcDbEntity
  8
0
370
    -3
390
0
  6
Continuous
100
AcDbLine
 10
-759.066219
 20
87.495055
 30
0.0
 11
-747.344437
 21
80.732522
 31
0.0
  0
LINE
  5
721
100
AcDbEntity
  8
0
370
    -3
390
0
  6
Continuous
100
AcDbLine
 10
-727.066219
 20
69.242897
 30
0.0
 11
-727.066219
 21
69.033607
 31
0.0
  0
LINE
  5
722
100
AcDbEntity
  8
0
370
    -3
390
0
  6
Continuous
100
AcDbLine
 10
-739.19379
 20
76.030248
 30
0.0
 11
-727.066219
 21
69.033607
 31
0.0
  0
LINE
  5
723
100
AcDbEntity
  8
0
370
    -3
390
0
  6
Continuous
100
AcDbLine
 10
-746.944584
 20
80.711128
 30
0.0
 11
-759.066219
 21
87.704345
 31
0.0
  0
LINE
  5
724
100
AcDbEntity
  8
0
370
    -3
390
0
  6
Continuous
100
AcDbLine
 10
-859.066219
 20
84.057571
 30
0.0
 11
-759.066219
 21
84.057571
 31
0.0
  0
LINE
  5
725
100
AcDbEntity
  8
0
370
    -3
390
0
  6
Continuous
100
AcDbLine
 10
-759.066219
 20
87.148534
 30
0.0
 11
-759.066219
 21
80.738109
 31
0.0
  0
LINE
  5
726
100
AcDbEntity
  8
0
370
    -3
390
0
  6
Continuous
100
AcDbLine
 10
-859.066219
 20
87.148534
 30
0.0
 11
-859.066219
 21
80.738109
 31
0.0
  0
LINE
  5
727
100
AcDbEntity
  8
0
370
    -3
390
0
  6
Continuous
100
AcDbLine
 10
-859.066219
 20
87.148534
 30
0.0
 11
-759.066219
 21
87.148534
 31
0.0
  0
LINE
  5
728
100
AcDbEntity
  8
0
370
    -3
390
0
  6
Continuous
100
AcDbLine
 10
-847.694196
 20
91.400231
 30
0.0
 11
-849.576399
 21
87.148534
 31
0.0
  0
ARC
  5
729
100
AcDbEntity
  8
0
370
    -3
390
0
  6
Continuous
100
AcDbCircle
 10
-852.266219
 20
93.424239
 30
0.0
 40
5.0
100
AcDbArc
 50
336.1213
 51
0.0
  0
LINE
  5
72A
100
AcDbEntity
  8
0
370
    -3
390
0
  6
Continuous
100
AcDbLine
 10
-770.866219
 20
93.424239
 30
0.0
 11
-770.866219
 21
94.703901
 31
0.0
  0
LINE
  5
72B
100
AcDbEntity
  8
0
370
    -3
390
0
  6
Continuous
100
AcDbLine
 10
-770.439268
 20
91.402552
 30
0.0
 11
-768.556039
 21
87.148534
 31
0.0
  0
ARC
  5
72C
100
AcDbEntity
  8
0
370
    -3
390
0
  6
Continuous
100
AcDbCircle
 10
-765.866219
 20
93.424239
 30
0.0
 40
5.0
100
AcDbArc
 50
180.0
 51
203.8787
  0
LINE
  5
72D
100
AcDbEntity
  8
0
370
    -3
390
0
  6
Continuous
100
AcDbLine
 10
-591.066219
 20
76.721217
 30
0.0
 11
-727.066219
 21
76.721217
 31
0.0
  0
LINE
  5
72E
100
AcDbEntity
  8
0
370
    -3
390
0
  6
Continuous
100
AcDbLine
 10
-727.066219
 20
77.749824
 30
0.0
 11
-591.066219
 21
77.749824
 31
0.0
  0
LINE
  5
72F
100
AcDbEntity
  8
0
370
    -3
390
0
  6
Continuous
100
AcDbLine
 10
-727.066219
 20
76.713594
 30
0.0
 11
-727.066219
 21
77.749824
 31
0.0
  0
LINE
  5
730
100
AcDbEntity
  8
0
370
    -3
390
0
  6
Continuous
100
AcDbLine
 10
-727.066219
 20
76.721217
 30
0.0
 11
-759.066219
 21
94.240429
 31
0.0
  0
LINE
  5
731
100
AcDbEntity
  8
0
370
    -3
390
0
  6
Continuous
100
AcDbLine
 10
-727.066219
 20
77.749824
 30
0.0
 11
-758.033964
 21
94.703901
 31
0.0
  0
LINE
  5
732
100
AcDbEntity
  8
0
370
    -3
390
0
  6
Continuous
100
AcDbLine
 10
-591.066219
 20
72.164969
 30
0.0
 11
-727.066219
 21
72.164969
 31
0.0
  0
LINE
  5
733
100
AcDbEntity
  8
0
370
    -3
390
0
  6
Continuous
100
AcDbLine
 10
-727.066219
 20
71.54068
 30
0.0
 11
-591.066219
 21
71.54068
 31
0.0
  0
LINE
  5
734
100
AcDbEntity
  8
0
370
    -3
390
0
  6
Continuous
100
AcDbLine
 10
-727.066219
 20
71.532784
 30
0.0
 11
-727.066219
 21
72.157073
 31
0.0
  0
LINE
  5
735
100
AcDbEntity
  8
0
370
    -3
390
0
  6
Continuous
100
AcDbLine
 10
-759.066219
 20
89.686247
 30
0.0
 11
-727.066219
 21
71.54068
 31
0.0
  0
LINE
  5
736
100
AcDbEntity
  8
0
370
    -3
390
0
  6
Continuous
100
AcDbLine
 10
-727.066219
 20
72.164969
 30
0.0
 11
-759.066219
 21
90.310536
 31
0.0
  0
ARC
  5
737
100
AcDbEntity
  8
0
370
    -3
390
0
  6
Continuous
100
AcDbCircle
 10
-704.066219
 20
227.789788
 30
0.0
 40
12.5
100
AcDbArc
 50
203.578178
 51
336.421822
  0
LINE
  5
738
100
AcDbEntity
  8
0
370
    -3
390
0
  6
Continuous
100
AcDbLine
 10
-684.066219
 20
222.789788
 30
0.0
 11
-724.066219
 21
222.789788
 31
0.0
  0
LINE
  5
739
100
AcDbEntity
  8
0
370
    -3
390
0
  6
Continuous
100
AcDbLine
 10
-684.066219
 20
232.789788
 30
0.0
 11
-724.066219
 21
232.789788
 31
0.0
  0
ARC
  5
73A
100
AcDbEntity
  8
0
370
    -3
390
0
  6
Continuous
100
AcDbCircle
 10
-724.066219
 20
227.789788
 30
0.0
 40
5.0
100
AcDbArc
 50
90.0
 51
270.0
  0
ARC
  5
73B
100
AcDbEntity
  8
0
370
    -3
390
0
  6
Continuous
100
AcDbCircle
 10
-704.066219
 20
227.789788
 30
0.0
 40
12.5
100
AcDbArc
 50
23.578178
 51
156.421822
  0
ARC
  5
73C
100
AcDbEntity
  8
0
370
    -3
390
0
  6
Continuous
100
AcDbCircle
 10
-704.066219
 20
227.789788
 30
0.0
 40
18.0
100
AcDbArc
 50
196.12762
 51
343.87238
  0
ARC
  5
73D
100
AcDbEntity
  8
0
370
    -3
390
0
  6
Continuous
100
AcDbCircle
 10
-704.066219
 20
227.789788
 30
0.0
 40
18.0
100
AcDbArc
 50
16.12762
 51
163.87238
  0
LINE
  5
73E
100
AcDbEntity
  8
0
370
    -3
390
0
  6
Continuous
100
AcDbLine
 10
-722.066219
 20
247.789788
 30
0.0
 11
-704.066219
 21
247.789788
 31
0.0
  0
LINE
  5
73F
100
AcDbEntity
  8
0
370
    -3
390
0
  6
Continuous
100
AcDbLine
 10
-722.066219
 20
207.789788
 30
0.0
 11
-704.066219
 21
207.789788
 31
0.0
  0
LINE
  5
740
100
AcDbEntity
  8
0
370
    -3
390
0
  6
Continuous
100
AcDbLine
 10
-723.066219
 20
208.789788
 30
0.0
 11
-723.066219
 21
222.789788
 31
0.0
  0
ARC
  5
741
100
AcDbEntity
  8
0
370
    -3
390
0
  6
Continuous
100
AcDbCircle
 10
-722.066219
 20
208.789788
 30
0.0
 40
1.0
100
AcDbArc
 50
180.0
 51
270.0
  0
ARC
  5
742
100
AcDbEntity
  8
0
370
    -3
390
0
  6
Continuous
100
AcDbCircle
 10
-722.066219
 20
246.789788
 30
0.0
 40
1.0
100
AcDbArc
 50
90.0
 51
180.0
  0
LINE
  5
743
100
AcDbEntity
  8
0
370
    -3
390
0
  6
Continuous
100
AcDbLine
 10
-704.066219
 20
247.789788
 30
0.0
 11
-686.066219
 21
247.789788
 31
0.0
  0
LINE
  5
744
100
AcDbEntity
  8
0
370
    -3
390
0
  6
Continuous
100
AcDbLine
 10
-704.066219
 20
207.789788
 30
0.0
 11
-686.066219
 21
207.789788
 31
0.0
  0
LINE
  5
745
100
AcDbEntity
  8
0
370
    -3
390
0
  6
Continuous
100
AcDbLine
 10
-723.066219
 20
232.789788
 30
0.0
 11
-723.066219
 21
246.789788
 31
0.0
  0
LINE
  5
746
100
AcDbEntity
  8
0
370
    -3
390
0
  6
Continuous
100
AcDbLine
 10
-591.066219
 20
371.092995
 30
0.0
 11
-817.066219
 21
371.092995
 31
0.0
  0
LINE
  5
747
100
AcDbEntity
  8
0
370
    -3
390
0
  6
Continuous
100
AcDbLine
 10
-591.066219
 20
369.677671
 30
0.0
 11
-817.066219
 21
369.677671
 31
0.0
  0
LINE
  5
748
100
AcDbEntity
  8
0
370
    -3
390
0
  6
Continuous
100
AcDbLine
 10
-830.066219
 20
345.9091
 30
0.0
 11
-803.199824
 21
345.9091
 31
0.0
  0
LINE
  5
749
100
AcDbEntity
  8
0
370
    -3
390
0
  6
Continuous
100
AcDbLine
 10
-817.066219
 20
371.092995
 30
0.0
 11
-830.066219
 21
364.35205
 31
0.0
  0
LINE
  5
74A
100
AcDbEntity
  8
0
370
    -3
390
0
  6
Continuous
100
AcDbLine
 10
-817.066219
 20
369.677671
 30
0.0
 11
-830.066219
 21
362.936726
 31
0.0
  0
LINE
  5
74B
100
AcDbEntity
  8
0
370
    -3
390
0
  6
Continuous
100
AcDbLine
 10
-817.066219
 20
371.092995
 30
0.0
 11
-817.066219
 21
369.677671
 31
0.0
  0
LINE
  5
74C
100
AcDbEntity
  8
0
370
    -3
390
0
  6
Continuous
100
AcDbLine
 10
-591.066219
 20
378.858358
 30
0.0
 11
-817.066219
 21
378.858358
 31
0.0
  0
LINE
  5
74D
100
AcDbEntity
  8
0
370
    -3
390
0
  6
Continuous
100
AcDbLine
 10
-817.066219
 20
377.829752
 30
0.0
 11
-591.066219
 21
377.829752
 31
0.0
  0
LINE
  5
74E
100
AcDbEntity
  8
0
370
    -3
390
0
  6
Continuous
100
AcDbLine
 10
-817.066219
 20
378.865982
 30
0.0
 11
-817.066219
 21
377.829752
 31
0.0
  0
LINE
  5
74F
100
AcDbEntity
  8
0
370
    -3
390
0
  6
Continuous
100
AcDbLine
 10
-817.066219
 20
378.858358
 30
0.0
 11
-830.066219
 21
371.741178
 31
0.0
  0
LINE
  5
750
100
AcDbEntity
  8
0
370
    -3
390
0
  6
Continuous
100
AcDbLine
 10
-817.066219
 20
377.829752
 30
0.0
 11
-830.066219
 21
370.712572
 31
0.0
  0
LINE
  5
751
100
AcDbEntity
  8
0
370
    -3
390
0
  6
Continuous
100
AcDbLine
 10
-591.066219
 20
383.414607
 30
0.0
 11
-817.066219
 21
383.414607
 31
0.0
  0
LINE
  5
752
100
AcDbEntity
  8
0
370
    -3
390
0
  6
Continuous
100
AcDbLine
 10
-817.066219
 20
384.038896
 30
0.0
 11
-591.066219
 21
384.038896
 31
0.0
  0
LINE
  5
753
100
AcDbEntity
  8
0
370
    -3
390
0
  6
Continuous
100
AcDbLine
 10
-817.066219
 20
384.046792
 30
0.0
 11
-817.066219
 21
383.422503
 31
0.0
  0
LINE
  5
754
100
AcDbEntity
  8
0
370
    -3
390
0
  6
Continuous
100
AcDbLine
 10
-830.066219
 20
376.667259
 30
0.0
 11
-817.066219
 21
384.038896
 31
0.0
  0
LINE
  5
755
100
AcDbEntity
  8
0
370
    -3
390
0
  6
Continuous
100
AcDbLine
 10
-817.066219
 20
383.414607
 30
0.0
 11
-830.066219
 21
376.04297
 31
0.0
  0
LINE
  5
756
100
AcDbEntity
  8
0
370
    -3
390
0
  6
Continuous
100
AcDbLine
 10
-591.066219
 20
386.545968
 30
0.0
 11
-817.066219
 21
386.545968
 31
0.0
  0
LINE
  5
757
100
AcDbEntity
  8
0
370
    -3
390
0
  6
Continuous
100
AcDbLine
 10
-817.066219
 20
386.336678
 30
0.0
 11
-591.066219
 21
386.336678
 31
0.0
  0
LINE
  5
758
100
AcDbEntity
  8
0
370
    -3
390
0
  6
Continuous
100
AcDbLine
 10
-817.066219
 20
386.336678
 30
0.0
 11
-830.066219
 21
378.836715
 31
0.0
  0
LINE
  5
759
100
AcDbEntity
  8
0
370
    -3
390
0
  6
Continuous
100
AcDbLine
 10
-830.066219
 20
379.046005
 30
0.0
 11
-817.066219
 21
386.545968
 31
0.0
  0
LINE
  5
75A
100
AcDbEntity
  8
0
370
    -3
390
0
  6
Continuous
100
AcDbLine
 10
-817.066219
 20
386.336678
 30
0.0
 11
-817.066219
 21
386.545968
 31
0.0
  0
LINE
  5
75B
100
AcDbEntity
  8
0
370
    -3
390
0
  6
Continuous
100
AcDbLine
 10
-828.066219
 20
382.789788
 30
0.0
 11
-823.576964
 21
382.789788
 31
0.0
  0
LINE
  5
75C
100
AcDbEntity
  8
0
370
    -3
390
0
  6
Continuous
100
AcDbLine
 10
-828.066219
 20
382.789788
 30
0.0
 11
-830.066219
 21
380.789788
 31
0.0
  0
LINE
  5
75D
100
AcDbEntity
  8
0
370
    -3
390
0
  6
Continuous
100
AcDbLine
 10
-727.066219
 20
84.48658
 30
0.0
 11
-727.066219
 21
85.901904
 31
0.0
  0
LINE
  5
75E
100
AcDbEntity
  8
0
370
    -3
390
0
  6
Continuous
100
AcDbLine
 10
-727.066219
 20
85.901904
 30
0.0
 11
-744.040983
 21
94.703901
 31
0.0
  0
LINE
  5
75F
100
AcDbEntity
  8
0
370
    -3
390
0
  6
Continuous
100
AcDbLine
 10
-727.066219
 20
84.48658
 30
0.0
 11
-746.770453
 21
94.703901
 31
0.0
  0
LINE
  5
760
100
AcDbEntity
  8
0
370
    -3
390
0
  6
Continuous
100
AcDbLine
 10
-591.066219
 20
85.901904
 30
0.0
 11
-727.066219
 21
85.901904
 31
0.0
  0
LINE
  5
761
100
AcDbEntity
  8
0
370
    -3
390
0
  6
Continuous
100
AcDbLine
 10
-591.066219
 20
84.48658
 30
0.0
 11
-727.066219
 21
84.48658
 31
0.0
  0
LINE
  5
762
100
AcDbEntity
  8
0
370
    -3
390
0
  6
Continuous
100
AcDbLine
 10
-569.066219
 20
169.584859
 30
0.0
 11
-830.066219
 21
169.584859
 31
0.0
  0
LINE
  5
763
100
AcDbEntity
  8
0
370
    -3
390
0
  6
CENTER
100
AcDbLine
 10
-704.066219
 20
258.256199
 30
0.0
 11
-704.066219
 21
193.291342
 31
0.0
  0
LINE
  5
764
100
AcDbEntity
  8
0
370
    -3
390
0
  6
Continuous
100
AcDbLine
 10
-830.066219
 20
383.289788
 30
0.0
 11
-830.066219
 21
374.902579
 31
0.0
  0
LINE
  5
765
100
AcDbEntity
  8
0
370
    -3
390
0
  6
Continuous
100
AcDbLine
 10
-830.066219
 20
374.902579
 30
0.0
 11
-830.066219
 21
362.135252
 31
0.0
  0
LINE
  5
766
100
AcDbEntity
  8
0
370
    -3
390
0
  6
Continuous
100
AcDbLine
 10
-830.066219
 20
362.135252
 30
0.0
 11
-830.066219
 21
353.394666
 31
0.0
  0
LINE
  5
767
100
AcDbEntity
  8
0
370
    -3
390
0
  6
Continuous
100
AcDbLine
 10
-830.066219
 20
157.596617
 30
0.0
 11
-830.066219
 21
163.995171
 31
0.0
  0
LINE
  5
768
100
AcDbEntity
  8
0
370
    -3
390
0
  6
Continuous
100
AcDbLine
 10
-830.066219
 20
135.482958
 30
0.0
 11
-830.066219
 21
157.596617
 31
0.0
  0
ARC
  5
769
100
AcDbEntity
  8
0
370
    -3
390
0
  6
Continuous
100
AcDbCircle
 10
-832.105986
 20
128.598947
 30
0.0
 40
1.961244
100
AcDbArc
 50
88.838149
 51
178.159931
  0
LINE
  5
76A
100
AcDbEntity
  8
0
370
    -3
390
0
  6
Continuous
100
AcDbLine
 10
-838.066219
 20
97.791625
 30
0.0
 11
-851.066219
 21
97.791625
 31
0.0
  0
ARC
  5
76B
100
AcDbEntity
  8
0
370
    -3
390
0
  6
Continuous
100
AcDbCircle
 10
-851.066219
 20
93.791625
 30
0.0
 40
4.0
100
AcDbArc
 50
90.0
 51
180.0
  0
LINE
  5
76C
100
AcDbEntity
  8
0
370
    -3
390
0
  6
Continuous
100
AcDbLine
 10
-834.066219
 20
128.661922
 30
0.0
 11
-834.066219
 21
101.791625
 31
0.0
  0
ARC
  5
76D
100
AcDbEntity
  8
0
370
    -3
390
0
  6
Continuous
100
AcDbCircle
 10
-838.066219
 20
101.791625
 30
0.0
 40
4.0
100
AcDbArc
 50
270.0
 51
0.0
  0
ARC
  5
76E
100
AcDbEntity
  8
0
370
    -3
390
0
  6
Continuous
100
AcDbCircle
 10
-851.066219
 20
264.675401
 30
0.0
 40
4.0
100
AcDbArc
 50
180.0
 51
270.0
  0
LINE
  5
76F
100
AcDbEntity
  8
0
370
    -3
390
0
  6
Continuous
100
AcDbLine
 10
-855.066219
 20
93.791625
 30
0.0
 11
-855.066219
 21
87.148534
 31
0.0
  0
LINE
  5
770
100
AcDbEntity
  8
0
370
    -3
390
0
  6
Continuous
100
AcDbLine
 10
-830.066219
 20
346.081788
 30
0.0
 11
-830.066219
 21
353.394666
 31
0.0
  0
ARC
  5
771
100
AcDbEntity
  8
0
370
    -3
390
0
  6
Continuous
100
AcDbCircle
 10
-952.107353
 20
346.789788
 30
0.0
 40
2.0
100
AcDbArc
 50
270.0
 51
325.0
  0
ARC
  5
772
100
AcDbEntity
  8
0
370
    -3
390
0
  6
Continuous
100
AcDbCircle
 10
-952.066219
 20
341.789788
 30
0.0
 40
3.0
100
AcDbArc
 50
90.0
 51
180.0
  0
LINE
  5
773
100
AcDbEntity
  8
0
370
    -3
390
0
  6
Continuous
100
AcDbLine
 10
-929.608762
 20
375.434211
 30
0.0
 11
-950.469049
 21
345.642635
 31
0.0
  0
ARC
  5
774
100
AcDbEntity
  8
0
370
    -3
390
0
  6
Continuous
100
AcDbCircle
 10
-932.066219
 20
377.15494
 30
0.0
 40
3.0
100
AcDbArc
 50
325.0
 51
0.0
  0
ARC
  5
775
100
AcDbEntity
  8
0
370
    -3
390
0
  6
Continuous
100
AcDbCircle
 10
-926.066219
 20
378.289788
 30
0.0
 40
3.0
100
AcDbArc
 50
90.0
 51
180.0
  0
LINE
  5
776
100
AcDbEntity
  8
0
370
    -3
390
0
  6
Continuous
100
AcDbLine
 10
-871.066219
 20
365.632165
 30
0.0
 11
-866.066219
 21
367.07554
 31
0.0
  0
LINE
  5
777
100
AcDbEntity
  8
0
370
    -3
390
0
  6
Continuous
100
AcDbLine
 10
-868.51978
 20
374.134676
 30
0.0
 11
-830.066219
 21
374.134676
 31
0.0
  0
LINE
  5
778
100
AcDbEntity
  8
0
370
    -3
390
0
  6
Continuous
100
AcDbLine
 10
-866.066219
 20
373.426393
 30
0.0
 11
-871.066219
 21
374.869769
 31
0.0
  0
LINE
  5
779
100
AcDbEntity
  8
0
370
    -3
390
0
  6
Continuous
100
AcDbLine
 10
-866.066219
 20
370.539642
 30
0.0
 11
-866.066219
 21
373.426393
 31
0.0
  0
LINE
  5
77A
100
AcDbEntity
  8
0
370
    -3
390
0
  6
Continuous
100
AcDbLine
 10
-871.066219
 20
369.096266
 30
0.0
 11
-866.066219
 21
370.539642
 31
0.0
  0
LINE
  5
77B
100
AcDbEntity
  8
0
370
    -3
390
0
  6
Continuous
100
AcDbLine
 10
-866.066219
 20
367.07554
 30
0.0
 11
-866.066219
 21
370.539642
 31
0.0
  0
LINE
  5
77C
100
AcDbEntity
  8
0
370
    -3
390
0
  6
CENTER
100
AcDbLine
 10
-871.066219
 20
377.328807
 30
0.0
 11
-871.066219
 21
362.781802
 31
0.0
  0
ARC
  5
77D
100
AcDbEntity
  8
0
370
    -3
390
0
  6
Continuous
100
AcDbCircle
 10
-851.066219
 20
338.081788
 30
0.0
 40
4.0
100
AcDbArc
 50
90.0
 51
180.0
  0
LINE
  5
77E
100
AcDbEntity
  8
0
370
    -3
390
0
  6
Continuous
100
AcDbLine
 10
-855.066219
 20
264.675401
 30
0.0
 11
-855.066219
 21
338.081788
 31
0.0
  0
LINE
  5
77F
100
AcDbEntity
  8
0
370
    -3
390
0
  6
Continuous
100
AcDbLine
 10
-876.066219
 20
367.07554
 30
0.0
 11
-871.066219
 21
365.632165
 31
0.0
  0
LINE
  5
780
100
AcDbEntity
  8
0
370
    -3
390
0
  6
Continuous
100
AcDbLine
 10
-876.066219
 20
370.539642
 30
0.0
 11
-871.066219
 21
369.096266
 31
0.0
  0
LINE
  5
781
100
AcDbEntity
  8
0
370
    -3
390
0
  6
Continuous
100
AcDbLine
 10
-876.066219
 20
373.426393
 30
0.0
 11
-876.066219
 21
370.539642
 31
0.0
  0
LINE
  5
782
100
AcDbEntity
  8
0
370
    -3
390
0
  6
Continuous
100
AcDbLine
 10
-871.066219
 20
374.869769
 30
0.0
 11
-876.066219
 21
373.426393
 31
0.0
  0
LINE
  5
783
100
AcDbEntity
  8
0
370
    -3
390
0
  6
Continuous
100
AcDbLine
 10
-876.066219
 20
370.539642
 30
0.0
 11
-876.066219
 21
367.07554
 31
0.0
  0
ELLIPSE
  5
784
100
AcDbEntity
  8
0
370
    -3
390
0
  6
Continuous
100
AcDbEllipse
 10
-871.066219
 20
371.983018
 30
0.0
 11
5.0
 21
0.0
 31
0.0
210
0.0
220
0.0
230
1.0
 40
0.501013
 41
0.0
 42
6.2831853071795862
  0
LINE
  5
785
100
AcDbEntity
  8
0
370
    -3
390
0
  6
CENTER
100
AcDbLine
 10
-878.339721
 20
371.983018
 30
0.0
 11
-863.792716
 21
371.983018
 31
0.0
  0
LINE
  5
786
100
AcDbEntity
  8
0
370
    -3
390
0
  6
Continuous
100
AcDbLine
 10
-883.083557
 20
374.134676
 30
0.0
 11
-873.612657
 21
374.134676
 31
0.0
  0
ELLIPSE
  5
787
100
AcDbEntity
  8
0
370
    -3
390
0
  6
Continuous
100
AcDbEllipse
 10
-878.066219
 20
370.952283
 30
0.0
 11
7.0
 21
0.0
 31
0.0
210
0.0
220
0.0
230
1.0
 40
0.454628
 41
1.5721694153616843
 42
3.1415926535897931
  0
ARC
  5
788
100
AcDbEntity
  8
0
370
    -3
390
0
  6
Continuous
100
AcDbCircle
 10
-900.705581
 20
365.952283
 30
0.0
 40
15.639362
100
AcDbArc
 50
337.950598
 51
0.0
  0
ELLIPSE
  5
789
100
AcDbEntity
  8
0
370
    -3
390
0
  6
Continuous
100
AcDbEllipse
 10
-878.066219
 20
365.952283
 30
0.0
 11
7.0
 21
0.0
 31
0.0
210
0.0
220
0.0
230
1.0
 40
0.545372
 41
3.1415926535897931
 42
4.7123889803846897
  0
ARC
  5
78A
100
AcDbEntity
  8
0
370
    -3
390
0
  6
Continuous
100
AcDbCircle
 10
-882.715629
 20
358.134676
 30
0.0
 40
4.0
100
AcDbArc
 50
90.0
 51
150.88103
  0
LINE
  5
78B
100
AcDbEntity
  8
0
370
    -3
390
0
  6
Continuous
100
AcDbLine
 10
-886.210073
 20
360.081174
 30
0.0
 11
-889.066219
 21
354.95369
 31
0.0
  0
ARC
  5
78C
100
AcDbEntity
  8
0
370
    -3
390
0
  6
Continuous
100
AcDbCircle
 10
-886.738751
 20
370.952283
 30
0.0
 40
1.672533
100
AcDbArc
 50
0.0
 51
73.610004
  0
LINE
  5
78D
100
AcDbEntity
  8
0
370
    -3
390
0
  6
Continuous
100
AcDbLine
 10
-885.066219
 20
365.952283
 30
0.0
 11
-885.066219
 21
370.952283
 31
0.0
  0
ARC
  5
78E
100
AcDbEntity
  8
0
370
    -3
390
0
  6
Continuous
100
AcDbCircle
 10
-883.083557
 20
370.134676
 30
0.0
 40
4.0
100
AcDbArc
 50
90.0
 51
142.732041
  0
LINE
  5
78F
100
AcDbEntity
  8
0
370
    -3
390
0
  6
Continuous
100
AcDbLine
 10
-882.715629
 20
362.134676
 30
0.0
 11
-830.066219
 21
362.134676
 31
0.0
  0
LINE
  5
790
100
AcDbEntity
  8
0
370
    -3
390
0
  6
Continuous
100
AcDbLine
 10
-891.661492
 20
381.289788
 30
0.0
 11
-926.066219
 21
381.289788
 31
0.0
  0
LINE
  5
791
100
AcDbEntity
  8
0
370
    -3
390
0
  6
Continuous
100
AcDbLine
 10
-886.266806
 20
372.55685
 30
0.0
 11
-889.066219
 21
368.877829
 31
0.0
  0
LINE
  5
792
100
AcDbEntity
  8
0
370
    -3
390
0
  6
Continuous
100
AcDbLine
 10
-889.066219
 20
354.95369
 30
0.0
 11
-830.066219
 21
354.95369
 31
0.0
  0
ARC
  5
793
100
AcDbEntity
  8
0
370
    -3
390
0
  6
Continuous
100
AcDbCircle
 10
-834.066219
 20
346.081788
 30
0.0
 40
4.0
100
AcDbArc
 50
270.0
 51
0.0
  0
LINE
  5
794
100
AcDbEntity
  8
0
370
    -3
390
0
  6
Continuous
100
AcDbLine
 10
-851.066219
 20
342.081788
 30
0.0
 11
-834.066219
 21
342.081788
 31
0.0
  0
LINE
  5
795
100
AcDbEntity
  8
0
370
    -3
390
0
  6
Continuous
100
AcDbLine
 10
-834.066219
 20
260.675401
 30
0.0
 11
-851.066219
 21
260.675401
 31
0.0
  0
LINE
  5
796
100
AcDbEntity
  8
0
370
    -3
390
0
  6
Continuous
100
AcDbLine
 10
-830.066219
 20
163.995171
 30
0.0
 11
-830.066219
 21
256.675401
 31
0.0
  0
ARC
  5
797
100
AcDbEntity
  8
0
370
    -3
390
0
  6
Continuous
100
AcDbCircle
 10
-834.066219
 20
256.675401
 30
0.0
 40
4.0
100
AcDbArc
 50
0.0
 51
90.0
  0
INSERT
  5
79F
100
AcDbEntity
  8
0
390
0
100
AcDbBlockReference
  2
ZU_SYM_C__ZUOU_AC_BLOCK_BLKF030_0001200
 10
-1165.141486
 20
-58.297328
 30
0.0
  0
ARC
  5
7A0
100
AcDbEntity
  8
0
370
    -3
390
0
  6
Continuous
100
AcDbCircle
 10
-897.370614
 20
142.248132
 30
0.0
 40
12.304395
100
AcDbArc
 50
334.478825
 51
0.0
  0
ARC
  5
7A1
100
AcDbEntity
  8
0
370
    -3
390
0
  6
Continuous
100
AcDbCircle
 10
-911.156194
 20
150.908386
 30
0.0
 40
26.089975
100
AcDbArc
 50
0.0
 51
17.449275
  0
ARC
  5
7A2
100
AcDbEntity
  8
0
370
    -3
390
0
  6
Continuous
100
AcDbCircle
 10
-883.083557
 20
145.430939
 30
0.0
 40
9.061615
100
AcDbArc
 50
249.433801
 51
270.0
  0
ARC
  5
7A3
100
AcDbEntity
  8
0
370
    -3
390
0
  6
Continuous
100
AcDbCircle
 10
-883.083557
 20
161.153934
 30
0.0
 40
4.0
100
AcDbArc
 50
217.267959
 51
270.0
  0
ELLIPSE
  5
7A4
100
AcDbEntity
  8
0
370
    -3
390
0
  6
Continuous
100
AcDbEllipse
 10
-878.066219
 20
150.908386
 30
0.0
 11
7.0
 21
0.0
 31
0.0
210
0.0
220
0.0
230
1.0
 40
0.892221
 41
1.5786489530372321
 42
3.1415926535897931
  0
ELLIPSE
  5
7A5
100
AcDbEntity
  8
0
370
    -3
390
0
  6
Continuous
100
AcDbEllipse
 10
-878.066219
 20
142.248132
 30
0.0
 11
7.0
 21
0.0
 31
0.0
210
0.0
220
0.0
230
1.0
 40
0.83983
 41
3.1415926535897931
 42
4.7123889803846897
  0
LINE
  5
7A6
100
AcDbEntity
  8
0
370
    -3
390
0
  6
Continuous
100
AcDbLine
 10
-830.066219
 20
136.369324
 30
0.0
 11
-883.083557
 21
136.369324
 31
0.0
  0
LINE
  5
7A7
100
AcDbEntity
  8
0
370
    -3
390
0
  6
Continuous
100
AcDbLine
 10
-885.066219
 20
150.908386
 30
0.0
 11
-885.066219
 21
142.248132
 31
0.0
  0
LINE
  5
7A8
100
AcDbEntity
  8
0
370
    -3
390
0
  6
Continuous
100
AcDbLine
 10
-830.066219
 20
157.153934
 30
0.0
 11
-883.083557
 21
157.153934
 31
0.0
  0
LINE
  5
7A9
100
AcDbEntity
  8
0
370
    -3
390
0
  6
Continuous
100
AcDbLine
 10
-866.066219
 20
147.039789
 30
0.0
 11
-871.066219
 21
149.53979
 31
0.0
  0
LINE
  5
7AA
100
AcDbEntity
  8
0
370
    -3
390
0
  6
Continuous
100
AcDbLine
 10
-866.066219
 20
142.039787
 30
0.0
 11
-866.066219
 21
147.039789
 31
0.0
  0
LINE
  5
7AB
100
AcDbEntity
  8
0
370
    -3
390
0
  6
Continuous
100
AcDbLine
 10
-871.066219
 20
139.539786
 30
0.0
 11
-866.066219
 21
142.039787
 31
0.0
  0
LINE
  5
7AC
100
AcDbEntity
  8
0
370
    -3
390
0
  6
Continuous
100
AcDbLine
 10
-876.066219
 20
142.039787
 30
0.0
 11
-871.066219
 21
139.539786
 31
0.0
  0
LINE
  5
7AD
100
AcDbEntity
  8
0
370
    -3
390
0
  6
Continuous
100
AcDbLine
 10
-876.066219
 20
147.039789
 30
0.0
 11
-876.066219
 21
142.039787
 31
0.0
  0
LINE
  5
7AE
100
AcDbEntity
  8
0
370
    -3
390
0
  6
Continuous
100
AcDbLine
 10
-871.066219
 20
149.53979
 30
0.0
 11
-876.066219
 21
147.039789
 31
0.0
  0
LINE
  5
7AF
100
AcDbEntity
  8
0
370
    -3
390
0
  6
CENTER
100
AcDbLine
 10
-863.792716
 20
144.539788
 30
0.0
 11
-878.339721
 21
144.539788
 31
0.0
  0
LINE
  5
7B0
100
AcDbEntity
  8
0
370
    -3
390
0
  6
CENTER
100
AcDbLine
 10
-871.066219
 20
153.133212
 30
0.0
 11
-871.066219
 21
136.369324
 31
0.0
  0
ELLIPSE
  5
7B1
100
AcDbEntity
  8
0
370
    -3
390
0
  6
Continuous
100
AcDbEllipse
 10
-871.066219
 20
144.539788
 30
0.0
 11
5.0
 21
0.0
 31
0.0
210
0.0
220
0.0
230
1.0
 40
0.866
 41
0.0
 42
6.2831853071795862
  0
LINE
  5
7B2
100
AcDbEntity
  8
0
370
    -3
390
0
  6
Continuous
100
AcDbLine
 10
-830.066219
 20
162.410781
 30
0.0
 11
-889.066219
 21
162.410781
 31
0.0
  0
LINE
  5
7B3
100
AcDbEntity
  8
0
370
    -3
390
0
  6
Continuous
100
AcDbLine
 10
-886.266806
 20
158.73176
 30
0.0
 11
-889.066219
 21
162.410781
 31
0.0
  0
LINE
  5
7B4
100
AcDbEntity
  8
0
370
    -3
390
0
  6
Continuous
100
AcDbLine
 10
-886.266806
 20
136.946849
 30
0.0
 11
-889.066219
 21
138.293464
 31
0.0
  0
ARC
  5
7B5
100
AcDbEntity
  8
0
370
    -3
390
0
  6
Continuous
100
AcDbCircle
 10
-926.066219
 20
77.289788
 30
0.0
 40
3.0
100
AcDbArc
 50
180.0
 51
270.0
  0
ARC
  5
7B6
100
AcDbEntity
  8
0
370
    -3
390
0
  6
Continuous
100
AcDbCircle
 10
-932.066219
 20
78.424635
 30
0.0
 40
3.0
100
AcDbArc
 50
0.0
 51
35.0
  0
ARC
  5
7B7
100
AcDbEntity
  8
0
370
    -3
390
0
  6
Continuous
100
AcDbCircle
 10
-952.107353
 20
108.789788
 30
0.0
 40
2.0
100
AcDbArc
 50
35.0
 51
90.0
  0
ARC
  5
7B8
100
AcDbEntity
  8
0
370
    -3
390
0
  6
Continuous
100
AcDbCircle
 10
-952.066219
 20
113.789788
 30
0.0
 40
3.0
100
AcDbArc
 50
180.0
 51
270.0
  0
LINE
  5
7B9
100
AcDbEntity
  8
0
370
    -3
390
0
  6
Continuous
100
AcDbLine
 10
-950.469049
 20
109.93694
 30
0.0
 11
-929.608762
 21
80.145364
 31
0.0
  0
LINE
  5
7BA
100
AcDbEntity
  8
0
370
    -3
390
0
  6
Continuous
100
AcDbLine
 10
-951.066219
 20
344.789788
 30
0.0
 11
-951.066219
 21
110.789788
 31
0.0
  0
LINE
  5
7BB
100
AcDbEntity
  8
0
370
    -3
390
0
  6
Continuous
100
AcDbLine
 10
-955.066219
 20
341.789788
 30
0.0
 11
-955.066219
 21
113.789788
 31
0.0
  0
LINE
  5
7BC
100
AcDbEntity
  8
0
370
    -3
390
0
  6
Continuous
100
AcDbLine
 10
-929.066219
 20
378.289788
 30
0.0
 11
-929.066219
 21
77.289788
 31
0.0
  0
LINE
  5
7BD
100
AcDbEntity
  8
0
370
    -3
390
0
  6
Continuous
100
AcDbLine
 10
-890.566219
 20
381.515861
 30
0.0
 11
-890.566219
 21
74.012648
 31
0.0
  0
LINE
  5
7BE
100
AcDbEntity
  8
0
370
    -3
390
0
  6
Continuous
100
AcDbLine
 10
-889.066219
 20
73.489788
 30
0.0
 11
-889.066219
 21
382.089788
 31
0.0
  0
LINE
  5
7BF
100
AcDbEntity
  8
0
370
    -3
390
0
  6
Continuous
100
AcDbLine
 10
-926.066219
 20
74.289788
 30
0.0
 11
-891.661492
 21
74.289788
 31
0.0
  0
LINE
  5
7C0
100
AcDbEntity
  8
0
370
    -3
390
0
  6
Continuous
100
AcDbLine
 10
-847.266219
 20
93.424239
 30
0.0
 11
-847.266219
 21
97.791625
 31
0.0
  0
LINE
  5
7C1
100
AcDbEntity
  8
0
370
    -3
390
0
  6
Continuous
100
AcDbLine
 10
-847.266219
 20
95.289788
 30
0.0
 11
-854.77506
 21
95.289788
 31
0.0
  0
ELLIPSE
  5
7C2
100
AcDbEntity
  8
0
370
    -3
390
0
  6
Continuous
100
AcDbEllipse
 10
-809.066219
 20
103.201607
 30
0.0
 11
33.60468000000003
 21
0.0
 31
0.0
210
0.0
220
0.0
230
1.0
 40
0.258819
 41
1.4214530011849682
 42
2.4097495062190464
  0
LINE
  5
7C3
100
AcDbEntity
  8
0
370
    -3
390
0
  6
Continuous
100
AcDbLine
 10
-817.066219
 20
300.780583
 30
0.0
 11
-591.066219
 21
300.780583
 31
0.0
  0
LINE
  5
7C4
100
AcDbEntity
  8
0
370
    -3
390
0
  6
Continuous
100
AcDbLine
 10
-849.066219
 20
276.76989
 30
0.0
 11
-849.066219
 21
271.054607
 31
0.0
  0
LINE
  5
7C5
100
AcDbEntity
  8
0
370
    -3
390
0
  6
Continuous
100
AcDbLine
 10
-849.066219
 20
285.994717
 30
0.0
 11
-849.066219
 21
292.453284
 31
0.0
  0
LINE
  5
7C6
100
AcDbEntity
  8
0
370
    -3
390
0
  6
Continuous
100
AcDbLine
 10
-817.066219
 20
300.780583
 30
0.0
 11
-849.066219
 21
292.453284
 31
0.0
  0
LINE
  5
7C7
100
AcDbEntity
  8
0
370
    -3
390
0
  6
Continuous
100
AcDbLine
 10
-849.066219
 20
289.595751
 30
0.0
 11
-817.066219
 21
297.92305
 31
0.0
  0
LINE
  5
7C8
100
AcDbEntity
  8
0
370
    -3
390
0
  6
Continuous
100
AcDbLine
 10
-559.066219
 20
285.994717
 30
0.0
 11
-849.066219
 21
285.994717
 31
0.0
  0
LINE
  5
7C9
100
AcDbEntity
  8
0
370
    -3
390
0
  6
Continuous
100
AcDbLine
 10
-849.066219
 20
273.758126
 30
0.0
 11
-817.066219
 21
280.009944
 31
0.0
  0
LINE
  5
7CA
100
AcDbEntity
  8
0
370
    -3
390
0
  6
Continuous
100
AcDbLine
 10
-817.066219
 20
283.021707
 30
0.0
 11
-849.066219
 21
276.769889
 31
0.0
  0
LINE
  5
7CB
100
AcDbEntity
  8
0
370
    -3
390
0
  6
Continuous
100
AcDbLine
 10
-559.066219
 20
271.054607
 30
0.0
 11
-849.066219
 21
271.054607
 31
0.0
  0
LINE
  5
7CC
100
AcDbEntity
  8
0
370
    -3
390
0
  6
Continuous
100
AcDbLine
 10
-830.066219
 20
132.559787
 30
0.0
 11
-830.066219
 21
135.482958
 31
0.0
  0
ARC
  5
7CD
100
AcDbEntity
  8
0
370
    -3
390
0
  6
Continuous
100
AcDbCircle
 10
-832.066219
 20
132.559787
 30
0.0
 40
2.0
100
AcDbArc
 50
270.0
 51
0.0
  0
LINE
  5
7CE
100
AcDbEntity
  8
0
370
    -3
390
0
  6
CENTER
100
AcDbLine
 10
-41.359703
 20
227.789788
 30
0.0
 11
-966.869178
 21
227.789788
 31
0.0
  0
LINE
  5
7CF
100
AcDbEntity
  8
0
370
    -3
390
0
  6
Continuous
100
AcDbLine
 10
-551.751927
 20
370.467657
 30
0.0
 11
-544.066219
 21
370.3515
 31
0.0
  0
LINE
  5
7D0
100
AcDbEntity
  8
0
370
    -3
390
0
  6
Continuous
100
AcDbLine
 10
-529.066219
 20
370.1248
 30
0.0
 11
-440.732885
 21
368.789788
 31
0.0
  0
LINE
  5
7D1
100
AcDbEntity
  8
0
370
    -3
390
0
  6
Continuous
100
AcDbLine
 10
-529.066219
 20
85.454775
 30
0.0
 11
-497.354667
 21
85.934043
 31
0.0
  0
ARC
  5
7D2
100
AcDbEntity
  8
0
370
    -3
390
0
  6
Continuous
100
AcDbCircle
 10
-551.600811
 20
75.11306
 30
0.0
 40
10.0
100
AcDbArc
 50
96.218868
 51
135.0
  0
LINE
  5
7D3
100
AcDbEntity
  8
0
370
    -3
390
0
  6
Continuous
100
AcDbLine
 10
-497.354667
 20
85.934043
 30
0.0
 11
-440.732885
 21
86.789788
 31
0.0
  0
LINE
  5
7D4
100
AcDbEntity
  8
0
370
    -3
390
0
  6
Continuous
100
AcDbLine
 10
-414.066219
 20
227.789788
 30
0.0
 11
-414.066219
 21
299.789788
 31
0.0
  0
LINE
  5
7D5
100
AcDbEntity
  8
0
370
    -3
390
0
  6
Continuous
100
AcDbLine
 10
-414.066219
 20
323.789788
 30
0.0
 11
-414.066219
 21
375.789788
 31
0.0
  0
LINE
  5
7D6
100
AcDbEntity
  8
0
370
    -3
390
0
  6
Continuous
100
AcDbLine
 10
-417.318233
 20
323.35315
 30
0.0
 11
-433.066219
 21
323.35315
 31
0.0
  0
LINE
  5
7D7
100
AcDbEntity
  8
0
370
    -3
390
0
  6
Continuous
100
AcDbLine
 10
-433.066219
 20
305.343249
 30
0.0
 11
-418.066183
 21
305.343249
 31
0.0
  0
LINE
  5
7D8
100
AcDbEntity
  8
0
370
    -3
390
0
  6
Continuous
100
AcDbLine
 10
-414.066219
 20
227.789788
 30
0.0
 11
-414.066219
 21
155.789788
 31
0.0
  0
LINE
  5
7D9
100
AcDbEntity
  8
0
370
    -3
390
0
  6
Continuous
100
AcDbLine
 10
-414.066219
 20
131.789788
 30
0.0
 11
-414.066219
 21
79.789788
 31
0.0
  0
LINE
  5
7DA
100
AcDbEntity
  8
0
370
    -3
390
0
  6
Continuous
100
AcDbLine
 10
-433.066219
 20
132.226425
 30
0.0
 11
-417.318233
 21
132.226425
 31
0.0
  0
LINE
  5
7DB
100
AcDbEntity
  8
0
370
    -3
390
0
  6
Continuous
100
AcDbLine
 10
-433.066219
 20
150.236326
 30
0.0
 11
-418.066183
 21
150.236326
 31
0.0
  0
MTEXT
  5
7DD
100
AcDbEntity
  8
0
370
    -3
390
0
  6
Continuous
100
AcDbMText
 10
279.59787
 20
275.338928
 30
0.0
 40
16.0
 41
0.0
 71
     7
 72
     1
  1
\W0.83;三菱ギヤードモータ  
  7
ZU_SHPTB00001
 11
1.0
 21
0.0
 31
0.0
 73
     1
 44
1.0
  0
MTEXT
  5
7DE
100
AcDbEntity
  8
0
370
    -3
390
0
  6
Continuous
100
AcDbMText
 10
279.59787
 20
254.138931
 30
0.0
 40
16.0
 41
0.0
 71
     7
 72
     1
  1
\W0.60;GM-LJP
  7
ZU_SHPTB00001
 11
1.0
 21
0.0
 31
0.0
 73
     1
 44
1.0
  0
MTEXT
  5
7DF
100
AcDbEntity
  8
0
370
    -3
390
0
  6
Continuous
100
AcDbMText
 10
279.59787
 20
232.938934
 30
0.0
 40
16.0
 41
0.0
 71
     7
 72
     1
  1
\W0.60;11(kW)
  7
ZU_SHPTB00001
 11
1.0
 21
0.0
 31
0.0
 73
     1
 44
1.0
  0
MTEXT
  5
7E0
100
AcDbEntity
  8
0
370
    -3
390
0
  6
Continuous
100
AcDbMText
 10
279.59787
 20
211.738922
 30
0.0
 40
16.0
 41
0.0
 71
     7
 72
     1
  1
\W0.60;1/30
  7
ZU_SHPTB00001
 11
1.0
 21
0.0
 31
0.0
 73
     1
 44
1.0
  0
MTEXT
  5
7E1
100
AcDbEntity
  8
0
370
    -3
390
0
  6
Continuous
100
AcDbMText
 10
279.59787
 20
190.538925
 30
0.0
 40
16.0
 41
0.0
 71
     7
 72
     1
  1
\W1.00;ｷﾞﾔｻｲｽﾞ\W1.00; \W0.60;M
  7
ZU_SHPTB00001
 11
1.0
 21
0.0
 31
0.0
 73
     1
 44
1.0
  0
MTEXT
  5
7E2
100
AcDbEntity
  8
0
370
    -3
390
0
  6
Continuous
100
AcDbMText
 10
279.59787
 20
169.338928
 30
0.0
 40
16.0
 41
0.0
 71
     7
 72
     1
  1
\W0.60;SCALE\W1.00; \W0.60;1/1
  7
ZU_SHPTB00001
 11
1.0
 21
0.0
 31
0.0
 73
     1
 44
1.0
  0
ENDSEC
  0
SECTION
  2
OBJECTS
  0
DICTIONARY
  5
19
100
AcDbDictionary
280
     0
281
     1
  3
ACAD_GROUP
350
1A
  3
ACAD_MLINESTYLE
350
1B
  3
ACAD_LAYOUT
350
1E
  3
ACAD_PLOTSETTINGS
350
22
  3
ACAD_PLOTSTYLENAME
350
1F
  3
ACAD_WIPEOUT_VARS
350
23
  3
DWGPROPS
350
7E3
  0
DICTIONARY
  5
1A
102
{ACAD_REACTORS
330
19
102
}
100
AcDbDictionary
280
     0
281
     1
  0
DICTIONARY
  5
1B
102
{ACAD_REACTORS
330
19
102
}
100
AcDbDictionary
280
     0
281
     1
  3
Standard
350
1C
  0
MLINESTYLE
  5
1C
102
{ACAD_REACTORS
330
1B
102
}
100
AcDbMlineStyle
  2
Standard
 70
     0
  3

 62
     0
 51
90.0
 52
90.0
 71
     2
 49
0.5
 62
   256
  6
ByLayer
 49
-0.5
 62
   256
  6
ByLayer
  0
ACDBDICTIONARYWDFLT
  5
1F
102
{ACAD_REACTORS
330
19
102
}
100
AcDbDictionary
281
     1
  3
Normal
350
1D
100
AcDbDictionaryWithDefault
340
1D
  0
ACDBPLACEHOLDER
  5
1D
102
{ACAD_REACTORS
330
1F
102
}
  0
LAYOUT
  5
20
102
{ACAD_REACTORS
330
1E
102
}
100
AcDbPlotSettings
  1

  2

  4

  6

 40
0.0
 41
0.0
 42
0.0
 43
0.0
 44
0.0
 45
0.0
 46
0.0
 47
0.0
 48
0.0
 49
0.0
140
0.0
141
0.0
142
1.0
143
1.0
 70
  1024
 72
     0
 73
     0
 74
     0
  7

 75
     0
147
1.0
148
0.0
149
0.0
100
AcDbLayout
  1
Model
 70
     0
 71
     0
 10
0.0
 20
0.0
 11
0.0
 21
0.0
 12
0.0
 22
0.0
 32
0.0
 14
0.0
 24
0.0
 34
0.0
 15
0.0
 25
0.0
 35
0.0
146
0.0
 13
0.0
 23
0.0
 33
0.0
 16
0.0
 26
0.0
 36
0.0
 17
0.0
 27
0.0
 37
0.0
 76
     0
330
A
331
0
345
0
346
0
  0
LAYOUT
  5
21
102
{ACAD_REACTORS
330
1E
102
}
100
AcDbPlotSettings
  1

  2

  4

  6

 40
0.0
 41
0.0
 42
0.0
 43
0.0
 44
0.0
 45
0.0
 46
0.0
 47
0.0
 48
0.0
 49
0.0
140
0.0
141
0.0
142
1.0
143
1.0
 70
     0
 72
     0
 73
     0
 74
     0
  7

 75
     0
147
1.0
148
0.0
149
0.0
100
AcDbLayout
  1
Layout1
 70
     0
 71
     0
 10
0.0
 20
0.0
 11
0.0
 21
0.0
 12
0.0
 22
0.0
 32
0.0
 14
0.0
 24
0.0
 34
0.0
 15
0.0
 25
0.0
 35
0.0
146
0.0
 13
0.0
 23
0.0
 33
0.0
 16
0.0
 26
0.0
 36
0.0
 17
0.0
 27
0.0
 37
0.0
 76
     0
330
B
331
0
345
0
346
0
  0
DICTIONARY
  5
1E
102
{ACAD_REACTORS
330
19
102
}
100
AcDbDictionary
280
     0
281
     1
  3
Layout1
350
21
  3
Model
350
20
  0
DICTIONARY
  5
22
102
{ACAD_REACTORS
330
19
102
}
100
AcDbDictionary
280
     0
281
     1
  0
WIPEOUTVARIABLES
  5
23
100
AcDbWipeoutVariables
 70
     1
  0
XRECORD
  5
7E3
100
AcDbXrecord
280
     1
  1
DWGPROPS COOKIE
  2

  3

  4

  6

  7

  8
YP81315
  9

300
=
301
=
302
=
303
=
304
=
305
=
306
=
307
=
308
=
309
=
 40
0.0
 41
2456813.627257
 42
2456813.627257
  1

 90
        0
  0
ENDSEC
  0
EOF
