  0
SECTION
  2
HEADER
  9
$ACADVER
  1
AC1015
  9
$ACADMAINTVER
 70
     6
  9
$DWGCODEPAGE
  3
ANSI_932
  9
$INSBASE
 10
0.0
 20
0.0
 30
0.0
  9
$EXTMIN
 10
1.000000E+20
 20
1.000000E+20
 30
1.000000E+20
  9
$EXTMAX
 10
-1.000000E+20
 20
-1.000000E+20
 30
-1.000000E+20
  9
$LIMMIN
 10
0.0
 20
0.0
  9
$LIMMAX
 10
0.0
 20
0.0
  9
$ORTHOMODE
 70
     0
  9
$REGENMODE
 70
     1
  9
$FILLMODE
 70
     1
  9
$QTEXTMODE
 70
     0
  9
$MIRRTEXT
 70
     1
  9
$LTSCALE
 40
1.0
  9
$ATTMODE
 70
     1
  9
$TEXTSIZE
 40
3.2
  9
$TRACEWID
 40
0.05
  9
$TEXTSTYLE
  7
Standard
  9
$CLAYER
  8
0
  9
$CELTYPE
  6
Continuous
  9
$CECOLOR
 62
   256
  9
$CELTSCALE
 40
1.0
  9
$DISPSILH
 70
     0
  9
$DIMSCALE
 40
1.0
  9
$DIMASZ
 40
1.931852
  9
$DIMEXO
 40
1.0
  9
$DIMDLI
 40
0.38
  9
$DIMRND
 40
0.0
  9
$DIMDLE
 40
0.0
  9
$DIMEXE
 40
2.0
  9
$DIMTP
 40
0.0
  9
$DIMTM
 40
0.0
  9
$DIMTXT
 40
2.8
  9
$DIMCEN
 40
0.09
  9
$DIMTSZ
 40
0.0
  9
$DIMTOL
 70
     0
  9
$DIMLIM
 70
     0
  9
$DIMTIH
 70
     1
  9
$DIMTOH
 70
     1
  9
$DIMSE1
 70
     0
  9
$DIMSE2
 70
     0
  9
$DIMTAD
 70
     1
  9
$DIMZIN
 70
     0
  9
$DIMBLK
  1

  9
$DIMASO
 70
     1
  9
$DIMSHO
 70
     1
  9
$DIMPOST
  1

  9
$DIMAPOST
  1

  9
$DIMALT
 70
     0
  9
$DIMALTD
 70
     2
  9
$DIMALTF
 40
25.4
  9
$DIMLFAC
 40
1.0
  9
$DIMTOFL
 70
     0
  9
$DIMTVP
 40
0.0
  9
$DIMTIX
 70
     0
  9
$DIMSOXD
 70
     0
  9
$DIMSAH
 70
     0
  9
$DIMBLK1
  1

  9
$DIMBLK2
  1

  9
$DIMSTYLE
  2
Standard
  9
$DIMCLRD
 70
     0
  9
$DIMCLRE
 70
     0
  9
$DIMCLRT
 70
     0
  9
$DIMTFAC
 40
0.625
  9
$DIMGAP
 40
0.09
  9
$DIMJUST
 70
     0
  9
$DIMSD1
 70
     0
  9
$DIMSD2
 70
     0
  9
$DIMTOLJ
 70
     1
  9
$DIMTZIN
 70
     0
  9
$DIMALTZ
 70
     0
  9
$DIMALTTZ
 70
     0
  9
$DIMUPT
 70
     0
  9
$DIMDEC
 70
     4
  9
$DIMTDEC
 70
     4
  9
$DIMALTU
 70
     2
  9
$DIMALTTD
 70
     2
  9
$DIMTXSTY
  7
Standard
  9
$DIMAUNIT
 70
     0
  9
$DIMADEC
 70
     0
  9
$DIMALTRND
 40
0.0
  9
$DIMAZIN
 70
     0
  9
$DIMDSEP
 70
     0
  9
$DIMATFIT
 70
     3
  9
$DIMFRAC
 70
     0
  9
$DIMLDRBLK
  1

  9
$DIMLUNIT
 70
     2
  9
$DIMLWD
 70
     0
  9
$DIMLWE
 70
     0
  9
$DIMTMOVE
 70
     0
  9
$LUNITS
 70
     2
  9
$LUPREC
 70
     3
  9
$SKETCHINC
 40
0.1
  9
$FILLETRAD
 40
0.0
  9
$AUNITS
 70
     0
  9
$AUPREC
 70
     0
  9
$MENU
  1
acad
  9
$ELEVATION
 40
0.0
  9
$PELEVATION
 40
0.0
  9
$THICKNESS
 40
0.0
  9
$LIMCHECK
 70
     0
  9
$CHAMFERA
 40
0.0
  9
$CHAMFERB
 40
0.0
  9
$CHAMFERC
 40
0.0
  9
$CHAMFERD
 40
0.0
  9
$SKPOLY
 70
     0
  9
$TDCREATE
 40
0.000000000
  9
$TDUCREATE
 40
0.000000000
  9
$TDUPDATE
 40
0.000000000
  9
$TDUUPDATE
 40
0.000000000
  9
$TDINDWG
 40
0.0000000000
  9
$TDUSRTIMER
 40
0.0000000000
  9
$USRTIMER
 70
     1
  9
$ANGBASE
 50
0.0
  9
$ANGDIR
 70
     0
  9
$PDMODE
 70
     0
  9
$PDSIZE
 40
0.0
  9
$PLINEWID
 40
0.0
  9
$SPLFRAME
 70
     0
  9
$SPLINETYPE
 70
     6
  9
$SPLINESEGS
 70
     8
  9
$HANDSEED
  5
81F
  9
$SURFTAB1
 70
     6
  9
$SURFTAB2
 70
     6
  9
$SURFTYPE
 70
     6
  9
$SURFU
 70
     6
  9
$SURFV
 70
     6
  9
$UCSBASE
  2

  9
$UCSNAME
  2

  9
$UCSORG
 10
0.0
 20
0.0
 30
0.0
  9
$UCSXDIR
 10
1.0
 20
0.0
 30
0.0
  9
$UCSYDIR
 10
0.0
 20
1.0
 30
0.0
  9
$UCSORTHOREF
  2

  9
$UCSORTHOVIEW
 70
     0
  9
$UCSORGTOP
 10
0.0
 20
0.0
 30
0.0
  9
$UCSORGBOTTOM
 10
0.0
 20
0.0
 30
0.0
  9
$UCSORGLEFT
 10
0.0
 20
0.0
 30
0.0
  9
$UCSORGRIGHT
 10
0.0
 20
0.0
 30
0.0
  9
$UCSORGFRONT
 10
0.0
 20
0.0
 30
0.0
  9
$UCSORGBACK
 10
0.0
 20
0.0
 30
0.0
  9
$PUCSBASE
  2

  9
$PUCSNAME
  2

  9
$PUCSORG
 10
0.0
 20
0.0
 30
0.0
  9
$PUCSXDIR
 10
1.0
 20
0.0
 30
0.0
  9
$PUCSYDIR
 10
0.0
 20
1.0
 30
0.0
  9
$PUCSORTHOREF
  2

  9
$PUCSORTHOVIEW
 70
     0
  9
$PUCSORGTOP
 10
0.0
 20
0.0
 30
0.0
  9
$PUCSORGBOTTOM
 10
0.0
 20
0.0
 30
0.0
  9
$PUCSORGLEFT
 10
0.0
 20
0.0
 30
0.0
  9
$PUCSORGRIGHT
 10
0.0
 20
0.0
 30
0.0
  9
$PUCSORGFRONT
 10
0.0
 20
0.0
 30
0.0
  9
$PUCSORGBACK
 10
0.0
 20
0.0
 30
0.0
  9
$USERI1
 70
     0
  9
$USERI2
 70
     0
  9
$USERI3
 70
     0
  9
$USERI4
 70
     0
  9
$USERI5
 70
     0
  9
$USERR1
 40
0.0
  9
$USERR2
 40
0.0
  9
$USERR3
 40
0.0
  9
$USERR4
 40
0.0
  9
$USERR5
 40
0.0
  9
$WORLDVIEW
 70
     1
  9
$SHADEDGE
 70
     3
  9
$SHADEDIF
 70
    70
  9
$TILEMODE
 70
     1
  9
$MAXACTVP
 70
    16
  9
$PINSBASE
 10
0.0
 20
0.0
 30
0.0
  9
$PLIMCHECK
 70
     0
  9
$PEXTMIN
 10
1.000000E+20
 20
1.000000E+20
 30
1.000000E+20
  9
$PEXTMAX
 10
-1.000000E+20
 20
-1.000000E+20
 30
-1.000000E+20
  9
$PLIMMIN
 10
0.0
 20
0.0
  9
$PLIMMAX
 10
12.0
 20
9.0
  9
$UNITMODE
 70
     0
  9
$VISRETAIN
 70
     0
  9
$PLINEGEN
 70
     1
  9
$PSLTSCALE
 70
     0
  9
$TREEDEPTH
 70
  3020
  9
$CMLSTYLE
  2
Standard
  9
$CMLJUST
 70
     0
  9
$CMLSCALE
 40
1.0
  9
$PROXYGRAPHICS
 70
     0
  9
$MEASUREMENT
 70
     0
  9
$CELWEIGHT
370
     0
  9
$ENDCAPS
280
     0
  9
$JOINSTYLE
280
     0
  9
$LWDISPLAY
290
     0
  9
$INSUNITS
 70
     0
  9
$HYPERLINKBASE
  1

  9
$STYLESHEET
  1

  9
$XEDIT
290
     1
  9
$CEPSNTYPE
380
     0
  9
$PSTYLEMODE
290
     1
  9
$FINGERPRINTGUID
  2

  9
$VERSIONGUID
  2

  9
$EXTNAMES
290
     1
  9
$PSVPSCALE
 40
0.0
  0
ENDSEC
  0
SECTION
  2
CLASSES
  0
CLASS
  1
LWPOLYLINE
  2
AcDbPolyline
  3
AutoCAD 2000
 90
        0
280
     0
281
     1
  0
CLASS
  1
IMAGE
  2
AcDbRasterImage
  3
ISM
 90
      127
280
     0
281
     1
  0
CLASS
  1
OLE2FRAME
  2
AcDbOle2Frame
  3
AutoCAD 2000
 90
        0
280
     0
281
     1
  0
CLASS
  1
HATCH
  2
AcDbHatch
  3
AutoCAD 2000
 90
        0
280
     0
281
     1
  0
CLASS
  1
DICTIONARYVAR
  2
AcDbDictionaryVar
  3
AutoCAD 2000
 90
        0
280
     0
281
     0
  0
CLASS
  1
RASTERVARIABLES
  2
AcDbRasterVariables
  3
ISM
 90
        0
280
     0
281
     0
  0
CLASS
  1
IMAGEDEF
  2
AcDbRasterImageDef
  3
ISM
 90
        0
280
     0
281
     0
  0
CLASS
  1
IMAGEDEF_REACTOR
  2
AcDbRasterImageDefReactor
  3
ISM
 90
        1
280
     0
281
     0
  0
CLASS
  1
IDBUFFER
  2
AcDbIdBuffer
  3
AutoCAD 2000
 90
        0
280
     0
281
     0
  0
CLASS
  1
SPATIAL_FILTER
  2
AcDbSpatialFilter
  3
AutoCAD 2000
 90
        0
280
     0
281
     0
  0
CLASS
  1
XRECORD
  2
AcDbXrecord
  3
AutoCAD 2000
 90
        0
280
     0
281
     0
  0
CLASS
  1
SORTENTSTABLE
  2
AcDbSortentsTable
  3
AutoCAD 2000
 90
        0
280
     0
281
     0
  0
CLASS
  1
LAYER_INDEX
  2
AcDbLayerIndex
  3
AutoCAD 2000
 90
        0
280
     0
281
     0
  0
CLASS
  1
SPATIAL_INDEX
  2
AcDbSpatialIndex
  3
AutoCAD 2000
 90
        0
280
     0
281
     0
  0
CLASS
  1
OBJECT_PTR
  2
CAseDLPNTableRecord
  3
"ASE-LPNTableRecord"
 90
        1
280
     0
281
     0
  0
CLASS
  1
LAYOUT
  2
AcDbLayout
  3
AutoCAD 2000
 90
        0
280
     0
281
     0
  0
CLASS
  1
PLOTSETTINGS
  2
AcDbPlotSettings
  3
AutoCAD 2000
 90
        0
280
     0
281
     0
  0
CLASS
  1
ACDBDICTIONARYWDFLT
  2
AcDbDictionaryWithDefault
  3
AutoCAD 2000
 90
        0
280
     0
281
     0
  0
CLASS
  1
ACDBPLACEHOLDER
  2
AcDbPlaceHolder
  3
AutoCAD 2000
 90
        0
280
     0
281
     0
  0
CLASS
  1
VBA_PROJECT
  2
AcDbVbaProject
  3
acadvba
 90
        0
280
     0
281
     0
  0
CLASS
  1
WIPEOUT
  2
AcDbWipeout
  3
WipeOut|AutoCAD Express Tool|expresstools@autodesk.com
 90
      127
280
     0
281
     1
  0
CLASS
  1
WIPEOUTVARIABLES
  2
AcDbWipeoutVariables
  3
WipeOut|AutoCAD Express Tool|expresstools@autodesk.com
 90
        0
280
     0
281
     0
  0
CLASS
  1
RTEXT
  2
RText
  3
RText|AutoCAD Express Tool|expresstools@autodesk.com
 90
        0
280
     0
281
     1
  0
CLASS
  1
ARCALIGNEDTEXT
  2
AcDbArcAlignedText
  3
ATEXT|AutoCAD Express Tool|expresstools@autodesk.com
 90
        0
280
     0
281
     1
  0
ENDSEC
  0
SECTION
  2
TABLES
  0
TABLE
  2
VPORT
  5
7
100
AcDbSymbolTable
 70
     1
  0
VPORT
  5
15
100
AcDbSymbolTableRecord
100
AcDbViewportTableRecord
  2
*ACTIVE
 70
     0
 10
0.0
 20
0.0
 11
1.0
 21
1.0
 12
0.0
 22
0.0
 13
0.0
 23
0.0
 14
1.0
 24
1.0
 15
0.0
 25
0.0
 16
0.0
 26
0.0
 36
1.0
 17
0.0
 27
0.0
 37
0.0
 40
100.0
 41
1.0
 42
50.0
 43
0.0
 44
0.0
 50
0.0
 51
0.0
 71
     0
 72
   100
 73
     1
 74
     1
 75
     0
 76
     0
 77
     0
 78
     0
281
     0
 65
     0
110
0.0
120
0.0
130
0.0
111
1.0
121
0.0
131
0.0
112
0.0
122
1.0
132
0.0
345
0
346
0
 79
     0
146
0.0
  0
ENDTAB
  0
TABLE
  2
LTYPE
  5
4
100
AcDbSymbolTable
 70
     7
  0
LTYPE
  5
11
100
AcDbSymbolTableRecord
100
AcDbLinetypeTableRecord
  2
ByBlock
 70
    64
  3

 72
    65
 73
     0
 40
0.0
  0
LTYPE
  5
12
100
AcDbSymbolTableRecord
100
AcDbLinetypeTableRecord
  2
ByLayer
 70
    64
  3

 72
    65
 73
     0
 40
0.0
  0
LTYPE
  5
13
100
AcDbSymbolTableRecord
100
AcDbLinetypeTableRecord
  2
Continuous
 70
    64
  3
Solid line
 72
    65
 73
     0
 40
0.0
  0
LTYPE
  5
24
100
AcDbSymbolTableRecord
100
AcDbLinetypeTableRecord
  2
DASHED
 70
    64
  3
Dashed __ __ __ __ __ __ __ __ __ __ __ __ __ _
 72
    65
 73
     2
 40
0.75
 49
0.5
 74
     0
 49
-0.25
 74
     0
  0
LTYPE
  5
25
100
AcDbSymbolTableRecord
100
AcDbLinetypeTableRecord
  2
CENTER
 70
    64
  3
Center ____ _ ____ _ ____ _ ____ _ ____ _ ____
 72
    65
 73
     4
 40
1.0
 49
0.5
 74
     0
 49
-0.25
 74
     0
 49
0.0
 74
     0
 49
-0.25
 74
     0
  0
LTYPE
  5
26
100
AcDbSymbolTableRecord
100
AcDbLinetypeTableRecord
  2
DIVIDE
 70
    64
  3
Divide ____ . . ____ . . ____ . . ____ . . ____
 72
    65
 73
     6
 40
1.25
 49
0.5
 74
     0
 49
-0.25
 74
     0
 49
0.0
 74
     0
 49
-0.25
 74
     0
 49
0.0
 74
     0
 49
-0.25
 74
     0
  0
LTYPE
  5
27
100
AcDbSymbolTableRecord
100
AcDbLinetypeTableRecord
  2
PHANTOM
 70
    64
  3
Phantom ______  __  __  ______  __  __  ______
 72
    65
 73
     6
 40
9.0
 49
4.3
 74
     0
 49
-0.7
 74
     0
 49
1.3
 74
     0
 49
-0.7
 74
     0
 49
1.3
 74
     0
 49
-0.7
 74
     0
  0
ENDTAB
  0
TABLE
  2
LAYER
  5
2
100
AcDbSymbolTable
 70
     6
  0
LAYER
  5
14
100
AcDbSymbolTableRecord
100
AcDbLayerTableRecord
  2
0
 70
    64
 62
     3
  6
Continuous
290
     1
370
    -3
390
1D
  0
LAYER
  5
28
100
AcDbSymbolTableRecord
100
AcDbLayerTableRecord
  2
1
 70
    64
 62
    42
  6
Continuous
290
     1
370
    -3
390
1D
  0
LAYER
  5
29
100
AcDbSymbolTableRecord
100
AcDbLayerTableRecord
  2
2
 70
    64
 62
     4
  6
Continuous
290
     1
370
    -3
390
1D
  0
LAYER
  5
2A
100
AcDbSymbolTableRecord
100
AcDbLayerTableRecord
  2
3
 70
    64
 62
    42
  6
Continuous
290
     1
370
    -3
390
1D
  0
LAYER
  5
2B
100
AcDbSymbolTableRecord
100
AcDbLayerTableRecord
  2
5
 70
    64
 62
   191
  6
Continuous
290
     1
370
    -3
390
1D
  0
LAYER
  5
2C
100
AcDbSymbolTableRecord
100
AcDbLayerTableRecord
  2
10
 70
    64
 62
     7
  6
Continuous
290
     1
370
    -3
390
1D
  0
ENDTAB
  0
TABLE
  2
STYLE
  5
3
100
AcDbSymbolTable
 70
     2
  0
STYLE
  5
17
100
AcDbSymbolTableRecord
100
AcDbTextStyleTableRecord
  2
Standard
 70
     0
 40
0.0
 41
1.0
 50
0.0
 71
     0
 42
0.0
  3
txt
  4

  0
STYLE
  5
56E
100
AcDbSymbolTableRecord
100
AcDbTextStyleTableRecord
  2
ZU_SHPTB00001
 70
     0
 40
0.0
 41
1.0
 50
0.0
 71
     0
 42
0.0
  3
monotxt
  4
bigfont
  0
ENDTAB
  0
TABLE
  2
VIEW
  5
5
100
AcDbSymbolTable
 70
     0
  0
ENDTAB
  0
TABLE
  2
UCS
  5
6
100
AcDbSymbolTable
 70
     0
  0
ENDTAB
  0
TABLE
  2
APPID
  5
8
100
AcDbSymbolTable
 70
     1
  0
APPID
  5
16
100
AcDbSymbolTableRecord
100
AcDbRegAppTableRecord
  2
ACAD
 70
     0
  0
ENDTAB
  0
TABLE
  2
DIMSTYLE
  5
9
100
AcDbSymbolTable
 70
     1
100
AcDbDimStyleTable
 71
     0
  0
DIMSTYLE
105
18
100
AcDbSymbolTableRecord
100
AcDbDimStyleTableRecord
  2
Standard
 70
     0
  3

  4

 40
1.0
 41
0.18
 42
0.0625
 43
0.38
 44
0.18
 45
0.0
 46
0.0
 47
0.0
 48
0.0
 71
     0
 72
     0
 73
     1
 74
     1
 75
     0
 76
     0
 77
     0
 78
     0
 79
     0
140
0.18
141
0.09
142
0.0
143
25.4
144
1.0
145
0.0
146
1.0
147
0.09
148
0.0
170
     0
171
     2
172
     0
173
     0
174
     0
175
     0
176
     0
177
     0
178
     0
179
     0
271
     4
272
     4
273
     2
274
     2
275
     0
276
     0
277
     2
278
    46
279
     0
280
     0
281
     0
282
     0
283
     1
284
     0
285
     0
286
     0
288
     0
289
     3
340
17
341
0
342
0
343
0
344
0
371
    -2
372
    -2
  0
ENDTAB
  0
TABLE
  2
BLOCK_RECORD
  5
1
100
AcDbSymbolTable
 70
    20
  0
BLOCK_RECORD
  5
A
100
AcDbSymbolTableRecord
100
AcDbBlockTableRecord
  2
*MODEL_SPACE
340
20
  0
BLOCK_RECORD
  5
B
100
AcDbSymbolTableRecord
100
AcDbBlockTableRecord
  2
*PAPER_SPACE
340
21
  0
BLOCK_RECORD
  5
38
100
AcDbSymbolTableRecord
100
AcDbBlockTableRecord
  2
ZU_SYM_K__CAD_SYM_POO_SYM_S07_16
340
0
102
{BLKREFS
331
42
102
}
  0
BLOCK_RECORD
  5
43
100
AcDbSymbolTableRecord
100
AcDbBlockTableRecord
  2
ZU_SYM__USERS_HOME_SYMBOL_POO_SYM_B21_21
340
0
102
{BLKREFS
331
53
102
}
  0
BLOCK_RECORD
  5
54
100
AcDbSymbolTableRecord
100
AcDbBlockTableRecord
  2
ZU_SYM__USERS_HOME_SYMBOL_POO_SYM_B21_0000121
340
0
102
{BLKREFS
331
64
102
}
  0
BLOCK_RECORD
  5
65
100
AcDbSymbolTableRecord
100
AcDbBlockTableRecord
  2
ZU_SYM__USERS_HOME_SYMBOL_POO_SYM_B21_0000221
340
0
102
{BLKREFS
331
75
102
}
  0
BLOCK_RECORD
  5
76
100
AcDbSymbolTableRecord
100
AcDbBlockTableRecord
  2
ZU_SYM__USERS_HOME_SYMBOL_POO_SYM_B21_0000321
340
0
102
{BLKREFS
331
86
102
}
  0
BLOCK_RECORD
  5
87
100
AcDbSymbolTableRecord
100
AcDbBlockTableRecord
  2
ZU_SYM_C__ZUOU_AC_BLOCK_BLKF072_00
340
0
102
{BLKREFS
331
8D
102
}
  0
BLOCK_RECORD
  5
8E
100
AcDbSymbolTableRecord
100
AcDbBlockTableRecord
  2
ZU_SYM_C__ZUOU_AC_BLOCK_BLKF030_00
340
0
102
{BLKREFS
331
95
102
}
  0
BLOCK_RECORD
  5
96
100
AcDbSymbolTableRecord
100
AcDbBlockTableRecord
  2
ZU_SYM_K__CAD_SYM_POO_SYM_B21_21
340
0
102
{BLKREFS
331
A6
102
}
  0
BLOCK_RECORD
  5
A7
100
AcDbSymbolTableRecord
100
AcDbBlockTableRecord
  2
ZU_SYM_K__CAD_SYM_POO_SYM_B21_20
340
0
102
{BLKREFS
331
B7
102
}
  0
BLOCK_RECORD
  5
B8
100
AcDbSymbolTableRecord
100
AcDbBlockTableRecord
  2
ZU_SYM_K__CAD_SYM_POO_SYM_B21_0000421
340
0
102
{BLKREFS
331
C8
102
}
  0
BLOCK_RECORD
  5
C9
100
AcDbSymbolTableRecord
100
AcDbBlockTableRecord
  2
ZU_SYM_K__CAD_SYM_POO_SYM_B21_0000520
340
0
102
{BLKREFS
331
D9
102
}
  0
BLOCK_RECORD
  5
576
100
AcDbSymbolTableRecord
100
AcDbBlockTableRecord
  2
ZU_SYM_C__ZUOU_AC_BLOCK_BLKF030_0000600
340
0
102
{BLKREFS
331
57D
102
}
  0
BLOCK_RECORD
  5
664
100
AcDbSymbolTableRecord
100
AcDbBlockTableRecord
  2
ZU_SYM_K__CAD_SYM_POO_SYM_B21_0000720
340
0
102
{BLKREFS
331
674
102
}
  0
BLOCK_RECORD
  5
675
100
AcDbSymbolTableRecord
100
AcDbBlockTableRecord
  2
ZU_SYM_K__CAD_SYM_POO_SYM_B21_0000820
340
0
102
{BLKREFS
331
685
102
}
  0
BLOCK_RECORD
  5
686
100
AcDbSymbolTableRecord
100
AcDbBlockTableRecord
  2
ZU_SYM_C__ZUOU_AC_BLOCK_BLKF052_00
340
0
102
{BLKREFS
331
6A4
102
}
  0
BLOCK_RECORD
  5
6A5
100
AcDbSymbolTableRecord
100
AcDbBlockTableRecord
  2
ZU_SYM_C__ZUOU_AC_BLOCK_BLKF074_00
340
0
102
{BLKREFS
331
6B4
102
}
  0
BLOCK_RECORD
  5
7C7
100
AcDbSymbolTableRecord
100
AcDbBlockTableRecord
  2
ZU_SYM_K__CAD_SYM_POO_SYM_B21_0000920
340
0
102
{BLKREFS
331
7D7
102
}
  0
BLOCK_RECORD
  5
7D8
100
AcDbSymbolTableRecord
100
AcDbBlockTableRecord
  2
ZU_SYM_K__CAD_SYM_POO_SYM_B21_0001020
340
0
102
{BLKREFS
331
7E8
102
}
  0
BLOCK_RECORD
  5
7E9
100
AcDbSymbolTableRecord
100
AcDbBlockTableRecord
  2
ZU_SYM_K__CAD_SYM_POO_SYM_B21_0001120
340
0
102
{BLKREFS
331
7F9
102
}
  0
BLOCK_RECORD
  5
7FA
100
AcDbSymbolTableRecord
100
AcDbBlockTableRecord
  2
ZU_SYM_K__CAD_SYM_POO_SYM_B21_0001220
340
0
102
{BLKREFS
331
80A
102
}
  0
ENDTAB
  0
ENDSEC
  0
SECTION
  2
BLOCKS
  0
BLOCK
  5
D
100
AcDbEntity
  8
0
390
0
100
AcDbBlockBegin
  2
*MODEL_SPACE
 70
     0
 10
0.0
 20
0.0
 30
0.0
  3
*MODEL_SPACE
  1

  0
ENDBLK
  5
E
100
AcDbEntity
  8
0
390
0
100
AcDbBlockEnd
  0
BLOCK
  5
F
100
AcDbEntity
 67
     1
  8
0
390
0
100
AcDbBlockBegin
  2
*PAPER_SPACE
 70
     0
 10
0.0
 20
0.0
 30
0.0
  3
*PAPER_SPACE
  1

  0
ENDBLK
  5
10
100
AcDbEntity
 67
     1
  8
0
390
0
100
AcDbBlockEnd
  0
BLOCK
  5
39
100
AcDbEntity
  8
0
390
0
100
AcDbBlockBegin
  2
ZU_SYM_K__CAD_SYM_POO_SYM_S07_16
 70
    64
 10
0.0
 20
0.0
 30
0.0
  3
ZU_SYM_K__CAD_SYM_POO_SYM_S07_16
  1

  0
ARC
  5
3A
100
AcDbEntity
  8
0
370
    -3
390
0
  6
Continuous
100
AcDbCircle
 10
8.7
 20
0.0
 30
0.0
 40
12.0
100
AcDbArc
 50
163.808645
 51
196.191337
  0
POINT
  5
3B
100
AcDbEntity
  8
0
370
    -3
390
0
  6
Continuous
100
AcDbPoint
 10
0.0
 20
0.0
 30
0.0
  0
LINE
  5
3C
100
AcDbEntity
  8
0
370
    -3
390
0
  6
Continuous
100
AcDbLine
 10
0.0
 20
4.5
 30
0.0
 11
0.0
 21
-4.5
 31
0.0
  0
LINE
  5
3D
100
AcDbEntity
  8
0
370
    -3
390
0
  6
Continuous
100
AcDbLine
 10
0.0
 20
4.5
 30
0.0
 11
-1.287493
 21
4.5
 31
0.0
  0
LINE
  5
3E
100
AcDbEntity
  8
0
370
    -3
390
0
  6
Continuous
100
AcDbLine
 10
0.0
 20
-4.5
 30
0.0
 11
-1.287493
 21
-4.5
 31
0.0
  0
ARC
  5
3F
100
AcDbEntity
  8
0
370
    -3
390
0
  6
Continuous
100
AcDbCircle
 10
-1.287493
 20
2.900001
 30
0.0
 40
1.599999
100
AcDbArc
 50
90.0
 51
163.808591
  0
ARC
  5
40
100
AcDbEntity
  8
0
370
    -3
390
0
  6
Continuous
100
AcDbCircle
 10
-1.287493
 20
-2.900001
 30
0.0
 40
1.599999
100
AcDbArc
 50
196.191283
 51
270.0
  0
ENDBLK
  5
41
100
AcDbEntity
  8
0
390
0
100
AcDbBlockEnd
  0
BLOCK
  5
44
100
AcDbEntity
  8
0
390
0
100
AcDbBlockBegin
  2
ZU_SYM__USERS_HOME_SYMBOL_POO_SYM_B21_21
 70
    64
 10
0.0
 20
0.0
 30
0.0
  3
ZU_SYM__USERS_HOME_SYMBOL_POO_SYM_B21_21
  1

  0
POINT
  5
45
100
AcDbEntity
  8
0
370
    -3
390
0
  6
Continuous
100
AcDbPoint
 10
0.0
 20
0.0
 30
0.0
  0
LINE
  5
46
100
AcDbEntity
  8
0
370
    -3
390
0
  6
Continuous
100
AcDbLine
 10
0.0
 20
14.0
 30
0.0
 11
0.0
 21
-14.0
 31
0.0
  0
LINE
  5
47
100
AcDbEntity
  8
0
370
    -3
390
0
  6
Continuous
100
AcDbLine
 10
-4.0
 20
-14.0
 30
0.0
 11
-4.0
 21
14.0
 31
0.0
  0
LINE
  5
48
100
AcDbEntity
  8
0
370
    -3
390
0
  6
Continuous
100
AcDbLine
 10
-19.999962
 20
-10.268356
 30
0.0
 11
-19.999977
 21
10.267579
 31
0.0
  0
LINE
  5
49
100
AcDbEntity
  8
0
370
    -3
390
0
  6
Continuous
100
AcDbLine
 10
-4.0
 20
12.0
 30
0.0
 11
-18.999985
 21
12.0
 31
0.0
  0
LINE
  5
4A
100
AcDbEntity
  8
0
370
    -3
390
0
  6
Continuous
100
AcDbLine
 10
-4.0
 20
-12.0
 30
0.0
 11
-18.999969
 21
-12.0
 31
0.0
  0
LINE
  5
4B
100
AcDbEntity
  8
0
370
    -3
390
0
  6
Continuous
100
AcDbLine
 10
0.0
 20
14.0
 30
0.0
 11
-4.0
 21
14.0
 31
0.0
  0
LINE
  5
4C
100
AcDbEntity
  8
0
370
    -3
390
0
  6
Continuous
100
AcDbLine
 10
0.0
 20
-14.0
 30
0.0
 11
-4.0
 21
-14.0
 31
0.0
  0
LINE
  5
4D
100
AcDbEntity
  8
0
370
    -3
390
0
  6
Continuous
100
AcDbLine
 10
-18.999981
 20
11.999997
 30
0.0
 11
-19.999966
 21
10.267576
 31
0.0
  0
LINE
  5
4E
100
AcDbEntity
  8
0
370
    -3
390
0
  6
Continuous
100
AcDbLine
 10
-18.999973
 20
-12.0
 30
0.0
 11
-19.999958
 21
-10.268356
 31
0.0
  0
LINE
  5
4F
100
AcDbEntity
  8
0
370
    -3
390
0
  6
Continuous
100
AcDbLine
 10
-18.999985
 20
12.0
 30
0.0
 11
-18.999985
 21
-12.0
 31
0.0
  0
LINE
  5
50
100
AcDbEntity
  8
0
370
    -3
390
0
  6
Continuous
100
AcDbLine
 10
0.000001
 20
0.182041
 30
0.0
 11
-3.999999
 21
-1.273837
 31
0.0
  0
LINE
  5
51
100
AcDbEntity
  8
0
370
    -3
390
0
  6
Continuous
100
AcDbLine
 10
-4.0
 20
-0.222603
 30
0.0
 11
0.000001
 21
1.233275
 31
0.0
  0
ENDBLK
  5
52
100
AcDbEntity
  8
0
390
0
100
AcDbBlockEnd
  0
BLOCK
  5
55
100
AcDbEntity
  8
0
390
0
100
AcDbBlockBegin
  2
ZU_SYM__USERS_HOME_SYMBOL_POO_SYM_B21_0000121
 70
    64
 10
0.0
 20
0.0
 30
0.0
  3
ZU_SYM__USERS_HOME_SYMBOL_POO_SYM_B21_0000121
  1

  0
POINT
  5
56
100
AcDbEntity
  8
0
370
    -3
390
0
  6
Continuous
100
AcDbPoint
 10
0.0
 20
0.0
 30
0.0
  0
LINE
  5
57
100
AcDbEntity
  8
0
370
    -3
390
0
  6
Continuous
100
AcDbLine
 10
0.0
 20
14.0
 30
0.0
 11
0.0
 21
-14.0
 31
0.0
  0
LINE
  5
58
100
AcDbEntity
  8
0
370
    -3
390
0
  6
Continuous
100
AcDbLine
 10
-4.0
 20
-14.0
 30
0.0
 11
-4.0
 21
14.0
 31
0.0
  0
LINE
  5
59
100
AcDbEntity
  8
0
370
    -3
390
0
  6
Continuous
100
AcDbLine
 10
-19.999962
 20
-10.268356
 30
0.0
 11
-19.999977
 21
10.267579
 31
0.0
  0
LINE
  5
5A
100
AcDbEntity
  8
0
370
    -3
390
0
  6
Continuous
100
AcDbLine
 10
-4.0
 20
12.0
 30
0.0
 11
-18.999985
 21
12.0
 31
0.0
  0
LINE
  5
5B
100
AcDbEntity
  8
0
370
    -3
390
0
  6
Continuous
100
AcDbLine
 10
-4.0
 20
-12.0
 30
0.0
 11
-18.999969
 21
-12.0
 31
0.0
  0
LINE
  5
5C
100
AcDbEntity
  8
0
370
    -3
390
0
  6
Continuous
100
AcDbLine
 10
0.0
 20
14.0
 30
0.0
 11
-4.0
 21
14.0
 31
0.0
  0
LINE
  5
5D
100
AcDbEntity
  8
0
370
    -3
390
0
  6
Continuous
100
AcDbLine
 10
0.0
 20
-14.0
 30
0.0
 11
-4.0
 21
-14.0
 31
0.0
  0
LINE
  5
5E
100
AcDbEntity
  8
0
370
    -3
390
0
  6
Continuous
100
AcDbLine
 10
-18.999981
 20
11.999997
 30
0.0
 11
-19.999966
 21
10.267576
 31
0.0
  0
LINE
  5
5F
100
AcDbEntity
  8
0
370
    -3
390
0
  6
Continuous
100
AcDbLine
 10
-18.999973
 20
-12.0
 30
0.0
 11
-19.999958
 21
-10.268356
 31
0.0
  0
LINE
  5
60
100
AcDbEntity
  8
0
370
    -3
390
0
  6
Continuous
100
AcDbLine
 10
-18.999985
 20
12.0
 30
0.0
 11
-18.999985
 21
-12.0
 31
0.0
  0
LINE
  5
61
100
AcDbEntity
  8
0
370
    -3
390
0
  6
Continuous
100
AcDbLine
 10
0.000001
 20
0.182041
 30
0.0
 11
-3.999999
 21
-1.273837
 31
0.0
  0
LINE
  5
62
100
AcDbEntity
  8
0
370
    -3
390
0
  6
Continuous
100
AcDbLine
 10
-4.0
 20
-0.222603
 30
0.0
 11
0.000001
 21
1.233275
 31
0.0
  0
ENDBLK
  5
63
100
AcDbEntity
  8
0
390
0
100
AcDbBlockEnd
  0
BLOCK
  5
66
100
AcDbEntity
  8
0
390
0
100
AcDbBlockBegin
  2
ZU_SYM__USERS_HOME_SYMBOL_POO_SYM_B21_0000221
 70
    64
 10
0.0
 20
0.0
 30
0.0
  3
ZU_SYM__USERS_HOME_SYMBOL_POO_SYM_B21_0000221
  1

  0
POINT
  5
67
100
AcDbEntity
  8
0
370
    -3
390
0
  6
Continuous
100
AcDbPoint
 10
0.0
 20
0.0
 30
0.0
  0
LINE
  5
68
100
AcDbEntity
  8
0
370
    -3
390
0
  6
Continuous
100
AcDbLine
 10
0.0
 20
14.0
 30
0.0
 11
0.0
 21
-14.0
 31
0.0
  0
LINE
  5
69
100
AcDbEntity
  8
0
370
    -3
390
0
  6
Continuous
100
AcDbLine
 10
-4.0
 20
-14.0
 30
0.0
 11
-4.0
 21
14.0
 31
0.0
  0
LINE
  5
6A
100
AcDbEntity
  8
0
370
    -3
390
0
  6
Continuous
100
AcDbLine
 10
-19.999962
 20
-10.268356
 30
0.0
 11
-19.999977
 21
10.267579
 31
0.0
  0
LINE
  5
6B
100
AcDbEntity
  8
0
370
    -3
390
0
  6
Continuous
100
AcDbLine
 10
-4.0
 20
12.0
 30
0.0
 11
-18.999985
 21
12.0
 31
0.0
  0
LINE
  5
6C
100
AcDbEntity
  8
0
370
    -3
390
0
  6
Continuous
100
AcDbLine
 10
-4.0
 20
-12.0
 30
0.0
 11
-18.999969
 21
-12.0
 31
0.0
  0
LINE
  5
6D
100
AcDbEntity
  8
0
370
    -3
390
0
  6
Continuous
100
AcDbLine
 10
0.0
 20
14.0
 30
0.0
 11
-4.0
 21
14.0
 31
0.0
  0
LINE
  5
6E
100
AcDbEntity
  8
0
370
    -3
390
0
  6
Continuous
100
AcDbLine
 10
0.0
 20
-14.0
 30
0.0
 11
-4.0
 21
-14.0
 31
0.0
  0
LINE
  5
6F
100
AcDbEntity
  8
0
370
    -3
390
0
  6
Continuous
100
AcDbLine
 10
-18.999981
 20
11.999997
 30
0.0
 11
-19.999966
 21
10.267576
 31
0.0
  0
LINE
  5
70
100
AcDbEntity
  8
0
370
    -3
390
0
  6
Continuous
100
AcDbLine
 10
-18.999973
 20
-12.0
 30
0.0
 11
-19.999958
 21
-10.268356
 31
0.0
  0
LINE
  5
71
100
AcDbEntity
  8
0
370
    -3
390
0
  6
Continuous
100
AcDbLine
 10
-18.999985
 20
12.0
 30
0.0
 11
-18.999985
 21
-12.0
 31
0.0
  0
LINE
  5
72
100
AcDbEntity
  8
0
370
    -3
390
0
  6
Continuous
100
AcDbLine
 10
0.000001
 20
0.182041
 30
0.0
 11
-3.999999
 21
-1.273837
 31
0.0
  0
LINE
  5
73
100
AcDbEntity
  8
0
370
    -3
390
0
  6
Continuous
100
AcDbLine
 10
-4.0
 20
-0.222603
 30
0.0
 11
0.000001
 21
1.233275
 31
0.0
  0
ENDBLK
  5
74
100
AcDbEntity
  8
0
390
0
100
AcDbBlockEnd
  0
BLOCK
  5
77
100
AcDbEntity
  8
0
390
0
100
AcDbBlockBegin
  2
ZU_SYM__USERS_HOME_SYMBOL_POO_SYM_B21_0000321
 70
    64
 10
0.0
 20
0.0
 30
0.0
  3
ZU_SYM__USERS_HOME_SYMBOL_POO_SYM_B21_0000321
  1

  0
POINT
  5
78
100
AcDbEntity
  8
0
370
    -3
390
0
  6
Continuous
100
AcDbPoint
 10
0.0
 20
0.0
 30
0.0
  0
LINE
  5
79
100
AcDbEntity
  8
0
370
    -3
390
0
  6
Continuous
100
AcDbLine
 10
0.0
 20
14.0
 30
0.0
 11
0.0
 21
-14.0
 31
0.0
  0
LINE
  5
7A
100
AcDbEntity
  8
0
370
    -3
390
0
  6
Continuous
100
AcDbLine
 10
-4.0
 20
-14.0
 30
0.0
 11
-4.0
 21
14.0
 31
0.0
  0
LINE
  5
7B
100
AcDbEntity
  8
0
370
    -3
390
0
  6
Continuous
100
AcDbLine
 10
-19.999962
 20
-10.268356
 30
0.0
 11
-19.999977
 21
10.267579
 31
0.0
  0
LINE
  5
7C
100
AcDbEntity
  8
0
370
    -3
390
0
  6
Continuous
100
AcDbLine
 10
-4.0
 20
12.0
 30
0.0
 11
-18.999985
 21
12.0
 31
0.0
  0
LINE
  5
7D
100
AcDbEntity
  8
0
370
    -3
390
0
  6
Continuous
100
AcDbLine
 10
-4.0
 20
-12.0
 30
0.0
 11
-18.999969
 21
-12.0
 31
0.0
  0
LINE
  5
7E
100
AcDbEntity
  8
0
370
    -3
390
0
  6
Continuous
100
AcDbLine
 10
0.0
 20
14.0
 30
0.0
 11
-4.0
 21
14.0
 31
0.0
  0
LINE
  5
7F
100
AcDbEntity
  8
0
370
    -3
390
0
  6
Continuous
100
AcDbLine
 10
0.0
 20
-14.0
 30
0.0
 11
-4.0
 21
-14.0
 31
0.0
  0
LINE
  5
80
100
AcDbEntity
  8
0
370
    -3
390
0
  6
Continuous
100
AcDbLine
 10
-18.999981
 20
11.999997
 30
0.0
 11
-19.999966
 21
10.267576
 31
0.0
  0
LINE
  5
81
100
AcDbEntity
  8
0
370
    -3
390
0
  6
Continuous
100
AcDbLine
 10
-18.999973
 20
-12.0
 30
0.0
 11
-19.999958
 21
-10.268356
 31
0.0
  0
LINE
  5
82
100
AcDbEntity
  8
0
370
    -3
390
0
  6
Continuous
100
AcDbLine
 10
-18.999985
 20
12.0
 30
0.0
 11
-18.999985
 21
-12.0
 31
0.0
  0
LINE
  5
83
100
AcDbEntity
  8
0
370
    -3
390
0
  6
Continuous
100
AcDbLine
 10
0.000001
 20
0.182041
 30
0.0
 11
-3.999999
 21
-1.273837
 31
0.0
  0
LINE
  5
84
100
AcDbEntity
  8
0
370
    -3
390
0
  6
Continuous
100
AcDbLine
 10
-4.0
 20
-0.222603
 30
0.0
 11
0.000001
 21
1.233275
 31
0.0
  0
ENDBLK
  5
85
100
AcDbEntity
  8
0
390
0
100
AcDbBlockEnd
  0
BLOCK
  5
88
100
AcDbEntity
  8
0
390
0
100
AcDbBlockBegin
  2
ZU_SYM_C__ZUOU_AC_BLOCK_BLKF072_00
 70
    64
 10
0.0
 20
0.0
 30
0.0
  3
ZU_SYM_C__ZUOU_AC_BLOCK_BLKF072_00
  1

  0
LINE
  5
89
100
AcDbEntity
  8
0
370
    -3
390
0
  6
Continuous
100
AcDbLine
 10
349.075267
 20
436.274769
 30
0.0
 11
335.075267
 21
428.657126
 31
0.0
  0
LINE
  5
8A
100
AcDbEntity
  8
0
370
    -3
390
0
  6
Continuous
100
AcDbLine
 10
575.075267
 20
436.274769
 30
0.0
 11
594.575267
 21
425.66448
 31
0.0
  0
LINE
  5
8B
100
AcDbEntity
  8
0
370
    -3
390
0
  6
Continuous
100
AcDbLine
 10
349.075267
 20
436.274769
 30
0.0
 11
575.075267
 21
436.274769
 31
0.0
  0
ENDBLK
  5
8C
100
AcDbEntity
  8
0
390
0
100
AcDbBlockEnd
  0
BLOCK
  5
8F
100
AcDbEntity
  8
0
390
0
100
AcDbBlockBegin
  2
ZU_SYM_C__ZUOU_AC_BLOCK_BLKF030_00
 70
    64
 10
0.0
 20
0.0
 30
0.0
  3
ZU_SYM_C__ZUOU_AC_BLOCK_BLKF030_00
  1

  0
LINE
  5
90
100
AcDbEntity
  8
0
370
    -3
390
0
  6
Continuous
100
AcDbLine
 10
299.075267
 20
207.337117
 30
0.0
 11
294.075267
 21
209.837118
 31
0.0
  0
LINE
  5
91
100
AcDbEntity
  8
0
370
    -3
390
0
  6
Continuous
100
AcDbLine
 10
299.075267
 20
202.337115
 30
0.0
 11
299.075267
 21
207.337117
 31
0.0
  0
LINE
  5
92
100
AcDbEntity
  8
0
370
    -3
390
0
  6
Continuous
100
AcDbLine
 10
289.075267
 20
207.337117
 30
0.0
 11
289.075267
 21
202.337115
 31
0.0
  0
LINE
  5
93
100
AcDbEntity
  8
0
370
    -3
390
0
  6
Continuous
100
AcDbLine
 10
294.075267
 20
209.837118
 30
0.0
 11
289.075267
 21
207.337117
 31
0.0
  0
ENDBLK
  5
94
100
AcDbEntity
  8
0
390
0
100
AcDbBlockEnd
  0
BLOCK
  5
97
100
AcDbEntity
  8
0
390
0
100
AcDbBlockBegin
  2
ZU_SYM_K__CAD_SYM_POO_SYM_B21_21
 70
    64
 10
0.0
 20
0.0
 30
0.0
  3
ZU_SYM_K__CAD_SYM_POO_SYM_B21_21
  1

  0
LINE
  5
98
100
AcDbEntity
  8
0
370
    -3
390
0
  6
Continuous
100
AcDbLine
 10
-4.0
 20
-0.222603
 30
0.0
 11
0.000001
 21
1.233275
 31
0.0
  0
LINE
  5
99
100
AcDbEntity
  8
0
370
    -3
390
0
  6
Continuous
100
AcDbLine
 10
0.000001
 20
0.182041
 30
0.0
 11
-3.999999
 21
-1.273837
 31
0.0
  0
LINE
  5
9A
100
AcDbEntity
  8
0
370
    -3
390
0
  6
Continuous
100
AcDbLine
 10
-18.999985
 20
12.0
 30
0.0
 11
-18.999985
 21
-12.0
 31
0.0
  0
LINE
  5
9B
100
AcDbEntity
  8
0
370
    -3
390
0
  6
Continuous
100
AcDbLine
 10
-18.999973
 20
-12.0
 30
0.0
 11
-19.999958
 21
-10.268356
 31
0.0
  0
LINE
  5
9C
100
AcDbEntity
  8
0
370
    -3
390
0
  6
Continuous
100
AcDbLine
 10
-18.999981
 20
11.999997
 30
0.0
 11
-19.999966
 21
10.267576
 31
0.0
  0
LINE
  5
9D
100
AcDbEntity
  8
0
370
    -3
390
0
  6
Continuous
100
AcDbLine
 10
0.0
 20
-14.0
 30
0.0
 11
-4.0
 21
-14.0
 31
0.0
  0
LINE
  5
9E
100
AcDbEntity
  8
0
370
    -3
390
0
  6
Continuous
100
AcDbLine
 10
0.0
 20
14.0
 30
0.0
 11
-4.0
 21
14.0
 31
0.0
  0
LINE
  5
9F
100
AcDbEntity
  8
0
370
    -3
390
0
  6
Continuous
100
AcDbLine
 10
-4.0
 20
-12.0
 30
0.0
 11
-18.999969
 21
-12.0
 31
0.0
  0
LINE
  5
A0
100
AcDbEntity
  8
0
370
    -3
390
0
  6
Continuous
100
AcDbLine
 10
-4.0
 20
12.0
 30
0.0
 11
-18.999985
 21
12.0
 31
0.0
  0
LINE
  5
A1
100
AcDbEntity
  8
0
370
    -3
390
0
  6
Continuous
100
AcDbLine
 10
-19.999962
 20
-10.268356
 30
0.0
 11
-19.999977
 21
10.267579
 31
0.0
  0
LINE
  5
A2
100
AcDbEntity
  8
0
370
    -3
390
0
  6
Continuous
100
AcDbLine
 10
-4.0
 20
-14.0
 30
0.0
 11
-4.0
 21
14.0
 31
0.0
  0
LINE
  5
A3
100
AcDbEntity
  8
0
370
    -3
390
0
  6
Continuous
100
AcDbLine
 10
0.0
 20
14.0
 30
0.0
 11
0.0
 21
-14.0
 31
0.0
  0
POINT
  5
A4
100
AcDbEntity
  8
0
370
    -3
390
0
  6
Continuous
100
AcDbPoint
 10
0.0
 20
0.0
 30
0.0
  0
ENDBLK
  5
A5
100
AcDbEntity
  8
0
390
0
100
AcDbBlockEnd
  0
BLOCK
  5
A8
100
AcDbEntity
  8
0
390
0
100
AcDbBlockBegin
  2
ZU_SYM_K__CAD_SYM_POO_SYM_B21_20
 70
    64
 10
0.0
 20
0.0
 30
0.0
  3
ZU_SYM_K__CAD_SYM_POO_SYM_B21_20
  1

  0
LINE
  5
A9
100
AcDbEntity
  8
0
370
    -3
390
0
  6
Continuous
100
AcDbLine
 10
0.000001
 20
0.015238
 30
0.0
 11
-2.999999
 21
-1.076669
 31
0.0
  0
LINE
  5
AA
100
AcDbEntity
  8
0
370
    -3
390
0
  6
Continuous
100
AcDbLine
 10
-2.999999
 20
-0.025431
 30
0.0
 11
0.000001
 21
1.066476
 31
0.0
  0
LINE
  5
AB
100
AcDbEntity
  8
0
370
    -3
390
0
  6
Continuous
100
AcDbLine
 10
-14.299976
 20
9.0
 30
0.0
 11
-14.299976
 21
-9.0
 31
0.0
  0
LINE
  5
AC
100
AcDbEntity
  8
0
370
    -3
390
0
  6
Continuous
100
AcDbLine
 10
-14.299962
 20
-9.000003
 30
0.0
 11
-14.999959
 21
-7.787739
 31
0.0
  0
LINE
  5
AD
100
AcDbEntity
  8
0
370
    -3
390
0
  6
Continuous
100
AcDbLine
 10
-14.299981
 20
9.000001
 30
0.0
 11
-14.999978
 21
7.787341
 31
0.0
  0
LINE
  5
AE
100
AcDbEntity
  8
0
370
    -3
390
0
  6
Continuous
100
AcDbLine
 10
0.0
 20
-10.75
 30
0.0
 11
-3.0
 21
-10.75
 31
0.0
  0
LINE
  5
AF
100
AcDbEntity
  8
0
370
    -3
390
0
  6
Continuous
100
AcDbLine
 10
0.0
 20
10.75
 30
0.0
 11
-3.0
 21
10.75
 31
0.0
  0
LINE
  5
B0
100
AcDbEntity
  8
0
370
    -3
390
0
  6
Continuous
100
AcDbLine
 10
-3.0
 20
9.0
 30
0.0
 11
-14.299976
 21
9.0
 31
0.0
  0
LINE
  5
B1
100
AcDbEntity
  8
0
370
    -3
390
0
  6
Continuous
100
AcDbLine
 10
-3.0
 20
-9.0
 30
0.0
 11
-14.299961
 21
-9.0
 31
0.0
  0
LINE
  5
B2
100
AcDbEntity
  8
0
370
    -3
390
0
  6
Continuous
100
AcDbLine
 10
-14.999958
 20
-7.787735
 30
0.0
 11
-14.999973
 21
7.78734
 31
0.0
  0
LINE
  5
B3
100
AcDbEntity
  8
0
370
    -3
390
0
  6
Continuous
100
AcDbLine
 10
-3.0
 20
-10.75
 30
0.0
 11
-3.0
 21
10.75
 31
0.0
  0
LINE
  5
B4
100
AcDbEntity
  8
0
370
    -3
390
0
  6
Continuous
100
AcDbLine
 10
0.0
 20
10.75
 30
0.0
 11
0.0
 21
-10.75
 31
0.0
  0
POINT
  5
B5
100
AcDbEntity
  8
0
370
    -3
390
0
  6
Continuous
100
AcDbPoint
 10
0.0
 20
0.0
 30
0.0
  0
ENDBLK
  5
B6
100
AcDbEntity
  8
0
390
0
100
AcDbBlockEnd
  0
BLOCK
  5
B9
100
AcDbEntity
  8
0
390
0
100
AcDbBlockBegin
  2
ZU_SYM_K__CAD_SYM_POO_SYM_B21_0000421
 70
    64
 10
0.0
 20
0.0
 30
0.0
  3
ZU_SYM_K__CAD_SYM_POO_SYM_B21_0000421
  1

  0
LINE
  5
BA
100
AcDbEntity
  8
0
370
    -3
390
0
  6
Continuous
100
AcDbLine
 10
-4.0
 20
-0.222603
 30
0.0
 11
0.000001
 21
1.233275
 31
0.0
  0
LINE
  5
BB
100
AcDbEntity
  8
0
370
    -3
390
0
  6
Continuous
100
AcDbLine
 10
0.000001
 20
0.182041
 30
0.0
 11
-3.999999
 21
-1.273837
 31
0.0
  0
LINE
  5
BC
100
AcDbEntity
  8
0
370
    -3
390
0
  6
Continuous
100
AcDbLine
 10
-18.999985
 20
12.0
 30
0.0
 11
-18.999985
 21
-12.0
 31
0.0
  0
LINE
  5
BD
100
AcDbEntity
  8
0
370
    -3
390
0
  6
Continuous
100
AcDbLine
 10
-18.999973
 20
-12.0
 30
0.0
 11
-19.999958
 21
-10.268356
 31
0.0
  0
LINE
  5
BE
100
AcDbEntity
  8
0
370
    -3
390
0
  6
Continuous
100
AcDbLine
 10
-18.999981
 20
11.999997
 30
0.0
 11
-19.999966
 21
10.267576
 31
0.0
  0
LINE
  5
BF
100
AcDbEntity
  8
0
370
    -3
390
0
  6
Continuous
100
AcDbLine
 10
0.0
 20
-14.0
 30
0.0
 11
-4.0
 21
-14.0
 31
0.0
  0
LINE
  5
C0
100
AcDbEntity
  8
0
370
    -3
390
0
  6
Continuous
100
AcDbLine
 10
0.0
 20
14.0
 30
0.0
 11
-4.0
 21
14.0
 31
0.0
  0
LINE
  5
C1
100
AcDbEntity
  8
0
370
    -3
390
0
  6
Continuous
100
AcDbLine
 10
-4.0
 20
-12.0
 30
0.0
 11
-18.999969
 21
-12.0
 31
0.0
  0
LINE
  5
C2
100
AcDbEntity
  8
0
370
    -3
390
0
  6
Continuous
100
AcDbLine
 10
-4.0
 20
12.0
 30
0.0
 11
-18.999985
 21
12.0
 31
0.0
  0
LINE
  5
C3
100
AcDbEntity
  8
0
370
    -3
390
0
  6
Continuous
100
AcDbLine
 10
-19.999962
 20
-10.268356
 30
0.0
 11
-19.999977
 21
10.267579
 31
0.0
  0
LINE
  5
C4
100
AcDbEntity
  8
0
370
    -3
390
0
  6
Continuous
100
AcDbLine
 10
-4.0
 20
-14.0
 30
0.0
 11
-4.0
 21
14.0
 31
0.0
  0
LINE
  5
C5
100
AcDbEntity
  8
0
370
    -3
390
0
  6
Continuous
100
AcDbLine
 10
0.0
 20
14.0
 30
0.0
 11
0.0
 21
-14.0
 31
0.0
  0
POINT
  5
C6
100
AcDbEntity
  8
0
370
    -3
390
0
  6
Continuous
100
AcDbPoint
 10
0.0
 20
0.0
 30
0.0
  0
ENDBLK
  5
C7
100
AcDbEntity
  8
0
390
0
100
AcDbBlockEnd
  0
BLOCK
  5
CA
100
AcDbEntity
  8
0
390
0
100
AcDbBlockBegin
  2
ZU_SYM_K__CAD_SYM_POO_SYM_B21_0000520
 70
    64
 10
0.0
 20
0.0
 30
0.0
  3
ZU_SYM_K__CAD_SYM_POO_SYM_B21_0000520
  1

  0
LINE
  5
CB
100
AcDbEntity
  8
0
370
    -3
390
0
  6
Continuous
100
AcDbLine
 10
0.000001
 20
0.015238
 30
0.0
 11
-2.999999
 21
-1.076669
 31
0.0
  0
LINE
  5
CC
100
AcDbEntity
  8
0
370
    -3
390
0
  6
Continuous
100
AcDbLine
 10
-2.999999
 20
-0.025431
 30
0.0
 11
0.000001
 21
1.066476
 31
0.0
  0
LINE
  5
CD
100
AcDbEntity
  8
0
370
    -3
390
0
  6
Continuous
100
AcDbLine
 10
-14.299976
 20
9.0
 30
0.0
 11
-14.299976
 21
-9.0
 31
0.0
  0
LINE
  5
CE
100
AcDbEntity
  8
0
370
    -3
390
0
  6
Continuous
100
AcDbLine
 10
-14.299962
 20
-9.000003
 30
0.0
 11
-14.999959
 21
-7.787739
 31
0.0
  0
LINE
  5
CF
100
AcDbEntity
  8
0
370
    -3
390
0
  6
Continuous
100
AcDbLine
 10
-14.299981
 20
9.000001
 30
0.0
 11
-14.999978
 21
7.787341
 31
0.0
  0
LINE
  5
D0
100
AcDbEntity
  8
0
370
    -3
390
0
  6
Continuous
100
AcDbLine
 10
0.0
 20
-10.75
 30
0.0
 11
-3.0
 21
-10.75
 31
0.0
  0
LINE
  5
D1
100
AcDbEntity
  8
0
370
    -3
390
0
  6
Continuous
100
AcDbLine
 10
0.0
 20
10.75
 30
0.0
 11
-3.0
 21
10.75
 31
0.0
  0
LINE
  5
D2
100
AcDbEntity
  8
0
370
    -3
390
0
  6
Continuous
100
AcDbLine
 10
-3.0
 20
9.0
 30
0.0
 11
-14.299976
 21
9.0
 31
0.0
  0
LINE
  5
D3
100
AcDbEntity
  8
0
370
    -3
390
0
  6
Continuous
100
AcDbLine
 10
-3.0
 20
-9.0
 30
0.0
 11
-14.299961
 21
-9.0
 31
0.0
  0
LINE
  5
D4
100
AcDbEntity
  8
0
370
    -3
390
0
  6
Continuous
100
AcDbLine
 10
-14.999958
 20
-7.787735
 30
0.0
 11
-14.999973
 21
7.78734
 31
0.0
  0
LINE
  5
D5
100
AcDbEntity
  8
0
370
    -3
390
0
  6
Continuous
100
AcDbLine
 10
-3.0
 20
-10.75
 30
0.0
 11
-3.0
 21
10.75
 31
0.0
  0
LINE
  5
D6
100
AcDbEntity
  8
0
370
    -3
390
0
  6
Continuous
100
AcDbLine
 10
0.0
 20
10.75
 30
0.0
 11
0.0
 21
-10.75
 31
0.0
  0
POINT
  5
D7
100
AcDbEntity
  8
0
370
    -3
390
0
  6
Continuous
100
AcDbPoint
 10
0.0
 20
0.0
 30
0.0
  0
ENDBLK
  5
D8
100
AcDbEntity
  8
0
390
0
100
AcDbBlockEnd
  0
BLOCK
  5
577
100
AcDbEntity
  8
0
390
0
100
AcDbBlockBegin
  2
ZU_SYM_C__ZUOU_AC_BLOCK_BLKF030_0000600
 70
    64
 10
0.0
 20
0.0
 30
0.0
  3
ZU_SYM_C__ZUOU_AC_BLOCK_BLKF030_0000600
  1

  0
LINE
  5
578
100
AcDbEntity
  8
0
370
    -3
390
0
  6
Continuous
100
AcDbLine
 10
294.075267
 20
209.837118
 30
0.0
 11
289.075267
 21
207.337117
 31
0.0
  0
LINE
  5
579
100
AcDbEntity
  8
0
370
    -3
390
0
  6
Continuous
100
AcDbLine
 10
289.075267
 20
207.337117
 30
0.0
 11
289.075267
 21
202.337115
 31
0.0
  0
LINE
  5
57A
100
AcDbEntity
  8
0
370
    -3
390
0
  6
Continuous
100
AcDbLine
 10
299.075267
 20
202.337115
 30
0.0
 11
299.075267
 21
207.337117
 31
0.0
  0
LINE
  5
57B
100
AcDbEntity
  8
0
370
    -3
390
0
  6
Continuous
100
AcDbLine
 10
299.075267
 20
207.337117
 30
0.0
 11
294.075267
 21
209.837118
 31
0.0
  0
ENDBLK
  5
57C
100
AcDbEntity
  8
0
390
0
100
AcDbBlockEnd
  0
BLOCK
  5
665
100
AcDbEntity
  8
0
390
0
100
AcDbBlockBegin
  2
ZU_SYM_K__CAD_SYM_POO_SYM_B21_0000720
 70
    64
 10
0.0
 20
0.0
 30
0.0
  3
ZU_SYM_K__CAD_SYM_POO_SYM_B21_0000720
  1

  0
POINT
  5
666
100
AcDbEntity
  8
0
370
    -3
390
0
  6
Continuous
100
AcDbPoint
 10
0.0
 20
0.0
 30
0.0
  0
LINE
  5
667
100
AcDbEntity
  8
0
370
    -3
390
0
  6
Continuous
100
AcDbLine
 10
0.0
 20
10.75
 30
0.0
 11
0.0
 21
-10.75
 31
0.0
  0
LINE
  5
668
100
AcDbEntity
  8
0
370
    -3
390
0
  6
Continuous
100
AcDbLine
 10
-3.0
 20
-10.75
 30
0.0
 11
-3.0
 21
10.75
 31
0.0
  0
LINE
  5
669
100
AcDbEntity
  8
0
370
    -3
390
0
  6
Continuous
100
AcDbLine
 10
-14.999958
 20
-7.787735
 30
0.0
 11
-14.999973
 21
7.78734
 31
0.0
  0
LINE
  5
66A
100
AcDbEntity
  8
0
370
    -3
390
0
  6
Continuous
100
AcDbLine
 10
-3.0
 20
-9.0
 30
0.0
 11
-14.299961
 21
-9.0
 31
0.0
  0
LINE
  5
66B
100
AcDbEntity
  8
0
370
    -3
390
0
  6
Continuous
100
AcDbLine
 10
-3.0
 20
9.0
 30
0.0
 11
-14.299976
 21
9.0
 31
0.0
  0
LINE
  5
66C
100
AcDbEntity
  8
0
370
    -3
390
0
  6
Continuous
100
AcDbLine
 10
0.0
 20
10.75
 30
0.0
 11
-3.0
 21
10.75
 31
0.0
  0
LINE
  5
66D
100
AcDbEntity
  8
0
370
    -3
390
0
  6
Continuous
100
AcDbLine
 10
0.0
 20
-10.75
 30
0.0
 11
-3.0
 21
-10.75
 31
0.0
  0
LINE
  5
66E
100
AcDbEntity
  8
0
370
    -3
390
0
  6
Continuous
100
AcDbLine
 10
-14.299981
 20
9.000001
 30
0.0
 11
-14.999978
 21
7.787341
 31
0.0
  0
LINE
  5
66F
100
AcDbEntity
  8
0
370
    -3
390
0
  6
Continuous
100
AcDbLine
 10
-14.299962
 20
-9.000003
 30
0.0
 11
-14.999959
 21
-7.787739
 31
0.0
  0
LINE
  5
670
100
AcDbEntity
  8
0
370
    -3
390
0
  6
Continuous
100
AcDbLine
 10
-14.299976
 20
9.0
 30
0.0
 11
-14.299976
 21
-9.0
 31
0.0
  0
LINE
  5
671
100
AcDbEntity
  8
0
370
    -3
390
0
  6
Continuous
100
AcDbLine
 10
-2.999999
 20
-0.025431
 30
0.0
 11
0.000001
 21
1.066476
 31
0.0
  0
LINE
  5
672
100
AcDbEntity
  8
0
370
    -3
390
0
  6
Continuous
100
AcDbLine
 10
0.000001
 20
0.015238
 30
0.0
 11
-2.999999
 21
-1.076669
 31
0.0
  0
ENDBLK
  5
673
100
AcDbEntity
  8
0
390
0
100
AcDbBlockEnd
  0
BLOCK
  5
676
100
AcDbEntity
  8
0
390
0
100
AcDbBlockBegin
  2
ZU_SYM_K__CAD_SYM_POO_SYM_B21_0000820
 70
    64
 10
0.0
 20
0.0
 30
0.0
  3
ZU_SYM_K__CAD_SYM_POO_SYM_B21_0000820
  1

  0
POINT
  5
677
100
AcDbEntity
  8
0
370
    -3
390
0
  6
Continuous
100
AcDbPoint
 10
0.0
 20
0.0
 30
0.0
  0
LINE
  5
678
100
AcDbEntity
  8
0
370
    -3
390
0
  6
Continuous
100
AcDbLine
 10
0.0
 20
10.75
 30
0.0
 11
0.0
 21
-10.75
 31
0.0
  0
LINE
  5
679
100
AcDbEntity
  8
0
370
    -3
390
0
  6
Continuous
100
AcDbLine
 10
-3.0
 20
-10.75
 30
0.0
 11
-3.0
 21
10.75
 31
0.0
  0
LINE
  5
67A
100
AcDbEntity
  8
0
370
    -3
390
0
  6
Continuous
100
AcDbLine
 10
-14.999958
 20
-7.787735
 30
0.0
 11
-14.999973
 21
7.78734
 31
0.0
  0
LINE
  5
67B
100
AcDbEntity
  8
0
370
    -3
390
0
  6
Continuous
100
AcDbLine
 10
-3.0
 20
-9.0
 30
0.0
 11
-14.299961
 21
-9.0
 31
0.0
  0
LINE
  5
67C
100
AcDbEntity
  8
0
370
    -3
390
0
  6
Continuous
100
AcDbLine
 10
-3.0
 20
9.0
 30
0.0
 11
-14.299976
 21
9.0
 31
0.0
  0
LINE
  5
67D
100
AcDbEntity
  8
0
370
    -3
390
0
  6
Continuous
100
AcDbLine
 10
0.0
 20
10.75
 30
0.0
 11
-3.0
 21
10.75
 31
0.0
  0
LINE
  5
67E
100
AcDbEntity
  8
0
370
    -3
390
0
  6
Continuous
100
AcDbLine
 10
0.0
 20
-10.75
 30
0.0
 11
-3.0
 21
-10.75
 31
0.0
  0
LINE
  5
67F
100
AcDbEntity
  8
0
370
    -3
390
0
  6
Continuous
100
AcDbLine
 10
-14.299981
 20
9.000001
 30
0.0
 11
-14.999978
 21
7.787341
 31
0.0
  0
LINE
  5
680
100
AcDbEntity
  8
0
370
    -3
390
0
  6
Continuous
100
AcDbLine
 10
-14.299962
 20
-9.000003
 30
0.0
 11
-14.999959
 21
-7.787739
 31
0.0
  0
LINE
  5
681
100
AcDbEntity
  8
0
370
    -3
390
0
  6
Continuous
100
AcDbLine
 10
-14.299976
 20
9.0
 30
0.0
 11
-14.299976
 21
-9.0
 31
0.0
  0
LINE
  5
682
100
AcDbEntity
  8
0
370
    -3
390
0
  6
Continuous
100
AcDbLine
 10
-2.999999
 20
-0.025431
 30
0.0
 11
0.000001
 21
1.066476
 31
0.0
  0
LINE
  5
683
100
AcDbEntity
  8
0
370
    -3
390
0
  6
Continuous
100
AcDbLine
 10
0.000001
 20
0.015238
 30
0.0
 11
-2.999999
 21
-1.076669
 31
0.0
  0
ENDBLK
  5
684
100
AcDbEntity
  8
0
390
0
100
AcDbBlockEnd
  0
BLOCK
  5
687
100
AcDbEntity
  8
0
390
0
100
AcDbBlockBegin
  2
ZU_SYM_C__ZUOU_AC_BLOCK_BLKF052_00
 70
    64
 10
0.0
 20
0.0
 30
0.0
  3
ZU_SYM_C__ZUOU_AC_BLOCK_BLKF052_00
  1

  0
LINE
  5
688
100
AcDbEntity
  8
0
370
    -3
390
0
  6
Continuous
100
AcDbLine
 10
573.482697
 20
1006.849427
 30
0.0
 11
573.482697
 21
995.542955
 31
0.0
  0
LINE
  5
689
100
AcDbEntity
  8
0
370
    -3
390
0
  6
Continuous
100
AcDbLine
 10
575.081522
 20
995.064887
 30
0.0
 11
600.883872
 21
995.064887
 31
0.0
  0
LINE
  5
68A
100
AcDbEntity
  8
0
370
    -3
390
0
  6
Continuous
100
AcDbLine
 10
575.982697
 20
978.306456
 30
0.0
 11
599.982697
 21
978.306456
 31
0.0
  0
LINE
  5
68B
100
AcDbEntity
  8
0
370
    -3
390
0
  6
Continuous
100
AcDbLine
 10
575.982697
 20
975.54874
 30
0.0
 11
599.982697
 21
975.54874
 31
0.0
  0
LINE
  5
68C
100
AcDbEntity
  8
0
370
    -3
390
0
  6
Continuous
100
AcDbLine
 10
576.482697
 20
974.134526
 30
0.0
 11
599.482697
 21
974.134526
 31
0.0
  0
LINE
  5
68D
100
AcDbEntity
  8
0
370
    -3
390
0
  6
Continuous
100
AcDbLine
 10
575.59117
 20
1009.207023
 30
0.0
 11
600.673669
 21
1009.207023
 31
0.0
  0
LINE
  5
68E
100
AcDbEntity
  8
0
370
    -3
390
0
  6
Continuous
100
AcDbLine
 10
575.926231
 20
990.602909
 30
0.0
 11
573.595629
 21
995.081316
 31
0.0
  0
LINE
  5
68F
100
AcDbEntity
  8
0
370
    -3
390
0
  6
Continuous
100
AcDbLine
 10
574.816573
 20
1008.839478
 30
0.0
 11
573.7081
 21
1007.481882
 31
0.0
  0
LINE
  5
690
100
AcDbEntity
  8
0
370
    -3
390
0
  6
Continuous
100
AcDbLine
 10
574.956036
 20
995.261625
 30
0.0
 11
573.7081
 21
996.790027
 31
0.0
  0
LINE
  5
691
100
AcDbEntity
  8
0
370
    -3
390
0
  6
Continuous
100
AcDbLine
 10
575.163957
 20
994.815339
 30
0.0
 11
575.973956
 21
990.540538
 31
0.0
  0
LINE
  5
692
100
AcDbEntity
  8
0
370
    -3
390
0
  6
Continuous
100
AcDbLine
 10
575.982697
 20
990.447453
 30
0.0
 11
575.982697
 21
974.634526
 31
0.0
  0
ARC
  5
693
100
AcDbEntity
  8
0
370
    -3
390
0
  6
Continuous
100
AcDbCircle
 10
576.482697
 20
974.634526
 30
0.0
 40
0.5
100
AcDbArc
 50
180.0
 51
270.0
  0
ARC
  5
694
100
AcDbEntity
  8
0
370
    -3
390
0
  6
Continuous
100
AcDbCircle
 10
574.482697
 20
1006.849427
 30
0.0
 40
1.0
100
AcDbArc
 50
140.76848
 51
180.0
  0
ARC
  5
695
100
AcDbEntity
  8
0
370
    -3
390
0
  6
Continuous
100
AcDbCircle
 10
574.482697
 20
997.422483
 30
0.0
 40
1.0
100
AcDbArc
 50
180.0
 51
219.23152
  0
ARC
  5
696
100
AcDbEntity
  8
0
370
    -3
390
0
  6
Continuous
100
AcDbCircle
 10
575.59117
 20
1008.207023
 30
0.0
 40
1.0
100
AcDbArc
 50
90.0
 51
140.76848
  0
ARC
  5
697
100
AcDbEntity
  8
0
370
    -3
390
0
  6
Continuous
100
AcDbCircle
 10
574.181439
 20
994.62917
 30
0.0
 40
1.0
100
AcDbArc
 50
10.729337
 51
39.23152
  0
ARC
  5
698
100
AcDbEntity
  8
0
370
    -3
390
0
  6
Continuous
100
AcDbCircle
 10
574.482697
 20
995.542955
 30
0.0
 40
1.0
100
AcDbArc
 50
180.0
 51
207.492863
  0
ARC
  5
699
100
AcDbEntity
  8
0
370
    -3
390
0
  6
Continuous
100
AcDbCircle
 10
575.482697
 20
990.37209
 30
0.0
 40
0.5
100
AcDbArc
 50
0.0
 51
27.492863
  0
ARC
  5
69A
100
AcDbEntity
  8
0
370
    -3
390
0
  6
Continuous
100
AcDbCircle
 10
575.482697
 20
990.447453
 30
0.0
 40
0.5
100
AcDbArc
 50
0.0
 51
10.729337
  0
LINE
  5
69B
100
AcDbEntity
  8
0
370
    -3
390
0
  6
Continuous
100
AcDbLine
 10
600.039163
 20
990.602909
 30
0.0
 11
600.982697
 21
992.415972
 31
0.0
  0
LINE
  5
69C
100
AcDbEntity
  8
0
370
    -3
390
0
  6
Continuous
100
AcDbLine
 10
600.801438
 20
994.815339
 30
0.0
 11
599.991438
 21
990.540538
 31
0.0
  0
LINE
  5
69D
100
AcDbEntity
  8
0
370
    -3
390
0
  6
Continuous
100
AcDbLine
 10
599.982697
 20
990.447453
 30
0.0
 11
599.982697
 21
974.634526
 31
0.0
  0
ARC
  5
69E
100
AcDbEntity
  8
0
370
    -3
390
0
  6
Continuous
100
AcDbCircle
 10
599.482697
 20
974.634526
 30
0.0
 40
0.5
100
AcDbArc
 50
270.0
 51
0.0
  0
ARC
  5
69F
100
AcDbEntity
  8
0
370
    -3
390
0
  6
Continuous
100
AcDbCircle
 10
600.374225
 20
1008.207023
 30
0.0
 40
1.0
100
AcDbArc
 50
52.520866
 51
90.0
  0
ARC
  5
6A0
100
AcDbEntity
  8
0
370
    -3
390
0
  6
Continuous
100
AcDbCircle
 10
601.783955
 20
994.62917
 30
0.0
 40
1.0
100
AcDbArc
 50
143.250415
 51
169.270663
  0
ARC
  5
6A1
100
AcDbEntity
  8
0
370
    -3
390
0
  6
Continuous
100
AcDbCircle
 10
600.482697
 20
990.37209
 30
0.0
 40
0.5
100
AcDbArc
 50
152.507137
 51
180.0
  0
ARC
  5
6A2
100
AcDbEntity
  8
0
370
    -3
390
0
  6
Continuous
100
AcDbCircle
 10
600.482697
 20
990.447453
 30
0.0
 40
0.5
100
AcDbArc
 50
169.270663
 51
180.0
  0
ENDBLK
  5
6A3
100
AcDbEntity
  8
0
390
0
100
AcDbBlockEnd
  0
BLOCK
  5
6A6
100
AcDbEntity
  8
0
390
0
100
AcDbBlockBegin
  2
ZU_SYM_C__ZUOU_AC_BLOCK_BLKF074_00
 70
    64
 10
0.0
 20
0.0
 30
0.0
  3
ZU_SYM_C__ZUOU_AC_BLOCK_BLKF074_00
  1

  0
LINE
  5
6A7
100
AcDbEntity
  8
0
370
    -3
390
0
  6
Continuous
100
AcDbLine
 10
508.982697
 20
1023.173191
 30
0.0
 11
540.982697
 21
1007.790121
 31
0.0
  0
LINE
  5
6A8
100
AcDbEntity
  8
0
370
    -3
390
0
  6
Continuous
100
AcDbLine
 10
540.982697
 20
1006.012297
 30
0.0
 11
508.982697
 21
1021.395366
 31
0.0
  0
LINE
  5
6A9
100
AcDbEntity
  8
0
370
    -3
390
0
  6
Continuous
100
AcDbLine
 10
540.982697
 20
1007.790121
 30
0.0
 11
540.982697
 21
999.360082
 31
0.0
  0
LINE
  5
6AA
100
AcDbEntity
  8
0
370
    -3
390
0
  6
Continuous
100
AcDbLine
 10
540.982697
 20
999.360082
 30
0.0
 11
535.021603
 21
999.360082
 31
0.0
  0
LINE
  5
6AB
100
AcDbEntity
  8
0
370
    -3
390
0
  6
Continuous
100
AcDbLine
 10
508.982697
 20
1023.173191
 30
0.0
 11
508.982697
 21
1021.395366
 31
0.0
  0
LINE
  5
6AC
100
AcDbEntity
  8
0
370
    -3
390
0
  6
Continuous
100
AcDbLine
 10
508.982697
 20
1021.395366
 30
0.0
 11
372.982697
 21
1021.395366
 31
0.0
  0
LINE
  5
6AD
100
AcDbEntity
  8
0
370
    -3
390
0
  6
Continuous
100
AcDbLine
 10
508.982697
 20
1023.173191
 30
0.0
 11
372.982697
 21
1023.173191
 31
0.0
  0
LINE
  5
6AE
100
AcDbEntity
  8
0
370
    -3
390
0
  6
Continuous
100
AcDbLine
 10
372.982697
 20
1023.173191
 30
0.0
 11
340.982697
 21
1007.790121
 31
0.0
  0
LINE
  5
6AF
100
AcDbEntity
  8
0
370
    -3
390
0
  6
Continuous
100
AcDbLine
 10
340.982697
 20
1006.012297
 30
0.0
 11
372.982697
 21
1021.395366
 31
0.0
  0
LINE
  5
6B0
100
AcDbEntity
  8
0
370
    -3
390
0
  6
Continuous
100
AcDbLine
 10
340.982697
 20
1007.790121
 30
0.0
 11
340.982697
 21
999.360082
 31
0.0
  0
LINE
  5
6B1
100
AcDbEntity
  8
0
370
    -3
390
0
  6
Continuous
100
AcDbLine
 10
340.982697
 20
999.360082
 30
0.0
 11
346.943791
 21
999.360082
 31
0.0
  0
LINE
  5
6B2
100
AcDbEntity
  8
0
370
    -3
390
0
  6
Continuous
100
AcDbLine
 10
372.982697
 20
1023.173191
 30
0.0
 11
372.982697
 21
1021.395366
 31
0.0
  0
ENDBLK
  5
6B3
100
AcDbEntity
  8
0
390
0
100
AcDbBlockEnd
  0
BLOCK
  5
7C8
100
AcDbEntity
  8
0
390
0
100
AcDbBlockBegin
  2
ZU_SYM_K__CAD_SYM_POO_SYM_B21_0000920
 70
    64
 10
0.0
 20
0.0
 30
0.0
  3
ZU_SYM_K__CAD_SYM_POO_SYM_B21_0000920
  1

  0
LINE
  5
7C9
100
AcDbEntity
  8
0
370
    -3
390
0
  6
Continuous
100
AcDbLine
 10
0.000001
 20
0.015238
 30
0.0
 11
-2.999999
 21
-1.076669
 31
0.0
  0
LINE
  5
7CA
100
AcDbEntity
  8
0
370
    -3
390
0
  6
Continuous
100
AcDbLine
 10
-2.999999
 20
-0.025431
 30
0.0
 11
0.000001
 21
1.066476
 31
0.0
  0
LINE
  5
7CB
100
AcDbEntity
  8
0
370
    -3
390
0
  6
Continuous
100
AcDbLine
 10
-14.299976
 20
9.0
 30
0.0
 11
-14.299976
 21
-9.0
 31
0.0
  0
LINE
  5
7CC
100
AcDbEntity
  8
0
370
    -3
390
0
  6
Continuous
100
AcDbLine
 10
-14.299962
 20
-9.000003
 30
0.0
 11
-14.999959
 21
-7.787739
 31
0.0
  0
LINE
  5
7CD
100
AcDbEntity
  8
0
370
    -3
390
0
  6
Continuous
100
AcDbLine
 10
-14.299981
 20
9.000001
 30
0.0
 11
-14.999978
 21
7.787341
 31
0.0
  0
LINE
  5
7CE
100
AcDbEntity
  8
0
370
    -3
390
0
  6
Continuous
100
AcDbLine
 10
0.0
 20
-10.75
 30
0.0
 11
-3.0
 21
-10.75
 31
0.0
  0
LINE
  5
7CF
100
AcDbEntity
  8
0
370
    -3
390
0
  6
Continuous
100
AcDbLine
 10
0.0
 20
10.75
 30
0.0
 11
-3.0
 21
10.75
 31
0.0
  0
LINE
  5
7D0
100
AcDbEntity
  8
0
370
    -3
390
0
  6
Continuous
100
AcDbLine
 10
-3.0
 20
9.0
 30
0.0
 11
-14.299976
 21
9.0
 31
0.0
  0
LINE
  5
7D1
100
AcDbEntity
  8
0
370
    -3
390
0
  6
Continuous
100
AcDbLine
 10
-3.0
 20
-9.0
 30
0.0
 11
-14.299961
 21
-9.0
 31
0.0
  0
LINE
  5
7D2
100
AcDbEntity
  8
0
370
    -3
390
0
  6
Continuous
100
AcDbLine
 10
-14.999958
 20
-7.787735
 30
0.0
 11
-14.999973
 21
7.78734
 31
0.0
  0
LINE
  5
7D3
100
AcDbEntity
  8
0
370
    -3
390
0
  6
Continuous
100
AcDbLine
 10
-3.0
 20
-10.75
 30
0.0
 11
-3.0
 21
10.75
 31
0.0
  0
LINE
  5
7D4
100
AcDbEntity
  8
0
370
    -3
390
0
  6
Continuous
100
AcDbLine
 10
0.0
 20
10.75
 30
0.0
 11
0.0
 21
-10.75
 31
0.0
  0
POINT
  5
7D5
100
AcDbEntity
  8
0
370
    -3
390
0
  6
Continuous
100
AcDbPoint
 10
0.0
 20
0.0
 30
0.0
  0
ENDBLK
  5
7D6
100
AcDbEntity
  8
0
390
0
100
AcDbBlockEnd
  0
BLOCK
  5
7D9
100
AcDbEntity
  8
0
390
0
100
AcDbBlockBegin
  2
ZU_SYM_K__CAD_SYM_POO_SYM_B21_0001020
 70
    64
 10
0.0
 20
0.0
 30
0.0
  3
ZU_SYM_K__CAD_SYM_POO_SYM_B21_0001020
  1

  0
LINE
  5
7DA
100
AcDbEntity
  8
0
370
    -3
390
0
  6
Continuous
100
AcDbLine
 10
0.000001
 20
0.015238
 30
0.0
 11
-2.999999
 21
-1.076669
 31
0.0
  0
LINE
  5
7DB
100
AcDbEntity
  8
0
370
    -3
390
0
  6
Continuous
100
AcDbLine
 10
-2.999999
 20
-0.025431
 30
0.0
 11
0.000001
 21
1.066476
 31
0.0
  0
LINE
  5
7DC
100
AcDbEntity
  8
0
370
    -3
390
0
  6
Continuous
100
AcDbLine
 10
-14.299976
 20
9.0
 30
0.0
 11
-14.299976
 21
-9.0
 31
0.0
  0
LINE
  5
7DD
100
AcDbEntity
  8
0
370
    -3
390
0
  6
Continuous
100
AcDbLine
 10
-14.299962
 20
-9.000003
 30
0.0
 11
-14.999959
 21
-7.787739
 31
0.0
  0
LINE
  5
7DE
100
AcDbEntity
  8
0
370
    -3
390
0
  6
Continuous
100
AcDbLine
 10
-14.299981
 20
9.000001
 30
0.0
 11
-14.999978
 21
7.787341
 31
0.0
  0
LINE
  5
7DF
100
AcDbEntity
  8
0
370
    -3
390
0
  6
Continuous
100
AcDbLine
 10
0.0
 20
-10.75
 30
0.0
 11
-3.0
 21
-10.75
 31
0.0
  0
LINE
  5
7E0
100
AcDbEntity
  8
0
370
    -3
390
0
  6
Continuous
100
AcDbLine
 10
0.0
 20
10.75
 30
0.0
 11
-3.0
 21
10.75
 31
0.0
  0
LINE
  5
7E1
100
AcDbEntity
  8
0
370
    -3
390
0
  6
Continuous
100
AcDbLine
 10
-3.0
 20
9.0
 30
0.0
 11
-14.299976
 21
9.0
 31
0.0
  0
LINE
  5
7E2
100
AcDbEntity
  8
0
370
    -3
390
0
  6
Continuous
100
AcDbLine
 10
-3.0
 20
-9.0
 30
0.0
 11
-14.299961
 21
-9.0
 31
0.0
  0
LINE
  5
7E3
100
AcDbEntity
  8
0
370
    -3
390
0
  6
Continuous
100
AcDbLine
 10
-14.999958
 20
-7.787735
 30
0.0
 11
-14.999973
 21
7.78734
 31
0.0
  0
LINE
  5
7E4
100
AcDbEntity
  8
0
370
    -3
390
0
  6
Continuous
100
AcDbLine
 10
-3.0
 20
-10.75
 30
0.0
 11
-3.0
 21
10.75
 31
0.0
  0
LINE
  5
7E5
100
AcDbEntity
  8
0
370
    -3
390
0
  6
Continuous
100
AcDbLine
 10
0.0
 20
10.75
 30
0.0
 11
0.0
 21
-10.75
 31
0.0
  0
POINT
  5
7E6
100
AcDbEntity
  8
0
370
    -3
390
0
  6
Continuous
100
AcDbPoint
 10
0.0
 20
0.0
 30
0.0
  0
ENDBLK
  5
7E7
100
AcDbEntity
  8
0
390
0
100
AcDbBlockEnd
  0
BLOCK
  5
7EA
100
AcDbEntity
  8
0
390
0
100
AcDbBlockBegin
  2
ZU_SYM_K__CAD_SYM_POO_SYM_B21_0001120
 70
    64
 10
0.0
 20
0.0
 30
0.0
  3
ZU_SYM_K__CAD_SYM_POO_SYM_B21_0001120
  1

  0
LINE
  5
7EB
100
AcDbEntity
  8
0
370
    -3
390
0
  6
Continuous
100
AcDbLine
 10
0.000001
 20
0.015238
 30
0.0
 11
-2.999999
 21
-1.076669
 31
0.0
  0
LINE
  5
7EC
100
AcDbEntity
  8
0
370
    -3
390
0
  6
Continuous
100
AcDbLine
 10
-2.999999
 20
-0.025431
 30
0.0
 11
0.000001
 21
1.066476
 31
0.0
  0
LINE
  5
7ED
100
AcDbEntity
  8
0
370
    -3
390
0
  6
Continuous
100
AcDbLine
 10
-14.299976
 20
9.0
 30
0.0
 11
-14.299976
 21
-9.0
 31
0.0
  0
LINE
  5
7EE
100
AcDbEntity
  8
0
370
    -3
390
0
  6
Continuous
100
AcDbLine
 10
-14.299962
 20
-9.000003
 30
0.0
 11
-14.999959
 21
-7.787739
 31
0.0
  0
LINE
  5
7EF
100
AcDbEntity
  8
0
370
    -3
390
0
  6
Continuous
100
AcDbLine
 10
-14.299981
 20
9.000001
 30
0.0
 11
-14.999978
 21
7.787341
 31
0.0
  0
LINE
  5
7F0
100
AcDbEntity
  8
0
370
    -3
390
0
  6
Continuous
100
AcDbLine
 10
0.0
 20
-10.75
 30
0.0
 11
-3.0
 21
-10.75
 31
0.0
  0
LINE
  5
7F1
100
AcDbEntity
  8
0
370
    -3
390
0
  6
Continuous
100
AcDbLine
 10
0.0
 20
10.75
 30
0.0
 11
-3.0
 21
10.75
 31
0.0
  0
LINE
  5
7F2
100
AcDbEntity
  8
0
370
    -3
390
0
  6
Continuous
100
AcDbLine
 10
-3.0
 20
9.0
 30
0.0
 11
-14.299976
 21
9.0
 31
0.0
  0
LINE
  5
7F3
100
AcDbEntity
  8
0
370
    -3
390
0
  6
Continuous
100
AcDbLine
 10
-3.0
 20
-9.0
 30
0.0
 11
-14.299961
 21
-9.0
 31
0.0
  0
LINE
  5
7F4
100
AcDbEntity
  8
0
370
    -3
390
0
  6
Continuous
100
AcDbLine
 10
-14.999958
 20
-7.787735
 30
0.0
 11
-14.999973
 21
7.78734
 31
0.0
  0
LINE
  5
7F5
100
AcDbEntity
  8
0
370
    -3
390
0
  6
Continuous
100
AcDbLine
 10
-3.0
 20
-10.75
 30
0.0
 11
-3.0
 21
10.75
 31
0.0
  0
LINE
  5
7F6
100
AcDbEntity
  8
0
370
    -3
390
0
  6
Continuous
100
AcDbLine
 10
0.0
 20
10.75
 30
0.0
 11
0.0
 21
-10.75
 31
0.0
  0
POINT
  5
7F7
100
AcDbEntity
  8
0
370
    -3
390
0
  6
Continuous
100
AcDbPoint
 10
0.0
 20
0.0
 30
0.0
  0
ENDBLK
  5
7F8
100
AcDbEntity
  8
0
390
0
100
AcDbBlockEnd
  0
BLOCK
  5
7FB
100
AcDbEntity
  8
0
390
0
100
AcDbBlockBegin
  2
ZU_SYM_K__CAD_SYM_POO_SYM_B21_0001220
 70
    64
 10
0.0
 20
0.0
 30
0.0
  3
ZU_SYM_K__CAD_SYM_POO_SYM_B21_0001220
  1

  0
LINE
  5
7FC
100
AcDbEntity
  8
0
370
    -3
390
0
  6
Continuous
100
AcDbLine
 10
0.000001
 20
0.015238
 30
0.0
 11
-2.999999
 21
-1.076669
 31
0.0
  0
LINE
  5
7FD
100
AcDbEntity
  8
0
370
    -3
390
0
  6
Continuous
100
AcDbLine
 10
-2.999999
 20
-0.025431
 30
0.0
 11
0.000001
 21
1.066476
 31
0.0
  0
LINE
  5
7FE
100
AcDbEntity
  8
0
370
    -3
390
0
  6
Continuous
100
AcDbLine
 10
-14.299976
 20
9.0
 30
0.0
 11
-14.299976
 21
-9.0
 31
0.0
  0
LINE
  5
7FF
100
AcDbEntity
  8
0
370
    -3
390
0
  6
Continuous
100
AcDbLine
 10
-14.299962
 20
-9.000003
 30
0.0
 11
-14.999959
 21
-7.787739
 31
0.0
  0
LINE
  5
800
100
AcDbEntity
  8
0
370
    -3
390
0
  6
Continuous
100
AcDbLine
 10
-14.299981
 20
9.000001
 30
0.0
 11
-14.999978
 21
7.787341
 31
0.0
  0
LINE
  5
801
100
AcDbEntity
  8
0
370
    -3
390
0
  6
Continuous
100
AcDbLine
 10
0.0
 20
-10.75
 30
0.0
 11
-3.0
 21
-10.75
 31
0.0
  0
LINE
  5
802
100
AcDbEntity
  8
0
370
    -3
390
0
  6
Continuous
100
AcDbLine
 10
0.0
 20
10.75
 30
0.0
 11
-3.0
 21
10.75
 31
0.0
  0
LINE
  5
803
100
AcDbEntity
  8
0
370
    -3
390
0
  6
Continuous
100
AcDbLine
 10
-3.0
 20
9.0
 30
0.0
 11
-14.299976
 21
9.0
 31
0.0
  0
LINE
  5
804
100
AcDbEntity
  8
0
370
    -3
390
0
  6
Continuous
100
AcDbLine
 10
-3.0
 20
-9.0
 30
0.0
 11
-14.299961
 21
-9.0
 31
0.0
  0
LINE
  5
805
100
AcDbEntity
  8
0
370
    -3
390
0
  6
Continuous
100
AcDbLine
 10
-14.999958
 20
-7.787735
 30
0.0
 11
-14.999973
 21
7.78734
 31
0.0
  0
LINE
  5
806
100
AcDbEntity
  8
0
370
    -3
390
0
  6
Continuous
100
AcDbLine
 10
-3.0
 20
-10.75
 30
0.0
 11
-3.0
 21
10.75
 31
0.0
  0
LINE
  5
807
100
AcDbEntity
  8
0
370
    -3
390
0
  6
Continuous
100
AcDbLine
 10
0.0
 20
10.75
 30
0.0
 11
0.0
 21
-10.75
 31
0.0
  0
POINT
  5
808
100
AcDbEntity
  8
0
370
    -3
390
0
  6
Continuous
100
AcDbPoint
 10
0.0
 20
0.0
 30
0.0
  0
ENDBLK
  5
809
100
AcDbEntity
  8
0
390
0
100
AcDbBlockEnd
  0
ENDSEC
  0
SECTION
  2
ENTITIES
  0
LINE
  5
2D
100
AcDbEntity
  8
0
370
    -3
390
0
  6
Continuous
100
AcDbLine
 10
-912.916219
 20
-357.703936
 30
0.0
 11
-912.916219
 21
-383.341952
 31
0.0
  0
ARC
  5
2E
100
AcDbEntity
  8
0
370
    -3
390
0
  6
Continuous
100
AcDbCircle
 10
-910.916219
 20
-383.341952
 30
0.0
 40
2.0
100
AcDbArc
 50
180.0
 51
270.0
  0
ARC
  5
2F
100
AcDbEntity
  8
0
370
    -3
390
0
  6
Continuous
100
AcDbCircle
 10
-910.916219
 20
-387.341952
 30
0.0
 40
2.0
100
AcDbArc
 50
0.0
 51
90.0
  0
ARC
  5
30
100
AcDbEntity
  8
0
370
    -3
390
0
  6
Continuous
100
AcDbCircle
 10
-970.511493
 20
214.184144
 30
0.0
 40
2.0
100
AcDbArc
 50
36.869898
 51
90.0
  0
ARC
  5
31
100
AcDbEntity
  8
0
370
    -3
390
0
  6
Continuous
100
AcDbCircle
 10
-966.511493
 20
217.184144
 30
0.0
 40
3.0
100
AcDbArc
 50
216.869898
 51
270.0
  0
LINE
  5
32
100
AcDbEntity
  8
0
370
    -3
390
0
  6
Continuous
100
AcDbLine
 10
-959.182645
 20
214.184144
 30
0.0
 11
-966.511493
 21
214.184144
 31
0.0
  0
ARC
  5
33
100
AcDbEntity
  8
0
370
    -3
390
0
  6
Continuous
100
AcDbCircle
 10
-970.511493
 20
525.184144
 30
0.0
 40
2.0
100
AcDbArc
 50
270.0
 51
323.130102
  0
LINE
  5
34
100
AcDbEntity
  8
0
370
    -3
390
0
  6
Continuous
100
AcDbLine
 10
-908.916219
 20
525.184144
 30
0.0
 11
-966.511493
 21
525.184144
 31
0.0
  0
ARC
  5
35
100
AcDbEntity
  8
0
370
    -3
390
0
  6
Continuous
100
AcDbCircle
 10
-966.511493
 20
522.184144
 30
0.0
 40
3.0
100
AcDbArc
 50
90.0
 51
143.130102
  0
ARC
  5
36
100
AcDbEntity
  8
0
370
    -3
390
0
  6
Continuous
100
AcDbCircle
 10
-966.511493
 20
522.184144
 30
0.0
 40
3.0
100
AcDbArc
 50
90.0
 51
143.130102
  0
LINE
  5
37
100
AcDbEntity
  8
0
370
    -3
390
0
  6
Continuous
100
AcDbLine
 10
-908.916219
 20
525.184144
 30
0.0
 11
-966.511493
 21
525.184144
 31
0.0
  0
INSERT
  5
42
100
AcDbEntity
  8
0
390
0
100
AcDbBlockReference
  2
ZU_SYM_K__CAD_SYM_POO_SYM_S07_16
 10
189.315062
 20
-333.159494
 30
0.0
 50
321.0
  0
INSERT
  5
53
100
AcDbEntity
  8
0
390
0
100
AcDbBlockReference
  2
ZU_SYM__USERS_HOME_SYMBOL_POO_SYM_B21_21
 10
-470.416219
 20
-373.293481
 30
0.0
  0
INSERT
  5
64
100
AcDbEntity
  8
0
390
0
100
AcDbBlockReference
  2
ZU_SYM__USERS_HOME_SYMBOL_POO_SYM_B21_0000121
 10
-470.416219
 20
-266.293481
 30
0.0
  0
INSERT
  5
75
100
AcDbEntity
  8
0
390
0
100
AcDbBlockReference
  2
ZU_SYM__USERS_HOME_SYMBOL_POO_SYM_B21_0000221
 10
-470.416219
 20
-68.293481
 30
0.0
  0
INSERT
  5
86
100
AcDbEntity
  8
0
390
0
100
AcDbBlockReference
  2
ZU_SYM__USERS_HOME_SYMBOL_POO_SYM_B21_0000321
 10
-470.416219
 20
-153.293481
 30
0.0
  0
INSERT
  5
8D
100
AcDbEntity
  8
0
390
0
100
AcDbBlockReference
  2
ZU_SYM_C__ZUOU_AC_BLOCK_BLKF072_00
 10
-1244.991486
 20
-616.380597
 30
0.0
  0
INSERT
  5
95
100
AcDbEntity
  8
0
390
0
100
AcDbBlockReference
  2
ZU_SYM_C__ZUOU_AC_BLOCK_BLKF030_00
 10
-1243.991486
 20
-616.380597
 30
0.0
  0
INSERT
  5
A6
100
AcDbEntity
  8
0
390
0
100
AcDbBlockReference
  2
ZU_SYM_K__CAD_SYM_POO_SYM_B21_21
 10
-511.916219
 20
-330.293481
 30
0.0
  0
INSERT
  5
B7
100
AcDbEntity
  8
0
390
0
100
AcDbBlockReference
  2
ZU_SYM_K__CAD_SYM_POO_SYM_B21_20
 10
-607.916219
 20
-401.793482
 30
0.0
 41
-1.0
  0
INSERT
  5
C8
100
AcDbEntity
  8
0
390
0
100
AcDbBlockReference
  2
ZU_SYM_K__CAD_SYM_POO_SYM_B21_0000421
 10
-511.916219
 20
-171.689618
 30
0.0
  0
INSERT
  5
D9
100
AcDbEntity
  8
0
390
0
100
AcDbBlockReference
  2
ZU_SYM_K__CAD_SYM_POO_SYM_B21_0000520
 10
-607.916219
 20
-206.451849
 30
0.0
 41
-1.0
  0
LINE
  5
DA
100
AcDbEntity
  8
0
370
    -3
390
0
  6
CENTER
100
AcDbLine
 10
189.273489
 20
-260.745003
 30
0.0
 11
326.984511
 21
-297.644565
 31
0.0
  0
CIRCLE
  5
DB
100
AcDbEntity
  8
0
370
    -3
390
0
  6
Continuous
100
AcDbCircle
 10
448.831931
 20
-231.293481
 30
0.0
 40
6.0
  0
CIRCLE
  5
DC
100
AcDbEntity
  8
0
370
    -3
390
0
  6
Continuous
100
AcDbCircle
 10
448.831931
 20
-231.293481
 30
0.0
 40
5.0
  0
LINE
  5
DD
100
AcDbEntity
  8
0
370
    -3
390
0
  6
Continuous
100
AcDbLine
 10
464.081931
 20
-48.293481
 30
0.0
 11
448.831931
 21
-48.293481
 31
0.0
  0
LINE
  5
DE
100
AcDbEntity
  8
0
370
    -3
390
0
  6
Continuous
100
AcDbLine
 10
433.581931
 20
-48.293481
 30
0.0
 11
448.831931
 21
-48.293481
 31
0.0
  0
ARC
  5
DF
100
AcDbEntity
  8
0
370
    -3
390
0
  6
Continuous
100
AcDbCircle
 10
458.331931
 20
-49.793481
 30
0.0
 40
1.5
100
AcDbArc
 50
0.0
 51
90.0
  0
ARC
  5
E0
100
AcDbEntity
  8
0
370
    -3
390
0
  6
Continuous
100
AcDbCircle
 10
458.331931
 20
-49.793481
 30
0.0
 40
1.5
100
AcDbArc
 50
270.0
 51
0.0
  0
ARC
  5
E1
100
AcDbEntity
  8
0
370
    -3
390
0
  6
Continuous
100
AcDbCircle
 10
439.331931
 20
-49.793481
 30
0.0
 40
1.5
100
AcDbArc
 50
90.0
 51
180.0
  0
ARC
  5
E2
100
AcDbEntity
  8
0
370
    -3
390
0
  6
Continuous
100
AcDbCircle
 10
439.331931
 20
-49.793481
 30
0.0
 40
1.5
100
AcDbArc
 50
180.0
 51
270.0
  0
LINE
  5
E3
100
AcDbEntity
  8
0
370
    -3
390
0
  6
Continuous
100
AcDbLine
 10
462.563677
 20
-43.293481
 30
0.0
 11
457.044065
 21
-43.293481
 31
0.0
  0
LINE
  5
E4
100
AcDbEntity
  8
0
370
    -3
390
0
  6
Continuous
100
AcDbLine
 10
452.734886
 20
-43.293481
 30
0.0
 11
448.831931
 21
-43.293481
 31
0.0
  0
LINE
  5
E5
100
AcDbEntity
  8
0
370
    -3
390
0
  6
Continuous
100
AcDbLine
 10
464.348597
 20
-33.293481
 30
0.0
 11
464.348597
 21
-43.293481
 31
0.0
  0
LINE
  5
E6
100
AcDbEntity
  8
0
370
    -3
390
0
  6
Continuous
100
AcDbLine
 10
462.563677
 20
-33.293481
 30
0.0
 11
462.563677
 21
-43.293481
 31
0.0
  0
LINE
  5
E7
100
AcDbEntity
  8
0
370
    -3
390
0
  6
Continuous
100
AcDbLine
 10
457.044065
 20
-33.293481
 30
0.0
 11
457.044065
 21
-43.293481
 31
0.0
  0
LINE
  5
E8
100
AcDbEntity
  8
0
370
    -3
390
0
  6
Continuous
100
AcDbLine
 10
452.734886
 20
-33.293481
 30
0.0
 11
452.734886
 21
-43.293481
 31
0.0
  0
LINE
  5
E9
100
AcDbEntity
  8
0
370
    -3
390
0
  6
Continuous
100
AcDbLine
 10
464.081931
 20
-45.293481
 30
0.0
 11
464.081931
 21
-48.293481
 31
0.0
  0
LINE
  5
EA
100
AcDbEntity
  8
0
370
    -3
390
0
  6
Continuous
100
AcDbLine
 10
464.081931
 20
-45.293481
 30
0.0
 11
448.831931
 21
-45.293481
 31
0.0
  0
LINE
  5
EB
100
AcDbEntity
  8
0
370
    -3
390
0
  6
Continuous
100
AcDbLine
 10
464.831931
 20
-43.293481
 30
0.0
 11
464.348597
 21
-43.293481
 31
0.0
  0
LINE
  5
EC
100
AcDbEntity
  8
0
370
    -3
390
0
  6
Continuous
100
AcDbLine
 10
464.831931
 20
-44.293481
 30
0.0
 11
464.831931
 21
-33.293481
 31
0.0
  0
LINE
  5
ED
100
AcDbEntity
  8
0
370
    -3
390
0
  6
Continuous
100
AcDbLine
 10
461.831931
 20
-31.293481
 30
0.0
 11
463.331931
 21
-33.293481
 31
0.0
  0
LINE
  5
EE
100
AcDbEntity
  8
0
370
    -3
390
0
  6
Continuous
100
AcDbLine
 10
464.831931
 20
-44.293481
 30
0.0
 11
448.831931
 21
-44.293481
 31
0.0
  0
LINE
  5
EF
100
AcDbEntity
  8
0
370
    -3
390
0
  6
Continuous
100
AcDbLine
 10
464.831931
 20
-44.293481
 30
0.0
 11
464.831931
 21
-33.293481
 31
0.0
  0
LINE
  5
F0
100
AcDbEntity
  8
0
370
    -3
390
0
  6
Continuous
100
AcDbLine
 10
461.831931
 20
-31.293481
 30
0.0
 11
463.331931
 21
-33.293481
 31
0.0
  0
LINE
  5
F1
100
AcDbEntity
  8
0
370
    -3
390
0
  6
Continuous
100
AcDbLine
 10
464.831931
 20
-33.293481
 30
0.0
 11
448.831931
 21
-33.293481
 31
0.0
  0
LINE
  5
F2
100
AcDbEntity
  8
0
370
    -3
390
0
  6
Continuous
100
AcDbLine
 10
461.831931
 20
-31.293481
 30
0.0
 11
448.831931
 21
-31.293481
 31
0.0
  0
LINE
  5
F3
100
AcDbEntity
  8
0
370
    -3
390
0
  6
Continuous
100
AcDbLine
 10
461.831931
 20
-45.293481
 30
0.0
 11
461.831931
 21
-44.293481
 31
0.0
  0
LINE
  5
F4
100
AcDbEntity
  8
0
370
    -3
390
0
  6
Continuous
100
AcDbLine
 10
435.100185
 20
-43.293481
 30
0.0
 11
440.619796
 21
-43.293481
 31
0.0
  0
LINE
  5
F5
100
AcDbEntity
  8
0
370
    -3
390
0
  6
Continuous
100
AcDbLine
 10
444.928976
 20
-43.293481
 30
0.0
 11
448.831931
 21
-43.293481
 31
0.0
  0
LINE
  5
F6
100
AcDbEntity
  8
0
370
    -3
390
0
  6
Continuous
100
AcDbLine
 10
433.315264
 20
-33.293481
 30
0.0
 11
433.315264
 21
-43.293481
 31
0.0
  0
LINE
  5
F7
100
AcDbEntity
  8
0
370
    -3
390
0
  6
Continuous
100
AcDbLine
 10
435.100185
 20
-33.293481
 30
0.0
 11
435.100185
 21
-43.293481
 31
0.0
  0
LINE
  5
F8
100
AcDbEntity
  8
0
370
    -3
390
0
  6
Continuous
100
AcDbLine
 10
440.619796
 20
-33.293481
 30
0.0
 11
440.619796
 21
-43.293481
 31
0.0
  0
LINE
  5
F9
100
AcDbEntity
  8
0
370
    -3
390
0
  6
Continuous
100
AcDbLine
 10
444.928976
 20
-33.293481
 30
0.0
 11
444.928976
 21
-43.293481
 31
0.0
  0
LINE
  5
FA
100
AcDbEntity
  8
0
370
    -3
390
0
  6
Continuous
100
AcDbLine
 10
433.581931
 20
-45.293481
 30
0.0
 11
433.581931
 21
-48.293481
 31
0.0
  0
LINE
  5
FB
100
AcDbEntity
  8
0
370
    -3
390
0
  6
Continuous
100
AcDbLine
 10
433.581931
 20
-45.293481
 30
0.0
 11
448.831931
 21
-45.293481
 31
0.0
  0
LINE
  5
FC
100
AcDbEntity
  8
0
370
    -3
390
0
  6
Continuous
100
AcDbLine
 10
432.831931
 20
-43.293481
 30
0.0
 11
433.315264
 21
-43.293481
 31
0.0
  0
LINE
  5
FD
100
AcDbEntity
  8
0
370
    -3
390
0
  6
Continuous
100
AcDbLine
 10
432.831931
 20
-44.293481
 30
0.0
 11
432.831931
 21
-33.293481
 31
0.0
  0
LINE
  5
FE
100
AcDbEntity
  8
0
370
    -3
390
0
  6
Continuous
100
AcDbLine
 10
435.831931
 20
-31.293481
 30
0.0
 11
434.331931
 21
-33.293481
 31
0.0
  0
LINE
  5
FF
100
AcDbEntity
  8
0
370
    -3
390
0
  6
Continuous
100
AcDbLine
 10
432.831931
 20
-44.293481
 30
0.0
 11
448.831931
 21
-44.293481
 31
0.0
  0
LINE
  5
100
100
AcDbEntity
  8
0
370
    -3
390
0
  6
Continuous
100
AcDbLine
 10
432.831931
 20
-44.293481
 30
0.0
 11
432.831931
 21
-33.293481
 31
0.0
  0
LINE
  5
101
100
AcDbEntity
  8
0
370
    -3
390
0
  6
Continuous
100
AcDbLine
 10
435.831931
 20
-31.293481
 30
0.0
 11
434.331931
 21
-33.293481
 31
0.0
  0
LINE
  5
102
100
AcDbEntity
  8
0
370
    -3
390
0
  6
Continuous
100
AcDbLine
 10
432.831931
 20
-33.293481
 30
0.0
 11
448.831931
 21
-33.293481
 31
0.0
  0
LINE
  5
103
100
AcDbEntity
  8
0
370
    -3
390
0
  6
Continuous
100
AcDbLine
 10
435.831931
 20
-31.293481
 30
0.0
 11
448.831931
 21
-31.293481
 31
0.0
  0
LINE
  5
104
100
AcDbEntity
  8
0
370
    -3
390
0
  6
Continuous
100
AcDbLine
 10
435.831931
 20
-45.293481
 30
0.0
 11
435.831931
 21
-44.293481
 31
0.0
  0
ARC
  5
105
100
AcDbEntity
  8
0
370
    -3
390
0
  6
Continuous
100
AcDbCircle
 10
365.737625
 20
-512.4629
 30
0.0
 40
8.0
100
AcDbArc
 50
83.254896
 51
175.021795
  0
ARC
  5
106
100
AcDbEntity
  8
0
370
    -3
390
0
  6
Continuous
100
AcDbCircle
 10
424.012584
 20
-513.293481
 30
0.0
 40
8.0
100
AcDbArc
 50
6.892103
 51
90.0
  0
ARC
  5
107
100
AcDbEntity
  8
0
370
    -3
390
0
  6
Continuous
100
AcDbCircle
 10
270.852375
 20
-467.77473
 30
0.0
 40
20.0
100
AcDbArc
 50
330.0
 51
34.350357
  0
ARC
  5
108
100
AcDbEntity
  8
0
370
    -3
390
0
  6
Continuous
100
AcDbCircle
 10
259.831931
 20
-204.293481
 30
0.0
 40
8.0
100
AcDbArc
 50
270.0
 51
0.0
  0
CIRCLE
  5
109
100
AcDbEntity
  8
0
370
    -3
390
0
  6
Continuous
100
AcDbCircle
 10
448.831931
 20
-231.293481
 30
0.0
 40
65.0
  0
ARC
  5
10A
100
AcDbEntity
  8
0
370
    -3
390
0
  6
Continuous
100
AcDbCircle
 10
321.603552
 20
-526.270635
 30
0.0
 40
8.0
100
AcDbArc
 50
39.72371
 51
120.0
  0
ARC
  5
10B
100
AcDbEntity
  8
0
370
    -3
390
0
  6
Continuous
100
AcDbCircle
 10
350.1268
 20
-507.493328
 30
0.0
 40
6.0
100
AcDbArc
 50
75.419595
 51
120.0
  0
ARC
  5
10C
100
AcDbEntity
  8
0
370
    -3
390
0
  6
Continuous
100
AcDbCircle
 10
309.831931
 20
-530.757582
 30
0.0
 40
6.0
100
AcDbArc
 50
120.0
 51
180.0
  0
LINE
  5
10D
100
AcDbEntity
  8
0
370
    -3
390
0
  6
Continuous
100
AcDbLine
 10
288.172884
 20
-477.77473
 30
0.0
 11
284.986631
 21
-483.293481
 31
0.0
  0
LINE
  5
10E
100
AcDbEntity
  8
0
370
    -3
390
0
  6
Continuous
100
AcDbLine
 10
306.831931
 20
-525.56143
 30
0.0
 11
347.1268
 21
-502.297176
 31
0.0
  0
ARC
  5
10F
100
AcDbEntity
  8
0
370
    -3
390
0
  6
Continuous
100
AcDbCircle
 10
429.331931
 20
-55.293481
 30
0.0
 40
2.0
100
AcDbArc
 50
270.0
 51
0.0
  0
ARC
  5
110
100
AcDbEntity
  8
0
370
    -3
390
0
  6
Continuous
100
AcDbCircle
 10
433.331931
 20
-53.293481
 30
0.0
 40
2.0
100
AcDbArc
 50
90.0
 51
180.0
  0
LINE
  5
111
100
AcDbEntity
  8
0
370
    -3
390
0
  6
Continuous
100
AcDbLine
 10
431.331931
 20
-53.293481
 30
0.0
 11
431.331931
 21
-55.293481
 31
0.0
  0
LINE
  5
112
100
AcDbEntity
  8
0
370
    -3
390
0
  6
Continuous
100
AcDbLine
 10
433.331931
 20
-51.293481
 30
0.0
 11
448.831931
 21
-51.293481
 31
0.0
  0
ARC
  5
113
100
AcDbEntity
  8
0
370
    -3
390
0
  6
Continuous
100
AcDbCircle
 10
436.831931
 20
-63.293481
 30
0.0
 40
6.0
100
AcDbArc
 50
0.0
 51
90.0
  0
ARC
  5
114
100
AcDbEntity
  8
0
370
    -3
390
0
  6
Continuous
100
AcDbCircle
 10
436.831931
 20
-125.974916
 30
0.0
 40
6.0
100
AcDbArc
 50
276.50025
 51
0.0
  0
LINE
  5
115
100
AcDbEntity
  8
0
370
    -3
390
0
  6
Continuous
100
AcDbLine
 10
442.831931
 20
-63.293481
 30
0.0
 11
442.831931
 21
-125.974916
 31
0.0
  0
ARC
  5
116
100
AcDbEntity
  8
0
370
    -3
390
0
  6
Continuous
100
AcDbCircle
 10
257.831931
 20
-311.293481
 30
0.0
 40
10.0
100
AcDbArc
 50
0.0
 51
90.0
  0
ARC
  5
117
100
AcDbEntity
  8
0
370
    -3
390
0
  6
Continuous
100
AcDbCircle
 10
252.429911
 20
-311.293481
 30
0.0
 40
10.0
100
AcDbArc
 50
90.0
 51
135.0
  0
ARC
  5
118
100
AcDbEntity
  8
0
370
    -3
390
0
  6
Continuous
100
AcDbCircle
 10
231.831931
 20
-331.89146
 30
0.0
 40
10.0
100
AcDbArc
 50
135.0
 51
180.0
  0
LINE
  5
119
100
AcDbEntity
  8
0
370
    -3
390
0
  6
Continuous
100
AcDbLine
 10
224.760863
 20
-324.820393
 30
0.0
 11
245.358843
 21
-304.222413
 31
0.0
  0
LINE
  5
11A
100
AcDbEntity
  8
0
370
    -3
390
0
  6
Continuous
100
AcDbLine
 10
252.429911
 20
-301.293481
 30
0.0
 11
257.831931
 21
-301.293481
 31
0.0
  0
LINE
  5
11B
100
AcDbEntity
  8
0
370
    -3
390
0
  6
Continuous
100
AcDbLine
 10
341.937049
 20
-505.293481
 30
0.0
 11
448.831931
 21
-505.293481
 31
0.0
  0
ARC
  5
11C
100
AcDbEntity
  8
0
370
    -3
390
0
  6
Continuous
100
AcDbCircle
 10
267.831931
 20
-373.293481
 30
0.0
 40
1.0
100
AcDbArc
 50
120.0
 51
180.0
  0
ARC
  5
11D
100
AcDbEntity
  8
0
370
    -3
390
0
  6
Continuous
100
AcDbCircle
 10
266.831931
 20
-371.56143
 30
0.0
 40
1.0
100
AcDbArc
 50
300.0
 51
0.0
  0
LINE
  5
11E
100
AcDbEntity
  8
0
370
    -3
390
0
  6
Continuous
100
AcDbLine
 10
266.831931
 20
-373.293481
 30
0.0
 11
266.831931
 21
-411.293481
 31
0.0
  0
ARC
  5
11F
100
AcDbEntity
  8
0
370
    -3
390
0
  6
Continuous
100
AcDbCircle
 10
267.831931
 20
-411.293481
 30
0.0
 40
1.0
100
AcDbArc
 50
180.0
 51
270.0
  0
LINE
  5
120
100
AcDbEntity
  8
0
370
    -3
390
0
  6
Continuous
100
AcDbLine
 10
267.831931
 20
-412.293481
 30
0.0
 11
268.615925
 21
-412.293481
 31
0.0
  0
ARC
  5
121
100
AcDbEntity
  8
0
370
    -3
390
0
  6
Continuous
100
AcDbCircle
 10
268.615925
 20
-413.293481
 30
0.0
 40
1.0
100
AcDbArc
 50
10.194552
 51
90.0
  0
LINE
  5
122
100
AcDbEntity
  8
0
370
    -3
390
0
  6
Continuous
100
AcDbLine
 10
379.831931
 20
-48.293481
 30
0.0
 11
433.581931
 21
-48.293481
 31
0.0
  0
LINE
  5
123
100
AcDbEntity
  8
0
370
    -3
390
0
  6
Continuous
100
AcDbLine
 10
379.831931
 20
-57.293481
 30
0.0
 11
448.831931
 21
-57.293481
 31
0.0
  0
ARC
  5
124
100
AcDbEntity
  8
0
370
    -3
390
0
  6
Continuous
100
AcDbCircle
 10
379.831931
 20
-169.293481
 30
0.0
 40
112.0
100
AcDbArc
 50
90.0
 51
180.0
  0
ARC
  5
125
100
AcDbEntity
  8
0
370
    -3
390
0
  6
Continuous
100
AcDbCircle
 10
379.831931
 20
-169.293481
 30
0.0
 40
121.0
100
AcDbArc
 50
90.0
 51
180.0
  0
ARC
  5
126
100
AcDbEntity
  8
0
370
    -3
390
0
  6
Continuous
100
AcDbCircle
 10
368.831931
 20
-68.293481
 30
0.0
 40
17.0
100
AcDbArc
 50
40.320215
 51
152.188093
  0
ARC
  5
127
100
AcDbEntity
  8
0
370
    -3
390
0
  6
Continuous
100
AcDbCircle
 10
448.831931
 20
-231.293481
 30
0.0
 40
100.0
100
AcDbArc
 50
90.0
 51
180.0
  0
LINE
  5
128
100
AcDbEntity
  8
0
370
    -3
390
0
  6
Continuous
100
AcDbLine
 10
258.831931
 20
-169.293481
 30
0.0
 11
258.831931
 21
-202.293481
 31
0.0
  0
LINE
  5
129
100
AcDbEntity
  8
0
370
    -3
390
0
  6
Continuous
100
AcDbLine
 10
267.831931
 20
-169.293481
 30
0.0
 11
267.831931
 21
-393.293481
 31
0.0
  0
ARC
  5
12A
100
AcDbEntity
  8
0
370
    -3
390
0
  6
Continuous
100
AcDbCircle
 10
278.831931
 20
-153.293481
 30
0.0
 40
17.0
100
AcDbArc
 50
112.138775
 51
229.857715
  0
LINE
  5
12B
100
AcDbEntity
  8
0
370
    -3
390
0
  6
Continuous
100
AcDbLine
 10
246.831931
 20
-212.293481
 30
0.0
 11
259.831931
 21
-212.293481
 31
0.0
  0
ARC
  5
12C
100
AcDbEntity
  8
0
370
    -3
390
0
  6
Continuous
100
AcDbCircle
 10
248.831931
 20
-202.293481
 30
0.0
 40
10.0
100
AcDbArc
 50
270.0
 51
0.0
  0
ARC
  5
12D
100
AcDbEntity
  8
0
370
    -3
390
0
  6
Continuous
100
AcDbCircle
 10
246.831931
 20
-220.293481
 30
0.0
 40
8.0
100
AcDbArc
 50
90.0
 51
180.0
  0
LINE
  5
12E
100
AcDbEntity
  8
0
370
    -3
390
0
  6
Continuous
100
AcDbLine
 10
238.831931
 20
-220.293481
 30
0.0
 11
238.831931
 21
-280.322918
 31
0.0
  0
LINE
  5
12F
100
AcDbEntity
  8
0
370
    -3
390
0
  6
Continuous
100
AcDbLine
 10
275.831931
 20
-276.293481
 30
0.0
 11
328.831931
 21
-276.293481
 31
0.0
  0
LINE
  5
130
100
AcDbEntity
  8
0
370
    -3
390
0
  6
Continuous
100
AcDbLine
 10
348.831931
 20
-256.293481
 30
0.0
 11
348.831931
 21
-231.293481
 31
0.0
  0
ARC
  5
131
100
AcDbEntity
  8
0
370
    -3
390
0
  6
Continuous
100
AcDbCircle
 10
328.831931
 20
-256.293481
 30
0.0
 40
20.0
100
AcDbArc
 50
270.0
 51
0.0
  0
ARC
  5
132
100
AcDbEntity
  8
0
370
    -3
390
0
  6
Continuous
100
AcDbCircle
 10
275.831931
 20
-284.293481
 30
0.0
 40
8.0
100
AcDbArc
 50
90.0
 51
180.0
  0
LINE
  5
133
100
AcDbEntity
  8
0
370
    -3
390
0
  6
Continuous
100
AcDbLine
 10
203.831931
 20
-325.264043
 30
0.0
 11
203.831931
 21
-531.293481
 31
0.0
  0
ARC
  5
134
100
AcDbEntity
  8
0
370
    -3
390
0
  6
Continuous
100
AcDbCircle
 10
215.831931
 20
-325.264043
 30
0.0
 40
12.0
100
AcDbArc
 50
135.0
 51
180.0
  0
LINE
  5
135
100
AcDbEntity
  8
0
370
    -3
390
0
  6
Continuous
100
AcDbLine
 10
207.346649
 20
-316.778762
 30
0.0
 11
235.317212
 21
-288.808199
 31
0.0
  0
ARC
  5
136
100
AcDbEntity
  8
0
370
    -3
390
0
  6
Continuous
100
AcDbCircle
 10
226.831931
 20
-280.322918
 30
0.0
 40
12.0
100
AcDbArc
 50
315.0
 51
0.0
  0
ARC
  5
137
100
AcDbEntity
  8
0
370
    -3
390
0
  6
Continuous
100
AcDbCircle
 10
251.831931
 20
-456.293481
 30
0.0
 40
30.0
100
AcDbArc
 50
180.0
 51
270.0
  0
LINE
  5
138
100
AcDbEntity
  8
0
370
    -3
390
0
  6
Continuous
100
AcDbLine
 10
221.831931
 20
-331.89146
 30
0.0
 11
221.831931
 21
-456.293481
 31
0.0
  0
ARC
  5
139
100
AcDbEntity
  8
0
370
    -3
390
0
  6
Continuous
100
AcDbCircle
 10
209.831931
 20
-492.293481
 30
0.0
 40
6.0
100
AcDbArc
 50
90.0
 51
180.0
  0
LINE
  5
13A
100
AcDbEntity
  8
0
370
    -3
390
0
  6
Continuous
100
AcDbLine
 10
209.831931
 20
-486.293481
 30
0.0
 11
283.956286
 21
-486.293481
 31
0.0
  0
ARC
  5
13B
100
AcDbEntity
  8
0
370
    -3
390
0
  6
Continuous
100
AcDbCircle
 10
340.831931
 20
-510.293481
 30
0.0
 40
17.0
100
AcDbArc
 50
219.72371
 51
355.021795
  0
LINE
  5
13C
100
AcDbEntity
  8
0
370
    -3
390
0
  6
Continuous
100
AcDbLine
 10
362.763643
 20
-514.293481
 30
0.0
 11
426.900219
 21
-514.293481
 31
0.0
  0
ARC
  5
13D
100
AcDbEntity
  8
0
370
    -3
390
0
  6
Continuous
100
AcDbCircle
 10
362.763643
 20
-522.293481
 30
0.0
 40
8.0
100
AcDbArc
 50
90.0
 51
151.314598
  0
ARC
  5
13E
100
AcDbEntity
  8
0
370
    -3
390
0
  6
Continuous
100
AcDbCircle
 10
379.831931
 20
-393.293481
 30
0.0
 40
112.0
100
AcDbArc
 50
180.0
 51
270.0
  0
LINE
  5
13F
100
AcDbEntity
  8
0
370
    -3
390
0
  6
Continuous
100
AcDbLine
 10
308.831931
 20
-527.293481
 30
0.0
 11
340.831931
 21
-527.293481
 31
0.0
  0
ARC
  5
140
100
AcDbEntity
  8
0
370
    -3
390
0
  6
Continuous
100
AcDbCircle
 10
308.831931
 20
-532.293481
 30
0.0
 40
5.0
100
AcDbArc
 50
90.0
 51
180.0
  0
LINE
  5
141
100
AcDbEntity
  8
0
370
    -3
390
0
  6
Continuous
100
AcDbLine
 10
303.831931
 20
-500.304588
 30
0.0
 11
303.831931
 21
-531.293481
 31
0.0
  0
LINE
  5
142
100
AcDbEntity
  8
0
370
    -3
390
0
  6
Continuous
100
AcDbLine
 10
286.956286
 20
-487.097328
 30
0.0
 11
300.831931
 21
-495.108435
 31
0.0
  0
ARC
  5
143
100
AcDbEntity
  8
0
370
    -3
390
0
  6
Continuous
100
AcDbCircle
 10
297.831931
 20
-500.304588
 30
0.0
 40
6.0
100
AcDbArc
 50
0.0
 51
60.0
  0
ARC
  5
144
100
AcDbEntity
  8
0
370
    -3
390
0
  6
Continuous
100
AcDbCircle
 10
426.900219
 20
-522.293481
 30
0.0
 40
8.0
100
AcDbArc
 50
28.685402
 51
90.0
  0
ARC
  5
145
100
AcDbEntity
  8
0
370
    -3
390
0
  6
Continuous
100
AcDbCircle
 10
448.831931
 20
-510.293481
 30
0.0
 40
17.0
100
AcDbArc
 50
186.892103
 51
270.0
  0
LINE
  5
146
100
AcDbEntity
  8
0
370
    -3
390
0
  6
CENTER
100
AcDbLine
 10
677.815352
 20
-231.293481
 30
0.0
 11
448.831931
 21
-231.293481
 31
0.0
  0
LINE
  5
147
100
AcDbEntity
  8
0
370
    -3
390
0
  6
CENTER
100
AcDbLine
 10
231.402874
 20
-231.293481
 30
0.0
 11
448.831931
 21
-231.293481
 31
0.0
  0
LINE
  5
148
100
AcDbEntity
  8
0
370
    -3
390
0
  6
Continuous
100
AcDbLine
 10
464.331931
 20
-51.293481
 30
0.0
 11
448.831931
 21
-51.293481
 31
0.0
  0
ARC
  5
149
100
AcDbEntity
  8
0
370
    -3
390
0
  6
Continuous
100
AcDbCircle
 10
531.926236
 20
-512.4629
 30
0.0
 40
8.0
100
AcDbArc
 50
4.978205
 51
96.745104
  0
ARC
  5
14A
100
AcDbEntity
  8
0
370
    -3
390
0
  6
Continuous
100
AcDbCircle
 10
473.651278
 20
-513.293481
 30
0.0
 40
8.0
100
AcDbArc
 50
90.0
 51
173.107897
  0
ARC
  5
14B
100
AcDbEntity
  8
0
370
    -3
390
0
  6
Continuous
100
AcDbCircle
 10
626.811486
 20
-467.77473
 30
0.0
 40
20.0
100
AcDbArc
 50
145.649643
 51
210.0
  0
ARC
  5
14C
100
AcDbEntity
  8
0
370
    -3
390
0
  6
Continuous
100
AcDbCircle
 10
637.831931
 20
-204.293481
 30
0.0
 40
8.0
100
AcDbArc
 50
180.0
 51
270.0
  0
ARC
  5
14D
100
AcDbEntity
  8
0
370
    -3
390
0
  6
Continuous
100
AcDbCircle
 10
576.06031
 20
-526.270635
 30
0.0
 40
8.0
100
AcDbArc
 50
60.0
 51
140.27629
  0
ARC
  5
14E
100
AcDbEntity
  8
0
370
    -3
390
0
  6
Continuous
100
AcDbCircle
 10
547.537061
 20
-507.493328
 30
0.0
 40
6.0
100
AcDbArc
 50
60.0
 51
104.580405
  0
ARC
  5
14F
100
AcDbEntity
  8
0
370
    -3
390
0
  6
Continuous
100
AcDbCircle
 10
587.831931
 20
-530.757582
 30
0.0
 40
6.0
100
AcDbArc
 50
0.0
 51
60.0
  0
LINE
  5
150
100
AcDbEntity
  8
0
370
    -3
390
0
  6
Continuous
100
AcDbLine
 10
609.490978
 20
-477.77473
 30
0.0
 11
612.67723
 21
-483.293481
 31
0.0
  0
LINE
  5
151
100
AcDbEntity
  8
0
370
    -3
390
0
  6
Continuous
100
AcDbLine
 10
590.831931
 20
-525.56143
 30
0.0
 11
550.537061
 21
-502.297176
 31
0.0
  0
ARC
  5
152
100
AcDbEntity
  8
0
370
    -3
390
0
  6
Continuous
100
AcDbCircle
 10
468.331931
 20
-55.293481
 30
0.0
 40
2.0
100
AcDbArc
 50
180.0
 51
270.0
  0
ARC
  5
153
100
AcDbEntity
  8
0
370
    -3
390
0
  6
Continuous
100
AcDbCircle
 10
464.331931
 20
-53.293481
 30
0.0
 40
2.0
100
AcDbArc
 50
0.0
 51
90.0
  0
LINE
  5
154
100
AcDbEntity
  8
0
370
    -3
390
0
  6
Continuous
100
AcDbLine
 10
466.331931
 20
-53.293481
 30
0.0
 11
466.331931
 21
-55.293481
 31
0.0
  0
ARC
  5
155
100
AcDbEntity
  8
0
370
    -3
390
0
  6
Continuous
100
AcDbCircle
 10
460.831931
 20
-63.293481
 30
0.0
 40
6.0
100
AcDbArc
 50
90.0
 51
180.0
  0
ARC
  5
156
100
AcDbEntity
  8
0
370
    -3
390
0
  6
Continuous
100
AcDbCircle
 10
460.831931
 20
-125.974916
 30
0.0
 40
6.0
100
AcDbArc
 50
180.0
 51
263.49975
  0
LINE
  5
157
100
AcDbEntity
  8
0
370
    -3
390
0
  6
Continuous
100
AcDbLine
 10
454.831931
 20
-63.293481
 30
0.0
 11
454.831931
 21
-125.974916
 31
0.0
  0
ARC
  5
158
100
AcDbEntity
  8
0
370
    -3
390
0
  6
Continuous
100
AcDbCircle
 10
639.831931
 20
-311.293481
 30
0.0
 40
10.0
100
AcDbArc
 50
90.0
 51
180.0
  0
ARC
  5
159
100
AcDbEntity
  8
0
370
    -3
390
0
  6
Continuous
100
AcDbCircle
 10
645.233951
 20
-311.293481
 30
0.0
 40
10.0
100
AcDbArc
 50
45.0
 51
90.0
  0
ARC
  5
15A
100
AcDbEntity
  8
0
370
    -3
390
0
  6
Continuous
100
AcDbCircle
 10
665.831931
 20
-331.89146
 30
0.0
 40
10.0
100
AcDbArc
 50
0.0
 51
45.0
  0
LINE
  5
15B
100
AcDbEntity
  8
0
370
    -3
390
0
  6
Continuous
100
AcDbLine
 10
672.902999
 20
-324.820393
 30
0.0
 11
652.305019
 21
-304.222413
 31
0.0
  0
LINE
  5
15C
100
AcDbEntity
  8
0
370
    -3
390
0
  6
Continuous
100
AcDbLine
 10
645.233951
 20
-301.293481
 30
0.0
 11
639.831931
 21
-301.293481
 31
0.0
  0
LINE
  5
15D
100
AcDbEntity
  8
0
370
    -3
390
0
  6
Continuous
100
AcDbLine
 10
555.726813
 20
-505.293481
 30
0.0
 11
448.831931
 21
-505.293481
 31
0.0
  0
ARC
  5
15E
100
AcDbEntity
  8
0
370
    -3
390
0
  6
Continuous
100
AcDbCircle
 10
629.831931
 20
-373.293481
 30
0.0
 40
1.0
100
AcDbArc
 50
0.0
 51
60.0
  0
ARC
  5
15F
100
AcDbEntity
  8
0
370
    -3
390
0
  6
Continuous
100
AcDbCircle
 10
630.831931
 20
-371.56143
 30
0.0
 40
1.0
100
AcDbArc
 50
180.0
 51
240.0
  0
LINE
  5
160
100
AcDbEntity
  8
0
370
    -3
390
0
  6
Continuous
100
AcDbLine
 10
630.831931
 20
-373.293481
 30
0.0
 11
630.831931
 21
-411.293481
 31
0.0
  0
ARC
  5
161
100
AcDbEntity
  8
0
370
    -3
390
0
  6
Continuous
100
AcDbCircle
 10
629.831931
 20
-411.293481
 30
0.0
 40
1.0
100
AcDbArc
 50
270.0
 51
0.0
  0
LINE
  5
162
100
AcDbEntity
  8
0
370
    -3
390
0
  6
Continuous
100
AcDbLine
 10
629.831931
 20
-412.293481
 30
0.0
 11
629.047937
 21
-412.293481
 31
0.0
  0
ARC
  5
163
100
AcDbEntity
  8
0
370
    -3
390
0
  6
Continuous
100
AcDbCircle
 10
629.047937
 20
-413.293481
 30
0.0
 40
1.0
100
AcDbArc
 50
90.0
 51
169.805448
  0
LINE
  5
164
100
AcDbEntity
  8
0
370
    -3
390
0
  6
Continuous
100
AcDbLine
 10
517.831931
 20
-48.293481
 30
0.0
 11
464.081931
 21
-48.293481
 31
0.0
  0
LINE
  5
165
100
AcDbEntity
  8
0
370
    -3
390
0
  6
Continuous
100
AcDbLine
 10
517.831931
 20
-57.293481
 30
0.0
 11
448.831931
 21
-57.293481
 31
0.0
  0
ARC
  5
166
100
AcDbEntity
  8
0
370
    -3
390
0
  6
Continuous
100
AcDbCircle
 10
517.831931
 20
-169.293481
 30
0.0
 40
112.0
100
AcDbArc
 50
0.0
 51
90.0
  0
ARC
  5
167
100
AcDbEntity
  8
0
370
    -3
390
0
  6
Continuous
100
AcDbCircle
 10
517.831931
 20
-169.293481
 30
0.0
 40
121.0
100
AcDbArc
 50
0.0
 51
90.0
  0
ARC
  5
168
100
AcDbEntity
  8
0
370
    -3
390
0
  6
Continuous
100
AcDbCircle
 10
528.831931
 20
-68.293481
 30
0.0
 40
17.0
100
AcDbArc
 50
27.811907
 51
139.679785
  0
ARC
  5
169
100
AcDbEntity
  8
0
370
    -3
390
0
  6
Continuous
100
AcDbCircle
 10
448.831931
 20
-231.293481
 30
0.0
 40
100.0
100
AcDbArc
 50
0.0
 51
90.0
  0
LINE
  5
16A
100
AcDbEntity
  8
0
370
    -3
390
0
  6
Continuous
100
AcDbLine
 10
638.831931
 20
-169.293481
 30
0.0
 11
638.831931
 21
-202.293481
 31
0.0
  0
LINE
  5
16B
100
AcDbEntity
  8
0
370
    -3
390
0
  6
Continuous
100
AcDbLine
 10
629.831931
 20
-169.293481
 30
0.0
 11
629.831931
 21
-393.293481
 31
0.0
  0
ARC
  5
16C
100
AcDbEntity
  8
0
370
    -3
390
0
  6
Continuous
100
AcDbCircle
 10
618.831931
 20
-153.293481
 30
0.0
 40
17.0
100
AcDbArc
 50
310.142285
 51
67.861225
  0
LINE
  5
16D
100
AcDbEntity
  8
0
370
    -3
390
0
  6
Continuous
100
AcDbLine
 10
650.831931
 20
-212.293481
 30
0.0
 11
637.831931
 21
-212.293481
 31
0.0
  0
ARC
  5
16E
100
AcDbEntity
  8
0
370
    -3
390
0
  6
Continuous
100
AcDbCircle
 10
648.831931
 20
-202.293481
 30
0.0
 40
10.0
100
AcDbArc
 50
180.0
 51
270.0
  0
ARC
  5
16F
100
AcDbEntity
  8
0
370
    -3
390
0
  6
Continuous
100
AcDbCircle
 10
650.831931
 20
-220.293481
 30
0.0
 40
8.0
100
AcDbArc
 50
0.0
 51
90.0
  0
LINE
  5
170
100
AcDbEntity
  8
0
370
    -3
390
0
  6
Continuous
100
AcDbLine
 10
658.831931
 20
-220.293481
 30
0.0
 11
658.831931
 21
-280.322918
 31
0.0
  0
LINE
  5
171
100
AcDbEntity
  8
0
370
    -3
390
0
  6
Continuous
100
AcDbLine
 10
621.831931
 20
-276.293481
 30
0.0
 11
568.831931
 21
-276.293481
 31
0.0
  0
LINE
  5
172
100
AcDbEntity
  8
0
370
    -3
390
0
  6
Continuous
100
AcDbLine
 10
548.831931
 20
-256.293481
 30
0.0
 11
548.831931
 21
-231.293481
 31
0.0
  0
ARC
  5
173
100
AcDbEntity
  8
0
370
    -3
390
0
  6
Continuous
100
AcDbCircle
 10
568.831931
 20
-256.293481
 30
0.0
 40
20.0
100
AcDbArc
 50
180.0
 51
270.0
  0
ARC
  5
174
100
AcDbEntity
  8
0
370
    -3
390
0
  6
Continuous
100
AcDbCircle
 10
621.831931
 20
-284.293481
 30
0.0
 40
8.0
100
AcDbArc
 50
0.0
 51
90.0
  0
LINE
  5
175
100
AcDbEntity
  8
0
370
    -3
390
0
  6
Continuous
100
AcDbLine
 10
693.831931
 20
-325.264043
 30
0.0
 11
693.831931
 21
-531.293481
 31
0.0
  0
ARC
  5
176
100
AcDbEntity
  8
0
370
    -3
390
0
  6
Continuous
100
AcDbCircle
 10
681.831931
 20
-325.264043
 30
0.0
 40
12.0
100
AcDbArc
 50
0.0
 51
45.0
  0
LINE
  5
177
100
AcDbEntity
  8
0
370
    -3
390
0
  6
Continuous
100
AcDbLine
 10
690.317212
 20
-316.778762
 30
0.0
 11
662.346649
 21
-288.808199
 31
0.0
  0
ARC
  5
178
100
AcDbEntity
  8
0
370
    -3
390
0
  6
Continuous
100
AcDbCircle
 10
670.831931
 20
-280.322918
 30
0.0
 40
12.0
100
AcDbArc
 50
180.0
 51
225.0
  0
ARC
  5
179
100
AcDbEntity
  8
0
370
    -3
390
0
  6
Continuous
100
AcDbCircle
 10
645.831931
 20
-456.293481
 30
0.0
 40
30.0
100
AcDbArc
 50
270.0
 51
0.0
  0
LINE
  5
17A
100
AcDbEntity
  8
0
370
    -3
390
0
  6
Continuous
100
AcDbLine
 10
675.831931
 20
-331.89146
 30
0.0
 11
675.831931
 21
-456.293481
 31
0.0
  0
ARC
  5
17B
100
AcDbEntity
  8
0
370
    -3
390
0
  6
Continuous
100
AcDbCircle
 10
687.831931
 20
-492.293481
 30
0.0
 40
6.0
100
AcDbArc
 50
0.0
 51
90.0
  0
LINE
  5
17C
100
AcDbEntity
  8
0
370
    -3
390
0
  6
Continuous
100
AcDbLine
 10
687.831931
 20
-486.293481
 30
0.0
 11
613.707575
 21
-486.293481
 31
0.0
  0
ARC
  5
17D
100
AcDbEntity
  8
0
370
    -3
390
0
  6
Continuous
100
AcDbCircle
 10
556.831931
 20
-510.293481
 30
0.0
 40
17.0
100
AcDbArc
 50
184.978205
 51
320.27629
  0
LINE
  5
17E
100
AcDbEntity
  8
0
370
    -3
390
0
  6
Continuous
100
AcDbLine
 10
534.900219
 20
-514.293481
 30
0.0
 11
470.763643
 21
-514.293481
 31
0.0
  0
ARC
  5
17F
100
AcDbEntity
  8
0
370
    -3
390
0
  6
Continuous
100
AcDbCircle
 10
534.900219
 20
-522.293481
 30
0.0
 40
8.0
100
AcDbArc
 50
28.685402
 51
90.0
  0
ARC
  5
180
100
AcDbEntity
  8
0
370
    -3
390
0
  6
Continuous
100
AcDbCircle
 10
517.831931
 20
-393.293481
 30
0.0
 40
112.0
100
AcDbArc
 50
270.0
 51
0.0
  0
LINE
  5
181
100
AcDbEntity
  8
0
370
    -3
390
0
  6
Continuous
100
AcDbLine
 10
588.831931
 20
-527.293481
 30
0.0
 11
556.831931
 21
-527.293481
 31
0.0
  0
ARC
  5
182
100
AcDbEntity
  8
0
370
    -3
390
0
  6
Continuous
100
AcDbCircle
 10
588.831931
 20
-532.293481
 30
0.0
 40
5.0
100
AcDbArc
 50
0.0
 51
90.0
  0
LINE
  5
183
100
AcDbEntity
  8
0
370
    -3
390
0
  6
Continuous
100
AcDbLine
 10
593.831931
 20
-500.304588
 30
0.0
 11
593.831931
 21
-531.293481
 31
0.0
  0
LINE
  5
184
100
AcDbEntity
  8
0
370
    -3
390
0
  6
Continuous
100
AcDbLine
 10
610.707575
 20
-487.097328
 30
0.0
 11
596.831931
 21
-495.108435
 31
0.0
  0
ARC
  5
185
100
AcDbEntity
  8
0
370
    -3
390
0
  6
Continuous
100
AcDbCircle
 10
599.831931
 20
-500.304588
 30
0.0
 40
6.0
100
AcDbArc
 50
120.0
 51
180.0
  0
ARC
  5
186
100
AcDbEntity
  8
0
370
    -3
390
0
  6
Continuous
100
AcDbCircle
 10
470.763643
 20
-522.293481
 30
0.0
 40
8.0
100
AcDbArc
 50
90.0
 51
151.314598
  0
ARC
  5
187
100
AcDbEntity
  8
0
370
    -3
390
0
  6
Continuous
100
AcDbCircle
 10
448.831931
 20
-510.293481
 30
0.0
 40
17.0
100
AcDbArc
 50
270.0
 51
353.107897
  0
CIRCLE
  5
188
100
AcDbEntity
  8
0
370
    -3
390
0
  6
Continuous
100
AcDbCircle
 10
448.831931
 20
-231.293481
 30
0.0
 40
55.0
  0
LINE
  5
189
100
AcDbEntity
  8
0
370
    -3
390
0
  6
CENTER
100
AcDbLine
 10
253.831931
 20
-445.721638
 30
0.0
 11
253.831931
 21
-555.149574
 31
0.0
  0
LINE
  5
18A
100
AcDbEntity
  8
0
370
    -3
390
0
  6
CENTER
100
AcDbLine
 10
643.831931
 20
-445.721638
 30
0.0
 11
643.831931
 21
-553.491575
 31
0.0
  0
LINE
  5
18B
100
AcDbEntity
  8
0
370
    -3
390
0
  6
Continuous
100
AcDbLine
 10
203.831931
 20
-531.293481
 30
0.0
 11
303.831931
 21
-531.293481
 31
0.0
  0
LINE
  5
18C
100
AcDbEntity
  8
0
370
    -3
390
0
  6
Continuous
100
AcDbLine
 10
693.831931
 20
-531.293481
 30
0.0
 11
593.831931
 21
-531.293481
 31
0.0
  0
ARC
  5
18D
100
AcDbEntity
  8
0
370
    -3
390
0
  6
Continuous
100
AcDbCircle
 10
617.873383
 20
-480.293481
 30
0.0
 40
6.0
100
AcDbArc
 50
210.0
 51
270.0
  0
ARC
  5
18E
100
AcDbEntity
  8
0
370
    -3
390
0
  6
Continuous
100
AcDbCircle
 10
613.707575
 20
-492.293481
 30
0.0
 40
6.0
100
AcDbArc
 50
90.0
 51
120.0
  0
ARC
  5
18F
100
AcDbEntity
  8
0
370
    -3
390
0
  6
Continuous
100
AcDbCircle
 10
279.790479
 20
-480.293481
 30
0.0
 40
6.0
100
AcDbArc
 50
270.0
 51
330.0
  0
ARC
  5
190
100
AcDbEntity
  8
0
370
    -3
390
0
  6
Continuous
100
AcDbCircle
 10
283.956286
 20
-492.293481
 30
0.0
 40
6.0
100
AcDbArc
 50
60.0
 51
90.0
  0
ARC
  5
191
100
AcDbEntity
  8
0
370
    -3
390
0
  6
Continuous
100
AcDbCircle
 10
448.831931
 20
-231.293481
 30
0.0
 40
40.0
100
AcDbArc
 50
270.0
 51
74.037986
  0
LINE
  5
192
100
AcDbEntity
  8
0
370
    -3
390
0
  6
Continuous
100
AcDbLine
 10
448.831931
 20
-200.293481
 30
0.0
 11
459.831931
 21
-200.293481
 31
0.0
  0
LINE
  5
193
100
AcDbEntity
  8
0
370
    -3
390
0
  6
Continuous
100
AcDbLine
 10
448.831931
 20
-186.293481
 30
0.0
 11
459.831931
 21
-186.293481
 31
0.0
  0
LINE
  5
194
100
AcDbEntity
  8
0
370
    -3
390
0
  6
Continuous
100
AcDbLine
 10
459.831931
 20
-186.293481
 30
0.0
 11
459.831931
 21
-200.293481
 31
0.0
  0
LINE
  5
195
100
AcDbEntity
  8
0
370
    -3
390
0
  6
Continuous
100
AcDbLine
 10
448.831931
 20
-200.293481
 30
0.0
 11
437.831931
 21
-200.293481
 31
0.0
  0
LINE
  5
196
100
AcDbEntity
  8
0
370
    -3
390
0
  6
Continuous
100
AcDbLine
 10
448.831931
 20
-186.293481
 30
0.0
 11
437.831931
 21
-186.293481
 31
0.0
  0
LINE
  5
197
100
AcDbEntity
  8
0
370
    -3
390
0
  6
Continuous
100
AcDbLine
 10
437.831931
 20
-186.293481
 30
0.0
 11
437.831931
 21
-200.293481
 31
0.0
  0
ARC
  5
198
100
AcDbEntity
  8
0
370
    -3
390
0
  6
Continuous
100
AcDbCircle
 10
448.831931
 20
-231.293481
 30
0.0
 40
40.0
100
AcDbArc
 50
105.962014
 51
270.0
  0
LINE
  5
199
100
AcDbEntity
  8
0
370
    -3
390
0
  6
CENTER
100
AcDbLine
 10
483.988317
 20
-330.293481
 30
0.0
 11
413.523249
 21
-330.293481
 31
0.0
  0
ARC
  5
19A
100
AcDbEntity
  8
0
370
    -3
390
0
  6
Continuous
100
AcDbCircle
 10
573.999193
 20
-274.771287
 30
0.0
 40
1.0
100
AcDbArc
 50
270.945396
 51
300.0
  0
LINE
  5
19B
100
AcDbEntity
  8
0
370
    -3
390
0
  6
Continuous
100
AcDbLine
 10
571.25854
 20
-275.816648
 30
0.0
 11
574.015691
 21
-275.771151
 31
0.0
  0
ARC
  5
19C
100
AcDbEntity
  8
0
370
    -3
390
0
  6
Continuous
100
AcDbCircle
 10
232.356789
 20
-206.031466
 30
0.0
 40
11.0
100
AcDbArc
 50
122.846106
 51
151.738799
  0
LINE
  5
19D
100
AcDbEntity
  8
0
370
    -3
390
0
  6
Continuous
100
AcDbLine
 10
235.203798
 20
-195.406282
 30
0.0
 11
258.831931
 21
-201.737421
 31
0.0
  0
ARC
  5
19E
100
AcDbEntity
  8
0
370
    -3
390
0
  6
Continuous
100
AcDbCircle
 10
232.356789
 20
-206.031466
 30
0.0
 40
11.0
100
AcDbArc
 50
75.0
 51
122.846106
  0
LINE
  5
19F
100
AcDbEntity
  8
0
370
    -3
390
0
  6
Continuous
100
AcDbLine
 10
238.831931
 20
-272.011253
 30
0.0
 11
185.17528
 21
-338.271698
 31
0.0
  0
LINE
  5
1A0
100
AcDbEntity
  8
0
370
    -3
390
0
  6
Continuous
100
AcDbLine
 10
238.831931
 20
-278.367316
 30
0.0
 11
209.345987
 21
-314.779424
 31
0.0
  0
ARC
  5
1A1
100
AcDbEntity
  8
0
370
    -3
390
0
  6
Continuous
100
AcDbCircle
 10
478.099483
 20
-338.135698
 30
0.0
 40
290.0
100
AcDbArc
 50
151.738799
 51
178.305095
  0
POINT
  5
1A2
100
AcDbEntity
  8
0
370
    -3
390
0
  6
Continuous
100
AcDbPoint
 10
226.922346
 20
-193.187274
 30
0.0
  0
POINT
  5
1A3
100
AcDbEntity
  8
0
370
    -3
390
0
  6
Continuous
100
AcDbPoint
 10
182.392538
 20
-341.708099
 30
0.0
  0
LINE
  5
1A4
100
AcDbEntity
  8
0
370
    -3
390
0
  6
Continuous
100
AcDbLine
 10
183.169684
 20
-342.33742
 30
0.0
 11
183.414875
 21
-342.535972
 31
0.0
  0
LINE
  5
1A5
100
AcDbEntity
  8
0
370
    -3
390
0
  6
Continuous
100
AcDbLine
 10
185.17528
 20
-338.271698
 30
0.0
 11
183.021858
 21
-340.930953
 31
0.0
  0
LINE
  5
1A6
100
AcDbEntity
  8
0
370
    -3
390
0
  6
Continuous
100
AcDbLine
 10
183.414875
 20
-342.535972
 30
0.0
 11
185.501122
 21
-344.225381
 31
0.0
  0
LINE
  5
1A7
100
AcDbEntity
  8
0
370
    -3
390
0
  6
CENTER
100
AcDbLine
 10
185.842759
 20
-330.347678
 30
0.0
 11
193.117265
 21
-336.238457
 31
0.0
  0
ARC
  5
1A8
100
AcDbEntity
  8
0
370
    -3
390
0
  6
Continuous
100
AcDbCircle
 10
183.799004
 20
-341.560274
 30
0.0
 40
1.0
100
AcDbArc
 50
141.0
 51
231.0
  0
LINE
  5
1A9
100
AcDbEntity
  8
0
370
    -3
390
0
  6
Continuous
100
AcDbLine
 10
190.056121
 20
-338.600425
 30
0.0
 11
203.831931
 21
-342.291643
 31
0.0
  0
LINE
  5
1AA
100
AcDbEntity
  8
0
370
    -3
390
0
  6
Continuous
100
AcDbLine
 10
204.947827
 20
-320.2107
 30
0.0
 11
185.501122
 21
-344.225381
 31
0.0
  0
LINE
  5
1AB
100
AcDbEntity
  8
0
370
    -3
390
0
  6
CENTER
100
AcDbLine
 10
-447.869383
 20
-330.293481
 30
0.0
 11
-1049.39141
 21
-330.293481
 31
0.0
  0
LINE
  5
1AC
100
AcDbEntity
  8
0
370
    -3
390
0
  6
Continuous
100
AcDbLine
 10
-887.916219
 20
-195.147729
 30
0.0
 11
-827.902532
 21
-195.147729
 31
0.0
  0
ARC
  5
1AD
100
AcDbEntity
  8
0
370
    -3
390
0
  6
Continuous
100
AcDbCircle
 10
-827.902532
 20
-204.147729
 30
0.0
 40
9.0
100
AcDbArc
 50
9.449383
 51
90.0
  0
LINE
  5
1AE
100
AcDbEntity
  8
0
370
    -3
390
0
  6
Continuous
100
AcDbLine
 10
-887.916219
 20
-195.147729
 30
0.0
 11
-947.929906
 21
-195.147729
 31
0.0
  0
ARC
  5
1AF
100
AcDbEntity
  8
0
370
    -3
390
0
  6
Continuous
100
AcDbCircle
 10
-947.929906
 20
-204.147729
 30
0.0
 40
9.0
100
AcDbArc
 50
90.0
 51
170.550617
  0
ARC
  5
1B0
100
AcDbEntity
  8
0
370
    -3
390
0
  6
Continuous
100
AcDbCircle
 10
-929.773782
 20
-328.634508
 30
0.0
 40
6.0
100
AcDbArc
 50
205.298826
 51
270.0
  0
ELLIPSE
  5
1B1
100
AcDbEntity
  8
0
370
    -3
390
0
  6
Continuous
100
AcDbEllipse
 10
-945.416219
 20
-334.634508
 30
0.0
 11
11.0
 21
0.0
 31
0.0
210
0.0
220
0.0
230
1.0
 40
0.843458
 41
0.3793675677192439
 42
1.5707963267948966
  0
LINE
  5
1B2
100
AcDbEntity
  8
0
370
    -3
390
0
  6
Continuous
100
AcDbLine
 10
-887.916219
 20
-334.634508
 30
0.0
 11
-929.773782
 21
-334.634508
 31
0.0
  0
ARC
  5
1B3
100
AcDbEntity
  8
0
370
    -3
390
0
  6
Continuous
100
AcDbCircle
 10
-846.058656
 20
-328.634508
 30
0.0
 40
6.0
100
AcDbArc
 50
270.0
 51
334.701174
  0
ELLIPSE
  5
1B4
100
AcDbEntity
  8
0
370
    -3
390
0
  6
Continuous
100
AcDbEllipse
 10
-830.416219
 20
-334.634508
 30
0.0
 11
11.0
 21
0.0
 31
0.0
210
0.0
220
0.0
230
1.0
 40
0.843458
 41
1.5707963267948966
 42
2.7622250858705493
  0
LINE
  5
1B5
100
AcDbEntity
  8
0
370
    -3
390
0
  6
Continuous
100
AcDbLine
 10
-887.916219
 20
-334.634508
 30
0.0
 11
-846.058656
 21
-334.634508
 31
0.0
  0
LINE
  5
1B6
100
AcDbEntity
  8
0
370
    -3
390
0
  6
Continuous
100
AcDbLine
 10
-943.719166
 20
-330.389118
 30
0.0
 11
-947.113272
 21
-333.783236
 31
0.0
  0
LINE
  5
1B7
100
AcDbEntity
  8
0
370
    -3
390
0
  6
Continuous
100
AcDbLine
 10
-947.113277
 20
-330.389123
 30
0.0
 11
-943.719161
 21
-333.783231
 31
0.0
  0
POINT
  5
1B8
100
AcDbEntity
  8
0
370
    -3
390
0
  6
Continuous
100
AcDbPoint
 10
-945.416219
 20
-332.086177
 30
0.0
  0
ELLIPSE
  5
1B9
100
AcDbEntity
  8
0
370
    -3
390
0
  6
Continuous
100
AcDbEllipse
 10
-945.416219
 20
-332.086177
 30
0.0
 11
4.5
 21
0.0
 31
0.0
210
0.0
220
0.0
230
1.0
 40
0.727273
 41
0.0
 42
6.2831853071795862
  0
LINE
  5
1BA
100
AcDbEntity
  8
0
370
    -3
390
0
  6
CENTER
100
AcDbLine
 10
-940.696162
 20
-332.086177
 30
0.0
 11
-950.323528
 21
-332.086177
 31
0.0
  0
LINE
  5
1BB
100
AcDbEntity
  8
0
370
    -3
390
0
  6
CENTER
100
AcDbLine
 10
-945.416219
 20
-327.920315
 30
0.0
 11
-945.416219
 21
-336.537131
 31
0.0
  0
LINE
  5
1BC
100
AcDbEntity
  8
0
370
    -3
390
0
  6
Continuous
100
AcDbLine
 10
-832.113272
 20
-330.389118
 30
0.0
 11
-828.719166
 21
-333.783236
 31
0.0
  0
LINE
  5
1BD
100
AcDbEntity
  8
0
370
    -3
390
0
  6
Continuous
100
AcDbLine
 10
-828.719161
 20
-330.389123
 30
0.0
 11
-832.113277
 21
-333.783231
 31
0.0
  0
POINT
  5
1BE
100
AcDbEntity
  8
0
370
    -3
390
0
  6
Continuous
100
AcDbPoint
 10
-830.416219
 20
-332.086177
 30
0.0
  0
ELLIPSE
  5
1BF
100
AcDbEntity
  8
0
370
    -3
390
0
  6
Continuous
100
AcDbEllipse
 10
-830.416219
 20
-332.086177
 30
0.0
 11
4.5
 21
0.0
 31
0.0
210
0.0
220
0.0
230
1.0
 40
0.727273
 41
0.0
 42
6.2831853071795862
  0
LINE
  5
1C0
100
AcDbEntity
  8
0
370
    -3
390
0
  6
CENTER
100
AcDbLine
 10
-835.136276
 20
-332.086177
 30
0.0
 11
-825.50891
 21
-332.086177
 31
0.0
  0
LINE
  5
1C1
100
AcDbEntity
  8
0
370
    -3
390
0
  6
CENTER
100
AcDbLine
 10
-830.416219
 20
-327.920315
 30
0.0
 11
-830.416219
 21
-336.537131
 31
0.0
  0
LINE
  5
1C2
100
AcDbEntity
  8
0
370
    -3
390
0
  6
CENTER
100
AcDbLine
 10
-910.006431
 20
-348.463564
 30
0.0
 11
-866.48805
 21
-348.463564
 31
0.0
  0
ELLIPSE
  5
1C3
100
AcDbEntity
  8
0
370
    -3
390
0
  6
Continuous
100
AcDbEllipse
 10
-887.916219
 20
-348.463564
 30
0.0
 11
17.5
 21
0.0
 31
0.0
210
0.0
220
0.0
230
1.0
 40
0.34202
 41
2.289994865616805
 42
0.8515977879729881
  0
LINE
  5
1C4
100
AcDbEntity
  8
0
370
    -3
390
0
  6
Continuous
100
AcDbLine
 10
-887.916219
 20
-357.703936
 30
0.0
 11
-925.642754
 21
-357.703936
 31
0.0
  0
ARC
  5
1C5
100
AcDbEntity
  8
0
370
    -3
390
0
  6
Continuous
100
AcDbCircle
 10
-925.642754
 20
-348.703936
 30
0.0
 40
9.0
100
AcDbArc
 50
230.025496
 51
270.0
  0
ARC
  5
1C6
100
AcDbEntity
  8
0
370
    -3
390
0
  6
Continuous
100
AcDbCircle
 10
-850.189684
 20
-348.703936
 30
0.0
 40
9.0
100
AcDbArc
 50
270.0
 51
309.974504
  0
LINE
  5
1C7
100
AcDbEntity
  8
0
370
    -3
390
0
  6
Continuous
100
AcDbLine
 10
-887.916219
 20
-357.703936
 30
0.0
 11
-850.189684
 21
-357.703936
 31
0.0
  0
LINE
  5
1C8
100
AcDbEntity
  8
0
370
    -3
390
0
  6
Continuous
100
AcDbLine
 10
-830.522716
 20
-343.96058
 30
0.0
 11
-844.407664
 21
-355.600909
 31
0.0
  0
LINE
  5
1C9
100
AcDbEntity
  8
0
370
    -3
390
0
  6
Continuous
100
AcDbLine
 10
-945.309722
 20
-343.96058
 30
0.0
 11
-931.424774
 21
-355.600909
 31
0.0
  0
LINE
  5
1CA
100
AcDbEntity
  8
0
370
    -3
390
0
  6
Continuous
100
AcDbLine
 10
-830.416219
 20
-325.356471
 30
0.0
 11
-825.585883
 21
-325.356471
 31
0.0
  0
ARC
  5
1CB
100
AcDbEntity
  8
0
370
    -3
390
0
  6
Continuous
100
AcDbCircle
 10
-1161.316219
 20
-259.63929
 30
0.0
 40
347.0
100
AcDbArc
 50
349.914143
 51
9.449383
  0
ARC
  5
1CC
100
AcDbEntity
  8
0
370
    -3
390
0
  6
Continuous
100
AcDbCircle
 10
-825.585883
 20
-319.356471
 30
0.0
 40
6.0
100
AcDbArc
 50
270.0
 51
349.914143
  0
ARC
  5
1CD
100
AcDbEntity
  8
0
370
    -3
390
0
  6
Continuous
100
AcDbCircle
 10
-614.516219
 20
-259.63929
 30
0.0
 40
347.0
100
AcDbArc
 50
170.550617
 51
190.085857
  0
LINE
  5
1CE
100
AcDbEntity
  8
0
370
    -3
390
0
  6
Continuous
100
AcDbLine
 10
-945.416219
 20
-325.356471
 30
0.0
 11
-950.246555
 21
-325.356471
 31
0.0
  0
ARC
  5
1CF
100
AcDbEntity
  8
0
370
    -3
390
0
  6
Continuous
100
AcDbCircle
 10
-950.246555
 20
-319.356471
 30
0.0
 40
6.0
100
AcDbArc
 50
190.085857
 51
270.0
  0
ARC
  5
1D0
100
AcDbEntity
  8
0
370
    -3
390
0
  6
Continuous
100
AcDbCircle
 10
-951.136629
 20
-222.063106
 30
0.0
 40
12.0
100
AcDbArc
 50
126.572176
 51
174.579766
  0
ARC
  5
1D1
100
AcDbEntity
  8
0
370
    -3
390
0
  6
Continuous
100
AcDbCircle
 10
-824.695809
 20
-222.063106
 30
0.0
 40
12.0
100
AcDbArc
 50
5.420234
 51
53.427824
  0
LINE
  5
1D2
100
AcDbEntity
  8
0
370
    -3
390
0
  6
Continuous
100
AcDbLine
 10
-887.916219
 20
-343.96058
 30
0.0
 11
-829.538706
 21
-343.96058
 31
0.0
  0
ARC
  5
1D3
100
AcDbEntity
  8
0
370
    -3
390
0
  6
Continuous
100
AcDbCircle
 10
-1220.916219
 20
-259.658143
 30
0.0
 40
410.0
100
AcDbArc
 50
349.533278
 51
5.420234
  0
ARC
  5
1D4
100
AcDbEntity
  8
0
370
    -3
390
0
  6
Continuous
100
AcDbCircle
 10
-829.538706
 20
-331.96058
 30
0.0
 40
12.0
100
AcDbArc
 50
270.0
 51
349.533278
  0
ARC
  5
1D5
100
AcDbEntity
  8
0
370
    -3
390
0
  6
Continuous
100
AcDbCircle
 10
-554.916219
 20
-259.658143
 30
0.0
 40
410.0
100
AcDbArc
 50
174.579766
 51
190.466722
  0
LINE
  5
1D6
100
AcDbEntity
  8
0
370
    -3
390
0
  6
Continuous
100
AcDbLine
 10
-887.916219
 20
-343.96058
 30
0.0
 11
-946.293732
 21
-343.96058
 31
0.0
  0
ARC
  5
1D7
100
AcDbEntity
  8
0
370
    -3
390
0
  6
Continuous
100
AcDbCircle
 10
-946.293732
 20
-331.96058
 30
0.0
 40
12.0
100
AcDbArc
 50
190.466722
 51
270.0
  0
LINE
  5
1D8
100
AcDbEntity
  8
0
370
    -3
390
0
  6
Continuous
100
AcDbLine
 10
-887.916219
 20
-341.181946
 30
0.0
 11
-829.035573
 21
-341.181946
 31
0.0
  0
ARC
  5
1D9
100
AcDbEntity
  8
0
370
    -3
390
0
  6
Continuous
100
AcDbCircle
 10
-829.035573
 20
-329.181946
 30
0.0
 40
12.0
100
AcDbArc
 50
270.0
 51
349.939793
  0
LINE
  5
1DA
100
AcDbEntity
  8
0
370
    -3
390
0
  6
Continuous
100
AcDbLine
 10
-887.916219
 20
-341.181946
 30
0.0
 11
-946.796865
 21
-341.181946
 31
0.0
  0
ARC
  5
1DB
100
AcDbEntity
  8
0
370
    -3
390
0
  6
Continuous
100
AcDbCircle
 10
-946.796865
 20
-329.181946
 30
0.0
 40
12.0
100
AcDbArc
 50
190.060207
 51
270.0
  0
POINT
  5
1DC
100
AcDbEntity
  8
0
370
    -3
390
0
  6
Continuous
100
AcDbPoint
 10
-905.416219
 20
-348.463564
 30
0.0
  0
LINE
  5
1DD
100
AcDbEntity
  8
0
370
    -3
390
0
  6
Continuous
100
AcDbLine
 10
-492.916219
 20
-330.293481
 30
0.0
 11
-492.916219
 21
-431.362912
 31
0.0
  0
LINE
  5
1DE
100
AcDbEntity
  8
0
370
    -3
390
0
  6
Continuous
100
AcDbLine
 10
-390.416219
 20
-43.293481
 30
0.0
 11
-390.899552
 21
-43.293481
 31
0.0
  0
LINE
  5
1DF
100
AcDbEntity
  8
0
370
    -3
390
0
  6
Continuous
100
AcDbLine
 10
-391.166219
 20
-45.293481
 30
0.0
 11
-406.416219
 21
-45.293481
 31
0.0
  0
LINE
  5
1E0
100
AcDbEntity
  8
0
370
    -3
390
0
  6
Continuous
100
AcDbLine
 10
-391.166219
 20
-45.293481
 30
0.0
 11
-391.166219
 21
-48.293481
 31
0.0
  0
ARC
  5
1E1
100
AcDbEntity
  8
0
370
    -3
390
0
  6
Continuous
100
AcDbCircle
 10
-396.916219
 20
-49.793481
 30
0.0
 40
1.5
100
AcDbArc
 50
270.0
 51
0.0
  0
ARC
  5
1E2
100
AcDbEntity
  8
0
370
    -3
390
0
  6
Continuous
100
AcDbCircle
 10
-396.916219
 20
-49.793481
 30
0.0
 40
1.5
100
AcDbArc
 50
0.0
 51
90.0
  0
LINE
  5
1E3
100
AcDbEntity
  8
0
370
    -3
390
0
  6
Continuous
100
AcDbLine
 10
-402.513264
 20
-33.293481
 30
0.0
 11
-402.513264
 21
-43.293481
 31
0.0
  0
LINE
  5
1E4
100
AcDbEntity
  8
0
370
    -3
390
0
  6
Continuous
100
AcDbLine
 10
-419.416219
 20
-45.293481
 30
0.0
 11
-419.416219
 21
-44.293481
 31
0.0
  0
LINE
  5
1E5
100
AcDbEntity
  8
0
370
    -3
390
0
  6
Continuous
100
AcDbLine
 10
-419.416219
 20
-31.293481
 30
0.0
 11
-406.416219
 21
-31.293481
 31
0.0
  0
LINE
  5
1E6
100
AcDbEntity
  8
0
370
    -3
390
0
  6
Continuous
100
AcDbLine
 10
-421.666219
 20
-48.293481
 30
0.0
 11
-406.416219
 21
-48.293481
 31
0.0
  0
LINE
  5
1E7
100
AcDbEntity
  8
0
370
    -3
390
0
  6
CENTER
100
AcDbLine
 10
-406.416219
 20
-26.823372
 30
0.0
 11
-406.416219
 21
-65.191805
 31
0.0
  0
LINE
  5
1E8
100
AcDbEntity
  8
0
370
    -3
390
0
  6
Continuous
100
AcDbLine
 10
-422.416219
 20
-33.293481
 30
0.0
 11
-406.416219
 21
-33.293481
 31
0.0
  0
LINE
  5
1E9
100
AcDbEntity
  8
0
370
    -3
390
0
  6
Continuous
100
AcDbLine
 10
-419.416219
 20
-31.293481
 30
0.0
 11
-420.916219
 21
-33.293481
 31
0.0
  0
LINE
  5
1EA
100
AcDbEntity
  8
0
370
    -3
390
0
  6
Continuous
100
AcDbLine
 10
-390.416219
 20
-33.293481
 30
0.0
 11
-406.416219
 21
-33.293481
 31
0.0
  0
LINE
  5
1EB
100
AcDbEntity
  8
0
370
    -3
390
0
  6
Continuous
100
AcDbLine
 10
-422.416219
 20
-44.293481
 30
0.0
 11
-422.416219
 21
-33.293481
 31
0.0
  0
LINE
  5
1EC
100
AcDbEntity
  8
0
370
    -3
390
0
  6
Continuous
100
AcDbLine
 10
-393.416219
 20
-31.293481
 30
0.0
 11
-391.916219
 21
-33.293481
 31
0.0
  0
LINE
  5
1ED
100
AcDbEntity
  8
0
370
    -3
390
0
  6
Continuous
100
AcDbLine
 10
-422.416219
 20
-44.293481
 30
0.0
 11
-406.416219
 21
-44.293481
 31
0.0
  0
LINE
  5
1EE
100
AcDbEntity
  8
0
370
    -3
390
0
  6
Continuous
100
AcDbLine
 10
-390.416219
 20
-44.293481
 30
0.0
 11
-390.416219
 21
-33.293481
 31
0.0
  0
LINE
  5
1EF
100
AcDbEntity
  8
0
370
    -3
390
0
  6
Continuous
100
AcDbLine
 10
-410.319174
 20
-43.293481
 30
0.0
 11
-406.416219
 21
-43.293481
 31
0.0
  0
LINE
  5
1F0
100
AcDbEntity
  8
0
370
    -3
390
0
  6
Continuous
100
AcDbLine
 10
-420.147965
 20
-43.293481
 30
0.0
 11
-414.628353
 21
-43.293481
 31
0.0
  0
LINE
  5
1F1
100
AcDbEntity
  8
0
370
    -3
390
0
  6
Continuous
100
AcDbLine
 10
-419.416219
 20
-31.293481
 30
0.0
 11
-420.916219
 21
-33.293481
 31
0.0
  0
LINE
  5
1F2
100
AcDbEntity
  8
0
370
    -3
390
0
  6
Continuous
100
AcDbLine
 10
-390.416219
 20
-44.293481
 30
0.0
 11
-406.416219
 21
-44.293481
 31
0.0
  0
LINE
  5
1F3
100
AcDbEntity
  8
0
370
    -3
390
0
  6
Continuous
100
AcDbLine
 10
-422.416219
 20
-44.293481
 30
0.0
 11
-422.416219
 21
-33.293481
 31
0.0
  0
LINE
  5
1F4
100
AcDbEntity
  8
0
370
    -3
390
0
  6
Continuous
100
AcDbLine
 10
-393.416219
 20
-31.293481
 30
0.0
 11
-391.916219
 21
-33.293481
 31
0.0
  0
LINE
  5
1F5
100
AcDbEntity
  8
0
370
    -3
390
0
  6
Continuous
100
AcDbLine
 10
-422.416219
 20
-43.293481
 30
0.0
 11
-421.932886
 21
-43.293481
 31
0.0
  0
LINE
  5
1F6
100
AcDbEntity
  8
0
370
    -3
390
0
  6
Continuous
100
AcDbLine
 10
-390.416219
 20
-44.293481
 30
0.0
 11
-390.416219
 21
-33.293481
 31
0.0
  0
LINE
  5
1F7
100
AcDbEntity
  8
0
370
    -3
390
0
  6
Continuous
100
AcDbLine
 10
-421.666219
 20
-45.293481
 30
0.0
 11
-406.416219
 21
-45.293481
 31
0.0
  0
LINE
  5
1F8
100
AcDbEntity
  8
0
370
    -3
390
0
  6
Continuous
100
AcDbLine
 10
-421.666219
 20
-45.293481
 30
0.0
 11
-421.666219
 21
-48.293481
 31
0.0
  0
ARC
  5
1F9
100
AcDbEntity
  8
0
370
    -3
390
0
  6
Continuous
100
AcDbCircle
 10
-415.916219
 20
-49.793481
 30
0.0
 40
1.5
100
AcDbArc
 50
180.0
 51
270.0
  0
ARC
  5
1FA
100
AcDbEntity
  8
0
370
    -3
390
0
  6
Continuous
100
AcDbCircle
 10
-415.916219
 20
-49.793481
 30
0.0
 40
1.5
100
AcDbArc
 50
90.0
 51
180.0
  0
LINE
  5
1FB
100
AcDbEntity
  8
0
370
    -3
390
0
  6
Continuous
100
AcDbLine
 10
-410.319174
 20
-33.293481
 30
0.0
 11
-410.319174
 21
-43.293481
 31
0.0
  0
LINE
  5
1FC
100
AcDbEntity
  8
0
370
    -3
390
0
  6
Continuous
100
AcDbLine
 10
-398.204084
 20
-33.293481
 30
0.0
 11
-398.204084
 21
-43.293481
 31
0.0
  0
LINE
  5
1FD
100
AcDbEntity
  8
0
370
    -3
390
0
  6
Continuous
100
AcDbLine
 10
-414.628353
 20
-33.293481
 30
0.0
 11
-414.628353
 21
-43.293481
 31
0.0
  0
LINE
  5
1FE
100
AcDbEntity
  8
0
370
    -3
390
0
  6
Continuous
100
AcDbLine
 10
-392.684473
 20
-33.293481
 30
0.0
 11
-392.684473
 21
-43.293481
 31
0.0
  0
LINE
  5
1FF
100
AcDbEntity
  8
0
370
    -3
390
0
  6
Continuous
100
AcDbLine
 10
-420.147965
 20
-33.293481
 30
0.0
 11
-420.147965
 21
-43.293481
 31
0.0
  0
LINE
  5
200
100
AcDbEntity
  8
0
370
    -3
390
0
  6
Continuous
100
AcDbLine
 10
-421.932886
 20
-33.293481
 30
0.0
 11
-421.932886
 21
-43.293481
 31
0.0
  0
LINE
  5
201
100
AcDbEntity
  8
0
370
    -3
390
0
  6
Continuous
100
AcDbLine
 10
-390.899552
 20
-33.293481
 30
0.0
 11
-390.899552
 21
-43.293481
 31
0.0
  0
LINE
  5
202
100
AcDbEntity
  8
0
370
    -3
390
0
  6
Continuous
100
AcDbLine
 10
-402.513264
 20
-43.293481
 30
0.0
 11
-406.416219
 21
-43.293481
 31
0.0
  0
LINE
  5
203
100
AcDbEntity
  8
0
370
    -3
390
0
  6
Continuous
100
AcDbLine
 10
-393.416219
 20
-45.293481
 30
0.0
 11
-393.416219
 21
-44.293481
 31
0.0
  0
LINE
  5
204
100
AcDbEntity
  8
0
370
    -3
390
0
  6
Continuous
100
AcDbLine
 10
-393.416219
 20
-31.293481
 30
0.0
 11
-406.416219
 21
-31.293481
 31
0.0
  0
LINE
  5
205
100
AcDbEntity
  8
0
370
    -3
390
0
  6
Continuous
100
AcDbLine
 10
-391.166219
 20
-48.293481
 30
0.0
 11
-406.416219
 21
-48.293481
 31
0.0
  0
LINE
  5
206
100
AcDbEntity
  8
0
370
    -3
390
0
  6
Continuous
100
AcDbLine
 10
-392.684473
 20
-43.293481
 30
0.0
 11
-398.204084
 21
-43.293481
 31
0.0
  0
LINE
  5
207
100
AcDbEntity
  8
0
370
    -3
390
0
  6
Continuous
100
AcDbLine
 10
-552.416219
 20
-531.293481
 30
0.0
 11
-682.416219
 21
-531.293481
 31
0.0
  0
ARC
  5
208
100
AcDbEntity
  8
0
370
    -3
390
0
  6
Continuous
100
AcDbCircle
 10
-547.416219
 20
-531.293481
 30
0.0
 40
5.0
100
AcDbArc
 50
90.0
 51
180.0
  0
ARC
  5
209
100
AcDbEntity
  8
0
370
    -3
390
0
  6
Continuous
100
AcDbCircle
 10
-347.416219
 20
-531.293481
 30
0.0
 40
5.0
100
AcDbArc
 50
0.0
 51
90.0
  0
LINE
  5
20A
100
AcDbEntity
  8
0
370
    -3
390
0
  6
Continuous
100
AcDbLine
 10
-347.416219
 20
-526.293481
 30
0.0
 11
-547.416219
 21
-526.293481
 31
0.0
  0
ARC
  5
20B
100
AcDbEntity
  8
0
370
    -3
390
0
  6
Continuous
100
AcDbCircle
 10
-271.039897
 20
-70.648369
 30
0.0
 40
8.0
100
AcDbArc
 50
29.573854
 51
88.281642
  0
LINE
  5
20C
100
AcDbEntity
  8
0
370
    -3
390
0
  6
Continuous
100
AcDbLine
 10
-264.082135
 20
-66.700009
 30
0.0
 11
-226.425859
 21
-133.057533
 31
0.0
  0
ARC
  5
20D
100
AcDbEntity
  8
0
370
    -3
390
0
  6
Continuous
100
AcDbCircle
 10
-615.204765
 20
-476.459359
 30
0.0
 40
12.0
100
AcDbArc
 50
270.710242
 51
295.525081
  0
ARC
  5
20E
100
AcDbEntity
  8
0
370
    -3
390
0
  6
Continuous
100
AcDbCircle
 10
-452.416219
 20
-398.725716
 30
0.0
 40
12.0
100
AcDbArc
 50
295.525081
 51
0.0
  0
LINE
  5
20F
100
AcDbEntity
  8
0
370
    -3
390
0
  6
Continuous
100
AcDbLine
 10
-448.245345
 20
-409.554477
 30
0.0
 11
-611.033891
 21
-487.28812
 31
0.0
  0
ARC
  5
210
100
AcDbEntity
  8
0
370
    -3
390
0
  6
Continuous
100
AcDbCircle
 10
-243.416219
 20
-252.458409
 30
0.0
 40
20.0
100
AcDbArc
 50
180.0
 51
260.0
  0
LINE
  5
211
100
AcDbEntity
  8
0
370
    -3
390
0
  6
Continuous
100
AcDbLine
 10
-263.416219
 20
-252.458409
 30
0.0
 11
-263.416219
 21
-123.297668
 31
0.0
  0
LINE
  5
212
100
AcDbEntity
  8
0
370
    -3
390
0
  6
Continuous
100
AcDbLine
 10
-223.416219
 20
-301.293481
 30
0.0
 11
-223.416219
 21
-161.293481
 31
0.0
  0
ARC
  5
213
100
AcDbEntity
  8
0
370
    -3
390
0
  6
Continuous
100
AcDbCircle
 10
-231.416219
 20
-283.006278
 30
0.0
 40
8.0
100
AcDbArc
 50
0.0
 51
80.0
  0
LINE
  5
214
100
AcDbEntity
  8
0
370
    -3
390
0
  6
Continuous
100
AcDbLine
 10
-246.889182
 20
-272.154564
 30
0.0
 11
-230.027034
 21
-275.127816
 31
0.0
  0
ARC
  5
215
100
AcDbEntity
  8
0
370
    -3
390
0
  6
Continuous
100
AcDbCircle
 10
-443.416219
 20
-288.293481
 30
0.0
 40
3.0
100
AcDbArc
 50
0.0
 51
90.0
  0
ARC
  5
216
100
AcDbEntity
  8
0
370
    -3
390
0
  6
Continuous
100
AcDbCircle
 10
-432.416219
 20
-312.293481
 30
0.0
 40
8.0
100
AcDbArc
 50
180.0
 51
270.0
  0
ARC
  5
217
100
AcDbEntity
  8
0
370
    -3
390
0
  6
Continuous
100
AcDbCircle
 10
-432.416219
 20
-328.293481
 30
0.0
 40
8.0
100
AcDbArc
 50
90.0
 51
180.0
  0
ARC
  5
218
100
AcDbEntity
  8
0
370
    -3
390
0
  6
Continuous
100
AcDbCircle
 10
-330.416219
 20
-328.293481
 30
0.0
 40
8.0
100
AcDbArc
 50
0.0
 51
90.0
  0
ARC
  5
219
100
AcDbEntity
  8
0
370
    -3
390
0
  6
Continuous
100
AcDbCircle
 10
-330.416219
 20
-312.293481
 30
0.0
 40
8.0
100
AcDbArc
 50
270.0
 51
0.0
  0
LINE
  5
21A
100
AcDbEntity
  8
0
370
    -3
390
0
  6
Continuous
100
AcDbLine
 10
-432.416219
 20
-320.293481
 30
0.0
 11
-330.416219
 21
-320.293481
 31
0.0
  0
ARC
  5
21B
100
AcDbEntity
  8
0
370
    -3
390
0
  6
Continuous
100
AcDbCircle
 10
-330.416219
 20
-293.293481
 30
0.0
 40
8.0
100
AcDbArc
 50
0.0
 51
90.0
  0
ARC
  5
21C
100
AcDbEntity
  8
0
370
    -3
390
0
  6
Continuous
100
AcDbCircle
 10
-330.416219
 20
-277.293481
 30
0.0
 40
8.0
100
AcDbArc
 50
270.0
 51
0.0
  0
LINE
  5
21D
100
AcDbEntity
  8
0
370
    -3
390
0
  6
Continuous
100
AcDbLine
 10
-447.3115
 20
-285.293481
 30
0.0
 11
-330.416219
 21
-285.293481
 31
0.0
  0
ARC
  5
21E
100
AcDbEntity
  8
0
370
    -3
390
0
  6
Continuous
100
AcDbCircle
 10
-328.416219
 20
-218.293481
 30
0.0
 40
6.0
100
AcDbArc
 50
0.0
 51
90.0
  0
ARC
  5
21F
100
AcDbEntity
  8
0
370
    -3
390
0
  6
Continuous
100
AcDbCircle
 10
-282.416219
 20
-446.293481
 30
0.0
 40
40.0
100
AcDbArc
 50
180.0
 51
270.0
  0
LINE
  5
220
100
AcDbEntity
  8
0
370
    -3
390
0
  6
Continuous
100
AcDbLine
 10
-322.416219
 20
-218.293481
 30
0.0
 11
-322.416219
 21
-446.293481
 31
0.0
  0
LINE
  5
221
100
AcDbEntity
  8
0
370
    -3
390
0
  6
Continuous
100
AcDbLine
 10
-446.416219
 20
-212.293481
 30
0.0
 11
-328.416219
 21
-212.293481
 31
0.0
  0
LINE
  5
222
100
AcDbEntity
  8
0
370
    -3
390
0
  6
Continuous
100
AcDbLine
 10
-233.537096
 20
-486.293481
 30
0.0
 11
-218.416219
 21
-486.293481
 31
0.0
  0
ARC
  5
223
100
AcDbEntity
  8
0
370
    -3
390
0
  6
Continuous
100
AcDbCircle
 10
-263.416219
 20
-459.699534
 30
0.0
 40
40.0
100
AcDbArc
 50
318.329283
 51
0.0
  0
ARC
  5
224
100
AcDbEntity
  8
0
370
    -3
390
0
  6
Continuous
100
AcDbCircle
 10
-271.416219
 20
-70.63708
 30
0.0
 40
8.0
100
AcDbArc
 50
0.0
 51
88.281642
  0
ARC
  5
225
100
AcDbEntity
  8
0
370
    -3
390
0
  6
Continuous
100
AcDbCircle
 10
-386.916219
 20
-57.167581
 30
0.0
 40
2.0
100
AcDbArc
 50
180.0
 51
268.281642
  0
LINE
  5
226
100
AcDbEntity
  8
0
370
    -3
390
0
  6
Continuous
100
AcDbLine
 10
-386.976192
 20
-59.166681
 30
0.0
 11
-271.176327
 21
-62.640677
 31
0.0
  0
LINE
  5
227
100
AcDbEntity
  8
0
370
    -3
390
0
  6
Continuous
100
AcDbLine
 10
-406.416219
 20
-58.583481
 30
0.0
 11
-386.976192
 21
-59.166681
 31
0.0
  0
ARC
  5
228
100
AcDbEntity
  8
0
370
    -3
390
0
  6
Continuous
100
AcDbCircle
 10
-218.416219
 20
-301.293481
 30
0.0
 40
5.0
100
AcDbArc
 50
90.0
 51
180.0
  0
LINE
  5
229
100
AcDbEntity
  8
0
370
    -3
390
0
  6
Continuous
100
AcDbLine
 10
-218.416219
 20
-296.293481
 30
0.0
 11
-216.416219
 21
-296.293481
 31
0.0
  0
LINE
  5
22A
100
AcDbEntity
  8
0
370
    -3
390
0
  6
Continuous
100
AcDbLine
 10
-223.416219
 20
-459.699534
 30
0.0
 11
-223.416219
 21
-301.293481
 31
0.0
  0
ARC
  5
22B
100
AcDbEntity
  8
0
370
    -3
390
0
  6
Continuous
100
AcDbCircle
 10
-216.416219
 20
-291.293481
 30
0.0
 40
5.0
100
AcDbArc
 50
270.0
 51
323.130102
  0
ARC
  5
22C
100
AcDbEntity
  8
0
370
    -3
390
0
  6
Continuous
100
AcDbCircle
 10
-426.543236
 20
-49.293481
 30
0.0
 40
2.0
100
AcDbArc
 50
194.477512
 51
270.0
  0
ARC
  5
22D
100
AcDbEntity
  8
0
370
    -3
390
0
  6
Continuous
100
AcDbCircle
 10
-390.916219
 20
-53.293481
 30
0.0
 40
2.0
100
AcDbArc
 50
0.0
 51
90.0
  0
LINE
  5
22E
100
AcDbEntity
  8
0
370
    -3
390
0
  6
Continuous
100
AcDbLine
 10
-388.916219
 20
-53.293481
 30
0.0
 11
-388.916219
 21
-57.167581
 31
0.0
  0
LINE
  5
22F
100
AcDbEntity
  8
0
370
    -3
390
0
  6
Continuous
100
AcDbLine
 10
-446.416219
 20
-51.293481
 30
0.0
 11
-390.916219
 21
-51.293481
 31
0.0
  0
ARC
  5
230
100
AcDbEntity
  8
0
370
    -3
390
0
  6
Continuous
100
AcDbCircle
 10
-430.416219
 20
-50.293481
 30
0.0
 40
2.0
100
AcDbArc
 50
14.477512
 51
90.0
  0
LINE
  5
231
100
AcDbEntity
  8
0
370
    -3
390
0
  6
Continuous
100
AcDbLine
 10
-446.416219
 20
-48.293481
 30
0.0
 11
-430.416219
 21
-48.293481
 31
0.0
  0
ARC
  5
232
100
AcDbEntity
  8
0
370
    -3
390
0
  6
Continuous
100
AcDbCircle
 10
-218.416219
 20
-161.293481
 30
0.0
 40
5.0
100
AcDbArc
 50
180.0
 51
270.0
  0
ARC
  5
233
100
AcDbEntity
  8
0
370
    -3
390
0
  6
Continuous
100
AcDbCircle
 10
-255.416219
 20
-123.297668
 30
0.0
 40
8.0
100
AcDbArc
 50
180.0
 51
269.97
  0
ARC
  5
234
100
AcDbEntity
  8
0
370
    -3
390
0
  6
Continuous
100
AcDbCircle
 10
-231.416219
 20
-139.310237
 30
0.0
 40
8.0
100
AcDbArc
 50
0.0
 51
89.97
  0
LINE
  5
235
100
AcDbEntity
  8
0
370
    -3
390
0
  6
Continuous
100
AcDbLine
 10
-263.416219
 20
-70.63708
 30
0.0
 11
-263.416219
 21
-123.297668
 31
0.0
  0
LINE
  5
236
100
AcDbEntity
  8
0
370
    -3
390
0
  6
Continuous
100
AcDbLine
 10
-223.416219
 20
-139.310237
 30
0.0
 11
-223.416219
 21
-161.293481
 31
0.0
  0
ARC
  5
237
100
AcDbEntity
  8
0
370
    -3
390
0
  6
Continuous
100
AcDbCircle
 10
-216.416219
 20
-171.293481
 30
0.0
 40
5.0
100
AcDbArc
 50
36.869898
 51
90.0
  0
LINE
  5
238
100
AcDbEntity
  8
0
370
    -3
390
0
  6
Continuous
100
AcDbLine
 10
-255.420408
 20
-131.297667
 30
0.0
 11
-231.41203
 21
-131.310238
 31
0.0
  0
LINE
  5
239
100
AcDbEntity
  8
0
370
    -3
390
0
  6
Continuous
100
AcDbLine
 10
-218.416219
 20
-166.293481
 30
0.0
 11
-216.416219
 21
-166.293481
 31
0.0
  0
ARC
  5
23A
100
AcDbEntity
  8
0
370
    -3
390
0
  6
Continuous
100
AcDbCircle
 10
-676.416219
 20
-495.219562
 30
0.0
 40
6.0
100
AcDbArc
 50
90.710242
 51
180.0
  0
LINE
  5
23B
100
AcDbEntity
  8
0
370
    -3
390
0
  6
Continuous
100
AcDbLine
 10
-676.490593
 20
-489.220022
 30
0.0
 11
-615.056016
 21
-488.458437
 31
0.0
  0
LINE
  5
23C
100
AcDbEntity
  8
0
370
    -3
390
0
  6
Continuous
100
AcDbLine
 10
-440.416219
 20
-288.293481
 30
0.0
 11
-440.416219
 21
-398.725716
 31
0.0
  0
LINE
  5
23D
100
AcDbEntity
  8
0
370
    -3
390
0
  6
Continuous
100
AcDbLine
 10
-682.416219
 20
-495.219562
 30
0.0
 11
-682.416219
 21
-531.293481
 31
0.0
  0
ARC
  5
23E
100
AcDbEntity
  8
0
370
    -3
390
0
  6
Continuous
100
AcDbCircle
 10
-218.416219
 20
-492.293481
 30
0.0
 40
6.0
100
AcDbArc
 50
0.0
 51
90.0
  0
LINE
  5
23F
100
AcDbEntity
  8
0
370
    -3
390
0
  6
Continuous
100
AcDbLine
 10
-282.416219
 20
-486.293481
 30
0.0
 11
-233.537096
 21
-486.293481
 31
0.0
  0
LINE
  5
240
100
AcDbEntity
  8
0
370
    -3
390
0
  6
Continuous
100
AcDbLine
 10
-212.416219
 20
-492.293481
 30
0.0
 11
-212.416219
 21
-531.293481
 31
0.0
  0
LINE
  5
241
100
AcDbEntity
  8
0
370
    -3
390
0
  6
CENTER
100
AcDbLine
 10
-296.147694
 20
-231.293481
 30
0.0
 11
-64.802509
 21
-231.293481
 31
0.0
  0
LINE
  5
242
100
AcDbEntity
  8
0
370
    -3
390
0
  6
Continuous
100
AcDbLine
 10
-446.416219
 20
-48.293481
 30
0.0
 11
-446.416219
 21
-409.118021
 31
0.0
  0
LINE
  5
243
100
AcDbEntity
  8
0
370
    -3
390
0
  6
Continuous
100
AcDbLine
 10
-212.416219
 20
-168.293481
 30
0.0
 11
-212.416219
 21
-231.293481
 31
0.0
  0
LINE
  5
244
100
AcDbEntity
  8
0
370
    -3
390
0
  6
Continuous
100
AcDbLine
 10
-212.416219
 20
-294.293481
 30
0.0
 11
-212.416219
 21
-231.293481
 31
0.0
  0
LINE
  5
245
100
AcDbEntity
  8
0
370
    -3
390
0
  6
Continuous
100
AcDbLine
 10
-428.416219
 20
-60.361783
 30
0.0
 11
-428.416219
 21
-137.546826
 31
0.0
  0
LINE
  5
246
100
AcDbEntity
  8
0
370
    -3
390
0
  6
Continuous
100
AcDbLine
 10
-409.416219
 20
-137.546826
 30
0.0
 11
-446.416219
 21
-137.546826
 31
0.0
  0
LINE
  5
247
100
AcDbEntity
  8
0
370
    -3
390
0
  6
Continuous
100
AcDbLine
 10
-409.416219
 20
-166.28906
 30
0.0
 11
-446.416219
 21
-166.28906
 31
0.0
  0
LINE
  5
248
100
AcDbEntity
  8
0
370
    -3
390
0
  6
Continuous
100
AcDbLine
 10
-428.416219
 20
-166.28906
 30
0.0
 11
-428.416219
 21
-212.293481
 31
0.0
  0
LINE
  5
249
100
AcDbEntity
  8
0
370
    -3
390
0
  6
Continuous
100
AcDbLine
 10
-286.416219
 20
-372.293481
 30
0.0
 11
-322.416219
 21
-372.293481
 31
0.0
  0
LINE
  5
24A
100
AcDbEntity
  8
0
370
    -3
390
0
  6
Continuous
100
AcDbLine
 10
-286.416219
 20
-412.293481
 30
0.0
 11
-322.416219
 21
-412.293481
 31
0.0
  0
ARC
  5
24B
100
AcDbEntity
  8
0
370
    -3
390
0
  6
Continuous
100
AcDbCircle
 10
-286.416219
 20
-392.293481
 30
0.0
 40
20.0
100
AcDbArc
 50
270.0
 51
90.0
  0
LINE
  5
24C
100
AcDbEntity
  8
0
370
    -3
390
0
  6
Continuous
100
AcDbLine
 10
-406.416219
 20
-140.546826
 30
0.0
 11
-406.416219
 21
-163.28906
 31
0.0
  0
ARC
  5
24D
100
AcDbEntity
  8
0
370
    -3
390
0
  6
Continuous
100
AcDbCircle
 10
-409.416219
 20
-140.546826
 30
0.0
 40
3.0
100
AcDbArc
 50
0.0
 51
90.0
  0
ARC
  5
24E
100
AcDbEntity
  8
0
370
    -3
390
0
  6
Continuous
100
AcDbCircle
 10
-409.416219
 20
-163.28906
 30
0.0
 40
3.0
100
AcDbArc
 50
270.0
 51
0.0
  0
LINE
  5
24F
100
AcDbEntity
  8
0
370
    -3
390
0
  6
Continuous
100
AcDbLine
 10
-409.416219
 20
-60.361783
 30
0.0
 11
-446.416219
 21
-60.361783
 31
0.0
  0
LINE
  5
250
100
AcDbEntity
  8
0
370
    -3
390
0
  6
Continuous
100
AcDbLine
 10
-446.416219
 20
-51.293481
 30
0.0
 11
-409.416219
 21
-51.293481
 31
0.0
  0
LINE
  5
251
100
AcDbEntity
  8
0
370
    -3
390
0
  6
Continuous
100
AcDbLine
 10
-406.416219
 20
-57.361783
 30
0.0
 11
-406.416219
 21
-54.293481
 31
0.0
  0
ARC
  5
252
100
AcDbEntity
  8
0
370
    -3
390
0
  6
Continuous
100
AcDbCircle
 10
-409.416219
 20
-54.293481
 30
0.0
 40
3.0
100
AcDbArc
 50
0.0
 51
90.0
  0
ARC
  5
253
100
AcDbEntity
  8
0
370
    -3
390
0
  6
Continuous
100
AcDbCircle
 10
-409.416219
 20
-57.361783
 30
0.0
 40
3.0
100
AcDbArc
 50
270.0
 51
0.0
  0
LINE
  5
254
100
AcDbEntity
  8
0
370
    -3
390
0
  6
CENTER
100
AcDbLine
 10
-647.416219
 20
-477.202078
 30
0.0
 11
-647.416219
 21
-545.941438
 31
0.0
  0
LINE
  5
255
100
AcDbEntity
  8
0
370
    -3
390
0
  6
CENTER
100
AcDbLine
 10
-247.416219
 20
-477.9035
 30
0.0
 11
-247.416219
 21
-548.747126
 31
0.0
  0
CIRCLE
  5
256
100
AcDbEntity
  8
0
370
    -3
390
0
  6
Continuous
100
AcDbCircle
 10
-286.416394
 20
-392.293507
 30
0.0
 40
15.0
  0
LINE
  5
257
100
AcDbEntity
  8
0
370
    -3
390
0
  6
Continuous
100
AcDbLine
 10
-212.416219
 20
-531.293481
 30
0.0
 11
-342.416219
 21
-531.293481
 31
0.0
  0
CIRCLE
  5
258
100
AcDbEntity
  8
0
370
    -3
390
0
  6
Continuous
100
AcDbCircle
 10
-398.416219
 20
-491.293481
 30
0.0
 40
12.5
  0
LINE
  5
259
100
AcDbEntity
  8
0
370
    -3
390
0
  6
CENTER
100
AcDbLine
 10
-286.416219
 20
-367.293481
 30
0.0
 11
-286.416219
 21
-417.293481
 31
0.0
  0
LINE
  5
25A
100
AcDbEntity
  8
0
370
    -3
390
0
  6
CENTER
100
AcDbLine
 10
-261.416219
 20
-392.293481
 30
0.0
 11
-311.416219
 21
-392.293481
 31
0.0
  0
LINE
  5
25B
100
AcDbEntity
  8
0
370
    -3
390
0
  6
CENTER
100
AcDbLine
 10
-398.416219
 20
-473.793481
 30
0.0
 11
-398.416219
 21
-508.793481
 31
0.0
  0
LINE
  5
25C
100
AcDbEntity
  8
0
370
    -3
390
0
  6
CENTER
100
AcDbLine
 10
-380.916219
 20
-491.293481
 30
0.0
 11
-415.916219
 21
-491.293481
 31
0.0
  0
LINE
  5
25D
100
AcDbEntity
  8
0
370
    -3
390
0
  6
Continuous
100
AcDbLine
 10
-446.416219
 20
-161.293481
 30
0.0
 11
-446.416219
 21
-301.293481
 31
0.0
  0
LINE
  5
25E
100
AcDbEntity
  8
0
370
    -3
390
0
  6
Continuous
100
AcDbLine
 10
-77.416219
 20
-186.293481
 30
0.0
 11
-77.416219
 21
-271.293481
 31
0.0
  0
LINE
  5
25F
100
AcDbEntity
  8
0
370
    -3
390
0
  6
Continuous
100
AcDbLine
 10
-207.416219
 20
-191.293481
 30
0.0
 11
-77.416219
 21
-191.293481
 31
0.0
  0
LINE
  5
260
100
AcDbEntity
  8
0
370
    -3
390
0
  6
Continuous
100
AcDbLine
 10
-207.416219
 20
-271.293481
 30
0.0
 11
-77.416219
 21
-271.293481
 31
0.0
  0
LINE
  5
261
100
AcDbEntity
  8
0
370
    -3
390
0
  6
Continuous
100
AcDbLine
 10
-207.416219
 20
-188.793481
 30
0.0
 11
-207.416219
 21
-273.793481
 31
0.0
  0
LINE
  5
262
100
AcDbEntity
  8
0
370
    -3
390
0
  6
Continuous
100
AcDbLine
 10
-212.416219
 20
-188.793481
 30
0.0
 11
-207.416219
 21
-188.793481
 31
0.0
  0
LINE
  5
263
100
AcDbEntity
  8
0
370
    -3
390
0
  6
Continuous
100
AcDbLine
 10
-212.416219
 20
-273.793481
 30
0.0
 11
-207.416219
 21
-273.793481
 31
0.0
  0
LINE
  5
264
100
AcDbEntity
  8
0
370
    -3
390
0
  6
Continuous
100
AcDbLine
 10
-168.416219
 20
-186.293481
 30
0.0
 11
-77.416219
 21
-186.293481
 31
0.0
  0
LINE
  5
265
100
AcDbEntity
  8
0
370
    -3
390
0
  6
Continuous
100
AcDbLine
 10
-168.416219
 20
-186.293481
 30
0.0
 11
-168.416219
 21
-191.293481
 31
0.0
  0
ARC
  5
266
100
AcDbEntity
  8
0
370
    -3
390
0
  6
Continuous
100
AcDbCircle
 10
-492.916219
 20
-417.789091
 30
0.0
 40
3.0
100
AcDbArc
 50
270.0
 51
0.0
  0
LINE
  5
267
100
AcDbEntity
  8
0
370
    -3
390
0
  6
Continuous
100
AcDbLine
 10
-489.916219
 20
-384.427599
 30
0.0
 11
-489.916219
 21
-417.789091
 31
0.0
  0
ARC
  5
268
100
AcDbEntity
  8
0
370
    -3
390
0
  6
Continuous
100
AcDbCircle
 10
-473.416219
 20
-282.227714
 30
0.0
 40
3.0
100
AcDbArc
 50
109.471221
 51
180.0
  0
LINE
  5
269
100
AcDbEntity
  8
0
370
    -3
390
0
  6
CENTER
100
AcDbLine
 10
-497.610439
 20
-373.293481
 30
0.0
 11
-451.653349
 21
-373.293481
 31
0.0
  0
LINE
  5
26A
100
AcDbEntity
  8
0
370
    -3
390
0
  6
CENTER
100
AcDbLine
 10
-497.610439
 20
-266.293481
 30
0.0
 11
-451.653349
 21
-266.293481
 31
0.0
  0
LINE
  5
26B
100
AcDbEntity
  8
0
370
    -3
390
0
  6
CENTER
100
AcDbLine
 10
-497.610439
 20
-68.293481
 30
0.0
 11
-451.653349
 21
-68.293481
 31
0.0
  0
LINE
  5
26C
100
AcDbEntity
  8
0
370
    -3
390
0
  6
Continuous
100
AcDbLine
 10
-470.492437
 20
-80.846558
 30
0.0
 11
-484.384185
 21
-141.293481
 31
0.0
  0
LINE
  5
26D
100
AcDbEntity
  8
0
370
    -3
390
0
  6
Continuous
100
AcDbLine
 10
-492.916219
 20
-152.689618
 30
0.0
 11
-490.416189
 21
-152.689618
 31
0.0
  0
LINE
  5
26E
100
AcDbEntity
  8
0
370
    -3
390
0
  6
CENTER
100
AcDbLine
 10
-497.610439
 20
-153.293481
 30
0.0
 11
-451.653349
 21
-153.293481
 31
0.0
  0
ARC
  5
26F
100
AcDbEntity
  8
0
370
    -3
390
0
  6
Continuous
100
AcDbCircle
 10
-465.916219
 20
-54.865154
 30
0.0
 40
3.0
100
AcDbArc
 50
288.553005
 51
0.0
  0
ARC
  5
270
100
AcDbEntity
  8
0
370
    -3
390
0
  6
Continuous
100
AcDbCircle
 10
-459.916219
 20
-51.293481
 30
0.0
 40
3.0
100
AcDbArc
 50
90.0
 51
180.0
  0
ARC
  5
271
100
AcDbEntity
  8
0
370
    -3
390
0
  6
Continuous
100
AcDbCircle
 10
-462.416219
 20
-65.293481
 30
0.0
 40
8.0
100
AcDbArc
 50
108.553005
 51
180.0
  0
LINE
  5
272
100
AcDbEntity
  8
0
370
    -3
390
0
  6
Continuous
100
AcDbLine
 10
-462.916219
 20
-51.293481
 30
0.0
 11
-462.916219
 21
-143.785861
 31
0.0
  0
ARC
  5
273
100
AcDbEntity
  8
0
370
    -3
390
0
  6
Continuous
100
AcDbCircle
 10
-467.416219
 20
-54.293481
 30
0.0
 40
3.0
100
AcDbArc
 50
90.0
 51
180.0
  0
LINE
  5
274
100
AcDbEntity
  8
0
370
    -3
390
0
  6
Continuous
100
AcDbLine
 10
-470.416219
 20
-54.293481
 30
0.0
 11
-470.416219
 21
-330.293481
 31
0.0
  0
LINE
  5
275
100
AcDbEntity
  8
0
370
    -3
390
0
  6
Continuous
100
AcDbLine
 10
-467.416219
 20
-51.293481
 30
0.0
 11
-462.916219
 21
-51.293481
 31
0.0
  0
LINE
  5
276
100
AcDbEntity
  8
0
370
    -3
390
0
  6
Continuous
100
AcDbLine
 10
-492.916219
 20
-152.689618
 30
0.0
 11
-492.916219
 21
-330.293481
 31
0.0
  0
ARC
  5
277
100
AcDbEntity
  8
0
370
    -3
390
0
  6
Continuous
100
AcDbCircle
 10
-473.416219
 20
-80.174623
 30
0.0
 40
3.0
100
AcDbArc
 50
347.057178
 51
0.0
  0
LINE
  5
278
100
AcDbEntity
  8
0
370
    -3
390
0
  6
Continuous
100
AcDbLine
 10
-470.416219
 20
-149.785861
 30
0.0
 11
-468.916219
 21
-149.785861
 31
0.0
  0
ARC
  5
279
100
AcDbEntity
  8
0
370
    -3
390
0
  6
Continuous
100
AcDbCircle
 10
-468.916219
 20
-143.785861
 30
0.0
 40
6.0
100
AcDbArc
 50
270.0
 51
0.0
  0
LINE
  5
27A
100
AcDbEntity
  8
0
370
    -3
390
0
  6
Continuous
100
AcDbLine
 10
-492.916219
 20
-311.293481
 30
0.0
 11
-470.416219
 21
-311.293481
 31
0.0
  0
LINE
  5
27B
100
AcDbEntity
  8
0
370
    -3
390
0
  6
Continuous
100
AcDbLine
 10
-489.916219
 20
-392.879315
 30
0.0
 11
-470.416219
 21
-392.879315
 31
0.0
  0
ARC
  5
27C
100
AcDbEntity
  8
0
370
    -3
390
0
  6
Continuous
100
AcDbCircle
 10
-486.916219
 20
-392.173909
 30
0.0
 40
3.0
100
AcDbArc
 50
180.0
 51
206.463782
  0
LINE
  5
27D
100
AcDbEntity
  8
0
370
    -3
390
0
  6
Continuous
100
AcDbLine
 10
-476.416219
 20
-282.227714
 30
0.0
 11
-476.416219
 21
-308.293481
 31
0.0
  0
ARC
  5
27E
100
AcDbEntity
  8
0
370
    -3
390
0
  6
Continuous
100
AcDbCircle
 10
-479.416219
 20
-308.293481
 30
0.0
 40
3.0
100
AcDbArc
 50
270.0
 51
0.0
  0
LINE
  5
27F
100
AcDbEntity
  8
0
370
    -3
390
0
  6
Continuous
100
AcDbLine
 10
-459.916219
 20
-48.293481
 30
0.0
 11
-446.416219
 21
-48.293481
 31
0.0
  0
LINE
  5
280
100
AcDbEntity
  8
0
370
    -3
390
0
  6
Continuous
100
AcDbLine
 10
-446.916219
 20
-48.293481
 30
0.0
 11
-446.916219
 21
-409.397315
 31
0.0
  0
LINE
  5
281
100
AcDbEntity
  8
0
370
    -3
390
0
  6
Continuous
100
AcDbLine
 10
-470.416219
 20
-330.293481
 30
0.0
 11
-470.416219
 21
-420.61887
 31
0.0
  0
LINE
  5
282
100
AcDbEntity
  8
0
370
    -3
390
0
  6
Continuous
100
AcDbLine
 10
-489.601868
 20
-393.510805
 30
0.0
 11
-475.014622
 21
-422.814667
 31
0.0
  0
ARC
  5
283
100
AcDbEntity
  8
0
370
    -3
390
0
  6
Continuous
100
AcDbCircle
 10
-649.416219
 20
-472.029055
 30
0.0
 40
1.0
100
AcDbArc
 50
180.0
 51
270.0
  0
LINE
  5
284
100
AcDbEntity
  8
0
370
    -3
390
0
  6
Continuous
100
AcDbLine
 10
-650.416219
 20
-472.029055
 30
0.0
 11
-650.416219
 21
-469.246665
 31
0.0
  0
LINE
  5
285
100
AcDbEntity
  8
0
370
    -3
390
0
  6
Continuous
100
AcDbLine
 10
-622.916219
 20
-473.029055
 30
0.0
 11
-649.416219
 21
-473.029055
 31
0.0
  0
LINE
  5
286
100
AcDbEntity
  8
0
370
    -3
390
0
  6
Continuous
100
AcDbLine
 10
-782.916219
 20
-341.807143
 30
0.0
 11
-669.916219
 21
-341.807143
 31
0.0
  0
LINE
  5
287
100
AcDbEntity
  8
0
370
    -3
390
0
  6
Continuous
100
AcDbLine
 10
-805.916219
 20
-341.807143
 30
0.0
 11
-782.916219
 21
-341.807143
 31
0.0
  0
LINE
  5
288
100
AcDbEntity
  8
0
370
    -3
390
0
  6
Continuous
100
AcDbLine
 10
-782.916219
 20
-339.512067
 30
0.0
 11
-669.916219
 21
-339.512067
 31
0.0
  0
LINE
  5
289
100
AcDbEntity
  8
0
370
    -3
390
0
  6
Continuous
100
AcDbLine
 10
-805.916219
 20
-339.512067
 30
0.0
 11
-782.916219
 21
-339.512067
 31
0.0
  0
ARC
  5
28A
100
AcDbEntity
  8
0
370
    -3
390
0
  6
Continuous
100
AcDbCircle
 10
-649.416219
 20
-197.477017
 30
0.0
 40
1.0
100
AcDbArc
 50
180.0
 51
270.0
  0
ARC
  5
28B
100
AcDbEntity
  8
0
370
    -3
390
0
  6
Continuous
100
AcDbCircle
 10
-624.416219
 20
-221.833295
 30
0.0
 40
0.5
100
AcDbArc
 50
270.0
 51
0.0
  0
ARC
  5
28C
100
AcDbEntity
  8
0
370
    -3
390
0
  6
Continuous
100
AcDbCircle
 10
-623.416219
 20
-201.598337
 30
0.0
 40
0.5
100
AcDbArc
 50
135.0
 51
180.0
  0
LINE
  5
28D
100
AcDbEntity
  8
0
370
    -3
390
0
  6
Continuous
100
AcDbLine
 10
-623.916219
 20
-221.833295
 30
0.0
 11
-623.916219
 21
-201.598337
 31
0.0
  0
ARC
  5
28E
100
AcDbEntity
  8
0
370
    -3
390
0
  6
Continuous
100
AcDbCircle
 10
-647.416219
 20
-221.833295
 30
0.0
 40
0.5
100
AcDbArc
 50
180.0
 51
270.0
  0
ARC
  5
28F
100
AcDbEntity
  8
0
370
    -3
390
0
  6
Continuous
100
AcDbCircle
 10
-649.416219
 20
-188.249095
 30
0.0
 40
1.0
100
AcDbArc
 50
90.0
 51
180.0
  0
LINE
  5
290
100
AcDbEntity
  8
0
370
    -3
390
0
  6
Continuous
100
AcDbLine
 10
-650.416219
 20
-198.477017
 30
0.0
 11
-650.416219
 21
-188.249095
 31
0.0
  0
ARC
  5
291
100
AcDbEntity
  8
0
370
    -3
390
0
  6
Continuous
100
AcDbCircle
 10
-649.416219
 20
-198.477017
 30
0.0
 40
1.0
100
AcDbArc
 50
180.0
 51
225.0
  0
LINE
  5
292
100
AcDbEntity
  8
0
370
    -3
390
0
  6
Continuous
100
AcDbLine
 10
-648.062667
 20
-201.244785
 30
0.0
 11
-650.123327
 21
-199.184125
 31
0.0
  0
ARC
  5
293
100
AcDbEntity
  8
0
370
    -3
390
0
  6
Continuous
100
AcDbCircle
 10
-648.416219
 20
-201.598337
 30
0.0
 40
0.5
100
AcDbArc
 50
0.0
 51
45.0
  0
LINE
  5
294
100
AcDbEntity
  8
0
370
    -3
390
0
  6
Continuous
100
AcDbLine
 10
-647.916219
 20
-221.833295
 30
0.0
 11
-647.916219
 21
-201.598337
 31
0.0
  0
LINE
  5
295
100
AcDbEntity
  8
0
370
    -3
390
0
  6
Continuous
100
AcDbLine
 10
-624.416219
 20
-222.333295
 30
0.0
 11
-647.416219
 21
-222.333295
 31
0.0
  0
ARC
  5
296
100
AcDbEntity
  8
0
370
    -3
390
0
  6
Continuous
100
AcDbCircle
 10
-649.416219
 20
-197.477017
 30
0.0
 40
1.0
100
AcDbArc
 50
180.0
 51
270.0
  0
LINE
  5
297
100
AcDbEntity
  8
0
370
    -3
390
0
  6
Continuous
100
AcDbLine
 10
-649.416219
 20
-198.477017
 30
0.0
 11
-622.916219
 21
-198.477017
 31
0.0
  0
ARC
  5
298
100
AcDbEntity
  8
0
370
    -3
390
0
  6
Continuous
100
AcDbCircle
 10
-624.416219
 20
-221.833295
 30
0.0
 40
0.5
100
AcDbArc
 50
270.0
 51
0.0
  0
LINE
  5
299
100
AcDbEntity
  8
0
370
    -3
390
0
  6
Continuous
100
AcDbLine
 10
-623.769773
 20
-201.244785
 30
0.0
 11
-622.916219
 21
-200.391231
 31
0.0
  0
ARC
  5
29A
100
AcDbEntity
  8
0
370
    -3
390
0
  6
Continuous
100
AcDbCircle
 10
-623.416219
 20
-201.598337
 30
0.0
 40
0.5
100
AcDbArc
 50
135.0
 51
180.0
  0
LINE
  5
29B
100
AcDbEntity
  8
0
370
    -3
390
0
  6
Continuous
100
AcDbLine
 10
-623.916219
 20
-221.833295
 30
0.0
 11
-623.916219
 21
-201.598337
 31
0.0
  0
ARC
  5
29C
100
AcDbEntity
  8
0
370
    -3
390
0
  6
Continuous
100
AcDbCircle
 10
-647.416219
 20
-221.833295
 30
0.0
 40
0.5
100
AcDbArc
 50
180.0
 51
270.0
  0
LINE
  5
29D
100
AcDbEntity
  8
0
370
    -3
390
0
  6
Continuous
100
AcDbLine
 10
-649.416219
 20
-187.249095
 30
0.0
 11
-622.916219
 21
-187.249095
 31
0.0
  0
ARC
  5
29E
100
AcDbEntity
  8
0
370
    -3
390
0
  6
Continuous
100
AcDbCircle
 10
-649.416219
 20
-188.249095
 30
0.0
 40
1.0
100
AcDbArc
 50
90.0
 51
180.0
  0
LINE
  5
29F
100
AcDbEntity
  8
0
370
    -3
390
0
  6
Continuous
100
AcDbLine
 10
-650.416219
 20
-198.477017
 30
0.0
 11
-650.416219
 21
-188.249095
 31
0.0
  0
ARC
  5
2A0
100
AcDbEntity
  8
0
370
    -3
390
0
  6
Continuous
100
AcDbCircle
 10
-649.416219
 20
-198.477017
 30
0.0
 40
1.0
100
AcDbArc
 50
180.0
 51
225.0
  0
LINE
  5
2A1
100
AcDbEntity
  8
0
370
    -3
390
0
  6
Continuous
100
AcDbLine
 10
-648.062667
 20
-201.244785
 30
0.0
 11
-650.123327
 21
-199.184125
 31
0.0
  0
ARC
  5
2A2
100
AcDbEntity
  8
0
370
    -3
390
0
  6
Continuous
100
AcDbCircle
 10
-648.416219
 20
-201.598337
 30
0.0
 40
0.5
100
AcDbArc
 50
0.0
 51
45.0
  0
LINE
  5
2A3
100
AcDbEntity
  8
0
370
    -3
390
0
  6
Continuous
100
AcDbLine
 10
-647.916219
 20
-221.833295
 30
0.0
 11
-647.916219
 21
-201.598337
 31
0.0
  0
LINE
  5
2A4
100
AcDbEntity
  8
0
370
    -3
390
0
  6
Continuous
100
AcDbLine
 10
-624.416219
 20
-222.333295
 30
0.0
 11
-647.416219
 21
-222.333295
 31
0.0
  0
LINE
  5
2A5
100
AcDbEntity
  8
0
370
    -3
390
0
  6
Continuous
100
AcDbLine
 10
-682.916219
 20
-198.293481
 30
0.0
 11
-650.416219
 21
-198.293481
 31
0.0
  0
LINE
  5
2A6
100
AcDbEntity
  8
0
370
    -3
390
0
  6
Continuous
100
AcDbLine
 10
-850.916219
 20
-180.732393
 30
0.0
 11
-877.41524
 21
-195.147729
 31
0.0
  0
LINE
  5
2A7
100
AcDbEntity
  8
0
370
    -3
390
0
  6
Continuous
100
AcDbLine
 10
-714.916219
 20
-180.732393
 30
0.0
 11
-682.916219
 21
-198.140235
 31
0.0
  0
LINE
  5
2A8
100
AcDbEntity
  8
0
370
    -3
390
0
  6
Continuous
100
AcDbLine
 10
-850.916219
 20
-181.509601
 30
0.0
 11
-875.986536
 21
-195.147729
 31
0.0
  0
LINE
  5
2A9
100
AcDbEntity
  8
0
370
    -3
390
0
  6
Continuous
100
AcDbLine
 10
-714.916219
 20
-181.509601
 30
0.0
 11
-682.916219
 21
-198.917443
 31
0.0
  0
LINE
  5
2AA
100
AcDbEntity
  8
0
370
    -3
390
0
  6
Continuous
100
AcDbLine
 10
-850.916219
 20
-181.509601
 30
0.0
 11
-850.916219
 21
-180.732393
 31
0.0
  0
LINE
  5
2AB
100
AcDbEntity
  8
0
370
    -3
390
0
  6
Continuous
100
AcDbLine
 10
-714.916219
 20
-181.509601
 30
0.0
 11
-714.916219
 21
-180.732393
 31
0.0
  0
LINE
  5
2AC
100
AcDbEntity
  8
0
370
    -3
390
0
  6
Continuous
100
AcDbLine
 10
-682.916219
 20
-198.140235
 30
0.0
 11
-682.916219
 21
-204.758815
 31
0.0
  0
LINE
  5
2AD
100
AcDbEntity
  8
0
370
    -3
390
0
  6
Continuous
100
AcDbLine
 10
-850.916219
 20
-181.509601
 30
0.0
 11
-714.916219
 21
-181.509601
 31
0.0
  0
LINE
  5
2AE
100
AcDbEntity
  8
0
370
    -3
390
0
  6
Continuous
100
AcDbLine
 10
-850.916219
 20
-180.732393
 30
0.0
 11
-714.916219
 21
-180.732393
 31
0.0
  0
LINE
  5
2AF
100
AcDbEntity
  8
0
370
    -3
390
0
  6
Continuous
100
AcDbLine
 10
-683.553983
 20
-212.942331
 30
0.0
 11
-682.916219
 21
-212.942331
 31
0.0
  0
LINE
  5
2B0
100
AcDbEntity
  8
0
370
    -3
390
0
  6
Continuous
100
AcDbLine
 10
-850.916219
 20
-188.242419
 30
0.0
 11
-864.295042
 21
-195.147729
 31
0.0
  0
LINE
  5
2B1
100
AcDbEntity
  8
0
370
    -3
390
0
  6
Continuous
100
AcDbLine
 10
-714.916219
 20
-188.242419
 30
0.0
 11
-682.916219
 21
-204.758815
 31
0.0
  0
LINE
  5
2B2
100
AcDbEntity
  8
0
370
    -3
390
0
  6
Continuous
100
AcDbLine
 10
-714.916219
 20
-189.277645
 30
0.0
 11
-682.916219
 21
-205.794043
 31
0.0
  0
LINE
  5
2B3
100
AcDbEntity
  8
0
370
    -3
390
0
  6
Continuous
100
AcDbLine
 10
-850.916219
 20
-189.277645
 30
0.0
 11
-862.289323
 21
-195.147729
 31
0.0
  0
LINE
  5
2B4
100
AcDbEntity
  8
0
370
    -3
390
0
  6
Continuous
100
AcDbLine
 10
-682.916219
 20
-204.758815
 30
0.0
 11
-682.916219
 21
-212.942331
 31
0.0
  0
LINE
  5
2B5
100
AcDbEntity
  8
0
370
    -3
390
0
  6
Continuous
100
AcDbLine
 10
-850.916219
 20
-188.242419
 30
0.0
 11
-850.916219
 21
-189.277645
 31
0.0
  0
LINE
  5
2B6
100
AcDbEntity
  8
0
370
    -3
390
0
  6
Continuous
100
AcDbLine
 10
-714.916219
 20
-188.242419
 30
0.0
 11
-714.916219
 21
-189.277645
 31
0.0
  0
LINE
  5
2B7
100
AcDbEntity
  8
0
370
    -3
390
0
  6
Continuous
100
AcDbLine
 10
-850.916219
 20
-189.277645
 30
0.0
 11
-714.916219
 21
-189.277645
 31
0.0
  0
LINE
  5
2B8
100
AcDbEntity
  8
0
370
    -3
390
0
  6
Continuous
100
AcDbLine
 10
-850.916219
 20
-188.242419
 30
0.0
 11
-714.916219
 21
-188.242419
 31
0.0
  0
LINE
  5
2B9
100
AcDbEntity
  8
0
370
    -3
390
0
  6
Continuous
100
AcDbLine
 10
-690.038631
 20
-221.182547
 30
0.0
 11
-682.916219
 21
-221.182547
 31
0.0
  0
LINE
  5
2BA
100
AcDbEntity
  8
0
370
    -3
390
0
  6
Continuous
100
AcDbLine
 10
-714.916219
 20
-197.870099
 30
0.0
 11
-682.916219
 21
-213.248829
 31
0.0
  0
LINE
  5
2BB
100
AcDbEntity
  8
0
370
    -3
390
0
  6
Continuous
100
AcDbLine
 10
-714.916219
 20
-199.147911
 30
0.0
 11
-682.916219
 21
-214.526641
 31
0.0
  0
LINE
  5
2BC
100
AcDbEntity
  8
0
370
    -3
390
0
  6
Continuous
100
AcDbLine
 10
-714.916219
 20
-197.870099
 30
0.0
 11
-714.916219
 21
-199.147911
 31
0.0
  0
LINE
  5
2BD
100
AcDbEntity
  8
0
370
    -3
390
0
  6
Continuous
100
AcDbLine
 10
-682.916219
 20
-221.182547
 30
0.0
 11
-682.916219
 21
-213.248829
 31
0.0
  0
LINE
  5
2BE
100
AcDbEntity
  8
0
370
    -3
390
0
  6
Continuous
100
AcDbLine
 10
-820.419096
 20
-199.147911
 30
0.0
 11
-714.916219
 21
-199.147911
 31
0.0
  0
LINE
  5
2BF
100
AcDbEntity
  8
0
370
    -3
390
0
  6
Continuous
100
AcDbLine
 10
-821.453396
 20
-197.870099
 30
0.0
 11
-714.916219
 21
-197.870099
 31
0.0
  0
LINE
  5
2C0
100
AcDbEntity
  8
0
370
    -3
390
0
  6
Continuous
100
AcDbLine
 10
-714.916219
 20
-210.371751
 30
0.0
 11
-682.916219
 21
-224.277661
 31
0.0
  0
LINE
  5
2C1
100
AcDbEntity
  8
0
370
    -3
390
0
  6
Continuous
100
AcDbLine
 10
-714.916219
 20
-211.888247
 30
0.0
 11
-684.915623
 21
-224.925295
 31
0.0
  0
LINE
  5
2C2
100
AcDbEntity
  8
0
370
    -3
390
0
  6
Continuous
100
AcDbLine
 10
-817.831562
 20
-210.371751
 30
0.0
 11
-714.916219
 21
-210.371751
 31
0.0
  0
LINE
  5
2C3
100
AcDbEntity
  8
0
370
    -3
390
0
  6
Continuous
100
AcDbLine
 10
-817.617459
 20
-211.888247
 30
0.0
 11
-714.916219
 21
-211.888247
 31
0.0
  0
LINE
  5
2C4
100
AcDbEntity
  8
0
370
    -3
390
0
  6
Continuous
100
AcDbLine
 10
-714.916219
 20
-211.888247
 30
0.0
 11
-714.916219
 21
-210.371751
 31
0.0
  0
LINE
  5
2C5
100
AcDbEntity
  8
0
370
    -3
390
0
  6
Continuous
100
AcDbLine
 10
-682.916219
 20
-224.925295
 30
0.0
 11
-682.916219
 21
-224.277661
 31
0.0
  0
LINE
  5
2C6
100
AcDbEntity
  8
0
370
    -3
390
0
  6
Continuous
100
AcDbLine
 10
-895.916219
 20
-479.854569
 30
0.0
 11
-908.916219
 21
-472.782633
 31
0.0
  0
LINE
  5
2C7
100
AcDbEntity
  8
0
370
    -3
390
0
  6
Continuous
100
AcDbLine
 10
-895.916219
 20
-479.077361
 30
0.0
 11
-908.916219
 21
-472.005425
 31
0.0
  0
LINE
  5
2C8
100
AcDbEntity
  8
0
370
    -3
390
0
  6
Continuous
100
AcDbLine
 10
-895.916219
 20
-479.077361
 30
0.0
 11
-895.916219
 21
-479.854569
 31
0.0
  0
LINE
  5
2C9
100
AcDbEntity
  8
0
370
    -3
390
0
  6
Continuous
100
AcDbLine
 10
-669.916219
 20
-479.854569
 30
0.0
 11
-637.916219
 21
-462.446727
 31
0.0
  0
LINE
  5
2CA
100
AcDbEntity
  8
0
370
    -3
390
0
  6
Continuous
100
AcDbLine
 10
-669.916219
 20
-479.077361
 30
0.0
 11
-637.916219
 21
-461.669519
 31
0.0
  0
LINE
  5
2CB
100
AcDbEntity
  8
0
370
    -3
390
0
  6
Continuous
100
AcDbLine
 10
-669.916219
 20
-479.077361
 30
0.0
 11
-669.916219
 21
-479.854569
 31
0.0
  0
LINE
  5
2CC
100
AcDbEntity
  8
0
370
    -3
390
0
  6
Continuous
100
AcDbLine
 10
-637.916219
 20
-455.828147
 30
0.0
 11
-637.916219
 21
-462.446727
 31
0.0
  0
LINE
  5
2CD
100
AcDbEntity
  8
0
370
    -3
390
0
  6
Continuous
100
AcDbLine
 10
-895.916219
 20
-479.854569
 30
0.0
 11
-669.916219
 21
-479.854569
 31
0.0
  0
LINE
  5
2CE
100
AcDbEntity
  8
0
370
    -3
390
0
  6
Continuous
100
AcDbLine
 10
-895.916219
 20
-479.077361
 30
0.0
 11
-669.916219
 21
-479.077361
 31
0.0
  0
LINE
  5
2CF
100
AcDbEntity
  8
0
370
    -3
390
0
  6
Continuous
100
AcDbLine
 10
-895.916219
 20
-472.344543
 30
0.0
 11
-908.916219
 21
-465.634757
 31
0.0
  0
LINE
  5
2D0
100
AcDbEntity
  8
0
370
    -3
390
0
  6
Continuous
100
AcDbLine
 10
-895.916219
 20
-471.309317
 30
0.0
 11
-908.916219
 21
-464.599531
 31
0.0
  0
LINE
  5
2D1
100
AcDbEntity
  8
0
370
    -3
390
0
  6
Continuous
100
AcDbLine
 10
-638.553983
 20
-447.644631
 30
0.0
 11
-637.916219
 21
-447.644631
 31
0.0
  0
LINE
  5
2D2
100
AcDbEntity
  8
0
370
    -3
390
0
  6
Continuous
100
AcDbLine
 10
-669.916219
 20
-472.344543
 30
0.0
 11
-637.916219
 21
-455.828147
 31
0.0
  0
LINE
  5
2D3
100
AcDbEntity
  8
0
370
    -3
390
0
  6
Continuous
100
AcDbLine
 10
-669.916219
 20
-471.309317
 30
0.0
 11
-637.916219
 21
-454.792921
 31
0.0
  0
LINE
  5
2D4
100
AcDbEntity
  8
0
370
    -3
390
0
  6
Continuous
100
AcDbLine
 10
-637.916219
 20
-447.644631
 30
0.0
 11
-637.916219
 21
-455.828147
 31
0.0
  0
LINE
  5
2D5
100
AcDbEntity
  8
0
370
    -3
390
0
  6
Continuous
100
AcDbLine
 10
-895.916219
 20
-471.309317
 30
0.0
 11
-895.916219
 21
-472.344543
 31
0.0
  0
LINE
  5
2D6
100
AcDbEntity
  8
0
370
    -3
390
0
  6
Continuous
100
AcDbLine
 10
-669.916219
 20
-471.309317
 30
0.0
 11
-669.916219
 21
-472.344543
 31
0.0
  0
LINE
  5
2D7
100
AcDbEntity
  8
0
370
    -3
390
0
  6
Continuous
100
AcDbLine
 10
-895.916219
 20
-472.344543
 30
0.0
 11
-669.916219
 21
-472.344543
 31
0.0
  0
LINE
  5
2D8
100
AcDbEntity
  8
0
370
    -3
390
0
  6
Continuous
100
AcDbLine
 10
-895.916219
 20
-471.309317
 30
0.0
 11
-669.916219
 21
-471.309317
 31
0.0
  0
LINE
  5
2D9
100
AcDbEntity
  8
0
370
    -3
390
0
  6
Continuous
100
AcDbLine
 10
-645.038631
 20
-439.404415
 30
0.0
 11
-637.916219
 21
-439.404415
 31
0.0
  0
LINE
  5
2DA
100
AcDbEntity
  8
0
370
    -3
390
0
  6
Continuous
100
AcDbLine
 10
-895.916219
 20
-462.716863
 30
0.0
 11
-908.916219
 21
-456.469254
 31
0.0
  0
LINE
  5
2DB
100
AcDbEntity
  8
0
370
    -3
390
0
  6
Continuous
100
AcDbLine
 10
-895.916219
 20
-461.439051
 30
0.0
 11
-908.916219
 21
-455.191442
 31
0.0
  0
LINE
  5
2DC
100
AcDbEntity
  8
0
370
    -3
390
0
  6
Continuous
100
AcDbLine
 10
-669.916219
 20
-462.716863
 30
0.0
 11
-637.916219
 21
-447.338133
 31
0.0
  0
LINE
  5
2DD
100
AcDbEntity
  8
0
370
    -3
390
0
  6
Continuous
100
AcDbLine
 10
-669.916219
 20
-461.439051
 30
0.0
 11
-637.916219
 21
-446.060321
 31
0.0
  0
LINE
  5
2DE
100
AcDbEntity
  8
0
370
    -3
390
0
  6
Continuous
100
AcDbLine
 10
-669.916219
 20
-461.439051
 30
0.0
 11
-669.916219
 21
-462.716863
 31
0.0
  0
LINE
  5
2DF
100
AcDbEntity
  8
0
370
    -3
390
0
  6
Continuous
100
AcDbLine
 10
-895.916219
 20
-461.439051
 30
0.0
 11
-895.916219
 21
-462.716863
 31
0.0
  0
LINE
  5
2E0
100
AcDbEntity
  8
0
370
    -3
390
0
  6
Continuous
100
AcDbLine
 10
-637.916219
 20
-439.404415
 30
0.0
 11
-637.916219
 21
-447.338133
 31
0.0
  0
LINE
  5
2E1
100
AcDbEntity
  8
0
370
    -3
390
0
  6
Continuous
100
AcDbLine
 10
-895.916219
 20
-462.716863
 30
0.0
 11
-669.916219
 21
-462.716863
 31
0.0
  0
LINE
  5
2E2
100
AcDbEntity
  8
0
370
    -3
390
0
  6
Continuous
100
AcDbLine
 10
-895.916219
 20
-461.439051
 30
0.0
 11
-669.916219
 21
-461.439051
 31
0.0
  0
LINE
  5
2E3
100
AcDbEntity
  8
0
370
    -3
390
0
  6
Continuous
100
AcDbLine
 10
-696.843915
 20
-428.774335
 30
0.0
 11
-637.916219
 21
-428.774335
 31
0.0
  0
LINE
  5
2E4
100
AcDbEntity
  8
0
370
    -3
390
0
  6
Continuous
100
AcDbLine
 10
-895.916219
 20
-450.215211
 30
0.0
 11
-908.916219
 21
-444.565935
 31
0.0
  0
LINE
  5
2E5
100
AcDbEntity
  8
0
370
    -3
390
0
  6
Continuous
100
AcDbLine
 10
-669.916219
 20
-450.215211
 30
0.0
 11
-637.916219
 21
-436.309301
 31
0.0
  0
LINE
  5
2E6
100
AcDbEntity
  8
0
370
    -3
390
0
  6
Continuous
100
AcDbLine
 10
-895.916219
 20
-448.698717
 30
0.0
 11
-908.916219
 21
-443.049441
 31
0.0
  0
LINE
  5
2E7
100
AcDbEntity
  8
0
370
    -3
390
0
  6
Continuous
100
AcDbLine
 10
-669.916219
 20
-448.698717
 30
0.0
 11
-637.916219
 21
-434.792807
 31
0.0
  0
LINE
  5
2E8
100
AcDbEntity
  8
0
370
    -3
390
0
  6
Continuous
100
AcDbLine
 10
-669.916219
 20
-448.698717
 30
0.0
 11
-669.916219
 21
-450.215211
 31
0.0
  0
LINE
  5
2E9
100
AcDbEntity
  8
0
370
    -3
390
0
  6
Continuous
100
AcDbLine
 10
-895.916219
 20
-448.698717
 30
0.0
 11
-895.916219
 21
-450.215211
 31
0.0
  0
LINE
  5
2EA
100
AcDbEntity
  8
0
370
    -3
390
0
  6
Continuous
100
AcDbLine
 10
-637.916219
 20
-428.774335
 30
0.0
 11
-637.916219
 21
-436.309301
 31
0.0
  0
LINE
  5
2EB
100
AcDbEntity
  8
0
370
    -3
390
0
  6
Continuous
100
AcDbLine
 10
-895.916219
 20
-450.215211
 30
0.0
 11
-669.916219
 21
-450.215211
 31
0.0
  0
LINE
  5
2EC
100
AcDbEntity
  8
0
370
    -3
390
0
  6
Continuous
100
AcDbLine
 10
-895.916219
 20
-448.698717
 30
0.0
 11
-669.916219
 21
-448.698717
 31
0.0
  0
LINE
  5
2ED
100
AcDbEntity
  8
0
370
    -3
390
0
  6
Continuous
100
AcDbLine
 10
-908.916219
 20
-428.774335
 30
0.0
 11
-868.988525
 21
-428.774335
 31
0.0
  0
LINE
  5
2EE
100
AcDbEntity
  8
0
370
    -3
390
0
  6
Continuous
100
AcDbLine
 10
-850.916219
 20
-435.661667
 30
0.0
 11
-882.916219
 21
-423.466511
 31
0.0
  0
LINE
  5
2EF
100
AcDbEntity
  8
0
370
    -3
390
0
  6
Continuous
100
AcDbLine
 10
-714.916219
 20
-435.661667
 30
0.0
 11
-682.916219
 21
-423.466511
 31
0.0
  0
LINE
  5
2F0
100
AcDbEntity
  8
0
370
    -3
390
0
  6
Continuous
100
AcDbLine
 10
-706.053339
 20
-416.459223
 30
0.0
 11
-682.916219
 21
-416.459223
 31
0.0
  0
LINE
  5
2F1
100
AcDbEntity
  8
0
370
    -3
390
0
  6
Continuous
100
AcDbLine
 10
-850.916219
 20
-433.932435
 30
0.0
 11
-882.916219
 21
-421.737279
 31
0.0
  0
LINE
  5
2F2
100
AcDbEntity
  8
0
370
    -3
390
0
  6
Continuous
100
AcDbLine
 10
-714.916219
 20
-433.932435
 30
0.0
 11
-682.916219
 21
-421.737279
 31
0.0
  0
LINE
  5
2F3
100
AcDbEntity
  8
0
370
    -3
390
0
  6
Continuous
100
AcDbLine
 10
-714.916219
 20
-433.932435
 30
0.0
 11
-714.916219
 21
-435.661667
 31
0.0
  0
LINE
  5
2F4
100
AcDbEntity
  8
0
370
    -3
390
0
  6
Continuous
100
AcDbLine
 10
-850.916219
 20
-433.932435
 30
0.0
 11
-850.916219
 21
-435.661667
 31
0.0
  0
LINE
  5
2F5
100
AcDbEntity
  8
0
370
    -3
390
0
  6
Continuous
100
AcDbLine
 10
-882.916219
 20
-416.459223
 30
0.0
 11
-882.916219
 21
-423.466511
 31
0.0
  0
LINE
  5
2F6
100
AcDbEntity
  8
0
370
    -3
390
0
  6
Continuous
100
AcDbLine
 10
-682.916219
 20
-416.459223
 30
0.0
 11
-682.916219
 21
-423.466511
 31
0.0
  0
LINE
  5
2F7
100
AcDbEntity
  8
0
370
    -3
390
0
  6
Continuous
100
AcDbLine
 10
-850.916219
 20
-435.661667
 30
0.0
 11
-714.916219
 21
-435.661667
 31
0.0
  0
LINE
  5
2F8
100
AcDbEntity
  8
0
370
    -3
390
0
  6
Continuous
100
AcDbLine
 10
-850.916219
 20
-433.932435
 30
0.0
 11
-714.916219
 21
-433.932435
 31
0.0
  0
LINE
  5
2F9
100
AcDbEntity
  8
0
370
    -3
390
0
  6
Continuous
100
AcDbLine
 10
-882.916219
 20
-416.459223
 30
0.0
 11
-859.779101
 21
-416.459223
 31
0.0
  0
LINE
  5
2FA
100
AcDbEntity
  8
0
370
    -3
390
0
  6
Continuous
100
AcDbLine
 10
-850.916219
 20
-419.305243
 30
0.0
 11
-882.916219
 21
-409.029503
 31
0.0
  0
LINE
  5
2FB
100
AcDbEntity
  8
0
370
    -3
390
0
  6
Continuous
100
AcDbLine
 10
-714.916219
 20
-419.305243
 30
0.0
 11
-682.916219
 21
-409.029503
 31
0.0
  0
LINE
  5
2FC
100
AcDbEntity
  8
0
370
    -3
390
0
  6
Continuous
100
AcDbLine
 10
-850.916219
 20
-417.392863
 30
0.0
 11
-882.916219
 21
-407.117123
 31
0.0
  0
LINE
  5
2FD
100
AcDbEntity
  8
0
370
    -3
390
0
  6
Continuous
100
AcDbLine
 10
-714.916219
 20
-417.392863
 30
0.0
 11
-682.916219
 21
-407.117123
 31
0.0
  0
LINE
  5
2FE
100
AcDbEntity
  8
0
370
    -3
390
0
  6
Continuous
100
AcDbLine
 10
-714.916219
 20
-417.392863
 30
0.0
 11
-714.916219
 21
-419.305243
 31
0.0
  0
LINE
  5
2FF
100
AcDbEntity
  8
0
370
    -3
390
0
  6
Continuous
100
AcDbLine
 10
-850.916219
 20
-417.392863
 30
0.0
 11
-850.916219
 21
-419.305243
 31
0.0
  0
LINE
  5
300
100
AcDbEntity
  8
0
370
    -3
390
0
  6
Continuous
100
AcDbLine
 10
-882.916219
 20
-402.669789
 30
0.0
 11
-882.916219
 21
-409.029503
 31
0.0
  0
LINE
  5
301
100
AcDbEntity
  8
0
370
    -3
390
0
  6
Continuous
100
AcDbLine
 10
-682.916219
 20
-402.669789
 30
0.0
 11
-682.916219
 21
-409.029503
 31
0.0
  0
LINE
  5
302
100
AcDbEntity
  8
0
370
    -3
390
0
  6
Continuous
100
AcDbLine
 10
-850.916219
 20
-419.305243
 30
0.0
 11
-714.916219
 21
-419.305243
 31
0.0
  0
LINE
  5
303
100
AcDbEntity
  8
0
370
    -3
390
0
  6
Continuous
100
AcDbLine
 10
-850.916219
 20
-417.392863
 30
0.0
 11
-714.916219
 21
-417.392863
 31
0.0
  0
LINE
  5
304
100
AcDbEntity
  8
0
370
    -3
390
0
  6
Continuous
100
AcDbLine
 10
-882.916219
 20
-402.669789
 30
0.0
 11
-682.916219
 21
-402.669789
 31
0.0
  0
LINE
  5
305
100
AcDbEntity
  8
0
370
    -3
390
0
  6
Continuous
100
AcDbLine
 10
-850.916219
 20
-401.425803
 30
0.0
 11
-882.916219
 21
-393.245301
 31
0.0
  0
LINE
  5
306
100
AcDbEntity
  8
0
370
    -3
390
0
  6
Continuous
100
AcDbLine
 10
-714.916219
 20
-401.425803
 30
0.0
 11
-682.916219
 21
-393.245301
 31
0.0
  0
LINE
  5
307
100
AcDbEntity
  8
0
370
    -3
390
0
  6
Continuous
100
AcDbLine
 10
-850.916219
 20
-399.362995
 30
0.0
 11
-882.916219
 21
-391.182495
 31
0.0
  0
LINE
  5
308
100
AcDbEntity
  8
0
370
    -3
390
0
  6
Continuous
100
AcDbLine
 10
-714.916219
 20
-399.362995
 30
0.0
 11
-682.916219
 21
-391.182495
 31
0.0
  0
LINE
  5
309
100
AcDbEntity
  8
0
370
    -3
390
0
  6
Continuous
100
AcDbLine
 10
-714.916219
 20
-399.362995
 30
0.0
 11
-714.916219
 21
-401.425803
 31
0.0
  0
LINE
  5
30A
100
AcDbEntity
  8
0
370
    -3
390
0
  6
Continuous
100
AcDbLine
 10
-850.916219
 20
-399.362995
 30
0.0
 11
-850.916219
 21
-401.425803
 31
0.0
  0
LINE
  5
30B
100
AcDbEntity
  8
0
370
    -3
390
0
  6
Continuous
100
AcDbLine
 10
-882.916219
 20
-387.641977
 30
0.0
 11
-882.916219
 21
-393.245301
 31
0.0
  0
LINE
  5
30C
100
AcDbEntity
  8
0
370
    -3
390
0
  6
Continuous
100
AcDbLine
 10
-682.916219
 20
-387.641977
 30
0.0
 11
-682.916219
 21
-393.245301
 31
0.0
  0
LINE
  5
30D
100
AcDbEntity
  8
0
370
    -3
390
0
  6
Continuous
100
AcDbLine
 10
-850.916219
 20
-401.425803
 30
0.0
 11
-714.916219
 21
-401.425803
 31
0.0
  0
LINE
  5
30E
100
AcDbEntity
  8
0
370
    -3
390
0
  6
Continuous
100
AcDbLine
 10
-850.916219
 20
-399.362995
 30
0.0
 11
-714.916219
 21
-399.362995
 31
0.0
  0
LINE
  5
30F
100
AcDbEntity
  8
0
370
    -3
390
0
  6
Continuous
100
AcDbLine
 10
-882.916219
 20
-387.641977
 30
0.0
 11
-682.916219
 21
-387.641977
 31
0.0
  0
LINE
  5
310
100
AcDbEntity
  8
0
370
    -3
390
0
  6
Continuous
100
AcDbLine
 10
-850.916219
 20
-382.329269
 30
0.0
 11
-882.916219
 21
-376.383975
 31
0.0
  0
LINE
  5
311
100
AcDbEntity
  8
0
370
    -3
390
0
  6
Continuous
100
AcDbLine
 10
-714.916219
 20
-382.329269
 30
0.0
 11
-682.916219
 21
-376.383975
 31
0.0
  0
LINE
  5
312
100
AcDbEntity
  8
0
370
    -3
390
0
  6
Continuous
100
AcDbLine
 10
-714.916219
 20
-380.151329
 30
0.0
 11
-682.916219
 21
-374.206037
 31
0.0
  0
LINE
  5
313
100
AcDbEntity
  8
0
370
    -3
390
0
  6
Continuous
100
AcDbLine
 10
-850.916219
 20
-380.151329
 30
0.0
 11
-882.916219
 21
-374.206037
 31
0.0
  0
LINE
  5
314
100
AcDbEntity
  8
0
370
    -3
390
0
  6
Continuous
100
AcDbLine
 10
-850.916219
 20
-382.329269
 30
0.0
 11
-714.916219
 21
-382.329269
 31
0.0
  0
LINE
  5
315
100
AcDbEntity
  8
0
370
    -3
390
0
  6
Continuous
100
AcDbLine
 10
-850.916219
 20
-380.151329
 30
0.0
 11
-714.916219
 21
-380.151329
 31
0.0
  0
LINE
  5
316
100
AcDbEntity
  8
0
370
    -3
390
0
  6
Continuous
100
AcDbLine
 10
-882.916219
 20
-371.632917
 30
0.0
 11
-682.916219
 21
-371.632917
 31
0.0
  0
LINE
  5
317
100
AcDbEntity
  8
0
370
    -3
390
0
  6
Continuous
100
AcDbLine
 10
-714.916219
 20
-382.329269
 30
0.0
 11
-714.916219
 21
-380.151329
 31
0.0
  0
LINE
  5
318
100
AcDbEntity
  8
0
370
    -3
390
0
  6
Continuous
100
AcDbLine
 10
-850.916219
 20
-382.329269
 30
0.0
 11
-850.916219
 21
-380.151329
 31
0.0
  0
LINE
  5
319
100
AcDbEntity
  8
0
370
    -3
390
0
  6
Continuous
100
AcDbLine
 10
-882.916219
 20
-376.383975
 30
0.0
 11
-882.916219
 21
-371.632917
 31
0.0
  0
LINE
  5
31A
100
AcDbEntity
  8
0
370
    -3
390
0
  6
Continuous
100
AcDbLine
 10
-682.916219
 20
-376.383975
 30
0.0
 11
-682.916219
 21
-371.632917
 31
0.0
  0
LINE
  5
31B
100
AcDbEntity
  8
0
370
    -3
390
0
  6
Continuous
100
AcDbLine
 10
-669.916219
 20
-362.342389
 30
0.0
 11
-637.916219
 21
-358.734029
 31
0.0
  0
LINE
  5
31C
100
AcDbEntity
  8
0
370
    -3
390
0
  6
Continuous
100
AcDbLine
 10
-669.916219
 20
-360.086583
 30
0.0
 11
-637.916219
 21
-356.478223
 31
0.0
  0
LINE
  5
31D
100
AcDbEntity
  8
0
370
    -3
390
0
  6
Continuous
100
AcDbLine
 10
-895.916219
 20
-362.342389
 30
0.0
 11
-912.916219
 21
-360.425447
 31
0.0
  0
LINE
  5
31E
100
AcDbEntity
  8
0
370
    -3
390
0
  6
Continuous
100
AcDbLine
 10
-895.916219
 20
-360.086583
 30
0.0
 11
-912.916219
 21
-358.169641
 31
0.0
  0
LINE
  5
31F
100
AcDbEntity
  8
0
370
    -3
390
0
  6
Continuous
100
AcDbLine
 10
-895.916219
 20
-362.342389
 30
0.0
 11
-895.916219
 21
-360.086583
 31
0.0
  0
LINE
  5
320
100
AcDbEntity
  8
0
370
    -3
390
0
  6
Continuous
100
AcDbLine
 10
-669.916219
 20
-362.342389
 30
0.0
 11
-669.916219
 21
-360.086583
 31
0.0
  0
LINE
  5
321
100
AcDbEntity
  8
0
370
    -3
390
0
  6
Continuous
100
AcDbLine
 10
-637.916219
 20
-354.916527
 30
0.0
 11
-637.916219
 21
-358.734029
 31
0.0
  0
LINE
  5
322
100
AcDbEntity
  8
0
370
    -3
390
0
  6
Continuous
100
AcDbLine
 10
-895.916219
 20
-362.342389
 30
0.0
 11
-669.916219
 21
-362.342389
 31
0.0
  0
LINE
  5
323
100
AcDbEntity
  8
0
370
    -3
390
0
  6
Continuous
100
AcDbLine
 10
-895.916219
 20
-360.086583
 30
0.0
 11
-669.916219
 21
-360.086583
 31
0.0
  0
LINE
  5
324
100
AcDbEntity
  8
0
370
    -3
390
0
  6
Continuous
100
AcDbLine
 10
-843.591311
 20
-354.916527
 30
0.0
 11
-637.916219
 21
-354.916527
 31
0.0
  0
LINE
  5
325
100
AcDbEntity
  8
0
370
    -3
390
0
  6
Continuous
100
AcDbLine
 10
-805.916219
 20
-341.807143
 30
0.0
 11
-821.885651
 21
-341.203455
 31
0.0
  0
LINE
  5
326
100
AcDbEntity
  8
0
370
    -3
390
0
  6
Continuous
100
AcDbLine
 10
-805.916219
 20
-339.512067
 30
0.0
 11
-819.810806
 21
-338.986814
 31
0.0
  0
LINE
  5
327
100
AcDbEntity
  8
0
370
    -3
390
0
  6
Continuous
100
AcDbLine
 10
-669.916219
 20
-341.807143
 30
0.0
 11
-637.916219
 21
-340.597457
 31
0.0
  0
LINE
  5
328
100
AcDbEntity
  8
0
370
    -3
390
0
  6
Continuous
100
AcDbLine
 10
-669.916219
 20
-339.512067
 30
0.0
 11
-637.916219
 21
-338.302381
 31
0.0
  0
LINE
  5
329
100
AcDbEntity
  8
0
370
    -3
390
0
  6
Continuous
100
AcDbLine
 10
-637.916219
 20
-337.778831
 30
0.0
 11
-637.916219
 21
-340.597457
 31
0.0
  0
LINE
  5
32A
100
AcDbEntity
  8
0
370
    -3
390
0
  6
Continuous
100
AcDbLine
 10
-805.916219
 20
-339.512067
 30
0.0
 11
-805.916219
 21
-341.807143
 31
0.0
  0
LINE
  5
32B
100
AcDbEntity
  8
0
370
    -3
390
0
  6
Continuous
100
AcDbLine
 10
-669.916219
 20
-339.512067
 30
0.0
 11
-669.916219
 21
-341.807143
 31
0.0
  0
LINE
  5
32C
100
AcDbEntity
  8
0
370
    -3
390
0
  6
Continuous
100
AcDbLine
 10
-819.043566
 20
-337.778831
 30
0.0
 11
-637.916219
 21
-337.778831
 31
0.0
  0
LINE
  5
32D
100
AcDbEntity
  8
0
370
    -3
390
0
  6
Continuous
100
AcDbLine
 10
-662.443973
 20
-244.127739
 30
0.0
 11
-637.916219
 21
-244.127739
 31
0.0
  0
LINE
  5
32E
100
AcDbEntity
  8
0
370
    -3
390
0
  6
Continuous
100
AcDbLine
 10
-805.916219
 20
-243.194099
 30
0.0
 11
-811.171375
 21
-245.195676
 31
0.0
  0
LINE
  5
32F
100
AcDbEntity
  8
0
370
    -3
390
0
  6
Continuous
100
AcDbLine
 10
-805.916219
 20
-241.281719
 30
0.0
 11
-811.242266
 21
-243.310297
 31
0.0
  0
LINE
  5
330
100
AcDbEntity
  8
0
370
    -3
390
0
  6
Continuous
100
AcDbLine
 10
-669.916219
 20
-243.194099
 30
0.0
 11
-637.916219
 21
-255.382219
 31
0.0
  0
LINE
  5
331
100
AcDbEntity
  8
0
370
    -3
390
0
  6
Continuous
100
AcDbLine
 10
-669.916219
 20
-241.281719
 30
0.0
 11
-637.916219
 21
-253.469839
 31
0.0
  0
LINE
  5
332
100
AcDbEntity
  8
0
370
    -3
390
0
  6
Continuous
100
AcDbLine
 10
-637.916219
 20
-253.469839
 30
0.0
 11
-637.916219
 21
-257.917173
 31
0.0
  0
LINE
  5
333
100
AcDbEntity
  8
0
370
    -3
390
0
  6
Continuous
100
AcDbLine
 10
-805.916219
 20
-241.281719
 30
0.0
 11
-805.916219
 21
-243.194099
 31
0.0
  0
LINE
  5
334
100
AcDbEntity
  8
0
370
    -3
390
0
  6
Continuous
100
AcDbLine
 10
-669.916219
 20
-241.281719
 30
0.0
 11
-669.916219
 21
-243.194099
 31
0.0
  0
LINE
  5
335
100
AcDbEntity
  8
0
370
    -3
390
0
  6
Continuous
100
AcDbLine
 10
-810.919915
 20
-257.917173
 30
0.0
 11
-637.916219
 21
-257.917173
 31
0.0
  0
LINE
  5
336
100
AcDbEntity
  8
0
370
    -3
390
0
  6
Continuous
100
AcDbLine
 10
-805.916219
 20
-243.194099
 30
0.0
 11
-669.916219
 21
-243.194099
 31
0.0
  0
LINE
  5
337
100
AcDbEntity
  8
0
370
    -3
390
0
  6
Continuous
100
AcDbLine
 10
-805.916219
 20
-241.281719
 30
0.0
 11
-669.916219
 21
-241.281719
 31
0.0
  0
LINE
  5
338
100
AcDbEntity
  8
0
370
    -3
390
0
  6
Continuous
100
AcDbLine
 10
-669.916219
 20
-226.654527
 30
0.0
 11
-637.916219
 21
-240.578915
 31
0.0
  0
LINE
  5
339
100
AcDbEntity
  8
0
370
    -3
390
0
  6
Continuous
100
AcDbLine
 10
-669.916219
 20
-224.925295
 30
0.0
 11
-637.916219
 21
-238.849683
 31
0.0
  0
LINE
  5
33A
100
AcDbEntity
  8
0
370
    -3
390
0
  6
Continuous
100
AcDbLine
 10
-669.916219
 20
-226.654527
 30
0.0
 11
-669.916219
 21
-224.925295
 31
0.0
  0
LINE
  5
33B
100
AcDbEntity
  8
0
370
    -3
390
0
  6
Continuous
100
AcDbLine
 10
-637.916219
 20
-238.849683
 30
0.0
 11
-637.916219
 21
-244.127739
 31
0.0
  0
LINE
  5
33C
100
AcDbEntity
  8
0
370
    -3
390
0
  6
Continuous
100
AcDbLine
 10
-812.246718
 20
-226.654527
 30
0.0
 11
-669.916219
 21
-226.654527
 31
0.0
  0
LINE
  5
33D
100
AcDbEntity
  8
0
370
    -3
390
0
  6
Continuous
100
AcDbLine
 10
-812.390052
 20
-224.925295
 30
0.0
 11
-669.916219
 21
-224.925295
 31
0.0
  0
ARC
  5
33E
100
AcDbEntity
  8
0
370
    -3
390
0
  6
Continuous
100
AcDbCircle
 10
-622.916219
 20
-396.030063
 30
0.0
 40
1.0
100
AcDbArc
 50
180.0
 51
270.0
  0
ARC
  5
33F
100
AcDbEntity
  8
0
370
    -3
390
0
  6
Continuous
100
AcDbCircle
 10
-648.916219
 20
-396.030063
 30
0.0
 40
1.0
100
AcDbArc
 50
270.0
 51
0.0
  0
ARC
  5
340
100
AcDbEntity
  8
0
370
    -3
390
0
  6
Continuous
100
AcDbCircle
 10
-649.416219
 20
-398.030063
 30
0.0
 40
1.0
100
AcDbArc
 50
90.0
 51
180.0
  0
ARC
  5
341
100
AcDbEntity
  8
0
370
    -3
390
0
  6
Continuous
100
AcDbCircle
 10
-624.916219
 20
-386.486045
 30
0.0
 40
1.0
100
AcDbArc
 50
0.0
 51
90.0
  0
ARC
  5
342
100
AcDbEntity
  8
0
370
    -3
390
0
  6
Continuous
100
AcDbCircle
 10
-646.916219
 20
-386.486045
 30
0.0
 40
1.0
100
AcDbArc
 50
90.0
 51
180.0
  0
ARC
  5
343
100
AcDbEntity
  8
0
370
    -3
390
0
  6
Continuous
100
AcDbCircle
 10
-649.416219
 20
-417.067041
 30
0.0
 40
1.0
100
AcDbArc
 50
180.0
 51
270.0
  0
ARC
  5
344
100
AcDbEntity
  8
0
370
    -3
390
0
  6
Continuous
100
AcDbCircle
 10
-649.416219
 20
-401.843725
 30
0.0
 40
1.0
100
AcDbArc
 50
90.0
 51
180.0
  0
LINE
  5
345
100
AcDbEntity
  8
0
370
    -3
390
0
  6
Continuous
100
AcDbLine
 10
-648.916219
 20
-397.030063
 30
0.0
 11
-649.416219
 21
-397.030063
 31
0.0
  0
LINE
  5
346
100
AcDbEntity
  8
0
370
    -3
390
0
  6
Continuous
100
AcDbLine
 10
-650.416219
 20
-417.067041
 30
0.0
 11
-650.416219
 21
-398.030063
 31
0.0
  0
LINE
  5
347
100
AcDbEntity
  8
0
370
    -3
390
0
  6
Continuous
100
AcDbLine
 10
-647.916219
 20
-396.030063
 30
0.0
 11
-647.916219
 21
-386.486045
 31
0.0
  0
LINE
  5
348
100
AcDbEntity
  8
0
370
    -3
390
0
  6
Continuous
100
AcDbLine
 10
-623.916219
 20
-396.030063
 30
0.0
 11
-623.916219
 21
-386.486045
 31
0.0
  0
LINE
  5
349
100
AcDbEntity
  8
0
370
    -3
390
0
  6
Continuous
100
AcDbLine
 10
-622.916219
 20
-418.067041
 30
0.0
 11
-649.416219
 21
-418.067041
 31
0.0
  0
LINE
  5
34A
100
AcDbEntity
  8
0
370
    -3
390
0
  6
Continuous
100
AcDbLine
 10
-622.916219
 20
-400.843725
 30
0.0
 11
-649.416219
 21
-400.843725
 31
0.0
  0
LINE
  5
34B
100
AcDbEntity
  8
0
370
    -3
390
0
  6
Continuous
100
AcDbLine
 10
-624.916219
 20
-385.486045
 30
0.0
 11
-646.916219
 21
-385.486045
 31
0.0
  0
LINE
  5
34C
100
AcDbEntity
  8
0
370
    -3
390
0
  6
Continuous
100
AcDbLine
 10
-637.916219
 20
-288.793325
 30
0.0
 11
-637.916219
 21
-283.616149
 31
0.0
  0
LINE
  5
34D
100
AcDbEntity
  8
0
370
    -3
390
0
  6
Continuous
100
AcDbLine
 10
-637.916219
 20
-288.793325
 30
0.0
 11
-782.916219
 21
-288.793325
 31
0.0
  0
LINE
  5
34E
100
AcDbEntity
  8
0
370
    -3
390
0
  6
Continuous
100
AcDbLine
 10
-782.916219
 20
-278.096973
 30
0.0
 11
-669.916219
 21
-278.096973
 31
0.0
  0
LINE
  5
34F
100
AcDbEntity
  8
0
370
    -3
390
0
  6
Continuous
100
AcDbLine
 10
-637.916219
 20
-286.220205
 30
0.0
 11
-669.916219
 21
-280.699695
 31
0.0
  0
LINE
  5
350
100
AcDbEntity
  8
0
370
    -3
390
0
  6
Continuous
100
AcDbLine
 10
-669.916219
 20
-278.096973
 30
0.0
 11
-637.916219
 21
-283.616149
 31
0.0
  0
LINE
  5
351
100
AcDbEntity
  8
0
370
    -3
390
0
  6
Continuous
100
AcDbLine
 10
-669.916219
 20
-280.699695
 30
0.0
 11
-669.916219
 21
-278.096973
 31
0.0
  0
LINE
  5
352
100
AcDbEntity
  8
0
370
    -3
390
0
  6
Continuous
100
AcDbLine
 10
-669.916219
 20
-280.699695
 30
0.0
 11
-782.916219
 21
-280.699695
 31
0.0
  0
LINE
  5
353
100
AcDbEntity
  8
0
370
    -3
390
0
  6
Continuous
100
AcDbLine
 10
-811.952723
 20
-288.793325
 30
0.0
 11
-782.916219
 21
-288.793325
 31
0.0
  0
LINE
  5
354
100
AcDbEntity
  8
0
370
    -3
390
0
  6
Continuous
100
AcDbLine
 10
-782.916219
 20
-278.096973
 30
0.0
 11
-805.916219
 21
-278.096973
 31
0.0
  0
LINE
  5
355
100
AcDbEntity
  8
0
370
    -3
390
0
  6
Continuous
100
AcDbLine
 10
-811.507216
 20
-281.664231
 30
0.0
 11
-805.916219
 21
-280.699695
 31
0.0
  0
LINE
  5
356
100
AcDbEntity
  8
0
370
    -3
390
0
  6
Continuous
100
AcDbLine
 10
-805.916219
 20
-278.096973
 30
0.0
 11
-811.374516
 21
-279.038388
 31
0.0
  0
LINE
  5
357
100
AcDbEntity
  8
0
370
    -3
390
0
  6
Continuous
100
AcDbLine
 10
-637.916219
 20
-305.572891
 30
0.0
 11
-782.916219
 21
-305.572891
 31
0.0
  0
LINE
  5
358
100
AcDbEntity
  8
0
370
    -3
390
0
  6
Continuous
100
AcDbLine
 10
-813.495262
 20
-305.572891
 30
0.0
 11
-782.916219
 21
-305.572891
 31
0.0
  0
LINE
  5
359
100
AcDbEntity
  8
0
370
    -3
390
0
  6
Continuous
100
AcDbLine
 10
-637.916219
 20
-272.723841
 30
0.0
 11
-782.916219
 21
-272.723841
 31
0.0
  0
LINE
  5
35A
100
AcDbEntity
  8
0
370
    -3
390
0
  6
Continuous
100
AcDbLine
 10
-811.124458
 20
-272.723841
 30
0.0
 11
-782.916219
 21
-272.723841
 31
0.0
  0
LINE
  5
35B
100
AcDbEntity
  8
0
370
    -3
390
0
  6
Continuous
100
AcDbLine
 10
-637.916219
 20
-322.775431
 30
0.0
 11
-782.916219
 21
-322.775431
 31
0.0
  0
LINE
  5
35C
100
AcDbEntity
  8
0
370
    -3
390
0
  6
Continuous
100
AcDbLine
 10
-815.803632
 20
-322.775431
 30
0.0
 11
-782.916219
 21
-322.775431
 31
0.0
  0
LINE
  5
35D
100
AcDbEntity
  8
0
370
    -3
390
0
  6
CENTER
100
AcDbLine
 10
-887.916219
 20
-191.007998
 30
0.0
 11
-887.916219
 21
-359.912903
 31
0.0
  0
LINE
  5
35E
100
AcDbEntity
  8
0
370
    -3
390
0
  6
Continuous
100
AcDbLine
 10
-637.916219
 20
-322.775431
 30
0.0
 11
-637.916219
 21
-319.957075
 31
0.0
  0
LINE
  5
35F
100
AcDbEntity
  8
0
370
    -3
390
0
  6
Continuous
100
AcDbLine
 10
-637.916219
 20
-305.572891
 30
0.0
 11
-637.916219
 21
-301.756199
 31
0.0
  0
LINE
  5
360
100
AcDbEntity
  8
0
370
    -3
390
0
  6
Continuous
100
AcDbLine
 10
-637.916219
 20
-272.723841
 30
0.0
 11
-637.916219
 21
-267.122355
 31
0.0
  0
LINE
  5
361
100
AcDbEntity
  8
0
370
    -3
390
0
  6
Continuous
100
AcDbLine
 10
-669.916219
 20
-261.002823
 30
0.0
 11
-669.916219
 21
-258.940015
 31
0.0
  0
LINE
  5
362
100
AcDbEntity
  8
0
370
    -3
390
0
  6
Continuous
100
AcDbLine
 10
-669.916219
 20
-300.402835
 30
0.0
 11
-669.916219
 21
-298.147029
 31
0.0
  0
LINE
  5
363
100
AcDbEntity
  8
0
370
    -3
390
0
  6
Continuous
100
AcDbLine
 10
-669.916219
 20
-321.042193
 30
0.0
 11
-669.916219
 21
-318.747117
 31
0.0
  0
LINE
  5
364
100
AcDbEntity
  8
0
370
    -3
390
0
  6
Continuous
100
AcDbLine
 10
-669.916219
 20
-321.042193
 30
0.0
 11
-637.916219
 21
-322.252151
 31
0.0
  0
LINE
  5
365
100
AcDbEntity
  8
0
370
    -3
390
0
  6
Continuous
100
AcDbLine
 10
-669.916219
 20
-318.747117
 30
0.0
 11
-637.916219
 21
-319.957075
 31
0.0
  0
LINE
  5
366
100
AcDbEntity
  8
0
370
    -3
390
0
  6
Continuous
100
AcDbLine
 10
-669.916219
 20
-300.402835
 30
0.0
 11
-637.916219
 21
-304.012005
 31
0.0
  0
LINE
  5
367
100
AcDbEntity
  8
0
370
    -3
390
0
  6
Continuous
100
AcDbLine
 10
-669.916219
 20
-298.147029
 30
0.0
 11
-637.916219
 21
-301.756199
 31
0.0
  0
LINE
  5
368
100
AcDbEntity
  8
0
370
    -3
390
0
  6
Continuous
100
AcDbLine
 10
-669.916219
 20
-261.002823
 30
0.0
 11
-637.916219
 21
-269.185163
 31
0.0
  0
LINE
  5
369
100
AcDbEntity
  8
0
370
    -3
390
0
  6
Continuous
100
AcDbLine
 10
-669.916219
 20
-258.940015
 30
0.0
 11
-637.916219
 21
-267.122355
 31
0.0
  0
LINE
  5
36A
100
AcDbEntity
  8
0
370
    -3
390
0
  6
Continuous
100
AcDbLine
 10
-669.916219
 20
-321.042193
 30
0.0
 11
-782.916219
 21
-321.042193
 31
0.0
  0
LINE
  5
36B
100
AcDbEntity
  8
0
370
    -3
390
0
  6
Continuous
100
AcDbLine
 10
-669.916219
 20
-318.747117
 30
0.0
 11
-782.916219
 21
-318.747117
 31
0.0
  0
LINE
  5
36C
100
AcDbEntity
  8
0
370
    -3
390
0
  6
Continuous
100
AcDbLine
 10
-669.916219
 20
-300.402835
 30
0.0
 11
-782.916219
 21
-300.402835
 31
0.0
  0
LINE
  5
36D
100
AcDbEntity
  8
0
370
    -3
390
0
  6
Continuous
100
AcDbLine
 10
-669.916219
 20
-298.147029
 30
0.0
 11
-782.916219
 21
-298.147029
 31
0.0
  0
LINE
  5
36E
100
AcDbEntity
  8
0
370
    -3
390
0
  6
Continuous
100
AcDbLine
 10
-669.916219
 20
-261.002823
 30
0.0
 11
-782.916219
 21
-261.002823
 31
0.0
  0
LINE
  5
36F
100
AcDbEntity
  8
0
370
    -3
390
0
  6
Continuous
100
AcDbLine
 10
-669.916219
 20
-258.940015
 30
0.0
 11
-782.916219
 21
-258.940015
 31
0.0
  0
LINE
  5
370
100
AcDbEntity
  8
0
370
    -3
390
0
  6
Continuous
100
AcDbLine
 10
-805.916219
 20
-261.002823
 30
0.0
 11
-805.916219
 21
-258.940015
 31
0.0
  0
LINE
  5
371
100
AcDbEntity
  8
0
370
    -3
390
0
  6
Continuous
100
AcDbLine
 10
-805.916219
 20
-280.699695
 30
0.0
 11
-805.916219
 21
-278.096973
 31
0.0
  0
LINE
  5
372
100
AcDbEntity
  8
0
370
    -3
390
0
  6
Continuous
100
AcDbLine
 10
-805.916219
 20
-300.402835
 30
0.0
 11
-805.916219
 21
-298.147029
 31
0.0
  0
LINE
  5
373
100
AcDbEntity
  8
0
370
    -3
390
0
  6
Continuous
100
AcDbLine
 10
-805.916219
 20
-321.042193
 30
0.0
 11
-805.916219
 21
-318.747117
 31
0.0
  0
LINE
  5
374
100
AcDbEntity
  8
0
370
    -3
390
0
  6
Continuous
100
AcDbLine
 10
-805.916219
 20
-321.042193
 30
0.0
 11
-815.592959
 21
-321.408082
 31
0.0
  0
LINE
  5
375
100
AcDbEntity
  8
0
370
    -3
390
0
  6
Continuous
100
AcDbLine
 10
-805.916219
 20
-318.747117
 30
0.0
 11
-815.248042
 21
-319.099964
 31
0.0
  0
LINE
  5
376
100
AcDbEntity
  8
0
370
    -3
390
0
  6
Continuous
100
AcDbLine
 10
-805.916219
 20
-300.402835
 30
0.0
 11
-813.026681
 21
-301.204799
 31
0.0
  0
LINE
  5
377
100
AcDbEntity
  8
0
370
    -3
390
0
  6
Continuous
100
AcDbLine
 10
-805.916219
 20
-298.147029
 30
0.0
 11
-812.800756
 21
-298.923512
 31
0.0
  0
LINE
  5
378
100
AcDbEntity
  8
0
370
    -3
390
0
  6
Continuous
100
AcDbLine
 10
-805.916219
 20
-261.002823
 30
0.0
 11
-810.924624
 21
-262.283463
 31
0.0
  0
LINE
  5
379
100
AcDbEntity
  8
0
370
    -3
390
0
  6
Continuous
100
AcDbLine
 10
-805.916219
 20
-258.940015
 30
0.0
 11
-810.916602
 21
-260.218603
 31
0.0
  0
LINE
  5
37A
100
AcDbEntity
  8
0
370
    -3
390
0
  6
Continuous
100
AcDbLine
 10
-805.916219
 20
-321.042193
 30
0.0
 11
-782.916219
 21
-321.042193
 31
0.0
  0
LINE
  5
37B
100
AcDbEntity
  8
0
370
    -3
390
0
  6
Continuous
100
AcDbLine
 10
-805.916219
 20
-318.747117
 30
0.0
 11
-782.916219
 21
-318.747117
 31
0.0
  0
LINE
  5
37C
100
AcDbEntity
  8
0
370
    -3
390
0
  6
Continuous
100
AcDbLine
 10
-805.916219
 20
-300.402835
 30
0.0
 11
-782.916219
 21
-300.402835
 31
0.0
  0
LINE
  5
37D
100
AcDbEntity
  8
0
370
    -3
390
0
  6
Continuous
100
AcDbLine
 10
-805.916219
 20
-298.147029
 30
0.0
 11
-782.916219
 21
-298.147029
 31
0.0
  0
LINE
  5
37E
100
AcDbEntity
  8
0
370
    -3
390
0
  6
Continuous
100
AcDbLine
 10
-805.916219
 20
-280.699695
 30
0.0
 11
-782.916219
 21
-280.699695
 31
0.0
  0
LINE
  5
37F
100
AcDbEntity
  8
0
370
    -3
390
0
  6
Continuous
100
AcDbLine
 10
-805.916219
 20
-261.002823
 30
0.0
 11
-782.916219
 21
-261.002823
 31
0.0
  0
LINE
  5
380
100
AcDbEntity
  8
0
370
    -3
390
0
  6
Continuous
100
AcDbLine
 10
-805.916219
 20
-258.940015
 30
0.0
 11
-782.916219
 21
-258.940015
 31
0.0
  0
LINE
  5
381
100
AcDbEntity
  8
0
370
    -3
390
0
  6
Continuous
100
AcDbLine
 10
-637.916219
 20
-462.293481
 30
0.0
 11
-622.916219
 21
-462.293481
 31
0.0
  0
LINE
  5
382
100
AcDbEntity
  8
0
370
    -3
390
0
  6
Continuous
100
AcDbLine
 10
-800.316219
 20
-486.093481
 30
0.0
 11
-765.516219
 21
-486.093481
 31
0.0
  0
ARC
  5
383
100
AcDbEntity
  8
0
370
    -3
390
0
  6
Continuous
100
AcDbCircle
 10
-765.516219
 20
-485.493481
 30
0.0
 40
0.6
100
AcDbArc
 50
270.0
 51
0.0
  0
ARC
  5
384
100
AcDbEntity
  8
0
370
    -3
390
0
  6
Continuous
100
AcDbCircle
 10
-800.316219
 20
-485.493481
 30
0.0
 40
0.6
100
AcDbArc
 50
180.0
 51
270.0
  0
LINE
  5
385
100
AcDbEntity
  8
0
370
    -3
390
0
  6
Continuous
100
AcDbLine
 10
-800.916219
 20
-479.854569
 30
0.0
 11
-800.916219
 21
-485.493481
 31
0.0
  0
LINE
  5
386
100
AcDbEntity
  8
0
370
    -3
390
0
  6
Continuous
100
AcDbLine
 10
-764.916219
 20
-479.854569
 30
0.0
 11
-764.916219
 21
-485.493481
 31
0.0
  0
LINE
  5
387
100
AcDbEntity
  8
0
370
    -3
390
0
  6
Continuous
100
AcDbLine
 10
-622.916219
 20
-187.249095
 30
0.0
 11
-622.916219
 21
-473.029055
 31
0.0
  0
LINE
  5
388
100
AcDbEntity
  8
0
370
    -3
390
0
  6
Continuous
100
AcDbLine
 10
-949.916219
 20
-192.451104
 30
0.0
 11
-944.916219
 21
-191.007729
 31
0.0
  0
LINE
  5
389
100
AcDbEntity
  8
0
370
    -3
390
0
  6
Continuous
100
AcDbLine
 10
-954.916219
 20
-191.007729
 30
0.0
 11
-949.916219
 21
-192.451104
 31
0.0
  0
LINE
  5
38A
100
AcDbEntity
  8
0
370
    -3
390
0
  6
Continuous
100
AcDbLine
 10
-947.36978
 20
-183.948593
 30
0.0
 11
-908.916219
 21
-183.948593
 31
0.0
  0
LINE
  5
38B
100
AcDbEntity
  8
0
370
    -3
390
0
  6
Continuous
100
AcDbLine
 10
-944.916219
 20
-184.656876
 30
0.0
 11
-949.916219
 21
-183.2135
 31
0.0
  0
LINE
  5
38C
100
AcDbEntity
  8
0
370
    -3
390
0
  6
Continuous
100
AcDbLine
 10
-944.916219
 20
-187.543627
 30
0.0
 11
-944.916219
 21
-184.656876
 31
0.0
  0
LINE
  5
38D
100
AcDbEntity
  8
0
370
    -3
390
0
  6
Continuous
100
AcDbLine
 10
-949.916219
 20
-188.987003
 30
0.0
 11
-944.916219
 21
-187.543627
 31
0.0
  0
LINE
  5
38E
100
AcDbEntity
  8
0
370
    -3
390
0
  6
Continuous
100
AcDbLine
 10
-954.916219
 20
-187.543627
 30
0.0
 11
-949.916219
 21
-188.987003
 31
0.0
  0
LINE
  5
38F
100
AcDbEntity
  8
0
370
    -3
390
0
  6
Continuous
100
AcDbLine
 10
-954.916219
 20
-184.656876
 30
0.0
 11
-954.916219
 21
-187.543627
 31
0.0
  0
LINE
  5
390
100
AcDbEntity
  8
0
370
    -3
390
0
  6
Continuous
100
AcDbLine
 10
-949.916219
 20
-183.2135
 30
0.0
 11
-954.916219
 21
-184.656876
 31
0.0
  0
LINE
  5
391
100
AcDbEntity
  8
0
370
    -3
390
0
  6
Continuous
100
AcDbLine
 10
-944.916219
 20
-191.007729
 30
0.0
 11
-944.916219
 21
-187.543627
 31
0.0
  0
LINE
  5
392
100
AcDbEntity
  8
0
370
    -3
390
0
  6
Continuous
100
AcDbLine
 10
-954.916219
 20
-187.543627
 30
0.0
 11
-954.916219
 21
-191.007729
 31
0.0
  0
LINE
  5
393
100
AcDbEntity
  8
0
370
    -3
390
0
  6
CENTER
100
AcDbLine
 10
-949.916219
 20
-180.754462
 30
0.0
 11
-949.916219
 21
-195.301467
 31
0.0
  0
ELLIPSE
  5
394
100
AcDbEntity
  8
0
370
    -3
390
0
  6
Continuous
100
AcDbEllipse
 10
-949.916219
 20
-186.100251
 30
0.0
 11
5.0
 21
0.0
 31
0.0
210
0.0
220
0.0
230
1.0
 40
0.501013
 41
0.0
 42
6.2831853071795862
  0
LINE
  5
395
100
AcDbEntity
  8
0
370
    -3
390
0
  6
Continuous
100
AcDbLine
 10
-961.933557
 20
-183.948593
 30
0.0
 11
-952.462657
 21
-183.948593
 31
0.0
  0
LINE
  5
396
100
AcDbEntity
  8
0
370
    -3
390
0
  6
CENTER
100
AcDbLine
 10
-957.189721
 20
-186.100251
 30
0.0
 11
-942.642716
 21
-186.100251
 31
0.0
  0
ELLIPSE
  5
397
100
AcDbEntity
  8
0
370
    -3
390
0
  6
Continuous
100
AcDbEllipse
 10
-956.916219
 20
-187.130986
 30
0.0
 11
7.0
 21
0.0
 31
0.0
210
0.0
220
0.0
230
1.0
 40
0.454628
 41
1.5721694153616843
 42
3.1415926535897931
  0
ARC
  5
398
100
AcDbEntity
  8
0
370
    -3
390
0
  6
Continuous
100
AcDbCircle
 10
-979.555581
 20
-192.130986
 30
0.0
 40
15.639362
100
AcDbArc
 50
337.950598
 51
0.0
  0
ELLIPSE
  5
399
100
AcDbEntity
  8
0
370
    -3
390
0
  6
Continuous
100
AcDbEllipse
 10
-956.916219
 20
-192.130986
 30
0.0
 11
7.0
 21
0.0
 31
0.0
210
0.0
220
0.0
230
1.0
 40
0.545372
 41
3.1415926535897931
 42
4.7123889803846897
  0
ARC
  5
39A
100
AcDbEntity
  8
0
370
    -3
390
0
  6
Continuous
100
AcDbCircle
 10
-961.565629
 20
-199.948593
 30
0.0
 40
4.0
100
AcDbArc
 50
90.0
 51
150.88103
  0
LINE
  5
39B
100
AcDbEntity
  8
0
370
    -3
390
0
  6
Continuous
100
AcDbLine
 10
-965.060073
 20
-198.002095
 30
0.0
 11
-967.916219
 21
-203.129579
 31
0.0
  0
LINE
  5
39C
100
AcDbEntity
  8
0
370
    -3
390
0
  6
Continuous
100
AcDbLine
 10
-961.565629
 20
-195.948593
 30
0.0
 11
-951.641261
 21
-195.948593
 31
0.0
  0
LINE
  5
39D
100
AcDbEntity
  8
0
370
    -3
390
0
  6
Continuous
100
AcDbLine
 10
-967.916219
 20
-203.129579
 30
0.0
 11
-956.87213
 21
-203.129579
 31
0.0
  0
ARC
  5
39E
100
AcDbEntity
  8
0
370
    -3
390
0
  6
Continuous
100
AcDbCircle
 10
-965.588751
 20
-187.130986
 30
0.0
 40
1.672533
100
AcDbArc
 50
0.0
 51
73.610004
  0
LINE
  5
39F
100
AcDbEntity
  8
0
370
    -3
390
0
  6
Continuous
100
AcDbLine
 10
-965.116806
 20
-185.526419
 30
0.0
 11
-967.916219
 21
-189.20544
 31
0.0
  0
LINE
  5
3A0
100
AcDbEntity
  8
0
370
    -3
390
0
  6
Continuous
100
AcDbLine
 10
-963.916219
 20
-192.130986
 30
0.0
 11
-963.916219
 21
-187.130986
 31
0.0
  0
LINE
  5
3A1
100
AcDbEntity
  8
0
370
    -3
390
0
  6
Continuous
100
AcDbLine
 10
-967.916219
 20
-484.593481
 30
0.0
 11
-967.916219
 21
-175.993481
 31
0.0
  0
LINE
  5
3A2
100
AcDbEntity
  8
0
370
    -3
390
0
  6
Continuous
100
AcDbLine
 10
-969.416219
 20
-483.793481
 30
0.0
 11
-969.416219
 21
-176.793481
 31
0.0
  0
ARC
  5
3A3
100
AcDbEntity
  8
0
370
    -3
390
0
  6
Continuous
100
AcDbCircle
 10
-1010.916219
 20
-180.928328
 30
0.0
 40
3.0
100
AcDbArc
 50
325.0
 51
0.0
  0
ARC
  5
3A4
100
AcDbEntity
  8
0
370
    -3
390
0
  6
Continuous
100
AcDbCircle
 10
-1004.916219
 20
-179.793481
 30
0.0
 40
3.0
100
AcDbArc
 50
90.0
 51
180.0
  0
LINE
  5
3A5
100
AcDbEntity
  8
0
370
    -3
390
0
  6
Continuous
100
AcDbLine
 10
-1007.916219
 20
-179.793481
 30
0.0
 11
-1007.916219
 21
-330.293481
 31
0.0
  0
LINE
  5
3A6
100
AcDbEntity
  8
0
370
    -3
390
0
  6
Continuous
100
AcDbLine
 10
-1029.319049
 20
-212.440634
 30
0.0
 11
-1008.458763
 21
-182.649057
 31
0.0
  0
ARC
  5
3A7
100
AcDbEntity
  8
0
370
    -3
390
0
  6
Continuous
100
AcDbCircle
 10
-966.416219
 20
-177.793481
 30
0.0
 40
3.0
100
AcDbArc
 50
90.0
 51
143.130102
  0
ARC
  5
3A8
100
AcDbEntity
  8
0
370
    -3
390
0
  6
Continuous
100
AcDbCircle
 10
-970.416219
 20
-174.793481
 30
0.0
 40
2.0
100
AcDbArc
 50
270.0
 51
323.130102
  0
ARC
  5
3A9
100
AcDbEntity
  8
0
370
    -3
390
0
  6
Continuous
100
AcDbCircle
 10
-961.933557
 20
-187.948593
 30
0.0
 40
4.0
100
AcDbArc
 50
90.0
 51
142.732041
  0
LINE
  5
3AA
100
AcDbEntity
  8
0
370
    -3
390
0
  6
Continuous
100
AcDbLine
 10
-908.916219
 20
-174.793481
 30
0.0
 11
-966.416219
 21
-174.793481
 31
0.0
  0
LINE
  5
3AB
100
AcDbEntity
  8
0
370
    -3
390
0
  6
Continuous
100
AcDbLine
 10
-1004.916219
 20
-176.793481
 30
0.0
 11
-970.416219
 21
-176.793481
 31
0.0
  0
LINE
  5
3AC
100
AcDbEntity
  8
0
370
    -3
390
0
  6
Continuous
100
AcDbLine
 10
-1029.319168
 20
-448.146158
 30
0.0
 11
-1008.458763
 21
-477.937904
 31
0.0
  0
ARC
  5
3AD
100
AcDbEntity
  8
0
370
    -3
390
0
  6
Continuous
100
AcDbCircle
 10
-1010.916219
 20
-479.658633
 30
0.0
 40
3.0
100
AcDbArc
 50
0.0
 51
35.0
  0
ARC
  5
3AE
100
AcDbEntity
  8
0
370
    -3
390
0
  6
Continuous
100
AcDbCircle
 10
-1004.916219
 20
-480.793481
 30
0.0
 40
3.0
100
AcDbArc
 50
180.0
 51
270.0
  0
LINE
  5
3AF
100
AcDbEntity
  8
0
370
    -3
390
0
  6
Continuous
100
AcDbLine
 10
-1007.916219
 20
-480.793481
 30
0.0
 11
-1007.916219
 21
-330.293481
 31
0.0
  0
LINE
  5
3B0
100
AcDbEntity
  8
0
370
    -3
390
0
  6
Continuous
100
AcDbLine
 10
-1004.916219
 20
-483.793481
 30
0.0
 11
-970.416219
 21
-483.793481
 31
0.0
  0
ARC
  5
3B1
100
AcDbEntity
  8
0
370
    -3
390
0
  6
Continuous
100
AcDbCircle
 10
-966.416219
 20
-482.793481
 30
0.0
 40
3.0
100
AcDbArc
 50
216.869898
 51
270.0
  0
ARC
  5
3B2
100
AcDbEntity
  8
0
370
    -3
390
0
  6
Continuous
100
AcDbCircle
 10
-970.416219
 20
-485.793481
 30
0.0
 40
2.0
100
AcDbArc
 50
36.869898
 51
90.0
  0
LINE
  5
3B3
100
AcDbEntity
  8
0
370
    -3
390
0
  6
Continuous
100
AcDbLine
 10
-908.916219
 20
-485.793481
 30
0.0
 11
-966.416219
 21
-485.793481
 31
0.0
  0
ARC
  5
3B4
100
AcDbEntity
  8
0
370
    -3
390
0
  6
Continuous
100
AcDbCircle
 10
-976.220614
 20
-415.835137
 30
0.0
 40
12.304395
100
AcDbArc
 50
334.478825
 51
0.0
  0
ARC
  5
3B5
100
AcDbEntity
  8
0
370
    -3
390
0
  6
Continuous
100
AcDbCircle
 10
-990.006194
 20
-407.174883
 30
0.0
 40
26.089975
100
AcDbArc
 50
0.0
 51
17.449275
  0
ARC
  5
3B6
100
AcDbEntity
  8
0
370
    -3
390
0
  6
Continuous
100
AcDbCircle
 10
-961.933557
 20
-412.65233
 30
0.0
 40
9.061615
100
AcDbArc
 50
249.433801
 51
270.0
  0
ARC
  5
3B7
100
AcDbEntity
  8
0
370
    -3
390
0
  6
Continuous
100
AcDbCircle
 10
-961.933557
 20
-396.929335
 30
0.0
 40
4.0
100
AcDbArc
 50
217.267959
 51
270.0
  0
ELLIPSE
  5
3B8
100
AcDbEntity
  8
0
370
    -3
390
0
  6
Continuous
100
AcDbEllipse
 10
-956.916219
 20
-407.174883
 30
0.0
 11
7.0
 21
0.0
 31
0.0
210
0.0
220
0.0
230
1.0
 40
0.892221
 41
1.5786489530372321
 42
3.1415926535897931
  0
ELLIPSE
  5
3B9
100
AcDbEntity
  8
0
370
    -3
390
0
  6
Continuous
100
AcDbEllipse
 10
-956.916219
 20
-415.835137
 30
0.0
 11
7.0
 21
0.0
 31
0.0
210
0.0
220
0.0
230
1.0
 40
0.83983
 41
3.1415926535897931
 42
4.7123889803846897
  0
LINE
  5
3BA
100
AcDbEntity
  8
0
370
    -3
390
0
  6
Continuous
100
AcDbLine
 10
-965.116806
 20
-421.13642
 30
0.0
 11
-967.916219
 21
-419.789805
 31
0.0
  0
LINE
  5
3BB
100
AcDbEntity
  8
0
370
    -3
390
0
  6
Continuous
100
AcDbLine
 10
-965.116806
 20
-399.351509
 30
0.0
 11
-967.916219
 21
-395.672488
 31
0.0
  0
LINE
  5
3BC
100
AcDbEntity
  8
0
370
    -3
390
0
  6
Continuous
100
AcDbLine
 10
-908.916219
 20
-421.713945
 30
0.0
 11
-961.933557
 21
-421.713945
 31
0.0
  0
LINE
  5
3BD
100
AcDbEntity
  8
0
370
    -3
390
0
  6
Continuous
100
AcDbLine
 10
-908.916219
 20
-395.672488
 30
0.0
 11
-967.916219
 21
-395.672488
 31
0.0
  0
LINE
  5
3BE
100
AcDbEntity
  8
0
370
    -3
390
0
  6
Continuous
100
AcDbLine
 10
-963.916219
 20
-407.174883
 30
0.0
 11
-963.916219
 21
-415.835137
 31
0.0
  0
LINE
  5
3BF
100
AcDbEntity
  8
0
370
    -3
390
0
  6
Continuous
100
AcDbLine
 10
-908.916219
 20
-400.929335
 30
0.0
 11
-961.933557
 21
-400.929335
 31
0.0
  0
LINE
  5
3C0
100
AcDbEntity
  8
0
370
    -3
390
0
  6
Continuous
100
AcDbLine
 10
-944.916219
 20
-411.04348
 30
0.0
 11
-949.916219
 21
-408.543479
 31
0.0
  0
LINE
  5
3C1
100
AcDbEntity
  8
0
370
    -3
390
0
  6
Continuous
100
AcDbLine
 10
-944.916219
 20
-416.043482
 30
0.0
 11
-944.916219
 21
-411.04348
 31
0.0
  0
LINE
  5
3C2
100
AcDbEntity
  8
0
370
    -3
390
0
  6
Continuous
100
AcDbLine
 10
-949.916219
 20
-418.543483
 30
0.0
 11
-944.916219
 21
-416.043482
 31
0.0
  0
LINE
  5
3C3
100
AcDbEntity
  8
0
370
    -3
390
0
  6
Continuous
100
AcDbLine
 10
-954.916219
 20
-416.043482
 30
0.0
 11
-949.916219
 21
-418.543483
 31
0.0
  0
LINE
  5
3C4
100
AcDbEntity
  8
0
370
    -3
390
0
  6
Continuous
100
AcDbLine
 10
-954.916219
 20
-411.04348
 30
0.0
 11
-954.916219
 21
-416.043482
 31
0.0
  0
LINE
  5
3C5
100
AcDbEntity
  8
0
370
    -3
390
0
  6
Continuous
100
AcDbLine
 10
-949.916219
 20
-408.543479
 30
0.0
 11
-954.916219
 21
-411.04348
 31
0.0
  0
LINE
  5
3C6
100
AcDbEntity
  8
0
370
    -3
390
0
  6
CENTER
100
AcDbLine
 10
-942.642716
 20
-413.543481
 30
0.0
 11
-957.189721
 21
-413.543481
 31
0.0
  0
LINE
  5
3C7
100
AcDbEntity
  8
0
370
    -3
390
0
  6
CENTER
100
AcDbLine
 10
-949.916219
 20
-404.950057
 30
0.0
 11
-949.916219
 21
-421.713945
 31
0.0
  0
ELLIPSE
  5
3C8
100
AcDbEntity
  8
0
370
    -3
390
0
  6
Continuous
100
AcDbEllipse
 10
-949.916219
 20
-413.543481
 30
0.0
 11
5.0
 21
0.0
 31
0.0
210
0.0
220
0.0
230
1.0
 40
0.866
 41
0.0
 42
6.2831853071795862
  0
LINE
  5
3C9
100
AcDbEntity
  8
0
370
    -3
390
0
  6
Continuous
100
AcDbLine
 10
-1029.916219
 20
-447.585839
 30
0.0
 11
-1029.916219
 21
-330.293481
 31
0.0
  0
LINE
  5
3CA
100
AcDbEntity
  8
0
370
    -3
390
0
  6
Continuous
100
AcDbLine
 10
-1029.916219
 20
-213.001122
 30
0.0
 11
-1029.916219
 21
-330.293481
 31
0.0
  0
ARC
  5
3CB
100
AcDbEntity
  8
0
370
    -3
390
0
  6
Continuous
100
AcDbCircle
 10
-1030.957472
 20
-449.29331
 30
0.0
 40
2.0
100
AcDbArc
 50
35.0
 51
89.527267
  0
POINT
  5
3CC
100
AcDbEntity
  8
0
370
    -3
390
0
  6
Continuous
100
AcDbPoint
 10
-972.416219
 20
-330.293481
 30
0.0
  0
ARC
  5
3CD
100
AcDbEntity
  8
0
370
    -3
390
0
  6
Continuous
100
AcDbCircle
 10
-765.516219
 20
-175.093481
 30
0.0
 40
0.6
100
AcDbArc
 50
0.0
 51
90.0
  0
ARC
  5
3CE
100
AcDbEntity
  8
0
370
    -3
390
0
  6
Continuous
100
AcDbCircle
 10
-800.316219
 20
-175.093481
 30
0.0
 40
0.6
100
AcDbArc
 50
90.0
 51
180.0
  0
LINE
  5
3CF
100
AcDbEntity
  8
0
370
    -3
390
0
  6
Continuous
100
AcDbLine
 10
-764.916219
 20
-180.732393
 30
0.0
 11
-764.916219
 21
-175.093481
 31
0.0
  0
LINE
  5
3D0
100
AcDbEntity
  8
0
370
    -3
390
0
  6
Continuous
100
AcDbLine
 10
-800.916219
 20
-180.732393
 30
0.0
 11
-800.916219
 21
-175.093481
 31
0.0
  0
LINE
  5
3D1
100
AcDbEntity
  8
0
370
    -3
390
0
  6
Continuous
100
AcDbLine
 10
-765.516219
 20
-174.493481
 30
0.0
 11
-800.316219
 21
-174.493481
 31
0.0
  0
LINE
  5
3D2
100
AcDbEntity
  8
0
370
    -3
390
0
  6
Continuous
100
AcDbLine
 10
-794.740627
 20
-166.771465
 30
0.0
 11
-795.416219
 21
-174.493481
 31
0.0
  0
LINE
  5
3D3
100
AcDbEntity
  8
0
370
    -3
390
0
  6
Continuous
100
AcDbLine
 10
-771.091807
 20
-166.771465
 30
0.0
 11
-770.416219
 21
-174.493481
 31
0.0
  0
LINE
  5
3D4
100
AcDbEntity
  8
0
370
    -3
390
0
  6
Continuous
100
AcDbLine
 10
-793.345955
 20
-165.493481
 30
0.0
 11
-772.486479
 21
-165.493481
 31
0.0
  0
LINE
  5
3D5
100
AcDbEntity
  8
0
370
    -3
390
0
  6
Continuous
100
AcDbLine
 10
-795.416219
 20
-174.493481
 30
0.0
 11
-770.416219
 21
-174.493481
 31
0.0
  0
LINE
  5
3D6
100
AcDbEntity
  8
0
370
    -3
390
0
  6
Continuous
100
AcDbLine
 10
-793.606451
 20
-165.517929
 30
0.0
 11
-782.916219
 21
-163.493481
 31
0.0
  0
LINE
  5
3D7
100
AcDbEntity
  8
0
370
    -3
390
0
  6
Continuous
100
AcDbLine
 10
-772.225987
 20
-165.517929
 30
0.0
 11
-782.916219
 21
-163.493481
 31
0.0
  0
ARC
  5
3D8
100
AcDbEntity
  8
0
370
    -3
390
0
  6
Continuous
100
AcDbCircle
 10
-793.345955
 20
-166.893481
 30
0.0
 40
1.4
100
AcDbArc
 50
90.0
 51
175.0
  0
ARC
  5
3D9
100
AcDbEntity
  8
0
370
    -3
390
0
  6
Continuous
100
AcDbCircle
 10
-772.486479
 20
-166.893481
 30
0.0
 40
1.4
100
AcDbArc
 50
5.0
 51
90.0
  0
ARC
  5
3DA
100
AcDbEntity
  8
0
370
    -3
390
0
  6
Continuous
100
AcDbCircle
 10
-801.345287
 20
-173.420765
 30
0.0
 40
6.0
100
AcDbArc
 50
355.0
 51
53.523996
  0
ARC
  5
3DB
100
AcDbEntity
  8
0
370
    -3
390
0
  6
Continuous
100
AcDbCircle
 10
-764.487151
 20
-173.420765
 30
0.0
 40
6.0
100
AcDbArc
 50
126.476004
 51
185.0
  0
ARC
  5
3DC
100
AcDbEntity
  8
0
370
    -3
390
0
  6
Continuous
100
AcDbCircle
 10
-782.916219
 20
-148.493481
 30
0.0
 40
25.0
100
AcDbArc
 50
306.476004
 51
233.523996
  0
CIRCLE
  5
3DD
100
AcDbEntity
  8
0
370
    -3
390
0
  6
Continuous
100
AcDbCircle
 10
-782.916219
 20
-148.493481
 30
0.0
 40
15.0
  0
LINE
  5
3DE
100
AcDbEntity
  8
0
370
    -3
390
0
  6
CENTER
100
AcDbLine
 10
-782.916219
 20
-118.493481
 30
0.0
 11
-782.916219
 21
-193.422602
 31
0.0
  0
LINE
  5
3DF
100
AcDbEntity
  8
0
370
    -3
390
0
  6
CENTER
100
AcDbLine
 10
-752.916219
 20
-148.493481
 30
0.0
 11
-812.916219
 21
-148.493481
 31
0.0
  0
ARC
  5
3E0
100
AcDbEntity
  8
0
370
    -3
390
0
  6
Continuous
100
AcDbCircle
 10
-1030.957353
 20
-211.293481
 30
0.0
 40
2.0
100
AcDbArc
 50
270.0
 51
325.0
  0
ARC
  5
3E1
100
AcDbEntity
  8
0
370
    -3
390
0
  6
Continuous
100
AcDbCircle
 10
-1030.916219
 20
-216.293481
 30
0.0
 40
3.0
100
AcDbArc
 50
90.0
 51
180.0
  0
LINE
  5
3E2
100
AcDbEntity
  8
0
370
    -3
390
0
  6
Continuous
100
AcDbLine
 10
-1033.916219
 20
-216.293481
 30
0.0
 11
-1033.916219
 21
-330.293481
 31
0.0
  0
LINE
  5
3E3
100
AcDbEntity
  8
0
370
    -3
390
0
  6
Continuous
100
AcDbLine
 10
-1033.916219
 20
-444.293481
 30
0.0
 11
-1033.916219
 21
-330.293481
 31
0.0
  0
LINE
  5
3E4
100
AcDbEntity
  8
0
370
    -3
390
0
  6
Continuous
100
AcDbLine
 10
-908.916219
 20
-485.793481
 30
0.0
 11
-908.916219
 21
-387.341952
 31
0.0
  0
LINE
  5
3E5
100
AcDbEntity
  8
0
370
    -3
390
0
  6
Continuous
100
AcDbLine
 10
-908.916219
 20
-174.793481
 30
0.0
 11
-908.916219
 21
-195.147729
 31
0.0
  0
ARC
  5
3E6
100
AcDbEntity
  8
0
370
    -3
390
0
  6
Continuous
100
AcDbCircle
 10
-1030.916219
 20
-444.293481
 30
0.0
 40
3.0
100
AcDbArc
 50
180.0
 51
270.0
  0
LINE
  5
3E7
100
AcDbEntity
  8
0
370
    -3
390
0
  6
Continuous
100
AcDbLine
 10
-622.916219
 20
-201.093481
 30
0.0
 11
-622.916219
 21
-198.293481
 31
0.0
  0
LINE
  5
3E8
100
AcDbEntity
  8
0
370
    -3
390
0
  6
Continuous
100
AcDbLine
 10
-622.916219
 20
-330.293481
 30
0.0
 11
-622.916219
 21
-185.860495
 31
0.0
  0
LINE
  5
3E9
100
AcDbEntity
  8
0
370
    -3
390
0
  6
Continuous
100
AcDbLine
 10
-622.916219
 20
-419.843479
 30
0.0
 11
-609.916219
 21
-419.843479
 31
0.0
  0
LINE
  5
3EA
100
AcDbEntity
  8
0
370
    -3
390
0
  6
Continuous
100
AcDbLine
 10
-622.916219
 20
-474.805493
 30
0.0
 11
-622.916219
 21
-330.293481
 31
0.0
  0
ARC
  5
3EB
100
AcDbEntity
  8
0
370
    -3
390
0
  6
Continuous
100
AcDbCircle
 10
-492.916219
 20
-363.293481
 30
0.0
 40
3.0
100
AcDbArc
 50
90.0
 51
180.0
  0
LINE
  5
3EC
100
AcDbEntity
  8
0
370
    -3
390
0
  6
Continuous
100
AcDbLine
 10
-495.916219
 20
-383.729463
 30
0.0
 11
-495.916219
 21
-363.293481
 31
0.0
  0
LINE
  5
3ED
100
AcDbEntity
  8
0
370
    -3
390
0
  6
Continuous
100
AcDbLine
 10
-504.562592
 20
-436.446693
 30
0.0
 11
-511.916219
 21
-436.446693
 31
0.0
  0
LINE
  5
3EE
100
AcDbEntity
  8
0
370
    -3
390
0
  6
Continuous
100
AcDbLine
 10
-492.916219
 20
-425.573257
 30
0.0
 11
-511.916219
 21
-425.573257
 31
0.0
  0
LINE
  5
3EF
100
AcDbEntity
  8
0
370
    -3
390
0
  6
Continuous
100
AcDbLine
 10
-511.916219
 20
-439.958145
 30
0.0
 11
-511.916219
 21
-329.979772
 31
0.0
  0
LINE
  5
3F0
100
AcDbEntity
  8
0
370
    -3
390
0
  6
Continuous
100
AcDbLine
 10
-492.916219
 20
-430.885399
 30
0.0
 11
-492.916219
 21
-330.293481
 31
0.0
  0
ARC
  5
3F1
100
AcDbEntity
  8
0
370
    -3
390
0
  6
Continuous
100
AcDbCircle
 10
-508.916219
 20
-178.336251
 30
0.0
 40
3.0
100
AcDbArc
 50
90.0
 51
180.0
  0
ARC
  5
3F2
100
AcDbEntity
  8
0
370
    -3
390
0
  6
Continuous
100
AcDbCircle
 10
-518.93607
 20
-158.39348
 30
0.0
 40
2.599999
100
AcDbArc
 50
5.000172
 51
82.933883
  0
LINE
  5
3F3
100
AcDbEntity
  8
0
370
    -3
390
0
  6
Continuous
100
AcDbLine
 10
-516.212729
 20
-159.689618
 30
0.0
 11
-516.345962
 21
-158.166832
 31
0.0
  0
LINE
  5
3F4
100
AcDbEntity
  8
0
370
    -3
390
0
  6
Continuous
100
AcDbLine
 10
-532.916219
 20
-153.79348
 30
0.0
 11
-518.359837
 21
-155.849057
 31
0.0
  0
ARC
  5
3F5
100
AcDbEntity
  8
0
370
    -3
390
0
  6
Continuous
100
AcDbCircle
 10
-532.916219
 20
-133.793481
 30
0.0
 40
20.0
100
AcDbArc
 50
270.0
 51
90.0
  0
ARC
  5
3F6
100
AcDbEntity
  8
0
370
    -3
390
0
  6
Continuous
100
AcDbCircle
 10
-532.916219
 20
-133.793481
 30
0.0
 40
36.0
100
AcDbArc
 50
328.409849
 51
90.0
  0
ARC
  5
3F7
100
AcDbEntity
  8
0
370
    -3
390
0
  6
Continuous
100
AcDbCircle
 10
-508.916219
 20
-155.651702
 30
0.0
 40
3.0
100
AcDbArc
 50
90.0
 51
180.0
  0
LINE
  5
3F8
100
AcDbEntity
  8
0
370
    -3
390
0
  6
Continuous
100
AcDbLine
 10
-511.916219
 20
-383.729463
 30
0.0
 11
-495.916219
 21
-383.729463
 31
0.0
  0
LINE
  5
3F9
100
AcDbEntity
  8
0
370
    -3
390
0
  6
Continuous
100
AcDbLine
 10
-511.916219
 20
-360.293481
 30
0.0
 11
-492.916219
 21
-360.293481
 31
0.0
  0
LINE
  5
3FA
100
AcDbEntity
  8
0
370
    -3
390
0
  6
Continuous
100
AcDbLine
 10
-492.916219
 20
-347.293481
 30
0.0
 11
-511.916219
 21
-347.293481
 31
0.0
  0
LINE
  5
3FB
100
AcDbEntity
  8
0
370
    -3
390
0
  6
Continuous
100
AcDbLine
 10
-492.916219
 20
-324.950335
 30
0.0
 11
-511.916219
 21
-324.950335
 31
0.0
  0
LINE
  5
3FC
100
AcDbEntity
  8
0
370
    -3
390
0
  6
Continuous
100
AcDbLine
 10
-492.916219
 20
-313.636626
 30
0.0
 11
-511.916219
 21
-313.636626
 31
0.0
  0
LINE
  5
3FD
100
AcDbEntity
  8
0
370
    -3
390
0
  6
Continuous
100
AcDbLine
 10
-492.916219
 20
-311.293481
 30
0.0
 11
-511.916219
 21
-311.293481
 31
0.0
  0
LINE
  5
3FE
100
AcDbEntity
  8
0
370
    -3
390
0
  6
Continuous
100
AcDbLine
 10
-492.916219
 20
-235.013704
 30
0.0
 11
-511.916219
 21
-235.013704
 31
0.0
  0
LINE
  5
3FF
100
AcDbEntity
  8
0
370
    -3
390
0
  6
Continuous
100
AcDbLine
 10
-492.916219
 20
-224.140268
 30
0.0
 11
-511.916219
 21
-224.140268
 31
0.0
  0
LINE
  5
400
100
AcDbEntity
  8
0
370
    -3
390
0
  6
Continuous
100
AcDbLine
 10
-492.916219
 20
-175.336251
 30
0.0
 11
-508.916219
 21
-175.336251
 31
0.0
  0
LINE
  5
401
100
AcDbEntity
  8
0
370
    -3
390
0
  6
Continuous
100
AcDbLine
 10
-492.916219
 20
-152.651702
 30
0.0
 11
-508.916219
 21
-152.651702
 31
0.0
  0
LINE
  5
402
100
AcDbEntity
  8
0
370
    -3
390
0
  6
CENTER
100
AcDbLine
 10
-590.535082
 20
-401.793482
 30
0.0
 11
-631.198254
 21
-401.793482
 31
0.0
  0
ARC
  5
403
100
AcDbEntity
  8
0
370
    -3
390
0
  6
Continuous
100
AcDbCircle
 10
-609.916219
 20
-418.004785
 30
0.0
 40
2.0
100
AcDbArc
 50
270.0
 51
0.0
  0
ARC
  5
404
100
AcDbEntity
  8
0
370
    -3
390
0
  6
Continuous
100
AcDbCircle
 10
-609.916219
 20
-399.329678
 30
0.0
 40
2.0
100
AcDbArc
 50
270.0
 51
0.0
  0
ARC
  5
405
100
AcDbEntity
  8
0
370
    -3
390
0
  6
Continuous
100
AcDbCircle
 10
-609.916219
 20
-472.802252
 30
0.0
 40
2.0
100
AcDbArc
 50
270.0
 51
0.0
  0
LINE
  5
406
100
AcDbEntity
  8
0
370
    -3
390
0
  6
Continuous
100
AcDbLine
 10
-622.916219
 20
-474.802252
 30
0.0
 11
-609.916219
 21
-474.802252
 31
0.0
  0
ARC
  5
407
100
AcDbEntity
  8
0
370
    -3
390
0
  6
Continuous
100
AcDbCircle
 10
-601.916219
 20
-461.293481
 30
0.0
 40
6.0
100
AcDbArc
 50
90.0
 51
180.0
  0
ARC
  5
408
100
AcDbEntity
  8
0
370
    -3
390
0
  6
Continuous
100
AcDbCircle
 10
-609.916219
 20
-461.793484
 30
0.0
 40
2.0
100
AcDbArc
 50
270.0
 51
0.0
  0
LINE
  5
409
100
AcDbEntity
  8
0
370
    -3
390
0
  6
Continuous
100
AcDbLine
 10
-607.916219
 20
-330.293481
 30
0.0
 11
-607.916219
 21
-472.802252
 31
0.0
  0
LINE
  5
40A
100
AcDbEntity
  8
0
370
    -3
390
0
  6
Continuous
100
AcDbLine
 10
-609.916219
 20
-463.793484
 30
0.0
 11
-622.916219
 21
-463.793484
 31
0.0
  0
LINE
  5
40B
100
AcDbEntity
  8
0
370
    -3
390
0
  6
Continuous
100
AcDbLine
 10
-601.916219
 20
-455.293481
 30
0.0
 11
-544.031232
 21
-455.293481
 31
0.0
  0
ARC
  5
40C
100
AcDbEntity
  8
0
370
    -3
390
0
  6
Continuous
100
AcDbCircle
 10
-609.916219
 20
-198.25518
 30
0.0
 40
2.0
100
AcDbArc
 50
0.0
 51
90.0
  0
ARC
  5
40D
100
AcDbEntity
  8
0
370
    -3
390
0
  6
Continuous
100
AcDbCircle
 10
-609.916219
 20
-188.038405
 30
0.0
 40
2.0
100
AcDbArc
 50
0.0
 51
90.0
  0
LINE
  5
40E
100
AcDbEntity
  8
0
370
    -3
390
0
  6
Continuous
100
AcDbLine
 10
-622.916219
 20
-420.004785
 30
0.0
 11
-609.916219
 21
-420.004785
 31
0.0
  0
LINE
  5
40F
100
AcDbEntity
  8
0
370
    -3
390
0
  6
Continuous
100
AcDbLine
 10
-609.916219
 20
-401.329678
 30
0.0
 11
-622.916219
 21
-401.329678
 31
0.0
  0
LINE
  5
410
100
AcDbEntity
  8
0
370
    -3
390
0
  6
Continuous
100
AcDbLine
 10
-607.916219
 20
-379.909514
 30
0.0
 11
-622.916219
 21
-379.909514
 31
0.0
  0
LINE
  5
411
100
AcDbEntity
  8
0
370
    -3
390
0
  6
Continuous
100
AcDbLine
 10
-622.916219
 20
-225.355998
 30
0.0
 11
-607.916219
 21
-225.355998
 31
0.0
  0
LINE
  5
412
100
AcDbEntity
  8
0
370
    -3
390
0
  6
Continuous
100
AcDbLine
 10
-622.916219
 20
-196.25518
 30
0.0
 11
-609.916219
 21
-196.25518
 31
0.0
  0
LINE
  5
413
100
AcDbEntity
  8
0
370
    -3
390
0
  6
Continuous
100
AcDbLine
 10
-622.916219
 20
-186.038405
 30
0.0
 11
-609.916219
 21
-186.038405
 31
0.0
  0
LINE
  5
414
100
AcDbEntity
  8
0
370
    -3
390
0
  6
Continuous
100
AcDbLine
 10
-592.916252
 20
-205.293481
 30
0.0
 11
-517.916219
 21
-205.293481
 31
0.0
  0
ARC
  5
415
100
AcDbEntity
  8
0
370
    -3
390
0
  6
Continuous
100
AcDbCircle
 10
-517.916219
 20
-199.293481
 30
0.0
 40
6.0
100
AcDbArc
 50
270.0
 51
0.0
  0
ARC
  5
416
100
AcDbEntity
  8
0
370
    -3
390
0
  6
Continuous
100
AcDbCircle
 10
-555.916219
 20
-202.293481
 30
0.0
 40
3.0
100
AcDbArc
 50
270.0
 51
0.0
  0
LINE
  5
417
100
AcDbEntity
  8
0
370
    -3
390
0
  6
Continuous
100
AcDbLine
 10
-622.916219
 20
-474.802252
 30
0.0
 11
-622.916219
 21
-186.038405
 31
0.0
  0
LINE
  5
418
100
AcDbEntity
  8
0
370
    -3
390
0
  6
CENTER
100
AcDbLine
 10
-590.535082
 20
-206.451849
 30
0.0
 11
-631.198254
 21
-206.451849
 31
0.0
  0
LINE
  5
419
100
AcDbEntity
  8
0
370
    -3
390
0
  6
Continuous
100
AcDbLine
 10
-607.916219
 20
-330.293481
 30
0.0
 11
-607.916219
 21
-188.038405
 31
0.0
  0
POINT
  5
41A
100
AcDbEntity
  8
0
370
    -3
390
0
  6
Continuous
100
AcDbPoint
 10
-508.916219
 20
-330.293481
 30
0.0
  0
ARC
  5
41B
100
AcDbEntity
  8
0
370
    -3
390
0
  6
Continuous
100
AcDbCircle
 10
-554.32549
 20
-167.581692
 30
0.0
 40
4.0
100
AcDbArc
 50
354.999792
 51
57.640222
  0
LINE
  5
41C
100
AcDbEntity
  8
0
370
    -3
390
0
  6
Continuous
100
AcDbLine
 10
-532.916219
 20
-153.79348
 30
0.0
 11
-547.472601
 21
-155.849057
 31
0.0
  0
LINE
  5
41D
100
AcDbEntity
  8
0
370
    -3
390
0
  6
Continuous
100
AcDbLine
 10
-550.416225
 20
-168.793443
 30
0.0
 11
-549.486476
 21
-158.166832
 31
0.0
  0
ARC
  5
41E
100
AcDbEntity
  8
0
370
    -3
390
0
  6
Continuous
100
AcDbCircle
 10
-532.916219
 20
-133.793481
 30
0.0
 40
20.0
100
AcDbArc
 50
90.0
 51
270.0
  0
LINE
  5
41F
100
AcDbEntity
  8
0
370
    -3
390
0
  6
CENTER
100
AcDbLine
 10
-532.916219
 20
-94.650877
 30
0.0
 11
-532.916219
 21
-202.408955
 31
0.0
  0
LINE
  5
420
100
AcDbEntity
  8
0
370
    -3
390
0
  6
CENTER
100
AcDbLine
 10
-494.301886
 20
-133.793481
 30
0.0
 11
-574.703026
 21
-133.793481
 31
0.0
  0
ARC
  5
421
100
AcDbEntity
  8
0
370
    -3
390
0
  6
Continuous
100
AcDbCircle
 10
-532.916219
 20
-133.793481
 30
0.0
 40
36.0
100
AcDbArc
 50
90.0
 51
237.640241
  0
ARC
  5
422
100
AcDbEntity
  8
0
370
    -3
390
0
  6
Continuous
100
AcDbCircle
 10
-546.896368
 20
-158.39348
 30
0.0
 40
2.599999
100
AcDbArc
 50
97.066117
 51
174.999828
  0
LINE
  5
423
100
AcDbEntity
  8
0
370
    -3
390
0
  6
Continuous
100
AcDbLine
 10
-532.916219
 20
-153.79348
 30
0.0
 11
-531.916189
 21
-153.934699
 31
0.0
  0
LINE
  5
424
100
AcDbEntity
  8
0
370
    -3
390
0
  6
Continuous
100
AcDbLine
 10
-549.916219
 20
-168.793481
 30
0.0
 11
-531.916187
 21
-168.793481
 31
0.0
  0
LINE
  5
425
100
AcDbEntity
  8
0
370
    -3
390
0
  6
Continuous
100
AcDbLine
 10
-492.916219
 20
-152.651702
 30
0.0
 11
-492.916219
 21
-330.293481
 31
0.0
  0
LINE
  5
426
100
AcDbEntity
  8
0
370
    -3
390
0
  6
Continuous
100
AcDbLine
 10
-511.916219
 20
-155.651702
 30
0.0
 11
-511.916219
 21
-330.607189
 31
0.0
  0
LINE
  5
427
100
AcDbEntity
  8
0
370
    -3
390
0
  6
Continuous
100
AcDbLine
 10
-552.916219
 20
-171.793481
 30
0.0
 11
-552.916219
 21
-202.293481
 31
0.0
  0
LINE
  5
428
100
AcDbEntity
  8
0
370
    -3
390
0
  6
CENTER
100
AcDbLine
 10
-534.469706
 20
-171.689618
 30
0.0
 11
-484.481176
 21
-171.689618
 31
0.0
  0
ARC
  5
429
100
AcDbEntity
  8
0
370
    -3
390
0
  6
Continuous
100
AcDbCircle
 10
-549.916219
 20
-171.793481
 30
0.0
 40
3.0
100
AcDbArc
 50
90.0
 51
180.0
  0
LINE
  5
42A
100
AcDbEntity
  8
0
370
    -3
390
0
  6
CENTER
100
AcDbLine
 10
448.831931
 20
-30.079011
 30
0.0
 11
448.831931
 21
-551.372447
 31
0.0
  0
POINT
  5
42B
100
AcDbEntity
  8
0
370
    -3
390
0
  6
Continuous
100
AcDbPoint
 10
-470.416219
 20
539.684144
 30
0.0
  0
LINE
  5
42C
100
AcDbEntity
  8
0
370
    -3
390
0
  6
Continuous
100
AcDbLine
 10
-470.416219
 20
553.684144
 30
0.0
 11
-470.416219
 21
525.684144
 31
0.0
  0
LINE
  5
42D
100
AcDbEntity
  8
0
370
    -3
390
0
  6
Continuous
100
AcDbLine
 10
-474.416219
 20
525.684144
 30
0.0
 11
-474.416219
 21
553.684144
 31
0.0
  0
LINE
  5
42E
100
AcDbEntity
  8
0
370
    -3
390
0
  6
Continuous
100
AcDbLine
 10
-490.416181
 20
529.415788
 30
0.0
 11
-490.416196
 21
549.951723
 31
0.0
  0
LINE
  5
42F
100
AcDbEntity
  8
0
370
    -3
390
0
  6
Continuous
100
AcDbLine
 10
-474.416219
 20
551.684144
 30
0.0
 11
-489.416204
 21
551.684144
 31
0.0
  0
LINE
  5
430
100
AcDbEntity
  8
0
370
    -3
390
0
  6
Continuous
100
AcDbLine
 10
-474.416219
 20
527.684144
 30
0.0
 11
-489.416188
 21
527.684144
 31
0.0
  0
LINE
  5
431
100
AcDbEntity
  8
0
370
    -3
390
0
  6
Continuous
100
AcDbLine
 10
-470.416219
 20
553.684144
 30
0.0
 11
-474.416219
 21
553.684144
 31
0.0
  0
LINE
  5
432
100
AcDbEntity
  8
0
370
    -3
390
0
  6
Continuous
100
AcDbLine
 10
-470.416219
 20
525.684144
 30
0.0
 11
-474.416219
 21
525.684144
 31
0.0
  0
LINE
  5
433
100
AcDbEntity
  8
0
370
    -3
390
0
  6
Continuous
100
AcDbLine
 10
-489.4162
 20
551.684141
 30
0.0
 11
-490.416185
 21
549.951719
 31
0.0
  0
LINE
  5
434
100
AcDbEntity
  8
0
370
    -3
390
0
  6
Continuous
100
AcDbLine
 10
-489.416192
 20
527.684144
 30
0.0
 11
-490.416177
 21
529.415787
 31
0.0
  0
LINE
  5
435
100
AcDbEntity
  8
0
370
    -3
390
0
  6
Continuous
100
AcDbLine
 10
-489.416204
 20
551.684144
 30
0.0
 11
-489.416204
 21
527.684144
 31
0.0
  0
LINE
  5
436
100
AcDbEntity
  8
0
370
    -3
390
0
  6
Continuous
100
AcDbLine
 10
-470.416218
 20
539.866184
 30
0.0
 11
-474.416218
 21
538.410306
 31
0.0
  0
LINE
  5
437
100
AcDbEntity
  8
0
370
    -3
390
0
  6
Continuous
100
AcDbLine
 10
-474.416219
 20
539.461541
 30
0.0
 11
-470.416218
 21
540.917418
 31
0.0
  0
POINT
  5
438
100
AcDbEntity
  8
0
370
    -3
390
0
  6
Continuous
100
AcDbPoint
 10
-470.416219
 20
591.684144
 30
0.0
  0
LINE
  5
439
100
AcDbEntity
  8
0
370
    -3
390
0
  6
Continuous
100
AcDbLine
 10
-470.416219
 20
605.684144
 30
0.0
 11
-470.416219
 21
577.684144
 31
0.0
  0
LINE
  5
43A
100
AcDbEntity
  8
0
370
    -3
390
0
  6
Continuous
100
AcDbLine
 10
-474.416219
 20
577.684144
 30
0.0
 11
-474.416219
 21
605.684144
 31
0.0
  0
LINE
  5
43B
100
AcDbEntity
  8
0
370
    -3
390
0
  6
Continuous
100
AcDbLine
 10
-490.416181
 20
581.415788
 30
0.0
 11
-490.416196
 21
601.951723
 31
0.0
  0
LINE
  5
43C
100
AcDbEntity
  8
0
370
    -3
390
0
  6
Continuous
100
AcDbLine
 10
-474.416219
 20
603.684144
 30
0.0
 11
-489.416204
 21
603.684144
 31
0.0
  0
LINE
  5
43D
100
AcDbEntity
  8
0
370
    -3
390
0
  6
Continuous
100
AcDbLine
 10
-474.416219
 20
579.684144
 30
0.0
 11
-489.416188
 21
579.684144
 31
0.0
  0
LINE
  5
43E
100
AcDbEntity
  8
0
370
    -3
390
0
  6
Continuous
100
AcDbLine
 10
-470.416219
 20
605.684144
 30
0.0
 11
-474.416219
 21
605.684144
 31
0.0
  0
LINE
  5
43F
100
AcDbEntity
  8
0
370
    -3
390
0
  6
Continuous
100
AcDbLine
 10
-470.416219
 20
577.684144
 30
0.0
 11
-474.416219
 21
577.684144
 31
0.0
  0
LINE
  5
440
100
AcDbEntity
  8
0
370
    -3
390
0
  6
Continuous
100
AcDbLine
 10
-489.4162
 20
603.684141
 30
0.0
 11
-490.416185
 21
601.951719
 31
0.0
  0
LINE
  5
441
100
AcDbEntity
  8
0
370
    -3
390
0
  6
Continuous
100
AcDbLine
 10
-489.416192
 20
579.684144
 30
0.0
 11
-490.416177
 21
581.415787
 31
0.0
  0
LINE
  5
442
100
AcDbEntity
  8
0
370
    -3
390
0
  6
Continuous
100
AcDbLine
 10
-489.416204
 20
603.684144
 30
0.0
 11
-489.416204
 21
579.684144
 31
0.0
  0
LINE
  5
443
100
AcDbEntity
  8
0
370
    -3
390
0
  6
Continuous
100
AcDbLine
 10
-470.416218
 20
591.866184
 30
0.0
 11
-474.416218
 21
590.410306
 31
0.0
  0
LINE
  5
444
100
AcDbEntity
  8
0
370
    -3
390
0
  6
Continuous
100
AcDbLine
 10
-474.416219
 20
591.461541
 30
0.0
 11
-470.416218
 21
592.917418
 31
0.0
  0
POINT
  5
445
100
AcDbEntity
  8
0
370
    -3
390
0
  6
Continuous
100
AcDbPoint
 10
-470.416219
 20
449.684144
 30
0.0
  0
LINE
  5
446
100
AcDbEntity
  8
0
370
    -3
390
0
  6
Continuous
100
AcDbLine
 10
-470.416219
 20
463.684144
 30
0.0
 11
-470.416219
 21
435.684144
 31
0.0
  0
LINE
  5
447
100
AcDbEntity
  8
0
370
    -3
390
0
  6
Continuous
100
AcDbLine
 10
-474.416219
 20
435.684144
 30
0.0
 11
-474.416219
 21
463.684144
 31
0.0
  0
LINE
  5
448
100
AcDbEntity
  8
0
370
    -3
390
0
  6
Continuous
100
AcDbLine
 10
-490.416181
 20
439.415788
 30
0.0
 11
-490.416196
 21
459.951723
 31
0.0
  0
LINE
  5
449
100
AcDbEntity
  8
0
370
    -3
390
0
  6
Continuous
100
AcDbLine
 10
-474.416219
 20
461.684144
 30
0.0
 11
-489.416204
 21
461.684144
 31
0.0
  0
LINE
  5
44A
100
AcDbEntity
  8
0
370
    -3
390
0
  6
Continuous
100
AcDbLine
 10
-474.416219
 20
437.684144
 30
0.0
 11
-489.416188
 21
437.684144
 31
0.0
  0
LINE
  5
44B
100
AcDbEntity
  8
0
370
    -3
390
0
  6
Continuous
100
AcDbLine
 10
-470.416219
 20
463.684144
 30
0.0
 11
-474.416219
 21
463.684144
 31
0.0
  0
LINE
  5
44C
100
AcDbEntity
  8
0
370
    -3
390
0
  6
Continuous
100
AcDbLine
 10
-470.416219
 20
435.684144
 30
0.0
 11
-474.416219
 21
435.684144
 31
0.0
  0
LINE
  5
44D
100
AcDbEntity
  8
0
370
    -3
390
0
  6
Continuous
100
AcDbLine
 10
-489.4162
 20
461.684141
 30
0.0
 11
-490.416185
 21
459.951719
 31
0.0
  0
LINE
  5
44E
100
AcDbEntity
  8
0
370
    -3
390
0
  6
Continuous
100
AcDbLine
 10
-489.416192
 20
437.684144
 30
0.0
 11
-490.416177
 21
439.415787
 31
0.0
  0
LINE
  5
44F
100
AcDbEntity
  8
0
370
    -3
390
0
  6
Continuous
100
AcDbLine
 10
-489.416204
 20
461.684144
 30
0.0
 11
-489.416204
 21
437.684144
 31
0.0
  0
LINE
  5
450
100
AcDbEntity
  8
0
370
    -3
390
0
  6
Continuous
100
AcDbLine
 10
-470.416218
 20
449.866184
 30
0.0
 11
-474.416218
 21
448.410306
 31
0.0
  0
LINE
  5
451
100
AcDbEntity
  8
0
370
    -3
390
0
  6
Continuous
100
AcDbLine
 10
-474.416219
 20
449.461541
 30
0.0
 11
-470.416218
 21
450.917418
 31
0.0
  0
POINT
  5
452
100
AcDbEntity
  8
0
370
    -3
390
0
  6
Continuous
100
AcDbPoint
 10
-470.416219
 20
289.684144
 30
0.0
  0
LINE
  5
453
100
AcDbEntity
  8
0
370
    -3
390
0
  6
Continuous
100
AcDbLine
 10
-470.416219
 20
275.684144
 30
0.0
 11
-470.416219
 21
303.684144
 31
0.0
  0
LINE
  5
454
100
AcDbEntity
  8
0
370
    -3
390
0
  6
Continuous
100
AcDbLine
 10
-474.416219
 20
303.684144
 30
0.0
 11
-474.416219
 21
275.684144
 31
0.0
  0
LINE
  5
455
100
AcDbEntity
  8
0
370
    -3
390
0
  6
Continuous
100
AcDbLine
 10
-490.416181
 20
299.9525
 30
0.0
 11
-490.416196
 21
279.416564
 31
0.0
  0
LINE
  5
456
100
AcDbEntity
  8
0
370
    -3
390
0
  6
Continuous
100
AcDbLine
 10
-474.416219
 20
277.684144
 30
0.0
 11
-489.416204
 21
277.684144
 31
0.0
  0
LINE
  5
457
100
AcDbEntity
  8
0
370
    -3
390
0
  6
Continuous
100
AcDbLine
 10
-474.416219
 20
301.684144
 30
0.0
 11
-489.416188
 21
301.684144
 31
0.0
  0
LINE
  5
458
100
AcDbEntity
  8
0
370
    -3
390
0
  6
Continuous
100
AcDbLine
 10
-470.416219
 20
275.684144
 30
0.0
 11
-474.416219
 21
275.684144
 31
0.0
  0
LINE
  5
459
100
AcDbEntity
  8
0
370
    -3
390
0
  6
Continuous
100
AcDbLine
 10
-470.416219
 20
303.684144
 30
0.0
 11
-474.416219
 21
303.684144
 31
0.0
  0
LINE
  5
45A
100
AcDbEntity
  8
0
370
    -3
390
0
  6
Continuous
100
AcDbLine
 10
-489.4162
 20
277.684146
 30
0.0
 11
-490.416185
 21
279.416568
 31
0.0
  0
LINE
  5
45B
100
AcDbEntity
  8
0
370
    -3
390
0
  6
Continuous
100
AcDbLine
 10
-489.416192
 20
301.684144
 30
0.0
 11
-490.416177
 21
299.9525
 31
0.0
  0
LINE
  5
45C
100
AcDbEntity
  8
0
370
    -3
390
0
  6
Continuous
100
AcDbLine
 10
-489.416204
 20
277.684144
 30
0.0
 11
-489.416204
 21
301.684144
 31
0.0
  0
LINE
  5
45D
100
AcDbEntity
  8
0
370
    -3
390
0
  6
Continuous
100
AcDbLine
 10
-470.416218
 20
289.502103
 30
0.0
 11
-474.416218
 21
290.957981
 31
0.0
  0
LINE
  5
45E
100
AcDbEntity
  8
0
370
    -3
390
0
  6
Continuous
100
AcDbLine
 10
-474.416219
 20
289.906746
 30
0.0
 11
-470.416218
 21
288.450869
 31
0.0
  0
POINT
  5
45F
100
AcDbEntity
  8
0
370
    -3
390
0
  6
Continuous
100
AcDbPoint
 10
-470.416219
 20
147.684144
 30
0.0
  0
LINE
  5
460
100
AcDbEntity
  8
0
370
    -3
390
0
  6
Continuous
100
AcDbLine
 10
-470.416219
 20
133.684144
 30
0.0
 11
-470.416219
 21
161.684144
 31
0.0
  0
LINE
  5
461
100
AcDbEntity
  8
0
370
    -3
390
0
  6
Continuous
100
AcDbLine
 10
-474.416219
 20
161.684144
 30
0.0
 11
-474.416219
 21
133.684144
 31
0.0
  0
LINE
  5
462
100
AcDbEntity
  8
0
370
    -3
390
0
  6
Continuous
100
AcDbLine
 10
-490.416181
 20
157.9525
 30
0.0
 11
-490.416196
 21
137.416564
 31
0.0
  0
LINE
  5
463
100
AcDbEntity
  8
0
370
    -3
390
0
  6
Continuous
100
AcDbLine
 10
-474.416219
 20
135.684144
 30
0.0
 11
-489.416204
 21
135.684144
 31
0.0
  0
LINE
  5
464
100
AcDbEntity
  8
0
370
    -3
390
0
  6
Continuous
100
AcDbLine
 10
-474.416219
 20
159.684144
 30
0.0
 11
-489.416188
 21
159.684144
 31
0.0
  0
LINE
  5
465
100
AcDbEntity
  8
0
370
    -3
390
0
  6
Continuous
100
AcDbLine
 10
-470.416219
 20
133.684144
 30
0.0
 11
-474.416219
 21
133.684144
 31
0.0
  0
LINE
  5
466
100
AcDbEntity
  8
0
370
    -3
390
0
  6
Continuous
100
AcDbLine
 10
-470.416219
 20
161.684144
 30
0.0
 11
-474.416219
 21
161.684144
 31
0.0
  0
LINE
  5
467
100
AcDbEntity
  8
0
370
    -3
390
0
  6
Continuous
100
AcDbLine
 10
-489.4162
 20
135.684146
 30
0.0
 11
-490.416185
 21
137.416568
 31
0.0
  0
LINE
  5
468
100
AcDbEntity
  8
0
370
    -3
390
0
  6
Continuous
100
AcDbLine
 10
-489.416192
 20
159.684144
 30
0.0
 11
-490.416177
 21
157.9525
 31
0.0
  0
LINE
  5
469
100
AcDbEntity
  8
0
370
    -3
390
0
  6
Continuous
100
AcDbLine
 10
-489.416204
 20
135.684144
 30
0.0
 11
-489.416204
 21
159.684144
 31
0.0
  0
LINE
  5
46A
100
AcDbEntity
  8
0
370
    -3
390
0
  6
Continuous
100
AcDbLine
 10
-470.416218
 20
147.502103
 30
0.0
 11
-474.416218
 21
148.957981
 31
0.0
  0
LINE
  5
46B
100
AcDbEntity
  8
0
370
    -3
390
0
  6
Continuous
100
AcDbLine
 10
-474.416219
 20
147.906746
 30
0.0
 11
-470.416218
 21
146.450869
 31
0.0
  0
POINT
  5
46C
100
AcDbEntity
  8
0
370
    -3
390
0
  6
Continuous
100
AcDbPoint
 10
-470.416219
 20
199.684144
 30
0.0
  0
LINE
  5
46D
100
AcDbEntity
  8
0
370
    -3
390
0
  6
Continuous
100
AcDbLine
 10
-470.416219
 20
185.684144
 30
0.0
 11
-470.416219
 21
213.684144
 31
0.0
  0
LINE
  5
46E
100
AcDbEntity
  8
0
370
    -3
390
0
  6
Continuous
100
AcDbLine
 10
-474.416219
 20
213.684144
 30
0.0
 11
-474.416219
 21
185.684144
 31
0.0
  0
LINE
  5
46F
100
AcDbEntity
  8
0
370
    -3
390
0
  6
Continuous
100
AcDbLine
 10
-490.416181
 20
209.9525
 30
0.0
 11
-490.416196
 21
189.416564
 31
0.0
  0
LINE
  5
470
100
AcDbEntity
  8
0
370
    -3
390
0
  6
Continuous
100
AcDbLine
 10
-474.416219
 20
187.684144
 30
0.0
 11
-489.416204
 21
187.684144
 31
0.0
  0
LINE
  5
471
100
AcDbEntity
  8
0
370
    -3
390
0
  6
Continuous
100
AcDbLine
 10
-474.416219
 20
211.684144
 30
0.0
 11
-489.416188
 21
211.684144
 31
0.0
  0
LINE
  5
472
100
AcDbEntity
  8
0
370
    -3
390
0
  6
Continuous
100
AcDbLine
 10
-470.416219
 20
185.684144
 30
0.0
 11
-474.416219
 21
185.684144
 31
0.0
  0
LINE
  5
473
100
AcDbEntity
  8
0
370
    -3
390
0
  6
Continuous
100
AcDbLine
 10
-470.416219
 20
213.684144
 30
0.0
 11
-474.416219
 21
213.684144
 31
0.0
  0
LINE
  5
474
100
AcDbEntity
  8
0
370
    -3
390
0
  6
Continuous
100
AcDbLine
 10
-489.4162
 20
187.684146
 30
0.0
 11
-490.416185
 21
189.416568
 31
0.0
  0
LINE
  5
475
100
AcDbEntity
  8
0
370
    -3
390
0
  6
Continuous
100
AcDbLine
 10
-489.416192
 20
211.684144
 30
0.0
 11
-490.416177
 21
209.9525
 31
0.0
  0
LINE
  5
476
100
AcDbEntity
  8
0
370
    -3
390
0
  6
Continuous
100
AcDbLine
 10
-489.416204
 20
187.684144
 30
0.0
 11
-489.416204
 21
211.684144
 31
0.0
  0
LINE
  5
477
100
AcDbEntity
  8
0
370
    -3
390
0
  6
Continuous
100
AcDbLine
 10
-470.416218
 20
199.502103
 30
0.0
 11
-474.416218
 21
200.957981
 31
0.0
  0
LINE
  5
478
100
AcDbEntity
  8
0
370
    -3
390
0
  6
Continuous
100
AcDbLine
 10
-474.416219
 20
199.906746
 30
0.0
 11
-470.416218
 21
198.450869
 31
0.0
  0
LINE
  5
479
100
AcDbEntity
  8
0
370
    -3
390
0
  6
Continuous
100
AcDbLine
 10
-406.583395
 20
188.684144
 30
0.0
 11
-256.416219
 21
188.684144
 31
0.0
  0
ARC
  5
47A
100
AcDbEntity
  8
0
370
    -3
390
0
  6
Continuous
100
AcDbCircle
 10
-271.416219
 20
196.684144
 30
0.0
 40
8.0
100
AcDbArc
 50
270.0
 51
0.0
  0
ARC
  5
47B
100
AcDbEntity
  8
0
370
    -3
390
0
  6
Continuous
100
AcDbCircle
 10
-256.416219
 20
221.684144
 30
0.0
 40
33.0
100
AcDbArc
 50
270.0
 51
0.0
  0
ARC
  5
47C
100
AcDbEntity
  8
0
370
    -3
390
0
  6
Continuous
100
AcDbCircle
 10
-234.416219
 20
358.684144
 30
0.0
 40
6.0
100
AcDbArc
 50
0.0
 51
90.0
  0
LINE
  5
47D
100
AcDbEntity
  8
0
370
    -3
390
0
  6
Continuous
100
AcDbLine
 10
-228.416219
 20
358.684144
 30
0.0
 11
-228.416219
 21
369.684144
 31
0.0
  0
ARC
  5
47E
100
AcDbEntity
  8
0
370
    -3
390
0
  6
Continuous
100
AcDbCircle
 10
-231.416219
 20
277.684144
 30
0.0
 40
8.0
100
AcDbArc
 50
270.0
 51
0.0
  0
ARC
  5
47F
100
AcDbEntity
  8
0
370
    -3
390
0
  6
Continuous
100
AcDbCircle
 10
-255.416219
 20
261.684144
 30
0.0
 40
8.0
100
AcDbArc
 50
90.0
 51
180.0
  0
ARC
  5
480
100
AcDbEntity
  8
0
370
    -3
390
0
  6
Continuous
100
AcDbCircle
 10
-218.416219
 20
299.684144
 30
0.0
 40
5.0
100
AcDbArc
 50
90.0
 51
180.0
  0
ARC
  5
481
100
AcDbEntity
  8
0
370
    -3
390
0
  6
Continuous
100
AcDbCircle
 10
-216.416219
 20
309.684144
 30
0.0
 40
5.0
100
AcDbArc
 50
270.0
 51
323.130102
  0
LINE
  5
482
100
AcDbEntity
  8
0
370
    -3
390
0
  6
Continuous
100
AcDbLine
 10
-216.416219
 20
304.684144
 30
0.0
 11
-218.416219
 21
304.684144
 31
0.0
  0
LINE
  5
483
100
AcDbEntity
  8
0
370
    -3
390
0
  6
Continuous
100
AcDbLine
 10
-223.416219
 20
221.684144
 30
0.0
 11
-223.416219
 21
369.684144
 31
0.0
  0
LINE
  5
484
100
AcDbEntity
  8
0
370
    -3
390
0
  6
Continuous
100
AcDbLine
 10
-231.416219
 20
269.684144
 30
0.0
 11
-255.416219
 21
269.684144
 31
0.0
  0
ARC
  5
485
100
AcDbEntity
  8
0
370
    -3
390
0
  6
Continuous
100
AcDbCircle
 10
-258.416219
 20
359.684144
 30
0.0
 40
5.0
100
AcDbArc
 50
90.0
 51
180.0
  0
LINE
  5
486
100
AcDbEntity
  8
0
370
    -3
390
0
  6
Continuous
100
AcDbLine
 10
-234.416219
 20
364.684144
 30
0.0
 11
-258.416219
 21
364.684144
 31
0.0
  0
LINE
  5
487
100
AcDbEntity
  8
0
370
    -3
390
0
  6
Continuous
100
AcDbLine
 10
-263.416219
 20
196.684144
 30
0.0
 11
-263.416219
 21
369.684144
 31
0.0
  0
LINE
  5
488
100
AcDbEntity
  8
0
370
    -3
390
0
  6
Continuous
100
AcDbLine
 10
-212.416219
 20
306.684144
 30
0.0
 11
-212.416219
 21
369.684144
 31
0.0
  0
LINE
  5
489
100
AcDbEntity
  8
0
370
    -3
390
0
  6
Continuous
100
AcDbLine
 10
-325.416219
 20
159.684144
 30
0.0
 11
-446.416219
 21
159.684144
 31
0.0
  0
LINE
  5
48A
100
AcDbEntity
  8
0
370
    -3
390
0
  6
Continuous
100
AcDbLine
 10
-328.416219
 20
124.684144
 30
0.0
 11
-446.416219
 21
124.684144
 31
0.0
  0
LINE
  5
48B
100
AcDbEntity
  8
0
370
    -3
390
0
  6
Continuous
100
AcDbLine
 10
-428.416219
 20
193.277673
 30
0.0
 11
-428.416219
 21
274.647915
 31
0.0
  0
LINE
  5
48C
100
AcDbEntity
  8
0
370
    -3
390
0
  6
Continuous
100
AcDbLine
 10
-446.416219
 20
179.684144
 30
0.0
 11
-431.416219
 21
179.684144
 31
0.0
  0
ARC
  5
48D
100
AcDbEntity
  8
0
370
    -3
390
0
  6
Continuous
100
AcDbCircle
 10
-431.416219
 20
182.684144
 30
0.0
 40
3.0
100
AcDbArc
 50
270.0
 51
0.0
  0
LINE
  5
48E
100
AcDbEntity
  8
0
370
    -3
390
0
  6
Continuous
100
AcDbLine
 10
-322.416219
 20
130.684144
 30
0.0
 11
-322.416219
 21
156.684144
 31
0.0
  0
LINE
  5
48F
100
AcDbEntity
  8
0
370
    -3
390
0
  6
Continuous
100
AcDbLine
 10
-322.416219
 20
162.684144
 30
0.0
 11
-322.416219
 21
185.684144
 31
0.0
  0
ARC
  5
490
100
AcDbEntity
  8
0
370
    -3
390
0
  6
Continuous
100
AcDbCircle
 10
-325.416219
 20
162.684144
 30
0.0
 40
3.0
100
AcDbArc
 50
270.0
 51
0.0
  0
ARC
  5
491
100
AcDbEntity
  8
0
370
    -3
390
0
  6
Continuous
100
AcDbCircle
 10
-325.416219
 20
156.684144
 30
0.0
 40
3.0
100
AcDbArc
 50
0.0
 51
90.0
  0
ARC
  5
492
100
AcDbEntity
  8
0
370
    -3
390
0
  6
Continuous
100
AcDbCircle
 10
-328.416219
 20
130.684144
 30
0.0
 40
6.0
100
AcDbArc
 50
270.0
 51
0.0
  0
LINE
  5
493
100
AcDbEntity
  8
0
370
    -3
390
0
  6
Continuous
100
AcDbLine
 10
-412.416219
 20
193.277673
 30
0.0
 11
-446.416219
 21
193.277673
 31
0.0
  0
LINE
  5
494
100
AcDbEntity
  8
0
370
    -3
390
0
  6
Continuous
100
AcDbLine
 10
-412.416219
 20
274.647915
 30
0.0
 11
-446.416219
 21
274.647915
 31
0.0
  0
LINE
  5
495
100
AcDbEntity
  8
0
370
    -3
390
0
  6
Continuous
100
AcDbLine
 10
-412.416219
 20
302.645625
 30
0.0
 11
-446.416219
 21
302.645625
 31
0.0
  0
LINE
  5
496
100
AcDbEntity
  8
0
370
    -3
390
0
  6
Continuous
100
AcDbLine
 10
-406.416219
 20
280.647915
 30
0.0
 11
-406.416219
 21
296.645625
 31
0.0
  0
ARC
  5
497
100
AcDbEntity
  8
0
370
    -3
390
0
  6
Continuous
100
AcDbCircle
 10
-412.416219
 20
296.645625
 30
0.0
 40
6.0
100
AcDbArc
 50
0.0
 51
90.0
  0
ARC
  5
498
100
AcDbEntity
  8
0
370
    -3
390
0
  6
Continuous
100
AcDbCircle
 10
-412.416219
 20
280.647915
 30
0.0
 40
6.0
100
AcDbArc
 50
270.0
 51
0.0
  0
LINE
  5
499
100
AcDbEntity
  8
0
370
    -3
390
0
  6
Continuous
100
AcDbLine
 10
-412.416219
 20
182.684144
 30
0.0
 11
-446.416219
 21
182.684144
 31
0.0
  0
ARC
  5
49A
100
AcDbEntity
  8
0
370
    -3
390
0
  6
Continuous
100
AcDbCircle
 10
-412.416219
 20
187.277673
 30
0.0
 40
6.0
100
AcDbArc
 50
0.0
 51
90.0
  0
ARC
  5
49B
100
AcDbEntity
  8
0
370
    -3
390
0
  6
Continuous
100
AcDbCircle
 10
-412.416219
 20
188.684144
 30
0.0
 40
6.0
100
AcDbArc
 50
270.0
 51
0.0
  0
LINE
  5
49C
100
AcDbEntity
  8
0
370
    -3
390
0
  6
Continuous
100
AcDbLine
 10
-428.416219
 20
302.645625
 30
0.0
 11
-428.416219
 21
369.684144
 31
0.0
  0
ARC
  5
49D
100
AcDbEntity
  8
0
370
    -3
390
0
  6
Continuous
100
AcDbCircle
 10
-319.416219
 20
185.684144
 30
0.0
 40
3.0
100
AcDbArc
 50
90.0
 51
180.0
  0
LINE
  5
49E
100
AcDbEntity
  8
0
370
    -3
390
0
  6
Continuous
100
AcDbLine
 10
-212.416219
 20
130.684144
 30
0.0
 11
-212.416219
 21
198.684144
 31
0.0
  0
LINE
  5
49F
100
AcDbEntity
  8
0
370
    -3
390
0
  6
Continuous
100
AcDbLine
 10
-328.416219
 20
124.684144
 30
0.0
 11
-218.416219
 21
124.684144
 31
0.0
  0
ARC
  5
4A0
100
AcDbEntity
  8
0
370
    -3
390
0
  6
Continuous
100
AcDbCircle
 10
-218.416219
 20
130.684144
 30
0.0
 40
6.0
100
AcDbArc
 50
270.0
 51
0.0
  0
LINE
  5
4A1
100
AcDbEntity
  8
0
370
    -3
390
0
  6
Continuous
100
AcDbLine
 10
-228.131948
 20
204.684144
 30
0.0
 11
-218.416219
 21
204.684144
 31
0.0
  0
LINE
  5
4A2
100
AcDbEntity
  8
0
370
    -3
390
0
  6
Continuous
100
AcDbLine
 10
-223.416219
 20
224.684144
 30
0.0
 11
-218.416219
 21
224.684144
 31
0.0
  0
ARC
  5
4A3
100
AcDbEntity
  8
0
370
    -3
390
0
  6
Continuous
100
AcDbCircle
 10
-218.416219
 20
218.684144
 30
0.0
 40
6.0
100
AcDbArc
 50
0.0
 51
90.0
  0
ARC
  5
4A4
100
AcDbEntity
  8
0
370
    -3
390
0
  6
Continuous
100
AcDbCircle
 10
-218.416219
 20
198.684144
 30
0.0
 40
6.0
100
AcDbArc
 50
0.0
 51
90.0
  0
LINE
  5
4A5
100
AcDbEntity
  8
0
370
    -3
390
0
  6
Continuous
100
AcDbLine
 10
-212.416219
 20
218.684144
 30
0.0
 11
-212.416219
 21
198.684144
 31
0.0
  0
ARC
  5
4A6
100
AcDbEntity
  8
0
370
    -3
390
0
  6
Continuous
100
AcDbCircle
 10
-218.416219
 20
210.684144
 30
0.0
 40
6.0
100
AcDbArc
 50
270.0
 51
0.0
  0
LINE
  5
4A7
100
AcDbEntity
  8
0
370
    -3
390
0
  6
Continuous
100
AcDbLine
 10
-322.416219
 20
142.684144
 30
0.0
 11
-287.416219
 21
142.684144
 31
0.0
  0
LINE
  5
4A8
100
AcDbEntity
  8
0
370
    -3
390
0
  6
Continuous
100
AcDbLine
 10
-287.416219
 20
124.684144
 30
0.0
 11
-287.416219
 21
142.684144
 31
0.0
  0
ARC
  5
4A9
100
AcDbEntity
  8
0
370
    -3
390
0
  6
Continuous
100
AcDbCircle
 10
-287.416219
 20
147.684144
 30
0.0
 40
5.0
100
AcDbArc
 50
270.0
 51
0.0
  0
LINE
  5
4AA
100
AcDbEntity
  8
0
370
    -3
390
0
  6
CENTER
100
AcDbLine
 10
-222.433317
 20
174.684144
 30
0.0
 11
-272.390387
 21
174.684144
 31
0.0
  0
LINE
  5
4AB
100
AcDbEntity
  8
0
370
    -3
390
0
  6
CENTER
100
AcDbLine
 10
-620.460845
 20
174.684144
 30
0.0
 11
-670.960927
 21
174.684144
 31
0.0
  0
LINE
  5
4AC
100
AcDbEntity
  8
0
370
    -3
390
0
  6
CENTER
100
AcDbLine
 10
-647.416219
 20
150.748217
 30
0.0
 11
-647.416219
 21
199.076253
 31
0.0
  0
LINE
  5
4AD
100
AcDbEntity
  8
0
370
    -3
390
0
  6
CENTER
100
AcDbLine
 10
-247.416219
 20
147.490147
 30
0.0
 11
-247.416219
 21
188.684144
 31
0.0
  0
CIRCLE
  5
4AE
100
AcDbEntity
  8
0
370
    -3
390
0
  6
Continuous
100
AcDbCircle
 10
-247.416219
 20
174.684144
 30
0.0
 40
14.0
  0
LINE
  5
4AF
100
AcDbEntity
  8
0
370
    -3
390
0
  6
CENTER
100
AcDbLine
 10
-222.433317
 20
564.684144
 30
0.0
 11
-272.390387
 21
564.684144
 31
0.0
  0
LINE
  5
4B0
100
AcDbEntity
  8
0
370
    -3
390
0
  6
CENTER
100
AcDbLine
 10
-247.416219
 20
591.87814
 30
0.0
 11
-247.416219
 21
550.684144
 31
0.0
  0
LINE
  5
4B1
100
AcDbEntity
  8
0
370
    -3
390
0
  6
CENTER
100
AcDbLine
 10
-620.460845
 20
564.684144
 30
0.0
 11
-670.960927
 21
564.684144
 31
0.0
  0
LINE
  5
4B2
100
AcDbEntity
  8
0
370
    -3
390
0
  6
CENTER
100
AcDbLine
 10
-647.416219
 20
588.62007
 30
0.0
 11
-647.416219
 21
540.292034
 31
0.0
  0
CIRCLE
  5
4B3
100
AcDbEntity
  8
0
370
    -3
390
0
  6
Continuous
100
AcDbCircle
 10
-247.416219
 20
564.684144
 30
0.0
 40
14.0
  0
CIRCLE
  5
4B4
100
AcDbEntity
  8
0
370
    -3
390
0
  6
Continuous
100
AcDbCircle
 10
-647.416219
 20
564.684144
 30
0.0
 40
14.0
  0
ARC
  5
4B5
100
AcDbEntity
  8
0
370
    -3
390
0
  6
Continuous
100
AcDbCircle
 10
-607.416219
 20
584.684144
 30
0.0
 40
12.0
100
AcDbArc
 50
90.0
 51
148.059957
  0
LINE
  5
4B6
100
AcDbEntity
  8
0
370
    -3
390
0
  6
Continuous
100
AcDbLine
 10
-322.416219
 20
596.684144
 30
0.0
 11
-287.416219
 21
596.684144
 31
0.0
  0
LINE
  5
4B7
100
AcDbEntity
  8
0
370
    -3
390
0
  6
Continuous
100
AcDbLine
 10
-322.416219
 20
608.684144
 30
0.0
 11
-322.416219
 21
582.684144
 31
0.0
  0
LINE
  5
4B8
100
AcDbEntity
  8
0
370
    -3
390
0
  6
Continuous
100
AcDbLine
 10
-287.416219
 20
614.684144
 30
0.0
 11
-287.416219
 21
596.684144
 31
0.0
  0
LINE
  5
4B9
100
AcDbEntity
  8
0
370
    -3
390
0
  6
Continuous
100
AcDbLine
 10
-607.416219
 20
614.684144
 30
0.0
 11
-607.416219
 21
596.684144
 31
0.0
  0
ARC
  5
4BA
100
AcDbEntity
  8
0
370
    -3
390
0
  6
Continuous
100
AcDbCircle
 10
-287.416219
 20
591.684144
 30
0.0
 40
5.0
100
AcDbArc
 50
0.0
 51
90.0
  0
LINE
  5
4BB
100
AcDbEntity
  8
0
370
    -3
390
0
  6
Continuous
100
AcDbLine
 10
-212.416219
 20
520.684144
 30
0.0
 11
-212.416219
 21
540.684144
 31
0.0
  0
ARC
  5
4BC
100
AcDbEntity
  8
0
370
    -3
390
0
  6
Continuous
100
AcDbCircle
 10
-658.274083
 20
544.684144
 30
0.0
 40
10.0
100
AcDbArc
 50
225.0
 51
270.0
  0
LINE
  5
4BD
100
AcDbEntity
  8
0
370
    -3
390
0
  6
Continuous
100
AcDbLine
 10
-679.487287
 20
551.755211
 30
0.0
 11
-648.654506
 21
520.922431
 31
0.0
  0
LINE
  5
4BE
100
AcDbEntity
  8
0
370
    -3
390
0
  6
Continuous
100
AcDbLine
 10
-223.416219
 20
514.684144
 30
0.0
 11
-218.416219
 21
514.684144
 31
0.0
  0
LINE
  5
4BF
100
AcDbEntity
  8
0
370
    -3
390
0
  6
Continuous
100
AcDbLine
 10
-228.131948
 20
534.684144
 30
0.0
 11
-218.416219
 21
534.684144
 31
0.0
  0
ARC
  5
4C0
100
AcDbEntity
  8
0
370
    -3
390
0
  6
Continuous
100
AcDbCircle
 10
-218.416219
 20
528.684144
 30
0.0
 40
6.0
100
AcDbArc
 50
0.0
 51
90.0
  0
ARC
  5
4C1
100
AcDbEntity
  8
0
370
    -3
390
0
  6
Continuous
100
AcDbCircle
 10
-218.416219
 20
540.684144
 30
0.0
 40
6.0
100
AcDbArc
 50
270.0
 51
0.0
  0
LINE
  5
4C2
100
AcDbEntity
  8
0
370
    -3
390
0
  6
Continuous
100
AcDbLine
 10
-212.416219
 20
608.684144
 30
0.0
 11
-212.416219
 21
540.684144
 31
0.0
  0
ARC
  5
4C3
100
AcDbEntity
  8
0
370
    -3
390
0
  6
Continuous
100
AcDbCircle
 10
-218.416219
 20
520.684144
 30
0.0
 40
6.0
100
AcDbArc
 50
270.0
 51
0.0
  0
ARC
  5
4C4
100
AcDbEntity
  8
0
370
    -3
390
0
  6
Continuous
100
AcDbCircle
 10
-641.583439
 20
527.993499
 30
0.0
 40
10.0
100
AcDbArc
 50
225.0
 51
269.028978
  0
ARC
  5
4C5
100
AcDbEntity
  8
0
370
    -3
390
0
  6
Continuous
100
AcDbCircle
 10
-672.416219
 20
558.826279
 30
0.0
 40
10.0
100
AcDbArc
 50
180.0
 51
225.0
  0
LINE
  5
4C6
100
AcDbEntity
  8
0
370
    -3
390
0
  6
Continuous
100
AcDbLine
 10
-682.416219
 20
608.684144
 30
0.0
 11
-682.416219
 21
558.826279
 31
0.0
  0
ARC
  5
4C7
100
AcDbEntity
  8
0
370
    -3
390
0
  6
Continuous
100
AcDbCircle
 10
-676.416219
 20
608.684144
 30
0.0
 40
6.0
100
AcDbArc
 50
90.0
 51
180.0
  0
LINE
  5
4C8
100
AcDbEntity
  8
0
370
    -3
390
0
  6
Continuous
100
AcDbLine
 10
-446.416219
 20
614.684144
 30
0.0
 11
-676.416219
 21
614.684144
 31
0.0
  0
ARC
  5
4C9
100
AcDbEntity
  8
0
370
    -3
390
0
  6
Continuous
100
AcDbCircle
 10
-218.416219
 20
608.684144
 30
0.0
 40
6.0
100
AcDbArc
 50
0.0
 51
90.0
  0
LINE
  5
4CA
100
AcDbEntity
  8
0
370
    -3
390
0
  6
Continuous
100
AcDbLine
 10
-328.416219
 20
614.684144
 30
0.0
 11
-218.416219
 21
614.684144
 31
0.0
  0
LINE
  5
4CB
100
AcDbEntity
  8
0
370
    -3
390
0
  6
Continuous
100
AcDbLine
 10
-325.416219
 20
579.684144
 30
0.0
 11
-446.416219
 21
579.684144
 31
0.0
  0
LINE
  5
4CC
100
AcDbEntity
  8
0
370
    -3
390
0
  6
Continuous
100
AcDbLine
 10
-406.583395
 20
550.684144
 30
0.0
 11
-256.416219
 21
550.684144
 31
0.0
  0
ARC
  5
4CD
100
AcDbEntity
  8
0
370
    -3
390
0
  6
Continuous
100
AcDbCircle
 10
-319.416219
 20
553.684144
 30
0.0
 40
3.0
100
AcDbArc
 50
180.0
 51
270.0
  0
LINE
  5
4CE
100
AcDbEntity
  8
0
370
    -3
390
0
  6
Continuous
100
AcDbLine
 10
-322.416219
 20
576.684144
 30
0.0
 11
-322.416219
 21
553.684144
 31
0.0
  0
LINE
  5
4CF
100
AcDbEntity
  8
0
370
    -3
390
0
  6
Continuous
100
AcDbLine
 10
-428.416219
 20
436.722662
 30
0.0
 11
-428.416219
 21
369.684144
 31
0.0
  0
LINE
  5
4D0
100
AcDbEntity
  8
0
370
    -3
390
0
  6
Continuous
100
AcDbLine
 10
-428.416219
 20
546.090614
 30
0.0
 11
-428.416219
 21
464.720372
 31
0.0
  0
ARC
  5
4D1
100
AcDbEntity
  8
0
370
    -3
390
0
  6
Continuous
100
AcDbCircle
 10
-412.416219
 20
550.684144
 30
0.0
 40
6.0
100
AcDbArc
 50
0.0
 51
90.0
  0
LINE
  5
4D2
100
AcDbEntity
  8
0
370
    -3
390
0
  6
Continuous
100
AcDbLine
 10
-412.416219
 20
556.684144
 30
0.0
 11
-446.416219
 21
556.684144
 31
0.0
  0
ARC
  5
4D3
100
AcDbEntity
  8
0
370
    -3
390
0
  6
Continuous
100
AcDbCircle
 10
-412.416219
 20
552.090614
 30
0.0
 40
6.0
100
AcDbArc
 50
270.0
 51
0.0
  0
LINE
  5
4D4
100
AcDbEntity
  8
0
370
    -3
390
0
  6
Continuous
100
AcDbLine
 10
-412.416219
 20
546.090614
 30
0.0
 11
-446.416219
 21
546.090614
 31
0.0
  0
LINE
  5
4D5
100
AcDbEntity
  8
0
370
    -3
390
0
  6
Continuous
100
AcDbLine
 10
-412.416219
 20
464.720372
 30
0.0
 11
-446.416219
 21
464.720372
 31
0.0
  0
ARC
  5
4D6
100
AcDbEntity
  8
0
370
    -3
390
0
  6
Continuous
100
AcDbCircle
 10
-412.416219
 20
458.720372
 30
0.0
 40
6.0
100
AcDbArc
 50
0.0
 51
90.0
  0
LINE
  5
4D7
100
AcDbEntity
  8
0
370
    -3
390
0
  6
Continuous
100
AcDbLine
 10
-406.416219
 20
458.720372
 30
0.0
 11
-406.416219
 21
442.722662
 31
0.0
  0
ARC
  5
4D8
100
AcDbEntity
  8
0
370
    -3
390
0
  6
Continuous
100
AcDbCircle
 10
-412.416219
 20
442.722662
 30
0.0
 40
6.0
100
AcDbArc
 50
270.0
 51
0.0
  0
LINE
  5
4D9
100
AcDbEntity
  8
0
370
    -3
390
0
  6
Continuous
100
AcDbLine
 10
-412.416219
 20
436.722662
 30
0.0
 11
-446.416219
 21
436.722662
 31
0.0
  0
ARC
  5
4DA
100
AcDbEntity
  8
0
370
    -3
390
0
  6
Continuous
100
AcDbCircle
 10
-328.416219
 20
608.684144
 30
0.0
 40
6.0
100
AcDbArc
 50
0.0
 51
90.0
  0
LINE
  5
4DB
100
AcDbEntity
  8
0
370
    -3
390
0
  6
Continuous
100
AcDbLine
 10
-328.416219
 20
614.684144
 30
0.0
 11
-446.416219
 21
614.684144
 31
0.0
  0
ARC
  5
4DC
100
AcDbEntity
  8
0
370
    -3
390
0
  6
Continuous
100
AcDbCircle
 10
-325.416219
 20
582.684144
 30
0.0
 40
3.0
100
AcDbArc
 50
270.0
 51
0.0
  0
ARC
  5
4DD
100
AcDbEntity
  8
0
370
    -3
390
0
  6
Continuous
100
AcDbCircle
 10
-325.416219
 20
576.684144
 30
0.0
 40
3.0
100
AcDbArc
 50
0.0
 51
90.0
  0
ARC
  5
4DE
100
AcDbEntity
  8
0
370
    -3
390
0
  6
Continuous
100
AcDbCircle
 10
-431.416219
 20
556.684144
 30
0.0
 40
3.0
100
AcDbArc
 50
0.0
 51
90.0
  0
LINE
  5
4DF
100
AcDbEntity
  8
0
370
    -3
390
0
  6
Continuous
100
AcDbLine
 10
-446.416219
 20
559.684144
 30
0.0
 11
-431.416219
 21
559.684144
 31
0.0
  0
LINE
  5
4E0
100
AcDbEntity
  8
0
370
    -3
390
0
  6
Continuous
100
AcDbLine
 10
-446.416219
 20
614.684144
 30
0.0
 11
-446.416219
 21
369.684144
 31
0.0
  0
LINE
  5
4E1
100
AcDbEntity
  8
0
370
    -3
390
0
  6
Continuous
100
AcDbLine
 10
-263.416219
 20
542.684144
 30
0.0
 11
-263.416219
 21
369.684144
 31
0.0
  0
LINE
  5
4E2
100
AcDbEntity
  8
0
370
    -3
390
0
  6
Continuous
100
AcDbLine
 10
-228.416219
 20
380.684144
 30
0.0
 11
-228.416219
 21
369.684144
 31
0.0
  0
LINE
  5
4E3
100
AcDbEntity
  8
0
370
    -3
390
0
  6
Continuous
100
AcDbLine
 10
-223.416219
 20
517.684144
 30
0.0
 11
-223.416219
 21
369.684144
 31
0.0
  0
LINE
  5
4E4
100
AcDbEntity
  8
0
370
    -3
390
0
  6
Continuous
100
AcDbLine
 10
-212.416219
 20
432.684144
 30
0.0
 11
-212.416219
 21
369.684144
 31
0.0
  0
ARC
  5
4E5
100
AcDbEntity
  8
0
370
    -3
390
0
  6
Continuous
100
AcDbCircle
 10
-216.416219
 20
429.684144
 30
0.0
 40
5.0
100
AcDbArc
 50
36.869898
 51
90.0
  0
ARC
  5
4E6
100
AcDbEntity
  8
0
370
    -3
390
0
  6
Continuous
100
AcDbCircle
 10
-271.416219
 20
542.684144
 30
0.0
 40
8.0
100
AcDbArc
 50
0.0
 51
90.0
  0
ARC
  5
4E7
100
AcDbEntity
  8
0
370
    -3
390
0
  6
Continuous
100
AcDbCircle
 10
-256.416219
 20
517.684144
 30
0.0
 40
33.0
100
AcDbArc
 50
0.0
 51
90.0
  0
ARC
  5
4E8
100
AcDbEntity
  8
0
370
    -3
390
0
  6
Continuous
100
AcDbCircle
 10
-234.416219
 20
380.684144
 30
0.0
 40
6.0
100
AcDbArc
 50
270.0
 51
0.0
  0
ARC
  5
4E9
100
AcDbEntity
  8
0
370
    -3
390
0
  6
Continuous
100
AcDbCircle
 10
-231.416219
 20
461.684144
 30
0.0
 40
8.0
100
AcDbArc
 50
0.0
 51
90.0
  0
ARC
  5
4EA
100
AcDbEntity
  8
0
370
    -3
390
0
  6
Continuous
100
AcDbCircle
 10
-255.416219
 20
477.684144
 30
0.0
 40
8.0
100
AcDbArc
 50
180.0
 51
270.0
  0
ARC
  5
4EB
100
AcDbEntity
  8
0
370
    -3
390
0
  6
Continuous
100
AcDbCircle
 10
-218.416219
 20
439.684144
 30
0.0
 40
5.0
100
AcDbArc
 50
180.0
 51
270.0
  0
LINE
  5
4EC
100
AcDbEntity
  8
0
370
    -3
390
0
  6
Continuous
100
AcDbLine
 10
-216.416219
 20
434.684144
 30
0.0
 11
-218.416219
 21
434.684144
 31
0.0
  0
LINE
  5
4ED
100
AcDbEntity
  8
0
370
    -3
390
0
  6
Continuous
100
AcDbLine
 10
-231.416219
 20
469.684144
 30
0.0
 11
-255.416219
 21
469.684144
 31
0.0
  0
ARC
  5
4EE
100
AcDbEntity
  8
0
370
    -3
390
0
  6
Continuous
100
AcDbCircle
 10
-258.416219
 20
379.684144
 30
0.0
 40
5.0
100
AcDbArc
 50
180.0
 51
270.0
  0
LINE
  5
4EF
100
AcDbEntity
  8
0
370
    -3
390
0
  6
Continuous
100
AcDbLine
 10
-234.416219
 20
374.684144
 30
0.0
 11
-258.416219
 21
374.684144
 31
0.0
  0
ARC
  5
4F0
100
AcDbEntity
  8
0
370
    -3
390
0
  6
Continuous
100
AcDbCircle
 10
-406.416219
 20
369.684144
 30
0.0
 40
17.5
100
AcDbArc
 50
270.0
 51
90.0
  0
LINE
  5
4F1
100
AcDbEntity
  8
0
370
    -3
390
0
  6
Continuous
100
AcDbLine
 10
-425.416219
 20
387.184144
 30
0.0
 11
-406.416219
 21
387.184144
 31
0.0
  0
LINE
  5
4F2
100
AcDbEntity
  8
0
370
    -3
390
0
  6
Continuous
100
AcDbLine
 10
-425.416219
 20
352.184144
 30
0.0
 11
-406.416219
 21
352.184144
 31
0.0
  0
ARC
  5
4F3
100
AcDbEntity
  8
0
370
    -3
390
0
  6
Continuous
100
AcDbCircle
 10
-425.416219
 20
390.184144
 30
0.0
 40
3.0
100
AcDbArc
 50
180.0
 51
270.0
  0
ARC
  5
4F4
100
AcDbEntity
  8
0
370
    -3
390
0
  6
Continuous
100
AcDbCircle
 10
-425.416219
 20
349.184144
 30
0.0
 40
3.0
100
AcDbArc
 50
90.0
 51
180.0
  0
LINE
  5
4F5
100
AcDbEntity
  8
0
370
    -3
390
0
  6
Continuous
100
AcDbLine
 10
-212.416219
 20
412.184144
 30
0.0
 11
-207.416219
 21
412.184144
 31
0.0
  0
LINE
  5
4F6
100
AcDbEntity
  8
0
370
    -3
390
0
  6
Continuous
100
AcDbLine
 10
-207.416219
 20
409.684144
 30
0.0
 11
-77.416219
 21
409.684144
 31
0.0
  0
LINE
  5
4F7
100
AcDbEntity
  8
0
370
    -3
390
0
  6
Continuous
100
AcDbLine
 10
-207.416219
 20
412.184144
 30
0.0
 11
-207.416219
 21
327.184144
 31
0.0
  0
LINE
  5
4F8
100
AcDbEntity
  8
0
370
    -3
390
0
  6
Continuous
100
AcDbLine
 10
-212.416219
 20
327.184144
 30
0.0
 11
-207.416219
 21
327.184144
 31
0.0
  0
LINE
  5
4F9
100
AcDbEntity
  8
0
370
    -3
390
0
  6
Continuous
100
AcDbLine
 10
-207.416219
 20
329.684144
 30
0.0
 11
-77.416219
 21
329.684144
 31
0.0
  0
LINE
  5
4FA
100
AcDbEntity
  8
0
370
    -3
390
0
  6
Continuous
100
AcDbLine
 10
-77.416219
 20
409.684144
 30
0.0
 11
-77.416219
 21
329.684144
 31
0.0
  0
LINE
  5
4FB
100
AcDbEntity
  8
0
370
    -3
390
0
  6
Continuous
100
AcDbLine
 10
-77.416219
 20
380.684144
 30
0.0
 11
-168.416219
 21
380.684144
 31
0.0
  0
LINE
  5
4FC
100
AcDbEntity
  8
0
370
    -3
390
0
  6
Continuous
100
AcDbLine
 10
-77.416219
 20
358.684144
 30
0.0
 11
-168.416219
 21
358.684144
 31
0.0
  0
LINE
  5
4FD
100
AcDbEntity
  8
0
370
    -3
390
0
  6
Continuous
100
AcDbLine
 10
-168.416219
 20
380.684144
 30
0.0
 11
-168.416219
 21
358.684144
 31
0.0
  0
ARC
  5
4FE
100
AcDbEntity
  8
0
370
    -3
390
0
  6
Continuous
100
AcDbCircle
 10
-168.416219
 20
369.684144
 30
0.0
 40
11.0
100
AcDbArc
 50
90.0
 51
270.0
  0
ARC
  5
4FF
100
AcDbEntity
  8
0
370
    -3
390
0
  6
Continuous
100
AcDbCircle
 10
-472.916219
 20
507.527203
 30
0.0
 40
3.0
100
AcDbArc
 50
338.796137
 51
0.0
  0
LINE
  5
500
100
AcDbEntity
  8
0
370
    -3
390
0
  6
CENTER
100
AcDbLine
 10
-455.415143
 20
147.684144
 30
0.0
 11
-495.642773
 21
147.684144
 31
0.0
  0
LINE
  5
501
100
AcDbEntity
  8
0
370
    -3
390
0
  6
CENTER
100
AcDbLine
 10
-406.416219
 20
348.730494
 30
0.0
 11
-406.416219
 21
391.32391
 31
0.0
  0
CIRCLE
  5
502
100
AcDbEntity
  8
0
370
    -3
390
0
  6
Continuous
100
AcDbCircle
 10
-406.416219
 20
369.684144
 30
0.0
 40
16.0
  0
LINE
  5
503
100
AcDbEntity
  8
0
370
    -3
390
0
  6
Continuous
100
AcDbLine
 10
-476.416219
 20
211.684144
 30
0.0
 11
-476.416219
 21
218.74991
 31
0.0
  0
LINE
  5
504
100
AcDbEntity
  8
0
370
    -3
390
0
  6
Continuous
100
AcDbLine
 10
-479.416219
 20
221.74991
 30
0.0
 11
-470.416219
 21
221.74991
 31
0.0
  0
ARC
  5
505
100
AcDbEntity
  8
0
370
    -3
390
0
  6
Continuous
100
AcDbCircle
 10
-479.416219
 20
218.74991
 30
0.0
 40
3.0
100
AcDbArc
 50
0.0
 51
90.0
  0
ARC
  5
506
100
AcDbEntity
  8
0
370
    -3
390
0
  6
Continuous
100
AcDbCircle
 10
-467.416219
 20
133.684144
 30
0.0
 40
3.0
100
AcDbArc
 50
180.0
 51
270.0
  0
POINT
  5
507
100
AcDbEntity
  8
0
370
    -3
390
0
  6
Continuous
100
AcDbPoint
 10
-470.416219
 20
179.684144
 30
0.0
  0
LINE
  5
508
100
AcDbEntity
  8
0
370
    -3
390
0
  6
Continuous
100
AcDbLine
 10
-470.416219
 20
165.684144
 30
0.0
 11
-470.416219
 21
193.684144
 31
0.0
  0
LINE
  5
509
100
AcDbEntity
  8
0
370
    -3
390
0
  6
Continuous
100
AcDbLine
 10
-474.416219
 20
193.684144
 30
0.0
 11
-474.416219
 21
165.684144
 31
0.0
  0
LINE
  5
50A
100
AcDbEntity
  8
0
370
    -3
390
0
  6
Continuous
100
AcDbLine
 10
-490.416181
 20
189.9525
 30
0.0
 11
-490.416196
 21
169.416564
 31
0.0
  0
LINE
  5
50B
100
AcDbEntity
  8
0
370
    -3
390
0
  6
Continuous
100
AcDbLine
 10
-474.416219
 20
167.684144
 30
0.0
 11
-489.416204
 21
167.684144
 31
0.0
  0
LINE
  5
50C
100
AcDbEntity
  8
0
370
    -3
390
0
  6
Continuous
100
AcDbLine
 10
-470.416219
 20
165.684144
 30
0.0
 11
-474.416219
 21
165.684144
 31
0.0
  0
LINE
  5
50D
100
AcDbEntity
  8
0
370
    -3
390
0
  6
Continuous
100
AcDbLine
 10
-489.4162
 20
167.684146
 30
0.0
 11
-490.416185
 21
169.416568
 31
0.0
  0
LINE
  5
50E
100
AcDbEntity
  8
0
370
    -3
390
0
  6
Continuous
100
AcDbLine
 10
-489.416204
 20
167.684144
 30
0.0
 11
-489.416204
 21
191.684144
 31
0.0
  0
LINE
  5
50F
100
AcDbEntity
  8
0
370
    -3
390
0
  6
Continuous
100
AcDbLine
 10
-470.416218
 20
179.502103
 30
0.0
 11
-474.416218
 21
180.957981
 31
0.0
  0
LINE
  5
510
100
AcDbEntity
  8
0
370
    -3
390
0
  6
Continuous
100
AcDbLine
 10
-474.416219
 20
179.906746
 30
0.0
 11
-470.416218
 21
178.450869
 31
0.0
  0
LINE
  5
511
100
AcDbEntity
  8
0
370
    -3
390
0
  6
Continuous
100
AcDbLine
 10
-471.980089
 20
165.684144
 30
0.0
 11
-470.416219
 21
160.947936
 31
0.0
  0
LINE
  5
512
100
AcDbEntity
  8
0
370
    -3
390
0
  6
Continuous
100
AcDbLine
 10
-492.916219
 20
170.684144
 30
0.0
 11
-490.416195
 21
170.684144
 31
0.0
  0
LINE
  5
513
100
AcDbEntity
  8
0
370
    -3
390
0
  6
CENTER
100
AcDbLine
 10
-455.915143
 20
179.684144
 30
0.0
 11
-496.142773
 21
179.684144
 31
0.0
  0
LINE
  5
514
100
AcDbEntity
  8
0
370
    -3
390
0
  6
CENTER
100
AcDbLine
 10
-455.915143
 20
199.684144
 30
0.0
 11
-496.142773
 21
199.684144
 31
0.0
  0
LINE
  5
515
100
AcDbEntity
  8
0
370
    -3
390
0
  6
Continuous
100
AcDbLine
 10
-467.416219
 20
159.684144
 30
0.0
 11
-446.916219
 21
159.684144
 31
0.0
  0
ARC
  5
516
100
AcDbEntity
  8
0
370
    -3
390
0
  6
Continuous
100
AcDbCircle
 10
-467.416219
 20
162.684144
 30
0.0
 40
3.0
100
AcDbArc
 50
180.0
 51
270.0
  0
LINE
  5
517
100
AcDbEntity
  8
0
370
    -3
390
0
  6
Continuous
100
AcDbLine
 10
-470.416219
 20
179.684144
 30
0.0
 11
-468.916219
 21
179.684144
 31
0.0
  0
ARC
  5
518
100
AcDbEntity
  8
0
370
    -3
390
0
  6
Continuous
100
AcDbCircle
 10
-468.916219
 20
185.684144
 30
0.0
 40
6.0
100
AcDbArc
 50
270.0
 51
0.0
  0
LINE
  5
519
100
AcDbEntity
  8
0
370
    -3
390
0
  6
Continuous
100
AcDbLine
 10
-492.916219
 20
224.890204
 30
0.0
 11
-470.416219
 21
224.890204
 31
0.0
  0
ARC
  5
51A
100
AcDbEntity
  8
0
370
    -3
390
0
  6
Continuous
100
AcDbCircle
 10
-473.416219
 20
231.841084
 30
0.0
 40
3.0
100
AcDbArc
 50
0.0
 51
21.203863
  0
POINT
  5
51B
100
AcDbEntity
  8
0
370
    -3
390
0
  6
Continuous
100
AcDbPoint
 10
-470.416219
 20
559.684144
 30
0.0
  0
LINE
  5
51C
100
AcDbEntity
  8
0
370
    -3
390
0
  6
Continuous
100
AcDbLine
 10
-490.416181
 20
549.415788
 30
0.0
 11
-490.416196
 21
569.951723
 31
0.0
  0
LINE
  5
51D
100
AcDbEntity
  8
0
370
    -3
390
0
  6
Continuous
100
AcDbLine
 10
-489.4162
 20
571.684141
 30
0.0
 11
-490.416185
 21
569.951719
 31
0.0
  0
LINE
  5
51E
100
AcDbEntity
  8
0
370
    -3
390
0
  6
Continuous
100
AcDbLine
 10
-489.416204
 20
571.684144
 30
0.0
 11
-489.416204
 21
547.684144
 31
0.0
  0
LINE
  5
51F
100
AcDbEntity
  8
0
370
    -3
390
0
  6
Continuous
100
AcDbLine
 10
-470.416218
 20
559.866184
 30
0.0
 11
-474.416218
 21
558.410306
 31
0.0
  0
LINE
  5
520
100
AcDbEntity
  8
0
370
    -3
390
0
  6
Continuous
100
AcDbLine
 10
-474.416219
 20
559.461541
 30
0.0
 11
-470.416218
 21
560.917418
 31
0.0
  0
LINE
  5
521
100
AcDbEntity
  8
0
370
    -3
390
0
  6
Continuous
100
AcDbLine
 10
-476.416219
 20
527.684144
 30
0.0
 11
-476.416219
 21
520.618377
 31
0.0
  0
LINE
  5
522
100
AcDbEntity
  8
0
370
    -3
390
0
  6
Continuous
100
AcDbLine
 10
-492.916219
 20
568.684144
 30
0.0
 11
-490.416195
 21
568.684144
 31
0.0
  0
LINE
  5
523
100
AcDbEntity
  8
0
370
    -3
390
0
  6
CENTER
100
AcDbLine
 10
-455.915143
 20
559.684144
 30
0.0
 11
-496.142773
 21
559.684144
 31
0.0
  0
LINE
  5
524
100
AcDbEntity
  8
0
370
    -3
390
0
  6
CENTER
100
AcDbLine
 10
-455.915143
 20
539.684144
 30
0.0
 11
-496.142773
 21
539.684144
 31
0.0
  0
LINE
  5
525
100
AcDbEntity
  8
0
370
    -3
390
0
  6
Continuous
100
AcDbLine
 10
-470.416219
 20
559.684144
 30
0.0
 11
-468.916219
 21
559.684144
 31
0.0
  0
ARC
  5
526
100
AcDbEntity
  8
0
370
    -3
390
0
  6
Continuous
100
AcDbCircle
 10
-468.916219
 20
553.684144
 30
0.0
 40
6.0
100
AcDbArc
 50
0.0
 51
90.0
  0
LINE
  5
527
100
AcDbEntity
  8
0
370
    -3
390
0
  6
Continuous
100
AcDbLine
 10
-492.916219
 20
514.478083
 30
0.0
 11
-470.416219
 21
514.478083
 31
0.0
  0
LINE
  5
528
100
AcDbEntity
  8
0
370
    -3
390
0
  6
Continuous
100
AcDbLine
 10
-479.416219
 20
517.618377
 30
0.0
 11
-470.416219
 21
517.618377
 31
0.0
  0
ARC
  5
529
100
AcDbEntity
  8
0
370
    -3
390
0
  6
Continuous
100
AcDbCircle
 10
-479.416219
 20
520.618377
 30
0.0
 40
3.0
100
AcDbArc
 50
270.0
 51
0.0
  0
LINE
  5
52A
100
AcDbEntity
  8
0
370
    -3
390
0
  6
Continuous
100
AcDbLine
 10
-470.416219
 20
573.684144
 30
0.0
 11
-470.416219
 21
545.684144
 31
0.0
  0
LINE
  5
52B
100
AcDbEntity
  8
0
370
    -3
390
0
  6
Continuous
100
AcDbLine
 10
-474.416219
 20
545.684144
 30
0.0
 11
-474.416219
 21
573.684144
 31
0.0
  0
LINE
  5
52C
100
AcDbEntity
  8
0
370
    -3
390
0
  6
Continuous
100
AcDbLine
 10
-474.416219
 20
571.684144
 30
0.0
 11
-489.416204
 21
571.684144
 31
0.0
  0
LINE
  5
52D
100
AcDbEntity
  8
0
370
    -3
390
0
  6
Continuous
100
AcDbLine
 10
-470.416219
 20
573.684144
 30
0.0
 11
-474.416219
 21
573.684144
 31
0.0
  0
LINE
  5
52E
100
AcDbEntity
  8
0
370
    -3
390
0
  6
Continuous
100
AcDbLine
 10
-471.980089
 20
573.684144
 30
0.0
 11
-470.416219
 21
578.420352
 31
0.0
  0
LINE
  5
52F
100
AcDbEntity
  8
0
370
    -3
390
0
  6
CENTER
100
AcDbLine
 10
-455.915143
 20
591.684144
 30
0.0
 11
-496.142773
 21
591.684144
 31
0.0
  0
ARC
  5
530
100
AcDbEntity
  8
0
370
    -3
390
0
  6
Continuous
100
AcDbCircle
 10
-467.416219
 20
605.684144
 30
0.0
 40
3.0
100
AcDbArc
 50
90.0
 51
180.0
  0
LINE
  5
531
100
AcDbEntity
  8
0
370
    -3
390
0
  6
Continuous
100
AcDbLine
 10
-467.416219
 20
579.684144
 30
0.0
 11
-446.916219
 21
579.684144
 31
0.0
  0
ARC
  5
532
100
AcDbEntity
  8
0
370
    -3
390
0
  6
Continuous
100
AcDbCircle
 10
-467.416219
 20
576.684144
 30
0.0
 40
3.0
100
AcDbArc
 50
90.0
 51
180.0
  0
LINE
  5
533
100
AcDbEntity
  8
0
370
    -3
390
0
  6
Continuous
100
AcDbLine
 10
-487.983276
 20
461.684144
 30
0.0
 11
-470.619321
 21
506.442141
 31
0.0
  0
LINE
  5
534
100
AcDbEntity
  8
0
370
    -3
390
0
  6
CENTER
100
AcDbLine
 10
-455.915143
 20
449.684144
 30
0.0
 11
-496.142773
 21
449.684144
 31
0.0
  0
LINE
  5
535
100
AcDbEntity
  8
0
370
    -3
390
0
  6
Continuous
100
AcDbLine
 10
-470.416219
 20
605.684144
 30
0.0
 11
-470.416219
 21
465.681296
 31
0.0
  0
LINE
  5
536
100
AcDbEntity
  8
0
370
    -3
390
0
  6
Continuous
100
AcDbLine
 10
-462.916219
 20
553.684144
 30
0.0
 11
-462.916219
 21
469.681296
 31
0.0
  0
LINE
  5
537
100
AcDbEntity
  8
0
370
    -3
390
0
  6
Continuous
100
AcDbLine
 10
-492.916219
 20
568.684144
 30
0.0
 11
-492.916219
 21
375.934144
 31
0.0
  0
LINE
  5
538
100
AcDbEntity
  8
0
370
    -3
390
0
  6
Continuous
100
AcDbLine
 10
-473.416219
 20
384.184144
 30
0.0
 11
-473.416219
 21
369.684144
 31
0.0
  0
ARC
  5
539
100
AcDbEntity
  8
0
370
    -3
390
0
  6
Continuous
100
AcDbCircle
 10
-470.416219
 20
384.184144
 30
0.0
 40
3.0
100
AcDbArc
 50
90.0
 51
180.0
  0
LINE
  5
53A
100
AcDbEntity
  8
0
370
    -3
390
0
  6
Continuous
100
AcDbLine
 10
-468.416219
 20
433.436067
 30
0.0
 11
-464.916219
 21
433.436067
 31
0.0
  0
LINE
  5
53B
100
AcDbEntity
  8
0
370
    -3
390
0
  6
Continuous
100
AcDbLine
 10
-468.416219
 20
467.681296
 30
0.0
 11
-464.916219
 21
467.681296
 31
0.0
  0
LINE
  5
53C
100
AcDbEntity
  8
0
370
    -3
390
0
  6
Continuous
100
AcDbLine
 10
-470.416219
 20
435.436067
 30
0.0
 11
-470.416219
 21
369.684144
 31
0.0
  0
LINE
  5
53D
100
AcDbEntity
  8
0
370
    -3
390
0
  6
Continuous
100
AcDbLine
 10
-470.416219
 20
465.681296
 30
0.0
 11
-470.416219
 21
435.436067
 31
0.0
  0
LINE
  5
53E
100
AcDbEntity
  8
0
370
    -3
390
0
  6
Continuous
100
AcDbLine
 10
-462.916219
 20
469.681296
 30
0.0
 11
-462.916219
 21
431.436067
 31
0.0
  0
LINE
  5
53F
100
AcDbEntity
  8
0
370
    -3
390
0
  6
Continuous
100
AcDbLine
 10
-462.916219
 20
431.436067
 30
0.0
 11
-462.916219
 21
369.684144
 31
0.0
  0
ARC
  5
540
100
AcDbEntity
  8
0
370
    -3
390
0
  6
Continuous
100
AcDbCircle
 10
-468.416219
 20
465.681296
 30
0.0
 40
2.0
100
AcDbArc
 50
90.0
 51
180.0
  0
ARC
  5
541
100
AcDbEntity
  8
0
370
    -3
390
0
  6
Continuous
100
AcDbCircle
 10
-464.916219
 20
469.681296
 30
0.0
 40
2.0
100
AcDbArc
 50
270.0
 51
0.0
  0
ARC
  5
542
100
AcDbEntity
  8
0
370
    -3
390
0
  6
Continuous
100
AcDbCircle
 10
-464.916219
 20
431.436067
 30
0.0
 40
2.0
100
AcDbArc
 50
0.0
 51
90.0
  0
ARC
  5
543
100
AcDbEntity
  8
0
370
    -3
390
0
  6
Continuous
100
AcDbCircle
 10
-468.416219
 20
435.436067
 30
0.0
 40
2.0
100
AcDbArc
 50
180.0
 51
270.0
  0
LINE
  5
544
100
AcDbEntity
  8
0
370
    -3
390
0
  6
Continuous
100
AcDbLine
 10
-487.983276
 20
277.684144
 30
0.0
 11
-470.619321
 21
232.926147
 31
0.0
  0
LINE
  5
545
100
AcDbEntity
  8
0
370
    -3
390
0
  6
CENTER
100
AcDbLine
 10
-455.915143
 20
289.684144
 30
0.0
 11
-496.142773
 21
289.684144
 31
0.0
  0
LINE
  5
546
100
AcDbEntity
  8
0
370
    -3
390
0
  6
Continuous
100
AcDbLine
 10
-470.416219
 20
133.684144
 30
0.0
 11
-470.416219
 21
273.686991
 31
0.0
  0
LINE
  5
547
100
AcDbEntity
  8
0
370
    -3
390
0
  6
Continuous
100
AcDbLine
 10
-462.916219
 20
185.684144
 30
0.0
 11
-462.916219
 21
269.686991
 31
0.0
  0
LINE
  5
548
100
AcDbEntity
  8
0
370
    -3
390
0
  6
Continuous
100
AcDbLine
 10
-492.916219
 20
170.684144
 30
0.0
 11
-492.916219
 21
363.434144
 31
0.0
  0
LINE
  5
549
100
AcDbEntity
  8
0
370
    -3
390
0
  6
Continuous
100
AcDbLine
 10
-473.416219
 20
355.184144
 30
0.0
 11
-473.416219
 21
369.684144
 31
0.0
  0
ARC
  5
54A
100
AcDbEntity
  8
0
370
    -3
390
0
  6
Continuous
100
AcDbCircle
 10
-470.416219
 20
355.184144
 30
0.0
 40
3.0
100
AcDbArc
 50
180.0
 51
270.0
  0
LINE
  5
54B
100
AcDbEntity
  8
0
370
    -3
390
0
  6
Continuous
100
AcDbLine
 10
-468.416219
 20
305.93222
 30
0.0
 11
-464.916219
 21
305.93222
 31
0.0
  0
LINE
  5
54C
100
AcDbEntity
  8
0
370
    -3
390
0
  6
Continuous
100
AcDbLine
 10
-468.416219
 20
271.686991
 30
0.0
 11
-464.916219
 21
271.686991
 31
0.0
  0
LINE
  5
54D
100
AcDbEntity
  8
0
370
    -3
390
0
  6
Continuous
100
AcDbLine
 10
-470.416219
 20
303.93222
 30
0.0
 11
-470.416219
 21
369.684144
 31
0.0
  0
LINE
  5
54E
100
AcDbEntity
  8
0
370
    -3
390
0
  6
Continuous
100
AcDbLine
 10
-470.416219
 20
273.686991
 30
0.0
 11
-470.416219
 21
303.93222
 31
0.0
  0
LINE
  5
54F
100
AcDbEntity
  8
0
370
    -3
390
0
  6
Continuous
100
AcDbLine
 10
-462.916219
 20
269.686991
 30
0.0
 11
-462.916219
 21
307.93222
 31
0.0
  0
LINE
  5
550
100
AcDbEntity
  8
0
370
    -3
390
0
  6
Continuous
100
AcDbLine
 10
-462.916219
 20
307.93222
 30
0.0
 11
-462.916219
 21
369.684144
 31
0.0
  0
ARC
  5
551
100
AcDbEntity
  8
0
370
    -3
390
0
  6
Continuous
100
AcDbCircle
 10
-468.416219
 20
273.686991
 30
0.0
 40
2.0
100
AcDbArc
 50
180.0
 51
270.0
  0
ARC
  5
552
100
AcDbEntity
  8
0
370
    -3
390
0
  6
Continuous
100
AcDbCircle
 10
-464.916219
 20
269.686991
 30
0.0
 40
2.0
100
AcDbArc
 50
0.0
 51
90.0
  0
ARC
  5
553
100
AcDbEntity
  8
0
370
    -3
390
0
  6
Continuous
100
AcDbCircle
 10
-464.916219
 20
307.93222
 30
0.0
 40
2.0
100
AcDbArc
 50
270.0
 51
0.0
  0
ARC
  5
554
100
AcDbEntity
  8
0
370
    -3
390
0
  6
Continuous
100
AcDbCircle
 10
-468.416219
 20
303.93222
 30
0.0
 40
2.0
100
AcDbArc
 50
90.0
 51
180.0
  0
LINE
  5
555
100
AcDbEntity
  8
0
370
    -3
390
0
  6
Continuous
100
AcDbLine
 10
-467.416219
 20
608.684144
 30
0.0
 11
-446.416219
 21
608.684144
 31
0.0
  0
LINE
  5
556
100
AcDbEntity
  8
0
370
    -3
390
0
  6
Continuous
100
AcDbLine
 10
-446.916219
 20
608.684144
 30
0.0
 11
-446.916219
 21
369.684144
 31
0.0
  0
LINE
  5
557
100
AcDbEntity
  8
0
370
    -3
390
0
  6
Continuous
100
AcDbLine
 10
-446.416219
 20
124.684144
 30
0.0
 11
-446.416219
 21
369.684144
 31
0.0
  0
LINE
  5
558
100
AcDbEntity
  8
0
370
    -3
390
0
  6
Continuous
100
AcDbLine
 10
-467.416219
 20
130.684144
 30
0.0
 11
-446.416219
 21
130.684144
 31
0.0
  0
LINE
  5
559
100
AcDbEntity
  8
0
370
    -3
390
0
  6
Continuous
100
AcDbLine
 10
-446.916219
 20
130.684144
 30
0.0
 11
-446.916219
 21
369.684144
 31
0.0
  0
LINE
  5
55A
100
AcDbEntity
  8
0
370
    -3
390
0
  6
Continuous
100
AcDbLine
 10
-574.916219
 20
222.506177
 30
0.0
 11
-511.916219
 21
223.573974
 31
0.0
  0
LINE
  5
55B
100
AcDbEntity
  8
0
370
    -3
390
0
  6
Continuous
100
AcDbLine
 10
-641.752906
 20
517.994935
 30
0.0
 11
-511.916219
 21
515.794313
 31
0.0
  0
LINE
  5
55C
100
AcDbEntity
  8
0
370
    -3
390
0
  6
Continuous
100
AcDbLine
 10
-490.416192
 20
596.684144
 30
0.0
 11
-607.416219
 21
596.684144
 31
0.0
  0
ARC
  5
55D
100
AcDbEntity
  8
0
370
    -3
390
0
  6
Continuous
100
AcDbCircle
 10
-641.583439
 20
211.374788
 30
0.0
 40
10.0
100
AcDbArc
 50
90.971022
 51
135.0
  0
ARC
  5
55E
100
AcDbEntity
  8
0
370
    -3
390
0
  6
Continuous
100
AcDbCircle
 10
-658.274083
 20
194.684144
 30
0.0
 40
10.0
100
AcDbArc
 50
90.0
 51
135.0
  0
LINE
  5
55F
100
AcDbEntity
  8
0
370
    -3
390
0
  6
Continuous
100
AcDbLine
 10
-667.416219
 20
199.684144
 30
0.0
 11
-648.654506
 21
218.445856
 31
0.0
  0
LINE
  5
560
100
AcDbEntity
  8
0
370
    -3
390
0
  6
Continuous
100
AcDbLine
 10
-641.752906
 20
221.373352
 30
0.0
 11
-574.916219
 21
222.506177
 31
0.0
  0
LINE
  5
561
100
AcDbEntity
  8
0
370
    -3
390
0
  6
Continuous
100
AcDbLine
 10
-574.916219
 20
204.684144
 30
0.0
 11
-658.274083
 21
204.684144
 31
0.0
  0
ARC
  5
562
100
AcDbEntity
  8
0
370
    -3
390
0
  6
Continuous
100
AcDbCircle
 10
-672.416219
 20
180.542008
 30
0.0
 40
10.0
100
AcDbArc
 50
135.0
 51
180.0
  0
LINE
  5
563
100
AcDbEntity
  8
0
370
    -3
390
0
  6
Continuous
100
AcDbLine
 10
-679.487287
 20
187.613076
 30
0.0
 11
-667.416219
 21
199.684144
 31
0.0
  0
LINE
  5
564
100
AcDbEntity
  8
0
370
    -3
390
0
  6
Continuous
100
AcDbLine
 10
-682.416219
 20
130.684144
 30
0.0
 11
-682.416219
 21
180.542008
 31
0.0
  0
ARC
  5
565
100
AcDbEntity
  8
0
370
    -3
390
0
  6
Continuous
100
AcDbCircle
 10
-676.416219
 20
130.684144
 30
0.0
 40
6.0
100
AcDbArc
 50
180.0
 51
270.0
  0
ARC
  5
566
100
AcDbEntity
  8
0
370
    -3
390
0
  6
Continuous
100
AcDbCircle
 10
-607.416219
 20
154.684144
 30
0.0
 40
12.0
100
AcDbArc
 50
211.940043
 51
270.0
  0
LINE
  5
567
100
AcDbEntity
  8
0
370
    -3
390
0
  6
Continuous
100
AcDbLine
 10
-490.416192
 20
142.684144
 30
0.0
 11
-574.916219
 21
142.684144
 31
0.0
  0
LINE
  5
568
100
AcDbEntity
  8
0
370
    -3
390
0
  6
Continuous
100
AcDbLine
 10
-574.916219
 20
142.684144
 30
0.0
 11
-607.416219
 21
142.684144
 31
0.0
  0
LINE
  5
569
100
AcDbEntity
  8
0
370
    -3
390
0
  6
Continuous
100
AcDbLine
 10
-446.416219
 20
124.684144
 30
0.0
 11
-574.916219
 21
124.684144
 31
0.0
  0
LINE
  5
56A
100
AcDbEntity
  8
0
370
    -3
390
0
  6
Continuous
100
AcDbLine
 10
-607.416219
 20
124.684144
 30
0.0
 11
-607.416219
 21
142.684144
 31
0.0
  0
LINE
  5
56B
100
AcDbEntity
  8
0
370
    -3
390
0
  6
Continuous
100
AcDbLine
 10
-574.916219
 20
124.684144
 30
0.0
 11
-676.416219
 21
124.684144
 31
0.0
  0
ARC
  5
56C
100
AcDbEntity
  8
0
370
    -3
390
0
  6
Continuous
100
AcDbCircle
 10
-647.416219
 20
174.684144
 30
0.0
 40
14.0
100
AcDbArc
 50
28.154915
 51
151.845085
  0
ARC
  5
56D
100
AcDbEntity
  8
0
370
    -3
390
0
  6
Continuous
100
AcDbCircle
 10
-647.416219
 20
174.684144
 30
0.0
 40
14.0
100
AcDbArc
 50
151.845085
 51
28.154915
  0
MTEXT
  5
56F
100
AcDbEntity
  8
0
370
    -3
390
0
  6
Continuous
100
AcDbMText
 10
347.088562
 20
315.857208
 30
0.0
 40
16.0
 41
0.0
 71
     7
 72
     1
  1
\W0.83;三菱ギヤードモータ  
  7
ZU_SHPTB00001
 11
1.0
 21
0.0
 31
0.0
 73
     1
 44
1.0
  0
MTEXT
  5
570
100
AcDbEntity
  8
0
370
    -3
390
0
  6
Continuous
100
AcDbMText
 10
347.088562
 20
294.657196
 30
0.0
 40
16.0
 41
0.0
 71
     7
 72
     1
  1
\W0.60;GM-LJP
  7
ZU_SHPTB00001
 11
1.0
 21
0.0
 31
0.0
 73
     1
 44
1.0
  0
MTEXT
  5
571
100
AcDbEntity
  8
0
370
    -3
390
0
  6
Continuous
100
AcDbMText
 10
347.088562
 20
273.457214
 30
0.0
 40
16.0
 41
0.0
 71
     7
 72
     1
  1
\W0.60;11(kW)
  7
ZU_SHPTB00001
 11
1.0
 21
0.0
 31
0.0
 73
     1
 44
1.0
  0
MTEXT
  5
572
100
AcDbEntity
  8
0
370
    -3
390
0
  6
Continuous
100
AcDbMText
 10
347.088562
 20
252.257202
 30
0.0
 40
16.0
 41
0.0
 71
     7
 72
     1
  1
\W0.60;1/45
  7
ZU_SHPTB00001
 11
1.0
 21
0.0
 31
0.0
 73
     1
 44
1.0
  0
MTEXT
  5
573
100
AcDbEntity
  8
0
370
    -3
390
0
  6
Continuous
100
AcDbMText
 10
347.088562
 20
231.057205
 30
0.0
 40
16.0
 41
0.0
 71
     7
 72
     1
  1
\W1.00;ｷﾞﾔｻｲｽﾞ\W1.00; \W0.60;TN
  7
ZU_SHPTB00001
 11
1.0
 21
0.0
 31
0.0
 73
     1
 44
1.0
  0
MTEXT
  5
574
100
AcDbEntity
  8
0
370
    -3
390
0
  6
Continuous
100
AcDbMText
 10
347.088562
 20
209.857208
 30
0.0
 40
16.0
 41
0.0
 71
     7
 72
     1
  1
\W0.60;SCALE\W1.00; \W0.60;1/1
  7
ZU_SHPTB00001
 11
1.0
 21
0.0
 31
0.0
 73
     1
 44
1.0
  0
LINE
  5
575
100
AcDbEntity
  8
0
370
    -3
390
0
  6
CENTER
100
AcDbLine
 10
-1050.455222
 20
369.684144
 30
0.0
 11
-64.083155
 21
369.684144
 31
0.0
  0
INSERT
  5
57D
100
AcDbEntity
  8
0
390
0
100
AcDbBlockReference
  2
ZU_SYM_C__ZUOU_AC_BLOCK_BLKF030_0000600
 10
-1243.991486
 20
83.597028
 30
0.0
  0
LINE
  5
57E
100
AcDbEntity
  8
0
370
    -3
390
0
  6
Continuous
100
AcDbLine
 10
-895.916219
 20
424.916063
 30
0.0
 11
-927.916219
 21
418.664245
 31
0.0
  0
LINE
  5
57F
100
AcDbEntity
  8
0
370
    -3
390
0
  6
Continuous
100
AcDbLine
 10
-927.916219
 20
415.652482
 30
0.0
 11
-895.916219
 21
421.9043
 31
0.0
  0
LINE
  5
580
100
AcDbEntity
  8
0
370
    -3
390
0
  6
Continuous
100
AcDbLine
 10
-927.916219
 20
431.490107
 30
0.0
 11
-895.916219
 21
439.817406
 31
0.0
  0
LINE
  5
581
100
AcDbEntity
  8
0
370
    -3
390
0
  6
Continuous
100
AcDbLine
 10
-895.916219
 20
442.674939
 30
0.0
 11
-927.916219
 21
434.34764
 31
0.0
  0
LINE
  5
582
100
AcDbEntity
  8
0
370
    -3
390
0
  6
Continuous
100
AcDbLine
 10
-927.916219
 20
427.889073
 30
0.0
 11
-927.916219
 21
434.34764
 31
0.0
  0
LINE
  5
583
100
AcDbEntity
  8
0
370
    -3
390
0
  6
Continuous
100
AcDbLine
 10
-927.916219
 20
418.664246
 30
0.0
 11
-927.916219
 21
412.948963
 31
0.0
  0
ELLIPSE
  5
584
100
AcDbEntity
  8
0
370
    -3
390
0
  6
Continuous
100
AcDbEllipse
 10
-887.916219
 20
245.095963
 30
0.0
 11
33.60468000000003
 21
0.0
 31
0.0
210
0.0
220
0.0
230
1.0
 40
0.258819
 41
1.4214530011849682
 42
2.4097495062190464
  0
LINE
  5
585
100
AcDbEntity
  8
0
370
    -3
390
0
  6
Continuous
100
AcDbLine
 10
-926.116219
 20
237.184144
 30
0.0
 11
-933.625061
 21
237.184144
 31
0.0
  0
LINE
  5
586
100
AcDbEntity
  8
0
370
    -3
390
0
  6
Continuous
100
AcDbLine
 10
-926.116219
 20
235.318595
 30
0.0
 11
-926.116219
 21
239.68598
 31
0.0
  0
LINE
  5
587
100
AcDbEntity
  8
0
370
    -3
390
0
  6
Continuous
100
AcDbLine
 10
-1004.916219
 20
216.184144
 30
0.0
 11
-970.511493
 21
216.184144
 31
0.0
  0
LINE
  5
588
100
AcDbEntity
  8
0
370
    -3
390
0
  6
Continuous
100
AcDbLine
 10
-967.916219
 20
215.384144
 30
0.0
 11
-967.916219
 21
523.984144
 31
0.0
  0
LINE
  5
589
100
AcDbEntity
  8
0
370
    -3
390
0
  6
Continuous
100
AcDbLine
 10
-969.416219
 20
523.410217
 30
0.0
 11
-969.416219
 21
215.907004
 31
0.0
  0
LINE
  5
58A
100
AcDbEntity
  8
0
370
    -3
390
0
  6
Continuous
100
AcDbLine
 10
-1007.916219
 20
520.184144
 30
0.0
 11
-1007.916219
 21
219.184144
 31
0.0
  0
LINE
  5
58B
100
AcDbEntity
  8
0
370
    -3
390
0
  6
Continuous
100
AcDbLine
 10
-1033.916219
 20
483.684144
 30
0.0
 11
-1033.916219
 21
255.684144
 31
0.0
  0
LINE
  5
58C
100
AcDbEntity
  8
0
370
    -3
390
0
  6
Continuous
100
AcDbLine
 10
-1029.916219
 20
486.684144
 30
0.0
 11
-1029.916219
 21
252.684144
 31
0.0
  0
LINE
  5
58D
100
AcDbEntity
  8
0
370
    -3
390
0
  6
Continuous
100
AcDbLine
 10
-1029.319049
 20
251.831296
 30
0.0
 11
-1008.458763
 21
222.03972
 31
0.0
  0
ARC
  5
58E
100
AcDbEntity
  8
0
370
    -3
390
0
  6
Continuous
100
AcDbCircle
 10
-1030.916219
 20
255.684144
 30
0.0
 40
3.0
100
AcDbArc
 50
180.0
 51
270.0
  0
ARC
  5
58F
100
AcDbEntity
  8
0
370
    -3
390
0
  6
Continuous
100
AcDbCircle
 10
-1030.957353
 20
250.684144
 30
0.0
 40
2.0
100
AcDbArc
 50
35.0
 51
90.0
  0
ARC
  5
590
100
AcDbEntity
  8
0
370
    -3
390
0
  6
Continuous
100
AcDbCircle
 10
-1010.916219
 20
220.318991
 30
0.0
 40
3.0
100
AcDbArc
 50
0.0
 51
35.0
  0
ARC
  5
591
100
AcDbEntity
  8
0
370
    -3
390
0
  6
Continuous
100
AcDbCircle
 10
-1004.916219
 20
219.184144
 30
0.0
 40
3.0
100
AcDbArc
 50
180.0
 51
270.0
  0
LINE
  5
592
100
AcDbEntity
  8
0
370
    -3
390
0
  6
Continuous
100
AcDbLine
 10
-965.116806
 20
278.841205
 30
0.0
 11
-967.916219
 21
280.18782
 31
0.0
  0
LINE
  5
593
100
AcDbEntity
  8
0
370
    -3
390
0
  6
Continuous
100
AcDbLine
 10
-965.116806
 20
300.626116
 30
0.0
 11
-967.916219
 21
304.305137
 31
0.0
  0
LINE
  5
594
100
AcDbEntity
  8
0
370
    -3
390
0
  6
Continuous
100
AcDbLine
 10
-908.916219
 20
304.305137
 30
0.0
 11
-967.916219
 21
304.305137
 31
0.0
  0
ELLIPSE
  5
595
100
AcDbEntity
  8
0
370
    -3
390
0
  6
Continuous
100
AcDbEllipse
 10
-949.916219
 20
286.434144
 30
0.0
 11
5.0
 21
0.0
 31
0.0
210
0.0
220
0.0
230
1.0
 40
0.866
 41
0.0
 42
6.2831853071795862
  0
LINE
  5
596
100
AcDbEntity
  8
0
370
    -3
390
0
  6
CENTER
100
AcDbLine
 10
-949.916219
 20
295.027568
 30
0.0
 11
-949.916219
 21
278.26368
 31
0.0
  0
LINE
  5
597
100
AcDbEntity
  8
0
370
    -3
390
0
  6
CENTER
100
AcDbLine
 10
-942.642716
 20
286.434144
 30
0.0
 11
-957.189721
 21
286.434144
 31
0.0
  0
LINE
  5
598
100
AcDbEntity
  8
0
370
    -3
390
0
  6
Continuous
100
AcDbLine
 10
-949.916219
 20
291.434146
 30
0.0
 11
-954.916219
 21
288.934145
 31
0.0
  0
LINE
  5
599
100
AcDbEntity
  8
0
370
    -3
390
0
  6
Continuous
100
AcDbLine
 10
-954.916219
 20
288.934145
 30
0.0
 11
-954.916219
 21
283.934143
 31
0.0
  0
LINE
  5
59A
100
AcDbEntity
  8
0
370
    -3
390
0
  6
Continuous
100
AcDbLine
 10
-954.916219
 20
283.934143
 30
0.0
 11
-949.916219
 21
281.434142
 31
0.0
  0
LINE
  5
59B
100
AcDbEntity
  8
0
370
    -3
390
0
  6
Continuous
100
AcDbLine
 10
-949.916219
 20
281.434142
 30
0.0
 11
-944.916219
 21
283.934143
 31
0.0
  0
LINE
  5
59C
100
AcDbEntity
  8
0
370
    -3
390
0
  6
Continuous
100
AcDbLine
 10
-944.916219
 20
283.934143
 30
0.0
 11
-944.916219
 21
288.934145
 31
0.0
  0
LINE
  5
59D
100
AcDbEntity
  8
0
370
    -3
390
0
  6
Continuous
100
AcDbLine
 10
-944.916219
 20
288.934145
 30
0.0
 11
-949.916219
 21
291.434146
 31
0.0
  0
LINE
  5
59E
100
AcDbEntity
  8
0
370
    -3
390
0
  6
Continuous
100
AcDbLine
 10
-908.916219
 20
299.04829
 30
0.0
 11
-961.933557
 21
299.04829
 31
0.0
  0
LINE
  5
59F
100
AcDbEntity
  8
0
370
    -3
390
0
  6
Continuous
100
AcDbLine
 10
-963.916219
 20
292.802742
 30
0.0
 11
-963.916219
 21
284.142488
 31
0.0
  0
LINE
  5
5A0
100
AcDbEntity
  8
0
370
    -3
390
0
  6
Continuous
100
AcDbLine
 10
-908.916219
 20
278.26368
 30
0.0
 11
-961.933557
 21
278.26368
 31
0.0
  0
ELLIPSE
  5
5A1
100
AcDbEntity
  8
0
370
    -3
390
0
  6
Continuous
100
AcDbEllipse
 10
-956.916219
 20
284.142488
 30
0.0
 11
7.0
 21
0.0
 31
0.0
210
0.0
220
0.0
230
1.0
 40
0.83983
 41
3.1415926535897931
 42
4.7123889803846897
  0
ELLIPSE
  5
5A2
100
AcDbEntity
  8
0
370
    -3
390
0
  6
Continuous
100
AcDbEllipse
 10
-956.916219
 20
292.802742
 30
0.0
 11
7.0
 21
0.0
 31
0.0
210
0.0
220
0.0
230
1.0
 40
0.892221
 41
1.5786489530372321
 42
3.1415926535897931
  0
ARC
  5
5A3
100
AcDbEntity
  8
0
370
    -3
390
0
  6
Continuous
100
AcDbCircle
 10
-961.933557
 20
303.04829
 30
0.0
 40
4.0
100
AcDbArc
 50
217.267959
 51
270.0
  0
ARC
  5
5A4
100
AcDbEntity
  8
0
370
    -3
390
0
  6
Continuous
100
AcDbCircle
 10
-961.933557
 20
287.325295
 30
0.0
 40
9.061615
100
AcDbArc
 50
249.433801
 51
270.0
  0
ARC
  5
5A5
100
AcDbEntity
  8
0
370
    -3
390
0
  6
Continuous
100
AcDbCircle
 10
-990.006194
 20
292.802742
 30
0.0
 40
26.089975
100
AcDbArc
 50
0.0
 51
17.449275
  0
ARC
  5
5A6
100
AcDbEntity
  8
0
370
    -3
390
0
  6
Continuous
100
AcDbCircle
 10
-976.220614
 20
284.142488
 30
0.0
 40
12.304395
100
AcDbArc
 50
334.478825
 51
0.0
  0
ARC
  5
5A7
100
AcDbEntity
  8
0
370
    -3
390
0
  6
Continuous
100
AcDbCircle
 10
-912.916219
 20
398.569757
 30
0.0
 40
4.0
100
AcDbArc
 50
0.0
 51
90.0
  0
LINE
  5
5A8
100
AcDbEntity
  8
0
370
    -3
390
0
  6
Continuous
100
AcDbLine
 10
-908.916219
 20
305.889527
 30
0.0
 11
-908.916219
 21
398.569757
 31
0.0
  0
LINE
  5
5A9
100
AcDbEntity
  8
0
370
    -3
390
0
  6
Continuous
100
AcDbLine
 10
-912.916219
 20
402.569757
 30
0.0
 11
-929.916219
 21
402.569757
 31
0.0
  0
LINE
  5
5AA
100
AcDbEntity
  8
0
370
    -3
390
0
  6
Continuous
100
AcDbLine
 10
-929.916219
 20
483.976144
 30
0.0
 11
-912.916219
 21
483.976144
 31
0.0
  0
ARC
  5
5AB
100
AcDbEntity
  8
0
370
    -3
390
0
  6
Continuous
100
AcDbCircle
 10
-912.916219
 20
487.976144
 30
0.0
 40
4.0
100
AcDbArc
 50
270.0
 51
0.0
  0
LINE
  5
5AC
100
AcDbEntity
  8
0
370
    -3
390
0
  6
Continuous
100
AcDbLine
 10
-967.916219
 20
496.848046
 30
0.0
 11
-908.916219
 21
496.848046
 31
0.0
  0
LINE
  5
5AD
100
AcDbEntity
  8
0
370
    -3
390
0
  6
Continuous
100
AcDbLine
 10
-965.116806
 20
514.451206
 30
0.0
 11
-967.916219
 21
510.772185
 31
0.0
  0
LINE
  5
5AE
100
AcDbEntity
  8
0
370
    -3
390
0
  6
Continuous
100
AcDbLine
 10
-970.511493
 20
523.184144
 30
0.0
 11
-1004.916219
 21
523.184144
 31
0.0
  0
LINE
  5
5AF
100
AcDbEntity
  8
0
370
    -3
390
0
  6
Continuous
100
AcDbLine
 10
-961.565629
 20
504.029032
 30
0.0
 11
-908.916219
 21
504.029032
 31
0.0
  0
ARC
  5
5B0
100
AcDbEntity
  8
0
370
    -3
390
0
  6
Continuous
100
AcDbCircle
 10
-961.933557
 20
512.029032
 30
0.0
 40
4.0
100
AcDbArc
 50
90.0
 51
142.732041
  0
LINE
  5
5B1
100
AcDbEntity
  8
0
370
    -3
390
0
  6
Continuous
100
AcDbLine
 10
-963.916219
 20
507.846639
 30
0.0
 11
-963.916219
 21
512.846639
 31
0.0
  0
ARC
  5
5B2
100
AcDbEntity
  8
0
370
    -3
390
0
  6
Continuous
100
AcDbCircle
 10
-965.588751
 20
512.846639
 30
0.0
 40
1.672533
100
AcDbArc
 50
0.0
 51
73.610004
  0
LINE
  5
5B3
100
AcDbEntity
  8
0
370
    -3
390
0
  6
Continuous
100
AcDbLine
 10
-965.060073
 20
501.97553
 30
0.0
 11
-967.916219
 21
496.848046
 31
0.0
  0
ARC
  5
5B4
100
AcDbEntity
  8
0
370
    -3
390
0
  6
Continuous
100
AcDbCircle
 10
-961.565629
 20
500.029032
 30
0.0
 40
4.0
100
AcDbArc
 50
90.0
 51
150.88103
  0
ELLIPSE
  5
5B5
100
AcDbEntity
  8
0
370
    -3
390
0
  6
Continuous
100
AcDbEllipse
 10
-956.916219
 20
507.846639
 30
0.0
 11
7.0
 21
0.0
 31
0.0
210
0.0
220
0.0
230
1.0
 40
0.545372
 41
3.1415926535897931
 42
4.7123889803846897
  0
ARC
  5
5B6
100
AcDbEntity
  8
0
370
    -3
390
0
  6
Continuous
100
AcDbCircle
 10
-979.555581
 20
507.846639
 30
0.0
 40
15.639362
100
AcDbArc
 50
337.950598
 51
0.0
  0
ELLIPSE
  5
5B7
100
AcDbEntity
  8
0
370
    -3
390
0
  6
Continuous
100
AcDbEllipse
 10
-956.916219
 20
512.846639
 30
0.0
 11
7.0
 21
0.0
 31
0.0
210
0.0
220
0.0
230
1.0
 40
0.454628
 41
1.5721694153616843
 42
3.1415926535897931
  0
LINE
  5
5B8
100
AcDbEntity
  8
0
370
    -3
390
0
  6
Continuous
100
AcDbLine
 10
-961.933557
 20
516.029032
 30
0.0
 11
-952.462657
 21
516.029032
 31
0.0
  0
LINE
  5
5B9
100
AcDbEntity
  8
0
370
    -3
390
0
  6
CENTER
100
AcDbLine
 10
-957.189721
 20
513.877374
 30
0.0
 11
-942.642716
 21
513.877374
 31
0.0
  0
ELLIPSE
  5
5BA
100
AcDbEntity
  8
0
370
    -3
390
0
  6
Continuous
100
AcDbEllipse
 10
-949.916219
 20
513.877374
 30
0.0
 11
5.0
 21
0.0
 31
0.0
210
0.0
220
0.0
230
1.0
 40
0.501013
 41
0.0
 42
6.2831853071795862
  0
LINE
  5
5BB
100
AcDbEntity
  8
0
370
    -3
390
0
  6
Continuous
100
AcDbLine
 10
-954.916219
 20
512.433998
 30
0.0
 11
-954.916219
 21
508.969896
 31
0.0
  0
LINE
  5
5BC
100
AcDbEntity
  8
0
370
    -3
390
0
  6
Continuous
100
AcDbLine
 10
-949.916219
 20
516.764125
 30
0.0
 11
-954.916219
 21
515.320749
 31
0.0
  0
LINE
  5
5BD
100
AcDbEntity
  8
0
370
    -3
390
0
  6
Continuous
100
AcDbLine
 10
-954.916219
 20
515.320749
 30
0.0
 11
-954.916219
 21
512.433998
 31
0.0
  0
LINE
  5
5BE
100
AcDbEntity
  8
0
370
    -3
390
0
  6
Continuous
100
AcDbLine
 10
-954.916219
 20
512.433998
 30
0.0
 11
-949.916219
 21
510.990622
 31
0.0
  0
LINE
  5
5BF
100
AcDbEntity
  8
0
370
    -3
390
0
  6
Continuous
100
AcDbLine
 10
-954.916219
 20
508.969896
 30
0.0
 11
-949.916219
 21
507.526521
 31
0.0
  0
LINE
  5
5C0
100
AcDbEntity
  8
0
370
    -3
390
0
  6
Continuous
100
AcDbLine
 10
-933.916219
 20
406.569757
 30
0.0
 11
-933.916219
 21
479.976144
 31
0.0
  0
ARC
  5
5C1
100
AcDbEntity
  8
0
370
    -3
390
0
  6
Continuous
100
AcDbCircle
 10
-929.916219
 20
479.976144
 30
0.0
 40
4.0
100
AcDbArc
 50
90.0
 51
180.0
  0
LINE
  5
5C2
100
AcDbEntity
  8
0
370
    -3
390
0
  6
CENTER
100
AcDbLine
 10
-949.916219
 20
519.223163
 30
0.0
 11
-949.916219
 21
504.676158
 31
0.0
  0
LINE
  5
5C3
100
AcDbEntity
  8
0
370
    -3
390
0
  6
Continuous
100
AcDbLine
 10
-944.916219
 20
508.969896
 30
0.0
 11
-944.916219
 21
512.433998
 31
0.0
  0
LINE
  5
5C4
100
AcDbEntity
  8
0
370
    -3
390
0
  6
Continuous
100
AcDbLine
 10
-949.916219
 20
510.990622
 30
0.0
 11
-944.916219
 21
512.433998
 31
0.0
  0
LINE
  5
5C5
100
AcDbEntity
  8
0
370
    -3
390
0
  6
Continuous
100
AcDbLine
 10
-944.916219
 20
512.433998
 30
0.0
 11
-944.916219
 21
515.320749
 31
0.0
  0
LINE
  5
5C6
100
AcDbEntity
  8
0
370
    -3
390
0
  6
Continuous
100
AcDbLine
 10
-944.916219
 20
515.320749
 30
0.0
 11
-949.916219
 21
516.764125
 31
0.0
  0
LINE
  5
5C7
100
AcDbEntity
  8
0
370
    -3
390
0
  6
Continuous
100
AcDbLine
 10
-947.36978
 20
516.029032
 30
0.0
 11
-908.916219
 21
516.029032
 31
0.0
  0
LINE
  5
5C8
100
AcDbEntity
  8
0
370
    -3
390
0
  6
Continuous
100
AcDbLine
 10
-949.916219
 20
507.526521
 30
0.0
 11
-944.916219
 21
508.969896
 31
0.0
  0
ARC
  5
5C9
100
AcDbEntity
  8
0
370
    -3
390
0
  6
Continuous
100
AcDbCircle
 10
-1004.916219
 20
520.184144
 30
0.0
 40
3.0
100
AcDbArc
 50
90.0
 51
180.0
  0
ARC
  5
5CA
100
AcDbEntity
  8
0
370
    -3
390
0
  6
Continuous
100
AcDbCircle
 10
-1010.916219
 20
519.049296
 30
0.0
 40
3.0
100
AcDbArc
 50
325.0
 51
0.0
  0
LINE
  5
5CB
100
AcDbEntity
  8
0
370
    -3
390
0
  6
Continuous
100
AcDbLine
 10
-1008.458763
 20
517.328567
 30
0.0
 11
-1029.319049
 21
487.536991
 31
0.0
  0
ARC
  5
5CC
100
AcDbEntity
  8
0
370
    -3
390
0
  6
Continuous
100
AcDbCircle
 10
-1030.916219
 20
483.684144
 30
0.0
 40
3.0
100
AcDbArc
 50
90.0
 51
180.0
  0
ARC
  5
5CD
100
AcDbEntity
  8
0
370
    -3
390
0
  6
Continuous
100
AcDbCircle
 10
-1030.957353
 20
488.684144
 30
0.0
 40
2.0
100
AcDbArc
 50
270.0
 51
325.0
  0
LINE
  5
5CE
100
AcDbEntity
  8
0
370
    -3
390
0
  6
Continuous
100
AcDbLine
 10
-908.916219
 20
487.976144
 30
0.0
 11
-908.916219
 21
495.289022
 31
0.0
  0
LINE
  5
5CF
100
AcDbEntity
  8
0
370
    -3
390
0
  6
Continuous
100
AcDbLine
 10
-933.916219
 20
235.68598
 30
0.0
 11
-933.916219
 21
229.04289
 31
0.0
  0
ARC
  5
5D0
100
AcDbEntity
  8
0
370
    -3
390
0
  6
Continuous
100
AcDbCircle
 10
-929.916219
 20
406.569757
 30
0.0
 40
4.0
100
AcDbArc
 50
180.0
 51
270.0
  0
ARC
  5
5D1
100
AcDbEntity
  8
0
370
    -3
390
0
  6
Continuous
100
AcDbCircle
 10
-916.916219
 20
243.68598
 30
0.0
 40
4.0
100
AcDbArc
 50
270.0
 51
0.0
  0
LINE
  5
5D2
100
AcDbEntity
  8
0
370
    -3
390
0
  6
Continuous
100
AcDbLine
 10
-912.916219
 20
270.556278
 30
0.0
 11
-912.916219
 21
243.68598
 31
0.0
  0
ARC
  5
5D3
100
AcDbEntity
  8
0
370
    -3
390
0
  6
Continuous
100
AcDbCircle
 10
-929.916219
 20
235.68598
 30
0.0
 40
4.0
100
AcDbArc
 50
90.0
 51
180.0
  0
LINE
  5
5D4
100
AcDbEntity
  8
0
370
    -3
390
0
  6
Continuous
100
AcDbLine
 10
-916.916219
 20
239.68598
 30
0.0
 11
-929.916219
 21
239.68598
 31
0.0
  0
ARC
  5
5D5
100
AcDbEntity
  8
0
370
    -3
390
0
  6
Continuous
100
AcDbCircle
 10
-910.955987
 20
270.493303
 30
0.0
 40
1.961244
100
AcDbArc
 50
88.838149
 51
178.159931
  0
LINE
  5
5D6
100
AcDbEntity
  8
0
370
    -3
390
0
  6
Continuous
100
AcDbLine
 10
-908.916219
 20
274.454143
 30
0.0
 11
-908.916219
 21
277.377314
 31
0.0
  0
LINE
  5
5D7
100
AcDbEntity
  8
0
370
    -3
390
0
  6
Continuous
100
AcDbLine
 10
-908.916219
 20
277.377314
 30
0.0
 11
-908.916219
 21
299.490973
 31
0.0
  0
LINE
  5
5D8
100
AcDbEntity
  8
0
370
    -3
390
0
  6
Continuous
100
AcDbLine
 10
-908.916219
 20
299.490973
 30
0.0
 11
-908.916219
 21
305.889527
 31
0.0
  0
LINE
  5
5D9
100
AcDbEntity
  8
0
370
    -3
390
0
  6
Continuous
100
AcDbLine
 10
-908.916219
 20
504.029608
 30
0.0
 11
-908.916219
 21
495.289022
 31
0.0
  0
LINE
  5
5DA
100
AcDbEntity
  8
0
370
    -3
390
0
  6
Continuous
100
AcDbLine
 10
-908.916219
 20
516.796935
 30
0.0
 11
-908.916219
 21
504.029608
 31
0.0
  0
LINE
  5
5DB
100
AcDbEntity
  8
0
370
    -3
390
0
  6
Continuous
100
AcDbLine
 10
-908.916219
 20
525.184144
 30
0.0
 11
-908.916219
 21
516.796935
 31
0.0
  0
LINE
  5
5DC
100
AcDbEntity
  8
0
370
    -3
390
0
  6
CENTER
100
AcDbLine
 10
-782.916219
 20
400.150555
 30
0.0
 11
-782.916219
 21
335.185698
 31
0.0
  0
LINE
  5
5DD
100
AcDbEntity
  8
0
370
    -3
390
0
  6
Continuous
100
AcDbLine
 10
-805.916219
 20
226.380936
 30
0.0
 11
-825.620453
 21
236.598257
 31
0.0
  0
LINE
  5
5DE
100
AcDbEntity
  8
0
370
    -3
390
0
  6
Continuous
100
AcDbLine
 10
-805.916219
 20
227.79626
 30
0.0
 11
-822.890983
 21
236.598257
 31
0.0
  0
LINE
  5
5DF
100
AcDbEntity
  8
0
370
    -3
390
0
  6
Continuous
100
AcDbLine
 10
-805.916219
 20
226.380936
 30
0.0
 11
-805.916219
 21
227.79626
 31
0.0
  0
LINE
  5
5E0
100
AcDbEntity
  8
0
370
    -3
390
0
  6
Continuous
100
AcDbLine
 10
-906.916219
 20
524.684144
 30
0.0
 11
-908.916219
 21
522.684144
 31
0.0
  0
LINE
  5
5E1
100
AcDbEntity
  8
0
370
    -3
390
0
  6
Continuous
100
AcDbLine
 10
-906.916219
 20
524.684144
 30
0.0
 11
-902.426964
 21
524.684144
 31
0.0
  0
LINE
  5
5E2
100
AcDbEntity
  8
0
370
    -3
390
0
  6
Continuous
100
AcDbLine
 10
-895.916219
 20
528.231034
 30
0.0
 11
-895.916219
 21
528.440324
 31
0.0
  0
LINE
  5
5E3
100
AcDbEntity
  8
0
370
    -3
390
0
  6
Continuous
100
AcDbLine
 10
-908.916219
 20
520.940361
 30
0.0
 11
-895.916219
 21
528.440324
 31
0.0
  0
LINE
  5
5E4
100
AcDbEntity
  8
0
370
    -3
390
0
  6
Continuous
100
AcDbLine
 10
-895.916219
 20
528.231034
 30
0.0
 11
-908.916219
 21
520.731071
 31
0.0
  0
LINE
  5
5E5
100
AcDbEntity
  8
0
370
    -3
390
0
  6
Continuous
100
AcDbLine
 10
-895.916219
 20
525.308963
 30
0.0
 11
-908.916219
 21
517.937326
 31
0.0
  0
LINE
  5
5E6
100
AcDbEntity
  8
0
370
    -3
390
0
  6
Continuous
100
AcDbLine
 10
-908.916219
 20
518.561615
 30
0.0
 11
-895.916219
 21
525.933252
 31
0.0
  0
LINE
  5
5E7
100
AcDbEntity
  8
0
370
    -3
390
0
  6
Continuous
100
AcDbLine
 10
-895.916219
 20
525.941148
 30
0.0
 11
-895.916219
 21
525.316859
 31
0.0
  0
LINE
  5
5E8
100
AcDbEntity
  8
0
370
    -3
390
0
  6
Continuous
100
AcDbLine
 10
-895.916219
 20
519.724108
 30
0.0
 11
-908.916219
 21
512.606928
 31
0.0
  0
LINE
  5
5E9
100
AcDbEntity
  8
0
370
    -3
390
0
  6
Continuous
100
AcDbLine
 10
-895.916219
 20
520.752714
 30
0.0
 11
-908.916219
 21
513.635534
 31
0.0
  0
LINE
  5
5EA
100
AcDbEntity
  8
0
370
    -3
390
0
  6
Continuous
100
AcDbLine
 10
-895.916219
 20
520.760338
 30
0.0
 11
-895.916219
 21
519.724108
 31
0.0
  0
LINE
  5
5EB
100
AcDbEntity
  8
0
370
    -3
390
0
  6
Continuous
100
AcDbLine
 10
-895.916219
 20
512.987351
 30
0.0
 11
-895.916219
 21
511.572027
 31
0.0
  0
LINE
  5
5EC
100
AcDbEntity
  8
0
370
    -3
390
0
  6
Continuous
100
AcDbLine
 10
-895.916219
 20
511.572027
 30
0.0
 11
-908.916219
 21
504.831082
 31
0.0
  0
LINE
  5
5ED
100
AcDbEntity
  8
0
370
    -3
390
0
  6
Continuous
100
AcDbLine
 10
-895.916219
 20
512.987351
 30
0.0
 11
-908.916219
 21
506.246406
 31
0.0
  0
LINE
  5
5EE
100
AcDbEntity
  8
0
370
    -3
390
0
  6
Continuous
100
AcDbLine
 10
-908.916219
 20
487.803456
 30
0.0
 11
-882.049824
 21
487.803456
 31
0.0
  0
LINE
  5
5EF
100
AcDbEntity
  8
0
370
    -3
390
0
  6
Continuous
100
AcDbLine
 10
-801.916219
 20
374.684144
 30
0.0
 11
-801.916219
 21
388.684144
 31
0.0
  0
ARC
  5
5F0
100
AcDbEntity
  8
0
370
    -3
390
0
  6
Continuous
100
AcDbCircle
 10
-800.916219
 20
388.684144
 30
0.0
 40
1.0
100
AcDbArc
 50
90.0
 51
180.0
  0
ARC
  5
5F1
100
AcDbEntity
  8
0
370
    -3
390
0
  6
Continuous
100
AcDbCircle
 10
-800.916219
 20
350.684144
 30
0.0
 40
1.0
100
AcDbArc
 50
180.0
 51
270.0
  0
LINE
  5
5F2
100
AcDbEntity
  8
0
370
    -3
390
0
  6
Continuous
100
AcDbLine
 10
-801.916219
 20
350.684144
 30
0.0
 11
-801.916219
 21
364.684144
 31
0.0
  0
LINE
  5
5F3
100
AcDbEntity
  8
0
370
    -3
390
0
  6
Continuous
100
AcDbLine
 10
-800.916219
 20
349.684144
 30
0.0
 11
-782.916219
 21
349.684144
 31
0.0
  0
LINE
  5
5F4
100
AcDbEntity
  8
0
370
    -3
390
0
  6
Continuous
100
AcDbLine
 10
-800.916219
 20
389.684144
 30
0.0
 11
-782.916219
 21
389.684144
 31
0.0
  0
ARC
  5
5F5
100
AcDbEntity
  8
0
370
    -3
390
0
  6
Continuous
100
AcDbCircle
 10
-802.916219
 20
369.684144
 30
0.0
 40
5.0
100
AcDbArc
 50
90.0
 51
270.0
  0
LINE
  5
5F6
100
AcDbEntity
  8
0
370
    -3
390
0
  6
Continuous
100
AcDbLine
 10
-805.916219
 20
214.059325
 30
0.0
 11
-837.916219
 21
232.204892
 31
0.0
  0
LINE
  5
5F7
100
AcDbEntity
  8
0
370
    -3
390
0
  6
Continuous
100
AcDbLine
 10
-837.916219
 20
231.580603
 30
0.0
 11
-805.916219
 21
213.435036
 31
0.0
  0
LINE
  5
5F8
100
AcDbEntity
  8
0
370
    -3
390
0
  6
Continuous
100
AcDbLine
 10
-805.916219
 20
213.42714
 30
0.0
 11
-805.916219
 21
214.051429
 31
0.0
  0
LINE
  5
5F9
100
AcDbEntity
  8
0
370
    -3
390
0
  6
Continuous
100
AcDbLine
 10
-805.916219
 20
219.64418
 30
0.0
 11
-836.883964
 21
236.598257
 31
0.0
  0
LINE
  5
5FA
100
AcDbEntity
  8
0
370
    -3
390
0
  6
Continuous
100
AcDbLine
 10
-805.916219
 20
218.615573
 30
0.0
 11
-837.916219
 21
236.134785
 31
0.0
  0
LINE
  5
5FB
100
AcDbEntity
  8
0
370
    -3
390
0
  6
Continuous
100
AcDbLine
 10
-805.916219
 20
218.60795
 30
0.0
 11
-805.916219
 21
219.64418
 31
0.0
  0
ARC
  5
5FC
100
AcDbEntity
  8
0
370
    -3
390
0
  6
Continuous
100
AcDbCircle
 10
-844.716219
 20
235.318595
 30
0.0
 40
5.0
100
AcDbArc
 50
180.0
 51
203.8787
  0
LINE
  5
5FD
100
AcDbEntity
  8
0
370
    -3
390
0
  6
Continuous
100
AcDbLine
 10
-849.289269
 20
233.296908
 30
0.0
 11
-847.406039
 21
229.04289
 31
0.0
  0
LINE
  5
5FE
100
AcDbEntity
  8
0
370
    -3
390
0
  6
Continuous
100
AcDbLine
 10
-849.716219
 20
235.318595
 30
0.0
 11
-849.716219
 21
236.598257
 31
0.0
  0
ARC
  5
5FF
100
AcDbEntity
  8
0
370
    -3
390
0
  6
Continuous
100
AcDbCircle
 10
-931.116219
 20
235.318595
 30
0.0
 40
5.0
100
AcDbArc
 50
336.1213
 51
0.0
  0
LINE
  5
600
100
AcDbEntity
  8
0
370
    -3
390
0
  6
Continuous
100
AcDbLine
 10
-926.544196
 20
233.294587
 30
0.0
 11
-928.426399
 21
229.04289
 31
0.0
  0
LINE
  5
601
100
AcDbEntity
  8
0
370
    -3
390
0
  6
Continuous
100
AcDbLine
 10
-937.916219
 20
229.04289
 30
0.0
 11
-837.916219
 21
229.04289
 31
0.0
  0
LINE
  5
602
100
AcDbEntity
  8
0
370
    -3
390
0
  6
Continuous
100
AcDbLine
 10
-937.916219
 20
229.04289
 30
0.0
 11
-937.916219
 21
222.632465
 31
0.0
  0
LINE
  5
603
100
AcDbEntity
  8
0
370
    -3
390
0
  6
Continuous
100
AcDbLine
 10
-837.916219
 20
229.04289
 30
0.0
 11
-837.916219
 21
222.632465
 31
0.0
  0
LINE
  5
604
100
AcDbEntity
  8
0
370
    -3
390
0
  6
Continuous
100
AcDbLine
 10
-937.916219
 20
225.951927
 30
0.0
 11
-837.916219
 21
225.951927
 31
0.0
  0
LINE
  5
605
100
AcDbEntity
  8
0
370
    -3
390
0
  6
Continuous
100
AcDbLine
 10
-825.794584
 20
222.605484
 30
0.0
 11
-837.916219
 21
229.598701
 31
0.0
  0
LINE
  5
606
100
AcDbEntity
  8
0
370
    -3
390
0
  6
Continuous
100
AcDbLine
 10
-818.04379
 20
217.924604
 30
0.0
 11
-805.916219
 21
210.927963
 31
0.0
  0
LINE
  5
607
100
AcDbEntity
  8
0
370
    -3
390
0
  6
Continuous
100
AcDbLine
 10
-805.916219
 20
211.137253
 30
0.0
 11
-805.916219
 21
210.927963
 31
0.0
  0
LINE
  5
608
100
AcDbEntity
  8
0
370
    -3
390
0
  6
Continuous
100
AcDbLine
 10
-837.916219
 20
229.389411
 30
0.0
 11
-826.194437
 21
222.626878
 31
0.0
  0
LINE
  5
609
100
AcDbEntity
  8
0
370
    -3
390
0
  6
Continuous
100
AcDbLine
 10
-805.916219
 20
211.137253
 30
0.0
 11
-818.26246
 21
218.26005
 31
0.0
  0
LINE
  5
60A
100
AcDbEntity
  8
0
370
    -3
390
0
  6
Continuous
100
AcDbLine
 10
-961.338733
 20
198.029776
 30
0.0
 11
-959.213452
 21
213.973387
 31
0.0
  0
LINE
  5
60B
100
AcDbEntity
  8
0
370
    -3
390
0
  6
Continuous
100
AcDbLine
 10
-814.493705
 20
198.029776
 30
0.0
 11
-816.618985
 21
213.973387
 31
0.0
  0
LINE
  5
60C
100
AcDbEntity
  8
0
370
    -3
390
0
  6
Continuous
100
AcDbLine
 10
-937.916219
 20
227.011536
 30
0.0
 11
-937.916219
 21
225.735468
 31
0.0
  0
ARC
  5
60D
100
AcDbEntity
  8
0
370
    -3
390
0
  6
Continuous
100
AcDbCircle
 10
-949.303764
 20
212.632465
 30
0.0
 40
10.0
100
AcDbArc
 50
90.0
 51
172.293871
  0
ARC
  5
60E
100
AcDbEntity
  8
0
370
    -3
390
0
  6
Continuous
100
AcDbCircle
 10
-948.076107
 20
206.889402
 30
0.0
 40
11.0
100
AcDbArc
 50
90.0
 51
165.59296
  0
ARC
  5
60F
100
AcDbEntity
  8
0
370
    -3
390
0
  6
Continuous
100
AcDbCircle
 10
-826.528674
 20
212.632465
 30
0.0
 40
10.0
100
AcDbArc
 50
7.706129
 51
90.0
  0
ARC
  5
610
100
AcDbEntity
  8
0
370
    -3
390
0
  6
Continuous
100
AcDbCircle
 10
-948.076107
 20
206.889402
 30
0.0
 40
11.0
100
AcDbArc
 50
90.0
 51
165.59296
  0
ARC
  5
611
100
AcDbEntity
  8
0
370
    -3
390
0
  6
Continuous
100
AcDbCircle
 10
-948.846179
 20
203.780818
 30
0.0
 40
11.0
100
AcDbArc
 50
90.0
 51
166.580115
  0
ARC
  5
612
100
AcDbEntity
  8
0
370
    -3
390
0
  6
Continuous
100
AcDbCircle
 10
-948.237158
 20
200.535014
 30
0.0
 40
9.0
100
AcDbArc
 50
90.0
 51
167.740529
  0
ARC
  5
613
100
AcDbEntity
  8
0
370
    -3
390
0
  6
Continuous
100
AcDbCircle
 10
-827.756331
 20
206.889402
 30
0.0
 40
11.0
100
AcDbArc
 50
14.40704
 51
90.0
  0
ARC
  5
614
100
AcDbEntity
  8
0
370
    -3
390
0
  6
Continuous
100
AcDbCircle
 10
-826.986259
 20
203.780818
 30
0.0
 40
11.0
100
AcDbArc
 50
13.419885
 51
90.0
  0
ARC
  5
615
100
AcDbEntity
  8
0
370
    -3
390
0
  6
Continuous
100
AcDbCircle
 10
-827.59528
 20
200.535014
 30
0.0
 40
9.0
100
AcDbArc
 50
12.259471
 51
90.0
  0
LINE
  5
616
100
AcDbEntity
  8
0
370
    -3
390
0
  6
Continuous
100
AcDbLine
 10
-949.303764
 20
222.632465
 30
0.0
 11
-826.528674
 21
222.632465
 31
0.0
  0
LINE
  5
617
100
AcDbEntity
  8
0
370
    -3
390
0
  6
Continuous
100
AcDbLine
 10
-950.24388
 20
146.515947
 30
0.0
 11
-822.985562
 21
146.515947
 31
0.0
  0
LINE
  5
618
100
AcDbEntity
  8
0
370
    -3
390
0
  6
Continuous
100
AcDbLine
 10
-948.237158
 20
209.535014
 30
0.0
 11
-827.59528
 21
209.535014
 31
0.0
  0
LINE
  5
619
100
AcDbEntity
  8
0
370
    -3
390
0
  6
Continuous
100
AcDbLine
 10
-948.076107
 20
217.889402
 30
0.0
 11
-827.756331
 21
217.889402
 31
0.0
  0
LINE
  5
61A
100
AcDbEntity
  8
0
370
    -3
390
0
  6
Continuous
100
AcDbLine
 10
-948.846179
 20
214.780818
 30
0.0
 11
-826.986259
 21
214.780818
 31
0.0
  0
LINE
  5
61B
100
AcDbEntity
  8
0
370
    -3
390
0
  6
Continuous
100
AcDbLine
 10
-937.916219
 20
229.04289
 30
0.0
 11
-937.916219
 21
222.632465
 31
0.0
  0
LINE
  5
61C
100
AcDbEntity
  8
0
370
    -3
390
0
  6
Continuous
100
AcDbLine
 10
-850.916219
 20
236.598257
 30
0.0
 11
-850.916219
 21
238.376082
 31
0.0
  0
LINE
  5
61D
100
AcDbEntity
  8
0
370
    -3
390
0
  6
Continuous
100
AcDbLine
 10
-882.916219
 20
260.411365
 30
0.0
 11
-876.955125
 21
260.411365
 31
0.0
  0
LINE
  5
61E
100
AcDbEntity
  8
0
370
    -3
390
0
  6
Continuous
100
AcDbLine
 10
-882.916219
 20
251.981326
 30
0.0
 11
-882.916219
 21
260.411365
 31
0.0
  0
LINE
  5
61F
100
AcDbEntity
  8
0
370
    -3
390
0
  6
Continuous
100
AcDbLine
 10
-882.916219
 20
253.759151
 30
0.0
 11
-850.916219
 21
238.376082
 31
0.0
  0
LINE
  5
620
100
AcDbEntity
  8
0
370
    -3
390
0
  6
Continuous
100
AcDbLine
 10
-850.916219
 20
236.598257
 30
0.0
 11
-882.916219
 21
251.981326
 31
0.0
  0
LINE
  5
621
100
AcDbEntity
  8
0
370
    -3
390
0
  6
Continuous
100
AcDbLine
 10
-850.916219
 20
249.092714
 30
0.0
 11
-850.916219
 21
251.20262
 31
0.0
  0
LINE
  5
622
100
AcDbEntity
  8
0
370
    -3
390
0
  6
Continuous
100
AcDbLine
 10
-882.916219
 20
271.127586
 30
0.0
 11
-870.530442
 21
271.127586
 31
0.0
  0
LINE
  5
623
100
AcDbEntity
  8
0
370
    -3
390
0
  6
Continuous
100
AcDbLine
 10
-882.916219
 20
263.002547
 30
0.0
 11
-882.916219
 21
271.127586
 31
0.0
  0
LINE
  5
624
100
AcDbEntity
  8
0
370
    -3
390
0
  6
Continuous
100
AcDbLine
 10
-882.916219
 20
265.112454
 30
0.0
 11
-850.916219
 21
251.20262
 31
0.0
  0
LINE
  5
625
100
AcDbEntity
  8
0
370
    -3
390
0
  6
Continuous
100
AcDbLine
 10
-850.916219
 20
249.092714
 30
0.0
 11
-882.916219
 21
263.002547
 31
0.0
  0
LINE
  5
626
100
AcDbEntity
  8
0
370
    -3
390
0
  6
Continuous
100
AcDbLine
 10
-850.916219
 20
266.056411
 30
0.0
 11
-850.916219
 21
263.650524
 31
0.0
  0
LINE
  5
627
100
AcDbEntity
  8
0
370
    -3
390
0
  6
Continuous
100
AcDbLine
 10
-882.916219
 20
283.530137
 30
0.0
 11
-861.836074
 21
283.530137
 31
0.0
  0
LINE
  5
628
100
AcDbEntity
  8
0
370
    -3
390
0
  6
Continuous
100
AcDbLine
 10
-882.916219
 20
275.84912
 30
0.0
 11
-882.916219
 21
283.530137
 31
0.0
  0
LINE
  5
629
100
AcDbEntity
  8
0
370
    -3
390
0
  6
Continuous
100
AcDbLine
 10
-882.916219
 20
278.255007
 30
0.0
 11
-850.916219
 21
266.056411
 31
0.0
  0
LINE
  5
62A
100
AcDbEntity
  8
0
370
    -3
390
0
  6
Continuous
100
AcDbLine
 10
-850.916219
 20
263.650524
 30
0.0
 11
-882.916219
 21
275.84912
 31
0.0
  0
LINE
  5
62B
100
AcDbEntity
  8
0
370
    -3
390
0
  6
Continuous
100
AcDbLine
 10
-850.916219
 20
282.683301
 30
0.0
 11
-850.916219
 21
280.022598
 31
0.0
  0
LINE
  5
62C
100
AcDbEntity
  8
0
370
    -3
390
0
  6
Continuous
100
AcDbLine
 10
-882.916219
 20
290.301236
 30
0.0
 11
-882.916219
 21
296.693349
 31
0.0
  0
LINE
  5
62D
100
AcDbEntity
  8
0
370
    -3
390
0
  6
Continuous
100
AcDbLine
 10
-882.916219
 20
292.961939
 30
0.0
 11
-850.916219
 21
282.683301
 31
0.0
  0
LINE
  5
62E
100
AcDbEntity
  8
0
370
    -3
390
0
  6
Continuous
100
AcDbLine
 10
-850.916219
 20
280.022598
 30
0.0
 11
-882.916219
 21
290.301236
 31
0.0
  0
LINE
  5
62F
100
AcDbEntity
  8
0
370
    -3
390
0
  6
Continuous
100
AcDbLine
 10
-895.916219
 20
299.550881
 30
0.0
 11
-895.916219
 21
296.693349
 31
0.0
  0
LINE
  5
630
100
AcDbEntity
  8
0
370
    -3
390
0
  6
Continuous
100
AcDbLine
 10
-908.916219
 20
302.933846
 30
0.0
 11
-895.916219
 21
299.550881
 31
0.0
  0
LINE
  5
631
100
AcDbEntity
  8
0
370
    -3
390
0
  6
Continuous
100
AcDbLine
 10
-895.916219
 20
296.693349
 30
0.0
 11
-908.916219
 21
300.076314
 31
0.0
  0
LINE
  5
632
100
AcDbEntity
  8
0
370
    -3
390
0
  6
Continuous
100
AcDbLine
 10
-895.916219
 20
314.452224
 30
0.0
 11
-895.916219
 21
317.463988
 31
0.0
  0
LINE
  5
633
100
AcDbEntity
  8
0
370
    -3
390
0
  6
Continuous
100
AcDbLine
 10
-908.916219
 20
320.003788
 30
0.0
 11
-895.916219
 21
317.463988
 31
0.0
  0
LINE
  5
634
100
AcDbEntity
  8
0
370
    -3
390
0
  6
Continuous
100
AcDbLine
 10
-895.916219
 20
314.452224
 30
0.0
 11
-908.916219
 21
316.992025
 31
0.0
  0
LINE
  5
635
100
AcDbEntity
  8
0
370
    -3
390
0
  6
Continuous
100
AcDbLine
 10
-850.916219
 20
490.275574
 30
0.0
 11
-850.916219
 21
488.165667
 31
0.0
  0
LINE
  5
636
100
AcDbEntity
  8
0
370
    -3
390
0
  6
Continuous
100
AcDbLine
 10
-882.916219
 20
468.240702
 30
0.0
 11
-870.530442
 21
468.240702
 31
0.0
  0
LINE
  5
637
100
AcDbEntity
  8
0
370
    -3
390
0
  6
Continuous
100
AcDbLine
 10
-882.916219
 20
476.36574
 30
0.0
 11
-882.916219
 21
468.240702
 31
0.0
  0
LINE
  5
638
100
AcDbEntity
  8
0
370
    -3
390
0
  6
Continuous
100
AcDbLine
 10
-882.916219
 20
474.255834
 30
0.0
 11
-850.916219
 21
488.165667
 31
0.0
  0
LINE
  5
639
100
AcDbEntity
  8
0
370
    -3
390
0
  6
Continuous
100
AcDbLine
 10
-850.916219
 20
490.275574
 30
0.0
 11
-882.916219
 21
476.36574
 31
0.0
  0
LINE
  5
63A
100
AcDbEntity
  8
0
370
    -3
390
0
  6
Continuous
100
AcDbLine
 10
-850.916219
 20
473.311877
 30
0.0
 11
-850.916219
 21
475.717764
 31
0.0
  0
LINE
  5
63B
100
AcDbEntity
  8
0
370
    -3
390
0
  6
Continuous
100
AcDbLine
 10
-882.916219
 20
455.838151
 30
0.0
 11
-861.836074
 21
455.838151
 31
0.0
  0
LINE
  5
63C
100
AcDbEntity
  8
0
370
    -3
390
0
  6
Continuous
100
AcDbLine
 10
-882.916219
 20
463.519167
 30
0.0
 11
-882.916219
 21
455.838151
 31
0.0
  0
LINE
  5
63D
100
AcDbEntity
  8
0
370
    -3
390
0
  6
Continuous
100
AcDbLine
 10
-882.916219
 20
461.11328
 30
0.0
 11
-850.916219
 21
473.311877
 31
0.0
  0
LINE
  5
63E
100
AcDbEntity
  8
0
370
    -3
390
0
  6
Continuous
100
AcDbLine
 10
-850.916219
 20
475.717764
 30
0.0
 11
-882.916219
 21
463.519167
 31
0.0
  0
LINE
  5
63F
100
AcDbEntity
  8
0
370
    -3
390
0
  6
Continuous
100
AcDbLine
 10
-850.916219
 20
456.684987
 30
0.0
 11
-850.916219
 21
459.34569
 31
0.0
  0
LINE
  5
640
100
AcDbEntity
  8
0
370
    -3
390
0
  6
Continuous
100
AcDbLine
 10
-882.916219
 20
449.067051
 30
0.0
 11
-882.916219
 21
442.674939
 31
0.0
  0
LINE
  5
641
100
AcDbEntity
  8
0
370
    -3
390
0
  6
Continuous
100
AcDbLine
 10
-882.916219
 20
446.406349
 30
0.0
 11
-850.916219
 21
456.684987
 31
0.0
  0
LINE
  5
642
100
AcDbEntity
  8
0
370
    -3
390
0
  6
Continuous
100
AcDbLine
 10
-850.916219
 20
459.34569
 30
0.0
 11
-882.916219
 21
449.067051
 31
0.0
  0
LINE
  5
643
100
AcDbEntity
  8
0
370
    -3
390
0
  6
Continuous
100
AcDbLine
 10
-895.916219
 20
439.817406
 30
0.0
 11
-895.916219
 21
442.674939
 31
0.0
  0
LINE
  5
644
100
AcDbEntity
  8
0
370
    -3
390
0
  6
Continuous
100
AcDbLine
 10
-895.916219
 20
424.916063
 30
0.0
 11
-895.916219
 21
421.9043
 31
0.0
  0
LINE
  5
645
100
AcDbEntity
  8
0
370
    -3
390
0
  6
Continuous
100
AcDbLine
 10
-837.916219
 20
229.04289
 30
0.0
 11
-837.916219
 21
222.632465
 31
0.0
  0
LINE
  5
646
100
AcDbEntity
  8
0
370
    -3
390
0
  6
Continuous
100
AcDbLine
 10
-837.916219
 20
229.389411
 30
0.0
 11
-837.916219
 21
236.598257
 31
0.0
  0
LINE
  5
647
100
AcDbEntity
  8
0
370
    -3
390
0
  6
Continuous
100
AcDbLine
 10
-937.916219
 20
225.951927
 30
0.0
 11
-837.916219
 21
225.951927
 31
0.0
  0
ARC
  5
648
100
AcDbEntity
  8
0
370
    -3
390
0
  6
Continuous
100
AcDbCircle
 10
-910.916219
 20
274.454143
 30
0.0
 40
2.0
100
AcDbArc
 50
270.0
 51
0.0
  0
LINE
  5
649
100
AcDbEntity
  8
0
370
    -3
390
0
  6
CENTER
100
AcDbLine
 10
-939.397416
 20
107.602693
 30
0.0
 11
-951.296126
 21
107.602693
 31
0.0
  0
LINE
  5
64A
100
AcDbEntity
  8
0
370
    -3
390
0
  6
CENTER
100
AcDbLine
 10
-945.416219
 20
111.822502
 30
0.0
 11
-945.416219
 21
101.391055
 31
0.0
  0
ELLIPSE
  5
64B
100
AcDbEntity
  8
0
370
    -3
390
0
  6
Continuous
100
AcDbEllipse
 10
-945.416219
 20
107.602693
 30
0.0
 11
4.5
 21
0.0
 31
0.0
210
0.0
220
0.0
230
1.0
 40
0.727273
 41
0.0
 42
6.2831853071795862
  0
LINE
  5
64C
100
AcDbEntity
  8
0
370
    -3
390
0
  6
Continuous
100
AcDbLine
 10
-943.719166
 20
109.299752
 30
0.0
 11
-947.113272
 21
105.905634
 31
0.0
  0
LINE
  5
64D
100
AcDbEntity
  8
0
370
    -3
390
0
  6
Continuous
100
AcDbLine
 10
-947.113277
 20
109.299747
 30
0.0
 11
-943.719161
 21
105.90564
 31
0.0
  0
LINE
  5
64E
100
AcDbEntity
  8
0
370
    -3
390
0
  6
CENTER
100
AcDbLine
 10
-830.416219
 20
111.822502
 30
0.0
 11
-830.416219
 21
101.391055
 31
0.0
  0
LINE
  5
64F
100
AcDbEntity
  8
0
370
    -3
390
0
  6
CENTER
100
AcDbLine
 10
-824.397416
 20
107.602693
 30
0.0
 11
-836.296126
 21
107.602693
 31
0.0
  0
ELLIPSE
  5
650
100
AcDbEntity
  8
0
370
    -3
390
0
  6
Continuous
100
AcDbEllipse
 10
-830.416219
 20
107.602693
 30
0.0
 11
4.5
 21
0.0
 31
0.0
210
0.0
220
0.0
230
1.0
 40
0.727273
 41
0.0
 42
6.2831853071795862
  0
LINE
  5
651
100
AcDbEntity
  8
0
370
    -3
390
0
  6
Continuous
100
AcDbLine
 10
-828.719161
 20
109.299747
 30
0.0
 11
-832.113277
 21
105.90564
 31
0.0
  0
LINE
  5
652
100
AcDbEntity
  8
0
370
    -3
390
0
  6
Continuous
100
AcDbLine
 10
-832.113272
 20
109.299752
 30
0.0
 11
-828.719166
 21
105.905634
 31
0.0
  0
ARC
  5
653
100
AcDbEntity
  8
0
370
    -3
390
0
  6
Continuous
100
AcDbCircle
 10
-950.875227
 20
123.606837
 30
0.0
 40
7.0
100
AcDbArc
 50
191.246689
 51
270.0
  0
ARC
  5
654
100
AcDbEntity
  8
0
370
    -3
390
0
  6
Continuous
100
AcDbCircle
 10
-926.829659
 20
114.70228
 30
0.0
 40
7.0
100
AcDbArc
 50
210.35143
 51
270.0
  0
ARC
  5
655
100
AcDbEntity
  8
0
370
    -3
390
0
  6
Continuous
100
AcDbCircle
 10
-947.298848
 20
115.391108
 30
0.0
 40
12.0
100
AcDbArc
 50
194.166813
 51
270.0
  0
ARC
  5
656
100
AcDbEntity
  8
0
370
    -3
390
0
  6
Continuous
100
AcDbCircle
 10
-942.36262
 20
105.606837
 30
0.0
 40
11.0
100
AcDbArc
 50
30.35143
 51
90.0
  0
ARC
  5
657
100
AcDbEntity
  8
0
370
    -3
390
0
  6
Continuous
100
AcDbCircle
 10
-764.639416
 20
160.640255
 30
0.0
 40
196.882204
100
AcDbArc
 50
167.740529
 51
191.246689
  0
ARC
  5
658
100
AcDbEntity
  8
0
370
    -3
390
0
  6
Continuous
100
AcDbCircle
 10
-768.039416
 20
160.640255
 30
0.0
 40
196.882204
100
AcDbArc
 50
165.59296
 51
194.166813
  0
LINE
  5
659
100
AcDbEntity
  8
0
370
    -3
390
0
  6
Continuous
100
AcDbLine
 10
-942.36262
 20
116.606837
 30
0.0
 11
-950.875227
 21
116.606837
 31
0.0
  0
ARC
  5
65A
100
AcDbEntity
  8
0
370
    -3
390
0
  6
Continuous
100
AcDbCircle
 10
-824.957211
 20
123.606837
 30
0.0
 40
7.0
100
AcDbArc
 50
270.0
 51
348.753311
  0
ARC
  5
65B
100
AcDbEntity
  8
0
370
    -3
390
0
  6
Continuous
100
AcDbCircle
 10
-849.002779
 20
114.70228
 30
0.0
 40
7.0
100
AcDbArc
 50
270.0
 51
329.64857
  0
ARC
  5
65C
100
AcDbEntity
  8
0
370
    -3
390
0
  6
Continuous
100
AcDbCircle
 10
-828.533589
 20
115.391108
 30
0.0
 40
12.0
100
AcDbArc
 50
270.0
 51
345.833187
  0
ARC
  5
65D
100
AcDbEntity
  8
0
370
    -3
390
0
  6
Continuous
100
AcDbCircle
 10
-833.469818
 20
105.606837
 30
0.0
 40
11.0
100
AcDbArc
 50
90.0
 51
149.64857
  0
ARC
  5
65E
100
AcDbEntity
  8
0
370
    -3
390
0
  6
Continuous
100
AcDbCircle
 10
-1011.193022
 20
160.640255
 30
0.0
 40
196.882204
100
AcDbArc
 50
348.753311
 51
12.259471
  0
ARC
  5
65F
100
AcDbEntity
  8
0
370
    -3
390
0
  6
Continuous
100
AcDbCircle
 10
-1007.793022
 20
160.640255
 30
0.0
 40
196.882204
100
AcDbArc
 50
345.833187
 51
14.40704
  0
LINE
  5
660
100
AcDbEntity
  8
0
370
    -3
390
0
  6
Continuous
100
AcDbLine
 10
-833.469818
 20
116.606837
 30
0.0
 11
-824.957211
 21
116.606837
 31
0.0
  0
LINE
  5
661
100
AcDbEntity
  8
0
370
    -3
390
0
  6
Continuous
100
AcDbLine
 10
-926.829659
 20
107.70228
 30
0.0
 11
-849.002779
 21
107.70228
 31
0.0
  0
LINE
  5
662
100
AcDbEntity
  8
0
370
    -3
390
0
  6
Continuous
100
AcDbLine
 10
-947.298848
 20
103.391108
 30
0.0
 11
-828.533589
 21
103.391108
 31
0.0
  0
LINE
  5
663
100
AcDbEntity
  8
0
370
    -3
390
0
  6
CENTER
100
AcDbLine
 10
-887.916219
 20
87.458968
 30
0.0
 11
-887.916219
 21
272.506804
 31
0.0
  0
INSERT
  5
674
100
AcDbEntity
  8
0
390
0
100
AcDbBlockReference
  2
ZU_SYM_K__CAD_SYM_POO_SYM_B21_0000720
 10
-607.916219
 20
493.525775
 30
0.0
 50
180.0
  0
INSERT
  5
685
100
AcDbEntity
  8
0
390
0
100
AcDbBlockReference
  2
ZU_SYM_K__CAD_SYM_POO_SYM_B21_0000820
 10
-607.916219
 20
298.184142
 30
0.0
 50
180.0
  0
INSERT
  5
6A4
100
AcDbEntity
  8
0
390
0
100
AcDbBlockReference
  2
ZU_SYM_C__ZUOU_AC_BLOCK_BLKF052_00
 10
-1223.898916
 20
-497.677797
 30
0.0
  0
INSERT
  5
6B4
100
AcDbEntity
  8
0
390
0
100
AcDbBlockReference
  2
ZU_SYM_C__ZUOU_AC_BLOCK_BLKF074_00
 10
-1223.898916
 20
-520.40316
 30
0.0
  0
LINE
  5
6B5
100
AcDbEntity
  8
0
370
    -3
390
0
  6
Continuous
100
AcDbLine
 10
-622.916219
 20
226.948569
 30
0.0
 11
-642.147031
 21
226.948569
 31
0.0
  0
LINE
  5
6B6
100
AcDbEntity
  8
0
370
    -3
390
0
  6
Continuous
100
AcDbLine
 10
-669.916219
 20
296.693349
 30
0.0
 11
-647.916219
 21
302.418366
 31
0.0
  0
LINE
  5
6B7
100
AcDbEntity
  8
0
370
    -3
390
0
  6
Continuous
100
AcDbLine
 10
-647.916219
 20
305.275899
 30
0.0
 11
-669.916219
 21
299.550881
 31
0.0
  0
LINE
  5
6B8
100
AcDbEntity
  8
0
370
    -3
390
0
  6
Continuous
100
AcDbLine
 10
-622.916219
 20
369.684144
 30
0.0
 11
-622.916219
 21
317.768125
 31
0.0
  0
LINE
  5
6B9
100
AcDbEntity
  8
0
370
    -3
390
0
  6
Continuous
100
AcDbLine
 10
-622.916219
 20
495.358148
 30
0.0
 11
-622.916219
 21
369.684144
 31
0.0
  0
LINE
  5
6BA
100
AcDbEntity
  8
0
370
    -3
390
0
  6
Continuous
100
AcDbLine
 10
-622.916219
 20
251.564832
 30
0.0
 11
-683.782614
 21
251.564832
 31
0.0
  0
LINE
  5
6BB
100
AcDbEntity
  8
0
370
    -3
390
0
  6
Continuous
100
AcDbLine
 10
-669.916219
 20
226.380936
 30
0.0
 11
-637.916219
 21
242.974033
 31
0.0
  0
LINE
  5
6BC
100
AcDbEntity
  8
0
370
    -3
390
0
  6
Continuous
100
AcDbLine
 10
-669.916219
 20
227.79626
 30
0.0
 11
-637.916219
 21
244.389357
 31
0.0
  0
LINE
  5
6BD
100
AcDbEntity
  8
0
370
    -3
390
0
  6
Continuous
100
AcDbLine
 10
-669.916219
 20
226.380936
 30
0.0
 11
-669.916219
 21
227.79626
 31
0.0
  0
LINE
  5
6BE
100
AcDbEntity
  8
0
370
    -3
390
0
  6
Continuous
100
AcDbLine
 10
-637.916219
 20
251.564832
 30
0.0
 11
-637.916219
 21
229.389411
 31
0.0
  0
LINE
  5
6BF
100
AcDbEntity
  8
0
370
    -3
390
0
  6
CENTER
100
AcDbLine
 10
-604.20216
 20
298.184144
 30
0.0
 11
-629.17892
 21
298.184144
 31
0.0
  0
LINE
  5
6C0
100
AcDbEntity
  8
0
370
    -3
390
0
  6
Continuous
100
AcDbLine
 10
-622.916219
 20
304.184144
 30
0.0
 11
-623.916219
 21
304.184144
 31
0.0
  0
ARC
  5
6C1
100
AcDbEntity
  8
0
370
    -3
390
0
  6
Continuous
100
AcDbCircle
 10
-623.416219
 20
298.940264
 30
0.0
 40
0.5
100
AcDbArc
 50
180.0
 51
190.729337
  0
ARC
  5
6C2
100
AcDbEntity
  8
0
370
    -3
390
0
  6
Continuous
100
AcDbCircle
 10
-623.416219
 20
299.015628
 30
0.0
 40
0.5
100
AcDbArc
 50
180.0
 51
207.492863
  0
ARC
  5
6C3
100
AcDbEntity
  8
0
370
    -3
390
0
  6
Continuous
100
AcDbCircle
 10
-622.114961
 20
294.758548
 30
0.0
 40
1.0
100
AcDbArc
 50
190.729337
 51
216.749585
  0
ARC
  5
6C4
100
AcDbEntity
  8
0
370
    -3
390
0
  6
Continuous
100
AcDbCircle
 10
-623.524691
 20
281.180695
 30
0.0
 40
1.0
100
AcDbArc
 50
270.0
 51
307.479134
  0
ARC
  5
6C5
100
AcDbEntity
  8
0
370
    -3
390
0
  6
Continuous
100
AcDbCircle
 10
-624.416219
 20
314.753191
 30
0.0
 40
0.5
100
AcDbArc
 50
0.0
 51
90.0
  0
LINE
  5
6C6
100
AcDbEntity
  8
0
370
    -3
390
0
  6
Continuous
100
AcDbLine
 10
-623.916219
 20
298.940264
 30
0.0
 11
-623.916219
 21
314.753191
 31
0.0
  0
LINE
  5
6C7
100
AcDbEntity
  8
0
370
    -3
390
0
  6
Continuous
100
AcDbLine
 10
-623.097478
 20
294.572378
 30
0.0
 11
-623.907478
 21
298.84718
 31
0.0
  0
LINE
  5
6C8
100
AcDbEntity
  8
0
370
    -3
390
0
  6
Continuous
100
AcDbLine
 10
-623.859753
 20
298.784809
 30
0.0
 11
-622.916219
 21
296.971745
 31
0.0
  0
ARC
  5
6C9
100
AcDbEntity
  8
0
370
    -3
390
0
  6
Continuous
100
AcDbCircle
 10
-648.416219
 20
298.940264
 30
0.0
 40
0.5
100
AcDbArc
 50
349.270663
 51
0.0
  0
ARC
  5
6CA
100
AcDbEntity
  8
0
370
    -3
390
0
  6
Continuous
100
AcDbCircle
 10
-648.416219
 20
299.015628
 30
0.0
 40
0.5
100
AcDbArc
 50
332.507137
 51
0.0
  0
ARC
  5
6CB
100
AcDbEntity
  8
0
370
    -3
390
0
  6
Continuous
100
AcDbCircle
 10
-649.416219
 20
293.844763
 30
0.0
 40
1.0
100
AcDbArc
 50
152.507137
 51
180.0
  0
ARC
  5
6CC
100
AcDbEntity
  8
0
370
    -3
390
0
  6
Continuous
100
AcDbCircle
 10
-649.717477
 20
294.758548
 30
0.0
 40
1.0
100
AcDbArc
 50
320.76848
 51
349.270663
  0
ARC
  5
6CD
100
AcDbEntity
  8
0
370
    -3
390
0
  6
Continuous
100
AcDbCircle
 10
-648.307746
 20
281.180695
 30
0.0
 40
1.0
100
AcDbArc
 50
219.23152
 51
270.0
  0
ARC
  5
6CE
100
AcDbEntity
  8
0
370
    -3
390
0
  6
Continuous
100
AcDbCircle
 10
-649.416219
 20
291.965235
 30
0.0
 40
1.0
100
AcDbArc
 50
140.76848
 51
180.0
  0
ARC
  5
6CF
100
AcDbEntity
  8
0
370
    -3
390
0
  6
Continuous
100
AcDbCircle
 10
-649.416219
 20
282.538291
 30
0.0
 40
1.0
100
AcDbArc
 50
180.0
 51
219.23152
  0
ARC
  5
6D0
100
AcDbEntity
  8
0
370
    -3
390
0
  6
Continuous
100
AcDbCircle
 10
-647.416219
 20
314.753191
 30
0.0
 40
0.5
100
AcDbArc
 50
90.0
 51
180.0
  0
LINE
  5
6D1
100
AcDbEntity
  8
0
370
    -3
390
0
  6
Continuous
100
AcDbLine
 10
-647.916219
 20
298.940264
 30
0.0
 11
-647.916219
 21
314.753191
 31
0.0
  0
LINE
  5
6D2
100
AcDbEntity
  8
0
370
    -3
390
0
  6
Continuous
100
AcDbLine
 10
-648.734959
 20
294.572378
 30
0.0
 11
-647.92496
 21
298.84718
 31
0.0
  0
LINE
  5
6D3
100
AcDbEntity
  8
0
370
    -3
390
0
  6
Continuous
100
AcDbLine
 10
-648.94288
 20
294.126092
 30
0.0
 11
-650.190816
 21
292.59769
 31
0.0
  0
LINE
  5
6D4
100
AcDbEntity
  8
0
370
    -3
390
0
  6
Continuous
100
AcDbLine
 10
-649.082343
 20
280.548239
 30
0.0
 11
-650.190816
 21
281.905835
 31
0.0
  0
LINE
  5
6D5
100
AcDbEntity
  8
0
370
    -3
390
0
  6
Continuous
100
AcDbLine
 10
-647.972685
 20
298.784809
 30
0.0
 11
-650.303287
 21
294.306401
 31
0.0
  0
LINE
  5
6D6
100
AcDbEntity
  8
0
370
    -3
390
0
  6
Continuous
100
AcDbLine
 10
-648.307746
 20
280.180695
 30
0.0
 11
-623.225247
 21
280.180695
 31
0.0
  0
LINE
  5
6D7
100
AcDbEntity
  8
0
370
    -3
390
0
  6
Continuous
100
AcDbLine
 10
-647.416219
 20
315.253191
 30
0.0
 11
-624.416219
 21
315.253191
 31
0.0
  0
LINE
  5
6D8
100
AcDbEntity
  8
0
370
    -3
390
0
  6
Continuous
100
AcDbLine
 10
-647.916219
 20
313.838978
 30
0.0
 11
-623.916219
 21
313.838978
 31
0.0
  0
LINE
  5
6D9
100
AcDbEntity
  8
0
370
    -3
390
0
  6
Continuous
100
AcDbLine
 10
-647.916219
 20
311.081261
 30
0.0
 11
-623.916219
 21
311.081261
 31
0.0
  0
LINE
  5
6DA
100
AcDbEntity
  8
0
370
    -3
390
0
  6
Continuous
100
AcDbLine
 10
-648.817394
 20
294.322831
 30
0.0
 11
-623.015044
 21
294.322831
 31
0.0
  0
LINE
  5
6DB
100
AcDbEntity
  8
0
370
    -3
390
0
  6
Continuous
100
AcDbLine
 10
-650.416219
 20
282.538291
 30
0.0
 11
-650.416219
 21
293.844763
 31
0.0
  0
LINE
  5
6DC
100
AcDbEntity
  8
0
370
    -3
390
0
  6
Continuous
100
AcDbLine
 10
-644.514488
 20
511.529226
 30
0.0
 11
-669.916219
 21
525.933252
 31
0.0
  0
LINE
  5
6DD
100
AcDbEntity
  8
0
370
    -3
390
0
  6
Continuous
100
AcDbLine
 10
-669.916219
 20
525.308963
 30
0.0
 11
-645.615432
 21
511.529226
 31
0.0
  0
LINE
  5
6DE
100
AcDbEntity
  8
0
370
    -3
390
0
  6
Continuous
100
AcDbLine
 10
-669.916219
 20
528.231034
 30
0.0
 11
-640.966278
 21
511.529226
 31
0.0
  0
LINE
  5
6DF
100
AcDbEntity
  8
0
370
    -3
390
0
  6
Continuous
100
AcDbLine
 10
-640.603507
 20
511.529226
 30
0.0
 11
-669.916219
 21
528.440324
 31
0.0
  0
LINE
  5
6E0
100
AcDbEntity
  8
0
370
    -3
390
0
  6
Continuous
100
AcDbLine
 10
-669.916219
 20
520.752714
 30
0.0
 11
-650.106483
 21
509.907372
 31
0.0
  0
LINE
  5
6E1
100
AcDbEntity
  8
0
370
    -3
390
0
  6
Continuous
100
AcDbLine
 10
-669.916219
 20
519.724108
 30
0.0
 11
-650.416219
 21
509.048338
 31
0.0
  0
LINE
  5
6E2
100
AcDbEntity
  8
0
370
    -3
390
0
  6
Continuous
100
AcDbLine
 10
-669.916219
 20
512.987351
 30
0.0
 11
-650.416219
 21
502.875933
 31
0.0
  0
LINE
  5
6E3
100
AcDbEntity
  8
0
370
    -3
390
0
  6
Continuous
100
AcDbLine
 10
-669.916219
 20
511.572027
 30
0.0
 11
-650.416219
 21
501.460609
 31
0.0
  0
LINE
  5
6E4
100
AcDbEntity
  8
0
370
    -3
390
0
  6
Continuous
100
AcDbLine
 10
-647.916219
 20
487.803456
 30
0.0
 11
-683.782614
 21
487.803456
 31
0.0
  0
LINE
  5
6E5
100
AcDbEntity
  8
0
370
    -3
390
0
  6
Continuous
100
AcDbLine
 10
-622.916219
 20
500.471689
 30
0.0
 11
-622.916219
 21
495.358148
 31
0.0
  0
LINE
  5
6E6
100
AcDbEntity
  8
0
370
    -3
390
0
  6
CENTER
100
AcDbLine
 10
-601.548136
 20
493.525776
 30
0.0
 11
-630.869979
 21
493.525776
 31
0.0
  0
LINE
  5
6E7
100
AcDbEntity
  8
0
370
    -3
390
0
  6
Continuous
100
AcDbLine
 10
-607.916219
 20
514.082264
 30
0.0
 11
-622.916219
 21
514.082264
 31
0.0
  0
LINE
  5
6E8
100
AcDbEntity
  8
0
370
    -3
390
0
  6
Continuous
100
AcDbLine
 10
-622.916219
 20
225.286023
 30
0.0
 11
-607.916219
 21
225.286023
 31
0.0
  0
LINE
  5
6E9
100
AcDbEntity
  8
0
370
    -3
390
0
  6
Continuous
100
AcDbLine
 10
-622.916219
 20
236.184144
 30
0.0
 11
-607.916219
 21
236.184144
 31
0.0
  0
LINE
  5
6EA
100
AcDbEntity
  8
0
370
    -3
390
0
  6
Continuous
100
AcDbLine
 10
-622.916219
 20
280.037674
 30
0.0
 11
-607.916219
 21
280.037674
 31
0.0
  0
LINE
  5
6EB
100
AcDbEntity
  8
0
370
    -3
390
0
  6
Continuous
100
AcDbLine
 10
-607.916219
 20
501.649625
 30
0.0
 11
-607.916219
 21
477.746326
 31
0.0
  0
LINE
  5
6EC
100
AcDbEntity
  8
0
370
    -3
390
0
  6
Continuous
100
AcDbLine
 10
-607.916219
 20
504.916351
 30
0.0
 11
-607.916219
 21
501.649625
 31
0.0
  0
LINE
  5
6ED
100
AcDbEntity
  8
0
370
    -3
390
0
  6
Continuous
100
AcDbLine
 10
-607.916219
 20
513.75857
 30
0.0
 11
-607.916219
 21
504.916351
 31
0.0
  0
LINE
  5
6EE
100
AcDbEntity
  8
0
370
    -3
390
0
  6
Continuous
100
AcDbLine
 10
-607.916219
 20
513.75857
 30
0.0
 11
-607.916219
 21
514.082264
 31
0.0
  0
LINE
  5
6EF
100
AcDbEntity
  8
0
370
    -3
390
0
  6
Continuous
100
AcDbLine
 10
-607.916219
 20
226.148831
 30
0.0
 11
-607.916219
 21
225.286023
 31
0.0
  0
LINE
  5
6F0
100
AcDbEntity
  8
0
370
    -3
390
0
  6
Continuous
100
AcDbLine
 10
-607.916219
 20
236.184144
 30
0.0
 11
-607.916219
 21
226.148831
 31
0.0
  0
LINE
  5
6F1
100
AcDbEntity
  8
0
370
    -3
390
0
  6
Continuous
100
AcDbLine
 10
-607.916219
 20
280.037674
 30
0.0
 11
-607.916219
 21
236.184144
 31
0.0
  0
LINE
  5
6F2
100
AcDbEntity
  8
0
370
    -3
390
0
  6
Continuous
100
AcDbLine
 10
-607.916219
 20
281.397678
 30
0.0
 11
-607.916219
 21
280.037674
 31
0.0
  0
LINE
  5
6F3
100
AcDbEntity
  8
0
370
    -3
390
0
  6
Continuous
100
AcDbLine
 10
-607.916219
 20
296.712849
 30
0.0
 11
-607.916219
 21
281.397678
 31
0.0
  0
LINE
  5
6F4
100
AcDbEntity
  8
0
370
    -3
390
0
  6
Continuous
100
AcDbLine
 10
-607.916219
 20
300.173682
 30
0.0
 11
-607.916219
 21
296.712849
 31
0.0
  0
LINE
  5
6F5
100
AcDbEntity
  8
0
370
    -3
390
0
  6
Continuous
100
AcDbLine
 10
-607.916219
 20
317.768125
 30
0.0
 11
-607.916219
 21
300.173682
 31
0.0
  0
LINE
  5
6F6
100
AcDbEntity
  8
0
370
    -3
390
0
  6
Continuous
100
AcDbLine
 10
-607.916219
 20
323.024557
 30
0.0
 11
-607.916219
 21
317.768125
 31
0.0
  0
LINE
  5
6F7
100
AcDbEntity
  8
0
370
    -3
390
0
  6
Continuous
100
AcDbLine
 10
-607.916219
 20
472.632784
 30
0.0
 11
-607.916219
 21
323.024557
 31
0.0
  0
LINE
  5
6F8
100
AcDbEntity
  8
0
370
    -3
390
0
  6
Continuous
100
AcDbLine
 10
-607.916219
 20
477.746326
 30
0.0
 11
-607.916219
 21
472.632784
 31
0.0
  0
LINE
  5
6F9
100
AcDbEntity
  8
0
370
    -3
390
0
  6
Continuous
100
AcDbLine
 10
-622.916219
 20
477.746326
 30
0.0
 11
-607.916219
 21
477.746326
 31
0.0
  0
LINE
  5
6FA
100
AcDbEntity
  8
0
370
    -3
390
0
  6
Continuous
100
AcDbLine
 10
-622.916219
 20
501.649625
 30
0.0
 11
-622.916219
 21
477.746326
 31
0.0
  0
LINE
  5
6FB
100
AcDbEntity
  8
0
370
    -3
390
0
  6
Continuous
100
AcDbLine
 10
-622.916219
 20
501.649625
 30
0.0
 11
-607.916219
 21
501.649625
 31
0.0
  0
LINE
  5
6FC
100
AcDbEntity
  8
0
370
    -3
390
0
  6
Continuous
100
AcDbLine
 10
-622.916219
 20
504.916351
 30
0.0
 11
-622.916219
 21
501.649625
 31
0.0
  0
LINE
  5
6FD
100
AcDbEntity
  8
0
370
    -3
390
0
  6
Continuous
100
AcDbLine
 10
-622.916219
 20
504.916351
 30
0.0
 11
-607.916219
 21
504.916351
 31
0.0
  0
LINE
  5
6FE
100
AcDbEntity
  8
0
370
    -3
390
0
  6
Continuous
100
AcDbLine
 10
-622.916219
 20
513.75857
 30
0.0
 11
-622.916219
 21
504.916351
 31
0.0
  0
LINE
  5
6FF
100
AcDbEntity
  8
0
370
    -3
390
0
  6
Continuous
100
AcDbLine
 10
-622.916219
 20
513.75857
 30
0.0
 11
-607.916219
 21
513.75857
 31
0.0
  0
LINE
  5
700
100
AcDbEntity
  8
0
370
    -3
390
0
  6
Continuous
100
AcDbLine
 10
-622.916219
 20
513.75857
 30
0.0
 11
-622.916219
 21
514.082264
 31
0.0
  0
LINE
  5
701
100
AcDbEntity
  8
0
370
    -3
390
0
  6
Continuous
100
AcDbLine
 10
-622.916219
 20
226.148831
 30
0.0
 11
-622.916219
 21
225.286023
 31
0.0
  0
LINE
  5
702
100
AcDbEntity
  8
0
370
    -3
390
0
  6
Continuous
100
AcDbLine
 10
-622.916219
 20
226.148831
 30
0.0
 11
-607.916219
 21
226.148831
 31
0.0
  0
LINE
  5
703
100
AcDbEntity
  8
0
370
    -3
390
0
  6
Continuous
100
AcDbLine
 10
-622.916219
 20
236.184144
 30
0.0
 11
-622.916219
 21
226.148831
 31
0.0
  0
LINE
  5
704
100
AcDbEntity
  8
0
370
    -3
390
0
  6
Continuous
100
AcDbLine
 10
-622.916219
 20
280.037674
 30
0.0
 11
-622.916219
 21
236.184144
 31
0.0
  0
LINE
  5
705
100
AcDbEntity
  8
0
370
    -3
390
0
  6
Continuous
100
AcDbLine
 10
-622.916219
 20
281.397678
 30
0.0
 11
-622.916219
 21
280.037674
 31
0.0
  0
LINE
  5
706
100
AcDbEntity
  8
0
370
    -3
390
0
  6
Continuous
100
AcDbLine
 10
-622.916219
 20
281.397678
 30
0.0
 11
-607.916219
 21
281.397678
 31
0.0
  0
LINE
  5
707
100
AcDbEntity
  8
0
370
    -3
390
0
  6
Continuous
100
AcDbLine
 10
-622.916219
 20
296.712849
 30
0.0
 11
-622.916219
 21
281.397678
 31
0.0
  0
LINE
  5
708
100
AcDbEntity
  8
0
370
    -3
390
0
  6
Continuous
100
AcDbLine
 10
-622.916219
 20
296.712849
 30
0.0
 11
-607.916219
 21
296.712849
 31
0.0
  0
LINE
  5
709
100
AcDbEntity
  8
0
370
    -3
390
0
  6
Continuous
100
AcDbLine
 10
-622.916219
 20
300.173682
 30
0.0
 11
-622.916219
 21
296.712849
 31
0.0
  0
LINE
  5
70A
100
AcDbEntity
  8
0
370
    -3
390
0
  6
Continuous
100
AcDbLine
 10
-622.916219
 20
300.173682
 30
0.0
 11
-607.916219
 21
300.173682
 31
0.0
  0
LINE
  5
70B
100
AcDbEntity
  8
0
370
    -3
390
0
  6
Continuous
100
AcDbLine
 10
-622.916219
 20
317.768125
 30
0.0
 11
-622.916219
 21
300.173682
 31
0.0
  0
LINE
  5
70C
100
AcDbEntity
  8
0
370
    -3
390
0
  6
Continuous
100
AcDbLine
 10
-622.916219
 20
317.768125
 30
0.0
 11
-607.916219
 21
317.768125
 31
0.0
  0
LINE
  5
70D
100
AcDbEntity
  8
0
370
    -3
390
0
  6
Continuous
100
AcDbLine
 10
-622.916219
 20
323.024557
 30
0.0
 11
-607.916219
 21
323.024557
 31
0.0
  0
LINE
  5
70E
100
AcDbEntity
  8
0
370
    -3
390
0
  6
Continuous
100
AcDbLine
 10
-622.916219
 20
472.632784
 30
0.0
 11
-607.916219
 21
472.632784
 31
0.0
  0
LINE
  5
70F
100
AcDbEntity
  8
0
370
    -3
390
0
  6
Continuous
100
AcDbLine
 10
-658.916219
 20
524.684144
 30
0.0
 11
-655.916219
 21
521.684144
 31
0.0
  0
LINE
  5
710
100
AcDbEntity
  8
0
370
    -3
390
0
  6
Continuous
100
AcDbLine
 10
-663.405474
 20
524.684144
 30
0.0
 11
-658.916219
 21
524.684144
 31
0.0
  0
LINE
  5
711
100
AcDbEntity
  8
0
370
    -3
390
0
  6
Continuous
100
AcDbLine
 10
-655.916219
 20
520.363441
 30
0.0
 11
-655.916219
 21
521.684144
 31
0.0
  0
LINE
  5
712
100
AcDbEntity
  8
0
370
    -3
390
0
  6
Continuous
100
AcDbLine
 10
-669.916219
 20
528.231034
 30
0.0
 11
-669.916219
 21
528.440324
 31
0.0
  0
LINE
  5
713
100
AcDbEntity
  8
0
370
    -3
390
0
  6
Continuous
100
AcDbLine
 10
-669.916219
 20
525.941148
 30
0.0
 11
-669.916219
 21
525.316859
 31
0.0
  0
LINE
  5
714
100
AcDbEntity
  8
0
370
    -3
390
0
  6
Continuous
100
AcDbLine
 10
-669.916219
 20
520.760338
 30
0.0
 11
-669.916219
 21
519.724108
 31
0.0
  0
LINE
  5
715
100
AcDbEntity
  8
0
370
    -3
390
0
  6
Continuous
100
AcDbLine
 10
-669.916219
 20
512.987351
 30
0.0
 11
-669.916219
 21
511.572027
 31
0.0
  0
LINE
  5
716
100
AcDbEntity
  8
0
370
    -3
390
0
  6
Continuous
100
AcDbLine
 10
-763.916219
 20
374.684144
 30
0.0
 11
-763.916219
 21
388.684144
 31
0.0
  0
ARC
  5
717
100
AcDbEntity
  8
0
370
    -3
390
0
  6
Continuous
100
AcDbCircle
 10
-764.916219
 20
388.684144
 30
0.0
 40
1.0
100
AcDbArc
 50
0.0
 51
90.0
  0
ARC
  5
718
100
AcDbEntity
  8
0
370
    -3
390
0
  6
Continuous
100
AcDbCircle
 10
-764.916219
 20
350.684144
 30
0.0
 40
1.0
100
AcDbArc
 50
270.0
 51
0.0
  0
LINE
  5
719
100
AcDbEntity
  8
0
370
    -3
390
0
  6
Continuous
100
AcDbLine
 10
-763.916219
 20
350.684144
 30
0.0
 11
-763.916219
 21
364.684144
 31
0.0
  0
ARC
  5
71A
100
AcDbEntity
  8
0
370
    -3
390
0
  6
Continuous
100
AcDbCircle
 10
-762.916219
 20
369.684144
 30
0.0
 40
5.0
100
AcDbArc
 50
270.0
 51
90.0
  0
LINE
  5
71B
100
AcDbEntity
  8
0
370
    -3
390
0
  6
Continuous
100
AcDbLine
 10
-669.916219
 20
214.059325
 30
0.0
 11
-637.916219
 21
232.204892
 31
0.0
  0
LINE
  5
71C
100
AcDbEntity
  8
0
370
    -3
390
0
  6
Continuous
100
AcDbLine
 10
-637.916219
 20
231.580603
 30
0.0
 11
-669.916219
 21
213.435036
 31
0.0
  0
LINE
  5
71D
100
AcDbEntity
  8
0
370
    -3
390
0
  6
Continuous
100
AcDbLine
 10
-669.916219
 20
213.42714
 30
0.0
 11
-669.916219
 21
214.051429
 31
0.0
  0
LINE
  5
71E
100
AcDbEntity
  8
0
370
    -3
390
0
  6
Continuous
100
AcDbLine
 10
-669.916219
 20
219.64418
 30
0.0
 11
-637.916219
 21
237.163391
 31
0.0
  0
LINE
  5
71F
100
AcDbEntity
  8
0
370
    -3
390
0
  6
Continuous
100
AcDbLine
 10
-669.916219
 20
218.615573
 30
0.0
 11
-637.916219
 21
236.134785
 31
0.0
  0
LINE
  5
720
100
AcDbEntity
  8
0
370
    -3
390
0
  6
Continuous
100
AcDbLine
 10
-669.916219
 20
218.60795
 30
0.0
 11
-669.916219
 21
219.64418
 31
0.0
  0
LINE
  5
721
100
AcDbEntity
  8
0
370
    -3
390
0
  6
Continuous
100
AcDbLine
 10
-669.916219
 20
211.137253
 30
0.0
 11
-669.916219
 21
210.927963
 31
0.0
  0
LINE
  5
722
100
AcDbEntity
  8
0
370
    -3
390
0
  6
Continuous
100
AcDbLine
 10
-637.916219
 20
229.389411
 30
0.0
 11
-669.916219
 21
210.927963
 31
0.0
  0
LINE
  5
723
100
AcDbEntity
  8
0
370
    -3
390
0
  6
Continuous
100
AcDbLine
 10
-669.916219
 20
211.137253
 30
0.0
 11
-637.916219
 21
229.598701
 31
0.0
  0
LINE
  5
724
100
AcDbEntity
  8
0
370
    -3
390
0
  6
Continuous
100
AcDbLine
 10
-714.916219
 20
236.598257
 30
0.0
 11
-714.916219
 21
238.376082
 31
0.0
  0
LINE
  5
725
100
AcDbEntity
  8
0
370
    -3
390
0
  6
Continuous
100
AcDbLine
 10
-682.916219
 20
260.411365
 30
0.0
 11
-688.877313
 21
260.411365
 31
0.0
  0
LINE
  5
726
100
AcDbEntity
  8
0
370
    -3
390
0
  6
Continuous
100
AcDbLine
 10
-682.916219
 20
251.981326
 30
0.0
 11
-682.916219
 21
260.411365
 31
0.0
  0
LINE
  5
727
100
AcDbEntity
  8
0
370
    -3
390
0
  6
Continuous
100
AcDbLine
 10
-682.916219
 20
253.759151
 30
0.0
 11
-714.916219
 21
238.376082
 31
0.0
  0
LINE
  5
728
100
AcDbEntity
  8
0
370
    -3
390
0
  6
Continuous
100
AcDbLine
 10
-714.916219
 20
236.598257
 30
0.0
 11
-682.916219
 21
251.981326
 31
0.0
  0
LINE
  5
729
100
AcDbEntity
  8
0
370
    -3
390
0
  6
Continuous
100
AcDbLine
 10
-714.916219
 20
249.092714
 30
0.0
 11
-714.916219
 21
251.20262
 31
0.0
  0
LINE
  5
72A
100
AcDbEntity
  8
0
370
    -3
390
0
  6
Continuous
100
AcDbLine
 10
-682.916219
 20
271.127586
 30
0.0
 11
-695.301996
 21
271.127586
 31
0.0
  0
LINE
  5
72B
100
AcDbEntity
  8
0
370
    -3
390
0
  6
Continuous
100
AcDbLine
 10
-682.916219
 20
263.002547
 30
0.0
 11
-682.916219
 21
271.127586
 31
0.0
  0
LINE
  5
72C
100
AcDbEntity
  8
0
370
    -3
390
0
  6
Continuous
100
AcDbLine
 10
-682.916219
 20
265.112454
 30
0.0
 11
-714.916219
 21
251.20262
 31
0.0
  0
LINE
  5
72D
100
AcDbEntity
  8
0
370
    -3
390
0
  6
Continuous
100
AcDbLine
 10
-714.916219
 20
249.092714
 30
0.0
 11
-682.916219
 21
263.002547
 31
0.0
  0
LINE
  5
72E
100
AcDbEntity
  8
0
370
    -3
390
0
  6
Continuous
100
AcDbLine
 10
-714.916219
 20
266.056411
 30
0.0
 11
-714.916219
 21
263.650524
 31
0.0
  0
LINE
  5
72F
100
AcDbEntity
  8
0
370
    -3
390
0
  6
Continuous
100
AcDbLine
 10
-682.916219
 20
283.530137
 30
0.0
 11
-703.996364
 21
283.530137
 31
0.0
  0
LINE
  5
730
100
AcDbEntity
  8
0
370
    -3
390
0
  6
Continuous
100
AcDbLine
 10
-682.916219
 20
275.84912
 30
0.0
 11
-682.916219
 21
283.530137
 31
0.0
  0
LINE
  5
731
100
AcDbEntity
  8
0
370
    -3
390
0
  6
Continuous
100
AcDbLine
 10
-682.916219
 20
278.255007
 30
0.0
 11
-714.916219
 21
266.056411
 31
0.0
  0
LINE
  5
732
100
AcDbEntity
  8
0
370
    -3
390
0
  6
Continuous
100
AcDbLine
 10
-714.916219
 20
263.650524
 30
0.0
 11
-682.916219
 21
275.84912
 31
0.0
  0
LINE
  5
733
100
AcDbEntity
  8
0
370
    -3
390
0
  6
Continuous
100
AcDbLine
 10
-714.916219
 20
282.683301
 30
0.0
 11
-714.916219
 21
280.022598
 31
0.0
  0
LINE
  5
734
100
AcDbEntity
  8
0
370
    -3
390
0
  6
Continuous
100
AcDbLine
 10
-682.916219
 20
290.301236
 30
0.0
 11
-682.916219
 21
296.693349
 31
0.0
  0
LINE
  5
735
100
AcDbEntity
  8
0
370
    -3
390
0
  6
Continuous
100
AcDbLine
 10
-682.916219
 20
292.961939
 30
0.0
 11
-714.916219
 21
282.683301
 31
0.0
  0
LINE
  5
736
100
AcDbEntity
  8
0
370
    -3
390
0
  6
Continuous
100
AcDbLine
 10
-714.916219
 20
280.022598
 30
0.0
 11
-682.916219
 21
290.301236
 31
0.0
  0
LINE
  5
737
100
AcDbEntity
  8
0
370
    -3
390
0
  6
Continuous
100
AcDbLine
 10
-669.916219
 20
299.550881
 30
0.0
 11
-669.916219
 21
296.693349
 31
0.0
  0
LINE
  5
738
100
AcDbEntity
  8
0
370
    -3
390
0
  6
Continuous
100
AcDbLine
 10
-637.916219
 20
320.704042
 30
0.0
 11
-637.916219
 21
326.419325
 31
0.0
  0
LINE
  5
739
100
AcDbEntity
  8
0
370
    -3
390
0
  6
Continuous
100
AcDbLine
 10
-669.916219
 20
314.452224
 30
0.0
 11
-669.916219
 21
317.463988
 31
0.0
  0
LINE
  5
73A
100
AcDbEntity
  8
0
370
    -3
390
0
  6
Continuous
100
AcDbLine
 10
-637.916219
 20
323.715805
 30
0.0
 11
-669.916219
 21
317.463988
 31
0.0
  0
LINE
  5
73B
100
AcDbEntity
  8
0
370
    -3
390
0
  6
Continuous
100
AcDbLine
 10
-669.916219
 20
314.452224
 30
0.0
 11
-637.916219
 21
320.704042
 31
0.0
  0
LINE
  5
73C
100
AcDbEntity
  8
0
370
    -3
390
0
  6
Continuous
100
AcDbLine
 10
-714.916219
 20
490.275574
 30
0.0
 11
-714.916219
 21
488.165667
 31
0.0
  0
LINE
  5
73D
100
AcDbEntity
  8
0
370
    -3
390
0
  6
Continuous
100
AcDbLine
 10
-682.916219
 20
468.240702
 30
0.0
 11
-695.301996
 21
468.240702
 31
0.0
  0
LINE
  5
73E
100
AcDbEntity
  8
0
370
    -3
390
0
  6
Continuous
100
AcDbLine
 10
-682.916219
 20
476.36574
 30
0.0
 11
-682.916219
 21
468.240702
 31
0.0
  0
LINE
  5
73F
100
AcDbEntity
  8
0
370
    -3
390
0
  6
Continuous
100
AcDbLine
 10
-682.916219
 20
474.255834
 30
0.0
 11
-714.916219
 21
488.165667
 31
0.0
  0
LINE
  5
740
100
AcDbEntity
  8
0
370
    -3
390
0
  6
Continuous
100
AcDbLine
 10
-714.916219
 20
490.275574
 30
0.0
 11
-682.916219
 21
476.36574
 31
0.0
  0
LINE
  5
741
100
AcDbEntity
  8
0
370
    -3
390
0
  6
Continuous
100
AcDbLine
 10
-714.916219
 20
473.311877
 30
0.0
 11
-714.916219
 21
475.717764
 31
0.0
  0
LINE
  5
742
100
AcDbEntity
  8
0
370
    -3
390
0
  6
Continuous
100
AcDbLine
 10
-682.916219
 20
455.838151
 30
0.0
 11
-703.996364
 21
455.838151
 31
0.0
  0
LINE
  5
743
100
AcDbEntity
  8
0
370
    -3
390
0
  6
Continuous
100
AcDbLine
 10
-682.916219
 20
463.519167
 30
0.0
 11
-682.916219
 21
455.838151
 31
0.0
  0
LINE
  5
744
100
AcDbEntity
  8
0
370
    -3
390
0
  6
Continuous
100
AcDbLine
 10
-682.916219
 20
461.11328
 30
0.0
 11
-714.916219
 21
473.311877
 31
0.0
  0
LINE
  5
745
100
AcDbEntity
  8
0
370
    -3
390
0
  6
Continuous
100
AcDbLine
 10
-714.916219
 20
475.717764
 30
0.0
 11
-682.916219
 21
463.519167
 31
0.0
  0
LINE
  5
746
100
AcDbEntity
  8
0
370
    -3
390
0
  6
Continuous
100
AcDbLine
 10
-714.916219
 20
456.684987
 30
0.0
 11
-714.916219
 21
459.34569
 31
0.0
  0
LINE
  5
747
100
AcDbEntity
  8
0
370
    -3
390
0
  6
Continuous
100
AcDbLine
 10
-682.916219
 20
449.067051
 30
0.0
 11
-682.916219
 21
442.674939
 31
0.0
  0
LINE
  5
748
100
AcDbEntity
  8
0
370
    -3
390
0
  6
Continuous
100
AcDbLine
 10
-682.916219
 20
446.406349
 30
0.0
 11
-714.916219
 21
456.684987
 31
0.0
  0
LINE
  5
749
100
AcDbEntity
  8
0
370
    -3
390
0
  6
Continuous
100
AcDbLine
 10
-714.916219
 20
459.34569
 30
0.0
 11
-682.916219
 21
449.067051
 31
0.0
  0
LINE
  5
74A
100
AcDbEntity
  8
0
370
    -3
390
0
  6
Continuous
100
AcDbLine
 10
-669.916219
 20
439.817406
 30
0.0
 11
-669.916219
 21
442.674939
 31
0.0
  0
LINE
  5
74B
100
AcDbEntity
  8
0
370
    -3
390
0
  6
Continuous
100
AcDbLine
 10
-637.916219
 20
431.490108
 30
0.0
 11
-669.916219
 21
439.817406
 31
0.0
  0
LINE
  5
74C
100
AcDbEntity
  8
0
370
    -3
390
0
  6
Continuous
100
AcDbLine
 10
-669.916219
 20
442.674939
 30
0.0
 11
-637.916219
 21
434.34764
 31
0.0
  0
LINE
  5
74D
100
AcDbEntity
  8
0
370
    -3
390
0
  6
Continuous
100
AcDbLine
 10
-637.916219
 20
427.889073
 30
0.0
 11
-637.916219
 21
434.34764
 31
0.0
  0
LINE
  5
74E
100
AcDbEntity
  8
0
370
    -3
390
0
  6
Continuous
100
AcDbLine
 10
-637.916219
 20
418.664246
 30
0.0
 11
-637.916219
 21
412.948963
 31
0.0
  0
LINE
  5
74F
100
AcDbEntity
  8
0
370
    -3
390
0
  6
Continuous
100
AcDbLine
 10
-669.916219
 20
424.916063
 30
0.0
 11
-669.916219
 21
421.9043
 31
0.0
  0
LINE
  5
750
100
AcDbEntity
  8
0
370
    -3
390
0
  6
Continuous
100
AcDbLine
 10
-637.916219
 20
415.652482
 30
0.0
 11
-669.916219
 21
421.9043
 31
0.0
  0
LINE
  5
751
100
AcDbEntity
  8
0
370
    -3
390
0
  6
Continuous
100
AcDbLine
 10
-669.916219
 20
424.916063
 30
0.0
 11
-637.916219
 21
418.664246
 31
0.0
  0
LINE
  5
752
100
AcDbEntity
  8
0
370
    -3
390
0
  6
Continuous
100
AcDbLine
 10
-637.916219
 20
412.948963
 30
0.0
 11
-927.916219
 21
412.948963
 31
0.0
  0
LINE
  5
753
100
AcDbEntity
  8
0
370
    -3
390
0
  6
Continuous
100
AcDbLine
 10
-637.916219
 20
427.889073
 30
0.0
 11
-927.916219
 21
427.889073
 31
0.0
  0
LINE
  5
754
100
AcDbEntity
  8
0
370
    -3
390
0
  6
Continuous
100
AcDbLine
 10
-895.916219
 20
442.674939
 30
0.0
 11
-669.916219
 21
442.674939
 31
0.0
  0
LINE
  5
755
100
AcDbEntity
  8
0
370
    -3
390
0
  6
Continuous
100
AcDbLine
 10
-647.916219
 20
311.479215
 30
0.0
 11
-908.916219
 21
311.479215
 31
0.0
  0
LINE
  5
756
100
AcDbEntity
  8
0
370
    -3
390
0
  6
Continuous
100
AcDbLine
 10
-669.916219
 20
226.380936
 30
0.0
 11
-805.916219
 21
226.380936
 31
0.0
  0
LINE
  5
757
100
AcDbEntity
  8
0
370
    -3
390
0
  6
Continuous
100
AcDbLine
 10
-669.916219
 20
227.79626
 30
0.0
 11
-805.916219
 21
227.79626
 31
0.0
  0
LINE
  5
758
100
AcDbEntity
  8
0
370
    -3
390
0
  6
Continuous
100
AcDbLine
 10
-895.916219
 20
528.231034
 30
0.0
 11
-669.916219
 21
528.231034
 31
0.0
  0
LINE
  5
759
100
AcDbEntity
  8
0
370
    -3
390
0
  6
Continuous
100
AcDbLine
 10
-669.916219
 20
528.440324
 30
0.0
 11
-895.916219
 21
528.440324
 31
0.0
  0
LINE
  5
75A
100
AcDbEntity
  8
0
370
    -3
390
0
  6
Continuous
100
AcDbLine
 10
-895.916219
 20
525.933252
 30
0.0
 11
-669.916219
 21
525.933252
 31
0.0
  0
LINE
  5
75B
100
AcDbEntity
  8
0
370
    -3
390
0
  6
Continuous
100
AcDbLine
 10
-669.916219
 20
525.308963
 30
0.0
 11
-895.916219
 21
525.308963
 31
0.0
  0
LINE
  5
75C
100
AcDbEntity
  8
0
370
    -3
390
0
  6
Continuous
100
AcDbLine
 10
-895.916219
 20
519.724108
 30
0.0
 11
-669.916219
 21
519.724108
 31
0.0
  0
LINE
  5
75D
100
AcDbEntity
  8
0
370
    -3
390
0
  6
Continuous
100
AcDbLine
 10
-669.916219
 20
520.752714
 30
0.0
 11
-895.916219
 21
520.752714
 31
0.0
  0
LINE
  5
75E
100
AcDbEntity
  8
0
370
    -3
390
0
  6
Continuous
100
AcDbLine
 10
-669.916219
 20
511.572027
 30
0.0
 11
-895.916219
 21
511.572027
 31
0.0
  0
LINE
  5
75F
100
AcDbEntity
  8
0
370
    -3
390
0
  6
Continuous
100
AcDbLine
 10
-669.916219
 20
512.987351
 30
0.0
 11
-895.916219
 21
512.987351
 31
0.0
  0
LINE
  5
760
100
AcDbEntity
  8
0
370
    -3
390
0
  6
Continuous
100
AcDbLine
 10
-782.916219
 20
349.684144
 30
0.0
 11
-764.916219
 21
349.684144
 31
0.0
  0
LINE
  5
761
100
AcDbEntity
  8
0
370
    -3
390
0
  6
Continuous
100
AcDbLine
 10
-782.916219
 20
389.684144
 30
0.0
 11
-764.916219
 21
389.684144
 31
0.0
  0
ARC
  5
762
100
AcDbEntity
  8
0
370
    -3
390
0
  6
Continuous
100
AcDbCircle
 10
-782.916219
 20
369.684144
 30
0.0
 40
18.0
100
AcDbArc
 50
16.12762
 51
163.87238
  0
ARC
  5
763
100
AcDbEntity
  8
0
370
    -3
390
0
  6
Continuous
100
AcDbCircle
 10
-782.916219
 20
369.684144
 30
0.0
 40
18.0
100
AcDbArc
 50
196.12762
 51
343.87238
  0
ARC
  5
764
100
AcDbEntity
  8
0
370
    -3
390
0
  6
Continuous
100
AcDbCircle
 10
-782.916219
 20
369.684144
 30
0.0
 40
12.5
100
AcDbArc
 50
23.578178
 51
156.421822
  0
LINE
  5
765
100
AcDbEntity
  8
0
370
    -3
390
0
  6
Continuous
100
AcDbLine
 10
-762.916219
 20
374.684144
 30
0.0
 11
-802.916219
 21
374.684144
 31
0.0
  0
LINE
  5
766
100
AcDbEntity
  8
0
370
    -3
390
0
  6
Continuous
100
AcDbLine
 10
-762.916219
 20
364.684144
 30
0.0
 11
-802.916219
 21
364.684144
 31
0.0
  0
ARC
  5
767
100
AcDbEntity
  8
0
370
    -3
390
0
  6
Continuous
100
AcDbCircle
 10
-782.916219
 20
369.684144
 30
0.0
 40
12.5
100
AcDbArc
 50
203.578178
 51
336.421822
  0
LINE
  5
768
100
AcDbEntity
  8
0
370
    -3
390
0
  6
Continuous
100
AcDbLine
 10
-805.916219
 20
213.435036
 30
0.0
 11
-669.916219
 21
213.435036
 31
0.0
  0
LINE
  5
769
100
AcDbEntity
  8
0
370
    -3
390
0
  6
Continuous
100
AcDbLine
 10
-669.916219
 20
214.059325
 30
0.0
 11
-805.916219
 21
214.059325
 31
0.0
  0
LINE
  5
76A
100
AcDbEntity
  8
0
370
    -3
390
0
  6
Continuous
100
AcDbLine
 10
-805.916219
 20
219.64418
 30
0.0
 11
-669.916219
 21
219.64418
 31
0.0
  0
LINE
  5
76B
100
AcDbEntity
  8
0
370
    -3
390
0
  6
Continuous
100
AcDbLine
 10
-669.916219
 20
218.615573
 30
0.0
 11
-805.916219
 21
218.615573
 31
0.0
  0
LINE
  5
76C
100
AcDbEntity
  8
0
370
    -3
390
0
  6
Continuous
100
AcDbLine
 10
-805.916219
 20
211.137253
 30
0.0
 11
-669.916219
 21
211.137253
 31
0.0
  0
LINE
  5
76D
100
AcDbEntity
  8
0
370
    -3
390
0
  6
Continuous
100
AcDbLine
 10
-669.916219
 20
210.927963
 30
0.0
 11
-805.916219
 21
210.927963
 31
0.0
  0
LINE
  5
76E
100
AcDbEntity
  8
0
370
    -3
390
0
  6
Continuous
100
AcDbLine
 10
-714.916219
 20
236.598257
 30
0.0
 11
-850.916219
 21
236.598257
 31
0.0
  0
LINE
  5
76F
100
AcDbEntity
  8
0
370
    -3
390
0
  6
Continuous
100
AcDbLine
 10
-714.916219
 20
238.376082
 30
0.0
 11
-850.916219
 21
238.376082
 31
0.0
  0
LINE
  5
770
100
AcDbEntity
  8
0
370
    -3
390
0
  6
Continuous
100
AcDbLine
 10
-714.916219
 20
251.20262
 30
0.0
 11
-850.916219
 21
251.20262
 31
0.0
  0
LINE
  5
771
100
AcDbEntity
  8
0
370
    -3
390
0
  6
Continuous
100
AcDbLine
 10
-714.916219
 20
249.092714
 30
0.0
 11
-850.916219
 21
249.092714
 31
0.0
  0
LINE
  5
772
100
AcDbEntity
  8
0
370
    -3
390
0
  6
Continuous
100
AcDbLine
 10
-714.916219
 20
263.650524
 30
0.0
 11
-850.916219
 21
263.650524
 31
0.0
  0
LINE
  5
773
100
AcDbEntity
  8
0
370
    -3
390
0
  6
Continuous
100
AcDbLine
 10
-714.916219
 20
266.056411
 30
0.0
 11
-850.916219
 21
266.056411
 31
0.0
  0
LINE
  5
774
100
AcDbEntity
  8
0
370
    -3
390
0
  6
Continuous
100
AcDbLine
 10
-714.916219
 20
282.683301
 30
0.0
 11
-850.916219
 21
282.683301
 31
0.0
  0
LINE
  5
775
100
AcDbEntity
  8
0
370
    -3
390
0
  6
Continuous
100
AcDbLine
 10
-714.916219
 20
280.022598
 30
0.0
 11
-850.916219
 21
280.022598
 31
0.0
  0
LINE
  5
776
100
AcDbEntity
  8
0
370
    -3
390
0
  6
Continuous
100
AcDbLine
 10
-669.916219
 20
296.693349
 30
0.0
 11
-895.916219
 21
296.693349
 31
0.0
  0
LINE
  5
777
100
AcDbEntity
  8
0
370
    -3
390
0
  6
Continuous
100
AcDbLine
 10
-669.916219
 20
299.550881
 30
0.0
 11
-895.916219
 21
299.550881
 31
0.0
  0
LINE
  5
778
100
AcDbEntity
  8
0
370
    -3
390
0
  6
Continuous
100
AcDbLine
 10
-637.916219
 20
326.419325
 30
0.0
 11
-908.916219
 21
326.419325
 31
0.0
  0
LINE
  5
779
100
AcDbEntity
  8
0
370
    -3
390
0
  6
Continuous
100
AcDbLine
 10
-895.916219
 20
314.452224
 30
0.0
 11
-669.916219
 21
314.452224
 31
0.0
  0
LINE
  5
77A
100
AcDbEntity
  8
0
370
    -3
390
0
  6
Continuous
100
AcDbLine
 10
-669.916219
 20
317.463988
 30
0.0
 11
-895.916219
 21
317.463988
 31
0.0
  0
LINE
  5
77B
100
AcDbEntity
  8
0
370
    -3
390
0
  6
Continuous
100
AcDbLine
 10
-714.916219
 20
488.165667
 30
0.0
 11
-850.916219
 21
488.165667
 31
0.0
  0
LINE
  5
77C
100
AcDbEntity
  8
0
370
    -3
390
0
  6
Continuous
100
AcDbLine
 10
-714.916219
 20
490.275574
 30
0.0
 11
-850.916219
 21
490.275574
 31
0.0
  0
LINE
  5
77D
100
AcDbEntity
  8
0
370
    -3
390
0
  6
Continuous
100
AcDbLine
 10
-714.916219
 20
475.717764
 30
0.0
 11
-850.916219
 21
475.717764
 31
0.0
  0
LINE
  5
77E
100
AcDbEntity
  8
0
370
    -3
390
0
  6
Continuous
100
AcDbLine
 10
-714.916219
 20
473.311877
 30
0.0
 11
-850.916219
 21
473.311877
 31
0.0
  0
LINE
  5
77F
100
AcDbEntity
  8
0
370
    -3
390
0
  6
Continuous
100
AcDbLine
 10
-714.916219
 20
456.684987
 30
0.0
 11
-850.916219
 21
456.684987
 31
0.0
  0
LINE
  5
780
100
AcDbEntity
  8
0
370
    -3
390
0
  6
Continuous
100
AcDbLine
 10
-714.916219
 20
459.34569
 30
0.0
 11
-850.916219
 21
459.34569
 31
0.0
  0
LINE
  5
781
100
AcDbEntity
  8
0
370
    -3
390
0
  6
Continuous
100
AcDbLine
 10
-669.916219
 20
439.817406
 30
0.0
 11
-895.916219
 21
439.817406
 31
0.0
  0
LINE
  5
782
100
AcDbEntity
  8
0
370
    -3
390
0
  6
Continuous
100
AcDbLine
 10
-895.916219
 20
424.916063
 30
0.0
 11
-669.916219
 21
424.916063
 31
0.0
  0
LINE
  5
783
100
AcDbEntity
  8
0
370
    -3
390
0
  6
Continuous
100
AcDbLine
 10
-669.916219
 20
421.9043
 30
0.0
 11
-895.916219
 21
421.9043
 31
0.0
  0
LINE
  5
784
100
AcDbEntity
  8
0
370
    -3
390
0
  6
Continuous
100
AcDbLine
 10
-511.916219
 20
234.9814
 30
0.0
 11
-511.916219
 21
215.306582
 31
0.0
  0
LINE
  5
785
100
AcDbEntity
  8
0
370
    -3
390
0
  6
Continuous
100
AcDbLine
 10
-511.916219
 20
215.306582
 30
0.0
 11
-511.916219
 21
207.415077
 31
0.0
  0
LINE
  5
786
100
AcDbEntity
  8
0
370
    -3
390
0
  6
Continuous
100
AcDbLine
 10
-511.916219
 20
207.415077
 30
0.0
 11
-511.916219
 21
189.997852
 31
0.0
  0
LINE
  5
787
100
AcDbEntity
  8
0
370
    -3
390
0
  6
Continuous
100
AcDbLine
 10
-511.916219
 20
189.997852
 30
0.0
 11
-511.916219
 21
184.340998
 31
0.0
  0
LINE
  5
788
100
AcDbEntity
  8
0
370
    -3
390
0
  6
Continuous
100
AcDbLine
 10
-511.916219
 20
184.340998
 30
0.0
 11
-511.916219
 21
173.027289
 31
0.0
  0
LINE
  5
789
100
AcDbEntity
  8
0
370
    -3
390
0
  6
Continuous
100
AcDbLine
 10
-511.916219
 20
173.027289
 30
0.0
 11
-511.916219
 21
170.684144
 31
0.0
  0
LINE
  5
78A
100
AcDbEntity
  8
0
370
    -3
390
0
  6
Continuous
100
AcDbLine
 10
-511.916219
 20
568.684144
 30
0.0
 11
-511.916219
 21
566.340998
 31
0.0
  0
LINE
  5
78B
100
AcDbEntity
  8
0
370
    -3
390
0
  6
Continuous
100
AcDbLine
 10
-511.916219
 20
566.340998
 30
0.0
 11
-511.916219
 21
555.027289
 31
0.0
  0
LINE
  5
78C
100
AcDbEntity
  8
0
370
    -3
390
0
  6
Continuous
100
AcDbLine
 10
-511.916219
 20
555.027289
 30
0.0
 11
-511.916219
 21
549.370435
 31
0.0
  0
LINE
  5
78D
100
AcDbEntity
  8
0
370
    -3
390
0
  6
Continuous
100
AcDbLine
 10
-511.916219
 20
549.370435
 30
0.0
 11
-511.916219
 21
531.95321
 31
0.0
  0
LINE
  5
78E
100
AcDbEntity
  8
0
370
    -3
390
0
  6
Continuous
100
AcDbLine
 10
-511.916219
 20
531.95321
 30
0.0
 11
-511.916219
 21
524.061706
 31
0.0
  0
LINE
  5
78F
100
AcDbEntity
  8
0
370
    -3
390
0
  6
Continuous
100
AcDbLine
 10
-511.916219
 20
524.061706
 30
0.0
 11
-511.916219
 21
504.386887
 31
0.0
  0
LINE
  5
790
100
AcDbEntity
  8
0
370
    -3
390
0
  6
Continuous
100
AcDbLine
 10
-511.916219
 20
504.386887
 30
0.0
 11
-511.916219
 21
473.117493
 31
0.0
  0
LINE
  5
791
100
AcDbEntity
  8
0
370
    -3
390
0
  6
Continuous
100
AcDbLine
 10
-511.916219
 20
473.117493
 30
0.0
 11
-511.916219
 21
462.188641
 31
0.0
  0
LINE
  5
792
100
AcDbEntity
  8
0
370
    -3
390
0
  6
Continuous
100
AcDbLine
 10
-511.916219
 20
462.188641
 30
0.0
 11
-511.916219
 21
426.072445
 31
0.0
  0
LINE
  5
793
100
AcDbEntity
  8
0
370
    -3
390
0
  6
Continuous
100
AcDbLine
 10
-511.916219
 20
426.072445
 30
0.0
 11
-511.916219
 21
419.599327
 31
0.0
  0
LINE
  5
794
100
AcDbEntity
  8
0
370
    -3
390
0
  6
Continuous
100
AcDbLine
 10
-511.916219
 20
419.599327
 30
0.0
 11
-511.916219
 21
389.684144
 31
0.0
  0
LINE
  5
795
100
AcDbEntity
  8
0
370
    -3
390
0
  6
Continuous
100
AcDbLine
 10
-511.916219
 20
319.768961
 30
0.0
 11
-511.916219
 21
313.295842
 31
0.0
  0
LINE
  5
796
100
AcDbEntity
  8
0
370
    -3
390
0
  6
Continuous
100
AcDbLine
 10
-511.916219
 20
313.295842
 30
0.0
 11
-511.916219
 21
277.179647
 31
0.0
  0
LINE
  5
797
100
AcDbEntity
  8
0
370
    -3
390
0
  6
Continuous
100
AcDbLine
 10
-511.916219
 20
277.179647
 30
0.0
 11
-511.916219
 21
266.250795
 31
0.0
  0
LINE
  5
798
100
AcDbEntity
  8
0
370
    -3
390
0
  6
Continuous
100
AcDbLine
 10
-511.916219
 20
266.250795
 30
0.0
 11
-511.916219
 21
234.9814
 31
0.0
  0
LINE
  5
799
100
AcDbEntity
  8
0
370
    -3
390
0
  6
Continuous
100
AcDbLine
 10
-492.916219
 20
266.250795
 30
0.0
 11
-492.916219
 21
234.9814
 31
0.0
  0
LINE
  5
79A
100
AcDbEntity
  8
0
370
    -3
390
0
  6
Continuous
100
AcDbLine
 10
-492.916219
 20
277.179647
 30
0.0
 11
-492.916219
 21
266.250795
 31
0.0
  0
LINE
  5
79B
100
AcDbEntity
  8
0
370
    -3
390
0
  6
Continuous
100
AcDbLine
 10
-492.916219
 20
313.295842
 30
0.0
 11
-492.916219
 21
277.179647
 31
0.0
  0
LINE
  5
79C
100
AcDbEntity
  8
0
370
    -3
390
0
  6
Continuous
100
AcDbLine
 10
-492.916219
 20
319.768961
 30
0.0
 11
-492.916219
 21
313.295842
 31
0.0
  0
LINE
  5
79D
100
AcDbEntity
  8
0
370
    -3
390
0
  6
Continuous
100
AcDbLine
 10
-492.916219
 20
419.599327
 30
0.0
 11
-492.916219
 21
319.768961
 31
0.0
  0
LINE
  5
79E
100
AcDbEntity
  8
0
370
    -3
390
0
  6
Continuous
100
AcDbLine
 10
-492.916219
 20
426.072445
 30
0.0
 11
-492.916219
 21
419.599327
 31
0.0
  0
LINE
  5
79F
100
AcDbEntity
  8
0
370
    -3
390
0
  6
Continuous
100
AcDbLine
 10
-492.916219
 20
462.188641
 30
0.0
 11
-492.916219
 21
426.072445
 31
0.0
  0
LINE
  5
7A0
100
AcDbEntity
  8
0
370
    -3
390
0
  6
Continuous
100
AcDbLine
 10
-492.916219
 20
473.117493
 30
0.0
 11
-492.916219
 21
462.188641
 31
0.0
  0
LINE
  5
7A1
100
AcDbEntity
  8
0
370
    -3
390
0
  6
Continuous
100
AcDbLine
 10
-492.916219
 20
504.386887
 30
0.0
 11
-492.916219
 21
473.117493
 31
0.0
  0
LINE
  5
7A2
100
AcDbEntity
  8
0
370
    -3
390
0
  6
Continuous
100
AcDbLine
 10
-492.916219
 20
524.061706
 30
0.0
 11
-492.916219
 21
504.386887
 31
0.0
  0
LINE
  5
7A3
100
AcDbEntity
  8
0
370
    -3
390
0
  6
Continuous
100
AcDbLine
 10
-492.916219
 20
531.95321
 30
0.0
 11
-492.916219
 21
524.061706
 31
0.0
  0
LINE
  5
7A4
100
AcDbEntity
  8
0
370
    -3
390
0
  6
Continuous
100
AcDbLine
 10
-492.916219
 20
549.370435
 30
0.0
 11
-492.916219
 21
531.95321
 31
0.0
  0
LINE
  5
7A5
100
AcDbEntity
  8
0
370
    -3
390
0
  6
Continuous
100
AcDbLine
 10
-492.916219
 20
555.027289
 30
0.0
 11
-492.916219
 21
549.370435
 31
0.0
  0
LINE
  5
7A6
100
AcDbEntity
  8
0
370
    -3
390
0
  6
Continuous
100
AcDbLine
 10
-492.916219
 20
566.340998
 30
0.0
 11
-492.916219
 21
555.027289
 31
0.0
  0
LINE
  5
7A7
100
AcDbEntity
  8
0
370
    -3
390
0
  6
Continuous
100
AcDbLine
 10
-492.916219
 20
568.684144
 30
0.0
 11
-492.916219
 21
566.340998
 31
0.0
  0
LINE
  5
7A8
100
AcDbEntity
  8
0
370
    -3
390
0
  6
Continuous
100
AcDbLine
 10
-492.916219
 20
173.027289
 30
0.0
 11
-492.916219
 21
170.684144
 31
0.0
  0
LINE
  5
7A9
100
AcDbEntity
  8
0
370
    -3
390
0
  6
Continuous
100
AcDbLine
 10
-492.916219
 20
184.340998
 30
0.0
 11
-492.916219
 21
173.027289
 31
0.0
  0
LINE
  5
7AA
100
AcDbEntity
  8
0
370
    -3
390
0
  6
Continuous
100
AcDbLine
 10
-492.916219
 20
189.997852
 30
0.0
 11
-492.916219
 21
184.340998
 31
0.0
  0
LINE
  5
7AB
100
AcDbEntity
  8
0
370
    -3
390
0
  6
Continuous
100
AcDbLine
 10
-492.916219
 20
207.415077
 30
0.0
 11
-492.916219
 21
189.997852
 31
0.0
  0
LINE
  5
7AC
100
AcDbEntity
  8
0
370
    -3
390
0
  6
Continuous
100
AcDbLine
 10
-492.916219
 20
215.306582
 30
0.0
 11
-492.916219
 21
207.415077
 31
0.0
  0
LINE
  5
7AD
100
AcDbEntity
  8
0
370
    -3
390
0
  6
Continuous
100
AcDbLine
 10
-492.916219
 20
234.9814
 30
0.0
 11
-492.916219
 21
215.306582
 31
0.0
  0
LINE
  5
7AE
100
AcDbEntity
  8
0
370
    -3
390
0
  6
Continuous
100
AcDbLine
 10
-511.916219
 20
266.250795
 30
0.0
 11
-492.916219
 21
266.250795
 31
0.0
  0
LINE
  5
7AF
100
AcDbEntity
  8
0
370
    -3
390
0
  6
Continuous
100
AcDbLine
 10
-511.916219
 20
277.179647
 30
0.0
 11
-492.916219
 21
277.179647
 31
0.0
  0
LINE
  5
7B0
100
AcDbEntity
  8
0
370
    -3
390
0
  6
Continuous
100
AcDbLine
 10
-511.916219
 20
313.295842
 30
0.0
 11
-492.916219
 21
313.295842
 31
0.0
  0
LINE
  5
7B1
100
AcDbEntity
  8
0
370
    -3
390
0
  6
Continuous
100
AcDbLine
 10
-511.916219
 20
319.768961
 30
0.0
 11
-492.916219
 21
319.768961
 31
0.0
  0
LINE
  5
7B2
100
AcDbEntity
  8
0
370
    -3
390
0
  6
Continuous
100
AcDbLine
 10
-511.916219
 20
419.599327
 30
0.0
 11
-492.916219
 21
419.599327
 31
0.0
  0
LINE
  5
7B3
100
AcDbEntity
  8
0
370
    -3
390
0
  6
Continuous
100
AcDbLine
 10
-511.916219
 20
426.072445
 30
0.0
 11
-492.916219
 21
426.072445
 31
0.0
  0
LINE
  5
7B4
100
AcDbEntity
  8
0
370
    -3
390
0
  6
Continuous
100
AcDbLine
 10
-511.916219
 20
462.188641
 30
0.0
 11
-492.916219
 21
462.188641
 31
0.0
  0
LINE
  5
7B5
100
AcDbEntity
  8
0
370
    -3
390
0
  6
Continuous
100
AcDbLine
 10
-511.916219
 20
473.117493
 30
0.0
 11
-492.916219
 21
473.117493
 31
0.0
  0
LINE
  5
7B6
100
AcDbEntity
  8
0
370
    -3
390
0
  6
Continuous
100
AcDbLine
 10
-511.916219
 20
524.061706
 30
0.0
 11
-492.916219
 21
524.061706
 31
0.0
  0
LINE
  5
7B7
100
AcDbEntity
  8
0
370
    -3
390
0
  6
Continuous
100
AcDbLine
 10
-511.916219
 20
531.95321
 30
0.0
 11
-492.916219
 21
531.95321
 31
0.0
  0
LINE
  5
7B8
100
AcDbEntity
  8
0
370
    -3
390
0
  6
Continuous
100
AcDbLine
 10
-511.916219
 20
549.370435
 30
0.0
 11
-492.916219
 21
549.370435
 31
0.0
  0
LINE
  5
7B9
100
AcDbEntity
  8
0
370
    -3
390
0
  6
Continuous
100
AcDbLine
 10
-511.916219
 20
555.027289
 30
0.0
 11
-492.916219
 21
555.027289
 31
0.0
  0
LINE
  5
7BA
100
AcDbEntity
  8
0
370
    -3
390
0
  6
Continuous
100
AcDbLine
 10
-511.916219
 20
566.340998
 30
0.0
 11
-492.916219
 21
566.340998
 31
0.0
  0
LINE
  5
7BB
100
AcDbEntity
  8
0
370
    -3
390
0
  6
Continuous
100
AcDbLine
 10
-511.916219
 20
568.684144
 30
0.0
 11
-492.916219
 21
568.684144
 31
0.0
  0
LINE
  5
7BC
100
AcDbEntity
  8
0
370
    -3
390
0
  6
Continuous
100
AcDbLine
 10
-511.916219
 20
170.684144
 30
0.0
 11
-492.916219
 21
170.684144
 31
0.0
  0
LINE
  5
7BD
100
AcDbEntity
  8
0
370
    -3
390
0
  6
Continuous
100
AcDbLine
 10
-511.916219
 20
173.027289
 30
0.0
 11
-492.916219
 21
173.027289
 31
0.0
  0
LINE
  5
7BE
100
AcDbEntity
  8
0
370
    -3
390
0
  6
Continuous
100
AcDbLine
 10
-511.916219
 20
184.340998
 30
0.0
 11
-492.916219
 21
184.340998
 31
0.0
  0
LINE
  5
7BF
100
AcDbEntity
  8
0
370
    -3
390
0
  6
Continuous
100
AcDbLine
 10
-511.916219
 20
189.997852
 30
0.0
 11
-492.916219
 21
189.997852
 31
0.0
  0
LINE
  5
7C0
100
AcDbEntity
  8
0
370
    -3
390
0
  6
Continuous
100
AcDbLine
 10
-511.916219
 20
207.415077
 30
0.0
 11
-492.916219
 21
207.415077
 31
0.0
  0
LINE
  5
7C1
100
AcDbEntity
  8
0
370
    -3
390
0
  6
Continuous
100
AcDbLine
 10
-511.916219
 20
215.306582
 30
0.0
 11
-492.916219
 21
215.306582
 31
0.0
  0
LINE
  5
7C2
100
AcDbEntity
  8
0
370
    -3
390
0
  6
Continuous
100
AcDbLine
 10
-511.916219
 20
349.684144
 30
0.0
 11
-511.916219
 21
319.768961
 31
0.0
  0
LINE
  5
7C3
100
AcDbEntity
  8
0
370
    -3
390
0
  6
Continuous
100
AcDbLine
 10
-511.916219
 20
389.684144
 30
0.0
 11
-532.916219
 21
389.684144
 31
0.0
  0
LINE
  5
7C4
100
AcDbEntity
  8
0
370
    -3
390
0
  6
Continuous
100
AcDbLine
 10
-532.916219
 20
349.684144
 30
0.0
 11
-511.916219
 21
349.684144
 31
0.0
  0
LINE
  5
7C5
100
AcDbEntity
  8
0
370
    -3
390
0
  6
Continuous
100
AcDbLine
 10
-511.916219
 20
234.9814
 30
0.0
 11
-492.916219
 21
234.9814
 31
0.0
  0
LINE
  5
7C6
100
AcDbEntity
  8
0
370
    -3
390
0
  6
Continuous
100
AcDbLine
 10
-492.916219
 20
504.386887
 30
0.0
 11
-511.916219
 21
504.386887
 31
0.0
  0
INSERT
  5
7D7
100
AcDbEntity
  8
0
390
0
100
AcDbBlockReference
  2
ZU_SYM_K__CAD_SYM_POO_SYM_B21_0000920
 10
-511.916219
 20
544.668904
 30
0.0
  0
INSERT
  5
7E8
100
AcDbEntity
  8
0
390
0
100
AcDbBlockReference
  2
ZU_SYM_K__CAD_SYM_POO_SYM_B21_0001020
 10
-511.916219
 20
443.6271
 30
0.0
  0
INSERT
  5
7F9
100
AcDbEntity
  8
0
390
0
100
AcDbBlockReference
  2
ZU_SYM_K__CAD_SYM_POO_SYM_B21_0001120
 10
-511.916219
 20
295.710709
 30
0.0
  0
INSERT
  5
80A
100
AcDbEntity
  8
0
390
0
100
AcDbBlockReference
  2
ZU_SYM_K__CAD_SYM_POO_SYM_B21_0001220
 10
-511.916219
 20
194.668904
 30
0.0
  0
LINE
  5
80B
100
AcDbEntity
  8
0
370
    -3
390
0
  6
CENTER
100
AcDbLine
 10
-532.916219
 20
353.757313
 30
0.0
 11
-532.916219
 21
385.404528
 31
0.0
  0
ARC
  5
80C
100
AcDbEntity
  8
0
370
    -3
390
0
  6
Continuous
100
AcDbCircle
 10
-504.916219
 20
369.684144
 30
0.0
 40
8.0
100
AcDbArc
 50
270.0
 51
90.0
  0
ARC
  5
80D
100
AcDbEntity
  8
0
370
    -3
390
0
  6
Continuous
100
AcDbCircle
 10
-532.916219
 20
369.684144
 30
0.0
 40
8.647
100
AcDbArc
 50
247.694964
 51
292.305036
  0
ARC
  5
80E
100
AcDbEntity
  8
0
370
    -3
390
0
  6
Continuous
100
AcDbCircle
 10
-532.916219
 20
369.684144
 30
0.0
 40
10.0
100
AcDbArc
 50
233.130102
 51
306.869898
  0
ARC
  5
80F
100
AcDbEntity
  8
0
370
    -3
390
0
  6
Continuous
100
AcDbCircle
 10
-532.916219
 20
369.684144
 30
0.0
 40
8.647
100
AcDbArc
 50
67.694964
 51
112.305036
  0
LINE
  5
810
100
AcDbEntity
  8
0
370
    -3
390
0
  6
Continuous
100
AcDbLine
 10
-504.916219
 20
377.684144
 30
0.0
 11
-560.916219
 21
377.684144
 31
0.0
  0
ARC
  5
811
100
AcDbEntity
  8
0
370
    -3
390
0
  6
Continuous
100
AcDbCircle
 10
-532.916219
 20
369.684144
 30
0.0
 40
10.0
100
AcDbArc
 50
53.130102
 51
126.869898
  0
LINE
  5
812
100
AcDbEntity
  8
0
370
    -3
390
0
  6
Continuous
100
AcDbLine
 10
-504.916219
 20
361.684144
 30
0.0
 11
-560.916219
 21
361.684144
 31
0.0
  0
ARC
  5
813
100
AcDbEntity
  8
0
370
    -3
390
0
  6
Continuous
100
AcDbCircle
 10
-560.916219
 20
369.684144
 30
0.0
 40
8.0
100
AcDbArc
 50
90.0
 51
270.0
  0
ARC
  5
814
100
AcDbEntity
  8
0
370
    -3
390
0
  6
Continuous
100
AcDbCircle
 10
-532.916219
 20
369.684144
 30
0.0
 40
20.0
100
AcDbArc
 50
90.0
 51
156.421822
  0
ARC
  5
815
100
AcDbEntity
  8
0
370
    -3
390
0
  6
Continuous
100
AcDbCircle
 10
-532.916219
 20
369.684144
 30
0.0
 40
20.0
100
AcDbArc
 50
203.578178
 51
270.0
  0
LINE
  5
816
100
AcDbEntity
  8
0
370
    -3
390
0
  6
CENTER
100
AcDbLine
 10
-506.157225
 20
544.684144
 30
0.0
 11
-530.545767
 21
544.684144
 31
0.0
  0
LINE
  5
817
100
AcDbEntity
  8
0
370
    -3
390
0
  6
CENTER
100
AcDbLine
 10
-504.31009
 20
443.642339
 30
0.0
 11
-527.365868
 21
443.642339
 31
0.0
  0
LINE
  5
818
100
AcDbEntity
  8
0
370
    -3
390
0
  6
CENTER
100
AcDbLine
 10
-504.617946
 20
295.725948
 30
0.0
 11
-527.365868
 21
295.725948
 31
0.0
  0
LINE
  5
819
100
AcDbEntity
  8
0
370
    -3
390
0
  6
CENTER
100
AcDbLine
 10
-505.541513
 20
194.684144
 30
0.0
 11
-530.545767
 21
194.684144
 31
0.0
  0
LINE
  5
81A
100
AcDbEntity
  8
0
370
    -3
390
0
  6
Continuous
100
AcDbLine
 10
-511.916219
 20
244.684144
 30
0.0
 11
-607.916219
 21
244.684144
 31
0.0
  0
LINE
  5
81B
100
AcDbEntity
  8
0
370
    -3
390
0
  6
Continuous
100
AcDbLine
 10
-511.916219
 20
494.684144
 30
0.0
 11
-592.916254
 21
494.684144
 31
0.0
  0
LINE
  5
81C
100
AcDbEntity
  8
0
370
    -3
390
0
  6
Continuous
100
AcDbLine
 10
-514.916219
 20
534.684144
 30
0.0
 11
-658.274083
 21
534.684144
 31
0.0
  0
LINE
  5
81D
100
AcDbEntity
  8
0
370
    -3
390
0
  6
Continuous
100
AcDbLine
 10
-514.916219
 20
204.684144
 30
0.0
 11
-574.916219
 21
204.684144
 31
0.0
  0
ENDSEC
  0
SECTION
  2
OBJECTS
  0
DICTIONARY
  5
19
100
AcDbDictionary
280
     0
281
     1
  3
ACAD_GROUP
350
1A
  3
ACAD_MLINESTYLE
350
1B
  3
ACAD_LAYOUT
350
1E
  3
ACAD_PLOTSETTINGS
350
22
  3
ACAD_PLOTSTYLENAME
350
1F
  3
ACAD_WIPEOUT_VARS
350
23
  3
DWGPROPS
350
81E
  0
DICTIONARY
  5
1A
102
{ACAD_REACTORS
330
19
102
}
100
AcDbDictionary
280
     0
281
     1
  0
DICTIONARY
  5
1B
102
{ACAD_REACTORS
330
19
102
}
100
AcDbDictionary
280
     0
281
     1
  3
Standard
350
1C
  0
MLINESTYLE
  5
1C
102
{ACAD_REACTORS
330
1B
102
}
100
AcDbMlineStyle
  2
Standard
 70
     0
  3

 62
     0
 51
90.0
 52
90.0
 71
     2
 49
0.5
 62
   256
  6
ByLayer
 49
-0.5
 62
   256
  6
ByLayer
  0
ACDBDICTIONARYWDFLT
  5
1F
102
{ACAD_REACTORS
330
19
102
}
100
AcDbDictionary
281
     1
  3
Normal
350
1D
100
AcDbDictionaryWithDefault
340
1D
  0
ACDBPLACEHOLDER
  5
1D
102
{ACAD_REACTORS
330
1F
102
}
  0
LAYOUT
  5
20
102
{ACAD_REACTORS
330
1E
102
}
100
AcDbPlotSettings
  1

  2

  4

  6

 40
0.0
 41
0.0
 42
0.0
 43
0.0
 44
0.0
 45
0.0
 46
0.0
 47
0.0
 48
0.0
 49
0.0
140
0.0
141
0.0
142
1.0
143
1.0
 70
  1024
 72
     0
 73
     0
 74
     0
  7

 75
     0
147
1.0
148
0.0
149
0.0
100
AcDbLayout
  1
Model
 70
     0
 71
     0
 10
0.0
 20
0.0
 11
0.0
 21
0.0
 12
0.0
 22
0.0
 32
0.0
 14
0.0
 24
0.0
 34
0.0
 15
0.0
 25
0.0
 35
0.0
146
0.0
 13
0.0
 23
0.0
 33
0.0
 16
0.0
 26
0.0
 36
0.0
 17
0.0
 27
0.0
 37
0.0
 76
     0
330
A
331
0
345
0
346
0
  0
LAYOUT
  5
21
102
{ACAD_REACTORS
330
1E
102
}
100
AcDbPlotSettings
  1

  2

  4

  6

 40
0.0
 41
0.0
 42
0.0
 43
0.0
 44
0.0
 45
0.0
 46
0.0
 47
0.0
 48
0.0
 49
0.0
140
0.0
141
0.0
142
1.0
143
1.0
 70
     0
 72
     0
 73
     0
 74
     0
  7

 75
     0
147
1.0
148
0.0
149
0.0
100
AcDbLayout
  1
Layout1
 70
     0
 71
     0
 10
0.0
 20
0.0
 11
0.0
 21
0.0
 12
0.0
 22
0.0
 32
0.0
 14
0.0
 24
0.0
 34
0.0
 15
0.0
 25
0.0
 35
0.0
146
0.0
 13
0.0
 23
0.0
 33
0.0
 16
0.0
 26
0.0
 36
0.0
 17
0.0
 27
0.0
 37
0.0
 76
     0
330
B
331
0
345
0
346
0
  0
DICTIONARY
  5
1E
102
{ACAD_REACTORS
330
19
102
}
100
AcDbDictionary
280
     0
281
     1
  3
Layout1
350
21
  3
Model
350
20
  0
DICTIONARY
  5
22
102
{ACAD_REACTORS
330
19
102
}
100
AcDbDictionary
280
     0
281
     1
  0
WIPEOUTVARIABLES
  5
23
100
AcDbWipeoutVariables
 70
     1
  0
XRECORD
  5
81E
100
AcDbXrecord
280
     1
  1
DWGPROPS COOKIE
  2

  3

  4

  6

  7

  8
YP81315
  9

300
=
301
=
302
=
303
=
304
=
305
=
306
=
307
=
308
=
309
=
 40
0.0
 41
2456813.627257
 42
2456813.627257
  1

 90
        0
  0
ENDSEC
  0
EOF
