  0
SECTION
  2
HEADER
  9
$ACADVER
  1
AC1015
  9
$ACADMAINTVER
 70
     6
  9
$DWGCODEPAGE
  3
ANSI_932
  9
$INSBASE
 10
0.0
 20
0.0
 30
0.0
  9
$EXTMIN
 10
1.000000E+20
 20
1.000000E+20
 30
1.000000E+20
  9
$EXTMAX
 10
-1.000000E+20
 20
-1.000000E+20
 30
-1.000000E+20
  9
$LIMMIN
 10
0.0
 20
0.0
  9
$LIMMAX
 10
0.0
 20
0.0
  9
$ORTHOMODE
 70
     0
  9
$REGENMODE
 70
     1
  9
$FILLMODE
 70
     1
  9
$QTEXTMODE
 70
     0
  9
$MIRRTEXT
 70
     1
  9
$LTSCALE
 40
1.0
  9
$ATTMODE
 70
     1
  9
$TEXTSIZE
 40
3.2
  9
$TRACEWID
 40
0.05
  9
$TEXTSTYLE
  7
Standard
  9
$CLAYER
  8
0
  9
$CELTYPE
  6
Continuous
  9
$CECOLOR
 62
   256
  9
$CELTSCALE
 40
1.0
  9
$DISPSILH
 70
     0
  9
$DIMSCALE
 40
1.0
  9
$DIMASZ
 40
1.931852
  9
$DIMEXO
 40
1.0
  9
$DIMDLI
 40
0.38
  9
$DIMRND
 40
0.0
  9
$DIMDLE
 40
0.0
  9
$DIMEXE
 40
2.0
  9
$DIMTP
 40
0.0
  9
$DIMTM
 40
0.0
  9
$DIMTXT
 40
2.8
  9
$DIMCEN
 40
0.09
  9
$DIMTSZ
 40
0.0
  9
$DIMTOL
 70
     0
  9
$DIMLIM
 70
     0
  9
$DIMTIH
 70
     1
  9
$DIMTOH
 70
     1
  9
$DIMSE1
 70
     0
  9
$DIMSE2
 70
     0
  9
$DIMTAD
 70
     1
  9
$DIMZIN
 70
     0
  9
$DIMBLK
  1

  9
$DIMASO
 70
     1
  9
$DIMSHO
 70
     1
  9
$DIMPOST
  1

  9
$DIMAPOST
  1

  9
$DIMALT
 70
     0
  9
$DIMALTD
 70
     2
  9
$DIMALTF
 40
25.4
  9
$DIMLFAC
 40
1.0
  9
$DIMTOFL
 70
     0
  9
$DIMTVP
 40
0.0
  9
$DIMTIX
 70
     0
  9
$DIMSOXD
 70
     0
  9
$DIMSAH
 70
     0
  9
$DIMBLK1
  1

  9
$DIMBLK2
  1

  9
$DIMSTYLE
  2
Standard
  9
$DIMCLRD
 70
     0
  9
$DIMCLRE
 70
     0
  9
$DIMCLRT
 70
     0
  9
$DIMTFAC
 40
0.625
  9
$DIMGAP
 40
0.09
  9
$DIMJUST
 70
     0
  9
$DIMSD1
 70
     0
  9
$DIMSD2
 70
     0
  9
$DIMTOLJ
 70
     1
  9
$DIMTZIN
 70
     0
  9
$DIMALTZ
 70
     0
  9
$DIMALTTZ
 70
     0
  9
$DIMUPT
 70
     0
  9
$DIMDEC
 70
     4
  9
$DIMTDEC
 70
     4
  9
$DIMALTU
 70
     2
  9
$DIMALTTD
 70
     2
  9
$DIMTXSTY
  7
Standard
  9
$DIMAUNIT
 70
     0
  9
$DIMADEC
 70
     0
  9
$DIMALTRND
 40
0.0
  9
$DIMAZIN
 70
     0
  9
$DIMDSEP
 70
     0
  9
$DIMATFIT
 70
     3
  9
$DIMFRAC
 70
     0
  9
$DIMLDRBLK
  1

  9
$DIMLUNIT
 70
     2
  9
$DIMLWD
 70
     0
  9
$DIMLWE
 70
     0
  9
$DIMTMOVE
 70
     0
  9
$LUNITS
 70
     2
  9
$LUPREC
 70
     3
  9
$SKETCHINC
 40
0.1
  9
$FILLETRAD
 40
0.0
  9
$AUNITS
 70
     0
  9
$AUPREC
 70
     0
  9
$MENU
  1
acad
  9
$ELEVATION
 40
0.0
  9
$PELEVATION
 40
0.0
  9
$THICKNESS
 40
0.0
  9
$LIMCHECK
 70
     0
  9
$CHAMFERA
 40
0.0
  9
$CHAMFERB
 40
0.0
  9
$CHAMFERC
 40
0.0
  9
$CHAMFERD
 40
0.0
  9
$SKPOLY
 70
     0
  9
$TDCREATE
 40
0.000000000
  9
$TDUCREATE
 40
0.000000000
  9
$TDUPDATE
 40
0.000000000
  9
$TDUUPDATE
 40
0.000000000
  9
$TDINDWG
 40
0.0000000000
  9
$TDUSRTIMER
 40
0.0000000000
  9
$USRTIMER
 70
     1
  9
$ANGBASE
 50
0.0
  9
$ANGDIR
 70
     0
  9
$PDMODE
 70
     0
  9
$PDSIZE
 40
0.0
  9
$PLINEWID
 40
0.0
  9
$SPLFRAME
 70
     0
  9
$SPLINETYPE
 70
     6
  9
$SPLINESEGS
 70
     8
  9
$HANDSEED
  5
7FD
  9
$SURFTAB1
 70
     6
  9
$SURFTAB2
 70
     6
  9
$SURFTYPE
 70
     6
  9
$SURFU
 70
     6
  9
$SURFV
 70
     6
  9
$UCSBASE
  2

  9
$UCSNAME
  2

  9
$UCSORG
 10
0.0
 20
0.0
 30
0.0
  9
$UCSXDIR
 10
1.0
 20
0.0
 30
0.0
  9
$UCSYDIR
 10
0.0
 20
1.0
 30
0.0
  9
$UCSORTHOREF
  2

  9
$UCSORTHOVIEW
 70
     0
  9
$UCSORGTOP
 10
0.0
 20
0.0
 30
0.0
  9
$UCSORGBOTTOM
 10
0.0
 20
0.0
 30
0.0
  9
$UCSORGLEFT
 10
0.0
 20
0.0
 30
0.0
  9
$UCSORGRIGHT
 10
0.0
 20
0.0
 30
0.0
  9
$UCSORGFRONT
 10
0.0
 20
0.0
 30
0.0
  9
$UCSORGBACK
 10
0.0
 20
0.0
 30
0.0
  9
$PUCSBASE
  2

  9
$PUCSNAME
  2

  9
$PUCSORG
 10
0.0
 20
0.0
 30
0.0
  9
$PUCSXDIR
 10
1.0
 20
0.0
 30
0.0
  9
$PUCSYDIR
 10
0.0
 20
1.0
 30
0.0
  9
$PUCSORTHOREF
  2

  9
$PUCSORTHOVIEW
 70
     0
  9
$PUCSORGTOP
 10
0.0
 20
0.0
 30
0.0
  9
$PUCSORGBOTTOM
 10
0.0
 20
0.0
 30
0.0
  9
$PUCSORGLEFT
 10
0.0
 20
0.0
 30
0.0
  9
$PUCSORGRIGHT
 10
0.0
 20
0.0
 30
0.0
  9
$PUCSORGFRONT
 10
0.0
 20
0.0
 30
0.0
  9
$PUCSORGBACK
 10
0.0
 20
0.0
 30
0.0
  9
$USERI1
 70
     0
  9
$USERI2
 70
     0
  9
$USERI3
 70
     0
  9
$USERI4
 70
     0
  9
$USERI5
 70
     0
  9
$USERR1
 40
0.0
  9
$USERR2
 40
0.0
  9
$USERR3
 40
0.0
  9
$USERR4
 40
0.0
  9
$USERR5
 40
0.0
  9
$WORLDVIEW
 70
     1
  9
$SHADEDGE
 70
     3
  9
$SHADEDIF
 70
    70
  9
$TILEMODE
 70
     1
  9
$MAXACTVP
 70
    16
  9
$PINSBASE
 10
0.0
 20
0.0
 30
0.0
  9
$PLIMCHECK
 70
     0
  9
$PEXTMIN
 10
1.000000E+20
 20
1.000000E+20
 30
1.000000E+20
  9
$PEXTMAX
 10
-1.000000E+20
 20
-1.000000E+20
 30
-1.000000E+20
  9
$PLIMMIN
 10
0.0
 20
0.0
  9
$PLIMMAX
 10
12.0
 20
9.0
  9
$UNITMODE
 70
     0
  9
$VISRETAIN
 70
     0
  9
$PLINEGEN
 70
     1
  9
$PSLTSCALE
 70
     0
  9
$TREEDEPTH
 70
  3020
  9
$CMLSTYLE
  2
Standard
  9
$CMLJUST
 70
     0
  9
$CMLSCALE
 40
1.0
  9
$PROXYGRAPHICS
 70
     0
  9
$MEASUREMENT
 70
     0
  9
$CELWEIGHT
370
     0
  9
$ENDCAPS
280
     0
  9
$JOINSTYLE
280
     0
  9
$LWDISPLAY
290
     0
  9
$INSUNITS
 70
     0
  9
$HYPERLINKBASE
  1

  9
$STYLESHEET
  1

  9
$XEDIT
290
     1
  9
$CEPSNTYPE
380
     0
  9
$PSTYLEMODE
290
     1
  9
$FINGERPRINTGUID
  2

  9
$VERSIONGUID
  2

  9
$EXTNAMES
290
     1
  9
$PSVPSCALE
 40
0.0
  0
ENDSEC
  0
SECTION
  2
CLASSES
  0
CLASS
  1
LWPOLYLINE
  2
AcDbPolyline
  3
AutoCAD 2000
 90
        0
280
     0
281
     1
  0
CLASS
  1
IMAGE
  2
AcDbRasterImage
  3
ISM
 90
      127
280
     0
281
     1
  0
CLASS
  1
OLE2FRAME
  2
AcDbOle2Frame
  3
AutoCAD 2000
 90
        0
280
     0
281
     1
  0
CLASS
  1
HATCH
  2
AcDbHatch
  3
AutoCAD 2000
 90
        0
280
     0
281
     1
  0
CLASS
  1
DICTIONARYVAR
  2
AcDbDictionaryVar
  3
AutoCAD 2000
 90
        0
280
     0
281
     0
  0
CLASS
  1
RASTERVARIABLES
  2
AcDbRasterVariables
  3
ISM
 90
        0
280
     0
281
     0
  0
CLASS
  1
IMAGEDEF
  2
AcDbRasterImageDef
  3
ISM
 90
        0
280
     0
281
     0
  0
CLASS
  1
IMAGEDEF_REACTOR
  2
AcDbRasterImageDefReactor
  3
ISM
 90
        1
280
     0
281
     0
  0
CLASS
  1
IDBUFFER
  2
AcDbIdBuffer
  3
AutoCAD 2000
 90
        0
280
     0
281
     0
  0
CLASS
  1
SPATIAL_FILTER
  2
AcDbSpatialFilter
  3
AutoCAD 2000
 90
        0
280
     0
281
     0
  0
CLASS
  1
XRECORD
  2
AcDbXrecord
  3
AutoCAD 2000
 90
        0
280
     0
281
     0
  0
CLASS
  1
SORTENTSTABLE
  2
AcDbSortentsTable
  3
AutoCAD 2000
 90
        0
280
     0
281
     0
  0
CLASS
  1
LAYER_INDEX
  2
AcDbLayerIndex
  3
AutoCAD 2000
 90
        0
280
     0
281
     0
  0
CLASS
  1
SPATIAL_INDEX
  2
AcDbSpatialIndex
  3
AutoCAD 2000
 90
        0
280
     0
281
     0
  0
CLASS
  1
OBJECT_PTR
  2
CAseDLPNTableRecord
  3
"ASE-LPNTableRecord"
 90
        1
280
     0
281
     0
  0
CLASS
  1
LAYOUT
  2
AcDbLayout
  3
AutoCAD 2000
 90
        0
280
     0
281
     0
  0
CLASS
  1
PLOTSETTINGS
  2
AcDbPlotSettings
  3
AutoCAD 2000
 90
        0
280
     0
281
     0
  0
CLASS
  1
ACDBDICTIONARYWDFLT
  2
AcDbDictionaryWithDefault
  3
AutoCAD 2000
 90
        0
280
     0
281
     0
  0
CLASS
  1
ACDBPLACEHOLDER
  2
AcDbPlaceHolder
  3
AutoCAD 2000
 90
        0
280
     0
281
     0
  0
CLASS
  1
VBA_PROJECT
  2
AcDbVbaProject
  3
acadvba
 90
        0
280
     0
281
     0
  0
CLASS
  1
WIPEOUT
  2
AcDbWipeout
  3
WipeOut|AutoCAD Express Tool|expresstools@autodesk.com
 90
      127
280
     0
281
     1
  0
CLASS
  1
WIPEOUTVARIABLES
  2
AcDbWipeoutVariables
  3
WipeOut|AutoCAD Express Tool|expresstools@autodesk.com
 90
        0
280
     0
281
     0
  0
CLASS
  1
RTEXT
  2
RText
  3
RText|AutoCAD Express Tool|expresstools@autodesk.com
 90
        0
280
     0
281
     1
  0
CLASS
  1
ARCALIGNEDTEXT
  2
AcDbArcAlignedText
  3
ATEXT|AutoCAD Express Tool|expresstools@autodesk.com
 90
        0
280
     0
281
     1
  0
ENDSEC
  0
SECTION
  2
TABLES
  0
TABLE
  2
VPORT
  5
7
100
AcDbSymbolTable
 70
     1
  0
VPORT
  5
15
100
AcDbSymbolTableRecord
100
AcDbViewportTableRecord
  2
*ACTIVE
 70
     0
 10
0.0
 20
0.0
 11
1.0
 21
1.0
 12
0.0
 22
0.0
 13
0.0
 23
0.0
 14
1.0
 24
1.0
 15
0.0
 25
0.0
 16
0.0
 26
0.0
 36
1.0
 17
0.0
 27
0.0
 37
0.0
 40
100.0
 41
1.0
 42
50.0
 43
0.0
 44
0.0
 50
0.0
 51
0.0
 71
     0
 72
   100
 73
     1
 74
     1
 75
     0
 76
     0
 77
     0
 78
     0
281
     0
 65
     0
110
0.0
120
0.0
130
0.0
111
1.0
121
0.0
131
0.0
112
0.0
122
1.0
132
0.0
345
0
346
0
 79
     0
146
0.0
  0
ENDTAB
  0
TABLE
  2
LTYPE
  5
4
100
AcDbSymbolTable
 70
     7
  0
LTYPE
  5
11
100
AcDbSymbolTableRecord
100
AcDbLinetypeTableRecord
  2
ByBlock
 70
    64
  3

 72
    65
 73
     0
 40
0.0
  0
LTYPE
  5
12
100
AcDbSymbolTableRecord
100
AcDbLinetypeTableRecord
  2
ByLayer
 70
    64
  3

 72
    65
 73
     0
 40
0.0
  0
LTYPE
  5
13
100
AcDbSymbolTableRecord
100
AcDbLinetypeTableRecord
  2
Continuous
 70
    64
  3
Solid line
 72
    65
 73
     0
 40
0.0
  0
LTYPE
  5
24
100
AcDbSymbolTableRecord
100
AcDbLinetypeTableRecord
  2
DASHED
 70
    64
  3
Dashed __ __ __ __ __ __ __ __ __ __ __ __ __ _
 72
    65
 73
     2
 40
0.75
 49
0.5
 74
     0
 49
-0.25
 74
     0
  0
LTYPE
  5
25
100
AcDbSymbolTableRecord
100
AcDbLinetypeTableRecord
  2
CENTER
 70
    64
  3
Center ____ _ ____ _ ____ _ ____ _ ____ _ ____
 72
    65
 73
     4
 40
1.0
 49
0.5
 74
     0
 49
-0.25
 74
     0
 49
0.0
 74
     0
 49
-0.25
 74
     0
  0
LTYPE
  5
26
100
AcDbSymbolTableRecord
100
AcDbLinetypeTableRecord
  2
DIVIDE
 70
    64
  3
Divide ____ . . ____ . . ____ . . ____ . . ____
 72
    65
 73
     6
 40
1.25
 49
0.5
 74
     0
 49
-0.25
 74
     0
 49
0.0
 74
     0
 49
-0.25
 74
     0
 49
0.0
 74
     0
 49
-0.25
 74
     0
  0
LTYPE
  5
27
100
AcDbSymbolTableRecord
100
AcDbLinetypeTableRecord
  2
PHANTOM
 70
    64
  3
Phantom ______  __  __  ______  __  __  ______
 72
    65
 73
     6
 40
9.0
 49
4.3
 74
     0
 49
-0.7
 74
     0
 49
1.3
 74
     0
 49
-0.7
 74
     0
 49
1.3
 74
     0
 49
-0.7
 74
     0
  0
ENDTAB
  0
TABLE
  2
LAYER
  5
2
100
AcDbSymbolTable
 70
     8
  0
LAYER
  5
14
100
AcDbSymbolTableRecord
100
AcDbLayerTableRecord
  2
0
 70
    64
 62
     3
  6
Continuous
290
     1
370
    -3
390
1D
  0
LAYER
  5
28
100
AcDbSymbolTableRecord
100
AcDbLayerTableRecord
  2
1
 70
    64
 62
    42
  6
Continuous
290
     1
370
    -3
390
1D
  0
LAYER
  5
29
100
AcDbSymbolTableRecord
100
AcDbLayerTableRecord
  2
2
 70
    64
 62
     4
  6
Continuous
290
     1
370
    -3
390
1D
  0
LAYER
  5
2A
100
AcDbSymbolTableRecord
100
AcDbLayerTableRecord
  2
3
 70
    64
 62
     2
  6
Continuous
290
     1
370
    -3
390
1D
  0
LAYER
  5
2B
100
AcDbSymbolTableRecord
100
AcDbLayerTableRecord
  2
4
 70
    64
 62
     1
  6
Continuous
290
     1
370
    -3
390
1D
  0
LAYER
  5
2C
100
AcDbSymbolTableRecord
100
AcDbLayerTableRecord
  2
5
 70
    64
 62
   191
  6
Continuous
290
     1
370
    -3
390
1D
  0
LAYER
  5
2D
100
AcDbSymbolTableRecord
100
AcDbLayerTableRecord
  2
10
 70
    64
 62
     7
  6
Continuous
290
     1
370
    -3
390
1D
  0
LAYER
  5
2E
100
AcDbSymbolTableRecord
100
AcDbLayerTableRecord
  2
15
 70
    64
 62
   222
  6
Continuous
290
     1
370
    -3
390
1D
  0
ENDTAB
  0
TABLE
  2
STYLE
  5
3
100
AcDbSymbolTable
 70
     2
  0
STYLE
  5
17
100
AcDbSymbolTableRecord
100
AcDbTextStyleTableRecord
  2
Standard
 70
     0
 40
0.0
 41
1.0
 50
0.0
 71
     0
 42
0.0
  3
txt
  4

  0
STYLE
  5
7F5
100
AcDbSymbolTableRecord
100
AcDbTextStyleTableRecord
  2
ZU_SHPTB00001
 70
     0
 40
0.0
 41
1.0
 50
0.0
 71
     0
 42
0.0
  3
monotxt
  4
bigfont
  0
ENDTAB
  0
TABLE
  2
VIEW
  5
5
100
AcDbSymbolTable
 70
     0
  0
ENDTAB
  0
TABLE
  2
UCS
  5
6
100
AcDbSymbolTable
 70
     0
  0
ENDTAB
  0
TABLE
  2
APPID
  5
8
100
AcDbSymbolTable
 70
     1
  0
APPID
  5
16
100
AcDbSymbolTableRecord
100
AcDbRegAppTableRecord
  2
ACAD
 70
     0
  0
ENDTAB
  0
TABLE
  2
DIMSTYLE
  5
9
100
AcDbSymbolTable
 70
     1
100
AcDbDimStyleTable
 71
     0
  0
DIMSTYLE
105
18
100
AcDbSymbolTableRecord
100
AcDbDimStyleTableRecord
  2
Standard
 70
     0
  3

  4

 40
1.0
 41
0.18
 42
0.0625
 43
0.38
 44
0.18
 45
0.0
 46
0.0
 47
0.0
 48
0.0
 71
     0
 72
     0
 73
     1
 74
     1
 75
     0
 76
     0
 77
     0
 78
     0
 79
     0
140
0.18
141
0.09
142
0.0
143
25.4
144
1.0
145
0.0
146
1.0
147
0.09
148
0.0
170
     0
171
     2
172
     0
173
     0
174
     0
175
     0
176
     0
177
     0
178
     0
179
     0
271
     4
272
     4
273
     2
274
     2
275
     0
276
     0
277
     2
278
    46
279
     0
280
     0
281
     0
282
     0
283
     1
284
     0
285
     0
286
     0
288
     0
289
     3
340
17
341
0
342
0
343
0
344
0
371
    -2
372
    -2
  0
ENDTAB
  0
TABLE
  2
BLOCK_RECORD
  5
1
100
AcDbSymbolTable
 70
    21
  0
BLOCK_RECORD
  5
A
100
AcDbSymbolTableRecord
100
AcDbBlockTableRecord
  2
*MODEL_SPACE
340
20
  0
BLOCK_RECORD
  5
B
100
AcDbSymbolTableRecord
100
AcDbBlockTableRecord
  2
*PAPER_SPACE
340
21
  0
BLOCK_RECORD
  5
119
100
AcDbSymbolTableRecord
100
AcDbBlockTableRecord
  2
ZU_SYM_C__ZUOU_AC_BLOCK_BLKF030_00
340
0
102
{BLKREFS
331
120
102
}
  0
BLOCK_RECORD
  5
121
100
AcDbSymbolTableRecord
100
AcDbBlockTableRecord
  2
ZU_SYM_K__CAD_SYM_POO_SYM_B21_20
340
0
102
{BLKREFS
331
131
102
}
  0
BLOCK_RECORD
  5
132
100
AcDbSymbolTableRecord
100
AcDbBlockTableRecord
  2
ZU_SYM_K__CAD_SYM_POO_SYM_B21_0000120
340
0
102
{BLKREFS
331
142
102
}
  0
BLOCK_RECORD
  5
143
100
AcDbSymbolTableRecord
100
AcDbBlockTableRecord
  2
ZU_SYM_K__CAD_SYM_POO_SYM_B21_0000220
340
0
102
{BLKREFS
331
153
102
}
  0
BLOCK_RECORD
  5
154
100
AcDbSymbolTableRecord
100
AcDbBlockTableRecord
  2
ZU_SYM_K__CAD_SYM_POO_SYM_B21_0000320
340
0
102
{BLKREFS
331
164
102
}
  0
BLOCK_RECORD
  5
165
100
AcDbSymbolTableRecord
100
AcDbBlockTableRecord
  2
ZU_SYM_K__CAD_SYM_POO_SYM_B21_0000420
340
0
102
{BLKREFS
331
175
102
}
  0
BLOCK_RECORD
  5
176
100
AcDbSymbolTableRecord
100
AcDbBlockTableRecord
  2
ZU_SYM_K__CAD_SYM_POO_SYM_B21_0000520
340
0
102
{BLKREFS
331
186
102
}
  0
BLOCK_RECORD
  5
187
100
AcDbSymbolTableRecord
100
AcDbBlockTableRecord
  2
ZU_SYM_C__ZUOU_AC_BLOCK_BLKF052_00
340
0
102
{BLKREFS
331
1A5
102
}
  0
BLOCK_RECORD
  5
1A6
100
AcDbSymbolTableRecord
100
AcDbBlockTableRecord
  2
ZU_SYM_C__ZUOU_AC_BLOCK_BLKF052_0000600
340
0
102
{BLKREFS
331
1C4
102
}
  0
BLOCK_RECORD
  5
1C5
100
AcDbSymbolTableRecord
100
AcDbBlockTableRecord
  2
ZU_SYM_C__ZUOU_AC_BLOCK_BLKF071_00
340
0
102
{BLKREFS
331
1D4
102
}
  0
BLOCK_RECORD
  5
1D5
100
AcDbSymbolTableRecord
100
AcDbBlockTableRecord
  2
ZU_SYM_C__ZUOU_AC_BLOCK_BLKF073_00
340
0
102
{BLKREFS
331
1E4
102
}
  0
BLOCK_RECORD
  5
1E5
100
AcDbSymbolTableRecord
100
AcDbBlockTableRecord
  2
ZU_SYM_C__ZUOU_AC_BLOCK_BLKF074_00
340
0
102
{BLKREFS
331
1EE
102
}
  0
BLOCK_RECORD
  5
1EF
100
AcDbSymbolTableRecord
100
AcDbBlockTableRecord
  2
ZU_SYM_C__ZUOU_AC_BLOCK_BLKF064_00
340
0
102
{BLKREFS
331
1FE
102
}
  0
BLOCK_RECORD
  5
1FF
100
AcDbSymbolTableRecord
100
AcDbBlockTableRecord
  2
ZU_SYM_C__ZUOU_AC_BLOCK_BLKF066_00
340
0
102
{BLKREFS
331
20E
102
}
  0
BLOCK_RECORD
  5
4AD
100
AcDbSymbolTableRecord
100
AcDbBlockTableRecord
  2
ZU_SYM__USERS_HOME_SYMBOL_POO_SYM_B21_20
340
0
102
{BLKREFS
331
4BD
102
}
  0
BLOCK_RECORD
  5
4BE
100
AcDbSymbolTableRecord
100
AcDbBlockTableRecord
  2
ZU_SYM__USERS_HOME_SYMBOL_POO_SYM_B21_0000720
340
0
102
{BLKREFS
331
4CE
102
}
  0
BLOCK_RECORD
  5
4FB
100
AcDbSymbolTableRecord
100
AcDbBlockTableRecord
  2
ZU_SYM_C__ZUOU_AC_BLOCK_BLKF103_00
340
0
102
{BLKREFS
331
501
102
}
  0
BLOCK_RECORD
  5
681
100
AcDbSymbolTableRecord
100
AcDbBlockTableRecord
  2
ZU_SYM_K__CAD_SYM_POO_SYM_B21_0000820
340
0
102
{BLKREFS
331
691
102
}
  0
BLOCK_RECORD
  5
6AF
100
AcDbSymbolTableRecord
100
AcDbBlockTableRecord
  2
ZU_SYM_K__CAD_SYM_POO_SYM_B21_0000920
340
0
102
{BLKREFS
331
6BF
102
}
  0
BLOCK_RECORD
  5
6C4
100
AcDbSymbolTableRecord
100
AcDbBlockTableRecord
  2
ZU_SYM_K__CAD_SYM_POO_SYM_B21_0001020
340
0
102
{BLKREFS
331
6D4
102
}
  0
BLOCK_RECORD
  5
6D5
100
AcDbSymbolTableRecord
100
AcDbBlockTableRecord
  2
ZU_SYM_K__CAD_SYM_POO_SYM_B21_0001120
340
0
102
{BLKREFS
331
6E5
102
}
  0
ENDTAB
  0
ENDSEC
  0
SECTION
  2
BLOCKS
  0
BLOCK
  5
D
100
AcDbEntity
  8
0
390
0
100
AcDbBlockBegin
  2
*MODEL_SPACE
 70
     0
 10
0.0
 20
0.0
 30
0.0
  3
*MODEL_SPACE
  1

  0
ENDBLK
  5
E
100
AcDbEntity
  8
0
390
0
100
AcDbBlockEnd
  0
BLOCK
  5
F
100
AcDbEntity
 67
     1
  8
0
390
0
100
AcDbBlockBegin
  2
*PAPER_SPACE
 70
     0
 10
0.0
 20
0.0
 30
0.0
  3
*PAPER_SPACE
  1

  0
ENDBLK
  5
10
100
AcDbEntity
 67
     1
  8
0
390
0
100
AcDbBlockEnd
  0
BLOCK
  5
11A
100
AcDbEntity
  8
0
390
0
100
AcDbBlockBegin
  2
ZU_SYM_C__ZUOU_AC_BLOCK_BLKF030_00
 70
    64
 10
0.0
 20
0.0
 30
0.0
  3
ZU_SYM_C__ZUOU_AC_BLOCK_BLKF030_00
  1

  0
LINE
  5
11B
100
AcDbEntity
  8
0
370
    -3
390
0
  6
Continuous
100
AcDbLine
 10
299.075267
 20
207.337117
 30
0.0
 11
294.075267
 21
209.837118
 31
0.0
  0
LINE
  5
11C
100
AcDbEntity
  8
0
370
    -3
390
0
  6
Continuous
100
AcDbLine
 10
299.075267
 20
202.337115
 30
0.0
 11
299.075267
 21
207.337117
 31
0.0
  0
LINE
  5
11D
100
AcDbEntity
  8
0
370
    -3
390
0
  6
Continuous
100
AcDbLine
 10
289.075267
 20
207.337117
 30
0.0
 11
289.075267
 21
202.337115
 31
0.0
  0
LINE
  5
11E
100
AcDbEntity
  8
0
370
    -3
390
0
  6
Continuous
100
AcDbLine
 10
294.075267
 20
209.837118
 30
0.0
 11
289.075267
 21
207.337117
 31
0.0
  0
ENDBLK
  5
11F
100
AcDbEntity
  8
0
390
0
100
AcDbBlockEnd
  0
BLOCK
  5
122
100
AcDbEntity
  8
0
390
0
100
AcDbBlockBegin
  2
ZU_SYM_K__CAD_SYM_POO_SYM_B21_20
 70
    64
 10
0.0
 20
0.0
 30
0.0
  3
ZU_SYM_K__CAD_SYM_POO_SYM_B21_20
  1

  0
LINE
  5
123
100
AcDbEntity
  8
0
370
    -3
390
0
  6
Continuous
100
AcDbLine
 10
0.000001
 20
0.015238
 30
0.0
 11
-2.999999
 21
-1.076669
 31
0.0
  0
LINE
  5
124
100
AcDbEntity
  8
0
370
    -3
390
0
  6
Continuous
100
AcDbLine
 10
-2.999999
 20
-0.025431
 30
0.0
 11
0.000001
 21
1.066476
 31
0.0
  0
LINE
  5
125
100
AcDbEntity
  8
0
370
    -3
390
0
  6
Continuous
100
AcDbLine
 10
-14.299976
 20
9.0
 30
0.0
 11
-14.299976
 21
-9.0
 31
0.0
  0
LINE
  5
126
100
AcDbEntity
  8
0
370
    -3
390
0
  6
Continuous
100
AcDbLine
 10
-14.299962
 20
-9.000003
 30
0.0
 11
-14.999959
 21
-7.787739
 31
0.0
  0
LINE
  5
127
100
AcDbEntity
  8
0
370
    -3
390
0
  6
Continuous
100
AcDbLine
 10
-14.299981
 20
9.000001
 30
0.0
 11
-14.999978
 21
7.787341
 31
0.0
  0
LINE
  5
128
100
AcDbEntity
  8
0
370
    -3
390
0
  6
Continuous
100
AcDbLine
 10
0.0
 20
-10.75
 30
0.0
 11
-3.0
 21
-10.75
 31
0.0
  0
LINE
  5
129
100
AcDbEntity
  8
0
370
    -3
390
0
  6
Continuous
100
AcDbLine
 10
0.0
 20
10.75
 30
0.0
 11
-3.0
 21
10.75
 31
0.0
  0
LINE
  5
12A
100
AcDbEntity
  8
0
370
    -3
390
0
  6
Continuous
100
AcDbLine
 10
-3.0
 20
9.0
 30
0.0
 11
-14.299976
 21
9.0
 31
0.0
  0
LINE
  5
12B
100
AcDbEntity
  8
0
370
    -3
390
0
  6
Continuous
100
AcDbLine
 10
-3.0
 20
-9.0
 30
0.0
 11
-14.299961
 21
-9.0
 31
0.0
  0
LINE
  5
12C
100
AcDbEntity
  8
0
370
    -3
390
0
  6
Continuous
100
AcDbLine
 10
-14.999958
 20
-7.787735
 30
0.0
 11
-14.999973
 21
7.78734
 31
0.0
  0
LINE
  5
12D
100
AcDbEntity
  8
0
370
    -3
390
0
  6
Continuous
100
AcDbLine
 10
-3.0
 20
-10.75
 30
0.0
 11
-3.0
 21
10.75
 31
0.0
  0
LINE
  5
12E
100
AcDbEntity
  8
0
370
    -3
390
0
  6
Continuous
100
AcDbLine
 10
0.0
 20
10.75
 30
0.0
 11
0.0
 21
-10.75
 31
0.0
  0
POINT
  5
12F
100
AcDbEntity
  8
0
370
    -3
390
0
  6
Continuous
100
AcDbPoint
 10
0.0
 20
0.0
 30
0.0
  0
ENDBLK
  5
130
100
AcDbEntity
  8
0
390
0
100
AcDbBlockEnd
  0
BLOCK
  5
133
100
AcDbEntity
  8
0
390
0
100
AcDbBlockBegin
  2
ZU_SYM_K__CAD_SYM_POO_SYM_B21_0000120
 70
    64
 10
0.0
 20
0.0
 30
0.0
  3
ZU_SYM_K__CAD_SYM_POO_SYM_B21_0000120
  1

  0
LINE
  5
134
100
AcDbEntity
  8
0
370
    -3
390
0
  6
Continuous
100
AcDbLine
 10
0.000001
 20
0.015238
 30
0.0
 11
-2.999999
 21
-1.076669
 31
0.0
  0
LINE
  5
135
100
AcDbEntity
  8
0
370
    -3
390
0
  6
Continuous
100
AcDbLine
 10
-2.999999
 20
-0.025431
 30
0.0
 11
0.000001
 21
1.066476
 31
0.0
  0
LINE
  5
136
100
AcDbEntity
  8
0
370
    -3
390
0
  6
Continuous
100
AcDbLine
 10
-14.299976
 20
9.0
 30
0.0
 11
-14.299976
 21
-9.0
 31
0.0
  0
LINE
  5
137
100
AcDbEntity
  8
0
370
    -3
390
0
  6
Continuous
100
AcDbLine
 10
-14.299962
 20
-9.000003
 30
0.0
 11
-14.999959
 21
-7.787739
 31
0.0
  0
LINE
  5
138
100
AcDbEntity
  8
0
370
    -3
390
0
  6
Continuous
100
AcDbLine
 10
-14.299981
 20
9.000001
 30
0.0
 11
-14.999978
 21
7.787341
 31
0.0
  0
LINE
  5
139
100
AcDbEntity
  8
0
370
    -3
390
0
  6
Continuous
100
AcDbLine
 10
0.0
 20
-10.75
 30
0.0
 11
-3.0
 21
-10.75
 31
0.0
  0
LINE
  5
13A
100
AcDbEntity
  8
0
370
    -3
390
0
  6
Continuous
100
AcDbLine
 10
0.0
 20
10.75
 30
0.0
 11
-3.0
 21
10.75
 31
0.0
  0
LINE
  5
13B
100
AcDbEntity
  8
0
370
    -3
390
0
  6
Continuous
100
AcDbLine
 10
-3.0
 20
9.0
 30
0.0
 11
-14.299976
 21
9.0
 31
0.0
  0
LINE
  5
13C
100
AcDbEntity
  8
0
370
    -3
390
0
  6
Continuous
100
AcDbLine
 10
-3.0
 20
-9.0
 30
0.0
 11
-14.299961
 21
-9.0
 31
0.0
  0
LINE
  5
13D
100
AcDbEntity
  8
0
370
    -3
390
0
  6
Continuous
100
AcDbLine
 10
-14.999958
 20
-7.787735
 30
0.0
 11
-14.999973
 21
7.78734
 31
0.0
  0
LINE
  5
13E
100
AcDbEntity
  8
0
370
    -3
390
0
  6
Continuous
100
AcDbLine
 10
-3.0
 20
-10.75
 30
0.0
 11
-3.0
 21
10.75
 31
0.0
  0
LINE
  5
13F
100
AcDbEntity
  8
0
370
    -3
390
0
  6
Continuous
100
AcDbLine
 10
0.0
 20
10.75
 30
0.0
 11
0.0
 21
-10.75
 31
0.0
  0
POINT
  5
140
100
AcDbEntity
  8
0
370
    -3
390
0
  6
Continuous
100
AcDbPoint
 10
0.0
 20
0.0
 30
0.0
  0
ENDBLK
  5
141
100
AcDbEntity
  8
0
390
0
100
AcDbBlockEnd
  0
BLOCK
  5
144
100
AcDbEntity
  8
0
390
0
100
AcDbBlockBegin
  2
ZU_SYM_K__CAD_SYM_POO_SYM_B21_0000220
 70
    64
 10
0.0
 20
0.0
 30
0.0
  3
ZU_SYM_K__CAD_SYM_POO_SYM_B21_0000220
  1

  0
LINE
  5
145
100
AcDbEntity
  8
0
370
    -3
390
0
  6
Continuous
100
AcDbLine
 10
0.000001
 20
0.015238
 30
0.0
 11
-2.999999
 21
-1.076669
 31
0.0
  0
LINE
  5
146
100
AcDbEntity
  8
0
370
    -3
390
0
  6
Continuous
100
AcDbLine
 10
-2.999999
 20
-0.025431
 30
0.0
 11
0.000001
 21
1.066476
 31
0.0
  0
LINE
  5
147
100
AcDbEntity
  8
0
370
    -3
390
0
  6
Continuous
100
AcDbLine
 10
-14.299976
 20
9.0
 30
0.0
 11
-14.299976
 21
-9.0
 31
0.0
  0
LINE
  5
148
100
AcDbEntity
  8
0
370
    -3
390
0
  6
Continuous
100
AcDbLine
 10
-14.299962
 20
-9.000003
 30
0.0
 11
-14.999959
 21
-7.787739
 31
0.0
  0
LINE
  5
149
100
AcDbEntity
  8
0
370
    -3
390
0
  6
Continuous
100
AcDbLine
 10
-14.299981
 20
9.000001
 30
0.0
 11
-14.999978
 21
7.787341
 31
0.0
  0
LINE
  5
14A
100
AcDbEntity
  8
0
370
    -3
390
0
  6
Continuous
100
AcDbLine
 10
0.0
 20
-10.75
 30
0.0
 11
-3.0
 21
-10.75
 31
0.0
  0
LINE
  5
14B
100
AcDbEntity
  8
0
370
    -3
390
0
  6
Continuous
100
AcDbLine
 10
0.0
 20
10.75
 30
0.0
 11
-3.0
 21
10.75
 31
0.0
  0
LINE
  5
14C
100
AcDbEntity
  8
0
370
    -3
390
0
  6
Continuous
100
AcDbLine
 10
-3.0
 20
9.0
 30
0.0
 11
-14.299976
 21
9.0
 31
0.0
  0
LINE
  5
14D
100
AcDbEntity
  8
0
370
    -3
390
0
  6
Continuous
100
AcDbLine
 10
-3.0
 20
-9.0
 30
0.0
 11
-14.299961
 21
-9.0
 31
0.0
  0
LINE
  5
14E
100
AcDbEntity
  8
0
370
    -3
390
0
  6
Continuous
100
AcDbLine
 10
-14.999958
 20
-7.787735
 30
0.0
 11
-14.999973
 21
7.78734
 31
0.0
  0
LINE
  5
14F
100
AcDbEntity
  8
0
370
    -3
390
0
  6
Continuous
100
AcDbLine
 10
-3.0
 20
-10.75
 30
0.0
 11
-3.0
 21
10.75
 31
0.0
  0
LINE
  5
150
100
AcDbEntity
  8
0
370
    -3
390
0
  6
Continuous
100
AcDbLine
 10
0.0
 20
10.75
 30
0.0
 11
0.0
 21
-10.75
 31
0.0
  0
POINT
  5
151
100
AcDbEntity
  8
0
370
    -3
390
0
  6
Continuous
100
AcDbPoint
 10
0.0
 20
0.0
 30
0.0
  0
ENDBLK
  5
152
100
AcDbEntity
  8
0
390
0
100
AcDbBlockEnd
  0
BLOCK
  5
155
100
AcDbEntity
  8
0
390
0
100
AcDbBlockBegin
  2
ZU_SYM_K__CAD_SYM_POO_SYM_B21_0000320
 70
    64
 10
0.0
 20
0.0
 30
0.0
  3
ZU_SYM_K__CAD_SYM_POO_SYM_B21_0000320
  1

  0
LINE
  5
156
100
AcDbEntity
  8
0
370
    -3
390
0
  6
Continuous
100
AcDbLine
 10
0.000001
 20
0.015238
 30
0.0
 11
-2.999999
 21
-1.076669
 31
0.0
  0
LINE
  5
157
100
AcDbEntity
  8
0
370
    -3
390
0
  6
Continuous
100
AcDbLine
 10
-2.999999
 20
-0.025431
 30
0.0
 11
0.000001
 21
1.066476
 31
0.0
  0
LINE
  5
158
100
AcDbEntity
  8
0
370
    -3
390
0
  6
Continuous
100
AcDbLine
 10
-14.299976
 20
9.0
 30
0.0
 11
-14.299976
 21
-9.0
 31
0.0
  0
LINE
  5
159
100
AcDbEntity
  8
0
370
    -3
390
0
  6
Continuous
100
AcDbLine
 10
-14.299962
 20
-9.000003
 30
0.0
 11
-14.999959
 21
-7.787739
 31
0.0
  0
LINE
  5
15A
100
AcDbEntity
  8
0
370
    -3
390
0
  6
Continuous
100
AcDbLine
 10
-14.299981
 20
9.000001
 30
0.0
 11
-14.999978
 21
7.787341
 31
0.0
  0
LINE
  5
15B
100
AcDbEntity
  8
0
370
    -3
390
0
  6
Continuous
100
AcDbLine
 10
0.0
 20
-10.75
 30
0.0
 11
-3.0
 21
-10.75
 31
0.0
  0
LINE
  5
15C
100
AcDbEntity
  8
0
370
    -3
390
0
  6
Continuous
100
AcDbLine
 10
0.0
 20
10.75
 30
0.0
 11
-3.0
 21
10.75
 31
0.0
  0
LINE
  5
15D
100
AcDbEntity
  8
0
370
    -3
390
0
  6
Continuous
100
AcDbLine
 10
-3.0
 20
9.0
 30
0.0
 11
-14.299976
 21
9.0
 31
0.0
  0
LINE
  5
15E
100
AcDbEntity
  8
0
370
    -3
390
0
  6
Continuous
100
AcDbLine
 10
-3.0
 20
-9.0
 30
0.0
 11
-14.299961
 21
-9.0
 31
0.0
  0
LINE
  5
15F
100
AcDbEntity
  8
0
370
    -3
390
0
  6
Continuous
100
AcDbLine
 10
-14.999958
 20
-7.787735
 30
0.0
 11
-14.999973
 21
7.78734
 31
0.0
  0
LINE
  5
160
100
AcDbEntity
  8
0
370
    -3
390
0
  6
Continuous
100
AcDbLine
 10
-3.0
 20
-10.75
 30
0.0
 11
-3.0
 21
10.75
 31
0.0
  0
LINE
  5
161
100
AcDbEntity
  8
0
370
    -3
390
0
  6
Continuous
100
AcDbLine
 10
0.0
 20
10.75
 30
0.0
 11
0.0
 21
-10.75
 31
0.0
  0
POINT
  5
162
100
AcDbEntity
  8
0
370
    -3
390
0
  6
Continuous
100
AcDbPoint
 10
0.0
 20
0.0
 30
0.0
  0
ENDBLK
  5
163
100
AcDbEntity
  8
0
390
0
100
AcDbBlockEnd
  0
BLOCK
  5
166
100
AcDbEntity
  8
0
390
0
100
AcDbBlockBegin
  2
ZU_SYM_K__CAD_SYM_POO_SYM_B21_0000420
 70
    64
 10
0.0
 20
0.0
 30
0.0
  3
ZU_SYM_K__CAD_SYM_POO_SYM_B21_0000420
  1

  0
POINT
  5
167
100
AcDbEntity
  8
0
370
    -3
390
0
  6
Continuous
100
AcDbPoint
 10
0.0
 20
0.0
 30
0.0
  0
LINE
  5
168
100
AcDbEntity
  8
0
370
    -3
390
0
  6
Continuous
100
AcDbLine
 10
0.0
 20
10.75
 30
0.0
 11
0.0
 21
-10.75
 31
0.0
  0
LINE
  5
169
100
AcDbEntity
  8
0
370
    -3
390
0
  6
Continuous
100
AcDbLine
 10
-3.0
 20
-10.75
 30
0.0
 11
-3.0
 21
10.75
 31
0.0
  0
LINE
  5
16A
100
AcDbEntity
  8
0
370
    -3
390
0
  6
Continuous
100
AcDbLine
 10
-14.999958
 20
-7.787735
 30
0.0
 11
-14.999973
 21
7.78734
 31
0.0
  0
LINE
  5
16B
100
AcDbEntity
  8
0
370
    -3
390
0
  6
Continuous
100
AcDbLine
 10
-3.0
 20
-9.0
 30
0.0
 11
-14.299961
 21
-9.0
 31
0.0
  0
LINE
  5
16C
100
AcDbEntity
  8
0
370
    -3
390
0
  6
Continuous
100
AcDbLine
 10
-3.0
 20
9.0
 30
0.0
 11
-14.299976
 21
9.0
 31
0.0
  0
LINE
  5
16D
100
AcDbEntity
  8
0
370
    -3
390
0
  6
Continuous
100
AcDbLine
 10
0.0
 20
10.75
 30
0.0
 11
-3.0
 21
10.75
 31
0.0
  0
LINE
  5
16E
100
AcDbEntity
  8
0
370
    -3
390
0
  6
Continuous
100
AcDbLine
 10
0.0
 20
-10.75
 30
0.0
 11
-3.0
 21
-10.75
 31
0.0
  0
LINE
  5
16F
100
AcDbEntity
  8
0
370
    -3
390
0
  6
Continuous
100
AcDbLine
 10
-14.299981
 20
9.000001
 30
0.0
 11
-14.999978
 21
7.787341
 31
0.0
  0
LINE
  5
170
100
AcDbEntity
  8
0
370
    -3
390
0
  6
Continuous
100
AcDbLine
 10
-14.299962
 20
-9.000003
 30
0.0
 11
-14.999959
 21
-7.787739
 31
0.0
  0
LINE
  5
171
100
AcDbEntity
  8
0
370
    -3
390
0
  6
Continuous
100
AcDbLine
 10
-14.299976
 20
9.0
 30
0.0
 11
-14.299976
 21
-9.0
 31
0.0
  0
LINE
  5
172
100
AcDbEntity
  8
0
370
    -3
390
0
  6
Continuous
100
AcDbLine
 10
-2.999999
 20
-0.025431
 30
0.0
 11
0.000001
 21
1.066476
 31
0.0
  0
LINE
  5
173
100
AcDbEntity
  8
0
370
    -3
390
0
  6
Continuous
100
AcDbLine
 10
0.000001
 20
0.015238
 30
0.0
 11
-2.999999
 21
-1.076669
 31
0.0
  0
ENDBLK
  5
174
100
AcDbEntity
  8
0
390
0
100
AcDbBlockEnd
  0
BLOCK
  5
177
100
AcDbEntity
  8
0
390
0
100
AcDbBlockBegin
  2
ZU_SYM_K__CAD_SYM_POO_SYM_B21_0000520
 70
    64
 10
0.0
 20
0.0
 30
0.0
  3
ZU_SYM_K__CAD_SYM_POO_SYM_B21_0000520
  1

  0
POINT
  5
178
100
AcDbEntity
  8
0
370
    -3
390
0
  6
Continuous
100
AcDbPoint
 10
0.0
 20
0.0
 30
0.0
  0
LINE
  5
179
100
AcDbEntity
  8
0
370
    -3
390
0
  6
Continuous
100
AcDbLine
 10
0.0
 20
10.75
 30
0.0
 11
0.0
 21
-10.75
 31
0.0
  0
LINE
  5
17A
100
AcDbEntity
  8
0
370
    -3
390
0
  6
Continuous
100
AcDbLine
 10
-3.0
 20
-10.75
 30
0.0
 11
-3.0
 21
10.75
 31
0.0
  0
LINE
  5
17B
100
AcDbEntity
  8
0
370
    -3
390
0
  6
Continuous
100
AcDbLine
 10
-14.999958
 20
-7.787735
 30
0.0
 11
-14.999973
 21
7.78734
 31
0.0
  0
LINE
  5
17C
100
AcDbEntity
  8
0
370
    -3
390
0
  6
Continuous
100
AcDbLine
 10
-3.0
 20
-9.0
 30
0.0
 11
-14.299961
 21
-9.0
 31
0.0
  0
LINE
  5
17D
100
AcDbEntity
  8
0
370
    -3
390
0
  6
Continuous
100
AcDbLine
 10
-3.0
 20
9.0
 30
0.0
 11
-14.299976
 21
9.0
 31
0.0
  0
LINE
  5
17E
100
AcDbEntity
  8
0
370
    -3
390
0
  6
Continuous
100
AcDbLine
 10
0.0
 20
10.75
 30
0.0
 11
-3.0
 21
10.75
 31
0.0
  0
LINE
  5
17F
100
AcDbEntity
  8
0
370
    -3
390
0
  6
Continuous
100
AcDbLine
 10
0.0
 20
-10.75
 30
0.0
 11
-3.0
 21
-10.75
 31
0.0
  0
LINE
  5
180
100
AcDbEntity
  8
0
370
    -3
390
0
  6
Continuous
100
AcDbLine
 10
-14.299981
 20
9.000001
 30
0.0
 11
-14.999978
 21
7.787341
 31
0.0
  0
LINE
  5
181
100
AcDbEntity
  8
0
370
    -3
390
0
  6
Continuous
100
AcDbLine
 10
-14.299962
 20
-9.000003
 30
0.0
 11
-14.999959
 21
-7.787739
 31
0.0
  0
LINE
  5
182
100
AcDbEntity
  8
0
370
    -3
390
0
  6
Continuous
100
AcDbLine
 10
-14.299976
 20
9.0
 30
0.0
 11
-14.299976
 21
-9.0
 31
0.0
  0
LINE
  5
183
100
AcDbEntity
  8
0
370
    -3
390
0
  6
Continuous
100
AcDbLine
 10
-2.999999
 20
-0.025431
 30
0.0
 11
0.000001
 21
1.066476
 31
0.0
  0
LINE
  5
184
100
AcDbEntity
  8
0
370
    -3
390
0
  6
Continuous
100
AcDbLine
 10
0.000001
 20
0.015238
 30
0.0
 11
-2.999999
 21
-1.076669
 31
0.0
  0
ENDBLK
  5
185
100
AcDbEntity
  8
0
390
0
100
AcDbBlockEnd
  0
BLOCK
  5
188
100
AcDbEntity
  8
0
390
0
100
AcDbBlockBegin
  2
ZU_SYM_C__ZUOU_AC_BLOCK_BLKF052_00
 70
    64
 10
0.0
 20
0.0
 30
0.0
  3
ZU_SYM_C__ZUOU_AC_BLOCK_BLKF052_00
  1

  0
LINE
  5
189
100
AcDbEntity
  8
0
370
    -3
390
0
  6
Continuous
100
AcDbLine
 10
573.482697
 20
1006.849427
 30
0.0
 11
573.482697
 21
995.542955
 31
0.0
  0
LINE
  5
18A
100
AcDbEntity
  8
0
370
    -3
390
0
  6
Continuous
100
AcDbLine
 10
575.081522
 20
995.064887
 30
0.0
 11
600.883872
 21
995.064887
 31
0.0
  0
LINE
  5
18B
100
AcDbEntity
  8
0
370
    -3
390
0
  6
Continuous
100
AcDbLine
 10
575.982697
 20
978.306456
 30
0.0
 11
599.982697
 21
978.306456
 31
0.0
  0
LINE
  5
18C
100
AcDbEntity
  8
0
370
    -3
390
0
  6
Continuous
100
AcDbLine
 10
575.982697
 20
975.54874
 30
0.0
 11
599.982697
 21
975.54874
 31
0.0
  0
LINE
  5
18D
100
AcDbEntity
  8
0
370
    -3
390
0
  6
Continuous
100
AcDbLine
 10
576.482697
 20
974.134526
 30
0.0
 11
599.482697
 21
974.134526
 31
0.0
  0
LINE
  5
18E
100
AcDbEntity
  8
0
370
    -3
390
0
  6
Continuous
100
AcDbLine
 10
575.59117
 20
1009.207023
 30
0.0
 11
600.673669
 21
1009.207023
 31
0.0
  0
LINE
  5
18F
100
AcDbEntity
  8
0
370
    -3
390
0
  6
Continuous
100
AcDbLine
 10
575.926231
 20
990.602909
 30
0.0
 11
573.595629
 21
995.081316
 31
0.0
  0
LINE
  5
190
100
AcDbEntity
  8
0
370
    -3
390
0
  6
Continuous
100
AcDbLine
 10
574.816573
 20
1008.839478
 30
0.0
 11
573.7081
 21
1007.481882
 31
0.0
  0
LINE
  5
191
100
AcDbEntity
  8
0
370
    -3
390
0
  6
Continuous
100
AcDbLine
 10
574.956036
 20
995.261625
 30
0.0
 11
573.7081
 21
996.790027
 31
0.0
  0
LINE
  5
192
100
AcDbEntity
  8
0
370
    -3
390
0
  6
Continuous
100
AcDbLine
 10
575.163957
 20
994.815339
 30
0.0
 11
575.973956
 21
990.540538
 31
0.0
  0
LINE
  5
193
100
AcDbEntity
  8
0
370
    -3
390
0
  6
Continuous
100
AcDbLine
 10
575.982697
 20
990.447453
 30
0.0
 11
575.982697
 21
974.634526
 31
0.0
  0
ARC
  5
194
100
AcDbEntity
  8
0
370
    -3
390
0
  6
Continuous
100
AcDbCircle
 10
576.482697
 20
974.634526
 30
0.0
 40
0.5
100
AcDbArc
 50
180.0
 51
270.0
  0
ARC
  5
195
100
AcDbEntity
  8
0
370
    -3
390
0
  6
Continuous
100
AcDbCircle
 10
574.482697
 20
1006.849427
 30
0.0
 40
1.0
100
AcDbArc
 50
140.76848
 51
180.0
  0
ARC
  5
196
100
AcDbEntity
  8
0
370
    -3
390
0
  6
Continuous
100
AcDbCircle
 10
574.482697
 20
997.422483
 30
0.0
 40
1.0
100
AcDbArc
 50
180.0
 51
219.23152
  0
ARC
  5
197
100
AcDbEntity
  8
0
370
    -3
390
0
  6
Continuous
100
AcDbCircle
 10
575.59117
 20
1008.207023
 30
0.0
 40
1.0
100
AcDbArc
 50
90.0
 51
140.76848
  0
ARC
  5
198
100
AcDbEntity
  8
0
370
    -3
390
0
  6
Continuous
100
AcDbCircle
 10
574.181439
 20
994.62917
 30
0.0
 40
1.0
100
AcDbArc
 50
10.729337
 51
39.23152
  0
ARC
  5
199
100
AcDbEntity
  8
0
370
    -3
390
0
  6
Continuous
100
AcDbCircle
 10
574.482697
 20
995.542955
 30
0.0
 40
1.0
100
AcDbArc
 50
180.0
 51
207.492863
  0
ARC
  5
19A
100
AcDbEntity
  8
0
370
    -3
390
0
  6
Continuous
100
AcDbCircle
 10
575.482697
 20
990.37209
 30
0.0
 40
0.5
100
AcDbArc
 50
0.0
 51
27.492863
  0
ARC
  5
19B
100
AcDbEntity
  8
0
370
    -3
390
0
  6
Continuous
100
AcDbCircle
 10
575.482697
 20
990.447453
 30
0.0
 40
0.5
100
AcDbArc
 50
0.0
 51
10.729337
  0
LINE
  5
19C
100
AcDbEntity
  8
0
370
    -3
390
0
  6
Continuous
100
AcDbLine
 10
600.039163
 20
990.602909
 30
0.0
 11
600.982697
 21
992.415972
 31
0.0
  0
LINE
  5
19D
100
AcDbEntity
  8
0
370
    -3
390
0
  6
Continuous
100
AcDbLine
 10
600.801438
 20
994.815339
 30
0.0
 11
599.991438
 21
990.540538
 31
0.0
  0
LINE
  5
19E
100
AcDbEntity
  8
0
370
    -3
390
0
  6
Continuous
100
AcDbLine
 10
599.982697
 20
990.447453
 30
0.0
 11
599.982697
 21
974.634526
 31
0.0
  0
ARC
  5
19F
100
AcDbEntity
  8
0
370
    -3
390
0
  6
Continuous
100
AcDbCircle
 10
599.482697
 20
974.634526
 30
0.0
 40
0.5
100
AcDbArc
 50
270.0
 51
0.0
  0
ARC
  5
1A0
100
AcDbEntity
  8
0
370
    -3
390
0
  6
Continuous
100
AcDbCircle
 10
600.374225
 20
1008.207023
 30
0.0
 40
1.0
100
AcDbArc
 50
52.520866
 51
90.0
  0
ARC
  5
1A1
100
AcDbEntity
  8
0
370
    -3
390
0
  6
Continuous
100
AcDbCircle
 10
601.783955
 20
994.62917
 30
0.0
 40
1.0
100
AcDbArc
 50
143.250415
 51
169.270663
  0
ARC
  5
1A2
100
AcDbEntity
  8
0
370
    -3
390
0
  6
Continuous
100
AcDbCircle
 10
600.482697
 20
990.37209
 30
0.0
 40
0.5
100
AcDbArc
 50
152.507137
 51
180.0
  0
ARC
  5
1A3
100
AcDbEntity
  8
0
370
    -3
390
0
  6
Continuous
100
AcDbCircle
 10
600.482697
 20
990.447453
 30
0.0
 40
0.5
100
AcDbArc
 50
169.270663
 51
180.0
  0
ENDBLK
  5
1A4
100
AcDbEntity
  8
0
390
0
100
AcDbBlockEnd
  0
BLOCK
  5
1A7
100
AcDbEntity
  8
0
390
0
100
AcDbBlockBegin
  2
ZU_SYM_C__ZUOU_AC_BLOCK_BLKF052_0000600
 70
    64
 10
0.0
 20
0.0
 30
0.0
  3
ZU_SYM_C__ZUOU_AC_BLOCK_BLKF052_0000600
  1

  0
LINE
  5
1A8
100
AcDbEntity
  8
0
370
    -3
390
0
  6
Continuous
100
AcDbLine
 10
573.482697
 20
1006.849427
 30
0.0
 11
573.482697
 21
995.542955
 31
0.0
  0
LINE
  5
1A9
100
AcDbEntity
  8
0
370
    -3
390
0
  6
Continuous
100
AcDbLine
 10
575.081522
 20
995.064887
 30
0.0
 11
600.883872
 21
995.064887
 31
0.0
  0
LINE
  5
1AA
100
AcDbEntity
  8
0
370
    -3
390
0
  6
Continuous
100
AcDbLine
 10
575.982697
 20
978.306456
 30
0.0
 11
599.982697
 21
978.306456
 31
0.0
  0
LINE
  5
1AB
100
AcDbEntity
  8
0
370
    -3
390
0
  6
Continuous
100
AcDbLine
 10
575.982697
 20
975.54874
 30
0.0
 11
599.982697
 21
975.54874
 31
0.0
  0
LINE
  5
1AC
100
AcDbEntity
  8
0
370
    -3
390
0
  6
Continuous
100
AcDbLine
 10
576.482697
 20
974.134526
 30
0.0
 11
599.482697
 21
974.134526
 31
0.0
  0
LINE
  5
1AD
100
AcDbEntity
  8
0
370
    -3
390
0
  6
Continuous
100
AcDbLine
 10
575.59117
 20
1009.207023
 30
0.0
 11
600.673669
 21
1009.207023
 31
0.0
  0
LINE
  5
1AE
100
AcDbEntity
  8
0
370
    -3
390
0
  6
Continuous
100
AcDbLine
 10
575.926231
 20
990.602909
 30
0.0
 11
573.595629
 21
995.081316
 31
0.0
  0
LINE
  5
1AF
100
AcDbEntity
  8
0
370
    -3
390
0
  6
Continuous
100
AcDbLine
 10
574.816573
 20
1008.839478
 30
0.0
 11
573.7081
 21
1007.481882
 31
0.0
  0
LINE
  5
1B0
100
AcDbEntity
  8
0
370
    -3
390
0
  6
Continuous
100
AcDbLine
 10
574.956036
 20
995.261625
 30
0.0
 11
573.7081
 21
996.790027
 31
0.0
  0
LINE
  5
1B1
100
AcDbEntity
  8
0
370
    -3
390
0
  6
Continuous
100
AcDbLine
 10
575.163957
 20
994.815339
 30
0.0
 11
575.973956
 21
990.540538
 31
0.0
  0
LINE
  5
1B2
100
AcDbEntity
  8
0
370
    -3
390
0
  6
Continuous
100
AcDbLine
 10
575.982697
 20
990.447453
 30
0.0
 11
575.982697
 21
974.634526
 31
0.0
  0
ARC
  5
1B3
100
AcDbEntity
  8
0
370
    -3
390
0
  6
Continuous
100
AcDbCircle
 10
576.482697
 20
974.634526
 30
0.0
 40
0.5
100
AcDbArc
 50
180.0
 51
270.0
  0
ARC
  5
1B4
100
AcDbEntity
  8
0
370
    -3
390
0
  6
Continuous
100
AcDbCircle
 10
574.482697
 20
1006.849427
 30
0.0
 40
1.0
100
AcDbArc
 50
140.76848
 51
180.0
  0
ARC
  5
1B5
100
AcDbEntity
  8
0
370
    -3
390
0
  6
Continuous
100
AcDbCircle
 10
574.482697
 20
997.422483
 30
0.0
 40
1.0
100
AcDbArc
 50
180.0
 51
219.23152
  0
ARC
  5
1B6
100
AcDbEntity
  8
0
370
    -3
390
0
  6
Continuous
100
AcDbCircle
 10
575.59117
 20
1008.207023
 30
0.0
 40
1.0
100
AcDbArc
 50
90.0
 51
140.76848
  0
ARC
  5
1B7
100
AcDbEntity
  8
0
370
    -3
390
0
  6
Continuous
100
AcDbCircle
 10
574.181439
 20
994.62917
 30
0.0
 40
1.0
100
AcDbArc
 50
10.729337
 51
39.23152
  0
ARC
  5
1B8
100
AcDbEntity
  8
0
370
    -3
390
0
  6
Continuous
100
AcDbCircle
 10
574.482697
 20
995.542955
 30
0.0
 40
1.0
100
AcDbArc
 50
180.0
 51
207.492863
  0
ARC
  5
1B9
100
AcDbEntity
  8
0
370
    -3
390
0
  6
Continuous
100
AcDbCircle
 10
575.482697
 20
990.37209
 30
0.0
 40
0.5
100
AcDbArc
 50
0.0
 51
27.492863
  0
ARC
  5
1BA
100
AcDbEntity
  8
0
370
    -3
390
0
  6
Continuous
100
AcDbCircle
 10
575.482697
 20
990.447453
 30
0.0
 40
0.5
100
AcDbArc
 50
0.0
 51
10.729337
  0
LINE
  5
1BB
100
AcDbEntity
  8
0
370
    -3
390
0
  6
Continuous
100
AcDbLine
 10
600.039163
 20
990.602909
 30
0.0
 11
600.982697
 21
992.415972
 31
0.0
  0
LINE
  5
1BC
100
AcDbEntity
  8
0
370
    -3
390
0
  6
Continuous
100
AcDbLine
 10
600.801438
 20
994.815339
 30
0.0
 11
599.991438
 21
990.540538
 31
0.0
  0
LINE
  5
1BD
100
AcDbEntity
  8
0
370
    -3
390
0
  6
Continuous
100
AcDbLine
 10
599.982697
 20
990.447453
 30
0.0
 11
599.982697
 21
974.634526
 31
0.0
  0
ARC
  5
1BE
100
AcDbEntity
  8
0
370
    -3
390
0
  6
Continuous
100
AcDbCircle
 10
599.482697
 20
974.634526
 30
0.0
 40
0.5
100
AcDbArc
 50
270.0
 51
0.0
  0
ARC
  5
1BF
100
AcDbEntity
  8
0
370
    -3
390
0
  6
Continuous
100
AcDbCircle
 10
600.374225
 20
1008.207023
 30
0.0
 40
1.0
100
AcDbArc
 50
52.520866
 51
90.0
  0
ARC
  5
1C0
100
AcDbEntity
  8
0
370
    -3
390
0
  6
Continuous
100
AcDbCircle
 10
601.783955
 20
994.62917
 30
0.0
 40
1.0
100
AcDbArc
 50
143.250415
 51
169.270663
  0
ARC
  5
1C1
100
AcDbEntity
  8
0
370
    -3
390
0
  6
Continuous
100
AcDbCircle
 10
600.482697
 20
990.37209
 30
0.0
 40
0.5
100
AcDbArc
 50
152.507137
 51
180.0
  0
ARC
  5
1C2
100
AcDbEntity
  8
0
370
    -3
390
0
  6
Continuous
100
AcDbCircle
 10
600.482697
 20
990.447453
 30
0.0
 40
0.5
100
AcDbArc
 50
169.270663
 51
180.0
  0
ENDBLK
  5
1C3
100
AcDbEntity
  8
0
390
0
100
AcDbBlockEnd
  0
BLOCK
  5
1C6
100
AcDbEntity
  8
0
390
0
100
AcDbBlockBegin
  2
ZU_SYM_C__ZUOU_AC_BLOCK_BLKF071_00
 70
    64
 10
0.0
 20
0.0
 30
0.0
  3
ZU_SYM_C__ZUOU_AC_BLOCK_BLKF071_00
  1

  0
LINE
  5
1C7
100
AcDbEntity
  8
0
370
    -3
390
0
  6
Continuous
100
AcDbLine
 10
400.164618
 20
773.918624
 30
0.0
 11
400.164618
 21
776.02853
 31
0.0
  0
LINE
  5
1C8
100
AcDbEntity
  8
0
370
    -3
390
0
  6
Continuous
100
AcDbLine
 10
368.164618
 20
795.953496
 30
0.0
 11
380.550394
 21
795.953496
 31
0.0
  0
LINE
  5
1C9
100
AcDbEntity
  8
0
370
    -3
390
0
  6
Continuous
100
AcDbLine
 10
368.164618
 20
787.828457
 30
0.0
 11
368.164618
 21
795.953496
 31
0.0
  0
LINE
  5
1CA
100
AcDbEntity
  8
0
370
    -3
390
0
  6
Continuous
100
AcDbLine
 10
368.164618
 20
789.938364
 30
0.0
 11
400.164618
 21
776.02853
 31
0.0
  0
LINE
  5
1CB
100
AcDbEntity
  8
0
370
    -3
390
0
  6
Continuous
100
AcDbLine
 10
400.164618
 20
773.918624
 30
0.0
 11
368.164618
 21
787.828457
 31
0.0
  0
LINE
  5
1CC
100
AcDbEntity
  8
0
370
    -3
390
0
  6
Continuous
100
AcDbLine
 10
536.164618
 20
776.02853
 30
0.0
 11
400.164618
 21
776.02853
 31
0.0
  0
LINE
  5
1CD
100
AcDbEntity
  8
0
370
    -3
390
0
  6
Continuous
100
AcDbLine
 10
536.164618
 20
773.918624
 30
0.0
 11
400.164618
 21
773.918624
 31
0.0
  0
LINE
  5
1CE
100
AcDbEntity
  8
0
370
    -3
390
0
  6
Continuous
100
AcDbLine
 10
536.164618
 20
773.918624
 30
0.0
 11
536.164618
 21
776.02853
 31
0.0
  0
LINE
  5
1CF
100
AcDbEntity
  8
0
370
    -3
390
0
  6
Continuous
100
AcDbLine
 10
568.164618
 20
795.953496
 30
0.0
 11
555.778841
 21
795.953496
 31
0.0
  0
LINE
  5
1D0
100
AcDbEntity
  8
0
370
    -3
390
0
  6
Continuous
100
AcDbLine
 10
568.164618
 20
787.828457
 30
0.0
 11
568.164618
 21
795.953496
 31
0.0
  0
LINE
  5
1D1
100
AcDbEntity
  8
0
370
    -3
390
0
  6
Continuous
100
AcDbLine
 10
568.164618
 20
789.938364
 30
0.0
 11
536.164618
 21
776.02853
 31
0.0
  0
LINE
  5
1D2
100
AcDbEntity
  8
0
370
    -3
390
0
  6
Continuous
100
AcDbLine
 10
536.164618
 20
773.918624
 30
0.0
 11
568.164618
 21
787.828457
 31
0.0
  0
ENDBLK
  5
1D3
100
AcDbEntity
  8
0
390
0
100
AcDbBlockEnd
  0
BLOCK
  5
1D6
100
AcDbEntity
  8
0
390
0
100
AcDbBlockBegin
  2
ZU_SYM_C__ZUOU_AC_BLOCK_BLKF073_00
 70
    64
 10
0.0
 20
0.0
 30
0.0
  3
ZU_SYM_C__ZUOU_AC_BLOCK_BLKF073_00
  1

  0
LINE
  5
1D7
100
AcDbEntity
  8
0
370
    -3
390
0
  6
Continuous
100
AcDbLine
 10
400.164618
 20
761.424167
 30
0.0
 11
400.164618
 21
763.201991
 31
0.0
  0
LINE
  5
1D8
100
AcDbEntity
  8
0
370
    -3
390
0
  6
Continuous
100
AcDbLine
 10
368.164618
 20
785.237275
 30
0.0
 11
374.125712
 21
785.237275
 31
0.0
  0
LINE
  5
1D9
100
AcDbEntity
  8
0
370
    -3
390
0
  6
Continuous
100
AcDbLine
 10
368.164618
 20
776.807236
 30
0.0
 11
368.164618
 21
785.237275
 31
0.0
  0
LINE
  5
1DA
100
AcDbEntity
  8
0
370
    -3
390
0
  6
Continuous
100
AcDbLine
 10
368.164618
 20
778.585061
 30
0.0
 11
400.164618
 21
763.201991
 31
0.0
  0
LINE
  5
1DB
100
AcDbEntity
  8
0
370
    -3
390
0
  6
Continuous
100
AcDbLine
 10
400.164618
 20
761.424167
 30
0.0
 11
368.164618
 21
776.807236
 31
0.0
  0
LINE
  5
1DC
100
AcDbEntity
  8
0
370
    -3
390
0
  6
Continuous
100
AcDbLine
 10
536.164618
 20
761.424167
 30
0.0
 11
400.164618
 21
761.424167
 31
0.0
  0
LINE
  5
1DD
100
AcDbEntity
  8
0
370
    -3
390
0
  6
Continuous
100
AcDbLine
 10
536.164618
 20
763.201991
 30
0.0
 11
400.164618
 21
763.201991
 31
0.0
  0
LINE
  5
1DE
100
AcDbEntity
  8
0
370
    -3
390
0
  6
Continuous
100
AcDbLine
 10
536.164618
 20
761.424167
 30
0.0
 11
536.164618
 21
763.201991
 31
0.0
  0
LINE
  5
1DF
100
AcDbEntity
  8
0
370
    -3
390
0
  6
Continuous
100
AcDbLine
 10
568.164618
 20
785.237275
 30
0.0
 11
562.203523
 21
785.237275
 31
0.0
  0
LINE
  5
1E0
100
AcDbEntity
  8
0
370
    -3
390
0
  6
Continuous
100
AcDbLine
 10
568.164618
 20
776.807236
 30
0.0
 11
568.164618
 21
785.237275
 31
0.0
  0
LINE
  5
1E1
100
AcDbEntity
  8
0
370
    -3
390
0
  6
Continuous
100
AcDbLine
 10
568.164618
 20
778.585061
 30
0.0
 11
536.164618
 21
763.201991
 31
0.0
  0
LINE
  5
1E2
100
AcDbEntity
  8
0
370
    -3
390
0
  6
Continuous
100
AcDbLine
 10
536.164618
 20
761.424167
 30
0.0
 11
568.164618
 21
776.807236
 31
0.0
  0
ENDBLK
  5
1E3
100
AcDbEntity
  8
0
390
0
100
AcDbBlockEnd
  0
BLOCK
  5
1E6
100
AcDbEntity
  8
0
390
0
100
AcDbBlockBegin
  2
ZU_SYM_C__ZUOU_AC_BLOCK_BLKF074_00
 70
    64
 10
0.0
 20
0.0
 30
0.0
  3
ZU_SYM_C__ZUOU_AC_BLOCK_BLKF074_00
  1

  0
LINE
  5
1E7
100
AcDbEntity
  8
0
370
    -3
390
0
  6
Continuous
100
AcDbLine
 10
617.164618
 20
742.510054
 30
0.0
 11
614.164618
 21
739.510054
 31
0.0
  0
LINE
  5
1E8
100
AcDbEntity
  8
0
370
    -3
390
0
  6
Continuous
100
AcDbLine
 10
404.68335
 20
747.228638
 30
0.0
 11
447.274927
 21
747.228638
 31
0.0
  0
LINE
  5
1E9
100
AcDbEntity
  8
0
370
    -3
390
0
  6
Continuous
100
AcDbLine
 10
609.675362
 20
739.510054
 30
0.0
 11
614.164618
 21
739.510054
 31
0.0
  0
LINE
  5
1EA
100
AcDbEntity
  8
0
370
    -3
390
0
  6
Continuous
100
AcDbLine
 10
617.164618
 20
742.510054
 30
0.0
 11
617.164618
 21
743.830756
 31
0.0
  0
LINE
  5
1EB
100
AcDbEntity
  8
0
370
    -3
390
0
  6
Continuous
100
AcDbLine
 10
412.33943
 20
739.510054
 30
0.0
 11
460.653873
 21
739.510054
 31
0.0
  0
LINE
  5
1EC
100
AcDbEntity
  8
0
370
    -3
390
0
  6
Continuous
100
AcDbLine
 10
381.164618
 20
762.010054
 30
0.0
 11
381.164618
 21
755.021242
 31
0.0
  0
ENDBLK
  5
1ED
100
AcDbEntity
  8
0
390
0
100
AcDbBlockEnd
  0
BLOCK
  5
1F0
100
AcDbEntity
  8
0
390
0
100
AcDbBlockBegin
  2
ZU_SYM_C__ZUOU_AC_BLOCK_BLKF064_00
 70
    64
 10
0.0
 20
0.0
 30
0.0
  3
ZU_SYM_C__ZUOU_AC_BLOCK_BLKF064_00
  1

  0
LINE
  5
1F1
100
AcDbEntity
  8
0
370
    -3
390
0
  6
Continuous
100
AcDbLine
 10
400.164618
 20
1015.101484
 30
0.0
 11
400.164618
 21
1012.991577
 31
0.0
  0
LINE
  5
1F2
100
AcDbEntity
  8
0
370
    -3
390
0
  6
Continuous
100
AcDbLine
 10
368.164618
 20
993.066611
 30
0.0
 11
380.550394
 21
993.066611
 31
0.0
  0
LINE
  5
1F3
100
AcDbEntity
  8
0
370
    -3
390
0
  6
Continuous
100
AcDbLine
 10
368.164618
 20
1001.19165
 30
0.0
 11
368.164618
 21
993.066611
 31
0.0
  0
LINE
  5
1F4
100
AcDbEntity
  8
0
370
    -3
390
0
  6
Continuous
100
AcDbLine
 10
368.164618
 20
999.081743
 30
0.0
 11
400.164618
 21
1012.991577
 31
0.0
  0
LINE
  5
1F5
100
AcDbEntity
  8
0
370
    -3
390
0
  6
Continuous
100
AcDbLine
 10
400.164618
 20
1015.101484
 30
0.0
 11
368.164618
 21
1001.19165
 31
0.0
  0
LINE
  5
1F6
100
AcDbEntity
  8
0
370
    -3
390
0
  6
Continuous
100
AcDbLine
 10
536.164618
 20
1012.991577
 30
0.0
 11
400.164618
 21
1012.991577
 31
0.0
  0
LINE
  5
1F7
100
AcDbEntity
  8
0
370
    -3
390
0
  6
Continuous
100
AcDbLine
 10
536.164618
 20
1015.101484
 30
0.0
 11
400.164618
 21
1015.101484
 31
0.0
  0
LINE
  5
1F8
100
AcDbEntity
  8
0
370
    -3
390
0
  6
Continuous
100
AcDbLine
 10
536.164618
 20
1015.101484
 30
0.0
 11
536.164618
 21
1012.991577
 31
0.0
  0
LINE
  5
1F9
100
AcDbEntity
  8
0
370
    -3
390
0
  6
Continuous
100
AcDbLine
 10
568.164618
 20
993.066611
 30
0.0
 11
555.778841
 21
993.066611
 31
0.0
  0
LINE
  5
1FA
100
AcDbEntity
  8
0
370
    -3
390
0
  6
Continuous
100
AcDbLine
 10
568.164618
 20
1001.19165
 30
0.0
 11
568.164618
 21
993.066611
 31
0.0
  0
LINE
  5
1FB
100
AcDbEntity
  8
0
370
    -3
390
0
  6
Continuous
100
AcDbLine
 10
568.164618
 20
999.081743
 30
0.0
 11
536.164618
 21
1012.991577
 31
0.0
  0
LINE
  5
1FC
100
AcDbEntity
  8
0
370
    -3
390
0
  6
Continuous
100
AcDbLine
 10
536.164618
 20
1015.101484
 30
0.0
 11
568.164618
 21
1001.19165
 31
0.0
  0
ENDBLK
  5
1FD
100
AcDbEntity
  8
0
390
0
100
AcDbBlockEnd
  0
BLOCK
  5
200
100
AcDbEntity
  8
0
390
0
100
AcDbBlockBegin
  2
ZU_SYM_C__ZUOU_AC_BLOCK_BLKF066_00
 70
    64
 10
0.0
 20
0.0
 30
0.0
  3
ZU_SYM_C__ZUOU_AC_BLOCK_BLKF066_00
  1

  0
LINE
  5
201
100
AcDbEntity
  8
0
370
    -3
390
0
  6
Continuous
100
AcDbLine
 10
400.164618
 20
1027.595941
 30
0.0
 11
400.164618
 21
1025.818116
 31
0.0
  0
LINE
  5
202
100
AcDbEntity
  8
0
370
    -3
390
0
  6
Continuous
100
AcDbLine
 10
368.164618
 20
1003.782832
 30
0.0
 11
374.125712
 21
1003.782832
 31
0.0
  0
LINE
  5
203
100
AcDbEntity
  8
0
370
    -3
390
0
  6
Continuous
100
AcDbLine
 10
368.164618
 20
1012.212871
 30
0.0
 11
368.164618
 21
1003.782832
 31
0.0
  0
LINE
  5
204
100
AcDbEntity
  8
0
370
    -3
390
0
  6
Continuous
100
AcDbLine
 10
368.164618
 20
1010.435047
 30
0.0
 11
400.164618
 21
1025.818116
 31
0.0
  0
LINE
  5
205
100
AcDbEntity
  8
0
370
    -3
390
0
  6
Continuous
100
AcDbLine
 10
400.164618
 20
1027.595941
 30
0.0
 11
368.164618
 21
1012.212871
 31
0.0
  0
LINE
  5
206
100
AcDbEntity
  8
0
370
    -3
390
0
  6
Continuous
100
AcDbLine
 10
536.164618
 20
1027.595941
 30
0.0
 11
400.164618
 21
1027.595941
 31
0.0
  0
LINE
  5
207
100
AcDbEntity
  8
0
370
    -3
390
0
  6
Continuous
100
AcDbLine
 10
536.164618
 20
1025.818116
 30
0.0
 11
400.164618
 21
1025.818116
 31
0.0
  0
LINE
  5
208
100
AcDbEntity
  8
0
370
    -3
390
0
  6
Continuous
100
AcDbLine
 10
536.164618
 20
1027.595941
 30
0.0
 11
536.164618
 21
1025.818116
 31
0.0
  0
LINE
  5
209
100
AcDbEntity
  8
0
370
    -3
390
0
  6
Continuous
100
AcDbLine
 10
568.164618
 20
1003.782832
 30
0.0
 11
562.203523
 21
1003.782832
 31
0.0
  0
LINE
  5
20A
100
AcDbEntity
  8
0
370
    -3
390
0
  6
Continuous
100
AcDbLine
 10
568.164618
 20
1012.212871
 30
0.0
 11
568.164618
 21
1003.782832
 31
0.0
  0
LINE
  5
20B
100
AcDbEntity
  8
0
370
    -3
390
0
  6
Continuous
100
AcDbLine
 10
568.164618
 20
1010.435047
 30
0.0
 11
536.164618
 21
1025.818116
 31
0.0
  0
LINE
  5
20C
100
AcDbEntity
  8
0
370
    -3
390
0
  6
Continuous
100
AcDbLine
 10
536.164618
 20
1027.595941
 30
0.0
 11
568.164618
 21
1012.212871
 31
0.0
  0
ENDBLK
  5
20D
100
AcDbEntity
  8
0
390
0
100
AcDbBlockEnd
  0
BLOCK
  5
4AE
100
AcDbEntity
  8
0
390
0
100
AcDbBlockBegin
  2
ZU_SYM__USERS_HOME_SYMBOL_POO_SYM_B21_20
 70
    64
 10
0.0
 20
0.0
 30
0.0
  3
ZU_SYM__USERS_HOME_SYMBOL_POO_SYM_B21_20
  1

  0
LINE
  5
4AF
100
AcDbEntity
  8
0
370
    -3
390
0
  6
Continuous
100
AcDbLine
 10
0.000001
 20
0.015238
 30
0.0
 11
-2.999999
 21
-1.076669
 31
0.0
  0
LINE
  5
4B0
100
AcDbEntity
  8
0
370
    -3
390
0
  6
Continuous
100
AcDbLine
 10
-2.999999
 20
-0.025431
 30
0.0
 11
0.000001
 21
1.066476
 31
0.0
  0
LINE
  5
4B1
100
AcDbEntity
  8
0
370
    -3
390
0
  6
Continuous
100
AcDbLine
 10
-14.299976
 20
9.0
 30
0.0
 11
-14.299976
 21
-9.0
 31
0.0
  0
LINE
  5
4B2
100
AcDbEntity
  8
0
370
    -3
390
0
  6
Continuous
100
AcDbLine
 10
-14.299962
 20
-9.000003
 30
0.0
 11
-14.999959
 21
-7.787739
 31
0.0
  0
LINE
  5
4B3
100
AcDbEntity
  8
0
370
    -3
390
0
  6
Continuous
100
AcDbLine
 10
-14.299981
 20
9.000001
 30
0.0
 11
-14.999978
 21
7.787341
 31
0.0
  0
LINE
  5
4B4
100
AcDbEntity
  8
0
370
    -3
390
0
  6
Continuous
100
AcDbLine
 10
0.0
 20
-10.75
 30
0.0
 11
-3.0
 21
-10.75
 31
0.0
  0
LINE
  5
4B5
100
AcDbEntity
  8
0
370
    -3
390
0
  6
Continuous
100
AcDbLine
 10
0.0
 20
10.75
 30
0.0
 11
-3.0
 21
10.75
 31
0.0
  0
LINE
  5
4B6
100
AcDbEntity
  8
0
370
    -3
390
0
  6
Continuous
100
AcDbLine
 10
-3.0
 20
9.0
 30
0.0
 11
-14.299976
 21
9.0
 31
0.0
  0
LINE
  5
4B7
100
AcDbEntity
  8
0
370
    -3
390
0
  6
Continuous
100
AcDbLine
 10
-3.0
 20
-9.0
 30
0.0
 11
-14.299961
 21
-9.0
 31
0.0
  0
LINE
  5
4B8
100
AcDbEntity
  8
0
370
    -3
390
0
  6
Continuous
100
AcDbLine
 10
-14.999958
 20
-7.787735
 30
0.0
 11
-14.999973
 21
7.78734
 31
0.0
  0
LINE
  5
4B9
100
AcDbEntity
  8
0
370
    -3
390
0
  6
Continuous
100
AcDbLine
 10
-3.0
 20
-10.75
 30
0.0
 11
-3.0
 21
10.75
 31
0.0
  0
LINE
  5
4BA
100
AcDbEntity
  8
0
370
    -3
390
0
  6
Continuous
100
AcDbLine
 10
0.0
 20
10.75
 30
0.0
 11
0.0
 21
-10.75
 31
0.0
  0
POINT
  5
4BB
100
AcDbEntity
  8
0
370
    -3
390
0
  6
Continuous
100
AcDbPoint
 10
0.0
 20
0.0
 30
0.0
  0
ENDBLK
  5
4BC
100
AcDbEntity
  8
0
390
0
100
AcDbBlockEnd
  0
BLOCK
  5
4BF
100
AcDbEntity
  8
0
390
0
100
AcDbBlockBegin
  2
ZU_SYM__USERS_HOME_SYMBOL_POO_SYM_B21_0000720
 70
    64
 10
0.0
 20
0.0
 30
0.0
  3
ZU_SYM__USERS_HOME_SYMBOL_POO_SYM_B21_0000720
  1

  0
LINE
  5
4C0
100
AcDbEntity
  8
0
370
    -3
390
0
  6
Continuous
100
AcDbLine
 10
0.000001
 20
0.015238
 30
0.0
 11
-2.999999
 21
-1.076669
 31
0.0
  0
LINE
  5
4C1
100
AcDbEntity
  8
0
370
    -3
390
0
  6
Continuous
100
AcDbLine
 10
-2.999999
 20
-0.025431
 30
0.0
 11
0.000001
 21
1.066476
 31
0.0
  0
LINE
  5
4C2
100
AcDbEntity
  8
0
370
    -3
390
0
  6
Continuous
100
AcDbLine
 10
-14.299976
 20
9.0
 30
0.0
 11
-14.299976
 21
-9.0
 31
0.0
  0
LINE
  5
4C3
100
AcDbEntity
  8
0
370
    -3
390
0
  6
Continuous
100
AcDbLine
 10
-14.299962
 20
-9.000003
 30
0.0
 11
-14.999959
 21
-7.787739
 31
0.0
  0
LINE
  5
4C4
100
AcDbEntity
  8
0
370
    -3
390
0
  6
Continuous
100
AcDbLine
 10
-14.299981
 20
9.000001
 30
0.0
 11
-14.999978
 21
7.787341
 31
0.0
  0
LINE
  5
4C5
100
AcDbEntity
  8
0
370
    -3
390
0
  6
Continuous
100
AcDbLine
 10
0.0
 20
-10.75
 30
0.0
 11
-3.0
 21
-10.75
 31
0.0
  0
LINE
  5
4C6
100
AcDbEntity
  8
0
370
    -3
390
0
  6
Continuous
100
AcDbLine
 10
0.0
 20
10.75
 30
0.0
 11
-3.0
 21
10.75
 31
0.0
  0
LINE
  5
4C7
100
AcDbEntity
  8
0
370
    -3
390
0
  6
Continuous
100
AcDbLine
 10
-3.0
 20
9.0
 30
0.0
 11
-14.299976
 21
9.0
 31
0.0
  0
LINE
  5
4C8
100
AcDbEntity
  8
0
370
    -3
390
0
  6
Continuous
100
AcDbLine
 10
-3.0
 20
-9.0
 30
0.0
 11
-14.299961
 21
-9.0
 31
0.0
  0
LINE
  5
4C9
100
AcDbEntity
  8
0
370
    -3
390
0
  6
Continuous
100
AcDbLine
 10
-14.999958
 20
-7.787735
 30
0.0
 11
-14.999973
 21
7.78734
 31
0.0
  0
LINE
  5
4CA
100
AcDbEntity
  8
0
370
    -3
390
0
  6
Continuous
100
AcDbLine
 10
-3.0
 20
-10.75
 30
0.0
 11
-3.0
 21
10.75
 31
0.0
  0
LINE
  5
4CB
100
AcDbEntity
  8
0
370
    -3
390
0
  6
Continuous
100
AcDbLine
 10
0.0
 20
10.75
 30
0.0
 11
0.0
 21
-10.75
 31
0.0
  0
POINT
  5
4CC
100
AcDbEntity
  8
0
370
    -3
390
0
  6
Continuous
100
AcDbPoint
 10
0.0
 20
0.0
 30
0.0
  0
ENDBLK
  5
4CD
100
AcDbEntity
  8
0
390
0
100
AcDbBlockEnd
  0
BLOCK
  5
4FC
100
AcDbEntity
  8
0
390
0
100
AcDbBlockBegin
  2
ZU_SYM_C__ZUOU_AC_BLOCK_BLKF103_00
 70
    64
 10
0.0
 20
0.0
 30
0.0
  3
ZU_SYM_C__ZUOU_AC_BLOCK_BLKF103_00
  1

  0
LINE
  5
4FD
100
AcDbEntity
  8
0
370
    -3
390
0
  6
Continuous
100
AcDbLine
 10
347.935031
 20
440.063493
 30
0.0
 11
333.935031
 21
432.445849
 31
0.0
  0
LINE
  5
4FE
100
AcDbEntity
  8
0
370
    -3
390
0
  6
Continuous
100
AcDbLine
 10
617.935031
 20
440.063493
 30
0.0
 11
637.435031
 21
429.453204
 31
0.0
  0
LINE
  5
4FF
100
AcDbEntity
  8
0
370
    -3
390
0
  6
Continuous
100
AcDbLine
 10
347.935031
 20
440.063493
 30
0.0
 11
617.935031
 21
440.063493
 31
0.0
  0
ENDBLK
  5
500
100
AcDbEntity
  8
0
390
0
100
AcDbBlockEnd
  0
BLOCK
  5
682
100
AcDbEntity
  8
0
390
0
100
AcDbBlockBegin
  2
ZU_SYM_K__CAD_SYM_POO_SYM_B21_0000820
 70
    64
 10
0.0
 20
0.0
 30
0.0
  3
ZU_SYM_K__CAD_SYM_POO_SYM_B21_0000820
  1

  0
POINT
  5
683
100
AcDbEntity
  8
0
370
    -3
390
0
  6
Continuous
100
AcDbPoint
 10
0.0
 20
0.0
 30
0.0
  0
LINE
  5
684
100
AcDbEntity
  8
0
370
    -3
390
0
  6
Continuous
100
AcDbLine
 10
0.0
 20
10.75
 30
0.0
 11
0.0
 21
-10.75
 31
0.0
  0
LINE
  5
685
100
AcDbEntity
  8
0
370
    -3
390
0
  6
Continuous
100
AcDbLine
 10
-3.0
 20
-10.75
 30
0.0
 11
-3.0
 21
10.75
 31
0.0
  0
LINE
  5
686
100
AcDbEntity
  8
0
370
    -3
390
0
  6
Continuous
100
AcDbLine
 10
-14.999958
 20
-7.787735
 30
0.0
 11
-14.999973
 21
7.78734
 31
0.0
  0
LINE
  5
687
100
AcDbEntity
  8
0
370
    -3
390
0
  6
Continuous
100
AcDbLine
 10
-3.0
 20
-9.0
 30
0.0
 11
-14.299961
 21
-9.0
 31
0.0
  0
LINE
  5
688
100
AcDbEntity
  8
0
370
    -3
390
0
  6
Continuous
100
AcDbLine
 10
-3.0
 20
9.0
 30
0.0
 11
-14.299976
 21
9.0
 31
0.0
  0
LINE
  5
689
100
AcDbEntity
  8
0
370
    -3
390
0
  6
Continuous
100
AcDbLine
 10
0.0
 20
10.75
 30
0.0
 11
-3.0
 21
10.75
 31
0.0
  0
LINE
  5
68A
100
AcDbEntity
  8
0
370
    -3
390
0
  6
Continuous
100
AcDbLine
 10
0.0
 20
-10.75
 30
0.0
 11
-3.0
 21
-10.75
 31
0.0
  0
LINE
  5
68B
100
AcDbEntity
  8
0
370
    -3
390
0
  6
Continuous
100
AcDbLine
 10
-14.299981
 20
9.000001
 30
0.0
 11
-14.999978
 21
7.787341
 31
0.0
  0
LINE
  5
68C
100
AcDbEntity
  8
0
370
    -3
390
0
  6
Continuous
100
AcDbLine
 10
-14.299962
 20
-9.000003
 30
0.0
 11
-14.999959
 21
-7.787739
 31
0.0
  0
LINE
  5
68D
100
AcDbEntity
  8
0
370
    -3
390
0
  6
Continuous
100
AcDbLine
 10
-14.299976
 20
9.0
 30
0.0
 11
-14.299976
 21
-9.0
 31
0.0
  0
LINE
  5
68E
100
AcDbEntity
  8
0
370
    -3
390
0
  6
Continuous
100
AcDbLine
 10
-2.999999
 20
-0.025431
 30
0.0
 11
0.000001
 21
1.066476
 31
0.0
  0
LINE
  5
68F
100
AcDbEntity
  8
0
370
    -3
390
0
  6
Continuous
100
AcDbLine
 10
0.000001
 20
0.015238
 30
0.0
 11
-2.999999
 21
-1.076669
 31
0.0
  0
ENDBLK
  5
690
100
AcDbEntity
  8
0
390
0
100
AcDbBlockEnd
  0
BLOCK
  5
6B0
100
AcDbEntity
  8
0
390
0
100
AcDbBlockBegin
  2
ZU_SYM_K__CAD_SYM_POO_SYM_B21_0000920
 70
    64
 10
0.0
 20
0.0
 30
0.0
  3
ZU_SYM_K__CAD_SYM_POO_SYM_B21_0000920
  1

  0
POINT
  5
6B1
100
AcDbEntity
  8
0
370
    -3
390
0
  6
Continuous
100
AcDbPoint
 10
0.0
 20
0.0
 30
0.0
  0
LINE
  5
6B2
100
AcDbEntity
  8
0
370
    -3
390
0
  6
Continuous
100
AcDbLine
 10
0.0
 20
10.75
 30
0.0
 11
0.0
 21
-10.75
 31
0.0
  0
LINE
  5
6B3
100
AcDbEntity
  8
0
370
    -3
390
0
  6
Continuous
100
AcDbLine
 10
-3.0
 20
-10.75
 30
0.0
 11
-3.0
 21
10.75
 31
0.0
  0
LINE
  5
6B4
100
AcDbEntity
  8
0
370
    -3
390
0
  6
Continuous
100
AcDbLine
 10
-14.999958
 20
-7.787735
 30
0.0
 11
-14.999973
 21
7.78734
 31
0.0
  0
LINE
  5
6B5
100
AcDbEntity
  8
0
370
    -3
390
0
  6
Continuous
100
AcDbLine
 10
-3.0
 20
-9.0
 30
0.0
 11
-14.299961
 21
-9.0
 31
0.0
  0
LINE
  5
6B6
100
AcDbEntity
  8
0
370
    -3
390
0
  6
Continuous
100
AcDbLine
 10
-3.0
 20
9.0
 30
0.0
 11
-14.299976
 21
9.0
 31
0.0
  0
LINE
  5
6B7
100
AcDbEntity
  8
0
370
    -3
390
0
  6
Continuous
100
AcDbLine
 10
0.0
 20
10.75
 30
0.0
 11
-3.0
 21
10.75
 31
0.0
  0
LINE
  5
6B8
100
AcDbEntity
  8
0
370
    -3
390
0
  6
Continuous
100
AcDbLine
 10
0.0
 20
-10.75
 30
0.0
 11
-3.0
 21
-10.75
 31
0.0
  0
LINE
  5
6B9
100
AcDbEntity
  8
0
370
    -3
390
0
  6
Continuous
100
AcDbLine
 10
-14.299981
 20
9.000001
 30
0.0
 11
-14.999978
 21
7.787341
 31
0.0
  0
LINE
  5
6BA
100
AcDbEntity
  8
0
370
    -3
390
0
  6
Continuous
100
AcDbLine
 10
-14.299962
 20
-9.000003
 30
0.0
 11
-14.999959
 21
-7.787739
 31
0.0
  0
LINE
  5
6BB
100
AcDbEntity
  8
0
370
    -3
390
0
  6
Continuous
100
AcDbLine
 10
-14.299976
 20
9.0
 30
0.0
 11
-14.299976
 21
-9.0
 31
0.0
  0
LINE
  5
6BC
100
AcDbEntity
  8
0
370
    -3
390
0
  6
Continuous
100
AcDbLine
 10
-2.999999
 20
-0.025431
 30
0.0
 11
0.000001
 21
1.066476
 31
0.0
  0
LINE
  5
6BD
100
AcDbEntity
  8
0
370
    -3
390
0
  6
Continuous
100
AcDbLine
 10
0.000001
 20
0.015238
 30
0.0
 11
-2.999999
 21
-1.076669
 31
0.0
  0
ENDBLK
  5
6BE
100
AcDbEntity
  8
0
390
0
100
AcDbBlockEnd
  0
BLOCK
  5
6C5
100
AcDbEntity
  8
0
390
0
100
AcDbBlockBegin
  2
ZU_SYM_K__CAD_SYM_POO_SYM_B21_0001020
 70
    64
 10
0.0
 20
0.0
 30
0.0
  3
ZU_SYM_K__CAD_SYM_POO_SYM_B21_0001020
  1

  0
POINT
  5
6C6
100
AcDbEntity
  8
0
370
    -3
390
0
  6
Continuous
100
AcDbPoint
 10
0.0
 20
0.0
 30
0.0
  0
LINE
  5
6C7
100
AcDbEntity
  8
0
370
    -3
390
0
  6
Continuous
100
AcDbLine
 10
0.0
 20
10.75
 30
0.0
 11
0.0
 21
-10.75
 31
0.0
  0
LINE
  5
6C8
100
AcDbEntity
  8
0
370
    -3
390
0
  6
Continuous
100
AcDbLine
 10
-3.0
 20
-10.75
 30
0.0
 11
-3.0
 21
10.75
 31
0.0
  0
LINE
  5
6C9
100
AcDbEntity
  8
0
370
    -3
390
0
  6
Continuous
100
AcDbLine
 10
-14.999958
 20
-7.787735
 30
0.0
 11
-14.999973
 21
7.78734
 31
0.0
  0
LINE
  5
6CA
100
AcDbEntity
  8
0
370
    -3
390
0
  6
Continuous
100
AcDbLine
 10
-3.0
 20
-9.0
 30
0.0
 11
-14.299961
 21
-9.0
 31
0.0
  0
LINE
  5
6CB
100
AcDbEntity
  8
0
370
    -3
390
0
  6
Continuous
100
AcDbLine
 10
-3.0
 20
9.0
 30
0.0
 11
-14.299976
 21
9.0
 31
0.0
  0
LINE
  5
6CC
100
AcDbEntity
  8
0
370
    -3
390
0
  6
Continuous
100
AcDbLine
 10
0.0
 20
10.75
 30
0.0
 11
-3.0
 21
10.75
 31
0.0
  0
LINE
  5
6CD
100
AcDbEntity
  8
0
370
    -3
390
0
  6
Continuous
100
AcDbLine
 10
0.0
 20
-10.75
 30
0.0
 11
-3.0
 21
-10.75
 31
0.0
  0
LINE
  5
6CE
100
AcDbEntity
  8
0
370
    -3
390
0
  6
Continuous
100
AcDbLine
 10
-14.299981
 20
9.000001
 30
0.0
 11
-14.999978
 21
7.787341
 31
0.0
  0
LINE
  5
6CF
100
AcDbEntity
  8
0
370
    -3
390
0
  6
Continuous
100
AcDbLine
 10
-14.299962
 20
-9.000003
 30
0.0
 11
-14.999959
 21
-7.787739
 31
0.0
  0
LINE
  5
6D0
100
AcDbEntity
  8
0
370
    -3
390
0
  6
Continuous
100
AcDbLine
 10
-14.299976
 20
9.0
 30
0.0
 11
-14.299976
 21
-9.0
 31
0.0
  0
LINE
  5
6D1
100
AcDbEntity
  8
0
370
    -3
390
0
  6
Continuous
100
AcDbLine
 10
-2.999999
 20
-0.025431
 30
0.0
 11
0.000001
 21
1.066476
 31
0.0
  0
LINE
  5
6D2
100
AcDbEntity
  8
0
370
    -3
390
0
  6
Continuous
100
AcDbLine
 10
0.000001
 20
0.015238
 30
0.0
 11
-2.999999
 21
-1.076669
 31
0.0
  0
ENDBLK
  5
6D3
100
AcDbEntity
  8
0
390
0
100
AcDbBlockEnd
  0
BLOCK
  5
6D6
100
AcDbEntity
  8
0
390
0
100
AcDbBlockBegin
  2
ZU_SYM_K__CAD_SYM_POO_SYM_B21_0001120
 70
    64
 10
0.0
 20
0.0
 30
0.0
  3
ZU_SYM_K__CAD_SYM_POO_SYM_B21_0001120
  1

  0
POINT
  5
6D7
100
AcDbEntity
  8
0
370
    -3
390
0
  6
Continuous
100
AcDbPoint
 10
0.0
 20
0.0
 30
0.0
  0
LINE
  5
6D8
100
AcDbEntity
  8
0
370
    -3
390
0
  6
Continuous
100
AcDbLine
 10
0.0
 20
10.75
 30
0.0
 11
0.0
 21
-10.75
 31
0.0
  0
LINE
  5
6D9
100
AcDbEntity
  8
0
370
    -3
390
0
  6
Continuous
100
AcDbLine
 10
-3.0
 20
-10.75
 30
0.0
 11
-3.0
 21
10.75
 31
0.0
  0
LINE
  5
6DA
100
AcDbEntity
  8
0
370
    -3
390
0
  6
Continuous
100
AcDbLine
 10
-14.999958
 20
-7.787735
 30
0.0
 11
-14.999973
 21
7.78734
 31
0.0
  0
LINE
  5
6DB
100
AcDbEntity
  8
0
370
    -3
390
0
  6
Continuous
100
AcDbLine
 10
-3.0
 20
-9.0
 30
0.0
 11
-14.299961
 21
-9.0
 31
0.0
  0
LINE
  5
6DC
100
AcDbEntity
  8
0
370
    -3
390
0
  6
Continuous
100
AcDbLine
 10
-3.0
 20
9.0
 30
0.0
 11
-14.299976
 21
9.0
 31
0.0
  0
LINE
  5
6DD
100
AcDbEntity
  8
0
370
    -3
390
0
  6
Continuous
100
AcDbLine
 10
0.0
 20
10.75
 30
0.0
 11
-3.0
 21
10.75
 31
0.0
  0
LINE
  5
6DE
100
AcDbEntity
  8
0
370
    -3
390
0
  6
Continuous
100
AcDbLine
 10
0.0
 20
-10.75
 30
0.0
 11
-3.0
 21
-10.75
 31
0.0
  0
LINE
  5
6DF
100
AcDbEntity
  8
0
370
    -3
390
0
  6
Continuous
100
AcDbLine
 10
-14.299981
 20
9.000001
 30
0.0
 11
-14.999978
 21
7.787341
 31
0.0
  0
LINE
  5
6E0
100
AcDbEntity
  8
0
370
    -3
390
0
  6
Continuous
100
AcDbLine
 10
-14.299962
 20
-9.000003
 30
0.0
 11
-14.999959
 21
-7.787739
 31
0.0
  0
LINE
  5
6E1
100
AcDbEntity
  8
0
370
    -3
390
0
  6
Continuous
100
AcDbLine
 10
-14.299976
 20
9.0
 30
0.0
 11
-14.299976
 21
-9.0
 31
0.0
  0
LINE
  5
6E2
100
AcDbEntity
  8
0
370
    -3
390
0
  6
Continuous
100
AcDbLine
 10
-2.999999
 20
-0.025431
 30
0.0
 11
0.000001
 21
1.066476
 31
0.0
  0
LINE
  5
6E3
100
AcDbEntity
  8
0
370
    -3
390
0
  6
Continuous
100
AcDbLine
 10
0.000001
 20
0.015238
 30
0.0
 11
-2.999999
 21
-1.076669
 31
0.0
  0
ENDBLK
  5
6E4
100
AcDbEntity
  8
0
390
0
100
AcDbBlockEnd
  0
ENDSEC
  0
SECTION
  2
ENTITIES
  0
ARC
  5
2F
100
AcDbEntity
  8
0
370
    -3
390
0
  6
Continuous
100
AcDbCircle
 10
68.139537
 20
348.310436
 30
0.0
 40
9.0
100
AcDbArc
 50
90.0
 51
270.0
  0
LINE
  5
30
100
AcDbEntity
  8
0
370
    -3
390
0
  6
Continuous
100
AcDbLine
 10
68.139537
 20
357.310436
 30
0.0
 11
68.139537
 21
339.310436
 31
0.0
  0
LINE
  5
31
100
AcDbEntity
  8
0
370
    -3
390
0
  6
Continuous
100
AcDbLine
 10
131.139537
 20
339.310436
 30
0.0
 11
68.139537
 21
339.310436
 31
0.0
  0
LINE
  5
32
100
AcDbEntity
  8
0
370
    -3
390
0
  6
Continuous
100
AcDbLine
 10
131.139537
 20
357.310436
 30
0.0
 11
68.139537
 21
357.310436
 31
0.0
  0
LINE
  5
33
100
AcDbEntity
  8
0
370
    -3
390
0
  6
Continuous
100
AcDbLine
 10
131.139537
 20
315.810436
 30
0.0
 11
20.639537
 21
315.810436
 31
0.0
  0
LINE
  5
34
100
AcDbEntity
  8
0
370
    -3
390
0
  6
Continuous
100
AcDbLine
 10
131.139537
 20
380.810436
 30
0.0
 11
20.639537
 21
380.810436
 31
0.0
  0
LINE
  5
35
100
AcDbEntity
  8
0
370
    -3
390
0
  6
Continuous
100
AcDbLine
 10
131.139537
 20
380.810436
 30
0.0
 11
131.139537
 21
315.810436
 31
0.0
  0
LINE
  5
36
100
AcDbEntity
  8
0
370
    -3
390
0
  6
Continuous
100
AcDbLine
 10
5.639537
 20
250.810436
 30
0.0
 11
-21.360463
 21
250.810436
 31
0.0
  0
LINE
  5
37
100
AcDbEntity
  8
0
370
    -3
390
0
  6
Continuous
100
AcDbLine
 10
19.639537
 20
293.310436
 30
0.0
 11
13.639537
 21
293.310436
 31
0.0
  0
LINE
  5
38
100
AcDbEntity
  8
0
370
    -3
390
0
  6
Continuous
100
AcDbLine
 10
2.639537
 20
343.310436
 30
0.0
 11
-22.360463
 21
343.310436
 31
0.0
  0
ARC
  5
39
100
AcDbEntity
  8
0
370
    -3
390
0
  6
Continuous
100
AcDbCircle
 10
1.639537
 20
338.310436
 30
0.0
 40
5.0
100
AcDbArc
 50
0.0
 51
90.0
  0
ARC
  5
3A
100
AcDbEntity
  8
0
370
    -3
390
0
  6
Continuous
100
AcDbCircle
 10
-22.360463
 20
338.310436
 30
0.0
 40
5.0
100
AcDbArc
 50
90.0
 51
180.0
  0
ARC
  5
3B
100
AcDbEntity
  8
0
370
    -3
390
0
  6
Continuous
100
AcDbCircle
 10
-21.360463
 20
244.810436
 30
0.0
 40
6.0
100
AcDbArc
 50
90.0
 51
180.0
  0
LINE
  5
3C
100
AcDbEntity
  8
0
370
    -3
390
0
  6
Continuous
100
AcDbLine
 10
16.639537
 20
243.310436
 30
0.0
 11
16.639537
 21
293.310436
 31
0.0
  0
ARC
  5
3D
100
AcDbEntity
  8
0
370
    -3
390
0
  6
Continuous
100
AcDbCircle
 10
-13.360463
 20
243.310436
 30
0.0
 40
30.0
100
AcDbArc
 50
270.0
 51
0.0
  0
ARC
  5
3E
100
AcDbEntity
  8
0
370
    -3
390
0
  6
Continuous
100
AcDbCircle
 10
13.639537
 20
291.310436
 30
0.0
 40
2.0
100
AcDbArc
 50
90.0
 51
180.0
  0
ARC
  5
3F
100
AcDbEntity
  8
0
370
    -3
390
0
  6
Continuous
100
AcDbCircle
 10
-33.360463
 20
219.310436
 30
0.0
 40
6.0
100
AcDbArc
 50
270.0
 51
0.0
  0
ARC
  5
40
100
AcDbEntity
  8
0
370
    -3
390
0
  6
Continuous
100
AcDbCircle
 10
5.639537
 20
256.810436
 30
0.0
 40
6.0
100
AcDbArc
 50
270.0
 51
0.0
  0
ARC
  5
41
100
AcDbEntity
  8
0
370
    -3
390
0
  6
Continuous
100
AcDbCircle
 10
16.639537
 20
338.310436
 30
0.0
 40
5.0
100
AcDbArc
 50
90.0
 51
180.0
  0
LINE
  5
42
100
AcDbEntity
  8
0
370
    -3
390
0
  6
Continuous
100
AcDbLine
 10
16.639537
 20
343.310436
 30
0.0
 11
17.139537
 21
343.310436
 31
0.0
  0
ARC
  5
43
100
AcDbEntity
  8
0
370
    -3
390
0
  6
Continuous
100
AcDbCircle
 10
19.639537
 20
295.310436
 30
0.0
 40
2.0
100
AcDbArc
 50
270.0
 51
300.0
  0
ARC
  5
44
100
AcDbEntity
  8
0
370
    -3
390
0
  6
Continuous
100
AcDbCircle
 10
19.639537
 20
295.310436
 30
0.0
 40
2.0
100
AcDbArc
 50
270.0
 51
300.0
  0
ARC
  5
45
100
AcDbEntity
  8
0
370
    -3
390
0
  6
Continuous
100
AcDbCircle
 10
16.639537
 20
338.310436
 30
0.0
 40
5.0
100
AcDbArc
 50
36.869898
 51
90.0
  0
LINE
  5
46
100
AcDbEntity
  8
0
370
    -3
390
0
  6
Continuous
100
AcDbLine
 10
20.639537
 20
293.578385
 30
0.0
 11
20.639537
 21
348.310436
 31
0.0
  0
LINE
  5
47
100
AcDbEntity
  8
0
370
    -3
390
0
  6
Continuous
100
AcDbLine
 10
11.639537
 20
256.810436
 30
0.0
 11
11.639537
 21
348.310436
 31
0.0
  0
LINE
  5
48
100
AcDbEntity
  8
0
370
    -3
390
0
  6
Continuous
100
AcDbLine
 10
6.639537
 20
338.310436
 30
0.0
 11
6.639537
 21
348.310436
 31
0.0
  0
LINE
  5
49
100
AcDbEntity
  8
0
370
    -3
390
0
  6
Continuous
100
AcDbLine
 10
-27.360463
 20
219.310436
 30
0.0
 11
-27.360463
 21
348.310436
 31
0.0
  0
LINE
  5
4A
100
AcDbEntity
  8
0
370
    -3
390
0
  6
Continuous
100
AcDbLine
 10
11.639537
 20
338.310436
 30
0.0
 11
11.639537
 21
348.310436
 31
0.0
  0
ARC
  5
4B
100
AcDbEntity
  8
0
370
    -3
390
0
  6
Continuous
100
AcDbCircle
 10
-87.860463
 20
159.310436
 30
0.0
 40
6.0
100
AcDbArc
 50
270.0
 51
0.0
  0
LINE
  5
4C
100
AcDbEntity
  8
0
370
    -3
390
0
  6
Continuous
100
AcDbLine
 10
-81.860463
 20
159.310436
 30
0.0
 11
-81.860463
 21
184.310436
 31
0.0
  0
ARC
  5
4D
100
AcDbEntity
  8
0
370
    -3
390
0
  6
Continuous
100
AcDbCircle
 10
-87.860463
 20
184.310436
 30
0.0
 40
6.0
100
AcDbArc
 50
0.0
 51
90.0
  0
ARC
  5
4E
100
AcDbEntity
  8
0
370
    -3
390
0
  6
Continuous
100
AcDbCircle
 10
-87.860463
 20
196.310436
 30
0.0
 40
6.0
100
AcDbArc
 50
270.0
 51
0.0
  0
ARC
  5
4F
100
AcDbEntity
  8
0
370
    -3
390
0
  6
Continuous
100
AcDbCircle
 10
-75.860463
 20
207.310436
 30
0.0
 40
6.0
100
AcDbArc
 50
90.0
 51
180.0
  0
LINE
  5
50
100
AcDbEntity
  8
0
370
    -3
390
0
  6
Continuous
100
AcDbLine
 10
-81.860463
 20
184.310436
 30
0.0
 11
-81.860463
 21
207.310436
 31
0.0
  0
LINE
  5
51
100
AcDbEntity
  8
0
370
    -3
390
0
  6
Continuous
100
AcDbLine
 10
-87.860463
 20
153.310436
 30
0.0
 11
15.139537
 21
153.310436
 31
0.0
  0
ARC
  5
52
100
AcDbEntity
  8
0
370
    -3
390
0
  6
Continuous
100
AcDbCircle
 10
15.139537
 20
159.310436
 30
0.0
 40
6.0
100
AcDbArc
 50
270.0
 51
0.0
  0
LINE
  5
53
100
AcDbEntity
  8
0
370
    -3
390
0
  6
Continuous
100
AcDbLine
 10
21.139537
 20
159.310436
 30
0.0
 11
21.139537
 21
225.310436
 31
0.0
  0
ARC
  5
54
100
AcDbEntity
  8
0
370
    -3
390
0
  6
Continuous
100
AcDbCircle
 10
15.139537
 20
225.310436
 30
0.0
 40
6.0
100
AcDbArc
 50
0.0
 51
90.0
  0
LINE
  5
55
100
AcDbEntity
  8
0
370
    -3
390
0
  6
Continuous
100
AcDbLine
 10
13.634991
 20
231.310436
 30
0.0
 11
15.139537
 21
231.310436
 31
0.0
  0
LINE
  5
56
100
AcDbEntity
  8
0
370
    -3
390
0
  6
Continuous
100
AcDbLine
 10
21.139537
 20
218.310436
 30
0.0
 11
2.722661
 21
218.310436
 31
0.0
  0
CIRCLE
  5
57
100
AcDbEntity
  8
0
370
    -3
390
0
  6
Continuous
100
AcDbCircle
 10
-3.860463
 20
198.310436
 30
0.0
 40
12.0
  0
LINE
  5
58
100
AcDbEntity
  8
0
370
    -3
390
0
  6
CENTER
100
AcDbLine
 10
14.41818
 20
198.310436
 30
0.0
 11
-26.575276
 21
198.310436
 31
0.0
  0
LINE
  5
59
100
AcDbEntity
  8
0
370
    -3
390
0
  6
CENTER
100
AcDbLine
 10
-3.860463
 20
175.792231
 30
0.0
 11
-3.860463
 21
213.780931
 31
0.0
  0
CIRCLE
  5
5A
100
AcDbEntity
  8
0
370
    -3
390
0
  6
Continuous
100
AcDbCircle
 10
-3.860463
 20
498.310436
 30
0.0
 40
12.0
  0
LINE
  5
5B
100
AcDbEntity
  8
0
370
    -3
390
0
  6
CENTER
100
AcDbLine
 10
-3.860463
 20
520.828642
 30
0.0
 11
-3.860463
 21
482.839941
 31
0.0
  0
LINE
  5
5C
100
AcDbEntity
  8
0
370
    -3
390
0
  6
CENTER
100
AcDbLine
 10
14.41818
 20
498.310436
 30
0.0
 11
-26.575276
 21
498.310436
 31
0.0
  0
LINE
  5
5D
100
AcDbEntity
  8
0
370
    -3
390
0
  6
Continuous
100
AcDbLine
 10
21.139537
 20
478.310436
 30
0.0
 11
2.722661
 21
478.310436
 31
0.0
  0
ARC
  5
5E
100
AcDbEntity
  8
0
370
    -3
390
0
  6
Continuous
100
AcDbCircle
 10
15.139537
 20
471.310436
 30
0.0
 40
6.0
100
AcDbArc
 50
270.0
 51
0.0
  0
LINE
  5
5F
100
AcDbEntity
  8
0
370
    -3
390
0
  6
Continuous
100
AcDbLine
 10
13.634991
 20
465.310436
 30
0.0
 11
15.139537
 21
465.310436
 31
0.0
  0
ARC
  5
60
100
AcDbEntity
  8
0
370
    -3
390
0
  6
Continuous
100
AcDbCircle
 10
15.139537
 20
537.310436
 30
0.0
 40
6.0
100
AcDbArc
 50
0.0
 51
90.0
  0
LINE
  5
61
100
AcDbEntity
  8
0
370
    -3
390
0
  6
Continuous
100
AcDbLine
 10
21.139537
 20
537.310436
 30
0.0
 11
21.139537
 21
471.310436
 31
0.0
  0
LINE
  5
62
100
AcDbEntity
  8
0
370
    -3
390
0
  6
Continuous
100
AcDbLine
 10
-87.860463
 20
543.310436
 30
0.0
 11
15.139537
 21
543.310436
 31
0.0
  0
ARC
  5
63
100
AcDbEntity
  8
0
370
    -3
390
0
  6
Continuous
100
AcDbCircle
 10
-75.860463
 20
489.310436
 30
0.0
 40
6.0
100
AcDbArc
 50
180.0
 51
270.0
  0
ARC
  5
64
100
AcDbEntity
  8
0
370
    -3
390
0
  6
Continuous
100
AcDbCircle
 10
-87.860463
 20
500.310436
 30
0.0
 40
6.0
100
AcDbArc
 50
0.0
 51
90.0
  0
ARC
  5
65
100
AcDbEntity
  8
0
370
    -3
390
0
  6
Continuous
100
AcDbCircle
 10
-87.860463
 20
512.310436
 30
0.0
 40
6.0
100
AcDbArc
 50
270.0
 51
0.0
  0
LINE
  5
66
100
AcDbEntity
  8
0
370
    -3
390
0
  6
Continuous
100
AcDbLine
 10
-81.860463
 20
512.310436
 30
0.0
 11
-81.860463
 21
489.310436
 31
0.0
  0
ARC
  5
67
100
AcDbEntity
  8
0
370
    -3
390
0
  6
Continuous
100
AcDbCircle
 10
-87.860463
 20
537.310436
 30
0.0
 40
6.0
100
AcDbArc
 50
0.0
 51
90.0
  0
LINE
  5
68
100
AcDbEntity
  8
0
370
    -3
390
0
  6
Continuous
100
AcDbLine
 10
-48.402169
 20
483.310436
 30
0.0
 11
-75.860463
 21
483.310436
 31
0.0
  0
LINE
  5
69
100
AcDbEntity
  8
0
370
    -3
390
0
  6
Continuous
100
AcDbLine
 10
-81.860463
 20
537.310436
 30
0.0
 11
-81.860463
 21
512.310436
 31
0.0
  0
LINE
  5
6A
100
AcDbEntity
  8
0
370
    -3
390
0
  6
Continuous
100
AcDbLine
 10
20.639537
 20
403.042487
 30
0.0
 11
20.639537
 21
348.310436
 31
0.0
  0
LINE
  5
6B
100
AcDbEntity
  8
0
370
    -3
390
0
  6
Continuous
100
AcDbLine
 10
-27.360463
 20
477.310436
 30
0.0
 11
-27.360463
 21
348.310436
 31
0.0
  0
LINE
  5
6C
100
AcDbEntity
  8
0
370
    -3
390
0
  6
Continuous
100
AcDbLine
 10
5.639537
 20
445.810436
 30
0.0
 11
-21.360463
 21
445.810436
 31
0.0
  0
LINE
  5
6D
100
AcDbEntity
  8
0
370
    -3
390
0
  6
Continuous
100
AcDbLine
 10
11.639537
 20
439.810436
 30
0.0
 11
11.639537
 21
348.310436
 31
0.0
  0
LINE
  5
6E
100
AcDbEntity
  8
0
370
    -3
390
0
  6
Continuous
100
AcDbLine
 10
19.639537
 20
403.310436
 30
0.0
 11
13.639537
 21
403.310436
 31
0.0
  0
LINE
  5
6F
100
AcDbEntity
  8
0
370
    -3
390
0
  6
Continuous
100
AcDbLine
 10
2.639537
 20
353.310436
 30
0.0
 11
-22.360463
 21
353.310436
 31
0.0
  0
LINE
  5
70
100
AcDbEntity
  8
0
370
    -3
390
0
  6
Continuous
100
AcDbLine
 10
6.639537
 20
358.310436
 30
0.0
 11
6.639537
 21
348.310436
 31
0.0
  0
ARC
  5
71
100
AcDbEntity
  8
0
370
    -3
390
0
  6
Continuous
100
AcDbCircle
 10
1.639537
 20
358.310436
 30
0.0
 40
5.0
100
AcDbArc
 50
270.0
 51
0.0
  0
ARC
  5
72
100
AcDbEntity
  8
0
370
    -3
390
0
  6
Continuous
100
AcDbCircle
 10
-22.360463
 20
358.310436
 30
0.0
 40
5.0
100
AcDbArc
 50
180.0
 51
270.0
  0
LINE
  5
73
100
AcDbEntity
  8
0
370
    -3
390
0
  6
Continuous
100
AcDbLine
 10
-48.402169
 20
483.310436
 30
0.0
 11
-13.360463
 21
483.310436
 31
0.0
  0
ARC
  5
74
100
AcDbEntity
  8
0
370
    -3
390
0
  6
Continuous
100
AcDbCircle
 10
-21.360463
 20
451.810436
 30
0.0
 40
6.0
100
AcDbArc
 50
180.0
 51
270.0
  0
LINE
  5
75
100
AcDbEntity
  8
0
370
    -3
390
0
  6
Continuous
100
AcDbLine
 10
16.639537
 20
453.310436
 30
0.0
 11
16.639537
 21
403.310436
 31
0.0
  0
ARC
  5
76
100
AcDbEntity
  8
0
370
    -3
390
0
  6
Continuous
100
AcDbCircle
 10
-13.360463
 20
453.310436
 30
0.0
 40
30.0
100
AcDbArc
 50
0.0
 51
90.0
  0
ARC
  5
77
100
AcDbEntity
  8
0
370
    -3
390
0
  6
Continuous
100
AcDbCircle
 10
19.639537
 20
401.310436
 30
0.0
 40
2.0
100
AcDbArc
 50
60.0
 51
90.0
  0
ARC
  5
78
100
AcDbEntity
  8
0
370
    -3
390
0
  6
Continuous
100
AcDbCircle
 10
19.639537
 20
401.310436
 30
0.0
 40
2.0
100
AcDbArc
 50
60.0
 51
90.0
  0
ARC
  5
79
100
AcDbEntity
  8
0
370
    -3
390
0
  6
Continuous
100
AcDbCircle
 10
13.639537
 20
405.310436
 30
0.0
 40
2.0
100
AcDbArc
 50
180.0
 51
270.0
  0
ARC
  5
7A
100
AcDbEntity
  8
0
370
    -3
390
0
  6
Continuous
100
AcDbCircle
 10
-33.360463
 20
477.310436
 30
0.0
 40
6.0
100
AcDbArc
 50
0.0
 51
90.0
  0
ARC
  5
7B
100
AcDbEntity
  8
0
370
    -3
390
0
  6
Continuous
100
AcDbCircle
 10
5.639537
 20
439.810436
 30
0.0
 40
6.0
100
AcDbArc
 50
0.0
 51
90.0
  0
LINE
  5
7C
100
AcDbEntity
  8
0
370
    -3
390
0
  6
Continuous
100
AcDbLine
 10
11.639537
 20
358.310436
 30
0.0
 11
11.639537
 21
348.310436
 31
0.0
  0
ARC
  5
7D
100
AcDbEntity
  8
0
370
    -3
390
0
  6
Continuous
100
AcDbCircle
 10
16.639537
 20
358.310436
 30
0.0
 40
5.0
100
AcDbArc
 50
180.0
 51
270.0
  0
ARC
  5
7E
100
AcDbEntity
  8
0
370
    -3
390
0
  6
Continuous
100
AcDbCircle
 10
16.639537
 20
358.310436
 30
0.0
 40
5.0
100
AcDbArc
 50
270.0
 51
323.130102
  0
LINE
  5
7F
100
AcDbEntity
  8
0
370
    -3
390
0
  6
Continuous
100
AcDbLine
 10
16.639537
 20
353.310436
 30
0.0
 11
17.139537
 21
353.310436
 31
0.0
  0
LINE
  5
80
100
AcDbEntity
  8
0
370
    -3
390
0
  6
Continuous
100
AcDbLine
 10
-182.360463
 20
168.310436
 30
0.0
 11
-182.360463
 21
348.310436
 31
0.0
  0
LINE
  5
81
100
AcDbEntity
  8
0
370
    -3
390
0
  6
Continuous
100
AcDbLine
 10
-182.360463
 20
528.310436
 30
0.0
 11
-182.360463
 21
348.310436
 31
0.0
  0
LINE
  5
82
100
AcDbEntity
  8
0
370
    -3
390
0
  6
Continuous
100
AcDbLine
 10
-216.360463
 20
168.310436
 30
0.0
 11
-216.360463
 21
342.060436
 31
0.0
  0
LINE
  5
83
100
AcDbEntity
  8
0
370
    -3
390
0
  6
Continuous
100
AcDbLine
 10
-216.360463
 20
528.310436
 30
0.0
 11
-216.360463
 21
354.560436
 31
0.0
  0
CIRCLE
  5
84
100
AcDbEntity
  8
0
370
    -3
390
0
  6
Continuous
100
AcDbCircle
 10
-130.860463
 20
348.310436
 30
0.0
 40
16.0
  0
ARC
  5
85
100
AcDbEntity
  8
0
370
    -3
390
0
  6
Continuous
100
AcDbCircle
 10
-196.360463
 20
475.353294
 30
0.0
 40
2.0
100
AcDbArc
 50
317.343687
 51
0.0
  0
ARC
  5
86
100
AcDbEntity
  8
0
370
    -3
390
0
  6
Continuous
100
AcDbCircle
 10
-215.23723
 20
454.865416
 30
0.0
 40
2.0
100
AcDbArc
 50
270.0
 51
317.343687
  0
LINE
  5
87
100
AcDbEntity
  8
0
370
    -3
390
0
  6
Continuous
100
AcDbLine
 10
-213.766367
 20
453.510218
 30
0.0
 11
-194.8896
 21
473.998096
 31
0.0
  0
LINE
  5
88
100
AcDbEntity
  8
0
370
    -3
390
0
  6
Continuous
100
AcDbLine
 10
-214.360463
 20
452.865416
 30
0.0
 11
-194.360463
 21
452.865416
 31
0.0
  0
LINE
  5
89
100
AcDbEntity
  8
0
370
    -3
390
0
  6
Continuous
100
AcDbLine
 10
-194.360463
 20
417.060999
 30
0.0
 11
-194.360463
 21
348.310436
 31
0.0
  0
ARC
  5
8A
100
AcDbEntity
  8
0
370
    -3
390
0
  6
Continuous
100
AcDbCircle
 10
-195.360463
 20
449.512914
 30
0.0
 40
2.0
100
AcDbArc
 50
90.0
 51
180.0
  0
ARC
  5
8B
100
AcDbEntity
  8
0
370
    -3
390
0
  6
Continuous
100
AcDbCircle
 10
-195.360463
 20
417.395419
 30
0.0
 40
2.0
100
AcDbArc
 50
180.0
 51
270.0
  0
ARC
  5
8C
100
AcDbEntity
  8
0
370
    -3
390
0
  6
Continuous
100
AcDbCircle
 10
-195.360463
 20
419.060999
 30
0.0
 40
2.0
100
AcDbArc
 50
180.0
 51
270.0
  0
LINE
  5
8D
100
AcDbEntity
  8
0
370
    -3
390
0
  6
Continuous
100
AcDbLine
 10
-195.360463
 20
415.395419
 30
0.0
 11
-194.360463
 21
415.395419
 31
0.0
  0
LINE
  5
8E
100
AcDbEntity
  8
0
370
    -3
390
0
  6
Continuous
100
AcDbLine
 10
-194.360463
 20
417.060999
 30
0.0
 11
-195.360463
 21
417.060999
 31
0.0
  0
LINE
  5
8F
100
AcDbEntity
  8
0
370
    -3
390
0
  6
Continuous
100
AcDbLine
 10
-194.360463
 20
451.512914
 30
0.0
 11
-195.360463
 21
451.512914
 31
0.0
  0
ARC
  5
90
100
AcDbEntity
  8
0
370
    -3
390
0
  6
Continuous
100
AcDbCircle
 10
-200.360463
 20
363.810436
 30
0.0
 40
2.0
100
AcDbArc
 50
90.0
 51
180.0
  0
LINE
  5
91
100
AcDbEntity
  8
0
370
    -3
390
0
  6
Continuous
100
AcDbLine
 10
-202.360463
 20
363.810436
 30
0.0
 11
-202.360463
 21
348.310436
 31
0.0
  0
LINE
  5
92
100
AcDbEntity
  8
0
370
    -3
390
0
  6
Continuous
100
AcDbLine
 10
-197.360463
 20
449.512914
 30
0.0
 11
-197.360463
 21
417.395419
 31
0.0
  0
LINE
  5
93
100
AcDbEntity
  8
0
370
    -3
390
0
  6
Continuous
100
AcDbLine
 10
-216.360463
 20
466.179185
 30
0.0
 11
-202.093653
 21
466.179185
 31
0.0
  0
ARC
  5
94
100
AcDbEntity
  8
0
370
    -3
390
0
  6
Continuous
100
AcDbCircle
 10
-195.360463
 20
504.225453
 30
0.0
 40
2.0
100
AcDbArc
 50
90.0
 51
180.0
  0
LINE
  5
95
100
AcDbEntity
  8
0
370
    -3
390
0
  6
Continuous
100
AcDbLine
 10
-197.360463
 20
504.225453
 30
0.0
 11
-197.360463
 21
471.316347
 31
0.0
  0
LINE
  5
96
100
AcDbEntity
  8
0
370
    -3
390
0
  6
Continuous
100
AcDbLine
 10
-195.360463
 20
506.225453
 30
0.0
 11
-194.360463
 21
506.225453
 31
0.0
  0
LINE
  5
97
100
AcDbEntity
  8
0
370
    -3
390
0
  6
Continuous
100
AcDbLine
 10
-200.360463
 20
365.810436
 30
0.0
 11
-194.360463
 21
365.810436
 31
0.0
  0
LINE
  5
98
100
AcDbEntity
  8
0
370
    -3
390
0
  6
Continuous
100
AcDbLine
 10
-194.360463
 20
528.225453
 30
0.0
 11
-194.360463
 21
451.512914
 31
0.0
  0
LINE
  5
99
100
AcDbEntity
  8
0
370
    -3
390
0
  6
Continuous
100
AcDbLine
 10
-216.360463
 20
528.310436
 30
0.0
 11
-216.360463
 21
348.310436
 31
0.0
  0
LINE
  5
9A
100
AcDbEntity
  8
0
370
    -3
390
0
  6
Continuous
100
AcDbLine
 10
-181.860463
 20
528.310436
 30
0.0
 11
-216.360463
 21
528.310436
 31
0.0
  0
LINE
  5
9B
100
AcDbEntity
  8
0
370
    -3
390
0
  6
Continuous
100
AcDbLine
 10
-181.860463
 20
528.310436
 30
0.0
 11
-181.860463
 21
348.310436
 31
0.0
  0
LINE
  5
9C
100
AcDbEntity
  8
0
370
    -3
390
0
  6
CENTER
100
AcDbLine
 10
-188.323018
 20
491.310436
 30
0.0
 11
-214.92956
 21
491.310436
 31
0.0
  0
LINE
  5
9D
100
AcDbEntity
  8
0
370
    -3
390
0
  6
CENTER
100
AcDbLine
 10
-188.072013
 20
429.310436
 30
0.0
 11
-215.180565
 21
429.310436
 31
0.0
  0
ARC
  5
9E
100
AcDbEntity
  8
0
370
    -3
390
0
  6
Continuous
100
AcDbCircle
 10
-196.360463
 20
221.267578
 30
0.0
 40
2.0
100
AcDbArc
 50
0.0
 51
42.656313
  0
ARC
  5
9F
100
AcDbEntity
  8
0
370
    -3
390
0
  6
Continuous
100
AcDbCircle
 10
-215.23723
 20
241.755457
 30
0.0
 40
2.0
100
AcDbArc
 50
42.656313
 51
90.0
  0
LINE
  5
A0
100
AcDbEntity
  8
0
370
    -3
390
0
  6
Continuous
100
AcDbLine
 10
-213.766367
 20
243.110655
 30
0.0
 11
-194.8896
 21
222.622777
 31
0.0
  0
LINE
  5
A1
100
AcDbEntity
  8
0
370
    -3
390
0
  6
Continuous
100
AcDbLine
 10
-214.360463
 20
243.755457
 30
0.0
 11
-194.360463
 21
243.755457
 31
0.0
  0
LINE
  5
A2
100
AcDbEntity
  8
0
370
    -3
390
0
  6
Continuous
100
AcDbLine
 10
-194.360463
 20
279.559874
 30
0.0
 11
-194.360463
 21
348.310436
 31
0.0
  0
ARC
  5
A3
100
AcDbEntity
  8
0
370
    -3
390
0
  6
Continuous
100
AcDbCircle
 10
-195.360463
 20
247.107958
 30
0.0
 40
2.0
100
AcDbArc
 50
180.0
 51
270.0
  0
ARC
  5
A4
100
AcDbEntity
  8
0
370
    -3
390
0
  6
Continuous
100
AcDbCircle
 10
-195.360463
 20
279.225453
 30
0.0
 40
2.0
100
AcDbArc
 50
90.0
 51
180.0
  0
ARC
  5
A5
100
AcDbEntity
  8
0
370
    -3
390
0
  6
Continuous
100
AcDbCircle
 10
-195.360463
 20
277.559874
 30
0.0
 40
2.0
100
AcDbArc
 50
90.0
 51
180.0
  0
LINE
  5
A6
100
AcDbEntity
  8
0
370
    -3
390
0
  6
Continuous
100
AcDbLine
 10
-195.360463
 20
281.225453
 30
0.0
 11
-194.360463
 21
281.225453
 31
0.0
  0
LINE
  5
A7
100
AcDbEntity
  8
0
370
    -3
390
0
  6
Continuous
100
AcDbLine
 10
-194.360463
 20
279.559874
 30
0.0
 11
-195.360463
 21
279.559874
 31
0.0
  0
LINE
  5
A8
100
AcDbEntity
  8
0
370
    -3
390
0
  6
Continuous
100
AcDbLine
 10
-194.360463
 20
245.107958
 30
0.0
 11
-195.360463
 21
245.107958
 31
0.0
  0
ARC
  5
A9
100
AcDbEntity
  8
0
370
    -3
390
0
  6
Continuous
100
AcDbCircle
 10
-200.360463
 20
332.810436
 30
0.0
 40
2.0
100
AcDbArc
 50
180.0
 51
270.0
  0
LINE
  5
AA
100
AcDbEntity
  8
0
370
    -3
390
0
  6
Continuous
100
AcDbLine
 10
-202.360463
 20
332.810436
 30
0.0
 11
-202.360463
 21
348.310436
 31
0.0
  0
LINE
  5
AB
100
AcDbEntity
  8
0
370
    -3
390
0
  6
Continuous
100
AcDbLine
 10
-197.360463
 20
247.107958
 30
0.0
 11
-197.360463
 21
279.225453
 31
0.0
  0
LINE
  5
AC
100
AcDbEntity
  8
0
370
    -3
390
0
  6
Continuous
100
AcDbLine
 10
-216.360463
 20
230.441688
 30
0.0
 11
-202.093653
 21
230.441688
 31
0.0
  0
ARC
  5
AD
100
AcDbEntity
  8
0
370
    -3
390
0
  6
Continuous
100
AcDbCircle
 10
-195.360463
 20
192.395419
 30
0.0
 40
2.0
100
AcDbArc
 50
180.0
 51
270.0
  0
LINE
  5
AE
100
AcDbEntity
  8
0
370
    -3
390
0
  6
Continuous
100
AcDbLine
 10
-197.360463
 20
192.395419
 30
0.0
 11
-197.360463
 21
225.304525
 31
0.0
  0
LINE
  5
AF
100
AcDbEntity
  8
0
370
    -3
390
0
  6
Continuous
100
AcDbLine
 10
-195.360463
 20
190.395419
 30
0.0
 11
-194.360463
 21
190.395419
 31
0.0
  0
LINE
  5
B0
100
AcDbEntity
  8
0
370
    -3
390
0
  6
Continuous
100
AcDbLine
 10
-200.360463
 20
330.810436
 30
0.0
 11
-194.360463
 21
330.810436
 31
0.0
  0
LINE
  5
B1
100
AcDbEntity
  8
0
370
    -3
390
0
  6
Continuous
100
AcDbLine
 10
-194.360463
 20
168.395419
 30
0.0
 11
-194.360463
 21
245.107958
 31
0.0
  0
LINE
  5
B2
100
AcDbEntity
  8
0
370
    -3
390
0
  6
Continuous
100
AcDbLine
 10
-216.360463
 20
168.310436
 30
0.0
 11
-216.360463
 21
348.310436
 31
0.0
  0
LINE
  5
B3
100
AcDbEntity
  8
0
370
    -3
390
0
  6
Continuous
100
AcDbLine
 10
-181.860463
 20
168.310436
 30
0.0
 11
-216.360463
 21
168.310436
 31
0.0
  0
LINE
  5
B4
100
AcDbEntity
  8
0
370
    -3
390
0
  6
Continuous
100
AcDbLine
 10
-181.860463
 20
168.310436
 30
0.0
 11
-181.860463
 21
348.310436
 31
0.0
  0
LINE
  5
B5
100
AcDbEntity
  8
0
370
    -3
390
0
  6
CENTER
100
AcDbLine
 10
-188.323018
 20
205.310436
 30
0.0
 11
-214.92956
 21
205.310436
 31
0.0
  0
LINE
  5
B6
100
AcDbEntity
  8
0
370
    -3
390
0
  6
CENTER
100
AcDbLine
 10
-188.072013
 20
267.310436
 30
0.0
 11
-215.180565
 21
267.310436
 31
0.0
  0
LINE
  5
B7
100
AcDbEntity
  8
0
370
    -3
390
0
  6
Continuous
100
AcDbLine
 10
-87.860463
 20
190.310436
 30
0.0
 11
-181.860463
 21
190.310436
 31
0.0
  0
LINE
  5
B8
100
AcDbEntity
  8
0
370
    -3
390
0
  6
Continuous
100
AcDbLine
 10
-181.860463
 20
153.310436
 30
0.0
 11
-181.860463
 21
348.310436
 31
0.0
  0
LINE
  5
B9
100
AcDbEntity
  8
0
370
    -3
390
0
  6
Continuous
100
AcDbLine
 10
-87.860463
 20
153.310436
 30
0.0
 11
-181.860463
 21
153.310436
 31
0.0
  0
LINE
  5
BA
100
AcDbEntity
  8
0
370
    -3
390
0
  6
Continuous
100
AcDbLine
 10
-172.860463
 20
205.310436
 30
0.0
 11
-181.860463
 21
205.310436
 31
0.0
  0
ARC
  5
BB
100
AcDbEntity
  8
0
370
    -3
390
0
  6
Continuous
100
AcDbCircle
 10
-172.860463
 20
208.310436
 30
0.0
 40
3.0
100
AcDbArc
 50
270.0
 51
0.0
  0
LINE
  5
BC
100
AcDbEntity
  8
0
370
    -3
390
0
  6
Continuous
100
AcDbLine
 10
-13.360463
 20
213.310436
 30
0.0
 11
-169.360463
 21
213.310436
 31
0.0
  0
LINE
  5
BD
100
AcDbEntity
  8
0
370
    -3
390
0
  6
Continuous
100
AcDbLine
 10
-169.860463
 20
208.310436
 30
0.0
 11
-169.860463
 21
210.310436
 31
0.0
  0
ARC
  5
BE
100
AcDbEntity
  8
0
370
    -3
390
0
  6
Continuous
100
AcDbCircle
 10
-166.860463
 20
210.310436
 30
0.0
 40
3.0
100
AcDbArc
 50
90.0
 51
180.0
  0
LINE
  5
BF
100
AcDbEntity
  8
0
370
    -3
390
0
  6
Continuous
100
AcDbLine
 10
-169.860463
 20
277.028975
 30
0.0
 11
-169.860463
 21
348.310436
 31
0.0
  0
LINE
  5
C0
100
AcDbEntity
  8
0
370
    -3
390
0
  6
Continuous
100
AcDbLine
 10
-169.860463
 20
210.310436
 30
0.0
 11
-169.860463
 21
253.356604
 31
0.0
  0
LINE
  5
C1
100
AcDbEntity
  8
0
370
    -3
390
0
  6
Continuous
100
AcDbLine
 10
-146.860463
 20
253.356604
 30
0.0
 11
-181.860463
 21
253.356604
 31
0.0
  0
ARC
  5
C2
100
AcDbEntity
  8
0
370
    -3
390
0
  6
Continuous
100
AcDbCircle
 10
-146.860463
 20
256.356604
 30
0.0
 40
3.0
100
AcDbArc
 50
270.0
 51
0.0
  0
LINE
  5
C3
100
AcDbEntity
  8
0
370
    -3
390
0
  6
Continuous
100
AcDbLine
 10
-146.860463
 20
277.028975
 30
0.0
 11
-181.860463
 21
277.028975
 31
0.0
  0
LINE
  5
C4
100
AcDbEntity
  8
0
370
    -3
390
0
  6
Continuous
100
AcDbLine
 10
-143.860463
 20
256.356604
 30
0.0
 11
-143.860463
 21
274.028975
 31
0.0
  0
ARC
  5
C5
100
AcDbEntity
  8
0
370
    -3
390
0
  6
Continuous
100
AcDbCircle
 10
-146.860463
 20
274.028975
 30
0.0
 40
3.0
100
AcDbArc
 50
0.0
 51
90.0
  0
LINE
  5
C6
100
AcDbEntity
  8
0
370
    -3
390
0
  6
CENTER
100
AcDbLine
 10
-323.860463
 20
177.654682
 30
0.0
 11
-323.860463
 21
216.429149
 31
0.0
  0
LINE
  5
C7
100
AcDbEntity
  8
0
370
    -3
390
0
  6
CENTER
100
AcDbLine
 10
-304.569798
 20
198.310436
 30
0.0
 11
-342.270511
 21
198.310436
 31
0.0
  0
LINE
  5
C8
100
AcDbEntity
  8
0
370
    -3
390
0
  6
CENTER
100
AcDbLine
 10
-323.860463
 20
518.966191
 30
0.0
 11
-323.860463
 21
480.191723
 31
0.0
  0
LINE
  5
C9
100
AcDbEntity
  8
0
370
    -3
390
0
  6
CENTER
100
AcDbLine
 10
-304.569798
 20
498.310436
 30
0.0
 11
-342.270511
 21
498.310436
 31
0.0
  0
ARC
  5
CA
100
AcDbEntity
  8
0
370
    -3
390
0
  6
Continuous
100
AcDbCircle
 10
-342.860463
 20
537.310436
 30
0.0
 40
6.0
100
AcDbArc
 50
90.0
 51
180.0
  0
LINE
  5
CB
100
AcDbEntity
  8
0
370
    -3
390
0
  6
Continuous
100
AcDbLine
 10
-181.860463
 20
543.310436
 30
0.0
 11
-342.860463
 21
543.310436
 31
0.0
  0
ARC
  5
CC
100
AcDbEntity
  8
0
370
    -3
390
0
  6
Continuous
100
AcDbCircle
 10
-146.860463
 20
422.591898
 30
0.0
 40
3.0
100
AcDbArc
 50
270.0
 51
0.0
  0
ARC
  5
CD
100
AcDbEntity
  8
0
370
    -3
390
0
  6
Continuous
100
AcDbCircle
 10
-146.860463
 20
440.264269
 30
0.0
 40
3.0
100
AcDbArc
 50
0.0
 51
90.0
  0
LINE
  5
CE
100
AcDbEntity
  8
0
370
    -3
390
0
  6
Continuous
100
AcDbLine
 10
-143.860463
 20
440.264269
 30
0.0
 11
-143.860463
 21
422.591898
 31
0.0
  0
LINE
  5
CF
100
AcDbEntity
  8
0
370
    -3
390
0
  6
Continuous
100
AcDbLine
 10
-169.860463
 20
419.591898
 30
0.0
 11
-169.860463
 21
348.310436
 31
0.0
  0
LINE
  5
D0
100
AcDbEntity
  8
0
370
    -3
390
0
  6
Continuous
100
AcDbLine
 10
-146.860463
 20
419.591898
 30
0.0
 11
-181.860463
 21
419.591898
 31
0.0
  0
LINE
  5
D1
100
AcDbEntity
  8
0
370
    -3
390
0
  6
Continuous
100
AcDbLine
 10
-146.860463
 20
443.264269
 30
0.0
 11
-181.860463
 21
443.264269
 31
0.0
  0
LINE
  5
D2
100
AcDbEntity
  8
0
370
    -3
390
0
  6
Continuous
100
AcDbLine
 10
-169.860463
 20
486.310436
 30
0.0
 11
-169.860463
 21
443.264269
 31
0.0
  0
ARC
  5
D3
100
AcDbEntity
  8
0
370
    -3
390
0
  6
Continuous
100
AcDbCircle
 10
-166.860463
 20
486.310436
 30
0.0
 40
3.0
100
AcDbArc
 50
180.0
 51
270.0
  0
ARC
  5
D4
100
AcDbEntity
  8
0
370
    -3
390
0
  6
Continuous
100
AcDbCircle
 10
-172.860463
 20
488.310436
 30
0.0
 40
3.0
100
AcDbArc
 50
0.0
 51
90.0
  0
LINE
  5
D5
100
AcDbEntity
  8
0
370
    -3
390
0
  6
Continuous
100
AcDbLine
 10
-172.860463
 20
491.310436
 30
0.0
 11
-181.860463
 21
491.310436
 31
0.0
  0
LINE
  5
D6
100
AcDbEntity
  8
0
370
    -3
390
0
  6
Continuous
100
AcDbLine
 10
-169.860463
 20
488.310436
 30
0.0
 11
-169.860463
 21
486.310436
 31
0.0
  0
LINE
  5
D7
100
AcDbEntity
  8
0
370
    -3
390
0
  6
Continuous
100
AcDbLine
 10
-87.860463
 20
506.310436
 30
0.0
 11
-181.860463
 21
506.310436
 31
0.0
  0
LINE
  5
D8
100
AcDbEntity
  8
0
370
    -3
390
0
  6
Continuous
100
AcDbLine
 10
-75.860463
 20
483.310436
 30
0.0
 11
-166.860463
 21
483.310436
 31
0.0
  0
LINE
  5
D9
100
AcDbEntity
  8
0
370
    -3
390
0
  6
Continuous
100
AcDbLine
 10
-181.860463
 20
543.310436
 30
0.0
 11
-181.860463
 21
348.310436
 31
0.0
  0
LINE
  5
DA
100
AcDbEntity
  8
0
370
    -3
390
0
  6
Continuous
100
AcDbLine
 10
-87.860463
 20
543.310436
 30
0.0
 11
-181.860463
 21
543.310436
 31
0.0
  0
ARC
  5
DB
100
AcDbEntity
  8
0
370
    -3
390
0
  6
Continuous
100
AcDbCircle
 10
-130.860463
 20
348.310436
 30
0.0
 40
17.5
100
AcDbArc
 50
270.0
 51
90.0
  0
LINE
  5
DC
100
AcDbEntity
  8
0
370
    -3
390
0
  6
Continuous
100
AcDbLine
 10
-166.860463
 20
365.810436
 30
0.0
 11
-130.860463
 21
365.810436
 31
0.0
  0
LINE
  5
DD
100
AcDbEntity
  8
0
370
    -3
390
0
  6
Continuous
100
AcDbLine
 10
-166.860463
 20
330.810436
 30
0.0
 11
-130.860463
 21
330.810436
 31
0.0
  0
ARC
  5
DE
100
AcDbEntity
  8
0
370
    -3
390
0
  6
Continuous
100
AcDbCircle
 10
-166.860463
 20
327.810436
 30
0.0
 40
3.0
100
AcDbArc
 50
90.0
 51
180.0
  0
ARC
  5
DF
100
AcDbEntity
  8
0
370
    -3
390
0
  6
Continuous
100
AcDbCircle
 10
-166.860463
 20
368.810436
 30
0.0
 40
3.0
100
AcDbArc
 50
180.0
 51
270.0
  0
LINE
  5
E0
100
AcDbEntity
  8
0
370
    -3
390
0
  6
Continuous
100
AcDbLine
 10
-197.360462
 20
491.325674
 30
0.0
 11
-200.360462
 21
490.233767
 31
0.0
  0
LINE
  5
E1
100
AcDbEntity
  8
0
370
    -3
390
0
  6
Continuous
100
AcDbLine
 10
-200.360462
 20
491.285006
 30
0.0
 11
-197.360462
 21
492.376913
 31
0.0
  0
LINE
  5
E2
100
AcDbEntity
  8
0
370
    -3
390
0
  6
Continuous
100
AcDbLine
 10
-211.660439
 20
500.310436
 30
0.0
 11
-211.660439
 21
482.310436
 31
0.0
  0
LINE
  5
E3
100
AcDbEntity
  8
0
370
    -3
390
0
  6
Continuous
100
AcDbLine
 10
-211.660425
 20
482.310433
 30
0.0
 11
-212.360422
 21
483.522697
 31
0.0
  0
LINE
  5
E4
100
AcDbEntity
  8
0
370
    -3
390
0
  6
Continuous
100
AcDbLine
 10
-211.660444
 20
500.310437
 30
0.0
 11
-212.360441
 21
499.097777
 31
0.0
  0
LINE
  5
E5
100
AcDbEntity
  8
0
370
    -3
390
0
  6
Continuous
100
AcDbLine
 10
-197.360463
 20
480.560436
 30
0.0
 11
-200.360463
 21
480.560436
 31
0.0
  0
LINE
  5
E6
100
AcDbEntity
  8
0
370
    -3
390
0
  6
Continuous
100
AcDbLine
 10
-197.360463
 20
502.060436
 30
0.0
 11
-200.360463
 21
502.060436
 31
0.0
  0
LINE
  5
E7
100
AcDbEntity
  8
0
370
    -3
390
0
  6
Continuous
100
AcDbLine
 10
-200.360463
 20
500.310436
 30
0.0
 11
-211.660439
 21
500.310436
 31
0.0
  0
LINE
  5
E8
100
AcDbEntity
  8
0
370
    -3
390
0
  6
Continuous
100
AcDbLine
 10
-200.360463
 20
482.310436
 30
0.0
 11
-211.660424
 21
482.310436
 31
0.0
  0
LINE
  5
E9
100
AcDbEntity
  8
0
370
    -3
390
0
  6
Continuous
100
AcDbLine
 10
-212.360421
 20
483.522701
 30
0.0
 11
-212.360436
 21
499.097776
 31
0.0
  0
LINE
  5
EA
100
AcDbEntity
  8
0
370
    -3
390
0
  6
Continuous
100
AcDbLine
 10
-200.360463
 20
480.560436
 30
0.0
 11
-200.360463
 21
502.060436
 31
0.0
  0
LINE
  5
EB
100
AcDbEntity
  8
0
370
    -3
390
0
  6
Continuous
100
AcDbLine
 10
-197.360463
 20
502.060436
 30
0.0
 11
-197.360463
 21
480.560436
 31
0.0
  0
POINT
  5
EC
100
AcDbEntity
  8
0
370
    -3
390
0
  6
Continuous
100
AcDbPoint
 10
-197.360463
 20
491.310436
 30
0.0
  0
LINE
  5
ED
100
AcDbEntity
  8
0
370
    -3
390
0
  6
Continuous
100
AcDbLine
 10
-197.360462
 20
429.325674
 30
0.0
 11
-200.360462
 21
428.233767
 31
0.0
  0
LINE
  5
EE
100
AcDbEntity
  8
0
370
    -3
390
0
  6
Continuous
100
AcDbLine
 10
-200.360462
 20
429.285006
 30
0.0
 11
-197.360462
 21
430.376913
 31
0.0
  0
LINE
  5
EF
100
AcDbEntity
  8
0
370
    -3
390
0
  6
Continuous
100
AcDbLine
 10
-211.660439
 20
438.310436
 30
0.0
 11
-211.660439
 21
420.310436
 31
0.0
  0
LINE
  5
F0
100
AcDbEntity
  8
0
370
    -3
390
0
  6
Continuous
100
AcDbLine
 10
-211.660425
 20
420.310433
 30
0.0
 11
-212.360422
 21
421.522697
 31
0.0
  0
LINE
  5
F1
100
AcDbEntity
  8
0
370
    -3
390
0
  6
Continuous
100
AcDbLine
 10
-211.660444
 20
438.310437
 30
0.0
 11
-212.360441
 21
437.097777
 31
0.0
  0
LINE
  5
F2
100
AcDbEntity
  8
0
370
    -3
390
0
  6
Continuous
100
AcDbLine
 10
-197.360463
 20
418.560436
 30
0.0
 11
-200.360463
 21
418.560436
 31
0.0
  0
LINE
  5
F3
100
AcDbEntity
  8
0
370
    -3
390
0
  6
Continuous
100
AcDbLine
 10
-197.360463
 20
440.060436
 30
0.0
 11
-200.360463
 21
440.060436
 31
0.0
  0
LINE
  5
F4
100
AcDbEntity
  8
0
370
    -3
390
0
  6
Continuous
100
AcDbLine
 10
-200.360463
 20
438.310436
 30
0.0
 11
-211.660439
 21
438.310436
 31
0.0
  0
LINE
  5
F5
100
AcDbEntity
  8
0
370
    -3
390
0
  6
Continuous
100
AcDbLine
 10
-200.360463
 20
420.310436
 30
0.0
 11
-211.660424
 21
420.310436
 31
0.0
  0
LINE
  5
F6
100
AcDbEntity
  8
0
370
    -3
390
0
  6
Continuous
100
AcDbLine
 10
-212.360421
 20
421.522701
 30
0.0
 11
-212.360436
 21
437.097776
 31
0.0
  0
LINE
  5
F7
100
AcDbEntity
  8
0
370
    -3
390
0
  6
Continuous
100
AcDbLine
 10
-200.360463
 20
418.560436
 30
0.0
 11
-200.360463
 21
440.060436
 31
0.0
  0
LINE
  5
F8
100
AcDbEntity
  8
0
370
    -3
390
0
  6
Continuous
100
AcDbLine
 10
-197.360463
 20
440.060436
 30
0.0
 11
-197.360463
 21
418.560436
 31
0.0
  0
POINT
  5
F9
100
AcDbEntity
  8
0
370
    -3
390
0
  6
Continuous
100
AcDbPoint
 10
-197.360463
 20
429.310436
 30
0.0
  0
LINE
  5
FA
100
AcDbEntity
  8
0
370
    -3
390
0
  6
Continuous
100
AcDbLine
 10
-197.360462
 20
267.295199
 30
0.0
 11
-200.360462
 21
268.387105
 31
0.0
  0
LINE
  5
FB
100
AcDbEntity
  8
0
370
    -3
390
0
  6
Continuous
100
AcDbLine
 10
-200.360462
 20
267.335867
 30
0.0
 11
-197.360462
 21
266.24396
 31
0.0
  0
LINE
  5
FC
100
AcDbEntity
  8
0
370
    -3
390
0
  6
Continuous
100
AcDbLine
 10
-211.660439
 20
258.310436
 30
0.0
 11
-211.660439
 21
276.310436
 31
0.0
  0
LINE
  5
FD
100
AcDbEntity
  8
0
370
    -3
390
0
  6
Continuous
100
AcDbLine
 10
-211.660425
 20
276.310439
 30
0.0
 11
-212.360422
 21
275.098175
 31
0.0
  0
LINE
  5
FE
100
AcDbEntity
  8
0
370
    -3
390
0
  6
Continuous
100
AcDbLine
 10
-211.660444
 20
258.310435
 30
0.0
 11
-212.360441
 21
259.523095
 31
0.0
  0
LINE
  5
FF
100
AcDbEntity
  8
0
370
    -3
390
0
  6
Continuous
100
AcDbLine
 10
-197.360463
 20
278.060436
 30
0.0
 11
-200.360463
 21
278.060436
 31
0.0
  0
LINE
  5
100
100
AcDbEntity
  8
0
370
    -3
390
0
  6
Continuous
100
AcDbLine
 10
-197.360463
 20
256.560436
 30
0.0
 11
-200.360463
 21
256.560436
 31
0.0
  0
LINE
  5
101
100
AcDbEntity
  8
0
370
    -3
390
0
  6
Continuous
100
AcDbLine
 10
-200.360463
 20
258.310436
 30
0.0
 11
-211.660439
 21
258.310436
 31
0.0
  0
LINE
  5
102
100
AcDbEntity
  8
0
370
    -3
390
0
  6
Continuous
100
AcDbLine
 10
-200.360463
 20
276.310436
 30
0.0
 11
-211.660424
 21
276.310436
 31
0.0
  0
LINE
  5
103
100
AcDbEntity
  8
0
370
    -3
390
0
  6
Continuous
100
AcDbLine
 10
-212.360421
 20
275.098172
 30
0.0
 11
-212.360436
 21
259.523096
 31
0.0
  0
LINE
  5
104
100
AcDbEntity
  8
0
370
    -3
390
0
  6
Continuous
100
AcDbLine
 10
-200.360463
 20
278.060436
 30
0.0
 11
-200.360463
 21
256.560436
 31
0.0
  0
LINE
  5
105
100
AcDbEntity
  8
0
370
    -3
390
0
  6
Continuous
100
AcDbLine
 10
-197.360463
 20
256.560436
 30
0.0
 11
-197.360463
 21
278.060436
 31
0.0
  0
POINT
  5
106
100
AcDbEntity
  8
0
370
    -3
390
0
  6
Continuous
100
AcDbPoint
 10
-197.360463
 20
267.310436
 30
0.0
  0
LINE
  5
107
100
AcDbEntity
  8
0
370
    -3
390
0
  6
Continuous
100
AcDbLine
 10
-197.360462
 20
205.295199
 30
0.0
 11
-200.360462
 21
206.387105
 31
0.0
  0
LINE
  5
108
100
AcDbEntity
  8
0
370
    -3
390
0
  6
Continuous
100
AcDbLine
 10
-200.360462
 20
205.335867
 30
0.0
 11
-197.360462
 21
204.24396
 31
0.0
  0
LINE
  5
109
100
AcDbEntity
  8
0
370
    -3
390
0
  6
Continuous
100
AcDbLine
 10
-211.660439
 20
196.310436
 30
0.0
 11
-211.660439
 21
214.310436
 31
0.0
  0
LINE
  5
10A
100
AcDbEntity
  8
0
370
    -3
390
0
  6
Continuous
100
AcDbLine
 10
-211.660425
 20
214.310439
 30
0.0
 11
-212.360422
 21
213.098175
 31
0.0
  0
LINE
  5
10B
100
AcDbEntity
  8
0
370
    -3
390
0
  6
Continuous
100
AcDbLine
 10
-211.660444
 20
196.310435
 30
0.0
 11
-212.360441
 21
197.523095
 31
0.0
  0
LINE
  5
10C
100
AcDbEntity
  8
0
370
    -3
390
0
  6
Continuous
100
AcDbLine
 10
-197.360463
 20
216.060436
 30
0.0
 11
-200.360463
 21
216.060436
 31
0.0
  0
LINE
  5
10D
100
AcDbEntity
  8
0
370
    -3
390
0
  6
Continuous
100
AcDbLine
 10
-197.360463
 20
194.560436
 30
0.0
 11
-200.360463
 21
194.560436
 31
0.0
  0
LINE
  5
10E
100
AcDbEntity
  8
0
370
    -3
390
0
  6
Continuous
100
AcDbLine
 10
-200.360463
 20
196.310436
 30
0.0
 11
-211.660439
 21
196.310436
 31
0.0
  0
LINE
  5
10F
100
AcDbEntity
  8
0
370
    -3
390
0
  6
Continuous
100
AcDbLine
 10
-200.360463
 20
214.310436
 30
0.0
 11
-211.660424
 21
214.310436
 31
0.0
  0
LINE
  5
110
100
AcDbEntity
  8
0
370
    -3
390
0
  6
Continuous
100
AcDbLine
 10
-212.360421
 20
213.098172
 30
0.0
 11
-212.360436
 21
197.523096
 31
0.0
  0
LINE
  5
111
100
AcDbEntity
  8
0
370
    -3
390
0
  6
Continuous
100
AcDbLine
 10
-200.360463
 20
216.060436
 30
0.0
 11
-200.360463
 21
194.560436
 31
0.0
  0
LINE
  5
112
100
AcDbEntity
  8
0
370
    -3
390
0
  6
Continuous
100
AcDbLine
 10
-197.360463
 20
194.560436
 30
0.0
 11
-197.360463
 21
216.060436
 31
0.0
  0
POINT
  5
113
100
AcDbEntity
  8
0
370
    -3
390
0
  6
Continuous
100
AcDbPoint
 10
-197.360463
 20
205.310436
 30
0.0
  0
ARC
  5
114
100
AcDbEntity
  8
0
370
    -3
390
0
  6
Continuous
100
AcDbCircle
 10
-342.860463
 20
159.310436
 30
0.0
 40
6.0
100
AcDbArc
 50
180.0
 51
270.0
  0
LINE
  5
115
100
AcDbEntity
  8
0
370
    -3
390
0
  6
Continuous
100
AcDbLine
 10
-348.860463
 20
159.310436
 30
0.0
 11
-348.860463
 21
178.840436
 31
0.0
  0
LINE
  5
116
100
AcDbEntity
  8
0
370
    -3
390
0
  6
Continuous
100
AcDbLine
 10
-348.860463
 20
178.840436
 30
0.0
 11
-348.860463
 21
209.168301
 31
0.0
  0
LINE
  5
117
100
AcDbEntity
  8
0
370
    -3
390
0
  6
Continuous
100
AcDbLine
 10
-348.860463
 20
537.310436
 30
0.0
 11
-348.860463
 21
507.310436
 31
0.0
  0
LINE
  5
118
100
AcDbEntity
  8
0
370
    -3
390
0
  6
Continuous
100
AcDbLine
 10
-181.860463
 20
153.310436
 30
0.0
 11
-342.860463
 21
153.310436
 31
0.0
  0
INSERT
  5
120
100
AcDbEntity
  8
0
390
0
100
AcDbBlockReference
  2
ZU_SYM_C__ZUOU_AC_BLOCK_BLKF030_00
 10
-1011.43573
 20
62.22332
 30
0.0
  0
INSERT
  5
131
100
AcDbEntity
  8
0
390
0
100
AcDbBlockReference
  2
ZU_SYM_K__CAD_SYM_POO_SYM_B21_20
 10
-235.360463
 20
504.310436
 30
0.0
  0
INSERT
  5
142
100
AcDbEntity
  8
0
390
0
100
AcDbBlockReference
  2
ZU_SYM_K__CAD_SYM_POO_SYM_B21_0000120
 10
-235.360463
 20
413.774097
 30
0.0
  0
INSERT
  5
153
100
AcDbEntity
  8
0
390
0
100
AcDbBlockReference
  2
ZU_SYM_K__CAD_SYM_POO_SYM_B21_0000220
 10
-235.360463
 20
282.846775
 30
0.0
  0
INSERT
  5
164
100
AcDbEntity
  8
0
390
0
100
AcDbBlockReference
  2
ZU_SYM_K__CAD_SYM_POO_SYM_B21_0000320
 10
-235.360463
 20
192.310436
 30
0.0
  0
INSERT
  5
175
100
AcDbEntity
  8
0
390
0
100
AcDbBlockReference
  2
ZU_SYM_K__CAD_SYM_POO_SYM_B21_0000420
 10
-331.360463
 20
472.152067
 30
0.0
 50
180.0
  0
INSERT
  5
186
100
AcDbEntity
  8
0
390
0
100
AcDbBlockReference
  2
ZU_SYM_K__CAD_SYM_POO_SYM_B21_0000520
 10
-331.360463
 20
276.810435
 30
0.0
 50
180.0
  0
INSERT
  5
1A5
100
AcDbEntity
  8
0
390
0
100
AcDbBlockReference
  2
ZU_SYM_C__ZUOU_AC_BLOCK_BLKF052_00
 10
-947.34316
 20
-519.051504
 30
0.0
  0
INSERT
  5
1C4
100
AcDbEntity
  8
0
390
0
100
AcDbBlockReference
  2
ZU_SYM_C__ZUOU_AC_BLOCK_BLKF052_0000600
 10
-947.34316
 20
1268.014009
 30
0.0
 41
-1.0
 50
180.0
  0
INSERT
  5
1D4
100
AcDbEntity
  8
0
390
0
100
AcDbBlockReference
  2
ZU_SYM_C__ZUOU_AC_BLOCK_BLKF071_00
 10
-996.525081
 20
-546.199618
 30
0.0
  0
INSERT
  5
1E4
100
AcDbEntity
  8
0
390
0
100
AcDbBlockReference
  2
ZU_SYM_C__ZUOU_AC_BLOCK_BLKF073_00
 10
-996.525081
 20
-546.199618
 30
0.0
  0
INSERT
  5
1EE
100
AcDbEntity
  8
0
390
0
100
AcDbBlockReference
  2
ZU_SYM_C__ZUOU_AC_BLOCK_BLKF074_00
 10
-996.525081
 20
-546.199618
 30
0.0
  0
INSERT
  5
1FE
100
AcDbEntity
  8
0
390
0
100
AcDbBlockReference
  2
ZU_SYM_C__ZUOU_AC_BLOCK_BLKF064_00
 10
-996.525081
 20
-546.199618
 30
0.0
  0
INSERT
  5
20E
100
AcDbEntity
  8
0
390
0
100
AcDbBlockReference
  2
ZU_SYM_C__ZUOU_AC_BLOCK_BLKF066_00
 10
-996.525081
 20
-546.199618
 30
0.0
  0
LINE
  5
20F
100
AcDbEntity
  8
0
370
    -3
390
0
  6
Continuous
100
AcDbLine
 10
-460.360463
 20
244.682703
 30
0.0
 11
-460.360463
 21
242.276815
 31
0.0
  0
LINE
  5
210
100
AcDbEntity
  8
0
370
    -3
390
0
  6
Continuous
100
AcDbLine
 10
-460.360463
 20
435.311279
 30
0.0
 11
-460.360463
 21
437.971981
 31
0.0
  0
LINE
  5
211
100
AcDbEntity
  8
0
370
    -3
390
0
  6
Continuous
100
AcDbLine
 10
-460.360463
 20
451.938168
 30
0.0
 11
-460.360463
 21
454.344056
 31
0.0
  0
LINE
  5
212
100
AcDbEntity
  8
0
370
    -3
390
0
  6
Continuous
100
AcDbLine
 10
-460.360463
 20
261.309593
 30
0.0
 11
-460.360463
 21
258.64889
 31
0.0
  0
LINE
  5
213
100
AcDbEntity
  8
0
370
    -3
390
0
  6
Continuous
100
AcDbLine
 10
-717.688125
 20
125.142238
 30
0.0
 11
-590.429807
 21
125.142238
 31
0.0
  0
LINE
  5
214
100
AcDbEntity
  8
0
370
    -3
390
0
  6
Continuous
100
AcDbLine
 10
-714.743093
 20
82.0174
 30
0.0
 11
-595.977834
 21
82.0174
 31
0.0
  0
LINE
  5
215
100
AcDbEntity
  8
0
370
    -3
390
0
  6
Continuous
100
AcDbLine
 10
-694.273903
 20
86.328572
 30
0.0
 11
-616.447024
 21
86.328572
 31
0.0
  0
LINE
  5
216
100
AcDbEntity
  8
0
370
    -3
390
0
  6
Continuous
100
AcDbLine
 10
-600.914062
 20
95.233128
 30
0.0
 11
-592.401455
 21
95.233128
 31
0.0
  0
ARC
  5
217
100
AcDbEntity
  8
0
370
    -3
390
0
  6
Continuous
100
AcDbCircle
 10
-600.914062
 20
84.233128
 30
0.0
 40
11.0
100
AcDbArc
 50
90.0
 51
149.64857
  0
ARC
  5
218
100
AcDbEntity
  8
0
370
    -3
390
0
  6
Continuous
100
AcDbCircle
 10
-595.977834
 20
94.0174
 30
0.0
 40
12.0
100
AcDbArc
 50
270.0
 51
345.833187
  0
ARC
  5
219
100
AcDbEntity
  8
0
370
    -3
390
0
  6
Continuous
100
AcDbCircle
 10
-616.447024
 20
93.328572
 30
0.0
 40
7.0
100
AcDbArc
 50
270.0
 51
329.64857
  0
ARC
  5
21A
100
AcDbEntity
  8
0
370
    -3
390
0
  6
Continuous
100
AcDbCircle
 10
-592.401455
 20
102.233128
 30
0.0
 40
7.0
100
AcDbArc
 50
270.0
 51
348.753311
  0
LINE
  5
21B
100
AcDbEntity
  8
0
370
    -3
390
0
  6
Continuous
100
AcDbLine
 10
-709.806865
 20
95.233128
 30
0.0
 11
-718.319472
 21
95.233128
 31
0.0
  0
ARC
  5
21C
100
AcDbEntity
  8
0
370
    -3
390
0
  6
Continuous
100
AcDbCircle
 10
-709.806865
 20
84.233128
 30
0.0
 40
11.0
100
AcDbArc
 50
30.35143
 51
90.0
  0
ARC
  5
21D
100
AcDbEntity
  8
0
370
    -3
390
0
  6
Continuous
100
AcDbCircle
 10
-714.743093
 20
94.0174
 30
0.0
 40
12.0
100
AcDbArc
 50
194.166813
 51
270.0
  0
ARC
  5
21E
100
AcDbEntity
  8
0
370
    -3
390
0
  6
Continuous
100
AcDbCircle
 10
-694.273903
 20
93.328572
 30
0.0
 40
7.0
100
AcDbArc
 50
210.35143
 51
270.0
  0
ARC
  5
21F
100
AcDbEntity
  8
0
370
    -3
390
0
  6
Continuous
100
AcDbCircle
 10
-718.319472
 20
102.233128
 30
0.0
 40
7.0
100
AcDbArc
 50
191.246689
 51
270.0
  0
LINE
  5
220
100
AcDbEntity
  8
0
370
    -3
390
0
  6
CENTER
100
AcDbLine
 10
-597.860463
 20
90.448794
 30
0.0
 11
-597.860463
 21
80.017348
 31
0.0
  0
LINE
  5
221
100
AcDbEntity
  8
0
370
    -3
390
0
  6
CENTER
100
AcDbLine
 10
-591.84166
 20
86.228986
 30
0.0
 11
-603.74037
 21
86.228986
 31
0.0
  0
ELLIPSE
  5
222
100
AcDbEntity
  8
0
370
    -3
390
0
  6
Continuous
100
AcDbEllipse
 10
-597.860463
 20
86.228986
 30
0.0
 11
4.5
 21
0.0
 31
0.0
210
0.0
220
0.0
230
1.0
 40
0.727273
 41
0.0
 42
6.2831853071795862
  0
LINE
  5
223
100
AcDbEntity
  8
0
370
    -3
390
0
  6
Continuous
100
AcDbLine
 10
-596.163405
 20
87.92604
 30
0.0
 11
-599.557521
 21
84.531932
 31
0.0
  0
LINE
  5
224
100
AcDbEntity
  8
0
370
    -3
390
0
  6
Continuous
100
AcDbLine
 10
-599.557516
 20
87.926045
 30
0.0
 11
-596.16341
 21
84.531927
 31
0.0
  0
LINE
  5
225
100
AcDbEntity
  8
0
370
    -3
390
0
  6
CENTER
100
AcDbLine
 10
-706.84166
 20
86.228986
 30
0.0
 11
-718.74037
 21
86.228986
 31
0.0
  0
LINE
  5
226
100
AcDbEntity
  8
0
370
    -3
390
0
  6
CENTER
100
AcDbLine
 10
-712.860463
 20
90.448794
 30
0.0
 11
-712.860463
 21
80.017348
 31
0.0
  0
ELLIPSE
  5
227
100
AcDbEntity
  8
0
370
    -3
390
0
  6
Continuous
100
AcDbEllipse
 10
-712.860463
 20
86.228986
 30
0.0
 11
4.5
 21
0.0
 31
0.0
210
0.0
220
0.0
230
1.0
 40
0.727273
 41
0.0
 42
6.2831853071795862
  0
LINE
  5
228
100
AcDbEntity
  8
0
370
    -3
390
0
  6
Continuous
100
AcDbLine
 10
-711.16341
 20
87.926045
 30
0.0
 11
-714.557516
 21
84.531927
 31
0.0
  0
LINE
  5
229
100
AcDbEntity
  8
0
370
    -3
390
0
  6
Continuous
100
AcDbLine
 10
-714.557521
 20
87.92604
 30
0.0
 11
-711.163405
 21
84.531932
 31
0.0
  0
ARC
  5
22A
100
AcDbEntity
  8
0
370
    -3
390
0
  6
Continuous
100
AcDbCircle
 10
-775.237266
 20
139.266547
 30
0.0
 40
196.882204
100
AcDbArc
 50
345.833187
 51
14.40704
  0
ARC
  5
22B
100
AcDbEntity
  8
0
370
    -3
390
0
  6
Continuous
100
AcDbCircle
 10
-778.637266
 20
139.266547
 30
0.0
 40
196.882204
100
AcDbArc
 50
348.753311
 51
12.259471
  0
ARC
  5
22C
100
AcDbEntity
  8
0
370
    -3
390
0
  6
Continuous
100
AcDbCircle
 10
-535.483661
 20
139.266547
 30
0.0
 40
196.882204
100
AcDbArc
 50
165.59296
 51
194.166813
  0
ARC
  5
22D
100
AcDbEntity
  8
0
370
    -3
390
0
  6
Continuous
100
AcDbCircle
 10
-532.083661
 20
139.266547
 30
0.0
 40
196.882204
100
AcDbArc
 50
167.740529
 51
191.246689
  0
LINE
  5
22E
100
AcDbEntity
  8
0
370
    -3
390
0
  6
CENTER
100
AcDbLine
 10
-655.360463
 20
66.085259
 30
0.0
 11
-655.360463
 21
251.133096
 31
0.0
  0
ARC
  5
22F
100
AcDbEntity
  8
0
370
    -3
390
0
  6
Continuous
100
AcDbCircle
 10
-733.955737
 20
195.810436
 30
0.0
 40
3.0
100
AcDbArc
 50
216.869898
 51
270.0
  0
LINE
  5
230
100
AcDbEntity
  8
0
370
    -3
390
0
  6
Continuous
100
AcDbLine
 10
-732.56105
 20
279.252408
 30
0.0
 11
-735.360463
 21
282.931429
 31
0.0
  0
LINE
  5
231
100
AcDbEntity
  8
0
370
    -3
390
0
  6
Continuous
100
AcDbLine
 10
-676.360463
 20
282.931429
 30
0.0
 11
-735.360463
 21
282.931429
 31
0.0
  0
LINE
  5
232
100
AcDbEntity
  8
0
370
    -3
390
0
  6
Continuous
100
AcDbLine
 10
-676.360463
 20
277.674582
 30
0.0
 11
-729.377801
 21
277.674582
 31
0.0
  0
ELLIPSE
  5
233
100
AcDbEntity
  8
0
370
    -3
390
0
  6
Continuous
100
AcDbEllipse
 10
-724.360463
 20
271.429034
 30
0.0
 11
7.0
 21
0.0
 31
0.0
210
0.0
220
0.0
230
1.0
 40
0.892221
 41
1.5786489530372321
 42
3.1415926535897931
  0
ARC
  5
234
100
AcDbEntity
  8
0
370
    -3
390
0
  6
Continuous
100
AcDbCircle
 10
-729.377801
 20
281.674582
 30
0.0
 40
4.0
100
AcDbArc
 50
217.267959
 51
270.0
  0
ARC
  5
235
100
AcDbEntity
  8
0
370
    -3
390
0
  6
Continuous
100
AcDbCircle
 10
-757.450438
 20
271.429034
 30
0.0
 40
26.089975
100
AcDbArc
 50
0.0
 51
17.449275
  0
LINE
  5
236
100
AcDbEntity
  8
0
370
    -3
390
0
  6
Continuous
100
AcDbLine
 10
-676.360463
 20
284.515819
 30
0.0
 11
-676.360463
 21
377.196049
 31
0.0
  0
LINE
  5
237
100
AcDbEntity
  8
0
370
    -3
390
0
  6
Continuous
100
AcDbLine
 10
-676.360463
 20
278.117266
 30
0.0
 11
-676.360463
 21
284.515819
 31
0.0
  0
LINE
  5
238
100
AcDbEntity
  8
0
370
    -3
390
0
  6
Continuous
100
AcDbLine
 10
-775.360463
 20
498.810436
 30
0.0
 11
-775.360463
 21
197.810436
 31
0.0
  0
LINE
  5
239
100
AcDbEntity
  8
0
370
    -3
390
0
  6
Continuous
100
AcDbLine
 10
-736.860463
 20
502.03651
 30
0.0
 11
-736.860463
 21
194.533296
 31
0.0
  0
LINE
  5
23A
100
AcDbEntity
  8
0
370
    -3
390
0
  6
Continuous
100
AcDbLine
 10
-735.360463
 20
194.010436
 30
0.0
 11
-735.360463
 21
502.610436
 31
0.0
  0
LINE
  5
23B
100
AcDbEntity
  8
0
370
    -3
390
0
  6
Continuous
100
AcDbLine
 10
-772.360463
 20
194.810436
 30
0.0
 11
-737.955737
 21
194.810436
 31
0.0
  0
ARC
  5
23C
100
AcDbEntity
  8
0
370
    -3
390
0
  6
Continuous
100
AcDbCircle
 10
-737.955737
 20
192.810436
 30
0.0
 40
2.0
100
AcDbArc
 50
36.869898
 51
90.0
  0
LINE
  5
23D
100
AcDbEntity
  8
0
370
    -3
390
0
  6
Continuous
100
AcDbLine
 10
-676.360463
 20
256.003607
 30
0.0
 11
-676.360463
 21
278.117266
 31
0.0
  0
LINE
  5
23E
100
AcDbEntity
  8
0
370
    -3
390
0
  6
Continuous
100
AcDbLine
 10
-684.360463
 20
218.312273
 30
0.0
 11
-697.360463
 21
218.312273
 31
0.0
  0
ARC
  5
23F
100
AcDbEntity
  8
0
370
    -3
390
0
  6
Continuous
100
AcDbCircle
 10
-697.360463
 20
214.312273
 30
0.0
 40
4.0
100
AcDbArc
 50
90.0
 51
180.0
  0
LINE
  5
240
100
AcDbEntity
  8
0
370
    -3
390
0
  6
Continuous
100
AcDbLine
 10
-680.360463
 20
249.18257
 30
0.0
 11
-680.360463
 21
222.312273
 31
0.0
  0
ARC
  5
241
100
AcDbEntity
  8
0
370
    -3
390
0
  6
Continuous
100
AcDbCircle
 10
-684.360463
 20
222.312273
 30
0.0
 40
4.0
100
AcDbArc
 50
270.0
 51
0.0
  0
ARC
  5
242
100
AcDbEntity
  8
0
370
    -3
390
0
  6
Continuous
100
AcDbCircle
 10
-743.664858
 20
262.76878
 30
0.0
 40
12.304395
100
AcDbArc
 50
334.478825
 51
0.0
  0
ARC
  5
243
100
AcDbEntity
  8
0
370
    -3
390
0
  6
Continuous
100
AcDbCircle
 10
-729.377801
 20
265.951587
 30
0.0
 40
9.061615
100
AcDbArc
 50
249.433801
 51
270.0
  0
ELLIPSE
  5
244
100
AcDbEntity
  8
0
370
    -3
390
0
  6
Continuous
100
AcDbEllipse
 10
-724.360463
 20
262.76878
 30
0.0
 11
7.0
 21
0.0
 31
0.0
210
0.0
220
0.0
230
1.0
 40
0.83983
 41
3.1415926535897931
 42
4.7123889803846897
  0
LINE
  5
245
100
AcDbEntity
  8
0
370
    -3
390
0
  6
Continuous
100
AcDbLine
 10
-676.360463
 20
256.889972
 30
0.0
 11
-729.377801
 21
256.889972
 31
0.0
  0
LINE
  5
246
100
AcDbEntity
  8
0
370
    -3
390
0
  6
Continuous
100
AcDbLine
 10
-731.360463
 20
271.429034
 30
0.0
 11
-731.360463
 21
262.76878
 31
0.0
  0
LINE
  5
247
100
AcDbEntity
  8
0
370
    -3
390
0
  6
Continuous
100
AcDbLine
 10
-712.360463
 20
267.560437
 30
0.0
 11
-717.360463
 21
270.060438
 31
0.0
  0
LINE
  5
248
100
AcDbEntity
  8
0
370
    -3
390
0
  6
Continuous
100
AcDbLine
 10
-712.360463
 20
262.560435
 30
0.0
 11
-712.360463
 21
267.560437
 31
0.0
  0
LINE
  5
249
100
AcDbEntity
  8
0
370
    -3
390
0
  6
Continuous
100
AcDbLine
 10
-717.360463
 20
260.060434
 30
0.0
 11
-712.360463
 21
262.560435
 31
0.0
  0
LINE
  5
24A
100
AcDbEntity
  8
0
370
    -3
390
0
  6
Continuous
100
AcDbLine
 10
-722.360463
 20
262.560435
 30
0.0
 11
-717.360463
 21
260.060434
 31
0.0
  0
LINE
  5
24B
100
AcDbEntity
  8
0
370
    -3
390
0
  6
Continuous
100
AcDbLine
 10
-722.360463
 20
267.560437
 30
0.0
 11
-722.360463
 21
262.560435
 31
0.0
  0
LINE
  5
24C
100
AcDbEntity
  8
0
370
    -3
390
0
  6
Continuous
100
AcDbLine
 10
-717.360463
 20
270.060438
 30
0.0
 11
-722.360463
 21
267.560437
 31
0.0
  0
LINE
  5
24D
100
AcDbEntity
  8
0
370
    -3
390
0
  6
CENTER
100
AcDbLine
 10
-710.08696
 20
265.060436
 30
0.0
 11
-724.633965
 21
265.060436
 31
0.0
  0
LINE
  5
24E
100
AcDbEntity
  8
0
370
    -3
390
0
  6
CENTER
100
AcDbLine
 10
-717.360463
 20
273.65386
 30
0.0
 11
-717.360463
 21
256.889972
 31
0.0
  0
ELLIPSE
  5
24F
100
AcDbEntity
  8
0
370
    -3
390
0
  6
Continuous
100
AcDbEllipse
 10
-717.360463
 20
265.060436
 30
0.0
 11
5.0
 21
0.0
 31
0.0
210
0.0
220
0.0
230
1.0
 40
0.866
 41
0.0
 42
6.2831853071795862
  0
LINE
  5
250
100
AcDbEntity
  8
0
370
    -3
390
0
  6
Continuous
100
AcDbLine
 10
-732.56105
 20
257.467497
 30
0.0
 11
-735.360463
 21
258.814112
 31
0.0
  0
ARC
  5
251
100
AcDbEntity
  8
0
370
    -3
390
0
  6
Continuous
100
AcDbCircle
 10
-772.360463
 20
197.810436
 30
0.0
 40
3.0
100
AcDbArc
 50
180.0
 51
270.0
  0
ARC
  5
252
100
AcDbEntity
  8
0
370
    -3
390
0
  6
Continuous
100
AcDbCircle
 10
-778.360463
 20
198.945284
 30
0.0
 40
3.0
100
AcDbArc
 50
0.0
 51
35.0
  0
ARC
  5
253
100
AcDbEntity
  8
0
370
    -3
390
0
  6
Continuous
100
AcDbCircle
 10
-798.401597
 20
229.310436
 30
0.0
 40
2.0
100
AcDbArc
 50
35.0
 51
90.0
  0
ARC
  5
254
100
AcDbEntity
  8
0
370
    -3
390
0
  6
Continuous
100
AcDbCircle
 10
-798.360463
 20
234.310436
 30
0.0
 40
3.0
100
AcDbArc
 50
180.0
 51
270.0
  0
LINE
  5
255
100
AcDbEntity
  8
0
370
    -3
390
0
  6
Continuous
100
AcDbLine
 10
-796.763293
 20
230.457589
 30
0.0
 11
-775.903007
 21
200.666013
 31
0.0
  0
LINE
  5
256
100
AcDbEntity
  8
0
370
    -3
390
0
  6
Continuous
100
AcDbLine
 10
-797.360463
 20
465.310436
 30
0.0
 11
-797.360463
 21
231.310436
 31
0.0
  0
LINE
  5
257
100
AcDbEntity
  8
0
370
    -3
390
0
  6
Continuous
100
AcDbLine
 10
-801.360463
 20
462.310436
 30
0.0
 11
-801.360463
 21
234.310436
 31
0.0
  0
ARC
  5
258
100
AcDbEntity
  8
0
370
    -3
390
0
  6
Continuous
100
AcDbCircle
 10
-678.400231
 20
249.119595
 30
0.0
 40
1.961244
100
AcDbArc
 50
88.838149
 51
178.159931
  0
LINE
  5
259
100
AcDbEntity
  8
0
370
    -3
390
0
  6
Continuous
100
AcDbLine
 10
-676.360463
 20
253.080436
 30
0.0
 11
-676.360463
 21
256.003607
 31
0.0
  0
ARC
  5
25A
100
AcDbEntity
  8
0
370
    -3
390
0
  6
Continuous
100
AcDbCircle
 10
-678.360463
 20
253.080436
 30
0.0
 40
2.0
100
AcDbArc
 50
270.0
 51
0.0
  0
LINE
  5
25B
100
AcDbEntity
  8
0
370
    -3
390
0
  6
Continuous
100
AcDbLine
 10
-701.360463
 20
214.312273
 30
0.0
 11
-701.360463
 21
207.669181
 31
0.0
  0
LINE
  5
25C
100
AcDbEntity
  8
0
370
    -3
390
0
  6
Continuous
100
AcDbLine
 10
-726.626889
 20
192.810436
 30
0.0
 11
-733.955737
 21
192.810436
 31
0.0
  0
LINE
  5
25D
100
AcDbEntity
  8
0
370
    -3
390
0
  6
Continuous
100
AcDbLine
 10
-693.560463
 20
215.810436
 30
0.0
 11
-701.069305
 21
215.810436
 31
0.0
  0
LINE
  5
25E
100
AcDbEntity
  8
0
370
    -3
390
0
  6
Continuous
100
AcDbLine
 10
-617.160463
 20
215.810436
 30
0.0
 11
-597.579231
 21
215.810436
 31
0.0
  0
ELLIPSE
  5
25F
100
AcDbEntity
  8
0
370
    -3
390
0
  6
Continuous
100
AcDbEllipse
 10
-655.360463
 20
217.937576
 30
0.0
 11
38.199999999999932
 21
0.0
 31
0.0
210
0.0
220
0.0
230
1.0
 40
0.258819
 41
3.1036851999709651
 42
3.1415926535897927
  0
LINE
  5
260
100
AcDbEntity
  8
0
370
    -3
390
0
  6
Continuous
100
AcDbLine
 10
-663.360463
 20
293.078516
 30
0.0
 11
-663.360463
 21
296.090279
 31
0.0
  0
LINE
  5
261
100
AcDbEntity
  8
0
370
    -3
390
0
  6
Continuous
100
AcDbLine
 10
-676.360463
 20
298.630081
 30
0.0
 11
-663.360463
 21
296.090279
 31
0.0
  0
LINE
  5
262
100
AcDbEntity
  8
0
370
    -3
390
0
  6
Continuous
100
AcDbLine
 10
-663.360463
 20
293.078516
 30
0.0
 11
-676.360463
 21
295.618317
 31
0.0
  0
ELLIPSE
  5
263
100
AcDbEntity
  8
0
370
    -3
390
0
  6
Continuous
100
AcDbEllipse
 10
-655.360463
 20
218.892626
 30
0.0
 11
38.120649999999955
 21
0.0
 31
0.0
210
0.0
220
0.0
230
1.0
 40
0.258819
 41
6.2563090166113682
 42
0.1155116800963216
  0
ELLIPSE
  5
264
100
AcDbEntity
  8
0
370
    -3
390
0
  6
Continuous
100
AcDbEllipse
 10
-655.360463
 20
219.858552
 30
0.0
 11
37.872389999999996
 21
0.0
 31
0.0
210
0.0
220
0.0
230
1.0
 40
0.258819
 41
0.0174686037133903
 42
0.1673489271671269
  0
ELLIPSE
  5
265
100
AcDbEntity
  8
0
370
    -3
390
0
  6
Continuous
100
AcDbEllipse
 10
-655.360463
 20
220.824477
 30
0.0
 11
37.432069999999953
 21
0.0
 31
0.0
210
0.0
220
0.0
230
1.0
 40
0.258819
 41
0.0688807456463423
 42
0.2339773286568747
  0
ELLIPSE
  5
266
100
AcDbEntity
  8
0
370
    -3
390
0
  6
Continuous
100
AcDbEllipse
 10
-655.360463
 20
221.790403
 30
0.0
 11
36.74657000000002
 21
0.0
 31
0.0
210
0.0
220
0.0
230
1.0
 40
0.258819
 41
0.1350214053975197
 42
0.3384905472534591
  0
ELLIPSE
  5
267
100
AcDbEntity
  8
0
370
    -3
390
0
  6
Continuous
100
AcDbEllipse
 10
-655.360463
 20
222.756329
 30
0.0
 11
35.681369999999902
 21
0.0
 31
0.0
210
0.0
220
0.0
230
1.0
 40
0.258819
 41
0.2396709759358893
 42
0.6342225876158474
  0
ELLIPSE
  5
268
100
AcDbEntity
  8
0
370
    -3
390
0
  6
Continuous
100
AcDbEllipse
 10
-655.360463
 20
223.722255
 30
0.0
 11
33.60468000000003
 21
0.0
 31
0.0
210
0.0
220
0.0
230
1.0
 40
0.258819
 41
0.5446424185663211
 42
0.7348976727437829
  0
ARC
  5
269
100
AcDbEntity
  8
0
370
    -3
390
0
  6
Continuous
100
AcDbCircle
 10
-612.160463
 20
213.944887
 30
0.0
 40
5.0
100
AcDbArc
 50
180.0
 51
203.8787
  0
LINE
  5
26A
100
AcDbEntity
  8
0
370
    -3
390
0
  6
Continuous
100
AcDbLine
 10
-616.732486
 20
211.920879
 30
0.0
 11
-614.850284
 21
207.669181
 31
0.0
  0
LINE
  5
26B
100
AcDbEntity
  8
0
370
    -3
390
0
  6
Continuous
100
AcDbLine
 10
-617.160463
 20
213.944887
 30
0.0
 11
-617.160463
 21
217.937576
 31
0.0
  0
ELLIPSE
  5
26C
100
AcDbEntity
  8
0
370
    -3
390
0
  6
Continuous
100
AcDbEllipse
 10
-655.360463
 20
217.937576
 30
0.0
 11
38.199999999999932
 21
0.0
 31
0.0
210
0.0
220
0.0
230
1.0
 40
0.258819
 41
0.0
 42
0.0698371203334041
  0
ELLIPSE
  5
26D
100
AcDbEntity
  8
0
370
    -3
390
0
  6
Continuous
100
AcDbEllipse
 10
-655.360463
 20
223.722255
 30
0.0
 11
33.60468000000003
 21
0.0
 31
0.0
210
0.0
220
0.0
230
1.0
 40
0.258819
 41
0.7348976727437829
 42
2.4097495062190517
  0
ARC
  5
26E
100
AcDbEntity
  8
0
370
    -3
390
0
  6
Continuous
100
AcDbCircle
 10
-698.560463
 20
213.944887
 30
0.0
 40
5.0
100
AcDbArc
 50
336.1213
 51
0.0
  0
LINE
  5
26F
100
AcDbEntity
  8
0
370
    -3
390
0
  6
Continuous
100
AcDbLine
 10
-693.988441
 20
211.920879
 30
0.0
 11
-695.870643
 21
207.669181
 31
0.0
  0
LINE
  5
270
100
AcDbEntity
  8
0
370
    -3
390
0
  6
Continuous
100
AcDbLine
 10
-693.560463
 20
213.944887
 30
0.0
 11
-693.560463
 21
217.937576
 31
0.0
  0
LINE
  5
271
100
AcDbEntity
  8
0
370
    -3
390
0
  6
Continuous
100
AcDbLine
 10
-705.360463
 20
204.578219
 30
0.0
 11
-605.360463
 21
204.578219
 31
0.0
  0
LINE
  5
272
100
AcDbEntity
  8
0
370
    -3
390
0
  6
Continuous
100
AcDbLine
 10
-705.360463
 20
207.669181
 30
0.0
 11
-705.360463
 21
201.258757
 31
0.0
  0
LINE
  5
273
100
AcDbEntity
  8
0
370
    -3
390
0
  6
Continuous
100
AcDbLine
 10
-605.360463
 20
207.669181
 30
0.0
 11
-605.360463
 21
201.258757
 31
0.0
  0
LINE
  5
274
100
AcDbEntity
  8
0
370
    -3
390
0
  6
Continuous
100
AcDbLine
 10
-705.360463
 20
207.669181
 30
0.0
 11
-605.360463
 21
207.669181
 31
0.0
  0
LINE
  5
275
100
AcDbEntity
  8
0
370
    -3
390
0
  6
Continuous
100
AcDbLine
 10
-529.360463
 20
192.053431
 30
0.0
 11
-529.360463
 21
192.67772
 31
0.0
  0
LINE
  5
276
100
AcDbEntity
  8
0
370
    -3
390
0
  6
Continuous
100
AcDbLine
 10
-529.360463
 20
197.234242
 30
0.0
 11
-529.360463
 21
198.270471
 31
0.0
  0
LINE
  5
277
100
AcDbEntity
  8
0
370
    -3
390
0
  6
Continuous
100
AcDbLine
 10
-529.360463
 20
189.763545
 30
0.0
 11
-561.360463
 21
208.224993
 31
0.0
  0
LINE
  5
278
100
AcDbEntity
  8
0
370
    -3
390
0
  6
Continuous
100
AcDbLine
 10
-561.360463
 20
208.015703
 30
0.0
 11
-529.360463
 21
189.554255
 31
0.0
  0
LINE
  5
279
100
AcDbEntity
  8
0
370
    -3
390
0
  6
Continuous
100
AcDbLine
 10
-561.360463
 20
208.015703
 30
0.0
 11
-561.360463
 21
215.224549
 31
0.0
  0
LINE
  5
27A
100
AcDbEntity
  8
0
370
    -3
390
0
  6
Continuous
100
AcDbLine
 10
-529.360463
 20
189.763545
 30
0.0
 11
-529.360463
 21
189.554255
 31
0.0
  0
LINE
  5
27B
100
AcDbEntity
  8
0
370
    -3
390
0
  6
Continuous
100
AcDbLine
 10
-561.360463
 20
210.206895
 30
0.0
 11
-529.360463
 21
192.061327
 31
0.0
  0
LINE
  5
27C
100
AcDbEntity
  8
0
370
    -3
390
0
  6
Continuous
100
AcDbLine
 10
-529.360463
 20
192.685616
 30
0.0
 11
-561.360463
 21
210.831184
 31
0.0
  0
LINE
  5
27D
100
AcDbEntity
  8
0
370
    -3
390
0
  6
Continuous
100
AcDbLine
 10
-529.360463
 20
197.241865
 30
0.0
 11
-561.360463
 21
214.761076
 31
0.0
  0
LINE
  5
27E
100
AcDbEntity
  8
0
370
    -3
390
0
  6
Continuous
100
AcDbLine
 10
-529.360463
 20
198.270471
 30
0.0
 11
-560.328209
 21
215.224549
 31
0.0
  0
LINE
  5
27F
100
AcDbEntity
  8
0
370
    -3
390
0
  6
Continuous
100
AcDbLine
 10
-529.360463
 20
205.007228
 30
0.0
 11
-549.064698
 21
215.224549
 31
0.0
  0
LINE
  5
280
100
AcDbEntity
  8
0
370
    -3
390
0
  6
Continuous
100
AcDbLine
 10
-529.360463
 20
206.422552
 30
0.0
 11
-546.335227
 21
215.224549
 31
0.0
  0
LINE
  5
281
100
AcDbEntity
  8
0
370
    -3
390
0
  6
Continuous
100
AcDbLine
 10
-529.360463
 20
205.007228
 30
0.0
 11
-529.360463
 21
206.422552
 31
0.0
  0
LINE
  5
282
100
AcDbEntity
  8
0
370
    -3
390
0
  6
Continuous
100
AcDbLine
 10
-663.360463
 20
275.319641
 30
0.0
 11
-676.360463
 21
278.702606
 31
0.0
  0
LINE
  5
283
100
AcDbEntity
  8
0
370
    -3
390
0
  6
Continuous
100
AcDbLine
 10
-676.360463
 20
281.560138
 30
0.0
 11
-663.360463
 21
278.177173
 31
0.0
  0
LINE
  5
284
100
AcDbEntity
  8
0
370
    -3
390
0
  6
Continuous
100
AcDbLine
 10
-663.360463
 20
278.177173
 30
0.0
 11
-663.360463
 21
275.319641
 31
0.0
  0
LINE
  5
285
100
AcDbEntity
  8
0
370
    -3
390
0
  6
Continuous
100
AcDbLine
 10
-460.360463
 20
244.682703
 30
0.0
 11
-596.360463
 21
244.682703
 31
0.0
  0
LINE
  5
286
100
AcDbEntity
  8
0
370
    -3
390
0
  6
Continuous
100
AcDbLine
 10
-460.360463
 20
242.276815
 30
0.0
 11
-596.360463
 21
242.276815
 31
0.0
  0
LINE
  5
287
100
AcDbEntity
  8
0
370
    -3
390
0
  6
Continuous
100
AcDbLine
 10
-596.360463
 20
242.276815
 30
0.0
 11
-628.360463
 21
254.475412
 31
0.0
  0
LINE
  5
288
100
AcDbEntity
  8
0
370
    -3
390
0
  6
Continuous
100
AcDbLine
 10
-628.360463
 20
256.881299
 30
0.0
 11
-596.360463
 21
244.682703
 31
0.0
  0
LINE
  5
289
100
AcDbEntity
  8
0
370
    -3
390
0
  6
Continuous
100
AcDbLine
 10
-628.360463
 20
254.475412
 30
0.0
 11
-628.360463
 21
262.156429
 31
0.0
  0
LINE
  5
28A
100
AcDbEntity
  8
0
370
    -3
390
0
  6
Continuous
100
AcDbLine
 10
-628.360463
 20
262.156429
 30
0.0
 11
-607.280319
 21
262.156429
 31
0.0
  0
LINE
  5
28B
100
AcDbEntity
  8
0
370
    -3
390
0
  6
Continuous
100
AcDbLine
 10
-596.360463
 20
244.682703
 30
0.0
 11
-596.360463
 21
242.276815
 31
0.0
  0
LINE
  5
28C
100
AcDbEntity
  8
0
370
    -3
390
0
  6
Continuous
100
AcDbLine
 10
-716.290424
 20
193.407109
 30
0.0
 11
-594.430503
 21
193.407109
 31
0.0
  0
LINE
  5
28D
100
AcDbEntity
  8
0
370
    -3
390
0
  6
Continuous
100
AcDbLine
 10
-715.520352
 20
196.515693
 30
0.0
 11
-595.200575
 21
196.515693
 31
0.0
  0
LINE
  5
28E
100
AcDbEntity
  8
0
370
    -3
390
0
  6
Continuous
100
AcDbLine
 10
-715.681402
 20
188.161305
 30
0.0
 11
-595.039524
 21
188.161305
 31
0.0
  0
LINE
  5
28F
100
AcDbEntity
  8
0
370
    -3
390
0
  6
Continuous
100
AcDbLine
 10
-716.748008
 20
201.258757
 30
0.0
 11
-593.972919
 21
201.258757
 31
0.0
  0
ARC
  5
290
100
AcDbEntity
  8
0
370
    -3
390
0
  6
Continuous
100
AcDbCircle
 10
-595.039524
 20
179.161305
 30
0.0
 40
9.0
100
AcDbArc
 50
12.259471
 51
90.0
  0
ARC
  5
291
100
AcDbEntity
  8
0
370
    -3
390
0
  6
Continuous
100
AcDbCircle
 10
-594.430503
 20
182.407109
 30
0.0
 40
11.0
100
AcDbArc
 50
13.419885
 51
90.0
  0
ARC
  5
292
100
AcDbEntity
  8
0
370
    -3
390
0
  6
Continuous
100
AcDbCircle
 10
-595.200575
 20
185.515693
 30
0.0
 40
11.0
100
AcDbArc
 50
14.40704
 51
90.0
  0
ARC
  5
293
100
AcDbEntity
  8
0
370
    -3
390
0
  6
Continuous
100
AcDbCircle
 10
-715.681402
 20
179.161305
 30
0.0
 40
9.0
100
AcDbArc
 50
90.0
 51
167.740529
  0
ARC
  5
294
100
AcDbEntity
  8
0
370
    -3
390
0
  6
Continuous
100
AcDbCircle
 10
-716.290424
 20
182.407109
 30
0.0
 40
11.0
100
AcDbArc
 50
90.0
 51
166.580115
  0
ARC
  5
295
100
AcDbEntity
  8
0
370
    -3
390
0
  6
Continuous
100
AcDbCircle
 10
-715.520352
 20
185.515693
 30
0.0
 40
11.0
100
AcDbArc
 50
90.0
 51
165.59296
  0
ARC
  5
296
100
AcDbEntity
  8
0
370
    -3
390
0
  6
Continuous
100
AcDbCircle
 10
-593.972919
 20
191.258757
 30
0.0
 40
10.0
100
AcDbArc
 50
7.706129
 51
90.0
  0
ARC
  5
297
100
AcDbEntity
  8
0
370
    -3
390
0
  6
Continuous
100
AcDbCircle
 10
-715.520352
 20
185.515693
 30
0.0
 40
11.0
100
AcDbArc
 50
90.0
 51
165.59296
  0
ARC
  5
298
100
AcDbEntity
  8
0
370
    -3
390
0
  6
Continuous
100
AcDbCircle
 10
-716.748008
 20
191.258757
 30
0.0
 40
10.0
100
AcDbArc
 50
90.0
 51
172.293871
  0
LINE
  5
299
100
AcDbEntity
  8
0
370
    -3
390
0
  6
Continuous
100
AcDbLine
 10
-581.937949
 20
176.656067
 30
0.0
 11
-584.06323
 21
192.599679
 31
0.0
  0
LINE
  5
29A
100
AcDbEntity
  8
0
370
    -3
390
0
  6
Continuous
100
AcDbLine
 10
-728.782978
 20
176.656067
 30
0.0
 11
-726.657697
 21
192.599679
 31
0.0
  0
LINE
  5
29B
100
AcDbEntity
  8
0
370
    -3
390
0
  6
Continuous
100
AcDbLine
 10
-460.360463
 20
258.64889
 30
0.0
 11
-596.360463
 21
258.64889
 31
0.0
  0
LINE
  5
29C
100
AcDbEntity
  8
0
370
    -3
390
0
  6
Continuous
100
AcDbLine
 10
-460.360463
 20
261.309593
 30
0.0
 11
-596.360463
 21
261.309593
 31
0.0
  0
LINE
  5
29D
100
AcDbEntity
  8
0
370
    -3
390
0
  6
Continuous
100
AcDbLine
 10
-596.360463
 20
258.64889
 30
0.0
 11
-628.360463
 21
268.927528
 31
0.0
  0
LINE
  5
29E
100
AcDbEntity
  8
0
370
    -3
390
0
  6
Continuous
100
AcDbLine
 10
-628.360463
 20
271.588231
 30
0.0
 11
-596.360463
 21
261.309593
 31
0.0
  0
LINE
  5
29F
100
AcDbEntity
  8
0
370
    -3
390
0
  6
Continuous
100
AcDbLine
 10
-628.360463
 20
268.927528
 30
0.0
 11
-628.360463
 21
275.319641
 31
0.0
  0
LINE
  5
2A0
100
AcDbEntity
  8
0
370
    -3
390
0
  6
Continuous
100
AcDbLine
 10
-596.360463
 20
261.309593
 30
0.0
 11
-596.360463
 21
258.64889
 31
0.0
  0
ARC
  5
2A1
100
AcDbEntity
  8
0
370
    -3
390
0
  6
Continuous
100
AcDbCircle
 10
-680.360463
 20
377.196049
 30
0.0
 40
4.0
100
AcDbArc
 50
0.0
 51
90.0
  0
LINE
  5
2A2
100
AcDbEntity
  8
0
370
    -3
390
0
  6
Continuous
100
AcDbLine
 10
-680.360463
 20
381.196049
 30
0.0
 11
-697.360463
 21
381.196049
 31
0.0
  0
ARC
  5
2A3
100
AcDbEntity
  8
0
370
    -3
390
0
  6
Continuous
100
AcDbCircle
 10
-798.360463
 20
462.310436
 30
0.0
 40
3.0
100
AcDbArc
 50
90.0
 51
180.0
  0
ARC
  5
2A4
100
AcDbEntity
  8
0
370
    -3
390
0
  6
Continuous
100
AcDbCircle
 10
-798.401597
 20
467.310436
 30
0.0
 40
2.0
100
AcDbArc
 50
270.0
 51
325.0
  0
ARC
  5
2A5
100
AcDbEntity
  8
0
370
    -3
390
0
  6
Continuous
100
AcDbCircle
 10
-697.360463
 20
385.196049
 30
0.0
 40
4.0
100
AcDbArc
 50
180.0
 51
270.0
  0
LINE
  5
2A6
100
AcDbEntity
  8
0
370
    -3
390
0
  6
Continuous
100
AcDbLine
 10
-737.955737
 20
501.810436
 30
0.0
 11
-772.360463
 21
501.810436
 31
0.0
  0
ARC
  5
2A7
100
AcDbEntity
  8
0
370
    -3
390
0
  6
Continuous
100
AcDbCircle
 10
-737.955737
 20
503.810436
 30
0.0
 40
2.0
100
AcDbArc
 50
270.0
 51
323.130102
  0
LINE
  5
2A8
100
AcDbEntity
  8
0
370
    -3
390
0
  6
Continuous
100
AcDbLine
 10
-676.360463
 20
503.810436
 30
0.0
 11
-676.360463
 21
495.423228
 31
0.0
  0
LINE
  5
2A9
100
AcDbEntity
  8
0
370
    -3
390
0
  6
Continuous
100
AcDbLine
 10
-676.360463
 20
503.810436
 30
0.0
 11
-733.955737
 21
503.810436
 31
0.0
  0
ARC
  5
2AA
100
AcDbEntity
  8
0
370
    -3
390
0
  6
Continuous
100
AcDbCircle
 10
-733.955737
 20
500.810436
 30
0.0
 40
3.0
100
AcDbArc
 50
90.0
 51
143.130102
  0
ARC
  5
2AB
100
AcDbEntity
  8
0
370
    -3
390
0
  6
Continuous
100
AcDbCircle
 10
-737.955737
 20
503.810436
 30
0.0
 40
2.0
100
AcDbArc
 50
270.0
 51
323.130102
  0
ARC
  5
2AC
100
AcDbEntity
  8
0
370
    -3
390
0
  6
Continuous
100
AcDbCircle
 10
-733.955737
 20
500.810436
 30
0.0
 40
3.0
100
AcDbArc
 50
90.0
 51
143.130102
  0
LINE
  5
2AD
100
AcDbEntity
  8
0
370
    -3
390
0
  6
Continuous
100
AcDbLine
 10
-676.360463
 20
503.810436
 30
0.0
 11
-733.955737
 21
503.810436
 31
0.0
  0
LINE
  5
2AE
100
AcDbEntity
  8
0
370
    -3
390
0
  6
Continuous
100
AcDbLine
 10
-676.360463
 20
495.423228
 30
0.0
 11
-676.360463
 21
482.655901
 31
0.0
  0
LINE
  5
2AF
100
AcDbEntity
  8
0
370
    -3
390
0
  6
Continuous
100
AcDbLine
 10
-676.360463
 20
482.655901
 30
0.0
 11
-676.360463
 21
473.915314
 31
0.0
  0
LINE
  5
2B0
100
AcDbEntity
  8
0
370
    -3
390
0
  6
Continuous
100
AcDbLine
 10
-676.360463
 20
466.602437
 30
0.0
 11
-676.360463
 21
473.915314
 31
0.0
  0
LINE
  5
2B1
100
AcDbEntity
  8
0
370
    -3
390
0
  6
Continuous
100
AcDbLine
 10
-775.903007
 20
495.954859
 30
0.0
 11
-796.763293
 21
466.163283
 31
0.0
  0
ARC
  5
2B2
100
AcDbEntity
  8
0
370
    -3
390
0
  6
Continuous
100
AcDbCircle
 10
-778.360463
 20
497.675589
 30
0.0
 40
3.0
100
AcDbArc
 50
325.0
 51
0.0
  0
ARC
  5
2B3
100
AcDbEntity
  8
0
370
    -3
390
0
  6
Continuous
100
AcDbCircle
 10
-772.360463
 20
498.810436
 30
0.0
 40
3.0
100
AcDbArc
 50
90.0
 51
180.0
  0
LINE
  5
2B4
100
AcDbEntity
  8
0
370
    -3
390
0
  6
Continuous
100
AcDbLine
 10
-717.360463
 20
486.152813
 30
0.0
 11
-712.360463
 21
487.596188
 31
0.0
  0
LINE
  5
2B5
100
AcDbEntity
  8
0
370
    -3
390
0
  6
Continuous
100
AcDbLine
 10
-714.814024
 20
494.655324
 30
0.0
 11
-676.360463
 21
494.655324
 31
0.0
  0
LINE
  5
2B6
100
AcDbEntity
  8
0
370
    -3
390
0
  6
Continuous
100
AcDbLine
 10
-712.360463
 20
493.947041
 30
0.0
 11
-717.360463
 21
495.390417
 31
0.0
  0
LINE
  5
2B7
100
AcDbEntity
  8
0
370
    -3
390
0
  6
Continuous
100
AcDbLine
 10
-712.360463
 20
491.06029
 30
0.0
 11
-712.360463
 21
493.947041
 31
0.0
  0
LINE
  5
2B8
100
AcDbEntity
  8
0
370
    -3
390
0
  6
Continuous
100
AcDbLine
 10
-717.360463
 20
489.616914
 30
0.0
 11
-712.360463
 21
491.06029
 31
0.0
  0
LINE
  5
2B9
100
AcDbEntity
  8
0
370
    -3
390
0
  6
Continuous
100
AcDbLine
 10
-712.360463
 20
487.596188
 30
0.0
 11
-712.360463
 21
491.06029
 31
0.0
  0
LINE
  5
2BA
100
AcDbEntity
  8
0
370
    -3
390
0
  6
CENTER
100
AcDbLine
 10
-717.360463
 20
497.849455
 30
0.0
 11
-717.360463
 21
483.30245
 31
0.0
  0
ARC
  5
2BB
100
AcDbEntity
  8
0
370
    -3
390
0
  6
Continuous
100
AcDbCircle
 10
-697.360463
 20
458.602437
 30
0.0
 40
4.0
100
AcDbArc
 50
90.0
 51
180.0
  0
LINE
  5
2BC
100
AcDbEntity
  8
0
370
    -3
390
0
  6
Continuous
100
AcDbLine
 10
-701.360463
 20
385.196049
 30
0.0
 11
-701.360463
 21
458.602437
 31
0.0
  0
LINE
  5
2BD
100
AcDbEntity
  8
0
370
    -3
390
0
  6
Continuous
100
AcDbLine
 10
-722.360463
 20
487.596188
 30
0.0
 11
-717.360463
 21
486.152813
 31
0.0
  0
LINE
  5
2BE
100
AcDbEntity
  8
0
370
    -3
390
0
  6
Continuous
100
AcDbLine
 10
-722.360463
 20
491.06029
 30
0.0
 11
-717.360463
 21
489.616914
 31
0.0
  0
LINE
  5
2BF
100
AcDbEntity
  8
0
370
    -3
390
0
  6
Continuous
100
AcDbLine
 10
-722.360463
 20
493.947041
 30
0.0
 11
-722.360463
 21
491.06029
 31
0.0
  0
LINE
  5
2C0
100
AcDbEntity
  8
0
370
    -3
390
0
  6
Continuous
100
AcDbLine
 10
-717.360463
 20
495.390417
 30
0.0
 11
-722.360463
 21
493.947041
 31
0.0
  0
LINE
  5
2C1
100
AcDbEntity
  8
0
370
    -3
390
0
  6
Continuous
100
AcDbLine
 10
-722.360463
 20
491.06029
 30
0.0
 11
-722.360463
 21
487.596188
 31
0.0
  0
ELLIPSE
  5
2C2
100
AcDbEntity
  8
0
370
    -3
390
0
  6
Continuous
100
AcDbEllipse
 10
-717.360463
 20
492.503666
 30
0.0
 11
5.0
 21
0.0
 31
0.0
210
0.0
220
0.0
230
1.0
 40
0.501013
 41
0.0
 42
6.2831853071795862
  0
LINE
  5
2C3
100
AcDbEntity
  8
0
370
    -3
390
0
  6
CENTER
100
AcDbLine
 10
-724.633965
 20
492.503666
 30
0.0
 11
-710.08696
 21
492.503666
 31
0.0
  0
LINE
  5
2C4
100
AcDbEntity
  8
0
370
    -3
390
0
  6
Continuous
100
AcDbLine
 10
-729.377801
 20
494.655324
 30
0.0
 11
-719.906901
 21
494.655324
 31
0.0
  0
ELLIPSE
  5
2C5
100
AcDbEntity
  8
0
370
    -3
390
0
  6
Continuous
100
AcDbEllipse
 10
-724.360463
 20
491.472931
 30
0.0
 11
7.0
 21
0.0
 31
0.0
210
0.0
220
0.0
230
1.0
 40
0.454628
 41
1.5721694153616843
 42
3.1415926535897931
  0
ARC
  5
2C6
100
AcDbEntity
  8
0
370
    -3
390
0
  6
Continuous
100
AcDbCircle
 10
-746.999825
 20
486.472931
 30
0.0
 40
15.639362
100
AcDbArc
 50
337.950598
 51
0.0
  0
ELLIPSE
  5
2C7
100
AcDbEntity
  8
0
370
    -3
390
0
  6
Continuous
100
AcDbEllipse
 10
-724.360463
 20
486.472931
 30
0.0
 11
7.0
 21
0.0
 31
0.0
210
0.0
220
0.0
230
1.0
 40
0.545372
 41
3.1415926535897931
 42
4.7123889803846897
  0
ARC
  5
2C8
100
AcDbEntity
  8
0
370
    -3
390
0
  6
Continuous
100
AcDbCircle
 10
-729.009873
 20
478.655324
 30
0.0
 40
4.0
100
AcDbArc
 50
90.0
 51
150.88103
  0
LINE
  5
2C9
100
AcDbEntity
  8
0
370
    -3
390
0
  6
Continuous
100
AcDbLine
 10
-732.504317
 20
480.601822
 30
0.0
 11
-735.360463
 21
475.474338
 31
0.0
  0
ARC
  5
2CA
100
AcDbEntity
  8
0
370
    -3
390
0
  6
Continuous
100
AcDbCircle
 10
-733.032995
 20
491.472931
 30
0.0
 40
1.672533
100
AcDbArc
 50
0.0
 51
73.610004
  0
LINE
  5
2CB
100
AcDbEntity
  8
0
370
    -3
390
0
  6
Continuous
100
AcDbLine
 10
-731.360463
 20
486.472931
 30
0.0
 11
-731.360463
 21
491.472931
 31
0.0
  0
ARC
  5
2CC
100
AcDbEntity
  8
0
370
    -3
390
0
  6
Continuous
100
AcDbCircle
 10
-729.377801
 20
490.655324
 30
0.0
 40
4.0
100
AcDbArc
 50
90.0
 51
142.732041
  0
LINE
  5
2CD
100
AcDbEntity
  8
0
370
    -3
390
0
  6
Continuous
100
AcDbLine
 10
-729.009873
 20
482.655324
 30
0.0
 11
-676.360463
 21
482.655324
 31
0.0
  0
LINE
  5
2CE
100
AcDbEntity
  8
0
370
    -3
390
0
  6
Continuous
100
AcDbLine
 10
-732.56105
 20
493.077498
 30
0.0
 11
-735.360463
 21
489.398477
 31
0.0
  0
LINE
  5
2CF
100
AcDbEntity
  8
0
370
    -3
390
0
  6
Continuous
100
AcDbLine
 10
-735.360463
 20
475.474338
 30
0.0
 11
-676.360463
 21
475.474338
 31
0.0
  0
ARC
  5
2D0
100
AcDbEntity
  8
0
370
    -3
390
0
  6
Continuous
100
AcDbCircle
 10
-680.360463
 20
466.602437
 30
0.0
 40
4.0
100
AcDbArc
 50
270.0
 51
0.0
  0
LINE
  5
2D1
100
AcDbEntity
  8
0
370
    -3
390
0
  6
Continuous
100
AcDbLine
 10
-697.360463
 20
462.602437
 30
0.0
 11
-680.360463
 21
462.602437
 31
0.0
  0
LINE
  5
2D2
100
AcDbEntity
  8
0
370
    -3
390
0
  6
Continuous
100
AcDbLine
 10
-695.360463
 20
397.290537
 30
0.0
 11
-695.360463
 21
391.575255
 31
0.0
  0
LINE
  5
2D3
100
AcDbEntity
  8
0
370
    -3
390
0
  6
Continuous
100
AcDbLine
 10
-695.360463
 20
406.515364
 30
0.0
 11
-695.360463
 21
412.973932
 31
0.0
  0
LINE
  5
2D4
100
AcDbEntity
  8
0
370
    -3
390
0
  6
Continuous
100
AcDbLine
 10
-663.360463
 20
403.542355
 30
0.0
 11
-663.360463
 21
400.530592
 31
0.0
  0
LINE
  5
2D5
100
AcDbEntity
  8
0
370
    -3
390
0
  6
Continuous
100
AcDbLine
 10
-695.360463
 20
394.278775
 30
0.0
 11
-663.360463
 21
400.530592
 31
0.0
  0
LINE
  5
2D6
100
AcDbEntity
  8
0
370
    -3
390
0
  6
Continuous
100
AcDbLine
 10
-663.360463
 20
403.542355
 30
0.0
 11
-695.360463
 21
397.290538
 31
0.0
  0
LINE
  5
2D7
100
AcDbEntity
  8
0
370
    -3
390
0
  6
Continuous
100
AcDbLine
 10
-663.360463
 20
418.443698
 30
0.0
 11
-663.360463
 21
421.30123
 31
0.0
  0
LINE
  5
2D8
100
AcDbEntity
  8
0
370
    -3
390
0
  6
Continuous
100
AcDbLine
 10
-695.360463
 20
410.1164
 30
0.0
 11
-663.360463
 21
418.443698
 31
0.0
  0
LINE
  5
2D9
100
AcDbEntity
  8
0
370
    -3
390
0
  6
Continuous
100
AcDbLine
 10
-663.360463
 20
421.30123
 30
0.0
 11
-695.360463
 21
412.973932
 31
0.0
  0
LINE
  5
2DA
100
AcDbEntity
  8
0
370
    -3
390
0
  6
Continuous
100
AcDbLine
 10
-676.360463
 20
501.310436
 30
0.0
 11
-674.360463
 21
503.310436
 31
0.0
  0
LINE
  5
2DB
100
AcDbEntity
  8
0
370
    -3
390
0
  6
Continuous
100
AcDbLine
 10
-674.360463
 20
503.310436
 30
0.0
 11
-669.871208
 21
503.310436
 31
0.0
  0
LINE
  5
2DC
100
AcDbEntity
  8
0
370
    -3
390
0
  6
Continuous
100
AcDbLine
 10
-663.360463
 20
504.56744
 30
0.0
 11
-663.360463
 21
503.943151
 31
0.0
  0
LINE
  5
2DD
100
AcDbEntity
  8
0
370
    -3
390
0
  6
Continuous
100
AcDbLine
 10
-663.360463
 20
499.386629
 30
0.0
 11
-663.360463
 21
498.3504
 31
0.0
  0
LINE
  5
2DE
100
AcDbEntity
  8
0
370
    -3
390
0
  6
Continuous
100
AcDbLine
 10
-663.360463
 20
506.857326
 30
0.0
 11
-676.360463
 21
499.357363
 31
0.0
  0
LINE
  5
2DF
100
AcDbEntity
  8
0
370
    -3
390
0
  6
Continuous
100
AcDbLine
 10
-676.360463
 20
499.566653
 30
0.0
 11
-663.360463
 21
507.066616
 31
0.0
  0
LINE
  5
2E0
100
AcDbEntity
  8
0
370
    -3
390
0
  6
Continuous
100
AcDbLine
 10
-663.360463
 20
506.857326
 30
0.0
 11
-663.360463
 21
507.066616
 31
0.0
  0
LINE
  5
2E1
100
AcDbEntity
  8
0
370
    -3
390
0
  6
Continuous
100
AcDbLine
 10
-676.360463
 20
497.187907
 30
0.0
 11
-663.360463
 21
504.559544
 31
0.0
  0
LINE
  5
2E2
100
AcDbEntity
  8
0
370
    -3
390
0
  6
Continuous
100
AcDbLine
 10
-663.360463
 20
503.935255
 30
0.0
 11
-676.360463
 21
496.563618
 31
0.0
  0
LINE
  5
2E3
100
AcDbEntity
  8
0
370
    -3
390
0
  6
Continuous
100
AcDbLine
 10
-663.360463
 20
499.379006
 30
0.0
 11
-676.360463
 21
492.261827
 31
0.0
  0
LINE
  5
2E4
100
AcDbEntity
  8
0
370
    -3
390
0
  6
Continuous
100
AcDbLine
 10
-663.360463
 20
498.3504
 30
0.0
 11
-676.360463
 21
491.233221
 31
0.0
  0
LINE
  5
2E5
100
AcDbEntity
  8
0
370
    -3
390
0
  6
Continuous
100
AcDbLine
 10
-663.360463
 20
491.613643
 30
0.0
 11
-676.360463
 21
484.872698
 31
0.0
  0
LINE
  5
2E6
100
AcDbEntity
  8
0
370
    -3
390
0
  6
Continuous
100
AcDbLine
 10
-663.360463
 20
490.198319
 30
0.0
 11
-676.360463
 21
483.457374
 31
0.0
  0
LINE
  5
2E7
100
AcDbEntity
  8
0
370
    -3
390
0
  6
Continuous
100
AcDbLine
 10
-676.360463
 20
466.429747
 30
0.0
 11
-627.494068
 21
466.429747
 31
0.0
  0
LINE
  5
2E8
100
AcDbEntity
  8
0
370
    -3
390
0
  6
Continuous
100
AcDbLine
 10
-663.360463
 20
491.613643
 30
0.0
 11
-663.360463
 21
490.198319
 31
0.0
  0
LINE
  5
2E9
100
AcDbEntity
  8
0
370
    -3
390
0
  6
Continuous
100
AcDbLine
 10
-460.360463
 20
437.971981
 30
0.0
 11
-596.360463
 21
437.971981
 31
0.0
  0
LINE
  5
2EA
100
AcDbEntity
  8
0
370
    -3
390
0
  6
Continuous
100
AcDbLine
 10
-460.360463
 20
435.311279
 30
0.0
 11
-596.360463
 21
435.311279
 31
0.0
  0
LINE
  5
2EB
100
AcDbEntity
  8
0
370
    -3
390
0
  6
Continuous
100
AcDbLine
 10
-596.360463
 20
437.971981
 30
0.0
 11
-628.360463
 21
427.693343
 31
0.0
  0
LINE
  5
2EC
100
AcDbEntity
  8
0
370
    -3
390
0
  6
Continuous
100
AcDbLine
 10
-628.360463
 20
425.03264
 30
0.0
 11
-596.360463
 21
435.311279
 31
0.0
  0
LINE
  5
2ED
100
AcDbEntity
  8
0
370
    -3
390
0
  6
Continuous
100
AcDbLine
 10
-628.360463
 20
427.693343
 30
0.0
 11
-628.360463
 21
421.30123
 31
0.0
  0
LINE
  5
2EE
100
AcDbEntity
  8
0
370
    -3
390
0
  6
Continuous
100
AcDbLine
 10
-596.360463
 20
435.311279
 30
0.0
 11
-596.360463
 21
437.971981
 31
0.0
  0
LINE
  5
2EF
100
AcDbEntity
  8
0
370
    -3
390
0
  6
Continuous
100
AcDbLine
 10
-460.360463
 20
451.938168
 30
0.0
 11
-596.360463
 21
451.938168
 31
0.0
  0
LINE
  5
2F0
100
AcDbEntity
  8
0
370
    -3
390
0
  6
Continuous
100
AcDbLine
 10
-460.360463
 20
454.344056
 30
0.0
 11
-596.360463
 21
454.344056
 31
0.0
  0
LINE
  5
2F1
100
AcDbEntity
  8
0
370
    -3
390
0
  6
Continuous
100
AcDbLine
 10
-596.360463
 20
454.344056
 30
0.0
 11
-628.360463
 21
442.145459
 31
0.0
  0
LINE
  5
2F2
100
AcDbEntity
  8
0
370
    -3
390
0
  6
Continuous
100
AcDbLine
 10
-628.360463
 20
439.739572
 30
0.0
 11
-596.360463
 21
451.938168
 31
0.0
  0
LINE
  5
2F3
100
AcDbEntity
  8
0
370
    -3
390
0
  6
Continuous
100
AcDbLine
 10
-628.360463
 20
442.145459
 30
0.0
 11
-628.360463
 21
434.464443
 31
0.0
  0
LINE
  5
2F4
100
AcDbEntity
  8
0
370
    -3
390
0
  6
Continuous
100
AcDbLine
 10
-628.360463
 20
434.464443
 30
0.0
 11
-607.280319
 21
434.464443
 31
0.0
  0
LINE
  5
2F5
100
AcDbEntity
  8
0
370
    -3
390
0
  6
Continuous
100
AcDbLine
 10
-596.360463
 20
451.938168
 30
0.0
 11
-596.360463
 21
454.344056
 31
0.0
  0
LINE
  5
2F6
100
AcDbEntity
  8
0
370
    -3
390
0
  6
Continuous
100
AcDbLine
 10
-547.360463
 20
353.310436
 30
0.0
 11
-547.360463
 21
367.310436
 31
0.0
  0
LINE
  5
2F7
100
AcDbEntity
  8
0
370
    -3
390
0
  6
Continuous
100
AcDbLine
 10
-528.360463
 20
328.310436
 30
0.0
 11
-510.360463
 21
328.310436
 31
0.0
  0
LINE
  5
2F8
100
AcDbEntity
  8
0
370
    -3
390
0
  6
Continuous
100
AcDbLine
 10
-528.360463
 20
368.310436
 30
0.0
 11
-510.360463
 21
368.310436
 31
0.0
  0
ARC
  5
2F9
100
AcDbEntity
  8
0
370
    -3
390
0
  6
Continuous
100
AcDbCircle
 10
-546.360463
 20
367.310436
 30
0.0
 40
1.0
100
AcDbArc
 50
90.0
 51
180.0
  0
ARC
  5
2FA
100
AcDbEntity
  8
0
370
    -3
390
0
  6
Continuous
100
AcDbCircle
 10
-546.360463
 20
329.310436
 30
0.0
 40
1.0
100
AcDbArc
 50
180.0
 51
270.0
  0
LINE
  5
2FB
100
AcDbEntity
  8
0
370
    -3
390
0
  6
Continuous
100
AcDbLine
 10
-547.360463
 20
329.310436
 30
0.0
 11
-547.360463
 21
343.310436
 31
0.0
  0
LINE
  5
2FC
100
AcDbEntity
  8
0
370
    -3
390
0
  6
Continuous
100
AcDbLine
 10
-546.360463
 20
328.310436
 30
0.0
 11
-528.360463
 21
328.310436
 31
0.0
  0
LINE
  5
2FD
100
AcDbEntity
  8
0
370
    -3
390
0
  6
Continuous
100
AcDbLine
 10
-546.360463
 20
368.310436
 30
0.0
 11
-528.360463
 21
368.310436
 31
0.0
  0
ARC
  5
2FE
100
AcDbEntity
  8
0
370
    -3
390
0
  6
Continuous
100
AcDbCircle
 10
-528.360463
 20
348.310436
 30
0.0
 40
18.0
100
AcDbArc
 50
16.12762
 51
163.87238
  0
ARC
  5
2FF
100
AcDbEntity
  8
0
370
    -3
390
0
  6
Continuous
100
AcDbCircle
 10
-528.360463
 20
348.310436
 30
0.0
 40
18.0
100
AcDbArc
 50
196.12762
 51
343.87238
  0
ARC
  5
300
100
AcDbEntity
  8
0
370
    -3
390
0
  6
Continuous
100
AcDbCircle
 10
-528.360463
 20
348.310436
 30
0.0
 40
12.5
100
AcDbArc
 50
23.578178
 51
156.421822
  0
ARC
  5
301
100
AcDbEntity
  8
0
370
    -3
390
0
  6
Continuous
100
AcDbCircle
 10
-548.360463
 20
348.310436
 30
0.0
 40
5.0
100
AcDbArc
 50
90.0
 51
270.0
  0
LINE
  5
302
100
AcDbEntity
  8
0
370
    -3
390
0
  6
Continuous
100
AcDbLine
 10
-508.360463
 20
343.310436
 30
0.0
 11
-548.360463
 21
343.310436
 31
0.0
  0
ARC
  5
303
100
AcDbEntity
  8
0
370
    -3
390
0
  6
Continuous
100
AcDbCircle
 10
-528.360463
 20
348.310436
 30
0.0
 40
12.5
100
AcDbArc
 50
203.578178
 51
336.421822
  0
LINE
  5
304
100
AcDbEntity
  8
0
370
    -3
390
0
  6
Continuous
100
AcDbLine
 10
-509.360463
 20
353.310436
 30
0.0
 11
-509.360463
 21
367.310436
 31
0.0
  0
ARC
  5
305
100
AcDbEntity
  8
0
370
    -3
390
0
  6
Continuous
100
AcDbCircle
 10
-510.360463
 20
367.310436
 30
0.0
 40
1.0
100
AcDbArc
 50
0.0
 51
90.0
  0
ARC
  5
306
100
AcDbEntity
  8
0
370
    -3
390
0
  6
Continuous
100
AcDbCircle
 10
-510.360463
 20
329.310436
 30
0.0
 40
1.0
100
AcDbArc
 50
270.0
 51
0.0
  0
LINE
  5
307
100
AcDbEntity
  8
0
370
    -3
390
0
  6
Continuous
100
AcDbLine
 10
-509.360463
 20
329.310436
 30
0.0
 11
-509.360463
 21
343.310436
 31
0.0
  0
ARC
  5
308
100
AcDbEntity
  8
0
370
    -3
390
0
  6
Continuous
100
AcDbCircle
 10
-508.360463
 20
348.310436
 30
0.0
 40
5.0
100
AcDbArc
 50
270.0
 51
90.0
  0
LINE
  5
309
100
AcDbEntity
  8
0
370
    -3
390
0
  6
Continuous
100
AcDbLine
 10
-235.360463
 20
528.310436
 30
0.0
 11
-235.360463
 21
525.96729
 31
0.0
  0
LINE
  5
30A
100
AcDbEntity
  8
0
370
    -3
390
0
  6
Continuous
100
AcDbLine
 10
-235.360463
 20
525.96729
 30
0.0
 11
-235.360463
 21
514.653582
 31
0.0
  0
LINE
  5
30B
100
AcDbEntity
  8
0
370
    -3
390
0
  6
Continuous
100
AcDbLine
 10
-235.360463
 20
514.653582
 30
0.0
 11
-235.360463
 21
508.996728
 31
0.0
  0
LINE
  5
30C
100
AcDbEntity
  8
0
370
    -3
390
0
  6
Continuous
100
AcDbLine
 10
-235.360463
 20
508.996728
 30
0.0
 11
-235.360463
 21
487.719905
 31
0.0
  0
LINE
  5
30D
100
AcDbEntity
  8
0
370
    -3
390
0
  6
Continuous
100
AcDbLine
 10
-235.360463
 20
487.719905
 30
0.0
 11
-235.360463
 21
479.86585
 31
0.0
  0
LINE
  5
30E
100
AcDbEntity
  8
0
370
    -3
390
0
  6
Continuous
100
AcDbLine
 10
-235.360463
 20
479.86585
 30
0.0
 11
-235.360463
 21
466.229064
 31
0.0
  0
LINE
  5
30F
100
AcDbEntity
  8
0
370
    -3
390
0
  6
Continuous
100
AcDbLine
 10
-235.360463
 20
466.229064
 30
0.0
 11
-235.360463
 21
447.66184
 31
0.0
  0
LINE
  5
310
100
AcDbEntity
  8
0
370
    -3
390
0
  6
Continuous
100
AcDbLine
 10
-235.360463
 20
447.66184
 30
0.0
 11
-235.360463
 21
431.757686
 31
0.0
  0
LINE
  5
311
100
AcDbEntity
  8
0
370
    -3
390
0
  6
Continuous
100
AcDbLine
 10
-235.360463
 20
431.757686
 30
0.0
 11
-235.360463
 21
396.48431
 31
0.0
  0
LINE
  5
312
100
AcDbEntity
  8
0
370
    -3
390
0
  6
Continuous
100
AcDbLine
 10
-216.360463
 20
431.757686
 30
0.0
 11
-216.360463
 21
396.48431
 31
0.0
  0
LINE
  5
313
100
AcDbEntity
  8
0
370
    -3
390
0
  6
Continuous
100
AcDbLine
 10
-216.360463
 20
447.66184
 30
0.0
 11
-216.360463
 21
431.757686
 31
0.0
  0
LINE
  5
314
100
AcDbEntity
  8
0
370
    -3
390
0
  6
Continuous
100
AcDbLine
 10
-216.360463
 20
466.229064
 30
0.0
 11
-216.360463
 21
447.66184
 31
0.0
  0
LINE
  5
315
100
AcDbEntity
  8
0
370
    -3
390
0
  6
Continuous
100
AcDbLine
 10
-216.360463
 20
479.86585
 30
0.0
 11
-216.360463
 21
466.229064
 31
0.0
  0
LINE
  5
316
100
AcDbEntity
  8
0
370
    -3
390
0
  6
Continuous
100
AcDbLine
 10
-216.360463
 20
487.719905
 30
0.0
 11
-216.360463
 21
479.86585
 31
0.0
  0
LINE
  5
317
100
AcDbEntity
  8
0
370
    -3
390
0
  6
Continuous
100
AcDbLine
 10
-216.360463
 20
508.996728
 30
0.0
 11
-216.360463
 21
487.719905
 31
0.0
  0
LINE
  5
318
100
AcDbEntity
  8
0
370
    -3
390
0
  6
Continuous
100
AcDbLine
 10
-216.360463
 20
514.653582
 30
0.0
 11
-216.360463
 21
508.996728
 31
0.0
  0
LINE
  5
319
100
AcDbEntity
  8
0
370
    -3
390
0
  6
Continuous
100
AcDbLine
 10
-216.360463
 20
525.96729
 30
0.0
 11
-216.360463
 21
514.653582
 31
0.0
  0
LINE
  5
31A
100
AcDbEntity
  8
0
370
    -3
390
0
  6
Continuous
100
AcDbLine
 10
-216.360463
 20
528.310436
 30
0.0
 11
-216.360463
 21
525.96729
 31
0.0
  0
LINE
  5
31B
100
AcDbEntity
  8
0
370
    -3
390
0
  6
Continuous
100
AcDbLine
 10
-235.360463
 20
396.48431
 30
0.0
 11
-216.360463
 21
396.48431
 31
0.0
  0
LINE
  5
31C
100
AcDbEntity
  8
0
370
    -3
390
0
  6
Continuous
100
AcDbLine
 10
-235.360463
 20
431.757686
 30
0.0
 11
-216.360463
 21
431.757686
 31
0.0
  0
LINE
  5
31D
100
AcDbEntity
  8
0
370
    -3
390
0
  6
Continuous
100
AcDbLine
 10
-235.360463
 20
447.66184
 30
0.0
 11
-216.360463
 21
447.66184
 31
0.0
  0
LINE
  5
31E
100
AcDbEntity
  8
0
370
    -3
390
0
  6
Continuous
100
AcDbLine
 10
-235.360463
 20
479.86585
 30
0.0
 11
-216.360463
 21
479.86585
 31
0.0
  0
LINE
  5
31F
100
AcDbEntity
  8
0
370
    -3
390
0
  6
Continuous
100
AcDbLine
 10
-235.360463
 20
487.719905
 30
0.0
 11
-216.360463
 21
487.719905
 31
0.0
  0
LINE
  5
320
100
AcDbEntity
  8
0
370
    -3
390
0
  6
Continuous
100
AcDbLine
 10
-235.360463
 20
508.996728
 30
0.0
 11
-216.360463
 21
508.996728
 31
0.0
  0
LINE
  5
321
100
AcDbEntity
  8
0
370
    -3
390
0
  6
Continuous
100
AcDbLine
 10
-235.360463
 20
514.653582
 30
0.0
 11
-216.360463
 21
514.653582
 31
0.0
  0
LINE
  5
322
100
AcDbEntity
  8
0
370
    -3
390
0
  6
Continuous
100
AcDbLine
 10
-235.360463
 20
525.96729
 30
0.0
 11
-216.360463
 21
525.96729
 31
0.0
  0
LINE
  5
323
100
AcDbEntity
  8
0
370
    -3
390
0
  6
Continuous
100
AcDbLine
 10
-235.360463
 20
528.310436
 30
0.0
 11
-216.360463
 21
528.310436
 31
0.0
  0
LINE
  5
324
100
AcDbEntity
  8
0
370
    -3
390
0
  6
Continuous
100
AcDbLine
 10
-331.360463
 20
492.384862
 30
0.0
 11
-331.360463
 21
492.708557
 31
0.0
  0
LINE
  5
325
100
AcDbEntity
  8
0
370
    -3
390
0
  6
Continuous
100
AcDbLine
 10
-216.360463
 20
466.229064
 30
0.0
 11
-235.360463
 21
466.229064
 31
0.0
  0
LINE
  5
326
100
AcDbEntity
  8
0
370
    -3
390
0
  6
Continuous
100
AcDbLine
 10
-235.360463
 20
230.391808
 30
0.0
 11
-235.360463
 21
216.755022
 31
0.0
  0
LINE
  5
327
100
AcDbEntity
  8
0
370
    -3
390
0
  6
Continuous
100
AcDbLine
 10
-235.360463
 20
216.755022
 30
0.0
 11
-235.360463
 21
208.900967
 31
0.0
  0
LINE
  5
328
100
AcDbEntity
  8
0
370
    -3
390
0
  6
Continuous
100
AcDbLine
 10
-235.360463
 20
208.900967
 30
0.0
 11
-235.360463
 21
187.624145
 31
0.0
  0
LINE
  5
329
100
AcDbEntity
  8
0
370
    -3
390
0
  6
Continuous
100
AcDbLine
 10
-235.360463
 20
187.624145
 30
0.0
 11
-235.360463
 21
181.96729
 31
0.0
  0
LINE
  5
32A
100
AcDbEntity
  8
0
370
    -3
390
0
  6
Continuous
100
AcDbLine
 10
-235.360463
 20
181.96729
 30
0.0
 11
-235.360463
 21
170.653582
 31
0.0
  0
LINE
  5
32B
100
AcDbEntity
  8
0
370
    -3
390
0
  6
Continuous
100
AcDbLine
 10
-235.360463
 20
170.653582
 30
0.0
 11
-235.360463
 21
168.310436
 31
0.0
  0
LINE
  5
32C
100
AcDbEntity
  8
0
370
    -3
390
0
  6
Continuous
100
AcDbLine
 10
-235.360463
 20
264.863187
 30
0.0
 11
-235.360463
 21
248.959033
 31
0.0
  0
LINE
  5
32D
100
AcDbEntity
  8
0
370
    -3
390
0
  6
Continuous
100
AcDbLine
 10
-235.360463
 20
248.959033
 30
0.0
 11
-235.360463
 21
230.391808
 31
0.0
  0
LINE
  5
32E
100
AcDbEntity
  8
0
370
    -3
390
0
  6
Continuous
100
AcDbLine
 10
-216.360463
 20
248.959033
 30
0.0
 11
-216.360463
 21
230.391808
 31
0.0
  0
LINE
  5
32F
100
AcDbEntity
  8
0
370
    -3
390
0
  6
Continuous
100
AcDbLine
 10
-216.360463
 20
264.863187
 30
0.0
 11
-216.360463
 21
248.959033
 31
0.0
  0
LINE
  5
330
100
AcDbEntity
  8
0
370
    -3
390
0
  6
Continuous
100
AcDbLine
 10
-216.360463
 20
170.653582
 30
0.0
 11
-216.360463
 21
168.310436
 31
0.0
  0
LINE
  5
331
100
AcDbEntity
  8
0
370
    -3
390
0
  6
Continuous
100
AcDbLine
 10
-216.360463
 20
181.96729
 30
0.0
 11
-216.360463
 21
170.653582
 31
0.0
  0
LINE
  5
332
100
AcDbEntity
  8
0
370
    -3
390
0
  6
Continuous
100
AcDbLine
 10
-216.360463
 20
187.624145
 30
0.0
 11
-216.360463
 21
181.96729
 31
0.0
  0
LINE
  5
333
100
AcDbEntity
  8
0
370
    -3
390
0
  6
Continuous
100
AcDbLine
 10
-216.360463
 20
208.900967
 30
0.0
 11
-216.360463
 21
187.624145
 31
0.0
  0
LINE
  5
334
100
AcDbEntity
  8
0
370
    -3
390
0
  6
Continuous
100
AcDbLine
 10
-216.360463
 20
216.755022
 30
0.0
 11
-216.360463
 21
208.900967
 31
0.0
  0
LINE
  5
335
100
AcDbEntity
  8
0
370
    -3
390
0
  6
Continuous
100
AcDbLine
 10
-216.360463
 20
230.391808
 30
0.0
 11
-216.360463
 21
216.755022
 31
0.0
  0
LINE
  5
336
100
AcDbEntity
  8
0
370
    -3
390
0
  6
Continuous
100
AcDbLine
 10
-235.360463
 20
248.959033
 30
0.0
 11
-216.360463
 21
248.959033
 31
0.0
  0
LINE
  5
337
100
AcDbEntity
  8
0
370
    -3
390
0
  6
Continuous
100
AcDbLine
 10
-235.360463
 20
264.863187
 30
0.0
 11
-216.360463
 21
264.863187
 31
0.0
  0
LINE
  5
338
100
AcDbEntity
  8
0
370
    -3
390
0
  6
Continuous
100
AcDbLine
 10
-235.360463
 20
168.310436
 30
0.0
 11
-216.360463
 21
168.310436
 31
0.0
  0
LINE
  5
339
100
AcDbEntity
  8
0
370
    -3
390
0
  6
Continuous
100
AcDbLine
 10
-235.360463
 20
170.653582
 30
0.0
 11
-216.360463
 21
170.653582
 31
0.0
  0
LINE
  5
33A
100
AcDbEntity
  8
0
370
    -3
390
0
  6
Continuous
100
AcDbLine
 10
-235.360463
 20
181.96729
 30
0.0
 11
-216.360463
 21
181.96729
 31
0.0
  0
LINE
  5
33B
100
AcDbEntity
  8
0
370
    -3
390
0
  6
Continuous
100
AcDbLine
 10
-235.360463
 20
187.624145
 30
0.0
 11
-216.360463
 21
187.624145
 31
0.0
  0
LINE
  5
33C
100
AcDbEntity
  8
0
370
    -3
390
0
  6
Continuous
100
AcDbLine
 10
-235.360463
 20
208.900967
 30
0.0
 11
-216.360463
 21
208.900967
 31
0.0
  0
LINE
  5
33D
100
AcDbEntity
  8
0
370
    -3
390
0
  6
Continuous
100
AcDbLine
 10
-235.360463
 20
216.755022
 30
0.0
 11
-216.360463
 21
216.755022
 31
0.0
  0
LINE
  5
33E
100
AcDbEntity
  8
0
370
    -3
390
0
  6
Continuous
100
AcDbLine
 10
-331.360463
 20
214.810436
 30
0.0
 11
-331.360463
 21
204.775123
 31
0.0
  0
LINE
  5
33F
100
AcDbEntity
  8
0
370
    -3
390
0
  6
Continuous
100
AcDbLine
 10
-331.360463
 20
204.775123
 30
0.0
 11
-331.360463
 21
203.912315
 31
0.0
  0
LINE
  5
340
100
AcDbEntity
  8
0
370
    -3
390
0
  6
Continuous
100
AcDbLine
 10
-235.360463
 20
230.391808
 30
0.0
 11
-216.360463
 21
230.391808
 31
0.0
  0
LINE
  5
341
100
AcDbEntity
  8
0
370
    -3
390
0
  6
Continuous
100
AcDbLine
 10
-331.360463
 20
223.310436
 30
0.0
 11
-235.360463
 21
223.310436
 31
0.0
  0
LINE
  5
342
100
AcDbEntity
  8
0
370
    -3
390
0
  6
CENTER
100
AcDbLine
 10
-225.057068
 20
504.310436
 30
0.0
 11
-252.228495
 21
504.310436
 31
0.0
  0
LINE
  5
343
100
AcDbEntity
  8
0
370
    -3
390
0
  6
CENTER
100
AcDbLine
 10
-226.38702
 20
413.774097
 30
0.0
 11
-252.228495
 21
413.774097
 31
0.0
  0
LINE
  5
344
100
AcDbEntity
  8
0
370
    -3
390
0
  6
CENTER
100
AcDbLine
 10
-225.057068
 20
282.846775
 30
0.0
 11
-252.228495
 21
282.846775
 31
0.0
  0
LINE
  5
345
100
AcDbEntity
  8
0
370
    -3
390
0
  6
CENTER
100
AcDbLine
 10
-224.613751
 20
192.310436
 30
0.0
 11
-252.228495
 21
192.310436
 31
0.0
  0
LINE
  5
346
100
AcDbEntity
  8
0
370
    -3
390
0
  6
Continuous
100
AcDbLine
 10
-216.360463
 20
348.310436
 30
0.0
 11
-216.360463
 21
528.310436
 31
0.0
  0
LINE
  5
347
100
AcDbEntity
  8
0
370
    -3
390
0
  6
Continuous
100
AcDbLine
 10
-216.360463
 20
348.310436
 30
0.0
 11
-216.360463
 21
168.310436
 31
0.0
  0
LINE
  5
348
100
AcDbEntity
  8
0
370
    -3
390
0
  6
Continuous
100
AcDbLine
 10
-235.360463
 20
396.48431
 30
0.0
 11
-235.360463
 21
369.221676
 31
0.0
  0
LINE
  5
349
100
AcDbEntity
  8
0
370
    -3
390
0
  6
Continuous
100
AcDbLine
 10
-235.360463
 20
369.221676
 30
0.0
 11
-235.360463
 21
368.310436
 31
0.0
  0
LINE
  5
34A
100
AcDbEntity
  8
0
370
    -3
390
0
  6
Continuous
100
AcDbLine
 10
-235.360463
 20
327.399196
 30
0.0
 11
-235.360463
 21
300.136562
 31
0.0
  0
LINE
  5
34B
100
AcDbEntity
  8
0
370
    -3
390
0
  6
Continuous
100
AcDbLine
 10
-216.360463
 20
327.399196
 30
0.0
 11
-216.360463
 21
300.136562
 31
0.0
  0
LINE
  5
34C
100
AcDbEntity
  8
0
370
    -3
390
0
  6
Continuous
100
AcDbLine
 10
-216.360463
 20
369.221676
 30
0.0
 11
-216.360463
 21
368.310436
 31
0.0
  0
LINE
  5
34D
100
AcDbEntity
  8
0
370
    -3
390
0
  6
Continuous
100
AcDbLine
 10
-216.360463
 20
396.48431
 30
0.0
 11
-216.360463
 21
369.221676
 31
0.0
  0
LINE
  5
34E
100
AcDbEntity
  8
0
370
    -3
390
0
  6
Continuous
100
AcDbLine
 10
-235.360463
 20
300.136562
 30
0.0
 11
-216.360463
 21
300.136562
 31
0.0
  0
LINE
  5
34F
100
AcDbEntity
  8
0
370
    -3
390
0
  6
Continuous
100
AcDbLine
 10
-235.360463
 20
327.399196
 30
0.0
 11
-216.360463
 21
327.399196
 31
0.0
  0
LINE
  5
350
100
AcDbEntity
  8
0
370
    -3
390
0
  6
Continuous
100
AcDbLine
 10
-235.360463
 20
369.221676
 30
0.0
 11
-216.360463
 21
369.221676
 31
0.0
  0
LINE
  5
351
100
AcDbEntity
  8
0
370
    -3
390
0
  6
Continuous
100
AcDbLine
 10
-216.360463
 20
328.310436
 30
0.0
 11
-216.360463
 21
327.399196
 31
0.0
  0
LINE
  5
352
100
AcDbEntity
  8
0
370
    -3
390
0
  6
Continuous
100
AcDbLine
 10
-235.360463
 20
328.310436
 30
0.0
 11
-235.360463
 21
327.399196
 31
0.0
  0
LINE
  5
353
100
AcDbEntity
  8
0
370
    -3
390
0
  6
Continuous
100
AcDbLine
 10
-254.360463
 20
368.310436
 30
0.0
 11
-216.360463
 21
368.310436
 31
0.0
  0
LINE
  5
354
100
AcDbEntity
  8
0
370
    -3
390
0
  6
Continuous
100
AcDbLine
 10
-216.360463
 20
368.310436
 30
0.0
 11
-216.360463
 21
328.310436
 31
0.0
  0
LINE
  5
355
100
AcDbEntity
  8
0
370
    -3
390
0
  6
Continuous
100
AcDbLine
 10
-216.360463
 20
328.310436
 30
0.0
 11
-254.360463
 21
328.310436
 31
0.0
  0
LINE
  5
356
100
AcDbEntity
  8
0
370
    -3
390
0
  6
Continuous
100
AcDbLine
 10
-235.360463
 20
300.136562
 30
0.0
 11
-235.360463
 21
264.863187
 31
0.0
  0
LINE
  5
357
100
AcDbEntity
  8
0
370
    -3
390
0
  6
Continuous
100
AcDbLine
 10
-216.360463
 20
300.136562
 30
0.0
 11
-216.360463
 21
264.863187
 31
0.0
  0
ARC
  5
358
100
AcDbEntity
  8
0
370
    -3
390
0
  6
Continuous
100
AcDbCircle
 10
-254.360463
 20
348.310436
 30
0.0
 40
20.0
100
AcDbArc
 50
90.0
 51
156.421822
  0
ARC
  5
359
100
AcDbEntity
  8
0
370
    -3
390
0
  6
Continuous
100
AcDbCircle
 10
-254.360463
 20
348.310436
 30
0.0
 40
20.0
100
AcDbArc
 50
203.578178
 51
270.0
  0
LINE
  5
35A
100
AcDbEntity
  8
0
370
    -3
390
0
  6
CENTER
100
AcDbLine
 10
-254.360463
 20
332.383606
 30
0.0
 11
-254.360463
 21
364.03082
 31
0.0
  0
LINE
  5
35B
100
AcDbEntity
  8
0
370
    -3
390
0
  6
Continuous
100
AcDbLine
 10
-226.360463
 20
356.310436
 30
0.0
 11
-282.360463
 21
356.310436
 31
0.0
  0
ARC
  5
35C
100
AcDbEntity
  8
0
370
    -3
390
0
  6
Continuous
100
AcDbCircle
 10
-282.360463
 20
348.310436
 30
0.0
 40
8.0
100
AcDbArc
 50
90.0
 51
270.0
  0
LINE
  5
35D
100
AcDbEntity
  8
0
370
    -3
390
0
  6
Continuous
100
AcDbLine
 10
-226.360463
 20
340.310436
 30
0.0
 11
-282.360463
 21
340.310436
 31
0.0
  0
ARC
  5
35E
100
AcDbEntity
  8
0
370
    -3
390
0
  6
Continuous
100
AcDbCircle
 10
-254.360463
 20
348.310436
 30
0.0
 40
8.647
100
AcDbArc
 50
247.694964
 51
292.305036
  0
ARC
  5
35F
100
AcDbEntity
  8
0
370
    -3
390
0
  6
Continuous
100
AcDbCircle
 10
-254.360463
 20
348.310436
 30
0.0
 40
10.0
100
AcDbArc
 50
233.130102
 51
306.869898
  0
ARC
  5
360
100
AcDbEntity
  8
0
370
    -3
390
0
  6
Continuous
100
AcDbCircle
 10
-254.360463
 20
348.310436
 30
0.0
 40
8.647
100
AcDbArc
 50
67.694964
 51
112.305036
  0
ARC
  5
361
100
AcDbEntity
  8
0
370
    -3
390
0
  6
Continuous
100
AcDbCircle
 10
-254.360463
 20
348.310436
 30
0.0
 40
10.0
100
AcDbArc
 50
53.130102
 51
126.869898
  0
ARC
  5
362
100
AcDbEntity
  8
0
370
    -3
390
0
  6
Continuous
100
AcDbCircle
 10
-226.360463
 20
348.310436
 30
0.0
 40
8.0
100
AcDbArc
 50
270.0
 51
90.0
  0
LINE
  5
363
100
AcDbEntity
  8
0
370
    -3
390
0
  6
Continuous
100
AcDbLine
 10
-331.360463
 20
456.372618
 30
0.0
 11
-331.360463
 21
451.259077
 31
0.0
  0
LINE
  5
364
100
AcDbEntity
  8
0
370
    -3
390
0
  6
Continuous
100
AcDbLine
 10
-331.360463
 20
492.384862
 30
0.0
 11
-331.360463
 21
483.542644
 31
0.0
  0
LINE
  5
365
100
AcDbEntity
  8
0
370
    -3
390
0
  6
Continuous
100
AcDbLine
 10
-331.360463
 20
483.542644
 30
0.0
 11
-331.360463
 21
480.275918
 31
0.0
  0
LINE
  5
366
100
AcDbEntity
  8
0
370
    -3
390
0
  6
Continuous
100
AcDbLine
 10
-331.360463
 20
480.275918
 30
0.0
 11
-331.360463
 21
456.372618
 31
0.0
  0
LINE
  5
367
100
AcDbEntity
  8
0
370
    -3
390
0
  6
Continuous
100
AcDbLine
 10
-235.360463
 20
473.310436
 30
0.0
 11
-331.360463
 21
473.310436
 31
0.0
  0
LINE
  5
368
100
AcDbEntity
  8
0
370
    -3
390
0
  6
Continuous
100
AcDbLine
 10
-331.360463
 20
301.65085
 30
0.0
 11
-331.360463
 21
296.394418
 31
0.0
  0
LINE
  5
369
100
AcDbEntity
  8
0
370
    -3
390
0
  6
Continuous
100
AcDbLine
 10
-331.360463
 20
296.394418
 30
0.0
 11
-331.360463
 21
278.799975
 31
0.0
  0
LINE
  5
36A
100
AcDbEntity
  8
0
370
    -3
390
0
  6
Continuous
100
AcDbLine
 10
-331.360463
 20
278.799975
 30
0.0
 11
-331.360463
 21
275.339142
 31
0.0
  0
LINE
  5
36B
100
AcDbEntity
  8
0
370
    -3
390
0
  6
Continuous
100
AcDbLine
 10
-331.360463
 20
275.339142
 30
0.0
 11
-331.360463
 21
260.02397
 31
0.0
  0
LINE
  5
36C
100
AcDbEntity
  8
0
370
    -3
390
0
  6
Continuous
100
AcDbLine
 10
-331.360463
 20
260.02397
 30
0.0
 11
-331.360463
 21
258.663967
 31
0.0
  0
LINE
  5
36D
100
AcDbEntity
  8
0
370
    -3
390
0
  6
Continuous
100
AcDbLine
 10
-331.360463
 20
258.663967
 30
0.0
 11
-331.360463
 21
214.810436
 31
0.0
  0
LINE
  5
36E
100
AcDbEntity
  8
0
370
    -3
390
0
  6
Continuous
100
AcDbLine
 10
-331.360463
 20
451.259077
 30
0.0
 11
-331.360463
 21
301.65085
 31
0.0
  0
LINE
  5
36F
100
AcDbEntity
  8
0
370
    -3
390
0
  6
Continuous
100
AcDbLine
 10
-346.360463
 20
492.384862
 30
0.0
 11
-346.360463
 21
492.708557
 31
0.0
  0
LINE
  5
370
100
AcDbEntity
  8
0
370
    -3
390
0
  6
Continuous
100
AcDbLine
 10
-346.360463
 20
492.384862
 30
0.0
 11
-331.360463
 21
492.384862
 31
0.0
  0
LINE
  5
371
100
AcDbEntity
  8
0
370
    -3
390
0
  6
Continuous
100
AcDbLine
 10
-331.360463
 20
492.708557
 30
0.0
 11
-346.360463
 21
492.708557
 31
0.0
  0
LINE
  5
372
100
AcDbEntity
  8
0
370
    -3
390
0
  6
Continuous
100
AcDbLine
 10
-346.360463
 20
214.810436
 30
0.0
 11
-346.360463
 21
204.775123
 31
0.0
  0
LINE
  5
373
100
AcDbEntity
  8
0
370
    -3
390
0
  6
Continuous
100
AcDbLine
 10
-346.360463
 20
204.775123
 30
0.0
 11
-331.360463
 21
204.775123
 31
0.0
  0
LINE
  5
374
100
AcDbEntity
  8
0
370
    -3
390
0
  6
Continuous
100
AcDbLine
 10
-346.360463
 20
204.775123
 30
0.0
 11
-346.360463
 21
203.912315
 31
0.0
  0
LINE
  5
375
100
AcDbEntity
  8
0
370
    -3
390
0
  6
Continuous
100
AcDbLine
 10
-346.360463
 20
214.810436
 30
0.0
 11
-331.360463
 21
214.810436
 31
0.0
  0
LINE
  5
376
100
AcDbEntity
  8
0
370
    -3
390
0
  6
Continuous
100
AcDbLine
 10
-346.360463
 20
203.912315
 30
0.0
 11
-331.360463
 21
203.912315
 31
0.0
  0
LINE
  5
377
100
AcDbEntity
  8
0
370
    -3
390
0
  6
Continuous
100
AcDbLine
 10
-361.360463
 20
230.191124
 30
0.0
 11
-361.360463
 21
208.015703
 31
0.0
  0
LINE
  5
378
100
AcDbEntity
  8
0
370
    -3
390
0
  6
Continuous
100
AcDbLine
 10
-361.360463
 20
215.810436
 30
0.0
 11
-346.360463
 21
215.810436
 31
0.0
  0
LINE
  5
379
100
AcDbEntity
  8
0
370
    -3
390
0
  6
Continuous
100
AcDbLine
 10
-361.360463
 20
397.290537
 30
0.0
 11
-361.360463
 21
391.575255
 31
0.0
  0
LINE
  5
37A
100
AcDbEntity
  8
0
370
    -3
390
0
  6
Continuous
100
AcDbLine
 10
-361.360463
 20
406.515364
 30
0.0
 11
-361.360463
 21
412.973932
 31
0.0
  0
LINE
  5
37B
100
AcDbEntity
  8
0
370
    -3
390
0
  6
Continuous
100
AcDbLine
 10
-382.360463
 20
503.310436
 30
0.0
 11
-379.360463
 21
500.310436
 31
0.0
  0
LINE
  5
37C
100
AcDbEntity
  8
0
370
    -3
390
0
  6
Continuous
100
AcDbLine
 10
-379.360463
 20
498.780443
 30
0.0
 11
-379.360463
 21
500.310436
 31
0.0
  0
LINE
  5
37D
100
AcDbEntity
  8
0
370
    -3
390
0
  6
Continuous
100
AcDbLine
 10
-386.849719
 20
503.310436
 30
0.0
 11
-382.360463
 21
503.310436
 31
0.0
  0
LINE
  5
37E
100
AcDbEntity
  8
0
370
    -3
390
0
  6
Continuous
100
AcDbLine
 10
-393.360463
 20
498.3504
 30
0.0
 11
-373.860463
 21
487.67463
 31
0.0
  0
LINE
  5
37F
100
AcDbEntity
  8
0
370
    -3
390
0
  6
Continuous
100
AcDbLine
 10
-393.360463
 20
499.379006
 30
0.0
 11
-373.550727
 21
488.533664
 31
0.0
  0
LINE
  5
380
100
AcDbEntity
  8
0
370
    -3
390
0
  6
Continuous
100
AcDbLine
 10
-393.360463
 20
503.935255
 30
0.0
 11
-369.059677
 21
490.155519
 31
0.0
  0
LINE
  5
381
100
AcDbEntity
  8
0
370
    -3
390
0
  6
Continuous
100
AcDbLine
 10
-367.958734
 20
490.155519
 30
0.0
 11
-393.360463
 21
504.559544
 31
0.0
  0
LINE
  5
382
100
AcDbEntity
  8
0
370
    -3
390
0
  6
Continuous
100
AcDbLine
 10
-364.047751
 20
490.155519
 30
0.0
 11
-393.360463
 21
507.066616
 31
0.0
  0
LINE
  5
383
100
AcDbEntity
  8
0
370
    -3
390
0
  6
Continuous
100
AcDbLine
 10
-393.360463
 20
506.857326
 30
0.0
 11
-364.410522
 21
490.155519
 31
0.0
  0
LINE
  5
384
100
AcDbEntity
  8
0
370
    -3
390
0
  6
Continuous
100
AcDbLine
 10
-346.360463
 20
230.191124
 30
0.0
 11
-429.226858
 21
230.191124
 31
0.0
  0
LINE
  5
385
100
AcDbEntity
  8
0
370
    -3
390
0
  6
Continuous
100
AcDbLine
 10
-393.360463
 20
293.078516
 30
0.0
 11
-393.360463
 21
296.090279
 31
0.0
  0
LINE
  5
386
100
AcDbEntity
  8
0
370
    -3
390
0
  6
Continuous
100
AcDbLine
 10
-393.360463
 20
403.542355
 30
0.0
 11
-393.360463
 21
400.530592
 31
0.0
  0
LINE
  5
387
100
AcDbEntity
  8
0
370
    -3
390
0
  6
Continuous
100
AcDbLine
 10
-361.360463
 20
394.278774
 30
0.0
 11
-393.360463
 21
400.530592
 31
0.0
  0
LINE
  5
388
100
AcDbEntity
  8
0
370
    -3
390
0
  6
Continuous
100
AcDbLine
 10
-393.360463
 20
403.542355
 30
0.0
 11
-361.360463
 21
397.290537
 31
0.0
  0
LINE
  5
389
100
AcDbEntity
  8
0
370
    -3
390
0
  6
Continuous
100
AcDbLine
 10
-393.360463
 20
418.443698
 30
0.0
 11
-393.360463
 21
421.30123
 31
0.0
  0
LINE
  5
38A
100
AcDbEntity
  8
0
370
    -3
390
0
  6
Continuous
100
AcDbLine
 10
-361.360463
 20
410.1164
 30
0.0
 11
-393.360463
 21
418.443698
 31
0.0
  0
LINE
  5
38B
100
AcDbEntity
  8
0
370
    -3
390
0
  6
Continuous
100
AcDbLine
 10
-393.360463
 20
421.30123
 30
0.0
 11
-361.360463
 21
412.973932
 31
0.0
  0
LINE
  5
38C
100
AcDbEntity
  8
0
370
    -3
390
0
  6
Continuous
100
AcDbLine
 10
-393.360463
 20
504.56744
 30
0.0
 11
-393.360463
 21
503.943151
 31
0.0
  0
LINE
  5
38D
100
AcDbEntity
  8
0
370
    -3
390
0
  6
Continuous
100
AcDbLine
 10
-393.360463
 20
499.386629
 30
0.0
 11
-393.360463
 21
498.3504
 31
0.0
  0
LINE
  5
38E
100
AcDbEntity
  8
0
370
    -3
390
0
  6
Continuous
100
AcDbLine
 10
-393.360463
 20
506.857326
 30
0.0
 11
-393.360463
 21
507.066616
 31
0.0
  0
LINE
  5
38F
100
AcDbEntity
  8
0
370
    -3
390
0
  6
Continuous
100
AcDbLine
 10
-393.360463
 20
491.613643
 30
0.0
 11
-393.360463
 21
490.198319
 31
0.0
  0
LINE
  5
390
100
AcDbEntity
  8
0
370
    -3
390
0
  6
Continuous
100
AcDbLine
 10
-393.360463
 20
192.053431
 30
0.0
 11
-393.360463
 21
192.67772
 31
0.0
  0
LINE
  5
391
100
AcDbEntity
  8
0
370
    -3
390
0
  6
Continuous
100
AcDbLine
 10
-393.360463
 20
197.234242
 30
0.0
 11
-393.360463
 21
198.270471
 31
0.0
  0
LINE
  5
392
100
AcDbEntity
  8
0
370
    -3
390
0
  6
Continuous
100
AcDbLine
 10
-393.360463
 20
189.763545
 30
0.0
 11
-361.360463
 21
208.224993
 31
0.0
  0
LINE
  5
393
100
AcDbEntity
  8
0
370
    -3
390
0
  6
Continuous
100
AcDbLine
 10
-361.360463
 20
208.015703
 30
0.0
 11
-393.360463
 21
189.554255
 31
0.0
  0
LINE
  5
394
100
AcDbEntity
  8
0
370
    -3
390
0
  6
Continuous
100
AcDbLine
 10
-393.360463
 20
189.763545
 30
0.0
 11
-393.360463
 21
189.554255
 31
0.0
  0
LINE
  5
395
100
AcDbEntity
  8
0
370
    -3
390
0
  6
Continuous
100
AcDbLine
 10
-361.360463
 20
210.206895
 30
0.0
 11
-393.360463
 21
192.061327
 31
0.0
  0
LINE
  5
396
100
AcDbEntity
  8
0
370
    -3
390
0
  6
Continuous
100
AcDbLine
 10
-393.360463
 20
192.685616
 30
0.0
 11
-361.360463
 21
210.831184
 31
0.0
  0
LINE
  5
397
100
AcDbEntity
  8
0
370
    -3
390
0
  6
Continuous
100
AcDbLine
 10
-393.360463
 20
197.241865
 30
0.0
 11
-361.360463
 21
214.761076
 31
0.0
  0
LINE
  5
398
100
AcDbEntity
  8
0
370
    -3
390
0
  6
Continuous
100
AcDbLine
 10
-393.360463
 20
198.270471
 30
0.0
 11
-361.360463
 21
215.789683
 31
0.0
  0
LINE
  5
399
100
AcDbEntity
  8
0
370
    -3
390
0
  6
Continuous
100
AcDbLine
 10
-393.360463
 20
205.007228
 30
0.0
 11
-361.360463
 21
221.600325
 31
0.0
  0
LINE
  5
39A
100
AcDbEntity
  8
0
370
    -3
390
0
  6
Continuous
100
AcDbLine
 10
-393.360463
 20
206.422552
 30
0.0
 11
-361.360463
 21
223.015648
 31
0.0
  0
LINE
  5
39B
100
AcDbEntity
  8
0
370
    -3
390
0
  6
Continuous
100
AcDbLine
 10
-393.360463
 20
205.007228
 30
0.0
 11
-393.360463
 21
206.422552
 31
0.0
  0
LINE
  5
39C
100
AcDbEntity
  8
0
370
    -3
390
0
  6
Continuous
100
AcDbLine
 10
-393.360463
 20
278.177173
 30
0.0
 11
-393.360463
 21
275.319641
 31
0.0
  0
LINE
  5
39D
100
AcDbEntity
  8
0
370
    -3
390
0
  6
Continuous
100
AcDbLine
 10
-460.360463
 20
242.276815
 30
0.0
 11
-428.360463
 21
254.475412
 31
0.0
  0
LINE
  5
39E
100
AcDbEntity
  8
0
370
    -3
390
0
  6
Continuous
100
AcDbLine
 10
-428.360463
 20
256.881299
 30
0.0
 11
-460.360463
 21
244.682703
 31
0.0
  0
LINE
  5
39F
100
AcDbEntity
  8
0
370
    -3
390
0
  6
Continuous
100
AcDbLine
 10
-428.360463
 20
254.475412
 30
0.0
 11
-428.360463
 21
262.156429
 31
0.0
  0
LINE
  5
3A0
100
AcDbEntity
  8
0
370
    -3
390
0
  6
Continuous
100
AcDbLine
 10
-428.360463
 20
262.156429
 30
0.0
 11
-449.440608
 21
262.156429
 31
0.0
  0
LINE
  5
3A1
100
AcDbEntity
  8
0
370
    -3
390
0
  6
Continuous
100
AcDbLine
 10
-460.360463
 20
437.971981
 30
0.0
 11
-428.360463
 21
427.693343
 31
0.0
  0
LINE
  5
3A2
100
AcDbEntity
  8
0
370
    -3
390
0
  6
Continuous
100
AcDbLine
 10
-428.360463
 20
425.03264
 30
0.0
 11
-460.360463
 21
435.311279
 31
0.0
  0
LINE
  5
3A3
100
AcDbEntity
  8
0
370
    -3
390
0
  6
Continuous
100
AcDbLine
 10
-428.360463
 20
427.693343
 30
0.0
 11
-428.360463
 21
421.30123
 31
0.0
  0
LINE
  5
3A4
100
AcDbEntity
  8
0
370
    -3
390
0
  6
Continuous
100
AcDbLine
 10
-460.360463
 20
454.344056
 30
0.0
 11
-428.360463
 21
442.145459
 31
0.0
  0
LINE
  5
3A5
100
AcDbEntity
  8
0
370
    -3
390
0
  6
Continuous
100
AcDbLine
 10
-428.360463
 20
439.739572
 30
0.0
 11
-460.360463
 21
451.938168
 31
0.0
  0
LINE
  5
3A6
100
AcDbEntity
  8
0
370
    -3
390
0
  6
Continuous
100
AcDbLine
 10
-428.360463
 20
442.145459
 30
0.0
 11
-428.360463
 21
434.464443
 31
0.0
  0
LINE
  5
3A7
100
AcDbEntity
  8
0
370
    -3
390
0
  6
Continuous
100
AcDbLine
 10
-428.360463
 20
434.464443
 30
0.0
 11
-449.440608
 21
434.464443
 31
0.0
  0
LINE
  5
3A8
100
AcDbEntity
  8
0
370
    -3
390
0
  6
Continuous
100
AcDbLine
 10
-460.360463
 20
258.64889
 30
0.0
 11
-428.360463
 21
268.927528
 31
0.0
  0
LINE
  5
3A9
100
AcDbEntity
  8
0
370
    -3
390
0
  6
Continuous
100
AcDbLine
 10
-428.360463
 20
271.588231
 30
0.0
 11
-460.360463
 21
261.309593
 31
0.0
  0
LINE
  5
3AA
100
AcDbEntity
  8
0
370
    -3
390
0
  6
Continuous
100
AcDbLine
 10
-428.360463
 20
268.927528
 30
0.0
 11
-428.360463
 21
275.319641
 31
0.0
  0
LINE
  5
3AB
100
AcDbEntity
  8
0
370
    -3
390
0
  6
Continuous
100
AcDbLine
 10
-346.360463
 20
456.372618
 30
0.0
 11
-346.360463
 21
451.259077
 31
0.0
  0
LINE
  5
3AC
100
AcDbEntity
  8
0
370
    -3
390
0
  6
Continuous
100
AcDbLine
 10
-346.360463
 20
451.259077
 30
0.0
 11
-331.360463
 21
451.259077
 31
0.0
  0
LINE
  5
3AD
100
AcDbEntity
  8
0
370
    -3
390
0
  6
Continuous
100
AcDbLine
 10
-346.360463
 20
492.384862
 30
0.0
 11
-346.360463
 21
483.542644
 31
0.0
  0
LINE
  5
3AE
100
AcDbEntity
  8
0
370
    -3
390
0
  6
Continuous
100
AcDbLine
 10
-346.360463
 20
483.542644
 30
0.0
 11
-331.360463
 21
483.542644
 31
0.0
  0
LINE
  5
3AF
100
AcDbEntity
  8
0
370
    -3
390
0
  6
Continuous
100
AcDbLine
 10
-346.360463
 20
483.542644
 30
0.0
 11
-346.360463
 21
480.275918
 31
0.0
  0
LINE
  5
3B0
100
AcDbEntity
  8
0
370
    -3
390
0
  6
Continuous
100
AcDbLine
 10
-346.360463
 20
480.275918
 30
0.0
 11
-331.360463
 21
480.275918
 31
0.0
  0
LINE
  5
3B1
100
AcDbEntity
  8
0
370
    -3
390
0
  6
Continuous
100
AcDbLine
 10
-346.360463
 20
480.275918
 30
0.0
 11
-346.360463
 21
456.372618
 31
0.0
  0
LINE
  5
3B2
100
AcDbEntity
  8
0
370
    -3
390
0
  6
Continuous
100
AcDbLine
 10
-346.360463
 20
456.372618
 30
0.0
 11
-331.360463
 21
456.372618
 31
0.0
  0
LINE
  5
3B3
100
AcDbEntity
  8
0
370
    -3
390
0
  6
CENTER
100
AcDbLine
 10
-324.99238
 20
472.152069
 30
0.0
 11
-354.314223
 21
472.152069
 31
0.0
  0
LINE
  5
3B4
100
AcDbEntity
  8
0
370
    -3
390
0
  6
Continuous
100
AcDbLine
 10
-371.360463
 20
466.429747
 30
0.0
 11
-429.226858
 21
466.429747
 31
0.0
  0
LINE
  5
3B5
100
AcDbEntity
  8
0
370
    -3
390
0
  6
Continuous
100
AcDbLine
 10
-393.360463
 20
490.198319
 30
0.0
 11
-373.860463
 21
480.086901
 31
0.0
  0
LINE
  5
3B6
100
AcDbEntity
  8
0
370
    -3
390
0
  6
Continuous
100
AcDbLine
 10
-393.360463
 20
491.613643
 30
0.0
 11
-373.860463
 21
481.502225
 31
0.0
  0
LINE
  5
3B7
100
AcDbEntity
  8
0
370
    -3
390
0
  6
Continuous
100
AcDbLine
 10
-346.360463
 20
301.65085
 30
0.0
 11
-331.360463
 21
301.65085
 31
0.0
  0
LINE
  5
3B8
100
AcDbEntity
  8
0
370
    -3
390
0
  6
Continuous
100
AcDbLine
 10
-346.360463
 20
301.65085
 30
0.0
 11
-346.360463
 21
296.394418
 31
0.0
  0
LINE
  5
3B9
100
AcDbEntity
  8
0
370
    -3
390
0
  6
Continuous
100
AcDbLine
 10
-346.360463
 20
296.394418
 30
0.0
 11
-331.360463
 21
296.394418
 31
0.0
  0
LINE
  5
3BA
100
AcDbEntity
  8
0
370
    -3
390
0
  6
Continuous
100
AcDbLine
 10
-346.360463
 20
296.394418
 30
0.0
 11
-346.360463
 21
278.799975
 31
0.0
  0
LINE
  5
3BB
100
AcDbEntity
  8
0
370
    -3
390
0
  6
Continuous
100
AcDbLine
 10
-346.360463
 20
278.799975
 30
0.0
 11
-331.360463
 21
278.799975
 31
0.0
  0
LINE
  5
3BC
100
AcDbEntity
  8
0
370
    -3
390
0
  6
Continuous
100
AcDbLine
 10
-346.360463
 20
278.799975
 30
0.0
 11
-346.360463
 21
275.339142
 31
0.0
  0
LINE
  5
3BD
100
AcDbEntity
  8
0
370
    -3
390
0
  6
Continuous
100
AcDbLine
 10
-346.360463
 20
275.339142
 30
0.0
 11
-331.360463
 21
275.339142
 31
0.0
  0
LINE
  5
3BE
100
AcDbEntity
  8
0
370
    -3
390
0
  6
Continuous
100
AcDbLine
 10
-346.360463
 20
275.339142
 30
0.0
 11
-346.360463
 21
260.02397
 31
0.0
  0
LINE
  5
3BF
100
AcDbEntity
  8
0
370
    -3
390
0
  6
Continuous
100
AcDbLine
 10
-346.360463
 20
260.02397
 30
0.0
 11
-331.360463
 21
260.02397
 31
0.0
  0
LINE
  5
3C0
100
AcDbEntity
  8
0
370
    -3
390
0
  6
Continuous
100
AcDbLine
 10
-346.360463
 20
260.02397
 30
0.0
 11
-346.360463
 21
258.663967
 31
0.0
  0
LINE
  5
3C1
100
AcDbEntity
  8
0
370
    -3
390
0
  6
Continuous
100
AcDbLine
 10
-346.360463
 20
258.663967
 30
0.0
 11
-346.360463
 21
214.810436
 31
0.0
  0
LINE
  5
3C2
100
AcDbEntity
  8
0
370
    -3
390
0
  6
Continuous
100
AcDbLine
 10
-346.360463
 20
258.663967
 30
0.0
 11
-331.360463
 21
258.663967
 31
0.0
  0
LINE
  5
3C3
100
AcDbEntity
  8
0
370
    -3
390
0
  6
CENTER
100
AcDbLine
 10
-327.646404
 20
276.810436
 30
0.0
 11
-352.623164
 21
276.810436
 31
0.0
  0
LINE
  5
3C4
100
AcDbEntity
  8
0
370
    -3
390
0
  6
Continuous
100
AcDbLine
 10
-361.360463
 20
299.330334
 30
0.0
 11
-361.360463
 21
305.045617
 31
0.0
  0
LINE
  5
3C5
100
AcDbEntity
  8
0
370
    -3
390
0
  6
Continuous
100
AcDbLine
 10
-393.360463
 20
275.319641
 30
0.0
 11
-371.360463
 21
281.044659
 31
0.0
  0
LINE
  5
3C6
100
AcDbEntity
  8
0
370
    -3
390
0
  6
Continuous
100
AcDbLine
 10
-371.360463
 20
283.902191
 30
0.0
 11
-393.360463
 21
278.177173
 31
0.0
  0
LINE
  5
3C7
100
AcDbEntity
  8
0
370
    -3
390
0
  6
Continuous
100
AcDbLine
 10
-361.360463
 20
302.342097
 30
0.0
 11
-393.360463
 21
296.090279
 31
0.0
  0
LINE
  5
3C8
100
AcDbEntity
  8
0
370
    -3
390
0
  6
Continuous
100
AcDbLine
 10
-393.360463
 20
293.078516
 30
0.0
 11
-361.360463
 21
299.330334
 31
0.0
  0
LINE
  5
3C9
100
AcDbEntity
  8
0
370
    -3
390
0
  6
Continuous
100
AcDbLine
 10
-346.360463
 20
214.810436
 30
0.0
 11
-346.360463
 21
481.810436
 31
0.0
  0
LINE
  5
3CA
100
AcDbEntity
  8
0
370
    -3
390
0
  6
Continuous
100
AcDbLine
 10
-346.360463
 20
451.259077
 30
0.0
 11
-346.360463
 21
301.65085
 31
0.0
  0
LINE
  5
3CB
100
AcDbEntity
  8
0
370
    -3
390
0
  6
Continuous
100
AcDbLine
 10
-663.360463
 20
293.078516
 30
0.0
 11
-393.360463
 21
293.078516
 31
0.0
  0
LINE
  5
3CC
100
AcDbEntity
  8
0
370
    -3
390
0
  6
Continuous
100
AcDbLine
 10
-393.360463
 20
296.090279
 30
0.0
 11
-663.360463
 21
296.090279
 31
0.0
  0
LINE
  5
3CD
100
AcDbEntity
  8
0
370
    -3
390
0
  6
Continuous
100
AcDbLine
 10
-393.360463
 20
189.554255
 30
0.0
 11
-529.360463
 21
189.554255
 31
0.0
  0
LINE
  5
3CE
100
AcDbEntity
  8
0
370
    -3
390
0
  6
Continuous
100
AcDbLine
 10
-529.360463
 20
189.763545
 30
0.0
 11
-393.360463
 21
189.763545
 31
0.0
  0
LINE
  5
3CF
100
AcDbEntity
  8
0
370
    -3
390
0
  6
Continuous
100
AcDbLine
 10
-393.360463
 20
192.685616
 30
0.0
 11
-529.360463
 21
192.685616
 31
0.0
  0
LINE
  5
3D0
100
AcDbEntity
  8
0
370
    -3
390
0
  6
Continuous
100
AcDbLine
 10
-529.360463
 20
192.061327
 30
0.0
 11
-393.360463
 21
192.061327
 31
0.0
  0
LINE
  5
3D1
100
AcDbEntity
  8
0
370
    -3
390
0
  6
Continuous
100
AcDbLine
 10
-393.360463
 20
197.241865
 30
0.0
 11
-529.360463
 21
197.241865
 31
0.0
  0
LINE
  5
3D2
100
AcDbEntity
  8
0
370
    -3
390
0
  6
Continuous
100
AcDbLine
 10
-529.360463
 20
198.270471
 30
0.0
 11
-393.360463
 21
198.270471
 31
0.0
  0
LINE
  5
3D3
100
AcDbEntity
  8
0
370
    -3
390
0
  6
Continuous
100
AcDbLine
 10
-393.360463
 20
205.007228
 30
0.0
 11
-529.360463
 21
205.007228
 31
0.0
  0
LINE
  5
3D4
100
AcDbEntity
  8
0
370
    -3
390
0
  6
Continuous
100
AcDbLine
 10
-393.360463
 20
206.422552
 30
0.0
 11
-529.360463
 21
206.422552
 31
0.0
  0
LINE
  5
3D5
100
AcDbEntity
  8
0
370
    -3
390
0
  6
Continuous
100
AcDbLine
 10
-393.360463
 20
278.177173
 30
0.0
 11
-663.360463
 21
278.177173
 31
0.0
  0
LINE
  5
3D6
100
AcDbEntity
  8
0
370
    -3
390
0
  6
Continuous
100
AcDbLine
 10
-393.360463
 20
275.319641
 30
0.0
 11
-663.360463
 21
275.319641
 31
0.0
  0
LINE
  5
3D7
100
AcDbEntity
  8
0
370
    -3
390
0
  6
Continuous
100
AcDbLine
 10
-361.360463
 20
391.575255
 30
0.0
 11
-695.360463
 21
391.575255
 31
0.0
  0
LINE
  5
3D8
100
AcDbEntity
  8
0
370
    -3
390
0
  6
Continuous
100
AcDbLine
 10
-663.360463
 20
403.542355
 30
0.0
 11
-393.360463
 21
403.542355
 31
0.0
  0
LINE
  5
3D9
100
AcDbEntity
  8
0
370
    -3
390
0
  6
Continuous
100
AcDbLine
 10
-393.360463
 20
400.530592
 30
0.0
 11
-663.360463
 21
400.530592
 31
0.0
  0
LINE
  5
3DA
100
AcDbEntity
  8
0
370
    -3
390
0
  6
Continuous
100
AcDbLine
 10
-393.360463
 20
421.30123
 30
0.0
 11
-663.360463
 21
421.30123
 31
0.0
  0
LINE
  5
3DB
100
AcDbEntity
  8
0
370
    -3
390
0
  6
Continuous
100
AcDbLine
 10
-393.360463
 20
418.443698
 30
0.0
 11
-663.360463
 21
418.443698
 31
0.0
  0
LINE
  5
3DC
100
AcDbEntity
  8
0
370
    -3
390
0
  6
Continuous
100
AcDbLine
 10
-361.360463
 20
406.515364
 30
0.0
 11
-695.360463
 21
406.515364
 31
0.0
  0
LINE
  5
3DD
100
AcDbEntity
  8
0
370
    -3
390
0
  6
Continuous
100
AcDbLine
 10
-393.360463
 20
507.066616
 30
0.0
 11
-663.360463
 21
507.066616
 31
0.0
  0
LINE
  5
3DE
100
AcDbEntity
  8
0
370
    -3
390
0
  6
Continuous
100
AcDbLine
 10
-663.360463
 20
506.857326
 30
0.0
 11
-393.360463
 21
506.857326
 31
0.0
  0
LINE
  5
3DF
100
AcDbEntity
  8
0
370
    -3
390
0
  6
Continuous
100
AcDbLine
 10
-393.360463
 20
503.935255
 30
0.0
 11
-663.360463
 21
503.935255
 31
0.0
  0
LINE
  5
3E0
100
AcDbEntity
  8
0
370
    -3
390
0
  6
Continuous
100
AcDbLine
 10
-663.360463
 20
504.559544
 30
0.0
 11
-393.360463
 21
504.559544
 31
0.0
  0
LINE
  5
3E1
100
AcDbEntity
  8
0
370
    -3
390
0
  6
Continuous
100
AcDbLine
 10
-393.360463
 20
499.379006
 30
0.0
 11
-663.360463
 21
499.379006
 31
0.0
  0
LINE
  5
3E2
100
AcDbEntity
  8
0
370
    -3
390
0
  6
Continuous
100
AcDbLine
 10
-663.360463
 20
498.3504
 30
0.0
 11
-393.360463
 21
498.3504
 31
0.0
  0
LINE
  5
3E3
100
AcDbEntity
  8
0
370
    -3
390
0
  6
Continuous
100
AcDbLine
 10
-393.360463
 20
491.613643
 30
0.0
 11
-663.360463
 21
491.613643
 31
0.0
  0
LINE
  5
3E4
100
AcDbEntity
  8
0
370
    -3
390
0
  6
Continuous
100
AcDbLine
 10
-393.360463
 20
490.198319
 30
0.0
 11
-663.360463
 21
490.198319
 31
0.0
  0
LINE
  5
3E5
100
AcDbEntity
  8
0
370
    -3
390
0
  6
Continuous
100
AcDbLine
 10
-371.360463
 20
290.105507
 30
0.0
 11
-676.360463
 21
290.105507
 31
0.0
  0
LINE
  5
3E6
100
AcDbEntity
  8
0
370
    -3
390
0
  6
Continuous
100
AcDbLine
 10
-361.360463
 20
305.045617
 30
0.0
 11
-676.360463
 21
305.045617
 31
0.0
  0
LINE
  5
3E7
100
AcDbEntity
  8
0
370
    -3
390
0
  6
CENTER
100
AcDbLine
 10
-528.360463
 20
312.187734
 30
0.0
 11
-528.360463
 21
382.605728
 31
0.0
  0
LINE
  5
3E8
100
AcDbEntity
  8
0
370
    -3
390
0
  6
Continuous
100
AcDbLine
 10
-508.360463
 20
353.310436
 30
0.0
 11
-548.360463
 21
353.310436
 31
0.0
  0
ARC
  5
3E9
100
AcDbEntity
  8
0
370
    -3
390
0
  6
Continuous
100
AcDbCircle
 10
-338.860463
 20
209.168301
 30
0.0
 40
10.0
100
AcDbArc
 50
138.590378
 51
180.0
  0
LINE
  5
3EA
100
AcDbEntity
  8
0
370
    -3
390
0
  6
Continuous
100
AcDbLine
 10
-235.360463
 20
218.310436
 30
0.0
 11
-331.360463
 21
218.310436
 31
0.0
  0
LINE
  5
3EB
100
AcDbEntity
  8
0
370
    -3
390
0
  6
Continuous
100
AcDbLine
 10
-348.860463
 20
507.310436
 30
0.0
 11
-348.860463
 21
490.155519
 31
0.0
  0
LINE
  5
3EC
100
AcDbEntity
  8
0
370
    -3
390
0
  6
Continuous
100
AcDbLine
 10
-235.360463
 20
478.310436
 30
0.0
 11
-316.360503
 21
478.310436
 31
0.0
  0
ARC
  5
3ED
100
AcDbEntity
  8
0
370
    -3
390
0
  6
Continuous
100
AcDbCircle
 10
-323.860463
 20
498.310436
 30
0.0
 40
12.0
100
AcDbArc
 50
231.317813
 51
207.828284
  0
ARC
  5
3EE
100
AcDbEntity
  8
0
370
    -3
390
0
  6
Continuous
100
AcDbCircle
 10
-323.860463
 20
198.310436
 30
0.0
 40
12.0
100
AcDbArc
 50
152.171716
 51
128.682187
  0
LINE
  5
3EF
100
AcDbEntity
  8
0
370
    -3
390
0
  6
CENTER
100
AcDbLine
 10
138.936304
 20
348.310436
 30
0.0
 11
-814.324191
 21
348.310436
 31
0.0
  0
LINE
  5
3F0
100
AcDbEntity
  8
0
370
    -3
390
0
  6
Continuous
100
AcDbLine
 10
-680.360463
 20
-298.008845
 30
0.0
 11
-680.360463
 21
-323.646862
 31
0.0
  0
ARC
  5
3F1
100
AcDbEntity
  8
0
370
    -3
390
0
  6
Continuous
100
AcDbCircle
 10
-678.360463
 20
-323.646862
 30
0.0
 40
2.0
100
AcDbArc
 50
180.0
 51
270.0
  0
ARC
  5
3F2
100
AcDbEntity
  8
0
370
    -3
390
0
  6
Continuous
100
AcDbCircle
 10
-678.360463
 20
-327.646862
 30
0.0
 40
2.0
100
AcDbArc
 50
0.0
 51
90.0
  0
LINE
  5
3F3
100
AcDbEntity
  8
0
370
    -3
390
0
  6
CENTER
100
AcDbLine
 10
-165.277309
 20
-270.59839
 30
0.0
 11
-831.807087
 21
-270.59839
 31
0.0
  0
LINE
  5
3F4
100
AcDbEntity
  8
0
370
    -3
390
0
  6
Continuous
100
AcDbLine
 10
-655.360463
 20
-135.452639
 30
0.0
 11
-595.346776
 21
-135.452639
 31
0.0
  0
ARC
  5
3F5
100
AcDbEntity
  8
0
370
    -3
390
0
  6
Continuous
100
AcDbCircle
 10
-595.346776
 20
-144.452639
 30
0.0
 40
9.0
100
AcDbArc
 50
9.449383
 51
90.0
  0
LINE
  5
3F6
100
AcDbEntity
  8
0
370
    -3
390
0
  6
Continuous
100
AcDbLine
 10
-655.360463
 20
-135.452639
 30
0.0
 11
-715.37415
 21
-135.452639
 31
0.0
  0
ARC
  5
3F7
100
AcDbEntity
  8
0
370
    -3
390
0
  6
Continuous
100
AcDbCircle
 10
-715.37415
 20
-144.452639
 30
0.0
 40
9.0
100
AcDbArc
 50
90.0
 51
170.550617
  0
ARC
  5
3F8
100
AcDbEntity
  8
0
370
    -3
390
0
  6
Continuous
100
AcDbCircle
 10
-697.218026
 20
-268.939417
 30
0.0
 40
6.0
100
AcDbArc
 50
205.298826
 51
270.0
  0
ELLIPSE
  5
3F9
100
AcDbEntity
  8
0
370
    -3
390
0
  6
Continuous
100
AcDbEllipse
 10
-712.860463
 20
-274.939417
 30
0.0
 11
11.0
 21
0.0
 31
0.0
210
0.0
220
0.0
230
1.0
 40
0.843458
 41
0.3793675677192439
 42
1.5707963267948966
  0
LINE
  5
3FA
100
AcDbEntity
  8
0
370
    -3
390
0
  6
Continuous
100
AcDbLine
 10
-655.360463
 20
-274.939417
 30
0.0
 11
-697.218026
 21
-274.939417
 31
0.0
  0
ARC
  5
3FB
100
AcDbEntity
  8
0
370
    -3
390
0
  6
Continuous
100
AcDbCircle
 10
-613.5029
 20
-268.939417
 30
0.0
 40
6.0
100
AcDbArc
 50
270.0
 51
334.701174
  0
ELLIPSE
  5
3FC
100
AcDbEntity
  8
0
370
    -3
390
0
  6
Continuous
100
AcDbEllipse
 10
-597.860463
 20
-274.939417
 30
0.0
 11
11.0
 21
0.0
 31
0.0
210
0.0
220
0.0
230
1.0
 40
0.843458
 41
1.5707963267948966
 42
2.7622250858705493
  0
LINE
  5
3FD
100
AcDbEntity
  8
0
370
    -3
390
0
  6
Continuous
100
AcDbLine
 10
-655.360463
 20
-274.939417
 30
0.0
 11
-613.5029
 21
-274.939417
 31
0.0
  0
LINE
  5
3FE
100
AcDbEntity
  8
0
370
    -3
390
0
  6
Continuous
100
AcDbLine
 10
-711.16341
 20
-270.694028
 30
0.0
 11
-714.557516
 21
-274.088145
 31
0.0
  0
LINE
  5
3FF
100
AcDbEntity
  8
0
370
    -3
390
0
  6
Continuous
100
AcDbLine
 10
-714.557521
 20
-270.694033
 30
0.0
 11
-711.163405
 21
-274.08814
 31
0.0
  0
POINT
  5
400
100
AcDbEntity
  8
0
370
    -3
390
0
  6
Continuous
100
AcDbPoint
 10
-712.860463
 20
-272.391087
 30
0.0
  0
ELLIPSE
  5
401
100
AcDbEntity
  8
0
370
    -3
390
0
  6
Continuous
100
AcDbEllipse
 10
-712.860463
 20
-272.391087
 30
0.0
 11
4.5
 21
0.0
 31
0.0
210
0.0
220
0.0
230
1.0
 40
0.727273
 41
0.0
 42
6.2831853071795862
  0
LINE
  5
402
100
AcDbEntity
  8
0
370
    -3
390
0
  6
CENTER
100
AcDbLine
 10
-708.140406
 20
-272.391087
 30
0.0
 11
-717.767772
 21
-272.391087
 31
0.0
  0
LINE
  5
403
100
AcDbEntity
  8
0
370
    -3
390
0
  6
CENTER
100
AcDbLine
 10
-712.860463
 20
-268.225225
 30
0.0
 11
-712.860463
 21
-276.84204
 31
0.0
  0
LINE
  5
404
100
AcDbEntity
  8
0
370
    -3
390
0
  6
Continuous
100
AcDbLine
 10
-599.557516
 20
-270.694028
 30
0.0
 11
-596.16341
 21
-274.088145
 31
0.0
  0
LINE
  5
405
100
AcDbEntity
  8
0
370
    -3
390
0
  6
Continuous
100
AcDbLine
 10
-596.163405
 20
-270.694033
 30
0.0
 11
-599.557521
 21
-274.08814
 31
0.0
  0
POINT
  5
406
100
AcDbEntity
  8
0
370
    -3
390
0
  6
Continuous
100
AcDbPoint
 10
-597.860463
 20
-272.391087
 30
0.0
  0
ELLIPSE
  5
407
100
AcDbEntity
  8
0
370
    -3
390
0
  6
Continuous
100
AcDbEllipse
 10
-597.860463
 20
-272.391087
 30
0.0
 11
4.5
 21
0.0
 31
0.0
210
0.0
220
0.0
230
1.0
 40
0.727273
 41
0.0
 42
6.2831853071795862
  0
LINE
  5
408
100
AcDbEntity
  8
0
370
    -3
390
0
  6
CENTER
100
AcDbLine
 10
-602.58052
 20
-272.391087
 30
0.0
 11
-592.953154
 21
-272.391087
 31
0.0
  0
LINE
  5
409
100
AcDbEntity
  8
0
370
    -3
390
0
  6
CENTER
100
AcDbLine
 10
-597.860463
 20
-268.225225
 30
0.0
 11
-597.860463
 21
-276.84204
 31
0.0
  0
LINE
  5
40A
100
AcDbEntity
  8
0
370
    -3
390
0
  6
CENTER
100
AcDbLine
 10
-677.450675
 20
-288.768474
 30
0.0
 11
-633.932294
 21
-288.768474
 31
0.0
  0
LINE
  5
40B
100
AcDbEntity
  8
0
370
    -3
390
0
  6
Continuous
100
AcDbLine
 10
-655.360463
 20
-298.008845
 30
0.0
 11
-693.086998
 21
-298.008845
 31
0.0
  0
ARC
  5
40C
100
AcDbEntity
  8
0
370
    -3
390
0
  6
Continuous
100
AcDbCircle
 10
-693.086998
 20
-289.008845
 30
0.0
 40
9.0
100
AcDbArc
 50
230.025496
 51
270.0
  0
ARC
  5
40D
100
AcDbEntity
  8
0
370
    -3
390
0
  6
Continuous
100
AcDbCircle
 10
-617.633928
 20
-289.008845
 30
0.0
 40
9.0
100
AcDbArc
 50
270.0
 51
309.974504
  0
LINE
  5
40E
100
AcDbEntity
  8
0
370
    -3
390
0
  6
Continuous
100
AcDbLine
 10
-655.360463
 20
-298.008845
 30
0.0
 11
-617.633928
 21
-298.008845
 31
0.0
  0
LINE
  5
40F
100
AcDbEntity
  8
0
370
    -3
390
0
  6
Continuous
100
AcDbLine
 10
-597.96696
 20
-284.26549
 30
0.0
 11
-611.851908
 21
-295.905819
 31
0.0
  0
LINE
  5
410
100
AcDbEntity
  8
0
370
    -3
390
0
  6
Continuous
100
AcDbLine
 10
-712.753966
 20
-284.26549
 30
0.0
 11
-698.869018
 21
-295.905819
 31
0.0
  0
LINE
  5
411
100
AcDbEntity
  8
0
370
    -3
390
0
  6
Continuous
100
AcDbLine
 10
-597.860463
 20
-265.661381
 30
0.0
 11
-593.030127
 21
-265.661381
 31
0.0
  0
ARC
  5
412
100
AcDbEntity
  8
0
370
    -3
390
0
  6
Continuous
100
AcDbCircle
 10
-928.760463
 20
-199.9442
 30
0.0
 40
347.0
100
AcDbArc
 50
349.914143
 51
9.449383
  0
ARC
  5
413
100
AcDbEntity
  8
0
370
    -3
390
0
  6
Continuous
100
AcDbCircle
 10
-593.030127
 20
-259.661381
 30
0.0
 40
6.0
100
AcDbArc
 50
270.0
 51
349.914143
  0
ARC
  5
414
100
AcDbEntity
  8
0
370
    -3
390
0
  6
Continuous
100
AcDbCircle
 10
-381.960463
 20
-199.9442
 30
0.0
 40
347.0
100
AcDbArc
 50
170.550617
 51
190.085857
  0
LINE
  5
415
100
AcDbEntity
  8
0
370
    -3
390
0
  6
Continuous
100
AcDbLine
 10
-712.860463
 20
-265.661381
 30
0.0
 11
-717.690799
 21
-265.661381
 31
0.0
  0
ARC
  5
416
100
AcDbEntity
  8
0
370
    -3
390
0
  6
Continuous
100
AcDbCircle
 10
-717.690799
 20
-259.661381
 30
0.0
 40
6.0
100
AcDbArc
 50
190.085857
 51
270.0
  0
ARC
  5
417
100
AcDbEntity
  8
0
370
    -3
390
0
  6
Continuous
100
AcDbCircle
 10
-718.580873
 20
-162.368016
 30
0.0
 40
12.0
100
AcDbArc
 50
126.572176
 51
174.579766
  0
ARC
  5
418
100
AcDbEntity
  8
0
370
    -3
390
0
  6
Continuous
100
AcDbCircle
 10
-592.140053
 20
-162.368016
 30
0.0
 40
12.0
100
AcDbArc
 50
5.420234
 51
53.427824
  0
LINE
  5
419
100
AcDbEntity
  8
0
370
    -3
390
0
  6
Continuous
100
AcDbLine
 10
-655.360463
 20
-284.26549
 30
0.0
 11
-596.98295
 21
-284.26549
 31
0.0
  0
ARC
  5
41A
100
AcDbEntity
  8
0
370
    -3
390
0
  6
Continuous
100
AcDbCircle
 10
-988.360463
 20
-199.963052
 30
0.0
 40
410.0
100
AcDbArc
 50
349.533278
 51
5.420234
  0
ARC
  5
41B
100
AcDbEntity
  8
0
370
    -3
390
0
  6
Continuous
100
AcDbCircle
 10
-596.98295
 20
-272.26549
 30
0.0
 40
12.0
100
AcDbArc
 50
270.0
 51
349.533278
  0
ARC
  5
41C
100
AcDbEntity
  8
0
370
    -3
390
0
  6
Continuous
100
AcDbCircle
 10
-322.360463
 20
-199.963052
 30
0.0
 40
410.0
100
AcDbArc
 50
174.579766
 51
190.466722
  0
LINE
  5
41D
100
AcDbEntity
  8
0
370
    -3
390
0
  6
Continuous
100
AcDbLine
 10
-655.360463
 20
-284.26549
 30
0.0
 11
-713.737976
 21
-284.26549
 31
0.0
  0
ARC
  5
41E
100
AcDbEntity
  8
0
370
    -3
390
0
  6
Continuous
100
AcDbCircle
 10
-713.737976
 20
-272.26549
 30
0.0
 40
12.0
100
AcDbArc
 50
190.466722
 51
270.0
  0
LINE
  5
41F
100
AcDbEntity
  8
0
370
    -3
390
0
  6
Continuous
100
AcDbLine
 10
-655.360463
 20
-281.486856
 30
0.0
 11
-596.479817
 21
-281.486856
 31
0.0
  0
ARC
  5
420
100
AcDbEntity
  8
0
370
    -3
390
0
  6
Continuous
100
AcDbCircle
 10
-596.479817
 20
-269.486856
 30
0.0
 40
12.0
100
AcDbArc
 50
270.0
 51
349.939793
  0
LINE
  5
421
100
AcDbEntity
  8
0
370
    -3
390
0
  6
Continuous
100
AcDbLine
 10
-655.360463
 20
-281.486856
 30
0.0
 11
-714.241109
 21
-281.486856
 31
0.0
  0
ARC
  5
422
100
AcDbEntity
  8
0
370
    -3
390
0
  6
Continuous
100
AcDbCircle
 10
-714.241109
 20
-269.486856
 30
0.0
 40
12.0
100
AcDbArc
 50
190.060207
 51
270.0
  0
ELLIPSE
  5
423
100
AcDbEntity
  8
0
370
    -3
390
0
  6
Continuous
100
AcDbEllipse
 10
-655.360463
 20
-288.768474
 30
0.0
 11
17.5
 21
0.0
 31
0.0
210
0.0
220
0.0
230
1.0
 40
0.34202
 41
2.289994865616805
 42
0.8515977879729881
  0
LINE
  5
424
100
AcDbEntity
  8
0
370
    -3
390
0
  6
Continuous
100
AcDbLine
 10
-144.592209
 20
-65.09839
 30
0.0
 11
-139.072597
 21
-65.09839
 31
0.0
  0
LINE
  5
425
100
AcDbEntity
  8
0
370
    -3
390
0
  6
Continuous
100
AcDbLine
 10
-134.763418
 20
-65.09839
 30
0.0
 11
-130.860463
 21
-65.09839
 31
0.0
  0
LINE
  5
426
100
AcDbEntity
  8
0
370
    -3
390
0
  6
Continuous
100
AcDbLine
 10
-146.37713
 20
-55.09839
 30
0.0
 11
-146.37713
 21
-65.09839
 31
0.0
  0
LINE
  5
427
100
AcDbEntity
  8
0
370
    -3
390
0
  6
Continuous
100
AcDbLine
 10
-144.592209
 20
-55.09839
 30
0.0
 11
-144.592209
 21
-65.09839
 31
0.0
  0
LINE
  5
428
100
AcDbEntity
  8
0
370
    -3
390
0
  6
Continuous
100
AcDbLine
 10
-139.072597
 20
-55.09839
 30
0.0
 11
-139.072597
 21
-65.09839
 31
0.0
  0
LINE
  5
429
100
AcDbEntity
  8
0
370
    -3
390
0
  6
Continuous
100
AcDbLine
 10
-134.763418
 20
-55.09839
 30
0.0
 11
-134.763418
 21
-65.09839
 31
0.0
  0
ARC
  5
42A
100
AcDbEntity
  8
0
370
    -3
390
0
  6
Continuous
100
AcDbCircle
 10
-140.360463
 20
-71.59839
 30
0.0
 40
1.5
100
AcDbArc
 50
90.0
 51
180.0
  0
ARC
  5
42B
100
AcDbEntity
  8
0
370
    -3
390
0
  6
Continuous
100
AcDbCircle
 10
-140.360463
 20
-71.59839
 30
0.0
 40
1.5
100
AcDbArc
 50
180.0
 51
270.0
  0
LINE
  5
42C
100
AcDbEntity
  8
0
370
    -3
390
0
  6
Continuous
100
AcDbLine
 10
-146.110463
 20
-67.09839
 30
0.0
 11
-146.110463
 21
-70.09839
 31
0.0
  0
LINE
  5
42D
100
AcDbEntity
  8
0
370
    -3
390
0
  6
Continuous
100
AcDbLine
 10
-146.110463
 20
-67.09839
 30
0.0
 11
-130.860463
 21
-67.09839
 31
0.0
  0
LINE
  5
42E
100
AcDbEntity
  8
0
370
    -3
390
0
  6
Continuous
100
AcDbLine
 10
-146.860463
 20
-65.09839
 30
0.0
 11
-146.37713
 21
-65.09839
 31
0.0
  0
LINE
  5
42F
100
AcDbEntity
  8
0
370
    -3
390
0
  6
Continuous
100
AcDbLine
 10
-146.860463
 20
-66.09839
 30
0.0
 11
-146.860463
 21
-55.09839
 31
0.0
  0
LINE
  5
430
100
AcDbEntity
  8
0
370
    -3
390
0
  6
Continuous
100
AcDbLine
 10
-143.860463
 20
-53.09839
 30
0.0
 11
-145.360463
 21
-55.09839
 31
0.0
  0
LINE
  5
431
100
AcDbEntity
  8
0
370
    -3
390
0
  6
Continuous
100
AcDbLine
 10
-146.860463
 20
-66.09839
 30
0.0
 11
-130.860463
 21
-66.09839
 31
0.0
  0
LINE
  5
432
100
AcDbEntity
  8
0
370
    -3
390
0
  6
Continuous
100
AcDbLine
 10
-146.860463
 20
-66.09839
 30
0.0
 11
-146.860463
 21
-55.09839
 31
0.0
  0
LINE
  5
433
100
AcDbEntity
  8
0
370
    -3
390
0
  6
Continuous
100
AcDbLine
 10
-143.860463
 20
-53.09839
 30
0.0
 11
-145.360463
 21
-55.09839
 31
0.0
  0
LINE
  5
434
100
AcDbEntity
  8
0
370
    -3
390
0
  6
Continuous
100
AcDbLine
 10
-146.860463
 20
-55.09839
 30
0.0
 11
-130.860463
 21
-55.09839
 31
0.0
  0
LINE
  5
435
100
AcDbEntity
  8
0
370
    -3
390
0
  6
CENTER
100
AcDbLine
 10
-130.860463
 20
-48.628282
 30
0.0
 11
-130.860463
 21
-86.996715
 31
0.0
  0
LINE
  5
436
100
AcDbEntity
  8
0
370
    -3
390
0
  6
Continuous
100
AcDbLine
 10
-146.110463
 20
-70.09839
 30
0.0
 11
-130.860463
 21
-70.09839
 31
0.0
  0
LINE
  5
437
100
AcDbEntity
  8
0
370
    -3
390
0
  6
Continuous
100
AcDbLine
 10
-143.860463
 20
-53.09839
 30
0.0
 11
-130.860463
 21
-53.09839
 31
0.0
  0
LINE
  5
438
100
AcDbEntity
  8
0
370
    -3
390
0
  6
Continuous
100
AcDbLine
 10
-143.860463
 20
-67.09839
 30
0.0
 11
-143.860463
 21
-66.09839
 31
0.0
  0
LINE
  5
439
100
AcDbEntity
  8
0
370
    -3
390
0
  6
Continuous
100
AcDbLine
 10
-117.128717
 20
-65.09839
 30
0.0
 11
-122.648328
 21
-65.09839
 31
0.0
  0
LINE
  5
43A
100
AcDbEntity
  8
0
370
    -3
390
0
  6
Continuous
100
AcDbLine
 10
-126.957508
 20
-65.09839
 30
0.0
 11
-130.860463
 21
-65.09839
 31
0.0
  0
LINE
  5
43B
100
AcDbEntity
  8
0
370
    -3
390
0
  6
Continuous
100
AcDbLine
 10
-115.343796
 20
-55.09839
 30
0.0
 11
-115.343796
 21
-65.09839
 31
0.0
  0
LINE
  5
43C
100
AcDbEntity
  8
0
370
    -3
390
0
  6
Continuous
100
AcDbLine
 10
-117.128717
 20
-55.09839
 30
0.0
 11
-117.128717
 21
-65.09839
 31
0.0
  0
LINE
  5
43D
100
AcDbEntity
  8
0
370
    -3
390
0
  6
Continuous
100
AcDbLine
 10
-122.648328
 20
-55.09839
 30
0.0
 11
-122.648328
 21
-65.09839
 31
0.0
  0
LINE
  5
43E
100
AcDbEntity
  8
0
370
    -3
390
0
  6
Continuous
100
AcDbLine
 10
-126.957508
 20
-55.09839
 30
0.0
 11
-126.957508
 21
-65.09839
 31
0.0
  0
ARC
  5
43F
100
AcDbEntity
  8
0
370
    -3
390
0
  6
Continuous
100
AcDbCircle
 10
-121.360463
 20
-71.59839
 30
0.0
 40
1.5
100
AcDbArc
 50
0.0
 51
90.0
  0
ARC
  5
440
100
AcDbEntity
  8
0
370
    -3
390
0
  6
Continuous
100
AcDbCircle
 10
-121.360463
 20
-71.59839
 30
0.0
 40
1.5
100
AcDbArc
 50
270.0
 51
0.0
  0
LINE
  5
441
100
AcDbEntity
  8
0
370
    -3
390
0
  6
Continuous
100
AcDbLine
 10
-115.610463
 20
-67.09839
 30
0.0
 11
-115.610463
 21
-70.09839
 31
0.0
  0
LINE
  5
442
100
AcDbEntity
  8
0
370
    -3
390
0
  6
Continuous
100
AcDbLine
 10
-115.610463
 20
-67.09839
 30
0.0
 11
-130.860463
 21
-67.09839
 31
0.0
  0
LINE
  5
443
100
AcDbEntity
  8
0
370
    -3
390
0
  6
Continuous
100
AcDbLine
 10
-114.860463
 20
-65.09839
 30
0.0
 11
-115.343796
 21
-65.09839
 31
0.0
  0
LINE
  5
444
100
AcDbEntity
  8
0
370
    -3
390
0
  6
Continuous
100
AcDbLine
 10
-114.860463
 20
-66.09839
 30
0.0
 11
-114.860463
 21
-55.09839
 31
0.0
  0
LINE
  5
445
100
AcDbEntity
  8
0
370
    -3
390
0
  6
Continuous
100
AcDbLine
 10
-117.860463
 20
-53.09839
 30
0.0
 11
-116.360463
 21
-55.09839
 31
0.0
  0
LINE
  5
446
100
AcDbEntity
  8
0
370
    -3
390
0
  6
Continuous
100
AcDbLine
 10
-114.860463
 20
-66.09839
 30
0.0
 11
-130.860463
 21
-66.09839
 31
0.0
  0
LINE
  5
447
100
AcDbEntity
  8
0
370
    -3
390
0
  6
Continuous
100
AcDbLine
 10
-114.860463
 20
-66.09839
 30
0.0
 11
-114.860463
 21
-55.09839
 31
0.0
  0
LINE
  5
448
100
AcDbEntity
  8
0
370
    -3
390
0
  6
Continuous
100
AcDbLine
 10
-117.860463
 20
-53.09839
 30
0.0
 11
-116.360463
 21
-55.09839
 31
0.0
  0
LINE
  5
449
100
AcDbEntity
  8
0
370
    -3
390
0
  6
Continuous
100
AcDbLine
 10
-114.860463
 20
-55.09839
 30
0.0
 11
-130.860463
 21
-55.09839
 31
0.0
  0
LINE
  5
44A
100
AcDbEntity
  8
0
370
    -3
390
0
  6
Continuous
100
AcDbLine
 10
-115.610463
 20
-70.09839
 30
0.0
 11
-130.860463
 21
-70.09839
 31
0.0
  0
LINE
  5
44B
100
AcDbEntity
  8
0
370
    -3
390
0
  6
Continuous
100
AcDbLine
 10
-117.860463
 20
-53.09839
 30
0.0
 11
-130.860463
 21
-53.09839
 31
0.0
  0
LINE
  5
44C
100
AcDbEntity
  8
0
370
    -3
390
0
  6
Continuous
100
AcDbLine
 10
-117.860463
 20
-67.09839
 30
0.0
 11
-117.860463
 21
-66.09839
 31
0.0
  0
ARC
  5
44D
100
AcDbEntity
  8
0
370
    -3
390
0
  6
Continuous
100
AcDbCircle
 10
-255.860463
 20
-441.09839
 30
0.0
 40
3.0
100
AcDbArc
 50
90.0
 51
180.0
  0
ARC
  5
44E
100
AcDbEntity
  8
0
370
    -3
390
0
  6
Continuous
100
AcDbCircle
 10
-301.628855
 20
-399.715103
 30
0.0
 40
10.0
100
AcDbArc
 50
270.46455
 51
300.549102
  0
ARC
  5
44F
100
AcDbEntity
  8
0
370
    -3
390
0
  6
Continuous
100
AcDbCircle
 10
-343.860463
 20
-415.058014
 30
0.0
 40
5.0
100
AcDbArc
 50
90.46455
 51
180.0
  0
LINE
  5
450
100
AcDbEntity
  8
0
370
    -3
390
0
  6
Continuous
100
AcDbLine
 10
-255.860463
 20
-438.09839
 30
0.0
 11
-71.860463
 21
-438.09839
 31
0.0
  0
LINE
  5
451
100
AcDbEntity
  8
0
370
    -3
390
0
  6
Continuous
100
AcDbLine
 10
-258.860463
 20
-441.09839
 30
0.0
 11
-258.860463
 21
-442.09839
 31
0.0
  0
LINE
  5
452
100
AcDbEntity
  8
0
370
    -3
390
0
  6
Continuous
100
AcDbLine
 10
-348.860463
 20
-415.058014
 30
0.0
 11
-348.860463
 21
-442.09839
 31
0.0
  0
LINE
  5
453
100
AcDbEntity
  8
0
370
    -3
390
0
  6
Continuous
100
AcDbLine
 10
-348.860463
 20
-442.09839
 30
0.0
 11
-258.860463
 21
-442.09839
 31
0.0
  0
LINE
  5
454
100
AcDbEntity
  8
0
370
    -3
390
0
  6
Continuous
100
AcDbLine
 10
-301.547776
 20
-409.714774
 30
0.0
 11
-343.901002
 21
-410.058179
 31
0.0
  0
LINE
  5
455
100
AcDbEntity
  8
0
370
    -3
390
0
  6
CENTER
100
AcDbLine
 10
-323.860463
 20
-400.651075
 30
0.0
 11
-323.860463
 21
-451.215031
 31
0.0
  0
LINE
  5
456
100
AcDbEntity
  8
0
370
    -3
390
0
  6
Continuous
100
AcDbLine
 10
11.441873
 20
-119.07101
 30
0.0
 11
20.579976
 21
-155.672703
 31
0.0
  0
LINE
  5
457
100
AcDbEntity
  8
0
370
    -3
390
0
  6
Continuous
100
AcDbLine
 10
9.226891
 20
-115.788932
 30
0.0
 11
-27.360467
 21
-88.498584
 31
0.0
  0
ARC
  5
458
100
AcDbEntity
  8
0
370
    -3
390
0
  6
Continuous
100
AcDbCircle
 10
5.639537
 20
-120.59839
 30
0.0
 40
6.0
100
AcDbArc
 50
0.0
 51
90.0
  0
ARC
  5
459
100
AcDbEntity
  8
0
370
    -3
390
0
  6
Continuous
100
AcDbCircle
 10
-21.360463
 20
-108.59839
 30
0.0
 40
6.0
100
AcDbArc
 50
180.0
 51
270.0
  0
LINE
  5
45A
100
AcDbEntity
  8
0
370
    -3
390
0
  6
Continuous
100
AcDbLine
 10
-180.860463
 20
-252.09839
 30
0.0
 11
-181.860463
 21
-252.09839
 31
0.0
  0
ARC
  5
45B
100
AcDbEntity
  8
0
370
    -3
390
0
  6
Continuous
100
AcDbCircle
 10
-111.360463
 20
-77.298491
 30
0.0
 40
2.0
100
AcDbArc
 50
180.0
 51
268.281642
  0
ARC
  5
45C
100
AcDbEntity
  8
0
370
    -3
390
0
  6
Continuous
100
AcDbCircle
 10
-115.360463
 20
-75.09839
 30
0.0
 40
2.0
100
AcDbArc
 50
0.0
 51
90.0
  0
LINE
  5
45D
100
AcDbEntity
  8
0
370
    -3
390
0
  6
Continuous
100
AcDbLine
 10
-111.420436
 20
-79.297591
 30
0.0
 11
-33.180544
 21
-81.644788
 31
0.0
  0
LINE
  5
45E
100
AcDbEntity
  8
0
370
    -3
390
0
  6
Continuous
100
AcDbLine
 10
-175.860463
 20
-331.388603
 30
0.0
 11
-175.860463
 21
-257.09839
 31
0.0
  0
LINE
  5
45F
100
AcDbEntity
  8
0
370
    -3
390
0
  6
Continuous
100
AcDbLine
 10
21.139537
 20
-412.139095
 30
0.0
 11
21.139537
 21
-442.09839
 31
0.0
  0
ARC
  5
460
100
AcDbEntity
  8
0
370
    -3
390
0
  6
Continuous
100
AcDbCircle
 10
10.639537
 20
-246.930143
 30
0.0
 40
6.0
100
AcDbArc
 50
0.0
 51
80.0
  0
ARC
  5
461
100
AcDbEntity
  8
0
370
    -3
390
0
  6
Continuous
100
AcDbCircle
 10
-9.360463
 20
-219.033364
 30
0.0
 40
18.0
100
AcDbArc
 50
180.0
 51
260.0
  0
LINE
  5
462
100
AcDbEntity
  8
0
370
    -3
390
0
  6
Continuous
100
AcDbLine
 10
11.681426
 20
-241.021296
 30
0.0
 11
-12.48613
 21
-236.759904
 31
0.0
  0
ARC
  5
463
100
AcDbEntity
  8
0
370
    -3
390
0
  6
Continuous
100
AcDbCircle
 10
-33.360463
 20
-87.64209
 30
0.0
 40
6.0
100
AcDbArc
 50
0.0
 51
88.281642
  0
LINE
  5
464
100
AcDbEntity
  8
0
370
    -3
390
0
  6
Continuous
100
AcDbLine
 10
-27.360463
 20
-219.033364
 30
0.0
 11
-27.360463
 21
-106.59839
 31
0.0
  0
LINE
  5
465
100
AcDbEntity
  8
0
370
    -3
390
0
  6
Continuous
100
AcDbLine
 10
-27.360463
 20
-87.64209
 30
0.0
 11
-27.360463
 21
-106.59839
 31
0.0
  0
LINE
  5
466
100
AcDbEntity
  8
0
370
    -3
390
0
  6
Continuous
100
AcDbLine
 10
-129.920436
 20
-78.742591
 30
0.0
 11
-111.420436
 21
-79.297591
 31
0.0
  0
LINE
  5
467
100
AcDbEntity
  8
0
370
    -3
390
0
  6
DASHED
100
AcDbLine
 10
-169.860463
 20
-73.09839
 30
0.0
 11
-169.860463
 21
-74.528041
 31
0.0
  0
LINE
  5
468
100
AcDbEntity
  8
0
370
    -3
390
0
  6
Continuous
100
AcDbLine
 10
-144.454347
 20
-78.306574
 30
0.0
 11
-129.920436
 21
-78.742591
 31
0.0
  0
LINE
  5
469
100
AcDbEntity
  8
0
370
    -3
390
0
  6
Continuous
100
AcDbLine
 10
-113.360463
 20
-75.09839
 30
0.0
 11
-113.360463
 21
-77.298491
 31
0.0
  0
ARC
  5
46A
100
AcDbEntity
  8
0
370
    -3
390
0
  6
Continuous
100
AcDbCircle
 10
-170.860463
 20
-292.59839
 30
0.0
 40
5.0
100
AcDbArc
 50
90.0
 51
180.0
  0
ARC
  5
46B
100
AcDbEntity
  8
0
370
    -3
390
0
  6
Continuous
100
AcDbCircle
 10
-170.860463
 20
-282.59839
 30
0.0
 40
5.0
100
AcDbArc
 50
180.0
 51
270.0
  0
ARC
  5
46C
100
AcDbEntity
  8
0
370
    -3
390
0
  6
Continuous
100
AcDbCircle
 10
-180.860463
 20
-257.09839
 30
0.0
 40
5.0
100
AcDbArc
 50
0.0
 51
101.536959
  0
ARC
  5
46D
100
AcDbEntity
  8
0
370
    -3
390
0
  6
Continuous
100
AcDbCircle
 10
-86.860463
 20
-282.59839
 30
0.0
 40
5.0
100
AcDbArc
 50
270.0
 51
0.0
  0
ARC
  5
46E
100
AcDbEntity
  8
0
370
    -3
390
0
  6
Continuous
100
AcDbCircle
 10
-86.860463
 20
-250.995514
 30
0.0
 40
5.0
100
AcDbArc
 50
0.0
 51
90.0
  0
ARC
  5
46F
100
AcDbEntity
  8
0
370
    -3
390
0
  6
Continuous
100
AcDbCircle
 10
-86.860463
 20
-240.995514
 30
0.0
 40
5.0
100
AcDbArc
 50
270.0
 51
0.0
  0
ARC
  5
470
100
AcDbEntity
  8
0
370
    -3
390
0
  6
Continuous
100
AcDbCircle
 10
-86.860463
 20
-217.09839
 30
0.0
 40
5.0
100
AcDbArc
 50
0.0
 51
90.0
  0
LINE
  5
471
100
AcDbEntity
  8
0
370
    -3
390
0
  6
Continuous
100
AcDbLine
 10
-81.860463
 20
-347.445067
 30
0.0
 11
-81.860463
 21
-217.09839
 31
0.0
  0
LINE
  5
472
100
AcDbEntity
  8
0
370
    -3
390
0
  6
Continuous
100
AcDbLine
 10
-170.860463
 20
-287.59839
 30
0.0
 11
-86.860463
 21
-287.59839
 31
0.0
  0
LINE
  5
473
100
AcDbEntity
  8
0
370
    -3
390
0
  6
Continuous
100
AcDbLine
 10
-181.860463
 20
-245.995514
 30
0.0
 11
-86.860463
 21
-245.995514
 31
0.0
  0
LINE
  5
474
100
AcDbEntity
  8
0
370
    -3
390
0
  6
Continuous
100
AcDbLine
 10
-181.860463
 20
-212.09839
 30
0.0
 11
-86.860463
 21
-212.09839
 31
0.0
  0
LINE
  5
475
100
AcDbEntity
  8
0
370
    -3
390
0
  6
Continuous
100
AcDbLine
 10
16.639537
 20
-372.09839
 30
0.0
 11
16.639537
 21
-407.134877
 31
0.0
  0
LINE
  5
476
100
AcDbEntity
  8
0
370
    -3
390
0
  6
Continuous
100
AcDbLine
 10
16.639537
 20
-342.09839
 30
0.0
 11
16.639537
 21
-246.930143
 31
0.0
  0
LINE
  5
477
100
AcDbEntity
  8
0
370
    -3
390
0
  6
Continuous
100
AcDbLine
 10
-181.860463
 20
-340.63959
 30
0.0
 11
-181.860463
 21
-212.09839
 31
0.0
  0
LINE
  5
478
100
AcDbEntity
  8
0
370
    -3
390
0
  6
Continuous
100
AcDbLine
 10
16.639537
 20
-372.09839
 30
0.0
 11
16.639537
 21
-280.09839
 31
0.0
  0
LINE
  5
479
100
AcDbEntity
  8
0
370
    -3
390
0
  6
Continuous
100
AcDbLine
 10
-167.203609
 20
-73.09839
 30
0.0
 11
-115.360463
 21
-73.09839
 31
0.0
  0
ARC
  5
47A
100
AcDbEntity
  8
0
370
    -3
390
0
  6
Continuous
100
AcDbCircle
 10
-172.860463
 20
-72.09839
 30
0.0
 40
3.0
100
AcDbArc
 50
19.471221
 51
90.0
  0
LINE
  5
47B
100
AcDbEntity
  8
0
370
    -3
390
0
  6
Continuous
100
AcDbLine
 10
-181.860463
 20
-69.09839
 30
0.0
 11
-181.860463
 21
-212.09839
 31
0.0
  0
ARC
  5
47C
100
AcDbEntity
  8
0
370
    -3
390
0
  6
Continuous
100
AcDbCircle
 10
14.639537
 20
-154.09839
 30
0.0
 40
3.0
100
AcDbArc
 50
180.0
 51
270.0
  0
LINE
  5
47D
100
AcDbEntity
  8
0
370
    -3
390
0
  6
Continuous
100
AcDbLine
 10
-21.360463
 20
-114.59839
 30
0.0
 11
5.639537
 21
-114.59839
 31
0.0
  0
LINE
  5
47E
100
AcDbEntity
  8
0
370
    -3
390
0
  6
Continuous
100
AcDbLine
 10
11.639537
 20
-120.59839
 30
0.0
 11
11.639537
 21
-241.01391
 31
0.0
  0
LINE
  5
47F
100
AcDbEntity
  8
0
370
    -3
390
0
  6
Continuous
100
AcDbLine
 10
14.139537
 20
-157.09839
 30
0.0
 11
18.639537
 21
-157.09839
 31
0.0
  0
LINE
  5
480
100
AcDbEntity
  8
0
370
    -3
390
0
  6
Continuous
100
AcDbLine
 10
-181.860463
 20
-69.09839
 30
0.0
 11
-172.860463
 21
-69.09839
 31
0.0
  0
LINE
  5
481
100
AcDbEntity
  8
0
370
    -3
390
0
  6
Continuous
100
AcDbLine
 10
20.639537
 20
-156.15716
 30
0.0
 11
20.639537
 21
-212.09839
 31
0.0
  0
LINE
  5
482
100
AcDbEntity
  8
0
370
    -3
390
0
  6
Continuous
100
AcDbLine
 10
20.639537
 20
-265.09839
 30
0.0
 11
20.639537
 21
-212.09839
 31
0.0
  0
LINE
  5
483
100
AcDbEntity
  8
0
370
    -3
390
0
  6
Continuous
100
AcDbLine
 10
-146.860463
 20
-92.234416
 30
0.0
 11
-181.860463
 21
-92.234416
 31
0.0
  0
LINE
  5
484
100
AcDbEntity
  8
0
370
    -3
390
0
  6
Continuous
100
AcDbLine
 10
-181.860463
 20
-77.09839
 30
0.0
 11
-146.860463
 21
-77.09839
 31
0.0
  0
LINE
  5
485
100
AcDbEntity
  8
0
370
    -3
390
0
  6
Continuous
100
AcDbLine
 10
-143.860463
 20
-80.09839
 30
0.0
 11
-143.860463
 21
-89.234416
 31
0.0
  0
ARC
  5
486
100
AcDbEntity
  8
0
370
    -3
390
0
  6
Continuous
100
AcDbCircle
 10
-146.860463
 20
-80.09839
 30
0.0
 40
3.0
100
AcDbArc
 50
0.0
 51
90.0
  0
ARC
  5
487
100
AcDbEntity
  8
0
370
    -3
390
0
  6
Continuous
100
AcDbCircle
 10
-146.860463
 20
-89.234416
 30
0.0
 40
3.0
100
AcDbArc
 50
270.0
 51
0.0
  0
ARC
  5
488
100
AcDbEntity
  8
0
370
    -3
390
0
  6
Continuous
100
AcDbCircle
 10
-167.203609
 20
-70.09839
 30
0.0
 40
3.0
100
AcDbArc
 50
199.471221
 51
270.0
  0
LINE
  5
489
100
AcDbEntity
  8
0
370
    -3
390
0
  6
Continuous
100
AcDbLine
 10
-169.860463
 20
-71.491633
 30
0.0
 11
-169.860463
 21
-74.09839
 31
0.0
  0
LINE
  5
48A
100
AcDbEntity
  8
0
370
    -3
390
0
  6
Continuous
100
AcDbLine
 10
-169.860463
 20
-92.234416
 30
0.0
 11
-169.860463
 21
-212.09839
 31
0.0
  0
CIRCLE
  5
48B
100
AcDbEntity
  8
0
370
    -3
390
0
  6
Continuous
100
AcDbCircle
 10
-51.860463
 20
-353.09839
 30
0.0
 40
15.0
  0
ARC
  5
48C
100
AcDbEntity
  8
0
370
    -3
390
0
  6
Continuous
100
AcDbCircle
 10
-51.860463
 20
-353.09839
 30
0.0
 40
20.0
100
AcDbArc
 50
270.0
 51
90.0
  0
CIRCLE
  5
48D
100
AcDbEntity
  8
0
370
    -3
390
0
  6
Continuous
100
AcDbCircle
 10
-133.860463
 20
-412.09839
 30
0.0
 40
12.5
  0
LINE
  5
48E
100
AcDbEntity
  8
0
370
    -3
390
0
  6
Continuous
100
AcDbLine
 10
-51.860463
 20
-333.09839
 30
0.0
 11
-81.860463
 21
-333.09839
 31
0.0
  0
LINE
  5
48F
100
AcDbEntity
  8
0
370
    -3
390
0
  6
Continuous
100
AcDbLine
 10
-51.860463
 20
-373.09839
 30
0.0
 11
-76.099812
 21
-373.09839
 31
0.0
  0
ARC
  5
490
100
AcDbEntity
  8
0
370
    -3
390
0
  6
Continuous
100
AcDbCircle
 10
18.639537
 20
-159.09839
 30
0.0
 40
2.0
100
AcDbArc
 50
0.0
 51
90.0
  0
ARC
  5
491
100
AcDbEntity
  8
0
370
    -3
390
0
  6
Continuous
100
AcDbCircle
 10
18.639537
 20
-156.15716
 30
0.0
 40
2.0
100
AcDbArc
 50
0.0
 51
14.018089
  0
ARC
  5
492
100
AcDbEntity
  8
0
370
    -3
390
0
  6
Continuous
100
AcDbCircle
 10
18.639537
 20
-265.09839
 30
0.0
 40
2.0
100
AcDbArc
 50
270.0
 51
0.0
  0
LINE
  5
493
100
AcDbEntity
  8
0
370
    -3
390
0
  6
Continuous
100
AcDbLine
 10
16.639537
 20
-267.09839
 30
0.0
 11
18.639537
 21
-267.09839
 31
0.0
  0
LINE
  5
494
100
AcDbEntity
  8
0
370
    -3
390
0
  6
Continuous
100
AcDbLine
 10
16.098998
 20
-407.13926
 30
0.0
 11
-21.373992
 21
-407.443095
 31
0.0
  0
ARC
  5
495
100
AcDbEntity
  8
0
370
    -3
390
0
  6
Continuous
100
AcDbCircle
 10
16.139537
 20
-412.139095
 30
0.0
 40
5.0
100
AcDbArc
 50
0.0
 51
90.46455
  0
ARC
  5
496
100
AcDbEntity
  8
0
370
    -3
390
0
  6
Continuous
100
AcDbCircle
 10
-21.860463
 20
-347.445067
 30
0.0
 40
60.0
100
AcDbArc
 50
180.0
 51
270.46455
  0
ARC
  5
497
100
AcDbEntity
  8
0
370
    -3
390
0
  6
Continuous
100
AcDbCircle
 10
-185.860463
 20
-331.388603
 30
0.0
 40
10.0
100
AcDbArc
 50
300.549102
 51
0.0
  0
LINE
  5
498
100
AcDbEntity
  8
0
370
    -3
390
0
  6
CENTER
100
AcDbLine
 10
-51.860463
 20
-328.09839
 30
0.0
 11
-51.860463
 21
-378.09839
 31
0.0
  0
LINE
  5
499
100
AcDbEntity
  8
0
370
    -3
390
0
  6
CENTER
100
AcDbLine
 10
-26.860463
 20
-353.09839
 30
0.0
 11
-76.860463
 21
-353.09839
 31
0.0
  0
LINE
  5
49A
100
AcDbEntity
  8
0
370
    -3
390
0
  6
CENTER
100
AcDbLine
 10
-133.860463
 20
-394.59839
 30
0.0
 11
-133.860463
 21
-429.59839
 31
0.0
  0
LINE
  5
49B
100
AcDbEntity
  8
0
370
    -3
390
0
  6
CENTER
100
AcDbLine
 10
-116.360463
 20
-412.09839
 30
0.0
 11
-151.360463
 21
-412.09839
 31
0.0
  0
LINE
  5
49C
100
AcDbEntity
  8
0
370
    -3
390
0
  6
CENTER
100
AcDbLine
 10
-3.860463
 20
-401.1468
 30
0.0
 11
-3.860463
 21
-450.223581
 31
0.0
  0
LINE
  5
49D
100
AcDbEntity
  8
0
370
    -3
390
0
  6
Continuous
100
AcDbLine
 10
-68.860463
 20
-441.09839
 30
0.0
 11
-68.860463
 21
-442.09839
 31
0.0
  0
LINE
  5
49E
100
AcDbEntity
  8
0
370
    -3
390
0
  6
Continuous
100
AcDbLine
 10
-68.860463
 20
-442.09839
 30
0.0
 11
21.139537
 21
-442.09839
 31
0.0
  0
ARC
  5
49F
100
AcDbEntity
  8
0
370
    -3
390
0
  6
Continuous
100
AcDbCircle
 10
-71.860463
 20
-441.09839
 30
0.0
 40
3.0
100
AcDbArc
 50
0.0
 51
90.0
  0
LINE
  5
4A0
100
AcDbEntity
  8
0
370
    -3
390
0
  6
Continuous
100
AcDbLine
 10
131.139537
 20
-175.59839
 30
0.0
 11
131.139537
 21
-244.59839
 31
0.0
  0
LINE
  5
4A1
100
AcDbEntity
  8
0
370
    -3
390
0
  6
Continuous
100
AcDbLine
 10
26.139537
 20
-179.59839
 30
0.0
 11
131.139537
 21
-179.59839
 31
0.0
  0
LINE
  5
4A2
100
AcDbEntity
  8
0
370
    -3
390
0
  6
Continuous
100
AcDbLine
 10
26.139537
 20
-244.59839
 30
0.0
 11
131.139537
 21
-244.59839
 31
0.0
  0
LINE
  5
4A3
100
AcDbEntity
  8
0
370
    -3
390
0
  6
Continuous
100
AcDbLine
 10
68.139537
 20
-175.59839
 30
0.0
 11
68.139537
 21
-179.59839
 31
0.0
  0
LINE
  5
4A4
100
AcDbEntity
  8
0
370
    -3
390
0
  6
Continuous
100
AcDbLine
 10
26.139537
 20
-177.09839
 30
0.0
 11
26.139537
 21
-247.09839
 31
0.0
  0
LINE
  5
4A5
100
AcDbEntity
  8
0
370
    -3
390
0
  6
Continuous
100
AcDbLine
 10
20.639537
 20
-177.09839
 30
0.0
 11
26.139537
 21
-177.09839
 31
0.0
  0
LINE
  5
4A6
100
AcDbEntity
  8
0
370
    -3
390
0
  6
Continuous
100
AcDbLine
 10
20.639537
 20
-247.09839
 30
0.0
 11
26.139537
 21
-247.09839
 31
0.0
  0
LINE
  5
4A7
100
AcDbEntity
  8
0
370
    -3
390
0
  6
Continuous
100
AcDbLine
 10
68.139537
 20
-175.59839
 30
0.0
 11
131.139537
 21
-175.59839
 31
0.0
  0
LINE
  5
4A8
100
AcDbEntity
  8
0
370
    -3
390
0
  6
CENTER
100
AcDbLine
 10
-222.119128
 20
-341.59839
 30
0.0
 11
-186.886603
 21
-341.59839
 31
0.0
  0
LINE
  5
4A9
100
AcDbEntity
  8
0
370
    -3
390
0
  6
CENTER
100
AcDbLine
 10
-220.709827
 20
-227.09839
 30
0.0
 11
-186.886603
 21
-227.09839
 31
0.0
  0
LINE
  5
4AA
100
AcDbEntity
  8
0
370
    -3
390
0
  6
CENTER
100
AcDbLine
 10
-220.709827
 20
-91.09839
 30
0.0
 11
-186.886603
 21
-91.09839
 31
0.0
  0
ARC
  5
4AB
100
AcDbEntity
  8
0
370
    -3
390
0
  6
Continuous
100
AcDbCircle
 10
-199.360463
 20
-82.51447
 30
0.0
 40
3.0
100
AcDbArc
 50
99.594068
 51
172.027762
  0
LINE
  5
4AC
100
AcDbEntity
  8
0
370
    -3
390
0
  6
Continuous
100
AcDbLine
 10
-202.360463
 20
-100.09839
 30
0.0
 11
-202.360463
 21
-110.214376
 31
0.0
  0
INSERT
  5
4BD
100
AcDbEntity
  8
0
390
0
100
AcDbBlockReference
  2
ZU_SYM__USERS_HOME_SYMBOL_POO_SYM_B21_20
 10
-197.360463
 20
-91.09839
 30
0.0
  0
INSERT
  5
4CE
100
AcDbEntity
  8
0
390
0
100
AcDbBlockReference
  2
ZU_SYM__USERS_HOME_SYMBOL_POO_SYM_B21_0000720
 10
-197.360463
 20
-227.09839
 30
0.0
  0
LINE
  5
4CF
100
AcDbEntity
  8
0
370
    -3
390
0
  6
Continuous
100
AcDbLine
 10
-216.360463
 20
-211.09839
 30
0.0
 11
-216.360463
 21
-231.696467
 31
0.0
  0
ARC
  5
4D0
100
AcDbEntity
  8
0
370
    -3
390
0
  6
Continuous
100
AcDbCircle
 10
-200.360463
 20
-76.59839
 30
0.0
 40
3.0
100
AcDbArc
 50
279.594068
 51
0.0
  0
ARC
  5
4D1
100
AcDbEntity
  8
0
370
    -3
390
0
  6
Continuous
100
AcDbCircle
 10
-194.360463
 20
-72.09839
 30
0.0
 40
3.0
100
AcDbArc
 50
90.0
 51
180.0
  0
ARC
  5
4D2
100
AcDbEntity
  8
0
370
    -3
390
0
  6
Continuous
100
AcDbCircle
 10
-191.360463
 20
-72.09839
 30
0.0
 40
3.0
100
AcDbArc
 50
90.0
 51
180.0
  0
LINE
  5
4D3
100
AcDbEntity
  8
0
370
    -3
390
0
  6
Continuous
100
AcDbLine
 10
-194.360463
 20
-72.09839
 30
0.0
 11
-194.360463
 21
-212.09839
 31
0.0
  0
LINE
  5
4D4
100
AcDbEntity
  8
0
370
    -3
390
0
  6
Continuous
100
AcDbLine
 10
-197.360463
 20
-72.09839
 30
0.0
 11
-197.360463
 21
-103.097359
 31
0.0
  0
LINE
  5
4D5
100
AcDbEntity
  8
0
370
    -3
390
0
  6
Continuous
100
AcDbLine
 10
-194.360463
 20
-69.09839
 30
0.0
 11
-181.860463
 21
-69.09839
 31
0.0
  0
LINE
  5
4D6
100
AcDbEntity
  8
0
370
    -3
390
0
  6
Continuous
100
AcDbLine
 10
-216.360463
 20
-110.214376
 30
0.0
 11
-216.360463
 21
-361.001489
 31
0.0
  0
LINE
  5
4D7
100
AcDbEntity
  8
0
370
    -3
390
0
  6
Continuous
100
AcDbLine
 10
-216.360463
 20
-110.214376
 30
0.0
 11
-196.360463
 21
-110.214376
 31
0.0
  0
LINE
  5
4D8
100
AcDbEntity
  8
0
370
    -3
390
0
  6
Continuous
100
AcDbLine
 10
-213.774147
 20
-143.83628
 30
0.0
 11
-194.360463
 21
-112.447908
 31
0.0
  0
ARC
  5
4D9
100
AcDbEntity
  8
0
370
    -3
390
0
  6
Continuous
100
AcDbCircle
 10
-215.475095
 20
-142.784245
 30
0.0
 40
2.0
100
AcDbArc
 50
270.0
 51
328.26324
  0
LINE
  5
4DA
100
AcDbEntity
  8
0
370
    -3
390
0
  6
Continuous
100
AcDbLine
 10
-194.360463
 20
-105.097359
 30
0.0
 11
-195.360463
 21
-105.097359
 31
0.0
  0
ARC
  5
4DB
100
AcDbEntity
  8
0
370
    -3
390
0
  6
Continuous
100
AcDbCircle
 10
-195.360463
 20
-103.097359
 30
0.0
 40
2.0
100
AcDbArc
 50
180.0
 51
270.0
  0
ARC
  5
4DC
100
AcDbEntity
  8
0
370
    -3
390
0
  6
Continuous
100
AcDbCircle
 10
-196.360463
 20
-108.214376
 30
0.0
 40
2.0
100
AcDbArc
 50
270.0
 51
0.0
  0
LINE
  5
4DD
100
AcDbEntity
  8
0
370
    -3
390
0
  6
Continuous
100
AcDbLine
 10
-216.360463
 20
-135.012201
 30
0.0
 11
-208.316461
 21
-135.012201
 31
0.0
  0
LINE
  5
4DE
100
AcDbEntity
  8
0
370
    -3
390
0
  6
Continuous
100
AcDbLine
 10
-215.475095
 20
-144.784245
 30
0.0
 11
-194.360463
 21
-144.784245
 31
0.0
  0
LINE
  5
4DF
100
AcDbEntity
  8
0
370
    -3
390
0
  6
Continuous
100
AcDbLine
 10
-216.360463
 20
-251.59839
 30
0.0
 11
-182.360463
 21
-251.59839
 31
0.0
  0
LINE
  5
4E0
100
AcDbEntity
  8
0
370
    -3
390
0
  6
Continuous
100
AcDbLine
 10
-216.360463
 20
-300.59839
 30
0.0
 11
-182.360463
 21
-300.59839
 31
0.0
  0
LINE
  5
4E1
100
AcDbEntity
  8
0
370
    -3
390
0
  6
Continuous
100
AcDbLine
 10
-197.360463
 20
-213.09839
 30
0.0
 11
-197.360463
 21
-250.59839
 31
0.0
  0
LINE
  5
4E2
100
AcDbEntity
  8
0
370
    -3
390
0
  6
Continuous
100
AcDbLine
 10
-196.360463
 20
-327.59839
 30
0.0
 11
-182.360463
 21
-327.59839
 31
0.0
  0
LINE
  5
4E3
100
AcDbEntity
  8
0
370
    -3
390
0
  6
Continuous
100
AcDbLine
 10
-197.360463
 20
-328.59839
 30
0.0
 11
-197.360463
 21
-349.787689
 31
0.0
  0
LINE
  5
4E4
100
AcDbEntity
  8
0
370
    -3
390
0
  6
Continuous
100
AcDbLine
 10
-196.360463
 20
-212.09839
 30
0.0
 11
-182.360463
 21
-212.09839
 31
0.0
  0
ARC
  5
4E5
100
AcDbEntity
  8
0
370
    -3
390
0
  6
Continuous
100
AcDbCircle
 10
-196.360463
 20
-328.59839
 30
0.0
 40
1.0
100
AcDbArc
 50
90.0
 51
180.0
  0
ARC
  5
4E6
100
AcDbEntity
  8
0
370
    -3
390
0
  6
Continuous
100
AcDbCircle
 10
-196.360463
 20
-250.59839
 30
0.0
 40
1.0
100
AcDbArc
 50
180.0
 51
270.0
  0
ARC
  5
4E7
100
AcDbEntity
  8
0
370
    -3
390
0
  6
Continuous
100
AcDbCircle
 10
-196.360463
 20
-213.09839
 30
0.0
 40
1.0
100
AcDbArc
 50
90.0
 51
180.0
  0
LINE
  5
4E8
100
AcDbEntity
  8
0
370
    -3
390
0
  6
Continuous
100
AcDbLine
 10
-194.360463
 20
-300.59839
 30
0.0
 11
-194.360463
 21
-327.59839
 31
0.0
  0
ARC
  5
4E9
100
AcDbEntity
  8
0
370
    -3
390
0
  6
Continuous
100
AcDbCircle
 10
-166.860463
 20
-74.09839
 30
0.0
 40
3.0
100
AcDbArc
 50
180.0
 51
270.0
  0
LINE
  5
4EA
100
AcDbEntity
  8
0
370
    -3
390
0
  6
Continuous
100
AcDbLine
 10
-197.360462
 20
-341.583153
 30
0.0
 11
-200.360462
 21
-342.675059
 31
0.0
  0
LINE
  5
4EB
100
AcDbEntity
  8
0
370
    -3
390
0
  6
Continuous
100
AcDbLine
 10
-200.360462
 20
-341.623821
 30
0.0
 11
-197.360462
 21
-340.531914
 31
0.0
  0
LINE
  5
4EC
100
AcDbEntity
  8
0
370
    -3
390
0
  6
Continuous
100
AcDbLine
 10
-211.660439
 20
-332.59839
 30
0.0
 11
-211.660439
 21
-350.59839
 31
0.0
  0
LINE
  5
4ED
100
AcDbEntity
  8
0
370
    -3
390
0
  6
Continuous
100
AcDbLine
 10
-211.660425
 20
-350.598394
 30
0.0
 11
-212.360422
 21
-349.38613
 31
0.0
  0
LINE
  5
4EE
100
AcDbEntity
  8
0
370
    -3
390
0
  6
Continuous
100
AcDbLine
 10
-211.660444
 20
-332.59839
 30
0.0
 11
-212.360441
 21
-333.811049
 31
0.0
  0
LINE
  5
4EF
100
AcDbEntity
  8
0
370
    -3
390
0
  6
Continuous
100
AcDbLine
 10
-197.360463
 20
-330.84839
 30
0.0
 11
-200.360463
 21
-330.84839
 31
0.0
  0
LINE
  5
4F0
100
AcDbEntity
  8
0
370
    -3
390
0
  6
Continuous
100
AcDbLine
 10
-200.360463
 20
-332.59839
 30
0.0
 11
-211.660439
 21
-332.59839
 31
0.0
  0
LINE
  5
4F1
100
AcDbEntity
  8
0
370
    -3
390
0
  6
Continuous
100
AcDbLine
 10
-200.360463
 20
-350.59839
 30
0.0
 11
-211.660424
 21
-350.59839
 31
0.0
  0
LINE
  5
4F2
100
AcDbEntity
  8
0
370
    -3
390
0
  6
Continuous
100
AcDbLine
 10
-212.360421
 20
-349.386126
 30
0.0
 11
-212.360436
 21
-333.811051
 31
0.0
  0
LINE
  5
4F3
100
AcDbEntity
  8
0
370
    -3
390
0
  6
Continuous
100
AcDbLine
 10
-200.360463
 20
-351.558289
 30
0.0
 11
-200.360463
 21
-330.84839
 31
0.0
  0
POINT
  5
4F4
100
AcDbEntity
  8
0
370
    -3
390
0
  6
Continuous
100
AcDbPoint
 10
-197.360463
 20
-341.59839
 30
0.0
  0
LINE
  5
4F5
100
AcDbEntity
  8
0
370
    -3
390
0
  6
Continuous
100
AcDbLine
 10
-216.360463
 20
-135.965762
 30
0.0
 11
-216.360463
 21
-348.457115
 31
0.0
  0
LINE
  5
4F6
100
AcDbEntity
  8
0
370
    -3
390
0
  6
Continuous
100
AcDbLine
 10
-216.360463
 20
-135.965762
 30
0.0
 11
-216.360463
 21
-348.457115
 31
0.0
  0
LINE
  5
4F7
100
AcDbEntity
  8
0
370
    -3
390
0
  6
Continuous
100
AcDbLine
 10
-216.360463
 20
-110.287142
 30
0.0
 11
-216.360463
 21
-270.59839
 31
0.0
  0
LINE
  5
4F8
100
AcDbEntity
  8
0
370
    -3
390
0
  6
Continuous
100
AcDbLine
 10
-182.360463
 20
-69.09839
 30
0.0
 11
-182.360463
 21
-212.09839
 31
0.0
  0
LINE
  5
4F9
100
AcDbEntity
  8
0
370
    -3
390
0
  6
Continuous
100
AcDbLine
 10
-182.360463
 20
-340.93469
 30
0.0
 11
-182.360463
 21
-212.09839
 31
0.0
  0
LINE
  5
4FA
100
AcDbEntity
  8
0
370
    -3
390
0
  6
Continuous
100
AcDbLine
 10
-180.777697
 20
-340.000542
 30
0.0
 11
-296.546089
 21
-408.327042
 31
0.0
  0
INSERT
  5
501
100
AcDbEntity
  8
0
390
0
100
AcDbBlockReference
  2
ZU_SYM_C__ZUOU_AC_BLOCK_BLKF103_00
 10
-1011.295494
 20
-560.47423
 30
0.0
  0
LINE
  5
502
100
AcDbEntity
  8
0
370
    -3
390
0
  6
Continuous
100
AcDbLine
 10
-529.360463
 20
-282.112052
 30
0.0
 11
-561.360463
 21
-280.902366
 31
0.0
  0
LINE
  5
503
100
AcDbEntity
  8
0
370
    -3
390
0
  6
Continuous
100
AcDbLine
 10
-529.360463
 20
-279.816976
 30
0.0
 11
-561.360463
 21
-278.60729
 31
0.0
  0
LINE
  5
504
100
AcDbEntity
  8
0
370
    -3
390
0
  6
Continuous
100
AcDbLine
 10
-561.360463
 20
-278.08374
 30
0.0
 11
-561.360463
 21
-280.902366
 31
0.0
  0
LINE
  5
505
100
AcDbEntity
  8
0
370
    -3
390
0
  6
Continuous
100
AcDbLine
 10
-529.360463
 20
-279.816976
 30
0.0
 11
-529.360463
 21
-282.112052
 31
0.0
  0
LINE
  5
506
100
AcDbEntity
  8
0
370
    -3
390
0
  6
Continuous
100
AcDbLine
 10
-461.360463
 20
-278.08374
 30
0.0
 11
-561.360463
 21
-278.08374
 31
0.0
  0
LINE
  5
507
100
AcDbEntity
  8
0
370
    -3
390
0
  6
Continuous
100
AcDbLine
 10
-461.360463
 20
-279.816976
 30
0.0
 11
-529.360463
 21
-279.816976
 31
0.0
  0
LINE
  5
508
100
AcDbEntity
  8
0
370
    -3
390
0
  6
Continuous
100
AcDbLine
 10
-461.360463
 20
-282.112052
 30
0.0
 11
-529.360463
 21
-282.112052
 31
0.0
  0
LINE
  5
509
100
AcDbEntity
  8
0
370
    -3
390
0
  6
Continuous
100
AcDbLine
 10
-561.360463
 20
-263.08034
 30
0.0
 11
-561.360463
 21
-260.261984
 31
0.0
  0
LINE
  5
50A
100
AcDbEntity
  8
0
370
    -3
390
0
  6
Continuous
100
AcDbLine
 10
-561.360463
 20
-245.8778
 30
0.0
 11
-561.360463
 21
-242.061108
 31
0.0
  0
LINE
  5
50B
100
AcDbEntity
  8
0
370
    -3
390
0
  6
Continuous
100
AcDbLine
 10
-529.360463
 20
-240.707744
 30
0.0
 11
-529.360463
 21
-238.451938
 31
0.0
  0
LINE
  5
50C
100
AcDbEntity
  8
0
370
    -3
390
0
  6
Continuous
100
AcDbLine
 10
-529.360463
 20
-261.347102
 30
0.0
 11
-529.360463
 21
-259.052026
 31
0.0
  0
LINE
  5
50D
100
AcDbEntity
  8
0
370
    -3
390
0
  6
Continuous
100
AcDbLine
 10
-529.360463
 20
-261.347102
 30
0.0
 11
-561.360463
 21
-262.55706
 31
0.0
  0
LINE
  5
50E
100
AcDbEntity
  8
0
370
    -3
390
0
  6
Continuous
100
AcDbLine
 10
-529.360463
 20
-259.052026
 30
0.0
 11
-561.360463
 21
-260.261984
 31
0.0
  0
LINE
  5
50F
100
AcDbEntity
  8
0
370
    -3
390
0
  6
Continuous
100
AcDbLine
 10
-529.360463
 20
-240.707744
 30
0.0
 11
-561.360463
 21
-244.316914
 31
0.0
  0
LINE
  5
510
100
AcDbEntity
  8
0
370
    -3
390
0
  6
Continuous
100
AcDbLine
 10
-529.360463
 20
-238.451938
 30
0.0
 11
-561.360463
 21
-242.061108
 31
0.0
  0
LINE
  5
511
100
AcDbEntity
  8
0
370
    -3
390
0
  6
Continuous
100
AcDbLine
 10
-529.360463
 20
-238.451938
 30
0.0
 11
-461.360463
 21
-238.451938
 31
0.0
  0
LINE
  5
512
100
AcDbEntity
  8
0
370
    -3
390
0
  6
Continuous
100
AcDbLine
 10
-529.360463
 20
-240.707744
 30
0.0
 11
-461.360463
 21
-240.707744
 31
0.0
  0
LINE
  5
513
100
AcDbEntity
  8
0
370
    -3
390
0
  6
Continuous
100
AcDbLine
 10
-561.360463
 20
-245.8778
 30
0.0
 11
-461.360463
 21
-245.8778
 31
0.0
  0
LINE
  5
514
100
AcDbEntity
  8
0
370
    -3
390
0
  6
Continuous
100
AcDbLine
 10
-529.360463
 20
-259.052026
 30
0.0
 11
-461.360463
 21
-259.052026
 31
0.0
  0
LINE
  5
515
100
AcDbEntity
  8
0
370
    -3
390
0
  6
Continuous
100
AcDbLine
 10
-529.360463
 20
-261.347102
 30
0.0
 11
-461.360463
 21
-261.347102
 31
0.0
  0
LINE
  5
516
100
AcDbEntity
  8
0
370
    -3
390
0
  6
Continuous
100
AcDbLine
 10
-561.360463
 20
-263.08034
 30
0.0
 11
-461.360463
 21
-263.08034
 31
0.0
  0
LINE
  5
517
100
AcDbEntity
  8
0
370
    -3
390
0
  6
Continuous
100
AcDbLine
 10
-561.360463
 20
-193.774748
 30
0.0
 11
-561.360463
 21
-198.222082
 31
0.0
  0
LINE
  5
518
100
AcDbEntity
  8
0
370
    -3
390
0
  6
Continuous
100
AcDbLine
 10
-561.360463
 20
-179.154592
 30
0.0
 11
-561.360463
 21
-184.432648
 31
0.0
  0
LINE
  5
519
100
AcDbEntity
  8
0
370
    -3
390
0
  6
Continuous
100
AcDbLine
 10
-561.360463
 20
-229.098234
 30
0.0
 11
-561.360463
 21
-223.921058
 31
0.0
  0
LINE
  5
51A
100
AcDbEntity
  8
0
370
    -3
390
0
  6
Continuous
100
AcDbLine
 10
-561.360463
 20
-213.02875
 30
0.0
 11
-561.360463
 21
-207.427264
 31
0.0
  0
LINE
  5
51B
100
AcDbEntity
  8
0
370
    -3
390
0
  6
Continuous
100
AcDbLine
 10
-536.832709
 20
-184.432648
 30
0.0
 11
-561.360463
 21
-184.432648
 31
0.0
  0
LINE
  5
51C
100
AcDbEntity
  8
0
370
    -3
390
0
  6
Continuous
100
AcDbLine
 10
-529.360463
 20
-183.499008
 30
0.0
 11
-561.360463
 21
-195.687128
 31
0.0
  0
LINE
  5
51D
100
AcDbEntity
  8
0
370
    -3
390
0
  6
Continuous
100
AcDbLine
 10
-529.360463
 20
-181.586628
 30
0.0
 11
-561.360463
 21
-193.774748
 31
0.0
  0
LINE
  5
51E
100
AcDbEntity
  8
0
370
    -3
390
0
  6
Continuous
100
AcDbLine
 10
-529.360463
 20
-181.586628
 30
0.0
 11
-529.360463
 21
-183.499008
 31
0.0
  0
LINE
  5
51F
100
AcDbEntity
  8
0
370
    -3
390
0
  6
Continuous
100
AcDbLine
 10
-529.360463
 20
-166.959436
 30
0.0
 11
-561.360463
 21
-180.883824
 31
0.0
  0
LINE
  5
520
100
AcDbEntity
  8
0
370
    -3
390
0
  6
Continuous
100
AcDbLine
 10
-529.360463
 20
-165.230204
 30
0.0
 11
-561.360463
 21
-179.154592
 31
0.0
  0
LINE
  5
521
100
AcDbEntity
  8
0
370
    -3
390
0
  6
Continuous
100
AcDbLine
 10
-529.360463
 20
-166.959436
 30
0.0
 11
-529.360463
 21
-165.230204
 31
0.0
  0
LINE
  5
522
100
AcDbEntity
  8
0
370
    -3
390
0
  6
Continuous
100
AcDbLine
 10
-561.360463
 20
-226.525114
 30
0.0
 11
-529.360463
 21
-221.004604
 31
0.0
  0
LINE
  5
523
100
AcDbEntity
  8
0
370
    -3
390
0
  6
Continuous
100
AcDbLine
 10
-529.360463
 20
-218.401882
 30
0.0
 11
-561.360463
 21
-223.921058
 31
0.0
  0
LINE
  5
524
100
AcDbEntity
  8
0
370
    -3
390
0
  6
Continuous
100
AcDbLine
 10
-529.360463
 20
-221.004604
 30
0.0
 11
-529.360463
 21
-218.401882
 31
0.0
  0
LINE
  5
525
100
AcDbEntity
  8
0
370
    -3
390
0
  6
Continuous
100
AcDbLine
 10
-529.360463
 20
-201.307732
 30
0.0
 11
-529.360463
 21
-199.244924
 31
0.0
  0
LINE
  5
526
100
AcDbEntity
  8
0
370
    -3
390
0
  6
Continuous
100
AcDbLine
 10
-529.360463
 20
-201.307732
 30
0.0
 11
-561.360463
 21
-209.490072
 31
0.0
  0
LINE
  5
527
100
AcDbEntity
  8
0
370
    -3
390
0
  6
Continuous
100
AcDbLine
 10
-529.360463
 20
-199.244924
 30
0.0
 11
-561.360463
 21
-207.427264
 31
0.0
  0
LINE
  5
528
100
AcDbEntity
  8
0
370
    -3
390
0
  6
Continuous
100
AcDbLine
 10
-461.360463
 20
-165.230204
 30
0.0
 11
-529.360463
 21
-165.230204
 31
0.0
  0
LINE
  5
529
100
AcDbEntity
  8
0
370
    -3
390
0
  6
Continuous
100
AcDbLine
 10
-461.360463
 20
-166.959436
 30
0.0
 11
-529.360463
 21
-166.959436
 31
0.0
  0
LINE
  5
52A
100
AcDbEntity
  8
0
370
    -3
390
0
  6
Continuous
100
AcDbLine
 10
-461.360463
 20
-181.586628
 30
0.0
 11
-529.360463
 21
-181.586628
 31
0.0
  0
LINE
  5
52B
100
AcDbEntity
  8
0
370
    -3
390
0
  6
Continuous
100
AcDbLine
 10
-461.360463
 20
-183.499008
 30
0.0
 11
-529.360463
 21
-183.499008
 31
0.0
  0
LINE
  5
52C
100
AcDbEntity
  8
0
370
    -3
390
0
  6
Continuous
100
AcDbLine
 10
-461.360463
 20
-198.222082
 30
0.0
 11
-561.360463
 21
-198.222082
 31
0.0
  0
LINE
  5
52D
100
AcDbEntity
  8
0
370
    -3
390
0
  6
Continuous
100
AcDbLine
 10
-529.360463
 20
-199.244924
 30
0.0
 11
-461.360463
 21
-199.244924
 31
0.0
  0
LINE
  5
52E
100
AcDbEntity
  8
0
370
    -3
390
0
  6
Continuous
100
AcDbLine
 10
-529.360463
 20
-201.307732
 30
0.0
 11
-461.360463
 21
-201.307732
 31
0.0
  0
LINE
  5
52F
100
AcDbEntity
  8
0
370
    -3
390
0
  6
Continuous
100
AcDbLine
 10
-561.360463
 20
-213.02875
 30
0.0
 11
-461.360463
 21
-213.02875
 31
0.0
  0
LINE
  5
530
100
AcDbEntity
  8
0
370
    -3
390
0
  6
Continuous
100
AcDbLine
 10
-461.360463
 20
-218.401882
 30
0.0
 11
-529.360463
 21
-218.401882
 31
0.0
  0
LINE
  5
531
100
AcDbEntity
  8
0
370
    -3
390
0
  6
Continuous
100
AcDbLine
 10
-529.360463
 20
-221.004604
 30
0.0
 11
-461.360463
 21
-221.004604
 31
0.0
  0
LINE
  5
532
100
AcDbEntity
  8
0
370
    -3
390
0
  6
Continuous
100
AcDbLine
 10
-561.360463
 20
-229.098234
 30
0.0
 11
-461.360463
 21
-229.098234
 31
0.0
  0
ARC
  5
533
100
AcDbEntity
  8
0
370
    -3
390
0
  6
Continuous
100
AcDbCircle
 10
-372.860463
 20
-137.781926
 30
0.0
 40
1.0
100
AcDbArc
 50
180.0
 51
270.0
  0
LINE
  5
534
100
AcDbEntity
  8
0
370
    -3
390
0
  6
Continuous
100
AcDbLine
 10
-371.506911
 20
-138.781926
 30
0.0
 11
-347.214017
 21
-138.781926
 31
0.0
  0
ARC
  5
535
100
AcDbEntity
  8
0
370
    -3
390
0
  6
Continuous
100
AcDbCircle
 10
-347.860463
 20
-162.138204
 30
0.0
 40
0.5
100
AcDbArc
 50
270.0
 51
0.0
  0
ARC
  5
536
100
AcDbEntity
  8
0
370
    -3
390
0
  6
Continuous
100
AcDbCircle
 10
-346.860463
 20
-141.903246
 30
0.0
 40
0.5
100
AcDbArc
 50
135.0
 51
180.0
  0
LINE
  5
537
100
AcDbEntity
  8
0
370
    -3
390
0
  6
Continuous
100
AcDbLine
 10
-347.360463
 20
-162.138204
 30
0.0
 11
-347.360463
 21
-141.903246
 31
0.0
  0
ARC
  5
538
100
AcDbEntity
  8
0
370
    -3
390
0
  6
Continuous
100
AcDbCircle
 10
-370.860463
 20
-162.138204
 30
0.0
 40
0.5
100
AcDbArc
 50
180.0
 51
270.0
  0
ARC
  5
539
100
AcDbEntity
  8
0
370
    -3
390
0
  6
Continuous
100
AcDbCircle
 10
-372.860463
 20
-128.554004
 30
0.0
 40
1.0
100
AcDbArc
 50
90.0
 51
180.0
  0
LINE
  5
53A
100
AcDbEntity
  8
0
370
    -3
390
0
  6
Continuous
100
AcDbLine
 10
-373.860463
 20
-138.781926
 30
0.0
 11
-373.860463
 21
-128.554004
 31
0.0
  0
ARC
  5
53B
100
AcDbEntity
  8
0
370
    -3
390
0
  6
Continuous
100
AcDbCircle
 10
-372.860463
 20
-138.781926
 30
0.0
 40
1.0
100
AcDbArc
 50
180.0
 51
225.0
  0
LINE
  5
53C
100
AcDbEntity
  8
0
370
    -3
390
0
  6
Continuous
100
AcDbLine
 10
-371.506911
 20
-141.549694
 30
0.0
 11
-373.567571
 21
-139.489034
 31
0.0
  0
ARC
  5
53D
100
AcDbEntity
  8
0
370
    -3
390
0
  6
Continuous
100
AcDbCircle
 10
-371.860463
 20
-141.903246
 30
0.0
 40
0.5
100
AcDbArc
 50
0.0
 51
45.0
  0
LINE
  5
53E
100
AcDbEntity
  8
0
370
    -3
390
0
  6
Continuous
100
AcDbLine
 10
-371.360463
 20
-162.138204
 30
0.0
 11
-371.360463
 21
-141.903246
 31
0.0
  0
LINE
  5
53F
100
AcDbEntity
  8
0
370
    -3
390
0
  6
Continuous
100
AcDbLine
 10
-347.860463
 20
-162.638204
 30
0.0
 11
-370.860463
 21
-162.638204
 31
0.0
  0
ARC
  5
540
100
AcDbEntity
  8
0
370
    -3
390
0
  6
Continuous
100
AcDbCircle
 10
-372.860463
 20
-137.781926
 30
0.0
 40
1.0
100
AcDbArc
 50
180.0
 51
270.0
  0
ARC
  5
541
100
AcDbEntity
  8
0
370
    -3
390
0
  6
Continuous
100
AcDbCircle
 10
-347.860463
 20
-162.138204
 30
0.0
 40
0.5
100
AcDbArc
 50
270.0
 51
0.0
  0
ARC
  5
542
100
AcDbEntity
  8
0
370
    -3
390
0
  6
Continuous
100
AcDbCircle
 10
-346.860463
 20
-141.903246
 30
0.0
 40
0.5
100
AcDbArc
 50
135.0
 51
180.0
  0
LINE
  5
543
100
AcDbEntity
  8
0
370
    -3
390
0
  6
Continuous
100
AcDbLine
 10
-347.360463
 20
-162.138204
 30
0.0
 11
-347.360463
 21
-141.903246
 31
0.0
  0
ARC
  5
544
100
AcDbEntity
  8
0
370
    -3
390
0
  6
Continuous
100
AcDbCircle
 10
-370.860463
 20
-162.138204
 30
0.0
 40
0.5
100
AcDbArc
 50
180.0
 51
270.0
  0
ARC
  5
545
100
AcDbEntity
  8
0
370
    -3
390
0
  6
Continuous
100
AcDbCircle
 10
-372.860463
 20
-128.554004
 30
0.0
 40
1.0
100
AcDbArc
 50
90.0
 51
180.0
  0
LINE
  5
546
100
AcDbEntity
  8
0
370
    -3
390
0
  6
Continuous
100
AcDbLine
 10
-373.860463
 20
-138.781926
 30
0.0
 11
-373.860463
 21
-128.554004
 31
0.0
  0
ARC
  5
547
100
AcDbEntity
  8
0
370
    -3
390
0
  6
Continuous
100
AcDbCircle
 10
-372.860463
 20
-138.781926
 30
0.0
 40
1.0
100
AcDbArc
 50
180.0
 51
225.0
  0
LINE
  5
548
100
AcDbEntity
  8
0
370
    -3
390
0
  6
Continuous
100
AcDbLine
 10
-371.506911
 20
-141.549694
 30
0.0
 11
-373.567571
 21
-139.489034
 31
0.0
  0
ARC
  5
549
100
AcDbEntity
  8
0
370
    -3
390
0
  6
Continuous
100
AcDbCircle
 10
-371.860463
 20
-141.903246
 30
0.0
 40
0.5
100
AcDbArc
 50
0.0
 51
45.0
  0
LINE
  5
54A
100
AcDbEntity
  8
0
370
    -3
390
0
  6
Continuous
100
AcDbLine
 10
-371.360463
 20
-162.138204
 30
0.0
 11
-371.360463
 21
-141.903246
 31
0.0
  0
LINE
  5
54B
100
AcDbEntity
  8
0
370
    -3
390
0
  6
Continuous
100
AcDbLine
 10
-347.860463
 20
-162.638204
 30
0.0
 11
-370.860463
 21
-162.638204
 31
0.0
  0
LINE
  5
54C
100
AcDbEntity
  8
0
370
    -3
390
0
  6
Continuous
100
AcDbLine
 10
-428.360463
 20
-138.59839
 30
0.0
 11
-373.860463
 21
-138.59839
 31
0.0
  0
LINE
  5
54D
100
AcDbEntity
  8
0
370
    -3
390
0
  6
Continuous
100
AcDbLine
 10
-460.360463
 20
-121.037302
 30
0.0
 11
-428.360463
 21
-138.445144
 31
0.0
  0
LINE
  5
54E
100
AcDbEntity
  8
0
370
    -3
390
0
  6
Continuous
100
AcDbLine
 10
-460.360463
 20
-121.81451
 30
0.0
 11
-428.360463
 21
-139.222352
 31
0.0
  0
LINE
  5
54F
100
AcDbEntity
  8
0
370
    -3
390
0
  6
Continuous
100
AcDbLine
 10
-596.360463
 20
-121.81451
 30
0.0
 11
-596.360463
 21
-121.037302
 31
0.0
  0
LINE
  5
550
100
AcDbEntity
  8
0
370
    -3
390
0
  6
Continuous
100
AcDbLine
 10
-460.360463
 20
-121.81451
 30
0.0
 11
-460.360463
 21
-121.037302
 31
0.0
  0
LINE
  5
551
100
AcDbEntity
  8
0
370
    -3
390
0
  6
Continuous
100
AcDbLine
 10
-428.360463
 20
-138.445144
 30
0.0
 11
-428.360463
 21
-145.063724
 31
0.0
  0
LINE
  5
552
100
AcDbEntity
  8
0
370
    -3
390
0
  6
Continuous
100
AcDbLine
 10
-596.360463
 20
-121.81451
 30
0.0
 11
-460.360463
 21
-121.81451
 31
0.0
  0
LINE
  5
553
100
AcDbEntity
  8
0
370
    -3
390
0
  6
Continuous
100
AcDbLine
 10
-596.360463
 20
-121.037302
 30
0.0
 11
-460.360463
 21
-121.037302
 31
0.0
  0
LINE
  5
554
100
AcDbEntity
  8
0
370
    -3
390
0
  6
Continuous
100
AcDbLine
 10
-428.998227
 20
-153.24724
 30
0.0
 11
-428.360463
 21
-153.24724
 31
0.0
  0
LINE
  5
555
100
AcDbEntity
  8
0
370
    -3
390
0
  6
Continuous
100
AcDbLine
 10
-460.360463
 20
-128.547328
 30
0.0
 11
-428.360463
 21
-145.063724
 31
0.0
  0
LINE
  5
556
100
AcDbEntity
  8
0
370
    -3
390
0
  6
Continuous
100
AcDbLine
 10
-460.360463
 20
-129.582554
 30
0.0
 11
-428.360463
 21
-146.098952
 31
0.0
  0
LINE
  5
557
100
AcDbEntity
  8
0
370
    -3
390
0
  6
Continuous
100
AcDbLine
 10
-428.360463
 20
-145.063724
 30
0.0
 11
-428.360463
 21
-153.24724
 31
0.0
  0
LINE
  5
558
100
AcDbEntity
  8
0
370
    -3
390
0
  6
Continuous
100
AcDbLine
 10
-596.360463
 20
-128.547328
 30
0.0
 11
-596.360463
 21
-129.582554
 31
0.0
  0
LINE
  5
559
100
AcDbEntity
  8
0
370
    -3
390
0
  6
Continuous
100
AcDbLine
 10
-460.360463
 20
-128.547328
 30
0.0
 11
-460.360463
 21
-129.582554
 31
0.0
  0
LINE
  5
55A
100
AcDbEntity
  8
0
370
    -3
390
0
  6
Continuous
100
AcDbLine
 10
-596.360463
 20
-129.582554
 30
0.0
 11
-460.360463
 21
-129.582554
 31
0.0
  0
LINE
  5
55B
100
AcDbEntity
  8
0
370
    -3
390
0
  6
Continuous
100
AcDbLine
 10
-596.360463
 20
-128.547328
 30
0.0
 11
-460.360463
 21
-128.547328
 31
0.0
  0
LINE
  5
55C
100
AcDbEntity
  8
0
370
    -3
390
0
  6
Continuous
100
AcDbLine
 10
-435.482875
 20
-161.487456
 30
0.0
 11
-428.360463
 21
-161.487456
 31
0.0
  0
LINE
  5
55D
100
AcDbEntity
  8
0
370
    -3
390
0
  6
Continuous
100
AcDbLine
 10
-460.360463
 20
-138.175008
 30
0.0
 11
-428.360463
 21
-153.553738
 31
0.0
  0
LINE
  5
55E
100
AcDbEntity
  8
0
370
    -3
390
0
  6
Continuous
100
AcDbLine
 10
-460.360463
 20
-139.45282
 30
0.0
 11
-428.360463
 21
-154.83155
 31
0.0
  0
LINE
  5
55F
100
AcDbEntity
  8
0
370
    -3
390
0
  6
Continuous
100
AcDbLine
 10
-460.360463
 20
-138.175008
 30
0.0
 11
-460.360463
 21
-139.45282
 31
0.0
  0
LINE
  5
560
100
AcDbEntity
  8
0
370
    -3
390
0
  6
Continuous
100
AcDbLine
 10
-428.360463
 20
-161.487456
 30
0.0
 11
-428.360463
 21
-153.553738
 31
0.0
  0
LINE
  5
561
100
AcDbEntity
  8
0
370
    -3
390
0
  6
Continuous
100
AcDbLine
 10
-460.360463
 20
-150.67666
 30
0.0
 11
-428.360463
 21
-164.58257
 31
0.0
  0
LINE
  5
562
100
AcDbEntity
  8
0
370
    -3
390
0
  6
Continuous
100
AcDbLine
 10
-460.360463
 20
-152.193156
 30
0.0
 11
-430.359867
 21
-165.230204
 31
0.0
  0
LINE
  5
563
100
AcDbEntity
  8
0
370
    -3
390
0
  6
Continuous
100
AcDbLine
 10
-460.360463
 20
-152.193156
 30
0.0
 11
-460.360463
 21
-150.67666
 31
0.0
  0
LINE
  5
564
100
AcDbEntity
  8
0
370
    -3
390
0
  6
Continuous
100
AcDbLine
 10
-428.360463
 20
-165.230204
 30
0.0
 11
-428.360463
 21
-164.58257
 31
0.0
  0
LINE
  5
565
100
AcDbEntity
  8
0
370
    -3
390
0
  6
Continuous
100
AcDbLine
 10
-663.360463
 20
-419.38227
 30
0.0
 11
-663.360463
 21
-420.159478
 31
0.0
  0
LINE
  5
566
100
AcDbEntity
  8
0
370
    -3
390
0
  6
Continuous
100
AcDbLine
 10
-393.360463
 20
-420.159478
 30
0.0
 11
-361.360463
 21
-402.751636
 31
0.0
  0
LINE
  5
567
100
AcDbEntity
  8
0
370
    -3
390
0
  6
Continuous
100
AcDbLine
 10
-393.360463
 20
-419.38227
 30
0.0
 11
-361.360463
 21
-401.974428
 31
0.0
  0
LINE
  5
568
100
AcDbEntity
  8
0
370
    -3
390
0
  6
Continuous
100
AcDbLine
 10
-393.360463
 20
-419.38227
 30
0.0
 11
-393.360463
 21
-420.159478
 31
0.0
  0
LINE
  5
569
100
AcDbEntity
  8
0
370
    -3
390
0
  6
Continuous
100
AcDbLine
 10
-361.360463
 20
-396.133056
 30
0.0
 11
-361.360463
 21
-402.751636
 31
0.0
  0
LINE
  5
56A
100
AcDbEntity
  8
0
370
    -3
390
0
  6
Continuous
100
AcDbLine
 10
-663.360463
 20
-420.159478
 30
0.0
 11
-393.360463
 21
-420.159478
 31
0.0
  0
LINE
  5
56B
100
AcDbEntity
  8
0
370
    -3
390
0
  6
Continuous
100
AcDbLine
 10
-663.360463
 20
-419.38227
 30
0.0
 11
-393.360463
 21
-419.38227
 31
0.0
  0
LINE
  5
56C
100
AcDbEntity
  8
0
370
    -3
390
0
  6
Continuous
100
AcDbLine
 10
-361.998227
 20
-387.94954
 30
0.0
 11
-361.360463
 21
-387.94954
 31
0.0
  0
LINE
  5
56D
100
AcDbEntity
  8
0
370
    -3
390
0
  6
Continuous
100
AcDbLine
 10
-393.360463
 20
-412.649452
 30
0.0
 11
-361.360463
 21
-396.133056
 31
0.0
  0
LINE
  5
56E
100
AcDbEntity
  8
0
370
    -3
390
0
  6
Continuous
100
AcDbLine
 10
-393.360463
 20
-411.614226
 30
0.0
 11
-361.360463
 21
-395.09783
 31
0.0
  0
LINE
  5
56F
100
AcDbEntity
  8
0
370
    -3
390
0
  6
Continuous
100
AcDbLine
 10
-361.360463
 20
-387.94954
 30
0.0
 11
-361.360463
 21
-396.133056
 31
0.0
  0
LINE
  5
570
100
AcDbEntity
  8
0
370
    -3
390
0
  6
Continuous
100
AcDbLine
 10
-663.360463
 20
-411.614226
 30
0.0
 11
-663.360463
 21
-412.649452
 31
0.0
  0
LINE
  5
571
100
AcDbEntity
  8
0
370
    -3
390
0
  6
Continuous
100
AcDbLine
 10
-393.360463
 20
-411.614226
 30
0.0
 11
-393.360463
 21
-412.649452
 31
0.0
  0
LINE
  5
572
100
AcDbEntity
  8
0
370
    -3
390
0
  6
Continuous
100
AcDbLine
 10
-663.360463
 20
-412.649452
 30
0.0
 11
-393.360463
 21
-412.649452
 31
0.0
  0
LINE
  5
573
100
AcDbEntity
  8
0
370
    -3
390
0
  6
Continuous
100
AcDbLine
 10
-663.360463
 20
-411.614226
 30
0.0
 11
-393.360463
 21
-411.614226
 31
0.0
  0
LINE
  5
574
100
AcDbEntity
  8
0
370
    -3
390
0
  6
Continuous
100
AcDbLine
 10
-368.482875
 20
-379.709324
 30
0.0
 11
-361.360463
 21
-379.709324
 31
0.0
  0
LINE
  5
575
100
AcDbEntity
  8
0
370
    -3
390
0
  6
Continuous
100
AcDbLine
 10
-393.360463
 20
-403.021772
 30
0.0
 11
-361.360463
 21
-387.643042
 31
0.0
  0
LINE
  5
576
100
AcDbEntity
  8
0
370
    -3
390
0
  6
Continuous
100
AcDbLine
 10
-393.360463
 20
-401.74396
 30
0.0
 11
-361.360463
 21
-386.36523
 31
0.0
  0
LINE
  5
577
100
AcDbEntity
  8
0
370
    -3
390
0
  6
Continuous
100
AcDbLine
 10
-393.360463
 20
-401.74396
 30
0.0
 11
-393.360463
 21
-403.021772
 31
0.0
  0
LINE
  5
578
100
AcDbEntity
  8
0
370
    -3
390
0
  6
Continuous
100
AcDbLine
 10
-663.360463
 20
-401.74396
 30
0.0
 11
-663.360463
 21
-403.021772
 31
0.0
  0
LINE
  5
579
100
AcDbEntity
  8
0
370
    -3
390
0
  6
Continuous
100
AcDbLine
 10
-361.360463
 20
-379.709324
 30
0.0
 11
-361.360463
 21
-387.643042
 31
0.0
  0
LINE
  5
57A
100
AcDbEntity
  8
0
370
    -3
390
0
  6
Continuous
100
AcDbLine
 10
-663.360463
 20
-403.021772
 30
0.0
 11
-393.360463
 21
-403.021772
 31
0.0
  0
LINE
  5
57B
100
AcDbEntity
  8
0
370
    -3
390
0
  6
Continuous
100
AcDbLine
 10
-663.360463
 20
-401.74396
 30
0.0
 11
-393.360463
 21
-401.74396
 31
0.0
  0
LINE
  5
57C
100
AcDbEntity
  8
0
370
    -3
390
0
  6
Continuous
100
AcDbLine
 10
-442.288159
 20
-369.079244
 30
0.0
 11
-361.360463
 21
-369.079244
 31
0.0
  0
LINE
  5
57D
100
AcDbEntity
  8
0
370
    -3
390
0
  6
Continuous
100
AcDbLine
 10
-393.360463
 20
-390.52012
 30
0.0
 11
-361.360463
 21
-376.61421
 31
0.0
  0
LINE
  5
57E
100
AcDbEntity
  8
0
370
    -3
390
0
  6
Continuous
100
AcDbLine
 10
-393.360463
 20
-389.003626
 30
0.0
 11
-361.360463
 21
-375.097716
 31
0.0
  0
LINE
  5
57F
100
AcDbEntity
  8
0
370
    -3
390
0
  6
Continuous
100
AcDbLine
 10
-393.360463
 20
-389.003626
 30
0.0
 11
-393.360463
 21
-390.52012
 31
0.0
  0
LINE
  5
580
100
AcDbEntity
  8
0
370
    -3
390
0
  6
Continuous
100
AcDbLine
 10
-663.360463
 20
-389.003626
 30
0.0
 11
-663.360463
 21
-390.52012
 31
0.0
  0
LINE
  5
581
100
AcDbEntity
  8
0
370
    -3
390
0
  6
Continuous
100
AcDbLine
 10
-361.360463
 20
-369.079244
 30
0.0
 11
-361.360463
 21
-376.61421
 31
0.0
  0
LINE
  5
582
100
AcDbEntity
  8
0
370
    -3
390
0
  6
Continuous
100
AcDbLine
 10
-663.360463
 20
-390.52012
 30
0.0
 11
-393.360463
 21
-390.52012
 31
0.0
  0
LINE
  5
583
100
AcDbEntity
  8
0
370
    -3
390
0
  6
Continuous
100
AcDbLine
 10
-663.360463
 20
-389.003626
 30
0.0
 11
-393.360463
 21
-389.003626
 31
0.0
  0
LINE
  5
584
100
AcDbEntity
  8
0
370
    -3
390
0
  6
Continuous
100
AcDbLine
 10
-596.360463
 20
-375.966576
 30
0.0
 11
-628.360463
 21
-363.77142
 31
0.0
  0
LINE
  5
585
100
AcDbEntity
  8
0
370
    -3
390
0
  6
Continuous
100
AcDbLine
 10
-460.360463
 20
-375.966576
 30
0.0
 11
-428.360463
 21
-363.77142
 31
0.0
  0
LINE
  5
586
100
AcDbEntity
  8
0
370
    -3
390
0
  6
Continuous
100
AcDbLine
 10
-451.497583
 20
-356.764132
 30
0.0
 11
-428.360463
 21
-356.764132
 31
0.0
  0
LINE
  5
587
100
AcDbEntity
  8
0
370
    -3
390
0
  6
Continuous
100
AcDbLine
 10
-596.360463
 20
-374.237344
 30
0.0
 11
-628.360463
 21
-362.042188
 31
0.0
  0
LINE
  5
588
100
AcDbEntity
  8
0
370
    -3
390
0
  6
Continuous
100
AcDbLine
 10
-460.360463
 20
-374.237344
 30
0.0
 11
-428.360463
 21
-362.042188
 31
0.0
  0
LINE
  5
589
100
AcDbEntity
  8
0
370
    -3
390
0
  6
Continuous
100
AcDbLine
 10
-460.360463
 20
-374.237344
 30
0.0
 11
-460.360463
 21
-375.966576
 31
0.0
  0
LINE
  5
58A
100
AcDbEntity
  8
0
370
    -3
390
0
  6
Continuous
100
AcDbLine
 10
-596.360463
 20
-374.237344
 30
0.0
 11
-596.360463
 21
-375.966576
 31
0.0
  0
LINE
  5
58B
100
AcDbEntity
  8
0
370
    -3
390
0
  6
Continuous
100
AcDbLine
 10
-628.360463
 20
-356.764132
 30
0.0
 11
-628.360463
 21
-363.77142
 31
0.0
  0
LINE
  5
58C
100
AcDbEntity
  8
0
370
    -3
390
0
  6
Continuous
100
AcDbLine
 10
-428.360463
 20
-356.764132
 30
0.0
 11
-428.360463
 21
-363.77142
 31
0.0
  0
LINE
  5
58D
100
AcDbEntity
  8
0
370
    -3
390
0
  6
Continuous
100
AcDbLine
 10
-596.360463
 20
-375.966576
 30
0.0
 11
-460.360463
 21
-375.966576
 31
0.0
  0
LINE
  5
58E
100
AcDbEntity
  8
0
370
    -3
390
0
  6
Continuous
100
AcDbLine
 10
-596.360463
 20
-374.237344
 30
0.0
 11
-460.360463
 21
-374.237344
 31
0.0
  0
LINE
  5
58F
100
AcDbEntity
  8
0
370
    -3
390
0
  6
Continuous
100
AcDbLine
 10
-628.360463
 20
-356.764132
 30
0.0
 11
-605.223345
 21
-356.764132
 31
0.0
  0
LINE
  5
590
100
AcDbEntity
  8
0
370
    -3
390
0
  6
Continuous
100
AcDbLine
 10
-596.360463
 20
-359.610152
 30
0.0
 11
-628.360463
 21
-349.334412
 31
0.0
  0
LINE
  5
591
100
AcDbEntity
  8
0
370
    -3
390
0
  6
Continuous
100
AcDbLine
 10
-460.360463
 20
-359.610152
 30
0.0
 11
-428.360463
 21
-349.334412
 31
0.0
  0
LINE
  5
592
100
AcDbEntity
  8
0
370
    -3
390
0
  6
Continuous
100
AcDbLine
 10
-596.360463
 20
-357.697772
 30
0.0
 11
-628.360463
 21
-347.422032
 31
0.0
  0
LINE
  5
593
100
AcDbEntity
  8
0
370
    -3
390
0
  6
Continuous
100
AcDbLine
 10
-460.360463
 20
-357.697772
 30
0.0
 11
-428.360463
 21
-347.422032
 31
0.0
  0
LINE
  5
594
100
AcDbEntity
  8
0
370
    -3
390
0
  6
Continuous
100
AcDbLine
 10
-460.360463
 20
-357.697772
 30
0.0
 11
-460.360463
 21
-359.610152
 31
0.0
  0
LINE
  5
595
100
AcDbEntity
  8
0
370
    -3
390
0
  6
Continuous
100
AcDbLine
 10
-596.360463
 20
-357.697772
 30
0.0
 11
-596.360463
 21
-359.610152
 31
0.0
  0
LINE
  5
596
100
AcDbEntity
  8
0
370
    -3
390
0
  6
Continuous
100
AcDbLine
 10
-628.360463
 20
-342.974698
 30
0.0
 11
-628.360463
 21
-349.334412
 31
0.0
  0
LINE
  5
597
100
AcDbEntity
  8
0
370
    -3
390
0
  6
Continuous
100
AcDbLine
 10
-428.360463
 20
-342.974698
 30
0.0
 11
-428.360463
 21
-349.334412
 31
0.0
  0
LINE
  5
598
100
AcDbEntity
  8
0
370
    -3
390
0
  6
Continuous
100
AcDbLine
 10
-596.360463
 20
-359.610152
 30
0.0
 11
-460.360463
 21
-359.610152
 31
0.0
  0
LINE
  5
599
100
AcDbEntity
  8
0
370
    -3
390
0
  6
Continuous
100
AcDbLine
 10
-596.360463
 20
-357.697772
 30
0.0
 11
-460.360463
 21
-357.697772
 31
0.0
  0
LINE
  5
59A
100
AcDbEntity
  8
0
370
    -3
390
0
  6
Continuous
100
AcDbLine
 10
-628.360463
 20
-342.974698
 30
0.0
 11
-428.360463
 21
-342.974698
 31
0.0
  0
LINE
  5
59B
100
AcDbEntity
  8
0
370
    -3
390
0
  6
Continuous
100
AcDbLine
 10
-596.360463
 20
-341.730712
 30
0.0
 11
-628.360463
 21
-333.55021
 31
0.0
  0
LINE
  5
59C
100
AcDbEntity
  8
0
370
    -3
390
0
  6
Continuous
100
AcDbLine
 10
-460.360463
 20
-341.730712
 30
0.0
 11
-428.360463
 21
-333.55021
 31
0.0
  0
LINE
  5
59D
100
AcDbEntity
  8
0
370
    -3
390
0
  6
Continuous
100
AcDbLine
 10
-596.360463
 20
-339.667904
 30
0.0
 11
-628.360463
 21
-331.487404
 31
0.0
  0
LINE
  5
59E
100
AcDbEntity
  8
0
370
    -3
390
0
  6
Continuous
100
AcDbLine
 10
-460.360463
 20
-339.667904
 30
0.0
 11
-428.360463
 21
-331.487404
 31
0.0
  0
LINE
  5
59F
100
AcDbEntity
  8
0
370
    -3
390
0
  6
Continuous
100
AcDbLine
 10
-460.360463
 20
-339.667904
 30
0.0
 11
-460.360463
 21
-341.730712
 31
0.0
  0
LINE
  5
5A0
100
AcDbEntity
  8
0
370
    -3
390
0
  6
Continuous
100
AcDbLine
 10
-596.360463
 20
-339.667904
 30
0.0
 11
-596.360463
 21
-341.730712
 31
0.0
  0
LINE
  5
5A1
100
AcDbEntity
  8
0
370
    -3
390
0
  6
Continuous
100
AcDbLine
 10
-628.360463
 20
-327.946886
 30
0.0
 11
-628.360463
 21
-333.55021
 31
0.0
  0
LINE
  5
5A2
100
AcDbEntity
  8
0
370
    -3
390
0
  6
Continuous
100
AcDbLine
 10
-428.360463
 20
-327.946886
 30
0.0
 11
-428.360463
 21
-333.55021
 31
0.0
  0
LINE
  5
5A3
100
AcDbEntity
  8
0
370
    -3
390
0
  6
Continuous
100
AcDbLine
 10
-596.360463
 20
-341.730712
 30
0.0
 11
-460.360463
 21
-341.730712
 31
0.0
  0
LINE
  5
5A4
100
AcDbEntity
  8
0
370
    -3
390
0
  6
Continuous
100
AcDbLine
 10
-596.360463
 20
-339.667904
 30
0.0
 11
-460.360463
 21
-339.667904
 31
0.0
  0
LINE
  5
5A5
100
AcDbEntity
  8
0
370
    -3
390
0
  6
Continuous
100
AcDbLine
 10
-628.360463
 20
-327.946886
 30
0.0
 11
-428.360463
 21
-327.946886
 31
0.0
  0
LINE
  5
5A6
100
AcDbEntity
  8
0
370
    -3
390
0
  6
Continuous
100
AcDbLine
 10
-596.360463
 20
-322.634178
 30
0.0
 11
-628.360463
 21
-316.688884
 31
0.0
  0
LINE
  5
5A7
100
AcDbEntity
  8
0
370
    -3
390
0
  6
Continuous
100
AcDbLine
 10
-460.360463
 20
-322.634178
 30
0.0
 11
-428.360463
 21
-316.688884
 31
0.0
  0
LINE
  5
5A8
100
AcDbEntity
  8
0
370
    -3
390
0
  6
Continuous
100
AcDbLine
 10
-460.360463
 20
-320.456238
 30
0.0
 11
-428.360463
 21
-314.510946
 31
0.0
  0
LINE
  5
5A9
100
AcDbEntity
  8
0
370
    -3
390
0
  6
Continuous
100
AcDbLine
 10
-596.360463
 20
-320.456238
 30
0.0
 11
-628.360463
 21
-314.510946
 31
0.0
  0
LINE
  5
5AA
100
AcDbEntity
  8
0
370
    -3
390
0
  6
Continuous
100
AcDbLine
 10
-596.360463
 20
-322.634178
 30
0.0
 11
-460.360463
 21
-322.634178
 31
0.0
  0
LINE
  5
5AB
100
AcDbEntity
  8
0
370
    -3
390
0
  6
Continuous
100
AcDbLine
 10
-596.360463
 20
-320.456238
 30
0.0
 11
-460.360463
 21
-320.456238
 31
0.0
  0
LINE
  5
5AC
100
AcDbEntity
  8
0
370
    -3
390
0
  6
Continuous
100
AcDbLine
 10
-628.360463
 20
-311.937826
 30
0.0
 11
-428.360463
 21
-311.937826
 31
0.0
  0
LINE
  5
5AD
100
AcDbEntity
  8
0
370
    -3
390
0
  6
Continuous
100
AcDbLine
 10
-460.360463
 20
-322.634178
 30
0.0
 11
-460.360463
 21
-320.456238
 31
0.0
  0
LINE
  5
5AE
100
AcDbEntity
  8
0
370
    -3
390
0
  6
Continuous
100
AcDbLine
 10
-596.360463
 20
-322.634178
 30
0.0
 11
-596.360463
 21
-320.456238
 31
0.0
  0
LINE
  5
5AF
100
AcDbEntity
  8
0
370
    -3
390
0
  6
Continuous
100
AcDbLine
 10
-628.360463
 20
-316.688884
 30
0.0
 11
-628.360463
 21
-311.937826
 31
0.0
  0
LINE
  5
5B0
100
AcDbEntity
  8
0
370
    -3
390
0
  6
Continuous
100
AcDbLine
 10
-428.360463
 20
-316.688884
 30
0.0
 11
-428.360463
 21
-311.937826
 31
0.0
  0
LINE
  5
5B1
100
AcDbEntity
  8
0
370
    -3
390
0
  6
Continuous
100
AcDbLine
 10
-393.360463
 20
-302.647298
 30
0.0
 11
-361.360463
 21
-299.038938
 31
0.0
  0
LINE
  5
5B2
100
AcDbEntity
  8
0
370
    -3
390
0
  6
Continuous
100
AcDbLine
 10
-393.360463
 20
-300.391492
 30
0.0
 11
-361.360463
 21
-296.783132
 31
0.0
  0
LINE
  5
5B3
100
AcDbEntity
  8
0
370
    -3
390
0
  6
Continuous
100
AcDbLine
 10
-663.360463
 20
-302.647298
 30
0.0
 11
-663.360463
 21
-300.391492
 31
0.0
  0
LINE
  5
5B4
100
AcDbEntity
  8
0
370
    -3
390
0
  6
Continuous
100
AcDbLine
 10
-393.360463
 20
-302.647298
 30
0.0
 11
-393.360463
 21
-300.391492
 31
0.0
  0
LINE
  5
5B5
100
AcDbEntity
  8
0
370
    -3
390
0
  6
Continuous
100
AcDbLine
 10
-361.360463
 20
-295.221436
 30
0.0
 11
-361.360463
 21
-299.038938
 31
0.0
  0
LINE
  5
5B6
100
AcDbEntity
  8
0
370
    -3
390
0
  6
Continuous
100
AcDbLine
 10
-663.360463
 20
-302.647298
 30
0.0
 11
-393.360463
 21
-302.647298
 31
0.0
  0
LINE
  5
5B7
100
AcDbEntity
  8
0
370
    -3
390
0
  6
Continuous
100
AcDbLine
 10
-663.360463
 20
-300.391492
 30
0.0
 11
-393.360463
 21
-300.391492
 31
0.0
  0
LINE
  5
5B8
100
AcDbEntity
  8
0
370
    -3
390
0
  6
Continuous
100
AcDbLine
 10
-393.360463
 20
-282.112052
 30
0.0
 11
-361.360463
 21
-280.902366
 31
0.0
  0
LINE
  5
5B9
100
AcDbEntity
  8
0
370
    -3
390
0
  6
Continuous
100
AcDbLine
 10
-393.360463
 20
-279.816976
 30
0.0
 11
-361.360463
 21
-278.60729
 31
0.0
  0
LINE
  5
5BA
100
AcDbEntity
  8
0
370
    -3
390
0
  6
Continuous
100
AcDbLine
 10
-361.360463
 20
-278.08374
 30
0.0
 11
-361.360463
 21
-280.902366
 31
0.0
  0
LINE
  5
5BB
100
AcDbEntity
  8
0
370
    -3
390
0
  6
Continuous
100
AcDbLine
 10
-393.360463
 20
-279.816976
 30
0.0
 11
-393.360463
 21
-282.112052
 31
0.0
  0
LINE
  5
5BC
100
AcDbEntity
  8
0
370
    -3
390
0
  6
Continuous
100
AcDbLine
 10
-385.888217
 20
-184.432648
 30
0.0
 11
-361.360463
 21
-184.432648
 31
0.0
  0
LINE
  5
5BD
100
AcDbEntity
  8
0
370
    -3
390
0
  6
Continuous
100
AcDbLine
 10
-393.360463
 20
-183.499008
 30
0.0
 11
-361.360463
 21
-195.687128
 31
0.0
  0
LINE
  5
5BE
100
AcDbEntity
  8
0
370
    -3
390
0
  6
Continuous
100
AcDbLine
 10
-393.360463
 20
-181.586628
 30
0.0
 11
-361.360463
 21
-193.774748
 31
0.0
  0
LINE
  5
5BF
100
AcDbEntity
  8
0
370
    -3
390
0
  6
Continuous
100
AcDbLine
 10
-361.360463
 20
-193.774748
 30
0.0
 11
-361.360463
 21
-198.222082
 31
0.0
  0
LINE
  5
5C0
100
AcDbEntity
  8
0
370
    -3
390
0
  6
Continuous
100
AcDbLine
 10
-393.360463
 20
-181.586628
 30
0.0
 11
-393.360463
 21
-183.499008
 31
0.0
  0
LINE
  5
5C1
100
AcDbEntity
  8
0
370
    -3
390
0
  6
Continuous
100
AcDbLine
 10
-461.360463
 20
-183.499008
 30
0.0
 11
-393.360463
 21
-183.499008
 31
0.0
  0
LINE
  5
5C2
100
AcDbEntity
  8
0
370
    -3
390
0
  6
Continuous
100
AcDbLine
 10
-461.360463
 20
-181.586628
 30
0.0
 11
-393.360463
 21
-181.586628
 31
0.0
  0
LINE
  5
5C3
100
AcDbEntity
  8
0
370
    -3
390
0
  6
Continuous
100
AcDbLine
 10
-393.360463
 20
-166.959436
 30
0.0
 11
-361.360463
 21
-180.883824
 31
0.0
  0
LINE
  5
5C4
100
AcDbEntity
  8
0
370
    -3
390
0
  6
Continuous
100
AcDbLine
 10
-393.360463
 20
-165.230204
 30
0.0
 11
-361.360463
 21
-179.154592
 31
0.0
  0
LINE
  5
5C5
100
AcDbEntity
  8
0
370
    -3
390
0
  6
Continuous
100
AcDbLine
 10
-393.360463
 20
-166.959436
 30
0.0
 11
-393.360463
 21
-165.230204
 31
0.0
  0
LINE
  5
5C6
100
AcDbEntity
  8
0
370
    -3
390
0
  6
Continuous
100
AcDbLine
 10
-361.360463
 20
-179.154592
 30
0.0
 11
-361.360463
 21
-184.432648
 31
0.0
  0
ARC
  5
5C7
100
AcDbEntity
  8
0
370
    -3
390
0
  6
Continuous
100
AcDbCircle
 10
-346.360463
 20
-336.334972
 30
0.0
 40
1.0
100
AcDbArc
 50
180.0
 51
270.0
  0
ARC
  5
5C8
100
AcDbEntity
  8
0
370
    -3
390
0
  6
Continuous
100
AcDbCircle
 10
-372.360463
 20
-336.334972
 30
0.0
 40
1.0
100
AcDbArc
 50
270.0
 51
0.0
  0
ARC
  5
5C9
100
AcDbEntity
  8
0
370
    -3
390
0
  6
Continuous
100
AcDbCircle
 10
-372.860463
 20
-338.334972
 30
0.0
 40
1.0
100
AcDbArc
 50
90.0
 51
180.0
  0
ARC
  5
5CA
100
AcDbEntity
  8
0
370
    -3
390
0
  6
Continuous
100
AcDbCircle
 10
-348.360463
 20
-326.790954
 30
0.0
 40
1.0
100
AcDbArc
 50
0.0
 51
90.0
  0
ARC
  5
5CB
100
AcDbEntity
  8
0
370
    -3
390
0
  6
Continuous
100
AcDbCircle
 10
-370.360463
 20
-326.790954
 30
0.0
 40
1.0
100
AcDbArc
 50
90.0
 51
180.0
  0
ARC
  5
5CC
100
AcDbEntity
  8
0
370
    -3
390
0
  6
Continuous
100
AcDbCircle
 10
-372.860463
 20
-357.37195
 30
0.0
 40
1.0
100
AcDbArc
 50
180.0
 51
270.0
  0
ARC
  5
5CD
100
AcDbEntity
  8
0
370
    -3
390
0
  6
Continuous
100
AcDbCircle
 10
-372.860463
 20
-342.148634
 30
0.0
 40
1.0
100
AcDbArc
 50
90.0
 51
180.0
  0
LINE
  5
5CE
100
AcDbEntity
  8
0
370
    -3
390
0
  6
Continuous
100
AcDbLine
 10
-372.360463
 20
-337.334972
 30
0.0
 11
-372.860463
 21
-337.334972
 31
0.0
  0
LINE
  5
5CF
100
AcDbEntity
  8
0
370
    -3
390
0
  6
Continuous
100
AcDbLine
 10
-373.860463
 20
-357.37195
 30
0.0
 11
-373.860463
 21
-338.334972
 31
0.0
  0
LINE
  5
5D0
100
AcDbEntity
  8
0
370
    -3
390
0
  6
Continuous
100
AcDbLine
 10
-371.360463
 20
-336.334972
 30
0.0
 11
-371.360463
 21
-326.790954
 31
0.0
  0
LINE
  5
5D1
100
AcDbEntity
  8
0
370
    -3
390
0
  6
Continuous
100
AcDbLine
 10
-347.360463
 20
-336.334972
 30
0.0
 11
-347.360463
 21
-326.790954
 31
0.0
  0
LINE
  5
5D2
100
AcDbEntity
  8
0
370
    -3
390
0
  6
Continuous
100
AcDbLine
 10
-348.360463
 20
-325.790954
 30
0.0
 11
-370.360463
 21
-325.790954
 31
0.0
  0
LINE
  5
5D3
100
AcDbEntity
  8
0
370
    -3
390
0
  6
Continuous
100
AcDbLine
 10
-361.360463
 20
-229.098234
 30
0.0
 11
-361.360463
 21
-223.921058
 31
0.0
  0
LINE
  5
5D4
100
AcDbEntity
  8
0
370
    -3
390
0
  6
Continuous
100
AcDbLine
 10
-361.360463
 20
-229.098234
 30
0.0
 11
-461.360463
 21
-229.098234
 31
0.0
  0
LINE
  5
5D5
100
AcDbEntity
  8
0
370
    -3
390
0
  6
Continuous
100
AcDbLine
 10
-461.360463
 20
-218.401882
 30
0.0
 11
-393.360463
 21
-218.401882
 31
0.0
  0
LINE
  5
5D6
100
AcDbEntity
  8
0
370
    -3
390
0
  6
Continuous
100
AcDbLine
 10
-361.360463
 20
-226.525114
 30
0.0
 11
-393.360463
 21
-221.004604
 31
0.0
  0
LINE
  5
5D7
100
AcDbEntity
  8
0
370
    -3
390
0
  6
Continuous
100
AcDbLine
 10
-393.360463
 20
-218.401882
 30
0.0
 11
-361.360463
 21
-223.921058
 31
0.0
  0
LINE
  5
5D8
100
AcDbEntity
  8
0
370
    -3
390
0
  6
Continuous
100
AcDbLine
 10
-393.360463
 20
-221.004604
 30
0.0
 11
-393.360463
 21
-218.401882
 31
0.0
  0
LINE
  5
5D9
100
AcDbEntity
  8
0
370
    -3
390
0
  6
Continuous
100
AcDbLine
 10
-393.360463
 20
-221.004604
 30
0.0
 11
-461.360463
 21
-221.004604
 31
0.0
  0
LINE
  5
5DA
100
AcDbEntity
  8
0
370
    -3
390
0
  6
Continuous
100
AcDbLine
 10
-361.360463
 20
-245.8778
 30
0.0
 11
-461.360463
 21
-245.8778
 31
0.0
  0
LINE
  5
5DB
100
AcDbEntity
  8
0
370
    -3
390
0
  6
Continuous
100
AcDbLine
 10
-361.360463
 20
-213.02875
 30
0.0
 11
-461.360463
 21
-213.02875
 31
0.0
  0
LINE
  5
5DC
100
AcDbEntity
  8
0
370
    -3
390
0
  6
Continuous
100
AcDbLine
 10
-361.360463
 20
-263.08034
 30
0.0
 11
-461.360463
 21
-263.08034
 31
0.0
  0
LINE
  5
5DD
100
AcDbEntity
  8
0
370
    -3
390
0
  6
Continuous
100
AcDbLine
 10
-361.360463
 20
-263.08034
 30
0.0
 11
-361.360463
 21
-260.261984
 31
0.0
  0
LINE
  5
5DE
100
AcDbEntity
  8
0
370
    -3
390
0
  6
Continuous
100
AcDbLine
 10
-361.360463
 20
-245.8778
 30
0.0
 11
-361.360463
 21
-242.061108
 31
0.0
  0
LINE
  5
5DF
100
AcDbEntity
  8
0
370
    -3
390
0
  6
Continuous
100
AcDbLine
 10
-361.360463
 20
-213.02875
 30
0.0
 11
-361.360463
 21
-207.427264
 31
0.0
  0
LINE
  5
5E0
100
AcDbEntity
  8
0
370
    -3
390
0
  6
Continuous
100
AcDbLine
 10
-393.360463
 20
-201.307732
 30
0.0
 11
-393.360463
 21
-199.244924
 31
0.0
  0
LINE
  5
5E1
100
AcDbEntity
  8
0
370
    -3
390
0
  6
Continuous
100
AcDbLine
 10
-393.360463
 20
-240.707744
 30
0.0
 11
-393.360463
 21
-238.451938
 31
0.0
  0
LINE
  5
5E2
100
AcDbEntity
  8
0
370
    -3
390
0
  6
Continuous
100
AcDbLine
 10
-393.360463
 20
-261.347102
 30
0.0
 11
-393.360463
 21
-259.052026
 31
0.0
  0
LINE
  5
5E3
100
AcDbEntity
  8
0
370
    -3
390
0
  6
Continuous
100
AcDbLine
 10
-393.360463
 20
-261.347102
 30
0.0
 11
-361.360463
 21
-262.55706
 31
0.0
  0
LINE
  5
5E4
100
AcDbEntity
  8
0
370
    -3
390
0
  6
Continuous
100
AcDbLine
 10
-393.360463
 20
-259.052026
 30
0.0
 11
-361.360463
 21
-260.261984
 31
0.0
  0
LINE
  5
5E5
100
AcDbEntity
  8
0
370
    -3
390
0
  6
Continuous
100
AcDbLine
 10
-393.360463
 20
-240.707744
 30
0.0
 11
-361.360463
 21
-244.316914
 31
0.0
  0
LINE
  5
5E6
100
AcDbEntity
  8
0
370
    -3
390
0
  6
Continuous
100
AcDbLine
 10
-393.360463
 20
-238.451938
 30
0.0
 11
-361.360463
 21
-242.061108
 31
0.0
  0
LINE
  5
5E7
100
AcDbEntity
  8
0
370
    -3
390
0
  6
Continuous
100
AcDbLine
 10
-393.360463
 20
-201.307732
 30
0.0
 11
-361.360463
 21
-209.490072
 31
0.0
  0
LINE
  5
5E8
100
AcDbEntity
  8
0
370
    -3
390
0
  6
Continuous
100
AcDbLine
 10
-393.360463
 20
-199.244924
 30
0.0
 11
-361.360463
 21
-207.427264
 31
0.0
  0
LINE
  5
5E9
100
AcDbEntity
  8
0
370
    -3
390
0
  6
Continuous
100
AcDbLine
 10
-393.360463
 20
-261.347102
 30
0.0
 11
-461.360463
 21
-261.347102
 31
0.0
  0
LINE
  5
5EA
100
AcDbEntity
  8
0
370
    -3
390
0
  6
Continuous
100
AcDbLine
 10
-393.360463
 20
-259.052026
 30
0.0
 11
-461.360463
 21
-259.052026
 31
0.0
  0
LINE
  5
5EB
100
AcDbEntity
  8
0
370
    -3
390
0
  6
Continuous
100
AcDbLine
 10
-393.360463
 20
-240.707744
 30
0.0
 11
-461.360463
 21
-240.707744
 31
0.0
  0
LINE
  5
5EC
100
AcDbEntity
  8
0
370
    -3
390
0
  6
Continuous
100
AcDbLine
 10
-393.360463
 20
-238.451938
 30
0.0
 11
-461.360463
 21
-238.451938
 31
0.0
  0
LINE
  5
5ED
100
AcDbEntity
  8
0
370
    -3
390
0
  6
Continuous
100
AcDbLine
 10
-393.360463
 20
-201.307732
 30
0.0
 11
-461.360463
 21
-201.307732
 31
0.0
  0
LINE
  5
5EE
100
AcDbEntity
  8
0
370
    -3
390
0
  6
Continuous
100
AcDbLine
 10
-393.360463
 20
-199.244924
 30
0.0
 11
-461.360463
 21
-199.244924
 31
0.0
  0
LINE
  5
5EF
100
AcDbEntity
  8
0
370
    -3
390
0
  6
Continuous
100
AcDbLine
 10
-545.760463
 20
-426.39839
 30
0.0
 11
-510.960463
 21
-426.39839
 31
0.0
  0
ARC
  5
5F0
100
AcDbEntity
  8
0
370
    -3
390
0
  6
Continuous
100
AcDbCircle
 10
-510.960463
 20
-425.79839
 30
0.0
 40
0.6
100
AcDbArc
 50
270.0
 51
0.0
  0
ARC
  5
5F1
100
AcDbEntity
  8
0
370
    -3
390
0
  6
Continuous
100
AcDbCircle
 10
-545.760463
 20
-425.79839
 30
0.0
 40
0.6
100
AcDbArc
 50
180.0
 51
270.0
  0
LINE
  5
5F2
100
AcDbEntity
  8
0
370
    -3
390
0
  6
Continuous
100
AcDbLine
 10
-546.360463
 20
-420.159478
 30
0.0
 11
-546.360463
 21
-425.79839
 31
0.0
  0
LINE
  5
5F3
100
AcDbEntity
  8
0
370
    -3
390
0
  6
Continuous
100
AcDbLine
 10
-510.360463
 20
-420.159478
 30
0.0
 11
-510.360463
 21
-425.79839
 31
0.0
  0
LINE
  5
5F4
100
AcDbEntity
  8
0
370
    -3
390
0
  6
Continuous
100
AcDbLine
 10
-372.860463
 20
-127.554004
 30
0.0
 11
-346.360463
 21
-127.554004
 31
0.0
  0
LINE
  5
5F5
100
AcDbEntity
  8
0
370
    -3
390
0
  6
Continuous
100
AcDbLine
 10
-372.860463
 20
-138.781926
 30
0.0
 11
-346.360463
 21
-138.781926
 31
0.0
  0
LINE
  5
5F6
100
AcDbEntity
  8
0
370
    -3
390
0
  6
Continuous
100
AcDbLine
 10
-663.360463
 20
-300.391492
 30
0.0
 11
-680.360463
 21
-298.474551
 31
0.0
  0
LINE
  5
5F7
100
AcDbEntity
  8
0
370
    -3
390
0
  6
Continuous
100
AcDbLine
 10
-663.360463
 20
-302.647298
 30
0.0
 11
-680.360463
 21
-300.730357
 31
0.0
  0
LINE
  5
5F8
100
AcDbEntity
  8
0
370
    -3
390
0
  6
Continuous
100
AcDbLine
 10
-676.360463
 20
-369.079244
 30
0.0
 11
-614.432769
 21
-369.079244
 31
0.0
  0
LINE
  5
5F9
100
AcDbEntity
  8
0
370
    -3
390
0
  6
Continuous
100
AcDbLine
 10
-663.360463
 20
-389.003626
 30
0.0
 11
-676.360463
 21
-383.35435
 31
0.0
  0
LINE
  5
5FA
100
AcDbEntity
  8
0
370
    -3
390
0
  6
Continuous
100
AcDbLine
 10
-663.360463
 20
-390.52012
 30
0.0
 11
-676.360463
 21
-384.870844
 31
0.0
  0
LINE
  5
5FB
100
AcDbEntity
  8
0
370
    -3
390
0
  6
Continuous
100
AcDbLine
 10
-663.360463
 20
-401.74396
 30
0.0
 11
-676.360463
 21
-395.496351
 31
0.0
  0
LINE
  5
5FC
100
AcDbEntity
  8
0
370
    -3
390
0
  6
Continuous
100
AcDbLine
 10
-663.360463
 20
-403.021772
 30
0.0
 11
-676.360463
 21
-396.774163
 31
0.0
  0
LINE
  5
5FD
100
AcDbEntity
  8
0
370
    -3
390
0
  6
Continuous
100
AcDbLine
 10
-663.360463
 20
-411.614226
 30
0.0
 11
-676.360463
 21
-404.904441
 31
0.0
  0
LINE
  5
5FE
100
AcDbEntity
  8
0
370
    -3
390
0
  6
Continuous
100
AcDbLine
 10
-663.360463
 20
-412.649452
 30
0.0
 11
-676.360463
 21
-405.939667
 31
0.0
  0
LINE
  5
5FF
100
AcDbEntity
  8
0
370
    -3
390
0
  6
Continuous
100
AcDbLine
 10
-663.360463
 20
-419.38227
 30
0.0
 11
-676.360463
 21
-412.310335
 31
0.0
  0
LINE
  5
600
100
AcDbEntity
  8
0
370
    -3
390
0
  6
Continuous
100
AcDbLine
 10
-663.360463
 20
-420.159478
 30
0.0
 11
-676.360463
 21
-413.087543
 31
0.0
  0
LINE
  5
601
100
AcDbEntity
  8
0
370
    -3
390
0
  6
Continuous
100
AcDbLine
 10
-596.360463
 20
-121.037302
 30
0.0
 11
-622.859484
 21
-135.452639
 31
0.0
  0
LINE
  5
602
100
AcDbEntity
  8
0
370
    -3
390
0
  6
Continuous
100
AcDbLine
 10
-596.360463
 20
-121.81451
 30
0.0
 11
-621.43078
 21
-135.452639
 31
0.0
  0
LINE
  5
603
100
AcDbEntity
  8
0
370
    -3
390
0
  6
Continuous
100
AcDbLine
 10
-596.360463
 20
-128.547328
 30
0.0
 11
-609.739286
 21
-135.452639
 31
0.0
  0
LINE
  5
604
100
AcDbEntity
  8
0
370
    -3
390
0
  6
Continuous
100
AcDbLine
 10
-596.360463
 20
-129.582554
 30
0.0
 11
-607.733567
 21
-135.452639
 31
0.0
  0
LINE
  5
605
100
AcDbEntity
  8
0
370
    -3
390
0
  6
Continuous
100
AcDbLine
 10
-588.89764
 20
-138.175008
 30
0.0
 11
-460.360463
 21
-138.175008
 31
0.0
  0
LINE
  5
606
100
AcDbEntity
  8
0
370
    -3
390
0
  6
Continuous
100
AcDbLine
 10
-587.86334
 20
-139.45282
 30
0.0
 11
-460.360463
 21
-139.45282
 31
0.0
  0
LINE
  5
607
100
AcDbEntity
  8
0
370
    -3
390
0
  6
Continuous
100
AcDbLine
 10
-585.275806
 20
-150.67666
 30
0.0
 11
-460.360463
 21
-150.67666
 31
0.0
  0
LINE
  5
608
100
AcDbEntity
  8
0
370
    -3
390
0
  6
Continuous
100
AcDbLine
 10
-585.061703
 20
-152.193156
 30
0.0
 11
-460.360463
 21
-152.193156
 31
0.0
  0
LINE
  5
609
100
AcDbEntity
  8
0
370
    -3
390
0
  6
Continuous
100
AcDbLine
 10
-461.360463
 20
-165.230204
 30
0.0
 11
-393.360463
 21
-165.230204
 31
0.0
  0
LINE
  5
60A
100
AcDbEntity
  8
0
370
    -3
390
0
  6
Continuous
100
AcDbLine
 10
-461.360463
 20
-166.959436
 30
0.0
 11
-393.360463
 21
-166.959436
 31
0.0
  0
LINE
  5
60B
100
AcDbEntity
  8
0
370
    -3
390
0
  6
Continuous
100
AcDbLine
 10
-461.360463
 20
-198.222082
 30
0.0
 11
-361.360463
 21
-198.222082
 31
0.0
  0
LINE
  5
60C
100
AcDbEntity
  8
0
370
    -3
390
0
  6
Continuous
100
AcDbLine
 10
-461.360463
 20
-278.08374
 30
0.0
 11
-361.360463
 21
-278.08374
 31
0.0
  0
LINE
  5
60D
100
AcDbEntity
  8
0
370
    -3
390
0
  6
Continuous
100
AcDbLine
 10
-611.035555
 20
-295.221436
 30
0.0
 11
-361.360463
 21
-295.221436
 31
0.0
  0
LINE
  5
60E
100
AcDbEntity
  8
0
370
    -3
390
0
  6
CENTER
100
AcDbLine
 10
-655.360463
 20
-131.312908
 30
0.0
 11
-655.360463
 21
-300.217813
 31
0.0
  0
LINE
  5
60F
100
AcDbEntity
  8
0
370
    -3
390
0
  6
Continuous
100
AcDbLine
 10
-461.360463
 20
-279.816976
 30
0.0
 11
-393.360463
 21
-279.816976
 31
0.0
  0
LINE
  5
610
100
AcDbEntity
  8
0
370
    -3
390
0
  6
Continuous
100
AcDbLine
 10
-461.360463
 20
-282.112052
 30
0.0
 11
-393.360463
 21
-282.112052
 31
0.0
  0
LINE
  5
611
100
AcDbEntity
  8
0
370
    -3
390
0
  6
Continuous
100
AcDbLine
 10
-347.214017
 20
-141.549694
 30
0.0
 11
-346.360463
 21
-140.69614
 31
0.0
  0
LINE
  5
612
100
AcDbEntity
  8
0
370
    -3
390
0
  6
Continuous
100
AcDbLine
 10
-361.360463
 20
-402.59839
 30
0.0
 11
-346.360463
 21
-402.59839
 31
0.0
  0
LINE
  5
613
100
AcDbEntity
  8
0
370
    -3
390
0
  6
Continuous
100
AcDbLine
 10
-346.360463
 20
-341.148634
 30
0.0
 11
-372.860463
 21
-341.148634
 31
0.0
  0
LINE
  5
614
100
AcDbEntity
  8
0
370
    -3
390
0
  6
Continuous
100
AcDbLine
 10
-346.360463
 20
-358.37195
 30
0.0
 11
-372.860463
 21
-358.37195
 31
0.0
  0
ARC
  5
615
100
AcDbEntity
  8
0
370
    -3
390
0
  6
Continuous
100
AcDbCircle
 10
-372.860463
 20
-412.333965
 30
0.0
 40
1.0
100
AcDbArc
 50
180.0
 51
270.0
  0
LINE
  5
616
100
AcDbEntity
  8
0
370
    -3
390
0
  6
Continuous
100
AcDbLine
 10
-348.553826
 20
-413.333965
 30
0.0
 11
-372.860463
 21
-413.333965
 31
0.0
  0
LINE
  5
617
100
AcDbEntity
  8
0
370
    -3
390
0
  6
Continuous
100
AcDbLine
 10
-373.860463
 20
-412.333965
 30
0.0
 11
-373.860463
 21
-409.551575
 31
0.0
  0
ARC
  5
618
100
AcDbEntity
  8
0
370
    -3
390
0
  6
Continuous
100
AcDbCircle
 10
-778.360463
 20
-419.963543
 30
0.0
 40
3.0
100
AcDbArc
 50
0.0
 51
35.0
  0
LINE
  5
619
100
AcDbEntity
  8
0
370
    -3
390
0
  6
Continuous
100
AcDbLine
 10
-796.763412
 20
-388.451067
 30
0.0
 11
-775.903007
 21
-418.242814
 31
0.0
  0
ARC
  5
61A
100
AcDbEntity
  8
0
370
    -3
390
0
  6
Continuous
100
AcDbCircle
 10
-772.360463
 20
-421.09839
 30
0.0
 40
3.0
100
AcDbArc
 50
180.0
 51
270.0
  0
LINE
  5
61B
100
AcDbEntity
  8
0
370
    -3
390
0
  6
Continuous
100
AcDbLine
 10
-775.360463
 20
-421.09839
 30
0.0
 11
-775.360463
 21
-270.59839
 31
0.0
  0
LINE
  5
61C
100
AcDbEntity
  8
0
370
    -3
390
0
  6
Continuous
100
AcDbLine
 10
-772.360463
 20
-424.09839
 30
0.0
 11
-737.860463
 21
-424.09839
 31
0.0
  0
ARC
  5
61D
100
AcDbEntity
  8
0
370
    -3
390
0
  6
Continuous
100
AcDbCircle
 10
-733.860463
 20
-423.09839
 30
0.0
 40
3.0
100
AcDbArc
 50
216.869898
 51
270.0
  0
ARC
  5
61E
100
AcDbEntity
  8
0
370
    -3
390
0
  6
Continuous
100
AcDbCircle
 10
-737.860463
 20
-426.09839
 30
0.0
 40
2.0
100
AcDbArc
 50
36.869898
 51
90.0
  0
LINE
  5
61F
100
AcDbEntity
  8
0
370
    -3
390
0
  6
Continuous
100
AcDbLine
 10
-676.360463
 20
-426.09839
 30
0.0
 11
-733.860463
 21
-426.09839
 31
0.0
  0
LINE
  5
620
100
AcDbEntity
  8
0
370
    -3
390
0
  6
Continuous
100
AcDbLine
 10
-735.360463
 20
-424.89839
 30
0.0
 11
-735.360463
 21
-116.29839
 31
0.0
  0
LINE
  5
621
100
AcDbEntity
  8
0
370
    -3
390
0
  6
Continuous
100
AcDbLine
 10
-736.860463
 20
-424.09839
 30
0.0
 11
-736.860463
 21
-117.09839
 31
0.0
  0
ARC
  5
622
100
AcDbEntity
  8
0
370
    -3
390
0
  6
Continuous
100
AcDbCircle
 10
-743.664859
 20
-356.140047
 30
0.0
 40
12.304395
100
AcDbArc
 50
334.478825
 51
0.0
  0
ARC
  5
623
100
AcDbEntity
  8
0
370
    -3
390
0
  6
Continuous
100
AcDbCircle
 10
-757.450438
 20
-347.479793
 30
0.0
 40
26.089975
100
AcDbArc
 50
0.0
 51
17.449275
  0
ARC
  5
624
100
AcDbEntity
  8
0
370
    -3
390
0
  6
Continuous
100
AcDbCircle
 10
-729.377802
 20
-352.957239
 30
0.0
 40
9.061615
100
AcDbArc
 50
249.433801
 51
270.0
  0
ARC
  5
625
100
AcDbEntity
  8
0
370
    -3
390
0
  6
Continuous
100
AcDbCircle
 10
-729.377802
 20
-337.234244
 30
0.0
 40
4.0
100
AcDbArc
 50
217.267959
 51
270.0
  0
ELLIPSE
  5
626
100
AcDbEntity
  8
0
370
    -3
390
0
  6
Continuous
100
AcDbEllipse
 10
-724.360463
 20
-347.479793
 30
0.0
 11
7.0
 21
0.0
 31
0.0
210
0.0
220
0.0
230
1.0
 40
0.892221
 41
1.5251991385400627
 42
3.1415926535897931
  0
ELLIPSE
  5
627
100
AcDbEntity
  8
0
370
    -3
390
0
  6
Continuous
100
AcDbEllipse
 10
-724.360463
 20
-356.140047
 30
0.0
 11
7.0
 21
0.0
 31
0.0
210
0.0
220
0.0
230
1.0
 40
0.83983
 41
3.1415926535897931
 42
4.7123889803846897
  0
LINE
  5
628
100
AcDbEntity
  8
0
370
    -3
390
0
  6
Continuous
100
AcDbLine
 10
-732.561051
 20
-361.44133
 30
0.0
 11
-735.360463
 21
-360.094715
 31
0.0
  0
LINE
  5
629
100
AcDbEntity
  8
0
370
    -3
390
0
  6
Continuous
100
AcDbLine
 10
-732.561051
 20
-339.656418
 30
0.0
 11
-735.360463
 21
-335.977398
 31
0.0
  0
LINE
  5
62A
100
AcDbEntity
  8
0
370
    -3
390
0
  6
Continuous
100
AcDbLine
 10
-676.360463
 20
-362.018854
 30
0.0
 11
-729.377802
 21
-362.018854
 31
0.0
  0
LINE
  5
62B
100
AcDbEntity
  8
0
370
    -3
390
0
  6
Continuous
100
AcDbLine
 10
-676.360463
 20
-335.977398
 30
0.0
 11
-735.360463
 21
-335.977398
 31
0.0
  0
LINE
  5
62C
100
AcDbEntity
  8
0
370
    -3
390
0
  6
Continuous
100
AcDbLine
 10
-731.360463
 20
-347.479793
 30
0.0
 11
-731.360463
 21
-356.140047
 31
0.0
  0
LINE
  5
62D
100
AcDbEntity
  8
0
370
    -3
390
0
  6
Continuous
100
AcDbLine
 10
-676.360463
 20
-341.234244
 30
0.0
 11
-729.377802
 21
-341.234244
 31
0.0
  0
ELLIPSE
  5
62E
100
AcDbEntity
  8
0
370
    -3
390
0
  6
Continuous
100
AcDbEllipse
 10
-717.360463
 20
-353.84839
 30
0.0
 11
5.0
 21
0.0
 31
0.0
210
0.0
220
0.0
230
1.0
 40
0.866
 41
0.0
 42
6.2831853071795862
  0
LINE
  5
62F
100
AcDbEntity
  8
0
370
    -3
390
0
  6
Continuous
100
AcDbLine
 10
-712.360463
 20
-351.348389
 30
0.0
 11
-717.360463
 21
-348.848388
 31
0.0
  0
LINE
  5
630
100
AcDbEntity
  8
0
370
    -3
390
0
  6
Continuous
100
AcDbLine
 10
-712.360463
 20
-356.348392
 30
0.0
 11
-712.360463
 21
-351.348389
 31
0.0
  0
LINE
  5
631
100
AcDbEntity
  8
0
370
    -3
390
0
  6
Continuous
100
AcDbLine
 10
-717.360463
 20
-358.848393
 30
0.0
 11
-712.360463
 21
-356.348392
 31
0.0
  0
LINE
  5
632
100
AcDbEntity
  8
0
370
    -3
390
0
  6
Continuous
100
AcDbLine
 10
-722.360463
 20
-356.348392
 30
0.0
 11
-717.360463
 21
-358.848393
 31
0.0
  0
LINE
  5
633
100
AcDbEntity
  8
0
370
    -3
390
0
  6
Continuous
100
AcDbLine
 10
-722.360463
 20
-351.348389
 30
0.0
 11
-722.360463
 21
-356.348392
 31
0.0
  0
LINE
  5
634
100
AcDbEntity
  8
0
370
    -3
390
0
  6
Continuous
100
AcDbLine
 10
-717.360463
 20
-348.848388
 30
0.0
 11
-722.360463
 21
-351.348389
 31
0.0
  0
LINE
  5
635
100
AcDbEntity
  8
0
370
    -3
390
0
  6
Continuous
100
AcDbLine
 10
-712.360463
 20
-349.348389
 30
0.0
 11
-717.360463
 21
-346.848388
 31
0.0
  0
LINE
  5
636
100
AcDbEntity
  8
0
370
    -3
390
0
  6
Continuous
100
AcDbLine
 10
-712.360463
 20
-354.348392
 30
0.0
 11
-712.360463
 21
-349.348389
 31
0.0
  0
LINE
  5
637
100
AcDbEntity
  8
0
370
    -3
390
0
  6
Continuous
100
AcDbLine
 10
-722.360463
 20
-349.348389
 30
0.0
 11
-722.360463
 21
-354.348392
 31
0.0
  0
LINE
  5
638
100
AcDbEntity
  8
0
370
    -3
390
0
  6
Continuous
100
AcDbLine
 10
-717.360463
 20
-346.848388
 30
0.0
 11
-722.360463
 21
-349.348389
 31
0.0
  0
LINE
  5
639
100
AcDbEntity
  8
0
370
    -3
390
0
  6
CENTER
100
AcDbLine
 10
-710.086961
 20
-353.84839
 30
0.0
 11
-724.633966
 21
-353.84839
 31
0.0
  0
LINE
  5
63A
100
AcDbEntity
  8
0
370
    -3
390
0
  6
CENTER
100
AcDbLine
 10
-717.360463
 20
-345.254967
 30
0.0
 11
-717.360463
 21
-362.018854
 31
0.0
  0
LINE
  5
63B
100
AcDbEntity
  8
0
370
    -3
390
0
  6
Continuous
100
AcDbLine
 10
-732.504318
 20
-138.307004
 30
0.0
 11
-735.360463
 21
-143.434489
 31
0.0
  0
ARC
  5
63C
100
AcDbEntity
  8
0
370
    -3
390
0
  6
Continuous
100
AcDbCircle
 10
-729.009874
 20
-140.253503
 30
0.0
 40
4.0
100
AcDbArc
 50
90.0
 51
150.88103
  0
LINE
  5
63D
100
AcDbEntity
  8
0
370
    -3
390
0
  6
Continuous
100
AcDbLine
 10
-729.009874
 20
-136.253503
 30
0.0
 11
-719.085507
 21
-136.253503
 31
0.0
  0
LINE
  5
63E
100
AcDbEntity
  8
0
370
    -3
390
0
  6
Continuous
100
AcDbLine
 10
-735.360463
 20
-143.434489
 30
0.0
 11
-724.328178
 21
-143.434489
 31
0.0
  0
ARC
  5
63F
100
AcDbEntity
  8
0
370
    -3
390
0
  6
Continuous
100
AcDbCircle
 10
-746.999825
 20
-132.435895
 30
0.0
 40
15.639362
100
AcDbArc
 50
337.950598
 51
0.0
  0
ELLIPSE
  5
640
100
AcDbEntity
  8
0
370
    -3
390
0
  6
Continuous
100
AcDbEllipse
 10
-724.360463
 20
-132.435895
 30
0.0
 11
7.0
 21
0.0
 31
0.0
210
0.0
220
0.0
230
1.0
 40
0.545372
 41
3.1415926535897931
 42
4.7123889803846897
  0
ARC
  5
641
100
AcDbEntity
  8
0
370
    -3
390
0
  6
Continuous
100
AcDbCircle
 10
-733.032996
 20
-127.435895
 30
0.0
 40
1.672533
100
AcDbArc
 50
0.0
 51
73.610004
  0
ELLIPSE
  5
642
100
AcDbEntity
  8
0
370
    -3
390
0
  6
Continuous
100
AcDbEllipse
 10
-724.360463
 20
-127.435895
 30
0.0
 11
7.0
 21
0.0
 31
0.0
210
0.0
220
0.0
230
1.0
 40
0.454628
 41
1.5692108206479691
 42
3.1415926535897931
  0
LINE
  5
643
100
AcDbEntity
  8
0
370
    -3
390
0
  6
Continuous
100
AcDbLine
 10
-732.561051
 20
-125.831329
 30
0.0
 11
-735.360463
 21
-129.510349
 31
0.0
  0
LINE
  5
644
100
AcDbEntity
  8
0
370
    -3
390
0
  6
Continuous
100
AcDbLine
 10
-731.360463
 20
-132.435895
 30
0.0
 11
-731.360463
 21
-127.435895
 31
0.0
  0
LINE
  5
645
100
AcDbEntity
  8
0
370
    -3
390
0
  6
Continuous
100
AcDbLine
 10
-717.360463
 20
-132.756014
 30
0.0
 11
-712.360463
 21
-131.312638
 31
0.0
  0
LINE
  5
646
100
AcDbEntity
  8
0
370
    -3
390
0
  6
Continuous
100
AcDbLine
 10
-722.360463
 20
-131.312638
 30
0.0
 11
-717.360463
 21
-132.756014
 31
0.0
  0
LINE
  5
647
100
AcDbEntity
  8
0
370
    -3
390
0
  6
Continuous
100
AcDbLine
 10
-714.814025
 20
-124.253503
 30
0.0
 11
-676.360463
 21
-124.253503
 31
0.0
  0
ARC
  5
648
100
AcDbEntity
  8
0
370
    -3
390
0
  6
Continuous
100
AcDbCircle
 10
-729.377802
 20
-128.253503
 30
0.0
 40
4.0
100
AcDbArc
 50
90.0
 51
142.732041
  0
LINE
  5
649
100
AcDbEntity
  8
0
370
    -3
390
0
  6
Continuous
100
AcDbLine
 10
-729.377802
 20
-124.253503
 30
0.0
 11
-719.906902
 21
-124.253503
 31
0.0
  0
ELLIPSE
  5
64A
100
AcDbEntity
  8
0
370
    -3
390
0
  6
Continuous
100
AcDbEllipse
 10
-717.360463
 20
-126.405161
 30
0.0
 11
5.0
 21
0.0
 31
0.0
210
0.0
220
0.0
230
1.0
 40
0.501013
 41
0.0
 42
6.2831853071795862
  0
LINE
  5
64B
100
AcDbEntity
  8
0
370
    -3
390
0
  6
Continuous
100
AcDbLine
 10
-712.360463
 20
-124.961785
 30
0.0
 11
-717.360463
 21
-123.518409
 31
0.0
  0
LINE
  5
64C
100
AcDbEntity
  8
0
370
    -3
390
0
  6
Continuous
100
AcDbLine
 10
-712.360463
 20
-127.848536
 30
0.0
 11
-712.360463
 21
-124.961785
 31
0.0
  0
LINE
  5
64D
100
AcDbEntity
  8
0
370
    -3
390
0
  6
Continuous
100
AcDbLine
 10
-717.360463
 20
-129.291912
 30
0.0
 11
-712.360463
 21
-127.848536
 31
0.0
  0
LINE
  5
64E
100
AcDbEntity
  8
0
370
    -3
390
0
  6
Continuous
100
AcDbLine
 10
-722.360463
 20
-127.848536
 30
0.0
 11
-717.360463
 21
-129.291912
 31
0.0
  0
LINE
  5
64F
100
AcDbEntity
  8
0
370
    -3
390
0
  6
Continuous
100
AcDbLine
 10
-722.360463
 20
-124.961785
 30
0.0
 11
-722.360463
 21
-127.848536
 31
0.0
  0
LINE
  5
650
100
AcDbEntity
  8
0
370
    -3
390
0
  6
Continuous
100
AcDbLine
 10
-717.360463
 20
-123.518409
 30
0.0
 11
-722.360463
 21
-124.961785
 31
0.0
  0
LINE
  5
651
100
AcDbEntity
  8
0
370
    -3
390
0
  6
Continuous
100
AcDbLine
 10
-712.360463
 20
-131.312638
 30
0.0
 11
-712.360463
 21
-127.848536
 31
0.0
  0
LINE
  5
652
100
AcDbEntity
  8
0
370
    -3
390
0
  6
Continuous
100
AcDbLine
 10
-722.360463
 20
-127.848536
 30
0.0
 11
-722.360463
 21
-131.312638
 31
0.0
  0
LINE
  5
653
100
AcDbEntity
  8
0
370
    -3
390
0
  6
CENTER
100
AcDbLine
 10
-717.360463
 20
-121.059371
 30
0.0
 11
-717.360463
 21
-135.606377
 31
0.0
  0
LINE
  5
654
100
AcDbEntity
  8
0
370
    -3
390
0
  6
CENTER
100
AcDbLine
 10
-724.633966
 20
-126.405161
 30
0.0
 11
-710.086961
 21
-126.405161
 31
0.0
  0
LINE
  5
655
100
AcDbEntity
  8
0
370
    -3
390
0
  6
Continuous
100
AcDbLine
 10
-676.360463
 20
-117.09839
 30
0.0
 11
-676.360463
 21
-135.452639
 31
0.0
  0
ARC
  5
656
100
AcDbEntity
  8
0
370
    -3
390
0
  6
Continuous
100
AcDbCircle
 10
-733.860463
 20
-118.09839
 30
0.0
 40
3.0
100
AcDbArc
 50
90.0
 51
143.130102
  0
ARC
  5
657
100
AcDbEntity
  8
0
370
    -3
390
0
  6
Continuous
100
AcDbCircle
 10
-737.860463
 20
-115.09839
 30
0.0
 40
2.0
100
AcDbArc
 50
270.0
 51
323.130102
  0
LINE
  5
658
100
AcDbEntity
  8
0
370
    -3
390
0
  6
Continuous
100
AcDbLine
 10
-676.360463
 20
-115.09839
 30
0.0
 11
-733.860463
 21
-115.09839
 31
0.0
  0
LINE
  5
659
100
AcDbEntity
  8
0
370
    -3
390
0
  6
Continuous
100
AcDbLine
 10
-772.360463
 20
-117.09839
 30
0.0
 11
-737.860463
 21
-117.09839
 31
0.0
  0
LINE
  5
65A
100
AcDbEntity
  8
0
370
    -3
390
0
  6
Continuous
100
AcDbLine
 10
-676.360463
 20
-135.452639
 30
0.0
 11
-676.360463
 21
-115.09839
 31
0.0
  0
ARC
  5
65B
100
AcDbEntity
  8
0
370
    -3
390
0
  6
Continuous
100
AcDbCircle
 10
-798.360463
 20
-384.59839
 30
0.0
 40
3.0
100
AcDbArc
 50
180.0
 51
270.0
  0
LINE
  5
65C
100
AcDbEntity
  8
0
370
    -3
390
0
  6
Continuous
100
AcDbLine
 10
-801.360463
 20
-384.59839
 30
0.0
 11
-801.360463
 21
-270.59839
 31
0.0
  0
LINE
  5
65D
100
AcDbEntity
  8
0
370
    -3
390
0
  6
Continuous
100
AcDbLine
 10
-801.360463
 20
-156.59839
 30
0.0
 11
-801.360463
 21
-270.59839
 31
0.0
  0
ARC
  5
65E
100
AcDbEntity
  8
0
370
    -3
390
0
  6
Continuous
100
AcDbCircle
 10
-798.360463
 20
-156.59839
 30
0.0
 40
3.0
100
AcDbArc
 50
90.0
 51
180.0
  0
ARC
  5
65F
100
AcDbEntity
  8
0
370
    -3
390
0
  6
Continuous
100
AcDbCircle
 10
-778.360463
 20
-121.233238
 30
0.0
 40
3.0
100
AcDbArc
 50
325.0
 51
0.0
  0
ARC
  5
660
100
AcDbEntity
  8
0
370
    -3
390
0
  6
Continuous
100
AcDbCircle
 10
-772.360463
 20
-120.09839
 30
0.0
 40
3.0
100
AcDbArc
 50
90.0
 51
180.0
  0
ARC
  5
661
100
AcDbEntity
  8
0
370
    -3
390
0
  6
Continuous
100
AcDbCircle
 10
-798.401597
 20
-151.59839
 30
0.0
 40
2.0
100
AcDbArc
 50
270.0
 51
325.0
  0
LINE
  5
662
100
AcDbEntity
  8
0
370
    -3
390
0
  6
Continuous
100
AcDbLine
 10
-796.763293
 20
-152.745543
 30
0.0
 11
-775.903007
 21
-122.953967
 31
0.0
  0
LINE
  5
663
100
AcDbEntity
  8
0
370
    -3
390
0
  6
CENTER
100
AcDbLine
 10
-498.360463
 20
-88.79839
 30
0.0
 11
-558.360463
 21
-88.79839
 31
0.0
  0
CIRCLE
  5
664
100
AcDbEntity
  8
0
370
    -3
390
0
  6
Continuous
100
AcDbCircle
 10
-528.360463
 20
-88.79839
 30
0.0
 40
15.0
  0
ARC
  5
665
100
AcDbEntity
  8
0
370
    -3
390
0
  6
Continuous
100
AcDbCircle
 10
-528.360463
 20
-88.79839
 30
0.0
 40
25.0
100
AcDbArc
 50
306.476004
 51
233.523996
  0
ARC
  5
666
100
AcDbEntity
  8
0
370
    -3
390
0
  6
Continuous
100
AcDbCircle
 10
-509.931395
 20
-113.725674
 30
0.0
 40
6.0
100
AcDbArc
 50
126.476004
 51
185.0
  0
ARC
  5
667
100
AcDbEntity
  8
0
370
    -3
390
0
  6
Continuous
100
AcDbCircle
 10
-546.789531
 20
-113.725674
 30
0.0
 40
6.0
100
AcDbArc
 50
355.0
 51
53.523996
  0
ARC
  5
668
100
AcDbEntity
  8
0
370
    -3
390
0
  6
Continuous
100
AcDbCircle
 10
-517.930723
 20
-107.19839
 30
0.0
 40
1.4
100
AcDbArc
 50
5.0
 51
90.0
  0
ARC
  5
669
100
AcDbEntity
  8
0
370
    -3
390
0
  6
Continuous
100
AcDbCircle
 10
-538.790199
 20
-107.19839
 30
0.0
 40
1.4
100
AcDbArc
 50
90.0
 51
175.0
  0
LINE
  5
66A
100
AcDbEntity
  8
0
370
    -3
390
0
  6
Continuous
100
AcDbLine
 10
-517.670231
 20
-105.822838
 30
0.0
 11
-528.360463
 21
-103.79839
 31
0.0
  0
LINE
  5
66B
100
AcDbEntity
  8
0
370
    -3
390
0
  6
Continuous
100
AcDbLine
 10
-539.050695
 20
-105.822838
 30
0.0
 11
-528.360463
 21
-103.79839
 31
0.0
  0
LINE
  5
66C
100
AcDbEntity
  8
0
370
    -3
390
0
  6
Continuous
100
AcDbLine
 10
-540.860463
 20
-114.79839
 30
0.0
 11
-515.860463
 21
-114.79839
 31
0.0
  0
LINE
  5
66D
100
AcDbEntity
  8
0
370
    -3
390
0
  6
Continuous
100
AcDbLine
 10
-538.790199
 20
-105.79839
 30
0.0
 11
-517.930723
 21
-105.79839
 31
0.0
  0
LINE
  5
66E
100
AcDbEntity
  8
0
370
    -3
390
0
  6
Continuous
100
AcDbLine
 10
-516.536051
 20
-107.076374
 30
0.0
 11
-515.860463
 21
-114.79839
 31
0.0
  0
LINE
  5
66F
100
AcDbEntity
  8
0
370
    -3
390
0
  6
Continuous
100
AcDbLine
 10
-540.184871
 20
-107.076374
 30
0.0
 11
-540.860463
 21
-114.79839
 31
0.0
  0
LINE
  5
670
100
AcDbEntity
  8
0
370
    -3
390
0
  6
Continuous
100
AcDbLine
 10
-510.960463
 20
-114.79839
 30
0.0
 11
-545.760463
 21
-114.79839
 31
0.0
  0
ARC
  5
671
100
AcDbEntity
  8
0
370
    -3
390
0
  6
Continuous
100
AcDbCircle
 10
-545.760463
 20
-115.39839
 30
0.0
 40
0.6
100
AcDbArc
 50
90.0
 51
180.0
  0
ARC
  5
672
100
AcDbEntity
  8
0
370
    -3
390
0
  6
Continuous
100
AcDbCircle
 10
-510.960463
 20
-115.39839
 30
0.0
 40
0.6
100
AcDbArc
 50
0.0
 51
90.0
  0
POINT
  5
673
100
AcDbEntity
  8
0
370
    -3
390
0
  6
Continuous
100
AcDbPoint
 10
-539.033276
 20
-65.497068
 30
0.0
  0
ARC
  5
674
100
AcDbEntity
  8
0
370
    -3
390
0
  6
Continuous
100
AcDbCircle
 10
-798.401716
 20
-389.59822
 30
0.0
 40
2.0
100
AcDbArc
 50
35.0
 51
89.527267
  0
LINE
  5
675
100
AcDbEntity
  8
0
370
    -3
390
0
  6
Continuous
100
AcDbLine
 10
-775.360463
 20
-120.09839
 30
0.0
 11
-775.360463
 21
-270.59839
 31
0.0
  0
LINE
  5
676
100
AcDbEntity
  8
0
370
    -3
390
0
  6
Continuous
100
AcDbLine
 10
-797.360463
 20
-153.306032
 30
0.0
 11
-797.360463
 21
-270.59839
 31
0.0
  0
LINE
  5
677
100
AcDbEntity
  8
0
370
    -3
390
0
  6
Continuous
100
AcDbLine
 10
-797.360463
 20
-387.890749
 30
0.0
 11
-797.360463
 21
-270.59839
 31
0.0
  0
LINE
  5
678
100
AcDbEntity
  8
0
370
    -3
390
0
  6
Continuous
100
AcDbLine
 10
-510.360463
 20
-121.037302
 30
0.0
 11
-510.360463
 21
-115.39839
 31
0.0
  0
LINE
  5
679
100
AcDbEntity
  8
0
370
    -3
390
0
  6
Continuous
100
AcDbLine
 10
-546.360463
 20
-121.037302
 30
0.0
 11
-546.360463
 21
-115.39839
 31
0.0
  0
LINE
  5
67A
100
AcDbEntity
  8
0
370
    -3
390
0
  6
Continuous
100
AcDbLine
 10
-676.360463
 20
-426.09839
 30
0.0
 11
-676.360463
 21
-327.646862
 31
0.0
  0
LINE
  5
67B
100
AcDbEntity
  8
0
370
    -3
390
0
  6
Continuous
100
AcDbLine
 10
-346.360463
 20
-410.727887
 30
0.0
 11
-346.360463
 21
-270.59839
 31
0.0
  0
LINE
  5
67C
100
AcDbEntity
  8
0
370
    -3
390
0
  6
Continuous
100
AcDbLine
 10
-346.360463
 20
-270.59839
 30
0.0
 11
-346.360463
 21
-126.165405
 31
0.0
  0
ARC
  5
67D
100
AcDbEntity
  8
0
370
    -3
390
0
  6
Continuous
100
AcDbCircle
 10
-232.360463
 20
-357.663268
 30
0.0
 40
3.0
100
AcDbArc
 50
180.0
 51
270.0
  0
ARC
  5
67E
100
AcDbEntity
  8
0
370
    -3
390
0
  6
Continuous
100
AcDbCircle
 10
-232.360463
 20
-183.533513
 30
0.0
 40
3.0
100
AcDbArc
 50
90.0
 51
180.0
  0
ARC
  5
67F
100
AcDbEntity
  8
0
370
    -3
390
0
  6
Continuous
100
AcDbCircle
 10
-232.360463
 20
-129.556284
 30
0.0
 40
3.0
100
AcDbArc
 50
90.0
 51
180.0
  0
ARC
  5
680
100
AcDbEntity
  8
0
370
    -3
390
0
  6
Continuous
100
AcDbCircle
 10
-245.360463
 20
-135.59839
 30
0.0
 40
10.0
100
AcDbArc
 50
270.0
 51
334.112946
  0
INSERT
  5
691
100
AcDbEntity
  8
0
390
0
100
AcDbBlockReference
  2
ZU_SYM_K__CAD_SYM_POO_SYM_B21_0000820
 10
-235.360463
 20
-270.59839
 30
0.0
  0
LINE
  5
692
100
AcDbEntity
  8
0
370
    -3
390
0
  6
Continuous
100
AcDbLine
 10
-216.360463
 20
-349.933177
 30
0.0
 11
-235.360463
 21
-349.933177
 31
0.0
  0
LINE
  5
693
100
AcDbEntity
  8
0
370
    -3
390
0
  6
Continuous
100
AcDbLine
 10
-216.360463
 20
-360.663268
 30
0.0
 11
-232.360463
 21
-360.663268
 31
0.0
  0
LINE
  5
694
100
AcDbEntity
  8
0
370
    -3
390
0
  6
Continuous
100
AcDbLine
 10
-235.360463
 20
-270.59839
 30
0.0
 11
-235.360463
 21
-372.215288
 31
0.0
  0
ARC
  5
695
100
AcDbEntity
  8
0
370
    -3
390
0
  6
Continuous
100
AcDbCircle
 10
-216.360463
 20
-303.59839
 30
0.0
 40
3.0
100
AcDbArc
 50
90.0
 51
180.0
  0
LINE
  5
696
100
AcDbEntity
  8
0
370
    -3
390
0
  6
Continuous
100
AcDbLine
 10
-219.360463
 20
-303.59839
 30
0.0
 11
-219.360463
 21
-314.003599
 31
0.0
  0
LINE
  5
697
100
AcDbEntity
  8
0
370
    -3
390
0
  6
Continuous
100
AcDbLine
 10
-235.360463
 20
-314.003599
 30
0.0
 11
-219.360463
 21
-314.003599
 31
0.0
  0
LINE
  5
698
100
AcDbEntity
  8
0
370
    -3
390
0
  6
Continuous
100
AcDbLine
 10
-235.360463
 20
-314.003599
 30
0.0
 11
-235.360463
 21
-251.59839
 31
0.0
  0
ARC
  5
699
100
AcDbEntity
  8
0
370
    -3
390
0
  6
Continuous
100
AcDbCircle
 10
-232.360463
 20
-113.25965
 30
0.0
 40
3.0
100
AcDbArc
 50
90.0
 51
180.0
  0
LINE
  5
69A
100
AcDbEntity
  8
0
370
    -3
390
0
  6
Continuous
100
AcDbLine
 10
-216.360463
 20
-270.077519
 30
0.0
 11
-235.360463
 21
-270.077519
 31
0.0
  0
LINE
  5
69B
100
AcDbEntity
  8
0
370
    -3
390
0
  6
Continuous
100
AcDbLine
 10
-216.360463
 20
-287.998321
 30
0.0
 11
-235.360463
 21
-287.998321
 31
0.0
  0
LINE
  5
69C
100
AcDbEntity
  8
0
370
    -3
390
0
  6
Continuous
100
AcDbLine
 10
-235.360463
 20
-300.59839
 30
0.0
 11
-216.360463
 21
-300.59839
 31
0.0
  0
LINE
  5
69D
100
AcDbEntity
  8
0
370
    -3
390
0
  6
Continuous
100
AcDbLine
 10
-216.360463
 20
-267.592237
 30
0.0
 11
-235.360463
 21
-267.592237
 31
0.0
  0
LINE
  5
69E
100
AcDbEntity
  8
0
370
    -3
390
0
  6
Continuous
100
AcDbLine
 10
-216.360463
 20
-251.59839
 30
0.0
 11
-235.360463
 21
-251.59839
 31
0.0
  0
LINE
  5
69F
100
AcDbEntity
  8
0
370
    -3
390
0
  6
Continuous
100
AcDbLine
 10
-216.360463
 20
-191.263604
 30
0.0
 11
-235.360463
 21
-191.263604
 31
0.0
  0
LINE
  5
6A0
100
AcDbEntity
  8
0
370
    -3
390
0
  6
Continuous
100
AcDbLine
 10
-216.360463
 20
-180.533513
 30
0.0
 11
-232.360463
 21
-180.533513
 31
0.0
  0
LINE
  5
6A1
100
AcDbEntity
  8
0
370
    -3
390
0
  6
Continuous
100
AcDbLine
 10
-235.360463
 20
-135.128607
 30
0.0
 11
-216.360463
 21
-135.128607
 31
0.0
  0
LINE
  5
6A2
100
AcDbEntity
  8
0
370
    -3
390
0
  6
Continuous
100
AcDbLine
 10
-216.360463
 20
-126.556284
 30
0.0
 11
-232.360463
 21
-126.556284
 31
0.0
  0
LINE
  5
6A3
100
AcDbEntity
  8
0
370
    -3
390
0
  6
Continuous
100
AcDbLine
 10
-216.360463
 20
-110.25965
 30
0.0
 11
-232.360463
 21
-110.25965
 31
0.0
  0
LINE
  5
6A4
100
AcDbEntity
  8
0
370
    -3
390
0
  6
CENTER
100
AcDbLine
 10
-358.692425
 20
-146.756758
 30
0.0
 11
-314.256793
 21
-146.756758
 31
0.0
  0
ARC
  5
6A5
100
AcDbEntity
  8
0
370
    -3
390
0
  6
Continuous
100
AcDbCircle
 10
-333.360463
 20
-358.148388
 30
0.0
 40
2.0
100
AcDbArc
 50
270.0
 51
0.0
  0
ARC
  5
6A6
100
AcDbEntity
  8
0
370
    -3
390
0
  6
Continuous
100
AcDbCircle
 10
-333.360463
 20
-341.569686
 30
0.0
 40
2.0
100
AcDbArc
 50
270.0
 51
0.0
  0
ARC
  5
6A7
100
AcDbEntity
  8
0
370
    -3
390
0
  6
Continuous
100
AcDbCircle
 10
-333.360463
 20
-402.09839
 30
0.0
 40
2.0
100
AcDbArc
 50
270.0
 51
0.0
  0
ARC
  5
6A8
100
AcDbEntity
  8
0
370
    -3
390
0
  6
Continuous
100
AcDbCircle
 10
-325.360463
 20
-401.59839
 30
0.0
 40
6.0
100
AcDbArc
 50
90.0
 51
180.0
  0
LINE
  5
6A9
100
AcDbEntity
  8
0
370
    -3
390
0
  6
Continuous
100
AcDbLine
 10
-331.360463
 20
-409.956498
 30
0.0
 11
-331.360463
 21
-270.59839
 31
0.0
  0
LINE
  5
6AA
100
AcDbEntity
  8
0
370
    -3
390
0
  6
Continuous
100
AcDbLine
 10
-346.360463
 20
-404.09839
 30
0.0
 11
-333.360463
 21
-404.09839
 31
0.0
  0
LINE
  5
6AB
100
AcDbEntity
  8
0
370
    -3
390
0
  6
CENTER
100
AcDbLine
 10
-362.14921
 20
-342.098392
 30
0.0
 11
-315.184011
 21
-342.098392
 31
0.0
  0
LINE
  5
6AC
100
AcDbEntity
  8
0
370
    -3
390
0
  6
Continuous
100
AcDbLine
 10
-346.360463
 20
-360.148388
 30
0.0
 11
-333.360463
 21
-360.148388
 31
0.0
  0
LINE
  5
6AD
100
AcDbEntity
  8
0
370
    -3
390
0
  6
Continuous
100
AcDbLine
 10
-346.360463
 20
-343.569686
 30
0.0
 11
-333.360463
 21
-343.569686
 31
0.0
  0
LINE
  5
6AE
100
AcDbEntity
  8
0
370
    -3
390
0
  6
Continuous
100
AcDbLine
 10
-346.360463
 20
-319.435226
 30
0.0
 11
-331.360463
 21
-319.435226
 31
0.0
  0
INSERT
  5
6BF
100
AcDbEntity
  8
0
390
0
100
AcDbBlockReference
  2
ZU_SYM_K__CAD_SYM_POO_SYM_B21_0000920
 10
-331.360463
 20
-342.098392
 30
0.0
 50
180.0
  0
LINE
  5
6C0
100
AcDbEntity
  8
0
370
    -3
390
0
  6
Continuous
100
AcDbLine
 10
-331.360463
 20
-324.207041
 30
0.0
 11
-331.360463
 21
-360.689746
 31
0.0
  0
LINE
  5
6C1
100
AcDbEntity
  8
0
370
    -3
390
0
  6
Continuous
100
AcDbLine
 10
-346.360463
 20
-167.64811
 30
0.0
 11
-331.360463
 21
-167.64811
 31
0.0
  0
ARC
  5
6C2
100
AcDbEntity
  8
0
370
    -3
390
0
  6
Continuous
100
AcDbCircle
 10
-333.360463
 20
-137.366183
 30
0.0
 40
2.0
100
AcDbArc
 50
0.0
 51
90.0
  0
LINE
  5
6C3
100
AcDbEntity
  8
0
370
    -3
390
0
  6
Continuous
100
AcDbLine
 10
-346.360463
 20
-135.366183
 30
0.0
 11
-333.360463
 21
-135.366183
 31
0.0
  0
INSERT
  5
6D4
100
AcDbEntity
  8
0
390
0
100
AcDbBlockReference
  2
ZU_SYM_K__CAD_SYM_POO_SYM_B21_0001020
 10
-331.360463
 20
-146.756758
 30
0.0
 41
-1.0
  0
INSERT
  5
6E5
100
AcDbEntity
  8
0
390
0
100
AcDbBlockReference
  2
ZU_SYM_K__CAD_SYM_POO_SYM_B21_0001120
 10
-235.360463
 20
-129.214376
 30
0.0
  0
LINE
  5
6E6
100
AcDbEntity
  8
0
370
    -3
390
0
  6
Continuous
100
AcDbLine
 10
-235.360463
 20
-270.59839
 30
0.0
 11
-235.360463
 21
-113.25965
 31
0.0
  0
LINE
  5
6E7
100
AcDbEntity
  8
0
370
    -3
390
0
  6
Continuous
100
AcDbLine
 10
-216.360463
 20
-270.59839
 30
0.0
 11
-216.360463
 21
-110.25965
 31
0.0
  0
LINE
  5
6E8
100
AcDbEntity
  8
0
370
    -3
390
0
  6
CENTER
100
AcDbLine
 10
-251.368101
 20
-129.214376
 30
0.0
 11
-208.586198
 21
-129.214376
 31
0.0
  0
LINE
  5
6E9
100
AcDbEntity
  8
0
370
    -3
390
0
  6
Continuous
100
AcDbLine
 10
-316.360496
 20
-145.59839
 30
0.0
 11
-245.360463
 21
-145.59839
 31
0.0
  0
ARC
  5
6EA
100
AcDbEntity
  8
0
370
    -3
390
0
  6
Continuous
100
AcDbCircle
 10
-333.360463
 20
-128.165405
 30
0.0
 40
2.0
100
AcDbArc
 50
0.0
 51
90.0
  0
LINE
  5
6EB
100
AcDbEntity
  8
0
370
    -3
390
0
  6
Continuous
100
AcDbLine
 10
-331.360463
 20
-270.59839
 30
0.0
 11
-331.360463
 21
-128.165405
 31
0.0
  0
LINE
  5
6EC
100
AcDbEntity
  8
0
370
    -3
390
0
  6
Continuous
100
AcDbLine
 10
-346.360463
 20
-126.165405
 30
0.0
 11
-333.360463
 21
-126.165405
 31
0.0
  0
LINE
  5
6ED
100
AcDbEntity
  8
0
370
    -3
390
0
  6
Continuous
100
AcDbLine
 10
-216.360463
 20
-270.59839
 30
0.0
 11
-216.360463
 21
-361.001489
 31
0.0
  0
LINE
  5
6EE
100
AcDbEntity
  8
0
370
    -3
390
0
  6
Continuous
100
AcDbLine
 10
-331.360463
 20
-346.25676
 30
0.0
 11
-331.360463
 21
-349.75676
 31
0.0
  0
LINE
  5
6EF
100
AcDbEntity
  8
0
370
    -3
390
0
  6
Continuous
100
AcDbLine
 10
-325.360463
 20
-395.59839
 30
0.0
 11
-274.979413
 21
-395.59839
 31
0.0
  0
LINE
  5
6F0
100
AcDbEntity
  8
0
370
    -3
390
0
  6
CENTER
100
AcDbLine
 10
572.494573
 20
-270.59839
 30
0.0
 11
503.58941
 21
-270.59839
 31
0.0
  0
LINE
  5
6F1
100
AcDbEntity
  8
0
370
    -3
390
0
  6
CENTER
100
AcDbLine
 10
536.339599
 20
-41.036762
 30
0.0
 11
536.339599
 21
-457.818995
 31
0.0
  0
CIRCLE
  5
6F2
100
AcDbEntity
  8
0
370
    -3
390
0
  6
Continuous
100
AcDbCircle
 10
536.339599
 20
-212.09839
 30
0.0
 40
5.0
  0
CIRCLE
  5
6F3
100
AcDbEntity
  8
0
370
    -3
390
0
  6
Continuous
100
AcDbCircle
 10
536.339599
 20
-212.09839
 30
0.0
 40
4.0
  0
LINE
  5
6F4
100
AcDbEntity
  8
0
370
    -3
390
0
  6
Continuous
100
AcDbLine
 10
521.089599
 20
-67.09839
 30
0.0
 11
536.339599
 21
-67.09839
 31
0.0
  0
LINE
  5
6F5
100
AcDbEntity
  8
0
370
    -3
390
0
  6
Continuous
100
AcDbLine
 10
551.589599
 20
-67.09839
 30
0.0
 11
536.339599
 21
-67.09839
 31
0.0
  0
ARC
  5
6F6
100
AcDbEntity
  8
0
370
    -3
390
0
  6
Continuous
100
AcDbCircle
 10
526.839599
 20
-71.59839
 30
0.0
 40
1.5
100
AcDbArc
 50
180.0
 51
270.0
  0
ARC
  5
6F7
100
AcDbEntity
  8
0
370
    -3
390
0
  6
Continuous
100
AcDbCircle
 10
545.839599
 20
-71.59839
 30
0.0
 40
1.5
100
AcDbArc
 50
270.0
 51
0.0
  0
ARC
  5
6F8
100
AcDbEntity
  8
0
370
    -3
390
0
  6
Continuous
100
AcDbCircle
 10
545.839599
 20
-71.59839
 30
0.0
 40
1.5
100
AcDbArc
 50
0.0
 51
90.0
  0
LINE
  5
6F9
100
AcDbEntity
  8
0
370
    -3
390
0
  6
Continuous
100
AcDbLine
 10
551.589599
 20
-67.09839
 30
0.0
 11
551.589599
 21
-70.09839
 31
0.0
  0
LINE
  5
6FA
100
AcDbEntity
  8
0
370
    -3
390
0
  6
Continuous
100
AcDbLine
 10
551.589599
 20
-70.09839
 30
0.0
 11
536.339599
 21
-70.09839
 31
0.0
  0
ARC
  5
6FB
100
AcDbEntity
  8
0
370
    -3
390
0
  6
Continuous
100
AcDbCircle
 10
526.839599
 20
-71.59839
 30
0.0
 40
1.5
100
AcDbArc
 50
90.0
 51
180.0
  0
LINE
  5
6FC
100
AcDbEntity
  8
0
370
    -3
390
0
  6
Continuous
100
AcDbLine
 10
521.089599
 20
-67.09839
 30
0.0
 11
521.089599
 21
-70.09839
 31
0.0
  0
LINE
  5
6FD
100
AcDbEntity
  8
0
370
    -3
390
0
  6
Continuous
100
AcDbLine
 10
521.089599
 20
-70.09839
 30
0.0
 11
536.339599
 21
-70.09839
 31
0.0
  0
LINE
  5
6FE
100
AcDbEntity
  8
0
370
    -3
390
0
  6
Continuous
100
AcDbLine
 10
550.071344
 20
-65.09839
 30
0.0
 11
544.551733
 21
-65.09839
 31
0.0
  0
LINE
  5
6FF
100
AcDbEntity
  8
0
370
    -3
390
0
  6
Continuous
100
AcDbLine
 10
540.242553
 20
-65.09839
 30
0.0
 11
536.339599
 21
-65.09839
 31
0.0
  0
LINE
  5
700
100
AcDbEntity
  8
0
370
    -3
390
0
  6
Continuous
100
AcDbLine
 10
551.856265
 20
-55.09839
 30
0.0
 11
551.856265
 21
-65.09839
 31
0.0
  0
LINE
  5
701
100
AcDbEntity
  8
0
370
    -3
390
0
  6
Continuous
100
AcDbLine
 10
550.071344
 20
-55.09839
 30
0.0
 11
550.071344
 21
-65.09839
 31
0.0
  0
LINE
  5
702
100
AcDbEntity
  8
0
370
    -3
390
0
  6
Continuous
100
AcDbLine
 10
544.551733
 20
-55.09839
 30
0.0
 11
544.551733
 21
-65.09839
 31
0.0
  0
LINE
  5
703
100
AcDbEntity
  8
0
370
    -3
390
0
  6
Continuous
100
AcDbLine
 10
540.242553
 20
-55.09839
 30
0.0
 11
540.242553
 21
-65.09839
 31
0.0
  0
LINE
  5
704
100
AcDbEntity
  8
0
370
    -3
390
0
  6
Continuous
100
AcDbLine
 10
552.339599
 20
-65.09839
 30
0.0
 11
551.856265
 21
-65.09839
 31
0.0
  0
LINE
  5
705
100
AcDbEntity
  8
0
370
    -3
390
0
  6
Continuous
100
AcDbLine
 10
552.339599
 20
-66.09839
 30
0.0
 11
552.339599
 21
-55.09839
 31
0.0
  0
LINE
  5
706
100
AcDbEntity
  8
0
370
    -3
390
0
  6
Continuous
100
AcDbLine
 10
549.339599
 20
-53.09839
 30
0.0
 11
550.839599
 21
-55.09839
 31
0.0
  0
LINE
  5
707
100
AcDbEntity
  8
0
370
    -3
390
0
  6
Continuous
100
AcDbLine
 10
552.339599
 20
-66.09839
 30
0.0
 11
536.339599
 21
-66.09839
 31
0.0
  0
LINE
  5
708
100
AcDbEntity
  8
0
370
    -3
390
0
  6
Continuous
100
AcDbLine
 10
552.339599
 20
-66.09839
 30
0.0
 11
552.339599
 21
-55.09839
 31
0.0
  0
LINE
  5
709
100
AcDbEntity
  8
0
370
    -3
390
0
  6
Continuous
100
AcDbLine
 10
549.339599
 20
-53.09839
 30
0.0
 11
550.839599
 21
-55.09839
 31
0.0
  0
LINE
  5
70A
100
AcDbEntity
  8
0
370
    -3
390
0
  6
Continuous
100
AcDbLine
 10
552.339599
 20
-55.09839
 30
0.0
 11
536.339599
 21
-55.09839
 31
0.0
  0
LINE
  5
70B
100
AcDbEntity
  8
0
370
    -3
390
0
  6
Continuous
100
AcDbLine
 10
549.339599
 20
-53.09839
 30
0.0
 11
536.339599
 21
-53.09839
 31
0.0
  0
LINE
  5
70C
100
AcDbEntity
  8
0
370
    -3
390
0
  6
Continuous
100
AcDbLine
 10
549.339599
 20
-67.09839
 30
0.0
 11
549.339599
 21
-66.09839
 31
0.0
  0
LINE
  5
70D
100
AcDbEntity
  8
0
370
    -3
390
0
  6
Continuous
100
AcDbLine
 10
522.607853
 20
-65.09839
 30
0.0
 11
528.127464
 21
-65.09839
 31
0.0
  0
LINE
  5
70E
100
AcDbEntity
  8
0
370
    -3
390
0
  6
Continuous
100
AcDbLine
 10
532.436644
 20
-65.09839
 30
0.0
 11
536.339599
 21
-65.09839
 31
0.0
  0
LINE
  5
70F
100
AcDbEntity
  8
0
370
    -3
390
0
  6
Continuous
100
AcDbLine
 10
520.822932
 20
-55.09839
 30
0.0
 11
520.822932
 21
-65.09839
 31
0.0
  0
LINE
  5
710
100
AcDbEntity
  8
0
370
    -3
390
0
  6
Continuous
100
AcDbLine
 10
522.607853
 20
-55.09839
 30
0.0
 11
522.607853
 21
-65.09839
 31
0.0
  0
LINE
  5
711
100
AcDbEntity
  8
0
370
    -3
390
0
  6
Continuous
100
AcDbLine
 10
528.127464
 20
-55.09839
 30
0.0
 11
528.127464
 21
-65.09839
 31
0.0
  0
LINE
  5
712
100
AcDbEntity
  8
0
370
    -3
390
0
  6
Continuous
100
AcDbLine
 10
532.436644
 20
-55.09839
 30
0.0
 11
532.436644
 21
-65.09839
 31
0.0
  0
LINE
  5
713
100
AcDbEntity
  8
0
370
    -3
390
0
  6
Continuous
100
AcDbLine
 10
520.339599
 20
-65.09839
 30
0.0
 11
520.822932
 21
-65.09839
 31
0.0
  0
LINE
  5
714
100
AcDbEntity
  8
0
370
    -3
390
0
  6
Continuous
100
AcDbLine
 10
520.339599
 20
-66.09839
 30
0.0
 11
520.339599
 21
-55.09839
 31
0.0
  0
LINE
  5
715
100
AcDbEntity
  8
0
370
    -3
390
0
  6
Continuous
100
AcDbLine
 10
523.339599
 20
-53.09839
 30
0.0
 11
521.839599
 21
-55.09839
 31
0.0
  0
LINE
  5
716
100
AcDbEntity
  8
0
370
    -3
390
0
  6
Continuous
100
AcDbLine
 10
520.339599
 20
-66.09839
 30
0.0
 11
536.339599
 21
-66.09839
 31
0.0
  0
LINE
  5
717
100
AcDbEntity
  8
0
370
    -3
390
0
  6
Continuous
100
AcDbLine
 10
520.339599
 20
-66.09839
 30
0.0
 11
520.339599
 21
-55.09839
 31
0.0
  0
LINE
  5
718
100
AcDbEntity
  8
0
370
    -3
390
0
  6
Continuous
100
AcDbLine
 10
523.339599
 20
-53.09839
 30
0.0
 11
521.839599
 21
-55.09839
 31
0.0
  0
LINE
  5
719
100
AcDbEntity
  8
0
370
    -3
390
0
  6
Continuous
100
AcDbLine
 10
520.339599
 20
-55.09839
 30
0.0
 11
536.339599
 21
-55.09839
 31
0.0
  0
LINE
  5
71A
100
AcDbEntity
  8
0
370
    -3
390
0
  6
Continuous
100
AcDbLine
 10
523.339599
 20
-53.09839
 30
0.0
 11
536.339599
 21
-53.09839
 31
0.0
  0
LINE
  5
71B
100
AcDbEntity
  8
0
370
    -3
390
0
  6
Continuous
100
AcDbLine
 10
523.339599
 20
-67.09839
 30
0.0
 11
523.339599
 21
-66.09839
 31
0.0
  0
LINE
  5
71C
100
AcDbEntity
  8
0
370
    -3
390
0
  6
Continuous
100
AcDbLine
 10
438.839599
 20
-224.09839
 30
0.0
 11
438.839599
 21
-212.09839
 31
0.0
  0
LINE
  5
71D
100
AcDbEntity
  8
0
370
    -3
390
0
  6
Continuous
100
AcDbLine
 10
378.339599
 20
-218.09839
 30
0.0
 11
378.339599
 21
-245.995514
 31
0.0
  0
LINE
  5
71E
100
AcDbEntity
  8
0
370
    -3
390
0
  6
Continuous
100
AcDbLine
 10
375.457963
 20
-253.018967
 30
0.0
 11
344.221234
 21
-284.677814
 31
0.0
  0
ARC
  5
71F
100
AcDbEntity
  8
0
370
    -3
390
0
  6
Continuous
100
AcDbCircle
 10
368.339599
 20
-245.995514
 30
0.0
 40
10.0
100
AcDbArc
 50
315.38453
 51
0.0
  0
ARC
  5
720
100
AcDbEntity
  8
0
370
    -3
390
0
  6
Continuous
100
AcDbCircle
 10
351.339599
 20
-291.701266
 30
0.0
 40
10.0
100
AcDbArc
 50
135.38453
 51
180.0
  0
LINE
  5
721
100
AcDbEntity
  8
0
370
    -3
390
0
  6
Continuous
100
AcDbLine
 10
375.355701
 20
-274.479628
 30
0.0
 11
358.644907
 21
-291.416243
 31
0.0
  0
ARC
  5
722
100
AcDbEntity
  8
0
370
    -3
390
0
  6
Continuous
100
AcDbCircle
 10
393.339599
 20
-280.09839
 30
0.0
 40
8.0
100
AcDbArc
 50
0.0
 51
90.0
  0
LINE
  5
723
100
AcDbEntity
  8
0
370
    -3
390
0
  6
Continuous
100
AcDbLine
 10
381.050392
 20
-272.09839
 30
0.0
 11
393.339599
 21
-272.09839
 31
0.0
  0
ARC
  5
724
100
AcDbEntity
  8
0
370
    -3
390
0
  6
Continuous
100
AcDbCircle
 10
381.050392
 20
-280.09839
 30
0.0
 40
8.0
100
AcDbArc
 50
90.0
 51
135.38453
  0
ARC
  5
725
100
AcDbEntity
  8
0
370
    -3
390
0
  6
Continuous
100
AcDbCircle
 10
364.339599
 20
-297.035005
 30
0.0
 40
8.0
100
AcDbArc
 50
135.38453
 51
180.0
  0
ARC
  5
726
100
AcDbEntity
  8
0
370
    -3
390
0
  6
Continuous
100
AcDbCircle
 10
420.839599
 20
-224.09839
 30
0.0
 40
18.0
100
AcDbArc
 50
270.0
 51
0.0
  0
LINE
  5
727
100
AcDbEntity
  8
0
370
    -3
390
0
  6
Continuous
100
AcDbLine
 10
407.339599
 20
-242.09839
 30
0.0
 11
463.339599
 21
-242.09839
 31
0.0
  0
ARC
  5
728
100
AcDbEntity
  8
0
370
    -3
390
0
  6
Continuous
100
AcDbCircle
 10
407.339599
 20
-248.09839
 30
0.0
 40
6.0
100
AcDbArc
 50
90.0
 51
180.0
  0
LINE
  5
729
100
AcDbEntity
  8
0
370
    -3
390
0
  6
Continuous
100
AcDbLine
 10
341.339599
 20
-291.701266
 30
0.0
 11
341.339599
 21
-442.09839
 31
0.0
  0
LINE
  5
72A
100
AcDbEntity
  8
0
370
    -3
390
0
  6
Continuous
100
AcDbLine
 10
387.339599
 20
-212.09839
 30
0.0
 11
384.339599
 21
-212.09839
 31
0.0
  0
ARC
  5
72B
100
AcDbEntity
  8
0
370
    -3
390
0
  6
Continuous
100
AcDbCircle
 10
387.339599
 20
-206.09839
 30
0.0
 40
6.0
100
AcDbArc
 50
270.0
 51
0.0
  0
ARC
  5
72C
100
AcDbEntity
  8
0
370
    -3
390
0
  6
Continuous
100
AcDbCircle
 10
384.339599
 20
-218.09839
 30
0.0
 40
6.0
100
AcDbArc
 50
90.0
 51
180.0
  0
ARC
  5
72D
100
AcDbEntity
  8
0
370
    -3
390
0
  6
Continuous
100
AcDbCircle
 10
491.339599
 20
-167.09839
 30
0.0
 40
98.0
100
AcDbArc
 50
90.0
 51
180.0
  0
ARC
  5
72E
100
AcDbEntity
  8
0
370
    -3
390
0
  6
Continuous
100
AcDbCircle
 10
491.339599
 20
-167.09839
 30
0.0
 40
90.0
100
AcDbArc
 50
90.0
 51
180.0
  0
LINE
  5
72F
100
AcDbEntity
  8
0
370
    -3
390
0
  6
Continuous
100
AcDbLine
 10
393.339599
 20
-167.09839
 30
0.0
 11
393.339599
 21
-206.09839
 31
0.0
  0
LINE
  5
730
100
AcDbEntity
  8
0
370
    -3
390
0
  6
Continuous
100
AcDbLine
 10
401.339599
 20
-167.09839
 30
0.0
 11
401.339599
 21
-387.247091
 31
0.0
  0
ARC
  5
731
100
AcDbEntity
  8
0
370
    -3
390
0
  6
Continuous
100
AcDbCircle
 10
536.339599
 20
-212.09839
 30
0.0
 40
97.5
100
AcDbArc
 50
90.0
 51
180.0
  0
LINE
  5
732
100
AcDbEntity
  8
0
370
    -3
390
0
  6
CENTER
100
AcDbLine
 10
342.910541
 20
-212.09839
 30
0.0
 11
721.251738
 21
-212.09839
 31
0.0
  0
ARC
  5
733
100
AcDbEntity
  8
0
370
    -3
390
0
  6
Continuous
100
AcDbCircle
 10
405.058256
 20
-139.355916
 30
0.0
 40
1.0
100
AcDbArc
 50
1.0
 51
21.530199
  0
POINT
  5
734
100
AcDbEntity
  8
0
370
    -3
390
0
  6
Continuous
100
AcDbPoint
 10
536.339599
 20
-106.59839
 30
0.0
  0
ARC
  5
735
100
AcDbEntity
  8
0
370
    -3
390
0
  6
Continuous
100
AcDbCircle
 10
553.361643
 20
-436.09839
 30
0.0
 40
6.0
100
AcDbArc
 50
90.0
 51
148.331757
  0
ARC
  5
736
100
AcDbEntity
  8
0
370
    -3
390
0
  6
Continuous
100
AcDbCircle
 10
536.339599
 20
-425.59839
 30
0.0
 40
14.0
100
AcDbArc
 50
296.765501
 51
328.331757
  0
ARC
  5
737
100
AcDbEntity
  8
0
370
    -3
390
0
  6
Continuous
100
AcDbCircle
 10
726.339599
 20
-412.09839
 30
0.0
 40
5.0
100
AcDbArc
 50
0.0
 51
90.0
  0
LINE
  5
738
100
AcDbEntity
  8
0
370
    -3
390
0
  6
Continuous
100
AcDbLine
 10
591.339599
 20
-212.09839
 30
0.0
 11
591.339599
 21
-224.09839
 31
0.0
  0
LINE
  5
739
100
AcDbEntity
  8
0
370
    -3
390
0
  6
Continuous
100
AcDbLine
 10
611.418383
 20
-430.09839
 30
0.0
 11
536.339599
 21
-430.09839
 31
0.0
  0
LINE
  5
73A
100
AcDbEntity
  8
0
370
    -3
390
0
  6
Continuous
100
AcDbLine
 10
633.839599
 20
-224.09839
 30
0.0
 11
633.839599
 21
-212.09839
 31
0.0
  0
ARC
  5
73B
100
AcDbEntity
  8
0
370
    -3
390
0
  6
Continuous
100
AcDbCircle
 10
609.339599
 20
-224.09839
 30
0.0
 40
18.0
100
AcDbArc
 50
180.0
 51
270.0
  0
ARC
  5
73C
100
AcDbEntity
  8
0
370
    -3
390
0
  6
Continuous
100
AcDbCircle
 10
665.339599
 20
-248.09839
 30
0.0
 40
6.0
100
AcDbArc
 50
0.0
 51
90.0
  0
LINE
  5
73D
100
AcDbEntity
  8
0
370
    -3
390
0
  6
Continuous
100
AcDbLine
 10
665.339599
 20
-242.09839
 30
0.0
 11
609.339599
 21
-242.09839
 31
0.0
  0
ARC
  5
73E
100
AcDbEntity
  8
0
370
    -3
390
0
  6
Continuous
100
AcDbCircle
 10
651.839599
 20
-224.09839
 30
0.0
 40
18.0
100
AcDbArc
 50
180.0
 51
270.0
  0
ARC
  5
73F
100
AcDbEntity
  8
0
370
    -3
390
0
  6
Continuous
100
AcDbCircle
 10
708.339599
 20
-297.035005
 30
0.0
 40
8.0
100
AcDbArc
 50
0.0
 51
44.61547
  0
ARC
  5
740
100
AcDbEntity
  8
0
370
    -3
390
0
  6
Continuous
100
AcDbCircle
 10
691.628805
 20
-280.09839
 30
0.0
 40
8.0
100
AcDbArc
 50
44.61547
 51
90.0
  0
LINE
  5
741
100
AcDbEntity
  8
0
370
    -3
390
0
  6
Continuous
100
AcDbLine
 10
653.339599
 20
-420.800601
 30
0.0
 11
653.339599
 21
-442.09839
 31
0.0
  0
LINE
  5
742
100
AcDbEntity
  8
0
370
    -3
390
0
  6
Continuous
100
AcDbLine
 10
691.628805
 20
-272.09839
 30
0.0
 11
679.339599
 21
-272.09839
 31
0.0
  0
LINE
  5
743
100
AcDbEntity
  8
0
370
    -3
390
0
  6
Continuous
100
AcDbLine
 10
716.339599
 20
-297.035005
 30
0.0
 11
716.339599
 21
-382.09839
 31
0.0
  0
ARC
  5
744
100
AcDbEntity
  8
0
370
    -3
390
0
  6
Continuous
100
AcDbCircle
 10
672.339599
 20
-374.09839
 30
0.0
 40
1.0
100
AcDbArc
 50
90.0
 51
180.0
  0
ARC
  5
745
100
AcDbEntity
  8
0
370
    -3
390
0
  6
Continuous
100
AcDbCircle
 10
672.339599
 20
-372.09839
 30
0.0
 40
1.0
100
AcDbArc
 50
270.0
 51
0.0
  0
ARC
  5
746
100
AcDbEntity
  8
0
370
    -3
390
0
  6
Continuous
100
AcDbCircle
 10
672.339599
 20
-334.09839
 30
0.0
 40
1.0
100
AcDbArc
 50
0.0
 51
90.0
  0
ARC
  5
747
100
AcDbEntity
  8
0
370
    -3
390
0
  6
Continuous
100
AcDbCircle
 10
672.339599
 20
-332.09839
 30
0.0
 40
1.0
100
AcDbArc
 50
180.0
 51
270.0
  0
LINE
  5
748
100
AcDbEntity
  8
0
370
    -3
390
0
  6
Continuous
100
AcDbLine
 10
673.339599
 20
-334.09839
 30
0.0
 11
673.339599
 21
-372.09839
 31
0.0
  0
LINE
  5
749
100
AcDbEntity
  8
0
370
    -3
390
0
  6
Continuous
100
AcDbLine
 10
671.339599
 20
-167.09839
 30
0.0
 11
671.339599
 21
-387.247091
 31
0.0
  0
LINE
  5
74A
100
AcDbEntity
  8
0
370
    -3
390
0
  6
Continuous
100
AcDbLine
 10
667.041809
 20
-407.09839
 30
0.0
 11
726.339599
 21
-407.09839
 31
0.0
  0
LINE
  5
74B
100
AcDbEntity
  8
0
370
    -3
390
0
  6
Continuous
100
AcDbLine
 10
653.339599
 20
-441.09839
 30
0.0
 11
653.339599
 21
-442.09839
 31
0.0
  0
ARC
  5
74C
100
AcDbEntity
  8
0
370
    -3
390
0
  6
Continuous
100
AcDbCircle
 10
592.339599
 20
-340.09839
 30
0.0
 40
92.0
100
AcDbArc
 50
318.084094
 51
30.829555
  0
ARC
  5
74D
100
AcDbEntity
  8
0
370
    -3
390
0
  6
Continuous
100
AcDbCircle
 10
581.339599
 20
-340.09839
 30
0.0
 40
90.0
100
AcDbArc
 50
270.0
 51
0.0
  0
ARC
  5
74E
100
AcDbEntity
  8
0
370
    -3
390
0
  6
Continuous
100
AcDbCircle
 10
592.339599
 20
-340.09839
 30
0.0
 40
92.0
100
AcDbArc
 50
281.968746
 51
293.7691
  0
ARC
  5
74F
100
AcDbEntity
  8
0
370
    -3
390
0
  6
Continuous
100
AcDbCircle
 10
621.578937
 20
-437.081872
 30
0.0
 40
15.0
100
AcDbArc
 50
60.0
 51
112.534012
  0
LINE
  5
750
100
AcDbEntity
  8
0
370
    -3
390
0
  6
Continuous
100
AcDbLine
 10
653.339599
 20
-438.09839
 30
0.0
 11
629.078937
 21
-424.091491
 31
0.0
  0
ARC
  5
751
100
AcDbEntity
  8
0
370
    -3
390
0
  6
Continuous
100
AcDbCircle
 10
613.171939
 20
-435.858578
 30
0.0
 40
6.0
100
AcDbArc
 50
30.864493
 51
106.253793
  0
ARC
  5
752
100
AcDbEntity
  8
0
370
    -3
390
0
  6
Continuous
100
AcDbCircle
 10
630.339599
 20
-425.59839
 30
0.0
 40
14.0
100
AcDbArc
 50
296.765501
 51
332.762245
  0
ARC
  5
753
100
AcDbEntity
  8
0
370
    -3
390
0
  6
Continuous
100
AcDbCircle
 10
630.339599
 20
-425.59839
 30
0.0
 40
14.0
100
AcDbArc
 50
210.864493
 51
243.234499
  0
ARC
  5
754
100
AcDbEntity
  8
0
370
    -3
390
0
  6
Continuous
100
AcDbCircle
 10
679.339599
 20
-280.09839
 30
0.0
 40
8.0
100
AcDbArc
 50
90.0
 51
180.0
  0
LINE
  5
755
100
AcDbEntity
  8
0
370
    -3
390
0
  6
Continuous
100
AcDbLine
 10
697.323496
 20
-274.479628
 30
0.0
 11
714.03429
 21
-291.416243
 31
0.0
  0
ARC
  5
756
100
AcDbEntity
  8
0
370
    -3
390
0
  6
Continuous
100
AcDbCircle
 10
691.339599
 20
-382.09839
 30
0.0
 40
25.0
100
AcDbArc
 50
270.0
 51
0.0
  0
LINE
  5
757
100
AcDbEntity
  8
0
370
    -3
390
0
  6
Continuous
100
AcDbLine
 10
681.339599
 20
-407.09839
 30
0.0
 11
726.339599
 21
-407.09839
 31
0.0
  0
ARC
  5
758
100
AcDbEntity
  8
0
370
    -3
390
0
  6
Continuous
100
AcDbCircle
 10
546.339599
 20
-152.937593
 30
0.0
 40
5.0
100
AcDbArc
 50
180.0
 51
260.405932
  0
ARC
  5
759
100
AcDbEntity
  8
0
370
    -3
390
0
  6
Continuous
100
AcDbCircle
 10
546.339599
 20
-120.14052
 30
0.0
 40
5.0
100
AcDbArc
 50
83.793732
 51
180.0
  0
LINE
  5
75A
100
AcDbEntity
  8
0
370
    -3
390
0
  6
Continuous
100
AcDbLine
 10
541.339599
 20
-152.937593
 30
0.0
 11
541.339599
 21
-120.14052
 31
0.0
  0
ARC
  5
75B
100
AcDbEntity
  8
0
370
    -3
390
0
  6
Continuous
100
AcDbCircle
 10
546.339599
 20
-110.087362
 30
0.0
 40
5.0
100
AcDbArc
 50
180.0
 51
264.401262
  0
ARC
  5
75C
100
AcDbEntity
  8
0
370
    -3
390
0
  6
Continuous
100
AcDbCircle
 10
546.339599
 20
-82.09839
 30
0.0
 40
5.0
100
AcDbArc
 50
90.0
 51
180.0
  0
LINE
  5
75D
100
AcDbEntity
  8
0
370
    -3
390
0
  6
Continuous
100
AcDbLine
 10
541.339599
 20
-110.087362
 30
0.0
 11
541.339599
 21
-82.09839
 31
0.0
  0
LINE
  5
75E
100
AcDbEntity
  8
0
370
    -3
390
0
  6
Continuous
100
AcDbLine
 10
551.839599
 20
-73.09839
 30
0.0
 11
536.339599
 21
-73.09839
 31
0.0
  0
ARC
  5
75F
100
AcDbEntity
  8
0
370
    -3
390
0
  6
Continuous
100
AcDbCircle
 10
536.339599
 20
-212.09839
 30
0.0
 40
55.0
100
AcDbArc
 50
270.0
 51
90.0
  0
LINE
  5
760
100
AcDbEntity
  8
0
370
    -3
390
0
  6
Continuous
100
AcDbLine
 10
731.339599
 20
-442.09839
 30
0.0
 11
653.339599
 21
-442.09839
 31
0.0
  0
ARC
  5
761
100
AcDbEntity
  8
0
370
    -3
390
0
  6
Continuous
100
AcDbCircle
 10
721.339599
 20
-291.701266
 30
0.0
 40
10.0
100
AcDbArc
 50
0.0
 51
44.61547
  0
ARC
  5
762
100
AcDbEntity
  8
0
370
    -3
390
0
  6
Continuous
100
AcDbCircle
 10
704.339599
 20
-245.995514
 30
0.0
 40
10.0
100
AcDbArc
 50
180.0
 51
224.61547
  0
LINE
  5
763
100
AcDbEntity
  8
0
370
    -3
390
0
  6
Continuous
100
AcDbLine
 10
697.221234
 20
-253.018967
 30
0.0
 11
728.457963
 21
-284.677814
 31
0.0
  0
LINE
  5
764
100
AcDbEntity
  8
0
370
    -3
390
0
  6
Continuous
100
AcDbLine
 10
731.339599
 20
-291.701266
 30
0.0
 11
731.339599
 21
-442.09839
 31
0.0
  0
LINE
  5
765
100
AcDbEntity
  8
0
370
    -3
390
0
  6
Continuous
100
AcDbLine
 10
536.339599
 20
-438.09839
 30
0.0
 11
650.339599
 21
-438.09839
 31
0.0
  0
ARC
  5
766
100
AcDbEntity
  8
0
370
    -3
390
0
  6
Continuous
100
AcDbCircle
 10
688.339599
 20
-218.09839
 30
0.0
 40
6.0
100
AcDbArc
 50
0.0
 51
90.0
  0
ARC
  5
767
100
AcDbEntity
  8
0
370
    -3
390
0
  6
Continuous
100
AcDbCircle
 10
685.339599
 20
-206.09839
 30
0.0
 40
6.0
100
AcDbArc
 50
180.0
 51
270.0
  0
LINE
  5
768
100
AcDbEntity
  8
0
370
    -3
390
0
  6
Continuous
100
AcDbLine
 10
685.339599
 20
-212.09839
 30
0.0
 11
688.339599
 21
-212.09839
 31
0.0
  0
LINE
  5
769
100
AcDbEntity
  8
0
370
    -3
390
0
  6
Continuous
100
AcDbLine
 10
694.339599
 20
-218.09839
 30
0.0
 11
694.339599
 21
-245.995514
 31
0.0
  0
ARC
  5
76A
100
AcDbEntity
  8
0
370
    -3
390
0
  6
Continuous
100
AcDbCircle
 10
617.339599
 20
-91.09839
 30
0.0
 40
14.0
100
AcDbArc
 50
355.345633
 51
133.962015
  0
LINE
  5
76B
100
AcDbEntity
  8
0
370
    -3
390
0
  6
Continuous
100
AcDbLine
 10
581.339599
 20
-77.09839
 30
0.0
 11
536.339599
 21
-77.09839
 31
0.0
  0
LINE
  5
76C
100
AcDbEntity
  8
0
370
    -3
390
0
  6
Continuous
100
AcDbLine
 10
679.339599
 20
-167.09839
 30
0.0
 11
679.339599
 21
-206.09839
 31
0.0
  0
LINE
  5
76D
100
AcDbEntity
  8
0
370
    -3
390
0
  6
Continuous
100
AcDbLine
 10
581.339599
 20
-69.09839
 30
0.0
 11
551.589599
 21
-69.09839
 31
0.0
  0
ARC
  5
76E
100
AcDbEntity
  8
0
370
    -3
390
0
  6
Continuous
100
AcDbCircle
 10
581.339599
 20
-167.09839
 30
0.0
 40
90.0
100
AcDbArc
 50
0.0
 51
90.0
  0
ARC
  5
76F
100
AcDbEntity
  8
0
370
    -3
390
0
  6
Continuous
100
AcDbCircle
 10
581.339599
 20
-167.09839
 30
0.0
 40
98.0
100
AcDbArc
 50
0.0
 51
90.0
  0
ARC
  5
770
100
AcDbEntity
  8
0
370
    -3
390
0
  6
Continuous
100
AcDbCircle
 10
536.339599
 20
-212.09839
 30
0.0
 40
97.5
100
AcDbArc
 50
0.0
 51
90.0
  0
ARC
  5
771
100
AcDbEntity
  8
0
370
    -3
390
0
  6
Continuous
100
AcDbCircle
 10
650.339599
 20
-441.09839
 30
0.0
 40
3.0
100
AcDbArc
 50
0.0
 51
90.0
  0
ARC
  5
772
100
AcDbEntity
  8
0
370
    -3
390
0
  6
Continuous
100
AcDbCircle
 10
536.339599
 20
-212.09839
 30
0.0
 40
46.0
100
AcDbArc
 50
270.0
 51
90.0
  0
LINE
  5
773
100
AcDbEntity
  8
0
370
    -3
390
0
  6
Continuous
100
AcDbLine
 10
663.506275
 20
-408.562856
 30
0.0
 11
654.804065
 21
-417.265067
 31
0.0
  0
LINE
  5
774
100
AcDbEntity
  8
0
370
    -3
390
0
  6
Continuous
100
AcDbLine
 10
666.339599
 20
-407.09839
 30
0.0
 11
661.95022
 21
-402.709012
 31
0.0
  0
ARC
  5
775
100
AcDbEntity
  8
0
370
    -3
390
0
  6
Continuous
100
AcDbCircle
 10
658.339599
 20
-420.800601
 30
0.0
 40
5.0
100
AcDbArc
 50
135.0
 51
180.0
  0
ARC
  5
776
100
AcDbEntity
  8
0
370
    -3
390
0
  6
Continuous
100
AcDbCircle
 10
667.041809
 20
-412.09839
 30
0.0
 40
5.0
100
AcDbArc
 50
90.0
 51
135.0
  0
ARC
  5
777
100
AcDbEntity
  8
0
370
    -3
390
0
  6
Continuous
100
AcDbCircle
 10
672.556822
 20
-392.102411
 30
0.0
 40
15.0
100
AcDbArc
 50
150.312023
 51
225.0
  0
ARC
  5
778
100
AcDbEntity
  8
0
370
    -3
390
0
  6
Continuous
100
AcDbCircle
 10
536.339599
 20
-212.09839
 30
0.0
 40
55.0
100
AcDbArc
 50
90.0
 51
270.0
  0
ARC
  5
779
100
AcDbEntity
  8
0
370
    -3
390
0
  6
Continuous
100
AcDbCircle
 10
536.339599
 20
-212.09839
 30
0.0
 40
46.0
100
AcDbArc
 50
90.0
 51
270.0
  0
ARC
  5
77A
100
AcDbEntity
  8
0
370
    -3
390
0
  6
Continuous
100
AcDbCircle
 10
526.339599
 20
-152.937593
 30
0.0
 40
5.0
100
AcDbArc
 50
279.594068
 51
0.0
  0
ARC
  5
77B
100
AcDbEntity
  8
0
370
    -3
390
0
  6
Continuous
100
AcDbCircle
 10
526.339599
 20
-120.14052
 30
0.0
 40
5.0
100
AcDbArc
 50
0.0
 51
96.206268
  0
LINE
  5
77C
100
AcDbEntity
  8
0
370
    -3
390
0
  6
Continuous
100
AcDbLine
 10
531.339599
 20
-152.937593
 30
0.0
 11
531.339599
 21
-120.14052
 31
0.0
  0
ARC
  5
77D
100
AcDbEntity
  8
0
370
    -3
390
0
  6
Continuous
100
AcDbCircle
 10
526.339599
 20
-110.087362
 30
0.0
 40
5.0
100
AcDbArc
 50
275.598738
 51
0.0
  0
ARC
  5
77E
100
AcDbEntity
  8
0
370
    -3
390
0
  6
Continuous
100
AcDbCircle
 10
526.339599
 20
-82.09839
 30
0.0
 40
5.0
100
AcDbArc
 50
0.0
 51
90.0
  0
LINE
  5
77F
100
AcDbEntity
  8
0
370
    -3
390
0
  6
Continuous
100
AcDbLine
 10
531.339599
 20
-110.087362
 30
0.0
 11
531.339599
 21
-82.09839
 31
0.0
  0
LINE
  5
780
100
AcDbEntity
  8
0
370
    -3
390
0
  6
Continuous
100
AcDbLine
 10
520.839599
 20
-73.09839
 30
0.0
 11
536.339599
 21
-73.09839
 31
0.0
  0
ARC
  5
781
100
AcDbEntity
  8
0
370
    -3
390
0
  6
Continuous
100
AcDbCircle
 10
455.339599
 20
-91.09839
 30
0.0
 40
14.0
100
AcDbArc
 50
46.037985
 51
184.654367
  0
LINE
  5
782
100
AcDbEntity
  8
0
370
    -3
390
0
  6
Continuous
100
AcDbLine
 10
491.339599
 20
-77.09839
 30
0.0
 11
536.339599
 21
-77.09839
 31
0.0
  0
LINE
  5
783
100
AcDbEntity
  8
0
370
    -3
390
0
  6
Continuous
100
AcDbLine
 10
491.339599
 20
-69.09839
 30
0.0
 11
521.089599
 21
-69.09839
 31
0.0
  0
LINE
  5
784
100
AcDbEntity
  8
0
370
    -3
390
0
  6
Continuous
100
AcDbLine
 10
536.339599
 20
-438.09839
 30
0.0
 11
422.339599
 21
-438.09839
 31
0.0
  0
LINE
  5
785
100
AcDbEntity
  8
0
370
    -3
390
0
  6
Continuous
100
AcDbLine
 10
406.339599
 20
-407.09839
 30
0.0
 11
410.728977
 21
-402.709012
 31
0.0
  0
ARC
  5
786
100
AcDbEntity
  8
0
370
    -3
390
0
  6
Continuous
100
AcDbCircle
 10
400.122375
 20
-392.102411
 30
0.0
 40
15.0
100
AcDbArc
 50
315.0
 51
29.687977
  0
ARC
  5
787
100
AcDbEntity
  8
0
370
    -3
390
0
  6
Continuous
100
AcDbCircle
 10
480.339599
 20
-340.09839
 30
0.0
 40
92.0
100
AcDbArc
 50
149.170445
 51
221.915906
  0
ARC
  5
788
100
AcDbEntity
  8
0
370
    -3
390
0
  6
Continuous
100
AcDbCircle
 10
405.637388
 20
-412.09839
 30
0.0
 40
5.0
100
AcDbArc
 50
45.0
 51
90.0
  0
LINE
  5
789
100
AcDbEntity
  8
0
370
    -3
390
0
  6
Continuous
100
AcDbLine
 10
405.637388
 20
-407.09839
 30
0.0
 11
346.339599
 21
-407.09839
 31
0.0
  0
LINE
  5
78A
100
AcDbEntity
  8
0
370
    -3
390
0
  6
Continuous
100
AcDbLine
 10
409.172922
 20
-408.562856
 30
0.0
 11
417.875132
 21
-417.265067
 31
0.0
  0
ARC
  5
78B
100
AcDbEntity
  8
0
370
    -3
390
0
  6
Continuous
100
AcDbCircle
 10
414.339599
 20
-420.800601
 30
0.0
 40
5.0
100
AcDbArc
 50
0.0
 51
45.0
  0
LINE
  5
78C
100
AcDbEntity
  8
0
370
    -3
390
0
  6
Continuous
100
AcDbLine
 10
419.339599
 20
-420.800601
 30
0.0
 11
419.339599
 21
-442.09839
 31
0.0
  0
LINE
  5
78D
100
AcDbEntity
  8
0
370
    -3
390
0
  6
Continuous
100
AcDbLine
 10
356.339599
 20
-297.035005
 30
0.0
 11
356.339599
 21
-382.09839
 31
0.0
  0
ARC
  5
78E
100
AcDbEntity
  8
0
370
    -3
390
0
  6
Continuous
100
AcDbCircle
 10
346.339599
 20
-412.09839
 30
0.0
 40
5.0
100
AcDbArc
 50
90.0
 51
180.0
  0
ARC
  5
78F
100
AcDbEntity
  8
0
370
    -3
390
0
  6
Continuous
100
AcDbCircle
 10
381.339599
 20
-382.09839
 30
0.0
 40
25.0
100
AcDbArc
 50
180.0
 51
270.0
  0
LINE
  5
790
100
AcDbEntity
  8
0
370
    -3
390
0
  6
Continuous
100
AcDbLine
 10
391.339599
 20
-407.09839
 30
0.0
 11
346.339599
 21
-407.09839
 31
0.0
  0
LINE
  5
791
100
AcDbEntity
  8
0
370
    -3
390
0
  6
Continuous
100
AcDbLine
 10
419.339599
 20
-438.09839
 30
0.0
 11
443.60026
 21
-424.091491
 31
0.0
  0
ARC
  5
792
100
AcDbEntity
  8
0
370
    -3
390
0
  6
Continuous
100
AcDbCircle
 10
422.339599
 20
-441.09839
 30
0.0
 40
3.0
100
AcDbArc
 50
90.0
 51
180.0
  0
LINE
  5
793
100
AcDbEntity
  8
0
370
    -3
390
0
  6
Continuous
100
AcDbLine
 10
419.339599
 20
-441.09839
 30
0.0
 11
419.339599
 21
-442.09839
 31
0.0
  0
LINE
  5
794
100
AcDbEntity
  8
0
370
    -3
390
0
  6
Continuous
100
AcDbLine
 10
341.339599
 20
-442.09839
 30
0.0
 11
419.339599
 21
-442.09839
 31
0.0
  0
ARC
  5
795
100
AcDbEntity
  8
0
370
    -3
390
0
  6
Continuous
100
AcDbCircle
 10
519.317554
 20
-436.09839
 30
0.0
 40
6.0
100
AcDbArc
 50
31.668243
 51
90.0
  0
LINE
  5
796
100
AcDbEntity
  8
0
370
    -3
390
0
  6
Continuous
100
AcDbLine
 10
461.260814
 20
-430.09839
 30
0.0
 11
536.339599
 21
-430.09839
 31
0.0
  0
ARC
  5
797
100
AcDbEntity
  8
0
370
    -3
390
0
  6
Continuous
100
AcDbCircle
 10
463.339599
 20
-224.09839
 30
0.0
 40
18.0
100
AcDbArc
 50
270.0
 51
0.0
  0
ARC
  5
798
100
AcDbEntity
  8
0
370
    -3
390
0
  6
Continuous
100
AcDbCircle
 10
400.339599
 20
-374.09839
 30
0.0
 40
1.0
100
AcDbArc
 50
0.0
 51
90.0
  0
ARC
  5
799
100
AcDbEntity
  8
0
370
    -3
390
0
  6
Continuous
100
AcDbCircle
 10
400.339599
 20
-372.09839
 30
0.0
 40
1.0
100
AcDbArc
 50
180.0
 51
270.0
  0
ARC
  5
79A
100
AcDbEntity
  8
0
370
    -3
390
0
  6
Continuous
100
AcDbCircle
 10
400.339599
 20
-334.09839
 30
0.0
 40
1.0
100
AcDbArc
 50
90.0
 51
180.0
  0
ARC
  5
79B
100
AcDbEntity
  8
0
370
    -3
390
0
  6
Continuous
100
AcDbCircle
 10
400.339599
 20
-332.09839
 30
0.0
 40
1.0
100
AcDbArc
 50
270.0
 51
0.0
  0
LINE
  5
79C
100
AcDbEntity
  8
0
370
    -3
390
0
  6
Continuous
100
AcDbLine
 10
399.339599
 20
-334.09839
 30
0.0
 11
399.339599
 21
-372.09839
 31
0.0
  0
ARC
  5
79D
100
AcDbEntity
  8
0
370
    -3
390
0
  6
Continuous
100
AcDbCircle
 10
491.339599
 20
-340.09839
 30
0.0
 40
90.0
100
AcDbArc
 50
180.0
 51
270.0
  0
ARC
  5
79E
100
AcDbEntity
  8
0
370
    -3
390
0
  6
Continuous
100
AcDbCircle
 10
480.339599
 20
-340.09839
 30
0.0
 40
92.0
100
AcDbArc
 50
246.2309
 51
258.031254
  0
ARC
  5
79F
100
AcDbEntity
  8
0
370
    -3
390
0
  6
Continuous
100
AcDbCircle
 10
451.10026
 20
-437.081872
 30
0.0
 40
15.0
100
AcDbArc
 50
67.465988
 51
120.0
  0
ARC
  5
7A0
100
AcDbEntity
  8
0
370
    -3
390
0
  6
Continuous
100
AcDbCircle
 10
459.507258
 20
-435.858578
 30
0.0
 40
6.0
100
AcDbArc
 50
73.746207
 51
149.135507
  0
ARC
  5
7A1
100
AcDbEntity
  8
0
370
    -3
390
0
  6
Continuous
100
AcDbCircle
 10
442.339599
 20
-425.59839
 30
0.0
 40
14.0
100
AcDbArc
 50
207.237755
 51
243.234499
  0
ARC
  5
7A2
100
AcDbEntity
  8
0
370
    -3
390
0
  6
Continuous
100
AcDbCircle
 10
442.339599
 20
-425.59839
 30
0.0
 40
14.0
100
AcDbArc
 50
296.765501
 51
329.135507
  0
ARC
  5
7A3
100
AcDbEntity
  8
0
370
    -3
390
0
  6
Continuous
100
AcDbCircle
 10
536.339599
 20
-212.09839
 30
0.0
 40
32.5
100
AcDbArc
 50
270.0
 51
73.92335
  0
LINE
  5
7A4
100
AcDbEntity
  8
0
370
    -3
390
0
  6
Continuous
100
AcDbLine
 10
545.339599
 20
-186.59839
 30
0.0
 11
545.339599
 21
-175.59839
 31
0.0
  0
LINE
  5
7A5
100
AcDbEntity
  8
0
370
    -3
390
0
  6
Continuous
100
AcDbLine
 10
536.339599
 20
-186.59839
 30
0.0
 11
545.339599
 21
-186.59839
 31
0.0
  0
LINE
  5
7A6
100
AcDbEntity
  8
0
370
    -3
390
0
  6
Continuous
100
AcDbLine
 10
536.339599
 20
-175.59839
 30
0.0
 11
545.339599
 21
-175.59839
 31
0.0
  0
ARC
  5
7A7
100
AcDbEntity
  8
0
370
    -3
390
0
  6
Continuous
100
AcDbCircle
 10
536.339599
 20
-212.09839
 30
0.0
 40
32.5
100
AcDbArc
 50
106.07665
 51
270.0
  0
LINE
  5
7A8
100
AcDbEntity
  8
0
370
    -3
390
0
  6
Continuous
100
AcDbLine
 10
536.339599
 20
-186.59839
 30
0.0
 11
527.339599
 21
-186.59839
 31
0.0
  0
LINE
  5
7A9
100
AcDbEntity
  8
0
370
    -3
390
0
  6
Continuous
100
AcDbLine
 10
536.339599
 20
-175.59839
 30
0.0
 11
527.339599
 21
-175.59839
 31
0.0
  0
LINE
  5
7AA
100
AcDbEntity
  8
0
370
    -3
390
0
  6
Continuous
100
AcDbLine
 10
527.339599
 20
-186.59839
 30
0.0
 11
527.339599
 21
-175.59839
 31
0.0
  0
ARC
  5
7AB
100
AcDbEntity
  8
0
370
    -3
390
0
  6
Continuous
100
AcDbCircle
 10
536.339599
 20
-425.59839
 30
0.0
 40
14.0
100
AcDbArc
 50
211.668243
 51
243.234499
  0
LINE
  5
7AC
100
AcDbEntity
  8
0
370
    -3
390
0
  6
CENTER
100
AcDbLine
 10
686.339599
 20
-450.909501
 30
0.0
 11
686.339599
 21
-398.764168
 31
0.0
  0
LINE
  5
7AD
100
AcDbEntity
  8
0
370
    -3
390
0
  6
CENTER
100
AcDbLine
 10
386.339599
 20
-450.909501
 30
0.0
 11
386.339599
 21
-398.764168
 31
0.0
  0
ARC
  5
7AE
100
AcDbEntity
  8
0
370
    -3
390
0
  6
Continuous
100
AcDbCircle
 10
551.839599
 20
-75.09839
 30
0.0
 40
2.0
100
AcDbArc
 50
0.0
 51
90.0
  0
ARC
  5
7AF
100
AcDbEntity
  8
0
370
    -3
390
0
  6
Continuous
100
AcDbCircle
 10
555.839599
 20
-75.09839
 30
0.0
 40
2.0
100
AcDbArc
 50
180.0
 51
270.0
  0
ARC
  5
7B0
100
AcDbEntity
  8
0
370
    -3
390
0
  6
Continuous
100
AcDbCircle
 10
520.839599
 20
-75.09839
 30
0.0
 40
2.0
100
AcDbArc
 50
90.0
 51
180.0
  0
ARC
  5
7B1
100
AcDbEntity
  8
0
370
    -3
390
0
  6
Continuous
100
AcDbCircle
 10
516.839599
 20
-75.09839
 30
0.0
 40
2.0
100
AcDbArc
 50
270.0
 51
0.0
  0
ARC
  5
7B2
100
AcDbEntity
  8
0
370
    -3
390
0
  6
Continuous
100
AcDbCircle
 10
677.737719
 20
-198.982599
 30
0.0
 40
3.0
100
AcDbArc
 50
315.430305
 51
26.861454
  0
LINE
  5
7B3
100
AcDbEntity
  8
0
370
    -3
390
0
  6
Continuous
100
AcDbLine
 10
393.339599
 20
-180.517847
 30
0.0
 11
393.090343
 21
-180.451058
 31
0.0
  0
LINE
  5
7B4
100
AcDbEntity
  8
0
370
    -3
390
0
  6
Continuous
100
AcDbLine
 10
393.339599
 20
-191.884681
 30
0.0
 11
387.923351
 21
-212.09839
 31
0.0
  0
LINE
  5
7B5
100
AcDbEntity
  8
0
370
    -3
390
0
  6
Continuous
100
AcDbLine
 10
393.090343
 20
-180.451058
 30
0.0
 11
384.610466
 21
-212.09839
 31
0.0
  0
LINE
  5
7B6
100
AcDbEntity
  8
0
370
    -3
390
0
  6
Continuous
100
AcDbLine
 10
380.660594
 20
-145.23532
 30
0.0
 11
272.682948
 21
-278.576608
 31
0.0
  0
LINE
  5
7B7
100
AcDbEntity
  8
0
370
    -3
390
0
  6
Continuous
100
AcDbLine
 10
384.398499
 20
-146.975455
 30
0.0
 11
273.008789
 21
-284.53029
 31
0.0
  0
POINT
  5
7B8
100
AcDbEntity
  8
0
370
    -3
390
0
  6
Continuous
100
AcDbPoint
 10
381.289915
 20
-144.458174
 30
0.0
  0
LINE
  5
7B9
100
AcDbEntity
  8
0
370
    -3
390
0
  6
Continuous
100
AcDbLine
 10
381.399722
 20
-152.267651
 30
0.0
 11
388.069634
 21
-157.668839
 31
0.0
  0
LINE
  5
7BA
100
AcDbEntity
  8
0
370
    -3
390
0
  6
Continuous
100
AcDbLine
 10
382.067061
 20
-145.087494
 30
0.0
 11
384.398499
 21
-146.975455
 31
0.0
  0
LINE
  5
7BB
100
AcDbEntity
  8
0
370
    -3
390
0
  6
Continuous
100
AcDbLine
 10
383.812475
 20
-148.164546
 30
0.0
 11
384.508306
 21
-154.784933
 31
0.0
  0
LINE
  5
7BC
100
AcDbEntity
  8
0
370
    -3
390
0
  6
Continuous
100
AcDbLine
 10
384.7637
 20
-147.648073
 30
0.0
 11
385.502828
 21
-154.680405
 31
0.0
  0
ARC
  5
7BD
100
AcDbEntity
  8
0
370
    -3
390
0
  6
Continuous
100
AcDbCircle
 10
381.43774
 20
-145.86464
 30
0.0
 40
1.0
100
AcDbArc
 50
51.0
 51
141.0
  0
ARC
  5
7BE
100
AcDbEntity
  8
0
370
    -3
390
0
  6
Continuous
100
AcDbCircle
 10
383.769178
 20
-147.752601
 30
0.0
 40
1.0
100
AcDbArc
 50
6.0
 51
51.0
  0
LINE
  5
7BF
100
AcDbEntity
  8
0
370
    -3
390
0
  6
Continuous
100
AcDbLine
 10
384.508306
 20
-154.784933
 30
0.0
 11
385.502828
 21
-154.680405
 31
0.0
  0
ARC
  5
7C0
100
AcDbEntity
  8
0
370
    -3
390
0
  6
Continuous
100
AcDbCircle
 10
374.455215
 20
-143.36423
 30
0.0
 40
6.0
100
AcDbArc
 50
255.0
 51
321.0
  0
ARC
  5
7C1
100
AcDbEntity
  8
0
370
    -3
390
0
  6
Continuous
100
AcDbCircle
 10
383.287684
 20
-149.936214
 30
0.0
 40
3.0
100
AcDbArc
 50
211.528779
 51
231.0
  0
ARC
  5
7C2
100
AcDbEntity
  8
0
370
    -3
390
0
  6
Continuous
100
AcDbCircle
 10
382.817954
 20
-148.269074
 30
0.0
 40
1.0
100
AcDbArc
 50
6.0
 51
26.530199
  0
LINE
  5
7C3
100
AcDbEntity
  8
0
370
    -3
390
0
  6
Continuous
100
AcDbLine
 10
390.762477
 20
-165.956559
 30
0.0
 11
364.442781
 21
-264.183003
 31
0.0
  0
ARC
  5
7C4
100
AcDbEntity
  8
0
370
    -3
390
0
  6
Continuous
100
AcDbCircle
 10
383.035071
 20
-163.886007
 30
0.0
 40
8.0
100
AcDbArc
 50
345.0
 51
51.0
  0
POINT
  5
7C5
100
AcDbEntity
  8
0
370
    -3
390
0
  6
Continuous
100
AcDbPoint
 10
298.515177
 20
-165.472128
 30
0.0
  0
POINT
  5
7C6
100
AcDbEntity
  8
0
370
    -3
390
0
  6
Continuous
100
AcDbPoint
 10
314.430014
 20
-133.492183
 30
0.0
  0
LINE
  5
7C7
100
AcDbEntity
  8
0
370
    -3
390
0
  6
Continuous
100
AcDbLine
 10
322.711466
 20
-135.711192
 30
0.0
 11
372.902301
 21
-149.159785
 31
0.0
  0
ARC
  5
7C8
100
AcDbEntity
  8
0
370
    -3
390
0
  6
Continuous
100
AcDbCircle
 10
565.607151
 20
-278.440608
 30
0.0
 40
290.0
100
AcDbArc
 50
151.738799
 51
178.382238
  0
ARC
  5
7C9
100
AcDbEntity
  8
0
370
    -3
390
0
  6
Continuous
100
AcDbCircle
 10
319.864457
 20
-146.336376
 30
0.0
 40
11.0
100
AcDbArc
 50
75.0
 51
122.846106
  0
ARC
  5
7CA
100
AcDbEntity
  8
0
370
    -3
390
0
  6
Continuous
100
AcDbCircle
 10
319.864457
 20
-146.336376
 30
0.0
 40
11.0
100
AcDbArc
 50
122.846106
 51
151.738799
  0
POINT
  5
7CB
100
AcDbEntity
  8
0
370
    -3
390
0
  6
Continuous
100
AcDbPoint
 10
269.900206
 20
-282.013009
 30
0.0
  0
LINE
  5
7CC
100
AcDbEntity
  8
0
370
    -3
390
0
  6
CENTER
100
AcDbLine
 10
320.528385
 20
-265.79822
 30
0.0
 11
311.11443
 21
-300.931579
 31
0.0
  0
LINE
  5
7CD
100
AcDbEntity
  8
0
370
    -3
390
0
  6
Continuous
100
AcDbLine
 10
270.677352
 20
-282.642329
 30
0.0
 11
270.922543
 21
-282.840881
 31
0.0
  0
ARC
  5
7CE
100
AcDbEntity
  8
0
370
    -3
390
0
  6
Continuous
100
AcDbCircle
 10
271.306672
 20
-281.865183
 30
0.0
 40
1.0
100
AcDbArc
 50
141.0
 51
231.0
  0
LINE
  5
7CF
100
AcDbEntity
  8
0
370
    -3
390
0
  6
CENTER
100
AcDbLine
 10
269.244837
 20
-267.327947
 30
0.0
 11
279.931314
 21
-275.981685
 31
0.0
  0
ARC
  5
7D0
100
AcDbEntity
  8
0
370
    -3
390
0
  6
Continuous
100
AcDbCircle
 10
261.728322
 20
-269.858225
 30
0.0
 40
14.0
100
AcDbArc
 50
321.0
 51
358.382238
  0
LINE
  5
7D1
100
AcDbEntity
  8
0
370
    -3
390
0
  6
Continuous
100
AcDbLine
 10
277.563789
 20
-278.905335
 30
0.0
 11
341.339599
 21
-295.994012
 31
0.0
  0
LINE
  5
7D2
100
AcDbEntity
  8
0
370
    -3
390
0
  6
Continuous
100
AcDbLine
 10
272.682948
 20
-278.576608
 30
0.0
 11
270.529526
 21
-281.235863
 31
0.0
  0
LINE
  5
7D3
100
AcDbEntity
  8
0
370
    -3
390
0
  6
Continuous
100
AcDbLine
 10
270.922543
 20
-282.840881
 30
0.0
 11
273.008789
 21
-284.53029
 31
0.0
  0
LINE
  5
7D4
100
AcDbEntity
  8
0
370
    -3
390
0
  6
Continuous
100
AcDbLine
 10
387.294791
 20
-178.898146
 30
0.0
 11
393.090346
 21
-180.45106
 31
0.0
  0
LINE
  5
7D5
100
AcDbEntity
  8
0
370
    -3
390
0
  6
Continuous
100
AcDbLine
 10
357.040401
 20
-291.809061
 30
0.0
 11
357.012961
 21
-291.911467
 31
0.0
  0
LINE
  5
7D6
100
AcDbEntity
  8
0
370
    -3
390
0
  6
Continuous
100
AcDbLine
 10
378.339599
 20
-235.501586
 30
0.0
 11
372.970239
 21
-255.540309
 31
0.0
  0
LINE
  5
7D7
100
AcDbEntity
  8
0
370
    -3
390
0
  6
CENTER
100
AcDbLine
 10
276.781157
 20
-201.049912
 30
0.0
 11
414.492178
 21
-237.949474
 31
0.0
  0
ARC
  5
7D8
100
AcDbEntity
  8
0
370
    -3
390
0
  6
Continuous
100
AcDbCircle
 10
679.703323
 20
-199.911646
 30
0.0
 40
3.0
100
AcDbArc
 50
315.0
 51
30.0
  0
ARC
  5
7D9
100
AcDbEntity
  8
0
370
    -3
390
0
  6
Continuous
100
AcDbCircle
 10
679.703323
 20
-199.911646
 30
0.0
 40
2.0
100
AcDbArc
 50
315.0
 51
30.0
  0
LINE
  5
7DA
100
AcDbEntity
  8
0
370
    -3
390
0
  6
Continuous
100
AcDbLine
 10
679.874911
 20
-201.087928
 30
0.0
 11
679.339599
 21
-201.631342
 31
0.0
  0
ARC
  5
7DB
100
AcDbEntity
  8
0
370
    -3
390
0
  6
Continuous
100
AcDbCircle
 10
536.339599
 20
-270.59839
 30
0.0
 40
161.5
100
AcDbArc
 50
26.861454
 51
27.693184
  0
ARC
  5
7DC
100
AcDbEntity
  8
0
370
    -3
390
0
  6
Continuous
100
AcDbCircle
 10
677.737719
 20
-198.982599
 30
0.0
 40
3.0
100
AcDbArc
 50
315.430305
 51
26.861454
  0
LINE
  5
7DD
100
AcDbEntity
  8
0
370
    -3
390
0
  6
Continuous
100
AcDbLine
 10
679.339599
 20
-195.281656
 30
0.0
 11
681.435374
 21
-198.911646
 31
0.0
  0
ARC
  5
7DE
100
AcDbEntity
  8
0
370
    -3
390
0
  6
Continuous
100
AcDbCircle
 10
679.703323
 20
-199.911646
 30
0.0
 40
2.0
100
AcDbArc
 50
315.0
 51
30.0
  0
LINE
  5
7DF
100
AcDbEntity
  8
0
370
    -3
390
0
  6
Continuous
100
AcDbLine
 10
681.117537
 20
-201.325859
 30
0.0
 11
679.339599
 21
-203.103798
 31
0.0
  0
LINE
  5
7E0
100
AcDbEntity
  8
0
370
    -3
390
0
  6
Continuous
100
AcDbLine
 10
679.339599
 20
-193.281656
 30
0.0
 11
682.3014
 21
-198.411646
 31
0.0
  0
ARC
  5
7E1
100
AcDbEntity
  8
0
370
    -3
390
0
  6
Continuous
100
AcDbCircle
 10
679.703323
 20
-199.911646
 30
0.0
 40
3.0
100
AcDbArc
 50
315.0
 51
30.0
  0
LINE
  5
7E2
100
AcDbEntity
  8
0
370
    -3
390
0
  6
Continuous
100
AcDbLine
 10
681.824644
 20
-202.032966
 30
0.0
 11
679.339599
 21
-204.518012
 31
0.0
  0
LINE
  5
7E3
100
AcDbEntity
  8
0
370
    -3
390
0
  6
CENTER
100
AcDbLine
 10
-60.387386
 20
-212.09839
 30
0.0
 11
144.680248
 21
-212.09839
 31
0.0
  0
LINE
  5
7E4
100
AcDbEntity
  8
0
370
    -3
390
0
  6
CENTER
100
AcDbLine
 10
-528.360463
 20
-58.79839
 30
0.0
 11
-528.360463
 21
-134.163891
 31
0.0
  0
ARC
  5
7E5
100
AcDbEntity
  8
0
370
    -3
390
0
  6
DIVIDE
100
AcDbCircle
 10
-277.360463
 20
-142.59839
 30
0.0
 40
3.0
100
AcDbArc
 50
270.0
 51
0.0
  0
LINE
  5
7E6
100
AcDbEntity
  8
0
370
    -3
390
0
  6
Continuous
100
AcDbLine
 10
-254.360463
 20
-116.59839
 30
0.0
 11
-239.965423
 21
-118.631183
 31
0.0
  0
LINE
  5
7E7
100
AcDbEntity
  8
0
370
    -3
390
0
  6
Continuous
100
AcDbLine
 10
-254.360463
 20
-116.59839
 30
0.0
 11
-268.755503
 21
-118.631183
 31
0.0
  0
ARC
  5
7E8
100
AcDbEntity
  8
0
370
    -3
390
0
  6
Continuous
100
AcDbCircle
 10
-268.340612
 20
-121.19839
 30
0.0
 40
2.599999
100
AcDbArc
 50
97.066117
 51
174.999828
  0
LINE
  5
7E9
100
AcDbEntity
  8
0
370
    -3
390
0
  6
Continuous
100
AcDbLine
 10
-271.860469
 20
-131.598352
 30
0.0
 11
-270.93072
 21
-120.971742
 31
0.0
  0
ARC
  5
7EA
100
AcDbEntity
  8
0
370
    -3
390
0
  6
Continuous
100
AcDbCircle
 10
-275.769734
 20
-130.386602
 30
0.0
 40
4.0
100
AcDbArc
 50
354.999792
 51
57.640222
  0
ARC
  5
7EB
100
AcDbEntity
  8
0
370
    -3
390
0
  6
Continuous
100
AcDbCircle
 10
-271.360463
 20
-134.59839
 30
0.0
 40
3.0
100
AcDbArc
 50
90.0
 51
180.0
  0
LINE
  5
7EC
100
AcDbEntity
  8
0
370
    -3
390
0
  6
Continuous
100
AcDbLine
 10
-274.360463
 20
-134.59839
 30
0.0
 11
-274.360463
 21
-142.59839
 31
0.0
  0
ARC
  5
7ED
100
AcDbEntity
  8
0
370
    -3
390
0
  6
Continuous
100
AcDbCircle
 10
-254.360463
 20
-96.59839
 30
0.0
 40
20.0
100
AcDbArc
 50
270.0
 51
90.0
  0
ARC
  5
7EE
100
AcDbEntity
  8
0
370
    -3
390
0
  6
Continuous
100
AcDbCircle
 10
-254.360463
 20
-96.59839
 30
0.0
 40
36.0
100
AcDbArc
 50
337.698558
 51
90.0
  0
LINE
  5
7EF
100
AcDbEntity
  8
0
370
    -3
390
0
  6
CENTER
100
AcDbLine
 10
-254.360463
 20
-57.455787
 30
0.0
 11
-254.360463
 21
-152.543635
 31
0.0
  0
ARC
  5
7F0
100
AcDbEntity
  8
0
370
    -3
390
0
  6
Continuous
100
AcDbCircle
 10
-254.360463
 20
-96.59839
 30
0.0
 40
20.0
100
AcDbArc
 50
90.0
 51
270.0
  0
ARC
  5
7F1
100
AcDbEntity
  8
0
370
    -3
390
0
  6
Continuous
100
AcDbCircle
 10
-254.360463
 20
-96.59839
 30
0.0
 40
36.0
100
AcDbArc
 50
90.0
 51
237.640241
  0
LINE
  5
7F2
100
AcDbEntity
  8
0
370
    -3
390
0
  6
CENTER
100
AcDbLine
 10
-215.74613
 20
-96.59839
 30
0.0
 11
-296.14727
 21
-96.59839
 31
0.0
  0
LINE
  5
7F3
100
AcDbEntity
  8
0
370
    -3
390
0
  6
Continuous
100
AcDbLine
 10
-271.360463
 20
-131.59839
 30
0.0
 11
-250.360426
 21
-131.59839
 31
0.0
  0
ARC
  5
7F4
100
AcDbEntity
  8
0
370
    -3
390
0
  6
Continuous
100
AcDbCircle
 10
-240.380314
 20
-121.19839
 30
0.0
 40
2.599999
100
AcDbArc
 50
39.025497
 51
82.933883
  0
MTEXT
  5
7F6
100
AcDbEntity
  8
0
370
    -3
390
0
  6
Continuous
100
AcDbMText
 10
415.636536
 20
275.707489
 30
0.0
 40
16.0
 41
0.0
 71
     7
 72
     1
  1
\W0.83;三菱ギヤードモータ  
  7
ZU_SHPTB00001
 11
1.0
 21
0.0
 31
0.0
 73
     1
 44
1.0
  0
MTEXT
  5
7F7
100
AcDbEntity
  8
0
370
    -3
390
0
  6
Continuous
100
AcDbMText
 10
415.636536
 20
254.507507
 30
0.0
 40
16.0
 41
0.0
 71
     7
 72
     1
  1
\W0.60;GM-LJP
  7
ZU_SHPTB00001
 11
1.0
 21
0.0
 31
0.0
 73
     1
 44
1.0
  0
MTEXT
  5
7F8
100
AcDbEntity
  8
0
370
    -3
390
0
  6
Continuous
100
AcDbMText
 10
415.636536
 20
233.30751
 30
0.0
 40
16.0
 41
0.0
 71
     7
 72
     1
  1
\W0.60;15(kW)
  7
ZU_SHPTB00001
 11
1.0
 21
0.0
 31
0.0
 73
     1
 44
1.0
  0
MTEXT
  5
7F9
100
AcDbEntity
  8
0
370
    -3
390
0
  6
Continuous
100
AcDbMText
 10
415.636536
 20
212.107498
 30
0.0
 40
16.0
 41
0.0
 71
     7
 72
     1
  1
\W0.60;1/10
  7
ZU_SHPTB00001
 11
1.0
 21
0.0
 31
0.0
 73
     1
 44
1.0
  0
MTEXT
  5
7FA
100
AcDbEntity
  8
0
370
    -3
390
0
  6
Continuous
100
AcDbMText
 10
415.636536
 20
190.907501
 30
0.0
 40
16.0
 41
0.0
 71
     7
 72
     1
  1
\W1.00;ｷﾞﾔｻｲｽﾞ\W1.00; \W0.60;L
  7
ZU_SHPTB00001
 11
1.0
 21
0.0
 31
0.0
 73
     1
 44
1.0
  0
MTEXT
  5
7FB
100
AcDbEntity
  8
0
370
    -3
390
0
  6
Continuous
100
AcDbMText
 10
415.636536
 20
169.707504
 30
0.0
 40
16.0
 41
0.0
 71
     7
 72
     1
  1
\W0.60;SCALE\W1.00; \W0.60;1/1
  7
ZU_SHPTB00001
 11
1.0
 21
0.0
 31
0.0
 73
     1
 44
1.0
  0
ENDSEC
  0
SECTION
  2
OBJECTS
  0
DICTIONARY
  5
19
100
AcDbDictionary
280
     0
281
     1
  3
ACAD_GROUP
350
1A
  3
ACAD_MLINESTYLE
350
1B
  3
ACAD_LAYOUT
350
1E
  3
ACAD_PLOTSETTINGS
350
22
  3
ACAD_PLOTSTYLENAME
350
1F
  3
ACAD_WIPEOUT_VARS
350
23
  3
DWGPROPS
350
7FC
  0
DICTIONARY
  5
1A
102
{ACAD_REACTORS
330
19
102
}
100
AcDbDictionary
280
     0
281
     1
  0
DICTIONARY
  5
1B
102
{ACAD_REACTORS
330
19
102
}
100
AcDbDictionary
280
     0
281
     1
  3
Standard
350
1C
  0
MLINESTYLE
  5
1C
102
{ACAD_REACTORS
330
1B
102
}
100
AcDbMlineStyle
  2
Standard
 70
     0
  3

 62
     0
 51
90.0
 52
90.0
 71
     2
 49
0.5
 62
   256
  6
ByLayer
 49
-0.5
 62
   256
  6
ByLayer
  0
ACDBDICTIONARYWDFLT
  5
1F
102
{ACAD_REACTORS
330
19
102
}
100
AcDbDictionary
281
     1
  3
Normal
350
1D
100
AcDbDictionaryWithDefault
340
1D
  0
ACDBPLACEHOLDER
  5
1D
102
{ACAD_REACTORS
330
1F
102
}
  0
LAYOUT
  5
20
102
{ACAD_REACTORS
330
1E
102
}
100
AcDbPlotSettings
  1

  2

  4

  6

 40
0.0
 41
0.0
 42
0.0
 43
0.0
 44
0.0
 45
0.0
 46
0.0
 47
0.0
 48
0.0
 49
0.0
140
0.0
141
0.0
142
1.0
143
1.0
 70
  1024
 72
     0
 73
     0
 74
     0
  7

 75
     0
147
1.0
148
0.0
149
0.0
100
AcDbLayout
  1
Model
 70
     0
 71
     0
 10
0.0
 20
0.0
 11
0.0
 21
0.0
 12
0.0
 22
0.0
 32
0.0
 14
0.0
 24
0.0
 34
0.0
 15
0.0
 25
0.0
 35
0.0
146
0.0
 13
0.0
 23
0.0
 33
0.0
 16
0.0
 26
0.0
 36
0.0
 17
0.0
 27
0.0
 37
0.0
 76
     0
330
A
331
0
345
0
346
0
  0
LAYOUT
  5
21
102
{ACAD_REACTORS
330
1E
102
}
100
AcDbPlotSettings
  1

  2

  4

  6

 40
0.0
 41
0.0
 42
0.0
 43
0.0
 44
0.0
 45
0.0
 46
0.0
 47
0.0
 48
0.0
 49
0.0
140
0.0
141
0.0
142
1.0
143
1.0
 70
     0
 72
     0
 73
     0
 74
     0
  7

 75
     0
147
1.0
148
0.0
149
0.0
100
AcDbLayout
  1
Layout1
 70
     0
 71
     0
 10
0.0
 20
0.0
 11
0.0
 21
0.0
 12
0.0
 22
0.0
 32
0.0
 14
0.0
 24
0.0
 34
0.0
 15
0.0
 25
0.0
 35
0.0
146
0.0
 13
0.0
 23
0.0
 33
0.0
 16
0.0
 26
0.0
 36
0.0
 17
0.0
 27
0.0
 37
0.0
 76
     0
330
B
331
0
345
0
346
0
  0
DICTIONARY
  5
1E
102
{ACAD_REACTORS
330
19
102
}
100
AcDbDictionary
280
     0
281
     1
  3
Layout1
350
21
  3
Model
350
20
  0
DICTIONARY
  5
22
102
{ACAD_REACTORS
330
19
102
}
100
AcDbDictionary
280
     0
281
     1
  0
WIPEOUTVARIABLES
  5
23
100
AcDbWipeoutVariables
 70
     1
  0
XRECORD
  5
7FC
100
AcDbXrecord
280
     1
  1
DWGPROPS COOKIE
  2

  3

  4

  6

  7

  8
YP81315
  9

300
=
301
=
302
=
303
=
304
=
305
=
306
=
307
=
308
=
309
=
 40
0.0
 41
2456813.62728
 42
2456813.62728
  1

 90
        0
  0
ENDSEC
  0
EOF
