  0
SECTION
  2
HEADER
  9
$ACADVER
  1
AC1015
  9
$ACADMAINTVER
 70
     6
  9
$DWGCODEPAGE
  3
ANSI_932
  9
$INSBASE
 10
0.0
 20
0.0
 30
0.0
  9
$EXTMIN
 10
1.000000E+20
 20
1.000000E+20
 30
1.000000E+20
  9
$EXTMAX
 10
-1.000000E+20
 20
-1.000000E+20
 30
-1.000000E+20
  9
$LIMMIN
 10
0.0
 20
0.0
  9
$LIMMAX
 10
0.0
 20
0.0
  9
$ORTHOMODE
 70
     0
  9
$REGENMODE
 70
     1
  9
$FILLMODE
 70
     1
  9
$QTEXTMODE
 70
     0
  9
$MIRRTEXT
 70
     1
  9
$LTSCALE
 40
1.0
  9
$ATTMODE
 70
     1
  9
$TEXTSIZE
 40
3.2
  9
$TRACEWID
 40
0.05
  9
$TEXTSTYLE
  7
Standard
  9
$CLAYER
  8
0
  9
$CELTYPE
  6
Continuous
  9
$CECOLOR
 62
   256
  9
$CELTSCALE
 40
1.0
  9
$DISPSILH
 70
     0
  9
$DIMSCALE
 40
1.0
  9
$DIMASZ
 40
1.931852
  9
$DIMEXO
 40
1.0
  9
$DIMDLI
 40
0.38
  9
$DIMRND
 40
0.0
  9
$DIMDLE
 40
0.0
  9
$DIMEXE
 40
2.0
  9
$DIMTP
 40
0.0
  9
$DIMTM
 40
0.0
  9
$DIMTXT
 40
2.8
  9
$DIMCEN
 40
0.09
  9
$DIMTSZ
 40
0.0
  9
$DIMTOL
 70
     0
  9
$DIMLIM
 70
     0
  9
$DIMTIH
 70
     1
  9
$DIMTOH
 70
     1
  9
$DIMSE1
 70
     0
  9
$DIMSE2
 70
     0
  9
$DIMTAD
 70
     1
  9
$DIMZIN
 70
     0
  9
$DIMBLK
  1

  9
$DIMASO
 70
     1
  9
$DIMSHO
 70
     1
  9
$DIMPOST
  1

  9
$DIMAPOST
  1

  9
$DIMALT
 70
     0
  9
$DIMALTD
 70
     2
  9
$DIMALTF
 40
25.4
  9
$DIMLFAC
 40
1.0
  9
$DIMTOFL
 70
     0
  9
$DIMTVP
 40
0.0
  9
$DIMTIX
 70
     0
  9
$DIMSOXD
 70
     0
  9
$DIMSAH
 70
     0
  9
$DIMBLK1
  1

  9
$DIMBLK2
  1

  9
$DIMSTYLE
  2
Standard
  9
$DIMCLRD
 70
     0
  9
$DIMCLRE
 70
     0
  9
$DIMCLRT
 70
     0
  9
$DIMTFAC
 40
0.625
  9
$DIMGAP
 40
0.09
  9
$DIMJUST
 70
     0
  9
$DIMSD1
 70
     0
  9
$DIMSD2
 70
     0
  9
$DIMTOLJ
 70
     1
  9
$DIMTZIN
 70
     0
  9
$DIMALTZ
 70
     0
  9
$DIMALTTZ
 70
     0
  9
$DIMUPT
 70
     0
  9
$DIMDEC
 70
     4
  9
$DIMTDEC
 70
     4
  9
$DIMALTU
 70
     2
  9
$DIMALTTD
 70
     2
  9
$DIMTXSTY
  7
Standard
  9
$DIMAUNIT
 70
     0
  9
$DIMADEC
 70
     0
  9
$DIMALTRND
 40
0.0
  9
$DIMAZIN
 70
     0
  9
$DIMDSEP
 70
     0
  9
$DIMATFIT
 70
     3
  9
$DIMFRAC
 70
     0
  9
$DIMLDRBLK
  1

  9
$DIMLUNIT
 70
     2
  9
$DIMLWD
 70
     0
  9
$DIMLWE
 70
     0
  9
$DIMTMOVE
 70
     0
  9
$LUNITS
 70
     2
  9
$LUPREC
 70
     3
  9
$SKETCHINC
 40
0.1
  9
$FILLETRAD
 40
0.0
  9
$AUNITS
 70
     0
  9
$AUPREC
 70
     0
  9
$MENU
  1
acad
  9
$ELEVATION
 40
0.0
  9
$PELEVATION
 40
0.0
  9
$THICKNESS
 40
0.0
  9
$LIMCHECK
 70
     0
  9
$CHAMFERA
 40
0.0
  9
$CHAMFERB
 40
0.0
  9
$CHAMFERC
 40
0.0
  9
$CHAMFERD
 40
0.0
  9
$SKPOLY
 70
     0
  9
$TDCREATE
 40
0.000000000
  9
$TDUCREATE
 40
0.000000000
  9
$TDUPDATE
 40
0.000000000
  9
$TDUUPDATE
 40
0.000000000
  9
$TDINDWG
 40
0.0000000000
  9
$TDUSRTIMER
 40
0.0000000000
  9
$USRTIMER
 70
     1
  9
$ANGBASE
 50
0.0
  9
$ANGDIR
 70
     0
  9
$PDMODE
 70
     0
  9
$PDSIZE
 40
0.0
  9
$PLINEWID
 40
0.0
  9
$SPLFRAME
 70
     0
  9
$SPLINETYPE
 70
     6
  9
$SPLINESEGS
 70
     8
  9
$HANDSEED
  5
806
  9
$SURFTAB1
 70
     6
  9
$SURFTAB2
 70
     6
  9
$SURFTYPE
 70
     6
  9
$SURFU
 70
     6
  9
$SURFV
 70
     6
  9
$UCSBASE
  2

  9
$UCSNAME
  2

  9
$UCSORG
 10
0.0
 20
0.0
 30
0.0
  9
$UCSXDIR
 10
1.0
 20
0.0
 30
0.0
  9
$UCSYDIR
 10
0.0
 20
1.0
 30
0.0
  9
$UCSORTHOREF
  2

  9
$UCSORTHOVIEW
 70
     0
  9
$UCSORGTOP
 10
0.0
 20
0.0
 30
0.0
  9
$UCSORGBOTTOM
 10
0.0
 20
0.0
 30
0.0
  9
$UCSORGLEFT
 10
0.0
 20
0.0
 30
0.0
  9
$UCSORGRIGHT
 10
0.0
 20
0.0
 30
0.0
  9
$UCSORGFRONT
 10
0.0
 20
0.0
 30
0.0
  9
$UCSORGBACK
 10
0.0
 20
0.0
 30
0.0
  9
$PUCSBASE
  2

  9
$PUCSNAME
  2

  9
$PUCSORG
 10
0.0
 20
0.0
 30
0.0
  9
$PUCSXDIR
 10
1.0
 20
0.0
 30
0.0
  9
$PUCSYDIR
 10
0.0
 20
1.0
 30
0.0
  9
$PUCSORTHOREF
  2

  9
$PUCSORTHOVIEW
 70
     0
  9
$PUCSORGTOP
 10
0.0
 20
0.0
 30
0.0
  9
$PUCSORGBOTTOM
 10
0.0
 20
0.0
 30
0.0
  9
$PUCSORGLEFT
 10
0.0
 20
0.0
 30
0.0
  9
$PUCSORGRIGHT
 10
0.0
 20
0.0
 30
0.0
  9
$PUCSORGFRONT
 10
0.0
 20
0.0
 30
0.0
  9
$PUCSORGBACK
 10
0.0
 20
0.0
 30
0.0
  9
$USERI1
 70
     0
  9
$USERI2
 70
     0
  9
$USERI3
 70
     0
  9
$USERI4
 70
     0
  9
$USERI5
 70
     0
  9
$USERR1
 40
0.0
  9
$USERR2
 40
0.0
  9
$USERR3
 40
0.0
  9
$USERR4
 40
0.0
  9
$USERR5
 40
0.0
  9
$WORLDVIEW
 70
     1
  9
$SHADEDGE
 70
     3
  9
$SHADEDIF
 70
    70
  9
$TILEMODE
 70
     1
  9
$MAXACTVP
 70
    16
  9
$PINSBASE
 10
0.0
 20
0.0
 30
0.0
  9
$PLIMCHECK
 70
     0
  9
$PEXTMIN
 10
1.000000E+20
 20
1.000000E+20
 30
1.000000E+20
  9
$PEXTMAX
 10
-1.000000E+20
 20
-1.000000E+20
 30
-1.000000E+20
  9
$PLIMMIN
 10
0.0
 20
0.0
  9
$PLIMMAX
 10
12.0
 20
9.0
  9
$UNITMODE
 70
     0
  9
$VISRETAIN
 70
     0
  9
$PLINEGEN
 70
     1
  9
$PSLTSCALE
 70
     0
  9
$TREEDEPTH
 70
  3020
  9
$CMLSTYLE
  2
Standard
  9
$CMLJUST
 70
     0
  9
$CMLSCALE
 40
1.0
  9
$PROXYGRAPHICS
 70
     0
  9
$MEASUREMENT
 70
     0
  9
$CELWEIGHT
370
     0
  9
$ENDCAPS
280
     0
  9
$JOINSTYLE
280
     0
  9
$LWDISPLAY
290
     0
  9
$INSUNITS
 70
     0
  9
$HYPERLINKBASE
  1

  9
$STYLESHEET
  1

  9
$XEDIT
290
     1
  9
$CEPSNTYPE
380
     0
  9
$PSTYLEMODE
290
     1
  9
$FINGERPRINTGUID
  2

  9
$VERSIONGUID
  2

  9
$EXTNAMES
290
     1
  9
$PSVPSCALE
 40
0.0
  0
ENDSEC
  0
SECTION
  2
CLASSES
  0
CLASS
  1
LWPOLYLINE
  2
AcDbPolyline
  3
AutoCAD 2000
 90
        0
280
     0
281
     1
  0
CLASS
  1
IMAGE
  2
AcDbRasterImage
  3
ISM
 90
      127
280
     0
281
     1
  0
CLASS
  1
OLE2FRAME
  2
AcDbOle2Frame
  3
AutoCAD 2000
 90
        0
280
     0
281
     1
  0
CLASS
  1
HATCH
  2
AcDbHatch
  3
AutoCAD 2000
 90
        0
280
     0
281
     1
  0
CLASS
  1
DICTIONARYVAR
  2
AcDbDictionaryVar
  3
AutoCAD 2000
 90
        0
280
     0
281
     0
  0
CLASS
  1
RASTERVARIABLES
  2
AcDbRasterVariables
  3
ISM
 90
        0
280
     0
281
     0
  0
CLASS
  1
IMAGEDEF
  2
AcDbRasterImageDef
  3
ISM
 90
        0
280
     0
281
     0
  0
CLASS
  1
IMAGEDEF_REACTOR
  2
AcDbRasterImageDefReactor
  3
ISM
 90
        1
280
     0
281
     0
  0
CLASS
  1
IDBUFFER
  2
AcDbIdBuffer
  3
AutoCAD 2000
 90
        0
280
     0
281
     0
  0
CLASS
  1
SPATIAL_FILTER
  2
AcDbSpatialFilter
  3
AutoCAD 2000
 90
        0
280
     0
281
     0
  0
CLASS
  1
XRECORD
  2
AcDbXrecord
  3
AutoCAD 2000
 90
        0
280
     0
281
     0
  0
CLASS
  1
SORTENTSTABLE
  2
AcDbSortentsTable
  3
AutoCAD 2000
 90
        0
280
     0
281
     0
  0
CLASS
  1
LAYER_INDEX
  2
AcDbLayerIndex
  3
AutoCAD 2000
 90
        0
280
     0
281
     0
  0
CLASS
  1
SPATIAL_INDEX
  2
AcDbSpatialIndex
  3
AutoCAD 2000
 90
        0
280
     0
281
     0
  0
CLASS
  1
OBJECT_PTR
  2
CAseDLPNTableRecord
  3
"ASE-LPNTableRecord"
 90
        1
280
     0
281
     0
  0
CLASS
  1
LAYOUT
  2
AcDbLayout
  3
AutoCAD 2000
 90
        0
280
     0
281
     0
  0
CLASS
  1
PLOTSETTINGS
  2
AcDbPlotSettings
  3
AutoCAD 2000
 90
        0
280
     0
281
     0
  0
CLASS
  1
ACDBDICTIONARYWDFLT
  2
AcDbDictionaryWithDefault
  3
AutoCAD 2000
 90
        0
280
     0
281
     0
  0
CLASS
  1
ACDBPLACEHOLDER
  2
AcDbPlaceHolder
  3
AutoCAD 2000
 90
        0
280
     0
281
     0
  0
CLASS
  1
VBA_PROJECT
  2
AcDbVbaProject
  3
acadvba
 90
        0
280
     0
281
     0
  0
CLASS
  1
WIPEOUT
  2
AcDbWipeout
  3
WipeOut|AutoCAD Express Tool|expresstools@autodesk.com
 90
      127
280
     0
281
     1
  0
CLASS
  1
WIPEOUTVARIABLES
  2
AcDbWipeoutVariables
  3
WipeOut|AutoCAD Express Tool|expresstools@autodesk.com
 90
        0
280
     0
281
     0
  0
CLASS
  1
RTEXT
  2
RText
  3
RText|AutoCAD Express Tool|expresstools@autodesk.com
 90
        0
280
     0
281
     1
  0
CLASS
  1
ARCALIGNEDTEXT
  2
AcDbArcAlignedText
  3
ATEXT|AutoCAD Express Tool|expresstools@autodesk.com
 90
        0
280
     0
281
     1
  0
ENDSEC
  0
SECTION
  2
TABLES
  0
TABLE
  2
VPORT
  5
7
100
AcDbSymbolTable
 70
     1
  0
VPORT
  5
15
100
AcDbSymbolTableRecord
100
AcDbViewportTableRecord
  2
*ACTIVE
 70
     0
 10
0.0
 20
0.0
 11
1.0
 21
1.0
 12
0.0
 22
0.0
 13
0.0
 23
0.0
 14
1.0
 24
1.0
 15
0.0
 25
0.0
 16
0.0
 26
0.0
 36
1.0
 17
0.0
 27
0.0
 37
0.0
 40
100.0
 41
1.0
 42
50.0
 43
0.0
 44
0.0
 50
0.0
 51
0.0
 71
     0
 72
   100
 73
     1
 74
     1
 75
     0
 76
     0
 77
     0
 78
     0
281
     0
 65
     0
110
0.0
120
0.0
130
0.0
111
1.0
121
0.0
131
0.0
112
0.0
122
1.0
132
0.0
345
0
346
0
 79
     0
146
0.0
  0
ENDTAB
  0
TABLE
  2
LTYPE
  5
4
100
AcDbSymbolTable
 70
     7
  0
LTYPE
  5
11
100
AcDbSymbolTableRecord
100
AcDbLinetypeTableRecord
  2
ByBlock
 70
    64
  3

 72
    65
 73
     0
 40
0.0
  0
LTYPE
  5
12
100
AcDbSymbolTableRecord
100
AcDbLinetypeTableRecord
  2
ByLayer
 70
    64
  3

 72
    65
 73
     0
 40
0.0
  0
LTYPE
  5
13
100
AcDbSymbolTableRecord
100
AcDbLinetypeTableRecord
  2
Continuous
 70
    64
  3
Solid line
 72
    65
 73
     0
 40
0.0
  0
LTYPE
  5
24
100
AcDbSymbolTableRecord
100
AcDbLinetypeTableRecord
  2
DASHED
 70
    64
  3
Dashed __ __ __ __ __ __ __ __ __ __ __ __ __ _
 72
    65
 73
     2
 40
0.75
 49
0.5
 74
     0
 49
-0.25
 74
     0
  0
LTYPE
  5
25
100
AcDbSymbolTableRecord
100
AcDbLinetypeTableRecord
  2
CENTER
 70
    64
  3
Center ____ _ ____ _ ____ _ ____ _ ____ _ ____
 72
    65
 73
     4
 40
1.0
 49
0.5
 74
     0
 49
-0.25
 74
     0
 49
0.0
 74
     0
 49
-0.25
 74
     0
  0
LTYPE
  5
26
100
AcDbSymbolTableRecord
100
AcDbLinetypeTableRecord
  2
DIVIDE
 70
    64
  3
Divide ____ . . ____ . . ____ . . ____ . . ____
 72
    65
 73
     6
 40
1.25
 49
0.5
 74
     0
 49
-0.25
 74
     0
 49
0.0
 74
     0
 49
-0.25
 74
     0
 49
0.0
 74
     0
 49
-0.25
 74
     0
  0
LTYPE
  5
27
100
AcDbSymbolTableRecord
100
AcDbLinetypeTableRecord
  2
PHANTOM
 70
    64
  3
Phantom ______  __  __  ______  __  __  ______
 72
    65
 73
     6
 40
9.0
 49
4.3
 74
     0
 49
-0.7
 74
     0
 49
1.3
 74
     0
 49
-0.7
 74
     0
 49
1.3
 74
     0
 49
-0.7
 74
     0
  0
ENDTAB
  0
TABLE
  2
LAYER
  5
2
100
AcDbSymbolTable
 70
     8
  0
LAYER
  5
14
100
AcDbSymbolTableRecord
100
AcDbLayerTableRecord
  2
0
 70
    64
 62
     3
  6
Continuous
290
     1
370
    -3
390
1D
  0
LAYER
  5
28
100
AcDbSymbolTableRecord
100
AcDbLayerTableRecord
  2
1
 70
    64
 62
    42
  6
Continuous
290
     1
370
    -3
390
1D
  0
LAYER
  5
29
100
AcDbSymbolTableRecord
100
AcDbLayerTableRecord
  2
2
 70
    64
 62
     4
  6
Continuous
290
     1
370
    -3
390
1D
  0
LAYER
  5
2A
100
AcDbSymbolTableRecord
100
AcDbLayerTableRecord
  2
3
 70
    64
 62
     2
  6
Continuous
290
     1
370
    -3
390
1D
  0
LAYER
  5
2B
100
AcDbSymbolTableRecord
100
AcDbLayerTableRecord
  2
4
 70
    64
 62
     1
  6
Continuous
290
     1
370
    -3
390
1D
  0
LAYER
  5
2C
100
AcDbSymbolTableRecord
100
AcDbLayerTableRecord
  2
5
 70
    64
 62
   191
  6
Continuous
290
     1
370
    -3
390
1D
  0
LAYER
  5
2D
100
AcDbSymbolTableRecord
100
AcDbLayerTableRecord
  2
10
 70
    64
 62
     7
  6
Continuous
290
     1
370
    -3
390
1D
  0
LAYER
  5
2E
100
AcDbSymbolTableRecord
100
AcDbLayerTableRecord
  2
15
 70
    64
 62
   222
  6
Continuous
290
     1
370
    -3
390
1D
  0
ENDTAB
  0
TABLE
  2
STYLE
  5
3
100
AcDbSymbolTable
 70
     2
  0
STYLE
  5
17
100
AcDbSymbolTableRecord
100
AcDbTextStyleTableRecord
  2
Standard
 70
     0
 40
0.0
 41
1.0
 50
0.0
 71
     0
 42
0.0
  3
txt
  4

  0
STYLE
  5
7FE
100
AcDbSymbolTableRecord
100
AcDbTextStyleTableRecord
  2
ZU_SHPTB00001
 70
     0
 40
0.0
 41
1.0
 50
0.0
 71
     0
 42
0.0
  3
monotxt
  4
bigfont
  0
ENDTAB
  0
TABLE
  2
VIEW
  5
5
100
AcDbSymbolTable
 70
     0
  0
ENDTAB
  0
TABLE
  2
UCS
  5
6
100
AcDbSymbolTable
 70
     0
  0
ENDTAB
  0
TABLE
  2
APPID
  5
8
100
AcDbSymbolTable
 70
     1
  0
APPID
  5
16
100
AcDbSymbolTableRecord
100
AcDbRegAppTableRecord
  2
ACAD
 70
     0
  0
ENDTAB
  0
TABLE
  2
DIMSTYLE
  5
9
100
AcDbSymbolTable
 70
     1
100
AcDbDimStyleTable
 71
     0
  0
DIMSTYLE
105
18
100
AcDbSymbolTableRecord
100
AcDbDimStyleTableRecord
  2
Standard
 70
     0
  3

  4

 40
1.0
 41
0.18
 42
0.0625
 43
0.38
 44
0.18
 45
0.0
 46
0.0
 47
0.0
 48
0.0
 71
     0
 72
     0
 73
     1
 74
     1
 75
     0
 76
     0
 77
     0
 78
     0
 79
     0
140
0.18
141
0.09
142
0.0
143
25.4
144
1.0
145
0.0
146
1.0
147
0.09
148
0.0
170
     0
171
     2
172
     0
173
     0
174
     0
175
     0
176
     0
177
     0
178
     0
179
     0
271
     4
272
     4
273
     2
274
     2
275
     0
276
     0
277
     2
278
    46
279
     0
280
     0
281
     0
282
     0
283
     1
284
     0
285
     0
286
     0
288
     0
289
     3
340
17
341
0
342
0
343
0
344
0
371
    -2
372
    -2
  0
ENDTAB
  0
TABLE
  2
BLOCK_RECORD
  5
1
100
AcDbSymbolTable
 70
    21
  0
BLOCK_RECORD
  5
A
100
AcDbSymbolTableRecord
100
AcDbBlockTableRecord
  2
*MODEL_SPACE
340
20
  0
BLOCK_RECORD
  5
B
100
AcDbSymbolTableRecord
100
AcDbBlockTableRecord
  2
*PAPER_SPACE
340
21
  0
BLOCK_RECORD
  5
2F
100
AcDbSymbolTableRecord
100
AcDbBlockTableRecord
  2
ZU_SYM__USERS_HOME_SYMBOL_POO_SYM_B21_21
340
0
102
{BLKREFS
331
3F
102
}
  0
BLOCK_RECORD
  5
40
100
AcDbSymbolTableRecord
100
AcDbBlockTableRecord
  2
ZU_SYM__USERS_HOME_SYMBOL_POO_SYM_B21_0000121
340
0
102
{BLKREFS
331
50
102
}
  0
BLOCK_RECORD
  5
51
100
AcDbSymbolTableRecord
100
AcDbBlockTableRecord
  2
ZU_SYM__USERS_HOME_SYMBOL_POO_SYM_B21_0000221
340
0
102
{BLKREFS
331
61
102
}
  0
BLOCK_RECORD
  5
62
100
AcDbSymbolTableRecord
100
AcDbBlockTableRecord
  2
ZU_SYM_K__CAD_SYM_POO_SYM_B21_20
340
0
102
{BLKREFS
331
72
102
}
  0
BLOCK_RECORD
  5
73
100
AcDbSymbolTableRecord
100
AcDbBlockTableRecord
  2
ZU_SYM_K__CAD_SYM_POO_SYM_B21_0000320
340
0
102
{BLKREFS
331
83
102
}
  0
BLOCK_RECORD
  5
84
100
AcDbSymbolTableRecord
100
AcDbBlockTableRecord
  2
ZU_SYM_K__CAD_SYM_POO_SYM_B21_0000420
340
0
102
{BLKREFS
331
94
102
}
  0
BLOCK_RECORD
  5
95
100
AcDbSymbolTableRecord
100
AcDbBlockTableRecord
  2
ZU_SYM_K__CAD_SYM_POO_SYM_B21_0000520
340
0
102
{BLKREFS
331
A5
102
}
  0
BLOCK_RECORD
  5
550
100
AcDbSymbolTableRecord
100
AcDbBlockTableRecord
  2
ZU_SYM_C__ZUOU_AC_BLOCK_BLKF030_00
340
0
102
{BLKREFS
331
557
102
}
  0
BLOCK_RECORD
  5
656
100
AcDbSymbolTableRecord
100
AcDbBlockTableRecord
  2
ZU_SYM_K__CAD_SYM_POO_SYM_B21_0000620
340
0
102
{BLKREFS
331
666
102
}
  0
BLOCK_RECORD
  5
66B
100
AcDbSymbolTableRecord
100
AcDbBlockTableRecord
  2
ZU_SYM_K__CAD_SYM_POO_SYM_B21_0000720
340
0
102
{BLKREFS
331
67B
102
}
  0
BLOCK_RECORD
  5
67C
100
AcDbSymbolTableRecord
100
AcDbBlockTableRecord
  2
ZU_SYM_K__CAD_SYM_POO_SYM_B21_0000820
340
0
102
{BLKREFS
331
68C
102
}
  0
BLOCK_RECORD
  5
68D
100
AcDbSymbolTableRecord
100
AcDbBlockTableRecord
  2
ZU_SYM_K__CAD_SYM_POO_SYM_B21_0000920
340
0
102
{BLKREFS
331
69D
102
}
  0
BLOCK_RECORD
  5
6BD
100
AcDbSymbolTableRecord
100
AcDbBlockTableRecord
  2
ZU_SYM_K__CAD_SYM_POO_SYM_B21_0001020
340
0
102
{BLKREFS
331
6CD
102
}
  0
BLOCK_RECORD
  5
6D4
100
AcDbSymbolTableRecord
100
AcDbBlockTableRecord
  2
ZU_SYM_K__CAD_SYM_POO_SYM_B21_0001120
340
0
102
{BLKREFS
331
6E4
102
}
  0
BLOCK_RECORD
  5
72A
100
AcDbSymbolTableRecord
100
AcDbBlockTableRecord
  2
ZU_SYM_C__ZUOU_AC_BLOCK_BLKF052_00
340
0
102
{BLKREFS
331
748
102
}
  0
BLOCK_RECORD
  5
759
100
AcDbSymbolTableRecord
100
AcDbBlockTableRecord
  2
ZU_SYM_C__ZUOU_AC_BLOCK_BLKF052_0001200
340
0
102
{BLKREFS
331
777
102
}
  0
BLOCK_RECORD
  5
782
100
AcDbSymbolTableRecord
100
AcDbBlockTableRecord
  2
ZU_SYM_C__ZUOU_AC_BLOCK_BLKF071_00
340
0
102
{BLKREFS
331
791
102
}
  0
BLOCK_RECORD
  5
792
100
AcDbSymbolTableRecord
100
AcDbBlockTableRecord
  2
ZU_SYM_C__ZUOU_AC_BLOCK_BLKF073_00
340
0
102
{BLKREFS
331
7A1
102
}
  0
BLOCK_RECORD
  5
7A2
100
AcDbSymbolTableRecord
100
AcDbBlockTableRecord
  2
ZU_SYM_C__ZUOU_AC_BLOCK_BLKF074_00
340
0
102
{BLKREFS
331
7AB
102
}
  0
BLOCK_RECORD
  5
7BC
100
AcDbSymbolTableRecord
100
AcDbBlockTableRecord
  2
ZU_SYM_C__ZUOU_AC_BLOCK_BLKF064_00
340
0
102
{BLKREFS
331
7CB
102
}
  0
BLOCK_RECORD
  5
7CC
100
AcDbSymbolTableRecord
100
AcDbBlockTableRecord
  2
ZU_SYM_C__ZUOU_AC_BLOCK_BLKF066_00
340
0
102
{BLKREFS
331
7DB
102
}
  0
ENDTAB
  0
ENDSEC
  0
SECTION
  2
BLOCKS
  0
BLOCK
  5
D
100
AcDbEntity
  8
0
390
0
100
AcDbBlockBegin
  2
*MODEL_SPACE
 70
     0
 10
0.0
 20
0.0
 30
0.0
  3
*MODEL_SPACE
  1

  0
ENDBLK
  5
E
100
AcDbEntity
  8
0
390
0
100
AcDbBlockEnd
  0
BLOCK
  5
F
100
AcDbEntity
 67
     1
  8
0
390
0
100
AcDbBlockBegin
  2
*PAPER_SPACE
 70
     0
 10
0.0
 20
0.0
 30
0.0
  3
*PAPER_SPACE
  1

  0
ENDBLK
  5
10
100
AcDbEntity
 67
     1
  8
0
390
0
100
AcDbBlockEnd
  0
BLOCK
  5
30
100
AcDbEntity
  8
0
390
0
100
AcDbBlockBegin
  2
ZU_SYM__USERS_HOME_SYMBOL_POO_SYM_B21_21
 70
    64
 10
0.0
 20
0.0
 30
0.0
  3
ZU_SYM__USERS_HOME_SYMBOL_POO_SYM_B21_21
  1

  0
LINE
  5
31
100
AcDbEntity
  8
0
370
    -3
390
0
  6
Continuous
100
AcDbLine
 10
-4.0
 20
-0.222603
 30
0.0
 11
0.000001
 21
1.233275
 31
0.0
  0
LINE
  5
32
100
AcDbEntity
  8
0
370
    -3
390
0
  6
Continuous
100
AcDbLine
 10
0.000001
 20
0.182041
 30
0.0
 11
-3.999999
 21
-1.273837
 31
0.0
  0
LINE
  5
33
100
AcDbEntity
  8
0
370
    -3
390
0
  6
Continuous
100
AcDbLine
 10
-18.999985
 20
12.0
 30
0.0
 11
-18.999985
 21
-12.0
 31
0.0
  0
LINE
  5
34
100
AcDbEntity
  8
0
370
    -3
390
0
  6
Continuous
100
AcDbLine
 10
-18.999973
 20
-12.0
 30
0.0
 11
-19.999958
 21
-10.268356
 31
0.0
  0
LINE
  5
35
100
AcDbEntity
  8
0
370
    -3
390
0
  6
Continuous
100
AcDbLine
 10
-18.999981
 20
11.999997
 30
0.0
 11
-19.999966
 21
10.267576
 31
0.0
  0
LINE
  5
36
100
AcDbEntity
  8
0
370
    -3
390
0
  6
Continuous
100
AcDbLine
 10
0.0
 20
-14.0
 30
0.0
 11
-4.0
 21
-14.0
 31
0.0
  0
LINE
  5
37
100
AcDbEntity
  8
0
370
    -3
390
0
  6
Continuous
100
AcDbLine
 10
0.0
 20
14.0
 30
0.0
 11
-4.0
 21
14.0
 31
0.0
  0
LINE
  5
38
100
AcDbEntity
  8
0
370
    -3
390
0
  6
Continuous
100
AcDbLine
 10
-4.0
 20
-12.0
 30
0.0
 11
-18.999969
 21
-12.0
 31
0.0
  0
LINE
  5
39
100
AcDbEntity
  8
0
370
    -3
390
0
  6
Continuous
100
AcDbLine
 10
-4.0
 20
12.0
 30
0.0
 11
-18.999985
 21
12.0
 31
0.0
  0
LINE
  5
3A
100
AcDbEntity
  8
0
370
    -3
390
0
  6
Continuous
100
AcDbLine
 10
-19.999962
 20
-10.268356
 30
0.0
 11
-19.999977
 21
10.267579
 31
0.0
  0
LINE
  5
3B
100
AcDbEntity
  8
0
370
    -3
390
0
  6
Continuous
100
AcDbLine
 10
-4.0
 20
-14.0
 30
0.0
 11
-4.0
 21
14.0
 31
0.0
  0
LINE
  5
3C
100
AcDbEntity
  8
0
370
    -3
390
0
  6
Continuous
100
AcDbLine
 10
0.0
 20
14.0
 30
0.0
 11
0.0
 21
-14.0
 31
0.0
  0
POINT
  5
3D
100
AcDbEntity
  8
0
370
    -3
390
0
  6
Continuous
100
AcDbPoint
 10
0.0
 20
0.0
 30
0.0
  0
ENDBLK
  5
3E
100
AcDbEntity
  8
0
390
0
100
AcDbBlockEnd
  0
BLOCK
  5
41
100
AcDbEntity
  8
0
390
0
100
AcDbBlockBegin
  2
ZU_SYM__USERS_HOME_SYMBOL_POO_SYM_B21_0000121
 70
    64
 10
0.0
 20
0.0
 30
0.0
  3
ZU_SYM__USERS_HOME_SYMBOL_POO_SYM_B21_0000121
  1

  0
LINE
  5
42
100
AcDbEntity
  8
0
370
    -3
390
0
  6
Continuous
100
AcDbLine
 10
-4.0
 20
-0.222603
 30
0.0
 11
0.000001
 21
1.233275
 31
0.0
  0
LINE
  5
43
100
AcDbEntity
  8
0
370
    -3
390
0
  6
Continuous
100
AcDbLine
 10
0.000001
 20
0.182041
 30
0.0
 11
-3.999999
 21
-1.273837
 31
0.0
  0
LINE
  5
44
100
AcDbEntity
  8
0
370
    -3
390
0
  6
Continuous
100
AcDbLine
 10
-18.999985
 20
12.0
 30
0.0
 11
-18.999985
 21
-12.0
 31
0.0
  0
LINE
  5
45
100
AcDbEntity
  8
0
370
    -3
390
0
  6
Continuous
100
AcDbLine
 10
-18.999973
 20
-12.0
 30
0.0
 11
-19.999958
 21
-10.268356
 31
0.0
  0
LINE
  5
46
100
AcDbEntity
  8
0
370
    -3
390
0
  6
Continuous
100
AcDbLine
 10
-18.999981
 20
11.999997
 30
0.0
 11
-19.999966
 21
10.267576
 31
0.0
  0
LINE
  5
47
100
AcDbEntity
  8
0
370
    -3
390
0
  6
Continuous
100
AcDbLine
 10
0.0
 20
-14.0
 30
0.0
 11
-4.0
 21
-14.0
 31
0.0
  0
LINE
  5
48
100
AcDbEntity
  8
0
370
    -3
390
0
  6
Continuous
100
AcDbLine
 10
0.0
 20
14.0
 30
0.0
 11
-4.0
 21
14.0
 31
0.0
  0
LINE
  5
49
100
AcDbEntity
  8
0
370
    -3
390
0
  6
Continuous
100
AcDbLine
 10
-4.0
 20
-12.0
 30
0.0
 11
-18.999969
 21
-12.0
 31
0.0
  0
LINE
  5
4A
100
AcDbEntity
  8
0
370
    -3
390
0
  6
Continuous
100
AcDbLine
 10
-4.0
 20
12.0
 30
0.0
 11
-18.999985
 21
12.0
 31
0.0
  0
LINE
  5
4B
100
AcDbEntity
  8
0
370
    -3
390
0
  6
Continuous
100
AcDbLine
 10
-19.999962
 20
-10.268356
 30
0.0
 11
-19.999977
 21
10.267579
 31
0.0
  0
LINE
  5
4C
100
AcDbEntity
  8
0
370
    -3
390
0
  6
Continuous
100
AcDbLine
 10
-4.0
 20
-14.0
 30
0.0
 11
-4.0
 21
14.0
 31
0.0
  0
LINE
  5
4D
100
AcDbEntity
  8
0
370
    -3
390
0
  6
Continuous
100
AcDbLine
 10
0.0
 20
14.0
 30
0.0
 11
0.0
 21
-14.0
 31
0.0
  0
POINT
  5
4E
100
AcDbEntity
  8
0
370
    -3
390
0
  6
Continuous
100
AcDbPoint
 10
0.0
 20
0.0
 30
0.0
  0
ENDBLK
  5
4F
100
AcDbEntity
  8
0
390
0
100
AcDbBlockEnd
  0
BLOCK
  5
52
100
AcDbEntity
  8
0
390
0
100
AcDbBlockBegin
  2
ZU_SYM__USERS_HOME_SYMBOL_POO_SYM_B21_0000221
 70
    64
 10
0.0
 20
0.0
 30
0.0
  3
ZU_SYM__USERS_HOME_SYMBOL_POO_SYM_B21_0000221
  1

  0
LINE
  5
53
100
AcDbEntity
  8
0
370
    -3
390
0
  6
Continuous
100
AcDbLine
 10
-4.0
 20
-0.222603
 30
0.0
 11
0.000001
 21
1.233275
 31
0.0
  0
LINE
  5
54
100
AcDbEntity
  8
0
370
    -3
390
0
  6
Continuous
100
AcDbLine
 10
0.000001
 20
0.182041
 30
0.0
 11
-3.999999
 21
-1.273837
 31
0.0
  0
LINE
  5
55
100
AcDbEntity
  8
0
370
    -3
390
0
  6
Continuous
100
AcDbLine
 10
-18.999985
 20
12.0
 30
0.0
 11
-18.999985
 21
-12.0
 31
0.0
  0
LINE
  5
56
100
AcDbEntity
  8
0
370
    -3
390
0
  6
Continuous
100
AcDbLine
 10
-18.999973
 20
-12.0
 30
0.0
 11
-19.999958
 21
-10.268356
 31
0.0
  0
LINE
  5
57
100
AcDbEntity
  8
0
370
    -3
390
0
  6
Continuous
100
AcDbLine
 10
-18.999981
 20
11.999997
 30
0.0
 11
-19.999966
 21
10.267576
 31
0.0
  0
LINE
  5
58
100
AcDbEntity
  8
0
370
    -3
390
0
  6
Continuous
100
AcDbLine
 10
0.0
 20
-14.0
 30
0.0
 11
-4.0
 21
-14.0
 31
0.0
  0
LINE
  5
59
100
AcDbEntity
  8
0
370
    -3
390
0
  6
Continuous
100
AcDbLine
 10
0.0
 20
14.0
 30
0.0
 11
-4.0
 21
14.0
 31
0.0
  0
LINE
  5
5A
100
AcDbEntity
  8
0
370
    -3
390
0
  6
Continuous
100
AcDbLine
 10
-4.0
 20
-12.0
 30
0.0
 11
-18.999969
 21
-12.0
 31
0.0
  0
LINE
  5
5B
100
AcDbEntity
  8
0
370
    -3
390
0
  6
Continuous
100
AcDbLine
 10
-4.0
 20
12.0
 30
0.0
 11
-18.999985
 21
12.0
 31
0.0
  0
LINE
  5
5C
100
AcDbEntity
  8
0
370
    -3
390
0
  6
Continuous
100
AcDbLine
 10
-19.999962
 20
-10.268356
 30
0.0
 11
-19.999977
 21
10.267579
 31
0.0
  0
LINE
  5
5D
100
AcDbEntity
  8
0
370
    -3
390
0
  6
Continuous
100
AcDbLine
 10
-4.0
 20
-14.0
 30
0.0
 11
-4.0
 21
14.0
 31
0.0
  0
LINE
  5
5E
100
AcDbEntity
  8
0
370
    -3
390
0
  6
Continuous
100
AcDbLine
 10
0.0
 20
14.0
 30
0.0
 11
0.0
 21
-14.0
 31
0.0
  0
POINT
  5
5F
100
AcDbEntity
  8
0
370
    -3
390
0
  6
Continuous
100
AcDbPoint
 10
0.0
 20
0.0
 30
0.0
  0
ENDBLK
  5
60
100
AcDbEntity
  8
0
390
0
100
AcDbBlockEnd
  0
BLOCK
  5
63
100
AcDbEntity
  8
0
390
0
100
AcDbBlockBegin
  2
ZU_SYM_K__CAD_SYM_POO_SYM_B21_20
 70
    64
 10
0.0
 20
0.0
 30
0.0
  3
ZU_SYM_K__CAD_SYM_POO_SYM_B21_20
  1

  0
POINT
  5
64
100
AcDbEntity
  8
0
370
    -3
390
0
  6
Continuous
100
AcDbPoint
 10
0.0
 20
0.0
 30
0.0
  0
LINE
  5
65
100
AcDbEntity
  8
0
370
    -3
390
0
  6
Continuous
100
AcDbLine
 10
0.0
 20
10.75
 30
0.0
 11
0.0
 21
-10.75
 31
0.0
  0
LINE
  5
66
100
AcDbEntity
  8
0
370
    -3
390
0
  6
Continuous
100
AcDbLine
 10
-3.0
 20
-10.75
 30
0.0
 11
-3.0
 21
10.75
 31
0.0
  0
LINE
  5
67
100
AcDbEntity
  8
0
370
    -3
390
0
  6
Continuous
100
AcDbLine
 10
-14.999958
 20
-7.787735
 30
0.0
 11
-14.999973
 21
7.78734
 31
0.0
  0
LINE
  5
68
100
AcDbEntity
  8
0
370
    -3
390
0
  6
Continuous
100
AcDbLine
 10
-3.0
 20
-9.0
 30
0.0
 11
-14.299961
 21
-9.0
 31
0.0
  0
LINE
  5
69
100
AcDbEntity
  8
0
370
    -3
390
0
  6
Continuous
100
AcDbLine
 10
-3.0
 20
9.0
 30
0.0
 11
-14.299976
 21
9.0
 31
0.0
  0
LINE
  5
6A
100
AcDbEntity
  8
0
370
    -3
390
0
  6
Continuous
100
AcDbLine
 10
0.0
 20
10.75
 30
0.0
 11
-3.0
 21
10.75
 31
0.0
  0
LINE
  5
6B
100
AcDbEntity
  8
0
370
    -3
390
0
  6
Continuous
100
AcDbLine
 10
0.0
 20
-10.75
 30
0.0
 11
-3.0
 21
-10.75
 31
0.0
  0
LINE
  5
6C
100
AcDbEntity
  8
0
370
    -3
390
0
  6
Continuous
100
AcDbLine
 10
-14.299981
 20
9.000001
 30
0.0
 11
-14.999978
 21
7.787341
 31
0.0
  0
LINE
  5
6D
100
AcDbEntity
  8
0
370
    -3
390
0
  6
Continuous
100
AcDbLine
 10
-14.299962
 20
-9.000003
 30
0.0
 11
-14.999959
 21
-7.787739
 31
0.0
  0
LINE
  5
6E
100
AcDbEntity
  8
0
370
    -3
390
0
  6
Continuous
100
AcDbLine
 10
-14.299976
 20
9.0
 30
0.0
 11
-14.299976
 21
-9.0
 31
0.0
  0
LINE
  5
6F
100
AcDbEntity
  8
0
370
    -3
390
0
  6
Continuous
100
AcDbLine
 10
-2.999999
 20
-0.025431
 30
0.0
 11
0.000001
 21
1.066476
 31
0.0
  0
LINE
  5
70
100
AcDbEntity
  8
0
370
    -3
390
0
  6
Continuous
100
AcDbLine
 10
0.000001
 20
0.015238
 30
0.0
 11
-2.999999
 21
-1.076669
 31
0.0
  0
ENDBLK
  5
71
100
AcDbEntity
  8
0
390
0
100
AcDbBlockEnd
  0
BLOCK
  5
74
100
AcDbEntity
  8
0
390
0
100
AcDbBlockBegin
  2
ZU_SYM_K__CAD_SYM_POO_SYM_B21_0000320
 70
    64
 10
0.0
 20
0.0
 30
0.0
  3
ZU_SYM_K__CAD_SYM_POO_SYM_B21_0000320
  1

  0
POINT
  5
75
100
AcDbEntity
  8
0
370
    -3
390
0
  6
Continuous
100
AcDbPoint
 10
0.0
 20
0.0
 30
0.0
  0
LINE
  5
76
100
AcDbEntity
  8
0
370
    -3
390
0
  6
Continuous
100
AcDbLine
 10
0.0
 20
10.75
 30
0.0
 11
0.0
 21
-10.75
 31
0.0
  0
LINE
  5
77
100
AcDbEntity
  8
0
370
    -3
390
0
  6
Continuous
100
AcDbLine
 10
-3.0
 20
-10.75
 30
0.0
 11
-3.0
 21
10.75
 31
0.0
  0
LINE
  5
78
100
AcDbEntity
  8
0
370
    -3
390
0
  6
Continuous
100
AcDbLine
 10
-14.999958
 20
-7.787735
 30
0.0
 11
-14.999973
 21
7.78734
 31
0.0
  0
LINE
  5
79
100
AcDbEntity
  8
0
370
    -3
390
0
  6
Continuous
100
AcDbLine
 10
-3.0
 20
-9.0
 30
0.0
 11
-14.299961
 21
-9.0
 31
0.0
  0
LINE
  5
7A
100
AcDbEntity
  8
0
370
    -3
390
0
  6
Continuous
100
AcDbLine
 10
-3.0
 20
9.0
 30
0.0
 11
-14.299976
 21
9.0
 31
0.0
  0
LINE
  5
7B
100
AcDbEntity
  8
0
370
    -3
390
0
  6
Continuous
100
AcDbLine
 10
0.0
 20
10.75
 30
0.0
 11
-3.0
 21
10.75
 31
0.0
  0
LINE
  5
7C
100
AcDbEntity
  8
0
370
    -3
390
0
  6
Continuous
100
AcDbLine
 10
0.0
 20
-10.75
 30
0.0
 11
-3.0
 21
-10.75
 31
0.0
  0
LINE
  5
7D
100
AcDbEntity
  8
0
370
    -3
390
0
  6
Continuous
100
AcDbLine
 10
-14.299981
 20
9.000001
 30
0.0
 11
-14.999978
 21
7.787341
 31
0.0
  0
LINE
  5
7E
100
AcDbEntity
  8
0
370
    -3
390
0
  6
Continuous
100
AcDbLine
 10
-14.299962
 20
-9.000003
 30
0.0
 11
-14.999959
 21
-7.787739
 31
0.0
  0
LINE
  5
7F
100
AcDbEntity
  8
0
370
    -3
390
0
  6
Continuous
100
AcDbLine
 10
-14.299976
 20
9.0
 30
0.0
 11
-14.299976
 21
-9.0
 31
0.0
  0
LINE
  5
80
100
AcDbEntity
  8
0
370
    -3
390
0
  6
Continuous
100
AcDbLine
 10
-2.999999
 20
-0.025431
 30
0.0
 11
0.000001
 21
1.066476
 31
0.0
  0
LINE
  5
81
100
AcDbEntity
  8
0
370
    -3
390
0
  6
Continuous
100
AcDbLine
 10
0.000001
 20
0.015238
 30
0.0
 11
-2.999999
 21
-1.076669
 31
0.0
  0
ENDBLK
  5
82
100
AcDbEntity
  8
0
390
0
100
AcDbBlockEnd
  0
BLOCK
  5
85
100
AcDbEntity
  8
0
390
0
100
AcDbBlockBegin
  2
ZU_SYM_K__CAD_SYM_POO_SYM_B21_0000420
 70
    64
 10
0.0
 20
0.0
 30
0.0
  3
ZU_SYM_K__CAD_SYM_POO_SYM_B21_0000420
  1

  0
POINT
  5
86
100
AcDbEntity
  8
0
370
    -3
390
0
  6
Continuous
100
AcDbPoint
 10
0.0
 20
0.0
 30
0.0
  0
LINE
  5
87
100
AcDbEntity
  8
0
370
    -3
390
0
  6
Continuous
100
AcDbLine
 10
0.0
 20
10.75
 30
0.0
 11
0.0
 21
-10.75
 31
0.0
  0
LINE
  5
88
100
AcDbEntity
  8
0
370
    -3
390
0
  6
Continuous
100
AcDbLine
 10
-3.0
 20
-10.75
 30
0.0
 11
-3.0
 21
10.75
 31
0.0
  0
LINE
  5
89
100
AcDbEntity
  8
0
370
    -3
390
0
  6
Continuous
100
AcDbLine
 10
-14.999958
 20
-7.787735
 30
0.0
 11
-14.999973
 21
7.78734
 31
0.0
  0
LINE
  5
8A
100
AcDbEntity
  8
0
370
    -3
390
0
  6
Continuous
100
AcDbLine
 10
-3.0
 20
-9.0
 30
0.0
 11
-14.299961
 21
-9.0
 31
0.0
  0
LINE
  5
8B
100
AcDbEntity
  8
0
370
    -3
390
0
  6
Continuous
100
AcDbLine
 10
-3.0
 20
9.0
 30
0.0
 11
-14.299976
 21
9.0
 31
0.0
  0
LINE
  5
8C
100
AcDbEntity
  8
0
370
    -3
390
0
  6
Continuous
100
AcDbLine
 10
0.0
 20
10.75
 30
0.0
 11
-3.0
 21
10.75
 31
0.0
  0
LINE
  5
8D
100
AcDbEntity
  8
0
370
    -3
390
0
  6
Continuous
100
AcDbLine
 10
0.0
 20
-10.75
 30
0.0
 11
-3.0
 21
-10.75
 31
0.0
  0
LINE
  5
8E
100
AcDbEntity
  8
0
370
    -3
390
0
  6
Continuous
100
AcDbLine
 10
-14.299981
 20
9.000001
 30
0.0
 11
-14.999978
 21
7.787341
 31
0.0
  0
LINE
  5
8F
100
AcDbEntity
  8
0
370
    -3
390
0
  6
Continuous
100
AcDbLine
 10
-14.299962
 20
-9.000003
 30
0.0
 11
-14.999959
 21
-7.787739
 31
0.0
  0
LINE
  5
90
100
AcDbEntity
  8
0
370
    -3
390
0
  6
Continuous
100
AcDbLine
 10
-14.299976
 20
9.0
 30
0.0
 11
-14.299976
 21
-9.0
 31
0.0
  0
LINE
  5
91
100
AcDbEntity
  8
0
370
    -3
390
0
  6
Continuous
100
AcDbLine
 10
-2.999999
 20
-0.025431
 30
0.0
 11
0.000001
 21
1.066476
 31
0.0
  0
LINE
  5
92
100
AcDbEntity
  8
0
370
    -3
390
0
  6
Continuous
100
AcDbLine
 10
0.000001
 20
0.015238
 30
0.0
 11
-2.999999
 21
-1.076669
 31
0.0
  0
ENDBLK
  5
93
100
AcDbEntity
  8
0
390
0
100
AcDbBlockEnd
  0
BLOCK
  5
96
100
AcDbEntity
  8
0
390
0
100
AcDbBlockBegin
  2
ZU_SYM_K__CAD_SYM_POO_SYM_B21_0000520
 70
    64
 10
0.0
 20
0.0
 30
0.0
  3
ZU_SYM_K__CAD_SYM_POO_SYM_B21_0000520
  1

  0
POINT
  5
97
100
AcDbEntity
  8
0
370
    -3
390
0
  6
Continuous
100
AcDbPoint
 10
0.0
 20
0.0
 30
0.0
  0
LINE
  5
98
100
AcDbEntity
  8
0
370
    -3
390
0
  6
Continuous
100
AcDbLine
 10
0.0
 20
10.75
 30
0.0
 11
0.0
 21
-10.75
 31
0.0
  0
LINE
  5
99
100
AcDbEntity
  8
0
370
    -3
390
0
  6
Continuous
100
AcDbLine
 10
-3.0
 20
-10.75
 30
0.0
 11
-3.0
 21
10.75
 31
0.0
  0
LINE
  5
9A
100
AcDbEntity
  8
0
370
    -3
390
0
  6
Continuous
100
AcDbLine
 10
-14.999958
 20
-7.787735
 30
0.0
 11
-14.999973
 21
7.78734
 31
0.0
  0
LINE
  5
9B
100
AcDbEntity
  8
0
370
    -3
390
0
  6
Continuous
100
AcDbLine
 10
-3.0
 20
-9.0
 30
0.0
 11
-14.299961
 21
-9.0
 31
0.0
  0
LINE
  5
9C
100
AcDbEntity
  8
0
370
    -3
390
0
  6
Continuous
100
AcDbLine
 10
-3.0
 20
9.0
 30
0.0
 11
-14.299976
 21
9.0
 31
0.0
  0
LINE
  5
9D
100
AcDbEntity
  8
0
370
    -3
390
0
  6
Continuous
100
AcDbLine
 10
0.0
 20
10.75
 30
0.0
 11
-3.0
 21
10.75
 31
0.0
  0
LINE
  5
9E
100
AcDbEntity
  8
0
370
    -3
390
0
  6
Continuous
100
AcDbLine
 10
0.0
 20
-10.75
 30
0.0
 11
-3.0
 21
-10.75
 31
0.0
  0
LINE
  5
9F
100
AcDbEntity
  8
0
370
    -3
390
0
  6
Continuous
100
AcDbLine
 10
-14.299981
 20
9.000001
 30
0.0
 11
-14.999978
 21
7.787341
 31
0.0
  0
LINE
  5
A0
100
AcDbEntity
  8
0
370
    -3
390
0
  6
Continuous
100
AcDbLine
 10
-14.299962
 20
-9.000003
 30
0.0
 11
-14.999959
 21
-7.787739
 31
0.0
  0
LINE
  5
A1
100
AcDbEntity
  8
0
370
    -3
390
0
  6
Continuous
100
AcDbLine
 10
-14.299976
 20
9.0
 30
0.0
 11
-14.299976
 21
-9.0
 31
0.0
  0
LINE
  5
A2
100
AcDbEntity
  8
0
370
    -3
390
0
  6
Continuous
100
AcDbLine
 10
-2.999999
 20
-0.025431
 30
0.0
 11
0.000001
 21
1.066476
 31
0.0
  0
LINE
  5
A3
100
AcDbEntity
  8
0
370
    -3
390
0
  6
Continuous
100
AcDbLine
 10
0.000001
 20
0.015238
 30
0.0
 11
-2.999999
 21
-1.076669
 31
0.0
  0
ENDBLK
  5
A4
100
AcDbEntity
  8
0
390
0
100
AcDbBlockEnd
  0
BLOCK
  5
551
100
AcDbEntity
  8
0
390
0
100
AcDbBlockBegin
  2
ZU_SYM_C__ZUOU_AC_BLOCK_BLKF030_00
 70
    64
 10
0.0
 20
0.0
 30
0.0
  3
ZU_SYM_C__ZUOU_AC_BLOCK_BLKF030_00
  1

  0
LINE
  5
552
100
AcDbEntity
  8
0
370
    -3
390
0
  6
Continuous
100
AcDbLine
 10
299.075267
 20
207.337117
 30
0.0
 11
294.075267
 21
209.837118
 31
0.0
  0
LINE
  5
553
100
AcDbEntity
  8
0
370
    -3
390
0
  6
Continuous
100
AcDbLine
 10
299.075267
 20
202.337115
 30
0.0
 11
299.075267
 21
207.337117
 31
0.0
  0
LINE
  5
554
100
AcDbEntity
  8
0
370
    -3
390
0
  6
Continuous
100
AcDbLine
 10
289.075267
 20
207.337117
 30
0.0
 11
289.075267
 21
202.337115
 31
0.0
  0
LINE
  5
555
100
AcDbEntity
  8
0
370
    -3
390
0
  6
Continuous
100
AcDbLine
 10
294.075267
 20
209.837118
 30
0.0
 11
289.075267
 21
207.337117
 31
0.0
  0
ENDBLK
  5
556
100
AcDbEntity
  8
0
390
0
100
AcDbBlockEnd
  0
BLOCK
  5
657
100
AcDbEntity
  8
0
390
0
100
AcDbBlockBegin
  2
ZU_SYM_K__CAD_SYM_POO_SYM_B21_0000620
 70
    64
 10
0.0
 20
0.0
 30
0.0
  3
ZU_SYM_K__CAD_SYM_POO_SYM_B21_0000620
  1

  0
LINE
  5
658
100
AcDbEntity
  8
0
370
    -3
390
0
  6
Continuous
100
AcDbLine
 10
0.000001
 20
0.015238
 30
0.0
 11
-2.999999
 21
-1.076669
 31
0.0
  0
LINE
  5
659
100
AcDbEntity
  8
0
370
    -3
390
0
  6
Continuous
100
AcDbLine
 10
-2.999999
 20
-0.025431
 30
0.0
 11
0.000001
 21
1.066476
 31
0.0
  0
LINE
  5
65A
100
AcDbEntity
  8
0
370
    -3
390
0
  6
Continuous
100
AcDbLine
 10
-14.299976
 20
9.0
 30
0.0
 11
-14.299976
 21
-9.0
 31
0.0
  0
LINE
  5
65B
100
AcDbEntity
  8
0
370
    -3
390
0
  6
Continuous
100
AcDbLine
 10
-14.299962
 20
-9.000003
 30
0.0
 11
-14.999959
 21
-7.787739
 31
0.0
  0
LINE
  5
65C
100
AcDbEntity
  8
0
370
    -3
390
0
  6
Continuous
100
AcDbLine
 10
-14.299981
 20
9.000001
 30
0.0
 11
-14.999978
 21
7.787341
 31
0.0
  0
LINE
  5
65D
100
AcDbEntity
  8
0
370
    -3
390
0
  6
Continuous
100
AcDbLine
 10
0.0
 20
-10.75
 30
0.0
 11
-3.0
 21
-10.75
 31
0.0
  0
LINE
  5
65E
100
AcDbEntity
  8
0
370
    -3
390
0
  6
Continuous
100
AcDbLine
 10
0.0
 20
10.75
 30
0.0
 11
-3.0
 21
10.75
 31
0.0
  0
LINE
  5
65F
100
AcDbEntity
  8
0
370
    -3
390
0
  6
Continuous
100
AcDbLine
 10
-3.0
 20
9.0
 30
0.0
 11
-14.299976
 21
9.0
 31
0.0
  0
LINE
  5
660
100
AcDbEntity
  8
0
370
    -3
390
0
  6
Continuous
100
AcDbLine
 10
-3.0
 20
-9.0
 30
0.0
 11
-14.299961
 21
-9.0
 31
0.0
  0
LINE
  5
661
100
AcDbEntity
  8
0
370
    -3
390
0
  6
Continuous
100
AcDbLine
 10
-14.999958
 20
-7.787735
 30
0.0
 11
-14.999973
 21
7.78734
 31
0.0
  0
LINE
  5
662
100
AcDbEntity
  8
0
370
    -3
390
0
  6
Continuous
100
AcDbLine
 10
-3.0
 20
-10.75
 30
0.0
 11
-3.0
 21
10.75
 31
0.0
  0
LINE
  5
663
100
AcDbEntity
  8
0
370
    -3
390
0
  6
Continuous
100
AcDbLine
 10
0.0
 20
10.75
 30
0.0
 11
0.0
 21
-10.75
 31
0.0
  0
POINT
  5
664
100
AcDbEntity
  8
0
370
    -3
390
0
  6
Continuous
100
AcDbPoint
 10
0.0
 20
0.0
 30
0.0
  0
ENDBLK
  5
665
100
AcDbEntity
  8
0
390
0
100
AcDbBlockEnd
  0
BLOCK
  5
66C
100
AcDbEntity
  8
0
390
0
100
AcDbBlockBegin
  2
ZU_SYM_K__CAD_SYM_POO_SYM_B21_0000720
 70
    64
 10
0.0
 20
0.0
 30
0.0
  3
ZU_SYM_K__CAD_SYM_POO_SYM_B21_0000720
  1

  0
LINE
  5
66D
100
AcDbEntity
  8
0
370
    -3
390
0
  6
Continuous
100
AcDbLine
 10
0.000001
 20
0.015238
 30
0.0
 11
-2.999999
 21
-1.076669
 31
0.0
  0
LINE
  5
66E
100
AcDbEntity
  8
0
370
    -3
390
0
  6
Continuous
100
AcDbLine
 10
-2.999999
 20
-0.025431
 30
0.0
 11
0.000001
 21
1.066476
 31
0.0
  0
LINE
  5
66F
100
AcDbEntity
  8
0
370
    -3
390
0
  6
Continuous
100
AcDbLine
 10
-14.299976
 20
9.0
 30
0.0
 11
-14.299976
 21
-9.0
 31
0.0
  0
LINE
  5
670
100
AcDbEntity
  8
0
370
    -3
390
0
  6
Continuous
100
AcDbLine
 10
-14.299962
 20
-9.000003
 30
0.0
 11
-14.999959
 21
-7.787739
 31
0.0
  0
LINE
  5
671
100
AcDbEntity
  8
0
370
    -3
390
0
  6
Continuous
100
AcDbLine
 10
-14.299981
 20
9.000001
 30
0.0
 11
-14.999978
 21
7.787341
 31
0.0
  0
LINE
  5
672
100
AcDbEntity
  8
0
370
    -3
390
0
  6
Continuous
100
AcDbLine
 10
0.0
 20
-10.75
 30
0.0
 11
-3.0
 21
-10.75
 31
0.0
  0
LINE
  5
673
100
AcDbEntity
  8
0
370
    -3
390
0
  6
Continuous
100
AcDbLine
 10
0.0
 20
10.75
 30
0.0
 11
-3.0
 21
10.75
 31
0.0
  0
LINE
  5
674
100
AcDbEntity
  8
0
370
    -3
390
0
  6
Continuous
100
AcDbLine
 10
-3.0
 20
9.0
 30
0.0
 11
-14.299976
 21
9.0
 31
0.0
  0
LINE
  5
675
100
AcDbEntity
  8
0
370
    -3
390
0
  6
Continuous
100
AcDbLine
 10
-3.0
 20
-9.0
 30
0.0
 11
-14.299961
 21
-9.0
 31
0.0
  0
LINE
  5
676
100
AcDbEntity
  8
0
370
    -3
390
0
  6
Continuous
100
AcDbLine
 10
-14.999958
 20
-7.787735
 30
0.0
 11
-14.999973
 21
7.78734
 31
0.0
  0
LINE
  5
677
100
AcDbEntity
  8
0
370
    -3
390
0
  6
Continuous
100
AcDbLine
 10
-3.0
 20
-10.75
 30
0.0
 11
-3.0
 21
10.75
 31
0.0
  0
LINE
  5
678
100
AcDbEntity
  8
0
370
    -3
390
0
  6
Continuous
100
AcDbLine
 10
0.0
 20
10.75
 30
0.0
 11
0.0
 21
-10.75
 31
0.0
  0
POINT
  5
679
100
AcDbEntity
  8
0
370
    -3
390
0
  6
Continuous
100
AcDbPoint
 10
0.0
 20
0.0
 30
0.0
  0
ENDBLK
  5
67A
100
AcDbEntity
  8
0
390
0
100
AcDbBlockEnd
  0
BLOCK
  5
67D
100
AcDbEntity
  8
0
390
0
100
AcDbBlockBegin
  2
ZU_SYM_K__CAD_SYM_POO_SYM_B21_0000820
 70
    64
 10
0.0
 20
0.0
 30
0.0
  3
ZU_SYM_K__CAD_SYM_POO_SYM_B21_0000820
  1

  0
LINE
  5
67E
100
AcDbEntity
  8
0
370
    -3
390
0
  6
Continuous
100
AcDbLine
 10
0.000001
 20
0.015238
 30
0.0
 11
-2.999999
 21
-1.076669
 31
0.0
  0
LINE
  5
67F
100
AcDbEntity
  8
0
370
    -3
390
0
  6
Continuous
100
AcDbLine
 10
-2.999999
 20
-0.025431
 30
0.0
 11
0.000001
 21
1.066476
 31
0.0
  0
LINE
  5
680
100
AcDbEntity
  8
0
370
    -3
390
0
  6
Continuous
100
AcDbLine
 10
-14.299976
 20
9.0
 30
0.0
 11
-14.299976
 21
-9.0
 31
0.0
  0
LINE
  5
681
100
AcDbEntity
  8
0
370
    -3
390
0
  6
Continuous
100
AcDbLine
 10
-14.299962
 20
-9.000003
 30
0.0
 11
-14.999959
 21
-7.787739
 31
0.0
  0
LINE
  5
682
100
AcDbEntity
  8
0
370
    -3
390
0
  6
Continuous
100
AcDbLine
 10
-14.299981
 20
9.000001
 30
0.0
 11
-14.999978
 21
7.787341
 31
0.0
  0
LINE
  5
683
100
AcDbEntity
  8
0
370
    -3
390
0
  6
Continuous
100
AcDbLine
 10
0.0
 20
-10.75
 30
0.0
 11
-3.0
 21
-10.75
 31
0.0
  0
LINE
  5
684
100
AcDbEntity
  8
0
370
    -3
390
0
  6
Continuous
100
AcDbLine
 10
0.0
 20
10.75
 30
0.0
 11
-3.0
 21
10.75
 31
0.0
  0
LINE
  5
685
100
AcDbEntity
  8
0
370
    -3
390
0
  6
Continuous
100
AcDbLine
 10
-3.0
 20
9.0
 30
0.0
 11
-14.299976
 21
9.0
 31
0.0
  0
LINE
  5
686
100
AcDbEntity
  8
0
370
    -3
390
0
  6
Continuous
100
AcDbLine
 10
-3.0
 20
-9.0
 30
0.0
 11
-14.299961
 21
-9.0
 31
0.0
  0
LINE
  5
687
100
AcDbEntity
  8
0
370
    -3
390
0
  6
Continuous
100
AcDbLine
 10
-14.999958
 20
-7.787735
 30
0.0
 11
-14.999973
 21
7.78734
 31
0.0
  0
LINE
  5
688
100
AcDbEntity
  8
0
370
    -3
390
0
  6
Continuous
100
AcDbLine
 10
-3.0
 20
-10.75
 30
0.0
 11
-3.0
 21
10.75
 31
0.0
  0
LINE
  5
689
100
AcDbEntity
  8
0
370
    -3
390
0
  6
Continuous
100
AcDbLine
 10
0.0
 20
10.75
 30
0.0
 11
0.0
 21
-10.75
 31
0.0
  0
POINT
  5
68A
100
AcDbEntity
  8
0
370
    -3
390
0
  6
Continuous
100
AcDbPoint
 10
0.0
 20
0.0
 30
0.0
  0
ENDBLK
  5
68B
100
AcDbEntity
  8
0
390
0
100
AcDbBlockEnd
  0
BLOCK
  5
68E
100
AcDbEntity
  8
0
390
0
100
AcDbBlockBegin
  2
ZU_SYM_K__CAD_SYM_POO_SYM_B21_0000920
 70
    64
 10
0.0
 20
0.0
 30
0.0
  3
ZU_SYM_K__CAD_SYM_POO_SYM_B21_0000920
  1

  0
LINE
  5
68F
100
AcDbEntity
  8
0
370
    -3
390
0
  6
Continuous
100
AcDbLine
 10
0.000001
 20
0.015238
 30
0.0
 11
-2.999999
 21
-1.076669
 31
0.0
  0
LINE
  5
690
100
AcDbEntity
  8
0
370
    -3
390
0
  6
Continuous
100
AcDbLine
 10
-2.999999
 20
-0.025431
 30
0.0
 11
0.000001
 21
1.066476
 31
0.0
  0
LINE
  5
691
100
AcDbEntity
  8
0
370
    -3
390
0
  6
Continuous
100
AcDbLine
 10
-14.299976
 20
9.0
 30
0.0
 11
-14.299976
 21
-9.0
 31
0.0
  0
LINE
  5
692
100
AcDbEntity
  8
0
370
    -3
390
0
  6
Continuous
100
AcDbLine
 10
-14.299962
 20
-9.000003
 30
0.0
 11
-14.999959
 21
-7.787739
 31
0.0
  0
LINE
  5
693
100
AcDbEntity
  8
0
370
    -3
390
0
  6
Continuous
100
AcDbLine
 10
-14.299981
 20
9.000001
 30
0.0
 11
-14.999978
 21
7.787341
 31
0.0
  0
LINE
  5
694
100
AcDbEntity
  8
0
370
    -3
390
0
  6
Continuous
100
AcDbLine
 10
0.0
 20
-10.75
 30
0.0
 11
-3.0
 21
-10.75
 31
0.0
  0
LINE
  5
695
100
AcDbEntity
  8
0
370
    -3
390
0
  6
Continuous
100
AcDbLine
 10
0.0
 20
10.75
 30
0.0
 11
-3.0
 21
10.75
 31
0.0
  0
LINE
  5
696
100
AcDbEntity
  8
0
370
    -3
390
0
  6
Continuous
100
AcDbLine
 10
-3.0
 20
9.0
 30
0.0
 11
-14.299976
 21
9.0
 31
0.0
  0
LINE
  5
697
100
AcDbEntity
  8
0
370
    -3
390
0
  6
Continuous
100
AcDbLine
 10
-3.0
 20
-9.0
 30
0.0
 11
-14.299961
 21
-9.0
 31
0.0
  0
LINE
  5
698
100
AcDbEntity
  8
0
370
    -3
390
0
  6
Continuous
100
AcDbLine
 10
-14.999958
 20
-7.787735
 30
0.0
 11
-14.999973
 21
7.78734
 31
0.0
  0
LINE
  5
699
100
AcDbEntity
  8
0
370
    -3
390
0
  6
Continuous
100
AcDbLine
 10
-3.0
 20
-10.75
 30
0.0
 11
-3.0
 21
10.75
 31
0.0
  0
LINE
  5
69A
100
AcDbEntity
  8
0
370
    -3
390
0
  6
Continuous
100
AcDbLine
 10
0.0
 20
10.75
 30
0.0
 11
0.0
 21
-10.75
 31
0.0
  0
POINT
  5
69B
100
AcDbEntity
  8
0
370
    -3
390
0
  6
Continuous
100
AcDbPoint
 10
0.0
 20
0.0
 30
0.0
  0
ENDBLK
  5
69C
100
AcDbEntity
  8
0
390
0
100
AcDbBlockEnd
  0
BLOCK
  5
6BE
100
AcDbEntity
  8
0
390
0
100
AcDbBlockBegin
  2
ZU_SYM_K__CAD_SYM_POO_SYM_B21_0001020
 70
    64
 10
0.0
 20
0.0
 30
0.0
  3
ZU_SYM_K__CAD_SYM_POO_SYM_B21_0001020
  1

  0
POINT
  5
6BF
100
AcDbEntity
  8
0
370
    -3
390
0
  6
Continuous
100
AcDbPoint
 10
0.0
 20
0.0
 30
0.0
  0
LINE
  5
6C0
100
AcDbEntity
  8
0
370
    -3
390
0
  6
Continuous
100
AcDbLine
 10
0.0
 20
10.75
 30
0.0
 11
0.0
 21
-10.75
 31
0.0
  0
LINE
  5
6C1
100
AcDbEntity
  8
0
370
    -3
390
0
  6
Continuous
100
AcDbLine
 10
-3.0
 20
-10.75
 30
0.0
 11
-3.0
 21
10.75
 31
0.0
  0
LINE
  5
6C2
100
AcDbEntity
  8
0
370
    -3
390
0
  6
Continuous
100
AcDbLine
 10
-14.999958
 20
-7.787735
 30
0.0
 11
-14.999973
 21
7.78734
 31
0.0
  0
LINE
  5
6C3
100
AcDbEntity
  8
0
370
    -3
390
0
  6
Continuous
100
AcDbLine
 10
-3.0
 20
-9.0
 30
0.0
 11
-14.299961
 21
-9.0
 31
0.0
  0
LINE
  5
6C4
100
AcDbEntity
  8
0
370
    -3
390
0
  6
Continuous
100
AcDbLine
 10
-3.0
 20
9.0
 30
0.0
 11
-14.299976
 21
9.0
 31
0.0
  0
LINE
  5
6C5
100
AcDbEntity
  8
0
370
    -3
390
0
  6
Continuous
100
AcDbLine
 10
0.0
 20
10.75
 30
0.0
 11
-3.0
 21
10.75
 31
0.0
  0
LINE
  5
6C6
100
AcDbEntity
  8
0
370
    -3
390
0
  6
Continuous
100
AcDbLine
 10
0.0
 20
-10.75
 30
0.0
 11
-3.0
 21
-10.75
 31
0.0
  0
LINE
  5
6C7
100
AcDbEntity
  8
0
370
    -3
390
0
  6
Continuous
100
AcDbLine
 10
-14.299981
 20
9.000001
 30
0.0
 11
-14.999978
 21
7.787341
 31
0.0
  0
LINE
  5
6C8
100
AcDbEntity
  8
0
370
    -3
390
0
  6
Continuous
100
AcDbLine
 10
-14.299962
 20
-9.000003
 30
0.0
 11
-14.999959
 21
-7.787739
 31
0.0
  0
LINE
  5
6C9
100
AcDbEntity
  8
0
370
    -3
390
0
  6
Continuous
100
AcDbLine
 10
-14.299976
 20
9.0
 30
0.0
 11
-14.299976
 21
-9.0
 31
0.0
  0
LINE
  5
6CA
100
AcDbEntity
  8
0
370
    -3
390
0
  6
Continuous
100
AcDbLine
 10
-2.999999
 20
-0.025431
 30
0.0
 11
0.000001
 21
1.066476
 31
0.0
  0
LINE
  5
6CB
100
AcDbEntity
  8
0
370
    -3
390
0
  6
Continuous
100
AcDbLine
 10
0.000001
 20
0.015238
 30
0.0
 11
-2.999999
 21
-1.076669
 31
0.0
  0
ENDBLK
  5
6CC
100
AcDbEntity
  8
0
390
0
100
AcDbBlockEnd
  0
BLOCK
  5
6D5
100
AcDbEntity
  8
0
390
0
100
AcDbBlockBegin
  2
ZU_SYM_K__CAD_SYM_POO_SYM_B21_0001120
 70
    64
 10
0.0
 20
0.0
 30
0.0
  3
ZU_SYM_K__CAD_SYM_POO_SYM_B21_0001120
  1

  0
POINT
  5
6D6
100
AcDbEntity
  8
0
370
    -3
390
0
  6
Continuous
100
AcDbPoint
 10
0.0
 20
0.0
 30
0.0
  0
LINE
  5
6D7
100
AcDbEntity
  8
0
370
    -3
390
0
  6
Continuous
100
AcDbLine
 10
0.0
 20
10.75
 30
0.0
 11
0.0
 21
-10.75
 31
0.0
  0
LINE
  5
6D8
100
AcDbEntity
  8
0
370
    -3
390
0
  6
Continuous
100
AcDbLine
 10
-3.0
 20
-10.75
 30
0.0
 11
-3.0
 21
10.75
 31
0.0
  0
LINE
  5
6D9
100
AcDbEntity
  8
0
370
    -3
390
0
  6
Continuous
100
AcDbLine
 10
-14.999958
 20
-7.787735
 30
0.0
 11
-14.999973
 21
7.78734
 31
0.0
  0
LINE
  5
6DA
100
AcDbEntity
  8
0
370
    -3
390
0
  6
Continuous
100
AcDbLine
 10
-3.0
 20
-9.0
 30
0.0
 11
-14.299961
 21
-9.0
 31
0.0
  0
LINE
  5
6DB
100
AcDbEntity
  8
0
370
    -3
390
0
  6
Continuous
100
AcDbLine
 10
-3.0
 20
9.0
 30
0.0
 11
-14.299976
 21
9.0
 31
0.0
  0
LINE
  5
6DC
100
AcDbEntity
  8
0
370
    -3
390
0
  6
Continuous
100
AcDbLine
 10
0.0
 20
10.75
 30
0.0
 11
-3.0
 21
10.75
 31
0.0
  0
LINE
  5
6DD
100
AcDbEntity
  8
0
370
    -3
390
0
  6
Continuous
100
AcDbLine
 10
0.0
 20
-10.75
 30
0.0
 11
-3.0
 21
-10.75
 31
0.0
  0
LINE
  5
6DE
100
AcDbEntity
  8
0
370
    -3
390
0
  6
Continuous
100
AcDbLine
 10
-14.299981
 20
9.000001
 30
0.0
 11
-14.999978
 21
7.787341
 31
0.0
  0
LINE
  5
6DF
100
AcDbEntity
  8
0
370
    -3
390
0
  6
Continuous
100
AcDbLine
 10
-14.299962
 20
-9.000003
 30
0.0
 11
-14.999959
 21
-7.787739
 31
0.0
  0
LINE
  5
6E0
100
AcDbEntity
  8
0
370
    -3
390
0
  6
Continuous
100
AcDbLine
 10
-14.299976
 20
9.0
 30
0.0
 11
-14.299976
 21
-9.0
 31
0.0
  0
LINE
  5
6E1
100
AcDbEntity
  8
0
370
    -3
390
0
  6
Continuous
100
AcDbLine
 10
-2.999999
 20
-0.025431
 30
0.0
 11
0.000001
 21
1.066476
 31
0.0
  0
LINE
  5
6E2
100
AcDbEntity
  8
0
370
    -3
390
0
  6
Continuous
100
AcDbLine
 10
0.000001
 20
0.015238
 30
0.0
 11
-2.999999
 21
-1.076669
 31
0.0
  0
ENDBLK
  5
6E3
100
AcDbEntity
  8
0
390
0
100
AcDbBlockEnd
  0
BLOCK
  5
72B
100
AcDbEntity
  8
0
390
0
100
AcDbBlockBegin
  2
ZU_SYM_C__ZUOU_AC_BLOCK_BLKF052_00
 70
    64
 10
0.0
 20
0.0
 30
0.0
  3
ZU_SYM_C__ZUOU_AC_BLOCK_BLKF052_00
  1

  0
LINE
  5
72C
100
AcDbEntity
  8
0
370
    -3
390
0
  6
Continuous
100
AcDbLine
 10
573.482697
 20
1006.849427
 30
0.0
 11
573.482697
 21
995.542955
 31
0.0
  0
LINE
  5
72D
100
AcDbEntity
  8
0
370
    -3
390
0
  6
Continuous
100
AcDbLine
 10
575.081522
 20
995.064887
 30
0.0
 11
600.883872
 21
995.064887
 31
0.0
  0
LINE
  5
72E
100
AcDbEntity
  8
0
370
    -3
390
0
  6
Continuous
100
AcDbLine
 10
575.982697
 20
978.306456
 30
0.0
 11
599.982697
 21
978.306456
 31
0.0
  0
LINE
  5
72F
100
AcDbEntity
  8
0
370
    -3
390
0
  6
Continuous
100
AcDbLine
 10
575.982697
 20
975.54874
 30
0.0
 11
599.982697
 21
975.54874
 31
0.0
  0
LINE
  5
730
100
AcDbEntity
  8
0
370
    -3
390
0
  6
Continuous
100
AcDbLine
 10
576.482697
 20
974.134526
 30
0.0
 11
599.482697
 21
974.134526
 31
0.0
  0
LINE
  5
731
100
AcDbEntity
  8
0
370
    -3
390
0
  6
Continuous
100
AcDbLine
 10
575.59117
 20
1009.207023
 30
0.0
 11
600.673669
 21
1009.207023
 31
0.0
  0
LINE
  5
732
100
AcDbEntity
  8
0
370
    -3
390
0
  6
Continuous
100
AcDbLine
 10
575.926231
 20
990.602909
 30
0.0
 11
573.595629
 21
995.081316
 31
0.0
  0
LINE
  5
733
100
AcDbEntity
  8
0
370
    -3
390
0
  6
Continuous
100
AcDbLine
 10
574.816573
 20
1008.839478
 30
0.0
 11
573.7081
 21
1007.481882
 31
0.0
  0
LINE
  5
734
100
AcDbEntity
  8
0
370
    -3
390
0
  6
Continuous
100
AcDbLine
 10
574.956036
 20
995.261625
 30
0.0
 11
573.7081
 21
996.790027
 31
0.0
  0
LINE
  5
735
100
AcDbEntity
  8
0
370
    -3
390
0
  6
Continuous
100
AcDbLine
 10
575.163957
 20
994.815339
 30
0.0
 11
575.973956
 21
990.540538
 31
0.0
  0
LINE
  5
736
100
AcDbEntity
  8
0
370
    -3
390
0
  6
Continuous
100
AcDbLine
 10
575.982697
 20
990.447453
 30
0.0
 11
575.982697
 21
974.634526
 31
0.0
  0
ARC
  5
737
100
AcDbEntity
  8
0
370
    -3
390
0
  6
Continuous
100
AcDbCircle
 10
576.482697
 20
974.634526
 30
0.0
 40
0.5
100
AcDbArc
 50
180.0
 51
270.0
  0
ARC
  5
738
100
AcDbEntity
  8
0
370
    -3
390
0
  6
Continuous
100
AcDbCircle
 10
574.482697
 20
1006.849427
 30
0.0
 40
1.0
100
AcDbArc
 50
140.76848
 51
180.0
  0
ARC
  5
739
100
AcDbEntity
  8
0
370
    -3
390
0
  6
Continuous
100
AcDbCircle
 10
574.482697
 20
997.422483
 30
0.0
 40
1.0
100
AcDbArc
 50
180.0
 51
219.23152
  0
ARC
  5
73A
100
AcDbEntity
  8
0
370
    -3
390
0
  6
Continuous
100
AcDbCircle
 10
575.59117
 20
1008.207023
 30
0.0
 40
1.0
100
AcDbArc
 50
90.0
 51
140.76848
  0
ARC
  5
73B
100
AcDbEntity
  8
0
370
    -3
390
0
  6
Continuous
100
AcDbCircle
 10
574.181439
 20
994.62917
 30
0.0
 40
1.0
100
AcDbArc
 50
10.729337
 51
39.23152
  0
ARC
  5
73C
100
AcDbEntity
  8
0
370
    -3
390
0
  6
Continuous
100
AcDbCircle
 10
574.482697
 20
995.542955
 30
0.0
 40
1.0
100
AcDbArc
 50
180.0
 51
207.492863
  0
ARC
  5
73D
100
AcDbEntity
  8
0
370
    -3
390
0
  6
Continuous
100
AcDbCircle
 10
575.482697
 20
990.37209
 30
0.0
 40
0.5
100
AcDbArc
 50
0.0
 51
27.492863
  0
ARC
  5
73E
100
AcDbEntity
  8
0
370
    -3
390
0
  6
Continuous
100
AcDbCircle
 10
575.482697
 20
990.447453
 30
0.0
 40
0.5
100
AcDbArc
 50
0.0
 51
10.729337
  0
LINE
  5
73F
100
AcDbEntity
  8
0
370
    -3
390
0
  6
Continuous
100
AcDbLine
 10
600.039163
 20
990.602909
 30
0.0
 11
600.982697
 21
992.415972
 31
0.0
  0
LINE
  5
740
100
AcDbEntity
  8
0
370
    -3
390
0
  6
Continuous
100
AcDbLine
 10
600.801438
 20
994.815339
 30
0.0
 11
599.991438
 21
990.540538
 31
0.0
  0
LINE
  5
741
100
AcDbEntity
  8
0
370
    -3
390
0
  6
Continuous
100
AcDbLine
 10
599.982697
 20
990.447453
 30
0.0
 11
599.982697
 21
974.634526
 31
0.0
  0
ARC
  5
742
100
AcDbEntity
  8
0
370
    -3
390
0
  6
Continuous
100
AcDbCircle
 10
599.482697
 20
974.634526
 30
0.0
 40
0.5
100
AcDbArc
 50
270.0
 51
0.0
  0
ARC
  5
743
100
AcDbEntity
  8
0
370
    -3
390
0
  6
Continuous
100
AcDbCircle
 10
600.374225
 20
1008.207023
 30
0.0
 40
1.0
100
AcDbArc
 50
52.520866
 51
90.0
  0
ARC
  5
744
100
AcDbEntity
  8
0
370
    -3
390
0
  6
Continuous
100
AcDbCircle
 10
601.783955
 20
994.62917
 30
0.0
 40
1.0
100
AcDbArc
 50
143.250415
 51
169.270663
  0
ARC
  5
745
100
AcDbEntity
  8
0
370
    -3
390
0
  6
Continuous
100
AcDbCircle
 10
600.482697
 20
990.37209
 30
0.0
 40
0.5
100
AcDbArc
 50
152.507137
 51
180.0
  0
ARC
  5
746
100
AcDbEntity
  8
0
370
    -3
390
0
  6
Continuous
100
AcDbCircle
 10
600.482697
 20
990.447453
 30
0.0
 40
0.5
100
AcDbArc
 50
169.270663
 51
180.0
  0
ENDBLK
  5
747
100
AcDbEntity
  8
0
390
0
100
AcDbBlockEnd
  0
BLOCK
  5
75A
100
AcDbEntity
  8
0
390
0
100
AcDbBlockBegin
  2
ZU_SYM_C__ZUOU_AC_BLOCK_BLKF052_0001200
 70
    64
 10
0.0
 20
0.0
 30
0.0
  3
ZU_SYM_C__ZUOU_AC_BLOCK_BLKF052_0001200
  1

  0
LINE
  5
75B
100
AcDbEntity
  8
0
370
    -3
390
0
  6
Continuous
100
AcDbLine
 10
573.482697
 20
1006.849427
 30
0.0
 11
573.482697
 21
995.542955
 31
0.0
  0
LINE
  5
75C
100
AcDbEntity
  8
0
370
    -3
390
0
  6
Continuous
100
AcDbLine
 10
575.081522
 20
995.064887
 30
0.0
 11
600.883872
 21
995.064887
 31
0.0
  0
LINE
  5
75D
100
AcDbEntity
  8
0
370
    -3
390
0
  6
Continuous
100
AcDbLine
 10
575.982697
 20
978.306456
 30
0.0
 11
599.982697
 21
978.306456
 31
0.0
  0
LINE
  5
75E
100
AcDbEntity
  8
0
370
    -3
390
0
  6
Continuous
100
AcDbLine
 10
575.982697
 20
975.54874
 30
0.0
 11
599.982697
 21
975.54874
 31
0.0
  0
LINE
  5
75F
100
AcDbEntity
  8
0
370
    -3
390
0
  6
Continuous
100
AcDbLine
 10
576.482697
 20
974.134526
 30
0.0
 11
599.482697
 21
974.134526
 31
0.0
  0
LINE
  5
760
100
AcDbEntity
  8
0
370
    -3
390
0
  6
Continuous
100
AcDbLine
 10
575.59117
 20
1009.207023
 30
0.0
 11
600.673669
 21
1009.207023
 31
0.0
  0
LINE
  5
761
100
AcDbEntity
  8
0
370
    -3
390
0
  6
Continuous
100
AcDbLine
 10
575.926231
 20
990.602909
 30
0.0
 11
573.595629
 21
995.081316
 31
0.0
  0
LINE
  5
762
100
AcDbEntity
  8
0
370
    -3
390
0
  6
Continuous
100
AcDbLine
 10
574.816573
 20
1008.839478
 30
0.0
 11
573.7081
 21
1007.481882
 31
0.0
  0
LINE
  5
763
100
AcDbEntity
  8
0
370
    -3
390
0
  6
Continuous
100
AcDbLine
 10
574.956036
 20
995.261625
 30
0.0
 11
573.7081
 21
996.790027
 31
0.0
  0
LINE
  5
764
100
AcDbEntity
  8
0
370
    -3
390
0
  6
Continuous
100
AcDbLine
 10
575.163957
 20
994.815339
 30
0.0
 11
575.973956
 21
990.540538
 31
0.0
  0
LINE
  5
765
100
AcDbEntity
  8
0
370
    -3
390
0
  6
Continuous
100
AcDbLine
 10
575.982697
 20
990.447453
 30
0.0
 11
575.982697
 21
974.634526
 31
0.0
  0
ARC
  5
766
100
AcDbEntity
  8
0
370
    -3
390
0
  6
Continuous
100
AcDbCircle
 10
576.482697
 20
974.634526
 30
0.0
 40
0.5
100
AcDbArc
 50
180.0
 51
270.0
  0
ARC
  5
767
100
AcDbEntity
  8
0
370
    -3
390
0
  6
Continuous
100
AcDbCircle
 10
574.482697
 20
1006.849427
 30
0.0
 40
1.0
100
AcDbArc
 50
140.76848
 51
180.0
  0
ARC
  5
768
100
AcDbEntity
  8
0
370
    -3
390
0
  6
Continuous
100
AcDbCircle
 10
574.482697
 20
997.422483
 30
0.0
 40
1.0
100
AcDbArc
 50
180.0
 51
219.23152
  0
ARC
  5
769
100
AcDbEntity
  8
0
370
    -3
390
0
  6
Continuous
100
AcDbCircle
 10
575.59117
 20
1008.207023
 30
0.0
 40
1.0
100
AcDbArc
 50
90.0
 51
140.76848
  0
ARC
  5
76A
100
AcDbEntity
  8
0
370
    -3
390
0
  6
Continuous
100
AcDbCircle
 10
574.181439
 20
994.62917
 30
0.0
 40
1.0
100
AcDbArc
 50
10.729337
 51
39.23152
  0
ARC
  5
76B
100
AcDbEntity
  8
0
370
    -3
390
0
  6
Continuous
100
AcDbCircle
 10
574.482697
 20
995.542955
 30
0.0
 40
1.0
100
AcDbArc
 50
180.0
 51
207.492863
  0
ARC
  5
76C
100
AcDbEntity
  8
0
370
    -3
390
0
  6
Continuous
100
AcDbCircle
 10
575.482697
 20
990.37209
 30
0.0
 40
0.5
100
AcDbArc
 50
0.0
 51
27.492863
  0
ARC
  5
76D
100
AcDbEntity
  8
0
370
    -3
390
0
  6
Continuous
100
AcDbCircle
 10
575.482697
 20
990.447453
 30
0.0
 40
0.5
100
AcDbArc
 50
0.0
 51
10.729337
  0
LINE
  5
76E
100
AcDbEntity
  8
0
370
    -3
390
0
  6
Continuous
100
AcDbLine
 10
600.039163
 20
990.602909
 30
0.0
 11
600.982697
 21
992.415972
 31
0.0
  0
LINE
  5
76F
100
AcDbEntity
  8
0
370
    -3
390
0
  6
Continuous
100
AcDbLine
 10
600.801438
 20
994.815339
 30
0.0
 11
599.991438
 21
990.540538
 31
0.0
  0
LINE
  5
770
100
AcDbEntity
  8
0
370
    -3
390
0
  6
Continuous
100
AcDbLine
 10
599.982697
 20
990.447453
 30
0.0
 11
599.982697
 21
974.634526
 31
0.0
  0
ARC
  5
771
100
AcDbEntity
  8
0
370
    -3
390
0
  6
Continuous
100
AcDbCircle
 10
599.482697
 20
974.634526
 30
0.0
 40
0.5
100
AcDbArc
 50
270.0
 51
0.0
  0
ARC
  5
772
100
AcDbEntity
  8
0
370
    -3
390
0
  6
Continuous
100
AcDbCircle
 10
600.374225
 20
1008.207023
 30
0.0
 40
1.0
100
AcDbArc
 50
52.520866
 51
90.0
  0
ARC
  5
773
100
AcDbEntity
  8
0
370
    -3
390
0
  6
Continuous
100
AcDbCircle
 10
601.783955
 20
994.62917
 30
0.0
 40
1.0
100
AcDbArc
 50
143.250415
 51
169.270663
  0
ARC
  5
774
100
AcDbEntity
  8
0
370
    -3
390
0
  6
Continuous
100
AcDbCircle
 10
600.482697
 20
990.37209
 30
0.0
 40
0.5
100
AcDbArc
 50
152.507137
 51
180.0
  0
ARC
  5
775
100
AcDbEntity
  8
0
370
    -3
390
0
  6
Continuous
100
AcDbCircle
 10
600.482697
 20
990.447453
 30
0.0
 40
0.5
100
AcDbArc
 50
169.270663
 51
180.0
  0
ENDBLK
  5
776
100
AcDbEntity
  8
0
390
0
100
AcDbBlockEnd
  0
BLOCK
  5
783
100
AcDbEntity
  8
0
390
0
100
AcDbBlockBegin
  2
ZU_SYM_C__ZUOU_AC_BLOCK_BLKF071_00
 70
    64
 10
0.0
 20
0.0
 30
0.0
  3
ZU_SYM_C__ZUOU_AC_BLOCK_BLKF071_00
  1

  0
LINE
  5
784
100
AcDbEntity
  8
0
370
    -3
390
0
  6
Continuous
100
AcDbLine
 10
400.164618
 20
773.918624
 30
0.0
 11
400.164618
 21
776.02853
 31
0.0
  0
LINE
  5
785
100
AcDbEntity
  8
0
370
    -3
390
0
  6
Continuous
100
AcDbLine
 10
368.164618
 20
795.953496
 30
0.0
 11
380.550394
 21
795.953496
 31
0.0
  0
LINE
  5
786
100
AcDbEntity
  8
0
370
    -3
390
0
  6
Continuous
100
AcDbLine
 10
368.164618
 20
787.828457
 30
0.0
 11
368.164618
 21
795.953496
 31
0.0
  0
LINE
  5
787
100
AcDbEntity
  8
0
370
    -3
390
0
  6
Continuous
100
AcDbLine
 10
368.164618
 20
789.938364
 30
0.0
 11
400.164618
 21
776.02853
 31
0.0
  0
LINE
  5
788
100
AcDbEntity
  8
0
370
    -3
390
0
  6
Continuous
100
AcDbLine
 10
400.164618
 20
773.918624
 30
0.0
 11
368.164618
 21
787.828457
 31
0.0
  0
LINE
  5
789
100
AcDbEntity
  8
0
370
    -3
390
0
  6
Continuous
100
AcDbLine
 10
536.164618
 20
776.02853
 30
0.0
 11
400.164618
 21
776.02853
 31
0.0
  0
LINE
  5
78A
100
AcDbEntity
  8
0
370
    -3
390
0
  6
Continuous
100
AcDbLine
 10
536.164618
 20
773.918624
 30
0.0
 11
400.164618
 21
773.918624
 31
0.0
  0
LINE
  5
78B
100
AcDbEntity
  8
0
370
    -3
390
0
  6
Continuous
100
AcDbLine
 10
536.164618
 20
773.918624
 30
0.0
 11
536.164618
 21
776.02853
 31
0.0
  0
LINE
  5
78C
100
AcDbEntity
  8
0
370
    -3
390
0
  6
Continuous
100
AcDbLine
 10
568.164618
 20
795.953496
 30
0.0
 11
555.778841
 21
795.953496
 31
0.0
  0
LINE
  5
78D
100
AcDbEntity
  8
0
370
    -3
390
0
  6
Continuous
100
AcDbLine
 10
568.164618
 20
787.828457
 30
0.0
 11
568.164618
 21
795.953496
 31
0.0
  0
LINE
  5
78E
100
AcDbEntity
  8
0
370
    -3
390
0
  6
Continuous
100
AcDbLine
 10
568.164618
 20
789.938364
 30
0.0
 11
536.164618
 21
776.02853
 31
0.0
  0
LINE
  5
78F
100
AcDbEntity
  8
0
370
    -3
390
0
  6
Continuous
100
AcDbLine
 10
536.164618
 20
773.918624
 30
0.0
 11
568.164618
 21
787.828457
 31
0.0
  0
ENDBLK
  5
790
100
AcDbEntity
  8
0
390
0
100
AcDbBlockEnd
  0
BLOCK
  5
793
100
AcDbEntity
  8
0
390
0
100
AcDbBlockBegin
  2
ZU_SYM_C__ZUOU_AC_BLOCK_BLKF073_00
 70
    64
 10
0.0
 20
0.0
 30
0.0
  3
ZU_SYM_C__ZUOU_AC_BLOCK_BLKF073_00
  1

  0
LINE
  5
794
100
AcDbEntity
  8
0
370
    -3
390
0
  6
Continuous
100
AcDbLine
 10
400.164618
 20
761.424167
 30
0.0
 11
400.164618
 21
763.201991
 31
0.0
  0
LINE
  5
795
100
AcDbEntity
  8
0
370
    -3
390
0
  6
Continuous
100
AcDbLine
 10
368.164618
 20
785.237275
 30
0.0
 11
374.125712
 21
785.237275
 31
0.0
  0
LINE
  5
796
100
AcDbEntity
  8
0
370
    -3
390
0
  6
Continuous
100
AcDbLine
 10
368.164618
 20
776.807236
 30
0.0
 11
368.164618
 21
785.237275
 31
0.0
  0
LINE
  5
797
100
AcDbEntity
  8
0
370
    -3
390
0
  6
Continuous
100
AcDbLine
 10
368.164618
 20
778.585061
 30
0.0
 11
400.164618
 21
763.201991
 31
0.0
  0
LINE
  5
798
100
AcDbEntity
  8
0
370
    -3
390
0
  6
Continuous
100
AcDbLine
 10
400.164618
 20
761.424167
 30
0.0
 11
368.164618
 21
776.807236
 31
0.0
  0
LINE
  5
799
100
AcDbEntity
  8
0
370
    -3
390
0
  6
Continuous
100
AcDbLine
 10
536.164618
 20
761.424167
 30
0.0
 11
400.164618
 21
761.424167
 31
0.0
  0
LINE
  5
79A
100
AcDbEntity
  8
0
370
    -3
390
0
  6
Continuous
100
AcDbLine
 10
536.164618
 20
763.201991
 30
0.0
 11
400.164618
 21
763.201991
 31
0.0
  0
LINE
  5
79B
100
AcDbEntity
  8
0
370
    -3
390
0
  6
Continuous
100
AcDbLine
 10
536.164618
 20
761.424167
 30
0.0
 11
536.164618
 21
763.201991
 31
0.0
  0
LINE
  5
79C
100
AcDbEntity
  8
0
370
    -3
390
0
  6
Continuous
100
AcDbLine
 10
568.164618
 20
785.237275
 30
0.0
 11
562.203523
 21
785.237275
 31
0.0
  0
LINE
  5
79D
100
AcDbEntity
  8
0
370
    -3
390
0
  6
Continuous
100
AcDbLine
 10
568.164618
 20
776.807236
 30
0.0
 11
568.164618
 21
785.237275
 31
0.0
  0
LINE
  5
79E
100
AcDbEntity
  8
0
370
    -3
390
0
  6
Continuous
100
AcDbLine
 10
568.164618
 20
778.585061
 30
0.0
 11
536.164618
 21
763.201991
 31
0.0
  0
LINE
  5
79F
100
AcDbEntity
  8
0
370
    -3
390
0
  6
Continuous
100
AcDbLine
 10
536.164618
 20
761.424167
 30
0.0
 11
568.164618
 21
776.807236
 31
0.0
  0
ENDBLK
  5
7A0
100
AcDbEntity
  8
0
390
0
100
AcDbBlockEnd
  0
BLOCK
  5
7A3
100
AcDbEntity
  8
0
390
0
100
AcDbBlockBegin
  2
ZU_SYM_C__ZUOU_AC_BLOCK_BLKF074_00
 70
    64
 10
0.0
 20
0.0
 30
0.0
  3
ZU_SYM_C__ZUOU_AC_BLOCK_BLKF074_00
  1

  0
LINE
  5
7A4
100
AcDbEntity
  8
0
370
    -3
390
0
  6
Continuous
100
AcDbLine
 10
617.164618
 20
742.510054
 30
0.0
 11
614.164618
 21
739.510054
 31
0.0
  0
LINE
  5
7A5
100
AcDbEntity
  8
0
370
    -3
390
0
  6
Continuous
100
AcDbLine
 10
404.68335
 20
747.228638
 30
0.0
 11
447.274927
 21
747.228638
 31
0.0
  0
LINE
  5
7A6
100
AcDbEntity
  8
0
370
    -3
390
0
  6
Continuous
100
AcDbLine
 10
609.675362
 20
739.510054
 30
0.0
 11
614.164618
 21
739.510054
 31
0.0
  0
LINE
  5
7A7
100
AcDbEntity
  8
0
370
    -3
390
0
  6
Continuous
100
AcDbLine
 10
617.164618
 20
742.510054
 30
0.0
 11
617.164618
 21
743.830756
 31
0.0
  0
LINE
  5
7A8
100
AcDbEntity
  8
0
370
    -3
390
0
  6
Continuous
100
AcDbLine
 10
412.33943
 20
739.510054
 30
0.0
 11
460.653873
 21
739.510054
 31
0.0
  0
LINE
  5
7A9
100
AcDbEntity
  8
0
370
    -3
390
0
  6
Continuous
100
AcDbLine
 10
381.164618
 20
762.010054
 30
0.0
 11
381.164618
 21
755.021242
 31
0.0
  0
ENDBLK
  5
7AA
100
AcDbEntity
  8
0
390
0
100
AcDbBlockEnd
  0
BLOCK
  5
7BD
100
AcDbEntity
  8
0
390
0
100
AcDbBlockBegin
  2
ZU_SYM_C__ZUOU_AC_BLOCK_BLKF064_00
 70
    64
 10
0.0
 20
0.0
 30
0.0
  3
ZU_SYM_C__ZUOU_AC_BLOCK_BLKF064_00
  1

  0
LINE
  5
7BE
100
AcDbEntity
  8
0
370
    -3
390
0
  6
Continuous
100
AcDbLine
 10
400.164618
 20
1015.101484
 30
0.0
 11
400.164618
 21
1012.991577
 31
0.0
  0
LINE
  5
7BF
100
AcDbEntity
  8
0
370
    -3
390
0
  6
Continuous
100
AcDbLine
 10
368.164618
 20
993.066611
 30
0.0
 11
380.550394
 21
993.066611
 31
0.0
  0
LINE
  5
7C0
100
AcDbEntity
  8
0
370
    -3
390
0
  6
Continuous
100
AcDbLine
 10
368.164618
 20
1001.19165
 30
0.0
 11
368.164618
 21
993.066611
 31
0.0
  0
LINE
  5
7C1
100
AcDbEntity
  8
0
370
    -3
390
0
  6
Continuous
100
AcDbLine
 10
368.164618
 20
999.081743
 30
0.0
 11
400.164618
 21
1012.991577
 31
0.0
  0
LINE
  5
7C2
100
AcDbEntity
  8
0
370
    -3
390
0
  6
Continuous
100
AcDbLine
 10
400.164618
 20
1015.101484
 30
0.0
 11
368.164618
 21
1001.19165
 31
0.0
  0
LINE
  5
7C3
100
AcDbEntity
  8
0
370
    -3
390
0
  6
Continuous
100
AcDbLine
 10
536.164618
 20
1012.991577
 30
0.0
 11
400.164618
 21
1012.991577
 31
0.0
  0
LINE
  5
7C4
100
AcDbEntity
  8
0
370
    -3
390
0
  6
Continuous
100
AcDbLine
 10
536.164618
 20
1015.101484
 30
0.0
 11
400.164618
 21
1015.101484
 31
0.0
  0
LINE
  5
7C5
100
AcDbEntity
  8
0
370
    -3
390
0
  6
Continuous
100
AcDbLine
 10
536.164618
 20
1015.101484
 30
0.0
 11
536.164618
 21
1012.991577
 31
0.0
  0
LINE
  5
7C6
100
AcDbEntity
  8
0
370
    -3
390
0
  6
Continuous
100
AcDbLine
 10
568.164618
 20
993.066611
 30
0.0
 11
555.778841
 21
993.066611
 31
0.0
  0
LINE
  5
7C7
100
AcDbEntity
  8
0
370
    -3
390
0
  6
Continuous
100
AcDbLine
 10
568.164618
 20
1001.19165
 30
0.0
 11
568.164618
 21
993.066611
 31
0.0
  0
LINE
  5
7C8
100
AcDbEntity
  8
0
370
    -3
390
0
  6
Continuous
100
AcDbLine
 10
568.164618
 20
999.081743
 30
0.0
 11
536.164618
 21
1012.991577
 31
0.0
  0
LINE
  5
7C9
100
AcDbEntity
  8
0
370
    -3
390
0
  6
Continuous
100
AcDbLine
 10
536.164618
 20
1015.101484
 30
0.0
 11
568.164618
 21
1001.19165
 31
0.0
  0
ENDBLK
  5
7CA
100
AcDbEntity
  8
0
390
0
100
AcDbBlockEnd
  0
BLOCK
  5
7CD
100
AcDbEntity
  8
0
390
0
100
AcDbBlockBegin
  2
ZU_SYM_C__ZUOU_AC_BLOCK_BLKF066_00
 70
    64
 10
0.0
 20
0.0
 30
0.0
  3
ZU_SYM_C__ZUOU_AC_BLOCK_BLKF066_00
  1

  0
LINE
  5
7CE
100
AcDbEntity
  8
0
370
    -3
390
0
  6
Continuous
100
AcDbLine
 10
400.164618
 20
1027.595941
 30
0.0
 11
400.164618
 21
1025.818116
 31
0.0
  0
LINE
  5
7CF
100
AcDbEntity
  8
0
370
    -3
390
0
  6
Continuous
100
AcDbLine
 10
368.164618
 20
1003.782832
 30
0.0
 11
374.125712
 21
1003.782832
 31
0.0
  0
LINE
  5
7D0
100
AcDbEntity
  8
0
370
    -3
390
0
  6
Continuous
100
AcDbLine
 10
368.164618
 20
1012.212871
 30
0.0
 11
368.164618
 21
1003.782832
 31
0.0
  0
LINE
  5
7D1
100
AcDbEntity
  8
0
370
    -3
390
0
  6
Continuous
100
AcDbLine
 10
368.164618
 20
1010.435047
 30
0.0
 11
400.164618
 21
1025.818116
 31
0.0
  0
LINE
  5
7D2
100
AcDbEntity
  8
0
370
    -3
390
0
  6
Continuous
100
AcDbLine
 10
400.164618
 20
1027.595941
 30
0.0
 11
368.164618
 21
1012.212871
 31
0.0
  0
LINE
  5
7D3
100
AcDbEntity
  8
0
370
    -3
390
0
  6
Continuous
100
AcDbLine
 10
536.164618
 20
1027.595941
 30
0.0
 11
400.164618
 21
1027.595941
 31
0.0
  0
LINE
  5
7D4
100
AcDbEntity
  8
0
370
    -3
390
0
  6
Continuous
100
AcDbLine
 10
536.164618
 20
1025.818116
 30
0.0
 11
400.164618
 21
1025.818116
 31
0.0
  0
LINE
  5
7D5
100
AcDbEntity
  8
0
370
    -3
390
0
  6
Continuous
100
AcDbLine
 10
536.164618
 20
1027.595941
 30
0.0
 11
536.164618
 21
1025.818116
 31
0.0
  0
LINE
  5
7D6
100
AcDbEntity
  8
0
370
    -3
390
0
  6
Continuous
100
AcDbLine
 10
568.164618
 20
1003.782832
 30
0.0
 11
562.203523
 21
1003.782832
 31
0.0
  0
LINE
  5
7D7
100
AcDbEntity
  8
0
370
    -3
390
0
  6
Continuous
100
AcDbLine
 10
568.164618
 20
1012.212871
 30
0.0
 11
568.164618
 21
1003.782832
 31
0.0
  0
LINE
  5
7D8
100
AcDbEntity
  8
0
370
    -3
390
0
  6
Continuous
100
AcDbLine
 10
568.164618
 20
1010.435047
 30
0.0
 11
536.164618
 21
1025.818116
 31
0.0
  0
LINE
  5
7D9
100
AcDbEntity
  8
0
370
    -3
390
0
  6
Continuous
100
AcDbLine
 10
536.164618
 20
1027.595941
 30
0.0
 11
568.164618
 21
1012.212871
 31
0.0
  0
ENDBLK
  5
7DA
100
AcDbEntity
  8
0
390
0
100
AcDbBlockEnd
  0
ENDSEC
  0
SECTION
  2
ENTITIES
  0
INSERT
  5
3F
100
AcDbEntity
  8
0
390
0
100
AcDbBlockReference
  2
ZU_SYM__USERS_HOME_SYMBOL_POO_SYM_B21_21
 10
-296.285297
 20
-388.514018
 30
0.0
  0
INSERT
  5
50
100
AcDbEntity
  8
0
390
0
100
AcDbBlockReference
  2
ZU_SYM__USERS_HOME_SYMBOL_POO_SYM_B21_0000121
 10
-296.285297
 20
-268.514018
 30
0.0
  0
INSERT
  5
61
100
AcDbEntity
  8
0
390
0
100
AcDbBlockReference
  2
ZU_SYM__USERS_HOME_SYMBOL_POO_SYM_B21_0000221
 10
-296.285297
 20
-123.514018
 30
0.0
  0
INSERT
  5
72
100
AcDbEntity
  8
0
390
0
100
AcDbBlockReference
  2
ZU_SYM_K__CAD_SYM_POO_SYM_B21_20
 10
-331.285297
 20
-360.514018
 30
0.0
  0
INSERT
  5
83
100
AcDbEntity
  8
0
390
0
100
AcDbBlockReference
  2
ZU_SYM_K__CAD_SYM_POO_SYM_B21_0000320
 10
-427.285297
 20
-432.014019
 30
0.0
 50
180.0
  0
INSERT
  5
94
100
AcDbEntity
  8
0
390
0
100
AcDbBlockReference
  2
ZU_SYM_K__CAD_SYM_POO_SYM_B21_0000420
 10
-427.285297
 20
-236.672386
 30
0.0
 41
-1.0
  0
INSERT
  5
A5
100
AcDbEntity
  8
0
390
0
100
AcDbBlockReference
  2
ZU_SYM_K__CAD_SYM_POO_SYM_B21_0000520
 10
-331.285297
 20
-219.130003
 30
0.0
  0
LINE
  5
A6
100
AcDbEntity
  8
0
370
    -3
390
0
  6
CENTER
100
AcDbLine
 10
-261.202143
 20
-360.514018
 30
0.0
 11
-927.731921
 21
-360.514018
 31
0.0
  0
LINE
  5
A7
100
AcDbEntity
  8
0
370
    -3
390
0
  6
Continuous
100
AcDbLine
 10
-751.285297
 20
-225.368266
 30
0.0
 11
-691.27161
 21
-225.368266
 31
0.0
  0
ARC
  5
A8
100
AcDbEntity
  8
0
370
    -3
390
0
  6
Continuous
100
AcDbCircle
 10
-691.27161
 20
-234.368266
 30
0.0
 40
9.0
100
AcDbArc
 50
9.449383
 51
90.0
  0
LINE
  5
A9
100
AcDbEntity
  8
0
370
    -3
390
0
  6
Continuous
100
AcDbLine
 10
-751.285297
 20
-225.368266
 30
0.0
 11
-811.298984
 21
-225.368266
 31
0.0
  0
ARC
  5
AA
100
AcDbEntity
  8
0
370
    -3
390
0
  6
Continuous
100
AcDbCircle
 10
-811.298984
 20
-234.368266
 30
0.0
 40
9.0
100
AcDbArc
 50
90.0
 51
170.550617
  0
ARC
  5
AB
100
AcDbEntity
  8
0
370
    -3
390
0
  6
Continuous
100
AcDbCircle
 10
-793.14286
 20
-358.855045
 30
0.0
 40
6.0
100
AcDbArc
 50
205.298826
 51
270.0
  0
ELLIPSE
  5
AC
100
AcDbEntity
  8
0
370
    -3
390
0
  6
Continuous
100
AcDbEllipse
 10
-808.785297
 20
-364.855045
 30
0.0
 11
11.0
 21
0.0
 31
0.0
210
0.0
220
0.0
230
1.0
 40
0.843458
 41
0.3793675677192439
 42
1.5707963267948966
  0
LINE
  5
AD
100
AcDbEntity
  8
0
370
    -3
390
0
  6
Continuous
100
AcDbLine
 10
-751.285297
 20
-364.855045
 30
0.0
 11
-793.14286
 21
-364.855045
 31
0.0
  0
ARC
  5
AE
100
AcDbEntity
  8
0
370
    -3
390
0
  6
Continuous
100
AcDbCircle
 10
-709.427734
 20
-358.855045
 30
0.0
 40
6.0
100
AcDbArc
 50
270.0
 51
334.701174
  0
ELLIPSE
  5
AF
100
AcDbEntity
  8
0
370
    -3
390
0
  6
Continuous
100
AcDbEllipse
 10
-693.785297
 20
-364.855045
 30
0.0
 11
11.0
 21
0.0
 31
0.0
210
0.0
220
0.0
230
1.0
 40
0.843458
 41
1.5707963267948966
 42
2.7622250858705493
  0
LINE
  5
B0
100
AcDbEntity
  8
0
370
    -3
390
0
  6
Continuous
100
AcDbLine
 10
-751.285297
 20
-364.855045
 30
0.0
 11
-709.427734
 21
-364.855045
 31
0.0
  0
LINE
  5
B1
100
AcDbEntity
  8
0
370
    -3
390
0
  6
Continuous
100
AcDbLine
 10
-807.088244
 20
-360.609655
 30
0.0
 11
-810.48235
 21
-364.003773
 31
0.0
  0
LINE
  5
B2
100
AcDbEntity
  8
0
370
    -3
390
0
  6
Continuous
100
AcDbLine
 10
-810.482355
 20
-360.60966
 30
0.0
 11
-807.088239
 21
-364.003768
 31
0.0
  0
POINT
  5
B3
100
AcDbEntity
  8
0
370
    -3
390
0
  6
Continuous
100
AcDbPoint
 10
-808.785297
 20
-362.306714
 30
0.0
  0
ELLIPSE
  5
B4
100
AcDbEntity
  8
0
370
    -3
390
0
  6
Continuous
100
AcDbEllipse
 10
-808.785297
 20
-362.306714
 30
0.0
 11
4.5
 21
0.0
 31
0.0
210
0.0
220
0.0
230
1.0
 40
0.727273
 41
0.0
 42
6.2831853071795862
  0
LINE
  5
B5
100
AcDbEntity
  8
0
370
    -3
390
0
  6
CENTER
100
AcDbLine
 10
-804.06524
 20
-362.306714
 30
0.0
 11
-813.692606
 21
-362.306714
 31
0.0
  0
LINE
  5
B6
100
AcDbEntity
  8
0
370
    -3
390
0
  6
CENTER
100
AcDbLine
 10
-808.785297
 20
-358.140852
 30
0.0
 11
-808.785297
 21
-366.757668
 31
0.0
  0
LINE
  5
B7
100
AcDbEntity
  8
0
370
    -3
390
0
  6
Continuous
100
AcDbLine
 10
-695.48235
 20
-360.609655
 30
0.0
 11
-692.088244
 21
-364.003773
 31
0.0
  0
LINE
  5
B8
100
AcDbEntity
  8
0
370
    -3
390
0
  6
Continuous
100
AcDbLine
 10
-692.088239
 20
-360.60966
 30
0.0
 11
-695.482355
 21
-364.003768
 31
0.0
  0
POINT
  5
B9
100
AcDbEntity
  8
0
370
    -3
390
0
  6
Continuous
100
AcDbPoint
 10
-693.785297
 20
-362.306714
 30
0.0
  0
ELLIPSE
  5
BA
100
AcDbEntity
  8
0
370
    -3
390
0
  6
Continuous
100
AcDbEllipse
 10
-693.785297
 20
-362.306714
 30
0.0
 11
4.5
 21
0.0
 31
0.0
210
0.0
220
0.0
230
1.0
 40
0.727273
 41
0.0
 42
6.2831853071795862
  0
LINE
  5
BB
100
AcDbEntity
  8
0
370
    -3
390
0
  6
CENTER
100
AcDbLine
 10
-698.505354
 20
-362.306714
 30
0.0
 11
-688.877988
 21
-362.306714
 31
0.0
  0
LINE
  5
BC
100
AcDbEntity
  8
0
370
    -3
390
0
  6
CENTER
100
AcDbLine
 10
-693.785297
 20
-358.140852
 30
0.0
 11
-693.785297
 21
-366.757668
 31
0.0
  0
LINE
  5
BD
100
AcDbEntity
  8
0
370
    -3
390
0
  6
CENTER
100
AcDbLine
 10
-773.375509
 20
-378.684101
 30
0.0
 11
-729.857128
 21
-378.684101
 31
0.0
  0
LINE
  5
BE
100
AcDbEntity
  8
0
370
    -3
390
0
  6
Continuous
100
AcDbLine
 10
-751.285297
 20
-387.924473
 30
0.0
 11
-789.011832
 21
-387.924473
 31
0.0
  0
ARC
  5
BF
100
AcDbEntity
  8
0
370
    -3
390
0
  6
Continuous
100
AcDbCircle
 10
-789.011832
 20
-378.924473
 30
0.0
 40
9.0
100
AcDbArc
 50
230.025496
 51
270.0
  0
ARC
  5
C0
100
AcDbEntity
  8
0
370
    -3
390
0
  6
Continuous
100
AcDbCircle
 10
-713.558762
 20
-378.924473
 30
0.0
 40
9.0
100
AcDbArc
 50
270.0
 51
309.974504
  0
LINE
  5
C1
100
AcDbEntity
  8
0
370
    -3
390
0
  6
Continuous
100
AcDbLine
 10
-751.285297
 20
-387.924473
 30
0.0
 11
-713.558762
 21
-387.924473
 31
0.0
  0
LINE
  5
C2
100
AcDbEntity
  8
0
370
    -3
390
0
  6
Continuous
100
AcDbLine
 10
-693.891794
 20
-374.181117
 30
0.0
 11
-707.776742
 21
-385.821446
 31
0.0
  0
LINE
  5
C3
100
AcDbEntity
  8
0
370
    -3
390
0
  6
Continuous
100
AcDbLine
 10
-808.6788
 20
-374.181117
 30
0.0
 11
-794.793852
 21
-385.821446
 31
0.0
  0
LINE
  5
C4
100
AcDbEntity
  8
0
370
    -3
390
0
  6
Continuous
100
AcDbLine
 10
-693.785297
 20
-355.577008
 30
0.0
 11
-688.954961
 21
-355.577008
 31
0.0
  0
ARC
  5
C5
100
AcDbEntity
  8
0
370
    -3
390
0
  6
Continuous
100
AcDbCircle
 10
-1024.685297
 20
-289.859827
 30
0.0
 40
347.0
100
AcDbArc
 50
349.914143
 51
9.449383
  0
ARC
  5
C6
100
AcDbEntity
  8
0
370
    -3
390
0
  6
Continuous
100
AcDbCircle
 10
-688.954961
 20
-349.577008
 30
0.0
 40
6.0
100
AcDbArc
 50
270.0
 51
349.914143
  0
ARC
  5
C7
100
AcDbEntity
  8
0
370
    -3
390
0
  6
Continuous
100
AcDbCircle
 10
-477.885297
 20
-289.859827
 30
0.0
 40
347.0
100
AcDbArc
 50
170.550617
 51
190.085857
  0
LINE
  5
C8
100
AcDbEntity
  8
0
370
    -3
390
0
  6
Continuous
100
AcDbLine
 10
-808.785297
 20
-355.577008
 30
0.0
 11
-813.615633
 21
-355.577008
 31
0.0
  0
ARC
  5
C9
100
AcDbEntity
  8
0
370
    -3
390
0
  6
Continuous
100
AcDbCircle
 10
-813.615633
 20
-349.577008
 30
0.0
 40
6.0
100
AcDbArc
 50
190.085857
 51
270.0
  0
ARC
  5
CA
100
AcDbEntity
  8
0
370
    -3
390
0
  6
Continuous
100
AcDbCircle
 10
-814.505707
 20
-252.283644
 30
0.0
 40
12.0
100
AcDbArc
 50
126.572176
 51
174.579766
  0
ARC
  5
CB
100
AcDbEntity
  8
0
370
    -3
390
0
  6
Continuous
100
AcDbCircle
 10
-688.064887
 20
-252.283644
 30
0.0
 40
12.0
100
AcDbArc
 50
5.420234
 51
53.427824
  0
LINE
  5
CC
100
AcDbEntity
  8
0
370
    -3
390
0
  6
Continuous
100
AcDbLine
 10
-751.285297
 20
-374.181117
 30
0.0
 11
-692.907784
 21
-374.181117
 31
0.0
  0
ARC
  5
CD
100
AcDbEntity
  8
0
370
    -3
390
0
  6
Continuous
100
AcDbCircle
 10
-1084.285297
 20
-289.87868
 30
0.0
 40
410.0
100
AcDbArc
 50
349.533278
 51
5.420234
  0
ARC
  5
CE
100
AcDbEntity
  8
0
370
    -3
390
0
  6
Continuous
100
AcDbCircle
 10
-692.907784
 20
-362.181117
 30
0.0
 40
12.0
100
AcDbArc
 50
270.0
 51
349.533278
  0
ARC
  5
CF
100
AcDbEntity
  8
0
370
    -3
390
0
  6
Continuous
100
AcDbCircle
 10
-418.285297
 20
-289.87868
 30
0.0
 40
410.0
100
AcDbArc
 50
174.579766
 51
190.466722
  0
LINE
  5
D0
100
AcDbEntity
  8
0
370
    -3
390
0
  6
Continuous
100
AcDbLine
 10
-751.285297
 20
-374.181117
 30
0.0
 11
-809.66281
 21
-374.181117
 31
0.0
  0
ARC
  5
D1
100
AcDbEntity
  8
0
370
    -3
390
0
  6
Continuous
100
AcDbCircle
 10
-809.66281
 20
-362.181117
 30
0.0
 40
12.0
100
AcDbArc
 50
190.466722
 51
270.0
  0
LINE
  5
D2
100
AcDbEntity
  8
0
370
    -3
390
0
  6
Continuous
100
AcDbLine
 10
-751.285297
 20
-371.402483
 30
0.0
 11
-692.404651
 21
-371.402483
 31
0.0
  0
ARC
  5
D3
100
AcDbEntity
  8
0
370
    -3
390
0
  6
Continuous
100
AcDbCircle
 10
-692.404651
 20
-359.402483
 30
0.0
 40
12.0
100
AcDbArc
 50
270.0
 51
349.939793
  0
LINE
  5
D4
100
AcDbEntity
  8
0
370
    -3
390
0
  6
Continuous
100
AcDbLine
 10
-751.285297
 20
-371.402483
 30
0.0
 11
-810.165943
 21
-371.402483
 31
0.0
  0
ARC
  5
D5
100
AcDbEntity
  8
0
370
    -3
390
0
  6
Continuous
100
AcDbCircle
 10
-810.165943
 20
-359.402483
 30
0.0
 40
12.0
100
AcDbArc
 50
190.060207
 51
270.0
  0
ELLIPSE
  5
D6
100
AcDbEntity
  8
0
370
    -3
390
0
  6
Continuous
100
AcDbEllipse
 10
-751.285297
 20
-378.684101
 30
0.0
 11
17.5
 21
0.0
 31
0.0
210
0.0
220
0.0
230
1.0
 40
0.34202
 41
2.289994865616805
 42
0.8515977879729881
  0
LINE
  5
D7
100
AcDbEntity
  8
0
370
    -3
390
0
  6
Continuous
100
AcDbLine
 10
-216.535297
 20
-106.514018
 30
0.0
 11
-231.785297
 21
-106.514018
 31
0.0
  0
LINE
  5
D8
100
AcDbEntity
  8
0
370
    -3
390
0
  6
Continuous
100
AcDbLine
 10
-216.535297
 20
-103.514018
 30
0.0
 11
-231.785297
 21
-103.514018
 31
0.0
  0
LINE
  5
D9
100
AcDbEntity
  8
0
370
    -3
390
0
  6
Continuous
100
AcDbLine
 10
-216.535297
 20
-103.514018
 30
0.0
 11
-216.535297
 21
-106.514018
 31
0.0
  0
ARC
  5
DA
100
AcDbEntity
  8
0
370
    -3
390
0
  6
Continuous
100
AcDbCircle
 10
-222.285297
 20
-108.014018
 30
0.0
 40
1.5
100
AcDbArc
 50
270.0
 51
0.0
  0
ARC
  5
DB
100
AcDbEntity
  8
0
370
    -3
390
0
  6
Continuous
100
AcDbCircle
 10
-222.285297
 20
-108.014018
 30
0.0
 40
1.5
100
AcDbArc
 50
0.0
 51
90.0
  0
LINE
  5
DC
100
AcDbEntity
  8
0
370
    -3
390
0
  6
CENTER
100
AcDbLine
 10
-231.785297
 20
-87.150529
 30
0.0
 11
-231.785297
 21
-123.039318
 31
0.0
  0
LINE
  5
DD
100
AcDbEntity
  8
0
370
    -3
390
0
  6
Continuous
100
AcDbLine
 10
-244.785297
 20
-103.514018
 30
0.0
 11
-244.785297
 21
-102.514018
 31
0.0
  0
LINE
  5
DE
100
AcDbEntity
  8
0
370
    -3
390
0
  6
Continuous
100
AcDbLine
 10
-244.785297
 20
-89.514018
 30
0.0
 11
-231.785297
 21
-89.514018
 31
0.0
  0
LINE
  5
DF
100
AcDbEntity
  8
0
370
    -3
390
0
  6
Continuous
100
AcDbLine
 10
-247.785297
 20
-91.514018
 30
0.0
 11
-231.785297
 21
-91.514018
 31
0.0
  0
LINE
  5
E0
100
AcDbEntity
  8
0
370
    -3
390
0
  6
Continuous
100
AcDbLine
 10
-244.785297
 20
-89.514018
 30
0.0
 11
-246.285297
 21
-91.514018
 31
0.0
  0
LINE
  5
E1
100
AcDbEntity
  8
0
370
    -3
390
0
  6
Continuous
100
AcDbLine
 10
-247.785297
 20
-102.514018
 30
0.0
 11
-247.785297
 21
-91.514018
 31
0.0
  0
LINE
  5
E2
100
AcDbEntity
  8
0
370
    -3
390
0
  6
Continuous
100
AcDbLine
 10
-247.785297
 20
-102.514018
 30
0.0
 11
-231.785297
 21
-102.514018
 31
0.0
  0
LINE
  5
E3
100
AcDbEntity
  8
0
370
    -3
390
0
  6
Continuous
100
AcDbLine
 10
-244.785297
 20
-89.514018
 30
0.0
 11
-246.285297
 21
-91.514018
 31
0.0
  0
LINE
  5
E4
100
AcDbEntity
  8
0
370
    -3
390
0
  6
Continuous
100
AcDbLine
 10
-247.785297
 20
-102.514018
 30
0.0
 11
-247.785297
 21
-91.514018
 31
0.0
  0
LINE
  5
E5
100
AcDbEntity
  8
0
370
    -3
390
0
  6
Continuous
100
AcDbLine
 10
-247.785297
 20
-101.514018
 30
0.0
 11
-247.301964
 21
-101.514018
 31
0.0
  0
LINE
  5
E6
100
AcDbEntity
  8
0
370
    -3
390
0
  6
Continuous
100
AcDbLine
 10
-235.688252
 20
-91.514018
 30
0.0
 11
-235.688252
 21
-101.514018
 31
0.0
  0
LINE
  5
E7
100
AcDbEntity
  8
0
370
    -3
390
0
  6
Continuous
100
AcDbLine
 10
-239.997431
 20
-91.514018
 30
0.0
 11
-239.997431
 21
-101.514018
 31
0.0
  0
LINE
  5
E8
100
AcDbEntity
  8
0
370
    -3
390
0
  6
Continuous
100
AcDbLine
 10
-245.517043
 20
-91.514018
 30
0.0
 11
-245.517043
 21
-101.514018
 31
0.0
  0
LINE
  5
E9
100
AcDbEntity
  8
0
370
    -3
390
0
  6
Continuous
100
AcDbLine
 10
-247.301964
 20
-91.514018
 30
0.0
 11
-247.301964
 21
-101.514018
 31
0.0
  0
LINE
  5
EA
100
AcDbEntity
  8
0
370
    -3
390
0
  6
Continuous
100
AcDbLine
 10
-235.688252
 20
-101.514018
 30
0.0
 11
-231.785297
 21
-101.514018
 31
0.0
  0
LINE
  5
EB
100
AcDbEntity
  8
0
370
    -3
390
0
  6
Continuous
100
AcDbLine
 10
-245.517043
 20
-101.514018
 30
0.0
 11
-239.997431
 21
-101.514018
 31
0.0
  0
LINE
  5
EC
100
AcDbEntity
  8
0
370
    -3
390
0
  6
Continuous
100
AcDbLine
 10
-218.785297
 20
-103.514018
 30
0.0
 11
-218.785297
 21
-102.514018
 31
0.0
  0
LINE
  5
ED
100
AcDbEntity
  8
0
370
    -3
390
0
  6
Continuous
100
AcDbLine
 10
-218.785297
 20
-89.514018
 30
0.0
 11
-231.785297
 21
-89.514018
 31
0.0
  0
LINE
  5
EE
100
AcDbEntity
  8
0
370
    -3
390
0
  6
Continuous
100
AcDbLine
 10
-215.785297
 20
-91.514018
 30
0.0
 11
-231.785297
 21
-91.514018
 31
0.0
  0
LINE
  5
EF
100
AcDbEntity
  8
0
370
    -3
390
0
  6
Continuous
100
AcDbLine
 10
-218.785297
 20
-89.514018
 30
0.0
 11
-217.285297
 21
-91.514018
 31
0.0
  0
LINE
  5
F0
100
AcDbEntity
  8
0
370
    -3
390
0
  6
Continuous
100
AcDbLine
 10
-215.785297
 20
-102.514018
 30
0.0
 11
-215.785297
 21
-91.514018
 31
0.0
  0
LINE
  5
F1
100
AcDbEntity
  8
0
370
    -3
390
0
  6
Continuous
100
AcDbLine
 10
-215.785297
 20
-102.514018
 30
0.0
 11
-231.785297
 21
-102.514018
 31
0.0
  0
LINE
  5
F2
100
AcDbEntity
  8
0
370
    -3
390
0
  6
Continuous
100
AcDbLine
 10
-218.785297
 20
-89.514018
 30
0.0
 11
-217.285297
 21
-91.514018
 31
0.0
  0
LINE
  5
F3
100
AcDbEntity
  8
0
370
    -3
390
0
  6
Continuous
100
AcDbLine
 10
-215.785297
 20
-102.514018
 30
0.0
 11
-215.785297
 21
-91.514018
 31
0.0
  0
LINE
  5
F4
100
AcDbEntity
  8
0
370
    -3
390
0
  6
Continuous
100
AcDbLine
 10
-215.785297
 20
-101.514018
 30
0.0
 11
-216.26863
 21
-101.514018
 31
0.0
  0
LINE
  5
F5
100
AcDbEntity
  8
0
370
    -3
390
0
  6
Continuous
100
AcDbLine
 10
-227.882342
 20
-91.514018
 30
0.0
 11
-227.882342
 21
-101.514018
 31
0.0
  0
LINE
  5
F6
100
AcDbEntity
  8
0
370
    -3
390
0
  6
Continuous
100
AcDbLine
 10
-223.573162
 20
-91.514018
 30
0.0
 11
-223.573162
 21
-101.514018
 31
0.0
  0
LINE
  5
F7
100
AcDbEntity
  8
0
370
    -3
390
0
  6
Continuous
100
AcDbLine
 10
-218.053551
 20
-91.514018
 30
0.0
 11
-218.053551
 21
-101.514018
 31
0.0
  0
LINE
  5
F8
100
AcDbEntity
  8
0
370
    -3
390
0
  6
Continuous
100
AcDbLine
 10
-216.26863
 20
-91.514018
 30
0.0
 11
-216.26863
 21
-101.514018
 31
0.0
  0
LINE
  5
F9
100
AcDbEntity
  8
0
370
    -3
390
0
  6
Continuous
100
AcDbLine
 10
-227.882342
 20
-101.514018
 30
0.0
 11
-231.785297
 21
-101.514018
 31
0.0
  0
LINE
  5
FA
100
AcDbEntity
  8
0
370
    -3
390
0
  6
Continuous
100
AcDbLine
 10
-218.053551
 20
-101.514018
 30
0.0
 11
-223.573162
 21
-101.514018
 31
0.0
  0
ARC
  5
FB
100
AcDbEntity
  8
0
370
    -3
390
0
  6
Continuous
100
AcDbCircle
 10
-300.285297
 20
-220.514018
 30
0.0
 40
6.0
100
AcDbArc
 50
270.0
 51
0.0
  0
ARC
  5
FC
100
AcDbEntity
  8
0
370
    -3
390
0
  6
Continuous
100
AcDbCircle
 10
-291.285297
 20
-110.716059
 30
0.0
 40
3.0
100
AcDbArc
 50
297.035692
 51
0.0
  0
ARC
  5
FD
100
AcDbEntity
  8
0
370
    -3
390
0
  6
Continuous
100
AcDbCircle
 10
-286.285297
 20
-120.514018
 30
0.0
 40
8.0
100
AcDbArc
 50
117.035692
 51
180.0
  0
ARC
  5
FE
100
AcDbEntity
  8
0
370
    -3
390
0
  6
Continuous
100
AcDbCircle
 10
-285.285297
 20
-106.514018
 30
0.0
 40
3.0
100
AcDbArc
 50
90.0
 51
180.0
  0
ARC
  5
FF
100
AcDbEntity
  8
0
370
    -3
390
0
  6
Continuous
100
AcDbCircle
 10
-293.285297
 20
-106.514018
 30
0.0
 40
3.0
100
AcDbArc
 50
90.0
 51
180.0
  0
ARC
  5
100
100
AcDbEntity
  8
0
370
    -3
390
0
  6
Continuous
100
AcDbCircle
 10
-291.285297
 20
-106.514018
 30
0.0
 40
3.0
100
AcDbArc
 50
90.0
 51
180.0
  0
ARC
  5
101
100
AcDbEntity
  8
0
370
    -3
390
0
  6
Continuous
100
AcDbCircle
 10
-311.944288
 20
-222.758642
 30
0.0
 40
3.0
100
AcDbArc
 50
270.0
 51
353.103099
  0
ARC
  5
102
100
AcDbEntity
  8
0
370
    -3
390
0
  6
Continuous
100
AcDbCircle
 10
-294.285297
 20
-138.514018
 30
0.0
 40
2.0
100
AcDbArc
 50
180.0
 51
270.0
  0
ARC
  5
103
100
AcDbEntity
  8
0
370
    -3
390
0
  6
Continuous
100
AcDbCircle
 10
-294.285297
 20
-251.514018
 30
0.0
 40
2.0
100
AcDbArc
 50
90.0
 51
180.0
  0
ARC
  5
104
100
AcDbEntity
  8
0
370
    -3
390
0
  6
Continuous
100
AcDbCircle
 10
-294.285297
 20
-285.514018
 30
0.0
 40
2.0
100
AcDbArc
 50
180.0
 51
270.0
  0
ARC
  5
105
100
AcDbEntity
  8
0
370
    -3
390
0
  6
Continuous
100
AcDbCircle
 10
-294.285297
 20
-373.514018
 30
0.0
 40
2.0
100
AcDbArc
 50
90.0
 51
180.0
  0
ARC
  5
106
100
AcDbEntity
  8
0
370
    -3
390
0
  6
Continuous
100
AcDbCircle
 10
-294.285297
 20
-403.514018
 30
0.0
 40
2.0
100
AcDbArc
 50
180.0
 51
270.0
  0
ARC
  5
107
100
AcDbEntity
  8
0
370
    -3
390
0
  6
Continuous
100
AcDbCircle
 10
-299.285297
 20
-336.514018
 30
0.0
 40
5.0
100
AcDbArc
 50
270.0
 51
0.0
  0
ARC
  5
108
100
AcDbEntity
  8
0
370
    -3
390
0
  6
Continuous
100
AcDbCircle
 10
-307.285297
 20
-416.551033
 30
0.0
 40
3.0
100
AcDbArc
 50
180.0
 51
205.301157
  0
ARC
  5
109
100
AcDbEntity
  8
0
370
    -3
390
0
  6
Continuous
100
AcDbCircle
 10
-356.285297
 20
-533.514018
 30
0.0
 40
5.0
100
AcDbArc
 50
90.0
 51
180.0
  0
ARC
  5
10A
100
AcDbEntity
  8
0
370
    -3
390
0
  6
Continuous
100
AcDbCircle
 10
-466.285297
 20
-502.514018
 30
0.0
 40
5.0
100
AcDbArc
 50
90.0
 51
180.0
  0
ARC
  5
10B
100
AcDbEntity
  8
0
370
    -3
390
0
  6
Continuous
100
AcDbCircle
 10
-270.785297
 20
-322.514018
 30
0.0
 40
5.0
100
AcDbArc
 50
0.0
 51
90.0
  0
ARC
  5
10C
100
AcDbEntity
  8
0
370
    -3
390
0
  6
Continuous
100
AcDbCircle
 10
-260.785297
 20
-348.514018
 30
0.0
 40
5.0
100
AcDbArc
 50
180.0
 51
270.0
  0
ARC
  5
10D
100
AcDbEntity
  8
0
370
    -3
390
0
  6
Continuous
100
AcDbCircle
 10
-260.785297
 20
-358.514018
 30
0.0
 40
5.0
100
AcDbArc
 50
90.0
 51
180.0
  0
ARC
  5
10E
100
AcDbEntity
  8
0
370
    -3
390
0
  6
Continuous
100
AcDbCircle
 10
-275.785297
 20
-417.400102
 30
0.0
 40
10.0
100
AcDbArc
 50
304.024236
 51
0.0
  0
ARC
  5
10F
100
AcDbEntity
  8
0
370
    -3
390
0
  6
Continuous
100
AcDbCircle
 10
-412.847386
 20
-484.952027
 30
0.0
 40
10.0
100
AcDbArc
 50
272.784227
 51
296.270955
  0
LINE
  5
110
100
AcDbEntity
  8
0
370
    -3
390
0
  6
CENTER
100
AcDbLine
 10
-322.302818
 20
-268.514018
 30
0.0
 11
67.22973
 21
-268.514018
 31
0.0
  0
LINE
  5
111
100
AcDbEntity
  8
0
370
    -3
390
0
  6
CENTER
100
AcDbLine
 10
-321.509383
 20
-388.514018
 30
0.0
 11
-278.602586
 21
-388.514018
 31
0.0
  0
LINE
  5
112
100
AcDbEntity
  8
0
370
    -3
390
0
  6
Continuous
100
AcDbLine
 10
-361.285297
 20
-533.514018
 30
0.0
 11
-471.285297
 21
-533.514018
 31
0.0
  0
LINE
  5
113
100
AcDbEntity
  8
0
370
    -3
390
0
  6
Continuous
100
AcDbLine
 10
-176.285297
 20
-528.514018
 30
0.0
 11
-356.285297
 21
-528.514018
 31
0.0
  0
LINE
  5
114
100
AcDbEntity
  8
0
370
    -3
390
0
  6
CENTER
100
AcDbLine
 10
-441.285297
 20
-482.945407
 30
0.0
 11
-441.285297
 21
-548.254154
 31
0.0
  0
LINE
  5
115
100
AcDbEntity
  8
0
370
    -3
390
0
  6
Continuous
100
AcDbLine
 10
-471.285297
 20
-502.514018
 30
0.0
 11
-471.285297
 21
-533.514018
 31
0.0
  0
LINE
  5
116
100
AcDbEntity
  8
0
370
    -3
390
0
  6
Continuous
100
AcDbLine
 10
-466.285297
 20
-497.514018
 30
0.0
 11
-411.380712
 21
-494.843886
 31
0.0
  0
LINE
  5
117
100
AcDbEntity
  8
0
370
    -3
390
0
  6
Continuous
100
AcDbLine
 10
-270.189862
 20
-425.688112
 30
0.0
 11
-408.421219
 21
-493.919136
 31
0.0
  0
LINE
  5
118
100
AcDbEntity
  8
0
370
    -3
390
0
  6
Continuous
100
AcDbLine
 10
-272.285297
 20
-103.514018
 30
0.0
 11
-272.285297
 21
-426.722419
 31
0.0
  0
ARC
  5
119
100
AcDbEntity
  8
0
370
    -3
390
0
  6
Continuous
100
AcDbCircle
 10
-69.877196
 20
-173.572316
 30
0.0
 40
8.0
100
AcDbArc
 50
208.979478
 51
233.984342
  0
ARC
  5
11A
100
AcDbEntity
  8
0
370
    -3
390
0
  6
Continuous
100
AcDbCircle
 10
-114.894472
 20
-125.314342
 30
0.0
 40
8.0
100
AcDbArc
 50
28.979478
 51
88.281642
  0
LINE
  5
11B
100
AcDbEntity
  8
0
370
    -3
390
0
  6
Continuous
100
AcDbLine
 10
-107.896126
 20
-121.438371
 30
0.0
 11
-76.875542
 21
-177.448287
 31
0.0
  0
ARC
  5
11C
100
AcDbEntity
  8
0
370
    -3
390
0
  6
Continuous
100
AcDbCircle
 10
-106.285297
 20
-474.44732
 30
0.0
 40
35.0
100
AcDbArc
 50
326.991546
 51
0.0
  0
ARC
  5
11D
100
AcDbEntity
  8
0
370
    -3
390
0
  6
Continuous
100
AcDbCircle
 10
-115.285297
 20
-125.302617
 30
0.0
 40
8.0
100
AcDbArc
 50
0.0
 51
88.281642
  0
ARC
  5
11E
100
AcDbEntity
  8
0
370
    -3
390
0
  6
Continuous
100
AcDbCircle
 10
-229.785297
 20
-111.863118
 30
0.0
 40
2.0
100
AcDbArc
 50
180.0
 51
268.281642
  0
LINE
  5
11F
100
AcDbEntity
  8
0
370
    -3
390
0
  6
Continuous
100
AcDbLine
 10
-212.34527
 20
-114.387218
 30
0.0
 11
-114.65458
 21
-117.317939
 31
0.0
  0
LINE
  5
120
100
AcDbEntity
  8
0
370
    -3
390
0
  6
DASHED
100
AcDbLine
 10
-231.785297
 20
-109.514018
 30
0.0
 11
-231.785297
 21
-111.863118
 31
0.0
  0
LINE
  5
121
100
AcDbEntity
  8
0
370
    -3
390
0
  6
Continuous
100
AcDbLine
 10
-229.84527
 20
-113.862218
 30
0.0
 11
-212.34527
 21
-114.387218
 31
0.0
  0
ARC
  5
122
100
AcDbEntity
  8
0
370
    -3
390
0
  6
Continuous
100
AcDbCircle
 10
-212.285297
 20
-112.388118
 30
0.0
 40
2.0
100
AcDbArc
 50
180.0
 51
268.281642
  0
ARC
  5
123
100
AcDbEntity
  8
0
370
    -3
390
0
  6
Continuous
100
AcDbCircle
 10
-216.285297
 20
-111.514018
 30
0.0
 40
2.0
100
AcDbArc
 50
0.0
 51
90.0
  0
LINE
  5
124
100
AcDbEntity
  8
0
370
    -3
390
0
  6
Continuous
100
AcDbLine
 10
-214.285297
 20
-111.514018
 30
0.0
 11
-214.285297
 21
-112.388118
 31
0.0
  0
LINE
  5
125
100
AcDbEntity
  8
0
370
    -3
390
0
  6
Continuous
100
AcDbLine
 10
-271.785297
 20
-112.604018
 30
0.0
 11
-229.84527
 21
-113.862218
 31
0.0
  0
LINE
  5
126
100
AcDbEntity
  8
0
370
    -3
390
0
  6
Continuous
100
AcDbLine
 10
-74.245918
 20
-493.514018
 30
0.0
 11
-65.285297
 21
-493.514018
 31
0.0
  0
ARC
  5
127
100
AcDbEntity
  8
0
370
    -3
390
0
  6
Continuous
100
AcDbCircle
 10
-124.785297
 20
-453.514018
 30
0.0
 40
40.0
100
AcDbArc
 50
180.0
 51
270.0
  0
ARC
  5
128
100
AcDbEntity
  8
0
370
    -3
390
0
  6
Continuous
100
AcDbCircle
 10
-169.785297
 20
-358.514018
 30
0.0
 40
5.0
100
AcDbArc
 50
0.0
 51
90.0
  0
ARC
  5
129
100
AcDbEntity
  8
0
370
    -3
390
0
  6
Continuous
100
AcDbCircle
 10
-169.785297
 20
-348.514018
 30
0.0
 40
5.0
100
AcDbArc
 50
270.0
 51
0.0
  0
ARC
  5
12A
100
AcDbEntity
  8
0
370
    -3
390
0
  6
Continuous
100
AcDbCircle
 10
-169.785297
 20
-327.514018
 30
0.0
 40
5.0
100
AcDbArc
 50
0.0
 51
90.0
  0
ARC
  5
12B
100
AcDbEntity
  8
0
370
    -3
390
0
  6
Continuous
100
AcDbCircle
 10
-169.785297
 20
-317.514018
 30
0.0
 40
5.0
100
AcDbArc
 50
270.0
 51
0.0
  0
ARC
  5
12C
100
AcDbEntity
  8
0
370
    -3
390
0
  6
Continuous
100
AcDbCircle
 10
-169.785297
 20
-254.514018
 30
0.0
 40
5.0
100
AcDbArc
 50
0.0
 51
90.0
  0
LINE
  5
12D
100
AcDbEntity
  8
0
370
    -3
390
0
  6
Continuous
100
AcDbLine
 10
-164.785297
 20
-453.514018
 30
0.0
 11
-164.785297
 21
-254.514018
 31
0.0
  0
LINE
  5
12E
100
AcDbEntity
  8
0
370
    -3
390
0
  6
Continuous
100
AcDbLine
 10
-265.785297
 20
-417.400102
 30
0.0
 11
-265.785297
 21
-322.514018
 31
0.0
  0
LINE
  5
12F
100
AcDbEntity
  8
0
370
    -3
390
0
  6
Continuous
100
AcDbLine
 10
-260.785297
 20
-353.514018
 30
0.0
 11
-166.785297
 21
-353.514018
 31
0.0
  0
LINE
  5
130
100
AcDbEntity
  8
0
370
    -3
390
0
  6
Continuous
100
AcDbLine
 10
-265.785297
 20
-322.514018
 30
0.0
 11
-166.785297
 21
-322.514018
 31
0.0
  0
LINE
  5
131
100
AcDbEntity
  8
0
370
    -3
390
0
  6
Continuous
100
AcDbLine
 10
-271.785297
 20
-249.514018
 30
0.0
 11
-166.785297
 21
-249.514018
 31
0.0
  0
ARC
  5
132
100
AcDbEntity
  8
0
370
    -3
390
0
  6
Continuous
100
AcDbCircle
 10
-89.285297
 20
-287.062453
 30
0.0
 40
18.0
100
AcDbArc
 50
180.0
 51
260.0
  0
LINE
  5
133
100
AcDbEntity
  8
0
370
    -3
390
0
  6
Continuous
100
AcDbLine
 10
-107.285297
 20
-287.062453
 30
0.0
 11
-107.285297
 21
-170.514018
 31
0.0
  0
LINE
  5
134
100
AcDbEntity
  8
0
370
    -3
390
0
  6
Continuous
100
AcDbLine
 10
-71.285297
 20
-336.514018
 30
0.0
 11
-71.285297
 21
-313.548615
 31
0.0
  0
ARC
  5
135
100
AcDbEntity
  8
0
370
    -3
390
0
  6
Continuous
100
AcDbCircle
 10
-77.285297
 20
-313.548615
 30
0.0
 40
6.0
100
AcDbArc
 50
0.0
 51
80.0
  0
LINE
  5
136
100
AcDbEntity
  8
0
370
    -3
390
0
  6
Continuous
100
AcDbLine
 10
-92.410964
 20
-304.788993
 30
0.0
 11
-76.243408
 21
-307.639769
 31
0.0
  0
ARC
  5
137
100
AcDbEntity
  8
0
370
    -3
390
0
  6
Continuous
100
AcDbCircle
 10
-66.285297
 20
-498.514018
 30
0.0
 40
5.0
100
AcDbArc
 50
0.0
 51
90.0
  0
LINE
  5
138
100
AcDbEntity
  8
0
370
    -3
390
0
  6
Continuous
100
AcDbLine
 10
-61.285297
 20
-498.514018
 30
0.0
 11
-61.285297
 21
-533.514018
 31
0.0
  0
LINE
  5
139
100
AcDbEntity
  8
0
370
    -3
390
0
  6
Continuous
100
AcDbLine
 10
-130.785297
 20
-493.514018
 30
0.0
 11
-74.245918
 21
-493.514018
 31
0.0
  0
LINE
  5
13A
100
AcDbEntity
  8
0
370
    -3
390
0
  6
Continuous
100
AcDbLine
 10
-71.285297
 20
-428.514018
 30
0.0
 11
-71.285297
 21
-474.44732
 31
0.0
  0
LINE
  5
13B
100
AcDbEntity
  8
0
370
    -3
390
0
  6
Continuous
100
AcDbLine
 10
-71.285297
 20
-428.514018
 30
0.0
 11
-71.285297
 21
-336.514018
 31
0.0
  0
ARC
  5
13C
100
AcDbEntity
  8
0
370
    -3
390
0
  6
Continuous
100
AcDbCircle
 10
-68.285297
 20
-336.514018
 30
0.0
 40
3.0
100
AcDbArc
 50
90.0
 51
180.0
  0
LINE
  5
13D
100
AcDbEntity
  8
0
370
    -3
390
0
  6
Continuous
100
AcDbLine
 10
-68.285297
 20
-333.514018
 30
0.0
 11
-63.285297
 21
-333.514018
 31
0.0
  0
ARC
  5
13E
100
AcDbEntity
  8
0
370
    -3
390
0
  6
Continuous
100
AcDbCircle
 10
-63.285297
 20
-330.514018
 30
0.0
 40
3.0
100
AcDbArc
 50
270.0
 51
311.810315
  0
ARC
  5
13F
100
AcDbEntity
  8
0
370
    -3
390
0
  6
Continuous
100
AcDbCircle
 10
-99.285297
 20
-170.514018
 30
0.0
 40
8.0
100
AcDbArc
 50
180.0
 51
270.0
  0
LINE
  5
140
100
AcDbEntity
  8
0
370
    -3
390
0
  6
Continuous
100
AcDbLine
 10
-231.785297
 20
-109.514018
 30
0.0
 11
-216.285297
 21
-109.514018
 31
0.0
  0
ARC
  5
141
100
AcDbEntity
  8
0
370
    -3
390
0
  6
Continuous
100
AcDbCircle
 10
-234.785297
 20
-106.514018
 30
0.0
 40
3.0
100
AcDbArc
 50
0.0
 51
90.0
  0
LINE
  5
142
100
AcDbEntity
  8
0
370
    -3
390
0
  6
Continuous
100
AcDbLine
 10
-231.785297
 20
-106.514018
 30
0.0
 11
-231.785297
 21
-109.514018
 31
0.0
  0
ARC
  5
143
100
AcDbEntity
  8
0
370
    -3
390
0
  6
Continuous
100
AcDbCircle
 10
-79.285297
 20
-186.514018
 30
0.0
 40
8.0
100
AcDbArc
 50
0.0
 51
90.0
  0
ARC
  5
144
100
AcDbEntity
  8
0
370
    -3
390
0
  6
Continuous
100
AcDbCircle
 10
-68.285297
 20
-200.514018
 30
0.0
 40
3.0
100
AcDbArc
 50
180.0
 51
270.0
  0
ARC
  5
145
100
AcDbEntity
  8
0
370
    -3
390
0
  6
Continuous
100
AcDbCircle
 10
-63.285297
 20
-206.514018
 30
0.0
 40
3.0
100
AcDbArc
 50
48.189685
 51
90.0
  0
LINE
  5
146
100
AcDbEntity
  8
0
370
    -3
390
0
  6
Continuous
100
AcDbLine
 10
-107.285297
 20
-125.302617
 30
0.0
 11
-107.285297
 21
-170.514018
 31
0.0
  0
LINE
  5
147
100
AcDbEntity
  8
0
370
    -3
390
0
  6
Continuous
100
AcDbLine
 10
-99.285297
 20
-178.514018
 30
0.0
 11
-79.285297
 21
-178.514018
 31
0.0
  0
LINE
  5
148
100
AcDbEntity
  8
0
370
    -3
390
0
  6
Continuous
100
AcDbLine
 10
-71.285297
 20
-186.514018
 30
0.0
 11
-71.285297
 21
-333.514018
 31
0.0
  0
LINE
  5
149
100
AcDbEntity
  8
0
370
    -3
390
0
  6
Continuous
100
AcDbLine
 10
-68.285297
 20
-203.514018
 30
0.0
 11
-63.285297
 21
-203.514018
 31
0.0
  0
LINE
  5
14A
100
AcDbEntity
  8
0
370
    -3
390
0
  6
Continuous
100
AcDbLine
 10
-271.785297
 20
-103.514018
 30
0.0
 11
-234.785297
 21
-103.514018
 31
0.0
  0
LINE
  5
14B
100
AcDbEntity
  8
0
370
    -3
390
0
  6
Continuous
100
AcDbLine
 10
-271.785297
 20
-103.514018
 30
0.0
 11
-271.785297
 21
-426.475619
 31
0.0
  0
LINE
  5
14C
100
AcDbEntity
  8
0
370
    -3
390
0
  6
Continuous
100
AcDbLine
 10
-255.785297
 20
-113.084018
 30
0.0
 11
-255.785297
 21
-249.514018
 31
0.0
  0
LINE
  5
14D
100
AcDbEntity
  8
0
370
    -3
390
0
  6
Continuous
100
AcDbLine
 10
-270.785297
 20
-317.514018
 30
0.0
 11
-271.785297
 21
-317.514018
 31
0.0
  0
LINE
  5
14E
100
AcDbEntity
  8
0
370
    -3
390
0
  6
Continuous
100
AcDbLine
 10
-61.285297
 20
-204.27795
 30
0.0
 11
-61.285297
 21
-268.514018
 31
0.0
  0
LINE
  5
14F
100
AcDbEntity
  8
0
370
    -3
390
0
  6
Continuous
100
AcDbLine
 10
-61.285297
 20
-332.750086
 30
0.0
 11
-61.285297
 21
-268.514018
 31
0.0
  0
LINE
  5
150
100
AcDbEntity
  8
0
370
    -3
390
0
  6
CENTER
100
AcDbLine
 10
-91.285297
 20
-482.945407
 30
0.0
 11
-91.285297
 21
-547.383371
 31
0.0
  0
LINE
  5
151
100
AcDbEntity
  8
0
370
    -3
390
0
  6
Continuous
100
AcDbLine
 10
-61.285297
 20
-533.514018
 30
0.0
 11
-171.285297
 21
-533.514018
 31
0.0
  0
CIRCLE
  5
152
100
AcDbEntity
  8
0
370
    -3
390
0
  6
Continuous
100
AcDbCircle
 10
-131.785297
 20
-410.514018
 30
0.0
 40
15.0
  0
CIRCLE
  5
153
100
AcDbEntity
  8
0
370
    -3
390
0
  6
Continuous
100
AcDbCircle
 10
-216.785297
 20
-493.514018
 30
0.0
 40
12.5
  0
LINE
  5
154
100
AcDbEntity
  8
0
370
    -3
390
0
  6
Continuous
100
AcDbLine
 10
-131.785297
 20
-390.514018
 30
0.0
 11
-164.785297
 21
-390.514018
 31
0.0
  0
LINE
  5
155
100
AcDbEntity
  8
0
370
    -3
390
0
  6
Continuous
100
AcDbLine
 10
-131.785297
 20
-430.514018
 30
0.0
 11
-164.785297
 21
-430.514018
 31
0.0
  0
ARC
  5
156
100
AcDbEntity
  8
0
370
    -3
390
0
  6
Continuous
100
AcDbCircle
 10
-131.785297
 20
-410.514018
 30
0.0
 40
20.0
100
AcDbArc
 50
270.0
 51
90.0
  0
ARC
  5
157
100
AcDbEntity
  8
0
370
    -3
390
0
  6
Continuous
100
AcDbCircle
 10
-176.285297
 20
-533.514018
 30
0.0
 40
5.0
100
AcDbArc
 50
0.0
 51
90.0
  0
LINE
  5
158
100
AcDbEntity
  8
0
370
    -3
390
0
  6
CENTER
100
AcDbLine
 10
-131.785297
 20
-385.514018
 30
0.0
 11
-131.785297
 21
-435.514018
 31
0.0
  0
LINE
  5
159
100
AcDbEntity
  8
0
370
    -3
390
0
  6
CENTER
100
AcDbLine
 10
-106.785297
 20
-410.514018
 30
0.0
 11
-156.785297
 21
-410.514018
 31
0.0
  0
LINE
  5
15A
100
AcDbEntity
  8
0
370
    -3
390
0
  6
CENTER
100
AcDbLine
 10
-216.785297
 20
-476.014018
 30
0.0
 11
-216.785297
 21
-511.014018
 31
0.0
  0
LINE
  5
15B
100
AcDbEntity
  8
0
370
    -3
390
0
  6
CENTER
100
AcDbLine
 10
-199.285297
 20
-493.514018
 30
0.0
 11
-234.285297
 21
-493.514018
 31
0.0
  0
LINE
  5
15C
100
AcDbEntity
  8
0
370
    -3
390
0
  6
Continuous
100
AcDbLine
 10
48.714703
 20
-229.014018
 30
0.0
 11
48.714703
 21
-303.514018
 31
0.0
  0
LINE
  5
15D
100
AcDbEntity
  8
0
370
    -3
390
0
  6
Continuous
100
AcDbLine
 10
-56.285297
 20
-233.514018
 30
0.0
 11
48.714703
 21
-233.514018
 31
0.0
  0
LINE
  5
15E
100
AcDbEntity
  8
0
370
    -3
390
0
  6
Continuous
100
AcDbLine
 10
-56.285297
 20
-303.514018
 30
0.0
 11
48.714703
 21
-303.514018
 31
0.0
  0
LINE
  5
15F
100
AcDbEntity
  8
0
370
    -3
390
0
  6
Continuous
100
AcDbLine
 10
-31.285297
 20
-229.014018
 30
0.0
 11
-31.285297
 21
-233.514018
 31
0.0
  0
LINE
  5
160
100
AcDbEntity
  8
0
370
    -3
390
0
  6
Continuous
100
AcDbLine
 10
-56.285297
 20
-231.014018
 30
0.0
 11
-56.285297
 21
-306.014018
 31
0.0
  0
LINE
  5
161
100
AcDbEntity
  8
0
370
    -3
390
0
  6
Continuous
100
AcDbLine
 10
-31.285297
 20
-229.014018
 30
0.0
 11
48.714703
 21
-229.014018
 31
0.0
  0
LINE
  5
162
100
AcDbEntity
  8
0
370
    -3
390
0
  6
Continuous
100
AcDbLine
 10
-61.285297
 20
-231.014018
 30
0.0
 11
-56.285297
 21
-231.014018
 31
0.0
  0
LINE
  5
163
100
AcDbEntity
  8
0
370
    -3
390
0
  6
Continuous
100
AcDbLine
 10
-61.285297
 20
-306.014018
 30
0.0
 11
-56.285297
 21
-306.014018
 31
0.0
  0
LINE
  5
164
100
AcDbEntity
  8
0
370
    -3
390
0
  6
Continuous
100
AcDbLine
 10
-312.285297
 20
-400.514018
 30
0.0
 11
-312.285297
 21
-446.466427
 31
0.0
  0
LINE
  5
165
100
AcDbEntity
  8
0
370
    -3
390
0
  6
Continuous
100
AcDbLine
 10
-312.285297
 20
-360.514018
 30
0.0
 11
-312.285297
 21
-376.514018
 31
0.0
  0
LINE
  5
166
100
AcDbEntity
  8
0
370
    -3
390
0
  6
Continuous
100
AcDbLine
 10
-310.285297
 20
-400.514018
 30
0.0
 11
-310.285297
 21
-445.479226
 31
0.0
  0
LINE
  5
167
100
AcDbEntity
  8
0
370
    -3
390
0
  6
Continuous
100
AcDbLine
 10
-312.285297
 20
-280.514018
 30
0.0
 11
-312.285297
 21
-360.514018
 31
0.0
  0
LINE
  5
168
100
AcDbEntity
  8
0
370
    -3
390
0
  6
Continuous
100
AcDbLine
 10
-312.285297
 20
-187.315898
 30
0.0
 11
-312.285297
 21
-256.514018
 31
0.0
  0
LINE
  5
169
100
AcDbEntity
  8
0
370
    -3
390
0
  6
CENTER
100
AcDbLine
 10
-322.983194
 20
-123.514018
 30
0.0
 11
-278.602586
 21
-123.514018
 31
0.0
  0
LINE
  5
16A
100
AcDbEntity
  8
0
370
    -3
390
0
  6
Continuous
100
AcDbLine
 10
-298.285297
 20
-137.514018
 30
0.0
 11
-298.285297
 21
-148.745073
 31
0.0
  0
LINE
  5
16B
100
AcDbEntity
  8
0
370
    -3
390
0
  6
Continuous
100
AcDbLine
 10
-312.285297
 20
-445.895451
 30
0.0
 11
-311.12854
 21
-445.895451
 31
0.0
  0
LINE
  5
16C
100
AcDbEntity
  8
0
370
    -3
390
0
  6
Continuous
100
AcDbLine
 10
-309.997519
 20
-417.833161
 30
0.0
 11
-299.455566
 21
-440.133669
 31
0.0
  0
LINE
  5
16D
100
AcDbEntity
  8
0
370
    -3
390
0
  6
Continuous
100
AcDbLine
 10
-310.285297
 20
-417.224393
 30
0.0
 11
-294.285297
 21
-417.224393
 31
0.0
  0
LINE
  5
16E
100
AcDbEntity
  8
0
370
    -3
390
0
  6
Continuous
100
AcDbLine
 10
-294.285297
 20
-360.514018
 30
0.0
 11
-294.285297
 21
-437.581623
 31
0.0
  0
LINE
  5
16F
100
AcDbEntity
  8
0
370
    -3
390
0
  6
Continuous
100
AcDbLine
 10
-312.285297
 20
-341.514018
 30
0.0
 11
-299.285297
 21
-341.514018
 31
0.0
  0
LINE
  5
170
100
AcDbEntity
  8
0
370
    -3
390
0
  6
Continuous
100
AcDbLine
 10
-296.285297
 20
-373.514018
 30
0.0
 11
-296.285297
 21
-403.514018
 31
0.0
  0
LINE
  5
171
100
AcDbEntity
  8
0
370
    -3
390
0
  6
Continuous
100
AcDbLine
 10
-296.285297
 20
-251.514018
 30
0.0
 11
-296.285297
 21
-285.514018
 31
0.0
  0
LINE
  5
172
100
AcDbEntity
  8
0
370
    -3
390
0
  6
Continuous
100
AcDbLine
 10
-296.285297
 20
-134.818305
 30
0.0
 11
-308.965997
 21
-223.118891
 31
0.0
  0
LINE
  5
173
100
AcDbEntity
  8
0
370
    -3
390
0
  6
Continuous
100
AcDbLine
 10
-312.285297
 20
-225.758642
 30
0.0
 11
-297.370864
 21
-225.758642
 31
0.0
  0
LINE
  5
174
100
AcDbEntity
  8
0
370
    -3
390
0
  6
Continuous
100
AcDbLine
 10
-293.285297
 20
-103.514018
 30
0.0
 11
-271.785297
 21
-103.514018
 31
0.0
  0
LINE
  5
175
100
AcDbEntity
  8
0
370
    -3
390
0
  6
Continuous
100
AcDbLine
 10
-271.785297
 20
-208.514018
 30
0.0
 11
-271.785297
 21
-328.514018
 31
0.0
  0
LINE
  5
176
100
AcDbEntity
  8
0
370
    -3
390
0
  6
Continuous
100
AcDbLine
 10
-294.285297
 20
-106.514018
 30
0.0
 11
-294.285297
 21
-360.514018
 31
0.0
  0
LINE
  5
177
100
AcDbEntity
  8
0
370
    -3
390
0
  6
Continuous
100
AcDbLine
 10
-296.285297
 20
-106.514018
 30
0.0
 11
-296.285297
 21
-138.514018
 31
0.0
  0
LINE
  5
178
100
AcDbEntity
  8
0
370
    -3
390
0
  6
Continuous
100
AcDbLine
 10
-288.285297
 20
-106.514018
 30
0.0
 11
-288.285297
 21
-110.716059
 31
0.0
  0
LINE
  5
179
100
AcDbEntity
  8
0
370
    -3
390
0
  6
Continuous
100
AcDbLine
 10
-312.285297
 20
-187.315898
 30
0.0
 11
-303.824389
 21
-187.315898
 31
0.0
  0
LINE
  5
17A
100
AcDbEntity
  8
0
370
    -3
390
0
  6
Continuous
100
AcDbLine
 10
-300.285297
 20
-226.514018
 30
0.0
 11
-312.285297
 21
-226.514018
 31
0.0
  0
LINE
  5
17B
100
AcDbEntity
  8
0
370
    -3
390
0
  6
Continuous
100
AcDbLine
 10
-625.285297
 20
-372.02768
 30
0.0
 11
-657.285297
 21
-370.817994
 31
0.0
  0
LINE
  5
17C
100
AcDbEntity
  8
0
370
    -3
390
0
  6
Continuous
100
AcDbLine
 10
-625.285297
 20
-369.732604
 30
0.0
 11
-657.285297
 21
-368.522918
 31
0.0
  0
LINE
  5
17D
100
AcDbEntity
  8
0
370
    -3
390
0
  6
Continuous
100
AcDbLine
 10
-657.285297
 20
-367.999368
 30
0.0
 11
-657.285297
 21
-370.817994
 31
0.0
  0
LINE
  5
17E
100
AcDbEntity
  8
0
370
    -3
390
0
  6
Continuous
100
AcDbLine
 10
-625.285297
 20
-369.732604
 30
0.0
 11
-625.285297
 21
-372.02768
 31
0.0
  0
LINE
  5
17F
100
AcDbEntity
  8
0
370
    -3
390
0
  6
Continuous
100
AcDbLine
 10
-557.285297
 20
-367.999368
 30
0.0
 11
-657.285297
 21
-367.999368
 31
0.0
  0
LINE
  5
180
100
AcDbEntity
  8
0
370
    -3
390
0
  6
Continuous
100
AcDbLine
 10
-557.285297
 20
-369.732604
 30
0.0
 11
-625.285297
 21
-369.732604
 31
0.0
  0
LINE
  5
181
100
AcDbEntity
  8
0
370
    -3
390
0
  6
Continuous
100
AcDbLine
 10
-557.285297
 20
-372.02768
 30
0.0
 11
-625.285297
 21
-372.02768
 31
0.0
  0
LINE
  5
182
100
AcDbEntity
  8
0
370
    -3
390
0
  6
Continuous
100
AcDbLine
 10
-657.285297
 20
-352.995968
 30
0.0
 11
-657.285297
 21
-350.177612
 31
0.0
  0
LINE
  5
183
100
AcDbEntity
  8
0
370
    -3
390
0
  6
Continuous
100
AcDbLine
 10
-657.285297
 20
-335.793428
 30
0.0
 11
-657.285297
 21
-331.976736
 31
0.0
  0
LINE
  5
184
100
AcDbEntity
  8
0
370
    -3
390
0
  6
Continuous
100
AcDbLine
 10
-625.285297
 20
-330.623372
 30
0.0
 11
-625.285297
 21
-328.367566
 31
0.0
  0
LINE
  5
185
100
AcDbEntity
  8
0
370
    -3
390
0
  6
Continuous
100
AcDbLine
 10
-625.285297
 20
-351.26273
 30
0.0
 11
-625.285297
 21
-348.967654
 31
0.0
  0
LINE
  5
186
100
AcDbEntity
  8
0
370
    -3
390
0
  6
Continuous
100
AcDbLine
 10
-625.285297
 20
-351.26273
 30
0.0
 11
-657.285297
 21
-352.472688
 31
0.0
  0
LINE
  5
187
100
AcDbEntity
  8
0
370
    -3
390
0
  6
Continuous
100
AcDbLine
 10
-625.285297
 20
-348.967654
 30
0.0
 11
-657.285297
 21
-350.177612
 31
0.0
  0
LINE
  5
188
100
AcDbEntity
  8
0
370
    -3
390
0
  6
Continuous
100
AcDbLine
 10
-625.285297
 20
-330.623372
 30
0.0
 11
-657.285297
 21
-334.232542
 31
0.0
  0
LINE
  5
189
100
AcDbEntity
  8
0
370
    -3
390
0
  6
Continuous
100
AcDbLine
 10
-625.285297
 20
-328.367566
 30
0.0
 11
-657.285297
 21
-331.976736
 31
0.0
  0
LINE
  5
18A
100
AcDbEntity
  8
0
370
    -3
390
0
  6
Continuous
100
AcDbLine
 10
-625.285297
 20
-328.367566
 30
0.0
 11
-557.285297
 21
-328.367566
 31
0.0
  0
LINE
  5
18B
100
AcDbEntity
  8
0
370
    -3
390
0
  6
Continuous
100
AcDbLine
 10
-625.285297
 20
-330.623372
 30
0.0
 11
-557.285297
 21
-330.623372
 31
0.0
  0
LINE
  5
18C
100
AcDbEntity
  8
0
370
    -3
390
0
  6
Continuous
100
AcDbLine
 10
-657.285297
 20
-335.793428
 30
0.0
 11
-557.285297
 21
-335.793428
 31
0.0
  0
LINE
  5
18D
100
AcDbEntity
  8
0
370
    -3
390
0
  6
Continuous
100
AcDbLine
 10
-625.285297
 20
-348.967654
 30
0.0
 11
-557.285297
 21
-348.967654
 31
0.0
  0
LINE
  5
18E
100
AcDbEntity
  8
0
370
    -3
390
0
  6
Continuous
100
AcDbLine
 10
-625.285297
 20
-351.26273
 30
0.0
 11
-557.285297
 21
-351.26273
 31
0.0
  0
LINE
  5
18F
100
AcDbEntity
  8
0
370
    -3
390
0
  6
Continuous
100
AcDbLine
 10
-657.285297
 20
-352.995968
 30
0.0
 11
-557.285297
 21
-352.995968
 31
0.0
  0
LINE
  5
190
100
AcDbEntity
  8
0
370
    -3
390
0
  6
Continuous
100
AcDbLine
 10
-657.285297
 20
-283.690376
 30
0.0
 11
-657.285297
 21
-288.13771
 31
0.0
  0
LINE
  5
191
100
AcDbEntity
  8
0
370
    -3
390
0
  6
Continuous
100
AcDbLine
 10
-657.285297
 20
-269.07022
 30
0.0
 11
-657.285297
 21
-274.348276
 31
0.0
  0
LINE
  5
192
100
AcDbEntity
  8
0
370
    -3
390
0
  6
Continuous
100
AcDbLine
 10
-657.285297
 20
-319.013862
 30
0.0
 11
-657.285297
 21
-313.836686
 31
0.0
  0
LINE
  5
193
100
AcDbEntity
  8
0
370
    -3
390
0
  6
Continuous
100
AcDbLine
 10
-657.285297
 20
-302.944378
 30
0.0
 11
-657.285297
 21
-297.342892
 31
0.0
  0
LINE
  5
194
100
AcDbEntity
  8
0
370
    -3
390
0
  6
Continuous
100
AcDbLine
 10
-632.757543
 20
-274.348276
 30
0.0
 11
-657.285297
 21
-274.348276
 31
0.0
  0
LINE
  5
195
100
AcDbEntity
  8
0
370
    -3
390
0
  6
Continuous
100
AcDbLine
 10
-625.285297
 20
-273.414636
 30
0.0
 11
-657.285297
 21
-285.602756
 31
0.0
  0
LINE
  5
196
100
AcDbEntity
  8
0
370
    -3
390
0
  6
Continuous
100
AcDbLine
 10
-625.285297
 20
-271.502256
 30
0.0
 11
-657.285297
 21
-283.690376
 31
0.0
  0
LINE
  5
197
100
AcDbEntity
  8
0
370
    -3
390
0
  6
Continuous
100
AcDbLine
 10
-625.285297
 20
-271.502256
 30
0.0
 11
-625.285297
 21
-273.414636
 31
0.0
  0
LINE
  5
198
100
AcDbEntity
  8
0
370
    -3
390
0
  6
Continuous
100
AcDbLine
 10
-625.285297
 20
-256.875064
 30
0.0
 11
-657.285297
 21
-270.799452
 31
0.0
  0
LINE
  5
199
100
AcDbEntity
  8
0
370
    -3
390
0
  6
Continuous
100
AcDbLine
 10
-625.285297
 20
-255.145832
 30
0.0
 11
-657.285297
 21
-269.07022
 31
0.0
  0
LINE
  5
19A
100
AcDbEntity
  8
0
370
    -3
390
0
  6
Continuous
100
AcDbLine
 10
-625.285297
 20
-256.875064
 30
0.0
 11
-625.285297
 21
-255.145832
 31
0.0
  0
LINE
  5
19B
100
AcDbEntity
  8
0
370
    -3
390
0
  6
Continuous
100
AcDbLine
 10
-657.285297
 20
-316.440742
 30
0.0
 11
-625.285297
 21
-310.920232
 31
0.0
  0
LINE
  5
19C
100
AcDbEntity
  8
0
370
    -3
390
0
  6
Continuous
100
AcDbLine
 10
-625.285297
 20
-308.31751
 30
0.0
 11
-657.285297
 21
-313.836686
 31
0.0
  0
LINE
  5
19D
100
AcDbEntity
  8
0
370
    -3
390
0
  6
Continuous
100
AcDbLine
 10
-625.285297
 20
-310.920232
 30
0.0
 11
-625.285297
 21
-308.31751
 31
0.0
  0
LINE
  5
19E
100
AcDbEntity
  8
0
370
    -3
390
0
  6
Continuous
100
AcDbLine
 10
-625.285297
 20
-291.22336
 30
0.0
 11
-625.285297
 21
-289.160552
 31
0.0
  0
LINE
  5
19F
100
AcDbEntity
  8
0
370
    -3
390
0
  6
Continuous
100
AcDbLine
 10
-625.285297
 20
-291.22336
 30
0.0
 11
-657.285297
 21
-299.4057
 31
0.0
  0
LINE
  5
1A0
100
AcDbEntity
  8
0
370
    -3
390
0
  6
Continuous
100
AcDbLine
 10
-625.285297
 20
-289.160552
 30
0.0
 11
-657.285297
 21
-297.342892
 31
0.0
  0
LINE
  5
1A1
100
AcDbEntity
  8
0
370
    -3
390
0
  6
Continuous
100
AcDbLine
 10
-557.285297
 20
-255.145832
 30
0.0
 11
-625.285297
 21
-255.145832
 31
0.0
  0
LINE
  5
1A2
100
AcDbEntity
  8
0
370
    -3
390
0
  6
Continuous
100
AcDbLine
 10
-557.285297
 20
-256.875064
 30
0.0
 11
-625.285297
 21
-256.875064
 31
0.0
  0
LINE
  5
1A3
100
AcDbEntity
  8
0
370
    -3
390
0
  6
Continuous
100
AcDbLine
 10
-557.285297
 20
-271.502256
 30
0.0
 11
-625.285297
 21
-271.502256
 31
0.0
  0
LINE
  5
1A4
100
AcDbEntity
  8
0
370
    -3
390
0
  6
Continuous
100
AcDbLine
 10
-557.285297
 20
-273.414636
 30
0.0
 11
-625.285297
 21
-273.414636
 31
0.0
  0
LINE
  5
1A5
100
AcDbEntity
  8
0
370
    -3
390
0
  6
Continuous
100
AcDbLine
 10
-557.285297
 20
-288.13771
 30
0.0
 11
-657.285297
 21
-288.13771
 31
0.0
  0
LINE
  5
1A6
100
AcDbEntity
  8
0
370
    -3
390
0
  6
Continuous
100
AcDbLine
 10
-625.285297
 20
-289.160552
 30
0.0
 11
-557.285297
 21
-289.160552
 31
0.0
  0
LINE
  5
1A7
100
AcDbEntity
  8
0
370
    -3
390
0
  6
Continuous
100
AcDbLine
 10
-625.285297
 20
-291.22336
 30
0.0
 11
-557.285297
 21
-291.22336
 31
0.0
  0
LINE
  5
1A8
100
AcDbEntity
  8
0
370
    -3
390
0
  6
Continuous
100
AcDbLine
 10
-657.285297
 20
-302.944378
 30
0.0
 11
-557.285297
 21
-302.944378
 31
0.0
  0
LINE
  5
1A9
100
AcDbEntity
  8
0
370
    -3
390
0
  6
Continuous
100
AcDbLine
 10
-557.285297
 20
-308.31751
 30
0.0
 11
-625.285297
 21
-308.31751
 31
0.0
  0
LINE
  5
1AA
100
AcDbEntity
  8
0
370
    -3
390
0
  6
Continuous
100
AcDbLine
 10
-625.285297
 20
-310.920232
 30
0.0
 11
-557.285297
 21
-310.920232
 31
0.0
  0
LINE
  5
1AB
100
AcDbEntity
  8
0
370
    -3
390
0
  6
Continuous
100
AcDbLine
 10
-657.285297
 20
-319.013862
 30
0.0
 11
-557.285297
 21
-319.013862
 31
0.0
  0
ARC
  5
1AC
100
AcDbEntity
  8
0
370
    -3
390
0
  6
Continuous
100
AcDbCircle
 10
-468.785297
 20
-227.697554
 30
0.0
 40
1.0
100
AcDbArc
 50
180.0
 51
270.0
  0
LINE
  5
1AD
100
AcDbEntity
  8
0
370
    -3
390
0
  6
Continuous
100
AcDbLine
 10
-467.431745
 20
-228.697554
 30
0.0
 11
-443.138851
 21
-228.697554
 31
0.0
  0
ARC
  5
1AE
100
AcDbEntity
  8
0
370
    -3
390
0
  6
Continuous
100
AcDbCircle
 10
-443.785297
 20
-252.053832
 30
0.0
 40
0.5
100
AcDbArc
 50
270.0
 51
0.0
  0
ARC
  5
1AF
100
AcDbEntity
  8
0
370
    -3
390
0
  6
Continuous
100
AcDbCircle
 10
-442.785297
 20
-231.818874
 30
0.0
 40
0.5
100
AcDbArc
 50
135.0
 51
180.0
  0
LINE
  5
1B0
100
AcDbEntity
  8
0
370
    -3
390
0
  6
Continuous
100
AcDbLine
 10
-443.285297
 20
-252.053832
 30
0.0
 11
-443.285297
 21
-231.818874
 31
0.0
  0
ARC
  5
1B1
100
AcDbEntity
  8
0
370
    -3
390
0
  6
Continuous
100
AcDbCircle
 10
-466.785297
 20
-252.053832
 30
0.0
 40
0.5
100
AcDbArc
 50
180.0
 51
270.0
  0
ARC
  5
1B2
100
AcDbEntity
  8
0
370
    -3
390
0
  6
Continuous
100
AcDbCircle
 10
-468.785297
 20
-218.469632
 30
0.0
 40
1.0
100
AcDbArc
 50
90.0
 51
180.0
  0
LINE
  5
1B3
100
AcDbEntity
  8
0
370
    -3
390
0
  6
Continuous
100
AcDbLine
 10
-469.785297
 20
-228.697554
 30
0.0
 11
-469.785297
 21
-218.469632
 31
0.0
  0
ARC
  5
1B4
100
AcDbEntity
  8
0
370
    -3
390
0
  6
Continuous
100
AcDbCircle
 10
-468.785297
 20
-228.697554
 30
0.0
 40
1.0
100
AcDbArc
 50
180.0
 51
225.0
  0
LINE
  5
1B5
100
AcDbEntity
  8
0
370
    -3
390
0
  6
Continuous
100
AcDbLine
 10
-467.431745
 20
-231.465322
 30
0.0
 11
-469.492405
 21
-229.404662
 31
0.0
  0
ARC
  5
1B6
100
AcDbEntity
  8
0
370
    -3
390
0
  6
Continuous
100
AcDbCircle
 10
-467.785297
 20
-231.818874
 30
0.0
 40
0.5
100
AcDbArc
 50
0.0
 51
45.0
  0
LINE
  5
1B7
100
AcDbEntity
  8
0
370
    -3
390
0
  6
Continuous
100
AcDbLine
 10
-467.285297
 20
-252.053832
 30
0.0
 11
-467.285297
 21
-231.818874
 31
0.0
  0
LINE
  5
1B8
100
AcDbEntity
  8
0
370
    -3
390
0
  6
Continuous
100
AcDbLine
 10
-443.785297
 20
-252.553832
 30
0.0
 11
-466.785297
 21
-252.553832
 31
0.0
  0
ARC
  5
1B9
100
AcDbEntity
  8
0
370
    -3
390
0
  6
Continuous
100
AcDbCircle
 10
-468.785297
 20
-227.697554
 30
0.0
 40
1.0
100
AcDbArc
 50
180.0
 51
270.0
  0
ARC
  5
1BA
100
AcDbEntity
  8
0
370
    -3
390
0
  6
Continuous
100
AcDbCircle
 10
-443.785297
 20
-252.053832
 30
0.0
 40
0.5
100
AcDbArc
 50
270.0
 51
0.0
  0
ARC
  5
1BB
100
AcDbEntity
  8
0
370
    -3
390
0
  6
Continuous
100
AcDbCircle
 10
-442.785297
 20
-231.818874
 30
0.0
 40
0.5
100
AcDbArc
 50
135.0
 51
180.0
  0
LINE
  5
1BC
100
AcDbEntity
  8
0
370
    -3
390
0
  6
Continuous
100
AcDbLine
 10
-443.285297
 20
-252.053832
 30
0.0
 11
-443.285297
 21
-231.818874
 31
0.0
  0
ARC
  5
1BD
100
AcDbEntity
  8
0
370
    -3
390
0
  6
Continuous
100
AcDbCircle
 10
-466.785297
 20
-252.053832
 30
0.0
 40
0.5
100
AcDbArc
 50
180.0
 51
270.0
  0
ARC
  5
1BE
100
AcDbEntity
  8
0
370
    -3
390
0
  6
Continuous
100
AcDbCircle
 10
-468.785297
 20
-218.469632
 30
0.0
 40
1.0
100
AcDbArc
 50
90.0
 51
180.0
  0
LINE
  5
1BF
100
AcDbEntity
  8
0
370
    -3
390
0
  6
Continuous
100
AcDbLine
 10
-469.785297
 20
-228.697554
 30
0.0
 11
-469.785297
 21
-218.469632
 31
0.0
  0
ARC
  5
1C0
100
AcDbEntity
  8
0
370
    -3
390
0
  6
Continuous
100
AcDbCircle
 10
-468.785297
 20
-228.697554
 30
0.0
 40
1.0
100
AcDbArc
 50
180.0
 51
225.0
  0
LINE
  5
1C1
100
AcDbEntity
  8
0
370
    -3
390
0
  6
Continuous
100
AcDbLine
 10
-467.431745
 20
-231.465322
 30
0.0
 11
-469.492405
 21
-229.404662
 31
0.0
  0
ARC
  5
1C2
100
AcDbEntity
  8
0
370
    -3
390
0
  6
Continuous
100
AcDbCircle
 10
-467.785297
 20
-231.818874
 30
0.0
 40
0.5
100
AcDbArc
 50
0.0
 51
45.0
  0
LINE
  5
1C3
100
AcDbEntity
  8
0
370
    -3
390
0
  6
Continuous
100
AcDbLine
 10
-467.285297
 20
-252.053832
 30
0.0
 11
-467.285297
 21
-231.818874
 31
0.0
  0
LINE
  5
1C4
100
AcDbEntity
  8
0
370
    -3
390
0
  6
Continuous
100
AcDbLine
 10
-443.785297
 20
-252.553832
 30
0.0
 11
-466.785297
 21
-252.553832
 31
0.0
  0
LINE
  5
1C5
100
AcDbEntity
  8
0
370
    -3
390
0
  6
Continuous
100
AcDbLine
 10
-524.285297
 20
-228.514018
 30
0.0
 11
-469.785297
 21
-228.514018
 31
0.0
  0
LINE
  5
1C6
100
AcDbEntity
  8
0
370
    -3
390
0
  6
Continuous
100
AcDbLine
 10
-556.285297
 20
-210.95293
 30
0.0
 11
-524.285297
 21
-228.360772
 31
0.0
  0
LINE
  5
1C7
100
AcDbEntity
  8
0
370
    -3
390
0
  6
Continuous
100
AcDbLine
 10
-556.285297
 20
-211.730138
 30
0.0
 11
-524.285297
 21
-229.13798
 31
0.0
  0
LINE
  5
1C8
100
AcDbEntity
  8
0
370
    -3
390
0
  6
Continuous
100
AcDbLine
 10
-692.285297
 20
-211.730138
 30
0.0
 11
-692.285297
 21
-210.95293
 31
0.0
  0
LINE
  5
1C9
100
AcDbEntity
  8
0
370
    -3
390
0
  6
Continuous
100
AcDbLine
 10
-556.285297
 20
-211.730138
 30
0.0
 11
-556.285297
 21
-210.95293
 31
0.0
  0
LINE
  5
1CA
100
AcDbEntity
  8
0
370
    -3
390
0
  6
Continuous
100
AcDbLine
 10
-524.285297
 20
-228.360772
 30
0.0
 11
-524.285297
 21
-234.979352
 31
0.0
  0
LINE
  5
1CB
100
AcDbEntity
  8
0
370
    -3
390
0
  6
Continuous
100
AcDbLine
 10
-692.285297
 20
-211.730138
 30
0.0
 11
-556.285297
 21
-211.730138
 31
0.0
  0
LINE
  5
1CC
100
AcDbEntity
  8
0
370
    -3
390
0
  6
Continuous
100
AcDbLine
 10
-692.285297
 20
-210.95293
 30
0.0
 11
-556.285297
 21
-210.95293
 31
0.0
  0
LINE
  5
1CD
100
AcDbEntity
  8
0
370
    -3
390
0
  6
Continuous
100
AcDbLine
 10
-524.923061
 20
-243.162868
 30
0.0
 11
-524.285297
 21
-243.162868
 31
0.0
  0
LINE
  5
1CE
100
AcDbEntity
  8
0
370
    -3
390
0
  6
Continuous
100
AcDbLine
 10
-556.285297
 20
-218.462956
 30
0.0
 11
-524.285297
 21
-234.979352
 31
0.0
  0
LINE
  5
1CF
100
AcDbEntity
  8
0
370
    -3
390
0
  6
Continuous
100
AcDbLine
 10
-556.285297
 20
-219.498182
 30
0.0
 11
-524.285297
 21
-236.01458
 31
0.0
  0
LINE
  5
1D0
100
AcDbEntity
  8
0
370
    -3
390
0
  6
Continuous
100
AcDbLine
 10
-524.285297
 20
-234.979352
 30
0.0
 11
-524.285297
 21
-243.162868
 31
0.0
  0
LINE
  5
1D1
100
AcDbEntity
  8
0
370
    -3
390
0
  6
Continuous
100
AcDbLine
 10
-692.285297
 20
-218.462956
 30
0.0
 11
-692.285297
 21
-219.498182
 31
0.0
  0
LINE
  5
1D2
100
AcDbEntity
  8
0
370
    -3
390
0
  6
Continuous
100
AcDbLine
 10
-556.285297
 20
-218.462956
 30
0.0
 11
-556.285297
 21
-219.498182
 31
0.0
  0
LINE
  5
1D3
100
AcDbEntity
  8
0
370
    -3
390
0
  6
Continuous
100
AcDbLine
 10
-692.285297
 20
-219.498182
 30
0.0
 11
-556.285297
 21
-219.498182
 31
0.0
  0
LINE
  5
1D4
100
AcDbEntity
  8
0
370
    -3
390
0
  6
Continuous
100
AcDbLine
 10
-692.285297
 20
-218.462956
 30
0.0
 11
-556.285297
 21
-218.462956
 31
0.0
  0
LINE
  5
1D5
100
AcDbEntity
  8
0
370
    -3
390
0
  6
Continuous
100
AcDbLine
 10
-531.407709
 20
-251.403084
 30
0.0
 11
-524.285297
 21
-251.403084
 31
0.0
  0
LINE
  5
1D6
100
AcDbEntity
  8
0
370
    -3
390
0
  6
Continuous
100
AcDbLine
 10
-556.285297
 20
-228.090636
 30
0.0
 11
-524.285297
 21
-243.469366
 31
0.0
  0
LINE
  5
1D7
100
AcDbEntity
  8
0
370
    -3
390
0
  6
Continuous
100
AcDbLine
 10
-556.285297
 20
-229.368448
 30
0.0
 11
-524.285297
 21
-244.747178
 31
0.0
  0
LINE
  5
1D8
100
AcDbEntity
  8
0
370
    -3
390
0
  6
Continuous
100
AcDbLine
 10
-556.285297
 20
-228.090636
 30
0.0
 11
-556.285297
 21
-229.368448
 31
0.0
  0
LINE
  5
1D9
100
AcDbEntity
  8
0
370
    -3
390
0
  6
Continuous
100
AcDbLine
 10
-524.285297
 20
-251.403084
 30
0.0
 11
-524.285297
 21
-243.469366
 31
0.0
  0
LINE
  5
1DA
100
AcDbEntity
  8
0
370
    -3
390
0
  6
Continuous
100
AcDbLine
 10
-556.285297
 20
-240.592288
 30
0.0
 11
-524.285297
 21
-254.498198
 31
0.0
  0
LINE
  5
1DB
100
AcDbEntity
  8
0
370
    -3
390
0
  6
Continuous
100
AcDbLine
 10
-556.285297
 20
-242.108784
 30
0.0
 11
-526.284701
 21
-255.145832
 31
0.0
  0
LINE
  5
1DC
100
AcDbEntity
  8
0
370
    -3
390
0
  6
Continuous
100
AcDbLine
 10
-556.285297
 20
-242.108784
 30
0.0
 11
-556.285297
 21
-240.592288
 31
0.0
  0
LINE
  5
1DD
100
AcDbEntity
  8
0
370
    -3
390
0
  6
Continuous
100
AcDbLine
 10
-524.285297
 20
-255.145832
 30
0.0
 11
-524.285297
 21
-254.498198
 31
0.0
  0
LINE
  5
1DE
100
AcDbEntity
  8
0
370
    -3
390
0
  6
Continuous
100
AcDbLine
 10
-759.285297
 20
-509.297898
 30
0.0
 11
-759.285297
 21
-510.075106
 31
0.0
  0
LINE
  5
1DF
100
AcDbEntity
  8
0
370
    -3
390
0
  6
Continuous
100
AcDbLine
 10
-489.285297
 20
-510.075106
 30
0.0
 11
-470.530697
 21
-499.872696
 31
0.0
  0
LINE
  5
1E0
100
AcDbEntity
  8
0
370
    -3
390
0
  6
Continuous
100
AcDbLine
 10
-489.285297
 20
-509.297898
 30
0.0
 11
-457.285297
 21
-491.890056
 31
0.0
  0
LINE
  5
1E1
100
AcDbEntity
  8
0
370
    -3
390
0
  6
Continuous
100
AcDbLine
 10
-489.285297
 20
-509.297898
 30
0.0
 11
-489.285297
 21
-510.075106
 31
0.0
  0
LINE
  5
1E2
100
AcDbEntity
  8
0
370
    -3
390
0
  6
Continuous
100
AcDbLine
 10
-457.285297
 20
-486.048684
 30
0.0
 11
-457.285297
 21
-492.667264
 31
0.0
  0
LINE
  5
1E3
100
AcDbEntity
  8
0
370
    -3
390
0
  6
Continuous
100
AcDbLine
 10
-759.285297
 20
-510.075106
 30
0.0
 11
-489.285297
 21
-510.075106
 31
0.0
  0
LINE
  5
1E4
100
AcDbEntity
  8
0
370
    -3
390
0
  6
Continuous
100
AcDbLine
 10
-759.285297
 20
-509.297898
 30
0.0
 11
-489.285297
 21
-509.297898
 31
0.0
  0
LINE
  5
1E5
100
AcDbEntity
  8
0
370
    -3
390
0
  6
Continuous
100
AcDbLine
 10
-457.923061
 20
-477.865168
 30
0.0
 11
-457.285297
 21
-477.865168
 31
0.0
  0
LINE
  5
1E6
100
AcDbEntity
  8
0
370
    -3
390
0
  6
Continuous
100
AcDbLine
 10
-489.285297
 20
-502.56508
 30
0.0
 11
-457.285297
 21
-486.048684
 31
0.0
  0
LINE
  5
1E7
100
AcDbEntity
  8
0
370
    -3
390
0
  6
Continuous
100
AcDbLine
 10
-489.285297
 20
-501.529854
 30
0.0
 11
-457.285297
 21
-485.013458
 31
0.0
  0
LINE
  5
1E8
100
AcDbEntity
  8
0
370
    -3
390
0
  6
Continuous
100
AcDbLine
 10
-457.285297
 20
-477.865168
 30
0.0
 11
-457.285297
 21
-486.048684
 31
0.0
  0
LINE
  5
1E9
100
AcDbEntity
  8
0
370
    -3
390
0
  6
Continuous
100
AcDbLine
 10
-759.285297
 20
-501.529854
 30
0.0
 11
-759.285297
 21
-502.56508
 31
0.0
  0
LINE
  5
1EA
100
AcDbEntity
  8
0
370
    -3
390
0
  6
Continuous
100
AcDbLine
 10
-489.285297
 20
-501.529854
 30
0.0
 11
-489.285297
 21
-502.56508
 31
0.0
  0
LINE
  5
1EB
100
AcDbEntity
  8
0
370
    -3
390
0
  6
Continuous
100
AcDbLine
 10
-759.285297
 20
-502.56508
 30
0.0
 11
-489.285297
 21
-502.56508
 31
0.0
  0
LINE
  5
1EC
100
AcDbEntity
  8
0
370
    -3
390
0
  6
Continuous
100
AcDbLine
 10
-759.285297
 20
-501.529854
 30
0.0
 11
-489.285297
 21
-501.529854
 31
0.0
  0
LINE
  5
1ED
100
AcDbEntity
  8
0
370
    -3
390
0
  6
Continuous
100
AcDbLine
 10
-464.407709
 20
-469.624952
 30
0.0
 11
-457.285297
 21
-469.624952
 31
0.0
  0
LINE
  5
1EE
100
AcDbEntity
  8
0
370
    -3
390
0
  6
Continuous
100
AcDbLine
 10
-489.285297
 20
-492.9374
 30
0.0
 11
-457.285297
 21
-477.55867
 31
0.0
  0
LINE
  5
1EF
100
AcDbEntity
  8
0
370
    -3
390
0
  6
Continuous
100
AcDbLine
 10
-489.285297
 20
-491.659588
 30
0.0
 11
-457.285297
 21
-476.280858
 31
0.0
  0
LINE
  5
1F0
100
AcDbEntity
  8
0
370
    -3
390
0
  6
Continuous
100
AcDbLine
 10
-489.285297
 20
-491.659588
 30
0.0
 11
-489.285297
 21
-492.9374
 31
0.0
  0
LINE
  5
1F1
100
AcDbEntity
  8
0
370
    -3
390
0
  6
Continuous
100
AcDbLine
 10
-759.285297
 20
-491.659588
 30
0.0
 11
-759.285297
 21
-492.9374
 31
0.0
  0
LINE
  5
1F2
100
AcDbEntity
  8
0
370
    -3
390
0
  6
Continuous
100
AcDbLine
 10
-457.285297
 20
-469.624952
 30
0.0
 11
-457.285297
 21
-477.55867
 31
0.0
  0
LINE
  5
1F3
100
AcDbEntity
  8
0
370
    -3
390
0
  6
Continuous
100
AcDbLine
 10
-759.285297
 20
-492.9374
 30
0.0
 11
-489.285297
 21
-492.9374
 31
0.0
  0
LINE
  5
1F4
100
AcDbEntity
  8
0
370
    -3
390
0
  6
Continuous
100
AcDbLine
 10
-759.285297
 20
-491.659588
 30
0.0
 11
-489.285297
 21
-491.659588
 31
0.0
  0
LINE
  5
1F5
100
AcDbEntity
  8
0
370
    -3
390
0
  6
Continuous
100
AcDbLine
 10
-538.212993
 20
-458.994872
 30
0.0
 11
-457.285297
 21
-458.994872
 31
0.0
  0
LINE
  5
1F6
100
AcDbEntity
  8
0
370
    -3
390
0
  6
Continuous
100
AcDbLine
 10
-489.285297
 20
-480.435748
 30
0.0
 11
-457.285297
 21
-466.529838
 31
0.0
  0
LINE
  5
1F7
100
AcDbEntity
  8
0
370
    -3
390
0
  6
Continuous
100
AcDbLine
 10
-489.285297
 20
-478.919254
 30
0.0
 11
-457.285297
 21
-465.013344
 31
0.0
  0
LINE
  5
1F8
100
AcDbEntity
  8
0
370
    -3
390
0
  6
Continuous
100
AcDbLine
 10
-489.285297
 20
-478.919254
 30
0.0
 11
-489.285297
 21
-480.435748
 31
0.0
  0
LINE
  5
1F9
100
AcDbEntity
  8
0
370
    -3
390
0
  6
Continuous
100
AcDbLine
 10
-759.285297
 20
-478.919254
 30
0.0
 11
-759.285297
 21
-480.435748
 31
0.0
  0
LINE
  5
1FA
100
AcDbEntity
  8
0
370
    -3
390
0
  6
Continuous
100
AcDbLine
 10
-457.285297
 20
-458.994872
 30
0.0
 11
-457.285297
 21
-466.529838
 31
0.0
  0
LINE
  5
1FB
100
AcDbEntity
  8
0
370
    -3
390
0
  6
Continuous
100
AcDbLine
 10
-759.285297
 20
-480.435748
 30
0.0
 11
-489.285297
 21
-480.435748
 31
0.0
  0
LINE
  5
1FC
100
AcDbEntity
  8
0
370
    -3
390
0
  6
Continuous
100
AcDbLine
 10
-759.285297
 20
-478.919254
 30
0.0
 11
-489.285297
 21
-478.919254
 31
0.0
  0
LINE
  5
1FD
100
AcDbEntity
  8
0
370
    -3
390
0
  6
Continuous
100
AcDbLine
 10
-692.285297
 20
-465.882204
 30
0.0
 11
-724.285297
 21
-453.687048
 31
0.0
  0
LINE
  5
1FE
100
AcDbEntity
  8
0
370
    -3
390
0
  6
Continuous
100
AcDbLine
 10
-556.285297
 20
-465.882204
 30
0.0
 11
-524.285297
 21
-453.687048
 31
0.0
  0
LINE
  5
1FF
100
AcDbEntity
  8
0
370
    -3
390
0
  6
Continuous
100
AcDbLine
 10
-547.422417
 20
-446.67976
 30
0.0
 11
-524.285297
 21
-446.67976
 31
0.0
  0
LINE
  5
200
100
AcDbEntity
  8
0
370
    -3
390
0
  6
Continuous
100
AcDbLine
 10
-692.285297
 20
-464.152972
 30
0.0
 11
-724.285297
 21
-451.957816
 31
0.0
  0
LINE
  5
201
100
AcDbEntity
  8
0
370
    -3
390
0
  6
Continuous
100
AcDbLine
 10
-556.285297
 20
-464.152972
 30
0.0
 11
-524.285297
 21
-451.957816
 31
0.0
  0
LINE
  5
202
100
AcDbEntity
  8
0
370
    -3
390
0
  6
Continuous
100
AcDbLine
 10
-556.285297
 20
-464.152972
 30
0.0
 11
-556.285297
 21
-465.882204
 31
0.0
  0
LINE
  5
203
100
AcDbEntity
  8
0
370
    -3
390
0
  6
Continuous
100
AcDbLine
 10
-692.285297
 20
-464.152972
 30
0.0
 11
-692.285297
 21
-465.882204
 31
0.0
  0
LINE
  5
204
100
AcDbEntity
  8
0
370
    -3
390
0
  6
Continuous
100
AcDbLine
 10
-724.285297
 20
-446.67976
 30
0.0
 11
-724.285297
 21
-453.687048
 31
0.0
  0
LINE
  5
205
100
AcDbEntity
  8
0
370
    -3
390
0
  6
Continuous
100
AcDbLine
 10
-524.285297
 20
-446.67976
 30
0.0
 11
-524.285297
 21
-453.687048
 31
0.0
  0
LINE
  5
206
100
AcDbEntity
  8
0
370
    -3
390
0
  6
Continuous
100
AcDbLine
 10
-692.285297
 20
-465.882204
 30
0.0
 11
-556.285297
 21
-465.882204
 31
0.0
  0
LINE
  5
207
100
AcDbEntity
  8
0
370
    -3
390
0
  6
Continuous
100
AcDbLine
 10
-692.285297
 20
-464.152972
 30
0.0
 11
-556.285297
 21
-464.152972
 31
0.0
  0
LINE
  5
208
100
AcDbEntity
  8
0
370
    -3
390
0
  6
Continuous
100
AcDbLine
 10
-724.285297
 20
-446.67976
 30
0.0
 11
-701.148179
 21
-446.67976
 31
0.0
  0
LINE
  5
209
100
AcDbEntity
  8
0
370
    -3
390
0
  6
Continuous
100
AcDbLine
 10
-692.285297
 20
-449.52578
 30
0.0
 11
-724.285297
 21
-439.25004
 31
0.0
  0
LINE
  5
20A
100
AcDbEntity
  8
0
370
    -3
390
0
  6
Continuous
100
AcDbLine
 10
-556.285297
 20
-449.52578
 30
0.0
 11
-524.285297
 21
-439.25004
 31
0.0
  0
LINE
  5
20B
100
AcDbEntity
  8
0
370
    -3
390
0
  6
Continuous
100
AcDbLine
 10
-692.285297
 20
-447.6134
 30
0.0
 11
-724.285297
 21
-437.33766
 31
0.0
  0
LINE
  5
20C
100
AcDbEntity
  8
0
370
    -3
390
0
  6
Continuous
100
AcDbLine
 10
-556.285297
 20
-447.6134
 30
0.0
 11
-524.285297
 21
-437.33766
 31
0.0
  0
LINE
  5
20D
100
AcDbEntity
  8
0
370
    -3
390
0
  6
Continuous
100
AcDbLine
 10
-556.285297
 20
-447.6134
 30
0.0
 11
-556.285297
 21
-449.52578
 31
0.0
  0
LINE
  5
20E
100
AcDbEntity
  8
0
370
    -3
390
0
  6
Continuous
100
AcDbLine
 10
-692.285297
 20
-447.6134
 30
0.0
 11
-692.285297
 21
-449.52578
 31
0.0
  0
LINE
  5
20F
100
AcDbEntity
  8
0
370
    -3
390
0
  6
Continuous
100
AcDbLine
 10
-724.285297
 20
-432.890326
 30
0.0
 11
-724.285297
 21
-439.25004
 31
0.0
  0
LINE
  5
210
100
AcDbEntity
  8
0
370
    -3
390
0
  6
Continuous
100
AcDbLine
 10
-524.285297
 20
-432.890326
 30
0.0
 11
-524.285297
 21
-439.25004
 31
0.0
  0
LINE
  5
211
100
AcDbEntity
  8
0
370
    -3
390
0
  6
Continuous
100
AcDbLine
 10
-692.285297
 20
-449.52578
 30
0.0
 11
-556.285297
 21
-449.52578
 31
0.0
  0
LINE
  5
212
100
AcDbEntity
  8
0
370
    -3
390
0
  6
Continuous
100
AcDbLine
 10
-692.285297
 20
-447.6134
 30
0.0
 11
-556.285297
 21
-447.6134
 31
0.0
  0
LINE
  5
213
100
AcDbEntity
  8
0
370
    -3
390
0
  6
Continuous
100
AcDbLine
 10
-724.285297
 20
-432.890326
 30
0.0
 11
-524.285297
 21
-432.890326
 31
0.0
  0
LINE
  5
214
100
AcDbEntity
  8
0
370
    -3
390
0
  6
Continuous
100
AcDbLine
 10
-692.285297
 20
-431.64634
 30
0.0
 11
-724.285297
 21
-423.465838
 31
0.0
  0
LINE
  5
215
100
AcDbEntity
  8
0
370
    -3
390
0
  6
Continuous
100
AcDbLine
 10
-556.285297
 20
-431.64634
 30
0.0
 11
-524.285297
 21
-423.465838
 31
0.0
  0
LINE
  5
216
100
AcDbEntity
  8
0
370
    -3
390
0
  6
Continuous
100
AcDbLine
 10
-692.285297
 20
-429.583532
 30
0.0
 11
-724.285297
 21
-421.403032
 31
0.0
  0
LINE
  5
217
100
AcDbEntity
  8
0
370
    -3
390
0
  6
Continuous
100
AcDbLine
 10
-556.285297
 20
-429.583532
 30
0.0
 11
-524.285297
 21
-421.403032
 31
0.0
  0
LINE
  5
218
100
AcDbEntity
  8
0
370
    -3
390
0
  6
Continuous
100
AcDbLine
 10
-556.285297
 20
-429.583532
 30
0.0
 11
-556.285297
 21
-431.64634
 31
0.0
  0
LINE
  5
219
100
AcDbEntity
  8
0
370
    -3
390
0
  6
Continuous
100
AcDbLine
 10
-692.285297
 20
-429.583532
 30
0.0
 11
-692.285297
 21
-431.64634
 31
0.0
  0
LINE
  5
21A
100
AcDbEntity
  8
0
370
    -3
390
0
  6
Continuous
100
AcDbLine
 10
-724.285297
 20
-417.862514
 30
0.0
 11
-724.285297
 21
-423.465838
 31
0.0
  0
LINE
  5
21B
100
AcDbEntity
  8
0
370
    -3
390
0
  6
Continuous
100
AcDbLine
 10
-524.285297
 20
-417.862514
 30
0.0
 11
-524.285297
 21
-423.465838
 31
0.0
  0
LINE
  5
21C
100
AcDbEntity
  8
0
370
    -3
390
0
  6
Continuous
100
AcDbLine
 10
-692.285297
 20
-431.64634
 30
0.0
 11
-556.285297
 21
-431.64634
 31
0.0
  0
LINE
  5
21D
100
AcDbEntity
  8
0
370
    -3
390
0
  6
Continuous
100
AcDbLine
 10
-692.285297
 20
-429.583532
 30
0.0
 11
-556.285297
 21
-429.583532
 31
0.0
  0
LINE
  5
21E
100
AcDbEntity
  8
0
370
    -3
390
0
  6
Continuous
100
AcDbLine
 10
-724.285297
 20
-417.862514
 30
0.0
 11
-524.285297
 21
-417.862514
 31
0.0
  0
LINE
  5
21F
100
AcDbEntity
  8
0
370
    -3
390
0
  6
Continuous
100
AcDbLine
 10
-692.285297
 20
-412.549806
 30
0.0
 11
-724.285297
 21
-406.604512
 31
0.0
  0
LINE
  5
220
100
AcDbEntity
  8
0
370
    -3
390
0
  6
Continuous
100
AcDbLine
 10
-556.285297
 20
-412.549806
 30
0.0
 11
-524.285297
 21
-406.604512
 31
0.0
  0
LINE
  5
221
100
AcDbEntity
  8
0
370
    -3
390
0
  6
Continuous
100
AcDbLine
 10
-556.285297
 20
-410.371866
 30
0.0
 11
-524.285297
 21
-404.426574
 31
0.0
  0
LINE
  5
222
100
AcDbEntity
  8
0
370
    -3
390
0
  6
Continuous
100
AcDbLine
 10
-692.285297
 20
-410.371866
 30
0.0
 11
-724.285297
 21
-404.426574
 31
0.0
  0
LINE
  5
223
100
AcDbEntity
  8
0
370
    -3
390
0
  6
Continuous
100
AcDbLine
 10
-692.285297
 20
-412.549806
 30
0.0
 11
-556.285297
 21
-412.549806
 31
0.0
  0
LINE
  5
224
100
AcDbEntity
  8
0
370
    -3
390
0
  6
Continuous
100
AcDbLine
 10
-692.285297
 20
-410.371866
 30
0.0
 11
-556.285297
 21
-410.371866
 31
0.0
  0
LINE
  5
225
100
AcDbEntity
  8
0
370
    -3
390
0
  6
Continuous
100
AcDbLine
 10
-724.285297
 20
-401.853454
 30
0.0
 11
-524.285297
 21
-401.853454
 31
0.0
  0
LINE
  5
226
100
AcDbEntity
  8
0
370
    -3
390
0
  6
Continuous
100
AcDbLine
 10
-556.285297
 20
-412.549806
 30
0.0
 11
-556.285297
 21
-410.371866
 31
0.0
  0
LINE
  5
227
100
AcDbEntity
  8
0
370
    -3
390
0
  6
Continuous
100
AcDbLine
 10
-692.285297
 20
-412.549806
 30
0.0
 11
-692.285297
 21
-410.371866
 31
0.0
  0
LINE
  5
228
100
AcDbEntity
  8
0
370
    -3
390
0
  6
Continuous
100
AcDbLine
 10
-724.285297
 20
-406.604512
 30
0.0
 11
-724.285297
 21
-401.853454
 31
0.0
  0
LINE
  5
229
100
AcDbEntity
  8
0
370
    -3
390
0
  6
Continuous
100
AcDbLine
 10
-524.285297
 20
-406.604512
 30
0.0
 11
-524.285297
 21
-401.853454
 31
0.0
  0
LINE
  5
22A
100
AcDbEntity
  8
0
370
    -3
390
0
  6
Continuous
100
AcDbLine
 10
-489.285297
 20
-392.562926
 30
0.0
 11
-457.285297
 21
-388.954566
 31
0.0
  0
LINE
  5
22B
100
AcDbEntity
  8
0
370
    -3
390
0
  6
Continuous
100
AcDbLine
 10
-489.285297
 20
-390.30712
 30
0.0
 11
-457.285297
 21
-386.69876
 31
0.0
  0
LINE
  5
22C
100
AcDbEntity
  8
0
370
    -3
390
0
  6
Continuous
100
AcDbLine
 10
-759.285297
 20
-392.562926
 30
0.0
 11
-759.285297
 21
-390.30712
 31
0.0
  0
LINE
  5
22D
100
AcDbEntity
  8
0
370
    -3
390
0
  6
Continuous
100
AcDbLine
 10
-489.285297
 20
-392.562926
 30
0.0
 11
-489.285297
 21
-390.30712
 31
0.0
  0
LINE
  5
22E
100
AcDbEntity
  8
0
370
    -3
390
0
  6
Continuous
100
AcDbLine
 10
-457.285297
 20
-385.137064
 30
0.0
 11
-457.285297
 21
-388.954566
 31
0.0
  0
LINE
  5
22F
100
AcDbEntity
  8
0
370
    -3
390
0
  6
Continuous
100
AcDbLine
 10
-759.285297
 20
-392.562926
 30
0.0
 11
-489.285297
 21
-392.562926
 31
0.0
  0
LINE
  5
230
100
AcDbEntity
  8
0
370
    -3
390
0
  6
Continuous
100
AcDbLine
 10
-759.285297
 20
-390.30712
 30
0.0
 11
-489.285297
 21
-390.30712
 31
0.0
  0
LINE
  5
231
100
AcDbEntity
  8
0
370
    -3
390
0
  6
Continuous
100
AcDbLine
 10
-489.285297
 20
-372.02768
 30
0.0
 11
-457.285297
 21
-370.817994
 31
0.0
  0
LINE
  5
232
100
AcDbEntity
  8
0
370
    -3
390
0
  6
Continuous
100
AcDbLine
 10
-489.285297
 20
-369.732604
 30
0.0
 11
-457.285297
 21
-368.522918
 31
0.0
  0
LINE
  5
233
100
AcDbEntity
  8
0
370
    -3
390
0
  6
Continuous
100
AcDbLine
 10
-457.285297
 20
-367.999368
 30
0.0
 11
-457.285297
 21
-370.817994
 31
0.0
  0
LINE
  5
234
100
AcDbEntity
  8
0
370
    -3
390
0
  6
Continuous
100
AcDbLine
 10
-489.285297
 20
-369.732604
 30
0.0
 11
-489.285297
 21
-372.02768
 31
0.0
  0
LINE
  5
235
100
AcDbEntity
  8
0
370
    -3
390
0
  6
Continuous
100
AcDbLine
 10
-481.813051
 20
-274.348276
 30
0.0
 11
-457.285297
 21
-274.348276
 31
0.0
  0
LINE
  5
236
100
AcDbEntity
  8
0
370
    -3
390
0
  6
Continuous
100
AcDbLine
 10
-489.285297
 20
-273.414636
 30
0.0
 11
-457.285297
 21
-285.602756
 31
0.0
  0
LINE
  5
237
100
AcDbEntity
  8
0
370
    -3
390
0
  6
Continuous
100
AcDbLine
 10
-489.285297
 20
-271.502256
 30
0.0
 11
-457.285297
 21
-283.690376
 31
0.0
  0
LINE
  5
238
100
AcDbEntity
  8
0
370
    -3
390
0
  6
Continuous
100
AcDbLine
 10
-457.285297
 20
-283.690376
 30
0.0
 11
-457.285297
 21
-288.13771
 31
0.0
  0
LINE
  5
239
100
AcDbEntity
  8
0
370
    -3
390
0
  6
Continuous
100
AcDbLine
 10
-489.285297
 20
-271.502256
 30
0.0
 11
-489.285297
 21
-273.414636
 31
0.0
  0
LINE
  5
23A
100
AcDbEntity
  8
0
370
    -3
390
0
  6
Continuous
100
AcDbLine
 10
-557.285297
 20
-273.414636
 30
0.0
 11
-489.285297
 21
-273.414636
 31
0.0
  0
LINE
  5
23B
100
AcDbEntity
  8
0
370
    -3
390
0
  6
Continuous
100
AcDbLine
 10
-557.285297
 20
-271.502256
 30
0.0
 11
-489.285297
 21
-271.502256
 31
0.0
  0
LINE
  5
23C
100
AcDbEntity
  8
0
370
    -3
390
0
  6
Continuous
100
AcDbLine
 10
-489.285297
 20
-256.875064
 30
0.0
 11
-457.285297
 21
-270.799452
 31
0.0
  0
LINE
  5
23D
100
AcDbEntity
  8
0
370
    -3
390
0
  6
Continuous
100
AcDbLine
 10
-489.285297
 20
-255.145832
 30
0.0
 11
-457.285297
 21
-269.07022
 31
0.0
  0
LINE
  5
23E
100
AcDbEntity
  8
0
370
    -3
390
0
  6
Continuous
100
AcDbLine
 10
-489.285297
 20
-256.875064
 30
0.0
 11
-489.285297
 21
-255.145832
 31
0.0
  0
LINE
  5
23F
100
AcDbEntity
  8
0
370
    -3
390
0
  6
Continuous
100
AcDbLine
 10
-457.285297
 20
-269.07022
 30
0.0
 11
-457.285297
 21
-274.348276
 31
0.0
  0
ARC
  5
240
100
AcDbEntity
  8
0
370
    -3
390
0
  6
Continuous
100
AcDbCircle
 10
-442.285297
 20
-426.2506
 30
0.0
 40
1.0
100
AcDbArc
 50
180.0
 51
270.0
  0
ARC
  5
241
100
AcDbEntity
  8
0
370
    -3
390
0
  6
Continuous
100
AcDbCircle
 10
-468.285297
 20
-426.2506
 30
0.0
 40
1.0
100
AcDbArc
 50
270.0
 51
0.0
  0
ARC
  5
242
100
AcDbEntity
  8
0
370
    -3
390
0
  6
Continuous
100
AcDbCircle
 10
-468.785297
 20
-428.2506
 30
0.0
 40
1.0
100
AcDbArc
 50
90.0
 51
180.0
  0
ARC
  5
243
100
AcDbEntity
  8
0
370
    -3
390
0
  6
Continuous
100
AcDbCircle
 10
-444.285297
 20
-416.706582
 30
0.0
 40
1.0
100
AcDbArc
 50
0.0
 51
90.0
  0
ARC
  5
244
100
AcDbEntity
  8
0
370
    -3
390
0
  6
Continuous
100
AcDbCircle
 10
-466.285297
 20
-416.706582
 30
0.0
 40
1.0
100
AcDbArc
 50
90.0
 51
180.0
  0
ARC
  5
245
100
AcDbEntity
  8
0
370
    -3
390
0
  6
Continuous
100
AcDbCircle
 10
-468.785297
 20
-447.287578
 30
0.0
 40
1.0
100
AcDbArc
 50
180.0
 51
270.0
  0
ARC
  5
246
100
AcDbEntity
  8
0
370
    -3
390
0
  6
Continuous
100
AcDbCircle
 10
-468.785297
 20
-432.064262
 30
0.0
 40
1.0
100
AcDbArc
 50
90.0
 51
180.0
  0
LINE
  5
247
100
AcDbEntity
  8
0
370
    -3
390
0
  6
Continuous
100
AcDbLine
 10
-468.285297
 20
-427.2506
 30
0.0
 11
-468.785297
 21
-427.2506
 31
0.0
  0
LINE
  5
248
100
AcDbEntity
  8
0
370
    -3
390
0
  6
Continuous
100
AcDbLine
 10
-469.785297
 20
-447.287578
 30
0.0
 11
-469.785297
 21
-428.2506
 31
0.0
  0
LINE
  5
249
100
AcDbEntity
  8
0
370
    -3
390
0
  6
Continuous
100
AcDbLine
 10
-467.285297
 20
-426.2506
 30
0.0
 11
-467.285297
 21
-416.706582
 31
0.0
  0
LINE
  5
24A
100
AcDbEntity
  8
0
370
    -3
390
0
  6
Continuous
100
AcDbLine
 10
-443.285297
 20
-426.2506
 30
0.0
 11
-443.285297
 21
-416.706582
 31
0.0
  0
LINE
  5
24B
100
AcDbEntity
  8
0
370
    -3
390
0
  6
Continuous
100
AcDbLine
 10
-444.285297
 20
-415.706582
 30
0.0
 11
-466.285297
 21
-415.706582
 31
0.0
  0
LINE
  5
24C
100
AcDbEntity
  8
0
370
    -3
390
0
  6
Continuous
100
AcDbLine
 10
-457.285297
 20
-319.013862
 30
0.0
 11
-457.285297
 21
-313.836686
 31
0.0
  0
LINE
  5
24D
100
AcDbEntity
  8
0
370
    -3
390
0
  6
Continuous
100
AcDbLine
 10
-457.285297
 20
-319.013862
 30
0.0
 11
-557.285297
 21
-319.013862
 31
0.0
  0
LINE
  5
24E
100
AcDbEntity
  8
0
370
    -3
390
0
  6
Continuous
100
AcDbLine
 10
-557.285297
 20
-308.31751
 30
0.0
 11
-489.285297
 21
-308.31751
 31
0.0
  0
LINE
  5
24F
100
AcDbEntity
  8
0
370
    -3
390
0
  6
Continuous
100
AcDbLine
 10
-457.285297
 20
-316.440742
 30
0.0
 11
-489.285297
 21
-310.920232
 31
0.0
  0
LINE
  5
250
100
AcDbEntity
  8
0
370
    -3
390
0
  6
Continuous
100
AcDbLine
 10
-489.285297
 20
-308.31751
 30
0.0
 11
-457.285297
 21
-313.836686
 31
0.0
  0
LINE
  5
251
100
AcDbEntity
  8
0
370
    -3
390
0
  6
Continuous
100
AcDbLine
 10
-489.285297
 20
-310.920232
 30
0.0
 11
-489.285297
 21
-308.31751
 31
0.0
  0
LINE
  5
252
100
AcDbEntity
  8
0
370
    -3
390
0
  6
Continuous
100
AcDbLine
 10
-489.285297
 20
-310.920232
 30
0.0
 11
-557.285297
 21
-310.920232
 31
0.0
  0
LINE
  5
253
100
AcDbEntity
  8
0
370
    -3
390
0
  6
Continuous
100
AcDbLine
 10
-457.285297
 20
-335.793428
 30
0.0
 11
-557.285297
 21
-335.793428
 31
0.0
  0
LINE
  5
254
100
AcDbEntity
  8
0
370
    -3
390
0
  6
Continuous
100
AcDbLine
 10
-457.285297
 20
-302.944378
 30
0.0
 11
-557.285297
 21
-302.944378
 31
0.0
  0
LINE
  5
255
100
AcDbEntity
  8
0
370
    -3
390
0
  6
Continuous
100
AcDbLine
 10
-457.285297
 20
-352.995968
 30
0.0
 11
-557.285297
 21
-352.995968
 31
0.0
  0
LINE
  5
256
100
AcDbEntity
  8
0
370
    -3
390
0
  6
Continuous
100
AcDbLine
 10
-457.285297
 20
-352.995968
 30
0.0
 11
-457.285297
 21
-350.177612
 31
0.0
  0
LINE
  5
257
100
AcDbEntity
  8
0
370
    -3
390
0
  6
Continuous
100
AcDbLine
 10
-457.285297
 20
-335.793428
 30
0.0
 11
-457.285297
 21
-331.976736
 31
0.0
  0
LINE
  5
258
100
AcDbEntity
  8
0
370
    -3
390
0
  6
Continuous
100
AcDbLine
 10
-457.285297
 20
-302.944378
 30
0.0
 11
-457.285297
 21
-297.342892
 31
0.0
  0
LINE
  5
259
100
AcDbEntity
  8
0
370
    -3
390
0
  6
Continuous
100
AcDbLine
 10
-489.285297
 20
-291.22336
 30
0.0
 11
-489.285297
 21
-289.160552
 31
0.0
  0
LINE
  5
25A
100
AcDbEntity
  8
0
370
    -3
390
0
  6
Continuous
100
AcDbLine
 10
-489.285297
 20
-330.623372
 30
0.0
 11
-489.285297
 21
-328.367566
 31
0.0
  0
LINE
  5
25B
100
AcDbEntity
  8
0
370
    -3
390
0
  6
Continuous
100
AcDbLine
 10
-489.285297
 20
-351.26273
 30
0.0
 11
-489.285297
 21
-348.967654
 31
0.0
  0
LINE
  5
25C
100
AcDbEntity
  8
0
370
    -3
390
0
  6
Continuous
100
AcDbLine
 10
-489.285297
 20
-351.26273
 30
0.0
 11
-457.285297
 21
-352.472688
 31
0.0
  0
LINE
  5
25D
100
AcDbEntity
  8
0
370
    -3
390
0
  6
Continuous
100
AcDbLine
 10
-489.285297
 20
-348.967654
 30
0.0
 11
-457.285297
 21
-350.177612
 31
0.0
  0
LINE
  5
25E
100
AcDbEntity
  8
0
370
    -3
390
0
  6
Continuous
100
AcDbLine
 10
-489.285297
 20
-330.623372
 30
0.0
 11
-457.285297
 21
-334.232542
 31
0.0
  0
LINE
  5
25F
100
AcDbEntity
  8
0
370
    -3
390
0
  6
Continuous
100
AcDbLine
 10
-489.285297
 20
-328.367566
 30
0.0
 11
-457.285297
 21
-331.976736
 31
0.0
  0
LINE
  5
260
100
AcDbEntity
  8
0
370
    -3
390
0
  6
Continuous
100
AcDbLine
 10
-489.285297
 20
-291.22336
 30
0.0
 11
-457.285297
 21
-299.4057
 31
0.0
  0
LINE
  5
261
100
AcDbEntity
  8
0
370
    -3
390
0
  6
Continuous
100
AcDbLine
 10
-489.285297
 20
-289.160552
 30
0.0
 11
-457.285297
 21
-297.342892
 31
0.0
  0
LINE
  5
262
100
AcDbEntity
  8
0
370
    -3
390
0
  6
Continuous
100
AcDbLine
 10
-489.285297
 20
-351.26273
 30
0.0
 11
-557.285297
 21
-351.26273
 31
0.0
  0
LINE
  5
263
100
AcDbEntity
  8
0
370
    -3
390
0
  6
Continuous
100
AcDbLine
 10
-489.285297
 20
-348.967654
 30
0.0
 11
-557.285297
 21
-348.967654
 31
0.0
  0
LINE
  5
264
100
AcDbEntity
  8
0
370
    -3
390
0
  6
Continuous
100
AcDbLine
 10
-489.285297
 20
-330.623372
 30
0.0
 11
-557.285297
 21
-330.623372
 31
0.0
  0
LINE
  5
265
100
AcDbEntity
  8
0
370
    -3
390
0
  6
Continuous
100
AcDbLine
 10
-489.285297
 20
-328.367566
 30
0.0
 11
-557.285297
 21
-328.367566
 31
0.0
  0
LINE
  5
266
100
AcDbEntity
  8
0
370
    -3
390
0
  6
Continuous
100
AcDbLine
 10
-489.285297
 20
-291.22336
 30
0.0
 11
-557.285297
 21
-291.22336
 31
0.0
  0
LINE
  5
267
100
AcDbEntity
  8
0
370
    -3
390
0
  6
Continuous
100
AcDbLine
 10
-489.285297
 20
-289.160552
 30
0.0
 11
-557.285297
 21
-289.160552
 31
0.0
  0
LINE
  5
268
100
AcDbEntity
  8
0
370
    -3
390
0
  6
Continuous
100
AcDbLine
 10
-641.685297
 20
-516.314018
 30
0.0
 11
-606.885297
 21
-516.314018
 31
0.0
  0
ARC
  5
269
100
AcDbEntity
  8
0
370
    -3
390
0
  6
Continuous
100
AcDbCircle
 10
-606.885297
 20
-515.714018
 30
0.0
 40
0.6
100
AcDbArc
 50
270.0
 51
0.0
  0
ARC
  5
26A
100
AcDbEntity
  8
0
370
    -3
390
0
  6
Continuous
100
AcDbCircle
 10
-641.685297
 20
-515.714018
 30
0.0
 40
0.6
100
AcDbArc
 50
180.0
 51
270.0
  0
LINE
  5
26B
100
AcDbEntity
  8
0
370
    -3
390
0
  6
Continuous
100
AcDbLine
 10
-642.285297
 20
-510.075106
 30
0.0
 11
-642.285297
 21
-515.714018
 31
0.0
  0
LINE
  5
26C
100
AcDbEntity
  8
0
370
    -3
390
0
  6
Continuous
100
AcDbLine
 10
-606.285297
 20
-510.075106
 30
0.0
 11
-606.285297
 21
-515.714018
 31
0.0
  0
LINE
  5
26D
100
AcDbEntity
  8
0
370
    -3
390
0
  6
Continuous
100
AcDbLine
 10
-468.785297
 20
-217.469632
 30
0.0
 11
-442.285297
 21
-217.469632
 31
0.0
  0
LINE
  5
26E
100
AcDbEntity
  8
0
370
    -3
390
0
  6
Continuous
100
AcDbLine
 10
-468.785297
 20
-228.697554
 30
0.0
 11
-442.285297
 21
-228.697554
 31
0.0
  0
LINE
  5
26F
100
AcDbEntity
  8
0
370
    -3
390
0
  6
Continuous
100
AcDbLine
 10
-772.285297
 20
-458.994872
 30
0.0
 11
-710.357603
 21
-458.994872
 31
0.0
  0
LINE
  5
270
100
AcDbEntity
  8
0
370
    -3
390
0
  6
Continuous
100
AcDbLine
 10
-759.285297
 20
-478.919254
 30
0.0
 11
-772.285297
 21
-473.269978
 31
0.0
  0
LINE
  5
271
100
AcDbEntity
  8
0
370
    -3
390
0
  6
Continuous
100
AcDbLine
 10
-759.285297
 20
-480.435748
 30
0.0
 11
-772.285297
 21
-474.786472
 31
0.0
  0
LINE
  5
272
100
AcDbEntity
  8
0
370
    -3
390
0
  6
Continuous
100
AcDbLine
 10
-692.285297
 20
-210.95293
 30
0.0
 11
-718.784318
 21
-225.368266
 31
0.0
  0
LINE
  5
273
100
AcDbEntity
  8
0
370
    -3
390
0
  6
Continuous
100
AcDbLine
 10
-692.285297
 20
-211.730138
 30
0.0
 11
-717.355614
 21
-225.368266
 31
0.0
  0
LINE
  5
274
100
AcDbEntity
  8
0
370
    -3
390
0
  6
Continuous
100
AcDbLine
 10
-692.285297
 20
-218.462956
 30
0.0
 11
-705.66412
 21
-225.368266
 31
0.0
  0
LINE
  5
275
100
AcDbEntity
  8
0
370
    -3
390
0
  6
Continuous
100
AcDbLine
 10
-692.285297
 20
-219.498182
 30
0.0
 11
-703.658401
 21
-225.368266
 31
0.0
  0
LINE
  5
276
100
AcDbEntity
  8
0
370
    -3
390
0
  6
Continuous
100
AcDbLine
 10
-684.822474
 20
-228.090636
 30
0.0
 11
-556.285297
 21
-228.090636
 31
0.0
  0
LINE
  5
277
100
AcDbEntity
  8
0
370
    -3
390
0
  6
Continuous
100
AcDbLine
 10
-683.788174
 20
-229.368448
 30
0.0
 11
-556.285297
 21
-229.368448
 31
0.0
  0
LINE
  5
278
100
AcDbEntity
  8
0
370
    -3
390
0
  6
Continuous
100
AcDbLine
 10
-681.20064
 20
-240.592288
 30
0.0
 11
-556.285297
 21
-240.592288
 31
0.0
  0
LINE
  5
279
100
AcDbEntity
  8
0
370
    -3
390
0
  6
Continuous
100
AcDbLine
 10
-680.986537
 20
-242.108784
 30
0.0
 11
-556.285297
 21
-242.108784
 31
0.0
  0
LINE
  5
27A
100
AcDbEntity
  8
0
370
    -3
390
0
  6
Continuous
100
AcDbLine
 10
-557.285297
 20
-255.145832
 30
0.0
 11
-489.285297
 21
-255.145832
 31
0.0
  0
LINE
  5
27B
100
AcDbEntity
  8
0
370
    -3
390
0
  6
Continuous
100
AcDbLine
 10
-557.285297
 20
-256.875064
 30
0.0
 11
-489.285297
 21
-256.875064
 31
0.0
  0
LINE
  5
27C
100
AcDbEntity
  8
0
370
    -3
390
0
  6
Continuous
100
AcDbLine
 10
-557.285297
 20
-288.13771
 30
0.0
 11
-457.285297
 21
-288.13771
 31
0.0
  0
LINE
  5
27D
100
AcDbEntity
  8
0
370
    -3
390
0
  6
Continuous
100
AcDbLine
 10
-557.285297
 20
-367.999368
 30
0.0
 11
-457.285297
 21
-367.999368
 31
0.0
  0
LINE
  5
27E
100
AcDbEntity
  8
0
370
    -3
390
0
  6
Continuous
100
AcDbLine
 10
-706.960389
 20
-385.137064
 30
0.0
 11
-457.285297
 21
-385.137064
 31
0.0
  0
LINE
  5
27F
100
AcDbEntity
  8
0
370
    -3
390
0
  6
CENTER
100
AcDbLine
 10
-751.285297
 20
-221.228535
 30
0.0
 11
-751.285297
 21
-390.13344
 31
0.0
  0
LINE
  5
280
100
AcDbEntity
  8
0
370
    -3
390
0
  6
Continuous
100
AcDbLine
 10
-557.285297
 20
-369.732604
 30
0.0
 11
-489.285297
 21
-369.732604
 31
0.0
  0
LINE
  5
281
100
AcDbEntity
  8
0
370
    -3
390
0
  6
Continuous
100
AcDbLine
 10
-557.285297
 20
-372.02768
 30
0.0
 11
-489.285297
 21
-372.02768
 31
0.0
  0
LINE
  5
282
100
AcDbEntity
  8
0
370
    -3
390
0
  6
Continuous
100
AcDbLine
 10
-443.138851
 20
-231.465322
 30
0.0
 11
-442.285297
 21
-230.611768
 31
0.0
  0
LINE
  5
283
100
AcDbEntity
  8
0
370
    -3
390
0
  6
Continuous
100
AcDbLine
 10
-457.285297
 20
-492.514018
 30
0.0
 11
-442.285297
 21
-492.514018
 31
0.0
  0
LINE
  5
284
100
AcDbEntity
  8
0
370
    -3
390
0
  6
Continuous
100
AcDbLine
 10
-442.285297
 20
-431.064262
 30
0.0
 11
-468.785297
 21
-431.064262
 31
0.0
  0
LINE
  5
285
100
AcDbEntity
  8
0
370
    -3
390
0
  6
Continuous
100
AcDbLine
 10
-442.285297
 20
-448.287578
 30
0.0
 11
-468.785297
 21
-448.287578
 31
0.0
  0
LINE
  5
286
100
AcDbEntity
  8
0
370
    -3
390
0
  6
Continuous
100
AcDbLine
 10
-466.185973
 20
-497.509187
 30
0.0
 11
-457.285297
 21
-492.667264
 31
0.0
  0
ARC
  5
287
100
AcDbEntity
  8
0
370
    -3
390
0
  6
Continuous
100
AcDbCircle
 10
-874.285297
 20
-509.87917
 30
0.0
 40
3.0
100
AcDbArc
 50
0.0
 51
35.0
  0
LINE
  5
288
100
AcDbEntity
  8
0
370
    -3
390
0
  6
Continuous
100
AcDbLine
 10
-892.688246
 20
-478.366695
 30
0.0
 11
-871.827841
 21
-508.158441
 31
0.0
  0
ARC
  5
289
100
AcDbEntity
  8
0
370
    -3
390
0
  6
Continuous
100
AcDbCircle
 10
-868.285297
 20
-511.014018
 30
0.0
 40
3.0
100
AcDbArc
 50
180.0
 51
270.0
  0
LINE
  5
28A
100
AcDbEntity
  8
0
370
    -3
390
0
  6
Continuous
100
AcDbLine
 10
-871.285297
 20
-511.014018
 30
0.0
 11
-871.285297
 21
-360.514018
 31
0.0
  0
LINE
  5
28B
100
AcDbEntity
  8
0
370
    -3
390
0
  6
Continuous
100
AcDbLine
 10
-868.285297
 20
-514.014018
 30
0.0
 11
-833.785297
 21
-514.014018
 31
0.0
  0
ARC
  5
28C
100
AcDbEntity
  8
0
370
    -3
390
0
  6
Continuous
100
AcDbCircle
 10
-829.785297
 20
-513.014018
 30
0.0
 40
3.0
100
AcDbArc
 50
216.869898
 51
270.0
  0
ARC
  5
28D
100
AcDbEntity
  8
0
370
    -3
390
0
  6
Continuous
100
AcDbCircle
 10
-833.785297
 20
-516.014018
 30
0.0
 40
2.0
100
AcDbArc
 50
36.869898
 51
90.0
  0
LINE
  5
28E
100
AcDbEntity
  8
0
370
    -3
390
0
  6
Continuous
100
AcDbLine
 10
-831.285297
 20
-514.814018
 30
0.0
 11
-831.285297
 21
-206.214018
 31
0.0
  0
LINE
  5
28F
100
AcDbEntity
  8
0
370
    -3
390
0
  6
Continuous
100
AcDbLine
 10
-832.785297
 20
-514.014018
 30
0.0
 11
-832.785297
 21
-207.014018
 31
0.0
  0
ARC
  5
290
100
AcDbEntity
  8
0
370
    -3
390
0
  6
Continuous
100
AcDbCircle
 10
-839.589693
 20
-446.055675
 30
0.0
 40
12.304395
100
AcDbArc
 50
334.478825
 51
0.0
  0
ARC
  5
291
100
AcDbEntity
  8
0
370
    -3
390
0
  6
Continuous
100
AcDbCircle
 10
-853.375272
 20
-437.395421
 30
0.0
 40
26.089975
100
AcDbArc
 50
0.0
 51
17.449275
  0
ARC
  5
292
100
AcDbEntity
  8
0
370
    -3
390
0
  6
Continuous
100
AcDbCircle
 10
-825.302636
 20
-442.872867
 30
0.0
 40
9.061615
100
AcDbArc
 50
249.433801
 51
270.0
  0
ARC
  5
293
100
AcDbEntity
  8
0
370
    -3
390
0
  6
Continuous
100
AcDbCircle
 10
-825.302636
 20
-427.149872
 30
0.0
 40
4.0
100
AcDbArc
 50
217.267959
 51
270.0
  0
ELLIPSE
  5
294
100
AcDbEntity
  8
0
370
    -3
390
0
  6
Continuous
100
AcDbEllipse
 10
-820.285297
 20
-437.395421
 30
0.0
 11
7.0
 21
0.0
 31
0.0
210
0.0
220
0.0
230
1.0
 40
0.892221
 41
1.5251991385400627
 42
3.1415926535897931
  0
ELLIPSE
  5
295
100
AcDbEntity
  8
0
370
    -3
390
0
  6
Continuous
100
AcDbEllipse
 10
-820.285297
 20
-446.055675
 30
0.0
 11
7.0
 21
0.0
 31
0.0
210
0.0
220
0.0
230
1.0
 40
0.83983
 41
3.1415926535897931
 42
4.7123889803846897
  0
LINE
  5
296
100
AcDbEntity
  8
0
370
    -3
390
0
  6
Continuous
100
AcDbLine
 10
-828.485885
 20
-451.356958
 30
0.0
 11
-831.285297
 21
-450.010343
 31
0.0
  0
LINE
  5
297
100
AcDbEntity
  8
0
370
    -3
390
0
  6
Continuous
100
AcDbLine
 10
-828.485885
 20
-429.572046
 30
0.0
 11
-831.285297
 21
-425.893026
 31
0.0
  0
LINE
  5
298
100
AcDbEntity
  8
0
370
    -3
390
0
  6
Continuous
100
AcDbLine
 10
-772.285297
 20
-451.934482
 30
0.0
 11
-825.302636
 21
-451.934482
 31
0.0
  0
LINE
  5
299
100
AcDbEntity
  8
0
370
    -3
390
0
  6
Continuous
100
AcDbLine
 10
-772.285297
 20
-425.893026
 30
0.0
 11
-831.285297
 21
-425.893026
 31
0.0
  0
LINE
  5
29A
100
AcDbEntity
  8
0
370
    -3
390
0
  6
Continuous
100
AcDbLine
 10
-827.285297
 20
-437.395421
 30
0.0
 11
-827.285297
 21
-446.055675
 31
0.0
  0
LINE
  5
29B
100
AcDbEntity
  8
0
370
    -3
390
0
  6
Continuous
100
AcDbLine
 10
-772.285297
 20
-431.149872
 30
0.0
 11
-825.302636
 21
-431.149872
 31
0.0
  0
ELLIPSE
  5
29C
100
AcDbEntity
  8
0
370
    -3
390
0
  6
Continuous
100
AcDbEllipse
 10
-813.285297
 20
-443.764018
 30
0.0
 11
5.0
 21
0.0
 31
0.0
210
0.0
220
0.0
230
1.0
 40
0.866
 41
0.0
 42
6.2831853071795862
  0
LINE
  5
29D
100
AcDbEntity
  8
0
370
    -3
390
0
  6
Continuous
100
AcDbLine
 10
-808.285297
 20
-441.264017
 30
0.0
 11
-813.285297
 21
-438.764016
 31
0.0
  0
LINE
  5
29E
100
AcDbEntity
  8
0
370
    -3
390
0
  6
Continuous
100
AcDbLine
 10
-808.285297
 20
-446.26402
 30
0.0
 11
-808.285297
 21
-441.264017
 31
0.0
  0
LINE
  5
29F
100
AcDbEntity
  8
0
370
    -3
390
0
  6
Continuous
100
AcDbLine
 10
-813.285297
 20
-448.764021
 30
0.0
 11
-808.285297
 21
-446.26402
 31
0.0
  0
LINE
  5
2A0
100
AcDbEntity
  8
0
370
    -3
390
0
  6
Continuous
100
AcDbLine
 10
-818.285297
 20
-446.26402
 30
0.0
 11
-813.285297
 21
-448.764021
 31
0.0
  0
LINE
  5
2A1
100
AcDbEntity
  8
0
370
    -3
390
0
  6
Continuous
100
AcDbLine
 10
-818.285297
 20
-441.264017
 30
0.0
 11
-818.285297
 21
-446.26402
 31
0.0
  0
LINE
  5
2A2
100
AcDbEntity
  8
0
370
    -3
390
0
  6
Continuous
100
AcDbLine
 10
-813.285297
 20
-438.764016
 30
0.0
 11
-818.285297
 21
-441.264017
 31
0.0
  0
LINE
  5
2A3
100
AcDbEntity
  8
0
370
    -3
390
0
  6
Continuous
100
AcDbLine
 10
-808.285297
 20
-439.264017
 30
0.0
 11
-813.285297
 21
-436.764016
 31
0.0
  0
LINE
  5
2A4
100
AcDbEntity
  8
0
370
    -3
390
0
  6
Continuous
100
AcDbLine
 10
-808.285297
 20
-444.26402
 30
0.0
 11
-808.285297
 21
-439.264017
 31
0.0
  0
LINE
  5
2A5
100
AcDbEntity
  8
0
370
    -3
390
0
  6
Continuous
100
AcDbLine
 10
-818.285297
 20
-439.264017
 30
0.0
 11
-818.285297
 21
-444.26402
 31
0.0
  0
LINE
  5
2A6
100
AcDbEntity
  8
0
370
    -3
390
0
  6
Continuous
100
AcDbLine
 10
-813.285297
 20
-436.764016
 30
0.0
 11
-818.285297
 21
-439.264017
 31
0.0
  0
LINE
  5
2A7
100
AcDbEntity
  8
0
370
    -3
390
0
  6
CENTER
100
AcDbLine
 10
-806.011795
 20
-443.764018
 30
0.0
 11
-820.5588
 21
-443.764018
 31
0.0
  0
LINE
  5
2A8
100
AcDbEntity
  8
0
370
    -3
390
0
  6
CENTER
100
AcDbLine
 10
-813.285297
 20
-435.170595
 30
0.0
 11
-813.285297
 21
-451.934482
 31
0.0
  0
LINE
  5
2A9
100
AcDbEntity
  8
0
370
    -3
390
0
  6
Continuous
100
AcDbLine
 10
-828.429152
 20
-228.222632
 30
0.0
 11
-831.285297
 21
-233.350117
 31
0.0
  0
ARC
  5
2AA
100
AcDbEntity
  8
0
370
    -3
390
0
  6
Continuous
100
AcDbCircle
 10
-824.934708
 20
-230.169131
 30
0.0
 40
4.0
100
AcDbArc
 50
90.0
 51
150.88103
  0
LINE
  5
2AB
100
AcDbEntity
  8
0
370
    -3
390
0
  6
Continuous
100
AcDbLine
 10
-824.934708
 20
-226.169131
 30
0.0
 11
-815.010341
 21
-226.169131
 31
0.0
  0
LINE
  5
2AC
100
AcDbEntity
  8
0
370
    -3
390
0
  6
Continuous
100
AcDbLine
 10
-831.285297
 20
-233.350117
 30
0.0
 11
-820.253012
 21
-233.350117
 31
0.0
  0
ARC
  5
2AD
100
AcDbEntity
  8
0
370
    -3
390
0
  6
Continuous
100
AcDbCircle
 10
-842.924659
 20
-222.351523
 30
0.0
 40
15.639362
100
AcDbArc
 50
337.950598
 51
0.0
  0
ELLIPSE
  5
2AE
100
AcDbEntity
  8
0
370
    -3
390
0
  6
Continuous
100
AcDbEllipse
 10
-820.285297
 20
-222.351523
 30
0.0
 11
7.0
 21
0.0
 31
0.0
210
0.0
220
0.0
230
1.0
 40
0.545372
 41
3.1415926535897931
 42
4.7123889803846897
  0
ARC
  5
2AF
100
AcDbEntity
  8
0
370
    -3
390
0
  6
Continuous
100
AcDbCircle
 10
-828.95783
 20
-217.351523
 30
0.0
 40
1.672533
100
AcDbArc
 50
0.0
 51
73.610004
  0
ELLIPSE
  5
2B0
100
AcDbEntity
  8
0
370
    -3
390
0
  6
Continuous
100
AcDbEllipse
 10
-820.285297
 20
-217.351523
 30
0.0
 11
7.0
 21
0.0
 31
0.0
210
0.0
220
0.0
230
1.0
 40
0.454628
 41
1.5692108206479691
 42
3.1415926535897931
  0
LINE
  5
2B1
100
AcDbEntity
  8
0
370
    -3
390
0
  6
Continuous
100
AcDbLine
 10
-828.485885
 20
-215.746957
 30
0.0
 11
-831.285297
 21
-219.425977
 31
0.0
  0
LINE
  5
2B2
100
AcDbEntity
  8
0
370
    -3
390
0
  6
Continuous
100
AcDbLine
 10
-827.285297
 20
-222.351523
 30
0.0
 11
-827.285297
 21
-217.351523
 31
0.0
  0
LINE
  5
2B3
100
AcDbEntity
  8
0
370
    -3
390
0
  6
Continuous
100
AcDbLine
 10
-813.285297
 20
-222.671642
 30
0.0
 11
-808.285297
 21
-221.228266
 31
0.0
  0
LINE
  5
2B4
100
AcDbEntity
  8
0
370
    -3
390
0
  6
Continuous
100
AcDbLine
 10
-818.285297
 20
-221.228266
 30
0.0
 11
-813.285297
 21
-222.671642
 31
0.0
  0
LINE
  5
2B5
100
AcDbEntity
  8
0
370
    -3
390
0
  6
Continuous
100
AcDbLine
 10
-810.738859
 20
-214.169131
 30
0.0
 11
-772.285297
 21
-214.169131
 31
0.0
  0
ARC
  5
2B6
100
AcDbEntity
  8
0
370
    -3
390
0
  6
Continuous
100
AcDbCircle
 10
-825.302636
 20
-218.169131
 30
0.0
 40
4.0
100
AcDbArc
 50
90.0
 51
142.732041
  0
LINE
  5
2B7
100
AcDbEntity
  8
0
370
    -3
390
0
  6
Continuous
100
AcDbLine
 10
-825.302636
 20
-214.169131
 30
0.0
 11
-815.831736
 21
-214.169131
 31
0.0
  0
ELLIPSE
  5
2B8
100
AcDbEntity
  8
0
370
    -3
390
0
  6
Continuous
100
AcDbEllipse
 10
-813.285297
 20
-216.320789
 30
0.0
 11
5.0
 21
0.0
 31
0.0
210
0.0
220
0.0
230
1.0
 40
0.501013
 41
0.0
 42
6.2831853071795862
  0
LINE
  5
2B9
100
AcDbEntity
  8
0
370
    -3
390
0
  6
Continuous
100
AcDbLine
 10
-808.285297
 20
-214.877413
 30
0.0
 11
-813.285297
 21
-213.434037
 31
0.0
  0
LINE
  5
2BA
100
AcDbEntity
  8
0
370
    -3
390
0
  6
Continuous
100
AcDbLine
 10
-808.285297
 20
-217.764164
 30
0.0
 11
-808.285297
 21
-214.877413
 31
0.0
  0
LINE
  5
2BB
100
AcDbEntity
  8
0
370
    -3
390
0
  6
Continuous
100
AcDbLine
 10
-813.285297
 20
-219.20754
 30
0.0
 11
-808.285297
 21
-217.764164
 31
0.0
  0
LINE
  5
2BC
100
AcDbEntity
  8
0
370
    -3
390
0
  6
Continuous
100
AcDbLine
 10
-818.285297
 20
-217.764164
 30
0.0
 11
-813.285297
 21
-219.20754
 31
0.0
  0
LINE
  5
2BD
100
AcDbEntity
  8
0
370
    -3
390
0
  6
Continuous
100
AcDbLine
 10
-818.285297
 20
-214.877413
 30
0.0
 11
-818.285297
 21
-217.764164
 31
0.0
  0
LINE
  5
2BE
100
AcDbEntity
  8
0
370
    -3
390
0
  6
Continuous
100
AcDbLine
 10
-813.285297
 20
-213.434037
 30
0.0
 11
-818.285297
 21
-214.877413
 31
0.0
  0
LINE
  5
2BF
100
AcDbEntity
  8
0
370
    -3
390
0
  6
Continuous
100
AcDbLine
 10
-808.285297
 20
-221.228266
 30
0.0
 11
-808.285297
 21
-217.764164
 31
0.0
  0
LINE
  5
2C0
100
AcDbEntity
  8
0
370
    -3
390
0
  6
Continuous
100
AcDbLine
 10
-818.285297
 20
-217.764164
 30
0.0
 11
-818.285297
 21
-221.228266
 31
0.0
  0
LINE
  5
2C1
100
AcDbEntity
  8
0
370
    -3
390
0
  6
CENTER
100
AcDbLine
 10
-813.285297
 20
-210.974999
 30
0.0
 11
-813.285297
 21
-225.522005
 31
0.0
  0
LINE
  5
2C2
100
AcDbEntity
  8
0
370
    -3
390
0
  6
CENTER
100
AcDbLine
 10
-820.5588
 20
-216.320789
 30
0.0
 11
-806.011795
 21
-216.320789
 31
0.0
  0
LINE
  5
2C3
100
AcDbEntity
  8
0
370
    -3
390
0
  6
Continuous
100
AcDbLine
 10
-772.285297
 20
-207.014018
 30
0.0
 11
-772.285297
 21
-225.368266
 31
0.0
  0
ARC
  5
2C4
100
AcDbEntity
  8
0
370
    -3
390
0
  6
Continuous
100
AcDbCircle
 10
-829.785297
 20
-208.014018
 30
0.0
 40
3.0
100
AcDbArc
 50
90.0
 51
143.130102
  0
ARC
  5
2C5
100
AcDbEntity
  8
0
370
    -3
390
0
  6
Continuous
100
AcDbCircle
 10
-833.785297
 20
-205.014018
 30
0.0
 40
2.0
100
AcDbArc
 50
270.0
 51
323.130102
  0
LINE
  5
2C6
100
AcDbEntity
  8
0
370
    -3
390
0
  6
Continuous
100
AcDbLine
 10
-772.285297
 20
-205.014018
 30
0.0
 11
-829.785297
 21
-205.014018
 31
0.0
  0
LINE
  5
2C7
100
AcDbEntity
  8
0
370
    -3
390
0
  6
Continuous
100
AcDbLine
 10
-868.285297
 20
-207.014018
 30
0.0
 11
-833.785297
 21
-207.014018
 31
0.0
  0
LINE
  5
2C8
100
AcDbEntity
  8
0
370
    -3
390
0
  6
Continuous
100
AcDbLine
 10
-772.285297
 20
-225.368266
 30
0.0
 11
-772.285297
 21
-205.014018
 31
0.0
  0
ARC
  5
2C9
100
AcDbEntity
  8
0
370
    -3
390
0
  6
Continuous
100
AcDbCircle
 10
-894.285297
 20
-474.514018
 30
0.0
 40
3.0
100
AcDbArc
 50
180.0
 51
270.0
  0
LINE
  5
2CA
100
AcDbEntity
  8
0
370
    -3
390
0
  6
Continuous
100
AcDbLine
 10
-897.285297
 20
-474.514018
 30
0.0
 11
-897.285297
 21
-360.514018
 31
0.0
  0
LINE
  5
2CB
100
AcDbEntity
  8
0
370
    -3
390
0
  6
Continuous
100
AcDbLine
 10
-897.285297
 20
-246.514018
 30
0.0
 11
-897.285297
 21
-360.514018
 31
0.0
  0
ARC
  5
2CC
100
AcDbEntity
  8
0
370
    -3
390
0
  6
Continuous
100
AcDbCircle
 10
-894.285297
 20
-246.514018
 30
0.0
 40
3.0
100
AcDbArc
 50
90.0
 51
180.0
  0
ARC
  5
2CD
100
AcDbEntity
  8
0
370
    -3
390
0
  6
Continuous
100
AcDbCircle
 10
-874.285297
 20
-211.148865
 30
0.0
 40
3.0
100
AcDbArc
 50
325.0
 51
0.0
  0
ARC
  5
2CE
100
AcDbEntity
  8
0
370
    -3
390
0
  6
Continuous
100
AcDbCircle
 10
-868.285297
 20
-210.014018
 30
0.0
 40
3.0
100
AcDbArc
 50
90.0
 51
180.0
  0
ARC
  5
2CF
100
AcDbEntity
  8
0
370
    -3
390
0
  6
Continuous
100
AcDbCircle
 10
-894.326431
 20
-241.514018
 30
0.0
 40
2.0
100
AcDbArc
 50
270.0
 51
325.0
  0
LINE
  5
2D0
100
AcDbEntity
  8
0
370
    -3
390
0
  6
Continuous
100
AcDbLine
 10
-892.688127
 20
-242.661171
 30
0.0
 11
-871.827841
 21
-212.869594
 31
0.0
  0
LINE
  5
2D1
100
AcDbEntity
  8
0
370
    -3
390
0
  6
CENTER
100
AcDbLine
 10
-594.285297
 20
-178.714018
 30
0.0
 11
-654.285297
 21
-178.714018
 31
0.0
  0
CIRCLE
  5
2D2
100
AcDbEntity
  8
0
370
    -3
390
0
  6
Continuous
100
AcDbCircle
 10
-624.285297
 20
-178.714018
 30
0.0
 40
15.0
  0
ARC
  5
2D3
100
AcDbEntity
  8
0
370
    -3
390
0
  6
Continuous
100
AcDbCircle
 10
-624.285297
 20
-178.714018
 30
0.0
 40
25.0
100
AcDbArc
 50
306.476004
 51
233.523996
  0
ARC
  5
2D4
100
AcDbEntity
  8
0
370
    -3
390
0
  6
Continuous
100
AcDbCircle
 10
-605.856229
 20
-203.641302
 30
0.0
 40
6.0
100
AcDbArc
 50
126.476004
 51
185.0
  0
ARC
  5
2D5
100
AcDbEntity
  8
0
370
    -3
390
0
  6
Continuous
100
AcDbCircle
 10
-642.714365
 20
-203.641302
 30
0.0
 40
6.0
100
AcDbArc
 50
355.0
 51
53.523996
  0
ARC
  5
2D6
100
AcDbEntity
  8
0
370
    -3
390
0
  6
Continuous
100
AcDbCircle
 10
-613.855557
 20
-197.114018
 30
0.0
 40
1.4
100
AcDbArc
 50
5.0
 51
90.0
  0
ARC
  5
2D7
100
AcDbEntity
  8
0
370
    -3
390
0
  6
Continuous
100
AcDbCircle
 10
-634.715033
 20
-197.114018
 30
0.0
 40
1.4
100
AcDbArc
 50
90.0
 51
175.0
  0
LINE
  5
2D8
100
AcDbEntity
  8
0
370
    -3
390
0
  6
Continuous
100
AcDbLine
 10
-613.595065
 20
-195.738466
 30
0.0
 11
-624.285297
 21
-193.714018
 31
0.0
  0
LINE
  5
2D9
100
AcDbEntity
  8
0
370
    -3
390
0
  6
Continuous
100
AcDbLine
 10
-634.975529
 20
-195.738466
 30
0.0
 11
-624.285297
 21
-193.714018
 31
0.0
  0
LINE
  5
2DA
100
AcDbEntity
  8
0
370
    -3
390
0
  6
Continuous
100
AcDbLine
 10
-636.785297
 20
-204.714018
 30
0.0
 11
-611.785297
 21
-204.714018
 31
0.0
  0
LINE
  5
2DB
100
AcDbEntity
  8
0
370
    -3
390
0
  6
Continuous
100
AcDbLine
 10
-634.715033
 20
-195.714018
 30
0.0
 11
-613.855557
 21
-195.714018
 31
0.0
  0
LINE
  5
2DC
100
AcDbEntity
  8
0
370
    -3
390
0
  6
Continuous
100
AcDbLine
 10
-612.460885
 20
-196.992002
 30
0.0
 11
-611.785297
 21
-204.714018
 31
0.0
  0
LINE
  5
2DD
100
AcDbEntity
  8
0
370
    -3
390
0
  6
Continuous
100
AcDbLine
 10
-636.109705
 20
-196.992002
 30
0.0
 11
-636.785297
 21
-204.714018
 31
0.0
  0
LINE
  5
2DE
100
AcDbEntity
  8
0
370
    -3
390
0
  6
Continuous
100
AcDbLine
 10
-606.885297
 20
-204.714018
 30
0.0
 11
-641.685297
 21
-204.714018
 31
0.0
  0
ARC
  5
2DF
100
AcDbEntity
  8
0
370
    -3
390
0
  6
Continuous
100
AcDbCircle
 10
-641.685297
 20
-205.314018
 30
0.0
 40
0.6
100
AcDbArc
 50
90.0
 51
180.0
  0
ARC
  5
2E0
100
AcDbEntity
  8
0
370
    -3
390
0
  6
Continuous
100
AcDbCircle
 10
-606.885297
 20
-205.314018
 30
0.0
 40
0.6
100
AcDbArc
 50
0.0
 51
90.0
  0
POINT
  5
2E1
100
AcDbEntity
  8
0
370
    -3
390
0
  6
Continuous
100
AcDbPoint
 10
-634.95811
 20
-155.412695
 30
0.0
  0
ARC
  5
2E2
100
AcDbEntity
  8
0
370
    -3
390
0
  6
Continuous
100
AcDbCircle
 10
-894.32655
 20
-479.513847
 30
0.0
 40
2.0
100
AcDbArc
 50
35.0
 51
89.527267
  0
LINE
  5
2E3
100
AcDbEntity
  8
0
370
    -3
390
0
  6
Continuous
100
AcDbLine
 10
-871.285297
 20
-210.014018
 30
0.0
 11
-871.285297
 21
-360.514018
 31
0.0
  0
LINE
  5
2E4
100
AcDbEntity
  8
0
370
    -3
390
0
  6
Continuous
100
AcDbLine
 10
-893.285297
 20
-243.221659
 30
0.0
 11
-893.285297
 21
-360.514018
 31
0.0
  0
LINE
  5
2E5
100
AcDbEntity
  8
0
370
    -3
390
0
  6
Continuous
100
AcDbLine
 10
-893.285297
 20
-477.806376
 30
0.0
 11
-893.285297
 21
-360.514018
 31
0.0
  0
LINE
  5
2E6
100
AcDbEntity
  8
0
370
    -3
390
0
  6
Continuous
100
AcDbLine
 10
-606.285297
 20
-210.95293
 30
0.0
 11
-606.285297
 21
-205.314018
 31
0.0
  0
LINE
  5
2E7
100
AcDbEntity
  8
0
370
    -3
390
0
  6
Continuous
100
AcDbLine
 10
-642.285297
 20
-210.95293
 30
0.0
 11
-642.285297
 21
-205.314018
 31
0.0
  0
LINE
  5
2E8
100
AcDbEntity
  8
0
370
    -3
390
0
  6
Continuous
100
AcDbLine
 10
-442.285297
 20
-496.346844
 30
0.0
 11
-442.285297
 21
-360.514018
 31
0.0
  0
LINE
  5
2E9
100
AcDbEntity
  8
0
370
    -3
390
0
  6
Continuous
100
AcDbLine
 10
-442.285297
 20
-360.514018
 30
0.0
 11
-442.285297
 21
-216.081032
 31
0.0
  0
ARC
  5
2EA
100
AcDbEntity
  8
0
370
    -3
390
0
  6
Continuous
100
AcDbCircle
 10
-328.285297
 20
-447.578895
 30
0.0
 40
3.0
100
AcDbArc
 50
180.0
 51
270.0
  0
ARC
  5
2EB
100
AcDbEntity
  8
0
370
    -3
390
0
  6
Continuous
100
AcDbCircle
 10
-328.285297
 20
-273.44914
 30
0.0
 40
3.0
100
AcDbArc
 50
90.0
 51
180.0
  0
ARC
  5
2EC
100
AcDbEntity
  8
0
370
    -3
390
0
  6
Continuous
100
AcDbCircle
 10
-328.285297
 20
-219.471911
 30
0.0
 40
3.0
100
AcDbArc
 50
90.0
 51
180.0
  0
ARC
  5
2ED
100
AcDbEntity
  8
0
370
    -3
390
0
  6
Continuous
100
AcDbCircle
 10
-341.285297
 20
-225.514018
 30
0.0
 40
10.0
100
AcDbArc
 50
270.0
 51
334.112946
  0
LINE
  5
2EE
100
AcDbEntity
  8
0
370
    -3
390
0
  6
Continuous
100
AcDbLine
 10
-312.285297
 20
-439.848804
 30
0.0
 11
-331.285297
 21
-439.848804
 31
0.0
  0
LINE
  5
2EF
100
AcDbEntity
  8
0
370
    -3
390
0
  6
Continuous
100
AcDbLine
 10
-320.616875
 20
-450.578895
 30
0.0
 11
-328.285297
 21
-450.578895
 31
0.0
  0
LINE
  5
2F0
100
AcDbEntity
  8
0
370
    -3
390
0
  6
Continuous
100
AcDbLine
 10
-331.285297
 20
-360.514018
 30
0.0
 11
-331.285297
 21
-455.84483
 31
0.0
  0
LINE
  5
2F1
100
AcDbEntity
  8
0
370
    -3
390
0
  6
Continuous
100
AcDbLine
 10
-315.285297
 20
-400.514018
 30
0.0
 11
-315.285297
 21
-403.919227
 31
0.0
  0
LINE
  5
2F2
100
AcDbEntity
  8
0
370
    -3
390
0
  6
Continuous
100
AcDbLine
 10
-331.285297
 20
-403.919227
 30
0.0
 11
-315.285297
 21
-403.919227
 31
0.0
  0
LINE
  5
2F3
100
AcDbEntity
  8
0
370
    -3
390
0
  6
Continuous
100
AcDbLine
 10
-331.285297
 20
-403.919227
 30
0.0
 11
-331.285297
 21
-341.514018
 31
0.0
  0
ARC
  5
2F4
100
AcDbEntity
  8
0
370
    -3
390
0
  6
Continuous
100
AcDbCircle
 10
-328.285297
 20
-203.175278
 30
0.0
 40
3.0
100
AcDbArc
 50
90.0
 51
180.0
  0
LINE
  5
2F5
100
AcDbEntity
  8
0
370
    -3
390
0
  6
Continuous
100
AcDbLine
 10
-312.285297
 20
-359.993146
 30
0.0
 11
-331.285297
 21
-359.993146
 31
0.0
  0
LINE
  5
2F6
100
AcDbEntity
  8
0
370
    -3
390
0
  6
Continuous
100
AcDbLine
 10
-316.093342
 20
-377.913949
 30
0.0
 11
-331.285297
 21
-377.913949
 31
0.0
  0
LINE
  5
2F7
100
AcDbEntity
  8
0
370
    -3
390
0
  6
Continuous
100
AcDbLine
 10
-331.285297
 20
-390.514018
 30
0.0
 11
-316.285265
 21
-390.514018
 31
0.0
  0
LINE
  5
2F8
100
AcDbEntity
  8
0
370
    -3
390
0
  6
Continuous
100
AcDbLine
 10
-312.285297
 20
-357.507864
 30
0.0
 11
-331.285297
 21
-357.507864
 31
0.0
  0
LINE
  5
2F9
100
AcDbEntity
  8
0
370
    -3
390
0
  6
Continuous
100
AcDbLine
 10
-312.285297
 20
-341.514018
 30
0.0
 11
-331.285297
 21
-341.514018
 31
0.0
  0
LINE
  5
2FA
100
AcDbEntity
  8
0
370
    -3
390
0
  6
Continuous
100
AcDbLine
 10
-312.285297
 20
-281.179231
 30
0.0
 11
-331.285297
 21
-281.179231
 31
0.0
  0
LINE
  5
2FB
100
AcDbEntity
  8
0
370
    -3
390
0
  6
Continuous
100
AcDbLine
 10
-316.285265
 20
-270.44914
 30
0.0
 11
-328.285297
 21
-270.44914
 31
0.0
  0
LINE
  5
2FC
100
AcDbEntity
  8
0
370
    -3
390
0
  6
Continuous
100
AcDbLine
 10
-331.285297
 20
-225.044234
 30
0.0
 11
-312.285297
 21
-225.044234
 31
0.0
  0
LINE
  5
2FD
100
AcDbEntity
  8
0
370
    -3
390
0
  6
Continuous
100
AcDbLine
 10
-312.285297
 20
-216.471911
 30
0.0
 11
-328.285297
 21
-216.471911
 31
0.0
  0
LINE
  5
2FE
100
AcDbEntity
  8
0
370
    -3
390
0
  6
Continuous
100
AcDbLine
 10
-312.285297
 20
-200.175278
 30
0.0
 11
-328.285297
 21
-200.175278
 31
0.0
  0
LINE
  5
2FF
100
AcDbEntity
  8
0
370
    -3
390
0
  6
CENTER
100
AcDbLine
 10
-454.617259
 20
-236.672386
 30
0.0
 11
-410.181627
 21
-236.672386
 31
0.0
  0
ARC
  5
300
100
AcDbEntity
  8
0
370
    -3
390
0
  6
Continuous
100
AcDbCircle
 10
-429.285297
 20
-448.064016
 30
0.0
 40
2.0
100
AcDbArc
 50
270.0
 51
0.0
  0
ARC
  5
301
100
AcDbEntity
  8
0
370
    -3
390
0
  6
Continuous
100
AcDbCircle
 10
-429.285297
 20
-431.485313
 30
0.0
 40
2.0
100
AcDbArc
 50
270.0
 51
0.0
  0
ARC
  5
302
100
AcDbEntity
  8
0
370
    -3
390
0
  6
Continuous
100
AcDbCircle
 10
-429.285297
 20
-492.014018
 30
0.0
 40
2.0
100
AcDbArc
 50
270.0
 51
0.0
  0
ARC
  5
303
100
AcDbEntity
  8
0
370
    -3
390
0
  6
Continuous
100
AcDbCircle
 10
-421.285297
 20
-491.514018
 30
0.0
 40
6.0
100
AcDbArc
 50
90.0
 51
180.0
  0
LINE
  5
304
100
AcDbEntity
  8
0
370
    -3
390
0
  6
Continuous
100
AcDbLine
 10
-427.285297
 20
-495.617361
 30
0.0
 11
-427.285297
 21
-360.514018
 31
0.0
  0
LINE
  5
305
100
AcDbEntity
  8
0
370
    -3
390
0
  6
Continuous
100
AcDbLine
 10
-442.285297
 20
-494.014018
 30
0.0
 11
-429.285297
 21
-494.014018
 31
0.0
  0
LINE
  5
306
100
AcDbEntity
  8
0
370
    -3
390
0
  6
CENTER
100
AcDbLine
 10
-458.074044
 20
-432.014019
 30
0.0
 11
-411.108845
 21
-432.014019
 31
0.0
  0
LINE
  5
307
100
AcDbEntity
  8
0
370
    -3
390
0
  6
Continuous
100
AcDbLine
 10
-442.285297
 20
-450.064016
 30
0.0
 11
-429.285297
 21
-450.064016
 31
0.0
  0
LINE
  5
308
100
AcDbEntity
  8
0
370
    -3
390
0
  6
Continuous
100
AcDbLine
 10
-442.285297
 20
-433.485313
 30
0.0
 11
-429.285297
 21
-433.485313
 31
0.0
  0
LINE
  5
309
100
AcDbEntity
  8
0
370
    -3
390
0
  6
Continuous
100
AcDbLine
 10
-442.285297
 20
-409.350853
 30
0.0
 11
-427.285297
 21
-409.350853
 31
0.0
  0
LINE
  5
30A
100
AcDbEntity
  8
0
370
    -3
390
0
  6
Continuous
100
AcDbLine
 10
-427.285297
 20
-414.122668
 30
0.0
 11
-427.285297
 21
-450.605373
 31
0.0
  0
LINE
  5
30B
100
AcDbEntity
  8
0
370
    -3
390
0
  6
Continuous
100
AcDbLine
 10
-442.285297
 20
-257.563737
 30
0.0
 11
-427.285297
 21
-257.563737
 31
0.0
  0
ARC
  5
30C
100
AcDbEntity
  8
0
370
    -3
390
0
  6
Continuous
100
AcDbCircle
 10
-429.285297
 20
-227.281811
 30
0.0
 40
2.0
100
AcDbArc
 50
0.0
 51
90.0
  0
LINE
  5
30D
100
AcDbEntity
  8
0
370
    -3
390
0
  6
Continuous
100
AcDbLine
 10
-442.285297
 20
-225.281811
 30
0.0
 11
-429.285297
 21
-225.281811
 31
0.0
  0
LINE
  5
30E
100
AcDbEntity
  8
0
370
    -3
390
0
  6
Continuous
100
AcDbLine
 10
-331.285297
 20
-360.514018
 30
0.0
 11
-331.285297
 21
-203.175278
 31
0.0
  0
LINE
  5
30F
100
AcDbEntity
  8
0
370
    -3
390
0
  6
Continuous
100
AcDbLine
 10
-312.285297
 20
-360.514018
 30
0.0
 11
-312.285297
 21
-280.514018
 31
0.0
  0
LINE
  5
310
100
AcDbEntity
  8
0
370
    -3
390
0
  6
CENTER
100
AcDbLine
 10
-347.292935
 20
-219.130003
 30
0.0
 11
-304.511032
 21
-219.130003
 31
0.0
  0
LINE
  5
311
100
AcDbEntity
  8
0
370
    -3
390
0
  6
Continuous
100
AcDbLine
 10
-412.28533
 20
-235.514018
 30
0.0
 11
-341.285297
 21
-235.514018
 31
0.0
  0
ARC
  5
312
100
AcDbEntity
  8
0
370
    -3
390
0
  6
Continuous
100
AcDbCircle
 10
-429.285297
 20
-218.081032
 30
0.0
 40
2.0
100
AcDbArc
 50
0.0
 51
90.0
  0
LINE
  5
313
100
AcDbEntity
  8
0
370
    -3
390
0
  6
Continuous
100
AcDbLine
 10
-427.285297
 20
-360.514018
 30
0.0
 11
-427.285297
 21
-218.081032
 31
0.0
  0
LINE
  5
314
100
AcDbEntity
  8
0
370
    -3
390
0
  6
Continuous
100
AcDbLine
 10
-442.285297
 20
-216.081032
 30
0.0
 11
-429.285297
 21
-216.081032
 31
0.0
  0
LINE
  5
315
100
AcDbEntity
  8
0
370
    -3
390
0
  6
Continuous
100
AcDbLine
 10
-312.285297
 20
-360.514018
 30
0.0
 11
-312.285297
 21
-376.514018
 31
0.0
  0
LINE
  5
316
100
AcDbEntity
  8
0
370
    -3
390
0
  6
Continuous
100
AcDbLine
 10
-427.285297
 20
-436.172387
 30
0.0
 11
-427.285297
 21
-439.672387
 31
0.0
  0
LINE
  5
317
100
AcDbEntity
  8
0
370
    -3
390
0
  6
Continuous
100
AcDbLine
 10
-421.285297
 20
-485.514018
 30
0.0
 11
-391.393027
 21
-485.514018
 31
0.0
  0
LINE
  5
318
100
AcDbEntity
  8
0
370
    -3
390
0
  6
Continuous
100
AcDbLine
 10
-312.285297
 20
-256.514018
 30
0.0
 11
-312.285297
 21
-200.175278
 31
0.0
  0
LINE
  5
319
100
AcDbEntity
  8
0
370
    -3
390
0
  6
Continuous
100
AcDbLine
 10
-312.285297
 20
-400.514018
 30
0.0
 11
-312.285297
 21
-446.466427
 31
0.0
  0
LINE
  5
31A
100
AcDbEntity
  8
0
370
    -3
390
0
  6
CENTER
100
AcDbLine
 10
496.569739
 20
-360.514018
 30
0.0
 11
427.664576
 21
-360.514018
 31
0.0
  0
CIRCLE
  5
31B
100
AcDbEntity
  8
0
370
    -3
390
0
  6
Continuous
100
AcDbCircle
 10
460.414765
 20
-268.514018
 30
0.0
 40
6.0
  0
CIRCLE
  5
31C
100
AcDbEntity
  8
0
370
    -3
390
0
  6
Continuous
100
AcDbCircle
 10
460.414765
 20
-268.514018
 30
0.0
 40
5.0
  0
LINE
  5
31D
100
AcDbEntity
  8
0
370
    -3
390
0
  6
Continuous
100
AcDbLine
 10
475.664765
 20
-103.514018
 30
0.0
 11
460.414765
 21
-103.514018
 31
0.0
  0
LINE
  5
31E
100
AcDbEntity
  8
0
370
    -3
390
0
  6
Continuous
100
AcDbLine
 10
445.164765
 20
-103.514018
 30
0.0
 11
460.414765
 21
-103.514018
 31
0.0
  0
ARC
  5
31F
100
AcDbEntity
  8
0
370
    -3
390
0
  6
Continuous
100
AcDbCircle
 10
469.914765
 20
-108.014018
 30
0.0
 40
1.5
100
AcDbArc
 50
0.0
 51
90.0
  0
ARC
  5
320
100
AcDbEntity
  8
0
370
    -3
390
0
  6
Continuous
100
AcDbCircle
 10
469.914765
 20
-108.014018
 30
0.0
 40
1.5
100
AcDbArc
 50
270.0
 51
0.0
  0
LINE
  5
321
100
AcDbEntity
  8
0
370
    -3
390
0
  6
Continuous
100
AcDbLine
 10
475.664765
 20
-103.514018
 30
0.0
 11
475.664765
 21
-106.514018
 31
0.0
  0
LINE
  5
322
100
AcDbEntity
  8
0
370
    -3
390
0
  6
Continuous
100
AcDbLine
 10
475.664765
 20
-106.514018
 30
0.0
 11
460.414765
 21
-106.514018
 31
0.0
  0
ARC
  5
323
100
AcDbEntity
  8
0
370
    -3
390
0
  6
Continuous
100
AcDbCircle
 10
450.914765
 20
-108.014018
 30
0.0
 40
1.5
100
AcDbArc
 50
90.0
 51
180.0
  0
ARC
  5
324
100
AcDbEntity
  8
0
370
    -3
390
0
  6
Continuous
100
AcDbCircle
 10
450.914765
 20
-108.014018
 30
0.0
 40
1.5
100
AcDbArc
 50
180.0
 51
270.0
  0
LINE
  5
325
100
AcDbEntity
  8
0
370
    -3
390
0
  6
Continuous
100
AcDbLine
 10
445.164765
 20
-103.514018
 30
0.0
 11
445.164765
 21
-106.514018
 31
0.0
  0
LINE
  5
326
100
AcDbEntity
  8
0
370
    -3
390
0
  6
Continuous
100
AcDbLine
 10
445.164765
 20
-106.514018
 30
0.0
 11
460.414765
 21
-106.514018
 31
0.0
  0
LINE
  5
327
100
AcDbEntity
  8
0
370
    -3
390
0
  6
Continuous
100
AcDbLine
 10
474.14651
 20
-101.514018
 30
0.0
 11
468.626899
 21
-101.514018
 31
0.0
  0
LINE
  5
328
100
AcDbEntity
  8
0
370
    -3
390
0
  6
Continuous
100
AcDbLine
 10
464.317719
 20
-101.514018
 30
0.0
 11
460.414765
 21
-101.514018
 31
0.0
  0
LINE
  5
329
100
AcDbEntity
  8
0
370
    -3
390
0
  6
Continuous
100
AcDbLine
 10
475.931431
 20
-91.514018
 30
0.0
 11
475.931431
 21
-101.514018
 31
0.0
  0
LINE
  5
32A
100
AcDbEntity
  8
0
370
    -3
390
0
  6
Continuous
100
AcDbLine
 10
474.14651
 20
-91.514018
 30
0.0
 11
474.14651
 21
-101.514018
 31
0.0
  0
LINE
  5
32B
100
AcDbEntity
  8
0
370
    -3
390
0
  6
Continuous
100
AcDbLine
 10
468.626899
 20
-91.514018
 30
0.0
 11
468.626899
 21
-101.514018
 31
0.0
  0
LINE
  5
32C
100
AcDbEntity
  8
0
370
    -3
390
0
  6
Continuous
100
AcDbLine
 10
464.317719
 20
-91.514018
 30
0.0
 11
464.317719
 21
-101.514018
 31
0.0
  0
LINE
  5
32D
100
AcDbEntity
  8
0
370
    -3
390
0
  6
Continuous
100
AcDbLine
 10
476.414765
 20
-101.514018
 30
0.0
 11
475.931431
 21
-101.514018
 31
0.0
  0
LINE
  5
32E
100
AcDbEntity
  8
0
370
    -3
390
0
  6
Continuous
100
AcDbLine
 10
476.414765
 20
-102.514018
 30
0.0
 11
476.414765
 21
-91.514018
 31
0.0
  0
LINE
  5
32F
100
AcDbEntity
  8
0
370
    -3
390
0
  6
Continuous
100
AcDbLine
 10
473.414765
 20
-89.514018
 30
0.0
 11
474.914765
 21
-91.514018
 31
0.0
  0
LINE
  5
330
100
AcDbEntity
  8
0
370
    -3
390
0
  6
Continuous
100
AcDbLine
 10
476.414765
 20
-102.514018
 30
0.0
 11
460.414765
 21
-102.514018
 31
0.0
  0
LINE
  5
331
100
AcDbEntity
  8
0
370
    -3
390
0
  6
Continuous
100
AcDbLine
 10
476.414765
 20
-102.514018
 30
0.0
 11
476.414765
 21
-91.514018
 31
0.0
  0
LINE
  5
332
100
AcDbEntity
  8
0
370
    -3
390
0
  6
Continuous
100
AcDbLine
 10
473.414765
 20
-89.514018
 30
0.0
 11
474.914765
 21
-91.514018
 31
0.0
  0
LINE
  5
333
100
AcDbEntity
  8
0
370
    -3
390
0
  6
Continuous
100
AcDbLine
 10
476.414765
 20
-91.514018
 30
0.0
 11
460.414765
 21
-91.514018
 31
0.0
  0
LINE
  5
334
100
AcDbEntity
  8
0
370
    -3
390
0
  6
Continuous
100
AcDbLine
 10
473.414765
 20
-89.514018
 30
0.0
 11
460.414765
 21
-89.514018
 31
0.0
  0
LINE
  5
335
100
AcDbEntity
  8
0
370
    -3
390
0
  6
Continuous
100
AcDbLine
 10
473.414765
 20
-103.514018
 30
0.0
 11
473.414765
 21
-102.514018
 31
0.0
  0
LINE
  5
336
100
AcDbEntity
  8
0
370
    -3
390
0
  6
Continuous
100
AcDbLine
 10
446.683019
 20
-101.514018
 30
0.0
 11
452.20263
 21
-101.514018
 31
0.0
  0
LINE
  5
337
100
AcDbEntity
  8
0
370
    -3
390
0
  6
Continuous
100
AcDbLine
 10
456.51181
 20
-101.514018
 30
0.0
 11
460.414765
 21
-101.514018
 31
0.0
  0
LINE
  5
338
100
AcDbEntity
  8
0
370
    -3
390
0
  6
Continuous
100
AcDbLine
 10
444.898098
 20
-91.514018
 30
0.0
 11
444.898098
 21
-101.514018
 31
0.0
  0
LINE
  5
339
100
AcDbEntity
  8
0
370
    -3
390
0
  6
Continuous
100
AcDbLine
 10
446.683019
 20
-91.514018
 30
0.0
 11
446.683019
 21
-101.514018
 31
0.0
  0
LINE
  5
33A
100
AcDbEntity
  8
0
370
    -3
390
0
  6
Continuous
100
AcDbLine
 10
452.20263
 20
-91.514018
 30
0.0
 11
452.20263
 21
-101.514018
 31
0.0
  0
LINE
  5
33B
100
AcDbEntity
  8
0
370
    -3
390
0
  6
Continuous
100
AcDbLine
 10
456.51181
 20
-91.514018
 30
0.0
 11
456.51181
 21
-101.514018
 31
0.0
  0
LINE
  5
33C
100
AcDbEntity
  8
0
370
    -3
390
0
  6
Continuous
100
AcDbLine
 10
444.414765
 20
-101.514018
 30
0.0
 11
444.898098
 21
-101.514018
 31
0.0
  0
LINE
  5
33D
100
AcDbEntity
  8
0
370
    -3
390
0
  6
Continuous
100
AcDbLine
 10
444.414765
 20
-102.514018
 30
0.0
 11
444.414765
 21
-91.514018
 31
0.0
  0
LINE
  5
33E
100
AcDbEntity
  8
0
370
    -3
390
0
  6
Continuous
100
AcDbLine
 10
447.414765
 20
-89.514018
 30
0.0
 11
445.914765
 21
-91.514018
 31
0.0
  0
LINE
  5
33F
100
AcDbEntity
  8
0
370
    -3
390
0
  6
Continuous
100
AcDbLine
 10
444.414765
 20
-102.514018
 30
0.0
 11
460.414765
 21
-102.514018
 31
0.0
  0
LINE
  5
340
100
AcDbEntity
  8
0
370
    -3
390
0
  6
Continuous
100
AcDbLine
 10
444.414765
 20
-102.514018
 30
0.0
 11
444.414765
 21
-91.514018
 31
0.0
  0
LINE
  5
341
100
AcDbEntity
  8
0
370
    -3
390
0
  6
Continuous
100
AcDbLine
 10
447.414765
 20
-89.514018
 30
0.0
 11
445.914765
 21
-91.514018
 31
0.0
  0
LINE
  5
342
100
AcDbEntity
  8
0
370
    -3
390
0
  6
Continuous
100
AcDbLine
 10
444.414765
 20
-91.514018
 30
0.0
 11
460.414765
 21
-91.514018
 31
0.0
  0
LINE
  5
343
100
AcDbEntity
  8
0
370
    -3
390
0
  6
Continuous
100
AcDbLine
 10
447.414765
 20
-89.514018
 30
0.0
 11
460.414765
 21
-89.514018
 31
0.0
  0
LINE
  5
344
100
AcDbEntity
  8
0
370
    -3
390
0
  6
Continuous
100
AcDbLine
 10
447.414765
 20
-103.514018
 30
0.0
 11
447.414765
 21
-102.514018
 31
0.0
  0
CIRCLE
  5
345
100
AcDbEntity
  8
0
370
    -3
390
0
  6
Continuous
100
AcDbCircle
 10
460.414765
 20
-268.514018
 30
0.0
 40
65.0
  0
ARC
  5
346
100
AcDbEntity
  8
0
370
    -3
390
0
  6
Continuous
100
AcDbCircle
 10
626.414765
 20
-243.514018
 30
0.0
 40
6.0
100
AcDbArc
 50
180.0
 51
270.0
  0
ARC
  5
347
100
AcDbEntity
  8
0
370
    -3
390
0
  6
Continuous
100
AcDbCircle
 10
568.414765
 20
-290.514018
 30
0.0
 40
18.0
100
AcDbArc
 50
180.0
 51
270.0
  0
POINT
  5
348
100
AcDbEntity
  8
0
370
    -3
390
0
  6
CENTER
100
AcDbPoint
 10
589.158318
 20
-487.138558
 30
0.0
  0
POINT
  5
349
100
AcDbEntity
  8
0
370
    -3
390
0
  6
CENTER
100
AcDbPoint
 10
602.46572
 20
-500.445959
 30
0.0
  0
ARC
  5
34A
100
AcDbEntity
  8
0
370
    -3
390
0
  6
Continuous
100
AcDbCircle
 10
619.973792
 20
-431.514018
 30
0.0
 40
1.0
100
AcDbArc
 50
90.0
 51
170.31003
  0
ARC
  5
34B
100
AcDbEntity
  8
0
370
    -3
390
0
  6
Continuous
100
AcDbCircle
 10
620.414765
 20
-429.514018
 30
0.0
 40
1.0
100
AcDbArc
 50
270.0
 51
0.0
  0
LINE
  5
34C
100
AcDbEntity
  8
0
370
    -3
390
0
  6
Continuous
100
AcDbLine
 10
620.414765
 20
-430.514018
 30
0.0
 11
619.973792
 21
-430.514018
 31
0.0
  0
LINE
  5
34D
100
AcDbEntity
  8
0
370
    -3
390
0
  6
Continuous
100
AcDbLine
 10
621.414765
 20
-429.514018
 30
0.0
 11
621.414765
 21
-410.514018
 31
0.0
  0
ARC
  5
34E
100
AcDbEntity
  8
0
370
    -3
390
0
  6
Continuous
100
AcDbCircle
 10
621.414765
 20
-389.781967
 30
0.0
 40
1.0
100
AcDbArc
 50
180.0
 51
240.0
  0
ARC
  5
34F
100
AcDbEntity
  8
0
370
    -3
390
0
  6
Continuous
100
AcDbCircle
 10
620.414765
 20
-391.514018
 30
0.0
 40
1.0
100
AcDbArc
 50
0.0
 51
60.0
  0
LINE
  5
350
100
AcDbEntity
  8
0
370
    -3
390
0
  6
Continuous
100
AcDbLine
 10
621.414765
 20
-391.514018
 30
0.0
 11
621.414765
 21
-410.514018
 31
0.0
  0
ARC
  5
351
100
AcDbEntity
  8
0
370
    -3
390
0
  6
Continuous
100
AcDbCircle
 10
582.128926
 20
-525.884887
 30
0.0
 40
6.0
100
AcDbArc
 50
60.0
 51
144.455002
  0
ARC
  5
352
100
AcDbEntity
  8
0
370
    -3
390
0
  6
Continuous
100
AcDbCircle
 10
618.188267
 20
-483.514018
 30
0.0
 40
10.0
100
AcDbArc
 50
210.0
 51
270.0
  0
ARC
  5
353
100
AcDbEntity
  8
0
370
    -3
390
0
  6
Continuous
100
AcDbCircle
 10
624.438369
 20
-474.339512
 30
0.0
 40
20.0
100
AcDbArc
 50
150.096164
 51
210.0
  0
LINE
  5
354
100
AcDbEntity
  8
0
370
    -3
390
0
  6
Continuous
100
AcDbLine
 10
607.117861
 20
-484.339512
 30
0.0
 11
609.528013
 21
-488.514018
 31
0.0
  0
ARC
  5
355
100
AcDbEntity
  8
0
370
    -3
390
0
  6
Continuous
100
AcDbCircle
 10
594.414765
 20
-532.978119
 30
0.0
 40
6.0
100
AcDbArc
 50
0.0
 51
60.0
  0
ARC
  5
356
100
AcDbEntity
  8
0
370
    -3
390
0
  6
Continuous
100
AcDbCircle
 10
558.391854
 20
-528.34609
 30
0.0
 40
20.0
100
AcDbArc
 50
60.0
 51
108.449926
  0
LINE
  5
357
100
AcDbEntity
  8
0
370
    -3
390
0
  6
Continuous
100
AcDbLine
 10
597.414765
 20
-527.781967
 30
0.0
 11
568.391854
 21
-511.025582
 31
0.0
  0
ARC
  5
358
100
AcDbEntity
  8
0
370
    -3
390
0
  6
Continuous
100
AcDbCircle
 10
541.850906
 20
-520.514018
 30
0.0
 40
6.0
100
AcDbArc
 50
20.354406
 51
90.0
  0
ARC
  5
359
100
AcDbEntity
  8
0
370
    -3
390
0
  6
Continuous
100
AcDbCircle
 10
649.473639
 20
-356.514018
 30
0.0
 40
8.0
100
AcDbArc
 50
45.0
 51
90.0
  0
ARC
  5
35A
100
AcDbEntity
  8
0
370
    -3
390
0
  6
Continuous
100
AcDbCircle
 10
656.414765
 20
-363.455143
 30
0.0
 40
8.0
100
AcDbArc
 50
0.0
 51
45.0
  0
LINE
  5
35B
100
AcDbEntity
  8
0
370
    -3
390
0
  6
Continuous
100
AcDbLine
 10
662.071619
 20
-357.798289
 30
0.0
 11
655.130493
 21
-350.857163
 31
0.0
  0
ARC
  5
35C
100
AcDbEntity
  8
0
370
    -3
390
0
  6
Continuous
100
AcDbCircle
 10
628.414765
 20
-356.514018
 30
0.0
 40
8.0
100
AcDbArc
 50
90.0
 51
180.0
  0
LINE
  5
35D
100
AcDbEntity
  8
0
370
    -3
390
0
  6
Continuous
100
AcDbLine
 10
649.473639
 20
-348.514018
 30
0.0
 11
628.414765
 21
-348.514018
 31
0.0
  0
ARC
  5
35E
100
AcDbEntity
  8
0
370
    -3
390
0
  6
Continuous
100
AcDbCircle
 10
470.414765
 20
-174.0418
 30
0.0
 40
5.0
100
AcDbArc
 50
180.0
 51
263.957672
  0
ARC
  5
35F
100
AcDbEntity
  8
0
370
    -3
390
0
  6
Continuous
100
AcDbCircle
 10
470.414765
 20
-117.514018
 30
0.0
 40
5.0
100
AcDbArc
 50
90.0
 51
180.0
  0
LINE
  5
360
100
AcDbEntity
  8
0
370
    -3
390
0
  6
Continuous
100
AcDbLine
 10
465.414765
 20
-117.514018
 30
0.0
 11
465.414765
 21
-174.0418
 31
0.0
  0
ARC
  5
361
100
AcDbEntity
  8
0
370
    -3
390
0
  6
Continuous
100
AcDbCircle
 10
479.787748
 20
-110.514018
 30
0.0
 40
2.0
100
AcDbArc
 50
194.477512
 51
270.0
  0
ARC
  5
362
100
AcDbEntity
  8
0
370
    -3
390
0
  6
Continuous
100
AcDbCircle
 10
479.787748
 20
-110.514018
 30
0.0
 40
2.0
100
AcDbArc
 50
194.477512
 51
270.0
  0
ARC
  5
363
100
AcDbEntity
  8
0
370
    -3
390
0
  6
Continuous
100
AcDbCircle
 10
475.914765
 20
-111.514018
 30
0.0
 40
2.0
100
AcDbArc
 50
14.477512
 51
90.0
  0
LINE
  5
364
100
AcDbEntity
  8
0
370
    -3
390
0
  6
Continuous
100
AcDbLine
 10
475.914765
 20
-109.514018
 30
0.0
 11
460.414765
 21
-109.514018
 31
0.0
  0
ARC
  5
365
100
AcDbEntity
  8
0
370
    -3
390
0
  6
Continuous
100
AcDbCircle
 10
460.414765
 20
-268.514018
 30
0.0
 40
90.0
100
AcDbArc
 50
0.0
 51
90.0
  0
ARC
  5
366
100
AcDbEntity
  8
0
370
    -3
390
0
  6
Continuous
100
AcDbCircle
 10
460.414765
 20
-268.514018
 30
0.0
 40
90.0
100
AcDbArc
 50
0.0
 51
90.0
  0
LINE
  5
367
100
AcDbEntity
  8
0
370
    -3
390
0
  6
Continuous
100
AcDbLine
 10
550.414765
 20
-290.514018
 30
0.0
 11
550.414765
 21
-268.514018
 31
0.0
  0
ARC
  5
368
100
AcDbEntity
  8
0
370
    -3
390
0
  6
Continuous
100
AcDbCircle
 10
612.414765
 20
-316.514018
 30
0.0
 40
8.0
100
AcDbArc
 50
0.0
 51
90.0
  0
LINE
  5
369
100
AcDbEntity
  8
0
370
    -3
390
0
  6
Continuous
100
AcDbLine
 10
612.414765
 20
-308.514018
 30
0.0
 11
568.414765
 21
-308.514018
 31
0.0
  0
ARC
  5
36A
100
AcDbEntity
  8
0
370
    -3
390
0
  6
Continuous
100
AcDbCircle
 10
544.414765
 20
-123.514018
 30
0.0
 40
17.0
100
AcDbArc
 50
7.698325
 51
142.11853
  0
LINE
  5
36B
100
AcDbEntity
  8
0
370
    -3
390
0
  6
Continuous
100
AcDbLine
 10
664.414765
 20
-363.455143
 30
0.0
 11
664.414765
 21
-465.514018
 31
0.0
  0
ARC
  5
36C
100
AcDbEntity
  8
0
370
    -3
390
0
  6
Continuous
100
AcDbCircle
 10
636.414765
 20
-465.514018
 30
0.0
 40
28.0
100
AcDbArc
 50
270.0
 51
0.0
  0
ARC
  5
36D
100
AcDbEntity
  8
0
370
    -3
390
0
  6
Continuous
100
AcDbCircle
 10
597.414765
 20
-532.514018
 30
0.0
 40
3.0
100
AcDbArc
 50
0.0
 51
90.0
  0
LINE
  5
36E
100
AcDbEntity
  8
0
370
    -3
390
0
  6
Continuous
100
AcDbLine
 10
597.414765
 20
-529.514018
 30
0.0
 11
563.414765
 21
-529.514018
 31
0.0
  0
ARC
  5
36F
100
AcDbEntity
  8
0
370
    -3
390
0
  6
Continuous
100
AcDbCircle
 10
563.414765
 20
-512.514018
 30
0.0
 40
17.0
100
AcDbArc
 50
200.354406
 51
324.455002
  0
ARC
  5
370
100
AcDbEntity
  8
0
370
    -3
390
0
  6
Continuous
100
AcDbCircle
 10
547.922831
 20
-529.514018
 30
0.0
 40
6.0
100
AcDbArc
 50
47.657395
 51
90.0
  0
LINE
  5
371
100
AcDbEntity
  8
0
370
    -3
390
0
  6
Continuous
100
AcDbLine
 10
547.922831
 20
-523.514018
 30
0.0
 11
460.414765
 21
-523.514018
 31
0.0
  0
ARC
  5
372
100
AcDbEntity
  8
0
370
    -3
390
0
  6
Continuous
100
AcDbCircle
 10
675.414765
 20
-498.514018
 30
0.0
 40
5.0
100
AcDbArc
 50
0.0
 51
90.0
  0
LINE
  5
373
100
AcDbEntity
  8
0
370
    -3
390
0
  6
Continuous
100
AcDbLine
 10
675.414765
 20
-493.514018
 30
0.0
 11
615.75451
 21
-493.514018
 31
0.0
  0
ARC
  5
374
100
AcDbEntity
  8
0
370
    -3
390
0
  6
Continuous
100
AcDbCircle
 10
615.75451
 20
-498.514018
 30
0.0
 40
5.0
100
AcDbArc
 50
90.0
 51
120.0
  0
LINE
  5
375
100
AcDbEntity
  8
0
370
    -3
390
0
  6
Continuous
100
AcDbLine
 10
613.25451
 20
-494.183891
 30
0.0
 11
602.914765
 21
-500.153546
 31
0.0
  0
ARC
  5
376
100
AcDbEntity
  8
0
370
    -3
390
0
  6
Continuous
100
AcDbCircle
 10
605.414765
 20
-504.483673
 30
0.0
 40
5.0
100
AcDbArc
 50
120.0
 51
180.0
  0
LINE
  5
377
100
AcDbEntity
  8
0
370
    -3
390
0
  6
Continuous
100
AcDbLine
 10
600.414765
 20
-504.483673
 30
0.0
 11
600.414765
 21
-533.514018
 31
0.0
  0
LINE
  5
378
100
AcDbEntity
  8
0
370
    -3
390
0
  6
Continuous
100
AcDbLine
 10
680.414765
 20
-357.656153
 30
0.0
 11
680.414765
 21
-533.514018
 31
0.0
  0
ARC
  5
379
100
AcDbEntity
  8
0
370
    -3
390
0
  6
Continuous
100
AcDbCircle
 10
670.414765
 20
-357.656153
 30
0.0
 40
10.0
100
AcDbArc
 50
0.0
 51
45.0
  0
LINE
  5
37A
100
AcDbEntity
  8
0
370
    -3
390
0
  6
Continuous
100
AcDbLine
 10
677.485832
 20
-350.585085
 30
0.0
 11
652.343697
 21
-325.44295
 31
0.0
  0
ARC
  5
37B
100
AcDbEntity
  8
0
370
    -3
390
0
  6
Continuous
100
AcDbCircle
 10
659.414765
 20
-318.371882
 30
0.0
 40
10.0
100
AcDbArc
 50
180.0
 51
225.0
  0
LINE
  5
37C
100
AcDbEntity
  8
0
370
    -3
390
0
  6
Continuous
100
AcDbLine
 10
649.414765
 20
-255.514018
 30
0.0
 11
649.414765
 21
-318.371882
 31
0.0
  0
ARC
  5
37D
100
AcDbEntity
  8
0
370
    -3
390
0
  6
Continuous
100
AcDbCircle
 10
643.414765
 20
-255.514018
 30
0.0
 40
6.0
100
AcDbArc
 50
0.0
 51
90.0
  0
LINE
  5
37E
100
AcDbEntity
  8
0
370
    -3
390
0
  6
Continuous
100
AcDbLine
 10
643.414765
 20
-249.514018
 30
0.0
 11
626.414765
 21
-249.514018
 31
0.0
  0
ARC
  5
37F
100
AcDbEntity
  8
0
370
    -3
390
0
  6
Continuous
100
AcDbCircle
 10
637.414765
 20
-241.514018
 30
0.0
 40
8.0
100
AcDbArc
 50
180.0
 51
270.0
  0
LINE
  5
380
100
AcDbEntity
  8
0
370
    -3
390
0
  6
Continuous
100
AcDbLine
 10
629.414765
 20
-212.514018
 30
0.0
 11
629.414765
 21
-241.514018
 31
0.0
  0
ARC
  5
381
100
AcDbEntity
  8
0
370
    -3
390
0
  6
Continuous
100
AcDbCircle
 10
520.414765
 20
-212.514018
 30
0.0
 40
109.0
100
AcDbArc
 50
0.0
 51
90.0
  0
LINE
  5
382
100
AcDbEntity
  8
0
370
    -3
390
0
  6
Continuous
100
AcDbLine
 10
520.414765
 20
-103.514018
 30
0.0
 11
475.664765
 21
-103.514018
 31
0.0
  0
LINE
  5
383
100
AcDbEntity
  8
0
370
    -3
390
0
  6
Continuous
100
AcDbLine
 10
574.434002
 20
-514.514018
 30
0.0
 11
460.414765
 21
-514.514018
 31
0.0
  0
ARC
  5
384
100
AcDbEntity
  8
0
370
    -3
390
0
  6
Continuous
100
AcDbCircle
 10
520.414765
 20
-414.514018
 30
0.0
 40
100.0
100
AcDbArc
 50
270.0
 51
0.0
  0
LINE
  5
385
100
AcDbEntity
  8
0
370
    -3
390
0
  6
Continuous
100
AcDbLine
 10
620.414765
 20
-212.514018
 30
0.0
 11
620.414765
 21
-414.514018
 31
0.0
  0
ARC
  5
386
100
AcDbEntity
  8
0
370
    -3
390
0
  6
Continuous
100
AcDbCircle
 10
520.414765
 20
-212.514018
 30
0.0
 40
100.0
100
AcDbArc
 50
0.0
 51
90.0
  0
LINE
  5
387
100
AcDbEntity
  8
0
370
    -3
390
0
  6
Continuous
100
AcDbLine
 10
520.414765
 20
-112.514018
 30
0.0
 11
460.414765
 21
-112.514018
 31
0.0
  0
ARC
  5
388
100
AcDbEntity
  8
0
370
    -3
390
0
  6
Continuous
100
AcDbCircle
 10
450.414765
 20
-174.0418
 30
0.0
 40
5.0
100
AcDbArc
 50
276.042328
 51
0.0
  0
ARC
  5
389
100
AcDbEntity
  8
0
370
    -3
390
0
  6
Continuous
100
AcDbCircle
 10
450.414765
 20
-117.514018
 30
0.0
 40
5.0
100
AcDbArc
 50
0.0
 51
90.0
  0
LINE
  5
38A
100
AcDbEntity
  8
0
370
    -3
390
0
  6
Continuous
100
AcDbLine
 10
455.414765
 20
-117.514018
 30
0.0
 11
455.414765
 21
-174.0418
 31
0.0
  0
ARC
  5
38B
100
AcDbEntity
  8
0
370
    -3
390
0
  6
Continuous
100
AcDbCircle
 10
441.041781
 20
-110.514018
 30
0.0
 40
2.0
100
AcDbArc
 50
270.0
 51
345.522488
  0
ARC
  5
38C
100
AcDbEntity
  8
0
370
    -3
390
0
  6
Continuous
100
AcDbCircle
 10
444.914765
 20
-111.514018
 30
0.0
 40
2.0
100
AcDbArc
 50
90.0
 51
165.522488
  0
LINE
  5
38D
100
AcDbEntity
  8
0
370
    -3
390
0
  6
Continuous
100
AcDbLine
 10
444.914765
 20
-109.514018
 30
0.0
 11
460.414765
 21
-109.514018
 31
0.0
  0
ARC
  5
38E
100
AcDbEntity
  8
0
370
    -3
390
0
  6
Continuous
100
AcDbCircle
 10
376.414765
 20
-123.514018
 30
0.0
 40
17.0
100
AcDbArc
 50
37.88147
 51
172.301675
  0
ARC
  5
38F
100
AcDbEntity
  8
0
370
    -3
390
0
  6
Continuous
100
AcDbCircle
 10
400.414765
 20
-212.514018
 30
0.0
 40
109.0
100
AcDbArc
 50
90.0
 51
180.0
  0
LINE
  5
390
100
AcDbEntity
  8
0
370
    -3
390
0
  6
Continuous
100
AcDbLine
 10
400.414765
 20
-103.514018
 30
0.0
 11
445.164765
 21
-103.514018
 31
0.0
  0
ARC
  5
391
100
AcDbEntity
  8
0
370
    -3
390
0
  6
Continuous
100
AcDbCircle
 10
400.414765
 20
-212.514018
 30
0.0
 40
100.0
100
AcDbArc
 50
90.0
 51
180.0
  0
LINE
  5
392
100
AcDbEntity
  8
0
370
    -3
390
0
  6
Continuous
100
AcDbLine
 10
400.414765
 20
-112.514018
 30
0.0
 11
460.414765
 21
-112.514018
 31
0.0
  0
ARC
  5
393
100
AcDbEntity
  8
0
370
    -3
390
0
  6
Continuous
100
AcDbCircle
 10
294.414765
 20
-243.514018
 30
0.0
 40
6.0
100
AcDbArc
 50
270.0
 51
0.0
  0
ARC
  5
394
100
AcDbEntity
  8
0
370
    -3
390
0
  6
Continuous
100
AcDbCircle
 10
352.414765
 20
-290.514018
 30
0.0
 40
18.0
100
AcDbArc
 50
270.0
 51
0.0
  0
POINT
  5
395
100
AcDbEntity
  8
0
370
    -3
390
0
  6
CENTER
100
AcDbPoint
 10
331.671211
 20
-487.138558
 30
0.0
  0
POINT
  5
396
100
AcDbEntity
  8
0
370
    -3
390
0
  6
CENTER
100
AcDbPoint
 10
318.363809
 20
-500.445959
 30
0.0
  0
ARC
  5
397
100
AcDbEntity
  8
0
370
    -3
390
0
  6
Continuous
100
AcDbCircle
 10
300.855737
 20
-431.514018
 30
0.0
 40
1.0
100
AcDbArc
 50
9.68997
 51
90.0
  0
ARC
  5
398
100
AcDbEntity
  8
0
370
    -3
390
0
  6
Continuous
100
AcDbCircle
 10
300.414765
 20
-429.514018
 30
0.0
 40
1.0
100
AcDbArc
 50
180.0
 51
270.0
  0
LINE
  5
399
100
AcDbEntity
  8
0
370
    -3
390
0
  6
Continuous
100
AcDbLine
 10
300.414765
 20
-430.514018
 30
0.0
 11
300.855737
 21
-430.514018
 31
0.0
  0
LINE
  5
39A
100
AcDbEntity
  8
0
370
    -3
390
0
  6
Continuous
100
AcDbLine
 10
299.414765
 20
-429.514018
 30
0.0
 11
299.414765
 21
-410.514018
 31
0.0
  0
ARC
  5
39B
100
AcDbEntity
  8
0
370
    -3
390
0
  6
Continuous
100
AcDbCircle
 10
299.414765
 20
-389.781967
 30
0.0
 40
1.0
100
AcDbArc
 50
300.0
 51
0.0
  0
ARC
  5
39C
100
AcDbEntity
  8
0
370
    -3
390
0
  6
Continuous
100
AcDbCircle
 10
300.414765
 20
-391.514018
 30
0.0
 40
1.0
100
AcDbArc
 50
120.0
 51
180.0
  0
LINE
  5
39D
100
AcDbEntity
  8
0
370
    -3
390
0
  6
Continuous
100
AcDbLine
 10
299.414765
 20
-391.514018
 30
0.0
 11
299.414765
 21
-410.514018
 31
0.0
  0
ARC
  5
39E
100
AcDbEntity
  8
0
370
    -3
390
0
  6
Continuous
100
AcDbCircle
 10
338.700603
 20
-525.884887
 30
0.0
 40
6.0
100
AcDbArc
 50
35.544998
 51
120.0
  0
ARC
  5
39F
100
AcDbEntity
  8
0
370
    -3
390
0
  6
Continuous
100
AcDbCircle
 10
302.641262
 20
-483.514018
 30
0.0
 40
10.0
100
AcDbArc
 50
270.0
 51
330.0
  0
ARC
  5
3A0
100
AcDbEntity
  8
0
370
    -3
390
0
  6
Continuous
100
AcDbCircle
 10
296.39116
 20
-474.339512
 30
0.0
 40
20.0
100
AcDbArc
 50
330.0
 51
29.903836
  0
LINE
  5
3A1
100
AcDbEntity
  8
0
370
    -3
390
0
  6
Continuous
100
AcDbLine
 10
313.711668
 20
-484.339512
 30
0.0
 11
311.301516
 21
-488.514018
 31
0.0
  0
ARC
  5
3A2
100
AcDbEntity
  8
0
370
    -3
390
0
  6
Continuous
100
AcDbCircle
 10
326.414765
 20
-532.978119
 30
0.0
 40
6.0
100
AcDbArc
 50
120.0
 51
180.0
  0
ARC
  5
3A3
100
AcDbEntity
  8
0
370
    -3
390
0
  6
Continuous
100
AcDbCircle
 10
362.437675
 20
-528.34609
 30
0.0
 40
20.0
100
AcDbArc
 50
71.550074
 51
120.0
  0
LINE
  5
3A4
100
AcDbEntity
  8
0
370
    -3
390
0
  6
Continuous
100
AcDbLine
 10
323.414765
 20
-527.781967
 30
0.0
 11
352.437675
 21
-511.025582
 31
0.0
  0
ARC
  5
3A5
100
AcDbEntity
  8
0
370
    -3
390
0
  6
Continuous
100
AcDbCircle
 10
378.978623
 20
-520.514018
 30
0.0
 40
6.0
100
AcDbArc
 50
90.0
 51
159.645594
  0
ARC
  5
3A6
100
AcDbEntity
  8
0
370
    -3
390
0
  6
Continuous
100
AcDbCircle
 10
271.35589
 20
-356.514018
 30
0.0
 40
8.0
100
AcDbArc
 50
90.0
 51
135.0
  0
ARC
  5
3A7
100
AcDbEntity
  8
0
370
    -3
390
0
  6
Continuous
100
AcDbCircle
 10
264.414765
 20
-363.455143
 30
0.0
 40
8.0
100
AcDbArc
 50
135.0
 51
180.0
  0
LINE
  5
3A8
100
AcDbEntity
  8
0
370
    -3
390
0
  6
Continuous
100
AcDbLine
 10
258.75791
 20
-357.798289
 30
0.0
 11
265.699036
 21
-350.857163
 31
0.0
  0
ARC
  5
3A9
100
AcDbEntity
  8
0
370
    -3
390
0
  6
Continuous
100
AcDbCircle
 10
292.414765
 20
-356.514018
 30
0.0
 40
8.0
100
AcDbArc
 50
0.0
 51
90.0
  0
LINE
  5
3AA
100
AcDbEntity
  8
0
370
    -3
390
0
  6
Continuous
100
AcDbLine
 10
271.35589
 20
-348.514018
 30
0.0
 11
292.414765
 21
-348.514018
 31
0.0
  0
ARC
  5
3AB
100
AcDbEntity
  8
0
370
    -3
390
0
  6
Continuous
100
AcDbCircle
 10
460.414765
 20
-268.514018
 30
0.0
 40
90.0
100
AcDbArc
 50
90.0
 51
180.0
  0
LINE
  5
3AC
100
AcDbEntity
  8
0
370
    -3
390
0
  6
Continuous
100
AcDbLine
 10
370.414765
 20
-290.514018
 30
0.0
 11
370.414765
 21
-268.514018
 31
0.0
  0
ARC
  5
3AD
100
AcDbEntity
  8
0
370
    -3
390
0
  6
Continuous
100
AcDbCircle
 10
308.414765
 20
-316.514018
 30
0.0
 40
8.0
100
AcDbArc
 50
90.0
 51
180.0
  0
LINE
  5
3AE
100
AcDbEntity
  8
0
370
    -3
390
0
  6
Continuous
100
AcDbLine
 10
308.414765
 20
-308.514018
 30
0.0
 11
352.414765
 21
-308.514018
 31
0.0
  0
LINE
  5
3AF
100
AcDbEntity
  8
0
370
    -3
390
0
  6
Continuous
100
AcDbLine
 10
256.414765
 20
-363.455143
 30
0.0
 11
256.414765
 21
-465.514018
 31
0.0
  0
ARC
  5
3B0
100
AcDbEntity
  8
0
370
    -3
390
0
  6
Continuous
100
AcDbCircle
 10
284.414765
 20
-465.514018
 30
0.0
 40
28.0
100
AcDbArc
 50
180.0
 51
270.0
  0
ARC
  5
3B1
100
AcDbEntity
  8
0
370
    -3
390
0
  6
Continuous
100
AcDbCircle
 10
323.414765
 20
-532.514018
 30
0.0
 40
3.0
100
AcDbArc
 50
90.0
 51
180.0
  0
LINE
  5
3B2
100
AcDbEntity
  8
0
370
    -3
390
0
  6
Continuous
100
AcDbLine
 10
323.414765
 20
-529.514018
 30
0.0
 11
357.414765
 21
-529.514018
 31
0.0
  0
ARC
  5
3B3
100
AcDbEntity
  8
0
370
    -3
390
0
  6
Continuous
100
AcDbCircle
 10
357.414765
 20
-512.514018
 30
0.0
 40
17.0
100
AcDbArc
 50
215.544998
 51
339.645594
  0
ARC
  5
3B4
100
AcDbEntity
  8
0
370
    -3
390
0
  6
Continuous
100
AcDbCircle
 10
372.906698
 20
-529.514018
 30
0.0
 40
6.0
100
AcDbArc
 50
90.0
 51
132.342605
  0
LINE
  5
3B5
100
AcDbEntity
  8
0
370
    -3
390
0
  6
Continuous
100
AcDbLine
 10
372.906698
 20
-523.514018
 30
0.0
 11
460.414765
 21
-523.514018
 31
0.0
  0
ARC
  5
3B6
100
AcDbEntity
  8
0
370
    -3
390
0
  6
Continuous
100
AcDbCircle
 10
245.414765
 20
-498.514018
 30
0.0
 40
5.0
100
AcDbArc
 50
90.0
 51
180.0
  0
LINE
  5
3B7
100
AcDbEntity
  8
0
370
    -3
390
0
  6
Continuous
100
AcDbLine
 10
245.414765
 20
-493.514018
 30
0.0
 11
305.075019
 21
-493.514018
 31
0.0
  0
ARC
  5
3B8
100
AcDbEntity
  8
0
370
    -3
390
0
  6
Continuous
100
AcDbCircle
 10
305.075019
 20
-498.514018
 30
0.0
 40
5.0
100
AcDbArc
 50
60.0
 51
90.0
  0
LINE
  5
3B9
100
AcDbEntity
  8
0
370
    -3
390
0
  6
Continuous
100
AcDbLine
 10
307.575019
 20
-494.183891
 30
0.0
 11
317.914765
 21
-500.153546
 31
0.0
  0
ARC
  5
3BA
100
AcDbEntity
  8
0
370
    -3
390
0
  6
Continuous
100
AcDbCircle
 10
315.414765
 20
-504.483673
 30
0.0
 40
5.0
100
AcDbArc
 50
0.0
 51
60.0
  0
LINE
  5
3BB
100
AcDbEntity
  8
0
370
    -3
390
0
  6
Continuous
100
AcDbLine
 10
320.414765
 20
-504.483673
 30
0.0
 11
320.414765
 21
-533.514018
 31
0.0
  0
LINE
  5
3BC
100
AcDbEntity
  8
0
370
    -3
390
0
  6
Continuous
100
AcDbLine
 10
240.414765
 20
-357.656153
 30
0.0
 11
240.414765
 21
-533.514018
 31
0.0
  0
ARC
  5
3BD
100
AcDbEntity
  8
0
370
    -3
390
0
  6
Continuous
100
AcDbCircle
 10
250.414765
 20
-357.656153
 30
0.0
 40
10.0
100
AcDbArc
 50
135.0
 51
180.0
  0
LINE
  5
3BE
100
AcDbEntity
  8
0
370
    -3
390
0
  6
Continuous
100
AcDbLine
 10
243.343697
 20
-350.585085
 30
0.0
 11
268.485832
 21
-325.44295
 31
0.0
  0
ARC
  5
3BF
100
AcDbEntity
  8
0
370
    -3
390
0
  6
Continuous
100
AcDbCircle
 10
261.414765
 20
-318.371882
 30
0.0
 40
10.0
100
AcDbArc
 50
315.0
 51
0.0
  0
LINE
  5
3C0
100
AcDbEntity
  8
0
370
    -3
390
0
  6
Continuous
100
AcDbLine
 10
271.414765
 20
-255.514018
 30
0.0
 11
271.414765
 21
-318.371882
 31
0.0
  0
ARC
  5
3C1
100
AcDbEntity
  8
0
370
    -3
390
0
  6
Continuous
100
AcDbCircle
 10
277.414765
 20
-255.514018
 30
0.0
 40
6.0
100
AcDbArc
 50
90.0
 51
180.0
  0
LINE
  5
3C2
100
AcDbEntity
  8
0
370
    -3
390
0
  6
Continuous
100
AcDbLine
 10
277.414765
 20
-249.514018
 30
0.0
 11
294.414765
 21
-249.514018
 31
0.0
  0
ARC
  5
3C3
100
AcDbEntity
  8
0
370
    -3
390
0
  6
Continuous
100
AcDbCircle
 10
283.414765
 20
-241.514018
 30
0.0
 40
8.0
100
AcDbArc
 50
270.0
 51
0.0
  0
LINE
  5
3C4
100
AcDbEntity
  8
0
370
    -3
390
0
  6
Continuous
100
AcDbLine
 10
291.414765
 20
-212.514018
 30
0.0
 11
291.414765
 21
-241.514018
 31
0.0
  0
LINE
  5
3C5
100
AcDbEntity
  8
0
370
    -3
390
0
  6
Continuous
100
AcDbLine
 10
346.395527
 20
-514.514018
 30
0.0
 11
460.414765
 21
-514.514018
 31
0.0
  0
ARC
  5
3C6
100
AcDbEntity
  8
0
370
    -3
390
0
  6
Continuous
100
AcDbCircle
 10
400.414765
 20
-414.514018
 30
0.0
 40
100.0
100
AcDbArc
 50
180.0
 51
270.0
  0
LINE
  5
3C7
100
AcDbEntity
  8
0
370
    -3
390
0
  6
Continuous
100
AcDbLine
 10
300.414765
 20
-212.514018
 30
0.0
 11
300.414765
 21
-414.514018
 31
0.0
  0
CIRCLE
  5
3C8
100
AcDbEntity
  8
0
370
    -3
390
0
  6
Continuous
100
AcDbCircle
 10
460.414765
 20
-268.514018
 30
0.0
 40
50.0
  0
LINE
  5
3C9
100
AcDbEntity
  8
0
370
    -3
390
0
  6
Continuous
100
AcDbLine
 10
680.414765
 20
-533.514018
 30
0.0
 11
600.414765
 21
-533.514018
 31
0.0
  0
LINE
  5
3CA
100
AcDbEntity
  8
0
370
    -3
390
0
  6
Continuous
100
AcDbLine
 10
240.414765
 20
-533.514018
 30
0.0
 11
320.414765
 21
-533.514018
 31
0.0
  0
LINE
  5
3CB
100
AcDbEntity
  8
0
370
    -3
390
0
  6
CENTER
100
AcDbLine
 10
640.414765
 20
-477.83759
 30
0.0
 11
640.414765
 21
-547.318495
 31
0.0
  0
LINE
  5
3CC
100
AcDbEntity
  8
0
370
    -3
390
0
  6
CENTER
100
AcDbLine
 10
280.414765
 20
-477.83759
 30
0.0
 11
280.414765
 21
-547.318495
 31
0.0
  0
ARC
  5
3CD
100
AcDbEntity
  8
0
370
    -3
390
0
  6
Continuous
100
AcDbCircle
 10
460.414765
 20
-268.514018
 30
0.0
 40
35.0
100
AcDbArc
 50
106.60155
 51
73.39845
  0
LINE
  5
3CE
100
AcDbEntity
  8
0
370
    -3
390
0
  6
CENTER
100
AcDbLine
 10
669.852069
 20
-268.514018
 30
0.0
 11
236.171435
 21
-268.514018
 31
0.0
  0
LINE
  5
3CF
100
AcDbEntity
  8
0
370
    -3
390
0
  6
Continuous
100
AcDbLine
 10
450.414765
 20
-241.014018
 30
0.0
 11
470.414765
 21
-241.014018
 31
0.0
  0
LINE
  5
3D0
100
AcDbEntity
  8
0
370
    -3
390
0
  6
Continuous
100
AcDbLine
 10
450.414765
 20
-229.014018
 30
0.0
 11
470.414765
 21
-229.014018
 31
0.0
  0
LINE
  5
3D1
100
AcDbEntity
  8
0
370
    -3
390
0
  6
Continuous
100
AcDbLine
 10
470.414765
 20
-229.014018
 30
0.0
 11
470.414765
 21
-241.014018
 31
0.0
  0
LINE
  5
3D2
100
AcDbEntity
  8
0
370
    -3
390
0
  6
Continuous
100
AcDbLine
 10
450.414765
 20
-229.014018
 30
0.0
 11
450.414765
 21
-241.014018
 31
0.0
  0
LINE
  5
3D3
100
AcDbEntity
  8
0
370
    -3
390
0
  6
Continuous
100
AcDbLine
 10
271.414765
 20
-276.29895
 30
0.0
 11
196.758114
 21
-368.492236
 31
0.0
  0
LINE
  5
3D4
100
AcDbEntity
  8
0
370
    -3
390
0
  6
Continuous
100
AcDbLine
 10
271.414765
 20
-282.655013
 30
0.0
 11
197.083955
 21
-374.445918
 31
0.0
  0
POINT
  5
3D5
100
AcDbEntity
  8
0
370
    -3
390
0
  6
Continuous
100
AcDbPoint
 10
222.590343
 20
-255.387755
 30
0.0
  0
POINT
  5
3D6
100
AcDbEntity
  8
0
370
    -3
390
0
  6
Continuous
100
AcDbPoint
 10
238.50518
 20
-223.407811
 30
0.0
  0
LINE
  5
3D7
100
AcDbEntity
  8
0
370
    -3
390
0
  6
Continuous
100
AcDbLine
 10
246.786632
 20
-225.626819
 30
0.0
 11
291.414765
 21
-237.584891
 31
0.0
  0
ARC
  5
3D8
100
AcDbEntity
  8
0
370
    -3
390
0
  6
Continuous
100
AcDbCircle
 10
489.682317
 20
-368.356235
 30
0.0
 40
290.0
100
AcDbArc
 50
151.738799
 51
178.382238
  0
ARC
  5
3D9
100
AcDbEntity
  8
0
370
    -3
390
0
  6
Continuous
100
AcDbCircle
 10
243.939622
 20
-236.252003
 30
0.0
 40
11.0
100
AcDbArc
 50
75.0
 51
122.846106
  0
ARC
  5
3DA
100
AcDbEntity
  8
0
370
    -3
390
0
  6
Continuous
100
AcDbCircle
 10
243.939622
 20
-236.252003
 30
0.0
 40
11.0
100
AcDbArc
 50
122.846106
 51
151.738799
  0
POINT
  5
3DB
100
AcDbEntity
  8
0
370
    -3
390
0
  6
Continuous
100
AcDbPoint
 10
193.975372
 20
-371.928636
 30
0.0
  0
LINE
  5
3DC
100
AcDbEntity
  8
0
370
    -3
390
0
  6
CENTER
100
AcDbLine
 10
244.603551
 20
-355.713847
 30
0.0
 11
235.189596
 21
-390.847207
 31
0.0
  0
LINE
  5
3DD
100
AcDbEntity
  8
0
370
    -3
390
0
  6
Continuous
100
AcDbLine
 10
194.752518
 20
-372.557957
 30
0.0
 11
194.997709
 21
-372.756509
 31
0.0
  0
ARC
  5
3DE
100
AcDbEntity
  8
0
370
    -3
390
0
  6
Continuous
100
AcDbCircle
 10
195.381838
 20
-371.780811
 30
0.0
 40
1.0
100
AcDbArc
 50
141.0
 51
231.0
  0
LINE
  5
3DF
100
AcDbEntity
  8
0
370
    -3
390
0
  6
CENTER
100
AcDbLine
 10
193.320003
 20
-357.243574
 30
0.0
 11
204.00648
 21
-365.897312
 31
0.0
  0
ARC
  5
3E0
100
AcDbEntity
  8
0
370
    -3
390
0
  6
Continuous
100
AcDbCircle
 10
185.803488
 20
-359.773852
 30
0.0
 40
14.0
100
AcDbArc
 50
321.0
 51
358.382238
  0
LINE
  5
3E1
100
AcDbEntity
  8
0
370
    -3
390
0
  6
Continuous
100
AcDbLine
 10
201.638955
 20
-368.820962
 30
0.0
 11
240.414765
 21
-379.210909
 31
0.0
  0
LINE
  5
3E2
100
AcDbEntity
  8
0
370
    -3
390
0
  6
Continuous
100
AcDbLine
 10
196.758114
 20
-368.492236
 30
0.0
 11
194.604692
 21
-371.15149
 31
0.0
  0
LINE
  5
3E3
100
AcDbEntity
  8
0
370
    -3
390
0
  6
Continuous
100
AcDbLine
 10
194.997709
 20
-372.756509
 30
0.0
 11
197.083955
 21
-374.445918
 31
0.0
  0
LINE
  5
3E4
100
AcDbEntity
  8
0
370
    -3
390
0
  6
CENTER
100
AcDbLine
 10
200.856323
 20
-290.96554
 30
0.0
 11
338.567344
 21
-327.865102
 31
0.0
  0
LINE
  5
3E5
100
AcDbEntity
  8
0
370
    -3
390
0
  6
CENTER
100
AcDbLine
 10
460.414765
 20
-81.23393
 30
0.0
 11
460.414765
 21
-537.183538
 31
0.0
  0
LINE
  5
3E6
100
AcDbEntity
  8
0
370
    -3
390
0
  6
CENTER
100
AcDbLine
 10
-624.285297
 20
-148.714018
 30
0.0
 11
-624.285297
 21
-224.33477
 31
0.0
  0
LINE
  5
3E7
100
AcDbEntity
  8
0
370
    -3
390
0
  6
Continuous
100
AcDbLine
 10
-772.285297
 20
-516.014018
 30
0.0
 11
-829.785297
 21
-516.014018
 31
0.0
  0
ARC
  5
3E8
100
AcDbEntity
  8
0
370
    -3
390
0
  6
Continuous
100
AcDbCircle
 10
-774.285297
 20
-417.562489
 30
0.0
 40
2.0
100
AcDbArc
 50
0.0
 51
90.0
  0
ARC
  5
3E9
100
AcDbEntity
  8
0
370
    -3
390
0
  6
Continuous
100
AcDbCircle
 10
-774.285297
 20
-413.562489
 30
0.0
 40
2.0
100
AcDbArc
 50
180.0
 51
270.0
  0
LINE
  5
3EA
100
AcDbEntity
  8
0
370
    -3
390
0
  6
Continuous
100
AcDbLine
 10
-776.285297
 20
-387.924473
 30
0.0
 11
-776.285297
 21
-413.562489
 31
0.0
  0
LINE
  5
3EB
100
AcDbEntity
  8
0
370
    -3
390
0
  6
Continuous
100
AcDbLine
 10
-772.285297
 20
-516.014018
 30
0.0
 11
-772.285297
 21
-417.562489
 31
0.0
  0
LINE
  5
3EC
100
AcDbEntity
  8
0
370
    -3
390
0
  6
Continuous
100
AcDbLine
 10
-759.285297
 20
-390.30712
 30
0.0
 11
-776.285297
 21
-388.390178
 31
0.0
  0
LINE
  5
3ED
100
AcDbEntity
  8
0
370
    -3
390
0
  6
Continuous
100
AcDbLine
 10
-759.285297
 20
-392.562926
 30
0.0
 11
-776.285297
 21
-390.645984
 31
0.0
  0
LINE
  5
3EE
100
AcDbEntity
  8
0
370
    -3
390
0
  6
Continuous
100
AcDbLine
 10
-759.285297
 20
-509.297898
 30
0.0
 11
-772.285297
 21
-502.225962
 31
0.0
  0
LINE
  5
3EF
100
AcDbEntity
  8
0
370
    -3
390
0
  6
Continuous
100
AcDbLine
 10
-759.285297
 20
-502.56508
 30
0.0
 11
-772.285297
 21
-495.855294
 31
0.0
  0
LINE
  5
3F0
100
AcDbEntity
  8
0
370
    -3
390
0
  6
Continuous
100
AcDbLine
 10
-759.285297
 20
-501.529854
 30
0.0
 11
-772.285297
 21
-494.820068
 31
0.0
  0
LINE
  5
3F1
100
AcDbEntity
  8
0
370
    -3
390
0
  6
Continuous
100
AcDbLine
 10
-759.285297
 20
-492.9374
 30
0.0
 11
-772.285297
 21
-486.689791
 31
0.0
  0
LINE
  5
3F2
100
AcDbEntity
  8
0
370
    -3
390
0
  6
Continuous
100
AcDbLine
 10
-759.285297
 20
-491.659588
 30
0.0
 11
-772.285297
 21
-485.411979
 31
0.0
  0
LINE
  5
3F3
100
AcDbEntity
  8
0
370
    -3
390
0
  6
Continuous
100
AcDbLine
 10
-489.285297
 20
-210.326365
 30
0.0
 11
-469.785297
 21
-220.936654
 31
0.0
  0
LINE
  5
3F4
100
AcDbEntity
  8
0
370
    -3
390
0
  6
Continuous
100
AcDbLine
 10
-759.285297
 20
-210.326365
 30
0.0
 11
-489.285297
 21
-210.326365
 31
0.0
  0
LINE
  5
3F5
100
AcDbEntity
  8
0
370
    -3
390
0
  6
Continuous
100
AcDbLine
 10
-759.285297
 20
-210.326365
 30
0.0
 11
-772.285297
 21
-217.399891
 31
0.0
  0
LINE
  5
3F6
100
AcDbEntity
  8
0
370
    -3
390
0
  6
Continuous
100
AcDbLine
 10
-350.285297
 20
-206.514017
 30
0.0
 11
-335.890257
 21
-208.54681
 31
0.0
  0
LINE
  5
3F7
100
AcDbEntity
  8
0
370
    -3
390
0
  6
Continuous
100
AcDbLine
 10
-350.285297
 20
-206.514017
 30
0.0
 11
-364.680337
 21
-208.54681
 31
0.0
  0
ARC
  5
3F8
100
AcDbEntity
  8
0
370
    -3
390
0
  6
Continuous
100
AcDbCircle
 10
-364.265446
 20
-211.114017
 30
0.0
 40
2.599999
100
AcDbArc
 50
97.066117
 51
174.999828
  0
LINE
  5
3F9
100
AcDbEntity
  8
0
370
    -3
390
0
  6
Continuous
100
AcDbLine
 10
-367.785303
 20
-221.51398
 30
0.0
 11
-366.855554
 21
-210.887369
 31
0.0
  0
ARC
  5
3FA
100
AcDbEntity
  8
0
370
    -3
390
0
  6
Continuous
100
AcDbCircle
 10
-371.694568
 20
-220.30223
 30
0.0
 40
4.0
100
AcDbArc
 50
354.999792
 51
57.640222
  0
ARC
  5
3FB
100
AcDbEntity
  8
0
370
    -3
390
0
  6
Continuous
100
AcDbCircle
 10
-367.285297
 20
-224.514018
 30
0.0
 40
3.0
100
AcDbArc
 50
90.0
 51
180.0
  0
LINE
  5
3FC
100
AcDbEntity
  8
0
370
    -3
390
0
  6
Continuous
100
AcDbLine
 10
-370.285297
 20
-224.514018
 30
0.0
 11
-370.285297
 21
-232.514018
 31
0.0
  0
ARC
  5
3FD
100
AcDbEntity
  8
0
370
    -3
390
0
  6
Continuous
100
AcDbCircle
 10
-350.285297
 20
-186.514018
 30
0.0
 40
20.0
100
AcDbArc
 50
270.0
 51
90.0
  0
ARC
  5
3FE
100
AcDbEntity
  8
0
370
    -3
390
0
  6
Continuous
100
AcDbCircle
 10
-350.285297
 20
-186.514018
 30
0.0
 40
36.0
100
AcDbArc
 50
337.698558
 51
90.0
  0
LINE
  5
3FF
100
AcDbEntity
  8
0
370
    -3
390
0
  6
CENTER
100
AcDbLine
 10
-350.285297
 20
-147.371414
 30
0.0
 11
-350.285297
 21
-242.459262
 31
0.0
  0
ARC
  5
400
100
AcDbEntity
  8
0
370
    -3
390
0
  6
Continuous
100
AcDbCircle
 10
-350.285297
 20
-186.514018
 30
0.0
 40
20.0
100
AcDbArc
 50
90.0
 51
270.0
  0
ARC
  5
401
100
AcDbEntity
  8
0
370
    -3
390
0
  6
Continuous
100
AcDbCircle
 10
-350.285297
 20
-186.514018
 30
0.0
 40
36.0
100
AcDbArc
 50
90.0
 51
237.640241
  0
LINE
  5
402
100
AcDbEntity
  8
0
370
    -3
390
0
  6
CENTER
100
AcDbLine
 10
-311.670964
 20
-186.514018
 30
0.0
 11
-392.072104
 21
-186.514018
 31
0.0
  0
ARC
  5
403
100
AcDbEntity
  8
0
370
    -3
390
0
  6
Continuous
100
AcDbCircle
 10
-336.305148
 20
-211.114017
 30
0.0
 40
2.599999
100
AcDbArc
 50
39.025497
 51
82.933883
  0
LINE
  5
404
100
AcDbEntity
  8
0
370
    -3
390
0
  6
Continuous
100
AcDbLine
 10
-367.285297
 20
-221.514018
 30
0.0
 11
-346.28526
 21
-221.514018
 31
0.0
  0
ARC
  5
405
100
AcDbEntity
  8
0
370
    -3
390
0
  6
Continuous
100
AcDbCircle
 10
-373.285297
 20
-232.514018
 30
0.0
 40
3.0
100
AcDbArc
 50
270.0
 51
0.0
  0
ARC
  5
406
100
AcDbEntity
  8
0
370
    -3
390
0
  6
Continuous
100
AcDbCircle
 10
-231.785297
 20
363.043363
 30
0.0
 40
17.5
100
AcDbArc
 50
270.0
 51
0.0
  0
ARC
  5
407
100
AcDbEntity
  8
0
370
    -3
390
0
  6
Continuous
100
AcDbCircle
 10
-253.785297
 20
343.543363
 30
0.0
 40
2.0
100
AcDbArc
 50
90.0
 51
180.0
  0
LINE
  5
408
100
AcDbEntity
  8
0
370
    -3
390
0
  6
Continuous
100
AcDbLine
 10
-231.785297
 20
345.543363
 30
0.0
 11
-253.785297
 21
345.543363
 31
0.0
  0
ARC
  5
409
100
AcDbEntity
  8
0
370
    -3
390
0
  6
Continuous
100
AcDbCircle
 10
-253.785297
 20
382.543363
 30
0.0
 40
2.0
100
AcDbArc
 50
180.0
 51
270.0
  0
LINE
  5
40A
100
AcDbEntity
  8
0
370
    -3
390
0
  6
Continuous
100
AcDbLine
 10
-231.785297
 20
380.543363
 30
0.0
 11
-253.785297
 21
380.543363
 31
0.0
  0
CIRCLE
  5
40B
100
AcDbEntity
  8
0
370
    -3
390
0
  6
Continuous
100
AcDbCircle
 10
-231.785297
 20
363.043363
 30
0.0
 40
16.0
  0
ARC
  5
40C
100
AcDbEntity
  8
0
370
    -3
390
0
  6
Continuous
100
AcDbCircle
 10
-231.785297
 20
363.043363
 30
0.0
 40
17.5
100
AcDbArc
 50
0.0
 51
90.0
  0
LINE
  5
40D
100
AcDbEntity
  8
0
370
    -3
390
0
  6
CENTER
100
AcDbLine
 10
-231.785297
 20
342.089713
 30
0.0
 11
-231.785297
 21
384.683129
 31
0.0
  0
LINE
  5
40E
100
AcDbEntity
  8
0
370
    -3
390
0
  6
Continuous
100
AcDbLine
 10
-389.461874
 20
221.279989
 30
0.0
 11
-331.285297
 21
222.159232
 31
0.0
  0
LINE
  5
40F
100
AcDbEntity
  8
0
370
    -3
390
0
  6
Continuous
100
AcDbLine
 10
-271.785297
 20
146.043363
 30
0.0
 11
-271.785297
 21
363.043363
 31
0.0
  0
LINE
  5
410
100
AcDbEntity
  8
0
370
    -3
390
0
  6
Continuous
100
AcDbLine
 10
-294.285297
 20
146.043363
 30
0.0
 11
-294.285297
 21
289.6261
 31
0.0
  0
LINE
  5
411
100
AcDbEntity
  8
0
370
    -3
390
0
  6
Continuous
100
AcDbLine
 10
-296.285297
 20
264.043363
 30
0.0
 11
-296.285297
 21
294.043363
 31
0.0
  0
LINE
  5
412
100
AcDbEntity
  8
0
370
    -3
390
0
  6
Continuous
100
AcDbLine
 10
-294.285297
 20
289.6261
 30
0.0
 11
-290.285297
 21
289.6261
 31
0.0
  0
LINE
  5
413
100
AcDbEntity
  8
0
370
    -3
390
0
  6
Continuous
100
AcDbLine
 10
-294.285297
 20
263.044214
 30
0.0
 11
-290.285297
 21
263.044214
 31
0.0
  0
LINE
  5
414
100
AcDbEntity
  8
0
370
    -3
390
0
  6
Continuous
100
AcDbLine
 10
-294.285297
 20
289.6261
 30
0.0
 11
-294.285297
 21
363.043363
 31
0.0
  0
LINE
  5
415
100
AcDbEntity
  8
0
370
    -3
390
0
  6
Continuous
100
AcDbLine
 10
-298.285297
 20
329.356418
 30
0.0
 11
-298.285297
 21
363.043363
 31
0.0
  0
LINE
  5
416
100
AcDbEntity
  8
0
370
    -3
390
0
  6
Continuous
100
AcDbLine
 10
-295.285297
 20
345.543363
 30
0.0
 11
-294.285297
 21
345.543363
 31
0.0
  0
ARC
  5
417
100
AcDbEntity
  8
0
370
    -3
390
0
  6
Continuous
100
AcDbCircle
 10
-295.285297
 20
348.543363
 30
0.0
 40
3.0
100
AcDbArc
 50
180.0
 51
270.0
  0
ARC
  5
418
100
AcDbEntity
  8
0
370
    -3
390
0
  6
Continuous
100
AcDbCircle
 10
-294.285297
 20
264.043363
 30
0.0
 40
2.0
100
AcDbArc
 50
180.0
 51
270.0
  0
ARC
  5
419
100
AcDbEntity
  8
0
370
    -3
390
0
  6
Continuous
100
AcDbCircle
 10
-294.285297
 20
294.043363
 30
0.0
 40
2.0
100
AcDbArc
 50
90.0
 51
180.0
  0
ARC
  5
41A
100
AcDbEntity
  8
0
370
    -3
390
0
  6
Continuous
100
AcDbCircle
 10
-290.285297
 20
291.6261
 30
0.0
 40
2.0
100
AcDbArc
 50
270.0
 51
0.0
  0
ARC
  5
41B
100
AcDbEntity
  8
0
370
    -3
390
0
  6
Continuous
100
AcDbCircle
 10
-290.285297
 20
261.044214
 30
0.0
 40
2.0
100
AcDbArc
 50
0.0
 51
90.0
  0
ARC
  5
41C
100
AcDbEntity
  8
0
370
    -3
390
0
  6
Continuous
100
AcDbCircle
 10
-294.285297
 20
210.043363
 30
0.0
 40
2.0
100
AcDbArc
 50
90.0
 51
180.0
  0
LINE
  5
41D
100
AcDbEntity
  8
0
370
    -3
390
0
  6
Continuous
100
AcDbLine
 10
-294.285297
 20
146.043363
 30
0.0
 11
-271.785297
 21
146.043363
 31
0.0
  0
ARC
  5
41E
100
AcDbEntity
  8
0
370
    -3
390
0
  6
Continuous
100
AcDbCircle
 10
-294.285297
 20
148.043363
 30
0.0
 40
2.0
100
AcDbArc
 50
180.0
 51
270.0
  0
LINE
  5
41F
100
AcDbEntity
  8
0
370
    -3
390
0
  6
Continuous
100
AcDbLine
 10
-300.285297
 20
327.356418
 30
0.0
 11
-294.285297
 21
327.356418
 31
0.0
  0
ARC
  5
420
100
AcDbEntity
  8
0
370
    -3
390
0
  6
Continuous
100
AcDbCircle
 10
-300.285297
 20
329.356418
 30
0.0
 40
2.0
100
AcDbArc
 50
270.0
 51
0.0
  0
ARC
  5
421
100
AcDbEntity
  8
0
370
    -3
390
0
  6
Continuous
100
AcDbCircle
 10
-296.285297
 20
238.168819
 30
0.0
 40
2.0
100
AcDbArc
 50
0.0
 51
19.43891
  0
LINE
  5
422
100
AcDbEntity
  8
0
370
    -3
390
0
  6
Continuous
100
AcDbLine
 10
-312.285297
 20
245.124734
 30
0.0
 11
-296.619274
 21
245.124734
 31
0.0
  0
LINE
  5
423
100
AcDbEntity
  8
0
370
    -3
390
0
  6
Continuous
100
AcDbLine
 10
-312.285297
 20
231.197151
 30
0.0
 11
-294.285297
 21
231.197151
 31
0.0
  0
LINE
  5
424
100
AcDbEntity
  8
0
370
    -3
390
0
  6
Continuous
100
AcDbLine
 10
-288.285297
 20
197.043363
 30
0.0
 11
-288.285297
 21
363.043363
 31
0.0
  0
ARC
  5
425
100
AcDbEntity
  8
0
370
    -3
390
0
  6
Continuous
100
AcDbCircle
 10
-291.285297
 20
197.043363
 30
0.0
 40
3.0
100
AcDbArc
 50
270.0
 51
0.0
  0
LINE
  5
426
100
AcDbEntity
  8
0
370
    -3
390
0
  6
Continuous
100
AcDbLine
 10
-291.285297
 20
194.043363
 30
0.0
 11
-294.285297
 21
194.043363
 31
0.0
  0
LINE
  5
427
100
AcDbEntity
  8
0
370
    -3
390
0
  6
Continuous
100
AcDbLine
 10
-304.354777
 20
267.043363
 30
0.0
 11
-294.399303
 21
238.834423
 31
0.0
  0
LINE
  5
428
100
AcDbEntity
  8
0
370
    -3
390
0
  6
CENTER
100
AcDbLine
 10
-281.562544
 20
279.043363
 30
0.0
 11
-322.550895
 21
279.043363
 31
0.0
  0
LINE
  5
429
100
AcDbEntity
  8
0
370
    -3
390
0
  6
CENTER
100
AcDbLine
 10
-281.807983
 20
193.043363
 30
0.0
 11
-323.287213
 21
193.043363
 31
0.0
  0
LINE
  5
42A
100
AcDbEntity
  8
0
370
    -3
390
0
  6
CENTER
100
AcDbLine
 10
-282.0443
 20
163.043363
 30
0.0
 11
-322.787213
 21
163.043363
 31
0.0
  0
LINE
  5
42B
100
AcDbEntity
  8
0
370
    -3
390
0
  6
Continuous
100
AcDbLine
 10
-312.285297
 20
205.043363
 30
0.0
 11
-312.285297
 21
267.043363
 31
0.0
  0
LINE
  5
42C
100
AcDbEntity
  8
0
370
    -3
390
0
  6
Continuous
100
AcDbLine
 10
-296.285297
 20
210.043363
 30
0.0
 11
-296.285297
 21
148.043363
 31
0.0
  0
ARC
  5
42D
100
AcDbEntity
  8
0
370
    -3
390
0
  6
Continuous
100
AcDbCircle
 10
-294.285297
 20
176.043363
 30
0.0
 40
2.0
100
AcDbArc
 50
180.0
 51
270.0
  0
LINE
  5
42E
100
AcDbEntity
  8
0
370
    -3
390
0
  6
Continuous
100
AcDbLine
 10
-271.785297
 20
580.043363
 30
0.0
 11
-271.785297
 21
363.043363
 31
0.0
  0
LINE
  5
42F
100
AcDbEntity
  8
0
370
    -3
390
0
  6
Continuous
100
AcDbLine
 10
-294.285297
 20
580.043363
 30
0.0
 11
-294.285297
 21
436.460625
 31
0.0
  0
LINE
  5
430
100
AcDbEntity
  8
0
370
    -3
390
0
  6
Continuous
100
AcDbLine
 10
-296.285297
 20
462.043363
 30
0.0
 11
-296.285297
 21
432.043363
 31
0.0
  0
LINE
  5
431
100
AcDbEntity
  8
0
370
    -3
390
0
  6
Continuous
100
AcDbLine
 10
-294.285297
 20
436.460625
 30
0.0
 11
-290.285297
 21
436.460625
 31
0.0
  0
LINE
  5
432
100
AcDbEntity
  8
0
370
    -3
390
0
  6
Continuous
100
AcDbLine
 10
-294.285297
 20
463.042512
 30
0.0
 11
-290.285297
 21
463.042512
 31
0.0
  0
LINE
  5
433
100
AcDbEntity
  8
0
370
    -3
390
0
  6
Continuous
100
AcDbLine
 10
-294.285297
 20
436.460625
 30
0.0
 11
-294.285297
 21
363.043363
 31
0.0
  0
LINE
  5
434
100
AcDbEntity
  8
0
370
    -3
390
0
  6
Continuous
100
AcDbLine
 10
-298.285297
 20
396.730307
 30
0.0
 11
-298.285297
 21
363.043363
 31
0.0
  0
LINE
  5
435
100
AcDbEntity
  8
0
370
    -3
390
0
  6
Continuous
100
AcDbLine
 10
-295.285297
 20
380.543363
 30
0.0
 11
-294.285297
 21
380.543363
 31
0.0
  0
ARC
  5
436
100
AcDbEntity
  8
0
370
    -3
390
0
  6
Continuous
100
AcDbCircle
 10
-295.285297
 20
377.543363
 30
0.0
 40
3.0
100
AcDbArc
 50
90.0
 51
180.0
  0
ARC
  5
437
100
AcDbEntity
  8
0
370
    -3
390
0
  6
Continuous
100
AcDbCircle
 10
-294.285297
 20
462.043363
 30
0.0
 40
2.0
100
AcDbArc
 50
90.0
 51
180.0
  0
ARC
  5
438
100
AcDbEntity
  8
0
370
    -3
390
0
  6
Continuous
100
AcDbCircle
 10
-294.285297
 20
432.043363
 30
0.0
 40
2.0
100
AcDbArc
 50
180.0
 51
270.0
  0
ARC
  5
439
100
AcDbEntity
  8
0
370
    -3
390
0
  6
Continuous
100
AcDbCircle
 10
-290.285297
 20
434.460625
 30
0.0
 40
2.0
100
AcDbArc
 50
0.0
 51
90.0
  0
ARC
  5
43A
100
AcDbEntity
  8
0
370
    -3
390
0
  6
Continuous
100
AcDbCircle
 10
-290.285297
 20
465.042512
 30
0.0
 40
2.0
100
AcDbArc
 50
270.0
 51
0.0
  0
ARC
  5
43B
100
AcDbEntity
  8
0
370
    -3
390
0
  6
Continuous
100
AcDbCircle
 10
-294.285297
 20
516.043363
 30
0.0
 40
2.0
100
AcDbArc
 50
180.0
 51
270.0
  0
LINE
  5
43C
100
AcDbEntity
  8
0
370
    -3
390
0
  6
Continuous
100
AcDbLine
 10
-294.285297
 20
580.043363
 30
0.0
 11
-271.785297
 21
580.043363
 31
0.0
  0
ARC
  5
43D
100
AcDbEntity
  8
0
370
    -3
390
0
  6
Continuous
100
AcDbCircle
 10
-294.285297
 20
578.043363
 30
0.0
 40
2.0
100
AcDbArc
 50
90.0
 51
180.0
  0
LINE
  5
43E
100
AcDbEntity
  8
0
370
    -3
390
0
  6
Continuous
100
AcDbLine
 10
-300.285297
 20
398.730307
 30
0.0
 11
-294.285297
 21
398.730307
 31
0.0
  0
ARC
  5
43F
100
AcDbEntity
  8
0
370
    -3
390
0
  6
Continuous
100
AcDbCircle
 10
-300.285297
 20
396.730307
 30
0.0
 40
2.0
100
AcDbArc
 50
0.0
 51
90.0
  0
ARC
  5
440
100
AcDbEntity
  8
0
370
    -3
390
0
  6
Continuous
100
AcDbCircle
 10
-296.285297
 20
487.917906
 30
0.0
 40
2.0
100
AcDbArc
 50
340.56109
 51
0.0
  0
LINE
  5
441
100
AcDbEntity
  8
0
370
    -3
390
0
  6
Continuous
100
AcDbLine
 10
-312.285297
 20
480.961991
 30
0.0
 11
-296.619274
 21
480.961991
 31
0.0
  0
LINE
  5
442
100
AcDbEntity
  8
0
370
    -3
390
0
  6
Continuous
100
AcDbLine
 10
-312.285297
 20
494.889574
 30
0.0
 11
-294.285297
 21
494.889574
 31
0.0
  0
LINE
  5
443
100
AcDbEntity
  8
0
370
    -3
390
0
  6
Continuous
100
AcDbLine
 10
-288.285297
 20
529.043363
 30
0.0
 11
-288.285297
 21
363.043363
 31
0.0
  0
ARC
  5
444
100
AcDbEntity
  8
0
370
    -3
390
0
  6
Continuous
100
AcDbCircle
 10
-291.285297
 20
529.043363
 30
0.0
 40
3.0
100
AcDbArc
 50
0.0
 51
90.0
  0
LINE
  5
445
100
AcDbEntity
  8
0
370
    -3
390
0
  6
Continuous
100
AcDbLine
 10
-291.285297
 20
532.043363
 30
0.0
 11
-294.285297
 21
532.043363
 31
0.0
  0
LINE
  5
446
100
AcDbEntity
  8
0
370
    -3
390
0
  6
Continuous
100
AcDbLine
 10
-304.354777
 20
459.043363
 30
0.0
 11
-294.399303
 21
487.252303
 31
0.0
  0
LINE
  5
447
100
AcDbEntity
  8
0
370
    -3
390
0
  6
CENTER
100
AcDbLine
 10
-281.807983
 20
533.043363
 30
0.0
 11
-323.287213
 21
533.043363
 31
0.0
  0
LINE
  5
448
100
AcDbEntity
  8
0
370
    -3
390
0
  6
CENTER
100
AcDbLine
 10
-282.0443
 20
563.043363
 30
0.0
 11
-322.787213
 21
563.043363
 31
0.0
  0
LINE
  5
449
100
AcDbEntity
  8
0
370
    -3
390
0
  6
Continuous
100
AcDbLine
 10
-312.285297
 20
521.043363
 30
0.0
 11
-312.285297
 21
459.043363
 31
0.0
  0
LINE
  5
44A
100
AcDbEntity
  8
0
370
    -3
390
0
  6
Continuous
100
AcDbLine
 10
-296.285297
 20
516.043363
 30
0.0
 11
-296.285297
 21
578.043363
 31
0.0
  0
ARC
  5
44B
100
AcDbEntity
  8
0
370
    -3
390
0
  6
Continuous
100
AcDbCircle
 10
-294.285297
 20
550.043363
 30
0.0
 40
2.0
100
AcDbArc
 50
90.0
 51
180.0
  0
ARC
  5
44C
100
AcDbEntity
  8
0
370
    -3
390
0
  6
Continuous
100
AcDbCircle
 10
-31.285297
 20
363.043363
 30
0.0
 40
10.0
100
AcDbArc
 50
90.0
 51
270.0
  0
LINE
  5
44D
100
AcDbEntity
  8
0
370
    -3
390
0
  6
Continuous
100
AcDbLine
 10
48.714703
 20
353.043363
 30
0.0
 11
-31.285297
 21
353.043363
 31
0.0
  0
LINE
  5
44E
100
AcDbEntity
  8
0
370
    -3
390
0
  6
Continuous
100
AcDbLine
 10
48.714703
 20
373.043363
 30
0.0
 11
-31.285297
 21
373.043363
 31
0.0
  0
LINE
  5
44F
100
AcDbEntity
  8
0
370
    -3
390
0
  6
Continuous
100
AcDbLine
 10
-56.285297
 20
325.543363
 30
0.0
 11
-61.285297
 21
325.543363
 31
0.0
  0
LINE
  5
450
100
AcDbEntity
  8
0
370
    -3
390
0
  6
Continuous
100
AcDbLine
 10
-56.285297
 20
400.543363
 30
0.0
 11
-61.285297
 21
400.543363
 31
0.0
  0
LINE
  5
451
100
AcDbEntity
  8
0
370
    -3
390
0
  6
Continuous
100
AcDbLine
 10
-56.285297
 20
400.543363
 30
0.0
 11
-56.285297
 21
325.543363
 31
0.0
  0
LINE
  5
452
100
AcDbEntity
  8
0
370
    -3
390
0
  6
Continuous
100
AcDbLine
 10
-31.285297
 20
373.043363
 30
0.0
 11
-31.285297
 21
353.043363
 31
0.0
  0
LINE
  5
453
100
AcDbEntity
  8
0
370
    -3
390
0
  6
Continuous
100
AcDbLine
 10
48.714703
 20
328.043363
 30
0.0
 11
-56.285297
 21
328.043363
 31
0.0
  0
LINE
  5
454
100
AcDbEntity
  8
0
370
    -3
390
0
  6
Continuous
100
AcDbLine
 10
48.714703
 20
398.043363
 30
0.0
 11
-56.285297
 21
398.043363
 31
0.0
  0
LINE
  5
455
100
AcDbEntity
  8
0
370
    -3
390
0
  6
CENTER
100
AcDbLine
 10
-441.285297
 20
202.043363
 30
0.0
 11
-441.285297
 21
164.043363
 31
0.0
  0
LINE
  5
456
100
AcDbEntity
  8
0
370
    -3
390
0
  6
CENTER
100
AcDbLine
 10
-460.285297
 20
183.043363
 30
0.0
 11
-422.285297
 21
183.043363
 31
0.0
  0
LINE
  5
457
100
AcDbEntity
  8
0
370
    -3
390
0
  6
CENTER
100
AcDbLine
 10
-91.285297
 20
202.043363
 30
0.0
 11
-91.285297
 21
164.043363
 31
0.0
  0
LINE
  5
458
100
AcDbEntity
  8
0
370
    -3
390
0
  6
CENTER
100
AcDbLine
 10
-110.285297
 20
183.043363
 30
0.0
 11
-72.285297
 21
183.043363
 31
0.0
  0
LINE
  5
459
100
AcDbEntity
  8
0
370
    -3
390
0
  6
CENTER
100
AcDbLine
 10
-91.285297
 20
562.043363
 30
0.0
 11
-91.285297
 21
524.043363
 31
0.0
  0
LINE
  5
45A
100
AcDbEntity
  8
0
370
    -3
390
0
  6
CENTER
100
AcDbLine
 10
-110.285297
 20
543.043363
 30
0.0
 11
-72.285297
 21
543.043363
 31
0.0
  0
LINE
  5
45B
100
AcDbEntity
  8
0
370
    -3
390
0
  6
CENTER
100
AcDbLine
 10
-441.285297
 20
562.043363
 30
0.0
 11
-441.285297
 21
524.043363
 31
0.0
  0
LINE
  5
45C
100
AcDbEntity
  8
0
370
    -3
390
0
  6
CENTER
100
AcDbLine
 10
-460.285297
 20
543.043363
 30
0.0
 11
-422.285297
 21
543.043363
 31
0.0
  0
CIRCLE
  5
45D
100
AcDbEntity
  8
0
370
    -3
390
0
  6
Continuous
100
AcDbCircle
 10
-91.285297
 20
543.043363
 30
0.0
 40
14.0
  0
LINE
  5
45E
100
AcDbEntity
  8
0
370
    -3
390
0
  6
Continuous
100
AcDbLine
 10
-119.785297
 20
562.043363
 30
0.0
 11
-119.785297
 21
555.043363
 31
0.0
  0
ARC
  5
45F
100
AcDbEntity
  8
0
370
    -3
390
0
  6
Continuous
100
AcDbCircle
 10
-124.785297
 20
562.043363
 30
0.0
 40
5.0
100
AcDbArc
 50
0.0
 51
90.0
  0
LINE
  5
460
100
AcDbEntity
  8
0
370
    -3
390
0
  6
Continuous
100
AcDbLine
 10
-124.785297
 20
583.043363
 30
0.0
 11
-124.785297
 21
567.043363
 31
0.0
  0
LINE
  5
461
100
AcDbEntity
  8
0
370
    -3
390
0
  6
Continuous
100
AcDbLine
 10
-124.785297
 20
567.043363
 30
0.0
 11
-164.785297
 21
567.043363
 31
0.0
  0
CIRCLE
  5
462
100
AcDbEntity
  8
0
370
    -3
390
0
  6
Continuous
100
AcDbCircle
 10
-441.285297
 20
543.043363
 30
0.0
 40
14.0
  0
CIRCLE
  5
463
100
AcDbEntity
  8
0
370
    -3
390
0
  6
Continuous
100
AcDbCircle
 10
-91.285297
 20
183.043363
 30
0.0
 40
14.0
  0
LINE
  5
464
100
AcDbEntity
  8
0
370
    -3
390
0
  6
Continuous
100
AcDbLine
 10
-316.285269
 20
159.043363
 30
0.0
 11
-411.285297
 21
159.043363
 31
0.0
  0
ARC
  5
465
100
AcDbEntity
  8
0
370
    -3
390
0
  6
Continuous
100
AcDbCircle
 10
-124.785297
 20
164.043363
 30
0.0
 40
5.0
100
AcDbArc
 50
270.0
 51
0.0
  0
ARC
  5
466
100
AcDbEntity
  8
0
370
    -3
390
0
  6
Continuous
100
AcDbCircle
 10
-411.285297
 20
169.043363
 30
0.0
 40
10.0
100
AcDbArc
 50
180.0
 51
270.0
  0
LINE
  5
467
100
AcDbEntity
  8
0
370
    -3
390
0
  6
Continuous
100
AcDbLine
 10
-119.785297
 20
164.043363
 30
0.0
 11
-119.785297
 21
171.043363
 31
0.0
  0
LINE
  5
468
100
AcDbEntity
  8
0
370
    -3
390
0
  6
Continuous
100
AcDbLine
 10
-124.785297
 20
143.043363
 30
0.0
 11
-124.785297
 21
159.043363
 31
0.0
  0
LINE
  5
469
100
AcDbEntity
  8
0
370
    -3
390
0
  6
Continuous
100
AcDbLine
 10
-124.785297
 20
159.043363
 30
0.0
 11
-164.785297
 21
159.043363
 31
0.0
  0
LINE
  5
46A
100
AcDbEntity
  8
0
370
    -3
390
0
  6
Continuous
100
AcDbLine
 10
-79.285297
 20
453.043363
 30
0.0
 11
-99.285297
 21
453.043363
 31
0.0
  0
LINE
  5
46B
100
AcDbEntity
  8
0
370
    -3
390
0
  6
Continuous
100
AcDbLine
 10
-63.285297
 20
428.043363
 30
0.0
 11
-68.285297
 21
428.043363
 31
0.0
  0
ARC
  5
46C
100
AcDbEntity
  8
0
370
    -3
390
0
  6
Continuous
100
AcDbCircle
 10
-68.285297
 20
431.043363
 30
0.0
 40
3.0
100
AcDbArc
 50
180.0
 51
270.0
  0
ARC
  5
46D
100
AcDbEntity
  8
0
370
    -3
390
0
  6
Continuous
100
AcDbCircle
 10
-79.285297
 20
445.043363
 30
0.0
 40
8.0
100
AcDbArc
 50
0.0
 51
90.0
  0
ARC
  5
46E
100
AcDbEntity
  8
0
370
    -3
390
0
  6
Continuous
100
AcDbCircle
 10
-99.285297
 20
461.043363
 30
0.0
 40
8.0
100
AcDbArc
 50
180.0
 51
270.0
  0
LINE
  5
46F
100
AcDbEntity
  8
0
370
    -3
390
0
  6
Continuous
100
AcDbLine
 10
-81.285297
 20
368.043363
 30
0.0
 11
-102.285297
 21
368.043363
 31
0.0
  0
ARC
  5
470
100
AcDbEntity
  8
0
370
    -3
390
0
  6
Continuous
100
AcDbCircle
 10
-81.285297
 20
373.043363
 30
0.0
 40
5.0
100
AcDbArc
 50
270.0
 51
0.0
  0
ARC
  5
471
100
AcDbEntity
  8
0
370
    -3
390
0
  6
Continuous
100
AcDbCircle
 10
-102.285297
 20
373.043363
 30
0.0
 40
5.0
100
AcDbArc
 50
180.0
 51
270.0
  0
ARC
  5
472
100
AcDbEntity
  8
0
370
    -3
390
0
  6
Continuous
100
AcDbCircle
 10
-106.285297
 20
488.043363
 30
0.0
 40
35.0
100
AcDbArc
 50
0.0
 51
90.0
  0
ARC
  5
473
100
AcDbEntity
  8
0
370
    -3
390
0
  6
Continuous
100
AcDbCircle
 10
-115.285297
 20
515.043363
 30
0.0
 40
8.0
100
AcDbArc
 50
0.0
 51
90.0
  0
LINE
  5
474
100
AcDbEntity
  8
0
370
    -3
390
0
  6
Continuous
100
AcDbLine
 10
-127.827003
 20
523.043363
 30
0.0
 11
-106.285297
 21
523.043363
 31
0.0
  0
ARC
  5
475
100
AcDbEntity
  8
0
370
    -3
390
0
  6
Continuous
100
AcDbCircle
 10
-63.285297
 20
425.043363
 30
0.0
 40
3.0
100
AcDbArc
 50
48.189685
 51
90.0
  0
LINE
  5
476
100
AcDbEntity
  8
0
370
    -3
390
0
  6
Continuous
100
AcDbLine
 10
-61.285297
 20
427.279431
 30
0.0
 11
-61.285297
 21
363.043363
 31
0.0
  0
LINE
  5
477
100
AcDbEntity
  8
0
370
    -3
390
0
  6
Continuous
100
AcDbLine
 10
-71.285297
 20
488.043363
 30
0.0
 11
-71.285297
 21
363.043363
 31
0.0
  0
LINE
  5
478
100
AcDbEntity
  8
0
370
    -3
390
0
  6
Continuous
100
AcDbLine
 10
-76.285297
 20
373.043363
 30
0.0
 11
-76.285297
 21
363.043363
 31
0.0
  0
LINE
  5
479
100
AcDbEntity
  8
0
370
    -3
390
0
  6
Continuous
100
AcDbLine
 10
-107.285297
 20
515.043363
 30
0.0
 11
-107.285297
 21
363.043363
 31
0.0
  0
LINE
  5
47A
100
AcDbEntity
  8
0
370
    -3
390
0
  6
Continuous
100
AcDbLine
 10
-258.785297
 20
532.043363
 30
0.0
 11
-271.785297
 21
532.043363
 31
0.0
  0
ARC
  5
47B
100
AcDbEntity
  8
0
370
    -3
390
0
  6
Continuous
100
AcDbCircle
 10
-258.785297
 20
529.043363
 30
0.0
 40
3.0
100
AcDbArc
 50
0.0
 51
90.0
  0
LINE
  5
47C
100
AcDbEntity
  8
0
370
    -3
390
0
  6
Continuous
100
AcDbLine
 10
-255.785297
 20
529.043363
 30
0.0
 11
-255.785297
 21
526.043363
 31
0.0
  0
LINE
  5
47D
100
AcDbEntity
  8
0
370
    -3
390
0
  6
Continuous
100
AcDbLine
 10
-234.785297
 20
463.890144
 30
0.0
 11
-271.785297
 21
463.890144
 31
0.0
  0
ARC
  5
47E
100
AcDbEntity
  8
0
370
    -3
390
0
  6
Continuous
100
AcDbCircle
 10
-234.785297
 20
460.890144
 30
0.0
 40
3.0
100
AcDbArc
 50
0.0
 51
90.0
  0
LINE
  5
47F
100
AcDbEntity
  8
0
370
    -3
390
0
  6
Continuous
100
AcDbLine
 10
-231.785297
 20
460.890144
 30
0.0
 11
-231.785297
 21
436.625557
 31
0.0
  0
LINE
  5
480
100
AcDbEntity
  8
0
370
    -3
390
0
  6
Continuous
100
AcDbLine
 10
-234.785297
 20
433.625557
 30
0.0
 11
-271.785297
 21
433.625557
 31
0.0
  0
ARC
  5
481
100
AcDbEntity
  8
0
370
    -3
390
0
  6
Continuous
100
AcDbCircle
 10
-234.785297
 20
436.625557
 30
0.0
 40
3.0
100
AcDbArc
 50
270.0
 51
0.0
  0
LINE
  5
482
100
AcDbEntity
  8
0
370
    -3
390
0
  6
Continuous
100
AcDbLine
 10
-255.785297
 20
526.043363
 30
0.0
 11
-255.785297
 21
463.890144
 31
0.0
  0
LINE
  5
483
100
AcDbEntity
  8
0
370
    -3
390
0
  6
Continuous
100
AcDbLine
 10
-255.785297
 20
433.625557
 30
0.0
 11
-255.785297
 21
363.043363
 31
0.0
  0
LINE
  5
484
100
AcDbEntity
  8
0
370
    -3
390
0
  6
Continuous
100
AcDbLine
 10
-271.785297
 20
583.043363
 30
0.0
 11
-271.785297
 21
363.043363
 31
0.0
  0
ARC
  5
485
100
AcDbEntity
  8
0
370
    -3
390
0
  6
Continuous
100
AcDbCircle
 10
-170.785297
 20
577.043363
 30
0.0
 40
6.0
100
AcDbArc
 50
0.0
 51
90.0
  0
ARC
  5
486
100
AcDbEntity
  8
0
370
    -3
390
0
  6
Continuous
100
AcDbCircle
 10
-156.785297
 20
531.043363
 30
0.0
 40
8.0
100
AcDbArc
 50
180.0
 51
270.0
  0
ARC
  5
487
100
AcDbEntity
  8
0
370
    -3
390
0
  6
Continuous
100
AcDbCircle
 10
-252.785297
 20
526.043363
 30
0.0
 40
3.0
100
AcDbArc
 50
180.0
 51
270.0
  0
LINE
  5
488
100
AcDbEntity
  8
0
370
    -3
390
0
  6
Continuous
100
AcDbLine
 10
-127.827003
 20
523.043363
 30
0.0
 11
-252.785297
 21
523.043363
 31
0.0
  0
LINE
  5
489
100
AcDbEntity
  8
0
370
    -3
390
0
  6
Continuous
100
AcDbLine
 10
-167.785297
 20
552.043363
 30
0.0
 11
-271.785297
 21
552.043363
 31
0.0
  0
ARC
  5
48A
100
AcDbEntity
  8
0
370
    -3
390
0
  6
Continuous
100
AcDbCircle
 10
-167.785297
 20
549.043363
 30
0.0
 40
3.0
100
AcDbArc
 50
0.0
 51
90.0
  0
LINE
  5
48B
100
AcDbEntity
  8
0
370
    -3
390
0
  6
Continuous
100
AcDbLine
 10
-164.785297
 20
577.043363
 30
0.0
 11
-164.785297
 21
555.043363
 31
0.0
  0
ARC
  5
48C
100
AcDbEntity
  8
0
370
    -3
390
0
  6
Continuous
100
AcDbCircle
 10
-167.785297
 20
555.043363
 30
0.0
 40
3.0
100
AcDbArc
 50
270.0
 51
0.0
  0
LINE
  5
48D
100
AcDbEntity
  8
0
370
    -3
390
0
  6
Continuous
100
AcDbLine
 10
-164.785297
 20
555.043363
 30
0.0
 11
-164.785297
 21
531.043363
 31
0.0
  0
ARC
  5
48E
100
AcDbEntity
  8
0
370
    -3
390
0
  6
Continuous
100
AcDbCircle
 10
-67.285297
 20
577.043363
 30
0.0
 40
6.0
100
AcDbArc
 50
0.0
 51
90.0
  0
ARC
  5
48F
100
AcDbEntity
  8
0
370
    -3
390
0
  6
Continuous
100
AcDbCircle
 10
-67.285297
 20
509.043363
 30
0.0
 40
6.0
100
AcDbArc
 50
270.0
 51
0.0
  0
ARC
  5
490
100
AcDbEntity
  8
0
370
    -3
390
0
  6
Continuous
100
AcDbCircle
 10
-67.285297
 20
524.383109
 30
0.0
 40
6.0
100
AcDbArc
 50
270.0
 51
0.0
  0
LINE
  5
491
100
AcDbEntity
  8
0
370
    -3
390
0
  6
Continuous
100
AcDbLine
 10
-61.285297
 20
512.383109
 30
0.0
 11
-61.285297
 21
509.043363
 31
0.0
  0
ARC
  5
492
100
AcDbEntity
  8
0
370
    -3
390
0
  6
Continuous
100
AcDbCircle
 10
-67.285297
 20
512.383109
 30
0.0
 40
6.0
100
AcDbArc
 50
0.0
 51
90.0
  0
LINE
  5
493
100
AcDbEntity
  8
0
370
    -3
390
0
  6
Continuous
100
AcDbLine
 10
-61.285297
 20
577.043363
 30
0.0
 11
-61.285297
 21
512.383109
 31
0.0
  0
ARC
  5
494
100
AcDbEntity
  8
0
370
    -3
390
0
  6
Continuous
100
AcDbCircle
 10
-465.285297
 20
577.043363
 30
0.0
 40
6.0
100
AcDbArc
 50
90.0
 51
180.0
  0
LINE
  5
495
100
AcDbEntity
  8
0
370
    -3
390
0
  6
Continuous
100
AcDbLine
 10
-471.285297
 20
577.043363
 30
0.0
 11
-471.285297
 21
527.185498
 31
0.0
  0
ARC
  5
496
100
AcDbEntity
  8
0
370
    -3
390
0
  6
Continuous
100
AcDbCircle
 10
-461.285297
 20
527.185498
 30
0.0
 40
10.0
100
AcDbArc
 50
180.0
 51
210.944903
  0
LINE
  5
497
100
AcDbEntity
  8
0
370
    -3
390
0
  6
Continuous
100
AcDbLine
 10
-67.285297
 20
503.043363
 30
0.0
 11
-74.66252
 21
503.043363
 31
0.0
  0
LINE
  5
498
100
AcDbEntity
  8
0
370
    -3
390
0
  6
Continuous
100
AcDbLine
 10
-67.285297
 20
518.383109
 30
0.0
 11
-88.835374
 21
518.383109
 31
0.0
  0
ARC
  5
499
100
AcDbEntity
  8
0
370
    -3
390
0
  6
Continuous
100
AcDbCircle
 10
-67.285297
 20
213.703617
 30
0.0
 40
6.0
100
AcDbArc
 50
270.0
 51
0.0
  0
ARC
  5
49A
100
AcDbEntity
  8
0
370
    -3
390
0
  6
Continuous
100
AcDbCircle
 10
-67.285297
 20
201.703617
 30
0.0
 40
6.0
100
AcDbArc
 50
0.0
 51
90.0
  0
LINE
  5
49B
100
AcDbEntity
  8
0
370
    -3
390
0
  6
Continuous
100
AcDbLine
 10
-61.285297
 20
213.703617
 30
0.0
 11
-61.285297
 21
217.043363
 31
0.0
  0
LINE
  5
49C
100
AcDbEntity
  8
0
370
    -3
390
0
  6
Continuous
100
AcDbLine
 10
-67.285297
 20
207.703617
 30
0.0
 11
-88.835374
 21
207.703617
 31
0.0
  0
ARC
  5
49D
100
AcDbEntity
  8
0
370
    -3
390
0
  6
Continuous
100
AcDbCircle
 10
-67.285297
 20
217.043363
 30
0.0
 40
6.0
100
AcDbArc
 50
0.0
 51
90.0
  0
ARC
  5
49E
100
AcDbEntity
  8
0
370
    -3
390
0
  6
Continuous
100
AcDbCircle
 10
-67.285297
 20
149.043363
 30
0.0
 40
6.0
100
AcDbArc
 50
270.0
 51
0.0
  0
LINE
  5
49F
100
AcDbEntity
  8
0
370
    -3
390
0
  6
Continuous
100
AcDbLine
 10
-61.285297
 20
149.043363
 30
0.0
 11
-61.285297
 21
213.703617
 31
0.0
  0
LINE
  5
4A0
100
AcDbEntity
  8
0
370
    -3
390
0
  6
Continuous
100
AcDbLine
 10
-67.285297
 20
223.043363
 30
0.0
 11
-74.66252
 21
223.043363
 31
0.0
  0
ARC
  5
4A1
100
AcDbEntity
  8
0
370
    -3
390
0
  6
Continuous
100
AcDbCircle
 10
-167.785297
 20
171.043363
 30
0.0
 40
3.0
100
AcDbArc
 50
0.0
 51
90.0
  0
ARC
  5
4A2
100
AcDbEntity
  8
0
370
    -3
390
0
  6
Continuous
100
AcDbCircle
 10
-167.785297
 20
177.043363
 30
0.0
 40
3.0
100
AcDbArc
 50
270.0
 51
0.0
  0
LINE
  5
4A3
100
AcDbEntity
  8
0
370
    -3
390
0
  6
Continuous
100
AcDbLine
 10
-164.785297
 20
171.043363
 30
0.0
 11
-164.785297
 21
195.043363
 31
0.0
  0
LINE
  5
4A4
100
AcDbEntity
  8
0
370
    -3
390
0
  6
Continuous
100
AcDbLine
 10
-167.785297
 20
174.043363
 30
0.0
 11
-271.785297
 21
174.043363
 31
0.0
  0
ARC
  5
4A5
100
AcDbEntity
  8
0
370
    -3
390
0
  6
Continuous
100
AcDbCircle
 10
-156.785297
 20
195.043363
 30
0.0
 40
8.0
100
AcDbArc
 50
90.0
 51
180.0
  0
ARC
  5
4A6
100
AcDbEntity
  8
0
370
    -3
390
0
  6
Continuous
100
AcDbCircle
 10
-170.785297
 20
149.043363
 30
0.0
 40
6.0
100
AcDbArc
 50
270.0
 51
0.0
  0
LINE
  5
4A7
100
AcDbEntity
  8
0
370
    -3
390
0
  6
Continuous
100
AcDbLine
 10
-164.785297
 20
149.043363
 30
0.0
 11
-164.785297
 21
171.043363
 31
0.0
  0
LINE
  5
4A8
100
AcDbEntity
  8
0
370
    -3
390
0
  6
Continuous
100
AcDbLine
 10
-255.785297
 20
292.461169
 30
0.0
 11
-255.785297
 21
363.043363
 31
0.0
  0
ARC
  5
4A9
100
AcDbEntity
  8
0
370
    -3
390
0
  6
Continuous
100
AcDbCircle
 10
-234.785297
 20
289.461169
 30
0.0
 40
3.0
100
AcDbArc
 50
0.0
 51
90.0
  0
ARC
  5
4AA
100
AcDbEntity
  8
0
370
    -3
390
0
  6
Continuous
100
AcDbCircle
 10
-234.785297
 20
265.196582
 30
0.0
 40
3.0
100
AcDbArc
 50
270.0
 51
0.0
  0
LINE
  5
4AB
100
AcDbEntity
  8
0
370
    -3
390
0
  6
Continuous
100
AcDbLine
 10
-231.785297
 20
265.196582
 30
0.0
 11
-231.785297
 21
289.461169
 31
0.0
  0
LINE
  5
4AC
100
AcDbEntity
  8
0
370
    -3
390
0
  6
Continuous
100
AcDbLine
 10
-234.785297
 20
292.461169
 30
0.0
 11
-271.785297
 21
292.461169
 31
0.0
  0
LINE
  5
4AD
100
AcDbEntity
  8
0
370
    -3
390
0
  6
Continuous
100
AcDbLine
 10
-234.785297
 20
262.196582
 30
0.0
 11
-271.785297
 21
262.196582
 31
0.0
  0
LINE
  5
4AE
100
AcDbEntity
  8
0
370
    -3
390
0
  6
Continuous
100
AcDbLine
 10
-255.785297
 20
200.043363
 30
0.0
 11
-255.785297
 21
262.196582
 31
0.0
  0
ARC
  5
4AF
100
AcDbEntity
  8
0
370
    -3
390
0
  6
Continuous
100
AcDbCircle
 10
-252.785297
 20
200.043363
 30
0.0
 40
3.0
100
AcDbArc
 50
90.0
 51
180.0
  0
ARC
  5
4B0
100
AcDbEntity
  8
0
370
    -3
390
0
  6
Continuous
100
AcDbCircle
 10
-258.785297
 20
197.043363
 30
0.0
 40
3.0
100
AcDbArc
 50
270.0
 51
0.0
  0
LINE
  5
4B1
100
AcDbEntity
  8
0
370
    -3
390
0
  6
Continuous
100
AcDbLine
 10
-258.785297
 20
194.043363
 30
0.0
 11
-271.785297
 21
194.043363
 31
0.0
  0
LINE
  5
4B2
100
AcDbEntity
  8
0
370
    -3
390
0
  6
Continuous
100
AcDbLine
 10
-255.785297
 20
197.043363
 30
0.0
 11
-255.785297
 21
200.043363
 31
0.0
  0
LINE
  5
4B3
100
AcDbEntity
  8
0
370
    -3
390
0
  6
Continuous
100
AcDbLine
 10
-127.827003
 20
203.043363
 30
0.0
 11
-252.785297
 21
203.043363
 31
0.0
  0
LINE
  5
4B4
100
AcDbEntity
  8
0
370
    -3
390
0
  6
Continuous
100
AcDbLine
 10
-271.785297
 20
143.043363
 30
0.0
 11
-271.785297
 21
363.043363
 31
0.0
  0
LINE
  5
4B5
100
AcDbEntity
  8
0
370
    -3
390
0
  6
Continuous
100
AcDbLine
 10
-61.285297
 20
298.807295
 30
0.0
 11
-61.285297
 21
363.043363
 31
0.0
  0
LINE
  5
4B6
100
AcDbEntity
  8
0
370
    -3
390
0
  6
Continuous
100
AcDbLine
 10
-107.285297
 20
211.043363
 30
0.0
 11
-107.285297
 21
363.043363
 31
0.0
  0
LINE
  5
4B7
100
AcDbEntity
  8
0
370
    -3
390
0
  6
Continuous
100
AcDbLine
 10
-79.285297
 20
273.043363
 30
0.0
 11
-99.285297
 21
273.043363
 31
0.0
  0
LINE
  5
4B8
100
AcDbEntity
  8
0
370
    -3
390
0
  6
Continuous
100
AcDbLine
 10
-71.285297
 20
238.043363
 30
0.0
 11
-71.285297
 21
363.043363
 31
0.0
  0
LINE
  5
4B9
100
AcDbEntity
  8
0
370
    -3
390
0
  6
Continuous
100
AcDbLine
 10
-63.285297
 20
298.043363
 30
0.0
 11
-68.285297
 21
298.043363
 31
0.0
  0
ARC
  5
4BA
100
AcDbEntity
  8
0
370
    -3
390
0
  6
Continuous
100
AcDbCircle
 10
-63.285297
 20
301.043363
 30
0.0
 40
3.0
100
AcDbArc
 50
270.0
 51
311.810315
  0
ARC
  5
4BB
100
AcDbEntity
  8
0
370
    -3
390
0
  6
Continuous
100
AcDbCircle
 10
-68.285297
 20
295.043363
 30
0.0
 40
3.0
100
AcDbArc
 50
90.0
 51
180.0
  0
ARC
  5
4BC
100
AcDbEntity
  8
0
370
    -3
390
0
  6
Continuous
100
AcDbCircle
 10
-79.285297
 20
281.043363
 30
0.0
 40
8.0
100
AcDbArc
 50
270.0
 51
0.0
  0
ARC
  5
4BD
100
AcDbEntity
  8
0
370
    -3
390
0
  6
Continuous
100
AcDbCircle
 10
-99.285297
 20
265.043363
 30
0.0
 40
8.0
100
AcDbArc
 50
90.0
 51
180.0
  0
LINE
  5
4BE
100
AcDbEntity
  8
0
370
    -3
390
0
  6
Continuous
100
AcDbLine
 10
-81.285297
 20
358.043363
 30
0.0
 11
-102.285297
 21
358.043363
 31
0.0
  0
LINE
  5
4BF
100
AcDbEntity
  8
0
370
    -3
390
0
  6
Continuous
100
AcDbLine
 10
-76.285297
 20
353.043363
 30
0.0
 11
-76.285297
 21
363.043363
 31
0.0
  0
ARC
  5
4C0
100
AcDbEntity
  8
0
370
    -3
390
0
  6
Continuous
100
AcDbCircle
 10
-81.285297
 20
353.043363
 30
0.0
 40
5.0
100
AcDbArc
 50
0.0
 51
90.0
  0
ARC
  5
4C1
100
AcDbEntity
  8
0
370
    -3
390
0
  6
Continuous
100
AcDbCircle
 10
-102.285297
 20
353.043363
 30
0.0
 40
5.0
100
AcDbArc
 50
90.0
 51
180.0
  0
ARC
  5
4C2
100
AcDbEntity
  8
0
370
    -3
390
0
  6
Continuous
100
AcDbCircle
 10
-106.285297
 20
238.043363
 30
0.0
 40
35.0
100
AcDbArc
 50
270.0
 51
0.0
  0
ARC
  5
4C3
100
AcDbEntity
  8
0
370
    -3
390
0
  6
Continuous
100
AcDbCircle
 10
-115.285297
 20
211.043363
 30
0.0
 40
8.0
100
AcDbArc
 50
270.0
 51
0.0
  0
LINE
  5
4C4
100
AcDbEntity
  8
0
370
    -3
390
0
  6
Continuous
100
AcDbLine
 10
-127.827003
 20
203.043363
 30
0.0
 11
-106.285297
 21
203.043363
 31
0.0
  0
LINE
  5
4C5
100
AcDbEntity
  8
0
370
    -3
390
0
  6
Continuous
100
AcDbLine
 10
-272.285297
 20
146.043363
 30
0.0
 11
-272.285297
 21
363.043363
 31
0.0
  0
LINE
  5
4C6
100
AcDbEntity
  8
0
370
    -3
390
0
  6
Continuous
100
AcDbLine
 10
-272.285297
 20
580.043363
 30
0.0
 11
-272.285297
 21
363.043363
 31
0.0
  0
LINE
  5
4C7
100
AcDbEntity
  8
0
370
    -3
390
0
  6
Continuous
100
AcDbLine
 10
-300.285297
 20
562.82076
 30
0.0
 11
-296.285296
 21
564.276638
 31
0.0
  0
LINE
  5
4C8
100
AcDbEntity
  8
0
370
    -3
390
0
  6
Continuous
100
AcDbLine
 10
-296.285296
 20
563.225403
 30
0.0
 11
-300.285296
 21
561.769526
 31
0.0
  0
LINE
  5
4C9
100
AcDbEntity
  8
0
370
    -3
390
0
  6
Continuous
100
AcDbLine
 10
-315.285282
 20
575.043363
 30
0.0
 11
-315.285282
 21
551.043363
 31
0.0
  0
LINE
  5
4CA
100
AcDbEntity
  8
0
370
    -3
390
0
  6
Continuous
100
AcDbLine
 10
-315.28527
 20
551.043363
 30
0.0
 11
-316.285255
 21
552.775006
 31
0.0
  0
LINE
  5
4CB
100
AcDbEntity
  8
0
370
    -3
390
0
  6
Continuous
100
AcDbLine
 10
-315.285278
 20
575.04336
 30
0.0
 11
-316.285263
 21
573.310938
 31
0.0
  0
LINE
  5
4CC
100
AcDbEntity
  8
0
370
    -3
390
0
  6
Continuous
100
AcDbLine
 10
-296.285297
 20
549.043363
 30
0.0
 11
-300.285297
 21
549.043363
 31
0.0
  0
LINE
  5
4CD
100
AcDbEntity
  8
0
370
    -3
390
0
  6
Continuous
100
AcDbLine
 10
-296.285297
 20
577.043363
 30
0.0
 11
-300.285297
 21
577.043363
 31
0.0
  0
LINE
  5
4CE
100
AcDbEntity
  8
0
370
    -3
390
0
  6
Continuous
100
AcDbLine
 10
-300.285297
 20
551.043363
 30
0.0
 11
-315.285266
 21
551.043363
 31
0.0
  0
LINE
  5
4CF
100
AcDbEntity
  8
0
370
    -3
390
0
  6
Continuous
100
AcDbLine
 10
-300.285297
 20
575.043363
 30
0.0
 11
-315.285282
 21
575.043363
 31
0.0
  0
LINE
  5
4D0
100
AcDbEntity
  8
0
370
    -3
390
0
  6
Continuous
100
AcDbLine
 10
-316.285259
 20
552.775007
 30
0.0
 11
-316.285274
 21
573.310942
 31
0.0
  0
LINE
  5
4D1
100
AcDbEntity
  8
0
370
    -3
390
0
  6
Continuous
100
AcDbLine
 10
-300.285297
 20
549.043363
 30
0.0
 11
-300.285297
 21
577.043363
 31
0.0
  0
LINE
  5
4D2
100
AcDbEntity
  8
0
370
    -3
390
0
  6
Continuous
100
AcDbLine
 10
-296.285297
 20
577.043363
 30
0.0
 11
-296.285297
 21
549.043363
 31
0.0
  0
POINT
  5
4D3
100
AcDbEntity
  8
0
370
    -3
390
0
  6
Continuous
100
AcDbPoint
 10
-296.285297
 20
563.043363
 30
0.0
  0
LINE
  5
4D4
100
AcDbEntity
  8
0
370
    -3
390
0
  6
Continuous
100
AcDbLine
 10
-300.285297
 20
532.82076
 30
0.0
 11
-296.285296
 21
534.276638
 31
0.0
  0
LINE
  5
4D5
100
AcDbEntity
  8
0
370
    -3
390
0
  6
Continuous
100
AcDbLine
 10
-296.285296
 20
533.225403
 30
0.0
 11
-300.285296
 21
531.769526
 31
0.0
  0
LINE
  5
4D6
100
AcDbEntity
  8
0
370
    -3
390
0
  6
Continuous
100
AcDbLine
 10
-315.285282
 20
545.043363
 30
0.0
 11
-315.285282
 21
521.043363
 31
0.0
  0
LINE
  5
4D7
100
AcDbEntity
  8
0
370
    -3
390
0
  6
Continuous
100
AcDbLine
 10
-315.28527
 20
521.043363
 30
0.0
 11
-316.285255
 21
522.775006
 31
0.0
  0
LINE
  5
4D8
100
AcDbEntity
  8
0
370
    -3
390
0
  6
Continuous
100
AcDbLine
 10
-315.285278
 20
545.04336
 30
0.0
 11
-316.285263
 21
543.310938
 31
0.0
  0
LINE
  5
4D9
100
AcDbEntity
  8
0
370
    -3
390
0
  6
Continuous
100
AcDbLine
 10
-296.285297
 20
519.043363
 30
0.0
 11
-300.285297
 21
519.043363
 31
0.0
  0
LINE
  5
4DA
100
AcDbEntity
  8
0
370
    -3
390
0
  6
Continuous
100
AcDbLine
 10
-296.285297
 20
547.043363
 30
0.0
 11
-300.285297
 21
547.043363
 31
0.0
  0
LINE
  5
4DB
100
AcDbEntity
  8
0
370
    -3
390
0
  6
Continuous
100
AcDbLine
 10
-300.285297
 20
521.043363
 30
0.0
 11
-315.285266
 21
521.043363
 31
0.0
  0
LINE
  5
4DC
100
AcDbEntity
  8
0
370
    -3
390
0
  6
Continuous
100
AcDbLine
 10
-300.285297
 20
545.043363
 30
0.0
 11
-315.285282
 21
545.043363
 31
0.0
  0
LINE
  5
4DD
100
AcDbEntity
  8
0
370
    -3
390
0
  6
Continuous
100
AcDbLine
 10
-316.285259
 20
522.775007
 30
0.0
 11
-316.285274
 21
543.310942
 31
0.0
  0
LINE
  5
4DE
100
AcDbEntity
  8
0
370
    -3
390
0
  6
Continuous
100
AcDbLine
 10
-300.285297
 20
519.043363
 30
0.0
 11
-300.285297
 21
547.043363
 31
0.0
  0
LINE
  5
4DF
100
AcDbEntity
  8
0
370
    -3
390
0
  6
Continuous
100
AcDbLine
 10
-296.285297
 20
547.043363
 30
0.0
 11
-296.285297
 21
519.043363
 31
0.0
  0
POINT
  5
4E0
100
AcDbEntity
  8
0
370
    -3
390
0
  6
Continuous
100
AcDbPoint
 10
-296.285297
 20
533.043363
 30
0.0
  0
LINE
  5
4E1
100
AcDbEntity
  8
0
370
    -3
390
0
  6
Continuous
100
AcDbLine
 10
-300.285297
 20
446.82076
 30
0.0
 11
-296.285296
 21
448.276638
 31
0.0
  0
LINE
  5
4E2
100
AcDbEntity
  8
0
370
    -3
390
0
  6
Continuous
100
AcDbLine
 10
-296.285296
 20
447.225403
 30
0.0
 11
-300.285296
 21
445.769526
 31
0.0
  0
LINE
  5
4E3
100
AcDbEntity
  8
0
370
    -3
390
0
  6
Continuous
100
AcDbLine
 10
-315.285282
 20
459.043363
 30
0.0
 11
-315.285282
 21
435.043363
 31
0.0
  0
LINE
  5
4E4
100
AcDbEntity
  8
0
370
    -3
390
0
  6
Continuous
100
AcDbLine
 10
-315.28527
 20
435.043363
 30
0.0
 11
-316.285255
 21
436.775006
 31
0.0
  0
LINE
  5
4E5
100
AcDbEntity
  8
0
370
    -3
390
0
  6
Continuous
100
AcDbLine
 10
-315.285278
 20
459.04336
 30
0.0
 11
-316.285263
 21
457.310938
 31
0.0
  0
LINE
  5
4E6
100
AcDbEntity
  8
0
370
    -3
390
0
  6
Continuous
100
AcDbLine
 10
-296.285297
 20
433.043363
 30
0.0
 11
-300.285297
 21
433.043363
 31
0.0
  0
LINE
  5
4E7
100
AcDbEntity
  8
0
370
    -3
390
0
  6
Continuous
100
AcDbLine
 10
-296.285297
 20
461.043363
 30
0.0
 11
-300.285297
 21
461.043363
 31
0.0
  0
LINE
  5
4E8
100
AcDbEntity
  8
0
370
    -3
390
0
  6
Continuous
100
AcDbLine
 10
-300.285297
 20
435.043363
 30
0.0
 11
-315.285266
 21
435.043363
 31
0.0
  0
LINE
  5
4E9
100
AcDbEntity
  8
0
370
    -3
390
0
  6
Continuous
100
AcDbLine
 10
-300.285297
 20
459.043363
 30
0.0
 11
-315.285282
 21
459.043363
 31
0.0
  0
LINE
  5
4EA
100
AcDbEntity
  8
0
370
    -3
390
0
  6
Continuous
100
AcDbLine
 10
-316.285259
 20
436.775007
 30
0.0
 11
-316.285274
 21
457.310942
 31
0.0
  0
LINE
  5
4EB
100
AcDbEntity
  8
0
370
    -3
390
0
  6
Continuous
100
AcDbLine
 10
-300.285297
 20
433.043363
 30
0.0
 11
-300.285297
 21
461.043363
 31
0.0
  0
LINE
  5
4EC
100
AcDbEntity
  8
0
370
    -3
390
0
  6
Continuous
100
AcDbLine
 10
-296.285297
 20
461.043363
 30
0.0
 11
-296.285297
 21
433.043363
 31
0.0
  0
POINT
  5
4ED
100
AcDbEntity
  8
0
370
    -3
390
0
  6
Continuous
100
AcDbPoint
 10
-296.285297
 20
447.043363
 30
0.0
  0
LINE
  5
4EE
100
AcDbEntity
  8
0
370
    -3
390
0
  6
Continuous
100
AcDbLine
 10
-300.285297
 20
279.265965
 30
0.0
 11
-296.285296
 21
277.810088
 31
0.0
  0
LINE
  5
4EF
100
AcDbEntity
  8
0
370
    -3
390
0
  6
Continuous
100
AcDbLine
 10
-296.285296
 20
278.861322
 30
0.0
 11
-300.285296
 21
280.3172
 31
0.0
  0
LINE
  5
4F0
100
AcDbEntity
  8
0
370
    -3
390
0
  6
Continuous
100
AcDbLine
 10
-315.285282
 20
267.043363
 30
0.0
 11
-315.285282
 21
291.043363
 31
0.0
  0
LINE
  5
4F1
100
AcDbEntity
  8
0
370
    -3
390
0
  6
Continuous
100
AcDbLine
 10
-315.28527
 20
291.043363
 30
0.0
 11
-316.285255
 21
289.311719
 31
0.0
  0
LINE
  5
4F2
100
AcDbEntity
  8
0
370
    -3
390
0
  6
Continuous
100
AcDbLine
 10
-315.285278
 20
267.043365
 30
0.0
 11
-316.285263
 21
268.775787
 31
0.0
  0
LINE
  5
4F3
100
AcDbEntity
  8
0
370
    -3
390
0
  6
Continuous
100
AcDbLine
 10
-296.285297
 20
293.043363
 30
0.0
 11
-300.285297
 21
293.043363
 31
0.0
  0
LINE
  5
4F4
100
AcDbEntity
  8
0
370
    -3
390
0
  6
Continuous
100
AcDbLine
 10
-296.285297
 20
265.043363
 30
0.0
 11
-300.285297
 21
265.043363
 31
0.0
  0
LINE
  5
4F5
100
AcDbEntity
  8
0
370
    -3
390
0
  6
Continuous
100
AcDbLine
 10
-300.285297
 20
291.043363
 30
0.0
 11
-315.285266
 21
291.043363
 31
0.0
  0
LINE
  5
4F6
100
AcDbEntity
  8
0
370
    -3
390
0
  6
Continuous
100
AcDbLine
 10
-300.285297
 20
267.043363
 30
0.0
 11
-315.285282
 21
267.043363
 31
0.0
  0
LINE
  5
4F7
100
AcDbEntity
  8
0
370
    -3
390
0
  6
Continuous
100
AcDbLine
 10
-316.285259
 20
289.311719
 30
0.0
 11
-316.285274
 21
268.775783
 31
0.0
  0
LINE
  5
4F8
100
AcDbEntity
  8
0
370
    -3
390
0
  6
Continuous
100
AcDbLine
 10
-300.285297
 20
293.043363
 30
0.0
 11
-300.285297
 21
265.043363
 31
0.0
  0
LINE
  5
4F9
100
AcDbEntity
  8
0
370
    -3
390
0
  6
Continuous
100
AcDbLine
 10
-296.285297
 20
265.043363
 30
0.0
 11
-296.285297
 21
293.043363
 31
0.0
  0
POINT
  5
4FA
100
AcDbEntity
  8
0
370
    -3
390
0
  6
Continuous
100
AcDbPoint
 10
-296.285297
 20
279.043363
 30
0.0
  0
LINE
  5
4FB
100
AcDbEntity
  8
0
370
    -3
390
0
  6
Continuous
100
AcDbLine
 10
-300.285297
 20
193.265965
 30
0.0
 11
-296.285296
 21
191.810088
 31
0.0
  0
LINE
  5
4FC
100
AcDbEntity
  8
0
370
    -3
390
0
  6
Continuous
100
AcDbLine
 10
-296.285296
 20
192.861322
 30
0.0
 11
-300.285296
 21
194.3172
 31
0.0
  0
LINE
  5
4FD
100
AcDbEntity
  8
0
370
    -3
390
0
  6
Continuous
100
AcDbLine
 10
-315.285282
 20
181.043363
 30
0.0
 11
-315.285282
 21
205.043363
 31
0.0
  0
LINE
  5
4FE
100
AcDbEntity
  8
0
370
    -3
390
0
  6
Continuous
100
AcDbLine
 10
-315.28527
 20
205.043363
 30
0.0
 11
-316.285255
 21
203.311719
 31
0.0
  0
LINE
  5
4FF
100
AcDbEntity
  8
0
370
    -3
390
0
  6
Continuous
100
AcDbLine
 10
-315.285278
 20
181.043365
 30
0.0
 11
-316.285263
 21
182.775787
 31
0.0
  0
LINE
  5
500
100
AcDbEntity
  8
0
370
    -3
390
0
  6
Continuous
100
AcDbLine
 10
-296.285297
 20
207.043363
 30
0.0
 11
-300.285297
 21
207.043363
 31
0.0
  0
LINE
  5
501
100
AcDbEntity
  8
0
370
    -3
390
0
  6
Continuous
100
AcDbLine
 10
-296.285297
 20
179.043363
 30
0.0
 11
-300.285297
 21
179.043363
 31
0.0
  0
LINE
  5
502
100
AcDbEntity
  8
0
370
    -3
390
0
  6
Continuous
100
AcDbLine
 10
-300.285297
 20
205.043363
 30
0.0
 11
-315.285266
 21
205.043363
 31
0.0
  0
LINE
  5
503
100
AcDbEntity
  8
0
370
    -3
390
0
  6
Continuous
100
AcDbLine
 10
-300.285297
 20
181.043363
 30
0.0
 11
-315.285282
 21
181.043363
 31
0.0
  0
LINE
  5
504
100
AcDbEntity
  8
0
370
    -3
390
0
  6
Continuous
100
AcDbLine
 10
-316.285259
 20
203.311719
 30
0.0
 11
-316.285274
 21
182.775783
 31
0.0
  0
LINE
  5
505
100
AcDbEntity
  8
0
370
    -3
390
0
  6
Continuous
100
AcDbLine
 10
-300.285297
 20
207.043363
 30
0.0
 11
-300.285297
 21
179.043363
 31
0.0
  0
LINE
  5
506
100
AcDbEntity
  8
0
370
    -3
390
0
  6
Continuous
100
AcDbLine
 10
-296.285297
 20
179.043363
 30
0.0
 11
-296.285297
 21
207.043363
 31
0.0
  0
POINT
  5
507
100
AcDbEntity
  8
0
370
    -3
390
0
  6
Continuous
100
AcDbPoint
 10
-296.285297
 20
193.043363
 30
0.0
  0
LINE
  5
508
100
AcDbEntity
  8
0
370
    -3
390
0
  6
Continuous
100
AcDbLine
 10
-300.285297
 20
163.265965
 30
0.0
 11
-296.285296
 21
161.810088
 31
0.0
  0
LINE
  5
509
100
AcDbEntity
  8
0
370
    -3
390
0
  6
Continuous
100
AcDbLine
 10
-296.285296
 20
162.861322
 30
0.0
 11
-300.285296
 21
164.3172
 31
0.0
  0
LINE
  5
50A
100
AcDbEntity
  8
0
370
    -3
390
0
  6
Continuous
100
AcDbLine
 10
-315.285282
 20
151.043363
 30
0.0
 11
-315.285282
 21
175.043363
 31
0.0
  0
LINE
  5
50B
100
AcDbEntity
  8
0
370
    -3
390
0
  6
Continuous
100
AcDbLine
 10
-315.28527
 20
175.043363
 30
0.0
 11
-316.285255
 21
173.311719
 31
0.0
  0
LINE
  5
50C
100
AcDbEntity
  8
0
370
    -3
390
0
  6
Continuous
100
AcDbLine
 10
-315.285278
 20
151.043365
 30
0.0
 11
-316.285263
 21
152.775787
 31
0.0
  0
LINE
  5
50D
100
AcDbEntity
  8
0
370
    -3
390
0
  6
Continuous
100
AcDbLine
 10
-296.285297
 20
177.043363
 30
0.0
 11
-300.285297
 21
177.043363
 31
0.0
  0
LINE
  5
50E
100
AcDbEntity
  8
0
370
    -3
390
0
  6
Continuous
100
AcDbLine
 10
-296.285297
 20
149.043363
 30
0.0
 11
-300.285297
 21
149.043363
 31
0.0
  0
LINE
  5
50F
100
AcDbEntity
  8
0
370
    -3
390
0
  6
Continuous
100
AcDbLine
 10
-300.285297
 20
175.043363
 30
0.0
 11
-315.285266
 21
175.043363
 31
0.0
  0
LINE
  5
510
100
AcDbEntity
  8
0
370
    -3
390
0
  6
Continuous
100
AcDbLine
 10
-300.285297
 20
151.043363
 30
0.0
 11
-315.285282
 21
151.043363
 31
0.0
  0
LINE
  5
511
100
AcDbEntity
  8
0
370
    -3
390
0
  6
Continuous
100
AcDbLine
 10
-316.285259
 20
173.311719
 30
0.0
 11
-316.285274
 21
152.775783
 31
0.0
  0
LINE
  5
512
100
AcDbEntity
  8
0
370
    -3
390
0
  6
Continuous
100
AcDbLine
 10
-300.285297
 20
177.043363
 30
0.0
 11
-300.285297
 21
149.043363
 31
0.0
  0
LINE
  5
513
100
AcDbEntity
  8
0
370
    -3
390
0
  6
Continuous
100
AcDbLine
 10
-296.285297
 20
149.043363
 30
0.0
 11
-296.285297
 21
177.043363
 31
0.0
  0
POINT
  5
514
100
AcDbEntity
  8
0
370
    -3
390
0
  6
Continuous
100
AcDbPoint
 10
-296.285297
 20
163.043363
 30
0.0
  0
LINE
  5
515
100
AcDbEntity
  8
0
370
    -3
390
0
  6
CENTER
100
AcDbLine
 10
-281.562544
 20
447.043363
 30
0.0
 11
-322.550895
 21
447.043363
 31
0.0
  0
LINE
  5
516
100
AcDbEntity
  8
0
370
    -3
390
0
  6
Continuous
100
AcDbLine
 10
-312.285297
 20
291.043363
 30
0.0
 11
-312.285297
 21
363.043363
 31
0.0
  0
LINE
  5
517
100
AcDbEntity
  8
0
370
    -3
390
0
  6
Continuous
100
AcDbLine
 10
-312.285297
 20
435.043363
 30
0.0
 11
-312.285297
 21
363.043363
 31
0.0
  0
ARC
  5
518
100
AcDbEntity
  8
0
370
    -3
390
0
  6
Continuous
100
AcDbCircle
 10
-462.143161
 20
198.043363
 30
0.0
 40
10.0
100
AcDbArc
 50
90.0
 51
135.0
  0
ARC
  5
519
100
AcDbEntity
  8
0
370
    -3
390
0
  6
Continuous
100
AcDbCircle
 10
-461.285297
 20
198.901227
 30
0.0
 40
10.0
100
AcDbArc
 50
135.0
 51
180.0
  0
LINE
  5
51A
100
AcDbEntity
  8
0
370
    -3
390
0
  6
Continuous
100
AcDbLine
 10
-471.285297
 20
193.573363
 30
0.0
 11
-471.285297
 21
198.901227
 31
0.0
  0
LINE
  5
51B
100
AcDbEntity
  8
0
370
    -3
390
0
  6
Continuous
100
AcDbLine
 10
-471.285297
 20
174.649363
 30
0.0
 11
-471.285297
 21
193.573363
 31
0.0
  0
LINE
  5
51C
100
AcDbEntity
  8
0
370
    -3
390
0
  6
Continuous
100
AcDbLine
 10
-411.285297
 20
143.043363
 30
0.0
 11
-411.285297
 21
159.043363
 31
0.0
  0
LINE
  5
51D
100
AcDbEntity
  8
0
370
    -3
390
0
  6
Continuous
100
AcDbLine
 10
-67.285297
 20
143.043363
 30
0.0
 11
-436.785297
 21
143.043363
 31
0.0
  0
LINE
  5
51E
100
AcDbEntity
  8
0
370
    -3
390
0
  6
Continuous
100
AcDbLine
 10
-436.785297
 20
143.043363
 30
0.0
 11
-465.285297
 21
143.043363
 31
0.0
  0
ARC
  5
51F
100
AcDbEntity
  8
0
370
    -3
390
0
  6
Continuous
100
AcDbCircle
 10
-465.285297
 20
149.043363
 30
0.0
 40
6.0
100
AcDbArc
 50
180.0
 51
270.0
  0
LINE
  5
520
100
AcDbEntity
  8
0
370
    -3
390
0
  6
Continuous
100
AcDbLine
 10
-471.285297
 20
149.043363
 30
0.0
 11
-471.285297
 21
174.649363
 31
0.0
  0
ARC
  5
521
100
AcDbEntity
  8
0
370
    -3
390
0
  6
Continuous
100
AcDbCircle
 10
-441.285297
 20
183.043363
 30
0.0
 40
14.0
100
AcDbArc
 50
288.749341
 51
71.250659
  0
ARC
  5
522
100
AcDbEntity
  8
0
370
    -3
390
0
  6
Continuous
100
AcDbCircle
 10
-441.285297
 20
183.043363
 30
0.0
 40
14.0
100
AcDbArc
 50
71.250659
 51
288.749341
  0
ARC
  5
523
100
AcDbEntity
  8
0
370
    -3
390
0
  6
Continuous
100
AcDbCircle
 10
-449.819889
 20
210.366635
 30
0.0
 40
10.0
100
AcDbArc
 50
90.865865
 51
135.0
  0
LINE
  5
524
100
AcDbEntity
  8
0
370
    -3
390
0
  6
Continuous
100
AcDbLine
 10
-468.356365
 20
205.972295
 30
0.0
 11
-456.890957
 21
217.437703
 31
0.0
  0
LINE
  5
525
100
AcDbEntity
  8
0
370
    -3
390
0
  6
Continuous
100
AcDbLine
 10
-402.407405
 20
208.043363
 30
0.0
 11
-462.143161
 21
208.043363
 31
0.0
  0
ARC
  5
526
100
AcDbEntity
  8
0
370
    -3
390
0
  6
Continuous
100
AcDbCircle
 10
-411.285297
 20
557.043363
 30
0.0
 40
10.0
100
AcDbArc
 50
90.0
 51
180.0
  0
LINE
  5
527
100
AcDbEntity
  8
0
370
    -3
390
0
  6
Continuous
100
AcDbLine
 10
-411.285297
 20
583.043363
 30
0.0
 11
-411.285297
 21
567.043363
 31
0.0
  0
LINE
  5
528
100
AcDbEntity
  8
0
370
    -3
390
0
  6
Continuous
100
AcDbLine
 10
-316.285269
 20
567.043363
 30
0.0
 11
-411.285297
 21
567.043363
 31
0.0
  0
LINE
  5
529
100
AcDbEntity
  8
0
370
    -3
390
0
  6
Continuous
100
AcDbLine
 10
-67.285297
 20
583.043363
 30
0.0
 11
-465.285297
 21
583.043363
 31
0.0
  0
ARC
  5
52A
100
AcDbEntity
  8
0
370
    -3
390
0
  6
Continuous
100
AcDbCircle
 10
-449.819889
 20
515.72009
 30
0.0
 40
10.0
100
AcDbArc
 50
225.0
 51
269.134135
  0
ARC
  5
52B
100
AcDbEntity
  8
0
370
    -3
390
0
  6
Continuous
100
AcDbCircle
 10
-462.143161
 20
528.043363
 30
0.0
 40
10.0
100
AcDbArc
 50
225.0
 51
270.0
  0
LINE
  5
52C
100
AcDbEntity
  8
0
370
    -3
390
0
  6
Continuous
100
AcDbLine
 10
-468.356365
 20
520.11443
 30
0.0
 11
-456.890957
 21
508.649023
 31
0.0
  0
ARC
  5
52D
100
AcDbEntity
  8
0
370
    -3
390
0
  6
Continuous
100
AcDbCircle
 10
-461.285297
 20
527.185498
 30
0.0
 40
10.0
100
AcDbArc
 50
210.944903
 51
225.0
  0
LINE
  5
52E
100
AcDbEntity
  8
0
370
    -3
390
0
  6
Continuous
100
AcDbLine
 10
-389.04233
 20
504.800396
 30
0.0
 11
-331.350943
 21
503.928486
 31
0.0
  0
LINE
  5
52F
100
AcDbEntity
  8
0
370
    -3
390
0
  6
Continuous
100
AcDbLine
 10
-402.285297
 20
518.043363
 30
0.0
 11
-462.143161
 21
518.043363
 31
0.0
  0
LINE
  5
530
100
AcDbEntity
  8
0
370
    -3
390
0
  6
Continuous
100
AcDbLine
 10
-556.285297
 20
259.41563
 30
0.0
 11
-556.285297
 21
257.009742
 31
0.0
  0
LINE
  5
531
100
AcDbEntity
  8
0
370
    -3
390
0
  6
Continuous
100
AcDbLine
 10
-556.285297
 20
450.044206
 30
0.0
 11
-556.285297
 21
452.704908
 31
0.0
  0
LINE
  5
532
100
AcDbEntity
  8
0
370
    -3
390
0
  6
Continuous
100
AcDbLine
 10
-556.285297
 20
466.671095
 30
0.0
 11
-556.285297
 21
469.076983
 31
0.0
  0
LINE
  5
533
100
AcDbEntity
  8
0
370
    -3
390
0
  6
Continuous
100
AcDbLine
 10
-556.285297
 20
276.04252
 30
0.0
 11
-556.285297
 21
273.381817
 31
0.0
  0
LINE
  5
534
100
AcDbEntity
  8
0
370
    -3
390
0
  6
Continuous
100
AcDbLine
 10
-813.612959
 20
139.875165
 30
0.0
 11
-686.354641
 21
139.875165
 31
0.0
  0
LINE
  5
535
100
AcDbEntity
  8
0
370
    -3
390
0
  6
Continuous
100
AcDbLine
 10
-810.667927
 20
96.750327
 30
0.0
 11
-691.902668
 21
96.750327
 31
0.0
  0
LINE
  5
536
100
AcDbEntity
  8
0
370
    -3
390
0
  6
Continuous
100
AcDbLine
 10
-790.198737
 20
101.061499
 30
0.0
 11
-712.371858
 21
101.061499
 31
0.0
  0
LINE
  5
537
100
AcDbEntity
  8
0
370
    -3
390
0
  6
Continuous
100
AcDbLine
 10
-696.838896
 20
109.966055
 30
0.0
 11
-688.326289
 21
109.966055
 31
0.0
  0
ARC
  5
538
100
AcDbEntity
  8
0
370
    -3
390
0
  6
Continuous
100
AcDbCircle
 10
-696.838896
 20
98.966055
 30
0.0
 40
11.0
100
AcDbArc
 50
90.0
 51
149.64857
  0
ARC
  5
539
100
AcDbEntity
  8
0
370
    -3
390
0
  6
Continuous
100
AcDbCircle
 10
-691.902668
 20
108.750327
 30
0.0
 40
12.0
100
AcDbArc
 50
270.0
 51
345.833187
  0
ARC
  5
53A
100
AcDbEntity
  8
0
370
    -3
390
0
  6
Continuous
100
AcDbCircle
 10
-712.371858
 20
108.061499
 30
0.0
 40
7.0
100
AcDbArc
 50
270.0
 51
329.64857
  0
ARC
  5
53B
100
AcDbEntity
  8
0
370
    -3
390
0
  6
Continuous
100
AcDbCircle
 10
-688.326289
 20
116.966055
 30
0.0
 40
7.0
100
AcDbArc
 50
270.0
 51
348.753311
  0
LINE
  5
53C
100
AcDbEntity
  8
0
370
    -3
390
0
  6
Continuous
100
AcDbLine
 10
-805.731699
 20
109.966055
 30
0.0
 11
-814.244306
 21
109.966055
 31
0.0
  0
ARC
  5
53D
100
AcDbEntity
  8
0
370
    -3
390
0
  6
Continuous
100
AcDbCircle
 10
-805.731699
 20
98.966055
 30
0.0
 40
11.0
100
AcDbArc
 50
30.35143
 51
90.0
  0
ARC
  5
53E
100
AcDbEntity
  8
0
370
    -3
390
0
  6
Continuous
100
AcDbCircle
 10
-810.667927
 20
108.750327
 30
0.0
 40
12.0
100
AcDbArc
 50
194.166813
 51
270.0
  0
ARC
  5
53F
100
AcDbEntity
  8
0
370
    -3
390
0
  6
Continuous
100
AcDbCircle
 10
-790.198737
 20
108.061499
 30
0.0
 40
7.0
100
AcDbArc
 50
210.35143
 51
270.0
  0
ARC
  5
540
100
AcDbEntity
  8
0
370
    -3
390
0
  6
Continuous
100
AcDbCircle
 10
-814.244306
 20
116.966055
 30
0.0
 40
7.0
100
AcDbArc
 50
191.246689
 51
270.0
  0
LINE
  5
541
100
AcDbEntity
  8
0
370
    -3
390
0
  6
CENTER
100
AcDbLine
 10
-693.785297
 20
105.181721
 30
0.0
 11
-693.785297
 21
94.750274
 31
0.0
  0
LINE
  5
542
100
AcDbEntity
  8
0
370
    -3
390
0
  6
CENTER
100
AcDbLine
 10
-687.766494
 20
100.961912
 30
0.0
 11
-699.665204
 21
100.961912
 31
0.0
  0
ELLIPSE
  5
543
100
AcDbEntity
  8
0
370
    -3
390
0
  6
Continuous
100
AcDbEllipse
 10
-693.785297
 20
100.961912
 30
0.0
 11
4.5
 21
0.0
 31
0.0
210
0.0
220
0.0
230
1.0
 40
0.727273
 41
0.0
 42
6.2831853071795862
  0
LINE
  5
544
100
AcDbEntity
  8
0
370
    -3
390
0
  6
Continuous
100
AcDbLine
 10
-692.088239
 20
102.658966
 30
0.0
 11
-695.482355
 21
99.264859
 31
0.0
  0
LINE
  5
545
100
AcDbEntity
  8
0
370
    -3
390
0
  6
Continuous
100
AcDbLine
 10
-695.48235
 20
102.658971
 30
0.0
 11
-692.088244
 21
99.264853
 31
0.0
  0
LINE
  5
546
100
AcDbEntity
  8
0
370
    -3
390
0
  6
CENTER
100
AcDbLine
 10
-802.766494
 20
100.961912
 30
0.0
 11
-814.665204
 21
100.961912
 31
0.0
  0
LINE
  5
547
100
AcDbEntity
  8
0
370
    -3
390
0
  6
CENTER
100
AcDbLine
 10
-808.785297
 20
105.181721
 30
0.0
 11
-808.785297
 21
94.750274
 31
0.0
  0
ELLIPSE
  5
548
100
AcDbEntity
  8
0
370
    -3
390
0
  6
Continuous
100
AcDbEllipse
 10
-808.785297
 20
100.961912
 30
0.0
 11
4.5
 21
0.0
 31
0.0
210
0.0
220
0.0
230
1.0
 40
0.727273
 41
0.0
 42
6.2831853071795862
  0
LINE
  5
549
100
AcDbEntity
  8
0
370
    -3
390
0
  6
Continuous
100
AcDbLine
 10
-807.088244
 20
102.658971
 30
0.0
 11
-810.48235
 21
99.264853
 31
0.0
  0
LINE
  5
54A
100
AcDbEntity
  8
0
370
    -3
390
0
  6
Continuous
100
AcDbLine
 10
-810.482355
 20
102.658966
 30
0.0
 11
-807.088239
 21
99.264859
 31
0.0
  0
ARC
  5
54B
100
AcDbEntity
  8
0
370
    -3
390
0
  6
Continuous
100
AcDbCircle
 10
-871.1621
 20
153.999474
 30
0.0
 40
196.882204
100
AcDbArc
 50
345.833187
 51
14.40704
  0
ARC
  5
54C
100
AcDbEntity
  8
0
370
    -3
390
0
  6
Continuous
100
AcDbCircle
 10
-874.5621
 20
153.999474
 30
0.0
 40
196.882204
100
AcDbArc
 50
348.753311
 51
12.259471
  0
ARC
  5
54D
100
AcDbEntity
  8
0
370
    -3
390
0
  6
Continuous
100
AcDbCircle
 10
-631.408495
 20
153.999474
 30
0.0
 40
196.882204
100
AcDbArc
 50
165.59296
 51
194.166813
  0
ARC
  5
54E
100
AcDbEntity
  8
0
370
    -3
390
0
  6
Continuous
100
AcDbCircle
 10
-628.008495
 20
153.999474
 30
0.0
 40
196.882204
100
AcDbArc
 50
167.740529
 51
191.246689
  0
LINE
  5
54F
100
AcDbEntity
  8
0
370
    -3
390
0
  6
CENTER
100
AcDbLine
 10
-751.285297
 20
80.818186
 30
0.0
 11
-751.285297
 21
265.866023
 31
0.0
  0
INSERT
  5
557
100
AcDbEntity
  8
0
390
0
100
AcDbBlockReference
  2
ZU_SYM_C__ZUOU_AC_BLOCK_BLKF030_00
 10
-1107.360564
 20
76.956247
 30
0.0
  0
ARC
  5
558
100
AcDbEntity
  8
0
370
    -3
390
0
  6
Continuous
100
AcDbCircle
 10
-829.880571
 20
210.543363
 30
0.0
 40
3.0
100
AcDbArc
 50
216.869898
 51
270.0
  0
LINE
  5
559
100
AcDbEntity
  8
0
370
    -3
390
0
  6
Continuous
100
AcDbLine
 10
-828.485884
 20
293.985335
 30
0.0
 11
-831.285297
 21
297.664356
 31
0.0
  0
LINE
  5
55A
100
AcDbEntity
  8
0
370
    -3
390
0
  6
Continuous
100
AcDbLine
 10
-772.285297
 20
297.664356
 30
0.0
 11
-831.285297
 21
297.664356
 31
0.0
  0
LINE
  5
55B
100
AcDbEntity
  8
0
370
    -3
390
0
  6
Continuous
100
AcDbLine
 10
-772.285297
 20
292.407509
 30
0.0
 11
-825.302635
 21
292.407509
 31
0.0
  0
ELLIPSE
  5
55C
100
AcDbEntity
  8
0
370
    -3
390
0
  6
Continuous
100
AcDbEllipse
 10
-820.285297
 20
286.161961
 30
0.0
 11
7.0
 21
0.0
 31
0.0
210
0.0
220
0.0
230
1.0
 40
0.892221
 41
1.5786489530372321
 42
3.1415926535897931
  0
ARC
  5
55D
100
AcDbEntity
  8
0
370
    -3
390
0
  6
Continuous
100
AcDbCircle
 10
-825.302635
 20
296.407509
 30
0.0
 40
4.0
100
AcDbArc
 50
217.267959
 51
270.0
  0
ARC
  5
55E
100
AcDbEntity
  8
0
370
    -3
390
0
  6
Continuous
100
AcDbCircle
 10
-853.375272
 20
286.161961
 30
0.0
 40
26.089975
100
AcDbArc
 50
0.0
 51
17.449275
  0
LINE
  5
55F
100
AcDbEntity
  8
0
370
    -3
390
0
  6
Continuous
100
AcDbLine
 10
-772.285297
 20
299.248746
 30
0.0
 11
-772.285297
 21
391.928976
 31
0.0
  0
LINE
  5
560
100
AcDbEntity
  8
0
370
    -3
390
0
  6
Continuous
100
AcDbLine
 10
-772.285297
 20
292.850192
 30
0.0
 11
-772.285297
 21
299.248746
 31
0.0
  0
LINE
  5
561
100
AcDbEntity
  8
0
370
    -3
390
0
  6
Continuous
100
AcDbLine
 10
-871.285297
 20
513.543363
 30
0.0
 11
-871.285297
 21
212.543363
 31
0.0
  0
LINE
  5
562
100
AcDbEntity
  8
0
370
    -3
390
0
  6
Continuous
100
AcDbLine
 10
-832.785297
 20
516.769436
 30
0.0
 11
-832.785297
 21
209.266223
 31
0.0
  0
LINE
  5
563
100
AcDbEntity
  8
0
370
    -3
390
0
  6
Continuous
100
AcDbLine
 10
-831.285297
 20
208.743363
 30
0.0
 11
-831.285297
 21
517.343363
 31
0.0
  0
LINE
  5
564
100
AcDbEntity
  8
0
370
    -3
390
0
  6
Continuous
100
AcDbLine
 10
-868.285297
 20
209.543363
 30
0.0
 11
-833.880571
 21
209.543363
 31
0.0
  0
ARC
  5
565
100
AcDbEntity
  8
0
370
    -3
390
0
  6
Continuous
100
AcDbCircle
 10
-833.880571
 20
207.543363
 30
0.0
 40
2.0
100
AcDbArc
 50
36.869898
 51
90.0
  0
LINE
  5
566
100
AcDbEntity
  8
0
370
    -3
390
0
  6
Continuous
100
AcDbLine
 10
-772.285297
 20
270.736533
 30
0.0
 11
-772.285297
 21
292.850192
 31
0.0
  0
LINE
  5
567
100
AcDbEntity
  8
0
370
    -3
390
0
  6
Continuous
100
AcDbLine
 10
-780.285297
 20
233.0452
 30
0.0
 11
-793.285297
 21
233.0452
 31
0.0
  0
ARC
  5
568
100
AcDbEntity
  8
0
370
    -3
390
0
  6
Continuous
100
AcDbCircle
 10
-793.285297
 20
229.0452
 30
0.0
 40
4.0
100
AcDbArc
 50
90.0
 51
180.0
  0
LINE
  5
569
100
AcDbEntity
  8
0
370
    -3
390
0
  6
Continuous
100
AcDbLine
 10
-776.285297
 20
263.915497
 30
0.0
 11
-776.285297
 21
237.0452
 31
0.0
  0
ARC
  5
56A
100
AcDbEntity
  8
0
370
    -3
390
0
  6
Continuous
100
AcDbCircle
 10
-780.285297
 20
237.0452
 30
0.0
 40
4.0
100
AcDbArc
 50
270.0
 51
0.0
  0
ARC
  5
56B
100
AcDbEntity
  8
0
370
    -3
390
0
  6
Continuous
100
AcDbCircle
 10
-839.589692
 20
277.501707
 30
0.0
 40
12.304395
100
AcDbArc
 50
334.478825
 51
0.0
  0
ARC
  5
56C
100
AcDbEntity
  8
0
370
    -3
390
0
  6
Continuous
100
AcDbCircle
 10
-825.302635
 20
280.684514
 30
0.0
 40
9.061615
100
AcDbArc
 50
249.433801
 51
270.0
  0
ELLIPSE
  5
56D
100
AcDbEntity
  8
0
370
    -3
390
0
  6
Continuous
100
AcDbEllipse
 10
-820.285297
 20
277.501707
 30
0.0
 11
7.0
 21
0.0
 31
0.0
210
0.0
220
0.0
230
1.0
 40
0.83983
 41
3.1415926535897931
 42
4.7123889803846897
  0
LINE
  5
56E
100
AcDbEntity
  8
0
370
    -3
390
0
  6
Continuous
100
AcDbLine
 10
-772.285297
 20
271.622899
 30
0.0
 11
-825.302635
 21
271.622899
 31
0.0
  0
LINE
  5
56F
100
AcDbEntity
  8
0
370
    -3
390
0
  6
Continuous
100
AcDbLine
 10
-827.285297
 20
286.161961
 30
0.0
 11
-827.285297
 21
277.501707
 31
0.0
  0
LINE
  5
570
100
AcDbEntity
  8
0
370
    -3
390
0
  6
Continuous
100
AcDbLine
 10
-808.285297
 20
282.293364
 30
0.0
 11
-813.285297
 21
284.793365
 31
0.0
  0
LINE
  5
571
100
AcDbEntity
  8
0
370
    -3
390
0
  6
Continuous
100
AcDbLine
 10
-808.285297
 20
277.293362
 30
0.0
 11
-808.285297
 21
282.293364
 31
0.0
  0
LINE
  5
572
100
AcDbEntity
  8
0
370
    -3
390
0
  6
Continuous
100
AcDbLine
 10
-813.285297
 20
274.793361
 30
0.0
 11
-808.285297
 21
277.293362
 31
0.0
  0
LINE
  5
573
100
AcDbEntity
  8
0
370
    -3
390
0
  6
Continuous
100
AcDbLine
 10
-818.285297
 20
277.293362
 30
0.0
 11
-813.285297
 21
274.793361
 31
0.0
  0
LINE
  5
574
100
AcDbEntity
  8
0
370
    -3
390
0
  6
Continuous
100
AcDbLine
 10
-818.285297
 20
282.293364
 30
0.0
 11
-818.285297
 21
277.293362
 31
0.0
  0
LINE
  5
575
100
AcDbEntity
  8
0
370
    -3
390
0
  6
Continuous
100
AcDbLine
 10
-813.285297
 20
284.793365
 30
0.0
 11
-818.285297
 21
282.293364
 31
0.0
  0
LINE
  5
576
100
AcDbEntity
  8
0
370
    -3
390
0
  6
CENTER
100
AcDbLine
 10
-806.011794
 20
279.793363
 30
0.0
 11
-820.558799
 21
279.793363
 31
0.0
  0
LINE
  5
577
100
AcDbEntity
  8
0
370
    -3
390
0
  6
CENTER
100
AcDbLine
 10
-813.285297
 20
288.386787
 30
0.0
 11
-813.285297
 21
271.622899
 31
0.0
  0
ELLIPSE
  5
578
100
AcDbEntity
  8
0
370
    -3
390
0
  6
Continuous
100
AcDbEllipse
 10
-813.285297
 20
279.793363
 30
0.0
 11
5.0
 21
0.0
 31
0.0
210
0.0
220
0.0
230
1.0
 40
0.866
 41
0.0
 42
6.2831853071795862
  0
LINE
  5
579
100
AcDbEntity
  8
0
370
    -3
390
0
  6
Continuous
100
AcDbLine
 10
-828.485884
 20
272.200424
 30
0.0
 11
-831.285297
 21
273.547039
 31
0.0
  0
ARC
  5
57A
100
AcDbEntity
  8
0
370
    -3
390
0
  6
Continuous
100
AcDbCircle
 10
-868.285297
 20
212.543363
 30
0.0
 40
3.0
100
AcDbArc
 50
180.0
 51
270.0
  0
ARC
  5
57B
100
AcDbEntity
  8
0
370
    -3
390
0
  6
Continuous
100
AcDbCircle
 10
-874.285297
 20
213.67821
 30
0.0
 40
3.0
100
AcDbArc
 50
0.0
 51
35.0
  0
ARC
  5
57C
100
AcDbEntity
  8
0
370
    -3
390
0
  6
Continuous
100
AcDbCircle
 10
-894.326431
 20
244.043363
 30
0.0
 40
2.0
100
AcDbArc
 50
35.0
 51
90.0
  0
ARC
  5
57D
100
AcDbEntity
  8
0
370
    -3
390
0
  6
Continuous
100
AcDbCircle
 10
-894.285297
 20
249.043363
 30
0.0
 40
3.0
100
AcDbArc
 50
180.0
 51
270.0
  0
LINE
  5
57E
100
AcDbEntity
  8
0
370
    -3
390
0
  6
Continuous
100
AcDbLine
 10
-892.688127
 20
245.190516
 30
0.0
 11
-871.827841
 21
215.398939
 31
0.0
  0
LINE
  5
57F
100
AcDbEntity
  8
0
370
    -3
390
0
  6
Continuous
100
AcDbLine
 10
-893.285297
 20
480.043363
 30
0.0
 11
-893.285297
 21
246.043363
 31
0.0
  0
LINE
  5
580
100
AcDbEntity
  8
0
370
    -3
390
0
  6
Continuous
100
AcDbLine
 10
-897.285297
 20
477.043363
 30
0.0
 11
-897.285297
 21
249.043363
 31
0.0
  0
ARC
  5
581
100
AcDbEntity
  8
0
370
    -3
390
0
  6
Continuous
100
AcDbCircle
 10
-774.325065
 20
263.852522
 30
0.0
 40
1.961244
100
AcDbArc
 50
88.838149
 51
178.159931
  0
LINE
  5
582
100
AcDbEntity
  8
0
370
    -3
390
0
  6
Continuous
100
AcDbLine
 10
-772.285297
 20
267.813362
 30
0.0
 11
-772.285297
 21
270.736533
 31
0.0
  0
ARC
  5
583
100
AcDbEntity
  8
0
370
    -3
390
0
  6
Continuous
100
AcDbCircle
 10
-774.285297
 20
267.813362
 30
0.0
 40
2.0
100
AcDbArc
 50
270.0
 51
0.0
  0
LINE
  5
584
100
AcDbEntity
  8
0
370
    -3
390
0
  6
Continuous
100
AcDbLine
 10
-797.285297
 20
229.0452
 30
0.0
 11
-797.285297
 21
222.402108
 31
0.0
  0
LINE
  5
585
100
AcDbEntity
  8
0
370
    -3
390
0
  6
Continuous
100
AcDbLine
 10
-822.551723
 20
207.543363
 30
0.0
 11
-829.880571
 21
207.543363
 31
0.0
  0
LINE
  5
586
100
AcDbEntity
  8
0
370
    -3
390
0
  6
Continuous
100
AcDbLine
 10
-789.485297
 20
230.543363
 30
0.0
 11
-796.994139
 21
230.543363
 31
0.0
  0
LINE
  5
587
100
AcDbEntity
  8
0
370
    -3
390
0
  6
Continuous
100
AcDbLine
 10
-713.085297
 20
230.543363
 30
0.0
 11
-693.504065
 21
230.543363
 31
0.0
  0
ELLIPSE
  5
588
100
AcDbEntity
  8
0
370
    -3
390
0
  6
Continuous
100
AcDbEllipse
 10
-751.285297
 20
232.670503
 30
0.0
 11
38.200000000000045
 21
0.0
 31
0.0
210
0.0
220
0.0
230
1.0
 40
0.258819
 41
3.1036851999709651
 42
3.1415926535897927
  0
LINE
  5
589
100
AcDbEntity
  8
0
370
    -3
390
0
  6
Continuous
100
AcDbLine
 10
-759.285297
 20
307.811443
 30
0.0
 11
-759.285297
 21
310.823206
 31
0.0
  0
LINE
  5
58A
100
AcDbEntity
  8
0
370
    -3
390
0
  6
Continuous
100
AcDbLine
 10
-772.285297
 20
313.363007
 30
0.0
 11
-759.285297
 21
310.823206
 31
0.0
  0
LINE
  5
58B
100
AcDbEntity
  8
0
370
    -3
390
0
  6
Continuous
100
AcDbLine
 10
-759.285297
 20
307.811443
 30
0.0
 11
-772.285297
 21
310.351243
 31
0.0
  0
ELLIPSE
  5
58C
100
AcDbEntity
  8
0
370
    -3
390
0
  6
Continuous
100
AcDbEllipse
 10
-751.285297
 20
233.625553
 30
0.0
 11
38.120650000000069
 21
0.0
 31
0.0
210
0.0
220
0.0
230
1.0
 40
0.258819
 41
6.2563090166113682
 42
0.115511680096322
  0
ELLIPSE
  5
58D
100
AcDbEntity
  8
0
370
    -3
390
0
  6
Continuous
100
AcDbEllipse
 10
-751.285297
 20
234.591479
 30
0.0
 11
37.872389999999996
 21
0.0
 31
0.0
210
0.0
220
0.0
230
1.0
 40
0.258819
 41
0.0174686037133903
 42
0.1673489271671269
  0
ELLIPSE
  5
58E
100
AcDbEntity
  8
0
370
    -3
390
0
  6
Continuous
100
AcDbEllipse
 10
-751.285297
 20
235.557404
 30
0.0
 11
37.432069999999953
 21
0.0
 31
0.0
210
0.0
220
0.0
230
1.0
 40
0.258819
 41
0.0688807456463423
 42
0.2339773286568747
  0
ELLIPSE
  5
58F
100
AcDbEntity
  8
0
370
    -3
390
0
  6
Continuous
100
AcDbEllipse
 10
-751.285297
 20
236.52333
 30
0.0
 11
36.74657000000002
 21
0.0
 31
0.0
210
0.0
220
0.0
230
1.0
 40
0.258819
 41
0.1350214053975197
 42
0.3384905472534591
  0
ELLIPSE
  5
590
100
AcDbEntity
  8
0
370
    -3
390
0
  6
Continuous
100
AcDbEllipse
 10
-751.285297
 20
237.489256
 30
0.0
 11
35.681370000000015
 21
0.0
 31
0.0
210
0.0
220
0.0
230
1.0
 40
0.258819
 41
0.2396709759358893
 42
0.6342225876158489
  0
ELLIPSE
  5
591
100
AcDbEntity
  8
0
370
    -3
390
0
  6
Continuous
100
AcDbEllipse
 10
-751.285297
 20
238.455182
 30
0.0
 11
33.60468000000003
 21
0.0
 31
0.0
210
0.0
220
0.0
230
1.0
 40
0.258819
 41
0.5446424185663211
 42
0.7348976727437829
  0
ARC
  5
592
100
AcDbEntity
  8
0
370
    -3
390
0
  6
Continuous
100
AcDbCircle
 10
-708.085297
 20
228.677814
 30
0.0
 40
5.0
100
AcDbArc
 50
180.0
 51
203.8787
  0
LINE
  5
593
100
AcDbEntity
  8
0
370
    -3
390
0
  6
Continuous
100
AcDbLine
 10
-712.65732
 20
226.653806
 30
0.0
 11
-710.775118
 21
222.402108
 31
0.0
  0
LINE
  5
594
100
AcDbEntity
  8
0
370
    -3
390
0
  6
Continuous
100
AcDbLine
 10
-713.085297
 20
228.677814
 30
0.0
 11
-713.085297
 21
232.670503
 31
0.0
  0
ELLIPSE
  5
595
100
AcDbEntity
  8
0
370
    -3
390
0
  6
Continuous
100
AcDbEllipse
 10
-751.285297
 20
232.670503
 30
0.0
 11
38.200000000000045
 21
0.0
 31
0.0
210
0.0
220
0.0
230
1.0
 40
0.258819
 41
0.0
 42
0.0698371203334043
  0
ELLIPSE
  5
596
100
AcDbEntity
  8
0
370
    -3
390
0
  6
Continuous
100
AcDbEllipse
 10
-751.285297
 20
238.455182
 30
0.0
 11
33.60468000000003
 21
0.0
 31
0.0
210
0.0
220
0.0
230
1.0
 40
0.258819
 41
0.7348976727437829
 42
2.4097495062190495
  0
ARC
  5
597
100
AcDbEntity
  8
0
370
    -3
390
0
  6
Continuous
100
AcDbCircle
 10
-794.485297
 20
228.677814
 30
0.0
 40
5.0
100
AcDbArc
 50
336.1213
 51
0.0
  0
LINE
  5
598
100
AcDbEntity
  8
0
370
    -3
390
0
  6
Continuous
100
AcDbLine
 10
-789.913275
 20
226.653806
 30
0.0
 11
-791.795477
 21
222.402108
 31
0.0
  0
LINE
  5
599
100
AcDbEntity
  8
0
370
    -3
390
0
  6
Continuous
100
AcDbLine
 10
-789.485297
 20
228.677814
 30
0.0
 11
-789.485297
 21
232.670503
 31
0.0
  0
LINE
  5
59A
100
AcDbEntity
  8
0
370
    -3
390
0
  6
Continuous
100
AcDbLine
 10
-801.285297
 20
219.311146
 30
0.0
 11
-701.285297
 21
219.311146
 31
0.0
  0
LINE
  5
59B
100
AcDbEntity
  8
0
370
    -3
390
0
  6
Continuous
100
AcDbLine
 10
-801.285297
 20
222.402108
 30
0.0
 11
-801.285297
 21
215.991684
 31
0.0
  0
LINE
  5
59C
100
AcDbEntity
  8
0
370
    -3
390
0
  6
Continuous
100
AcDbLine
 10
-701.285297
 20
222.402108
 30
0.0
 11
-701.285297
 21
215.991684
 31
0.0
  0
LINE
  5
59D
100
AcDbEntity
  8
0
370
    -3
390
0
  6
Continuous
100
AcDbLine
 10
-801.285297
 20
222.402108
 30
0.0
 11
-701.285297
 21
222.402108
 31
0.0
  0
LINE
  5
59E
100
AcDbEntity
  8
0
370
    -3
390
0
  6
Continuous
100
AcDbLine
 10
-625.285297
 20
206.786358
 30
0.0
 11
-625.285297
 21
207.410647
 31
0.0
  0
LINE
  5
59F
100
AcDbEntity
  8
0
370
    -3
390
0
  6
Continuous
100
AcDbLine
 10
-625.285297
 20
211.967169
 30
0.0
 11
-625.285297
 21
213.003398
 31
0.0
  0
LINE
  5
5A0
100
AcDbEntity
  8
0
370
    -3
390
0
  6
Continuous
100
AcDbLine
 10
-625.285297
 20
204.496472
 30
0.0
 11
-657.285297
 21
222.95792
 31
0.0
  0
LINE
  5
5A1
100
AcDbEntity
  8
0
370
    -3
390
0
  6
Continuous
100
AcDbLine
 10
-657.285297
 20
222.74863
 30
0.0
 11
-625.285297
 21
204.287182
 31
0.0
  0
LINE
  5
5A2
100
AcDbEntity
  8
0
370
    -3
390
0
  6
Continuous
100
AcDbLine
 10
-657.285297
 20
222.74863
 30
0.0
 11
-657.285297
 21
229.957476
 31
0.0
  0
LINE
  5
5A3
100
AcDbEntity
  8
0
370
    -3
390
0
  6
Continuous
100
AcDbLine
 10
-625.285297
 20
204.496472
 30
0.0
 11
-625.285297
 21
204.287182
 31
0.0
  0
LINE
  5
5A4
100
AcDbEntity
  8
0
370
    -3
390
0
  6
Continuous
100
AcDbLine
 10
-657.285297
 20
224.939822
 30
0.0
 11
-625.285297
 21
206.794254
 31
0.0
  0
LINE
  5
5A5
100
AcDbEntity
  8
0
370
    -3
390
0
  6
Continuous
100
AcDbLine
 10
-625.285297
 20
207.418543
 30
0.0
 11
-657.285297
 21
225.564111
 31
0.0
  0
LINE
  5
5A6
100
AcDbEntity
  8
0
370
    -3
390
0
  6
Continuous
100
AcDbLine
 10
-625.285297
 20
211.974792
 30
0.0
 11
-657.285297
 21
229.494003
 31
0.0
  0
LINE
  5
5A7
100
AcDbEntity
  8
0
370
    -3
390
0
  6
Continuous
100
AcDbLine
 10
-625.285297
 20
213.003398
 30
0.0
 11
-656.253043
 21
229.957476
 31
0.0
  0
LINE
  5
5A8
100
AcDbEntity
  8
0
370
    -3
390
0
  6
Continuous
100
AcDbLine
 10
-625.285297
 20
219.740155
 30
0.0
 11
-644.989532
 21
229.957476
 31
0.0
  0
LINE
  5
5A9
100
AcDbEntity
  8
0
370
    -3
390
0
  6
Continuous
100
AcDbLine
 10
-625.285297
 20
221.155479
 30
0.0
 11
-642.260061
 21
229.957476
 31
0.0
  0
LINE
  5
5AA
100
AcDbEntity
  8
0
370
    -3
390
0
  6
Continuous
100
AcDbLine
 10
-625.285297
 20
219.740155
 30
0.0
 11
-625.285297
 21
221.155479
 31
0.0
  0
LINE
  5
5AB
100
AcDbEntity
  8
0
370
    -3
390
0
  6
Continuous
100
AcDbLine
 10
-759.285297
 20
290.052568
 30
0.0
 11
-772.285297
 21
293.435533
 31
0.0
  0
LINE
  5
5AC
100
AcDbEntity
  8
0
370
    -3
390
0
  6
Continuous
100
AcDbLine
 10
-772.285297
 20
296.293065
 30
0.0
 11
-759.285297
 21
292.9101
 31
0.0
  0
LINE
  5
5AD
100
AcDbEntity
  8
0
370
    -3
390
0
  6
Continuous
100
AcDbLine
 10
-759.285297
 20
292.9101
 30
0.0
 11
-759.285297
 21
290.052568
 31
0.0
  0
LINE
  5
5AE
100
AcDbEntity
  8
0
370
    -3
390
0
  6
Continuous
100
AcDbLine
 10
-556.285297
 20
259.41563
 30
0.0
 11
-692.285297
 21
259.41563
 31
0.0
  0
LINE
  5
5AF
100
AcDbEntity
  8
0
370
    -3
390
0
  6
Continuous
100
AcDbLine
 10
-556.285297
 20
257.009742
 30
0.0
 11
-692.285297
 21
257.009742
 31
0.0
  0
LINE
  5
5B0
100
AcDbEntity
  8
0
370
    -3
390
0
  6
Continuous
100
AcDbLine
 10
-692.285297
 20
257.009742
 30
0.0
 11
-724.285297
 21
269.208339
 31
0.0
  0
LINE
  5
5B1
100
AcDbEntity
  8
0
370
    -3
390
0
  6
Continuous
100
AcDbLine
 10
-724.285297
 20
271.614226
 30
0.0
 11
-692.285297
 21
259.41563
 31
0.0
  0
LINE
  5
5B2
100
AcDbEntity
  8
0
370
    -3
390
0
  6
Continuous
100
AcDbLine
 10
-724.285297
 20
269.208339
 30
0.0
 11
-724.285297
 21
276.889356
 31
0.0
  0
LINE
  5
5B3
100
AcDbEntity
  8
0
370
    -3
390
0
  6
Continuous
100
AcDbLine
 10
-724.285297
 20
276.889356
 30
0.0
 11
-703.205153
 21
276.889356
 31
0.0
  0
LINE
  5
5B4
100
AcDbEntity
  8
0
370
    -3
390
0
  6
Continuous
100
AcDbLine
 10
-692.285297
 20
259.41563
 30
0.0
 11
-692.285297
 21
257.009742
 31
0.0
  0
LINE
  5
5B5
100
AcDbEntity
  8
0
370
    -3
390
0
  6
Continuous
100
AcDbLine
 10
-812.215258
 20
208.140036
 30
0.0
 11
-690.355337
 21
208.140036
 31
0.0
  0
LINE
  5
5B6
100
AcDbEntity
  8
0
370
    -3
390
0
  6
Continuous
100
AcDbLine
 10
-811.445186
 20
211.24862
 30
0.0
 11
-691.125409
 21
211.24862
 31
0.0
  0
LINE
  5
5B7
100
AcDbEntity
  8
0
370
    -3
390
0
  6
Continuous
100
AcDbLine
 10
-811.606236
 20
202.894232
 30
0.0
 11
-690.964358
 21
202.894232
 31
0.0
  0
LINE
  5
5B8
100
AcDbEntity
  8
0
370
    -3
390
0
  6
Continuous
100
AcDbLine
 10
-812.672842
 20
215.991684
 30
0.0
 11
-689.897753
 21
215.991684
 31
0.0
  0
ARC
  5
5B9
100
AcDbEntity
  8
0
370
    -3
390
0
  6
Continuous
100
AcDbCircle
 10
-690.964358
 20
193.894232
 30
0.0
 40
9.0
100
AcDbArc
 50
12.259471
 51
90.0
  0
ARC
  5
5BA
100
AcDbEntity
  8
0
370
    -3
390
0
  6
Continuous
100
AcDbCircle
 10
-690.355337
 20
197.140036
 30
0.0
 40
11.0
100
AcDbArc
 50
13.419885
 51
90.0
  0
ARC
  5
5BB
100
AcDbEntity
  8
0
370
    -3
390
0
  6
Continuous
100
AcDbCircle
 10
-691.125409
 20
200.24862
 30
0.0
 40
11.0
100
AcDbArc
 50
14.40704
 51
90.0
  0
ARC
  5
5BC
100
AcDbEntity
  8
0
370
    -3
390
0
  6
Continuous
100
AcDbCircle
 10
-811.606236
 20
193.894232
 30
0.0
 40
9.0
100
AcDbArc
 50
90.0
 51
167.740529
  0
ARC
  5
5BD
100
AcDbEntity
  8
0
370
    -3
390
0
  6
Continuous
100
AcDbCircle
 10
-812.215258
 20
197.140036
 30
0.0
 40
11.0
100
AcDbArc
 50
90.0
 51
166.580115
  0
ARC
  5
5BE
100
AcDbEntity
  8
0
370
    -3
390
0
  6
Continuous
100
AcDbCircle
 10
-811.445186
 20
200.24862
 30
0.0
 40
11.0
100
AcDbArc
 50
90.0
 51
165.59296
  0
ARC
  5
5BF
100
AcDbEntity
  8
0
370
    -3
390
0
  6
Continuous
100
AcDbCircle
 10
-689.897753
 20
205.991684
 30
0.0
 40
10.0
100
AcDbArc
 50
7.706129
 51
90.0
  0
ARC
  5
5C0
100
AcDbEntity
  8
0
370
    -3
390
0
  6
Continuous
100
AcDbCircle
 10
-811.445186
 20
200.24862
 30
0.0
 40
11.0
100
AcDbArc
 50
90.0
 51
165.59296
  0
ARC
  5
5C1
100
AcDbEntity
  8
0
370
    -3
390
0
  6
Continuous
100
AcDbCircle
 10
-812.672842
 20
205.991684
 30
0.0
 40
10.0
100
AcDbArc
 50
90.0
 51
172.293871
  0
LINE
  5
5C2
100
AcDbEntity
  8
0
370
    -3
390
0
  6
Continuous
100
AcDbLine
 10
-677.862783
 20
191.388994
 30
0.0
 11
-679.988064
 21
207.332606
 31
0.0
  0
LINE
  5
5C3
100
AcDbEntity
  8
0
370
    -3
390
0
  6
Continuous
100
AcDbLine
 10
-824.707812
 20
191.388994
 30
0.0
 11
-822.582531
 21
207.332606
 31
0.0
  0
LINE
  5
5C4
100
AcDbEntity
  8
0
370
    -3
390
0
  6
Continuous
100
AcDbLine
 10
-556.285297
 20
273.381817
 30
0.0
 11
-692.285297
 21
273.381817
 31
0.0
  0
LINE
  5
5C5
100
AcDbEntity
  8
0
370
    -3
390
0
  6
Continuous
100
AcDbLine
 10
-556.285297
 20
276.04252
 30
0.0
 11
-692.285297
 21
276.04252
 31
0.0
  0
LINE
  5
5C6
100
AcDbEntity
  8
0
370
    -3
390
0
  6
Continuous
100
AcDbLine
 10
-692.285297
 20
273.381817
 30
0.0
 11
-724.285297
 21
283.660455
 31
0.0
  0
LINE
  5
5C7
100
AcDbEntity
  8
0
370
    -3
390
0
  6
Continuous
100
AcDbLine
 10
-724.285297
 20
286.321158
 30
0.0
 11
-692.285297
 21
276.04252
 31
0.0
  0
LINE
  5
5C8
100
AcDbEntity
  8
0
370
    -3
390
0
  6
Continuous
100
AcDbLine
 10
-724.285297
 20
283.660455
 30
0.0
 11
-724.285297
 21
290.052568
 31
0.0
  0
LINE
  5
5C9
100
AcDbEntity
  8
0
370
    -3
390
0
  6
Continuous
100
AcDbLine
 10
-692.285297
 20
276.04252
 30
0.0
 11
-692.285297
 21
273.381817
 31
0.0
  0
ARC
  5
5CA
100
AcDbEntity
  8
0
370
    -3
390
0
  6
Continuous
100
AcDbCircle
 10
-776.285297
 20
391.928976
 30
0.0
 40
4.0
100
AcDbArc
 50
0.0
 51
90.0
  0
LINE
  5
5CB
100
AcDbEntity
  8
0
370
    -3
390
0
  6
Continuous
100
AcDbLine
 10
-776.285297
 20
395.928976
 30
0.0
 11
-793.285297
 21
395.928976
 31
0.0
  0
ARC
  5
5CC
100
AcDbEntity
  8
0
370
    -3
390
0
  6
Continuous
100
AcDbCircle
 10
-894.285297
 20
477.043363
 30
0.0
 40
3.0
100
AcDbArc
 50
90.0
 51
180.0
  0
ARC
  5
5CD
100
AcDbEntity
  8
0
370
    -3
390
0
  6
Continuous
100
AcDbCircle
 10
-894.326431
 20
482.043363
 30
0.0
 40
2.0
100
AcDbArc
 50
270.0
 51
325.0
  0
ARC
  5
5CE
100
AcDbEntity
  8
0
370
    -3
390
0
  6
Continuous
100
AcDbCircle
 10
-793.285297
 20
399.928976
 30
0.0
 40
4.0
100
AcDbArc
 50
180.0
 51
270.0
  0
LINE
  5
5CF
100
AcDbEntity
  8
0
370
    -3
390
0
  6
Continuous
100
AcDbLine
 10
-833.880571
 20
516.543363
 30
0.0
 11
-868.285297
 21
516.543363
 31
0.0
  0
ARC
  5
5D0
100
AcDbEntity
  8
0
370
    -3
390
0
  6
Continuous
100
AcDbCircle
 10
-833.880571
 20
518.543363
 30
0.0
 40
2.0
100
AcDbArc
 50
270.0
 51
323.130102
  0
LINE
  5
5D1
100
AcDbEntity
  8
0
370
    -3
390
0
  6
Continuous
100
AcDbLine
 10
-772.285297
 20
518.543363
 30
0.0
 11
-772.285297
 21
510.156154
 31
0.0
  0
LINE
  5
5D2
100
AcDbEntity
  8
0
370
    -3
390
0
  6
Continuous
100
AcDbLine
 10
-772.285297
 20
518.543363
 30
0.0
 11
-829.880571
 21
518.543363
 31
0.0
  0
ARC
  5
5D3
100
AcDbEntity
  8
0
370
    -3
390
0
  6
Continuous
100
AcDbCircle
 10
-829.880571
 20
515.543363
 30
0.0
 40
3.0
100
AcDbArc
 50
90.0
 51
143.130102
  0
ARC
  5
5D4
100
AcDbEntity
  8
0
370
    -3
390
0
  6
Continuous
100
AcDbCircle
 10
-833.880571
 20
518.543363
 30
0.0
 40
2.0
100
AcDbArc
 50
270.0
 51
323.130102
  0
ARC
  5
5D5
100
AcDbEntity
  8
0
370
    -3
390
0
  6
Continuous
100
AcDbCircle
 10
-829.880571
 20
515.543363
 30
0.0
 40
3.0
100
AcDbArc
 50
90.0
 51
143.130102
  0
LINE
  5
5D6
100
AcDbEntity
  8
0
370
    -3
390
0
  6
Continuous
100
AcDbLine
 10
-772.285297
 20
518.543363
 30
0.0
 11
-829.880571
 21
518.543363
 31
0.0
  0
LINE
  5
5D7
100
AcDbEntity
  8
0
370
    -3
390
0
  6
Continuous
100
AcDbLine
 10
-772.285297
 20
510.156154
 30
0.0
 11
-772.285297
 21
497.388827
 31
0.0
  0
LINE
  5
5D8
100
AcDbEntity
  8
0
370
    -3
390
0
  6
Continuous
100
AcDbLine
 10
-772.285297
 20
497.388827
 30
0.0
 11
-772.285297
 21
488.648241
 31
0.0
  0
LINE
  5
5D9
100
AcDbEntity
  8
0
370
    -3
390
0
  6
Continuous
100
AcDbLine
 10
-772.285297
 20
481.335364
 30
0.0
 11
-772.285297
 21
488.648241
 31
0.0
  0
LINE
  5
5DA
100
AcDbEntity
  8
0
370
    -3
390
0
  6
Continuous
100
AcDbLine
 10
-871.827841
 20
510.687786
 30
0.0
 11
-892.688127
 21
480.89621
 31
0.0
  0
ARC
  5
5DB
100
AcDbEntity
  8
0
370
    -3
390
0
  6
Continuous
100
AcDbCircle
 10
-874.285297
 20
512.408515
 30
0.0
 40
3.0
100
AcDbArc
 50
325.0
 51
0.0
  0
ARC
  5
5DC
100
AcDbEntity
  8
0
370
    -3
390
0
  6
Continuous
100
AcDbCircle
 10
-868.285297
 20
513.543363
 30
0.0
 40
3.0
100
AcDbArc
 50
90.0
 51
180.0
  0
LINE
  5
5DD
100
AcDbEntity
  8
0
370
    -3
390
0
  6
Continuous
100
AcDbLine
 10
-813.285297
 20
500.88574
 30
0.0
 11
-808.285297
 21
502.329115
 31
0.0
  0
LINE
  5
5DE
100
AcDbEntity
  8
0
370
    -3
390
0
  6
Continuous
100
AcDbLine
 10
-810.738858
 20
509.388251
 30
0.0
 11
-772.285297
 21
509.388251
 31
0.0
  0
LINE
  5
5DF
100
AcDbEntity
  8
0
370
    -3
390
0
  6
Continuous
100
AcDbLine
 10
-808.285297
 20
508.679968
 30
0.0
 11
-813.285297
 21
510.123344
 31
0.0
  0
LINE
  5
5E0
100
AcDbEntity
  8
0
370
    -3
390
0
  6
Continuous
100
AcDbLine
 10
-808.285297
 20
505.793217
 30
0.0
 11
-808.285297
 21
508.679968
 31
0.0
  0
LINE
  5
5E1
100
AcDbEntity
  8
0
370
    -3
390
0
  6
Continuous
100
AcDbLine
 10
-813.285297
 20
504.349841
 30
0.0
 11
-808.285297
 21
505.793217
 31
0.0
  0
LINE
  5
5E2
100
AcDbEntity
  8
0
370
    -3
390
0
  6
Continuous
100
AcDbLine
 10
-808.285297
 20
502.329115
 30
0.0
 11
-808.285297
 21
505.793217
 31
0.0
  0
LINE
  5
5E3
100
AcDbEntity
  8
0
370
    -3
390
0
  6
CENTER
100
AcDbLine
 10
-813.285297
 20
512.582382
 30
0.0
 11
-813.285297
 21
498.035377
 31
0.0
  0
ARC
  5
5E4
100
AcDbEntity
  8
0
370
    -3
390
0
  6
Continuous
100
AcDbCircle
 10
-793.285297
 20
473.335364
 30
0.0
 40
4.0
100
AcDbArc
 50
90.0
 51
180.0
  0
LINE
  5
5E5
100
AcDbEntity
  8
0
370
    -3
390
0
  6
Continuous
100
AcDbLine
 10
-797.285297
 20
399.928976
 30
0.0
 11
-797.285297
 21
473.335364
 31
0.0
  0
LINE
  5
5E6
100
AcDbEntity
  8
0
370
    -3
390
0
  6
Continuous
100
AcDbLine
 10
-818.285297
 20
502.329115
 30
0.0
 11
-813.285297
 21
500.88574
 31
0.0
  0
LINE
  5
5E7
100
AcDbEntity
  8
0
370
    -3
390
0
  6
Continuous
100
AcDbLine
 10
-818.285297
 20
505.793217
 30
0.0
 11
-813.285297
 21
504.349841
 31
0.0
  0
LINE
  5
5E8
100
AcDbEntity
  8
0
370
    -3
390
0
  6
Continuous
100
AcDbLine
 10
-818.285297
 20
508.679968
 30
0.0
 11
-818.285297
 21
505.793217
 31
0.0
  0
LINE
  5
5E9
100
AcDbEntity
  8
0
370
    -3
390
0
  6
Continuous
100
AcDbLine
 10
-813.285297
 20
510.123344
 30
0.0
 11
-818.285297
 21
508.679968
 31
0.0
  0
LINE
  5
5EA
100
AcDbEntity
  8
0
370
    -3
390
0
  6
Continuous
100
AcDbLine
 10
-818.285297
 20
505.793217
 30
0.0
 11
-818.285297
 21
502.329115
 31
0.0
  0
ELLIPSE
  5
5EB
100
AcDbEntity
  8
0
370
    -3
390
0
  6
Continuous
100
AcDbEllipse
 10
-813.285297
 20
507.236593
 30
0.0
 11
5.0
 21
0.0
 31
0.0
210
0.0
220
0.0
230
1.0
 40
0.501013
 41
0.0
 42
6.2831853071795862
  0
LINE
  5
5EC
100
AcDbEntity
  8
0
370
    -3
390
0
  6
CENTER
100
AcDbLine
 10
-820.558799
 20
507.236593
 30
0.0
 11
-806.011794
 21
507.236593
 31
0.0
  0
LINE
  5
5ED
100
AcDbEntity
  8
0
370
    -3
390
0
  6
Continuous
100
AcDbLine
 10
-825.302635
 20
509.388251
 30
0.0
 11
-815.831735
 21
509.388251
 31
0.0
  0
ELLIPSE
  5
5EE
100
AcDbEntity
  8
0
370
    -3
390
0
  6
Continuous
100
AcDbEllipse
 10
-820.285297
 20
506.205858
 30
0.0
 11
7.0
 21
0.0
 31
0.0
210
0.0
220
0.0
230
1.0
 40
0.454628
 41
1.5721694153616843
 42
3.1415926535897931
  0
ARC
  5
5EF
100
AcDbEntity
  8
0
370
    -3
390
0
  6
Continuous
100
AcDbCircle
 10
-842.924659
 20
501.205858
 30
0.0
 40
15.639362
100
AcDbArc
 50
337.950598
 51
0.0
  0
ELLIPSE
  5
5F0
100
AcDbEntity
  8
0
370
    -3
390
0
  6
Continuous
100
AcDbEllipse
 10
-820.285297
 20
501.205858
 30
0.0
 11
7.0
 21
0.0
 31
0.0
210
0.0
220
0.0
230
1.0
 40
0.545372
 41
3.1415926535897931
 42
4.7123889803846897
  0
ARC
  5
5F1
100
AcDbEntity
  8
0
370
    -3
390
0
  6
Continuous
100
AcDbCircle
 10
-824.934707
 20
493.388251
 30
0.0
 40
4.0
100
AcDbArc
 50
90.0
 51
150.88103
  0
LINE
  5
5F2
100
AcDbEntity
  8
0
370
    -3
390
0
  6
Continuous
100
AcDbLine
 10
-828.429151
 20
495.334749
 30
0.0
 11
-831.285297
 21
490.207265
 31
0.0
  0
ARC
  5
5F3
100
AcDbEntity
  8
0
370
    -3
390
0
  6
Continuous
100
AcDbCircle
 10
-828.957829
 20
506.205858
 30
0.0
 40
1.672533
100
AcDbArc
 50
0.0
 51
73.610004
  0
LINE
  5
5F4
100
AcDbEntity
  8
0
370
    -3
390
0
  6
Continuous
100
AcDbLine
 10
-827.285297
 20
501.205858
 30
0.0
 11
-827.285297
 21
506.205858
 31
0.0
  0
ARC
  5
5F5
100
AcDbEntity
  8
0
370
    -3
390
0
  6
Continuous
100
AcDbCircle
 10
-825.302635
 20
505.388251
 30
0.0
 40
4.0
100
AcDbArc
 50
90.0
 51
142.732041
  0
LINE
  5
5F6
100
AcDbEntity
  8
0
370
    -3
390
0
  6
Continuous
100
AcDbLine
 10
-824.934707
 20
497.388251
 30
0.0
 11
-772.285297
 21
497.388251
 31
0.0
  0
LINE
  5
5F7
100
AcDbEntity
  8
0
370
    -3
390
0
  6
Continuous
100
AcDbLine
 10
-828.485884
 20
507.810425
 30
0.0
 11
-831.285297
 21
504.131404
 31
0.0
  0
LINE
  5
5F8
100
AcDbEntity
  8
0
370
    -3
390
0
  6
Continuous
100
AcDbLine
 10
-831.285297
 20
490.207265
 30
0.0
 11
-772.285297
 21
490.207265
 31
0.0
  0
ARC
  5
5F9
100
AcDbEntity
  8
0
370
    -3
390
0
  6
Continuous
100
AcDbCircle
 10
-776.285297
 20
481.335364
 30
0.0
 40
4.0
100
AcDbArc
 50
270.0
 51
0.0
  0
LINE
  5
5FA
100
AcDbEntity
  8
0
370
    -3
390
0
  6
Continuous
100
AcDbLine
 10
-793.285297
 20
477.335364
 30
0.0
 11
-776.285297
 21
477.335364
 31
0.0
  0
LINE
  5
5FB
100
AcDbEntity
  8
0
370
    -3
390
0
  6
Continuous
100
AcDbLine
 10
-791.285297
 20
412.023464
 30
0.0
 11
-791.285297
 21
406.308182
 31
0.0
  0
LINE
  5
5FC
100
AcDbEntity
  8
0
370
    -3
390
0
  6
Continuous
100
AcDbLine
 10
-791.285297
 20
421.248291
 30
0.0
 11
-791.285297
 21
427.706859
 31
0.0
  0
LINE
  5
5FD
100
AcDbEntity
  8
0
370
    -3
390
0
  6
Continuous
100
AcDbLine
 10
-759.285297
 20
418.275282
 30
0.0
 11
-759.285297
 21
415.263519
 31
0.0
  0
LINE
  5
5FE
100
AcDbEntity
  8
0
370
    -3
390
0
  6
Continuous
100
AcDbLine
 10
-791.285297
 20
409.011702
 30
0.0
 11
-759.285297
 21
415.263519
 31
0.0
  0
LINE
  5
5FF
100
AcDbEntity
  8
0
370
    -3
390
0
  6
Continuous
100
AcDbLine
 10
-759.285297
 20
418.275282
 30
0.0
 11
-791.285297
 21
412.023465
 31
0.0
  0
LINE
  5
600
100
AcDbEntity
  8
0
370
    -3
390
0
  6
Continuous
100
AcDbLine
 10
-759.285297
 20
433.176625
 30
0.0
 11
-759.285297
 21
436.034157
 31
0.0
  0
LINE
  5
601
100
AcDbEntity
  8
0
370
    -3
390
0
  6
Continuous
100
AcDbLine
 10
-791.285297
 20
424.849326
 30
0.0
 11
-759.285297
 21
433.176625
 31
0.0
  0
LINE
  5
602
100
AcDbEntity
  8
0
370
    -3
390
0
  6
Continuous
100
AcDbLine
 10
-759.285297
 20
436.034157
 30
0.0
 11
-791.285297
 21
427.706858
 31
0.0
  0
LINE
  5
603
100
AcDbEntity
  8
0
370
    -3
390
0
  6
Continuous
100
AcDbLine
 10
-772.285297
 20
516.043363
 30
0.0
 11
-770.285297
 21
518.043363
 31
0.0
  0
LINE
  5
604
100
AcDbEntity
  8
0
370
    -3
390
0
  6
Continuous
100
AcDbLine
 10
-770.285297
 20
518.043363
 30
0.0
 11
-765.796042
 21
518.043363
 31
0.0
  0
LINE
  5
605
100
AcDbEntity
  8
0
370
    -3
390
0
  6
Continuous
100
AcDbLine
 10
-759.285297
 20
519.300367
 30
0.0
 11
-759.285297
 21
518.676078
 31
0.0
  0
LINE
  5
606
100
AcDbEntity
  8
0
370
    -3
390
0
  6
Continuous
100
AcDbLine
 10
-759.285297
 20
514.119556
 30
0.0
 11
-759.285297
 21
513.083327
 31
0.0
  0
LINE
  5
607
100
AcDbEntity
  8
0
370
    -3
390
0
  6
Continuous
100
AcDbLine
 10
-759.285297
 20
521.590253
 30
0.0
 11
-772.285297
 21
514.09029
 31
0.0
  0
LINE
  5
608
100
AcDbEntity
  8
0
370
    -3
390
0
  6
Continuous
100
AcDbLine
 10
-772.285297
 20
514.29958
 30
0.0
 11
-759.285297
 21
521.799543
 31
0.0
  0
LINE
  5
609
100
AcDbEntity
  8
0
370
    -3
390
0
  6
Continuous
100
AcDbLine
 10
-759.285297
 20
521.590253
 30
0.0
 11
-759.285297
 21
521.799543
 31
0.0
  0
LINE
  5
60A
100
AcDbEntity
  8
0
370
    -3
390
0
  6
Continuous
100
AcDbLine
 10
-772.285297
 20
511.920834
 30
0.0
 11
-759.285297
 21
519.292471
 31
0.0
  0
LINE
  5
60B
100
AcDbEntity
  8
0
370
    -3
390
0
  6
Continuous
100
AcDbLine
 10
-759.285297
 20
518.668182
 30
0.0
 11
-772.285297
 21
511.296545
 31
0.0
  0
LINE
  5
60C
100
AcDbEntity
  8
0
370
    -3
390
0
  6
Continuous
100
AcDbLine
 10
-759.285297
 20
514.111933
 30
0.0
 11
-772.285297
 21
506.994753
 31
0.0
  0
LINE
  5
60D
100
AcDbEntity
  8
0
370
    -3
390
0
  6
Continuous
100
AcDbLine
 10
-759.285297
 20
513.083327
 30
0.0
 11
-772.285297
 21
505.966147
 31
0.0
  0
LINE
  5
60E
100
AcDbEntity
  8
0
370
    -3
390
0
  6
Continuous
100
AcDbLine
 10
-759.285297
 20
506.34657
 30
0.0
 11
-772.285297
 21
499.605624
 31
0.0
  0
LINE
  5
60F
100
AcDbEntity
  8
0
370
    -3
390
0
  6
Continuous
100
AcDbLine
 10
-759.285297
 20
504.931246
 30
0.0
 11
-772.285297
 21
498.190301
 31
0.0
  0
LINE
  5
610
100
AcDbEntity
  8
0
370
    -3
390
0
  6
Continuous
100
AcDbLine
 10
-772.285297
 20
481.162674
 30
0.0
 11
-723.418902
 21
481.162674
 31
0.0
  0
LINE
  5
611
100
AcDbEntity
  8
0
370
    -3
390
0
  6
Continuous
100
AcDbLine
 10
-759.285297
 20
506.34657
 30
0.0
 11
-759.285297
 21
504.931246
 31
0.0
  0
LINE
  5
612
100
AcDbEntity
  8
0
370
    -3
390
0
  6
Continuous
100
AcDbLine
 10
-556.285297
 20
452.704908
 30
0.0
 11
-692.285297
 21
452.704908
 31
0.0
  0
LINE
  5
613
100
AcDbEntity
  8
0
370
    -3
390
0
  6
Continuous
100
AcDbLine
 10
-556.285297
 20
450.044206
 30
0.0
 11
-692.285297
 21
450.044206
 31
0.0
  0
LINE
  5
614
100
AcDbEntity
  8
0
370
    -3
390
0
  6
Continuous
100
AcDbLine
 10
-692.285297
 20
452.704908
 30
0.0
 11
-724.285297
 21
442.42627
 31
0.0
  0
LINE
  5
615
100
AcDbEntity
  8
0
370
    -3
390
0
  6
Continuous
100
AcDbLine
 10
-724.285297
 20
439.765567
 30
0.0
 11
-692.285297
 21
450.044206
 31
0.0
  0
LINE
  5
616
100
AcDbEntity
  8
0
370
    -3
390
0
  6
Continuous
100
AcDbLine
 10
-724.285297
 20
442.42627
 30
0.0
 11
-724.285297
 21
436.034157
 31
0.0
  0
LINE
  5
617
100
AcDbEntity
  8
0
370
    -3
390
0
  6
Continuous
100
AcDbLine
 10
-692.285297
 20
450.044206
 30
0.0
 11
-692.285297
 21
452.704908
 31
0.0
  0
LINE
  5
618
100
AcDbEntity
  8
0
370
    -3
390
0
  6
Continuous
100
AcDbLine
 10
-556.285297
 20
466.671095
 30
0.0
 11
-692.285297
 21
466.671095
 31
0.0
  0
LINE
  5
619
100
AcDbEntity
  8
0
370
    -3
390
0
  6
Continuous
100
AcDbLine
 10
-556.285297
 20
469.076983
 30
0.0
 11
-692.285297
 21
469.076983
 31
0.0
  0
LINE
  5
61A
100
AcDbEntity
  8
0
370
    -3
390
0
  6
Continuous
100
AcDbLine
 10
-692.285297
 20
469.076983
 30
0.0
 11
-724.285297
 21
456.878386
 31
0.0
  0
LINE
  5
61B
100
AcDbEntity
  8
0
370
    -3
390
0
  6
Continuous
100
AcDbLine
 10
-724.285297
 20
454.472499
 30
0.0
 11
-692.285297
 21
466.671095
 31
0.0
  0
LINE
  5
61C
100
AcDbEntity
  8
0
370
    -3
390
0
  6
Continuous
100
AcDbLine
 10
-724.285297
 20
456.878386
 30
0.0
 11
-724.285297
 21
449.19737
 31
0.0
  0
LINE
  5
61D
100
AcDbEntity
  8
0
370
    -3
390
0
  6
Continuous
100
AcDbLine
 10
-724.285297
 20
449.19737
 30
0.0
 11
-703.205153
 21
449.19737
 31
0.0
  0
LINE
  5
61E
100
AcDbEntity
  8
0
370
    -3
390
0
  6
Continuous
100
AcDbLine
 10
-692.285297
 20
466.671095
 30
0.0
 11
-692.285297
 21
469.076983
 31
0.0
  0
LINE
  5
61F
100
AcDbEntity
  8
0
370
    -3
390
0
  6
Continuous
100
AcDbLine
 10
-643.285297
 20
368.043363
 30
0.0
 11
-643.285297
 21
382.043363
 31
0.0
  0
LINE
  5
620
100
AcDbEntity
  8
0
370
    -3
390
0
  6
Continuous
100
AcDbLine
 10
-624.285297
 20
343.043363
 30
0.0
 11
-606.285297
 21
343.043363
 31
0.0
  0
LINE
  5
621
100
AcDbEntity
  8
0
370
    -3
390
0
  6
Continuous
100
AcDbLine
 10
-624.285297
 20
383.043363
 30
0.0
 11
-606.285297
 21
383.043363
 31
0.0
  0
ARC
  5
622
100
AcDbEntity
  8
0
370
    -3
390
0
  6
Continuous
100
AcDbCircle
 10
-642.285297
 20
382.043363
 30
0.0
 40
1.0
100
AcDbArc
 50
90.0
 51
180.0
  0
ARC
  5
623
100
AcDbEntity
  8
0
370
    -3
390
0
  6
Continuous
100
AcDbCircle
 10
-642.285297
 20
344.043363
 30
0.0
 40
1.0
100
AcDbArc
 50
180.0
 51
270.0
  0
LINE
  5
624
100
AcDbEntity
  8
0
370
    -3
390
0
  6
Continuous
100
AcDbLine
 10
-643.285297
 20
344.043363
 30
0.0
 11
-643.285297
 21
358.043363
 31
0.0
  0
LINE
  5
625
100
AcDbEntity
  8
0
370
    -3
390
0
  6
Continuous
100
AcDbLine
 10
-642.285297
 20
343.043363
 30
0.0
 11
-624.285297
 21
343.043363
 31
0.0
  0
LINE
  5
626
100
AcDbEntity
  8
0
370
    -3
390
0
  6
Continuous
100
AcDbLine
 10
-642.285297
 20
383.043363
 30
0.0
 11
-624.285297
 21
383.043363
 31
0.0
  0
ARC
  5
627
100
AcDbEntity
  8
0
370
    -3
390
0
  6
Continuous
100
AcDbCircle
 10
-624.285297
 20
363.043363
 30
0.0
 40
18.0
100
AcDbArc
 50
16.12762
 51
163.87238
  0
ARC
  5
628
100
AcDbEntity
  8
0
370
    -3
390
0
  6
Continuous
100
AcDbCircle
 10
-624.285297
 20
363.043363
 30
0.0
 40
18.0
100
AcDbArc
 50
196.12762
 51
343.87238
  0
ARC
  5
629
100
AcDbEntity
  8
0
370
    -3
390
0
  6
Continuous
100
AcDbCircle
 10
-624.285297
 20
363.043363
 30
0.0
 40
12.5
100
AcDbArc
 50
23.578178
 51
156.421822
  0
ARC
  5
62A
100
AcDbEntity
  8
0
370
    -3
390
0
  6
Continuous
100
AcDbCircle
 10
-644.285297
 20
363.043363
 30
0.0
 40
5.0
100
AcDbArc
 50
90.0
 51
270.0
  0
LINE
  5
62B
100
AcDbEntity
  8
0
370
    -3
390
0
  6
Continuous
100
AcDbLine
 10
-604.285297
 20
358.043363
 30
0.0
 11
-644.285297
 21
358.043363
 31
0.0
  0
ARC
  5
62C
100
AcDbEntity
  8
0
370
    -3
390
0
  6
Continuous
100
AcDbCircle
 10
-624.285297
 20
363.043363
 30
0.0
 40
12.5
100
AcDbArc
 50
203.578178
 51
336.421822
  0
LINE
  5
62D
100
AcDbEntity
  8
0
370
    -3
390
0
  6
Continuous
100
AcDbLine
 10
-605.285297
 20
368.043363
 30
0.0
 11
-605.285297
 21
382.043363
 31
0.0
  0
ARC
  5
62E
100
AcDbEntity
  8
0
370
    -3
390
0
  6
Continuous
100
AcDbCircle
 10
-606.285297
 20
382.043363
 30
0.0
 40
1.0
100
AcDbArc
 50
0.0
 51
90.0
  0
ARC
  5
62F
100
AcDbEntity
  8
0
370
    -3
390
0
  6
Continuous
100
AcDbCircle
 10
-606.285297
 20
344.043363
 30
0.0
 40
1.0
100
AcDbArc
 50
270.0
 51
0.0
  0
LINE
  5
630
100
AcDbEntity
  8
0
370
    -3
390
0
  6
Continuous
100
AcDbLine
 10
-605.285297
 20
344.043363
 30
0.0
 11
-605.285297
 21
358.043363
 31
0.0
  0
ARC
  5
631
100
AcDbEntity
  8
0
370
    -3
390
0
  6
Continuous
100
AcDbCircle
 10
-604.285297
 20
363.043363
 30
0.0
 40
5.0
100
AcDbArc
 50
270.0
 51
90.0
  0
LINE
  5
632
100
AcDbEntity
  8
0
370
    -3
390
0
  6
Continuous
100
AcDbLine
 10
-331.285297
 20
543.043363
 30
0.0
 11
-331.285297
 21
540.700217
 31
0.0
  0
LINE
  5
633
100
AcDbEntity
  8
0
370
    -3
390
0
  6
Continuous
100
AcDbLine
 10
-331.285297
 20
540.700217
 30
0.0
 11
-331.285297
 21
529.386508
 31
0.0
  0
LINE
  5
634
100
AcDbEntity
  8
0
370
    -3
390
0
  6
Continuous
100
AcDbLine
 10
-331.285297
 20
529.386508
 30
0.0
 11
-331.285297
 21
523.729654
 31
0.0
  0
LINE
  5
635
100
AcDbEntity
  8
0
370
    -3
390
0
  6
Continuous
100
AcDbLine
 10
-331.285297
 20
523.729654
 30
0.0
 11
-331.285297
 21
502.452832
 31
0.0
  0
LINE
  5
636
100
AcDbEntity
  8
0
370
    -3
390
0
  6
Continuous
100
AcDbLine
 10
-331.285297
 20
502.452832
 30
0.0
 11
-331.285297
 21
494.598777
 31
0.0
  0
LINE
  5
637
100
AcDbEntity
  8
0
370
    -3
390
0
  6
Continuous
100
AcDbLine
 10
-331.285297
 20
494.598777
 30
0.0
 11
-331.285297
 21
480.961991
 31
0.0
  0
LINE
  5
638
100
AcDbEntity
  8
0
370
    -3
390
0
  6
Continuous
100
AcDbLine
 10
-331.285297
 20
480.961991
 30
0.0
 11
-331.285297
 21
462.394766
 31
0.0
  0
LINE
  5
639
100
AcDbEntity
  8
0
370
    -3
390
0
  6
Continuous
100
AcDbLine
 10
-331.285297
 20
462.394766
 30
0.0
 11
-331.285297
 21
446.490612
 31
0.0
  0
LINE
  5
63A
100
AcDbEntity
  8
0
370
    -3
390
0
  6
Continuous
100
AcDbLine
 10
-331.285297
 20
446.490612
 30
0.0
 11
-331.285297
 21
411.217236
 31
0.0
  0
LINE
  5
63B
100
AcDbEntity
  8
0
370
    -3
390
0
  6
Continuous
100
AcDbLine
 10
-312.285297
 20
480.961991
 30
0.0
 11
-312.285297
 21
462.394766
 31
0.0
  0
LINE
  5
63C
100
AcDbEntity
  8
0
370
    -3
390
0
  6
Continuous
100
AcDbLine
 10
-312.285297
 20
494.598777
 30
0.0
 11
-312.285297
 21
480.961991
 31
0.0
  0
LINE
  5
63D
100
AcDbEntity
  8
0
370
    -3
390
0
  6
Continuous
100
AcDbLine
 10
-312.285297
 20
502.452832
 30
0.0
 11
-312.285297
 21
494.598777
 31
0.0
  0
LINE
  5
63E
100
AcDbEntity
  8
0
370
    -3
390
0
  6
Continuous
100
AcDbLine
 10
-331.285297
 20
411.217236
 30
0.0
 11
-312.285297
 21
411.217236
 31
0.0
  0
LINE
  5
63F
100
AcDbEntity
  8
0
370
    -3
390
0
  6
Continuous
100
AcDbLine
 10
-331.285297
 20
462.394766
 30
0.0
 11
-312.285297
 21
462.394766
 31
0.0
  0
LINE
  5
640
100
AcDbEntity
  8
0
370
    -3
390
0
  6
Continuous
100
AcDbLine
 10
-331.285297
 20
494.598777
 30
0.0
 11
-312.285297
 21
494.598777
 31
0.0
  0
LINE
  5
641
100
AcDbEntity
  8
0
370
    -3
390
0
  6
Continuous
100
AcDbLine
 10
-331.285297
 20
502.452832
 30
0.0
 11
-312.285297
 21
502.452832
 31
0.0
  0
LINE
  5
642
100
AcDbEntity
  8
0
370
    -3
390
0
  6
Continuous
100
AcDbLine
 10
-427.285297
 20
507.117789
 30
0.0
 11
-427.285297
 21
507.441484
 31
0.0
  0
LINE
  5
643
100
AcDbEntity
  8
0
370
    -3
390
0
  6
Continuous
100
AcDbLine
 10
-312.285297
 20
480.961991
 30
0.0
 11
-331.285297
 21
480.961991
 31
0.0
  0
LINE
  5
644
100
AcDbEntity
  8
0
370
    -3
390
0
  6
Continuous
100
AcDbLine
 10
-331.285297
 20
245.124734
 30
0.0
 11
-331.285297
 21
231.487948
 31
0.0
  0
LINE
  5
645
100
AcDbEntity
  8
0
370
    -3
390
0
  6
Continuous
100
AcDbLine
 10
-331.285297
 20
231.487948
 30
0.0
 11
-331.285297
 21
223.633894
 31
0.0
  0
LINE
  5
646
100
AcDbEntity
  8
0
370
    -3
390
0
  6
Continuous
100
AcDbLine
 10
-331.285297
 20
223.633894
 30
0.0
 11
-331.285297
 21
202.357071
 31
0.0
  0
LINE
  5
647
100
AcDbEntity
  8
0
370
    -3
390
0
  6
Continuous
100
AcDbLine
 10
-331.285297
 20
202.357071
 30
0.0
 11
-331.285297
 21
196.700217
 31
0.0
  0
LINE
  5
648
100
AcDbEntity
  8
0
370
    -3
390
0
  6
Continuous
100
AcDbLine
 10
-331.285297
 20
196.700217
 30
0.0
 11
-331.285297
 21
185.386508
 31
0.0
  0
LINE
  5
649
100
AcDbEntity
  8
0
370
    -3
390
0
  6
Continuous
100
AcDbLine
 10
-331.285297
 20
185.386508
 30
0.0
 11
-331.285297
 21
183.043363
 31
0.0
  0
LINE
  5
64A
100
AcDbEntity
  8
0
370
    -3
390
0
  6
Continuous
100
AcDbLine
 10
-331.285297
 20
279.596113
 30
0.0
 11
-331.285297
 21
263.691959
 31
0.0
  0
LINE
  5
64B
100
AcDbEntity
  8
0
370
    -3
390
0
  6
Continuous
100
AcDbLine
 10
-331.285297
 20
263.691959
 30
0.0
 11
-331.285297
 21
245.124734
 31
0.0
  0
LINE
  5
64C
100
AcDbEntity
  8
0
370
    -3
390
0
  6
Continuous
100
AcDbLine
 10
-312.285297
 20
263.691959
 30
0.0
 11
-312.285297
 21
245.124734
 31
0.0
  0
LINE
  5
64D
100
AcDbEntity
  8
0
370
    -3
390
0
  6
Continuous
100
AcDbLine
 10
-312.285297
 20
231.487948
 30
0.0
 11
-312.285297
 21
223.633894
 31
0.0
  0
LINE
  5
64E
100
AcDbEntity
  8
0
370
    -3
390
0
  6
Continuous
100
AcDbLine
 10
-312.285297
 20
245.124734
 30
0.0
 11
-312.285297
 21
231.487948
 31
0.0
  0
LINE
  5
64F
100
AcDbEntity
  8
0
370
    -3
390
0
  6
Continuous
100
AcDbLine
 10
-331.285297
 20
263.691959
 30
0.0
 11
-312.285297
 21
263.691959
 31
0.0
  0
LINE
  5
650
100
AcDbEntity
  8
0
370
    -3
390
0
  6
Continuous
100
AcDbLine
 10
-331.285297
 20
223.633894
 30
0.0
 11
-312.285297
 21
223.633894
 31
0.0
  0
LINE
  5
651
100
AcDbEntity
  8
0
370
    -3
390
0
  6
Continuous
100
AcDbLine
 10
-331.285297
 20
231.487948
 30
0.0
 11
-312.285297
 21
231.487948
 31
0.0
  0
LINE
  5
652
100
AcDbEntity
  8
0
370
    -3
390
0
  6
Continuous
100
AcDbLine
 10
-427.285297
 20
229.543363
 30
0.0
 11
-427.285297
 21
219.50805
 31
0.0
  0
LINE
  5
653
100
AcDbEntity
  8
0
370
    -3
390
0
  6
Continuous
100
AcDbLine
 10
-427.285297
 20
219.50805
 30
0.0
 11
-427.285297
 21
218.645242
 31
0.0
  0
LINE
  5
654
100
AcDbEntity
  8
0
370
    -3
390
0
  6
Continuous
100
AcDbLine
 10
-331.285297
 20
245.124734
 30
0.0
 11
-312.285297
 21
245.124734
 31
0.0
  0
LINE
  5
655
100
AcDbEntity
  8
0
370
    -3
390
0
  6
Continuous
100
AcDbLine
 10
-427.285297
 20
238.043363
 30
0.0
 11
-331.285297
 21
238.043363
 31
0.0
  0
INSERT
  5
666
100
AcDbEntity
  8
0
390
0
100
AcDbBlockReference
  2
ZU_SYM_K__CAD_SYM_POO_SYM_B21_0000620
 10
-331.285297
 20
519.043363
 30
0.0
  0
LINE
  5
667
100
AcDbEntity
  8
0
370
    -3
390
0
  6
CENTER
100
AcDbLine
 10
-320.981902
 20
519.043363
 30
0.0
 11
-348.153329
 21
519.043363
 31
0.0
  0
LINE
  5
668
100
AcDbEntity
  8
0
370
    -3
390
0
  6
CENTER
100
AcDbLine
 10
-322.311854
 20
428.507024
 30
0.0
 11
-348.153329
 21
428.507024
 31
0.0
  0
LINE
  5
669
100
AcDbEntity
  8
0
370
    -3
390
0
  6
CENTER
100
AcDbLine
 10
-320.981902
 20
297.579701
 30
0.0
 11
-348.153329
 21
297.579701
 31
0.0
  0
LINE
  5
66A
100
AcDbEntity
  8
0
370
    -3
390
0
  6
CENTER
100
AcDbLine
 10
-320.538585
 20
207.043363
 30
0.0
 11
-348.153329
 21
207.043363
 31
0.0
  0
INSERT
  5
67B
100
AcDbEntity
  8
0
390
0
100
AcDbBlockReference
  2
ZU_SYM_K__CAD_SYM_POO_SYM_B21_0000720
 10
-331.285297
 20
428.507024
 30
0.0
  0
INSERT
  5
68C
100
AcDbEntity
  8
0
390
0
100
AcDbBlockReference
  2
ZU_SYM_K__CAD_SYM_POO_SYM_B21_0000820
 10
-331.285297
 20
297.579701
 30
0.0
  0
INSERT
  5
69D
100
AcDbEntity
  8
0
390
0
100
AcDbBlockReference
  2
ZU_SYM_K__CAD_SYM_POO_SYM_B21_0000920
 10
-331.285297
 20
207.043363
 30
0.0
  0
LINE
  5
69E
100
AcDbEntity
  8
0
370
    -3
390
0
  6
Continuous
100
AcDbLine
 10
-331.285297
 20
411.217236
 30
0.0
 11
-331.285297
 21
383.954603
 31
0.0
  0
LINE
  5
69F
100
AcDbEntity
  8
0
370
    -3
390
0
  6
Continuous
100
AcDbLine
 10
-331.285297
 20
383.954603
 30
0.0
 11
-331.285297
 21
383.043363
 31
0.0
  0
LINE
  5
6A0
100
AcDbEntity
  8
0
370
    -3
390
0
  6
Continuous
100
AcDbLine
 10
-331.285297
 20
342.132123
 30
0.0
 11
-331.285297
 21
314.869489
 31
0.0
  0
LINE
  5
6A1
100
AcDbEntity
  8
0
370
    -3
390
0
  6
Continuous
100
AcDbLine
 10
-312.285297
 20
342.132123
 30
0.0
 11
-312.285297
 21
314.869489
 31
0.0
  0
LINE
  5
6A2
100
AcDbEntity
  8
0
370
    -3
390
0
  6
Continuous
100
AcDbLine
 10
-312.285297
 20
383.954603
 30
0.0
 11
-312.285297
 21
383.043363
 31
0.0
  0
LINE
  5
6A3
100
AcDbEntity
  8
0
370
    -3
390
0
  6
Continuous
100
AcDbLine
 10
-312.285297
 20
411.217236
 30
0.0
 11
-312.285297
 21
383.954603
 31
0.0
  0
LINE
  5
6A4
100
AcDbEntity
  8
0
370
    -3
390
0
  6
Continuous
100
AcDbLine
 10
-331.285297
 20
314.869489
 30
0.0
 11
-312.285297
 21
314.869489
 31
0.0
  0
LINE
  5
6A5
100
AcDbEntity
  8
0
370
    -3
390
0
  6
Continuous
100
AcDbLine
 10
-331.285297
 20
342.132123
 30
0.0
 11
-312.285297
 21
342.132123
 31
0.0
  0
LINE
  5
6A6
100
AcDbEntity
  8
0
370
    -3
390
0
  6
Continuous
100
AcDbLine
 10
-331.285297
 20
383.954603
 30
0.0
 11
-312.285297
 21
383.954603
 31
0.0
  0
LINE
  5
6A7
100
AcDbEntity
  8
0
370
    -3
390
0
  6
Continuous
100
AcDbLine
 10
-312.285297
 20
343.043363
 30
0.0
 11
-312.285297
 21
342.132123
 31
0.0
  0
LINE
  5
6A8
100
AcDbEntity
  8
0
370
    -3
390
0
  6
Continuous
100
AcDbLine
 10
-331.285297
 20
343.043363
 30
0.0
 11
-331.285297
 21
342.132123
 31
0.0
  0
LINE
  5
6A9
100
AcDbEntity
  8
0
370
    -3
390
0
  6
Continuous
100
AcDbLine
 10
-350.285297
 20
383.043363
 30
0.0
 11
-312.285297
 21
383.043363
 31
0.0
  0
LINE
  5
6AA
100
AcDbEntity
  8
0
370
    -3
390
0
  6
Continuous
100
AcDbLine
 10
-312.285297
 20
383.043363
 30
0.0
 11
-312.285297
 21
343.043363
 31
0.0
  0
LINE
  5
6AB
100
AcDbEntity
  8
0
370
    -3
390
0
  6
Continuous
100
AcDbLine
 10
-312.285297
 20
343.043363
 30
0.0
 11
-350.285297
 21
343.043363
 31
0.0
  0
LINE
  5
6AC
100
AcDbEntity
  8
0
370
    -3
390
0
  6
Continuous
100
AcDbLine
 10
-331.285297
 20
314.869489
 30
0.0
 11
-331.285297
 21
279.596113
 31
0.0
  0
ARC
  5
6AD
100
AcDbEntity
  8
0
370
    -3
390
0
  6
Continuous
100
AcDbCircle
 10
-350.285297
 20
363.043363
 30
0.0
 40
20.0
100
AcDbArc
 50
90.0
 51
156.421822
  0
ARC
  5
6AE
100
AcDbEntity
  8
0
370
    -3
390
0
  6
Continuous
100
AcDbCircle
 10
-350.285297
 20
363.043363
 30
0.0
 40
20.0
100
AcDbArc
 50
203.578178
 51
270.0
  0
LINE
  5
6AF
100
AcDbEntity
  8
0
370
    -3
390
0
  6
CENTER
100
AcDbLine
 10
-350.285297
 20
347.116532
 30
0.0
 11
-350.285297
 21
378.763747
 31
0.0
  0
LINE
  5
6B0
100
AcDbEntity
  8
0
370
    -3
390
0
  6
Continuous
100
AcDbLine
 10
-322.285297
 20
371.043363
 30
0.0
 11
-378.285297
 21
371.043363
 31
0.0
  0
ARC
  5
6B1
100
AcDbEntity
  8
0
370
    -3
390
0
  6
Continuous
100
AcDbCircle
 10
-378.285297
 20
363.043363
 30
0.0
 40
8.0
100
AcDbArc
 50
90.0
 51
270.0
  0
LINE
  5
6B2
100
AcDbEntity
  8
0
370
    -3
390
0
  6
Continuous
100
AcDbLine
 10
-322.285297
 20
355.043363
 30
0.0
 11
-378.285297
 21
355.043363
 31
0.0
  0
ARC
  5
6B3
100
AcDbEntity
  8
0
370
    -3
390
0
  6
Continuous
100
AcDbCircle
 10
-350.285297
 20
363.043363
 30
0.0
 40
8.647
100
AcDbArc
 50
247.694964
 51
292.305036
  0
ARC
  5
6B4
100
AcDbEntity
  8
0
370
    -3
390
0
  6
Continuous
100
AcDbCircle
 10
-350.285297
 20
363.043363
 30
0.0
 40
10.0
100
AcDbArc
 50
233.130102
 51
306.869898
  0
ARC
  5
6B5
100
AcDbEntity
  8
0
370
    -3
390
0
  6
Continuous
100
AcDbCircle
 10
-350.285297
 20
363.043363
 30
0.0
 40
8.647
100
AcDbArc
 50
67.694964
 51
112.305036
  0
ARC
  5
6B6
100
AcDbEntity
  8
0
370
    -3
390
0
  6
Continuous
100
AcDbCircle
 10
-350.285297
 20
363.043363
 30
0.0
 40
10.0
100
AcDbArc
 50
53.130102
 51
126.869898
  0
ARC
  5
6B7
100
AcDbEntity
  8
0
370
    -3
390
0
  6
Continuous
100
AcDbCircle
 10
-322.285297
 20
363.043363
 30
0.0
 40
8.0
100
AcDbArc
 50
270.0
 51
90.0
  0
LINE
  5
6B8
100
AcDbEntity
  8
0
370
    -3
390
0
  6
Continuous
100
AcDbLine
 10
-427.285297
 20
471.105545
 30
0.0
 11
-427.285297
 21
465.992003
 31
0.0
  0
LINE
  5
6B9
100
AcDbEntity
  8
0
370
    -3
390
0
  6
Continuous
100
AcDbLine
 10
-427.285297
 20
507.117789
 30
0.0
 11
-427.285297
 21
498.27557
 31
0.0
  0
LINE
  5
6BA
100
AcDbEntity
  8
0
370
    -3
390
0
  6
Continuous
100
AcDbLine
 10
-427.285297
 20
498.27557
 30
0.0
 11
-427.285297
 21
495.008844
 31
0.0
  0
LINE
  5
6BB
100
AcDbEntity
  8
0
370
    -3
390
0
  6
Continuous
100
AcDbLine
 10
-427.285297
 20
495.008844
 30
0.0
 11
-427.285297
 21
471.105545
 31
0.0
  0
LINE
  5
6BC
100
AcDbEntity
  8
0
370
    -3
390
0
  6
Continuous
100
AcDbLine
 10
-331.285297
 20
488.043363
 30
0.0
 11
-427.285297
 21
488.043363
 31
0.0
  0
INSERT
  5
6CD
100
AcDbEntity
  8
0
390
0
100
AcDbBlockReference
  2
ZU_SYM_K__CAD_SYM_POO_SYM_B21_0001020
 10
-427.285297
 20
486.884994
 30
0.0
 50
180.0
  0
LINE
  5
6CE
100
AcDbEntity
  8
0
370
    -3
390
0
  6
Continuous
100
AcDbLine
 10
-427.285297
 20
316.383776
 30
0.0
 11
-427.285297
 21
311.127344
 31
0.0
  0
LINE
  5
6CF
100
AcDbEntity
  8
0
370
    -3
390
0
  6
Continuous
100
AcDbLine
 10
-427.285297
 20
311.127344
 30
0.0
 11
-427.285297
 21
293.532902
 31
0.0
  0
LINE
  5
6D0
100
AcDbEntity
  8
0
370
    -3
390
0
  6
Continuous
100
AcDbLine
 10
-427.285297
 20
293.532902
 30
0.0
 11
-427.285297
 21
290.072069
 31
0.0
  0
LINE
  5
6D1
100
AcDbEntity
  8
0
370
    -3
390
0
  6
Continuous
100
AcDbLine
 10
-427.285297
 20
290.072069
 30
0.0
 11
-427.285297
 21
274.756897
 31
0.0
  0
LINE
  5
6D2
100
AcDbEntity
  8
0
370
    -3
390
0
  6
Continuous
100
AcDbLine
 10
-427.285297
 20
274.756897
 30
0.0
 11
-427.285297
 21
273.396893
 31
0.0
  0
LINE
  5
6D3
100
AcDbEntity
  8
0
370
    -3
390
0
  6
Continuous
100
AcDbLine
 10
-427.285297
 20
273.396893
 30
0.0
 11
-427.285297
 21
229.543363
 31
0.0
  0
INSERT
  5
6E4
100
AcDbEntity
  8
0
390
0
100
AcDbBlockReference
  2
ZU_SYM_K__CAD_SYM_POO_SYM_B21_0001120
 10
-427.285297
 20
291.543361
 30
0.0
 50
180.0
  0
LINE
  5
6E5
100
AcDbEntity
  8
0
370
    -3
390
0
  6
Continuous
100
AcDbLine
 10
-427.285297
 20
465.992003
 30
0.0
 11
-427.285297
 21
316.383776
 31
0.0
  0
LINE
  5
6E6
100
AcDbEntity
  8
0
370
    -3
390
0
  6
Continuous
100
AcDbLine
 10
-442.285297
 20
507.117789
 30
0.0
 11
-442.285297
 21
507.441484
 31
0.0
  0
LINE
  5
6E7
100
AcDbEntity
  8
0
370
    -3
390
0
  6
Continuous
100
AcDbLine
 10
-442.285297
 20
507.117789
 30
0.0
 11
-427.285297
 21
507.117789
 31
0.0
  0
LINE
  5
6E8
100
AcDbEntity
  8
0
370
    -3
390
0
  6
Continuous
100
AcDbLine
 10
-427.285297
 20
507.441484
 30
0.0
 11
-442.285297
 21
507.441484
 31
0.0
  0
LINE
  5
6E9
100
AcDbEntity
  8
0
370
    -3
390
0
  6
Continuous
100
AcDbLine
 10
-442.285297
 20
229.543363
 30
0.0
 11
-442.285297
 21
219.50805
 31
0.0
  0
LINE
  5
6EA
100
AcDbEntity
  8
0
370
    -3
390
0
  6
Continuous
100
AcDbLine
 10
-442.285297
 20
219.50805
 30
0.0
 11
-427.285297
 21
219.50805
 31
0.0
  0
LINE
  5
6EB
100
AcDbEntity
  8
0
370
    -3
390
0
  6
Continuous
100
AcDbLine
 10
-442.285297
 20
219.50805
 30
0.0
 11
-442.285297
 21
218.645242
 31
0.0
  0
LINE
  5
6EC
100
AcDbEntity
  8
0
370
    -3
390
0
  6
Continuous
100
AcDbLine
 10
-442.285297
 20
229.543363
 30
0.0
 11
-427.285297
 21
229.543363
 31
0.0
  0
LINE
  5
6ED
100
AcDbEntity
  8
0
370
    -3
390
0
  6
Continuous
100
AcDbLine
 10
-442.285297
 20
218.645242
 30
0.0
 11
-427.285297
 21
218.645242
 31
0.0
  0
LINE
  5
6EE
100
AcDbEntity
  8
0
370
    -3
390
0
  6
Continuous
100
AcDbLine
 10
-457.285297
 20
244.924051
 30
0.0
 11
-457.285297
 21
222.74863
 31
0.0
  0
LINE
  5
6EF
100
AcDbEntity
  8
0
370
    -3
390
0
  6
Continuous
100
AcDbLine
 10
-457.285297
 20
230.543363
 30
0.0
 11
-442.285297
 21
230.543363
 31
0.0
  0
LINE
  5
6F0
100
AcDbEntity
  8
0
370
    -3
390
0
  6
Continuous
100
AcDbLine
 10
-457.285297
 20
412.023464
 30
0.0
 11
-457.285297
 21
406.308182
 31
0.0
  0
LINE
  5
6F1
100
AcDbEntity
  8
0
370
    -3
390
0
  6
Continuous
100
AcDbLine
 10
-457.285297
 20
421.248291
 30
0.0
 11
-457.285297
 21
427.706859
 31
0.0
  0
LINE
  5
6F2
100
AcDbEntity
  8
0
370
    -3
390
0
  6
Continuous
100
AcDbLine
 10
-478.285297
 20
518.043363
 30
0.0
 11
-475.285297
 21
515.043363
 31
0.0
  0
LINE
  5
6F3
100
AcDbEntity
  8
0
370
    -3
390
0
  6
Continuous
100
AcDbLine
 10
-475.285297
 20
513.51337
 30
0.0
 11
-475.285297
 21
515.043363
 31
0.0
  0
LINE
  5
6F4
100
AcDbEntity
  8
0
370
    -3
390
0
  6
Continuous
100
AcDbLine
 10
-482.774553
 20
518.043363
 30
0.0
 11
-478.285297
 21
518.043363
 31
0.0
  0
LINE
  5
6F5
100
AcDbEntity
  8
0
370
    -3
390
0
  6
Continuous
100
AcDbLine
 10
-489.285297
 20
513.083327
 30
0.0
 11
-469.785297
 21
502.407557
 31
0.0
  0
LINE
  5
6F6
100
AcDbEntity
  8
0
370
    -3
390
0
  6
Continuous
100
AcDbLine
 10
-489.285297
 20
514.111933
 30
0.0
 11
-469.475561
 21
503.266591
 31
0.0
  0
LINE
  5
6F7
100
AcDbEntity
  8
0
370
    -3
390
0
  6
Continuous
100
AcDbLine
 10
-489.285297
 20
518.668182
 30
0.0
 11
-464.984511
 21
504.888445
 31
0.0
  0
LINE
  5
6F8
100
AcDbEntity
  8
0
370
    -3
390
0
  6
Continuous
100
AcDbLine
 10
-463.883568
 20
504.888445
 30
0.0
 11
-489.285297
 21
519.292471
 31
0.0
  0
LINE
  5
6F9
100
AcDbEntity
  8
0
370
    -3
390
0
  6
Continuous
100
AcDbLine
 10
-459.972585
 20
504.888445
 30
0.0
 11
-489.285297
 21
521.799543
 31
0.0
  0
LINE
  5
6FA
100
AcDbEntity
  8
0
370
    -3
390
0
  6
Continuous
100
AcDbLine
 10
-489.285297
 20
521.590253
 30
0.0
 11
-460.335356
 21
504.888445
 31
0.0
  0
LINE
  5
6FB
100
AcDbEntity
  8
0
370
    -3
390
0
  6
Continuous
100
AcDbLine
 10
-442.285297
 20
244.924051
 30
0.0
 11
-525.151692
 21
244.924051
 31
0.0
  0
LINE
  5
6FC
100
AcDbEntity
  8
0
370
    -3
390
0
  6
Continuous
100
AcDbLine
 10
-489.285297
 20
307.811443
 30
0.0
 11
-489.285297
 21
310.823206
 31
0.0
  0
LINE
  5
6FD
100
AcDbEntity
  8
0
370
    -3
390
0
  6
Continuous
100
AcDbLine
 10
-489.285297
 20
418.275282
 30
0.0
 11
-489.285297
 21
415.263519
 31
0.0
  0
LINE
  5
6FE
100
AcDbEntity
  8
0
370
    -3
390
0
  6
Continuous
100
AcDbLine
 10
-457.285297
 20
409.011701
 30
0.0
 11
-489.285297
 21
415.263519
 31
0.0
  0
LINE
  5
6FF
100
AcDbEntity
  8
0
370
    -3
390
0
  6
Continuous
100
AcDbLine
 10
-489.285297
 20
418.275282
 30
0.0
 11
-457.285297
 21
412.023464
 31
0.0
  0
LINE
  5
700
100
AcDbEntity
  8
0
370
    -3
390
0
  6
Continuous
100
AcDbLine
 10
-489.285297
 20
433.176625
 30
0.0
 11
-489.285297
 21
436.034157
 31
0.0
  0
LINE
  5
701
100
AcDbEntity
  8
0
370
    -3
390
0
  6
Continuous
100
AcDbLine
 10
-457.285297
 20
424.849327
 30
0.0
 11
-489.285297
 21
433.176625
 31
0.0
  0
LINE
  5
702
100
AcDbEntity
  8
0
370
    -3
390
0
  6
Continuous
100
AcDbLine
 10
-489.285297
 20
436.034157
 30
0.0
 11
-457.285297
 21
427.706859
 31
0.0
  0
LINE
  5
703
100
AcDbEntity
  8
0
370
    -3
390
0
  6
Continuous
100
AcDbLine
 10
-489.285297
 20
519.300367
 30
0.0
 11
-489.285297
 21
518.676078
 31
0.0
  0
LINE
  5
704
100
AcDbEntity
  8
0
370
    -3
390
0
  6
Continuous
100
AcDbLine
 10
-489.285297
 20
514.119556
 30
0.0
 11
-489.285297
 21
513.083327
 31
0.0
  0
LINE
  5
705
100
AcDbEntity
  8
0
370
    -3
390
0
  6
Continuous
100
AcDbLine
 10
-489.285297
 20
521.590253
 30
0.0
 11
-489.285297
 21
521.799543
 31
0.0
  0
LINE
  5
706
100
AcDbEntity
  8
0
370
    -3
390
0
  6
Continuous
100
AcDbLine
 10
-489.285297
 20
506.34657
 30
0.0
 11
-489.285297
 21
504.931246
 31
0.0
  0
LINE
  5
707
100
AcDbEntity
  8
0
370
    -3
390
0
  6
Continuous
100
AcDbLine
 10
-489.285297
 20
206.786358
 30
0.0
 11
-489.285297
 21
207.410647
 31
0.0
  0
LINE
  5
708
100
AcDbEntity
  8
0
370
    -3
390
0
  6
Continuous
100
AcDbLine
 10
-489.285297
 20
211.967169
 30
0.0
 11
-489.285297
 21
213.003398
 31
0.0
  0
LINE
  5
709
100
AcDbEntity
  8
0
370
    -3
390
0
  6
Continuous
100
AcDbLine
 10
-489.285297
 20
204.496472
 30
0.0
 11
-457.285297
 21
222.95792
 31
0.0
  0
LINE
  5
70A
100
AcDbEntity
  8
0
370
    -3
390
0
  6
Continuous
100
AcDbLine
 10
-457.285297
 20
222.74863
 30
0.0
 11
-489.285297
 21
204.287182
 31
0.0
  0
LINE
  5
70B
100
AcDbEntity
  8
0
370
    -3
390
0
  6
Continuous
100
AcDbLine
 10
-489.285297
 20
204.496472
 30
0.0
 11
-489.285297
 21
204.287182
 31
0.0
  0
LINE
  5
70C
100
AcDbEntity
  8
0
370
    -3
390
0
  6
Continuous
100
AcDbLine
 10
-457.285297
 20
224.939822
 30
0.0
 11
-489.285297
 21
206.794254
 31
0.0
  0
LINE
  5
70D
100
AcDbEntity
  8
0
370
    -3
390
0
  6
Continuous
100
AcDbLine
 10
-489.285297
 20
207.418543
 30
0.0
 11
-457.285297
 21
225.564111
 31
0.0
  0
LINE
  5
70E
100
AcDbEntity
  8
0
370
    -3
390
0
  6
Continuous
100
AcDbLine
 10
-489.285297
 20
211.974792
 30
0.0
 11
-457.285297
 21
229.494003
 31
0.0
  0
LINE
  5
70F
100
AcDbEntity
  8
0
370
    -3
390
0
  6
Continuous
100
AcDbLine
 10
-489.285297
 20
213.003398
 30
0.0
 11
-457.285297
 21
230.52261
 31
0.0
  0
LINE
  5
710
100
AcDbEntity
  8
0
370
    -3
390
0
  6
Continuous
100
AcDbLine
 10
-489.285297
 20
219.740155
 30
0.0
 11
-457.285297
 21
236.333252
 31
0.0
  0
LINE
  5
711
100
AcDbEntity
  8
0
370
    -3
390
0
  6
Continuous
100
AcDbLine
 10
-489.285297
 20
221.155479
 30
0.0
 11
-457.285297
 21
237.748575
 31
0.0
  0
LINE
  5
712
100
AcDbEntity
  8
0
370
    -3
390
0
  6
Continuous
100
AcDbLine
 10
-489.285297
 20
219.740155
 30
0.0
 11
-489.285297
 21
221.155479
 31
0.0
  0
LINE
  5
713
100
AcDbEntity
  8
0
370
    -3
390
0
  6
Continuous
100
AcDbLine
 10
-489.285297
 20
292.9101
 30
0.0
 11
-489.285297
 21
290.052568
 31
0.0
  0
LINE
  5
714
100
AcDbEntity
  8
0
370
    -3
390
0
  6
Continuous
100
AcDbLine
 10
-556.285297
 20
257.009742
 30
0.0
 11
-524.285297
 21
269.208339
 31
0.0
  0
LINE
  5
715
100
AcDbEntity
  8
0
370
    -3
390
0
  6
Continuous
100
AcDbLine
 10
-524.285297
 20
271.614226
 30
0.0
 11
-556.285297
 21
259.41563
 31
0.0
  0
LINE
  5
716
100
AcDbEntity
  8
0
370
    -3
390
0
  6
Continuous
100
AcDbLine
 10
-524.285297
 20
269.208339
 30
0.0
 11
-524.285297
 21
276.889356
 31
0.0
  0
LINE
  5
717
100
AcDbEntity
  8
0
370
    -3
390
0
  6
Continuous
100
AcDbLine
 10
-524.285297
 20
276.889356
 30
0.0
 11
-545.365442
 21
276.889356
 31
0.0
  0
LINE
  5
718
100
AcDbEntity
  8
0
370
    -3
390
0
  6
Continuous
100
AcDbLine
 10
-556.285297
 20
452.704908
 30
0.0
 11
-524.285297
 21
442.42627
 31
0.0
  0
LINE
  5
719
100
AcDbEntity
  8
0
370
    -3
390
0
  6
Continuous
100
AcDbLine
 10
-524.285297
 20
439.765567
 30
0.0
 11
-556.285297
 21
450.044206
 31
0.0
  0
LINE
  5
71A
100
AcDbEntity
  8
0
370
    -3
390
0
  6
Continuous
100
AcDbLine
 10
-524.285297
 20
442.42627
 30
0.0
 11
-524.285297
 21
436.034157
 31
0.0
  0
LINE
  5
71B
100
AcDbEntity
  8
0
370
    -3
390
0
  6
Continuous
100
AcDbLine
 10
-556.285297
 20
469.076983
 30
0.0
 11
-524.285297
 21
456.878386
 31
0.0
  0
LINE
  5
71C
100
AcDbEntity
  8
0
370
    -3
390
0
  6
Continuous
100
AcDbLine
 10
-524.285297
 20
454.472499
 30
0.0
 11
-556.285297
 21
466.671095
 31
0.0
  0
LINE
  5
71D
100
AcDbEntity
  8
0
370
    -3
390
0
  6
Continuous
100
AcDbLine
 10
-524.285297
 20
456.878386
 30
0.0
 11
-524.285297
 21
449.19737
 31
0.0
  0
LINE
  5
71E
100
AcDbEntity
  8
0
370
    -3
390
0
  6
Continuous
100
AcDbLine
 10
-524.285297
 20
449.19737
 30
0.0
 11
-545.365442
 21
449.19737
 31
0.0
  0
LINE
  5
71F
100
AcDbEntity
  8
0
370
    -3
390
0
  6
Continuous
100
AcDbLine
 10
-556.285297
 20
273.381817
 30
0.0
 11
-524.285297
 21
283.660455
 31
0.0
  0
LINE
  5
720
100
AcDbEntity
  8
0
370
    -3
390
0
  6
Continuous
100
AcDbLine
 10
-524.285297
 20
286.321158
 30
0.0
 11
-556.285297
 21
276.04252
 31
0.0
  0
LINE
  5
721
100
AcDbEntity
  8
0
370
    -3
390
0
  6
Continuous
100
AcDbLine
 10
-524.285297
 20
283.660455
 30
0.0
 11
-524.285297
 21
290.052568
 31
0.0
  0
LINE
  5
722
100
AcDbEntity
  8
0
370
    -3
390
0
  6
Continuous
100
AcDbLine
 10
-442.285297
 20
471.105545
 30
0.0
 11
-442.285297
 21
465.992003
 31
0.0
  0
LINE
  5
723
100
AcDbEntity
  8
0
370
    -3
390
0
  6
Continuous
100
AcDbLine
 10
-442.285297
 20
465.992003
 30
0.0
 11
-427.285297
 21
465.992003
 31
0.0
  0
LINE
  5
724
100
AcDbEntity
  8
0
370
    -3
390
0
  6
Continuous
100
AcDbLine
 10
-442.285297
 20
507.117789
 30
0.0
 11
-442.285297
 21
498.27557
 31
0.0
  0
LINE
  5
725
100
AcDbEntity
  8
0
370
    -3
390
0
  6
Continuous
100
AcDbLine
 10
-442.285297
 20
498.27557
 30
0.0
 11
-427.285297
 21
498.27557
 31
0.0
  0
LINE
  5
726
100
AcDbEntity
  8
0
370
    -3
390
0
  6
Continuous
100
AcDbLine
 10
-442.285297
 20
498.27557
 30
0.0
 11
-442.285297
 21
495.008844
 31
0.0
  0
LINE
  5
727
100
AcDbEntity
  8
0
370
    -3
390
0
  6
Continuous
100
AcDbLine
 10
-442.285297
 20
495.008844
 30
0.0
 11
-427.285297
 21
495.008844
 31
0.0
  0
LINE
  5
728
100
AcDbEntity
  8
0
370
    -3
390
0
  6
Continuous
100
AcDbLine
 10
-442.285297
 20
495.008844
 30
0.0
 11
-442.285297
 21
471.105545
 31
0.0
  0
LINE
  5
729
100
AcDbEntity
  8
0
370
    -3
390
0
  6
Continuous
100
AcDbLine
 10
-442.285297
 20
471.105545
 30
0.0
 11
-427.285297
 21
471.105545
 31
0.0
  0
INSERT
  5
748
100
AcDbEntity
  8
0
390
0
100
AcDbBlockReference
  2
ZU_SYM_C__ZUOU_AC_BLOCK_BLKF052_00
 10
-1043.267994
 20
-504.318578
 30
0.0
  0
LINE
  5
749
100
AcDbEntity
  8
0
370
    -3
390
0
  6
CENTER
100
AcDbLine
 10
-420.917214
 20
486.884995
 30
0.0
 11
-450.239057
 21
486.884995
 31
0.0
  0
LINE
  5
74A
100
AcDbEntity
  8
0
370
    -3
390
0
  6
Continuous
100
AcDbLine
 10
-467.285297
 20
481.162674
 30
0.0
 11
-525.151692
 21
481.162674
 31
0.0
  0
LINE
  5
74B
100
AcDbEntity
  8
0
370
    -3
390
0
  6
Continuous
100
AcDbLine
 10
-489.285297
 20
504.931246
 30
0.0
 11
-469.785297
 21
494.819828
 31
0.0
  0
LINE
  5
74C
100
AcDbEntity
  8
0
370
    -3
390
0
  6
Continuous
100
AcDbLine
 10
-489.285297
 20
506.34657
 30
0.0
 11
-469.785297
 21
496.235152
 31
0.0
  0
LINE
  5
74D
100
AcDbEntity
  8
0
370
    -3
390
0
  6
Continuous
100
AcDbLine
 10
-442.285297
 20
316.383776
 30
0.0
 11
-427.285297
 21
316.383776
 31
0.0
  0
LINE
  5
74E
100
AcDbEntity
  8
0
370
    -3
390
0
  6
Continuous
100
AcDbLine
 10
-442.285297
 20
316.383776
 30
0.0
 11
-442.285297
 21
311.127344
 31
0.0
  0
LINE
  5
74F
100
AcDbEntity
  8
0
370
    -3
390
0
  6
Continuous
100
AcDbLine
 10
-442.285297
 20
311.127344
 30
0.0
 11
-427.285297
 21
311.127344
 31
0.0
  0
LINE
  5
750
100
AcDbEntity
  8
0
370
    -3
390
0
  6
Continuous
100
AcDbLine
 10
-442.285297
 20
311.127344
 30
0.0
 11
-442.285297
 21
293.532902
 31
0.0
  0
LINE
  5
751
100
AcDbEntity
  8
0
370
    -3
390
0
  6
Continuous
100
AcDbLine
 10
-442.285297
 20
293.532902
 30
0.0
 11
-427.285297
 21
293.532902
 31
0.0
  0
LINE
  5
752
100
AcDbEntity
  8
0
370
    -3
390
0
  6
Continuous
100
AcDbLine
 10
-442.285297
 20
293.532902
 30
0.0
 11
-442.285297
 21
290.072069
 31
0.0
  0
LINE
  5
753
100
AcDbEntity
  8
0
370
    -3
390
0
  6
Continuous
100
AcDbLine
 10
-442.285297
 20
290.072069
 30
0.0
 11
-427.285297
 21
290.072069
 31
0.0
  0
LINE
  5
754
100
AcDbEntity
  8
0
370
    -3
390
0
  6
Continuous
100
AcDbLine
 10
-442.285297
 20
290.072069
 30
0.0
 11
-442.285297
 21
274.756897
 31
0.0
  0
LINE
  5
755
100
AcDbEntity
  8
0
370
    -3
390
0
  6
Continuous
100
AcDbLine
 10
-442.285297
 20
274.756897
 30
0.0
 11
-427.285297
 21
274.756897
 31
0.0
  0
LINE
  5
756
100
AcDbEntity
  8
0
370
    -3
390
0
  6
Continuous
100
AcDbLine
 10
-442.285297
 20
274.756897
 30
0.0
 11
-442.285297
 21
273.396893
 31
0.0
  0
LINE
  5
757
100
AcDbEntity
  8
0
370
    -3
390
0
  6
Continuous
100
AcDbLine
 10
-442.285297
 20
273.396893
 30
0.0
 11
-442.285297
 21
229.543363
 31
0.0
  0
LINE
  5
758
100
AcDbEntity
  8
0
370
    -3
390
0
  6
Continuous
100
AcDbLine
 10
-442.285297
 20
273.396893
 30
0.0
 11
-427.285297
 21
273.396893
 31
0.0
  0
INSERT
  5
777
100
AcDbEntity
  8
0
390
0
100
AcDbBlockReference
  2
ZU_SYM_C__ZUOU_AC_BLOCK_BLKF052_0001200
 10
-1043.267994
 20
1282.746936
 30
0.0
 41
-1.0
 50
180.0
  0
LINE
  5
778
100
AcDbEntity
  8
0
370
    -3
390
0
  6
CENTER
100
AcDbLine
 10
-423.571238
 20
291.543363
 30
0.0
 11
-448.547998
 21
291.543363
 31
0.0
  0
LINE
  5
779
100
AcDbEntity
  8
0
370
    -3
390
0
  6
Continuous
100
AcDbLine
 10
-457.285297
 20
314.063261
 30
0.0
 11
-457.285297
 21
319.778544
 31
0.0
  0
LINE
  5
77A
100
AcDbEntity
  8
0
370
    -3
390
0
  6
Continuous
100
AcDbLine
 10
-489.285297
 20
290.052568
 30
0.0
 11
-467.285297
 21
295.777585
 31
0.0
  0
LINE
  5
77B
100
AcDbEntity
  8
0
370
    -3
390
0
  6
Continuous
100
AcDbLine
 10
-467.285297
 20
298.635118
 30
0.0
 11
-489.285297
 21
292.9101
 31
0.0
  0
LINE
  5
77C
100
AcDbEntity
  8
0
370
    -3
390
0
  6
Continuous
100
AcDbLine
 10
-457.285297
 20
317.075024
 30
0.0
 11
-489.285297
 21
310.823206
 31
0.0
  0
LINE
  5
77D
100
AcDbEntity
  8
0
370
    -3
390
0
  6
Continuous
100
AcDbLine
 10
-489.285297
 20
307.811443
 30
0.0
 11
-457.285297
 21
314.063261
 31
0.0
  0
LINE
  5
77E
100
AcDbEntity
  8
0
370
    -3
390
0
  6
Continuous
100
AcDbLine
 10
-442.285297
 20
229.543363
 30
0.0
 11
-442.285297
 21
496.543363
 31
0.0
  0
LINE
  5
77F
100
AcDbEntity
  8
0
370
    -3
390
0
  6
Continuous
100
AcDbLine
 10
-442.285297
 20
465.992003
 30
0.0
 11
-442.285297
 21
316.383776
 31
0.0
  0
LINE
  5
780
100
AcDbEntity
  8
0
370
    -3
390
0
  6
Continuous
100
AcDbLine
 10
-759.285297
 20
307.811443
 30
0.0
 11
-489.285297
 21
307.811443
 31
0.0
  0
LINE
  5
781
100
AcDbEntity
  8
0
370
    -3
390
0
  6
Continuous
100
AcDbLine
 10
-489.285297
 20
310.823206
 30
0.0
 11
-759.285297
 21
310.823206
 31
0.0
  0
INSERT
  5
791
100
AcDbEntity
  8
0
390
0
100
AcDbBlockReference
  2
ZU_SYM_C__ZUOU_AC_BLOCK_BLKF071_00
 10
-1092.449915
 20
-531.466691
 30
0.0
  0
INSERT
  5
7A1
100
AcDbEntity
  8
0
390
0
100
AcDbBlockReference
  2
ZU_SYM_C__ZUOU_AC_BLOCK_BLKF073_00
 10
-1092.449915
 20
-531.466691
 30
0.0
  0
INSERT
  5
7AB
100
AcDbEntity
  8
0
390
0
100
AcDbBlockReference
  2
ZU_SYM_C__ZUOU_AC_BLOCK_BLKF074_00
 10
-1092.449915
 20
-531.466691
 30
0.0
  0
LINE
  5
7AC
100
AcDbEntity
  8
0
370
    -3
390
0
  6
Continuous
100
AcDbLine
 10
-489.285297
 20
204.287182
 30
0.0
 11
-625.285297
 21
204.287182
 31
0.0
  0
LINE
  5
7AD
100
AcDbEntity
  8
0
370
    -3
390
0
  6
Continuous
100
AcDbLine
 10
-625.285297
 20
204.496472
 30
0.0
 11
-489.285297
 21
204.496472
 31
0.0
  0
LINE
  5
7AE
100
AcDbEntity
  8
0
370
    -3
390
0
  6
Continuous
100
AcDbLine
 10
-489.285297
 20
207.418543
 30
0.0
 11
-625.285297
 21
207.418543
 31
0.0
  0
LINE
  5
7AF
100
AcDbEntity
  8
0
370
    -3
390
0
  6
Continuous
100
AcDbLine
 10
-625.285297
 20
206.794254
 30
0.0
 11
-489.285297
 21
206.794254
 31
0.0
  0
LINE
  5
7B0
100
AcDbEntity
  8
0
370
    -3
390
0
  6
Continuous
100
AcDbLine
 10
-489.285297
 20
211.974792
 30
0.0
 11
-625.285297
 21
211.974792
 31
0.0
  0
LINE
  5
7B1
100
AcDbEntity
  8
0
370
    -3
390
0
  6
Continuous
100
AcDbLine
 10
-625.285297
 20
213.003398
 30
0.0
 11
-489.285297
 21
213.003398
 31
0.0
  0
LINE
  5
7B2
100
AcDbEntity
  8
0
370
    -3
390
0
  6
Continuous
100
AcDbLine
 10
-489.285297
 20
219.740155
 30
0.0
 11
-625.285297
 21
219.740155
 31
0.0
  0
LINE
  5
7B3
100
AcDbEntity
  8
0
370
    -3
390
0
  6
Continuous
100
AcDbLine
 10
-489.285297
 20
221.155479
 30
0.0
 11
-625.285297
 21
221.155479
 31
0.0
  0
LINE
  5
7B4
100
AcDbEntity
  8
0
370
    -3
390
0
  6
Continuous
100
AcDbLine
 10
-489.285297
 20
292.9101
 30
0.0
 11
-759.285297
 21
292.9101
 31
0.0
  0
LINE
  5
7B5
100
AcDbEntity
  8
0
370
    -3
390
0
  6
Continuous
100
AcDbLine
 10
-489.285297
 20
290.052568
 30
0.0
 11
-759.285297
 21
290.052568
 31
0.0
  0
LINE
  5
7B6
100
AcDbEntity
  8
0
370
    -3
390
0
  6
Continuous
100
AcDbLine
 10
-457.285297
 20
406.308182
 30
0.0
 11
-791.285297
 21
406.308182
 31
0.0
  0
LINE
  5
7B7
100
AcDbEntity
  8
0
370
    -3
390
0
  6
Continuous
100
AcDbLine
 10
-759.285297
 20
418.275282
 30
0.0
 11
-489.285297
 21
418.275282
 31
0.0
  0
LINE
  5
7B8
100
AcDbEntity
  8
0
370
    -3
390
0
  6
Continuous
100
AcDbLine
 10
-489.285297
 20
415.263519
 30
0.0
 11
-759.285297
 21
415.263519
 31
0.0
  0
LINE
  5
7B9
100
AcDbEntity
  8
0
370
    -3
390
0
  6
Continuous
100
AcDbLine
 10
-489.285297
 20
436.034157
 30
0.0
 11
-759.285297
 21
436.034157
 31
0.0
  0
LINE
  5
7BA
100
AcDbEntity
  8
0
370
    -3
390
0
  6
Continuous
100
AcDbLine
 10
-489.285297
 20
433.176625
 30
0.0
 11
-759.285297
 21
433.176625
 31
0.0
  0
LINE
  5
7BB
100
AcDbEntity
  8
0
370
    -3
390
0
  6
Continuous
100
AcDbLine
 10
-457.285297
 20
421.248291
 30
0.0
 11
-791.285297
 21
421.248291
 31
0.0
  0
INSERT
  5
7CB
100
AcDbEntity
  8
0
390
0
100
AcDbBlockReference
  2
ZU_SYM_C__ZUOU_AC_BLOCK_BLKF064_00
 10
-1092.449915
 20
-531.466691
 30
0.0
  0
INSERT
  5
7DB
100
AcDbEntity
  8
0
390
0
100
AcDbBlockReference
  2
ZU_SYM_C__ZUOU_AC_BLOCK_BLKF066_00
 10
-1092.449915
 20
-531.466691
 30
0.0
  0
LINE
  5
7DC
100
AcDbEntity
  8
0
370
    -3
390
0
  6
Continuous
100
AcDbLine
 10
-489.285297
 20
521.799543
 30
0.0
 11
-759.285297
 21
521.799543
 31
0.0
  0
LINE
  5
7DD
100
AcDbEntity
  8
0
370
    -3
390
0
  6
Continuous
100
AcDbLine
 10
-759.285297
 20
521.590253
 30
0.0
 11
-489.285297
 21
521.590253
 31
0.0
  0
LINE
  5
7DE
100
AcDbEntity
  8
0
370
    -3
390
0
  6
Continuous
100
AcDbLine
 10
-489.285297
 20
518.668182
 30
0.0
 11
-759.285297
 21
518.668182
 31
0.0
  0
LINE
  5
7DF
100
AcDbEntity
  8
0
370
    -3
390
0
  6
Continuous
100
AcDbLine
 10
-759.285297
 20
519.292471
 30
0.0
 11
-489.285297
 21
519.292471
 31
0.0
  0
LINE
  5
7E0
100
AcDbEntity
  8
0
370
    -3
390
0
  6
Continuous
100
AcDbLine
 10
-489.285297
 20
514.111933
 30
0.0
 11
-759.285297
 21
514.111933
 31
0.0
  0
LINE
  5
7E1
100
AcDbEntity
  8
0
370
    -3
390
0
  6
Continuous
100
AcDbLine
 10
-759.285297
 20
513.083327
 30
0.0
 11
-489.285297
 21
513.083327
 31
0.0
  0
LINE
  5
7E2
100
AcDbEntity
  8
0
370
    -3
390
0
  6
Continuous
100
AcDbLine
 10
-489.285297
 20
506.34657
 30
0.0
 11
-759.285297
 21
506.34657
 31
0.0
  0
LINE
  5
7E3
100
AcDbEntity
  8
0
370
    -3
390
0
  6
Continuous
100
AcDbLine
 10
-489.285297
 20
504.931246
 30
0.0
 11
-759.285297
 21
504.931246
 31
0.0
  0
LINE
  5
7E4
100
AcDbEntity
  8
0
370
    -3
390
0
  6
Continuous
100
AcDbLine
 10
-467.285297
 20
304.838434
 30
0.0
 11
-772.285297
 21
304.838434
 31
0.0
  0
LINE
  5
7E5
100
AcDbEntity
  8
0
370
    -3
390
0
  6
Continuous
100
AcDbLine
 10
-457.285297
 20
319.778544
 30
0.0
 11
-772.285297
 21
319.778544
 31
0.0
  0
LINE
  5
7E6
100
AcDbEntity
  8
0
370
    -3
390
0
  6
CENTER
100
AcDbLine
 10
-624.285297
 20
326.920661
 30
0.0
 11
-624.285297
 21
397.338654
 31
0.0
  0
LINE
  5
7E7
100
AcDbEntity
  8
0
370
    -3
390
0
  6
Continuous
100
AcDbLine
 10
-604.285297
 20
368.043363
 30
0.0
 11
-644.285297
 21
368.043363
 31
0.0
  0
LINE
  5
7E8
100
AcDbEntity
  8
0
370
    -3
390
0
  6
Continuous
100
AcDbLine
 10
-331.285297
 20
543.043363
 30
0.0
 11
-316.285274
 21
543.043363
 31
0.0
  0
LINE
  5
7E9
100
AcDbEntity
  8
0
370
    -3
390
0
  6
Continuous
100
AcDbLine
 10
-331.285297
 20
540.700217
 30
0.0
 11
-316.285272
 21
540.700217
 31
0.0
  0
LINE
  5
7EA
100
AcDbEntity
  8
0
370
    -3
390
0
  6
Continuous
100
AcDbLine
 10
-331.285297
 20
529.386508
 30
0.0
 11
-316.285264
 21
529.386508
 31
0.0
  0
LINE
  5
7EB
100
AcDbEntity
  8
0
370
    -3
390
0
  6
Continuous
100
AcDbLine
 10
-331.285297
 20
523.729654
 30
0.0
 11
-316.28526
 21
523.729654
 31
0.0
  0
LINE
  5
7EC
100
AcDbEntity
  8
0
370
    -3
390
0
  6
Continuous
100
AcDbLine
 10
-312.285297
 20
459.043363
 30
0.0
 11
-312.285297
 21
521.043363
 31
0.0
  0
LINE
  5
7ED
100
AcDbEntity
  8
0
370
    -3
390
0
  6
Continuous
100
AcDbLine
 10
-312.285297
 20
435.043363
 30
0.0
 11
-312.285297
 21
411.217236
 31
0.0
  0
LINE
  5
7EE
100
AcDbEntity
  8
0
370
    -3
390
0
  6
Continuous
100
AcDbLine
 10
-331.285297
 20
446.490612
 30
0.0
 11
-316.285266
 21
446.490612
 31
0.0
  0
LINE
  5
7EF
100
AcDbEntity
  8
0
370
    -3
390
0
  6
Continuous
100
AcDbLine
 10
-312.285297
 20
314.869489
 30
0.0
 11
-312.285297
 21
291.043363
 31
0.0
  0
LINE
  5
7F0
100
AcDbEntity
  8
0
370
    -3
390
0
  6
Continuous
100
AcDbLine
 10
-331.285297
 20
279.596113
 30
0.0
 11
-316.285266
 21
279.596113
 31
0.0
  0
LINE
  5
7F1
100
AcDbEntity
  8
0
370
    -3
390
0
  6
Continuous
100
AcDbLine
 10
-312.285297
 20
267.043363
 30
0.0
 11
-312.285297
 21
205.043363
 31
0.0
  0
LINE
  5
7F2
100
AcDbEntity
  8
0
370
    -3
390
0
  6
Continuous
100
AcDbLine
 10
-331.285297
 20
183.043363
 30
0.0
 11
-316.285274
 21
183.043363
 31
0.0
  0
LINE
  5
7F3
100
AcDbEntity
  8
0
370
    -3
390
0
  6
Continuous
100
AcDbLine
 10
-331.285297
 20
185.386508
 30
0.0
 11
-316.285272
 21
185.386508
 31
0.0
  0
LINE
  5
7F4
100
AcDbEntity
  8
0
370
    -3
390
0
  6
Continuous
100
AcDbLine
 10
-331.285297
 20
196.700217
 30
0.0
 11
-316.285264
 21
196.700217
 31
0.0
  0
LINE
  5
7F5
100
AcDbEntity
  8
0
370
    -3
390
0
  6
Continuous
100
AcDbLine
 10
-331.285297
 20
202.357071
 30
0.0
 11
-316.28526
 21
202.357071
 31
0.0
  0
LINE
  5
7F6
100
AcDbEntity
  8
0
370
    -3
390
0
  6
Continuous
100
AcDbLine
 10
-346.285262
 20
518.043363
 30
0.0
 11
-402.285297
 21
518.043363
 31
0.0
  0
LINE
  5
7F7
100
AcDbEntity
  8
0
370
    -3
390
0
  6
Continuous
100
AcDbLine
 10
-346.285264
 20
208.043363
 30
0.0
 11
-402.407405
 21
208.043363
 31
0.0
  0
LINE
  5
7F8
100
AcDbEntity
  8
0
370
    -3
390
0
  6
Continuous
100
AcDbLine
 10
-449.971005
 20
220.365493
 30
0.0
 11
-442.285297
 21
220.48165
 31
0.0
  0
LINE
  5
7F9
100
AcDbEntity
  8
0
370
    -3
390
0
  6
Continuous
100
AcDbLine
 10
-427.285297
 20
220.70835
 30
0.0
 11
-389.461874
 21
221.279989
 31
0.0
  0
LINE
  5
7FA
100
AcDbEntity
  8
0
370
    -3
390
0
  6
Continuous
100
AcDbLine
 10
-449.971005
 20
505.721232
 30
0.0
 11
-442.285297
 21
505.605076
 31
0.0
  0
LINE
  5
7FB
100
AcDbEntity
  8
0
370
    -3
390
0
  6
Continuous
100
AcDbLine
 10
-427.285297
 20
505.378375
 30
0.0
 11
-389.04233
 21
504.800396
 31
0.0
  0
LINE
  5
7FC
100
AcDbEntity
  8
0
370
    -3
390
0
  6
CENTER
100
AcDbLine
 10
60.421219
 20
363.043363
 30
0.0
 11
-922.954739
 21
363.043363
 31
0.0
  0
LINE
  5
7FD
100
AcDbEntity
  8
0
370
    -3
390
0
  6
Continuous
100
AcDbLine
 10
48.714703
 20
398.043363
 30
0.0
 11
48.714703
 21
328.043363
 31
0.0
  0
MTEXT
  5
7FF
100
AcDbEntity
  8
0
370
    -3
390
0
  6
Continuous
100
AcDbMText
 10
357.249115
 20
296.56015
 30
0.0
 40
16.0
 41
0.0
 71
     7
 72
     1
  1
\W0.83;三菱ギヤードモータ  
  7
ZU_SHPTB00001
 11
1.0
 21
0.0
 31
0.0
 73
     1
 44
1.0
  0
MTEXT
  5
800
100
AcDbEntity
  8
0
370
    -3
390
0
  6
Continuous
100
AcDbMText
 10
357.249115
 20
275.360138
 30
0.0
 40
16.0
 41
0.0
 71
     7
 72
     1
  1
\W0.60;GM-LJP
  7
ZU_SHPTB00001
 11
1.0
 21
0.0
 31
0.0
 73
     1
 44
1.0
  0
MTEXT
  5
801
100
AcDbEntity
  8
0
370
    -3
390
0
  6
Continuous
100
AcDbMText
 10
357.249115
 20
254.160156
 30
0.0
 40
16.0
 41
0.0
 71
     7
 72
     1
  1
\W0.60;15(kW)
  7
ZU_SHPTB00001
 11
1.0
 21
0.0
 31
0.0
 73
     1
 44
1.0
  0
MTEXT
  5
802
100
AcDbEntity
  8
0
370
    -3
390
0
  6
Continuous
100
AcDbMText
 10
357.249115
 20
232.960144
 30
0.0
 40
16.0
 41
0.0
 71
     7
 72
     1
  1
\W0.60;1/15,1/20
  7
ZU_SHPTB00001
 11
1.0
 21
0.0
 31
0.0
 73
     1
 44
1.0
  0
MTEXT
  5
803
100
AcDbEntity
  8
0
370
    -3
390
0
  6
Continuous
100
AcDbMText
 10
357.249115
 20
211.760147
 30
0.0
 40
16.0
 41
0.0
 71
     7
 72
     1
  1
\W1.00;ｷﾞﾔｻｲｽﾞ\W1.00; \W0.60;M
  7
ZU_SHPTB00001
 11
1.0
 21
0.0
 31
0.0
 73
     1
 44
1.0
  0
MTEXT
  5
804
100
AcDbEntity
  8
0
370
    -3
390
0
  6
Continuous
100
AcDbMText
 10
357.249115
 20
190.56015
 30
0.0
 40
16.0
 41
0.0
 71
     7
 72
     1
  1
\W0.60;SCALE\W1.00; \W0.60;1/1
  7
ZU_SHPTB00001
 11
1.0
 21
0.0
 31
0.0
 73
     1
 44
1.0
  0
ENDSEC
  0
SECTION
  2
OBJECTS
  0
DICTIONARY
  5
19
100
AcDbDictionary
280
     0
281
     1
  3
ACAD_GROUP
350
1A
  3
ACAD_MLINESTYLE
350
1B
  3
ACAD_LAYOUT
350
1E
  3
ACAD_PLOTSETTINGS
350
22
  3
ACAD_PLOTSTYLENAME
350
1F
  3
ACAD_WIPEOUT_VARS
350
23
  3
DWGPROPS
350
805
  0
DICTIONARY
  5
1A
102
{ACAD_REACTORS
330
19
102
}
100
AcDbDictionary
280
     0
281
     1
  0
DICTIONARY
  5
1B
102
{ACAD_REACTORS
330
19
102
}
100
AcDbDictionary
280
     0
281
     1
  3
Standard
350
1C
  0
MLINESTYLE
  5
1C
102
{ACAD_REACTORS
330
1B
102
}
100
AcDbMlineStyle
  2
Standard
 70
     0
  3

 62
     0
 51
90.0
 52
90.0
 71
     2
 49
0.5
 62
   256
  6
ByLayer
 49
-0.5
 62
   256
  6
ByLayer
  0
ACDBDICTIONARYWDFLT
  5
1F
102
{ACAD_REACTORS
330
19
102
}
100
AcDbDictionary
281
     1
  3
Normal
350
1D
100
AcDbDictionaryWithDefault
340
1D
  0
ACDBPLACEHOLDER
  5
1D
102
{ACAD_REACTORS
330
1F
102
}
  0
LAYOUT
  5
20
102
{ACAD_REACTORS
330
1E
102
}
100
AcDbPlotSettings
  1

  2

  4

  6

 40
0.0
 41
0.0
 42
0.0
 43
0.0
 44
0.0
 45
0.0
 46
0.0
 47
0.0
 48
0.0
 49
0.0
140
0.0
141
0.0
142
1.0
143
1.0
 70
  1024
 72
     0
 73
     0
 74
     0
  7

 75
     0
147
1.0
148
0.0
149
0.0
100
AcDbLayout
  1
Model
 70
     0
 71
     0
 10
0.0
 20
0.0
 11
0.0
 21
0.0
 12
0.0
 22
0.0
 32
0.0
 14
0.0
 24
0.0
 34
0.0
 15
0.0
 25
0.0
 35
0.0
146
0.0
 13
0.0
 23
0.0
 33
0.0
 16
0.0
 26
0.0
 36
0.0
 17
0.0
 27
0.0
 37
0.0
 76
     0
330
A
331
0
345
0
346
0
  0
LAYOUT
  5
21
102
{ACAD_REACTORS
330
1E
102
}
100
AcDbPlotSettings
  1

  2

  4

  6

 40
0.0
 41
0.0
 42
0.0
 43
0.0
 44
0.0
 45
0.0
 46
0.0
 47
0.0
 48
0.0
 49
0.0
140
0.0
141
0.0
142
1.0
143
1.0
 70
     0
 72
     0
 73
     0
 74
     0
  7

 75
     0
147
1.0
148
0.0
149
0.0
100
AcDbLayout
  1
Layout1
 70
     0
 71
     0
 10
0.0
 20
0.0
 11
0.0
 21
0.0
 12
0.0
 22
0.0
 32
0.0
 14
0.0
 24
0.0
 34
0.0
 15
0.0
 25
0.0
 35
0.0
146
0.0
 13
0.0
 23
0.0
 33
0.0
 16
0.0
 26
0.0
 36
0.0
 17
0.0
 27
0.0
 37
0.0
 76
     0
330
B
331
0
345
0
346
0
  0
DICTIONARY
  5
1E
102
{ACAD_REACTORS
330
19
102
}
100
AcDbDictionary
280
     0
281
     1
  3
Layout1
350
21
  3
Model
350
20
  0
DICTIONARY
  5
22
102
{ACAD_REACTORS
330
19
102
}
100
AcDbDictionary
280
     0
281
     1
  0
WIPEOUTVARIABLES
  5
23
100
AcDbWipeoutVariables
 70
     1
  0
XRECORD
  5
805
100
AcDbXrecord
280
     1
  1
DWGPROPS COOKIE
  2

  3

  4

  6

  7

  8
YP81315
  9

300
=
301
=
302
=
303
=
304
=
305
=
306
=
307
=
308
=
309
=
 40
0.0
 41
2456813.62728
 42
2456813.62728
  1

 90
        0
  0
ENDSEC
  0
EOF
