  0
SECTION
  2
HEADER
  9
$ACADVER
  1
AC1015
  9
$ACADMAINTVER
 70
     6
  9
$DWGCODEPAGE
  3
ANSI_932
  9
$INSBASE
 10
0.0
 20
0.0
 30
0.0
  9
$EXTMIN
 10
1.000000E+20
 20
1.000000E+20
 30
1.000000E+20
  9
$EXTMAX
 10
-1.000000E+20
 20
-1.000000E+20
 30
-1.000000E+20
  9
$LIMMIN
 10
0.0
 20
0.0
  9
$LIMMAX
 10
0.0
 20
0.0
  9
$ORTHOMODE
 70
     0
  9
$REGENMODE
 70
     1
  9
$FILLMODE
 70
     1
  9
$QTEXTMODE
 70
     0
  9
$MIRRTEXT
 70
     1
  9
$LTSCALE
 40
1.0
  9
$ATTMODE
 70
     1
  9
$TEXTSIZE
 40
7.0
  9
$TRACEWID
 40
0.05
  9
$TEXTSTYLE
  7
Standard
  9
$CLAYER
  8
0
  9
$CELTYPE
  6
Continuous
  9
$CECOLOR
 62
   256
  9
$CELTSCALE
 40
1.0
  9
$DISPSILH
 70
     0
  9
$DIMSCALE
 40
1.0
  9
$DIMASZ
 40
1.931852
  9
$DIMEXO
 40
1.0
  9
$DIMDLI
 40
0.38
  9
$DIMRND
 40
0.0
  9
$DIMDLE
 40
0.0
  9
$DIMEXE
 40
2.0
  9
$DIMTP
 40
0.0
  9
$DIMTM
 40
0.0
  9
$DIMTXT
 40
2.8
  9
$DIMCEN
 40
0.09
  9
$DIMTSZ
 40
0.0
  9
$DIMTOL
 70
     0
  9
$DIMLIM
 70
     0
  9
$DIMTIH
 70
     1
  9
$DIMTOH
 70
     1
  9
$DIMSE1
 70
     0
  9
$DIMSE2
 70
     0
  9
$DIMTAD
 70
     1
  9
$DIMZIN
 70
     0
  9
$DIMBLK
  1

  9
$DIMASO
 70
     1
  9
$DIMSHO
 70
     1
  9
$DIMPOST
  1

  9
$DIMAPOST
  1

  9
$DIMALT
 70
     0
  9
$DIMALTD
 70
     2
  9
$DIMALTF
 40
25.4
  9
$DIMLFAC
 40
1.0
  9
$DIMTOFL
 70
     0
  9
$DIMTVP
 40
0.0
  9
$DIMTIX
 70
     0
  9
$DIMSOXD
 70
     0
  9
$DIMSAH
 70
     0
  9
$DIMBLK1
  1

  9
$DIMBLK2
  1

  9
$DIMSTYLE
  2
Standard
  9
$DIMCLRD
 70
     0
  9
$DIMCLRE
 70
     0
  9
$DIMCLRT
 70
     0
  9
$DIMTFAC
 40
0.714286
  9
$DIMGAP
 40
0.09
  9
$DIMJUST
 70
     0
  9
$DIMSD1
 70
     0
  9
$DIMSD2
 70
     0
  9
$DIMTOLJ
 70
     1
  9
$DIMTZIN
 70
     0
  9
$DIMALTZ
 70
     0
  9
$DIMALTTZ
 70
     0
  9
$DIMUPT
 70
     0
  9
$DIMDEC
 70
     4
  9
$DIMTDEC
 70
     4
  9
$DIMALTU
 70
     2
  9
$DIMALTTD
 70
     2
  9
$DIMTXSTY
  7
Standard
  9
$DIMAUNIT
 70
     0
  9
$DIMADEC
 70
     0
  9
$DIMALTRND
 40
0.0
  9
$DIMAZIN
 70
     0
  9
$DIMDSEP
 70
     0
  9
$DIMATFIT
 70
     3
  9
$DIMFRAC
 70
     0
  9
$DIMLDRBLK
  1

  9
$DIMLUNIT
 70
     2
  9
$DIMLWD
 70
     0
  9
$DIMLWE
 70
     0
  9
$DIMTMOVE
 70
     0
  9
$LUNITS
 70
     2
  9
$LUPREC
 70
     3
  9
$SKETCHINC
 40
0.1
  9
$FILLETRAD
 40
0.0
  9
$AUNITS
 70
     0
  9
$AUPREC
 70
     0
  9
$MENU
  1
acad
  9
$ELEVATION
 40
0.0
  9
$PELEVATION
 40
0.0
  9
$THICKNESS
 40
0.0
  9
$LIMCHECK
 70
     0
  9
$CHAMFERA
 40
0.0
  9
$CHAMFERB
 40
0.0
  9
$CHAMFERC
 40
0.0
  9
$CHAMFERD
 40
0.0
  9
$SKPOLY
 70
     0
  9
$TDCREATE
 40
0.000000000
  9
$TDUCREATE
 40
0.000000000
  9
$TDUPDATE
 40
0.000000000
  9
$TDUUPDATE
 40
0.000000000
  9
$TDINDWG
 40
0.0000000000
  9
$TDUSRTIMER
 40
0.0000000000
  9
$USRTIMER
 70
     1
  9
$ANGBASE
 50
0.0
  9
$ANGDIR
 70
     0
  9
$PDMODE
 70
     0
  9
$PDSIZE
 40
0.0
  9
$PLINEWID
 40
0.0
  9
$SPLFRAME
 70
     0
  9
$SPLINETYPE
 70
     6
  9
$SPLINESEGS
 70
     8
  9
$HANDSEED
  5
465
  9
$SURFTAB1
 70
     6
  9
$SURFTAB2
 70
     6
  9
$SURFTYPE
 70
     6
  9
$SURFU
 70
     6
  9
$SURFV
 70
     6
  9
$UCSBASE
  2

  9
$UCSNAME
  2

  9
$UCSORG
 10
0.0
 20
0.0
 30
0.0
  9
$UCSXDIR
 10
1.0
 20
0.0
 30
0.0
  9
$UCSYDIR
 10
0.0
 20
1.0
 30
0.0
  9
$UCSORTHOREF
  2

  9
$UCSORTHOVIEW
 70
     0
  9
$UCSORGTOP
 10
0.0
 20
0.0
 30
0.0
  9
$UCSORGBOTTOM
 10
0.0
 20
0.0
 30
0.0
  9
$UCSORGLEFT
 10
0.0
 20
0.0
 30
0.0
  9
$UCSORGRIGHT
 10
0.0
 20
0.0
 30
0.0
  9
$UCSORGFRONT
 10
0.0
 20
0.0
 30
0.0
  9
$UCSORGBACK
 10
0.0
 20
0.0
 30
0.0
  9
$PUCSBASE
  2

  9
$PUCSNAME
  2

  9
$PUCSORG
 10
0.0
 20
0.0
 30
0.0
  9
$PUCSXDIR
 10
1.0
 20
0.0
 30
0.0
  9
$PUCSYDIR
 10
0.0
 20
1.0
 30
0.0
  9
$PUCSORTHOREF
  2

  9
$PUCSORTHOVIEW
 70
     0
  9
$PUCSORGTOP
 10
0.0
 20
0.0
 30
0.0
  9
$PUCSORGBOTTOM
 10
0.0
 20
0.0
 30
0.0
  9
$PUCSORGLEFT
 10
0.0
 20
0.0
 30
0.0
  9
$PUCSORGRIGHT
 10
0.0
 20
0.0
 30
0.0
  9
$PUCSORGFRONT
 10
0.0
 20
0.0
 30
0.0
  9
$PUCSORGBACK
 10
0.0
 20
0.0
 30
0.0
  9
$USERI1
 70
     0
  9
$USERI2
 70
     0
  9
$USERI3
 70
     0
  9
$USERI4
 70
     0
  9
$USERI5
 70
     0
  9
$USERR1
 40
0.0
  9
$USERR2
 40
0.0
  9
$USERR3
 40
0.0
  9
$USERR4
 40
0.0
  9
$USERR5
 40
0.0
  9
$WORLDVIEW
 70
     1
  9
$SHADEDGE
 70
     3
  9
$SHADEDIF
 70
    70
  9
$TILEMODE
 70
     1
  9
$MAXACTVP
 70
    16
  9
$PINSBASE
 10
0.0
 20
0.0
 30
0.0
  9
$PLIMCHECK
 70
     0
  9
$PEXTMIN
 10
1.000000E+20
 20
1.000000E+20
 30
1.000000E+20
  9
$PEXTMAX
 10
-1.000000E+20
 20
-1.000000E+20
 30
-1.000000E+20
  9
$PLIMMIN
 10
0.0
 20
0.0
  9
$PLIMMAX
 10
12.0
 20
9.0
  9
$UNITMODE
 70
     0
  9
$VISRETAIN
 70
     0
  9
$PLINEGEN
 70
     1
  9
$PSLTSCALE
 70
     0
  9
$TREEDEPTH
 70
  3020
  9
$CMLSTYLE
  2
Standard
  9
$CMLJUST
 70
     0
  9
$CMLSCALE
 40
1.0
  9
$PROXYGRAPHICS
 70
     0
  9
$MEASUREMENT
 70
     0
  9
$CELWEIGHT
370
     0
  9
$ENDCAPS
280
     0
  9
$JOINSTYLE
280
     0
  9
$LWDISPLAY
290
     0
  9
$INSUNITS
 70
     0
  9
$HYPERLINKBASE
  1

  9
$STYLESHEET
  1

  9
$XEDIT
290
     1
  9
$CEPSNTYPE
380
     0
  9
$PSTYLEMODE
290
     1
  9
$FINGERPRINTGUID
  2

  9
$VERSIONGUID
  2

  9
$EXTNAMES
290
     1
  9
$PSVPSCALE
 40
0.0
  0
ENDSEC
  0
SECTION
  2
CLASSES
  0
CLASS
  1
LWPOLYLINE
  2
AcDbPolyline
  3
AutoCAD 2000
 90
    32768
280
     0
281
     1
  0
CLASS
  1
IMAGE
  2
AcDbRasterImage
  3
ISM
 90
    32895
280
     0
281
     1
  0
CLASS
  1
OLE2FRAME
  2
AcDbOle2Frame
  3
AutoCAD 2000
 90
    32768
280
     0
281
     1
  0
CLASS
  1
HATCH
  2
AcDbHatch
  3
AutoCAD 2000
 90
    32768
280
     0
281
     1
  0
CLASS
  1
DICTIONARYVAR
  2
AcDbDictionaryVar
  3
AutoCAD 2000
 90
    32768
280
     0
281
     0
  0
CLASS
  1
RASTERVARIABLES
  2
AcDbRasterVariables
  3
ISM
 90
    32768
280
     0
281
     0
  0
CLASS
  1
IMAGEDEF
  2
AcDbRasterImageDef
  3
ISM
 90
    32768
280
     0
281
     0
  0
CLASS
  1
IMAGEDEF_REACTOR
  2
AcDbRasterImageDefReactor
  3
ISM
 90
    32769
280
     0
281
     0
  0
CLASS
  1
IDBUFFER
  2
AcDbIdBuffer
  3
AutoCAD 2000
 90
    32768
280
     0
281
     0
  0
CLASS
  1
SPATIAL_FILTER
  2
AcDbSpatialFilter
  3
AutoCAD 2000
 90
    32768
280
     0
281
     0
  0
CLASS
  1
XRECORD
  2
AcDbXrecord
  3
AutoCAD 2000
 90
        0
280
     0
281
     0
  0
CLASS
  1
SORTENTSTABLE
  2
AcDbSortentsTable
  3
AutoCAD 2000
 90
    32768
280
     0
281
     0
  0
CLASS
  1
LAYER_INDEX
  2
AcDbLayerIndex
  3
AutoCAD 2000
 90
    32768
280
     0
281
     0
  0
CLASS
  1
SPATIAL_INDEX
  2
AcDbSpatialIndex
  3
AutoCAD 2000
 90
    32768
280
     0
281
     0
  0
CLASS
  1
OBJECT_PTR
  2
CAseDLPNTableRecord
  3
"ASE-LPNTableRecord"
 90
    32769
280
     0
281
     0
  0
CLASS
  1
LAYOUT
  2
AcDbLayout
  3
AutoCAD 2000
 90
        0
280
     0
281
     0
  0
CLASS
  1
PLOTSETTINGS
  2
AcDbPlotSettings
  3
AutoCAD 2000
 90
    32768
280
     0
281
     0
  0
CLASS
  1
ACDBDICTIONARYWDFLT
  2
AcDbDictionaryWithDefault
  3
AutoCAD 2000
 90
        0
280
     0
281
     0
  0
CLASS
  1
ACDBPLACEHOLDER
  2
AcDbPlaceHolder
  3
AutoCAD 2000
 90
        0
280
     0
281
     0
  0
CLASS
  1
VBA_PROJECT
  2
AcDbVbaProject
  3
acadvba
 90
    32768
280
     0
281
     0
  0
CLASS
  1
WIPEOUT
  2
AcDbWipeout
  3
WipeOut|AutoCAD Express Tool|expresstools@autodesk.com
 90
    32895
280
     0
281
     1
  0
CLASS
  1
WIPEOUTVARIABLES
  2
AcDbWipeoutVariables
  3
WipeOut|AutoCAD Express Tool|expresstools@autodesk.com
 90
        0
280
     0
281
     0
  0
CLASS
  1
RTEXT
  2
RText
  3
RText|AutoCAD Express Tool|expresstools@autodesk.com
 90
    32768
280
     0
281
     1
  0
CLASS
  1
ARCALIGNEDTEXT
  2
AcDbArcAlignedText
  3
ATEXT|AutoCAD Express Tool|expresstools@autodesk.com
 90
    32768
280
     0
281
     1
  0
ENDSEC
  0
SECTION
  2
TABLES
  0
TABLE
  2
VPORT
  5
7
100
AcDbSymbolTable
 70
     1
  0
VPORT
  5
15
100
AcDbSymbolTableRecord
100
AcDbViewportTableRecord
  2
*ACTIVE
 70
     0
 10
0.0
 20
0.0
 11
1.0
 21
1.0
 12
0.0
 22
0.0
 13
0.0
 23
0.0
 14
1.0
 24
1.0
 15
0.0
 25
0.0
 16
0.0
 26
0.0
 36
1.0
 17
0.0
 27
0.0
 37
0.0
 40
100.0
 41
1.0
 42
50.0
 43
0.0
 44
0.0
 50
0.0
 51
0.0
 71
     0
 72
   100
 73
     1
 74
     1
 75
     0
 76
     0
 77
     0
 78
     0
281
     0
 65
     0
110
0.0
120
0.0
130
0.0
111
1.0
121
0.0
131
0.0
112
0.0
122
1.0
132
0.0
345
0
346
0
 79
     0
146
0.0
  0
ENDTAB
  0
TABLE
  2
LTYPE
  5
4
100
AcDbSymbolTable
 70
     7
  0
LTYPE
  5
11
100
AcDbSymbolTableRecord
100
AcDbLinetypeTableRecord
  2
ByBlock
 70
    64
  3

 72
    65
 73
     0
 40
0.0
  0
LTYPE
  5
12
100
AcDbSymbolTableRecord
100
AcDbLinetypeTableRecord
  2
ByLayer
 70
    64
  3

 72
    65
 73
     0
 40
0.0
  0
LTYPE
  5
13
100
AcDbSymbolTableRecord
100
AcDbLinetypeTableRecord
  2
Continuous
 70
    64
  3
Solid line
 72
    65
 73
     0
 40
0.0
  0
LTYPE
  5
24
100
AcDbSymbolTableRecord
100
AcDbLinetypeTableRecord
  2
DASHED
 70
    64
  3
Dashed __ __ __ __ __ __ __ __ __ __ __ __ __ _
 72
    65
 73
     2
 40
0.75
 49
0.5
 74
     0
 49
-0.25
 74
     0
  0
LTYPE
  5
25
100
AcDbSymbolTableRecord
100
AcDbLinetypeTableRecord
  2
CENTER
 70
    64
  3
Center ____ _ ____ _ ____ _ ____ _ ____ _ ____
 72
    65
 73
     4
 40
1.0
 49
0.5
 74
     0
 49
-0.25
 74
     0
 49
0.0
 74
     0
 49
-0.25
 74
     0
  0
LTYPE
  5
26
100
AcDbSymbolTableRecord
100
AcDbLinetypeTableRecord
  2
DIVIDE
 70
    64
  3
Divide ____ . . ____ . . ____ . . ____ . . ____
 72
    65
 73
     6
 40
1.25
 49
0.5
 74
     0
 49
-0.25
 74
     0
 49
0.0
 74
     0
 49
-0.25
 74
     0
 49
0.0
 74
     0
 49
-0.25
 74
     0
  0
LTYPE
  5
27
100
AcDbSymbolTableRecord
100
AcDbLinetypeTableRecord
  2
PHANTOM
 70
    64
  3
Phantom ______  __  __  ______  __  __  ______
 72
    65
 73
     6
 40
9.0
 49
4.3
 74
     0
 49
-0.7
 74
     0
 49
1.3
 74
     0
 49
-0.7
 74
     0
 49
1.3
 74
     0
 49
-0.7
 74
     0
  0
ENDTAB
  0
TABLE
  2
LAYER
  5
2
100
AcDbSymbolTable
 70
     3
  0
LAYER
  5
14
100
AcDbSymbolTableRecord
100
AcDbLayerTableRecord
  2
0
 70
    64
 62
    53
  6
Continuous
290
     1
370
    -3
390
1D
  0
LAYER
  5
28
100
AcDbSymbolTableRecord
100
AcDbLayerTableRecord
  2
3
 70
    64
 62
     4
  6
Continuous
290
     1
370
    -3
390
1D
  0
LAYER
  5
29
100
AcDbSymbolTableRecord
100
AcDbLayerTableRecord
  2
5
 70
    64
 62
   191
  6
Continuous
290
     1
370
    -3
390
1D
  0
ENDTAB
  0
TABLE
  2
STYLE
  5
3
100
AcDbSymbolTable
 70
     2
  0
STYLE
  5
17
100
AcDbSymbolTableRecord
100
AcDbTextStyleTableRecord
  2
Standard
 70
     0
 40
0.0
 41
1.0
 50
0.0
 71
     0
 42
0.0
  3
txt
  4

  0
STYLE
  5
101
100
AcDbSymbolTableRecord
100
AcDbTextStyleTableRecord
  2
ZU_SHPTB00001
 70
     0
 40
0.0
 41
1.0
 50
0.0
 71
     0
 42
0.0
  3
monotxt
  4
bigfont
  0
ENDTAB
  0
TABLE
  2
VIEW
  5
5
100
AcDbSymbolTable
 70
     0
  0
ENDTAB
  0
TABLE
  2
UCS
  5
6
100
AcDbSymbolTable
 70
     0
  0
ENDTAB
  0
TABLE
  2
APPID
  5
8
100
AcDbSymbolTable
 70
     1
  0
APPID
  5
16
100
AcDbSymbolTableRecord
100
AcDbRegAppTableRecord
  2
ACAD
 70
     0
  0
ENDTAB
  0
TABLE
  2
DIMSTYLE
  5
9
100
AcDbSymbolTable
 70
     1
100
AcDbDimStyleTable
 71
     0
  0
DIMSTYLE
105
18
100
AcDbSymbolTableRecord
100
AcDbDimStyleTableRecord
  2
Standard
 70
     0
  3

  4

 40
1.0
 41
0.18
 42
0.0625
 43
0.38
 44
0.18
 45
0.0
 46
0.0
 47
0.0
 48
0.0
 71
     0
 72
     0
 73
     1
 74
     1
 75
     0
 76
     0
 77
     0
 78
     0
 79
     0
140
0.18
141
0.09
142
0.0
143
25.4
144
1.0
145
0.0
146
1.0
147
0.09
148
0.0
170
     0
171
     2
172
     0
173
     0
174
     0
175
     0
176
     0
177
     0
178
     0
179
     0
271
     4
272
     4
273
     2
274
     2
275
     0
276
     0
277
     2
278
    46
279
     0
280
     0
281
     0
282
     0
283
     1
284
     0
285
     0
286
     0
288
     0
340
17
341
0
342
0
343
0
344
0
371
    -2
372
    -2
  0
ENDTAB
  0
TABLE
  2
BLOCK_RECORD
  5
1
100
AcDbSymbolTable
 70
    11
  0
BLOCK_RECORD
  5
A
100
AcDbSymbolTableRecord
100
AcDbBlockTableRecord
  2
*MODEL_SPACE
340
20
  0
BLOCK_RECORD
  5
B
100
AcDbSymbolTableRecord
100
AcDbBlockTableRecord
  2
*PAPER_SPACE
340
21
  0
BLOCK_RECORD
  5
46
100
AcDbSymbolTableRecord
100
AcDbBlockTableRecord
  2
ZU_SYM_K__CAD_SYM_POO_SYM_N20_-1
340
0
102
{BLKREFS
331
51
102
}
  0
BLOCK_RECORD
  5
52
100
AcDbSymbolTableRecord
100
AcDbBlockTableRecord
  2
ZU_SYM_K__CAD_SYM_POO_SYM_N20_00001-1
340
0
102
{BLKREFS
331
5D
102
}
  0
BLOCK_RECORD
  5
F3
100
AcDbSymbolTableRecord
100
AcDbBlockTableRecord
  2
ZU_SYM_K__CAD_SYM_POO_SYM_P28_-1
340
0
102
{BLKREFS
331
100
102
}
  0
BLOCK_RECORD
  5
110
100
AcDbSymbolTableRecord
100
AcDbBlockTableRecord
  2
ZU_SYM__USERS_HOME_SYMBOL_STD_SYM_B01_-1
340
0
102
{BLKREFS
331
11F
102
}
  0
BLOCK_RECORD
  5
120
100
AcDbSymbolTableRecord
100
AcDbBlockTableRecord
  2
ZU_SYM__USERS_HOME_SYMBOL_STD_SYM_B01_00002-1
340
0
102
{BLKREFS
331
12F
102
}
  0
BLOCK_RECORD
  5
1D0
100
AcDbSymbolTableRecord
100
AcDbBlockTableRecord
  2
ZU_SYM__USERS_HOME_SYMBOL_POO_SYM_B20_-1
340
0
102
{BLKREFS
331
1DB
102
}
  0
BLOCK_RECORD
  5
1DC
100
AcDbSymbolTableRecord
100
AcDbBlockTableRecord
  2
ZU_SYM__USERS_HOME_SYMBOL_POO_SYM_B20_00003-1
340
0
102
{BLKREFS
331
1E7
102
}
  0
BLOCK_RECORD
  5
221
100
AcDbSymbolTableRecord
100
AcDbBlockTableRecord
  2
ZU_SYM__USERS_HOME_SYMBOL_POO_SYM_B20_00004-1
340
0
102
{BLKREFS
331
22C
102
}
  0
BLOCK_RECORD
  5
22D
100
AcDbSymbolTableRecord
100
AcDbBlockTableRecord
  2
ZU_SYM__USERS_HOME_SYMBOL_POO_SYM_B20_00005-1
340
0
102
{BLKREFS
331
238
102
}
  0
BLOCK_RECORD
  5
29E
100
AcDbSymbolTableRecord
100
AcDbBlockTableRecord
  2
ZU_SYM__USERS_HOME_SYMBOL_STD_SYM_B01_00006-1
340
0
102
{BLKREFS
331
2AD
102
}
  0
BLOCK_RECORD
  5
2AE
100
AcDbSymbolTableRecord
100
AcDbBlockTableRecord
  2
ZU_SYM__USERS_HOME_SYMBOL_STD_SYM_B01_00007-1
340
0
102
{BLKREFS
331
2BD
102
}
  0
ENDTAB
  0
ENDSEC
  0
SECTION
  2
BLOCKS
  0
BLOCK
  5
D
100
AcDbEntity
  8
0
100
AcDbBlockBegin
  2
*MODEL_SPACE
 70
     0
 10
0.0
 20
0.0
 30
0.0
  3
*MODEL_SPACE
  1

  0
ENDBLK
  5
E
100
AcDbEntity
  8
0
100
AcDbBlockEnd
  0
BLOCK
  5
F
100
AcDbEntity
 67
     1
  8
0
100
AcDbBlockBegin
  2
*PAPER_SPACE
 70
     0
 10
0.0
 20
0.0
 30
0.0
  3
*PAPER_SPACE
  1

  0
ENDBLK
  5
10
100
AcDbEntity
 67
     1
  8
0
100
AcDbBlockEnd
  0
BLOCK
  5
47
100
AcDbEntity
  8
0
100
AcDbBlockBegin
  2
ZU_SYM_K__CAD_SYM_POO_SYM_N20_-1
 70
    64
 10
0.0
 20
0.0
 30
0.0
  3
ZU_SYM_K__CAD_SYM_POO_SYM_N20_-1
  1

  0
POINT
  5
48
100
AcDbEntity
  8
0
370
    -3
  6
Continuous
100
AcDbPoint
 10
0.0
 20
0.0
 30
0.0
  0
LINE
  5
49
100
AcDbEntity
  8
0
370
    -3
  6
Continuous
100
AcDbLine
 10
-2.300001
 20
-4.0
 30
0.0
 11
-4.6
 21
-0.000001
 31
0.0
  0
LINE
  5
4A
100
AcDbEntity
  8
0
370
    -3
  6
Continuous
100
AcDbLine
 10
-4.6
 20
0.000001
 30
0.0
 11
-2.300001
 21
4.0
 31
0.0
  0
LINE
  5
4B
100
AcDbEntity
  8
0
370
    -3
  6
Continuous
100
AcDbLine
 10
-2.299999
 20
4.0
 30
0.0
 11
2.299999
 21
4.0
 31
0.0
  0
LINE
  5
4C
100
AcDbEntity
  8
0
370
    -3
  6
Continuous
100
AcDbLine
 10
2.300001
 20
4.0
 30
0.0
 11
4.6
 21
0.000001
 31
0.0
  0
LINE
  5
4D
100
AcDbEntity
  8
0
370
    -3
  6
Continuous
100
AcDbLine
 10
4.6
 20
-0.000001
 30
0.0
 11
2.300001
 21
-4.0
 31
0.0
  0
LINE
  5
4E
100
AcDbEntity
  8
0
370
    -3
  6
Continuous
100
AcDbLine
 10
2.299999
 20
-4.0
 30
0.0
 11
-2.299999
 21
-4.0
 31
0.0
  0
CIRCLE
  5
4F
100
AcDbEntity
  8
0
370
    -3
  6
Continuous
100
AcDbCircle
 10
0.0
 20
0.0
 30
0.0
 40
4.0
  0
ENDBLK
  5
50
100
AcDbEntity
  8
0
100
AcDbBlockEnd
  0
BLOCK
  5
53
100
AcDbEntity
  8
0
100
AcDbBlockBegin
  2
ZU_SYM_K__CAD_SYM_POO_SYM_N20_00001-1
 70
    64
 10
0.0
 20
0.0
 30
0.0
  3
ZU_SYM_K__CAD_SYM_POO_SYM_N20_00001-1
  1

  0
POINT
  5
54
100
AcDbEntity
  8
0
370
    -3
  6
Continuous
100
AcDbPoint
 10
0.0
 20
0.0
 30
0.0
  0
LINE
  5
55
100
AcDbEntity
  8
0
370
    -3
  6
Continuous
100
AcDbLine
 10
-2.300001
 20
-4.0
 30
0.0
 11
-4.6
 21
-0.000001
 31
0.0
  0
LINE
  5
56
100
AcDbEntity
  8
0
370
    -3
  6
Continuous
100
AcDbLine
 10
-4.6
 20
0.000001
 30
0.0
 11
-2.300001
 21
4.0
 31
0.0
  0
LINE
  5
57
100
AcDbEntity
  8
0
370
    -3
  6
Continuous
100
AcDbLine
 10
-2.299999
 20
4.0
 30
0.0
 11
2.299999
 21
4.0
 31
0.0
  0
LINE
  5
58
100
AcDbEntity
  8
0
370
    -3
  6
Continuous
100
AcDbLine
 10
2.300001
 20
4.0
 30
0.0
 11
4.6
 21
0.000001
 31
0.0
  0
LINE
  5
59
100
AcDbEntity
  8
0
370
    -3
  6
Continuous
100
AcDbLine
 10
4.6
 20
-0.000001
 30
0.0
 11
2.300001
 21
-4.0
 31
0.0
  0
LINE
  5
5A
100
AcDbEntity
  8
0
370
    -3
  6
Continuous
100
AcDbLine
 10
2.299999
 20
-4.0
 30
0.0
 11
-2.299999
 21
-4.0
 31
0.0
  0
CIRCLE
  5
5B
100
AcDbEntity
  8
0
370
    -3
  6
Continuous
100
AcDbCircle
 10
0.0
 20
0.0
 30
0.0
 40
4.0
  0
ENDBLK
  5
5C
100
AcDbEntity
  8
0
100
AcDbBlockEnd
  0
BLOCK
  5
F4
100
AcDbEntity
  8
0
100
AcDbBlockBegin
  2
ZU_SYM_K__CAD_SYM_POO_SYM_P28_-1
 70
    64
 10
0.0
 20
0.0
 30
0.0
  3
ZU_SYM_K__CAD_SYM_POO_SYM_P28_-1
  1

  0
LINE
  5
F5
100
AcDbEntity
  8
0
370
    -3
  6
Continuous
100
AcDbLine
 10
-3.983716
 20
2.300001
 30
0.0
 11
-3.983716
 21
0.0
 31
0.0
  0
LINE
  5
F6
100
AcDbEntity
  8
0
370
    -3
  6
Continuous
100
AcDbLine
 10
-3.983716
 20
-2.300001
 30
0.0
 11
-3.983716
 21
0.0
 31
0.0
  0
LINE
  5
F7
100
AcDbEntity
  8
0
370
    -3
  6
Continuous
100
AcDbLine
 10
3.983717
 20
2.300002
 30
0.0
 11
3.983717
 21
0.0
 31
0.0
  0
LINE
  5
F8
100
AcDbEntity
  8
0
370
    -3
  6
Continuous
100
AcDbLine
 10
3.983717
 20
-2.300002
 30
0.0
 11
3.983717
 21
0.0
 31
0.0
  0
LINE
  5
F9
100
AcDbEntity
  8
0
370
    -3
  6
Continuous
100
AcDbLine
 10
0.0
 20
4.6
 30
0.0
 11
-3.983716
 21
2.300001
 31
0.0
  0
LINE
  5
FA
100
AcDbEntity
  8
0
370
    -3
  6
Continuous
100
AcDbLine
 10
0.000001
 20
-4.6
 30
0.0
 11
-3.983717
 21
-2.300001
 31
0.0
  0
LINE
  5
FB
100
AcDbEntity
  8
0
370
    -3
  6
Continuous
100
AcDbLine
 10
0.000001
 20
4.6
 30
0.0
 11
3.983717
 21
2.300002
 31
0.0
  0
LINE
  5
FC
100
AcDbEntity
  8
0
370
    -3
  6
Continuous
100
AcDbLine
 10
0.000001
 20
-4.6
 30
0.0
 11
3.983717
 21
-2.300002
 31
0.0
  0
POINT
  5
FD
100
AcDbEntity
  8
0
370
    -3
  6
Continuous
100
AcDbPoint
 10
0.0
 20
0.0
 30
0.0
  0
CIRCLE
  5
FE
100
AcDbEntity
  8
0
370
    -3
  6
Continuous
100
AcDbCircle
 10
0.0
 20
0.0
 30
0.0
 40
8.5
  0
ENDBLK
  5
FF
100
AcDbEntity
  8
0
100
AcDbBlockEnd
  0
BLOCK
  5
111
100
AcDbEntity
  8
0
100
AcDbBlockBegin
  2
ZU_SYM__USERS_HOME_SYMBOL_STD_SYM_B01_-1
 70
    64
 10
0.0
 20
0.0
 30
0.0
  3
ZU_SYM__USERS_HOME_SYMBOL_STD_SYM_B01_-1
  1

  0
POINT
  5
112
100
AcDbEntity
  8
0
370
    -3
  6
Continuous
100
AcDbPoint
 10
0.0
 20
0.0
 30
0.0
  0
LINE
  5
113
100
AcDbEntity
  8
0
370
    -3
  6
Continuous
100
AcDbLine
 10
-0.000018
 20
-4.599998
 30
0.0
 11
-3.000017
 21
-4.599986
 31
0.0
  0
LINE
  5
114
100
AcDbEntity
  8
0
370
    -3
  6
Continuous
100
AcDbLine
 10
-2.999996
 20
-4.59997
 30
0.0
 11
-3.499991
 21
-3.899967
 31
0.0
  0
LINE
  5
115
100
AcDbEntity
  8
0
370
    -3
  6
Continuous
100
AcDbLine
 10
-3.500012
 20
-3.89998
 30
0.0
 11
-3.49998
 21
3.90001
 31
0.0
  0
LINE
  5
116
100
AcDbEntity
  8
0
370
    -3
  6
Continuous
100
AcDbLine
 10
-3.499965
 20
3.9
 30
0.0
 11
-2.999964
 21
4.599998
 31
0.0
  0
LINE
  5
117
100
AcDbEntity
  8
0
370
    -3
  6
Continuous
100
AcDbLine
 10
-2.999979
 20
4.600012
 30
0.0
 11
0.000019
 21
4.600001
 31
0.0
  0
LINE
  5
118
100
AcDbEntity
  8
0
370
    -3
  6
Continuous
100
AcDbLine
 10
0.000019
 20
4.6
 30
0.0
 11
-0.000019
 21
-4.6
 31
0.0
  0
LINE
  5
119
100
AcDbEntity
  8
0
370
    -3
  6
Continuous
100
AcDbLine
 10
-3.000008
 20
-2.299986
 30
0.0
 11
-0.000008
 21
-2.299998
 31
0.0
  0
LINE
  5
11A
100
AcDbEntity
  8
0
370
    -3
  6
Continuous
100
AcDbLine
 10
-2.999989
 20
2.300011
 30
0.0
 11
0.000009
 21
2.3
 31
0.0
  0
ARC
  5
11B
100
AcDbEntity
  8
0
370
    -3
  6
Continuous
100
AcDbCircle
 10
-1.930014
 20
-3.449991
 30
0.0
 40
1.57
100
AcDbArc
 50
132.899744
 51
179.999745
  0
ARC
  5
11C
100
AcDbEntity
  8
0
370
    -3
  6
Continuous
100
AcDbCircle
 10
-1.929986
 20
3.450007
 30
0.0
 40
1.57
100
AcDbArc
 50
179.999745
 51
227.099746
  0
ARC
  5
11D
100
AcDbEntity
  8
0
370
    -3
  6
Continuous
100
AcDbCircle
 10
2.040001
 20
-0.000008
 30
0.0
 40
5.539999
100
AcDbArc
 50
155.470187
 51
204.52925
  0
ENDBLK
  5
11E
100
AcDbEntity
  8
0
100
AcDbBlockEnd
  0
BLOCK
  5
121
100
AcDbEntity
  8
0
100
AcDbBlockBegin
  2
ZU_SYM__USERS_HOME_SYMBOL_STD_SYM_B01_00002-1
 70
    64
 10
0.0
 20
0.0
 30
0.0
  3
ZU_SYM__USERS_HOME_SYMBOL_STD_SYM_B01_00002-1
  1

  0
POINT
  5
122
100
AcDbEntity
  8
0
370
    -3
  6
Continuous
100
AcDbPoint
 10
0.0
 20
0.0
 30
0.0
  0
LINE
  5
123
100
AcDbEntity
  8
0
370
    -3
  6
Continuous
100
AcDbLine
 10
-0.000018
 20
-4.599998
 30
0.0
 11
-3.000017
 21
-4.599986
 31
0.0
  0
LINE
  5
124
100
AcDbEntity
  8
0
370
    -3
  6
Continuous
100
AcDbLine
 10
-2.999996
 20
-4.59997
 30
0.0
 11
-3.499991
 21
-3.899967
 31
0.0
  0
LINE
  5
125
100
AcDbEntity
  8
0
370
    -3
  6
Continuous
100
AcDbLine
 10
-3.500012
 20
-3.89998
 30
0.0
 11
-3.49998
 21
3.90001
 31
0.0
  0
LINE
  5
126
100
AcDbEntity
  8
0
370
    -3
  6
Continuous
100
AcDbLine
 10
-3.499965
 20
3.9
 30
0.0
 11
-2.999964
 21
4.599998
 31
0.0
  0
LINE
  5
127
100
AcDbEntity
  8
0
370
    -3
  6
Continuous
100
AcDbLine
 10
-2.999979
 20
4.600012
 30
0.0
 11
0.000019
 21
4.600001
 31
0.0
  0
LINE
  5
128
100
AcDbEntity
  8
0
370
    -3
  6
Continuous
100
AcDbLine
 10
0.000019
 20
4.6
 30
0.0
 11
-0.000019
 21
-4.6
 31
0.0
  0
LINE
  5
129
100
AcDbEntity
  8
0
370
    -3
  6
Continuous
100
AcDbLine
 10
-3.000008
 20
-2.299986
 30
0.0
 11
-0.000008
 21
-2.299998
 31
0.0
  0
LINE
  5
12A
100
AcDbEntity
  8
0
370
    -3
  6
Continuous
100
AcDbLine
 10
-2.999989
 20
2.300011
 30
0.0
 11
0.000009
 21
2.3
 31
0.0
  0
ARC
  5
12B
100
AcDbEntity
  8
0
370
    -3
  6
Continuous
100
AcDbCircle
 10
-1.930014
 20
-3.449991
 30
0.0
 40
1.57
100
AcDbArc
 50
132.899744
 51
179.999745
  0
ARC
  5
12C
100
AcDbEntity
  8
0
370
    -3
  6
Continuous
100
AcDbCircle
 10
-1.929986
 20
3.450007
 30
0.0
 40
1.57
100
AcDbArc
 50
179.999745
 51
227.099746
  0
ARC
  5
12D
100
AcDbEntity
  8
0
370
    -3
  6
Continuous
100
AcDbCircle
 10
2.040001
 20
-0.000008
 30
0.0
 40
5.539999
100
AcDbArc
 50
155.470187
 51
204.52925
  0
ENDBLK
  5
12E
100
AcDbEntity
  8
0
100
AcDbBlockEnd
  0
BLOCK
  5
1D1
100
AcDbEntity
  8
0
100
AcDbBlockBegin
  2
ZU_SYM__USERS_HOME_SYMBOL_POO_SYM_B20_-1
 70
    64
 10
0.0
 20
0.0
 30
0.0
  3
ZU_SYM__USERS_HOME_SYMBOL_POO_SYM_B20_-1
  1

  0
CIRCLE
  5
1D2
100
AcDbEntity
  8
0
370
    -3
  6
Continuous
100
AcDbCircle
 10
0.0
 20
0.0
 30
0.0
 40
5.0
  0
POINT
  5
1D3
100
AcDbEntity
  8
0
370
    -3
  6
Continuous
100
AcDbPoint
 10
0.0
 20
0.0
 30
0.0
  0
LINE
  5
1D4
100
AcDbEntity
  8
0
370
    -3
  6
Continuous
100
AcDbLine
 10
-2.499998
 20
-1.443372
 30
0.0
 11
-2.499999
 21
1.443378
 31
0.0
  0
LINE
  5
1D5
100
AcDbEntity
  8
0
370
    -3
  6
Continuous
100
AcDbLine
 10
2.499998
 20
1.443372
 30
0.0
 11
2.499999
 21
-1.443374
 31
0.0
  0
LINE
  5
1D6
100
AcDbEntity
  8
0
370
    -3
  6
Continuous
100
AcDbLine
 10
0.000005
 20
2.886749
 30
0.0
 11
2.499999
 21
1.443372
 31
0.0
  0
LINE
  5
1D7
100
AcDbEntity
  8
0
370
    -3
  6
Continuous
100
AcDbLine
 10
-0.000006
 20
-2.886747
 30
0.0
 11
-2.499998
 21
-1.443372
 31
0.0
  0
LINE
  5
1D8
100
AcDbEntity
  8
0
370
    -3
  6
Continuous
100
AcDbLine
 10
0.000005
 20
2.886748
 30
0.0
 11
-2.5
 21
1.443377
 31
0.0
  0
LINE
  5
1D9
100
AcDbEntity
  8
0
370
    -3
  6
Continuous
100
AcDbLine
 10
2.499999
 20
-1.443374
 30
0.0
 11
-0.000005
 21
-2.886748
 31
0.0
  0
ENDBLK
  5
1DA
100
AcDbEntity
  8
0
100
AcDbBlockEnd
  0
BLOCK
  5
1DD
100
AcDbEntity
  8
0
100
AcDbBlockBegin
  2
ZU_SYM__USERS_HOME_SYMBOL_POO_SYM_B20_00003-1
 70
    64
 10
0.0
 20
0.0
 30
0.0
  3
ZU_SYM__USERS_HOME_SYMBOL_POO_SYM_B20_00003-1
  1

  0
CIRCLE
  5
1DE
100
AcDbEntity
  8
0
370
    -3
  6
Continuous
100
AcDbCircle
 10
0.0
 20
0.0
 30
0.0
 40
5.0
  0
POINT
  5
1DF
100
AcDbEntity
  8
0
370
    -3
  6
Continuous
100
AcDbPoint
 10
0.0
 20
0.0
 30
0.0
  0
LINE
  5
1E0
100
AcDbEntity
  8
0
370
    -3
  6
Continuous
100
AcDbLine
 10
-2.499998
 20
-1.443372
 30
0.0
 11
-2.499999
 21
1.443378
 31
0.0
  0
LINE
  5
1E1
100
AcDbEntity
  8
0
370
    -3
  6
Continuous
100
AcDbLine
 10
2.499998
 20
1.443372
 30
0.0
 11
2.499999
 21
-1.443374
 31
0.0
  0
LINE
  5
1E2
100
AcDbEntity
  8
0
370
    -3
  6
Continuous
100
AcDbLine
 10
0.000005
 20
2.886749
 30
0.0
 11
2.499999
 21
1.443372
 31
0.0
  0
LINE
  5
1E3
100
AcDbEntity
  8
0
370
    -3
  6
Continuous
100
AcDbLine
 10
-0.000006
 20
-2.886747
 30
0.0
 11
-2.499998
 21
-1.443372
 31
0.0
  0
LINE
  5
1E4
100
AcDbEntity
  8
0
370
    -3
  6
Continuous
100
AcDbLine
 10
0.000005
 20
2.886748
 30
0.0
 11
-2.5
 21
1.443377
 31
0.0
  0
LINE
  5
1E5
100
AcDbEntity
  8
0
370
    -3
  6
Continuous
100
AcDbLine
 10
2.499999
 20
-1.443374
 30
0.0
 11
-0.000005
 21
-2.886748
 31
0.0
  0
ENDBLK
  5
1E6
100
AcDbEntity
  8
0
100
AcDbBlockEnd
  0
BLOCK
  5
222
100
AcDbEntity
  8
0
100
AcDbBlockBegin
  2
ZU_SYM__USERS_HOME_SYMBOL_POO_SYM_B20_00004-1
 70
    64
 10
0.0
 20
0.0
 30
0.0
  3
ZU_SYM__USERS_HOME_SYMBOL_POO_SYM_B20_00004-1
  1

  0
CIRCLE
  5
223
100
AcDbEntity
  8
0
370
    -3
  6
Continuous
100
AcDbCircle
 10
0.0
 20
0.0
 30
0.0
 40
5.0
  0
POINT
  5
224
100
AcDbEntity
  8
0
370
    -3
  6
Continuous
100
AcDbPoint
 10
0.0
 20
0.0
 30
0.0
  0
LINE
  5
225
100
AcDbEntity
  8
0
370
    -3
  6
Continuous
100
AcDbLine
 10
-2.499998
 20
-1.443372
 30
0.0
 11
-2.499999
 21
1.443378
 31
0.0
  0
LINE
  5
226
100
AcDbEntity
  8
0
370
    -3
  6
Continuous
100
AcDbLine
 10
2.499998
 20
1.443372
 30
0.0
 11
2.499999
 21
-1.443374
 31
0.0
  0
LINE
  5
227
100
AcDbEntity
  8
0
370
    -3
  6
Continuous
100
AcDbLine
 10
0.000005
 20
2.886749
 30
0.0
 11
2.499999
 21
1.443372
 31
0.0
  0
LINE
  5
228
100
AcDbEntity
  8
0
370
    -3
  6
Continuous
100
AcDbLine
 10
-0.000006
 20
-2.886747
 30
0.0
 11
-2.499998
 21
-1.443372
 31
0.0
  0
LINE
  5
229
100
AcDbEntity
  8
0
370
    -3
  6
Continuous
100
AcDbLine
 10
0.000005
 20
2.886748
 30
0.0
 11
-2.5
 21
1.443377
 31
0.0
  0
LINE
  5
22A
100
AcDbEntity
  8
0
370
    -3
  6
Continuous
100
AcDbLine
 10
2.499999
 20
-1.443374
 30
0.0
 11
-0.000005
 21
-2.886748
 31
0.0
  0
ENDBLK
  5
22B
100
AcDbEntity
  8
0
100
AcDbBlockEnd
  0
BLOCK
  5
22E
100
AcDbEntity
  8
0
100
AcDbBlockBegin
  2
ZU_SYM__USERS_HOME_SYMBOL_POO_SYM_B20_00005-1
 70
    64
 10
0.0
 20
0.0
 30
0.0
  3
ZU_SYM__USERS_HOME_SYMBOL_POO_SYM_B20_00005-1
  1

  0
CIRCLE
  5
22F
100
AcDbEntity
  8
0
370
    -3
  6
Continuous
100
AcDbCircle
 10
0.0
 20
0.0
 30
0.0
 40
5.0
  0
POINT
  5
230
100
AcDbEntity
  8
0
370
    -3
  6
Continuous
100
AcDbPoint
 10
0.0
 20
0.0
 30
0.0
  0
LINE
  5
231
100
AcDbEntity
  8
0
370
    -3
  6
Continuous
100
AcDbLine
 10
-2.499998
 20
-1.443372
 30
0.0
 11
-2.499999
 21
1.443378
 31
0.0
  0
LINE
  5
232
100
AcDbEntity
  8
0
370
    -3
  6
Continuous
100
AcDbLine
 10
2.499998
 20
1.443372
 30
0.0
 11
2.499999
 21
-1.443374
 31
0.0
  0
LINE
  5
233
100
AcDbEntity
  8
0
370
    -3
  6
Continuous
100
AcDbLine
 10
0.000005
 20
2.886749
 30
0.0
 11
2.499999
 21
1.443372
 31
0.0
  0
LINE
  5
234
100
AcDbEntity
  8
0
370
    -3
  6
Continuous
100
AcDbLine
 10
-0.000006
 20
-2.886747
 30
0.0
 11
-2.499998
 21
-1.443372
 31
0.0
  0
LINE
  5
235
100
AcDbEntity
  8
0
370
    -3
  6
Continuous
100
AcDbLine
 10
0.000005
 20
2.886748
 30
0.0
 11
-2.5
 21
1.443377
 31
0.0
  0
LINE
  5
236
100
AcDbEntity
  8
0
370
    -3
  6
Continuous
100
AcDbLine
 10
2.499999
 20
-1.443374
 30
0.0
 11
-0.000005
 21
-2.886748
 31
0.0
  0
ENDBLK
  5
237
100
AcDbEntity
  8
0
100
AcDbBlockEnd
  0
BLOCK
  5
29F
100
AcDbEntity
  8
0
100
AcDbBlockBegin
  2
ZU_SYM__USERS_HOME_SYMBOL_STD_SYM_B01_00006-1
 70
    64
 10
0.0
 20
0.0
 30
0.0
  3
ZU_SYM__USERS_HOME_SYMBOL_STD_SYM_B01_00006-1
  1

  0
POINT
  5
2A0
100
AcDbEntity
  8
0
370
    -3
  6
Continuous
100
AcDbPoint
 10
0.0
 20
0.0
 30
0.0
  0
LINE
  5
2A1
100
AcDbEntity
  8
0
370
    -3
  6
Continuous
100
AcDbLine
 10
-0.000018
 20
-4.599998
 30
0.0
 11
-3.000017
 21
-4.599986
 31
0.0
  0
LINE
  5
2A2
100
AcDbEntity
  8
0
370
    -3
  6
Continuous
100
AcDbLine
 10
-2.999996
 20
-4.59997
 30
0.0
 11
-3.499991
 21
-3.899967
 31
0.0
  0
LINE
  5
2A3
100
AcDbEntity
  8
0
370
    -3
  6
Continuous
100
AcDbLine
 10
-3.500012
 20
-3.89998
 30
0.0
 11
-3.49998
 21
3.90001
 31
0.0
  0
LINE
  5
2A4
100
AcDbEntity
  8
0
370
    -3
  6
Continuous
100
AcDbLine
 10
-3.499965
 20
3.9
 30
0.0
 11
-2.999964
 21
4.599998
 31
0.0
  0
LINE
  5
2A5
100
AcDbEntity
  8
0
370
    -3
  6
Continuous
100
AcDbLine
 10
-2.999979
 20
4.600012
 30
0.0
 11
0.000019
 21
4.600001
 31
0.0
  0
LINE
  5
2A6
100
AcDbEntity
  8
0
370
    -3
  6
Continuous
100
AcDbLine
 10
0.000019
 20
4.6
 30
0.0
 11
-0.000019
 21
-4.6
 31
0.0
  0
LINE
  5
2A7
100
AcDbEntity
  8
0
370
    -3
  6
Continuous
100
AcDbLine
 10
-3.000008
 20
-2.299986
 30
0.0
 11
-0.000008
 21
-2.299998
 31
0.0
  0
LINE
  5
2A8
100
AcDbEntity
  8
0
370
    -3
  6
Continuous
100
AcDbLine
 10
-2.999989
 20
2.300011
 30
0.0
 11
0.000009
 21
2.3
 31
0.0
  0
ARC
  5
2A9
100
AcDbEntity
  8
0
370
    -3
  6
Continuous
100
AcDbCircle
 10
-1.930014
 20
-3.449991
 30
0.0
 40
1.57
100
AcDbArc
 50
132.899744
 51
179.999745
  0
ARC
  5
2AA
100
AcDbEntity
  8
0
370
    -3
  6
Continuous
100
AcDbCircle
 10
-1.929986
 20
3.450007
 30
0.0
 40
1.57
100
AcDbArc
 50
179.999745
 51
227.099746
  0
ARC
  5
2AB
100
AcDbEntity
  8
0
370
    -3
  6
Continuous
100
AcDbCircle
 10
2.040001
 20
-0.000008
 30
0.0
 40
5.539999
100
AcDbArc
 50
155.470187
 51
204.52925
  0
ENDBLK
  5
2AC
100
AcDbEntity
  8
0
100
AcDbBlockEnd
  0
BLOCK
  5
2AF
100
AcDbEntity
  8
0
100
AcDbBlockBegin
  2
ZU_SYM__USERS_HOME_SYMBOL_STD_SYM_B01_00007-1
 70
    64
 10
0.0
 20
0.0
 30
0.0
  3
ZU_SYM__USERS_HOME_SYMBOL_STD_SYM_B01_00007-1
  1

  0
POINT
  5
2B0
100
AcDbEntity
  8
0
370
    -3
  6
Continuous
100
AcDbPoint
 10
0.0
 20
0.0
 30
0.0
  0
LINE
  5
2B1
100
AcDbEntity
  8
0
370
    -3
  6
Continuous
100
AcDbLine
 10
-0.000018
 20
-4.599998
 30
0.0
 11
-3.000017
 21
-4.599986
 31
0.0
  0
LINE
  5
2B2
100
AcDbEntity
  8
0
370
    -3
  6
Continuous
100
AcDbLine
 10
-2.999996
 20
-4.59997
 30
0.0
 11
-3.499991
 21
-3.899967
 31
0.0
  0
LINE
  5
2B3
100
AcDbEntity
  8
0
370
    -3
  6
Continuous
100
AcDbLine
 10
-3.500012
 20
-3.89998
 30
0.0
 11
-3.49998
 21
3.90001
 31
0.0
  0
LINE
  5
2B4
100
AcDbEntity
  8
0
370
    -3
  6
Continuous
100
AcDbLine
 10
-3.499965
 20
3.9
 30
0.0
 11
-2.999964
 21
4.599998
 31
0.0
  0
LINE
  5
2B5
100
AcDbEntity
  8
0
370
    -3
  6
Continuous
100
AcDbLine
 10
-2.999979
 20
4.600012
 30
0.0
 11
0.000019
 21
4.600001
 31
0.0
  0
LINE
  5
2B6
100
AcDbEntity
  8
0
370
    -3
  6
Continuous
100
AcDbLine
 10
0.000019
 20
4.6
 30
0.0
 11
-0.000019
 21
-4.6
 31
0.0
  0
LINE
  5
2B7
100
AcDbEntity
  8
0
370
    -3
  6
Continuous
100
AcDbLine
 10
-3.000008
 20
-2.299986
 30
0.0
 11
-0.000008
 21
-2.299998
 31
0.0
  0
LINE
  5
2B8
100
AcDbEntity
  8
0
370
    -3
  6
Continuous
100
AcDbLine
 10
-2.999989
 20
2.300011
 30
0.0
 11
0.000009
 21
2.3
 31
0.0
  0
ARC
  5
2B9
100
AcDbEntity
  8
0
370
    -3
  6
Continuous
100
AcDbCircle
 10
-1.930014
 20
-3.449991
 30
0.0
 40
1.57
100
AcDbArc
 50
132.899744
 51
179.999745
  0
ARC
  5
2BA
100
AcDbEntity
  8
0
370
    -3
  6
Continuous
100
AcDbCircle
 10
-1.929986
 20
3.450007
 30
0.0
 40
1.57
100
AcDbArc
 50
179.999745
 51
227.099746
  0
ARC
  5
2BB
100
AcDbEntity
  8
0
370
    -3
  6
Continuous
100
AcDbCircle
 10
2.040001
 20
-0.000008
 30
0.0
 40
5.539999
100
AcDbArc
 50
155.470187
 51
204.52925
  0
ENDBLK
  5
2BC
100
AcDbEntity
  8
0
100
AcDbBlockEnd
  0
ENDSEC
  0
SECTION
  2
ENTITIES
  0
LINE
  5
2A
100
AcDbEntity
  8
0
370
    -3
  6
Continuous
100
AcDbLine
 10
598.68286
 20
-29.684253
 30
0.0
 11
598.68286
 21
-7.106218
 31
0.0
  0
ARC
  5
2B
100
AcDbEntity
  8
0
370
    -3
  6
Continuous
100
AcDbCircle
 10
593.68286
 20
-7.106218
 30
0.0
 40
5.0
100
AcDbArc
 50
0.0
 51
83.967951
  0
LINE
  5
2C
100
AcDbEntity
  8
0
370
    -3
  6
Continuous
100
AcDbLine
 10
565.18286
 20
0.027117
 30
0.0
 11
565.18286
 21
-0.4833
 31
0.0
  0
LINE
  5
2D
100
AcDbEntity
  8
0
370
    -3
  6
Continuous
100
AcDbLine
 10
560.18286
 20
0.027117
 30
0.0
 11
560.18286
 21
-0.4833
 31
0.0
  0
LINE
  5
2E
100
AcDbEntity
  8
0
370
    -3
  6
Continuous
100
AcDbLine
 10
565.18286
 20
0.027117
 30
0.0
 11
560.18286
 21
0.027117
 31
0.0
  0
LINE
  5
2F
100
AcDbEntity
  8
0
370
    -3
  6
Continuous
100
AcDbLine
 10
526.68286
 20
-28.427489
 30
0.0
 11
526.68286
 21
-7.106218
 31
0.0
  0
ARC
  5
30
100
AcDbEntity
  8
0
370
    -3
  6
Continuous
100
AcDbCircle
 10
531.68286
 20
-7.106218
 30
0.0
 40
5.0
100
AcDbArc
 50
96.032049
 51
180.0
  0
ARC
  5
31
100
AcDbEntity
  8
0
370
    -3
  6
Continuous
100
AcDbCircle
 10
562.68286
 20
-300.472883
 30
0.0
 40
300.0
100
AcDbArc
 50
83.967951
 51
96.032049
  0
LINE
  5
32
100
AcDbEntity
  8
0
370
    -3
  6
Continuous
100
AcDbLine
 10
-213.817741
 20
-28.253095
 30
0.0
 11
-223.817741
 21
-28.427645
 31
0.0
  0
LINE
  5
33
100
AcDbEntity
  8
0
370
    -3
  6
Continuous
100
AcDbLine
 10
-223.817741
 20
-34.47304
 30
0.0
 11
-234.3349
 21
-34.47304
 31
0.0
  0
LINE
  5
34
100
AcDbEntity
  8
0
370
    -3
  6
Continuous
100
AcDbLine
 10
-295.817741
 20
-29.68441
 30
0.0
 11
-308.317741
 21
-29.902598
 31
0.0
  0
LINE
  5
35
100
AcDbEntity
  8
0
370
    -3
  6
Continuous
100
AcDbLine
 10
-285.300582
 20
-34.47304
 30
0.0
 11
-295.817741
 21
-34.47304
 31
0.0
  0
LINE
  5
36
100
AcDbEntity
  8
0
370
    -3
  6
Continuous
100
AcDbLine
 10
-223.817741
 20
-38.653159
 30
0.0
 11
-223.817741
 21
-7.106375
 31
0.0
  0
LINE
  5
37
100
AcDbEntity
  8
0
370
    -3
  6
Continuous
100
AcDbLine
 10
-257.317741
 20
0.02696
 30
0.0
 11
-257.317741
 21
-0.483457
 31
0.0
  0
LINE
  5
38
100
AcDbEntity
  8
0
370
    -3
  6
Continuous
100
AcDbLine
 10
-257.317741
 20
0.02696
 30
0.0
 11
-257.317741
 21
-0.483457
 31
0.0
  0
ARC
  5
39
100
AcDbEntity
  8
0
370
    -3
  6
Continuous
100
AcDbCircle
 10
-228.817741
 20
-7.106375
 30
0.0
 40
5.0
100
AcDbArc
 50
0.0
 51
83.967951
  0
ARC
  5
3A
100
AcDbEntity
  8
0
370
    -3
  6
Continuous
100
AcDbCircle
 10
-228.817741
 20
-7.106375
 30
0.0
 40
5.0
100
AcDbArc
 50
0.0
 51
83.967951
  0
LINE
  5
3B
100
AcDbEntity
  8
0
370
    -3
  6
Continuous
100
AcDbLine
 10
-223.817741
 20
-26.034133
 30
0.0
 11
-223.817741
 21
-7.106375
 31
0.0
  0
LINE
  5
3C
100
AcDbEntity
  8
0
370
    -3
  6
Continuous
100
AcDbLine
 10
-295.817741
 20
-38.653159
 30
0.0
 11
-295.817741
 21
-7.106375
 31
0.0
  0
LINE
  5
3D
100
AcDbEntity
  8
0
370
    -3
  6
Continuous
100
AcDbLine
 10
-257.317741
 20
0.02696
 30
0.0
 11
-262.317741
 21
0.02696
 31
0.0
  0
LINE
  5
3E
100
AcDbEntity
  8
0
370
    -3
  6
Continuous
100
AcDbLine
 10
-262.317741
 20
0.02696
 30
0.0
 11
-257.317741
 21
0.02696
 31
0.0
  0
ARC
  5
3F
100
AcDbEntity
  8
0
370
    -3
  6
Continuous
100
AcDbCircle
 10
-259.817741
 20
-300.47304
 30
0.0
 40
300.0
100
AcDbArc
 50
83.967951
 51
96.032049
  0
ARC
  5
40
100
AcDbEntity
  8
0
370
    -3
  6
Continuous
100
AcDbCircle
 10
-259.817741
 20
-300.47304
 30
0.0
 40
300.0
100
AcDbArc
 50
83.967951
 51
96.032049
  0
ARC
  5
41
100
AcDbEntity
  8
0
370
    -3
  6
Continuous
100
AcDbCircle
 10
-290.817741
 20
-7.106375
 30
0.0
 40
5.0
100
AcDbArc
 50
96.032049
 51
180.0
  0
ARC
  5
42
100
AcDbEntity
  8
0
370
    -3
  6
Continuous
100
AcDbCircle
 10
-290.817741
 20
-7.106375
 30
0.0
 40
5.0
100
AcDbArc
 50
96.032049
 51
180.0
  0
LINE
  5
43
100
AcDbEntity
  8
0
370
    -3
  6
Continuous
100
AcDbLine
 10
-295.817741
 20
-27.142529
 30
0.0
 11
-295.817741
 21
-7.106375
 31
0.0
  0
LINE
  5
44
100
AcDbEntity
  8
0
370
    -3
  6
Continuous
100
AcDbLine
 10
-262.317741
 20
0.02696
 30
0.0
 11
-262.317741
 21
-0.483457
 31
0.0
  0
LINE
  5
45
100
AcDbEntity
  8
0
370
    -3
  6
Continuous
100
AcDbLine
 10
-262.317741
 20
0.02696
 30
0.0
 11
-262.317741
 21
-0.483457
 31
0.0
  0
INSERT
  5
51
100
AcDbEntity
  8
0
100
AcDbBlockReference
  2
ZU_SYM_K__CAD_SYM_POO_SYM_N20_-1
 10
-304.011915
 20
-160.667057
 30
0.0
  0
INSERT
  5
5D
100
AcDbEntity
  8
0
100
AcDbBlockReference
  2
ZU_SYM_K__CAD_SYM_POO_SYM_N20_00001-1
 10
-215.623568
 20
-160.667057
 30
0.0
  0
LINE
  5
5E
100
AcDbEntity
  8
0
370
    -3
  6
Continuous
100
AcDbLine
 10
50.182442
 20
-38.472883
 30
0.0
 11
48.382442
 21
-38.472883
 31
0.0
  0
ARC
  5
5F
100
AcDbEntity
  8
0
370
    -3
  6
Continuous
100
AcDbCircle
 10
47.382442
 20
-1.472883
 30
0.0
 40
1.0
100
AcDbArc
 50
0.0
 51
90.0
  0
LINE
  5
60
100
AcDbEntity
  8
0
370
    -3
  6
Continuous
100
AcDbLine
 10
48.382442
 20
-39.472883
 30
0.0
 11
48.382442
 21
-1.472883
 31
0.0
  0
LINE
  5
61
100
AcDbEntity
  8
0
370
    -3
  6
Continuous
100
AcDbLine
 10
50.182442
 20
-145.472883
 30
0.0
 11
-33.817558
 21
-145.472883
 31
0.0
  0
LINE
  5
62
100
AcDbEntity
  8
0
370
    -3
  6
Continuous
100
AcDbLine
 10
-33.817558
 20
-105.972883
 30
0.0
 11
50.182442
 21
-105.972883
 31
0.0
  0
LINE
  5
63
100
AcDbEntity
  8
0
370
    -3
  6
Continuous
100
AcDbLine
 10
-33.817558
 20
-111.600918
 30
0.0
 11
50.182442
 21
-111.600918
 31
0.0
  0
LINE
  5
64
100
AcDbEntity
  8
0
370
    -3
  6
Continuous
100
AcDbLine
 10
-33.817558
 20
-110.358998
 30
0.0
 11
50.182442
 21
-110.358998
 31
0.0
  0
LINE
  5
65
100
AcDbEntity
  8
0
370
    -3
  6
Continuous
100
AcDbLine
 10
-33.817558
 20
-114.811123
 30
0.0
 11
50.182442
 21
-114.811123
 31
0.0
  0
LINE
  5
66
100
AcDbEntity
  8
0
370
    -3
  6
Continuous
100
AcDbLine
 10
-33.817558
 20
-116.157524
 30
0.0
 11
50.182442
 21
-116.157524
 31
0.0
  0
LINE
  5
67
100
AcDbEntity
  8
0
370
    -3
  6
Continuous
100
AcDbLine
 10
-33.817558
 20
-119.250255
 30
0.0
 11
50.182442
 21
-119.250255
 31
0.0
  0
LINE
  5
68
100
AcDbEntity
  8
0
370
    -3
  6
Continuous
100
AcDbLine
 10
-33.817558
 20
-120.729279
 30
0.0
 11
50.182442
 21
-120.729279
 31
0.0
  0
LINE
  5
69
100
AcDbEntity
  8
0
370
    -3
  6
Continuous
100
AcDbLine
 10
-33.817558
 20
-123.687274
 30
0.0
 11
50.182442
 21
-123.687274
 31
0.0
  0
LINE
  5
6A
100
AcDbEntity
  8
0
370
    -3
  6
Continuous
100
AcDbLine
 10
-33.817558
 20
-125.276484
 30
0.0
 11
50.182442
 21
-125.276484
 31
0.0
  0
LINE
  5
6B
100
AcDbEntity
  8
0
370
    -3
  6
Continuous
100
AcDbLine
 10
-33.817558
 20
-133.014797
 30
0.0
 11
50.182442
 21
-133.014797
 31
0.0
  0
LINE
  5
6C
100
AcDbEntity
  8
0
370
    -3
  6
Continuous
100
AcDbLine
 10
-33.817558
 20
-138.105966
 30
0.0
 11
50.182442
 21
-138.105966
 31
0.0
  0
LINE
  5
6D
100
AcDbEntity
  8
0
370
    -3
  6
Continuous
100
AcDbLine
 10
-33.817558
 20
-142.472883
 30
0.0
 11
50.182442
 21
-142.472883
 31
0.0
  0
LINE
  5
6E
100
AcDbEntity
  8
0
370
    -3
  6
Continuous
100
AcDbLine
 10
-33.817558
 20
-142.972883
 30
0.0
 11
50.182442
 21
-142.972883
 31
0.0
  0
LINE
  5
6F
100
AcDbEntity
  8
0
370
    -3
  6
Continuous
100
AcDbLine
 10
-33.817558
 20
-58.669282
 30
0.0
 11
50.182442
 21
-58.669282
 31
0.0
  0
LINE
  5
70
100
AcDbEntity
  8
0
370
    -3
  6
Continuous
100
AcDbLine
 10
-33.817558
 20
-60.258492
 30
0.0
 11
50.182442
 21
-60.258492
 31
0.0
  0
LINE
  5
71
100
AcDbEntity
  8
0
370
    -3
  6
Continuous
100
AcDbLine
 10
-33.817558
 20
-63.216487
 30
0.0
 11
50.182442
 21
-63.216487
 31
0.0
  0
LINE
  5
72
100
AcDbEntity
  8
0
370
    -3
  6
Continuous
100
AcDbLine
 10
-33.817558
 20
-64.695511
 30
0.0
 11
50.182442
 21
-64.695511
 31
0.0
  0
LINE
  5
73
100
AcDbEntity
  8
0
370
    -3
  6
Continuous
100
AcDbLine
 10
-33.817558
 20
-67.788242
 30
0.0
 11
50.182442
 21
-67.788242
 31
0.0
  0
LINE
  5
74
100
AcDbEntity
  8
0
370
    -3
  6
Continuous
100
AcDbLine
 10
-33.817558
 20
-69.134643
 30
0.0
 11
50.182442
 21
-69.134643
 31
0.0
  0
LINE
  5
75
100
AcDbEntity
  8
0
370
    -3
  6
Continuous
100
AcDbLine
 10
-33.817558
 20
-72.344848
 30
0.0
 11
50.182442
 21
-72.344848
 31
0.0
  0
LINE
  5
76
100
AcDbEntity
  8
0
370
    -3
  6
Continuous
100
AcDbLine
 10
-33.817558
 20
-73.586768
 30
0.0
 11
50.182442
 21
-73.586768
 31
0.0
  0
LINE
  5
77
100
AcDbEntity
  8
0
370
    -3
  6
Continuous
100
AcDbLine
 10
-33.817558
 20
-77.972883
 30
0.0
 11
50.182442
 21
-77.972883
 31
0.0
  0
LINE
  5
78
100
AcDbEntity
  8
0
370
    -3
  6
Continuous
100
AcDbLine
 10
-33.817558
 20
-150.972883
 30
0.0
 11
-89.322403
 21
-150.972883
 31
0.0
  0
LINE
  5
79
100
AcDbEntity
  8
0
370
    -3
  6
Continuous
100
AcDbLine
 10
-101.138078
 20
-147.247415
 30
0.0
 11
-108.708857
 21
-141.946298
 31
0.0
  0
LINE
  5
7A
100
AcDbEntity
  8
0
370
    -3
  6
Continuous
100
AcDbLine
 10
-109.817558
 20
-139.816503
 30
0.0
 11
-109.817558
 21
-91.972883
 31
0.0
  0
ARC
  5
7B
100
AcDbEntity
  8
0
370
    -3
  6
Continuous
100
AcDbCircle
 10
-107.217558
 20
-139.816503
 30
0.0
 40
2.6
100
AcDbArc
 50
180.0
 51
235.0
  0
ARC
  5
7C
100
AcDbEntity
  8
0
370
    -3
  6
Continuous
100
AcDbCircle
 10
-89.322403
 20
-130.372883
 30
0.0
 40
20.6
100
AcDbArc
 50
235.0
 51
270.0
  0
LINE
  5
7D
100
AcDbEntity
  8
0
370
    -3
  6
Continuous
100
AcDbLine
 10
-33.817558
 20
-150.972883
 30
0.0
 11
-33.817558
 21
-91.972883
 31
0.0
  0
LINE
  5
7E
100
AcDbEntity
  8
0
370
    -3
  6
Continuous
100
AcDbLine
 10
-44.817558
 20
-141.116804
 30
0.0
 11
-46.817558
 21
-139.464162
 31
0.0
  0
LINE
  5
7F
100
AcDbEntity
  8
0
370
    -3
  6
Continuous
100
AcDbLine
 10
-42.817558
 20
-142.292589
 30
0.0
 11
-44.817558
 21
-141.116804
 31
0.0
  0
LINE
  5
80
100
AcDbEntity
  8
0
370
    -3
  6
Continuous
100
AcDbLine
 10
-44.817558
 20
-141.116804
 30
0.0
 11
-42.817558
 21
-139.464162
 31
0.0
  0
LINE
  5
81
100
AcDbEntity
  8
0
370
    -3
  6
Continuous
100
AcDbLine
 10
-46.817558
 20
-142.292589
 30
0.0
 11
-44.817558
 21
-141.116804
 31
0.0
  0
ELLIPSE
  5
82
100
AcDbEntity
  8
0
370
    -3
  6
Continuous
100
AcDbEllipse
 10
-44.817558
 20
-139.300214
 30
0.0
 11
4.6999999999999886
 21
0.0
 31
0.0
210
0.0
220
0.0
230
1.0
 40
0.766646
 41
0.0
 42
6.2831853071795862
  0
LINE
  5
83
100
AcDbEntity
  8
0
370
    -3
  6
Continuous
100
AcDbLine
 10
-41.617558
 20
-34.472883
 30
0.0
 11
48.382442
 21
-34.472883
 31
0.0
  0
LINE
  5
84
100
AcDbEntity
  8
0
370
    -3
  6
Continuous
100
AcDbLine
 10
-41.617558
 20
-37.524553
 30
0.0
 11
-41.617558
 21
-1.472883
 31
0.0
  0
LINE
  5
85
100
AcDbEntity
  8
0
370
    -3
  6
Continuous
100
AcDbLine
 10
-43.817558
 20
-32.972883
 30
0.0
 11
-43.817558
 21
-34.633187
 31
0.0
  0
LINE
  5
86
100
AcDbEntity
  8
0
370
    -3
  6
Continuous
100
AcDbLine
 10
-43.817558
 20
-32.972883
 30
0.0
 11
-89.322403
 21
-32.972883
 31
0.0
  0
ARC
  5
87
100
AcDbEntity
  8
0
370
    -3
  6
Continuous
100
AcDbCircle
 10
-40.817558
 20
-34.633187
 30
0.0
 40
3.0
100
AcDbArc
 50
180.0
 51
270.0
  0
LINE
  5
88
100
AcDbEntity
  8
0
370
    -3
  6
Continuous
100
AcDbLine
 10
-40.817558
 20
-37.633187
 30
0.0
 11
-36.817558
 21
-37.633187
 31
0.0
  0
ARC
  5
89
100
AcDbEntity
  8
0
370
    -3
  6
Continuous
100
AcDbCircle
 10
-36.817558
 20
-40.633187
 30
0.0
 40
3.0
100
AcDbArc
 50
0.0
 51
90.0
  0
LINE
  5
8A
100
AcDbEntity
  8
0
370
    -3
  6
Continuous
100
AcDbLine
 10
-33.817558
 20
-40.633187
 30
0.0
 11
-33.817558
 21
-91.972883
 31
0.0
  0
LINE
  5
8B
100
AcDbEntity
  8
0
370
    -3
  6
Continuous
100
AcDbLine
 10
-44.817558
 20
-42.828962
 30
0.0
 11
-46.817558
 21
-44.481604
 31
0.0
  0
LINE
  5
8C
100
AcDbEntity
  8
0
370
    -3
  6
Continuous
100
AcDbLine
 10
-42.817558
 20
-41.653176
 30
0.0
 11
-44.817558
 21
-42.828962
 31
0.0
  0
LINE
  5
8D
100
AcDbEntity
  8
0
370
    -3
  6
Continuous
100
AcDbLine
 10
-44.817558
 20
-42.828962
 30
0.0
 11
-42.817558
 21
-44.481604
 31
0.0
  0
LINE
  5
8E
100
AcDbEntity
  8
0
370
    -3
  6
Continuous
100
AcDbLine
 10
-46.817558
 20
-41.653176
 30
0.0
 11
-44.817558
 21
-42.828962
 31
0.0
  0
ELLIPSE
  5
8F
100
AcDbEntity
  8
0
370
    -3
  6
Continuous
100
AcDbEllipse
 10
-44.817558
 20
-44.645552
 30
0.0
 11
4.6999999999999886
 21
0.0
 31
0.0
210
0.0
220
0.0
230
1.0
 40
0.766646
 41
0.0
 42
6.2831853071795862
  0
LINE
  5
90
100
AcDbEntity
  8
0
370
    -3
  6
Continuous
100
AcDbLine
 10
48.382442
 20
-39.472883
 30
0.0
 11
-33.817558
 21
-39.472883
 31
0.0
  0
LINE
  5
91
100
AcDbEntity
  8
0
370
    -3
  6
Continuous
100
AcDbLine
 10
-34.617558
 20
-0.472883
 30
0.0
 11
-34.617558
 21
0.027117
 31
0.0
  0
LINE
  5
92
100
AcDbEntity
  8
0
370
    -3
  6
Continuous
100
AcDbLine
 10
-26.617558
 20
-0.472883
 30
0.0
 11
-26.617558
 21
0.027117
 31
0.0
  0
LINE
  5
93
100
AcDbEntity
  8
0
370
    -3
  6
Continuous
100
AcDbLine
 10
41.382442
 20
-0.472883
 30
0.0
 11
41.382442
 21
0.027117
 31
0.0
  0
LINE
  5
94
100
AcDbEntity
  8
0
370
    -3
  6
Continuous
100
AcDbLine
 10
33.382442
 20
-0.472883
 30
0.0
 11
33.382442
 21
0.027117
 31
0.0
  0
LINE
  5
95
100
AcDbEntity
  8
0
370
    -3
  6
Continuous
100
AcDbLine
 10
33.382442
 20
0.027117
 30
0.0
 11
41.382442
 21
0.027117
 31
0.0
  0
LINE
  5
96
100
AcDbEntity
  8
0
370
    -3
  6
Continuous
100
AcDbLine
 10
-34.617558
 20
0.027117
 30
0.0
 11
-26.617558
 21
0.027117
 31
0.0
  0
ARC
  5
97
100
AcDbEntity
  8
0
370
    -3
  6
Continuous
100
AcDbCircle
 10
-40.617558
 20
-1.472883
 30
0.0
 40
1.0
100
AcDbArc
 50
90.0
 51
180.0
  0
LINE
  5
98
100
AcDbEntity
  8
0
370
    -3
  6
Continuous
100
AcDbLine
 10
-40.617558
 20
-0.472883
 30
0.0
 11
47.382442
 21
-0.472883
 31
0.0
  0
LINE
  5
99
100
AcDbEntity
  8
0
370
    -3
  6
Continuous
100
AcDbLine
 10
-33.817558
 20
-40.972883
 30
0.0
 11
50.182442
 21
-40.972883
 31
0.0
  0
LINE
  5
9A
100
AcDbEntity
  8
0
370
    -3
  6
Continuous
100
AcDbLine
 10
-33.817558
 20
-41.472883
 30
0.0
 11
50.182442
 21
-41.472883
 31
0.0
  0
LINE
  5
9B
100
AcDbEntity
  8
0
370
    -3
  6
Continuous
100
AcDbLine
 10
-33.817558
 20
-45.8398
 30
0.0
 11
50.182442
 21
-45.8398
 31
0.0
  0
LINE
  5
9C
100
AcDbEntity
  8
0
370
    -3
  6
Continuous
100
AcDbLine
 10
-33.817558
 20
-50.930969
 30
0.0
 11
50.182442
 21
-50.930969
 31
0.0
  0
LINE
  5
9D
100
AcDbEntity
  8
0
370
    -3
  6
Continuous
100
AcDbLine
 10
-109.817558
 20
-44.129263
 30
0.0
 11
-109.817558
 21
-91.972883
 31
0.0
  0
LINE
  5
9E
100
AcDbEntity
  8
0
370
    -3
  6
Continuous
100
AcDbLine
 10
-101.138078
 20
-36.698351
 30
0.0
 11
-108.708857
 21
-41.999468
 31
0.0
  0
ARC
  5
9F
100
AcDbEntity
  8
0
370
    -3
  6
Continuous
100
AcDbCircle
 10
-107.217558
 20
-44.129263
 30
0.0
 40
2.6
100
AcDbArc
 50
125.0
 51
180.0
  0
ARC
  5
A0
100
AcDbEntity
  8
0
370
    -3
  6
Continuous
100
AcDbCircle
 10
-89.322403
 20
-53.572883
 30
0.0
 40
20.6
100
AcDbArc
 50
90.0
 51
125.0
  0
LINE
  5
A1
100
AcDbEntity
  8
0
370
    -3
  6
Continuous
100
AcDbLine
 10
-33.817558
 20
135.173447
 30
0.0
 11
-89.322403
 21
135.173447
 31
0.0
  0
LINE
  5
A2
100
AcDbEntity
  8
0
370
    -3
  6
Continuous
100
AcDbLine
 10
-33.817558
 20
135.173447
 30
0.0
 11
-33.817558
 21
148.173447
 31
0.0
  0
LINE
  5
A3
100
AcDbEntity
  8
0
370
    -3
  6
Continuous
100
AcDbLine
 10
-33.817558
 20
243.173447
 30
0.0
 11
-33.817558
 21
230.173447
 31
0.0
  0
LINE
  5
A4
100
AcDbEntity
  8
0
370
    -3
  6
Continuous
100
AcDbLine
 10
-33.817558
 20
243.173447
 30
0.0
 11
-89.322403
 21
243.173447
 31
0.0
  0
LINE
  5
A5
100
AcDbEntity
  8
0
370
    -3
  6
Continuous
100
AcDbLine
 10
-44.817558
 20
140.029526
 30
0.0
 11
-46.817558
 21
141.682167
 31
0.0
  0
LINE
  5
A6
100
AcDbEntity
  8
0
370
    -3
  6
Continuous
100
AcDbLine
 10
-42.817558
 20
138.85374
 30
0.0
 11
-44.817558
 21
140.029526
 31
0.0
  0
LINE
  5
A7
100
AcDbEntity
  8
0
370
    -3
  6
Continuous
100
AcDbLine
 10
-44.817558
 20
140.029526
 30
0.0
 11
-42.817558
 21
141.682167
 31
0.0
  0
LINE
  5
A8
100
AcDbEntity
  8
0
370
    -3
  6
Continuous
100
AcDbLine
 10
-46.817558
 20
138.85374
 30
0.0
 11
-44.817558
 21
140.029526
 31
0.0
  0
ELLIPSE
  5
A9
100
AcDbEntity
  8
0
370
    -3
  6
Continuous
100
AcDbEllipse
 10
-44.817558
 20
141.846116
 30
0.0
 11
4.6999999999999886
 21
0.0
 31
0.0
210
0.0
220
0.0
230
1.0
 40
0.766646
 41
0.0
 42
6.2831853071795862
  0
LINE
  5
AA
100
AcDbEntity
  8
0
370
    -3
  6
Continuous
100
AcDbLine
 10
-44.817558
 20
238.317368
 30
0.0
 11
-46.817558
 21
236.664726
 31
0.0
  0
LINE
  5
AB
100
AcDbEntity
  8
0
370
    -3
  6
Continuous
100
AcDbLine
 10
-42.817558
 20
239.493153
 30
0.0
 11
-44.817558
 21
238.317368
 31
0.0
  0
LINE
  5
AC
100
AcDbEntity
  8
0
370
    -3
  6
Continuous
100
AcDbLine
 10
-44.817558
 20
238.317368
 30
0.0
 11
-42.817558
 21
236.664726
 31
0.0
  0
LINE
  5
AD
100
AcDbEntity
  8
0
370
    -3
  6
Continuous
100
AcDbLine
 10
-46.817558
 20
239.493153
 30
0.0
 11
-44.817558
 21
238.317368
 31
0.0
  0
ELLIPSE
  5
AE
100
AcDbEntity
  8
0
370
    -3
  6
Continuous
100
AcDbEllipse
 10
-44.817558
 20
236.500778
 30
0.0
 11
4.6999999999999886
 21
0.0
 31
0.0
210
0.0
220
0.0
230
1.0
 40
0.766646
 41
0.0
 42
6.2831853071795862
  0
LINE
  5
AF
100
AcDbEntity
  8
0
370
    -3
  6
Continuous
100
AcDbLine
 10
-43.817558
 20
189.173447
 30
0.0
 11
-43.817558
 21
224.173447
 31
0.0
  0
LINE
  5
B0
100
AcDbEntity
  8
0
370
    -3
  6
Continuous
100
AcDbLine
 10
50.182442
 20
241.673447
 30
0.0
 11
-33.817558
 21
241.673447
 31
0.0
  0
LINE
  5
B1
100
AcDbEntity
  8
0
370
    -3
  6
Continuous
100
AcDbLine
 10
-33.817558
 20
239.673447
 30
0.0
 11
50.182442
 21
239.673447
 31
0.0
  0
LINE
  5
B2
100
AcDbEntity
  8
0
370
    -3
  6
Continuous
100
AcDbLine
 10
-33.817558
 20
240.173447
 30
0.0
 11
50.182442
 21
240.173447
 31
0.0
  0
LINE
  5
B3
100
AcDbEntity
  8
0
370
    -3
  6
Continuous
100
AcDbLine
 10
-33.817558
 20
235.306529
 30
0.0
 11
50.182442
 21
235.306529
 31
0.0
  0
LINE
  5
B4
100
AcDbEntity
  8
0
370
    -3
  6
Continuous
100
AcDbLine
 10
-33.817558
 20
233.678102
 30
0.0
 11
50.182442
 21
233.678102
 31
0.0
  0
LINE
  5
B5
100
AcDbEntity
  8
0
370
    -3
  6
Continuous
100
AcDbLine
 10
-33.817558
 20
230.21536
 30
0.0
 11
50.182442
 21
230.21536
 31
0.0
  0
LINE
  5
B6
100
AcDbEntity
  8
0
370
    -3
  6
Continuous
100
AcDbLine
 10
-33.975159
 20
229.213882
 30
0.0
 11
50.182442
 21
229.213882
 31
0.0
  0
LINE
  5
B7
100
AcDbEntity
  8
0
370
    -3
  6
Continuous
100
AcDbLine
 10
-43.817558
 20
222.477048
 30
0.0
 11
-41.617558
 21
222.477048
 31
0.0
  0
LINE
  5
B8
100
AcDbEntity
  8
0
370
    -3
  6
Continuous
100
AcDbLine
 10
-43.817558
 20
220.887838
 30
0.0
 11
-41.617558
 21
220.887838
 31
0.0
  0
LINE
  5
B9
100
AcDbEntity
  8
0
370
    -3
  6
Continuous
100
AcDbLine
 10
-43.817558
 20
217.929842
 30
0.0
 11
-41.617558
 21
217.929842
 31
0.0
  0
LINE
  5
BA
100
AcDbEntity
  8
0
370
    -3
  6
Continuous
100
AcDbLine
 10
-43.817558
 20
216.450819
 30
0.0
 11
-41.617558
 21
216.450819
 31
0.0
  0
LINE
  5
BB
100
AcDbEntity
  8
0
370
    -3
  6
Continuous
100
AcDbLine
 10
-43.817558
 20
213.358088
 30
0.0
 11
-41.617558
 21
213.358088
 31
0.0
  0
LINE
  5
BC
100
AcDbEntity
  8
0
370
    -3
  6
Continuous
100
AcDbLine
 10
-43.817558
 20
212.011686
 30
0.0
 11
-41.617558
 21
212.011686
 31
0.0
  0
LINE
  5
BD
100
AcDbEntity
  8
0
370
    -3
  6
Continuous
100
AcDbLine
 10
-43.817558
 20
209.173447
 30
0.0
 11
-41.617558
 21
209.173447
 31
0.0
  0
LINE
  5
BE
100
AcDbEntity
  8
0
370
    -3
  6
Continuous
100
AcDbLine
 10
48.382442
 20
217.929842
 30
0.0
 11
50.182442
 21
217.929842
 31
0.0
  0
LINE
  5
BF
100
AcDbEntity
  8
0
370
    -3
  6
Continuous
100
AcDbLine
 10
48.382442
 20
216.450819
 30
0.0
 11
50.182442
 21
216.450819
 31
0.0
  0
LINE
  5
C0
100
AcDbEntity
  8
0
370
    -3
  6
Continuous
100
AcDbLine
 10
48.382442
 20
213.358088
 30
0.0
 11
50.182442
 21
213.358088
 31
0.0
  0
LINE
  5
C1
100
AcDbEntity
  8
0
370
    -3
  6
Continuous
100
AcDbLine
 10
48.382442
 20
212.011686
 30
0.0
 11
50.182442
 21
212.011686
 31
0.0
  0
LINE
  5
C2
100
AcDbEntity
  8
0
370
    -3
  6
Continuous
100
AcDbLine
 10
48.382442
 20
209.173447
 30
0.0
 11
50.182442
 21
209.173447
 31
0.0
  0
LINE
  5
C3
100
AcDbEntity
  8
0
370
    -3
  6
Continuous
100
AcDbLine
 10
48.382442
 20
220.887838
 30
0.0
 11
50.182442
 21
220.887838
 31
0.0
  0
LINE
  5
C4
100
AcDbEntity
  8
0
370
    -3
  6
Continuous
100
AcDbLine
 10
48.382442
 20
222.477048
 30
0.0
 11
50.182442
 21
222.477048
 31
0.0
  0
ARC
  5
C5
100
AcDbEntity
  8
0
370
    -3
  6
Continuous
100
AcDbCircle
 10
47.382442
 20
224.173447
 30
0.0
 40
1.0
100
AcDbArc
 50
0.0
 51
90.0
  0
LINE
  5
C6
100
AcDbEntity
  8
0
370
    -3
  6
Continuous
100
AcDbLine
 10
47.382442
 20
225.173447
 30
0.0
 11
-40.617558
 21
225.173447
 31
0.0
  0
LINE
  5
C7
100
AcDbEntity
  8
0
370
    -3
  6
Continuous
100
AcDbLine
 10
48.382442
 20
224.173447
 30
0.0
 11
48.382442
 21
189.173447
 31
0.0
  0
ARC
  5
C8
100
AcDbEntity
  8
0
370
    -3
  6
Continuous
100
AcDbCircle
 10
-40.617558
 20
224.173447
 30
0.0
 40
1.0
100
AcDbArc
 50
90.0
 51
180.0
  0
LINE
  5
C9
100
AcDbEntity
  8
0
370
    -3
  6
Continuous
100
AcDbLine
 10
-41.617558
 20
224.173447
 30
0.0
 11
-41.617558
 21
189.173447
 31
0.0
  0
ARC
  5
CA
100
AcDbEntity
  8
0
370
    -3
  6
Continuous
100
AcDbCircle
 10
-36.817558
 20
230.173447
 30
0.0
 40
3.0
100
AcDbArc
 50
270.0
 51
0.0
  0
LINE
  5
CB
100
AcDbEntity
  8
0
370
    -3
  6
Continuous
100
AcDbLine
 10
-36.817558
 20
227.173447
 30
0.0
 11
-40.817558
 21
227.173447
 31
0.0
  0
ARC
  5
CC
100
AcDbEntity
  8
0
370
    -3
  6
Continuous
100
AcDbCircle
 10
-40.817558
 20
224.173447
 30
0.0
 40
3.0
100
AcDbArc
 50
90.0
 51
180.0
  0
LINE
  5
CD
100
AcDbEntity
  8
0
370
    -3
  6
Continuous
100
AcDbLine
 10
-101.138078
 20
239.447979
 30
0.0
 11
-108.708857
 21
234.146862
 31
0.0
  0
LINE
  5
CE
100
AcDbEntity
  8
0
370
    -3
  6
Continuous
100
AcDbLine
 10
-109.817558
 20
232.017067
 30
0.0
 11
-109.817558
 21
189.173447
 31
0.0
  0
ARC
  5
CF
100
AcDbEntity
  8
0
370
    -3
  6
Continuous
100
AcDbCircle
 10
-107.217558
 20
232.017067
 30
0.0
 40
2.6
100
AcDbArc
 50
125.0
 51
180.0
  0
ARC
  5
D0
100
AcDbEntity
  8
0
370
    -3
  6
Continuous
100
AcDbCircle
 10
-89.322403
 20
222.573447
 30
0.0
 40
20.6
100
AcDbArc
 50
90.0
 51
125.0
  0
LINE
  5
D1
100
AcDbEntity
  8
0
370
    -3
  6
Continuous
100
AcDbLine
 10
-43.817558
 20
189.173447
 30
0.0
 11
-43.817558
 21
154.173447
 31
0.0
  0
LINE
  5
D2
100
AcDbEntity
  8
0
370
    -3
  6
Continuous
100
AcDbLine
 10
50.182442
 20
136.673447
 30
0.0
 11
-33.817558
 21
136.673447
 31
0.0
  0
LINE
  5
D3
100
AcDbEntity
  8
0
370
    -3
  6
Continuous
100
AcDbLine
 10
-33.817558
 20
138.673447
 30
0.0
 11
50.182442
 21
138.673447
 31
0.0
  0
LINE
  5
D4
100
AcDbEntity
  8
0
370
    -3
  6
Continuous
100
AcDbLine
 10
-33.817558
 20
138.173447
 30
0.0
 11
50.182442
 21
138.173447
 31
0.0
  0
LINE
  5
D5
100
AcDbEntity
  8
0
370
    -3
  6
Continuous
100
AcDbLine
 10
-33.817558
 20
143.040364
 30
0.0
 11
50.182442
 21
143.040364
 31
0.0
  0
LINE
  5
D6
100
AcDbEntity
  8
0
370
    -3
  6
Continuous
100
AcDbLine
 10
-33.817558
 20
144.668791
 30
0.0
 11
50.182442
 21
144.668791
 31
0.0
  0
LINE
  5
D7
100
AcDbEntity
  8
0
370
    -3
  6
Continuous
100
AcDbLine
 10
-33.817558
 20
148.131533
 30
0.0
 11
50.182442
 21
148.131533
 31
0.0
  0
LINE
  5
D8
100
AcDbEntity
  8
0
370
    -3
  6
Continuous
100
AcDbLine
 10
-33.975159
 20
149.133011
 30
0.0
 11
50.182442
 21
149.133011
 31
0.0
  0
LINE
  5
D9
100
AcDbEntity
  8
0
370
    -3
  6
Continuous
100
AcDbLine
 10
-43.817558
 20
155.869846
 30
0.0
 11
-41.617558
 21
155.869846
 31
0.0
  0
LINE
  5
DA
100
AcDbEntity
  8
0
370
    -3
  6
Continuous
100
AcDbLine
 10
-43.817558
 20
157.459056
 30
0.0
 11
-41.617558
 21
157.459056
 31
0.0
  0
LINE
  5
DB
100
AcDbEntity
  8
0
370
    -3
  6
Continuous
100
AcDbLine
 10
-43.817558
 20
160.417051
 30
0.0
 11
-41.617558
 21
160.417051
 31
0.0
  0
LINE
  5
DC
100
AcDbEntity
  8
0
370
    -3
  6
Continuous
100
AcDbLine
 10
-43.817558
 20
161.896074
 30
0.0
 11
-41.617558
 21
161.896074
 31
0.0
  0
LINE
  5
DD
100
AcDbEntity
  8
0
370
    -3
  6
Continuous
100
AcDbLine
 10
-43.817558
 20
164.988805
 30
0.0
 11
-41.617558
 21
164.988805
 31
0.0
  0
LINE
  5
DE
100
AcDbEntity
  8
0
370
    -3
  6
Continuous
100
AcDbLine
 10
-43.817558
 20
166.335207
 30
0.0
 11
-41.617558
 21
166.335207
 31
0.0
  0
LINE
  5
DF
100
AcDbEntity
  8
0
370
    -3
  6
Continuous
100
AcDbLine
 10
-43.817558
 20
169.173447
 30
0.0
 11
-41.617558
 21
169.173447
 31
0.0
  0
LINE
  5
E0
100
AcDbEntity
  8
0
370
    -3
  6
Continuous
100
AcDbLine
 10
48.382442
 20
160.417051
 30
0.0
 11
50.182442
 21
160.417051
 31
0.0
  0
LINE
  5
E1
100
AcDbEntity
  8
0
370
    -3
  6
Continuous
100
AcDbLine
 10
48.382442
 20
161.896074
 30
0.0
 11
50.182442
 21
161.896074
 31
0.0
  0
LINE
  5
E2
100
AcDbEntity
  8
0
370
    -3
  6
Continuous
100
AcDbLine
 10
48.382442
 20
164.988805
 30
0.0
 11
50.182442
 21
164.988805
 31
0.0
  0
LINE
  5
E3
100
AcDbEntity
  8
0
370
    -3
  6
Continuous
100
AcDbLine
 10
48.382442
 20
166.335207
 30
0.0
 11
50.182442
 21
166.335207
 31
0.0
  0
LINE
  5
E4
100
AcDbEntity
  8
0
370
    -3
  6
Continuous
100
AcDbLine
 10
48.382442
 20
169.173447
 30
0.0
 11
50.182442
 21
169.173447
 31
0.0
  0
LINE
  5
E5
100
AcDbEntity
  8
0
370
    -3
  6
Continuous
100
AcDbLine
 10
48.382442
 20
157.459056
 30
0.0
 11
50.182442
 21
157.459056
 31
0.0
  0
LINE
  5
E6
100
AcDbEntity
  8
0
370
    -3
  6
Continuous
100
AcDbLine
 10
48.382442
 20
155.869846
 30
0.0
 11
50.182442
 21
155.869846
 31
0.0
  0
ARC
  5
E7
100
AcDbEntity
  8
0
370
    -3
  6
Continuous
100
AcDbCircle
 10
47.382442
 20
154.173447
 30
0.0
 40
1.0
100
AcDbArc
 50
270.0
 51
0.0
  0
LINE
  5
E8
100
AcDbEntity
  8
0
370
    -3
  6
Continuous
100
AcDbLine
 10
47.382442
 20
153.173447
 30
0.0
 11
-40.617558
 21
153.173447
 31
0.0
  0
LINE
  5
E9
100
AcDbEntity
  8
0
370
    -3
  6
Continuous
100
AcDbLine
 10
48.382442
 20
154.173447
 30
0.0
 11
48.382442
 21
189.173447
 31
0.0
  0
ARC
  5
EA
100
AcDbEntity
  8
0
370
    -3
  6
Continuous
100
AcDbCircle
 10
-40.617558
 20
154.173447
 30
0.0
 40
1.0
100
AcDbArc
 50
180.0
 51
270.0
  0
LINE
  5
EB
100
AcDbEntity
  8
0
370
    -3
  6
Continuous
100
AcDbLine
 10
-41.617558
 20
154.173447
 30
0.0
 11
-41.617558
 21
189.173447
 31
0.0
  0
ARC
  5
EC
100
AcDbEntity
  8
0
370
    -3
  6
Continuous
100
AcDbCircle
 10
-36.817558
 20
148.173447
 30
0.0
 40
3.0
100
AcDbArc
 50
0.0
 51
90.0
  0
LINE
  5
ED
100
AcDbEntity
  8
0
370
    -3
  6
Continuous
100
AcDbLine
 10
-36.817558
 20
151.173447
 30
0.0
 11
-40.817558
 21
151.173447
 31
0.0
  0
ARC
  5
EE
100
AcDbEntity
  8
0
370
    -3
  6
Continuous
100
AcDbCircle
 10
-40.817558
 20
154.173447
 30
0.0
 40
3.0
100
AcDbArc
 50
180.0
 51
270.0
  0
LINE
  5
EF
100
AcDbEntity
  8
0
370
    -3
  6
Continuous
100
AcDbLine
 10
-101.138078
 20
138.898915
 30
0.0
 11
-108.708857
 21
144.200031
 31
0.0
  0
LINE
  5
F0
100
AcDbEntity
  8
0
370
    -3
  6
Continuous
100
AcDbLine
 10
-109.817558
 20
146.329827
 30
0.0
 11
-109.817558
 21
189.173447
 31
0.0
  0
ARC
  5
F1
100
AcDbEntity
  8
0
370
    -3
  6
Continuous
100
AcDbCircle
 10
-107.217558
 20
146.329827
 30
0.0
 40
2.6
100
AcDbArc
 50
180.0
 51
235.0
  0
ARC
  5
F2
100
AcDbEntity
  8
0
370
    -3
  6
Continuous
100
AcDbCircle
 10
-89.322403
 20
155.773447
 30
0.0
 40
20.6
100
AcDbArc
 50
235.0
 51
270.0
  0
INSERT
  5
100
100
AcDbEntity
  8
0
100
AcDbBlockReference
  2
ZU_SYM_K__CAD_SYM_POO_SYM_P28_-1
 10
76.182442
 20
189.173447
 30
0.0
  0
MTEXT
  5
102
100
AcDbEntity
  8
0
370
    -3
  6
Continuous
100
AcDbMText
 10
677.041992
 20
-164.372559
 30
0.0
 40
6.6
 41
0.0
 71
     7
 72
     1
  1
\W0.82;GM-SHYMB-RR
  7
ZU_SHPTB00001
 11
1.0
 21
0.0
 31
0.0
 73
     1
 44
1.0
  0
MTEXT
  5
103
100
AcDbEntity
  8
0
370
    -3
  6
Continuous
100
AcDbMText
 10
677.041992
 20
-175.372559
 30
0.0
 40
6.6
 41
0.0
 71
     7
 72
     1
  1
\W0.82;0.1kW
  7
ZU_SHPTB00001
 11
1.0
 21
0.0
 31
0.0
 73
     1
 44
1.0
  0
MTEXT
  5
104
100
AcDbEntity
  8
0
370
    -3
  6
Continuous
100
AcDbMText
 10
677.041992
 20
-186.372559
 30
0.0
 40
6.6
 41
0.0
 71
     7
 72
     1
  1
\W0.82;1/300-1/900
  7
ZU_SHPTB00001
 11
1.0
 21
0.0
 31
0.0
 73
     1
 44
1.0
  0
MTEXT
  5
105
100
AcDbEntity
  8
0
370
    -3
  6
Continuous
100
AcDbMText
 10
677.041992
 20
-197.372559
 30
0.0
 40
6.6
 41
0.0
 71
     7
 72
     1
  1
\W0.82;SCALE\W1.36; \W0.82;1/1
  7
ZU_SHPTB00001
 11
1.0
 21
0.0
 31
0.0
 73
     1
 44
1.0
  0
POINT
  5
106
100
AcDbEntity
  8
0
370
    -3
  6
Continuous
100
AcDbPoint
 10
376.682667
 20
-84.47304
 30
0.0
  0
LINE
  5
107
100
AcDbEntity
  8
0
370
    -3
  6
CENTER
100
AcDbLine
 10
397.902486
 20
-100.47304
 30
0.0
 11
356.805712
 21
-100.47304
 31
0.0
  0
LINE
  5
108
100
AcDbEntity
  8
0
370
    -3
  6
CENTER
100
AcDbLine
 10
376.682667
 20
-76.975027
 30
0.0
 11
376.682667
 21
-121.496532
 31
0.0
  0
LINE
  5
109
100
AcDbEntity
  8
0
370
    -3
  6
Continuous
100
AcDbLine
 10
381.682667
 20
-81.47304
 30
0.0
 11
381.682667
 21
-89.47304
 31
0.0
  0
LINE
  5
10A
100
AcDbEntity
  8
0
370
    -3
  6
Continuous
100
AcDbLine
 10
381.682667
 20
-81.47304
 30
0.0
 11
371.682667
 21
-81.47304
 31
0.0
  0
LINE
  5
10B
100
AcDbEntity
  8
0
370
    -3
  6
Continuous
100
AcDbLine
 10
371.682667
 20
-81.47304
 30
0.0
 11
371.682667
 21
-89.47304
 31
0.0
  0
LINE
  5
10C
100
AcDbEntity
  8
0
370
    -3
  6
Continuous
100
AcDbLine
 10
371.682667
 20
-89.47304
 30
0.0
 11
381.682667
 21
-89.47304
 31
0.0
  0
ARC
  5
10D
100
AcDbEntity
  8
0
370
    -3
  6
Continuous
100
AcDbCircle
 10
376.682667
 20
-100.47304
 30
0.0
 40
16.0
100
AcDbArc
 50
108.209957
 51
71.790043
  0
CIRCLE
  5
10E
100
AcDbEntity
  8
0
370
    -3
  6
Continuous
100
AcDbCircle
 10
376.682667
 20
-100.47304
 30
0.0
 40
4.0
  0
CIRCLE
  5
10F
100
AcDbEntity
  8
0
370
    -3
  6
Continuous
100
AcDbCircle
 10
376.682667
 20
-100.47304
 30
0.0
 40
3.5
  0
INSERT
  5
11F
100
AcDbEntity
  8
0
100
AcDbBlockReference
  2
ZU_SYM__USERS_HOME_SYMBOL_STD_SYM_B01_-1
 10
86.182435
 20
144.979273
 30
0.0
  0
INSERT
  5
12F
100
AcDbEntity
  8
0
100
AcDbBlockReference
  2
ZU_SYM__USERS_HOME_SYMBOL_STD_SYM_B01_00002-1
 10
86.182435
 20
233.367621
 30
0.0
 41
-1.0
 50
180.0
  0
LINE
  5
130
100
AcDbEntity
  8
0
370
    -3
  6
Continuous
100
AcDbLine
 10
92.182442
 20
248.673447
 30
0.0
 11
92.182442
 21
129.673447
 31
0.0
  0
LINE
  5
131
100
AcDbEntity
  8
0
370
    -3
  6
Continuous
100
AcDbLine
 10
90.182442
 20
179.173447
 30
0.0
 11
90.182442
 21
199.173447
 31
0.0
  0
ARC
  5
132
100
AcDbEntity
  8
0
370
    -3
  6
Continuous
100
AcDbCircle
 10
87.182442
 20
199.173447
 30
0.0
 40
3.0
100
AcDbArc
 50
0.0
 51
90.0
  0
ARC
  5
133
100
AcDbEntity
  8
0
370
    -3
  6
Continuous
100
AcDbCircle
 10
87.182442
 20
179.173447
 30
0.0
 40
3.0
100
AcDbArc
 50
270.0
 51
0.0
  0
LINE
  5
134
100
AcDbEntity
  8
0
370
    -3
  6
Continuous
100
AcDbLine
 10
82.182442
 20
132.673447
 30
0.0
 11
82.182442
 21
176.173447
 31
0.0
  0
LINE
  5
135
100
AcDbEntity
  8
0
370
    -3
  6
Continuous
100
AcDbLine
 10
82.182442
 20
158.74287
 30
0.0
 11
68.182442
 21
158.74287
 31
0.0
  0
ARC
  5
136
100
AcDbEntity
  8
0
370
    -3
  6
Continuous
100
AcDbCircle
 10
68.182442
 20
155.74287
 30
0.0
 40
3.0
100
AcDbArc
 50
90.0
 51
180.0
  0
ARC
  5
137
100
AcDbEntity
  8
0
370
    -3
  6
Continuous
100
AcDbCircle
 10
68.182442
 20
173.173447
 30
0.0
 40
3.0
100
AcDbArc
 50
90.0
 51
180.0
  0
LINE
  5
138
100
AcDbEntity
  8
0
370
    -3
  6
Continuous
100
AcDbLine
 10
50.182442
 20
176.173447
 30
0.0
 11
87.182442
 21
176.173447
 31
0.0
  0
ARC
  5
139
100
AcDbEntity
  8
0
370
    -3
  6
Continuous
100
AcDbCircle
 10
79.182442
 20
132.673447
 30
0.0
 40
3.0
100
AcDbArc
 50
0.0
 51
90.0
  0
ARC
  5
13A
100
AcDbEntity
  8
0
370
    -3
  6
Continuous
100
AcDbCircle
 10
60.182442
 20
143.173447
 30
0.0
 40
5.0
100
AcDbArc
 50
270.0
 51
0.0
  0
LINE
  5
13B
100
AcDbEntity
  8
0
370
    -3
  6
Continuous
100
AcDbLine
 10
50.182442
 20
138.173447
 30
0.0
 11
60.182442
 21
138.173447
 31
0.0
  0
ARC
  5
13C
100
AcDbEntity
  8
0
370
    -3
  6
Continuous
100
AcDbCircle
 10
60.182442
 20
140.673447
 30
0.0
 40
5.0
100
AcDbArc
 50
270.0
 51
0.0
  0
LINE
  5
13D
100
AcDbEntity
  8
0
370
    -3
  6
Continuous
100
AcDbLine
 10
50.182442
 20
135.673447
 30
0.0
 11
79.182442
 21
135.673447
 31
0.0
  0
ARC
  5
13E
100
AcDbEntity
  8
0
370
    -3
  6
Continuous
100
AcDbCircle
 10
84.182442
 20
160.74287
 30
0.0
 40
2.0
100
AcDbArc
 50
180.0
 51
270.0
  0
ARC
  5
13F
100
AcDbEntity
  8
0
370
    -3
  6
Continuous
100
AcDbCircle
 10
84.182442
 20
156.74287
 30
0.0
 40
2.0
100
AcDbArc
 50
0.0
 51
90.0
  0
ARC
  5
140
100
AcDbEntity
  8
0
370
    -3
  6
Continuous
100
AcDbCircle
 10
85.182442
 20
133.044418
 30
0.0
 40
3.0
100
AcDbArc
 50
180.0
 51
267.0
  0
LINE
  5
141
100
AcDbEntity
  8
0
370
    -3
  6
Continuous
100
AcDbLine
 10
92.182442
 20
129.673447
 30
0.0
 11
85.025435
 21
130.04853
 31
0.0
  0
LINE
  5
142
100
AcDbEntity
  8
0
370
    -3
  6
Continuous
100
AcDbLine
 10
86.182442
 20
131.885823
 30
0.0
 11
86.182442
 21
156.74287
 31
0.0
  0
ARC
  5
143
100
AcDbEntity
  8
0
370
    -3
  6
Continuous
100
AcDbCircle
 10
88.182442
 20
131.885823
 30
0.0
 40
2.0
100
AcDbArc
 50
180.0
 51
267.0
  0
LINE
  5
144
100
AcDbEntity
  8
0
370
    -3
  6
Continuous
100
AcDbLine
 10
65.182442
 20
140.673447
 30
0.0
 11
65.182442
 21
173.173447
 31
0.0
  0
LINE
  5
145
100
AcDbEntity
  8
0
370
    -3
  6
Continuous
100
AcDbLine
 10
82.182442
 20
245.673447
 30
0.0
 11
82.182442
 21
202.173447
 31
0.0
  0
LINE
  5
146
100
AcDbEntity
  8
0
370
    -3
  6
Continuous
100
AcDbLine
 10
82.182442
 20
219.604024
 30
0.0
 11
68.182442
 21
219.604024
 31
0.0
  0
ARC
  5
147
100
AcDbEntity
  8
0
370
    -3
  6
Continuous
100
AcDbCircle
 10
68.182442
 20
222.604024
 30
0.0
 40
3.0
100
AcDbArc
 50
180.0
 51
270.0
  0
ARC
  5
148
100
AcDbEntity
  8
0
370
    -3
  6
Continuous
100
AcDbCircle
 10
68.182442
 20
205.173447
 30
0.0
 40
3.0
100
AcDbArc
 50
180.0
 51
270.0
  0
LINE
  5
149
100
AcDbEntity
  8
0
370
    -3
  6
Continuous
100
AcDbLine
 10
50.182442
 20
202.173447
 30
0.0
 11
87.182442
 21
202.173447
 31
0.0
  0
ARC
  5
14A
100
AcDbEntity
  8
0
370
    -3
  6
Continuous
100
AcDbCircle
 10
79.182442
 20
245.673447
 30
0.0
 40
3.0
100
AcDbArc
 50
270.0
 51
0.0
  0
ARC
  5
14B
100
AcDbEntity
  8
0
370
    -3
  6
Continuous
100
AcDbCircle
 10
60.182442
 20
235.173447
 30
0.0
 40
5.0
100
AcDbArc
 50
0.0
 51
90.0
  0
LINE
  5
14C
100
AcDbEntity
  8
0
370
    -3
  6
Continuous
100
AcDbLine
 10
50.182442
 20
240.173447
 30
0.0
 11
60.182442
 21
240.173447
 31
0.0
  0
ARC
  5
14D
100
AcDbEntity
  8
0
370
    -3
  6
Continuous
100
AcDbCircle
 10
60.182442
 20
237.673447
 30
0.0
 40
5.0
100
AcDbArc
 50
0.0
 51
90.0
  0
LINE
  5
14E
100
AcDbEntity
  8
0
370
    -3
  6
Continuous
100
AcDbLine
 10
50.182442
 20
242.673447
 30
0.0
 11
79.182442
 21
242.673447
 31
0.0
  0
ARC
  5
14F
100
AcDbEntity
  8
0
370
    -3
  6
Continuous
100
AcDbCircle
 10
84.182442
 20
217.604024
 30
0.0
 40
2.0
100
AcDbArc
 50
90.0
 51
180.0
  0
ARC
  5
150
100
AcDbEntity
  8
0
370
    -3
  6
Continuous
100
AcDbCircle
 10
84.182442
 20
221.604024
 30
0.0
 40
2.0
100
AcDbArc
 50
270.0
 51
0.0
  0
ARC
  5
151
100
AcDbEntity
  8
0
370
    -3
  6
Continuous
100
AcDbCircle
 10
85.182442
 20
245.302475
 30
0.0
 40
3.0
100
AcDbArc
 50
93.0
 51
180.0
  0
LINE
  5
152
100
AcDbEntity
  8
0
370
    -3
  6
Continuous
100
AcDbLine
 10
92.182442
 20
248.673447
 30
0.0
 11
85.025435
 21
248.298364
 31
0.0
  0
LINE
  5
153
100
AcDbEntity
  8
0
370
    -3
  6
CENTER
100
AcDbLine
 10
76.182442
 20
198.874226
 30
0.0
 11
76.182442
 21
178.013957
 31
0.0
  0
LINE
  5
154
100
AcDbEntity
  8
0
370
    -3
  6
Continuous
100
AcDbLine
 10
86.182442
 20
246.461071
 30
0.0
 11
86.182442
 21
221.604024
 31
0.0
  0
ARC
  5
155
100
AcDbEntity
  8
0
370
    -3
  6
Continuous
100
AcDbCircle
 10
88.182442
 20
246.461071
 30
0.0
 40
2.0
100
AcDbArc
 50
93.0
 51
180.0
  0
LINE
  5
156
100
AcDbEntity
  8
0
370
    -3
  6
Continuous
100
AcDbLine
 10
65.182442
 20
237.673447
 30
0.0
 11
65.182442
 21
205.173447
 31
0.0
  0
LINE
  5
157
100
AcDbEntity
  8
0
370
    -3
  6
Continuous
100
AcDbLine
 10
50.182442
 20
135.673447
 30
0.0
 11
50.182442
 21
189.173447
 31
0.0
  0
LINE
  5
158
100
AcDbEntity
  8
0
370
    -3
  6
Continuous
100
AcDbLine
 10
50.182442
 20
242.673447
 30
0.0
 11
50.182442
 21
189.173447
 31
0.0
  0
LINE
  5
159
100
AcDbEntity
  8
0
370
    -3
  6
Continuous
100
AcDbLine
 10
92.182442
 20
248.673447
 30
0.0
 11
92.182442
 21
189.173447
 31
0.0
  0
LINE
  5
15A
100
AcDbEntity
  8
0
370
    -3
  6
Continuous
100
AcDbLine
 10
92.182442
 20
129.673447
 30
0.0
 11
92.182442
 21
189.173447
 31
0.0
  0
LINE
  5
15B
100
AcDbEntity
  8
0
370
    -3
  6
Continuous
100
AcDbLine
 10
92.182442
 20
130.673447
 30
0.0
 11
92.182442
 21
189.173447
 31
0.0
  0
LINE
  5
15C
100
AcDbEntity
  8
0
370
    -3
  6
Continuous
100
AcDbLine
 10
92.182442
 20
247.673447
 30
0.0
 11
92.182442
 21
189.173447
 31
0.0
  0
LINE
  5
15D
100
AcDbEntity
  8
0
370
    -3
  6
Continuous
100
AcDbLine
 10
92.182442
 20
130.673447
 30
0.0
 11
92.182442
 21
247.673447
 31
0.0
  0
LINE
  5
15E
100
AcDbEntity
  8
0
370
    -3
  6
Continuous
100
AcDbLine
 10
50.182442
 20
136.673447
 30
0.0
 11
50.182442
 21
142.425838
 31
0.0
  0
LINE
  5
15F
100
AcDbEntity
  8
0
370
    -3
  6
Continuous
100
AcDbLine
 10
50.182442
 20
241.673447
 30
0.0
 11
50.182442
 21
235.973447
 31
0.0
  0
LINE
  5
160
100
AcDbEntity
  8
0
370
    -3
  6
CENTER
100
AcDbLine
 10
-119.181613
 20
189.173447
 30
0.0
 11
315.156933
 21
189.173447
 31
0.0
  0
LINE
  5
161
100
AcDbEntity
  8
0
370
    -3
  6
Continuous
100
AcDbLine
 10
112.182434
 20
145.173845
 30
0.0
 11
118.472669
 21
145.173845
 31
0.0
  0
LINE
  5
162
100
AcDbEntity
  8
0
370
    -3
  6
Continuous
100
AcDbLine
 10
92.182434
 20
129.690902
 30
0.0
 11
106.131063
 21
129.434887
 31
0.0
  0
LINE
  5
163
100
AcDbEntity
  8
0
370
    -3
  6
Continuous
100
AcDbLine
 10
92.182434
 20
248.655992
 30
0.0
 11
106.131063
 21
248.912008
 31
0.0
  0
LINE
  5
164
100
AcDbEntity
  8
0
370
    -3
  6
Continuous
100
AcDbLine
 10
92.182434
 20
169.173447
 30
0.0
 11
98.182434
 21
169.173447
 31
0.0
  0
LINE
  5
165
100
AcDbEntity
  8
0
370
    -3
  6
Continuous
100
AcDbLine
 10
92.182434
 20
209.173447
 30
0.0
 11
98.182434
 21
209.173447
 31
0.0
  0
LINE
  5
166
100
AcDbEntity
  8
0
370
    -3
  6
Continuous
100
AcDbLine
 10
101.182434
 20
137.07714
 30
0.0
 11
106.182434
 21
137.07714
 31
0.0
  0
LINE
  5
167
100
AcDbEntity
  8
0
370
    -3
  6
Continuous
100
AcDbLine
 10
101.182434
 20
143.988716
 30
0.0
 11
106.182434
 21
143.988716
 31
0.0
  0
LINE
  5
168
100
AcDbEntity
  8
0
370
    -3
  6
Continuous
100
AcDbLine
 10
101.182434
 20
234.358178
 30
0.0
 11
106.182434
 21
234.358178
 31
0.0
  0
LINE
  5
169
100
AcDbEntity
  8
0
370
    -3
  6
Continuous
100
AcDbLine
 10
101.182434
 20
241.269755
 30
0.0
 11
106.182434
 21
241.269755
 31
0.0
  0
LINE
  5
16A
100
AcDbEntity
  8
0
370
    -3
  6
Continuous
100
AcDbLine
 10
98.182434
 20
244.673447
 30
0.0
 11
98.182434
 21
245.673447
 31
0.0
  0
LINE
  5
16B
100
AcDbEntity
  8
0
370
    -3
  6
Continuous
100
AcDbLine
 10
101.182434
 20
228.174714
 30
0.0
 11
106.182434
 21
228.174714
 31
0.0
  0
LINE
  5
16C
100
AcDbEntity
  8
0
370
    -3
  6
Continuous
100
AcDbLine
 10
98.182434
 20
231.358178
 30
0.0
 11
98.182434
 21
189.173447
 31
0.0
  0
LINE
  5
16D
100
AcDbEntity
  8
0
370
    -3
  6
Continuous
100
AcDbLine
 10
98.182434
 20
244.673447
 30
0.0
 11
98.182434
 21
244.269755
 31
0.0
  0
LINE
  5
16E
100
AcDbEntity
  8
0
370
    -3
  6
Continuous
100
AcDbLine
 10
98.182434
 20
133.673447
 30
0.0
 11
98.182434
 21
132.673447
 31
0.0
  0
LINE
  5
16F
100
AcDbEntity
  8
0
370
    -3
  6
Continuous
100
AcDbLine
 10
98.182434
 20
133.673447
 30
0.0
 11
98.182434
 21
134.07714
 31
0.0
  0
LINE
  5
170
100
AcDbEntity
  8
0
370
    -3
  6
Continuous
100
AcDbLine
 10
98.182434
 20
133.673447
 30
0.0
 11
98.182434
 21
134.07714
 31
0.0
  0
LINE
  5
171
100
AcDbEntity
  8
0
370
    -3
  6
Continuous
100
AcDbLine
 10
101.182434
 20
150.17218
 30
0.0
 11
106.182434
 21
150.17218
 31
0.0
  0
LINE
  5
172
100
AcDbEntity
  8
0
370
    -3
  6
Continuous
100
AcDbLine
 10
98.182434
 20
146.988716
 30
0.0
 11
98.182434
 21
189.173447
 31
0.0
  0
ARC
  5
173
100
AcDbEntity
  8
0
370
    -3
  6
Continuous
100
AcDbCircle
 10
101.182434
 20
244.269755
 30
0.0
 40
3.0
100
AcDbArc
 50
180.0
 51
270.0
  0
ARC
  5
174
100
AcDbEntity
  8
0
370
    -3
  6
Continuous
100
AcDbCircle
 10
101.182434
 20
231.358178
 30
0.0
 40
3.0
100
AcDbArc
 50
90.0
 51
180.0
  0
ARC
  5
175
100
AcDbEntity
  8
0
370
    -3
  6
Continuous
100
AcDbCircle
 10
101.182434
 20
225.174714
 30
0.0
 40
3.0
100
AcDbArc
 50
90.0
 51
180.0
  0
ARC
  5
176
100
AcDbEntity
  8
0
370
    -3
  6
Continuous
100
AcDbCircle
 10
95.182434
 20
245.673447
 30
0.0
 40
3.0
100
AcDbArc
 50
0.0
 51
90.0
  0
ARC
  5
177
100
AcDbEntity
  8
0
370
    -3
  6
Continuous
100
AcDbCircle
 10
95.182434
 20
132.673447
 30
0.0
 40
3.0
100
AcDbArc
 50
270.0
 51
0.0
  0
ARC
  5
178
100
AcDbEntity
  8
0
370
    -3
  6
Continuous
100
AcDbCircle
 10
101.182434
 20
146.988716
 30
0.0
 40
3.0
100
AcDbArc
 50
180.0
 51
270.0
  0
ARC
  5
179
100
AcDbEntity
  8
0
370
    -3
  6
Continuous
100
AcDbCircle
 10
101.182434
 20
134.07714
 30
0.0
 40
3.0
100
AcDbArc
 50
90.0
 51
180.0
  0
ARC
  5
17A
100
AcDbEntity
  8
0
370
    -3
  6
Continuous
100
AcDbCircle
 10
101.182434
 20
153.17218
 30
0.0
 40
3.0
100
AcDbArc
 50
180.0
 51
270.0
  0
ARC
  5
17B
100
AcDbEntity
  8
0
370
    -3
  6
Continuous
100
AcDbCircle
 10
106.182434
 20
245.912448
 30
0.0
 40
3.0
100
AcDbArc
 50
0.0
 51
90.981173
  0
ARC
  5
17C
100
AcDbEntity
  8
0
370
    -3
  6
Continuous
100
AcDbCircle
 10
106.182434
 20
132.434447
 30
0.0
 40
3.0
100
AcDbArc
 50
269.018827
 51
0.0
  0
ARC
  5
17D
100
AcDbEntity
  8
0
370
    -3
  6
Continuous
100
AcDbCircle
 10
106.182434
 20
140.07714
 30
0.0
 40
3.0
100
AcDbArc
 50
270.0
 51
0.0
  0
ARC
  5
17E
100
AcDbEntity
  8
0
370
    -3
  6
Continuous
100
AcDbCircle
 10
106.182434
 20
146.988716
 30
0.0
 40
3.0
100
AcDbArc
 50
270.0
 51
0.0
  0
ARC
  5
17F
100
AcDbEntity
  8
0
370
    -3
  6
Continuous
100
AcDbCircle
 10
106.182434
 20
238.269755
 30
0.0
 40
3.0
100
AcDbArc
 50
0.0
 51
90.0
  0
ARC
  5
180
100
AcDbEntity
  8
0
370
    -3
  6
Continuous
100
AcDbCircle
 10
106.182434
 20
231.358178
 30
0.0
 40
3.0
100
AcDbArc
 50
0.0
 51
90.0
  0
ARC
  5
181
100
AcDbEntity
  8
0
370
    -3
  6
Continuous
100
AcDbCircle
 10
112.182434
 20
142.173845
 30
0.0
 40
3.0
100
AcDbArc
 50
90.0
 51
180.0
  0
LINE
  5
182
100
AcDbEntity
  8
0
370
    -3
  6
Continuous
100
AcDbLine
 10
120.078528
 20
233.173447
 30
0.0
 11
112.182434
 21
233.173447
 31
0.0
  0
ARC
  5
183
100
AcDbEntity
  8
0
370
    -3
  6
Continuous
100
AcDbCircle
 10
112.182434
 20
236.173447
 30
0.0
 40
3.0
100
AcDbArc
 50
180.0
 51
270.0
  0
LINE
  5
184
100
AcDbEntity
  8
0
370
    -3
  6
Continuous
100
AcDbLine
 10
109.182434
 20
132.434447
 30
0.0
 11
109.182434
 21
245.912448
 31
0.0
  0
ARC
  5
185
100
AcDbEntity
  8
0
370
    -3
  6
Continuous
100
AcDbCircle
 10
120.078528
 20
235.173447
 30
0.0
 40
2.0
100
AcDbArc
 50
270.0
 51
359.0
  0
ARC
  5
186
100
AcDbEntity
  8
0
370
    -3
  6
Continuous
100
AcDbCircle
 10
118.472669
 20
143.173845
 30
0.0
 40
2.0
100
AcDbArc
 50
359.0
 51
90.0
  0
ARC
  5
187
100
AcDbEntity
  8
0
370
    -3
  6
Continuous
100
AcDbCircle
 10
238.682667
 20
109.173254
 30
0.0
 40
5.0
100
AcDbArc
 50
0.0
 51
180.0
  0
LINE
  5
188
100
AcDbEntity
  8
0
370
    -3
  6
Continuous
100
AcDbLine
 10
233.682667
 20
69.173254
 30
0.0
 11
233.682667
 21
109.173254
 31
0.0
  0
LINE
  5
189
100
AcDbEntity
  8
0
370
    -3
  6
Continuous
100
AcDbLine
 10
233.682667
 20
109.173254
 30
0.0
 11
243.682667
 21
109.173254
 31
0.0
  0
LINE
  5
18A
100
AcDbEntity
  8
0
370
    -3
  6
Continuous
100
AcDbLine
 10
243.682667
 20
69.173254
 30
0.0
 11
243.682667
 21
109.173254
 31
0.0
  0
ARC
  5
18B
100
AcDbEntity
  8
0
370
    -3
  6
Continuous
100
AcDbCircle
 10
253.88227
 20
69.973254
 30
0.0
 40
0.8
100
AcDbArc
 50
270.0
 51
0.0
  0
LINE
  5
18C
100
AcDbEntity
  8
0
370
    -3
  6
Continuous
100
AcDbLine
 10
254.68227
 20
123.773186
 30
0.0
 11
254.68227
 21
69.973254
 31
0.0
  0
ARC
  5
18D
100
AcDbEntity
  8
0
370
    -3
  6
Continuous
100
AcDbCircle
 10
255.08227
 20
123.773186
 30
0.0
 40
0.4
100
AcDbArc
 50
90.0
 51
180.0
  0
ARC
  5
18E
100
AcDbEntity
  8
0
370
    -3
  6
Continuous
100
AcDbCircle
 10
255.78227
 20
124.573186
 30
0.0
 40
0.4
100
AcDbArc
 50
270.0
 51
0.0
  0
LINE
  5
18F
100
AcDbEntity
  8
0
370
    -3
  6
Continuous
100
AcDbLine
 10
222.68227
 20
69.173254
 30
0.0
 11
253.88227
 21
69.173254
 31
0.0
  0
ARC
  5
190
100
AcDbEntity
  8
0
370
    -3
  6
Continuous
100
AcDbCircle
 10
223.48227
 20
69.973254
 30
0.0
 40
0.8
100
AcDbArc
 50
180.0
 51
270.0
  0
LINE
  5
191
100
AcDbEntity
  8
0
370
    -3
  6
Continuous
100
AcDbLine
 10
221.58227
 20
124.173186
 30
0.0
 11
255.78227
 21
124.173186
 31
0.0
  0
LINE
  5
192
100
AcDbEntity
  8
0
370
    -3
  6
Continuous
100
AcDbLine
 10
222.68227
 20
123.773186
 30
0.0
 11
222.68227
 21
69.973254
 31
0.0
  0
ARC
  5
193
100
AcDbEntity
  8
0
370
    -3
  6
Continuous
100
AcDbCircle
 10
222.28227
 20
123.773186
 30
0.0
 40
0.4
100
AcDbArc
 50
0.0
 51
90.0
  0
ARC
  5
194
100
AcDbEntity
  8
0
370
    -3
  6
Continuous
100
AcDbCircle
 10
221.58227
 20
124.573186
 30
0.0
 40
0.4
100
AcDbArc
 50
180.0
 51
270.0
  0
LINE
  5
195
100
AcDbEntity
  8
0
370
    -3
  6
Continuous
100
AcDbLine
 10
256.18227
 20
126.173049
 30
0.0
 11
256.18227
 21
124.573186
 31
0.0
  0
LINE
  5
196
100
AcDbEntity
  8
0
370
    -3
  6
Continuous
100
AcDbLine
 10
221.18227
 20
126.173049
 30
0.0
 11
221.18227
 21
124.573186
 31
0.0
  0
LINE
  5
197
100
AcDbEntity
  8
0
370
    -3
  6
Continuous
100
AcDbLine
 10
191.182667
 20
126.173447
 30
0.0
 11
191.182667
 21
131.173447
 31
0.0
  0
LINE
  5
198
100
AcDbEntity
  8
0
370
    -3
  6
Continuous
100
AcDbLine
 10
286.182667
 20
126.173447
 30
0.0
 11
286.182667
 21
131.173447
 31
0.0
  0
LINE
  5
199
100
AcDbEntity
  8
0
370
    -3
  6
Continuous
100
AcDbLine
 10
286.182667
 20
126.173447
 30
0.0
 11
191.182667
 21
126.173447
 31
0.0
  0
LINE
  5
19A
100
AcDbEntity
  8
0
370
    -3
  6
Continuous
100
AcDbLine
 10
238.91134
 20
252.173845
 30
0.0
 11
191.182667
 21
252.173845
 31
0.0
  0
LINE
  5
19B
100
AcDbEntity
  8
0
370
    -3
  6
Continuous
100
AcDbLine
 10
191.182667
 20
252.173845
 30
0.0
 11
191.182667
 21
247.173447
 31
0.0
  0
LINE
  5
19C
100
AcDbEntity
  8
0
370
    -3
  6
Continuous
100
AcDbLine
 10
238.91134
 20
252.173845
 30
0.0
 11
286.182667
 21
252.173845
 31
0.0
  0
LINE
  5
19D
100
AcDbEntity
  8
0
370
    -3
  6
Continuous
100
AcDbLine
 10
286.182667
 20
252.173845
 30
0.0
 11
286.182667
 21
247.173447
 31
0.0
  0
LINE
  5
19E
100
AcDbEntity
  8
0
370
    -3
  6
CENTER
100
AcDbLine
 10
238.682667
 20
265.88919
 30
0.0
 11
238.682667
 21
64.532584
 31
0.0
  0
LINE
  5
19F
100
AcDbEntity
  8
0
370
    -3
  6
Continuous
100
AcDbLine
 10
222.481771
 20
247.173447
 30
0.0
 11
308.823696
 21
247.173447
 31
0.0
  0
LINE
  5
1A0
100
AcDbEntity
  8
0
370
    -3
  6
Continuous
100
AcDbLine
 10
222.481771
 20
143.173447
 30
0.0
 11
310.4732
 21
143.173447
 31
0.0
  0
LINE
  5
1A1
100
AcDbEntity
  8
0
370
    -3
  6
Continuous
100
AcDbLine
 10
222.481771
 20
131.17305
 30
0.0
 11
309.763808
 21
131.17305
 31
0.0
  0
LINE
  5
1A2
100
AcDbEntity
  8
0
370
    -3
  6
Continuous
100
AcDbLine
 10
222.481771
 20
131.17305
 30
0.0
 11
120.682442
 21
131.17305
 31
0.0
  0
LINE
  5
1A3
100
AcDbEntity
  8
0
370
    -3
  6
Continuous
100
AcDbLine
 10
120.472975
 20
143.173447
 30
0.0
 11
222.481771
 21
143.173447
 31
0.0
  0
LINE
  5
1A4
100
AcDbEntity
  8
0
370
    -3
  6
Continuous
100
AcDbLine
 10
122.122478
 20
247.173447
 30
0.0
 11
222.481771
 21
247.173447
 31
0.0
  0
LINE
  5
1A5
100
AcDbEntity
  8
0
370
    -3
  6
Continuous
100
AcDbLine
 10
310.4732
 20
143.173447
 30
0.0
 11
308.823696
 21
237.673447
 31
0.0
  0
LINE
  5
1A6
100
AcDbEntity
  8
0
370
    -3
  6
Continuous
100
AcDbLine
 10
308.823696
 20
237.673447
 30
0.0
 11
308.823696
 21
247.173447
 31
0.0
  0
LINE
  5
1A7
100
AcDbEntity
  8
0
370
    -3
  6
Continuous
100
AcDbLine
 10
310.272457
 20
131.672897
 30
0.0
 11
310.4732
 21
143.173447
 31
0.0
  0
LINE
  5
1A8
100
AcDbEntity
  8
0
370
    -3
  6
Continuous
100
AcDbLine
 10
238.682667
 20
126.17305
 30
0.0
 11
191.182667
 21
126.17305
 31
0.0
  0
LINE
  5
1A9
100
AcDbEntity
  8
0
370
    -3
  6
Continuous
100
AcDbLine
 10
309.763808
 20
131.17305
 30
0.0
 11
310.272457
 21
131.672897
 31
0.0
  0
LINE
  5
1AA
100
AcDbEntity
  8
0
370
    -3
  6
Continuous
100
AcDbLine
 10
120.682442
 20
131.17305
 30
0.0
 11
120.472975
 21
143.173447
 31
0.0
  0
LINE
  5
1AB
100
AcDbEntity
  8
0
370
    -3
  6
Continuous
100
AcDbLine
 10
120.472975
 20
143.173447
 30
0.0
 11
122.122478
 21
237.673447
 31
0.0
  0
LINE
  5
1AC
100
AcDbEntity
  8
0
370
    -3
  6
Continuous
100
AcDbLine
 10
122.122478
 20
237.673447
 30
0.0
 11
122.122478
 21
247.173447
 31
0.0
  0
CIRCLE
  5
1AD
100
AcDbEntity
  8
0
370
    -3
  6
Continuous
100
AcDbCircle
 10
238.682676
 20
-100.47304
 30
0.0
 40
52.5
  0
LINE
  5
1AE
100
AcDbEntity
  8
0
370
    -3
  6
Continuous
100
AcDbLine
 10
233.682676
 20
-81.47304
 30
0.0
 11
233.682676
 21
-89.47304
 31
0.0
  0
LINE
  5
1AF
100
AcDbEntity
  8
0
370
    -3
  6
Continuous
100
AcDbLine
 10
243.682676
 20
-89.47304
 30
0.0
 11
233.682676
 21
-89.47304
 31
0.0
  0
LINE
  5
1B0
100
AcDbEntity
  8
0
370
    -3
  6
Continuous
100
AcDbLine
 10
243.682676
 20
-81.47304
 30
0.0
 11
243.682676
 21
-89.47304
 31
0.0
  0
LINE
  5
1B1
100
AcDbEntity
  8
0
370
    -3
  6
Continuous
100
AcDbLine
 10
233.682676
 20
-81.47304
 30
0.0
 11
243.682676
 21
-81.47304
 31
0.0
  0
CIRCLE
  5
1B2
100
AcDbEntity
  8
0
370
    -3
  6
Continuous
100
AcDbCircle
 10
238.682676
 20
-100.47304
 30
0.0
 40
3.5
  0
CIRCLE
  5
1B3
100
AcDbEntity
  8
0
370
    -3
  6
Continuous
100
AcDbCircle
 10
238.682676
 20
-100.47304
 30
0.0
 40
4.0
  0
ARC
  5
1B4
100
AcDbEntity
  8
0
370
    -3
  6
Continuous
100
AcDbCircle
 10
238.682676
 20
-100.47304
 30
0.0
 40
16.0
100
AcDbArc
 50
108.209957
 51
71.790043
  0
LINE
  5
1B5
100
AcDbEntity
  8
0
370
    -3
  6
Continuous
100
AcDbLine
 10
309.682676
 20
-192.47304
 30
0.0
 11
309.682676
 21
-40.47304
 31
0.0
  0
ARC
  5
1B6
100
AcDbEntity
  8
0
370
    -3
  6
Continuous
100
AcDbCircle
 10
291.682676
 20
-164.795115
 30
0.0
 40
7.5
100
AcDbArc
 50
279.206896
 51
0.0
  0
LINE
  5
1B7
100
AcDbEntity
  8
0
370
    -3
  6
Continuous
100
AcDbLine
 10
299.182676
 20
-164.795115
 30
0.0
 11
299.182676
 21
-68.150965
 31
0.0
  0
ARC
  5
1B8
100
AcDbEntity
  8
0
370
    -3
  6
Continuous
100
AcDbCircle
 10
291.682676
 20
-68.150965
 30
0.0
 40
7.5
100
AcDbArc
 50
0.0
 51
80.793104
  0
ARC
  5
1B9
100
AcDbEntity
  8
0
370
    -3
  6
Continuous
100
AcDbCircle
 10
295.682676
 20
-43.47304
 30
0.0
 40
17.5
100
AcDbArc
 50
211.5123
 51
260.793104
  0
ARC
  5
1BA
100
AcDbEntity
  8
0
370
    -3
  6
Continuous
100
AcDbCircle
 10
277.779588
 20
-54.449354
 30
0.0
 40
3.5
100
AcDbArc
 50
31.5123
 51
86.955283
  0
ARC
  5
1BB
100
AcDbEntity
  8
0
370
    -3
  6
Continuous
100
AcDbCircle
 10
278.682549
 20
-37.473351
 30
0.0
 40
13.5
100
AcDbArc
 50
200.666196
 51
266.955283
  0
ARC
  5
1BC
100
AcDbEntity
  8
0
370
    -3
  6
Continuous
100
AcDbCircle
 10
262.776458
 20
-43.47304
 30
0.0
 40
3.5
100
AcDbArc
 50
20.666196
 51
90.0
  0
ARC
  5
1BD
100
AcDbEntity
  8
0
370
    -3
  6
Continuous
100
AcDbCircle
 10
262.776692
 20
-189.47304
 30
0.0
 40
3.5
100
AcDbArc
 50
270.0
 51
339.331563
  0
ARC
  5
1BE
100
AcDbEntity
  8
0
370
    -3
  6
Continuous
100
AcDbCircle
 10
278.682549
 20
-195.473351
 30
0.0
 40
13.5
100
AcDbArc
 50
93.046047
 51
159.331563
  0
ARC
  5
1BF
100
AcDbEntity
  8
0
370
    -3
  6
Continuous
100
AcDbCircle
 10
277.779194
 20
-178.497369
 30
0.0
 40
3.5
100
AcDbArc
 50
273.046047
 51
328.489758
  0
ARC
  5
1C0
100
AcDbEntity
  8
0
370
    -3
  6
Continuous
100
AcDbCircle
 10
295.682676
 20
-189.47304
 30
0.0
 40
17.5
100
AcDbArc
 50
99.206896
 51
148.489758
  0
ARC
  5
1C1
100
AcDbEntity
  8
0
370
    -3
  6
Continuous
100
AcDbCircle
 10
298.682676
 20
-40.47304
 30
0.0
 40
11.0
100
AcDbArc
 50
0.0
 51
90.0
  0
ARC
  5
1C2
100
AcDbEntity
  8
0
370
    -3
  6
Continuous
100
AcDbCircle
 10
298.682676
 20
-40.47304
 30
0.0
 40
12.0
100
AcDbArc
 50
0.0
 51
90.0
  0
ARC
  5
1C3
100
AcDbEntity
  8
0
370
    -3
  6
Continuous
100
AcDbCircle
 10
298.682676
 20
-192.47304
 30
0.0
 40
12.0
100
AcDbArc
 50
270.0
 51
0.0
  0
ARC
  5
1C4
100
AcDbEntity
  8
0
370
    -3
  6
Continuous
100
AcDbCircle
 10
298.682676
 20
-192.47304
 30
0.0
 40
11.0
100
AcDbArc
 50
270.0
 51
0.0
  0
ARC
  5
1C5
100
AcDbEntity
  8
0
370
    -3
  6
Continuous
100
AcDbCircle
 10
262.776458
 20
-43.47304
 30
0.0
 40
5.5
100
AcDbArc
 50
20.666196
 51
90.0
  0
ARC
  5
1C6
100
AcDbEntity
  8
0
370
    -3
  6
Continuous
100
AcDbCircle
 10
278.682549
 20
-37.473351
 30
0.0
 40
11.5
100
AcDbArc
 50
200.666196
 51
266.955283
  0
ARC
  5
1C7
100
AcDbEntity
  8
0
370
    -3
  6
Continuous
100
AcDbCircle
 10
277.779588
 20
-54.449354
 30
0.0
 40
5.5
100
AcDbArc
 50
31.5123
 51
86.955283
  0
ARC
  5
1C8
100
AcDbEntity
  8
0
370
    -3
  6
Continuous
100
AcDbCircle
 10
295.682676
 20
-43.47304
 30
0.0
 40
15.5
100
AcDbArc
 50
211.5123
 51
260.793104
  0
ARC
  5
1C9
100
AcDbEntity
  8
0
370
    -3
  6
Continuous
100
AcDbCircle
 10
291.682676
 20
-68.150965
 30
0.0
 40
9.5
100
AcDbArc
 50
0.0
 51
80.793104
  0
LINE
  5
1CA
100
AcDbEntity
  8
0
370
    -3
  6
Continuous
100
AcDbLine
 10
301.182676
 20
-68.150965
 30
0.0
 11
301.182676
 21
-164.795115
 31
0.0
  0
ARC
  5
1CB
100
AcDbEntity
  8
0
370
    -3
  6
Continuous
100
AcDbCircle
 10
291.682676
 20
-164.795115
 30
0.0
 40
9.5
100
AcDbArc
 50
279.206896
 51
0.0
  0
ARC
  5
1CC
100
AcDbEntity
  8
0
370
    -3
  6
Continuous
100
AcDbCircle
 10
295.682676
 20
-189.47304
 30
0.0
 40
15.5
100
AcDbArc
 50
99.206896
 51
148.489758
  0
ARC
  5
1CD
100
AcDbEntity
  8
0
370
    -3
  6
Continuous
100
AcDbCircle
 10
277.779194
 20
-178.497369
 30
0.0
 40
5.5
100
AcDbArc
 50
273.046047
 51
328.489758
  0
ARC
  5
1CE
100
AcDbEntity
  8
0
370
    -3
  6
Continuous
100
AcDbCircle
 10
278.682549
 20
-195.473351
 30
0.0
 40
11.5
100
AcDbArc
 50
93.046047
 51
159.331563
  0
ARC
  5
1CF
100
AcDbEntity
  8
0
370
    -3
  6
Continuous
100
AcDbCircle
 10
262.776692
 20
-189.47304
 30
0.0
 40
5.5
100
AcDbArc
 50
270.0
 51
339.331563
  0
INSERT
  5
1DB
100
AcDbEntity
  8
0
100
AcDbBlockReference
  2
ZU_SYM__USERS_HOME_SYMBOL_POO_SYM_B20_-1
 10
278.682549
 20
-195.473351
 30
0.0
  0
INSERT
  5
1E7
100
AcDbEntity
  8
0
100
AcDbBlockReference
  2
ZU_SYM__USERS_HOME_SYMBOL_POO_SYM_B20_00003-1
 10
278.682549
 20
-37.473351
 30
0.0
  0
CIRCLE
  5
1E8
100
AcDbEntity
  8
0
370
    -3
  6
Continuous
100
AcDbCircle
 10
278.682549
 20
-37.473351
 30
0.0
 40
5.5
  0
CIRCLE
  5
1E9
100
AcDbEntity
  8
0
370
    -3
  6
Continuous
100
AcDbCircle
 10
278.682549
 20
-195.473351
 30
0.0
 40
5.5
  0
LINE
  5
1EA
100
AcDbEntity
  8
0
370
    -3
  6
CENTER
100
AcDbLine
 10
295.682676
 20
-177.200165
 30
0.0
 11
295.682676
 21
-201.596871
 31
0.0
  0
LINE
  5
1EB
100
AcDbEntity
  8
0
370
    -3
  6
CENTER
100
AcDbLine
 10
278.682549
 20
-187.263101
 30
0.0
 11
278.682549
 21
-202.138746
 31
0.0
  0
LINE
  5
1EC
100
AcDbEntity
  8
0
370
    -3
  6
CENTER
100
AcDbLine
 10
278.682549
 20
-29.517695
 30
0.0
 11
278.682549
 21
-45.725715
 31
0.0
  0
LINE
  5
1ED
100
AcDbEntity
  8
0
370
    -3
  6
CENTER
100
AcDbLine
 10
287.270366
 20
-37.473351
 30
0.0
 11
270.479098
 21
-37.473351
 31
0.0
  0
LINE
  5
1EE
100
AcDbEntity
  8
0
370
    -3
  6
CENTER
100
AcDbLine
 10
286.229781
 20
-195.473351
 30
0.0
 11
270.479098
 21
-195.473351
 31
0.0
  0
LINE
  5
1EF
100
AcDbEntity
  8
0
370
    -3
  6
CENTER
100
AcDbLine
 10
307.682676
 20
-189.47304
 30
0.0
 11
283.823426
 21
-189.47304
 31
0.0
  0
LINE
  5
1F0
100
AcDbEntity
  8
0
370
    -3
  6
CENTER
100
AcDbLine
 10
307.682676
 20
-43.47304
 30
0.0
 11
284.042186
 21
-43.47304
 31
0.0
  0
LINE
  5
1F1
100
AcDbEntity
  8
0
370
    -3
  6
CENTER
100
AcDbLine
 10
295.682676
 20
-31.47304
 30
0.0
 11
295.682676
 21
-56.882449
 31
0.0
  0
LINE
  5
1F2
100
AcDbEntity
  8
0
370
    -3
  6
Continuous
100
AcDbLine
 10
310.682676
 20
-192.47304
 30
0.0
 11
310.682676
 21
-40.47304
 31
0.0
  0
LINE
  5
1F3
100
AcDbEntity
  8
0
370
    -3
  6
CENTER
100
AcDbLine
 10
238.682676
 20
-25.512476
 30
0.0
 11
238.682676
 21
-177.09388
 31
0.0
  0
POINT
  5
1F4
100
AcDbEntity
  8
0
370
    -3
  6
Continuous
100
AcDbPoint
 10
238.682676
 20
-100.47304
 30
0.0
  0
CIRCLE
  5
1F5
100
AcDbEntity
  8
0
370
    -3
  6
Continuous
100
AcDbCircle
 10
238.682676
 20
-100.47304
 30
0.0
 40
47.5
  0
CIRCLE
  5
1F6
100
AcDbEntity
  8
0
370
    -3
  6
Continuous
100
AcDbCircle
 10
295.682676
 20
-43.47304
 30
0.0
 40
5.053
  0
CIRCLE
  5
1F7
100
AcDbEntity
  8
0
370
    -3
  6
Continuous
100
AcDbCircle
 10
295.682676
 20
-43.47304
 30
0.0
 40
6.0
  0
CIRCLE
  5
1F8
100
AcDbEntity
  8
0
370
    -3
  6
Continuous
100
AcDbCircle
 10
295.682676
 20
-189.47304
 30
0.0
 40
5.053
  0
CIRCLE
  5
1F9
100
AcDbEntity
  8
0
370
    -3
  6
Continuous
100
AcDbCircle
 10
295.682676
 20
-189.47304
 30
0.0
 40
6.0
  0
LINE
  5
1FA
100
AcDbEntity
  8
0
370
    -3
  6
Continuous
100
AcDbLine
 10
50.182442
 20
-145.472883
 30
0.0
 11
50.182442
 21
-91.972883
 31
0.0
  0
LINE
  5
1FB
100
AcDbEntity
  8
0
370
    -3
  6
Continuous
100
AcDbLine
 10
50.182442
 20
-38.472883
 30
0.0
 11
50.182442
 21
-91.972883
 31
0.0
  0
LINE
  5
1FC
100
AcDbEntity
  8
0
370
    -3
  6
Continuous
100
AcDbLine
 10
50.182442
 20
-145.472883
 30
0.0
 11
50.182442
 21
-91.972883
 31
0.0
  0
LINE
  5
1FD
100
AcDbEntity
  8
0
370
    -3
  6
Continuous
100
AcDbLine
 10
50.182442
 20
-38.472883
 30
0.0
 11
50.182442
 21
-91.972883
 31
0.0
  0
LINE
  5
1FE
100
AcDbEntity
  8
0
370
    -3
  6
CENTER
100
AcDbLine
 10
135.510417
 20
-116.472883
 30
0.0
 11
60.561014
 21
-116.472883
 31
0.0
  0
LINE
  5
1FF
100
AcDbEntity
  8
0
370
    -3
  6
Continuous
100
AcDbLine
 10
92.182442
 20
-175.972883
 30
0.0
 11
92.182442
 21
-116.472883
 31
0.0
  0
LINE
  5
200
100
AcDbEntity
  8
0
370
    -3
  6
Continuous
100
AcDbLine
 10
92.182442
 20
-56.972883
 30
0.0
 11
92.182442
 21
-116.472883
 31
0.0
  0
LINE
  5
201
100
AcDbEntity
  8
0
370
    -3
  6
Continuous
100
AcDbLine
 10
298.682676
 20
-29.47304
 30
0.0
 11
133.682676
 21
-29.47304
 31
0.0
  0
LINE
  5
202
100
AcDbEntity
  8
0
370
    -3
  6
Continuous
100
AcDbLine
 10
122.682676
 20
-40.47304
 30
0.0
 11
122.682676
 21
-192.47304
 31
0.0
  0
LINE
  5
203
100
AcDbEntity
  8
0
370
    -3
  6
Continuous
100
AcDbLine
 10
133.682676
 20
-203.47304
 30
0.0
 11
298.682676
 21
-203.47304
 31
0.0
  0
LINE
  5
204
100
AcDbEntity
  8
0
370
    -3
  6
Continuous
100
AcDbLine
 10
262.776458
 20
-39.97304
 30
0.0
 11
170.58864
 21
-39.97304
 31
0.0
  0
ARC
  5
205
100
AcDbEntity
  8
0
370
    -3
  6
Continuous
100
AcDbCircle
 10
170.58864
 20
-43.47304
 30
0.0
 40
3.5
100
AcDbArc
 50
90.0
 51
159.333804
  0
ARC
  5
206
100
AcDbEntity
  8
0
370
    -3
  6
Continuous
100
AcDbCircle
 10
154.682549
 20
-37.473351
 30
0.0
 40
13.5
100
AcDbArc
 50
269.624891
 51
339.333804
  0
ARC
  5
207
100
AcDbEntity
  8
0
370
    -3
  6
Continuous
100
AcDbCircle
 10
154.571252
 20
-54.472987
 30
0.0
 40
3.5
100
AcDbArc
 50
89.624891
 51
148.412035
  0
ARC
  5
208
100
AcDbEntity
  8
0
370
    -3
  6
Continuous
100
AcDbCircle
 10
136.682676
 20
-43.47304
 30
0.0
 40
17.5
100
AcDbArc
 50
279.206896
 51
328.412035
  0
ARC
  5
209
100
AcDbEntity
  8
0
370
    -3
  6
Continuous
100
AcDbCircle
 10
140.682676
 20
-68.150965
 30
0.0
 40
7.5
100
AcDbArc
 50
99.206896
 51
180.0
  0
LINE
  5
20A
100
AcDbEntity
  8
0
370
    -3
  6
Continuous
100
AcDbLine
 10
133.182676
 20
-68.150965
 30
0.0
 11
133.182676
 21
-164.795115
 31
0.0
  0
ARC
  5
20B
100
AcDbEntity
  8
0
370
    -3
  6
Continuous
100
AcDbCircle
 10
140.682676
 20
-164.795115
 30
0.0
 40
7.5
100
AcDbArc
 50
180.0
 51
260.793104
  0
ARC
  5
20C
100
AcDbEntity
  8
0
370
    -3
  6
Continuous
100
AcDbCircle
 10
136.682676
 20
-189.47304
 30
0.0
 40
17.5
100
AcDbArc
 50
31.58598
 51
80.793104
  0
ARC
  5
20D
100
AcDbEntity
  8
0
370
    -3
  6
Continuous
100
AcDbCircle
 10
154.571633
 20
-178.473713
 30
0.0
 40
3.5
100
AcDbArc
 50
211.58598
 51
270.373825
  0
ARC
  5
20E
100
AcDbEntity
  8
0
370
    -3
  6
Continuous
100
AcDbCircle
 10
154.682549
 20
-195.473351
 30
0.0
 40
13.5
100
AcDbArc
 50
20.668437
 51
90.373825
  0
ARC
  5
20F
100
AcDbEntity
  8
0
370
    -3
  6
Continuous
100
AcDbCircle
 10
170.588405
 20
-189.47304
 30
0.0
 40
3.5
100
AcDbArc
 50
200.668437
 51
270.0
  0
LINE
  5
210
100
AcDbEntity
  8
0
370
    -3
  6
Continuous
100
AcDbLine
 10
170.588405
 20
-192.97304
 30
0.0
 11
262.776692
 21
-192.97304
 31
0.0
  0
ARC
  5
211
100
AcDbEntity
  8
0
370
    -3
  6
Continuous
100
AcDbCircle
 10
133.682676
 20
-40.47304
 30
0.0
 40
12.0
100
AcDbArc
 50
90.0
 51
180.0
  0
ARC
  5
212
100
AcDbEntity
  8
0
370
    -3
  6
Continuous
100
AcDbCircle
 10
133.682676
 20
-40.47304
 30
0.0
 40
11.0
100
AcDbArc
 50
90.0
 51
180.0
  0
ARC
  5
213
100
AcDbEntity
  8
0
370
    -3
  6
Continuous
100
AcDbCircle
 10
133.682676
 20
-192.47304
 30
0.0
 40
12.0
100
AcDbArc
 50
180.0
 51
270.0
  0
ARC
  5
214
100
AcDbEntity
  8
0
370
    -3
  6
Continuous
100
AcDbCircle
 10
133.682676
 20
-192.47304
 30
0.0
 40
11.0
100
AcDbArc
 50
180.0
 51
270.0
  0
LINE
  5
215
100
AcDbEntity
  8
0
370
    -3
  6
Continuous
100
AcDbLine
 10
131.182676
 20
-164.795115
 30
0.0
 11
131.182676
 21
-68.150965
 31
0.0
  0
ARC
  5
216
100
AcDbEntity
  8
0
370
    -3
  6
Continuous
100
AcDbCircle
 10
140.682676
 20
-68.150965
 30
0.0
 40
9.5
100
AcDbArc
 50
99.206896
 51
180.0
  0
ARC
  5
217
100
AcDbEntity
  8
0
370
    -3
  6
Continuous
100
AcDbCircle
 10
136.682676
 20
-43.47304
 30
0.0
 40
15.5
100
AcDbArc
 50
279.206896
 51
328.412035
  0
ARC
  5
218
100
AcDbEntity
  8
0
370
    -3
  6
Continuous
100
AcDbCircle
 10
154.571252
 20
-54.472987
 30
0.0
 40
5.5
100
AcDbArc
 50
89.624891
 51
148.412035
  0
ARC
  5
219
100
AcDbEntity
  8
0
370
    -3
  6
Continuous
100
AcDbCircle
 10
154.682549
 20
-37.473351
 30
0.0
 40
11.5
100
AcDbArc
 50
269.624891
 51
339.333804
  0
ARC
  5
21A
100
AcDbEntity
  8
0
370
    -3
  6
Continuous
100
AcDbCircle
 10
170.58864
 20
-43.47304
 30
0.0
 40
5.5
100
AcDbArc
 50
90.0
 51
159.333804
  0
LINE
  5
21B
100
AcDbEntity
  8
0
370
    -3
  6
Continuous
100
AcDbLine
 10
170.58864
 20
-37.97304
 30
0.0
 11
262.776458
 21
-37.97304
 31
0.0
  0
LINE
  5
21C
100
AcDbEntity
  8
0
370
    -3
  6
Continuous
100
AcDbLine
 10
262.776692
 20
-194.97304
 30
0.0
 11
170.588405
 21
-194.97304
 31
0.0
  0
ARC
  5
21D
100
AcDbEntity
  8
0
370
    -3
  6
Continuous
100
AcDbCircle
 10
170.588405
 20
-189.47304
 30
0.0
 40
5.5
100
AcDbArc
 50
200.668437
 51
270.0
  0
ARC
  5
21E
100
AcDbEntity
  8
0
370
    -3
  6
Continuous
100
AcDbCircle
 10
154.682549
 20
-195.473351
 30
0.0
 40
11.5
100
AcDbArc
 50
20.668437
 51
90.373825
  0
ARC
  5
21F
100
AcDbEntity
  8
0
370
    -3
  6
Continuous
100
AcDbCircle
 10
154.571633
 20
-178.473713
 30
0.0
 40
5.5
100
AcDbArc
 50
211.58598
 51
270.373825
  0
ARC
  5
220
100
AcDbEntity
  8
0
370
    -3
  6
Continuous
100
AcDbCircle
 10
140.682676
 20
-164.795115
 30
0.0
 40
9.5
100
AcDbArc
 50
180.0
 51
260.793104
  0
INSERT
  5
22C
100
AcDbEntity
  8
0
100
AcDbBlockReference
  2
ZU_SYM__USERS_HOME_SYMBOL_POO_SYM_B20_00004-1
 10
154.682549
 20
-195.473351
 30
0.0
  0
INSERT
  5
238
100
AcDbEntity
  8
0
100
AcDbBlockReference
  2
ZU_SYM__USERS_HOME_SYMBOL_POO_SYM_B20_00005-1
 10
154.682549
 20
-37.473351
 30
0.0
  0
LINE
  5
239
100
AcDbEntity
  8
0
370
    -3
  6
DASHED
100
AcDbLine
 10
121.682676
 20
-151.919079
 30
0.0
 11
121.682676
 21
-165.69937
 31
0.0
  0
LINE
  5
23A
100
AcDbEntity
  8
0
370
    -3
  6
DASHED
100
AcDbLine
 10
121.682676
 20
-81.026688
 30
0.0
 11
121.682676
 21
-67.246397
 31
0.0
  0
ARC
  5
23B
100
AcDbEntity
  8
0
370
    -3
  6
Continuous
100
AcDbCircle
 10
107.182442
 20
-158.657615
 30
0.0
 40
3.0
100
AcDbArc
 50
270.0
 51
0.0
  0
ARC
  5
23C
100
AcDbEntity
  8
0
370
    -3
  6
Continuous
100
AcDbCircle
 10
107.182442
 20
-165.569191
 30
0.0
 40
3.0
100
AcDbArc
 50
270.0
 51
0.0
  0
ARC
  5
23D
100
AcDbEntity
  8
0
370
    -3
  6
Continuous
100
AcDbCircle
 10
107.182442
 20
-74.288152
 30
0.0
 40
3.0
100
AcDbArc
 50
0.0
 51
90.0
  0
ARC
  5
23E
100
AcDbEntity
  8
0
370
    -3
  6
Continuous
100
AcDbCircle
 10
107.182442
 20
-67.376576
 30
0.0
 40
3.0
100
AcDbArc
 50
0.0
 51
90.0
  0
ARC
  5
23F
100
AcDbEntity
  8
0
370
    -3
  6
Continuous
100
AcDbCircle
 10
107.182442
 20
-59.733883
 30
0.0
 40
3.0
100
AcDbArc
 50
0.0
 51
90.981173
  0
ARC
  5
240
100
AcDbEntity
  8
0
370
    -3
  6
Continuous
100
AcDbCircle
 10
107.182442
 20
-173.211884
 30
0.0
 40
3.0
100
AcDbArc
 50
269.018827
 51
0.0
  0
LINE
  5
241
100
AcDbEntity
  8
0
370
    -3
  6
Continuous
100
AcDbLine
 10
110.182442
 20
-59.733883
 30
0.0
 11
110.182442
 21
-173.211884
 31
0.0
  0
ARC
  5
242
100
AcDbEntity
  8
0
370
    -3
  6
Continuous
100
AcDbCircle
 10
102.182442
 20
-80.471617
 30
0.0
 40
3.0
100
AcDbArc
 50
90.0
 51
180.0
  0
ARC
  5
243
100
AcDbEntity
  8
0
370
    -3
  6
Continuous
100
AcDbCircle
 10
102.182442
 20
-61.376576
 30
0.0
 40
3.0
100
AcDbArc
 50
180.0
 51
270.0
  0
ARC
  5
244
100
AcDbEntity
  8
0
370
    -3
  6
Continuous
100
AcDbCircle
 10
102.182442
 20
-74.288152
 30
0.0
 40
3.0
100
AcDbArc
 50
90.0
 51
180.0
  0
ARC
  5
245
100
AcDbEntity
  8
0
370
    -3
  6
Continuous
100
AcDbCircle
 10
96.182442
 20
-59.972883
 30
0.0
 40
3.0
100
AcDbArc
 50
0.0
 51
90.0
  0
ARC
  5
246
100
AcDbEntity
  8
0
370
    -3
  6
Continuous
100
AcDbCircle
 10
96.182442
 20
-172.972883
 30
0.0
 40
3.0
100
AcDbArc
 50
270.0
 51
0.0
  0
ARC
  5
247
100
AcDbEntity
  8
0
370
    -3
  6
Continuous
100
AcDbCircle
 10
102.182442
 20
-152.47415
 30
0.0
 40
3.0
100
AcDbArc
 50
180.0
 51
270.0
  0
ARC
  5
248
100
AcDbEntity
  8
0
370
    -3
  6
Continuous
100
AcDbCircle
 10
102.182442
 20
-158.657615
 30
0.0
 40
3.0
100
AcDbArc
 50
180.0
 51
270.0
  0
ARC
  5
249
100
AcDbEntity
  8
0
370
    -3
  6
Continuous
100
AcDbCircle
 10
102.182442
 20
-171.569191
 30
0.0
 40
3.0
100
AcDbArc
 50
90.0
 51
180.0
  0
LINE
  5
24A
100
AcDbEntity
  8
0
370
    -3
  6
Continuous
100
AcDbLine
 10
99.182442
 20
-74.288152
 30
0.0
 11
99.182442
 21
-116.472883
 31
0.0
  0
LINE
  5
24B
100
AcDbEntity
  8
0
370
    -3
  6
Continuous
100
AcDbLine
 10
102.182442
 20
-77.471617
 30
0.0
 11
107.182442
 21
-77.471617
 31
0.0
  0
LINE
  5
24C
100
AcDbEntity
  8
0
370
    -3
  6
Continuous
100
AcDbLine
 10
99.182442
 20
-60.972883
 30
0.0
 11
99.182442
 21
-61.376576
 31
0.0
  0
LINE
  5
24D
100
AcDbEntity
  8
0
370
    -3
  6
Continuous
100
AcDbLine
 10
99.182442
 20
-60.972883
 30
0.0
 11
99.182442
 21
-61.376576
 31
0.0
  0
LINE
  5
24E
100
AcDbEntity
  8
0
370
    -3
  6
Continuous
100
AcDbLine
 10
99.182442
 20
-60.972883
 30
0.0
 11
99.182442
 21
-59.972883
 31
0.0
  0
LINE
  5
24F
100
AcDbEntity
  8
0
370
    -3
  6
Continuous
100
AcDbLine
 10
99.182442
 20
-171.972883
 30
0.0
 11
99.182442
 21
-171.569191
 31
0.0
  0
LINE
  5
250
100
AcDbEntity
  8
0
370
    -3
  6
Continuous
100
AcDbLine
 10
99.182442
 20
-158.657615
 30
0.0
 11
99.182442
 21
-116.472883
 31
0.0
  0
LINE
  5
251
100
AcDbEntity
  8
0
370
    -3
  6
Continuous
100
AcDbLine
 10
102.182442
 20
-155.47415
 30
0.0
 11
107.182442
 21
-155.47415
 31
0.0
  0
LINE
  5
252
100
AcDbEntity
  8
0
370
    -3
  6
Continuous
100
AcDbLine
 10
99.182442
 20
-171.972883
 30
0.0
 11
99.182442
 21
-172.972883
 31
0.0
  0
LINE
  5
253
100
AcDbEntity
  8
0
370
    -3
  6
Continuous
100
AcDbLine
 10
102.182442
 20
-168.569191
 30
0.0
 11
107.182442
 21
-168.569191
 31
0.0
  0
LINE
  5
254
100
AcDbEntity
  8
0
370
    -3
  6
Continuous
100
AcDbLine
 10
102.182442
 20
-161.657615
 30
0.0
 11
107.182442
 21
-161.657615
 31
0.0
  0
LINE
  5
255
100
AcDbEntity
  8
0
370
    -3
  6
Continuous
100
AcDbLine
 10
102.182442
 20
-71.288152
 30
0.0
 11
107.182442
 21
-71.288152
 31
0.0
  0
LINE
  5
256
100
AcDbEntity
  8
0
370
    -3
  6
Continuous
100
AcDbLine
 10
102.182442
 20
-64.376576
 30
0.0
 11
107.182442
 21
-64.376576
 31
0.0
  0
LINE
  5
257
100
AcDbEntity
  8
0
370
    -3
  6
Continuous
100
AcDbLine
 10
92.182442
 20
-136.472883
 30
0.0
 11
99.182442
 21
-136.472883
 31
0.0
  0
LINE
  5
258
100
AcDbEntity
  8
0
370
    -3
  6
Continuous
100
AcDbLine
 10
92.182442
 20
-96.472883
 30
0.0
 11
99.182442
 21
-96.472883
 31
0.0
  0
CIRCLE
  5
259
100
AcDbEntity
  8
0
370
    -3
  6
Continuous
100
AcDbCircle
 10
154.682549
 20
-195.473351
 30
0.0
 40
5.5
  0
CIRCLE
  5
25A
100
AcDbEntity
  8
0
370
    -3
  6
Continuous
100
AcDbCircle
 10
154.682549
 20
-37.473351
 30
0.0
 40
5.5
  0
LINE
  5
25B
100
AcDbEntity
  8
0
370
    -3
  6
CENTER
100
AcDbLine
 10
149.286344
 20
-189.47304
 30
0.0
 11
122.682676
 21
-189.47304
 31
0.0
  0
LINE
  5
25C
100
AcDbEntity
  8
0
370
    -3
  6
CENTER
100
AcDbLine
 10
161.974394
 20
-195.473351
 30
0.0
 11
146.84904
 21
-195.473351
 31
0.0
  0
LINE
  5
25D
100
AcDbEntity
  8
0
370
    -3
  6
CENTER
100
AcDbLine
 10
161.536875
 20
-37.473351
 30
0.0
 11
147.317509
 21
-37.473351
 31
0.0
  0
LINE
  5
25E
100
AcDbEntity
  8
0
370
    -3
  6
CENTER
100
AcDbLine
 10
148.630065
 20
-43.47304
 30
0.0
 11
122.682676
 21
-43.47304
 31
0.0
  0
LINE
  5
25F
100
AcDbEntity
  8
0
370
    -3
  6
CENTER
100
AcDbLine
 10
154.682549
 20
-187.919379
 30
0.0
 11
154.682549
 21
-202.357505
 31
0.0
  0
LINE
  5
260
100
AcDbEntity
  8
0
370
    -3
  6
CENTER
100
AcDbLine
 10
136.682676
 20
-177.637684
 30
0.0
 11
136.682676
 21
-202.243074
 31
0.0
  0
LINE
  5
261
100
AcDbEntity
  8
0
370
    -3
  6
CENTER
100
AcDbLine
 10
154.682549
 20
-30.63131
 30
0.0
 11
154.682549
 21
-45.506955
 31
0.0
  0
LINE
  5
262
100
AcDbEntity
  8
0
370
    -3
  6
CENTER
100
AcDbLine
 10
136.682676
 20
-31.47304
 30
0.0
 11
136.682676
 21
-56.44493
 31
0.0
  0
LINE
  5
263
100
AcDbEntity
  8
0
370
    -3
  6
Continuous
100
AcDbLine
 10
133.682676
 20
-204.47304
 30
0.0
 11
298.682676
 21
-204.47304
 31
0.0
  0
LINE
  5
264
100
AcDbEntity
  8
0
370
    -3
  6
Continuous
100
AcDbLine
 10
298.682676
 20
-28.47304
 30
0.0
 11
133.682676
 21
-28.47304
 31
0.0
  0
LINE
  5
265
100
AcDbEntity
  8
0
370
    -3
  6
Continuous
100
AcDbLine
 10
121.682676
 20
-40.47304
 30
0.0
 11
121.682676
 21
-192.47304
 31
0.0
  0
LINE
  5
266
100
AcDbEntity
  8
0
370
    -3
  6
Continuous
100
AcDbLine
 10
92.182442
 20
-116.472883
 30
0.0
 11
92.182442
 21
-56.972883
 31
0.0
  0
LINE
  5
267
100
AcDbEntity
  8
0
370
    -3
  6
Continuous
100
AcDbLine
 10
92.182442
 20
-116.472883
 30
0.0
 11
92.182442
 21
-175.972883
 31
0.0
  0
LINE
  5
268
100
AcDbEntity
  8
0
370
    -3
  6
Continuous
100
AcDbLine
 10
92.182442
 20
-175.955428
 30
0.0
 11
118.735033
 21
-176.410178
 31
0.0
  0
LINE
  5
269
100
AcDbEntity
  8
0
370
    -3
  6
Continuous
100
AcDbLine
 10
121.372442
 20
-44.560819
 30
0.0
 11
121.372371
 21
-44.560819
 31
0.0
  0
LINE
  5
26A
100
AcDbEntity
  8
0
370
    -3
  6
Continuous
100
AcDbLine
 10
121.372442
 20
-44.559226
 30
0.0
 11
121.372371
 21
-44.559226
 31
0.0
  0
LINE
  5
26B
100
AcDbEntity
  8
0
370
    -3
  6
Continuous
100
AcDbLine
 10
92.182442
 20
-56.990339
 30
0.0
 11
118.735033
 21
-56.535589
 31
0.0
  0
ARC
  5
26C
100
AcDbEntity
  8
0
370
    -3
  6
Continuous
100
AcDbCircle
 10
118.682676
 20
-53.536046
 30
0.0
 40
3.0
100
AcDbArc
 50
271.0
 51
0.0
  0
ARC
  5
26D
100
AcDbEntity
  8
0
370
    -3
  6
Continuous
100
AcDbCircle
 10
118.682676
 20
-179.409721
 30
0.0
 40
3.0
100
AcDbArc
 50
0.0
 51
89.0
  0
LINE
  5
26E
100
AcDbEntity
  8
0
370
    -3
  6
CENTER
100
AcDbLine
 10
315.19337
 20
-100.47304
 30
0.0
 11
166.323365
 21
-100.47304
 31
0.0
  0
ARC
  5
26F
100
AcDbEntity
  8
0
370
    -3
  6
Continuous
100
AcDbCircle
 10
136.682676
 20
-189.47304
 30
0.0
 40
15.5
100
AcDbArc
 50
31.58598
 51
80.793104
  0
CIRCLE
  5
270
100
AcDbEntity
  8
0
370
    -3
  6
Continuous
100
AcDbCircle
 10
136.682676
 20
-43.47304
 30
0.0
 40
5.053
  0
CIRCLE
  5
271
100
AcDbEntity
  8
0
370
    -3
  6
Continuous
100
AcDbCircle
 10
136.682676
 20
-43.47304
 30
0.0
 40
6.0
  0
CIRCLE
  5
272
100
AcDbEntity
  8
0
370
    -3
  6
Continuous
100
AcDbCircle
 10
136.682676
 20
-189.47304
 30
0.0
 40
5.053
  0
CIRCLE
  5
273
100
AcDbEntity
  8
0
370
    -3
  6
Continuous
100
AcDbCircle
 10
136.682676
 20
-189.47304
 30
0.0
 40
6.0
  0
LINE
  5
274
100
AcDbEntity
  8
0
370
    -3
  6
Continuous
100
AcDbLine
 10
50.182442
 20
-91.972883
 30
0.0
 11
50.182442
 21
-39.472883
 31
0.0
  0
LINE
  5
275
100
AcDbEntity
  8
0
370
    -3
  6
Continuous
100
AcDbLine
 10
50.182442
 20
-91.972883
 30
0.0
 11
50.182442
 21
-144.472883
 31
0.0
  0
LINE
  5
276
100
AcDbEntity
  8
0
370
    -3
  6
Continuous
100
AcDbLine
 10
82.182442
 20
-82.414922
 30
0.0
 11
82.182442
 21
-60.610146
 31
0.0
  0
ARC
  5
277
100
AcDbEntity
  8
0
370
    -3
  6
Continuous
100
AcDbCircle
 10
84.182442
 20
-87.313901
 30
0.0
 40
2.0
100
AcDbArc
 50
101.536959
 51
180.0
  0
LINE
  5
278
100
AcDbEntity
  8
0
370
    -3
  6
Continuous
100
AcDbLine
 10
82.182442
 20
-171.601912
 30
0.0
 11
82.182442
 21
-87.313901
 31
0.0
  0
LINE
  5
279
100
AcDbEntity
  8
0
370
    -3
  6
Continuous
100
AcDbLine
 10
86.182442
 20
-82.414922
 30
0.0
 11
86.182442
 21
-59.765997
 31
0.0
  0
ARC
  5
27A
100
AcDbEntity
  8
0
370
    -3
  6
Continuous
100
AcDbCircle
 10
83.182442
 20
-82.414922
 30
0.0
 40
3.0
100
AcDbArc
 50
270.0
 51
0.0
  0
LINE
  5
27B
100
AcDbEntity
  8
0
370
    -3
  6
Continuous
100
AcDbLine
 10
83.182442
 20
-85.414922
 30
0.0
 11
68.182442
 21
-85.414922
 31
0.0
  0
ARC
  5
27C
100
AcDbEntity
  8
0
370
    -3
  6
Continuous
100
AcDbCircle
 10
79.182442
 20
-82.414922
 30
0.0
 40
3.0
100
AcDbArc
 50
270.0
 51
0.0
  0
ARC
  5
27D
100
AcDbEntity
  8
0
370
    -3
  6
Continuous
100
AcDbCircle
 10
68.182442
 20
-82.414922
 30
0.0
 40
3.0
100
AcDbArc
 50
180.0
 51
270.0
  0
LINE
  5
27E
100
AcDbEntity
  8
0
370
    -3
  6
Continuous
100
AcDbLine
 10
65.182442
 20
-82.414922
 30
0.0
 11
65.182442
 21
-80.01076
 31
0.0
  0
LINE
  5
27F
100
AcDbEntity
  8
0
370
    -3
  6
Continuous
100
AcDbLine
 10
79.182442
 20
-111.972883
 30
0.0
 11
50.182442
 21
-111.972883
 31
0.0
  0
LINE
  5
280
100
AcDbEntity
  8
0
370
    -3
  6
Continuous
100
AcDbLine
 10
64.182442
 20
-71.972883
 30
0.0
 11
50.182442
 21
-71.972883
 31
0.0
  0
LINE
  5
281
100
AcDbEntity
  8
0
370
    -3
  6
Continuous
100
AcDbLine
 10
82.182442
 20
-96.472883
 30
0.0
 11
92.182442
 21
-96.472883
 31
0.0
  0
LINE
  5
282
100
AcDbEntity
  8
0
370
    -3
  6
Continuous
100
AcDbLine
 10
82.182442
 20
-136.472883
 30
0.0
 11
92.182442
 21
-136.472883
 31
0.0
  0
ARC
  5
283
100
AcDbEntity
  8
0
370
    -3
  6
Continuous
100
AcDbCircle
 10
65.182442
 20
-78.27871
 30
0.0
 40
1.0
100
AcDbArc
 50
180.0
 51
240.0
  0
LINE
  5
284
100
AcDbEntity
  8
0
370
    -3
  6
Continuous
100
AcDbLine
 10
64.182442
 20
-78.27871
 30
0.0
 11
64.182442
 21
-56.773136
 31
0.0
  0
ARC
  5
285
100
AcDbEntity
  8
0
370
    -3
  6
Continuous
100
AcDbCircle
 10
64.182442
 20
-55.041085
 30
0.0
 40
1.0
100
AcDbArc
 50
300.0
 51
0.0
  0
LINE
  5
286
100
AcDbEntity
  8
0
370
    -3
  6
Continuous
100
AcDbLine
 10
65.182442
 20
-55.041085
 30
0.0
 11
65.182442
 21
-44.87752
 31
0.0
  0
ARC
  5
287
100
AcDbEntity
  8
0
370
    -3
  6
Continuous
100
AcDbCircle
 10
65.182442
 20
-56.773136
 30
0.0
 40
1.0
100
AcDbArc
 50
120.0
 51
180.0
  0
ARC
  5
288
100
AcDbEntity
  8
0
370
    -3
  6
Continuous
100
AcDbCircle
 10
70.182442
 20
-51.813051
 30
0.0
 40
5.0
100
AcDbArc
 50
180.0
 51
267.0
  0
ARC
  5
289
100
AcDbEntity
  8
0
370
    -3
  6
Continuous
100
AcDbCircle
 10
64.182442
 20
-80.01076
 30
0.0
 40
1.0
100
AcDbArc
 50
0.0
 51
60.0
  0
ARC
  5
28A
100
AcDbEntity
  8
0
370
    -3
  6
Continuous
100
AcDbCircle
 10
88.182442
 20
-59.765997
 30
0.0
 40
2.0
100
AcDbArc
 50
87.0
 51
180.0
  0
ARC
  5
28B
100
AcDbEntity
  8
0
370
    -3
  6
Continuous
100
AcDbCircle
 10
88.182442
 20
-172.760508
 30
0.0
 40
2.0
100
AcDbArc
 50
180.0
 51
267.0
  0
LINE
  5
28C
100
AcDbEntity
  8
0
370
    -3
  6
Continuous
100
AcDbLine
 10
86.182442
 20
-172.760508
 30
0.0
 11
86.182442
 21
-155.667057
 31
0.0
  0
ARC
  5
28D
100
AcDbEntity
  8
0
370
    -3
  6
Continuous
100
AcDbCircle
 10
84.182442
 20
-151.667057
 30
0.0
 40
2.0
100
AcDbArc
 50
180.0
 51
270.0
  0
ARC
  5
28E
100
AcDbEntity
  8
0
370
    -3
  6
Continuous
100
AcDbCircle
 10
84.182442
 20
-155.667057
 30
0.0
 40
2.0
100
AcDbArc
 50
0.0
 51
90.0
  0
ARC
  5
28F
100
AcDbEntity
  8
0
370
    -3
  6
Continuous
100
AcDbCircle
 10
85.182442
 20
-60.610146
 30
0.0
 40
3.0
100
AcDbArc
 50
87.0
 51
180.0
  0
LINE
  5
290
100
AcDbEntity
  8
0
370
    -3
  6
Continuous
100
AcDbLine
 10
92.182442
 20
-57.972883
 30
0.0
 11
69.920763
 21
-56.806198
 31
0.0
  0
ARC
  5
291
100
AcDbEntity
  8
0
370
    -3
  6
Continuous
100
AcDbCircle
 10
60.182458
 20
-44.87752
 30
0.0
 40
5.0
100
AcDbArc
 50
0.0
 51
88.0
  0
LINE
  5
292
100
AcDbEntity
  8
0
370
    -3
  6
Continuous
100
AcDbLine
 10
87.287141
 20
-40.768609
 30
0.0
 11
50.182427
 21
-39.472883
 31
0.0
  0
LINE
  5
293
100
AcDbEntity
  8
0
370
    -3
  6
Continuous
100
AcDbLine
 10
79.234815
 20
-144.988722
 30
0.0
 11
50.182458
 21
-144.481611
 31
0.0
  0
LINE
  5
294
100
AcDbEntity
  8
0
370
    -3
  6
CENTER
100
AcDbLine
 10
76.182442
 20
-61.540234
 30
0.0
 11
76.182442
 21
-37.077093
 31
0.0
  0
LINE
  5
295
100
AcDbEntity
  8
0
370
    -3
  6
Continuous
100
AcDbLine
 10
90.182442
 20
-55.972883
 30
0.0
 11
90.182442
 21
-43.766781
 31
0.0
  0
LINE
  5
296
100
AcDbEntity
  8
0
370
    -3
  6
Continuous
100
AcDbLine
 10
58.061248
 20
-145.651116
 30
0.0
 11
81.388878
 21
-173.451903
 31
0.0
  0
LINE
  5
297
100
AcDbEntity
  8
0
370
    -3
  6
Continuous
100
AcDbLine
 10
92.182442
 20
-174.972883
 30
0.0
 11
83.530003
 21
-174.519428
 31
0.0
  0
ARC
  5
298
100
AcDbEntity
  8
0
370
    -3
  6
Continuous
100
AcDbCircle
 10
92.182442
 20
-55.972883
 30
0.0
 40
2.0
100
AcDbArc
 50
180.0
 51
270.0
  0
ARC
  5
299
100
AcDbEntity
  8
0
370
    -3
  6
Continuous
100
AcDbCircle
 10
55.763115
 20
-147.579479
 30
0.0
 40
3.0
100
AcDbArc
 50
40.0
 51
89.0
  0
ARC
  5
29A
100
AcDbEntity
  8
0
370
    -3
  6
Continuous
100
AcDbCircle
 10
83.687011
 20
-171.52354
 30
0.0
 40
3.0
100
AcDbArc
 50
220.0
 51
267.0
  0
ARC
  5
29B
100
AcDbEntity
  8
0
370
    -3
  6
Continuous
100
AcDbCircle
 10
87.182442
 20
-43.766781
 30
0.0
 40
3.0
100
AcDbArc
 50
0.0
 51
88.0
  0
ARC
  5
29C
100
AcDbEntity
  8
0
370
    -3
  6
Continuous
100
AcDbCircle
 10
79.182442
 20
-147.988265
 30
0.0
 40
3.0
100
AcDbArc
 50
0.0
 51
89.0
  0
ARC
  5
29D
100
AcDbEntity
  8
0
370
    -3
  6
Continuous
100
AcDbCircle
 10
85.182442
 20
-171.601912
 30
0.0
 40
3.0
100
AcDbArc
 50
180.0
 51
267.0
  0
INSERT
  5
2AD
100
AcDbEntity
  8
0
100
AcDbBlockReference
  2
ZU_SYM__USERS_HOME_SYMBOL_STD_SYM_B01_00006-1
 10
86.182442
 20
-160.667057
 30
0.0
  0
INSERT
  5
2BD
100
AcDbEntity
  8
0
100
AcDbBlockReference
  2
ZU_SYM__USERS_HOME_SYMBOL_STD_SYM_B01_00007-1
 10
86.182442
 20
-72.27871
 30
0.0
  0
ARC
  5
2BE
100
AcDbEntity
  8
0
370
    -3
  6
Continuous
100
AcDbCircle
 10
79.182442
 20
-114.972883
 30
0.0
 40
3.0
100
AcDbArc
 50
0.0
 51
90.0
  0
LINE
  5
2BF
100
AcDbEntity
  8
0
370
    -3
  6
Continuous
100
AcDbLine
 10
50.182442
 20
-38.472883
 30
0.0
 11
50.182442
 21
-91.972883
 31
0.0
  0
LINE
  5
2C0
100
AcDbEntity
  8
0
370
    -3
  6
Continuous
100
AcDbLine
 10
50.182442
 20
-145.472883
 30
0.0
 11
50.182442
 21
-91.972883
 31
0.0
  0
LINE
  5
2C1
100
AcDbEntity
  8
0
370
    -3
  6
Continuous
100
AcDbLine
 10
92.182442
 20
-175.972883
 30
0.0
 11
92.182442
 21
-116.472883
 31
0.0
  0
LINE
  5
2C2
100
AcDbEntity
  8
0
370
    -3
  6
Continuous
100
AcDbLine
 10
92.182442
 20
-56.972883
 30
0.0
 11
92.182442
 21
-116.472883
 31
0.0
  0
LINE
  5
2C3
100
AcDbEntity
  8
0
370
    -3
  6
Continuous
100
AcDbLine
 10
92.182442
 20
-116.472883
 30
0.0
 11
92.182442
 21
-56.972883
 31
0.0
  0
LINE
  5
2C4
100
AcDbEntity
  8
0
370
    -3
  6
Continuous
100
AcDbLine
 10
92.182442
 20
-116.472883
 30
0.0
 11
92.182442
 21
-175.972883
 31
0.0
  0
LINE
  5
2C5
100
AcDbEntity
  8
0
370
    -3
  6
Continuous
100
AcDbLine
 10
50.182442
 20
-91.972883
 30
0.0
 11
50.182442
 21
-144.472883
 31
0.0
  0
LINE
  5
2C6
100
AcDbEntity
  8
0
370
    -3
  6
Continuous
100
AcDbLine
 10
50.182442
 20
-91.972883
 30
0.0
 11
50.182442
 21
-39.472883
 31
0.0
  0
LINE
  5
2C7
100
AcDbEntity
  8
0
370
    -3
  6
Continuous
100
AcDbLine
 10
50.182442
 20
-91.972883
 30
0.0
 11
50.182442
 21
-39.472883
 31
0.0
  0
LINE
  5
2C8
100
AcDbEntity
  8
0
370
    -3
  6
Continuous
100
AcDbLine
 10
50.182442
 20
-91.972883
 30
0.0
 11
50.182442
 21
-144.472883
 31
0.0
  0
LINE
  5
2C9
100
AcDbEntity
  8
0
370
    -3
  6
Continuous
100
AcDbLine
 10
50.182442
 20
-38.472883
 30
0.0
 11
50.182442
 21
-91.972883
 31
0.0
  0
LINE
  5
2CA
100
AcDbEntity
  8
0
370
    -3
  6
Continuous
100
AcDbLine
 10
50.182442
 20
-145.472883
 30
0.0
 11
50.182442
 21
-91.972883
 31
0.0
  0
LINE
  5
2CB
100
AcDbEntity
  8
0
370
    -3
  6
CENTER
100
AcDbLine
 10
74.002466
 20
-91.972883
 30
0.0
 11
-115.874644
 21
-91.972883
 31
0.0
  0
LINE
  5
2CC
100
AcDbEntity
  8
0
370
    -3
  6
CENTER
100
AcDbLine
 10
502.13926
 20
-189.472883
 30
0.0
 11
623.439623
 21
-189.472883
 31
0.0
  0
ARC
  5
2CD
100
AcDbEntity
  8
0
370
    -3
  6
Continuous
100
AcDbCircle
 10
443.482667
 20
-85.272883
 30
0.0
 40
0.8
100
AcDbArc
 50
90.0
 51
180.0
  0
ARC
  5
2CE
100
AcDbEntity
  8
0
370
    -3
  6
Continuous
100
AcDbCircle
 10
443.482667
 20
-115.672883
 30
0.0
 40
0.8
100
AcDbArc
 50
180.0
 51
270.0
  0
LINE
  5
2CF
100
AcDbEntity
  8
0
370
    -3
  6
Continuous
100
AcDbLine
 10
442.682667
 20
-81.472883
 30
0.0
 11
442.682667
 21
-115.672883
 31
0.0
  0
LINE
  5
2D0
100
AcDbEntity
  8
0
370
    -3
  6
Continuous
100
AcDbLine
 10
505.18231
 20
-204.03474
 30
0.0
 11
516.68286
 21
-204.235483
 31
0.0
  0
LINE
  5
2D1
100
AcDbEntity
  8
0
370
    -3
  6
Continuous
100
AcDbLine
 10
611.18286
 20
-202.585979
 30
0.0
 11
620.68286
 21
-202.585979
 31
0.0
  0
LINE
  5
2D2
100
AcDbEntity
  8
0
370
    -3
  6
Continuous
100
AcDbLine
 10
611.18286
 20
-29.902442
 30
0.0
 11
620.68286
 21
-29.902442
 31
0.0
  0
LINE
  5
2D3
100
AcDbEntity
  8
0
370
    -3
  6
Continuous
100
AcDbLine
 10
516.68286
 20
-28.252938
 30
0.0
 11
611.18286
 21
-29.902442
 31
0.0
  0
LINE
  5
2D4
100
AcDbEntity
  8
0
370
    -3
  6
Continuous
100
AcDbLine
 10
504.682462
 20
-28.462406
 30
0.0
 11
516.68286
 21
-28.252938
 31
0.0
  0
LINE
  5
2D5
100
AcDbEntity
  8
0
370
    -3
  6
Continuous
100
AcDbLine
 10
504.682462
 20
-203.526091
 30
0.0
 11
505.18231
 21
-204.03474
 31
0.0
  0
LINE
  5
2D6
100
AcDbEntity
  8
0
370
    -3
  6
Continuous
100
AcDbLine
 10
516.68286
 20
-204.23517
 30
0.0
 11
611.18286
 21
-202.585666
 31
0.0
  0
LINE
  5
2D7
100
AcDbEntity
  8
0
370
    -3
  6
Continuous
100
AcDbLine
 10
499.682462
 20
-52.972883
 30
0.0
 11
504.68286
 21
-52.972883
 31
0.0
  0
LINE
  5
2D8
100
AcDbEntity
  8
0
370
    -3
  6
Continuous
100
AcDbLine
 10
499.682462
 20
-147.972883
 30
0.0
 11
504.68286
 21
-147.972883
 31
0.0
  0
LINE
  5
2D9
100
AcDbEntity
  8
0
370
    -3
  6
Continuous
100
AcDbLine
 10
625.68286
 20
-147.972883
 30
0.0
 11
620.68286
 21
-147.972883
 31
0.0
  0
LINE
  5
2DA
100
AcDbEntity
  8
0
370
    -3
  6
Continuous
100
AcDbLine
 10
625.68286
 20
-52.972883
 30
0.0
 11
620.68286
 21
-52.972883
 31
0.0
  0
LINE
  5
2DB
100
AcDbEntity
  8
0
370
    -3
  6
CENTER
100
AcDbLine
 10
632.161668
 20
-100.472883
 30
0.0
 11
437.982265
 21
-100.472883
 31
0.0
  0
LINE
  5
2DC
100
AcDbEntity
  8
0
370
    -3
  6
CENTER
100
AcDbLine
 10
562.68286
 20
5.26239
 30
0.0
 11
562.68286
 21
-206.664759
 31
0.0
  0
LINE
  5
2DD
100
AcDbEntity
  8
0
370
    -3
  6
Continuous
100
AcDbLine
 10
504.682462
 20
-116.244054
 30
0.0
 11
504.682462
 21
-28.462406
 31
0.0
  0
LINE
  5
2DE
100
AcDbEntity
  8
0
370
    -3
  6
Continuous
100
AcDbLine
 10
499.682462
 20
-100.244211
 30
0.0
 11
499.682462
 21
-52.972883
 31
0.0
  0
LINE
  5
2DF
100
AcDbEntity
  8
0
370
    -3
  6
Continuous
100
AcDbLine
 10
499.682462
 20
-100.244211
 30
0.0
 11
499.682462
 21
-147.972883
 31
0.0
  0
LINE
  5
2E0
100
AcDbEntity
  8
0
370
    -3
  6
Continuous
100
AcDbLine
 10
504.682462
 20
-116.244054
 30
0.0
 11
504.682462
 21
-203.526091
 31
0.0
  0
LINE
  5
2E1
100
AcDbEntity
  8
0
370
    -3
  6
Continuous
100
AcDbLine
 10
516.68286
 20
-28.252938
 30
0.0
 11
516.68286
 21
-116.244054
 31
0.0
  0
LINE
  5
2E2
100
AcDbEntity
  8
0
370
    -3
  6
Continuous
100
AcDbLine
 10
620.68286
 20
-29.902442
 30
0.0
 11
620.68286
 21
-116.244054
 31
0.0
  0
LINE
  5
2E3
100
AcDbEntity
  8
0
370
    -3
  6
Continuous
100
AcDbLine
 10
625.68286
 20
-52.972883
 30
0.0
 11
625.68286
 21
-147.972883
 31
0.0
  0
LINE
  5
2E4
100
AcDbEntity
  8
0
370
    -3
  6
Continuous
100
AcDbLine
 10
620.68286
 20
-116.244054
 30
0.0
 11
620.68286
 21
-202.585979
 31
0.0
  0
LINE
  5
2E5
100
AcDbEntity
  8
0
370
    -3
  6
Continuous
100
AcDbLine
 10
516.68286
 20
-116.244054
 30
0.0
 11
516.68286
 21
-204.235483
 31
0.0
  0
ARC
  5
2E6
100
AcDbEntity
  8
0
370
    -3
  6
Continuous
100
AcDbCircle
 10
322.08286
 20
-116.244054
 30
0.0
 40
300.6
100
AcDbArc
 50
353.386989
 51
353.941049
  0
ARC
  5
2E7
100
AcDbEntity
  8
0
370
    -3
  6
Continuous
100
AcDbCircle
 10
803.28286
 20
-116.244054
 30
0.0
 40
300.6
100
AcDbArc
 50
186.058951
 51
186.612353
  0
LINE
  5
2E8
100
AcDbEntity
  8
0
370
    -3
  6
Continuous
100
AcDbLine
 10
497.282599
 20
-116.472883
 30
0.0
 11
443.482667
 21
-116.472883
 31
0.0
  0
LINE
  5
2E9
100
AcDbEntity
  8
0
370
    -3
  6
Continuous
100
AcDbLine
 10
497.282599
 20
-84.472883
 30
0.0
 11
443.482667
 21
-84.472883
 31
0.0
  0
LINE
  5
2EA
100
AcDbEntity
  8
0
370
    -3
  6
Continuous
100
AcDbLine
 10
482.682667
 20
-81.472883
 30
0.0
 11
442.682667
 21
-81.472883
 31
0.0
  0
LINE
  5
2EB
100
AcDbEntity
  8
0
370
    -3
  6
Continuous
100
AcDbLine
 10
482.682667
 20
-81.472883
 30
0.0
 11
482.682667
 21
-84.472883
 31
0.0
  0
LINE
  5
2EC
100
AcDbEntity
  8
0
370
    -3
  6
Continuous
100
AcDbLine
 10
497.682599
 20
-83.872883
 30
0.0
 11
497.682599
 21
-117.072883
 31
0.0
  0
ARC
  5
2ED
100
AcDbEntity
  8
0
370
    -3
  6
Continuous
100
AcDbCircle
 10
497.282599
 20
-116.872883
 30
0.0
 40
0.4
100
AcDbArc
 50
0.0
 51
90.0
  0
ARC
  5
2EE
100
AcDbEntity
  8
0
370
    -3
  6
Continuous
100
AcDbCircle
 10
498.082599
 20
-117.072883
 30
0.0
 40
0.4
100
AcDbArc
 50
180.0
 51
270.0
  0
LINE
  5
2EF
100
AcDbEntity
  8
0
370
    -3
  6
Continuous
100
AcDbLine
 10
499.682462
 20
-117.472883
 30
0.0
 11
498.082599
 21
-117.472883
 31
0.0
  0
ARC
  5
2F0
100
AcDbEntity
  8
0
370
    -3
  6
Continuous
100
AcDbCircle
 10
497.282599
 20
-84.072883
 30
0.0
 40
0.4
100
AcDbArc
 50
270.0
 51
0.0
  0
ARC
  5
2F1
100
AcDbEntity
  8
0
370
    -3
  6
Continuous
100
AcDbCircle
 10
498.082599
 20
-83.872883
 30
0.0
 40
0.4
100
AcDbArc
 50
90.0
 51
180.0
  0
LINE
  5
2F2
100
AcDbEntity
  8
0
370
    -3
  6
Continuous
100
AcDbLine
 10
499.682462
 20
-83.472883
 30
0.0
 11
498.082599
 21
-83.472883
 31
0.0
  0
LINE
  5
2F3
100
AcDbEntity
  8
0
370
    -3
  6
CENTER
100
AcDbLine
 10
502.13926
 20
-43.472883
 30
0.0
 11
623.439623
 21
-43.472883
 31
0.0
  0
LINE
  5
2F4
100
AcDbEntity
  8
0
370
    -3
  6
CENTER
100
AcDbLine
 10
581.124947
 20
-91.972883
 30
0.0
 11
543.052793
 21
-91.972883
 31
0.0
  0
LINE
  5
2F5
100
AcDbEntity
  8
0
370
    -3
  6
DASHED
100
AcDbLine
 10
518.082253
 20
-45.215294
 30
0.0
 11
515.903507
 21
-47.39404
 31
0.0
  0
ARC
  5
2F6
100
AcDbEntity
  8
0
370
    -3
  6
DASHED
100
AcDbCircle
 10
530.469907
 20
-61.96044
 30
0.0
 40
20.6
100
AcDbArc
 50
135.0
 51
175.470055
  0
ARC
  5
2F7
100
AcDbEntity
  8
0
370
    -3
  6
DASHED
100
AcDbCircle
 10
546.790788
 20
-73.923829
 30
0.0
 40
40.6
100
AcDbArc
 50
92.530124
 51
135.0
  0
LINE
  5
2F8
100
AcDbEntity
  8
0
370
    -3
  6
DASHED
100
AcDbLine
 10
607.283466
 20
-138.730473
 30
0.0
 11
609.462212
 21
-136.551727
 31
0.0
  0
ARC
  5
2F9
100
AcDbEntity
  8
0
370
    -3
  6
DASHED
100
AcDbCircle
 10
578.574931
 20
-110.021938
 30
0.0
 40
40.6
100
AcDbArc
 50
272.530124
 51
315.0
  0
ARC
  5
2FA
100
AcDbEntity
  8
0
370
    -3
  6
DASHED
100
AcDbCircle
 10
594.895812
 20
-121.985327
 30
0.0
 40
20.6
100
AcDbArc
 50
315.0
 51
355.470055
  0
LINE
  5
2FB
100
AcDbEntity
  8
0
370
    -3
  6
DASHED
100
AcDbLine
 10
607.283466
 20
-45.215294
 30
0.0
 11
609.462212
 21
-47.39404
 31
0.0
  0
ARC
  5
2FC
100
AcDbEntity
  8
0
370
    -3
  6
DASHED
100
AcDbCircle
 10
594.895812
 20
-61.96044
 30
0.0
 40
20.6
100
AcDbArc
 50
4.529945
 51
45.0
  0
ARC
  5
2FD
100
AcDbEntity
  8
0
370
    -3
  6
DASHED
100
AcDbCircle
 10
578.574931
 20
-73.923829
 30
0.0
 40
40.6
100
AcDbArc
 50
45.0
 51
87.469876
  0
ARC
  5
2FE
100
AcDbEntity
  8
0
370
    -3
  6
DASHED
100
AcDbCircle
 10
562.68286
 20
-433.572883
 30
0.0
 40
400.6
100
AcDbArc
 50
87.470639
 51
90.0
  0
ARC
  5
2FF
100
AcDbEntity
  8
0
370
    -3
  6
DASHED
100
AcDbCircle
 10
562.68286
 20
-433.572883
 30
0.0
 40
400.6
100
AcDbArc
 50
90.0
 51
92.529361
  0
ARC
  5
300
100
AcDbEntity
  8
0
370
    -3
  6
DASHED
100
AcDbCircle
 10
216.08286
 20
-91.972883
 30
0.0
 40
400.6
100
AcDbArc
 50
0.0
 51
4.529193
  0
ARC
  5
301
100
AcDbEntity
  8
0
370
    -3
  6
DASHED
100
AcDbCircle
 10
216.08286
 20
-91.972883
 30
0.0
 40
400.6
100
AcDbArc
 50
355.470807
 51
0.0
  0
ARC
  5
302
100
AcDbEntity
  8
0
370
    -3
  6
DASHED
100
AcDbCircle
 10
562.68286
 20
249.627117
 30
0.0
 40
400.6
100
AcDbArc
 50
267.470639
 51
270.0
  0
ARC
  5
303
100
AcDbEntity
  8
0
370
    -3
  6
DASHED
100
AcDbCircle
 10
562.68286
 20
249.627117
 30
0.0
 40
400.6
100
AcDbArc
 50
270.0
 51
272.529361
  0
ARC
  5
304
100
AcDbEntity
  8
0
370
    -3
  6
DASHED
100
AcDbCircle
 10
530.469907
 20
-121.985327
 30
0.0
 40
20.6
100
AcDbArc
 50
184.529945
 51
225.0
  0
ARC
  5
305
100
AcDbEntity
  8
0
370
    -3
  6
DASHED
100
AcDbCircle
 10
546.790788
 20
-110.021938
 30
0.0
 40
40.6
100
AcDbArc
 50
225.0
 51
267.469876
  0
LINE
  5
306
100
AcDbEntity
  8
0
370
    -3
  6
DASHED
100
AcDbLine
 10
518.082253
 20
-138.730473
 30
0.0
 11
515.903507
 21
-136.551727
 31
0.0
  0
ARC
  5
307
100
AcDbEntity
  8
0
370
    -3
  6
DASHED
100
AcDbCircle
 10
909.28286
 20
-91.972883
 30
0.0
 40
400.6
100
AcDbArc
 50
180.0
 51
184.529193
  0
ARC
  5
308
100
AcDbEntity
  8
0
370
    -3
  6
DASHED
100
AcDbCircle
 10
909.28286
 20
-91.972883
 30
0.0
 40
400.6
100
AcDbArc
 50
175.470807
 51
180.0
  0
LINE
  5
309
100
AcDbEntity
  8
0
370
    -3
  6
Continuous
100
AcDbLine
 10
50.182442
 20
136.673447
 30
0.0
 11
50.182442
 21
142.373447
 31
0.0
  0
LINE
  5
30A
100
AcDbEntity
  8
0
370
    -3
  6
Continuous
100
AcDbLine
 10
50.182442
 20
241.673447
 30
0.0
 11
50.182442
 21
235.921055
 31
0.0
  0
CIRCLE
  5
30B
100
AcDbEntity
  8
0
370
    -3
  6
Continuous
100
AcDbCircle
 10
238.682676
 20
-100.47304
 30
0.0
 40
31.0
  0
ARC
  5
30C
100
AcDbEntity
  8
0
370
    -3
  6
Continuous
100
AcDbCircle
 10
-606.417741
 20
-91.97304
 30
0.0
 40
400.6
100
AcDbArc
 50
355.470807
 51
0.0
  0
ARC
  5
30D
100
AcDbEntity
  8
0
370
    -3
  6
Continuous
100
AcDbCircle
 10
-312.6213
 20
-84.27871
 30
0.0
 40
3.0
100
AcDbArc
 50
110.666478
 51
170.0
  0
LINE
  5
30E
100
AcDbEntity
  8
0
370
    -3
  6
Continuous
100
AcDbLine
 10
-317.6773
 20
-95.676402
 30
0.0
 11
-314.9014
 21
-79.933491
 31
0.0
  0
ARC
  5
30F
100
AcDbEntity
  8
0
370
    -3
  6
Continuous
100
AcDbCircle
 10
-300.129284
 20
-82.538214
 30
0.0
 40
15.0
100
AcDbArc
 50
152.943947
 51
170.0
  0
LINE
  5
310
100
AcDbEntity
  8
0
370
    -3
  6
Continuous
100
AcDbLine
 10
-273.150033
 20
-174.972883
 30
0.0
 11
-275.465192
 21
-174.972883
 31
0.0
  0
LINE
  5
311
100
AcDbEntity
  8
0
370
    -3
  6
Continuous
100
AcDbLine
 10
-246.48545
 20
-174.972883
 30
0.0
 11
-244.170291
 21
-174.972883
 31
0.0
  0
ARC
  5
312
100
AcDbEntity
  8
0
370
    -3
  6
Continuous
100
AcDbCircle
 10
-259.817741
 20
-116.472883
 30
0.0
 40
60.0
100
AcDbArc
 50
257.161432
 51
282.838568
  0
ARC
  5
313
100
AcDbEntity
  8
0
370
    -3
  6
Continuous
100
AcDbCircle
 10
-206.979945
 20
-84.472883
 30
0.0
 40
3.0
100
AcDbArc
 50
10.0
 51
69.933998
  0
ARC
  5
314
100
AcDbEntity
  8
0
370
    -3
  6
Continuous
100
AcDbCircle
 10
-275.317741
 20
-170.972883
 30
0.0
 40
3.0
100
AcDbArc
 50
180.0
 51
270.0
  0
ARC
  5
315
100
AcDbEntity
  8
0
370
    -3
  6
Continuous
100
AcDbCircle
 10
-244.317741
 20
-170.972883
 30
0.0
 40
3.0
100
AcDbArc
 50
270.0
 51
0.0
  0
ARC
  5
316
100
AcDbEntity
  8
0
370
    -3
  6
Continuous
100
AcDbCircle
 10
-287.317741
 20
-171.202332
 30
0.0
 40
5.0
100
AcDbArc
 50
0.0
 51
63.321766
  0
ARC
  5
317
100
AcDbEntity
  8
0
370
    -3
  6
Continuous
100
AcDbCircle
 10
-259.817741
 20
-116.472883
 30
0.0
 40
56.25
100
AcDbArc
 50
220.772805
 51
243.321766
  0
ARC
  5
318
100
AcDbEntity
  8
0
370
    -3
  6
Continuous
100
AcDbCircle
 10
-306.20268
 20
-156.472883
 30
0.0
 40
5.0
100
AcDbArc
 50
40.772805
 51
90.0
  0
LINE
  5
319
100
AcDbEntity
  8
0
370
    -3
  6
Continuous
100
AcDbLine
 10
-310.977338
 20
-151.472883
 30
0.0
 11
-306.20268
 21
-151.472883
 31
0.0
  0
ARC
  5
31A
100
AcDbEntity
  8
0
370
    -3
  6
Continuous
100
AcDbCircle
 10
-310.977338
 20
-146.472883
 30
0.0
 40
5.0
100
AcDbArc
 50
190.0
 51
270.0
  0
ARC
  5
31B
100
AcDbEntity
  8
0
370
    -3
  6
Continuous
100
AcDbCircle
 10
-232.317741
 20
-171.202332
 30
0.0
 40
5.0
100
AcDbArc
 50
116.678234
 51
180.0
  0
ARC
  5
31C
100
AcDbEntity
  8
0
370
    -3
  6
Continuous
100
AcDbCircle
 10
-259.817741
 20
-116.472883
 30
0.0
 40
56.25
100
AcDbArc
 50
296.678234
 51
319.227195
  0
ARC
  5
31D
100
AcDbEntity
  8
0
370
    -3
  6
Continuous
100
AcDbCircle
 10
-213.432803
 20
-156.472883
 30
0.0
 40
5.0
100
AcDbArc
 50
90.0
 51
139.227195
  0
LINE
  5
31E
100
AcDbEntity
  8
0
370
    -3
  6
Continuous
100
AcDbLine
 10
-208.658144
 20
-151.472883
 30
0.0
 11
-213.432803
 21
-151.472883
 31
0.0
  0
ARC
  5
31F
100
AcDbEntity
  8
0
370
    -3
  6
Continuous
100
AcDbCircle
 10
-208.658144
 20
-146.472883
 30
0.0
 40
5.0
100
AcDbArc
 50
270.0
 51
350.0
  0
LINE
  5
320
100
AcDbEntity
  8
0
370
    -3
  6
Continuous
100
AcDbLine
 10
-282.317741
 20
-150.080586
 30
0.0
 11
-282.317741
 21
-173.972883
 31
0.0
  0
LINE
  5
321
100
AcDbEntity
  8
0
370
    -3
  6
Continuous
100
AcDbLine
 10
-237.317741
 20
-150.080586
 30
0.0
 11
-237.317741
 21
-173.972883
 31
0.0
  0
LINE
  5
322
100
AcDbEntity
  8
0
370
    -3
  6
Continuous
100
AcDbLine
 10
-278.317741
 20
-150.545484
 30
0.0
 11
-278.317741
 21
-170.972883
 31
0.0
  0
LINE
  5
323
100
AcDbEntity
  8
0
370
    -3
  6
Continuous
100
AcDbLine
 10
-241.317741
 20
-150.538091
 30
0.0
 11
-241.317741
 21
-170.972883
 31
0.0
  0
ARC
  5
324
100
AcDbEntity
  8
0
370
    -3
  6
Continuous
100
AcDbCircle
 10
-318.662108
 20
-95.502754
 30
0.0
 40
1.0
100
AcDbArc
 50
279.914783
 51
350.0
  0
ARC
  5
325
100
AcDbEntity
  8
0
370
    -3
  6
Continuous
100
AcDbCircle
 10
-318.317741
 20
-97.472883
 30
0.0
 40
1.0
100
AcDbArc
 50
99.914783
 51
180.0
  0
LINE
  5
326
100
AcDbEntity
  8
0
370
    -3
  6
Continuous
100
AcDbLine
 10
-319.317741
 20
-116.472883
 30
0.0
 11
-319.317741
 21
-97.472883
 31
0.0
  0
ARC
  5
327
100
AcDbEntity
  8
0
370
    -3
  6
Continuous
100
AcDbCircle
 10
-318.662108
 20
-137.443013
 30
0.0
 40
1.0
100
AcDbArc
 50
10.0
 51
80.085217
  0
ARC
  5
328
100
AcDbEntity
  8
0
370
    -3
  6
Continuous
100
AcDbCircle
 10
-318.317741
 20
-135.472883
 30
0.0
 40
1.0
100
AcDbArc
 50
180.0
 51
260.085217
  0
LINE
  5
329
100
AcDbEntity
  8
0
370
    -3
  6
Continuous
100
AcDbLine
 10
-317.6773
 20
-137.269365
 30
0.0
 11
-314.9014
 21
-153.012276
 31
0.0
  0
LINE
  5
32A
100
AcDbEntity
  8
0
370
    -3
  6
Continuous
100
AcDbLine
 10
-319.317741
 20
-116.472883
 30
0.0
 11
-319.317741
 21
-135.472883
 31
0.0
  0
ARC
  5
32B
100
AcDbEntity
  8
0
370
    -3
  6
Continuous
100
AcDbCircle
 10
-300.129284
 20
-150.407553
 30
0.0
 40
15.0
100
AcDbArc
 50
190.0
 51
225.0
  0
LINE
  5
32C
100
AcDbEntity
  8
0
370
    -3
  6
Continuous
100
AcDbLine
 10
-310.735886
 20
-161.014155
 30
0.0
 11
-304.525835
 21
-167.224205
 31
0.0
  0
ARC
  5
32D
100
AcDbEntity
  8
0
370
    -3
  6
Continuous
100
AcDbCircle
 10
-293.919234
 20
-156.617603
 30
0.0
 40
15.0
100
AcDbArc
 50
225.0
 51
259.695154
  0
LINE
  5
32E
100
AcDbEntity
  8
0
370
    -3
  6
Continuous
100
AcDbLine
 10
-296.602515
 20
-171.375652
 30
0.0
 11
-278.148474
 21
-174.730932
 31
0.0
  0
ARC
  5
32F
100
AcDbEntity
  8
0
370
    -3
  6
Continuous
100
AcDbCircle
 10
-275.465192
 20
-159.972883
 30
0.0
 40
15.0
100
AcDbArc
 50
259.695154
 51
270.0
  0
ARC
  5
330
100
AcDbEntity
  8
0
370
    -3
  6
Continuous
100
AcDbCircle
 10
-200.973375
 20
-137.443013
 30
0.0
 40
1.0
100
AcDbArc
 50
99.914783
 51
170.0
  0
ARC
  5
331
100
AcDbEntity
  8
0
370
    -3
  6
Continuous
100
AcDbCircle
 10
-201.317741
 20
-135.472883
 30
0.0
 40
1.0
100
AcDbArc
 50
279.914783
 51
0.0
  0
LINE
  5
332
100
AcDbEntity
  8
0
370
    -3
  6
Continuous
100
AcDbLine
 10
-201.958183
 20
-137.269365
 30
0.0
 11
-204.734082
 21
-153.012276
 31
0.0
  0
LINE
  5
333
100
AcDbEntity
  8
0
370
    -3
  6
Continuous
100
AcDbLine
 10
-200.317741
 20
-116.472883
 30
0.0
 11
-200.317741
 21
-135.472883
 31
0.0
  0
ARC
  5
334
100
AcDbEntity
  8
0
370
    -3
  6
Continuous
100
AcDbCircle
 10
-219.506199
 20
-150.407553
 30
0.0
 40
15.0
100
AcDbArc
 50
315.0
 51
350.0
  0
LINE
  5
335
100
AcDbEntity
  8
0
370
    -3
  6
Continuous
100
AcDbLine
 10
-208.899597
 20
-161.014155
 30
0.0
 11
-215.109647
 21
-167.224205
 31
0.0
  0
ARC
  5
336
100
AcDbEntity
  8
0
370
    -3
  6
Continuous
100
AcDbCircle
 10
-225.716249
 20
-156.617603
 30
0.0
 40
15.0
100
AcDbArc
 50
280.304846
 51
315.0
  0
LINE
  5
337
100
AcDbEntity
  8
0
370
    -3
  6
Continuous
100
AcDbLine
 10
-223.032967
 20
-171.375652
 30
0.0
 11
-241.487009
 21
-174.730932
 31
0.0
  0
ARC
  5
338
100
AcDbEntity
  8
0
370
    -3
  6
Continuous
100
AcDbCircle
 10
-244.170291
 20
-159.972883
 30
0.0
 40
15.0
100
AcDbArc
 50
270.0
 51
280.304846
  0
ARC
  5
339
100
AcDbEntity
  8
0
370
    -3
  6
Continuous
100
AcDbCircle
 10
-200.973375
 20
-95.502754
 30
0.0
 40
1.0
100
AcDbArc
 50
190.0
 51
260.085217
  0
ARC
  5
33A
100
AcDbEntity
  8
0
370
    -3
  6
Continuous
100
AcDbCircle
 10
-201.317741
 20
-97.472883
 30
0.0
 40
1.0
100
AcDbArc
 50
0.0
 51
80.085217
  0
LINE
  5
33B
100
AcDbEntity
  8
0
370
    -3
  6
Continuous
100
AcDbLine
 10
-201.958183
 20
-95.676402
 30
0.0
 11
-204.734082
 21
-79.933491
 31
0.0
  0
LINE
  5
33C
100
AcDbEntity
  8
0
370
    -3
  6
Continuous
100
AcDbLine
 10
-200.317741
 20
-116.472883
 30
0.0
 11
-200.317741
 21
-97.472883
 31
0.0
  0
ARC
  5
33D
100
AcDbEntity
  8
0
370
    -3
  6
Continuous
100
AcDbCircle
 10
-219.506199
 20
-82.538214
 30
0.0
 40
15.0
100
AcDbArc
 50
10.0
 51
27.056053
  0
ARC
  5
33E
100
AcDbEntity
  8
0
370
    -3
  6
Continuous
100
AcDbCircle
 10
-259.817741
 20
-433.57304
 30
0.0
 40
400.6
100
AcDbArc
 50
90.0
 51
92.529361
  0
ARC
  5
33F
100
AcDbEntity
  8
0
370
    -3
  6
Continuous
100
AcDbCircle
 10
-259.817741
 20
-433.57304
 30
0.0
 40
400.6
100
AcDbArc
 50
87.470639
 51
90.0
  0
LINE
  5
340
100
AcDbEntity
  8
0
370
    -3
  6
Continuous
100
AcDbLine
 10
-247.336986
 20
-118.590342
 30
0.0
 11
-248.848879
 21
-115.971666
 31
0.0
  0
ARC
  5
341
100
AcDbEntity
  8
0
370
    -3
  6
Continuous
100
AcDbCircle
 10
-248.203012
 20
-119.090342
 30
0.0
 40
1.0
100
AcDbArc
 50
293.186146
 51
30.0
  0
ARC
  5
342
100
AcDbEntity
  8
0
370
    -3
  6
Continuous
100
AcDbCircle
 10
-259.817741
 20
-91.97304
 30
0.0
 40
39.0
100
AcDbArc
 50
305.284733
 51
354.715267
  0
ARC
  5
343
100
AcDbEntity
  8
0
370
    -3
  6
Continuous
100
AcDbCircle
 10
-259.817741
 20
-91.97304
 30
0.0
 40
34.0
100
AcDbArc
 50
305.73917
 51
354.26083
  0
ARC
  5
344
100
AcDbEntity
  8
0
370
    -3
  6
Continuous
100
AcDbCircle
 10
-259.817741
 20
-91.97304
 30
0.0
 40
25.5
100
AcDbArc
 50
307.589542
 51
352.410458
  0
ARC
  5
345
100
AcDbEntity
  8
0
370
    -3
  6
Continuous
100
AcDbCircle
 10
-259.817741
 20
-91.97304
 30
0.0
 40
30.5
100
AcDbArc
 50
306.813854
 51
353.186146
  0
ARC
  5
346
100
AcDbEntity
  8
0
370
    -3
  6
Continuous
100
AcDbCircle
 10
-259.817741
 20
-91.97304
 30
0.0
 40
22.0
100
AcDbArc
 50
309.594068
 51
350.405932
  0
ARC
  5
347
100
AcDbEntity
  8
0
370
    -3
  6
Continuous
100
AcDbCircle
 10
-259.817741
 20
-91.97304
 30
0.0
 40
17.0
100
AcDbArc
 50
311.212271
 51
348.787729
  0
ARC
  5
348
100
AcDbEntity
  8
0
370
    -3
  6
Continuous
100
AcDbCircle
 10
-259.817741
 20
-91.97304
 30
0.0
 40
13.5
100
AcDbArc
 50
316.260205
 51
343.739795
  0
ARC
  5
349
100
AcDbEntity
  8
0
370
    -3
  6
Continuous
100
AcDbCircle
 10
-247.817741
 20
-95.47304
 30
0.0
 40
1.0
100
AcDbArc
 50
343.739795
 51
90.0
  0
LINE
  5
34A
100
AcDbEntity
  8
0
370
    -3
  6
Continuous
100
AcDbLine
 10
-247.817741
 20
-94.47304
 30
0.0
 11
-250.98598
 21
-94.47304
 31
0.0
  0
ARC
  5
34B
100
AcDbEntity
  8
0
370
    -3
  6
Continuous
100
AcDbCircle
 10
-250.786652
 20
-100.615345
 30
0.0
 40
1.0
100
AcDbArc
 50
210.0
 51
316.260205
  0
ARC
  5
34C
100
AcDbEntity
  8
0
370
    -3
  6
Continuous
100
AcDbCircle
 10
-259.817741
 20
-91.97304
 30
0.0
 40
8.5
100
AcDbArc
 50
321.618272
 51
338.381728
  0
ARC
  5
34D
100
AcDbEntity
  8
0
370
    -3
  6
Continuous
100
AcDbCircle
 10
-250.98598
 20
-95.47304
 30
0.0
 40
1.0
100
AcDbArc
 50
90.0
 51
158.381728
  0
ARC
  5
34E
100
AcDbEntity
  8
0
370
    -3
  6
Continuous
100
AcDbCircle
 10
-246.433513
 20
-108.155204
 30
0.0
 40
1.0
100
AcDbArc
 50
210.0
 51
309.594068
  0
LINE
  5
34F
100
AcDbEntity
  8
0
370
    -3
  6
Continuous
100
AcDbLine
 10
-247.299538
 20
-108.655204
 30
0.0
 11
-248.824456
 21
-106.013969
 31
0.0
  0
ARC
  5
350
100
AcDbEntity
  8
0
370
    -3
  6
Continuous
100
AcDbCircle
 10
-247.958431
 20
-105.513969
 30
0.0
 40
1.0
100
AcDbArc
 50
131.212271
 51
210.0
  0
LINE
  5
351
100
AcDbEntity
  8
0
370
    -3
  6
Continuous
100
AcDbLine
 10
-251.652678
 20
-101.115345
 30
0.0
 11
-253.236797
 21
-98.371569
 31
0.0
  0
ARC
  5
352
100
AcDbEntity
  8
0
370
    -3
  6
Continuous
100
AcDbCircle
 10
-252.370772
 20
-97.871569
 30
0.0
 40
1.0
100
AcDbArc
 50
141.618272
 51
210.0
  0
ARC
  5
353
100
AcDbEntity
  8
0
370
    -3
  6
Continuous
100
AcDbCircle
 10
-239.374372
 20
-120.381994
 30
0.0
 40
1.0
100
AcDbArc
 50
125.73917
 51
210.0
  0
LINE
  5
354
100
AcDbEntity
  8
0
370
    -3
  6
Continuous
100
AcDbLine
 10
-238.733442
 20
-123.492118
 30
0.0
 11
-240.240398
 21
-120.881994
 31
0.0
  0
ARC
  5
355
100
AcDbEntity
  8
0
370
    -3
  6
Continuous
100
AcDbCircle
 10
-237.867416
 20
-122.992118
 30
0.0
 40
1.0
100
AcDbArc
 50
210.0
 51
305.284733
  0
ARC
  5
356
100
AcDbEntity
  8
0
370
    -3
  6
Continuous
100
AcDbCircle
 10
-243.652727
 20
-112.971666
 30
0.0
 40
1.0
100
AcDbArc
 50
127.589542
 51
210.0
  0
LINE
  5
357
100
AcDbEntity
  8
0
370
    -3
  6
Continuous
100
AcDbLine
 10
-243.006859
 20
-116.090342
 30
0.0
 11
-244.518752
 21
-113.471666
 31
0.0
  0
ARC
  5
358
100
AcDbEntity
  8
0
370
    -3
  6
Continuous
100
AcDbCircle
 10
-242.140834
 20
-115.590342
 30
0.0
 40
1.0
100
AcDbArc
 50
210.0
 51
306.813854
  0
ARC
  5
359
100
AcDbEntity
  8
0
370
    -3
  6
Continuous
100
AcDbCircle
 10
-221.979269
 20
-95.47304
 30
0.0
 40
1.0
100
AcDbArc
 50
354.715267
 51
90.0
  0
LINE
  5
35A
100
AcDbEntity
  8
0
370
    -3
  6
Continuous
100
AcDbLine
 10
-221.979269
 20
-94.47304
 30
0.0
 11
-224.993181
 21
-94.47304
 31
0.0
  0
ARC
  5
35B
100
AcDbEntity
  8
0
370
    -3
  6
Continuous
100
AcDbCircle
 10
-224.993181
 20
-95.47304
 30
0.0
 40
1.0
100
AcDbArc
 50
90.0
 51
174.26083
  0
ARC
  5
35C
100
AcDbEntity
  8
0
370
    -3
  6
Continuous
100
AcDbCircle
 10
-230.526104
 20
-95.47304
 30
0.0
 40
1.0
100
AcDbArc
 50
353.186146
 51
90.0
  0
LINE
  5
35D
100
AcDbEntity
  8
0
370
    -3
  6
Continuous
100
AcDbLine
 10
-230.526104
 20
-94.47304
 30
0.0
 11
-233.54989
 21
-94.47304
 31
0.0
  0
ARC
  5
35E
100
AcDbEntity
  8
0
370
    -3
  6
Continuous
100
AcDbCircle
 10
-233.54989
 20
-95.47304
 30
0.0
 40
1.0
100
AcDbArc
 50
90.0
 51
172.410458
  0
ARC
  5
35F
100
AcDbEntity
  8
0
370
    -3
  6
Continuous
100
AcDbCircle
 10
-239.111462
 20
-95.47304
 30
0.0
 40
1.0
100
AcDbArc
 50
350.405932
 51
90.0
  0
LINE
  5
360
100
AcDbEntity
  8
0
370
    -3
  6
Continuous
100
AcDbLine
 10
-239.111462
 20
-94.47304
 30
0.0
 11
-242.161298
 21
-94.47304
 31
0.0
  0
ARC
  5
361
100
AcDbEntity
  8
0
370
    -3
  6
Continuous
100
AcDbCircle
 10
-242.161298
 20
-95.47304
 30
0.0
 40
1.0
100
AcDbArc
 50
90.0
 51
168.787729
  0
LINE
  5
362
100
AcDbEntity
  8
0
370
    -3
  6
Continuous
100
AcDbLine
 10
-222.148902
 20
-131.798862
 30
0.0
 11
-219.970157
 21
-129.620116
 31
0.0
  0
ARC
  5
363
100
AcDbEntity
  8
0
370
    -3
  6
Continuous
100
AcDbCircle
 10
-227.604789
 20
-121.985484
 30
0.0
 40
10.797
100
AcDbArc
 50
315.0
 51
355.470055
  0
ARC
  5
364
100
AcDbEntity
  8
0
370
    -3
  6
Continuous
100
AcDbCircle
 10
-606.417741
 20
-91.97304
 30
0.0
 40
390.797
100
AcDbArc
 50
355.470807
 51
0.0
  0
ARC
  5
365
100
AcDbEntity
  8
0
370
    -3
  6
Continuous
100
AcDbCircle
 10
-262.786652
 20
-104.115345
 30
0.0
 40
1.0
100
AcDbArc
 50
150.0
 51
256.260205
  0
LINE
  5
366
100
AcDbEntity
  8
0
370
    -3
  6
Continuous
100
AcDbLine
 10
-263.652678
 20
-103.615345
 30
0.0
 11
-262.068558
 21
-100.871569
 31
0.0
  0
ARC
  5
367
100
AcDbEntity
  8
0
370
    -3
  6
Continuous
100
AcDbCircle
 10
-259.817741
 20
-91.97304
 30
0.0
 40
8.5
100
AcDbArc
 50
261.618272
 51
278.381728
  0
ARC
  5
368
100
AcDbEntity
  8
0
370
    -3
  6
Continuous
100
AcDbCircle
 10
-261.202533
 20
-101.371569
 30
0.0
 40
1.0
100
AcDbArc
 50
81.618272
 51
150.0
  0
ARC
  5
369
100
AcDbEntity
  8
0
370
    -3
  6
Continuous
100
AcDbCircle
 10
-259.817741
 20
249.62696
 30
0.0
 40
390.797
100
AcDbArc
 50
267.470639
 51
270.0
  0
ARC
  5
36A
100
AcDbEntity
  8
0
370
    -3
  6
Continuous
100
AcDbCircle
 10
-259.817741
 20
249.62696
 30
0.0
 40
390.797
100
AcDbArc
 50
270.0
 51
272.529361
  0
ARC
  5
36B
100
AcDbEntity
  8
0
370
    -3
  6
Continuous
100
AcDbCircle
 10
-243.92567
 20
-110.022094
 30
0.0
 40
30.797
100
AcDbArc
 50
272.530124
 51
315.0
  0
LINE
  5
36C
100
AcDbEntity
  8
0
370
    -3
  6
Continuous
100
AcDbLine
 10
-289.109378
 20
-94.47304
 30
0.0
 11
-286.085592
 21
-94.47304
 31
0.0
  0
LINE
  5
36D
100
AcDbEntity
  8
0
370
    -3
  6
Continuous
100
AcDbLine
 10
-280.524021
 20
-94.47304
 30
0.0
 11
-277.474185
 21
-94.47304
 31
0.0
  0
LINE
  5
36E
100
AcDbEntity
  8
0
370
    -3
  6
Continuous
100
AcDbLine
 10
-271.817741
 20
-94.47304
 30
0.0
 11
-268.649502
 21
-94.47304
 31
0.0
  0
LINE
  5
36F
100
AcDbEntity
  8
0
370
    -3
  6
Continuous
100
AcDbLine
 10
-267.982805
 20
-101.115345
 30
0.0
 11
-266.398685
 21
-98.371569
 31
0.0
  0
LINE
  5
370
100
AcDbEntity
  8
0
370
    -3
  6
Continuous
100
AcDbLine
 10
-272.335944
 20
-108.655204
 30
0.0
 11
-270.811027
 21
-106.013969
 31
0.0
  0
LINE
  5
371
100
AcDbEntity
  8
0
370
    -3
  6
Continuous
100
AcDbLine
 10
-280.902041
 20
-123.492118
 30
0.0
 11
-279.395085
 21
-120.881994
 31
0.0
  0
LINE
  5
372
100
AcDbEntity
  8
0
370
    -3
  6
Continuous
100
AcDbLine
 10
-276.628623
 20
-116.090342
 30
0.0
 11
-275.11673
 21
-113.471666
 31
0.0
  0
ARC
  5
373
100
AcDbEntity
  8
0
370
    -3
  6
Continuous
100
AcDbCircle
 10
-259.817741
 20
-91.97304
 30
0.0
 40
8.5
100
AcDbArc
 50
201.618272
 51
218.381728
  0
ARC
  5
374
100
AcDbEntity
  8
0
370
    -3
  6
Continuous
100
AcDbCircle
 10
-259.817741
 20
-91.97304
 30
0.0
 40
13.5
100
AcDbArc
 50
196.260205
 51
223.739795
  0
ARC
  5
375
100
AcDbEntity
  8
0
370
    -3
  6
Continuous
100
AcDbCircle
 10
-259.817741
 20
-91.97304
 30
0.0
 40
17.0
100
AcDbArc
 50
191.212271
 51
228.787729
  0
ARC
  5
376
100
AcDbEntity
  8
0
370
    -3
  6
Continuous
100
AcDbCircle
 10
-259.817741
 20
-91.97304
 30
0.0
 40
22.0
100
AcDbArc
 50
189.594068
 51
230.405932
  0
ARC
  5
377
100
AcDbEntity
  8
0
370
    -3
  6
Continuous
100
AcDbCircle
 10
-259.817741
 20
-91.97304
 30
0.0
 40
25.5
100
AcDbArc
 50
187.589542
 51
232.410458
  0
ARC
  5
378
100
AcDbEntity
  8
0
370
    -3
  6
Continuous
100
AcDbCircle
 10
-259.817741
 20
-91.97304
 30
0.0
 40
34.0
100
AcDbArc
 50
185.73917
 51
234.26083
  0
ARC
  5
379
100
AcDbEntity
  8
0
370
    -3
  6
Continuous
100
AcDbCircle
 10
-259.817741
 20
-91.97304
 30
0.0
 40
30.5
100
AcDbArc
 50
186.813854
 51
233.186146
  0
ARC
  5
37A
100
AcDbEntity
  8
0
370
    -3
  6
Continuous
100
AcDbCircle
 10
-259.817741
 20
-91.97304
 30
0.0
 40
39.0
100
AcDbArc
 50
185.284733
 51
234.715267
  0
ARC
  5
37B
100
AcDbEntity
  8
0
370
    -3
  6
Continuous
100
AcDbCircle
 10
-267.264711
 20
-97.871569
 30
0.0
 40
1.0
100
AcDbArc
 50
330.0
 51
38.381728
  0
ARC
  5
37C
100
AcDbEntity
  8
0
370
    -3
  6
Continuous
100
AcDbCircle
 10
-268.649502
 20
-95.47304
 30
0.0
 40
1.0
100
AcDbArc
 50
21.618272
 51
90.0
  0
ARC
  5
37D
100
AcDbEntity
  8
0
370
    -3
  6
Continuous
100
AcDbCircle
 10
-271.817741
 20
-95.47304
 30
0.0
 40
1.0
100
AcDbArc
 50
90.0
 51
196.260205
  0
ARC
  5
37E
100
AcDbEntity
  8
0
370
    -3
  6
Continuous
100
AcDbCircle
 10
-268.84883
 20
-100.615345
 30
0.0
 40
1.0
100
AcDbArc
 50
223.739795
 51
330.0
  0
ARC
  5
37F
100
AcDbEntity
  8
0
370
    -3
  6
Continuous
100
AcDbCircle
 10
-271.677052
 20
-105.513969
 30
0.0
 40
1.0
100
AcDbArc
 50
330.0
 51
48.787729
  0
ARC
  5
380
100
AcDbEntity
  8
0
370
    -3
  6
Continuous
100
AcDbCircle
 10
-273.20197
 20
-108.155204
 30
0.0
 40
1.0
100
AcDbArc
 50
230.405932
 51
330.0
  0
ARC
  5
381
100
AcDbEntity
  8
0
370
    -3
  6
Continuous
100
AcDbCircle
 10
-277.474185
 20
-95.47304
 30
0.0
 40
1.0
100
AcDbArc
 50
11.212271
 51
90.0
  0
ARC
  5
382
100
AcDbEntity
  8
0
370
    -3
  6
Continuous
100
AcDbCircle
 10
-280.524021
 20
-95.47304
 30
0.0
 40
1.0
100
AcDbArc
 50
90.0
 51
189.594068
  0
ARC
  5
383
100
AcDbEntity
  8
0
370
    -3
  6
Continuous
100
AcDbCircle
 10
-275.982756
 20
-112.971666
 30
0.0
 40
1.0
100
AcDbArc
 50
330.0
 51
52.410458
  0
ARC
  5
384
100
AcDbEntity
  8
0
370
    -3
  6
Continuous
100
AcDbCircle
 10
-277.494649
 20
-115.590342
 30
0.0
 40
1.0
100
AcDbArc
 50
233.186146
 51
330.0
  0
ARC
  5
385
100
AcDbEntity
  8
0
370
    -3
  6
Continuous
100
AcDbCircle
 10
-286.085592
 20
-95.47304
 30
0.0
 40
1.0
100
AcDbArc
 50
7.589542
 51
90.0
  0
ARC
  5
386
100
AcDbEntity
  8
0
370
    -3
  6
Continuous
100
AcDbCircle
 10
-280.26111
 20
-120.381994
 30
0.0
 40
1.0
100
AcDbArc
 50
330.0
 51
54.26083
  0
ARC
  5
387
100
AcDbEntity
  8
0
370
    -3
  6
Continuous
100
AcDbCircle
 10
-281.768067
 20
-122.992118
 30
0.0
 40
1.0
100
AcDbArc
 50
234.715267
 51
330.0
  0
ARC
  5
388
100
AcDbEntity
  8
0
370
    -3
  6
Continuous
100
AcDbCircle
 10
-275.705889
 20
-126.492118
 30
0.0
 40
1.0
100
AcDbArc
 50
150.0
 51
245.284733
  0
LINE
  5
389
100
AcDbEntity
  8
0
370
    -3
  6
Continuous
100
AcDbLine
 10
-276.571914
 20
-125.992118
 30
0.0
 11
-275.064958
 21
-123.381994
 31
0.0
  0
ARC
  5
38A
100
AcDbEntity
  8
0
370
    -3
  6
Continuous
100
AcDbCircle
 10
-271.432471
 20
-119.090342
 30
0.0
 40
1.0
100
AcDbArc
 50
150.0
 51
246.813854
  0
LINE
  5
38B
100
AcDbEntity
  8
0
370
    -3
  6
Continuous
100
AcDbLine
 10
-272.298496
 20
-118.590342
 30
0.0
 11
-270.786603
 21
-115.971666
 31
0.0
  0
ARC
  5
38C
100
AcDbEntity
  8
0
370
    -3
  6
Continuous
100
AcDbCircle
 10
-274.198933
 20
-123.881994
 30
0.0
 40
1.0
100
AcDbArc
 50
65.73917
 51
150.0
  0
ARC
  5
38D
100
AcDbEntity
  8
0
370
    -3
  6
Continuous
100
AcDbCircle
 10
-269.920578
 20
-116.471666
 30
0.0
 40
1.0
100
AcDbArc
 50
67.589542
 51
150.0
  0
ARC
  5
38E
100
AcDbEntity
  8
0
370
    -3
  6
Continuous
100
AcDbCircle
 10
-267.139792
 20
-111.655204
 30
0.0
 40
1.0
100
AcDbArc
 50
150.0
 51
249.594068
  0
LINE
  5
38F
100
AcDbEntity
  8
0
370
    -3
  6
Continuous
100
AcDbLine
 10
-268.005817
 20
-111.155204
 30
0.0
 11
-266.4809
 21
-108.513969
 31
0.0
  0
ARC
  5
390
100
AcDbEntity
  8
0
370
    -3
  6
Continuous
100
AcDbCircle
 10
-265.614874
 20
-109.013969
 30
0.0
 40
1.0
100
AcDbArc
 50
71.212271
 51
150.0
  0
ARC
  5
391
100
AcDbEntity
  8
0
370
    -3
  6
Continuous
100
AcDbCircle
 10
-275.709813
 20
-110.022094
 30
0.0
 40
30.797
100
AcDbArc
 50
225.0
 51
267.469876
  0
LINE
  5
392
100
AcDbEntity
  8
0
370
    -3
  6
Continuous
100
AcDbLine
 10
-297.656214
 20
-94.47304
 30
0.0
 11
-294.642302
 21
-94.47304
 31
0.0
  0
ARC
  5
393
100
AcDbEntity
  8
0
370
    -3
  6
Continuous
100
AcDbCircle
 10
-289.109378
 20
-95.47304
 30
0.0
 40
1.0
100
AcDbArc
 50
90.0
 51
186.813854
  0
ARC
  5
394
100
AcDbEntity
  8
0
370
    -3
  6
Continuous
100
AcDbCircle
 10
-297.656214
 20
-95.47304
 30
0.0
 40
1.0
100
AcDbArc
 50
90.0
 51
185.284733
  0
ARC
  5
395
100
AcDbEntity
  8
0
370
    -3
  6
Continuous
100
AcDbCircle
 10
-294.642302
 20
-95.47304
 30
0.0
 40
1.0
100
AcDbArc
 50
5.73917
 51
90.0
  0
ARC
  5
396
100
AcDbEntity
  8
0
370
    -3
  6
Continuous
100
AcDbCircle
 10
86.782259
 20
-91.97304
 30
0.0
 40
390.797
100
AcDbArc
 50
180.0
 51
184.529193
  0
ARC
  5
397
100
AcDbEntity
  8
0
370
    -3
  6
Continuous
100
AcDbCircle
 10
-292.030694
 20
-121.985484
 30
0.0
 40
10.797
100
AcDbArc
 50
184.529945
 51
225.0
  0
LINE
  5
398
100
AcDbEntity
  8
0
370
    -3
  6
Continuous
100
AcDbLine
 10
-297.48658
 20
-131.798862
 30
0.0
 11
-299.665326
 21
-129.620116
 31
0.0
  0
ARC
  5
399
100
AcDbEntity
  8
0
370
    -3
  6
Continuous
100
AcDbCircle
 10
-606.417741
 20
-91.97304
 30
0.0
 40
390.797
100
AcDbArc
 50
0.0
 51
4.529193
  0
ARC
  5
39A
100
AcDbEntity
  8
0
370
    -3
  6
Continuous
100
AcDbCircle
 10
-227.604789
 20
-61.960596
 30
0.0
 40
10.797
100
AcDbArc
 50
4.529945
 51
45.0
  0
LINE
  5
39B
100
AcDbEntity
  8
0
370
    -3
  6
Continuous
100
AcDbLine
 10
-222.148902
 20
-52.147218
 30
0.0
 11
-219.970157
 21
-54.325964
 31
0.0
  0
ARC
  5
39C
100
AcDbEntity
  8
0
370
    -3
  6
Continuous
100
AcDbCircle
 10
-243.92567
 20
-73.923986
 30
0.0
 40
30.797
100
AcDbArc
 50
45.0
 51
87.469876
  0
ARC
  5
39D
100
AcDbEntity
  8
0
370
    -3
  6
Continuous
100
AcDbCircle
 10
-259.817741
 20
-433.57304
 30
0.0
 40
390.797
100
AcDbArc
 50
87.470639
 51
90.0
  0
ARC
  5
39E
100
AcDbEntity
  8
0
370
    -3
  6
Continuous
100
AcDbCircle
 10
-259.817741
 20
-433.57304
 30
0.0
 40
390.797
100
AcDbArc
 50
90.0
 51
92.529361
  0
ARC
  5
39F
100
AcDbEntity
  8
0
370
    -3
  6
Continuous
100
AcDbCircle
 10
-275.709813
 20
-73.923986
 30
0.0
 40
30.797
100
AcDbArc
 50
92.530124
 51
135.0
  0
LINE
  5
3A0
100
AcDbEntity
  8
0
370
    -3
  6
Continuous
100
AcDbLine
 10
-297.48658
 20
-52.147218
 30
0.0
 11
-299.665326
 21
-54.325964
 31
0.0
  0
ARC
  5
3A1
100
AcDbEntity
  8
0
370
    -3
  6
Continuous
100
AcDbCircle
 10
-292.030694
 20
-61.960596
 30
0.0
 40
10.797
100
AcDbArc
 50
135.0
 51
175.470055
  0
ARC
  5
3A2
100
AcDbEntity
  8
0
370
    -3
  6
Continuous
100
AcDbCircle
 10
86.782259
 20
-91.97304
 30
0.0
 40
390.797
100
AcDbArc
 50
175.470807
 51
180.0
  0
ARC
  5
3A3
100
AcDbEntity
  8
0
370
    -3
  6
Continuous
100
AcDbCircle
 10
-242.161298
 20
-88.47304
 30
0.0
 40
1.0
100
AcDbArc
 50
191.212271
 51
270.0
  0
LINE
  5
3A4
100
AcDbEntity
  8
0
370
    -3
  6
Continuous
100
AcDbLine
 10
-239.111462
 20
-89.47304
 30
0.0
 11
-242.161298
 21
-89.47304
 31
0.0
  0
ARC
  5
3A5
100
AcDbEntity
  8
0
370
    -3
  6
Continuous
100
AcDbCircle
 10
-239.111462
 20
-88.47304
 30
0.0
 40
1.0
100
AcDbArc
 50
270.0
 51
9.594068
  0
ARC
  5
3A6
100
AcDbEntity
  8
0
370
    -3
  6
Continuous
100
AcDbCircle
 10
-233.54989
 20
-88.47304
 30
0.0
 40
1.0
100
AcDbArc
 50
187.589542
 51
270.0
  0
LINE
  5
3A7
100
AcDbEntity
  8
0
370
    -3
  6
Continuous
100
AcDbLine
 10
-230.526104
 20
-89.47304
 30
0.0
 11
-233.54989
 21
-89.47304
 31
0.0
  0
ARC
  5
3A8
100
AcDbEntity
  8
0
370
    -3
  6
Continuous
100
AcDbCircle
 10
-230.526104
 20
-88.47304
 30
0.0
 40
1.0
100
AcDbArc
 50
270.0
 51
6.813854
  0
ARC
  5
3A9
100
AcDbEntity
  8
0
370
    -3
  6
Continuous
100
AcDbCircle
 10
-224.993181
 20
-88.47304
 30
0.0
 40
1.0
100
AcDbArc
 50
185.73917
 51
270.0
  0
LINE
  5
3AA
100
AcDbEntity
  8
0
370
    -3
  6
Continuous
100
AcDbLine
 10
-221.979269
 20
-89.47304
 30
0.0
 11
-224.993181
 21
-89.47304
 31
0.0
  0
ARC
  5
3AB
100
AcDbEntity
  8
0
370
    -3
  6
Continuous
100
AcDbCircle
 10
-221.979269
 20
-88.47304
 30
0.0
 40
1.0
100
AcDbArc
 50
270.0
 51
5.284733
  0
ARC
  5
3AC
100
AcDbEntity
  8
0
370
    -3
  6
Continuous
100
AcDbCircle
 10
-242.140834
 20
-68.355738
 30
0.0
 40
1.0
100
AcDbArc
 50
53.186146
 51
150.0
  0
LINE
  5
3AD
100
AcDbEntity
  8
0
370
    -3
  6
Continuous
100
AcDbLine
 10
-243.006859
 20
-67.855738
 30
0.0
 11
-244.518752
 21
-70.474414
 31
0.0
  0
ARC
  5
3AE
100
AcDbEntity
  8
0
370
    -3
  6
Continuous
100
AcDbCircle
 10
-243.652727
 20
-70.974414
 30
0.0
 40
1.0
100
AcDbArc
 50
150.0
 51
232.410458
  0
ARC
  5
3AF
100
AcDbEntity
  8
0
370
    -3
  6
Continuous
100
AcDbCircle
 10
-237.867416
 20
-60.953962
 30
0.0
 40
1.0
100
AcDbArc
 50
54.715267
 51
150.0
  0
LINE
  5
3B0
100
AcDbEntity
  8
0
370
    -3
  6
Continuous
100
AcDbLine
 10
-238.733442
 20
-60.453962
 30
0.0
 11
-240.240398
 21
-63.064086
 31
0.0
  0
ARC
  5
3B1
100
AcDbEntity
  8
0
370
    -3
  6
Continuous
100
AcDbCircle
 10
-239.374372
 20
-63.564086
 30
0.0
 40
1.0
100
AcDbArc
 50
150.0
 51
234.26083
  0
ARC
  5
3B2
100
AcDbEntity
  8
0
370
    -3
  6
Continuous
100
AcDbCircle
 10
-252.370772
 20
-86.074511
 30
0.0
 40
1.0
100
AcDbArc
 50
150.0
 51
218.381728
  0
LINE
  5
3B3
100
AcDbEntity
  8
0
370
    -3
  6
Continuous
100
AcDbLine
 10
-251.652678
 20
-82.830735
 30
0.0
 11
-253.236797
 21
-85.574511
 31
0.0
  0
ARC
  5
3B4
100
AcDbEntity
  8
0
370
    -3
  6
Continuous
100
AcDbCircle
 10
-247.958431
 20
-78.432111
 30
0.0
 40
1.0
100
AcDbArc
 50
150.0
 51
228.787729
  0
LINE
  5
3B5
100
AcDbEntity
  8
0
370
    -3
  6
Continuous
100
AcDbLine
 10
-247.299538
 20
-75.290876
 30
0.0
 11
-248.824456
 21
-77.932111
 31
0.0
  0
ARC
  5
3B6
100
AcDbEntity
  8
0
370
    -3
  6
Continuous
100
AcDbCircle
 10
-246.433513
 20
-75.790876
 30
0.0
 40
1.0
100
AcDbArc
 50
50.405932
 51
150.0
  0
ARC
  5
3B7
100
AcDbEntity
  8
0
370
    -3
  6
Continuous
100
AcDbCircle
 10
-250.98598
 20
-88.47304
 30
0.0
 40
1.0
100
AcDbArc
 50
201.618272
 51
270.0
  0
ARC
  5
3B8
100
AcDbEntity
  8
0
370
    -3
  6
Continuous
100
AcDbCircle
 10
-259.817741
 20
-91.97304
 30
0.0
 40
8.5
100
AcDbArc
 50
21.618272
 51
38.381728
  0
ARC
  5
3B9
100
AcDbEntity
  8
0
370
    -3
  6
Continuous
100
AcDbCircle
 10
-250.786652
 20
-83.330735
 30
0.0
 40
1.0
100
AcDbArc
 50
43.739795
 51
150.0
  0
LINE
  5
3BA
100
AcDbEntity
  8
0
370
    -3
  6
Continuous
100
AcDbLine
 10
-247.817741
 20
-89.47304
 30
0.0
 11
-250.98598
 21
-89.47304
 31
0.0
  0
ARC
  5
3BB
100
AcDbEntity
  8
0
370
    -3
  6
Continuous
100
AcDbCircle
 10
-247.817741
 20
-88.47304
 30
0.0
 40
1.0
100
AcDbArc
 50
270.0
 51
16.260205
  0
ARC
  5
3BC
100
AcDbEntity
  8
0
370
    -3
  6
Continuous
100
AcDbCircle
 10
-259.817741
 20
-91.97304
 30
0.0
 40
13.5
100
AcDbArc
 50
16.260205
 51
43.739795
  0
ARC
  5
3BD
100
AcDbEntity
  8
0
370
    -3
  6
Continuous
100
AcDbCircle
 10
-259.817741
 20
-91.97304
 30
0.0
 40
17.0
100
AcDbArc
 50
11.212271
 51
48.787729
  0
ARC
  5
3BE
100
AcDbEntity
  8
0
370
    -3
  6
Continuous
100
AcDbCircle
 10
-259.817741
 20
-91.97304
 30
0.0
 40
22.0
100
AcDbArc
 50
9.594068
 51
50.405932
  0
ARC
  5
3BF
100
AcDbEntity
  8
0
370
    -3
  6
Continuous
100
AcDbCircle
 10
-259.817741
 20
-91.97304
 30
0.0
 40
30.5
100
AcDbArc
 50
6.813854
 51
53.186146
  0
ARC
  5
3C0
100
AcDbEntity
  8
0
370
    -3
  6
Continuous
100
AcDbCircle
 10
-259.817741
 20
-91.97304
 30
0.0
 40
25.5
100
AcDbArc
 50
7.589542
 51
52.410458
  0
ARC
  5
3C1
100
AcDbEntity
  8
0
370
    -3
  6
Continuous
100
AcDbCircle
 10
-259.817741
 20
-91.97304
 30
0.0
 40
34.0
100
AcDbArc
 50
5.73917
 51
54.26083
  0
ARC
  5
3C2
100
AcDbEntity
  8
0
370
    -3
  6
Continuous
100
AcDbCircle
 10
-259.817741
 20
-91.97304
 30
0.0
 40
39.0
100
AcDbArc
 50
5.284733
 51
54.715267
  0
ARC
  5
3C3
100
AcDbEntity
  8
0
370
    -3
  6
Continuous
100
AcDbCircle
 10
-248.203012
 20
-64.855738
 30
0.0
 40
1.0
100
AcDbArc
 50
330.0
 51
66.813854
  0
LINE
  5
3C4
100
AcDbEntity
  8
0
370
    -3
  6
Continuous
100
AcDbLine
 10
-247.336986
 20
-65.355738
 30
0.0
 11
-248.848879
 21
-67.974414
 31
0.0
  0
ARC
  5
3C5
100
AcDbEntity
  8
0
370
    -3
  6
Continuous
100
AcDbCircle
 10
-249.714905
 20
-67.474414
 30
0.0
 40
1.0
100
AcDbArc
 50
247.589542
 51
330.0
  0
ARC
  5
3C6
100
AcDbEntity
  8
0
370
    -3
  6
Continuous
100
AcDbCircle
 10
-243.929594
 20
-57.453962
 30
0.0
 40
1.0
100
AcDbArc
 50
330.0
 51
65.284733
  0
LINE
  5
3C7
100
AcDbEntity
  8
0
370
    -3
  6
Continuous
100
AcDbLine
 10
-243.063569
 20
-57.953962
 30
0.0
 11
-244.570525
 21
-60.564086
 31
0.0
  0
ARC
  5
3C8
100
AcDbEntity
  8
0
370
    -3
  6
Continuous
100
AcDbCircle
 10
-245.43655
 20
-60.064086
 30
0.0
 40
1.0
100
AcDbArc
 50
245.73917
 51
330.0
  0
ARC
  5
3C9
100
AcDbEntity
  8
0
370
    -3
  6
Continuous
100
AcDbCircle
 10
-258.43295
 20
-82.574511
 30
0.0
 40
1.0
100
AcDbArc
 50
261.618272
 51
330.0
  0
LINE
  5
3CA
100
AcDbEntity
  8
0
370
    -3
  6
Continuous
100
AcDbLine
 10
-255.982805
 20
-80.330735
 30
0.0
 11
-257.566924
 21
-83.074511
 31
0.0
  0
ARC
  5
3CB
100
AcDbEntity
  8
0
370
    -3
  6
Continuous
100
AcDbCircle
 10
-254.020608
 20
-74.932111
 30
0.0
 40
1.0
100
AcDbArc
 50
251.212271
 51
330.0
  0
LINE
  5
3CC
100
AcDbEntity
  8
0
370
    -3
  6
Continuous
100
AcDbLine
 10
-251.629665
 20
-72.790876
 30
0.0
 11
-253.154583
 21
-75.432111
 31
0.0
  0
ARC
  5
3CD
100
AcDbEntity
  8
0
370
    -3
  6
Continuous
100
AcDbCircle
 10
-252.495691
 20
-72.290876
 30
0.0
 40
1.0
100
AcDbArc
 50
330.0
 51
69.594068
  0
ARC
  5
3CE
100
AcDbEntity
  8
0
370
    -3
  6
Continuous
100
AcDbCircle
 10
-261.202533
 20
-82.574511
 30
0.0
 40
1.0
100
AcDbArc
 50
210.0
 51
278.381728
  0
ARC
  5
3CF
100
AcDbEntity
  8
0
370
    -3
  6
Continuous
100
AcDbCircle
 10
-259.817741
 20
-91.97304
 30
0.0
 40
8.5
100
AcDbArc
 50
81.618272
 51
98.381728
  0
ARC
  5
3D0
100
AcDbEntity
  8
0
370
    -3
  6
Continuous
100
AcDbCircle
 10
-256.84883
 20
-79.830735
 30
0.0
 40
1.0
100
AcDbArc
 50
330.0
 51
76.260205
  0
LINE
  5
3D1
100
AcDbEntity
  8
0
370
    -3
  6
Continuous
100
AcDbLine
 10
-263.652678
 20
-80.330735
 30
0.0
 11
-262.068558
 21
-83.074511
 31
0.0
  0
ARC
  5
3D2
100
AcDbEntity
  8
0
370
    -3
  6
Continuous
100
AcDbCircle
 10
-262.786652
 20
-79.830735
 30
0.0
 40
1.0
100
AcDbArc
 50
103.739795
 51
210.0
  0
ARC
  5
3D3
100
AcDbEntity
  8
0
370
    -3
  6
Continuous
100
AcDbCircle
 10
-259.817741
 20
-91.97304
 30
0.0
 40
13.5
100
AcDbArc
 50
76.260205
 51
103.739795
  0
ARC
  5
3D4
100
AcDbEntity
  8
0
370
    -3
  6
Continuous
100
AcDbCircle
 10
-265.614874
 20
-74.932111
 30
0.0
 40
1.0
100
AcDbArc
 50
210.0
 51
288.787729
  0
LINE
  5
3D5
100
AcDbEntity
  8
0
370
    -3
  6
Continuous
100
AcDbLine
 10
-268.005817
 20
-72.790876
 30
0.0
 11
-266.4809
 21
-75.432111
 31
0.0
  0
ARC
  5
3D6
100
AcDbEntity
  8
0
370
    -3
  6
Continuous
100
AcDbCircle
 10
-259.817741
 20
-91.97304
 30
0.0
 40
17.0
100
AcDbArc
 50
71.212271
 51
108.787729
  0
ARC
  5
3D7
100
AcDbEntity
  8
0
370
    -3
  6
Continuous
100
AcDbCircle
 10
-267.139792
 20
-72.290876
 30
0.0
 40
1.0
100
AcDbArc
 50
110.405932
 51
210.0
  0
ARC
  5
3D8
100
AcDbEntity
  8
0
370
    -3
  6
Continuous
100
AcDbCircle
 10
-269.920578
 20
-67.474414
 30
0.0
 40
1.0
100
AcDbArc
 50
210.0
 51
292.410458
  0
ARC
  5
3D9
100
AcDbEntity
  8
0
370
    -3
  6
Continuous
100
AcDbCircle
 10
-274.198933
 20
-60.064086
 30
0.0
 40
1.0
100
AcDbArc
 50
210.0
 51
294.26083
  0
ARC
  5
3DA
100
AcDbEntity
  8
0
370
    -3
  6
Continuous
100
AcDbCircle
 10
-259.817741
 20
-91.97304
 30
0.0
 40
22.0
100
AcDbArc
 50
69.594068
 51
110.405932
  0
LINE
  5
3DB
100
AcDbEntity
  8
0
370
    -3
  6
Continuous
100
AcDbLine
 10
-272.298496
 20
-65.355738
 30
0.0
 11
-270.786603
 21
-67.974414
 31
0.0
  0
ARC
  5
3DC
100
AcDbEntity
  8
0
370
    -3
  6
Continuous
100
AcDbCircle
 10
-271.432471
 20
-64.855738
 30
0.0
 40
1.0
100
AcDbArc
 50
113.186146
 51
210.0
  0
ARC
  5
3DD
100
AcDbEntity
  8
0
370
    -3
  6
Continuous
100
AcDbCircle
 10
-259.817741
 20
-91.97304
 30
0.0
 40
30.5
100
AcDbArc
 50
66.813854
 51
113.186146
  0
ARC
  5
3DE
100
AcDbEntity
  8
0
370
    -3
  6
Continuous
100
AcDbCircle
 10
-259.817741
 20
-91.97304
 30
0.0
 40
25.5
100
AcDbArc
 50
67.589542
 51
112.410458
  0
ARC
  5
3DF
100
AcDbEntity
  8
0
370
    -3
  6
Continuous
100
AcDbCircle
 10
-259.817741
 20
-91.97304
 30
0.0
 40
34.0
100
AcDbArc
 50
65.73917
 51
114.26083
  0
ARC
  5
3E0
100
AcDbEntity
  8
0
370
    -3
  6
Continuous
100
AcDbCircle
 10
-259.817741
 20
-91.97304
 30
0.0
 40
39.0
100
AcDbArc
 50
65.284733
 51
114.715267
  0
LINE
  5
3E1
100
AcDbEntity
  8
0
370
    -3
  6
Continuous
100
AcDbLine
 10
-276.571914
 20
-57.953962
 30
0.0
 11
-275.064958
 21
-60.564086
 31
0.0
  0
ARC
  5
3E2
100
AcDbEntity
  8
0
370
    -3
  6
Continuous
100
AcDbCircle
 10
-275.705889
 20
-57.453962
 30
0.0
 40
1.0
100
AcDbArc
 50
114.715267
 51
210.0
  0
CIRCLE
  5
3E3
100
AcDbEntity
  8
0
370
    -3
  6
Continuous
100
AcDbCircle
 10
-259.817741
 20
-91.97304
 30
0.0
 40
5.0
  0
ARC
  5
3E4
100
AcDbEntity
  8
0
370
    -3
  6
Continuous
100
AcDbCircle
 10
-281.768067
 20
-60.953962
 30
0.0
 40
1.0
100
AcDbArc
 50
30.0
 51
125.284733
  0
ARC
  5
3E5
100
AcDbEntity
  8
0
370
    -3
  6
Continuous
100
AcDbCircle
 10
-280.26111
 20
-63.564086
 30
0.0
 40
1.0
100
AcDbArc
 50
305.73917
 51
30.0
  0
ARC
  5
3E6
100
AcDbEntity
  8
0
370
    -3
  6
Continuous
100
AcDbCircle
 10
-294.642302
 20
-88.47304
 30
0.0
 40
1.0
100
AcDbArc
 50
270.0
 51
354.26083
  0
ARC
  5
3E7
100
AcDbEntity
  8
0
370
    -3
  6
Continuous
100
AcDbCircle
 10
-297.656214
 20
-88.47304
 30
0.0
 40
1.0
100
AcDbArc
 50
174.715267
 51
270.0
  0
ARC
  5
3E8
100
AcDbEntity
  8
0
370
    -3
  6
Continuous
100
AcDbCircle
 10
-286.085592
 20
-88.47304
 30
0.0
 40
1.0
100
AcDbArc
 50
270.0
 51
352.410458
  0
ARC
  5
3E9
100
AcDbEntity
  8
0
370
    -3
  6
Continuous
100
AcDbCircle
 10
-277.494649
 20
-68.355738
 30
0.0
 40
1.0
100
AcDbArc
 50
30.0
 51
126.813854
  0
ARC
  5
3EA
100
AcDbEntity
  8
0
370
    -3
  6
Continuous
100
AcDbCircle
 10
-275.982756
 20
-70.974414
 30
0.0
 40
1.0
100
AcDbArc
 50
307.589542
 51
30.0
  0
ARC
  5
3EB
100
AcDbEntity
  8
0
370
    -3
  6
Continuous
100
AcDbCircle
 10
-289.109378
 20
-88.47304
 30
0.0
 40
1.0
100
AcDbArc
 50
173.186146
 51
270.0
  0
ARC
  5
3EC
100
AcDbEntity
  8
0
370
    -3
  6
Continuous
100
AcDbCircle
 10
-280.524021
 20
-88.47304
 30
0.0
 40
1.0
100
AcDbArc
 50
170.405932
 51
270.0
  0
ARC
  5
3ED
100
AcDbEntity
  8
0
370
    -3
  6
Continuous
100
AcDbCircle
 10
-277.474185
 20
-88.47304
 30
0.0
 40
1.0
100
AcDbArc
 50
270.0
 51
348.787729
  0
ARC
  5
3EE
100
AcDbEntity
  8
0
370
    -3
  6
Continuous
100
AcDbCircle
 10
-273.20197
 20
-75.790876
 30
0.0
 40
1.0
100
AcDbArc
 50
30.0
 51
129.594068
  0
ARC
  5
3EF
100
AcDbEntity
  8
0
370
    -3
  6
Continuous
100
AcDbCircle
 10
-271.677052
 20
-78.432111
 30
0.0
 40
1.0
100
AcDbArc
 50
311.212271
 51
30.0
  0
ARC
  5
3F0
100
AcDbEntity
  8
0
370
    -3
  6
Continuous
100
AcDbCircle
 10
-268.84883
 20
-83.330735
 30
0.0
 40
1.0
100
AcDbArc
 50
30.0
 51
136.260205
  0
ARC
  5
3F1
100
AcDbEntity
  8
0
370
    -3
  6
Continuous
100
AcDbCircle
 10
-271.817741
 20
-88.47304
 30
0.0
 40
1.0
100
AcDbArc
 50
163.739795
 51
270.0
  0
ARC
  5
3F2
100
AcDbEntity
  8
0
370
    -3
  6
Continuous
100
AcDbCircle
 10
-268.649502
 20
-88.47304
 30
0.0
 40
1.0
100
AcDbArc
 50
270.0
 51
338.381728
  0
ARC
  5
3F3
100
AcDbEntity
  8
0
370
    -3
  6
Continuous
100
AcDbCircle
 10
-267.264711
 20
-86.074511
 30
0.0
 40
1.0
100
AcDbArc
 50
321.618272
 51
30.0
  0
ARC
  5
3F4
100
AcDbEntity
  8
0
370
    -3
  6
Continuous
100
AcDbCircle
 10
-259.817741
 20
-91.97304
 30
0.0
 40
39.0
100
AcDbArc
 50
125.284733
 51
174.715267
  0
ARC
  5
3F5
100
AcDbEntity
  8
0
370
    -3
  6
Continuous
100
AcDbCircle
 10
-259.817741
 20
-91.97304
 30
0.0
 40
30.5
100
AcDbArc
 50
126.813854
 51
173.186146
  0
ARC
  5
3F6
100
AcDbEntity
  8
0
370
    -3
  6
Continuous
100
AcDbCircle
 10
-259.817741
 20
-91.97304
 30
0.0
 40
34.0
100
AcDbArc
 50
125.73917
 51
174.26083
  0
ARC
  5
3F7
100
AcDbEntity
  8
0
370
    -3
  6
Continuous
100
AcDbCircle
 10
-259.817741
 20
-91.97304
 30
0.0
 40
25.5
100
AcDbArc
 50
127.589542
 51
172.410458
  0
ARC
  5
3F8
100
AcDbEntity
  8
0
370
    -3
  6
Continuous
100
AcDbCircle
 10
-259.817741
 20
-91.97304
 30
0.0
 40
22.0
100
AcDbArc
 50
129.594068
 51
170.405932
  0
ARC
  5
3F9
100
AcDbEntity
  8
0
370
    -3
  6
Continuous
100
AcDbCircle
 10
-259.817741
 20
-91.97304
 30
0.0
 40
17.0
100
AcDbArc
 50
131.212271
 51
168.787729
  0
ARC
  5
3FA
100
AcDbEntity
  8
0
370
    -3
  6
Continuous
100
AcDbCircle
 10
-259.817741
 20
-91.97304
 30
0.0
 40
13.5
100
AcDbArc
 50
136.260205
 51
163.739795
  0
ARC
  5
3FB
100
AcDbEntity
  8
0
370
    -3
  6
Continuous
100
AcDbCircle
 10
-259.817741
 20
-91.97304
 30
0.0
 40
8.5
100
AcDbArc
 50
141.618272
 51
158.381728
  0
LINE
  5
3FC
100
AcDbEntity
  8
0
370
    -3
  6
Continuous
100
AcDbLine
 10
-276.628623
 20
-67.855738
 30
0.0
 11
-275.11673
 21
-70.474414
 31
0.0
  0
LINE
  5
3FD
100
AcDbEntity
  8
0
370
    -3
  6
Continuous
100
AcDbLine
 10
-297.656214
 20
-89.47304
 30
0.0
 11
-294.642302
 21
-89.47304
 31
0.0
  0
ARC
  5
3FE
100
AcDbEntity
  8
0
370
    -3
  6
Continuous
100
AcDbCircle
 10
-606.417741
 20
-91.97304
 30
0.0
 40
400.6
100
AcDbArc
 50
0.0
 51
4.529193
  0
ARC
  5
3FF
100
AcDbEntity
  8
0
370
    -3
  6
Continuous
100
AcDbCircle
 10
-227.604789
 20
-61.960596
 30
0.0
 40
20.6
100
AcDbArc
 50
4.529945
 51
45.0
  0
LINE
  5
400
100
AcDbEntity
  8
0
370
    -3
  6
Continuous
100
AcDbLine
 10
-215.217135
 20
-45.215451
 30
0.0
 11
-213.038389
 21
-47.394196
 31
0.0
  0
LINE
  5
401
100
AcDbEntity
  8
0
370
    -3
  6
Continuous
100
AcDbLine
 10
-302.173438
 20
-140.97554
 30
0.0
 11
-302.660241
 21
-141.462343
 31
0.0
  0
ARC
  5
402
100
AcDbEntity
  8
0
370
    -3
  6
Continuous
100
AcDbCircle
 10
-243.92567
 20
-73.923986
 30
0.0
 40
40.6
100
AcDbArc
 50
45.0
 51
87.469876
  0
LINE
  5
403
100
AcDbEntity
  8
0
370
    -3
  6
Continuous
100
AcDbLine
 10
-308.820241
 20
-134.328736
 30
0.0
 11
-309.307045
 21
-134.81554
 31
0.0
  0
ARC
  5
404
100
AcDbEntity
  8
0
370
    -3
  6
Continuous
100
AcDbCircle
 10
86.782259
 20
-91.97304
 30
0.0
 40
400.6
100
AcDbArc
 50
175.470807
 51
180.0
  0
LINE
  5
405
100
AcDbEntity
  8
0
370
    -3
  6
Continuous
100
AcDbLine
 10
-302.425985
 20
-141.288678
 30
0.0
 11
-309.103084
 21
-134.611579
 31
0.0
  0
ARC
  5
406
100
AcDbEntity
  8
0
370
    -3
  6
Continuous
100
AcDbCircle
 10
-292.030694
 20
-61.960596
 30
0.0
 40
20.6
100
AcDbArc
 50
135.0
 51
175.470055
  0
LINE
  5
407
100
AcDbEntity
  8
0
370
    -3
  6
Continuous
100
AcDbLine
 10
-302.173438
 20
-140.97554
 30
0.0
 11
-308.820241
 21
-134.328736
 31
0.0
  0
LINE
  5
408
100
AcDbEntity
  8
0
370
    -3
  6
Continuous
100
AcDbLine
 10
-304.418348
 20
-45.215451
 30
0.0
 11
-306.597094
 21
-47.394196
 31
0.0
  0
POINT
  5
409
100
AcDbEntity
  8
0
370
    -3
  6
Continuous
100
AcDbPoint
 10
-305.496839
 20
-137.652138
 30
0.0
  0
ARC
  5
40A
100
AcDbEntity
  8
0
370
    -3
  6
Continuous
100
AcDbCircle
 10
-275.709813
 20
-73.923986
 30
0.0
 40
40.6
100
AcDbArc
 50
92.530124
 51
135.0
  0
ARC
  5
40B
100
AcDbEntity
  8
0
370
    -3
  6
Continuous
100
AcDbCircle
 10
-303.234098
 20
-135.389397
 30
0.0
 40
6.099999
100
AcDbArc
 50
174.601928
 51
275.398089
  0
ARC
  5
40C
100
AcDbEntity
  8
0
370
    -3
  6
Continuous
100
AcDbCircle
 10
-259.817741
 20
249.62696
 30
0.0
 40
400.6
100
AcDbArc
 50
267.470639
 51
270.0
  0
LINE
  5
40D
100
AcDbEntity
  8
0
370
    -3
  6
Continuous
100
AcDbLine
 10
-308.820241
 20
-49.617344
 30
0.0
 11
-309.307045
 21
-49.13054
 31
0.0
  0
ARC
  5
40E
100
AcDbEntity
  8
0
370
    -3
  6
Continuous
100
AcDbCircle
 10
86.782259
 20
-91.97304
 30
0.0
 40
400.6
100
AcDbArc
 50
180.0
 51
184.529193
  0
LINE
  5
40F
100
AcDbEntity
  8
0
370
    -3
  6
Continuous
100
AcDbLine
 10
-302.173438
 20
-42.97054
 30
0.0
 11
-302.660241
 21
-42.483737
 31
0.0
  0
ARC
  5
410
100
AcDbEntity
  8
0
370
    -3
  6
Continuous
100
AcDbCircle
 10
-292.030694
 20
-121.985484
 30
0.0
 40
20.6
100
AcDbArc
 50
184.529945
 51
225.0
  0
LINE
  5
411
100
AcDbEntity
  8
0
370
    -3
  6
Continuous
100
AcDbLine
 10
-302.425985
 20
-42.657402
 30
0.0
 11
-309.103084
 21
-49.334501
 31
0.0
  0
LINE
  5
412
100
AcDbEntity
  8
0
370
    -3
  6
Continuous
100
AcDbLine
 10
-304.418348
 20
-138.730629
 30
0.0
 11
-306.597094
 21
-136.551884
 31
0.0
  0
LINE
  5
413
100
AcDbEntity
  8
0
370
    -3
  6
Continuous
100
AcDbLine
 10
-302.173438
 20
-42.97054
 30
0.0
 11
-308.820241
 21
-49.617344
 31
0.0
  0
ARC
  5
414
100
AcDbEntity
  8
0
370
    -3
  6
Continuous
100
AcDbCircle
 10
-275.709813
 20
-110.022094
 30
0.0
 40
40.6
100
AcDbArc
 50
225.0
 51
267.469876
  0
POINT
  5
415
100
AcDbEntity
  8
0
370
    -3
  6
Continuous
100
AcDbPoint
 10
-305.496839
 20
-46.293942
 30
0.0
  0
ARC
  5
416
100
AcDbEntity
  8
0
370
    -3
  6
Continuous
100
AcDbCircle
 10
-259.817741
 20
249.62696
 30
0.0
 40
400.6
100
AcDbArc
 50
270.0
 51
272.529361
  0
ARC
  5
417
100
AcDbEntity
  8
0
370
    -3
  6
Continuous
100
AcDbCircle
 10
-303.234098
 20
-48.556684
 30
0.0
 40
6.099999
100
AcDbArc
 50
84.601911
 51
185.398072
  0
LINE
  5
418
100
AcDbEntity
  8
0
370
    -3
  6
Continuous
100
AcDbLine
 10
-217.462045
 20
-42.97054
 30
0.0
 11
-216.975242
 21
-42.483737
 31
0.0
  0
ARC
  5
419
100
AcDbEntity
  8
0
370
    -3
  6
Continuous
100
AcDbCircle
 10
-227.604789
 20
-121.985484
 30
0.0
 40
20.6
100
AcDbArc
 50
315.0
 51
355.470055
  0
LINE
  5
41A
100
AcDbEntity
  8
0
370
    -3
  6
Continuous
100
AcDbLine
 10
-210.815242
 20
-49.617344
 30
0.0
 11
-210.328438
 21
-49.13054
 31
0.0
  0
LINE
  5
41B
100
AcDbEntity
  8
0
370
    -3
  6
Continuous
100
AcDbLine
 10
-215.217135
 20
-138.730629
 30
0.0
 11
-213.038389
 21
-136.551884
 31
0.0
  0
LINE
  5
41C
100
AcDbEntity
  8
0
370
    -3
  6
Continuous
100
AcDbLine
 10
-217.209498
 20
-42.657402
 30
0.0
 11
-210.532399
 21
-49.334501
 31
0.0
  0
ARC
  5
41D
100
AcDbEntity
  8
0
370
    -3
  6
Continuous
100
AcDbCircle
 10
-243.92567
 20
-110.022094
 30
0.0
 40
40.6
100
AcDbArc
 50
272.530124
 51
315.0
  0
LINE
  5
41E
100
AcDbEntity
  8
0
370
    -3
  6
Continuous
100
AcDbLine
 10
-217.462045
 20
-42.97054
 30
0.0
 11
-210.815242
 21
-49.617344
 31
0.0
  0
LINE
  5
41F
100
AcDbEntity
  8
0
370
    -3
  6
Continuous
100
AcDbLine
 10
-280.902041
 20
-60.453962
 30
0.0
 11
-279.395085
 21
-63.064086
 31
0.0
  0
POINT
  5
420
100
AcDbEntity
  8
0
370
    -3
  6
Continuous
100
AcDbPoint
 10
-214.138643
 20
-46.293942
 30
0.0
  0
LINE
  5
421
100
AcDbEntity
  8
0
370
    -3
  6
Continuous
100
AcDbLine
 10
-272.335944
 20
-75.290876
 30
0.0
 11
-270.811027
 21
-77.932111
 31
0.0
  0
ARC
  5
422
100
AcDbEntity
  8
0
370
    -3
  6
Continuous
100
AcDbCircle
 10
-216.401385
 20
-48.556684
 30
0.0
 40
6.099999
100
AcDbArc
 50
354.601928
 51
95.398089
  0
LINE
  5
423
100
AcDbEntity
  8
0
370
    -3
  6
Continuous
100
AcDbLine
 10
-267.982805
 20
-82.830735
 30
0.0
 11
-266.398685
 21
-85.574511
 31
0.0
  0
LINE
  5
424
100
AcDbEntity
  8
0
370
    -3
  6
Continuous
100
AcDbLine
 10
-210.815242
 20
-134.328736
 30
0.0
 11
-210.328438
 21
-134.81554
 31
0.0
  0
LINE
  5
425
100
AcDbEntity
  8
0
370
    -3
  6
Continuous
100
AcDbLine
 10
-271.817741
 20
-89.47304
 30
0.0
 11
-268.649502
 21
-89.47304
 31
0.0
  0
LINE
  5
426
100
AcDbEntity
  8
0
370
    -3
  6
Continuous
100
AcDbLine
 10
-217.462045
 20
-140.97554
 30
0.0
 11
-216.975242
 21
-141.462343
 31
0.0
  0
LINE
  5
427
100
AcDbEntity
  8
0
370
    -3
  6
Continuous
100
AcDbLine
 10
-280.524021
 20
-89.47304
 30
0.0
 11
-277.474185
 21
-89.47304
 31
0.0
  0
LINE
  5
428
100
AcDbEntity
  8
0
370
    -3
  6
Continuous
100
AcDbLine
 10
-217.209498
 20
-141.288678
 30
0.0
 11
-210.532399
 21
-134.611579
 31
0.0
  0
LINE
  5
429
100
AcDbEntity
  8
0
370
    -3
  6
Continuous
100
AcDbLine
 10
-289.109378
 20
-89.47304
 30
0.0
 11
-286.085592
 21
-89.47304
 31
0.0
  0
LINE
  5
42A
100
AcDbEntity
  8
0
370
    -3
  6
Continuous
100
AcDbLine
 10
-217.462045
 20
-140.97554
 30
0.0
 11
-210.815242
 21
-134.328736
 31
0.0
  0
ARC
  5
42B
100
AcDbEntity
  8
0
370
    -3
  6
Continuous
100
AcDbCircle
 10
-259.817741
 20
-91.97304
 30
0.0
 40
39.0
100
AcDbArc
 50
245.284733
 51
294.715267
  0
POINT
  5
42C
100
AcDbEntity
  8
0
370
    -3
  6
Continuous
100
AcDbPoint
 10
-214.138643
 20
-137.652138
 30
0.0
  0
ARC
  5
42D
100
AcDbEntity
  8
0
370
    -3
  6
Continuous
100
AcDbCircle
 10
-259.817741
 20
-91.97304
 30
0.0
 40
34.0
100
AcDbArc
 50
245.73917
 51
294.26083
  0
ARC
  5
42E
100
AcDbEntity
  8
0
370
    -3
  6
Continuous
100
AcDbCircle
 10
-216.401385
 20
-135.389397
 30
0.0
 40
6.099999
100
AcDbArc
 50
264.601911
 51
5.398072
  0
ARC
  5
42F
100
AcDbEntity
  8
0
370
    -3
  6
Continuous
100
AcDbCircle
 10
-259.817741
 20
-91.97304
 30
0.0
 40
25.5
100
AcDbArc
 50
247.589542
 51
292.410458
  0
ARC
  5
430
100
AcDbEntity
  8
0
370
    -3
  6
Continuous
100
AcDbCircle
 10
-259.817741
 20
-91.97304
 30
0.0
 40
30.5
100
AcDbArc
 50
246.813854
 51
293.186146
  0
ARC
  5
431
100
AcDbEntity
  8
0
370
    -3
  6
Continuous
100
AcDbCircle
 10
-259.817741
 20
-91.97304
 30
0.0
 40
22.0
100
AcDbArc
 50
249.594068
 51
290.405932
  0
ARC
  5
432
100
AcDbEntity
  8
0
370
    -3
  6
Continuous
100
AcDbCircle
 10
-259.817741
 20
-91.97304
 30
0.0
 40
17.0
100
AcDbArc
 50
251.212271
 51
288.787729
  0
ARC
  5
433
100
AcDbEntity
  8
0
370
    -3
  6
Continuous
100
AcDbCircle
 10
-259.817741
 20
-91.97304
 30
0.0
 40
13.5
100
AcDbArc
 50
256.260205
 51
283.739795
  0
ARC
  5
434
100
AcDbEntity
  8
0
370
    -3
  6
Continuous
100
AcDbCircle
 10
-256.84883
 20
-104.115345
 30
0.0
 40
1.0
100
AcDbArc
 50
283.739795
 51
30.0
  0
ARC
  5
435
100
AcDbEntity
  8
0
370
    -3
  6
Continuous
100
AcDbCircle
 10
-252.495691
 20
-111.655204
 30
0.0
 40
1.0
100
AcDbArc
 50
290.405932
 51
30.0
  0
LINE
  5
436
100
AcDbEntity
  8
0
370
    -3
  6
Continuous
100
AcDbLine
 10
-251.629665
 20
-111.155204
 30
0.0
 11
-253.154583
 21
-108.513969
 31
0.0
  0
ARC
  5
437
100
AcDbEntity
  8
0
370
    -3
  6
Continuous
100
AcDbCircle
 10
-254.020608
 20
-109.013969
 30
0.0
 40
1.0
100
AcDbArc
 50
30.0
 51
108.787729
  0
LINE
  5
438
100
AcDbEntity
  8
0
370
    -3
  6
Continuous
100
AcDbLine
 10
-255.982805
 20
-103.615345
 30
0.0
 11
-257.566924
 21
-100.871569
 31
0.0
  0
ARC
  5
439
100
AcDbEntity
  8
0
370
    -3
  6
Continuous
100
AcDbCircle
 10
-258.43295
 20
-101.371569
 30
0.0
 40
1.0
100
AcDbArc
 50
30.0
 51
98.381728
  0
ARC
  5
43A
100
AcDbEntity
  8
0
370
    -3
  6
Continuous
100
AcDbCircle
 10
-245.43655
 20
-123.881994
 30
0.0
 40
1.0
100
AcDbArc
 50
30.0
 51
114.26083
  0
LINE
  5
43B
100
AcDbEntity
  8
0
370
    -3
  6
Continuous
100
AcDbLine
 10
-243.063569
 20
-125.992118
 30
0.0
 11
-244.570525
 21
-123.381994
 31
0.0
  0
ARC
  5
43C
100
AcDbEntity
  8
0
370
    -3
  6
Continuous
100
AcDbCircle
 10
-243.929594
 20
-126.492118
 30
0.0
 40
1.0
100
AcDbArc
 50
294.715267
 51
30.0
  0
ARC
  5
43D
100
AcDbEntity
  8
0
370
    -3
  6
Continuous
100
AcDbCircle
 10
-249.714905
 20
-116.471666
 30
0.0
 40
1.0
100
AcDbArc
 50
30.0
 51
112.410458
  0
LINE
  5
43E
100
AcDbEntity
  8
0
370
    -3
  6
CENTER
100
AcDbLine
 10
-278.259828
 20
-91.97304
 30
0.0
 11
-240.187675
 21
-91.97304
 31
0.0
  0
LINE
  5
43F
100
AcDbEntity
  8
0
370
    -3
  6
Continuous
100
AcDbLine
 10
-196.817344
 20
-83.47304
 30
0.0
 11
-195.21748
 21
-83.47304
 31
0.0
  0
ARC
  5
440
100
AcDbEntity
  8
0
370
    -3
  6
Continuous
100
AcDbCircle
 10
-195.21748
 20
-83.87304
 30
0.0
 40
0.4
100
AcDbArc
 50
0.0
 51
90.0
  0
ARC
  5
441
100
AcDbEntity
  8
0
370
    -3
  6
Continuous
100
AcDbCircle
 10
-194.41748
 20
-84.07304
 30
0.0
 40
0.4
100
AcDbArc
 50
180.0
 51
270.0
  0
LINE
  5
442
100
AcDbEntity
  8
0
370
    -3
  6
Continuous
100
AcDbLine
 10
-196.817344
 20
-117.47304
 30
0.0
 11
-195.21748
 21
-117.47304
 31
0.0
  0
ARC
  5
443
100
AcDbEntity
  8
0
370
    -3
  6
Continuous
100
AcDbCircle
 10
-195.21748
 20
-117.07304
 30
0.0
 40
0.4
100
AcDbArc
 50
270.0
 51
0.0
  0
ARC
  5
444
100
AcDbEntity
  8
0
370
    -3
  6
Continuous
100
AcDbCircle
 10
-194.41748
 20
-116.87304
 30
0.0
 40
0.4
100
AcDbArc
 50
90.0
 51
180.0
  0
LINE
  5
445
100
AcDbEntity
  8
0
370
    -3
  6
Continuous
100
AcDbLine
 10
-194.81748
 20
-83.87304
 30
0.0
 11
-194.81748
 21
-117.07304
 31
0.0
  0
LINE
  5
446
100
AcDbEntity
  8
0
370
    -3
  6
Continuous
100
AcDbLine
 10
-179.817549
 20
-81.47304
 30
0.0
 11
-179.817549
 21
-84.47304
 31
0.0
  0
LINE
  5
447
100
AcDbEntity
  8
0
370
    -3
  6
Continuous
100
AcDbLine
 10
-179.817549
 20
-81.47304
 30
0.0
 11
-139.817549
 21
-81.47304
 31
0.0
  0
LINE
  5
448
100
AcDbEntity
  8
0
370
    -3
  6
Continuous
100
AcDbLine
 10
-194.41748
 20
-84.47304
 30
0.0
 11
-140.617549
 21
-84.47304
 31
0.0
  0
LINE
  5
449
100
AcDbEntity
  8
0
370
    -3
  6
Continuous
100
AcDbLine
 10
-194.41748
 20
-116.47304
 30
0.0
 11
-140.617549
 21
-116.47304
 31
0.0
  0
ARC
  5
44A
100
AcDbEntity
  8
0
370
    -3
  6
Continuous
100
AcDbCircle
 10
-140.617549
 20
-85.27304
 30
0.0
 40
0.8
100
AcDbArc
 50
0.0
 51
90.0
  0
ARC
  5
44B
100
AcDbEntity
  8
0
370
    -3
  6
Continuous
100
AcDbCircle
 10
-140.617549
 20
-115.67304
 30
0.0
 40
0.8
100
AcDbArc
 50
270.0
 51
0.0
  0
LINE
  5
44C
100
AcDbEntity
  8
0
370
    -3
  6
Continuous
100
AcDbLine
 10
-139.817549
 20
-81.47304
 30
0.0
 11
-139.817549
 21
-115.67304
 31
0.0
  0
ARC
  5
44D
100
AcDbEntity
  8
0
370
    -3
  6
Continuous
100
AcDbCircle
 10
-500.417741
 20
-116.244211
 30
0.0
 40
300.6
100
AcDbArc
 50
353.387647
 51
353.941049
  0
ARC
  5
44E
100
AcDbEntity
  8
0
370
    -3
  6
Continuous
100
AcDbCircle
 10
-19.217741
 20
-116.244211
 30
0.0
 40
300.6
100
AcDbArc
 50
186.058951
 51
186.613011
  0
LINE
  5
44F
100
AcDbEntity
  8
0
370
    -3
  6
Continuous
100
AcDbLine
 10
-202.317191
 20
-204.034897
 30
0.0
 11
-213.817741
 21
-204.23564
 31
0.0
  0
LINE
  5
450
100
AcDbEntity
  8
0
370
    -3
  6
Continuous
100
AcDbLine
 10
-213.817741
 20
-165.932299
 30
0.0
 11
-213.817741
 21
-204.23564
 31
0.0
  0
LINE
  5
451
100
AcDbEntity
  8
0
370
    -3
  6
Continuous
100
AcDbLine
 10
-308.317741
 20
-202.586136
 30
0.0
 11
-317.817741
 21
-202.586136
 31
0.0
  0
LINE
  5
452
100
AcDbEntity
  8
0
370
    -3
  6
Continuous
100
AcDbLine
 10
-317.817741
 20
-136.907247
 30
0.0
 11
-317.817741
 21
-202.586136
 31
0.0
  0
LINE
  5
453
100
AcDbEntity
  8
0
370
    -3
  6
Continuous
100
AcDbLine
 10
-308.317741
 20
-29.902598
 30
0.0
 11
-317.817741
 21
-29.902598
 31
0.0
  0
LINE
  5
454
100
AcDbEntity
  8
0
370
    -3
  6
Continuous
100
AcDbLine
 10
-322.817741
 20
-52.97304
 30
0.0
 11
-322.817741
 21
-147.97304
 31
0.0
  0
LINE
  5
455
100
AcDbEntity
  8
0
370
    -3
  6
Continuous
100
AcDbLine
 10
-317.817741
 20
-29.902598
 30
0.0
 11
-317.817741
 21
-96.03852
 31
0.0
  0
LINE
  5
456
100
AcDbEntity
  8
0
370
    -3
  6
Continuous
100
AcDbLine
 10
-213.817741
 20
-28.253095
 30
0.0
 11
-213.817741
 21
-42.790292
 31
0.0
  0
LINE
  5
457
100
AcDbEntity
  8
0
370
    -3
  6
Continuous
100
AcDbLine
 10
-201.817344
 20
-28.462562
 30
0.0
 11
-213.817741
 21
-28.253095
 31
0.0
  0
LINE
  5
458
100
AcDbEntity
  8
0
370
    -3
  6
Continuous
100
AcDbLine
 10
-201.817344
 20
-203.526248
 30
0.0
 11
-202.317191
 21
-204.034897
 31
0.0
  0
LINE
  5
459
100
AcDbEntity
  8
0
370
    -3
  6
Continuous
100
AcDbLine
 10
-201.817344
 20
-136.906621
 30
0.0
 11
-201.817344
 21
-203.526248
 31
0.0
  0
LINE
  5
45A
100
AcDbEntity
  8
0
370
    -3
  6
Continuous
100
AcDbLine
 10
-196.817344
 20
-100.244367
 30
0.0
 11
-196.817344
 21
-147.97304
 31
0.0
  0
LINE
  5
45B
100
AcDbEntity
  8
0
370
    -3
  6
Continuous
100
AcDbLine
 10
-196.817344
 20
-100.244367
 30
0.0
 11
-196.817344
 21
-52.97304
 31
0.0
  0
LINE
  5
45C
100
AcDbEntity
  8
0
370
    -3
  6
Continuous
100
AcDbLine
 10
-201.817344
 20
-96.039146
 30
0.0
 11
-201.817344
 21
-28.462562
 31
0.0
  0
LINE
  5
45D
100
AcDbEntity
  8
0
370
    -3
  6
CENTER
100
AcDbLine
 10
-259.817741
 20
8.229824
 30
0.0
 11
-259.817741
 21
-206.664916
 31
0.0
  0
LINE
  5
45E
100
AcDbEntity
  8
0
370
    -3
  6
Continuous
100
AcDbLine
 10
-213.817741
 20
-204.235326
 30
0.0
 11
-308.317741
 21
-202.585823
 31
0.0
  0
LINE
  5
45F
100
AcDbEntity
  8
0
370
    -3
  6
CENTER
100
AcDbLine
 10
-329.29655
 20
-100.47304
 30
0.0
 11
-135.117147
 21
-100.47304
 31
0.0
  0
LINE
  5
460
100
AcDbEntity
  8
0
370
    -3
  6
Continuous
100
AcDbLine
 10
-322.817741
 20
-52.97304
 30
0.0
 11
-317.817741
 21
-52.97304
 31
0.0
  0
LINE
  5
461
100
AcDbEntity
  8
0
370
    -3
  6
Continuous
100
AcDbLine
 10
-322.817741
 20
-147.97304
 30
0.0
 11
-317.817741
 21
-147.97304
 31
0.0
  0
LINE
  5
462
100
AcDbEntity
  8
0
370
    -3
  6
Continuous
100
AcDbLine
 10
-196.817344
 20
-147.97304
 30
0.0
 11
-201.817741
 21
-147.97304
 31
0.0
  0
LINE
  5
463
100
AcDbEntity
  8
0
370
    -3
  6
Continuous
100
AcDbLine
 10
-196.817344
 20
-52.97304
 30
0.0
 11
-201.817741
 21
-52.97304
 31
0.0
  0
ENDSEC
  0
SECTION
  2
OBJECTS
  0
DICTIONARY
  5
19
100
AcDbDictionary
280
     0
281
     1
  3
ACAD_GROUP
350
1A
  3
ACAD_MLINESTYLE
350
1B
  3
ACAD_LAYOUT
350
1E
  3
ACAD_PLOTSETTINGS
350
22
  3
ACAD_PLOTSTYLENAME
350
1F
  3
ACAD_WIPEOUT_VARS
350
23
  3
DWGPROPS
350
464
  0
DICTIONARY
  5
1A
102
{ACAD_REACTORS
330
19
102
}
100
AcDbDictionary
280
     0
281
     1
  0
DICTIONARY
  5
1B
102
{ACAD_REACTORS
330
19
102
}
100
AcDbDictionary
280
     0
281
     1
  3
Standard
350
1C
  0
MLINESTYLE
  5
1C
102
{ACAD_REACTORS
330
1B
102
}
100
AcDbMlineStyle
  2
Standard
 70
     0
  3

 62
     0
 51
90.0
 52
90.0
 71
     2
 49
0.5
 62
   256
  6
ByLayer
 49
-0.5
 62
   256
  6
ByLayer
  0
ACDBDICTIONARYWDFLT
  5
1F
102
{ACAD_REACTORS
330
19
102
}
100
AcDbDictionary
281
     1
  3
Normal
350
1D
100
AcDbDictionaryWithDefault
340
1D
  0
ACDBPLACEHOLDER
  5
1D
102
{ACAD_REACTORS
330
1F
102
}
  0
LAYOUT
  5
20
102
{ACAD_REACTORS
330
1E
102
}
100
AcDbPlotSettings
  1

  2

  4

  6

 40
0.0
 41
0.0
 42
0.0
 43
0.0
 44
0.0
 45
0.0
 46
0.0
 47
0.0
 48
0.0
 49
0.0
140
0.0
141
0.0
142
1.0
143
1.0
 70
  1024
 72
     0
 73
     0
 74
     0
  7

 75
     0
147
1.0
148
0.0
149
0.0
100
AcDbLayout
  1
Model
 70
     0
 71
     0
 10
0.0
 20
0.0
 11
0.0
 21
0.0
 12
0.0
 22
0.0
 32
0.0
 14
0.0
 24
0.0
 34
0.0
 15
0.0
 25
0.0
 35
0.0
146
0.0
 13
0.0
 23
0.0
 33
0.0
 16
0.0
 26
0.0
 36
0.0
 17
0.0
 27
0.0
 37
0.0
 76
     0
330
A
331
0
345
0
346
0
  0
LAYOUT
  5
21
102
{ACAD_REACTORS
330
1E
102
}
100
AcDbPlotSettings
  1

  2

  4

  6

 40
0.0
 41
0.0
 42
0.0
 43
0.0
 44
0.0
 45
0.0
 46
0.0
 47
0.0
 48
0.0
 49
0.0
140
0.0
141
0.0
142
1.0
143
1.0
 70
     0
 72
     0
 73
     0
 74
     0
  7

 75
     0
147
1.0
148
0.0
149
0.0
100
AcDbLayout
  1
Layout1
 70
     0
 71
     0
 10
0.0
 20
0.0
 11
0.0
 21
0.0
 12
0.0
 22
0.0
 32
0.0
 14
0.0
 24
0.0
 34
0.0
 15
0.0
 25
0.0
 35
0.0
146
0.0
 13
0.0
 23
0.0
 33
0.0
 16
0.0
 26
0.0
 36
0.0
 17
0.0
 27
0.0
 37
0.0
 76
     0
330
B
331
0
345
0
346
0
  0
DICTIONARY
  5
1E
102
{ACAD_REACTORS
330
19
102
}
100
AcDbDictionary
280
     0
281
     1
  3
Layout1
350
21
  3
Model
350
20
  0
DICTIONARY
  5
22
102
{ACAD_REACTORS
330
19
102
}
100
AcDbDictionary
280
     0
281
     1
  0
WIPEOUTVARIABLES
  5
23
100
AcDbWipeoutVariables
 70
     1
  0
XRECORD
  5
464
100
AcDbXrecord
280
     1
  1
DWGPROPS COOKIE
  2

  3

  4

  6

  7

  8
TB24944
  9

300
=
301
=
302
=
303
=
304
=
305
=
306
=
307
=
308
=
309
=
 40
0.0
 41
2455965.592928
 42
2455965.592928
  1

 90
        0
  0
ENDSEC
  0
EOF
