  0
SECTION
  2
HEADER
  9
$ACADVER
  1
AC1015
  9
$ACADMAINTVER
 70
     6
  9
$DWGCODEPAGE
  3
ANSI_932
  9
$INSBASE
 10
0.0
 20
0.0
 30
0.0
  9
$EXTMIN
 10
1.000000E+20
 20
1.000000E+20
 30
1.000000E+20
  9
$EXTMAX
 10
-1.000000E+20
 20
-1.000000E+20
 30
-1.000000E+20
  9
$LIMMIN
 10
0.0
 20
0.0
  9
$LIMMAX
 10
0.0
 20
0.0
  9
$ORTHOMODE
 70
     0
  9
$REGENMODE
 70
     1
  9
$FILLMODE
 70
     1
  9
$QTEXTMODE
 70
     0
  9
$MIRRTEXT
 70
     1
  9
$LTSCALE
 40
1.0
  9
$ATTMODE
 70
     1
  9
$TEXTSIZE
 40
7.0
  9
$TRACEWID
 40
0.05
  9
$TEXTSTYLE
  7
Standard
  9
$CLAYER
  8
0
  9
$CELTYPE
  6
Continuous
  9
$CECOLOR
 62
   256
  9
$CELTSCALE
 40
1.0
  9
$DISPSILH
 70
     0
  9
$DIMSCALE
 40
1.0
  9
$DIMASZ
 40
1.931852
  9
$DIMEXO
 40
1.0
  9
$DIMDLI
 40
0.38
  9
$DIMRND
 40
0.0
  9
$DIMDLE
 40
0.0
  9
$DIMEXE
 40
2.0
  9
$DIMTP
 40
0.0
  9
$DIMTM
 40
0.0
  9
$DIMTXT
 40
2.8
  9
$DIMCEN
 40
0.09
  9
$DIMTSZ
 40
0.0
  9
$DIMTOL
 70
     0
  9
$DIMLIM
 70
     0
  9
$DIMTIH
 70
     1
  9
$DIMTOH
 70
     1
  9
$DIMSE1
 70
     0
  9
$DIMSE2
 70
     0
  9
$DIMTAD
 70
     1
  9
$DIMZIN
 70
     0
  9
$DIMBLK
  1

  9
$DIMASO
 70
     1
  9
$DIMSHO
 70
     1
  9
$DIMPOST
  1

  9
$DIMAPOST
  1

  9
$DIMALT
 70
     0
  9
$DIMALTD
 70
     2
  9
$DIMALTF
 40
25.4
  9
$DIMLFAC
 40
1.0
  9
$DIMTOFL
 70
     0
  9
$DIMTVP
 40
0.0
  9
$DIMTIX
 70
     0
  9
$DIMSOXD
 70
     0
  9
$DIMSAH
 70
     0
  9
$DIMBLK1
  1

  9
$DIMBLK2
  1

  9
$DIMSTYLE
  2
Standard
  9
$DIMCLRD
 70
     0
  9
$DIMCLRE
 70
     0
  9
$DIMCLRT
 70
     0
  9
$DIMTFAC
 40
0.714286
  9
$DIMGAP
 40
0.09
  9
$DIMJUST
 70
     0
  9
$DIMSD1
 70
     0
  9
$DIMSD2
 70
     0
  9
$DIMTOLJ
 70
     1
  9
$DIMTZIN
 70
     0
  9
$DIMALTZ
 70
     0
  9
$DIMALTTZ
 70
     0
  9
$DIMUPT
 70
     0
  9
$DIMDEC
 70
     4
  9
$DIMTDEC
 70
     4
  9
$DIMALTU
 70
     2
  9
$DIMALTTD
 70
     2
  9
$DIMTXSTY
  7
Standard
  9
$DIMAUNIT
 70
     0
  9
$DIMADEC
 70
     0
  9
$DIMALTRND
 40
0.0
  9
$DIMAZIN
 70
     0
  9
$DIMDSEP
 70
     0
  9
$DIMATFIT
 70
     3
  9
$DIMFRAC
 70
     0
  9
$DIMLDRBLK
  1

  9
$DIMLUNIT
 70
     2
  9
$DIMLWD
 70
     0
  9
$DIMLWE
 70
     0
  9
$DIMTMOVE
 70
     0
  9
$LUNITS
 70
     2
  9
$LUPREC
 70
     3
  9
$SKETCHINC
 40
0.1
  9
$FILLETRAD
 40
0.0
  9
$AUNITS
 70
     0
  9
$AUPREC
 70
     0
  9
$MENU
  1
acad
  9
$ELEVATION
 40
0.0
  9
$PELEVATION
 40
0.0
  9
$THICKNESS
 40
0.0
  9
$LIMCHECK
 70
     0
  9
$CHAMFERA
 40
0.0
  9
$CHAMFERB
 40
0.0
  9
$CHAMFERC
 40
0.0
  9
$CHAMFERD
 40
0.0
  9
$SKPOLY
 70
     0
  9
$TDCREATE
 40
0.000000000
  9
$TDUCREATE
 40
0.000000000
  9
$TDUPDATE
 40
0.000000000
  9
$TDUUPDATE
 40
0.000000000
  9
$TDINDWG
 40
0.0000000000
  9
$TDUSRTIMER
 40
0.0000000000
  9
$USRTIMER
 70
     1
  9
$ANGBASE
 50
0.0
  9
$ANGDIR
 70
     0
  9
$PDMODE
 70
     0
  9
$PDSIZE
 40
0.0
  9
$PLINEWID
 40
0.0
  9
$SPLFRAME
 70
     0
  9
$SPLINETYPE
 70
     6
  9
$SPLINESEGS
 70
     8
  9
$HANDSEED
  5
52A
  9
$SURFTAB1
 70
     6
  9
$SURFTAB2
 70
     6
  9
$SURFTYPE
 70
     6
  9
$SURFU
 70
     6
  9
$SURFV
 70
     6
  9
$UCSBASE
  2

  9
$UCSNAME
  2

  9
$UCSORG
 10
0.0
 20
0.0
 30
0.0
  9
$UCSXDIR
 10
1.0
 20
0.0
 30
0.0
  9
$UCSYDIR
 10
0.0
 20
1.0
 30
0.0
  9
$UCSORTHOREF
  2

  9
$UCSORTHOVIEW
 70
     0
  9
$UCSORGTOP
 10
0.0
 20
0.0
 30
0.0
  9
$UCSORGBOTTOM
 10
0.0
 20
0.0
 30
0.0
  9
$UCSORGLEFT
 10
0.0
 20
0.0
 30
0.0
  9
$UCSORGRIGHT
 10
0.0
 20
0.0
 30
0.0
  9
$UCSORGFRONT
 10
0.0
 20
0.0
 30
0.0
  9
$UCSORGBACK
 10
0.0
 20
0.0
 30
0.0
  9
$PUCSBASE
  2

  9
$PUCSNAME
  2

  9
$PUCSORG
 10
0.0
 20
0.0
 30
0.0
  9
$PUCSXDIR
 10
1.0
 20
0.0
 30
0.0
  9
$PUCSYDIR
 10
0.0
 20
1.0
 30
0.0
  9
$PUCSORTHOREF
  2

  9
$PUCSORTHOVIEW
 70
     0
  9
$PUCSORGTOP
 10
0.0
 20
0.0
 30
0.0
  9
$PUCSORGBOTTOM
 10
0.0
 20
0.0
 30
0.0
  9
$PUCSORGLEFT
 10
0.0
 20
0.0
 30
0.0
  9
$PUCSORGRIGHT
 10
0.0
 20
0.0
 30
0.0
  9
$PUCSORGFRONT
 10
0.0
 20
0.0
 30
0.0
  9
$PUCSORGBACK
 10
0.0
 20
0.0
 30
0.0
  9
$USERI1
 70
     0
  9
$USERI2
 70
     0
  9
$USERI3
 70
     0
  9
$USERI4
 70
     0
  9
$USERI5
 70
     0
  9
$USERR1
 40
0.0
  9
$USERR2
 40
0.0
  9
$USERR3
 40
0.0
  9
$USERR4
 40
0.0
  9
$USERR5
 40
0.0
  9
$WORLDVIEW
 70
     1
  9
$SHADEDGE
 70
     3
  9
$SHADEDIF
 70
    70
  9
$TILEMODE
 70
     1
  9
$MAXACTVP
 70
    16
  9
$PINSBASE
 10
0.0
 20
0.0
 30
0.0
  9
$PLIMCHECK
 70
     0
  9
$PEXTMIN
 10
1.000000E+20
 20
1.000000E+20
 30
1.000000E+20
  9
$PEXTMAX
 10
-1.000000E+20
 20
-1.000000E+20
 30
-1.000000E+20
  9
$PLIMMIN
 10
0.0
 20
0.0
  9
$PLIMMAX
 10
12.0
 20
9.0
  9
$UNITMODE
 70
     0
  9
$VISRETAIN
 70
     0
  9
$PLINEGEN
 70
     1
  9
$PSLTSCALE
 70
     0
  9
$TREEDEPTH
 70
  3020
  9
$CMLSTYLE
  2
Standard
  9
$CMLJUST
 70
     0
  9
$CMLSCALE
 40
1.0
  9
$PROXYGRAPHICS
 70
     0
  9
$MEASUREMENT
 70
     0
  9
$CELWEIGHT
370
     0
  9
$ENDCAPS
280
     0
  9
$JOINSTYLE
280
     0
  9
$LWDISPLAY
290
     0
  9
$INSUNITS
 70
     0
  9
$HYPERLINKBASE
  1

  9
$STYLESHEET
  1

  9
$XEDIT
290
     1
  9
$CEPSNTYPE
380
     0
  9
$PSTYLEMODE
290
     1
  9
$FINGERPRINTGUID
  2

  9
$VERSIONGUID
  2

  9
$EXTNAMES
290
     1
  9
$PSVPSCALE
 40
0.0
  0
ENDSEC
  0
SECTION
  2
CLASSES
  0
CLASS
  1
LWPOLYLINE
  2
AcDbPolyline
  3
AutoCAD 2000
 90
    32768
280
     0
281
     1
  0
CLASS
  1
IMAGE
  2
AcDbRasterImage
  3
ISM
 90
    32895
280
     0
281
     1
  0
CLASS
  1
OLE2FRAME
  2
AcDbOle2Frame
  3
AutoCAD 2000
 90
    32768
280
     0
281
     1
  0
CLASS
  1
HATCH
  2
AcDbHatch
  3
AutoCAD 2000
 90
    32768
280
     0
281
     1
  0
CLASS
  1
DICTIONARYVAR
  2
AcDbDictionaryVar
  3
AutoCAD 2000
 90
    32768
280
     0
281
     0
  0
CLASS
  1
RASTERVARIABLES
  2
AcDbRasterVariables
  3
ISM
 90
    32768
280
     0
281
     0
  0
CLASS
  1
IMAGEDEF
  2
AcDbRasterImageDef
  3
ISM
 90
    32768
280
     0
281
     0
  0
CLASS
  1
IMAGEDEF_REACTOR
  2
AcDbRasterImageDefReactor
  3
ISM
 90
    32769
280
     0
281
     0
  0
CLASS
  1
IDBUFFER
  2
AcDbIdBuffer
  3
AutoCAD 2000
 90
    32768
280
     0
281
     0
  0
CLASS
  1
SPATIAL_FILTER
  2
AcDbSpatialFilter
  3
AutoCAD 2000
 90
    32768
280
     0
281
     0
  0
CLASS
  1
XRECORD
  2
AcDbXrecord
  3
AutoCAD 2000
 90
        0
280
     0
281
     0
  0
CLASS
  1
SORTENTSTABLE
  2
AcDbSortentsTable
  3
AutoCAD 2000
 90
    32768
280
     0
281
     0
  0
CLASS
  1
LAYER_INDEX
  2
AcDbLayerIndex
  3
AutoCAD 2000
 90
    32768
280
     0
281
     0
  0
CLASS
  1
SPATIAL_INDEX
  2
AcDbSpatialIndex
  3
AutoCAD 2000
 90
    32768
280
     0
281
     0
  0
CLASS
  1
OBJECT_PTR
  2
CAseDLPNTableRecord
  3
"ASE-LPNTableRecord"
 90
    32769
280
     0
281
     0
  0
CLASS
  1
LAYOUT
  2
AcDbLayout
  3
AutoCAD 2000
 90
        0
280
     0
281
     0
  0
CLASS
  1
PLOTSETTINGS
  2
AcDbPlotSettings
  3
AutoCAD 2000
 90
    32768
280
     0
281
     0
  0
CLASS
  1
ACDBDICTIONARYWDFLT
  2
AcDbDictionaryWithDefault
  3
AutoCAD 2000
 90
        0
280
     0
281
     0
  0
CLASS
  1
ACDBPLACEHOLDER
  2
AcDbPlaceHolder
  3
AutoCAD 2000
 90
        0
280
     0
281
     0
  0
CLASS
  1
VBA_PROJECT
  2
AcDbVbaProject
  3
acadvba
 90
    32768
280
     0
281
     0
  0
CLASS
  1
WIPEOUT
  2
AcDbWipeout
  3
WipeOut|AutoCAD Express Tool|expresstools@autodesk.com
 90
    32895
280
     0
281
     1
  0
CLASS
  1
WIPEOUTVARIABLES
  2
AcDbWipeoutVariables
  3
WipeOut|AutoCAD Express Tool|expresstools@autodesk.com
 90
        0
280
     0
281
     0
  0
CLASS
  1
RTEXT
  2
RText
  3
RText|AutoCAD Express Tool|expresstools@autodesk.com
 90
    32768
280
     0
281
     1
  0
CLASS
  1
ARCALIGNEDTEXT
  2
AcDbArcAlignedText
  3
ATEXT|AutoCAD Express Tool|expresstools@autodesk.com
 90
    32768
280
     0
281
     1
  0
ENDSEC
  0
SECTION
  2
TABLES
  0
TABLE
  2
VPORT
  5
7
100
AcDbSymbolTable
 70
     1
  0
VPORT
  5
15
100
AcDbSymbolTableRecord
100
AcDbViewportTableRecord
  2
*ACTIVE
 70
     0
 10
0.0
 20
0.0
 11
1.0
 21
1.0
 12
0.0
 22
0.0
 13
0.0
 23
0.0
 14
1.0
 24
1.0
 15
0.0
 25
0.0
 16
0.0
 26
0.0
 36
1.0
 17
0.0
 27
0.0
 37
0.0
 40
100.0
 41
1.0
 42
50.0
 43
0.0
 44
0.0
 50
0.0
 51
0.0
 71
     0
 72
   100
 73
     1
 74
     1
 75
     0
 76
     0
 77
     0
 78
     0
281
     0
 65
     0
110
0.0
120
0.0
130
0.0
111
1.0
121
0.0
131
0.0
112
0.0
122
1.0
132
0.0
345
0
346
0
 79
     0
146
0.0
  0
ENDTAB
  0
TABLE
  2
LTYPE
  5
4
100
AcDbSymbolTable
 70
     7
  0
LTYPE
  5
11
100
AcDbSymbolTableRecord
100
AcDbLinetypeTableRecord
  2
ByBlock
 70
    64
  3

 72
    65
 73
     0
 40
0.0
  0
LTYPE
  5
12
100
AcDbSymbolTableRecord
100
AcDbLinetypeTableRecord
  2
ByLayer
 70
    64
  3

 72
    65
 73
     0
 40
0.0
  0
LTYPE
  5
13
100
AcDbSymbolTableRecord
100
AcDbLinetypeTableRecord
  2
Continuous
 70
    64
  3
Solid line
 72
    65
 73
     0
 40
0.0
  0
LTYPE
  5
24
100
AcDbSymbolTableRecord
100
AcDbLinetypeTableRecord
  2
DASHED
 70
    64
  3
Dashed __ __ __ __ __ __ __ __ __ __ __ __ __ _
 72
    65
 73
     2
 40
0.75
 49
0.5
 74
     0
 49
-0.25
 74
     0
  0
LTYPE
  5
25
100
AcDbSymbolTableRecord
100
AcDbLinetypeTableRecord
  2
CENTER
 70
    64
  3
Center ____ _ ____ _ ____ _ ____ _ ____ _ ____
 72
    65
 73
     4
 40
1.0
 49
0.5
 74
     0
 49
-0.25
 74
     0
 49
0.0
 74
     0
 49
-0.25
 74
     0
  0
LTYPE
  5
26
100
AcDbSymbolTableRecord
100
AcDbLinetypeTableRecord
  2
DIVIDE
 70
    64
  3
Divide ____ . . ____ . . ____ . . ____ . . ____
 72
    65
 73
     6
 40
1.25
 49
0.5
 74
     0
 49
-0.25
 74
     0
 49
0.0
 74
     0
 49
-0.25
 74
     0
 49
0.0
 74
     0
 49
-0.25
 74
     0
  0
LTYPE
  5
27
100
AcDbSymbolTableRecord
100
AcDbLinetypeTableRecord
  2
PHANTOM
 70
    64
  3
Phantom ______  __  __  ______  __  __  ______
 72
    65
 73
     6
 40
9.0
 49
4.3
 74
     0
 49
-0.7
 74
     0
 49
1.3
 74
     0
 49
-0.7
 74
     0
 49
1.3
 74
     0
 49
-0.7
 74
     0
  0
ENDTAB
  0
TABLE
  2
LAYER
  5
2
100
AcDbSymbolTable
 70
     3
  0
LAYER
  5
14
100
AcDbSymbolTableRecord
100
AcDbLayerTableRecord
  2
0
 70
    64
 62
    53
  6
Continuous
290
     1
370
    -3
390
1D
  0
LAYER
  5
28
100
AcDbSymbolTableRecord
100
AcDbLayerTableRecord
  2
3
 70
    64
 62
     4
  6
Continuous
290
     1
370
    -3
390
1D
  0
LAYER
  5
29
100
AcDbSymbolTableRecord
100
AcDbLayerTableRecord
  2
5
 70
    64
 62
   191
  6
Continuous
290
     1
370
    -3
390
1D
  0
ENDTAB
  0
TABLE
  2
STYLE
  5
3
100
AcDbSymbolTable
 70
     2
  0
STYLE
  5
17
100
AcDbSymbolTableRecord
100
AcDbTextStyleTableRecord
  2
Standard
 70
     0
 40
0.0
 41
1.0
 50
0.0
 71
     0
 42
0.0
  3
txt
  4

  0
STYLE
  5
188
100
AcDbSymbolTableRecord
100
AcDbTextStyleTableRecord
  2
ZU_SHPTB00001
 70
     0
 40
0.0
 41
1.0
 50
0.0
 71
     0
 42
0.0
  3
monotxt
  4
bigfont
  0
ENDTAB
  0
TABLE
  2
VIEW
  5
5
100
AcDbSymbolTable
 70
     0
  0
ENDTAB
  0
TABLE
  2
UCS
  5
6
100
AcDbSymbolTable
 70
     0
  0
ENDTAB
  0
TABLE
  2
APPID
  5
8
100
AcDbSymbolTable
 70
     1
  0
APPID
  5
16
100
AcDbSymbolTableRecord
100
AcDbRegAppTableRecord
  2
ACAD
 70
     0
  0
ENDTAB
  0
TABLE
  2
DIMSTYLE
  5
9
100
AcDbSymbolTable
 70
     1
100
AcDbDimStyleTable
 71
     0
  0
DIMSTYLE
105
18
100
AcDbSymbolTableRecord
100
AcDbDimStyleTableRecord
  2
Standard
 70
     0
  3

  4

 40
1.0
 41
0.18
 42
0.0625
 43
0.38
 44
0.18
 45
0.0
 46
0.0
 47
0.0
 48
0.0
 71
     0
 72
     0
 73
     1
 74
     1
 75
     0
 76
     0
 77
     0
 78
     0
 79
     0
140
0.18
141
0.09
142
0.0
143
25.4
144
1.0
145
0.0
146
1.0
147
0.09
148
0.0
170
     0
171
     2
172
     0
173
     0
174
     0
175
     0
176
     0
177
     0
178
     0
179
     0
271
     4
272
     4
273
     2
274
     2
275
     0
276
     0
277
     2
278
    46
279
     0
280
     0
281
     0
282
     0
283
     1
284
     0
285
     0
286
     0
288
     0
340
17
341
0
342
0
343
0
344
0
371
    -2
372
    -2
  0
ENDTAB
  0
TABLE
  2
BLOCK_RECORD
  5
1
100
AcDbSymbolTable
 70
    19
  0
BLOCK_RECORD
  5
A
100
AcDbSymbolTableRecord
100
AcDbBlockTableRecord
  2
*MODEL_SPACE
340
20
  0
BLOCK_RECORD
  5
B
100
AcDbSymbolTableRecord
100
AcDbBlockTableRecord
  2
*PAPER_SPACE
340
21
  0
BLOCK_RECORD
  5
4C
100
AcDbSymbolTableRecord
100
AcDbBlockTableRecord
  2
ZU_SYM_K__CAD_SYM_POO_SYM_N20_-1
340
0
102
{BLKREFS
331
57
102
}
  0
BLOCK_RECORD
  5
58
100
AcDbSymbolTableRecord
100
AcDbBlockTableRecord
  2
ZU_SYM_K__CAD_SYM_POO_SYM_N20_00001-1
340
0
102
{BLKREFS
331
63
102
}
  0
BLOCK_RECORD
  5
BC
100
AcDbSymbolTableRecord
100
AcDbBlockTableRecord
  2
ZU_SYM_C__ZUOU_AC_BLOCK_ZU_SYM__USERS_HOME_SYMBOL_STD_SYM_B01_00001-1_-1
340
0
102
{BLKREFS
331
CE
102
}
  0
BLOCK_RECORD
  5
CF
100
AcDbSymbolTableRecord
100
AcDbBlockTableRecord
  2
ZU_SYM_C__ZUOU_AC_BLOCK_ZU_SYM__USERS_HOME_SYMBOL_STD_SYM_B01_-1_-1
340
0
102
{BLKREFS
331
E1
102
}
  0
BLOCK_RECORD
  5
E2
100
AcDbSymbolTableRecord
100
AcDbBlockTableRecord
  2
ZU_SYM_C__ZUOU_AC_BLOCK_ZU_SYM__USERS_HOME_SYMBOL_STD_SYM_B01_00007-1_-1
340
0
102
{BLKREFS
331
F4
102
}
  0
BLOCK_RECORD
  5
F5
100
AcDbSymbolTableRecord
100
AcDbBlockTableRecord
  2
ZU_SYM_C__ZUOU_AC_BLOCK_ZU_SYM__USERS_HOME_SYMBOL_STD_SYM_B01_00006-1_-1
340
0
102
{BLKREFS
331
107
102
}
  0
BLOCK_RECORD
  5
17A
100
AcDbSymbolTableRecord
100
AcDbBlockTableRecord
  2
ZU_SYM_K__CAD_SYM_POO_SYM_P28_-1
340
0
102
{BLKREFS
331
187
102
}
  0
BLOCK_RECORD
  5
18D
100
AcDbSymbolTableRecord
100
AcDbBlockTableRecord
  2
ZU_SYM__USERS_HOME_SYMBOL_STD_SYM_B01_-1
340
0
102
{BLKREFS
331
19C
102
}
  0
BLOCK_RECORD
  5
19D
100
AcDbSymbolTableRecord
100
AcDbBlockTableRecord
  2
ZU_SYM__USERS_HOME_SYMBOL_STD_SYM_B01_00002-1
340
0
102
{BLKREFS
331
1AC
102
}
  0
BLOCK_RECORD
  5
25E
100
AcDbSymbolTableRecord
100
AcDbBlockTableRecord
  2
ZU_SYM__USERS_HOME_SYMBOL_POO_SYM_B20_-1
340
0
102
{BLKREFS
331
269
102
}
  0
BLOCK_RECORD
  5
26A
100
AcDbSymbolTableRecord
100
AcDbBlockTableRecord
  2
ZU_SYM__USERS_HOME_SYMBOL_POO_SYM_B20_00003-1
340
0
102
{BLKREFS
331
275
102
}
  0
BLOCK_RECORD
  5
2BE
100
AcDbSymbolTableRecord
100
AcDbBlockTableRecord
  2
ZU_SYM__USERS_HOME_SYMBOL_STD_SYM_B01_00004-1
340
0
102
{BLKREFS
331
2CD
102
}
  0
BLOCK_RECORD
  5
2CE
100
AcDbSymbolTableRecord
100
AcDbBlockTableRecord
  2
ZU_SYM__USERS_HOME_SYMBOL_STD_SYM_B01_00005-1
340
0
102
{BLKREFS
331
2DD
102
}
  0
BLOCK_RECORD
  5
300
100
AcDbSymbolTableRecord
100
AcDbBlockTableRecord
  2
ZU_SYM__USERS_HOME_SYMBOL_POO_SYM_B20_00006-1
340
0
102
{BLKREFS
331
30B
102
}
  0
BLOCK_RECORD
  5
30C
100
AcDbSymbolTableRecord
100
AcDbBlockTableRecord
  2
ZU_SYM__USERS_HOME_SYMBOL_POO_SYM_B20_00007-1
340
0
102
{BLKREFS
331
317
102
}
  0
BLOCK_RECORD
  5
4D1
100
AcDbSymbolTableRecord
100
AcDbBlockTableRecord
  2
ZU_SYM__USERS_HOME_SYMBOL_STD_SYM_B01_00008-1
340
0
102
{BLKREFS
331
4DC
102
}
  0
BLOCK_RECORD
  5
4DD
100
AcDbSymbolTableRecord
100
AcDbBlockTableRecord
  2
ZU_SYM__USERS_HOME_SYMBOL_STD_SYM_B01_00009-1
340
0
102
{BLKREFS
331
4E8
102
}
  0
BLOCK_RECORD
  5
4E9
100
AcDbSymbolTableRecord
100
AcDbBlockTableRecord
  2
ZU_SYM__USERS_HOME_SYMBOL_STD_SYM_B01_00010-1
340
0
102
{BLKREFS
331
4F4
102
}
  0
BLOCK_RECORD
  5
4F5
100
AcDbSymbolTableRecord
100
AcDbBlockTableRecord
  2
ZU_SYM__USERS_HOME_SYMBOL_STD_SYM_B01_00011-1
340
0
102
{BLKREFS
331
500
102
}
  0
ENDTAB
  0
ENDSEC
  0
SECTION
  2
BLOCKS
  0
BLOCK
  5
D
100
AcDbEntity
  8
0
100
AcDbBlockBegin
  2
*MODEL_SPACE
 70
     0
 10
0.0
 20
0.0
 30
0.0
  3
*MODEL_SPACE
  1

  0
ENDBLK
  5
E
100
AcDbEntity
  8
0
100
AcDbBlockEnd
  0
BLOCK
  5
F
100
AcDbEntity
 67
     1
  8
0
100
AcDbBlockBegin
  2
*PAPER_SPACE
 70
     0
 10
0.0
 20
0.0
 30
0.0
  3
*PAPER_SPACE
  1

  0
ENDBLK
  5
10
100
AcDbEntity
 67
     1
  8
0
100
AcDbBlockEnd
  0
BLOCK
  5
4D
100
AcDbEntity
  8
0
100
AcDbBlockBegin
  2
ZU_SYM_K__CAD_SYM_POO_SYM_N20_-1
 70
    64
 10
0.0
 20
0.0
 30
0.0
  3
ZU_SYM_K__CAD_SYM_POO_SYM_N20_-1
  1

  0
POINT
  5
4E
100
AcDbEntity
  8
0
370
    -3
  6
Continuous
100
AcDbPoint
 10
0.0
 20
0.0
 30
0.0
  0
LINE
  5
4F
100
AcDbEntity
  8
0
370
    -3
  6
Continuous
100
AcDbLine
 10
-2.300001
 20
-4.0
 30
0.0
 11
-4.6
 21
-0.000001
 31
0.0
  0
LINE
  5
50
100
AcDbEntity
  8
0
370
    -3
  6
Continuous
100
AcDbLine
 10
-4.6
 20
0.000001
 30
0.0
 11
-2.300001
 21
4.0
 31
0.0
  0
LINE
  5
51
100
AcDbEntity
  8
0
370
    -3
  6
Continuous
100
AcDbLine
 10
-2.299999
 20
4.0
 30
0.0
 11
2.299999
 21
4.0
 31
0.0
  0
LINE
  5
52
100
AcDbEntity
  8
0
370
    -3
  6
Continuous
100
AcDbLine
 10
2.300001
 20
4.0
 30
0.0
 11
4.6
 21
0.000001
 31
0.0
  0
LINE
  5
53
100
AcDbEntity
  8
0
370
    -3
  6
Continuous
100
AcDbLine
 10
4.6
 20
-0.000001
 30
0.0
 11
2.300001
 21
-4.0
 31
0.0
  0
LINE
  5
54
100
AcDbEntity
  8
0
370
    -3
  6
Continuous
100
AcDbLine
 10
2.299999
 20
-4.0
 30
0.0
 11
-2.299999
 21
-4.0
 31
0.0
  0
CIRCLE
  5
55
100
AcDbEntity
  8
0
370
    -3
  6
Continuous
100
AcDbCircle
 10
0.0
 20
0.0
 30
0.0
 40
4.0
  0
ENDBLK
  5
56
100
AcDbEntity
  8
0
100
AcDbBlockEnd
  0
BLOCK
  5
59
100
AcDbEntity
  8
0
100
AcDbBlockBegin
  2
ZU_SYM_K__CAD_SYM_POO_SYM_N20_00001-1
 70
    64
 10
0.0
 20
0.0
 30
0.0
  3
ZU_SYM_K__CAD_SYM_POO_SYM_N20_00001-1
  1

  0
POINT
  5
5A
100
AcDbEntity
  8
0
370
    -3
  6
Continuous
100
AcDbPoint
 10
0.0
 20
0.0
 30
0.0
  0
LINE
  5
5B
100
AcDbEntity
  8
0
370
    -3
  6
Continuous
100
AcDbLine
 10
-2.300001
 20
-4.0
 30
0.0
 11
-4.6
 21
-0.000001
 31
0.0
  0
LINE
  5
5C
100
AcDbEntity
  8
0
370
    -3
  6
Continuous
100
AcDbLine
 10
-4.6
 20
0.000001
 30
0.0
 11
-2.300001
 21
4.0
 31
0.0
  0
LINE
  5
5D
100
AcDbEntity
  8
0
370
    -3
  6
Continuous
100
AcDbLine
 10
-2.299999
 20
4.0
 30
0.0
 11
2.299999
 21
4.0
 31
0.0
  0
LINE
  5
5E
100
AcDbEntity
  8
0
370
    -3
  6
Continuous
100
AcDbLine
 10
2.300001
 20
4.0
 30
0.0
 11
4.6
 21
0.000001
 31
0.0
  0
LINE
  5
5F
100
AcDbEntity
  8
0
370
    -3
  6
Continuous
100
AcDbLine
 10
4.6
 20
-0.000001
 30
0.0
 11
2.300001
 21
-4.0
 31
0.0
  0
LINE
  5
60
100
AcDbEntity
  8
0
370
    -3
  6
Continuous
100
AcDbLine
 10
2.299999
 20
-4.0
 30
0.0
 11
-2.299999
 21
-4.0
 31
0.0
  0
CIRCLE
  5
61
100
AcDbEntity
  8
0
370
    -3
  6
Continuous
100
AcDbCircle
 10
0.0
 20
0.0
 30
0.0
 40
4.0
  0
ENDBLK
  5
62
100
AcDbEntity
  8
0
100
AcDbBlockEnd
  0
BLOCK
  5
BD
100
AcDbEntity
  8
0
100
AcDbBlockBegin
  2
ZU_SYM_C__ZUOU_AC_BLOCK_ZU_SYM__USERS_HOME_SYMBOL_STD_SYM_B01_00001-1_-1
 70
    64
 10
0.0
 20
0.0
 30
0.0
  3
ZU_SYM_C__ZUOU_AC_BLOCK_ZU_SYM__USERS_HOME_SYMBOL_STD_SYM_B01_00001-1_-1
  1

  0
POINT
  5
BE
100
AcDbEntity
  8
0
370
    -3
  6
Continuous
100
AcDbPoint
 10
0.0
 20
0.0
 30
0.0
  0
LINE
  5
BF
100
AcDbEntity
  8
0
370
    -3
  6
Continuous
100
AcDbLine
 10
-0.000025
 20
-4.599994
 30
0.0
 11
-4.300015
 21
-4.599977
 31
0.0
  0
LINE
  5
C0
100
AcDbEntity
  8
0
370
    -3
  6
Continuous
100
AcDbLine
 10
-4.299996
 20
-4.599962
 30
0.0
 11
-4.79999
 21
-3.899959
 31
0.0
  0
LINE
  5
C1
100
AcDbEntity
  8
0
370
    -3
  6
Continuous
100
AcDbLine
 10
-4.80001
 20
-3.899973
 30
0.0
 11
-4.799979
 21
3.900012
 31
0.0
  0
LINE
  5
C2
100
AcDbEntity
  8
0
370
    -3
  6
Continuous
100
AcDbLine
 10
-4.799962
 20
3.900001
 30
0.0
 11
-4.299962
 21
4.599999
 31
0.0
  0
LINE
  5
C3
100
AcDbEntity
  8
0
370
    -3
  6
Continuous
100
AcDbLine
 10
-4.299978
 20
4.600015
 30
0.0
 11
0.000013
 21
4.599998
 31
0.0
  0
LINE
  5
C4
100
AcDbEntity
  8
0
370
    -3
  6
Continuous
100
AcDbLine
 10
0.000016
 20
4.599992
 30
0.0
 11
-0.000021
 21
-4.599992
 31
0.0
  0
LINE
  5
C5
100
AcDbEntity
  8
0
370
    -3
  6
Continuous
100
AcDbLine
 10
-4.300006
 20
-2.29998
 30
0.0
 11
-1.300007
 21
-2.299992
 31
0.0
  0
LINE
  5
C6
100
AcDbEntity
  8
0
370
    -3
  6
Continuous
100
AcDbLine
 10
-4.299987
 20
2.300014
 30
0.0
 11
-1.29999
 21
2.300004
 31
0.0
  0
ARC
  5
C7
100
AcDbEntity
  8
0
370
    -3
  6
Continuous
100
AcDbCircle
 10
-3.230014
 20
-3.449986
 30
0.0
 40
1.57
100
AcDbArc
 50
132.899744
 51
179.999745
  0
ARC
  5
C8
100
AcDbEntity
  8
0
370
    -3
  6
Continuous
100
AcDbCircle
 10
-3.229986
 20
3.450012
 30
0.0
 40
1.57
100
AcDbArc
 50
179.999745
 51
227.099746
  0
ARC
  5
C9
100
AcDbEntity
  8
0
370
    -3
  6
Continuous
100
AcDbCircle
 10
0.740001
 20
-0.000003
 30
0.0
 40
5.539999
100
AcDbArc
 50
155.470187
 51
204.52925
  0
LINE
  5
CA
100
AcDbEntity
  8
0
370
    -3
  6
Continuous
100
AcDbLine
 10
-1.300018
 20
-4.599993
 30
0.0
 11
-1.299981
 21
4.600004
 31
0.0
  0
LINE
  5
CB
100
AcDbEntity
  8
0
370
    -3
  6
Continuous
100
AcDbLine
 10
-1.3
 20
-0.299995
 30
0.0
 11
-0.000004
 21
-0.000001
 31
0.0
  0
LINE
  5
CC
100
AcDbEntity
  8
0
370
    -3
  6
Continuous
100
AcDbLine
 10
-1.299999
 20
0.300007
 30
0.0
 11
-0.000001
 21
0.600002
 31
0.0
  0
ENDBLK
  5
CD
100
AcDbEntity
  8
0
100
AcDbBlockEnd
  0
BLOCK
  5
D0
100
AcDbEntity
  8
0
100
AcDbBlockBegin
  2
ZU_SYM_C__ZUOU_AC_BLOCK_ZU_SYM__USERS_HOME_SYMBOL_STD_SYM_B01_-1_-1
 70
    64
 10
0.0
 20
0.0
 30
0.0
  3
ZU_SYM_C__ZUOU_AC_BLOCK_ZU_SYM__USERS_HOME_SYMBOL_STD_SYM_B01_-1_-1
  1

  0
POINT
  5
D1
100
AcDbEntity
  8
0
370
    -3
  6
Continuous
100
AcDbPoint
 10
0.0
 20
0.0
 30
0.0
  0
LINE
  5
D2
100
AcDbEntity
  8
0
370
    -3
  6
Continuous
100
AcDbLine
 10
-0.000025
 20
-4.599994
 30
0.0
 11
-4.300015
 21
-4.599977
 31
0.0
  0
LINE
  5
D3
100
AcDbEntity
  8
0
370
    -3
  6
Continuous
100
AcDbLine
 10
-4.299996
 20
-4.599962
 30
0.0
 11
-4.79999
 21
-3.899959
 31
0.0
  0
LINE
  5
D4
100
AcDbEntity
  8
0
370
    -3
  6
Continuous
100
AcDbLine
 10
-4.80001
 20
-3.899973
 30
0.0
 11
-4.799979
 21
3.900012
 31
0.0
  0
LINE
  5
D5
100
AcDbEntity
  8
0
370
    -3
  6
Continuous
100
AcDbLine
 10
-4.799962
 20
3.900001
 30
0.0
 11
-4.299962
 21
4.599999
 31
0.0
  0
LINE
  5
D6
100
AcDbEntity
  8
0
370
    -3
  6
Continuous
100
AcDbLine
 10
-4.299978
 20
4.600015
 30
0.0
 11
0.000013
 21
4.599998
 31
0.0
  0
LINE
  5
D7
100
AcDbEntity
  8
0
370
    -3
  6
Continuous
100
AcDbLine
 10
0.000016
 20
4.599992
 30
0.0
 11
-0.000021
 21
-4.599992
 31
0.0
  0
LINE
  5
D8
100
AcDbEntity
  8
0
370
    -3
  6
Continuous
100
AcDbLine
 10
-4.300006
 20
-2.29998
 30
0.0
 11
-1.300007
 21
-2.299992
 31
0.0
  0
LINE
  5
D9
100
AcDbEntity
  8
0
370
    -3
  6
Continuous
100
AcDbLine
 10
-4.299987
 20
2.300014
 30
0.0
 11
-1.29999
 21
2.300004
 31
0.0
  0
ARC
  5
DA
100
AcDbEntity
  8
0
370
    -3
  6
Continuous
100
AcDbCircle
 10
-3.230014
 20
-3.449986
 30
0.0
 40
1.57
100
AcDbArc
 50
132.899744
 51
179.999745
  0
ARC
  5
DB
100
AcDbEntity
  8
0
370
    -3
  6
Continuous
100
AcDbCircle
 10
-3.229986
 20
3.450012
 30
0.0
 40
1.57
100
AcDbArc
 50
179.999745
 51
227.099746
  0
ARC
  5
DC
100
AcDbEntity
  8
0
370
    -3
  6
Continuous
100
AcDbCircle
 10
0.740001
 20
-0.000003
 30
0.0
 40
5.539999
100
AcDbArc
 50
155.470187
 51
204.52925
  0
LINE
  5
DD
100
AcDbEntity
  8
0
370
    -3
  6
Continuous
100
AcDbLine
 10
-1.300018
 20
-4.599993
 30
0.0
 11
-1.299981
 21
4.600004
 31
0.0
  0
LINE
  5
DE
100
AcDbEntity
  8
0
370
    -3
  6
Continuous
100
AcDbLine
 10
-1.3
 20
-0.299995
 30
0.0
 11
-0.000004
 21
-0.000001
 31
0.0
  0
LINE
  5
DF
100
AcDbEntity
  8
0
370
    -3
  6
Continuous
100
AcDbLine
 10
-1.299999
 20
0.300007
 30
0.0
 11
-0.000001
 21
0.600002
 31
0.0
  0
ENDBLK
  5
E0
100
AcDbEntity
  8
0
100
AcDbBlockEnd
  0
BLOCK
  5
E3
100
AcDbEntity
  8
0
100
AcDbBlockBegin
  2
ZU_SYM_C__ZUOU_AC_BLOCK_ZU_SYM__USERS_HOME_SYMBOL_STD_SYM_B01_00007-1_-1
 70
    64
 10
0.0
 20
0.0
 30
0.0
  3
ZU_SYM_C__ZUOU_AC_BLOCK_ZU_SYM__USERS_HOME_SYMBOL_STD_SYM_B01_00007-1_-1
  1

  0
POINT
  5
E4
100
AcDbEntity
  8
0
370
    -3
  6
Continuous
100
AcDbPoint
 10
0.0
 20
0.0
 30
0.0
  0
LINE
  5
E5
100
AcDbEntity
  8
0
370
    -3
  6
Continuous
100
AcDbLine
 10
-0.000025
 20
-4.599994
 30
0.0
 11
-4.300015
 21
-4.599977
 31
0.0
  0
LINE
  5
E6
100
AcDbEntity
  8
0
370
    -3
  6
Continuous
100
AcDbLine
 10
-4.299996
 20
-4.599962
 30
0.0
 11
-4.79999
 21
-3.899959
 31
0.0
  0
LINE
  5
E7
100
AcDbEntity
  8
0
370
    -3
  6
Continuous
100
AcDbLine
 10
-4.80001
 20
-3.899973
 30
0.0
 11
-4.799979
 21
3.900012
 31
0.0
  0
LINE
  5
E8
100
AcDbEntity
  8
0
370
    -3
  6
Continuous
100
AcDbLine
 10
-4.799962
 20
3.900001
 30
0.0
 11
-4.299962
 21
4.599999
 31
0.0
  0
LINE
  5
E9
100
AcDbEntity
  8
0
370
    -3
  6
Continuous
100
AcDbLine
 10
-4.299978
 20
4.600015
 30
0.0
 11
0.000013
 21
4.599998
 31
0.0
  0
LINE
  5
EA
100
AcDbEntity
  8
0
370
    -3
  6
Continuous
100
AcDbLine
 10
0.000016
 20
4.599992
 30
0.0
 11
-0.000021
 21
-4.599992
 31
0.0
  0
LINE
  5
EB
100
AcDbEntity
  8
0
370
    -3
  6
Continuous
100
AcDbLine
 10
-4.300006
 20
-2.29998
 30
0.0
 11
-1.300007
 21
-2.299992
 31
0.0
  0
LINE
  5
EC
100
AcDbEntity
  8
0
370
    -3
  6
Continuous
100
AcDbLine
 10
-4.299987
 20
2.300014
 30
0.0
 11
-1.29999
 21
2.300004
 31
0.0
  0
ARC
  5
ED
100
AcDbEntity
  8
0
370
    -3
  6
Continuous
100
AcDbCircle
 10
-3.230014
 20
-3.449986
 30
0.0
 40
1.57
100
AcDbArc
 50
132.899744
 51
179.999745
  0
ARC
  5
EE
100
AcDbEntity
  8
0
370
    -3
  6
Continuous
100
AcDbCircle
 10
-3.229986
 20
3.450012
 30
0.0
 40
1.57
100
AcDbArc
 50
179.999745
 51
227.099746
  0
ARC
  5
EF
100
AcDbEntity
  8
0
370
    -3
  6
Continuous
100
AcDbCircle
 10
0.740001
 20
-0.000003
 30
0.0
 40
5.539999
100
AcDbArc
 50
155.470187
 51
204.52925
  0
LINE
  5
F0
100
AcDbEntity
  8
0
370
    -3
  6
Continuous
100
AcDbLine
 10
-1.300018
 20
-4.599993
 30
0.0
 11
-1.299981
 21
4.600004
 31
0.0
  0
LINE
  5
F1
100
AcDbEntity
  8
0
370
    -3
  6
Continuous
100
AcDbLine
 10
-1.3
 20
-0.299995
 30
0.0
 11
-0.000004
 21
-0.000001
 31
0.0
  0
LINE
  5
F2
100
AcDbEntity
  8
0
370
    -3
  6
Continuous
100
AcDbLine
 10
-1.299999
 20
0.300007
 30
0.0
 11
-0.000001
 21
0.600002
 31
0.0
  0
ENDBLK
  5
F3
100
AcDbEntity
  8
0
100
AcDbBlockEnd
  0
BLOCK
  5
F6
100
AcDbEntity
  8
0
100
AcDbBlockBegin
  2
ZU_SYM_C__ZUOU_AC_BLOCK_ZU_SYM__USERS_HOME_SYMBOL_STD_SYM_B01_00006-1_-1
 70
    64
 10
0.0
 20
0.0
 30
0.0
  3
ZU_SYM_C__ZUOU_AC_BLOCK_ZU_SYM__USERS_HOME_SYMBOL_STD_SYM_B01_00006-1_-1
  1

  0
POINT
  5
F7
100
AcDbEntity
  8
0
370
    -3
  6
Continuous
100
AcDbPoint
 10
0.0
 20
0.0
 30
0.0
  0
LINE
  5
F8
100
AcDbEntity
  8
0
370
    -3
  6
Continuous
100
AcDbLine
 10
-0.000025
 20
-4.599994
 30
0.0
 11
-4.300015
 21
-4.599977
 31
0.0
  0
LINE
  5
F9
100
AcDbEntity
  8
0
370
    -3
  6
Continuous
100
AcDbLine
 10
-4.299996
 20
-4.599962
 30
0.0
 11
-4.79999
 21
-3.899959
 31
0.0
  0
LINE
  5
FA
100
AcDbEntity
  8
0
370
    -3
  6
Continuous
100
AcDbLine
 10
-4.80001
 20
-3.899973
 30
0.0
 11
-4.799979
 21
3.900012
 31
0.0
  0
LINE
  5
FB
100
AcDbEntity
  8
0
370
    -3
  6
Continuous
100
AcDbLine
 10
-4.799962
 20
3.900001
 30
0.0
 11
-4.299962
 21
4.599999
 31
0.0
  0
LINE
  5
FC
100
AcDbEntity
  8
0
370
    -3
  6
Continuous
100
AcDbLine
 10
-4.299978
 20
4.600015
 30
0.0
 11
0.000013
 21
4.599998
 31
0.0
  0
LINE
  5
FD
100
AcDbEntity
  8
0
370
    -3
  6
Continuous
100
AcDbLine
 10
0.000016
 20
4.599992
 30
0.0
 11
-0.000021
 21
-4.599992
 31
0.0
  0
LINE
  5
FE
100
AcDbEntity
  8
0
370
    -3
  6
Continuous
100
AcDbLine
 10
-4.300006
 20
-2.29998
 30
0.0
 11
-1.300007
 21
-2.299992
 31
0.0
  0
LINE
  5
FF
100
AcDbEntity
  8
0
370
    -3
  6
Continuous
100
AcDbLine
 10
-4.299987
 20
2.300014
 30
0.0
 11
-1.29999
 21
2.300004
 31
0.0
  0
ARC
  5
100
100
AcDbEntity
  8
0
370
    -3
  6
Continuous
100
AcDbCircle
 10
-3.230014
 20
-3.449986
 30
0.0
 40
1.57
100
AcDbArc
 50
132.899744
 51
179.999745
  0
ARC
  5
101
100
AcDbEntity
  8
0
370
    -3
  6
Continuous
100
AcDbCircle
 10
-3.229986
 20
3.450012
 30
0.0
 40
1.57
100
AcDbArc
 50
179.999745
 51
227.099746
  0
ARC
  5
102
100
AcDbEntity
  8
0
370
    -3
  6
Continuous
100
AcDbCircle
 10
0.740001
 20
-0.000003
 30
0.0
 40
5.539999
100
AcDbArc
 50
155.470187
 51
204.52925
  0
LINE
  5
103
100
AcDbEntity
  8
0
370
    -3
  6
Continuous
100
AcDbLine
 10
-1.300018
 20
-4.599993
 30
0.0
 11
-1.299981
 21
4.600004
 31
0.0
  0
LINE
  5
104
100
AcDbEntity
  8
0
370
    -3
  6
Continuous
100
AcDbLine
 10
-1.3
 20
-0.299995
 30
0.0
 11
-0.000004
 21
-0.000001
 31
0.0
  0
LINE
  5
105
100
AcDbEntity
  8
0
370
    -3
  6
Continuous
100
AcDbLine
 10
-1.299999
 20
0.300007
 30
0.0
 11
-0.000001
 21
0.600002
 31
0.0
  0
ENDBLK
  5
106
100
AcDbEntity
  8
0
100
AcDbBlockEnd
  0
BLOCK
  5
17B
100
AcDbEntity
  8
0
100
AcDbBlockBegin
  2
ZU_SYM_K__CAD_SYM_POO_SYM_P28_-1
 70
    64
 10
0.0
 20
0.0
 30
0.0
  3
ZU_SYM_K__CAD_SYM_POO_SYM_P28_-1
  1

  0
LINE
  5
17C
100
AcDbEntity
  8
0
370
    -3
  6
Continuous
100
AcDbLine
 10
-3.983716
 20
2.300001
 30
0.0
 11
-3.983716
 21
0.0
 31
0.0
  0
LINE
  5
17D
100
AcDbEntity
  8
0
370
    -3
  6
Continuous
100
AcDbLine
 10
-3.983716
 20
-2.300001
 30
0.0
 11
-3.983716
 21
0.0
 31
0.0
  0
LINE
  5
17E
100
AcDbEntity
  8
0
370
    -3
  6
Continuous
100
AcDbLine
 10
3.983717
 20
2.300002
 30
0.0
 11
3.983717
 21
0.0
 31
0.0
  0
LINE
  5
17F
100
AcDbEntity
  8
0
370
    -3
  6
Continuous
100
AcDbLine
 10
3.983717
 20
-2.300002
 30
0.0
 11
3.983717
 21
0.0
 31
0.0
  0
LINE
  5
180
100
AcDbEntity
  8
0
370
    -3
  6
Continuous
100
AcDbLine
 10
0.0
 20
4.6
 30
0.0
 11
-3.983716
 21
2.300001
 31
0.0
  0
LINE
  5
181
100
AcDbEntity
  8
0
370
    -3
  6
Continuous
100
AcDbLine
 10
0.000001
 20
-4.6
 30
0.0
 11
-3.983717
 21
-2.300001
 31
0.0
  0
LINE
  5
182
100
AcDbEntity
  8
0
370
    -3
  6
Continuous
100
AcDbLine
 10
0.000001
 20
4.6
 30
0.0
 11
3.983717
 21
2.300002
 31
0.0
  0
LINE
  5
183
100
AcDbEntity
  8
0
370
    -3
  6
Continuous
100
AcDbLine
 10
0.000001
 20
-4.6
 30
0.0
 11
3.983717
 21
-2.300002
 31
0.0
  0
POINT
  5
184
100
AcDbEntity
  8
0
370
    -3
  6
Continuous
100
AcDbPoint
 10
0.0
 20
0.0
 30
0.0
  0
CIRCLE
  5
185
100
AcDbEntity
  8
0
370
    -3
  6
Continuous
100
AcDbCircle
 10
0.0
 20
0.0
 30
0.0
 40
8.5
  0
ENDBLK
  5
186
100
AcDbEntity
  8
0
100
AcDbBlockEnd
  0
BLOCK
  5
18E
100
AcDbEntity
  8
0
100
AcDbBlockBegin
  2
ZU_SYM__USERS_HOME_SYMBOL_STD_SYM_B01_-1
 70
    64
 10
0.0
 20
0.0
 30
0.0
  3
ZU_SYM__USERS_HOME_SYMBOL_STD_SYM_B01_-1
  1

  0
POINT
  5
18F
100
AcDbEntity
  8
0
370
    -3
  6
Continuous
100
AcDbPoint
 10
0.0
 20
0.0
 30
0.0
  0
LINE
  5
190
100
AcDbEntity
  8
0
370
    -3
  6
Continuous
100
AcDbLine
 10
-0.000018
 20
-4.599998
 30
0.0
 11
-3.000017
 21
-4.599986
 31
0.0
  0
LINE
  5
191
100
AcDbEntity
  8
0
370
    -3
  6
Continuous
100
AcDbLine
 10
-2.999996
 20
-4.59997
 30
0.0
 11
-3.499991
 21
-3.899967
 31
0.0
  0
LINE
  5
192
100
AcDbEntity
  8
0
370
    -3
  6
Continuous
100
AcDbLine
 10
-3.500012
 20
-3.89998
 30
0.0
 11
-3.49998
 21
3.90001
 31
0.0
  0
LINE
  5
193
100
AcDbEntity
  8
0
370
    -3
  6
Continuous
100
AcDbLine
 10
-3.499965
 20
3.9
 30
0.0
 11
-2.999964
 21
4.599998
 31
0.0
  0
LINE
  5
194
100
AcDbEntity
  8
0
370
    -3
  6
Continuous
100
AcDbLine
 10
-2.999979
 20
4.600012
 30
0.0
 11
0.000019
 21
4.600001
 31
0.0
  0
LINE
  5
195
100
AcDbEntity
  8
0
370
    -3
  6
Continuous
100
AcDbLine
 10
0.000019
 20
4.6
 30
0.0
 11
-0.000019
 21
-4.6
 31
0.0
  0
LINE
  5
196
100
AcDbEntity
  8
0
370
    -3
  6
Continuous
100
AcDbLine
 10
-3.000008
 20
-2.299986
 30
0.0
 11
-0.000008
 21
-2.299998
 31
0.0
  0
LINE
  5
197
100
AcDbEntity
  8
0
370
    -3
  6
Continuous
100
AcDbLine
 10
-2.999989
 20
2.300011
 30
0.0
 11
0.000009
 21
2.3
 31
0.0
  0
ARC
  5
198
100
AcDbEntity
  8
0
370
    -3
  6
Continuous
100
AcDbCircle
 10
-1.930014
 20
-3.449991
 30
0.0
 40
1.57
100
AcDbArc
 50
132.899744
 51
179.999745
  0
ARC
  5
199
100
AcDbEntity
  8
0
370
    -3
  6
Continuous
100
AcDbCircle
 10
-1.929986
 20
3.450007
 30
0.0
 40
1.57
100
AcDbArc
 50
179.999745
 51
227.099746
  0
ARC
  5
19A
100
AcDbEntity
  8
0
370
    -3
  6
Continuous
100
AcDbCircle
 10
2.040001
 20
-0.000008
 30
0.0
 40
5.539999
100
AcDbArc
 50
155.470187
 51
204.52925
  0
ENDBLK
  5
19B
100
AcDbEntity
  8
0
100
AcDbBlockEnd
  0
BLOCK
  5
19E
100
AcDbEntity
  8
0
100
AcDbBlockBegin
  2
ZU_SYM__USERS_HOME_SYMBOL_STD_SYM_B01_00002-1
 70
    64
 10
0.0
 20
0.0
 30
0.0
  3
ZU_SYM__USERS_HOME_SYMBOL_STD_SYM_B01_00002-1
  1

  0
POINT
  5
19F
100
AcDbEntity
  8
0
370
    -3
  6
Continuous
100
AcDbPoint
 10
0.0
 20
0.0
 30
0.0
  0
LINE
  5
1A0
100
AcDbEntity
  8
0
370
    -3
  6
Continuous
100
AcDbLine
 10
-0.000018
 20
-4.599998
 30
0.0
 11
-3.000017
 21
-4.599986
 31
0.0
  0
LINE
  5
1A1
100
AcDbEntity
  8
0
370
    -3
  6
Continuous
100
AcDbLine
 10
-2.999996
 20
-4.59997
 30
0.0
 11
-3.499991
 21
-3.899967
 31
0.0
  0
LINE
  5
1A2
100
AcDbEntity
  8
0
370
    -3
  6
Continuous
100
AcDbLine
 10
-3.500012
 20
-3.89998
 30
0.0
 11
-3.49998
 21
3.90001
 31
0.0
  0
LINE
  5
1A3
100
AcDbEntity
  8
0
370
    -3
  6
Continuous
100
AcDbLine
 10
-3.499965
 20
3.9
 30
0.0
 11
-2.999964
 21
4.599998
 31
0.0
  0
LINE
  5
1A4
100
AcDbEntity
  8
0
370
    -3
  6
Continuous
100
AcDbLine
 10
-2.999979
 20
4.600012
 30
0.0
 11
0.000019
 21
4.600001
 31
0.0
  0
LINE
  5
1A5
100
AcDbEntity
  8
0
370
    -3
  6
Continuous
100
AcDbLine
 10
0.000019
 20
4.6
 30
0.0
 11
-0.000019
 21
-4.6
 31
0.0
  0
LINE
  5
1A6
100
AcDbEntity
  8
0
370
    -3
  6
Continuous
100
AcDbLine
 10
-3.000008
 20
-2.299986
 30
0.0
 11
-0.000008
 21
-2.299998
 31
0.0
  0
LINE
  5
1A7
100
AcDbEntity
  8
0
370
    -3
  6
Continuous
100
AcDbLine
 10
-2.999989
 20
2.300011
 30
0.0
 11
0.000009
 21
2.3
 31
0.0
  0
ARC
  5
1A8
100
AcDbEntity
  8
0
370
    -3
  6
Continuous
100
AcDbCircle
 10
-1.930014
 20
-3.449991
 30
0.0
 40
1.57
100
AcDbArc
 50
132.899744
 51
179.999745
  0
ARC
  5
1A9
100
AcDbEntity
  8
0
370
    -3
  6
Continuous
100
AcDbCircle
 10
-1.929986
 20
3.450007
 30
0.0
 40
1.57
100
AcDbArc
 50
179.999745
 51
227.099746
  0
ARC
  5
1AA
100
AcDbEntity
  8
0
370
    -3
  6
Continuous
100
AcDbCircle
 10
2.040001
 20
-0.000008
 30
0.0
 40
5.539999
100
AcDbArc
 50
155.470187
 51
204.52925
  0
ENDBLK
  5
1AB
100
AcDbEntity
  8
0
100
AcDbBlockEnd
  0
BLOCK
  5
25F
100
AcDbEntity
  8
0
100
AcDbBlockBegin
  2
ZU_SYM__USERS_HOME_SYMBOL_POO_SYM_B20_-1
 70
    64
 10
0.0
 20
0.0
 30
0.0
  3
ZU_SYM__USERS_HOME_SYMBOL_POO_SYM_B20_-1
  1

  0
CIRCLE
  5
260
100
AcDbEntity
  8
0
370
    -3
  6
Continuous
100
AcDbCircle
 10
0.0
 20
0.0
 30
0.0
 40
5.0
  0
POINT
  5
261
100
AcDbEntity
  8
0
370
    -3
  6
Continuous
100
AcDbPoint
 10
0.0
 20
0.0
 30
0.0
  0
LINE
  5
262
100
AcDbEntity
  8
0
370
    -3
  6
Continuous
100
AcDbLine
 10
-2.499998
 20
-1.443372
 30
0.0
 11
-2.499999
 21
1.443378
 31
0.0
  0
LINE
  5
263
100
AcDbEntity
  8
0
370
    -3
  6
Continuous
100
AcDbLine
 10
2.499998
 20
1.443372
 30
0.0
 11
2.499999
 21
-1.443374
 31
0.0
  0
LINE
  5
264
100
AcDbEntity
  8
0
370
    -3
  6
Continuous
100
AcDbLine
 10
0.000005
 20
2.886749
 30
0.0
 11
2.499999
 21
1.443372
 31
0.0
  0
LINE
  5
265
100
AcDbEntity
  8
0
370
    -3
  6
Continuous
100
AcDbLine
 10
-0.000006
 20
-2.886747
 30
0.0
 11
-2.499998
 21
-1.443372
 31
0.0
  0
LINE
  5
266
100
AcDbEntity
  8
0
370
    -3
  6
Continuous
100
AcDbLine
 10
0.000005
 20
2.886748
 30
0.0
 11
-2.5
 21
1.443377
 31
0.0
  0
LINE
  5
267
100
AcDbEntity
  8
0
370
    -3
  6
Continuous
100
AcDbLine
 10
2.499999
 20
-1.443374
 30
0.0
 11
-0.000005
 21
-2.886748
 31
0.0
  0
ENDBLK
  5
268
100
AcDbEntity
  8
0
100
AcDbBlockEnd
  0
BLOCK
  5
26B
100
AcDbEntity
  8
0
100
AcDbBlockBegin
  2
ZU_SYM__USERS_HOME_SYMBOL_POO_SYM_B20_00003-1
 70
    64
 10
0.0
 20
0.0
 30
0.0
  3
ZU_SYM__USERS_HOME_SYMBOL_POO_SYM_B20_00003-1
  1

  0
CIRCLE
  5
26C
100
AcDbEntity
  8
0
370
    -3
  6
Continuous
100
AcDbCircle
 10
0.0
 20
0.0
 30
0.0
 40
5.0
  0
POINT
  5
26D
100
AcDbEntity
  8
0
370
    -3
  6
Continuous
100
AcDbPoint
 10
0.0
 20
0.0
 30
0.0
  0
LINE
  5
26E
100
AcDbEntity
  8
0
370
    -3
  6
Continuous
100
AcDbLine
 10
-2.499998
 20
-1.443372
 30
0.0
 11
-2.499999
 21
1.443378
 31
0.0
  0
LINE
  5
26F
100
AcDbEntity
  8
0
370
    -3
  6
Continuous
100
AcDbLine
 10
2.499998
 20
1.443372
 30
0.0
 11
2.499999
 21
-1.443374
 31
0.0
  0
LINE
  5
270
100
AcDbEntity
  8
0
370
    -3
  6
Continuous
100
AcDbLine
 10
0.000005
 20
2.886749
 30
0.0
 11
2.499999
 21
1.443372
 31
0.0
  0
LINE
  5
271
100
AcDbEntity
  8
0
370
    -3
  6
Continuous
100
AcDbLine
 10
-0.000006
 20
-2.886747
 30
0.0
 11
-2.499998
 21
-1.443372
 31
0.0
  0
LINE
  5
272
100
AcDbEntity
  8
0
370
    -3
  6
Continuous
100
AcDbLine
 10
0.000005
 20
2.886748
 30
0.0
 11
-2.5
 21
1.443377
 31
0.0
  0
LINE
  5
273
100
AcDbEntity
  8
0
370
    -3
  6
Continuous
100
AcDbLine
 10
2.499999
 20
-1.443374
 30
0.0
 11
-0.000005
 21
-2.886748
 31
0.0
  0
ENDBLK
  5
274
100
AcDbEntity
  8
0
100
AcDbBlockEnd
  0
BLOCK
  5
2BF
100
AcDbEntity
  8
0
100
AcDbBlockBegin
  2
ZU_SYM__USERS_HOME_SYMBOL_STD_SYM_B01_00004-1
 70
    64
 10
0.0
 20
0.0
 30
0.0
  3
ZU_SYM__USERS_HOME_SYMBOL_STD_SYM_B01_00004-1
  1

  0
POINT
  5
2C0
100
AcDbEntity
  8
0
370
    -3
  6
Continuous
100
AcDbPoint
 10
0.0
 20
0.0
 30
0.0
  0
LINE
  5
2C1
100
AcDbEntity
  8
0
370
    -3
  6
Continuous
100
AcDbLine
 10
-0.000018
 20
-4.599998
 30
0.0
 11
-3.000017
 21
-4.599986
 31
0.0
  0
LINE
  5
2C2
100
AcDbEntity
  8
0
370
    -3
  6
Continuous
100
AcDbLine
 10
-2.999996
 20
-4.59997
 30
0.0
 11
-3.499991
 21
-3.899967
 31
0.0
  0
LINE
  5
2C3
100
AcDbEntity
  8
0
370
    -3
  6
Continuous
100
AcDbLine
 10
-3.500012
 20
-3.89998
 30
0.0
 11
-3.49998
 21
3.90001
 31
0.0
  0
LINE
  5
2C4
100
AcDbEntity
  8
0
370
    -3
  6
Continuous
100
AcDbLine
 10
-3.499965
 20
3.9
 30
0.0
 11
-2.999964
 21
4.599998
 31
0.0
  0
LINE
  5
2C5
100
AcDbEntity
  8
0
370
    -3
  6
Continuous
100
AcDbLine
 10
-2.999979
 20
4.600012
 30
0.0
 11
0.000019
 21
4.600001
 31
0.0
  0
LINE
  5
2C6
100
AcDbEntity
  8
0
370
    -3
  6
Continuous
100
AcDbLine
 10
0.000019
 20
4.6
 30
0.0
 11
-0.000019
 21
-4.6
 31
0.0
  0
LINE
  5
2C7
100
AcDbEntity
  8
0
370
    -3
  6
Continuous
100
AcDbLine
 10
-3.000008
 20
-2.299986
 30
0.0
 11
-0.000008
 21
-2.299998
 31
0.0
  0
LINE
  5
2C8
100
AcDbEntity
  8
0
370
    -3
  6
Continuous
100
AcDbLine
 10
-2.999989
 20
2.300011
 30
0.0
 11
0.000009
 21
2.3
 31
0.0
  0
ARC
  5
2C9
100
AcDbEntity
  8
0
370
    -3
  6
Continuous
100
AcDbCircle
 10
-1.930014
 20
-3.449991
 30
0.0
 40
1.57
100
AcDbArc
 50
132.899744
 51
179.999745
  0
ARC
  5
2CA
100
AcDbEntity
  8
0
370
    -3
  6
Continuous
100
AcDbCircle
 10
-1.929986
 20
3.450007
 30
0.0
 40
1.57
100
AcDbArc
 50
179.999745
 51
227.099746
  0
ARC
  5
2CB
100
AcDbEntity
  8
0
370
    -3
  6
Continuous
100
AcDbCircle
 10
2.040001
 20
-0.000008
 30
0.0
 40
5.539999
100
AcDbArc
 50
155.470187
 51
204.52925
  0
ENDBLK
  5
2CC
100
AcDbEntity
  8
0
100
AcDbBlockEnd
  0
BLOCK
  5
2CF
100
AcDbEntity
  8
0
100
AcDbBlockBegin
  2
ZU_SYM__USERS_HOME_SYMBOL_STD_SYM_B01_00005-1
 70
    64
 10
0.0
 20
0.0
 30
0.0
  3
ZU_SYM__USERS_HOME_SYMBOL_STD_SYM_B01_00005-1
  1

  0
POINT
  5
2D0
100
AcDbEntity
  8
0
370
    -3
  6
Continuous
100
AcDbPoint
 10
0.0
 20
0.0
 30
0.0
  0
LINE
  5
2D1
100
AcDbEntity
  8
0
370
    -3
  6
Continuous
100
AcDbLine
 10
-0.000018
 20
-4.599998
 30
0.0
 11
-3.000017
 21
-4.599986
 31
0.0
  0
LINE
  5
2D2
100
AcDbEntity
  8
0
370
    -3
  6
Continuous
100
AcDbLine
 10
-2.999996
 20
-4.59997
 30
0.0
 11
-3.499991
 21
-3.899967
 31
0.0
  0
LINE
  5
2D3
100
AcDbEntity
  8
0
370
    -3
  6
Continuous
100
AcDbLine
 10
-3.500012
 20
-3.89998
 30
0.0
 11
-3.49998
 21
3.90001
 31
0.0
  0
LINE
  5
2D4
100
AcDbEntity
  8
0
370
    -3
  6
Continuous
100
AcDbLine
 10
-3.499965
 20
3.9
 30
0.0
 11
-2.999964
 21
4.599998
 31
0.0
  0
LINE
  5
2D5
100
AcDbEntity
  8
0
370
    -3
  6
Continuous
100
AcDbLine
 10
-2.999979
 20
4.600012
 30
0.0
 11
0.000019
 21
4.600001
 31
0.0
  0
LINE
  5
2D6
100
AcDbEntity
  8
0
370
    -3
  6
Continuous
100
AcDbLine
 10
0.000019
 20
4.6
 30
0.0
 11
-0.000019
 21
-4.6
 31
0.0
  0
LINE
  5
2D7
100
AcDbEntity
  8
0
370
    -3
  6
Continuous
100
AcDbLine
 10
-3.000008
 20
-2.299986
 30
0.0
 11
-0.000008
 21
-2.299998
 31
0.0
  0
LINE
  5
2D8
100
AcDbEntity
  8
0
370
    -3
  6
Continuous
100
AcDbLine
 10
-2.999989
 20
2.300011
 30
0.0
 11
0.000009
 21
2.3
 31
0.0
  0
ARC
  5
2D9
100
AcDbEntity
  8
0
370
    -3
  6
Continuous
100
AcDbCircle
 10
-1.930014
 20
-3.449991
 30
0.0
 40
1.57
100
AcDbArc
 50
132.899744
 51
179.999745
  0
ARC
  5
2DA
100
AcDbEntity
  8
0
370
    -3
  6
Continuous
100
AcDbCircle
 10
-1.929986
 20
3.450007
 30
0.0
 40
1.57
100
AcDbArc
 50
179.999745
 51
227.099746
  0
ARC
  5
2DB
100
AcDbEntity
  8
0
370
    -3
  6
Continuous
100
AcDbCircle
 10
2.040001
 20
-0.000008
 30
0.0
 40
5.539999
100
AcDbArc
 50
155.470187
 51
204.52925
  0
ENDBLK
  5
2DC
100
AcDbEntity
  8
0
100
AcDbBlockEnd
  0
BLOCK
  5
301
100
AcDbEntity
  8
0
100
AcDbBlockBegin
  2
ZU_SYM__USERS_HOME_SYMBOL_POO_SYM_B20_00006-1
 70
    64
 10
0.0
 20
0.0
 30
0.0
  3
ZU_SYM__USERS_HOME_SYMBOL_POO_SYM_B20_00006-1
  1

  0
CIRCLE
  5
302
100
AcDbEntity
  8
0
370
    -3
  6
Continuous
100
AcDbCircle
 10
0.0
 20
0.0
 30
0.0
 40
5.0
  0
POINT
  5
303
100
AcDbEntity
  8
0
370
    -3
  6
Continuous
100
AcDbPoint
 10
0.0
 20
0.0
 30
0.0
  0
LINE
  5
304
100
AcDbEntity
  8
0
370
    -3
  6
Continuous
100
AcDbLine
 10
-2.499998
 20
-1.443372
 30
0.0
 11
-2.499999
 21
1.443378
 31
0.0
  0
LINE
  5
305
100
AcDbEntity
  8
0
370
    -3
  6
Continuous
100
AcDbLine
 10
2.499998
 20
1.443372
 30
0.0
 11
2.499999
 21
-1.443374
 31
0.0
  0
LINE
  5
306
100
AcDbEntity
  8
0
370
    -3
  6
Continuous
100
AcDbLine
 10
0.000005
 20
2.886749
 30
0.0
 11
2.499999
 21
1.443372
 31
0.0
  0
LINE
  5
307
100
AcDbEntity
  8
0
370
    -3
  6
Continuous
100
AcDbLine
 10
-0.000006
 20
-2.886747
 30
0.0
 11
-2.499998
 21
-1.443372
 31
0.0
  0
LINE
  5
308
100
AcDbEntity
  8
0
370
    -3
  6
Continuous
100
AcDbLine
 10
0.000005
 20
2.886748
 30
0.0
 11
-2.5
 21
1.443377
 31
0.0
  0
LINE
  5
309
100
AcDbEntity
  8
0
370
    -3
  6
Continuous
100
AcDbLine
 10
2.499999
 20
-1.443374
 30
0.0
 11
-0.000005
 21
-2.886748
 31
0.0
  0
ENDBLK
  5
30A
100
AcDbEntity
  8
0
100
AcDbBlockEnd
  0
BLOCK
  5
30D
100
AcDbEntity
  8
0
100
AcDbBlockBegin
  2
ZU_SYM__USERS_HOME_SYMBOL_POO_SYM_B20_00007-1
 70
    64
 10
0.0
 20
0.0
 30
0.0
  3
ZU_SYM__USERS_HOME_SYMBOL_POO_SYM_B20_00007-1
  1

  0
CIRCLE
  5
30E
100
AcDbEntity
  8
0
370
    -3
  6
Continuous
100
AcDbCircle
 10
0.0
 20
0.0
 30
0.0
 40
5.0
  0
POINT
  5
30F
100
AcDbEntity
  8
0
370
    -3
  6
Continuous
100
AcDbPoint
 10
0.0
 20
0.0
 30
0.0
  0
LINE
  5
310
100
AcDbEntity
  8
0
370
    -3
  6
Continuous
100
AcDbLine
 10
-2.499998
 20
-1.443372
 30
0.0
 11
-2.499999
 21
1.443378
 31
0.0
  0
LINE
  5
311
100
AcDbEntity
  8
0
370
    -3
  6
Continuous
100
AcDbLine
 10
2.499998
 20
1.443372
 30
0.0
 11
2.499999
 21
-1.443374
 31
0.0
  0
LINE
  5
312
100
AcDbEntity
  8
0
370
    -3
  6
Continuous
100
AcDbLine
 10
0.000005
 20
2.886749
 30
0.0
 11
2.499999
 21
1.443372
 31
0.0
  0
LINE
  5
313
100
AcDbEntity
  8
0
370
    -3
  6
Continuous
100
AcDbLine
 10
-0.000006
 20
-2.886747
 30
0.0
 11
-2.499998
 21
-1.443372
 31
0.0
  0
LINE
  5
314
100
AcDbEntity
  8
0
370
    -3
  6
Continuous
100
AcDbLine
 10
0.000005
 20
2.886748
 30
0.0
 11
-2.5
 21
1.443377
 31
0.0
  0
LINE
  5
315
100
AcDbEntity
  8
0
370
    -3
  6
Continuous
100
AcDbLine
 10
2.499999
 20
-1.443374
 30
0.0
 11
-0.000005
 21
-2.886748
 31
0.0
  0
ENDBLK
  5
316
100
AcDbEntity
  8
0
100
AcDbBlockEnd
  0
BLOCK
  5
4D2
100
AcDbEntity
  8
0
100
AcDbBlockBegin
  2
ZU_SYM__USERS_HOME_SYMBOL_STD_SYM_B01_00008-1
 70
    64
 10
0.0
 20
0.0
 30
0.0
  3
ZU_SYM__USERS_HOME_SYMBOL_STD_SYM_B01_00008-1
  1

  0
POINT
  5
4D3
100
AcDbEntity
  8
0
370
    -3
  6
Continuous
100
AcDbPoint
 10
0.0
 20
0.0
 30
0.0
  0
LINE
  5
4D4
100
AcDbEntity
  8
0
370
    -3
  6
Continuous
100
AcDbLine
 10
-2.300001
 20
-4.0
 30
0.0
 11
-4.6
 21
-0.000001
 31
0.0
  0
LINE
  5
4D5
100
AcDbEntity
  8
0
370
    -3
  6
Continuous
100
AcDbLine
 10
-4.6
 20
0.000001
 30
0.0
 11
-2.300001
 21
4.0
 31
0.0
  0
LINE
  5
4D6
100
AcDbEntity
  8
0
370
    -3
  6
Continuous
100
AcDbLine
 10
-2.299999
 20
4.0
 30
0.0
 11
2.299999
 21
4.0
 31
0.0
  0
LINE
  5
4D7
100
AcDbEntity
  8
0
370
    -3
  6
Continuous
100
AcDbLine
 10
2.300001
 20
4.0
 30
0.0
 11
4.6
 21
0.000001
 31
0.0
  0
LINE
  5
4D8
100
AcDbEntity
  8
0
370
    -3
  6
Continuous
100
AcDbLine
 10
4.6
 20
-0.000001
 30
0.0
 11
2.300001
 21
-4.0
 31
0.0
  0
LINE
  5
4D9
100
AcDbEntity
  8
0
370
    -3
  6
Continuous
100
AcDbLine
 10
2.299999
 20
-4.0
 30
0.0
 11
-2.299999
 21
-4.0
 31
0.0
  0
CIRCLE
  5
4DA
100
AcDbEntity
  8
0
370
    -3
  6
Continuous
100
AcDbCircle
 10
0.0
 20
0.0
 30
0.0
 40
4.0
  0
ENDBLK
  5
4DB
100
AcDbEntity
  8
0
100
AcDbBlockEnd
  0
BLOCK
  5
4DE
100
AcDbEntity
  8
0
100
AcDbBlockBegin
  2
ZU_SYM__USERS_HOME_SYMBOL_STD_SYM_B01_00009-1
 70
    64
 10
0.0
 20
0.0
 30
0.0
  3
ZU_SYM__USERS_HOME_SYMBOL_STD_SYM_B01_00009-1
  1

  0
POINT
  5
4DF
100
AcDbEntity
  8
0
370
    -3
  6
Continuous
100
AcDbPoint
 10
0.0
 20
0.0
 30
0.0
  0
LINE
  5
4E0
100
AcDbEntity
  8
0
370
    -3
  6
Continuous
100
AcDbLine
 10
-2.300001
 20
-4.0
 30
0.0
 11
-4.6
 21
-0.000001
 31
0.0
  0
LINE
  5
4E1
100
AcDbEntity
  8
0
370
    -3
  6
Continuous
100
AcDbLine
 10
-4.6
 20
0.000001
 30
0.0
 11
-2.300001
 21
4.0
 31
0.0
  0
LINE
  5
4E2
100
AcDbEntity
  8
0
370
    -3
  6
Continuous
100
AcDbLine
 10
-2.299999
 20
4.0
 30
0.0
 11
2.299999
 21
4.0
 31
0.0
  0
LINE
  5
4E3
100
AcDbEntity
  8
0
370
    -3
  6
Continuous
100
AcDbLine
 10
2.300001
 20
4.0
 30
0.0
 11
4.6
 21
0.000001
 31
0.0
  0
LINE
  5
4E4
100
AcDbEntity
  8
0
370
    -3
  6
Continuous
100
AcDbLine
 10
4.6
 20
-0.000001
 30
0.0
 11
2.300001
 21
-4.0
 31
0.0
  0
LINE
  5
4E5
100
AcDbEntity
  8
0
370
    -3
  6
Continuous
100
AcDbLine
 10
2.299999
 20
-4.0
 30
0.0
 11
-2.299999
 21
-4.0
 31
0.0
  0
CIRCLE
  5
4E6
100
AcDbEntity
  8
0
370
    -3
  6
Continuous
100
AcDbCircle
 10
0.0
 20
0.0
 30
0.0
 40
4.0
  0
ENDBLK
  5
4E7
100
AcDbEntity
  8
0
100
AcDbBlockEnd
  0
BLOCK
  5
4EA
100
AcDbEntity
  8
0
100
AcDbBlockBegin
  2
ZU_SYM__USERS_HOME_SYMBOL_STD_SYM_B01_00010-1
 70
    64
 10
0.0
 20
0.0
 30
0.0
  3
ZU_SYM__USERS_HOME_SYMBOL_STD_SYM_B01_00010-1
  1

  0
POINT
  5
4EB
100
AcDbEntity
  8
0
370
    -3
  6
Continuous
100
AcDbPoint
 10
0.0
 20
0.0
 30
0.0
  0
LINE
  5
4EC
100
AcDbEntity
  8
0
370
    -3
  6
Continuous
100
AcDbLine
 10
-2.300001
 20
-4.0
 30
0.0
 11
-4.6
 21
-0.000001
 31
0.0
  0
LINE
  5
4ED
100
AcDbEntity
  8
0
370
    -3
  6
Continuous
100
AcDbLine
 10
-4.6
 20
0.000001
 30
0.0
 11
-2.300001
 21
4.0
 31
0.0
  0
LINE
  5
4EE
100
AcDbEntity
  8
0
370
    -3
  6
Continuous
100
AcDbLine
 10
-2.299999
 20
4.0
 30
0.0
 11
2.299999
 21
4.0
 31
0.0
  0
LINE
  5
4EF
100
AcDbEntity
  8
0
370
    -3
  6
Continuous
100
AcDbLine
 10
2.300001
 20
4.0
 30
0.0
 11
4.6
 21
0.000001
 31
0.0
  0
LINE
  5
4F0
100
AcDbEntity
  8
0
370
    -3
  6
Continuous
100
AcDbLine
 10
4.6
 20
-0.000001
 30
0.0
 11
2.300001
 21
-4.0
 31
0.0
  0
LINE
  5
4F1
100
AcDbEntity
  8
0
370
    -3
  6
Continuous
100
AcDbLine
 10
2.299999
 20
-4.0
 30
0.0
 11
-2.299999
 21
-4.0
 31
0.0
  0
CIRCLE
  5
4F2
100
AcDbEntity
  8
0
370
    -3
  6
Continuous
100
AcDbCircle
 10
0.0
 20
0.0
 30
0.0
 40
4.0
  0
ENDBLK
  5
4F3
100
AcDbEntity
  8
0
100
AcDbBlockEnd
  0
BLOCK
  5
4F6
100
AcDbEntity
  8
0
100
AcDbBlockBegin
  2
ZU_SYM__USERS_HOME_SYMBOL_STD_SYM_B01_00011-1
 70
    64
 10
0.0
 20
0.0
 30
0.0
  3
ZU_SYM__USERS_HOME_SYMBOL_STD_SYM_B01_00011-1
  1

  0
POINT
  5
4F7
100
AcDbEntity
  8
0
370
    -3
  6
Continuous
100
AcDbPoint
 10
0.0
 20
0.0
 30
0.0
  0
LINE
  5
4F8
100
AcDbEntity
  8
0
370
    -3
  6
Continuous
100
AcDbLine
 10
-2.300001
 20
-4.0
 30
0.0
 11
-4.6
 21
-0.000001
 31
0.0
  0
LINE
  5
4F9
100
AcDbEntity
  8
0
370
    -3
  6
Continuous
100
AcDbLine
 10
-4.6
 20
0.000001
 30
0.0
 11
-2.300001
 21
4.0
 31
0.0
  0
LINE
  5
4FA
100
AcDbEntity
  8
0
370
    -3
  6
Continuous
100
AcDbLine
 10
-2.299999
 20
4.0
 30
0.0
 11
2.299999
 21
4.0
 31
0.0
  0
LINE
  5
4FB
100
AcDbEntity
  8
0
370
    -3
  6
Continuous
100
AcDbLine
 10
2.300001
 20
4.0
 30
0.0
 11
4.6
 21
0.000001
 31
0.0
  0
LINE
  5
4FC
100
AcDbEntity
  8
0
370
    -3
  6
Continuous
100
AcDbLine
 10
4.6
 20
-0.000001
 30
0.0
 11
2.300001
 21
-4.0
 31
0.0
  0
LINE
  5
4FD
100
AcDbEntity
  8
0
370
    -3
  6
Continuous
100
AcDbLine
 10
2.299999
 20
-4.0
 30
0.0
 11
-2.299999
 21
-4.0
 31
0.0
  0
CIRCLE
  5
4FE
100
AcDbEntity
  8
0
370
    -3
  6
Continuous
100
AcDbCircle
 10
0.0
 20
0.0
 30
0.0
 40
4.0
  0
ENDBLK
  5
4FF
100
AcDbEntity
  8
0
100
AcDbBlockEnd
  0
ENDSEC
  0
SECTION
  2
ENTITIES
  0
LINE
  5
2A
100
AcDbEntity
  8
0
370
    -3
  6
Continuous
100
AcDbLine
 10
516.68286
 20
-34.753095
 30
0.0
 11
611.18286
 21
-36.402598
 31
0.0
  0
LINE
  5
2B
100
AcDbEntity
  8
0
370
    -3
  6
Continuous
100
AcDbLine
 10
565.18286
 20
-4.47304
 30
0.0
 11
560.18286
 21
-4.47304
 31
0.0
  0
LINE
  5
2C
100
AcDbEntity
  8
0
370
    -3
  6
Continuous
100
AcDbLine
 10
560.18286
 20
-4.983457
 30
0.0
 11
560.18286
 21
-4.47304
 31
0.0
  0
ARC
  5
2D
100
AcDbEntity
  8
0
370
    -3
  6
Continuous
100
AcDbCircle
 10
562.68286
 20
-304.97304
 30
0.0
 40
300.0
100
AcDbArc
 50
85.138595
 51
94.861405
  0
LINE
  5
2E
100
AcDbEntity
  8
0
370
    -3
  6
Continuous
100
AcDbLine
 10
532.68286
 20
-34.47304
 30
0.0
 11
532.68286
 21
-11.034271
 31
0.0
  0
ARC
  5
2F
100
AcDbEntity
  8
0
370
    -3
  6
Continuous
100
AcDbCircle
 10
537.68286
 20
-11.034271
 30
0.0
 40
5.0
100
AcDbArc
 50
94.861405
 51
180.0
  0
LINE
  5
30
100
AcDbEntity
  8
0
370
    -3
  6
Continuous
100
AcDbLine
 10
565.18286
 20
-4.983457
 30
0.0
 11
565.18286
 21
-4.47304
 31
0.0
  0
LINE
  5
31
100
AcDbEntity
  8
0
370
    -3
  6
Continuous
100
AcDbLine
 10
592.68286
 20
-34.47304
 30
0.0
 11
592.68286
 21
-11.034271
 31
0.0
  0
ARC
  5
32
100
AcDbEntity
  8
0
370
    -3
  6
Continuous
100
AcDbCircle
 10
587.68286
 20
-11.034271
 30
0.0
 40
5.0
100
AcDbArc
 50
0.0
 51
85.138595
  0
LINE
  5
33
100
AcDbEntity
  8
0
370
    -3
  6
Continuous
100
AcDbLine
 10
531.18286
 20
-35.006193
 30
0.0
 11
531.18286
 21
-34.47304
 31
0.0
  0
LINE
  5
34
100
AcDbEntity
  8
0
370
    -3
  6
Continuous
100
AcDbLine
 10
594.18286
 20
-34.47304
 30
0.0
 11
531.18286
 21
-34.47304
 31
0.0
  0
LINE
  5
35
100
AcDbEntity
  8
0
370
    -3
  6
Continuous
100
AcDbLine
 10
594.18286
 20
-36.105862
 30
0.0
 11
594.18286
 21
-34.47304
 31
0.0
  0
LINE
  5
36
100
AcDbEntity
  8
0
370
    -3
  6
Continuous
100
AcDbLine
 10
-208.317352
 20
-39.472883
 30
0.0
 11
-197.317352
 21
-39.472883
 31
0.0
  0
ARC
  5
37
100
AcDbEntity
  8
0
370
    -3
  6
Continuous
100
AcDbCircle
 10
-208.517352
 20
-38.172883
 30
0.0
 40
0.2
100
AcDbArc
 50
0.0
 51
90.0
  0
LINE
  5
38
100
AcDbEntity
  8
0
370
    -3
  6
Continuous
100
AcDbLine
 10
-210.067352
 20
-37.972883
 30
0.0
 11
-210.067352
 21
-38.472883
 31
0.0
  0
LINE
  5
39
100
AcDbEntity
  8
0
370
    -3
  6
Continuous
100
AcDbLine
 10
-208.317352
 20
-39.472883
 30
0.0
 11
-208.317352
 21
-38.172883
 31
0.0
  0
ARC
  5
3A
100
AcDbEntity
  8
0
370
    -3
  6
Continuous
100
AcDbCircle
 10
-249.117352
 20
-38.172883
 30
0.0
 40
0.2
100
AcDbArc
 50
90.0
 51
180.0
  0
LINE
  5
3B
100
AcDbEntity
  8
0
370
    -3
  6
Continuous
100
AcDbLine
 10
-208.517352
 20
-37.972883
 30
0.0
 11
-249.117352
 21
-37.972883
 31
0.0
  0
LINE
  5
3C
100
AcDbEntity
  8
0
370
    -3
  6
Continuous
100
AcDbLine
 10
-249.317352
 20
-39.472883
 30
0.0
 11
-249.317352
 21
-38.172883
 31
0.0
  0
LINE
  5
3D
100
AcDbEntity
  8
0
370
    -3
  6
Continuous
100
AcDbLine
 10
-247.567352
 20
-37.972883
 30
0.0
 11
-247.567352
 21
-38.472883
 31
0.0
  0
LINE
  5
3E
100
AcDbEntity
  8
0
370
    -3
  6
Continuous
100
AcDbLine
 10
-249.317352
 20
-39.472883
 30
0.0
 11
-260.317352
 21
-39.472883
 31
0.0
  0
LINE
  5
3F
100
AcDbEntity
  8
0
370
    -3
  6
Continuous
100
AcDbLine
 10
-260.317352
 20
-36.105706
 30
0.0
 11
-277.317352
 21
-36.402442
 31
0.0
  0
LINE
  5
40
100
AcDbEntity
  8
0
370
    -3
  6
Continuous
100
AcDbLine
 10
-182.817352
 20
-34.752938
 30
0.0
 11
-197.317352
 21
-35.006037
 31
0.0
  0
LINE
  5
41
100
AcDbEntity
  8
0
370
    -3
  6
Continuous
100
AcDbLine
 10
-226.317352
 20
-4.472883
 30
0.0
 11
-231.317352
 21
-4.472883
 31
0.0
  0
LINE
  5
42
100
AcDbEntity
  8
0
370
    -3
  6
Continuous
100
AcDbLine
 10
-231.317352
 20
-4.9833
 30
0.0
 11
-231.317352
 21
-4.472883
 31
0.0
  0
ARC
  5
43
100
AcDbEntity
  8
0
370
    -3
  6
Continuous
100
AcDbCircle
 10
-228.817352
 20
-304.972883
 30
0.0
 40
300.0
100
AcDbArc
 50
85.138595
 51
94.861405
  0
LINE
  5
44
100
AcDbEntity
  8
0
370
    -3
  6
Continuous
100
AcDbLine
 10
-258.817352
 20
-34.472883
 30
0.0
 11
-258.817352
 21
-11.034114
 31
0.0
  0
ARC
  5
45
100
AcDbEntity
  8
0
370
    -3
  6
Continuous
100
AcDbCircle
 10
-253.817352
 20
-11.034114
 30
0.0
 40
5.0
100
AcDbArc
 50
94.861405
 51
180.0
  0
LINE
  5
46
100
AcDbEntity
  8
0
370
    -3
  6
Continuous
100
AcDbLine
 10
-226.317352
 20
-4.9833
 30
0.0
 11
-226.317352
 21
-4.472883
 31
0.0
  0
ARC
  5
47
100
AcDbEntity
  8
0
370
    -3
  6
Continuous
100
AcDbCircle
 10
-203.817352
 20
-11.034114
 30
0.0
 40
5.0
100
AcDbArc
 50
0.0
 51
85.138595
  0
LINE
  5
48
100
AcDbEntity
  8
0
370
    -3
  6
Continuous
100
AcDbLine
 10
-198.817352
 20
-34.472883
 30
0.0
 11
-198.817352
 21
-11.034114
 31
0.0
  0
LINE
  5
49
100
AcDbEntity
  8
0
370
    -3
  6
Continuous
100
AcDbLine
 10
-197.317352
 20
-34.472883
 30
0.0
 11
-260.317352
 21
-34.472883
 31
0.0
  0
LINE
  5
4A
100
AcDbEntity
  8
0
370
    -3
  6
Continuous
100
AcDbLine
 10
-260.317352
 20
-39.472883
 30
0.0
 11
-260.317352
 21
-34.472883
 31
0.0
  0
LINE
  5
4B
100
AcDbEntity
  8
0
370
    -3
  6
Continuous
100
AcDbLine
 10
-197.317352
 20
-39.472883
 30
0.0
 11
-197.317352
 21
-34.472883
 31
0.0
  0
INSERT
  5
57
100
AcDbEntity
  8
0
100
AcDbBlockReference
  2
ZU_SYM_K__CAD_SYM_POO_SYM_N20_-1
 10
-184.623179
 20
-167.166901
 30
0.0
  0
INSERT
  5
63
100
AcDbEntity
  8
0
100
AcDbBlockReference
  2
ZU_SYM_K__CAD_SYM_POO_SYM_N20_00001-1
 10
-273.011526
 20
-167.166901
 30
0.0
 41
-1.0
  0
LINE
  5
64
100
AcDbEntity
  8
0
370
    -3
  6
CENTER
100
AcDbLine
 10
20.682442
 20
-37.256735
 30
0.0
 11
20.682442
 21
-9.277385
 31
0.0
  0
LINE
  5
65
100
AcDbEntity
  8
0
370
    -3
  6
CENTER
100
AcDbLine
 10
29.990776
 20
-19.972883
 30
0.0
 11
10.801736
 21
-19.972883
 31
0.0
  0
LINE
  5
66
100
AcDbEntity
  8
0
370
    -3
  6
DASHED
100
AcDbLine
 10
13.682442
 20
-34.472883
 30
0.0
 11
13.682442
 21
-19.972883
 31
0.0
  0
LINE
  5
67
100
AcDbEntity
  8
0
370
    -3
  6
DASHED
100
AcDbLine
 10
27.682442
 20
-34.472883
 30
0.0
 11
27.682442
 21
-19.972883
 31
0.0
  0
ARC
  5
68
100
AcDbEntity
  8
0
370
    -3
  6
DASHED
100
AcDbCircle
 10
20.682442
 20
-19.972883
 30
0.0
 40
7.0
100
AcDbArc
 50
0.0
 51
180.0
  0
CIRCLE
  5
69
100
AcDbEntity
  8
0
370
    -3
  6
DASHED
100
AcDbCircle
 10
20.682442
 20
-19.972883
 30
0.0
 40
6.0
  0
LINE
  5
6A
100
AcDbEntity
  8
0
370
    -3
  6
CENTER
100
AcDbLine
 10
-18.90726
 20
-19.972883
 30
0.0
 11
-39.281441
 21
-19.972883
 31
0.0
  0
ARC
  5
6B
100
AcDbEntity
  8
0
370
    -3
  6
DASHED
100
AcDbCircle
 10
-29.317558
 20
-19.972883
 30
0.0
 40
7.0
100
AcDbArc
 50
0.0
 51
180.0
  0
LINE
  5
6C
100
AcDbEntity
  8
0
370
    -3
  6
DASHED
100
AcDbLine
 10
-36.317558
 20
-34.472883
 30
0.0
 11
-36.317558
 21
-19.972883
 31
0.0
  0
LINE
  5
6D
100
AcDbEntity
  8
0
370
    -3
  6
DASHED
100
AcDbLine
 10
-22.317558
 20
-34.472883
 30
0.0
 11
-22.317558
 21
-19.972883
 31
0.0
  0
LINE
  5
6E
100
AcDbEntity
  8
0
370
    -3
  6
CENTER
100
AcDbLine
 10
-29.317558
 20
-37.256735
 30
0.0
 11
-29.317558
 21
-9.277385
 31
0.0
  0
LINE
  5
6F
100
AcDbEntity
  8
0
370
    -3
  6
Continuous
100
AcDbLine
 10
50.182442
 20
-145.472883
 30
0.0
 11
-48.817558
 21
-145.472883
 31
0.0
  0
LINE
  5
70
100
AcDbEntity
  8
0
370
    -3
  6
Continuous
100
AcDbLine
 10
-48.817558
 20
-105.972883
 30
0.0
 11
50.182442
 21
-105.972883
 31
0.0
  0
LINE
  5
71
100
AcDbEntity
  8
0
370
    -3
  6
Continuous
100
AcDbLine
 10
-48.817558
 20
-111.600918
 30
0.0
 11
50.182442
 21
-111.600918
 31
0.0
  0
LINE
  5
72
100
AcDbEntity
  8
0
370
    -3
  6
Continuous
100
AcDbLine
 10
-48.817558
 20
-110.358998
 30
0.0
 11
50.182442
 21
-110.358998
 31
0.0
  0
LINE
  5
73
100
AcDbEntity
  8
0
370
    -3
  6
Continuous
100
AcDbLine
 10
-48.817558
 20
-114.811123
 30
0.0
 11
50.182442
 21
-114.811123
 31
0.0
  0
LINE
  5
74
100
AcDbEntity
  8
0
370
    -3
  6
Continuous
100
AcDbLine
 10
-48.817558
 20
-116.157524
 30
0.0
 11
50.182442
 21
-116.157524
 31
0.0
  0
LINE
  5
75
100
AcDbEntity
  8
0
370
    -3
  6
Continuous
100
AcDbLine
 10
-48.817558
 20
-119.250255
 30
0.0
 11
50.182442
 21
-119.250255
 31
0.0
  0
LINE
  5
76
100
AcDbEntity
  8
0
370
    -3
  6
Continuous
100
AcDbLine
 10
-48.817558
 20
-120.729279
 30
0.0
 11
50.182442
 21
-120.729279
 31
0.0
  0
LINE
  5
77
100
AcDbEntity
  8
0
370
    -3
  6
Continuous
100
AcDbLine
 10
-48.817558
 20
-123.687274
 30
0.0
 11
50.182442
 21
-123.687274
 31
0.0
  0
LINE
  5
78
100
AcDbEntity
  8
0
370
    -3
  6
Continuous
100
AcDbLine
 10
-48.817558
 20
-125.276484
 30
0.0
 11
50.182442
 21
-125.276484
 31
0.0
  0
LINE
  5
79
100
AcDbEntity
  8
0
370
    -3
  6
Continuous
100
AcDbLine
 10
-48.817558
 20
-133.014797
 30
0.0
 11
50.182442
 21
-133.014797
 31
0.0
  0
LINE
  5
7A
100
AcDbEntity
  8
0
370
    -3
  6
Continuous
100
AcDbLine
 10
-48.817558
 20
-138.105966
 30
0.0
 11
50.182442
 21
-138.105966
 31
0.0
  0
LINE
  5
7B
100
AcDbEntity
  8
0
370
    -3
  6
Continuous
100
AcDbLine
 10
-48.817558
 20
-142.472883
 30
0.0
 11
50.182442
 21
-142.472883
 31
0.0
  0
LINE
  5
7C
100
AcDbEntity
  8
0
370
    -3
  6
Continuous
100
AcDbLine
 10
-48.817558
 20
-142.972883
 30
0.0
 11
50.182442
 21
-142.972883
 31
0.0
  0
LINE
  5
7D
100
AcDbEntity
  8
0
370
    -3
  6
Continuous
100
AcDbLine
 10
-49.317558
 20
-137.070863
 30
0.0
 11
-49.317558
 21
-128.221282
 31
0.0
  0
LINE
  5
7E
100
AcDbEntity
  8
0
370
    -3
  6
Continuous
100
AcDbLine
 10
-48.817558
 20
-128.221282
 30
0.0
 11
-49.317558
 21
-128.221282
 31
0.0
  0
LINE
  5
7F
100
AcDbEntity
  8
0
370
    -3
  6
Continuous
100
AcDbLine
 10
-49.317558
 20
-135.312283
 30
0.0
 11
-48.817558
 21
-135.312283
 31
0.0
  0
LINE
  5
80
100
AcDbEntity
  8
0
370
    -3
  6
Continuous
100
AcDbLine
 10
-55.317558
 20
-91.972883
 30
0.0
 11
-55.317558
 21
-111.472883
 31
0.0
  0
ARC
  5
81
100
AcDbEntity
  8
0
370
    -3
  6
Continuous
100
AcDbCircle
 10
-54.817558
 20
-111.472883
 30
0.0
 40
0.5
100
AcDbArc
 50
180.0
 51
224.884862
  0
ARC
  5
82
100
AcDbEntity
  8
0
370
    -3
  6
Continuous
100
AcDbCircle
 10
-55.526085
 20
-112.178567
 30
0.0
 40
0.5
100
AcDbArc
 50
1.652907
 51
44.884862
  0
LINE
  5
83
100
AcDbEntity
  8
0
370
    -3
  6
Continuous
100
AcDbLine
 10
-49.317558
 20
-137.070863
 30
0.0
 11
-53.317558
 21
-137.070863
 31
0.0
  0
ARC
  5
84
100
AcDbEntity
  8
0
370
    -3
  6
Continuous
100
AcDbCircle
 10
-53.317558
 20
-136.570863
 30
0.0
 40
0.5
100
AcDbArc
 50
180.0
 51
270.0
  0
LINE
  5
85
100
AcDbEntity
  8
0
370
    -3
  6
Continuous
100
AcDbLine
 10
-53.817558
 20
-136.570863
 30
0.0
 11
-53.817558
 21
-121.171525
 31
0.0
  0
ARC
  5
86
100
AcDbEntity
  8
0
370
    -3
  6
Continuous
100
AcDbCircle
 10
-53.77676
 20
-119.463678
 30
0.0
 40
1.0
100
AcDbArc
 50
182.253953
 51
238.640964
  0
ARC
  5
87
100
AcDbEntity
  8
0
370
    -3
  6
Continuous
100
AcDbCircle
 10
-63.817558
 20
-138.100424
 30
0.0
 40
10.0
100
AcDbArc
 50
0.0
 51
3.725037
  0
ARC
  5
88
100
AcDbEntity
  8
0
370
    -3
  6
Continuous
100
AcDbCircle
 10
-54.817558
 20
-121.171525
 30
0.0
 40
1.0
100
AcDbArc
 50
0.0
 51
58.640964
  0
LINE
  5
89
100
AcDbEntity
  8
0
370
    -3
  6
CENTER
100
AcDbLine
 10
-45.760157
 20
-131.570863
 30
0.0
 11
-60.391322
 21
-131.570863
 31
0.0
  0
ARC
  5
8A
100
AcDbEntity
  8
0
370
    -3
  6
Continuous
100
AcDbCircle
 10
644.682442
 20
-91.972883
 30
0.0
 40
700.0
100
AcDbArc
 50
181.652907
 51
182.865819
  0
ARC
  5
8B
100
AcDbEntity
  8
0
370
    -3
  6
Continuous
100
AcDbCircle
 10
644.682442
 20
-91.972883
 30
0.0
 40
700.0
100
AcDbArc
 50
183.620062
 51
184.231256
  0
ARC
  5
8C
100
AcDbEntity
  8
0
370
    -3
  6
Continuous
100
AcDbCircle
 10
-51.415073
 20
-143.472883
 30
0.0
 40
2.0
100
AcDbArc
 50
184.231256
 51
270.0
  0
LINE
  5
8D
100
AcDbEntity
  8
0
370
    -3
  6
Continuous
100
AcDbLine
 10
-48.817558
 20
-145.472883
 30
0.0
 11
-51.415073
 21
-145.472883
 31
0.0
  0
LINE
  5
8E
100
AcDbEntity
  8
0
370
    -3
  6
Continuous
100
AcDbLine
 10
-48.817558
 20
-91.972883
 30
0.0
 11
-48.817558
 21
-145.472883
 31
0.0
  0
LINE
  5
8F
100
AcDbEntity
  8
0
370
    -3
  6
Continuous
100
AcDbLine
 10
-49.317558
 20
-46.874903
 30
0.0
 11
-49.317558
 21
-55.724484
 31
0.0
  0
LINE
  5
90
100
AcDbEntity
  8
0
370
    -3
  6
Continuous
100
AcDbLine
 10
-48.817558
 20
-55.724484
 30
0.0
 11
-49.317558
 21
-55.724484
 31
0.0
  0
LINE
  5
91
100
AcDbEntity
  8
0
370
    -3
  6
Continuous
100
AcDbLine
 10
-49.317558
 20
-48.633484
 30
0.0
 11
-48.817558
 21
-48.633484
 31
0.0
  0
LINE
  5
92
100
AcDbEntity
  8
0
370
    -3
  6
Continuous
100
AcDbLine
 10
-55.317558
 20
-91.972883
 30
0.0
 11
-55.317558
 21
-72.472883
 31
0.0
  0
ARC
  5
93
100
AcDbEntity
  8
0
370
    -3
  6
Continuous
100
AcDbCircle
 10
-54.817558
 20
-72.472883
 30
0.0
 40
0.5
100
AcDbArc
 50
135.115138
 51
180.0
  0
ARC
  5
94
100
AcDbEntity
  8
0
370
    -3
  6
Continuous
100
AcDbCircle
 10
-55.526085
 20
-71.767199
 30
0.0
 40
0.5
100
AcDbArc
 50
315.115138
 51
358.347093
  0
LINE
  5
95
100
AcDbEntity
  8
0
370
    -3
  6
Continuous
100
AcDbLine
 10
-49.317558
 20
-46.874903
 30
0.0
 11
-53.317558
 21
-46.874903
 31
0.0
  0
ARC
  5
96
100
AcDbEntity
  8
0
370
    -3
  6
Continuous
100
AcDbCircle
 10
-53.317558
 20
-47.374903
 30
0.0
 40
0.5
100
AcDbArc
 50
90.0
 51
180.0
  0
LINE
  5
97
100
AcDbEntity
  8
0
370
    -3
  6
Continuous
100
AcDbLine
 10
-53.817558
 20
-47.374903
 30
0.0
 11
-53.817558
 21
-62.774242
 31
0.0
  0
ARC
  5
98
100
AcDbEntity
  8
0
370
    -3
  6
Continuous
100
AcDbCircle
 10
-53.77676
 20
-64.482088
 30
0.0
 40
1.0
100
AcDbArc
 50
121.359036
 51
177.746047
  0
ARC
  5
99
100
AcDbEntity
  8
0
370
    -3
  6
Continuous
100
AcDbCircle
 10
-63.817558
 20
-45.845343
 30
0.0
 40
10.0
100
AcDbArc
 50
356.274963
 51
0.0
  0
ARC
  5
9A
100
AcDbEntity
  8
0
370
    -3
  6
Continuous
100
AcDbCircle
 10
-54.817558
 20
-62.774242
 30
0.0
 40
1.0
100
AcDbArc
 50
301.359036
 51
0.0
  0
LINE
  5
9B
100
AcDbEntity
  8
0
370
    -3
  6
CENTER
100
AcDbLine
 10
-45.760157
 20
-52.374903
 30
0.0
 11
-60.391322
 21
-52.374903
 31
0.0
  0
ARC
  5
9C
100
AcDbEntity
  8
0
370
    -3
  6
Continuous
100
AcDbCircle
 10
644.682442
 20
-91.972883
 30
0.0
 40
700.0
100
AcDbArc
 50
177.134181
 51
178.347093
  0
ARC
  5
9D
100
AcDbEntity
  8
0
370
    -3
  6
Continuous
100
AcDbCircle
 10
644.682442
 20
-91.972883
 30
0.0
 40
700.0
100
AcDbArc
 50
175.768744
 51
176.379938
  0
ARC
  5
9E
100
AcDbEntity
  8
0
370
    -3
  6
Continuous
100
AcDbCircle
 10
-51.415073
 20
-40.472883
 30
0.0
 40
2.0
100
AcDbArc
 50
90.0
 51
175.768744
  0
LINE
  5
9F
100
AcDbEntity
  8
0
370
    -3
  6
Continuous
100
AcDbLine
 10
-48.817558
 20
-38.472883
 30
0.0
 11
-51.415073
 21
-38.472883
 31
0.0
  0
LINE
  5
A0
100
AcDbEntity
  8
0
370
    -3
  6
Continuous
100
AcDbLine
 10
-48.817558
 20
-40.972883
 30
0.0
 11
50.182442
 21
-40.972883
 31
0.0
  0
LINE
  5
A1
100
AcDbEntity
  8
0
370
    -3
  6
Continuous
100
AcDbLine
 10
-48.817558
 20
-41.472883
 30
0.0
 11
50.182442
 21
-41.472883
 31
0.0
  0
LINE
  5
A2
100
AcDbEntity
  8
0
370
    -3
  6
Continuous
100
AcDbLine
 10
-48.817558
 20
-45.8398
 30
0.0
 11
50.182442
 21
-45.8398
 31
0.0
  0
LINE
  5
A3
100
AcDbEntity
  8
0
370
    -3
  6
Continuous
100
AcDbLine
 10
-48.817558
 20
-50.930969
 30
0.0
 11
50.182442
 21
-50.930969
 31
0.0
  0
LINE
  5
A4
100
AcDbEntity
  8
0
370
    -3
  6
Continuous
100
AcDbLine
 10
-48.817558
 20
-58.669282
 30
0.0
 11
50.182442
 21
-58.669282
 31
0.0
  0
LINE
  5
A5
100
AcDbEntity
  8
0
370
    -3
  6
Continuous
100
AcDbLine
 10
-48.817558
 20
-60.258492
 30
0.0
 11
50.182442
 21
-60.258492
 31
0.0
  0
LINE
  5
A6
100
AcDbEntity
  8
0
370
    -3
  6
Continuous
100
AcDbLine
 10
-48.817558
 20
-63.216488
 30
0.0
 11
50.182442
 21
-63.216488
 31
0.0
  0
LINE
  5
A7
100
AcDbEntity
  8
0
370
    -3
  6
Continuous
100
AcDbLine
 10
-48.817558
 20
-64.695511
 30
0.0
 11
50.182442
 21
-64.695511
 31
0.0
  0
LINE
  5
A8
100
AcDbEntity
  8
0
370
    -3
  6
Continuous
100
AcDbLine
 10
-48.817558
 20
-67.788242
 30
0.0
 11
50.182442
 21
-67.788242
 31
0.0
  0
LINE
  5
A9
100
AcDbEntity
  8
0
370
    -3
  6
Continuous
100
AcDbLine
 10
-48.817558
 20
-69.134643
 30
0.0
 11
50.182442
 21
-69.134643
 31
0.0
  0
LINE
  5
AA
100
AcDbEntity
  8
0
370
    -3
  6
Continuous
100
AcDbLine
 10
-48.817558
 20
-72.344848
 30
0.0
 11
50.182442
 21
-72.344848
 31
0.0
  0
LINE
  5
AB
100
AcDbEntity
  8
0
370
    -3
  6
Continuous
100
AcDbLine
 10
-48.817558
 20
-73.586768
 30
0.0
 11
50.182442
 21
-73.586768
 31
0.0
  0
LINE
  5
AC
100
AcDbEntity
  8
0
370
    -3
  6
Continuous
100
AcDbLine
 10
-48.817558
 20
-77.972883
 30
0.0
 11
50.182442
 21
-77.972883
 31
0.0
  0
LINE
  5
AD
100
AcDbEntity
  8
0
370
    -3
  6
Continuous
100
AcDbLine
 10
-41.817558
 20
-38.472883
 30
0.0
 11
-48.817558
 21
-38.472883
 31
0.0
  0
LINE
  5
AE
100
AcDbEntity
  8
0
370
    -3
  6
Continuous
100
AcDbLine
 10
50.182442
 20
-38.472883
 30
0.0
 11
33.182442
 21
-38.472883
 31
0.0
  0
LINE
  5
AF
100
AcDbEntity
  8
0
370
    -3
  6
Continuous
100
AcDbLine
 10
17.182442
 20
-4.472883
 30
0.0
 11
17.182442
 21
-4.972883
 31
0.0
  0
LINE
  5
B0
100
AcDbEntity
  8
0
370
    -3
  6
Continuous
100
AcDbLine
 10
25.182442
 20
-4.472883
 30
0.0
 11
25.182442
 21
-4.972883
 31
0.0
  0
ARC
  5
B1
100
AcDbEntity
  8
0
370
    -3
  6
Continuous
100
AcDbCircle
 10
31.182442
 20
-5.972883
 30
0.0
 40
1.0
100
AcDbArc
 50
0.0
 51
90.0
  0
ARC
  5
B2
100
AcDbEntity
  8
0
370
    -3
  6
Continuous
100
AcDbCircle
 10
-39.817558
 20
-5.972883
 30
0.0
 40
1.0
100
AcDbArc
 50
90.0
 51
180.0
  0
LINE
  5
B3
100
AcDbEntity
  8
0
370
    -3
  6
Continuous
100
AcDbLine
 10
-40.817558
 20
-5.972883
 30
0.0
 11
-40.817558
 21
-34.472883
 31
0.0
  0
LINE
  5
B4
100
AcDbEntity
  8
0
370
    -3
  6
Continuous
100
AcDbLine
 10
32.182442
 20
-5.972883
 30
0.0
 11
32.182442
 21
-34.472883
 31
0.0
  0
LINE
  5
B5
100
AcDbEntity
  8
0
370
    -3
  6
Continuous
100
AcDbLine
 10
31.182442
 20
-4.972883
 30
0.0
 11
-39.817558
 21
-4.972883
 31
0.0
  0
LINE
  5
B6
100
AcDbEntity
  8
0
370
    -3
  6
Continuous
100
AcDbLine
 10
33.182442
 20
-34.472883
 30
0.0
 11
33.182442
 21
-39.472883
 31
0.0
  0
LINE
  5
B7
100
AcDbEntity
  8
0
370
    -3
  6
Continuous
100
AcDbLine
 10
-41.817558
 20
-34.472883
 30
0.0
 11
-41.817558
 21
-39.472883
 31
0.0
  0
LINE
  5
B8
100
AcDbEntity
  8
0
370
    -3
  6
Continuous
100
AcDbLine
 10
-41.817558
 20
-34.472883
 30
0.0
 11
33.182442
 21
-34.472883
 31
0.0
  0
LINE
  5
B9
100
AcDbEntity
  8
0
370
    -3
  6
Continuous
100
AcDbLine
 10
33.182442
 20
-39.472883
 30
0.0
 11
-41.817558
 21
-39.472883
 31
0.0
  0
LINE
  5
BA
100
AcDbEntity
  8
0
370
    -3
  6
Continuous
100
AcDbLine
 10
-48.817558
 20
-91.972883
 30
0.0
 11
-48.817558
 21
-38.472883
 31
0.0
  0
LINE
  5
BB
100
AcDbEntity
  8
0
370
    -3
  6
Continuous
100
AcDbLine
 10
25.182442
 20
-4.472883
 30
0.0
 11
17.182442
 21
-4.472883
 31
0.0
  0
INSERT
  5
CE
100
AcDbEntity
  8
0
100
AcDbBlockReference
  2
ZU_SYM_C__ZUOU_AC_BLOCK_ZU_SYM__USERS_HOME_SYMBOL_STD_SYM_B01_00001-1_-1
 10
-53.817556
 20
-131.570863
 30
0.0
 41
-1.0
 50
180.0
  0
INSERT
  5
E1
100
AcDbEntity
  8
0
100
AcDbBlockReference
  2
ZU_SYM_C__ZUOU_AC_BLOCK_ZU_SYM__USERS_HOME_SYMBOL_STD_SYM_B01_-1_-1
 10
-53.817556
 20
-52.374903
 30
0.0
 50
360.0
  0
INSERT
  5
F4
100
AcDbEntity
  8
0
100
AcDbBlockReference
  2
ZU_SYM_C__ZUOU_AC_BLOCK_ZU_SYM__USERS_HOME_SYMBOL_STD_SYM_B01_00007-1_-1
 10
-53.817556
 20
228.771427
 30
0.0
  0
INSERT
  5
107
100
AcDbEntity
  8
0
100
AcDbBlockReference
  2
ZU_SYM_C__ZUOU_AC_BLOCK_ZU_SYM__USERS_HOME_SYMBOL_STD_SYM_B01_00006-1_-1
 10
-53.817556
 20
149.575467
 30
0.0
 41
-1.0
 50
180.0
  0
ARC
  5
108
100
AcDbEntity
  8
0
370
    -3
  6
Continuous
100
AcDbCircle
 10
644.682442
 20
189.173447
 30
0.0
 40
700.0
100
AcDbArc
 50
177.134181
 51
178.347093
  0
ARC
  5
109
100
AcDbEntity
  8
0
370
    -3
  6
Continuous
100
AcDbCircle
 10
644.682442
 20
189.173447
 30
0.0
 40
700.0
100
AcDbArc
 50
175.85105
 51
176.379938
  0
LINE
  5
10A
100
AcDbEntity
  8
0
370
    -3
  6
Continuous
100
AcDbLine
 10
50.182442
 20
241.673447
 30
0.0
 11
-48.817558
 21
241.673447
 31
0.0
  0
LINE
  5
10B
100
AcDbEntity
  8
0
370
    -3
  6
Continuous
100
AcDbLine
 10
-41.817558
 20
189.173447
 30
0.0
 11
-41.817558
 21
218.673447
 31
0.0
  0
LINE
  5
10C
100
AcDbEntity
  8
0
370
    -3
  6
Continuous
100
AcDbLine
 10
33.182442
 20
189.173447
 30
0.0
 11
33.182442
 21
218.673447
 31
0.0
  0
LINE
  5
10D
100
AcDbEntity
  8
0
370
    -3
  6
Continuous
100
AcDbLine
 10
31.182442
 20
220.673447
 30
0.0
 11
-39.817558
 21
220.673447
 31
0.0
  0
ARC
  5
10E
100
AcDbEntity
  8
0
370
    -3
  6
Continuous
100
AcDbCircle
 10
31.182442
 20
218.673447
 30
0.0
 40
2.0
100
AcDbArc
 50
0.0
 51
90.0
  0
LINE
  5
10F
100
AcDbEntity
  8
0
370
    -3
  6
Continuous
100
AcDbLine
 10
-48.817558
 20
241.673447
 30
0.0
 11
-48.817558
 21
189.173447
 31
0.0
  0
LINE
  5
110
100
AcDbEntity
  8
0
370
    -3
  6
CENTER
100
AcDbLine
 10
-45.760157
 20
228.771427
 30
0.0
 11
-60.391322
 21
228.771427
 31
0.0
  0
ARC
  5
111
100
AcDbEntity
  8
0
370
    -3
  6
Continuous
100
AcDbCircle
 10
-39.817558
 20
218.673447
 30
0.0
 40
2.0
100
AcDbArc
 50
90.0
 51
180.0
  0
LINE
  5
112
100
AcDbEntity
  8
0
370
    -3
  6
Continuous
100
AcDbLine
 10
-49.317558
 20
232.512846
 30
0.0
 11
-48.817558
 21
232.512846
 31
0.0
  0
LINE
  5
113
100
AcDbEntity
  8
0
370
    -3
  6
Continuous
100
AcDbLine
 10
-48.817558
 20
225.421846
 30
0.0
 11
-49.317558
 21
225.421846
 31
0.0
  0
LINE
  5
114
100
AcDbEntity
  8
0
370
    -3
  6
Continuous
100
AcDbLine
 10
-49.317558
 20
234.271427
 30
0.0
 11
-49.317558
 21
225.421846
 31
0.0
  0
ARC
  5
115
100
AcDbEntity
  8
0
370
    -3
  6
Continuous
100
AcDbCircle
 10
-51.488335
 20
239.673447
 30
0.0
 40
2.0
100
AcDbArc
 50
90.0
 51
175.85105
  0
LINE
  5
116
100
AcDbEntity
  8
0
370
    -3
  6
Continuous
100
AcDbLine
 10
-48.817558
 20
241.673447
 30
0.0
 11
-51.488335
 21
241.673447
 31
0.0
  0
ARC
  5
117
100
AcDbEntity
  8
0
370
    -3
  6
Continuous
100
AcDbCircle
 10
-54.817558
 20
218.372088
 30
0.0
 40
1.0
100
AcDbArc
 50
301.359036
 51
0.0
  0
ARC
  5
118
100
AcDbEntity
  8
0
370
    -3
  6
Continuous
100
AcDbCircle
 10
-63.817558
 20
235.300987
 30
0.0
 40
10.0
100
AcDbArc
 50
356.274963
 51
0.0
  0
ARC
  5
119
100
AcDbEntity
  8
0
370
    -3
  6
Continuous
100
AcDbCircle
 10
-53.77676
 20
216.664242
 30
0.0
 40
1.0
100
AcDbArc
 50
121.359036
 51
177.746047
  0
LINE
  5
11A
100
AcDbEntity
  8
0
370
    -3
  6
Continuous
100
AcDbLine
 10
-53.817558
 20
233.771427
 30
0.0
 11
-53.817558
 21
218.372088
 31
0.0
  0
ARC
  5
11B
100
AcDbEntity
  8
0
370
    -3
  6
Continuous
100
AcDbCircle
 10
-53.317558
 20
233.771427
 30
0.0
 40
0.5
100
AcDbArc
 50
90.0
 51
180.0
  0
LINE
  5
11C
100
AcDbEntity
  8
0
370
    -3
  6
Continuous
100
AcDbLine
 10
-49.317558
 20
234.271427
 30
0.0
 11
-53.317558
 21
234.271427
 31
0.0
  0
ARC
  5
11D
100
AcDbEntity
  8
0
370
    -3
  6
Continuous
100
AcDbCircle
 10
-55.526085
 20
209.379131
 30
0.0
 40
0.5
100
AcDbArc
 50
315.115138
 51
358.347093
  0
ARC
  5
11E
100
AcDbEntity
  8
0
370
    -3
  6
Continuous
100
AcDbCircle
 10
-54.817558
 20
208.673447
 30
0.0
 40
0.5
100
AcDbArc
 50
135.115138
 51
180.0
  0
LINE
  5
11F
100
AcDbEntity
  8
0
370
    -3
  6
Continuous
100
AcDbLine
 10
-55.317558
 20
189.173447
 30
0.0
 11
-55.317558
 21
208.673447
 31
0.0
  0
LINE
  5
120
100
AcDbEntity
  8
0
370
    -3
  6
Continuous
100
AcDbLine
 10
-48.817558
 20
239.673447
 30
0.0
 11
-51.630527
 21
239.673447
 31
0.0
  0
LINE
  5
121
100
AcDbEntity
  8
0
370
    -3
  6
Continuous
100
AcDbLine
 10
-48.817558
 20
240.173447
 30
0.0
 11
-51.59552
 21
240.173447
 31
0.0
  0
ARC
  5
122
100
AcDbEntity
  8
0
370
    -3
  6
Continuous
100
AcDbCircle
 10
-51.630527
 20
237.673447
 30
0.0
 40
2.0
100
AcDbArc
 50
90.0
 51
176.015636
  0
ARC
  5
123
100
AcDbEntity
  8
0
370
    -3
  6
Continuous
100
AcDbCircle
 10
-51.59552
 20
238.173447
 30
0.0
 40
2.0
100
AcDbArc
 50
90.0
 51
175.974492
  0
LINE
  5
124
100
AcDbEntity
  8
0
370
    -3
  6
Continuous
100
AcDbLine
 10
-48.817558
 20
239.673447
 30
0.0
 11
50.182442
 21
239.673447
 31
0.0
  0
LINE
  5
125
100
AcDbEntity
  8
0
370
    -3
  6
Continuous
100
AcDbLine
 10
-48.817558
 20
240.173447
 30
0.0
 11
50.182442
 21
240.173447
 31
0.0
  0
LINE
  5
126
100
AcDbEntity
  8
0
370
    -3
  6
Continuous
100
AcDbLine
 10
-48.817558
 20
235.306529
 30
0.0
 11
50.182442
 21
235.306529
 31
0.0
  0
LINE
  5
127
100
AcDbEntity
  8
0
370
    -3
  6
Continuous
100
AcDbLine
 10
-48.817558
 20
230.215361
 30
0.0
 11
50.182442
 21
230.215361
 31
0.0
  0
LINE
  5
128
100
AcDbEntity
  8
0
370
    -3
  6
Continuous
100
AcDbLine
 10
-48.817558
 20
209.173447
 30
0.0
 11
-41.817558
 21
209.173447
 31
0.0
  0
LINE
  5
129
100
AcDbEntity
  8
0
370
    -3
  6
Continuous
100
AcDbLine
 10
-48.817558
 20
222.477048
 30
0.0
 11
50.182442
 21
222.477048
 31
0.0
  0
LINE
  5
12A
100
AcDbEntity
  8
0
370
    -3
  6
Continuous
100
AcDbLine
 10
-48.817558
 20
220.887838
 30
0.0
 11
50.182442
 21
220.887838
 31
0.0
  0
LINE
  5
12B
100
AcDbEntity
  8
0
370
    -3
  6
Continuous
100
AcDbLine
 10
-48.817558
 20
217.929842
 30
0.0
 11
-41.817558
 21
217.929842
 31
0.0
  0
LINE
  5
12C
100
AcDbEntity
  8
0
370
    -3
  6
Continuous
100
AcDbLine
 10
-48.817558
 20
216.450819
 30
0.0
 11
-41.817558
 21
216.450819
 31
0.0
  0
LINE
  5
12D
100
AcDbEntity
  8
0
370
    -3
  6
Continuous
100
AcDbLine
 10
-48.817558
 20
213.358088
 30
0.0
 11
-41.817558
 21
213.358088
 31
0.0
  0
LINE
  5
12E
100
AcDbEntity
  8
0
370
    -3
  6
Continuous
100
AcDbLine
 10
-48.817558
 20
212.011687
 30
0.0
 11
-41.817558
 21
212.011687
 31
0.0
  0
LINE
  5
12F
100
AcDbEntity
  8
0
370
    -3
  6
Continuous
100
AcDbLine
 10
-48.817558
 20
233.678102
 30
0.0
 11
50.182442
 21
233.678102
 31
0.0
  0
LINE
  5
130
100
AcDbEntity
  8
0
370
    -3
  6
Continuous
100
AcDbLine
 10
-48.817558
 20
229.213882
 30
0.0
 11
50.182442
 21
229.213882
 31
0.0
  0
LINE
  5
131
100
AcDbEntity
  8
0
370
    -3
  6
Continuous
100
AcDbLine
 10
33.182442
 20
209.173447
 30
0.0
 11
50.182442
 21
209.173447
 31
0.0
  0
LINE
  5
132
100
AcDbEntity
  8
0
370
    -3
  6
Continuous
100
AcDbLine
 10
33.182442
 20
212.011687
 30
0.0
 11
50.182442
 21
212.011687
 31
0.0
  0
LINE
  5
133
100
AcDbEntity
  8
0
370
    -3
  6
Continuous
100
AcDbLine
 10
33.182442
 20
213.358088
 30
0.0
 11
50.182442
 21
213.358088
 31
0.0
  0
LINE
  5
134
100
AcDbEntity
  8
0
370
    -3
  6
Continuous
100
AcDbLine
 10
33.182442
 20
216.450819
 30
0.0
 11
50.182442
 21
216.450819
 31
0.0
  0
LINE
  5
135
100
AcDbEntity
  8
0
370
    -3
  6
Continuous
100
AcDbLine
 10
33.182442
 20
217.929842
 30
0.0
 11
50.182442
 21
217.929842
 31
0.0
  0
LINE
  5
136
100
AcDbEntity
  8
0
370
    -3
  6
Continuous
100
AcDbLine
 10
-53.817558
 20
222.997195
 30
0.0
 11
-48.817558
 21
222.997195
 31
0.0
  0
LINE
  5
137
100
AcDbEntity
  8
0
370
    -3
  6
Continuous
100
AcDbLine
 10
-53.817558
 20
220.388932
 30
0.0
 11
-48.817558
 21
220.388932
 31
0.0
  0
LINE
  5
138
100
AcDbEntity
  8
0
370
    -3
  6
Continuous
100
AcDbLine
 10
-53.817558
 20
218.487615
 30
0.0
 11
-48.817558
 21
218.487615
 31
0.0
  0
LINE
  5
139
100
AcDbEntity
  8
0
370
    -3
  6
Continuous
100
AcDbLine
 10
-54.80316
 20
216.004262
 30
0.0
 11
-48.817558
 21
216.004262
 31
0.0
  0
LINE
  5
13A
100
AcDbEntity
  8
0
370
    -3
  6
Continuous
100
AcDbLine
 10
-54.882903
 20
213.837763
 30
0.0
 11
-48.817558
 21
213.837763
 31
0.0
  0
LINE
  5
13B
100
AcDbEntity
  8
0
370
    -3
  6
Continuous
100
AcDbLine
 10
-54.95765
 20
211.617639
 30
0.0
 11
-48.817558
 21
211.617639
 31
0.0
  0
LINE
  5
13C
100
AcDbEntity
  8
0
370
    -3
  6
Continuous
100
AcDbLine
 10
-55.07035
 20
209.173447
 30
0.0
 11
-48.817558
 21
209.173447
 31
0.0
  0
LINE
  5
13D
100
AcDbEntity
  8
0
370
    -3
  6
Continuous
100
AcDbLine
 10
-48.817558
 20
136.673447
 30
0.0
 11
-48.817558
 21
189.173447
 31
0.0
  0
LINE
  5
13E
100
AcDbEntity
  8
0
370
    -3
  6
Continuous
100
AcDbLine
 10
-41.817558
 20
189.173447
 30
0.0
 11
-41.817558
 21
159.673447
 31
0.0
  0
LINE
  5
13F
100
AcDbEntity
  8
0
370
    -3
  6
Continuous
100
AcDbLine
 10
33.182442
 20
189.173447
 30
0.0
 11
33.182442
 21
159.673447
 31
0.0
  0
LINE
  5
140
100
AcDbEntity
  8
0
370
    -3
  6
Continuous
100
AcDbLine
 10
-55.07035
 20
169.173447
 30
0.0
 11
-48.817558
 21
169.173447
 31
0.0
  0
LINE
  5
141
100
AcDbEntity
  8
0
370
    -3
  6
Continuous
100
AcDbLine
 10
-54.95765
 20
166.729254
 30
0.0
 11
-48.817558
 21
166.729254
 31
0.0
  0
LINE
  5
142
100
AcDbEntity
  8
0
370
    -3
  6
Continuous
100
AcDbLine
 10
-54.882903
 20
164.509131
 30
0.0
 11
-48.817558
 21
164.509131
 31
0.0
  0
LINE
  5
143
100
AcDbEntity
  8
0
370
    -3
  6
Continuous
100
AcDbLine
 10
-54.80316
 20
162.342632
 30
0.0
 11
-48.817558
 21
162.342632
 31
0.0
  0
LINE
  5
144
100
AcDbEntity
  8
0
370
    -3
  6
Continuous
100
AcDbLine
 10
-53.817558
 20
159.859278
 30
0.0
 11
-48.817558
 21
159.859278
 31
0.0
  0
LINE
  5
145
100
AcDbEntity
  8
0
370
    -3
  6
Continuous
100
AcDbLine
 10
-53.817558
 20
157.957962
 30
0.0
 11
-48.817558
 21
157.957962
 31
0.0
  0
LINE
  5
146
100
AcDbEntity
  8
0
370
    -3
  6
Continuous
100
AcDbLine
 10
-53.817558
 20
155.349699
 30
0.0
 11
-48.817558
 21
155.349699
 31
0.0
  0
LINE
  5
147
100
AcDbEntity
  8
0
370
    -3
  6
Continuous
100
AcDbLine
 10
33.182442
 20
160.417051
 30
0.0
 11
50.182442
 21
160.417051
 31
0.0
  0
LINE
  5
148
100
AcDbEntity
  8
0
370
    -3
  6
Continuous
100
AcDbLine
 10
-48.817558
 20
160.417051
 30
0.0
 11
-41.817558
 21
160.417051
 31
0.0
  0
LINE
  5
149
100
AcDbEntity
  8
0
370
    -3
  6
Continuous
100
AcDbLine
 10
33.182442
 20
161.896074
 30
0.0
 11
50.182442
 21
161.896074
 31
0.0
  0
LINE
  5
14A
100
AcDbEntity
  8
0
370
    -3
  6
Continuous
100
AcDbLine
 10
-48.817558
 20
161.896074
 30
0.0
 11
-41.817558
 21
161.896074
 31
0.0
  0
LINE
  5
14B
100
AcDbEntity
  8
0
370
    -3
  6
Continuous
100
AcDbLine
 10
33.182442
 20
164.988805
 30
0.0
 11
50.182442
 21
164.988805
 31
0.0
  0
LINE
  5
14C
100
AcDbEntity
  8
0
370
    -3
  6
Continuous
100
AcDbLine
 10
-48.817558
 20
164.988805
 30
0.0
 11
-41.817558
 21
164.988805
 31
0.0
  0
LINE
  5
14D
100
AcDbEntity
  8
0
370
    -3
  6
Continuous
100
AcDbLine
 10
33.182442
 20
166.335207
 30
0.0
 11
50.182442
 21
166.335207
 31
0.0
  0
LINE
  5
14E
100
AcDbEntity
  8
0
370
    -3
  6
Continuous
100
AcDbLine
 10
-48.817558
 20
166.335207
 30
0.0
 11
-41.817558
 21
166.335207
 31
0.0
  0
LINE
  5
14F
100
AcDbEntity
  8
0
370
    -3
  6
Continuous
100
AcDbLine
 10
33.182442
 20
169.173447
 30
0.0
 11
50.182442
 21
169.173447
 31
0.0
  0
LINE
  5
150
100
AcDbEntity
  8
0
370
    -3
  6
Continuous
100
AcDbLine
 10
-48.817558
 20
169.173447
 30
0.0
 11
-41.817558
 21
169.173447
 31
0.0
  0
LINE
  5
151
100
AcDbEntity
  8
0
370
    -3
  6
Continuous
100
AcDbLine
 10
-48.817558
 20
157.459056
 30
0.0
 11
50.182442
 21
157.459056
 31
0.0
  0
LINE
  5
152
100
AcDbEntity
  8
0
370
    -3
  6
Continuous
100
AcDbLine
 10
-48.817558
 20
155.869846
 30
0.0
 11
50.182442
 21
155.869846
 31
0.0
  0
LINE
  5
153
100
AcDbEntity
  8
0
370
    -3
  6
Continuous
100
AcDbLine
 10
-48.817558
 20
149.133011
 30
0.0
 11
50.182442
 21
149.133011
 31
0.0
  0
LINE
  5
154
100
AcDbEntity
  8
0
370
    -3
  6
Continuous
100
AcDbLine
 10
-48.817558
 20
148.131533
 30
0.0
 11
50.182442
 21
148.131533
 31
0.0
  0
LINE
  5
155
100
AcDbEntity
  8
0
370
    -3
  6
Continuous
100
AcDbLine
 10
-48.817558
 20
143.040364
 30
0.0
 11
50.182442
 21
143.040364
 31
0.0
  0
LINE
  5
156
100
AcDbEntity
  8
0
370
    -3
  6
Continuous
100
AcDbLine
 10
-48.817558
 20
144.668791
 30
0.0
 11
50.182442
 21
144.668791
 31
0.0
  0
LINE
  5
157
100
AcDbEntity
  8
0
370
    -3
  6
Continuous
100
AcDbLine
 10
-48.817558
 20
138.173447
 30
0.0
 11
50.182442
 21
138.173447
 31
0.0
  0
LINE
  5
158
100
AcDbEntity
  8
0
370
    -3
  6
Continuous
100
AcDbLine
 10
-48.817558
 20
138.673447
 30
0.0
 11
50.182442
 21
138.673447
 31
0.0
  0
LINE
  5
159
100
AcDbEntity
  8
0
370
    -3
  6
Continuous
100
AcDbLine
 10
-48.817558
 20
138.173447
 30
0.0
 11
-51.59552
 21
138.173447
 31
0.0
  0
LINE
  5
15A
100
AcDbEntity
  8
0
370
    -3
  6
Continuous
100
AcDbLine
 10
-48.817558
 20
138.673447
 30
0.0
 11
-51.630527
 21
138.673447
 31
0.0
  0
ARC
  5
15B
100
AcDbEntity
  8
0
370
    -3
  6
Continuous
100
AcDbCircle
 10
-51.59552
 20
140.173447
 30
0.0
 40
2.0
100
AcDbArc
 50
184.025508
 51
270.0
  0
ARC
  5
15C
100
AcDbEntity
  8
0
370
    -3
  6
Continuous
100
AcDbCircle
 10
-51.630527
 20
140.673447
 30
0.0
 40
2.0
100
AcDbArc
 50
183.984364
 51
270.0
  0
ARC
  5
15D
100
AcDbEntity
  8
0
370
    -3
  6
Continuous
100
AcDbCircle
 10
644.682442
 20
189.173447
 30
0.0
 40
700.0
100
AcDbArc
 50
181.652907
 51
182.865819
  0
ARC
  5
15E
100
AcDbEntity
  8
0
370
    -3
  6
Continuous
100
AcDbCircle
 10
644.682442
 20
189.173447
 30
0.0
 40
700.0
100
AcDbArc
 50
183.620062
 51
184.14895
  0
LINE
  5
15F
100
AcDbEntity
  8
0
370
    -3
  6
Continuous
100
AcDbLine
 10
50.182442
 20
136.673447
 30
0.0
 11
-48.817558
 21
136.673447
 31
0.0
  0
LINE
  5
160
100
AcDbEntity
  8
0
370
    -3
  6
Continuous
100
AcDbLine
 10
31.182442
 20
157.673447
 30
0.0
 11
-39.817558
 21
157.673447
 31
0.0
  0
ARC
  5
161
100
AcDbEntity
  8
0
370
    -3
  6
Continuous
100
AcDbCircle
 10
31.182442
 20
159.673447
 30
0.0
 40
2.0
100
AcDbArc
 50
270.0
 51
0.0
  0
LINE
  5
162
100
AcDbEntity
  8
0
370
    -3
  6
CENTER
100
AcDbLine
 10
-45.760157
 20
149.575467
 30
0.0
 11
-60.391322
 21
149.575467
 31
0.0
  0
ARC
  5
163
100
AcDbEntity
  8
0
370
    -3
  6
Continuous
100
AcDbCircle
 10
-39.817558
 20
159.673447
 30
0.0
 40
2.0
100
AcDbArc
 50
180.0
 51
270.0
  0
LINE
  5
164
100
AcDbEntity
  8
0
370
    -3
  6
Continuous
100
AcDbLine
 10
-49.317558
 20
145.834047
 30
0.0
 11
-48.817558
 21
145.834047
 31
0.0
  0
LINE
  5
165
100
AcDbEntity
  8
0
370
    -3
  6
Continuous
100
AcDbLine
 10
-48.817558
 20
152.925047
 30
0.0
 11
-49.317558
 21
152.925047
 31
0.0
  0
LINE
  5
166
100
AcDbEntity
  8
0
370
    -3
  6
Continuous
100
AcDbLine
 10
-49.317558
 20
144.075467
 30
0.0
 11
-49.317558
 21
152.925047
 31
0.0
  0
ARC
  5
167
100
AcDbEntity
  8
0
370
    -3
  6
Continuous
100
AcDbCircle
 10
-51.488335
 20
138.673447
 30
0.0
 40
2.0
100
AcDbArc
 50
184.14895
 51
270.0
  0
LINE
  5
168
100
AcDbEntity
  8
0
370
    -3
  6
Continuous
100
AcDbLine
 10
-48.817558
 20
136.673447
 30
0.0
 11
-51.488335
 21
136.673447
 31
0.0
  0
ARC
  5
169
100
AcDbEntity
  8
0
370
    -3
  6
Continuous
100
AcDbCircle
 10
-54.817558
 20
159.974805
 30
0.0
 40
1.0
100
AcDbArc
 50
0.0
 51
58.640964
  0
ARC
  5
16A
100
AcDbEntity
  8
0
370
    -3
  6
Continuous
100
AcDbCircle
 10
-63.817558
 20
143.045906
 30
0.0
 40
10.0
100
AcDbArc
 50
0.0
 51
3.725037
  0
ARC
  5
16B
100
AcDbEntity
  8
0
370
    -3
  6
Continuous
100
AcDbCircle
 10
-53.77676
 20
161.682652
 30
0.0
 40
1.0
100
AcDbArc
 50
182.253953
 51
238.640964
  0
LINE
  5
16C
100
AcDbEntity
  8
0
370
    -3
  6
Continuous
100
AcDbLine
 10
-53.817558
 20
144.575467
 30
0.0
 11
-53.817558
 21
159.974805
 31
0.0
  0
ARC
  5
16D
100
AcDbEntity
  8
0
370
    -3
  6
Continuous
100
AcDbCircle
 10
-53.317558
 20
144.575467
 30
0.0
 40
0.5
100
AcDbArc
 50
180.0
 51
270.0
  0
LINE
  5
16E
100
AcDbEntity
  8
0
370
    -3
  6
Continuous
100
AcDbLine
 10
-49.317558
 20
144.075467
 30
0.0
 11
-53.317558
 21
144.075467
 31
0.0
  0
ARC
  5
16F
100
AcDbEntity
  8
0
370
    -3
  6
Continuous
100
AcDbCircle
 10
-55.526085
 20
168.967762
 30
0.0
 40
0.5
100
AcDbArc
 50
1.652907
 51
44.884862
  0
ARC
  5
170
100
AcDbEntity
  8
0
370
    -3
  6
Continuous
100
AcDbCircle
 10
-54.817558
 20
169.673447
 30
0.0
 40
0.5
100
AcDbArc
 50
180.0
 51
224.884862
  0
LINE
  5
171
100
AcDbEntity
  8
0
370
    -3
  6
Continuous
100
AcDbLine
 10
-55.317558
 20
189.173447
 30
0.0
 11
-55.317558
 21
169.673447
 31
0.0
  0
LINE
  5
172
100
AcDbEntity
  8
0
370
    -3
  6
Continuous
100
AcDbLine
 10
31.182442
 20
219.173447
 30
0.0
 11
-39.817558
 21
219.173447
 31
0.0
  0
LINE
  5
173
100
AcDbEntity
  8
0
370
    -3
  6
Continuous
100
AcDbLine
 10
31.182442
 20
159.173447
 30
0.0
 11
-39.817558
 21
159.173447
 31
0.0
  0
LINE
  5
174
100
AcDbEntity
  8
0
370
    -3
  6
Continuous
100
AcDbLine
 10
-40.817558
 20
160.173447
 30
0.0
 11
-40.817558
 21
218.173447
 31
0.0
  0
LINE
  5
175
100
AcDbEntity
  8
0
370
    -3
  6
Continuous
100
AcDbLine
 10
32.182442
 20
218.173447
 30
0.0
 11
32.182442
 21
160.173447
 31
0.0
  0
ARC
  5
176
100
AcDbEntity
  8
0
370
    -3
  6
Continuous
100
AcDbCircle
 10
-39.817558
 20
218.173447
 30
0.0
 40
1.0
100
AcDbArc
 50
90.0
 51
180.0
  0
ARC
  5
177
100
AcDbEntity
  8
0
370
    -3
  6
Continuous
100
AcDbCircle
 10
-39.817558
 20
160.173447
 30
0.0
 40
1.0
100
AcDbArc
 50
180.0
 51
270.0
  0
ARC
  5
178
100
AcDbEntity
  8
0
370
    -3
  6
Continuous
100
AcDbCircle
 10
31.182442
 20
160.173447
 30
0.0
 40
1.0
100
AcDbArc
 50
270.0
 51
0.0
  0
ARC
  5
179
100
AcDbEntity
  8
0
370
    -3
  6
Continuous
100
AcDbCircle
 10
31.182442
 20
218.173447
 30
0.0
 40
1.0
100
AcDbArc
 50
0.0
 51
90.0
  0
INSERT
  5
187
100
AcDbEntity
  8
0
100
AcDbBlockReference
  2
ZU_SYM_K__CAD_SYM_POO_SYM_P28_-1
 10
76.182442
 20
189.173447
 30
0.0
  0
MTEXT
  5
189
100
AcDbEntity
  8
0
370
    -3
  6
Continuous
100
AcDbMText
 10
677.074524
 20
-172.195648
 30
0.0
 40
6.6
 41
0.0
 71
     7
 72
     1
  1
\W0.82;GM-SHYM-RR
  7
ZU_SHPTB00001
 11
1.0
 21
0.0
 31
0.0
 73
     1
 44
1.0
  0
MTEXT
  5
18A
100
AcDbEntity
  8
0
370
    -3
  6
Continuous
100
AcDbMText
 10
677.074524
 20
-183.195648
 30
0.0
 40
6.6
 41
0.0
 71
     7
 72
     1
  1
\W0.82;0.1kW
  7
ZU_SHPTB00001
 11
1.0
 21
0.0
 31
0.0
 73
     1
 44
1.0
  0
MTEXT
  5
18B
100
AcDbEntity
  8
0
370
    -3
  6
Continuous
100
AcDbMText
 10
677.074524
 20
-194.195648
 30
0.0
 40
6.6
 41
0.0
 71
     7
 72
     1
  1
\W0.82;1/1200-1/1440
  7
ZU_SHPTB00001
 11
1.0
 21
0.0
 31
0.0
 73
     1
 44
1.0
  0
MTEXT
  5
18C
100
AcDbEntity
  8
0
370
    -3
  6
Continuous
100
AcDbMText
 10
677.074524
 20
-205.195648
 30
0.0
 40
6.6
 41
0.0
 71
     7
 72
     1
  1
\W0.82;SCALE\W1.36; \W0.82;1/1
  7
ZU_SHPTB00001
 11
1.0
 21
0.0
 31
0.0
 73
     1
 44
1.0
  0
INSERT
  5
19C
100
AcDbEntity
  8
0
100
AcDbBlockReference
  2
ZU_SYM__USERS_HOME_SYMBOL_STD_SYM_B01_-1
 10
86.182435
 20
144.979273
 30
0.0
  0
INSERT
  5
1AC
100
AcDbEntity
  8
0
100
AcDbBlockReference
  2
ZU_SYM__USERS_HOME_SYMBOL_STD_SYM_B01_00002-1
 10
86.182435
 20
233.367621
 30
0.0
 41
-1.0
 50
180.0
  0
LINE
  5
1AD
100
AcDbEntity
  8
0
370
    -3
  6
Continuous
100
AcDbLine
 10
92.182442
 20
248.673447
 30
0.0
 11
92.182442
 21
129.673447
 31
0.0
  0
LINE
  5
1AE
100
AcDbEntity
  8
0
370
    -3
  6
Continuous
100
AcDbLine
 10
90.182442
 20
179.173447
 30
0.0
 11
90.182442
 21
199.173447
 31
0.0
  0
ARC
  5
1AF
100
AcDbEntity
  8
0
370
    -3
  6
Continuous
100
AcDbCircle
 10
87.182442
 20
199.173447
 30
0.0
 40
3.0
100
AcDbArc
 50
0.0
 51
90.0
  0
ARC
  5
1B0
100
AcDbEntity
  8
0
370
    -3
  6
Continuous
100
AcDbCircle
 10
87.182442
 20
179.173447
 30
0.0
 40
3.0
100
AcDbArc
 50
270.0
 51
0.0
  0
LINE
  5
1B1
100
AcDbEntity
  8
0
370
    -3
  6
Continuous
100
AcDbLine
 10
82.182442
 20
132.673447
 30
0.0
 11
82.182442
 21
176.173447
 31
0.0
  0
LINE
  5
1B2
100
AcDbEntity
  8
0
370
    -3
  6
Continuous
100
AcDbLine
 10
82.182442
 20
158.74287
 30
0.0
 11
68.182442
 21
158.74287
 31
0.0
  0
ARC
  5
1B3
100
AcDbEntity
  8
0
370
    -3
  6
Continuous
100
AcDbCircle
 10
68.182442
 20
155.74287
 30
0.0
 40
3.0
100
AcDbArc
 50
90.0
 51
180.0
  0
ARC
  5
1B4
100
AcDbEntity
  8
0
370
    -3
  6
Continuous
100
AcDbCircle
 10
68.182442
 20
173.173447
 30
0.0
 40
3.0
100
AcDbArc
 50
90.0
 51
180.0
  0
LINE
  5
1B5
100
AcDbEntity
  8
0
370
    -3
  6
Continuous
100
AcDbLine
 10
50.182442
 20
176.173447
 30
0.0
 11
87.182442
 21
176.173447
 31
0.0
  0
ARC
  5
1B6
100
AcDbEntity
  8
0
370
    -3
  6
Continuous
100
AcDbCircle
 10
79.182442
 20
132.673447
 30
0.0
 40
3.0
100
AcDbArc
 50
0.0
 51
90.0
  0
ARC
  5
1B7
100
AcDbEntity
  8
0
370
    -3
  6
Continuous
100
AcDbCircle
 10
60.182442
 20
143.173447
 30
0.0
 40
5.0
100
AcDbArc
 50
270.0
 51
0.0
  0
LINE
  5
1B8
100
AcDbEntity
  8
0
370
    -3
  6
Continuous
100
AcDbLine
 10
50.182442
 20
138.173447
 30
0.0
 11
60.182442
 21
138.173447
 31
0.0
  0
ARC
  5
1B9
100
AcDbEntity
  8
0
370
    -3
  6
Continuous
100
AcDbCircle
 10
60.182442
 20
140.673447
 30
0.0
 40
5.0
100
AcDbArc
 50
270.0
 51
0.0
  0
LINE
  5
1BA
100
AcDbEntity
  8
0
370
    -3
  6
Continuous
100
AcDbLine
 10
50.182442
 20
135.673447
 30
0.0
 11
79.182442
 21
135.673447
 31
0.0
  0
ARC
  5
1BB
100
AcDbEntity
  8
0
370
    -3
  6
Continuous
100
AcDbCircle
 10
84.182442
 20
160.74287
 30
0.0
 40
2.0
100
AcDbArc
 50
180.0
 51
270.0
  0
ARC
  5
1BC
100
AcDbEntity
  8
0
370
    -3
  6
Continuous
100
AcDbCircle
 10
84.182442
 20
156.74287
 30
0.0
 40
2.0
100
AcDbArc
 50
0.0
 51
90.0
  0
ARC
  5
1BD
100
AcDbEntity
  8
0
370
    -3
  6
Continuous
100
AcDbCircle
 10
85.182442
 20
133.044418
 30
0.0
 40
3.0
100
AcDbArc
 50
180.0
 51
267.0
  0
LINE
  5
1BE
100
AcDbEntity
  8
0
370
    -3
  6
Continuous
100
AcDbLine
 10
92.182442
 20
129.673447
 30
0.0
 11
85.025435
 21
130.04853
 31
0.0
  0
LINE
  5
1BF
100
AcDbEntity
  8
0
370
    -3
  6
Continuous
100
AcDbLine
 10
86.182442
 20
131.885823
 30
0.0
 11
86.182442
 21
156.74287
 31
0.0
  0
ARC
  5
1C0
100
AcDbEntity
  8
0
370
    -3
  6
Continuous
100
AcDbCircle
 10
88.182442
 20
131.885823
 30
0.0
 40
2.0
100
AcDbArc
 50
180.0
 51
267.0
  0
LINE
  5
1C1
100
AcDbEntity
  8
0
370
    -3
  6
Continuous
100
AcDbLine
 10
65.182442
 20
140.673447
 30
0.0
 11
65.182442
 21
173.173447
 31
0.0
  0
LINE
  5
1C2
100
AcDbEntity
  8
0
370
    -3
  6
Continuous
100
AcDbLine
 10
82.182442
 20
245.673447
 30
0.0
 11
82.182442
 21
202.173447
 31
0.0
  0
LINE
  5
1C3
100
AcDbEntity
  8
0
370
    -3
  6
Continuous
100
AcDbLine
 10
82.182442
 20
219.604024
 30
0.0
 11
68.182442
 21
219.604024
 31
0.0
  0
ARC
  5
1C4
100
AcDbEntity
  8
0
370
    -3
  6
Continuous
100
AcDbCircle
 10
68.182442
 20
222.604024
 30
0.0
 40
3.0
100
AcDbArc
 50
180.0
 51
270.0
  0
ARC
  5
1C5
100
AcDbEntity
  8
0
370
    -3
  6
Continuous
100
AcDbCircle
 10
68.182442
 20
205.173447
 30
0.0
 40
3.0
100
AcDbArc
 50
180.0
 51
270.0
  0
LINE
  5
1C6
100
AcDbEntity
  8
0
370
    -3
  6
Continuous
100
AcDbLine
 10
50.182442
 20
202.173447
 30
0.0
 11
87.182442
 21
202.173447
 31
0.0
  0
ARC
  5
1C7
100
AcDbEntity
  8
0
370
    -3
  6
Continuous
100
AcDbCircle
 10
79.182442
 20
245.673447
 30
0.0
 40
3.0
100
AcDbArc
 50
270.0
 51
0.0
  0
ARC
  5
1C8
100
AcDbEntity
  8
0
370
    -3
  6
Continuous
100
AcDbCircle
 10
60.182442
 20
235.173447
 30
0.0
 40
5.0
100
AcDbArc
 50
0.0
 51
90.0
  0
LINE
  5
1C9
100
AcDbEntity
  8
0
370
    -3
  6
Continuous
100
AcDbLine
 10
50.182442
 20
240.173447
 30
0.0
 11
60.182442
 21
240.173447
 31
0.0
  0
ARC
  5
1CA
100
AcDbEntity
  8
0
370
    -3
  6
Continuous
100
AcDbCircle
 10
60.182442
 20
237.673447
 30
0.0
 40
5.0
100
AcDbArc
 50
0.0
 51
90.0
  0
LINE
  5
1CB
100
AcDbEntity
  8
0
370
    -3
  6
Continuous
100
AcDbLine
 10
50.182442
 20
242.673447
 30
0.0
 11
79.182442
 21
242.673447
 31
0.0
  0
ARC
  5
1CC
100
AcDbEntity
  8
0
370
    -3
  6
Continuous
100
AcDbCircle
 10
84.182442
 20
217.604024
 30
0.0
 40
2.0
100
AcDbArc
 50
90.0
 51
180.0
  0
ARC
  5
1CD
100
AcDbEntity
  8
0
370
    -3
  6
Continuous
100
AcDbCircle
 10
84.182442
 20
221.604024
 30
0.0
 40
2.0
100
AcDbArc
 50
270.0
 51
0.0
  0
ARC
  5
1CE
100
AcDbEntity
  8
0
370
    -3
  6
Continuous
100
AcDbCircle
 10
85.182442
 20
245.302475
 30
0.0
 40
3.0
100
AcDbArc
 50
93.0
 51
180.0
  0
LINE
  5
1CF
100
AcDbEntity
  8
0
370
    -3
  6
Continuous
100
AcDbLine
 10
92.182442
 20
248.673447
 30
0.0
 11
85.025435
 21
248.298364
 31
0.0
  0
LINE
  5
1D0
100
AcDbEntity
  8
0
370
    -3
  6
CENTER
100
AcDbLine
 10
76.182442
 20
198.874226
 30
0.0
 11
76.182442
 21
178.013957
 31
0.0
  0
LINE
  5
1D1
100
AcDbEntity
  8
0
370
    -3
  6
Continuous
100
AcDbLine
 10
86.182442
 20
246.461071
 30
0.0
 11
86.182442
 21
221.604024
 31
0.0
  0
ARC
  5
1D2
100
AcDbEntity
  8
0
370
    -3
  6
Continuous
100
AcDbCircle
 10
88.182442
 20
246.461071
 30
0.0
 40
2.0
100
AcDbArc
 50
93.0
 51
180.0
  0
LINE
  5
1D3
100
AcDbEntity
  8
0
370
    -3
  6
Continuous
100
AcDbLine
 10
65.182442
 20
237.673447
 30
0.0
 11
65.182442
 21
205.173447
 31
0.0
  0
LINE
  5
1D4
100
AcDbEntity
  8
0
370
    -3
  6
Continuous
100
AcDbLine
 10
50.182442
 20
135.673447
 30
0.0
 11
50.182442
 21
189.173447
 31
0.0
  0
LINE
  5
1D5
100
AcDbEntity
  8
0
370
    -3
  6
Continuous
100
AcDbLine
 10
50.182442
 20
242.673447
 30
0.0
 11
50.182442
 21
189.173447
 31
0.0
  0
LINE
  5
1D6
100
AcDbEntity
  8
0
370
    -3
  6
Continuous
100
AcDbLine
 10
92.182442
 20
248.673447
 30
0.0
 11
92.182442
 21
189.173447
 31
0.0
  0
LINE
  5
1D7
100
AcDbEntity
  8
0
370
    -3
  6
Continuous
100
AcDbLine
 10
92.182442
 20
129.673447
 30
0.0
 11
92.182442
 21
189.173447
 31
0.0
  0
LINE
  5
1D8
100
AcDbEntity
  8
0
370
    -3
  6
Continuous
100
AcDbLine
 10
92.182442
 20
130.673447
 30
0.0
 11
92.182442
 21
189.173447
 31
0.0
  0
LINE
  5
1D9
100
AcDbEntity
  8
0
370
    -3
  6
Continuous
100
AcDbLine
 10
92.182442
 20
247.673447
 30
0.0
 11
92.182442
 21
189.173447
 31
0.0
  0
LINE
  5
1DA
100
AcDbEntity
  8
0
370
    -3
  6
Continuous
100
AcDbLine
 10
92.182442
 20
130.673447
 30
0.0
 11
92.182442
 21
247.673447
 31
0.0
  0
LINE
  5
1DB
100
AcDbEntity
  8
0
370
    -3
  6
Continuous
100
AcDbLine
 10
50.182442
 20
136.673447
 30
0.0
 11
50.182442
 21
142.425838
 31
0.0
  0
LINE
  5
1DC
100
AcDbEntity
  8
0
370
    -3
  6
Continuous
100
AcDbLine
 10
50.182442
 20
241.673447
 30
0.0
 11
50.182442
 21
235.973447
 31
0.0
  0
LINE
  5
1DD
100
AcDbEntity
  8
0
370
    -3
  6
CENTER
100
AcDbLine
 10
-65.10074
 20
189.173447
 30
0.0
 11
315.156933
 21
189.173447
 31
0.0
  0
LINE
  5
1DE
100
AcDbEntity
  8
0
370
    -3
  6
Continuous
100
AcDbLine
 10
112.182434
 20
145.173845
 30
0.0
 11
118.472669
 21
145.173845
 31
0.0
  0
LINE
  5
1DF
100
AcDbEntity
  8
0
370
    -3
  6
Continuous
100
AcDbLine
 10
92.182434
 20
129.690902
 30
0.0
 11
106.131063
 21
129.434887
 31
0.0
  0
LINE
  5
1E0
100
AcDbEntity
  8
0
370
    -3
  6
Continuous
100
AcDbLine
 10
92.182434
 20
248.655992
 30
0.0
 11
106.131063
 21
248.912008
 31
0.0
  0
LINE
  5
1E1
100
AcDbEntity
  8
0
370
    -3
  6
Continuous
100
AcDbLine
 10
92.182434
 20
169.173447
 30
0.0
 11
98.182434
 21
169.173447
 31
0.0
  0
LINE
  5
1E2
100
AcDbEntity
  8
0
370
    -3
  6
Continuous
100
AcDbLine
 10
92.182434
 20
209.173447
 30
0.0
 11
98.182434
 21
209.173447
 31
0.0
  0
LINE
  5
1E3
100
AcDbEntity
  8
0
370
    -3
  6
Continuous
100
AcDbLine
 10
101.182434
 20
137.07714
 30
0.0
 11
106.182434
 21
137.07714
 31
0.0
  0
LINE
  5
1E4
100
AcDbEntity
  8
0
370
    -3
  6
Continuous
100
AcDbLine
 10
101.182434
 20
143.988716
 30
0.0
 11
106.182434
 21
143.988716
 31
0.0
  0
LINE
  5
1E5
100
AcDbEntity
  8
0
370
    -3
  6
Continuous
100
AcDbLine
 10
101.182434
 20
234.358178
 30
0.0
 11
106.182434
 21
234.358178
 31
0.0
  0
LINE
  5
1E6
100
AcDbEntity
  8
0
370
    -3
  6
Continuous
100
AcDbLine
 10
101.182434
 20
241.269755
 30
0.0
 11
106.182434
 21
241.269755
 31
0.0
  0
LINE
  5
1E7
100
AcDbEntity
  8
0
370
    -3
  6
Continuous
100
AcDbLine
 10
98.182434
 20
244.673447
 30
0.0
 11
98.182434
 21
245.673447
 31
0.0
  0
LINE
  5
1E8
100
AcDbEntity
  8
0
370
    -3
  6
Continuous
100
AcDbLine
 10
101.182434
 20
228.174714
 30
0.0
 11
106.182434
 21
228.174714
 31
0.0
  0
LINE
  5
1E9
100
AcDbEntity
  8
0
370
    -3
  6
Continuous
100
AcDbLine
 10
98.182434
 20
231.358178
 30
0.0
 11
98.182434
 21
189.173447
 31
0.0
  0
LINE
  5
1EA
100
AcDbEntity
  8
0
370
    -3
  6
Continuous
100
AcDbLine
 10
98.182434
 20
244.673447
 30
0.0
 11
98.182434
 21
244.269755
 31
0.0
  0
LINE
  5
1EB
100
AcDbEntity
  8
0
370
    -3
  6
Continuous
100
AcDbLine
 10
98.182434
 20
133.673447
 30
0.0
 11
98.182434
 21
132.673447
 31
0.0
  0
LINE
  5
1EC
100
AcDbEntity
  8
0
370
    -3
  6
Continuous
100
AcDbLine
 10
98.182434
 20
133.673447
 30
0.0
 11
98.182434
 21
134.07714
 31
0.0
  0
LINE
  5
1ED
100
AcDbEntity
  8
0
370
    -3
  6
Continuous
100
AcDbLine
 10
98.182434
 20
133.673447
 30
0.0
 11
98.182434
 21
134.07714
 31
0.0
  0
LINE
  5
1EE
100
AcDbEntity
  8
0
370
    -3
  6
Continuous
100
AcDbLine
 10
101.182434
 20
150.17218
 30
0.0
 11
106.182434
 21
150.17218
 31
0.0
  0
LINE
  5
1EF
100
AcDbEntity
  8
0
370
    -3
  6
Continuous
100
AcDbLine
 10
98.182434
 20
146.988716
 30
0.0
 11
98.182434
 21
189.173447
 31
0.0
  0
ARC
  5
1F0
100
AcDbEntity
  8
0
370
    -3
  6
Continuous
100
AcDbCircle
 10
101.182434
 20
244.269755
 30
0.0
 40
3.0
100
AcDbArc
 50
180.0
 51
270.0
  0
ARC
  5
1F1
100
AcDbEntity
  8
0
370
    -3
  6
Continuous
100
AcDbCircle
 10
101.182434
 20
231.358178
 30
0.0
 40
3.0
100
AcDbArc
 50
90.0
 51
180.0
  0
ARC
  5
1F2
100
AcDbEntity
  8
0
370
    -3
  6
Continuous
100
AcDbCircle
 10
101.182434
 20
225.174714
 30
0.0
 40
3.0
100
AcDbArc
 50
90.0
 51
180.0
  0
ARC
  5
1F3
100
AcDbEntity
  8
0
370
    -3
  6
Continuous
100
AcDbCircle
 10
95.182434
 20
245.673447
 30
0.0
 40
3.0
100
AcDbArc
 50
0.0
 51
90.0
  0
ARC
  5
1F4
100
AcDbEntity
  8
0
370
    -3
  6
Continuous
100
AcDbCircle
 10
95.182434
 20
132.673447
 30
0.0
 40
3.0
100
AcDbArc
 50
270.0
 51
0.0
  0
ARC
  5
1F5
100
AcDbEntity
  8
0
370
    -3
  6
Continuous
100
AcDbCircle
 10
101.182434
 20
146.988716
 30
0.0
 40
3.0
100
AcDbArc
 50
180.0
 51
270.0
  0
ARC
  5
1F6
100
AcDbEntity
  8
0
370
    -3
  6
Continuous
100
AcDbCircle
 10
101.182434
 20
134.07714
 30
0.0
 40
3.0
100
AcDbArc
 50
90.0
 51
180.0
  0
ARC
  5
1F7
100
AcDbEntity
  8
0
370
    -3
  6
Continuous
100
AcDbCircle
 10
101.182434
 20
153.17218
 30
0.0
 40
3.0
100
AcDbArc
 50
180.0
 51
270.0
  0
ARC
  5
1F8
100
AcDbEntity
  8
0
370
    -3
  6
Continuous
100
AcDbCircle
 10
106.182434
 20
245.912448
 30
0.0
 40
3.0
100
AcDbArc
 50
0.0
 51
90.981173
  0
ARC
  5
1F9
100
AcDbEntity
  8
0
370
    -3
  6
Continuous
100
AcDbCircle
 10
106.182434
 20
132.434447
 30
0.0
 40
3.0
100
AcDbArc
 50
269.018827
 51
0.0
  0
ARC
  5
1FA
100
AcDbEntity
  8
0
370
    -3
  6
Continuous
100
AcDbCircle
 10
106.182434
 20
140.07714
 30
0.0
 40
3.0
100
AcDbArc
 50
270.0
 51
0.0
  0
ARC
  5
1FB
100
AcDbEntity
  8
0
370
    -3
  6
Continuous
100
AcDbCircle
 10
106.182434
 20
146.988716
 30
0.0
 40
3.0
100
AcDbArc
 50
270.0
 51
0.0
  0
ARC
  5
1FC
100
AcDbEntity
  8
0
370
    -3
  6
Continuous
100
AcDbCircle
 10
106.182434
 20
238.269755
 30
0.0
 40
3.0
100
AcDbArc
 50
0.0
 51
90.0
  0
ARC
  5
1FD
100
AcDbEntity
  8
0
370
    -3
  6
Continuous
100
AcDbCircle
 10
106.182434
 20
231.358178
 30
0.0
 40
3.0
100
AcDbArc
 50
0.0
 51
90.0
  0
ARC
  5
1FE
100
AcDbEntity
  8
0
370
    -3
  6
Continuous
100
AcDbCircle
 10
112.182434
 20
142.173845
 30
0.0
 40
3.0
100
AcDbArc
 50
90.0
 51
180.0
  0
LINE
  5
1FF
100
AcDbEntity
  8
0
370
    -3
  6
Continuous
100
AcDbLine
 10
120.078528
 20
233.173447
 30
0.0
 11
112.182434
 21
233.173447
 31
0.0
  0
ARC
  5
200
100
AcDbEntity
  8
0
370
    -3
  6
Continuous
100
AcDbCircle
 10
112.182434
 20
236.173447
 30
0.0
 40
3.0
100
AcDbArc
 50
180.0
 51
270.0
  0
LINE
  5
201
100
AcDbEntity
  8
0
370
    -3
  6
Continuous
100
AcDbLine
 10
109.182434
 20
132.434447
 30
0.0
 11
109.182434
 21
245.912448
 31
0.0
  0
ARC
  5
202
100
AcDbEntity
  8
0
370
    -3
  6
Continuous
100
AcDbCircle
 10
120.078528
 20
235.173447
 30
0.0
 40
2.0
100
AcDbArc
 50
270.0
 51
359.0
  0
ARC
  5
203
100
AcDbEntity
  8
0
370
    -3
  6
Continuous
100
AcDbCircle
 10
118.472669
 20
143.173845
 30
0.0
 40
2.0
100
AcDbArc
 50
359.0
 51
90.0
  0
ARC
  5
204
100
AcDbEntity
  8
0
370
    -3
  6
Continuous
100
AcDbCircle
 10
238.682667
 20
109.173254
 30
0.0
 40
5.0
100
AcDbArc
 50
0.0
 51
180.0
  0
LINE
  5
205
100
AcDbEntity
  8
0
370
    -3
  6
Continuous
100
AcDbLine
 10
233.682667
 20
69.173254
 30
0.0
 11
233.682667
 21
109.173254
 31
0.0
  0
LINE
  5
206
100
AcDbEntity
  8
0
370
    -3
  6
Continuous
100
AcDbLine
 10
233.682667
 20
109.173254
 30
0.0
 11
243.682667
 21
109.173254
 31
0.0
  0
LINE
  5
207
100
AcDbEntity
  8
0
370
    -3
  6
Continuous
100
AcDbLine
 10
243.682667
 20
69.173254
 30
0.0
 11
243.682667
 21
109.173254
 31
0.0
  0
ARC
  5
208
100
AcDbEntity
  8
0
370
    -3
  6
Continuous
100
AcDbCircle
 10
253.88227
 20
69.973254
 30
0.0
 40
0.8
100
AcDbArc
 50
270.0
 51
0.0
  0
LINE
  5
209
100
AcDbEntity
  8
0
370
    -3
  6
Continuous
100
AcDbLine
 10
254.68227
 20
123.773186
 30
0.0
 11
254.68227
 21
69.973254
 31
0.0
  0
ARC
  5
20A
100
AcDbEntity
  8
0
370
    -3
  6
Continuous
100
AcDbCircle
 10
255.08227
 20
123.773186
 30
0.0
 40
0.4
100
AcDbArc
 50
90.0
 51
180.0
  0
ARC
  5
20B
100
AcDbEntity
  8
0
370
    -3
  6
Continuous
100
AcDbCircle
 10
255.78227
 20
124.573186
 30
0.0
 40
0.4
100
AcDbArc
 50
270.0
 51
0.0
  0
LINE
  5
20C
100
AcDbEntity
  8
0
370
    -3
  6
Continuous
100
AcDbLine
 10
222.68227
 20
69.173254
 30
0.0
 11
253.88227
 21
69.173254
 31
0.0
  0
ARC
  5
20D
100
AcDbEntity
  8
0
370
    -3
  6
Continuous
100
AcDbCircle
 10
223.48227
 20
69.973254
 30
0.0
 40
0.8
100
AcDbArc
 50
180.0
 51
270.0
  0
LINE
  5
20E
100
AcDbEntity
  8
0
370
    -3
  6
Continuous
100
AcDbLine
 10
221.58227
 20
124.173186
 30
0.0
 11
255.78227
 21
124.173186
 31
0.0
  0
LINE
  5
20F
100
AcDbEntity
  8
0
370
    -3
  6
Continuous
100
AcDbLine
 10
222.68227
 20
123.773186
 30
0.0
 11
222.68227
 21
69.973254
 31
0.0
  0
ARC
  5
210
100
AcDbEntity
  8
0
370
    -3
  6
Continuous
100
AcDbCircle
 10
222.28227
 20
123.773186
 30
0.0
 40
0.4
100
AcDbArc
 50
0.0
 51
90.0
  0
ARC
  5
211
100
AcDbEntity
  8
0
370
    -3
  6
Continuous
100
AcDbCircle
 10
221.58227
 20
124.573186
 30
0.0
 40
0.4
100
AcDbArc
 50
180.0
 51
270.0
  0
LINE
  5
212
100
AcDbEntity
  8
0
370
    -3
  6
Continuous
100
AcDbLine
 10
256.18227
 20
126.173049
 30
0.0
 11
256.18227
 21
124.573186
 31
0.0
  0
LINE
  5
213
100
AcDbEntity
  8
0
370
    -3
  6
Continuous
100
AcDbLine
 10
221.18227
 20
126.173049
 30
0.0
 11
221.18227
 21
124.573186
 31
0.0
  0
LINE
  5
214
100
AcDbEntity
  8
0
370
    -3
  6
Continuous
100
AcDbLine
 10
191.182667
 20
126.173447
 30
0.0
 11
191.182667
 21
131.173447
 31
0.0
  0
LINE
  5
215
100
AcDbEntity
  8
0
370
    -3
  6
Continuous
100
AcDbLine
 10
286.182667
 20
252.173447
 30
0.0
 11
286.182667
 21
247.173447
 31
0.0
  0
LINE
  5
216
100
AcDbEntity
  8
0
370
    -3
  6
Continuous
100
AcDbLine
 10
286.182667
 20
126.173447
 30
0.0
 11
191.182667
 21
126.173447
 31
0.0
  0
LINE
  5
217
100
AcDbEntity
  8
0
370
    -3
  6
Continuous
100
AcDbLine
 10
238.91134
 20
252.173845
 30
0.0
 11
191.182667
 21
252.173845
 31
0.0
  0
LINE
  5
218
100
AcDbEntity
  8
0
370
    -3
  6
Continuous
100
AcDbLine
 10
191.182667
 20
252.173845
 30
0.0
 11
191.182667
 21
247.173447
 31
0.0
  0
LINE
  5
219
100
AcDbEntity
  8
0
370
    -3
  6
Continuous
100
AcDbLine
 10
238.91134
 20
252.173845
 30
0.0
 11
286.182667
 21
252.173845
 31
0.0
  0
LINE
  5
21A
100
AcDbEntity
  8
0
370
    -3
  6
CENTER
100
AcDbLine
 10
238.682667
 20
265.88919
 30
0.0
 11
238.682667
 21
64.532584
 31
0.0
  0
LINE
  5
21B
100
AcDbEntity
  8
0
370
    -3
  6
Continuous
100
AcDbLine
 10
222.481771
 20
247.173447
 30
0.0
 11
308.823696
 21
247.173447
 31
0.0
  0
LINE
  5
21C
100
AcDbEntity
  8
0
370
    -3
  6
Continuous
100
AcDbLine
 10
222.481771
 20
143.173447
 30
0.0
 11
310.4732
 21
143.173447
 31
0.0
  0
LINE
  5
21D
100
AcDbEntity
  8
0
370
    -3
  6
Continuous
100
AcDbLine
 10
222.481771
 20
131.17305
 30
0.0
 11
309.763808
 21
131.17305
 31
0.0
  0
LINE
  5
21E
100
AcDbEntity
  8
0
370
    -3
  6
Continuous
100
AcDbLine
 10
222.481771
 20
131.17305
 30
0.0
 11
120.682442
 21
131.17305
 31
0.0
  0
LINE
  5
21F
100
AcDbEntity
  8
0
370
    -3
  6
Continuous
100
AcDbLine
 10
120.472975
 20
143.173447
 30
0.0
 11
222.481771
 21
143.173447
 31
0.0
  0
LINE
  5
220
100
AcDbEntity
  8
0
370
    -3
  6
Continuous
100
AcDbLine
 10
122.122478
 20
247.173447
 30
0.0
 11
222.481771
 21
247.173447
 31
0.0
  0
LINE
  5
221
100
AcDbEntity
  8
0
370
    -3
  6
Continuous
100
AcDbLine
 10
310.4732
 20
143.173447
 30
0.0
 11
308.823696
 21
237.673447
 31
0.0
  0
LINE
  5
222
100
AcDbEntity
  8
0
370
    -3
  6
Continuous
100
AcDbLine
 10
308.823696
 20
237.673447
 30
0.0
 11
308.823696
 21
247.173447
 31
0.0
  0
LINE
  5
223
100
AcDbEntity
  8
0
370
    -3
  6
Continuous
100
AcDbLine
 10
310.272457
 20
131.672897
 30
0.0
 11
310.4732
 21
143.173447
 31
0.0
  0
LINE
  5
224
100
AcDbEntity
  8
0
370
    -3
  6
Continuous
100
AcDbLine
 10
238.682667
 20
126.17305
 30
0.0
 11
191.182667
 21
126.17305
 31
0.0
  0
LINE
  5
225
100
AcDbEntity
  8
0
370
    -3
  6
Continuous
100
AcDbLine
 10
309.763808
 20
131.17305
 30
0.0
 11
310.272457
 21
131.672897
 31
0.0
  0
LINE
  5
226
100
AcDbEntity
  8
0
370
    -3
  6
Continuous
100
AcDbLine
 10
120.682442
 20
131.17305
 30
0.0
 11
120.472975
 21
143.173447
 31
0.0
  0
LINE
  5
227
100
AcDbEntity
  8
0
370
    -3
  6
Continuous
100
AcDbLine
 10
120.472975
 20
143.173447
 30
0.0
 11
122.122478
 21
237.673447
 31
0.0
  0
LINE
  5
228
100
AcDbEntity
  8
0
370
    -3
  6
Continuous
100
AcDbLine
 10
122.122478
 20
237.673447
 30
0.0
 11
122.122478
 21
247.173447
 31
0.0
  0
POINT
  5
229
100
AcDbEntity
  8
0
370
    -3
  6
Continuous
100
AcDbPoint
 10
376.682667
 20
-90.972883
 30
0.0
  0
LINE
  5
22A
100
AcDbEntity
  8
0
370
    -3
  6
CENTER
100
AcDbLine
 10
397.902486
 20
-106.972883
 30
0.0
 11
356.805712
 21
-106.972883
 31
0.0
  0
LINE
  5
22B
100
AcDbEntity
  8
0
370
    -3
  6
CENTER
100
AcDbLine
 10
376.682667
 20
-83.474871
 30
0.0
 11
376.682667
 21
-127.996376
 31
0.0
  0
LINE
  5
22C
100
AcDbEntity
  8
0
370
    -3
  6
Continuous
100
AcDbLine
 10
381.682667
 20
-87.972883
 30
0.0
 11
381.682667
 21
-95.972883
 31
0.0
  0
LINE
  5
22D
100
AcDbEntity
  8
0
370
    -3
  6
Continuous
100
AcDbLine
 10
381.682667
 20
-87.972883
 30
0.0
 11
371.682667
 21
-87.972883
 31
0.0
  0
LINE
  5
22E
100
AcDbEntity
  8
0
370
    -3
  6
Continuous
100
AcDbLine
 10
371.682667
 20
-87.972883
 30
0.0
 11
371.682667
 21
-95.972883
 31
0.0
  0
LINE
  5
22F
100
AcDbEntity
  8
0
370
    -3
  6
Continuous
100
AcDbLine
 10
371.682667
 20
-95.972883
 30
0.0
 11
381.682667
 21
-95.972883
 31
0.0
  0
ARC
  5
230
100
AcDbEntity
  8
0
370
    -3
  6
Continuous
100
AcDbCircle
 10
376.682667
 20
-106.972883
 30
0.0
 40
16.0
100
AcDbArc
 50
108.209957
 51
71.790043
  0
CIRCLE
  5
231
100
AcDbEntity
  8
0
370
    -3
  6
Continuous
100
AcDbCircle
 10
376.682667
 20
-106.972883
 30
0.0
 40
4.0
  0
CIRCLE
  5
232
100
AcDbEntity
  8
0
370
    -3
  6
Continuous
100
AcDbCircle
 10
376.682667
 20
-106.972883
 30
0.0
 40
3.5
  0
CIRCLE
  5
233
100
AcDbEntity
  8
0
370
    -3
  6
Continuous
100
AcDbCircle
 10
238.682676
 20
-106.97304
 30
0.0
 40
52.5
  0
LINE
  5
234
100
AcDbEntity
  8
0
370
    -3
  6
Continuous
100
AcDbLine
 10
233.682676
 20
-87.97304
 30
0.0
 11
233.682676
 21
-95.97304
 31
0.0
  0
LINE
  5
235
100
AcDbEntity
  8
0
370
    -3
  6
Continuous
100
AcDbLine
 10
243.682676
 20
-95.97304
 30
0.0
 11
233.682676
 21
-95.97304
 31
0.0
  0
LINE
  5
236
100
AcDbEntity
  8
0
370
    -3
  6
Continuous
100
AcDbLine
 10
243.682676
 20
-87.97304
 30
0.0
 11
243.682676
 21
-95.97304
 31
0.0
  0
LINE
  5
237
100
AcDbEntity
  8
0
370
    -3
  6
Continuous
100
AcDbLine
 10
233.682676
 20
-87.97304
 30
0.0
 11
243.682676
 21
-87.97304
 31
0.0
  0
CIRCLE
  5
238
100
AcDbEntity
  8
0
370
    -3
  6
Continuous
100
AcDbCircle
 10
238.682676
 20
-106.97304
 30
0.0
 40
3.5
  0
CIRCLE
  5
239
100
AcDbEntity
  8
0
370
    -3
  6
Continuous
100
AcDbCircle
 10
238.682676
 20
-106.97304
 30
0.0
 40
4.0
  0
ARC
  5
23A
100
AcDbEntity
  8
0
370
    -3
  6
Continuous
100
AcDbCircle
 10
238.682676
 20
-106.97304
 30
0.0
 40
16.0
100
AcDbArc
 50
108.209957
 51
71.790043
  0
LINE
  5
23B
100
AcDbEntity
  8
0
370
    -3
  6
Continuous
100
AcDbLine
 10
309.682676
 20
-198.97304
 30
0.0
 11
309.682676
 21
-46.97304
 31
0.0
  0
ARC
  5
23C
100
AcDbEntity
  8
0
370
    -3
  6
Continuous
100
AcDbCircle
 10
291.682676
 20
-171.295115
 30
0.0
 40
7.5
100
AcDbArc
 50
279.206896
 51
0.0
  0
LINE
  5
23D
100
AcDbEntity
  8
0
370
    -3
  6
Continuous
100
AcDbLine
 10
299.182676
 20
-171.295115
 30
0.0
 11
299.182676
 21
-74.650965
 31
0.0
  0
ARC
  5
23E
100
AcDbEntity
  8
0
370
    -3
  6
Continuous
100
AcDbCircle
 10
291.682676
 20
-74.650965
 30
0.0
 40
7.5
100
AcDbArc
 50
0.0
 51
80.793104
  0
ARC
  5
23F
100
AcDbEntity
  8
0
370
    -3
  6
Continuous
100
AcDbCircle
 10
295.682676
 20
-49.97304
 30
0.0
 40
17.5
100
AcDbArc
 50
211.5123
 51
260.793104
  0
ARC
  5
240
100
AcDbEntity
  8
0
370
    -3
  6
Continuous
100
AcDbCircle
 10
277.779588
 20
-60.949354
 30
0.0
 40
3.5
100
AcDbArc
 50
31.5123
 51
86.955283
  0
ARC
  5
241
100
AcDbEntity
  8
0
370
    -3
  6
Continuous
100
AcDbCircle
 10
278.682549
 20
-43.973351
 30
0.0
 40
13.5
100
AcDbArc
 50
200.666196
 51
266.955283
  0
ARC
  5
242
100
AcDbEntity
  8
0
370
    -3
  6
Continuous
100
AcDbCircle
 10
262.776458
 20
-49.97304
 30
0.0
 40
3.5
100
AcDbArc
 50
20.666196
 51
90.0
  0
LINE
  5
243
100
AcDbEntity
  8
0
370
    -3
  6
Continuous
100
AcDbLine
 10
262.776458
 20
-46.47304
 30
0.0
 11
170.58864
 21
-46.47304
 31
0.0
  0
ARC
  5
244
100
AcDbEntity
  8
0
370
    -3
  6
Continuous
100
AcDbCircle
 10
170.58864
 20
-49.97304
 30
0.0
 40
3.5
100
AcDbArc
 50
90.0
 51
159.333804
  0
ARC
  5
245
100
AcDbEntity
  8
0
370
    -3
  6
Continuous
100
AcDbCircle
 10
170.588405
 20
-195.97304
 30
0.0
 40
3.5
100
AcDbArc
 50
200.668437
 51
270.0
  0
LINE
  5
246
100
AcDbEntity
  8
0
370
    -3
  6
Continuous
100
AcDbLine
 10
170.588405
 20
-199.47304
 30
0.0
 11
262.776692
 21
-199.47304
 31
0.0
  0
ARC
  5
247
100
AcDbEntity
  8
0
370
    -3
  6
Continuous
100
AcDbCircle
 10
262.776692
 20
-195.97304
 30
0.0
 40
3.5
100
AcDbArc
 50
270.0
 51
339.331563
  0
ARC
  5
248
100
AcDbEntity
  8
0
370
    -3
  6
Continuous
100
AcDbCircle
 10
278.682549
 20
-201.973351
 30
0.0
 40
13.5
100
AcDbArc
 50
93.046047
 51
159.331563
  0
ARC
  5
249
100
AcDbEntity
  8
0
370
    -3
  6
Continuous
100
AcDbCircle
 10
277.779194
 20
-184.997369
 30
0.0
 40
3.5
100
AcDbArc
 50
273.046047
 51
328.489758
  0
ARC
  5
24A
100
AcDbEntity
  8
0
370
    -3
  6
Continuous
100
AcDbCircle
 10
295.682676
 20
-195.97304
 30
0.0
 40
17.5
100
AcDbArc
 50
99.206896
 51
148.489758
  0
ARC
  5
24B
100
AcDbEntity
  8
0
370
    -3
  6
Continuous
100
AcDbCircle
 10
298.682676
 20
-46.97304
 30
0.0
 40
11.0
100
AcDbArc
 50
0.0
 51
90.0
  0
ARC
  5
24C
100
AcDbEntity
  8
0
370
    -3
  6
Continuous
100
AcDbCircle
 10
298.682676
 20
-46.97304
 30
0.0
 40
12.0
100
AcDbArc
 50
0.0
 51
90.0
  0
ARC
  5
24D
100
AcDbEntity
  8
0
370
    -3
  6
Continuous
100
AcDbCircle
 10
298.682676
 20
-198.97304
 30
0.0
 40
12.0
100
AcDbArc
 50
270.0
 51
0.0
  0
ARC
  5
24E
100
AcDbEntity
  8
0
370
    -3
  6
Continuous
100
AcDbCircle
 10
298.682676
 20
-198.97304
 30
0.0
 40
11.0
100
AcDbArc
 50
270.0
 51
0.0
  0
ARC
  5
24F
100
AcDbEntity
  8
0
370
    -3
  6
Continuous
100
AcDbCircle
 10
170.58864
 20
-49.97304
 30
0.0
 40
5.5
100
AcDbArc
 50
90.0
 51
159.333804
  0
LINE
  5
250
100
AcDbEntity
  8
0
370
    -3
  6
Continuous
100
AcDbLine
 10
170.58864
 20
-44.47304
 30
0.0
 11
262.776458
 21
-44.47304
 31
0.0
  0
ARC
  5
251
100
AcDbEntity
  8
0
370
    -3
  6
Continuous
100
AcDbCircle
 10
262.776458
 20
-49.97304
 30
0.0
 40
5.5
100
AcDbArc
 50
20.666196
 51
90.0
  0
ARC
  5
252
100
AcDbEntity
  8
0
370
    -3
  6
Continuous
100
AcDbCircle
 10
278.682549
 20
-43.973351
 30
0.0
 40
11.5
100
AcDbArc
 50
200.666196
 51
266.955283
  0
ARC
  5
253
100
AcDbEntity
  8
0
370
    -3
  6
Continuous
100
AcDbCircle
 10
277.779588
 20
-60.949354
 30
0.0
 40
5.5
100
AcDbArc
 50
31.5123
 51
86.955283
  0
ARC
  5
254
100
AcDbEntity
  8
0
370
    -3
  6
Continuous
100
AcDbCircle
 10
295.682676
 20
-49.97304
 30
0.0
 40
15.5
100
AcDbArc
 50
211.5123
 51
260.793104
  0
ARC
  5
255
100
AcDbEntity
  8
0
370
    -3
  6
Continuous
100
AcDbCircle
 10
291.682676
 20
-74.650965
 30
0.0
 40
9.5
100
AcDbArc
 50
0.0
 51
80.793104
  0
LINE
  5
256
100
AcDbEntity
  8
0
370
    -3
  6
Continuous
100
AcDbLine
 10
301.182676
 20
-74.650965
 30
0.0
 11
301.182676
 21
-171.295115
 31
0.0
  0
ARC
  5
257
100
AcDbEntity
  8
0
370
    -3
  6
Continuous
100
AcDbCircle
 10
291.682676
 20
-171.295115
 30
0.0
 40
9.5
100
AcDbArc
 50
279.206896
 51
0.0
  0
ARC
  5
258
100
AcDbEntity
  8
0
370
    -3
  6
Continuous
100
AcDbCircle
 10
295.682676
 20
-195.97304
 30
0.0
 40
15.5
100
AcDbArc
 50
99.206896
 51
148.489758
  0
ARC
  5
259
100
AcDbEntity
  8
0
370
    -3
  6
Continuous
100
AcDbCircle
 10
277.779194
 20
-184.997369
 30
0.0
 40
5.5
100
AcDbArc
 50
273.046047
 51
328.489758
  0
ARC
  5
25A
100
AcDbEntity
  8
0
370
    -3
  6
Continuous
100
AcDbCircle
 10
278.682549
 20
-201.973351
 30
0.0
 40
11.5
100
AcDbArc
 50
93.046047
 51
159.331563
  0
ARC
  5
25B
100
AcDbEntity
  8
0
370
    -3
  6
Continuous
100
AcDbCircle
 10
262.776692
 20
-195.97304
 30
0.0
 40
5.5
100
AcDbArc
 50
270.0
 51
339.331563
  0
LINE
  5
25C
100
AcDbEntity
  8
0
370
    -3
  6
Continuous
100
AcDbLine
 10
262.776692
 20
-201.47304
 30
0.0
 11
170.588405
 21
-201.47304
 31
0.0
  0
ARC
  5
25D
100
AcDbEntity
  8
0
370
    -3
  6
Continuous
100
AcDbCircle
 10
170.588405
 20
-195.97304
 30
0.0
 40
5.5
100
AcDbArc
 50
200.668437
 51
270.0
  0
INSERT
  5
269
100
AcDbEntity
  8
0
100
AcDbBlockReference
  2
ZU_SYM__USERS_HOME_SYMBOL_POO_SYM_B20_-1
 10
278.682549
 20
-201.973351
 30
0.0
  0
INSERT
  5
275
100
AcDbEntity
  8
0
100
AcDbBlockReference
  2
ZU_SYM__USERS_HOME_SYMBOL_POO_SYM_B20_00003-1
 10
278.682549
 20
-43.973351
 30
0.0
  0
CIRCLE
  5
276
100
AcDbEntity
  8
0
370
    -3
  6
Continuous
100
AcDbCircle
 10
278.682549
 20
-43.973351
 30
0.0
 40
5.5
  0
CIRCLE
  5
277
100
AcDbEntity
  8
0
370
    -3
  6
Continuous
100
AcDbCircle
 10
278.682549
 20
-201.973351
 30
0.0
 40
5.5
  0
LINE
  5
278
100
AcDbEntity
  8
0
370
    -3
  6
CENTER
100
AcDbLine
 10
295.682676
 20
-183.700165
 30
0.0
 11
295.682676
 21
-208.096871
 31
0.0
  0
LINE
  5
279
100
AcDbEntity
  8
0
370
    -3
  6
CENTER
100
AcDbLine
 10
278.682549
 20
-193.763101
 30
0.0
 11
278.682549
 21
-208.638746
 31
0.0
  0
LINE
  5
27A
100
AcDbEntity
  8
0
370
    -3
  6
CENTER
100
AcDbLine
 10
278.682549
 20
-36.017695
 30
0.0
 11
278.682549
 21
-52.225715
 31
0.0
  0
LINE
  5
27B
100
AcDbEntity
  8
0
370
    -3
  6
CENTER
100
AcDbLine
 10
287.270366
 20
-43.973351
 30
0.0
 11
270.479098
 21
-43.973351
 31
0.0
  0
LINE
  5
27C
100
AcDbEntity
  8
0
370
    -3
  6
CENTER
100
AcDbLine
 10
286.229781
 20
-201.973351
 30
0.0
 11
270.479098
 21
-201.973351
 31
0.0
  0
LINE
  5
27D
100
AcDbEntity
  8
0
370
    -3
  6
CENTER
100
AcDbLine
 10
307.682676
 20
-195.97304
 30
0.0
 11
283.823426
 21
-195.97304
 31
0.0
  0
LINE
  5
27E
100
AcDbEntity
  8
0
370
    -3
  6
CENTER
100
AcDbLine
 10
307.682676
 20
-49.97304
 30
0.0
 11
284.042186
 21
-49.97304
 31
0.0
  0
LINE
  5
27F
100
AcDbEntity
  8
0
370
    -3
  6
CENTER
100
AcDbLine
 10
295.682676
 20
-37.97304
 30
0.0
 11
295.682676
 21
-63.382449
 31
0.0
  0
LINE
  5
280
100
AcDbEntity
  8
0
370
    -3
  6
Continuous
100
AcDbLine
 10
310.682676
 20
-198.97304
 30
0.0
 11
310.682676
 21
-46.97304
 31
0.0
  0
LINE
  5
281
100
AcDbEntity
  8
0
370
    -3
  6
CENTER
100
AcDbLine
 10
238.682676
 20
-32.012476
 30
0.0
 11
238.682676
 21
-183.59388
 31
0.0
  0
POINT
  5
282
100
AcDbEntity
  8
0
370
    -3
  6
Continuous
100
AcDbPoint
 10
238.682676
 20
-106.97304
 30
0.0
  0
CIRCLE
  5
283
100
AcDbEntity
  8
0
370
    -3
  6
Continuous
100
AcDbCircle
 10
238.682676
 20
-106.97304
 30
0.0
 40
47.5
  0
LINE
  5
284
100
AcDbEntity
  8
0
370
    -3
  6
CENTER
100
AcDbLine
 10
315.19337
 20
-106.97304
 30
0.0
 11
166.323365
 21
-106.97304
 31
0.0
  0
CIRCLE
  5
285
100
AcDbEntity
  8
0
370
    -3
  6
Continuous
100
AcDbCircle
 10
295.682676
 20
-49.97304
 30
0.0
 40
5.053
  0
CIRCLE
  5
286
100
AcDbEntity
  8
0
370
    -3
  6
Continuous
100
AcDbCircle
 10
295.682676
 20
-49.97304
 30
0.0
 40
6.0
  0
CIRCLE
  5
287
100
AcDbEntity
  8
0
370
    -3
  6
Continuous
100
AcDbCircle
 10
295.682676
 20
-195.97304
 30
0.0
 40
5.053
  0
CIRCLE
  5
288
100
AcDbEntity
  8
0
370
    -3
  6
Continuous
100
AcDbCircle
 10
295.682676
 20
-195.97304
 30
0.0
 40
6.0
  0
ARC
  5
289
100
AcDbEntity
  8
0
370
    -3
  6
Continuous
100
AcDbCircle
 10
443.482667
 20
-91.77304
 30
0.0
 40
0.8
100
AcDbArc
 50
90.0
 51
180.0
  0
ARC
  5
28A
100
AcDbEntity
  8
0
370
    -3
  6
Continuous
100
AcDbCircle
 10
443.482667
 20
-122.17304
 30
0.0
 40
0.8
100
AcDbArc
 50
180.0
 51
270.0
  0
LINE
  5
28B
100
AcDbEntity
  8
0
370
    -3
  6
Continuous
100
AcDbLine
 10
442.682667
 20
-87.97304
 30
0.0
 11
442.682667
 21
-122.17304
 31
0.0
  0
LINE
  5
28C
100
AcDbEntity
  8
0
370
    -3
  6
Continuous
100
AcDbLine
 10
505.18231
 20
-210.534897
 30
0.0
 11
516.68286
 21
-210.73564
 31
0.0
  0
LINE
  5
28D
100
AcDbEntity
  8
0
370
    -3
  6
Continuous
100
AcDbLine
 10
611.18286
 20
-209.086136
 30
0.0
 11
620.68286
 21
-209.086136
 31
0.0
  0
LINE
  5
28E
100
AcDbEntity
  8
0
370
    -3
  6
Continuous
100
AcDbLine
 10
504.682462
 20
-210.026248
 30
0.0
 11
505.18231
 21
-210.534897
 31
0.0
  0
LINE
  5
28F
100
AcDbEntity
  8
0
370
    -3
  6
Continuous
100
AcDbLine
 10
516.68286
 20
-210.735326
 30
0.0
 11
611.18286
 21
-209.085823
 31
0.0
  0
LINE
  5
290
100
AcDbEntity
  8
0
370
    -3
  6
CENTER
100
AcDbLine
 10
61.220729
 20
-91.972883
 30
0.0
 11
-68.387704
 21
-91.972883
 31
0.0
  0
ARC
  5
291
100
AcDbEntity
  8
0
370
    -3
  6
Continuous
100
AcDbCircle
 10
88.182442
 20
-179.260508
 30
0.0
 40
2.0
100
AcDbArc
 50
180.0
 51
267.0
  0
LINE
  5
292
100
AcDbEntity
  8
0
370
    -3
  6
Continuous
100
AcDbLine
 10
64.769705
 20
-144.736233
 30
0.0
 11
50.182442
 21
-144.481611
 31
0.0
  0
LINE
  5
293
100
AcDbEntity
  8
0
370
    -3
  6
Continuous
100
AcDbLine
 10
50.182442
 20
-111.972883
 30
0.0
 11
79.182442
 21
-111.972883
 31
0.0
  0
LINE
  5
294
100
AcDbEntity
  8
0
370
    -3
  6
Continuous
100
AcDbLine
 10
50.182442
 20
-71.972883
 30
0.0
 11
65.182442
 21
-71.972883
 31
0.0
  0
LINE
  5
295
100
AcDbEntity
  8
0
370
    -3
  6
Continuous
100
AcDbLine
 10
50.182442
 20
-91.972883
 30
0.0
 11
50.182442
 21
-144.472884
 31
0.0
  0
LINE
  5
296
100
AcDbEntity
  8
0
370
    -3
  6
Continuous
100
AcDbLine
 10
50.182442
 20
-91.972883
 30
0.0
 11
50.182442
 21
-38.472883
 31
0.0
  0
LINE
  5
297
100
AcDbEntity
  8
0
370
    -3
  6
Continuous
100
AcDbLine
 10
60.007945
 20
-39.129769
 30
0.0
 11
50.182427
 21
-39.472883
 31
0.0
  0
LINE
  5
298
100
AcDbEntity
  8
0
370
    -3
  6
Continuous
100
AcDbLine
 10
86.182442
 20
-86.914922
 30
0.0
 11
86.182442
 21
-66.265997
 31
0.0
  0
LINE
  5
299
100
AcDbEntity
  8
0
370
    -3
  6
Continuous
100
AcDbLine
 10
81.182442
 20
-91.914922
 30
0.0
 11
70.182442
 21
-91.914922
 31
0.0
  0
ARC
  5
29A
100
AcDbEntity
  8
0
370
    -3
  6
Continuous
100
AcDbCircle
 10
88.182442
 20
-66.265997
 30
0.0
 40
2.0
100
AcDbArc
 50
87.0
 51
180.0
  0
ARC
  5
29B
100
AcDbEntity
  8
0
370
    -3
  6
Continuous
100
AcDbCircle
 10
70.182442
 20
-86.914922
 30
0.0
 40
5.0
100
AcDbArc
 50
180.0
 51
270.0
  0
LINE
  5
29C
100
AcDbEntity
  8
0
370
    -3
  6
Continuous
100
AcDbLine
 10
65.182442
 20
-86.914922
 30
0.0
 11
65.182442
 21
-44.126723
 31
0.0
  0
LINE
  5
29D
100
AcDbEntity
  8
0
370
    -3
  6
Continuous
100
AcDbLine
 10
92.182442
 20
-181.472883
 30
0.0
 11
92.182442
 21
-64.472883
 31
0.0
  0
LINE
  5
29E
100
AcDbEntity
  8
0
370
    -3
  6
Continuous
100
AcDbLine
 10
92.182442
 20
-64.472883
 30
0.0
 11
69.920763
 21
-63.306198
 31
0.0
  0
ARC
  5
29F
100
AcDbEntity
  8
0
370
    -3
  6
Continuous
100
AcDbCircle
 10
72.682442
 20
-153.970893
 30
0.0
 40
3.0
100
AcDbArc
 50
180.0
 51
267.0
  0
LINE
  5
2A0
100
AcDbEntity
  8
0
370
    -3
  6
Continuous
100
AcDbLine
 10
72.525435
 20
-156.966781
 30
0.0
 11
77.444122
 21
-157.224559
 31
0.0
  0
LINE
  5
2A1
100
AcDbEntity
  8
0
370
    -3
  6
Continuous
100
AcDbLine
 10
69.682442
 20
-153.970893
 30
0.0
 11
69.682442
 21
-149.735471
 31
0.0
  0
ARC
  5
2A2
100
AcDbEntity
  8
0
370
    -3
  6
Continuous
100
AcDbCircle
 10
77.182442
 20
-162.217706
 30
0.0
 40
5.0
100
AcDbArc
 50
0.0
 51
87.0
  0
LINE
  5
2A3
100
AcDbEntity
  8
0
370
    -3
  6
Continuous
100
AcDbLine
 10
92.182442
 20
-181.472883
 30
0.0
 11
84.077771
 21
-181.048136
 31
0.0
  0
ARC
  5
2A4
100
AcDbEntity
  8
0
370
    -3
  6
Continuous
100
AcDbCircle
 10
64.682442
 20
-149.735471
 30
0.0
 40
5.0
100
AcDbArc
 50
0.0
 51
89.0
  0
LINE
  5
2A5
100
AcDbEntity
  8
0
370
    -3
  6
Continuous
100
AcDbLine
 10
87.33945
 20
-49.823889
 30
0.0
 11
69.920763
 21
-48.911014
 31
0.0
  0
ARC
  5
2A6
100
AcDbEntity
  8
0
370
    -3
  6
Continuous
100
AcDbCircle
 10
87.182442
 20
-52.819777
 30
0.0
 40
3.0
100
AcDbArc
 50
0.0
 51
87.0
  0
LINE
  5
2A7
100
AcDbEntity
  8
0
370
    -3
  6
Continuous
100
AcDbLine
 10
90.182442
 20
-62.472883
 30
0.0
 11
90.182442
 21
-52.819777
 31
0.0
  0
LINE
  5
2A8
100
AcDbEntity
  8
0
370
    -3
  6
Continuous
100
AcDbLine
 10
65.682414
 20
-61.472883
 30
0.0
 11
65.682413
 21
-61.472883
 31
0.0
  0
ARC
  5
2A9
100
AcDbEntity
  8
0
370
    -3
  6
Continuous
100
AcDbCircle
 10
92.182442
 20
-62.472883
 30
0.0
 40
2.0
100
AcDbArc
 50
180.0
 51
270.0
  0
ARC
  5
2AA
100
AcDbEntity
  8
0
370
    -3
  6
Continuous
100
AcDbCircle
 10
84.182442
 20
-179.050877
 30
0.0
 40
2.0
100
AcDbArc
 50
180.0
 51
267.0
  0
ARC
  5
2AB
100
AcDbEntity
  8
0
370
    -3
  6
Continuous
100
AcDbCircle
 10
60.182442
 20
-44.126723
 30
0.0
 40
5.0
100
AcDbArc
 50
0.0
 51
92.0
  0
ARC
  5
2AC
100
AcDbEntity
  8
0
370
    -3
  6
Continuous
100
AcDbCircle
 10
70.182442
 20
-58.313051
 30
0.0
 40
5.0
100
AcDbArc
 50
180.0
 51
267.0
  0
ARC
  5
2AD
100
AcDbEntity
  8
0
370
    -3
  6
Continuous
100
AcDbCircle
 10
70.182442
 20
-43.917866
 30
0.0
 40
5.0
100
AcDbArc
 50
180.0
 51
267.0
  0
LINE
  5
2AE
100
AcDbEntity
  8
0
370
    -3
  6
CENTER
100
AcDbLine
 10
76.182442
 20
-71.500035
 30
0.0
 11
76.182442
 21
-47.408763
 31
0.0
  0
LINE
  5
2AF
100
AcDbEntity
  8
0
370
    -3
  6
Continuous
100
AcDbLine
 10
73.029157
 20
-158.239304
 30
0.0
 11
82.182442
 21
-178.472883
 31
0.0
  0
ARC
  5
2B0
100
AcDbEntity
  8
0
370
    -3
  6
Continuous
100
AcDbCircle
 10
79.182934
 20
-179.120979
 30
0.0
 40
3.0
100
AcDbArc
 50
0.803337
 51
24.34109
  0
ARC
  5
2B1
100
AcDbEntity
  8
0
370
    -3
  6
Continuous
100
AcDbCircle
 10
70.295833
 20
-159.475808
 30
0.0
 40
3.0
100
AcDbArc
 50
24.34109
 51
66.561265
  0
LINE
  5
2B2
100
AcDbEntity
  8
0
370
    -3
  6
Continuous
100
AcDbLine
 10
50.182442
 20
-91.972883
 30
0.0
 11
50.182442
 21
-39.472883
 31
0.0
  0
ARC
  5
2B3
100
AcDbEntity
  8
0
370
    -3
  6
Continuous
100
AcDbCircle
 10
79.182442
 20
-114.972883
 30
0.0
 40
3.0
100
AcDbArc
 50
0.0
 51
90.0
  0
LINE
  5
2B4
100
AcDbEntity
  8
0
370
    -3
  6
Continuous
100
AcDbLine
 10
50.182442
 20
-91.972883
 30
0.0
 11
50.182442
 21
-144.472883
 31
0.0
  0
LINE
  5
2B5
100
AcDbEntity
  8
0
370
    -3
  6
Continuous
100
AcDbLine
 10
82.182442
 20
-142.972883
 30
0.0
 11
92.182442
 21
-142.972883
 31
0.0
  0
LINE
  5
2B6
100
AcDbEntity
  8
0
370
    -3
  6
Continuous
100
AcDbLine
 10
82.182442
 20
-102.972883
 30
0.0
 11
92.182442
 21
-102.972883
 31
0.0
  0
ARC
  5
2B7
100
AcDbEntity
  8
0
370
    -3
  6
Continuous
100
AcDbCircle
 10
81.182442
 20
-86.914922
 30
0.0
 40
5.0
100
AcDbArc
 50
270.0
 51
0.0
  0
LINE
  5
2B8
100
AcDbEntity
  8
0
370
    -3
  6
Continuous
100
AcDbLine
 10
82.182442
 20
-179.050877
 30
0.0
 11
82.182442
 21
-92.571776
 31
0.0
  0
ARC
  5
2B9
100
AcDbEntity
  8
0
370
    -3
  6
Continuous
100
AcDbCircle
 10
83.182442
 20
-92.571776
 30
0.0
 40
1.0
100
AcDbArc
 50
109.471221
 51
180.0
  0
ARC
  5
2BA
100
AcDbEntity
  8
0
370
    -3
  6
Continuous
100
AcDbCircle
 10
83.182442
 20
-159.167057
 30
0.0
 40
1.0
100
AcDbArc
 50
180.0
 51
270.0
  0
LINE
  5
2BB
100
AcDbEntity
  8
0
370
    -3
  6
Continuous
100
AcDbLine
 10
83.182442
 20
-160.167057
 30
0.0
 11
85.182442
 21
-160.167057
 31
0.0
  0
ARC
  5
2BC
100
AcDbEntity
  8
0
370
    -3
  6
Continuous
100
AcDbCircle
 10
85.182442
 20
-161.167057
 30
0.0
 40
1.0
100
AcDbArc
 50
0.0
 51
90.0
  0
LINE
  5
2BD
100
AcDbEntity
  8
0
370
    -3
  6
Continuous
100
AcDbLine
 10
86.182442
 20
-179.260508
 30
0.0
 11
86.182442
 21
-161.167057
 31
0.0
  0
INSERT
  5
2CD
100
AcDbEntity
  8
0
100
AcDbBlockReference
  2
ZU_SYM__USERS_HOME_SYMBOL_STD_SYM_B01_00004-1
 10
86.182442
 20
-167.167057
 30
0.0
  0
INSERT
  5
2DD
100
AcDbEntity
  8
0
100
AcDbBlockReference
  2
ZU_SYM__USERS_HOME_SYMBOL_STD_SYM_B01_00005-1
 10
86.182442
 20
-78.77871
 30
0.0
  0
LINE
  5
2DE
100
AcDbEntity
  8
0
370
    -3
  6
Continuous
100
AcDbLine
 10
92.182442
 20
-64.472883
 30
0.0
 11
92.182442
 21
-181.472883
 31
0.0
  0
LINE
  5
2DF
100
AcDbEntity
  8
0
370
    -3
  6
Continuous
100
AcDbLine
 10
50.182442
 20
-91.972883
 30
0.0
 11
50.182442
 21
-144.472884
 31
0.0
  0
LINE
  5
2E0
100
AcDbEntity
  8
0
370
    -3
  6
Continuous
100
AcDbLine
 10
50.182442
 20
-91.972883
 30
0.0
 11
50.182442
 21
-39.472883
 31
0.0
  0
LINE
  5
2E1
100
AcDbEntity
  8
0
370
    -3
  6
Continuous
100
AcDbLine
 10
50.182442
 20
-91.972883
 30
0.0
 11
50.182442
 21
-39.472883
 31
0.0
  0
LINE
  5
2E2
100
AcDbEntity
  8
0
370
    -3
  6
Continuous
100
AcDbLine
 10
50.182442
 20
-91.972883
 30
0.0
 11
50.182442
 21
-144.472883
 31
0.0
  0
LINE
  5
2E3
100
AcDbEntity
  8
0
370
    -3
  6
Continuous
100
AcDbLine
 10
50.182442
 20
-145.472883
 30
0.0
 11
50.182442
 21
-91.972883
 31
0.0
  0
LINE
  5
2E4
100
AcDbEntity
  8
0
370
    -3
  6
Continuous
100
AcDbLine
 10
50.182442
 20
-145.472883
 30
0.0
 11
50.182442
 21
-91.972883
 31
0.0
  0
LINE
  5
2E5
100
AcDbEntity
  8
0
370
    -3
  6
CENTER
100
AcDbLine
 10
135.510417
 20
-122.972883
 30
0.0
 11
60.561014
 21
-122.972883
 31
0.0
  0
LINE
  5
2E6
100
AcDbEntity
  8
0
370
    -3
  6
Continuous
100
AcDbLine
 10
92.182442
 20
-182.472883
 30
0.0
 11
92.182442
 21
-122.972883
 31
0.0
  0
LINE
  5
2E7
100
AcDbEntity
  8
0
370
    -3
  6
Continuous
100
AcDbLine
 10
92.182442
 20
-63.472883
 30
0.0
 11
92.182442
 21
-122.972883
 31
0.0
  0
LINE
  5
2E8
100
AcDbEntity
  8
0
370
    -3
  6
Continuous
100
AcDbLine
 10
298.682676
 20
-35.97304
 30
0.0
 11
133.682676
 21
-35.97304
 31
0.0
  0
LINE
  5
2E9
100
AcDbEntity
  8
0
370
    -3
  6
Continuous
100
AcDbLine
 10
122.682676
 20
-46.97304
 30
0.0
 11
122.682676
 21
-198.97304
 31
0.0
  0
LINE
  5
2EA
100
AcDbEntity
  8
0
370
    -3
  6
Continuous
100
AcDbLine
 10
133.682676
 20
-209.97304
 30
0.0
 11
298.682676
 21
-209.97304
 31
0.0
  0
ARC
  5
2EB
100
AcDbEntity
  8
0
370
    -3
  6
Continuous
100
AcDbCircle
 10
154.682549
 20
-43.973351
 30
0.0
 40
13.5
100
AcDbArc
 50
269.624891
 51
339.333804
  0
ARC
  5
2EC
100
AcDbEntity
  8
0
370
    -3
  6
Continuous
100
AcDbCircle
 10
154.571252
 20
-60.972987
 30
0.0
 40
3.5
100
AcDbArc
 50
89.624891
 51
148.412035
  0
ARC
  5
2ED
100
AcDbEntity
  8
0
370
    -3
  6
Continuous
100
AcDbCircle
 10
136.682676
 20
-49.97304
 30
0.0
 40
17.5
100
AcDbArc
 50
279.206896
 51
328.412035
  0
ARC
  5
2EE
100
AcDbEntity
  8
0
370
    -3
  6
Continuous
100
AcDbCircle
 10
140.682676
 20
-74.650965
 30
0.0
 40
7.5
100
AcDbArc
 50
99.206896
 51
180.0
  0
LINE
  5
2EF
100
AcDbEntity
  8
0
370
    -3
  6
Continuous
100
AcDbLine
 10
133.182676
 20
-74.650965
 30
0.0
 11
133.182676
 21
-171.295115
 31
0.0
  0
ARC
  5
2F0
100
AcDbEntity
  8
0
370
    -3
  6
Continuous
100
AcDbCircle
 10
140.682676
 20
-171.295115
 30
0.0
 40
7.5
100
AcDbArc
 50
180.0
 51
260.793104
  0
ARC
  5
2F1
100
AcDbEntity
  8
0
370
    -3
  6
Continuous
100
AcDbCircle
 10
136.682676
 20
-195.97304
 30
0.0
 40
17.5
100
AcDbArc
 50
31.58598
 51
80.793104
  0
ARC
  5
2F2
100
AcDbEntity
  8
0
370
    -3
  6
Continuous
100
AcDbCircle
 10
154.571633
 20
-184.973713
 30
0.0
 40
3.5
100
AcDbArc
 50
211.58598
 51
270.373825
  0
ARC
  5
2F3
100
AcDbEntity
  8
0
370
    -3
  6
Continuous
100
AcDbCircle
 10
154.682549
 20
-201.973351
 30
0.0
 40
13.5
100
AcDbArc
 50
20.668437
 51
90.373825
  0
ARC
  5
2F4
100
AcDbEntity
  8
0
370
    -3
  6
Continuous
100
AcDbCircle
 10
133.682676
 20
-46.97304
 30
0.0
 40
12.0
100
AcDbArc
 50
90.0
 51
180.0
  0
ARC
  5
2F5
100
AcDbEntity
  8
0
370
    -3
  6
Continuous
100
AcDbCircle
 10
133.682676
 20
-46.97304
 30
0.0
 40
11.0
100
AcDbArc
 50
90.0
 51
180.0
  0
ARC
  5
2F6
100
AcDbEntity
  8
0
370
    -3
  6
Continuous
100
AcDbCircle
 10
133.682676
 20
-198.97304
 30
0.0
 40
12.0
100
AcDbArc
 50
180.0
 51
270.0
  0
ARC
  5
2F7
100
AcDbEntity
  8
0
370
    -3
  6
Continuous
100
AcDbCircle
 10
133.682676
 20
-198.97304
 30
0.0
 40
11.0
100
AcDbArc
 50
180.0
 51
270.0
  0
LINE
  5
2F8
100
AcDbEntity
  8
0
370
    -3
  6
Continuous
100
AcDbLine
 10
131.182676
 20
-171.295115
 30
0.0
 11
131.182676
 21
-74.650965
 31
0.0
  0
ARC
  5
2F9
100
AcDbEntity
  8
0
370
    -3
  6
Continuous
100
AcDbCircle
 10
140.682676
 20
-74.650965
 30
0.0
 40
9.5
100
AcDbArc
 50
99.206896
 51
180.0
  0
ARC
  5
2FA
100
AcDbEntity
  8
0
370
    -3
  6
Continuous
100
AcDbCircle
 10
136.682676
 20
-49.97304
 30
0.0
 40
15.5
100
AcDbArc
 50
279.206896
 51
328.412035
  0
ARC
  5
2FB
100
AcDbEntity
  8
0
370
    -3
  6
Continuous
100
AcDbCircle
 10
154.571252
 20
-60.972987
 30
0.0
 40
5.5
100
AcDbArc
 50
89.624891
 51
148.412035
  0
ARC
  5
2FC
100
AcDbEntity
  8
0
370
    -3
  6
Continuous
100
AcDbCircle
 10
154.682549
 20
-43.973351
 30
0.0
 40
11.5
100
AcDbArc
 50
269.624891
 51
339.333804
  0
ARC
  5
2FD
100
AcDbEntity
  8
0
370
    -3
  6
Continuous
100
AcDbCircle
 10
154.682549
 20
-201.973351
 30
0.0
 40
11.5
100
AcDbArc
 50
20.668437
 51
90.373825
  0
ARC
  5
2FE
100
AcDbEntity
  8
0
370
    -3
  6
Continuous
100
AcDbCircle
 10
154.571633
 20
-184.973713
 30
0.0
 40
5.5
100
AcDbArc
 50
211.58598
 51
270.373825
  0
ARC
  5
2FF
100
AcDbEntity
  8
0
370
    -3
  6
Continuous
100
AcDbCircle
 10
140.682676
 20
-171.295115
 30
0.0
 40
9.5
100
AcDbArc
 50
180.0
 51
260.793104
  0
INSERT
  5
30B
100
AcDbEntity
  8
0
100
AcDbBlockReference
  2
ZU_SYM__USERS_HOME_SYMBOL_POO_SYM_B20_00006-1
 10
154.682549
 20
-201.973351
 30
0.0
  0
INSERT
  5
317
100
AcDbEntity
  8
0
100
AcDbBlockReference
  2
ZU_SYM__USERS_HOME_SYMBOL_POO_SYM_B20_00007-1
 10
154.682549
 20
-43.973351
 30
0.0
  0
LINE
  5
318
100
AcDbEntity
  8
0
370
    -3
  6
DASHED
100
AcDbLine
 10
121.682676
 20
-158.419079
 30
0.0
 11
121.682676
 21
-172.19937
 31
0.0
  0
LINE
  5
319
100
AcDbEntity
  8
0
370
    -3
  6
DASHED
100
AcDbLine
 10
121.682676
 20
-87.526688
 30
0.0
 11
121.682676
 21
-73.746397
 31
0.0
  0
ARC
  5
31A
100
AcDbEntity
  8
0
370
    -3
  6
Continuous
100
AcDbCircle
 10
107.182442
 20
-165.157615
 30
0.0
 40
3.0
100
AcDbArc
 50
270.0
 51
0.0
  0
ARC
  5
31B
100
AcDbEntity
  8
0
370
    -3
  6
Continuous
100
AcDbCircle
 10
107.182442
 20
-172.069191
 30
0.0
 40
3.0
100
AcDbArc
 50
270.0
 51
0.0
  0
ARC
  5
31C
100
AcDbEntity
  8
0
370
    -3
  6
Continuous
100
AcDbCircle
 10
107.182442
 20
-80.788152
 30
0.0
 40
3.0
100
AcDbArc
 50
0.0
 51
90.0
  0
ARC
  5
31D
100
AcDbEntity
  8
0
370
    -3
  6
Continuous
100
AcDbCircle
 10
107.182442
 20
-73.876576
 30
0.0
 40
3.0
100
AcDbArc
 50
0.0
 51
90.0
  0
ARC
  5
31E
100
AcDbEntity
  8
0
370
    -3
  6
Continuous
100
AcDbCircle
 10
107.182442
 20
-66.233883
 30
0.0
 40
3.0
100
AcDbArc
 50
0.0
 51
90.981173
  0
ARC
  5
31F
100
AcDbEntity
  8
0
370
    -3
  6
Continuous
100
AcDbCircle
 10
107.182442
 20
-179.711884
 30
0.0
 40
3.0
100
AcDbArc
 50
269.018827
 51
0.0
  0
LINE
  5
320
100
AcDbEntity
  8
0
370
    -3
  6
Continuous
100
AcDbLine
 10
110.182442
 20
-66.233883
 30
0.0
 11
110.182442
 21
-179.711884
 31
0.0
  0
ARC
  5
321
100
AcDbEntity
  8
0
370
    -3
  6
Continuous
100
AcDbCircle
 10
102.182442
 20
-86.971617
 30
0.0
 40
3.0
100
AcDbArc
 50
90.0
 51
180.0
  0
ARC
  5
322
100
AcDbEntity
  8
0
370
    -3
  6
Continuous
100
AcDbCircle
 10
102.182442
 20
-67.876576
 30
0.0
 40
3.0
100
AcDbArc
 50
180.0
 51
270.0
  0
ARC
  5
323
100
AcDbEntity
  8
0
370
    -3
  6
Continuous
100
AcDbCircle
 10
102.182442
 20
-80.788152
 30
0.0
 40
3.0
100
AcDbArc
 50
90.0
 51
180.0
  0
ARC
  5
324
100
AcDbEntity
  8
0
370
    -3
  6
Continuous
100
AcDbCircle
 10
96.182442
 20
-66.472883
 30
0.0
 40
3.0
100
AcDbArc
 50
0.0
 51
90.0
  0
ARC
  5
325
100
AcDbEntity
  8
0
370
    -3
  6
Continuous
100
AcDbCircle
 10
96.182442
 20
-179.472883
 30
0.0
 40
3.0
100
AcDbArc
 50
270.0
 51
0.0
  0
ARC
  5
326
100
AcDbEntity
  8
0
370
    -3
  6
Continuous
100
AcDbCircle
 10
102.182442
 20
-158.97415
 30
0.0
 40
3.0
100
AcDbArc
 50
180.0
 51
270.0
  0
ARC
  5
327
100
AcDbEntity
  8
0
370
    -3
  6
Continuous
100
AcDbCircle
 10
102.182442
 20
-165.157615
 30
0.0
 40
3.0
100
AcDbArc
 50
180.0
 51
270.0
  0
ARC
  5
328
100
AcDbEntity
  8
0
370
    -3
  6
Continuous
100
AcDbCircle
 10
102.182442
 20
-178.069191
 30
0.0
 40
3.0
100
AcDbArc
 50
90.0
 51
180.0
  0
LINE
  5
329
100
AcDbEntity
  8
0
370
    -3
  6
Continuous
100
AcDbLine
 10
99.182442
 20
-80.788152
 30
0.0
 11
99.182442
 21
-122.972883
 31
0.0
  0
LINE
  5
32A
100
AcDbEntity
  8
0
370
    -3
  6
Continuous
100
AcDbLine
 10
102.182442
 20
-83.971617
 30
0.0
 11
107.182442
 21
-83.971617
 31
0.0
  0
LINE
  5
32B
100
AcDbEntity
  8
0
370
    -3
  6
Continuous
100
AcDbLine
 10
99.182442
 20
-67.472883
 30
0.0
 11
99.182442
 21
-67.876576
 31
0.0
  0
LINE
  5
32C
100
AcDbEntity
  8
0
370
    -3
  6
Continuous
100
AcDbLine
 10
99.182442
 20
-67.472883
 30
0.0
 11
99.182442
 21
-67.876576
 31
0.0
  0
LINE
  5
32D
100
AcDbEntity
  8
0
370
    -3
  6
Continuous
100
AcDbLine
 10
99.182442
 20
-67.472883
 30
0.0
 11
99.182442
 21
-66.472883
 31
0.0
  0
LINE
  5
32E
100
AcDbEntity
  8
0
370
    -3
  6
Continuous
100
AcDbLine
 10
99.182442
 20
-178.472883
 30
0.0
 11
99.182442
 21
-178.069191
 31
0.0
  0
LINE
  5
32F
100
AcDbEntity
  8
0
370
    -3
  6
Continuous
100
AcDbLine
 10
99.182442
 20
-165.157615
 30
0.0
 11
99.182442
 21
-122.972883
 31
0.0
  0
LINE
  5
330
100
AcDbEntity
  8
0
370
    -3
  6
Continuous
100
AcDbLine
 10
102.182442
 20
-161.97415
 30
0.0
 11
107.182442
 21
-161.97415
 31
0.0
  0
LINE
  5
331
100
AcDbEntity
  8
0
370
    -3
  6
Continuous
100
AcDbLine
 10
99.182442
 20
-178.472883
 30
0.0
 11
99.182442
 21
-179.472883
 31
0.0
  0
LINE
  5
332
100
AcDbEntity
  8
0
370
    -3
  6
Continuous
100
AcDbLine
 10
102.182442
 20
-175.069191
 30
0.0
 11
107.182442
 21
-175.069191
 31
0.0
  0
LINE
  5
333
100
AcDbEntity
  8
0
370
    -3
  6
Continuous
100
AcDbLine
 10
102.182442
 20
-168.157615
 30
0.0
 11
107.182442
 21
-168.157615
 31
0.0
  0
LINE
  5
334
100
AcDbEntity
  8
0
370
    -3
  6
Continuous
100
AcDbLine
 10
102.182442
 20
-77.788152
 30
0.0
 11
107.182442
 21
-77.788152
 31
0.0
  0
LINE
  5
335
100
AcDbEntity
  8
0
370
    -3
  6
Continuous
100
AcDbLine
 10
102.182442
 20
-70.876576
 30
0.0
 11
107.182442
 21
-70.876576
 31
0.0
  0
LINE
  5
336
100
AcDbEntity
  8
0
370
    -3
  6
Continuous
100
AcDbLine
 10
92.182442
 20
-142.972883
 30
0.0
 11
99.182442
 21
-142.972883
 31
0.0
  0
LINE
  5
337
100
AcDbEntity
  8
0
370
    -3
  6
Continuous
100
AcDbLine
 10
92.182442
 20
-102.972883
 30
0.0
 11
99.182442
 21
-102.972883
 31
0.0
  0
CIRCLE
  5
338
100
AcDbEntity
  8
0
370
    -3
  6
Continuous
100
AcDbCircle
 10
154.682549
 20
-201.973351
 30
0.0
 40
5.5
  0
CIRCLE
  5
339
100
AcDbEntity
  8
0
370
    -3
  6
Continuous
100
AcDbCircle
 10
154.682549
 20
-43.973351
 30
0.0
 40
5.5
  0
LINE
  5
33A
100
AcDbEntity
  8
0
370
    -3
  6
CENTER
100
AcDbLine
 10
149.286344
 20
-195.97304
 30
0.0
 11
122.682676
 21
-195.97304
 31
0.0
  0
LINE
  5
33B
100
AcDbEntity
  8
0
370
    -3
  6
CENTER
100
AcDbLine
 10
161.974394
 20
-201.973351
 30
0.0
 11
146.84904
 21
-201.973351
 31
0.0
  0
LINE
  5
33C
100
AcDbEntity
  8
0
370
    -3
  6
CENTER
100
AcDbLine
 10
161.536875
 20
-43.973351
 30
0.0
 11
147.317509
 21
-43.973351
 31
0.0
  0
LINE
  5
33D
100
AcDbEntity
  8
0
370
    -3
  6
CENTER
100
AcDbLine
 10
148.630065
 20
-49.97304
 30
0.0
 11
122.682676
 21
-49.97304
 31
0.0
  0
LINE
  5
33E
100
AcDbEntity
  8
0
370
    -3
  6
CENTER
100
AcDbLine
 10
154.682549
 20
-194.419379
 30
0.0
 11
154.682549
 21
-208.857505
 31
0.0
  0
LINE
  5
33F
100
AcDbEntity
  8
0
370
    -3
  6
CENTER
100
AcDbLine
 10
136.682676
 20
-184.137684
 30
0.0
 11
136.682676
 21
-208.743074
 31
0.0
  0
LINE
  5
340
100
AcDbEntity
  8
0
370
    -3
  6
CENTER
100
AcDbLine
 10
154.682549
 20
-37.13131
 30
0.0
 11
154.682549
 21
-52.006955
 31
0.0
  0
LINE
  5
341
100
AcDbEntity
  8
0
370
    -3
  6
CENTER
100
AcDbLine
 10
136.682676
 20
-37.97304
 30
0.0
 11
136.682676
 21
-62.94493
 31
0.0
  0
LINE
  5
342
100
AcDbEntity
  8
0
370
    -3
  6
Continuous
100
AcDbLine
 10
133.682676
 20
-210.97304
 30
0.0
 11
298.682676
 21
-210.97304
 31
0.0
  0
LINE
  5
343
100
AcDbEntity
  8
0
370
    -3
  6
Continuous
100
AcDbLine
 10
298.682676
 20
-34.97304
 30
0.0
 11
133.682676
 21
-34.97304
 31
0.0
  0
LINE
  5
344
100
AcDbEntity
  8
0
370
    -3
  6
Continuous
100
AcDbLine
 10
121.682676
 20
-46.97304
 30
0.0
 11
121.682676
 21
-198.97304
 31
0.0
  0
LINE
  5
345
100
AcDbEntity
  8
0
370
    -3
  6
Continuous
100
AcDbLine
 10
92.182442
 20
-122.972883
 30
0.0
 11
92.182442
 21
-63.472883
 31
0.0
  0
LINE
  5
346
100
AcDbEntity
  8
0
370
    -3
  6
Continuous
100
AcDbLine
 10
92.182442
 20
-122.972883
 30
0.0
 11
92.182442
 21
-182.472883
 31
0.0
  0
LINE
  5
347
100
AcDbEntity
  8
0
370
    -3
  6
Continuous
100
AcDbLine
 10
92.182442
 20
-182.455428
 30
0.0
 11
118.735033
 21
-182.910178
 31
0.0
  0
LINE
  5
348
100
AcDbEntity
  8
0
370
    -3
  6
Continuous
100
AcDbLine
 10
121.372442
 20
-51.060819
 30
0.0
 11
121.372371
 21
-51.060819
 31
0.0
  0
LINE
  5
349
100
AcDbEntity
  8
0
370
    -3
  6
Continuous
100
AcDbLine
 10
121.372442
 20
-51.059226
 30
0.0
 11
121.372371
 21
-51.059226
 31
0.0
  0
LINE
  5
34A
100
AcDbEntity
  8
0
370
    -3
  6
Continuous
100
AcDbLine
 10
92.182442
 20
-63.490339
 30
0.0
 11
118.735033
 21
-63.035589
 31
0.0
  0
ARC
  5
34B
100
AcDbEntity
  8
0
370
    -3
  6
Continuous
100
AcDbCircle
 10
118.682676
 20
-60.036046
 30
0.0
 40
3.0
100
AcDbArc
 50
271.0
 51
0.0
  0
ARC
  5
34C
100
AcDbEntity
  8
0
370
    -3
  6
Continuous
100
AcDbCircle
 10
118.682676
 20
-185.909721
 30
0.0
 40
3.0
100
AcDbArc
 50
0.0
 51
89.0
  0
ARC
  5
34D
100
AcDbEntity
  8
0
370
    -3
  6
Continuous
100
AcDbCircle
 10
136.682676
 20
-195.97304
 30
0.0
 40
15.5
100
AcDbArc
 50
31.58598
 51
80.793104
  0
CIRCLE
  5
34E
100
AcDbEntity
  8
0
370
    -3
  6
Continuous
100
AcDbCircle
 10
136.682676
 20
-49.97304
 30
0.0
 40
5.053
  0
CIRCLE
  5
34F
100
AcDbEntity
  8
0
370
    -3
  6
Continuous
100
AcDbCircle
 10
136.682676
 20
-49.97304
 30
0.0
 40
6.0
  0
CIRCLE
  5
350
100
AcDbEntity
  8
0
370
    -3
  6
Continuous
100
AcDbCircle
 10
136.682676
 20
-195.97304
 30
0.0
 40
5.053
  0
CIRCLE
  5
351
100
AcDbEntity
  8
0
370
    -3
  6
Continuous
100
AcDbCircle
 10
136.682676
 20
-195.97304
 30
0.0
 40
6.0
  0
LINE
  5
352
100
AcDbEntity
  8
0
370
    -3
  6
Continuous
100
AcDbLine
 10
92.182442
 20
-182.472883
 30
0.0
 11
92.182442
 21
-122.972883
 31
0.0
  0
LINE
  5
353
100
AcDbEntity
  8
0
370
    -3
  6
Continuous
100
AcDbLine
 10
92.182442
 20
-63.472883
 30
0.0
 11
92.182442
 21
-122.972883
 31
0.0
  0
LINE
  5
354
100
AcDbEntity
  8
0
370
    -3
  6
Continuous
100
AcDbLine
 10
92.182442
 20
-122.972883
 30
0.0
 11
92.182442
 21
-63.472883
 31
0.0
  0
LINE
  5
355
100
AcDbEntity
  8
0
370
    -3
  6
Continuous
100
AcDbLine
 10
92.182442
 20
-122.972883
 30
0.0
 11
92.182442
 21
-182.472883
 31
0.0
  0
LINE
  5
356
100
AcDbEntity
  8
0
370
    -3
  6
Continuous
100
AcDbLine
 10
92.182442
 20
-181.472883
 30
0.0
 11
92.182442
 21
-64.472883
 31
0.0
  0
LINE
  5
357
100
AcDbEntity
  8
0
370
    -3
  6
Continuous
100
AcDbLine
 10
92.182442
 20
-179.272883
 30
0.0
 11
92.182442
 21
-181.472883
 31
0.0
  0
LINE
  5
358
100
AcDbEntity
  8
0
370
    -3
  6
Continuous
100
AcDbLine
 10
92.182442
 20
-122.972883
 30
0.0
 11
92.182442
 21
-64.472883
 31
0.0
  0
LINE
  5
359
100
AcDbEntity
  8
0
370
    -3
  6
Continuous
100
AcDbLine
 10
92.182442
 20
-64.472883
 30
0.0
 11
92.182442
 21
-181.472883
 31
0.0
  0
LINE
  5
35A
100
AcDbEntity
  8
0
370
    -3
  6
Continuous
100
AcDbLine
 10
92.182442
 20
-66.672883
 30
0.0
 11
92.182442
 21
-64.472883
 31
0.0
  0
LINE
  5
35B
100
AcDbEntity
  8
0
370
    -3
  6
Continuous
100
AcDbLine
 10
92.182442
 20
-122.972883
 30
0.0
 11
92.182442
 21
-181.472883
 31
0.0
  0
LINE
  5
35C
100
AcDbEntity
  8
0
370
    -3
  6
Continuous
100
AcDbLine
 10
50.182442
 20
-91.972883
 30
0.0
 11
50.182442
 21
-39.472883
 31
0.0
  0
LINE
  5
35D
100
AcDbEntity
  8
0
370
    -3
  6
Continuous
100
AcDbLine
 10
50.182442
 20
-91.972883
 30
0.0
 11
50.182442
 21
-144.472883
 31
0.0
  0
LINE
  5
35E
100
AcDbEntity
  8
0
370
    -3
  6
Continuous
100
AcDbLine
 10
50.182442
 20
-145.472883
 30
0.0
 11
50.182442
 21
-91.972883
 31
0.0
  0
LINE
  5
35F
100
AcDbEntity
  8
0
370
    -3
  6
DASHED
100
AcDbLine
 10
543.18286
 20
-38.47304
 30
0.0
 11
582.18286
 21
-38.47304
 31
0.0
  0
ARC
  5
360
100
AcDbEntity
  8
0
370
    -3
  6
DASHED
100
AcDbCircle
 10
535.18286
 20
-64.47304
 30
0.0
 40
25.0
100
AcDbArc
 50
95.730175
 51
174.269825
  0
ARC
  5
361
100
AcDbEntity
  8
0
370
    -3
  6
DASHED
100
AcDbCircle
 10
542.68286
 20
-439.47304
 30
0.0
 40
400.0
100
AcDbArc
 50
90.07153
 51
91.431984
  0
ARC
  5
362
100
AcDbEntity
  8
0
370
    -3
  6
DASHED
100
AcDbCircle
 10
542.18286
 20
-38.97304
 30
0.0
 40
0.5
100
AcDbArc
 50
270.0
 51
0.0
  0
ARC
  5
363
100
AcDbEntity
  8
0
370
    -3
  6
DASHED
100
AcDbCircle
 10
543.18286
 20
-38.97304
 30
0.0
 40
0.5
100
AcDbArc
 50
90.0
 51
180.0
  0
ARC
  5
364
100
AcDbEntity
  8
0
370
    -3
  6
DASHED
100
AcDbCircle
 10
582.68286
 20
-439.47304
 30
0.0
 40
400.0
100
AcDbArc
 50
88.568016
 51
89.92847
  0
ARC
  5
365
100
AcDbEntity
  8
0
370
    -3
  6
DASHED
100
AcDbCircle
 10
582.18286
 20
-38.97304
 30
0.0
 40
0.5
100
AcDbArc
 50
0.0
 51
90.0
  0
ARC
  5
366
100
AcDbEntity
  8
0
370
    -3
  6
DASHED
100
AcDbCircle
 10
583.18286
 20
-38.97304
 30
0.0
 40
0.5
100
AcDbArc
 50
180.0
 51
270.0
  0
ARC
  5
367
100
AcDbEntity
  8
0
370
    -3
  6
DASHED
100
AcDbCircle
 10
590.18286
 20
-64.47304
 30
0.0
 40
25.0
100
AcDbArc
 50
5.730175
 51
84.269825
  0
ARC
  5
368
100
AcDbEntity
  8
0
370
    -3
  6
DASHED
100
AcDbCircle
 10
615.68286
 20
-71.47304
 30
0.0
 40
0.5
100
AcDbArc
 50
180.0
 51
270.0
  0
ARC
  5
369
100
AcDbEntity
  8
0
370
    -3
  6
DASHED
100
AcDbCircle
 10
615.68286
 20
-72.47304
 30
0.0
 40
0.5
100
AcDbArc
 50
0.0
 51
90.0
  0
LINE
  5
36A
100
AcDbEntity
  8
0
370
    -3
  6
DASHED
100
AcDbLine
 10
616.18286
 20
-72.47304
 30
0.0
 11
616.18286
 21
-111.47304
 31
0.0
  0
ARC
  5
36B
100
AcDbEntity
  8
0
370
    -3
  6
DASHED
100
AcDbCircle
 10
215.18286
 20
-71.97304
 30
0.0
 40
400.0
100
AcDbArc
 50
0.07153
 51
1.431984
  0
ARC
  5
36C
100
AcDbEntity
  8
0
370
    -3
  6
DASHED
100
AcDbCircle
 10
215.18286
 20
-111.97304
 30
0.0
 40
400.0
100
AcDbArc
 50
359.140459
 51
359.92847
  0
ARC
  5
36D
100
AcDbEntity
  8
0
370
    -3
  6
DASHED
100
AcDbCircle
 10
615.68286
 20
-112.47304
 30
0.0
 40
0.5
100
AcDbArc
 50
90.0
 51
180.0
  0
ARC
  5
36E
100
AcDbEntity
  8
0
370
    -3
  6
DASHED
100
AcDbCircle
 10
615.68286
 20
-111.47304
 30
0.0
 40
0.5
100
AcDbArc
 50
270.0
 51
0.0
  0
ARC
  5
36F
100
AcDbEntity
  8
0
370
    -3
  6
DASHED
100
AcDbCircle
 10
590.18286
 20
-119.47304
 30
0.0
 40
25.0
100
AcDbArc
 50
275.730175
 51
3.43865
  0
LINE
  5
370
100
AcDbEntity
  8
0
370
    -3
  6
DASHED
100
AcDbLine
 10
582.18286
 20
-145.47304
 30
0.0
 11
543.18286
 21
-145.47304
 31
0.0
  0
ARC
  5
371
100
AcDbEntity
  8
0
370
    -3
  6
DASHED
100
AcDbCircle
 10
582.18286
 20
-144.97304
 30
0.0
 40
0.5
100
AcDbArc
 50
270.0
 51
0.0
  0
ARC
  5
372
100
AcDbEntity
  8
0
370
    -3
  6
DASHED
100
AcDbCircle
 10
583.18286
 20
-144.97304
 30
0.0
 40
0.5
100
AcDbArc
 50
90.0
 51
180.0
  0
ARC
  5
373
100
AcDbEntity
  8
0
370
    -3
  6
DASHED
100
AcDbCircle
 10
582.68286
 20
255.52696
 30
0.0
 40
400.0
100
AcDbArc
 50
270.07153
 51
271.431984
  0
ARC
  5
374
100
AcDbEntity
  8
0
370
    -3
  6
DASHED
100
AcDbCircle
 10
542.68286
 20
255.52696
 30
0.0
 40
400.0
100
AcDbArc
 50
269.140459
 51
269.92847
  0
ARC
  5
375
100
AcDbEntity
  8
0
370
    -3
  6
DASHED
100
AcDbCircle
 10
543.18286
 20
-144.97304
 30
0.0
 40
0.5
100
AcDbArc
 50
180.0
 51
270.0
  0
ARC
  5
376
100
AcDbEntity
  8
0
370
    -3
  6
DASHED
100
AcDbCircle
 10
542.18286
 20
-144.97304
 30
0.0
 40
0.5
100
AcDbArc
 50
0.0
 51
90.0
  0
ARC
  5
377
100
AcDbEntity
  8
0
370
    -3
  6
DASHED
100
AcDbCircle
 10
535.18286
 20
-119.47304
 30
0.0
 40
25.0
100
AcDbArc
 50
185.730175
 51
273.43865
  0
ARC
  5
378
100
AcDbEntity
  8
0
370
    -3
  6
DASHED
100
AcDbCircle
 10
910.18286
 20
-111.97304
 30
0.0
 40
400.0
100
AcDbArc
 50
180.07153
 51
181.431984
  0
LINE
  5
379
100
AcDbEntity
  8
0
370
    -3
  6
DASHED
100
AcDbLine
 10
509.18286
 20
-111.47304
 30
0.0
 11
509.18286
 21
-72.47304
 31
0.0
  0
ARC
  5
37A
100
AcDbEntity
  8
0
370
    -3
  6
DASHED
100
AcDbCircle
 10
509.68286
 20
-112.47304
 30
0.0
 40
0.5
100
AcDbArc
 50
0.0
 51
90.0
  0
ARC
  5
37B
100
AcDbEntity
  8
0
370
    -3
  6
DASHED
100
AcDbCircle
 10
509.68286
 20
-111.47304
 30
0.0
 40
0.5
100
AcDbArc
 50
180.0
 51
270.0
  0
ARC
  5
37C
100
AcDbEntity
  8
0
370
    -3
  6
DASHED
100
AcDbCircle
 10
910.18286
 20
-71.97304
 30
0.0
 40
400.0
100
AcDbArc
 50
178.568016
 51
179.947
  0
ARC
  5
37D
100
AcDbEntity
  8
0
370
    -3
  6
DASHED
100
AcDbCircle
 10
509.68286
 20
-71.47304
 30
0.0
 40
0.5
100
AcDbArc
 50
270.0
 51
0.0
  0
ARC
  5
37E
100
AcDbEntity
  8
0
370
    -3
  6
DASHED
100
AcDbCircle
 10
509.68286
 20
-72.47304
 30
0.0
 40
0.5
100
AcDbArc
 50
90.0
 51
180.0
  0
LINE
  5
37F
100
AcDbEntity
  8
0
370
    -3
  6
CENTER
100
AcDbLine
 10
575.491371
 20
-91.97304
 30
0.0
 11
550.317233
 21
-91.97304
 31
0.0
  0
LINE
  5
380
100
AcDbEntity
  8
0
370
    -3
  6
CENTER
100
AcDbLine
 10
502.13926
 20
-195.97304
 30
0.0
 11
623.439623
 21
-195.97304
 31
0.0
  0
LINE
  5
381
100
AcDbEntity
  8
0
370
    -3
  6
CENTER
100
AcDbLine
 10
502.13926
 20
-49.97304
 30
0.0
 11
623.439623
 21
-49.97304
 31
0.0
  0
LINE
  5
382
100
AcDbEntity
  8
0
370
    -3
  6
Continuous
100
AcDbLine
 10
499.682462
 20
-89.97304
 30
0.0
 11
498.082599
 21
-89.97304
 31
0.0
  0
ARC
  5
383
100
AcDbEntity
  8
0
370
    -3
  6
Continuous
100
AcDbCircle
 10
498.082599
 20
-90.37304
 30
0.0
 40
0.4
100
AcDbArc
 50
90.0
 51
180.0
  0
ARC
  5
384
100
AcDbEntity
  8
0
370
    -3
  6
Continuous
100
AcDbCircle
 10
497.282599
 20
-90.57304
 30
0.0
 40
0.4
100
AcDbArc
 50
270.0
 51
0.0
  0
LINE
  5
385
100
AcDbEntity
  8
0
370
    -3
  6
Continuous
100
AcDbLine
 10
499.682462
 20
-123.97304
 30
0.0
 11
498.082599
 21
-123.97304
 31
0.0
  0
ARC
  5
386
100
AcDbEntity
  8
0
370
    -3
  6
Continuous
100
AcDbCircle
 10
498.082599
 20
-123.57304
 30
0.0
 40
0.4
100
AcDbArc
 50
180.0
 51
270.0
  0
ARC
  5
387
100
AcDbEntity
  8
0
370
    -3
  6
Continuous
100
AcDbCircle
 10
497.282599
 20
-123.37304
 30
0.0
 40
0.4
100
AcDbArc
 50
0.0
 51
90.0
  0
LINE
  5
388
100
AcDbEntity
  8
0
370
    -3
  6
Continuous
100
AcDbLine
 10
497.682599
 20
-90.37304
 30
0.0
 11
497.682599
 21
-123.57304
 31
0.0
  0
LINE
  5
389
100
AcDbEntity
  8
0
370
    -3
  6
Continuous
100
AcDbLine
 10
482.682667
 20
-87.97304
 30
0.0
 11
482.682667
 21
-90.97304
 31
0.0
  0
LINE
  5
38A
100
AcDbEntity
  8
0
370
    -3
  6
Continuous
100
AcDbLine
 10
482.682667
 20
-87.97304
 30
0.0
 11
442.682667
 21
-87.97304
 31
0.0
  0
LINE
  5
38B
100
AcDbEntity
  8
0
370
    -3
  6
Continuous
100
AcDbLine
 10
497.282599
 20
-90.97304
 30
0.0
 11
443.482667
 21
-90.97304
 31
0.0
  0
LINE
  5
38C
100
AcDbEntity
  8
0
370
    -3
  6
Continuous
100
AcDbLine
 10
497.282599
 20
-122.97304
 30
0.0
 11
443.482667
 21
-122.97304
 31
0.0
  0
ARC
  5
38D
100
AcDbEntity
  8
0
370
    -3
  6
Continuous
100
AcDbCircle
 10
803.28286
 20
-122.744211
 30
0.0
 40
300.6
100
AcDbArc
 50
186.058951
 51
186.612353
  0
ARC
  5
38E
100
AcDbEntity
  8
0
370
    -3
  6
Continuous
100
AcDbCircle
 10
322.08286
 20
-122.744211
 30
0.0
 40
300.6
100
AcDbArc
 50
353.386989
 51
353.941049
  0
LINE
  5
38F
100
AcDbEntity
  8
0
370
    -3
  6
Continuous
100
AcDbLine
 10
516.68286
 20
-122.744211
 30
0.0
 11
516.68286
 21
-210.73564
 31
0.0
  0
LINE
  5
390
100
AcDbEntity
  8
0
370
    -3
  6
Continuous
100
AcDbLine
 10
620.68286
 20
-122.744211
 30
0.0
 11
620.68286
 21
-209.086136
 31
0.0
  0
LINE
  5
391
100
AcDbEntity
  8
0
370
    -3
  6
Continuous
100
AcDbLine
 10
611.18286
 20
-36.402598
 30
0.0
 11
620.68286
 21
-36.402598
 31
0.0
  0
LINE
  5
392
100
AcDbEntity
  8
0
370
    -3
  6
Continuous
100
AcDbLine
 10
625.68286
 20
-59.47304
 30
0.0
 11
625.68286
 21
-154.47304
 31
0.0
  0
LINE
  5
393
100
AcDbEntity
  8
0
370
    -3
  6
Continuous
100
AcDbLine
 10
620.68286
 20
-36.402598
 30
0.0
 11
620.68286
 21
-122.744211
 31
0.0
  0
LINE
  5
394
100
AcDbEntity
  8
0
370
    -3
  6
Continuous
100
AcDbLine
 10
516.68286
 20
-34.753095
 30
0.0
 11
516.68286
 21
-122.744211
 31
0.0
  0
LINE
  5
395
100
AcDbEntity
  8
0
370
    -3
  6
Continuous
100
AcDbLine
 10
504.682462
 20
-34.962562
 30
0.0
 11
516.68286
 21
-34.753095
 31
0.0
  0
LINE
  5
396
100
AcDbEntity
  8
0
370
    -3
  6
Continuous
100
AcDbLine
 10
504.682462
 20
-122.744211
 30
0.0
 11
504.682462
 21
-210.026248
 31
0.0
  0
LINE
  5
397
100
AcDbEntity
  8
0
370
    -3
  6
Continuous
100
AcDbLine
 10
499.682462
 20
-106.744367
 30
0.0
 11
499.682462
 21
-154.47304
 31
0.0
  0
LINE
  5
398
100
AcDbEntity
  8
0
370
    -3
  6
Continuous
100
AcDbLine
 10
499.682462
 20
-106.744367
 30
0.0
 11
499.682462
 21
-59.47304
 31
0.0
  0
LINE
  5
399
100
AcDbEntity
  8
0
370
    -3
  6
Continuous
100
AcDbLine
 10
504.682462
 20
-122.744211
 30
0.0
 11
504.682462
 21
-34.962562
 31
0.0
  0
LINE
  5
39A
100
AcDbEntity
  8
0
370
    -3
  6
CENTER
100
AcDbLine
 10
562.68286
 20
2.097304
 30
0.0
 11
562.68286
 21
-213.164916
 31
0.0
  0
LINE
  5
39B
100
AcDbEntity
  8
0
370
    -3
  6
CENTER
100
AcDbLine
 10
632.161668
 20
-106.97304
 30
0.0
 11
437.982265
 21
-106.97304
 31
0.0
  0
LINE
  5
39C
100
AcDbEntity
  8
0
370
    -3
  6
Continuous
100
AcDbLine
 10
625.68286
 20
-59.47304
 30
0.0
 11
620.68286
 21
-59.47304
 31
0.0
  0
LINE
  5
39D
100
AcDbEntity
  8
0
370
    -3
  6
Continuous
100
AcDbLine
 10
625.68286
 20
-154.47304
 30
0.0
 11
620.68286
 21
-154.47304
 31
0.0
  0
LINE
  5
39E
100
AcDbEntity
  8
0
370
    -3
  6
Continuous
100
AcDbLine
 10
499.682462
 20
-154.47304
 30
0.0
 11
504.68286
 21
-154.47304
 31
0.0
  0
LINE
  5
39F
100
AcDbEntity
  8
0
370
    -3
  6
Continuous
100
AcDbLine
 10
499.682462
 20
-59.47304
 30
0.0
 11
504.68286
 21
-59.47304
 31
0.0
  0
CIRCLE
  5
3A0
100
AcDbEntity
  8
0
370
    -3
  6
Continuous
100
AcDbCircle
 10
238.682676
 20
-106.97304
 30
0.0
 40
31.0
  0
LINE
  5
3A1
100
AcDbEntity
  8
0
370
    -3
  6
Continuous
100
AcDbLine
 10
-288.317352
 20
-122.972727
 30
0.0
 11
-288.317352
 21
-103.972727
 31
0.0
  0
ARC
  5
3A2
100
AcDbEntity
  8
0
370
    -3
  6
Continuous
100
AcDbCircle
 10
-287.317352
 20
-103.972727
 30
0.0
 40
1.0
100
AcDbArc
 50
99.914783
 51
180.0
  0
ARC
  5
3A3
100
AcDbEntity
  8
0
370
    -3
  6
Continuous
100
AcDbCircle
 10
-287.661719
 20
-102.002597
 30
0.0
 40
1.0
100
AcDbArc
 50
279.914783
 51
350.0
  0
LINE
  5
3A4
100
AcDbEntity
  8
0
370
    -3
  6
Continuous
100
AcDbLine
 10
-288.317352
 20
-122.972727
 30
0.0
 11
-288.317352
 21
-141.972727
 31
0.0
  0
ARC
  5
3A5
100
AcDbEntity
  8
0
370
    -3
  6
Continuous
100
AcDbCircle
 10
-287.317352
 20
-141.972727
 30
0.0
 40
1.0
100
AcDbArc
 50
180.0
 51
260.085217
  0
ARC
  5
3A6
100
AcDbEntity
  8
0
370
    -3
  6
Continuous
100
AcDbCircle
 10
-287.661719
 20
-143.942857
 30
0.0
 40
1.0
100
AcDbArc
 50
10.0
 51
80.085217
  0
LINE
  5
3A7
100
AcDbEntity
  8
0
370
    -3
  6
Continuous
100
AcDbLine
 10
-279.97695
 20
-157.972727
 30
0.0
 11
-275.202291
 21
-157.972727
 31
0.0
  0
LINE
  5
3A8
100
AcDbEntity
  8
0
370
    -3
  6
Continuous
100
AcDbLine
 10
-286.676911
 20
-143.769209
 30
0.0
 11
-283.901011
 21
-159.512119
 31
0.0
  0
ARC
  5
3A9
100
AcDbEntity
  8
0
370
    -3
  6
Continuous
100
AcDbCircle
 10
-269.128895
 20
-156.907396
 30
0.0
 40
15.0
100
AcDbArc
 50
190.0
 51
225.0
  0
ARC
  5
3AA
100
AcDbEntity
  8
0
370
    -3
  6
Continuous
100
AcDbCircle
 10
-279.97695
 20
-152.972727
 30
0.0
 40
5.0
100
AcDbArc
 50
190.0
 51
270.0
  0
ARC
  5
3AB
100
AcDbEntity
  8
0
370
    -3
  6
Continuous
100
AcDbCircle
 10
-275.202291
 20
-162.972727
 30
0.0
 40
5.0
100
AcDbArc
 50
40.772805
 51
90.0
  0
LINE
  5
3AC
100
AcDbEntity
  8
0
370
    -3
  6
Continuous
100
AcDbLine
 10
-279.735497
 20
-167.513998
 30
0.0
 11
-273.525446
 21
-173.724048
 31
0.0
  0
ARC
  5
3AD
100
AcDbEntity
  8
0
370
    -3
  6
Continuous
100
AcDbCircle
 10
-262.918845
 20
-163.117447
 30
0.0
 40
15.0
100
AcDbArc
 50
225.0
 51
259.695154
  0
LINE
  5
3AE
100
AcDbEntity
  8
0
370
    -3
  6
Continuous
100
AcDbLine
 10
-265.602126
 20
-177.875495
 30
0.0
 11
-247.148085
 21
-181.230776
 31
0.0
  0
ARC
  5
3AF
100
AcDbEntity
  8
0
370
    -3
  6
Continuous
100
AcDbCircle
 10
-228.817352
 20
-122.972727
 30
0.0
 40
56.25
100
AcDbArc
 50
220.772805
 51
245.397118
  0
ARC
  5
3B0
100
AcDbEntity
  8
0
370
    -3
  6
Continuous
100
AcDbCircle
 10
-242.317352
 20
-177.472727
 30
0.0
 40
3.0
100
AcDbArc
 50
180.0
 51
270.0
  0
ARC
  5
3B1
100
AcDbEntity
  8
0
370
    -3
  6
Continuous
100
AcDbCircle
 10
-244.464803
 20
-166.472727
 30
0.0
 40
15.0
100
AcDbArc
 50
259.695154
 51
270.0
  0
LINE
  5
3B2
100
AcDbEntity
  8
0
370
    -3
  6
Continuous
100
AcDbLine
 10
-242.149644
 20
-181.472727
 30
0.0
 11
-244.464803
 21
-181.472727
 31
0.0
  0
ARC
  5
3B3
100
AcDbEntity
  8
0
370
    -3
  6
Continuous
100
AcDbCircle
 10
-254.317352
 20
-178.662156
 30
0.0
 40
5.0
100
AcDbArc
 50
0.0
 51
65.397118
  0
LINE
  5
3B4
100
AcDbEntity
  8
0
370
    -3
  6
Continuous
100
AcDbLine
 10
-249.317352
 20
-152.83491
 30
0.0
 11
-249.317352
 21
-180.836363
 31
0.0
  0
LINE
  5
3B5
100
AcDbEntity
  8
0
370
    -3
  6
Continuous
100
AcDbLine
 10
-245.317352
 20
-158.493847
 30
0.0
 11
-245.317352
 21
-177.472727
 31
0.0
  0
ARC
  5
3B6
100
AcDbEntity
  8
0
370
    -3
  6
Continuous
100
AcDbCircle
 10
-228.817352
 20
-122.972727
 30
0.0
 40
35.0
100
AcDbArc
 50
217.899458
 51
270.0
  0
ARC
  5
3B7
100
AcDbEntity
  8
0
370
    -3
  6
Continuous
100
AcDbCircle
 10
-242.317352
 20
-158.493847
 30
0.0
 40
3.0
100
AcDbArc
 50
69.190426
 51
180.0
  0
ARC
  5
3B8
100
AcDbEntity
  8
0
370
    -3
  6
Continuous
100
AcDbCircle
 10
-252.317352
 20
-152.83491
 30
0.0
 40
3.0
100
AcDbArc
 50
0.0
 51
51.799077
  0
ARC
  5
3B9
100
AcDbEntity
  8
0
370
    -3
  6
Continuous
100
AcDbCircle
 10
-215.317352
 20
-158.493847
 30
0.0
 40
3.0
100
AcDbArc
 50
0.0
 51
110.809574
  0
ARC
  5
3BA
100
AcDbEntity
  8
0
370
    -3
  6
Continuous
100
AcDbCircle
 10
-228.817352
 20
-122.972727
 30
0.0
 40
35.0
100
AcDbArc
 50
270.0
 51
322.252579
  0
ARC
  5
3BB
100
AcDbEntity
  8
0
370
    -3
  6
Continuous
100
AcDbCircle
 10
-205.317352
 20
-152.83491
 30
0.0
 40
3.0
100
AcDbArc
 50
128.200923
 51
180.0
  0
LINE
  5
3BC
100
AcDbEntity
  8
0
370
    -3
  6
Continuous
100
AcDbLine
 10
-208.317352
 20
-152.83491
 30
0.0
 11
-208.317352
 21
-180.836363
 31
0.0
  0
LINE
  5
3BD
100
AcDbEntity
  8
0
370
    -3
  6
Continuous
100
AcDbLine
 10
-212.317352
 20
-158.493847
 30
0.0
 11
-212.317352
 21
-177.472727
 31
0.0
  0
ARC
  5
3BE
100
AcDbEntity
  8
0
370
    -3
  6
Continuous
100
AcDbCircle
 10
-228.817352
 20
-122.972727
 30
0.0
 40
60.0
100
AcDbArc
 50
257.161432
 51
282.838568
  0
ARC
  5
3BF
100
AcDbEntity
  8
0
370
    -3
  6
Continuous
100
AcDbCircle
 10
-215.317352
 20
-177.472727
 30
0.0
 40
3.0
100
AcDbArc
 50
270.0
 51
0.0
  0
ARC
  5
3C0
100
AcDbEntity
  8
0
370
    -3
  6
Continuous
100
AcDbCircle
 10
-213.169902
 20
-166.472727
 30
0.0
 40
15.0
100
AcDbArc
 50
270.0
 51
280.304846
  0
LINE
  5
3C1
100
AcDbEntity
  8
0
370
    -3
  6
Continuous
100
AcDbLine
 10
-215.485061
 20
-181.472727
 30
0.0
 11
-213.169902
 21
-181.472727
 31
0.0
  0
ARC
  5
3C2
100
AcDbEntity
  8
0
370
    -3
  6
Continuous
100
AcDbCircle
 10
-203.317352
 20
-178.662156
 30
0.0
 40
5.0
100
AcDbArc
 50
114.602882
 51
180.0
  0
ARC
  5
3C3
100
AcDbEntity
  8
0
370
    -3
  6
Continuous
100
AcDbCircle
 10
-228.817352
 20
-122.972727
 30
0.0
 40
56.25
100
AcDbArc
 50
294.602882
 51
319.227195
  0
LINE
  5
3C4
100
AcDbEntity
  8
0
370
    -3
  6
Continuous
100
AcDbLine
 10
-192.032579
 20
-177.875495
 30
0.0
 11
-210.48662
 21
-181.230776
 31
0.0
  0
ARC
  5
3C5
100
AcDbEntity
  8
0
370
    -3
  6
Continuous
100
AcDbCircle
 10
-194.71586
 20
-163.117447
 30
0.0
 40
15.0
100
AcDbArc
 50
280.304846
 51
315.0
  0
LINE
  5
3C6
100
AcDbEntity
  8
0
370
    -3
  6
Continuous
100
AcDbLine
 10
-177.899208
 20
-167.513998
 30
0.0
 11
-184.109258
 21
-173.724048
 31
0.0
  0
ARC
  5
3C7
100
AcDbEntity
  8
0
370
    -3
  6
Continuous
100
AcDbCircle
 10
-188.50581
 20
-156.907396
 30
0.0
 40
15.0
100
AcDbArc
 50
315.0
 51
350.0
  0
ARC
  5
3C8
100
AcDbEntity
  8
0
370
    -3
  6
Continuous
100
AcDbCircle
 10
-177.657755
 20
-152.972727
 30
0.0
 40
5.0
100
AcDbArc
 50
270.0
 51
350.0
  0
LINE
  5
3C9
100
AcDbEntity
  8
0
370
    -3
  6
Continuous
100
AcDbLine
 10
-177.657755
 20
-157.972727
 30
0.0
 11
-182.432414
 21
-157.972727
 31
0.0
  0
ARC
  5
3CA
100
AcDbEntity
  8
0
370
    -3
  6
Continuous
100
AcDbCircle
 10
-182.432414
 20
-162.972727
 30
0.0
 40
5.0
100
AcDbArc
 50
90.0
 51
139.227195
  0
LINE
  5
3CB
100
AcDbEntity
  8
0
370
    -3
  6
Continuous
100
AcDbLine
 10
-170.957794
 20
-143.769209
 30
0.0
 11
-173.733694
 21
-159.512119
 31
0.0
  0
LINE
  5
3CC
100
AcDbEntity
  8
0
370
    -3
  6
Continuous
100
AcDbLine
 10
-169.317352
 20
-122.972727
 30
0.0
 11
-169.317352
 21
-141.972727
 31
0.0
  0
ARC
  5
3CD
100
AcDbEntity
  8
0
370
    -3
  6
Continuous
100
AcDbCircle
 10
-170.317352
 20
-141.972727
 30
0.0
 40
1.0
100
AcDbArc
 50
279.914783
 51
0.0
  0
ARC
  5
3CE
100
AcDbEntity
  8
0
370
    -3
  6
Continuous
100
AcDbCircle
 10
-169.972986
 20
-143.942857
 30
0.0
 40
1.0
100
AcDbArc
 50
99.914783
 51
170.0
  0
LINE
  5
3CF
100
AcDbEntity
  8
0
370
    -3
  6
Continuous
100
AcDbLine
 10
-169.317352
 20
-122.972727
 30
0.0
 11
-169.317352
 21
-103.972727
 31
0.0
  0
ARC
  5
3D0
100
AcDbEntity
  8
0
370
    -3
  6
Continuous
100
AcDbCircle
 10
-170.317352
 20
-103.972727
 30
0.0
 40
1.0
100
AcDbArc
 50
0.0
 51
80.085217
  0
ARC
  5
3D1
100
AcDbEntity
  8
0
370
    -3
  6
Continuous
100
AcDbCircle
 10
-169.972986
 20
-102.002597
 30
0.0
 40
1.0
100
AcDbArc
 50
190.0
 51
260.085217
  0
ARC
  5
3D2
100
AcDbEntity
  8
0
370
    -3
  6
Continuous
100
AcDbCircle
 10
-188.50581
 20
-89.038058
 30
0.0
 40
15.0
100
AcDbArc
 50
10.0
 51
28.450323
  0
LINE
  5
3D3
100
AcDbEntity
  8
0
370
    -3
  6
Continuous
100
AcDbLine
 10
-170.957794
 20
-102.176245
 30
0.0
 11
-173.733694
 21
-86.433335
 31
0.0
  0
ARC
  5
3D4
100
AcDbEntity
  8
0
370
    -3
  6
Continuous
100
AcDbCircle
 10
-175.979556
 20
-90.972727
 30
0.0
 40
3.0
100
AcDbArc
 50
10.0
 51
77.247821
  0
LINE
  5
3D5
100
AcDbEntity
  8
0
370
    -3
  6
Continuous
100
AcDbLine
 10
-286.676911
 20
-102.176245
 30
0.0
 11
-283.901011
 21
-86.433335
 31
0.0
  0
ARC
  5
3D6
100
AcDbEntity
  8
0
370
    -3
  6
Continuous
100
AcDbCircle
 10
-281.655149
 20
-90.972727
 30
0.0
 40
3.0
100
AcDbArc
 50
102.752179
 51
170.0
  0
ARC
  5
3D7
100
AcDbEntity
  8
0
370
    -3
  6
Continuous
100
AcDbCircle
 10
-269.128895
 20
-89.038058
 30
0.0
 40
15.0
100
AcDbArc
 50
151.549677
 51
170.0
  0
ARC
  5
3D8
100
AcDbEntity
  8
0
370
    -3
  6
Continuous
100
AcDbCircle
 10
-249.317352
 20
-144.972883
 30
0.0
 40
0.5
100
AcDbArc
 50
0.0
 51
90.0
  0
ARC
  5
3D9
100
AcDbEntity
  8
0
370
    -3
  6
Continuous
100
AcDbCircle
 10
-248.317352
 20
-144.972883
 30
0.0
 40
0.5
100
AcDbArc
 50
180.0
 51
270.0
  0
ARC
  5
3DA
100
AcDbEntity
  8
0
370
    -3
  6
Continuous
100
AcDbCircle
 10
-248.817352
 20
255.527117
 30
0.0
 40
400.0
100
AcDbArc
 50
269.140459
 51
269.92847
  0
ARC
  5
3DB
100
AcDbEntity
  8
0
370
    -3
  6
Continuous
100
AcDbCircle
 10
-208.817352
 20
255.527117
 30
0.0
 40
400.0
100
AcDbArc
 50
270.07153
 51
271.431984
  0
ARC
  5
3DC
100
AcDbEntity
  8
0
370
    -3
  6
Continuous
100
AcDbCircle
 10
-208.317352
 20
-144.972883
 30
0.0
 40
0.5
100
AcDbArc
 50
90.0
 51
180.0
  0
ARC
  5
3DD
100
AcDbEntity
  8
0
370
    -3
  6
Continuous
100
AcDbCircle
 10
-209.317352
 20
-144.972883
 30
0.0
 40
0.5
100
AcDbArc
 50
270.0
 51
0.0
  0
LINE
  5
3DE
100
AcDbEntity
  8
0
370
    -3
  6
Continuous
100
AcDbLine
 10
-209.317352
 20
-145.472883
 30
0.0
 11
-248.317352
 21
-145.472883
 31
0.0
  0
ARC
  5
3DF
100
AcDbEntity
  8
0
370
    -3
  6
Continuous
100
AcDbCircle
 10
-281.817352
 20
-72.472883
 30
0.0
 40
0.5
100
AcDbArc
 50
90.0
 51
180.0
  0
ARC
  5
3E0
100
AcDbEntity
  8
0
370
    -3
  6
Continuous
100
AcDbCircle
 10
-281.817352
 20
-71.472883
 30
0.0
 40
0.5
100
AcDbArc
 50
270.0
 51
0.0
  0
ARC
  5
3E1
100
AcDbEntity
  8
0
370
    -3
  6
Continuous
100
AcDbCircle
 10
118.682648
 20
-71.972883
 30
0.0
 40
400.0
100
AcDbArc
 50
178.568016
 51
179.947
  0
ARC
  5
3E2
100
AcDbEntity
  8
0
370
    -3
  6
Continuous
100
AcDbCircle
 10
-281.817352
 20
-111.472883
 30
0.0
 40
0.5
100
AcDbArc
 50
180.0
 51
270.0
  0
ARC
  5
3E3
100
AcDbEntity
  8
0
370
    -3
  6
Continuous
100
AcDbCircle
 10
-281.817352
 20
-112.472883
 30
0.0
 40
0.5
100
AcDbArc
 50
0.0
 51
90.0
  0
LINE
  5
3E4
100
AcDbEntity
  8
0
370
    -3
  6
Continuous
100
AcDbLine
 10
-282.317352
 20
-111.472883
 30
0.0
 11
-282.317352
 21
-72.472883
 31
0.0
  0
ARC
  5
3E5
100
AcDbEntity
  8
0
370
    -3
  6
Continuous
100
AcDbCircle
 10
118.682648
 20
-111.972883
 30
0.0
 40
400.0
100
AcDbArc
 50
180.07153
 51
181.431984
  0
ARC
  5
3E6
100
AcDbEntity
  8
0
370
    -3
  6
Continuous
100
AcDbCircle
 10
-256.317352
 20
-119.472883
 30
0.0
 40
25.0
100
AcDbArc
 50
185.730175
 51
273.43865
  0
ARC
  5
3E7
100
AcDbEntity
  8
0
370
    -3
  6
Continuous
100
AcDbCircle
 10
-201.317352
 20
-119.472883
 30
0.0
 40
25.0
100
AcDbArc
 50
275.730175
 51
3.43865
  0
ARC
  5
3E8
100
AcDbEntity
  8
0
370
    -3
  6
Continuous
100
AcDbCircle
 10
-175.817352
 20
-111.472883
 30
0.0
 40
0.5
100
AcDbArc
 50
270.0
 51
0.0
  0
ARC
  5
3E9
100
AcDbEntity
  8
0
370
    -3
  6
Continuous
100
AcDbCircle
 10
-175.817352
 20
-112.472883
 30
0.0
 40
0.5
100
AcDbArc
 50
90.0
 51
180.0
  0
ARC
  5
3EA
100
AcDbEntity
  8
0
370
    -3
  6
Continuous
100
AcDbCircle
 10
-576.317352
 20
-111.972883
 30
0.0
 40
400.0
100
AcDbArc
 50
359.140459
 51
359.92847
  0
ARC
  5
3EB
100
AcDbEntity
  8
0
370
    -3
  6
Continuous
100
AcDbCircle
 10
-576.317352
 20
-71.972883
 30
0.0
 40
400.0
100
AcDbArc
 50
0.07153
 51
1.431984
  0
LINE
  5
3EC
100
AcDbEntity
  8
0
370
    -3
  6
Continuous
100
AcDbLine
 10
-175.317352
 20
-72.472883
 30
0.0
 11
-175.317352
 21
-111.472883
 31
0.0
  0
ARC
  5
3ED
100
AcDbEntity
  8
0
370
    -3
  6
Continuous
100
AcDbCircle
 10
-175.817352
 20
-72.472883
 30
0.0
 40
0.5
100
AcDbArc
 50
0.0
 51
90.0
  0
ARC
  5
3EE
100
AcDbEntity
  8
0
370
    -3
  6
Continuous
100
AcDbCircle
 10
-175.817352
 20
-71.472883
 30
0.0
 40
0.5
100
AcDbArc
 50
180.0
 51
270.0
  0
ARC
  5
3EF
100
AcDbEntity
  8
0
370
    -3
  6
Continuous
100
AcDbCircle
 10
-201.317352
 20
-64.472883
 30
0.0
 40
25.0
100
AcDbArc
 50
5.730175
 51
84.269825
  0
ARC
  5
3F0
100
AcDbEntity
  8
0
370
    -3
  6
Continuous
100
AcDbCircle
 10
-208.317352
 20
-38.972883
 30
0.0
 40
0.5
100
AcDbArc
 50
180.0
 51
270.0
  0
ARC
  5
3F1
100
AcDbEntity
  8
0
370
    -3
  6
Continuous
100
AcDbCircle
 10
-209.317352
 20
-38.972883
 30
0.0
 40
0.5
100
AcDbArc
 50
0.0
 51
90.0
  0
ARC
  5
3F2
100
AcDbEntity
  8
0
370
    -3
  6
Continuous
100
AcDbCircle
 10
-208.817352
 20
-439.472883
 30
0.0
 40
400.0
100
AcDbArc
 50
88.568016
 51
89.92847
  0
ARC
  5
3F3
100
AcDbEntity
  8
0
370
    -3
  6
Continuous
100
AcDbCircle
 10
-248.317352
 20
-38.972883
 30
0.0
 40
0.5
100
AcDbArc
 50
90.0
 51
180.0
  0
ARC
  5
3F4
100
AcDbEntity
  8
0
370
    -3
  6
Continuous
100
AcDbCircle
 10
-249.317352
 20
-38.972883
 30
0.0
 40
0.5
100
AcDbArc
 50
270.0
 51
0.0
  0
ARC
  5
3F5
100
AcDbEntity
  8
0
370
    -3
  6
Continuous
100
AcDbCircle
 10
-248.817352
 20
-439.472883
 30
0.0
 40
400.0
100
AcDbArc
 50
90.07153
 51
91.431984
  0
ARC
  5
3F6
100
AcDbEntity
  8
0
370
    -3
  6
Continuous
100
AcDbCircle
 10
-256.317352
 20
-64.472883
 30
0.0
 40
25.0
100
AcDbArc
 50
95.730175
 51
174.269825
  0
LINE
  5
3F7
100
AcDbEntity
  8
0
370
    -3
  6
Continuous
100
AcDbLine
 10
-248.317352
 20
-38.472883
 30
0.0
 11
-209.317352
 21
-38.472883
 31
0.0
  0
LINE
  5
3F8
100
AcDbEntity
  8
0
370
    -3
  6
Continuous
100
AcDbLine
 10
-247.567352
 20
-145.472883
 30
0.0
 11
-210.067352
 21
-145.472883
 31
0.0
  0
LINE
  5
3F9
100
AcDbEntity
  8
0
370
    -3
  6
Continuous
100
AcDbLine
 10
-206.37316
 20
-43.01157
 30
0.0
 11
-206.315982
 21
-41.920548
 31
0.0
  0
ARC
  5
3FA
100
AcDbEntity
  8
0
370
    -3
  6
Continuous
100
AcDbCircle
 10
-207.37179
 20
-42.959234
 30
0.0
 40
1.0
100
AcDbArc
 50
246.36857
 51
357.0
  0
ARC
  5
3FB
100
AcDbEntity
  8
0
370
    -3
  6
Continuous
100
AcDbCircle
 10
-205.317352
 20
-41.972883
 30
0.0
 40
1.0
100
AcDbArc
 50
3.0
 51
177.0
  0
LINE
  5
3FC
100
AcDbEntity
  8
0
370
    -3
  6
Continuous
100
AcDbLine
 10
-204.153037
 20
-45.082028
 30
0.0
 11
-204.318723
 21
-41.920548
 31
0.0
  0
LINE
  5
3FD
100
AcDbEntity
  8
0
370
    -3
  6
Continuous
100
AcDbLine
 10
-201.986538
 20
-45.174945
 30
0.0
 11
-201.815982
 21
-41.920548
 31
0.0
  0
ARC
  5
3FE
100
AcDbEntity
  8
0
370
    -3
  6
Continuous
100
AcDbCircle
 10
-200.817352
 20
-41.972883
 30
0.0
 40
1.0
100
AcDbArc
 50
3.0
 51
177.0
  0
ARC
  5
3FF
100
AcDbEntity
  8
0
370
    -3
  6
Continuous
100
AcDbCircle
 10
-196.317352
 20
-42.472883
 30
0.0
 40
1.0
100
AcDbArc
 50
3.0
 51
177.0
  0
ARC
  5
400
100
AcDbEntity
  8
0
370
    -3
  6
Continuous
100
AcDbCircle
 10
-228.817352
 20
-91.972883
 30
0.0
 40
52.5
100
AcDbArc
 50
66.336295
 51
66.888398
  0
ARC
  5
401
100
AcDbEntity
  8
0
370
    -3
  6
Continuous
100
AcDbCircle
 10
-207.817352
 20
-42.766685
 30
0.0
 40
1.0
100
AcDbArc
 50
180.0
 51
246.888398
  0
ARC
  5
402
100
AcDbEntity
  8
0
370
    -3
  6
Continuous
100
AcDbCircle
 10
-228.817352
 20
-91.972883
 30
0.0
 40
52.5
100
AcDbArc
 50
66.304919
 51
66.888398
  0
LINE
  5
403
100
AcDbEntity
  8
0
370
    -3
  6
Continuous
100
AcDbLine
 10
-208.817352
 20
-39.172883
 30
0.0
 11
-208.817352
 21
-42.766685
 31
0.0
  0
ARC
  5
404
100
AcDbEntity
  8
0
370
    -3
  6
Continuous
100
AcDbCircle
 10
-209.517352
 20
-39.172883
 30
0.0
 40
0.7
100
AcDbArc
 50
0.0
 51
90.0
  0
LINE
  5
405
100
AcDbEntity
  8
0
370
    -3
  6
Continuous
100
AcDbLine
 10
-209.517352
 20
-38.472883
 30
0.0
 11
-228.817352
 21
-38.472883
 31
0.0
  0
LINE
  5
406
100
AcDbEntity
  8
0
370
    -3
  6
Continuous
100
AcDbLine
 10
-251.261545
 20
-43.01157
 30
0.0
 11
-251.318723
 21
-41.920548
 31
0.0
  0
ARC
  5
407
100
AcDbEntity
  8
0
370
    -3
  6
Continuous
100
AcDbCircle
 10
-250.262915
 20
-42.959234
 30
0.0
 40
1.0
100
AcDbArc
 50
183.0
 51
293.63143
  0
ARC
  5
408
100
AcDbEntity
  8
0
370
    -3
  6
Continuous
100
AcDbCircle
 10
-252.317352
 20
-41.972883
 30
0.0
 40
1.0
100
AcDbArc
 50
3.0
 51
177.0
  0
LINE
  5
409
100
AcDbEntity
  8
0
370
    -3
  6
Continuous
100
AcDbLine
 10
-253.481668
 20
-45.082028
 30
0.0
 11
-253.315982
 21
-41.920548
 31
0.0
  0
LINE
  5
40A
100
AcDbEntity
  8
0
370
    -3
  6
Continuous
100
AcDbLine
 10
-255.648167
 20
-45.174945
 30
0.0
 11
-255.818723
 21
-41.920548
 31
0.0
  0
ARC
  5
40B
100
AcDbEntity
  8
0
370
    -3
  6
Continuous
100
AcDbCircle
 10
-256.817352
 20
-41.972883
 30
0.0
 40
1.0
100
AcDbArc
 50
3.0
 51
177.0
  0
ARC
  5
40C
100
AcDbEntity
  8
0
370
    -3
  6
Continuous
100
AcDbCircle
 10
-261.317352
 20
-42.472883
 30
0.0
 40
1.0
100
AcDbArc
 50
3.0
 51
177.0
  0
ARC
  5
40D
100
AcDbEntity
  8
0
370
    -3
  6
Continuous
100
AcDbCircle
 10
-228.817352
 20
-91.972883
 30
0.0
 40
52.5
100
AcDbArc
 50
113.111602
 51
113.663705
  0
ARC
  5
40E
100
AcDbEntity
  8
0
370
    -3
  6
Continuous
100
AcDbCircle
 10
-249.817352
 20
-42.766685
 30
0.0
 40
1.0
100
AcDbArc
 50
293.111602
 51
0.0
  0
ARC
  5
40F
100
AcDbEntity
  8
0
370
    -3
  6
Continuous
100
AcDbCircle
 10
-228.817352
 20
-91.972883
 30
0.0
 40
52.5
100
AcDbArc
 50
113.111602
 51
113.695081
  0
LINE
  5
410
100
AcDbEntity
  8
0
370
    -3
  6
Continuous
100
AcDbLine
 10
-248.817352
 20
-39.172883
 30
0.0
 11
-248.817352
 21
-42.766685
 31
0.0
  0
ARC
  5
411
100
AcDbEntity
  8
0
370
    -3
  6
Continuous
100
AcDbCircle
 10
-248.117352
 20
-39.172883
 30
0.0
 40
0.7
100
AcDbArc
 50
90.0
 51
180.0
  0
LINE
  5
412
100
AcDbEntity
  8
0
370
    -3
  6
Continuous
100
AcDbLine
 10
-248.117352
 20
-38.472883
 30
0.0
 11
-228.817352
 21
-38.472883
 31
0.0
  0
ARC
  5
413
100
AcDbEntity
  8
0
370
    -3
  6
Continuous
100
AcDbCircle
 10
-193.994975
 20
-48.571847
 30
0.0
 40
1.0
100
AcDbArc
 50
183.0
 51
312.0
  0
LINE
  5
414
100
AcDbEntity
  8
0
370
    -3
  6
Continuous
100
AcDbLine
 10
-194.993604
 20
-48.624183
 30
0.0
 11
-195.318723
 21
-42.420548
 31
0.0
  0
ARC
  5
415
100
AcDbEntity
  8
0
370
    -3
  6
Continuous
100
AcDbCircle
 10
-228.817352
 20
-91.972883
 30
0.0
 40
61.5
100
AcDbArc
 50
41.401106
 51
48.598894
  0
ARC
  5
416
100
AcDbEntity
  8
0
370
    -3
  6
Continuous
100
AcDbCircle
 10
-188.807108
 20
-46.591936
 30
0.0
 40
1.0
100
AcDbArc
 50
48.598894
 51
132.0
  0
ARC
  5
417
100
AcDbEntity
  8
0
370
    -3
  6
Continuous
100
AcDbCircle
 10
-185.416316
 20
-57.150506
 30
0.0
 40
1.0
100
AcDbArc
 50
138.0
 51
267.0
  0
LINE
  5
418
100
AcDbEntity
  8
0
370
    -3
  6
Continuous
100
AcDbLine
 10
-185.468652
 20
-58.149135
 30
0.0
 11
-179.265017
 21
-58.474254
 31
0.0
  0
ARC
  5
419
100
AcDbEntity
  8
0
370
    -3
  6
Continuous
100
AcDbCircle
 10
-183.436405
 20
-51.962639
 30
0.0
 40
1.0
100
AcDbArc
 50
318.0
 51
41.401106
  0
ARC
  5
41A
100
AcDbEntity
  8
0
370
    -3
  6
Continuous
100
AcDbCircle
 10
-198.504555
 20
-47.889051
 30
0.0
 40
1.0
100
AcDbArc
 50
183.0
 51
235.486921
  0
ARC
  5
41B
100
AcDbEntity
  8
0
370
    -3
  6
Continuous
100
AcDbCircle
 10
-198.600497
 20
-47.823233
 30
0.0
 40
1.0
100
AcDbArc
 50
235.611524
 51
357.0
  0
ARC
  5
41C
100
AcDbEntity
  8
0
370
    -3
  6
Continuous
100
AcDbCircle
 10
-203.154407
 20
-45.029692
 30
0.0
 40
1.0
100
AcDbArc
 50
183.0
 51
241.335416
  0
ARC
  5
41D
100
AcDbEntity
  8
0
370
    -3
  6
Continuous
100
AcDbCircle
 10
-202.985167
 20
-45.122609
 30
0.0
 40
1.0
100
AcDbArc
 50
241.128648
 51
357.0
  0
LINE
  5
41E
100
AcDbEntity
  8
0
370
    -3
  6
Continuous
100
AcDbLine
 10
-199.503184
 20
-47.941387
 30
0.0
 11
-199.818723
 21
-41.920548
 31
0.0
  0
LINE
  5
41F
100
AcDbEntity
  8
0
370
    -3
  6
Continuous
100
AcDbLine
 10
-197.601868
 20
-47.875569
 30
0.0
 11
-197.315982
 21
-42.420548
 31
0.0
  0
ARC
  5
420
100
AcDbEntity
  8
0
370
    -3
  6
Continuous
100
AcDbCircle
 10
-228.817352
 20
-91.972883
 30
0.0
 40
52.5
100
AcDbArc
 50
61.026551
 51
61.437166
  0
ARC
  5
421
100
AcDbEntity
  8
0
370
    -3
  6
Continuous
100
AcDbCircle
 10
-228.817352
 20
-91.972883
 30
0.0
 40
52.5
100
AcDbArc
 50
61.026551
 51
61.437166
  0
LINE
  5
422
100
AcDbEntity
  8
0
370
    -3
  6
Continuous
100
AcDbLine
 10
-184.785856
 20
-62.658715
 30
0.0
 11
-178.765017
 21
-62.974254
 31
0.0
  0
LINE
  5
423
100
AcDbEntity
  8
0
370
    -3
  6
Continuous
100
AcDbLine
 10
-184.720038
 20
-60.757399
 30
0.0
 11
-179.265017
 21
-60.471513
 31
0.0
  0
ARC
  5
424
100
AcDbEntity
  8
0
370
    -3
  6
Continuous
100
AcDbCircle
 10
-179.317352
 20
-59.472883
 30
0.0
 40
1.0
100
AcDbArc
 50
273.0
 51
87.0
  0
LINE
  5
425
100
AcDbEntity
  8
0
370
    -3
  6
Continuous
100
AcDbLine
 10
-182.019414
 20
-65.142069
 30
0.0
 11
-178.765017
 21
-64.971513
 31
0.0
  0
ARC
  5
426
100
AcDbEntity
  8
0
370
    -3
  6
Continuous
100
AcDbCircle
 10
-178.817352
 20
-63.972883
 30
0.0
 40
1.0
100
AcDbArc
 50
273.0
 51
87.0
  0
LINE
  5
427
100
AcDbEntity
  8
0
370
    -3
  6
Continuous
100
AcDbLine
 10
-179.856039
 20
-69.528691
 30
0.0
 11
-178.765017
 21
-69.471513
 31
0.0
  0
ARC
  5
428
100
AcDbEntity
  8
0
370
    -3
  6
Continuous
100
AcDbCircle
 10
-178.817352
 20
-72.972883
 30
0.0
 40
1.0
100
AcDbArc
 50
290.070332
 51
87.0
  0
LINE
  5
429
100
AcDbEntity
  8
0
370
    -3
  6
Continuous
100
AcDbLine
 10
-179.682874
 20
-71.926151
 30
0.0
 11
-178.765017
 21
-71.974254
 31
0.0
  0
ARC
  5
42A
100
AcDbEntity
  8
0
370
    -3
  6
Continuous
100
AcDbCircle
 10
-179.630538
 20
-70.927522
 30
0.0
 40
1.0
100
AcDbArc
 50
203.164432
 51
267.0
  0
ARC
  5
42B
100
AcDbEntity
  8
0
370
    -3
  6
Continuous
100
AcDbCircle
 10
-178.131006
 20
-74.851428
 30
0.0
 40
1.0
100
AcDbArc
 50
110.070332
 51
198.664571
  0
ARC
  5
42C
100
AcDbEntity
  8
0
370
    -3
  6
Continuous
100
AcDbCircle
 10
-179.803703
 20
-70.527321
 30
0.0
 40
1.0
100
AcDbArc
 50
93.0
 51
203.63143
  0
ARC
  5
42D
100
AcDbEntity
  8
0
370
    -3
  6
Continuous
100
AcDbCircle
 10
-181.874161
 20
-66.309938
 30
0.0
 40
1.0
100
AcDbArc
 50
208.664584
 51
267.0
  0
LINE
  5
42E
100
AcDbEntity
  8
0
370
    -3
  6
Continuous
100
AcDbLine
 10
-181.926497
 20
-67.308568
 30
0.0
 11
-178.765017
 21
-67.474254
 31
0.0
  0
ARC
  5
42F
100
AcDbEntity
  8
0
370
    -3
  6
Continuous
100
AcDbCircle
 10
-181.967078
 20
-66.140698
 30
0.0
 40
1.0
100
AcDbArc
 50
93.0
 51
208.871352
  0
ARC
  5
430
100
AcDbEntity
  8
0
370
    -3
  6
Continuous
100
AcDbCircle
 10
-178.817352
 20
-68.472883
 30
0.0
 40
1.0
100
AcDbArc
 50
273.0
 51
87.0
  0
ARC
  5
431
100
AcDbEntity
  8
0
370
    -3
  6
Continuous
100
AcDbCircle
 10
-228.817352
 20
-91.972883
 30
0.0
 40
52.5
100
AcDbArc
 50
28.562834
 51
28.973449
  0
ARC
  5
432
100
AcDbEntity
  8
0
370
    -3
  6
Continuous
100
AcDbCircle
 10
-228.817352
 20
-91.972883
 30
0.0
 40
52.5
100
AcDbArc
 50
15.877702
 51
18.664571
  0
ARC
  5
433
100
AcDbEntity
  8
0
370
    -3
  6
Continuous
100
AcDbCircle
 10
-177.737436
 20
-78.472883
 30
0.0
 40
0.5
100
AcDbArc
 50
7.79785
 51
90.0
  0
LINE
  5
434
100
AcDbEntity
  8
0
370
    -3
  6
Continuous
100
AcDbLine
 10
-177.737436
 20
-77.972883
 30
0.0
 11
-177.839416
 21
-77.972883
 31
0.0
  0
ARC
  5
435
100
AcDbEntity
  8
0
370
    -3
  6
Continuous
100
AcDbCircle
 10
-177.839416
 20
-77.472883
 30
0.0
 40
0.5
100
AcDbArc
 50
195.877702
 51
270.0
  0
ARC
  5
436
100
AcDbEntity
  8
0
370
    -3
  6
Continuous
100
AcDbCircle
 10
-184.667702
 20
-61.756028
 30
0.0
 40
1.0
100
AcDbArc
 50
93.0
 51
211.115753
  0
ARC
  5
437
100
AcDbEntity
  8
0
370
    -3
  6
Continuous
100
AcDbCircle
 10
-184.73352
 20
-61.660086
 30
0.0
 40
1.0
100
AcDbArc
 50
217.785803
 51
267.0
  0
ARC
  5
438
100
AcDbEntity
  8
0
370
    -3
  6
Continuous
100
AcDbCircle
 10
-228.817352
 20
-91.972883
 30
0.0
 40
52.5
100
AcDbArc
 50
23.136889
 51
23.663705
  0
LINE
  5
439
100
AcDbEntity
  8
0
370
    -3
  6
Continuous
100
AcDbLine
 10
-192.725988
 20
-63.774242
 30
0.0
 11
-182.693261
 21
-52.63177
 31
0.0
  0
LINE
  5
43A
100
AcDbEntity
  8
0
370
    -3
  6
Continuous
100
AcDbLine
 10
-200.618711
 20
-55.881519
 30
0.0
 11
-189.476239
 21
-45.848792
 31
0.0
  0
ARC
  5
43B
100
AcDbEntity
  8
0
370
    -3
  6
Continuous
100
AcDbCircle
 10
-263.63973
 20
-48.571847
 30
0.0
 40
1.0
100
AcDbArc
 50
228.0
 51
357.0
  0
LINE
  5
43C
100
AcDbEntity
  8
0
370
    -3
  6
Continuous
100
AcDbLine
 10
-262.641101
 20
-48.624183
 30
0.0
 11
-262.315982
 21
-42.420548
 31
0.0
  0
ARC
  5
43D
100
AcDbEntity
  8
0
370
    -3
  6
Continuous
100
AcDbCircle
 10
-228.817352
 20
-91.972883
 30
0.0
 40
61.5
100
AcDbArc
 50
131.401106
 51
138.598894
  0
ARC
  5
43E
100
AcDbEntity
  8
0
370
    -3
  6
Continuous
100
AcDbCircle
 10
-268.827597
 20
-46.591936
 30
0.0
 40
1.0
100
AcDbArc
 50
48.0
 51
131.401106
  0
ARC
  5
43F
100
AcDbEntity
  8
0
370
    -3
  6
Continuous
100
AcDbCircle
 10
-272.218389
 20
-57.150506
 30
0.0
 40
1.0
100
AcDbArc
 50
273.0
 51
42.0
  0
LINE
  5
440
100
AcDbEntity
  8
0
370
    -3
  6
Continuous
100
AcDbLine
 10
-272.166053
 20
-58.149135
 30
0.0
 11
-278.369688
 21
-58.474254
 31
0.0
  0
ARC
  5
441
100
AcDbEntity
  8
0
370
    -3
  6
Continuous
100
AcDbCircle
 10
-274.1983
 20
-51.962639
 30
0.0
 40
1.0
100
AcDbArc
 50
138.598894
 51
222.0
  0
ARC
  5
442
100
AcDbEntity
  8
0
370
    -3
  6
Continuous
100
AcDbCircle
 10
-259.13015
 20
-47.889051
 30
0.0
 40
1.0
100
AcDbArc
 50
304.513079
 51
357.0
  0
ARC
  5
443
100
AcDbEntity
  8
0
370
    -3
  6
Continuous
100
AcDbCircle
 10
-259.034208
 20
-47.823233
 30
0.0
 40
1.0
100
AcDbArc
 50
183.0
 51
304.388476
  0
ARC
  5
444
100
AcDbEntity
  8
0
370
    -3
  6
Continuous
100
AcDbCircle
 10
-254.480298
 20
-45.029692
 30
0.0
 40
1.0
100
AcDbArc
 50
298.664584
 51
357.0
  0
ARC
  5
445
100
AcDbEntity
  8
0
370
    -3
  6
Continuous
100
AcDbCircle
 10
-254.649538
 20
-45.122609
 30
0.0
 40
1.0
100
AcDbArc
 50
183.0
 51
298.871352
  0
LINE
  5
446
100
AcDbEntity
  8
0
370
    -3
  6
Continuous
100
AcDbLine
 10
-258.131521
 20
-47.941387
 30
0.0
 11
-257.815982
 21
-41.920548
 31
0.0
  0
LINE
  5
447
100
AcDbEntity
  8
0
370
    -3
  6
Continuous
100
AcDbLine
 10
-260.032837
 20
-47.875569
 30
0.0
 11
-260.318723
 21
-42.420548
 31
0.0
  0
ARC
  5
448
100
AcDbEntity
  8
0
370
    -3
  6
Continuous
100
AcDbCircle
 10
-228.817352
 20
-91.972883
 30
0.0
 40
52.5
100
AcDbArc
 50
118.562834
 51
118.973449
  0
ARC
  5
449
100
AcDbEntity
  8
0
370
    -3
  6
Continuous
100
AcDbCircle
 10
-228.817352
 20
-91.972883
 30
0.0
 40
52.5
100
AcDbArc
 50
118.562834
 51
118.973449
  0
LINE
  5
44A
100
AcDbEntity
  8
0
370
    -3
  6
Continuous
100
AcDbLine
 10
-272.848849
 20
-62.658715
 30
0.0
 11
-278.869688
 21
-62.974254
 31
0.0
  0
LINE
  5
44B
100
AcDbEntity
  8
0
370
    -3
  6
Continuous
100
AcDbLine
 10
-272.914667
 20
-60.757399
 30
0.0
 11
-278.369688
 21
-60.471513
 31
0.0
  0
ARC
  5
44C
100
AcDbEntity
  8
0
370
    -3
  6
Continuous
100
AcDbCircle
 10
-278.317352
 20
-59.472883
 30
0.0
 40
1.0
100
AcDbArc
 50
93.0
 51
267.0
  0
LINE
  5
44D
100
AcDbEntity
  8
0
370
    -3
  6
Continuous
100
AcDbLine
 10
-275.615291
 20
-65.142069
 30
0.0
 11
-278.869688
 21
-64.971513
 31
0.0
  0
ARC
  5
44E
100
AcDbEntity
  8
0
370
    -3
  6
Continuous
100
AcDbCircle
 10
-278.817352
 20
-63.972883
 30
0.0
 40
1.0
100
AcDbArc
 50
93.0
 51
267.0
  0
LINE
  5
44F
100
AcDbEntity
  8
0
370
    -3
  6
Continuous
100
AcDbLine
 10
-277.778666
 20
-69.528691
 30
0.0
 11
-278.869688
 21
-69.471513
 31
0.0
  0
ARC
  5
450
100
AcDbEntity
  8
0
370
    -3
  6
Continuous
100
AcDbCircle
 10
-278.817352
 20
-72.972883
 30
0.0
 40
1.0
100
AcDbArc
 50
93.0
 51
249.929668
  0
LINE
  5
451
100
AcDbEntity
  8
0
370
    -3
  6
Continuous
100
AcDbLine
 10
-277.951831
 20
-71.926151
 30
0.0
 11
-278.869688
 21
-71.974254
 31
0.0
  0
ARC
  5
452
100
AcDbEntity
  8
0
370
    -3
  6
Continuous
100
AcDbCircle
 10
-278.004167
 20
-70.927522
 30
0.0
 40
1.0
100
AcDbArc
 50
273.0
 51
336.835568
  0
ARC
  5
453
100
AcDbEntity
  8
0
370
    -3
  6
Continuous
100
AcDbCircle
 10
-279.503699
 20
-74.851428
 30
0.0
 40
1.0
100
AcDbArc
 50
341.335429
 51
69.929668
  0
ARC
  5
454
100
AcDbEntity
  8
0
370
    -3
  6
Continuous
100
AcDbCircle
 10
-277.831002
 20
-70.527321
 30
0.0
 40
1.0
100
AcDbArc
 50
336.36857
 51
87.0
  0
LINE
  5
455
100
AcDbEntity
  8
0
370
    -3
  6
Continuous
100
AcDbLine
 10
-275.708208
 20
-67.308568
 30
0.0
 11
-278.869688
 21
-67.474254
 31
0.0
  0
ARC
  5
456
100
AcDbEntity
  8
0
370
    -3
  6
Continuous
100
AcDbCircle
 10
-275.667627
 20
-66.140698
 30
0.0
 40
1.0
100
AcDbArc
 50
331.128648
 51
87.0
  0
ARC
  5
457
100
AcDbEntity
  8
0
370
    -3
  6
Continuous
100
AcDbCircle
 10
-278.817352
 20
-68.472883
 30
0.0
 40
1.0
100
AcDbArc
 50
93.0
 51
267.0
  0
ARC
  5
458
100
AcDbEntity
  8
0
370
    -3
  6
Continuous
100
AcDbCircle
 10
-228.817352
 20
-91.972883
 30
0.0
 40
52.5
100
AcDbArc
 50
151.026551
 51
151.437166
  0
ARC
  5
459
100
AcDbEntity
  8
0
370
    -3
  6
Continuous
100
AcDbCircle
 10
-228.817352
 20
-91.972883
 30
0.0
 40
52.5
100
AcDbArc
 50
161.335429
 51
164.122298
  0
ARC
  5
45A
100
AcDbEntity
  8
0
370
    -3
  6
Continuous
100
AcDbCircle
 10
-279.897269
 20
-78.472883
 30
0.0
 40
0.5
100
AcDbArc
 50
90.0
 51
172.20215
  0
LINE
  5
45B
100
AcDbEntity
  8
0
370
    -3
  6
Continuous
100
AcDbLine
 10
-279.897269
 20
-77.972883
 30
0.0
 11
-279.795289
 21
-77.972883
 31
0.0
  0
ARC
  5
45C
100
AcDbEntity
  8
0
370
    -3
  6
Continuous
100
AcDbCircle
 10
-279.795289
 20
-77.472883
 30
0.0
 40
0.5
100
AcDbArc
 50
270.0
 51
344.122298
  0
ARC
  5
45D
100
AcDbEntity
  8
0
370
    -3
  6
Continuous
100
AcDbCircle
 10
-272.967003
 20
-61.756028
 30
0.0
 40
1.0
100
AcDbArc
 50
328.884247
 51
87.0
  0
ARC
  5
45E
100
AcDbEntity
  8
0
370
    -3
  6
Continuous
100
AcDbCircle
 10
-272.901185
 20
-61.660086
 30
0.0
 40
1.0
100
AcDbArc
 50
273.0
 51
322.214197
  0
ARC
  5
45F
100
AcDbEntity
  8
0
370
    -3
  6
Continuous
100
AcDbCircle
 10
-228.817352
 20
-91.972883
 30
0.0
 40
52.5
100
AcDbArc
 50
156.336295
 51
156.863111
  0
LINE
  5
460
100
AcDbEntity
  8
0
370
    -3
  6
Continuous
100
AcDbLine
 10
-264.908717
 20
-63.774242
 30
0.0
 11
-274.941444
 21
-52.63177
 31
0.0
  0
LINE
  5
461
100
AcDbEntity
  8
0
370
    -3
  6
Continuous
100
AcDbLine
 10
-257.015994
 20
-55.881519
 30
0.0
 11
-268.158466
 21
-45.848792
 31
0.0
  0
ARC
  5
462
100
AcDbEntity
  8
0
370
    -3
  6
Continuous
100
AcDbCircle
 10
-276.317352
 20
-91.972883
 30
0.0
 40
100.0
100
AcDbArc
 50
0.0
 51
7.79785
  0
ARC
  5
463
100
AcDbEntity
  8
0
370
    -3
  6
Continuous
100
AcDbCircle
 10
-181.317352
 20
-91.972883
 30
0.0
 40
100.0
100
AcDbArc
 50
172.20215
 51
180.0
  0
ARC
  5
464
100
AcDbEntity
  8
0
370
    -3
  6
Continuous
100
AcDbCircle
 10
-263.63973
 20
-135.37392
 30
0.0
 40
1.0
100
AcDbArc
 50
3.0
 51
132.0
  0
LINE
  5
465
100
AcDbEntity
  8
0
370
    -3
  6
Continuous
100
AcDbLine
 10
-262.641101
 20
-135.321584
 30
0.0
 11
-262.315982
 21
-141.525219
 31
0.0
  0
ARC
  5
466
100
AcDbEntity
  8
0
370
    -3
  6
Continuous
100
AcDbCircle
 10
-228.817352
 20
-91.972883
 30
0.0
 40
61.5
100
AcDbArc
 50
221.401106
 51
228.598894
  0
ARC
  5
467
100
AcDbEntity
  8
0
370
    -3
  6
Continuous
100
AcDbCircle
 10
-268.827597
 20
-137.353831
 30
0.0
 40
1.0
100
AcDbArc
 50
228.598894
 51
312.0
  0
ARC
  5
468
100
AcDbEntity
  8
0
370
    -3
  6
Continuous
100
AcDbCircle
 10
-272.218389
 20
-126.795261
 30
0.0
 40
1.0
100
AcDbArc
 50
318.0
 51
87.0
  0
LINE
  5
469
100
AcDbEntity
  8
0
370
    -3
  6
Continuous
100
AcDbLine
 10
-272.166053
 20
-125.796632
 30
0.0
 11
-278.369688
 21
-125.471513
 31
0.0
  0
ARC
  5
46A
100
AcDbEntity
  8
0
370
    -3
  6
Continuous
100
AcDbCircle
 10
-274.1983
 20
-131.983128
 30
0.0
 40
1.0
100
AcDbArc
 50
138.0
 51
221.401106
  0
ARC
  5
46B
100
AcDbEntity
  8
0
370
    -3
  6
Continuous
100
AcDbCircle
 10
-259.13015
 20
-136.056716
 30
0.0
 40
1.0
100
AcDbArc
 50
3.0
 51
55.486921
  0
ARC
  5
46C
100
AcDbEntity
  8
0
370
    -3
  6
Continuous
100
AcDbCircle
 10
-259.034208
 20
-136.122534
 30
0.0
 40
1.0
100
AcDbArc
 50
55.611524
 51
177.0
  0
LINE
  5
46D
100
AcDbEntity
  8
0
370
    -3
  6
Continuous
100
AcDbLine
 10
-251.261545
 20
-140.934197
 30
0.0
 11
-251.318723
 21
-142.025219
 31
0.0
  0
ARC
  5
46E
100
AcDbEntity
  8
0
370
    -3
  6
Continuous
100
AcDbCircle
 10
-250.262915
 20
-140.986533
 30
0.0
 40
1.0
100
AcDbArc
 50
66.36857
 51
177.0
  0
ARC
  5
46F
100
AcDbEntity
  8
0
370
    -3
  6
Continuous
100
AcDbCircle
 10
-252.317352
 20
-141.972883
 30
0.0
 40
1.0
100
AcDbArc
 50
183.0
 51
357.0
  0
ARC
  5
470
100
AcDbEntity
  8
0
370
    -3
  6
Continuous
100
AcDbCircle
 10
-254.480298
 20
-138.916075
 30
0.0
 40
1.0
100
AcDbArc
 50
3.0
 51
61.335416
  0
LINE
  5
471
100
AcDbEntity
  8
0
370
    -3
  6
Continuous
100
AcDbLine
 10
-253.481668
 20
-138.863739
 30
0.0
 11
-253.315982
 21
-142.025219
 31
0.0
  0
ARC
  5
472
100
AcDbEntity
  8
0
370
    -3
  6
Continuous
100
AcDbCircle
 10
-254.649538
 20
-138.823158
 30
0.0
 40
1.0
100
AcDbArc
 50
61.128648
 51
177.0
  0
LINE
  5
473
100
AcDbEntity
  8
0
370
    -3
  6
Continuous
100
AcDbLine
 10
-255.648167
 20
-138.770822
 30
0.0
 11
-255.818723
 21
-142.025219
 31
0.0
  0
LINE
  5
474
100
AcDbEntity
  8
0
370
    -3
  6
Continuous
100
AcDbLine
 10
-258.131521
 20
-136.00438
 30
0.0
 11
-257.815982
 21
-142.025219
 31
0.0
  0
LINE
  5
475
100
AcDbEntity
  8
0
370
    -3
  6
Continuous
100
AcDbLine
 10
-260.032837
 20
-136.070198
 30
0.0
 11
-260.318723
 21
-141.525219
 31
0.0
  0
ARC
  5
476
100
AcDbEntity
  8
0
370
    -3
  6
Continuous
100
AcDbCircle
 10
-256.817352
 20
-141.972883
 30
0.0
 40
1.0
100
AcDbArc
 50
183.0
 51
357.0
  0
ARC
  5
477
100
AcDbEntity
  8
0
370
    -3
  6
Continuous
100
AcDbCircle
 10
-261.317352
 20
-141.472883
 30
0.0
 40
1.0
100
AcDbArc
 50
183.0
 51
357.0
  0
ARC
  5
478
100
AcDbEntity
  8
0
370
    -3
  6
Continuous
100
AcDbCircle
 10
-228.817352
 20
-91.972883
 30
0.0
 40
52.5
100
AcDbArc
 50
241.026551
 51
241.437166
  0
ARC
  5
479
100
AcDbEntity
  8
0
370
    -3
  6
Continuous
100
AcDbCircle
 10
-228.817352
 20
-91.972883
 30
0.0
 40
52.5
100
AcDbArc
 50
241.026551
 51
241.437166
  0
ARC
  5
47A
100
AcDbEntity
  8
0
370
    -3
  6
Continuous
100
AcDbCircle
 10
-228.817352
 20
-91.972883
 30
0.0
 40
52.5
100
AcDbArc
 50
246.336295
 51
246.888398
  0
ARC
  5
47B
100
AcDbEntity
  8
0
370
    -3
  6
Continuous
100
AcDbCircle
 10
-249.817352
 20
-141.179082
 30
0.0
 40
1.0
100
AcDbArc
 50
0.0
 51
66.888398
  0
ARC
  5
47C
100
AcDbEntity
  8
0
370
    -3
  6
Continuous
100
AcDbCircle
 10
-228.817352
 20
-91.972883
 30
0.0
 40
52.5
100
AcDbArc
 50
246.304919
 51
246.888398
  0
LINE
  5
47D
100
AcDbEntity
  8
0
370
    -3
  6
Continuous
100
AcDbLine
 10
-248.817352
 20
-144.772883
 30
0.0
 11
-248.817352
 21
-141.179082
 31
0.0
  0
ARC
  5
47E
100
AcDbEntity
  8
0
370
    -3
  6
Continuous
100
AcDbCircle
 10
-248.117352
 20
-144.772883
 30
0.0
 40
0.7
100
AcDbArc
 50
180.0
 51
270.0
  0
LINE
  5
47F
100
AcDbEntity
  8
0
370
    -3
  6
Continuous
100
AcDbLine
 10
-248.117352
 20
-145.472883
 30
0.0
 11
-228.817352
 21
-145.472883
 31
0.0
  0
LINE
  5
480
100
AcDbEntity
  8
0
370
    -3
  6
Continuous
100
AcDbLine
 10
-272.848849
 20
-121.287052
 30
0.0
 11
-278.869688
 21
-120.971513
 31
0.0
  0
LINE
  5
481
100
AcDbEntity
  8
0
370
    -3
  6
Continuous
100
AcDbLine
 10
-272.914667
 20
-123.188368
 30
0.0
 11
-278.369688
 21
-123.474254
 31
0.0
  0
ARC
  5
482
100
AcDbEntity
  8
0
370
    -3
  6
Continuous
100
AcDbCircle
 10
-278.317352
 20
-124.472883
 30
0.0
 40
1.0
100
AcDbArc
 50
93.0
 51
267.0
  0
LINE
  5
483
100
AcDbEntity
  8
0
370
    -3
  6
Continuous
100
AcDbLine
 10
-275.615291
 20
-118.803698
 30
0.0
 11
-278.869688
 21
-118.974254
 31
0.0
  0
ARC
  5
484
100
AcDbEntity
  8
0
370
    -3
  6
Continuous
100
AcDbCircle
 10
-278.817352
 20
-119.972883
 30
0.0
 40
1.0
100
AcDbArc
 50
93.0
 51
267.0
  0
LINE
  5
485
100
AcDbEntity
  8
0
370
    -3
  6
Continuous
100
AcDbLine
 10
-277.778666
 20
-114.417076
 30
0.0
 11
-278.869688
 21
-114.474254
 31
0.0
  0
ARC
  5
486
100
AcDbEntity
  8
0
370
    -3
  6
Continuous
100
AcDbCircle
 10
-278.817352
 20
-110.972883
 30
0.0
 40
1.0
100
AcDbArc
 50
110.070332
 51
267.0
  0
LINE
  5
487
100
AcDbEntity
  8
0
370
    -3
  6
Continuous
100
AcDbLine
 10
-277.951831
 20
-112.019616
 30
0.0
 11
-278.869688
 21
-111.971513
 31
0.0
  0
ARC
  5
488
100
AcDbEntity
  8
0
370
    -3
  6
Continuous
100
AcDbCircle
 10
-278.004167
 20
-113.018245
 30
0.0
 40
1.0
100
AcDbArc
 50
23.164432
 51
87.0
  0
ARC
  5
489
100
AcDbEntity
  8
0
370
    -3
  6
Continuous
100
AcDbCircle
 10
-279.503699
 20
-109.094339
 30
0.0
 40
1.0
100
AcDbArc
 50
290.070332
 51
18.664571
  0
ARC
  5
48A
100
AcDbEntity
  8
0
370
    -3
  6
Continuous
100
AcDbCircle
 10
-277.831002
 20
-113.418446
 30
0.0
 40
1.0
100
AcDbArc
 50
273.0
 51
23.63143
  0
ARC
  5
48B
100
AcDbEntity
  8
0
370
    -3
  6
Continuous
100
AcDbCircle
 10
-275.760544
 20
-66.309938
 30
0.0
 40
1.0
100
AcDbArc
 50
273.0
 51
331.335416
  0
LINE
  5
48C
100
AcDbEntity
  8
0
370
    -3
  6
Continuous
100
AcDbLine
 10
-275.708208
 20
-116.637199
 30
0.0
 11
-278.869688
 21
-116.471513
 31
0.0
  0
ARC
  5
48D
100
AcDbEntity
  8
0
370
    -3
  6
Continuous
100
AcDbCircle
 10
-275.667627
 20
-117.805069
 30
0.0
 40
1.0
100
AcDbArc
 50
273.0
 51
28.871352
  0
ARC
  5
48E
100
AcDbEntity
  8
0
370
    -3
  6
Continuous
100
AcDbCircle
 10
-278.817352
 20
-115.472883
 30
0.0
 40
1.0
100
AcDbArc
 50
93.0
 51
267.0
  0
ARC
  5
48F
100
AcDbEntity
  8
0
370
    -3
  6
Continuous
100
AcDbCircle
 10
-228.817352
 20
-91.972883
 30
0.0
 40
52.5
100
AcDbArc
 50
208.562834
 51
208.973449
  0
ARC
  5
490
100
AcDbEntity
  8
0
370
    -3
  6
Continuous
100
AcDbCircle
 10
-228.817352
 20
-91.972883
 30
0.0
 40
52.5
100
AcDbArc
 50
195.877702
 51
198.664571
  0
ARC
  5
491
100
AcDbEntity
  8
0
370
    -3
  6
Continuous
100
AcDbCircle
 10
-181.317352
 20
-91.972883
 30
0.0
 40
100.0
100
AcDbArc
 50
180.0
 51
187.79785
  0
ARC
  5
492
100
AcDbEntity
  8
0
370
    -3
  6
Continuous
100
AcDbCircle
 10
-279.897269
 20
-105.472883
 30
0.0
 40
0.5
100
AcDbArc
 50
187.79785
 51
270.0
  0
LINE
  5
493
100
AcDbEntity
  8
0
370
    -3
  6
Continuous
100
AcDbLine
 10
-279.897269
 20
-105.972883
 30
0.0
 11
-279.795289
 21
-105.972883
 31
0.0
  0
ARC
  5
494
100
AcDbEntity
  8
0
370
    -3
  6
Continuous
100
AcDbCircle
 10
-279.795289
 20
-106.472883
 30
0.0
 40
0.5
100
AcDbArc
 50
15.877702
 51
90.0
  0
ARC
  5
495
100
AcDbEntity
  8
0
370
    -3
  6
Continuous
100
AcDbCircle
 10
-272.967003
 20
-122.189739
 30
0.0
 40
1.0
100
AcDbArc
 50
273.0
 51
31.115753
  0
ARC
  5
496
100
AcDbEntity
  8
0
370
    -3
  6
Continuous
100
AcDbCircle
 10
-272.901185
 20
-122.285681
 30
0.0
 40
1.0
100
AcDbArc
 50
37.785803
 51
87.0
  0
ARC
  5
497
100
AcDbEntity
  8
0
370
    -3
  6
Continuous
100
AcDbCircle
 10
-228.817352
 20
-91.972883
 30
0.0
 40
52.5
100
AcDbArc
 50
203.136889
 51
203.663705
  0
LINE
  5
498
100
AcDbEntity
  8
0
370
    -3
  6
Continuous
100
AcDbLine
 10
-264.908717
 20
-120.171525
 30
0.0
 11
-274.941444
 21
-131.313997
 31
0.0
  0
LINE
  5
499
100
AcDbEntity
  8
0
370
    -3
  6
Continuous
100
AcDbLine
 10
-257.015994
 20
-128.064248
 30
0.0
 11
-268.158466
 21
-138.096975
 31
0.0
  0
ARC
  5
49A
100
AcDbEntity
  8
0
370
    -3
  6
Continuous
100
AcDbCircle
 10
-193.994975
 20
-135.37392
 30
0.0
 40
1.0
100
AcDbArc
 50
48.0
 51
177.0
  0
LINE
  5
49B
100
AcDbEntity
  8
0
370
    -3
  6
Continuous
100
AcDbLine
 10
-194.993604
 20
-135.321584
 30
0.0
 11
-195.318723
 21
-141.525219
 31
0.0
  0
ARC
  5
49C
100
AcDbEntity
  8
0
370
    -3
  6
Continuous
100
AcDbCircle
 10
-228.817352
 20
-91.972883
 30
0.0
 40
61.5
100
AcDbArc
 50
311.401106
 51
318.598894
  0
ARC
  5
49D
100
AcDbEntity
  8
0
370
    -3
  6
Continuous
100
AcDbCircle
 10
-188.807108
 20
-137.353831
 30
0.0
 40
1.0
100
AcDbArc
 50
228.0
 51
311.401106
  0
ARC
  5
49E
100
AcDbEntity
  8
0
370
    -3
  6
Continuous
100
AcDbCircle
 10
-185.416316
 20
-126.795261
 30
0.0
 40
1.0
100
AcDbArc
 50
93.0
 51
222.0
  0
LINE
  5
49F
100
AcDbEntity
  8
0
370
    -3
  6
Continuous
100
AcDbLine
 10
-185.468652
 20
-125.796632
 30
0.0
 11
-179.265017
 21
-125.471513
 31
0.0
  0
ARC
  5
4A0
100
AcDbEntity
  8
0
370
    -3
  6
Continuous
100
AcDbCircle
 10
-183.436405
 20
-131.983128
 30
0.0
 40
1.0
100
AcDbArc
 50
318.598894
 51
42.0
  0
ARC
  5
4A1
100
AcDbEntity
  8
0
370
    -3
  6
Continuous
100
AcDbCircle
 10
-198.504555
 20
-136.056716
 30
0.0
 40
1.0
100
AcDbArc
 50
124.513079
 51
177.0
  0
ARC
  5
4A2
100
AcDbEntity
  8
0
370
    -3
  6
Continuous
100
AcDbCircle
 10
-198.600497
 20
-136.122534
 30
0.0
 40
1.0
100
AcDbArc
 50
3.0
 51
124.388476
  0
LINE
  5
4A3
100
AcDbEntity
  8
0
370
    -3
  6
Continuous
100
AcDbLine
 10
-206.37316
 20
-140.934197
 30
0.0
 11
-206.315982
 21
-142.025219
 31
0.0
  0
ARC
  5
4A4
100
AcDbEntity
  8
0
370
    -3
  6
Continuous
100
AcDbCircle
 10
-207.37179
 20
-140.986533
 30
0.0
 40
1.0
100
AcDbArc
 50
3.0
 51
113.63143
  0
ARC
  5
4A5
100
AcDbEntity
  8
0
370
    -3
  6
Continuous
100
AcDbCircle
 10
-205.317352
 20
-141.972883
 30
0.0
 40
1.0
100
AcDbArc
 50
183.0
 51
357.0
  0
ARC
  5
4A6
100
AcDbEntity
  8
0
370
    -3
  6
Continuous
100
AcDbCircle
 10
-203.154407
 20
-138.916075
 30
0.0
 40
1.0
100
AcDbArc
 50
118.664584
 51
177.0
  0
LINE
  5
4A7
100
AcDbEntity
  8
0
370
    -3
  6
Continuous
100
AcDbLine
 10
-204.153037
 20
-138.863739
 30
0.0
 11
-204.318723
 21
-142.025219
 31
0.0
  0
ARC
  5
4A8
100
AcDbEntity
  8
0
370
    -3
  6
Continuous
100
AcDbCircle
 10
-202.985167
 20
-138.823158
 30
0.0
 40
1.0
100
AcDbArc
 50
3.0
 51
118.871352
  0
LINE
  5
4A9
100
AcDbEntity
  8
0
370
    -3
  6
Continuous
100
AcDbLine
 10
-201.986538
 20
-138.770822
 30
0.0
 11
-201.815982
 21
-142.025219
 31
0.0
  0
LINE
  5
4AA
100
AcDbEntity
  8
0
370
    -3
  6
Continuous
100
AcDbLine
 10
-199.503184
 20
-136.00438
 30
0.0
 11
-199.818723
 21
-142.025219
 31
0.0
  0
LINE
  5
4AB
100
AcDbEntity
  8
0
370
    -3
  6
Continuous
100
AcDbLine
 10
-197.601868
 20
-136.070198
 30
0.0
 11
-197.315982
 21
-141.525219
 31
0.0
  0
ARC
  5
4AC
100
AcDbEntity
  8
0
370
    -3
  6
Continuous
100
AcDbCircle
 10
-200.817352
 20
-141.972883
 30
0.0
 40
1.0
100
AcDbArc
 50
183.0
 51
357.0
  0
ARC
  5
4AD
100
AcDbEntity
  8
0
370
    -3
  6
Continuous
100
AcDbCircle
 10
-196.317352
 20
-141.472883
 30
0.0
 40
1.0
100
AcDbArc
 50
183.0
 51
357.0
  0
ARC
  5
4AE
100
AcDbEntity
  8
0
370
    -3
  6
Continuous
100
AcDbCircle
 10
-228.817352
 20
-91.972883
 30
0.0
 40
52.5
100
AcDbArc
 50
298.562834
 51
298.973449
  0
ARC
  5
4AF
100
AcDbEntity
  8
0
370
    -3
  6
Continuous
100
AcDbCircle
 10
-228.817352
 20
-91.972883
 30
0.0
 40
52.5
100
AcDbArc
 50
298.562834
 51
298.973449
  0
ARC
  5
4B0
100
AcDbEntity
  8
0
370
    -3
  6
Continuous
100
AcDbCircle
 10
-228.817352
 20
-91.972883
 30
0.0
 40
52.5
100
AcDbArc
 50
293.111602
 51
293.663705
  0
ARC
  5
4B1
100
AcDbEntity
  8
0
370
    -3
  6
Continuous
100
AcDbCircle
 10
-207.817352
 20
-141.179082
 30
0.0
 40
1.0
100
AcDbArc
 50
113.111602
 51
180.0
  0
ARC
  5
4B2
100
AcDbEntity
  8
0
370
    -3
  6
Continuous
100
AcDbCircle
 10
-228.817352
 20
-91.972883
 30
0.0
 40
52.5
100
AcDbArc
 50
293.111602
 51
293.695081
  0
LINE
  5
4B3
100
AcDbEntity
  8
0
370
    -3
  6
Continuous
100
AcDbLine
 10
-208.817352
 20
-144.772883
 30
0.0
 11
-208.817352
 21
-141.179082
 31
0.0
  0
ARC
  5
4B4
100
AcDbEntity
  8
0
370
    -3
  6
Continuous
100
AcDbCircle
 10
-209.517352
 20
-144.772883
 30
0.0
 40
0.7
100
AcDbArc
 50
270.0
 51
0.0
  0
LINE
  5
4B5
100
AcDbEntity
  8
0
370
    -3
  6
Continuous
100
AcDbLine
 10
-209.517352
 20
-145.472883
 30
0.0
 11
-228.817352
 21
-145.472883
 31
0.0
  0
LINE
  5
4B6
100
AcDbEntity
  8
0
370
    -3
  6
Continuous
100
AcDbLine
 10
-184.785856
 20
-121.287052
 30
0.0
 11
-178.765017
 21
-120.971513
 31
0.0
  0
LINE
  5
4B7
100
AcDbEntity
  8
0
370
    -3
  6
Continuous
100
AcDbLine
 10
-184.720038
 20
-123.188368
 30
0.0
 11
-179.265017
 21
-123.474254
 31
0.0
  0
ARC
  5
4B8
100
AcDbEntity
  8
0
370
    -3
  6
Continuous
100
AcDbCircle
 10
-179.317352
 20
-124.472883
 30
0.0
 40
1.0
100
AcDbArc
 50
273.0
 51
87.0
  0
LINE
  5
4B9
100
AcDbEntity
  8
0
370
    -3
  6
Continuous
100
AcDbLine
 10
-182.019414
 20
-118.803698
 30
0.0
 11
-178.765017
 21
-118.974254
 31
0.0
  0
ARC
  5
4BA
100
AcDbEntity
  8
0
370
    -3
  6
Continuous
100
AcDbCircle
 10
-178.817352
 20
-119.972883
 30
0.0
 40
1.0
100
AcDbArc
 50
273.0
 51
87.0
  0
LINE
  5
4BB
100
AcDbEntity
  8
0
370
    -3
  6
Continuous
100
AcDbLine
 10
-179.856039
 20
-114.417076
 30
0.0
 11
-178.765017
 21
-114.474254
 31
0.0
  0
ARC
  5
4BC
100
AcDbEntity
  8
0
370
    -3
  6
Continuous
100
AcDbCircle
 10
-178.817352
 20
-110.972883
 30
0.0
 40
1.0
100
AcDbArc
 50
273.0
 51
69.929668
  0
LINE
  5
4BD
100
AcDbEntity
  8
0
370
    -3
  6
Continuous
100
AcDbLine
 10
-179.682874
 20
-112.019616
 30
0.0
 11
-178.765017
 21
-111.971513
 31
0.0
  0
ARC
  5
4BE
100
AcDbEntity
  8
0
370
    -3
  6
Continuous
100
AcDbCircle
 10
-179.630538
 20
-113.018245
 30
0.0
 40
1.0
100
AcDbArc
 50
93.0
 51
156.835568
  0
ARC
  5
4BF
100
AcDbEntity
  8
0
370
    -3
  6
Continuous
100
AcDbCircle
 10
-178.131006
 20
-109.094339
 30
0.0
 40
1.0
100
AcDbArc
 50
161.335429
 51
249.929668
  0
ARC
  5
4C0
100
AcDbEntity
  8
0
370
    -3
  6
Continuous
100
AcDbCircle
 10
-179.803703
 20
-113.418446
 30
0.0
 40
1.0
100
AcDbArc
 50
156.36857
 51
267.0
  0
ARC
  5
4C1
100
AcDbEntity
  8
0
370
    -3
  6
Continuous
100
AcDbCircle
 10
-181.874161
 20
-117.635829
 30
0.0
 40
1.0
100
AcDbArc
 50
93.0
 51
151.335416
  0
LINE
  5
4C2
100
AcDbEntity
  8
0
370
    -3
  6
Continuous
100
AcDbLine
 10
-181.926497
 20
-116.637199
 30
0.0
 11
-178.765017
 21
-116.471513
 31
0.0
  0
ARC
  5
4C3
100
AcDbEntity
  8
0
370
    -3
  6
Continuous
100
AcDbCircle
 10
-181.967078
 20
-117.805069
 30
0.0
 40
1.0
100
AcDbArc
 50
151.128648
 51
267.0
  0
ARC
  5
4C4
100
AcDbEntity
  8
0
370
    -3
  6
Continuous
100
AcDbCircle
 10
-178.817352
 20
-115.472883
 30
0.0
 40
1.0
100
AcDbArc
 50
273.0
 51
87.0
  0
ARC
  5
4C5
100
AcDbEntity
  8
0
370
    -3
  6
Continuous
100
AcDbCircle
 10
-228.817352
 20
-91.972883
 30
0.0
 40
52.5
100
AcDbArc
 50
331.026551
 51
331.437166
  0
ARC
  5
4C6
100
AcDbEntity
  8
0
370
    -3
  6
Continuous
100
AcDbCircle
 10
-228.817352
 20
-91.972883
 30
0.0
 40
52.5
100
AcDbArc
 50
341.335429
 51
344.122298
  0
ARC
  5
4C7
100
AcDbEntity
  8
0
370
    -3
  6
Continuous
100
AcDbCircle
 10
-276.317352
 20
-91.972883
 30
0.0
 40
100.0
100
AcDbArc
 50
352.20215
 51
0.0
  0
ARC
  5
4C8
100
AcDbEntity
  8
0
370
    -3
  6
Continuous
100
AcDbCircle
 10
-177.737436
 20
-105.472883
 30
0.0
 40
0.5
100
AcDbArc
 50
270.0
 51
352.20215
  0
LINE
  5
4C9
100
AcDbEntity
  8
0
370
    -3
  6
Continuous
100
AcDbLine
 10
-177.737436
 20
-105.972883
 30
0.0
 11
-177.839416
 21
-105.972883
 31
0.0
  0
ARC
  5
4CA
100
AcDbEntity
  8
0
370
    -3
  6
Continuous
100
AcDbCircle
 10
-177.839416
 20
-106.472883
 30
0.0
 40
0.5
100
AcDbArc
 50
90.0
 51
164.122298
  0
ARC
  5
4CB
100
AcDbEntity
  8
0
370
    -3
  6
Continuous
100
AcDbCircle
 10
-184.667702
 20
-122.189739
 30
0.0
 40
1.0
100
AcDbArc
 50
148.884247
 51
267.0
  0
ARC
  5
4CC
100
AcDbEntity
  8
0
370
    -3
  6
Continuous
100
AcDbCircle
 10
-184.73352
 20
-122.285681
 30
0.0
 40
1.0
100
AcDbArc
 50
93.0
 51
142.214197
  0
ARC
  5
4CD
100
AcDbEntity
  8
0
370
    -3
  6
Continuous
100
AcDbCircle
 10
-228.817352
 20
-91.972883
 30
0.0
 40
52.5
100
AcDbArc
 50
336.336295
 51
336.863111
  0
LINE
  5
4CE
100
AcDbEntity
  8
0
370
    -3
  6
Continuous
100
AcDbLine
 10
-192.725988
 20
-120.171525
 30
0.0
 11
-182.693261
 21
-131.313997
 31
0.0
  0
LINE
  5
4CF
100
AcDbEntity
  8
0
370
    -3
  6
Continuous
100
AcDbLine
 10
-200.618711
 20
-128.064248
 30
0.0
 11
-189.476239
 21
-138.096975
 31
0.0
  0
ARC
  5
4D0
100
AcDbEntity
  8
0
370
    -3
  6
Continuous
100
AcDbCircle
 10
-275.760544
 20
-117.635829
 30
0.0
 40
1.0
100
AcDbArc
 50
28.664584
 51
87.0
  0
INSERT
  5
4DC
100
AcDbEntity
  8
0
100
AcDbBlockReference
  2
ZU_SYM__USERS_HOME_SYMBOL_STD_SYM_B01_00008-1
 10
-268.415332
 20
-131.570863
 30
0.0
 41
-1.0
 50
90.0
  0
INSERT
  5
4E8
100
AcDbEntity
  8
0
100
AcDbBlockReference
  2
ZU_SYM__USERS_HOME_SYMBOL_STD_SYM_B01_00009-1
 10
-268.415332
 20
-52.374904
 30
0.0
 50
90.0
  0
INSERT
  5
4F4
100
AcDbEntity
  8
0
100
AcDbBlockReference
  2
ZU_SYM__USERS_HOME_SYMBOL_STD_SYM_B01_00010-1
 10
-189.219373
 20
-131.570863
 30
0.0
 50
270.0
  0
INSERT
  5
500
100
AcDbEntity
  8
0
100
AcDbBlockReference
  2
ZU_SYM__USERS_HOME_SYMBOL_STD_SYM_B01_00011-1
 10
-189.219373
 20
-52.374904
 30
0.0
 41
-1.0
 50
270.0
  0
LINE
  5
501
100
AcDbEntity
  8
0
370
    -3
  6
Continuous
100
AcDbLine
 10
-165.816955
 20
-59.472883
 30
0.0
 11
-170.817352
 21
-59.472883
 31
0.0
  0
LINE
  5
502
100
AcDbEntity
  8
0
370
    -3
  6
Continuous
100
AcDbLine
 10
-165.816955
 20
-154.472883
 30
0.0
 11
-170.817352
 21
-154.472883
 31
0.0
  0
LINE
  5
503
100
AcDbEntity
  8
0
370
    -3
  6
Continuous
100
AcDbLine
 10
-291.817352
 20
-154.472883
 30
0.0
 11
-286.817352
 21
-154.472883
 31
0.0
  0
LINE
  5
504
100
AcDbEntity
  8
0
370
    -3
  6
Continuous
100
AcDbLine
 10
-291.817352
 20
-59.472883
 30
0.0
 11
-286.817352
 21
-59.472883
 31
0.0
  0
LINE
  5
505
100
AcDbEntity
  8
0
370
    -3
  6
CENTER
100
AcDbLine
 10
-105.763965
 20
-106.972883
 30
0.0
 11
-300.186767
 21
-106.972883
 31
0.0
  0
LINE
  5
506
100
AcDbEntity
  8
0
370
    -3
  6
Continuous
100
AcDbLine
 10
-182.817352
 20
-210.73517
 30
0.0
 11
-277.317352
 21
-209.085666
 31
0.0
  0
LINE
  5
507
100
AcDbEntity
  8
0
370
    -3
  6
CENTER
100
AcDbLine
 10
-228.817352
 20
4.326988
 30
0.0
 11
-228.817352
 21
-215.373193
 31
0.0
  0
LINE
  5
508
100
AcDbEntity
  8
0
370
    -3
  6
Continuous
100
AcDbLine
 10
-170.816955
 20
-102.538989
 30
0.0
 11
-170.816955
 21
-34.962406
 31
0.0
  0
LINE
  5
509
100
AcDbEntity
  8
0
370
    -3
  6
Continuous
100
AcDbLine
 10
-165.816955
 20
-106.744211
 30
0.0
 11
-165.816955
 21
-59.472883
 31
0.0
  0
LINE
  5
50A
100
AcDbEntity
  8
0
370
    -3
  6
Continuous
100
AcDbLine
 10
-165.816955
 20
-106.744211
 30
0.0
 11
-165.816955
 21
-154.472883
 31
0.0
  0
LINE
  5
50B
100
AcDbEntity
  8
0
370
    -3
  6
Continuous
100
AcDbLine
 10
-170.816955
 20
-143.406465
 30
0.0
 11
-170.816955
 21
-210.026091
 31
0.0
  0
LINE
  5
50C
100
AcDbEntity
  8
0
370
    -3
  6
Continuous
100
AcDbLine
 10
-170.816955
 20
-210.026091
 30
0.0
 11
-171.316803
 21
-210.53474
 31
0.0
  0
LINE
  5
50D
100
AcDbEntity
  8
0
370
    -3
  6
Continuous
100
AcDbLine
 10
-170.816955
 20
-34.962406
 30
0.0
 11
-182.817352
 21
-34.752938
 31
0.0
  0
LINE
  5
50E
100
AcDbEntity
  8
0
370
    -3
  6
Continuous
100
AcDbLine
 10
-182.817352
 20
-34.752938
 30
0.0
 11
-182.817352
 21
-47.657712
 31
0.0
  0
LINE
  5
50F
100
AcDbEntity
  8
0
370
    -3
  6
Continuous
100
AcDbLine
 10
-286.817352
 20
-36.402442
 30
0.0
 11
-286.817352
 21
-102.538363
 31
0.0
  0
LINE
  5
510
100
AcDbEntity
  8
0
370
    -3
  6
Continuous
100
AcDbLine
 10
-291.817352
 20
-59.472883
 30
0.0
 11
-291.817352
 21
-154.472883
 31
0.0
  0
LINE
  5
511
100
AcDbEntity
  8
0
370
    -3
  6
Continuous
100
AcDbLine
 10
-277.317352
 20
-36.402442
 30
0.0
 11
-286.817352
 21
-36.402442
 31
0.0
  0
LINE
  5
512
100
AcDbEntity
  8
0
370
    -3
  6
Continuous
100
AcDbLine
 10
-286.817352
 20
-143.407091
 30
0.0
 11
-286.817352
 21
-209.085979
 31
0.0
  0
LINE
  5
513
100
AcDbEntity
  8
0
370
    -3
  6
Continuous
100
AcDbLine
 10
-277.317352
 20
-209.085979
 30
0.0
 11
-286.817352
 21
-209.085979
 31
0.0
  0
LINE
  5
514
100
AcDbEntity
  8
0
370
    -3
  6
Continuous
100
AcDbLine
 10
-182.817352
 20
-172.432142
 30
0.0
 11
-182.817352
 21
-210.735483
 31
0.0
  0
LINE
  5
515
100
AcDbEntity
  8
0
370
    -3
  6
Continuous
100
AcDbLine
 10
-171.316803
 20
-210.53474
 30
0.0
 11
-182.817352
 21
-210.735483
 31
0.0
  0
LINE
  5
516
100
AcDbEntity
  8
0
370
    -3
  6
Continuous
100
AcDbLine
 10
-108.817558
 20
-87.972883
 30
0.0
 11
-108.817558
 21
-122.172883
 31
0.0
  0
ARC
  5
517
100
AcDbEntity
  8
0
370
    -3
  6
Continuous
100
AcDbCircle
 10
-109.617558
 20
-122.172883
 30
0.0
 40
0.8
100
AcDbArc
 50
270.0
 51
0.0
  0
ARC
  5
518
100
AcDbEntity
  8
0
370
    -3
  6
Continuous
100
AcDbCircle
 10
-109.617558
 20
-91.772883
 30
0.0
 40
0.8
100
AcDbArc
 50
0.0
 51
90.0
  0
LINE
  5
519
100
AcDbEntity
  8
0
370
    -3
  6
Continuous
100
AcDbLine
 10
-163.417489
 20
-122.972883
 30
0.0
 11
-109.617558
 21
-122.972883
 31
0.0
  0
LINE
  5
51A
100
AcDbEntity
  8
0
370
    -3
  6
Continuous
100
AcDbLine
 10
-163.417489
 20
-90.972883
 30
0.0
 11
-109.617558
 21
-90.972883
 31
0.0
  0
LINE
  5
51B
100
AcDbEntity
  8
0
370
    -3
  6
Continuous
100
AcDbLine
 10
-148.817558
 20
-87.972883
 30
0.0
 11
-108.817558
 21
-87.972883
 31
0.0
  0
LINE
  5
51C
100
AcDbEntity
  8
0
370
    -3
  6
Continuous
100
AcDbLine
 10
-148.817558
 20
-87.972883
 30
0.0
 11
-148.817558
 21
-90.972883
 31
0.0
  0
LINE
  5
51D
100
AcDbEntity
  8
0
370
    -3
  6
Continuous
100
AcDbLine
 10
-163.817489
 20
-90.372883
 30
0.0
 11
-163.817489
 21
-123.572883
 31
0.0
  0
ARC
  5
51E
100
AcDbEntity
  8
0
370
    -3
  6
Continuous
100
AcDbCircle
 10
-163.417489
 20
-123.372883
 30
0.0
 40
0.4
100
AcDbArc
 50
90.0
 51
180.0
  0
ARC
  5
51F
100
AcDbEntity
  8
0
370
    -3
  6
Continuous
100
AcDbCircle
 10
-164.217489
 20
-123.572883
 30
0.0
 40
0.4
100
AcDbArc
 50
270.0
 51
0.0
  0
LINE
  5
520
100
AcDbEntity
  8
0
370
    -3
  6
Continuous
100
AcDbLine
 10
-165.817352
 20
-123.972883
 30
0.0
 11
-164.217489
 21
-123.972883
 31
0.0
  0
ARC
  5
521
100
AcDbEntity
  8
0
370
    -3
  6
Continuous
100
AcDbCircle
 10
-163.417489
 20
-90.572883
 30
0.0
 40
0.4
100
AcDbArc
 50
180.0
 51
270.0
  0
ARC
  5
522
100
AcDbEntity
  8
0
370
    -3
  6
Continuous
100
AcDbCircle
 10
-164.217489
 20
-90.372883
 30
0.0
 40
0.4
100
AcDbArc
 50
0.0
 51
90.0
  0
LINE
  5
523
100
AcDbEntity
  8
0
370
    -3
  6
Continuous
100
AcDbLine
 10
-165.817352
 20
-89.972883
 30
0.0
 11
-164.217489
 21
-89.972883
 31
0.0
  0
ARC
  5
524
100
AcDbEntity
  8
0
370
    -3
  6
Continuous
100
AcDbCircle
 10
11.782648
 20
-122.744054
 30
0.0
 40
300.6
100
AcDbArc
 50
186.058951
 51
186.613011
  0
ARC
  5
525
100
AcDbEntity
  8
0
370
    -3
  6
Continuous
100
AcDbCircle
 10
-469.417352
 20
-122.744054
 30
0.0
 40
300.6
100
AcDbArc
 50
353.387647
 51
353.941049
  0
LINE
  5
526
100
AcDbEntity
  8
0
370
    -3
  6
CENTER
100
AcDbLine
 10
-260.891116
 20
-91.972883
 30
0.0
 11
-196.602067
 21
-91.972883
 31
0.0
  0
LINE
  5
527
100
AcDbEntity
  8
0
370
    -3
  6
Continuous
100
AcDbLine
 10
286.182667
 20
131.17305
 30
0.0
 11
286.182667
 21
126.173447
 31
0.0
  0
LINE
  5
528
100
AcDbEntity
  8
0
370
    -3
  6
Continuous
100
AcDbLine
 10
286.182667
 20
252.173845
 30
0.0
 11
286.182667
 21
247.173447
 31
0.0
  0
ENDSEC
  0
SECTION
  2
OBJECTS
  0
DICTIONARY
  5
19
100
AcDbDictionary
280
     0
281
     1
  3
ACAD_GROUP
350
1A
  3
ACAD_MLINESTYLE
350
1B
  3
ACAD_LAYOUT
350
1E
  3
ACAD_PLOTSETTINGS
350
22
  3
ACAD_PLOTSTYLENAME
350
1F
  3
ACAD_WIPEOUT_VARS
350
23
  3
DWGPROPS
350
529
  0
DICTIONARY
  5
1A
102
{ACAD_REACTORS
330
19
102
}
100
AcDbDictionary
280
     0
281
     1
  0
DICTIONARY
  5
1B
102
{ACAD_REACTORS
330
19
102
}
100
AcDbDictionary
280
     0
281
     1
  3
Standard
350
1C
  0
MLINESTYLE
  5
1C
102
{ACAD_REACTORS
330
1B
102
}
100
AcDbMlineStyle
  2
Standard
 70
     0
  3

 62
     0
 51
90.0
 52
90.0
 71
     2
 49
0.5
 62
   256
  6
ByLayer
 49
-0.5
 62
   256
  6
ByLayer
  0
ACDBDICTIONARYWDFLT
  5
1F
102
{ACAD_REACTORS
330
19
102
}
100
AcDbDictionary
281
     1
  3
Normal
350
1D
100
AcDbDictionaryWithDefault
340
1D
  0
ACDBPLACEHOLDER
  5
1D
102
{ACAD_REACTORS
330
1F
102
}
  0
LAYOUT
  5
20
102
{ACAD_REACTORS
330
1E
102
}
100
AcDbPlotSettings
  1

  2

  4

  6

 40
0.0
 41
0.0
 42
0.0
 43
0.0
 44
0.0
 45
0.0
 46
0.0
 47
0.0
 48
0.0
 49
0.0
140
0.0
141
0.0
142
1.0
143
1.0
 70
  1024
 72
     0
 73
     0
 74
     0
  7

 75
     0
147
1.0
148
0.0
149
0.0
100
AcDbLayout
  1
Model
 70
     0
 71
     0
 10
0.0
 20
0.0
 11
0.0
 21
0.0
 12
0.0
 22
0.0
 32
0.0
 14
0.0
 24
0.0
 34
0.0
 15
0.0
 25
0.0
 35
0.0
146
0.0
 13
0.0
 23
0.0
 33
0.0
 16
0.0
 26
0.0
 36
0.0
 17
0.0
 27
0.0
 37
0.0
 76
     0
330
A
331
0
345
0
346
0
  0
LAYOUT
  5
21
102
{ACAD_REACTORS
330
1E
102
}
100
AcDbPlotSettings
  1

  2

  4

  6

 40
0.0
 41
0.0
 42
0.0
 43
0.0
 44
0.0
 45
0.0
 46
0.0
 47
0.0
 48
0.0
 49
0.0
140
0.0
141
0.0
142
1.0
143
1.0
 70
     0
 72
     0
 73
     0
 74
     0
  7

 75
     0
147
1.0
148
0.0
149
0.0
100
AcDbLayout
  1
Layout1
 70
     0
 71
     0
 10
0.0
 20
0.0
 11
0.0
 21
0.0
 12
0.0
 22
0.0
 32
0.0
 14
0.0
 24
0.0
 34
0.0
 15
0.0
 25
0.0
 35
0.0
146
0.0
 13
0.0
 23
0.0
 33
0.0
 16
0.0
 26
0.0
 36
0.0
 17
0.0
 27
0.0
 37
0.0
 76
     0
330
B
331
0
345
0
346
0
  0
DICTIONARY
  5
1E
102
{ACAD_REACTORS
330
19
102
}
100
AcDbDictionary
280
     0
281
     1
  3
Layout1
350
21
  3
Model
350
20
  0
DICTIONARY
  5
22
102
{ACAD_REACTORS
330
19
102
}
100
AcDbDictionary
280
     0
281
     1
  0
WIPEOUTVARIABLES
  5
23
100
AcDbWipeoutVariables
 70
     1
  0
XRECORD
  5
529
100
AcDbXrecord
280
     1
  1
DWGPROPS COOKIE
  2

  3

  4

  6

  7

  8
TB24944
  9

300
=
301
=
302
=
303
=
304
=
305
=
306
=
307
=
308
=
309
=
 40
0.0
 41
2455965.592998
 42
2455965.592998
  1

 90
        0
  0
ENDSEC
  0
EOF
